  0
SECTION
  2
HEADER
  9
$EXTMAX
 10
420.0
 20
297.0
 30
0.0
  9
$EXTMIN
 10
0.0
 20
0.0
 30
0.0
  9
$LIMMIN
 10
0.0
 20
0.0
  9
$LIMMAX
 10
420.0
 20
297.0
  9
$VIEWCTR
 10
210.0
 20
148.5
  9
$VIEWSIZE
 40
297.0
  9
$CLAYER
  8
0
  9
$LTSCALE
 40
23.1
  9
$CELTYPE
  6
BYLAYER
  9
$DIMSCALE
 40
1.0
  9
$DIMASZ
 40
3.5
  9
$DIMEXO
 40
1.0
  9
$DIMDLI
 40
15.96
  9
$DIMEXE
 40
2.0
  9
$DIMCEN
 40
3.78
  9
$DIMLFAC
 40
1.0
  9
$DIMBLK
  1
_FILLED
  9
$DIMTXT
 40
3.5
  9
$PDMODE
 70
3
  9
$PDSIZE
 40
0.3125
  9
$TILEMODE
 70
1
  0
ENDSEC
  0
SECTION
  2
TABLES
  0
TABLE
  2
LTYPE
 70
6
  0
LTYPE
  2
BYBLOCK
 70
0
  3

 72
65
 73
0
 40
0.0
  0
LTYPE
  2
BYLAYER
 70
0
  3

 72
65
 73
0
 40
0.0
  0
LTYPE
  2
CONTINUOUS
 70
64
  3
Solid line
 72
65
 73
0
 40
0.0
  0
LTYPE
  2
CENTER
 70
64
  3
____ _ ____ _ ____ _ ____ _ ____ _ ____ _ ____
 72
65
 73
4
 40
0.6
 49
0.375
 49
-0.075
 49
0.075
 49
-0.075
  0
LTYPE
  2
HIDDEN
 70
64
  3
- - - - - - - - - - - - - - - - - - - -
 72
65
 73
2
 40
0.2
 49
0.1
 49
-0.1
  0
LTYPE
  2
PHANTOM
 70
64
  3
_____ _ _ _____ _ _ _____ _ _ _____
 72
65
 73
6
 40
0.8
 49
0.45
 49
-0.05
 49
0.1
 49
-0.05
 49
0.1
 49
-0.05
  0
LTYPE
  2
DOT
 70
64
  3
. . . . . . . . . . . . . . . . . . . .
 72
65
 73
2
 40
0.2
 49
0.1
 49
-0.1
  0
LTYPE
  2
DASHED
 70
64
  3
- - - - - - - - - - - - - - - - - - - -
 72
65
 73
2
 40
0.2
 49
0.1
 49
-0.1
  0
ENDTAB
  0
TABLE
  2
LAYER
 70
36
  0
LAYER
  2
0
 70
0
 62
7
  6
CONTINUOUS
  0
LAYER
  2
DEFAULT_1
 70
0
 62
7
  6
CENTER
  0
LAYER
  2
DEFAULT_2
 70
0
 62
8
  6
HIDDEN
  0
LAYER
  2
DEFAULT_3
 70
0
 62
7
  6
PHANTOM
  0
LAYER
  2
00_CURVE
 70
0
 62
7
  6
CONTINUOUS
  0
LAYER
  2
01_SURFACE
 70
0
 62
7
  6
CONTINUOUS
  0
LAYER
  2
02_QUILT
 70
0
 62
7
  6
CONTINUOUS
  0
LAYER
  2
03_COPY_GEOM_FEAT
 70
0
 62
7
  6
CONTINUOUS
  0
LAYER
  2
10_SKELETON
 70
0
 62
7
  6
CONTINUOUS
  0
LAYER
  2
11_EMNER
 70
0
 62
7
  6
CONTINUOUS
  0
LAYER
  2
12_WORKPIECE
 70
0
 62
7
  6
CONTINUOUS
  0
LAYER
  2
13_KOMPONENTER
 70
0
 62
7
  6
CONTINUOUS
  0
LAYER
  2
1_AXIS
 70
0
 62
7
  6
CONTINUOUS
  0
LAYER
  2
1_DATUMPLANE
 70
0
 62
7
  6
CONTINUOUS
  0
LAYER
  2
1_DATUM_PLANES
 70
0
 62
7
  6
CONTINUOUS
  0
LAYER
  2
2_FEATURE
 70
0
 62
7
  6
CONTINUOUS
  0
LAYER
  2
6_DIM
 70
0
 62
7
  6
CONTINUOUS
  0
LAYER
  2
AXES
 70
0
 62
7
  6
CONTINUOUS
  0
LAYER
  2
CSYS
 70
0
 62
7
  6
CONTINUOUS
  0
LAYER
  2
CURVE
 70
0
 62
7
  6
CONTINUOUS
  0
LAYER
  2
CURVES
 70
0
 62
7
  6
CONTINUOUS
  0
LAYER
  2
PLANES
 70
0
 62
7
  6
CONTINUOUS
  0
LAYER
  2
QUILT
 70
0
 62
7
  6
CONTINUOUS
  0
LAYER
  2
SURFACE
 70
0
 62
7
  6
CONTINUOUS
  0
LAYER
  2
XSEC_DATUMS
 70
0
 62
7
  6
CONTINUOUS
  0
ENDTAB
  0
TABLE
  2
STYLE
 70
1
  0
STYLE
  2
STANDARD
 70
0
 40
0.0
 41
0.8
 50
0.0
 71
0
 42
0.2
  3
txt
  4

  0
STYLE
  2
TEXTSTYLE_1
 70
0
 40
0.0
 41
0.8
 50
0.0
 71
0
 42
0.2
  3
gdt
  4

  0
STYLE
  2
TEXTSTYLE_2
 70
0
 40
0.0
 41
0.6
 50
0.0
 71
0
 42
0.2
  3
txt
  4

  0
STYLE
  2
TEXTSTYLE_3
 70
0
 40
0.0
 41
1.0
 50
0.0
 71
0
 42
0.2
  3
ftb_____.ttf
  4

  0
STYLE
  2
TEXTSTYLE_4
 70
0
 40
0.0
 41
1.0
 50
0.0
 71
0
 42
0.2
  3
fti_____.ttf
  4

  0
STYLE
  2
TEXTSTYLE_5
 70
0
 40
0.0
 41
1.0
 50
0.0
 71
0
 42
0.2
  3
frutiger light.ttf
  4

  0
STYLE
  2
TEXTSTYLE_6
 70
0
 40
0.0
 41
0.7
 50
0.0
 71
0
 42
0.2
  3
txt
  4

  0
STYLE
  2
TEXTSTYLE_7
 70
0
 40
0.0
 41
0.8
 50
0.0
 71
0
 42
0.2
  3
txt
  4

  0
ENDTAB
  0
ENDSEC
  0
SECTION
  2
BLOCKS
  0
BLOCK
  8
0
 62
2
  6
CONTINUOUS
  2
SYMBOL_5_BL1
 70
64
 10
382.3920721743
 20
35.81661148
  0
TEXT
  8
0
 62
7
  6
CONTINUOUS
 10
373.4503571828
 20
30.9093678571
  7
TEXTSTYLE_4
 40
1.0655737705
  1
The brand for plastic modular belts and chains
 41
1.0
 72
0
  0
LINE
  8
0
 62
7
  6
CONTINUOUS
 10
358.3701405634
 20
36.3903819718
 11
358.3701405634
 21
34.2592344308
  0
LINE
  8
0
 62
7
  6
CONTINUOUS
 10
358.6592030565
 20
31.2683031351
 11
358.6592030565
 21
31.3650941944
  0
LINE
  8
0
 62
7
  6
CONTINUOUS
 10
358.3701405634
 20
31.332830508
 11
358.4279530651
 21
31.1392483894
  0
LINE
  8
0
 62
7
  6
CONTINUOUS
 10
359.7635831863
 20
34.1772672177
 11
359.7635831863
 21
36.3903819718
  0
LINE
  8
0
 62
7
  6
CONTINUOUS
 10
360.6826405082
 20
32.3330049227
 11
360.6826405082
 21
30.81661148
  0
LINE
  8
0
 62
7
  6
CONTINUOUS
 10
360.9717030634
 20
30.81661148
 11
360.9717030634
 21
31.5586763581
  0
LINE
  8
0
 62
7
  6
CONTINUOUS
 10
360.9717030634
 20
31.6877311038
 11
360.9717030634
 21
32.3330049227
  0
LINE
  8
0
 62
7
  6
CONTINUOUS
 10
358.4279530651
 20
31.5264126717
 11
358.3701405634
 21
31.332830508
  0
LINE
  8
0
 62
7
  6
CONTINUOUS
 10
358.7748280496
 20
31.106984703
 11
358.6592030565
 21
31.2683031351
  0
LINE
  8
0
 62
7
  6
CONTINUOUS
 10
359.8732656185
 20
31.623203731
 11
359.9310780634
 21
31.5264126717
  0
LINE
  8
0
 62
7
  6
CONTINUOUS
 10
360.2201406185
 20
31.5264126717
 11
360.1623280082
 21
31.6554674174
  0
LINE
  8
0
 62
7
  6
CONTINUOUS
 10
361.648829088
 20
36.3903819718
 11
361.648829088
 21
34.5871032833
  0
LINE
  8
0
 62
7
  6
CONTINUOUS
 10
361.648829088
 20
33.2756278735
 11
361.648829088
 21
32.6198901686
  0
LINE
  8
0
 62
7
  6
CONTINUOUS
 10
362.0123280634
 20
31.4618852989
 11
362.0123280634
 21
30.81661148
  0
LINE
  8
0
 62
7
  6
CONTINUOUS
 10
362.3013904531
 20
30.81661148
 11
362.3013904531
 21
31.4618852989
  0
LINE
  8
0
 62
7
  6
CONTINUOUS
 10
358.6592030565
 20
31.3650941944
 11
358.7170155634
 21
31.4941489853
  0
LINE
  8
0
 62
7
  6
CONTINUOUS
 10
358.4279530651
 20
31.1392483894
 11
358.5435780634
 21
31.0101936212
  0
LINE
  8
0
 62
7
  6
CONTINUOUS
 10
361.9545154531
 20
31.5909400446
 11
362.0123280634
 21
31.4618852989
  0
LINE
  8
0
 62
7
  6
CONTINUOUS
 10
362.7638906736
 20
31.106984703
 11
362.8217029531
 21
30.9779299347
  0
LINE
  8
0
 62
7
  6
CONTINUOUS
 10
362.3013904531
 20
31.4618852989
 11
362.2435781736
 21
31.623203731
  0
LINE
  8
0
 62
7
  6
CONTINUOUS
 10
362.7638906736
 20
31.6554674174
 11
362.7638906736
 21
31.5909400446
  0
LINE
  8
0
 62
7
  6
CONTINUOUS
 10
362.7638906736
 20
31.2037757623
 11
362.7638906736
 21
31.106984703
  0
LINE
  8
0
 62
7
  6
CONTINUOUS
 10
363.0422717109
 20
32.6198901686
 11
363.0422717109
 21
36.3903819718
  0
LINE
  8
0
 62
7
  6
CONTINUOUS
 10
363.0529530634
 20
31.074720994
 11
363.0529530634
 21
31.1392483894
  0
LINE
  8
0
 62
7
  6
CONTINUOUS
 10
363.3701405634
 20
36.3903819718
 11
363.3701405634
 21
32.6198901686
  0
LINE
  8
0
 62
7
  6
CONTINUOUS
 10
360.1623280082
 20
31.0101936212
 11
360.2201406185
 21
31.1392483894
  0
LINE
  8
0
 62
7
  6
CONTINUOUS
 10
364.5560782839
 20
30.9134025506
 11
364.4982653428
 21
31.074720994
  0
LINE
  8
0
 62
7
  6
CONTINUOUS
 10
364.2092032839
 20
31.5909400446
 11
364.2092032839
 21
31.4941489853
  0
LINE
  8
0
 62
7
  6
CONTINUOUS
 10
364.2092032839
 20
31.3650941944
 11
364.2092032839
 21
31.1715120759
  0
LINE
  8
0
 62
7
  6
CONTINUOUS
 10
364.4982653428
 20
31.074720994
 11
364.4982653428
 21
31.5909400446
  0
LINE
  8
0
 62
7
  6
CONTINUOUS
 10
364.7635831863
 20
32.6198901686
 11
364.7635831863
 21
34.4231688571
  0
LINE
  8
0
 62
7
  6
CONTINUOUS
 10
364.7635831863
 20
35.7346442669
 11
364.7635831863
 21
36.3903819718
  0
LINE
  8
0
 62
7
  6
CONTINUOUS
 10
365.0763907839
 20
32.3330049227
 11
365.0763907839
 21
32.1716864905
  0
LINE
  8
0
 62
7
  6
CONTINUOUS
 10
365.0763907839
 20
31.8490495359
 11
365.0763907839
 21
30.81661148
  0
LINE
  8
0
 62
7
  6
CONTINUOUS
 10
365.3654528428
 20
30.81661148
 11
365.3654528428
 21
31.8490495359
  0
LINE
  8
0
 62
7
  6
CONTINUOUS
 10
365.3654528428
 20
32.1716864905
 11
365.3654528428
 21
32.3330049227
  0
LINE
  8
0
 62
7
  6
CONTINUOUS
 10
359.9310780634
 20
31.1392483894
 11
359.8732656185
 21
31.0424573076
  0
LINE
  8
0
 62
7
  6
CONTINUOUS
 10
362.2435781736
 20
31.623203731
 11
362.1857655634
 21
31.6877311038
  0
LINE
  8
0
 62
7
  6
CONTINUOUS
 10
363.1107656736
 20
31.0101936212
 11
363.0529530634
 21
31.074720994
  0
LINE
  8
0
 62
7
  6
CONTINUOUS
 10
364.2670155634
 20
30.8811388585
 11
364.3248278428
 21
30.81661148
  0
LINE
  8
0
 62
7
  6
CONTINUOUS
 10
364.2092032839
 20
30.9779299347
 11
364.2670155634
 21
30.8811388585
  0
LINE
  8
0
 62
7
  6
CONTINUOUS
 10
364.6138905634
 20
30.81661148
 11
364.5560782839
 21
30.9134025506
  0
LINE
  8
0
 62
7
  6
CONTINUOUS
 10
364.4982653428
 20
31.5909400446
 11
364.4404530634
 21
31.6877311038
  0
LINE
  8
0
 62
7
  6
CONTINUOUS
 10
365.8279530634
 20
31.8490495359
 11
365.8279530634
 21
30.81661148
  0
LINE
  8
0
 62
7
  6
CONTINUOUS
 10
366.1170157839
 20
30.81661148
 11
366.1170157839
 21
31.5586763581
  0
LINE
  8
0
 62
7
  6
CONTINUOUS
 10
366.1170157839
 20
31.6877311038
 11
366.1170157839
 21
31.8490495359
  0
LINE
  8
0
 62
7
  6
CONTINUOUS
 10
366.648829088
 20
34.8330049227
 11
366.648829088
 21
32.6198901686
  0
LINE
  8
0
 62
7
  6
CONTINUOUS
 10
358.5435780634
 20
31.6554674174
 11
358.4279530651
 21
31.5264126717
  0
LINE
  8
0
 62
7
  6
CONTINUOUS
 10
358.7170155634
 20
31.4941489853
 11
358.7748280496
 21
31.5586763581
  0
LINE
  8
0
 62
7
  6
CONTINUOUS
 10
358.5435780634
 20
31.0101936212
 11
358.6592030565
 21
30.945666237
  0
LINE
  8
0
 62
7
  6
CONTINUOUS
 10
358.9482655496
 20
31.0101936212
 11
358.7748280496
 21
31.106984703
  0
LINE
  8
0
 62
7
  6
CONTINUOUS
 10
364.1513903428
 20
31.6554674174
 11
364.2092032839
 21
31.5909400446
  0
LINE
  8
0
 62
7
  6
CONTINUOUS
 10
367.0998278428
 20
31.5909400446
 11
367.1576407839
 21
31.4296216124
  0
LINE
  8
0
 62
7
  6
CONTINUOUS
 10
367.4467028428
 20
31.4296216124
 11
367.3888905634
 21
31.5909400446
  0
LINE
  8
0
 62
7
  6
CONTINUOUS
 10
367.1576407839
 20
31.4296216124
 11
367.1576407839
 21
30.81661148
  0
LINE
  8
0
 62
7
  6
CONTINUOUS
 10
367.4467028428
 20
30.81661148
 11
367.4467028428
 21
31.4296216124
  0
LINE
  8
0
 62
7
  6
CONTINUOUS
 10
367.9092030634
 20
31.6554674174
 11
367.9092030634
 21
31.5909400446
  0
LINE
  8
0
 62
7
  6
CONTINUOUS
 10
368.0422717109
 20
32.6198901686
 11
368.0422717109
 21
34.7510377095
  0
LINE
  8
0
 62
7
  6
CONTINUOUS
 10
368.3701405634
 20
36.3903819718
 11
368.3701405634
 21
32.6198901686
  0
LINE
  8
0
 62
7
  6
CONTINUOUS
 10
363.0529530634
 20
31.1392483894
 11
363.1107656736
 21
31.2360394487
  0
LINE
  8
0
 62
7
  6
CONTINUOUS
 10
358.6592030565
 20
30.945666237
 11
358.8326405772
 21
30.8811388585
  0
LINE
  8
0
 62
7
  6
CONTINUOUS
 10
360.1623280082
 20
31.6554674174
 11
359.9888905082
 21
31.7522584767
  0
LINE
  8
0
 62
7
  6
CONTINUOUS
 10
362.8217029531
 20
30.9779299347
 11
362.9951404531
 21
30.8811388585
  0
LINE
  8
0
 62
7
  6
CONTINUOUS
 10
361.8388905634
 20
31.6554674174
 11
361.9545154531
 21
31.5909400446
  0
LINE
  8
0
 62
7
  6
CONTINUOUS
 10
362.1857655634
 20
31.6877311038
 11
362.0701406736
 21
31.7522584767
  0
LINE
  8
0
 62
7
  6
CONTINUOUS
 10
367.9092030634
 20
31.074720994
 11
368.0248282839
 21
30.945666237
  0
LINE
  8
0
 62
7
  6
CONTINUOUS
 10
368.2560780634
 20
31.0101936212
 11
368.1982657839
 21
31.074720994
  0
LINE
  8
0
 62
7
  6
CONTINUOUS
 10
367.9092030634
 20
31.5909400446
 11
368.0248282839
 21
31.4618852989
  0
LINE
  8
0
 62
7
  6
CONTINUOUS
 10
367.3888905634
 20
31.5909400446
 11
367.3310782839
 21
31.6877311038
  0
LINE
  8
0
 62
7
  6
CONTINUOUS
 10
369.7592026223
 20
31.0101936212
 11
369.7592026223
 21
31.074720994
  0
LINE
  8
0
 62
7
  6
CONTINUOUS
 10
369.7635831863
 20
32.6198901686
 11
369.7635831863
 21
36.3903819718
  0
LINE
  8
0
 62
7
  6
CONTINUOUS
 10
362.8217029531
 20
31.7199947902
 11
362.7638906736
 21
31.6554674174
  0
LINE
  8
0
 62
7
  6
CONTINUOUS
 10
359.6998280358
 20
31.6877311038
 11
359.8732656185
 21
31.623203731
  0
LINE
  8
0
 62
7
  6
CONTINUOUS
 10
364.4404530634
 20
31.6877311038
 11
364.3248278428
 21
31.7522584767
  0
LINE
  8
0
 62
7
  6
CONTINUOUS
 10
368.2560780634
 20
31.5264126717
 11
368.1982657839
 21
31.5909400446
  0
LINE
  8
0
 62
7
  6
CONTINUOUS
 10
369.4123282839
 20
31.1392483894
 11
369.4701405634
 21
31.074720994
  0
LINE
  8
0
 62
7
  6
CONTINUOUS
 10
369.7592026223
 20
31.074720994
 11
369.6435780634
 21
31.2037757623
  0
LINE
  8
0
 62
7
  6
CONTINUOUS
 10
369.4123282839
 20
31.6554674174
 11
369.4701405634
 21
31.5909400446
  0
LINE
  8
0
 62
7
  6
CONTINUOUS
 10
369.7592026223
 20
31.5909400446
 11
369.6435780634
 21
31.7199947902
  0
LINE
  8
0
 62
7
  6
CONTINUOUS
 10
363.0529530634
 20
31.5909400446
 11
363.1107656736
 21
31.6554674174
  0
LINE
  8
0
 62
7
  6
CONTINUOUS
 10
362.8795155634
 20
31.332830508
 11
362.7638906736
 21
31.2037757623
  0
LINE
  8
0
 62
7
  6
CONTINUOUS
 10
364.2092032839
 20
31.1715120759
 11
364.1513903428
 21
31.106984703
  0
LINE
  8
0
 62
7
  6
CONTINUOUS
 10
364.1513903428
 20
30.9134025506
 11
364.2092032839
 21
30.9779299347
  0
LINE
  8
0
 62
7
  6
CONTINUOUS
 10
362.9951404531
 20
30.8811388585
 11
363.1107656736
 21
30.8488751693
  0
LINE
  8
0
 62
7
  6
CONTINUOUS
 10
359.9888905082
 20
31.7522584767
 11
359.7576405634
 21
31.8167858495
  0
LINE
  8
0
 62
7
  6
CONTINUOUS
 10
363.3420154531
 20
30.945666237
 11
363.1107656736
 21
31.0101936212
  0
LINE
  8
0
 62
7
  6
CONTINUOUS
 10
362.0701406736
 20
31.7522584767
 11
361.8967031736
 21
31.8167858495
  0
LINE
  8
0
 62
7
  6
CONTINUOUS
 10
364.3248278428
 20
31.7522584767
 11
364.1513903428
 21
31.8167858495
  0
LINE
  8
0
 62
7
  6
CONTINUOUS
 10
366.9842032839
 20
31.6554674174
 11
367.0998278428
 21
31.5909400446
  0
LINE
  8
0
 62
7
  6
CONTINUOUS
 10
367.3310782839
 20
31.6877311038
 11
367.2154530634
 21
31.7522584767
  0
LINE
  8
0
 62
7
  6
CONTINUOUS
 10
358.8326405772
 20
30.8811388585
 11
359.0060780772
 21
30.8488751693
  0
LINE
  8
0
 62
7
  6
CONTINUOUS
 10
359.2951405909
 20
30.945666237
 11
358.9482655496
 21
31.0101936212
  0
LINE
  8
0
 62
7
  6
CONTINUOUS
 10
361.7232656736
 20
31.6877311038
 11
361.8388905634
 21
31.6554674174
  0
LINE
  8
0
 62
7
  6
CONTINUOUS
 10
364.0357657839
 20
31.6877311038
 11
364.1513903428
 21
31.6554674174
  0
LINE
  8
0
 62
7
  6
CONTINUOUS
 10
368.3717032839
 20
30.9779299347
 11
368.2560780634
 21
31.0101936212
  0
LINE
  8
0
 62
7
  6
CONTINUOUS
 10
366.8685780634
 20
31.6877311038
 11
366.9842032839
 21
31.6554674174
  0
LINE
  8
0
 62
7
  6
CONTINUOUS
 10
368.0248282839
 20
30.945666237
 11
368.1982657839
 21
30.8811388585
  0
LINE
  8
0
 62
7
  6
CONTINUOUS
 10
367.2154530634
 20
31.7522584767
 11
367.0420155634
 21
31.8167858495
  0
LINE
  8
0
 62
7
  6
CONTINUOUS
 10
368.4295155634
 20
31.4618852989
 11
368.2560780634
 21
31.5264126717
  0
LINE
  8
0
 62
7
  6
CONTINUOUS
 10
369.2388907839
 20
31.2037757623
 11
369.4123282839
 21
31.1392483894
  0
LINE
  8
0
 62
7
  6
CONTINUOUS
 10
369.6435780634
 20
31.7199947902
 11
369.4701405634
 21
31.7845221631
  0
LINE
  8
0
 62
7
  6
CONTINUOUS
 10
368.0248282839
 20
31.4618852989
 11
368.2560780634
 21
31.3650941944
  0
LINE
  8
0
 62
7
  6
CONTINUOUS
 10
369.6435780634
 20
31.2037757623
 11
369.4123282839
 21
31.3005668216
  0
LINE
  8
0
 62
7
  6
CONTINUOUS
 10
368.1982657839
 20
31.5909400446
 11
368.2560780634
 21
31.6554674174
  0
LINE
  8
0
 62
7
  6
CONTINUOUS
 10
358.6592030565
 20
31.7199947902
 11
358.5435780634
 21
31.6554674174
  0
LINE
  8
0
 62
7
  6
CONTINUOUS
 10
358.7748280496
 20
31.5586763581
 11
358.9482655496
 21
31.6554674174
  0
LINE
  8
0
 62
7
  6
CONTINUOUS
 10
361.0873281185
 20
31.7522584767
 11
360.9717030634
 21
31.6877311038
  0
LINE
  8
0
 62
7
  6
CONTINUOUS
 10
360.9717030634
 20
31.5586763581
 11
361.0873281185
 21
31.623203731
  0
LINE
  8
0
 62
7
  6
CONTINUOUS
 10
359.9888905082
 20
30.9134025506
 11
360.1623280082
 21
31.0101936212
  0
LINE
  8
0
 62
7
  6
CONTINUOUS
 10
359.0060780772
 20
30.8488751693
 11
359.3529530358
 21
30.81661148
  0
LINE
  8
0
 62
7
  6
CONTINUOUS
 10
363.1107656736
 20
30.8488751693
 11
363.3420154531
 21
30.81661148
  0
LINE
  8
0
 62
7
  6
CONTINUOUS
 10
361.4920155634
 20
31.7199947902
 11
361.7232656736
 21
31.6877311038
  0
LINE
  8
0
 62
7
  6
CONTINUOUS
 10
363.8045156736
 20
31.7199947902
 11
364.0357657839
 21
31.6877311038
  0
LINE
  8
0
 62
7
  6
CONTINUOUS
 10
368.2560780634
 20
31.3650941944
 11
369.2388907839
 21
31.2037757623
  0
LINE
  8
0
 62
7
  6
CONTINUOUS
 10
369.4123282839
 20
31.3005668216
 11
368.4295155634
 21
31.4618852989
  0
LINE
  8
0
 62
7
  6
CONTINUOUS
 10
361.8967031736
 20
31.8167858495
 11
361.7232656736
 21
31.8490495359
  0
LINE
  8
0
 62
7
  6
CONTINUOUS
 10
368.1982657839
 20
30.8811388585
 11
368.3717032839
 21
30.8488751693
  0
LINE
  8
0
 62
7
  6
CONTINUOUS
 10
367.0420155634
 20
31.8167858495
 11
366.8685780634
 21
31.8490495359
  0
LINE
  8
0
 62
7
  6
CONTINUOUS
 10
369.2967030634
 20
31.6877311038
 11
369.4123282839
 21
31.6554674174
  0
LINE
  8
0
 62
7
  6
CONTINUOUS
 10
369.4701405634
 20
31.074720994
 11
369.4123282839
 21
31.0101936212
  0
LINE
  8
0
 62
7
  6
CONTINUOUS
 10
368.0248282839
 20
31.7522584767
 11
367.9092030634
 21
31.6554674174
  0
LINE
  8
0
 62
7
  6
CONTINUOUS
 10
362.9373281736
 20
31.7845221631
 11
362.8217029531
 21
31.7199947902
  0
LINE
  8
0
 62
7
  6
CONTINUOUS
 10
362.9951404531
 20
31.397357926
 11
362.8795155634
 21
31.332830508
  0
LINE
  8
0
 62
7
  6
CONTINUOUS
 10
363.1107656736
 20
31.2360394487
 11
363.2263905634
 21
31.3005668216
  0
LINE
  8
0
 62
7
  6
CONTINUOUS
 10
360.6826405082
 20
30.81661148
 11
360.9717030634
 21
30.81661148
  0
LINE
  8
0
 62
7
  6
CONTINUOUS
 10
362.0123280634
 20
30.81661148
 11
362.3013904531
 21
30.81661148
  0
LINE
  8
0
 62
7
  6
CONTINUOUS
 10
363.3420154531
 20
30.81661148
 11
363.6888904531
 21
30.81661148
  0
LINE
  8
0
 62
7
  6
CONTINUOUS
 10
364.3248278428
 20
30.81661148
 11
364.6138905634
 21
30.81661148
  0
LINE
  8
0
 62
7
  6
CONTINUOUS
 10
365.0763907839
 20
30.81661148
 11
365.3654528428
 21
30.81661148
  0
LINE
  8
0
 62
7
  6
CONTINUOUS
 10
365.8279530634
 20
30.81661148
 11
366.1170157839
 21
30.81661148
  0
LINE
  8
0
 62
7
  6
CONTINUOUS
 10
367.1576407839
 20
30.81661148
 11
367.4467028428
 21
30.81661148
  0
LINE
  8
0
 62
7
  6
CONTINUOUS
 10
368.7185782839
 20
30.81661148
 11
369.0654532839
 21
30.81661148
  0
LINE
  8
0
 62
7
  6
CONTINUOUS
 10
369.0654532839
 20
30.945666237
 11
368.7185782839
 21
30.945666237
  0
LINE
  8
0
 62
7
  6
CONTINUOUS
 10
363.6888904531
 20
30.945666237
 11
363.3420154531
 21
30.945666237
  0
LINE
  8
0
 62
7
  6
CONTINUOUS
 10
368.1982657839
 20
31.074720994
 11
367.9092030634
 21
31.074720994
  0
LINE
  8
0
 62
7
  6
CONTINUOUS
 10
360.2201406185
 20
31.1392483894
 11
359.9310780634
 21
31.1392483894
  0
LINE
  8
0
 62
7
  6
CONTINUOUS
 10
359.2951405909
 20
31.7199947902
 11
359.6998280358
 21
31.6877311038
  0
LINE
  8
0
 62
7
  6
CONTINUOUS
 10
359.7576405634
 20
31.8167858495
 11
359.3529530358
 21
31.8490495359
  0
LINE
  8
0
 62
7
  6
CONTINUOUS
 10
368.3717032839
 20
30.8488751693
 11
368.7185782839
 21
30.81661148
  0
LINE
  8
0
 62
7
  6
CONTINUOUS
 10
368.7185782839
 20
30.945666237
 11
368.3717032839
 21
30.9779299347
  0
LINE
  8
0
 62
7
  6
CONTINUOUS
 10
364.1513903428
 20
31.8167858495
 11
363.8045156736
 21
31.8490495359
  0
LINE
  8
0
 62
7
  6
CONTINUOUS
 10
368.9498280634
 20
31.7199947902
 11
369.2967030634
 21
31.6877311038
  0
LINE
  8
0
 62
7
  6
CONTINUOUS
 10
369.2967030634
 20
31.8167858495
 11
368.9498280634
 21
31.8490495359
  0
LINE
  8
0
 62
7
  6
CONTINUOUS
 10
366.6373282839
 20
31.7199947902
 11
366.8685780634
 21
31.6877311038
  0
LINE
  8
0
 62
7
  6
CONTINUOUS
 10
369.4701405634
 20
31.7845221631
 11
369.2967030634
 21
31.8167858495
  0
LINE
  8
0
 62
7
  6
CONTINUOUS
 10
369.6435780634
 20
30.9134025506
 11
369.7592026223
 21
31.0101936212
  0
LINE
  8
0
 62
7
  6
CONTINUOUS
 10
364.1513903428
 20
31.106984703
 11
363.9779528428
 21
31.0101936212
  0
LINE
  8
0
 62
7
  6
CONTINUOUS
 10
366.2326403428
 20
31.7522584767
 11
366.1170157839
 21
31.6877311038
  0
LINE
  8
0
 62
7
  6
CONTINUOUS
 10
366.1170157839
 20
31.5586763581
 11
366.2326403428
 21
31.623203731
  0
LINE
  8
0
 62
7
  6
CONTINUOUS
 10
358.8326405772
 20
31.7845221631
 11
358.6592030565
 21
31.7199947902
  0
LINE
  8
0
 62
7
  6
CONTINUOUS
 10
361.2607654531
 20
31.8167858495
 11
361.0873281185
 21
31.7522584767
  0
LINE
  8
0
 62
7
  6
CONTINUOUS
 10
361.0873281185
 20
31.623203731
 11
361.2607654531
 21
31.6877311038
  0
LINE
  8
0
 62
7
  6
CONTINUOUS
 10
359.8732656185
 20
31.0424573076
 11
359.6998280358
 21
30.9779299347
  0
LINE
  8
0
 62
7
  6
CONTINUOUS
 10
369.2967030634
 20
30.9779299347
 11
369.0654532839
 21
30.945666237
  0
LINE
  8
0
 62
7
  6
CONTINUOUS
 10
363.6888904531
 20
30.81661148
 11
363.9779528428
 21
30.8488751693
  0
LINE
  8
0
 62
7
  6
CONTINUOUS
 10
369.0654532839
 20
30.81661148
 11
369.4123282839
 21
30.8488751693
  0
LINE
  8
0
 62
7
  6
CONTINUOUS
 10
359.3529530358
 20
30.81661148
 11
359.7576405634
 21
30.8488751693
  0
LINE
  8
0
 62
7
  6
CONTINUOUS
 10
359.6998280358
 20
30.9779299347
 11
359.2951405909
 21
30.945666237
  0
LINE
  8
0
 62
7
  6
CONTINUOUS
 10
363.5732655634
 20
31.3650941944
 11
364.2092032839
 21
31.3650941944
  0
LINE
  8
0
 62
7
  6
CONTINUOUS
 10
364.2092032839
 20
31.4941489853
 11
363.5732655634
 21
31.4941489853
  0
LINE
  8
0
 62
7
  6
CONTINUOUS
 10
359.9310780634
 20
31.5264126717
 11
360.2201406185
 21
31.5264126717
  0
LINE
  8
0
 62
7
  6
CONTINUOUS
 10
362.7638906736
 20
31.5909400446
 11
363.0529530634
 21
31.5909400446
  0
LINE
  8
0
 62
7
  6
CONTINUOUS
 10
369.4701405634
 20
31.5909400446
 11
369.7592026223
 21
31.5909400446
  0
LINE
  8
0
 62
7
  6
CONTINUOUS
 10
363.4576406736
 20
31.7199947902
 11
363.8045156736
 21
31.7199947902
  0
LINE
  8
0
 62
7
  6
CONTINUOUS
 10
368.6029530634
 20
31.7199947902
 11
368.9498280634
 21
31.7199947902
  0
LINE
  8
0
 62
7
  6
CONTINUOUS
 10
368.9498280634
 20
31.8490495359
 11
368.6029530634
 21
31.8490495359
  0
LINE
  8
0
 62
7
  6
CONTINUOUS
 10
366.8685780634
 20
31.8490495359
 11
366.6373282839
 21
31.8490495359
  0
LINE
  8
0
 62
7
  6
CONTINUOUS
 10
366.1170157839
 20
31.8490495359
 11
365.8279530634
 21
31.8490495359
  0
LINE
  8
0
 62
7
  6
CONTINUOUS
 10
365.3654528428
 20
31.8490495359
 11
365.0763907839
 21
31.8490495359
  0
LINE
  8
0
 62
7
  6
CONTINUOUS
 10
363.8045156736
 20
31.8490495359
 11
363.4576406736
 21
31.8490495359
  0
LINE
  8
0
 62
7
  6
CONTINUOUS
 10
361.7232656736
 20
31.8490495359
 11
361.4920155634
 21
31.8490495359
  0
LINE
  8
0
 62
7
  6
CONTINUOUS
 10
365.0763907839
 20
32.1716864905
 11
365.3654528428
 21
32.1716864905
  0
LINE
  8
0
 62
7
  6
CONTINUOUS
 10
365.3654528428
 20
32.3330049227
 11
365.0763907839
 21
32.3330049227
  0
LINE
  8
0
 62
7
  6
CONTINUOUS
 10
360.9717030634
 20
32.3330049227
 11
360.6826405082
 21
32.3330049227
  0
LINE
  8
0
 62
7
  6
CONTINUOUS
 10
360.0094848257
 20
32.6198901686
 11
360.4220561743
 21
32.6198901686
  0
LINE
  8
0
 62
7
  6
CONTINUOUS
 10
361.648829088
 20
32.6198901686
 11
363.0422717109
 21
32.6198901686
  0
LINE
  8
0
 62
7
  6
CONTINUOUS
 10
363.3701405634
 20
32.6198901686
 11
364.7635831863
 21
32.6198901686
  0
LINE
  8
0
 62
7
  6
CONTINUOUS
 10
366.648829088
 20
32.6198901686
 11
368.0422717109
 21
32.6198901686
  0
LINE
  8
0
 62
7
  6
CONTINUOUS
 10
368.3701405634
 20
32.6198901686
 11
369.7635831863
 21
32.6198901686
  0
LINE
  8
0
 62
7
  6
CONTINUOUS
 10
366.4060778428
 20
31.8167858495
 11
366.2326403428
 21
31.7522584767
  0
LINE
  8
0
 62
7
  6
CONTINUOUS
 10
363.9779528428
 20
30.8488751693
 11
364.1513903428
 21
30.9134025506
  0
LINE
  8
0
 62
7
  6
CONTINUOUS
 10
369.4123282839
 20
30.8488751693
 11
369.6435780634
 21
30.9134025506
  0
LINE
  8
0
 62
7
  6
CONTINUOUS
 10
369.4123282839
 20
31.0101936212
 11
369.2967030634
 21
30.9779299347
  0
LINE
  8
0
 62
7
  6
CONTINUOUS
 10
368.3717032839
 20
31.6877311038
 11
368.6029530634
 21
31.7199947902
  0
LINE
  8
0
 62
7
  6
CONTINUOUS
 10
366.4060778428
 20
31.6877311038
 11
366.6373282839
 21
31.7199947902
  0
LINE
  8
0
 62
7
  6
CONTINUOUS
 10
363.3420154531
 20
31.332830508
 11
363.5732655634
 21
31.3650941944
  0
LINE
  8
0
 62
7
  6
CONTINUOUS
 10
366.6373282839
 20
31.8490495359
 11
366.4060778428
 21
31.8167858495
  0
LINE
  8
0
 62
7
  6
CONTINUOUS
 10
363.2263905634
 20
31.6877311038
 11
363.4576406736
 21
31.7199947902
  0
LINE
  8
0
 62
7
  6
CONTINUOUS
 10
368.6029530634
 20
31.8490495359
 11
368.2560780634
 21
31.8167858495
  0
LINE
  8
0
 62
7
  6
CONTINUOUS
 10
363.5732655634
 20
31.4941489853
 11
363.2263905634
 21
31.4618852989
  0
LINE
  8
0
 62
7
  6
CONTINUOUS
 10
359.3529530358
 20
31.8490495359
 11
359.0060780772
 21
31.8167858495
  0
LINE
  8
0
 62
7
  6
CONTINUOUS
 10
363.4576406736
 20
31.8490495359
 11
363.0529530634
 21
31.8167858495
  0
LINE
  8
0
 62
7
  6
CONTINUOUS
 10
360.8291569568
 20
33.7674311522
 11
360.1734192519
 21
33.7674311522
  0
LINE
  8
0
 62
7
  6
CONTINUOUS
 10
366.2326403428
 20
31.623203731
 11
366.4060778428
 21
31.6877311038
  0
LINE
  8
0
 62
7
  6
CONTINUOUS
 10
368.2560780634
 20
31.6554674174
 11
368.3717032839
 21
31.6877311038
  0
LINE
  8
0
 62
7
  6
CONTINUOUS
 10
368.2560780634
 20
31.8167858495
 11
368.0248282839
 21
31.7522584767
  0
LINE
  8
0
 62
7
  6
CONTINUOUS
 10
363.9779528428
 20
31.0101936212
 11
363.6888904531
 21
30.945666237
  0
LINE
  8
0
 62
7
  6
CONTINUOUS
 10
361.2607654531
 20
31.6877311038
 11
361.4920155634
 21
31.7199947902
  0
LINE
  8
0
 62
7
  6
CONTINUOUS
 10
361.4920155634
 20
31.8490495359
 11
361.2607654531
 21
31.8167858495
  0
LINE
  8
0
 62
7
  6
CONTINUOUS
 10
359.0638905634
 20
31.6877311038
 11
359.2951405909
 21
31.7199947902
  0
LINE
  8
0
 62
7
  6
CONTINUOUS
 10
365.5832553175
 20
35.2428409882
 11
366.2389930224
 21
35.2428409882
  0
LINE
  8
0
 62
7
  6
CONTINUOUS
 10
363.2263905634
 20
31.3005668216
 11
363.3420154531
 21
31.332830508
  0
LINE
  8
0
 62
7
  6
CONTINUOUS
 10
363.2263905634
 20
31.4618852989
 11
362.9951404531
 21
31.397357926
  0
LINE
  8
0
 62
7
  6
CONTINUOUS
 10
363.1107656736
 20
31.6554674174
 11
363.2263905634
 21
31.6877311038
  0
LINE
  8
0
 62
7
  6
CONTINUOUS
 10
359.7576405634
 20
30.8488751693
 11
359.9888905082
 21
30.9134025506
  0
LINE
  8
0
 62
7
  6
CONTINUOUS
 10
363.0529530634
 20
31.8167858495
 11
362.9373281736
 21
31.7845221631
  0
LINE
  8
0
 62
7
  6
CONTINUOUS
 10
359.0060780772
 20
31.8167858495
 11
358.8326405772
 21
31.7845221631
  0
LINE
  8
0
 62
7
  6
CONTINUOUS
 10
369.7635831863
 20
36.3903819718
 11
368.3701405634
 21
36.3903819718
  0
LINE
  8
0
 62
7
  6
CONTINUOUS
 10
366.4029274486
 20
36.3903819718
 11
365.9903561
 21
36.3903819718
  0
LINE
  8
0
 62
7
  6
CONTINUOUS
 10
364.7635831863
 20
36.3903819718
 11
363.3701405634
 21
36.3903819718
  0
LINE
  8
0
 62
7
  6
CONTINUOUS
 10
363.0422717109
 20
36.3903819718
 11
361.648829088
 21
36.3903819718
  0
LINE
  8
0
 62
7
  6
CONTINUOUS
 10
359.7635831863
 20
36.3903819718
 11
358.3701405634
 21
36.3903819718
  0
LINE
  8
0
 62
7
  6
CONTINUOUS
 10
358.9482655496
 20
31.6554674174
 11
359.0638905634
 21
31.6877311038
  0
CIRCLE
  8
0
 62
7
  6
CONTINUOUS
 10
369.0668618749
 20
38.7264475456
 40
2.0901639344
  0
ARC
  8
0
 62
7
  6
CONTINUOUS
 10
360.0094848257
 20
34.2592344308
 40
1.6393442623
 50
180.0
 51
270.0
  0
ARC
  8
0
 62
7
  6
CONTINUOUS
 10
366.4029274486
 20
34.7510377095
 40
1.6393442623
 50
0.0
 51
90.0
  0
ARC
  8
0
 62
7
  6
CONTINUOUS
 10
360.4220561743
 20
34.0953000046
 40
1.4754098361
 50
270.0
 51
326.2510114041
  0
ARC
  8
0
 62
7
  6
CONTINUOUS
 10
365.9903561
 20
34.9149721358
 40
1.4754098361
 50
90.0
 51
146.2510114041
  0
ARC
  8
0
 62
7
  6
CONTINUOUS
 10
360.8291569568
 20
34.5871032833
 40
0.8196721311
 50
270.0
 51
360.0
  0
ARC
  8
0
 62
7
  6
CONTINUOUS
 10
365.5832553175
 20
34.4231688571
 40
0.8196721311
 50
90.0
 51
180.0
  0
ARC
  8
0
 62
7
  6
CONTINUOUS
 10
360.1734192519
 20
34.1772672177
 40
0.4098360656
 50
180.0
 51
270.0
  0
ARC
  8
0
 62
7
  6
CONTINUOUS
 10
366.2389930224
 20
34.8330049227
 40
0.4098360656
 50
0.0
 51
90.0
  0
SOLID
  8
0
 62
7
  6
CONTINUOUS
 10
365.0763907839
 20
32.1716868508
 11
365.0763907839
 21
32.3330053344
 12
365.3654528428
 22
32.1716868508
 13
365.3654528428
 23
32.3330053344
  0
SOLID
  8
0
 62
7
  6
CONTINUOUS
 10
359.3529530358
 20
31.8490498836
 11
359.7576405634
 21
31.8167854792
 12
359.0060780772
 22
31.8167854792
 13
359.0060780772
 23
31.8167854792
  0
SOLID
  8
0
 62
7
  6
CONTINUOUS
 10
358.8326405772
 20
31.7845227934
 11
359.0060780772
 21
31.8167854792
 12
359.7576405634
 22
31.8167854792
 13
359.7576405634
 23
31.8167854792
  0
SOLID
  8
0
 62
7
  6
CONTINUOUS
 10
359.7576405634
 20
31.8167854792
 11
359.9888905082
 21
31.7522584901
 12
358.8326405772
 22
31.7845227934
 13
358.8326405772
 23
31.7845227934
  0
SOLID
  8
0
 62
7
  6
CONTINUOUS
 10
358.6592030565
 20
31.7199940664
 11
358.8326405772
 21
31.7845227934
 12
359.9888905082
 22
31.7522584901
 13
359.9888905082
 23
31.7522584901
  0
SOLID
  8
0
 62
7
  6
CONTINUOUS
 10
358.6592030565
 20
31.7199940664
 11
359.9888905082
 21
31.7522584901
 12
359.2951405909
 22
31.7199940664
 13
359.2951405909
 23
31.7199940664
  0
SOLID
  8
0
 62
7
  6
CONTINUOUS
 10
359.2951405909
 20
31.7199940664
 11
359.9888905082
 21
31.7522584901
 12
359.6998280358
 22
31.6877314
 13
359.6998280358
 23
31.6877314
  0
SOLID
  8
0
 62
7
  6
CONTINUOUS
 10
359.9888905082
 20
31.7522584901
 11
360.1623280082
 21
31.6554670967
 12
359.6998280358
 22
31.6877314
 13
359.6998280358
 23
31.6877314
  0
SOLID
  8
0
 62
7
  6
CONTINUOUS
 10
359.8732656185
 20
31.6232043098
 11
359.6998280358
 21
31.6877314
 12
360.1623280082
 22
31.6554670967
 13
360.1623280082
 23
31.6554670967
  0
SOLID
  8
0
 62
7
  6
CONTINUOUS
 10
359.8732656185
 20
31.6232043098
 11
360.1623280082
 21
31.6554670967
 12
359.9310780634
 22
31.5264128539
 13
359.9310780634
 23
31.5264128539
  0
SOLID
  8
0
 62
7
  6
CONTINUOUS
 10
360.1623280082
 20
31.6554670967
 11
360.2201406185
 21
31.5264128539
 12
359.9310780634
 22
31.5264128539
 13
359.9310780634
 23
31.5264128539
  0
SOLID
  8
0
 62
7
  6
CONTINUOUS
 10
361.2607654531
 20
31.8167852459
 11
361.4920155634
 21
31.8490495492
 12
361.7232656736
 22
31.8490495492
 13
361.7232656736
 23
31.8490495492
  0
SOLID
  8
0
 62
7
  6
CONTINUOUS
 10
361.7232656736
 20
31.8490495492
 11
361.8967031736
 21
31.8167852459
 12
361.2607654531
 22
31.8167852459
 13
361.2607654531
 23
31.8167852459
  0
SOLID
  8
0
 62
7
  6
CONTINUOUS
 10
361.0873281185
 20
31.7522581557
 11
361.2607654531
 21
31.8167852459
 12
361.8967031736
 22
31.8167852459
 13
361.8967031736
 23
31.8167852459
  0
SOLID
  8
0
 62
7
  6
CONTINUOUS
 10
361.8967031736
 20
31.8167852459
 11
362.0701406736
 21
31.7522581557
 12
361.0873281185
 22
31.7522581557
 13
361.0873281185
 23
31.7522581557
  0
SOLID
  8
0
 62
7
  6
CONTINUOUS
 10
362.0701406736
 20
31.7522581557
 11
361.4920155634
 21
31.7199941869
 12
361.0873281185
 22
31.7522581557
 13
361.0873281185
 23
31.7522581557
  0
SOLID
  8
0
 62
7
  6
CONTINUOUS
 10
360.9717030634
 20
31.6877310656
 11
361.0873281185
 21
31.7522581557
 12
361.4920155634
 22
31.7199941869
 13
361.4920155634
 23
31.7199941869
  0
SOLID
  8
0
 62
7
  6
CONTINUOUS
 10
361.4920155634
 20
31.7199941869
 11
361.2607654531
 21
31.6877310656
 12
360.9717030634
 22
31.6877310656
 13
360.9717030634
 23
31.6877310656
  0
SOLID
  8
0
 62
7
  6
CONTINUOUS
 10
361.4920155634
 20
31.7199941869
 11
362.0701406736
 21
31.7522581557
 12
361.7232656736
 22
31.6877310656
 13
361.7232656736
 23
31.6877310656
  0
SOLID
  8
0
 62
7
  6
CONTINUOUS
 10
362.0701406736
 20
31.7522581557
 11
362.1857655634
 21
31.6877310656
 12
361.7232656736
 22
31.6877310656
 13
361.7232656736
 23
31.6877310656
  0
SOLID
  8
0
 62
7
  6
CONTINUOUS
 10
361.8388905634
 20
31.6554670967
 11
361.7232656736
 21
31.6877310656
 12
362.1857655634
 22
31.6877310656
 13
362.1857655634
 23
31.6877310656
  0
SOLID
  8
0
 62
7
  6
CONTINUOUS
 10
362.1857655634
 20
31.6877310656
 11
362.2435781736
 21
31.6232039754
 12
361.8388905634
 22
31.6554670967
 13
361.8388905634
 23
31.6554670967
  0
SOLID
  8
0
 62
7
  6
CONTINUOUS
 10
361.9545154531
 20
31.5909400065
 11
361.8388905634
 21
31.6554670967
 12
362.2435781736
 22
31.6232039754
 13
362.2435781736
 23
31.6232039754
  0
SOLID
  8
0
 62
7
  6
CONTINUOUS
 10
361.9545154531
 20
31.5909400065
 11
362.2435781736
 21
31.6232039754
 12
362.0123280634
 22
31.4618854918
 13
362.0123280634
 23
31.4618854918
  0
SOLID
  8
0
 62
7
  6
CONTINUOUS
 10
362.2435781736
 20
31.6232039754
 11
362.3013904531
 21
31.4618854918
 12
362.0123280634
 22
31.4618854918
 13
362.0123280634
 23
31.4618854918
  0
SOLID
  8
0
 62
7
  6
CONTINUOUS
 10
361.2607654531
 20
31.6877310656
 11
361.0873281185
 21
31.6232039754
 12
360.9717030634
 22
31.6877310656
 13
360.9717030634
 23
31.6877310656
  0
SOLID
  8
0
 62
7
  6
CONTINUOUS
 10
361.0873281185
 20
31.6232039754
 11
360.9717030634
 21
31.5586757033
 12
360.9717030634
 22
31.6877310656
 13
360.9717030634
 23
31.6877310656
  0
SOLID
  8
0
 62
7
  6
CONTINUOUS
 10
360.9717030634
 20
31.5586757033
 11
360.6826405082
 21
30.8166115574
 12
360.9717030634
 22
31.6877310656
 13
360.9717030634
 23
31.6877310656
  0
SOLID
  8
0
 62
7
  6
CONTINUOUS
 10
360.9717030634
 20
31.6877310656
 11
360.6826405082
 21
30.8166115574
 12
360.9717030634
 22
32.333005
 13
360.9717030634
 23
32.333005
  0
SOLID
  8
0
 62
7
  6
CONTINUOUS
 10
360.6826405082
 20
30.8166115574
 11
360.6826405082
 21
32.333005
 12
360.9717030634
 22
32.333005
 13
360.9717030634
 23
32.333005
  0
SOLID
  8
0
 62
7
  6
CONTINUOUS
 10
360.9717030634
 20
31.5586757033
 11
360.9717030634
 21
30.8166115574
 12
360.6826405082
 22
30.8166115574
 13
360.6826405082
 23
30.8166115574
  0
SOLID
  8
0
 62
7
  6
CONTINUOUS
 10
362.0123280634
 20
30.8166115574
 11
362.0123280634
 21
31.4618854918
 12
362.3013904531
 22
31.4618854918
 13
362.3013904531
 23
31.4618854918
  0
SOLID
  8
0
 62
7
  6
CONTINUOUS
 10
362.3013904531
 20
31.4618854918
 11
362.3013904531
 21
30.8166115574
 12
362.0123280634
 22
30.8166115574
 13
362.0123280634
 23
30.8166115574
  0
SOLID
  8
0
 62
7
  6
CONTINUOUS
 10
363.0529530634
 20
31.8167856315
 11
363.4576406736
 21
31.8490496243
 12
363.8045156736
 22
31.8490496243
 13
363.8045156736
 23
31.8490496243
  0
SOLID
  8
0
 62
7
  6
CONTINUOUS
 10
363.8045156736
 20
31.8490496243
 11
364.1513903428
 21
31.8167856315
 12
363.0529530634
 22
31.8167856315
 13
363.0529530634
 23
31.8167856315
  0
SOLID
  8
0
 62
7
  6
CONTINUOUS
 10
362.9373281736
 20
31.7845227934
 11
363.0529530634
 21
31.8167856315
 12
364.1513903428
 22
31.8167856315
 13
364.1513903428
 23
31.8167856315
  0
SOLID
  8
0
 62
7
  6
CONTINUOUS
 10
364.1513903428
 20
31.8167856315
 11
364.3248278428
 21
31.7522584901
 12
362.9373281736
 22
31.7845227934
 13
362.9373281736
 23
31.7845227934
  0
SOLID
  8
0
 62
7
  6
CONTINUOUS
 10
362.8217029531
 20
31.7199944276
 11
362.9373281736
 21
31.7845227934
 12
364.3248278428
 22
31.7522584901
 13
364.3248278428
 23
31.7522584901
  0
SOLID
  8
0
 62
7
  6
CONTINUOUS
 10
362.8217029531
 20
31.7199944276
 11
364.3248278428
 21
31.7522584901
 12
363.4576406736
 22
31.7199944276
 13
363.4576406736
 23
31.7199944276
  0
SOLID
  8
0
 62
7
  6
CONTINUOUS
 10
363.4576406736
 20
31.7199944276
 11
364.3248278428
 21
31.7522584901
 12
363.8045156736
 22
31.7199944276
 13
363.8045156736
 23
31.7199944276
  0
SOLID
  8
0
 62
7
  6
CONTINUOUS
 10
363.8045156736
 20
31.7199944276
 11
364.3248278428
 21
31.7522584901
 12
364.0357657839
 22
31.6877312092
 13
364.0357657839
 23
31.6877312092
  0
SOLID
  8
0
 62
7
  6
CONTINUOUS
 10
364.3248278428
 20
31.7522584901
 11
364.4404530634
 21
31.6877312092
 12
364.0357657839
 22
31.6877312092
 13
364.0357657839
 23
31.6877312092
  0
SOLID
  8
0
 62
7
  6
CONTINUOUS
 10
362.7638906736
 20
31.6554672165
 11
362.8217029531
 21
31.7199944276
 12
363.4576406736
 22
31.7199944276
 13
363.4576406736
 23
31.7199944276
  0
SOLID
  8
0
 62
7
  6
CONTINUOUS
 10
364.1513903428
 20
31.6554672165
 11
364.0357657839
 21
31.6877312092
 12
364.4404530634
 22
31.6877312092
 13
364.4404530634
 23
31.6877312092
  0
SOLID
  8
0
 62
7
  6
CONTINUOUS
 10
364.1513903428
 20
31.6554672165
 11
364.4404530634
 21
31.6877312092
 12
364.2092032839
 22
31.5909400053
 13
364.2092032839
 23
31.5909400053
  0
SOLID
  8
0
 62
7
  6
CONTINUOUS
 10
364.4404530634
 20
31.6877312092
 11
364.4982653428
 21
31.5909400053
 12
364.2092032839
 22
31.5909400053
 13
364.2092032839
 23
31.5909400053
  0
SOLID
  8
0
 62
7
  6
CONTINUOUS
 10
364.2092032839
 20
31.4941486131
 11
364.2092032839
 21
31.5909400053
 12
364.4982653428
 22
31.5909400053
 13
364.4982653428
 23
31.5909400053
  0
SOLID
  8
0
 62
7
  6
CONTINUOUS
 10
364.2092032839
 20
31.4941486131
 11
364.4982653428
 21
31.5909400053
 12
364.2092032839
 22
31.3650944328
 13
364.2092032839
 23
31.3650944328
  0
SOLID
  8
0
 62
7
  6
CONTINUOUS
 10
364.2092032839
 20
31.3650944328
 11
364.4982653428
 21
31.5909400053
 12
364.2092032839
 22
31.1715120759
 13
364.2092032839
 23
31.1715120759
  0
SOLID
  8
0
 62
7
  6
CONTINUOUS
 10
364.4982653428
 20
31.5909400053
 11
364.4982653428
 21
31.0747202524
 12
364.2092032839
 22
31.1715120759
 13
364.2092032839
 23
31.1715120759
  0
SOLID
  8
0
 62
7
  6
CONTINUOUS
 10
366.4060778428
 20
31.8167851023
 11
366.6373282839
 21
31.849049822
 12
366.8685780634
 22
31.849049822
 13
366.8685780634
 23
31.849049822
  0
SOLID
  8
0
 62
7
  6
CONTINUOUS
 10
366.8685780634
 20
31.849049822
 11
367.0420155634
 21
31.8167851023
 12
366.4060778428
 22
31.8167851023
 13
366.4060778428
 23
31.8167851023
  0
SOLID
  8
0
 62
7
  6
CONTINUOUS
 10
366.2326403428
 20
31.7522587602
 11
366.4060778428
 21
31.8167851023
 12
367.0420155634
 22
31.8167851023
 13
367.0420155634
 23
31.8167851023
  0
SOLID
  8
0
 62
7
  6
CONTINUOUS
 10
367.0420155634
 20
31.8167851023
 11
367.2154530634
 21
31.7522587602
 12
366.2326403428
 22
31.7522587602
 13
366.2326403428
 23
31.7522587602
  0
SOLID
  8
0
 62
7
  6
CONTINUOUS
 10
367.2154530634
 20
31.7522587602
 11
366.6373282839
 21
31.7199941869
 12
366.2326403428
 22
31.7522587602
 13
366.2326403428
 23
31.7522587602
  0
SOLID
  8
0
 62
7
  6
CONTINUOUS
 10
366.1170157839
 20
31.6877313857
 11
366.2326403428
 21
31.7522587602
 12
366.6373282839
 22
31.7199941869
 13
366.6373282839
 23
31.7199941869
  0
SOLID
  8
0
 62
7
  6
CONTINUOUS
 10
366.6373282839
 20
31.7199941869
 11
366.4060778428
 21
31.6877313857
 12
366.1170157839
 22
31.6877313857
 13
366.1170157839
 23
31.6877313857
  0
SOLID
  8
0
 62
7
  6
CONTINUOUS
 10
366.6373282839
 20
31.7199941869
 11
367.2154530634
 21
31.7522587602
 12
366.8685780634
 22
31.6877313857
 13
366.8685780634
 23
31.6877313857
  0
SOLID
  8
0
 62
7
  6
CONTINUOUS
 10
367.2154530634
 20
31.7522587602
 11
367.3310782839
 21
31.6877313857
 12
366.8685780634
 22
31.6877313857
 13
366.8685780634
 23
31.6877313857
  0
SOLID
  8
0
 62
7
  6
CONTINUOUS
 10
366.9842032839
 20
31.6554670967
 11
366.8685780634
 21
31.6877313857
 12
367.3310782839
 22
31.6877313857
 13
367.3310782839
 23
31.6877313857
  0
SOLID
  8
0
 62
7
  6
CONTINUOUS
 10
366.9842032839
 20
31.6554670967
 11
367.3310782839
 21
31.6877313857
 12
367.0998278428
 22
31.590940324
 13
367.0998278428
 23
31.590940324
  0
SOLID
  8
0
 62
7
  6
CONTINUOUS
 10
367.3310782839
 20
31.6877313857
 11
367.3888905634
 21
31.590940324
 12
367.0998278428
 22
31.590940324
 13
367.0998278428
 23
31.590940324
  0
SOLID
  8
0
 62
7
  6
CONTINUOUS
 10
367.1576407839
 20
31.4296218878
 11
367.0998278428
 21
31.590940324
 12
367.3888905634
 22
31.590940324
 13
367.3888905634
 23
31.590940324
  0
SOLID
  8
0
 62
7
  6
CONTINUOUS
 10
367.3888905634
 20
31.590940324
 11
367.4467028428
 21
31.4296218878
 12
367.1576407839
 22
31.4296218878
 13
367.1576407839
 23
31.4296218878
  0
SOLID
  8
0
 62
7
  6
CONTINUOUS
 10
366.4060778428
 20
31.6877313857
 11
366.2326403428
 21
31.6232043098
 12
366.1170157839
 22
31.6877313857
 13
366.1170157839
 23
31.6877313857
  0
SOLID
  8
0
 62
7
  6
CONTINUOUS
 10
366.2326403428
 20
31.6232043098
 11
366.1170157839
 21
31.5586757033
 12
366.1170157839
 22
31.6877313857
 13
366.1170157839
 23
31.6877313857
  0
SOLID
  8
0
 62
7
  6
CONTINUOUS
 10
366.1170157839
 20
31.5586757033
 11
365.8279530634
 21
30.8166118302
 12
366.1170157839
 22
31.6877313857
 13
366.1170157839
 23
31.6877313857
  0
SOLID
  8
0
 62
7
  6
CONTINUOUS
 10
366.1170157839
 20
31.6877313857
 11
365.8279530634
 21
30.8166118302
 12
366.1170157839
 22
31.849049822
 13
366.1170157839
 23
31.849049822
  0
SOLID
  8
0
 62
7
  6
CONTINUOUS
 10
365.8279530634
 20
30.8166118302
 11
365.8279530634
 21
31.849049822
 12
366.1170157839
 22
31.849049822
 13
366.1170157839
 23
31.849049822
  0
SOLID
  8
0
 62
7
  6
CONTINUOUS
 10
366.1170157839
 20
31.5586757033
 11
366.1170157839
 21
30.8166118302
 12
365.8279530634
 22
30.8166118302
 13
365.8279530634
 23
30.8166118302
  0
SOLID
  8
0
 62
7
  6
CONTINUOUS
 10
367.1576407839
 20
30.8166118302
 11
367.1576407839
 21
31.4296218878
 12
367.4467028428
 22
31.4296218878
 13
367.4467028428
 23
31.4296218878
  0
SOLID
  8
0
 62
7
  6
CONTINUOUS
 10
367.4467028428
 20
31.4296218878
 11
367.4467028428
 21
30.8166118302
 12
367.1576407839
 22
30.8166118302
 13
367.1576407839
 23
30.8166118302
  0
SOLID
  8
0
 62
7
  6
CONTINUOUS
 10
368.2560780634
 20
31.8167856056
 11
368.6029530634
 21
31.8490498552
 12
368.9498280634
 22
31.8490498552
 13
368.9498280634
 23
31.8490498552
  0
SOLID
  8
0
 62
7
  6
CONTINUOUS
 10
368.9498280634
 20
31.8490498552
 11
369.2967030634
 21
31.8167856056
 12
368.2560780634
 22
31.8167856056
 13
368.2560780634
 23
31.8167856056
  0
SOLID
  8
0
 62
7
  6
CONTINUOUS
 10
368.0248282839
 20
31.7522584901
 11
368.2560780634
 21
31.8167856056
 12
369.2967030634
 22
31.8167856056
 13
369.2967030634
 23
31.8167856056
  0
SOLID
  8
0
 62
7
  6
CONTINUOUS
 10
368.0248282839
 20
31.7522584901
 11
369.2967030634
 21
31.8167855803
 12
369.4701405634
 22
31.7845227934
 13
369.4701405634
 23
31.7845227934
  0
SOLID
  8
0
 62
7
  6
CONTINUOUS
 10
368.0248282839
 20
31.7522584901
 11
369.4701405634
 21
31.7845227934
 12
368.6029530634
 22
31.7199941235
 13
368.6029530634
 23
31.7199941235
  0
SOLID
  8
0
 62
7
  6
CONTINUOUS
 10
368.6029530634
 20
31.7199941235
 11
369.4701405634
 21
31.7845227934
 12
368.9498280634
 22
31.7199941235
 13
368.9498280634
 23
31.7199941235
  0
SOLID
  8
0
 62
7
  6
CONTINUOUS
 10
369.4701405634
 20
31.7845227934
 11
369.6435780634
 21
31.7199941235
 12
368.9498280634
 22
31.7199941235
 13
368.9498280634
 23
31.7199941235
  0
SOLID
  8
0
 62
7
  6
CONTINUOUS
 10
369.2967030634
 20
31.6877314
 11
368.9498280634
 21
31.7199941235
 12
369.6435780634
 22
31.7199941235
 13
369.6435780634
 23
31.7199941235
  0
SOLID
  8
0
 62
7
  6
CONTINUOUS
 10
367.9092030634
 20
31.6554671071
 11
368.0248282839
 21
31.7522584901
 12
368.6029530634
 22
31.7199941235
 13
368.6029530634
 23
31.7199941235
  0
SOLID
  8
0
 62
7
  6
CONTINUOUS
 10
369.2967030634
 20
31.6877314
 11
369.6435780634
 21
31.7199941235
 12
369.4123282839
 22
31.6554671071
 13
369.4123282839
 23
31.6554671071
  0
SOLID
  8
0
 62
7
  6
CONTINUOUS
 10
369.4123282839
 20
31.6554671071
 11
369.6435780634
 21
31.7199941235
 12
369.4701405634
 22
31.5909400907
 13
369.4701405634
 23
31.5909400907
  0
SOLID
  8
0
 62
7
  6
CONTINUOUS
 10
369.6435780634
 20
31.7199941235
 11
369.7592026223
 21
31.5909400907
 12
369.4701405634
 22
31.5909400907
 13
369.4701405634
 23
31.5909400907
  0
SOLID
  8
0
 62
7
  6
CONTINUOUS
 10
359.0638905634
 20
31.6877314
 11
358.5435780634
 21
31.6554670789
 12
359.2951405909
 22
31.7199941045
 13
359.2951405909
 23
31.7199941045
  0
SOLID
  8
0
 62
7
  6
CONTINUOUS
 10
358.5435780634
 20
31.6554670789
 11
358.6592030565
 21
31.7199941045
 12
359.2951405909
 22
31.7199941045
 13
359.2951405909
 23
31.7199941045
  0
SOLID
  8
0
 62
7
  6
CONTINUOUS
 10
359.0638905634
 20
31.6877314
 11
358.9482655496
 21
31.6554670789
 12
358.5435780634
 22
31.6554670789
 13
358.5435780634
 23
31.6554670789
  0
SOLID
  8
0
 62
7
  6
CONTINUOUS
 10
358.4279530651
 20
31.5264129164
 11
358.5435780634
 21
31.6554670789
 12
358.9482655496
 22
31.6554670789
 13
358.9482655496
 23
31.6554670789
  0
SOLID
  8
0
 62
7
  6
CONTINUOUS
 10
362.7638906736
 20
31.6554670789
 11
363.4576406736
 21
31.7199941869
 12
363.2263905634
 22
31.6877314
 13
363.2263905634
 23
31.6877314
  0
SOLID
  8
0
 62
7
  6
CONTINUOUS
 10
363.2263905634
 20
31.6877314
 11
363.1107656736
 21
31.6554670789
 12
362.7638906736
 22
31.6554670789
 13
362.7638906736
 23
31.6554670789
  0
SOLID
  8
0
 62
7
  6
CONTINUOUS
 10
362.7638906736
 20
31.5909399887
 11
362.7638906736
 21
31.6554670789
 12
363.1107656736
 22
31.6554670789
 13
363.1107656736
 23
31.6554670789
  0
SOLID
  8
0
 62
7
  6
CONTINUOUS
 10
363.1107656736
 20
31.6554670789
 11
363.0529530634
 21
31.5909399887
 12
362.7638906736
 22
31.5909399887
 13
362.7638906736
 23
31.5909399887
  0
SOLID
  8
0
 62
7
  6
CONTINUOUS
 10
367.9092030634
 20
31.6554670789
 11
368.6029530634
 21
31.7199941869
 12
368.3717032839
 22
31.6877314
 13
368.3717032839
 23
31.6877314
  0
SOLID
  8
0
 62
7
  6
CONTINUOUS
 10
368.3717032839
 20
31.6877314
 11
368.2560780634
 21
31.6554670789
 12
367.9092030634
 22
31.6554670789
 13
367.9092030634
 23
31.6554670789
  0
SOLID
  8
0
 62
7
  6
CONTINUOUS
 10
367.9092030634
 20
31.5909399887
 11
367.9092030634
 21
31.6554670789
 12
368.2560780634
 22
31.6554670789
 13
368.2560780634
 23
31.6554670789
  0
SOLID
  8
0
 62
7
  6
CONTINUOUS
 10
368.2560780634
 20
31.6554670789
 11
368.1982657839
 21
31.5909399887
 12
367.9092030634
 22
31.5909399887
 13
367.9092030634
 23
31.5909399887
  0
SOLID
  8
0
 62
7
  6
CONTINUOUS
 10
368.0248282839
 20
31.4618858262
 11
367.9092030634
 21
31.5909399887
 12
368.1982657839
 22
31.5909399887
 13
368.1982657839
 23
31.5909399887
  0
SOLID
  8
0
 62
7
  6
CONTINUOUS
 10
358.4279530651
 20
31.5264129164
 11
358.9482655496
 21
31.6554670967
 12
358.7748280496
 22
31.5586757033
 13
358.7748280496
 23
31.5586757033
  0
SOLID
  8
0
 62
7
  6
CONTINUOUS
 10
358.7748280496
 20
31.5586757033
 11
358.7170155634
 21
31.4941486131
 12
358.4279530651
 22
31.5264129164
 13
358.4279530651
 23
31.5264129164
  0
SOLID
  8
0
 62
7
  6
CONTINUOUS
 10
358.3701405634
 20
31.3328301295
 11
358.4279530651
 21
31.5264129164
 12
358.7170155634
 22
31.4941486131
 13
358.7170155634
 23
31.4941486131
  0
SOLID
  8
0
 62
7
  6
CONTINUOUS
 10
363.2263905634
 20
31.4618858262
 11
363.5732655634
 21
31.4941485791
 12
364.2092032839
 22
31.4941485791
 13
364.2092032839
 23
31.4941485791
  0
SOLID
  8
0
 62
7
  6
CONTINUOUS
 10
363.2263905634
 20
31.4618858262
 11
364.2092032839
 21
31.4941485791
 12
362.9951404531
 22
31.397357926
 13
362.9951404531
 23
31.397357926
  0
SOLID
  8
0
 62
7
  6
CONTINUOUS
 10
362.9951404531
 20
31.397357926
 11
364.2092032839
 21
31.4941485791
 12
363.5732655634
 22
31.3650943988
 13
363.5732655634
 23
31.3650943988
  0
SOLID
  8
0
 62
7
  6
CONTINUOUS
 10
364.2092032839
 20
31.4941485791
 11
364.2092032839
 21
31.3650943988
 12
363.5732655634
 22
31.3650943988
 13
363.5732655634
 23
31.3650943988
  0
SOLID
  8
0
 62
7
  6
CONTINUOUS
 10
368.0248282839
 20
31.4618859165
 11
368.1982657839
 21
31.5909400065
 12
368.2560780634
 22
31.5264129164
 13
368.2560780634
 23
31.5264129164
  0
SOLID
  8
0
 62
7
  6
CONTINUOUS
 10
368.2560780634
 20
31.5264129164
 11
368.4295155634
 21
31.4618859165
 12
368.0248282839
 22
31.4618859165
 13
368.0248282839
 23
31.4618859165
  0
SOLID
  8
0
 62
7
  6
CONTINUOUS
 10
368.2560780634
 20
31.3650944328
 11
368.0248282839
 21
31.4618859165
 12
368.4295155634
 22
31.4618859165
 13
368.4295155634
 23
31.4618859165
  0
SOLID
  8
0
 62
7
  6
CONTINUOUS
 10
368.4295155634
 20
31.4618859165
 11
369.4123282839
 21
31.3005673426
 12
368.2560780634
 22
31.3650944328
 13
368.2560780634
 23
31.3650944328
  0
SOLID
  8
0
 62
7
  6
CONTINUOUS
 10
369.2388907839
 20
31.2037760287
 11
368.2560780634
 21
31.3650944328
 12
369.4123282839
 22
31.3005673426
 13
369.4123282839
 23
31.3005673426
  0
SOLID
  8
0
 62
7
  6
CONTINUOUS
 10
369.4123282839
 20
31.3005673426
 11
369.6435780634
 21
31.2037760287
 12
369.2388907839
 22
31.2037760287
 13
369.2388907839
 23
31.2037760287
  0
SOLID
  8
0
 62
7
  6
CONTINUOUS
 10
369.4123282839
 20
31.139248859
 11
369.2388907839
 21
31.2037760287
 12
369.6435780634
 22
31.2037760287
 13
369.6435780634
 23
31.2037760287
  0
SOLID
  8
0
 62
7
  6
CONTINUOUS
 10
369.4123282839
 20
31.139248859
 11
369.6435780634
 21
31.2037760287
 12
369.4701405634
 22
31.0747203105
 13
369.4701405634
 23
31.0747203105
  0
SOLID
  8
0
 62
7
  6
CONTINUOUS
 10
369.6435780634
 20
31.2037760287
 11
369.7592026223
 21
31.0747203105
 12
369.4701405634
 22
31.0747203105
 13
369.4701405634
 23
31.0747203105
  0
SOLID
  8
0
 62
7
  6
CONTINUOUS
 10
369.4123282839
 20
31.0101932257
 11
369.4701405634
 21
31.0747203105
 12
369.7592026223
 22
31.0747203105
 13
369.7592026223
 23
31.0747203105
  0
SOLID
  8
0
 62
7
  6
CONTINUOUS
 10
369.7592026223
 20
31.0747203105
 11
369.7592026223
 21
31.0101932257
 12
369.4123282839
 22
31.0101932257
 13
369.4123282839
 23
31.0101932257
  0
SOLID
  8
0
 62
7
  6
CONTINUOUS
 10
369.2967030634
 20
30.9779303754
 11
369.4123282839
 21
31.0101932257
 12
369.7592026223
 22
31.0101932257
 13
369.7592026223
 23
31.0101932257
  0
SOLID
  8
0
 62
7
  6
CONTINUOUS
 10
369.2967030634
 20
30.9779303754
 11
369.7592026223
 21
31.0101932257
 12
369.0654532839
 22
30.9456661409
 13
369.0654532839
 23
30.9456661409
  0
SOLID
  8
0
 62
7
  6
CONTINUOUS
 10
369.7592026223
 20
31.0101932257
 11
369.6435780634
 21
30.9134032852
 12
369.0654532839
 22
30.9456661409
 13
369.0654532839
 23
30.9456661409
  0
SOLID
  8
0
 62
7
  6
CONTINUOUS
 10
369.6435780634
 20
30.9134032852
 11
368.1982657839
 21
30.8811389819
 12
369.0654532839
 22
30.9456661409
 13
369.0654532839
 23
30.9456661409
  0
SOLID
  8
0
 62
7
  6
CONTINUOUS
 10
369.0654532839
 20
30.9456661409
 11
368.1982657839
 21
30.8811389819
 12
368.7185782839
 22
30.9456661409
 13
368.7185782839
 23
30.9456661409
  0
SOLID
  8
0
 62
7
  6
CONTINUOUS
 10
368.1982657839
 20
30.8811389819
 11
368.0248282839
 21
30.9456661409
 12
368.7185782839
 22
30.9456661409
 13
368.7185782839
 23
30.9456661409
  0
SOLID
  8
0
 62
7
  6
CONTINUOUS
 10
368.1982657839
 20
30.8811389819
 11
369.6435780634
 21
30.9134032852
 12
368.3717032839
 22
30.8488743522
 13
368.3717032839
 23
30.8488743522
  0
SOLID
  8
0
 62
7
  6
CONTINUOUS
 10
369.6435780634
 20
30.9134032852
 11
369.4123282839
 21
30.8488743522
 12
368.3717032839
 22
30.8488743522
 13
368.3717032839
 23
30.8488743522
  0
SOLID
  8
0
 62
7
  6
CONTINUOUS
 10
368.7185782839
 20
30.8166119713
 11
368.3717032839
 21
30.8488743522
 12
369.4123282839
 22
30.8488743522
 13
369.4123282839
 23
30.8488743522
  0
SOLID
  8
0
 62
7
  6
CONTINUOUS
 10
369.4123282839
 20
30.8488743522
 11
369.0654532839
 21
30.8166119713
 12
368.7185782839
 22
30.8166119713
 13
368.7185782839
 23
30.8166119713
  0
SOLID
  8
0
 62
7
  6
CONTINUOUS
 10
358.3701405634
 20
31.3328301295
 11
358.7170155634
 21
31.4941486131
 12
358.6592030565
 22
31.3650944328
 13
358.6592030565
 23
31.3650944328
  0
SOLID
  8
0
 62
7
  6
CONTINUOUS
 10
358.6592030565
 20
31.3650944328
 11
358.6592030565
 21
31.2683031351
 12
358.3701405634
 22
31.3328301295
 13
358.3701405634
 23
31.3328301295
  0
SOLID
  8
0
 62
7
  6
CONTINUOUS
 10
358.4279530651
 20
31.139248859
 11
358.3701405634
 21
31.3328301295
 12
358.6592030565
 22
31.2683031351
 13
358.6592030565
 23
31.2683031351
  0
SOLID
  8
0
 62
7
  6
CONTINUOUS
 10
358.6592030565
 20
31.2683031351
 11
358.7748280496
 21
31.1069845557
 12
358.4279530651
 22
31.139248859
 13
358.4279530651
 23
31.139248859
  0
SOLID
  8
0
 62
7
  6
CONTINUOUS
 10
358.5435780634
 20
31.0101931569
 11
358.4279530651
 21
31.139248859
 12
358.7748280496
 22
31.1069845557
 13
358.7748280496
 23
31.1069845557
  0
SOLID
  8
0
 62
7
  6
CONTINUOUS
 10
358.7748280496
 20
31.1069845557
 11
358.9482655496
 21
31.0101931569
 12
358.5435780634
 22
31.0101931569
 13
358.5435780634
 23
31.0101931569
  0
SOLID
  8
0
 62
7
  6
CONTINUOUS
 10
358.6592030565
 20
30.9456659241
 11
358.5435780634
 21
31.0101931569
 12
358.9482655496
 22
31.0101931569
 13
358.9482655496
 23
31.0101931569
  0
SOLID
  8
0
 62
7
  6
CONTINUOUS
 10
358.9482655496
 20
31.0101931569
 11
359.2951405909
 21
30.9456659241
 12
358.6592030565
 22
30.9456659241
 13
358.6592030565
 23
30.9456659241
  0
SOLID
  8
0
 62
7
  6
CONTINUOUS
 10
358.8326405772
 20
30.8811389819
 11
358.6592030565
 21
30.9456659241
 12
359.2951405909
 22
30.9456659241
 13
359.2951405909
 23
30.9456659241
  0
SOLID
  8
0
 62
7
  6
CONTINUOUS
 10
362.8795155634
 20
31.3328301325
 11
362.9951404531
 21
31.397357926
 12
363.5732655634
 22
31.3650944328
 13
363.5732655634
 23
31.3650944328
  0
SOLID
  8
0
 62
7
  6
CONTINUOUS
 10
363.5732655634
 20
31.3650944328
 11
363.3420154531
 21
31.3328301325
 12
362.8795155634
 22
31.3328301325
 13
362.8795155634
 23
31.3328301325
  0
SOLID
  8
0
 62
7
  6
CONTINUOUS
 10
362.7638906736
 20
31.2037759492
 11
362.8795155634
 21
31.3328301325
 12
363.3420154531
 22
31.3328301325
 13
363.3420154531
 23
31.3328301325
  0
SOLID
  8
0
 62
7
  6
CONTINUOUS
 10
363.1107656736
 20
31.2360394487
 11
362.7638906736
 21
31.2037759492
 12
363.2263905634
 22
31.3005673426
 13
363.2263905634
 23
31.3005673426
  0
SOLID
  8
0
 62
7
  6
CONTINUOUS
 10
362.7638906736
 20
31.2037759492
 11
363.3420154531
 21
31.3328301295
 12
363.2263905634
 22
31.3005673426
 13
363.2263905634
 23
31.3005673426
  0
SOLID
  8
0
 62
7
  6
CONTINUOUS
 10
363.1107656736
 20
31.2360394487
 11
363.0529530634
 21
31.139248859
 12
362.7638906736
 22
31.2037759492
 13
362.7638906736
 23
31.2037759492
  0
SOLID
  8
0
 62
7
  6
CONTINUOUS
 10
362.7638906736
 20
31.1069845557
 11
362.7638906736
 21
31.2037759492
 12
363.0529530634
 22
31.139248859
 13
363.0529530634
 23
31.139248859
  0
SOLID
  8
0
 62
7
  6
CONTINUOUS
 10
363.0529530634
 20
31.139248859
 11
363.0529530634
 21
31.0747202524
 12
362.7638906736
 22
31.1069845557
 13
362.7638906736
 23
31.1069845557
  0
SOLID
  8
0
 62
7
  6
CONTINUOUS
 10
362.8217029531
 20
30.9779303754
 11
362.7638906736
 21
31.1069845557
 12
363.0529530634
 22
31.0747202524
 13
363.0529530634
 23
31.0747202524
  0
SOLID
  8
0
 62
7
  6
CONTINUOUS
 10
364.2092032839
 20
31.1715120759
 11
364.4982653428
 21
31.0747202524
 12
364.1513903428
 22
31.1069845557
 13
364.1513903428
 23
31.1069845557
  0
SOLID
  8
0
 62
7
  6
CONTINUOUS
 10
363.9779528428
 20
31.0101931623
 11
364.1513903428
 21
31.1069845557
 12
364.4982653428
 22
31.0747202524
 13
364.4982653428
 23
31.0747202524
  0
SOLID
  8
0
 62
7
  6
CONTINUOUS
 10
363.9779528428
 20
31.0101931623
 11
364.4982653428
 21
31.0747202524
 12
364.2092032839
 22
30.9779303754
 13
364.2092032839
 23
30.9779303754
  0
SOLID
  8
0
 62
7
  6
CONTINUOUS
 10
364.4982653428
 20
31.0747202524
 11
364.5560782839
 21
30.9134032852
 12
364.2092032839
 22
30.9779303754
 13
364.2092032839
 23
30.9779303754
  0
SOLID
  8
0
 62
7
  6
CONTINUOUS
 10
364.2670155634
 20
30.8811389819
 11
364.2092032839
 21
30.9779303754
 12
364.5560782839
 22
30.9134032852
 13
364.5560782839
 23
30.9134032852
  0
SOLID
  8
0
 62
7
  6
CONTINUOUS
 10
364.2670155634
 20
30.8811389819
 11
364.5560782839
 21
30.9134032852
 12
364.3248278428
 22
30.816611867
 13
364.3248278428
 23
30.816611867
  0
SOLID
  8
0
 62
7
  6
CONTINUOUS
 10
364.5560782839
 20
30.9134032852
 11
364.6138905634
 21
30.816611867
 12
364.3248278428
 22
30.816611867
 13
364.3248278428
 23
30.816611867
  0
SOLID
  8
0
 62
7
  6
CONTINUOUS
 10
359.8732656185
 20
31.0424573076
 11
359.9310780634
 21
31.1392488159
 12
360.2201406185
 22
31.1392488159
 13
360.2201406185
 23
31.1392488159
  0
SOLID
  8
0
 62
7
  6
CONTINUOUS
 10
360.2201406185
 20
31.1392488159
 11
360.1623280082
 21
31.0101931623
 12
359.8732656185
 22
31.0424573076
 13
359.8732656185
 23
31.0424573076
  0
SOLID
  8
0
 62
7
  6
CONTINUOUS
 10
359.6998280358
 20
30.9779303754
 11
359.8732656185
 21
31.0424573076
 12
360.1623280082
 22
31.0101931623
 13
360.1623280082
 23
31.0101931623
  0
SOLID
  8
0
 62
7
  6
CONTINUOUS
 10
359.6998280358
 20
30.9779303754
 11
360.1623280082
 21
31.0101931623
 12
359.2951405909
 22
30.9456660721
 13
359.2951405909
 23
30.9456660721
  0
SOLID
  8
0
 62
7
  6
CONTINUOUS
 10
360.1623280082
 20
31.0101931623
 11
359.9888905082
 21
30.9134032852
 12
359.2951405909
 22
30.9456660721
 13
359.2951405909
 23
30.9456660721
  0
SOLID
  8
0
 62
7
  6
CONTINUOUS
 10
358.8326405772
 20
30.8811389819
 11
359.2951405909
 21
30.9456660721
 12
359.9888905082
 22
30.9134032852
 13
359.9888905082
 23
30.9134032852
  0
SOLID
  8
0
 62
7
  6
CONTINUOUS
 10
358.8326405772
 20
30.8811389819
 11
359.9888905082
 21
30.9134032852
 12
359.0060780772
 22
30.8488745775
 13
359.0060780772
 23
30.8488745775
  0
SOLID
  8
0
 62
7
  6
CONTINUOUS
 10
359.9888905082
 20
30.9134032852
 11
359.7576405634
 21
30.8488745775
 12
359.0060780772
 22
30.8488745775
 13
359.0060780772
 23
30.8488745775
  0
SOLID
  8
0
 62
7
  6
CONTINUOUS
 10
359.3529530358
 20
30.8166118918
 11
359.0060780772
 21
30.8488745775
 12
359.7576405634
 22
30.8488745775
 13
359.7576405634
 23
30.8488745775
  0
SOLID
  8
0
 62
7
  6
CONTINUOUS
 10
362.8217029531
 20
30.9779303754
 11
363.0529530634
 21
31.0747202524
 12
363.1107656736
 22
31.0101931623
 13
363.1107656736
 23
31.0101931623
  0
SOLID
  8
0
 62
7
  6
CONTINUOUS
 10
363.1107656736
 20
31.0101931623
 11
363.3420154531
 21
30.9456660721
 12
362.8217029531
 22
30.9779303754
 13
362.8217029531
 23
30.9779303754
  0
SOLID
  8
0
 62
7
  6
CONTINUOUS
 10
362.9951404531
 20
30.8811389819
 11
362.8217029531
 21
30.9779303754
 12
363.3420154531
 22
30.9456660721
 13
363.3420154531
 23
30.9456660721
  0
SOLID
  8
0
 62
7
  6
CONTINUOUS
 10
363.6888904531
 20
30.9456661188
 11
363.9779528428
 21
31.0101931623
 12
364.2092032839
 22
30.9779303754
 13
364.2092032839
 23
30.9779303754
  0
SOLID
  8
0
 62
7
  6
CONTINUOUS
 10
364.2092032839
 20
30.9779303754
 11
364.1513903428
 21
30.9134032852
 12
363.6888904531
 22
30.9456661188
 13
363.6888904531
 23
30.9456661188
  0
SOLID
  8
0
 62
7
  6
CONTINUOUS
 10
364.1513903428
 20
30.9134032852
 11
362.9951404531
 21
30.8811389819
 12
363.6888904531
 22
30.9456661188
 13
363.6888904531
 23
30.9456661188
  0
SOLID
  8
0
 62
7
  6
CONTINUOUS
 10
362.9951404531
 20
30.8811389819
 11
363.3420154531
 21
30.9456661188
 12
363.6888904531
 22
30.9456661188
 13
363.6888904531
 23
30.9456661188
  0
SOLID
  8
0
 62
7
  6
CONTINUOUS
 10
362.9951404531
 20
30.8811389819
 11
364.1513903428
 21
30.9134032852
 12
363.1107656736
 22
30.8488747093
 13
363.1107656736
 23
30.8488747093
  0
SOLID
  8
0
 62
7
  6
CONTINUOUS
 10
364.1513903428
 20
30.9134032852
 11
363.9779528428
 21
30.8488747093
 12
363.1107656736
 22
30.8488747093
 13
363.1107656736
 23
30.8488747093
  0
SOLID
  8
0
 62
7
  6
CONTINUOUS
 10
363.3420154531
 20
30.816611874
 11
363.1107656736
 21
30.8488747093
 12
363.9779528428
 22
30.8488747093
 13
363.9779528428
 23
30.8488747093
  0
SOLID
  8
0
 62
7
  6
CONTINUOUS
 10
363.9779528428
 20
30.8488747093
 11
363.6888904531
 21
30.816611874
 12
363.3420154531
 22
30.816611874
 13
363.3420154531
 23
30.816611874
  0
SOLID
  8
0
 62
7
  6
CONTINUOUS
 10
368.3717032839
 20
30.9779303754
 11
368.0248282839
 21
30.9456661188
 12
368.2560780634
 22
31.0101931623
 13
368.2560780634
 23
31.0101931623
  0
SOLID
  8
0
 62
7
  6
CONTINUOUS
 10
368.2560780634
 20
31.0101931623
 11
368.0248282839
 21
30.9456661188
 12
368.1982657839
 22
31.0747202992
 13
368.1982657839
 23
31.0747202992
  0
SOLID
  8
0
 62
7
  6
CONTINUOUS
 10
368.0248282839
 20
30.9456661188
 11
367.9092030634
 21
31.0747202992
 12
368.1982657839
 22
31.0747202992
 13
368.1982657839
 23
31.0747202992
  0
SOLID
  8
0
 62
7
  6
CONTINUOUS
 10
368.3717032839
 20
30.9779303754
 11
368.7185782839
 21
30.9456661188
 12
368.0248282839
 22
30.9456661188
 13
368.0248282839
 23
30.9456661188
  0
SOLID
  8
0
 62
7
  6
CONTINUOUS
 10
365.0763907839
 20
30.8166118918
 11
365.0763907839
 21
31.8490498836
 12
365.3654528428
 22
30.8166118918
 13
365.3654528428
 23
31.8490498836
  0
ENDBLK
  8
0
  6
BYBLOCK
 62
0
  0
BLOCK
  8
0
 62
2
  6
CONTINUOUS
  2
SYMBOL_0_BL0
 70
64
 10
241.0459637928
 20
19.6790146053
  0
TEXT
  8
0
 62
7
  6
CONTINUOUS
 10
227.3106676351
 20
19.0524287129
  7
TEXTSTYLE_3
 40
2.7338706658
  1
Ammeraal Beltech
 41
1.0
 51
15.0
 72
0
  0
TEXT
  8
0
 62
7
  6
CONTINUOUS
 10
238.1114684608
 20
16.7788920401
  7
TEXTSTYLE_4
 40
1.0935482663
  1
Innovation & Service in Belting
 41
1.0
 72
0
  0
LINE
  8
0
 62
7
  6
CONTINUOUS
 10
221.2861269837
 20
19.8190220215
 11
222.0642789771
 21
23.4799393191
  0
LINE
  8
0
 62
7
  6
CONTINUOUS
 10
232.1594472669
 20
27.1433332308
 11
222.5520967201
 21
24.0217158095
  0
LINE
  8
0
 62
7
  6
CONTINUOUS
 10
221.511410316
 20
19.1256712184
 11
229.0184855772
 21
12.3662702925
  0
LINE
  8
0
 62
7
  6
CONTINUOUS
 10
221.7739447268
 20
20.3607985118
 11
232.5822140919
 21
23.8726181108
  0
LINE
  8
0
 62
7
  6
CONTINUOUS
 10
232.5780089548
 20
13.522829547
 11
224.132549286
 21
21.1271555887
  0
LINE
  8
0
 62
7
  6
CONTINUOUS
 10
233.0978316746
 20
26.298408115
 11
232.1212721373
 21
21.7040567125
  0
LINE
  8
0
 62
7
  6
CONTINUOUS
 10
231.4214701896
 20
18.4117473987
 11
230.7350219782
 21
15.1822624744
  0
LINE
  8
0
 62
7
  6
CONTINUOUS
 10
233.7789277731
 20
13.9130317247
 11
234.7351593087
 21
18.4117473987
  0
LINE
  8
0
 62
7
  6
CONTINUOUS
 10
235.4349612564
 20
21.7040567125
 11
235.8792030588
 21
23.7940500719
  0
LINE
  8
0
 62
7
  6
CONTINUOUS
 10
229.7315866525
 20
12.2146959798
 11
233.2911100301
 21
13.3712552343
  0
LINE
  8
0
 62
7
  6
CONTINUOUS
 10
232.8725483422
 20
26.9917589181
 11
235.6539197265
 21
24.487400875
  0
ARC
  8
0
 62
7
  6
CONTINUOUS
 10
222.7773800524
 20
23.3283650064
 40
0.7290321776
 50
108.0
 51
168.0
  0
ARC
  8
0
 62
7
  6
CONTINUOUS
 10
232.3847305992
 20
26.4499824277
 40
0.7290321776
 50
348.0
 51
108.0
  0
ARC
  8
0
 62
7
  6
CONTINUOUS
 10
235.1661019835
 20
23.9456243846
 40
0.7290321776
 50
348.0
 51
48.0
  0
ARC
  8
0
 62
7
  6
CONTINUOUS
 10
229.5063033202
 20
12.9080467828
 40
0.7290321776
 50
228.0
 51
288.0
  0
ARC
  8
0
 62
7
  6
CONTINUOUS
 10
221.9992280591
 20
19.6674477088
 40
0.7290321776
 50
108.0
 51
228.0
  0
ARC
  8
0
 62
7
  6
CONTINUOUS
 10
233.0658266978
 20
14.0646060374
 40
0.7290321776
 50
228.0
 51
348.0
  0
ENDBLK
  8
0
  6
BYBLOCK
 62
0
  0
ENDSEC
  0
SECTION
  2
ENTITIES
  0
TEXT
  8
0
 62
5
  6
CONTINUOUS
 10
304.937007874
 20
25.636
  7
TEXTSTYLE_2
 40
2.8
  1
Scale :
 41
0.6
 51
0.000019
 72
0
  0
TEXT
  8
0
 62
5
  6
CONTINUOUS
 10
324.937007874
 20
25.636
  7
TEXTSTYLE_2
 40
2.8
  1
Chain type:
 41
0.6
 51
0.000019
 72
0
  0
INSERT
  8
0
 62
2
  6
CONTINUOUS
  2
SYMBOL_0_BL0
 10
241.0459637928
 20
19.6790146053
  0
INSERT
  8
0
 62
2
  6
CONTINUOUS
  2
SYMBOL_5_BL1
 10
382.3920721743
 20
35.81661148
  0
LINE
  8
0
 62
2
  6
CONTINUOUS
 10
218.937007874
 20
30.0
 11
408.937007874
 21
30.0
  0
LINE
  8
0
 62
2
  6
CONTINUOUS
 10
218.937007874
 20
30.0
 11
218.937007874
 21
10.0
  0
LINE
  8
0
 62
2
  6
CONTINUOUS
 10
218.937007874
 20
10.0
 11
408.937007874
 21
10.0
  0
LINE
  8
0
 62
2
  6
CONTINUOUS
 10
303.937007874
 20
30.0
 11
303.937007874
 21
10.0
  0
LINE
  8
0
 62
2
  6
CONTINUOUS
 10
323.937007874
 20
30.0
 11
323.937007874
 21
10.0
  0
LINE
  8
0
 62
2
  6
CONTINUOUS
 10
408.937007874
 20
30.0
 11
408.937007874
 21
10.0
  0
TEXT
  8
0
 62
5
  6
CONTINUOUS
 10
221.937007874
 20
23.303
  7
TEXTSTYLE_5
 40
1.52
  1
                                                                     Ammeraal Beltech Modular A/S
 41
1.0
 72
0
  0
TEXT
  8
0
 62
5
  6
CONTINUOUS
 10
221.937007874
 20
20.595
  7
TEXTSTYLE_5
 40
1.5
  1
                                                                      Hjulmagervej 21, 7100 Vejle,  DK
 41
1.0
 72
0
  0
TEXT
  8
0
 62
5
  6
CONTINUOUS
 10
221.937007874
 20
17.881
  7
TEXTSTYLE_5
 40
1.495
  1
                                                                      tel: 
 41
1.0
 72
0
  0
TEXT
  8
0
 62
5
  6
CONTINUOUS
 10
266.9239544389
 20
17.881
  7
TEXTSTYLE_5
 40
1.51
  1
+45 75723100     fax: +45 75723348
 41
1.0
 72
0
  0
TEXT
  8
0
 62
5
  6
CONTINUOUS
 10
221.937007874
 20
15.177
  7
TEXTSTYLE_5
 40
1.5
  1
                                                                      admin@unichains.dk  www.unichains.com
 41
1.0
 72
0
  0
TEXT
  8
0
 62
5
  6
CONTINUOUS
 10
308.687007874
 20
13.75
  7
TEXTSTYLE_6
 40
5.0
  1
1:1
 41
0.7
 72
1
 11
313.937007874
 21
13.75
  0
TEXT
  8
0
 62
5
  6
CONTINUOUS
 10
326.937007874
 20
13.75
  7
TEXTSTYLE_7
 40
7.5
  1
uni 821-PRR-K1000
 41
0.6088235294
 72
0
  0
LINE
  8
0
 62
7
  6
CONTINUOUS
 10
0.0
 20
0.0
 11
0.0
 21
297.0
  0
LINE
  8
0
 62
7
  6
CONTINUOUS
 10
8.937007874
 20
10.0
 11
8.937007874
 21
287.0
  0
LINE
  8
0
 62
7
  6
CONTINUOUS
 10
0.0
 20
0.0
 11
420.0
 21
0.0
  0
LINE
  8
0
 62
7
  6
CONTINUOUS
 10
408.937007874
 20
10.0
 11
8.937007874
 21
10.0
  0
LINE
  8
0
 62
7
  6
CONTINUOUS
 10
218.937007874
 20
30.0
 11
408.937007874
 21
30.0
  0
LINE
  8
0
 62
7
  6
CONTINUOUS
 10
210.0
 20
297.0
 11
210.0
 21
292.0
  0
LINE
  8
0
 62
7
  6
CONTINUOUS
 10
210.0
 20
0.0
 11
210.0
 21
5.0
  0
LINE
  8
0
 62
7
  6
CONTINUOUS
 10
8.937007874
 20
287.0
 11
408.937007874
 21
287.0
  0
LINE
  8
0
 62
7
  6
CONTINUOUS
 10
0.0
 20
297.0
 11
420.0
 21
297.0
  0
LINE
  8
0
 62
7
  6
CONTINUOUS
 10
408.937007874
 20
287.0
 11
408.937007874
 21
10.0
  0
LINE
  8
0
 62
7
  6
CONTINUOUS
 10
420.0
 20
0.0
 11
420.0
 21
297.0
  0
LINE
  8
13_KOMPONENTER
 62
7
  6
CONTINUOUS
 10
35.362704918
 20
217.6478632685
 11
35.362704918
 21
213.3478632685
  0
LINE
  8
13_KOMPONENTER
 62
7
  6
CONTINUOUS
 10
37.952704918
 20
229.5478632685
 11
37.952704918
 21
218.3478632685
  0
LINE
  8
13_KOMPONENTER
 62
7
  6
CONTINUOUS
 10
42.402704918
 20
231.5478632685
 11
42.402704918
 21
231.6638886723
  0
POLYLINE
  8
13_KOMPONENTER
 62
7
  6
CONTINUOUS
 66
1
 70
0
  0
VERTEX
  8
13_KOMPONENTER
 62
7
  6
CONTINUOUS
 10
35.362704918
 20
216.9392677794
  0
VERTEX
  8
13_KOMPONENTER
 62
7
  6
CONTINUOUS
 10
35.3958015084
 20
217.1215767499
  0
VERTEX
  8
13_KOMPONENTER
 62
7
  6
CONTINUOUS
 10
35.4988067988
 20
217.2842330978
  0
VERTEX
  8
13_KOMPONENTER
 62
7
  6
CONTINUOUS
 10
35.5781980794
 20
217.3539357763
  0
VERTEX
  8
13_KOMPONENTER
 62
7
  6
CONTINUOUS
 10
35.7902551871
 20
217.457850558
  0
VERTEX
  8
13_KOMPONENTER
 62
7
  6
CONTINUOUS
 10
36.062704918
 20
217.4977693691
  0
SEQEND
  0
LINE
  8
13_KOMPONENTER
 62
7
  6
CONTINUOUS
 10
45.952704918
 20
227.5478632685
 11
45.952704918
 21
218.3478632685
  0
LINE
  8
13_KOMPONENTER
 62
7
  6
CONTINUOUS
 10
42.402704918
 20
231.6638886723
 11
42.3357176199
 21
231.5478632685
  0
LINE
  8
13_KOMPONENTER
 62
7
  6
CONTINUOUS
 10
56.262704918
 20
231.6978632685
 11
56.262704918
 21
222.3978632685
  0
LINE
  8
13_KOMPONENTER
 62
7
  6
CONTINUOUS
 10
66.662704918
 20
231.6978632685
 11
66.662704918
 21
222.3978632685
  0
LINE
  8
13_KOMPONENTER
 62
7
  6
CONTINUOUS
 10
77.062704918
 20
231.6978632685
 11
77.062704918
 21
222.3978632685
  0
LINE
  8
13_KOMPONENTER
 62
7
  6
CONTINUOUS
 10
87.462704918
 20
231.6978632685
 11
87.462704918
 21
222.3978632685
  0
LINE
  8
13_KOMPONENTER
 62
7
  6
CONTINUOUS
 10
94.112704918
 20
204.7284985321
 11
94.112704918
 21
213.3478632685
  0
POLYLINE
  8
13_KOMPONENTER
 62
7
  6
CONTINUOUS
 66
1
 70
0
  0
VERTEX
  8
13_KOMPONENTER
 62
7
  6
CONTINUOUS
 10
94.112704918
 20
204.7284982781
  0
VERTEX
  8
13_KOMPONENTER
 62
7
  6
CONTINUOUS
 10
94.169201896
 20
204.4255312483
  0
VERTEX
  8
13_KOMPONENTER
 62
7
  6
CONTINUOUS
 10
94.3311011806
 20
204.1632704894
  0
VERTEX
  8
13_KOMPONENTER
 62
7
  6
CONTINUOUS
 10
94.4452709754
 20
204.0587647018
  0
VERTEX
  8
13_KOMPONENTER
 62
7
  6
CONTINUOUS
 10
94.7208505588
 20
203.9205996154
  0
VERTEX
  8
13_KOMPONENTER
 62
7
  6
CONTINUOUS
 10
94.9536755422
 20
203.8877412398
  0
SEQEND
  0
LINE
  8
13_KOMPONENTER
 62
7
  6
CONTINUOUS
 10
97.862704918
 20
231.6978632685
 11
97.862704918
 21
222.3978632685
  0
LINE
  8
13_KOMPONENTER
 62
7
  6
CONTINUOUS
 10
108.262704918
 20
231.6978632685
 11
108.262704918
 21
222.3978632685
  0
LINE
  8
13_KOMPONENTER
 62
7
  6
CONTINUOUS
 10
114.962704918
 20
217.5478632274
 11
114.962704918
 21
204.8877412397
  0
LINE
  8
13_KOMPONENTER
 62
7
  6
CONTINUOUS
 10
118.662704918
 20
231.6978632685
 11
118.662704918
 21
222.3978632685
  0
LINE
  8
13_KOMPONENTER
 62
7
  6
CONTINUOUS
 10
129.062704918
 20
231.6978632685
 11
129.062704918
 21
222.3978632685
  0
LINE
  8
13_KOMPONENTER
 62
7
  6
CONTINUOUS
 10
139.462704918
 20
231.6978632685
 11
139.462704918
 21
222.3978632685
  0
POLYLINE
  8
13_KOMPONENTER
 62
7
  6
CONTINUOUS
 66
1
 70
0
  0
VERTEX
  8
13_KOMPONENTER
 62
7
  6
CONTINUOUS
 10
229.7717342938
 20
203.8877412398
  0
VERTEX
  8
13_KOMPONENTER
 62
7
  6
CONTINUOUS
 10
229.9995655054
 20
203.9191780283
  0
VERTEX
  8
13_KOMPONENTER
 62
7
  6
CONTINUOUS
 10
230.277179397
 20
204.0565295227
  0
VERTEX
  8
13_KOMPONENTER
 62
7
  6
CONTINUOUS
 10
230.392309977
 20
204.1610778655
  0
VERTEX
  8
13_KOMPONENTER
 62
7
  6
CONTINUOUS
 10
230.5556721015
 20
204.4241480779
  0
VERTEX
  8
13_KOMPONENTER
 62
7
  6
CONTINUOUS
 10
230.612704918
 20
204.728498278
  0
SEQEND
  0
POLYLINE
  8
13_KOMPONENTER
 62
7
  6
CONTINUOUS
 66
1
 70
0
  0
VERTEX
  8
13_KOMPONENTER
 62
7
  6
CONTINUOUS
 10
147.962704918
 20
204.6834348562
  0
VERTEX
  8
13_KOMPONENTER
 62
7
  6
CONTINUOUS
 10
148.0164998615
 20
204.3958736271
  0
VERTEX
  8
13_KOMPONENTER
 62
7
  6
CONTINUOUS
 10
148.1706124602
 20
204.1471810272
  0
VERTEX
  8
13_KOMPONENTER
 62
7
  6
CONTINUOUS
 10
148.2792511511
 20
204.0482485637
  0
VERTEX
  8
13_KOMPONENTER
 62
7
  6
CONTINUOUS
 10
148.5413136203
 20
203.9179760371
  0
VERTEX
  8
13_KOMPONENTER
 62
7
  6
CONTINUOUS
 10
148.7586656029
 20
203.8877412399
  0
SEQEND
  0
LINE
  8
13_KOMPONENTER
 62
7
  6
CONTINUOUS
 10
147.262704918
 20
204.8877412418
 11
147.262704918
 21
217.5478625765
  0
LINE
  8
13_KOMPONENTER
 62
7
  6
CONTINUOUS
 10
147.962704918
 20
204.6834351474
 11
147.962704918
 21
213.3478632685
  0
LINE
  8
13_KOMPONENTER
 62
7
  6
CONTINUOUS
 10
149.377704918
 20
213.3478632685
 11
149.377704918
 21
213.0478632685
  0
LINE
  8
13_KOMPONENTER
 62
7
  6
CONTINUOUS
 10
149.862704918
 20
231.6978632685
 11
149.862704918
 21
222.3978632685
  0
LINE
  8
13_KOMPONENTER
 62
7
  6
CONTINUOUS
 10
150.907704918
 20
213.3478632685
 11
150.907704918
 21
213.0478632685
  0
LINE
  8
13_KOMPONENTER
 62
7
  6
CONTINUOUS
 10
150.982704918
 20
213.3478632685
 11
150.982704918
 21
213.0478632685
  0
LINE
  8
13_KOMPONENTER
 62
7
  6
CONTINUOUS
 10
150.997704918
 20
213.3478632685
 11
150.997704918
 21
213.0478632685
  0
LINE
  8
13_KOMPONENTER
 62
7
  6
CONTINUOUS
 10
152.362704918
 20
213.3478632685
 11
152.362704918
 21
213.0478632685
  0
LINE
  8
13_KOMPONENTER
 62
7
  6
CONTINUOUS
 10
152.807704918
 20
213.3478632685
 11
152.807704918
 21
213.0478632685
  0
LINE
  8
13_KOMPONENTER
 62
7
  6
CONTINUOUS
 10
152.8667474642
 20
213.3478632685
 11
152.8667474642
 21
213.0478632685
  0
LINE
  8
13_KOMPONENTER
 62
7
  6
CONTINUOUS
 10
152.9848325896
 20
213.3478632685
 11
152.9848325896
 21
213.0478632685
  0
LINE
  8
13_KOMPONENTER
 62
7
  6
CONTINUOUS
 10
152.9966410988
 20
213.3478632685
 11
152.9966410988
 21
213.0478632685
  0
LINE
  8
13_KOMPONENTER
 62
7
  6
CONTINUOUS
 10
153.008449608
 20
213.3478632685
 11
153.008449608
 21
213.0478632685
  0
LINE
  8
13_KOMPONENTER
 62
7
  6
CONTINUOUS
 10
153.0320666265
 20
213.3478632685
 11
153.0320666265
 21
213.0478632685
  0
LINE
  8
13_KOMPONENTER
 62
7
  6
CONTINUOUS
 10
153.0793006634
 20
213.3478632685
 11
153.0793006634
 21
213.0478632685
  0
LINE
  8
13_KOMPONENTER
 62
7
  6
CONTINUOUS
 10
153.1029176819
 20
213.3478632685
 11
153.1029176819
 21
213.0478632685
  0
LINE
  8
13_KOMPONENTER
 62
7
  6
CONTINUOUS
 10
153.1265347003
 20
213.3478632685
 11
153.1265347003
 21
213.0478632685
  0
LINE
  8
13_KOMPONENTER
 62
7
  6
CONTINUOUS
 10
153.185577263
 20
213.3478632685
 11
153.185577263
 21
213.0478632685
  0
LINE
  8
13_KOMPONENTER
 62
7
  6
CONTINUOUS
 10
153.2210027907
 20
213.3478632685
 11
153.2210027907
 21
213.0478632685
  0
LINE
  8
13_KOMPONENTER
 62
7
  6
CONTINUOUS
 10
153.2682368359
 20
213.3478632685
 11
153.2682368359
 21
213.0478632685
  0
LINE
  8
13_KOMPONENTER
 62
7
  6
CONTINUOUS
 10
153.2918538544
 20
213.3478632685
 11
153.2918538544
 21
213.0478632685
  0
LINE
  8
13_KOMPONENTER
 62
7
  6
CONTINUOUS
 10
153.3272793862
 20
213.3478632685
 11
153.3272793862
 21
213.0478632685
  0
LINE
  8
13_KOMPONENTER
 62
7
  6
CONTINUOUS
 10
153.3508964078
 20
213.3478632685
 11
153.3508964078
 21
213.0478632685
  0
LINE
  8
13_KOMPONENTER
 62
7
  6
CONTINUOUS
 10
153.362704918
 20
213.3478632685
 11
153.362704918
 21
213.0478632685
  0
POLYLINE
  8
13_KOMPONENTER
 62
7
  6
CONTINUOUS
 66
1
 70
0
  0
VERTEX
  8
13_KOMPONENTER
 62
7
  6
CONTINUOUS
 10
175.9667442365
 20
203.8877412399
  0
VERTEX
  8
13_KOMPONENTER
 62
7
  6
CONTINUOUS
 10
176.179093675
 20
203.9165743238
  0
VERTEX
  8
13_KOMPONENTER
 62
7
  6
CONTINUOUS
 10
176.443190796
 20
204.0460208368
  0
VERTEX
  8
13_KOMPONENTER
 62
7
  6
CONTINUOUS
 10
176.5527922941
 20
204.1449918665
  0
VERTEX
  8
13_KOMPONENTER
 62
7
  6
CONTINUOUS
 10
176.7083721853
 20
204.3944903336
  0
VERTEX
  8
13_KOMPONENTER
 62
7
  6
CONTINUOUS
 10
176.762704918
 20
204.683434856
  0
SEQEND
  0
LINE
  8
13_KOMPONENTER
 62
7
  6
CONTINUOUS
 10
94.9536752621
 20
203.8877412397
 11
146.262704918
 21
203.8877412397
  0
LINE
  8
13_KOMPONENTER
 62
7
  6
CONTINUOUS
 10
148.7586652538
 20
203.8877412397
 11
175.9667445822
 21
203.8877412397
  0
LINE
  8
13_KOMPONENTER
 62
7
  6
CONTINUOUS
 10
178.462704918
 20
203.8877412397
 11
229.771734574
 21
203.8877412397
  0
LINE
  8
AXES
 62
2
  6
CENTER
 10
28.5522540984
 20
210.3877412397
 11
301.5952868852
 21
210.3877412397
  0
LINE
  8
13_KOMPONENTER
 62
7
  6
CONTINUOUS
 10
158.6127603235
 20
213.3478632685
 11
158.6127603235
 21
213.0478632685
  0
LINE
  8
13_KOMPONENTER
 62
7
  6
CONTINUOUS
 10
159.612704918
 20
219.0478632685
 11
159.612704918
 21
218.3478632685
  0
LINE
  8
13_KOMPONENTER
 62
7
  6
CONTINUOUS
 10
160.262704918
 20
231.6978632685
 11
160.262704918
 21
222.3978632685
  0
LINE
  8
13_KOMPONENTER
 62
7
  6
CONTINUOUS
 10
160.362704918
 20
230.5478222583
 11
160.362704918
 21
223.5479042787
  0
LINE
  8
13_KOMPONENTER
 62
7
  6
CONTINUOUS
 10
161.212704918
 20
231.1468508595
 11
161.212704918
 21
219.0478632685
  0
LINE
  8
1_AXIS
 62
2
  6
CENTER
 10
162.362704918
 20
191.2961065574
 11
162.362704918
 21
238.5461065574
  0
LINE
  8
13_KOMPONENTER
 62
7
  6
CONTINUOUS
 10
162.5961994526
 20
213.3478632685
 11
162.5961994526
 21
213.0478632685
  0
LINE
  8
13_KOMPONENTER
 62
7
  6
CONTINUOUS
 10
163.112704918
 20
213.3478632685
 11
163.112704918
 21
213.0478632685
  0
LINE
  8
13_KOMPONENTER
 62
7
  6
CONTINUOUS
 10
166.112704918
 20
213.0478632685
 11
163.112704918
 21
213.0478632685
  0
LINE
  8
13_KOMPONENTER
 62
7
  6
CONTINUOUS
 10
162.5961994526
 20
213.0478632685
 11
158.6127603235
 21
213.0478632685
  0
LINE
  8
13_KOMPONENTER
 62
7
  6
CONTINUOUS
 10
153.362704918
 20
213.0478632685
 11
152.807704918
 21
213.0478632685
  0
LINE
  8
13_KOMPONENTER
 62
7
  6
CONTINUOUS
 10
152.362704918
 20
213.0478632685
 11
150.982704918
 21
213.0478632685
  0
LINE
  8
13_KOMPONENTER
 62
7
  6
CONTINUOUS
 10
150.9076705449
 20
213.0478632685
 11
149.3777392912
 21
213.0478632685
  0
LINE
  8
13_KOMPONENTER
 62
7
  6
CONTINUOUS
 10
289.362704918
 20
213.3478632685
 11
210.7972772653
 21
213.3478632685
  0
LINE
  8
13_KOMPONENTER
 62
7
  6
CONTINUOUS
 10
177.462704918
 20
213.3478632685
 11
147.262704918
 21
213.3478632685
  0
LINE
  8
13_KOMPONENTER
 62
7
  6
CONTINUOUS
 10
113.9281325707
 20
213.3478632685
 11
35.362704918
 21
213.3478632685
  0
LINE
  8
13_KOMPONENTER
 62
7
  6
CONTINUOUS
 10
288.662704918
 20
217.4977693691
 11
209.762704918
 21
217.4977693691
  0
LINE
  8
13_KOMPONENTER
 62
7
  6
CONTINUOUS
 10
177.462704918
 20
217.4977693691
 11
147.262704918
 21
217.4977693691
  0
LINE
  8
13_KOMPONENTER
 62
7
  6
CONTINUOUS
 10
36.062704918
 20
217.4977693691
 11
114.962704918
 21
217.4977693691
  0
LINE
  8
13_KOMPONENTER
 62
7
  6
CONTINUOUS
 10
36.062704918
 20
218.3478632685
 11
288.662704918
 21
218.3478632685
  0
LINE
  8
13_KOMPONENTER
 62
7
  6
CONTINUOUS
 10
159.612704918
 20
219.0478632685
 11
161.212704918
 21
219.0478632685
  0
LINE
  8
13_KOMPONENTER
 62
7
  6
CONTINUOUS
 10
163.512704918
 20
219.0478632685
 11
165.112704918
 21
219.0478632685
  0
LINE
  8
13_KOMPONENTER
 62
7
  6
CONTINUOUS
 10
163.512704918
 20
231.1468508595
 11
163.512704918
 21
219.0478632685
  0
LINE
  8
13_KOMPONENTER
 62
7
  6
CONTINUOUS
 10
164.362704918
 20
230.5478222583
 11
164.362704918
 21
223.5479042787
  0
LINE
  8
13_KOMPONENTER
 62
7
  6
CONTINUOUS
 10
164.412704918
 20
213.3478632685
 11
164.412704918
 21
213.0478632685
  0
LINE
  8
13_KOMPONENTER
 62
7
  6
CONTINUOUS
 10
164.462704918
 20
222.3978632685
 11
164.462704918
 21
231.6978632685
  0
LINE
  8
13_KOMPONENTER
 62
7
  6
CONTINUOUS
 10
164.812704918
 20
213.3478632685
 11
164.812704918
 21
213.0478632685
  0
LINE
  8
13_KOMPONENTER
 62
7
  6
CONTINUOUS
 10
165.112704918
 20
219.0478632685
 11
165.112704918
 21
218.3478632685
  0
LINE
  8
13_KOMPONENTER
 62
7
  6
CONTINUOUS
 10
166.112704918
 20
213.3478632685
 11
166.112704918
 21
213.0478632685
  0
LINE
  8
13_KOMPONENTER
 62
7
  6
CONTINUOUS
 10
278.612704918
 20
222.1478632685
 11
268.712704918
 21
222.1478632685
  0
LINE
  8
13_KOMPONENTER
 62
7
  6
CONTINUOUS
 10
268.212704918
 20
222.1478632685
 11
258.312704918
 21
222.1478632685
  0
LINE
  8
13_KOMPONENTER
 62
7
  6
CONTINUOUS
 10
257.812704918
 20
222.1478632685
 11
247.912704918
 21
222.1478632685
  0
LINE
  8
13_KOMPONENTER
 62
7
  6
CONTINUOUS
 10
247.412704918
 20
222.1478632685
 11
237.512704918
 21
222.1478632685
  0
LINE
  8
13_KOMPONENTER
 62
7
  6
CONTINUOUS
 10
237.012704918
 20
222.1478632685
 11
227.112704918
 21
222.1478632685
  0
LINE
  8
13_KOMPONENTER
 62
7
  6
CONTINUOUS
 10
226.612704918
 20
222.1478632685
 11
216.712704918
 21
222.1478632685
  0
LINE
  8
13_KOMPONENTER
 62
7
  6
CONTINUOUS
 10
216.212704918
 20
222.1478632685
 11
206.312704918
 21
222.1478632685
  0
LINE
  8
13_KOMPONENTER
 62
7
  6
CONTINUOUS
 10
205.812704918
 20
222.1478632685
 11
195.912704918
 21
222.1478632685
  0
LINE
  8
13_KOMPONENTER
 62
7
  6
CONTINUOUS
 10
195.412704918
 20
222.1478632685
 11
185.512704918
 21
222.1478632685
  0
LINE
  8
13_KOMPONENTER
 62
7
  6
CONTINUOUS
 10
185.012704918
 20
222.1478632685
 11
175.112704918
 21
222.1478632685
  0
LINE
  8
13_KOMPONENTER
 62
7
  6
CONTINUOUS
 10
174.612704918
 20
222.1478632685
 11
164.712704918
 21
222.1478632685
  0
LINE
  8
13_KOMPONENTER
 62
7
  6
CONTINUOUS
 10
160.012704918
 20
222.1478632685
 11
150.112704918
 21
222.1478632685
  0
LINE
  8
13_KOMPONENTER
 62
7
  6
CONTINUOUS
 10
149.612704918
 20
222.1478632685
 11
139.712704918
 21
222.1478632685
  0
LINE
  8
13_KOMPONENTER
 62
7
  6
CONTINUOUS
 10
139.212704918
 20
222.1478632685
 11
129.312704918
 21
222.1478632685
  0
LINE
  8
13_KOMPONENTER
 62
7
  6
CONTINUOUS
 10
128.812704918
 20
222.1478632685
 11
118.912704918
 21
222.1478632685
  0
LINE
  8
13_KOMPONENTER
 62
7
  6
CONTINUOUS
 10
118.412704918
 20
222.1478632685
 11
108.512704918
 21
222.1478632685
  0
LINE
  8
13_KOMPONENTER
 62
7
  6
CONTINUOUS
 10
108.012704918
 20
222.1478632685
 11
98.112704918
 21
222.1478632685
  0
LINE
  8
13_KOMPONENTER
 62
7
  6
CONTINUOUS
 10
97.612704918
 20
222.1478632685
 11
87.712704918
 21
222.1478632685
  0
LINE
  8
13_KOMPONENTER
 62
7
  6
CONTINUOUS
 10
87.212704918
 20
222.1478632685
 11
77.312704918
 21
222.1478632685
  0
LINE
  8
13_KOMPONENTER
 62
7
  6
CONTINUOUS
 10
76.812704918
 20
222.1478632685
 11
66.912704918
 21
222.1478632685
  0
LINE
  8
13_KOMPONENTER
 62
7
  6
CONTINUOUS
 10
66.412704918
 20
222.1478632685
 11
56.512704918
 21
222.1478632685
  0
LINE
  8
13_KOMPONENTER
 62
7
  6
CONTINUOUS
 10
56.012704918
 20
222.1478632685
 11
46.112704918
 21
222.1478632685
  0
LINE
  8
13_KOMPONENTER
 62
7
  6
CONTINUOUS
 10
160.362704918
 20
223.5478632685
 11
161.212704918
 21
223.5478632685
  0
LINE
  8
13_KOMPONENTER
 62
7
  6
CONTINUOUS
 10
163.512704918
 20
223.5478632685
 11
164.362704918
 21
223.5478632685
  0
LINE
  8
13_KOMPONENTER
 62
7
  6
CONTINUOUS
 10
164.462704918
 20
224.5478632685
 11
164.362704918
 21
224.5478632685
  0
LINE
  8
13_KOMPONENTER
 62
7
  6
CONTINUOUS
 10
160.362704918
 20
224.5478632685
 11
160.262704918
 21
224.5478632685
  0
LINE
  8
13_KOMPONENTER
 62
7
  6
CONTINUOUS
 10
174.862704918
 20
231.6978632685
 11
174.862704918
 21
222.3978632685
  0
LINE
  8
13_KOMPONENTER
 62
7
  6
CONTINUOUS
 10
176.762704918
 20
204.6834351473
 11
176.762704918
 21
213.3478632685
  0
LINE
  8
13_KOMPONENTER
 62
7
  6
CONTINUOUS
 10
177.462704918
 20
204.8877412418
 11
177.462704918
 21
217.5478625765
  0
LINE
  8
13_KOMPONENTER
 62
7
  6
CONTINUOUS
 10
161.212704918
 20
229.3653642693
 11
163.512704918
 21
229.3653642693
  0
LINE
  8
13_KOMPONENTER
 62
7
  6
CONTINUOUS
 10
164.462704918
 20
229.5478632685
 11
164.362704918
 21
229.5478632685
  0
LINE
  8
13_KOMPONENTER
 62
7
  6
CONTINUOUS
 10
160.362704918
 20
229.5478632685
 11
160.262704918
 21
229.5478632685
  0
LINE
  8
13_KOMPONENTER
 62
7
  6
CONTINUOUS
 10
160.362704918
 20
230.5478632685
 11
161.212704918
 21
230.5478632685
  0
LINE
  8
13_KOMPONENTER
 62
7
  6
CONTINUOUS
 10
163.512704918
 20
230.5478632685
 11
164.362704918
 21
230.5478632685
  0
LINE
  8
13_KOMPONENTER
 62
7
  6
CONTINUOUS
 10
161.212704918
 20
231.1468508595
 11
163.512704918
 21
231.1468508595
  0
LINE
  8
13_KOMPONENTER
 62
7
  6
CONTINUOUS
 10
39.952704918
 20
231.5478632685
 11
44.952704918
 21
231.5478632685
  0
LINE
  8
13_KOMPONENTER
 62
7
  6
CONTINUOUS
 10
279.772704918
 20
231.5478632685
 11
284.772704918
 21
231.5478632685
  0
LINE
  8
13_KOMPONENTER
 62
7
  6
CONTINUOUS
 10
278.612704918
 20
231.9478632685
 11
268.712704918
 21
231.9478632685
  0
LINE
  8
13_KOMPONENTER
 62
7
  6
CONTINUOUS
 10
268.212704918
 20
231.9478632685
 11
258.312704918
 21
231.9478632685
  0
LINE
  8
13_KOMPONENTER
 62
7
  6
CONTINUOUS
 10
257.812704918
 20
231.9478632685
 11
247.912704918
 21
231.9478632685
  0
LINE
  8
13_KOMPONENTER
 62
7
  6
CONTINUOUS
 10
247.412704918
 20
231.9478632685
 11
237.512704918
 21
231.9478632685
  0
LINE
  8
13_KOMPONENTER
 62
7
  6
CONTINUOUS
 10
237.012704918
 20
231.9478632685
 11
227.112704918
 21
231.9478632685
  0
LINE
  8
13_KOMPONENTER
 62
7
  6
CONTINUOUS
 10
226.612704918
 20
231.9478632685
 11
216.712704918
 21
231.9478632685
  0
LINE
  8
13_KOMPONENTER
 62
7
  6
CONTINUOUS
 10
216.212704918
 20
231.9478632685
 11
206.312704918
 21
231.9478632685
  0
LINE
  8
13_KOMPONENTER
 62
7
  6
CONTINUOUS
 10
205.812704918
 20
231.9478632685
 11
195.912704918
 21
231.9478632685
  0
LINE
  8
13_KOMPONENTER
 62
7
  6
CONTINUOUS
 10
195.412704918
 20
231.9478632685
 11
185.512704918
 21
231.9478632685
  0
LINE
  8
13_KOMPONENTER
 62
7
  6
CONTINUOUS
 10
185.012704918
 20
231.9478632685
 11
175.112704918
 21
231.9478632685
  0
LINE
  8
13_KOMPONENTER
 62
7
  6
CONTINUOUS
 10
174.612704918
 20
231.9478632685
 11
164.712704918
 21
231.9478632685
  0
LINE
  8
13_KOMPONENTER
 62
7
  6
CONTINUOUS
 10
160.012704918
 20
231.9478632685
 11
150.112704918
 21
231.9478632685
  0
LINE
  8
13_KOMPONENTER
 62
7
  6
CONTINUOUS
 10
149.612704918
 20
231.9478632685
 11
139.712704918
 21
231.9478632685
  0
LINE
  8
13_KOMPONENTER
 62
7
  6
CONTINUOUS
 10
139.212704918
 20
231.9478632685
 11
129.312704918
 21
231.9478632685
  0
LINE
  8
13_KOMPONENTER
 62
7
  6
CONTINUOUS
 10
128.812704918
 20
231.9478632685
 11
118.912704918
 21
231.9478632685
  0
LINE
  8
13_KOMPONENTER
 62
7
  6
CONTINUOUS
 10
118.412704918
 20
231.9478632685
 11
108.512704918
 21
231.9478632685
  0
LINE
  8
13_KOMPONENTER
 62
7
  6
CONTINUOUS
 10
108.012704918
 20
231.9478632685
 11
98.112704918
 21
231.9478632685
  0
LINE
  8
13_KOMPONENTER
 62
7
  6
CONTINUOUS
 10
97.612704918
 20
231.9478632685
 11
87.712704918
 21
231.9478632685
  0
LINE
  8
13_KOMPONENTER
 62
7
  6
CONTINUOUS
 10
87.212704918
 20
231.9478632685
 11
77.312704918
 21
231.9478632685
  0
LINE
  8
13_KOMPONENTER
 62
7
  6
CONTINUOUS
 10
76.812704918
 20
231.9478632685
 11
66.912704918
 21
231.9478632685
  0
LINE
  8
13_KOMPONENTER
 62
7
  6
CONTINUOUS
 10
66.412704918
 20
231.9478632685
 11
56.512704918
 21
231.9478632685
  0
LINE
  8
13_KOMPONENTER
 62
7
  6
CONTINUOUS
 10
56.012704918
 20
231.9478632685
 11
46.112704918
 21
231.9478632685
  0
LINE
  8
13_KOMPONENTER
 62
7
  6
CONTINUOUS
 10
185.262704918
 20
231.6978632685
 11
185.262704918
 21
222.3978632685
  0
LINE
  8
13_KOMPONENTER
 62
7
  6
CONTINUOUS
 10
195.662704918
 20
231.6978632685
 11
195.662704918
 21
222.3978632685
  0
LINE
  8
13_KOMPONENTER
 62
7
  6
CONTINUOUS
 10
206.062704918
 20
231.6978632685
 11
206.062704918
 21
222.3978632685
  0
LINE
  8
13_KOMPONENTER
 62
7
  6
CONTINUOUS
 10
209.762704918
 20
217.5478632274
 11
209.762704918
 21
204.8877412397
  0
LINE
  8
13_KOMPONENTER
 62
7
  6
CONTINUOUS
 10
216.462704918
 20
231.6978632685
 11
216.462704918
 21
222.3978632685
  0
LINE
  8
13_KOMPONENTER
 62
7
  6
CONTINUOUS
 10
226.862704918
 20
231.6978632685
 11
226.862704918
 21
222.3978632685
  0
LINE
  8
13_KOMPONENTER
 62
7
  6
CONTINUOUS
 10
230.612704918
 20
204.728498532
 11
230.612704918
 21
213.3478632685
  0
LINE
  8
13_KOMPONENTER
 62
7
  6
CONTINUOUS
 10
237.262704918
 20
231.6978632685
 11
237.262704918
 21
222.3978632685
  0
LINE
  8
13_KOMPONENTER
 62
7
  6
CONTINUOUS
 10
247.662704918
 20
231.6978632685
 11
247.662704918
 21
222.3978632685
  0
LINE
  8
13_KOMPONENTER
 62
7
  6
CONTINUOUS
 10
258.062704918
 20
231.6978632685
 11
258.062704918
 21
222.3978632685
  0
LINE
  8
13_KOMPONENTER
 62
7
  6
CONTINUOUS
 10
268.462704918
 20
231.6978632685
 11
268.462704918
 21
222.3978632685
  0
LINE
  8
13_KOMPONENTER
 62
7
  6
CONTINUOUS
 10
282.322704918
 20
231.6638886723
 11
282.3896922161
 21
231.5478632685
  0
LINE
  8
13_KOMPONENTER
 62
7
  6
CONTINUOUS
 10
278.772704918
 20
218.3478632685
 11
278.772704918
 21
227.5478632685
  0
LINE
  8
13_KOMPONENTER
 62
7
  6
CONTINUOUS
 10
282.322704918
 20
231.5478632685
 11
282.322704918
 21
231.6638886723
  0
LINE
  8
13_KOMPONENTER
 62
7
  6
CONTINUOUS
 10
286.772704918
 20
229.5478632685
 11
286.772704918
 21
218.3478632685
  0
LINE
  8
13_KOMPONENTER
 62
7
  6
CONTINUOUS
 10
289.362704918
 20
217.6478632685
 11
289.362704918
 21
213.3478632685
  0
POLYLINE
  8
13_KOMPONENTER
 62
7
  6
CONTINUOUS
 66
1
 70
0
  0
VERTEX
  8
13_KOMPONENTER
 62
7
  6
CONTINUOUS
 10
289.362704918
 20
216.9392677794
  0
VERTEX
  8
13_KOMPONENTER
 62
7
  6
CONTINUOUS
 10
289.3296083277
 20
217.1215767499
  0
VERTEX
  8
13_KOMPONENTER
 62
7
  6
CONTINUOUS
 10
289.2266030373
 20
217.2842330978
  0
VERTEX
  8
13_KOMPONENTER
 62
7
  6
CONTINUOUS
 10
289.1472117567
 20
217.3539357763
  0
VERTEX
  8
13_KOMPONENTER
 62
7
  6
CONTINUOUS
 10
288.935154649
 20
217.457850558
  0
VERTEX
  8
13_KOMPONENTER
 62
7
  6
CONTINUOUS
 10
288.662704918
 20
217.4977693691
  0
SEQEND
  0
LINE
  8
13_KOMPONENTER
 62
7
  6
CONTINUOUS
 10
35.362704918
 20
93.3688058198
 11
35.362704918
 21
130.2188058198
  0
LINE
  8
13_KOMPONENTER
 62
7
  6
CONTINUOUS
 10
37.952704918
 20
120.2745971219
 11
37.952704918
 21
99.6630145177
  0
LINE
  8
13_KOMPONENTER
 62
7
  6
CONTINUOUS
 10
37.952704918
 20
99.4688058198
 11
37.952704918
 21
94.7188058198
  0
LINE
  8
13_KOMPONENTER
 62
7
  6
CONTINUOUS
 10
37.952704918
 20
120.4688058198
 11
37.952704918
 21
125.2188058198
  0
LINE
  8
13_KOMPONENTER
 62
8
  6
HIDDEN
 10
39.952704918
 20
120.5188058198
 11
39.952704918
 21
99.4088058198
  0
LINE
  8
13_KOMPONENTER
 62
8
  6
HIDDEN
 10
41.902704918
 20
116.4688058198
 11
41.902704918
 21
103.4688058198
  0
LINE
  8
13_KOMPONENTER
 62
7
  6
CONTINUOUS
 10
42.3178050947
 20
116.4688058198
 11
42.3178050947
 21
103.4688058198
  0
LINE
  8
13_KOMPONENTER
 62
7
  6
CONTINUOUS
 10
42.402704918
 20
122.5185271098
 11
42.402704918
 21
97.4190845298
  0
LINE
  8
13_KOMPONENTER
 62
8
  6
HIDDEN
 10
42.952704918
 20
124.2493393831
 11
42.952704918
 21
119.6882722565
  0
LINE
  8
13_KOMPONENTER
 62
8
  6
HIDDEN
 10
42.952704918
 20
112.2493393831
 11
42.952704918
 21
107.6882722565
  0
LINE
  8
13_KOMPONENTER
 62
8
  6
HIDDEN
 10
42.952704918
 20
100.2493393831
 11
42.952704918
 21
95.6882722565
  0
LINE
  8
13_KOMPONENTER
 62
8
  6
HIDDEN
 10
44.037704918
 20
95.9988106623
 11
44.037704918
 21
99.9388009773
  0
LINE
  8
13_KOMPONENTER
 62
8
  6
HIDDEN
 10
44.037704918
 20
107.9988106623
 11
44.037704918
 21
111.9388009773
  0
LINE
  8
13_KOMPONENTER
 62
8
  6
HIDDEN
 10
44.037704918
 20
119.9988106623
 11
44.037704918
 21
123.9388009773
  0
LINE
  8
13_KOMPONENTER
 62
8
  6
HIDDEN
 10
44.452704918
 20
120.5188058198
 11
44.452704918
 21
99.4088058198
  0
LINE
  8
13_KOMPONENTER
 62
8
  6
HIDDEN
 10
44.567704918
 20
124.4688058198
 11
44.567704918
 21
119.4688058198
  0
LINE
  8
13_KOMPONENTER
 62
8
  6
HIDDEN
 10
44.567704918
 20
112.4688058198
 11
44.567704918
 21
107.4688058198
  0
LINE
  8
13_KOMPONENTER
 62
8
  6
HIDDEN
 10
44.567704918
 20
100.4688058198
 11
44.567704918
 21
95.4688058198
  0
LINE
  8
13_KOMPONENTER
 62
8
  6
HIDDEN
 10
45.452704918
 20
99.4088058198
 11
45.452704918
 21
120.5188058198
  0
LINE
  8
13_KOMPONENTER
 62
8
  6
HIDDEN
 10
45.652704918
 20
124.2493393831
 11
45.652704918
 21
119.6882722565
  0
LINE
  8
13_KOMPONENTER
 62
8
  6
HIDDEN
 10
45.652704918
 20
112.2493393831
 11
45.652704918
 21
107.6882722565
  0
LINE
  8
13_KOMPONENTER
 62
8
  6
HIDDEN
 10
45.652704918
 20
100.2493393831
 11
45.652704918
 21
95.6882722565
  0
LINE
  8
13_KOMPONENTER
 62
8
  6
HIDDEN
 10
45.862704918
 20
102.6188058198
 11
45.862704918
 21
93.3188058198
  0
LINE
  8
13_KOMPONENTER
 62
8
  6
HIDDEN
 10
45.862704918
 20
105.3188058198
 11
45.862704918
 21
114.6188058198
  0
LINE
  8
13_KOMPONENTER
 62
8
  6
HIDDEN
 10
45.862704918
 20
117.3188058198
 11
45.862704918
 21
121.9688058198
  0
LINE
  8
13_KOMPONENTER
 62
7
  6
CONTINUOUS
 10
45.862704918
 20
121.9688058198
 11
45.862704918
 21
126.6122550909
  0
LINE
  8
13_KOMPONENTER
 62
8
  6
HIDDEN
 10
45.862704918
 20
126.6122550909
 11
45.862704918
 21
126.6188058198
  0
LINE
  8
13_KOMPONENTER
 62
8
  6
HIDDEN
 10
45.952704918
 20
126.2188058198
 11
45.952704918
 21
93.7188058198
  0
LINE
  8
13_KOMPONENTER
 62
8
  6
HIDDEN
 10
46.112704918
 20
124.5688058198
 11
46.112704918
 21
119.3688058198
  0
LINE
  8
13_KOMPONENTER
 62
8
  6
HIDDEN
 10
46.112704918
 20
112.5688058198
 11
46.112704918
 21
107.3688058198
  0
LINE
  8
13_KOMPONENTER
 62
8
  6
HIDDEN
 10
46.112704918
 20
100.5688058198
 11
46.112704918
 21
95.3688058198
  0
LINE
  8
13_KOMPONENTER
 62
8
  6
HIDDEN
 10
56.012704918
 20
124.5688058198
 11
56.012704918
 21
119.3688058198
  0
LINE
  8
13_KOMPONENTER
 62
8
  6
HIDDEN
 10
56.012704918
 20
112.5688058198
 11
56.012704918
 21
107.3688058198
  0
LINE
  8
13_KOMPONENTER
 62
8
  6
HIDDEN
 10
56.012704918
 20
100.5688058198
 11
56.012704918
 21
95.3688058198
  0
LINE
  8
13_KOMPONENTER
 62
7
  6
CONTINUOUS
 10
56.262704918
 20
126.6188058198
 11
56.262704918
 21
117.3194534603
  0
LINE
  8
13_KOMPONENTER
 62
7
  6
CONTINUOUS
 10
56.262704918
 20
114.6188058198
 11
56.262704918
 21
105.3194534603
  0
LINE
  8
13_KOMPONENTER
 62
7
  6
CONTINUOUS
 10
56.262704918
 20
102.6188058198
 11
56.262704918
 21
93.3194534603
  0
LINE
  8
13_KOMPONENTER
 62
8
  6
HIDDEN
 10
56.512704918
 20
124.5688058198
 11
56.512704918
 21
119.3688058198
  0
LINE
  8
13_KOMPONENTER
 62
8
  6
HIDDEN
 10
56.512704918
 20
112.5688058198
 11
56.512704918
 21
107.3688058198
  0
LINE
  8
13_KOMPONENTER
 62
8
  6
HIDDEN
 10
56.512704918
 20
100.5688058198
 11
56.512704918
 21
95.3688058198
  0
LINE
  8
13_KOMPONENTER
 62
8
  6
HIDDEN
 10
66.412704918
 20
124.5688058198
 11
66.412704918
 21
119.3688058198
  0
LINE
  8
13_KOMPONENTER
 62
8
  6
HIDDEN
 10
66.412704918
 20
112.5688058198
 11
66.412704918
 21
107.3688058198
  0
LINE
  8
13_KOMPONENTER
 62
8
  6
HIDDEN
 10
66.412704918
 20
100.5688058198
 11
66.412704918
 21
95.3688058198
  0
LINE
  8
13_KOMPONENTER
 62
7
  6
CONTINUOUS
 10
66.662704918
 20
126.6188058198
 11
66.662704918
 21
117.3194534603
  0
LINE
  8
13_KOMPONENTER
 62
7
  6
CONTINUOUS
 10
66.662704918
 20
114.6188058198
 11
66.662704918
 21
105.3194534603
  0
LINE
  8
13_KOMPONENTER
 62
7
  6
CONTINUOUS
 10
66.662704918
 20
102.6188058198
 11
66.662704918
 21
93.3194534603
  0
LINE
  8
13_KOMPONENTER
 62
8
  6
HIDDEN
 10
66.912704918
 20
124.5688058198
 11
66.912704918
 21
119.3688058198
  0
LINE
  8
13_KOMPONENTER
 62
8
  6
HIDDEN
 10
66.912704918
 20
112.5688058198
 11
66.912704918
 21
107.3688058198
  0
LINE
  8
13_KOMPONENTER
 62
8
  6
HIDDEN
 10
66.912704918
 20
100.5688058198
 11
66.912704918
 21
95.3688058198
  0
LINE
  8
13_KOMPONENTER
 62
8
  6
HIDDEN
 10
45.652704918
 20
124.2493393831
 11
45.952704918
 21
124.5957495446
  0
LINE
  8
13_KOMPONENTER
 62
8
  6
HIDDEN
 10
44.037704918
 20
123.9388058198
 11
44.567704918
 21
124.4688058198
  0
LINE
  8
13_KOMPONENTER
 62
8
  6
HIDDEN
 10
45.652704918
 20
95.6882722565
 11
45.952704918
 21
95.341862095
  0
LINE
  8
13_KOMPONENTER
 62
8
  6
HIDDEN
 10
76.812704918
 20
124.5688058198
 11
76.812704918
 21
119.3688058198
  0
LINE
  8
13_KOMPONENTER
 62
8
  6
HIDDEN
 10
76.812704918
 20
112.5688058198
 11
76.812704918
 21
107.3688058198
  0
LINE
  8
13_KOMPONENTER
 62
8
  6
HIDDEN
 10
76.812704918
 20
100.5688058198
 11
76.812704918
 21
95.3688058198
  0
LINE
  8
13_KOMPONENTER
 62
7
  6
CONTINUOUS
 10
77.062704918
 20
126.6188058198
 11
77.062704918
 21
117.3194534603
  0
LINE
  8
13_KOMPONENTER
 62
7
  6
CONTINUOUS
 10
77.062704918
 20
114.6188058198
 11
77.062704918
 21
105.3194534603
  0
LINE
  8
13_KOMPONENTER
 62
7
  6
CONTINUOUS
 10
77.062704918
 20
102.6188058198
 11
77.062704918
 21
93.3194534603
  0
LINE
  8
13_KOMPONENTER
 62
8
  6
HIDDEN
 10
45.652704918
 20
112.2493393831
 11
45.952704918
 21
112.5957495446
  0
LINE
  8
13_KOMPONENTER
 62
8
  6
HIDDEN
 10
46.112704918
 20
119.3688058198
 11
45.862704918
 21
119.1188058198
  0
LINE
  8
13_KOMPONENTER
 62
8
  6
HIDDEN
 10
56.012704918
 20
124.5688058198
 11
56.262704918
 21
124.8188058198
  0
LINE
  8
13_KOMPONENTER
 62
8
  6
HIDDEN
 10
44.037704918
 20
111.9388058198
 11
44.567704918
 21
112.4688058198
  0
LINE
  8
13_KOMPONENTER
 62
8
  6
HIDDEN
 10
44.037704918
 20
95.9988058198
 11
44.567704918
 21
95.4688058198
  0
LINE
  8
13_KOMPONENTER
 62
8
  6
HIDDEN
 10
46.112704918
 20
100.5688058198
 11
45.862704918
 21
100.8188058198
  0
LINE
  8
13_KOMPONENTER
 62
8
  6
HIDDEN
 10
45.652704918
 20
107.6882722565
 11
45.952704918
 21
107.341862095
  0
LINE
  8
13_KOMPONENTER
 62
8
  6
HIDDEN
 10
77.312704918
 20
124.5688058198
 11
77.312704918
 21
119.3688058198
  0
LINE
  8
13_KOMPONENTER
 62
8
  6
HIDDEN
 10
77.312704918
 20
112.5688058198
 11
77.312704918
 21
107.3688058198
  0
LINE
  8
13_KOMPONENTER
 62
8
  6
HIDDEN
 10
77.312704918
 20
100.5688058198
 11
77.312704918
 21
95.3688058198
  0
LINE
  8
13_KOMPONENTER
 62
8
  6
HIDDEN
 10
45.652704918
 20
100.2493393831
 11
45.952704918
 21
100.5957495446
  0
LINE
  8
13_KOMPONENTER
 62
8
  6
HIDDEN
 10
56.512704918
 20
119.3688058198
 11
56.262704918
 21
119.1188058198
  0
LINE
  8
13_KOMPONENTER
 62
8
  6
HIDDEN
 10
46.112704918
 20
107.3688058198
 11
45.862704918
 21
107.1188058198
  0
LINE
  8
13_KOMPONENTER
 62
8
  6
HIDDEN
 10
39.4733163325
 20
99.0688058198
 11
39.7725855476
 21
99.3680750349
  0
LINE
  8
13_KOMPONENTER
 62
8
  6
HIDDEN
 10
66.412704918
 20
124.5688058198
 11
66.662704918
 21
124.8188058198
  0
LINE
  8
13_KOMPONENTER
 62
8
  6
HIDDEN
 10
56.012704918
 20
112.5688058198
 11
56.262704918
 21
112.8188058198
  0
LINE
  8
13_KOMPONENTER
 62
8
  6
HIDDEN
 10
44.037704918
 20
99.9388058198
 11
44.567704918
 21
100.4688058198
  0
LINE
  8
13_KOMPONENTER
 62
8
  6
HIDDEN
 10
56.012704918
 20
95.3688058198
 11
56.262704918
 21
95.1188058198
  0
LINE
  8
13_KOMPONENTER
 62
8
  6
HIDDEN
 10
44.037704918
 20
107.9988058198
 11
44.567704918
 21
107.4688058198
  0
LINE
  8
13_KOMPONENTER
 62
8
  6
HIDDEN
 10
56.512704918
 20
100.5688058198
 11
56.262704918
 21
100.8188058198
  0
LINE
  8
13_KOMPONENTER
 62
8
  6
HIDDEN
 10
46.112704918
 20
112.5688058198
 11
45.862704918
 21
112.8188058198
  0
LINE
  8
13_KOMPONENTER
 62
8
  6
HIDDEN
 10
39.7725855476
 20
120.5695366047
 11
39.4733163325
 21
120.8688058198
  0
LINE
  8
13_KOMPONENTER
 62
8
  6
HIDDEN
 10
45.652704918
 20
119.6882722565
 11
45.952704918
 21
119.341862095
  0
LINE
  8
13_KOMPONENTER
 62
8
  6
HIDDEN
 10
86.0636668124
 20
123.1188058198
 11
86.0636668124
 21
123.6188058198
  0
LINE
  8
13_KOMPONENTER
 62
8
  6
HIDDEN
 10
87.212704918
 20
124.5688058198
 11
87.212704918
 21
119.3688058198
  0
LINE
  8
13_KOMPONENTER
 62
8
  6
HIDDEN
 10
87.212704918
 20
112.5688058198
 11
87.212704918
 21
107.3688058198
  0
LINE
  8
13_KOMPONENTER
 62
8
  6
HIDDEN
 10
87.212704918
 20
100.5688058198
 11
87.212704918
 21
95.3688058198
  0
LINE
  8
13_KOMPONENTER
 62
7
  6
CONTINUOUS
 10
87.462704918
 20
126.6188058198
 11
87.462704918
 21
117.3194534603
  0
LINE
  8
13_KOMPONENTER
 62
7
  6
CONTINUOUS
 10
87.462704918
 20
114.6188058198
 11
87.462704918
 21
105.3194534603
  0
LINE
  8
13_KOMPONENTER
 62
7
  6
CONTINUOUS
 10
87.462704918
 20
102.6188058198
 11
87.462704918
 21
93.3194534603
  0
LINE
  8
13_KOMPONENTER
 62
8
  6
HIDDEN
 10
87.712704918
 20
124.5688058198
 11
87.712704918
 21
119.3688058198
  0
LINE
  8
13_KOMPONENTER
 62
8
  6
HIDDEN
 10
87.712704918
 20
112.5688058198
 11
87.712704918
 21
107.3688058198
  0
LINE
  8
13_KOMPONENTER
 62
8
  6
HIDDEN
 10
87.712704918
 20
100.5688058198
 11
87.712704918
 21
95.3688058198
  0
LINE
  8
13_KOMPONENTER
 62
8
  6
HIDDEN
 10
87.862704918
 20
125.1188058198
 11
87.862704918
 21
129.1188058198
  0
LINE
  8
13_KOMPONENTER
 62
8
  6
HIDDEN
 10
88.362704918
 20
129.1188058198
 11
88.362704918
 21
125.7145504892
  0
LINE
  8
13_KOMPONENTER
 62
8
  6
HIDDEN
 10
90.6960382911
 20
125.1188058198
 11
90.6960382911
 21
128.6081675828
  0
LINE
  8
13_KOMPONENTER
 62
8
  6
HIDDEN
 10
91.0636668124
 20
122.6188058198
 11
91.0636668124
 21
123.1188058198
  0
LINE
  8
13_KOMPONENTER
 62
8
  6
HIDDEN
 10
91.0636668124
 20
123.6188058198
 11
91.0636668124
 21
124.1188058198
  0
LINE
  8
13_KOMPONENTER
 62
8
  6
HIDDEN
 10
91.1960382911
 20
129.1188058198
 11
91.1960382911
 21
125.1188058198
  0
LINE
  8
13_KOMPONENTER
 62
8
  6
HIDDEN
 10
91.862704918
 20
125.1188058198
 11
91.862704918
 21
129.1188058198
  0
LINE
  8
13_KOMPONENTER
 62
8
  6
HIDDEN
 10
92.362704918
 20
129.1188058198
 11
92.362704918
 21
125.1188058198
  0
LINE
  8
13_KOMPONENTER
 62
8
  6
HIDDEN
 10
94.112704918
 20
130.9188058198
 11
94.112704918
 21
119.5743961134
  0
LINE
  8
13_KOMPONENTER
 62
7
  6
CONTINUOUS
 10
94.112704918
 20
130.9188058198
 11
94.112704918
 21
131.3688017048
  0
LINE
  8
13_KOMPONENTER
 62
7
  6
CONTINUOUS
 10
94.1634967644
 20
131.6493711096
 11
94.112704918
 21
131.3688797492
  0
LINE
  8
13_KOMPONENTER
 62
7
  6
CONTINUOUS
 10
94.3094238414
 20
131.8942521804
 11
94.1634967644
 21
131.6493711096
  0
LINE
  8
13_KOMPONENTER
 62
8
  6
HIDDEN
 10
90.6960382911
 20
128.6081675828
 11
88.612704918
 21
125.1188058198
  0
LINE
  8
13_KOMPONENTER
 62
8
  6
HIDDEN
 10
88.362704918
 20
125.7145504892
 11
90.4460382911
 21
129.1188058198
  0
LINE
  8
13_KOMPONENTER
 62
8
  6
HIDDEN
 10
66.912704918
 20
119.3688058198
 11
66.662704918
 21
119.1188058198
  0
LINE
  8
13_KOMPONENTER
 62
8
  6
HIDDEN
 10
56.512704918
 20
107.3688058198
 11
56.262704918
 21
107.1188058198
  0
LINE
  8
13_KOMPONENTER
 62
8
  6
HIDDEN
 10
46.112704918
 20
95.3688058198
 11
45.862704918
 21
95.1188058198
  0
LINE
  8
13_KOMPONENTER
 62
8
  6
HIDDEN
 10
76.812704918
 20
124.5688058198
 11
77.062704918
 21
124.8188058198
  0
LINE
  8
13_KOMPONENTER
 62
8
  6
HIDDEN
 10
66.412704918
 20
112.5688058198
 11
66.662704918
 21
112.8188058198
  0
LINE
  8
13_KOMPONENTER
 62
8
  6
HIDDEN
 10
56.012704918
 20
100.5688058198
 11
56.262704918
 21
100.8188058198
  0
LINE
  8
13_KOMPONENTER
 62
8
  6
HIDDEN
 10
77.312704918
 20
119.3688058198
 11
77.062704918
 21
119.1188058198
  0
LINE
  8
13_KOMPONENTER
 62
8
  6
HIDDEN
 10
66.912704918
 20
107.3688058198
 11
66.662704918
 21
107.1188058198
  0
LINE
  8
13_KOMPONENTER
 62
7
  6
CONTINUOUS
 10
37.952704918
 20
120.4688058198
 11
41.9526986908
 21
122.7783311356
  0
LINE
  8
13_KOMPONENTER
 62
7
  6
CONTINUOUS
 10
37.952704918
 20
120.2745971219
 11
41.652704918
 21
122.4107931179
  0
LINE
  8
13_KOMPONENTER
 62
8
  6
HIDDEN
 10
45.652704918
 20
123.1090726015
 11
45.952704918
 21
123.2822776822
  0
LINE
  8
13_KOMPONENTER
 62
7
  6
CONTINUOUS
 10
41.9526986908
 20
97.159280504
 11
37.952704918
 21
99.4688058198
  0
LINE
  8
13_KOMPONENTER
 62
7
  6
CONTINUOUS
 10
41.652704918
 20
97.5268185217
 11
37.952704918
 21
99.6630145177
  0
POLYLINE
  8
13_KOMPONENTER
 62
8
  6
HIDDEN
 66
1
 70
0
  0
VERTEX
  8
13_KOMPONENTER
 62
8
  6
HIDDEN
 10
44.752704918
 20
120.2688058198
  0
VERTEX
  8
13_KOMPONENTER
 62
8
  6
HIDDEN
 10
44.6297690698
 20
120.3868770292
  0
VERTEX
  8
13_KOMPONENTER
 62
8
  6
HIDDEN
 10
44.5142073983
 20
120.4762177838
  0
VERTEX
  8
13_KOMPONENTER
 62
8
  6
HIDDEN
 10
44.3809956568
 20
120.5427312702
  0
VERTEX
  8
13_KOMPONENTER
 62
8
  6
HIDDEN
 10
44.2330896758
 20
120.5688058198
  0
SEQEND
  0
LINE
  8
13_KOMPONENTER
 62
8
  6
HIDDEN
 10
66.412704918
 20
95.3688058198
 11
66.662704918
 21
95.1188058198
  0
LINE
  8
13_KOMPONENTER
 62
8
  6
HIDDEN
 10
56.012704918
 20
107.3688058198
 11
56.262704918
 21
107.1188058198
  0
LINE
  8
13_KOMPONENTER
 62
8
  6
HIDDEN
 10
44.037704918
 20
119.9988058198
 11
44.567704918
 21
119.4688058198
  0
LINE
  8
13_KOMPONENTER
 62
8
  6
HIDDEN
 10
66.912704918
 20
100.5688058198
 11
66.662704918
 21
100.8188058198
  0
LINE
  8
13_KOMPONENTER
 62
8
  6
HIDDEN
 10
56.512704918
 20
112.5688058198
 11
56.262704918
 21
112.8188058198
  0
LINE
  8
13_KOMPONENTER
 62
8
  6
HIDDEN
 10
46.112704918
 20
124.5688058198
 11
45.862704918
 21
124.8188058198
  0
LINE
  8
13_KOMPONENTER
 62
8
  6
HIDDEN
 10
76.812704918
 20
95.3688058198
 11
77.062704918
 21
95.1188058198
  0
POLYLINE
  8
13_KOMPONENTER
 62
7
  6
CONTINUOUS
 66
1
 70
0
  0
VERTEX
  8
13_KOMPONENTER
 62
7
  6
CONTINUOUS
 10
94.1852187112
 20
130.6641761902
  0
VERTEX
  8
13_KOMPONENTER
 62
7
  6
CONTINUOUS
 10
94.1804524483
 20
130.8015526547
  0
VERTEX
  8
13_KOMPONENTER
 62
7
  6
CONTINUOUS
 10
94.1513566664
 20
130.8885746457
  0
VERTEX
  8
13_KOMPONENTER
 62
7
  6
CONTINUOUS
 10
94.1217253865
 20
130.9188058198
  0
SEQEND
  0
LINE
  8
13_KOMPONENTER
 62
8
  6
HIDDEN
 10
97.612704918
 20
124.5688058198
 11
97.612704918
 21
119.3688058198
  0
LINE
  8
13_KOMPONENTER
 62
8
  6
HIDDEN
 10
97.612704918
 20
112.5688058198
 11
97.612704918
 21
107.3688058198
  0
LINE
  8
13_KOMPONENTER
 62
8
  6
HIDDEN
 10
97.612704918
 20
100.5688058198
 11
97.612704918
 21
95.3688058198
  0
LINE
  8
13_KOMPONENTER
 62
7
  6
CONTINUOUS
 10
97.862704918
 20
126.6188058198
 11
97.862704918
 21
117.3194534603
  0
LINE
  8
13_KOMPONENTER
 62
7
  6
CONTINUOUS
 10
97.862704918
 20
114.6188058198
 11
97.862704918
 21
105.3194534603
  0
LINE
  8
13_KOMPONENTER
 62
7
  6
CONTINUOUS
 10
97.862704918
 20
102.6188058198
 11
97.862704918
 21
93.3194534603
  0
LINE
  8
13_KOMPONENTER
 62
8
  6
HIDDEN
 10
98.112704918
 20
124.5688058198
 11
98.112704918
 21
119.3688058198
  0
LINE
  8
13_KOMPONENTER
 62
8
  6
HIDDEN
 10
98.112704918
 20
112.5688058198
 11
98.112704918
 21
107.3688058198
  0
LINE
  8
13_KOMPONENTER
 62
8
  6
HIDDEN
 10
98.112704918
 20
100.5688058198
 11
98.112704918
 21
95.3688058198
  0
LINE
  8
13_KOMPONENTER
 62
8
  6
HIDDEN
 10
56.512704918
 20
95.3688058198
 11
56.262704918
 21
95.1188058198
  0
LINE
  8
13_KOMPONENTER
 62
8
  6
HIDDEN
 10
87.212704918
 20
124.5688058198
 11
87.462704918
 21
124.8188058198
  0
LINE
  8
13_KOMPONENTER
 62
8
  6
HIDDEN
 10
76.812704918
 20
112.5688058198
 11
77.062704918
 21
112.8188058198
  0
LINE
  8
13_KOMPONENTER
 62
8
  6
HIDDEN
 10
66.412704918
 20
100.5688058198
 11
66.662704918
 21
100.8188058198
  0
LINE
  8
13_KOMPONENTER
 62
8
  6
HIDDEN
 10
87.712704918
 20
119.3688058198
 11
87.462704918
 21
119.1188058198
  0
LINE
  8
13_KOMPONENTER
 62
8
  6
HIDDEN
 10
77.312704918
 20
107.3688058198
 11
77.062704918
 21
107.1188058198
  0
LINE
  8
13_KOMPONENTER
 62
8
  6
HIDDEN
 10
66.912704918
 20
95.3688058198
 11
66.662704918
 21
95.1188058198
  0
LINE
  8
13_KOMPONENTER
 62
7
  6
CONTINUOUS
 10
94.5319561017
 20
132.0724157718
 11
94.3094238414
 21
131.8942521804
  0
LINE
  8
13_KOMPONENTER
 62
8
  6
HIDDEN
 10
45.652704918
 20
111.1090726015
 11
45.952704918
 21
111.2822776822
  0
LINE
  8
13_KOMPONENTER
 62
8
  6
HIDDEN
 10
45.652704918
 20
96.8285390382
 11
45.952704918
 21
96.6553339574
  0
LINE
  8
13_KOMPONENTER
 62
8
  6
HIDDEN
 10
66.412704918
 20
107.3688058198
 11
66.662704918
 21
107.1188058198
  0
LINE
  8
13_KOMPONENTER
 62
8
  6
HIDDEN
 10
56.012704918
 20
119.3688058198
 11
56.262704918
 21
119.1188058198
  0
LINE
  8
13_KOMPONENTER
 62
8
  6
HIDDEN
 10
77.312704918
 20
100.5688058198
 11
77.062704918
 21
100.8188058198
  0
LINE
  8
13_KOMPONENTER
 62
8
  6
HIDDEN
 10
66.912704918
 20
112.5688058198
 11
66.662704918
 21
112.8188058198
  0
LINE
  8
13_KOMPONENTER
 62
8
  6
HIDDEN
 10
56.512704918
 20
124.5688058198
 11
56.262704918
 21
124.8188058198
  0
LINE
  8
13_KOMPONENTER
 62
8
  6
HIDDEN
 10
87.212704918
 20
95.3688058198
 11
87.462704918
 21
95.1188058198
  0
LINE
  8
13_KOMPONENTER
 62
8
  6
HIDDEN
 10
76.812704918
 20
107.3688058198
 11
77.062704918
 21
107.1188058198
  0
POLYLINE
  8
13_KOMPONENTER
 62
8
  6
HIDDEN
 66
1
 70
0
  0
VERTEX
  8
13_KOMPONENTER
 62
8
  6
HIDDEN
 10
94.112704918
 20
120.1136154001
  0
VERTEX
  8
13_KOMPONENTER
 62
8
  6
HIDDEN
 10
94.1761840293
 20
119.7732307289
  0
VERTEX
  8
13_KOMPONENTER
 62
8
  6
HIDDEN
 10
94.358137423
 20
119.4785077501
  0
VERTEX
  8
13_KOMPONENTER
 62
8
  6
HIDDEN
 10
94.4864688313
 20
119.3610510283
  0
VERTEX
  8
13_KOMPONENTER
 62
8
  6
HIDDEN
 10
94.7962744318
 20
119.2057486174
  0
VERTEX
  8
13_KOMPONENTER
 62
8
  6
HIDDEN
 10
95.0580976092
 20
119.168805823
  0
SEQEND
  0
LINE
  8
13_KOMPONENTER
 62
8
  6
HIDDEN
 10
108.012704918
 20
124.5688058198
 11
108.012704918
 21
119.3688058198
  0
LINE
  8
13_KOMPONENTER
 62
8
  6
HIDDEN
 10
108.012704918
 20
112.5688058198
 11
108.012704918
 21
107.3688058198
  0
LINE
  8
13_KOMPONENTER
 62
8
  6
HIDDEN
 10
108.012704918
 20
100.5688058198
 11
108.012704918
 21
95.3688058198
  0
LINE
  8
13_KOMPONENTER
 62
7
  6
CONTINUOUS
 10
108.262704918
 20
126.6188058198
 11
108.262704918
 21
117.3194534603
  0
LINE
  8
13_KOMPONENTER
 62
7
  6
CONTINUOUS
 10
108.262704918
 20
114.6188058198
 11
108.262704918
 21
105.3194534603
  0
LINE
  8
13_KOMPONENTER
 62
7
  6
CONTINUOUS
 10
108.262704918
 20
102.6188058198
 11
108.262704918
 21
93.3194534603
  0
LINE
  8
13_KOMPONENTER
 62
8
  6
HIDDEN
 10
108.512704918
 20
124.5688058198
 11
108.512704918
 21
119.3688058198
  0
LINE
  8
13_KOMPONENTER
 62
8
  6
HIDDEN
 10
108.512704918
 20
112.5688058198
 11
108.512704918
 21
107.3688058198
  0
LINE
  8
13_KOMPONENTER
 62
8
  6
HIDDEN
 10
108.512704918
 20
100.5688058198
 11
108.512704918
 21
95.3688058198
  0
LINE
  8
13_KOMPONENTER
 62
8
  6
HIDDEN
 10
97.612704918
 20
124.5688058198
 11
97.862704918
 21
124.8188058198
  0
LINE
  8
13_KOMPONENTER
 62
8
  6
HIDDEN
 10
87.212704918
 20
112.5688058198
 11
87.462704918
 21
112.8188058198
  0
LINE
  8
13_KOMPONENTER
 62
8
  6
HIDDEN
 10
76.812704918
 20
100.5688058198
 11
77.062704918
 21
100.8188058198
  0
LINE
  8
13_KOMPONENTER
 62
8
  6
HIDDEN
 10
98.112704918
 20
119.3688058198
 11
97.862704918
 21
119.1188058198
  0
LINE
  8
13_KOMPONENTER
 62
8
  6
HIDDEN
 10
87.712704918
 20
107.3688058198
 11
87.462704918
 21
107.1188058198
  0
LINE
  8
13_KOMPONENTER
 62
8
  6
HIDDEN
 10
77.312704918
 20
95.3688058198
 11
77.062704918
 21
95.1188058198
  0
LINE
  8
13_KOMPONENTER
 62
8
  6
HIDDEN
 10
108.012704918
 20
124.5688058198
 11
108.262704918
 21
124.8188058198
  0
LINE
  8
13_KOMPONENTER
 62
8
  6
HIDDEN
 10
45.652704918
 20
99.1090726015
 11
45.952704918
 21
99.2822776822
  0
LINE
  8
13_KOMPONENTER
 62
8
  6
HIDDEN
 10
45.652704918
 20
108.8285390382
 11
45.952704918
 21
108.6553339574
  0
LINE
  8
13_KOMPONENTER
 62
8
  6
HIDDEN
 10
66.412704918
 20
119.3688058198
 11
66.662704918
 21
119.1188058198
  0
LINE
  8
13_KOMPONENTER
 62
8
  6
HIDDEN
 10
87.712704918
 20
100.5688058198
 11
87.462704918
 21
100.8188058198
  0
LINE
  8
13_KOMPONENTER
 62
8
  6
HIDDEN
 10
77.312704918
 20
112.5688058198
 11
77.062704918
 21
112.8188058198
  0
LINE
  8
13_KOMPONENTER
 62
8
  6
HIDDEN
 10
66.912704918
 20
124.5688058198
 11
66.662704918
 21
124.8188058198
  0
LINE
  8
13_KOMPONENTER
 62
8
  6
HIDDEN
 10
97.612704918
 20
95.3688058198
 11
97.862704918
 21
95.1188058198
  0
LINE
  8
13_KOMPONENTER
 62
8
  6
HIDDEN
 10
87.212704918
 20
107.3688058198
 11
87.462704918
 21
107.1188058198
  0
LINE
  8
13_KOMPONENTER
 62
8
  6
HIDDEN
 10
76.812704918
 20
119.3688058198
 11
77.062704918
 21
119.1188058198
  0
POLYLINE
  8
13_KOMPONENTER
 62
8
  6
HIDDEN
 66
1
 70
0
  0
VERTEX
  8
13_KOMPONENTER
 62
8
  6
HIDDEN
 10
94.2466345739
 20
119.1240617081
  0
VERTEX
  8
13_KOMPONENTER
 62
8
  6
HIDDEN
 10
94.1727783028
 20
119.2682755904
  0
VERTEX
  8
13_KOMPONENTER
 62
8
  6
HIDDEN
 10
94.1275383474
 20
119.4211292275
  0
VERTEX
  8
13_KOMPONENTER
 62
8
  6
HIDDEN
 10
94.112704918
 20
119.5743962827
  0
SEQEND
  0
LINE
  8
13_KOMPONENTER
 62
7
  6
CONTINUOUS
 10
114.262704918
 20
131.4188058111
 11
114.262704918
 21
126.8688058198
  0
LINE
  8
13_KOMPONENTER
 62
8
  6
HIDDEN
 10
114.262704918
 20
116.3688058198
 11
114.262704918
 21
126.8688058198
  0
LINE
  8
13_KOMPONENTER
 62
7
  6
CONTINUOUS
 10
114.962704918
 20
92.6702772039
 11
114.962704918
 21
82.0688058146
  0
LINE
  8
13_KOMPONENTER
 62
8
  6
HIDDEN
 10
114.962704918
 20
92.6702772039
 11
114.962704918
 21
96.3028921428
  0
LINE
  8
13_KOMPONENTER
 62
8
  6
HIDDEN
 10
118.412704918
 20
124.5688058198
 11
118.412704918
 21
119.3688058198
  0
LINE
  8
13_KOMPONENTER
 62
8
  6
HIDDEN
 10
118.412704918
 20
112.5688058198
 11
118.412704918
 21
107.3688058198
  0
LINE
  8
13_KOMPONENTER
 62
8
  6
HIDDEN
 10
118.412704918
 20
100.5688058198
 11
118.412704918
 21
95.3688058198
  0
LINE
  8
13_KOMPONENTER
 62
7
  6
CONTINUOUS
 10
118.662704918
 20
126.6188058198
 11
118.662704918
 21
117.3194534603
  0
LINE
  8
13_KOMPONENTER
 62
7
  6
CONTINUOUS
 10
118.662704918
 20
114.6188058198
 11
118.662704918
 21
105.3194534603
  0
LINE
  8
13_KOMPONENTER
 62
7
  6
CONTINUOUS
 10
118.662704918
 20
102.6188058198
 11
118.662704918
 21
93.3194534603
  0
LINE
  8
13_KOMPONENTER
 62
8
  6
HIDDEN
 10
118.912704918
 20
124.5688058198
 11
118.912704918
 21
119.3688058198
  0
LINE
  8
13_KOMPONENTER
 62
8
  6
HIDDEN
 10
118.912704918
 20
112.5688058198
 11
118.912704918
 21
107.3688058198
  0
LINE
  8
13_KOMPONENTER
 62
8
  6
HIDDEN
 10
118.912704918
 20
100.5688058198
 11
118.912704918
 21
95.3688058198
  0
LINE
  8
13_KOMPONENTER
 62
8
  6
HIDDEN
 10
97.612704918
 20
112.5688058198
 11
97.862704918
 21
112.8188058198
  0
LINE
  8
13_KOMPONENTER
 62
8
  6
HIDDEN
 10
87.212704918
 20
100.5688058198
 11
87.462704918
 21
100.8188058198
  0
LINE
  8
13_KOMPONENTER
 62
8
  6
HIDDEN
 10
108.512704918
 20
119.3688058198
 11
108.262704918
 21
119.1188058198
  0
LINE
  8
13_KOMPONENTER
 62
8
  6
HIDDEN
 10
98.112704918
 20
107.3688058198
 11
97.862704918
 21
107.1188058198
  0
LINE
  8
13_KOMPONENTER
 62
8
  6
HIDDEN
 10
87.712704918
 20
95.3688058198
 11
87.462704918
 21
95.1188058198
  0
LINE
  8
13_KOMPONENTER
 62
8
  6
HIDDEN
 10
118.412704918
 20
124.5688058198
 11
118.662704918
 21
124.8188058198
  0
LINE
  8
13_KOMPONENTER
 62
8
  6
HIDDEN
 10
108.012704918
 20
112.5688058198
 11
108.262704918
 21
112.8188058198
  0
LINE
  8
13_KOMPONENTER
 62
8
  6
HIDDEN
 10
113.262778477
 20
119.8688058195
 11
114.2627685658
 21
120.8687999425
  0
LINE
  8
13_KOMPONENTER
 62
8
  6
HIDDEN
 10
92.362704918
 20
123.3688058198
 11
91.0636668124
 21
122.6188058198
  0
LINE
  8
13_KOMPONENTER
 62
8
  6
HIDDEN
 10
39.7725855476
 20
99.3680750349
 11
39.7740489019
 21
99.3688058198
  0
LINE
  8
13_KOMPONENTER
 62
7
  6
CONTINUOUS
 10
94.8028353756
 20
132.1612354303
 11
94.5319561017
 21
132.0724157718
  0
LINE
  8
13_KOMPONENTER
 62
8
  6
HIDDEN
 10
39.7740489019
 20
120.5688058198
 11
39.7725855476
 21
120.5695366047
  0
LINE
  8
13_KOMPONENTER
 62
8
  6
HIDDEN
 10
45.652704918
 20
120.8285390382
 11
45.952704918
 21
120.6553339574
  0
LINE
  8
13_KOMPONENTER
 62
8
  6
HIDDEN
 10
98.112704918
 20
100.5688058198
 11
97.862704918
 21
100.8188058198
  0
LINE
  8
13_KOMPONENTER
 62
8
  6
HIDDEN
 10
87.712704918
 20
112.5688058198
 11
87.462704918
 21
112.8188058198
  0
LINE
  8
13_KOMPONENTER
 62
8
  6
HIDDEN
 10
77.312704918
 20
124.5688058198
 11
77.062704918
 21
124.8188058198
  0
LINE
  8
13_KOMPONENTER
 62
8
  6
HIDDEN
 10
108.012704918
 20
95.3688058198
 11
108.262704918
 21
95.1188058198
  0
LINE
  8
13_KOMPONENTER
 62
8
  6
HIDDEN
 10
97.612704918
 20
107.3688058198
 11
97.862704918
 21
107.1188058198
  0
LINE
  8
13_KOMPONENTER
 62
8
  6
HIDDEN
 10
87.212704918
 20
119.3688058198
 11
87.462704918
 21
119.1188058198
  0
LINE
  8
13_KOMPONENTER
 62
8
  6
HIDDEN
 10
108.512704918
 20
100.5688058198
 11
108.262704918
 21
100.8188058198
  0
POLYLINE
  8
13_KOMPONENTER
 62
8
  6
HIDDEN
 66
1
 70
0
  0
VERTEX
  8
13_KOMPONENTER
 62
8
  6
HIDDEN
 10
94.2466345739
 20
119.1240617081
  0
VERTEX
  8
13_KOMPONENTER
 62
8
  6
HIDDEN
 10
94.4430283716
 20
118.8674128273
  0
VERTEX
  8
13_KOMPONENTER
 62
8
  6
HIDDEN
 10
94.5428383502
 20
118.7590252225
  0
VERTEX
  8
13_KOMPONENTER
 62
8
  6
HIDDEN
 10
94.7186779685
 20
118.5740617081
  0
SEQEND
  0
LINE
  8
13_KOMPONENTER
 62
8
  6
HIDDEN
 10
109.0706113101
 20
120.8652216582
 11
114.962704918
 21
96.3028921428
  0
LINE
  8
13_KOMPONENTER
 62
8
  6
HIDDEN
 10
114.262704918
 20
116.3688058198
 11
120.0041317968
 21
92.434559647
  0
LINE
  8
13_KOMPONENTER
 62
8
  6
HIDDEN
 10
128.812704918
 20
124.5688058198
 11
128.812704918
 21
119.3688058198
  0
LINE
  8
13_KOMPONENTER
 62
8
  6
HIDDEN
 10
128.812704918
 20
112.5688058198
 11
128.812704918
 21
107.3688058198
  0
LINE
  8
13_KOMPONENTER
 62
8
  6
HIDDEN
 10
128.812704918
 20
100.5688058198
 11
128.812704918
 21
95.3688058198
  0
LINE
  8
13_KOMPONENTER
 62
8
  6
HIDDEN
 10
97.612704918
 20
100.5688058198
 11
97.862704918
 21
100.8188058198
  0
LINE
  8
13_KOMPONENTER
 62
8
  6
HIDDEN
 10
118.912704918
 20
119.3688058198
 11
118.662704918
 21
119.1188058198
  0
LINE
  8
13_KOMPONENTER
 62
8
  6
HIDDEN
 10
108.512704918
 20
107.3688058198
 11
108.262704918
 21
107.1188058198
  0
LINE
  8
13_KOMPONENTER
 62
8
  6
HIDDEN
 10
98.112704918
 20
95.3688058198
 11
97.862704918
 21
95.1188058198
  0
LINE
  8
13_KOMPONENTER
 62
8
  6
HIDDEN
 10
128.812704918
 20
124.5688058198
 11
129.062704918
 21
124.8188058198
  0
LINE
  8
13_KOMPONENTER
 62
8
  6
HIDDEN
 10
118.412704918
 20
112.5688058198
 11
118.662704918
 21
112.8188058198
  0
LINE
  8
13_KOMPONENTER
 62
8
  6
HIDDEN
 10
108.012704918
 20
100.5688058198
 11
108.262704918
 21
100.8188058198
  0
LINE
  8
13_KOMPONENTER
 62
8
  6
HIDDEN
 10
98.112704918
 20
112.5688058198
 11
97.862704918
 21
112.8188058198
  0
LINE
  8
13_KOMPONENTER
 62
8
  6
HIDDEN
 10
87.712704918
 20
124.5688058198
 11
87.462704918
 21
124.8188058198
  0
LINE
  8
13_KOMPONENTER
 62
8
  6
HIDDEN
 10
118.412704918
 20
95.3688058198
 11
118.662704918
 21
95.1188058198
  0
LINE
  8
13_KOMPONENTER
 62
8
  6
HIDDEN
 10
108.012704918
 20
107.3688058198
 11
108.262704918
 21
107.1188058198
  0
LINE
  8
13_KOMPONENTER
 62
8
  6
HIDDEN
 10
97.612704918
 20
119.3688058198
 11
97.862704918
 21
119.1188058198
  0
LINE
  8
13_KOMPONENTER
 62
8
  6
HIDDEN
 10
118.912704918
 20
100.5688058198
 11
118.662704918
 21
100.8188058198
  0
LINE
  8
13_KOMPONENTER
 62
8
  6
HIDDEN
 10
108.512704918
 20
112.5688058198
 11
108.262704918
 21
112.8188058198
  0
LINE
  8
13_KOMPONENTER
 62
8
  6
HIDDEN
 10
95.1127132601
 20
118.1688058198
 11
94.7186779685
 21
118.5740617081
  0
LINE
  8
13_KOMPONENTER
 62
7
  6
CONTINUOUS
 10
129.062704918
 20
126.6188058198
 11
129.062704918
 21
117.3194534603
  0
LINE
  8
13_KOMPONENTER
 62
7
  6
CONTINUOUS
 10
129.062704918
 20
114.6188058198
 11
129.062704918
 21
105.3194534603
  0
LINE
  8
13_KOMPONENTER
 62
7
  6
CONTINUOUS
 10
129.062704918
 20
102.6188058198
 11
129.062704918
 21
93.3194534603
  0
LINE
  8
13_KOMPONENTER
 62
8
  6
HIDDEN
 10
129.312704918
 20
124.5688058198
 11
129.312704918
 21
119.3688058198
  0
LINE
  8
13_KOMPONENTER
 62
8
  6
HIDDEN
 10
129.312704918
 20
112.5688058198
 11
129.312704918
 21
107.3688058198
  0
LINE
  8
13_KOMPONENTER
 62
8
  6
HIDDEN
 10
129.312704918
 20
100.5688058198
 11
129.312704918
 21
95.3688058198
  0
LINE
  8
13_KOMPONENTER
 62
8
  6
HIDDEN
 10
129.312704918
 20
119.3688058198
 11
129.062704918
 21
119.1188058198
  0
LINE
  8
13_KOMPONENTER
 62
8
  6
HIDDEN
 10
118.912704918
 20
107.3688058198
 11
118.662704918
 21
107.1188058198
  0
LINE
  8
13_KOMPONENTER
 62
8
  6
HIDDEN
 10
108.512704918
 20
95.3688058198
 11
108.262704918
 21
95.1188058198
  0
LINE
  8
13_KOMPONENTER
 62
8
  6
HIDDEN
 10
139.212704918
 20
124.5688058198
 11
139.462704918
 21
124.8188058198
  0
LINE
  8
13_KOMPONENTER
 62
8
  6
HIDDEN
 10
128.812704918
 20
112.5688058198
 11
129.062704918
 21
112.8188058198
  0
LINE
  8
13_KOMPONENTER
 62
8
  6
HIDDEN
 10
118.412704918
 20
100.5688058198
 11
118.662704918
 21
100.8188058198
  0
LINE
  8
13_KOMPONENTER
 62
8
  6
HIDDEN
 10
139.712704918
 20
119.3688058198
 11
139.462704918
 21
119.1188058198
  0
LINE
  8
13_KOMPONENTER
 62
7
  6
CONTINUOUS
 10
146.262704918
 20
81.0688058198
 11
115.9627049128
 21
81.0688058198
  0
LINE
  8
13_KOMPONENTER
 62
7
  6
CONTINUOUS
 10
178.462704918
 20
81.0688058198
 11
208.7627049233
 21
81.0688058198
  0
LINE
  8
13_KOMPONENTER
 62
8
  6
HIDDEN
 10
98.112704918
 20
124.5688058198
 11
97.862704918
 21
124.8188058198
  0
LINE
  8
13_KOMPONENTER
 62
8
  6
HIDDEN
 10
128.812704918
 20
95.3688058198
 11
129.062704918
 21
95.1188058198
  0
LINE
  8
13_KOMPONENTER
 62
8
  6
HIDDEN
 10
118.412704918
 20
107.3688058198
 11
118.662704918
 21
107.1188058198
  0
LINE
  8
13_KOMPONENTER
 62
8
  6
HIDDEN
 10
108.012704918
 20
119.3688058198
 11
108.262704918
 21
119.1188058198
  0
LINE
  8
13_KOMPONENTER
 62
8
  6
HIDDEN
 10
129.312704918
 20
100.5688058198
 11
129.062704918
 21
100.8188058198
  0
LINE
  8
13_KOMPONENTER
 62
8
  6
HIDDEN
 10
118.912704918
 20
112.5688058198
 11
118.662704918
 21
112.8188058198
  0
LINE
  8
13_KOMPONENTER
 62
8
  6
HIDDEN
 10
108.512704918
 20
124.5688058198
 11
108.262704918
 21
124.8188058198
  0
LINE
  8
13_KOMPONENTER
 62
8
  6
HIDDEN
 10
139.212704918
 20
124.5688058198
 11
139.212704918
 21
119.3688058198
  0
LINE
  8
13_KOMPONENTER
 62
8
  6
HIDDEN
 10
139.212704918
 20
112.5688058198
 11
139.212704918
 21
107.3688058198
  0
LINE
  8
13_KOMPONENTER
 62
8
  6
HIDDEN
 10
139.212704918
 20
100.5688058198
 11
139.212704918
 21
95.3688058198
  0
LINE
  8
13_KOMPONENTER
 62
7
  6
CONTINUOUS
 10
139.462704918
 20
126.6188058198
 11
139.462704918
 21
117.3194534603
  0
LINE
  8
13_KOMPONENTER
 62
7
  6
CONTINUOUS
 10
139.462704918
 20
114.6188058198
 11
139.462704918
 21
105.3194534603
  0
LINE
  8
13_KOMPONENTER
 62
7
  6
CONTINUOUS
 10
139.462704918
 20
102.6188058198
 11
139.462704918
 21
93.3194534603
  0
LINE
  8
13_KOMPONENTER
 62
8
  6
HIDDEN
 10
139.712704918
 20
124.5688058198
 11
139.712704918
 21
119.3688058198
  0
LINE
  8
13_KOMPONENTER
 62
8
  6
HIDDEN
 10
139.712704918
 20
112.5688058198
 11
139.712704918
 21
107.3688058198
  0
LINE
  8
13_KOMPONENTER
 62
8
  6
HIDDEN
 10
139.712704918
 20
100.5688058198
 11
139.712704918
 21
95.3688058198
  0
POLYLINE
  8
13_KOMPONENTER
 62
7
  6
CONTINUOUS
 66
1
 70
0
  0
VERTEX
  8
13_KOMPONENTER
 62
7
  6
CONTINUOUS
 10
115.3279266681
 20
93.0688058198
  0
VERTEX
  8
13_KOMPONENTER
 62
7
  6
CONTINUOUS
 10
115.1545210469
 20
92.8878614033
  0
VERTEX
  8
13_KOMPONENTER
 62
7
  6
CONTINUOUS
 10
115.0087884291
 20
92.7302490954
  0
VERTEX
  8
13_KOMPONENTER
 62
7
  6
CONTINUOUS
 10
114.9628042682
 20
92.6702693033
  0
SEQEND
  0
POLYLINE
  8
13_KOMPONENTER
 62
8
  6
HIDDEN
 66
1
 70
0
  0
VERTEX
  8
13_KOMPONENTER
 62
8
  6
HIDDEN
 10
115.7627975494
 20
93.5188997199
  0
VERTEX
  8
13_KOMPONENTER
 62
8
  6
HIDDEN
 10
115.4092905562
 20
93.1537069964
  0
VERTEX
  8
13_KOMPONENTER
 62
8
  6
HIDDEN
 10
115.3279266681
 20
93.0688058198
  0
SEQEND
  0
LINE
  8
13_KOMPONENTER
 62
8
  6
HIDDEN
 10
129.312704918
 20
107.3688058198
 11
129.062704918
 21
107.1188058198
  0
LINE
  8
13_KOMPONENTER
 62
8
  6
HIDDEN
 10
118.912704918
 20
95.3688058198
 11
118.662704918
 21
95.1188058198
  0
LINE
  8
13_KOMPONENTER
 62
8
  6
HIDDEN
 10
149.612704918
 20
124.5688058198
 11
149.862704918
 21
124.8188058198
  0
LINE
  8
13_KOMPONENTER
 62
8
  6
HIDDEN
 10
139.212704918
 20
112.5688058198
 11
139.462704918
 21
112.8188058198
  0
LINE
  8
13_KOMPONENTER
 62
8
  6
HIDDEN
 10
128.812704918
 20
100.5688058198
 11
129.062704918
 21
100.8188058198
  0
LINE
  8
13_KOMPONENTER
 62
8
  6
HIDDEN
 10
150.112704918
 20
119.3688058198
 11
149.862704918
 21
119.1188058198
  0
LINE
  8
13_KOMPONENTER
 62
8
  6
HIDDEN
 10
139.712704918
 20
107.3688058198
 11
139.462704918
 21
107.1188058198
  0
LINE
  8
13_KOMPONENTER
 62
8
  6
HIDDEN
 10
147.262704918
 20
84.3188058198
 11
114.962704918
 21
84.3188058198
  0
LINE
  8
13_KOMPONENTER
 62
8
  6
HIDDEN
 10
177.462704918
 20
84.3188058198
 11
209.762704918
 21
84.3188058198
  0
LINE
  8
AXES
 62
2
  6
CENTER
 10
28.1649590164
 20
87.5688058198
 11
295.0112704918
 21
87.5688058198
  0
LINE
  8
13_KOMPONENTER
 62
8
  6
HIDDEN
 10
91.0636668124
 20
124.1188058198
 11
92.362704918
 21
123.3688058198
  0
LINE
  8
13_KOMPONENTER
 62
8
  6
HIDDEN
 10
139.212704918
 20
95.3688058198
 11
139.462704918
 21
95.1188058198
  0
LINE
  8
13_KOMPONENTER
 62
8
  6
HIDDEN
 10
128.812704918
 20
107.3688058198
 11
129.062704918
 21
107.1188058198
  0
LINE
  8
13_KOMPONENTER
 62
8
  6
HIDDEN
 10
118.412704918
 20
119.3688058198
 11
118.662704918
 21
119.1188058198
  0
LINE
  8
13_KOMPONENTER
 62
8
  6
HIDDEN
 10
139.712704918
 20
100.5688058198
 11
139.462704918
 21
100.8188058198
  0
LINE
  8
13_KOMPONENTER
 62
8
  6
HIDDEN
 10
129.312704918
 20
112.5688058198
 11
129.062704918
 21
112.8188058198
  0
LINE
  8
13_KOMPONENTER
 62
8
  6
HIDDEN
 10
118.912704918
 20
124.5688058198
 11
118.662704918
 21
124.8188058198
  0
LINE
  8
13_KOMPONENTER
 62
8
  6
HIDDEN
 10
149.612704918
 20
95.3688058198
 11
149.862704918
 21
95.1188058198
  0
POLYLINE
  8
13_KOMPONENTER
 62
8
  6
HIDDEN
 66
1
 70
0
  0
VERTEX
  8
13_KOMPONENTER
 62
8
  6
HIDDEN
 10
146.8975072725
 20
93.0688058198
  0
VERTEX
  8
13_KOMPONENTER
 62
8
  6
HIDDEN
 10
146.816172552
 20
93.1536810814
  0
VERTEX
  8
13_KOMPONENTER
 62
8
  6
HIDDEN
 10
146.4626021479
 20
93.5188997198
  0
SEQEND
  0
POLYLINE
  8
13_KOMPONENTER
 62
8
  6
HIDDEN
 66
1
 70
0
  0
VERTEX
  8
13_KOMPONENTER
 62
8
  6
HIDDEN
 10
147.1981716947
 20
95.5408922363
  0
VERTEX
  8
13_KOMPONENTER
 62
8
  6
HIDDEN
 10
147.0354468554
 20
95.7244484771
  0
VERTEX
  8
13_KOMPONENTER
 62
8
  6
HIDDEN
 10
146.8189169092
 20
95.9572956359
  0
VERTEX
  8
13_KOMPONENTER
 62
8
  6
HIDDEN
 10
146.5761886421
 20
96.213926715
  0
VERTEX
  8
13_KOMPONENTER
 62
8
  6
HIDDEN
 10
146.262704918
 20
96.5430973858
  0
SEQEND
  0
POLYLINE
  8
13_KOMPONENTER
 62
7
  6
CONTINUOUS
 66
1
 70
0
  0
VERTEX
  8
13_KOMPONENTER
 62
7
  6
CONTINUOUS
 10
147.2626211756
 20
92.6702677977
  0
VERTEX
  8
13_KOMPONENTER
 62
7
  6
CONTINUOUS
 10
147.2166379071
 20
92.7302456201
  0
VERTEX
  8
13_KOMPONENTER
 62
7
  6
CONTINUOUS
 10
147.0709153981
 20
92.8878491516
  0
VERTEX
  8
13_KOMPONENTER
 62
7
  6
CONTINUOUS
 10
146.8975072725
 20
93.0688058198
  0
SEQEND
  0
LINE
  8
13_KOMPONENTER
 62
8
  6
HIDDEN
 10
147.1981716947
 20
95.5408922363
 11
147.262704918
 21
95.3713652407
  0
LINE
  8
13_KOMPONENTER
 62
8
  6
HIDDEN
 10
152.9966410988
 20
104.9196839448
 11
152.9848325896
 21
105.0466401948
  0
LINE
  8
13_KOMPONENTER
 62
8
  6
HIDDEN
 10
153.0320666265
 20
105.0466401948
 11
153.0438751357
 21
104.9196839448
  0
LINE
  8
13_KOMPONENTER
 62
8
  6
HIDDEN
 10
152.9966410988
 20
106.8028684005
 11
152.9848325896
 21
106.9298245294
  0
LINE
  8
13_KOMPONENTER
 62
8
  6
HIDDEN
 10
153.315470877
 20
105.1312776141
 11
153.3036623636
 21
105.2582338641
  0
LINE
  8
13_KOMPONENTER
 62
8
  6
HIDDEN
 10
153.3508964078
 20
105.2582338641
 11
153.362704918
 21
105.1312776141
  0
LINE
  8
13_KOMPONENTER
 62
8
  6
HIDDEN
 10
153.3508964078
 20
108.6860526898
 11
153.362704918
 21
108.5590964549
  0
LINE
  8
13_KOMPONENTER
 62
8
  6
HIDDEN
 10
152.9966410988
 20
108.4109808198
 11
152.9848325896
 21
108.5590964549
  0
LINE
  8
13_KOMPONENTER
 62
8
  6
HIDDEN
 10
153.0320666265
 20
108.5802558097
 11
153.0438751357
 21
108.4321402049
  0
LINE
  8
13_KOMPONENTER
 62
8
  6
HIDDEN
 10
147.262704918
 20
95.3713652407
 11
147.262704918
 21
92.6702765639
  0
LINE
  8
13_KOMPONENTER
 62
7
  6
CONTINUOUS
 10
147.262704918
 20
82.0688058198
 11
147.262704918
 21
92.6702765639
  0
LINE
  8
13_KOMPONENTER
 62
8
  6
HIDDEN
 10
147.962704918
 20
126.8688058198
 11
147.962704918
 21
117.8495102782
  0
LINE
  8
13_KOMPONENTER
 62
7
  6
CONTINUOUS
 10
147.962704918
 20
126.8688058198
 11
147.962704918
 21
131.4188058198
  0
LINE
  8
13_KOMPONENTER
 62
8
  6
HIDDEN
 10
149.612704918
 20
124.5688058198
 11
149.612704918
 21
119.3688058198
  0
LINE
  8
13_KOMPONENTER
 62
8
  6
HIDDEN
 10
149.612704918
 20
112.5688058198
 11
149.612704918
 21
107.3688058198
  0
LINE
  8
13_KOMPONENTER
 62
8
  6
HIDDEN
 10
149.612704918
 20
100.5688058198
 11
149.612704918
 21
95.3688058198
  0
LINE
  8
13_KOMPONENTER
 62
7
  6
CONTINUOUS
 10
149.862704918
 20
126.6188058198
 11
149.862704918
 21
117.3194534609
  0
LINE
  8
13_KOMPONENTER
 62
7
  6
CONTINUOUS
 10
149.862704918
 20
114.6188058198
 11
149.862704918
 21
105.3194534603
  0
LINE
  8
13_KOMPONENTER
 62
7
  6
CONTINUOUS
 10
149.862704918
 20
102.6188058198
 11
149.862704918
 21
93.3194534603
  0
LINE
  8
13_KOMPONENTER
 62
8
  6
HIDDEN
 10
150.112704918
 20
124.5688058198
 11
150.112704918
 21
119.3688058198
  0
LINE
  8
13_KOMPONENTER
 62
8
  6
HIDDEN
 10
150.112704918
 20
112.5688058198
 11
150.112704918
 21
107.3688058198
  0
LINE
  8
13_KOMPONENTER
 62
8
  6
HIDDEN
 10
150.112704918
 20
100.5688058198
 11
150.112704918
 21
95.3688058198
  0
LINE
  8
13_KOMPONENTER
 62
8
  6
HIDDEN
 10
150.982704918
 20
106.0188058198
 11
150.982704918
 21
106.1688058198
  0
LINE
  8
13_KOMPONENTER
 62
8
  6
HIDDEN
 10
150.982704918
 20
106.6188058198
 11
150.982704918
 21
107.1288058198
  0
LINE
  8
13_KOMPONENTER
 62
8
  6
HIDDEN
 10
150.982704918
 20
107.2488058198
 11
150.982704918
 21
107.7588058198
  0
LINE
  8
13_KOMPONENTER
 62
8
  6
HIDDEN
 10
150.982704918
 20
108.4488058198
 11
150.982704918
 21
108.9588058198
  0
LINE
  8
13_KOMPONENTER
 62
8
  6
HIDDEN
 10
150.997704918
 20
104.7888058198
 11
150.997704918
 21
105.2988058198
  0
LINE
  8
13_KOMPONENTER
 62
8
  6
HIDDEN
 10
151.402704918
 20
106.3188058198
 11
151.402704918
 21
106.0788058198
  0
LINE
  8
13_KOMPONENTER
 62
8
  6
HIDDEN
 10
151.942704918
 20
108.0588058198
 11
151.942704918
 21
108.2988058198
  0
LINE
  8
13_KOMPONENTER
 62
8
  6
HIDDEN
 10
152.362704918
 20
108.3588058198
 11
152.362704918
 21
108.2088058198
  0
LINE
  8
13_KOMPONENTER
 62
8
  6
HIDDEN
 10
152.362704918
 20
107.7588058198
 11
152.362704918
 21
107.2488058198
  0
LINE
  8
13_KOMPONENTER
 62
8
  6
HIDDEN
 10
152.362704918
 20
107.1288058198
 11
152.362704918
 21
106.6188058198
  0
LINE
  8
13_KOMPONENTER
 62
8
  6
HIDDEN
 10
152.362704918
 20
105.9288058198
 11
152.362704918
 21
105.4188058198
  0
LINE
  8
13_KOMPONENTER
 62
8
  6
HIDDEN
 10
152.362704918
 20
105.2988058198
 11
152.362704918
 21
104.7888058198
  0
LINE
  8
13_KOMPONENTER
 62
8
  6
HIDDEN
 10
152.807704918
 20
106.3585215255
 11
152.807704918
 21
106.4643182391
  0
LINE
  8
13_KOMPONENTER
 62
8
  6
HIDDEN
 10
152.807704918
 20
107.9666339448
 11
152.807704918
 21
108.07243084
  0
LINE
  8
13_KOMPONENTER
 62
8
  6
HIDDEN
 10
152.8667474642
 20
106.4643182391
 11
152.8667474642
 21
106.3585215255
  0
LINE
  8
13_KOMPONENTER
 62
8
  6
HIDDEN
 10
152.9848325896
 20
105.0466401948
 11
152.9848325896
 21
105.1735964448
  0
LINE
  8
13_KOMPONENTER
 62
8
  6
HIDDEN
 10
152.9848325896
 20
105.8083776948
 11
152.9848325896
 21
105.8930151141
  0
LINE
  8
13_KOMPONENTER
 62
8
  6
HIDDEN
 10
152.9848325896
 20
106.0834494891
 11
152.9848325896
 21
106.1892464448
  0
LINE
  8
13_KOMPONENTER
 62
8
  6
HIDDEN
 10
152.9848325896
 20
106.3585215255
 11
152.9848325896
 21
106.4643182391
  0
LINE
  8
13_KOMPONENTER
 62
8
  6
HIDDEN
 10
152.9848325896
 20
106.9298245294
 11
152.9848325896
 21
107.0567807794
  0
LINE
  8
13_KOMPONENTER
 62
8
  6
HIDDEN
 10
152.9848325896
 20
107.6915620294
 11
152.9848325896
 21
107.7761995698
  0
LINE
  8
13_KOMPONENTER
 62
8
  6
HIDDEN
 10
153.0320666265
 20
107.0567807794
 11
153.0320666265
 21
106.9298245294
  0
LINE
  8
13_KOMPONENTER
 62
8
  6
HIDDEN
 10
153.0320666265
 20
105.1735964448
 11
153.0320666265
 21
105.0466401948
  0
LINE
  8
13_KOMPONENTER
 62
8
  6
HIDDEN
 10
153.0793006634
 20
107.3106932794
 11
153.0793006634
 21
107.2048964448
  0
LINE
  8
13_KOMPONENTER
 62
8
  6
HIDDEN
 10
153.0793006634
 20
104.8562058198
 11
153.0793006634
 21
104.7504091062
  0
LINE
  8
13_KOMPONENTER
 62
8
  6
HIDDEN
 10
153.1029176819
 20
108.3475026948
 11
153.1029176819
 21
108.2417057996
  0
LINE
  8
13_KOMPONENTER
 62
8
  6
HIDDEN
 10
153.1147261911
 20
106.7817088641
 11
153.1147261911
 21
107.0144620698
  0
LINE
  8
13_KOMPONENTER
 62
8
  6
HIDDEN
 10
153.1619602446
 20
107.0144620698
 11
153.1619602446
 21
106.7817088641
  0
LINE
  8
13_KOMPONENTER
 62
8
  6
HIDDEN
 10
153.2446198092
 20
108.2417057996
 11
153.2446198092
 21
108.3475026948
  0
LINE
  8
13_KOMPONENTER
 62
8
  6
HIDDEN
 10
153.2682368359
 20
105.3217119891
 11
153.2682368359
 21
105.4275089448
  0
LINE
  8
13_KOMPONENTER
 62
8
  6
HIDDEN
 10
153.315470877
 20
105.0043213641
 11
153.315470877
 21
105.1312776141
  0
LINE
  8
13_KOMPONENTER
 62
8
  6
HIDDEN
 10
153.315470877
 20
106.9721433602
 11
153.315470877
 21
107.0990996102
  0
LINE
  8
13_KOMPONENTER
 62
8
  6
HIDDEN
 10
153.362704918
 20
108.07243084
 11
153.362704918
 21
107.9666339448
  0
LINE
  8
13_KOMPONENTER
 62
8
  6
HIDDEN
 10
153.362704918
 20
107.5857651948
 11
153.362704918
 21
107.4799683602
  0
LINE
  8
13_KOMPONENTER
 62
8
  6
HIDDEN
 10
153.362704918
 20
107.0990996102
 11
153.362704918
 21
106.9721433602
  0
LINE
  8
13_KOMPONENTER
 62
8
  6
HIDDEN
 10
153.362704918
 20
106.7393902755
 11
153.362704918
 21
106.6335933198
  0
LINE
  8
13_KOMPONENTER
 62
8
  6
HIDDEN
 10
153.362704918
 20
106.1892464448
 11
153.362704918
 21
106.0834494891
  0
LINE
  8
13_KOMPONENTER
 62
8
  6
HIDDEN
 10
153.362704918
 20
106.4643182391
 11
153.362704918
 21
106.3585215255
  0
LINE
  8
13_KOMPONENTER
 62
8
  6
HIDDEN
 10
153.362704918
 20
105.7025807391
 11
153.362704918
 21
105.5967840255
  0
LINE
  8
13_KOMPONENTER
 62
8
  6
HIDDEN
 10
153.362704918
 20
105.1312776141
 11
153.362704918
 21
105.0043213641
  0
LINE
  8
13_KOMPONENTER
 62
8
  6
HIDDEN
 10
152.9848325896
 20
107.0567807794
 11
152.9966410988
 21
107.2048964448
  0
LINE
  8
13_KOMPONENTER
 62
8
  6
HIDDEN
 10
153.3036623636
 20
108.4321402049
 11
153.315470877
 21
108.5802558097
  0
LINE
  8
13_KOMPONENTER
 62
8
  6
HIDDEN
 10
153.362704918
 20
108.5590964549
 11
153.3508964078
 21
108.4109808198
  0
LINE
  8
13_KOMPONENTER
 62
8
  6
HIDDEN
 10
152.9848325896
 20
108.5590964549
 11
152.9966410988
 21
108.6860526898
  0
LINE
  8
13_KOMPONENTER
 62
8
  6
HIDDEN
 10
153.1147261911
 20
107.0144620698
 11
153.1265347003
 21
107.1414183198
  0
LINE
  8
13_KOMPONENTER
 62
8
  6
HIDDEN
 10
152.9848325896
 20
105.1735964448
 11
152.9966410988
 21
105.3005526948
  0
LINE
  8
13_KOMPONENTER
 62
8
  6
HIDDEN
 10
153.362704918
 20
105.0043213641
 11
153.3508964078
 21
104.8773651141
  0
LINE
  8
13_KOMPONENTER
 62
8
  6
HIDDEN
 10
153.362704918
 20
106.9721433602
 11
153.3508964078
 21
106.8663465255
  0
LINE
  8
13_KOMPONENTER
 62
8
  6
HIDDEN
 10
153.0438751357
 20
108.6648933198
 11
153.0320666265
 21
108.5802558097
  0
LINE
  8
13_KOMPONENTER
 62
8
  6
HIDDEN
 10
152.9848325896
 20
107.7761995698
 11
152.9966410988
 21
107.8608371102
  0
LINE
  8
13_KOMPONENTER
 62
8
  6
HIDDEN
 10
153.0438751357
 20
107.8608371102
 11
153.0320666265
 21
107.7761995698
  0
LINE
  8
13_KOMPONENTER
 62
8
  6
HIDDEN
 10
153.0438751357
 20
107.1414183198
 11
153.0320666265
 21
107.0567807794
  0
LINE
  8
13_KOMPONENTER
 62
8
  6
HIDDEN
 10
152.9848325896
 20
105.8930151141
 11
152.9966410988
 21
105.9776527755
  0
LINE
  8
13_KOMPONENTER
 62
8
  6
HIDDEN
 10
153.1737687538
 20
107.0990996102
 11
153.1619602446
 21
107.0144620698
  0
LINE
  8
13_KOMPONENTER
 62
8
  6
HIDDEN
 10
153.0438751357
 20
105.9776527755
 11
153.0320666265
 21
105.8930151141
  0
LINE
  8
13_KOMPONENTER
 62
8
  6
HIDDEN
 10
153.0438751357
 20
105.2582338641
 11
153.0320666265
 21
105.1735964448
  0
LINE
  8
13_KOMPONENTER
 62
8
  6
HIDDEN
 10
153.3036623636
 20
104.9196839448
 11
153.315470877
 21
105.0043213641
  0
LINE
  8
13_KOMPONENTER
 62
8
  6
HIDDEN
 10
152.9966410988
 20
108.6860526898
 11
153.008449608
 21
108.7495308148
  0
LINE
  8
13_KOMPONENTER
 62
8
  6
HIDDEN
 10
153.2918538544
 20
106.8663465255
 11
153.315470877
 21
106.9721433602
  0
LINE
  8
13_KOMPONENTER
 62
8
  6
HIDDEN
 10
153.055683645
 20
108.7072120748
 11
153.0438751357
 21
108.6648933198
  0
LINE
  8
13_KOMPONENTER
 62
8
  6
HIDDEN
 10
152.9966410988
 20
107.2048964448
 11
153.008449608
 21
107.2472151544
  0
LINE
  8
13_KOMPONENTER
 62
8
  6
HIDDEN
 10
153.3508964078
 20
108.4109808198
 11
153.3272793862
 21
108.32634334
  0
LINE
  8
13_KOMPONENTER
 62
8
  6
HIDDEN
 10
153.055683645
 20
107.1837370294
 11
153.0438751357
 21
107.1414183198
  0
LINE
  8
13_KOMPONENTER
 62
8
  6
HIDDEN
 10
153.1265347003
 20
107.1414183198
 11
153.1501517188
 21
107.2260558602
  0
LINE
  8
13_KOMPONENTER
 62
8
  6
HIDDEN
 10
153.185577263
 20
107.1414183198
 11
153.1737687538
 21
107.0990996102
  0
LINE
  8
13_KOMPONENTER
 62
8
  6
HIDDEN
 10
152.9966410988
 20
105.3005526948
 11
153.0202581173
 21
105.3851901141
  0
LINE
  8
13_KOMPONENTER
 62
8
  6
HIDDEN
 10
153.055683645
 20
105.3005526948
 11
153.0438751357
 21
105.2582338641
  0
LINE
  8
13_KOMPONENTER
 62
8
  6
HIDDEN
 10
153.2918538544
 20
104.8773651141
 11
153.3036623636
 21
104.9196839448
  0
LINE
  8
13_KOMPONENTER
 62
8
  6
HIDDEN
 10
153.3508964078
 20
104.8773651141
 11
153.3272793862
 21
104.7927276948
  0
LINE
  8
13_KOMPONENTER
 62
8
  6
HIDDEN
 10
153.008449608
 20
108.7495308148
 11
153.0320666265
 21
108.8130089473
  0
LINE
  8
13_KOMPONENTER
 62
8
  6
HIDDEN
 10
152.9966410988
 20
107.8608371102
 11
153.0202581173
 21
107.9243151746
  0
LINE
  8
13_KOMPONENTER
 62
8
  6
HIDDEN
 10
153.0674921542
 20
107.9243151746
 11
153.0438751357
 21
107.8608371102
  0
LINE
  8
13_KOMPONENTER
 62
8
  6
HIDDEN
 10
153.2800453451
 20
108.3686620496
 11
153.3036623636
 21
108.4321402049
  0
LINE
  8
13_KOMPONENTER
 62
8
  6
HIDDEN
 10
152.9966410988
 20
105.9776527755
 11
153.0202581173
 21
106.0411309005
  0
LINE
  8
13_KOMPONENTER
 62
8
  6
HIDDEN
 10
153.3508964078
 20
106.8663465255
 11
153.3272793862
 21
106.8028684005
  0
LINE
  8
13_KOMPONENTER
 62
8
  6
HIDDEN
 10
153.0674921542
 20
106.0411309005
 11
153.0438751357
 21
105.9776527755
  0
LINE
  8
13_KOMPONENTER
 62
8
  6
HIDDEN
 10
153.0320666265
 20
108.8130089473
 11
153.055683645
 21
108.8553276948
  0
LINE
  8
13_KOMPONENTER
 62
8
  6
HIDDEN
 10
153.0911091726
 20
108.7706901998
 11
153.055683645
 21
108.7072120748
  0
LINE
  8
13_KOMPONENTER
 62
8
  6
HIDDEN
 10
153.0202581173
 20
107.9243151746
 11
153.0438751357
 21
107.9666339448
  0
LINE
  8
13_KOMPONENTER
 62
8
  6
HIDDEN
 10
153.0911091726
 20
107.9666339448
 11
153.0674921542
 21
107.9243151746
  0
LINE
  8
13_KOMPONENTER
 62
8
  6
HIDDEN
 10
153.3272793862
 20
108.32634334
 11
153.2918538544
 21
108.262865215
  0
LINE
  8
13_KOMPONENTER
 62
8
  6
HIDDEN
 10
153.008449608
 20
107.2472151544
 11
153.0320666265
 21
107.2895339852
  0
LINE
  8
13_KOMPONENTER
 62
8
  6
HIDDEN
 10
153.1501517188
 20
107.2260558602
 11
153.1737687538
 21
107.2683745698
  0
LINE
  8
13_KOMPONENTER
 62
8
  6
HIDDEN
 10
153.2091942815
 20
107.1837370294
 11
153.185577263
 21
107.1414183198
  0
LINE
  8
13_KOMPONENTER
 62
8
  6
HIDDEN
 10
153.2564283184
 20
106.8028684005
 11
153.2918538544
 21
106.8663465255
  0
LINE
  8
13_KOMPONENTER
 62
8
  6
HIDDEN
 10
153.0202581173
 20
106.0411309005
 11
153.0438751357
 21
106.0834494891
  0
LINE
  8
13_KOMPONENTER
 62
8
  6
HIDDEN
 10
153.0911091726
 20
106.0834494891
 11
153.0674921542
 21
106.0411309005
  0
LINE
  8
13_KOMPONENTER
 62
8
  6
HIDDEN
 10
129.312704918
 20
95.3688058198
 11
129.062704918
 21
95.1188058198
  0
LINE
  8
13_KOMPONENTER
 62
8
  6
HIDDEN
 10
160.012704918
 20
124.5688058198
 11
160.262704918
 21
124.8188058198
  0
LINE
  8
13_KOMPONENTER
 62
8
  6
HIDDEN
 10
149.612704918
 20
112.5688058198
 11
149.862704918
 21
112.8188058198
  0
LINE
  8
13_KOMPONENTER
 62
8
  6
HIDDEN
 10
139.212704918
 20
100.5688058198
 11
139.462704918
 21
100.8188058198
  0
LINE
  8
13_KOMPONENTER
 62
8
  6
HIDDEN
 10
150.112704918
 20
107.3688058198
 11
149.862704918
 21
107.1188058198
  0
LINE
  8
13_KOMPONENTER
 62
8
  6
HIDDEN
 10
139.712704918
 20
95.3688058198
 11
139.462704918
 21
95.1188058198
  0
LINE
  8
13_KOMPONENTER
 62
8
  6
HIDDEN
 10
153.055683645
 20
108.8553276948
 11
153.1029176819
 21
108.8976464442
  0
LINE
  8
13_KOMPONENTER
 62
8
  6
HIDDEN
 10
153.1147261911
 20
108.7918495698
 11
153.0911091726
 21
108.7706901998
  0
LINE
  8
13_KOMPONENTER
 62
8
  6
HIDDEN
 10
147.262704918
 20
90.8188058198
 11
114.962704918
 21
90.8188058198
  0
LINE
  8
13_KOMPONENTER
 62
8
  6
HIDDEN
 10
177.462704918
 20
90.8188058198
 11
209.762704918
 21
90.8188058198
  0
LINE
  8
13_KOMPONENTER
 62
7
  6
CONTINUOUS
 10
288.662704918
 20
92.6688058198
 11
209.762704918
 21
92.6688058198
  0
LINE
  8
13_KOMPONENTER
 62
7
  6
CONTINUOUS
 10
177.462704918
 20
92.6688058198
 11
147.262704918
 21
92.6688058198
  0
LINE
  8
13_KOMPONENTER
 62
7
  6
CONTINUOUS
 10
36.062704918
 20
92.6688058198
 11
114.962704918
 21
92.6688058198
  0
LINE
  8
13_KOMPONENTER
 62
7
  6
CONTINUOUS
 10
279.772704918
 20
92.7088058198
 11
284.772704918
 21
92.7088058198
  0
LINE
  8
13_KOMPONENTER
 62
7
  6
CONTINUOUS
 10
39.952704918
 20
92.7188058198
 11
44.952704918
 21
92.7188058198
  0
LINE
  8
13_KOMPONENTER
 62
7
  6
CONTINUOUS
 10
278.612704918
 20
93.0688058198
 11
268.712704918
 21
93.0688058198
  0
LINE
  8
13_KOMPONENTER
 62
7
  6
CONTINUOUS
 10
268.212704918
 20
93.0688058198
 11
258.312704918
 21
93.0688058198
  0
LINE
  8
13_KOMPONENTER
 62
7
  6
CONTINUOUS
 10
257.812704918
 20
93.0688058198
 11
247.912704918
 21
93.0688058198
  0
LINE
  8
13_KOMPONENTER
 62
7
  6
CONTINUOUS
 10
247.412704918
 20
93.0688058198
 11
237.512704918
 21
93.0688058198
  0
LINE
  8
13_KOMPONENTER
 62
7
  6
CONTINUOUS
 10
237.012704918
 20
93.0688058198
 11
227.112704918
 21
93.0688058198
  0
LINE
  8
13_KOMPONENTER
 62
7
  6
CONTINUOUS
 10
226.612704918
 20
93.0688058198
 11
216.712704918
 21
93.0688058198
  0
LINE
  8
13_KOMPONENTER
 62
7
  6
CONTINUOUS
 10
216.212704918
 20
93.0688058198
 11
206.312704918
 21
93.0688058198
  0
LINE
  8
13_KOMPONENTER
 62
7
  6
CONTINUOUS
 10
205.812704918
 20
93.0688058198
 11
195.912704918
 21
93.0688058198
  0
LINE
  8
13_KOMPONENTER
 62
7
  6
CONTINUOUS
 10
195.412704918
 20
93.0688058198
 11
185.512704918
 21
93.0688058198
  0
LINE
  8
13_KOMPONENTER
 62
7
  6
CONTINUOUS
 10
185.012704918
 20
93.0688058198
 11
175.112704918
 21
93.0688058198
  0
LINE
  8
13_KOMPONENTER
 62
7
  6
CONTINUOUS
 10
174.612704918
 20
93.0688058198
 11
164.712704918
 21
93.0688058198
  0
LINE
  8
13_KOMPONENTER
 62
7
  6
CONTINUOUS
 10
160.012704918
 20
93.0688058198
 11
150.112704918
 21
93.0688058198
  0
LINE
  8
13_KOMPONENTER
 62
7
  6
CONTINUOUS
 10
149.612704918
 20
93.0688058198
 11
139.712704918
 21
93.0688058198
  0
LINE
  8
13_KOMPONENTER
 62
7
  6
CONTINUOUS
 10
139.212704918
 20
93.0688058198
 11
129.312704918
 21
93.0688058198
  0
LINE
  8
13_KOMPONENTER
 62
7
  6
CONTINUOUS
 10
128.812704918
 20
93.0688058198
 11
118.912704918
 21
93.0688058198
  0
LINE
  8
13_KOMPONENTER
 62
7
  6
CONTINUOUS
 10
118.412704918
 20
93.0688058198
 11
108.512704918
 21
93.0688058198
  0
LINE
  8
13_KOMPONENTER
 62
7
  6
CONTINUOUS
 10
108.012704918
 20
93.0688058198
 11
98.112704918
 21
93.0688058198
  0
LINE
  8
13_KOMPONENTER
 62
7
  6
CONTINUOUS
 10
97.612704918
 20
93.0688058198
 11
87.712704918
 21
93.0688058198
  0
LINE
  8
13_KOMPONENTER
 62
7
  6
CONTINUOUS
 10
87.212704918
 20
93.0688058198
 11
77.312704918
 21
93.0688058198
  0
LINE
  8
13_KOMPONENTER
 62
7
  6
CONTINUOUS
 10
76.812704918
 20
93.0688058198
 11
66.912704918
 21
93.0688058198
  0
LINE
  8
13_KOMPONENTER
 62
7
  6
CONTINUOUS
 10
66.412704918
 20
93.0688058198
 11
56.512704918
 21
93.0688058198
  0
LINE
  8
13_KOMPONENTER
 62
7
  6
CONTINUOUS
 10
56.012704918
 20
93.0688058198
 11
46.112704918
 21
93.0688058198
  0
LINE
  8
13_KOMPONENTER
 62
8
  6
HIDDEN
 10
146.262704918
 20
94.0688058198
 11
120.4005896214
 21
94.0688058198
  0
LINE
  8
13_KOMPONENTER
 62
8
  6
HIDDEN
 10
178.462704918
 20
94.0688058198
 11
204.3248202147
 21
94.0688058198
  0
LINE
  8
13_KOMPONENTER
 62
8
  6
HIDDEN
 10
159.612704918
 20
94.4688058198
 11
160.262704918
 21
94.4688058198
  0
LINE
  8
13_KOMPONENTER
 62
8
  6
HIDDEN
 10
164.462704918
 20
94.4688058198
 11
165.112704918
 21
94.4688058198
  0
LINE
  8
13_KOMPONENTER
 62
7
  6
CONTINUOUS
 10
160.262704918
 20
94.4688058198
 11
164.462704918
 21
94.4688058198
  0
LINE
  8
13_KOMPONENTER
 62
8
  6
HIDDEN
 10
278.612704918
 20
95.3688058198
 11
268.712704918
 21
95.3688058198
  0
LINE
  8
13_KOMPONENTER
 62
8
  6
HIDDEN
 10
268.212704918
 20
95.3688058198
 11
258.312704918
 21
95.3688058198
  0
LINE
  8
13_KOMPONENTER
 62
8
  6
HIDDEN
 10
257.812704918
 20
95.3688058198
 11
247.912704918
 21
95.3688058198
  0
LINE
  8
13_KOMPONENTER
 62
8
  6
HIDDEN
 10
247.412704918
 20
95.3688058198
 11
237.512704918
 21
95.3688058198
  0
LINE
  8
13_KOMPONENTER
 62
8
  6
HIDDEN
 10
237.012704918
 20
95.3688058198
 11
227.112704918
 21
95.3688058198
  0
LINE
  8
13_KOMPONENTER
 62
8
  6
HIDDEN
 10
226.612704918
 20
95.3688058198
 11
216.712704918
 21
95.3688058198
  0
LINE
  8
13_KOMPONENTER
 62
8
  6
HIDDEN
 10
216.212704918
 20
95.3688058198
 11
206.312704918
 21
95.3688058198
  0
LINE
  8
13_KOMPONENTER
 62
8
  6
HIDDEN
 10
205.812704918
 20
95.3688058198
 11
195.912704918
 21
95.3688058198
  0
LINE
  8
13_KOMPONENTER
 62
8
  6
HIDDEN
 10
195.412704918
 20
95.3688058198
 11
185.512704918
 21
95.3688058198
  0
LINE
  8
13_KOMPONENTER
 62
8
  6
HIDDEN
 10
185.012704918
 20
95.3688058198
 11
175.112704918
 21
95.3688058198
  0
LINE
  8
13_KOMPONENTER
 62
8
  6
HIDDEN
 10
174.612704918
 20
95.3688058198
 11
164.712704918
 21
95.3688058198
  0
LINE
  8
13_KOMPONENTER
 62
8
  6
HIDDEN
 10
160.012704918
 20
95.3688058198
 11
150.112704918
 21
95.3688058198
  0
LINE
  8
13_KOMPONENTER
 62
8
  6
HIDDEN
 10
149.612704918
 20
95.3688058198
 11
139.712704918
 21
95.3688058198
  0
LINE
  8
13_KOMPONENTER
 62
8
  6
HIDDEN
 10
139.212704918
 20
95.3688058198
 11
129.312704918
 21
95.3688058198
  0
LINE
  8
13_KOMPONENTER
 62
8
  6
HIDDEN
 10
128.812704918
 20
95.3688058198
 11
118.912704918
 21
95.3688058198
  0
LINE
  8
13_KOMPONENTER
 62
8
  6
HIDDEN
 10
118.412704918
 20
95.3688058198
 11
108.512704918
 21
95.3688058198
  0
LINE
  8
13_KOMPONENTER
 62
8
  6
HIDDEN
 10
108.012704918
 20
95.3688058198
 11
98.112704918
 21
95.3688058198
  0
LINE
  8
13_KOMPONENTER
 62
8
  6
HIDDEN
 10
97.612704918
 20
95.3688058198
 11
87.712704918
 21
95.3688058198
  0
LINE
  8
13_KOMPONENTER
 62
8
  6
HIDDEN
 10
87.212704918
 20
95.3688058198
 11
77.312704918
 21
95.3688058198
  0
LINE
  8
13_KOMPONENTER
 62
8
  6
HIDDEN
 10
76.812704918
 20
95.3688058198
 11
66.912704918
 21
95.3688058198
  0
LINE
  8
13_KOMPONENTER
 62
8
  6
HIDDEN
 10
66.412704918
 20
95.3688058198
 11
56.512704918
 21
95.3688058198
  0
LINE
  8
13_KOMPONENTER
 62
8
  6
HIDDEN
 10
56.012704918
 20
95.3688058198
 11
46.112704918
 21
95.3688058198
  0
LINE
  8
13_KOMPONENTER
 62
8
  6
HIDDEN
 10
280.157704918
 20
95.4688058198
 11
164.462704918
 21
95.4688058198
  0
LINE
  8
13_KOMPONENTER
 62
7
  6
CONTINUOUS
 10
164.462704918
 20
95.4688058198
 11
164.362704918
 21
95.4688058198
  0
LINE
  8
13_KOMPONENTER
 62
8
  6
HIDDEN
 10
164.362704918
 20
95.4688058198
 11
160.362704918
 21
95.4688058198
  0
LINE
  8
13_KOMPONENTER
 62
7
  6
CONTINUOUS
 10
160.362704918
 20
95.4688058198
 11
160.262704918
 21
95.4688058198
  0
LINE
  8
13_KOMPONENTER
 62
8
  6
HIDDEN
 10
160.262704918
 20
95.4688058198
 11
44.567704918
 21
95.4688058198
  0
LINE
  8
13_KOMPONENTER
 62
8
  6
HIDDEN
 10
279.072704918
 20
95.6782722565
 11
281.772704918
 21
95.6782722565
  0
LINE
  8
13_KOMPONENTER
 62
8
  6
HIDDEN
 10
45.652704918
 20
95.6882722565
 11
42.952704918
 21
95.6882722565
  0
LINE
  8
13_KOMPONENTER
 62
8
  6
HIDDEN
 10
160.362704918
 20
95.8688058198
 11
164.362704918
 21
95.8688058198
  0
LINE
  8
13_KOMPONENTER
 62
8
  6
HIDDEN
 10
279.072704918
 20
96.8185390382
 11
281.772704918
 21
96.8185390382
  0
LINE
  8
13_KOMPONENTER
 62
8
  6
HIDDEN
 10
45.652704918
 20
96.8285390382
 11
42.952704918
 21
96.8285390382
  0
LINE
  8
13_KOMPONENTER
 62
8
  6
HIDDEN
 10
279.072704918
 20
99.0990726015
 11
281.772704918
 21
99.0990726015
  0
LINE
  8
13_KOMPONENTER
 62
8
  6
HIDDEN
 10
279.572704918
 20
99.1088058198
 11
284.472704918
 21
99.1088058198
  0
LINE
  8
13_KOMPONENTER
 62
8
  6
HIDDEN
 10
45.652704918
 20
99.1090726015
 11
40.252704918
 21
99.1088058198
  0
LINE
  8
13_KOMPONENTER
 62
8
  6
HIDDEN
 10
153.0793006634
 20
104.7504091062
 11
153.0320666265
 21
104.7927276948
  0
LINE
  8
13_KOMPONENTER
 62
8
  6
HIDDEN
 10
153.055683645
 20
104.8773651141
 11
153.0793006634
 21
104.8562058198
  0
LINE
  8
13_KOMPONENTER
 62
8
  6
HIDDEN
 10
139.212704918
 20
107.3688058198
 11
139.462704918
 21
107.1188058198
  0
LINE
  8
13_KOMPONENTER
 62
8
  6
HIDDEN
 10
128.812704918
 20
119.3688058198
 11
129.062704918
 21
119.1188058198
  0
LINE
  8
13_KOMPONENTER
 62
8
  6
HIDDEN
 10
150.112704918
 20
100.5688058198
 11
149.862704918
 21
100.8188058198
  0
LINE
  8
13_KOMPONENTER
 62
8
  6
HIDDEN
 10
139.712704918
 20
112.5688058198
 11
139.462704918
 21
112.8188058198
  0
LINE
  8
13_KOMPONENTER
 62
8
  6
HIDDEN
 10
129.312704918
 20
124.5688058198
 11
129.062704918
 21
124.8188058198
  0
LINE
  8
13_KOMPONENTER
 62
8
  6
HIDDEN
 10
160.012704918
 20
95.3688058198
 11
160.262704918
 21
95.1188058198
  0
LINE
  8
13_KOMPONENTER
 62
8
  6
HIDDEN
 10
149.612704918
 20
107.3688058198
 11
149.862704918
 21
107.1188058198
  0
LINE
  8
13_KOMPONENTER
 62
8
  6
HIDDEN
 10
153.0438751357
 20
105.6391026141
 11
153.0202581173
 21
105.6814214448
  0
LINE
  8
13_KOMPONENTER
 62
8
  6
HIDDEN
 10
153.055683645
 20
105.7660588641
 11
153.0793006634
 21
105.7237402755
  0
LINE
  8
13_KOMPONENTER
 62
8
  6
HIDDEN
 10
153.0438751357
 20
106.6970714448
 11
153.0202581173
 21
106.7393902755
  0
LINE
  8
13_KOMPONENTER
 62
8
  6
HIDDEN
 10
153.0438751357
 20
107.5222870698
 11
153.0202581173
 21
107.5646057794
  0
LINE
  8
13_KOMPONENTER
 62
8
  6
HIDDEN
 10
153.055683645
 20
107.6492433198
 11
153.0793006634
 21
107.6069246102
  0
LINE
  8
13_KOMPONENTER
 62
8
  6
HIDDEN
 10
153.3036623636
 20
107.2895339852
 11
153.3390878975
 21
107.2260558602
  0
LINE
  8
13_KOMPONENTER
 62
8
  6
HIDDEN
 10
153.2210027907
 20
104.7927276948
 11
153.185577263
 21
104.8773651141
  0
LINE
  8
13_KOMPONENTER
 62
8
  6
HIDDEN
 10
153.1265347003
 20
105.3851901141
 11
153.1619602446
 21
105.3005526948
  0
LINE
  8
13_KOMPONENTER
 62
8
  6
HIDDEN
 10
153.0320666265
 20
104.7927276948
 11
153.008449608
 21
104.8562058198
  0
LINE
  8
13_KOMPONENTER
 62
8
  6
HIDDEN
 10
153.2210027907
 20
104.9408432391
 11
153.2446198092
 21
104.8773651141
  0
LINE
  8
13_KOMPONENTER
 62
8
  6
HIDDEN
 10
153.1265347003
 20
105.2370745698
 11
153.1029176819
 21
105.3005526948
  0
LINE
  8
13_KOMPONENTER
 62
8
  6
HIDDEN
 10
153.0202581173
 20
105.6814214448
 11
152.9966410988
 21
105.7448995698
  0
LINE
  8
13_KOMPONENTER
 62
8
  6
HIDDEN
 10
153.315470877
 20
105.3851901141
 11
153.3390878975
 21
105.3217119891
  0
LINE
  8
13_KOMPONENTER
 62
8
  6
HIDDEN
 10
153.0202581173
 20
106.7393902755
 11
152.9966410988
 21
106.8028684005
  0
LINE
  8
13_KOMPONENTER
 62
8
  6
HIDDEN
 10
153.0202581173
 20
107.5646057794
 11
152.9966410988
 21
107.6280839044
  0
LINE
  8
13_KOMPONENTER
 62
8
  6
HIDDEN
 10
153.0438751357
 20
108.4321402049
 11
153.0674921542
 21
108.3686620496
  0
LINE
  8
13_KOMPONENTER
 62
8
  6
HIDDEN
 10
153.315470877
 20
108.8130089473
 11
153.3390878975
 21
108.7495308148
  0
LINE
  8
13_KOMPONENTER
 62
8
  6
HIDDEN
 10
153.0438751357
 20
104.9196839448
 11
153.055683645
 21
104.8773651141
  0
LINE
  8
13_KOMPONENTER
 62
8
  6
HIDDEN
 10
153.0438751357
 20
105.8083776948
 11
153.055683645
 21
105.7660588641
  0
LINE
  8
13_KOMPONENTER
 62
8
  6
HIDDEN
 10
153.3036623636
 20
105.2582338641
 11
153.2918538544
 21
105.3005526948
  0
LINE
  8
13_KOMPONENTER
 62
8
  6
HIDDEN
 10
153.0438751357
 20
106.8451869891
 11
153.055683645
 21
106.8028684005
  0
LINE
  8
13_KOMPONENTER
 62
8
  6
HIDDEN
 10
153.0438751357
 20
107.6915620294
 11
153.055683645
 21
107.6492433198
  0
LINE
  8
13_KOMPONENTER
 62
8
  6
HIDDEN
 10
153.315470877
 20
107.0990996102
 11
153.2918538544
 21
107.1837370294
  0
LINE
  8
13_KOMPONENTER
 62
8
  6
HIDDEN
 10
153.0202581173
 20
108.32634334
 11
152.9966410988
 21
108.4109808198
  0
LINE
  8
13_KOMPONENTER
 62
8
  6
HIDDEN
 10
153.3390878975
 20
107.2260558602
 11
153.3508964078
 21
107.1837370294
  0
POLYLINE
  8
13_KOMPONENTER
 62
8
  6
HIDDEN
 66
1
 70
0
  0
VERTEX
  8
13_KOMPONENTER
 62
8
  6
HIDDEN
 10
147.962704918
 20
120.0815269106
  0
VERTEX
  8
13_KOMPONENTER
 62
8
  6
HIDDEN
 10
148.0244228172
 20
119.7517097095
  0
VERTEX
  8
13_KOMPONENTER
 62
8
  6
HIDDEN
 10
148.2012313193
 20
119.4664611764
  0
VERTEX
  8
13_KOMPONENTER
 62
8
  6
HIDDEN
 10
148.3258867286
 20
119.3529683885
  0
VERTEX
  8
13_KOMPONENTER
 62
8
  6
HIDDEN
 10
148.6266413287
 20
119.2035026102
  0
VERTEX
  8
13_KOMPONENTER
 62
8
  6
HIDDEN
 10
148.8761661383
 20
119.1688058233
  0
SEQEND
  0
LINE
  8
13_KOMPONENTER
 62
8
  6
HIDDEN
 10
153.008449608
 20
104.8562058198
 11
152.9966410988
 21
104.9196839448
  0
LINE
  8
13_KOMPONENTER
 62
8
  6
HIDDEN
 10
152.9966410988
 20
105.7448995698
 11
152.9848325896
 21
105.8083776948
  0
LINE
  8
13_KOMPONENTER
 62
8
  6
HIDDEN
 10
153.3390878975
 20
105.3217119891
 11
153.3508964078
 21
105.2582338641
  0
LINE
  8
13_KOMPONENTER
 62
8
  6
HIDDEN
 10
152.9966410988
 20
107.6280839044
 11
152.9848325896
 21
107.6915620294
  0
LINE
  8
13_KOMPONENTER
 62
8
  6
HIDDEN
 10
153.315470877
 20
108.5802558097
 11
153.2918538544
 21
108.7072120748
  0
LINE
  8
13_KOMPONENTER
 62
8
  6
HIDDEN
 10
153.3390878975
 20
108.7495308148
 11
153.3508964078
 21
108.6860526898
  0
LINE
  8
13_KOMPONENTER
 62
8
  6
HIDDEN
 10
153.185577263
 20
104.8773651141
 11
153.1265347003
 21
105.2370745698
  0
LINE
  8
13_KOMPONENTER
 62
8
  6
HIDDEN
 10
153.1619602446
 20
105.3005526948
 11
153.2210027907
 21
104.9408432391
  0
LINE
  8
13_KOMPONENTER
 62
8
  6
HIDDEN
 10
153.0320666265
 20
105.8930151141
 11
153.0438751357
 21
105.8083776948
  0
LINE
  8
13_KOMPONENTER
 62
8
  6
HIDDEN
 10
153.0320666265
 20
106.9298245294
 11
153.0438751357
 21
106.8451869891
  0
LINE
  8
13_KOMPONENTER
 62
8
  6
HIDDEN
 10
153.0320666265
 20
107.7761995698
 11
153.0438751357
 21
107.6915620294
  0
LINE
  8
13_KOMPONENTER
 62
8
  6
HIDDEN
 10
153.3508964078
 20
107.1837370294
 11
153.362704918
 21
107.0990996102
  0
LINE
  8
13_KOMPONENTER
 62
8
  6
HIDDEN
 10
158.6127603235
 20
101.0206311806
 11
158.6127603235
 21
101.2919807451
  0
LINE
  8
13_KOMPONENTER
 62
8
  6
HIDDEN
 10
158.6127603235
 20
110.4021391213
 11
158.6127603235
 21
112.6188058198
  0
LINE
  8
13_KOMPONENTER
 62
8
  6
HIDDEN
 10
159.0381813767
 20
112.6188058198
 11
159.0381813767
 21
111.6813610452
  0
LINE
  8
13_KOMPONENTER
 62
8
  6
HIDDEN
 10
159.0381813767
 20
111.3395838959
 11
159.0381813767
 21
110.4021391213
  0
LINE
  8
13_KOMPONENTER
 62
8
  6
HIDDEN
 10
159.362704918
 20
132.1688058198
 11
159.362704918
 21
131.9188058198
  0
LINE
  8
13_KOMPONENTER
 62
8
  6
HIDDEN
 10
159.362704918
 20
128.6188058198
 11
159.362704918
 21
127.1188058198
  0
LINE
  8
13_KOMPONENTER
 62
8
  6
HIDDEN
 10
159.612704918
 20
125.4688058198
 11
159.612704918
 21
117.0688058198
  0
LINE
  8
13_KOMPONENTER
 62
7
  6
CONTINUOUS
 10
159.612704918
 20
117.0688058198
 11
159.612704918
 21
114.8688058198
  0
LINE
  8
13_KOMPONENTER
 62
8
  6
HIDDEN
 10
159.612704918
 20
114.8688058198
 11
159.612704918
 21
105.0688058198
  0
LINE
  8
13_KOMPONENTER
 62
7
  6
CONTINUOUS
 10
159.612704918
 20
105.0688058198
 11
159.612704918
 21
102.8688058198
  0
LINE
  8
13_KOMPONENTER
 62
8
  6
HIDDEN
 10
159.612704918
 20
102.8688058198
 11
159.612704918
 21
94.4688058198
  0
LINE
  8
13_KOMPONENTER
 62
8
  6
HIDDEN
 10
159.8858020674
 20
104.1063802971
 11
159.8858020674
 21
104.4481574464
  0
LINE
  8
13_KOMPONENTER
 62
8
  6
HIDDEN
 10
159.8858020674
 20
105.7394541513
 11
159.8858020674
 21
106.0812313005
  0
LINE
  8
13_KOMPONENTER
 62
8
  6
HIDDEN
 10
159.8858020674
 20
107.3693239341
 11
159.8858020674
 21
107.7111010834
  0
LINE
  8
13_KOMPONENTER
 62
8
  6
HIDDEN
 10
159.8858020674
 20
109.6488994359
 11
159.8858020674
 21
109.9202490004
  0
LINE
  8
13_KOMPONENTER
 62
8
  6
HIDDEN
 10
160.012704918
 20
124.5688058198
 11
160.012704918
 21
119.3688058198
  0
LINE
  8
13_KOMPONENTER
 62
8
  6
HIDDEN
 10
160.012704918
 20
112.5688058198
 11
160.012704918
 21
107.3688058198
  0
LINE
  8
13_KOMPONENTER
 62
8
  6
HIDDEN
 10
160.012704918
 20
100.5688058198
 11
160.012704918
 21
95.3688058198
  0
LINE
  8
13_KOMPONENTER
 62
8
  6
HIDDEN
 10
160.2258198449
 20
107.7201042813
 11
160.2258198449
 21
107.378327132
  0
LINE
  8
13_KOMPONENTER
 62
7
  6
CONTINUOUS
 10
160.262704918
 20
126.6188058198
 11
160.262704918
 21
117.3188058198
  0
LINE
  8
13_KOMPONENTER
 62
7
  6
CONTINUOUS
 10
160.262704918
 20
114.6188058198
 11
160.262704918
 21
105.3188058198
  0
LINE
  8
13_KOMPONENTER
 62
7
  6
CONTINUOUS
 10
160.262704918
 20
102.6188058198
 11
160.262704918
 21
93.3188058198
  0
LINE
  8
13_KOMPONENTER
 62
7
  6
CONTINUOUS
 10
160.362704918
 20
125.4688058198
 11
160.362704918
 21
118.4688058198
  0
LINE
  8
13_KOMPONENTER
 62
7
  6
CONTINUOUS
 10
160.362704918
 20
113.4688058198
 11
160.362704918
 21
106.4688058198
  0
LINE
  8
13_KOMPONENTER
 62
7
  6
CONTINUOUS
 10
160.362704918
 20
101.4688058198
 11
160.362704918
 21
94.4688058198
  0
LINE
  8
13_KOMPONENTER
 62
8
  6
HIDDEN
 10
160.5729328261
 20
108.4127189117
 11
160.5729328261
 21
108.1413693472
  0
LINE
  8
13_KOMPONENTER
 62
8
  6
HIDDEN
 10
160.825924283
 20
106.9548556565
 11
160.825924283
 21
107.6000083274
  0
LINE
  8
13_KOMPONENTER
 62
8
  6
HIDDEN
 10
160.9120003497
 20
102.0607903481
 11
160.9120003497
 21
103.2856261154
  0
LINE
  8
13_KOMPONENTER
 62
8
  6
HIDDEN
 10
161.1647238768
 20
107.6000083274
 11
161.1647238768
 21
106.9548556565
  0
LINE
  8
13_KOMPONENTER
 62
7
  6
CONTINUOUS
 10
161.212704918
 20
125.4688058198
 11
161.212704918
 21
94.4688058198
  0
LINE
  8
13_KOMPONENTER
 62
8
  6
HIDDEN
 10
161.2505875779
 20
103.3497556868
 11
161.2505875779
 21
101.7687909385
  0
LINE
  8
13_KOMPONENTER
 62
8
  6
HIDDEN
 10
161.7628580402
 20
101.7733261651
 11
161.7628580402
 21
102.0446757296
  0
LINE
  8
1_AXIS
 62
2
  6
CENTER
 10
162.362704918
 20
141.7549308197
 11
162.362704918
 21
108.6189058198
  0
LINE
  8
1_AXIS
 62
2
  6
CONTINUOUS
 10
162.362704918
 20
107.6688058198
 11
162.362704918
 21
105.5688058198
  0
LINE
  8
13_KOMPONENTER
 62
8
  6
HIDDEN
 10
162.362704918
 20
103.281813407
 11
162.362704918
 21
103.251606266
  0
LINE
  8
1_AXIS
 62
2
  6
CENTER
 10
162.362704918
 20
73.343127541
 11
162.362704918
 21
104.6187058198
  0
LINE
  8
13_KOMPONENTER
 62
8
  6
HIDDEN
 10
162.362704918
 20
107.4870853081
 11
162.362704918
 21
107.8288624574
  0
LINE
  8
13_KOMPONENTER
 62
8
  6
HIDDEN
 10
162.5961994526
 20
111.6813610452
 11
162.5961994526
 21
111.3395838959
  0
LINE
  8
13_KOMPONENTER
 62
8
  6
HIDDEN
 10
162.5961994526
 20
109.9202490004
 11
162.5961994526
 21
109.6488994359
  0
LINE
  8
13_KOMPONENTER
 62
8
  6
HIDDEN
 10
162.5961994526
 20
107.8236403732
 11
162.5961994526
 21
107.4818632239
  0
LINE
  8
13_KOMPONENTER
 62
8
  6
HIDDEN
 10
162.5961994526
 20
106.8901553843
 11
162.5961994526
 21
106.6188058198
  0
LINE
  8
13_KOMPONENTER
 62
8
  6
HIDDEN
 10
162.5961994526
 20
105.2646943582
 11
162.5961994526
 21
104.922917209
  0
LINE
  8
13_KOMPONENTER
 62
8
  6
HIDDEN
 10
162.5961994526
 20
101.2919807451
 11
162.5961994526
 21
101.0206311806
  0
LINE
  8
13_KOMPONENTER
 62
7
  6
CONTINUOUS
 10
163.512704918
 20
125.4688058198
 11
163.512704918
 21
94.4688058198
  0
LINE
  8
13_KOMPONENTER
 62
8
  6
HIDDEN
 10
162.601055888
 20
102.6363670341
 11
162.5238268699
 21
102.2328621302
  0
LINE
  8
13_KOMPONENTER
 62
8
  6
HIDDEN
 10
159.8858020674
 20
107.7111010834
 11
159.9729434717
 21
108.118071531
  0
LINE
  8
13_KOMPONENTER
 62
8
  6
HIDDEN
 10
160.399315715
 20
109.236051194
 11
160.314491403
 21
108.886098987
  0
LINE
  8
13_KOMPONENTER
 62
8
  6
HIDDEN
 10
159.8891349944
 20
102.6428923253
 11
159.9739593064
 21
102.9928445322
  0
LINE
  8
13_KOMPONENTER
 62
8
  6
HIDDEN
 10
160.825924283
 20
107.6000083274
 11
160.9111731307
 21
107.9507837401
  0
LINE
  8
13_KOMPONENTER
 62
8
  6
HIDDEN
 10
162.5961994526
 20
107.4818632239
 11
162.5173154365
 21
107.1941456256
  0
LINE
  8
13_KOMPONENTER
 62
8
  6
HIDDEN
 10
159.8890703498
 20
108.886098987
 11
159.9746594903
 21
109.1794309861
  0
LINE
  8
13_KOMPONENTER
 62
8
  6
HIDDEN
 10
160.3120624378
 20
107.9593913205
 11
160.2258198449
 21
107.7201042813
  0
LINE
  8
13_KOMPONENTER
 62
8
  6
HIDDEN
 10
161.2509664697
 20
107.8392953667
 11
161.1647238768
 21
107.6000083274
  0
LINE
  8
13_KOMPONENTER
 62
8
  6
HIDDEN
 10
160.3160293773
 20
102.9381787513
 11
160.2297867844
 21
102.698891712
  0
LINE
  8
13_KOMPONENTER
 62
8
  6
HIDDEN
 10
163.112704918
 20
109.0188058198
 11
164.612704918
 21
112.6188058198
  0
LINE
  8
13_KOMPONENTER
 62
8
  6
HIDDEN
 10
159.9746594903
 20
109.1794309861
 11
160.0595924081
 21
109.3541993576
  0
LINE
  8
13_KOMPONENTER
 62
8
  6
HIDDEN
 10
159.9739593064
 20
102.9928445322
 11
160.0588922242
 21
103.1676129038
  0
LINE
  8
13_KOMPONENTER
 62
8
  6
HIDDEN
 10
160.5695987313
 20
109.4703636067
 11
160.399315715
 21
109.236051194
  0
LINE
  8
13_KOMPONENTER
 62
8
  6
HIDDEN
 10
159.9729434717
 20
108.118071531
 11
160.0621672132
 21
108.2408449619
  0
LINE
  8
13_KOMPONENTER
 62
8
  6
HIDDEN
 10
160.4012861792
 20
108.0821647514
 11
160.3120624378
 21
107.9593913205
  0
LINE
  8
13_KOMPONENTER
 62
8
  6
HIDDEN
 10
160.9111731307
 20
107.9507837401
 11
161.0814561471
 21
108.1850961528
  0
LINE
  8
13_KOMPONENTER
 62
8
  6
HIDDEN
 10
161.3401902111
 20
107.9620687976
 11
161.2509664697
 21
107.8392953667
  0
LINE
  8
13_KOMPONENTER
 62
8
  6
HIDDEN
 10
162.1453449822
 20
107.188595813
 11
162.362704918
 21
107.4870853081
  0
LINE
  8
13_KOMPONENTER
 62
8
  6
HIDDEN
 10
160.3993871054
 20
103.0523092995
 11
160.3160293773
 21
102.9381787513
  0
LINE
  8
13_KOMPONENTER
 62
8
  6
HIDDEN
 10
153.0202581173
 20
105.3851901141
 11
153.055683645
 21
105.4275089448
  0
LINE
  8
13_KOMPONENTER
 62
8
  6
HIDDEN
 10
153.3272793862
 20
104.7927276948
 11
153.2918538544
 21
104.7504091062
  0
LINE
  8
13_KOMPONENTER
 62
8
  6
HIDDEN
 10
162.5173154365
 20
107.1941456256
 11
162.362704918
 21
107.0337219202
  0
LINE
  8
13_KOMPONENTER
 62
8
  6
HIDDEN
 10
160.0595924081
 20
109.3541993576
 11
160.2298003974
 21
109.5294701916
  0
LINE
  8
13_KOMPONENTER
 62
8
  6
HIDDEN
 10
160.0588922242
 20
103.1676129038
 11
160.2291002135
 21
103.3428837377
  0
LINE
  8
13_KOMPONENTER
 62
8
  6
HIDDEN
 10
164.712704918
 20
119.3688058198
 11
164.462704918
 21
119.1188058198
  0
LINE
  8
13_KOMPONENTER
 62
8
  6
HIDDEN
 10
160.012704918
 20
112.5688058198
 11
160.262704918
 21
112.8188058198
  0
LINE
  8
13_KOMPONENTER
 62
8
  6
HIDDEN
 10
149.612704918
 20
100.5688058198
 11
149.862704918
 21
100.8188058198
  0
LINE
  8
13_KOMPONENTER
 62
8
  6
HIDDEN
 10
174.612704918
 20
124.5688058198
 11
174.862704918
 21
124.8188058198
  0
LINE
  8
13_KOMPONENTER
 62
8
  6
HIDDEN
 10
150.112704918
 20
95.3688058198
 11
149.862704918
 21
95.1188058198
  0
LINE
  8
13_KOMPONENTER
 62
8
  6
HIDDEN
 10
175.112704918
 20
119.3688058198
 11
174.862704918
 21
119.1188058198
  0
LINE
  8
13_KOMPONENTER
 62
8
  6
HIDDEN
 10
164.712704918
 20
107.3688058198
 11
164.462704918
 21
107.1188058198
  0
LINE
  8
13_KOMPONENTER
 62
8
  6
HIDDEN
 10
176.7627957899
 20
120.8687991438
 11
175.7627884616
 21
119.8688058192
  0
LINE
  8
13_KOMPONENTER
 62
8
  6
HIDDEN
 10
153.0320666265
 20
107.2895339852
 11
153.055683645
 21
107.3106932794
  0
LINE
  8
13_KOMPONENTER
 62
8
  6
HIDDEN
 10
153.0793006634
 20
107.2048964448
 11
153.055683645
 21
107.1837370294
  0
LINE
  8
13_KOMPONENTER
 62
8
  6
HIDDEN
 10
153.1737687538
 20
107.2683745698
 11
153.2210027907
 21
107.3106932794
  0
LINE
  8
13_KOMPONENTER
 62
8
  6
HIDDEN
 10
153.2328113
 20
106.7817088641
 11
153.2564283184
 21
106.8028684005
  0
LINE
  8
13_KOMPONENTER
 62
8
  6
HIDDEN
 10
153.3272793862
 20
106.8028684005
 11
153.3036623636
 21
106.7817088641
  0
LINE
  8
13_KOMPONENTER
 62
8
  6
HIDDEN
 10
153.0793006634
 20
105.3217119891
 11
153.055683645
 21
105.3005526948
  0
LINE
  8
13_KOMPONENTER
 62
8
  6
HIDDEN
 10
153.2682368359
 20
104.8562058198
 11
153.2918538544
 21
104.8773651141
  0
LINE
  8
13_KOMPONENTER
 62
8
  6
HIDDEN
 10
160.2298003974
 20
109.5294701916
 11
160.4035902938
 21
109.6488994359
  0
LINE
  8
13_KOMPONENTER
 62
8
  6
HIDDEN
 10
160.0621672132
 20
108.2408449619
 11
160.2270945795
 21
108.3535143159
  0
LINE
  8
13_KOMPONENTER
 62
8
  6
HIDDEN
 10
161.5051175774
 20
108.0747381516
 11
161.3401902111
 21
107.9620687976
  0
LINE
  8
13_KOMPONENTER
 62
8
  6
HIDDEN
 10
161.0814561471
 20
108.1850961528
 11
161.2508744362
 21
108.3008212385
  0
LINE
  8
13_KOMPONENTER
 62
8
  6
HIDDEN
 10
161.8604164725
 20
107.0133188146
 11
162.1453449822
 21
107.188595813
  0
LINE
  8
13_KOMPONENTER
 62
8
  6
HIDDEN
 10
153.2446198092
 20
108.3475026948
 11
153.2800453451
 21
108.3686620496
  0
LINE
  8
13_KOMPONENTER
 62
8
  6
HIDDEN
 10
153.2446198092
 20
107.2048964448
 11
153.2091942815
 21
107.1837370294
  0
LINE
  8
13_KOMPONENTER
 62
8
  6
HIDDEN
 10
160.9123163262
 20
109.6488994359
 11
160.5695987313
 21
109.4703636067
  0
LINE
  8
13_KOMPONENTER
 62
8
  6
HIDDEN
 10
153.1619602446
 20
108.8130089473
 11
153.1147261911
 21
108.7918495698
  0
LINE
  8
13_KOMPONENTER
 62
8
  6
HIDDEN
 10
153.2918538544
 20
108.262865215
 11
153.2446198092
 21
108.2417057996
  0
LINE
  8
13_KOMPONENTER
 62
8
  6
HIDDEN
 10
160.2270945795
 20
108.3535143159
 11
160.3987412264
 21
108.4127189117
  0
LINE
  8
13_KOMPONENTER
 62
8
  6
HIDDEN
 10
160.5729328261
 20
108.1413693472
 11
160.4012861792
 21
108.0821647514
  0
LINE
  8
13_KOMPONENTER
 62
8
  6
HIDDEN
 10
162.362704918
 20
107.0337219202
 11
162.1292103835
 21
106.9553274109
  0
LINE
  8
13_KOMPONENTER
 62
8
  6
HIDDEN
 10
161.2508744362
 20
108.3008212385
 11
161.5913809296
 21
108.4127189117
  0
LINE
  8
13_KOMPONENTER
 62
8
  6
HIDDEN
 10
161.6825121032
 20
106.9548556565
 11
161.8604164725
 21
107.0133188146
  0
LINE
  8
13_KOMPONENTER
 62
8
  6
HIDDEN
 10
153.1029176819
 20
108.8976464442
 11
153.1737687538
 21
108.9188058198
  0
LINE
  8
13_KOMPONENTER
 62
8
  6
HIDDEN
 10
241.630371545
 20
125.1294441164
 11
241.963704918
 21
125.2145504892
  0
LINE
  8
13_KOMPONENTER
 62
8
  6
HIDDEN
 10
237.6303714258
 20
125.1294441164
 11
237.963704918
 21
125.2145504892
  0
LINE
  8
13_KOMPONENTER
 62
8
  6
HIDDEN
 10
161.7628580402
 20
102.0446757296
 11
162.037072987
 21
102.1052117028
  0
POLYLINE
  8
13_KOMPONENTER
 62
8
  6
HIDDEN
 66
1
 70
0
  0
VERTEX
  8
13_KOMPONENTER
 62
8
  6
HIDDEN
 10
280.4923201603
 20
120.5588058198
  0
VERTEX
  8
13_KOMPONENTER
 62
8
  6
HIDDEN
 10
280.3444097038
 20
120.5327297149
  0
VERTEX
  8
13_KOMPONENTER
 62
8
  6
HIDDEN
 10
280.211115758
 20
120.466161406
  0
VERTEX
  8
13_KOMPONENTER
 62
8
  6
HIDDEN
 10
280.0955565959
 20
120.3768024743
  0
VERTEX
  8
13_KOMPONENTER
 62
8
  6
HIDDEN
 10
279.972704918
 20
120.2588058198
  0
SEQEND
  0
LINE
  8
13_KOMPONENTER
 62
8
  6
HIDDEN
 10
162.1021052691
 20
101.8298081365
 11
161.7628580402
 21
101.7733261651
  0
LINE
  8
13_KOMPONENTER
 62
8
  6
HIDDEN
 10
115.962704918
 20
96.4211562598
 11
114.962704918
 21
96.3028921428
  0
LINE
  8
13_KOMPONENTER
 62
8
  6
HIDDEN
 10
160.739703463
 20
103.5784871037
 11
161.2508616511
 21
103.6360008789
  0
LINE
  8
13_KOMPONENTER
 62
8
  6
HIDDEN
 10
279.572704918
 20
99.3588058198
 11
284.9513609342
 21
99.3588058198
  0
LINE
  8
13_KOMPONENTER
 62
8
  6
HIDDEN
 10
45.152704918
 20
99.3688058198
 11
39.7740489019
 21
99.3688058198
  0
LINE
  8
13_KOMPONENTER
 62
8
  6
HIDDEN
 10
164.362704918
 20
100.0688058198
 11
160.362704918
 21
100.0688058198
  0
LINE
  8
13_KOMPONENTER
 62
8
  6
HIDDEN
 10
279.072704918
 20
100.2393393831
 11
281.772704918
 21
100.2393393831
  0
LINE
  8
13_KOMPONENTER
 62
8
  6
HIDDEN
 10
45.652704918
 20
100.2493393831
 11
42.952704918
 21
100.2493393831
  0
LINE
  8
13_KOMPONENTER
 62
8
  6
HIDDEN
 10
280.157704918
 20
100.4688058198
 11
164.462704918
 21
100.4688058198
  0
LINE
  8
13_KOMPONENTER
 62
7
  6
CONTINUOUS
 10
164.462704918
 20
100.4688058198
 11
164.362704918
 21
100.4688058198
  0
LINE
  8
13_KOMPONENTER
 62
8
  6
HIDDEN
 10
164.362704918
 20
100.4688058198
 11
160.362704918
 21
100.4688058198
  0
LINE
  8
13_KOMPONENTER
 62
7
  6
CONTINUOUS
 10
160.362704918
 20
100.4688058198
 11
160.262704918
 21
100.4688058198
  0
LINE
  8
13_KOMPONENTER
 62
8
  6
HIDDEN
 10
160.262704918
 20
100.4688058198
 11
44.567704918
 21
100.4688058198
  0
LINE
  8
13_KOMPONENTER
 62
8
  6
HIDDEN
 10
278.612704918
 20
100.5688058198
 11
268.712704918
 21
100.5688058198
  0
LINE
  8
13_KOMPONENTER
 62
8
  6
HIDDEN
 10
268.212704918
 20
100.5688058198
 11
258.312704918
 21
100.5688058198
  0
LINE
  8
13_KOMPONENTER
 62
8
  6
HIDDEN
 10
257.812704918
 20
100.5688058198
 11
247.912704918
 21
100.5688058198
  0
LINE
  8
13_KOMPONENTER
 62
8
  6
HIDDEN
 10
247.412704918
 20
100.5688058198
 11
237.512704918
 21
100.5688058198
  0
LINE
  8
13_KOMPONENTER
 62
8
  6
HIDDEN
 10
237.012704918
 20
100.5688058198
 11
227.112704918
 21
100.5688058198
  0
LINE
  8
13_KOMPONENTER
 62
8
  6
HIDDEN
 10
226.612704918
 20
100.5688058198
 11
216.712704918
 21
100.5688058198
  0
LINE
  8
13_KOMPONENTER
 62
8
  6
HIDDEN
 10
216.212704918
 20
100.5688058198
 11
206.312704918
 21
100.5688058198
  0
LINE
  8
13_KOMPONENTER
 62
8
  6
HIDDEN
 10
205.812704918
 20
100.5688058198
 11
195.912704918
 21
100.5688058198
  0
LINE
  8
13_KOMPONENTER
 62
8
  6
HIDDEN
 10
195.412704918
 20
100.5688058198
 11
185.512704918
 21
100.5688058198
  0
LINE
  8
13_KOMPONENTER
 62
8
  6
HIDDEN
 10
185.012704918
 20
100.5688058198
 11
175.112704918
 21
100.5688058198
  0
LINE
  8
13_KOMPONENTER
 62
8
  6
HIDDEN
 10
174.612704918
 20
100.5688058198
 11
164.712704918
 21
100.5688058198
  0
LINE
  8
13_KOMPONENTER
 62
8
  6
HIDDEN
 10
160.012704918
 20
100.5688058198
 11
150.112704918
 21
100.5688058198
  0
LINE
  8
13_KOMPONENTER
 62
8
  6
HIDDEN
 10
149.612704918
 20
100.5688058198
 11
139.712704918
 21
100.5688058198
  0
LINE
  8
13_KOMPONENTER
 62
8
  6
HIDDEN
 10
139.212704918
 20
100.5688058198
 11
129.312704918
 21
100.5688058198
  0
LINE
  8
13_KOMPONENTER
 62
8
  6
HIDDEN
 10
128.812704918
 20
100.5688058198
 11
118.912704918
 21
100.5688058198
  0
LINE
  8
13_KOMPONENTER
 62
8
  6
HIDDEN
 10
118.412704918
 20
100.5688058198
 11
108.512704918
 21
100.5688058198
  0
LINE
  8
13_KOMPONENTER
 62
8
  6
HIDDEN
 10
108.012704918
 20
100.5688058198
 11
98.112704918
 21
100.5688058198
  0
LINE
  8
13_KOMPONENTER
 62
8
  6
HIDDEN
 10
97.612704918
 20
100.5688058198
 11
87.712704918
 21
100.5688058198
  0
LINE
  8
13_KOMPONENTER
 62
8
  6
HIDDEN
 10
87.212704918
 20
100.5688058198
 11
77.312704918
 21
100.5688058198
  0
LINE
  8
13_KOMPONENTER
 62
8
  6
HIDDEN
 10
76.812704918
 20
100.5688058198
 11
66.912704918
 21
100.5688058198
  0
LINE
  8
13_KOMPONENTER
 62
8
  6
HIDDEN
 10
66.412704918
 20
100.5688058198
 11
56.512704918
 21
100.5688058198
  0
LINE
  8
13_KOMPONENTER
 62
8
  6
HIDDEN
 10
56.012704918
 20
100.5688058198
 11
46.112704918
 21
100.5688058198
  0
LINE
  8
13_KOMPONENTER
 62
8
  6
HIDDEN
 10
164.812704918
 20
100.6188058198
 11
164.412704918
 21
100.6188058198
  0
LINE
  8
13_KOMPONENTER
 62
8
  6
HIDDEN
 10
162.5961994526
 20
101.0206311806
 11
158.6127603235
 21
101.0206311806
  0
LINE
  8
13_KOMPONENTER
 62
8
  6
HIDDEN
 10
158.6127603235
 20
101.2919807451
 11
162.5961994526
 21
101.2919807451
  0
LINE
  8
13_KOMPONENTER
 62
7
  6
CONTINUOUS
 10
160.362704918
 20
101.4688058198
 11
161.212704918
 21
101.4688058198
  0
LINE
  8
13_KOMPONENTER
 62
7
  6
CONTINUOUS
 10
163.512704918
 20
101.4688058198
 11
164.362704918
 21
101.4688058198
  0
LINE
  8
13_KOMPONENTER
 62
8
  6
HIDDEN
 10
161.2505875779
 20
101.7687909385
 11
160.9105720903
 21
101.7687909385
  0
LINE
  8
13_KOMPONENTER
 62
8
  6
HIDDEN
 10
160.73780875
 20
102.0607903481
 11
160.9120003497
 21
102.0607903481
  0
LINE
  8
13_KOMPONENTER
 62
7
  6
CONTINUOUS
 10
278.612704918
 20
102.8688058198
 11
268.712704918
 21
102.8688058198
  0
LINE
  8
13_KOMPONENTER
 62
7
  6
CONTINUOUS
 10
268.212704918
 20
102.8688058198
 11
258.312704918
 21
102.8688058198
  0
LINE
  8
13_KOMPONENTER
 62
7
  6
CONTINUOUS
 10
257.812704918
 20
102.8688058198
 11
247.912704918
 21
102.8688058198
  0
LINE
  8
13_KOMPONENTER
 62
7
  6
CONTINUOUS
 10
247.412704918
 20
102.8688058198
 11
237.512704918
 21
102.8688058198
  0
LINE
  8
13_KOMPONENTER
 62
7
  6
CONTINUOUS
 10
237.012704918
 20
102.8688058198
 11
227.112704918
 21
102.8688058198
  0
LINE
  8
13_KOMPONENTER
 62
7
  6
CONTINUOUS
 10
226.612704918
 20
102.8688058198
 11
216.712704918
 21
102.8688058198
  0
LINE
  8
13_KOMPONENTER
 62
7
  6
CONTINUOUS
 10
216.212704918
 20
102.8688058198
 11
206.312704918
 21
102.8688058198
  0
LINE
  8
13_KOMPONENTER
 62
7
  6
CONTINUOUS
 10
205.812704918
 20
102.8688058198
 11
195.912704918
 21
102.8688058198
  0
LINE
  8
13_KOMPONENTER
 62
7
  6
CONTINUOUS
 10
195.412704918
 20
102.8688058198
 11
185.512704918
 21
102.8688058198
  0
LINE
  8
13_KOMPONENTER
 62
7
  6
CONTINUOUS
 10
185.012704918
 20
102.8688058198
 11
175.112704918
 21
102.8688058198
  0
LINE
  8
13_KOMPONENTER
 62
7
  6
CONTINUOUS
 10
174.612704918
 20
102.8688058198
 11
164.712704918
 21
102.8688058198
  0
LINE
  8
13_KOMPONENTER
 62
7
  6
CONTINUOUS
 10
160.012704918
 20
102.8688058198
 11
150.112704918
 21
102.8688058198
  0
LINE
  8
13_KOMPONENTER
 62
7
  6
CONTINUOUS
 10
149.612704918
 20
102.8688058198
 11
139.712704918
 21
102.8688058198
  0
LINE
  8
13_KOMPONENTER
 62
7
  6
CONTINUOUS
 10
139.212704918
 20
102.8688058198
 11
129.312704918
 21
102.8688058198
  0
LINE
  8
13_KOMPONENTER
 62
7
  6
CONTINUOUS
 10
128.812704918
 20
102.8688058198
 11
118.912704918
 21
102.8688058198
  0
LINE
  8
13_KOMPONENTER
 62
7
  6
CONTINUOUS
 10
118.412704918
 20
102.8688058198
 11
108.512704918
 21
102.8688058198
  0
LINE
  8
13_KOMPONENTER
 62
7
  6
CONTINUOUS
 10
108.012704918
 20
102.8688058198
 11
98.112704918
 21
102.8688058198
  0
LINE
  8
13_KOMPONENTER
 62
7
  6
CONTINUOUS
 10
97.612704918
 20
102.8688058198
 11
87.712704918
 21
102.8688058198
  0
LINE
  8
13_KOMPONENTER
 62
7
  6
CONTINUOUS
 10
87.212704918
 20
102.8688058198
 11
77.312704918
 21
102.8688058198
  0
LINE
  8
13_KOMPONENTER
 62
7
  6
CONTINUOUS
 10
76.812704918
 20
102.8688058198
 11
66.912704918
 21
102.8688058198
  0
LINE
  8
13_KOMPONENTER
 62
7
  6
CONTINUOUS
 10
66.412704918
 20
102.8688058198
 11
56.512704918
 21
102.8688058198
  0
LINE
  8
13_KOMPONENTER
 62
7
  6
CONTINUOUS
 10
56.012704918
 20
102.8688058198
 11
46.112704918
 21
102.8688058198
  0
LINE
  8
13_KOMPONENTER
 62
8
  6
HIDDEN
 10
160.9120003497
 20
103.2856261154
 11
160.8253656019
 21
103.2856261154
  0
LINE
  8
13_KOMPONENTER
 62
8
  6
HIDDEN
 10
161.4247791777
 20
103.3497556868
 11
161.2505875779
 21
103.3497556868
  0
LINE
  8
13_KOMPONENTER
 62
8
  6
HIDDEN
 10
282.4076047414
 20
103.4588058198
 11
282.822704918
 21
103.4588058198
  0
LINE
  8
13_KOMPONENTER
 62
7
  6
CONTINUOUS
 10
282.322704918
 20
103.4588058198
 11
282.4076047414
 21
103.4588058198
  0
LINE
  8
13_KOMPONENTER
 62
7
  6
CONTINUOUS
 10
42.402704918
 20
103.4688058198
 11
42.3178050947
 21
103.4688058198
  0
LINE
  8
13_KOMPONENTER
 62
8
  6
HIDDEN
 10
42.3178050947
 20
103.4688058198
 11
41.902704918
 21
103.4688058198
  0
LINE
  8
13_KOMPONENTER
 62
8
  6
HIDDEN
 10
282.4076047414
 20
103.9588058198
 11
282.822704918
 21
103.9588058198
  0
LINE
  8
13_KOMPONENTER
 62
7
  6
CONTINUOUS
 10
282.322704918
 20
103.9588058198
 11
282.4076047414
 21
103.9588058198
  0
LINE
  8
13_KOMPONENTER
 62
7
  6
CONTINUOUS
 10
42.402704918
 20
103.9688058198
 11
42.3178050947
 21
103.9688058198
  0
LINE
  8
13_KOMPONENTER
 62
8
  6
HIDDEN
 10
42.3178050947
 20
103.9688058198
 11
41.902704918
 21
103.9688058198
  0
LINE
  8
13_KOMPONENTER
 62
8
  6
HIDDEN
 10
153.2918538544
 20
104.7504091062
 11
153.2682368359
 21
104.7504091062
  0
LINE
  8
13_KOMPONENTER
 62
8
  6
HIDDEN
 10
152.362704918
 20
104.7888058198
 11
150.997704918
 21
104.7888058198
  0
LINE
  8
13_KOMPONENTER
 62
7
  6
CONTINUOUS
 10
278.612704918
 20
105.0688058198
 11
268.712704918
 21
105.0688058198
  0
LINE
  8
13_KOMPONENTER
 62
7
  6
CONTINUOUS
 10
268.212704918
 20
105.0688058198
 11
258.312704918
 21
105.0688058198
  0
LINE
  8
13_KOMPONENTER
 62
7
  6
CONTINUOUS
 10
257.812704918
 20
105.0688058198
 11
247.912704918
 21
105.0688058198
  0
LINE
  8
13_KOMPONENTER
 62
7
  6
CONTINUOUS
 10
247.412704918
 20
105.0688058198
 11
237.512704918
 21
105.0688058198
  0
LINE
  8
13_KOMPONENTER
 62
7
  6
CONTINUOUS
 10
237.012704918
 20
105.0688058198
 11
227.112704918
 21
105.0688058198
  0
LINE
  8
13_KOMPONENTER
 62
7
  6
CONTINUOUS
 10
226.612704918
 20
105.0688058198
 11
216.712704918
 21
105.0688058198
  0
LINE
  8
13_KOMPONENTER
 62
7
  6
CONTINUOUS
 10
216.212704918
 20
105.0688058198
 11
206.312704918
 21
105.0688058198
  0
LINE
  8
13_KOMPONENTER
 62
7
  6
CONTINUOUS
 10
205.812704918
 20
105.0688058198
 11
195.912704918
 21
105.0688058198
  0
LINE
  8
13_KOMPONENTER
 62
7
  6
CONTINUOUS
 10
195.412704918
 20
105.0688058198
 11
185.512704918
 21
105.0688058198
  0
LINE
  8
13_KOMPONENTER
 62
7
  6
CONTINUOUS
 10
185.012704918
 20
105.0688058198
 11
175.112704918
 21
105.0688058198
  0
LINE
  8
13_KOMPONENTER
 62
7
  6
CONTINUOUS
 10
174.612704918
 20
105.0688058198
 11
164.712704918
 21
105.0688058198
  0
LINE
  8
13_KOMPONENTER
 62
7
  6
CONTINUOUS
 10
160.012704918
 20
105.0688058198
 11
150.112704918
 21
105.0688058198
  0
LINE
  8
13_KOMPONENTER
 62
7
  6
CONTINUOUS
 10
149.612704918
 20
105.0688058198
 11
139.712704918
 21
105.0688058198
  0
LINE
  8
13_KOMPONENTER
 62
7
  6
CONTINUOUS
 10
139.212704918
 20
105.0688058198
 11
129.312704918
 21
105.0688058198
  0
LINE
  8
13_KOMPONENTER
 62
7
  6
CONTINUOUS
 10
128.812704918
 20
105.0688058198
 11
118.912704918
 21
105.0688058198
  0
LINE
  8
13_KOMPONENTER
 62
7
  6
CONTINUOUS
 10
118.412704918
 20
105.0688058198
 11
108.512704918
 21
105.0688058198
  0
LINE
  8
13_KOMPONENTER
 62
7
  6
CONTINUOUS
 10
108.012704918
 20
105.0688058198
 11
98.112704918
 21
105.0688058198
  0
LINE
  8
13_KOMPONENTER
 62
7
  6
CONTINUOUS
 10
97.612704918
 20
105.0688058198
 11
87.712704918
 21
105.0688058198
  0
LINE
  8
13_KOMPONENTER
 62
7
  6
CONTINUOUS
 10
87.212704918
 20
105.0688058198
 11
77.312704918
 21
105.0688058198
  0
LINE
  8
13_KOMPONENTER
 62
7
  6
CONTINUOUS
 10
76.812704918
 20
105.0688058198
 11
66.912704918
 21
105.0688058198
  0
LINE
  8
13_KOMPONENTER
 62
7
  6
CONTINUOUS
 10
66.412704918
 20
105.0688058198
 11
56.512704918
 21
105.0688058198
  0
LINE
  8
13_KOMPONENTER
 62
7
  6
CONTINUOUS
 10
56.012704918
 20
105.0688058198
 11
46.112704918
 21
105.0688058198
  0
LINE
  8
13_KOMPONENTER
 62
8
  6
HIDDEN
 10
150.997704918
 20
105.2988058198
 11
152.362704918
 21
105.2988058198
  0
LINE
  8
13_KOMPONENTER
 62
8
  6
HIDDEN
 10
152.362704918
 20
105.4188058198
 11
151.582704918
 21
105.4188058198
  0
LINE
  8
13_KOMPONENTER
 62
8
  6
HIDDEN
 10
153.055683645
 20
105.4275089448
 11
153.0793006634
 21
105.4275089448
  0
LINE
  8
13_KOMPONENTER
 62
8
  6
HIDDEN
 10
153.362704918
 20
105.5967840255
 11
153.1383432096
 21
105.5967840255
  0
LINE
  8
13_KOMPONENTER
 62
8
  6
HIDDEN
 10
153.1383432096
 20
105.7025807391
 11
153.362704918
 21
105.7025807391
  0
LINE
  8
13_KOMPONENTER
 62
8
  6
HIDDEN
 10
151.552704918
 20
105.9288058198
 11
152.362704918
 21
105.9288058198
  0
LINE
  8
13_KOMPONENTER
 62
8
  6
HIDDEN
 10
153.0438751357
 20
106.0834494891
 11
152.9848325896
 21
106.0834494891
  0
LINE
  8
13_KOMPONENTER
 62
8
  6
HIDDEN
 10
153.362704918
 20
106.0834494891
 11
153.0911091726
 21
106.0834494891
  0
LINE
  8
13_KOMPONENTER
 62
8
  6
HIDDEN
 10
152.9848325896
 20
106.1892464448
 11
153.362704918
 21
106.1892464448
  0
LINE
  8
13_KOMPONENTER
 62
8
  6
HIDDEN
 10
153.362704918
 20
106.3585215255
 11
152.9848325896
 21
106.3585215255
  0
LINE
  8
13_KOMPONENTER
 62
8
  6
HIDDEN
 10
152.8667474642
 20
106.3585215255
 11
152.807704918
 21
106.3585215255
  0
LINE
  8
13_KOMPONENTER
 62
8
  6
HIDDEN
 10
152.807704918
 20
106.4643182391
 11
152.8667474642
 21
106.4643182391
  0
LINE
  8
13_KOMPONENTER
 62
8
  6
HIDDEN
 10
152.9848325896
 20
106.4643182391
 11
153.362704918
 21
106.4643182391
  0
LINE
  8
13_KOMPONENTER
 62
7
  6
CONTINUOUS
 10
160.362704918
 20
106.4688058198
 11
161.212704918
 21
106.4688058198
  0
LINE
  8
13_KOMPONENTER
 62
7
  6
CONTINUOUS
 10
163.512704918
 20
106.4688058198
 11
164.362704918
 21
106.4688058198
  0
LINE
  8
1_AXIS
 62
2
  6
CENTER
 10
299.2715163934
 20
106.6188058198
 11
164.362804918
 21
106.6188058198
  0
LINE
  8
1_AXIS
 62
2
  6
CONTINUOUS
 10
163.412704918
 20
106.6188058198
 11
161.312704918
 21
106.6188058198
  0
LINE
  8
13_KOMPONENTER
 62
8
  6
HIDDEN
 10
152.362704918
 20
106.6188058198
 11
151.702704918
 21
106.6188058198
  0
LINE
  8
13_KOMPONENTER
 62
8
  6
HIDDEN
 10
151.222704918
 20
106.6188058198
 11
150.982704918
 21
106.6188058198
  0
LINE
  8
1_AXIS
 62
2
  6
CENTER
 10
28.9395491803
 20
106.6188058198
 11
160.362604918
 21
106.6188058198
  0
LINE
  8
13_KOMPONENTER
 62
8
  6
HIDDEN
 10
160.3533364742
 20
106.6188058198
 11
162.5961994526
 21
106.6188058198
  0
LINE
  8
13_KOMPONENTER
 62
8
  6
HIDDEN
 10
153.2682368359
 20
106.6759121505
 11
153.0793006634
 21
106.6759121505
  0
LINE
  8
13_KOMPONENTER
 62
8
  6
HIDDEN
 10
153.1619602446
 20
106.7817088641
 11
153.2328113
 21
106.7817088641
  0
LINE
  8
13_KOMPONENTER
 62
8
  6
HIDDEN
 10
153.0793006634
 20
106.7817088641
 11
153.1147261911
 21
106.7817088641
  0
LINE
  8
13_KOMPONENTER
 62
8
  6
HIDDEN
 10
160.5715994329
 20
106.9548556565
 11
160.825924283
 21
106.9548556565
  0
LINE
  8
13_KOMPONENTER
 62
8
  6
HIDDEN
 10
161.1647238768
 20
106.9548556565
 11
161.6825121032
 21
106.9548556565
  0
LINE
  8
13_KOMPONENTER
 62
8
  6
HIDDEN
 10
162.1292103835
 20
106.9553274109
 11
162.362704918
 21
106.9553274109
  0
LINE
  8
13_KOMPONENTER
 62
8
  6
HIDDEN
 10
150.982704918
 20
107.1288058198
 11
152.362704918
 21
107.1288058198
  0
LINE
  8
13_KOMPONENTER
 62
8
  6
HIDDEN
 10
153.2682368359
 20
107.2048964448
 11
153.2446198092
 21
107.2048964448
  0
LINE
  8
13_KOMPONENTER
 62
8
  6
HIDDEN
 10
152.362704918
 20
107.2488058198
 11
150.982704918
 21
107.2488058198
  0
LINE
  8
13_KOMPONENTER
 62
8
  6
HIDDEN
 10
153.055683645
 20
107.3106932794
 11
153.0793006634
 21
107.3106932794
  0
LINE
  8
13_KOMPONENTER
 62
8
  6
HIDDEN
 10
153.2210027907
 20
107.3106932794
 11
153.2564283184
 21
107.3106932794
  0
LINE
  8
13_KOMPONENTER
 62
8
  6
HIDDEN
 10
278.612704918
 20
107.3688058198
 11
268.712704918
 21
107.3688058198
  0
LINE
  8
13_KOMPONENTER
 62
8
  6
HIDDEN
 10
268.212704918
 20
107.3688058198
 11
258.312704918
 21
107.3688058198
  0
LINE
  8
13_KOMPONENTER
 62
8
  6
HIDDEN
 10
257.812704918
 20
107.3688058198
 11
247.912704918
 21
107.3688058198
  0
LINE
  8
13_KOMPONENTER
 62
8
  6
HIDDEN
 10
247.412704918
 20
107.3688058198
 11
237.512704918
 21
107.3688058198
  0
LINE
  8
13_KOMPONENTER
 62
8
  6
HIDDEN
 10
237.012704918
 20
107.3688058198
 11
227.112704918
 21
107.3688058198
  0
LINE
  8
13_KOMPONENTER
 62
8
  6
HIDDEN
 10
226.612704918
 20
107.3688058198
 11
216.712704918
 21
107.3688058198
  0
LINE
  8
13_KOMPONENTER
 62
8
  6
HIDDEN
 10
216.212704918
 20
107.3688058198
 11
206.312704918
 21
107.3688058198
  0
LINE
  8
13_KOMPONENTER
 62
8
  6
HIDDEN
 10
205.812704918
 20
107.3688058198
 11
195.912704918
 21
107.3688058198
  0
LINE
  8
13_KOMPONENTER
 62
8
  6
HIDDEN
 10
195.412704918
 20
107.3688058198
 11
185.512704918
 21
107.3688058198
  0
LINE
  8
13_KOMPONENTER
 62
8
  6
HIDDEN
 10
185.012704918
 20
107.3688058198
 11
175.112704918
 21
107.3688058198
  0
LINE
  8
13_KOMPONENTER
 62
8
  6
HIDDEN
 10
174.612704918
 20
107.3688058198
 11
164.712704918
 21
107.3688058198
  0
LINE
  8
13_KOMPONENTER
 62
8
  6
HIDDEN
 10
160.012704918
 20
107.3688058198
 11
150.112704918
 21
107.3688058198
  0
LINE
  8
13_KOMPONENTER
 62
8
  6
HIDDEN
 10
149.612704918
 20
107.3688058198
 11
139.712704918
 21
107.3688058198
  0
LINE
  8
13_KOMPONENTER
 62
8
  6
HIDDEN
 10
139.212704918
 20
107.3688058198
 11
129.312704918
 21
107.3688058198
  0
LINE
  8
13_KOMPONENTER
 62
8
  6
HIDDEN
 10
128.812704918
 20
107.3688058198
 11
118.912704918
 21
107.3688058198
  0
LINE
  8
13_KOMPONENTER
 62
8
  6
HIDDEN
 10
118.412704918
 20
107.3688058198
 11
108.512704918
 21
107.3688058198
  0
LINE
  8
13_KOMPONENTER
 62
8
  6
HIDDEN
 10
108.012704918
 20
107.3688058198
 11
98.112704918
 21
107.3688058198
  0
LINE
  8
13_KOMPONENTER
 62
8
  6
HIDDEN
 10
97.612704918
 20
107.3688058198
 11
87.712704918
 21
107.3688058198
  0
LINE
  8
13_KOMPONENTER
 62
8
  6
HIDDEN
 10
87.212704918
 20
107.3688058198
 11
77.312704918
 21
107.3688058198
  0
LINE
  8
13_KOMPONENTER
 62
8
  6
HIDDEN
 10
76.812704918
 20
107.3688058198
 11
66.912704918
 21
107.3688058198
  0
LINE
  8
13_KOMPONENTER
 62
8
  6
HIDDEN
 10
66.412704918
 20
107.3688058198
 11
56.512704918
 21
107.3688058198
  0
LINE
  8
13_KOMPONENTER
 62
8
  6
HIDDEN
 10
56.012704918
 20
107.3688058198
 11
46.112704918
 21
107.3688058198
  0
LINE
  8
13_KOMPONENTER
 62
8
  6
HIDDEN
 10
280.157704918
 20
107.4688058198
 11
164.462704918
 21
107.4688058198
  0
LINE
  8
13_KOMPONENTER
 62
7
  6
CONTINUOUS
 10
164.462704918
 20
107.4688058198
 11
164.362704918
 21
107.4688058198
  0
LINE
  8
13_KOMPONENTER
 62
8
  6
HIDDEN
 10
164.362704918
 20
107.4688058198
 11
160.362704918
 21
107.4688058198
  0
LINE
  8
13_KOMPONENTER
 62
7
  6
CONTINUOUS
 10
160.362704918
 20
107.4688058198
 11
160.262704918
 21
107.4688058198
  0
LINE
  8
13_KOMPONENTER
 62
8
  6
HIDDEN
 10
160.262704918
 20
107.4688058198
 11
44.567704918
 21
107.4688058198
  0
LINE
  8
13_KOMPONENTER
 62
8
  6
HIDDEN
 10
153.362704918
 20
107.4799683602
 11
153.1265347003
 21
107.4799683602
  0
LINE
  8
13_KOMPONENTER
 62
8
  6
HIDDEN
 10
153.1265347003
 20
107.5857651948
 11
153.362704918
 21
107.5857651948
  0
LINE
  8
13_KOMPONENTER
 62
8
  6
HIDDEN
 10
279.072704918
 20
107.6782722565
 11
281.772704918
 21
107.6782722565
  0
LINE
  8
13_KOMPONENTER
 62
8
  6
HIDDEN
 10
45.652704918
 20
107.6882722565
 11
42.952704918
 21
107.6882722565
  0
LINE
  8
13_KOMPONENTER
 62
8
  6
HIDDEN
 10
150.982704918
 20
107.7588058198
 11
151.642704918
 21
107.7588058198
  0
LINE
  8
13_KOMPONENTER
 62
8
  6
HIDDEN
 10
152.122704918
 20
107.7588058198
 11
152.362704918
 21
107.7588058198
  0
LINE
  8
13_KOMPONENTER
 62
8
  6
HIDDEN
 10
161.2508616511
 20
103.6360008789
 11
161.7616164681
 21
103.5773024959
  0
LINE
  8
13_KOMPONENTER
 62
8
  6
HIDDEN
 10
208.762704918
 20
96.4211562598
 11
209.762704918
 21
96.3028921428
  0
LINE
  8
13_KOMPONENTER
 62
8
  6
HIDDEN
 10
160.9105720903
 20
101.7687909385
 11
160.570128332
 21
101.8271137619
  0
LINE
  8
13_KOMPONENTER
 62
8
  6
HIDDEN
 10
161.6809756687
 20
103.2944237425
 11
161.4247791777
 21
103.3497556868
  0
LINE
  8
13_KOMPONENTER
 62
8
  6
HIDDEN
 10
162.362704918
 20
106.9553274109
 11
162.5961994526
 21
106.8901553843
  0
LINE
  8
13_KOMPONENTER
 62
8
  6
HIDDEN
 10
153.1737687538
 20
108.9188058198
 11
153.2446198092
 21
108.8976464442
  0
LINE
  8
13_KOMPONENTER
 62
8
  6
HIDDEN
 10
159.8858020674
 20
106.0812313005
 11
162.5961994526
 21
105.2646943582
  0
LINE
  8
13_KOMPONENTER
 62
8
  6
HIDDEN
 10
162.0170470298
 20
105.093805845
 11
159.8858020674
 21
105.7394541513
  0
LINE
  8
13_KOMPONENTER
 62
8
  6
HIDDEN
 10
161.8600589223
 20
103.2359820692
 11
161.6809756687
 21
103.2944237425
  0
LINE
  8
13_KOMPONENTER
 62
8
  6
HIDDEN
 10
161.7616164681
 20
103.5773024959
 11
162.1020434988
 21
103.4605334067
  0
LINE
  8
13_KOMPONENTER
 62
8
  6
HIDDEN
 10
160.4010331706
 20
107.0142742746
 11
160.5715994329
 21
106.9548556565
  0
LINE
  8
13_KOMPONENTER
 62
8
  6
HIDDEN
 10
153.1383432096
 20
105.5967840255
 11
153.0793006634
 21
105.6179433198
  0
LINE
  8
13_KOMPONENTER
 62
8
  6
HIDDEN
 10
153.0793006634
 20
105.7237402755
 11
153.1383432096
 21
105.7025807391
  0
LINE
  8
13_KOMPONENTER
 62
8
  6
HIDDEN
 10
153.3272793862
 20
106.6547526141
 11
153.2682368359
 21
106.6759121505
  0
LINE
  8
13_KOMPONENTER
 62
8
  6
HIDDEN
 10
153.1265347003
 20
107.4799683602
 11
153.0674921542
 21
107.5011276544
  0
LINE
  8
13_KOMPONENTER
 62
8
  6
HIDDEN
 10
153.2564283184
 20
107.3106932794
 11
153.3036623636
 21
107.2895339852
  0
LINE
  8
13_KOMPONENTER
 62
8
  6
HIDDEN
 10
153.0793006634
 20
107.6069246102
 11
153.1265347003
 21
107.5857651948
  0
LINE
  8
13_KOMPONENTER
 62
8
  6
HIDDEN
 10
153.1029176819
 20
108.2417057996
 11
153.055683645
 21
108.262865215
  0
LINE
  8
13_KOMPONENTER
 62
8
  6
HIDDEN
 10
160.4848544453
 20
102.1766002552
 11
160.73780875
 21
102.0607903481
  0
LINE
  8
13_KOMPONENTER
 62
8
  6
HIDDEN
 10
160.570128332
 20
101.8271137619
 11
160.2296496532
 21
102.0021025108
  0
LINE
  8
13_KOMPONENTER
 62
8
  6
HIDDEN
 10
153.0793006634
 20
105.6179433198
 11
153.0438751357
 21
105.6391026141
  0
LINE
  8
13_KOMPONENTER
 62
8
  6
HIDDEN
 10
153.0793006634
 20
106.6759121505
 11
153.0438751357
 21
106.6970714448
  0
LINE
  8
13_KOMPONENTER
 62
8
  6
HIDDEN
 10
153.362704918
 20
106.6335933198
 11
153.3272793862
 21
106.6547526141
  0
LINE
  8
13_KOMPONENTER
 62
8
  6
HIDDEN
 10
153.3036623636
 20
106.7817088641
 11
153.3390878975
 21
106.7605495698
  0
LINE
  8
13_KOMPONENTER
 62
8
  6
HIDDEN
 10
153.0674921542
 20
108.3686620496
 11
153.1029176819
 21
108.3475026948
  0
LINE
  8
13_KOMPONENTER
 62
8
  6
HIDDEN
 10
162.1368991706
 20
103.0626304098
 11
161.8600589223
 21
103.2359820692
  0
LINE
  8
13_KOMPONENTER
 62
8
  6
HIDDEN
 10
162.1020434988
 20
103.4605334067
 11
162.362704918
 21
103.281813407
  0
LINE
  8
13_KOMPONENTER
 62
8
  6
HIDDEN
 10
153.2564283184
 20
108.7706901998
 11
153.1973857723
 21
108.8130089473
  0
LINE
  8
13_KOMPONENTER
 62
8
  6
HIDDEN
 10
160.3533364742
 20
106.6188058198
 11
160.1277974415
 21
106.8020184852
  0
LINE
  8
13_KOMPONENTER
 62
8
  6
HIDDEN
 10
153.2682368359
 20
104.7504091062
 11
153.2210027907
 21
104.7927276948
  0
LINE
  8
13_KOMPONENTER
 62
8
  6
HIDDEN
 10
153.2446198092
 20
104.8773651141
 11
153.2682368359
 21
104.8562058198
  0
LINE
  8
13_KOMPONENTER
 62
8
  6
HIDDEN
 10
153.1029176819
 20
105.3005526948
 11
153.0793006634
 21
105.3217119891
  0
LINE
  8
13_KOMPONENTER
 62
8
  6
HIDDEN
 10
153.0793006634
 20
105.4275089448
 11
153.1265347003
 21
105.3851901141
  0
LINE
  8
13_KOMPONENTER
 62
8
  6
HIDDEN
 10
153.2918538544
 20
105.3005526948
 11
153.2682368359
 21
105.3217119891
  0
LINE
  8
13_KOMPONENTER
 62
8
  6
HIDDEN
 10
153.2682368359
 20
105.4275089448
 11
153.315470877
 21
105.3851901141
  0
LINE
  8
13_KOMPONENTER
 62
8
  6
HIDDEN
 10
153.055683645
 20
106.8028684005
 11
153.0793006634
 21
106.7817088641
  0
LINE
  8
13_KOMPONENTER
 62
8
  6
HIDDEN
 10
153.3390878975
 20
106.7605495698
 11
153.362704918
 21
106.7393902755
  0
LINE
  8
13_KOMPONENTER
 62
8
  6
HIDDEN
 10
153.2918538544
 20
107.1837370294
 11
153.2682368359
 21
107.2048964448
  0
LINE
  8
13_KOMPONENTER
 62
8
  6
HIDDEN
 10
153.0674921542
 20
107.5011276544
 11
153.0438751357
 21
107.5222870698
  0
LINE
  8
13_KOMPONENTER
 62
8
  6
HIDDEN
 10
153.2446198092
 20
108.8976464442
 11
153.2918538544
 21
108.8553276948
  0
LINE
  8
13_KOMPONENTER
 62
8
  6
HIDDEN
 10
139.212704918
 20
119.3688058198
 11
139.462704918
 21
119.1188058198
  0
LINE
  8
13_KOMPONENTER
 62
8
  6
HIDDEN
 10
150.112704918
 20
112.5688058198
 11
149.862704918
 21
112.8188058198
  0
LINE
  8
13_KOMPONENTER
 62
8
  6
HIDDEN
 10
139.712704918
 20
124.5688058198
 11
139.462704918
 21
124.8188058198
  0
LINE
  8
13_KOMPONENTER
 62
8
  6
HIDDEN
 10
164.712704918
 20
100.5688058198
 11
164.462704918
 21
100.8188058198
  0
LINE
  8
13_KOMPONENTER
 62
8
  6
HIDDEN
 10
160.012704918
 20
107.3688058198
 11
160.262704918
 21
107.1188058198
  0
LINE
  8
13_KOMPONENTER
 62
8
  6
HIDDEN
 10
149.612704918
 20
119.3688058198
 11
149.862704918
 21
119.1188058198
  0
LINE
  8
13_KOMPONENTER
 62
8
  6
HIDDEN
 10
174.612704918
 20
95.3688058198
 11
174.862704918
 21
95.1188058198
  0
LINE
  8
13_KOMPONENTER
 62
8
  6
HIDDEN
 10
147.9626140462
 20
120.8687991438
 11
148.9626213745
 21
119.8688058192
  0
LINE
  8
13_KOMPONENTER
 62
8
  6
HIDDEN
 10
160.3143462898
 20
102.3519480182
 11
160.4848544453
 21
102.1766002552
  0
POLYLINE
  8
13_KOMPONENTER
 62
8
  6
HIDDEN
 66
1
 70
0
  0
VERTEX
  8
13_KOMPONENTER
 62
8
  6
HIDDEN
 10
148.2235219252
 20
117.1909883605
  0
VERTEX
  8
13_KOMPONENTER
 62
8
  6
HIDDEN
 10
148.5435958967
 20
116.8538623733
  0
VERTEX
  8
13_KOMPONENTER
 62
8
  6
HIDDEN
 10
148.9722571178
 20
116.4131709012
  0
SEQEND
  0
LINE
  8
13_KOMPONENTER
 62
8
  6
HIDDEN
 10
160.1277974415
 20
106.8020184852
 11
159.963267303
 21
106.9884679604
  0
LINE
  8
13_KOMPONENTER
 62
8
  6
HIDDEN
 10
160.2296496532
 20
102.0021025108
 11
159.9741839286
 21
102.2938181989
  0
LINE
  8
13_KOMPONENTER
 62
8
  6
HIDDEN
 10
162.362704918
 20
107.8288624574
 11
162.1492114634
 21
108.0747452697
  0
LINE
  8
13_KOMPONENTER
 62
8
  6
HIDDEN
 10
162.2384219908
 20
102.9336212458
 11
162.1368991706
 21
103.0626304098
  0
LINE
  8
13_KOMPONENTER
 62
8
  6
HIDDEN
 10
162.362704918
 20
108.2295276513
 11
162.5081940606
 21
108.0422786318
  0
LINE
  8
13_KOMPONENTER
 62
8
  6
HIDDEN
 10
160.3141715871
 20
107.1339411958
 11
160.4010331706
 21
107.0142742746
  0
POLYLINE
  8
13_KOMPONENTER
 62
8
  6
HIDDEN
 66
1
 70
0
  0
VERTEX
  8
13_KOMPONENTER
 62
8
  6
HIDDEN
 10
148.2235219252
 20
117.1909883605
  0
VERTEX
  8
13_KOMPONENTER
 62
8
  6
HIDDEN
 10
148.0366707499
 20
117.4808105561
  0
VERTEX
  8
13_KOMPONENTER
 62
8
  6
HIDDEN
 10
147.962704918
 20
117.8486804296
  0
SEQEND
  0
LINE
  8
13_KOMPONENTER
 62
8
  6
HIDDEN
 10
153.055683645
 20
108.262865215
 11
153.0202581173
 21
108.32634334
  0
LINE
  8
13_KOMPONENTER
 62
8
  6
HIDDEN
 10
153.2918538544
 20
108.7072120748
 11
153.2564283184
 21
108.7706901998
  0
LINE
  8
13_KOMPONENTER
 62
8
  6
HIDDEN
 10
153.2918538544
 20
108.8553276948
 11
153.315470877
 21
108.8130089473
  0
LINE
  8
13_KOMPONENTER
 62
8
  6
HIDDEN
 10
162.362704918
 20
103.251606266
 11
162.5068150237
 21
102.9784016623
  0
LINE
  8
13_KOMPONENTER
 62
8
  6
HIDDEN
 10
162.362704918
 20
102.6788187022
 11
162.2384219908
 21
102.9336212458
  0
LINE
  8
13_KOMPONENTER
 62
8
  6
HIDDEN
 10
162.5081940606
 20
108.0422786318
 11
162.5961994526
 21
107.8236403732
  0
LINE
  8
13_KOMPONENTER
 62
8
  6
HIDDEN
 10
160.2258198449
 20
107.378327132
 11
160.3141715871
 21
107.1339411958
  0
LINE
  8
13_KOMPONENTER
 62
8
  6
HIDDEN
 10
162.5068150237
 20
102.9784016623
 11
162.601055888
 21
102.6363670341
  0
LINE
  8
13_KOMPONENTER
 62
8
  6
HIDDEN
 10
160.2297867844
 20
102.698891712
 11
160.3143462898
 21
102.3519480182
  0
LINE
  8
13_KOMPONENTER
 62
8
  6
HIDDEN
 10
159.9741839286
 20
102.2938181989
 11
159.8891349944
 21
102.6428923253
  0
LINE
  8
13_KOMPONENTER
 62
8
  6
HIDDEN
 10
159.963267303
 20
106.9884679604
 11
159.8858020674
 21
107.3693239341
  0
LINE
  8
13_KOMPONENTER
 62
7
  6
CONTINUOUS
 10
164.362704918
 20
125.4688058198
 11
164.362704918
 21
118.4688058198
  0
LINE
  8
13_KOMPONENTER
 62
7
  6
CONTINUOUS
 10
164.362704918
 20
113.4688058198
 11
164.362704918
 21
106.4688058198
  0
LINE
  8
13_KOMPONENTER
 62
7
  6
CONTINUOUS
 10
164.362704918
 20
101.4688058198
 11
164.362704918
 21
94.4688058198
  0
LINE
  8
13_KOMPONENTER
 62
8
  6
HIDDEN
 10
164.412704918
 20
100.6188058198
 11
164.412704918
 21
109.0188058198
  0
LINE
  8
13_KOMPONENTER
 62
7
  6
CONTINUOUS
 10
164.462704918
 20
93.3188058198
 11
164.462704918
 21
102.6188058198
  0
LINE
  8
13_KOMPONENTER
 62
7
  6
CONTINUOUS
 10
164.462704918
 20
105.3188058198
 11
164.462704918
 21
114.6188058198
  0
LINE
  8
13_KOMPONENTER
 62
7
  6
CONTINUOUS
 10
164.462704918
 20
117.3188058198
 11
164.462704918
 21
126.6188058198
  0
LINE
  8
13_KOMPONENTER
 62
8
  6
HIDDEN
 10
164.712704918
 20
124.5688058198
 11
164.712704918
 21
119.3688058198
  0
LINE
  8
13_KOMPONENTER
 62
8
  6
HIDDEN
 10
164.712704918
 20
112.5688058198
 11
164.712704918
 21
107.3688058198
  0
LINE
  8
13_KOMPONENTER
 62
8
  6
HIDDEN
 10
164.712704918
 20
100.5688058198
 11
164.712704918
 21
95.3688058198
  0
LINE
  8
13_KOMPONENTER
 62
8
  6
HIDDEN
 10
164.812704918
 20
109.0188058198
 11
164.812704918
 21
100.6188058198
  0
LINE
  8
13_KOMPONENTER
 62
8
  6
HIDDEN
 10
165.112704918
 20
125.4688058198
 11
165.112704918
 21
117.0688058198
  0
LINE
  8
13_KOMPONENTER
 62
7
  6
CONTINUOUS
 10
165.112704918
 20
117.0688058198
 11
165.112704918
 21
114.8688058198
  0
LINE
  8
13_KOMPONENTER
 62
8
  6
HIDDEN
 10
165.112704918
 20
114.8688058198
 11
165.112704918
 21
105.0688058198
  0
LINE
  8
13_KOMPONENTER
 62
7
  6
CONTINUOUS
 10
165.112704918
 20
105.0688058198
 11
165.112704918
 21
102.8688058198
  0
LINE
  8
13_KOMPONENTER
 62
8
  6
HIDDEN
 10
165.112704918
 20
102.8688058198
 11
165.112704918
 21
94.4688058198
  0
LINE
  8
13_KOMPONENTER
 62
8
  6
HIDDEN
 10
165.362704918
 20
132.1688058198
 11
165.362704918
 21
131.9188058198
  0
LINE
  8
13_KOMPONENTER
 62
8
  6
HIDDEN
 10
165.362704918
 20
127.1188058198
 11
165.362704918
 21
128.6188058199
  0
LINE
  8
13_KOMPONENTER
 62
8
  6
HIDDEN
 10
162.2372677062
 20
102.3000222902
 11
162.362704918
 21
102.6788187022
  0
POLYLINE
  8
13_KOMPONENTER
 62
8
  6
HIDDEN
 66
1
 70
0
  0
VERTEX
  8
13_KOMPONENTER
 62
8
  6
HIDDEN
 10
176.5018879109
 20
117.1909883605
  0
VERTEX
  8
13_KOMPONENTER
 62
8
  6
HIDDEN
 10
176.6887390862
 20
117.4808105561
  0
VERTEX
  8
13_KOMPONENTER
 62
8
  6
HIDDEN
 10
176.762704918
 20
117.8486804296
  0
SEQEND
  0
LINE
  8
13_KOMPONENTER
 62
8
  6
HIDDEN
 10
162.5238268699
 20
102.2328621302
 11
162.362704918
 21
102.0078845318
  0
POLYLINE
  8
13_KOMPONENTER
 62
8
  6
HIDDEN
 66
1
 70
0
  0
VERTEX
  8
13_KOMPONENTER
 62
8
  6
HIDDEN
 10
176.5018879109
 20
117.1909883605
  0
VERTEX
  8
13_KOMPONENTER
 62
8
  6
HIDDEN
 10
176.1818139394
 20
116.8538623733
  0
VERTEX
  8
13_KOMPONENTER
 62
8
  6
HIDDEN
 10
175.7531527182
 20
116.4131709012
  0
SEQEND
  0
LINE
  8
13_KOMPONENTER
 62
8
  6
HIDDEN
 10
160.012704918
 20
100.5688058198
 11
160.262704918
 21
100.8188058198
  0
LINE
  8
13_KOMPONENTER
 62
8
  6
HIDDEN
 10
185.012704918
 20
124.5688058198
 11
185.262704918
 21
124.8188058198
  0
LINE
  8
13_KOMPONENTER
 62
8
  6
HIDDEN
 10
174.612704918
 20
112.5688058198
 11
174.862704918
 21
112.8188058198
  0
LINE
  8
13_KOMPONENTER
 62
8
  6
HIDDEN
 10
185.512704918
 20
119.3688058198
 11
185.262704918
 21
119.1188058198
  0
LINE
  8
13_KOMPONENTER
 62
8
  6
HIDDEN
 10
175.112704918
 20
107.3688058198
 11
174.862704918
 21
107.1188058198
  0
LINE
  8
13_KOMPONENTER
 62
8
  6
HIDDEN
 10
164.712704918
 20
95.3688058198
 11
164.462704918
 21
95.1188058198
  0
LINE
  8
13_KOMPONENTER
 62
8
  6
HIDDEN
 10
162.037072987
 20
102.1052117028
 11
162.2372677062
 21
102.3000222902
  0
LINE
  8
13_KOMPONENTER
 62
8
  6
HIDDEN
 10
160.2291002135
 20
103.3428837377
 11
160.4028901099
 21
103.4623129821
  0
LINE
  8
13_KOMPONENTER
 62
8
  6
HIDDEN
 10
160.6550446355
 20
103.2272970441
 11
160.3993871054
 21
103.0523092995
  0
LINE
  8
13_KOMPONENTER
 62
8
  6
HIDDEN
 10
162.362704918
 20
102.0078845318
 11
162.1021052691
 21
101.8298081365
  0
LINE
  8
13_KOMPONENTER
 62
8
  6
HIDDEN
 10
160.4028901099
 20
103.4623129821
 11
160.739703463
 21
103.5784871037
  0
LINE
  8
13_KOMPONENTER
 62
8
  6
HIDDEN
 10
160.8253656019
 20
103.2856261154
 11
160.6550446355
 21
103.2272970441
  0
LINE
  8
13_KOMPONENTER
 62
8
  6
HIDDEN
 10
159.8858020674
 20
104.4481574464
 11
162.0170470298
 21
105.093805845
  0
LINE
  8
13_KOMPONENTER
 62
8
  6
HIDDEN
 10
162.5961994526
 20
104.922917209
 11
159.8858020674
 21
104.1063802971
  0
LINE
  8
13_KOMPONENTER
 62
8
  6
HIDDEN
 10
240.963704918
 20
128.1081675828
 11
240.6303716642
 21
128.02306121
  0
LINE
  8
13_KOMPONENTER
 62
8
  6
HIDDEN
 10
161.7680745619
 20
108.1391047095
 11
161.5051175774
 21
108.0747381516
  0
LINE
  8
13_KOMPONENTER
 62
8
  6
HIDDEN
 10
242.0470382315
 20
124.7039122001
 11
241.630371545
 21
124.6188058198
  0
LINE
  8
13_KOMPONENTER
 62
8
  6
HIDDEN
 10
238.0470384103
 20
124.7039122001
 11
237.6303714258
 21
124.6188058198
  0
LINE
  8
13_KOMPONENTER
 62
8
  6
HIDDEN
 10
240.5470381719
 20
128.533699447
 11
240.963704918
 21
128.6188058198
  0
POLYLINE
  8
13_KOMPONENTER
 62
8
  6
HIDDEN
 66
1
 70
0
  0
VERTEX
  8
13_KOMPONENTER
 62
8
  6
HIDDEN
 10
229.6673122266
 20
119.168805823
  0
VERTEX
  8
13_KOMPONENTER
 62
8
  6
HIDDEN
 10
229.9235153673
 20
119.2041489953
  0
VERTEX
  8
13_KOMPONENTER
 62
8
  6
HIDDEN
 10
230.2356108945
 20
119.3585362046
  0
VERTEX
  8
13_KOMPONENTER
 62
8
  6
HIDDEN
 10
230.365023611
 20
119.4760409566
  0
VERTEX
  8
13_KOMPONENTER
 62
8
  6
HIDDEN
 10
230.5486228517
 20
119.7716743759
  0
VERTEX
  8
13_KOMPONENTER
 62
8
  6
HIDDEN
 10
230.612704918
 20
120.1136153997
  0
SEQEND
  0
LINE
  8
13_KOMPONENTER
 62
8
  6
HIDDEN
 10
160.362704918
 20
107.8688058198
 11
164.362704918
 21
107.8688058198
  0
LINE
  8
13_KOMPONENTER
 62
8
  6
HIDDEN
 10
153.362704918
 20
107.9666339448
 11
153.0911091726
 21
107.9666339448
  0
LINE
  8
13_KOMPONENTER
 62
8
  6
HIDDEN
 10
153.0438751357
 20
107.9666339448
 11
152.807704918
 21
107.9666339448
  0
LINE
  8
13_KOMPONENTER
 62
8
  6
HIDDEN
 10
152.807704918
 20
108.07243084
 11
153.362704918
 21
108.07243084
  0
LINE
  8
13_KOMPONENTER
 62
8
  6
HIDDEN
 10
161.9422661617
 20
108.1391047095
 11
161.7680745619
 21
108.1391047095
  0
LINE
  8
13_KOMPONENTER
 62
8
  6
HIDDEN
 10
160.3987412264
 20
108.4127189117
 11
160.5729328261
 21
108.4127189117
  0
LINE
  8
13_KOMPONENTER
 62
8
  6
HIDDEN
 10
161.5913809296
 20
108.4127189117
 11
161.8457057797
 21
108.4127189117
  0
LINE
  8
13_KOMPONENTER
 62
8
  6
HIDDEN
 10
151.792704918
 20
108.4488058198
 11
150.982704918
 21
108.4488058198
  0
LINE
  8
13_KOMPONENTER
 62
8
  6
HIDDEN
 10
153.1973857723
 20
108.8130089473
 11
153.1619602446
 21
108.8130089473
  0
LINE
  8
13_KOMPONENTER
 62
8
  6
HIDDEN
 10
279.072704918
 20
108.8185390382
 11
281.772704918
 21
108.8185390382
  0
LINE
  8
13_KOMPONENTER
 62
8
  6
HIDDEN
 10
45.652704918
 20
108.8285390382
 11
42.952704918
 21
108.8285390382
  0
LINE
  8
13_KOMPONENTER
 62
8
  6
HIDDEN
 10
160.314491403
 20
108.886098987
 11
159.8890703498
 21
108.886098987
  0
LINE
  8
13_KOMPONENTER
 62
8
  6
HIDDEN
 10
150.982704918
 20
108.9588058198
 11
151.762704918
 21
108.9588058198
  0
LINE
  8
13_KOMPONENTER
 62
8
  6
HIDDEN
 10
166.112704918
 20
109.0188058198
 11
164.812704918
 21
109.0188058198
  0
LINE
  8
13_KOMPONENTER
 62
8
  6
HIDDEN
 10
164.412704918
 20
109.0188058198
 11
163.112704918
 21
109.0188058198
  0
LINE
  8
13_KOMPONENTER
 62
8
  6
HIDDEN
 10
162.5961994526
 20
109.6488994359
 11
160.9123163262
 21
109.6488994359
  0
LINE
  8
13_KOMPONENTER
 62
8
  6
HIDDEN
 10
160.4035902938
 20
109.6488994359
 11
159.8858020674
 21
109.6488994359
  0
LINE
  8
13_KOMPONENTER
 62
8
  6
HIDDEN
 10
159.8858020674
 20
109.9202490004
 11
162.5961994526
 21
109.9202490004
  0
LINE
  8
13_KOMPONENTER
 62
8
  6
HIDDEN
 10
159.0381813767
 20
110.4021391213
 11
158.6127603235
 21
110.4021391213
  0
LINE
  8
13_KOMPONENTER
 62
8
  6
HIDDEN
 10
279.072704918
 20
111.0990726015
 11
281.772704918
 21
111.0990726015
  0
LINE
  8
13_KOMPONENTER
 62
8
  6
HIDDEN
 10
45.652704918
 20
111.1090726015
 11
42.952704918
 21
111.1090726015
  0
LINE
  8
13_KOMPONENTER
 62
8
  6
HIDDEN
 10
162.5961994526
 20
111.3395838959
 11
159.0381813767
 21
111.3395838959
  0
LINE
  8
13_KOMPONENTER
 62
8
  6
HIDDEN
 10
159.0381813767
 20
111.6813610452
 11
162.5961994526
 21
111.6813610452
  0
LINE
  8
13_KOMPONENTER
 62
8
  6
HIDDEN
 10
164.362704918
 20
112.0688058198
 11
160.362704918
 21
112.0688058198
  0
LINE
  8
13_KOMPONENTER
 62
8
  6
HIDDEN
 10
279.072704918
 20
112.2393393831
 11
281.772704918
 21
112.2393393831
  0
LINE
  8
13_KOMPONENTER
 62
8
  6
HIDDEN
 10
45.652704918
 20
112.2493393831
 11
42.952704918
 21
112.2493393831
  0
LINE
  8
13_KOMPONENTER
 62
8
  6
HIDDEN
 10
280.157704918
 20
112.4688058198
 11
164.462704918
 21
112.4688058198
  0
LINE
  8
13_KOMPONENTER
 62
7
  6
CONTINUOUS
 10
164.462704918
 20
112.4688058198
 11
164.362704918
 21
112.4688058198
  0
LINE
  8
13_KOMPONENTER
 62
8
  6
HIDDEN
 10
164.362704918
 20
112.4688058198
 11
160.362704918
 21
112.4688058198
  0
LINE
  8
13_KOMPONENTER
 62
7
  6
CONTINUOUS
 10
160.362704918
 20
112.4688058198
 11
160.262704918
 21
112.4688058198
  0
LINE
  8
13_KOMPONENTER
 62
8
  6
HIDDEN
 10
160.262704918
 20
112.4688058198
 11
44.567704918
 21
112.4688058198
  0
LINE
  8
13_KOMPONENTER
 62
8
  6
HIDDEN
 10
278.612704918
 20
112.5688058198
 11
268.712704918
 21
112.5688058198
  0
LINE
  8
13_KOMPONENTER
 62
8
  6
HIDDEN
 10
268.212704918
 20
112.5688058198
 11
258.312704918
 21
112.5688058198
  0
LINE
  8
13_KOMPONENTER
 62
8
  6
HIDDEN
 10
257.812704918
 20
112.5688058198
 11
247.912704918
 21
112.5688058198
  0
LINE
  8
13_KOMPONENTER
 62
8
  6
HIDDEN
 10
247.412704918
 20
112.5688058198
 11
237.512704918
 21
112.5688058198
  0
LINE
  8
13_KOMPONENTER
 62
8
  6
HIDDEN
 10
237.012704918
 20
112.5688058198
 11
227.112704918
 21
112.5688058198
  0
LINE
  8
13_KOMPONENTER
 62
8
  6
HIDDEN
 10
226.612704918
 20
112.5688058198
 11
216.712704918
 21
112.5688058198
  0
LINE
  8
13_KOMPONENTER
 62
8
  6
HIDDEN
 10
216.212704918
 20
112.5688058198
 11
206.312704918
 21
112.5688058198
  0
LINE
  8
13_KOMPONENTER
 62
8
  6
HIDDEN
 10
205.812704918
 20
112.5688058198
 11
195.912704918
 21
112.5688058198
  0
LINE
  8
13_KOMPONENTER
 62
8
  6
HIDDEN
 10
195.412704918
 20
112.5688058198
 11
185.512704918
 21
112.5688058198
  0
LINE
  8
13_KOMPONENTER
 62
8
  6
HIDDEN
 10
185.012704918
 20
112.5688058198
 11
175.112704918
 21
112.5688058198
  0
LINE
  8
13_KOMPONENTER
 62
8
  6
HIDDEN
 10
174.612704918
 20
112.5688058198
 11
164.712704918
 21
112.5688058198
  0
LINE
  8
13_KOMPONENTER
 62
8
  6
HIDDEN
 10
160.012704918
 20
112.5688058198
 11
150.112704918
 21
112.5688058198
  0
LINE
  8
13_KOMPONENTER
 62
8
  6
HIDDEN
 10
149.612704918
 20
112.5688058198
 11
139.712704918
 21
112.5688058198
  0
LINE
  8
13_KOMPONENTER
 62
8
  6
HIDDEN
 10
139.212704918
 20
112.5688058198
 11
129.312704918
 21
112.5688058198
  0
LINE
  8
13_KOMPONENTER
 62
8
  6
HIDDEN
 10
128.812704918
 20
112.5688058198
 11
118.912704918
 21
112.5688058198
  0
LINE
  8
13_KOMPONENTER
 62
8
  6
HIDDEN
 10
118.412704918
 20
112.5688058198
 11
108.512704918
 21
112.5688058198
  0
LINE
  8
13_KOMPONENTER
 62
8
  6
HIDDEN
 10
108.012704918
 20
112.5688058198
 11
98.112704918
 21
112.5688058198
  0
LINE
  8
13_KOMPONENTER
 62
8
  6
HIDDEN
 10
97.612704918
 20
112.5688058198
 11
87.712704918
 21
112.5688058198
  0
LINE
  8
13_KOMPONENTER
 62
8
  6
HIDDEN
 10
87.212704918
 20
112.5688058198
 11
77.312704918
 21
112.5688058198
  0
LINE
  8
13_KOMPONENTER
 62
8
  6
HIDDEN
 10
76.812704918
 20
112.5688058198
 11
66.912704918
 21
112.5688058198
  0
LINE
  8
13_KOMPONENTER
 62
8
  6
HIDDEN
 10
66.412704918
 20
112.5688058198
 11
56.512704918
 21
112.5688058198
  0
LINE
  8
13_KOMPONENTER
 62
8
  6
HIDDEN
 10
56.012704918
 20
112.5688058198
 11
46.112704918
 21
112.5688058198
  0
LINE
  8
13_KOMPONENTER
 62
8
  6
HIDDEN
 10
158.6127603235
 20
112.6188058198
 11
159.0381813767
 21
112.6188058198
  0
LINE
  8
13_KOMPONENTER
 62
7
  6
CONTINUOUS
 10
160.362704918
 20
113.4688058198
 11
161.212704918
 21
113.4688058198
  0
LINE
  8
13_KOMPONENTER
 62
7
  6
CONTINUOUS
 10
163.512704918
 20
113.4688058198
 11
164.362704918
 21
113.4688058198
  0
LINE
  8
13_KOMPONENTER
 62
7
  6
CONTINUOUS
 10
278.612704918
 20
114.8688058198
 11
268.712704918
 21
114.8688058198
  0
LINE
  8
13_KOMPONENTER
 62
7
  6
CONTINUOUS
 10
268.212704918
 20
114.8688058198
 11
258.312704918
 21
114.8688058198
  0
LINE
  8
13_KOMPONENTER
 62
7
  6
CONTINUOUS
 10
257.812704918
 20
114.8688058198
 11
247.912704918
 21
114.8688058198
  0
LINE
  8
13_KOMPONENTER
 62
7
  6
CONTINUOUS
 10
247.412704918
 20
114.8688058198
 11
237.512704918
 21
114.8688058198
  0
LINE
  8
13_KOMPONENTER
 62
7
  6
CONTINUOUS
 10
237.012704918
 20
114.8688058198
 11
227.112704918
 21
114.8688058198
  0
LINE
  8
13_KOMPONENTER
 62
7
  6
CONTINUOUS
 10
226.612704918
 20
114.8688058198
 11
216.712704918
 21
114.8688058198
  0
LINE
  8
13_KOMPONENTER
 62
7
  6
CONTINUOUS
 10
216.212704918
 20
114.8688058198
 11
206.312704918
 21
114.8688058198
  0
LINE
  8
13_KOMPONENTER
 62
7
  6
CONTINUOUS
 10
205.812704918
 20
114.8688058198
 11
195.912704918
 21
114.8688058198
  0
LINE
  8
13_KOMPONENTER
 62
7
  6
CONTINUOUS
 10
195.412704918
 20
114.8688058198
 11
185.512704918
 21
114.8688058198
  0
LINE
  8
13_KOMPONENTER
 62
7
  6
CONTINUOUS
 10
185.012704918
 20
114.8688058198
 11
175.112704918
 21
114.8688058198
  0
LINE
  8
13_KOMPONENTER
 62
7
  6
CONTINUOUS
 10
174.612704918
 20
114.8688058198
 11
164.712704918
 21
114.8688058198
  0
LINE
  8
13_KOMPONENTER
 62
7
  6
CONTINUOUS
 10
160.012704918
 20
114.8688058198
 11
150.112704918
 21
114.8688058198
  0
LINE
  8
13_KOMPONENTER
 62
7
  6
CONTINUOUS
 10
149.612704918
 20
114.8688058198
 11
139.712704918
 21
114.8688058198
  0
LINE
  8
13_KOMPONENTER
 62
7
  6
CONTINUOUS
 10
139.212704918
 20
114.8688058198
 11
129.312704918
 21
114.8688058198
  0
LINE
  8
13_KOMPONENTER
 62
7
  6
CONTINUOUS
 10
128.812704918
 20
114.8688058198
 11
118.912704918
 21
114.8688058198
  0
LINE
  8
13_KOMPONENTER
 62
7
  6
CONTINUOUS
 10
118.412704918
 20
114.8688058198
 11
108.512704918
 21
114.8688058198
  0
LINE
  8
13_KOMPONENTER
 62
7
  6
CONTINUOUS
 10
108.012704918
 20
114.8688058198
 11
98.112704918
 21
114.8688058198
  0
LINE
  8
13_KOMPONENTER
 62
7
  6
CONTINUOUS
 10
97.612704918
 20
114.8688058198
 11
87.712704918
 21
114.8688058198
  0
LINE
  8
13_KOMPONENTER
 62
7
  6
CONTINUOUS
 10
87.212704918
 20
114.8688058198
 11
77.312704918
 21
114.8688058198
  0
LINE
  8
13_KOMPONENTER
 62
7
  6
CONTINUOUS
 10
76.812704918
 20
114.8688058198
 11
66.912704918
 21
114.8688058198
  0
LINE
  8
13_KOMPONENTER
 62
7
  6
CONTINUOUS
 10
66.412704918
 20
114.8688058198
 11
56.512704918
 21
114.8688058198
  0
LINE
  8
13_KOMPONENTER
 62
7
  6
CONTINUOUS
 10
56.012704918
 20
114.8688058198
 11
46.112704918
 21
114.8688058198
  0
LINE
  8
13_KOMPONENTER
 62
8
  6
HIDDEN
 10
282.4076047414
 20
115.9588058198
 11
282.822704918
 21
115.9588058198
  0
LINE
  8
13_KOMPONENTER
 62
7
  6
CONTINUOUS
 10
282.322704918
 20
115.9588058198
 11
282.4076047414
 21
115.9588058198
  0
LINE
  8
13_KOMPONENTER
 62
7
  6
CONTINUOUS
 10
42.402704918
 20
115.9688058198
 11
42.3178050947
 21
115.9688058198
  0
LINE
  8
13_KOMPONENTER
 62
8
  6
HIDDEN
 10
42.3178050947
 20
115.9688058198
 11
41.902704918
 21
115.9688058198
  0
POLYLINE
  8
13_KOMPONENTER
 62
8
  6
HIDDEN
 66
1
 70
0
  0
VERTEX
  8
13_KOMPONENTER
 62
8
  6
HIDDEN
 10
95.087396537
 20
119.1688058198
  0
VERTEX
  8
13_KOMPONENTER
 62
8
  6
HIDDEN
 10
94.8078730222
 20
119.2097570511
  0
VERTEX
  8
13_KOMPONENTER
 62
8
  6
HIDDEN
 10
94.4924835505
 20
119.371461335
  0
VERTEX
  8
13_KOMPONENTER
 62
8
  6
HIDDEN
 10
94.3620205148
 20
119.492516832
  0
VERTEX
  8
13_KOMPONENTER
 62
8
  6
HIDDEN
 10
94.1771783686
 20
119.7949943894
  0
VERTEX
  8
13_KOMPONENTER
 62
8
  6
HIDDEN
 10
94.1127048594
 20
120.1435919674
  0
SEQEND
  0
LINE
  8
13_KOMPONENTER
 62
8
  6
HIDDEN
 10
161.8457057797
 20
108.4127189117
 11
162.1830116199
 21
108.35474316
  0
LINE
  8
13_KOMPONENTER
 62
8
  6
HIDDEN
 10
162.1492114634
 20
108.0747452697
 11
161.9422661617
 21
108.1391047095
  0
LINE
  8
13_KOMPONENTER
 62
8
  6
HIDDEN
 10
162.1830116199
 20
108.35474316
 11
162.362704918
 21
108.2295276513
  0
LINE
  8
13_KOMPONENTER
 62
8
  6
HIDDEN
 10
150.112704918
 20
124.5688058198
 11
149.862704918
 21
124.8188058198
  0
LINE
  8
13_KOMPONENTER
 62
8
  6
HIDDEN
 10
175.112704918
 20
100.5688058198
 11
174.862704918
 21
100.8188058198
  0
LINE
  8
13_KOMPONENTER
 62
8
  6
HIDDEN
 10
164.712704918
 20
112.5688058198
 11
164.462704918
 21
112.8188058198
  0
LINE
  8
13_KOMPONENTER
 62
8
  6
HIDDEN
 10
160.012704918
 20
119.3688058198
 11
160.262704918
 21
119.1188058198
  0
LINE
  8
13_KOMPONENTER
 62
8
  6
HIDDEN
 10
185.012704918
 20
95.3688058198
 11
185.262704918
 21
95.1188058198
  0
LINE
  8
13_KOMPONENTER
 62
8
  6
HIDDEN
 10
174.612704918
 20
107.3688058198
 11
174.862704918
 21
107.1188058198
  0
LINE
  8
13_KOMPONENTER
 62
8
  6
HIDDEN
 10
164.612704918
 20
112.6188058198
 11
166.112704918
 21
109.0188058198
  0
LINE
  8
13_KOMPONENTER
 62
8
  6
HIDDEN
 10
174.612704918
 20
124.5688058198
 11
174.612704918
 21
119.3688058198
  0
LINE
  8
13_KOMPONENTER
 62
8
  6
HIDDEN
 10
174.612704918
 20
112.5688058198
 11
174.612704918
 21
107.3688058198
  0
LINE
  8
13_KOMPONENTER
 62
8
  6
HIDDEN
 10
174.612704918
 20
100.5688058198
 11
174.612704918
 21
95.3688058198
  0
LINE
  8
13_KOMPONENTER
 62
7
  6
CONTINUOUS
 10
174.862704918
 20
126.6188058198
 11
174.862704918
 21
117.3194534603
  0
LINE
  8
13_KOMPONENTER
 62
7
  6
CONTINUOUS
 10
174.862704918
 20
114.6188058198
 11
174.862704918
 21
105.3194534603
  0
LINE
  8
13_KOMPONENTER
 62
7
  6
CONTINUOUS
 10
174.862704918
 20
102.6188058198
 11
174.862704918
 21
93.3194534603
  0
LINE
  8
13_KOMPONENTER
 62
8
  6
HIDDEN
 10
175.112704918
 20
124.5688058198
 11
175.112704918
 21
119.3688058198
  0
LINE
  8
13_KOMPONENTER
 62
8
  6
HIDDEN
 10
175.112704918
 20
112.5688058198
 11
175.112704918
 21
107.3688058198
  0
LINE
  8
13_KOMPONENTER
 62
8
  6
HIDDEN
 10
175.112704918
 20
100.5688058198
 11
175.112704918
 21
95.3688058198
  0
LINE
  8
13_KOMPONENTER
 62
8
  6
HIDDEN
 10
176.762704918
 20
126.8688058198
 11
176.762704918
 21
117.8495102782
  0
LINE
  8
13_KOMPONENTER
 62
7
  6
CONTINUOUS
 10
176.762704918
 20
126.8688058198
 11
176.762704918
 21
131.4188058198
  0
LINE
  8
13_KOMPONENTER
 62
7
  6
CONTINUOUS
 10
177.462704918
 20
82.0688058198
 11
177.462704918
 21
92.6702765639
  0
LINE
  8
13_KOMPONENTER
 62
8
  6
HIDDEN
 10
177.462704918
 20
92.6702765639
 11
177.462704918
 21
95.3713652407
  0
POLYLINE
  8
13_KOMPONENTER
 62
8
  6
HIDDEN
 66
1
 70
0
  0
VERTEX
  8
13_KOMPONENTER
 62
8
  6
HIDDEN
 10
176.7627049808
 20
120.1153120205
  0
VERTEX
  8
13_KOMPONENTER
 62
8
  6
HIDDEN
 10
176.6993982755
 20
119.7750233284
  0
VERTEX
  8
13_KOMPONENTER
 62
8
  6
HIDDEN
 10
176.5180252265
 20
119.4802588364
  0
VERTEX
  8
13_KOMPONENTER
 62
8
  6
HIDDEN
 10
176.3901055145
 20
119.3626496098
  0
VERTEX
  8
13_KOMPONENTER
 62
8
  6
HIDDEN
 10
176.0812382773
 20
119.206660233
  0
VERTEX
  8
13_KOMPONENTER
 62
8
  6
HIDDEN
 10
175.8162924032
 20
119.1688058198
  0
SEQEND
  0
LINE
  8
13_KOMPONENTER
 62
8
  6
HIDDEN
 10
177.5272381414
 20
95.5408922363
 11
177.462704918
 21
95.3713652407
  0
LINE
  8
13_KOMPONENTER
 62
8
  6
HIDDEN
 10
195.412704918
 20
124.5688058198
 11
195.662704918
 21
124.8188058198
  0
LINE
  8
13_KOMPONENTER
 62
8
  6
HIDDEN
 10
185.012704918
 20
112.5688058198
 11
185.262704918
 21
112.8188058198
  0
LINE
  8
13_KOMPONENTER
 62
8
  6
HIDDEN
 10
174.612704918
 20
100.5688058198
 11
174.862704918
 21
100.8188058198
  0
LINE
  8
13_KOMPONENTER
 62
8
  6
HIDDEN
 10
195.912704918
 20
119.3688058198
 11
195.662704918
 21
119.1188058198
  0
LINE
  8
13_KOMPONENTER
 62
8
  6
HIDDEN
 10
185.512704918
 20
107.3688058198
 11
185.262704918
 21
107.1188058198
  0
LINE
  8
13_KOMPONENTER
 62
8
  6
HIDDEN
 10
175.112704918
 20
95.3688058198
 11
174.862704918
 21
95.1188058198
  0
LINE
  8
13_KOMPONENTER
 62
8
  6
HIDDEN
 10
205.812704918
 20
124.5688058198
 11
206.062704918
 21
124.8188058198
  0
LINE
  8
13_KOMPONENTER
 62
8
  6
HIDDEN
 10
240.213704918
 20
128.3634867013
 11
240.5470381719
 21
128.533699447
  0
LINE
  8
13_KOMPONENTER
 62
8
  6
HIDDEN
 10
238.3803714258
 20
124.8741249681
 11
238.0470384103
 21
124.7039122001
  0
POLYLINE
  8
13_KOMPONENTER
 62
8
  6
HIDDEN
 66
1
 70
0
  0
VERTEX
  8
13_KOMPONENTER
 62
8
  6
HIDDEN
 10
44.2330896758
 20
99.3688058198
  0
VERTEX
  8
13_KOMPONENTER
 62
8
  6
HIDDEN
 10
44.3810001322
 20
99.3948819247
  0
VERTEX
  8
13_KOMPONENTER
 62
8
  6
HIDDEN
 10
44.5142940781
 20
99.4614502336
  0
VERTEX
  8
13_KOMPONENTER
 62
8
  6
HIDDEN
 10
44.6298532402
 20
99.5508091653
  0
VERTEX
  8
13_KOMPONENTER
 62
8
  6
HIDDEN
 10
44.752704918
 20
99.6688058198
  0
SEQEND
  0
POLYLINE
  8
13_KOMPONENTER
 62
8
  6
HIDDEN
 66
1
 70
0
  0
VERTEX
  8
13_KOMPONENTER
 62
8
  6
HIDDEN
 10
175.8492437066
 20
119.1688058233
  0
VERTEX
  8
13_KOMPONENTER
 62
8
  6
HIDDEN
 10
176.0930357664
 20
119.2018967317
  0
VERTEX
  8
13_KOMPONENTER
 62
8
  6
HIDDEN
 10
176.3961377194
 20
119.3504277889
  0
VERTEX
  8
13_KOMPONENTER
 62
8
  6
HIDDEN
 10
176.5219036323
 20
119.4639778755
  0
VERTEX
  8
13_KOMPONENTER
 62
8
  6
HIDDEN
 10
176.7003925158
 20
119.7501807874
  0
VERTEX
  8
13_KOMPONENTER
 62
8
  6
HIDDEN
 10
176.762704918
 20
120.0815269102
  0
SEQEND
  0
LINE
  8
13_KOMPONENTER
 62
8
  6
HIDDEN
 10
114.2018899254
 20
116.3616814508
 11
114.262704918
 21
116.3688058198
  0
POLYLINE
  8
13_KOMPONENTER
 62
8
  6
HIDDEN
 66
1
 70
0
  0
VERTEX
  8
13_KOMPONENTER
 62
8
  6
HIDDEN
 10
113.26002982
 20
116.2616933655
  0
VERTEX
  8
13_KOMPONENTER
 62
8
  6
HIDDEN
 10
113.6018486535
 20
116.2966519419
  0
VERTEX
  8
13_KOMPONENTER
 62
8
  6
HIDDEN
 10
113.903276248
 20
116.3286148355
  0
VERTEX
  8
13_KOMPONENTER
 62
8
  6
HIDDEN
 10
114.2018899254
 20
116.3616814508
  0
SEQEND
  0
LINE
  8
13_KOMPONENTER
 62
8
  6
HIDDEN
 10
282.4076047414
 20
116.4588058198
 11
282.822704918
 21
116.4588058198
  0
LINE
  8
13_KOMPONENTER
 62
7
  6
CONTINUOUS
 10
282.322704918
 20
116.4588058198
 11
282.4076047414
 21
116.4588058198
  0
LINE
  8
13_KOMPONENTER
 62
7
  6
CONTINUOUS
 10
42.402704918
 20
116.4688058198
 11
42.3178050947
 21
116.4688058198
  0
LINE
  8
13_KOMPONENTER
 62
8
  6
HIDDEN
 10
42.3178050947
 20
116.4688058198
 11
41.902704918
 21
116.4688058198
  0
LINE
  8
13_KOMPONENTER
 62
7
  6
CONTINUOUS
 10
278.612704918
 20
117.0688058198
 11
268.712704918
 21
117.0688058198
  0
LINE
  8
13_KOMPONENTER
 62
7
  6
CONTINUOUS
 10
268.212704918
 20
117.0688058198
 11
258.312704918
 21
117.0688058198
  0
LINE
  8
13_KOMPONENTER
 62
7
  6
CONTINUOUS
 10
257.812704918
 20
117.0688058198
 11
247.912704918
 21
117.0688058198
  0
LINE
  8
13_KOMPONENTER
 62
7
  6
CONTINUOUS
 10
247.412704918
 20
117.0688058198
 11
237.512704918
 21
117.0688058198
  0
LINE
  8
13_KOMPONENTER
 62
7
  6
CONTINUOUS
 10
237.012704918
 20
117.0688058198
 11
227.112704918
 21
117.0688058198
  0
LINE
  8
13_KOMPONENTER
 62
7
  6
CONTINUOUS
 10
226.612704918
 20
117.0688058198
 11
216.712704918
 21
117.0688058198
  0
LINE
  8
13_KOMPONENTER
 62
7
  6
CONTINUOUS
 10
216.212704918
 20
117.0688058198
 11
206.312704918
 21
117.0688058198
  0
LINE
  8
13_KOMPONENTER
 62
7
  6
CONTINUOUS
 10
205.812704918
 20
117.0688058198
 11
195.912704918
 21
117.0688058198
  0
LINE
  8
13_KOMPONENTER
 62
7
  6
CONTINUOUS
 10
195.412704918
 20
117.0688058198
 11
185.512704918
 21
117.0688058198
  0
LINE
  8
13_KOMPONENTER
 62
7
  6
CONTINUOUS
 10
185.012704918
 20
117.0688058198
 11
175.112704918
 21
117.0688058198
  0
LINE
  8
13_KOMPONENTER
 62
7
  6
CONTINUOUS
 10
174.612704918
 20
117.0688058198
 11
164.712704918
 21
117.0688058198
  0
LINE
  8
13_KOMPONENTER
 62
7
  6
CONTINUOUS
 10
160.012704918
 20
117.0688058198
 11
150.112704918
 21
117.0688058198
  0
LINE
  8
13_KOMPONENTER
 62
7
  6
CONTINUOUS
 10
149.612704918
 20
117.0688058198
 11
139.712704918
 21
117.0688058198
  0
LINE
  8
13_KOMPONENTER
 62
7
  6
CONTINUOUS
 10
139.212704918
 20
117.0688058198
 11
129.312704918
 21
117.0688058198
  0
LINE
  8
13_KOMPONENTER
 62
7
  6
CONTINUOUS
 10
128.812704918
 20
117.0688058198
 11
118.912704918
 21
117.0688058198
  0
LINE
  8
13_KOMPONENTER
 62
7
  6
CONTINUOUS
 10
118.412704918
 20
117.0688058198
 11
108.512704918
 21
117.0688058198
  0
LINE
  8
13_KOMPONENTER
 62
7
  6
CONTINUOUS
 10
108.012704918
 20
117.0688058198
 11
98.112704918
 21
117.0688058198
  0
LINE
  8
13_KOMPONENTER
 62
7
  6
CONTINUOUS
 10
97.612704918
 20
117.0688058198
 11
87.712704918
 21
117.0688058198
  0
LINE
  8
13_KOMPONENTER
 62
7
  6
CONTINUOUS
 10
87.212704918
 20
117.0688058198
 11
77.312704918
 21
117.0688058198
  0
LINE
  8
13_KOMPONENTER
 62
7
  6
CONTINUOUS
 10
76.812704918
 20
117.0688058198
 11
66.912704918
 21
117.0688058198
  0
LINE
  8
13_KOMPONENTER
 62
7
  6
CONTINUOUS
 10
66.412704918
 20
117.0688058198
 11
56.512704918
 21
117.0688058198
  0
LINE
  8
13_KOMPONENTER
 62
7
  6
CONTINUOUS
 10
56.012704918
 20
117.0688058198
 11
46.112704918
 21
117.0688058198
  0
LINE
  8
13_KOMPONENTER
 62
7
  6
CONTINUOUS
 10
160.362704918
 20
118.4688058198
 11
161.212704918
 21
118.4688058198
  0
LINE
  8
13_KOMPONENTER
 62
7
  6
CONTINUOUS
 10
163.512704918
 20
118.4688058198
 11
164.362704918
 21
118.4688058198
  0
LINE
  8
13_KOMPONENTER
 62
8
  6
HIDDEN
 10
95.0580967556
 20
119.1688058198
 11
108.7284912651
 21
119.1688058198
  0
LINE
  8
13_KOMPONENTER
 62
8
  6
HIDDEN
 10
148.8761650601
 20
119.1688058198
 11
175.8492447759
 21
119.1688058198
  0
LINE
  8
13_KOMPONENTER
 62
8
  6
HIDDEN
 10
215.996918571
 20
119.1688058198
 11
229.6673130804
 21
119.1688058198
  0
LINE
  8
13_KOMPONENTER
 62
8
  6
HIDDEN
 10
278.612704918
 20
119.3688058198
 11
268.712704918
 21
119.3688058198
  0
LINE
  8
13_KOMPONENTER
 62
8
  6
HIDDEN
 10
268.212704918
 20
119.3688058198
 11
258.312704918
 21
119.3688058198
  0
LINE
  8
13_KOMPONENTER
 62
8
  6
HIDDEN
 10
257.812704918
 20
119.3688058198
 11
247.912704918
 21
119.3688058198
  0
LINE
  8
13_KOMPONENTER
 62
8
  6
HIDDEN
 10
247.412704918
 20
119.3688058198
 11
237.512704918
 21
119.3688058198
  0
LINE
  8
13_KOMPONENTER
 62
8
  6
HIDDEN
 10
237.012704918
 20
119.3688058198
 11
227.112704918
 21
119.3688058198
  0
LINE
  8
13_KOMPONENTER
 62
8
  6
HIDDEN
 10
226.612704918
 20
119.3688058198
 11
216.712704918
 21
119.3688058198
  0
LINE
  8
13_KOMPONENTER
 62
8
  6
HIDDEN
 10
216.212704918
 20
119.3688058198
 11
206.312704918
 21
119.3688058198
  0
LINE
  8
13_KOMPONENTER
 62
8
  6
HIDDEN
 10
205.812704918
 20
119.3688058198
 11
195.912704918
 21
119.3688058198
  0
LINE
  8
13_KOMPONENTER
 62
8
  6
HIDDEN
 10
195.412704918
 20
119.3688058198
 11
185.512704918
 21
119.3688058198
  0
LINE
  8
13_KOMPONENTER
 62
8
  6
HIDDEN
 10
185.012704918
 20
119.3688058198
 11
175.112704918
 21
119.3688058198
  0
LINE
  8
13_KOMPONENTER
 62
8
  6
HIDDEN
 10
174.612704918
 20
119.3688058198
 11
164.712704918
 21
119.3688058198
  0
LINE
  8
13_KOMPONENTER
 62
8
  6
HIDDEN
 10
160.012704918
 20
119.3688058198
 11
150.112704918
 21
119.3688058198
  0
LINE
  8
13_KOMPONENTER
 62
8
  6
HIDDEN
 10
149.612704918
 20
119.3688058198
 11
139.712704918
 21
119.3688058198
  0
LINE
  8
13_KOMPONENTER
 62
8
  6
HIDDEN
 10
139.212704918
 20
119.3688058198
 11
129.312704918
 21
119.3688058198
  0
LINE
  8
13_KOMPONENTER
 62
8
  6
HIDDEN
 10
128.812704918
 20
119.3688058198
 11
118.912704918
 21
119.3688058198
  0
LINE
  8
13_KOMPONENTER
 62
8
  6
HIDDEN
 10
118.412704918
 20
119.3688058198
 11
108.512704918
 21
119.3688058198
  0
LINE
  8
13_KOMPONENTER
 62
8
  6
HIDDEN
 10
108.012704918
 20
119.3688058198
 11
98.112704918
 21
119.3688058198
  0
LINE
  8
13_KOMPONENTER
 62
8
  6
HIDDEN
 10
97.612704918
 20
119.3688058198
 11
87.712704918
 21
119.3688058198
  0
LINE
  8
13_KOMPONENTER
 62
8
  6
HIDDEN
 10
87.212704918
 20
119.3688058198
 11
77.312704918
 21
119.3688058198
  0
LINE
  8
13_KOMPONENTER
 62
8
  6
HIDDEN
 10
76.812704918
 20
119.3688058198
 11
66.912704918
 21
119.3688058198
  0
LINE
  8
13_KOMPONENTER
 62
8
  6
HIDDEN
 10
66.412704918
 20
119.3688058198
 11
56.512704918
 21
119.3688058198
  0
LINE
  8
13_KOMPONENTER
 62
8
  6
HIDDEN
 10
56.012704918
 20
119.3688058198
 11
46.112704918
 21
119.3688058198
  0
LINE
  8
13_KOMPONENTER
 62
8
  6
HIDDEN
 10
280.157704918
 20
119.4688058198
 11
164.462704918
 21
119.4688058198
  0
LINE
  8
13_KOMPONENTER
 62
7
  6
CONTINUOUS
 10
164.462704918
 20
119.4688058198
 11
164.362704918
 21
119.4688058198
  0
LINE
  8
13_KOMPONENTER
 62
8
  6
HIDDEN
 10
164.362704918
 20
119.4688058198
 11
160.362704918
 21
119.4688058198
  0
LINE
  8
13_KOMPONENTER
 62
7
  6
CONTINUOUS
 10
160.362704918
 20
119.4688058198
 11
160.262704918
 21
119.4688058198
  0
LINE
  8
13_KOMPONENTER
 62
8
  6
HIDDEN
 10
160.262704918
 20
119.4688058198
 11
44.567704918
 21
119.4688058198
  0
LINE
  8
13_KOMPONENTER
 62
8
  6
HIDDEN
 10
279.072704918
 20
119.6782722565
 11
281.772704918
 21
119.6782722565
  0
LINE
  8
13_KOMPONENTER
 62
8
  6
HIDDEN
 10
45.652704918
 20
119.6882722565
 11
42.952704918
 21
119.6882722565
  0
LINE
  8
13_KOMPONENTER
 62
8
  6
HIDDEN
 10
160.362704918
 20
119.8688058198
 11
164.362704918
 21
119.8688058198
  0
LINE
  8
13_KOMPONENTER
 62
8
  6
HIDDEN
 10
279.572704918
 20
120.5588058198
 11
284.9513609342
 21
120.5588058198
  0
LINE
  8
13_KOMPONENTER
 62
8
  6
HIDDEN
 10
45.152704918
 20
120.5688058198
 11
39.7740489019
 21
120.5688058198
  0
LINE
  8
13_KOMPONENTER
 62
8
  6
HIDDEN
 10
40.252704918
 20
120.8188058198
 11
45.152704918
 21
120.8188058198
  0
LINE
  8
13_KOMPONENTER
 62
8
  6
HIDDEN
 10
279.072704918
 20
120.8185390382
 11
284.472704918
 21
120.8188058198
  0
LINE
  8
13_KOMPONENTER
 62
8
  6
HIDDEN
 10
45.652704918
 20
120.8285390382
 11
42.952704918
 21
120.8285390382
  0
LINE
  8
13_KOMPONENTER
 62
8
  6
HIDDEN
 10
210.462704918
 20
120.8688058198
 11
176.762704918
 21
120.8688058198
  0
LINE
  8
13_KOMPONENTER
 62
8
  6
HIDDEN
 10
114.262704918
 20
120.8688058198
 11
147.962704918
 21
120.8688058198
  0
LINE
  8
13_KOMPONENTER
 62
8
  6
HIDDEN
 10
229.112704918
 20
122.4938058198
 11
210.462704918
 21
122.4938058198
  0
LINE
  8
13_KOMPONENTER
 62
8
  6
HIDDEN
 10
176.762704918
 20
122.4938058198
 11
147.962704918
 21
122.4938058198
  0
LINE
  8
13_KOMPONENTER
 62
8
  6
HIDDEN
 10
114.262704918
 20
122.4938058198
 11
94.112704918
 21
122.4938058198
  0
LINE
  8
13_KOMPONENTER
 62
8
  6
HIDDEN
 10
238.963704918
 20
122.6188058198
 11
233.963704918
 21
122.6188058198
  0
LINE
  8
13_KOMPONENTER
 62
8
  6
HIDDEN
 10
229.112704918
 20
123.0688058198
 11
230.612704918
 21
123.0688058198
  0
LINE
  8
13_KOMPONENTER
 62
8
  6
HIDDEN
 10
279.072704918
 20
123.0990726015
 11
281.772704918
 21
123.0990726015
  0
LINE
  8
13_KOMPONENTER
 62
8
  6
HIDDEN
 10
45.652704918
 20
123.1090726015
 11
42.952704918
 21
123.1090726015
  0
LINE
  8
13_KOMPONENTER
 62
8
  6
HIDDEN
 10
91.0636668124
 20
123.1188058198
 11
86.0636668124
 21
123.1188058198
  0
LINE
  8
13_KOMPONENTER
 62
8
  6
HIDDEN
 10
233.963704918
 20
123.1188058198
 11
238.963704918
 21
123.1188058198
  0
LINE
  8
13_KOMPONENTER
 62
8
  6
HIDDEN
 10
86.0636668124
 20
123.6188058198
 11
91.0636668124
 21
123.6188058198
  0
LINE
  8
13_KOMPONENTER
 62
8
  6
HIDDEN
 10
164.362704918
 20
124.0688058198
 11
160.362704918
 21
124.0688058198
  0
LINE
  8
13_KOMPONENTER
 62
8
  6
HIDDEN
 10
279.072704918
 20
124.2393393831
 11
281.772704918
 21
124.2393393831
  0
LINE
  8
13_KOMPONENTER
 62
8
  6
HIDDEN
 10
45.652704918
 20
124.2493393831
 11
42.952704918
 21
124.2493393831
  0
LINE
  8
13_KOMPONENTER
 62
8
  6
HIDDEN
 10
280.157704918
 20
124.4688058198
 11
164.462704918
 21
124.4688058198
  0
LINE
  8
13_KOMPONENTER
 62
7
  6
CONTINUOUS
 10
164.462704918
 20
124.4688058198
 11
164.362704918
 21
124.4688058198
  0
LINE
  8
13_KOMPONENTER
 62
8
  6
HIDDEN
 10
164.362704918
 20
124.4688058198
 11
160.362704918
 21
124.4688058198
  0
LINE
  8
13_KOMPONENTER
 62
7
  6
CONTINUOUS
 10
160.362704918
 20
124.4688058198
 11
160.262704918
 21
124.4688058198
  0
LINE
  8
13_KOMPONENTER
 62
8
  6
HIDDEN
 10
160.262704918
 20
124.4688058198
 11
44.567704918
 21
124.4688058198
  0
LINE
  8
13_KOMPONENTER
 62
8
  6
HIDDEN
 10
278.612704918
 20
124.5688058198
 11
268.712704918
 21
124.5688058198
  0
LINE
  8
13_KOMPONENTER
 62
8
  6
HIDDEN
 10
268.212704918
 20
124.5688058198
 11
258.312704918
 21
124.5688058198
  0
LINE
  8
13_KOMPONENTER
 62
8
  6
HIDDEN
 10
257.812704918
 20
124.5688058198
 11
247.912704918
 21
124.5688058198
  0
LINE
  8
13_KOMPONENTER
 62
8
  6
HIDDEN
 10
247.412704918
 20
124.5688058198
 11
237.512704918
 21
124.5688058198
  0
LINE
  8
13_KOMPONENTER
 62
8
  6
HIDDEN
 10
237.012704918
 20
124.5688058198
 11
227.112704918
 21
124.5688058198
  0
LINE
  8
13_KOMPONENTER
 62
8
  6
HIDDEN
 10
226.612704918
 20
124.5688058198
 11
216.712704918
 21
124.5688058198
  0
LINE
  8
13_KOMPONENTER
 62
8
  6
HIDDEN
 10
216.212704918
 20
124.5688058198
 11
206.312704918
 21
124.5688058198
  0
LINE
  8
13_KOMPONENTER
 62
8
  6
HIDDEN
 10
205.812704918
 20
124.5688058198
 11
195.912704918
 21
124.5688058198
  0
LINE
  8
13_KOMPONENTER
 62
8
  6
HIDDEN
 10
195.412704918
 20
124.5688058198
 11
185.512704918
 21
124.5688058198
  0
LINE
  8
13_KOMPONENTER
 62
8
  6
HIDDEN
 10
185.012704918
 20
124.5688058198
 11
175.112704918
 21
124.5688058198
  0
LINE
  8
13_KOMPONENTER
 62
8
  6
HIDDEN
 10
174.612704918
 20
124.5688058198
 11
164.712704918
 21
124.5688058198
  0
LINE
  8
13_KOMPONENTER
 62
8
  6
HIDDEN
 10
160.012704918
 20
124.5688058198
 11
150.112704918
 21
124.5688058198
  0
LINE
  8
13_KOMPONENTER
 62
8
  6
HIDDEN
 10
149.612704918
 20
124.5688058198
 11
139.712704918
 21
124.5688058198
  0
LINE
  8
13_KOMPONENTER
 62
8
  6
HIDDEN
 10
139.212704918
 20
124.5688058198
 11
129.312704918
 21
124.5688058198
  0
LINE
  8
13_KOMPONENTER
 62
8
  6
HIDDEN
 10
128.812704918
 20
124.5688058198
 11
118.912704918
 21
124.5688058198
  0
LINE
  8
13_KOMPONENTER
 62
8
  6
HIDDEN
 10
118.412704918
 20
124.5688058198
 11
108.512704918
 21
124.5688058198
  0
LINE
  8
13_KOMPONENTER
 62
8
  6
HIDDEN
 10
108.012704918
 20
124.5688058198
 11
98.112704918
 21
124.5688058198
  0
LINE
  8
13_KOMPONENTER
 62
8
  6
HIDDEN
 10
97.612704918
 20
124.5688058198
 11
87.712704918
 21
124.5688058198
  0
LINE
  8
13_KOMPONENTER
 62
8
  6
HIDDEN
 10
87.212704918
 20
124.5688058198
 11
77.312704918
 21
124.5688058198
  0
LINE
  8
13_KOMPONENTER
 62
8
  6
HIDDEN
 10
76.812704918
 20
124.5688058198
 11
66.912704918
 21
124.5688058198
  0
LINE
  8
13_KOMPONENTER
 62
8
  6
HIDDEN
 10
66.412704918
 20
124.5688058198
 11
56.512704918
 21
124.5688058198
  0
LINE
  8
13_KOMPONENTER
 62
8
  6
HIDDEN
 10
56.012704918
 20
124.5688058198
 11
46.112704918
 21
124.5688058198
  0
LINE
  8
13_KOMPONENTER
 62
8
  6
HIDDEN
 10
241.630371545
 20
124.6188058198
 11
240.963704918
 21
124.6188058198
  0
LINE
  8
13_KOMPONENTER
 62
8
  6
HIDDEN
 10
237.6303714258
 20
124.6188058198
 11
237.2970384103
 21
124.6188058198
  0
LINE
  8
13_KOMPONENTER
 62
8
  6
HIDDEN
 10
233.963704918
 20
124.6188058198
 11
233.463704918
 21
124.6188058198
  0
LINE
  8
13_KOMPONENTER
 62
8
  6
HIDDEN
 10
211.4653800161
 20
116.2616933655
 11
211.1235611826
 21
116.2966519419
  0
POLYLINE
  8
13_KOMPONENTER
 62
8
  6
HIDDEN
 66
1
 70
0
  0
VERTEX
  8
13_KOMPONENTER
 62
8
  6
HIDDEN
 10
211.1235611826
 20
116.2966519419
  0
VERTEX
  8
13_KOMPONENTER
 62
8
  6
HIDDEN
 10
210.6983083744
 20
116.3421045748
  0
VERTEX
  8
13_KOMPONENTER
 62
8
  6
HIDDEN
 10
210.5235199107
 20
116.3616814508
  0
VERTEX
  8
13_KOMPONENTER
 62
8
  6
HIDDEN
 10
210.462704918
 20
116.3688058198
  0
SEQEND
  0
POLYLINE
  8
13_KOMPONENTER
 62
8
  6
HIDDEN
 66
1
 70
0
  0
VERTEX
  8
13_KOMPONENTER
 62
8
  6
HIDDEN
 10
148.909117438
 20
119.1688058198
  0
VERTEX
  8
13_KOMPONENTER
 62
8
  6
HIDDEN
 10
148.6392679549
 20
119.2081049592
  0
VERTEX
  8
13_KOMPONENTER
 62
8
  6
HIDDEN
 10
148.332398025
 20
119.3648748093
  0
VERTEX
  8
13_KOMPONENTER
 62
8
  6
HIDDEN
 10
148.2054194241
 20
119.4824376338
  0
VERTEX
  8
13_KOMPONENTER
 62
8
  6
HIDDEN
 10
148.0254800058
 20
119.7764061351
  0
VERTEX
  8
13_KOMPONENTER
 62
8
  6
HIDDEN
 10
147.9627048527
 20
120.1153404623
  0
SEQEND
  0
LINE
  8
13_KOMPONENTER
 62
8
  6
HIDDEN
 10
185.512704918
 20
100.5688058198
 11
185.262704918
 21
100.8188058198
  0
LINE
  8
13_KOMPONENTER
 62
8
  6
HIDDEN
 10
175.112704918
 20
112.5688058198
 11
174.862704918
 21
112.8188058198
  0
LINE
  8
13_KOMPONENTER
 62
8
  6
HIDDEN
 10
164.712704918
 20
124.5688058198
 11
164.462704918
 21
124.8188058198
  0
LINE
  8
13_KOMPONENTER
 62
8
  6
HIDDEN
 10
195.412704918
 20
95.3688058198
 11
195.662704918
 21
95.1188058198
  0
LINE
  8
13_KOMPONENTER
 62
8
  6
HIDDEN
 10
185.012704918
 20
107.3688058198
 11
185.262704918
 21
107.1188058198
  0
LINE
  8
13_KOMPONENTER
 62
8
  6
HIDDEN
 10
174.612704918
 20
119.3688058198
 11
174.862704918
 21
119.1188058198
  0
LINE
  8
13_KOMPONENTER
 62
8
  6
HIDDEN
 10
185.012704918
 20
124.5688058198
 11
185.012704918
 21
119.3688058198
  0
LINE
  8
13_KOMPONENTER
 62
8
  6
HIDDEN
 10
185.012704918
 20
112.5688058198
 11
185.012704918
 21
107.3688058198
  0
LINE
  8
13_KOMPONENTER
 62
8
  6
HIDDEN
 10
185.012704918
 20
100.5688058198
 11
185.012704918
 21
95.3688058198
  0
LINE
  8
13_KOMPONENTER
 62
7
  6
CONTINUOUS
 10
185.262704918
 20
126.6188058198
 11
185.262704918
 21
117.3194534603
  0
LINE
  8
13_KOMPONENTER
 62
7
  6
CONTINUOUS
 10
185.262704918
 20
114.6188058198
 11
185.262704918
 21
105.3194534603
  0
LINE
  8
13_KOMPONENTER
 62
7
  6
CONTINUOUS
 10
185.262704918
 20
102.6188058198
 11
185.262704918
 21
93.3194534603
  0
LINE
  8
13_KOMPONENTER
 62
8
  6
HIDDEN
 10
185.512704918
 20
124.5688058198
 11
185.512704918
 21
119.3688058198
  0
LINE
  8
13_KOMPONENTER
 62
8
  6
HIDDEN
 10
185.512704918
 20
112.5688058198
 11
185.512704918
 21
107.3688058198
  0
LINE
  8
13_KOMPONENTER
 62
8
  6
HIDDEN
 10
185.512704918
 20
100.5688058198
 11
185.512704918
 21
95.3688058198
  0
POLYLINE
  8
13_KOMPONENTER
 62
7
  6
CONTINUOUS
 66
1
 70
0
  0
VERTEX
  8
13_KOMPONENTER
 62
7
  6
CONTINUOUS
 10
177.4627886605
 20
92.6702677977
  0
VERTEX
  8
13_KOMPONENTER
 62
7
  6
CONTINUOUS
 10
177.508771929
 20
92.7302456201
  0
VERTEX
  8
13_KOMPONENTER
 62
7
  6
CONTINUOUS
 10
177.6544944379
 20
92.8878491516
  0
VERTEX
  8
13_KOMPONENTER
 62
7
  6
CONTINUOUS
 10
177.8279025636
 20
93.0688058198
  0
SEQEND
  0
POLYLINE
  8
13_KOMPONENTER
 62
8
  6
HIDDEN
 66
1
 70
0
  0
VERTEX
  8
13_KOMPONENTER
 62
8
  6
HIDDEN
 10
177.5272381414
 20
95.5408922363
  0
VERTEX
  8
13_KOMPONENTER
 62
8
  6
HIDDEN
 10
177.6899629806
 20
95.7244484771
  0
VERTEX
  8
13_KOMPONENTER
 62
8
  6
HIDDEN
 10
177.9064929269
 20
95.9572956359
  0
VERTEX
  8
13_KOMPONENTER
 62
8
  6
HIDDEN
 10
178.149221194
 20
96.213926715
  0
VERTEX
  8
13_KOMPONENTER
 62
8
  6
HIDDEN
 10
178.462704918
 20
96.5430973858
  0
SEQEND
  0
POLYLINE
  8
13_KOMPONENTER
 62
8
  6
HIDDEN
 66
1
 70
0
  0
VERTEX
  8
13_KOMPONENTER
 62
8
  6
HIDDEN
 10
177.8279025636
 20
93.0688058198
  0
VERTEX
  8
13_KOMPONENTER
 62
8
  6
HIDDEN
 10
177.9092372841
 20
93.1536810814
  0
VERTEX
  8
13_KOMPONENTER
 62
8
  6
HIDDEN
 10
178.2628076881
 20
93.5188997198
  0
SEQEND
  0
LINE
  8
13_KOMPONENTER
 62
8
  6
HIDDEN
 10
195.412704918
 20
112.5688058198
 11
195.662704918
 21
112.8188058198
  0
LINE
  8
13_KOMPONENTER
 62
8
  6
HIDDEN
 10
185.012704918
 20
100.5688058198
 11
185.262704918
 21
100.8188058198
  0
LINE
  8
13_KOMPONENTER
 62
8
  6
HIDDEN
 10
206.312704918
 20
119.3688058198
 11
206.062704918
 21
119.1188058198
  0
LINE
  8
13_KOMPONENTER
 62
8
  6
HIDDEN
 10
195.912704918
 20
107.3688058198
 11
195.662704918
 21
107.1188058198
  0
LINE
  8
13_KOMPONENTER
 62
8
  6
HIDDEN
 10
185.512704918
 20
95.3688058198
 11
185.262704918
 21
95.1188058198
  0
LINE
  8
13_KOMPONENTER
 62
8
  6
HIDDEN
 10
216.212704918
 20
124.5688058198
 11
216.462704918
 21
124.8188058198
  0
LINE
  8
13_KOMPONENTER
 62
8
  6
HIDDEN
 10
205.812704918
 20
112.5688058198
 11
206.062704918
 21
112.8188058198
  0
LINE
  8
13_KOMPONENTER
 62
8
  6
HIDDEN
 10
240.6303716642
 20
128.02306121
 11
240.3803716642
 21
127.8528484643
  0
LINE
  8
13_KOMPONENTER
 62
8
  6
HIDDEN
 10
232.6646668124
 20
122.8688058198
 11
233.963704918
 21
123.6188058198
  0
LINE
  8
13_KOMPONENTER
 62
8
  6
HIDDEN
 10
242.3803716046
 20
124.8741249681
 11
242.0470382315
 21
124.7039122001
  0
LINE
  8
13_KOMPONENTER
 62
8
  6
HIDDEN
 10
92.362704918
 20
125.1188058198
 11
91.862704918
 21
125.1188058198
  0
LINE
  8
13_KOMPONENTER
 62
8
  6
HIDDEN
 10
91.1960382911
 20
125.1188058198
 11
90.6960382911
 21
125.1188058198
  0
LINE
  8
13_KOMPONENTER
 62
8
  6
HIDDEN
 10
88.612704918
 20
125.1188058198
 11
87.862704918
 21
125.1188058198
  0
LINE
  8
13_KOMPONENTER
 62
8
  6
HIDDEN
 10
237.2970384103
 20
125.1294441164
 11
237.6303714258
 21
125.1294441164
  0
LINE
  8
13_KOMPONENTER
 62
8
  6
HIDDEN
 10
240.963704918
 20
125.1294441164
 11
241.630371545
 21
125.1294441164
  0
LINE
  8
13_KOMPONENTER
 62
8
  6
HIDDEN
 10
159.612704918
 20
125.4688058198
 11
160.262704918
 21
125.4688058198
  0
LINE
  8
13_KOMPONENTER
 62
8
  6
HIDDEN
 10
164.462704918
 20
125.4688058198
 11
165.112704918
 21
125.4688058198
  0
LINE
  8
13_KOMPONENTER
 62
7
  6
CONTINUOUS
 10
160.262704918
 20
125.4688058198
 11
164.462704918
 21
125.4688058198
  0
LINE
  8
AXES
 62
2
  6
CENTER
 10
28.9395491803
 20
125.6688058198
 11
296.1731557377
 21
125.6688058198
  0
LINE
  8
13_KOMPONENTER
 62
8
  6
HIDDEN
 10
159.862704918
 20
126.6188058198
 11
164.862704918
 21
126.6188058198
  0
LINE
  8
13_KOMPONENTER
 62
7
  6
CONTINUOUS
 10
278.612704918
 20
126.8688058198
 11
268.712704918
 21
126.8688058198
  0
LINE
  8
13_KOMPONENTER
 62
7
  6
CONTINUOUS
 10
268.212704918
 20
126.8688058198
 11
258.312704918
 21
126.8688058198
  0
LINE
  8
13_KOMPONENTER
 62
7
  6
CONTINUOUS
 10
257.812704918
 20
126.8688058198
 11
247.912704918
 21
126.8688058198
  0
LINE
  8
13_KOMPONENTER
 62
7
  6
CONTINUOUS
 10
247.412704918
 20
126.8688058198
 11
237.512704918
 21
126.8688058198
  0
LINE
  8
13_KOMPONENTER
 62
7
  6
CONTINUOUS
 10
237.012704918
 20
126.8688058198
 11
227.112704918
 21
126.8688058198
  0
LINE
  8
13_KOMPONENTER
 62
7
  6
CONTINUOUS
 10
226.612704918
 20
126.8688058198
 11
216.712704918
 21
126.8688058198
  0
LINE
  8
13_KOMPONENTER
 62
7
  6
CONTINUOUS
 10
216.212704918
 20
126.8688058198
 11
206.312704918
 21
126.8688058198
  0
LINE
  8
13_KOMPONENTER
 62
7
  6
CONTINUOUS
 10
205.812704918
 20
126.8688058198
 11
195.912704918
 21
126.8688058198
  0
LINE
  8
13_KOMPONENTER
 62
7
  6
CONTINUOUS
 10
195.412704918
 20
126.8688058198
 11
185.512704918
 21
126.8688058198
  0
LINE
  8
13_KOMPONENTER
 62
7
  6
CONTINUOUS
 10
185.012704918
 20
126.8688058198
 11
175.112704918
 21
126.8688058198
  0
LINE
  8
13_KOMPONENTER
 62
7
  6
CONTINUOUS
 10
174.612704918
 20
126.8688058198
 11
164.712704918
 21
126.8688058198
  0
LINE
  8
13_KOMPONENTER
 62
7
  6
CONTINUOUS
 10
160.012704918
 20
126.8688058198
 11
150.112704918
 21
126.8688058198
  0
LINE
  8
13_KOMPONENTER
 62
7
  6
CONTINUOUS
 10
149.612704918
 20
126.8688058198
 11
139.712704918
 21
126.8688058198
  0
LINE
  8
13_KOMPONENTER
 62
7
  6
CONTINUOUS
 10
139.212704918
 20
126.8688058198
 11
129.312704918
 21
126.8688058198
  0
LINE
  8
13_KOMPONENTER
 62
7
  6
CONTINUOUS
 10
128.812704918
 20
126.8688058198
 11
118.912704918
 21
126.8688058198
  0
LINE
  8
13_KOMPONENTER
 62
7
  6
CONTINUOUS
 10
118.412704918
 20
126.8688058198
 11
108.512704918
 21
126.8688058198
  0
LINE
  8
13_KOMPONENTER
 62
7
  6
CONTINUOUS
 10
108.012704918
 20
126.8688058198
 11
98.112704918
 21
126.8688058198
  0
LINE
  8
13_KOMPONENTER
 62
7
  6
CONTINUOUS
 10
97.612704918
 20
126.8688058198
 11
87.712704918
 21
126.8688058198
  0
LINE
  8
13_KOMPONENTER
 62
7
  6
CONTINUOUS
 10
87.212704918
 20
126.8688058198
 11
77.312704918
 21
126.8688058198
  0
LINE
  8
13_KOMPONENTER
 62
7
  6
CONTINUOUS
 10
76.812704918
 20
126.8688058198
 11
66.912704918
 21
126.8688058198
  0
LINE
  8
13_KOMPONENTER
 62
7
  6
CONTINUOUS
 10
66.412704918
 20
126.8688058198
 11
56.512704918
 21
126.8688058198
  0
LINE
  8
13_KOMPONENTER
 62
7
  6
CONTINUOUS
 10
56.012704918
 20
126.8688058198
 11
46.112704918
 21
126.8688058198
  0
LINE
  8
13_KOMPONENTER
 62
7
  6
CONTINUOUS
 10
284.772704918
 20
127.2088058198
 11
279.772704918
 21
127.2088058198
  0
LINE
  8
13_KOMPONENTER
 62
7
  6
CONTINUOUS
 10
44.952704918
 20
127.2188058198
 11
39.952704918
 21
127.2188058198
  0
LINE
  8
13_KOMPONENTER
 62
8
  6
HIDDEN
 10
241.630371545
 20
128.1081675828
 11
240.963704918
 21
128.1081675828
  0
LINE
  8
13_KOMPONENTER
 62
8
  6
HIDDEN
 10
235.2970384103
 20
128.1932739556
 11
233.963704918
 21
128.1932739556
  0
LINE
  8
13_KOMPONENTER
 62
8
  6
HIDDEN
 10
233.463704918
 20
128.1932739556
 11
232.1303719026
 21
128.1932739556
  0
LINE
  8
13_KOMPONENTER
 62
8
  6
HIDDEN
 10
229.112704918
 20
128.2688058198
 11
230.612704918
 21
128.2688058198
  0
LINE
  8
13_KOMPONENTER
 62
8
  6
HIDDEN
 10
232.1303719026
 20
128.6188058198
 11
235.2970384103
 21
128.6188058198
  0
LINE
  8
13_KOMPONENTER
 62
8
  6
HIDDEN
 10
235.963704918
 20
128.6188058198
 11
236.463704918
 21
128.6188058198
  0
LINE
  8
13_KOMPONENTER
 62
8
  6
HIDDEN
 10
238.463704918
 20
128.6188058198
 11
238.963704918
 21
128.6188058198
  0
LINE
  8
13_KOMPONENTER
 62
8
  6
HIDDEN
 10
240.963704918
 20
128.6188058198
 11
241.630371545
 21
128.6188058198
  0
LINE
  8
13_KOMPONENTER
 62
8
  6
HIDDEN
 10
229.112704918
 20
128.8438058198
 11
210.462704918
 21
128.8438058198
  0
LINE
  8
13_KOMPONENTER
 62
8
  6
HIDDEN
 10
176.762704918
 20
128.8438058198
 11
147.962704918
 21
128.8438058198
  0
LINE
  8
13_KOMPONENTER
 62
8
  6
HIDDEN
 10
114.262704918
 20
128.8438058198
 11
94.112704918
 21
128.8438058198
  0
LINE
  8
13_KOMPONENTER
 62
8
  6
HIDDEN
 10
164.862704918
 20
129.1188058198
 11
159.862704918
 21
129.1188058198
  0
LINE
  8
13_KOMPONENTER
 62
8
  6
HIDDEN
 10
87.862704918
 20
129.1188058198
 11
88.362704918
 21
129.1188058198
  0
LINE
  8
13_KOMPONENTER
 62
8
  6
HIDDEN
 10
90.4460382911
 20
129.1188058198
 11
91.1960382911
 21
129.1188058198
  0
LINE
  8
13_KOMPONENTER
 62
8
  6
HIDDEN
 10
91.862704918
 20
129.1188058198
 11
92.362704918
 21
129.1188058198
  0
LINE
  8
13_KOMPONENTER
 62
7
  6
CONTINUOUS
 10
94.1217253865
 20
130.9188058198
 11
36.062704918
 21
130.9188058198
  0
LINE
  8
13_KOMPONENTER
 62
7
  6
CONTINUOUS
 10
230.6036844496
 20
130.9188058198
 11
288.662704918
 21
130.9188058198
  0
LINE
  8
13_KOMPONENTER
 62
8
  6
HIDDEN
 10
159.862704918
 20
131.4188058198
 11
164.862704918
 21
131.4188058198
  0
LINE
  8
13_KOMPONENTER
 62
7
  6
CONTINUOUS
 10
113.5127049093
 20
132.1688058198
 11
94.9127019967
 21
132.1688058198
  0
LINE
  8
13_KOMPONENTER
 62
7
  6
CONTINUOUS
 10
148.712704918
 20
132.1688058198
 11
176.012704918
 21
132.1688058198
  0
LINE
  8
13_KOMPONENTER
 62
7
  6
CONTINUOUS
 10
211.2127049268
 20
132.1688058198
 11
229.8127078393
 21
132.1688058198
  0
LINE
  8
13_KOMPONENTER
 62
8
  6
HIDDEN
 10
195.912704918
 20
100.5688058198
 11
195.662704918
 21
100.8188058198
  0
LINE
  8
13_KOMPONENTER
 62
8
  6
HIDDEN
 10
185.512704918
 20
112.5688058198
 11
185.262704918
 21
112.8188058198
  0
LINE
  8
13_KOMPONENTER
 62
8
  6
HIDDEN
 10
175.112704918
 20
124.5688058198
 11
174.862704918
 21
124.8188058198
  0
LINE
  8
13_KOMPONENTER
 62
8
  6
HIDDEN
 10
205.812704918
 20
95.3688058198
 11
206.062704918
 21
95.1188058198
  0
LINE
  8
13_KOMPONENTER
 62
8
  6
HIDDEN
 10
195.412704918
 20
107.3688058198
 11
195.662704918
 21
107.1188058198
  0
LINE
  8
13_KOMPONENTER
 62
8
  6
HIDDEN
 10
185.012704918
 20
119.3688058198
 11
185.262704918
 21
119.1188058198
  0
LINE
  8
13_KOMPONENTER
 62
8
  6
HIDDEN
 10
206.312704918
 20
100.5688058198
 11
206.062704918
 21
100.8188058198
  0
POLYLINE
  8
13_KOMPONENTER
 62
8
  6
HIDDEN
 66
1
 70
0
  0
VERTEX
  8
13_KOMPONENTER
 62
8
  6
HIDDEN
 10
208.9626122866
 20
93.5188997199
  0
VERTEX
  8
13_KOMPONENTER
 62
8
  6
HIDDEN
 10
209.3161192798
 20
93.1537069964
  0
VERTEX
  8
13_KOMPONENTER
 62
8
  6
HIDDEN
 10
209.397483168
 20
93.0688058198
  0
SEQEND
  0
POLYLINE
  8
13_KOMPONENTER
 62
7
  6
CONTINUOUS
 66
1
 70
0
  0
VERTEX
  8
13_KOMPONENTER
 62
7
  6
CONTINUOUS
 10
209.397483168
 20
93.0688058198
  0
VERTEX
  8
13_KOMPONENTER
 62
7
  6
CONTINUOUS
 10
209.5708887892
 20
92.8878614033
  0
VERTEX
  8
13_KOMPONENTER
 62
7
  6
CONTINUOUS
 10
209.7166214069
 20
92.7302490954
  0
VERTEX
  8
13_KOMPONENTER
 62
7
  6
CONTINUOUS
 10
209.7626055679
 20
92.6702693033
  0
SEQEND
  0
LINE
  8
13_KOMPONENTER
 62
8
  6
HIDDEN
 10
195.412704918
 20
124.5688058198
 11
195.412704918
 21
119.3688058198
  0
LINE
  8
13_KOMPONENTER
 62
8
  6
HIDDEN
 10
195.412704918
 20
112.5688058198
 11
195.412704918
 21
107.3688058198
  0
LINE
  8
13_KOMPONENTER
 62
8
  6
HIDDEN
 10
195.412704918
 20
100.5688058198
 11
195.412704918
 21
95.3688058198
  0
LINE
  8
13_KOMPONENTER
 62
7
  6
CONTINUOUS
 10
195.662704918
 20
126.6188058198
 11
195.662704918
 21
117.3194534603
  0
LINE
  8
13_KOMPONENTER
 62
7
  6
CONTINUOUS
 10
195.662704918
 20
114.6188058198
 11
195.662704918
 21
105.3194534603
  0
LINE
  8
13_KOMPONENTER
 62
7
  6
CONTINUOUS
 10
195.662704918
 20
102.6188058198
 11
195.662704918
 21
93.3194534603
  0
LINE
  8
13_KOMPONENTER
 62
8
  6
HIDDEN
 10
195.912704918
 20
124.5688058198
 11
195.912704918
 21
119.3688058198
  0
LINE
  8
13_KOMPONENTER
 62
8
  6
HIDDEN
 10
195.912704918
 20
112.5688058198
 11
195.912704918
 21
107.3688058198
  0
LINE
  8
13_KOMPONENTER
 62
8
  6
HIDDEN
 10
195.912704918
 20
100.5688058198
 11
195.912704918
 21
95.3688058198
  0
LINE
  8
13_KOMPONENTER
 62
8
  6
HIDDEN
 10
195.412704918
 20
100.5688058198
 11
195.662704918
 21
100.8188058198
  0
LINE
  8
13_KOMPONENTER
 62
8
  6
HIDDEN
 10
216.712704918
 20
119.3688058198
 11
216.462704918
 21
119.1188058198
  0
LINE
  8
13_KOMPONENTER
 62
8
  6
HIDDEN
 10
206.312704918
 20
107.3688058198
 11
206.062704918
 21
107.1188058198
  0
LINE
  8
13_KOMPONENTER
 62
8
  6
HIDDEN
 10
195.912704918
 20
95.3688058198
 11
195.662704918
 21
95.1188058198
  0
LINE
  8
13_KOMPONENTER
 62
8
  6
HIDDEN
 10
226.612704918
 20
124.5688058198
 11
226.862704918
 21
124.8188058198
  0
LINE
  8
13_KOMPONENTER
 62
8
  6
HIDDEN
 10
216.212704918
 20
112.5688058198
 11
216.462704918
 21
112.8188058198
  0
LINE
  8
13_KOMPONENTER
 62
8
  6
HIDDEN
 10
205.812704918
 20
100.5688058198
 11
206.062704918
 21
100.8188058198
  0
LINE
  8
13_KOMPONENTER
 62
8
  6
HIDDEN
 10
237.963704918
 20
125.2145504892
 11
238.213704918
 21
125.3847632945
  0
LINE
  8
13_KOMPONENTER
 62
8
  6
HIDDEN
 10
241.963704918
 20
125.2145504892
 11
242.213704918
 21
125.3847632945
  0
LINE
  8
13_KOMPONENTER
 62
7
  6
CONTINUOUS
 10
94.9126521602
 20
132.1688089393
 11
94.8028353756
 21
132.1612354303
  0
LINE
  8
13_KOMPONENTER
 62
8
  6
HIDDEN
 10
237.2970384103
 20
124.6188058198
 11
236.8803714258
 21
124.7039122001
  0
LINE
  8
13_KOMPONENTER
 62
8
  6
HIDDEN
 10
240.963704918
 20
124.6188058198
 11
240.5470381719
 21
124.7039122001
  0
LINE
  8
13_KOMPONENTER
 62
8
  6
HIDDEN
 10
195.912704918
 20
112.5688058198
 11
195.662704918
 21
112.8188058198
  0
LINE
  8
13_KOMPONENTER
 62
8
  6
HIDDEN
 10
185.512704918
 20
124.5688058198
 11
185.262704918
 21
124.8188058198
  0
LINE
  8
13_KOMPONENTER
 62
8
  6
HIDDEN
 10
216.212704918
 20
95.3688058198
 11
216.462704918
 21
95.1188058198
  0
LINE
  8
13_KOMPONENTER
 62
8
  6
HIDDEN
 10
205.812704918
 20
107.3688058198
 11
206.062704918
 21
107.1188058198
  0
LINE
  8
13_KOMPONENTER
 62
8
  6
HIDDEN
 10
195.412704918
 20
119.3688058198
 11
195.662704918
 21
119.1188058198
  0
LINE
  8
13_KOMPONENTER
 62
8
  6
HIDDEN
 10
216.712704918
 20
100.5688058198
 11
216.462704918
 21
100.8188058198
  0
LINE
  8
13_KOMPONENTER
 62
8
  6
HIDDEN
 10
206.312704918
 20
112.5688058198
 11
206.062704918
 21
112.8188058198
  0
LINE
  8
13_KOMPONENTER
 62
8
  6
HIDDEN
 10
205.812704918
 20
124.5688058198
 11
205.812704918
 21
119.3688058198
  0
LINE
  8
13_KOMPONENTER
 62
8
  6
HIDDEN
 10
205.812704918
 20
112.5688058198
 11
205.812704918
 21
107.3688058198
  0
LINE
  8
13_KOMPONENTER
 62
8
  6
HIDDEN
 10
205.812704918
 20
100.5688058198
 11
205.812704918
 21
95.3688058198
  0
LINE
  8
13_KOMPONENTER
 62
7
  6
CONTINUOUS
 10
206.062704918
 20
126.6188058198
 11
206.062704918
 21
117.3194534603
  0
LINE
  8
13_KOMPONENTER
 62
7
  6
CONTINUOUS
 10
206.062704918
 20
114.6188058198
 11
206.062704918
 21
105.3194534603
  0
LINE
  8
13_KOMPONENTER
 62
7
  6
CONTINUOUS
 10
206.062704918
 20
102.6188058198
 11
206.062704918
 21
93.3194534603
  0
LINE
  8
13_KOMPONENTER
 62
8
  6
HIDDEN
 10
206.312704918
 20
124.5688058198
 11
206.312704918
 21
119.3688058198
  0
LINE
  8
13_KOMPONENTER
 62
8
  6
HIDDEN
 10
206.312704918
 20
112.5688058198
 11
206.312704918
 21
107.3688058198
  0
LINE
  8
13_KOMPONENTER
 62
8
  6
HIDDEN
 10
206.312704918
 20
100.5688058198
 11
206.312704918
 21
95.3688058198
  0
LINE
  8
13_KOMPONENTER
 62
8
  6
HIDDEN
 10
229.6126965759
 20
118.1688058198
 11
230.0067318676
 21
118.5740617081
  0
LINE
  8
13_KOMPONENTER
 62
8
  6
HIDDEN
 10
239.8803716642
 20
128.02306121
 11
240.213704918
 21
128.3634867013
  0
LINE
  8
13_KOMPONENTER
 62
8
  6
HIDDEN
 10
238.713704918
 20
125.2145504892
 11
238.3803714258
 21
124.8741249681
  0
LINE
  8
13_KOMPONENTER
 62
8
  6
HIDDEN
 10
227.112704918
 20
119.3688058198
 11
226.862704918
 21
119.1188058198
  0
LINE
  8
13_KOMPONENTER
 62
8
  6
HIDDEN
 10
216.712704918
 20
107.3688058198
 11
216.462704918
 21
107.1188058198
  0
LINE
  8
13_KOMPONENTER
 62
8
  6
HIDDEN
 10
206.312704918
 20
95.3688058198
 11
206.062704918
 21
95.1188058198
  0
LINE
  8
13_KOMPONENTER
 62
8
  6
HIDDEN
 10
237.012704918
 20
124.5688058198
 11
237.262704918
 21
124.8188058198
  0
LINE
  8
13_KOMPONENTER
 62
8
  6
HIDDEN
 10
226.612704918
 20
112.5688058198
 11
226.862704918
 21
112.8188058198
  0
LINE
  8
13_KOMPONENTER
 62
8
  6
HIDDEN
 10
216.212704918
 20
100.5688058198
 11
216.462704918
 21
100.8188058198
  0
LINE
  8
13_KOMPONENTER
 62
8
  6
HIDDEN
 10
237.512704918
 20
119.3688058198
 11
237.262704918
 21
119.1188058198
  0
LINE
  8
13_KOMPONENTER
 62
8
  6
HIDDEN
 10
284.9528242885
 20
120.5595366047
 11
284.9513609342
 21
120.5588058198
  0
LINE
  8
13_KOMPONENTER
 62
8
  6
HIDDEN
 10
241.630371545
 20
128.6188058198
 11
242.0470382315
 21
128.533699447
  0
LINE
  8
13_KOMPONENTER
 62
8
  6
HIDDEN
 10
236.963704918
 20
125.2145504892
 11
237.2970384103
 21
125.1294441164
  0
LINE
  8
13_KOMPONENTER
 62
8
  6
HIDDEN
 10
240.6303716642
 20
125.2145504892
 11
240.963704918
 21
125.1294441164
  0
LINE
  8
13_KOMPONENTER
 62
8
  6
HIDDEN
 10
241.963704918
 20
128.02306121
 11
241.630371545
 21
128.1081675828
  0
LINE
  8
13_KOMPONENTER
 62
8
  6
HIDDEN
 10
195.912704918
 20
124.5688058198
 11
195.662704918
 21
124.8188058198
  0
LINE
  8
13_KOMPONENTER
 62
8
  6
HIDDEN
 10
226.612704918
 20
95.3688058198
 11
226.862704918
 21
95.1188058198
  0
LINE
  8
13_KOMPONENTER
 62
8
  6
HIDDEN
 10
216.212704918
 20
107.3688058198
 11
216.462704918
 21
107.1188058198
  0
LINE
  8
13_KOMPONENTER
 62
8
  6
HIDDEN
 10
205.812704918
 20
119.3688058198
 11
206.062704918
 21
119.1188058198
  0
LINE
  8
13_KOMPONENTER
 62
8
  6
HIDDEN
 10
227.112704918
 20
100.5688058198
 11
226.862704918
 21
100.8188058198
  0
LINE
  8
13_KOMPONENTER
 62
8
  6
HIDDEN
 10
216.712704918
 20
112.5688058198
 11
216.462704918
 21
112.8188058198
  0
LINE
  8
13_KOMPONENTER
 62
8
  6
HIDDEN
 10
206.312704918
 20
124.5688058198
 11
206.062704918
 21
124.8188058198
  0
LINE
  8
13_KOMPONENTER
 62
8
  6
HIDDEN
 10
211.4626313591
 20
119.8688058195
 11
210.4626412702
 21
120.8687999425
  0
LINE
  8
13_KOMPONENTER
 62
7
  6
CONTINUOUS
 10
209.762704918
 20
92.6702772039
 11
209.762704918
 21
82.0688058146
  0
LINE
  8
13_KOMPONENTER
 62
8
  6
HIDDEN
 10
209.762704918
 20
92.6702772039
 11
209.762704918
 21
96.3028921428
  0
LINE
  8
13_KOMPONENTER
 62
7
  6
CONTINUOUS
 10
210.462704918
 20
131.4188058111
 11
210.462704918
 21
126.8688058198
  0
LINE
  8
13_KOMPONENTER
 62
8
  6
HIDDEN
 10
210.462704918
 20
116.3688058198
 11
210.462704918
 21
126.8688058198
  0
LINE
  8
13_KOMPONENTER
 62
8
  6
HIDDEN
 10
210.462704918
 20
116.3688058198
 11
204.7212780393
 21
92.434559647
  0
LINE
  8
13_KOMPONENTER
 62
8
  6
HIDDEN
 10
215.6547985259
 20
120.8652216582
 11
209.762704918
 21
96.3028921428
  0
POLYLINE
  8
13_KOMPONENTER
 62
8
  6
HIDDEN
 66
1
 70
0
  0
VERTEX
  8
13_KOMPONENTER
 62
8
  6
HIDDEN
 10
230.4787752622
 20
119.1240617081
  0
VERTEX
  8
13_KOMPONENTER
 62
8
  6
HIDDEN
 10
230.2823814644
 20
118.8674128273
  0
VERTEX
  8
13_KOMPONENTER
 62
8
  6
HIDDEN
 10
230.1825714859
 20
118.7590252225
  0
VERTEX
  8
13_KOMPONENTER
 62
8
  6
HIDDEN
 10
230.0067318676
 20
118.5740617081
  0
SEQEND
  0
LINE
  8
13_KOMPONENTER
 62
8
  6
HIDDEN
 10
242.713704918
 20
125.2145504892
 11
242.3803716046
 21
124.8741249681
  0
LINE
  8
13_KOMPONENTER
 62
8
  6
HIDDEN
 10
227.112704918
 20
107.3688058198
 11
226.862704918
 21
107.1188058198
  0
LINE
  8
13_KOMPONENTER
 62
8
  6
HIDDEN
 10
216.712704918
 20
95.3688058198
 11
216.462704918
 21
95.1188058198
  0
LINE
  8
13_KOMPONENTER
 62
8
  6
HIDDEN
 10
247.412704918
 20
124.5688058198
 11
247.662704918
 21
124.8188058198
  0
LINE
  8
13_KOMPONENTER
 62
8
  6
HIDDEN
 10
237.012704918
 20
112.5688058198
 11
237.262704918
 21
112.8188058198
  0
LINE
  8
13_KOMPONENTER
 62
8
  6
HIDDEN
 10
226.612704918
 20
100.5688058198
 11
226.862704918
 21
100.8188058198
  0
LINE
  8
13_KOMPONENTER
 62
8
  6
HIDDEN
 10
247.912704918
 20
119.3688058198
 11
247.662704918
 21
119.1188058198
  0
LINE
  8
13_KOMPONENTER
 62
8
  6
HIDDEN
 10
237.512704918
 20
107.3688058198
 11
237.262704918
 21
107.1188058198
  0
LINE
  8
13_KOMPONENTER
 62
8
  6
HIDDEN
 10
279.072704918
 20
120.8185390382
 11
278.772704918
 21
120.6453339574
  0
LINE
  8
13_KOMPONENTER
 62
8
  6
HIDDEN
 10
284.9513609342
 20
99.3588058198
 11
284.9528242885
 21
99.3580750349
  0
LINE
  8
13_KOMPONENTER
 62
8
  6
HIDDEN
 10
236.8803714258
 20
124.7039122001
 11
236.5470384103
 21
124.8741249681
  0
LINE
  8
13_KOMPONENTER
 62
8
  6
HIDDEN
 10
240.5470381719
 20
124.7039122001
 11
240.213704918
 21
124.8741249681
  0
LINE
  8
13_KOMPONENTER
 62
8
  6
HIDDEN
 10
233.963704918
 20
122.1188058198
 11
232.6646668124
 21
122.8688058198
  0
LINE
  8
13_KOMPONENTER
 62
8
  6
HIDDEN
 10
279.072704918
 20
99.0990726015
 11
278.772704918
 21
99.2722776822
  0
LINE
  8
13_KOMPONENTER
 62
8
  6
HIDDEN
 10
237.012704918
 20
95.3688058198
 11
237.262704918
 21
95.1188058198
  0
LINE
  8
13_KOMPONENTER
 62
8
  6
HIDDEN
 10
226.612704918
 20
107.3688058198
 11
226.862704918
 21
107.1188058198
  0
LINE
  8
13_KOMPONENTER
 62
8
  6
HIDDEN
 10
216.212704918
 20
119.3688058198
 11
216.462704918
 21
119.1188058198
  0
LINE
  8
13_KOMPONENTER
 62
8
  6
HIDDEN
 10
237.512704918
 20
100.5688058198
 11
237.262704918
 21
100.8188058198
  0
LINE
  8
13_KOMPONENTER
 62
8
  6
HIDDEN
 10
227.112704918
 20
112.5688058198
 11
226.862704918
 21
112.8188058198
  0
LINE
  8
13_KOMPONENTER
 62
8
  6
HIDDEN
 10
216.712704918
 20
124.5688058198
 11
216.462704918
 21
124.8188058198
  0
LINE
  8
13_KOMPONENTER
 62
8
  6
HIDDEN
 10
247.412704918
 20
95.3688058198
 11
247.662704918
 21
95.1188058198
  0
LINE
  8
13_KOMPONENTER
 62
8
  6
HIDDEN
 10
216.212704918
 20
124.5688058198
 11
216.212704918
 21
119.3688058198
  0
LINE
  8
13_KOMPONENTER
 62
8
  6
HIDDEN
 10
216.212704918
 20
112.5688058198
 11
216.212704918
 21
107.3688058198
  0
LINE
  8
13_KOMPONENTER
 62
8
  6
HIDDEN
 10
216.212704918
 20
100.5688058198
 11
216.212704918
 21
95.3688058198
  0
LINE
  8
13_KOMPONENTER
 62
7
  6
CONTINUOUS
 10
216.462704918
 20
126.6188058198
 11
216.462704918
 21
117.3194534603
  0
LINE
  8
13_KOMPONENTER
 62
7
  6
CONTINUOUS
 10
216.462704918
 20
114.6188058198
 11
216.462704918
 21
105.3194534603
  0
LINE
  8
13_KOMPONENTER
 62
7
  6
CONTINUOUS
 10
216.462704918
 20
102.6188058198
 11
216.462704918
 21
93.3194534603
  0
LINE
  8
13_KOMPONENTER
 62
8
  6
HIDDEN
 10
216.712704918
 20
124.5688058198
 11
216.712704918
 21
119.3688058198
  0
LINE
  8
13_KOMPONENTER
 62
8
  6
HIDDEN
 10
216.712704918
 20
112.5688058198
 11
216.712704918
 21
107.3688058198
  0
LINE
  8
13_KOMPONENTER
 62
8
  6
HIDDEN
 10
216.712704918
 20
100.5688058198
 11
216.712704918
 21
95.3688058198
  0
LINE
  8
13_KOMPONENTER
 62
8
  6
HIDDEN
 10
239.713704918
 20
127.6826357186
 11
239.8803716642
 21
128.02306121
  0
LINE
  8
13_KOMPONENTER
 62
8
  6
HIDDEN
 10
238.8803714258
 20
125.5549760402
 11
238.713704918
 21
125.2145504892
  0
POLYLINE
  8
13_KOMPONENTER
 62
8
  6
HIDDEN
 66
1
 70
0
  0
VERTEX
  8
13_KOMPONENTER
 62
8
  6
HIDDEN
 10
230.4787752622
 20
119.1240617081
  0
VERTEX
  8
13_KOMPONENTER
 62
8
  6
HIDDEN
 10
230.5526315333
 20
119.2682755904
  0
VERTEX
  8
13_KOMPONENTER
 62
8
  6
HIDDEN
 10
230.5978714887
 20
119.4211292275
  0
VERTEX
  8
13_KOMPONENTER
 62
8
  6
HIDDEN
 10
230.612704918
 20
119.5743962827
  0
SEQEND
  0
LINE
  8
13_KOMPONENTER
 62
8
  6
HIDDEN
 10
238.213704918
 20
125.3847632945
 11
238.3803714258
 21
125.640082413
  0
LINE
  8
13_KOMPONENTER
 62
8
  6
HIDDEN
 10
240.3803716642
 20
127.8528484643
 11
240.213704918
 21
127.5975291074
  0
LINE
  8
13_KOMPONENTER
 62
8
  6
HIDDEN
 10
242.213704918
 20
125.3847632945
 11
242.3803716046
 21
125.640082413
  0
LINE
  8
13_KOMPONENTER
 62
8
  6
HIDDEN
 10
227.112704918
 20
95.3688058198
 11
226.862704918
 21
95.1188058198
  0
LINE
  8
13_KOMPONENTER
 62
8
  6
HIDDEN
 10
257.812704918
 20
124.5688058198
 11
258.062704918
 21
124.8188058198
  0
LINE
  8
13_KOMPONENTER
 62
8
  6
HIDDEN
 10
247.412704918
 20
112.5688058198
 11
247.662704918
 21
112.8188058198
  0
LINE
  8
13_KOMPONENTER
 62
8
  6
HIDDEN
 10
237.012704918
 20
100.5688058198
 11
237.262704918
 21
100.8188058198
  0
LINE
  8
13_KOMPONENTER
 62
8
  6
HIDDEN
 10
258.312704918
 20
119.3688058198
 11
258.062704918
 21
119.1188058198
  0
LINE
  8
13_KOMPONENTER
 62
8
  6
HIDDEN
 10
247.912704918
 20
107.3688058198
 11
247.662704918
 21
107.1188058198
  0
LINE
  8
13_KOMPONENTER
 62
8
  6
HIDDEN
 10
237.512704918
 20
95.3688058198
 11
237.262704918
 21
95.1188058198
  0
LINE
  8
13_KOMPONENTER
 62
8
  6
HIDDEN
 10
279.072704918
 20
108.8185390382
 11
278.772704918
 21
108.6453339574
  0
LINE
  8
13_KOMPONENTER
 62
8
  6
HIDDEN
 10
242.0470382315
 20
128.533699447
 11
242.3803716046
 21
128.3634867013
  0
LINE
  8
13_KOMPONENTER
 62
8
  6
HIDDEN
 10
236.713704918
 20
125.3847632945
 11
236.963704918
 21
125.2145504892
  0
LINE
  8
13_KOMPONENTER
 62
8
  6
HIDDEN
 10
240.3803716642
 20
125.3847632945
 11
240.6303716642
 21
125.2145504892
  0
LINE
  8
13_KOMPONENTER
 62
8
  6
HIDDEN
 10
237.012704918
 20
107.3688058198
 11
237.262704918
 21
107.1188058198
  0
LINE
  8
13_KOMPONENTER
 62
8
  6
HIDDEN
 10
226.612704918
 20
119.3688058198
 11
226.862704918
 21
119.1188058198
  0
LINE
  8
13_KOMPONENTER
 62
8
  6
HIDDEN
 10
247.912704918
 20
100.5688058198
 11
247.662704918
 21
100.8188058198
  0
LINE
  8
13_KOMPONENTER
 62
8
  6
HIDDEN
 10
237.512704918
 20
112.5688058198
 11
237.262704918
 21
112.8188058198
  0
LINE
  8
13_KOMPONENTER
 62
8
  6
HIDDEN
 10
227.112704918
 20
124.5688058198
 11
226.862704918
 21
124.8188058198
  0
LINE
  8
13_KOMPONENTER
 62
8
  6
HIDDEN
 10
257.812704918
 20
95.3688058198
 11
258.062704918
 21
95.1188058198
  0
LINE
  8
13_KOMPONENTER
 62
8
  6
HIDDEN
 10
247.412704918
 20
107.3688058198
 11
247.662704918
 21
107.1188058198
  0
LINE
  8
13_KOMPONENTER
 62
8
  6
HIDDEN
 10
226.612704918
 20
124.5688058198
 11
226.612704918
 21
119.3688058198
  0
LINE
  8
13_KOMPONENTER
 62
8
  6
HIDDEN
 10
226.612704918
 20
112.5688058198
 11
226.612704918
 21
107.3688058198
  0
LINE
  8
13_KOMPONENTER
 62
8
  6
HIDDEN
 10
226.612704918
 20
100.5688058198
 11
226.612704918
 21
95.3688058198
  0
LINE
  8
13_KOMPONENTER
 62
7
  6
CONTINUOUS
 10
226.862704918
 20
126.6188058198
 11
226.862704918
 21
117.3194534603
  0
LINE
  8
13_KOMPONENTER
 62
7
  6
CONTINUOUS
 10
226.862704918
 20
114.6188058198
 11
226.862704918
 21
105.3194534603
  0
LINE
  8
13_KOMPONENTER
 62
7
  6
CONTINUOUS
 10
226.862704918
 20
102.6188058198
 11
226.862704918
 21
93.3194534603
  0
LINE
  8
13_KOMPONENTER
 62
8
  6
HIDDEN
 10
227.112704918
 20
124.5688058198
 11
227.112704918
 21
119.3688058198
  0
LINE
  8
13_KOMPONENTER
 62
8
  6
HIDDEN
 10
227.112704918
 20
112.5688058198
 11
227.112704918
 21
107.3688058198
  0
LINE
  8
13_KOMPONENTER
 62
8
  6
HIDDEN
 10
227.112704918
 20
100.5688058198
 11
227.112704918
 21
95.3688058198
  0
LINE
  8
13_KOMPONENTER
 62
8
  6
HIDDEN
 10
229.112704918
 20
128.8438058198
 11
229.112704918
 21
122.4938058198
  0
LINE
  8
13_KOMPONENTER
 62
8
  6
HIDDEN
 10
230.612704918
 20
130.9188058198
 11
230.612704918
 21
119.5743961134
  0
LINE
  8
13_KOMPONENTER
 62
7
  6
CONTINUOUS
 10
230.612704918
 20
130.9188058198
 11
230.612704918
 21
131.3688017255
  0
LINE
  8
13_KOMPONENTER
 62
8
  6
HIDDEN
 10
232.1303719026
 20
128.1932739556
 11
232.1303719026
 21
128.6188058198
  0
POLYLINE
  8
13_KOMPONENTER
 62
7
  6
CONTINUOUS
 66
1
 70
0
  0
VERTEX
  8
13_KOMPONENTER
 62
7
  6
CONTINUOUS
 10
230.5401911249
 20
130.6641761902
  0
VERTEX
  8
13_KOMPONENTER
 62
7
  6
CONTINUOUS
 10
230.5449573878
 20
130.8015526547
  0
VERTEX
  8
13_KOMPONENTER
 62
7
  6
CONTINUOUS
 10
230.5740531697
 20
130.8885746457
  0
VERTEX
  8
13_KOMPONENTER
 62
7
  6
CONTINUOUS
 10
230.6036844496
 20
130.9188058198
  0
SEQEND
  0
POLYLINE
  8
13_KOMPONENTER
 62
8
  6
HIDDEN
 66
1
 70
0
  0
VERTEX
  8
13_KOMPONENTER
 62
8
  6
HIDDEN
 10
230.6127049744
 20
120.1435620176
  0
VERTEX
  8
13_KOMPONENTER
 62
8
  6
HIDDEN
 10
230.5476999663
 20
119.7936095869
  0
VERTEX
  8
13_KOMPONENTER
 62
8
  6
HIDDEN
 10
230.3614248306
 20
119.490334325
  0
VERTEX
  8
13_KOMPONENTER
 62
8
  6
HIDDEN
 10
230.2300208136
 20
119.3692308815
  0
VERTEX
  8
13_KOMPONENTER
 62
8
  6
HIDDEN
 10
229.9126326978
 20
119.2083026614
  0
VERTEX
  8
13_KOMPONENTER
 62
8
  6
HIDDEN
 10
229.6380133038
 20
119.1688058198
  0
SEQEND
  0
LINE
  8
13_KOMPONENTER
 62
8
  6
HIDDEN
 10
238.3803714258
 20
125.640082413
 11
238.463704918
 21
125.9805079043
  0
LINE
  8
13_KOMPONENTER
 62
8
  6
HIDDEN
 10
242.8803715822
 20
125.5549760402
 11
242.713704918
 21
125.2145504892
  0
LINE
  8
13_KOMPONENTER
 62
8
  6
HIDDEN
 10
268.212704918
 20
124.5688058198
 11
268.462704918
 21
124.8188058198
  0
LINE
  8
13_KOMPONENTER
 62
8
  6
HIDDEN
 10
257.812704918
 20
112.5688058198
 11
258.062704918
 21
112.8188058198
  0
LINE
  8
13_KOMPONENTER
 62
8
  6
HIDDEN
 10
247.412704918
 20
100.5688058198
 11
247.662704918
 21
100.8188058198
  0
LINE
  8
13_KOMPONENTER
 62
8
  6
HIDDEN
 10
268.712704918
 20
119.3688058198
 11
268.462704918
 21
119.1188058198
  0
LINE
  8
13_KOMPONENTER
 62
8
  6
HIDDEN
 10
258.312704918
 20
107.3688058198
 11
258.062704918
 21
107.1188058198
  0
LINE
  8
13_KOMPONENTER
 62
8
  6
HIDDEN
 10
247.912704918
 20
95.3688058198
 11
247.662704918
 21
95.1188058198
  0
LINE
  8
13_KOMPONENTER
 62
8
  6
HIDDEN
 10
278.612704918
 20
124.5688058198
 11
278.862704918
 21
124.8188058198
  0
LINE
  8
13_KOMPONENTER
 62
8
  6
HIDDEN
 10
279.072704918
 20
96.8185390382
 11
278.772704918
 21
96.6453339574
  0
LINE
  8
13_KOMPONENTER
 62
7
  6
CONTINUOUS
 10
283.072704918
 20
97.5168185217
 11
286.772704918
 21
99.6530145177
  0
LINE
  8
13_KOMPONENTER
 62
7
  6
CONTINUOUS
 10
282.7727111452
 20
97.149280504
 11
286.772704918
 21
99.4588058198
  0
LINE
  8
13_KOMPONENTER
 62
8
  6
HIDDEN
 10
279.072704918
 20
111.0990726015
 11
278.772704918
 21
111.2722776822
  0
LINE
  8
13_KOMPONENTER
 62
8
  6
HIDDEN
 10
242.213704918
 20
127.8528484643
 11
241.963704918
 21
128.02306121
  0
LINE
  8
13_KOMPONENTER
 62
8
  6
HIDDEN
 10
237.012704918
 20
119.3688058198
 11
237.262704918
 21
119.1188058198
  0
LINE
  8
13_KOMPONENTER
 62
8
  6
HIDDEN
 10
258.312704918
 20
100.5688058198
 11
258.062704918
 21
100.8188058198
  0
LINE
  8
13_KOMPONENTER
 62
8
  6
HIDDEN
 10
247.912704918
 20
112.5688058198
 11
247.662704918
 21
112.8188058198
  0
LINE
  8
13_KOMPONENTER
 62
8
  6
HIDDEN
 10
237.512704918
 20
124.5688058198
 11
237.262704918
 21
124.8188058198
  0
LINE
  8
13_KOMPONENTER
 62
8
  6
HIDDEN
 10
268.212704918
 20
95.3688058198
 11
268.462704918
 21
95.1188058198
  0
LINE
  8
13_KOMPONENTER
 62
8
  6
HIDDEN
 10
257.812704918
 20
107.3688058198
 11
258.062704918
 21
107.1188058198
  0
LINE
  8
13_KOMPONENTER
 62
8
  6
HIDDEN
 10
247.412704918
 20
119.3688058198
 11
247.662704918
 21
119.1188058198
  0
LINE
  8
13_KOMPONENTER
 62
8
  6
HIDDEN
 10
236.5470384103
 20
124.8741249681
 11
236.213704918
 21
125.2145504892
  0
LINE
  8
13_KOMPONENTER
 62
8
  6
HIDDEN
 10
240.213704918
 20
124.8741249681
 11
239.8803716642
 21
125.2145504892
  0
LINE
  8
13_KOMPONENTER
 62
8
  6
HIDDEN
 10
233.463704918
 20
124.6188058198
 11
233.463704918
 21
128.1932739556
  0
LINE
  8
13_KOMPONENTER
 62
8
  6
HIDDEN
 10
233.963704918
 20
128.1932739556
 11
233.963704918
 21
124.6188058198
  0
LINE
  8
13_KOMPONENTER
 62
8
  6
HIDDEN
 10
233.963704918
 20
123.6188058198
 11
233.963704918
 21
123.1188058198
  0
LINE
  8
13_KOMPONENTER
 62
8
  6
HIDDEN
 10
233.963704918
 20
122.6188058198
 11
233.963704918
 21
122.1188058198
  0
LINE
  8
13_KOMPONENTER
 62
8
  6
HIDDEN
 10
235.2970384103
 20
128.6188058198
 11
235.2970384103
 21
128.1932739556
  0
LINE
  8
13_KOMPONENTER
 62
8
  6
HIDDEN
 10
235.963704918
 20
125.9805079043
 11
235.963704918
 21
128.6188058198
  0
LINE
  8
13_KOMPONENTER
 62
8
  6
HIDDEN
 10
236.463704918
 20
128.6188058198
 11
236.463704918
 21
125.9805079043
  0
LINE
  8
13_KOMPONENTER
 62
8
  6
HIDDEN
 10
237.012704918
 20
124.5688058198
 11
237.012704918
 21
119.3688058198
  0
LINE
  8
13_KOMPONENTER
 62
8
  6
HIDDEN
 10
237.012704918
 20
112.5688058198
 11
237.012704918
 21
107.3688058198
  0
LINE
  8
13_KOMPONENTER
 62
8
  6
HIDDEN
 10
237.012704918
 20
100.5688058198
 11
237.012704918
 21
95.3688058198
  0
LINE
  8
13_KOMPONENTER
 62
7
  6
CONTINUOUS
 10
237.262704918
 20
126.6188058198
 11
237.262704918
 21
117.3194534603
  0
LINE
  8
13_KOMPONENTER
 62
7
  6
CONTINUOUS
 10
237.262704918
 20
114.6188058198
 11
237.262704918
 21
105.3194534603
  0
LINE
  8
13_KOMPONENTER
 62
7
  6
CONTINUOUS
 10
237.262704918
 20
102.6188058198
 11
237.262704918
 21
93.3194534603
  0
LINE
  8
13_KOMPONENTER
 62
8
  6
HIDDEN
 10
237.512704918
 20
124.5688058198
 11
237.512704918
 21
119.3688058198
  0
LINE
  8
13_KOMPONENTER
 62
8
  6
HIDDEN
 10
237.512704918
 20
112.5688058198
 11
237.512704918
 21
107.3688058198
  0
LINE
  8
13_KOMPONENTER
 62
8
  6
HIDDEN
 10
237.512704918
 20
100.5688058198
 11
237.512704918
 21
95.3688058198
  0
LINE
  8
13_KOMPONENTER
 62
8
  6
HIDDEN
 10
238.463704918
 20
125.9805079043
 11
238.463704918
 21
128.6188058198
  0
LINE
  8
13_KOMPONENTER
 62
8
  6
HIDDEN
 10
238.963704918
 20
128.6188058198
 11
238.963704918
 21
125.9805079043
  0
LINE
  8
13_KOMPONENTER
 62
8
  6
HIDDEN
 10
238.963704918
 20
123.1188058198
 11
238.963704918
 21
122.6188058198
  0
LINE
  8
13_KOMPONENTER
 62
8
  6
HIDDEN
 10
239.6303716642
 20
125.9805079043
 11
239.6303716642
 21
127.2571036161
  0
LINE
  8
13_KOMPONENTER
 62
8
  6
HIDDEN
 10
240.1303716642
 20
127.2571036161
 11
240.1303716642
 21
125.9805079043
  0
LINE
  8
13_KOMPONENTER
 62
8
  6
HIDDEN
 10
238.963704918
 20
125.9805079043
 11
238.8803714258
 21
125.5549760402
  0
LINE
  8
13_KOMPONENTER
 62
8
  6
HIDDEN
 10
239.6303716642
 20
127.2571036161
 11
239.713704918
 21
127.6826357186
  0
LINE
  8
13_KOMPONENTER
 62
8
  6
HIDDEN
 10
242.963704918
 20
125.9805079043
 11
242.8803715822
 21
125.5549760402
  0
LINE
  8
13_KOMPONENTER
 62
8
  6
HIDDEN
 10
240.213704918
 20
127.5975291074
 11
240.1303716642
 21
127.2571036161
  0
LINE
  8
13_KOMPONENTER
 62
8
  6
HIDDEN
 10
242.3803716046
 20
125.640082413
 11
242.463704918
 21
125.9805079043
  0
LINE
  8
13_KOMPONENTER
 62
8
  6
HIDDEN
 10
268.212704918
 20
112.5688058198
 11
268.462704918
 21
112.8188058198
  0
LINE
  8
13_KOMPONENTER
 62
8
  6
HIDDEN
 10
257.812704918
 20
100.5688058198
 11
258.062704918
 21
100.8188058198
  0
LINE
  8
13_KOMPONENTER
 62
8
  6
HIDDEN
 10
280.687704918
 20
119.9988058198
 11
280.157704918
 21
119.4688058198
  0
LINE
  8
13_KOMPONENTER
 62
8
  6
HIDDEN
 10
268.712704918
 20
107.3688058198
 11
268.462704918
 21
107.1188058198
  0
LINE
  8
13_KOMPONENTER
 62
8
  6
HIDDEN
 10
258.312704918
 20
95.3688058198
 11
258.062704918
 21
95.1188058198
  0
LINE
  8
13_KOMPONENTER
 62
8
  6
HIDDEN
 10
285.2520935036
 20
120.8588058198
 11
284.9528242885
 21
120.5595366047
  0
LINE
  8
13_KOMPONENTER
 62
8
  6
HIDDEN
 10
278.612704918
 20
112.5688058198
 11
278.862704918
 21
112.8188058198
  0
LINE
  8
13_KOMPONENTER
 62
8
  6
HIDDEN
 10
279.072704918
 20
123.0990726015
 11
278.772704918
 21
123.2722776822
  0
LINE
  8
13_KOMPONENTER
 62
7
  6
CONTINUOUS
 10
283.072704918
 20
122.4007931179
 11
286.772704918
 21
120.2645971219
  0
LINE
  8
13_KOMPONENTER
 62
7
  6
CONTINUOUS
 10
282.7727111452
 20
122.7683311356
 11
286.772704918
 21
120.4588058198
  0
POLYLINE
  8
13_KOMPONENTER
 62
8
  6
HIDDEN
 66
1
 70
0
  0
VERTEX
  8
13_KOMPONENTER
 62
8
  6
HIDDEN
 10
279.972704918
 20
99.6588058198
  0
VERTEX
  8
13_KOMPONENTER
 62
8
  6
HIDDEN
 10
280.0956407663
 20
99.5407346104
  0
VERTEX
  8
13_KOMPONENTER
 62
8
  6
HIDDEN
 10
280.2112024378
 20
99.4513938559
  0
VERTEX
  8
13_KOMPONENTER
 62
8
  6
HIDDEN
 10
280.3444141793
 20
99.3848803694
  0
VERTEX
  8
13_KOMPONENTER
 62
8
  6
HIDDEN
 10
280.4923201603
 20
99.3588058198
  0
SEQEND
  0
LINE
  8
13_KOMPONENTER
 62
8
  6
HIDDEN
 10
268.712704918
 20
100.5688058198
 11
268.462704918
 21
100.8188058198
  0
LINE
  8
13_KOMPONENTER
 62
8
  6
HIDDEN
 10
258.312704918
 20
112.5688058198
 11
258.062704918
 21
112.8188058198
  0
LINE
  8
13_KOMPONENTER
 62
8
  6
HIDDEN
 10
247.912704918
 20
124.5688058198
 11
247.662704918
 21
124.8188058198
  0
LINE
  8
13_KOMPONENTER
 62
8
  6
HIDDEN
 10
278.612704918
 20
95.3688058198
 11
278.862704918
 21
95.1188058198
  0
LINE
  8
13_KOMPONENTER
 62
8
  6
HIDDEN
 10
268.212704918
 20
107.3688058198
 11
268.462704918
 21
107.1188058198
  0
LINE
  8
13_KOMPONENTER
 62
8
  6
HIDDEN
 10
257.812704918
 20
119.3688058198
 11
258.062704918
 21
119.1188058198
  0
LINE
  8
13_KOMPONENTER
 62
8
  6
HIDDEN
 10
242.3803716046
 20
128.3634867013
 11
242.713704918
 21
128.02306121
  0
LINE
  8
13_KOMPONENTER
 62
8
  6
HIDDEN
 10
236.5470384103
 20
125.640082413
 11
236.713704918
 21
125.3847632945
  0
LINE
  8
13_KOMPONENTER
 62
8
  6
HIDDEN
 10
240.213704918
 20
125.640082413
 11
240.3803716642
 21
125.3847632945
  0
LINE
  8
13_KOMPONENTER
 62
8
  6
HIDDEN
 10
242.3803716046
 20
127.5975291074
 11
242.213704918
 21
127.8528484643
  0
LINE
  8
13_KOMPONENTER
 62
8
  6
HIDDEN
 10
236.213704918
 20
125.2145504892
 11
236.0470384103
 21
125.5549760402
  0
LINE
  8
13_KOMPONENTER
 62
8
  6
HIDDEN
 10
239.8803716642
 20
125.2145504892
 11
239.713704918
 21
125.5549760402
  0
LINE
  8
13_KOMPONENTER
 62
8
  6
HIDDEN
 10
236.463704918
 20
125.9805079043
 11
236.5470384103
 21
125.640082413
  0
LINE
  8
13_KOMPONENTER
 62
8
  6
HIDDEN
 10
236.0470384103
 20
125.5549760402
 11
235.963704918
 21
125.9805079043
  0
POLYLINE
  8
13_KOMPONENTER
 62
7
  6
CONTINUOUS
 66
1
 70
0
  0
VERTEX
  8
13_KOMPONENTER
 62
7
  6
CONTINUOUS
 10
230.612704918
 20
131.3688797488
  0
VERTEX
  8
13_KOMPONENTER
 62
7
  6
CONTINUOUS
 10
230.5612813605
 20
131.6510524865
  0
VERTEX
  8
13_KOMPONENTER
 62
7
  6
CONTINUOUS
 10
230.4136217413
 20
131.8969544227
  0
VERTEX
  8
13_KOMPONENTER
 62
7
  6
CONTINUOUS
 10
230.1887092616
 20
132.0749623901
  0
VERTEX
  8
13_KOMPONENTER
 62
7
  6
CONTINUOUS
 10
229.9154589525
 20
132.162189042
  0
VERTEX
  8
13_KOMPONENTER
 62
7
  6
CONTINUOUS
 10
229.812757676
 20
132.1688089393
  0
SEQEND
  0
LINE
  8
13_KOMPONENTER
 62
8
  6
HIDDEN
 10
242.463704918
 20
125.9805079043
 11
242.463704918
 21
127.2571036161
  0
LINE
  8
13_KOMPONENTER
 62
8
  6
HIDDEN
 10
242.963704918
 20
127.2571036161
 11
242.963704918
 21
125.9805079043
  0
LINE
  8
13_KOMPONENTER
 62
8
  6
HIDDEN
 10
247.412704918
 20
124.5688058198
 11
247.412704918
 21
119.3688058198
  0
LINE
  8
13_KOMPONENTER
 62
8
  6
HIDDEN
 10
247.412704918
 20
112.5688058198
 11
247.412704918
 21
107.3688058198
  0
LINE
  8
13_KOMPONENTER
 62
8
  6
HIDDEN
 10
247.412704918
 20
100.5688058198
 11
247.412704918
 21
95.3688058198
  0
LINE
  8
13_KOMPONENTER
 62
7
  6
CONTINUOUS
 10
247.662704918
 20
126.6188058198
 11
247.662704918
 21
117.3194534603
  0
LINE
  8
13_KOMPONENTER
 62
7
  6
CONTINUOUS
 10
247.662704918
 20
114.6188058198
 11
247.662704918
 21
105.3194534603
  0
LINE
  8
13_KOMPONENTER
 62
7
  6
CONTINUOUS
 10
247.662704918
 20
102.6188058198
 11
247.662704918
 21
93.3194534603
  0
LINE
  8
13_KOMPONENTER
 62
8
  6
HIDDEN
 10
247.912704918
 20
124.5688058198
 11
247.912704918
 21
119.3688058198
  0
LINE
  8
13_KOMPONENTER
 62
8
  6
HIDDEN
 10
247.912704918
 20
112.5688058198
 11
247.912704918
 21
107.3688058198
  0
LINE
  8
13_KOMPONENTER
 62
8
  6
HIDDEN
 10
247.912704918
 20
100.5688058198
 11
247.912704918
 21
95.3688058198
  0
LINE
  8
13_KOMPONENTER
 62
8
  6
HIDDEN
 10
279.072704918
 20
119.6782722565
 11
278.772704918
 21
119.331862095
  0
LINE
  8
13_KOMPONENTER
 62
8
  6
HIDDEN
 10
268.212704918
 20
100.5688058198
 11
268.462704918
 21
100.8188058198
  0
LINE
  8
13_KOMPONENTER
 62
8
  6
HIDDEN
 10
280.687704918
 20
107.9988058198
 11
280.157704918
 21
107.4688058198
  0
LINE
  8
13_KOMPONENTER
 62
8
  6
HIDDEN
 10
268.712704918
 20
95.3688058198
 11
268.462704918
 21
95.1188058198
  0
LINE
  8
13_KOMPONENTER
 62
8
  6
HIDDEN
 10
278.612704918
 20
100.5688058198
 11
278.862704918
 21
100.8188058198
  0
LINE
  8
13_KOMPONENTER
 62
8
  6
HIDDEN
 10
280.687704918
 20
99.9388058198
 11
280.157704918
 21
100.4688058198
  0
LINE
  8
13_KOMPONENTER
 62
8
  6
HIDDEN
 10
268.712704918
 20
112.5688058198
 11
268.462704918
 21
112.8188058198
  0
LINE
  8
13_KOMPONENTER
 62
8
  6
HIDDEN
 10
258.312704918
 20
124.5688058198
 11
258.062704918
 21
124.8188058198
  0
LINE
  8
13_KOMPONENTER
 62
8
  6
HIDDEN
 10
284.9528242885
 20
99.3580750349
 11
285.2520935036
 21
99.0588058198
  0
LINE
  8
13_KOMPONENTER
 62
8
  6
HIDDEN
 10
278.612704918
 20
107.3688058198
 11
278.862704918
 21
107.1188058198
  0
LINE
  8
13_KOMPONENTER
 62
8
  6
HIDDEN
 10
268.212704918
 20
119.3688058198
 11
268.462704918
 21
119.1188058198
  0
LINE
  8
13_KOMPONENTER
 62
8
  6
HIDDEN
 10
280.687704918
 20
111.9388058198
 11
280.157704918
 21
112.4688058198
  0
LINE
  8
13_KOMPONENTER
 62
8
  6
HIDDEN
 10
279.072704918
 20
100.2393393831
 11
278.772704918
 21
100.5857495446
  0
LINE
  8
13_KOMPONENTER
 62
8
  6
HIDDEN
 10
242.713704918
 20
128.02306121
 11
242.8803715822
 21
127.6826357186
  0
LINE
  8
13_KOMPONENTER
 62
8
  6
HIDDEN
 10
240.1303716642
 20
125.9805079043
 11
240.213704918
 21
125.640082413
  0
LINE
  8
13_KOMPONENTER
 62
8
  6
HIDDEN
 10
242.463704918
 20
127.2571036161
 11
242.3803716046
 21
127.5975291074
  0
LINE
  8
13_KOMPONENTER
 62
8
  6
HIDDEN
 10
239.713704918
 20
125.5549760402
 11
239.6303716642
 21
125.9805079043
  0
LINE
  8
13_KOMPONENTER
 62
8
  6
HIDDEN
 10
242.8803715822
 20
127.6826357186
 11
242.963704918
 21
127.2571036161
  0
LINE
  8
13_KOMPONENTER
 62
8
  6
HIDDEN
 10
257.812704918
 20
124.5688058198
 11
257.812704918
 21
119.3688058198
  0
LINE
  8
13_KOMPONENTER
 62
8
  6
HIDDEN
 10
257.812704918
 20
112.5688058198
 11
257.812704918
 21
107.3688058198
  0
LINE
  8
13_KOMPONENTER
 62
8
  6
HIDDEN
 10
257.812704918
 20
100.5688058198
 11
257.812704918
 21
95.3688058198
  0
LINE
  8
13_KOMPONENTER
 62
7
  6
CONTINUOUS
 10
258.062704918
 20
126.6188058198
 11
258.062704918
 21
117.3194534603
  0
LINE
  8
13_KOMPONENTER
 62
7
  6
CONTINUOUS
 10
258.062704918
 20
114.6188058198
 11
258.062704918
 21
105.3194534603
  0
LINE
  8
13_KOMPONENTER
 62
7
  6
CONTINUOUS
 10
258.062704918
 20
102.6188058198
 11
258.062704918
 21
93.3194534603
  0
LINE
  8
13_KOMPONENTER
 62
8
  6
HIDDEN
 10
258.312704918
 20
124.5688058198
 11
258.312704918
 21
119.3688058198
  0
LINE
  8
13_KOMPONENTER
 62
8
  6
HIDDEN
 10
258.312704918
 20
112.5688058198
 11
258.312704918
 21
107.3688058198
  0
LINE
  8
13_KOMPONENTER
 62
8
  6
HIDDEN
 10
258.312704918
 20
100.5688058198
 11
258.312704918
 21
95.3688058198
  0
LINE
  8
13_KOMPONENTER
 62
8
  6
HIDDEN
 10
279.072704918
 20
107.6782722565
 11
278.772704918
 21
107.331862095
  0
LINE
  8
13_KOMPONENTER
 62
8
  6
HIDDEN
 10
279.072704918
 20
95.6782722565
 11
278.772704918
 21
95.331862095
  0
LINE
  8
13_KOMPONENTER
 62
8
  6
HIDDEN
 10
280.687704918
 20
95.9988058198
 11
280.157704918
 21
95.4688058198
  0
LINE
  8
13_KOMPONENTER
 62
8
  6
HIDDEN
 10
268.712704918
 20
124.5688058198
 11
268.462704918
 21
124.8188058198
  0
LINE
  8
13_KOMPONENTER
 62
8
  6
HIDDEN
 10
278.612704918
 20
119.3688058198
 11
278.862704918
 21
119.1188058198
  0
LINE
  8
13_KOMPONENTER
 62
8
  6
HIDDEN
 10
280.687704918
 20
123.9388058198
 11
280.157704918
 21
124.4688058198
  0
LINE
  8
13_KOMPONENTER
 62
8
  6
HIDDEN
 10
279.072704918
 20
112.2393393831
 11
278.772704918
 21
112.5857495446
  0
LINE
  8
13_KOMPONENTER
 62
8
  6
HIDDEN
 10
279.072704918
 20
124.2393393831
 11
278.772704918
 21
124.5857495446
  0
LINE
  8
13_KOMPONENTER
 62
8
  6
HIDDEN
 10
268.212704918
 20
124.5688058198
 11
268.212704918
 21
119.3688058198
  0
LINE
  8
13_KOMPONENTER
 62
8
  6
HIDDEN
 10
268.212704918
 20
112.5688058198
 11
268.212704918
 21
107.3688058198
  0
LINE
  8
13_KOMPONENTER
 62
8
  6
HIDDEN
 10
268.212704918
 20
100.5688058198
 11
268.212704918
 21
95.3688058198
  0
LINE
  8
13_KOMPONENTER
 62
7
  6
CONTINUOUS
 10
268.462704918
 20
126.6188058198
 11
268.462704918
 21
117.3194534603
  0
LINE
  8
13_KOMPONENTER
 62
7
  6
CONTINUOUS
 10
268.462704918
 20
114.6188058198
 11
268.462704918
 21
105.3194534603
  0
LINE
  8
13_KOMPONENTER
 62
7
  6
CONTINUOUS
 10
268.462704918
 20
102.6188058198
 11
268.462704918
 21
93.3194534603
  0
LINE
  8
13_KOMPONENTER
 62
8
  6
HIDDEN
 10
268.712704918
 20
124.5688058198
 11
268.712704918
 21
119.3688058198
  0
LINE
  8
13_KOMPONENTER
 62
8
  6
HIDDEN
 10
268.712704918
 20
112.5688058198
 11
268.712704918
 21
107.3688058198
  0
LINE
  8
13_KOMPONENTER
 62
8
  6
HIDDEN
 10
268.712704918
 20
100.5688058198
 11
268.712704918
 21
95.3688058198
  0
LINE
  8
13_KOMPONENTER
 62
8
  6
HIDDEN
 10
278.612704918
 20
124.5688058198
 11
278.612704918
 21
119.3688058198
  0
LINE
  8
13_KOMPONENTER
 62
8
  6
HIDDEN
 10
278.612704918
 20
112.5688058198
 11
278.612704918
 21
107.3688058198
  0
LINE
  8
13_KOMPONENTER
 62
8
  6
HIDDEN
 10
278.612704918
 20
100.5688058198
 11
278.612704918
 21
95.3688058198
  0
LINE
  8
13_KOMPONENTER
 62
8
  6
HIDDEN
 10
278.772704918
 20
93.7088058198
 11
278.772704918
 21
126.2088058198
  0
LINE
  8
13_KOMPONENTER
 62
7
  6
CONTINUOUS
 10
278.862704918
 20
97.9688058198
 11
278.862704918
 21
93.3188058198
  0
LINE
  8
13_KOMPONENTER
 62
8
  6
HIDDEN
 10
278.862704918
 20
97.9688058198
 11
278.862704918
 21
102.6188058198
  0
LINE
  8
13_KOMPONENTER
 62
8
  6
HIDDEN
 10
278.862704918
 20
105.3188058198
 11
278.862704918
 21
114.6188058198
  0
LINE
  8
13_KOMPONENTER
 62
8
  6
HIDDEN
 10
278.862704918
 20
117.3188058198
 11
278.862704918
 21
121.9688058198
  0
LINE
  8
13_KOMPONENTER
 62
7
  6
CONTINUOUS
 10
278.862704918
 20
121.9688058198
 11
278.862704918
 21
126.6022550909
  0
LINE
  8
13_KOMPONENTER
 62
8
  6
HIDDEN
 10
278.862704918
 20
126.6022550909
 11
278.862704918
 21
126.6188058198
  0
LINE
  8
13_KOMPONENTER
 62
8
  6
HIDDEN
 10
279.072704918
 20
124.2393393831
 11
279.072704918
 21
119.6782722565
  0
LINE
  8
13_KOMPONENTER
 62
8
  6
HIDDEN
 10
279.072704918
 20
112.2393393831
 11
279.072704918
 21
107.6782722565
  0
LINE
  8
13_KOMPONENTER
 62
8
  6
HIDDEN
 10
279.072704918
 20
100.2393393831
 11
279.072704918
 21
95.6782722565
  0
LINE
  8
13_KOMPONENTER
 62
8
  6
HIDDEN
 10
279.272704918
 20
99.4088058198
 11
279.272704918
 21
120.5188058198
  0
LINE
  8
13_KOMPONENTER
 62
8
  6
HIDDEN
 10
280.157704918
 20
124.4688058198
 11
280.157704918
 21
119.4688058198
  0
LINE
  8
13_KOMPONENTER
 62
8
  6
HIDDEN
 10
280.157704918
 20
112.4688058198
 11
280.157704918
 21
107.4688058198
  0
LINE
  8
13_KOMPONENTER
 62
8
  6
HIDDEN
 10
280.157704918
 20
100.4688058198
 11
280.157704918
 21
95.4688058198
  0
LINE
  8
13_KOMPONENTER
 62
8
  6
HIDDEN
 10
280.272704918
 20
120.5188058198
 11
280.272704918
 21
99.4088058198
  0
LINE
  8
13_KOMPONENTER
 62
8
  6
HIDDEN
 10
280.687704918
 20
123.9388009773
 11
280.687704918
 21
119.9988106623
  0
LINE
  8
13_KOMPONENTER
 62
8
  6
HIDDEN
 10
280.687704918
 20
111.9388009773
 11
280.687704918
 21
107.9988106623
  0
LINE
  8
13_KOMPONENTER
 62
8
  6
HIDDEN
 10
280.687704918
 20
99.9388009773
 11
280.687704918
 21
95.9988106623
  0
LINE
  8
13_KOMPONENTER
 62
8
  6
HIDDEN
 10
281.772704918
 20
95.6782722565
 11
281.772704918
 21
100.2393393831
  0
LINE
  8
13_KOMPONENTER
 62
8
  6
HIDDEN
 10
281.772704918
 20
107.6782722565
 11
281.772704918
 21
112.2393393831
  0
LINE
  8
13_KOMPONENTER
 62
8
  6
HIDDEN
 10
281.772704918
 20
119.6782722565
 11
281.772704918
 21
124.2393393831
  0
LINE
  8
13_KOMPONENTER
 62
7
  6
CONTINUOUS
 10
282.322704918
 20
97.4090845298
 11
282.322704918
 21
122.5085271098
  0
LINE
  8
13_KOMPONENTER
 62
7
  6
CONTINUOUS
 10
282.4076047414
 20
103.4588058198
 11
282.4076047414
 21
116.4588058198
  0
LINE
  8
13_KOMPONENTER
 62
8
  6
HIDDEN
 10
282.822704918
 20
103.4588058198
 11
282.822704918
 21
116.4588058198
  0
LINE
  8
13_KOMPONENTER
 62
8
  6
HIDDEN
 10
284.772704918
 20
120.5188058198
 11
284.772704918
 21
99.4088058198
  0
LINE
  8
13_KOMPONENTER
 62
7
  6
CONTINUOUS
 10
286.772704918
 20
99.4588058198
 11
286.772704918
 21
94.7088058198
  0
LINE
  8
13_KOMPONENTER
 62
7
  6
CONTINUOUS
 10
286.772704918
 20
99.6530145177
 11
286.772704918
 21
120.2645971219
  0
LINE
  8
13_KOMPONENTER
 62
7
  6
CONTINUOUS
 10
286.772704918
 20
120.4588058198
 11
286.772704918
 21
125.2088058198
  0
LINE
  8
13_KOMPONENTER
 62
7
  6
CONTINUOUS
 10
289.362704918
 20
93.3688058198
 11
289.362704918
 21
130.2188058198
  0
LINE
  8
13_KOMPONENTER
 62
7
  6
CONTINUOUS
 10
324.2742422645
 20
81.0688164907
 11
325.7343642778
 21
81.0687850845
  0
LINE
  8
AXES
 62
2
  6
CONTINUOUS
 10
325.3242422643
 20
87.5688058198
 11
323.2242422643
 21
87.5688058198
  0
LINE
  8
AXES
 62
2
  6
CENTER
 10
319.0242422643
 20
87.5688058198
 11
315.7742207766
 21
87.5688058198
  0
LINE
  8
AXES
 62
2
  6
CENTER
 10
329.5242422643
 20
87.5688058198
 11
332.774263752
 21
87.5688058198
  0
POLYLINE
  8
13_KOMPONENTER
 62
7
  6
CONTINUOUS
 66
1
 70
0
  0
VERTEX
  8
13_KOMPONENTER
 62
7
  6
CONTINUOUS
 10
317.7742422643
 20
96.4211562598
  0
VERTEX
  8
13_KOMPONENTER
 62
7
  6
CONTINUOUS
 10
317.8341036419
 20
96.380852763
  0
VERTEX
  8
13_KOMPONENTER
 62
7
  6
CONTINUOUS
 10
318.0069810288
 20
96.3453093779
  0
VERTEX
  8
13_KOMPONENTER
 62
7
  6
CONTINUOUS
 10
318.1300067035
 20
96.3307046544
  0
VERTEX
  8
13_KOMPONENTER
 62
7
  6
CONTINUOUS
 10
318.4309931652
 20
96.3100773494
  0
VERTEX
  8
13_KOMPONENTER
 62
7
  6
CONTINUOUS
 10
318.7742422643
 20
96.3028921428
  0
SEQEND
  0
LINE
  8
13_KOMPONENTER
 62
7
  6
CONTINUOUS
 10
317.7742422643
 20
87.5688058198
 11
317.7742422643
 21
125.6688058198
  0
LINE
  8
13_KOMPONENTER
 62
7
  6
CONTINUOUS
 10
332.2343642931
 20
92.7088058198
 11
341.4343642931
 21
92.7088058198
  0
LINE
  8
13_KOMPONENTER
 62
7
  6
CONTINUOUS
 10
341.4343642931
 20
92.7188058198
 11
332.2343642931
 21
92.7188058198
  0
POLYLINE
  8
13_KOMPONENTER
 62
7
  6
CONTINUOUS
 66
1
 70
0
  0
VERTEX
  8
13_KOMPONENTER
 62
7
  6
CONTINUOUS
 10
327.7436359315
 20
95.3780797988
  0
VERTEX
  8
13_KOMPONENTER
 62
7
  6
CONTINUOUS
 10
329.4041178901
 20
94.5556233533
  0
VERTEX
  8
13_KOMPONENTER
 62
7
  6
CONTINUOUS
 10
330.1210668886
 20
94.0274757379
  0
VERTEX
  8
13_KOMPONENTER
 62
7
  6
CONTINUOUS
 10
330.7844942831
 20
93.3295703472
  0
SEQEND
  0
LINE
  8
13_KOMPONENTER
 62
7
  6
CONTINUOUS
 10
328.0869922372
 20
120.345600739
 11
327.3817363489
 21
119.1240617081
  0
LINE
  8
13_KOMPONENTER
 62
7
  6
CONTINUOUS
 10
326.3370576819
 20
96.3028921428
 11
318.7742422643
 21
96.3028921428
  0
POLYLINE
  8
13_KOMPONENTER
 62
7
  6
CONTINUOUS
 66
1
 70
0
  0
VERTEX
  8
13_KOMPONENTER
 62
7
  6
CONTINUOUS
 10
326.3370576819
 20
96.3028921428
  0
VERTEX
  8
13_KOMPONENTER
 62
7
  6
CONTINUOUS
 10
326.4778199593
 20
96.2655843122
  0
VERTEX
  8
13_KOMPONENTER
 62
7
  6
CONTINUOUS
 10
326.6296841729
 20
96.1641545064
  0
VERTEX
  8
13_KOMPONENTER
 62
7
  6
CONTINUOUS
 10
326.7932862362
 20
96.0211121888
  0
VERTEX
  8
13_KOMPONENTER
 62
7
  6
CONTINUOUS
 10
326.8841749365
 20
95.9380576013
  0
VERTEX
  8
13_KOMPONENTER
 62
7
  6
CONTINUOUS
 10
327.0957869426
 20
95.7552796869
  0
VERTEX
  8
13_KOMPONENTER
 62
7
  6
CONTINUOUS
 10
327.3692891705
 20
95.5604253863
  0
VERTEX
  8
13_KOMPONENTER
 62
7
  6
CONTINUOUS
 10
327.7436359315
 20
95.3780797988
  0
SEQEND
  0
LINE
  8
AXES
 62
2
  6
CENTER
 10
324.2742422643
 20
130.9188058198
 11
324.2742422643
 21
130.2688058198
  0
LINE
  8
AXES
 62
2
  6
CONTINUOUS
 10
324.2742422643
 20
126.7188058198
 11
324.2742422643
 21
124.6188058198
  0
LINE
  8
AXES
 62
2
  6
CONTINUOUS
 10
324.2742422643
 20
88.6188058198
 11
324.2742422643
 21
86.5188058198
  0
LINE
  8
AXES
 62
2
  6
CENTER
 10
324.2742422643
 20
82.3188058198
 11
324.2742422643
 21
79.0687843321
  0
LINE
  8
AXES
 62
2
  6
CENTER
 10
324.2742422643
 20
92.8188058198
 11
324.2742422643
 21
96.0688273075
  0
LINE
  8
AXES
 62
2
  6
CENTER
 10
324.2742422643
 20
120.4188058198
 11
324.2742422643
 21
121.0688058198
  0
LINE
  8
13_KOMPONENTER
 62
7
  6
CONTINUOUS
 10
332.2343642931
 20
99.4688058198
 11
343.4343642931
 21
99.4688058198
  0
LINE
  8
13_KOMPONENTER
 62
7
  6
CONTINUOUS
 10
332.2343642931
 20
99.6630145177
 11
343.4343642931
 21
99.6630145177
  0
POLYLINE
  8
13_KOMPONENTER
 62
7
  6
CONTINUOUS
 66
1
 70
0
  0
VERTEX
  8
13_KOMPONENTER
 62
7
  6
CONTINUOUS
 10
343.4343642931
 20
99.4688058198
  0
VERTEX
  8
13_KOMPONENTER
 62
7
  6
CONTINUOUS
 10
343.6950803128
 20
99.4589522014
  0
VERTEX
  8
13_KOMPONENTER
 62
7
  6
CONTINUOUS
 10
344.205296921
 20
99.3795678268
  0
VERTEX
  8
13_KOMPONENTER
 62
7
  6
CONTINUOUS
 10
344.6770800385
 20
99.2188303717
  0
VERTEX
  8
13_KOMPONENTER
 62
7
  6
CONTINUOUS
 10
344.8868799129
 20
99.1078523492
  0
VERTEX
  8
13_KOMPONENTER
 62
7
  6
CONTINUOUS
 10
345.2242152233
 20
98.8293153436
  0
VERTEX
  8
13_KOMPONENTER
 62
7
  6
CONTINUOUS
 10
345.4101824205
 20
98.4930696407
  0
SEQEND
  0
LINE
  8
13_KOMPONENTER
 62
7
  6
CONTINUOUS
 10
327.2343642931
 20
96.5430973858
 11
327.2343642931
 21
120.5688058198
  0
LINE
  8
13_KOMPONENTER
 62
7
  6
CONTINUOUS
 10
327.9343642931
 20
122.6188058198
 11
327.9343642931
 21
124.1188058198
  0
LINE
  8
13_KOMPONENTER
 62
7
  6
CONTINUOUS
 10
327.9343642931
 20
125.1188058198
 11
327.9343642931
 21
129.1188058198
  0
LINE
  8
13_KOMPONENTER
 62
7
  6
CONTINUOUS
 10
328.2343642931
 20
130.9188058198
 11
328.2343642931
 21
120.895600739
  0
LINE
  8
13_KOMPONENTER
 62
7
  6
CONTINUOUS
 10
345.4343642931
 20
103.9588058198
 11
345.5503896968
 21
103.9588058198
  0
LINE
  8
13_KOMPONENTER
 62
7
  6
CONTINUOUS
 10
345.5503896968
 20
103.9688058198
 11
345.4343642931
 21
103.9688058198
  0
LINE
  8
1_AXIS
 62
2
  6
CENTER
 10
313.5763007873
 20
106.6188058198
 11
334.2344903411
 21
106.6188058198
  0
LINE
  8
13_KOMPONENTER
 62
7
  6
CONTINUOUS
 10
332.2343642931
 20
87.5688058198
 11
332.2343642931
 21
127.2188058198
  0
POLYLINE
  8
13_KOMPONENTER
 62
7
  6
CONTINUOUS
 66
1
 70
0
  0
VERTEX
  8
13_KOMPONENTER
 62
7
  6
CONTINUOUS
 10
345.4101758109
 20
121.4445176828
  0
VERTEX
  8
13_KOMPONENTER
 62
7
  6
CONTINUOUS
 10
345.2241493959
 20
121.1082200755
  0
VERTEX
  8
13_KOMPONENTER
 62
7
  6
CONTINUOUS
 10
344.8867260618
 20
120.8296654516
  0
VERTEX
  8
13_KOMPONENTER
 62
7
  6
CONTINUOUS
 10
344.6768978382
 20
120.7186978521
  0
VERTEX
  8
13_KOMPONENTER
 62
7
  6
CONTINUOUS
 10
344.2051262669
 20
120.5580026563
  0
VERTEX
  8
13_KOMPONENTER
 62
7
  6
CONTINUOUS
 10
343.6950157927
 20
120.4786545408
  0
VERTEX
  8
13_KOMPONENTER
 62
7
  6
CONTINUOUS
 10
343.4343642931
 20
120.4688058198
  0
SEQEND
  0
LINE
  8
13_KOMPONENTER
 62
7
  6
CONTINUOUS
 10
345.5503896968
 20
115.9688058198
 11
345.4343642931
 21
115.9688058198
  0
LINE
  8
13_KOMPONENTER
 62
7
  6
CONTINUOUS
 10
345.4343642931
 20
121.6235702754
 11
345.4101758109
 21
121.4445176828
  0
POLYLINE
  8
13_KOMPONENTER
 62
7
  6
CONTINUOUS
 66
1
 70
0
  0
VERTEX
  8
13_KOMPONENTER
 62
7
  6
CONTINUOUS
 10
345.4343642931
 20
98.5083139793
  0
VERTEX
  8
13_KOMPONENTER
 62
7
  6
CONTINUOUS
 10
345.3193207357
 20
98.8942929119
  0
VERTEX
  8
13_KOMPONENTER
 62
7
  6
CONTINUOUS
 10
345.001074273
 20
99.2260464826
  0
VERTEX
  8
13_KOMPONENTER
 62
7
  6
CONTINUOUS
 10
344.5416416482
 20
99.4698989312
  0
VERTEX
  8
13_KOMPONENTER
 62
7
  6
CONTINUOUS
 10
344.0040687365
 20
99.6151769409
  0
VERTEX
  8
13_KOMPONENTER
 62
7
  6
CONTINUOUS
 10
343.4343642931
 20
99.6630145177
  0
SEQEND
  0
LINE
  8
13_KOMPONENTER
 62
7
  6
CONTINUOUS
 10
345.4343642931
 20
96.7188058198
 11
345.4343642931
 21
123.2188058198
  0
LINE
  8
13_KOMPONENTER
 62
7
  6
CONTINUOUS
 10
345.5503896968
 20
103.9588058198
 11
345.5503896968
 21
115.9688058198
  0
POLYLINE
  8
13_KOMPONENTER
 62
7
  6
CONTINUOUS
 66
1
 70
0
  0
VERTEX
  8
13_KOMPONENTER
 62
7
  6
CONTINUOUS
 10
343.4343642931
 20
120.2745971219
  0
VERTEX
  8
13_KOMPONENTER
 62
7
  6
CONTINUOUS
 10
344.0040687365
 20
120.3224346987
  0
VERTEX
  8
13_KOMPONENTER
 62
7
  6
CONTINUOUS
 10
344.5416416482
 20
120.4677127085
  0
VERTEX
  8
13_KOMPONENTER
 62
7
  6
CONTINUOUS
 10
345.001074273
 20
120.711565157
  0
VERTEX
  8
13_KOMPONENTER
 62
7
  6
CONTINUOUS
 10
345.3193207357
 20
121.0433187277
  0
VERTEX
  8
13_KOMPONENTER
 62
7
  6
CONTINUOUS
 10
345.4343642931
 20
121.4292976603
  0
SEQEND
  0
LINE
  8
13_KOMPONENTER
 62
7
  6
CONTINUOUS
 10
326.2343642931
 20
119.1688058198
 11
324.2742422643
 21
119.1688058198
  0
LINE
  8
13_KOMPONENTER
 62
7
  6
CONTINUOUS
 10
332.2343642931
 20
120.2745971219
 11
343.4343642931
 21
120.2745971219
  0
LINE
  8
13_KOMPONENTER
 62
7
  6
CONTINUOUS
 10
332.2343642931
 20
120.4688058198
 11
343.4343642931
 21
120.4688058198
  0
LINE
  8
13_KOMPONENTER
 62
7
  6
CONTINUOUS
 10
345.4101824205
 20
98.4930696407
 11
345.4343642931
 21
98.3140413642
  0
LINE
  8
13_KOMPONENTER
 62
7
  6
CONTINUOUS
 10
327.2343642931
 20
120.5688058198
 11
328.1794501504
 21
120.5688058198
  0
LINE
  8
13_KOMPONENTER
 62
7
  6
CONTINUOUS
 10
328.2343642931
 20
122.6188058198
 11
327.9343642931
 21
122.6188058198
  0
LINE
  8
13_KOMPONENTER
 62
7
  6
CONTINUOUS
 10
328.2343642931
 20
123.1188058198
 11
327.9343642931
 21
123.1188058198
  0
LINE
  8
13_KOMPONENTER
 62
7
  6
CONTINUOUS
 10
328.2343642931
 20
123.6188058198
 11
327.9343642931
 21
123.6188058198
  0
LINE
  8
13_KOMPONENTER
 62
7
  6
CONTINUOUS
 10
328.2343642931
 20
124.1188058198
 11
327.9343642931
 21
124.1188058198
  0
LINE
  8
13_KOMPONENTER
 62
7
  6
CONTINUOUS
 10
328.2343642931
 20
125.1188058198
 11
327.9343642931
 21
125.1188058198
  0
LINE
  8
AXES
 62
2
  6
CENTER
 10
329.5242422643
 20
125.6688058198
 11
328.8742422643
 21
125.6688058198
  0
LINE
  8
AXES
 62
2
  6
CONTINUOUS
 10
325.3242422643
 20
125.6688058198
 11
323.2242422643
 21
125.6688058198
  0
LINE
  8
AXES
 62
2
  6
CENTER
 10
319.0242422643
 20
125.6688058198
 11
319.6742422643
 21
125.6688058198
  0
LINE
  8
13_KOMPONENTER
 62
7
  6
CONTINUOUS
 10
341.4343642931
 20
127.2188058198
 11
332.2343642931
 21
127.2188058198
  0
LINE
  8
13_KOMPONENTER
 62
7
  6
CONTINUOUS
 10
328.2343642931
 20
129.1188058198
 11
327.9343642931
 21
129.1188058198
  0
LINE
  8
13_KOMPONENTER
 62
7
  6
CONTINUOUS
 10
329.1894330333
 20
130.9188058198
 11
328.2343642931
 21
130.9188058198
  0
LINE
  8
13_KOMPONENTER
 62
7
  6
CONTINUOUS
 10
324.2742422777
 20
132.1687250743
 11
325.7343635327
 21
132.1689718559
  0
ARC
  8
13_KOMPONENTER
 62
7
  6
CONTINUOUS
 10
146.262704918
 20
204.8877412397
 40
1.0
 50
270.0
 51
0.0000001181
  0
ARC
  8
13_KOMPONENTER
 62
7
  6
CONTINUOUS
 10
115.962704918
 20
204.8877412397
 40
1.0
 50
180.0
 51
270.0
  0
ARC
  8
13_KOMPONENTER
 62
7
  6
CONTINUOUS
 10
146.4625498824
 20
217.5477082329
 40
0.8000264818
 50
0.0109547732
 51
89.9890452268
  0
ARC
  8
13_KOMPONENTER
 62
7
  6
CONTINUOUS
 10
115.7627129625
 20
217.5478553086
 40
0.8000079371
 50
90.0005778985
 51
179.9994345007
  0
ARC
  8
13_KOMPONENTER
 62
7
  6
CONTINUOUS
 10
36.062704918
 20
217.6478632685
 40
0.7
 50
90.0
 51
180.0
  0
ARC
  8
13_KOMPONENTER
 62
7
  6
CONTINUOUS
 10
98.112704918
 20
222.3978632685
 40
0.25
 50
180.0
 51
270.0
  0
ARC
  8
13_KOMPONENTER
 62
7
  6
CONTINUOUS
 10
56.512704918
 20
222.3978632685
 40
0.25
 50
180.0
 51
270.0
  0
ARC
  8
13_KOMPONENTER
 62
7
  6
CONTINUOUS
 10
66.412704918
 20
222.3978632685
 40
0.25
 50
270.0
 51
360.0
  0
ARC
  8
13_KOMPONENTER
 62
7
  6
CONTINUOUS
 10
46.112704918
 20
222.3978632685
 40
0.25
 50
232.9194499104
 51
270.0
  0
ARC
  8
13_KOMPONENTER
 62
7
  6
CONTINUOUS
 10
56.012704918
 20
222.3978632685
 40
0.25
 50
270.0
 51
360.0
  0
ARC
  8
13_KOMPONENTER
 62
7
  6
CONTINUOUS
 10
66.912704918
 20
222.3978632685
 40
0.25
 50
180.0
 51
270.0
  0
ARC
  8
13_KOMPONENTER
 62
7
  6
CONTINUOUS
 10
76.812704918
 20
222.3978632685
 40
0.25
 50
270.0
 51
360.0
  0
ARC
  8
13_KOMPONENTER
 62
7
  6
CONTINUOUS
 10
87.712704918
 20
222.3978632685
 40
0.25
 50
180.0
 51
270.0
  0
ARC
  8
13_KOMPONENTER
 62
7
  6
CONTINUOUS
 10
97.612704918
 20
222.3978632685
 40
0.25
 50
270.0
 51
360.0
  0
ARC
  8
13_KOMPONENTER
 62
7
  6
CONTINUOUS
 10
77.312704918
 20
222.3978632685
 40
0.25
 50
180.0
 51
270.0
  0
ARC
  8
13_KOMPONENTER
 62
7
  6
CONTINUOUS
 10
87.212704918
 20
222.3978632685
 40
0.25
 50
270.0
 51
360.0
  0
ARC
  8
13_KOMPONENTER
 62
7
  6
CONTINUOUS
 10
39.952704918
 20
229.5478632685
 40
2.0
 50
90.0
 51
180.0
  0
ARC
  8
13_KOMPONENTER
 62
7
  6
CONTINUOUS
 10
44.952704918
 20
230.5478632685
 40
1.0
 50
0.0
 51
90.0
  0
ARC
  8
13_KOMPONENTER
 62
7
  6
CONTINUOUS
 10
56.512704918
 20
231.6978632685
 40
0.25
 50
90.0
 51
180.0
  0
ARC
  8
13_KOMPONENTER
 62
7
  6
CONTINUOUS
 10
66.412704918
 20
231.6978632685
 40
0.25
 50
0.0
 51
90.0
  0
ARC
  8
13_KOMPONENTER
 62
7
  6
CONTINUOUS
 10
46.112704918
 20
231.6978632685
 40
0.25
 50
90.0
 51
180.0
  0
ARC
  8
13_KOMPONENTER
 62
7
  6
CONTINUOUS
 10
56.012704918
 20
231.6978632685
 40
0.25
 50
0.0
 51
90.0
  0
ARC
  8
13_KOMPONENTER
 62
7
  6
CONTINUOUS
 10
66.912704918
 20
231.6978632685
 40
0.25
 50
90.0
 51
180.0
  0
ARC
  8
13_KOMPONENTER
 62
7
  6
CONTINUOUS
 10
98.112704918
 20
231.6978632685
 40
0.25
 50
90.0
 51
180.0
  0
ARC
  8
13_KOMPONENTER
 62
7
  6
CONTINUOUS
 10
76.812704918
 20
231.6978632685
 40
0.25
 50
0.0
 51
90.0
  0
ARC
  8
13_KOMPONENTER
 62
7
  6
CONTINUOUS
 10
87.712704918
 20
231.6978632685
 40
0.25
 50
90.0
 51
180.0
  0
ARC
  8
13_KOMPONENTER
 62
7
  6
CONTINUOUS
 10
97.612704918
 20
231.6978632685
 40
0.25
 50
0.0
 51
90.0
  0
ARC
  8
13_KOMPONENTER
 62
7
  6
CONTINUOUS
 10
77.312704918
 20
231.6978632685
 40
0.25
 50
90.0
 51
180.0
  0
ARC
  8
13_KOMPONENTER
 62
7
  6
CONTINUOUS
 10
87.212704918
 20
231.6978632685
 40
0.25
 50
0.0
 51
90.0
  0
ARC
  8
13_KOMPONENTER
 62
7
  6
CONTINUOUS
 10
108.012704918
 20
222.3978632685
 40
0.25
 50
270.0
 51
360.0
  0
ARC
  8
13_KOMPONENTER
 62
7
  6
CONTINUOUS
 10
150.112704918
 20
222.3978632685
 40
0.25
 50
180.0
 51
270.0
  0
ARC
  8
13_KOMPONENTER
 62
7
  6
CONTINUOUS
 10
160.012704918
 20
222.3978632685
 40
0.25
 50
270.0
 51
360.0
  0
ARC
  8
13_KOMPONENTER
 62
7
  6
CONTINUOUS
 10
139.712704918
 20
222.3978632685
 40
0.25
 50
180.0
 51
270.0
  0
ARC
  8
13_KOMPONENTER
 62
7
  6
CONTINUOUS
 10
149.612704918
 20
222.3978632685
 40
0.25
 50
270.0
 51
360.0
  0
ARC
  8
13_KOMPONENTER
 62
7
  6
CONTINUOUS
 10
129.312704918
 20
222.3978632685
 40
0.25
 50
180.0
 51
270.0
  0
ARC
  8
13_KOMPONENTER
 62
7
  6
CONTINUOUS
 10
139.212704918
 20
222.3978632685
 40
0.25
 50
270.0
 51
360.0
  0
ARC
  8
13_KOMPONENTER
 62
7
  6
CONTINUOUS
 10
118.912704918
 20
222.3978632685
 40
0.25
 50
180.0
 51
270.0
  0
ARC
  8
13_KOMPONENTER
 62
7
  6
CONTINUOUS
 10
128.812704918
 20
222.3978632685
 40
0.25
 50
270.0
 51
360.0
  0
ARC
  8
13_KOMPONENTER
 62
7
  6
CONTINUOUS
 10
108.512704918
 20
222.3978632685
 40
0.25
 50
180.0
 51
270.0
  0
ARC
  8
13_KOMPONENTER
 62
7
  6
CONTINUOUS
 10
118.412704918
 20
222.3978632685
 40
0.25
 50
270.0
 51
360.0
  0
ARC
  8
13_KOMPONENTER
 62
7
  6
CONTINUOUS
 10
108.012704918
 20
231.6978632685
 40
0.25
 50
0.0
 51
90.0
  0
ARC
  8
13_KOMPONENTER
 62
7
  6
CONTINUOUS
 10
150.112704918
 20
231.6978632685
 40
0.25
 50
90.0
 51
180.0
  0
ARC
  8
13_KOMPONENTER
 62
7
  6
CONTINUOUS
 10
160.012704918
 20
231.6978632685
 40
0.25
 50
0.0
 51
90.0
  0
ARC
  8
13_KOMPONENTER
 62
7
  6
CONTINUOUS
 10
139.712704918
 20
231.6978632685
 40
0.25
 50
90.0
 51
180.0
  0
ARC
  8
13_KOMPONENTER
 62
7
  6
CONTINUOUS
 10
149.612704918
 20
231.6978632685
 40
0.25
 50
0.0
 51
90.0
  0
ARC
  8
13_KOMPONENTER
 62
7
  6
CONTINUOUS
 10
129.312704918
 20
231.6978632685
 40
0.25
 50
90.0
 51
180.0
  0
ARC
  8
13_KOMPONENTER
 62
7
  6
CONTINUOUS
 10
139.212704918
 20
231.6978632685
 40
0.25
 50
0.0
 51
90.0
  0
ARC
  8
13_KOMPONENTER
 62
7
  6
CONTINUOUS
 10
118.912704918
 20
231.6978632685
 40
0.25
 50
90.0
 51
180.0
  0
ARC
  8
13_KOMPONENTER
 62
7
  6
CONTINUOUS
 10
128.812704918
 20
231.6978632685
 40
0.25
 50
0.0
 51
90.0
  0
ARC
  8
13_KOMPONENTER
 62
7
  6
CONTINUOUS
 10
108.512704918
 20
231.6978632685
 40
0.25
 50
90.0
 51
180.0
  0
ARC
  8
13_KOMPONENTER
 62
7
  6
CONTINUOUS
 10
118.412704918
 20
231.6978632685
 40
0.25
 50
0.0
 51
90.0
  0
ARC
  8
13_KOMPONENTER
 62
7
  6
CONTINUOUS
 10
178.462704918
 20
204.8877412397
 40
1.0
 50
179.9999998819
 51
270.0
  0
ARC
  8
13_KOMPONENTER
 62
7
  6
CONTINUOUS
 10
208.762704918
 20
204.8877412397
 40
1.0
 50
270.0
 51
360.0
  0
ARC
  8
13_KOMPONENTER
 62
7
  6
CONTINUOUS
 10
178.2628599536
 20
217.5477082329
 40
0.8000264818
 50
90.0109547732
 51
179.9890452268
  0
ARC
  8
13_KOMPONENTER
 62
7
  6
CONTINUOUS
 10
208.9626968736
 20
217.5478553086
 40
0.8000079371
 50
0.0005654993
 51
89.9994221015
  0
ARC
  8
13_KOMPONENTER
 62
7
  6
CONTINUOUS
 10
288.662704918
 20
217.6478632685
 40
0.7
 50
0.0
 51
90.0
  0
ARC
  8
13_KOMPONENTER
 62
7
  6
CONTINUOUS
 10
164.712704918
 20
222.3978632685
 40
0.25
 50
180.0
 51
270.0
  0
ARC
  8
13_KOMPONENTER
 62
7
  6
CONTINUOUS
 10
174.612704918
 20
222.3978632685
 40
0.25
 50
270.0
 51
360.0
  0
ARC
  8
13_KOMPONENTER
 62
7
  6
CONTINUOUS
 10
175.112704918
 20
222.3978632685
 40
0.25
 50
180.0
 51
270.0
  0
ARC
  8
13_KOMPONENTER
 62
7
  6
CONTINUOUS
 10
185.012704918
 20
222.3978632685
 40
0.25
 50
270.0
 51
360.0
  0
ARC
  8
13_KOMPONENTER
 62
7
  6
CONTINUOUS
 10
185.512704918
 20
222.3978632685
 40
0.25
 50
180.0
 51
270.0
  0
ARC
  8
13_KOMPONENTER
 62
7
  6
CONTINUOUS
 10
195.412704918
 20
222.3978632685
 40
0.25
 50
270.0
 51
360.0
  0
ARC
  8
13_KOMPONENTER
 62
7
  6
CONTINUOUS
 10
195.912704918
 20
222.3978632685
 40
0.25
 50
180.0
 51
270.0
  0
ARC
  8
13_KOMPONENTER
 62
7
  6
CONTINUOUS
 10
205.812704918
 20
222.3978632685
 40
0.25
 50
270.0
 51
360.0
  0
ARC
  8
13_KOMPONENTER
 62
7
  6
CONTINUOUS
 10
206.312704918
 20
222.3978632685
 40
0.25
 50
180.0
 51
270.0
  0
ARC
  8
13_KOMPONENTER
 62
7
  6
CONTINUOUS
 10
216.212704918
 20
222.3978632685
 40
0.25
 50
270.0
 51
360.0
  0
ARC
  8
13_KOMPONENTER
 62
7
  6
CONTINUOUS
 10
216.712704918
 20
222.3978632685
 40
0.25
 50
180.0
 51
270.0
  0
ARC
  8
13_KOMPONENTER
 62
7
  6
CONTINUOUS
 10
164.712704918
 20
231.6978632685
 40
0.25
 50
90.0
 51
180.0
  0
ARC
  8
13_KOMPONENTER
 62
7
  6
CONTINUOUS
 10
174.612704918
 20
231.6978632685
 40
0.25
 50
0.0
 51
90.0
  0
ARC
  8
13_KOMPONENTER
 62
7
  6
CONTINUOUS
 10
175.112704918
 20
231.6978632685
 40
0.25
 50
90.0
 51
180.0
  0
ARC
  8
13_KOMPONENTER
 62
7
  6
CONTINUOUS
 10
185.012704918
 20
231.6978632685
 40
0.25
 50
0.0
 51
90.0
  0
ARC
  8
13_KOMPONENTER
 62
7
  6
CONTINUOUS
 10
185.512704918
 20
231.6978632685
 40
0.25
 50
90.0
 51
180.0
  0
ARC
  8
13_KOMPONENTER
 62
7
  6
CONTINUOUS
 10
195.412704918
 20
231.6978632685
 40
0.25
 50
0.0
 51
90.0
  0
ARC
  8
13_KOMPONENTER
 62
7
  6
CONTINUOUS
 10
195.912704918
 20
231.6978632685
 40
0.25
 50
90.0
 51
180.0
  0
ARC
  8
13_KOMPONENTER
 62
7
  6
CONTINUOUS
 10
205.812704918
 20
231.6978632685
 40
0.25
 50
0.0
 51
90.0
  0
ARC
  8
13_KOMPONENTER
 62
7
  6
CONTINUOUS
 10
206.312704918
 20
231.6978632685
 40
0.25
 50
90.0
 51
180.0
  0
ARC
  8
13_KOMPONENTER
 62
7
  6
CONTINUOUS
 10
216.212704918
 20
231.6978632685
 40
0.25
 50
0.0
 51
90.0
  0
ARC
  8
13_KOMPONENTER
 62
7
  6
CONTINUOUS
 10
216.712704918
 20
231.6978632685
 40
0.25
 50
90.0
 51
180.0
  0
ARC
  8
13_KOMPONENTER
 62
7
  6
CONTINUOUS
 10
247.912704918
 20
222.3978632685
 40
0.25
 50
180.0
 51
270.0
  0
ARC
  8
13_KOMPONENTER
 62
7
  6
CONTINUOUS
 10
257.812704918
 20
222.3978632685
 40
0.25
 50
270.0
 51
360.0
  0
ARC
  8
13_KOMPONENTER
 62
7
  6
CONTINUOUS
 10
268.712704918
 20
222.3978632685
 40
0.25
 50
180.0
 51
270.0
  0
ARC
  8
13_KOMPONENTER
 62
7
  6
CONTINUOUS
 10
278.612704918
 20
222.3978632685
 40
0.25
 50
270.0
 51
307.0805409568
  0
ARC
  8
13_KOMPONENTER
 62
7
  6
CONTINUOUS
 10
237.512704918
 20
222.3978632685
 40
0.25
 50
180.0
 51
270.0
  0
ARC
  8
13_KOMPONENTER
 62
7
  6
CONTINUOUS
 10
247.412704918
 20
222.3978632685
 40
0.25
 50
270.0
 51
360.0
  0
ARC
  8
13_KOMPONENTER
 62
7
  6
CONTINUOUS
 10
258.312704918
 20
222.3978632685
 40
0.25
 50
180.0
 51
270.0
  0
ARC
  8
13_KOMPONENTER
 62
7
  6
CONTINUOUS
 10
268.212704918
 20
222.3978632685
 40
0.25
 50
270.0
 51
360.0
  0
ARC
  8
13_KOMPONENTER
 62
7
  6
CONTINUOUS
 10
227.112704918
 20
222.3978632685
 40
0.25
 50
180.0
 51
270.0
  0
ARC
  8
13_KOMPONENTER
 62
7
  6
CONTINUOUS
 10
237.012704918
 20
222.3978632685
 40
0.25
 50
270.0
 51
360.0
  0
ARC
  8
13_KOMPONENTER
 62
7
  6
CONTINUOUS
 10
226.612704918
 20
222.3978632685
 40
0.25
 50
270.0
 51
360.0
  0
ARC
  8
13_KOMPONENTER
 62
7
  6
CONTINUOUS
 10
247.912704918
 20
231.6978632685
 40
0.25
 50
90.0
 51
180.0
  0
ARC
  8
13_KOMPONENTER
 62
7
  6
CONTINUOUS
 10
237.512704918
 20
231.6978632685
 40
0.25
 50
90.0
 51
180.0
  0
ARC
  8
13_KOMPONENTER
 62
7
  6
CONTINUOUS
 10
247.412704918
 20
231.6978632685
 40
0.25
 50
0.0
 51
90.0
  0
ARC
  8
13_KOMPONENTER
 62
7
  6
CONTINUOUS
 10
227.112704918
 20
231.6978632685
 40
0.25
 50
90.0
 51
180.0
  0
ARC
  8
13_KOMPONENTER
 62
7
  6
CONTINUOUS
 10
237.012704918
 20
231.6978632685
 40
0.25
 50
0.0
 51
90.0
  0
ARC
  8
13_KOMPONENTER
 62
7
  6
CONTINUOUS
 10
226.612704918
 20
231.6978632685
 40
0.25
 50
0.0
 51
90.0
  0
ARC
  8
13_KOMPONENTER
 62
7
  6
CONTINUOUS
 10
284.772704918
 20
229.5478632685
 40
2.0
 50
0.0
 51
90.0
  0
ARC
  8
13_KOMPONENTER
 62
7
  6
CONTINUOUS
 10
279.772704918
 20
230.5478632685
 40
1.0
 50
90.0
 51
180.0
  0
ARC
  8
13_KOMPONENTER
 62
7
  6
CONTINUOUS
 10
257.812704918
 20
231.6978632685
 40
0.25
 50
0.0
 51
90.0
  0
ARC
  8
13_KOMPONENTER
 62
7
  6
CONTINUOUS
 10
268.712704918
 20
231.6978632685
 40
0.25
 50
90.0
 51
180.0
  0
ARC
  8
13_KOMPONENTER
 62
7
  6
CONTINUOUS
 10
278.612704918
 20
231.6978632685
 40
0.25
 50
0.0
 51
90.0
  0
ARC
  8
13_KOMPONENTER
 62
7
  6
CONTINUOUS
 10
258.312704918
 20
231.6978632685
 40
0.25
 50
90.0
 51
180.0
  0
ARC
  8
13_KOMPONENTER
 62
7
  6
CONTINUOUS
 10
268.212704918
 20
231.6978632685
 40
0.25
 50
0.0
 51
90.0
  0
ARC
  8
13_KOMPONENTER
 62
7
  6
CONTINUOUS
 10
44.952704918
 20
93.7188058198
 40
1.0
 50
270.0
 51
360.0
  0
ARC
  8
13_KOMPONENTER
 62
7
  6
CONTINUOUS
 10
36.062704918
 20
93.3688058198
 40
0.7
 50
180.0
 51
269.9999283325
  0
ARC
  8
13_KOMPONENTER
 62
7
  6
CONTINUOUS
 10
46.112704918
 20
93.3188058198
 40
0.25
 50
180.0
 51
270.0
  0
ARC
  8
13_KOMPONENTER
 62
7
  6
CONTINUOUS
 10
56.012704918
 20
93.3188058198
 40
0.25
 50
270.0
 51
360.0
  0
ARC
  8
13_KOMPONENTER
 62
7
  6
CONTINUOUS
 10
56.512704918
 20
93.3188058198
 40
0.25
 50
180.0
 51
270.0
  0
ARC
  8
13_KOMPONENTER
 62
7
  6
CONTINUOUS
 10
66.412704918
 20
93.3188058198
 40
0.25
 50
270.0
 51
360.0
  0
ARC
  8
13_KOMPONENTER
 62
7
  6
CONTINUOUS
 10
66.912704918
 20
93.3188058198
 40
0.25
 50
180.0
 51
270.0
  0
ARC
  8
13_KOMPONENTER
 62
7
  6
CONTINUOUS
 10
76.812704918
 20
93.3188058198
 40
0.25
 50
270.0
 51
360.0
  0
ARC
  8
13_KOMPONENTER
 62
7
  6
CONTINUOUS
 10
77.312704918
 20
93.3188058198
 40
0.25
 50
180.0
 51
270.0
  0
ARC
  8
13_KOMPONENTER
 62
7
  6
CONTINUOUS
 10
87.212704918
 20
93.3188058198
 40
0.25
 50
270.0
 51
360.0
  0
ARC
  8
13_KOMPONENTER
 62
7
  6
CONTINUOUS
 10
87.712704918
 20
93.3188058198
 40
0.25
 50
180.0
 51
270.0
  0
ARC
  8
13_KOMPONENTER
 62
7
  6
CONTINUOUS
 10
97.612704918
 20
93.3188058198
 40
0.25
 50
270.0
 51
360.0
  0
ARC
  8
13_KOMPONENTER
 62
7
  6
CONTINUOUS
 10
39.952704918
 20
94.7188058198
 40
2.0
 50
180.0
 51
270.0
  0
ARC
  8
13_KOMPONENTER
 62
7
  6
CONTINUOUS
 10
41.902704918
 20
97.9598312236
 40
0.5
 50
240.0
 51
360.0
  0
ARC
  8
13_KOMPONENTER
 62
8
  6
HIDDEN
 10
45.152704918
 20
99.4088058198
 40
0.3
 50
270.0
 51
360.0
  0
ARC
  8
13_KOMPONENTER
 62
8
  6
HIDDEN
 10
45.152704918
 20
99.6688058198
 40
0.3
 50
270.0
 51
360.0
  0
ARC
  8
13_KOMPONENTER
 62
8
  6
HIDDEN
 10
44.152704918
 20
99.6688058198
 40
0.3
 50
270.000000018
 51
360.0
  0
ARC
  8
13_KOMPONENTER
 62
8
  6
HIDDEN
 10
40.252704918
 20
99.4088058198
 40
0.3
 50
180.0
 51
270.0
  0
ARC
  8
13_KOMPONENTER
 62
8
  6
HIDDEN
 10
44.152704918
 20
99.4088058198
 40
0.3
 50
270.0
 51
360.0
  0
ARC
  8
13_KOMPONENTER
 62
7
  6
CONTINUOUS
 10
42.102704918
 20
97.4190845298
 40
0.3
 50
239.9986266983
 51
360.0
  0
ARC
  8
13_KOMPONENTER
 62
8
  6
HIDDEN
 10
46.112704918
 20
105.3188058198
 40
0.25
 50
180.0
 51
232.9194499104
  0
ARC
  8
13_KOMPONENTER
 62
8
  6
HIDDEN
 10
46.112704918
 20
102.6188058198
 40
0.25
 50
127.0805500896
 51
180.0
  0
ARC
  8
13_KOMPONENTER
 62
7
  6
CONTINUOUS
 10
46.112704918
 20
105.3188058198
 40
0.25
 50
232.9194499104
 51
270.0
  0
ARC
  8
13_KOMPONENTER
 62
7
  6
CONTINUOUS
 10
56.012704918
 20
105.3188058198
 40
0.25
 50
270.0
 51
360.0
  0
ARC
  8
13_KOMPONENTER
 62
7
  6
CONTINUOUS
 10
56.512704918
 20
105.3188058198
 40
0.25
 50
180.0
 51
270.0
  0
ARC
  8
13_KOMPONENTER
 62
7
  6
CONTINUOUS
 10
66.412704918
 20
105.3188058198
 40
0.25
 50
270.0
 51
360.0
  0
ARC
  8
13_KOMPONENTER
 62
7
  6
CONTINUOUS
 10
66.912704918
 20
105.3188058198
 40
0.25
 50
180.0
 51
270.0
  0
ARC
  8
13_KOMPONENTER
 62
7
  6
CONTINUOUS
 10
76.812704918
 20
105.3188058198
 40
0.25
 50
270.0
 51
360.0
  0
ARC
  8
13_KOMPONENTER
 62
7
  6
CONTINUOUS
 10
77.312704918
 20
105.3188058198
 40
0.25
 50
180.0
 51
270.0
  0
ARC
  8
13_KOMPONENTER
 62
7
  6
CONTINUOUS
 10
87.212704918
 20
105.3188058198
 40
0.25
 50
270.0
 51
360.0
  0
ARC
  8
13_KOMPONENTER
 62
7
  6
CONTINUOUS
 10
46.112704918
 20
102.6188058198
 40
0.25
 50
90.0
 51
127.0805500896
  0
ARC
  8
13_KOMPONENTER
 62
7
  6
CONTINUOUS
 10
56.012704918
 20
102.6188058198
 40
0.25
 50
0.0
 51
90.0
  0
ARC
  8
13_KOMPONENTER
 62
7
  6
CONTINUOUS
 10
56.512704918
 20
102.6188058198
 40
0.25
 50
90.0
 51
180.0
  0
ARC
  8
13_KOMPONENTER
 62
7
  6
CONTINUOUS
 10
66.412704918
 20
102.6188058198
 40
0.25
 50
0.0
 51
90.0
  0
ARC
  8
13_KOMPONENTER
 62
7
  6
CONTINUOUS
 10
66.912704918
 20
102.6188058198
 40
0.25
 50
90.0
 51
180.0
  0
ARC
  8
13_KOMPONENTER
 62
7
  6
CONTINUOUS
 10
76.812704918
 20
102.6188058198
 40
0.25
 50
0.0
 51
90.0
  0
ARC
  8
13_KOMPONENTER
 62
7
  6
CONTINUOUS
 10
77.312704918
 20
102.6188058198
 40
0.25
 50
90.0
 51
180.0
  0
ARC
  8
13_KOMPONENTER
 62
7
  6
CONTINUOUS
 10
87.212704918
 20
102.6188058198
 40
0.25
 50
0.0
 51
90.0
  0
ARC
  8
13_KOMPONENTER
 62
7
  6
CONTINUOUS
 10
87.712704918
 20
102.6188058198
 40
0.25
 50
90.0
 51
180.0
  0
ARC
  8
13_KOMPONENTER
 62
7
  6
CONTINUOUS
 10
97.612704918
 20
102.6188058198
 40
0.25
 50
0.0
 51
90.0
  0
ARC
  8
13_KOMPONENTER
 62
7
  6
CONTINUOUS
 10
87.712704918
 20
105.3188058198
 40
0.25
 50
180.0
 51
270.0
  0
ARC
  8
13_KOMPONENTER
 62
7
  6
CONTINUOUS
 10
97.612704918
 20
105.3188058198
 40
0.25
 50
270.0
 51
360.0
  0
ARC
  8
13_KOMPONENTER
 62
8
  6
HIDDEN
 10
146.262704918
 20
93.0688058198
 40
1.0
 50
0.0
 51
90.0
  0
ARC
  8
13_KOMPONENTER
 62
7
  6
CONTINUOUS
 10
146.262704918
 20
82.0688058198
 40
1.0
 50
270.0
 51
359.9999900822
  0
ARC
  8
13_KOMPONENTER
 62
7
  6
CONTINUOUS
 10
115.9626711646
 20
82.0687720663
 40
0.9999869797
 50
179.9981620676
 51
270.0018379325
  0
ARC
  8
13_KOMPONENTER
 62
7
  6
CONTINUOUS
 10
98.112704918
 20
93.3188058198
 40
0.25
 50
180.0
 51
270.0
  0
ARC
  8
13_KOMPONENTER
 62
7
  6
CONTINUOUS
 10
108.012704918
 20
93.3188058198
 40
0.25
 50
270.0
 51
360.0
  0
ARC
  8
13_KOMPONENTER
 62
7
  6
CONTINUOUS
 10
108.512704918
 20
93.3188058198
 40
0.25
 50
180.0
 51
270.0
  0
ARC
  8
13_KOMPONENTER
 62
7
  6
CONTINUOUS
 10
118.412704918
 20
93.3188058198
 40
0.25
 50
270.0
 51
360.0
  0
ARC
  8
13_KOMPONENTER
 62
7
  6
CONTINUOUS
 10
118.912704918
 20
93.3188058198
 40
0.25
 50
180.0
 51
270.0
  0
ARC
  8
13_KOMPONENTER
 62
7
  6
CONTINUOUS
 10
128.812704918
 20
93.3188058198
 40
0.25
 50
270.0
 51
360.0
  0
ARC
  8
13_KOMPONENTER
 62
7
  6
CONTINUOUS
 10
129.312704918
 20
93.3188058198
 40
0.25
 50
180.0
 51
270.0
  0
ARC
  8
13_KOMPONENTER
 62
7
  6
CONTINUOUS
 10
139.212704918
 20
93.3188058198
 40
0.25
 50
270.0
 51
360.0
  0
ARC
  8
13_KOMPONENTER
 62
7
  6
CONTINUOUS
 10
139.712704918
 20
93.3188058198
 40
0.25
 50
180.0
 51
270.0
  0
ARC
  8
13_KOMPONENTER
 62
7
  6
CONTINUOUS
 10
149.612704918
 20
93.3188058198
 40
0.25
 50
270.0
 51
360.0
  0
ARC
  8
13_KOMPONENTER
 62
7
  6
CONTINUOUS
 10
150.112704918
 20
93.3188058198
 40
0.25
 50
180.0
 51
270.0
  0
ARC
  8
13_KOMPONENTER
 62
7
  6
CONTINUOUS
 10
160.012704918
 20
93.3188058198
 40
0.25
 50
270.0
 51
360.0
  0
ARC
  8
13_KOMPONENTER
 62
8
  6
HIDDEN
 10
120.4005903476
 20
95.0688027923
 40
0.9999995963
 50
193.4892345671
 51
269.9999583895
  0
CIRCLE
  8
13_KOMPONENTER
 62
8
  6
HIDDEN
 10
150.142704918
 20
105.0438058198
 40
0.765
  0
ARC
  8
13_KOMPONENTER
 62
8
  6
HIDDEN
 10
151.582704918
 20
106.0188058198
 40
0.6
 50
180.0
 51
270.0
  0
ARC
  8
13_KOMPONENTER
 62
8
  6
HIDDEN
 10
151.524579918
 20
106.1688058198
 40
0.541875
 50
123.8550261283
 51
180.0
  0
ARC
  8
13_KOMPONENTER
 62
8
  6
HIDDEN
 10
151.702704918
 20
106.3188058198
 40
0.3
 50
90.0
 51
180.0
  0
ARC
  8
13_KOMPONENTER
 62
7
  6
CONTINUOUS
 10
98.112704918
 20
105.3188058198
 40
0.25
 50
180.0
 51
270.0
  0
ARC
  8
13_KOMPONENTER
 62
7
  6
CONTINUOUS
 10
108.012704918
 20
105.3188058198
 40
0.25
 50
270.0
 51
360.0
  0
ARC
  8
13_KOMPONENTER
 62
7
  6
CONTINUOUS
 10
98.112704918
 20
102.6188058198
 40
0.25
 50
90.0
 51
180.0
  0
ARC
  8
13_KOMPONENTER
 62
7
  6
CONTINUOUS
 10
108.012704918
 20
102.6188058198
 40
0.25
 50
0.0
 51
90.0
  0
ARC
  8
13_KOMPONENTER
 62
7
  6
CONTINUOUS
 10
108.512704918
 20
102.6188058198
 40
0.25
 50
90.0
 51
180.0
  0
ARC
  8
13_KOMPONENTER
 62
7
  6
CONTINUOUS
 10
118.412704918
 20
102.6188058198
 40
0.25
 50
0.0
 51
90.0
  0
ARC
  8
13_KOMPONENTER
 62
7
  6
CONTINUOUS
 10
118.912704918
 20
102.6188058198
 40
0.25
 50
90.0
 51
180.0
  0
ARC
  8
13_KOMPONENTER
 62
7
  6
CONTINUOUS
 10
128.812704918
 20
102.6188058198
 40
0.25
 50
0.0
 51
90.0
  0
ARC
  8
13_KOMPONENTER
 62
7
  6
CONTINUOUS
 10
129.312704918
 20
102.6188058198
 40
0.25
 50
90.0
 51
180.0
  0
ARC
  8
13_KOMPONENTER
 62
7
  6
CONTINUOUS
 10
139.212704918
 20
102.6188058198
 40
0.25
 50
0.0
 51
90.0
  0
ARC
  8
13_KOMPONENTER
 62
7
  6
CONTINUOUS
 10
139.712704918
 20
102.6188058198
 40
0.25
 50
90.0
 51
180.0
  0
ARC
  8
13_KOMPONENTER
 62
7
  6
CONTINUOUS
 10
149.612704918
 20
102.6188058198
 40
0.25
 50
0.0
 51
90.0
  0
ARC
  8
13_KOMPONENTER
 62
7
  6
CONTINUOUS
 10
150.112704918
 20
102.6188058198
 40
0.25
 50
90.0
 51
180.0
  0
ARC
  8
13_KOMPONENTER
 62
7
  6
CONTINUOUS
 10
160.012704918
 20
102.6188058198
 40
0.25
 50
0.0
 51
90.0
  0
ARC
  8
13_KOMPONENTER
 62
7
  6
CONTINUOUS
 10
108.512704918
 20
105.3188058198
 40
0.25
 50
180.0
 51
270.0
  0
ARC
  8
13_KOMPONENTER
 62
7
  6
CONTINUOUS
 10
118.412704918
 20
105.3188058198
 40
0.25
 50
270.0
 51
360.0
  0
ARC
  8
13_KOMPONENTER
 62
7
  6
CONTINUOUS
 10
118.912704918
 20
105.3188058198
 40
0.25
 50
180.0
 51
270.0
  0
ARC
  8
13_KOMPONENTER
 62
7
  6
CONTINUOUS
 10
128.812704918
 20
105.3188058198
 40
0.25
 50
270.0
 51
360.0
  0
ARC
  8
13_KOMPONENTER
 62
7
  6
CONTINUOUS
 10
129.312704918
 20
105.3188058198
 40
0.25
 50
180.0
 51
270.0
  0
ARC
  8
13_KOMPONENTER
 62
7
  6
CONTINUOUS
 10
139.212704918
 20
105.3188058198
 40
0.25
 50
270.0
 51
360.0
  0
ARC
  8
13_KOMPONENTER
 62
7
  6
CONTINUOUS
 10
139.712704918
 20
105.3188058198
 40
0.25
 50
180.0
 51
270.0
  0
ARC
  8
13_KOMPONENTER
 62
7
  6
CONTINUOUS
 10
149.612704918
 20
105.3188058198
 40
0.25
 50
270.0
 51
360.0
  0
ARC
  8
13_KOMPONENTER
 62
7
  6
CONTINUOUS
 10
150.112704918
 20
105.3188058198
 40
0.25
 50
180.0
 51
270.0
  0
ARC
  8
13_KOMPONENTER
 62
7
  6
CONTINUOUS
 10
160.012704918
 20
105.3188058198
 40
0.25
 50
270.0
 51
360.0
  0
ARC
  8
13_KOMPONENTER
 62
8
  6
HIDDEN
 10
151.552704918
 20
106.0788058198
 40
0.15
 50
180.0
 51
270.0
  0
ARC
  8
13_KOMPONENTER
 62
8
  6
HIDDEN
 10
46.112704918
 20
114.6188058198
 40
0.25
 50
127.0805500896
 51
180.0
  0
ARC
  8
13_KOMPONENTER
 62
8
  6
HIDDEN
 10
46.112704918
 20
117.3188058198
 40
0.25
 50
180.0
 51
232.9194499104
  0
ARC
  8
13_KOMPONENTER
 62
7
  6
CONTINUOUS
 10
46.112704918
 20
114.6188058198
 40
0.25
 50
90.0
 51
127.0805500896
  0
ARC
  8
13_KOMPONENTER
 62
7
  6
CONTINUOUS
 10
56.012704918
 20
114.6188058198
 40
0.25
 50
0.0
 51
90.0
  0
ARC
  8
13_KOMPONENTER
 62
7
  6
CONTINUOUS
 10
56.512704918
 20
114.6188058198
 40
0.25
 50
90.0
 51
180.0
  0
ARC
  8
13_KOMPONENTER
 62
7
  6
CONTINUOUS
 10
66.412704918
 20
114.6188058198
 40
0.25
 50
0.0
 51
90.0
  0
ARC
  8
13_KOMPONENTER
 62
7
  6
CONTINUOUS
 10
66.912704918
 20
114.6188058198
 40
0.25
 50
90.0
 51
180.0
  0
ARC
  8
13_KOMPONENTER
 62
7
  6
CONTINUOUS
 10
76.812704918
 20
114.6188058198
 40
0.25
 50
0.0
 51
90.0
  0
ARC
  8
13_KOMPONENTER
 62
7
  6
CONTINUOUS
 10
77.312704918
 20
114.6188058198
 40
0.25
 50
90.0
 51
180.0
  0
ARC
  8
13_KOMPONENTER
 62
7
  6
CONTINUOUS
 10
87.212704918
 20
114.6188058198
 40
0.25
 50
0.0
 51
90.0
  0
ARC
  8
13_KOMPONENTER
 62
7
  6
CONTINUOUS
 10
87.712704918
 20
114.6188058198
 40
0.25
 50
90.0
 51
180.0
  0
ARC
  8
13_KOMPONENTER
 62
7
  6
CONTINUOUS
 10
97.612704918
 20
114.6188058198
 40
0.25
 50
0.0
 51
90.0
  0
ARC
  8
13_KOMPONENTER
 62
7
  6
CONTINUOUS
 10
46.112704918
 20
117.3188058198
 40
0.25
 50
232.9194499104
 51
270.0
  0
ARC
  8
13_KOMPONENTER
 62
7
  6
CONTINUOUS
 10
56.012704918
 20
117.3188058198
 40
0.25
 50
270.0
 51
360.0
  0
ARC
  8
13_KOMPONENTER
 62
7
  6
CONTINUOUS
 10
56.512704918
 20
117.3188058198
 40
0.25
 50
180.0
 51
270.0
  0
ARC
  8
13_KOMPONENTER
 62
7
  6
CONTINUOUS
 10
66.412704918
 20
117.3188058198
 40
0.25
 50
270.0
 51
360.0
  0
ARC
  8
13_KOMPONENTER
 62
7
  6
CONTINUOUS
 10
66.912704918
 20
117.3188058198
 40
0.25
 50
180.0
 51
270.0
  0
ARC
  8
13_KOMPONENTER
 62
7
  6
CONTINUOUS
 10
76.812704918
 20
117.3188058198
 40
0.25
 50
270.0
 51
360.0
  0
ARC
  8
13_KOMPONENTER
 62
7
  6
CONTINUOUS
 10
77.312704918
 20
117.3188058198
 40
0.25
 50
180.0
 51
270.0
  0
ARC
  8
13_KOMPONENTER
 62
7
  6
CONTINUOUS
 10
87.212704918
 20
117.3188058198
 40
0.25
 50
270.0
 51
360.0
  0
ARC
  8
13_KOMPONENTER
 62
7
  6
CONTINUOUS
 10
87.712704918
 20
117.3188058198
 40
0.25
 50
180.0
 51
270.0
  0
ARC
  8
13_KOMPONENTER
 62
7
  6
CONTINUOUS
 10
97.612704918
 20
117.3188058198
 40
0.25
 50
270.0
 51
360.0
  0
ARC
  8
13_KOMPONENTER
 62
7
  6
CONTINUOUS
 10
39.952704918
 20
125.2188058198
 40
2.0
 50
90.0
 51
180.0
  0
ARC
  8
13_KOMPONENTER
 62
7
  6
CONTINUOUS
 10
41.902704918
 20
121.977780416
 40
0.5
 50
0.0
 51
120.0
  0
ARC
  8
13_KOMPONENTER
 62
8
  6
HIDDEN
 10
45.152704918
 20
120.5188058198
 40
0.3
 50
0.0
 51
90.0
  0
ARC
  8
13_KOMPONENTER
 62
8
  6
HIDDEN
 10
45.152704918
 20
120.2688058198
 40
0.3
 50
0.0
 51
90.0
  0
ARC
  8
13_KOMPONENTER
 62
8
  6
HIDDEN
 10
44.152704918
 20
120.2688058198
 40
0.3
 50
0.0
 51
89.9999999937
  0
ARC
  8
13_KOMPONENTER
 62
8
  6
HIDDEN
 10
40.252704918
 20
120.5188058198
 40
0.3
 50
90.0
 51
180.0
  0
ARC
  8
13_KOMPONENTER
 62
8
  6
HIDDEN
 10
44.152704918
 20
120.5188058198
 40
0.3
 50
0.0
 51
90.0
  0
ARC
  8
13_KOMPONENTER
 62
7
  6
CONTINUOUS
 10
42.102704918
 20
122.5185271098
 40
0.3
 50
0.0
 51
120.0013733017
  0
ARC
  8
13_KOMPONENTER
 62
8
  6
HIDDEN
 10
44.952704918
 20
126.2188058198
 40
1.0
 50
0.0
 51
21.3719043902
  0
ARC
  8
13_KOMPONENTER
 62
7
  6
CONTINUOUS
 10
44.952704918
 20
126.2188058198
 40
1.0
 50
21.3719043902
 51
90.0
  0
ARC
  8
13_KOMPONENTER
 62
7
  6
CONTINUOUS
 10
36.062704918
 20
130.2188058198
 40
0.7
 50
90.0
 51
180.0
  0
ARC
  8
13_KOMPONENTER
 62
7
  6
CONTINUOUS
 10
46.112704918
 20
126.6188058198
 40
0.25
 50
90.0
 51
180.0
  0
ARC
  8
13_KOMPONENTER
 62
7
  6
CONTINUOUS
 10
56.012704918
 20
126.6188058198
 40
0.25
 50
0.0
 51
90.0
  0
ARC
  8
13_KOMPONENTER
 62
7
  6
CONTINUOUS
 10
56.512704918
 20
126.6188058198
 40
0.25
 50
90.0
 51
180.0
  0
ARC
  8
13_KOMPONENTER
 62
7
  6
CONTINUOUS
 10
66.412704918
 20
126.6188058198
 40
0.25
 50
0.0
 51
90.0
  0
ARC
  8
13_KOMPONENTER
 62
7
  6
CONTINUOUS
 10
94.9124465016
 20
131.3690642363
 40
0.7999075342
 50
89.9816956166
 51
180.0183044077
  0
ARC
  8
13_KOMPONENTER
 62
7
  6
CONTINUOUS
 10
66.912704918
 20
126.6188058198
 40
0.25
 50
90.0
 51
180.0
  0
ARC
  8
13_KOMPONENTER
 62
7
  6
CONTINUOUS
 10
76.812704918
 20
126.6188058198
 40
0.25
 50
0.0
 51
90.0
  0
ARC
  8
13_KOMPONENTER
 62
7
  6
CONTINUOUS
 10
77.312704918
 20
126.6188058198
 40
0.25
 50
90.0
 51
180.0
  0
ARC
  8
13_KOMPONENTER
 62
7
  6
CONTINUOUS
 10
87.212704918
 20
126.6188058198
 40
0.25
 50
0.0
 51
90.0
  0
ARC
  8
13_KOMPONENTER
 62
7
  6
CONTINUOUS
 10
87.712704918
 20
126.6188058198
 40
0.25
 50
90.0
 51
180.0
  0
ARC
  8
13_KOMPONENTER
 62
7
  6
CONTINUOUS
 10
97.612704918
 20
126.6188058198
 40
0.25
 50
0.0
 51
90.0
  0
ARC
  8
13_KOMPONENTER
 62
8
  6
HIDDEN
 10
108.7284908121
 20
118.2188077082
 40
0.9499997592
 50
13.4892958251
 51
89.999972679
  0
ARC
  8
13_KOMPONENTER
 62
8
  6
HIDDEN
 10
151.762704918
 20
108.3588058198
 40
0.6
 50
0.0
 51
90.0
  0
ARC
  8
13_KOMPONENTER
 62
8
  6
HIDDEN
 10
151.820829918
 20
108.2088058198
 40
0.541875
 50
303.8550261283
 51
360.0
  0
ARC
  8
13_KOMPONENTER
 62
8
  6
HIDDEN
 10
151.642704918
 20
108.0588058198
 40
0.3
 50
270.0
 51
360.0
  0
ARC
  8
13_KOMPONENTER
 62
7
  6
CONTINUOUS
 10
98.112704918
 20
114.6188058198
 40
0.25
 50
90.0
 51
180.0
  0
ARC
  8
13_KOMPONENTER
 62
7
  6
CONTINUOUS
 10
108.012704918
 20
114.6188058198
 40
0.25
 50
0.0
 51
90.0
  0
ARC
  8
13_KOMPONENTER
 62
7
  6
CONTINUOUS
 10
98.112704918
 20
117.3188058198
 40
0.25
 50
180.0
 51
270.0
  0
ARC
  8
13_KOMPONENTER
 62
7
  6
CONTINUOUS
 10
108.012704918
 20
117.3188058198
 40
0.25
 50
270.0
 51
360.0
  0
ARC
  8
13_KOMPONENTER
 62
7
  6
CONTINUOUS
 10
108.512704918
 20
117.3188058198
 40
0.25
 50
180.0
 51
270.0
  0
ARC
  8
13_KOMPONENTER
 62
7
  6
CONTINUOUS
 10
118.412704918
 20
117.3188058198
 40
0.25
 50
270.0
 51
360.0
  0
ARC
  8
13_KOMPONENTER
 62
7
  6
CONTINUOUS
 10
118.912704918
 20
117.3188058198
 40
0.25
 50
180.0
 51
270.0
  0
ARC
  8
13_KOMPONENTER
 62
7
  6
CONTINUOUS
 10
128.812704918
 20
117.3188058198
 40
0.25
 50
270.0
 51
360.0
  0
ARC
  8
13_KOMPONENTER
 62
7
  6
CONTINUOUS
 10
129.312704918
 20
117.3188058198
 40
0.25
 50
180.0
 51
270.0
  0
ARC
  8
13_KOMPONENTER
 62
7
  6
CONTINUOUS
 10
139.212704918
 20
117.3188058198
 40
0.25
 50
270.0
 51
360.0
  0
ARC
  8
13_KOMPONENTER
 62
7
  6
CONTINUOUS
 10
139.712704918
 20
117.3188058198
 40
0.25
 50
180.0
 51
270.0
  0
ARC
  8
13_KOMPONENTER
 62
7
  6
CONTINUOUS
 10
149.612704918
 20
117.3188058198
 40
0.25
 50
270.0
 51
360.0
  0
ARC
  8
13_KOMPONENTER
 62
7
  6
CONTINUOUS
 10
150.112704918
 20
117.3188058198
 40
0.25
 50
180.0
 51
270.0
  0
ARC
  8
13_KOMPONENTER
 62
7
  6
CONTINUOUS
 10
160.012704918
 20
117.3188058198
 40
0.25
 50
270.0
 51
360.0
  0
ARC
  8
13_KOMPONENTER
 62
7
  6
CONTINUOUS
 10
108.512704918
 20
114.6188058198
 40
0.25
 50
90.0
 51
180.0
  0
ARC
  8
13_KOMPONENTER
 62
7
  6
CONTINUOUS
 10
118.412704918
 20
114.6188058198
 40
0.25
 50
0.0
 51
90.0
  0
ARC
  8
13_KOMPONENTER
 62
7
  6
CONTINUOUS
 10
118.912704918
 20
114.6188058198
 40
0.25
 50
90.0
 51
180.0
  0
ARC
  8
13_KOMPONENTER
 62
7
  6
CONTINUOUS
 10
128.812704918
 20
114.6188058198
 40
0.25
 50
0.0
 51
90.0
  0
ARC
  8
13_KOMPONENTER
 62
7
  6
CONTINUOUS
 10
129.312704918
 20
114.6188058198
 40
0.25
 50
90.0
 51
180.0
  0
ARC
  8
13_KOMPONENTER
 62
7
  6
CONTINUOUS
 10
139.212704918
 20
114.6188058198
 40
0.25
 50
0.0
 51
90.0
  0
ARC
  8
13_KOMPONENTER
 62
7
  6
CONTINUOUS
 10
139.712704918
 20
114.6188058198
 40
0.25
 50
90.0
 51
180.0
  0
ARC
  8
13_KOMPONENTER
 62
7
  6
CONTINUOUS
 10
149.612704918
 20
114.6188058198
 40
0.25
 50
0.0
 51
90.0
  0
ARC
  8
13_KOMPONENTER
 62
7
  6
CONTINUOUS
 10
150.112704918
 20
114.6188058198
 40
0.25
 50
90.0
 51
180.0
  0
ARC
  8
13_KOMPONENTER
 62
7
  6
CONTINUOUS
 10
160.012704918
 20
114.6188058198
 40
0.25
 50
0.0
 51
90.0
  0
ARC
  8
13_KOMPONENTER
 62
8
  6
HIDDEN
 10
151.792704918
 20
108.2988058198
 40
0.15
 50
0.0
 51
90.0
  0
ARC
  8
13_KOMPONENTER
 62
7
  6
CONTINUOUS
 10
113.51269549
 20
131.4187965749
 40
0.7500094865
 50
0.0007144394
 51
89.9992805395
  0
ARC
  8
13_KOMPONENTER
 62
7
  6
CONTINUOUS
 10
148.7127050237
 20
131.4188057142
 40
0.7500001056
 50
90.0000000024
 51
179.9999999976
  0
ARC
  8
13_KOMPONENTER
 62
8
  6
HIDDEN
 10
159.862704918
 20
131.9188058198
 40
0.5
 50
180.0
 51
270.0
  0
ARC
  8
13_KOMPONENTER
 62
8
  6
HIDDEN
 10
159.862704918
 20
128.6188058198
 40
0.5
 50
90.0
 51
180.0
  0
ARC
  8
13_KOMPONENTER
 62
8
  6
HIDDEN
 10
159.862704918
 20
127.1188058198
 40
0.5
 50
180.0
 51
270.0
  0
ARC
  8
13_KOMPONENTER
 62
7
  6
CONTINUOUS
 10
98.112704918
 20
126.6188058198
 40
0.25
 50
90.0
 51
180.0
  0
ARC
  8
13_KOMPONENTER
 62
7
  6
CONTINUOUS
 10
108.012704918
 20
126.6188058198
 40
0.25
 50
0.0
 51
90.0
  0
ARC
  8
13_KOMPONENTER
 62
7
  6
CONTINUOUS
 10
108.512704918
 20
126.6188058198
 40
0.25
 50
90.0
 51
180.0
  0
ARC
  8
13_KOMPONENTER
 62
7
  6
CONTINUOUS
 10
118.412704918
 20
126.6188058198
 40
0.25
 50
0.0
 51
90.0
  0
ARC
  8
13_KOMPONENTER
 62
7
  6
CONTINUOUS
 10
118.912704918
 20
126.6188058198
 40
0.25
 50
90.0
 51
180.0
  0
ARC
  8
13_KOMPONENTER
 62
7
  6
CONTINUOUS
 10
128.812704918
 20
126.6188058198
 40
0.25
 50
0.0
 51
90.0
  0
ARC
  8
13_KOMPONENTER
 62
7
  6
CONTINUOUS
 10
129.312704918
 20
126.6188058198
 40
0.25
 50
90.0
 51
180.0
  0
ARC
  8
13_KOMPONENTER
 62
7
  6
CONTINUOUS
 10
139.212704918
 20
126.6188058198
 40
0.25
 50
0.0
 51
90.0
  0
ARC
  8
13_KOMPONENTER
 62
7
  6
CONTINUOUS
 10
139.712704918
 20
126.6188058198
 40
0.25
 50
90.0
 51
180.0
  0
ARC
  8
13_KOMPONENTER
 62
7
  6
CONTINUOUS
 10
149.612704918
 20
126.6188058198
 40
0.25
 50
0.0
 51
90.0
  0
ARC
  8
13_KOMPONENTER
 62
7
  6
CONTINUOUS
 10
150.112704918
 20
126.6188058198
 40
0.25
 50
90.0
 51
180.0
  0
ARC
  8
13_KOMPONENTER
 62
7
  6
CONTINUOUS
 10
160.012704918
 20
126.6188058198
 40
0.25
 50
0.0
 51
90.0
  0
ARC
  8
13_KOMPONENTER
 62
8
  6
HIDDEN
 10
178.462704918
 20
93.0688058198
 40
1.0
 50
90.0
 51
180.0
  0
ARC
  8
13_KOMPONENTER
 62
7
  6
CONTINUOUS
 10
178.462704918
 20
82.0688058198
 40
1.0
 50
180.0000099178
 51
270.0
  0
ARC
  8
13_KOMPONENTER
 62
7
  6
CONTINUOUS
 10
208.7627386715
 20
82.0687720663
 40
0.9999869797
 50
269.9981620675
 51
0.0018379324
  0
ARC
  8
13_KOMPONENTER
 62
7
  6
CONTINUOUS
 10
206.312704918
 20
93.3188058198
 40
0.25
 50
180.0
 51
270.0
  0
ARC
  8
13_KOMPONENTER
 62
7
  6
CONTINUOUS
 10
216.212704918
 20
93.3188058198
 40
0.25
 50
270.0
 51
360.0
  0
ARC
  8
13_KOMPONENTER
 62
7
  6
CONTINUOUS
 10
195.912704918
 20
93.3188058198
 40
0.25
 50
180.0
 51
270.0
  0
ARC
  8
13_KOMPONENTER
 62
7
  6
CONTINUOUS
 10
205.812704918
 20
93.3188058198
 40
0.25
 50
270.0
 51
360.0
  0
ARC
  8
13_KOMPONENTER
 62
7
  6
CONTINUOUS
 10
185.512704918
 20
93.3188058198
 40
0.25
 50
180.0
 51
270.0
  0
ARC
  8
13_KOMPONENTER
 62
7
  6
CONTINUOUS
 10
195.412704918
 20
93.3188058198
 40
0.25
 50
270.0
 51
360.0
  0
ARC
  8
13_KOMPONENTER
 62
7
  6
CONTINUOUS
 10
175.112704918
 20
93.3188058198
 40
0.25
 50
180.0
 51
270.0
  0
ARC
  8
13_KOMPONENTER
 62
7
  6
CONTINUOUS
 10
185.012704918
 20
93.3188058198
 40
0.25
 50
270.0
 51
360.0
  0
ARC
  8
13_KOMPONENTER
 62
7
  6
CONTINUOUS
 10
164.712704918
 20
93.3188058198
 40
0.25
 50
180.0
 51
270.0
  0
ARC
  8
13_KOMPONENTER
 62
7
  6
CONTINUOUS
 10
174.612704918
 20
93.3188058198
 40
0.25
 50
270.0
 51
360.0
  0
ARC
  8
13_KOMPONENTER
 62
7
  6
CONTINUOUS
 10
216.712704918
 20
93.3188058198
 40
0.25
 50
180.0
 51
270.0
  0
ARC
  8
13_KOMPONENTER
 62
7
  6
CONTINUOUS
 10
226.612704918
 20
93.3188058198
 40
0.25
 50
270.0
 51
360.0
  0
ARC
  8
13_KOMPONENTER
 62
8
  6
HIDDEN
 10
204.3248194884
 20
95.0688027923
 40
0.9999995963
 50
270.0000416105
 51
346.5107654329
  0
ARC
  8
13_KOMPONENTER
 62
7
  6
CONTINUOUS
 10
185.512704918
 20
105.3188058198
 40
0.25
 50
180.0
 51
270.0
  0
ARC
  8
13_KOMPONENTER
 62
7
  6
CONTINUOUS
 10
195.412704918
 20
105.3188058198
 40
0.25
 50
270.0
 51
360.0
  0
ARC
  8
13_KOMPONENTER
 62
7
  6
CONTINUOUS
 10
195.912704918
 20
105.3188058198
 40
0.25
 50
180.0
 51
270.0
  0
ARC
  8
13_KOMPONENTER
 62
7
  6
CONTINUOUS
 10
205.812704918
 20
105.3188058198
 40
0.25
 50
270.0
 51
360.0
  0
ARC
  8
13_KOMPONENTER
 62
7
  6
CONTINUOUS
 10
206.312704918
 20
105.3188058198
 40
0.25
 50
180.0
 51
270.0
  0
ARC
  8
13_KOMPONENTER
 62
7
  6
CONTINUOUS
 10
216.212704918
 20
105.3188058198
 40
0.25
 50
270.0
 51
360.0
  0
ARC
  8
13_KOMPONENTER
 62
7
  6
CONTINUOUS
 10
175.112704918
 20
105.3188058198
 40
0.25
 50
180.0
 51
270.0
  0
ARC
  8
13_KOMPONENTER
 62
7
  6
CONTINUOUS
 10
185.012704918
 20
105.3188058198
 40
0.25
 50
270.0
 51
360.0
  0
ARC
  8
13_KOMPONENTER
 62
7
  6
CONTINUOUS
 10
164.712704918
 20
105.3188058198
 40
0.25
 50
180.0
 51
270.0
  0
ARC
  8
13_KOMPONENTER
 62
7
  6
CONTINUOUS
 10
174.612704918
 20
105.3188058198
 40
0.25
 50
270.0
 51
360.0
  0
ARC
  8
13_KOMPONENTER
 62
7
  6
CONTINUOUS
 10
206.312704918
 20
102.6188058198
 40
0.25
 50
90.0
 51
180.0
  0
ARC
  8
13_KOMPONENTER
 62
7
  6
CONTINUOUS
 10
216.212704918
 20
102.6188058198
 40
0.25
 50
0.0
 51
90.0
  0
ARC
  8
13_KOMPONENTER
 62
7
  6
CONTINUOUS
 10
195.912704918
 20
102.6188058198
 40
0.25
 50
90.0
 51
180.0
  0
ARC
  8
13_KOMPONENTER
 62
7
  6
CONTINUOUS
 10
205.812704918
 20
102.6188058198
 40
0.25
 50
0.0
 51
90.0
  0
ARC
  8
13_KOMPONENTER
 62
7
  6
CONTINUOUS
 10
185.512704918
 20
102.6188058198
 40
0.25
 50
90.0
 51
180.0
  0
ARC
  8
13_KOMPONENTER
 62
7
  6
CONTINUOUS
 10
195.412704918
 20
102.6188058198
 40
0.25
 50
0.0
 51
90.0
  0
ARC
  8
13_KOMPONENTER
 62
7
  6
CONTINUOUS
 10
175.112704918
 20
102.6188058198
 40
0.25
 50
90.0
 51
180.0
  0
ARC
  8
13_KOMPONENTER
 62
7
  6
CONTINUOUS
 10
185.012704918
 20
102.6188058198
 40
0.25
 50
0.0
 51
90.0
  0
ARC
  8
13_KOMPONENTER
 62
7
  6
CONTINUOUS
 10
164.712704918
 20
102.6188058198
 40
0.25
 50
90.0
 51
180.0
  0
ARC
  8
13_KOMPONENTER
 62
7
  6
CONTINUOUS
 10
174.612704918
 20
102.6188058198
 40
0.25
 50
0.0
 51
90.0
  0
ARC
  8
13_KOMPONENTER
 62
7
  6
CONTINUOUS
 10
216.712704918
 20
102.6188058198
 40
0.25
 50
90.0
 51
180.0
  0
ARC
  8
13_KOMPONENTER
 62
7
  6
CONTINUOUS
 10
226.612704918
 20
102.6188058198
 40
0.25
 50
0.0
 51
90.0
  0
ARC
  8
13_KOMPONENTER
 62
7
  6
CONTINUOUS
 10
216.712704918
 20
105.3188058198
 40
0.25
 50
180.0
 51
270.0
  0
ARC
  8
13_KOMPONENTER
 62
7
  6
CONTINUOUS
 10
226.612704918
 20
105.3188058198
 40
0.25
 50
270.0
 51
360.0
  0
ARC
  8
13_KOMPONENTER
 62
7
  6
CONTINUOUS
 10
288.662704918
 20
93.3688058198
 40
0.7
 50
270.0000716675
 51
360.0
  0
ARC
  8
13_KOMPONENTER
 62
7
  6
CONTINUOUS
 10
237.512704918
 20
93.3188058198
 40
0.25
 50
180.0
 51
270.0
  0
ARC
  8
13_KOMPONENTER
 62
7
  6
CONTINUOUS
 10
247.412704918
 20
93.3188058198
 40
0.25
 50
270.0
 51
360.0
  0
ARC
  8
13_KOMPONENTER
 62
7
  6
CONTINUOUS
 10
247.912704918
 20
93.3188058198
 40
0.25
 50
180.0
 51
270.0
  0
ARC
  8
13_KOMPONENTER
 62
7
  6
CONTINUOUS
 10
257.812704918
 20
93.3188058198
 40
0.25
 50
270.0
 51
360.0
  0
ARC
  8
13_KOMPONENTER
 62
7
  6
CONTINUOUS
 10
268.712704918
 20
93.3188058198
 40
0.25
 50
180.0
 51
270.0
  0
ARC
  8
13_KOMPONENTER
 62
7
  6
CONTINUOUS
 10
278.612704918
 20
93.3188058198
 40
0.25
 50
270.0
 51
360.0
  0
ARC
  8
13_KOMPONENTER
 62
7
  6
CONTINUOUS
 10
258.312704918
 20
93.3188058198
 40
0.25
 50
180.0
 51
270.0
  0
ARC
  8
13_KOMPONENTER
 62
7
  6
CONTINUOUS
 10
268.212704918
 20
93.3188058198
 40
0.25
 50
270.0
 51
360.0
  0
ARC
  8
13_KOMPONENTER
 62
7
  6
CONTINUOUS
 10
227.112704918
 20
93.3188058198
 40
0.25
 50
180.0
 51
270.0
  0
ARC
  8
13_KOMPONENTER
 62
7
  6
CONTINUOUS
 10
237.012704918
 20
93.3188058198
 40
0.25
 50
270.0
 51
360.0
  0
ARC
  8
13_KOMPONENTER
 62
7
  6
CONTINUOUS
 10
284.772704918
 20
94.7088058198
 40
2.0
 50
270.0
 51
360.0
  0
ARC
  8
13_KOMPONENTER
 62
8
  6
HIDDEN
 10
279.772704918
 20
93.7088058198
 40
1.0
 50
180.0
 51
200.9230526522
  0
ARC
  8
13_KOMPONENTER
 62
7
  6
CONTINUOUS
 10
279.772704918
 20
93.7088058198
 40
1.0
 50
200.9230526522
 51
270.0
  0
ARC
  8
13_KOMPONENTER
 62
7
  6
CONTINUOUS
 10
282.822704918
 20
97.9498312236
 40
0.5
 50
180.0
 51
300.0
  0
ARC
  8
13_KOMPONENTER
 62
8
  6
HIDDEN
 10
279.572704918
 20
99.4088058198
 40
0.3
 50
180.0
 51
270.0
  0
ARC
  8
13_KOMPONENTER
 62
8
  6
HIDDEN
 10
279.572704918
 20
99.6588058198
 40
0.3
 50
180.0
 51
270.0
  0
ARC
  8
13_KOMPONENTER
 62
8
  6
HIDDEN
 10
280.572704918
 20
99.6588058198
 40
0.3
 50
180.0
 51
269.9999999937
  0
ARC
  8
13_KOMPONENTER
 62
8
  6
HIDDEN
 10
284.472704918
 20
99.4088058198
 40
0.3
 50
270.0
 51
360.0
  0
ARC
  8
13_KOMPONENTER
 62
8
  6
HIDDEN
 10
280.572704918
 20
99.4088058198
 40
0.3
 50
180.0
 51
270.0
  0
ARC
  8
13_KOMPONENTER
 62
7
  6
CONTINUOUS
 10
282.622704918
 20
97.4090845298
 40
0.3
 50
180.0
 51
300.0013733017
  0
ARC
  8
13_KOMPONENTER
 62
8
  6
HIDDEN
 10
278.612704918
 20
105.3188058198
 40
0.25
 50
307.0805500897
 51
360.0
  0
ARC
  8
13_KOMPONENTER
 62
8
  6
HIDDEN
 10
278.612704918
 20
102.6188058198
 40
0.25
 50
0.0
 51
52.9194499103
  0
ARC
  8
13_KOMPONENTER
 62
7
  6
CONTINUOUS
 10
237.512704918
 20
105.3188058198
 40
0.25
 50
180.0
 51
270.0
  0
ARC
  8
13_KOMPONENTER
 62
7
  6
CONTINUOUS
 10
247.412704918
 20
105.3188058198
 40
0.25
 50
270.0
 51
360.0
  0
ARC
  8
13_KOMPONENTER
 62
7
  6
CONTINUOUS
 10
247.912704918
 20
105.3188058198
 40
0.25
 50
180.0
 51
270.0
  0
ARC
  8
13_KOMPONENTER
 62
7
  6
CONTINUOUS
 10
257.812704918
 20
105.3188058198
 40
0.25
 50
270.0
 51
360.0
  0
ARC
  8
13_KOMPONENTER
 62
7
  6
CONTINUOUS
 10
268.712704918
 20
105.3188058198
 40
0.25
 50
180.0
 51
270.0
  0
ARC
  8
13_KOMPONENTER
 62
7
  6
CONTINUOUS
 10
278.612704918
 20
105.3188058198
 40
0.25
 50
270.0
 51
307.0805500897
  0
ARC
  8
13_KOMPONENTER
 62
7
  6
CONTINUOUS
 10
237.512704918
 20
102.6188058198
 40
0.25
 50
90.0
 51
180.0
  0
ARC
  8
13_KOMPONENTER
 62
7
  6
CONTINUOUS
 10
247.412704918
 20
102.6188058198
 40
0.25
 50
0.0
 51
90.0
  0
ARC
  8
13_KOMPONENTER
 62
7
  6
CONTINUOUS
 10
247.912704918
 20
102.6188058198
 40
0.25
 50
90.0
 51
180.0
  0
ARC
  8
13_KOMPONENTER
 62
7
  6
CONTINUOUS
 10
257.812704918
 20
102.6188058198
 40
0.25
 50
0.0
 51
90.0
  0
ARC
  8
13_KOMPONENTER
 62
7
  6
CONTINUOUS
 10
268.712704918
 20
102.6188058198
 40
0.25
 50
90.0
 51
180.0
  0
ARC
  8
13_KOMPONENTER
 62
7
  6
CONTINUOUS
 10
278.612704918
 20
102.6188058198
 40
0.25
 50
52.9194499103
 51
90.0
  0
ARC
  8
13_KOMPONENTER
 62
7
  6
CONTINUOUS
 10
258.312704918
 20
102.6188058198
 40
0.25
 50
90.0
 51
180.0
  0
ARC
  8
13_KOMPONENTER
 62
7
  6
CONTINUOUS
 10
268.212704918
 20
102.6188058198
 40
0.25
 50
0.0
 51
90.0
  0
ARC
  8
13_KOMPONENTER
 62
7
  6
CONTINUOUS
 10
227.112704918
 20
102.6188058198
 40
0.25
 50
90.0
 51
180.0
  0
ARC
  8
13_KOMPONENTER
 62
7
  6
CONTINUOUS
 10
237.012704918
 20
102.6188058198
 40
0.25
 50
0.0
 51
90.0
  0
ARC
  8
13_KOMPONENTER
 62
7
  6
CONTINUOUS
 10
258.312704918
 20
105.3188058198
 40
0.25
 50
180.0
 51
270.0
  0
ARC
  8
13_KOMPONENTER
 62
7
  6
CONTINUOUS
 10
268.212704918
 20
105.3188058198
 40
0.25
 50
270.0
 51
360.0
  0
ARC
  8
13_KOMPONENTER
 62
7
  6
CONTINUOUS
 10
227.112704918
 20
105.3188058198
 40
0.25
 50
180.0
 51
270.0
  0
ARC
  8
13_KOMPONENTER
 62
7
  6
CONTINUOUS
 10
237.012704918
 20
105.3188058198
 40
0.25
 50
270.0
 51
360.0
  0
ARC
  8
13_KOMPONENTER
 62
8
  6
HIDDEN
 10
215.996919024
 20
118.2188077082
 40
0.9499997592
 50
90.000027321
 51
166.5107041749
  0
ARC
  8
13_KOMPONENTER
 62
7
  6
CONTINUOUS
 10
185.512704918
 20
114.6188058198
 40
0.25
 50
90.0
 51
180.0
  0
ARC
  8
13_KOMPONENTER
 62
7
  6
CONTINUOUS
 10
195.412704918
 20
114.6188058198
 40
0.25
 50
0.0
 51
90.0
  0
ARC
  8
13_KOMPONENTER
 62
7
  6
CONTINUOUS
 10
195.912704918
 20
114.6188058198
 40
0.25
 50
90.0
 51
180.0
  0
ARC
  8
13_KOMPONENTER
 62
7
  6
CONTINUOUS
 10
205.812704918
 20
114.6188058198
 40
0.25
 50
0.0
 51
90.0
  0
ARC
  8
13_KOMPONENTER
 62
7
  6
CONTINUOUS
 10
206.312704918
 20
114.6188058198
 40
0.25
 50
90.0
 51
180.0
  0
ARC
  8
13_KOMPONENTER
 62
7
  6
CONTINUOUS
 10
216.212704918
 20
114.6188058198
 40
0.25
 50
0.0
 51
90.0
  0
ARC
  8
13_KOMPONENTER
 62
7
  6
CONTINUOUS
 10
175.112704918
 20
114.6188058198
 40
0.25
 50
90.0
 51
180.0
  0
ARC
  8
13_KOMPONENTER
 62
7
  6
CONTINUOUS
 10
185.012704918
 20
114.6188058198
 40
0.25
 50
0.0
 51
90.0
  0
ARC
  8
13_KOMPONENTER
 62
7
  6
CONTINUOUS
 10
164.712704918
 20
114.6188058198
 40
0.25
 50
90.0
 51
180.0
  0
ARC
  8
13_KOMPONENTER
 62
7
  6
CONTINUOUS
 10
174.612704918
 20
114.6188058198
 40
0.25
 50
0.0
 51
90.0
  0
ARC
  8
13_KOMPONENTER
 62
7
  6
CONTINUOUS
 10
175.112704918
 20
117.3188058198
 40
0.25
 50
180.0
 51
270.0
  0
ARC
  8
13_KOMPONENTER
 62
7
  6
CONTINUOUS
 10
185.012704918
 20
117.3188058198
 40
0.25
 50
270.0
 51
360.0
  0
ARC
  8
13_KOMPONENTER
 62
7
  6
CONTINUOUS
 10
164.712704918
 20
117.3188058198
 40
0.25
 50
180.0
 51
270.0
  0
ARC
  8
13_KOMPONENTER
 62
7
  6
CONTINUOUS
 10
174.612704918
 20
117.3188058198
 40
0.25
 50
270.0
 51
360.0
  0
ARC
  8
13_KOMPONENTER
 62
7
  6
CONTINUOUS
 10
185.512704918
 20
117.3188058198
 40
0.25
 50
180.0
 51
270.0
  0
ARC
  8
13_KOMPONENTER
 62
7
  6
CONTINUOUS
 10
195.412704918
 20
117.3188058198
 40
0.25
 50
270.0
 51
360.0
  0
ARC
  8
13_KOMPONENTER
 62
7
  6
CONTINUOUS
 10
195.912704918
 20
117.3188058198
 40
0.25
 50
180.0
 51
270.0
  0
ARC
  8
13_KOMPONENTER
 62
7
  6
CONTINUOUS
 10
205.812704918
 20
117.3188058198
 40
0.25
 50
270.0
 51
360.0
  0
ARC
  8
13_KOMPONENTER
 62
7
  6
CONTINUOUS
 10
206.312704918
 20
117.3188058198
 40
0.25
 50
180.0
 51
270.0
  0
ARC
  8
13_KOMPONENTER
 62
7
  6
CONTINUOUS
 10
216.212704918
 20
117.3188058198
 40
0.25
 50
270.0
 51
360.0
  0
ARC
  8
13_KOMPONENTER
 62
7
  6
CONTINUOUS
 10
216.712704918
 20
117.3188058198
 40
0.25
 50
180.0
 51
270.0
  0
ARC
  8
13_KOMPONENTER
 62
7
  6
CONTINUOUS
 10
226.612704918
 20
117.3188058198
 40
0.25
 50
270.0
 51
360.0
  0
ARC
  8
13_KOMPONENTER
 62
7
  6
CONTINUOUS
 10
216.712704918
 20
114.6188058198
 40
0.25
 50
90.0
 51
180.0
  0
ARC
  8
13_KOMPONENTER
 62
7
  6
CONTINUOUS
 10
226.612704918
 20
114.6188058198
 40
0.25
 50
0.0
 51
90.0
  0
ARC
  8
13_KOMPONENTER
 62
7
  6
CONTINUOUS
 10
211.212714346
 20
131.4187965749
 40
0.7500094865
 50
90.0007194605
 51
179.9992855606
  0
ARC
  8
13_KOMPONENTER
 62
7
  6
CONTINUOUS
 10
176.0127048124
 20
131.4188057142
 40
0.7500001056
 50
0.0000000024
 51
89.9999999976
  0
ARC
  8
13_KOMPONENTER
 62
8
  6
HIDDEN
 10
164.862704918
 20
131.9188058198
 40
0.5
 50
270.0
 51
360.0
  0
ARC
  8
13_KOMPONENTER
 62
8
  6
HIDDEN
 10
164.862704918
 20
127.1188058198
 40
0.5
 50
270.0
 51
360.0
  0
ARC
  8
13_KOMPONENTER
 62
8
  6
HIDDEN
 10
164.862704918
 20
128.6188058198
 40
0.5
 50
0.0
 51
90.0
  0
ARC
  8
13_KOMPONENTER
 62
7
  6
CONTINUOUS
 10
175.112704918
 20
126.6188058198
 40
0.25
 50
90.0
 51
180.0
  0
ARC
  8
13_KOMPONENTER
 62
7
  6
CONTINUOUS
 10
185.012704918
 20
126.6188058198
 40
0.25
 50
0.0
 51
90.0
  0
ARC
  8
13_KOMPONENTER
 62
7
  6
CONTINUOUS
 10
164.712704918
 20
126.6188058198
 40
0.25
 50
90.0
 51
180.0
  0
ARC
  8
13_KOMPONENTER
 62
7
  6
CONTINUOUS
 10
174.612704918
 20
126.6188058198
 40
0.25
 50
0.0
 51
90.0
  0
ARC
  8
13_KOMPONENTER
 62
7
  6
CONTINUOUS
 10
185.512704918
 20
126.6188058198
 40
0.25
 50
90.0
 51
180.0
  0
ARC
  8
13_KOMPONENTER
 62
7
  6
CONTINUOUS
 10
195.412704918
 20
126.6188058198
 40
0.25
 50
0.0
 51
90.0
  0
ARC
  8
13_KOMPONENTER
 62
7
  6
CONTINUOUS
 10
195.912704918
 20
126.6188058198
 40
0.25
 50
90.0
 51
180.0
  0
ARC
  8
13_KOMPONENTER
 62
7
  6
CONTINUOUS
 10
205.812704918
 20
126.6188058198
 40
0.25
 50
0.0
 51
90.0
  0
ARC
  8
13_KOMPONENTER
 62
7
  6
CONTINUOUS
 10
206.312704918
 20
126.6188058198
 40
0.25
 50
90.0
 51
180.0
  0
ARC
  8
13_KOMPONENTER
 62
7
  6
CONTINUOUS
 10
216.212704918
 20
126.6188058198
 40
0.25
 50
0.0
 51
90.0
  0
ARC
  8
13_KOMPONENTER
 62
7
  6
CONTINUOUS
 10
216.712704918
 20
126.6188058198
 40
0.25
 50
90.0
 51
180.0
  0
ARC
  8
13_KOMPONENTER
 62
7
  6
CONTINUOUS
 10
226.612704918
 20
126.6188058198
 40
0.25
 50
0.0
 51
90.0
  0
ARC
  8
13_KOMPONENTER
 62
7
  6
CONTINUOUS
 10
282.822704918
 20
121.967780416
 40
0.5
 50
60.0
 51
180.0
  0
ARC
  8
13_KOMPONENTER
 62
8
  6
HIDDEN
 10
279.572704918
 20
120.5188058198
 40
0.3
 50
90.0
 51
180.0
  0
ARC
  8
13_KOMPONENTER
 62
8
  6
HIDDEN
 10
279.572704918
 20
120.2588058198
 40
0.3
 50
90.0
 51
180.0
  0
ARC
  8
13_KOMPONENTER
 62
8
  6
HIDDEN
 10
280.572704918
 20
120.2588058198
 40
0.3
 50
90.000000018
 51
180.0
  0
ARC
  8
13_KOMPONENTER
 62
8
  6
HIDDEN
 10
284.472704918
 20
120.5188058198
 40
0.3
 50
0.0
 51
90.0
  0
ARC
  8
13_KOMPONENTER
 62
8
  6
HIDDEN
 10
280.572704918
 20
120.5188058198
 40
0.3
 50
90.0
 51
180.0
  0
ARC
  8
13_KOMPONENTER
 62
7
  6
CONTINUOUS
 10
282.622704918
 20
122.5085271098
 40
0.3
 50
59.9986266983
 51
180.0
  0
ARC
  8
13_KOMPONENTER
 62
8
  6
HIDDEN
 10
278.612704918
 20
117.3188058198
 40
0.25
 50
307.0805500897
 51
360.0
  0
ARC
  8
13_KOMPONENTER
 62
8
  6
HIDDEN
 10
278.612704918
 20
114.6188058198
 40
0.25
 50
0.0
 51
52.9194499103
  0
ARC
  8
13_KOMPONENTER
 62
7
  6
CONTINUOUS
 10
247.912704918
 20
117.3188058198
 40
0.25
 50
180.0
 51
270.0
  0
ARC
  8
13_KOMPONENTER
 62
7
  6
CONTINUOUS
 10
257.812704918
 20
117.3188058198
 40
0.25
 50
270.0
 51
360.0
  0
ARC
  8
13_KOMPONENTER
 62
7
  6
CONTINUOUS
 10
237.512704918
 20
117.3188058198
 40
0.25
 50
180.0
 51
270.0
  0
ARC
  8
13_KOMPONENTER
 62
7
  6
CONTINUOUS
 10
247.412704918
 20
117.3188058198
 40
0.25
 50
270.0
 51
360.0
  0
ARC
  8
13_KOMPONENTER
 62
7
  6
CONTINUOUS
 10
268.712704918
 20
117.3188058198
 40
0.25
 50
180.0
 51
270.0
  0
ARC
  8
13_KOMPONENTER
 62
7
  6
CONTINUOUS
 10
278.612704918
 20
117.3188058198
 40
0.25
 50
270.0
 51
307.0805500897
  0
ARC
  8
13_KOMPONENTER
 62
7
  6
CONTINUOUS
 10
237.512704918
 20
114.6188058198
 40
0.25
 50
90.0
 51
180.0
  0
ARC
  8
13_KOMPONENTER
 62
7
  6
CONTINUOUS
 10
247.412704918
 20
114.6188058198
 40
0.25
 50
0.0
 51
90.0
  0
ARC
  8
13_KOMPONENTER
 62
7
  6
CONTINUOUS
 10
247.912704918
 20
114.6188058198
 40
0.25
 50
90.0
 51
180.0
  0
ARC
  8
13_KOMPONENTER
 62
7
  6
CONTINUOUS
 10
257.812704918
 20
114.6188058198
 40
0.25
 50
0.0
 51
90.0
  0
ARC
  8
13_KOMPONENTER
 62
7
  6
CONTINUOUS
 10
268.712704918
 20
114.6188058198
 40
0.25
 50
90.0
 51
180.0
  0
ARC
  8
13_KOMPONENTER
 62
7
  6
CONTINUOUS
 10
278.612704918
 20
114.6188058198
 40
0.25
 50
52.9194499103
 51
90.0
  0
ARC
  8
13_KOMPONENTER
 62
7
  6
CONTINUOUS
 10
258.312704918
 20
114.6188058198
 40
0.25
 50
90.0
 51
180.0
  0
ARC
  8
13_KOMPONENTER
 62
7
  6
CONTINUOUS
 10
268.212704918
 20
114.6188058198
 40
0.25
 50
0.0
 51
90.0
  0
ARC
  8
13_KOMPONENTER
 62
7
  6
CONTINUOUS
 10
227.112704918
 20
114.6188058198
 40
0.25
 50
90.0
 51
180.0
  0
ARC
  8
13_KOMPONENTER
 62
7
  6
CONTINUOUS
 10
237.012704918
 20
114.6188058198
 40
0.25
 50
0.0
 51
90.0
  0
ARC
  8
13_KOMPONENTER
 62
7
  6
CONTINUOUS
 10
227.112704918
 20
117.3188058198
 40
0.25
 50
180.0
 51
270.0
  0
ARC
  8
13_KOMPONENTER
 62
7
  6
CONTINUOUS
 10
237.012704918
 20
117.3188058198
 40
0.25
 50
270.0
 51
360.0
  0
ARC
  8
13_KOMPONENTER
 62
7
  6
CONTINUOUS
 10
258.312704918
 20
117.3188058198
 40
0.25
 50
180.0
 51
270.0
  0
ARC
  8
13_KOMPONENTER
 62
7
  6
CONTINUOUS
 10
268.212704918
 20
117.3188058198
 40
0.25
 50
270.0
 51
360.0
  0
ARC
  8
13_KOMPONENTER
 62
7
  6
CONTINUOUS
 10
284.772704918
 20
125.2088058198
 40
2.0
 50
0.0
 51
90.0
  0
ARC
  8
13_KOMPONENTER
 62
8
  6
HIDDEN
 10
279.772704918
 20
126.2088058198
 40
1.0
 50
158.762856302
 51
180.0
  0
ARC
  8
13_KOMPONENTER
 62
7
  6
CONTINUOUS
 10
279.772704918
 20
126.2088058198
 40
1.0
 50
90.0
 51
158.762856302
  0
ARC
  8
13_KOMPONENTER
 62
7
  6
CONTINUOUS
 10
229.8129633345
 20
131.3690642363
 40
0.7999075342
 50
359.9826435163
 51
90.0173564594
  0
ARC
  8
13_KOMPONENTER
 62
7
  6
CONTINUOUS
 10
288.662704918
 20
130.2188058198
 40
0.7
 50
0.0
 51
90.0
  0
ARC
  8
13_KOMPONENTER
 62
7
  6
CONTINUOUS
 10
247.912704918
 20
126.6188058198
 40
0.25
 50
90.0
 51
180.0
  0
ARC
  8
13_KOMPONENTER
 62
7
  6
CONTINUOUS
 10
257.812704918
 20
126.6188058198
 40
0.25
 50
0.0
 51
90.0
  0
ARC
  8
13_KOMPONENTER
 62
7
  6
CONTINUOUS
 10
237.512704918
 20
126.6188058198
 40
0.25
 50
90.0
 51
180.0
  0
ARC
  8
13_KOMPONENTER
 62
7
  6
CONTINUOUS
 10
247.412704918
 20
126.6188058198
 40
0.25
 50
0.0
 51
90.0
  0
ARC
  8
13_KOMPONENTER
 62
7
  6
CONTINUOUS
 10
268.712704918
 20
126.6188058198
 40
0.25
 50
90.0
 51
180.0
  0
ARC
  8
13_KOMPONENTER
 62
7
  6
CONTINUOUS
 10
278.612704918
 20
126.6188058198
 40
0.25
 50
0.0
 51
90.0
  0
ARC
  8
13_KOMPONENTER
 62
7
  6
CONTINUOUS
 10
227.112704918
 20
126.6188058198
 40
0.25
 50
90.0
 51
180.0
  0
ARC
  8
13_KOMPONENTER
 62
7
  6
CONTINUOUS
 10
237.012704918
 20
126.6188058198
 40
0.25
 50
0.0
 51
90.0
  0
ARC
  8
13_KOMPONENTER
 62
7
  6
CONTINUOUS
 10
258.312704918
 20
126.6188058198
 40
0.25
 50
90.0
 51
180.0
  0
ARC
  8
13_KOMPONENTER
 62
7
  6
CONTINUOUS
 10
268.212704918
 20
126.6188058198
 40
0.25
 50
0.0
 51
90.0
  0
ARC
  8
13_KOMPONENTER
 62
7
  6
CONTINUOUS
 10
324.2742422643
 20
87.5688058198
 40
8.75
 50
35.6517507913
 51
65.657195786
  0
ARC
  8
13_KOMPONENTER
 62
7
  6
CONTINUOUS
 10
325.7343642931
 20
87.5688058198
 40
6.5
 50
270.0
 51
360.0
  0
ARC
  8
13_KOMPONENTER
 62
7
  6
CONTINUOUS
 10
324.2742422643
 20
87.5688058198
 40
6.5
 50
180.0000196988
 51
270.0
  0
CIRCLE
  8
13_KOMPONENTER
 62
7
  6
CONTINUOUS
 10
324.2742422643
 20
87.5688058198
 40
3.25
  0
ARC
  8
13_KOMPONENTER
 62
7
  6
CONTINUOUS
 10
328.3343642931
 20
96.5430973858
 40
1.1
 50
180.0
 51
245.657195786
  0
ARC
  8
13_KOMPONENTER
 62
7
  6
CONTINUOUS
 10
331.3842703936
 20
93.5188997192
 40
0.8500938994
 50
270.0
 51
360.0
  0
ARC
  8
13_KOMPONENTER
 62
7
  6
CONTINUOUS
 10
326.2343642931
 20
118.1688058198
 40
1.0
 50
0.0
 51
90.0
  0
ARC
  8
13_KOMPONENTER
 62
7
  6
CONTINUOUS
 10
324.2742422643
 20
125.6688058198
 40
6.5
 50
90.0
 51
270.0
  0
ARC
  8
13_KOMPONENTER
 62
7
  6
CONTINUOUS
 10
325.7343642931
 20
125.6688058198
 40
6.5
 50
0.0
 51
90.0
  0
CIRCLE
  8
13_KOMPONENTER
 62
7
  6
CONTINUOUS
 10
324.2742422643
 20
125.6688058198
 40
3.175
  0
CIRCLE
  8
13_KOMPONENTER
 62
7
  6
CONTINUOUS
 10
324.2742422643
 20
125.6688058198
 40
2.6
  0
ARC
  8
13_KOMPONENTER
 62
7
  6
CONTINUOUS
 10
328.3343642931
 20
118.5740617081
 40
1.1
 50
150.0
 51
180.0
  0
ARC
  8
13_KOMPONENTER
 62
7
  6
CONTINUOUS
 10
327.1343642931
 20
120.895600739
 40
1.1
 50
330.0
 51
360.0
  0
ARC
  8
13_KOMPONENTER
 62
7
  6
CONTINUOUS
 10
329.1894330333
 20
129.8188058198
 40
1.1
 50
50.221038871
 51
90.0
  0
ARC
  8
13_KOMPONENTER
 62
7
  6
CONTINUOUS
 10
340.9343642931
 20
97.9688058198
 40
4.9
 50
336.2489879204
 51
21.0709557938
  0
ARC
  8
13_KOMPONENTER
 62
7
  6
CONTINUOUS
 10
341.4343642931
 20
96.7088058198
 40
4.0
 50
270.0
 51
348.7764340359
  0
ARC
  8
13_KOMPONENTER
 62
7
  6
CONTINUOUS
 10
341.4343642931
 20
96.7188058198
 40
4.0
 50
270.0
 51
360.0
  0
ARC
  8
13_KOMPONENTER
 62
7
  6
CONTINUOUS
 10
340.9343642931
 20
109.9688058198
 40
4.9
 50
341.9249214438
 51
18.0750785563
  0
ARC
  8
13_KOMPONENTER
 62
7
  6
CONTINUOUS
 10
340.9343642931
 20
121.9688058198
 40
4.9
 50
338.9290442063
 51
23.7510120796
  0
ARC
  8
13_KOMPONENTER
 62
7
  6
CONTINUOUS
 10
341.4343642931
 20
123.2188058198
 40
4.0
 50
0.0
 51
90.0
  0
ENDSEC
  0
EOF
