  0
SECTION
  2
HEADER
  9
$EXTMAX
 10
420.0
 20
297.0
 30
0.0
  9
$EXTMIN
 10
0.0
 20
0.0
 30
0.0
  9
$LIMMIN
 10
0.0
 20
0.0
  9
$LIMMAX
 10
420.0
 20
297.0
  9
$VIEWCTR
 10
210.0
 20
148.5
  9
$VIEWSIZE
 40
297.0
  9
$CLAYER
  8
0
  9
$LTSCALE
 40
23.1
  9
$CELTYPE
  6
BYLAYER
  9
$DIMSCALE
 40
1.0
  9
$DIMASZ
 40
3.5
  9
$DIMEXO
 40
1.0
  9
$DIMDLI
 40
15.96
  9
$DIMEXE
 40
2.0
  9
$DIMCEN
 40
3.78
  9
$DIMLFAC
 40
1.0
  9
$DIMBLK
  1
_FILLED
  9
$DIMTXT
 40
3.5
  9
$PDMODE
 70
3
  9
$PDSIZE
 40
0.3125
  9
$TILEMODE
 70
1
  0
ENDSEC
  0
SECTION
  2
TABLES
  0
TABLE
  2
LTYPE
 70
6
  0
LTYPE
  2
BYBLOCK
 70
0
  3

 72
65
 73
0
 40
0.0
  0
LTYPE
  2
BYLAYER
 70
0
  3

 72
65
 73
0
 40
0.0
  0
LTYPE
  2
CONTINUOUS
 70
64
  3
Solid line
 72
65
 73
0
 40
0.0
  0
LTYPE
  2
CENTER
 70
64
  3
____ _ ____ _ ____ _ ____ _ ____ _ ____ _ ____
 72
65
 73
4
 40
0.6
 49
0.375
 49
-0.075
 49
0.075
 49
-0.075
  0
LTYPE
  2
HIDDEN
 70
64
  3
- - - - - - - - - - - - - - - - - - - -
 72
65
 73
2
 40
0.2
 49
0.1
 49
-0.1
  0
LTYPE
  2
PHANTOM
 70
64
  3
_____ _ _ _____ _ _ _____ _ _ _____
 72
65
 73
6
 40
0.8
 49
0.45
 49
-0.05
 49
0.1
 49
-0.05
 49
0.1
 49
-0.05
  0
LTYPE
  2
DOT
 70
64
  3
. . . . . . . . . . . . . . . . . . . .
 72
65
 73
2
 40
0.2
 49
0.1
 49
-0.1
  0
LTYPE
  2
DASHED
 70
64
  3
- - - - - - - - - - - - - - - - - - - -
 72
65
 73
2
 40
0.2
 49
0.1
 49
-0.1
  0
ENDTAB
  0
TABLE
  2
LAYER
 70
36
  0
LAYER
  2
0
 70
0
 62
7
  6
CONTINUOUS
  0
LAYER
  2
DEFAULT_1
 70
0
 62
7
  6
CENTER
  0
LAYER
  2
DEFAULT_2
 70
0
 62
8
  6
HIDDEN
  0
LAYER
  2
DEFAULT_3
 70
0
 62
7
  6
PHANTOM
  0
LAYER
  2
1_DATUM_PLANE
 70
0
 62
7
  6
CONTINUOUS
  0
LAYER
  2
AXES
 70
0
 62
7
  6
CONTINUOUS
  0
LAYER
  2
PLANES
 70
0
 62
7
  6
CONTINUOUS
  0
ENDTAB
  0
TABLE
  2
STYLE
 70
1
  0
STYLE
  2
STANDARD
 70
0
 40
0.0
 41
0.8
 50
0.0
 71
0
 42
0.2
  3
txt
  4

  0
STYLE
  2
TEXTSTYLE_1
 70
0
 40
0.0
 41
0.8
 50
0.0
 71
0
 42
0.2
  3
gdt
  4

  0
STYLE
  2
TEXTSTYLE_2
 70
0
 40
0.0
 41
0.6
 50
0.0
 71
0
 42
0.2
  3
txt
  4

  0
STYLE
  2
TEXTSTYLE_3
 70
0
 40
0.0
 41
1.0
 50
0.0
 71
0
 42
0.2
  3
ftb_____.ttf
  4

  0
STYLE
  2
TEXTSTYLE_4
 70
0
 40
0.0
 41
1.0
 50
0.0
 71
0
 42
0.2
  3
fti_____.ttf
  4

  0
STYLE
  2
TEXTSTYLE_5
 70
0
 40
0.0
 41
1.0
 50
0.0
 71
0
 42
0.2
  3
frutiger light.ttf
  4

  0
STYLE
  2
TEXTSTYLE_6
 70
0
 40
0.0
 41
0.7
 50
0.0
 71
0
 42
0.2
  3
txt
  4

  0
STYLE
  2
TEXTSTYLE_7
 70
0
 40
0.0
 41
0.8
 50
0.0
 71
0
 42
0.2
  3
txt
  4

  0
ENDTAB
  0
ENDSEC
  0
SECTION
  2
BLOCKS
  0
BLOCK
  8
0
 62
2
  6
CONTINUOUS
  2
SYMBOL_5_BL1
 70
64
 10
382.3920721743
 20
35.81661148
  0
TEXT
  8
0
 62
7
  6
CONTINUOUS
 10
373.4503571828
 20
30.9093678571
  7
TEXTSTYLE_4
 40
1.0655737705
  1
The brand for plastic modular belts and chains
 41
1.0
 72
0
  0
LINE
  8
0
 62
7
  6
CONTINUOUS
 10
358.3701405634
 20
36.3903819718
 11
358.3701405634
 21
34.2592344308
  0
LINE
  8
0
 62
7
  6
CONTINUOUS
 10
358.6592030565
 20
31.2683031351
 11
358.6592030565
 21
31.3650941944
  0
LINE
  8
0
 62
7
  6
CONTINUOUS
 10
358.3701405634
 20
31.332830508
 11
358.4279530651
 21
31.1392483894
  0
LINE
  8
0
 62
7
  6
CONTINUOUS
 10
359.7635831863
 20
34.1772672177
 11
359.7635831863
 21
36.3903819718
  0
LINE
  8
0
 62
7
  6
CONTINUOUS
 10
360.6826405082
 20
32.3330049227
 11
360.6826405082
 21
30.81661148
  0
LINE
  8
0
 62
7
  6
CONTINUOUS
 10
360.9717030634
 20
30.81661148
 11
360.9717030634
 21
31.5586763581
  0
LINE
  8
0
 62
7
  6
CONTINUOUS
 10
360.9717030634
 20
31.6877311038
 11
360.9717030634
 21
32.3330049227
  0
LINE
  8
0
 62
7
  6
CONTINUOUS
 10
358.4279530651
 20
31.5264126717
 11
358.3701405634
 21
31.332830508
  0
LINE
  8
0
 62
7
  6
CONTINUOUS
 10
358.7748280496
 20
31.106984703
 11
358.6592030565
 21
31.2683031351
  0
LINE
  8
0
 62
7
  6
CONTINUOUS
 10
359.8732656185
 20
31.623203731
 11
359.9310780634
 21
31.5264126717
  0
LINE
  8
0
 62
7
  6
CONTINUOUS
 10
360.2201406185
 20
31.5264126717
 11
360.1623280082
 21
31.6554674174
  0
LINE
  8
0
 62
7
  6
CONTINUOUS
 10
361.648829088
 20
36.3903819718
 11
361.648829088
 21
34.5871032833
  0
LINE
  8
0
 62
7
  6
CONTINUOUS
 10
361.648829088
 20
33.2756278735
 11
361.648829088
 21
32.6198901686
  0
LINE
  8
0
 62
7
  6
CONTINUOUS
 10
362.0123280634
 20
31.4618852989
 11
362.0123280634
 21
30.81661148
  0
LINE
  8
0
 62
7
  6
CONTINUOUS
 10
362.3013904531
 20
30.81661148
 11
362.3013904531
 21
31.4618852989
  0
LINE
  8
0
 62
7
  6
CONTINUOUS
 10
358.6592030565
 20
31.3650941944
 11
358.7170155634
 21
31.4941489853
  0
LINE
  8
0
 62
7
  6
CONTINUOUS
 10
358.4279530651
 20
31.1392483894
 11
358.5435780634
 21
31.0101936212
  0
LINE
  8
0
 62
7
  6
CONTINUOUS
 10
361.9545154531
 20
31.5909400446
 11
362.0123280634
 21
31.4618852989
  0
LINE
  8
0
 62
7
  6
CONTINUOUS
 10
362.7638906736
 20
31.106984703
 11
362.8217029531
 21
30.9779299347
  0
LINE
  8
0
 62
7
  6
CONTINUOUS
 10
362.3013904531
 20
31.4618852989
 11
362.2435781736
 21
31.623203731
  0
LINE
  8
0
 62
7
  6
CONTINUOUS
 10
362.7638906736
 20
31.6554674174
 11
362.7638906736
 21
31.5909400446
  0
LINE
  8
0
 62
7
  6
CONTINUOUS
 10
362.7638906736
 20
31.2037757623
 11
362.7638906736
 21
31.106984703
  0
LINE
  8
0
 62
7
  6
CONTINUOUS
 10
363.0422717109
 20
32.6198901686
 11
363.0422717109
 21
36.3903819718
  0
LINE
  8
0
 62
7
  6
CONTINUOUS
 10
363.0529530634
 20
31.074720994
 11
363.0529530634
 21
31.1392483894
  0
LINE
  8
0
 62
7
  6
CONTINUOUS
 10
363.3701405634
 20
36.3903819718
 11
363.3701405634
 21
32.6198901686
  0
LINE
  8
0
 62
7
  6
CONTINUOUS
 10
360.1623280082
 20
31.0101936212
 11
360.2201406185
 21
31.1392483894
  0
LINE
  8
0
 62
7
  6
CONTINUOUS
 10
364.5560782839
 20
30.9134025506
 11
364.4982653428
 21
31.074720994
  0
LINE
  8
0
 62
7
  6
CONTINUOUS
 10
364.2092032839
 20
31.5909400446
 11
364.2092032839
 21
31.4941489853
  0
LINE
  8
0
 62
7
  6
CONTINUOUS
 10
364.2092032839
 20
31.3650941944
 11
364.2092032839
 21
31.1715120759
  0
LINE
  8
0
 62
7
  6
CONTINUOUS
 10
364.4982653428
 20
31.074720994
 11
364.4982653428
 21
31.5909400446
  0
LINE
  8
0
 62
7
  6
CONTINUOUS
 10
364.7635831863
 20
32.6198901686
 11
364.7635831863
 21
34.4231688571
  0
LINE
  8
0
 62
7
  6
CONTINUOUS
 10
364.7635831863
 20
35.7346442669
 11
364.7635831863
 21
36.3903819718
  0
LINE
  8
0
 62
7
  6
CONTINUOUS
 10
365.0763907839
 20
32.3330049227
 11
365.0763907839
 21
32.1716864905
  0
LINE
  8
0
 62
7
  6
CONTINUOUS
 10
365.0763907839
 20
31.8490495359
 11
365.0763907839
 21
30.81661148
  0
LINE
  8
0
 62
7
  6
CONTINUOUS
 10
365.3654528428
 20
30.81661148
 11
365.3654528428
 21
31.8490495359
  0
LINE
  8
0
 62
7
  6
CONTINUOUS
 10
365.3654528428
 20
32.1716864905
 11
365.3654528428
 21
32.3330049227
  0
LINE
  8
0
 62
7
  6
CONTINUOUS
 10
359.9310780634
 20
31.1392483894
 11
359.8732656185
 21
31.0424573076
  0
LINE
  8
0
 62
7
  6
CONTINUOUS
 10
362.2435781736
 20
31.623203731
 11
362.1857655634
 21
31.6877311038
  0
LINE
  8
0
 62
7
  6
CONTINUOUS
 10
363.1107656736
 20
31.0101936212
 11
363.0529530634
 21
31.074720994
  0
LINE
  8
0
 62
7
  6
CONTINUOUS
 10
364.2670155634
 20
30.8811388585
 11
364.3248278428
 21
30.81661148
  0
LINE
  8
0
 62
7
  6
CONTINUOUS
 10
364.2092032839
 20
30.9779299347
 11
364.2670155634
 21
30.8811388585
  0
LINE
  8
0
 62
7
  6
CONTINUOUS
 10
364.6138905634
 20
30.81661148
 11
364.5560782839
 21
30.9134025506
  0
LINE
  8
0
 62
7
  6
CONTINUOUS
 10
364.4982653428
 20
31.5909400446
 11
364.4404530634
 21
31.6877311038
  0
LINE
  8
0
 62
7
  6
CONTINUOUS
 10
365.8279530634
 20
31.8490495359
 11
365.8279530634
 21
30.81661148
  0
LINE
  8
0
 62
7
  6
CONTINUOUS
 10
366.1170157839
 20
30.81661148
 11
366.1170157839
 21
31.5586763581
  0
LINE
  8
0
 62
7
  6
CONTINUOUS
 10
366.1170157839
 20
31.6877311038
 11
366.1170157839
 21
31.8490495359
  0
LINE
  8
0
 62
7
  6
CONTINUOUS
 10
366.648829088
 20
34.8330049227
 11
366.648829088
 21
32.6198901686
  0
LINE
  8
0
 62
7
  6
CONTINUOUS
 10
358.5435780634
 20
31.6554674174
 11
358.4279530651
 21
31.5264126717
  0
LINE
  8
0
 62
7
  6
CONTINUOUS
 10
358.7170155634
 20
31.4941489853
 11
358.7748280496
 21
31.5586763581
  0
LINE
  8
0
 62
7
  6
CONTINUOUS
 10
358.5435780634
 20
31.0101936212
 11
358.6592030565
 21
30.945666237
  0
LINE
  8
0
 62
7
  6
CONTINUOUS
 10
358.9482655496
 20
31.0101936212
 11
358.7748280496
 21
31.106984703
  0
LINE
  8
0
 62
7
  6
CONTINUOUS
 10
364.1513903428
 20
31.6554674174
 11
364.2092032839
 21
31.5909400446
  0
LINE
  8
0
 62
7
  6
CONTINUOUS
 10
367.0998278428
 20
31.5909400446
 11
367.1576407839
 21
31.4296216124
  0
LINE
  8
0
 62
7
  6
CONTINUOUS
 10
367.4467028428
 20
31.4296216124
 11
367.3888905634
 21
31.5909400446
  0
LINE
  8
0
 62
7
  6
CONTINUOUS
 10
367.1576407839
 20
31.4296216124
 11
367.1576407839
 21
30.81661148
  0
LINE
  8
0
 62
7
  6
CONTINUOUS
 10
367.4467028428
 20
30.81661148
 11
367.4467028428
 21
31.4296216124
  0
LINE
  8
0
 62
7
  6
CONTINUOUS
 10
367.9092030634
 20
31.6554674174
 11
367.9092030634
 21
31.5909400446
  0
LINE
  8
0
 62
7
  6
CONTINUOUS
 10
368.0422717109
 20
32.6198901686
 11
368.0422717109
 21
34.7510377095
  0
LINE
  8
0
 62
7
  6
CONTINUOUS
 10
368.3701405634
 20
36.3903819718
 11
368.3701405634
 21
32.6198901686
  0
LINE
  8
0
 62
7
  6
CONTINUOUS
 10
363.0529530634
 20
31.1392483894
 11
363.1107656736
 21
31.2360394487
  0
LINE
  8
0
 62
7
  6
CONTINUOUS
 10
358.6592030565
 20
30.945666237
 11
358.8326405772
 21
30.8811388585
  0
LINE
  8
0
 62
7
  6
CONTINUOUS
 10
360.1623280082
 20
31.6554674174
 11
359.9888905082
 21
31.7522584767
  0
LINE
  8
0
 62
7
  6
CONTINUOUS
 10
362.8217029531
 20
30.9779299347
 11
362.9951404531
 21
30.8811388585
  0
LINE
  8
0
 62
7
  6
CONTINUOUS
 10
361.8388905634
 20
31.6554674174
 11
361.9545154531
 21
31.5909400446
  0
LINE
  8
0
 62
7
  6
CONTINUOUS
 10
362.1857655634
 20
31.6877311038
 11
362.0701406736
 21
31.7522584767
  0
LINE
  8
0
 62
7
  6
CONTINUOUS
 10
367.9092030634
 20
31.074720994
 11
368.0248282839
 21
30.945666237
  0
LINE
  8
0
 62
7
  6
CONTINUOUS
 10
368.2560780634
 20
31.0101936212
 11
368.1982657839
 21
31.074720994
  0
LINE
  8
0
 62
7
  6
CONTINUOUS
 10
367.9092030634
 20
31.5909400446
 11
368.0248282839
 21
31.4618852989
  0
LINE
  8
0
 62
7
  6
CONTINUOUS
 10
367.3888905634
 20
31.5909400446
 11
367.3310782839
 21
31.6877311038
  0
LINE
  8
0
 62
7
  6
CONTINUOUS
 10
369.7592026223
 20
31.0101936212
 11
369.7592026223
 21
31.074720994
  0
LINE
  8
0
 62
7
  6
CONTINUOUS
 10
369.7635831863
 20
32.6198901686
 11
369.7635831863
 21
36.3903819718
  0
LINE
  8
0
 62
7
  6
CONTINUOUS
 10
362.8217029531
 20
31.7199947902
 11
362.7638906736
 21
31.6554674174
  0
LINE
  8
0
 62
7
  6
CONTINUOUS
 10
359.6998280358
 20
31.6877311038
 11
359.8732656185
 21
31.623203731
  0
LINE
  8
0
 62
7
  6
CONTINUOUS
 10
364.4404530634
 20
31.6877311038
 11
364.3248278428
 21
31.7522584767
  0
LINE
  8
0
 62
7
  6
CONTINUOUS
 10
368.2560780634
 20
31.5264126717
 11
368.1982657839
 21
31.5909400446
  0
LINE
  8
0
 62
7
  6
CONTINUOUS
 10
369.4123282839
 20
31.1392483894
 11
369.4701405634
 21
31.074720994
  0
LINE
  8
0
 62
7
  6
CONTINUOUS
 10
369.7592026223
 20
31.074720994
 11
369.6435780634
 21
31.2037757623
  0
LINE
  8
0
 62
7
  6
CONTINUOUS
 10
369.4123282839
 20
31.6554674174
 11
369.4701405634
 21
31.5909400446
  0
LINE
  8
0
 62
7
  6
CONTINUOUS
 10
369.7592026223
 20
31.5909400446
 11
369.6435780634
 21
31.7199947902
  0
LINE
  8
0
 62
7
  6
CONTINUOUS
 10
363.0529530634
 20
31.5909400446
 11
363.1107656736
 21
31.6554674174
  0
LINE
  8
0
 62
7
  6
CONTINUOUS
 10
362.8795155634
 20
31.332830508
 11
362.7638906736
 21
31.2037757623
  0
LINE
  8
0
 62
7
  6
CONTINUOUS
 10
364.2092032839
 20
31.1715120759
 11
364.1513903428
 21
31.106984703
  0
LINE
  8
0
 62
7
  6
CONTINUOUS
 10
364.1513903428
 20
30.9134025506
 11
364.2092032839
 21
30.9779299347
  0
LINE
  8
0
 62
7
  6
CONTINUOUS
 10
362.9951404531
 20
30.8811388585
 11
363.1107656736
 21
30.8488751693
  0
LINE
  8
0
 62
7
  6
CONTINUOUS
 10
359.9888905082
 20
31.7522584767
 11
359.7576405634
 21
31.8167858495
  0
LINE
  8
0
 62
7
  6
CONTINUOUS
 10
363.3420154531
 20
30.945666237
 11
363.1107656736
 21
31.0101936212
  0
LINE
  8
0
 62
7
  6
CONTINUOUS
 10
362.0701406736
 20
31.7522584767
 11
361.8967031736
 21
31.8167858495
  0
LINE
  8
0
 62
7
  6
CONTINUOUS
 10
364.3248278428
 20
31.7522584767
 11
364.1513903428
 21
31.8167858495
  0
LINE
  8
0
 62
7
  6
CONTINUOUS
 10
366.9842032839
 20
31.6554674174
 11
367.0998278428
 21
31.5909400446
  0
LINE
  8
0
 62
7
  6
CONTINUOUS
 10
367.3310782839
 20
31.6877311038
 11
367.2154530634
 21
31.7522584767
  0
LINE
  8
0
 62
7
  6
CONTINUOUS
 10
358.8326405772
 20
30.8811388585
 11
359.0060780772
 21
30.8488751693
  0
LINE
  8
0
 62
7
  6
CONTINUOUS
 10
359.2951405909
 20
30.945666237
 11
358.9482655496
 21
31.0101936212
  0
LINE
  8
0
 62
7
  6
CONTINUOUS
 10
361.7232656736
 20
31.6877311038
 11
361.8388905634
 21
31.6554674174
  0
LINE
  8
0
 62
7
  6
CONTINUOUS
 10
364.0357657839
 20
31.6877311038
 11
364.1513903428
 21
31.6554674174
  0
LINE
  8
0
 62
7
  6
CONTINUOUS
 10
368.3717032839
 20
30.9779299347
 11
368.2560780634
 21
31.0101936212
  0
LINE
  8
0
 62
7
  6
CONTINUOUS
 10
366.8685780634
 20
31.6877311038
 11
366.9842032839
 21
31.6554674174
  0
LINE
  8
0
 62
7
  6
CONTINUOUS
 10
368.0248282839
 20
30.945666237
 11
368.1982657839
 21
30.8811388585
  0
LINE
  8
0
 62
7
  6
CONTINUOUS
 10
367.2154530634
 20
31.7522584767
 11
367.0420155634
 21
31.8167858495
  0
LINE
  8
0
 62
7
  6
CONTINUOUS
 10
368.4295155634
 20
31.4618852989
 11
368.2560780634
 21
31.5264126717
  0
LINE
  8
0
 62
7
  6
CONTINUOUS
 10
369.2388907839
 20
31.2037757623
 11
369.4123282839
 21
31.1392483894
  0
LINE
  8
0
 62
7
  6
CONTINUOUS
 10
369.6435780634
 20
31.7199947902
 11
369.4701405634
 21
31.7845221631
  0
LINE
  8
0
 62
7
  6
CONTINUOUS
 10
368.0248282839
 20
31.4618852989
 11
368.2560780634
 21
31.3650941944
  0
LINE
  8
0
 62
7
  6
CONTINUOUS
 10
369.6435780634
 20
31.2037757623
 11
369.4123282839
 21
31.3005668216
  0
LINE
  8
0
 62
7
  6
CONTINUOUS
 10
368.1982657839
 20
31.5909400446
 11
368.2560780634
 21
31.6554674174
  0
LINE
  8
0
 62
7
  6
CONTINUOUS
 10
358.6592030565
 20
31.7199947902
 11
358.5435780634
 21
31.6554674174
  0
LINE
  8
0
 62
7
  6
CONTINUOUS
 10
358.7748280496
 20
31.5586763581
 11
358.9482655496
 21
31.6554674174
  0
LINE
  8
0
 62
7
  6
CONTINUOUS
 10
361.0873281185
 20
31.7522584767
 11
360.9717030634
 21
31.6877311038
  0
LINE
  8
0
 62
7
  6
CONTINUOUS
 10
360.9717030634
 20
31.5586763581
 11
361.0873281185
 21
31.623203731
  0
LINE
  8
0
 62
7
  6
CONTINUOUS
 10
359.9888905082
 20
30.9134025506
 11
360.1623280082
 21
31.0101936212
  0
LINE
  8
0
 62
7
  6
CONTINUOUS
 10
359.0060780772
 20
30.8488751693
 11
359.3529530358
 21
30.81661148
  0
LINE
  8
0
 62
7
  6
CONTINUOUS
 10
363.1107656736
 20
30.8488751693
 11
363.3420154531
 21
30.81661148
  0
LINE
  8
0
 62
7
  6
CONTINUOUS
 10
361.4920155634
 20
31.7199947902
 11
361.7232656736
 21
31.6877311038
  0
LINE
  8
0
 62
7
  6
CONTINUOUS
 10
363.8045156736
 20
31.7199947902
 11
364.0357657839
 21
31.6877311038
  0
LINE
  8
0
 62
7
  6
CONTINUOUS
 10
368.2560780634
 20
31.3650941944
 11
369.2388907839
 21
31.2037757623
  0
LINE
  8
0
 62
7
  6
CONTINUOUS
 10
369.4123282839
 20
31.3005668216
 11
368.4295155634
 21
31.4618852989
  0
LINE
  8
0
 62
7
  6
CONTINUOUS
 10
361.8967031736
 20
31.8167858495
 11
361.7232656736
 21
31.8490495359
  0
LINE
  8
0
 62
7
  6
CONTINUOUS
 10
368.1982657839
 20
30.8811388585
 11
368.3717032839
 21
30.8488751693
  0
LINE
  8
0
 62
7
  6
CONTINUOUS
 10
367.0420155634
 20
31.8167858495
 11
366.8685780634
 21
31.8490495359
  0
LINE
  8
0
 62
7
  6
CONTINUOUS
 10
369.2967030634
 20
31.6877311038
 11
369.4123282839
 21
31.6554674174
  0
LINE
  8
0
 62
7
  6
CONTINUOUS
 10
369.4701405634
 20
31.074720994
 11
369.4123282839
 21
31.0101936212
  0
LINE
  8
0
 62
7
  6
CONTINUOUS
 10
368.0248282839
 20
31.7522584767
 11
367.9092030634
 21
31.6554674174
  0
LINE
  8
0
 62
7
  6
CONTINUOUS
 10
362.9373281736
 20
31.7845221631
 11
362.8217029531
 21
31.7199947902
  0
LINE
  8
0
 62
7
  6
CONTINUOUS
 10
362.9951404531
 20
31.397357926
 11
362.8795155634
 21
31.332830508
  0
LINE
  8
0
 62
7
  6
CONTINUOUS
 10
363.1107656736
 20
31.2360394487
 11
363.2263905634
 21
31.3005668216
  0
LINE
  8
0
 62
7
  6
CONTINUOUS
 10
360.6826405082
 20
30.81661148
 11
360.9717030634
 21
30.81661148
  0
LINE
  8
0
 62
7
  6
CONTINUOUS
 10
362.0123280634
 20
30.81661148
 11
362.3013904531
 21
30.81661148
  0
LINE
  8
0
 62
7
  6
CONTINUOUS
 10
363.3420154531
 20
30.81661148
 11
363.6888904531
 21
30.81661148
  0
LINE
  8
0
 62
7
  6
CONTINUOUS
 10
364.3248278428
 20
30.81661148
 11
364.6138905634
 21
30.81661148
  0
LINE
  8
0
 62
7
  6
CONTINUOUS
 10
365.0763907839
 20
30.81661148
 11
365.3654528428
 21
30.81661148
  0
LINE
  8
0
 62
7
  6
CONTINUOUS
 10
365.8279530634
 20
30.81661148
 11
366.1170157839
 21
30.81661148
  0
LINE
  8
0
 62
7
  6
CONTINUOUS
 10
367.1576407839
 20
30.81661148
 11
367.4467028428
 21
30.81661148
  0
LINE
  8
0
 62
7
  6
CONTINUOUS
 10
368.7185782839
 20
30.81661148
 11
369.0654532839
 21
30.81661148
  0
LINE
  8
0
 62
7
  6
CONTINUOUS
 10
369.0654532839
 20
30.945666237
 11
368.7185782839
 21
30.945666237
  0
LINE
  8
0
 62
7
  6
CONTINUOUS
 10
363.6888904531
 20
30.945666237
 11
363.3420154531
 21
30.945666237
  0
LINE
  8
0
 62
7
  6
CONTINUOUS
 10
368.1982657839
 20
31.074720994
 11
367.9092030634
 21
31.074720994
  0
LINE
  8
0
 62
7
  6
CONTINUOUS
 10
360.2201406185
 20
31.1392483894
 11
359.9310780634
 21
31.1392483894
  0
LINE
  8
0
 62
7
  6
CONTINUOUS
 10
359.2951405909
 20
31.7199947902
 11
359.6998280358
 21
31.6877311038
  0
LINE
  8
0
 62
7
  6
CONTINUOUS
 10
359.7576405634
 20
31.8167858495
 11
359.3529530358
 21
31.8490495359
  0
LINE
  8
0
 62
7
  6
CONTINUOUS
 10
368.3717032839
 20
30.8488751693
 11
368.7185782839
 21
30.81661148
  0
LINE
  8
0
 62
7
  6
CONTINUOUS
 10
368.7185782839
 20
30.945666237
 11
368.3717032839
 21
30.9779299347
  0
LINE
  8
0
 62
7
  6
CONTINUOUS
 10
364.1513903428
 20
31.8167858495
 11
363.8045156736
 21
31.8490495359
  0
LINE
  8
0
 62
7
  6
CONTINUOUS
 10
368.9498280634
 20
31.7199947902
 11
369.2967030634
 21
31.6877311038
  0
LINE
  8
0
 62
7
  6
CONTINUOUS
 10
369.2967030634
 20
31.8167858495
 11
368.9498280634
 21
31.8490495359
  0
LINE
  8
0
 62
7
  6
CONTINUOUS
 10
366.6373282839
 20
31.7199947902
 11
366.8685780634
 21
31.6877311038
  0
LINE
  8
0
 62
7
  6
CONTINUOUS
 10
369.4701405634
 20
31.7845221631
 11
369.2967030634
 21
31.8167858495
  0
LINE
  8
0
 62
7
  6
CONTINUOUS
 10
369.6435780634
 20
30.9134025506
 11
369.7592026223
 21
31.0101936212
  0
LINE
  8
0
 62
7
  6
CONTINUOUS
 10
364.1513903428
 20
31.106984703
 11
363.9779528428
 21
31.0101936212
  0
LINE
  8
0
 62
7
  6
CONTINUOUS
 10
366.2326403428
 20
31.7522584767
 11
366.1170157839
 21
31.6877311038
  0
LINE
  8
0
 62
7
  6
CONTINUOUS
 10
366.1170157839
 20
31.5586763581
 11
366.2326403428
 21
31.623203731
  0
LINE
  8
0
 62
7
  6
CONTINUOUS
 10
358.8326405772
 20
31.7845221631
 11
358.6592030565
 21
31.7199947902
  0
LINE
  8
0
 62
7
  6
CONTINUOUS
 10
361.2607654531
 20
31.8167858495
 11
361.0873281185
 21
31.7522584767
  0
LINE
  8
0
 62
7
  6
CONTINUOUS
 10
361.0873281185
 20
31.623203731
 11
361.2607654531
 21
31.6877311038
  0
LINE
  8
0
 62
7
  6
CONTINUOUS
 10
359.8732656185
 20
31.0424573076
 11
359.6998280358
 21
30.9779299347
  0
LINE
  8
0
 62
7
  6
CONTINUOUS
 10
369.2967030634
 20
30.9779299347
 11
369.0654532839
 21
30.945666237
  0
LINE
  8
0
 62
7
  6
CONTINUOUS
 10
363.6888904531
 20
30.81661148
 11
363.9779528428
 21
30.8488751693
  0
LINE
  8
0
 62
7
  6
CONTINUOUS
 10
369.0654532839
 20
30.81661148
 11
369.4123282839
 21
30.8488751693
  0
LINE
  8
0
 62
7
  6
CONTINUOUS
 10
359.3529530358
 20
30.81661148
 11
359.7576405634
 21
30.8488751693
  0
LINE
  8
0
 62
7
  6
CONTINUOUS
 10
359.6998280358
 20
30.9779299347
 11
359.2951405909
 21
30.945666237
  0
LINE
  8
0
 62
7
  6
CONTINUOUS
 10
363.5732655634
 20
31.3650941944
 11
364.2092032839
 21
31.3650941944
  0
LINE
  8
0
 62
7
  6
CONTINUOUS
 10
364.2092032839
 20
31.4941489853
 11
363.5732655634
 21
31.4941489853
  0
LINE
  8
0
 62
7
  6
CONTINUOUS
 10
359.9310780634
 20
31.5264126717
 11
360.2201406185
 21
31.5264126717
  0
LINE
  8
0
 62
7
  6
CONTINUOUS
 10
362.7638906736
 20
31.5909400446
 11
363.0529530634
 21
31.5909400446
  0
LINE
  8
0
 62
7
  6
CONTINUOUS
 10
369.4701405634
 20
31.5909400446
 11
369.7592026223
 21
31.5909400446
  0
LINE
  8
0
 62
7
  6
CONTINUOUS
 10
363.4576406736
 20
31.7199947902
 11
363.8045156736
 21
31.7199947902
  0
LINE
  8
0
 62
7
  6
CONTINUOUS
 10
368.6029530634
 20
31.7199947902
 11
368.9498280634
 21
31.7199947902
  0
LINE
  8
0
 62
7
  6
CONTINUOUS
 10
368.9498280634
 20
31.8490495359
 11
368.6029530634
 21
31.8490495359
  0
LINE
  8
0
 62
7
  6
CONTINUOUS
 10
366.8685780634
 20
31.8490495359
 11
366.6373282839
 21
31.8490495359
  0
LINE
  8
0
 62
7
  6
CONTINUOUS
 10
366.1170157839
 20
31.8490495359
 11
365.8279530634
 21
31.8490495359
  0
LINE
  8
0
 62
7
  6
CONTINUOUS
 10
365.3654528428
 20
31.8490495359
 11
365.0763907839
 21
31.8490495359
  0
LINE
  8
0
 62
7
  6
CONTINUOUS
 10
363.8045156736
 20
31.8490495359
 11
363.4576406736
 21
31.8490495359
  0
LINE
  8
0
 62
7
  6
CONTINUOUS
 10
361.7232656736
 20
31.8490495359
 11
361.4920155634
 21
31.8490495359
  0
LINE
  8
0
 62
7
  6
CONTINUOUS
 10
365.0763907839
 20
32.1716864905
 11
365.3654528428
 21
32.1716864905
  0
LINE
  8
0
 62
7
  6
CONTINUOUS
 10
365.3654528428
 20
32.3330049227
 11
365.0763907839
 21
32.3330049227
  0
LINE
  8
0
 62
7
  6
CONTINUOUS
 10
360.9717030634
 20
32.3330049227
 11
360.6826405082
 21
32.3330049227
  0
LINE
  8
0
 62
7
  6
CONTINUOUS
 10
360.0094848257
 20
32.6198901686
 11
360.4220561743
 21
32.6198901686
  0
LINE
  8
0
 62
7
  6
CONTINUOUS
 10
361.648829088
 20
32.6198901686
 11
363.0422717109
 21
32.6198901686
  0
LINE
  8
0
 62
7
  6
CONTINUOUS
 10
363.3701405634
 20
32.6198901686
 11
364.7635831863
 21
32.6198901686
  0
LINE
  8
0
 62
7
  6
CONTINUOUS
 10
366.648829088
 20
32.6198901686
 11
368.0422717109
 21
32.6198901686
  0
LINE
  8
0
 62
7
  6
CONTINUOUS
 10
368.3701405634
 20
32.6198901686
 11
369.7635831863
 21
32.6198901686
  0
LINE
  8
0
 62
7
  6
CONTINUOUS
 10
366.4060778428
 20
31.8167858495
 11
366.2326403428
 21
31.7522584767
  0
LINE
  8
0
 62
7
  6
CONTINUOUS
 10
363.9779528428
 20
30.8488751693
 11
364.1513903428
 21
30.9134025506
  0
LINE
  8
0
 62
7
  6
CONTINUOUS
 10
369.4123282839
 20
30.8488751693
 11
369.6435780634
 21
30.9134025506
  0
LINE
  8
0
 62
7
  6
CONTINUOUS
 10
369.4123282839
 20
31.0101936212
 11
369.2967030634
 21
30.9779299347
  0
LINE
  8
0
 62
7
  6
CONTINUOUS
 10
368.3717032839
 20
31.6877311038
 11
368.6029530634
 21
31.7199947902
  0
LINE
  8
0
 62
7
  6
CONTINUOUS
 10
366.4060778428
 20
31.6877311038
 11
366.6373282839
 21
31.7199947902
  0
LINE
  8
0
 62
7
  6
CONTINUOUS
 10
363.3420154531
 20
31.332830508
 11
363.5732655634
 21
31.3650941944
  0
LINE
  8
0
 62
7
  6
CONTINUOUS
 10
366.6373282839
 20
31.8490495359
 11
366.4060778428
 21
31.8167858495
  0
LINE
  8
0
 62
7
  6
CONTINUOUS
 10
363.2263905634
 20
31.6877311038
 11
363.4576406736
 21
31.7199947902
  0
LINE
  8
0
 62
7
  6
CONTINUOUS
 10
368.6029530634
 20
31.8490495359
 11
368.2560780634
 21
31.8167858495
  0
LINE
  8
0
 62
7
  6
CONTINUOUS
 10
363.5732655634
 20
31.4941489853
 11
363.2263905634
 21
31.4618852989
  0
LINE
  8
0
 62
7
  6
CONTINUOUS
 10
359.3529530358
 20
31.8490495359
 11
359.0060780772
 21
31.8167858495
  0
LINE
  8
0
 62
7
  6
CONTINUOUS
 10
363.4576406736
 20
31.8490495359
 11
363.0529530634
 21
31.8167858495
  0
LINE
  8
0
 62
7
  6
CONTINUOUS
 10
360.8291569568
 20
33.7674311522
 11
360.1734192519
 21
33.7674311522
  0
LINE
  8
0
 62
7
  6
CONTINUOUS
 10
366.2326403428
 20
31.623203731
 11
366.4060778428
 21
31.6877311038
  0
LINE
  8
0
 62
7
  6
CONTINUOUS
 10
368.2560780634
 20
31.6554674174
 11
368.3717032839
 21
31.6877311038
  0
LINE
  8
0
 62
7
  6
CONTINUOUS
 10
368.2560780634
 20
31.8167858495
 11
368.0248282839
 21
31.7522584767
  0
LINE
  8
0
 62
7
  6
CONTINUOUS
 10
363.9779528428
 20
31.0101936212
 11
363.6888904531
 21
30.945666237
  0
LINE
  8
0
 62
7
  6
CONTINUOUS
 10
361.2607654531
 20
31.6877311038
 11
361.4920155634
 21
31.7199947902
  0
LINE
  8
0
 62
7
  6
CONTINUOUS
 10
361.4920155634
 20
31.8490495359
 11
361.2607654531
 21
31.8167858495
  0
LINE
  8
0
 62
7
  6
CONTINUOUS
 10
359.0638905634
 20
31.6877311038
 11
359.2951405909
 21
31.7199947902
  0
LINE
  8
0
 62
7
  6
CONTINUOUS
 10
365.5832553175
 20
35.2428409882
 11
366.2389930224
 21
35.2428409882
  0
LINE
  8
0
 62
7
  6
CONTINUOUS
 10
363.2263905634
 20
31.3005668216
 11
363.3420154531
 21
31.332830508
  0
LINE
  8
0
 62
7
  6
CONTINUOUS
 10
363.2263905634
 20
31.4618852989
 11
362.9951404531
 21
31.397357926
  0
LINE
  8
0
 62
7
  6
CONTINUOUS
 10
363.1107656736
 20
31.6554674174
 11
363.2263905634
 21
31.6877311038
  0
LINE
  8
0
 62
7
  6
CONTINUOUS
 10
359.7576405634
 20
30.8488751693
 11
359.9888905082
 21
30.9134025506
  0
LINE
  8
0
 62
7
  6
CONTINUOUS
 10
363.0529530634
 20
31.8167858495
 11
362.9373281736
 21
31.7845221631
  0
LINE
  8
0
 62
7
  6
CONTINUOUS
 10
359.0060780772
 20
31.8167858495
 11
358.8326405772
 21
31.7845221631
  0
LINE
  8
0
 62
7
  6
CONTINUOUS
 10
369.7635831863
 20
36.3903819718
 11
368.3701405634
 21
36.3903819718
  0
LINE
  8
0
 62
7
  6
CONTINUOUS
 10
366.4029274486
 20
36.3903819718
 11
365.9903561
 21
36.3903819718
  0
LINE
  8
0
 62
7
  6
CONTINUOUS
 10
364.7635831863
 20
36.3903819718
 11
363.3701405634
 21
36.3903819718
  0
LINE
  8
0
 62
7
  6
CONTINUOUS
 10
363.0422717109
 20
36.3903819718
 11
361.648829088
 21
36.3903819718
  0
LINE
  8
0
 62
7
  6
CONTINUOUS
 10
359.7635831863
 20
36.3903819718
 11
358.3701405634
 21
36.3903819718
  0
LINE
  8
0
 62
7
  6
CONTINUOUS
 10
358.9482655496
 20
31.6554674174
 11
359.0638905634
 21
31.6877311038
  0
CIRCLE
  8
0
 62
7
  6
CONTINUOUS
 10
369.0668618749
 20
38.7264475456
 40
2.0901639344
  0
ARC
  8
0
 62
7
  6
CONTINUOUS
 10
360.0094848257
 20
34.2592344308
 40
1.6393442623
 50
180.0
 51
270.0
  0
ARC
  8
0
 62
7
  6
CONTINUOUS
 10
366.4029274486
 20
34.7510377095
 40
1.6393442623
 50
0.0
 51
90.0
  0
ARC
  8
0
 62
7
  6
CONTINUOUS
 10
360.4220561743
 20
34.0953000046
 40
1.4754098361
 50
270.0
 51
326.2510114041
  0
ARC
  8
0
 62
7
  6
CONTINUOUS
 10
365.9903561
 20
34.9149721358
 40
1.4754098361
 50
90.0
 51
146.2510114041
  0
ARC
  8
0
 62
7
  6
CONTINUOUS
 10
360.8291569568
 20
34.5871032833
 40
0.8196721311
 50
270.0
 51
360.0
  0
ARC
  8
0
 62
7
  6
CONTINUOUS
 10
365.5832553175
 20
34.4231688571
 40
0.8196721311
 50
90.0
 51
180.0
  0
ARC
  8
0
 62
7
  6
CONTINUOUS
 10
360.1734192519
 20
34.1772672177
 40
0.4098360656
 50
180.0
 51
270.0
  0
ARC
  8
0
 62
7
  6
CONTINUOUS
 10
366.2389930224
 20
34.8330049227
 40
0.4098360656
 50
0.0
 51
90.0
  0
SOLID
  8
0
 62
7
  6
CONTINUOUS
 10
365.0763907839
 20
32.1716868508
 11
365.0763907839
 21
32.3330053344
 12
365.3654528428
 22
32.1716868508
 13
365.3654528428
 23
32.3330053344
  0
SOLID
  8
0
 62
7
  6
CONTINUOUS
 10
359.3529530358
 20
31.8490498836
 11
359.7576405634
 21
31.8167854792
 12
359.0060780772
 22
31.8167854792
 13
359.0060780772
 23
31.8167854792
  0
SOLID
  8
0
 62
7
  6
CONTINUOUS
 10
358.8326405772
 20
31.7845227934
 11
359.0060780772
 21
31.8167854792
 12
359.7576405634
 22
31.8167854792
 13
359.7576405634
 23
31.8167854792
  0
SOLID
  8
0
 62
7
  6
CONTINUOUS
 10
359.7576405634
 20
31.8167854792
 11
359.9888905082
 21
31.7522584901
 12
358.8326405772
 22
31.7845227934
 13
358.8326405772
 23
31.7845227934
  0
SOLID
  8
0
 62
7
  6
CONTINUOUS
 10
358.6592030565
 20
31.7199940664
 11
358.8326405772
 21
31.7845227934
 12
359.9888905082
 22
31.7522584901
 13
359.9888905082
 23
31.7522584901
  0
SOLID
  8
0
 62
7
  6
CONTINUOUS
 10
358.6592030565
 20
31.7199940664
 11
359.9888905082
 21
31.7522584901
 12
359.2951405909
 22
31.7199940664
 13
359.2951405909
 23
31.7199940664
  0
SOLID
  8
0
 62
7
  6
CONTINUOUS
 10
359.2951405909
 20
31.7199940664
 11
359.9888905082
 21
31.7522584901
 12
359.6998280358
 22
31.6877314
 13
359.6998280358
 23
31.6877314
  0
SOLID
  8
0
 62
7
  6
CONTINUOUS
 10
359.9888905082
 20
31.7522584901
 11
360.1623280082
 21
31.6554670967
 12
359.6998280358
 22
31.6877314
 13
359.6998280358
 23
31.6877314
  0
SOLID
  8
0
 62
7
  6
CONTINUOUS
 10
359.8732656185
 20
31.6232043098
 11
359.6998280358
 21
31.6877314
 12
360.1623280082
 22
31.6554670967
 13
360.1623280082
 23
31.6554670967
  0
SOLID
  8
0
 62
7
  6
CONTINUOUS
 10
359.8732656185
 20
31.6232043098
 11
360.1623280082
 21
31.6554670967
 12
359.9310780634
 22
31.5264128539
 13
359.9310780634
 23
31.5264128539
  0
SOLID
  8
0
 62
7
  6
CONTINUOUS
 10
360.1623280082
 20
31.6554670967
 11
360.2201406185
 21
31.5264128539
 12
359.9310780634
 22
31.5264128539
 13
359.9310780634
 23
31.5264128539
  0
SOLID
  8
0
 62
7
  6
CONTINUOUS
 10
361.2607654531
 20
31.8167852459
 11
361.4920155634
 21
31.8490495492
 12
361.7232656736
 22
31.8490495492
 13
361.7232656736
 23
31.8490495492
  0
SOLID
  8
0
 62
7
  6
CONTINUOUS
 10
361.7232656736
 20
31.8490495492
 11
361.8967031736
 21
31.8167852459
 12
361.2607654531
 22
31.8167852459
 13
361.2607654531
 23
31.8167852459
  0
SOLID
  8
0
 62
7
  6
CONTINUOUS
 10
361.0873281185
 20
31.7522581557
 11
361.2607654531
 21
31.8167852459
 12
361.8967031736
 22
31.8167852459
 13
361.8967031736
 23
31.8167852459
  0
SOLID
  8
0
 62
7
  6
CONTINUOUS
 10
361.8967031736
 20
31.8167852459
 11
362.0701406736
 21
31.7522581557
 12
361.0873281185
 22
31.7522581557
 13
361.0873281185
 23
31.7522581557
  0
SOLID
  8
0
 62
7
  6
CONTINUOUS
 10
362.0701406736
 20
31.7522581557
 11
361.4920155634
 21
31.7199941869
 12
361.0873281185
 22
31.7522581557
 13
361.0873281185
 23
31.7522581557
  0
SOLID
  8
0
 62
7
  6
CONTINUOUS
 10
360.9717030634
 20
31.6877310656
 11
361.0873281185
 21
31.7522581557
 12
361.4920155634
 22
31.7199941869
 13
361.4920155634
 23
31.7199941869
  0
SOLID
  8
0
 62
7
  6
CONTINUOUS
 10
361.4920155634
 20
31.7199941869
 11
361.2607654531
 21
31.6877310656
 12
360.9717030634
 22
31.6877310656
 13
360.9717030634
 23
31.6877310656
  0
SOLID
  8
0
 62
7
  6
CONTINUOUS
 10
361.4920155634
 20
31.7199941869
 11
362.0701406736
 21
31.7522581557
 12
361.7232656736
 22
31.6877310656
 13
361.7232656736
 23
31.6877310656
  0
SOLID
  8
0
 62
7
  6
CONTINUOUS
 10
362.0701406736
 20
31.7522581557
 11
362.1857655634
 21
31.6877310656
 12
361.7232656736
 22
31.6877310656
 13
361.7232656736
 23
31.6877310656
  0
SOLID
  8
0
 62
7
  6
CONTINUOUS
 10
361.8388905634
 20
31.6554670967
 11
361.7232656736
 21
31.6877310656
 12
362.1857655634
 22
31.6877310656
 13
362.1857655634
 23
31.6877310656
  0
SOLID
  8
0
 62
7
  6
CONTINUOUS
 10
362.1857655634
 20
31.6877310656
 11
362.2435781736
 21
31.6232039754
 12
361.8388905634
 22
31.6554670967
 13
361.8388905634
 23
31.6554670967
  0
SOLID
  8
0
 62
7
  6
CONTINUOUS
 10
361.9545154531
 20
31.5909400065
 11
361.8388905634
 21
31.6554670967
 12
362.2435781736
 22
31.6232039754
 13
362.2435781736
 23
31.6232039754
  0
SOLID
  8
0
 62
7
  6
CONTINUOUS
 10
361.9545154531
 20
31.5909400065
 11
362.2435781736
 21
31.6232039754
 12
362.0123280634
 22
31.4618854918
 13
362.0123280634
 23
31.4618854918
  0
SOLID
  8
0
 62
7
  6
CONTINUOUS
 10
362.2435781736
 20
31.6232039754
 11
362.3013904531
 21
31.4618854918
 12
362.0123280634
 22
31.4618854918
 13
362.0123280634
 23
31.4618854918
  0
SOLID
  8
0
 62
7
  6
CONTINUOUS
 10
361.2607654531
 20
31.6877310656
 11
361.0873281185
 21
31.6232039754
 12
360.9717030634
 22
31.6877310656
 13
360.9717030634
 23
31.6877310656
  0
SOLID
  8
0
 62
7
  6
CONTINUOUS
 10
361.0873281185
 20
31.6232039754
 11
360.9717030634
 21
31.5586757033
 12
360.9717030634
 22
31.6877310656
 13
360.9717030634
 23
31.6877310656
  0
SOLID
  8
0
 62
7
  6
CONTINUOUS
 10
360.9717030634
 20
31.5586757033
 11
360.6826405082
 21
30.8166115574
 12
360.9717030634
 22
31.6877310656
 13
360.9717030634
 23
31.6877310656
  0
SOLID
  8
0
 62
7
  6
CONTINUOUS
 10
360.9717030634
 20
31.6877310656
 11
360.6826405082
 21
30.8166115574
 12
360.9717030634
 22
32.333005
 13
360.9717030634
 23
32.333005
  0
SOLID
  8
0
 62
7
  6
CONTINUOUS
 10
360.6826405082
 20
30.8166115574
 11
360.6826405082
 21
32.333005
 12
360.9717030634
 22
32.333005
 13
360.9717030634
 23
32.333005
  0
SOLID
  8
0
 62
7
  6
CONTINUOUS
 10
360.9717030634
 20
31.5586757033
 11
360.9717030634
 21
30.8166115574
 12
360.6826405082
 22
30.8166115574
 13
360.6826405082
 23
30.8166115574
  0
SOLID
  8
0
 62
7
  6
CONTINUOUS
 10
362.0123280634
 20
30.8166115574
 11
362.0123280634
 21
31.4618854918
 12
362.3013904531
 22
31.4618854918
 13
362.3013904531
 23
31.4618854918
  0
SOLID
  8
0
 62
7
  6
CONTINUOUS
 10
362.3013904531
 20
31.4618854918
 11
362.3013904531
 21
30.8166115574
 12
362.0123280634
 22
30.8166115574
 13
362.0123280634
 23
30.8166115574
  0
SOLID
  8
0
 62
7
  6
CONTINUOUS
 10
363.0529530634
 20
31.8167856315
 11
363.4576406736
 21
31.8490496243
 12
363.8045156736
 22
31.8490496243
 13
363.8045156736
 23
31.8490496243
  0
SOLID
  8
0
 62
7
  6
CONTINUOUS
 10
363.8045156736
 20
31.8490496243
 11
364.1513903428
 21
31.8167856315
 12
363.0529530634
 22
31.8167856315
 13
363.0529530634
 23
31.8167856315
  0
SOLID
  8
0
 62
7
  6
CONTINUOUS
 10
362.9373281736
 20
31.7845227934
 11
363.0529530634
 21
31.8167856315
 12
364.1513903428
 22
31.8167856315
 13
364.1513903428
 23
31.8167856315
  0
SOLID
  8
0
 62
7
  6
CONTINUOUS
 10
364.1513903428
 20
31.8167856315
 11
364.3248278428
 21
31.7522584901
 12
362.9373281736
 22
31.7845227934
 13
362.9373281736
 23
31.7845227934
  0
SOLID
  8
0
 62
7
  6
CONTINUOUS
 10
362.8217029531
 20
31.7199944276
 11
362.9373281736
 21
31.7845227934
 12
364.3248278428
 22
31.7522584901
 13
364.3248278428
 23
31.7522584901
  0
SOLID
  8
0
 62
7
  6
CONTINUOUS
 10
362.8217029531
 20
31.7199944276
 11
364.3248278428
 21
31.7522584901
 12
363.4576406736
 22
31.7199944276
 13
363.4576406736
 23
31.7199944276
  0
SOLID
  8
0
 62
7
  6
CONTINUOUS
 10
363.4576406736
 20
31.7199944276
 11
364.3248278428
 21
31.7522584901
 12
363.8045156736
 22
31.7199944276
 13
363.8045156736
 23
31.7199944276
  0
SOLID
  8
0
 62
7
  6
CONTINUOUS
 10
363.8045156736
 20
31.7199944276
 11
364.3248278428
 21
31.7522584901
 12
364.0357657839
 22
31.6877312092
 13
364.0357657839
 23
31.6877312092
  0
SOLID
  8
0
 62
7
  6
CONTINUOUS
 10
364.3248278428
 20
31.7522584901
 11
364.4404530634
 21
31.6877312092
 12
364.0357657839
 22
31.6877312092
 13
364.0357657839
 23
31.6877312092
  0
SOLID
  8
0
 62
7
  6
CONTINUOUS
 10
362.7638906736
 20
31.6554672165
 11
362.8217029531
 21
31.7199944276
 12
363.4576406736
 22
31.7199944276
 13
363.4576406736
 23
31.7199944276
  0
SOLID
  8
0
 62
7
  6
CONTINUOUS
 10
364.1513903428
 20
31.6554672165
 11
364.0357657839
 21
31.6877312092
 12
364.4404530634
 22
31.6877312092
 13
364.4404530634
 23
31.6877312092
  0
SOLID
  8
0
 62
7
  6
CONTINUOUS
 10
364.1513903428
 20
31.6554672165
 11
364.4404530634
 21
31.6877312092
 12
364.2092032839
 22
31.5909400053
 13
364.2092032839
 23
31.5909400053
  0
SOLID
  8
0
 62
7
  6
CONTINUOUS
 10
364.4404530634
 20
31.6877312092
 11
364.4982653428
 21
31.5909400053
 12
364.2092032839
 22
31.5909400053
 13
364.2092032839
 23
31.5909400053
  0
SOLID
  8
0
 62
7
  6
CONTINUOUS
 10
364.2092032839
 20
31.4941486131
 11
364.2092032839
 21
31.5909400053
 12
364.4982653428
 22
31.5909400053
 13
364.4982653428
 23
31.5909400053
  0
SOLID
  8
0
 62
7
  6
CONTINUOUS
 10
364.2092032839
 20
31.4941486131
 11
364.4982653428
 21
31.5909400053
 12
364.2092032839
 22
31.3650944328
 13
364.2092032839
 23
31.3650944328
  0
SOLID
  8
0
 62
7
  6
CONTINUOUS
 10
364.2092032839
 20
31.3650944328
 11
364.4982653428
 21
31.5909400053
 12
364.2092032839
 22
31.1715120759
 13
364.2092032839
 23
31.1715120759
  0
SOLID
  8
0
 62
7
  6
CONTINUOUS
 10
364.4982653428
 20
31.5909400053
 11
364.4982653428
 21
31.0747202524
 12
364.2092032839
 22
31.1715120759
 13
364.2092032839
 23
31.1715120759
  0
SOLID
  8
0
 62
7
  6
CONTINUOUS
 10
366.4060778428
 20
31.8167851023
 11
366.6373282839
 21
31.849049822
 12
366.8685780634
 22
31.849049822
 13
366.8685780634
 23
31.849049822
  0
SOLID
  8
0
 62
7
  6
CONTINUOUS
 10
366.8685780634
 20
31.849049822
 11
367.0420155634
 21
31.8167851023
 12
366.4060778428
 22
31.8167851023
 13
366.4060778428
 23
31.8167851023
  0
SOLID
  8
0
 62
7
  6
CONTINUOUS
 10
366.2326403428
 20
31.7522587602
 11
366.4060778428
 21
31.8167851023
 12
367.0420155634
 22
31.8167851023
 13
367.0420155634
 23
31.8167851023
  0
SOLID
  8
0
 62
7
  6
CONTINUOUS
 10
367.0420155634
 20
31.8167851023
 11
367.2154530634
 21
31.7522587602
 12
366.2326403428
 22
31.7522587602
 13
366.2326403428
 23
31.7522587602
  0
SOLID
  8
0
 62
7
  6
CONTINUOUS
 10
367.2154530634
 20
31.7522587602
 11
366.6373282839
 21
31.7199941869
 12
366.2326403428
 22
31.7522587602
 13
366.2326403428
 23
31.7522587602
  0
SOLID
  8
0
 62
7
  6
CONTINUOUS
 10
366.1170157839
 20
31.6877313857
 11
366.2326403428
 21
31.7522587602
 12
366.6373282839
 22
31.7199941869
 13
366.6373282839
 23
31.7199941869
  0
SOLID
  8
0
 62
7
  6
CONTINUOUS
 10
366.6373282839
 20
31.7199941869
 11
366.4060778428
 21
31.6877313857
 12
366.1170157839
 22
31.6877313857
 13
366.1170157839
 23
31.6877313857
  0
SOLID
  8
0
 62
7
  6
CONTINUOUS
 10
366.6373282839
 20
31.7199941869
 11
367.2154530634
 21
31.7522587602
 12
366.8685780634
 22
31.6877313857
 13
366.8685780634
 23
31.6877313857
  0
SOLID
  8
0
 62
7
  6
CONTINUOUS
 10
367.2154530634
 20
31.7522587602
 11
367.3310782839
 21
31.6877313857
 12
366.8685780634
 22
31.6877313857
 13
366.8685780634
 23
31.6877313857
  0
SOLID
  8
0
 62
7
  6
CONTINUOUS
 10
366.9842032839
 20
31.6554670967
 11
366.8685780634
 21
31.6877313857
 12
367.3310782839
 22
31.6877313857
 13
367.3310782839
 23
31.6877313857
  0
SOLID
  8
0
 62
7
  6
CONTINUOUS
 10
366.9842032839
 20
31.6554670967
 11
367.3310782839
 21
31.6877313857
 12
367.0998278428
 22
31.590940324
 13
367.0998278428
 23
31.590940324
  0
SOLID
  8
0
 62
7
  6
CONTINUOUS
 10
367.3310782839
 20
31.6877313857
 11
367.3888905634
 21
31.590940324
 12
367.0998278428
 22
31.590940324
 13
367.0998278428
 23
31.590940324
  0
SOLID
  8
0
 62
7
  6
CONTINUOUS
 10
367.1576407839
 20
31.4296218878
 11
367.0998278428
 21
31.590940324
 12
367.3888905634
 22
31.590940324
 13
367.3888905634
 23
31.590940324
  0
SOLID
  8
0
 62
7
  6
CONTINUOUS
 10
367.3888905634
 20
31.590940324
 11
367.4467028428
 21
31.4296218878
 12
367.1576407839
 22
31.4296218878
 13
367.1576407839
 23
31.4296218878
  0
SOLID
  8
0
 62
7
  6
CONTINUOUS
 10
366.4060778428
 20
31.6877313857
 11
366.2326403428
 21
31.6232043098
 12
366.1170157839
 22
31.6877313857
 13
366.1170157839
 23
31.6877313857
  0
SOLID
  8
0
 62
7
  6
CONTINUOUS
 10
366.2326403428
 20
31.6232043098
 11
366.1170157839
 21
31.5586757033
 12
366.1170157839
 22
31.6877313857
 13
366.1170157839
 23
31.6877313857
  0
SOLID
  8
0
 62
7
  6
CONTINUOUS
 10
366.1170157839
 20
31.5586757033
 11
365.8279530634
 21
30.8166118302
 12
366.1170157839
 22
31.6877313857
 13
366.1170157839
 23
31.6877313857
  0
SOLID
  8
0
 62
7
  6
CONTINUOUS
 10
366.1170157839
 20
31.6877313857
 11
365.8279530634
 21
30.8166118302
 12
366.1170157839
 22
31.849049822
 13
366.1170157839
 23
31.849049822
  0
SOLID
  8
0
 62
7
  6
CONTINUOUS
 10
365.8279530634
 20
30.8166118302
 11
365.8279530634
 21
31.849049822
 12
366.1170157839
 22
31.849049822
 13
366.1170157839
 23
31.849049822
  0
SOLID
  8
0
 62
7
  6
CONTINUOUS
 10
366.1170157839
 20
31.5586757033
 11
366.1170157839
 21
30.8166118302
 12
365.8279530634
 22
30.8166118302
 13
365.8279530634
 23
30.8166118302
  0
SOLID
  8
0
 62
7
  6
CONTINUOUS
 10
367.1576407839
 20
30.8166118302
 11
367.1576407839
 21
31.4296218878
 12
367.4467028428
 22
31.4296218878
 13
367.4467028428
 23
31.4296218878
  0
SOLID
  8
0
 62
7
  6
CONTINUOUS
 10
367.4467028428
 20
31.4296218878
 11
367.4467028428
 21
30.8166118302
 12
367.1576407839
 22
30.8166118302
 13
367.1576407839
 23
30.8166118302
  0
SOLID
  8
0
 62
7
  6
CONTINUOUS
 10
368.2560780634
 20
31.8167856056
 11
368.6029530634
 21
31.8490498552
 12
368.9498280634
 22
31.8490498552
 13
368.9498280634
 23
31.8490498552
  0
SOLID
  8
0
 62
7
  6
CONTINUOUS
 10
368.9498280634
 20
31.8490498552
 11
369.2967030634
 21
31.8167856056
 12
368.2560780634
 22
31.8167856056
 13
368.2560780634
 23
31.8167856056
  0
SOLID
  8
0
 62
7
  6
CONTINUOUS
 10
368.0248282839
 20
31.7522584901
 11
368.2560780634
 21
31.8167856056
 12
369.2967030634
 22
31.8167856056
 13
369.2967030634
 23
31.8167856056
  0
SOLID
  8
0
 62
7
  6
CONTINUOUS
 10
368.0248282839
 20
31.7522584901
 11
369.2967030634
 21
31.8167855803
 12
369.4701405634
 22
31.7845227934
 13
369.4701405634
 23
31.7845227934
  0
SOLID
  8
0
 62
7
  6
CONTINUOUS
 10
368.0248282839
 20
31.7522584901
 11
369.4701405634
 21
31.7845227934
 12
368.6029530634
 22
31.7199941235
 13
368.6029530634
 23
31.7199941235
  0
SOLID
  8
0
 62
7
  6
CONTINUOUS
 10
368.6029530634
 20
31.7199941235
 11
369.4701405634
 21
31.7845227934
 12
368.9498280634
 22
31.7199941235
 13
368.9498280634
 23
31.7199941235
  0
SOLID
  8
0
 62
7
  6
CONTINUOUS
 10
369.4701405634
 20
31.7845227934
 11
369.6435780634
 21
31.7199941235
 12
368.9498280634
 22
31.7199941235
 13
368.9498280634
 23
31.7199941235
  0
SOLID
  8
0
 62
7
  6
CONTINUOUS
 10
369.2967030634
 20
31.6877314
 11
368.9498280634
 21
31.7199941235
 12
369.6435780634
 22
31.7199941235
 13
369.6435780634
 23
31.7199941235
  0
SOLID
  8
0
 62
7
  6
CONTINUOUS
 10
367.9092030634
 20
31.6554671071
 11
368.0248282839
 21
31.7522584901
 12
368.6029530634
 22
31.7199941235
 13
368.6029530634
 23
31.7199941235
  0
SOLID
  8
0
 62
7
  6
CONTINUOUS
 10
369.2967030634
 20
31.6877314
 11
369.6435780634
 21
31.7199941235
 12
369.4123282839
 22
31.6554671071
 13
369.4123282839
 23
31.6554671071
  0
SOLID
  8
0
 62
7
  6
CONTINUOUS
 10
369.4123282839
 20
31.6554671071
 11
369.6435780634
 21
31.7199941235
 12
369.4701405634
 22
31.5909400907
 13
369.4701405634
 23
31.5909400907
  0
SOLID
  8
0
 62
7
  6
CONTINUOUS
 10
369.6435780634
 20
31.7199941235
 11
369.7592026223
 21
31.5909400907
 12
369.4701405634
 22
31.5909400907
 13
369.4701405634
 23
31.5909400907
  0
SOLID
  8
0
 62
7
  6
CONTINUOUS
 10
359.0638905634
 20
31.6877314
 11
358.5435780634
 21
31.6554670789
 12
359.2951405909
 22
31.7199941045
 13
359.2951405909
 23
31.7199941045
  0
SOLID
  8
0
 62
7
  6
CONTINUOUS
 10
358.5435780634
 20
31.6554670789
 11
358.6592030565
 21
31.7199941045
 12
359.2951405909
 22
31.7199941045
 13
359.2951405909
 23
31.7199941045
  0
SOLID
  8
0
 62
7
  6
CONTINUOUS
 10
359.0638905634
 20
31.6877314
 11
358.9482655496
 21
31.6554670789
 12
358.5435780634
 22
31.6554670789
 13
358.5435780634
 23
31.6554670789
  0
SOLID
  8
0
 62
7
  6
CONTINUOUS
 10
358.4279530651
 20
31.5264129164
 11
358.5435780634
 21
31.6554670789
 12
358.9482655496
 22
31.6554670789
 13
358.9482655496
 23
31.6554670789
  0
SOLID
  8
0
 62
7
  6
CONTINUOUS
 10
362.7638906736
 20
31.6554670789
 11
363.4576406736
 21
31.7199941869
 12
363.2263905634
 22
31.6877314
 13
363.2263905634
 23
31.6877314
  0
SOLID
  8
0
 62
7
  6
CONTINUOUS
 10
363.2263905634
 20
31.6877314
 11
363.1107656736
 21
31.6554670789
 12
362.7638906736
 22
31.6554670789
 13
362.7638906736
 23
31.6554670789
  0
SOLID
  8
0
 62
7
  6
CONTINUOUS
 10
362.7638906736
 20
31.5909399887
 11
362.7638906736
 21
31.6554670789
 12
363.1107656736
 22
31.6554670789
 13
363.1107656736
 23
31.6554670789
  0
SOLID
  8
0
 62
7
  6
CONTINUOUS
 10
363.1107656736
 20
31.6554670789
 11
363.0529530634
 21
31.5909399887
 12
362.7638906736
 22
31.5909399887
 13
362.7638906736
 23
31.5909399887
  0
SOLID
  8
0
 62
7
  6
CONTINUOUS
 10
367.9092030634
 20
31.6554670789
 11
368.6029530634
 21
31.7199941869
 12
368.3717032839
 22
31.6877314
 13
368.3717032839
 23
31.6877314
  0
SOLID
  8
0
 62
7
  6
CONTINUOUS
 10
368.3717032839
 20
31.6877314
 11
368.2560780634
 21
31.6554670789
 12
367.9092030634
 22
31.6554670789
 13
367.9092030634
 23
31.6554670789
  0
SOLID
  8
0
 62
7
  6
CONTINUOUS
 10
367.9092030634
 20
31.5909399887
 11
367.9092030634
 21
31.6554670789
 12
368.2560780634
 22
31.6554670789
 13
368.2560780634
 23
31.6554670789
  0
SOLID
  8
0
 62
7
  6
CONTINUOUS
 10
368.2560780634
 20
31.6554670789
 11
368.1982657839
 21
31.5909399887
 12
367.9092030634
 22
31.5909399887
 13
367.9092030634
 23
31.5909399887
  0
SOLID
  8
0
 62
7
  6
CONTINUOUS
 10
368.0248282839
 20
31.4618858262
 11
367.9092030634
 21
31.5909399887
 12
368.1982657839
 22
31.5909399887
 13
368.1982657839
 23
31.5909399887
  0
SOLID
  8
0
 62
7
  6
CONTINUOUS
 10
358.4279530651
 20
31.5264129164
 11
358.9482655496
 21
31.6554670967
 12
358.7748280496
 22
31.5586757033
 13
358.7748280496
 23
31.5586757033
  0
SOLID
  8
0
 62
7
  6
CONTINUOUS
 10
358.7748280496
 20
31.5586757033
 11
358.7170155634
 21
31.4941486131
 12
358.4279530651
 22
31.5264129164
 13
358.4279530651
 23
31.5264129164
  0
SOLID
  8
0
 62
7
  6
CONTINUOUS
 10
358.3701405634
 20
31.3328301295
 11
358.4279530651
 21
31.5264129164
 12
358.7170155634
 22
31.4941486131
 13
358.7170155634
 23
31.4941486131
  0
SOLID
  8
0
 62
7
  6
CONTINUOUS
 10
363.2263905634
 20
31.4618858262
 11
363.5732655634
 21
31.4941485791
 12
364.2092032839
 22
31.4941485791
 13
364.2092032839
 23
31.4941485791
  0
SOLID
  8
0
 62
7
  6
CONTINUOUS
 10
363.2263905634
 20
31.4618858262
 11
364.2092032839
 21
31.4941485791
 12
362.9951404531
 22
31.397357926
 13
362.9951404531
 23
31.397357926
  0
SOLID
  8
0
 62
7
  6
CONTINUOUS
 10
362.9951404531
 20
31.397357926
 11
364.2092032839
 21
31.4941485791
 12
363.5732655634
 22
31.3650943988
 13
363.5732655634
 23
31.3650943988
  0
SOLID
  8
0
 62
7
  6
CONTINUOUS
 10
364.2092032839
 20
31.4941485791
 11
364.2092032839
 21
31.3650943988
 12
363.5732655634
 22
31.3650943988
 13
363.5732655634
 23
31.3650943988
  0
SOLID
  8
0
 62
7
  6
CONTINUOUS
 10
368.0248282839
 20
31.4618859165
 11
368.1982657839
 21
31.5909400065
 12
368.2560780634
 22
31.5264129164
 13
368.2560780634
 23
31.5264129164
  0
SOLID
  8
0
 62
7
  6
CONTINUOUS
 10
368.2560780634
 20
31.5264129164
 11
368.4295155634
 21
31.4618859165
 12
368.0248282839
 22
31.4618859165
 13
368.0248282839
 23
31.4618859165
  0
SOLID
  8
0
 62
7
  6
CONTINUOUS
 10
368.2560780634
 20
31.3650944328
 11
368.0248282839
 21
31.4618859165
 12
368.4295155634
 22
31.4618859165
 13
368.4295155634
 23
31.4618859165
  0
SOLID
  8
0
 62
7
  6
CONTINUOUS
 10
368.4295155634
 20
31.4618859165
 11
369.4123282839
 21
31.3005673426
 12
368.2560780634
 22
31.3650944328
 13
368.2560780634
 23
31.3650944328
  0
SOLID
  8
0
 62
7
  6
CONTINUOUS
 10
369.2388907839
 20
31.2037760287
 11
368.2560780634
 21
31.3650944328
 12
369.4123282839
 22
31.3005673426
 13
369.4123282839
 23
31.3005673426
  0
SOLID
  8
0
 62
7
  6
CONTINUOUS
 10
369.4123282839
 20
31.3005673426
 11
369.6435780634
 21
31.2037760287
 12
369.2388907839
 22
31.2037760287
 13
369.2388907839
 23
31.2037760287
  0
SOLID
  8
0
 62
7
  6
CONTINUOUS
 10
369.4123282839
 20
31.139248859
 11
369.2388907839
 21
31.2037760287
 12
369.6435780634
 22
31.2037760287
 13
369.6435780634
 23
31.2037760287
  0
SOLID
  8
0
 62
7
  6
CONTINUOUS
 10
369.4123282839
 20
31.139248859
 11
369.6435780634
 21
31.2037760287
 12
369.4701405634
 22
31.0747203105
 13
369.4701405634
 23
31.0747203105
  0
SOLID
  8
0
 62
7
  6
CONTINUOUS
 10
369.6435780634
 20
31.2037760287
 11
369.7592026223
 21
31.0747203105
 12
369.4701405634
 22
31.0747203105
 13
369.4701405634
 23
31.0747203105
  0
SOLID
  8
0
 62
7
  6
CONTINUOUS
 10
369.4123282839
 20
31.0101932257
 11
369.4701405634
 21
31.0747203105
 12
369.7592026223
 22
31.0747203105
 13
369.7592026223
 23
31.0747203105
  0
SOLID
  8
0
 62
7
  6
CONTINUOUS
 10
369.7592026223
 20
31.0747203105
 11
369.7592026223
 21
31.0101932257
 12
369.4123282839
 22
31.0101932257
 13
369.4123282839
 23
31.0101932257
  0
SOLID
  8
0
 62
7
  6
CONTINUOUS
 10
369.2967030634
 20
30.9779303754
 11
369.4123282839
 21
31.0101932257
 12
369.7592026223
 22
31.0101932257
 13
369.7592026223
 23
31.0101932257
  0
SOLID
  8
0
 62
7
  6
CONTINUOUS
 10
369.2967030634
 20
30.9779303754
 11
369.7592026223
 21
31.0101932257
 12
369.0654532839
 22
30.9456661409
 13
369.0654532839
 23
30.9456661409
  0
SOLID
  8
0
 62
7
  6
CONTINUOUS
 10
369.7592026223
 20
31.0101932257
 11
369.6435780634
 21
30.9134032852
 12
369.0654532839
 22
30.9456661409
 13
369.0654532839
 23
30.9456661409
  0
SOLID
  8
0
 62
7
  6
CONTINUOUS
 10
369.6435780634
 20
30.9134032852
 11
368.1982657839
 21
30.8811389819
 12
369.0654532839
 22
30.9456661409
 13
369.0654532839
 23
30.9456661409
  0
SOLID
  8
0
 62
7
  6
CONTINUOUS
 10
369.0654532839
 20
30.9456661409
 11
368.1982657839
 21
30.8811389819
 12
368.7185782839
 22
30.9456661409
 13
368.7185782839
 23
30.9456661409
  0
SOLID
  8
0
 62
7
  6
CONTINUOUS
 10
368.1982657839
 20
30.8811389819
 11
368.0248282839
 21
30.9456661409
 12
368.7185782839
 22
30.9456661409
 13
368.7185782839
 23
30.9456661409
  0
SOLID
  8
0
 62
7
  6
CONTINUOUS
 10
368.1982657839
 20
30.8811389819
 11
369.6435780634
 21
30.9134032852
 12
368.3717032839
 22
30.8488743522
 13
368.3717032839
 23
30.8488743522
  0
SOLID
  8
0
 62
7
  6
CONTINUOUS
 10
369.6435780634
 20
30.9134032852
 11
369.4123282839
 21
30.8488743522
 12
368.3717032839
 22
30.8488743522
 13
368.3717032839
 23
30.8488743522
  0
SOLID
  8
0
 62
7
  6
CONTINUOUS
 10
368.7185782839
 20
30.8166119713
 11
368.3717032839
 21
30.8488743522
 12
369.4123282839
 22
30.8488743522
 13
369.4123282839
 23
30.8488743522
  0
SOLID
  8
0
 62
7
  6
CONTINUOUS
 10
369.4123282839
 20
30.8488743522
 11
369.0654532839
 21
30.8166119713
 12
368.7185782839
 22
30.8166119713
 13
368.7185782839
 23
30.8166119713
  0
SOLID
  8
0
 62
7
  6
CONTINUOUS
 10
358.3701405634
 20
31.3328301295
 11
358.7170155634
 21
31.4941486131
 12
358.6592030565
 22
31.3650944328
 13
358.6592030565
 23
31.3650944328
  0
SOLID
  8
0
 62
7
  6
CONTINUOUS
 10
358.6592030565
 20
31.3650944328
 11
358.6592030565
 21
31.2683031351
 12
358.3701405634
 22
31.3328301295
 13
358.3701405634
 23
31.3328301295
  0
SOLID
  8
0
 62
7
  6
CONTINUOUS
 10
358.4279530651
 20
31.139248859
 11
358.3701405634
 21
31.3328301295
 12
358.6592030565
 22
31.2683031351
 13
358.6592030565
 23
31.2683031351
  0
SOLID
  8
0
 62
7
  6
CONTINUOUS
 10
358.6592030565
 20
31.2683031351
 11
358.7748280496
 21
31.1069845557
 12
358.4279530651
 22
31.139248859
 13
358.4279530651
 23
31.139248859
  0
SOLID
  8
0
 62
7
  6
CONTINUOUS
 10
358.5435780634
 20
31.0101931569
 11
358.4279530651
 21
31.139248859
 12
358.7748280496
 22
31.1069845557
 13
358.7748280496
 23
31.1069845557
  0
SOLID
  8
0
 62
7
  6
CONTINUOUS
 10
358.7748280496
 20
31.1069845557
 11
358.9482655496
 21
31.0101931569
 12
358.5435780634
 22
31.0101931569
 13
358.5435780634
 23
31.0101931569
  0
SOLID
  8
0
 62
7
  6
CONTINUOUS
 10
358.6592030565
 20
30.9456659241
 11
358.5435780634
 21
31.0101931569
 12
358.9482655496
 22
31.0101931569
 13
358.9482655496
 23
31.0101931569
  0
SOLID
  8
0
 62
7
  6
CONTINUOUS
 10
358.9482655496
 20
31.0101931569
 11
359.2951405909
 21
30.9456659241
 12
358.6592030565
 22
30.9456659241
 13
358.6592030565
 23
30.9456659241
  0
SOLID
  8
0
 62
7
  6
CONTINUOUS
 10
358.8326405772
 20
30.8811389819
 11
358.6592030565
 21
30.9456659241
 12
359.2951405909
 22
30.9456659241
 13
359.2951405909
 23
30.9456659241
  0
SOLID
  8
0
 62
7
  6
CONTINUOUS
 10
362.8795155634
 20
31.3328301325
 11
362.9951404531
 21
31.397357926
 12
363.5732655634
 22
31.3650944328
 13
363.5732655634
 23
31.3650944328
  0
SOLID
  8
0
 62
7
  6
CONTINUOUS
 10
363.5732655634
 20
31.3650944328
 11
363.3420154531
 21
31.3328301325
 12
362.8795155634
 22
31.3328301325
 13
362.8795155634
 23
31.3328301325
  0
SOLID
  8
0
 62
7
  6
CONTINUOUS
 10
362.7638906736
 20
31.2037759492
 11
362.8795155634
 21
31.3328301325
 12
363.3420154531
 22
31.3328301325
 13
363.3420154531
 23
31.3328301325
  0
SOLID
  8
0
 62
7
  6
CONTINUOUS
 10
363.1107656736
 20
31.2360394487
 11
362.7638906736
 21
31.2037759492
 12
363.2263905634
 22
31.3005673426
 13
363.2263905634
 23
31.3005673426
  0
SOLID
  8
0
 62
7
  6
CONTINUOUS
 10
362.7638906736
 20
31.2037759492
 11
363.3420154531
 21
31.3328301295
 12
363.2263905634
 22
31.3005673426
 13
363.2263905634
 23
31.3005673426
  0
SOLID
  8
0
 62
7
  6
CONTINUOUS
 10
363.1107656736
 20
31.2360394487
 11
363.0529530634
 21
31.139248859
 12
362.7638906736
 22
31.2037759492
 13
362.7638906736
 23
31.2037759492
  0
SOLID
  8
0
 62
7
  6
CONTINUOUS
 10
362.7638906736
 20
31.1069845557
 11
362.7638906736
 21
31.2037759492
 12
363.0529530634
 22
31.139248859
 13
363.0529530634
 23
31.139248859
  0
SOLID
  8
0
 62
7
  6
CONTINUOUS
 10
363.0529530634
 20
31.139248859
 11
363.0529530634
 21
31.0747202524
 12
362.7638906736
 22
31.1069845557
 13
362.7638906736
 23
31.1069845557
  0
SOLID
  8
0
 62
7
  6
CONTINUOUS
 10
362.8217029531
 20
30.9779303754
 11
362.7638906736
 21
31.1069845557
 12
363.0529530634
 22
31.0747202524
 13
363.0529530634
 23
31.0747202524
  0
SOLID
  8
0
 62
7
  6
CONTINUOUS
 10
364.2092032839
 20
31.1715120759
 11
364.4982653428
 21
31.0747202524
 12
364.1513903428
 22
31.1069845557
 13
364.1513903428
 23
31.1069845557
  0
SOLID
  8
0
 62
7
  6
CONTINUOUS
 10
363.9779528428
 20
31.0101931623
 11
364.1513903428
 21
31.1069845557
 12
364.4982653428
 22
31.0747202524
 13
364.4982653428
 23
31.0747202524
  0
SOLID
  8
0
 62
7
  6
CONTINUOUS
 10
363.9779528428
 20
31.0101931623
 11
364.4982653428
 21
31.0747202524
 12
364.2092032839
 22
30.9779303754
 13
364.2092032839
 23
30.9779303754
  0
SOLID
  8
0
 62
7
  6
CONTINUOUS
 10
364.4982653428
 20
31.0747202524
 11
364.5560782839
 21
30.9134032852
 12
364.2092032839
 22
30.9779303754
 13
364.2092032839
 23
30.9779303754
  0
SOLID
  8
0
 62
7
  6
CONTINUOUS
 10
364.2670155634
 20
30.8811389819
 11
364.2092032839
 21
30.9779303754
 12
364.5560782839
 22
30.9134032852
 13
364.5560782839
 23
30.9134032852
  0
SOLID
  8
0
 62
7
  6
CONTINUOUS
 10
364.2670155634
 20
30.8811389819
 11
364.5560782839
 21
30.9134032852
 12
364.3248278428
 22
30.816611867
 13
364.3248278428
 23
30.816611867
  0
SOLID
  8
0
 62
7
  6
CONTINUOUS
 10
364.5560782839
 20
30.9134032852
 11
364.6138905634
 21
30.816611867
 12
364.3248278428
 22
30.816611867
 13
364.3248278428
 23
30.816611867
  0
SOLID
  8
0
 62
7
  6
CONTINUOUS
 10
359.8732656185
 20
31.0424573076
 11
359.9310780634
 21
31.1392488159
 12
360.2201406185
 22
31.1392488159
 13
360.2201406185
 23
31.1392488159
  0
SOLID
  8
0
 62
7
  6
CONTINUOUS
 10
360.2201406185
 20
31.1392488159
 11
360.1623280082
 21
31.0101931623
 12
359.8732656185
 22
31.0424573076
 13
359.8732656185
 23
31.0424573076
  0
SOLID
  8
0
 62
7
  6
CONTINUOUS
 10
359.6998280358
 20
30.9779303754
 11
359.8732656185
 21
31.0424573076
 12
360.1623280082
 22
31.0101931623
 13
360.1623280082
 23
31.0101931623
  0
SOLID
  8
0
 62
7
  6
CONTINUOUS
 10
359.6998280358
 20
30.9779303754
 11
360.1623280082
 21
31.0101931623
 12
359.2951405909
 22
30.9456660721
 13
359.2951405909
 23
30.9456660721
  0
SOLID
  8
0
 62
7
  6
CONTINUOUS
 10
360.1623280082
 20
31.0101931623
 11
359.9888905082
 21
30.9134032852
 12
359.2951405909
 22
30.9456660721
 13
359.2951405909
 23
30.9456660721
  0
SOLID
  8
0
 62
7
  6
CONTINUOUS
 10
358.8326405772
 20
30.8811389819
 11
359.2951405909
 21
30.9456660721
 12
359.9888905082
 22
30.9134032852
 13
359.9888905082
 23
30.9134032852
  0
SOLID
  8
0
 62
7
  6
CONTINUOUS
 10
358.8326405772
 20
30.8811389819
 11
359.9888905082
 21
30.9134032852
 12
359.0060780772
 22
30.8488745775
 13
359.0060780772
 23
30.8488745775
  0
SOLID
  8
0
 62
7
  6
CONTINUOUS
 10
359.9888905082
 20
30.9134032852
 11
359.7576405634
 21
30.8488745775
 12
359.0060780772
 22
30.8488745775
 13
359.0060780772
 23
30.8488745775
  0
SOLID
  8
0
 62
7
  6
CONTINUOUS
 10
359.3529530358
 20
30.8166118918
 11
359.0060780772
 21
30.8488745775
 12
359.7576405634
 22
30.8488745775
 13
359.7576405634
 23
30.8488745775
  0
SOLID
  8
0
 62
7
  6
CONTINUOUS
 10
362.8217029531
 20
30.9779303754
 11
363.0529530634
 21
31.0747202524
 12
363.1107656736
 22
31.0101931623
 13
363.1107656736
 23
31.0101931623
  0
SOLID
  8
0
 62
7
  6
CONTINUOUS
 10
363.1107656736
 20
31.0101931623
 11
363.3420154531
 21
30.9456660721
 12
362.8217029531
 22
30.9779303754
 13
362.8217029531
 23
30.9779303754
  0
SOLID
  8
0
 62
7
  6
CONTINUOUS
 10
362.9951404531
 20
30.8811389819
 11
362.8217029531
 21
30.9779303754
 12
363.3420154531
 22
30.9456660721
 13
363.3420154531
 23
30.9456660721
  0
SOLID
  8
0
 62
7
  6
CONTINUOUS
 10
363.6888904531
 20
30.9456661188
 11
363.9779528428
 21
31.0101931623
 12
364.2092032839
 22
30.9779303754
 13
364.2092032839
 23
30.9779303754
  0
SOLID
  8
0
 62
7
  6
CONTINUOUS
 10
364.2092032839
 20
30.9779303754
 11
364.1513903428
 21
30.9134032852
 12
363.6888904531
 22
30.9456661188
 13
363.6888904531
 23
30.9456661188
  0
SOLID
  8
0
 62
7
  6
CONTINUOUS
 10
364.1513903428
 20
30.9134032852
 11
362.9951404531
 21
30.8811389819
 12
363.6888904531
 22
30.9456661188
 13
363.6888904531
 23
30.9456661188
  0
SOLID
  8
0
 62
7
  6
CONTINUOUS
 10
362.9951404531
 20
30.8811389819
 11
363.3420154531
 21
30.9456661188
 12
363.6888904531
 22
30.9456661188
 13
363.6888904531
 23
30.9456661188
  0
SOLID
  8
0
 62
7
  6
CONTINUOUS
 10
362.9951404531
 20
30.8811389819
 11
364.1513903428
 21
30.9134032852
 12
363.1107656736
 22
30.8488747093
 13
363.1107656736
 23
30.8488747093
  0
SOLID
  8
0
 62
7
  6
CONTINUOUS
 10
364.1513903428
 20
30.9134032852
 11
363.9779528428
 21
30.8488747093
 12
363.1107656736
 22
30.8488747093
 13
363.1107656736
 23
30.8488747093
  0
SOLID
  8
0
 62
7
  6
CONTINUOUS
 10
363.3420154531
 20
30.816611874
 11
363.1107656736
 21
30.8488747093
 12
363.9779528428
 22
30.8488747093
 13
363.9779528428
 23
30.8488747093
  0
SOLID
  8
0
 62
7
  6
CONTINUOUS
 10
363.9779528428
 20
30.8488747093
 11
363.6888904531
 21
30.816611874
 12
363.3420154531
 22
30.816611874
 13
363.3420154531
 23
30.816611874
  0
SOLID
  8
0
 62
7
  6
CONTINUOUS
 10
368.3717032839
 20
30.9779303754
 11
368.0248282839
 21
30.9456661188
 12
368.2560780634
 22
31.0101931623
 13
368.2560780634
 23
31.0101931623
  0
SOLID
  8
0
 62
7
  6
CONTINUOUS
 10
368.2560780634
 20
31.0101931623
 11
368.0248282839
 21
30.9456661188
 12
368.1982657839
 22
31.0747202992
 13
368.1982657839
 23
31.0747202992
  0
SOLID
  8
0
 62
7
  6
CONTINUOUS
 10
368.0248282839
 20
30.9456661188
 11
367.9092030634
 21
31.0747202992
 12
368.1982657839
 22
31.0747202992
 13
368.1982657839
 23
31.0747202992
  0
SOLID
  8
0
 62
7
  6
CONTINUOUS
 10
368.3717032839
 20
30.9779303754
 11
368.7185782839
 21
30.9456661188
 12
368.0248282839
 22
30.9456661188
 13
368.0248282839
 23
30.9456661188
  0
SOLID
  8
0
 62
7
  6
CONTINUOUS
 10
365.0763907839
 20
30.8166118918
 11
365.0763907839
 21
31.8490498836
 12
365.3654528428
 22
30.8166118918
 13
365.3654528428
 23
31.8490498836
  0
ENDBLK
  8
0
  6
BYBLOCK
 62
0
  0
BLOCK
  8
0
 62
2
  6
CONTINUOUS
  2
SYMBOL_0_BL0
 70
64
 10
241.0459637928
 20
19.6790146053
  0
TEXT
  8
0
 62
7
  6
CONTINUOUS
 10
227.3106676351
 20
19.0524287129
  7
TEXTSTYLE_3
 40
2.7338706658
  1
Ammeraal Beltech
 41
1.0
 51
15.0
 72
0
  0
TEXT
  8
0
 62
7
  6
CONTINUOUS
 10
238.1114684608
 20
16.7788920401
  7
TEXTSTYLE_4
 40
1.0935482663
  1
Innovation & Service in Belting
 41
1.0
 72
0
  0
LINE
  8
0
 62
7
  6
CONTINUOUS
 10
221.2861269837
 20
19.8190220215
 11
222.0642789771
 21
23.4799393191
  0
LINE
  8
0
 62
7
  6
CONTINUOUS
 10
232.1594472669
 20
27.1433332308
 11
222.5520967201
 21
24.0217158095
  0
LINE
  8
0
 62
7
  6
CONTINUOUS
 10
221.511410316
 20
19.1256712184
 11
229.0184855772
 21
12.3662702925
  0
LINE
  8
0
 62
7
  6
CONTINUOUS
 10
221.7739447268
 20
20.3607985118
 11
232.5822140919
 21
23.8726181108
  0
LINE
  8
0
 62
7
  6
CONTINUOUS
 10
232.5780089548
 20
13.522829547
 11
224.132549286
 21
21.1271555887
  0
LINE
  8
0
 62
7
  6
CONTINUOUS
 10
233.0978316746
 20
26.298408115
 11
232.1212721373
 21
21.7040567125
  0
LINE
  8
0
 62
7
  6
CONTINUOUS
 10
231.4214701896
 20
18.4117473987
 11
230.7350219782
 21
15.1822624744
  0
LINE
  8
0
 62
7
  6
CONTINUOUS
 10
233.7789277731
 20
13.9130317247
 11
234.7351593087
 21
18.4117473987
  0
LINE
  8
0
 62
7
  6
CONTINUOUS
 10
235.4349612564
 20
21.7040567125
 11
235.8792030588
 21
23.7940500719
  0
LINE
  8
0
 62
7
  6
CONTINUOUS
 10
229.7315866525
 20
12.2146959798
 11
233.2911100301
 21
13.3712552343
  0
LINE
  8
0
 62
7
  6
CONTINUOUS
 10
232.8725483422
 20
26.9917589181
 11
235.6539197265
 21
24.487400875
  0
ARC
  8
0
 62
7
  6
CONTINUOUS
 10
222.7773800524
 20
23.3283650064
 40
0.7290321776
 50
108.0
 51
168.0
  0
ARC
  8
0
 62
7
  6
CONTINUOUS
 10
232.3847305992
 20
26.4499824277
 40
0.7290321776
 50
348.0
 51
108.0
  0
ARC
  8
0
 62
7
  6
CONTINUOUS
 10
235.1661019835
 20
23.9456243846
 40
0.7290321776
 50
348.0
 51
48.0
  0
ARC
  8
0
 62
7
  6
CONTINUOUS
 10
229.5063033202
 20
12.9080467828
 40
0.7290321776
 50
228.0
 51
288.0
  0
ARC
  8
0
 62
7
  6
CONTINUOUS
 10
221.9992280591
 20
19.6674477088
 40
0.7290321776
 50
108.0
 51
228.0
  0
ARC
  8
0
 62
7
  6
CONTINUOUS
 10
233.0658266978
 20
14.0646060374
 40
0.7290321776
 50
228.0
 51
348.0
  0
ENDBLK
  8
0
  6
BYBLOCK
 62
0
  0
ENDSEC
  0
SECTION
  2
ENTITIES
  0
TEXT
  8
0
 62
5
  6
CONTINUOUS
 10
304.937007874
 20
25.636
  7
TEXTSTYLE_2
 40
2.8
  1
Scale :
 41
0.6
 51
0.000019
 72
0
  0
TEXT
  8
0
 62
5
  6
CONTINUOUS
 10
324.937007874
 20
25.636
  7
TEXTSTYLE_2
 40
2.8
  1
Chain type:
 41
0.6
 51
0.000019
 72
0
  0
INSERT
  8
0
 62
2
  6
CONTINUOUS
  2
SYMBOL_0_BL0
 10
241.0459637928
 20
19.6790146053
  0
INSERT
  8
0
 62
2
  6
CONTINUOUS
  2
SYMBOL_5_BL1
 10
382.3920721743
 20
35.81661148
  0
LINE
  8
0
 62
2
  6
CONTINUOUS
 10
218.937007874
 20
30.0
 11
408.937007874
 21
30.0
  0
LINE
  8
0
 62
2
  6
CONTINUOUS
 10
218.937007874
 20
30.0
 11
218.937007874
 21
10.0
  0
LINE
  8
0
 62
2
  6
CONTINUOUS
 10
218.937007874
 20
10.0
 11
408.937007874
 21
10.0
  0
LINE
  8
0
 62
2
  6
CONTINUOUS
 10
303.937007874
 20
30.0
 11
303.937007874
 21
10.0
  0
LINE
  8
0
 62
2
  6
CONTINUOUS
 10
323.937007874
 20
30.0
 11
323.937007874
 21
10.0
  0
LINE
  8
0
 62
2
  6
CONTINUOUS
 10
408.937007874
 20
30.0
 11
408.937007874
 21
10.0
  0
TEXT
  8
0
 62
5
  6
CONTINUOUS
 10
221.937007874
 20
23.303
  7
TEXTSTYLE_5
 40
1.52
  1
                                                                     Ammeraal Beltech Modular A/S
 41
1.0
 72
0
  0
TEXT
  8
0
 62
5
  6
CONTINUOUS
 10
221.937007874
 20
20.595
  7
TEXTSTYLE_5
 40
1.5
  1
                                                                      Hjulmagervej 21, 7100 Vejle,  DK
 41
1.0
 72
0
  0
TEXT
  8
0
 62
5
  6
CONTINUOUS
 10
221.937007874
 20
17.881
  7
TEXTSTYLE_5
 40
1.495
  1
                                                                      tel: 
 41
1.0
 72
0
  0
TEXT
  8
0
 62
5
  6
CONTINUOUS
 10
266.9239544389
 20
17.881
  7
TEXTSTYLE_5
 40
1.51
  1
+45 75723100     fax: +45 75723348
 41
1.0
 72
0
  0
TEXT
  8
0
 62
5
  6
CONTINUOUS
 10
221.937007874
 20
15.177
  7
TEXTSTYLE_5
 40
1.5
  1
                                                                      admin@unichains.dk  www.unichains.com
 41
1.0
 72
0
  0
TEXT
  8
0
 62
5
  6
CONTINUOUS
 10
308.687007874
 20
13.75
  7
TEXTSTYLE_6
 40
5.0
  1
1:1
 41
0.7
 72
1
 11
313.937007874
 21
13.75
  0
TEXT
  8
0
 62
5
  6
CONTINUOUS
 10
326.937007874
 20
13.75
  7
TEXTSTYLE_7
 40
7.5
  1
uni 820 K600
 41
0.6847222222
 72
0
  0
LINE
  8
0
 62
7
  6
CONTINUOUS
 10
0.0
 20
0.0
 11
0.0
 21
297.0
  0
LINE
  8
0
 62
7
  6
CONTINUOUS
 10
8.937007874
 20
10.0
 11
8.937007874
 21
287.0
  0
LINE
  8
0
 62
7
  6
CONTINUOUS
 10
0.0
 20
0.0
 11
420.0
 21
0.0
  0
LINE
  8
0
 62
7
  6
CONTINUOUS
 10
408.937007874
 20
10.0
 11
8.937007874
 21
10.0
  0
LINE
  8
0
 62
7
  6
CONTINUOUS
 10
218.937007874
 20
30.0
 11
408.937007874
 21
30.0
  0
LINE
  8
0
 62
7
  6
CONTINUOUS
 10
210.0
 20
297.0
 11
210.0
 21
292.0
  0
LINE
  8
0
 62
7
  6
CONTINUOUS
 10
210.0
 20
0.0
 11
210.0
 21
5.0
  0
LINE
  8
0
 62
7
  6
CONTINUOUS
 10
8.937007874
 20
287.0
 11
408.937007874
 21
287.0
  0
LINE
  8
0
 62
7
  6
CONTINUOUS
 10
0.0
 20
297.0
 11
420.0
 21
297.0
  0
LINE
  8
0
 62
7
  6
CONTINUOUS
 10
408.937007874
 20
287.0
 11
408.937007874
 21
10.0
  0
LINE
  8
0
 62
7
  6
CONTINUOUS
 10
420.0
 20
0.0
 11
420.0
 21
297.0
  0
LINE
  8
0
 62
7
  6
CONTINUOUS
 10
55.0104508197
 20
187.1167260992
 11
55.0104508197
 21
153.8930326011
  0
POLYLINE
  8
0
 62
7
  6
CONTINUOUS
 66
1
 70
0
  0
VERTEX
  8
0
 62
7
  6
CONTINUOUS
 10
57.4891848226
 20
151.5540186605
  0
VERTEX
  8
0
 62
7
  6
CONTINUOUS
 10
57.4882286674
 20
151.5345549125
  0
VERTEX
  8
0
 62
7
  6
CONTINUOUS
 10
57.4874215756
 20
151.5151899692
  0
VERTEX
  8
0
 62
7
  6
CONTINUOUS
 10
57.4867608875
 20
151.4959245805
  0
VERTEX
  8
0
 62
7
  6
CONTINUOUS
 10
57.4862545824
 20
151.4767909255
  0
VERTEX
  8
0
 62
7
  6
CONTINUOUS
 10
57.4859084353
 20
151.4578146562
  0
VERTEX
  8
0
 62
7
  6
CONTINUOUS
 10
57.4857263998
 20
151.4390120514
  0
VERTEX
  8
0
 62
7
  6
CONTINUOUS
 10
57.4857130791
 20
151.4204024148
  0
VERTEX
  8
0
 62
7
  6
CONTINUOUS
 10
57.4858722992
 20
151.4019991757
  0
VERTEX
  8
0
 62
7
  6
CONTINUOUS
 10
57.486208171
 20
151.3838175496
  0
VERTEX
  8
0
 62
7
  6
CONTINUOUS
 10
57.486724442
 20
151.3658689069
  0
VERTEX
  8
0
 62
7
  6
CONTINUOUS
 10
57.487424969
 20
151.3481656778
  0
VERTEX
  8
0
 62
7
  6
CONTINUOUS
 10
57.4883135338
 20
151.3307176947
  0
VERTEX
  8
0
 62
7
  6
CONTINUOUS
 10
57.4893939021
 20
151.3135354036
  0
VERTEX
  8
0
 62
7
  6
CONTINUOUS
 10
57.4906699783
 20
151.2966274304
  0
VERTEX
  8
0
 62
7
  6
CONTINUOUS
 10
57.4921455692
 20
151.2800027344
  0
VERTEX
  8
0
 62
7
  6
CONTINUOUS
 10
57.493824733
 20
151.2636689536
  0
VERTEX
  8
0
 62
7
  6
CONTINUOUS
 10
57.4957113517
 20
151.2476339185
  0
VERTEX
  8
0
 62
7
  6
CONTINUOUS
 10
57.4978097612
 20
151.2319043028
  0
VERTEX
  8
0
 62
7
  6
CONTINUOUS
 10
57.5001240286
 20
151.216486766
  0
VERTEX
  8
0
 62
7
  6
CONTINUOUS
 10
57.5026588413
 20
151.2013875761
  0
VERTEX
  8
0
 62
7
  6
CONTINUOUS
 10
57.5054185013
 20
151.186612852
  0
VERTEX
  8
0
 62
7
  6
CONTINUOUS
 10
57.5084082308
 20
151.1721680391
  0
VERTEX
  8
0
 62
7
  6
CONTINUOUS
 10
57.511632725
 20
151.1580584612
  0
VERTEX
  8
0
 62
7
  6
CONTINUOUS
 10
57.515097866
 20
151.1442889701
  0
VERTEX
  8
0
 62
7
  6
CONTINUOUS
 10
57.5188088687
 20
151.1308642047
  0
VERTEX
  8
0
 62
7
  6
CONTINUOUS
 10
57.5227724297
 20
151.1177884897
  0
VERTEX
  8
0
 62
7
  6
CONTINUOUS
 10
57.5269944646
 20
151.1050658602
  0
VERTEX
  8
0
 62
7
  6
CONTINUOUS
 10
57.53148253
 20
151.0927001452
  0
VERTEX
  8
0
 62
7
  6
CONTINUOUS
 10
57.5362432699
 20
151.0806948101
  0
VERTEX
  8
0
 62
7
  6
CONTINUOUS
 10
57.5412853378
 20
151.0690532317
  0
VERTEX
  8
0
 62
7
  6
CONTINUOUS
 10
57.5466162094
 20
151.0577783322
  0
VERTEX
  8
0
 62
7
  6
CONTINUOUS
 10
57.5522460608
 20
151.0468730798
  0
VERTEX
  8
0
 62
7
  6
CONTINUOUS
 10
57.558183537
 20
151.0363398817
  0
VERTEX
  8
0
 62
7
  6
CONTINUOUS
 10
57.5644407073
 20
151.0261813119
  0
VERTEX
  8
0
 62
7
  6
CONTINUOUS
 10
57.5710276942
 20
151.0163992587
  0
VERTEX
  8
0
 62
7
  6
CONTINUOUS
 10
57.577958983
 20
151.0069959215
  0
VERTEX
  8
0
 62
7
  6
CONTINUOUS
 10
57.5852465639
 20
150.997972651
  0
VERTEX
  8
0
 62
7
  6
CONTINUOUS
 10
57.5929080445
 20
150.9893312898
  0
VERTEX
  8
0
 62
7
  6
CONTINUOUS
 10
57.6009578219
 20
150.9810726164
  0
VERTEX
  8
0
 62
7
  6
CONTINUOUS
 10
57.6094175178
 20
150.9731981249
  0
VERTEX
  8
0
 62
7
  6
CONTINUOUS
 10
57.6183048631
 20
150.9657078945
  0
VERTEX
  8
0
 62
7
  6
CONTINUOUS
 10
57.6276459273
 20
150.9586032563
  0
VERTEX
  8
0
 62
7
  6
CONTINUOUS
 10
57.6374617466
 20
150.9518836852
  0
VERTEX
  8
0
 62
7
  6
CONTINUOUS
 10
57.6477851513
 20
150.9455500804
  0
VERTEX
  8
0
 62
7
  6
CONTINUOUS
 10
57.6586419981
 20
150.9396009137
  0
VERTEX
  8
0
 62
7
  6
CONTINUOUS
 10
57.6700742442
 20
150.9340368439
  0
VERTEX
  8
0
 62
7
  6
CONTINUOUS
 10
57.6821143149
 20
150.9288551565
  0
VERTEX
  8
0
 62
7
  6
CONTINUOUS
 10
57.6948166621
 20
150.924056217
  0
VERTEX
  8
0
 62
7
  6
CONTINUOUS
 10
57.7082225854
 20
150.9196356659
  0
VERTEX
  8
0
 62
7
  6
CONTINUOUS
 10
57.7224039666
 20
150.9155935085
  0
VERTEX
  8
0
 62
7
  6
CONTINUOUS
 10
57.7374146452
 20
150.911923027
  0
VERTEX
  8
0
 62
7
  6
CONTINUOUS
 10
57.7533500471
 20
150.9086236167
  0
VERTEX
  8
0
 62
7
  6
CONTINUOUS
 10
57.7702817434
 20
150.9056850468
  0
VERTEX
  8
0
 62
7
  6
CONTINUOUS
 10
57.7883351379
 20
150.9031055371
  0
VERTEX
  8
0
 62
7
  6
CONTINUOUS
 10
57.8076078702
 20
150.9008691787
  0
VERTEX
  8
0
 62
7
  6
CONTINUOUS
 10
57.8282548031
 20
150.8989732152
  0
VERTEX
  8
0
 62
7
  6
CONTINUOUS
 10
57.8504867716
 20
150.8974093395
  0
VERTEX
  8
0
 62
7
  6
CONTINUOUS
 10
57.8742334973
 20
150.8961271158
  0
SEQEND
  0
LINE
  8
0
 62
7
  6
CONTINUOUS
 10
56.2680952857
 20
189.5588966897
 11
56.4295310739
 21
189.4414946187
  0
LINE
  8
0
 62
7
  6
CONTINUOUS
 10
56.4295310739
 20
189.4414946187
 11
56.5104508197
 21
189.3824180328
  0
LINE
  8
0
 62
7
  6
CONTINUOUS
 10
110.3136381454
 20
150.6505967602
 11
110.3133249271
 21
150.6511142838
  0
POLYLINE
  8
0
 62
7
  6
CONTINUOUS
 66
1
 70
0
  0
VERTEX
  8
0
 62
7
  6
CONTINUOUS
 10
110.3132898732
 20
150.6511690047
  0
VERTEX
  8
0
 62
7
  6
CONTINUOUS
 10
110.3246417739
 20
150.6321557819
  0
VERTEX
  8
0
 62
7
  6
CONTINUOUS
 10
110.3348046129
 20
150.6146100322
  0
VERTEX
  8
0
 62
7
  6
CONTINUOUS
 10
110.3438145146
 20
150.5984816104
  0
VERTEX
  8
0
 62
7
  6
CONTINUOUS
 10
110.3517405729
 20
150.5836935363
  0
VERTEX
  8
0
 62
7
  6
CONTINUOUS
 10
110.3586324847
 20
150.5702213963
  0
VERTEX
  8
0
 62
7
  6
CONTINUOUS
 10
110.3645446245
 20
150.5580439857
  0
VERTEX
  8
0
 62
7
  6
CONTINUOUS
 10
110.3695538052
 20
150.5471044765
  0
VERTEX
  8
0
 62
7
  6
CONTINUOUS
 10
110.3737387996
 20
150.5373525116
  0
VERTEX
  8
0
 62
7
  6
CONTINUOUS
 10
110.3771629401
 20
150.5287770265
  0
VERTEX
  8
0
 62
7
  6
CONTINUOUS
 10
110.3798932253
 20
150.5213633173
  0
VERTEX
  8
0
 62
7
  6
CONTINUOUS
 10
110.3820048777
 20
150.5150796231
  0
VERTEX
  8
0
 62
7
  6
CONTINUOUS
 10
110.3835782825
 20
150.5098809691
  0
VERTEX
  8
0
 62
7
  6
CONTINUOUS
 10
110.3846660614
 20
150.5058199052
  0
SEQEND
  0
LINE
  8
0
 62
7
  6
CONTINUOUS
 10
110.3854508197
 20
149.6024180328
 11
110.3854508197
 21
150.5040905512
  0
LINE
  8
0
 62
7
  6
CONTINUOUS
 10
151.4854508197
 20
149.1024180328
 11
145.0854508197
 21
149.1024180328
  0
LINE
  8
0
 62
7
  6
CONTINUOUS
 10
133.5854508197
 20
149.1024180328
 11
128.7854508197
 21
149.1024180328
  0
LINE
  8
0
 62
7
  6
CONTINUOUS
 10
117.2854508197
 20
149.1024180328
 11
110.8854508197
 21
149.1024180328
  0
LINE
  8
0
 62
7
  6
CONTINUOUS
 10
204.3604508197
 20
150.8924180328
 11
152.4854508197
 21
150.8924180328
  0
LINE
  8
0
 62
7
  6
CONTINUOUS
 10
109.8854508197
 20
150.8924180328
 11
58.0104508197
 21
150.8924180328
  0
LINE
  8
0
 62
7
  6
CONTINUOUS
 10
110.3846660614
 20
150.5058199052
 11
110.3850795723
 21
150.5040905512
  0
POLYLINE
  8
0
 62
7
  6
CONTINUOUS
 66
1
 70
0
  0
VERTEX
  8
0
 62
7
  6
CONTINUOUS
 10
134.2506650388
 20
159.1067213998
  0
VERTEX
  8
0
 62
7
  6
CONTINUOUS
 10
134.2686751868
 20
159.1106633239
  0
VERTEX
  8
0
 62
7
  6
CONTINUOUS
 10
134.2875874733
 20
159.1146822626
  0
VERTEX
  8
0
 62
7
  6
CONTINUOUS
 10
134.3073239597
 20
159.1187133471
  0
VERTEX
  8
0
 62
7
  6
CONTINUOUS
 10
134.3278227889
 20
159.1226892417
  0
VERTEX
  8
0
 62
7
  6
CONTINUOUS
 10
134.3490345958
 20
159.1265536142
  0
VERTEX
  8
0
 62
7
  6
CONTINUOUS
 10
134.3709222061
 20
159.1302483053
  0
VERTEX
  8
0
 62
7
  6
CONTINUOUS
 10
134.3933871901
 20
159.1337157758
  0
VERTEX
  8
0
 62
7
  6
CONTINUOUS
 10
134.4163347272
 20
159.1368961381
  0
VERTEX
  8
0
 62
7
  6
CONTINUOUS
 10
134.4397168161
 20
159.1397489755
  0
VERTEX
  8
0
 62
7
  6
CONTINUOUS
 10
134.4634804679
 20
159.142232455
  0
VERTEX
  8
0
 62
7
  6
CONTINUOUS
 10
134.4875458249
 20
159.1443130221
  0
VERTEX
  8
0
 62
7
  6
CONTINUOUS
 10
134.5118341643
 20
159.1459580958
  0
VERTEX
  8
0
 62
7
  6
CONTINUOUS
 10
134.5362890933
 20
159.1471490877
  0
VERTEX
  8
0
 62
7
  6
CONTINUOUS
 10
134.5608176492
 20
159.1478683617
  0
VERTEX
  8
0
 62
7
  6
CONTINUOUS
 10
134.5854508197
 20
159.1481099664
  0
SEQEND
  0
POLYLINE
  8
0
 62
7
  6
CONTINUOUS
 66
1
 70
0
  0
VERTEX
  8
0
 62
7
  6
CONTINUOUS
 10
134.1184609424
 20
159.0824180516
  0
VERTEX
  8
0
 62
7
  6
CONTINUOUS
 10
134.1222500209
 20
159.0824846908
  0
VERTEX
  8
0
 62
7
  6
CONTINUOUS
 10
134.1308553145
 20
159.0830279211
  0
VERTEX
  8
0
 62
7
  6
CONTINUOUS
 10
134.1403717661
 20
159.0840875091
  0
VERTEX
  8
0
 62
7
  6
CONTINUOUS
 10
134.1508205521
 20
159.0856284102
  0
VERTEX
  8
0
 62
7
  6
CONTINUOUS
 10
134.1622242149
 20
159.087618652
  0
VERTEX
  8
0
 62
7
  6
CONTINUOUS
 10
134.1745770243
 20
159.0900192642
  0
VERTEX
  8
0
 62
7
  6
CONTINUOUS
 10
134.1878770897
 20
159.0927898525
  0
VERTEX
  8
0
 62
7
  6
CONTINUOUS
 10
134.2021354351
 20
159.0958898916
  0
VERTEX
  8
0
 62
7
  6
CONTINUOUS
 10
134.2506650388
 20
159.1067213998
  0
SEQEND
  0
LINE
  8
AXES
 62
2
  6
CENTER
 10
108.3854508197
 20
155.5824180328
 11
152.7854508197
 21
155.5824180328
  0
LINE
  8
0
 62
7
  6
CONTINUOUS
 10
117.7854508197
 20
159.0824180328
 11
117.8188123689
 21
159.0824180328
  0
LINE
  8
0
 62
7
  6
CONTINUOUS
 10
128.2520892704
 20
159.0824180328
 11
128.2854508197
 21
159.0824180328
  0
LINE
  8
0
 62
7
  6
CONTINUOUS
 10
134.0854508197
 20
159.0824180328
 11
134.1188123689
 21
159.0824180328
  0
LINE
  8
0
 62
7
  6
CONTINUOUS
 10
144.5520892704
 20
159.0824180328
 11
144.5854508197
 21
159.0824180328
  0
LINE
  8
0
 62
7
  6
CONTINUOUS
 10
127.7854508197
 20
159.1481099664
 11
118.2854508197
 21
159.1481099664
  0
LINE
  8
0
 62
7
  6
CONTINUOUS
 10
134.5854508197
 20
159.1481099664
 11
144.0854508197
 21
159.1481099664
  0
POLYLINE
  8
0
 62
7
  6
CONTINUOUS
 66
1
 70
0
  0
VERTEX
  8
0
 62
7
  6
CONTINUOUS
 10
127.7854508197
 20
159.1481099664
  0
VERTEX
  8
0
 62
7
  6
CONTINUOUS
 10
127.8100839901
 20
159.1478683617
  0
VERTEX
  8
0
 62
7
  6
CONTINUOUS
 10
127.8346125461
 20
159.1471490877
  0
VERTEX
  8
0
 62
7
  6
CONTINUOUS
 10
127.8590674751
 20
159.1459580958
  0
VERTEX
  8
0
 62
7
  6
CONTINUOUS
 10
127.8833558144
 20
159.1443130221
  0
VERTEX
  8
0
 62
7
  6
CONTINUOUS
 10
127.9074211714
 20
159.142232455
  0
VERTEX
  8
0
 62
7
  6
CONTINUOUS
 10
127.9311848232
 20
159.1397489755
  0
VERTEX
  8
0
 62
7
  6
CONTINUOUS
 10
127.9545669121
 20
159.1368961381
  0
VERTEX
  8
0
 62
7
  6
CONTINUOUS
 10
127.9775144493
 20
159.1337157758
  0
VERTEX
  8
0
 62
7
  6
CONTINUOUS
 10
127.9999794333
 20
159.1302483053
  0
VERTEX
  8
0
 62
7
  6
CONTINUOUS
 10
128.0218670435
 20
159.1265536142
  0
VERTEX
  8
0
 62
7
  6
CONTINUOUS
 10
128.0430788504
 20
159.1226892417
  0
VERTEX
  8
0
 62
7
  6
CONTINUOUS
 10
128.0635776797
 20
159.1187133471
  0
VERTEX
  8
0
 62
7
  6
CONTINUOUS
 10
128.083314166
 20
159.1146822626
  0
VERTEX
  8
0
 62
7
  6
CONTINUOUS
 10
128.1022264526
 20
159.1106633239
  0
SEQEND
  0
POLYLINE
  8
0
 62
7
  6
CONTINUOUS
 66
1
 70
0
  0
VERTEX
  8
0
 62
7
  6
CONTINUOUS
 10
144.0854508197
 20
159.1481099664
  0
VERTEX
  8
0
 62
7
  6
CONTINUOUS
 10
144.1100839901
 20
159.1478683617
  0
VERTEX
  8
0
 62
7
  6
CONTINUOUS
 10
144.1346125461
 20
159.1471490877
  0
VERTEX
  8
0
 62
7
  6
CONTINUOUS
 10
144.1590674751
 20
159.1459580958
  0
VERTEX
  8
0
 62
7
  6
CONTINUOUS
 10
144.1833558144
 20
159.1443130221
  0
VERTEX
  8
0
 62
7
  6
CONTINUOUS
 10
144.2074211714
 20
159.142232455
  0
VERTEX
  8
0
 62
7
  6
CONTINUOUS
 10
144.2311848232
 20
159.1397489755
  0
VERTEX
  8
0
 62
7
  6
CONTINUOUS
 10
144.2545669121
 20
159.1368961381
  0
VERTEX
  8
0
 62
7
  6
CONTINUOUS
 10
144.2775144493
 20
159.1337157758
  0
VERTEX
  8
0
 62
7
  6
CONTINUOUS
 10
144.2999794333
 20
159.1302483053
  0
VERTEX
  8
0
 62
7
  6
CONTINUOUS
 10
144.3218670435
 20
159.1265536142
  0
VERTEX
  8
0
 62
7
  6
CONTINUOUS
 10
144.3430788504
 20
159.1226892417
  0
VERTEX
  8
0
 62
7
  6
CONTINUOUS
 10
144.3635776797
 20
159.1187133471
  0
VERTEX
  8
0
 62
7
  6
CONTINUOUS
 10
144.383314166
 20
159.1146822626
  0
VERTEX
  8
0
 62
7
  6
CONTINUOUS
 10
144.4022264526
 20
159.1106633239
  0
SEQEND
  0
POLYLINE
  8
0
 62
7
  6
CONTINUOUS
 66
1
 70
0
  0
VERTEX
  8
0
 62
7
  6
CONTINUOUS
 10
128.1687662042
 20
159.0958898916
  0
VERTEX
  8
0
 62
7
  6
CONTINUOUS
 10
128.1830245497
 20
159.0927898525
  0
VERTEX
  8
0
 62
7
  6
CONTINUOUS
 10
128.196324615
 20
159.0900192642
  0
VERTEX
  8
0
 62
7
  6
CONTINUOUS
 10
128.2086774244
 20
159.087618652
  0
VERTEX
  8
0
 62
7
  6
CONTINUOUS
 10
128.2200810872
 20
159.0856284102
  0
VERTEX
  8
0
 62
7
  6
CONTINUOUS
 10
128.2305298733
 20
159.0840875091
  0
VERTEX
  8
0
 62
7
  6
CONTINUOUS
 10
128.2400463248
 20
159.0830279211
  0
VERTEX
  8
0
 62
7
  6
CONTINUOUS
 10
128.2486516184
 20
159.0824846908
  0
VERTEX
  8
0
 62
7
  6
CONTINUOUS
 10
128.252440697
 20
159.0824180516
  0
SEQEND
  0
LINE
  8
0
 62
7
  6
CONTINUOUS
 10
128.1022264526
 20
159.1106633239
 11
128.1687662042
 21
159.0958898916
  0
LINE
  8
0
 62
7
  6
CONTINUOUS
 10
117.2854508197
 20
159.8824180328
 11
117.404810505
 21
159.7310239157
  0
LINE
  8
0
 62
7
  6
CONTINUOUS
 10
117.404810505
 20
159.7310239157
 11
117.4574213452
 21
159.6636109677
  0
LINE
  8
0
 62
7
  6
CONTINUOUS
 10
117.4574213452
 20
159.6636109677
 11
117.4961850038
 21
159.6134273912
  0
LINE
  8
0
 62
7
  6
CONTINUOUS
 10
117.4961850038
 20
159.6134273912
 11
117.5215562872
 21
159.5802589407
  0
LINE
  8
0
 62
7
  6
CONTINUOUS
 10
117.5215562872
 20
159.5802589407
 11
117.5464598776
 21
159.547387573
  0
LINE
  8
0
 62
7
  6
CONTINUOUS
 10
117.5464598776
 20
159.547387573
 11
117.570814209
 21
159.5148717693
  0
LINE
  8
0
 62
7
  6
CONTINUOUS
 10
117.570814209
 20
159.5148717693
 11
117.5945332837
 21
159.4827713852
  0
POLYLINE
  8
0
 62
7
  6
CONTINUOUS
 66
1
 70
0
  0
VERTEX
  8
0
 62
7
  6
CONTINUOUS
 10
117.5945332837
 20
159.4827713852
  0
VERTEX
  8
0
 62
7
  6
CONTINUOUS
 10
117.6175252233
 20
159.4511486404
  0
VERTEX
  8
0
 62
7
  6
CONTINUOUS
 10
117.6287176863
 20
159.4355366105
  0
VERTEX
  8
0
 62
7
  6
CONTINUOUS
 10
117.6396906308
 20
159.4200691786
  0
VERTEX
  8
0
 62
7
  6
CONTINUOUS
 10
117.6504296946
 20
159.4047547565
  0
VERTEX
  8
0
 62
7
  6
CONTINUOUS
 10
117.6609207168
 20
159.3896032179
  0
VERTEX
  8
0
 62
7
  6
CONTINUOUS
 10
117.6711478003
 20
159.3746236155
  0
VERTEX
  8
0
 62
7
  6
CONTINUOUS
 10
117.6810951272
 20
159.3598268248
  0
VERTEX
  8
0
 62
7
  6
CONTINUOUS
 10
117.6907449558
 20
159.3452226829
  0
VERTEX
  8
0
 62
7
  6
CONTINUOUS
 10
117.7000793941
 20
159.3308233577
  0
VERTEX
  8
0
 62
7
  6
CONTINUOUS
 10
117.7090784723
 20
159.3166396791
  0
VERTEX
  8
0
 62
7
  6
CONTINUOUS
 10
117.7177216966
 20
159.3026854981
  0
VERTEX
  8
0
 62
7
  6
CONTINUOUS
 10
117.725986341
 20
159.2889730402
  0
VERTEX
  8
0
 62
7
  6
CONTINUOUS
 10
117.7338488911
 20
159.2755180118
  0
VERTEX
  8
0
 62
7
  6
CONTINUOUS
 10
117.7412834499
 20
159.2623342048
  0
VERTEX
  8
0
 62
7
  6
CONTINUOUS
 10
117.7482628627
 20
159.2494395878
  0
VERTEX
  8
0
 62
7
  6
CONTINUOUS
 10
117.7547575231
 20
159.2368498998
  0
VERTEX
  8
0
 62
7
  6
CONTINUOUS
 10
117.7607360908
 20
159.2245856202
  0
VERTEX
  8
0
 62
7
  6
CONTINUOUS
 10
117.7661647705
 20
159.2126647769
  0
VERTEX
  8
0
 62
7
  6
CONTINUOUS
 10
117.7710075872
 20
159.2011104631
  0
VERTEX
  8
0
 62
7
  6
CONTINUOUS
 10
117.7752262038
 20
159.1899432795
  0
VERTEX
  8
0
 62
7
  6
CONTINUOUS
 10
117.7787798045
 20
159.1791887316
  0
VERTEX
  8
0
 62
7
  6
CONTINUOUS
 10
117.7816254225
 20
159.1688701169
  0
VERTEX
  8
0
 62
7
  6
CONTINUOUS
 10
117.7837176211
 20
159.1590146593
  0
VERTEX
  8
0
 62
7
  6
CONTINUOUS
 10
117.7850093855
 20
159.1496617221
  0
VERTEX
  8
0
 62
7
  6
CONTINUOUS
 10
117.7854508197
 20
159.1407981841
  0
SEQEND
  0
LINE
  8
0
 62
7
  6
CONTINUOUS
 10
117.7854508197
 20
149.6024180328
 11
117.7854508197
 21
159.1407980421
  0
LINE
  8
0
 62
7
  6
CONTINUOUS
 10
118.2354508197
 20
190.1240378815
 11
118.2354508197
 21
199.6824180328
  0
LINE
  8
0
 62
7
  6
CONTINUOUS
 10
127.6675252233
 20
189.8136874251
 11
127.6445332837
 21
189.7820646804
  0
LINE
  8
0
 62
7
  6
CONTINUOUS
 10
127.6445332837
 20
189.7820646804
 11
127.620814209
 21
189.7499642963
  0
LINE
  8
0
 62
7
  6
CONTINUOUS
 10
127.620814209
 20
189.7499642963
 11
127.5964598776
 21
189.7174484926
  0
LINE
  8
0
 62
7
  6
CONTINUOUS
 10
127.5964598776
 20
189.7174484926
 11
127.5715562872
 21
189.6845771248
  0
LINE
  8
0
 62
7
  6
CONTINUOUS
 10
127.5715562872
 20
189.6845771248
 11
127.5333484453
 21
189.6347311175
  0
LINE
  8
0
 62
7
  6
CONTINUOUS
 10
127.5333484453
 20
189.6347311175
 11
127.4943494715
 21
189.5844110498
  0
LINE
  8
0
 62
7
  6
CONTINUOUS
 10
127.4943494715
 20
189.5844110498
 11
127.4282738509
 21
189.5000238477
  0
LINE
  8
0
 62
7
  6
CONTINUOUS
 10
127.4282738509
 20
189.5000238477
 11
127.3354508197
 21
189.3824180328
  0
POLYLINE
  8
0
 62
7
  6
CONTINUOUS
 66
1
 70
0
  0
VERTEX
  8
0
 62
7
  6
CONTINUOUS
 10
117.9506650388
 20
159.1067213998
  0
VERTEX
  8
0
 62
7
  6
CONTINUOUS
 10
117.9686751868
 20
159.1106633239
  0
VERTEX
  8
0
 62
7
  6
CONTINUOUS
 10
117.9875874733
 20
159.1146822626
  0
VERTEX
  8
0
 62
7
  6
CONTINUOUS
 10
118.0073239597
 20
159.1187133471
  0
VERTEX
  8
0
 62
7
  6
CONTINUOUS
 10
118.0278227889
 20
159.1226892417
  0
VERTEX
  8
0
 62
7
  6
CONTINUOUS
 10
118.0490345958
 20
159.1265536142
  0
VERTEX
  8
0
 62
7
  6
CONTINUOUS
 10
118.0709222061
 20
159.1302483053
  0
VERTEX
  8
0
 62
7
  6
CONTINUOUS
 10
118.0933871901
 20
159.1337157758
  0
VERTEX
  8
0
 62
7
  6
CONTINUOUS
 10
118.1163347272
 20
159.1368961381
  0
VERTEX
  8
0
 62
7
  6
CONTINUOUS
 10
118.1397168161
 20
159.1397489755
  0
VERTEX
  8
0
 62
7
  6
CONTINUOUS
 10
118.1634804679
 20
159.142232455
  0
VERTEX
  8
0
 62
7
  6
CONTINUOUS
 10
118.1875458249
 20
159.1443130221
  0
VERTEX
  8
0
 62
7
  6
CONTINUOUS
 10
118.2118341643
 20
159.1459580958
  0
VERTEX
  8
0
 62
7
  6
CONTINUOUS
 10
118.2362890933
 20
159.1471490877
  0
VERTEX
  8
0
 62
7
  6
CONTINUOUS
 10
118.2608176492
 20
159.1478683617
  0
VERTEX
  8
0
 62
7
  6
CONTINUOUS
 10
118.2854508197
 20
159.1481099664
  0
SEQEND
  0
POLYLINE
  8
0
 62
7
  6
CONTINUOUS
 66
1
 70
0
  0
VERTEX
  8
0
 62
7
  6
CONTINUOUS
 10
117.8184609424
 20
159.0824180516
  0
VERTEX
  8
0
 62
7
  6
CONTINUOUS
 10
117.8222500209
 20
159.0824846908
  0
VERTEX
  8
0
 62
7
  6
CONTINUOUS
 10
117.8308553145
 20
159.0830279211
  0
VERTEX
  8
0
 62
7
  6
CONTINUOUS
 10
117.8403717661
 20
159.0840875091
  0
VERTEX
  8
0
 62
7
  6
CONTINUOUS
 10
117.8508205521
 20
159.0856284102
  0
VERTEX
  8
0
 62
7
  6
CONTINUOUS
 10
117.8622242149
 20
159.087618652
  0
VERTEX
  8
0
 62
7
  6
CONTINUOUS
 10
117.8745770243
 20
159.0900192642
  0
VERTEX
  8
0
 62
7
  6
CONTINUOUS
 10
117.8878770897
 20
159.0927898525
  0
VERTEX
  8
0
 62
7
  6
CONTINUOUS
 10
117.9021354351
 20
159.0958898916
  0
VERTEX
  8
0
 62
7
  6
CONTINUOUS
 10
117.9506650388
 20
159.1067213998
  0
SEQEND
  0
POLYLINE
  8
0
 62
7
  6
CONTINUOUS
 66
1
 70
0
  0
VERTEX
  8
0
 62
7
  6
CONTINUOUS
 10
144.4687662042
 20
159.0958898916
  0
VERTEX
  8
0
 62
7
  6
CONTINUOUS
 10
144.4830245497
 20
159.0927898525
  0
VERTEX
  8
0
 62
7
  6
CONTINUOUS
 10
144.496324615
 20
159.0900192642
  0
VERTEX
  8
0
 62
7
  6
CONTINUOUS
 10
144.5086774244
 20
159.087618652
  0
VERTEX
  8
0
 62
7
  6
CONTINUOUS
 10
144.5200810872
 20
159.0856284102
  0
VERTEX
  8
0
 62
7
  6
CONTINUOUS
 10
144.5305298733
 20
159.0840875091
  0
VERTEX
  8
0
 62
7
  6
CONTINUOUS
 10
144.5400463248
 20
159.0830279211
  0
VERTEX
  8
0
 62
7
  6
CONTINUOUS
 10
144.5486516184
 20
159.0824846908
  0
VERTEX
  8
0
 62
7
  6
CONTINUOUS
 10
144.552440697
 20
159.0824180516
  0
SEQEND
  0
LINE
  8
0
 62
7
  6
CONTINUOUS
 10
144.4022264526
 20
159.1106633239
 11
144.4687662042
 21
159.0958898916
  0
LINE
  8
0
 62
7
  6
CONTINUOUS
 10
133.5854508197
 20
159.8824180328
 11
133.704810505
 21
159.7310239157
  0
LINE
  8
0
 62
7
  6
CONTINUOUS
 10
133.704810505
 20
159.7310239157
 11
133.7574213452
 21
159.6636109677
  0
LINE
  8
0
 62
7
  6
CONTINUOUS
 10
133.7574213452
 20
159.6636109677
 11
133.7961850038
 21
159.6134273912
  0
LINE
  8
0
 62
7
  6
CONTINUOUS
 10
133.7961850038
 20
159.6134273912
 11
133.8215562872
 21
159.5802589407
  0
LINE
  8
0
 62
7
  6
CONTINUOUS
 10
133.8215562872
 20
159.5802589407
 11
133.8464598776
 21
159.547387573
  0
LINE
  8
0
 62
7
  6
CONTINUOUS
 10
133.8464598776
 20
159.547387573
 11
133.870814209
 21
159.5148717693
  0
LINE
  8
0
 62
7
  6
CONTINUOUS
 10
133.870814209
 20
159.5148717693
 11
133.8945332837
 21
159.4827713852
  0
POLYLINE
  8
0
 62
7
  6
CONTINUOUS
 66
1
 70
0
  0
VERTEX
  8
0
 62
7
  6
CONTINUOUS
 10
133.8945332837
 20
159.4827713852
  0
VERTEX
  8
0
 62
7
  6
CONTINUOUS
 10
133.9175252233
 20
159.4511486404
  0
VERTEX
  8
0
 62
7
  6
CONTINUOUS
 10
133.9287176863
 20
159.4355366105
  0
VERTEX
  8
0
 62
7
  6
CONTINUOUS
 10
133.9396906308
 20
159.4200691786
  0
VERTEX
  8
0
 62
7
  6
CONTINUOUS
 10
133.9504296946
 20
159.4047547565
  0
VERTEX
  8
0
 62
7
  6
CONTINUOUS
 10
133.9609207168
 20
159.3896032179
  0
VERTEX
  8
0
 62
7
  6
CONTINUOUS
 10
133.9711478003
 20
159.3746236155
  0
VERTEX
  8
0
 62
7
  6
CONTINUOUS
 10
133.9810951272
 20
159.3598268248
  0
VERTEX
  8
0
 62
7
  6
CONTINUOUS
 10
133.9907449558
 20
159.3452226829
  0
VERTEX
  8
0
 62
7
  6
CONTINUOUS
 10
134.0000793941
 20
159.3308233577
  0
VERTEX
  8
0
 62
7
  6
CONTINUOUS
 10
134.0090784723
 20
159.3166396791
  0
VERTEX
  8
0
 62
7
  6
CONTINUOUS
 10
134.0177216966
 20
159.3026854981
  0
VERTEX
  8
0
 62
7
  6
CONTINUOUS
 10
134.025986341
 20
159.2889730402
  0
VERTEX
  8
0
 62
7
  6
CONTINUOUS
 10
134.0338488911
 20
159.2755180118
  0
VERTEX
  8
0
 62
7
  6
CONTINUOUS
 10
134.0412834499
 20
159.2623342048
  0
VERTEX
  8
0
 62
7
  6
CONTINUOUS
 10
134.0482628627
 20
159.2494395878
  0
VERTEX
  8
0
 62
7
  6
CONTINUOUS
 10
134.0547575231
 20
159.2368498998
  0
VERTEX
  8
0
 62
7
  6
CONTINUOUS
 10
134.0607360908
 20
159.2245856202
  0
VERTEX
  8
0
 62
7
  6
CONTINUOUS
 10
134.0661647705
 20
159.2126647769
  0
VERTEX
  8
0
 62
7
  6
CONTINUOUS
 10
134.0710075872
 20
159.2011104631
  0
VERTEX
  8
0
 62
7
  6
CONTINUOUS
 10
134.0752262038
 20
159.1899432795
  0
VERTEX
  8
0
 62
7
  6
CONTINUOUS
 10
134.0787798045
 20
159.1791887316
  0
VERTEX
  8
0
 62
7
  6
CONTINUOUS
 10
134.0816254225
 20
159.1688701169
  0
VERTEX
  8
0
 62
7
  6
CONTINUOUS
 10
134.0837176211
 20
159.1590146593
  0
VERTEX
  8
0
 62
7
  6
CONTINUOUS
 10
134.0850093855
 20
159.1496617221
  0
VERTEX
  8
0
 62
7
  6
CONTINUOUS
 10
134.0854508197
 20
159.1407981841
  0
SEQEND
  0
LINE
  8
0
 62
7
  6
CONTINUOUS
 10
127.8354508197
 20
199.6824180328
 11
127.8354508197
 21
190.1240378815
  0
LINE
  8
0
 62
7
  6
CONTINUOUS
 10
128.2854508197
 20
159.1407980418
 11
128.2854508197
 21
149.6024180328
  0
LINE
  8
DEFAULT_1
 62
2
  6
CENTER
 10
131.1854508197
 20
179.8824180328
 11
131.1854508197
 21
176.6325180328
  0
LINE
  8
0
 62
2
  6
CONTINUOUS
 10
131.1854508197
 20
175.6824180328
 11
131.1854508197
 21
173.5824180328
  0
LINE
  8
DEFAULT_1
 62
2
  6
CENTER
 10
131.1854508197
 20
169.3824180328
 11
131.1854508197
 21
172.6323180328
  0
POLYLINE
  8
0
 62
7
  6
CONTINUOUS
 66
1
 70
0
  0
VERTEX
  8
0
 62
7
  6
CONTINUOUS
 10
127.8354508197
 20
190.1240378815
  0
VERTEX
  8
0
 62
7
  6
CONTINUOUS
 10
127.8350093855
 20
190.1151743435
  0
VERTEX
  8
0
 62
7
  6
CONTINUOUS
 10
127.8337176211
 20
190.1058214062
  0
VERTEX
  8
0
 62
7
  6
CONTINUOUS
 10
127.8316254225
 20
190.0959659486
  0
VERTEX
  8
0
 62
7
  6
CONTINUOUS
 10
127.8287798045
 20
190.085647334
  0
VERTEX
  8
0
 62
7
  6
CONTINUOUS
 10
127.8252262038
 20
190.074892786
  0
VERTEX
  8
0
 62
7
  6
CONTINUOUS
 10
127.8210075872
 20
190.0637256025
  0
VERTEX
  8
0
 62
7
  6
CONTINUOUS
 10
127.8161647705
 20
190.0521712886
  0
VERTEX
  8
0
 62
7
  6
CONTINUOUS
 10
127.8107360908
 20
190.0402504453
  0
VERTEX
  8
0
 62
7
  6
CONTINUOUS
 10
127.8047575231
 20
190.0279861658
  0
VERTEX
  8
0
 62
7
  6
CONTINUOUS
 10
127.7982628627
 20
190.0153964778
  0
VERTEX
  8
0
 62
7
  6
CONTINUOUS
 10
127.7912834499
 20
190.0025018607
  0
VERTEX
  8
0
 62
7
  6
CONTINUOUS
 10
127.7838488911
 20
189.9893180538
  0
VERTEX
  8
0
 62
7
  6
CONTINUOUS
 10
127.775986341
 20
189.9758630254
  0
VERTEX
  8
0
 62
7
  6
CONTINUOUS
 10
127.7677216966
 20
189.9621505675
  0
VERTEX
  8
0
 62
7
  6
CONTINUOUS
 10
127.7590784723
 20
189.9481963865
  0
VERTEX
  8
0
 62
7
  6
CONTINUOUS
 10
127.7500793941
 20
189.9340127079
  0
VERTEX
  8
0
 62
7
  6
CONTINUOUS
 10
127.7407449558
 20
189.9196133827
  0
VERTEX
  8
0
 62
7
  6
CONTINUOUS
 10
127.7310951272
 20
189.9050092408
  0
VERTEX
  8
0
 62
7
  6
CONTINUOUS
 10
127.7211478003
 20
189.8902124501
  0
VERTEX
  8
0
 62
7
  6
CONTINUOUS
 10
127.7109207168
 20
189.8752328477
  0
VERTEX
  8
0
 62
7
  6
CONTINUOUS
 10
127.7004296946
 20
189.8600813091
  0
VERTEX
  8
0
 62
7
  6
CONTINUOUS
 10
127.6896906308
 20
189.844766887
  0
VERTEX
  8
0
 62
7
  6
CONTINUOUS
 10
127.6787176863
 20
189.8292994551
  0
VERTEX
  8
0
 62
7
  6
CONTINUOUS
 10
127.6675252233
 20
189.8136874251
  0
SEQEND
  0
POLYLINE
  8
0
 62
7
  6
CONTINUOUS
 66
1
 70
0
  0
VERTEX
  8
0
 62
7
  6
CONTINUOUS
 10
128.2854508197
 20
159.1407981841
  0
VERTEX
  8
0
 62
7
  6
CONTINUOUS
 10
128.2858922539
 20
159.1496617221
  0
VERTEX
  8
0
 62
7
  6
CONTINUOUS
 10
128.2871840182
 20
159.1590146593
  0
VERTEX
  8
0
 62
7
  6
CONTINUOUS
 10
128.2892762168
 20
159.1688701169
  0
VERTEX
  8
0
 62
7
  6
CONTINUOUS
 10
128.2921218349
 20
159.1791887316
  0
VERTEX
  8
0
 62
7
  6
CONTINUOUS
 10
128.2956754356
 20
159.1899432795
  0
VERTEX
  8
0
 62
7
  6
CONTINUOUS
 10
128.2998940522
 20
159.2011104631
  0
VERTEX
  8
0
 62
7
  6
CONTINUOUS
 10
128.3047368688
 20
159.2126647769
  0
VERTEX
  8
0
 62
7
  6
CONTINUOUS
 10
128.3101655486
 20
159.2245856202
  0
VERTEX
  8
0
 62
7
  6
CONTINUOUS
 10
128.3161441162
 20
159.2368498998
  0
VERTEX
  8
0
 62
7
  6
CONTINUOUS
 10
128.3226387766
 20
159.2494395878
  0
VERTEX
  8
0
 62
7
  6
CONTINUOUS
 10
128.3296181894
 20
159.2623342048
  0
VERTEX
  8
0
 62
7
  6
CONTINUOUS
 10
128.3370527483
 20
159.2755180118
  0
VERTEX
  8
0
 62
7
  6
CONTINUOUS
 10
128.3449152984
 20
159.2889730402
  0
VERTEX
  8
0
 62
7
  6
CONTINUOUS
 10
128.3531799428
 20
159.3026854981
  0
VERTEX
  8
0
 62
7
  6
CONTINUOUS
 10
128.361823167
 20
159.3166396791
  0
VERTEX
  8
0
 62
7
  6
CONTINUOUS
 10
128.3708222453
 20
159.3308233577
  0
VERTEX
  8
0
 62
7
  6
CONTINUOUS
 10
128.3801566836
 20
159.3452226829
  0
VERTEX
  8
0
 62
7
  6
CONTINUOUS
 10
128.3898065122
 20
159.3598268248
  0
VERTEX
  8
0
 62
7
  6
CONTINUOUS
 10
128.3997538391
 20
159.3746236155
  0
VERTEX
  8
0
 62
7
  6
CONTINUOUS
 10
128.4099809226
 20
159.3896032179
  0
VERTEX
  8
0
 62
7
  6
CONTINUOUS
 10
128.4204719448
 20
159.4047547565
  0
VERTEX
  8
0
 62
7
  6
CONTINUOUS
 10
128.4312110085
 20
159.4200691786
  0
VERTEX
  8
0
 62
7
  6
CONTINUOUS
 10
128.4421839531
 20
159.4355366105
  0
VERTEX
  8
0
 62
7
  6
CONTINUOUS
 10
128.4533764161
 20
159.4511486404
  0
SEQEND
  0
LINE
  8
0
 62
7
  6
CONTINUOUS
 10
143.7680348807
 20
189.5506971927
 11
143.6751076948
 21
189.432595357
  0
LINE
  8
0
 62
7
  6
CONTINUOUS
 10
143.6751076948
 20
189.432595357
 11
143.6354508197
 21
189.3824180328
  0
LINE
  8
DEFAULT_1
 62
2
  6
CENTER
 10
136.4354508197
 20
174.6324180328
 11
133.1855508197
 21
174.6324180328
  0
LINE
  8
0
 62
2
  6
CONTINUOUS
 10
132.2354508197
 20
174.6324180328
 11
130.1354508197
 21
174.6324180328
  0
LINE
  8
DEFAULT_1
 62
2
  6
CENTER
 10
125.9354508197
 20
174.6324180328
 11
129.1853508197
 21
174.6324180328
  0
LINE
  8
0
 62
7
  6
CONTINUOUS
 10
118.7354508197
 20
189.3824180328
 11
118.6160911343
 21
189.5338121499
  0
LINE
  8
0
 62
7
  6
CONTINUOUS
 10
118.6160911343
 20
189.5338121499
 11
118.5634802941
 21
189.6012250978
  0
LINE
  8
0
 62
7
  6
CONTINUOUS
 10
118.5634802941
 20
189.6012250978
 11
118.5247166355
 21
189.6514086744
  0
LINE
  8
0
 62
7
  6
CONTINUOUS
 10
118.5247166355
 20
189.6514086744
 11
118.4993453522
 21
189.6845771248
  0
LINE
  8
0
 62
7
  6
CONTINUOUS
 10
118.4993453522
 20
189.6845771248
 11
118.4744417618
 21
189.7174484926
  0
LINE
  8
0
 62
7
  6
CONTINUOUS
 10
118.4744417618
 20
189.7174484926
 11
118.4500874303
 21
189.7499642963
  0
LINE
  8
0
 62
7
  6
CONTINUOUS
 10
118.4500874303
 20
189.7499642963
 11
118.4263683557
 21
189.7820646804
  0
POLYLINE
  8
0
 62
7
  6
CONTINUOUS
 66
1
 70
0
  0
VERTEX
  8
0
 62
7
  6
CONTINUOUS
 10
118.4263683557
 20
189.7820646804
  0
VERTEX
  8
0
 62
7
  6
CONTINUOUS
 10
118.4033764161
 20
189.8136874251
  0
VERTEX
  8
0
 62
7
  6
CONTINUOUS
 10
118.3921839531
 20
189.8292994551
  0
VERTEX
  8
0
 62
7
  6
CONTINUOUS
 10
118.3812110085
 20
189.844766887
  0
VERTEX
  8
0
 62
7
  6
CONTINUOUS
 10
118.3704719448
 20
189.8600813091
  0
VERTEX
  8
0
 62
7
  6
CONTINUOUS
 10
118.3599809226
 20
189.8752328477
  0
VERTEX
  8
0
 62
7
  6
CONTINUOUS
 10
118.3497538391
 20
189.8902124501
  0
VERTEX
  8
0
 62
7
  6
CONTINUOUS
 10
118.3398065122
 20
189.9050092408
  0
VERTEX
  8
0
 62
7
  6
CONTINUOUS
 10
118.3301566836
 20
189.9196133827
  0
VERTEX
  8
0
 62
7
  6
CONTINUOUS
 10
118.3208222453
 20
189.9340127079
  0
VERTEX
  8
0
 62
7
  6
CONTINUOUS
 10
118.311823167
 20
189.9481963865
  0
VERTEX
  8
0
 62
7
  6
CONTINUOUS
 10
118.3031799428
 20
189.9621505675
  0
VERTEX
  8
0
 62
7
  6
CONTINUOUS
 10
118.2949152984
 20
189.9758630254
  0
VERTEX
  8
0
 62
7
  6
CONTINUOUS
 10
118.2870527483
 20
189.9893180538
  0
VERTEX
  8
0
 62
7
  6
CONTINUOUS
 10
118.2796181894
 20
190.0025018607
  0
VERTEX
  8
0
 62
7
  6
CONTINUOUS
 10
118.2726387766
 20
190.0153964778
  0
VERTEX
  8
0
 62
7
  6
CONTINUOUS
 10
118.2661441162
 20
190.0279861658
  0
VERTEX
  8
0
 62
7
  6
CONTINUOUS
 10
118.2601655486
 20
190.0402504453
  0
VERTEX
  8
0
 62
7
  6
CONTINUOUS
 10
118.2547368688
 20
190.0521712886
  0
VERTEX
  8
0
 62
7
  6
CONTINUOUS
 10
118.2498940522
 20
190.0637256025
  0
VERTEX
  8
0
 62
7
  6
CONTINUOUS
 10
118.2456754356
 20
190.074892786
  0
VERTEX
  8
0
 62
7
  6
CONTINUOUS
 10
118.2421218349
 20
190.085647334
  0
VERTEX
  8
0
 62
7
  6
CONTINUOUS
 10
118.2392762168
 20
190.0959659486
  0
VERTEX
  8
0
 62
7
  6
CONTINUOUS
 10
118.2371840182
 20
190.1058214062
  0
VERTEX
  8
0
 62
7
  6
CONTINUOUS
 10
118.2358922539
 20
190.1151743435
  0
VERTEX
  8
0
 62
7
  6
CONTINUOUS
 10
118.2354508197
 20
190.1240378815
  0
SEQEND
  0
LINE
  8
0
 62
7
  6
CONTINUOUS
 10
134.0854508197
 20
159.1407981841
 11
134.0854508197
 21
149.6024180328
  0
LINE
  8
0
 62
7
  6
CONTINUOUS
 10
134.5354508197
 20
190.1240378815
 11
134.5354508197
 21
199.6824180328
  0
LINE
  8
0
 62
7
  6
CONTINUOUS
 10
143.9675252233
 20
189.8136874251
 11
143.9445332837
 21
189.7820646804
  0
LINE
  8
0
 62
7
  6
CONTINUOUS
 10
143.9445332837
 20
189.7820646804
 11
143.920814209
 21
189.7499642963
  0
LINE
  8
0
 62
7
  6
CONTINUOUS
 10
143.920814209
 20
189.7499642963
 11
143.8964598776
 21
189.7174484926
  0
LINE
  8
0
 62
7
  6
CONTINUOUS
 10
143.8964598776
 20
189.7174484926
 11
143.8715562872
 21
189.6845771248
  0
LINE
  8
0
 62
7
  6
CONTINUOUS
 10
143.8715562872
 20
189.6845771248
 11
143.8333484453
 21
189.6347311175
  0
LINE
  8
0
 62
7
  6
CONTINUOUS
 10
143.8333484453
 20
189.6347311175
 11
143.7943494715
 21
189.5844110498
  0
LINE
  8
0
 62
7
  6
CONTINUOUS
 10
143.7943494715
 20
189.5844110498
 11
143.7680348807
 21
189.5506971927
  0
LINE
  8
0
 62
7
  6
CONTINUOUS
 10
128.4533764161
 20
159.4511486404
 11
128.4763683557
 21
159.4827713852
  0
LINE
  8
0
 62
7
  6
CONTINUOUS
 10
128.4763683557
 20
159.4827713852
 11
128.5000874303
 21
159.5148717693
  0
LINE
  8
0
 62
7
  6
CONTINUOUS
 10
128.5000874303
 20
159.5148717693
 11
128.5244417618
 21
159.547387573
  0
LINE
  8
0
 62
7
  6
CONTINUOUS
 10
128.5244417618
 20
159.547387573
 11
128.5493453522
 21
159.5802589407
  0
LINE
  8
0
 62
7
  6
CONTINUOUS
 10
128.5493453522
 20
159.5802589407
 11
128.5875531941
 21
159.6301049481
  0
LINE
  8
0
 62
7
  6
CONTINUOUS
 10
128.5875531941
 20
159.6301049481
 11
128.6265521679
 21
159.6804250158
  0
LINE
  8
0
 62
7
  6
CONTINUOUS
 10
128.6265521679
 20
159.6804250158
 11
128.6926277884
 21
159.7648122179
  0
LINE
  8
0
 62
7
  6
CONTINUOUS
 10
128.6926277884
 20
159.7648122179
 11
128.7854508197
 21
159.8824180328
  0
LINE
  8
0
 62
7
  6
CONTINUOUS
 10
144.1354508197
 20
199.6824180328
 11
144.1354508197
 21
190.1240378815
  0
LINE
  8
0
 62
7
  6
CONTINUOUS
 10
144.5854508197
 20
149.6024180328
 11
144.5854508197
 21
159.1407981841
  0
POLYLINE
  8
0
 62
7
  6
CONTINUOUS
 66
1
 70
0
  0
VERTEX
  8
0
 62
7
  6
CONTINUOUS
 10
144.1354508197
 20
190.1240378815
  0
VERTEX
  8
0
 62
7
  6
CONTINUOUS
 10
144.1350093855
 20
190.1151743435
  0
VERTEX
  8
0
 62
7
  6
CONTINUOUS
 10
144.1337176211
 20
190.1058214062
  0
VERTEX
  8
0
 62
7
  6
CONTINUOUS
 10
144.1316254225
 20
190.0959659486
  0
VERTEX
  8
0
 62
7
  6
CONTINUOUS
 10
144.1287798045
 20
190.085647334
  0
VERTEX
  8
0
 62
7
  6
CONTINUOUS
 10
144.1252262038
 20
190.074892786
  0
VERTEX
  8
0
 62
7
  6
CONTINUOUS
 10
144.1210075872
 20
190.0637256025
  0
VERTEX
  8
0
 62
7
  6
CONTINUOUS
 10
144.1161647705
 20
190.0521712886
  0
VERTEX
  8
0
 62
7
  6
CONTINUOUS
 10
144.1107360908
 20
190.0402504453
  0
VERTEX
  8
0
 62
7
  6
CONTINUOUS
 10
144.1047575231
 20
190.0279861658
  0
VERTEX
  8
0
 62
7
  6
CONTINUOUS
 10
144.0982628627
 20
190.0153964778
  0
VERTEX
  8
0
 62
7
  6
CONTINUOUS
 10
144.0912834499
 20
190.0025018607
  0
VERTEX
  8
0
 62
7
  6
CONTINUOUS
 10
144.0838488911
 20
189.9893180538
  0
VERTEX
  8
0
 62
7
  6
CONTINUOUS
 10
144.075986341
 20
189.9758630254
  0
VERTEX
  8
0
 62
7
  6
CONTINUOUS
 10
144.0677216966
 20
189.9621505675
  0
VERTEX
  8
0
 62
7
  6
CONTINUOUS
 10
144.0590784723
 20
189.9481963865
  0
VERTEX
  8
0
 62
7
  6
CONTINUOUS
 10
144.0500793941
 20
189.9340127079
  0
VERTEX
  8
0
 62
7
  6
CONTINUOUS
 10
144.0407449558
 20
189.9196133827
  0
VERTEX
  8
0
 62
7
  6
CONTINUOUS
 10
144.0310951272
 20
189.9050092408
  0
VERTEX
  8
0
 62
7
  6
CONTINUOUS
 10
144.0211478003
 20
189.8902124501
  0
VERTEX
  8
0
 62
7
  6
CONTINUOUS
 10
144.0109207168
 20
189.8752328477
  0
VERTEX
  8
0
 62
7
  6
CONTINUOUS
 10
144.0004296946
 20
189.8600813091
  0
VERTEX
  8
0
 62
7
  6
CONTINUOUS
 10
143.9896906308
 20
189.844766887
  0
VERTEX
  8
0
 62
7
  6
CONTINUOUS
 10
143.9787176863
 20
189.8292994551
  0
VERTEX
  8
0
 62
7
  6
CONTINUOUS
 10
143.9675252233
 20
189.8136874251
  0
SEQEND
  0
POLYLINE
  8
0
 62
7
  6
CONTINUOUS
 66
1
 70
0
  0
VERTEX
  8
0
 62
7
  6
CONTINUOUS
 10
144.5854508197
 20
159.1407981841
  0
VERTEX
  8
0
 62
7
  6
CONTINUOUS
 10
144.5858922539
 20
159.1496617221
  0
VERTEX
  8
0
 62
7
  6
CONTINUOUS
 10
144.5871840182
 20
159.1590146593
  0
VERTEX
  8
0
 62
7
  6
CONTINUOUS
 10
144.5892762168
 20
159.1688701169
  0
VERTEX
  8
0
 62
7
  6
CONTINUOUS
 10
144.5921218349
 20
159.1791887316
  0
VERTEX
  8
0
 62
7
  6
CONTINUOUS
 10
144.5956754356
 20
159.1899432795
  0
VERTEX
  8
0
 62
7
  6
CONTINUOUS
 10
144.5998940522
 20
159.2011104631
  0
VERTEX
  8
0
 62
7
  6
CONTINUOUS
 10
144.6047368688
 20
159.2126647769
  0
VERTEX
  8
0
 62
7
  6
CONTINUOUS
 10
144.6101655486
 20
159.2245856202
  0
VERTEX
  8
0
 62
7
  6
CONTINUOUS
 10
144.6161441162
 20
159.2368498998
  0
VERTEX
  8
0
 62
7
  6
CONTINUOUS
 10
144.6226387766
 20
159.2494395878
  0
VERTEX
  8
0
 62
7
  6
CONTINUOUS
 10
144.6296181894
 20
159.2623342048
  0
VERTEX
  8
0
 62
7
  6
CONTINUOUS
 10
144.6370527483
 20
159.2755180118
  0
VERTEX
  8
0
 62
7
  6
CONTINUOUS
 10
144.6449152984
 20
159.2889730402
  0
VERTEX
  8
0
 62
7
  6
CONTINUOUS
 10
144.6531799428
 20
159.3026854981
  0
VERTEX
  8
0
 62
7
  6
CONTINUOUS
 10
144.661823167
 20
159.3166396791
  0
VERTEX
  8
0
 62
7
  6
CONTINUOUS
 10
144.6708222453
 20
159.3308233577
  0
VERTEX
  8
0
 62
7
  6
CONTINUOUS
 10
144.6801566836
 20
159.3452226829
  0
VERTEX
  8
0
 62
7
  6
CONTINUOUS
 10
144.6898065122
 20
159.3598268248
  0
VERTEX
  8
0
 62
7
  6
CONTINUOUS
 10
144.6997538391
 20
159.3746236155
  0
VERTEX
  8
0
 62
7
  6
CONTINUOUS
 10
144.7099809226
 20
159.3896032179
  0
VERTEX
  8
0
 62
7
  6
CONTINUOUS
 10
144.7204719448
 20
159.4047547565
  0
VERTEX
  8
0
 62
7
  6
CONTINUOUS
 10
144.7312110085
 20
159.4200691786
  0
VERTEX
  8
0
 62
7
  6
CONTINUOUS
 10
144.7421839531
 20
159.4355366105
  0
VERTEX
  8
0
 62
7
  6
CONTINUOUS
 10
144.7533764161
 20
159.4511486404
  0
SEQEND
  0
POLYLINE
  8
0
 62
7
  6
CONTINUOUS
 66
1
 70
0
  0
VERTEX
  8
0
 62
7
  6
CONTINUOUS
 10
134.3702366005
 20
190.1581146658
  0
VERTEX
  8
0
 62
7
  6
CONTINUOUS
 10
134.3522264526
 20
190.1541727417
  0
VERTEX
  8
0
 62
7
  6
CONTINUOUS
 10
134.333314166
 20
190.150153803
  0
VERTEX
  8
0
 62
7
  6
CONTINUOUS
 10
134.3135776797
 20
190.1461227185
  0
VERTEX
  8
0
 62
7
  6
CONTINUOUS
 10
134.2930788504
 20
190.1421468238
  0
VERTEX
  8
0
 62
7
  6
CONTINUOUS
 10
134.2718670435
 20
190.1382824513
  0
VERTEX
  8
0
 62
7
  6
CONTINUOUS
 10
134.2499794333
 20
190.1345877603
  0
VERTEX
  8
0
 62
7
  6
CONTINUOUS
 10
134.2275144493
 20
190.1311202898
  0
VERTEX
  8
0
 62
7
  6
CONTINUOUS
 10
134.2045669121
 20
190.1279399275
  0
VERTEX
  8
0
 62
7
  6
CONTINUOUS
 10
134.1811848232
 20
190.1250870901
  0
VERTEX
  8
0
 62
7
  6
CONTINUOUS
 10
134.1574211714
 20
190.1226036106
  0
VERTEX
  8
0
 62
7
  6
CONTINUOUS
 10
134.1333558144
 20
190.1205230435
  0
VERTEX
  8
0
 62
7
  6
CONTINUOUS
 10
134.1090674751
 20
190.1188779698
  0
VERTEX
  8
0
 62
7
  6
CONTINUOUS
 10
134.0846125461
 20
190.1176869779
  0
VERTEX
  8
0
 62
7
  6
CONTINUOUS
 10
134.0600839901
 20
190.1169677038
  0
VERTEX
  8
0
 62
7
  6
CONTINUOUS
 10
134.0354508197
 20
190.1167260992
  0
SEQEND
  0
POLYLINE
  8
0
 62
7
  6
CONTINUOUS
 66
1
 70
0
  0
VERTEX
  8
0
 62
7
  6
CONTINUOUS
 10
134.502440697
 20
190.1824180139
  0
VERTEX
  8
0
 62
7
  6
CONTINUOUS
 10
134.4986516184
 20
190.1823513748
  0
VERTEX
  8
0
 62
7
  6
CONTINUOUS
 10
134.4900463248
 20
190.1818081444
  0
VERTEX
  8
0
 62
7
  6
CONTINUOUS
 10
134.4805298733
 20
190.1807485564
  0
VERTEX
  8
0
 62
7
  6
CONTINUOUS
 10
134.4700810872
 20
190.1792076554
  0
VERTEX
  8
0
 62
7
  6
CONTINUOUS
 10
134.4586774244
 20
190.1772174136
  0
VERTEX
  8
0
 62
7
  6
CONTINUOUS
 10
134.446324615
 20
190.1748168014
  0
VERTEX
  8
0
 62
7
  6
CONTINUOUS
 10
134.4330245497
 20
190.1720462131
  0
VERTEX
  8
0
 62
7
  6
CONTINUOUS
 10
134.4187662042
 20
190.1689461739
  0
VERTEX
  8
0
 62
7
  6
CONTINUOUS
 10
134.3702366005
 20
190.1581146658
  0
SEQEND
  0
POLYLINE
  8
0
 62
7
  6
CONTINUOUS
 66
1
 70
0
  0
VERTEX
  8
0
 62
7
  6
CONTINUOUS
 10
118.202440697
 20
190.1824180139
  0
VERTEX
  8
0
 62
7
  6
CONTINUOUS
 10
118.1986516184
 20
190.1823513748
  0
VERTEX
  8
0
 62
7
  6
CONTINUOUS
 10
118.1900463248
 20
190.1818081444
  0
VERTEX
  8
0
 62
7
  6
CONTINUOUS
 10
118.1805298733
 20
190.1807485564
  0
VERTEX
  8
0
 62
7
  6
CONTINUOUS
 10
118.1700810872
 20
190.1792076554
  0
VERTEX
  8
0
 62
7
  6
CONTINUOUS
 10
118.1586774244
 20
190.1772174136
  0
VERTEX
  8
0
 62
7
  6
CONTINUOUS
 10
118.146324615
 20
190.1748168014
  0
VERTEX
  8
0
 62
7
  6
CONTINUOUS
 10
118.1330245497
 20
190.1720462131
  0
VERTEX
  8
0
 62
7
  6
CONTINUOUS
 10
118.1187662042
 20
190.1689461739
  0
VERTEX
  8
0
 62
7
  6
CONTINUOUS
 10
118.0702366005
 20
190.1581146658
  0
SEQEND
  0
LINE
  8
0
 62
7
  6
CONTINUOUS
 10
134.0354508197
 20
190.1167260992
 11
128.3354508197
 21
190.1167260992
  0
LINE
  8
0
 62
7
  6
CONTINUOUS
 10
117.7354508197
 20
190.1167260992
 11
58.0104508127
 21
190.1167260992
  0
LINE
  8
0
 62
7
  6
CONTINUOUS
 10
144.6354508197
 20
190.1167260992
 11
204.3604508267
 21
190.1167260992
  0
LINE
  8
0
 62
7
  6
CONTINUOUS
 10
144.1688123689
 20
190.1824180328
 11
144.1354508197
 21
190.1824180328
  0
LINE
  8
0
 62
7
  6
CONTINUOUS
 10
134.5354508197
 20
190.1824180328
 11
134.5020892704
 21
190.1824180328
  0
LINE
  8
0
 62
7
  6
CONTINUOUS
 10
127.8688123689
 20
190.1824180328
 11
127.8354508197
 21
190.1824180328
  0
LINE
  8
0
 62
7
  6
CONTINUOUS
 10
118.2354508197
 20
190.1824180328
 11
118.2020892704
 21
190.1824180328
  0
POLYLINE
  8
0
 62
7
  6
CONTINUOUS
 66
1
 70
0
  0
VERTEX
  8
0
 62
7
  6
CONTINUOUS
 10
128.3354508197
 20
190.1167260992
  0
VERTEX
  8
0
 62
7
  6
CONTINUOUS
 10
128.3108176492
 20
190.1169677038
  0
VERTEX
  8
0
 62
7
  6
CONTINUOUS
 10
128.2862890933
 20
190.1176869779
  0
VERTEX
  8
0
 62
7
  6
CONTINUOUS
 10
128.2618341643
 20
190.1188779698
  0
VERTEX
  8
0
 62
7
  6
CONTINUOUS
 10
128.2375458249
 20
190.1205230435
  0
VERTEX
  8
0
 62
7
  6
CONTINUOUS
 10
128.2134804679
 20
190.1226036106
  0
VERTEX
  8
0
 62
7
  6
CONTINUOUS
 10
128.1897168161
 20
190.1250870901
  0
VERTEX
  8
0
 62
7
  6
CONTINUOUS
 10
128.1663347272
 20
190.1279399275
  0
VERTEX
  8
0
 62
7
  6
CONTINUOUS
 10
128.1433871901
 20
190.1311202898
  0
VERTEX
  8
0
 62
7
  6
CONTINUOUS
 10
128.1209222061
 20
190.1345877603
  0
VERTEX
  8
0
 62
7
  6
CONTINUOUS
 10
128.0990345958
 20
190.1382824513
  0
VERTEX
  8
0
 62
7
  6
CONTINUOUS
 10
128.0778227889
 20
190.1421468238
  0
VERTEX
  8
0
 62
7
  6
CONTINUOUS
 10
128.0573239597
 20
190.1461227185
  0
VERTEX
  8
0
 62
7
  6
CONTINUOUS
 10
128.0375874733
 20
190.150153803
  0
VERTEX
  8
0
 62
7
  6
CONTINUOUS
 10
128.0186751868
 20
190.1541727417
  0
SEQEND
  0
POLYLINE
  8
0
 62
7
  6
CONTINUOUS
 66
1
 70
0
  0
VERTEX
  8
0
 62
7
  6
CONTINUOUS
 10
144.6354508197
 20
190.1167260992
  0
VERTEX
  8
0
 62
7
  6
CONTINUOUS
 10
144.6108176492
 20
190.1169677038
  0
VERTEX
  8
0
 62
7
  6
CONTINUOUS
 10
144.5862890933
 20
190.1176869779
  0
VERTEX
  8
0
 62
7
  6
CONTINUOUS
 10
144.5618341643
 20
190.1188779698
  0
VERTEX
  8
0
 62
7
  6
CONTINUOUS
 10
144.5375458249
 20
190.1205230435
  0
VERTEX
  8
0
 62
7
  6
CONTINUOUS
 10
144.5134804679
 20
190.1226036106
  0
VERTEX
  8
0
 62
7
  6
CONTINUOUS
 10
144.4897168161
 20
190.1250870901
  0
VERTEX
  8
0
 62
7
  6
CONTINUOUS
 10
144.4663347272
 20
190.1279399275
  0
VERTEX
  8
0
 62
7
  6
CONTINUOUS
 10
144.4433871901
 20
190.1311202898
  0
VERTEX
  8
0
 62
7
  6
CONTINUOUS
 10
144.4209222061
 20
190.1345877603
  0
VERTEX
  8
0
 62
7
  6
CONTINUOUS
 10
144.3990345958
 20
190.1382824513
  0
VERTEX
  8
0
 62
7
  6
CONTINUOUS
 10
144.3778227889
 20
190.1421468238
  0
VERTEX
  8
0
 62
7
  6
CONTINUOUS
 10
144.3573239597
 20
190.1461227185
  0
VERTEX
  8
0
 62
7
  6
CONTINUOUS
 10
144.3375874733
 20
190.150153803
  0
VERTEX
  8
0
 62
7
  6
CONTINUOUS
 10
144.3186751868
 20
190.1541727417
  0
SEQEND
  0
POLYLINE
  8
0
 62
7
  6
CONTINUOUS
 66
1
 70
0
  0
VERTEX
  8
0
 62
7
  6
CONTINUOUS
 10
127.9521354351
 20
190.1689461739
  0
VERTEX
  8
0
 62
7
  6
CONTINUOUS
 10
127.9378770897
 20
190.1720462131
  0
VERTEX
  8
0
 62
7
  6
CONTINUOUS
 10
127.9245770243
 20
190.1748168014
  0
VERTEX
  8
0
 62
7
  6
CONTINUOUS
 10
127.9122242149
 20
190.1772174136
  0
VERTEX
  8
0
 62
7
  6
CONTINUOUS
 10
127.9008205521
 20
190.1792076554
  0
VERTEX
  8
0
 62
7
  6
CONTINUOUS
 10
127.8903717661
 20
190.1807485564
  0
VERTEX
  8
0
 62
7
  6
CONTINUOUS
 10
127.8808553145
 20
190.1818081444
  0
VERTEX
  8
0
 62
7
  6
CONTINUOUS
 10
127.8722500209
 20
190.1823513748
  0
VERTEX
  8
0
 62
7
  6
CONTINUOUS
 10
127.8684609424
 20
190.1824180139
  0
SEQEND
  0
LINE
  8
0
 62
7
  6
CONTINUOUS
 10
128.0186751868
 20
190.1541727417
 11
127.9521354351
 21
190.1689461739
  0
LINE
  8
0
 62
7
  6
CONTINUOUS
 10
135.0354508197
 20
189.3824180328
 11
134.9160911343
 21
189.5338121499
  0
LINE
  8
0
 62
7
  6
CONTINUOUS
 10
134.9160911343
 20
189.5338121499
 11
134.8634802941
 21
189.6012250978
  0
LINE
  8
0
 62
7
  6
CONTINUOUS
 10
134.8634802941
 20
189.6012250978
 11
134.8247166355
 21
189.6514086744
  0
LINE
  8
0
 62
7
  6
CONTINUOUS
 10
134.8247166355
 20
189.6514086744
 11
134.7993453522
 21
189.6845771248
  0
LINE
  8
0
 62
7
  6
CONTINUOUS
 10
134.7993453522
 20
189.6845771248
 11
134.7744417618
 21
189.7174484926
  0
LINE
  8
0
 62
7
  6
CONTINUOUS
 10
134.7744417618
 20
189.7174484926
 11
134.7500874303
 21
189.7499642963
  0
LINE
  8
0
 62
7
  6
CONTINUOUS
 10
134.7500874303
 20
189.7499642963
 11
134.7263683557
 21
189.7820646804
  0
POLYLINE
  8
0
 62
7
  6
CONTINUOUS
 66
1
 70
0
  0
VERTEX
  8
0
 62
7
  6
CONTINUOUS
 10
134.7263683557
 20
189.7820646804
  0
VERTEX
  8
0
 62
7
  6
CONTINUOUS
 10
134.7033764161
 20
189.8136874251
  0
VERTEX
  8
0
 62
7
  6
CONTINUOUS
 10
134.6921839531
 20
189.8292994551
  0
VERTEX
  8
0
 62
7
  6
CONTINUOUS
 10
134.6812110085
 20
189.844766887
  0
VERTEX
  8
0
 62
7
  6
CONTINUOUS
 10
134.6704719448
 20
189.8600813091
  0
VERTEX
  8
0
 62
7
  6
CONTINUOUS
 10
134.6599809226
 20
189.8752328477
  0
VERTEX
  8
0
 62
7
  6
CONTINUOUS
 10
134.6497538391
 20
189.8902124501
  0
VERTEX
  8
0
 62
7
  6
CONTINUOUS
 10
134.6398065122
 20
189.9050092408
  0
VERTEX
  8
0
 62
7
  6
CONTINUOUS
 10
134.6301566836
 20
189.9196133827
  0
VERTEX
  8
0
 62
7
  6
CONTINUOUS
 10
134.6208222453
 20
189.9340127079
  0
VERTEX
  8
0
 62
7
  6
CONTINUOUS
 10
134.611823167
 20
189.9481963865
  0
VERTEX
  8
0
 62
7
  6
CONTINUOUS
 10
134.6031799428
 20
189.9621505675
  0
VERTEX
  8
0
 62
7
  6
CONTINUOUS
 10
134.5949152984
 20
189.9758630254
  0
VERTEX
  8
0
 62
7
  6
CONTINUOUS
 10
134.5870527483
 20
189.9893180538
  0
VERTEX
  8
0
 62
7
  6
CONTINUOUS
 10
134.5796181894
 20
190.0025018607
  0
VERTEX
  8
0
 62
7
  6
CONTINUOUS
 10
134.5726387766
 20
190.0153964778
  0
VERTEX
  8
0
 62
7
  6
CONTINUOUS
 10
134.5661441162
 20
190.0279861658
  0
VERTEX
  8
0
 62
7
  6
CONTINUOUS
 10
134.5601655486
 20
190.0402504453
  0
VERTEX
  8
0
 62
7
  6
CONTINUOUS
 10
134.5547368688
 20
190.0521712886
  0
VERTEX
  8
0
 62
7
  6
CONTINUOUS
 10
134.5498940522
 20
190.0637256025
  0
VERTEX
  8
0
 62
7
  6
CONTINUOUS
 10
134.5456754356
 20
190.074892786
  0
VERTEX
  8
0
 62
7
  6
CONTINUOUS
 10
134.5421218349
 20
190.085647334
  0
VERTEX
  8
0
 62
7
  6
CONTINUOUS
 10
134.5392762168
 20
190.0959659486
  0
VERTEX
  8
0
 62
7
  6
CONTINUOUS
 10
134.5371840182
 20
190.1058214062
  0
VERTEX
  8
0
 62
7
  6
CONTINUOUS
 10
134.5358922539
 20
190.1151743435
  0
VERTEX
  8
0
 62
7
  6
CONTINUOUS
 10
134.5354508197
 20
190.1240378815
  0
SEQEND
  0
LINE
  8
0
 62
7
  6
CONTINUOUS
 10
151.9854508197
 20
150.5023323127
 11
151.9854508197
 21
149.6024180328
  0
LINE
  8
0
 62
7
  6
CONTINUOUS
 10
144.7533764161
 20
159.4511486404
 11
144.7763683557
 21
159.4827713852
  0
LINE
  8
0
 62
7
  6
CONTINUOUS
 10
144.7763683557
 20
159.4827713852
 11
144.8000874303
 21
159.5148717693
  0
LINE
  8
0
 62
7
  6
CONTINUOUS
 10
144.8000874303
 20
159.5148717693
 11
144.8244417618
 21
159.547387573
  0
LINE
  8
0
 62
7
  6
CONTINUOUS
 10
144.8244417618
 20
159.547387573
 11
144.8493453522
 21
159.5802589407
  0
LINE
  8
0
 62
7
  6
CONTINUOUS
 10
144.8493453522
 20
159.5802589407
 11
144.8875531941
 21
159.6301049481
  0
LINE
  8
0
 62
7
  6
CONTINUOUS
 10
144.8875531941
 20
159.6301049481
 11
144.9265521679
 21
159.6804250158
  0
LINE
  8
0
 62
7
  6
CONTINUOUS
 10
144.9265521679
 20
159.6804250158
 11
144.9926277884
 21
159.7648122179
  0
LINE
  8
0
 62
7
  6
CONTINUOUS
 10
144.9926277884
 20
159.7648122179
 11
145.0854508197
 21
159.8824180328
  0
POLYLINE
  8
0
 62
7
  6
CONTINUOUS
 66
1
 70
0
  0
VERTEX
  8
0
 62
7
  6
CONTINUOUS
 10
118.0702366005
 20
190.1581146658
  0
VERTEX
  8
0
 62
7
  6
CONTINUOUS
 10
118.0522264526
 20
190.1541727417
  0
VERTEX
  8
0
 62
7
  6
CONTINUOUS
 10
118.033314166
 20
190.150153803
  0
VERTEX
  8
0
 62
7
  6
CONTINUOUS
 10
118.0135776797
 20
190.1461227185
  0
VERTEX
  8
0
 62
7
  6
CONTINUOUS
 10
117.9930788504
 20
190.1421468238
  0
VERTEX
  8
0
 62
7
  6
CONTINUOUS
 10
117.9718670435
 20
190.1382824513
  0
VERTEX
  8
0
 62
7
  6
CONTINUOUS
 10
117.9499794333
 20
190.1345877603
  0
VERTEX
  8
0
 62
7
  6
CONTINUOUS
 10
117.9275144493
 20
190.1311202898
  0
VERTEX
  8
0
 62
7
  6
CONTINUOUS
 10
117.9045669121
 20
190.1279399275
  0
VERTEX
  8
0
 62
7
  6
CONTINUOUS
 10
117.8811848232
 20
190.1250870901
  0
VERTEX
  8
0
 62
7
  6
CONTINUOUS
 10
117.8574211714
 20
190.1226036106
  0
VERTEX
  8
0
 62
7
  6
CONTINUOUS
 10
117.8333558144
 20
190.1205230435
  0
VERTEX
  8
0
 62
7
  6
CONTINUOUS
 10
117.8090674751
 20
190.1188779698
  0
VERTEX
  8
0
 62
7
  6
CONTINUOUS
 10
117.7846125461
 20
190.1176869779
  0
VERTEX
  8
0
 62
7
  6
CONTINUOUS
 10
117.7600839901
 20
190.1169677038
  0
VERTEX
  8
0
 62
7
  6
CONTINUOUS
 10
117.7354508197
 20
190.1167260992
  0
SEQEND
  0
LINE
  8
AXES
 62
2
  6
CENTER
 10
116.2354508197
 20
193.6824180328
 11
129.8354508197
 21
193.6824180328
  0
LINE
  8
DEFAULT_1
 62
2
  6
CENTER
 10
132.5354508197
 20
193.6824180328
 11
146.1354508197
 21
193.6824180328
  0
POLYLINE
  8
0
 62
7
  6
CONTINUOUS
 66
1
 70
0
  0
VERTEX
  8
0
 62
7
  6
CONTINUOUS
 10
144.2521354351
 20
190.1689461739
  0
VERTEX
  8
0
 62
7
  6
CONTINUOUS
 10
144.2378770897
 20
190.1720462131
  0
VERTEX
  8
0
 62
7
  6
CONTINUOUS
 10
144.2245770243
 20
190.1748168014
  0
VERTEX
  8
0
 62
7
  6
CONTINUOUS
 10
144.2122242149
 20
190.1772174136
  0
VERTEX
  8
0
 62
7
  6
CONTINUOUS
 10
144.2008205521
 20
190.1792076554
  0
VERTEX
  8
0
 62
7
  6
CONTINUOUS
 10
144.1903717661
 20
190.1807485564
  0
VERTEX
  8
0
 62
7
  6
CONTINUOUS
 10
144.1808553145
 20
190.1818081444
  0
VERTEX
  8
0
 62
7
  6
CONTINUOUS
 10
144.1722500209
 20
190.1823513748
  0
VERTEX
  8
0
 62
7
  6
CONTINUOUS
 10
144.1684609424
 20
190.1824180139
  0
SEQEND
  0
LINE
  8
0
 62
7
  6
CONTINUOUS
 10
144.3186751868
 20
190.1541727417
 11
144.2521354351
 21
190.1689461739
  0
POLYLINE
  8
0
 62
7
  6
CONTINUOUS
 66
1
 70
0
  0
VERTEX
  8
0
 62
7
  6
CONTINUOUS
 10
151.985192434
 20
150.500958782
  0
VERTEX
  8
0
 62
7
  6
CONTINUOUS
 10
151.9852422323
 20
150.5012595519
  0
VERTEX
  8
0
 62
7
  6
CONTINUOUS
 10
151.9855725735
 20
150.5029584905
  0
VERTEX
  8
0
 62
7
  6
CONTINUOUS
 10
151.9862509618
 20
150.5058816464
  0
VERTEX
  8
0
 62
7
  6
CONTINUOUS
 10
151.987345091
 20
150.5099572284
  0
SEQEND
  0
POLYLINE
  8
0
 62
7
  6
CONTINUOUS
 66
1
 70
0
  0
VERTEX
  8
0
 62
7
  6
CONTINUOUS
 10
151.987345091
 20
150.5099572284
  0
VERTEX
  8
0
 62
7
  6
CONTINUOUS
 10
151.9889247459
 20
150.5151672572
  0
VERTEX
  8
0
 62
7
  6
CONTINUOUS
 10
151.9910423734
 20
150.5214597556
  0
VERTEX
  8
0
 62
7
  6
CONTINUOUS
 10
151.9937780162
 20
150.5288794875
  0
VERTEX
  8
0
 62
7
  6
CONTINUOUS
 10
151.9972065561
 20
150.5374580624
  0
VERTEX
  8
0
 62
7
  6
CONTINUOUS
 10
152.0013948093
 20
150.5472103874
  0
VERTEX
  8
0
 62
7
  6
CONTINUOUS
 10
152.0064059784
 20
150.5581477671
  0
VERTEX
  8
0
 62
7
  6
CONTINUOUS
 10
152.0123184966
 20
150.5703203307
  0
VERTEX
  8
0
 62
7
  6
CONTINUOUS
 10
152.0192089143
 20
150.58378483
  0
VERTEX
  8
0
 62
7
  6
CONTINUOUS
 10
152.0271312327
 20
150.5985621427
  0
VERTEX
  8
0
 62
7
  6
CONTINUOUS
 10
152.0361348001
 20
150.6146764016
  0
VERTEX
  8
0
 62
7
  6
CONTINUOUS
 10
152.0462883772
 20
150.6322042606
  0
SEQEND
  0
LINE
  8
0
 62
7
  6
CONTINUOUS
 10
127.3354508197
 20
200.1824180328
 11
118.7354508197
 21
200.1824180328
  0
LINE
  8
0
 62
7
  6
CONTINUOUS
 10
135.0354508197
 20
200.1824180328
 11
143.6354508197
 21
200.1824180328
  0
LINE
  8
0
 62
7
  6
CONTINUOUS
 10
152.0462883772
 20
150.6322042606
 11
152.0576122071
 21
150.6511697513
  0
LINE
  8
0
 62
7
  6
CONTINUOUS
 10
152.0575784872
 20
150.6511172194
 11
152.057269944
 21
150.6506074219
  0
LINE
  8
0
 62
7
  6
CONTINUOUS
 10
206.1028063537
 20
189.5588966897
 11
205.8604508197
 21
189.3824180328
  0
POLYLINE
  8
0
 62
7
  6
CONTINUOUS
 66
1
 70
0
  0
VERTEX
  8
0
 62
7
  6
CONTINUOUS
 10
204.8817168168
 20
151.5540186605
  0
VERTEX
  8
0
 62
7
  6
CONTINUOUS
 10
204.882672972
 20
151.5345549125
  0
VERTEX
  8
0
 62
7
  6
CONTINUOUS
 10
204.8834800637
 20
151.5151899692
  0
VERTEX
  8
0
 62
7
  6
CONTINUOUS
 10
204.8841407519
 20
151.4959245805
  0
VERTEX
  8
0
 62
7
  6
CONTINUOUS
 10
204.8846470569
 20
151.4767909255
  0
VERTEX
  8
0
 62
7
  6
CONTINUOUS
 10
204.884993204
 20
151.4578146562
  0
VERTEX
  8
0
 62
7
  6
CONTINUOUS
 10
204.8851752396
 20
151.4390120514
  0
VERTEX
  8
0
 62
7
  6
CONTINUOUS
 10
204.8851885602
 20
151.4204024148
  0
VERTEX
  8
0
 62
7
  6
CONTINUOUS
 10
204.8850293402
 20
151.4019991757
  0
VERTEX
  8
0
 62
7
  6
CONTINUOUS
 10
204.8846934683
 20
151.3838175496
  0
VERTEX
  8
0
 62
7
  6
CONTINUOUS
 10
204.8841771974
 20
151.3658689069
  0
VERTEX
  8
0
 62
7
  6
CONTINUOUS
 10
204.8834766703
 20
151.3481656778
  0
VERTEX
  8
0
 62
7
  6
CONTINUOUS
 10
204.8825881056
 20
151.3307176947
  0
VERTEX
  8
0
 62
7
  6
CONTINUOUS
 10
204.8815077372
 20
151.3135354036
  0
VERTEX
  8
0
 62
7
  6
CONTINUOUS
 10
204.880231661
 20
151.2966274304
  0
VERTEX
  8
0
 62
7
  6
CONTINUOUS
 10
204.8787560702
 20
151.2800027344
  0
VERTEX
  8
0
 62
7
  6
CONTINUOUS
 10
204.8770769063
 20
151.2636689536
  0
VERTEX
  8
0
 62
7
  6
CONTINUOUS
 10
204.8751902876
 20
151.2476339185
  0
VERTEX
  8
0
 62
7
  6
CONTINUOUS
 10
204.8730918782
 20
151.2319043028
  0
VERTEX
  8
0
 62
7
  6
CONTINUOUS
 10
204.8707776107
 20
151.216486766
  0
VERTEX
  8
0
 62
7
  6
CONTINUOUS
 10
204.8682427981
 20
151.2013875761
  0
VERTEX
  8
0
 62
7
  6
CONTINUOUS
 10
204.865483138
 20
151.186612852
  0
VERTEX
  8
0
 62
7
  6
CONTINUOUS
 10
204.8624934085
 20
151.1721680391
  0
VERTEX
  8
0
 62
7
  6
CONTINUOUS
 10
204.8592689144
 20
151.1580584612
  0
VERTEX
  8
0
 62
7
  6
CONTINUOUS
 10
204.8558037734
 20
151.1442889701
  0
VERTEX
  8
0
 62
7
  6
CONTINUOUS
 10
204.8520927706
 20
151.1308642047
  0
VERTEX
  8
0
 62
7
  6
CONTINUOUS
 10
204.8481292097
 20
151.1177884897
  0
VERTEX
  8
0
 62
7
  6
CONTINUOUS
 10
204.8439071748
 20
151.1050658602
  0
VERTEX
  8
0
 62
7
  6
CONTINUOUS
 10
204.8394191094
 20
151.0927001452
  0
VERTEX
  8
0
 62
7
  6
CONTINUOUS
 10
204.8346583694
 20
151.0806948101
  0
VERTEX
  8
0
 62
7
  6
CONTINUOUS
 10
204.8296163016
 20
151.0690532317
  0
VERTEX
  8
0
 62
7
  6
CONTINUOUS
 10
204.82428543
 20
151.0577783322
  0
VERTEX
  8
0
 62
7
  6
CONTINUOUS
 10
204.8186555785
 20
151.0468730798
  0
VERTEX
  8
0
 62
7
  6
CONTINUOUS
 10
204.8127181023
 20
151.0363398817
  0
VERTEX
  8
0
 62
7
  6
CONTINUOUS
 10
204.806460932
 20
151.0261813119
  0
VERTEX
  8
0
 62
7
  6
CONTINUOUS
 10
204.7998739451
 20
151.0163992587
  0
VERTEX
  8
0
 62
7
  6
CONTINUOUS
 10
204.7929426563
 20
151.0069959215
  0
VERTEX
  8
0
 62
7
  6
CONTINUOUS
 10
204.7856550754
 20
150.997972651
  0
VERTEX
  8
0
 62
7
  6
CONTINUOUS
 10
204.7779935948
 20
150.9893312898
  0
VERTEX
  8
0
 62
7
  6
CONTINUOUS
 10
204.7699438174
 20
150.9810726164
  0
VERTEX
  8
0
 62
7
  6
CONTINUOUS
 10
204.7614841215
 20
150.9731981249
  0
VERTEX
  8
0
 62
7
  6
CONTINUOUS
 10
204.7525967762
 20
150.9657078945
  0
VERTEX
  8
0
 62
7
  6
CONTINUOUS
 10
204.743255712
 20
150.9586032563
  0
VERTEX
  8
0
 62
7
  6
CONTINUOUS
 10
204.7334398927
 20
150.9518836852
  0
VERTEX
  8
0
 62
7
  6
CONTINUOUS
 10
204.723116488
 20
150.9455500804
  0
VERTEX
  8
0
 62
7
  6
CONTINUOUS
 10
204.7122596412
 20
150.9396009137
  0
VERTEX
  8
0
 62
7
  6
CONTINUOUS
 10
204.7008273952
 20
150.9340368439
  0
VERTEX
  8
0
 62
7
  6
CONTINUOUS
 10
204.6887873245
 20
150.9288551565
  0
VERTEX
  8
0
 62
7
  6
CONTINUOUS
 10
204.6760849773
 20
150.924056217
  0
VERTEX
  8
0
 62
7
  6
CONTINUOUS
 10
204.6626790539
 20
150.9196356659
  0
VERTEX
  8
0
 62
7
  6
CONTINUOUS
 10
204.6484976727
 20
150.9155935085
  0
VERTEX
  8
0
 62
7
  6
CONTINUOUS
 10
204.6334869941
 20
150.911923027
  0
VERTEX
  8
0
 62
7
  6
CONTINUOUS
 10
204.6175515923
 20
150.9086236167
  0
VERTEX
  8
0
 62
7
  6
CONTINUOUS
 10
204.6006198959
 20
150.9056850468
  0
VERTEX
  8
0
 62
7
  6
CONTINUOUS
 10
204.5825665015
 20
150.9031055371
  0
VERTEX
  8
0
 62
7
  6
CONTINUOUS
 10
204.5632937691
 20
150.9008691787
  0
VERTEX
  8
0
 62
7
  6
CONTINUOUS
 10
204.5426468363
 20
150.8989732152
  0
VERTEX
  8
0
 62
7
  6
CONTINUOUS
 10
204.5204148678
 20
150.8974093395
  0
VERTEX
  8
0
 62
7
  6
CONTINUOUS
 10
204.496668142
 20
150.8961271158
  0
SEQEND
  0
LINE
  8
0
 62
7
  6
CONTINUOUS
 10
207.3604508197
 20
187.1167260992
 11
207.3604508197
 21
153.8930326011
  0
POLYLINE
  8
0
 62
7
  6
CONTINUOUS
 66
1
 70
0
  0
VERTEX
  8
0
 62
7
  6
CONTINUOUS
 10
55.0104508197
 20
82.3672805721
  0
VERTEX
  8
0
 62
7
  6
CONTINUOUS
 10
55.0123126304
 20
82.2516260706
  0
VERTEX
  8
0
 62
7
  6
CONTINUOUS
 10
55.0177718685
 20
82.1413328656
  0
VERTEX
  8
0
 62
7
  6
CONTINUOUS
 10
55.0268628718
 20
82.0362813318
  0
VERTEX
  8
0
 62
7
  6
CONTINUOUS
 10
55.0394826273
 20
81.9362852826
  0
VERTEX
  8
0
 62
7
  6
CONTINUOUS
 10
55.0555648803
 20
81.8412015823
  0
VERTEX
  8
0
 62
7
  6
CONTINUOUS
 10
55.0750336938
 20
81.7507781859
  0
VERTEX
  8
0
 62
7
  6
CONTINUOUS
 10
55.0978077175
 20
81.6648095403
  0
VERTEX
  8
0
 62
7
  6
CONTINUOUS
 10
55.1238369368
 20
81.5830448555
  0
VERTEX
  8
0
 62
7
  6
CONTINUOUS
 10
55.1530574737
 20
81.5052446275
  0
VERTEX
  8
0
 62
7
  6
CONTINUOUS
 10
55.1854295681
 20
81.4312185587
  0
VERTEX
  8
0
 62
7
  6
CONTINUOUS
 10
55.2209154647
 20
81.3607448766
  0
VERTEX
  8
0
 62
7
  6
CONTINUOUS
 10
55.2594452714
 20
81.2937187906
  0
VERTEX
  8
0
 62
7
  6
CONTINUOUS
 10
55.3009387575
 20
81.2300276027
  0
VERTEX
  8
0
 62
7
  6
CONTINUOUS
 10
55.3453891831
 20
81.1694858984
  0
VERTEX
  8
0
 62
7
  6
CONTINUOUS
 10
55.392790829
 20
81.1119025029
  0
VERTEX
  8
0
 62
7
  6
CONTINUOUS
 10
55.4430604033
 20
81.0572169923
  0
VERTEX
  8
0
 62
7
  6
CONTINUOUS
 10
55.4961282461
 20
81.0053423756
  0
VERTEX
  8
0
 62
7
  6
CONTINUOUS
 10
55.5519477423
 20
80.9561690835
  0
VERTEX
  8
0
 62
7
  6
CONTINUOUS
 10
55.6104279601
 20
80.9096165238
  0
VERTEX
  8
0
 62
7
  6
CONTINUOUS
 10
55.6716321901
 20
80.8655217045
  0
VERTEX
  8
0
 62
7
  6
CONTINUOUS
 10
55.7356406588
 20
80.8237078161
  0
VERTEX
  8
0
 62
7
  6
CONTINUOUS
 10
55.8023116269
 20
80.7841707644
  0
VERTEX
  8
0
 62
7
  6
CONTINUOUS
 10
55.8715257668
 20
80.746879746
  0
VERTEX
  8
0
 62
7
  6
CONTINUOUS
 10
55.9432960705
 20
80.7117279698
  0
VERTEX
  8
0
 62
7
  6
CONTINUOUS
 10
56.0176342663
 20
80.6786151595
  0
VERTEX
  8
0
 62
7
  6
CONTINUOUS
 10
56.0944248179
 20
80.6475046048
  0
VERTEX
  8
0
 62
7
  6
CONTINUOUS
 10
56.173563967
 20
80.6183515039
  0
VERTEX
  8
0
 62
7
  6
CONTINUOUS
 10
56.2550281068
 20
80.5910795586
  0
VERTEX
  8
0
 62
7
  6
CONTINUOUS
 10
56.3387913979
 20
80.5656166535
  0
VERTEX
  8
0
 62
7
  6
CONTINUOUS
 10
56.4247567791
 20
80.5419169414
  0
VERTEX
  8
0
 62
7
  6
CONTINUOUS
 10
56.5128628448
 20
80.5199271092
  0
VERTEX
  8
0
 62
7
  6
CONTINUOUS
 10
56.6029767895
 20
80.4996059797
  0
VERTEX
  8
0
 62
7
  6
CONTINUOUS
 10
56.6949626157
 20
80.4809168467
  0
VERTEX
  8
0
 62
7
  6
CONTINUOUS
 10
56.7887684941
 20
80.4638032628
  0
VERTEX
  8
0
 62
7
  6
CONTINUOUS
 10
56.8843684499
 20
80.4482117123
  0
VERTEX
  8
0
 62
7
  6
CONTINUOUS
 10
56.9815489212
 20
80.4341157551
  0
VERTEX
  8
0
 62
7
  6
CONTINUOUS
 10
57.0801018493
 20
80.4214933262
  0
VERTEX
  8
0
 62
7
  6
CONTINUOUS
 10
57.1799847499
 20
80.4102961337
  0
VERTEX
  8
0
 62
7
  6
CONTINUOUS
 10
57.2811661248
 20
80.4004846039
  0
VERTEX
  8
0
 62
7
  6
CONTINUOUS
 10
57.3834049561
 20
80.3920378651
  0
VERTEX
  8
0
 62
7
  6
CONTINUOUS
 10
57.4864733754
 20
80.3849414427
  0
VERTEX
  8
0
 62
7
  6
CONTINUOUS
 10
57.5903004363
 20
80.3791650264
  0
VERTEX
  8
0
 62
7
  6
CONTINUOUS
 10
57.6948097582
 20
80.374689273
  0
VERTEX
  8
0
 62
7
  6
CONTINUOUS
 10
57.7997897749
 20
80.3715003507
  0
VERTEX
  8
0
 62
7
  6
CONTINUOUS
 10
57.9049738314
 20
80.369594011
  0
VERTEX
  8
0
 62
7
  6
CONTINUOUS
 10
58.0104508127
 20
80.3689573978
  0
SEQEND
  0
LINE
  8
0
 62
7
  6
CONTINUOUS
 10
55.0104508197
 20
81.3864344262
 11
55.0104508197
 21
83.8664344262
  0
LINE
  8
0
 62
7
  6
CONTINUOUS
 10
110.3854508197
 20
84.3664344262
 11
110.3854508197
 21
93.0464344261
  0
POLYLINE
  8
0
 62
7
  6
CONTINUOUS
 66
1
 70
0
  0
VERTEX
  8
0
 62
7
  6
CONTINUOUS
 10
57.214414907
 20
80.189281167
  0
VERTEX
  8
0
 62
7
  6
CONTINUOUS
 10
56.9401717398
 20
80.0933249746
  0
VERTEX
  8
0
 62
7
  6
CONTINUOUS
 10
56.8498844815
 20
80.0625191364
  0
VERTEX
  8
0
 62
7
  6
CONTINUOUS
 10
56.7645923273
 20
80.0343095406
  0
VERTEX
  8
0
 62
7
  6
CONTINUOUS
 10
56.6831242837
 20
80.0084737941
  0
VERTEX
  8
0
 62
7
  6
CONTINUOUS
 10
56.6053833314
 20
79.9851320106
  0
VERTEX
  8
0
 62
7
  6
CONTINUOUS
 10
56.5312320176
 20
79.9643009276
  0
VERTEX
  8
0
 62
7
  6
CONTINUOUS
 10
56.4605355591
 20
79.9460036228
  0
VERTEX
  8
0
 62
7
  6
CONTINUOUS
 10
56.3931889285
 20
79.9302275432
  0
VERTEX
  8
0
 62
7
  6
CONTINUOUS
 10
56.3290234263
 20
79.9169542186
  0
VERTEX
  8
0
 62
7
  6
CONTINUOUS
 10
56.2680952857
 20
79.9061426323
  0
SEQEND
  0
LINE
  8
0
 62
7
  6
CONTINUOUS
 10
117.7854508197
 20
83.8664344262
 11
117.7854508197
 21
93.0464344262
  0
LINE
  8
0
 62
7
  6
CONTINUOUS
 10
118.2354508197
 20
80.3864344262
 11
118.2354508197
 21
93.0664344261
  0
POLYLINE
  8
0
 62
7
  6
CONTINUOUS
 66
1
 70
0
  0
VERTEX
  8
0
 62
7
  6
CONTINUOUS
 10
118.2354508197
 20
80.8849028897
  0
VERTEX
  8
0
 62
7
  6
CONTINUOUS
 10
118.2349810255
 20
80.859809026
  0
VERTEX
  8
0
 62
7
  6
CONTINUOUS
 10
118.2335995108
 20
80.8351701996
  0
VERTEX
  8
0
 62
7
  6
CONTINUOUS
 10
118.2313031017
 20
80.8110443976
  0
VERTEX
  8
0
 62
7
  6
CONTINUOUS
 10
118.2281013198
 20
80.7874004694
  0
VERTEX
  8
0
 62
7
  6
CONTINUOUS
 10
118.2240019687
 20
80.7642139083
  0
VERTEX
  8
0
 62
7
  6
CONTINUOUS
 10
118.2190070281
 20
80.7414975337
  0
VERTEX
  8
0
 62
7
  6
CONTINUOUS
 10
118.2131257934
 20
80.7192564756
  0
VERTEX
  8
0
 62
7
  6
CONTINUOUS
 10
118.2063441207
 20
80.6974714134
  0
VERTEX
  8
0
 62
7
  6
CONTINUOUS
 10
118.1986516184
 20
80.676107359
  0
VERTEX
  8
0
 62
7
  6
CONTINUOUS
 10
118.1900463248
 20
80.6552022411
  0
VERTEX
  8
0
 62
7
  6
CONTINUOUS
 10
118.1805298733
 20
80.6347781101
  0
VERTEX
  8
0
 62
7
  6
CONTINUOUS
 10
118.1700810872
 20
80.6148362607
  0
VERTEX
  8
0
 62
7
  6
CONTINUOUS
 10
118.1586774244
 20
80.5953633318
  0
VERTEX
  8
0
 62
7
  6
CONTINUOUS
 10
118.146324615
 20
80.5764153756
  0
VERTEX
  8
0
 62
7
  6
CONTINUOUS
 10
118.1330245497
 20
80.5580314009
  0
VERTEX
  8
0
 62
7
  6
CONTINUOUS
 10
118.1187662042
 20
80.5402376986
  0
VERTEX
  8
0
 62
7
  6
CONTINUOUS
 10
118.1035272619
 20
80.5230453376
  0
VERTEX
  8
0
 62
7
  6
CONTINUOUS
 10
118.087343491
 20
80.5065277704
  0
VERTEX
  8
0
 62
7
  6
CONTINUOUS
 10
118.0702366005
 20
80.490744024
  0
VERTEX
  8
0
 62
7
  6
CONTINUOUS
 10
118.0522264526
 20
80.4757340009
  0
VERTEX
  8
0
 62
7
  6
CONTINUOUS
 10
118.033314166
 20
80.4615304753
  0
VERTEX
  8
0
 62
7
  6
CONTINUOUS
 10
118.0135776797
 20
80.4482010258
  0
VERTEX
  8
0
 62
7
  6
CONTINUOUS
 10
117.9930788504
 20
80.4358108757
  0
VERTEX
  8
0
 62
7
  6
CONTINUOUS
 10
117.9718670435
 20
80.4243867573
  0
VERTEX
  8
0
 62
7
  6
CONTINUOUS
 10
117.9499794333
 20
80.413962958
  0
VERTEX
  8
0
 62
7
  6
CONTINUOUS
 10
117.9275144493
 20
80.4045746555
  0
VERTEX
  8
0
 62
7
  6
CONTINUOUS
 10
117.9045669121
 20
80.3962670529
  0
VERTEX
  8
0
 62
7
  6
CONTINUOUS
 10
117.8811848232
 20
80.3890413004
  0
VERTEX
  8
0
 62
7
  6
CONTINUOUS
 10
117.8574211714
 20
80.3829129107
  0
VERTEX
  8
0
 62
7
  6
CONTINUOUS
 10
117.8333558144
 20
80.3778878444
  0
VERTEX
  8
0
 62
7
  6
CONTINUOUS
 10
117.8090674751
 20
80.3739816119
  0
VERTEX
  8
0
 62
7
  6
CONTINUOUS
 10
117.7846125461
 20
80.3711891592
  0
VERTEX
  8
0
 62
7
  6
CONTINUOUS
 10
117.7600839901
 20
80.3695168017
  0
VERTEX
  8
0
 62
7
  6
CONTINUOUS
 10
117.7354508197
 20
80.3689573978
  0
SEQEND
  0
POLYLINE
  8
0
 62
7
  6
CONTINUOUS
 66
1
 70
0
  0
VERTEX
  8
0
 62
7
  6
CONTINUOUS
 10
58.0104507393
 20
80.3689573978
  0
VERTEX
  8
0
 62
7
  6
CONTINUOUS
 10
57.9583212138
 20
80.3679956254
  0
VERTEX
  8
0
 62
7
  6
CONTINUOUS
 10
57.9041871999
 20
80.3646380435
  0
VERTEX
  8
0
 62
7
  6
CONTINUOUS
 10
57.8481725925
 20
80.3589803224
  0
VERTEX
  8
0
 62
7
  6
CONTINUOUS
 10
57.7899057068
 20
80.3508044011
  0
VERTEX
  8
0
 62
7
  6
CONTINUOUS
 10
57.7290976383
 20
80.3399636576
  0
VERTEX
  8
0
 62
7
  6
CONTINUOUS
 10
57.6656239418
 20
80.326437868
  0
VERTEX
  8
0
 62
7
  6
CONTINUOUS
 10
57.5993866054
 20
80.3102097969
  0
VERTEX
  8
0
 62
7
  6
CONTINUOUS
 10
57.5300174254
 20
80.2912684089
  0
VERTEX
  8
0
 62
7
  6
CONTINUOUS
 10
57.4572653872
 20
80.2696774322
  0
VERTEX
  8
0
 62
7
  6
CONTINUOUS
 10
57.3806809128
 20
80.2454185942
  0
VERTEX
  8
0
 62
7
  6
CONTINUOUS
 10
57.2995922075
 20
80.2184978143
  0
VERTEX
  8
0
 62
7
  6
CONTINUOUS
 10
57.214414907
 20
80.189281167
  0
SEQEND
  0
LINE
  8
0
 62
7
  6
CONTINUOUS
 10
205.8604508197
 20
79.8864344262
 11
56.5104508197
 21
79.8864344262
  0
LINE
  8
0
 62
7
  6
CONTINUOUS
 10
134.0354508197
 20
80.3689573978
 11
128.3354508197
 21
80.3689573978
  0
LINE
  8
0
 62
7
  6
CONTINUOUS
 10
117.7354508197
 20
80.3689573978
 11
58.0104508127
 21
80.3689573978
  0
LINE
  8
0
 62
7
  6
CONTINUOUS
 10
144.6354508197
 20
80.3689573978
 11
204.3604508267
 21
80.3689573978
  0
POLYLINE
  8
0
 62
7
  6
CONTINUOUS
 66
1
 70
0
  0
VERTEX
  8
0
 62
7
  6
CONTINUOUS
 10
204.3604509001
 20
80.3689573978
  0
VERTEX
  8
0
 62
7
  6
CONTINUOUS
 10
204.4125804255
 20
80.3679956254
  0
VERTEX
  8
0
 62
7
  6
CONTINUOUS
 10
204.4667144394
 20
80.3646380435
  0
VERTEX
  8
0
 62
7
  6
CONTINUOUS
 10
204.5227290469
 20
80.3589803224
  0
VERTEX
  8
0
 62
7
  6
CONTINUOUS
 10
204.5809959325
 20
80.3508044011
  0
VERTEX
  8
0
 62
7
  6
CONTINUOUS
 10
204.641804001
 20
80.3399636576
  0
VERTEX
  8
0
 62
7
  6
CONTINUOUS
 10
204.7052776975
 20
80.326437868
  0
VERTEX
  8
0
 62
7
  6
CONTINUOUS
 10
204.771515034
 20
80.3102097969
  0
VERTEX
  8
0
 62
7
  6
CONTINUOUS
 10
204.8408842139
 20
80.2912684089
  0
VERTEX
  8
0
 62
7
  6
CONTINUOUS
 10
204.9136362521
 20
80.2696774322
  0
VERTEX
  8
0
 62
7
  6
CONTINUOUS
 10
204.9902207265
 20
80.2454185942
  0
VERTEX
  8
0
 62
7
  6
CONTINUOUS
 10
205.0713094318
 20
80.2184978143
  0
VERTEX
  8
0
 62
7
  6
CONTINUOUS
 10
205.1564867324
 20
80.189281167
  0
SEQEND
  0
POLYLINE
  8
0
 62
7
  6
CONTINUOUS
 66
1
 70
0
  0
VERTEX
  8
0
 62
7
  6
CONTINUOUS
 10
128.3354508197
 20
80.3689573978
  0
VERTEX
  8
0
 62
7
  6
CONTINUOUS
 10
128.3108176492
 20
80.3695168017
  0
VERTEX
  8
0
 62
7
  6
CONTINUOUS
 10
128.2862890933
 20
80.3711891592
  0
VERTEX
  8
0
 62
7
  6
CONTINUOUS
 10
128.2618341643
 20
80.3739816119
  0
VERTEX
  8
0
 62
7
  6
CONTINUOUS
 10
128.2375458249
 20
80.3778878444
  0
VERTEX
  8
0
 62
7
  6
CONTINUOUS
 10
128.2134804679
 20
80.3829129107
  0
VERTEX
  8
0
 62
7
  6
CONTINUOUS
 10
128.1897168161
 20
80.3890413004
  0
VERTEX
  8
0
 62
7
  6
CONTINUOUS
 10
128.1663347272
 20
80.3962670529
  0
VERTEX
  8
0
 62
7
  6
CONTINUOUS
 10
128.1433871901
 20
80.4045746555
  0
VERTEX
  8
0
 62
7
  6
CONTINUOUS
 10
128.1209222061
 20
80.413962958
  0
VERTEX
  8
0
 62
7
  6
CONTINUOUS
 10
128.0990345958
 20
80.4243867573
  0
VERTEX
  8
0
 62
7
  6
CONTINUOUS
 10
128.0778227889
 20
80.4358108757
  0
VERTEX
  8
0
 62
7
  6
CONTINUOUS
 10
128.0573239597
 20
80.4482010258
  0
VERTEX
  8
0
 62
7
  6
CONTINUOUS
 10
128.0375874733
 20
80.4615304753
  0
VERTEX
  8
0
 62
7
  6
CONTINUOUS
 10
128.0186751868
 20
80.4757340009
  0
VERTEX
  8
0
 62
7
  6
CONTINUOUS
 10
128.0006650388
 20
80.490744024
  0
VERTEX
  8
0
 62
7
  6
CONTINUOUS
 10
127.9835581483
 20
80.5065277704
  0
VERTEX
  8
0
 62
7
  6
CONTINUOUS
 10
127.9673743775
 20
80.5230453376
  0
VERTEX
  8
0
 62
7
  6
CONTINUOUS
 10
127.9521354351
 20
80.5402376986
  0
VERTEX
  8
0
 62
7
  6
CONTINUOUS
 10
127.9378770897
 20
80.5580314009
  0
VERTEX
  8
0
 62
7
  6
CONTINUOUS
 10
127.9245770243
 20
80.5764153756
  0
VERTEX
  8
0
 62
7
  6
CONTINUOUS
 10
127.9122242149
 20
80.5953633318
  0
VERTEX
  8
0
 62
7
  6
CONTINUOUS
 10
127.9008205521
 20
80.6148362607
  0
VERTEX
  8
0
 62
7
  6
CONTINUOUS
 10
127.8903717661
 20
80.6347781101
  0
VERTEX
  8
0
 62
7
  6
CONTINUOUS
 10
127.8808553145
 20
80.6552022411
  0
VERTEX
  8
0
 62
7
  6
CONTINUOUS
 10
127.8722500209
 20
80.676107359
  0
VERTEX
  8
0
 62
7
  6
CONTINUOUS
 10
127.8645575186
 20
80.6974714134
  0
VERTEX
  8
0
 62
7
  6
CONTINUOUS
 10
127.8577758459
 20
80.7192564756
  0
VERTEX
  8
0
 62
7
  6
CONTINUOUS
 10
127.8518946113
 20
80.7414975337
  0
VERTEX
  8
0
 62
7
  6
CONTINUOUS
 10
127.8468996706
 20
80.7642139083
  0
VERTEX
  8
0
 62
7
  6
CONTINUOUS
 10
127.8428003195
 20
80.7874004694
  0
VERTEX
  8
0
 62
7
  6
CONTINUOUS
 10
127.8395985376
 20
80.8110443976
  0
VERTEX
  8
0
 62
7
  6
CONTINUOUS
 10
127.8373021286
 20
80.8351701996
  0
VERTEX
  8
0
 62
7
  6
CONTINUOUS
 10
127.8359206139
 20
80.859809026
  0
VERTEX
  8
0
 62
7
  6
CONTINUOUS
 10
127.8354508197
 20
80.8849028897
  0
SEQEND
  0
POLYLINE
  8
0
 62
7
  6
CONTINUOUS
 66
1
 70
0
  0
VERTEX
  8
0
 62
7
  6
CONTINUOUS
 10
144.6354508197
 20
80.3689573978
  0
VERTEX
  8
0
 62
7
  6
CONTINUOUS
 10
144.6108176492
 20
80.3695168017
  0
VERTEX
  8
0
 62
7
  6
CONTINUOUS
 10
144.5862890933
 20
80.3711891592
  0
VERTEX
  8
0
 62
7
  6
CONTINUOUS
 10
144.5618341643
 20
80.3739816119
  0
VERTEX
  8
0
 62
7
  6
CONTINUOUS
 10
144.5375458249
 20
80.3778878444
  0
VERTEX
  8
0
 62
7
  6
CONTINUOUS
 10
144.5134804679
 20
80.3829129107
  0
VERTEX
  8
0
 62
7
  6
CONTINUOUS
 10
144.4897168161
 20
80.3890413004
  0
VERTEX
  8
0
 62
7
  6
CONTINUOUS
 10
144.4663347272
 20
80.3962670529
  0
VERTEX
  8
0
 62
7
  6
CONTINUOUS
 10
144.4433871901
 20
80.4045746555
  0
VERTEX
  8
0
 62
7
  6
CONTINUOUS
 10
144.4209222061
 20
80.413962958
  0
VERTEX
  8
0
 62
7
  6
CONTINUOUS
 10
144.3990345958
 20
80.4243867573
  0
VERTEX
  8
0
 62
7
  6
CONTINUOUS
 10
144.3778227889
 20
80.4358108757
  0
VERTEX
  8
0
 62
7
  6
CONTINUOUS
 10
144.3573239597
 20
80.4482010258
  0
VERTEX
  8
0
 62
7
  6
CONTINUOUS
 10
144.3375874733
 20
80.4615304753
  0
VERTEX
  8
0
 62
7
  6
CONTINUOUS
 10
144.3186751868
 20
80.4757340009
  0
VERTEX
  8
0
 62
7
  6
CONTINUOUS
 10
144.3006650388
 20
80.490744024
  0
VERTEX
  8
0
 62
7
  6
CONTINUOUS
 10
144.2835581483
 20
80.5065277704
  0
VERTEX
  8
0
 62
7
  6
CONTINUOUS
 10
144.2673743775
 20
80.5230453376
  0
VERTEX
  8
0
 62
7
  6
CONTINUOUS
 10
144.2521354351
 20
80.5402376986
  0
VERTEX
  8
0
 62
7
  6
CONTINUOUS
 10
144.2378770897
 20
80.5580314009
  0
VERTEX
  8
0
 62
7
  6
CONTINUOUS
 10
144.2245770243
 20
80.5764153756
  0
VERTEX
  8
0
 62
7
  6
CONTINUOUS
 10
144.2122242149
 20
80.5953633318
  0
VERTEX
  8
0
 62
7
  6
CONTINUOUS
 10
144.2008205521
 20
80.6148362607
  0
VERTEX
  8
0
 62
7
  6
CONTINUOUS
 10
144.1903717661
 20
80.6347781101
  0
VERTEX
  8
0
 62
7
  6
CONTINUOUS
 10
144.1808553145
 20
80.6552022411
  0
VERTEX
  8
0
 62
7
  6
CONTINUOUS
 10
144.1722500209
 20
80.676107359
  0
VERTEX
  8
0
 62
7
  6
CONTINUOUS
 10
144.1645575186
 20
80.6974714134
  0
VERTEX
  8
0
 62
7
  6
CONTINUOUS
 10
144.1577758459
 20
80.7192564756
  0
VERTEX
  8
0
 62
7
  6
CONTINUOUS
 10
144.1518946113
 20
80.7414975337
  0
VERTEX
  8
0
 62
7
  6
CONTINUOUS
 10
144.1468996706
 20
80.7642139083
  0
VERTEX
  8
0
 62
7
  6
CONTINUOUS
 10
144.1428003195
 20
80.7874004694
  0
VERTEX
  8
0
 62
7
  6
CONTINUOUS
 10
144.1395985376
 20
80.8110443976
  0
VERTEX
  8
0
 62
7
  6
CONTINUOUS
 10
144.1373021286
 20
80.8351701996
  0
VERTEX
  8
0
 62
7
  6
CONTINUOUS
 10
144.1359206139
 20
80.859809026
  0
VERTEX
  8
0
 62
7
  6
CONTINUOUS
 10
144.1354508197
 20
80.8849028897
  0
SEQEND
  0
LINE
  8
0
 62
7
  6
CONTINUOUS
 10
127.8354508197
 20
93.0664344262
 11
127.8354508197
 21
80.3864344262
  0
LINE
  8
DEFAULT_1
 62
2
  6
CENTER
 10
131.1854508197
 20
77.8864344262
 11
131.1854508197
 21
96.101078731
  0
LINE
  8
0
 62
7
  6
CONTINUOUS
 10
207.3604508197
 20
83.8664344262
 11
144.1354508197
 21
83.8664344262
  0
LINE
  8
0
 62
7
  6
CONTINUOUS
 10
134.0354508197
 20
83.8664344262
 11
128.3354508197
 21
83.8664344262
  0
LINE
  8
0
 62
7
  6
CONTINUOUS
 10
118.2354508197
 20
83.8664344262
 11
55.0104508197
 21
83.8664344262
  0
LINE
  8
AXES
 62
2
  6
CENTER
 10
108.3854508197
 20
87.0664344262
 11
152.7854508197
 21
87.0664344262
  0
LINE
  8
0
 62
7
  6
CONTINUOUS
 10
134.5354508197
 20
80.3864344262
 11
134.5354508197
 21
93.0664344262
  0
POLYLINE
  8
0
 62
7
  6
CONTINUOUS
 66
1
 70
0
  0
VERTEX
  8
0
 62
7
  6
CONTINUOUS
 10
134.5354508197
 20
80.8849028897
  0
VERTEX
  8
0
 62
7
  6
CONTINUOUS
 10
134.5349810255
 20
80.859809026
  0
VERTEX
  8
0
 62
7
  6
CONTINUOUS
 10
134.5335995108
 20
80.8351701996
  0
VERTEX
  8
0
 62
7
  6
CONTINUOUS
 10
134.5313031017
 20
80.8110443976
  0
VERTEX
  8
0
 62
7
  6
CONTINUOUS
 10
134.5281013198
 20
80.7874004694
  0
VERTEX
  8
0
 62
7
  6
CONTINUOUS
 10
134.5240019687
 20
80.7642139083
  0
VERTEX
  8
0
 62
7
  6
CONTINUOUS
 10
134.5190070281
 20
80.7414975337
  0
VERTEX
  8
0
 62
7
  6
CONTINUOUS
 10
134.5131257934
 20
80.7192564756
  0
VERTEX
  8
0
 62
7
  6
CONTINUOUS
 10
134.5063441207
 20
80.6974714134
  0
VERTEX
  8
0
 62
7
  6
CONTINUOUS
 10
134.4986516184
 20
80.676107359
  0
VERTEX
  8
0
 62
7
  6
CONTINUOUS
 10
134.4900463248
 20
80.6552022411
  0
VERTEX
  8
0
 62
7
  6
CONTINUOUS
 10
134.4805298733
 20
80.6347781101
  0
VERTEX
  8
0
 62
7
  6
CONTINUOUS
 10
134.4700810872
 20
80.6148362607
  0
VERTEX
  8
0
 62
7
  6
CONTINUOUS
 10
134.4586774244
 20
80.5953633318
  0
VERTEX
  8
0
 62
7
  6
CONTINUOUS
 10
134.446324615
 20
80.5764153756
  0
VERTEX
  8
0
 62
7
  6
CONTINUOUS
 10
134.4330245497
 20
80.5580314009
  0
VERTEX
  8
0
 62
7
  6
CONTINUOUS
 10
134.4187662042
 20
80.5402376986
  0
VERTEX
  8
0
 62
7
  6
CONTINUOUS
 10
134.4035272619
 20
80.5230453376
  0
VERTEX
  8
0
 62
7
  6
CONTINUOUS
 10
134.387343491
 20
80.5065277704
  0
VERTEX
  8
0
 62
7
  6
CONTINUOUS
 10
134.3702366005
 20
80.490744024
  0
VERTEX
  8
0
 62
7
  6
CONTINUOUS
 10
134.3522264526
 20
80.4757340009
  0
VERTEX
  8
0
 62
7
  6
CONTINUOUS
 10
134.333314166
 20
80.4615304753
  0
VERTEX
  8
0
 62
7
  6
CONTINUOUS
 10
134.3135776797
 20
80.4482010258
  0
VERTEX
  8
0
 62
7
  6
CONTINUOUS
 10
134.2930788504
 20
80.4358108757
  0
VERTEX
  8
0
 62
7
  6
CONTINUOUS
 10
134.2718670435
 20
80.4243867573
  0
VERTEX
  8
0
 62
7
  6
CONTINUOUS
 10
134.2499794333
 20
80.413962958
  0
VERTEX
  8
0
 62
7
  6
CONTINUOUS
 10
134.2275144493
 20
80.4045746555
  0
VERTEX
  8
0
 62
7
  6
CONTINUOUS
 10
134.2045669121
 20
80.3962670529
  0
VERTEX
  8
0
 62
7
  6
CONTINUOUS
 10
134.1811848232
 20
80.3890413004
  0
VERTEX
  8
0
 62
7
  6
CONTINUOUS
 10
134.1574211714
 20
80.3829129107
  0
VERTEX
  8
0
 62
7
  6
CONTINUOUS
 10
134.1333558144
 20
80.3778878444
  0
VERTEX
  8
0
 62
7
  6
CONTINUOUS
 10
134.1090674751
 20
80.3739816119
  0
VERTEX
  8
0
 62
7
  6
CONTINUOUS
 10
134.0846125461
 20
80.3711891592
  0
VERTEX
  8
0
 62
7
  6
CONTINUOUS
 10
134.0600839901
 20
80.3695168017
  0
VERTEX
  8
0
 62
7
  6
CONTINUOUS
 10
134.0354508197
 20
80.3689573978
  0
SEQEND
  0
LINE
  8
0
 62
7
  6
CONTINUOUS
 10
151.4854508197
 20
93.5464344262
 11
145.0854508197
 21
93.5464344262
  0
LINE
  8
0
 62
7
  6
CONTINUOUS
 10
117.2854508197
 20
93.5464344262
 11
110.8854508197
 21
93.5464344262
  0
LINE
  8
0
 62
7
  6
CONTINUOUS
 10
118.7354508197
 20
93.5664344262
 11
143.6354508197
 21
93.5664344262
  0
LINE
  8
0
 62
7
  6
CONTINUOUS
 10
144.1354508197
 20
93.0664344261
 11
144.1354508197
 21
80.3864344262
  0
LINE
  8
0
 62
7
  6
CONTINUOUS
 10
144.5854508197
 20
83.8664344262
 11
144.5854508197
 21
93.0464344261
  0
LINE
  8
0
 62
7
  6
CONTINUOUS
 10
151.9854508197
 20
93.0464344261
 11
151.9854508197
 21
84.3664344262
  0
POLYLINE
  8
0
 62
7
  6
CONTINUOUS
 66
1
 70
0
  0
VERTEX
  8
0
 62
7
  6
CONTINUOUS
 10
205.4307298996
 20
80.0933249746
  0
VERTEX
  8
0
 62
7
  6
CONTINUOUS
 10
205.5210171579
 20
80.0625191364
  0
VERTEX
  8
0
 62
7
  6
CONTINUOUS
 10
205.6063093121
 20
80.0343095406
  0
VERTEX
  8
0
 62
7
  6
CONTINUOUS
 10
205.6877773556
 20
80.0084737941
  0
VERTEX
  8
0
 62
7
  6
CONTINUOUS
 10
205.765518308
 20
79.9851320106
  0
VERTEX
  8
0
 62
7
  6
CONTINUOUS
 10
205.8396696217
 20
79.9643009276
  0
VERTEX
  8
0
 62
7
  6
CONTINUOUS
 10
205.9103660802
 20
79.9460036228
  0
VERTEX
  8
0
 62
7
  6
CONTINUOUS
 10
205.9777127109
 20
79.9302275432
  0
VERTEX
  8
0
 62
7
  6
CONTINUOUS
 10
206.0418782131
 20
79.9169542186
  0
VERTEX
  8
0
 62
7
  6
CONTINUOUS
 10
206.1028063537
 20
79.9061426323
  0
SEQEND
  0
LINE
  8
0
 62
7
  6
CONTINUOUS
 10
205.1564867324
 20
80.189281167
 11
205.4307298996
 21
80.0933249746
  0
LINE
  8
0
 62
7
  6
CONTINUOUS
 10
207.3604508197
 20
81.3864344262
 11
207.3604508197
 21
83.8664344262
  0
POLYLINE
  8
0
 62
7
  6
CONTINUOUS
 66
1
 70
0
  0
VERTEX
  8
0
 62
7
  6
CONTINUOUS
 10
207.3604508197
 20
82.3672805721
  0
VERTEX
  8
0
 62
7
  6
CONTINUOUS
 10
207.358589009
 20
82.2516260706
  0
VERTEX
  8
0
 62
7
  6
CONTINUOUS
 10
207.3531297708
 20
82.1413328656
  0
VERTEX
  8
0
 62
7
  6
CONTINUOUS
 10
207.3440387675
 20
82.0362813318
  0
VERTEX
  8
0
 62
7
  6
CONTINUOUS
 10
207.331419012
 20
81.9362852826
  0
VERTEX
  8
0
 62
7
  6
CONTINUOUS
 10
207.315336759
 20
81.8412015823
  0
VERTEX
  8
0
 62
7
  6
CONTINUOUS
 10
207.2958679455
 20
81.7507781859
  0
VERTEX
  8
0
 62
7
  6
CONTINUOUS
 10
207.2730939218
 20
81.6648095403
  0
VERTEX
  8
0
 62
7
  6
CONTINUOUS
 10
207.2470647025
 20
81.5830448555
  0
VERTEX
  8
0
 62
7
  6
CONTINUOUS
 10
207.2178441657
 20
81.5052446275
  0
VERTEX
  8
0
 62
7
  6
CONTINUOUS
 10
207.1854720712
 20
81.4312185587
  0
VERTEX
  8
0
 62
7
  6
CONTINUOUS
 10
207.1499861746
 20
81.3607448766
  0
VERTEX
  8
0
 62
7
  6
CONTINUOUS
 10
207.1114563679
 20
81.2937187906
  0
VERTEX
  8
0
 62
7
  6
CONTINUOUS
 10
207.0699628819
 20
81.2300276027
  0
VERTEX
  8
0
 62
7
  6
CONTINUOUS
 10
207.0255124562
 20
81.1694858984
  0
VERTEX
  8
0
 62
7
  6
CONTINUOUS
 10
206.9781108103
 20
81.1119025029
  0
VERTEX
  8
0
 62
7
  6
CONTINUOUS
 10
206.927841236
 20
81.0572169923
  0
VERTEX
  8
0
 62
7
  6
CONTINUOUS
 10
206.8747733933
 20
81.0053423756
  0
VERTEX
  8
0
 62
7
  6
CONTINUOUS
 10
206.818953897
 20
80.9561690835
  0
VERTEX
  8
0
 62
7
  6
CONTINUOUS
 10
206.7604736793
 20
80.9096165238
  0
VERTEX
  8
0
 62
7
  6
CONTINUOUS
 10
206.6992694493
 20
80.8655217045
  0
VERTEX
  8
0
 62
7
  6
CONTINUOUS
 10
206.6352609806
 20
80.8237078161
  0
VERTEX
  8
0
 62
7
  6
CONTINUOUS
 10
206.5685900124
 20
80.7841707644
  0
VERTEX
  8
0
 62
7
  6
CONTINUOUS
 10
206.4993758726
 20
80.746879746
  0
VERTEX
  8
0
 62
7
  6
CONTINUOUS
 10
206.4276055689
 20
80.7117279698
  0
VERTEX
  8
0
 62
7
  6
CONTINUOUS
 10
206.353267373
 20
80.6786151595
  0
VERTEX
  8
0
 62
7
  6
CONTINUOUS
 10
206.2764768215
 20
80.6475046048
  0
VERTEX
  8
0
 62
7
  6
CONTINUOUS
 10
206.1973376723
 20
80.6183515039
  0
VERTEX
  8
0
 62
7
  6
CONTINUOUS
 10
206.1158735325
 20
80.5910795586
  0
VERTEX
  8
0
 62
7
  6
CONTINUOUS
 10
206.0321102415
 20
80.5656166535
  0
VERTEX
  8
0
 62
7
  6
CONTINUOUS
 10
205.9461448602
 20
80.5419169414
  0
VERTEX
  8
0
 62
7
  6
CONTINUOUS
 10
205.8580387946
 20
80.5199271092
  0
VERTEX
  8
0
 62
7
  6
CONTINUOUS
 10
205.7679248499
 20
80.4996059797
  0
VERTEX
  8
0
 62
7
  6
CONTINUOUS
 10
205.6759390236
 20
80.4809168467
  0
VERTEX
  8
0
 62
7
  6
CONTINUOUS
 10
205.5821331453
 20
80.4638032628
  0
VERTEX
  8
0
 62
7
  6
CONTINUOUS
 10
205.4865331895
 20
80.4482117123
  0
VERTEX
  8
0
 62
7
  6
CONTINUOUS
 10
205.3893527181
 20
80.4341157551
  0
VERTEX
  8
0
 62
7
  6
CONTINUOUS
 10
205.29079979
 20
80.4214933262
  0
VERTEX
  8
0
 62
7
  6
CONTINUOUS
 10
205.1909168895
 20
80.4102961337
  0
VERTEX
  8
0
 62
7
  6
CONTINUOUS
 10
205.0897355146
 20
80.4004846039
  0
VERTEX
  8
0
 62
7
  6
CONTINUOUS
 10
204.9874966832
 20
80.3920378651
  0
VERTEX
  8
0
 62
7
  6
CONTINUOUS
 10
204.8844282639
 20
80.3849414427
  0
VERTEX
  8
0
 62
7
  6
CONTINUOUS
 10
204.7806012031
 20
80.3791650264
  0
VERTEX
  8
0
 62
7
  6
CONTINUOUS
 10
204.6760918811
 20
80.374689273
  0
VERTEX
  8
0
 62
7
  6
CONTINUOUS
 10
204.5711118644
 20
80.3715003507
  0
VERTEX
  8
0
 62
7
  6
CONTINUOUS
 10
204.4659278079
 20
80.369594011
  0
VERTEX
  8
0
 62
7
  6
CONTINUOUS
 10
204.3604508267
 20
80.3689573978
  0
SEQEND
  0
LINE
  8
0
 62
7
  6
CONTINUOUS
 10
262.5257786885
 20
149.1024180328
 11
263.2257786885
 21
149.1024180328
  0
LINE
  8
0
 62
7
  6
CONTINUOUS
 10
266.9926690068
 20
150.8930326011
 11
266.923266521
 21
150.8930326011
  0
LINE
  8
AXES
 62
2
  6
CENTER
 10
267.7757786885
 20
155.5824180328
 11
267.7007786885
 21
155.5824180328
  0
LINE
  8
AXES
 62
2
  6
CONTINUOUS
 10
263.5757786885
 20
155.5824180328
 11
261.4757786885
 21
155.5824180328
  0
LINE
  8
0
 62
7
  6
CONTINUOUS
 10
256.0457786885
 20
155.5824180328
 11
256.0257786885
 21
155.5824180328
  0
LINE
  8
AXES
 62
2
  6
CENTER
 10
257.2757786885
 20
155.5824180328
 11
257.3507786885
 21
155.5824180328
  0
LINE
  8
0
 62
7
  6
CONTINUOUS
 10
264.7257786885
 20
162.0624180328
 11
262.5257786885
 21
162.0624180328
  0
LINE
  8
0
 62
7
  6
CONTINUOUS
 10
256.0257786885
 20
155.5824180328
 11
256.0257786885
 21
193.682418029
  0
POLYLINE
  8
0
 62
7
  6
CONTINUOUS
 66
1
 70
0
  0
VERTEX
  8
0
 62
7
  6
CONTINUOUS
 10
269.0261464556
 20
188.3023261013
  0
VERTEX
  8
0
 62
7
  6
CONTINUOUS
 10
269.0640316347
 20
188.3601036692
  0
VERTEX
  8
0
 62
7
  6
CONTINUOUS
 10
269.1013865919
 20
188.4175984501
  0
VERTEX
  8
0
 62
7
  6
CONTINUOUS
 10
269.138172791
 20
188.4747909555
  0
VERTEX
  8
0
 62
7
  6
CONTINUOUS
 10
269.1743527721
 20
188.5316594844
  0
VERTEX
  8
0
 62
7
  6
CONTINUOUS
 10
269.2098845323
 20
188.5881836208
  0
VERTEX
  8
0
 62
7
  6
CONTINUOUS
 10
269.2447269887
 20
188.6443400206
  0
VERTEX
  8
0
 62
7
  6
CONTINUOUS
 10
269.2788338872
 20
188.7001070057
  0
VERTEX
  8
0
 62
7
  6
CONTINUOUS
 10
269.31215969
 20
188.755459162
  0
VERTEX
  8
0
 62
7
  6
CONTINUOUS
 10
269.3446530059
 20
188.8103732356
  0
VERTEX
  8
0
 62
7
  6
CONTINUOUS
 10
269.3762627283
 20
188.8648210678
  0
VERTEX
  8
0
 62
7
  6
CONTINUOUS
 10
269.4069312187
 20
188.9187773546
  0
VERTEX
  8
0
 62
7
  6
CONTINUOUS
 10
269.4366004
 20
188.9722102777
  0
VERTEX
  8
0
 62
7
  6
CONTINUOUS
 10
269.4652049246
 20
189.025091624
  0
VERTEX
  8
0
 62
7
  6
CONTINUOUS
 10
269.4926783493
 20
189.0773852751
  0
VERTEX
  8
0
 62
7
  6
CONTINUOUS
 10
269.5189461796
 20
189.1290595869
  0
VERTEX
  8
0
 62
7
  6
CONTINUOUS
 10
269.5439316834
 20
189.1800729237
  0
VERTEX
  8
0
 62
7
  6
CONTINUOUS
 10
269.5675493846
 20
189.2303892096
  0
VERTEX
  8
0
 62
7
  6
CONTINUOUS
 10
269.5897101924
 20
189.2799601207
  0
VERTEX
  8
0
 62
7
  6
CONTINUOUS
 10
269.6103156659
 20
189.3287440525
  0
VERTEX
  8
0
 62
7
  6
CONTINUOUS
 10
269.6292621234
 20
189.3766847712
  0
VERTEX
  8
0
 62
7
  6
CONTINUOUS
 10
269.6464361039
 20
189.4237339064
  0
VERTEX
  8
0
 62
7
  6
CONTINUOUS
 10
269.6617171665
 20
189.4698262636
  0
VERTEX
  8
0
 62
7
  6
CONTINUOUS
 10
269.6749804238
 20
189.5148703599
  0
VERTEX
  8
0
 62
7
  6
CONTINUOUS
 10
269.6860704824
 20
189.5588966897
  0
SEQEND
  0
LINE
  8
0
 62
7
  6
CONTINUOUS
 10
268.9489247848
 20
188.1860027703
 11
269.0261464556
 21
188.3023261013
  0
LINE
  8
0
 62
7
  6
CONTINUOUS
 10
268.8699935445
 20
188.0687825783
 11
268.9489247848
 21
188.1860027703
  0
LINE
  8
0
 62
7
  6
CONTINUOUS
 10
268.789608707
 20
187.9508158991
 11
268.8699935445
 21
188.0687825783
  0
LINE
  8
0
 62
7
  6
CONTINUOUS
 10
268.708013708
 20
187.8322510029
 11
268.789608707
 21
187.9508158991
  0
LINE
  8
0
 62
7
  6
CONTINUOUS
 10
268.5838609255
 20
187.6536042417
 11
268.708013708
 21
187.8322510029
  0
LINE
  8
0
 62
7
  6
CONTINUOUS
 10
268.4162198171
 20
187.4147044984
 11
268.5838609255
 21
187.6536042417
  0
POLYLINE
  8
0
 62
7
  6
CONTINUOUS
 66
1
 70
0
  0
VERTEX
  8
0
 62
7
  6
CONTINUOUS
 10
268.2057786885
 20
187.1167260992
  0
VERTEX
  8
0
 62
7
  6
CONTINUOUS
 10
268.2477948727
 20
187.1761637394
  0
VERTEX
  8
0
 62
7
  6
CONTINUOUS
 10
268.4162198171
 20
187.4147044984
  0
SEQEND
  0
LINE
  8
DEFAULT_1
 62
2
  6
CENTER
 10
262.5257786885
 20
198.9324180328
 11
262.5257786885
 21
195.6825180328
  0
LINE
  8
0
 62
2
  6
CONTINUOUS
 10
262.5257786885
 20
194.7324180328
 11
262.5257786885
 21
192.6324180328
  0
LINE
  8
AXES
 62
2
  6
CENTER
 10
262.5257786885
 20
160.8324180328
 11
262.5257786885
 21
160.7574180328
  0
LINE
  8
AXES
 62
2
  6
CONTINUOUS
 10
262.5257786885
 20
156.6324180328
 11
262.5257786885
 21
154.5324180328
  0
LINE
  8
AXES
 62
2
  6
CENTER
 10
262.5257786885
 20
150.3324180328
 11
262.5257786885
 21
150.4074180328
  0
LINE
  8
DEFAULT_1
 62
2
  6
CENTER
 10
262.5257786885
 20
188.4324180328
 11
262.5257786885
 21
191.6823180328
  0
LINE
  8
DEFAULT_1
 62
2
  6
CENTER
 10
253.4911343837
 20
174.6324180328
 11
271.7057786885
 21
174.6324180328
  0
LINE
  8
0
 62
7
  6
CONTINUOUS
 10
265.7257786885
 20
186.1824180328
 11
265.7257786885
 21
159.377151225
  0
LINE
  8
0
 62
7
  6
CONTINUOUS
 10
269.7057786885
 20
155.5824180328
 11
269.7057786885
 21
193.6824180328
  0
LINE
  8
0
 62
7
  6
CONTINUOUS
 10
262.5257786885
 20
187.1824180328
 11
264.7257786885
 21
187.1824180328
  0
LINE
  8
DEFAULT_1
 62
2
  6
CENTER
 10
267.7757786885
 20
193.6824180328
 11
264.5258786885
 21
193.6824180328
  0
LINE
  8
0
 62
2
  6
CONTINUOUS
 10
263.5757786885
 20
193.6824180328
 11
261.4757786885
 21
193.6824180328
  0
LINE
  8
DEFAULT_1
 62
2
  6
CENTER
 10
257.2757786885
 20
193.6824180328
 11
260.5256786885
 21
193.6824180328
  0
LINE
  8
0
 62
7
  6
CONTINUOUS
 10
263.2057786885
 20
200.1824180328
 11
262.5257786885
 21
200.1824180328
  0
ARC
  8
0
 62
7
  6
CONTINUOUS
 10
58.0104508197
 20
153.8930326011
 40
3.0
 50
180.0
 51
270.0
  0
ARC
  8
0
 62
7
  6
CONTINUOUS
 10
58.0104508197
 20
187.1167260992
 40
3.0
 50
90.0
 51
180.0
  0
ARC
  8
0
 62
7
  6
CONTINUOUS
 10
204.3604508197
 20
153.8930326011
 40
3.0
 50
270.0
 51
360.0
  0
ARC
  8
0
 62
7
  6
CONTINUOUS
 10
204.3604508197
 20
187.1167260992
 40
3.0
 50
0.0
 51
90.0
  0
ARC
  8
0
 62
7
  6
CONTINUOUS
 10
109.8854508197
 20
150.3924180328
 40
0.5
 50
31.0508295444
 51
90.0
  0
ARC
  8
0
 62
7
  6
CONTINUOUS
 10
151.4854508197
 20
149.6024180328
 40
0.5
 50
270.0
 51
360.0
  0
ARC
  8
0
 62
7
  6
CONTINUOUS
 10
152.4854508197
 20
150.3924180328
 40
0.5
 50
90.0
 51
148.9492011763
  0
ARC
  8
0
 62
7
  6
CONTINUOUS
 10
143.6354508197
 20
199.6824180328
 40
0.5
 50
0.0
 51
90.0
  0
ARC
  8
0
 62
7
  6
CONTINUOUS
 10
110.8854508197
 20
149.6024180328
 40
0.5
 50
180.0
 51
270.0
  0
ARC
  8
0
 62
7
  6
CONTINUOUS
 10
118.7354508197
 20
199.6824180328
 40
0.5
 50
90.0
 51
180.0
  0
ARC
  8
0
 62
7
  6
CONTINUOUS
 10
128.7854508197
 20
149.6024180328
 40
0.5
 50
180.0
 51
270.0
  0
ARC
  8
0
 62
7
  6
CONTINUOUS
 10
117.2854508197
 20
149.6024180328
 40
0.5
 50
270.0
 51
360.0
  0
ARC
  8
0
 62
7
  6
CONTINUOUS
 10
145.0854508197
 20
149.6024180328
 40
0.5
 50
180.0
 51
270.0
  0
ARC
  8
0
 62
7
  6
CONTINUOUS
 10
135.0354508197
 20
199.6824180328
 40
0.5
 50
90.0
 51
180.0
  0
ARC
  8
0
 62
7
  6
CONTINUOUS
 10
133.5854508197
 20
149.6024180328
 40
0.5
 50
270.0
 51
360.0
  0
ARC
  8
0
 62
7
  6
CONTINUOUS
 10
127.3354508197
 20
199.6824180328
 40
0.5
 50
0.0
 51
90.0
  0
ARC
  8
0
 62
7
  6
CONTINUOUS
 10
56.5104508197
 20
81.3864344262
 40
1.5
 50
180.0
 51
270.0
  0
ARC
  8
0
 62
7
  6
CONTINUOUS
 10
205.8604508197
 20
81.3864344262
 40
1.5
 50
270.0
 51
360.0
  0
ARC
  8
0
 62
7
  6
CONTINUOUS
 10
110.8854508197
 20
93.0464344262
 40
0.5
 50
90.0
 51
180.0000000123
  0
ARC
  8
0
 62
7
  6
CONTINUOUS
 10
151.4854508197
 20
93.0464344262
 40
0.5
 50
0.0
 51
90.0
  0
ARC
  8
0
 62
7
  6
CONTINUOUS
 10
117.2854508197
 20
93.0464344262
 40
0.5
 50
0.0
 51
90.0
  0
ARC
  8
0
 62
7
  6
CONTINUOUS
 10
145.0854508197
 20
93.0464344262
 40
0.5
 50
90.0
 51
180.0000000123
  0
ARC
  8
0
 62
7
  6
CONTINUOUS
 10
118.7354508197
 20
93.0664344262
 40
0.5
 50
90.0
 51
180.0000000123
  0
ARC
  8
0
 62
7
  6
CONTINUOUS
 10
143.6354508197
 20
93.0664344262
 40
0.5
 50
0.0
 51
90.0
  0
ARC
  8
0
 62
7
  6
CONTINUOUS
 10
118.7354508197
 20
80.3864344262
 40
0.5
 50
180.0
 51
270.0
  0
ARC
  8
0
 62
7
  6
CONTINUOUS
 10
143.6354508197
 20
80.3864344262
 40
0.5
 50
270.0
 51
360.0
  0
ARC
  8
0
 62
7
  6
CONTINUOUS
 10
134.0354508197
 20
84.3664344262
 40
0.5
 50
270.0
 51
360.0
  0
ARC
  8
0
 62
7
  6
CONTINUOUS
 10
128.3354508197
 20
84.3664344262
 40
0.5
 50
180.0
 51
270.0
  0
ARC
  8
0
 62
7
  6
CONTINUOUS
 10
135.0354508197
 20
80.3864344262
 40
0.5
 50
180.0
 51
270.0
  0
ARC
  8
0
 62
7
  6
CONTINUOUS
 10
135.0354508197
 20
93.0664344262
 40
0.5
 50
90.0
 51
180.0
  0
ARC
  8
0
 62
7
  6
CONTINUOUS
 10
127.3354508197
 20
93.0664344262
 40
0.5
 50
0.0
 51
90.0
  0
ARC
  8
0
 62
7
  6
CONTINUOUS
 10
127.3354508197
 20
80.3864344262
 40
0.5
 50
270.0
 51
360.0
  0
ARC
  8
0
 62
7
  6
CONTINUOUS
 10
109.8854508197
 20
84.3664344262
 40
0.5
 50
270.0
 51
360.0
  0
ARC
  8
0
 62
7
  6
CONTINUOUS
 10
152.4854508197
 20
84.3664344262
 40
0.5
 50
180.0
 51
270.0
  0
ARC
  8
0
 62
7
  6
CONTINUOUS
 10
263.2257786885
 20
155.5824180328
 40
6.48
 50
270.0
 51
360.0
  0
ARC
  8
0
 62
7
  6
CONTINUOUS
 10
262.5257786885
 20
155.5824180328
 40
6.48
 50
90.0
 51
270.0
  0
ARC
  8
0
 62
7
  6
CONTINUOUS
 10
262.5257786885
 20
155.5824180328
 40
4.8
 50
320.0687087334
 51
45.7241782885
  0
CIRCLE
  8
AXES
 62
7
  6
CONTINUOUS
 10
262.5257786885
 20
155.5824180328
 40
3.175
  0
CIRCLE
  8
AXES
 62
7
  6
CONTINUOUS
 10
262.5257786885
 20
155.5824180328
 40
2.5
  0
ARC
  8
0
 62
7
  6
CONTINUOUS
 10
264.7257786885
 20
163.0624180328
 40
1.0
 50
270.0
 51
360.0
  0
ARC
  8
0
 62
7
  6
CONTINUOUS
 10
262.5257786885
 20
192.4124180328
 40
7.08
 50
299.2175258536
 51
341.0798407932
  0
ARC
  8
0
 62
7
  6
CONTINUOUS
 10
262.5257786885
 20
193.6824180328
 40
6.5
 50
90.0
 51
270.0
  0
ARC
  8
0
 62
7
  6
CONTINUOUS
 10
263.2057786885
 20
193.6824180328
 40
6.5
 50
0.0
 51
90.0
  0
CIRCLE
  8
AXES
 62
7
  6
CONTINUOUS
 10
262.5257786885
 20
193.6824180328
 40
3.25
  0
ARC
  8
0
 62
7
  6
CONTINUOUS
 10
264.7257786885
 20
186.1824180328
 40
1.0
 50
0.0
 51
90.0
  0
ARC
  8
0
 62
7
  6
CONTINUOUS
 10
266.9307025017
 20
152.6419351577
 40
1.75
 50
272.029235528
 51
321.5620613728
  0
ARC
  8
0
 62
7
  6
CONTINUOUS
 10
266.9579677639
 20
151.8724180328
 40
0.98
 50
140.0687087334
 51
267.970764817
  0
ARC
  8
0
 62
7
  6
CONTINUOUS
 10
266.2257786885
 20
159.377151225
 40
0.5
 50
180.0
 51
225.7241782885
  0
ARC
  8
0
 62
7
  6
CONTINUOUS
 10
268.9057786885
 20
189.3824180328
 40
0.8
 50
0.0
 51
104.3642555028
  0
ARC
  8
0
 62
7
  6
CONTINUOUS
 10
266.2257786885
 20
185.7968001478
 40
0.5
 50
119.2175258536
 51
180.0
  0
ENDSEC
  0
EOF
