  0
SECTION
  2
HEADER
  9
$EXTMAX
 10
420.0
 20
297.0
 30
0.0
  9
$EXTMIN
 10
0.0
 20
0.0
 30
0.0
  9
$LIMMIN
 10
0.0
 20
0.0
  9
$LIMMAX
 10
420.0
 20
297.0
  9
$VIEWCTR
 10
210.0
 20
148.5
  9
$VIEWSIZE
 40
297.0
  9
$CLAYER
  8
0
  9
$LTSCALE
 40
23.1
  9
$CELTYPE
  6
BYLAYER
  9
$DIMSCALE
 40
1.0
  9
$DIMASZ
 40
3.5
  9
$DIMEXO
 40
1.0
  9
$DIMDLI
 40
15.96
  9
$DIMEXE
 40
2.0
  9
$DIMCEN
 40
3.78
  9
$DIMLFAC
 40
1.0
  9
$DIMBLK
  1
_FILLED
  9
$DIMTXT
 40
3.5
  9
$PDMODE
 70
3
  9
$PDSIZE
 40
0.3125
  9
$TILEMODE
 70
1
  0
ENDSEC
  0
SECTION
  2
TABLES
  0
TABLE
  2
LTYPE
 70
6
  0
LTYPE
  2
BYBLOCK
 70
0
  3

 72
65
 73
0
 40
0.0
  0
LTYPE
  2
BYLAYER
 70
0
  3

 72
65
 73
0
 40
0.0
  0
LTYPE
  2
CONTINUOUS
 70
64
  3
Solid line
 72
65
 73
0
 40
0.0
  0
LTYPE
  2
CENTER
 70
64
  3
____ _ ____ _ ____ _ ____ _ ____ _ ____ _ ____
 72
65
 73
4
 40
0.6
 49
0.375
 49
-0.075
 49
0.075
 49
-0.075
  0
LTYPE
  2
HIDDEN
 70
64
  3
- - - - - - - - - - - - - - - - - - - -
 72
65
 73
2
 40
0.2
 49
0.1
 49
-0.1
  0
LTYPE
  2
PHANTOM
 70
64
  3
_____ _ _ _____ _ _ _____ _ _ _____
 72
65
 73
6
 40
0.8
 49
0.45
 49
-0.05
 49
0.1
 49
-0.05
 49
0.1
 49
-0.05
  0
LTYPE
  2
DOT
 70
64
  3
. . . . . . . . . . . . . . . . . . . .
 72
65
 73
2
 40
0.2
 49
0.1
 49
-0.1
  0
LTYPE
  2
DASHED
 70
64
  3
- - - - - - - - - - - - - - - - - - - -
 72
65
 73
2
 40
0.2
 49
0.1
 49
-0.1
  0
ENDTAB
  0
TABLE
  2
LAYER
 70
36
  0
LAYER
  2
0
 70
0
 62
7
  6
CONTINUOUS
  0
LAYER
  2
DEFAULT_1
 70
0
 62
7
  6
CENTER
  0
LAYER
  2
DEFAULT_2
 70
0
 62
8
  6
HIDDEN
  0
LAYER
  2
DEFAULT_3
 70
0
 62
7
  6
PHANTOM
  0
LAYER
  2
1_DATUM_PLANE
 70
0
 62
7
  6
CONTINUOUS
  0
LAYER
  2
AXES
 70
0
 62
7
  6
CONTINUOUS
  0
LAYER
  2
PLANES
 70
0
 62
7
  6
CONTINUOUS
  0
ENDTAB
  0
TABLE
  2
STYLE
 70
1
  0
STYLE
  2
STANDARD
 70
0
 40
0.0
 41
0.8
 50
0.0
 71
0
 42
0.2
  3
txt
  4

  0
STYLE
  2
TEXTSTYLE_1
 70
0
 40
0.0
 41
0.8
 50
0.0
 71
0
 42
0.2
  3
gdt
  4

  0
STYLE
  2
TEXTSTYLE_2
 70
0
 40
0.0
 41
0.6
 50
0.0
 71
0
 42
0.2
  3
txt
  4

  0
STYLE
  2
TEXTSTYLE_3
 70
0
 40
0.0
 41
1.0
 50
0.0
 71
0
 42
0.2
  3
ftb_____.ttf
  4

  0
STYLE
  2
TEXTSTYLE_4
 70
0
 40
0.0
 41
1.0
 50
0.0
 71
0
 42
0.2
  3
fti_____.ttf
  4

  0
STYLE
  2
TEXTSTYLE_5
 70
0
 40
0.0
 41
1.0
 50
0.0
 71
0
 42
0.2
  3
frutiger light.ttf
  4

  0
STYLE
  2
TEXTSTYLE_6
 70
0
 40
0.0
 41
0.7
 50
0.0
 71
0
 42
0.2
  3
txt
  4

  0
STYLE
  2
TEXTSTYLE_7
 70
0
 40
0.0
 41
0.8
 50
0.0
 71
0
 42
0.2
  3
txt
  4

  0
ENDTAB
  0
ENDSEC
  0
SECTION
  2
BLOCKS
  0
BLOCK
  8
0
 62
2
  6
CONTINUOUS
  2
SYMBOL_5_BL1
 70
64
 10
382.3920721743
 20
35.81661148
  0
TEXT
  8
0
 62
7
  6
CONTINUOUS
 10
373.4503571828
 20
30.9093678571
  7
TEXTSTYLE_4
 40
1.0655737705
  1
The brand for plastic modular belts and chains
 41
1.0
 72
0
  0
LINE
  8
0
 62
7
  6
CONTINUOUS
 10
358.3701405634
 20
36.3903819718
 11
358.3701405634
 21
34.2592344308
  0
LINE
  8
0
 62
7
  6
CONTINUOUS
 10
358.6592030565
 20
31.2683031351
 11
358.6592030565
 21
31.3650941944
  0
LINE
  8
0
 62
7
  6
CONTINUOUS
 10
358.3701405634
 20
31.332830508
 11
358.4279530651
 21
31.1392483894
  0
LINE
  8
0
 62
7
  6
CONTINUOUS
 10
359.7635831863
 20
34.1772672177
 11
359.7635831863
 21
36.3903819718
  0
LINE
  8
0
 62
7
  6
CONTINUOUS
 10
360.6826405082
 20
32.3330049227
 11
360.6826405082
 21
30.81661148
  0
LINE
  8
0
 62
7
  6
CONTINUOUS
 10
360.9717030634
 20
30.81661148
 11
360.9717030634
 21
31.5586763581
  0
LINE
  8
0
 62
7
  6
CONTINUOUS
 10
360.9717030634
 20
31.6877311038
 11
360.9717030634
 21
32.3330049227
  0
LINE
  8
0
 62
7
  6
CONTINUOUS
 10
358.4279530651
 20
31.5264126717
 11
358.3701405634
 21
31.332830508
  0
LINE
  8
0
 62
7
  6
CONTINUOUS
 10
358.7748280496
 20
31.106984703
 11
358.6592030565
 21
31.2683031351
  0
LINE
  8
0
 62
7
  6
CONTINUOUS
 10
359.8732656185
 20
31.623203731
 11
359.9310780634
 21
31.5264126717
  0
LINE
  8
0
 62
7
  6
CONTINUOUS
 10
360.2201406185
 20
31.5264126717
 11
360.1623280082
 21
31.6554674174
  0
LINE
  8
0
 62
7
  6
CONTINUOUS
 10
361.648829088
 20
36.3903819718
 11
361.648829088
 21
34.5871032833
  0
LINE
  8
0
 62
7
  6
CONTINUOUS
 10
361.648829088
 20
33.2756278735
 11
361.648829088
 21
32.6198901686
  0
LINE
  8
0
 62
7
  6
CONTINUOUS
 10
362.0123280634
 20
31.4618852989
 11
362.0123280634
 21
30.81661148
  0
LINE
  8
0
 62
7
  6
CONTINUOUS
 10
362.3013904531
 20
30.81661148
 11
362.3013904531
 21
31.4618852989
  0
LINE
  8
0
 62
7
  6
CONTINUOUS
 10
358.6592030565
 20
31.3650941944
 11
358.7170155634
 21
31.4941489853
  0
LINE
  8
0
 62
7
  6
CONTINUOUS
 10
358.4279530651
 20
31.1392483894
 11
358.5435780634
 21
31.0101936212
  0
LINE
  8
0
 62
7
  6
CONTINUOUS
 10
361.9545154531
 20
31.5909400446
 11
362.0123280634
 21
31.4618852989
  0
LINE
  8
0
 62
7
  6
CONTINUOUS
 10
362.7638906736
 20
31.106984703
 11
362.8217029531
 21
30.9779299347
  0
LINE
  8
0
 62
7
  6
CONTINUOUS
 10
362.3013904531
 20
31.4618852989
 11
362.2435781736
 21
31.623203731
  0
LINE
  8
0
 62
7
  6
CONTINUOUS
 10
362.7638906736
 20
31.6554674174
 11
362.7638906736
 21
31.5909400446
  0
LINE
  8
0
 62
7
  6
CONTINUOUS
 10
362.7638906736
 20
31.2037757623
 11
362.7638906736
 21
31.106984703
  0
LINE
  8
0
 62
7
  6
CONTINUOUS
 10
363.0422717109
 20
32.6198901686
 11
363.0422717109
 21
36.3903819718
  0
LINE
  8
0
 62
7
  6
CONTINUOUS
 10
363.0529530634
 20
31.074720994
 11
363.0529530634
 21
31.1392483894
  0
LINE
  8
0
 62
7
  6
CONTINUOUS
 10
363.3701405634
 20
36.3903819718
 11
363.3701405634
 21
32.6198901686
  0
LINE
  8
0
 62
7
  6
CONTINUOUS
 10
360.1623280082
 20
31.0101936212
 11
360.2201406185
 21
31.1392483894
  0
LINE
  8
0
 62
7
  6
CONTINUOUS
 10
364.5560782839
 20
30.9134025506
 11
364.4982653428
 21
31.074720994
  0
LINE
  8
0
 62
7
  6
CONTINUOUS
 10
364.2092032839
 20
31.5909400446
 11
364.2092032839
 21
31.4941489853
  0
LINE
  8
0
 62
7
  6
CONTINUOUS
 10
364.2092032839
 20
31.3650941944
 11
364.2092032839
 21
31.1715120759
  0
LINE
  8
0
 62
7
  6
CONTINUOUS
 10
364.4982653428
 20
31.074720994
 11
364.4982653428
 21
31.5909400446
  0
LINE
  8
0
 62
7
  6
CONTINUOUS
 10
364.7635831863
 20
32.6198901686
 11
364.7635831863
 21
34.4231688571
  0
LINE
  8
0
 62
7
  6
CONTINUOUS
 10
364.7635831863
 20
35.7346442669
 11
364.7635831863
 21
36.3903819718
  0
LINE
  8
0
 62
7
  6
CONTINUOUS
 10
365.0763907839
 20
32.3330049227
 11
365.0763907839
 21
32.1716864905
  0
LINE
  8
0
 62
7
  6
CONTINUOUS
 10
365.0763907839
 20
31.8490495359
 11
365.0763907839
 21
30.81661148
  0
LINE
  8
0
 62
7
  6
CONTINUOUS
 10
365.3654528428
 20
30.81661148
 11
365.3654528428
 21
31.8490495359
  0
LINE
  8
0
 62
7
  6
CONTINUOUS
 10
365.3654528428
 20
32.1716864905
 11
365.3654528428
 21
32.3330049227
  0
LINE
  8
0
 62
7
  6
CONTINUOUS
 10
359.9310780634
 20
31.1392483894
 11
359.8732656185
 21
31.0424573076
  0
LINE
  8
0
 62
7
  6
CONTINUOUS
 10
362.2435781736
 20
31.623203731
 11
362.1857655634
 21
31.6877311038
  0
LINE
  8
0
 62
7
  6
CONTINUOUS
 10
363.1107656736
 20
31.0101936212
 11
363.0529530634
 21
31.074720994
  0
LINE
  8
0
 62
7
  6
CONTINUOUS
 10
364.2670155634
 20
30.8811388585
 11
364.3248278428
 21
30.81661148
  0
LINE
  8
0
 62
7
  6
CONTINUOUS
 10
364.2092032839
 20
30.9779299347
 11
364.2670155634
 21
30.8811388585
  0
LINE
  8
0
 62
7
  6
CONTINUOUS
 10
364.6138905634
 20
30.81661148
 11
364.5560782839
 21
30.9134025506
  0
LINE
  8
0
 62
7
  6
CONTINUOUS
 10
364.4982653428
 20
31.5909400446
 11
364.4404530634
 21
31.6877311038
  0
LINE
  8
0
 62
7
  6
CONTINUOUS
 10
365.8279530634
 20
31.8490495359
 11
365.8279530634
 21
30.81661148
  0
LINE
  8
0
 62
7
  6
CONTINUOUS
 10
366.1170157839
 20
30.81661148
 11
366.1170157839
 21
31.5586763581
  0
LINE
  8
0
 62
7
  6
CONTINUOUS
 10
366.1170157839
 20
31.6877311038
 11
366.1170157839
 21
31.8490495359
  0
LINE
  8
0
 62
7
  6
CONTINUOUS
 10
366.648829088
 20
34.8330049227
 11
366.648829088
 21
32.6198901686
  0
LINE
  8
0
 62
7
  6
CONTINUOUS
 10
358.5435780634
 20
31.6554674174
 11
358.4279530651
 21
31.5264126717
  0
LINE
  8
0
 62
7
  6
CONTINUOUS
 10
358.7170155634
 20
31.4941489853
 11
358.7748280496
 21
31.5586763581
  0
LINE
  8
0
 62
7
  6
CONTINUOUS
 10
358.5435780634
 20
31.0101936212
 11
358.6592030565
 21
30.945666237
  0
LINE
  8
0
 62
7
  6
CONTINUOUS
 10
358.9482655496
 20
31.0101936212
 11
358.7748280496
 21
31.106984703
  0
LINE
  8
0
 62
7
  6
CONTINUOUS
 10
364.1513903428
 20
31.6554674174
 11
364.2092032839
 21
31.5909400446
  0
LINE
  8
0
 62
7
  6
CONTINUOUS
 10
367.0998278428
 20
31.5909400446
 11
367.1576407839
 21
31.4296216124
  0
LINE
  8
0
 62
7
  6
CONTINUOUS
 10
367.4467028428
 20
31.4296216124
 11
367.3888905634
 21
31.5909400446
  0
LINE
  8
0
 62
7
  6
CONTINUOUS
 10
367.1576407839
 20
31.4296216124
 11
367.1576407839
 21
30.81661148
  0
LINE
  8
0
 62
7
  6
CONTINUOUS
 10
367.4467028428
 20
30.81661148
 11
367.4467028428
 21
31.4296216124
  0
LINE
  8
0
 62
7
  6
CONTINUOUS
 10
367.9092030634
 20
31.6554674174
 11
367.9092030634
 21
31.5909400446
  0
LINE
  8
0
 62
7
  6
CONTINUOUS
 10
368.0422717109
 20
32.6198901686
 11
368.0422717109
 21
34.7510377095
  0
LINE
  8
0
 62
7
  6
CONTINUOUS
 10
368.3701405634
 20
36.3903819718
 11
368.3701405634
 21
32.6198901686
  0
LINE
  8
0
 62
7
  6
CONTINUOUS
 10
363.0529530634
 20
31.1392483894
 11
363.1107656736
 21
31.2360394487
  0
LINE
  8
0
 62
7
  6
CONTINUOUS
 10
358.6592030565
 20
30.945666237
 11
358.8326405772
 21
30.8811388585
  0
LINE
  8
0
 62
7
  6
CONTINUOUS
 10
360.1623280082
 20
31.6554674174
 11
359.9888905082
 21
31.7522584767
  0
LINE
  8
0
 62
7
  6
CONTINUOUS
 10
362.8217029531
 20
30.9779299347
 11
362.9951404531
 21
30.8811388585
  0
LINE
  8
0
 62
7
  6
CONTINUOUS
 10
361.8388905634
 20
31.6554674174
 11
361.9545154531
 21
31.5909400446
  0
LINE
  8
0
 62
7
  6
CONTINUOUS
 10
362.1857655634
 20
31.6877311038
 11
362.0701406736
 21
31.7522584767
  0
LINE
  8
0
 62
7
  6
CONTINUOUS
 10
367.9092030634
 20
31.074720994
 11
368.0248282839
 21
30.945666237
  0
LINE
  8
0
 62
7
  6
CONTINUOUS
 10
368.2560780634
 20
31.0101936212
 11
368.1982657839
 21
31.074720994
  0
LINE
  8
0
 62
7
  6
CONTINUOUS
 10
367.9092030634
 20
31.5909400446
 11
368.0248282839
 21
31.4618852989
  0
LINE
  8
0
 62
7
  6
CONTINUOUS
 10
367.3888905634
 20
31.5909400446
 11
367.3310782839
 21
31.6877311038
  0
LINE
  8
0
 62
7
  6
CONTINUOUS
 10
369.7592026223
 20
31.0101936212
 11
369.7592026223
 21
31.074720994
  0
LINE
  8
0
 62
7
  6
CONTINUOUS
 10
369.7635831863
 20
32.6198901686
 11
369.7635831863
 21
36.3903819718
  0
LINE
  8
0
 62
7
  6
CONTINUOUS
 10
362.8217029531
 20
31.7199947902
 11
362.7638906736
 21
31.6554674174
  0
LINE
  8
0
 62
7
  6
CONTINUOUS
 10
359.6998280358
 20
31.6877311038
 11
359.8732656185
 21
31.623203731
  0
LINE
  8
0
 62
7
  6
CONTINUOUS
 10
364.4404530634
 20
31.6877311038
 11
364.3248278428
 21
31.7522584767
  0
LINE
  8
0
 62
7
  6
CONTINUOUS
 10
368.2560780634
 20
31.5264126717
 11
368.1982657839
 21
31.5909400446
  0
LINE
  8
0
 62
7
  6
CONTINUOUS
 10
369.4123282839
 20
31.1392483894
 11
369.4701405634
 21
31.074720994
  0
LINE
  8
0
 62
7
  6
CONTINUOUS
 10
369.7592026223
 20
31.074720994
 11
369.6435780634
 21
31.2037757623
  0
LINE
  8
0
 62
7
  6
CONTINUOUS
 10
369.4123282839
 20
31.6554674174
 11
369.4701405634
 21
31.5909400446
  0
LINE
  8
0
 62
7
  6
CONTINUOUS
 10
369.7592026223
 20
31.5909400446
 11
369.6435780634
 21
31.7199947902
  0
LINE
  8
0
 62
7
  6
CONTINUOUS
 10
363.0529530634
 20
31.5909400446
 11
363.1107656736
 21
31.6554674174
  0
LINE
  8
0
 62
7
  6
CONTINUOUS
 10
362.8795155634
 20
31.332830508
 11
362.7638906736
 21
31.2037757623
  0
LINE
  8
0
 62
7
  6
CONTINUOUS
 10
364.2092032839
 20
31.1715120759
 11
364.1513903428
 21
31.106984703
  0
LINE
  8
0
 62
7
  6
CONTINUOUS
 10
364.1513903428
 20
30.9134025506
 11
364.2092032839
 21
30.9779299347
  0
LINE
  8
0
 62
7
  6
CONTINUOUS
 10
362.9951404531
 20
30.8811388585
 11
363.1107656736
 21
30.8488751693
  0
LINE
  8
0
 62
7
  6
CONTINUOUS
 10
359.9888905082
 20
31.7522584767
 11
359.7576405634
 21
31.8167858495
  0
LINE
  8
0
 62
7
  6
CONTINUOUS
 10
363.3420154531
 20
30.945666237
 11
363.1107656736
 21
31.0101936212
  0
LINE
  8
0
 62
7
  6
CONTINUOUS
 10
362.0701406736
 20
31.7522584767
 11
361.8967031736
 21
31.8167858495
  0
LINE
  8
0
 62
7
  6
CONTINUOUS
 10
364.3248278428
 20
31.7522584767
 11
364.1513903428
 21
31.8167858495
  0
LINE
  8
0
 62
7
  6
CONTINUOUS
 10
366.9842032839
 20
31.6554674174
 11
367.0998278428
 21
31.5909400446
  0
LINE
  8
0
 62
7
  6
CONTINUOUS
 10
367.3310782839
 20
31.6877311038
 11
367.2154530634
 21
31.7522584767
  0
LINE
  8
0
 62
7
  6
CONTINUOUS
 10
358.8326405772
 20
30.8811388585
 11
359.0060780772
 21
30.8488751693
  0
LINE
  8
0
 62
7
  6
CONTINUOUS
 10
359.2951405909
 20
30.945666237
 11
358.9482655496
 21
31.0101936212
  0
LINE
  8
0
 62
7
  6
CONTINUOUS
 10
361.7232656736
 20
31.6877311038
 11
361.8388905634
 21
31.6554674174
  0
LINE
  8
0
 62
7
  6
CONTINUOUS
 10
364.0357657839
 20
31.6877311038
 11
364.1513903428
 21
31.6554674174
  0
LINE
  8
0
 62
7
  6
CONTINUOUS
 10
368.3717032839
 20
30.9779299347
 11
368.2560780634
 21
31.0101936212
  0
LINE
  8
0
 62
7
  6
CONTINUOUS
 10
366.8685780634
 20
31.6877311038
 11
366.9842032839
 21
31.6554674174
  0
LINE
  8
0
 62
7
  6
CONTINUOUS
 10
368.0248282839
 20
30.945666237
 11
368.1982657839
 21
30.8811388585
  0
LINE
  8
0
 62
7
  6
CONTINUOUS
 10
367.2154530634
 20
31.7522584767
 11
367.0420155634
 21
31.8167858495
  0
LINE
  8
0
 62
7
  6
CONTINUOUS
 10
368.4295155634
 20
31.4618852989
 11
368.2560780634
 21
31.5264126717
  0
LINE
  8
0
 62
7
  6
CONTINUOUS
 10
369.2388907839
 20
31.2037757623
 11
369.4123282839
 21
31.1392483894
  0
LINE
  8
0
 62
7
  6
CONTINUOUS
 10
369.6435780634
 20
31.7199947902
 11
369.4701405634
 21
31.7845221631
  0
LINE
  8
0
 62
7
  6
CONTINUOUS
 10
368.0248282839
 20
31.4618852989
 11
368.2560780634
 21
31.3650941944
  0
LINE
  8
0
 62
7
  6
CONTINUOUS
 10
369.6435780634
 20
31.2037757623
 11
369.4123282839
 21
31.3005668216
  0
LINE
  8
0
 62
7
  6
CONTINUOUS
 10
368.1982657839
 20
31.5909400446
 11
368.2560780634
 21
31.6554674174
  0
LINE
  8
0
 62
7
  6
CONTINUOUS
 10
358.6592030565
 20
31.7199947902
 11
358.5435780634
 21
31.6554674174
  0
LINE
  8
0
 62
7
  6
CONTINUOUS
 10
358.7748280496
 20
31.5586763581
 11
358.9482655496
 21
31.6554674174
  0
LINE
  8
0
 62
7
  6
CONTINUOUS
 10
361.0873281185
 20
31.7522584767
 11
360.9717030634
 21
31.6877311038
  0
LINE
  8
0
 62
7
  6
CONTINUOUS
 10
360.9717030634
 20
31.5586763581
 11
361.0873281185
 21
31.623203731
  0
LINE
  8
0
 62
7
  6
CONTINUOUS
 10
359.9888905082
 20
30.9134025506
 11
360.1623280082
 21
31.0101936212
  0
LINE
  8
0
 62
7
  6
CONTINUOUS
 10
359.0060780772
 20
30.8488751693
 11
359.3529530358
 21
30.81661148
  0
LINE
  8
0
 62
7
  6
CONTINUOUS
 10
363.1107656736
 20
30.8488751693
 11
363.3420154531
 21
30.81661148
  0
LINE
  8
0
 62
7
  6
CONTINUOUS
 10
361.4920155634
 20
31.7199947902
 11
361.7232656736
 21
31.6877311038
  0
LINE
  8
0
 62
7
  6
CONTINUOUS
 10
363.8045156736
 20
31.7199947902
 11
364.0357657839
 21
31.6877311038
  0
LINE
  8
0
 62
7
  6
CONTINUOUS
 10
368.2560780634
 20
31.3650941944
 11
369.2388907839
 21
31.2037757623
  0
LINE
  8
0
 62
7
  6
CONTINUOUS
 10
369.4123282839
 20
31.3005668216
 11
368.4295155634
 21
31.4618852989
  0
LINE
  8
0
 62
7
  6
CONTINUOUS
 10
361.8967031736
 20
31.8167858495
 11
361.7232656736
 21
31.8490495359
  0
LINE
  8
0
 62
7
  6
CONTINUOUS
 10
368.1982657839
 20
30.8811388585
 11
368.3717032839
 21
30.8488751693
  0
LINE
  8
0
 62
7
  6
CONTINUOUS
 10
367.0420155634
 20
31.8167858495
 11
366.8685780634
 21
31.8490495359
  0
LINE
  8
0
 62
7
  6
CONTINUOUS
 10
369.2967030634
 20
31.6877311038
 11
369.4123282839
 21
31.6554674174
  0
LINE
  8
0
 62
7
  6
CONTINUOUS
 10
369.4701405634
 20
31.074720994
 11
369.4123282839
 21
31.0101936212
  0
LINE
  8
0
 62
7
  6
CONTINUOUS
 10
368.0248282839
 20
31.7522584767
 11
367.9092030634
 21
31.6554674174
  0
LINE
  8
0
 62
7
  6
CONTINUOUS
 10
362.9373281736
 20
31.7845221631
 11
362.8217029531
 21
31.7199947902
  0
LINE
  8
0
 62
7
  6
CONTINUOUS
 10
362.9951404531
 20
31.397357926
 11
362.8795155634
 21
31.332830508
  0
LINE
  8
0
 62
7
  6
CONTINUOUS
 10
363.1107656736
 20
31.2360394487
 11
363.2263905634
 21
31.3005668216
  0
LINE
  8
0
 62
7
  6
CONTINUOUS
 10
360.6826405082
 20
30.81661148
 11
360.9717030634
 21
30.81661148
  0
LINE
  8
0
 62
7
  6
CONTINUOUS
 10
362.0123280634
 20
30.81661148
 11
362.3013904531
 21
30.81661148
  0
LINE
  8
0
 62
7
  6
CONTINUOUS
 10
363.3420154531
 20
30.81661148
 11
363.6888904531
 21
30.81661148
  0
LINE
  8
0
 62
7
  6
CONTINUOUS
 10
364.3248278428
 20
30.81661148
 11
364.6138905634
 21
30.81661148
  0
LINE
  8
0
 62
7
  6
CONTINUOUS
 10
365.0763907839
 20
30.81661148
 11
365.3654528428
 21
30.81661148
  0
LINE
  8
0
 62
7
  6
CONTINUOUS
 10
365.8279530634
 20
30.81661148
 11
366.1170157839
 21
30.81661148
  0
LINE
  8
0
 62
7
  6
CONTINUOUS
 10
367.1576407839
 20
30.81661148
 11
367.4467028428
 21
30.81661148
  0
LINE
  8
0
 62
7
  6
CONTINUOUS
 10
368.7185782839
 20
30.81661148
 11
369.0654532839
 21
30.81661148
  0
LINE
  8
0
 62
7
  6
CONTINUOUS
 10
369.0654532839
 20
30.945666237
 11
368.7185782839
 21
30.945666237
  0
LINE
  8
0
 62
7
  6
CONTINUOUS
 10
363.6888904531
 20
30.945666237
 11
363.3420154531
 21
30.945666237
  0
LINE
  8
0
 62
7
  6
CONTINUOUS
 10
368.1982657839
 20
31.074720994
 11
367.9092030634
 21
31.074720994
  0
LINE
  8
0
 62
7
  6
CONTINUOUS
 10
360.2201406185
 20
31.1392483894
 11
359.9310780634
 21
31.1392483894
  0
LINE
  8
0
 62
7
  6
CONTINUOUS
 10
359.2951405909
 20
31.7199947902
 11
359.6998280358
 21
31.6877311038
  0
LINE
  8
0
 62
7
  6
CONTINUOUS
 10
359.7576405634
 20
31.8167858495
 11
359.3529530358
 21
31.8490495359
  0
LINE
  8
0
 62
7
  6
CONTINUOUS
 10
368.3717032839
 20
30.8488751693
 11
368.7185782839
 21
30.81661148
  0
LINE
  8
0
 62
7
  6
CONTINUOUS
 10
368.7185782839
 20
30.945666237
 11
368.3717032839
 21
30.9779299347
  0
LINE
  8
0
 62
7
  6
CONTINUOUS
 10
364.1513903428
 20
31.8167858495
 11
363.8045156736
 21
31.8490495359
  0
LINE
  8
0
 62
7
  6
CONTINUOUS
 10
368.9498280634
 20
31.7199947902
 11
369.2967030634
 21
31.6877311038
  0
LINE
  8
0
 62
7
  6
CONTINUOUS
 10
369.2967030634
 20
31.8167858495
 11
368.9498280634
 21
31.8490495359
  0
LINE
  8
0
 62
7
  6
CONTINUOUS
 10
366.6373282839
 20
31.7199947902
 11
366.8685780634
 21
31.6877311038
  0
LINE
  8
0
 62
7
  6
CONTINUOUS
 10
369.4701405634
 20
31.7845221631
 11
369.2967030634
 21
31.8167858495
  0
LINE
  8
0
 62
7
  6
CONTINUOUS
 10
369.6435780634
 20
30.9134025506
 11
369.7592026223
 21
31.0101936212
  0
LINE
  8
0
 62
7
  6
CONTINUOUS
 10
364.1513903428
 20
31.106984703
 11
363.9779528428
 21
31.0101936212
  0
LINE
  8
0
 62
7
  6
CONTINUOUS
 10
366.2326403428
 20
31.7522584767
 11
366.1170157839
 21
31.6877311038
  0
LINE
  8
0
 62
7
  6
CONTINUOUS
 10
366.1170157839
 20
31.5586763581
 11
366.2326403428
 21
31.623203731
  0
LINE
  8
0
 62
7
  6
CONTINUOUS
 10
358.8326405772
 20
31.7845221631
 11
358.6592030565
 21
31.7199947902
  0
LINE
  8
0
 62
7
  6
CONTINUOUS
 10
361.2607654531
 20
31.8167858495
 11
361.0873281185
 21
31.7522584767
  0
LINE
  8
0
 62
7
  6
CONTINUOUS
 10
361.0873281185
 20
31.623203731
 11
361.2607654531
 21
31.6877311038
  0
LINE
  8
0
 62
7
  6
CONTINUOUS
 10
359.8732656185
 20
31.0424573076
 11
359.6998280358
 21
30.9779299347
  0
LINE
  8
0
 62
7
  6
CONTINUOUS
 10
369.2967030634
 20
30.9779299347
 11
369.0654532839
 21
30.945666237
  0
LINE
  8
0
 62
7
  6
CONTINUOUS
 10
363.6888904531
 20
30.81661148
 11
363.9779528428
 21
30.8488751693
  0
LINE
  8
0
 62
7
  6
CONTINUOUS
 10
369.0654532839
 20
30.81661148
 11
369.4123282839
 21
30.8488751693
  0
LINE
  8
0
 62
7
  6
CONTINUOUS
 10
359.3529530358
 20
30.81661148
 11
359.7576405634
 21
30.8488751693
  0
LINE
  8
0
 62
7
  6
CONTINUOUS
 10
359.6998280358
 20
30.9779299347
 11
359.2951405909
 21
30.945666237
  0
LINE
  8
0
 62
7
  6
CONTINUOUS
 10
363.5732655634
 20
31.3650941944
 11
364.2092032839
 21
31.3650941944
  0
LINE
  8
0
 62
7
  6
CONTINUOUS
 10
364.2092032839
 20
31.4941489853
 11
363.5732655634
 21
31.4941489853
  0
LINE
  8
0
 62
7
  6
CONTINUOUS
 10
359.9310780634
 20
31.5264126717
 11
360.2201406185
 21
31.5264126717
  0
LINE
  8
0
 62
7
  6
CONTINUOUS
 10
362.7638906736
 20
31.5909400446
 11
363.0529530634
 21
31.5909400446
  0
LINE
  8
0
 62
7
  6
CONTINUOUS
 10
369.4701405634
 20
31.5909400446
 11
369.7592026223
 21
31.5909400446
  0
LINE
  8
0
 62
7
  6
CONTINUOUS
 10
363.4576406736
 20
31.7199947902
 11
363.8045156736
 21
31.7199947902
  0
LINE
  8
0
 62
7
  6
CONTINUOUS
 10
368.6029530634
 20
31.7199947902
 11
368.9498280634
 21
31.7199947902
  0
LINE
  8
0
 62
7
  6
CONTINUOUS
 10
368.9498280634
 20
31.8490495359
 11
368.6029530634
 21
31.8490495359
  0
LINE
  8
0
 62
7
  6
CONTINUOUS
 10
366.8685780634
 20
31.8490495359
 11
366.6373282839
 21
31.8490495359
  0
LINE
  8
0
 62
7
  6
CONTINUOUS
 10
366.1170157839
 20
31.8490495359
 11
365.8279530634
 21
31.8490495359
  0
LINE
  8
0
 62
7
  6
CONTINUOUS
 10
365.3654528428
 20
31.8490495359
 11
365.0763907839
 21
31.8490495359
  0
LINE
  8
0
 62
7
  6
CONTINUOUS
 10
363.8045156736
 20
31.8490495359
 11
363.4576406736
 21
31.8490495359
  0
LINE
  8
0
 62
7
  6
CONTINUOUS
 10
361.7232656736
 20
31.8490495359
 11
361.4920155634
 21
31.8490495359
  0
LINE
  8
0
 62
7
  6
CONTINUOUS
 10
365.0763907839
 20
32.1716864905
 11
365.3654528428
 21
32.1716864905
  0
LINE
  8
0
 62
7
  6
CONTINUOUS
 10
365.3654528428
 20
32.3330049227
 11
365.0763907839
 21
32.3330049227
  0
LINE
  8
0
 62
7
  6
CONTINUOUS
 10
360.9717030634
 20
32.3330049227
 11
360.6826405082
 21
32.3330049227
  0
LINE
  8
0
 62
7
  6
CONTINUOUS
 10
360.0094848257
 20
32.6198901686
 11
360.4220561743
 21
32.6198901686
  0
LINE
  8
0
 62
7
  6
CONTINUOUS
 10
361.648829088
 20
32.6198901686
 11
363.0422717109
 21
32.6198901686
  0
LINE
  8
0
 62
7
  6
CONTINUOUS
 10
363.3701405634
 20
32.6198901686
 11
364.7635831863
 21
32.6198901686
  0
LINE
  8
0
 62
7
  6
CONTINUOUS
 10
366.648829088
 20
32.6198901686
 11
368.0422717109
 21
32.6198901686
  0
LINE
  8
0
 62
7
  6
CONTINUOUS
 10
368.3701405634
 20
32.6198901686
 11
369.7635831863
 21
32.6198901686
  0
LINE
  8
0
 62
7
  6
CONTINUOUS
 10
366.4060778428
 20
31.8167858495
 11
366.2326403428
 21
31.7522584767
  0
LINE
  8
0
 62
7
  6
CONTINUOUS
 10
363.9779528428
 20
30.8488751693
 11
364.1513903428
 21
30.9134025506
  0
LINE
  8
0
 62
7
  6
CONTINUOUS
 10
369.4123282839
 20
30.8488751693
 11
369.6435780634
 21
30.9134025506
  0
LINE
  8
0
 62
7
  6
CONTINUOUS
 10
369.4123282839
 20
31.0101936212
 11
369.2967030634
 21
30.9779299347
  0
LINE
  8
0
 62
7
  6
CONTINUOUS
 10
368.3717032839
 20
31.6877311038
 11
368.6029530634
 21
31.7199947902
  0
LINE
  8
0
 62
7
  6
CONTINUOUS
 10
366.4060778428
 20
31.6877311038
 11
366.6373282839
 21
31.7199947902
  0
LINE
  8
0
 62
7
  6
CONTINUOUS
 10
363.3420154531
 20
31.332830508
 11
363.5732655634
 21
31.3650941944
  0
LINE
  8
0
 62
7
  6
CONTINUOUS
 10
366.6373282839
 20
31.8490495359
 11
366.4060778428
 21
31.8167858495
  0
LINE
  8
0
 62
7
  6
CONTINUOUS
 10
363.2263905634
 20
31.6877311038
 11
363.4576406736
 21
31.7199947902
  0
LINE
  8
0
 62
7
  6
CONTINUOUS
 10
368.6029530634
 20
31.8490495359
 11
368.2560780634
 21
31.8167858495
  0
LINE
  8
0
 62
7
  6
CONTINUOUS
 10
363.5732655634
 20
31.4941489853
 11
363.2263905634
 21
31.4618852989
  0
LINE
  8
0
 62
7
  6
CONTINUOUS
 10
359.3529530358
 20
31.8490495359
 11
359.0060780772
 21
31.8167858495
  0
LINE
  8
0
 62
7
  6
CONTINUOUS
 10
363.4576406736
 20
31.8490495359
 11
363.0529530634
 21
31.8167858495
  0
LINE
  8
0
 62
7
  6
CONTINUOUS
 10
360.8291569568
 20
33.7674311522
 11
360.1734192519
 21
33.7674311522
  0
LINE
  8
0
 62
7
  6
CONTINUOUS
 10
366.2326403428
 20
31.623203731
 11
366.4060778428
 21
31.6877311038
  0
LINE
  8
0
 62
7
  6
CONTINUOUS
 10
368.2560780634
 20
31.6554674174
 11
368.3717032839
 21
31.6877311038
  0
LINE
  8
0
 62
7
  6
CONTINUOUS
 10
368.2560780634
 20
31.8167858495
 11
368.0248282839
 21
31.7522584767
  0
LINE
  8
0
 62
7
  6
CONTINUOUS
 10
363.9779528428
 20
31.0101936212
 11
363.6888904531
 21
30.945666237
  0
LINE
  8
0
 62
7
  6
CONTINUOUS
 10
361.2607654531
 20
31.6877311038
 11
361.4920155634
 21
31.7199947902
  0
LINE
  8
0
 62
7
  6
CONTINUOUS
 10
361.4920155634
 20
31.8490495359
 11
361.2607654531
 21
31.8167858495
  0
LINE
  8
0
 62
7
  6
CONTINUOUS
 10
359.0638905634
 20
31.6877311038
 11
359.2951405909
 21
31.7199947902
  0
LINE
  8
0
 62
7
  6
CONTINUOUS
 10
365.5832553175
 20
35.2428409882
 11
366.2389930224
 21
35.2428409882
  0
LINE
  8
0
 62
7
  6
CONTINUOUS
 10
363.2263905634
 20
31.3005668216
 11
363.3420154531
 21
31.332830508
  0
LINE
  8
0
 62
7
  6
CONTINUOUS
 10
363.2263905634
 20
31.4618852989
 11
362.9951404531
 21
31.397357926
  0
LINE
  8
0
 62
7
  6
CONTINUOUS
 10
363.1107656736
 20
31.6554674174
 11
363.2263905634
 21
31.6877311038
  0
LINE
  8
0
 62
7
  6
CONTINUOUS
 10
359.7576405634
 20
30.8488751693
 11
359.9888905082
 21
30.9134025506
  0
LINE
  8
0
 62
7
  6
CONTINUOUS
 10
363.0529530634
 20
31.8167858495
 11
362.9373281736
 21
31.7845221631
  0
LINE
  8
0
 62
7
  6
CONTINUOUS
 10
359.0060780772
 20
31.8167858495
 11
358.8326405772
 21
31.7845221631
  0
LINE
  8
0
 62
7
  6
CONTINUOUS
 10
369.7635831863
 20
36.3903819718
 11
368.3701405634
 21
36.3903819718
  0
LINE
  8
0
 62
7
  6
CONTINUOUS
 10
366.4029274486
 20
36.3903819718
 11
365.9903561
 21
36.3903819718
  0
LINE
  8
0
 62
7
  6
CONTINUOUS
 10
364.7635831863
 20
36.3903819718
 11
363.3701405634
 21
36.3903819718
  0
LINE
  8
0
 62
7
  6
CONTINUOUS
 10
363.0422717109
 20
36.3903819718
 11
361.648829088
 21
36.3903819718
  0
LINE
  8
0
 62
7
  6
CONTINUOUS
 10
359.7635831863
 20
36.3903819718
 11
358.3701405634
 21
36.3903819718
  0
LINE
  8
0
 62
7
  6
CONTINUOUS
 10
358.9482655496
 20
31.6554674174
 11
359.0638905634
 21
31.6877311038
  0
CIRCLE
  8
0
 62
7
  6
CONTINUOUS
 10
369.0668618749
 20
38.7264475456
 40
2.0901639344
  0
ARC
  8
0
 62
7
  6
CONTINUOUS
 10
360.0094848257
 20
34.2592344308
 40
1.6393442623
 50
180.0
 51
270.0
  0
ARC
  8
0
 62
7
  6
CONTINUOUS
 10
366.4029274486
 20
34.7510377095
 40
1.6393442623
 50
0.0
 51
90.0
  0
ARC
  8
0
 62
7
  6
CONTINUOUS
 10
360.4220561743
 20
34.0953000046
 40
1.4754098361
 50
270.0
 51
326.2510114041
  0
ARC
  8
0
 62
7
  6
CONTINUOUS
 10
365.9903561
 20
34.9149721358
 40
1.4754098361
 50
90.0
 51
146.2510114041
  0
ARC
  8
0
 62
7
  6
CONTINUOUS
 10
360.8291569568
 20
34.5871032833
 40
0.8196721311
 50
270.0
 51
360.0
  0
ARC
  8
0
 62
7
  6
CONTINUOUS
 10
365.5832553175
 20
34.4231688571
 40
0.8196721311
 50
90.0
 51
180.0
  0
ARC
  8
0
 62
7
  6
CONTINUOUS
 10
360.1734192519
 20
34.1772672177
 40
0.4098360656
 50
180.0
 51
270.0
  0
ARC
  8
0
 62
7
  6
CONTINUOUS
 10
366.2389930224
 20
34.8330049227
 40
0.4098360656
 50
0.0
 51
90.0
  0
SOLID
  8
0
 62
7
  6
CONTINUOUS
 10
365.0763907839
 20
32.1716868508
 11
365.0763907839
 21
32.3330053344
 12
365.3654528428
 22
32.1716868508
 13
365.3654528428
 23
32.3330053344
  0
SOLID
  8
0
 62
7
  6
CONTINUOUS
 10
359.3529530358
 20
31.8490498836
 11
359.7576405634
 21
31.8167854792
 12
359.0060780772
 22
31.8167854792
 13
359.0060780772
 23
31.8167854792
  0
SOLID
  8
0
 62
7
  6
CONTINUOUS
 10
358.8326405772
 20
31.7845227934
 11
359.0060780772
 21
31.8167854792
 12
359.7576405634
 22
31.8167854792
 13
359.7576405634
 23
31.8167854792
  0
SOLID
  8
0
 62
7
  6
CONTINUOUS
 10
359.7576405634
 20
31.8167854792
 11
359.9888905082
 21
31.7522584901
 12
358.8326405772
 22
31.7845227934
 13
358.8326405772
 23
31.7845227934
  0
SOLID
  8
0
 62
7
  6
CONTINUOUS
 10
358.6592030565
 20
31.7199940664
 11
358.8326405772
 21
31.7845227934
 12
359.9888905082
 22
31.7522584901
 13
359.9888905082
 23
31.7522584901
  0
SOLID
  8
0
 62
7
  6
CONTINUOUS
 10
358.6592030565
 20
31.7199940664
 11
359.9888905082
 21
31.7522584901
 12
359.2951405909
 22
31.7199940664
 13
359.2951405909
 23
31.7199940664
  0
SOLID
  8
0
 62
7
  6
CONTINUOUS
 10
359.2951405909
 20
31.7199940664
 11
359.9888905082
 21
31.7522584901
 12
359.6998280358
 22
31.6877314
 13
359.6998280358
 23
31.6877314
  0
SOLID
  8
0
 62
7
  6
CONTINUOUS
 10
359.9888905082
 20
31.7522584901
 11
360.1623280082
 21
31.6554670967
 12
359.6998280358
 22
31.6877314
 13
359.6998280358
 23
31.6877314
  0
SOLID
  8
0
 62
7
  6
CONTINUOUS
 10
359.8732656185
 20
31.6232043098
 11
359.6998280358
 21
31.6877314
 12
360.1623280082
 22
31.6554670967
 13
360.1623280082
 23
31.6554670967
  0
SOLID
  8
0
 62
7
  6
CONTINUOUS
 10
359.8732656185
 20
31.6232043098
 11
360.1623280082
 21
31.6554670967
 12
359.9310780634
 22
31.5264128539
 13
359.9310780634
 23
31.5264128539
  0
SOLID
  8
0
 62
7
  6
CONTINUOUS
 10
360.1623280082
 20
31.6554670967
 11
360.2201406185
 21
31.5264128539
 12
359.9310780634
 22
31.5264128539
 13
359.9310780634
 23
31.5264128539
  0
SOLID
  8
0
 62
7
  6
CONTINUOUS
 10
361.2607654531
 20
31.8167852459
 11
361.4920155634
 21
31.8490495492
 12
361.7232656736
 22
31.8490495492
 13
361.7232656736
 23
31.8490495492
  0
SOLID
  8
0
 62
7
  6
CONTINUOUS
 10
361.7232656736
 20
31.8490495492
 11
361.8967031736
 21
31.8167852459
 12
361.2607654531
 22
31.8167852459
 13
361.2607654531
 23
31.8167852459
  0
SOLID
  8
0
 62
7
  6
CONTINUOUS
 10
361.0873281185
 20
31.7522581557
 11
361.2607654531
 21
31.8167852459
 12
361.8967031736
 22
31.8167852459
 13
361.8967031736
 23
31.8167852459
  0
SOLID
  8
0
 62
7
  6
CONTINUOUS
 10
361.8967031736
 20
31.8167852459
 11
362.0701406736
 21
31.7522581557
 12
361.0873281185
 22
31.7522581557
 13
361.0873281185
 23
31.7522581557
  0
SOLID
  8
0
 62
7
  6
CONTINUOUS
 10
362.0701406736
 20
31.7522581557
 11
361.4920155634
 21
31.7199941869
 12
361.0873281185
 22
31.7522581557
 13
361.0873281185
 23
31.7522581557
  0
SOLID
  8
0
 62
7
  6
CONTINUOUS
 10
360.9717030634
 20
31.6877310656
 11
361.0873281185
 21
31.7522581557
 12
361.4920155634
 22
31.7199941869
 13
361.4920155634
 23
31.7199941869
  0
SOLID
  8
0
 62
7
  6
CONTINUOUS
 10
361.4920155634
 20
31.7199941869
 11
361.2607654531
 21
31.6877310656
 12
360.9717030634
 22
31.6877310656
 13
360.9717030634
 23
31.6877310656
  0
SOLID
  8
0
 62
7
  6
CONTINUOUS
 10
361.4920155634
 20
31.7199941869
 11
362.0701406736
 21
31.7522581557
 12
361.7232656736
 22
31.6877310656
 13
361.7232656736
 23
31.6877310656
  0
SOLID
  8
0
 62
7
  6
CONTINUOUS
 10
362.0701406736
 20
31.7522581557
 11
362.1857655634
 21
31.6877310656
 12
361.7232656736
 22
31.6877310656
 13
361.7232656736
 23
31.6877310656
  0
SOLID
  8
0
 62
7
  6
CONTINUOUS
 10
361.8388905634
 20
31.6554670967
 11
361.7232656736
 21
31.6877310656
 12
362.1857655634
 22
31.6877310656
 13
362.1857655634
 23
31.6877310656
  0
SOLID
  8
0
 62
7
  6
CONTINUOUS
 10
362.1857655634
 20
31.6877310656
 11
362.2435781736
 21
31.6232039754
 12
361.8388905634
 22
31.6554670967
 13
361.8388905634
 23
31.6554670967
  0
SOLID
  8
0
 62
7
  6
CONTINUOUS
 10
361.9545154531
 20
31.5909400065
 11
361.8388905634
 21
31.6554670967
 12
362.2435781736
 22
31.6232039754
 13
362.2435781736
 23
31.6232039754
  0
SOLID
  8
0
 62
7
  6
CONTINUOUS
 10
361.9545154531
 20
31.5909400065
 11
362.2435781736
 21
31.6232039754
 12
362.0123280634
 22
31.4618854918
 13
362.0123280634
 23
31.4618854918
  0
SOLID
  8
0
 62
7
  6
CONTINUOUS
 10
362.2435781736
 20
31.6232039754
 11
362.3013904531
 21
31.4618854918
 12
362.0123280634
 22
31.4618854918
 13
362.0123280634
 23
31.4618854918
  0
SOLID
  8
0
 62
7
  6
CONTINUOUS
 10
361.2607654531
 20
31.6877310656
 11
361.0873281185
 21
31.6232039754
 12
360.9717030634
 22
31.6877310656
 13
360.9717030634
 23
31.6877310656
  0
SOLID
  8
0
 62
7
  6
CONTINUOUS
 10
361.0873281185
 20
31.6232039754
 11
360.9717030634
 21
31.5586757033
 12
360.9717030634
 22
31.6877310656
 13
360.9717030634
 23
31.6877310656
  0
SOLID
  8
0
 62
7
  6
CONTINUOUS
 10
360.9717030634
 20
31.5586757033
 11
360.6826405082
 21
30.8166115574
 12
360.9717030634
 22
31.6877310656
 13
360.9717030634
 23
31.6877310656
  0
SOLID
  8
0
 62
7
  6
CONTINUOUS
 10
360.9717030634
 20
31.6877310656
 11
360.6826405082
 21
30.8166115574
 12
360.9717030634
 22
32.333005
 13
360.9717030634
 23
32.333005
  0
SOLID
  8
0
 62
7
  6
CONTINUOUS
 10
360.6826405082
 20
30.8166115574
 11
360.6826405082
 21
32.333005
 12
360.9717030634
 22
32.333005
 13
360.9717030634
 23
32.333005
  0
SOLID
  8
0
 62
7
  6
CONTINUOUS
 10
360.9717030634
 20
31.5586757033
 11
360.9717030634
 21
30.8166115574
 12
360.6826405082
 22
30.8166115574
 13
360.6826405082
 23
30.8166115574
  0
SOLID
  8
0
 62
7
  6
CONTINUOUS
 10
362.0123280634
 20
30.8166115574
 11
362.0123280634
 21
31.4618854918
 12
362.3013904531
 22
31.4618854918
 13
362.3013904531
 23
31.4618854918
  0
SOLID
  8
0
 62
7
  6
CONTINUOUS
 10
362.3013904531
 20
31.4618854918
 11
362.3013904531
 21
30.8166115574
 12
362.0123280634
 22
30.8166115574
 13
362.0123280634
 23
30.8166115574
  0
SOLID
  8
0
 62
7
  6
CONTINUOUS
 10
363.0529530634
 20
31.8167856315
 11
363.4576406736
 21
31.8490496243
 12
363.8045156736
 22
31.8490496243
 13
363.8045156736
 23
31.8490496243
  0
SOLID
  8
0
 62
7
  6
CONTINUOUS
 10
363.8045156736
 20
31.8490496243
 11
364.1513903428
 21
31.8167856315
 12
363.0529530634
 22
31.8167856315
 13
363.0529530634
 23
31.8167856315
  0
SOLID
  8
0
 62
7
  6
CONTINUOUS
 10
362.9373281736
 20
31.7845227934
 11
363.0529530634
 21
31.8167856315
 12
364.1513903428
 22
31.8167856315
 13
364.1513903428
 23
31.8167856315
  0
SOLID
  8
0
 62
7
  6
CONTINUOUS
 10
364.1513903428
 20
31.8167856315
 11
364.3248278428
 21
31.7522584901
 12
362.9373281736
 22
31.7845227934
 13
362.9373281736
 23
31.7845227934
  0
SOLID
  8
0
 62
7
  6
CONTINUOUS
 10
362.8217029531
 20
31.7199944276
 11
362.9373281736
 21
31.7845227934
 12
364.3248278428
 22
31.7522584901
 13
364.3248278428
 23
31.7522584901
  0
SOLID
  8
0
 62
7
  6
CONTINUOUS
 10
362.8217029531
 20
31.7199944276
 11
364.3248278428
 21
31.7522584901
 12
363.4576406736
 22
31.7199944276
 13
363.4576406736
 23
31.7199944276
  0
SOLID
  8
0
 62
7
  6
CONTINUOUS
 10
363.4576406736
 20
31.7199944276
 11
364.3248278428
 21
31.7522584901
 12
363.8045156736
 22
31.7199944276
 13
363.8045156736
 23
31.7199944276
  0
SOLID
  8
0
 62
7
  6
CONTINUOUS
 10
363.8045156736
 20
31.7199944276
 11
364.3248278428
 21
31.7522584901
 12
364.0357657839
 22
31.6877312092
 13
364.0357657839
 23
31.6877312092
  0
SOLID
  8
0
 62
7
  6
CONTINUOUS
 10
364.3248278428
 20
31.7522584901
 11
364.4404530634
 21
31.6877312092
 12
364.0357657839
 22
31.6877312092
 13
364.0357657839
 23
31.6877312092
  0
SOLID
  8
0
 62
7
  6
CONTINUOUS
 10
362.7638906736
 20
31.6554672165
 11
362.8217029531
 21
31.7199944276
 12
363.4576406736
 22
31.7199944276
 13
363.4576406736
 23
31.7199944276
  0
SOLID
  8
0
 62
7
  6
CONTINUOUS
 10
364.1513903428
 20
31.6554672165
 11
364.0357657839
 21
31.6877312092
 12
364.4404530634
 22
31.6877312092
 13
364.4404530634
 23
31.6877312092
  0
SOLID
  8
0
 62
7
  6
CONTINUOUS
 10
364.1513903428
 20
31.6554672165
 11
364.4404530634
 21
31.6877312092
 12
364.2092032839
 22
31.5909400053
 13
364.2092032839
 23
31.5909400053
  0
SOLID
  8
0
 62
7
  6
CONTINUOUS
 10
364.4404530634
 20
31.6877312092
 11
364.4982653428
 21
31.5909400053
 12
364.2092032839
 22
31.5909400053
 13
364.2092032839
 23
31.5909400053
  0
SOLID
  8
0
 62
7
  6
CONTINUOUS
 10
364.2092032839
 20
31.4941486131
 11
364.2092032839
 21
31.5909400053
 12
364.4982653428
 22
31.5909400053
 13
364.4982653428
 23
31.5909400053
  0
SOLID
  8
0
 62
7
  6
CONTINUOUS
 10
364.2092032839
 20
31.4941486131
 11
364.4982653428
 21
31.5909400053
 12
364.2092032839
 22
31.3650944328
 13
364.2092032839
 23
31.3650944328
  0
SOLID
  8
0
 62
7
  6
CONTINUOUS
 10
364.2092032839
 20
31.3650944328
 11
364.4982653428
 21
31.5909400053
 12
364.2092032839
 22
31.1715120759
 13
364.2092032839
 23
31.1715120759
  0
SOLID
  8
0
 62
7
  6
CONTINUOUS
 10
364.4982653428
 20
31.5909400053
 11
364.4982653428
 21
31.0747202524
 12
364.2092032839
 22
31.1715120759
 13
364.2092032839
 23
31.1715120759
  0
SOLID
  8
0
 62
7
  6
CONTINUOUS
 10
366.4060778428
 20
31.8167851023
 11
366.6373282839
 21
31.849049822
 12
366.8685780634
 22
31.849049822
 13
366.8685780634
 23
31.849049822
  0
SOLID
  8
0
 62
7
  6
CONTINUOUS
 10
366.8685780634
 20
31.849049822
 11
367.0420155634
 21
31.8167851023
 12
366.4060778428
 22
31.8167851023
 13
366.4060778428
 23
31.8167851023
  0
SOLID
  8
0
 62
7
  6
CONTINUOUS
 10
366.2326403428
 20
31.7522587602
 11
366.4060778428
 21
31.8167851023
 12
367.0420155634
 22
31.8167851023
 13
367.0420155634
 23
31.8167851023
  0
SOLID
  8
0
 62
7
  6
CONTINUOUS
 10
367.0420155634
 20
31.8167851023
 11
367.2154530634
 21
31.7522587602
 12
366.2326403428
 22
31.7522587602
 13
366.2326403428
 23
31.7522587602
  0
SOLID
  8
0
 62
7
  6
CONTINUOUS
 10
367.2154530634
 20
31.7522587602
 11
366.6373282839
 21
31.7199941869
 12
366.2326403428
 22
31.7522587602
 13
366.2326403428
 23
31.7522587602
  0
SOLID
  8
0
 62
7
  6
CONTINUOUS
 10
366.1170157839
 20
31.6877313857
 11
366.2326403428
 21
31.7522587602
 12
366.6373282839
 22
31.7199941869
 13
366.6373282839
 23
31.7199941869
  0
SOLID
  8
0
 62
7
  6
CONTINUOUS
 10
366.6373282839
 20
31.7199941869
 11
366.4060778428
 21
31.6877313857
 12
366.1170157839
 22
31.6877313857
 13
366.1170157839
 23
31.6877313857
  0
SOLID
  8
0
 62
7
  6
CONTINUOUS
 10
366.6373282839
 20
31.7199941869
 11
367.2154530634
 21
31.7522587602
 12
366.8685780634
 22
31.6877313857
 13
366.8685780634
 23
31.6877313857
  0
SOLID
  8
0
 62
7
  6
CONTINUOUS
 10
367.2154530634
 20
31.7522587602
 11
367.3310782839
 21
31.6877313857
 12
366.8685780634
 22
31.6877313857
 13
366.8685780634
 23
31.6877313857
  0
SOLID
  8
0
 62
7
  6
CONTINUOUS
 10
366.9842032839
 20
31.6554670967
 11
366.8685780634
 21
31.6877313857
 12
367.3310782839
 22
31.6877313857
 13
367.3310782839
 23
31.6877313857
  0
SOLID
  8
0
 62
7
  6
CONTINUOUS
 10
366.9842032839
 20
31.6554670967
 11
367.3310782839
 21
31.6877313857
 12
367.0998278428
 22
31.590940324
 13
367.0998278428
 23
31.590940324
  0
SOLID
  8
0
 62
7
  6
CONTINUOUS
 10
367.3310782839
 20
31.6877313857
 11
367.3888905634
 21
31.590940324
 12
367.0998278428
 22
31.590940324
 13
367.0998278428
 23
31.590940324
  0
SOLID
  8
0
 62
7
  6
CONTINUOUS
 10
367.1576407839
 20
31.4296218878
 11
367.0998278428
 21
31.590940324
 12
367.3888905634
 22
31.590940324
 13
367.3888905634
 23
31.590940324
  0
SOLID
  8
0
 62
7
  6
CONTINUOUS
 10
367.3888905634
 20
31.590940324
 11
367.4467028428
 21
31.4296218878
 12
367.1576407839
 22
31.4296218878
 13
367.1576407839
 23
31.4296218878
  0
SOLID
  8
0
 62
7
  6
CONTINUOUS
 10
366.4060778428
 20
31.6877313857
 11
366.2326403428
 21
31.6232043098
 12
366.1170157839
 22
31.6877313857
 13
366.1170157839
 23
31.6877313857
  0
SOLID
  8
0
 62
7
  6
CONTINUOUS
 10
366.2326403428
 20
31.6232043098
 11
366.1170157839
 21
31.5586757033
 12
366.1170157839
 22
31.6877313857
 13
366.1170157839
 23
31.6877313857
  0
SOLID
  8
0
 62
7
  6
CONTINUOUS
 10
366.1170157839
 20
31.5586757033
 11
365.8279530634
 21
30.8166118302
 12
366.1170157839
 22
31.6877313857
 13
366.1170157839
 23
31.6877313857
  0
SOLID
  8
0
 62
7
  6
CONTINUOUS
 10
366.1170157839
 20
31.6877313857
 11
365.8279530634
 21
30.8166118302
 12
366.1170157839
 22
31.849049822
 13
366.1170157839
 23
31.849049822
  0
SOLID
  8
0
 62
7
  6
CONTINUOUS
 10
365.8279530634
 20
30.8166118302
 11
365.8279530634
 21
31.849049822
 12
366.1170157839
 22
31.849049822
 13
366.1170157839
 23
31.849049822
  0
SOLID
  8
0
 62
7
  6
CONTINUOUS
 10
366.1170157839
 20
31.5586757033
 11
366.1170157839
 21
30.8166118302
 12
365.8279530634
 22
30.8166118302
 13
365.8279530634
 23
30.8166118302
  0
SOLID
  8
0
 62
7
  6
CONTINUOUS
 10
367.1576407839
 20
30.8166118302
 11
367.1576407839
 21
31.4296218878
 12
367.4467028428
 22
31.4296218878
 13
367.4467028428
 23
31.4296218878
  0
SOLID
  8
0
 62
7
  6
CONTINUOUS
 10
367.4467028428
 20
31.4296218878
 11
367.4467028428
 21
30.8166118302
 12
367.1576407839
 22
30.8166118302
 13
367.1576407839
 23
30.8166118302
  0
SOLID
  8
0
 62
7
  6
CONTINUOUS
 10
368.2560780634
 20
31.8167856056
 11
368.6029530634
 21
31.8490498552
 12
368.9498280634
 22
31.8490498552
 13
368.9498280634
 23
31.8490498552
  0
SOLID
  8
0
 62
7
  6
CONTINUOUS
 10
368.9498280634
 20
31.8490498552
 11
369.2967030634
 21
31.8167856056
 12
368.2560780634
 22
31.8167856056
 13
368.2560780634
 23
31.8167856056
  0
SOLID
  8
0
 62
7
  6
CONTINUOUS
 10
368.0248282839
 20
31.7522584901
 11
368.2560780634
 21
31.8167856056
 12
369.2967030634
 22
31.8167856056
 13
369.2967030634
 23
31.8167856056
  0
SOLID
  8
0
 62
7
  6
CONTINUOUS
 10
368.0248282839
 20
31.7522584901
 11
369.2967030634
 21
31.8167855803
 12
369.4701405634
 22
31.7845227934
 13
369.4701405634
 23
31.7845227934
  0
SOLID
  8
0
 62
7
  6
CONTINUOUS
 10
368.0248282839
 20
31.7522584901
 11
369.4701405634
 21
31.7845227934
 12
368.6029530634
 22
31.7199941235
 13
368.6029530634
 23
31.7199941235
  0
SOLID
  8
0
 62
7
  6
CONTINUOUS
 10
368.6029530634
 20
31.7199941235
 11
369.4701405634
 21
31.7845227934
 12
368.9498280634
 22
31.7199941235
 13
368.9498280634
 23
31.7199941235
  0
SOLID
  8
0
 62
7
  6
CONTINUOUS
 10
369.4701405634
 20
31.7845227934
 11
369.6435780634
 21
31.7199941235
 12
368.9498280634
 22
31.7199941235
 13
368.9498280634
 23
31.7199941235
  0
SOLID
  8
0
 62
7
  6
CONTINUOUS
 10
369.2967030634
 20
31.6877314
 11
368.9498280634
 21
31.7199941235
 12
369.6435780634
 22
31.7199941235
 13
369.6435780634
 23
31.7199941235
  0
SOLID
  8
0
 62
7
  6
CONTINUOUS
 10
367.9092030634
 20
31.6554671071
 11
368.0248282839
 21
31.7522584901
 12
368.6029530634
 22
31.7199941235
 13
368.6029530634
 23
31.7199941235
  0
SOLID
  8
0
 62
7
  6
CONTINUOUS
 10
369.2967030634
 20
31.6877314
 11
369.6435780634
 21
31.7199941235
 12
369.4123282839
 22
31.6554671071
 13
369.4123282839
 23
31.6554671071
  0
SOLID
  8
0
 62
7
  6
CONTINUOUS
 10
369.4123282839
 20
31.6554671071
 11
369.6435780634
 21
31.7199941235
 12
369.4701405634
 22
31.5909400907
 13
369.4701405634
 23
31.5909400907
  0
SOLID
  8
0
 62
7
  6
CONTINUOUS
 10
369.6435780634
 20
31.7199941235
 11
369.7592026223
 21
31.5909400907
 12
369.4701405634
 22
31.5909400907
 13
369.4701405634
 23
31.5909400907
  0
SOLID
  8
0
 62
7
  6
CONTINUOUS
 10
359.0638905634
 20
31.6877314
 11
358.5435780634
 21
31.6554670789
 12
359.2951405909
 22
31.7199941045
 13
359.2951405909
 23
31.7199941045
  0
SOLID
  8
0
 62
7
  6
CONTINUOUS
 10
358.5435780634
 20
31.6554670789
 11
358.6592030565
 21
31.7199941045
 12
359.2951405909
 22
31.7199941045
 13
359.2951405909
 23
31.7199941045
  0
SOLID
  8
0
 62
7
  6
CONTINUOUS
 10
359.0638905634
 20
31.6877314
 11
358.9482655496
 21
31.6554670789
 12
358.5435780634
 22
31.6554670789
 13
358.5435780634
 23
31.6554670789
  0
SOLID
  8
0
 62
7
  6
CONTINUOUS
 10
358.4279530651
 20
31.5264129164
 11
358.5435780634
 21
31.6554670789
 12
358.9482655496
 22
31.6554670789
 13
358.9482655496
 23
31.6554670789
  0
SOLID
  8
0
 62
7
  6
CONTINUOUS
 10
362.7638906736
 20
31.6554670789
 11
363.4576406736
 21
31.7199941869
 12
363.2263905634
 22
31.6877314
 13
363.2263905634
 23
31.6877314
  0
SOLID
  8
0
 62
7
  6
CONTINUOUS
 10
363.2263905634
 20
31.6877314
 11
363.1107656736
 21
31.6554670789
 12
362.7638906736
 22
31.6554670789
 13
362.7638906736
 23
31.6554670789
  0
SOLID
  8
0
 62
7
  6
CONTINUOUS
 10
362.7638906736
 20
31.5909399887
 11
362.7638906736
 21
31.6554670789
 12
363.1107656736
 22
31.6554670789
 13
363.1107656736
 23
31.6554670789
  0
SOLID
  8
0
 62
7
  6
CONTINUOUS
 10
363.1107656736
 20
31.6554670789
 11
363.0529530634
 21
31.5909399887
 12
362.7638906736
 22
31.5909399887
 13
362.7638906736
 23
31.5909399887
  0
SOLID
  8
0
 62
7
  6
CONTINUOUS
 10
367.9092030634
 20
31.6554670789
 11
368.6029530634
 21
31.7199941869
 12
368.3717032839
 22
31.6877314
 13
368.3717032839
 23
31.6877314
  0
SOLID
  8
0
 62
7
  6
CONTINUOUS
 10
368.3717032839
 20
31.6877314
 11
368.2560780634
 21
31.6554670789
 12
367.9092030634
 22
31.6554670789
 13
367.9092030634
 23
31.6554670789
  0
SOLID
  8
0
 62
7
  6
CONTINUOUS
 10
367.9092030634
 20
31.5909399887
 11
367.9092030634
 21
31.6554670789
 12
368.2560780634
 22
31.6554670789
 13
368.2560780634
 23
31.6554670789
  0
SOLID
  8
0
 62
7
  6
CONTINUOUS
 10
368.2560780634
 20
31.6554670789
 11
368.1982657839
 21
31.5909399887
 12
367.9092030634
 22
31.5909399887
 13
367.9092030634
 23
31.5909399887
  0
SOLID
  8
0
 62
7
  6
CONTINUOUS
 10
368.0248282839
 20
31.4618858262
 11
367.9092030634
 21
31.5909399887
 12
368.1982657839
 22
31.5909399887
 13
368.1982657839
 23
31.5909399887
  0
SOLID
  8
0
 62
7
  6
CONTINUOUS
 10
358.4279530651
 20
31.5264129164
 11
358.9482655496
 21
31.6554670967
 12
358.7748280496
 22
31.5586757033
 13
358.7748280496
 23
31.5586757033
  0
SOLID
  8
0
 62
7
  6
CONTINUOUS
 10
358.7748280496
 20
31.5586757033
 11
358.7170155634
 21
31.4941486131
 12
358.4279530651
 22
31.5264129164
 13
358.4279530651
 23
31.5264129164
  0
SOLID
  8
0
 62
7
  6
CONTINUOUS
 10
358.3701405634
 20
31.3328301295
 11
358.4279530651
 21
31.5264129164
 12
358.7170155634
 22
31.4941486131
 13
358.7170155634
 23
31.4941486131
  0
SOLID
  8
0
 62
7
  6
CONTINUOUS
 10
363.2263905634
 20
31.4618858262
 11
363.5732655634
 21
31.4941485791
 12
364.2092032839
 22
31.4941485791
 13
364.2092032839
 23
31.4941485791
  0
SOLID
  8
0
 62
7
  6
CONTINUOUS
 10
363.2263905634
 20
31.4618858262
 11
364.2092032839
 21
31.4941485791
 12
362.9951404531
 22
31.397357926
 13
362.9951404531
 23
31.397357926
  0
SOLID
  8
0
 62
7
  6
CONTINUOUS
 10
362.9951404531
 20
31.397357926
 11
364.2092032839
 21
31.4941485791
 12
363.5732655634
 22
31.3650943988
 13
363.5732655634
 23
31.3650943988
  0
SOLID
  8
0
 62
7
  6
CONTINUOUS
 10
364.2092032839
 20
31.4941485791
 11
364.2092032839
 21
31.3650943988
 12
363.5732655634
 22
31.3650943988
 13
363.5732655634
 23
31.3650943988
  0
SOLID
  8
0
 62
7
  6
CONTINUOUS
 10
368.0248282839
 20
31.4618859165
 11
368.1982657839
 21
31.5909400065
 12
368.2560780634
 22
31.5264129164
 13
368.2560780634
 23
31.5264129164
  0
SOLID
  8
0
 62
7
  6
CONTINUOUS
 10
368.2560780634
 20
31.5264129164
 11
368.4295155634
 21
31.4618859165
 12
368.0248282839
 22
31.4618859165
 13
368.0248282839
 23
31.4618859165
  0
SOLID
  8
0
 62
7
  6
CONTINUOUS
 10
368.2560780634
 20
31.3650944328
 11
368.0248282839
 21
31.4618859165
 12
368.4295155634
 22
31.4618859165
 13
368.4295155634
 23
31.4618859165
  0
SOLID
  8
0
 62
7
  6
CONTINUOUS
 10
368.4295155634
 20
31.4618859165
 11
369.4123282839
 21
31.3005673426
 12
368.2560780634
 22
31.3650944328
 13
368.2560780634
 23
31.3650944328
  0
SOLID
  8
0
 62
7
  6
CONTINUOUS
 10
369.2388907839
 20
31.2037760287
 11
368.2560780634
 21
31.3650944328
 12
369.4123282839
 22
31.3005673426
 13
369.4123282839
 23
31.3005673426
  0
SOLID
  8
0
 62
7
  6
CONTINUOUS
 10
369.4123282839
 20
31.3005673426
 11
369.6435780634
 21
31.2037760287
 12
369.2388907839
 22
31.2037760287
 13
369.2388907839
 23
31.2037760287
  0
SOLID
  8
0
 62
7
  6
CONTINUOUS
 10
369.4123282839
 20
31.139248859
 11
369.2388907839
 21
31.2037760287
 12
369.6435780634
 22
31.2037760287
 13
369.6435780634
 23
31.2037760287
  0
SOLID
  8
0
 62
7
  6
CONTINUOUS
 10
369.4123282839
 20
31.139248859
 11
369.6435780634
 21
31.2037760287
 12
369.4701405634
 22
31.0747203105
 13
369.4701405634
 23
31.0747203105
  0
SOLID
  8
0
 62
7
  6
CONTINUOUS
 10
369.6435780634
 20
31.2037760287
 11
369.7592026223
 21
31.0747203105
 12
369.4701405634
 22
31.0747203105
 13
369.4701405634
 23
31.0747203105
  0
SOLID
  8
0
 62
7
  6
CONTINUOUS
 10
369.4123282839
 20
31.0101932257
 11
369.4701405634
 21
31.0747203105
 12
369.7592026223
 22
31.0747203105
 13
369.7592026223
 23
31.0747203105
  0
SOLID
  8
0
 62
7
  6
CONTINUOUS
 10
369.7592026223
 20
31.0747203105
 11
369.7592026223
 21
31.0101932257
 12
369.4123282839
 22
31.0101932257
 13
369.4123282839
 23
31.0101932257
  0
SOLID
  8
0
 62
7
  6
CONTINUOUS
 10
369.2967030634
 20
30.9779303754
 11
369.4123282839
 21
31.0101932257
 12
369.7592026223
 22
31.0101932257
 13
369.7592026223
 23
31.0101932257
  0
SOLID
  8
0
 62
7
  6
CONTINUOUS
 10
369.2967030634
 20
30.9779303754
 11
369.7592026223
 21
31.0101932257
 12
369.0654532839
 22
30.9456661409
 13
369.0654532839
 23
30.9456661409
  0
SOLID
  8
0
 62
7
  6
CONTINUOUS
 10
369.7592026223
 20
31.0101932257
 11
369.6435780634
 21
30.9134032852
 12
369.0654532839
 22
30.9456661409
 13
369.0654532839
 23
30.9456661409
  0
SOLID
  8
0
 62
7
  6
CONTINUOUS
 10
369.6435780634
 20
30.9134032852
 11
368.1982657839
 21
30.8811389819
 12
369.0654532839
 22
30.9456661409
 13
369.0654532839
 23
30.9456661409
  0
SOLID
  8
0
 62
7
  6
CONTINUOUS
 10
369.0654532839
 20
30.9456661409
 11
368.1982657839
 21
30.8811389819
 12
368.7185782839
 22
30.9456661409
 13
368.7185782839
 23
30.9456661409
  0
SOLID
  8
0
 62
7
  6
CONTINUOUS
 10
368.1982657839
 20
30.8811389819
 11
368.0248282839
 21
30.9456661409
 12
368.7185782839
 22
30.9456661409
 13
368.7185782839
 23
30.9456661409
  0
SOLID
  8
0
 62
7
  6
CONTINUOUS
 10
368.1982657839
 20
30.8811389819
 11
369.6435780634
 21
30.9134032852
 12
368.3717032839
 22
30.8488743522
 13
368.3717032839
 23
30.8488743522
  0
SOLID
  8
0
 62
7
  6
CONTINUOUS
 10
369.6435780634
 20
30.9134032852
 11
369.4123282839
 21
30.8488743522
 12
368.3717032839
 22
30.8488743522
 13
368.3717032839
 23
30.8488743522
  0
SOLID
  8
0
 62
7
  6
CONTINUOUS
 10
368.7185782839
 20
30.8166119713
 11
368.3717032839
 21
30.8488743522
 12
369.4123282839
 22
30.8488743522
 13
369.4123282839
 23
30.8488743522
  0
SOLID
  8
0
 62
7
  6
CONTINUOUS
 10
369.4123282839
 20
30.8488743522
 11
369.0654532839
 21
30.8166119713
 12
368.7185782839
 22
30.8166119713
 13
368.7185782839
 23
30.8166119713
  0
SOLID
  8
0
 62
7
  6
CONTINUOUS
 10
358.3701405634
 20
31.3328301295
 11
358.7170155634
 21
31.4941486131
 12
358.6592030565
 22
31.3650944328
 13
358.6592030565
 23
31.3650944328
  0
SOLID
  8
0
 62
7
  6
CONTINUOUS
 10
358.6592030565
 20
31.3650944328
 11
358.6592030565
 21
31.2683031351
 12
358.3701405634
 22
31.3328301295
 13
358.3701405634
 23
31.3328301295
  0
SOLID
  8
0
 62
7
  6
CONTINUOUS
 10
358.4279530651
 20
31.139248859
 11
358.3701405634
 21
31.3328301295
 12
358.6592030565
 22
31.2683031351
 13
358.6592030565
 23
31.2683031351
  0
SOLID
  8
0
 62
7
  6
CONTINUOUS
 10
358.6592030565
 20
31.2683031351
 11
358.7748280496
 21
31.1069845557
 12
358.4279530651
 22
31.139248859
 13
358.4279530651
 23
31.139248859
  0
SOLID
  8
0
 62
7
  6
CONTINUOUS
 10
358.5435780634
 20
31.0101931569
 11
358.4279530651
 21
31.139248859
 12
358.7748280496
 22
31.1069845557
 13
358.7748280496
 23
31.1069845557
  0
SOLID
  8
0
 62
7
  6
CONTINUOUS
 10
358.7748280496
 20
31.1069845557
 11
358.9482655496
 21
31.0101931569
 12
358.5435780634
 22
31.0101931569
 13
358.5435780634
 23
31.0101931569
  0
SOLID
  8
0
 62
7
  6
CONTINUOUS
 10
358.6592030565
 20
30.9456659241
 11
358.5435780634
 21
31.0101931569
 12
358.9482655496
 22
31.0101931569
 13
358.9482655496
 23
31.0101931569
  0
SOLID
  8
0
 62
7
  6
CONTINUOUS
 10
358.9482655496
 20
31.0101931569
 11
359.2951405909
 21
30.9456659241
 12
358.6592030565
 22
30.9456659241
 13
358.6592030565
 23
30.9456659241
  0
SOLID
  8
0
 62
7
  6
CONTINUOUS
 10
358.8326405772
 20
30.8811389819
 11
358.6592030565
 21
30.9456659241
 12
359.2951405909
 22
30.9456659241
 13
359.2951405909
 23
30.9456659241
  0
SOLID
  8
0
 62
7
  6
CONTINUOUS
 10
362.8795155634
 20
31.3328301325
 11
362.9951404531
 21
31.397357926
 12
363.5732655634
 22
31.3650944328
 13
363.5732655634
 23
31.3650944328
  0
SOLID
  8
0
 62
7
  6
CONTINUOUS
 10
363.5732655634
 20
31.3650944328
 11
363.3420154531
 21
31.3328301325
 12
362.8795155634
 22
31.3328301325
 13
362.8795155634
 23
31.3328301325
  0
SOLID
  8
0
 62
7
  6
CONTINUOUS
 10
362.7638906736
 20
31.2037759492
 11
362.8795155634
 21
31.3328301325
 12
363.3420154531
 22
31.3328301325
 13
363.3420154531
 23
31.3328301325
  0
SOLID
  8
0
 62
7
  6
CONTINUOUS
 10
363.1107656736
 20
31.2360394487
 11
362.7638906736
 21
31.2037759492
 12
363.2263905634
 22
31.3005673426
 13
363.2263905634
 23
31.3005673426
  0
SOLID
  8
0
 62
7
  6
CONTINUOUS
 10
362.7638906736
 20
31.2037759492
 11
363.3420154531
 21
31.3328301295
 12
363.2263905634
 22
31.3005673426
 13
363.2263905634
 23
31.3005673426
  0
SOLID
  8
0
 62
7
  6
CONTINUOUS
 10
363.1107656736
 20
31.2360394487
 11
363.0529530634
 21
31.139248859
 12
362.7638906736
 22
31.2037759492
 13
362.7638906736
 23
31.2037759492
  0
SOLID
  8
0
 62
7
  6
CONTINUOUS
 10
362.7638906736
 20
31.1069845557
 11
362.7638906736
 21
31.2037759492
 12
363.0529530634
 22
31.139248859
 13
363.0529530634
 23
31.139248859
  0
SOLID
  8
0
 62
7
  6
CONTINUOUS
 10
363.0529530634
 20
31.139248859
 11
363.0529530634
 21
31.0747202524
 12
362.7638906736
 22
31.1069845557
 13
362.7638906736
 23
31.1069845557
  0
SOLID
  8
0
 62
7
  6
CONTINUOUS
 10
362.8217029531
 20
30.9779303754
 11
362.7638906736
 21
31.1069845557
 12
363.0529530634
 22
31.0747202524
 13
363.0529530634
 23
31.0747202524
  0
SOLID
  8
0
 62
7
  6
CONTINUOUS
 10
364.2092032839
 20
31.1715120759
 11
364.4982653428
 21
31.0747202524
 12
364.1513903428
 22
31.1069845557
 13
364.1513903428
 23
31.1069845557
  0
SOLID
  8
0
 62
7
  6
CONTINUOUS
 10
363.9779528428
 20
31.0101931623
 11
364.1513903428
 21
31.1069845557
 12
364.4982653428
 22
31.0747202524
 13
364.4982653428
 23
31.0747202524
  0
SOLID
  8
0
 62
7
  6
CONTINUOUS
 10
363.9779528428
 20
31.0101931623
 11
364.4982653428
 21
31.0747202524
 12
364.2092032839
 22
30.9779303754
 13
364.2092032839
 23
30.9779303754
  0
SOLID
  8
0
 62
7
  6
CONTINUOUS
 10
364.4982653428
 20
31.0747202524
 11
364.5560782839
 21
30.9134032852
 12
364.2092032839
 22
30.9779303754
 13
364.2092032839
 23
30.9779303754
  0
SOLID
  8
0
 62
7
  6
CONTINUOUS
 10
364.2670155634
 20
30.8811389819
 11
364.2092032839
 21
30.9779303754
 12
364.5560782839
 22
30.9134032852
 13
364.5560782839
 23
30.9134032852
  0
SOLID
  8
0
 62
7
  6
CONTINUOUS
 10
364.2670155634
 20
30.8811389819
 11
364.5560782839
 21
30.9134032852
 12
364.3248278428
 22
30.816611867
 13
364.3248278428
 23
30.816611867
  0
SOLID
  8
0
 62
7
  6
CONTINUOUS
 10
364.5560782839
 20
30.9134032852
 11
364.6138905634
 21
30.816611867
 12
364.3248278428
 22
30.816611867
 13
364.3248278428
 23
30.816611867
  0
SOLID
  8
0
 62
7
  6
CONTINUOUS
 10
359.8732656185
 20
31.0424573076
 11
359.9310780634
 21
31.1392488159
 12
360.2201406185
 22
31.1392488159
 13
360.2201406185
 23
31.1392488159
  0
SOLID
  8
0
 62
7
  6
CONTINUOUS
 10
360.2201406185
 20
31.1392488159
 11
360.1623280082
 21
31.0101931623
 12
359.8732656185
 22
31.0424573076
 13
359.8732656185
 23
31.0424573076
  0
SOLID
  8
0
 62
7
  6
CONTINUOUS
 10
359.6998280358
 20
30.9779303754
 11
359.8732656185
 21
31.0424573076
 12
360.1623280082
 22
31.0101931623
 13
360.1623280082
 23
31.0101931623
  0
SOLID
  8
0
 62
7
  6
CONTINUOUS
 10
359.6998280358
 20
30.9779303754
 11
360.1623280082
 21
31.0101931623
 12
359.2951405909
 22
30.9456660721
 13
359.2951405909
 23
30.9456660721
  0
SOLID
  8
0
 62
7
  6
CONTINUOUS
 10
360.1623280082
 20
31.0101931623
 11
359.9888905082
 21
30.9134032852
 12
359.2951405909
 22
30.9456660721
 13
359.2951405909
 23
30.9456660721
  0
SOLID
  8
0
 62
7
  6
CONTINUOUS
 10
358.8326405772
 20
30.8811389819
 11
359.2951405909
 21
30.9456660721
 12
359.9888905082
 22
30.9134032852
 13
359.9888905082
 23
30.9134032852
  0
SOLID
  8
0
 62
7
  6
CONTINUOUS
 10
358.8326405772
 20
30.8811389819
 11
359.9888905082
 21
30.9134032852
 12
359.0060780772
 22
30.8488745775
 13
359.0060780772
 23
30.8488745775
  0
SOLID
  8
0
 62
7
  6
CONTINUOUS
 10
359.9888905082
 20
30.9134032852
 11
359.7576405634
 21
30.8488745775
 12
359.0060780772
 22
30.8488745775
 13
359.0060780772
 23
30.8488745775
  0
SOLID
  8
0
 62
7
  6
CONTINUOUS
 10
359.3529530358
 20
30.8166118918
 11
359.0060780772
 21
30.8488745775
 12
359.7576405634
 22
30.8488745775
 13
359.7576405634
 23
30.8488745775
  0
SOLID
  8
0
 62
7
  6
CONTINUOUS
 10
362.8217029531
 20
30.9779303754
 11
363.0529530634
 21
31.0747202524
 12
363.1107656736
 22
31.0101931623
 13
363.1107656736
 23
31.0101931623
  0
SOLID
  8
0
 62
7
  6
CONTINUOUS
 10
363.1107656736
 20
31.0101931623
 11
363.3420154531
 21
30.9456660721
 12
362.8217029531
 22
30.9779303754
 13
362.8217029531
 23
30.9779303754
  0
SOLID
  8
0
 62
7
  6
CONTINUOUS
 10
362.9951404531
 20
30.8811389819
 11
362.8217029531
 21
30.9779303754
 12
363.3420154531
 22
30.9456660721
 13
363.3420154531
 23
30.9456660721
  0
SOLID
  8
0
 62
7
  6
CONTINUOUS
 10
363.6888904531
 20
30.9456661188
 11
363.9779528428
 21
31.0101931623
 12
364.2092032839
 22
30.9779303754
 13
364.2092032839
 23
30.9779303754
  0
SOLID
  8
0
 62
7
  6
CONTINUOUS
 10
364.2092032839
 20
30.9779303754
 11
364.1513903428
 21
30.9134032852
 12
363.6888904531
 22
30.9456661188
 13
363.6888904531
 23
30.9456661188
  0
SOLID
  8
0
 62
7
  6
CONTINUOUS
 10
364.1513903428
 20
30.9134032852
 11
362.9951404531
 21
30.8811389819
 12
363.6888904531
 22
30.9456661188
 13
363.6888904531
 23
30.9456661188
  0
SOLID
  8
0
 62
7
  6
CONTINUOUS
 10
362.9951404531
 20
30.8811389819
 11
363.3420154531
 21
30.9456661188
 12
363.6888904531
 22
30.9456661188
 13
363.6888904531
 23
30.9456661188
  0
SOLID
  8
0
 62
7
  6
CONTINUOUS
 10
362.9951404531
 20
30.8811389819
 11
364.1513903428
 21
30.9134032852
 12
363.1107656736
 22
30.8488747093
 13
363.1107656736
 23
30.8488747093
  0
SOLID
  8
0
 62
7
  6
CONTINUOUS
 10
364.1513903428
 20
30.9134032852
 11
363.9779528428
 21
30.8488747093
 12
363.1107656736
 22
30.8488747093
 13
363.1107656736
 23
30.8488747093
  0
SOLID
  8
0
 62
7
  6
CONTINUOUS
 10
363.3420154531
 20
30.816611874
 11
363.1107656736
 21
30.8488747093
 12
363.9779528428
 22
30.8488747093
 13
363.9779528428
 23
30.8488747093
  0
SOLID
  8
0
 62
7
  6
CONTINUOUS
 10
363.9779528428
 20
30.8488747093
 11
363.6888904531
 21
30.816611874
 12
363.3420154531
 22
30.816611874
 13
363.3420154531
 23
30.816611874
  0
SOLID
  8
0
 62
7
  6
CONTINUOUS
 10
368.3717032839
 20
30.9779303754
 11
368.0248282839
 21
30.9456661188
 12
368.2560780634
 22
31.0101931623
 13
368.2560780634
 23
31.0101931623
  0
SOLID
  8
0
 62
7
  6
CONTINUOUS
 10
368.2560780634
 20
31.0101931623
 11
368.0248282839
 21
30.9456661188
 12
368.1982657839
 22
31.0747202992
 13
368.1982657839
 23
31.0747202992
  0
SOLID
  8
0
 62
7
  6
CONTINUOUS
 10
368.0248282839
 20
30.9456661188
 11
367.9092030634
 21
31.0747202992
 12
368.1982657839
 22
31.0747202992
 13
368.1982657839
 23
31.0747202992
  0
SOLID
  8
0
 62
7
  6
CONTINUOUS
 10
368.3717032839
 20
30.9779303754
 11
368.7185782839
 21
30.9456661188
 12
368.0248282839
 22
30.9456661188
 13
368.0248282839
 23
30.9456661188
  0
SOLID
  8
0
 62
7
  6
CONTINUOUS
 10
365.0763907839
 20
30.8166118918
 11
365.0763907839
 21
31.8490498836
 12
365.3654528428
 22
30.8166118918
 13
365.3654528428
 23
31.8490498836
  0
ENDBLK
  8
0
  6
BYBLOCK
 62
0
  0
BLOCK
  8
0
 62
2
  6
CONTINUOUS
  2
SYMBOL_0_BL0
 70
64
 10
241.0459637928
 20
19.6790146053
  0
TEXT
  8
0
 62
7
  6
CONTINUOUS
 10
227.3106676351
 20
19.0524287129
  7
TEXTSTYLE_3
 40
2.7338706658
  1
Ammeraal Beltech
 41
1.0
 51
15.0
 72
0
  0
TEXT
  8
0
 62
7
  6
CONTINUOUS
 10
238.1114684608
 20
16.7788920401
  7
TEXTSTYLE_4
 40
1.0935482663
  1
Innovation & Service in Belting
 41
1.0
 72
0
  0
LINE
  8
0
 62
7
  6
CONTINUOUS
 10
221.2861269837
 20
19.8190220215
 11
222.0642789771
 21
23.4799393191
  0
LINE
  8
0
 62
7
  6
CONTINUOUS
 10
232.1594472669
 20
27.1433332308
 11
222.5520967201
 21
24.0217158095
  0
LINE
  8
0
 62
7
  6
CONTINUOUS
 10
221.511410316
 20
19.1256712184
 11
229.0184855772
 21
12.3662702925
  0
LINE
  8
0
 62
7
  6
CONTINUOUS
 10
221.7739447268
 20
20.3607985118
 11
232.5822140919
 21
23.8726181108
  0
LINE
  8
0
 62
7
  6
CONTINUOUS
 10
232.5780089548
 20
13.522829547
 11
224.132549286
 21
21.1271555887
  0
LINE
  8
0
 62
7
  6
CONTINUOUS
 10
233.0978316746
 20
26.298408115
 11
232.1212721373
 21
21.7040567125
  0
LINE
  8
0
 62
7
  6
CONTINUOUS
 10
231.4214701896
 20
18.4117473987
 11
230.7350219782
 21
15.1822624744
  0
LINE
  8
0
 62
7
  6
CONTINUOUS
 10
233.7789277731
 20
13.9130317247
 11
234.7351593087
 21
18.4117473987
  0
LINE
  8
0
 62
7
  6
CONTINUOUS
 10
235.4349612564
 20
21.7040567125
 11
235.8792030588
 21
23.7940500719
  0
LINE
  8
0
 62
7
  6
CONTINUOUS
 10
229.7315866525
 20
12.2146959798
 11
233.2911100301
 21
13.3712552343
  0
LINE
  8
0
 62
7
  6
CONTINUOUS
 10
232.8725483422
 20
26.9917589181
 11
235.6539197265
 21
24.487400875
  0
ARC
  8
0
 62
7
  6
CONTINUOUS
 10
222.7773800524
 20
23.3283650064
 40
0.7290321776
 50
108.0
 51
168.0
  0
ARC
  8
0
 62
7
  6
CONTINUOUS
 10
232.3847305992
 20
26.4499824277
 40
0.7290321776
 50
348.0
 51
108.0
  0
ARC
  8
0
 62
7
  6
CONTINUOUS
 10
235.1661019835
 20
23.9456243846
 40
0.7290321776
 50
348.0
 51
48.0
  0
ARC
  8
0
 62
7
  6
CONTINUOUS
 10
229.5063033202
 20
12.9080467828
 40
0.7290321776
 50
228.0
 51
288.0
  0
ARC
  8
0
 62
7
  6
CONTINUOUS
 10
221.9992280591
 20
19.6674477088
 40
0.7290321776
 50
108.0
 51
228.0
  0
ARC
  8
0
 62
7
  6
CONTINUOUS
 10
233.0658266978
 20
14.0646060374
 40
0.7290321776
 50
228.0
 51
348.0
  0
ENDBLK
  8
0
  6
BYBLOCK
 62
0
  0
ENDSEC
  0
SECTION
  2
ENTITIES
  0
TEXT
  8
0
 62
5
  6
CONTINUOUS
 10
304.937007874
 20
25.636
  7
TEXTSTYLE_2
 40
2.8
  1
Scale :
 41
0.6
 51
0.000019
 72
0
  0
TEXT
  8
0
 62
5
  6
CONTINUOUS
 10
324.937007874
 20
25.636
  7
TEXTSTYLE_2
 40
2.8
  1
Chain type:
 41
0.6
 51
0.000019
 72
0
  0
INSERT
  8
0
 62
2
  6
CONTINUOUS
  2
SYMBOL_0_BL0
 10
241.0459637928
 20
19.6790146053
  0
INSERT
  8
0
 62
2
  6
CONTINUOUS
  2
SYMBOL_5_BL1
 10
382.3920721743
 20
35.81661148
  0
LINE
  8
0
 62
2
  6
CONTINUOUS
 10
218.937007874
 20
30.0
 11
408.937007874
 21
30.0
  0
LINE
  8
0
 62
2
  6
CONTINUOUS
 10
218.937007874
 20
30.0
 11
218.937007874
 21
10.0
  0
LINE
  8
0
 62
2
  6
CONTINUOUS
 10
218.937007874
 20
10.0
 11
408.937007874
 21
10.0
  0
LINE
  8
0
 62
2
  6
CONTINUOUS
 10
303.937007874
 20
30.0
 11
303.937007874
 21
10.0
  0
LINE
  8
0
 62
2
  6
CONTINUOUS
 10
323.937007874
 20
30.0
 11
323.937007874
 21
10.0
  0
LINE
  8
0
 62
2
  6
CONTINUOUS
 10
408.937007874
 20
30.0
 11
408.937007874
 21
10.0
  0
TEXT
  8
0
 62
5
  6
CONTINUOUS
 10
221.937007874
 20
23.303
  7
TEXTSTYLE_5
 40
1.52
  1
                                                                     Ammeraal Beltech Modular A/S
 41
1.0
 72
0
  0
TEXT
  8
0
 62
5
  6
CONTINUOUS
 10
221.937007874
 20
20.595
  7
TEXTSTYLE_5
 40
1.5
  1
                                                                      Hjulmagervej 21, 7100 Vejle,  DK
 41
1.0
 72
0
  0
TEXT
  8
0
 62
5
  6
CONTINUOUS
 10
221.937007874
 20
17.881
  7
TEXTSTYLE_5
 40
1.495
  1
                                                                      tel: 
 41
1.0
 72
0
  0
TEXT
  8
0
 62
5
  6
CONTINUOUS
 10
266.9239544389
 20
17.881
  7
TEXTSTYLE_5
 40
1.51
  1
+45 75723100     fax: +45 75723348
 41
1.0
 72
0
  0
TEXT
  8
0
 62
5
  6
CONTINUOUS
 10
221.937007874
 20
15.177
  7
TEXTSTYLE_5
 40
1.5
  1
                                                                      admin@unichains.dk  www.unichains.com
 41
1.0
 72
0
  0
TEXT
  8
0
 62
5
  6
CONTINUOUS
 10
308.687007874
 20
13.75
  7
TEXTSTYLE_6
 40
5.0
  1
1:1
 41
0.7
 72
1
 11
313.937007874
 21
13.75
  0
TEXT
  8
0
 62
5
  6
CONTINUOUS
 10
326.937007874
 20
13.75
  7
TEXTSTYLE_7
 40
7.5
  1
uni 820 K450
 41
0.6902777778
 72
0
  0
LINE
  8
0
 62
7
  6
CONTINUOUS
 10
0.0
 20
0.0
 11
0.0
 21
297.0
  0
LINE
  8
0
 62
7
  6
CONTINUOUS
 10
8.937007874
 20
10.0
 11
8.937007874
 21
287.0
  0
LINE
  8
0
 62
7
  6
CONTINUOUS
 10
0.0
 20
0.0
 11
420.0
 21
0.0
  0
LINE
  8
0
 62
7
  6
CONTINUOUS
 10
408.937007874
 20
10.0
 11
8.937007874
 21
10.0
  0
LINE
  8
0
 62
7
  6
CONTINUOUS
 10
218.937007874
 20
30.0
 11
408.937007874
 21
30.0
  0
LINE
  8
0
 62
7
  6
CONTINUOUS
 10
210.0
 20
297.0
 11
210.0
 21
292.0
  0
LINE
  8
0
 62
7
  6
CONTINUOUS
 10
210.0
 20
0.0
 11
210.0
 21
5.0
  0
LINE
  8
0
 62
7
  6
CONTINUOUS
 10
8.937007874
 20
287.0
 11
408.937007874
 21
287.0
  0
LINE
  8
0
 62
7
  6
CONTINUOUS
 10
0.0
 20
297.0
 11
420.0
 21
297.0
  0
LINE
  8
0
 62
7
  6
CONTINUOUS
 10
408.937007874
 20
287.0
 11
408.937007874
 21
10.0
  0
LINE
  8
0
 62
7
  6
CONTINUOUS
 10
420.0
 20
0.0
 11
420.0
 21
297.0
  0
LINE
  8
0
 62
7
  6
CONTINUOUS
 10
74.0604508197
 20
187.1167260992
 11
74.0604508197
 21
153.8930326011
  0
POLYLINE
  8
0
 62
7
  6
CONTINUOUS
 66
1
 70
0
  0
VERTEX
  8
0
 62
7
  6
CONTINUOUS
 10
76.5391848567
 20
151.5540186605
  0
VERTEX
  8
0
 62
7
  6
CONTINUOUS
 10
76.5380015232
 20
151.5294983576
  0
VERTEX
  8
0
 62
7
  6
CONTINUOUS
 10
76.5370593273
 20
151.5051483641
  0
VERTEX
  8
0
 62
7
  6
CONTINUOUS
 10
76.5363533096
 20
151.4809712663
  0
VERTEX
  8
0
 62
7
  6
CONTINUOUS
 10
76.5358983485
 20
151.457026909
  0
VERTEX
  8
0
 62
7
  6
CONTINUOUS
 10
76.5357050428
 20
151.4333634237
  0
VERTEX
  8
0
 62
7
  6
CONTINUOUS
 10
76.5357812722
 20
151.4100088648
  0
VERTEX
  8
0
 62
7
  6
CONTINUOUS
 10
76.5361360096
 20
151.3869973323
  0
VERTEX
  8
0
 62
7
  6
CONTINUOUS
 10
76.5367765743
 20
151.3643516531
  0
VERTEX
  8
0
 62
7
  6
CONTINUOUS
 10
76.5377107743
 20
151.3420977189
  0
VERTEX
  8
0
 62
7
  6
CONTINUOUS
 10
76.5389461161
 20
151.3202546658
  0
VERTEX
  8
0
 62
7
  6
CONTINUOUS
 10
76.5404900585
 20
151.2988431554
  0
VERTEX
  8
0
 62
7
  6
CONTINUOUS
 10
76.5423505533
 20
151.2778795326
  0
VERTEX
  8
0
 62
7
  6
CONTINUOUS
 10
76.5445351454
 20
151.2573809233
  0
VERTEX
  8
0
 62
7
  6
CONTINUOUS
 10
76.5470525147
 20
151.2373611364
  0
VERTEX
  8
0
 62
7
  6
CONTINUOUS
 10
76.5499107221
 20
151.2178340966
  0
VERTEX
  8
0
 62
7
  6
CONTINUOUS
 10
76.5531191705
 20
151.1988124559
  0
VERTEX
  8
0
 62
7
  6
CONTINUOUS
 10
76.5566863742
 20
151.180308551
  0
VERTEX
  8
0
 62
7
  6
CONTINUOUS
 10
76.5606230602
 20
151.1623330201
  0
VERTEX
  8
0
 62
7
  6
CONTINUOUS
 10
76.5649386154
 20
151.1448961603
  0
VERTEX
  8
0
 62
7
  6
CONTINUOUS
 10
76.5696455744
 20
151.1280071996
  0
VERTEX
  8
0
 62
7
  6
CONTINUOUS
 10
76.5747546289
 20
151.1116747365
  0
VERTEX
  8
0
 62
7
  6
CONTINUOUS
 10
76.5802806937
 20
151.0959067723
  0
VERTEX
  8
0
 62
7
  6
CONTINUOUS
 10
76.5862362373
 20
151.080710411
  0
VERTEX
  8
0
 62
7
  6
CONTINUOUS
 10
76.5926392905
 20
151.0660925587
  0
VERTEX
  8
0
 62
7
  6
CONTINUOUS
 10
76.5995047987
 20
151.052058956
  0
VERTEX
  8
0
 62
7
  6
CONTINUOUS
 10
76.6068544872
 20
151.038615452
  0
VERTEX
  8
0
 62
7
  6
CONTINUOUS
 10
76.6147061583
 20
151.0257664245
  0
VERTEX
  8
0
 62
7
  6
CONTINUOUS
 10
76.6230865265
 20
151.013516731
  0
VERTEX
  8
0
 62
7
  6
CONTINUOUS
 10
76.6320168805
 20
151.0018693219
  0
VERTEX
  8
0
 62
7
  6
CONTINUOUS
 10
76.6415312992
 20
150.9908281857
  0
VERTEX
  8
0
 62
7
  6
CONTINUOUS
 10
76.6516561906
 20
150.9803947711
  0
VERTEX
  8
0
 62
7
  6
CONTINUOUS
 10
76.6624358561
 20
150.9705722638
  0
VERTEX
  8
0
 62
7
  6
CONTINUOUS
 10
76.6739040375
 20
150.9613601937
  0
VERTEX
  8
0
 62
7
  6
CONTINUOUS
 10
76.6861188214
 20
150.9527616174
  0
VERTEX
  8
0
 62
7
  6
CONTINUOUS
 10
76.6991234259
 20
150.9447743252
  0
VERTEX
  8
0
 62
7
  6
CONTINUOUS
 10
76.7129961981
 20
150.9374005646
  0
VERTEX
  8
0
 62
7
  6
CONTINUOUS
 10
76.7277945054
 20
150.9306351407
  0
VERTEX
  8
0
 62
7
  6
CONTINUOUS
 10
76.7436245047
 20
150.9244797383
  0
VERTEX
  8
0
 62
7
  6
CONTINUOUS
 10
76.760561317
 20
150.9189247558
  0
VERTEX
  8
0
 62
7
  6
CONTINUOUS
 10
76.778755416
 20
150.9139714806
  0
VERTEX
  8
0
 62
7
  6
CONTINUOUS
 10
76.7983097361
 20
150.9096034517
  0
VERTEX
  8
0
 62
7
  6
CONTINUOUS
 10
76.8194420164
 20
150.9058214259
  0
VERTEX
  8
0
 62
7
  6
CONTINUOUS
 10
76.8423010922
 20
150.9025976751
  0
VERTEX
  8
0
 62
7
  6
CONTINUOUS
 10
76.8671966099
 20
150.8999315016
  0
VERTEX
  8
0
 62
7
  6
CONTINUOUS
 10
76.8945327348
 20
150.8978060927
  0
VERTEX
  8
0
 62
7
  6
CONTINUOUS
 10
76.924174745
 20
150.8961293942
  0
SEQEND
  0
LINE
  8
0
 62
7
  6
CONTINUOUS
 10
110.3136354202
 20
150.6506012647
 11
110.3133315652
 21
150.651103308
  0
POLYLINE
  8
0
 62
7
  6
CONTINUOUS
 66
1
 70
0
  0
VERTEX
  8
0
 62
7
  6
CONTINUOUS
 10
110.3132970196
 20
150.6511571991
  0
VERTEX
  8
0
 62
7
  6
CONTINUOUS
 10
110.3270053202
 20
150.6281258577
  0
VERTEX
  8
0
 62
7
  6
CONTINUOUS
 10
110.3379367639
 20
150.609073409
  0
VERTEX
  8
0
 62
7
  6
CONTINUOUS
 10
110.3474672285
 20
150.5917469415
  0
VERTEX
  8
0
 62
7
  6
CONTINUOUS
 10
110.3556897858
 20
150.5760556775
  0
VERTEX
  8
0
 62
7
  6
CONTINUOUS
 10
110.3626799956
 20
150.5619588797
  0
VERTEX
  8
0
 62
7
  6
CONTINUOUS
 10
110.3685211279
 20
150.549416741
  0
VERTEX
  8
0
 62
7
  6
CONTINUOUS
 10
110.3733135159
 20
150.5383754313
  0
VERTEX
  8
0
 62
7
  6
CONTINUOUS
 10
110.3771584841
 20
150.5287886226
  0
VERTEX
  8
0
 62
7
  6
CONTINUOUS
 10
110.3801537631
 20
150.5206192026
  0
VERTEX
  8
0
 62
7
  6
CONTINUOUS
 10
110.3824043031
 20
150.5138128307
  0
VERTEX
  8
0
 62
7
  6
CONTINUOUS
 10
110.3839909886
 20
150.508401841
  0
VERTEX
  8
0
 62
7
  6
CONTINUOUS
 10
110.3850130442
 20
150.5043793194
  0
VERTEX
  8
0
 62
7
  6
CONTINUOUS
 10
110.3855548636
 20
150.5018361689
  0
SEQEND
  0
LINE
  8
0
 62
7
  6
CONTINUOUS
 10
151.4854508197
 20
149.1024180328
 11
145.0854508197
 21
149.1024180328
  0
LINE
  8
0
 62
7
  6
CONTINUOUS
 10
133.5854508197
 20
149.1024180328
 11
128.7854508197
 21
149.1024180328
  0
LINE
  8
0
 62
7
  6
CONTINUOUS
 10
117.2854508197
 20
149.1024180328
 11
110.8854508197
 21
149.1024180328
  0
LINE
  8
0
 62
7
  6
CONTINUOUS
 10
110.3855548636
 20
150.5018361689
 11
110.3856613683
 21
150.5012481317
  0
LINE
  8
0
 62
7
  6
CONTINUOUS
 10
110.3854508197
 20
149.6024180328
 11
110.3854508197
 21
150.5023245224
  0
LINE
  8
0
 62
7
  6
CONTINUOUS
 10
185.3104508197
 20
150.8924180328
 11
152.4854508197
 21
150.8924180328
  0
LINE
  8
0
 62
7
  6
CONTINUOUS
 10
109.8854508197
 20
150.8924180328
 11
77.0604508197
 21
150.8924180328
  0
LINE
  8
0
 62
7
  6
CONTINUOUS
 10
75.3180952857
 20
189.5588966897
 11
75.4795310739
 21
189.4414946187
  0
LINE
  8
0
 62
7
  6
CONTINUOUS
 10
75.4795310739
 20
189.4414946187
 11
75.5604508197
 21
189.3824180328
  0
LINE
  8
AXES
 62
2
  6
CENTER
 10
108.3854508197
 20
155.5824180328
 11
152.7854508197
 21
155.5824180328
  0
LINE
  8
0
 62
7
  6
CONTINUOUS
 10
117.2854508197
 20
159.8824180328
 11
117.4007776357
 21
159.7361665424
  0
LINE
  8
0
 62
7
  6
CONTINUOUS
 10
117.4007776357
 20
159.7361665424
 11
117.4579876578
 21
159.6628815203
  0
LINE
  8
0
 62
7
  6
CONTINUOUS
 10
117.4579876578
 20
159.6628815203
 11
117.5000729257
 21
159.6083629232
  0
LINE
  8
0
 62
7
  6
CONTINUOUS
 10
117.5000729257
 20
159.6083629232
 11
117.5275577913
 21
159.5723679992
  0
LINE
  8
0
 62
7
  6
CONTINUOUS
 10
117.5275577913
 20
159.5723679992
 11
117.5544671939
 21
159.5367407317
  0
LINE
  8
0
 62
7
  6
CONTINUOUS
 10
117.5544671939
 20
159.5367407317
 11
117.5806949021
 21
159.5015566445
  0
POLYLINE
  8
0
 62
7
  6
CONTINUOUS
 66
1
 70
0
  0
VERTEX
  8
0
 62
7
  6
CONTINUOUS
 10
117.5806949021
 20
159.5015566445
  0
VERTEX
  8
0
 62
7
  6
CONTINUOUS
 10
117.6061278511
 20
159.4668936368
  0
VERTEX
  8
0
 62
7
  6
CONTINUOUS
 10
117.6185086893
 20
159.4497830511
  0
VERTEX
  8
0
 62
7
  6
CONTINUOUS
 10
117.6306438609
 20
159.4328334979
  0
VERTEX
  8
0
 62
7
  6
CONTINUOUS
 10
117.6425168602
 20
159.4160567313
  0
VERTEX
  8
0
 62
7
  6
CONTINUOUS
 10
117.6541089953
 20
159.399463577
  0
VERTEX
  8
0
 62
7
  6
CONTINUOUS
 10
117.6654018371
 20
159.3830669619
  0
VERTEX
  8
0
 62
7
  6
CONTINUOUS
 10
117.6763744884
 20
159.3668786184
  0
VERTEX
  8
0
 62
7
  6
CONTINUOUS
 10
117.6870061089
 20
159.3509129549
  0
VERTEX
  8
0
 62
7
  6
CONTINUOUS
 10
117.6972730845
 20
159.3351828728
  0
VERTEX
  8
0
 62
7
  6
CONTINUOUS
 10
117.707151572
 20
159.3197046253
  0
VERTEX
  8
0
 62
7
  6
CONTINUOUS
 10
117.716614748
 20
159.3044924276
  0
VERTEX
  8
0
 62
7
  6
CONTINUOUS
 10
117.7256347129
 20
159.2895652959
  0
VERTEX
  8
0
 62
7
  6
CONTINUOUS
 10
117.7341804024
 20
159.2749397555
  0
VERTEX
  8
0
 62
7
  6
CONTINUOUS
 10
117.7422194381
 20
159.2606374937
  0
VERTEX
  8
0
 62
7
  6
CONTINUOUS
 10
117.7497160299
 20
159.2466773354
  0
VERTEX
  8
0
 62
7
  6
CONTINUOUS
 10
117.7566322616
 20
159.2330843921
  0
VERTEX
  8
0
 62
7
  6
CONTINUOUS
 10
117.7629267722
 20
159.2198804659
  0
VERTEX
  8
0
 62
7
  6
CONTINUOUS
 10
117.7685553642
 20
159.2070943105
  0
VERTEX
  8
0
 62
7
  6
CONTINUOUS
 10
117.7734704781
 20
159.1947511986
  0
VERTEX
  8
0
 62
7
  6
CONTINUOUS
 10
117.777621174
 20
159.1828833749
  0
VERTEX
  8
0
 62
7
  6
CONTINUOUS
 10
117.7809534151
 20
159.171519892
  0
VERTEX
  8
0
 62
7
  6
CONTINUOUS
 10
117.7834096734
 20
159.1606955992
  0
VERTEX
  8
0
 62
7
  6
CONTINUOUS
 10
117.7849301267
 20
159.1504605966
  0
VERTEX
  8
0
 62
7
  6
CONTINUOUS
 10
117.7854508197
 20
159.1407981841
  0
SEQEND
  0
LINE
  8
0
 62
7
  6
CONTINUOUS
 10
117.7854508197
 20
149.6024180328
 11
117.7854508197
 21
159.1407982418
  0
LINE
  8
0
 62
7
  6
CONTINUOUS
 10
118.2354508197
 20
190.1240378815
 11
118.2354508197
 21
199.6824180328
  0
LINE
  8
0
 62
7
  6
CONTINUOUS
 10
127.5910910681
 20
189.7103322995
 11
127.5638810008
 21
189.6745118879
  0
LINE
  8
0
 62
7
  6
CONTINUOUS
 10
127.5638810008
 20
189.6745118879
 11
127.5221140743
 21
189.6201852238
  0
LINE
  8
0
 62
7
  6
CONTINUOUS
 10
127.5221140743
 20
189.6201852238
 11
127.4651619398
 21
189.5470260874
  0
LINE
  8
0
 62
7
  6
CONTINUOUS
 10
127.4651619398
 20
189.5470260874
 11
127.3785687643
 21
189.4369775728
  0
LINE
  8
0
 62
7
  6
CONTINUOUS
 10
127.3785687643
 20
189.4369775728
 11
127.3354508197
 21
189.3824180328
  0
POLYLINE
  8
0
 62
7
  6
CONTINUOUS
 66
1
 70
0
  0
VERTEX
  8
0
 62
7
  6
CONTINUOUS
 10
134.2013387443
 20
159.0957140441
  0
VERTEX
  8
0
 62
7
  6
CONTINUOUS
 10
134.2529789783
 20
159.1072329683
  0
VERTEX
  8
0
 62
7
  6
CONTINUOUS
 10
134.2722852943
 20
159.1114401557
  0
VERTEX
  8
0
 62
7
  6
CONTINUOUS
 10
134.2925586791
 20
159.1157155382
  0
VERTEX
  8
0
 62
7
  6
CONTINUOUS
 10
134.3137454516
 20
159.1199824076
  0
VERTEX
  8
0
 62
7
  6
CONTINUOUS
 10
134.3357814802
 20
159.1241707272
  0
VERTEX
  8
0
 62
7
  6
CONTINUOUS
 10
134.3586210616
 20
159.1282084525
  0
VERTEX
  8
0
 62
7
  6
CONTINUOUS
 10
134.3821552302
 20
159.13202536
  0
VERTEX
  8
0
 62
7
  6
CONTINUOUS
 10
134.4062811617
 20
159.1355480658
  0
VERTEX
  8
0
 62
7
  6
CONTINUOUS
 10
134.4309347285
 20
159.1387245014
  0
VERTEX
  8
0
 62
7
  6
CONTINUOUS
 10
134.4560483139
 20
159.1415008322
  0
VERTEX
  8
0
 62
7
  6
CONTINUOUS
 10
134.4815295619
 20
159.1438347376
  0
VERTEX
  8
0
 62
7
  6
CONTINUOUS
 10
134.5072896099
 20
159.1456847851
  0
VERTEX
  8
0
 62
7
  6
CONTINUOUS
 10
134.533250361
 20
159.147026799
  0
VERTEX
  8
0
 62
7
  6
CONTINUOUS
 10
134.5592906329
 20
159.1478376422
  0
VERTEX
  8
0
 62
7
  6
CONTINUOUS
 10
134.5854508197
 20
159.1481099664
  0
SEQEND
  0
POLYLINE
  8
0
 62
7
  6
CONTINUOUS
 66
1
 70
0
  0
VERTEX
  8
0
 62
7
  6
CONTINUOUS
 10
117.9347142388
 20
159.103168147
  0
VERTEX
  8
0
 62
7
  6
CONTINUOUS
 10
117.9529789783
 20
159.1072329683
  0
VERTEX
  8
0
 62
7
  6
CONTINUOUS
 10
117.9722852943
 20
159.1114401557
  0
VERTEX
  8
0
 62
7
  6
CONTINUOUS
 10
117.9925586791
 20
159.1157155382
  0
VERTEX
  8
0
 62
7
  6
CONTINUOUS
 10
118.0137454516
 20
159.1199824076
  0
VERTEX
  8
0
 62
7
  6
CONTINUOUS
 10
118.0357814802
 20
159.1241707272
  0
VERTEX
  8
0
 62
7
  6
CONTINUOUS
 10
118.0586210616
 20
159.1282084525
  0
VERTEX
  8
0
 62
7
  6
CONTINUOUS
 10
118.0821552302
 20
159.13202536
  0
VERTEX
  8
0
 62
7
  6
CONTINUOUS
 10
118.1062811617
 20
159.1355480658
  0
VERTEX
  8
0
 62
7
  6
CONTINUOUS
 10
118.1309347285
 20
159.1387245014
  0
VERTEX
  8
0
 62
7
  6
CONTINUOUS
 10
118.1560483139
 20
159.1415008322
  0
VERTEX
  8
0
 62
7
  6
CONTINUOUS
 10
118.1815295619
 20
159.1438347376
  0
VERTEX
  8
0
 62
7
  6
CONTINUOUS
 10
118.2072896099
 20
159.1456847851
  0
VERTEX
  8
0
 62
7
  6
CONTINUOUS
 10
118.233250361
 20
159.147026799
  0
VERTEX
  8
0
 62
7
  6
CONTINUOUS
 10
118.2592906329
 20
159.1478376422
  0
VERTEX
  8
0
 62
7
  6
CONTINUOUS
 10
118.2854508197
 20
159.1481099664
  0
SEQEND
  0
POLYLINE
  8
0
 62
7
  6
CONTINUOUS
 66
1
 70
0
  0
VERTEX
  8
0
 62
7
  6
CONTINUOUS
 10
134.1183997647
 20
159.0824180328
  0
VERTEX
  8
0
 62
7
  6
CONTINUOUS
 10
134.1270147791
 20
159.0827271019
  0
VERTEX
  8
0
 62
7
  6
CONTINUOUS
 10
134.1367461418
 20
159.0836376919
  0
VERTEX
  8
0
 62
7
  6
CONTINUOUS
 10
134.1475263907
 20
159.0851083397
  0
VERTEX
  8
0
 62
7
  6
CONTINUOUS
 10
134.1593653203
 20
159.0870957299
  0
VERTEX
  8
0
 62
7
  6
CONTINUOUS
 10
134.1722736671
 20
159.0895569151
  0
VERTEX
  8
0
 62
7
  6
CONTINUOUS
 10
134.1862588512
 20
159.092444905
  0
VERTEX
  8
0
 62
7
  6
CONTINUOUS
 10
134.2013387443
 20
159.0957140441
  0
SEQEND
  0
POLYLINE
  8
0
 62
7
  6
CONTINUOUS
 66
1
 70
0
  0
VERTEX
  8
0
 62
7
  6
CONTINUOUS
 10
117.8183997647
 20
159.0824180328
  0
VERTEX
  8
0
 62
7
  6
CONTINUOUS
 10
117.8270147791
 20
159.0827271019
  0
VERTEX
  8
0
 62
7
  6
CONTINUOUS
 10
117.8367461418
 20
159.0836376919
  0
VERTEX
  8
0
 62
7
  6
CONTINUOUS
 10
117.8475263907
 20
159.0851083397
  0
VERTEX
  8
0
 62
7
  6
CONTINUOUS
 10
117.8593653203
 20
159.0870957299
  0
VERTEX
  8
0
 62
7
  6
CONTINUOUS
 10
117.8722736671
 20
159.0895569151
  0
VERTEX
  8
0
 62
7
  6
CONTINUOUS
 10
117.8862588512
 20
159.092444905
  0
VERTEX
  8
0
 62
7
  6
CONTINUOUS
 10
117.9013387443
 20
159.0957140441
  0
VERTEX
  8
0
 62
7
  6
CONTINUOUS
 10
117.9347142388
 20
159.103168147
  0
SEQEND
  0
LINE
  8
0
 62
7
  6
CONTINUOUS
 10
117.7854508197
 20
159.0824180328
 11
117.8184094799
 21
159.0824180328
  0
LINE
  8
0
 62
7
  6
CONTINUOUS
 10
128.2524921594
 20
159.0824180328
 11
128.2854508197
 21
159.0824180328
  0
LINE
  8
0
 62
7
  6
CONTINUOUS
 10
134.0854508197
 20
159.0824180328
 11
134.1184094799
 21
159.0824180328
  0
LINE
  8
0
 62
7
  6
CONTINUOUS
 10
144.5524921594
 20
159.0824180328
 11
144.5854508197
 21
159.0824180328
  0
LINE
  8
0
 62
7
  6
CONTINUOUS
 10
127.7854508197
 20
159.1481099664
 11
118.2854508197
 21
159.1481099664
  0
LINE
  8
0
 62
7
  6
CONTINUOUS
 10
134.5854508197
 20
159.1481099664
 11
144.0854508197
 21
159.1481099664
  0
POLYLINE
  8
0
 62
7
  6
CONTINUOUS
 66
1
 70
0
  0
VERTEX
  8
0
 62
7
  6
CONTINUOUS
 10
127.7854508197
 20
159.1481099664
  0
VERTEX
  8
0
 62
7
  6
CONTINUOUS
 10
127.8116110064
 20
159.1478376422
  0
VERTEX
  8
0
 62
7
  6
CONTINUOUS
 10
127.8376512783
 20
159.147026799
  0
VERTEX
  8
0
 62
7
  6
CONTINUOUS
 10
127.8636120295
 20
159.1456847851
  0
VERTEX
  8
0
 62
7
  6
CONTINUOUS
 10
127.8893720775
 20
159.1438347376
  0
VERTEX
  8
0
 62
7
  6
CONTINUOUS
 10
127.9148533255
 20
159.1415008322
  0
VERTEX
  8
0
 62
7
  6
CONTINUOUS
 10
127.9399669108
 20
159.1387245014
  0
VERTEX
  8
0
 62
7
  6
CONTINUOUS
 10
127.9646204777
 20
159.1355480658
  0
VERTEX
  8
0
 62
7
  6
CONTINUOUS
 10
127.9887464091
 20
159.13202536
  0
VERTEX
  8
0
 62
7
  6
CONTINUOUS
 10
128.0122805777
 20
159.1282084525
  0
VERTEX
  8
0
 62
7
  6
CONTINUOUS
 10
128.0351201592
 20
159.1241707272
  0
VERTEX
  8
0
 62
7
  6
CONTINUOUS
 10
128.0571561878
 20
159.1199824076
  0
VERTEX
  8
0
 62
7
  6
CONTINUOUS
 10
128.0783429602
 20
159.1157155382
  0
VERTEX
  8
0
 62
7
  6
CONTINUOUS
 10
128.098616345
 20
159.1114401557
  0
VERTEX
  8
0
 62
7
  6
CONTINUOUS
 10
128.117922661
 20
159.1072329683
  0
SEQEND
  0
POLYLINE
  8
0
 62
7
  6
CONTINUOUS
 66
1
 70
0
  0
VERTEX
  8
0
 62
7
  6
CONTINUOUS
 10
144.0854508197
 20
159.1481099664
  0
VERTEX
  8
0
 62
7
  6
CONTINUOUS
 10
144.1116110064
 20
159.1478376422
  0
VERTEX
  8
0
 62
7
  6
CONTINUOUS
 10
144.1376512783
 20
159.147026799
  0
VERTEX
  8
0
 62
7
  6
CONTINUOUS
 10
144.1636120295
 20
159.1456847851
  0
VERTEX
  8
0
 62
7
  6
CONTINUOUS
 10
144.1893720775
 20
159.1438347376
  0
VERTEX
  8
0
 62
7
  6
CONTINUOUS
 10
144.2148533255
 20
159.1415008322
  0
VERTEX
  8
0
 62
7
  6
CONTINUOUS
 10
144.2399669108
 20
159.1387245014
  0
VERTEX
  8
0
 62
7
  6
CONTINUOUS
 10
144.2646204777
 20
159.1355480658
  0
VERTEX
  8
0
 62
7
  6
CONTINUOUS
 10
144.2887464091
 20
159.13202536
  0
VERTEX
  8
0
 62
7
  6
CONTINUOUS
 10
144.3122805777
 20
159.1282084525
  0
VERTEX
  8
0
 62
7
  6
CONTINUOUS
 10
144.3351201592
 20
159.1241707272
  0
VERTEX
  8
0
 62
7
  6
CONTINUOUS
 10
144.3571561878
 20
159.1199824076
  0
VERTEX
  8
0
 62
7
  6
CONTINUOUS
 10
144.3783429602
 20
159.1157155382
  0
VERTEX
  8
0
 62
7
  6
CONTINUOUS
 10
144.398616345
 20
159.1114401557
  0
VERTEX
  8
0
 62
7
  6
CONTINUOUS
 10
144.417922661
 20
159.1072329683
  0
SEQEND
  0
POLYLINE
  8
0
 62
7
  6
CONTINUOUS
 66
1
 70
0
  0
VERTEX
  8
0
 62
7
  6
CONTINUOUS
 10
128.169562895
 20
159.0957140441
  0
VERTEX
  8
0
 62
7
  6
CONTINUOUS
 10
128.1846427882
 20
159.092444905
  0
VERTEX
  8
0
 62
7
  6
CONTINUOUS
 10
128.1986279722
 20
159.0895569151
  0
VERTEX
  8
0
 62
7
  6
CONTINUOUS
 10
128.2115363191
 20
159.0870957299
  0
VERTEX
  8
0
 62
7
  6
CONTINUOUS
 10
128.2233752487
 20
159.0851083397
  0
VERTEX
  8
0
 62
7
  6
CONTINUOUS
 10
128.2341554975
 20
159.0836376919
  0
VERTEX
  8
0
 62
7
  6
CONTINUOUS
 10
128.2438868602
 20
159.0827271019
  0
VERTEX
  8
0
 62
7
  6
CONTINUOUS
 10
128.2525018747
 20
159.0824180328
  0
SEQEND
  0
POLYLINE
  8
0
 62
7
  6
CONTINUOUS
 66
1
 70
0
  0
VERTEX
  8
0
 62
7
  6
CONTINUOUS
 10
144.469562895
 20
159.0957140441
  0
VERTEX
  8
0
 62
7
  6
CONTINUOUS
 10
144.4846427882
 20
159.092444905
  0
VERTEX
  8
0
 62
7
  6
CONTINUOUS
 10
144.4986279722
 20
159.0895569151
  0
VERTEX
  8
0
 62
7
  6
CONTINUOUS
 10
144.5115363191
 20
159.0870957299
  0
VERTEX
  8
0
 62
7
  6
CONTINUOUS
 10
144.5233752487
 20
159.0851083397
  0
VERTEX
  8
0
 62
7
  6
CONTINUOUS
 10
144.5341554975
 20
159.0836376919
  0
VERTEX
  8
0
 62
7
  6
CONTINUOUS
 10
144.5438868602
 20
159.0827271019
  0
VERTEX
  8
0
 62
7
  6
CONTINUOUS
 10
144.5525018747
 20
159.0824180328
  0
SEQEND
  0
LINE
  8
0
 62
7
  6
CONTINUOUS
 10
128.117922661
 20
159.1072329683
 11
128.169562895
 21
159.0957140441
  0
LINE
  8
0
 62
7
  6
CONTINUOUS
 10
144.417922661
 20
159.1072329683
 11
144.469562895
 21
159.0957140441
  0
LINE
  8
0
 62
7
  6
CONTINUOUS
 10
127.6561278511
 20
189.7979424288
 11
127.6306949021
 21
189.763279421
  0
POLYLINE
  8
0
 62
7
  6
CONTINUOUS
 66
1
 70
0
  0
VERTEX
  8
0
 62
7
  6
CONTINUOUS
 10
127.6306949021
 20
189.763279421
  0
VERTEX
  8
0
 62
7
  6
CONTINUOUS
 10
127.6044671939
 20
189.7280953339
  0
VERTEX
  8
0
 62
7
  6
CONTINUOUS
 10
127.5910910681
 20
189.7103322995
  0
SEQEND
  0
POLYLINE
  8
0
 62
7
  6
CONTINUOUS
 66
1
 70
0
  0
VERTEX
  8
0
 62
7
  6
CONTINUOUS
 10
127.8354508197
 20
190.1240378815
  0
VERTEX
  8
0
 62
7
  6
CONTINUOUS
 10
127.8349301267
 20
190.114375469
  0
VERTEX
  8
0
 62
7
  6
CONTINUOUS
 10
127.8334096734
 20
190.1041404664
  0
VERTEX
  8
0
 62
7
  6
CONTINUOUS
 10
127.8309534151
 20
190.0933161736
  0
VERTEX
  8
0
 62
7
  6
CONTINUOUS
 10
127.827621174
 20
190.0819526907
  0
VERTEX
  8
0
 62
7
  6
CONTINUOUS
 10
127.8234704781
 20
190.070084867
  0
VERTEX
  8
0
 62
7
  6
CONTINUOUS
 10
127.8185553642
 20
190.0577417551
  0
VERTEX
  8
0
 62
7
  6
CONTINUOUS
 10
127.8129267722
 20
190.0449555997
  0
VERTEX
  8
0
 62
7
  6
CONTINUOUS
 10
127.8066322616
 20
190.0317516735
  0
VERTEX
  8
0
 62
7
  6
CONTINUOUS
 10
127.7997160299
 20
190.0181587302
  0
VERTEX
  8
0
 62
7
  6
CONTINUOUS
 10
127.7922194381
 20
190.0041985719
  0
VERTEX
  8
0
 62
7
  6
CONTINUOUS
 10
127.7841804024
 20
189.98989631
  0
VERTEX
  8
0
 62
7
  6
CONTINUOUS
 10
127.7756347129
 20
189.9752707697
  0
VERTEX
  8
0
 62
7
  6
CONTINUOUS
 10
127.766614748
 20
189.9603436379
  0
VERTEX
  8
0
 62
7
  6
CONTINUOUS
 10
127.757151572
 20
189.9451314403
  0
VERTEX
  8
0
 62
7
  6
CONTINUOUS
 10
127.7472730845
 20
189.9296531928
  0
VERTEX
  8
0
 62
7
  6
CONTINUOUS
 10
127.7370061089
 20
189.9139231106
  0
VERTEX
  8
0
 62
7
  6
CONTINUOUS
 10
127.7263744884
 20
189.8979574471
  0
VERTEX
  8
0
 62
7
  6
CONTINUOUS
 10
127.7154018371
 20
189.8817691037
  0
VERTEX
  8
0
 62
7
  6
CONTINUOUS
 10
127.7041089953
 20
189.8653724885
  0
VERTEX
  8
0
 62
7
  6
CONTINUOUS
 10
127.6925168602
 20
189.8487793343
  0
VERTEX
  8
0
 62
7
  6
CONTINUOUS
 10
127.6806438609
 20
189.8320025677
  0
VERTEX
  8
0
 62
7
  6
CONTINUOUS
 10
127.6685086893
 20
189.8150530144
  0
VERTEX
  8
0
 62
7
  6
CONTINUOUS
 10
127.6561278511
 20
189.7979424288
  0
SEQEND
  0
LINE
  8
0
 62
7
  6
CONTINUOUS
 10
133.5854508197
 20
159.8824180328
 11
133.7007776357
 21
159.7361665424
  0
LINE
  8
0
 62
7
  6
CONTINUOUS
 10
133.7007776357
 20
159.7361665424
 11
133.7579876578
 21
159.6628815203
  0
LINE
  8
0
 62
7
  6
CONTINUOUS
 10
133.7579876578
 20
159.6628815203
 11
133.8000729257
 21
159.6083629232
  0
LINE
  8
0
 62
7
  6
CONTINUOUS
 10
133.8000729257
 20
159.6083629232
 11
133.8275577913
 21
159.5723679992
  0
LINE
  8
0
 62
7
  6
CONTINUOUS
 10
133.8275577913
 20
159.5723679992
 11
133.8544671939
 21
159.5367407317
  0
LINE
  8
0
 62
7
  6
CONTINUOUS
 10
133.8544671939
 20
159.5367407317
 11
133.8806949021
 21
159.5015566445
  0
POLYLINE
  8
0
 62
7
  6
CONTINUOUS
 66
1
 70
0
  0
VERTEX
  8
0
 62
7
  6
CONTINUOUS
 10
133.8806949021
 20
159.5015566445
  0
VERTEX
  8
0
 62
7
  6
CONTINUOUS
 10
133.9061278511
 20
159.4668936368
  0
VERTEX
  8
0
 62
7
  6
CONTINUOUS
 10
133.9185086893
 20
159.4497830511
  0
VERTEX
  8
0
 62
7
  6
CONTINUOUS
 10
133.9306438609
 20
159.4328334979
  0
VERTEX
  8
0
 62
7
  6
CONTINUOUS
 10
133.9425168602
 20
159.4160567313
  0
VERTEX
  8
0
 62
7
  6
CONTINUOUS
 10
133.9541089953
 20
159.399463577
  0
VERTEX
  8
0
 62
7
  6
CONTINUOUS
 10
133.9654018371
 20
159.3830669619
  0
VERTEX
  8
0
 62
7
  6
CONTINUOUS
 10
133.9763744884
 20
159.3668786184
  0
VERTEX
  8
0
 62
7
  6
CONTINUOUS
 10
133.9870061089
 20
159.3509129549
  0
VERTEX
  8
0
 62
7
  6
CONTINUOUS
 10
133.9972730845
 20
159.3351828728
  0
VERTEX
  8
0
 62
7
  6
CONTINUOUS
 10
134.007151572
 20
159.3197046253
  0
VERTEX
  8
0
 62
7
  6
CONTINUOUS
 10
134.016614748
 20
159.3044924276
  0
VERTEX
  8
0
 62
7
  6
CONTINUOUS
 10
134.0256347129
 20
159.2895652959
  0
VERTEX
  8
0
 62
7
  6
CONTINUOUS
 10
134.0341804024
 20
159.2749397555
  0
VERTEX
  8
0
 62
7
  6
CONTINUOUS
 10
134.0422194381
 20
159.2606374937
  0
VERTEX
  8
0
 62
7
  6
CONTINUOUS
 10
134.0497160299
 20
159.2466773354
  0
VERTEX
  8
0
 62
7
  6
CONTINUOUS
 10
134.0566322616
 20
159.2330843921
  0
VERTEX
  8
0
 62
7
  6
CONTINUOUS
 10
134.0629267722
 20
159.2198804659
  0
VERTEX
  8
0
 62
7
  6
CONTINUOUS
 10
134.0685553642
 20
159.2070943105
  0
VERTEX
  8
0
 62
7
  6
CONTINUOUS
 10
134.0734704781
 20
159.1947511986
  0
VERTEX
  8
0
 62
7
  6
CONTINUOUS
 10
134.077621174
 20
159.1828833749
  0
VERTEX
  8
0
 62
7
  6
CONTINUOUS
 10
134.0809534151
 20
159.171519892
  0
VERTEX
  8
0
 62
7
  6
CONTINUOUS
 10
134.0834096734
 20
159.1606955992
  0
VERTEX
  8
0
 62
7
  6
CONTINUOUS
 10
134.0849301267
 20
159.1504605966
  0
VERTEX
  8
0
 62
7
  6
CONTINUOUS
 10
134.0854508197
 20
159.1407981841
  0
SEQEND
  0
LINE
  8
0
 62
7
  6
CONTINUOUS
 10
127.8354508197
 20
199.6824180328
 11
127.8354508197
 21
190.1240378815
  0
LINE
  8
0
 62
7
  6
CONTINUOUS
 10
128.2854508197
 20
159.1407982427
 11
128.2854508197
 21
149.6024180328
  0
LINE
  8
DEFAULT_1
 62
2
  6
CENTER
 10
131.1854508197
 20
179.8824180328
 11
131.1854508197
 21
176.6325180328
  0
LINE
  8
0
 62
2
  6
CONTINUOUS
 10
131.1854508197
 20
175.6824180328
 11
131.1854508197
 21
173.5824180328
  0
LINE
  8
DEFAULT_1
 62
2
  6
CENTER
 10
131.1854508197
 20
169.3824180328
 11
131.1854508197
 21
172.6323180328
  0
POLYLINE
  8
0
 62
7
  6
CONTINUOUS
 66
1
 70
0
  0
VERTEX
  8
0
 62
7
  6
CONTINUOUS
 10
128.2854508197
 20
159.1407981841
  0
VERTEX
  8
0
 62
7
  6
CONTINUOUS
 10
128.2859715126
 20
159.1504605966
  0
VERTEX
  8
0
 62
7
  6
CONTINUOUS
 10
128.2874919659
 20
159.1606955992
  0
VERTEX
  8
0
 62
7
  6
CONTINUOUS
 10
128.2899482242
 20
159.171519892
  0
VERTEX
  8
0
 62
7
  6
CONTINUOUS
 10
128.2932804653
 20
159.1828833749
  0
VERTEX
  8
0
 62
7
  6
CONTINUOUS
 10
128.2974311612
 20
159.1947511986
  0
VERTEX
  8
0
 62
7
  6
CONTINUOUS
 10
128.3023462751
 20
159.2070943105
  0
VERTEX
  8
0
 62
7
  6
CONTINUOUS
 10
128.3079748672
 20
159.2198804659
  0
VERTEX
  8
0
 62
7
  6
CONTINUOUS
 10
128.3142693778
 20
159.2330843921
  0
VERTEX
  8
0
 62
7
  6
CONTINUOUS
 10
128.3211856095
 20
159.2466773354
  0
VERTEX
  8
0
 62
7
  6
CONTINUOUS
 10
128.3286822012
 20
159.2606374937
  0
VERTEX
  8
0
 62
7
  6
CONTINUOUS
 10
128.3367212369
 20
159.2749397555
  0
VERTEX
  8
0
 62
7
  6
CONTINUOUS
 10
128.3452669264
 20
159.2895652959
  0
VERTEX
  8
0
 62
7
  6
CONTINUOUS
 10
128.3542868914
 20
159.3044924276
  0
VERTEX
  8
0
 62
7
  6
CONTINUOUS
 10
128.3637500673
 20
159.3197046253
  0
VERTEX
  8
0
 62
7
  6
CONTINUOUS
 10
128.3736285548
 20
159.3351828728
  0
VERTEX
  8
0
 62
7
  6
CONTINUOUS
 10
128.3838955305
 20
159.3509129549
  0
VERTEX
  8
0
 62
7
  6
CONTINUOUS
 10
128.3945271509
 20
159.3668786184
  0
VERTEX
  8
0
 62
7
  6
CONTINUOUS
 10
128.4054998022
 20
159.3830669619
  0
VERTEX
  8
0
 62
7
  6
CONTINUOUS
 10
128.416792644
 20
159.399463577
  0
VERTEX
  8
0
 62
7
  6
CONTINUOUS
 10
128.4283847792
 20
159.4160567313
  0
VERTEX
  8
0
 62
7
  6
CONTINUOUS
 10
128.4402577784
 20
159.4328334979
  0
VERTEX
  8
0
 62
7
  6
CONTINUOUS
 10
128.45239295
 20
159.4497830511
  0
VERTEX
  8
0
 62
7
  6
CONTINUOUS
 10
128.4647737883
 20
159.4668936368
  0
SEQEND
  0
LINE
  8
DEFAULT_1
 62
2
  6
CENTER
 10
136.4354508197
 20
174.6324180328
 11
133.1855508197
 21
174.6324180328
  0
LINE
  8
0
 62
2
  6
CONTINUOUS
 10
132.2354508197
 20
174.6324180328
 11
130.1354508197
 21
174.6324180328
  0
LINE
  8
DEFAULT_1
 62
2
  6
CENTER
 10
125.9354508197
 20
174.6324180328
 11
129.1853508197
 21
174.6324180328
  0
LINE
  8
0
 62
7
  6
CONTINUOUS
 10
118.7354508197
 20
189.3824180328
 11
118.6201240036
 21
189.5286695232
  0
LINE
  8
0
 62
7
  6
CONTINUOUS
 10
118.6201240036
 20
189.5286695232
 11
118.5629139816
 21
189.6019545453
  0
LINE
  8
0
 62
7
  6
CONTINUOUS
 10
118.5629139816
 20
189.6019545453
 11
118.5208287136
 21
189.6564731424
  0
LINE
  8
0
 62
7
  6
CONTINUOUS
 10
118.5208287136
 20
189.6564731424
 11
118.4933438481
 21
189.6924680664
  0
LINE
  8
0
 62
7
  6
CONTINUOUS
 10
118.4933438481
 20
189.6924680664
 11
118.4664344455
 21
189.7280953339
  0
LINE
  8
0
 62
7
  6
CONTINUOUS
 10
118.4664344455
 20
189.7280953339
 11
118.4402067372
 21
189.763279421
  0
POLYLINE
  8
0
 62
7
  6
CONTINUOUS
 66
1
 70
0
  0
VERTEX
  8
0
 62
7
  6
CONTINUOUS
 10
118.4402067372
 20
189.763279421
  0
VERTEX
  8
0
 62
7
  6
CONTINUOUS
 10
118.4147737883
 20
189.7979424288
  0
VERTEX
  8
0
 62
7
  6
CONTINUOUS
 10
118.40239295
 20
189.8150530144
  0
VERTEX
  8
0
 62
7
  6
CONTINUOUS
 10
118.3902577784
 20
189.8320025677
  0
VERTEX
  8
0
 62
7
  6
CONTINUOUS
 10
118.3783847792
 20
189.8487793343
  0
VERTEX
  8
0
 62
7
  6
CONTINUOUS
 10
118.366792644
 20
189.8653724885
  0
VERTEX
  8
0
 62
7
  6
CONTINUOUS
 10
118.3554998022
 20
189.8817691037
  0
VERTEX
  8
0
 62
7
  6
CONTINUOUS
 10
118.3445271509
 20
189.8979574471
  0
VERTEX
  8
0
 62
7
  6
CONTINUOUS
 10
118.3338955305
 20
189.9139231106
  0
VERTEX
  8
0
 62
7
  6
CONTINUOUS
 10
118.3236285548
 20
189.9296531928
  0
VERTEX
  8
0
 62
7
  6
CONTINUOUS
 10
118.3137500673
 20
189.9451314403
  0
VERTEX
  8
0
 62
7
  6
CONTINUOUS
 10
118.3042868914
 20
189.9603436379
  0
VERTEX
  8
0
 62
7
  6
CONTINUOUS
 10
118.2952669264
 20
189.9752707697
  0
VERTEX
  8
0
 62
7
  6
CONTINUOUS
 10
118.2867212369
 20
189.98989631
  0
VERTEX
  8
0
 62
7
  6
CONTINUOUS
 10
118.2786822012
 20
190.0041985719
  0
VERTEX
  8
0
 62
7
  6
CONTINUOUS
 10
118.2711856095
 20
190.0181587302
  0
VERTEX
  8
0
 62
7
  6
CONTINUOUS
 10
118.2642693778
 20
190.0317516735
  0
VERTEX
  8
0
 62
7
  6
CONTINUOUS
 10
118.2579748672
 20
190.0449555997
  0
VERTEX
  8
0
 62
7
  6
CONTINUOUS
 10
118.2523462751
 20
190.0577417551
  0
VERTEX
  8
0
 62
7
  6
CONTINUOUS
 10
118.2474311612
 20
190.070084867
  0
VERTEX
  8
0
 62
7
  6
CONTINUOUS
 10
118.2432804653
 20
190.0819526907
  0
VERTEX
  8
0
 62
7
  6
CONTINUOUS
 10
118.2399482242
 20
190.0933161736
  0
VERTEX
  8
0
 62
7
  6
CONTINUOUS
 10
118.2374919659
 20
190.1041404664
  0
VERTEX
  8
0
 62
7
  6
CONTINUOUS
 10
118.2359715126
 20
190.114375469
  0
VERTEX
  8
0
 62
7
  6
CONTINUOUS
 10
118.2354508197
 20
190.1240378815
  0
SEQEND
  0
LINE
  8
0
 62
7
  6
CONTINUOUS
 10
134.0854508197
 20
159.1407981841
 11
134.0854508197
 21
149.6024180328
  0
LINE
  8
0
 62
7
  6
CONTINUOUS
 10
134.5354508197
 20
190.1240378815
 11
134.5354508197
 21
199.6824180328
  0
LINE
  8
0
 62
7
  6
CONTINUOUS
 10
143.9561278511
 20
189.7979424288
 11
143.9306949021
 21
189.763279421
  0
LINE
  8
0
 62
7
  6
CONTINUOUS
 10
143.9306949021
 20
189.763279421
 11
143.9044671939
 21
189.7280953339
  0
LINE
  8
0
 62
7
  6
CONTINUOUS
 10
143.9044671939
 20
189.7280953339
 11
143.8775577913
 21
189.6924680664
  0
LINE
  8
0
 62
7
  6
CONTINUOUS
 10
143.8775577913
 20
189.6924680664
 11
143.8500729257
 21
189.6564731424
  0
LINE
  8
0
 62
7
  6
CONTINUOUS
 10
143.8500729257
 20
189.6564731424
 11
143.8079876578
 21
189.6019545453
  0
LINE
  8
0
 62
7
  6
CONTINUOUS
 10
143.8079876578
 20
189.6019545453
 11
143.7507776357
 21
189.5286695232
  0
LINE
  8
0
 62
7
  6
CONTINUOUS
 10
143.7507776357
 20
189.5286695232
 11
143.6354508197
 21
189.3824180328
  0
LINE
  8
0
 62
7
  6
CONTINUOUS
 10
128.4647737883
 20
159.4668936368
 11
128.4902067372
 21
159.5015566445
  0
LINE
  8
0
 62
7
  6
CONTINUOUS
 10
128.4902067372
 20
159.5015566445
 11
128.5164344455
 21
159.5367407317
  0
LINE
  8
0
 62
7
  6
CONTINUOUS
 10
128.5164344455
 20
159.5367407317
 11
128.5433438481
 21
159.5723679992
  0
LINE
  8
0
 62
7
  6
CONTINUOUS
 10
128.5433438481
 20
159.5723679992
 11
128.5708287136
 21
159.6083629232
  0
LINE
  8
0
 62
7
  6
CONTINUOUS
 10
128.5708287136
 20
159.6083629232
 11
128.6129139816
 21
159.6628815203
  0
LINE
  8
0
 62
7
  6
CONTINUOUS
 10
128.6129139816
 20
159.6628815203
 11
128.6701240036
 21
159.7361665424
  0
LINE
  8
0
 62
7
  6
CONTINUOUS
 10
128.6701240036
 20
159.7361665424
 11
128.7854508197
 21
159.8824180328
  0
LINE
  8
0
 62
7
  6
CONTINUOUS
 10
144.1354508197
 20
199.6824180328
 11
144.1354508197
 21
190.1240378815
  0
POLYLINE
  8
0
 62
7
  6
CONTINUOUS
 66
1
 70
0
  0
VERTEX
  8
0
 62
7
  6
CONTINUOUS
 10
144.1354508197
 20
190.1240378815
  0
VERTEX
  8
0
 62
7
  6
CONTINUOUS
 10
144.1349301267
 20
190.114375469
  0
VERTEX
  8
0
 62
7
  6
CONTINUOUS
 10
144.1334096734
 20
190.1041404664
  0
VERTEX
  8
0
 62
7
  6
CONTINUOUS
 10
144.1309534151
 20
190.0933161736
  0
VERTEX
  8
0
 62
7
  6
CONTINUOUS
 10
144.127621174
 20
190.0819526907
  0
VERTEX
  8
0
 62
7
  6
CONTINUOUS
 10
144.1234704781
 20
190.070084867
  0
VERTEX
  8
0
 62
7
  6
CONTINUOUS
 10
144.1185553642
 20
190.0577417551
  0
VERTEX
  8
0
 62
7
  6
CONTINUOUS
 10
144.1129267722
 20
190.0449555997
  0
VERTEX
  8
0
 62
7
  6
CONTINUOUS
 10
144.1066322616
 20
190.0317516735
  0
VERTEX
  8
0
 62
7
  6
CONTINUOUS
 10
144.0997160299
 20
190.0181587302
  0
VERTEX
  8
0
 62
7
  6
CONTINUOUS
 10
144.0922194381
 20
190.0041985719
  0
VERTEX
  8
0
 62
7
  6
CONTINUOUS
 10
144.0841804024
 20
189.98989631
  0
VERTEX
  8
0
 62
7
  6
CONTINUOUS
 10
144.0756347129
 20
189.9752707697
  0
VERTEX
  8
0
 62
7
  6
CONTINUOUS
 10
144.066614748
 20
189.9603436379
  0
VERTEX
  8
0
 62
7
  6
CONTINUOUS
 10
144.057151572
 20
189.9451314403
  0
VERTEX
  8
0
 62
7
  6
CONTINUOUS
 10
144.0472730845
 20
189.9296531928
  0
VERTEX
  8
0
 62
7
  6
CONTINUOUS
 10
144.0370061089
 20
189.9139231106
  0
VERTEX
  8
0
 62
7
  6
CONTINUOUS
 10
144.0263744884
 20
189.8979574471
  0
VERTEX
  8
0
 62
7
  6
CONTINUOUS
 10
144.0154018371
 20
189.8817691037
  0
VERTEX
  8
0
 62
7
  6
CONTINUOUS
 10
144.0041089953
 20
189.8653724885
  0
VERTEX
  8
0
 62
7
  6
CONTINUOUS
 10
143.9925168602
 20
189.8487793343
  0
VERTEX
  8
0
 62
7
  6
CONTINUOUS
 10
143.9806438609
 20
189.8320025677
  0
VERTEX
  8
0
 62
7
  6
CONTINUOUS
 10
143.9685086893
 20
189.8150530144
  0
VERTEX
  8
0
 62
7
  6
CONTINUOUS
 10
143.9561278511
 20
189.7979424288
  0
SEQEND
  0
LINE
  8
0
 62
7
  6
CONTINUOUS
 10
135.0354508197
 20
189.3824180328
 11
134.9201240036
 21
189.5286695232
  0
LINE
  8
0
 62
7
  6
CONTINUOUS
 10
134.9201240036
 20
189.5286695232
 11
134.8629139816
 21
189.6019545453
  0
LINE
  8
0
 62
7
  6
CONTINUOUS
 10
134.8629139816
 20
189.6019545453
 11
134.8208287136
 21
189.6564731424
  0
LINE
  8
0
 62
7
  6
CONTINUOUS
 10
134.8208287136
 20
189.6564731424
 11
134.7933438481
 21
189.6924680664
  0
LINE
  8
0
 62
7
  6
CONTINUOUS
 10
134.7933438481
 20
189.6924680664
 11
134.7664344455
 21
189.7280953339
  0
LINE
  8
0
 62
7
  6
CONTINUOUS
 10
134.7664344455
 20
189.7280953339
 11
134.7402067372
 21
189.763279421
  0
POLYLINE
  8
0
 62
7
  6
CONTINUOUS
 66
1
 70
0
  0
VERTEX
  8
0
 62
7
  6
CONTINUOUS
 10
134.7402067372
 20
189.763279421
  0
VERTEX
  8
0
 62
7
  6
CONTINUOUS
 10
134.7147737883
 20
189.7979424288
  0
VERTEX
  8
0
 62
7
  6
CONTINUOUS
 10
134.70239295
 20
189.8150530144
  0
VERTEX
  8
0
 62
7
  6
CONTINUOUS
 10
134.6902577784
 20
189.8320025677
  0
VERTEX
  8
0
 62
7
  6
CONTINUOUS
 10
134.6783847792
 20
189.8487793343
  0
VERTEX
  8
0
 62
7
  6
CONTINUOUS
 10
134.666792644
 20
189.8653724885
  0
VERTEX
  8
0
 62
7
  6
CONTINUOUS
 10
134.6554998022
 20
189.8817691037
  0
VERTEX
  8
0
 62
7
  6
CONTINUOUS
 10
134.6445271509
 20
189.8979574471
  0
VERTEX
  8
0
 62
7
  6
CONTINUOUS
 10
134.6338955305
 20
189.9139231106
  0
VERTEX
  8
0
 62
7
  6
CONTINUOUS
 10
134.6236285548
 20
189.9296531928
  0
VERTEX
  8
0
 62
7
  6
CONTINUOUS
 10
134.6137500673
 20
189.9451314403
  0
VERTEX
  8
0
 62
7
  6
CONTINUOUS
 10
134.6042868914
 20
189.9603436379
  0
VERTEX
  8
0
 62
7
  6
CONTINUOUS
 10
134.5952669264
 20
189.9752707697
  0
VERTEX
  8
0
 62
7
  6
CONTINUOUS
 10
134.5867212369
 20
189.98989631
  0
VERTEX
  8
0
 62
7
  6
CONTINUOUS
 10
134.5786822012
 20
190.0041985719
  0
VERTEX
  8
0
 62
7
  6
CONTINUOUS
 10
134.5711856095
 20
190.0181587302
  0
VERTEX
  8
0
 62
7
  6
CONTINUOUS
 10
134.5642693778
 20
190.0317516735
  0
VERTEX
  8
0
 62
7
  6
CONTINUOUS
 10
134.5579748672
 20
190.0449555997
  0
VERTEX
  8
0
 62
7
  6
CONTINUOUS
 10
134.5523462751
 20
190.0577417551
  0
VERTEX
  8
0
 62
7
  6
CONTINUOUS
 10
134.5474311612
 20
190.070084867
  0
VERTEX
  8
0
 62
7
  6
CONTINUOUS
 10
134.5432804653
 20
190.0819526907
  0
VERTEX
  8
0
 62
7
  6
CONTINUOUS
 10
134.5399482242
 20
190.0933161736
  0
VERTEX
  8
0
 62
7
  6
CONTINUOUS
 10
134.5374919659
 20
190.1041404664
  0
VERTEX
  8
0
 62
7
  6
CONTINUOUS
 10
134.5359715126
 20
190.114375469
  0
VERTEX
  8
0
 62
7
  6
CONTINUOUS
 10
134.5354508197
 20
190.1240378815
  0
SEQEND
  0
LINE
  8
0
 62
7
  6
CONTINUOUS
 10
144.5854508197
 20
149.6024180328
 11
144.5854508197
 21
159.1407981841
  0
POLYLINE
  8
0
 62
7
  6
CONTINUOUS
 66
1
 70
0
  0
VERTEX
  8
0
 62
7
  6
CONTINUOUS
 10
144.5854508197
 20
159.1407981841
  0
VERTEX
  8
0
 62
7
  6
CONTINUOUS
 10
144.5859715126
 20
159.1504605966
  0
VERTEX
  8
0
 62
7
  6
CONTINUOUS
 10
144.5874919659
 20
159.1606955992
  0
VERTEX
  8
0
 62
7
  6
CONTINUOUS
 10
144.5899482242
 20
159.171519892
  0
VERTEX
  8
0
 62
7
  6
CONTINUOUS
 10
144.5932804653
 20
159.1828833749
  0
VERTEX
  8
0
 62
7
  6
CONTINUOUS
 10
144.5974311612
 20
159.1947511986
  0
VERTEX
  8
0
 62
7
  6
CONTINUOUS
 10
144.6023462751
 20
159.2070943105
  0
VERTEX
  8
0
 62
7
  6
CONTINUOUS
 10
144.6079748672
 20
159.2198804659
  0
VERTEX
  8
0
 62
7
  6
CONTINUOUS
 10
144.6142693778
 20
159.2330843921
  0
VERTEX
  8
0
 62
7
  6
CONTINUOUS
 10
144.6211856095
 20
159.2466773354
  0
VERTEX
  8
0
 62
7
  6
CONTINUOUS
 10
144.6286822012
 20
159.2606374937
  0
VERTEX
  8
0
 62
7
  6
CONTINUOUS
 10
144.6367212369
 20
159.2749397555
  0
VERTEX
  8
0
 62
7
  6
CONTINUOUS
 10
144.6452669264
 20
159.2895652959
  0
VERTEX
  8
0
 62
7
  6
CONTINUOUS
 10
144.6542868914
 20
159.3044924276
  0
VERTEX
  8
0
 62
7
  6
CONTINUOUS
 10
144.6637500673
 20
159.3197046253
  0
VERTEX
  8
0
 62
7
  6
CONTINUOUS
 10
144.6736285548
 20
159.3351828728
  0
VERTEX
  8
0
 62
7
  6
CONTINUOUS
 10
144.6838955305
 20
159.3509129549
  0
VERTEX
  8
0
 62
7
  6
CONTINUOUS
 10
144.6945271509
 20
159.3668786184
  0
VERTEX
  8
0
 62
7
  6
CONTINUOUS
 10
144.7054998022
 20
159.3830669619
  0
VERTEX
  8
0
 62
7
  6
CONTINUOUS
 10
144.716792644
 20
159.399463577
  0
VERTEX
  8
0
 62
7
  6
CONTINUOUS
 10
144.7283847792
 20
159.4160567313
  0
VERTEX
  8
0
 62
7
  6
CONTINUOUS
 10
144.7402577784
 20
159.4328334979
  0
VERTEX
  8
0
 62
7
  6
CONTINUOUS
 10
144.75239295
 20
159.4497830511
  0
VERTEX
  8
0
 62
7
  6
CONTINUOUS
 10
144.7647737883
 20
159.4668936368
  0
SEQEND
  0
POLYLINE
  8
0
 62
7
  6
CONTINUOUS
 66
1
 70
0
  0
VERTEX
  8
0
 62
7
  6
CONTINUOUS
 10
134.367922661
 20
190.1576030973
  0
VERTEX
  8
0
 62
7
  6
CONTINUOUS
 10
134.348616345
 20
190.1533959099
  0
VERTEX
  8
0
 62
7
  6
CONTINUOUS
 10
134.3283429602
 20
190.1491205274
  0
VERTEX
  8
0
 62
7
  6
CONTINUOUS
 10
134.3071561878
 20
190.144853658
  0
VERTEX
  8
0
 62
7
  6
CONTINUOUS
 10
134.2851201592
 20
190.1406653384
  0
VERTEX
  8
0
 62
7
  6
CONTINUOUS
 10
134.2622805777
 20
190.136627613
  0
VERTEX
  8
0
 62
7
  6
CONTINUOUS
 10
134.2387464091
 20
190.1328107056
  0
VERTEX
  8
0
 62
7
  6
CONTINUOUS
 10
134.2146204777
 20
190.1292879998
  0
VERTEX
  8
0
 62
7
  6
CONTINUOUS
 10
134.1899669108
 20
190.1261115642
  0
VERTEX
  8
0
 62
7
  6
CONTINUOUS
 10
134.1648533255
 20
190.1233352333
  0
VERTEX
  8
0
 62
7
  6
CONTINUOUS
 10
134.1393720775
 20
190.121001328
  0
VERTEX
  8
0
 62
7
  6
CONTINUOUS
 10
134.1136120295
 20
190.1191512805
  0
VERTEX
  8
0
 62
7
  6
CONTINUOUS
 10
134.0876512783
 20
190.1178092666
  0
VERTEX
  8
0
 62
7
  6
CONTINUOUS
 10
134.0616110064
 20
190.1169984233
  0
VERTEX
  8
0
 62
7
  6
CONTINUOUS
 10
134.0354508197
 20
190.1167260992
  0
SEQEND
  0
POLYLINE
  8
0
 62
7
  6
CONTINUOUS
 66
1
 70
0
  0
VERTEX
  8
0
 62
7
  6
CONTINUOUS
 10
134.5025018747
 20
190.1824180328
  0
VERTEX
  8
0
 62
7
  6
CONTINUOUS
 10
134.4938868602
 20
190.1821089636
  0
VERTEX
  8
0
 62
7
  6
CONTINUOUS
 10
134.4841554975
 20
190.1811983736
  0
VERTEX
  8
0
 62
7
  6
CONTINUOUS
 10
134.4733752487
 20
190.1797277259
  0
VERTEX
  8
0
 62
7
  6
CONTINUOUS
 10
134.4615363191
 20
190.1777403357
  0
VERTEX
  8
0
 62
7
  6
CONTINUOUS
 10
134.4486279722
 20
190.1752791505
  0
VERTEX
  8
0
 62
7
  6
CONTINUOUS
 10
134.4346427882
 20
190.1723911606
  0
VERTEX
  8
0
 62
7
  6
CONTINUOUS
 10
134.419562895
 20
190.1691220214
  0
VERTEX
  8
0
 62
7
  6
CONTINUOUS
 10
134.367922661
 20
190.1576030973
  0
SEQEND
  0
POLYLINE
  8
0
 62
7
  6
CONTINUOUS
 66
1
 70
0
  0
VERTEX
  8
0
 62
7
  6
CONTINUOUS
 10
118.2025018747
 20
190.1824180328
  0
VERTEX
  8
0
 62
7
  6
CONTINUOUS
 10
118.1938868602
 20
190.1821089636
  0
VERTEX
  8
0
 62
7
  6
CONTINUOUS
 10
118.1841554975
 20
190.1811983736
  0
VERTEX
  8
0
 62
7
  6
CONTINUOUS
 10
118.1733752487
 20
190.1797277259
  0
VERTEX
  8
0
 62
7
  6
CONTINUOUS
 10
118.1615363191
 20
190.1777403357
  0
VERTEX
  8
0
 62
7
  6
CONTINUOUS
 10
118.1486279722
 20
190.1752791505
  0
VERTEX
  8
0
 62
7
  6
CONTINUOUS
 10
118.1346427882
 20
190.1723911606
  0
VERTEX
  8
0
 62
7
  6
CONTINUOUS
 10
118.119562895
 20
190.1691220214
  0
SEQEND
  0
LINE
  8
0
 62
7
  6
CONTINUOUS
 10
134.0354508197
 20
190.1167260992
 11
128.3354508197
 21
190.1167260992
  0
LINE
  8
0
 62
7
  6
CONTINUOUS
 10
117.7354508197
 20
190.1167260992
 11
77.0604508138
 21
190.1167260992
  0
LINE
  8
0
 62
7
  6
CONTINUOUS
 10
144.6354508197
 20
190.1167260992
 11
185.3104508256
 21
190.1167260992
  0
LINE
  8
0
 62
7
  6
CONTINUOUS
 10
144.1684094799
 20
190.1824180328
 11
144.1354508197
 21
190.1824180328
  0
LINE
  8
0
 62
7
  6
CONTINUOUS
 10
134.5354508197
 20
190.1824180328
 11
134.5024921594
 21
190.1824180328
  0
LINE
  8
0
 62
7
  6
CONTINUOUS
 10
127.8684094799
 20
190.1824180328
 11
127.8354508197
 21
190.1824180328
  0
LINE
  8
0
 62
7
  6
CONTINUOUS
 10
118.2354508197
 20
190.1824180328
 11
118.2024921594
 21
190.1824180328
  0
POLYLINE
  8
0
 62
7
  6
CONTINUOUS
 66
1
 70
0
  0
VERTEX
  8
0
 62
7
  6
CONTINUOUS
 10
128.3354508197
 20
190.1167260992
  0
VERTEX
  8
0
 62
7
  6
CONTINUOUS
 10
128.3092906329
 20
190.1169984233
  0
VERTEX
  8
0
 62
7
  6
CONTINUOUS
 10
128.283250361
 20
190.1178092666
  0
VERTEX
  8
0
 62
7
  6
CONTINUOUS
 10
128.2572896099
 20
190.1191512805
  0
VERTEX
  8
0
 62
7
  6
CONTINUOUS
 10
128.2315295619
 20
190.121001328
  0
VERTEX
  8
0
 62
7
  6
CONTINUOUS
 10
128.2060483139
 20
190.1233352333
  0
VERTEX
  8
0
 62
7
  6
CONTINUOUS
 10
128.1809347285
 20
190.1261115642
  0
VERTEX
  8
0
 62
7
  6
CONTINUOUS
 10
128.1562811617
 20
190.1292879998
  0
VERTEX
  8
0
 62
7
  6
CONTINUOUS
 10
128.1321552302
 20
190.1328107056
  0
VERTEX
  8
0
 62
7
  6
CONTINUOUS
 10
128.1086210616
 20
190.136627613
  0
VERTEX
  8
0
 62
7
  6
CONTINUOUS
 10
128.0857814802
 20
190.1406653384
  0
VERTEX
  8
0
 62
7
  6
CONTINUOUS
 10
128.0637454516
 20
190.144853658
  0
VERTEX
  8
0
 62
7
  6
CONTINUOUS
 10
128.0425586791
 20
190.1491205274
  0
VERTEX
  8
0
 62
7
  6
CONTINUOUS
 10
128.0222852943
 20
190.1533959099
  0
VERTEX
  8
0
 62
7
  6
CONTINUOUS
 10
128.0029789783
 20
190.1576030973
  0
SEQEND
  0
POLYLINE
  8
0
 62
7
  6
CONTINUOUS
 66
1
 70
0
  0
VERTEX
  8
0
 62
7
  6
CONTINUOUS
 10
144.6354508197
 20
190.1167260992
  0
VERTEX
  8
0
 62
7
  6
CONTINUOUS
 10
144.6092906329
 20
190.1169984233
  0
VERTEX
  8
0
 62
7
  6
CONTINUOUS
 10
144.583250361
 20
190.1178092666
  0
VERTEX
  8
0
 62
7
  6
CONTINUOUS
 10
144.5572896099
 20
190.1191512805
  0
VERTEX
  8
0
 62
7
  6
CONTINUOUS
 10
144.5315295619
 20
190.121001328
  0
VERTEX
  8
0
 62
7
  6
CONTINUOUS
 10
144.5060483139
 20
190.1233352333
  0
VERTEX
  8
0
 62
7
  6
CONTINUOUS
 10
144.4809347285
 20
190.1261115642
  0
VERTEX
  8
0
 62
7
  6
CONTINUOUS
 10
144.4562811617
 20
190.1292879998
  0
VERTEX
  8
0
 62
7
  6
CONTINUOUS
 10
144.4321552302
 20
190.1328107056
  0
VERTEX
  8
0
 62
7
  6
CONTINUOUS
 10
144.4086210616
 20
190.136627613
  0
VERTEX
  8
0
 62
7
  6
CONTINUOUS
 10
144.3857814802
 20
190.1406653384
  0
VERTEX
  8
0
 62
7
  6
CONTINUOUS
 10
144.3637454516
 20
190.144853658
  0
VERTEX
  8
0
 62
7
  6
CONTINUOUS
 10
144.3425586791
 20
190.1491205274
  0
VERTEX
  8
0
 62
7
  6
CONTINUOUS
 10
144.3222852943
 20
190.1533959099
  0
VERTEX
  8
0
 62
7
  6
CONTINUOUS
 10
144.3029789783
 20
190.1576030973
  0
SEQEND
  0
POLYLINE
  8
0
 62
7
  6
CONTINUOUS
 66
1
 70
0
  0
VERTEX
  8
0
 62
7
  6
CONTINUOUS
 10
127.9513387443
 20
190.1691220214
  0
VERTEX
  8
0
 62
7
  6
CONTINUOUS
 10
127.9362588512
 20
190.1723911606
  0
VERTEX
  8
0
 62
7
  6
CONTINUOUS
 10
127.9222736671
 20
190.1752791505
  0
VERTEX
  8
0
 62
7
  6
CONTINUOUS
 10
127.9093653203
 20
190.1777403357
  0
VERTEX
  8
0
 62
7
  6
CONTINUOUS
 10
127.8975263907
 20
190.1797277259
  0
VERTEX
  8
0
 62
7
  6
CONTINUOUS
 10
127.8867461418
 20
190.1811983736
  0
VERTEX
  8
0
 62
7
  6
CONTINUOUS
 10
127.8770147791
 20
190.1821089636
  0
VERTEX
  8
0
 62
7
  6
CONTINUOUS
 10
127.8683997647
 20
190.1824180328
  0
SEQEND
  0
LINE
  8
0
 62
7
  6
CONTINUOUS
 10
128.0029789783
 20
190.1576030973
 11
127.9513387443
 21
190.1691220214
  0
LINE
  8
0
 62
7
  6
CONTINUOUS
 10
151.9854508197
 20
150.5023264959
 11
151.9854508197
 21
149.6024180328
  0
LINE
  8
0
 62
7
  6
CONTINUOUS
 10
144.7647737883
 20
159.4668936368
 11
144.7902067372
 21
159.5015566445
  0
LINE
  8
0
 62
7
  6
CONTINUOUS
 10
144.7902067372
 20
159.5015566445
 11
144.8164344455
 21
159.5367407317
  0
LINE
  8
0
 62
7
  6
CONTINUOUS
 10
144.8164344455
 20
159.5367407317
 11
144.8433438481
 21
159.5723679992
  0
LINE
  8
0
 62
7
  6
CONTINUOUS
 10
144.8433438481
 20
159.5723679992
 11
144.8708287136
 21
159.6083629232
  0
LINE
  8
0
 62
7
  6
CONTINUOUS
 10
144.8708287136
 20
159.6083629232
 11
144.9129139816
 21
159.6628815203
  0
LINE
  8
0
 62
7
  6
CONTINUOUS
 10
144.9129139816
 20
159.6628815203
 11
144.9701240036
 21
159.7361665424
  0
LINE
  8
0
 62
7
  6
CONTINUOUS
 10
144.9701240036
 20
159.7361665424
 11
145.0854508197
 21
159.8824180328
  0
LINE
  8
0
 62
7
  6
CONTINUOUS
 10
187.0528063537
 20
189.5588966897
 11
186.8104508197
 21
189.3824180328
  0
POLYLINE
  8
0
 62
7
  6
CONTINUOUS
 66
1
 70
0
  0
VERTEX
  8
0
 62
7
  6
CONTINUOUS
 10
118.119562895
 20
190.1691220214
  0
VERTEX
  8
0
 62
7
  6
CONTINUOUS
 10
118.067922661
 20
190.1576030973
  0
VERTEX
  8
0
 62
7
  6
CONTINUOUS
 10
118.048616345
 20
190.1533959099
  0
VERTEX
  8
0
 62
7
  6
CONTINUOUS
 10
118.0283429602
 20
190.1491205274
  0
VERTEX
  8
0
 62
7
  6
CONTINUOUS
 10
118.0071561878
 20
190.144853658
  0
VERTEX
  8
0
 62
7
  6
CONTINUOUS
 10
117.9851201592
 20
190.1406653384
  0
VERTEX
  8
0
 62
7
  6
CONTINUOUS
 10
117.9622805777
 20
190.136627613
  0
VERTEX
  8
0
 62
7
  6
CONTINUOUS
 10
117.9387464091
 20
190.1328107056
  0
VERTEX
  8
0
 62
7
  6
CONTINUOUS
 10
117.9146204777
 20
190.1292879998
  0
VERTEX
  8
0
 62
7
  6
CONTINUOUS
 10
117.8899669108
 20
190.1261115642
  0
VERTEX
  8
0
 62
7
  6
CONTINUOUS
 10
117.8648533255
 20
190.1233352333
  0
VERTEX
  8
0
 62
7
  6
CONTINUOUS
 10
117.8393720775
 20
190.121001328
  0
VERTEX
  8
0
 62
7
  6
CONTINUOUS
 10
117.8136120295
 20
190.1191512805
  0
VERTEX
  8
0
 62
7
  6
CONTINUOUS
 10
117.7876512783
 20
190.1178092666
  0
VERTEX
  8
0
 62
7
  6
CONTINUOUS
 10
117.7616110064
 20
190.1169984233
  0
VERTEX
  8
0
 62
7
  6
CONTINUOUS
 10
117.7354508197
 20
190.1167260992
  0
SEQEND
  0
LINE
  8
AXES
 62
2
  6
CENTER
 10
116.2354508197
 20
193.6824180328
 11
129.8354508197
 21
193.6824180328
  0
LINE
  8
DEFAULT_1
 62
2
  6
CENTER
 10
132.5354508197
 20
193.6824180328
 11
146.1354508197
 21
193.6824180328
  0
POLYLINE
  8
0
 62
7
  6
CONTINUOUS
 66
1
 70
0
  0
VERTEX
  8
0
 62
7
  6
CONTINUOUS
 10
144.2513387443
 20
190.1691220214
  0
VERTEX
  8
0
 62
7
  6
CONTINUOUS
 10
144.2362588512
 20
190.1723911606
  0
VERTEX
  8
0
 62
7
  6
CONTINUOUS
 10
144.2222736671
 20
190.1752791505
  0
VERTEX
  8
0
 62
7
  6
CONTINUOUS
 10
144.2093653203
 20
190.1777403357
  0
VERTEX
  8
0
 62
7
  6
CONTINUOUS
 10
144.1975263907
 20
190.1797277259
  0
VERTEX
  8
0
 62
7
  6
CONTINUOUS
 10
144.1867461418
 20
190.1811983736
  0
VERTEX
  8
0
 62
7
  6
CONTINUOUS
 10
144.1770147791
 20
190.1821089636
  0
VERTEX
  8
0
 62
7
  6
CONTINUOUS
 10
144.1683997647
 20
190.1824180328
  0
SEQEND
  0
LINE
  8
0
 62
7
  6
CONTINUOUS
 10
144.3029789783
 20
190.1576030973
 11
144.2513387443
 21
190.1691220214
  0
POLYLINE
  8
0
 62
7
  6
CONTINUOUS
 66
1
 70
0
  0
VERTEX
  8
0
 62
7
  6
CONTINUOUS
 10
151.9852689485
 20
150.5017783315
  0
VERTEX
  8
0
 62
7
  6
CONTINUOUS
 10
151.9852383954
 20
150.501437183
  0
VERTEX
  8
0
 62
7
  6
CONTINUOUS
 10
151.9851721301
 20
150.5008253712
  0
VERTEX
  8
0
 62
7
  6
CONTINUOUS
 10
151.9853528214
 20
150.5018680265
  0
VERTEX
  8
0
 62
7
  6
CONTINUOUS
 10
151.9859011579
 20
150.5044333325
  0
VERTEX
  8
0
 62
7
  6
CONTINUOUS
 10
151.9869301424
 20
150.5084731751
  0
VERTEX
  8
0
 62
7
  6
CONTINUOUS
 10
151.9885238169
 20
150.5138977718
  0
SEQEND
  0
LINE
  8
0
 62
7
  6
CONTINUOUS
 10
127.3354508197
 20
200.1824180328
 11
118.7354508197
 21
200.1824180328
  0
LINE
  8
0
 62
7
  6
CONTINUOUS
 10
135.0354508197
 20
200.1824180328
 11
143.6354508197
 21
200.1824180328
  0
POLYLINE
  8
0
 62
7
  6
CONTINUOUS
 66
1
 70
0
  0
VERTEX
  8
0
 62
7
  6
CONTINUOUS
 10
151.9885238169
 20
150.5138977718
  0
VERTEX
  8
0
 62
7
  6
CONTINUOUS
 10
151.9907809581
 20
150.5207141015
  0
VERTEX
  8
0
 62
7
  6
CONTINUOUS
 10
151.9937821186
 20
150.5288901529
  0
VERTEX
  8
0
 62
7
  6
CONTINUOUS
 10
151.9976319097
 20
150.5384802941
  0
VERTEX
  8
0
 62
7
  6
CONTINUOUS
 10
152.0024277958
 20
150.5495218242
  0
VERTEX
  8
0
 62
7
  6
CONTINUOUS
 10
152.0082706728
 20
150.5620608503
  0
VERTEX
  8
0
 62
7
  6
CONTINUOUS
 10
152.0152605126
 20
150.5761510994
  0
VERTEX
  8
0
 62
7
  6
CONTINUOUS
 10
152.0234801672
 20
150.591832121
  0
VERTEX
  8
0
 62
7
  6
CONTINUOUS
 10
152.0330048538
 20
150.609144518
  0
VERTEX
  8
0
 62
7
  6
CONTINUOUS
 10
152.0439270615
 20
150.6281784642
  0
SEQEND
  0
LINE
  8
0
 62
7
  6
CONTINUOUS
 10
152.0439270615
 20
150.6281784642
 11
152.0576048375
 21
150.6511575648
  0
LINE
  8
0
 62
7
  6
CONTINUOUS
 10
152.0575694585
 20
150.6511022895
 11
152.0572626658
 21
150.6505953913
  0
POLYLINE
  8
0
 62
7
  6
CONTINUOUS
 66
1
 70
0
  0
VERTEX
  8
0
 62
7
  6
CONTINUOUS
 10
185.8317167827
 20
151.5540186605
  0
VERTEX
  8
0
 62
7
  6
CONTINUOUS
 10
185.8329001162
 20
151.5294983576
  0
VERTEX
  8
0
 62
7
  6
CONTINUOUS
 10
185.833842312
 20
151.5051483641
  0
VERTEX
  8
0
 62
7
  6
CONTINUOUS
 10
185.8345483297
 20
151.4809712663
  0
VERTEX
  8
0
 62
7
  6
CONTINUOUS
 10
185.8350032908
 20
151.457026909
  0
VERTEX
  8
0
 62
7
  6
CONTINUOUS
 10
185.8351965965
 20
151.4333634237
  0
VERTEX
  8
0
 62
7
  6
CONTINUOUS
 10
185.8351203671
 20
151.4100088648
  0
VERTEX
  8
0
 62
7
  6
CONTINUOUS
 10
185.8347656297
 20
151.3869973323
  0
VERTEX
  8
0
 62
7
  6
CONTINUOUS
 10
185.8341250651
 20
151.3643516531
  0
VERTEX
  8
0
 62
7
  6
CONTINUOUS
 10
185.8331908651
 20
151.3420977189
  0
VERTEX
  8
0
 62
7
  6
CONTINUOUS
 10
185.8319555232
 20
151.3202546658
  0
VERTEX
  8
0
 62
7
  6
CONTINUOUS
 10
185.8304115809
 20
151.2988431554
  0
VERTEX
  8
0
 62
7
  6
CONTINUOUS
 10
185.828551086
 20
151.2778795326
  0
VERTEX
  8
0
 62
7
  6
CONTINUOUS
 10
185.826366494
 20
151.2573809233
  0
VERTEX
  8
0
 62
7
  6
CONTINUOUS
 10
185.8238491246
 20
151.2373611364
  0
VERTEX
  8
0
 62
7
  6
CONTINUOUS
 10
185.8209909172
 20
151.2178340966
  0
VERTEX
  8
0
 62
7
  6
CONTINUOUS
 10
185.8177824688
 20
151.1988124559
  0
VERTEX
  8
0
 62
7
  6
CONTINUOUS
 10
185.8142152652
 20
151.180308551
  0
VERTEX
  8
0
 62
7
  6
CONTINUOUS
 10
185.8102785792
 20
151.1623330201
  0
VERTEX
  8
0
 62
7
  6
CONTINUOUS
 10
185.8059630239
 20
151.1448961603
  0
VERTEX
  8
0
 62
7
  6
CONTINUOUS
 10
185.8012560649
 20
151.1280071996
  0
VERTEX
  8
0
 62
7
  6
CONTINUOUS
 10
185.7961470104
 20
151.1116747365
  0
VERTEX
  8
0
 62
7
  6
CONTINUOUS
 10
185.7906209456
 20
151.0959067723
  0
VERTEX
  8
0
 62
7
  6
CONTINUOUS
 10
185.7846654021
 20
151.080710411
  0
VERTEX
  8
0
 62
7
  6
CONTINUOUS
 10
185.7782623488
 20
151.0660925587
  0
VERTEX
  8
0
 62
7
  6
CONTINUOUS
 10
185.7713968406
 20
151.052058956
  0
VERTEX
  8
0
 62
7
  6
CONTINUOUS
 10
185.7640471521
 20
151.038615452
  0
VERTEX
  8
0
 62
7
  6
CONTINUOUS
 10
185.756195481
 20
151.0257664245
  0
VERTEX
  8
0
 62
7
  6
CONTINUOUS
 10
185.7478151129
 20
151.013516731
  0
VERTEX
  8
0
 62
7
  6
CONTINUOUS
 10
185.7388847589
 20
151.0018693219
  0
VERTEX
  8
0
 62
7
  6
CONTINUOUS
 10
185.7293703402
 20
150.9908281857
  0
VERTEX
  8
0
 62
7
  6
CONTINUOUS
 10
185.7192454488
 20
150.9803947711
  0
VERTEX
  8
0
 62
7
  6
CONTINUOUS
 10
185.7084657833
 20
150.9705722638
  0
VERTEX
  8
0
 62
7
  6
CONTINUOUS
 10
185.6969976018
 20
150.9613601937
  0
VERTEX
  8
0
 62
7
  6
CONTINUOUS
 10
185.6847828179
 20
150.9527616174
  0
VERTEX
  8
0
 62
7
  6
CONTINUOUS
 10
185.6717782134
 20
150.9447743252
  0
VERTEX
  8
0
 62
7
  6
CONTINUOUS
 10
185.6579054413
 20
150.9374005646
  0
VERTEX
  8
0
 62
7
  6
CONTINUOUS
 10
185.6431071339
 20
150.9306351407
  0
VERTEX
  8
0
 62
7
  6
CONTINUOUS
 10
185.6272771347
 20
150.9244797383
  0
VERTEX
  8
0
 62
7
  6
CONTINUOUS
 10
185.6103403223
 20
150.9189247558
  0
VERTEX
  8
0
 62
7
  6
CONTINUOUS
 10
185.5921462233
 20
150.9139714806
  0
VERTEX
  8
0
 62
7
  6
CONTINUOUS
 10
185.5725919032
 20
150.9096034517
  0
VERTEX
  8
0
 62
7
  6
CONTINUOUS
 10
185.5514596229
 20
150.9058214259
  0
VERTEX
  8
0
 62
7
  6
CONTINUOUS
 10
185.5286005471
 20
150.9025976751
  0
VERTEX
  8
0
 62
7
  6
CONTINUOUS
 10
185.5037050295
 20
150.8999315016
  0
VERTEX
  8
0
 62
7
  6
CONTINUOUS
 10
185.4763689046
 20
150.8978060927
  0
VERTEX
  8
0
 62
7
  6
CONTINUOUS
 10
185.4467268943
 20
150.8961293942
  0
SEQEND
  0
LINE
  8
0
 62
7
  6
CONTINUOUS
 10
188.3104508197
 20
187.1167260992
 11
188.3104508197
 21
153.8930326011
  0
POLYLINE
  8
0
 62
7
  6
CONTINUOUS
 66
1
 70
0
  0
VERTEX
  8
0
 62
7
  6
CONTINUOUS
 10
74.0604508197
 20
82.3672805721
  0
VERTEX
  8
0
 62
7
  6
CONTINUOUS
 10
74.0625054443
 20
82.2462494415
  0
VERTEX
  8
0
 62
7
  6
CONTINUOUS
 10
74.0684725215
 20
82.1312517053
  0
VERTEX
  8
0
 62
7
  6
CONTINUOUS
 10
74.0783879979
 20
82.0222013527
  0
VERTEX
  8
0
 62
7
  6
CONTINUOUS
 10
74.0921440338
 20
81.9186883454
  0
VERTEX
  8
0
 62
7
  6
CONTINUOUS
 10
74.109668179
 20
81.8203746422
  0
VERTEX
  8
0
 62
7
  6
CONTINUOUS
 10
74.1308902121
 20
81.7270200659
  0
VERTEX
  8
0
 62
7
  6
CONTINUOUS
 10
74.1557435412
 20
81.6383458369
  0
VERTEX
  8
0
 62
7
  6
CONTINUOUS
 10
74.1841448279
 20
81.5541748007
  0
VERTEX
  8
0
 62
7
  6
CONTINUOUS
 10
74.2160002676
 20
81.4743307717
  0
VERTEX
  8
0
 62
7
  6
CONTINUOUS
 10
74.2512746678
 20
81.3985566657
  0
VERTEX
  8
0
 62
7
  6
CONTINUOUS
 10
74.2899325811
 20
81.3265867117
  0
VERTEX
  8
0
 62
7
  6
CONTINUOUS
 10
74.3318809678
 20
81.258322768
  0
VERTEX
  8
0
 62
7
  6
CONTINUOUS
 10
74.3770154283
 20
81.1936542984
  0
VERTEX
  8
0
 62
7
  6
CONTINUOUS
 10
74.4253345943
 20
81.1323621103
  0
VERTEX
  8
0
 62
7
  6
CONTINUOUS
 10
74.4768279471
 20
81.0742329337
  0
VERTEX
  8
0
 62
7
  6
CONTINUOUS
 10
74.5314185389
 20
81.0191819542
  0
VERTEX
  8
0
 62
7
  6
CONTINUOUS
 10
74.589026102
 20
80.9671059175
  0
VERTEX
  8
0
 62
7
  6
CONTINUOUS
 10
74.6496500768
 20
80.9178564899
  0
VERTEX
  8
0
 62
7
  6
CONTINUOUS
 10
74.7132869838
 20
80.8712833284
  0
VERTEX
  8
0
 62
7
  6
CONTINUOUS
 10
74.7798653146
 20
80.8273144885
  0
VERTEX
  8
0
 62
7
  6
CONTINUOUS
 10
74.8493268203
 20
80.7858600521
  0
VERTEX
  8
0
 62
7
  6
CONTINUOUS
 10
74.9216282424
 20
80.7468290644
  0
VERTEX
  8
0
 62
7
  6
CONTINUOUS
 10
74.9967210939
 20
80.7101308659
  0
VERTEX
  8
0
 62
7
  6
CONTINUOUS
 10
75.0745628118
 20
80.6756837466
  0
VERTEX
  8
0
 62
7
  6
CONTINUOUS
 10
75.1551377413
 20
80.6433947199
  0
VERTEX
  8
0
 62
7
  6
CONTINUOUS
 10
75.2383166702
 20
80.6132168799
  0
VERTEX
  8
0
 62
7
  6
CONTINUOUS
 10
75.3239707033
 20
80.5851015703
  0
VERTEX
  8
0
 62
7
  6
CONTINUOUS
 10
75.4120832345
 20
80.5589626453
  0
VERTEX
  8
0
 62
7
  6
CONTINUOUS
 10
75.5026600555
 20
80.5347139393
  0
VERTEX
  8
0
 62
7
  6
CONTINUOUS
 10
75.5955050777
 20
80.5123230365
  0
VERTEX
  8
0
 62
7
  6
CONTINUOUS
 10
75.6904352293
 20
80.4917555722
  0
VERTEX
  8
0
 62
7
  6
CONTINUOUS
 10
75.7874172524
 20
80.4729390266
  0
VERTEX
  8
0
 62
7
  6
CONTINUOUS
 10
75.8864363599
 20
80.4558069142
  0
VERTEX
  8
0
 62
7
  6
CONTINUOUS
 10
75.9872540668
 20
80.4403292417
  0
VERTEX
  8
0
 62
7
  6
CONTINUOUS
 10
76.0896499946
 20
80.426478848
  0
VERTEX
  8
0
 62
7
  6
CONTINUOUS
 10
76.193555037
 20
80.4142010944
  0
VERTEX
  8
0
 62
7
  6
CONTINUOUS
 10
76.2989074703
 20
80.4034519344
  0
VERTEX
  8
0
 62
7
  6
CONTINUOUS
 10
76.4054647689
 20
80.3942036786
  0
VERTEX
  8
0
 62
7
  6
CONTINUOUS
 10
76.5130016251
 20
80.3864363481
  0
VERTEX
  8
0
 62
7
  6
CONTINUOUS
 10
76.6214046612
 20
80.3801163231
  0
VERTEX
  8
0
 62
7
  6
CONTINUOUS
 10
76.7305575538
 20
80.3752224499
  0
VERTEX
  8
0
 62
7
  6
CONTINUOUS
 10
76.8402438325
 20
80.3717368194
  0
VERTEX
  8
0
 62
7
  6
CONTINUOUS
 10
76.9501763469
 20
80.369653485
  0
VERTEX
  8
0
 62
7
  6
CONTINUOUS
 10
77.0604508138
 20
80.3689573978
  0
SEQEND
  0
LINE
  8
0
 62
7
  6
CONTINUOUS
 10
74.0604508197
 20
81.3864344262
 11
74.0604508197
 21
83.8664344262
  0
LINE
  8
0
 62
7
  6
CONTINUOUS
 10
110.3854508197
 20
84.3664344262
 11
110.3854508197
 21
93.0464344261
  0
LINE
  8
0
 62
7
  6
CONTINUOUS
 10
117.7854508197
 20
83.8664344262
 11
117.7854508197
 21
93.0464344262
  0
LINE
  8
0
 62
7
  6
CONTINUOUS
 10
118.2354508197
 20
80.3864344262
 11
118.2354508197
 21
93.0664344261
  0
POLYLINE
  8
0
 62
7
  6
CONTINUOUS
 66
1
 70
0
  0
VERTEX
  8
0
 62
7
  6
CONTINUOUS
 10
118.2354508197
 20
80.8849028897
  0
VERTEX
  8
0
 62
7
  6
CONTINUOUS
 10
118.234921238
 20
80.8582669533
  0
VERTEX
  8
0
 62
7
  6
CONTINUOUS
 10
118.2333623091
 20
80.832132551
  0
VERTEX
  8
0
 62
7
  6
CONTINUOUS
 10
118.2307705005
 20
80.806565374
  0
VERTEX
  8
0
 62
7
  6
CONTINUOUS
 10
118.2271564093
 20
80.7815365925
  0
VERTEX
  8
0
 62
7
  6
CONTINUOUS
 10
118.2225295338
 20
80.7570260038
  0
VERTEX
  8
0
 62
7
  6
CONTINUOUS
 10
118.2168896386
 20
80.7330429282
  0
VERTEX
  8
0
 62
7
  6
CONTINUOUS
 10
118.2102444428
 20
80.7095851459
  0
VERTEX
  8
0
 62
7
  6
CONTINUOUS
 10
118.2025795826
 20
80.6866450662
  0
VERTEX
  8
0
 62
7
  6
CONTINUOUS
 10
118.1938868602
 20
80.6641989791
  0
VERTEX
  8
0
 62
7
  6
CONTINUOUS
 10
118.1841554975
 20
80.642275995
  0
VERTEX
  8
0
 62
7
  6
CONTINUOUS
 10
118.1733752487
 20
80.6208809881
  0
VERTEX
  8
0
 62
7
  6
CONTINUOUS
 10
118.1615363191
 20
80.6000490427
  0
VERTEX
  8
0
 62
7
  6
CONTINUOUS
 10
118.1486279722
 20
80.5797983721
  0
VERTEX
  8
0
 62
7
  6
CONTINUOUS
 10
118.1346427882
 20
80.5601709819
  0
VERTEX
  8
0
 62
7
  6
CONTINUOUS
 10
118.119562895
 20
80.5411869331
  0
VERTEX
  8
0
 62
7
  6
CONTINUOUS
 10
118.1034089119
 20
80.5229161361
  0
VERTEX
  8
0
 62
7
  6
CONTINUOUS
 10
118.0861874005
 20
80.505410628
  0
VERTEX
  8
0
 62
7
  6
CONTINUOUS
 10
118.067922661
 20
80.4887272798
  0
VERTEX
  8
0
 62
7
  6
CONTINUOUS
 10
118.048616345
 20
80.4729089875
  0
VERTEX
  8
0
 62
7
  6
CONTINUOUS
 10
118.0283429602
 20
80.4580328397
  0
VERTEX
  8
0
 62
7
  6
CONTINUOUS
 10
118.0071561878
 20
80.4441702782
  0
VERTEX
  8
0
 62
7
  6
CONTINUOUS
 10
117.9851201592
 20
80.4313638016
  0
VERTEX
  8
0
 62
7
  6
CONTINUOUS
 10
117.9622805777
 20
80.4196612847
  0
VERTEX
  8
0
 62
7
  6
CONTINUOUS
 10
117.9387464091
 20
80.4091063954
  0
VERTEX
  8
0
 62
7
  6
CONTINUOUS
 10
117.9146204777
 20
80.3997547227
  0
VERTEX
  8
0
 62
7
  6
CONTINUOUS
 10
117.8899669108
 20
80.3916125624
  0
VERTEX
  8
0
 62
7
  6
CONTINUOUS
 10
117.8648533255
 20
80.3847032513
  0
VERTEX
  8
0
 62
7
  6
CONTINUOUS
 10
117.8393720775
 20
80.3790344978
  0
VERTEX
  8
0
 62
7
  6
CONTINUOUS
 10
117.8136120295
 20
80.3746265981
  0
VERTEX
  8
0
 62
7
  6
CONTINUOUS
 10
117.7876512783
 20
80.3714745348
  0
VERTEX
  8
0
 62
7
  6
CONTINUOUS
 10
117.7616110064
 20
80.3695880126
  0
VERTEX
  8
0
 62
7
  6
CONTINUOUS
 10
117.7354508197
 20
80.3689573978
  0
SEQEND
  0
POLYLINE
  8
0
 62
7
  6
CONTINUOUS
 66
1
 70
0
  0
VERTEX
  8
0
 62
7
  6
CONTINUOUS
 10
76.2699658366
 20
80.1912059651
  0
VERTEX
  8
0
 62
7
  6
CONTINUOUS
 10
75.9976730274
 20
80.0959196673
  0
VERTEX
  8
0
 62
7
  6
CONTINUOUS
 10
75.9070707225
 20
80.0649417996
  0
VERTEX
  8
0
 62
7
  6
CONTINUOUS
 10
75.8209297081
 20
80.0363655459
  0
VERTEX
  8
0
 62
7
  6
CONTINUOUS
 10
75.7383402461
 20
80.0100886752
  0
VERTEX
  8
0
 62
7
  6
CONTINUOUS
 10
75.6594211581
 20
79.9863073286
  0
VERTEX
  8
0
 62
7
  6
CONTINUOUS
 10
75.5841080528
 20
79.9650792834
  0
VERTEX
  8
0
 62
7
  6
CONTINUOUS
 10
75.5124103678
 20
79.9464664846
  0
VERTEX
  8
0
 62
7
  6
CONTINUOUS
 10
75.4442254379
 20
79.9304567926
  0
VERTEX
  8
0
 62
7
  6
CONTINUOUS
 10
75.3794413039
 20
79.9170365294
  0
VERTEX
  8
0
 62
7
  6
CONTINUOUS
 10
75.3180952857
 20
79.9061426323
  0
SEQEND
  0
LINE
  8
0
 62
7
  6
CONTINUOUS
 10
127.8354508197
 20
93.0664344262
 11
127.8354508197
 21
80.3864344262
  0
POLYLINE
  8
0
 62
7
  6
CONTINUOUS
 66
1
 70
0
  0
VERTEX
  8
0
 62
7
  6
CONTINUOUS
 10
77.0604507434
 20
80.3689573978
  0
VERTEX
  8
0
 62
7
  6
CONTINUOUS
 10
77.0067559458
 20
80.3678988842
  0
VERTEX
  8
0
 62
7
  6
CONTINUOUS
 10
76.9515813004
 20
80.3644253255
  0
VERTEX
  8
0
 62
7
  6
CONTINUOUS
 10
76.8950823942
 20
80.3586084172
  0
VERTEX
  8
0
 62
7
  6
CONTINUOUS
 10
76.8367924664
 20
80.3503047874
  0
VERTEX
  8
0
 62
7
  6
CONTINUOUS
 10
76.7763622109
 20
80.339430896
  0
VERTEX
  8
0
 62
7
  6
CONTINUOUS
 10
76.7135948511
 20
80.3259709214
  0
VERTEX
  8
0
 62
7
  6
CONTINUOUS
 10
76.6483202222
 20
80.3099367657
  0
VERTEX
  8
0
 62
7
  6
CONTINUOUS
 10
76.5801091832
 20
80.2912946116
  0
VERTEX
  8
0
 62
7
  6
CONTINUOUS
 10
76.5086377841
 20
80.2701006011
  0
VERTEX
  8
0
 62
7
  6
CONTINUOUS
 10
76.4334202872
 20
80.2463080219
  0
VERTEX
  8
0
 62
7
  6
CONTINUOUS
 10
76.3537906623
 20
80.2199202831
  0
VERTEX
  8
0
 62
7
  6
CONTINUOUS
 10
76.2699658366
 20
80.1912059651
  0
SEQEND
  0
LINE
  8
0
 62
7
  6
CONTINUOUS
 10
186.8104508197
 20
79.8864344262
 11
75.5604508197
 21
79.8864344262
  0
LINE
  8
0
 62
7
  6
CONTINUOUS
 10
134.0354508197
 20
80.3689573978
 11
128.3354508197
 21
80.3689573978
  0
LINE
  8
0
 62
7
  6
CONTINUOUS
 10
117.7354508197
 20
80.3689573978
 11
77.0604508138
 21
80.3689573978
  0
LINE
  8
0
 62
7
  6
CONTINUOUS
 10
144.6354508197
 20
80.3689573978
 11
185.3104508256
 21
80.3689573978
  0
POLYLINE
  8
0
 62
7
  6
CONTINUOUS
 66
1
 70
0
  0
VERTEX
  8
0
 62
7
  6
CONTINUOUS
 10
185.3104508959
 20
80.3689573978
  0
VERTEX
  8
0
 62
7
  6
CONTINUOUS
 10
185.3641456935
 20
80.3678988842
  0
VERTEX
  8
0
 62
7
  6
CONTINUOUS
 10
185.4193203389
 20
80.3644253255
  0
VERTEX
  8
0
 62
7
  6
CONTINUOUS
 10
185.4758192452
 20
80.3586084172
  0
VERTEX
  8
0
 62
7
  6
CONTINUOUS
 10
185.534109173
 20
80.3503047874
  0
VERTEX
  8
0
 62
7
  6
CONTINUOUS
 10
185.5945394285
 20
80.339430896
  0
VERTEX
  8
0
 62
7
  6
CONTINUOUS
 10
185.6573067882
 20
80.3259709214
  0
VERTEX
  8
0
 62
7
  6
CONTINUOUS
 10
185.7225814171
 20
80.3099367657
  0
VERTEX
  8
0
 62
7
  6
CONTINUOUS
 10
185.7907924561
 20
80.2912946116
  0
VERTEX
  8
0
 62
7
  6
CONTINUOUS
 10
185.8622638552
 20
80.2701006011
  0
VERTEX
  8
0
 62
7
  6
CONTINUOUS
 10
185.9374813521
 20
80.2463080219
  0
VERTEX
  8
0
 62
7
  6
CONTINUOUS
 10
186.0171109771
 20
80.2199202831
  0
VERTEX
  8
0
 62
7
  6
CONTINUOUS
 10
186.1009358027
 20
80.1912059651
  0
SEQEND
  0
POLYLINE
  8
0
 62
7
  6
CONTINUOUS
 66
1
 70
0
  0
VERTEX
  8
0
 62
7
  6
CONTINUOUS
 10
128.3354508197
 20
80.3689573978
  0
VERTEX
  8
0
 62
7
  6
CONTINUOUS
 10
128.3092906329
 20
80.3695880126
  0
VERTEX
  8
0
 62
7
  6
CONTINUOUS
 10
128.283250361
 20
80.3714745348
  0
VERTEX
  8
0
 62
7
  6
CONTINUOUS
 10
128.2572896099
 20
80.3746265981
  0
VERTEX
  8
0
 62
7
  6
CONTINUOUS
 10
128.2315295619
 20
80.3790344978
  0
VERTEX
  8
0
 62
7
  6
CONTINUOUS
 10
128.2060483139
 20
80.3847032513
  0
VERTEX
  8
0
 62
7
  6
CONTINUOUS
 10
128.1809347285
 20
80.3916125624
  0
VERTEX
  8
0
 62
7
  6
CONTINUOUS
 10
128.1562811617
 20
80.3997547227
  0
VERTEX
  8
0
 62
7
  6
CONTINUOUS
 10
128.1321552302
 20
80.4091063954
  0
VERTEX
  8
0
 62
7
  6
CONTINUOUS
 10
128.1086210616
 20
80.4196612847
  0
VERTEX
  8
0
 62
7
  6
CONTINUOUS
 10
128.0857814802
 20
80.4313638016
  0
VERTEX
  8
0
 62
7
  6
CONTINUOUS
 10
128.0637454516
 20
80.4441702782
  0
VERTEX
  8
0
 62
7
  6
CONTINUOUS
 10
128.0425586791
 20
80.4580328397
  0
VERTEX
  8
0
 62
7
  6
CONTINUOUS
 10
128.0222852943
 20
80.4729089875
  0
VERTEX
  8
0
 62
7
  6
CONTINUOUS
 10
128.0029789783
 20
80.4887272798
  0
VERTEX
  8
0
 62
7
  6
CONTINUOUS
 10
127.9847142388
 20
80.505410628
  0
VERTEX
  8
0
 62
7
  6
CONTINUOUS
 10
127.9674927274
 20
80.5229161361
  0
VERTEX
  8
0
 62
7
  6
CONTINUOUS
 10
127.9513387443
 20
80.5411869331
  0
VERTEX
  8
0
 62
7
  6
CONTINUOUS
 10
127.9362588512
 20
80.5601709819
  0
VERTEX
  8
0
 62
7
  6
CONTINUOUS
 10
127.9222736671
 20
80.5797983721
  0
VERTEX
  8
0
 62
7
  6
CONTINUOUS
 10
127.9093653203
 20
80.6000490427
  0
VERTEX
  8
0
 62
7
  6
CONTINUOUS
 10
127.8975263907
 20
80.6208809881
  0
VERTEX
  8
0
 62
7
  6
CONTINUOUS
 10
127.8867461418
 20
80.642275995
  0
VERTEX
  8
0
 62
7
  6
CONTINUOUS
 10
127.8770147791
 20
80.6641989791
  0
VERTEX
  8
0
 62
7
  6
CONTINUOUS
 10
127.8683220567
 20
80.6866450662
  0
VERTEX
  8
0
 62
7
  6
CONTINUOUS
 10
127.8606571966
 20
80.7095851459
  0
VERTEX
  8
0
 62
7
  6
CONTINUOUS
 10
127.8540120007
 20
80.7330429282
  0
VERTEX
  8
0
 62
7
  6
CONTINUOUS
 10
127.8483721056
 20
80.7570260038
  0
VERTEX
  8
0
 62
7
  6
CONTINUOUS
 10
127.84374523
 20
80.7815365925
  0
VERTEX
  8
0
 62
7
  6
CONTINUOUS
 10
127.8401311389
 20
80.806565374
  0
VERTEX
  8
0
 62
7
  6
CONTINUOUS
 10
127.8375393302
 20
80.832132551
  0
VERTEX
  8
0
 62
7
  6
CONTINUOUS
 10
127.8359804013
 20
80.8582669533
  0
VERTEX
  8
0
 62
7
  6
CONTINUOUS
 10
127.8354508197
 20
80.8849028897
  0
SEQEND
  0
POLYLINE
  8
0
 62
7
  6
CONTINUOUS
 66
1
 70
0
  0
VERTEX
  8
0
 62
7
  6
CONTINUOUS
 10
144.6354508197
 20
80.3689573978
  0
VERTEX
  8
0
 62
7
  6
CONTINUOUS
 10
144.6092906329
 20
80.3695880126
  0
VERTEX
  8
0
 62
7
  6
CONTINUOUS
 10
144.583250361
 20
80.3714745348
  0
VERTEX
  8
0
 62
7
  6
CONTINUOUS
 10
144.5572896099
 20
80.3746265981
  0
VERTEX
  8
0
 62
7
  6
CONTINUOUS
 10
144.5315295619
 20
80.3790344978
  0
VERTEX
  8
0
 62
7
  6
CONTINUOUS
 10
144.5060483139
 20
80.3847032513
  0
VERTEX
  8
0
 62
7
  6
CONTINUOUS
 10
144.4809347285
 20
80.3916125624
  0
VERTEX
  8
0
 62
7
  6
CONTINUOUS
 10
144.4562811617
 20
80.3997547227
  0
VERTEX
  8
0
 62
7
  6
CONTINUOUS
 10
144.4321552302
 20
80.4091063954
  0
VERTEX
  8
0
 62
7
  6
CONTINUOUS
 10
144.4086210616
 20
80.4196612847
  0
VERTEX
  8
0
 62
7
  6
CONTINUOUS
 10
144.3857814802
 20
80.4313638016
  0
VERTEX
  8
0
 62
7
  6
CONTINUOUS
 10
144.3637454516
 20
80.4441702782
  0
VERTEX
  8
0
 62
7
  6
CONTINUOUS
 10
144.3425586791
 20
80.4580328397
  0
VERTEX
  8
0
 62
7
  6
CONTINUOUS
 10
144.3222852943
 20
80.4729089875
  0
VERTEX
  8
0
 62
7
  6
CONTINUOUS
 10
144.3029789783
 20
80.4887272798
  0
VERTEX
  8
0
 62
7
  6
CONTINUOUS
 10
144.2847142388
 20
80.505410628
  0
VERTEX
  8
0
 62
7
  6
CONTINUOUS
 10
144.2674927274
 20
80.5229161361
  0
VERTEX
  8
0
 62
7
  6
CONTINUOUS
 10
144.2513387443
 20
80.5411869331
  0
VERTEX
  8
0
 62
7
  6
CONTINUOUS
 10
144.2362588512
 20
80.5601709819
  0
VERTEX
  8
0
 62
7
  6
CONTINUOUS
 10
144.2222736671
 20
80.5797983721
  0
VERTEX
  8
0
 62
7
  6
CONTINUOUS
 10
144.2093653203
 20
80.6000490427
  0
VERTEX
  8
0
 62
7
  6
CONTINUOUS
 10
144.1975263907
 20
80.6208809881
  0
VERTEX
  8
0
 62
7
  6
CONTINUOUS
 10
144.1867461418
 20
80.642275995
  0
VERTEX
  8
0
 62
7
  6
CONTINUOUS
 10
144.1770147791
 20
80.6641989791
  0
VERTEX
  8
0
 62
7
  6
CONTINUOUS
 10
144.1683220567
 20
80.6866450662
  0
VERTEX
  8
0
 62
7
  6
CONTINUOUS
 10
144.1606571966
 20
80.7095851459
  0
VERTEX
  8
0
 62
7
  6
CONTINUOUS
 10
144.1540120007
 20
80.7330429282
  0
VERTEX
  8
0
 62
7
  6
CONTINUOUS
 10
144.1483721056
 20
80.7570260038
  0
VERTEX
  8
0
 62
7
  6
CONTINUOUS
 10
144.14374523
 20
80.7815365925
  0
VERTEX
  8
0
 62
7
  6
CONTINUOUS
 10
144.1401311389
 20
80.806565374
  0
VERTEX
  8
0
 62
7
  6
CONTINUOUS
 10
144.1375393302
 20
80.832132551
  0
VERTEX
  8
0
 62
7
  6
CONTINUOUS
 10
144.1359804013
 20
80.8582669533
  0
VERTEX
  8
0
 62
7
  6
CONTINUOUS
 10
144.1354508197
 20
80.8849028897
  0
SEQEND
  0
LINE
  8
DEFAULT_1
 62
2
  6
CENTER
 10
131.1854508197
 20
77.8864344262
 11
131.1854508197
 21
96.1010786835
  0
LINE
  8
0
 62
7
  6
CONTINUOUS
 10
188.3104508197
 20
83.8664344262
 11
144.1354508197
 21
83.8664344262
  0
LINE
  8
0
 62
7
  6
CONTINUOUS
 10
134.0354508197
 20
83.8664344262
 11
128.3354508197
 21
83.8664344262
  0
LINE
  8
0
 62
7
  6
CONTINUOUS
 10
118.2354508197
 20
83.8664344262
 11
74.0604508197
 21
83.8664344262
  0
LINE
  8
AXES
 62
2
  6
CENTER
 10
108.3854508197
 20
87.0664344262
 11
152.7854508197
 21
87.0664344262
  0
LINE
  8
0
 62
7
  6
CONTINUOUS
 10
134.5354508197
 20
80.3864344262
 11
134.5354508197
 21
93.0664344262
  0
POLYLINE
  8
0
 62
7
  6
CONTINUOUS
 66
1
 70
0
  0
VERTEX
  8
0
 62
7
  6
CONTINUOUS
 10
134.5354508197
 20
80.8849028897
  0
VERTEX
  8
0
 62
7
  6
CONTINUOUS
 10
134.534921238
 20
80.8582669533
  0
VERTEX
  8
0
 62
7
  6
CONTINUOUS
 10
134.5333623091
 20
80.832132551
  0
VERTEX
  8
0
 62
7
  6
CONTINUOUS
 10
134.5307705005
 20
80.806565374
  0
VERTEX
  8
0
 62
7
  6
CONTINUOUS
 10
134.5271564093
 20
80.7815365925
  0
VERTEX
  8
0
 62
7
  6
CONTINUOUS
 10
134.5225295338
 20
80.7570260038
  0
VERTEX
  8
0
 62
7
  6
CONTINUOUS
 10
134.5168896386
 20
80.7330429282
  0
VERTEX
  8
0
 62
7
  6
CONTINUOUS
 10
134.5102444428
 20
80.7095851459
  0
VERTEX
  8
0
 62
7
  6
CONTINUOUS
 10
134.5025795826
 20
80.6866450662
  0
VERTEX
  8
0
 62
7
  6
CONTINUOUS
 10
134.4938868602
 20
80.6641989791
  0
VERTEX
  8
0
 62
7
  6
CONTINUOUS
 10
134.4841554975
 20
80.642275995
  0
VERTEX
  8
0
 62
7
  6
CONTINUOUS
 10
134.4733752487
 20
80.6208809881
  0
VERTEX
  8
0
 62
7
  6
CONTINUOUS
 10
134.4615363191
 20
80.6000490427
  0
VERTEX
  8
0
 62
7
  6
CONTINUOUS
 10
134.4486279722
 20
80.5797983721
  0
VERTEX
  8
0
 62
7
  6
CONTINUOUS
 10
134.4346427882
 20
80.5601709819
  0
VERTEX
  8
0
 62
7
  6
CONTINUOUS
 10
134.419562895
 20
80.5411869331
  0
VERTEX
  8
0
 62
7
  6
CONTINUOUS
 10
134.4034089119
 20
80.5229161361
  0
VERTEX
  8
0
 62
7
  6
CONTINUOUS
 10
134.3861874005
 20
80.505410628
  0
VERTEX
  8
0
 62
7
  6
CONTINUOUS
 10
134.367922661
 20
80.4887272798
  0
VERTEX
  8
0
 62
7
  6
CONTINUOUS
 10
134.348616345
 20
80.4729089875
  0
VERTEX
  8
0
 62
7
  6
CONTINUOUS
 10
134.3283429602
 20
80.4580328397
  0
VERTEX
  8
0
 62
7
  6
CONTINUOUS
 10
134.3071561878
 20
80.4441702782
  0
VERTEX
  8
0
 62
7
  6
CONTINUOUS
 10
134.2851201592
 20
80.4313638016
  0
VERTEX
  8
0
 62
7
  6
CONTINUOUS
 10
134.2622805777
 20
80.4196612847
  0
VERTEX
  8
0
 62
7
  6
CONTINUOUS
 10
134.2387464091
 20
80.4091063954
  0
VERTEX
  8
0
 62
7
  6
CONTINUOUS
 10
134.2146204777
 20
80.3997547227
  0
VERTEX
  8
0
 62
7
  6
CONTINUOUS
 10
134.1899669108
 20
80.3916125624
  0
VERTEX
  8
0
 62
7
  6
CONTINUOUS
 10
134.1648533255
 20
80.3847032513
  0
VERTEX
  8
0
 62
7
  6
CONTINUOUS
 10
134.1393720775
 20
80.3790344978
  0
VERTEX
  8
0
 62
7
  6
CONTINUOUS
 10
134.1136120295
 20
80.3746265981
  0
VERTEX
  8
0
 62
7
  6
CONTINUOUS
 10
134.0876512783
 20
80.3714745348
  0
VERTEX
  8
0
 62
7
  6
CONTINUOUS
 10
134.0616110064
 20
80.3695880126
  0
VERTEX
  8
0
 62
7
  6
CONTINUOUS
 10
134.0354508197
 20
80.3689573978
  0
SEQEND
  0
LINE
  8
0
 62
7
  6
CONTINUOUS
 10
151.4854508197
 20
93.5464344262
 11
145.0854508197
 21
93.5464344262
  0
LINE
  8
0
 62
7
  6
CONTINUOUS
 10
117.2854508197
 20
93.5464344262
 11
110.8854508197
 21
93.5464344262
  0
LINE
  8
0
 62
7
  6
CONTINUOUS
 10
118.7354508197
 20
93.5664344262
 11
143.6354508197
 21
93.5664344262
  0
POLYLINE
  8
0
 62
7
  6
CONTINUOUS
 66
1
 70
0
  0
VERTEX
  8
0
 62
7
  6
CONTINUOUS
 10
186.373228612
 20
80.0959196673
  0
VERTEX
  8
0
 62
7
  6
CONTINUOUS
 10
186.4638309168
 20
80.0649417996
  0
VERTEX
  8
0
 62
7
  6
CONTINUOUS
 10
186.5499719312
 20
80.0363655459
  0
VERTEX
  8
0
 62
7
  6
CONTINUOUS
 10
186.6325613932
 20
80.0100886752
  0
VERTEX
  8
0
 62
7
  6
CONTINUOUS
 10
186.7114804812
 20
79.9863073286
  0
VERTEX
  8
0
 62
7
  6
CONTINUOUS
 10
186.7867935865
 20
79.9650792834
  0
VERTEX
  8
0
 62
7
  6
CONTINUOUS
 10
186.8584912716
 20
79.9464664846
  0
VERTEX
  8
0
 62
7
  6
CONTINUOUS
 10
186.9266762015
 20
79.9304567926
  0
VERTEX
  8
0
 62
7
  6
CONTINUOUS
 10
186.9914603354
 20
79.9170365294
  0
VERTEX
  8
0
 62
7
  6
CONTINUOUS
 10
187.0528063537
 20
79.9061426323
  0
SEQEND
  0
LINE
  8
0
 62
7
  6
CONTINUOUS
 10
186.1009358027
 20
80.1912059651
 11
186.373228612
 21
80.0959196673
  0
LINE
  8
0
 62
7
  6
CONTINUOUS
 10
144.1354508197
 20
93.0664344261
 11
144.1354508197
 21
80.3864344262
  0
LINE
  8
0
 62
7
  6
CONTINUOUS
 10
144.5854508197
 20
83.8664344262
 11
144.5854508197
 21
93.0464344261
  0
LINE
  8
0
 62
7
  6
CONTINUOUS
 10
151.9854508197
 20
93.0464344261
 11
151.9854508197
 21
84.3664344262
  0
LINE
  8
0
 62
7
  6
CONTINUOUS
 10
188.3104508197
 20
81.3864344262
 11
188.3104508197
 21
83.8664344262
  0
POLYLINE
  8
0
 62
7
  6
CONTINUOUS
 66
1
 70
0
  0
VERTEX
  8
0
 62
7
  6
CONTINUOUS
 10
188.3104508197
 20
82.3672805721
  0
VERTEX
  8
0
 62
7
  6
CONTINUOUS
 10
188.3083961951
 20
82.2462494415
  0
VERTEX
  8
0
 62
7
  6
CONTINUOUS
 10
188.3024291178
 20
82.1312517053
  0
VERTEX
  8
0
 62
7
  6
CONTINUOUS
 10
188.2925136415
 20
82.0222013527
  0
VERTEX
  8
0
 62
7
  6
CONTINUOUS
 10
188.2787576055
 20
81.9186883454
  0
VERTEX
  8
0
 62
7
  6
CONTINUOUS
 10
188.2612334603
 20
81.8203746422
  0
VERTEX
  8
0
 62
7
  6
CONTINUOUS
 10
188.2400114272
 20
81.7270200659
  0
VERTEX
  8
0
 62
7
  6
CONTINUOUS
 10
188.2151580982
 20
81.6383458369
  0
VERTEX
  8
0
 62
7
  6
CONTINUOUS
 10
188.1867568115
 20
81.5541748007
  0
VERTEX
  8
0
 62
7
  6
CONTINUOUS
 10
188.1549013718
 20
81.4743307717
  0
VERTEX
  8
0
 62
7
  6
CONTINUOUS
 10
188.1196269716
 20
81.3985566657
  0
VERTEX
  8
0
 62
7
  6
CONTINUOUS
 10
188.0809690582
 20
81.3265867117
  0
VERTEX
  8
0
 62
7
  6
CONTINUOUS
 10
188.0390206715
 20
81.258322768
  0
VERTEX
  8
0
 62
7
  6
CONTINUOUS
 10
187.9938862111
 20
81.1936542984
  0
VERTEX
  8
0
 62
7
  6
CONTINUOUS
 10
187.945567045
 20
81.1323621103
  0
VERTEX
  8
0
 62
7
  6
CONTINUOUS
 10
187.8940736922
 20
81.0742329337
  0
VERTEX
  8
0
 62
7
  6
CONTINUOUS
 10
187.8394831005
 20
81.0191819542
  0
VERTEX
  8
0
 62
7
  6
CONTINUOUS
 10
187.7818755374
 20
80.9671059175
  0
VERTEX
  8
0
 62
7
  6
CONTINUOUS
 10
187.7212515626
 20
80.9178564899
  0
VERTEX
  8
0
 62
7
  6
CONTINUOUS
 10
187.6576146555
 20
80.8712833284
  0
VERTEX
  8
0
 62
7
  6
CONTINUOUS
 10
187.5910363247
 20
80.8273144885
  0
VERTEX
  8
0
 62
7
  6
CONTINUOUS
 10
187.5215748191
 20
80.7858600521
  0
VERTEX
  8
0
 62
7
  6
CONTINUOUS
 10
187.449273397
 20
80.7468290644
  0
VERTEX
  8
0
 62
7
  6
CONTINUOUS
 10
187.3741805454
 20
80.7101308659
  0
VERTEX
  8
0
 62
7
  6
CONTINUOUS
 10
187.2963388275
 20
80.6756837466
  0
VERTEX
  8
0
 62
7
  6
CONTINUOUS
 10
187.215763898
 20
80.6433947199
  0
VERTEX
  8
0
 62
7
  6
CONTINUOUS
 10
187.1325849691
 20
80.6132168799
  0
VERTEX
  8
0
 62
7
  6
CONTINUOUS
 10
187.046930936
 20
80.5851015703
  0
VERTEX
  8
0
 62
7
  6
CONTINUOUS
 10
186.9588184048
 20
80.5589626453
  0
VERTEX
  8
0
 62
7
  6
CONTINUOUS
 10
186.8682415839
 20
80.5347139393
  0
VERTEX
  8
0
 62
7
  6
CONTINUOUS
 10
186.7753965616
 20
80.5123230365
  0
VERTEX
  8
0
 62
7
  6
CONTINUOUS
 10
186.68046641
 20
80.4917555722
  0
VERTEX
  8
0
 62
7
  6
CONTINUOUS
 10
186.583484387
 20
80.4729390266
  0
VERTEX
  8
0
 62
7
  6
CONTINUOUS
 10
186.4844652795
 20
80.4558069142
  0
VERTEX
  8
0
 62
7
  6
CONTINUOUS
 10
186.3836475725
 20
80.4403292417
  0
VERTEX
  8
0
 62
7
  6
CONTINUOUS
 10
186.2812516448
 20
80.426478848
  0
VERTEX
  8
0
 62
7
  6
CONTINUOUS
 10
186.1773466023
 20
80.4142010944
  0
VERTEX
  8
0
 62
7
  6
CONTINUOUS
 10
186.071994169
 20
80.4034519344
  0
VERTEX
  8
0
 62
7
  6
CONTINUOUS
 10
185.9654368704
 20
80.3942036786
  0
VERTEX
  8
0
 62
7
  6
CONTINUOUS
 10
185.8579000143
 20
80.3864363481
  0
VERTEX
  8
0
 62
7
  6
CONTINUOUS
 10
185.7494969782
 20
80.3801163231
  0
VERTEX
  8
0
 62
7
  6
CONTINUOUS
 10
185.6403440855
 20
80.3752224499
  0
VERTEX
  8
0
 62
7
  6
CONTINUOUS
 10
185.5306578068
 20
80.3717368194
  0
VERTEX
  8
0
 62
7
  6
CONTINUOUS
 10
185.4207252924
 20
80.369653485
  0
VERTEX
  8
0
 62
7
  6
CONTINUOUS
 10
185.3104508256
 20
80.3689573978
  0
SEQEND
  0
LINE
  8
0
 62
7
  6
CONTINUOUS
 10
262.5257786885
 20
149.1024180328
 11
263.2257786885
 21
149.1024180328
  0
LINE
  8
0
 62
7
  6
CONTINUOUS
 10
266.9926690068
 20
150.8930326011
 11
266.923266521
 21
150.8930326011
  0
LINE
  8
AXES
 62
2
  6
CENTER
 10
267.7757786885
 20
155.5824180328
 11
267.7007786885
 21
155.5824180328
  0
LINE
  8
AXES
 62
2
  6
CONTINUOUS
 10
263.5757786885
 20
155.5824180328
 11
261.4757786885
 21
155.5824180328
  0
LINE
  8
0
 62
7
  6
CONTINUOUS
 10
256.0457786885
 20
155.5824180328
 11
256.0257786885
 21
155.5824180328
  0
LINE
  8
AXES
 62
2
  6
CENTER
 10
257.2757786885
 20
155.5824180328
 11
257.3507786885
 21
155.5824180328
  0
LINE
  8
0
 62
7
  6
CONTINUOUS
 10
264.7257786885
 20
162.0624180328
 11
262.5257786885
 21
162.0624180328
  0
LINE
  8
0
 62
7
  6
CONTINUOUS
 10
256.0257786885
 20
155.5824180328
 11
256.0257786885
 21
193.6824180328
  0
POLYLINE
  8
0
 62
7
  6
CONTINUOUS
 66
1
 70
0
  0
VERTEX
  8
0
 62
7
  6
CONTINUOUS
 10
268.9332689291
 20
188.1626286445
  0
VERTEX
  8
0
 62
7
  6
CONTINUOUS
 10
268.9761623389
 20
188.2268295048
  0
VERTEX
  8
0
 62
7
  6
CONTINUOUS
 10
269.0185115041
 20
188.2907425397
  0
VERTEX
  8
0
 62
7
  6
CONTINUOUS
 10
269.0602690761
 20
188.3543427507
  0
VERTEX
  8
0
 62
7
  6
CONTINUOUS
 10
269.1013895079
 20
188.4176029602
  0
VERTEX
  8
0
 62
7
  6
CONTINUOUS
 10
269.1418214282
 20
188.4804973453
  0
VERTEX
  8
0
 62
7
  6
CONTINUOUS
 10
269.1815150446
 20
188.5429968437
  0
VERTEX
  8
0
 62
7
  6
CONTINUOUS
 10
269.2204138688
 20
188.6050743024
  0
VERTEX
  8
0
 62
7
  6
CONTINUOUS
 10
269.258462737
 20
188.6666981709
  0
VERTEX
  8
0
 62
7
  6
CONTINUOUS
 10
269.2955987702
 20
188.7278394391
  0
VERTEX
  8
0
 62
7
  6
CONTINUOUS
 10
269.3317600441
 20
188.7884633327
  0
VERTEX
  8
0
 62
7
  6
CONTINUOUS
 10
269.3668757581
 20
188.8485383767
  0
VERTEX
  8
0
 62
7
  6
CONTINUOUS
 10
269.4008754988
 20
188.9080256634
  0
VERTEX
  8
0
 62
7
  6
CONTINUOUS
 10
269.4336789122
 20
188.9668909038
  0
VERTEX
  8
0
 62
7
  6
CONTINUOUS
 10
269.465204249
 20
189.0250887672
  0
VERTEX
  8
0
 62
7
  6
CONTINUOUS
 10
269.4953586851
 20
189.082579859
  0
VERTEX
  8
0
 62
7
  6
CONTINUOUS
 10
269.5240471851
 20
189.1393120827
  0
VERTEX
  8
0
 62
7
  6
CONTINUOUS
 10
269.5511623036
 20
189.1952406548
  0
VERTEX
  8
0
 62
7
  6
CONTINUOUS
 10
269.5765921678
 20
189.2503042419
  0
VERTEX
  8
0
 62
7
  6
CONTINUOUS
 10
269.600211488
 20
189.3044507334
  0
VERTEX
  8
0
 62
7
  6
CONTINUOUS
 10
269.6218880539
 20
189.3576076783
  0
VERTEX
  8
0
 62
7
  6
CONTINUOUS
 10
269.6414754376
 20
189.4097137097
  0
VERTEX
  8
0
 62
7
  6
CONTINUOUS
 10
269.6588175037
 20
189.4606834647
  0
VERTEX
  8
0
 62
7
  6
CONTINUOUS
 10
269.6737509934
 20
189.5103978974
  0
VERTEX
  8
0
 62
7
  6
CONTINUOUS
 10
269.6860704824
 20
189.5588966897
  0
SEQEND
  0
LINE
  8
0
 62
7
  6
CONTINUOUS
 10
268.8460204084
 20
188.0334656209
 11
268.9332689291
 21
188.1626286445
  0
LINE
  8
0
 62
7
  6
CONTINUOUS
 10
268.7571022718
 20
187.9034529161
 11
268.8460204084
 21
188.0334656209
  0
LINE
  8
0
 62
7
  6
CONTINUOUS
 10
268.6668345572
 20
187.7727885881
 11
268.7571022718
 21
187.9034529161
  0
LINE
  8
0
 62
7
  6
CONTINUOUS
 10
268.5295694346
 20
187.5759992001
 11
268.6668345572
 21
187.7727885881
  0
POLYLINE
  8
0
 62
7
  6
CONTINUOUS
 66
1
 70
0
  0
VERTEX
  8
0
 62
7
  6
CONTINUOUS
 10
268.2057786885
 20
187.1167260992
  0
VERTEX
  8
0
 62
7
  6
CONTINUOUS
 10
268.2519987677
 20
187.182114878
  0
VERTEX
  8
0
 62
7
  6
CONTINUOUS
 10
268.2982991097
 20
187.2476009011
  0
VERTEX
  8
0
 62
7
  6
CONTINUOUS
 10
268.5295694346
 20
187.5759992001
  0
SEQEND
  0
LINE
  8
DEFAULT_1
 62
2
  6
CENTER
 10
262.5257786885
 20
198.9324180328
 11
262.5257786885
 21
195.6825180328
  0
LINE
  8
0
 62
2
  6
CONTINUOUS
 10
262.5257786885
 20
194.7324180328
 11
262.5257786885
 21
192.6324180328
  0
LINE
  8
AXES
 62
2
  6
CENTER
 10
262.5257786885
 20
160.8324180328
 11
262.5257786885
 21
160.7574180328
  0
LINE
  8
AXES
 62
2
  6
CONTINUOUS
 10
262.5257786885
 20
156.6324180328
 11
262.5257786885
 21
154.5324180328
  0
LINE
  8
AXES
 62
2
  6
CENTER
 10
262.5257786885
 20
150.3324180328
 11
262.5257786885
 21
150.4074180328
  0
LINE
  8
DEFAULT_1
 62
2
  6
CENTER
 10
262.5257786885
 20
188.4324180328
 11
262.5257786885
 21
191.6823180328
  0
LINE
  8
DEFAULT_1
 62
2
  6
CENTER
 10
253.4911344313
 20
174.6324180328
 11
271.7057786885
 21
174.6324180328
  0
LINE
  8
0
 62
7
  6
CONTINUOUS
 10
265.7257786885
 20
186.1824180328
 11
265.7257786885
 21
159.377151225
  0
LINE
  8
0
 62
7
  6
CONTINUOUS
 10
269.7057786885
 20
155.5824180328
 11
269.7057786885
 21
193.6824180328
  0
LINE
  8
0
 62
7
  6
CONTINUOUS
 10
262.5257786885
 20
187.1824180328
 11
264.7257786885
 21
187.1824180328
  0
LINE
  8
DEFAULT_1
 62
2
  6
CENTER
 10
267.7757786885
 20
193.6824180328
 11
264.5258786885
 21
193.6824180328
  0
LINE
  8
0
 62
2
  6
CONTINUOUS
 10
263.5757786885
 20
193.6824180328
 11
261.4757786885
 21
193.6824180328
  0
LINE
  8
DEFAULT_1
 62
2
  6
CENTER
 10
257.2757786885
 20
193.6824180328
 11
260.5256786885
 21
193.6824180328
  0
LINE
  8
0
 62
7
  6
CONTINUOUS
 10
263.2057786885
 20
200.1824180328
 11
262.5257786885
 21
200.1824180328
  0
ARC
  8
0
 62
7
  6
CONTINUOUS
 10
77.0604508197
 20
153.8930326011
 40
3.0
 50
180.0
 51
270.0
  0
ARC
  8
0
 62
7
  6
CONTINUOUS
 10
77.0604508197
 20
187.1167260992
 40
3.0
 50
90.0
 51
180.0
  0
ARC
  8
0
 62
7
  6
CONTINUOUS
 10
185.3104508197
 20
153.8930326011
 40
3.0
 50
270.0
 51
360.0
  0
ARC
  8
0
 62
7
  6
CONTINUOUS
 10
185.3104508197
 20
187.1167260992
 40
3.0
 50
0.0
 51
90.0
  0
ARC
  8
0
 62
7
  6
CONTINUOUS
 10
109.8854508197
 20
150.3924180328
 40
0.5
 50
31.0509623298
 51
90.0
  0
ARC
  8
0
 62
7
  6
CONTINUOUS
 10
152.4854508197
 20
150.3924180328
 40
0.5
 50
90.0
 51
148.9491780133
  0
ARC
  8
0
 62
7
  6
CONTINUOUS
 10
143.6354508197
 20
199.6824180328
 40
0.5
 50
0.0
 51
90.0
  0
ARC
  8
0
 62
7
  6
CONTINUOUS
 10
110.8854508197
 20
149.6024180328
 40
0.5
 50
180.0
 51
270.0
  0
ARC
  8
0
 62
7
  6
CONTINUOUS
 10
118.7354508197
 20
199.6824180328
 40
0.5
 50
90.0
 51
180.0
  0
ARC
  8
0
 62
7
  6
CONTINUOUS
 10
151.4854508197
 20
149.6024180328
 40
0.5
 50
270.0
 51
360.0
  0
ARC
  8
0
 62
7
  6
CONTINUOUS
 10
128.7854508197
 20
149.6024180328
 40
0.5
 50
180.0
 51
270.0
  0
ARC
  8
0
 62
7
  6
CONTINUOUS
 10
117.2854508197
 20
149.6024180328
 40
0.5
 50
270.0
 51
360.0
  0
ARC
  8
0
 62
7
  6
CONTINUOUS
 10
145.0854508197
 20
149.6024180328
 40
0.5
 50
180.0
 51
270.0
  0
ARC
  8
0
 62
7
  6
CONTINUOUS
 10
135.0354508197
 20
199.6824180328
 40
0.5
 50
90.0
 51
180.0
  0
ARC
  8
0
 62
7
  6
CONTINUOUS
 10
133.5854508197
 20
149.6024180328
 40
0.5
 50
270.0
 51
360.0
  0
ARC
  8
0
 62
7
  6
CONTINUOUS
 10
127.3354508197
 20
199.6824180328
 40
0.5
 50
0.0
 51
90.0
  0
ARC
  8
0
 62
7
  6
CONTINUOUS
 10
75.5604508197
 20
81.3864344262
 40
1.5
 50
180.0
 51
270.0
  0
ARC
  8
0
 62
7
  6
CONTINUOUS
 10
186.8104508197
 20
81.3864344262
 40
1.5
 50
270.0
 51
360.0
  0
ARC
  8
0
 62
7
  6
CONTINUOUS
 10
110.8854508197
 20
93.0464344262
 40
0.5
 50
90.0
 51
180.0000000141
  0
ARC
  8
0
 62
7
  6
CONTINUOUS
 10
151.4854508197
 20
93.0464344262
 40
0.5
 50
0.0
 51
90.0
  0
ARC
  8
0
 62
7
  6
CONTINUOUS
 10
117.2854508197
 20
93.0464344262
 40
0.5
 50
0.0
 51
90.0
  0
ARC
  8
0
 62
7
  6
CONTINUOUS
 10
145.0854508197
 20
93.0464344262
 40
0.5
 50
90.0
 51
180.0000000141
  0
ARC
  8
0
 62
7
  6
CONTINUOUS
 10
118.7354508197
 20
93.0664344262
 40
0.5
 50
90.0
 51
180.0000000141
  0
ARC
  8
0
 62
7
  6
CONTINUOUS
 10
143.6354508197
 20
93.0664344262
 40
0.5
 50
0.0
 51
90.0
  0
ARC
  8
0
 62
7
  6
CONTINUOUS
 10
118.7354508197
 20
80.3864344262
 40
0.5
 50
180.0
 51
270.0
  0
ARC
  8
0
 62
7
  6
CONTINUOUS
 10
143.6354508197
 20
80.3864344262
 40
0.5
 50
270.0
 51
360.0
  0
ARC
  8
0
 62
7
  6
CONTINUOUS
 10
134.0354508197
 20
84.3664344262
 40
0.5
 50
270.0
 51
360.0
  0
ARC
  8
0
 62
7
  6
CONTINUOUS
 10
128.3354508197
 20
84.3664344262
 40
0.5
 50
180.0
 51
270.0
  0
ARC
  8
0
 62
7
  6
CONTINUOUS
 10
135.0354508197
 20
80.3864344262
 40
0.5
 50
180.0
 51
270.0
  0
ARC
  8
0
 62
7
  6
CONTINUOUS
 10
135.0354508197
 20
93.0664344262
 40
0.5
 50
90.0
 51
180.0
  0
ARC
  8
0
 62
7
  6
CONTINUOUS
 10
127.3354508197
 20
93.0664344262
 40
0.5
 50
0.0
 51
90.0
  0
ARC
  8
0
 62
7
  6
CONTINUOUS
 10
127.3354508197
 20
80.3864344262
 40
0.5
 50
270.0
 51
360.0
  0
ARC
  8
0
 62
7
  6
CONTINUOUS
 10
109.8854508197
 20
84.3664344262
 40
0.5
 50
270.0
 51
360.0
  0
ARC
  8
0
 62
7
  6
CONTINUOUS
 10
152.4854508197
 20
84.3664344262
 40
0.5
 50
180.0
 51
270.0
  0
ARC
  8
0
 62
7
  6
CONTINUOUS
 10
263.2257786885
 20
155.5824180328
 40
6.48
 50
270.0
 51
360.0
  0
ARC
  8
0
 62
7
  6
CONTINUOUS
 10
262.5257786885
 20
155.5824180328
 40
6.48
 50
90.0
 51
270.0
  0
ARC
  8
0
 62
7
  6
CONTINUOUS
 10
262.5257786885
 20
155.5824180328
 40
4.8
 50
320.0687087334
 51
45.7241782885
  0
CIRCLE
  8
AXES
 62
7
  6
CONTINUOUS
 10
262.5257786885
 20
155.5824180328
 40
3.175
  0
CIRCLE
  8
AXES
 62
7
  6
CONTINUOUS
 10
262.5257786885
 20
155.5824180328
 40
2.5
  0
ARC
  8
0
 62
7
  6
CONTINUOUS
 10
264.7257786885
 20
163.0624180328
 40
1.0
 50
270.0
 51
360.0
  0
ARC
  8
0
 62
7
  6
CONTINUOUS
 10
262.5257786885
 20
192.4124180328
 40
7.08
 50
299.2175258536
 51
341.0798407932
  0
ARC
  8
0
 62
7
  6
CONTINUOUS
 10
262.5257786885
 20
193.6824180328
 40
6.5
 50
90.0
 51
270.0
  0
ARC
  8
0
 62
7
  6
CONTINUOUS
 10
263.2057786885
 20
193.6824180328
 40
6.5
 50
0.0
 51
90.0
  0
CIRCLE
  8
AXES
 62
7
  6
CONTINUOUS
 10
262.5257786885
 20
193.6824180328
 40
3.25
  0
ARC
  8
0
 62
7
  6
CONTINUOUS
 10
264.7257786885
 20
186.1824180328
 40
1.0
 50
0.0
 51
90.0
  0
ARC
  8
0
 62
7
  6
CONTINUOUS
 10
266.9307025017
 20
152.6419351577
 40
1.75
 50
272.029235309
 51
321.5620613728
  0
ARC
  8
0
 62
7
  6
CONTINUOUS
 10
266.9579677639
 20
151.8724180328
 40
0.98
 50
140.0687087334
 51
267.970764817
  0
ARC
  8
0
 62
7
  6
CONTINUOUS
 10
266.2257786885
 20
159.377151225
 40
0.5
 50
180.0
 51
225.7241782885
  0
ARC
  8
0
 62
7
  6
CONTINUOUS
 10
268.9057786885
 20
189.3824180328
 40
0.8
 50
0.0
 51
104.3642555028
  0
ARC
  8
0
 62
7
  6
CONTINUOUS
 10
266.2257786885
 20
185.7968001478
 40
0.5
 50
119.2175258536
 51
180.0
  0
ENDSEC
  0
EOF
