  0
SECTION
  2
HEADER
  9
$EXTMAX
 10
420.0
 20
297.0
 30
0.0
  9
$EXTMIN
 10
0.0
 20
0.0
 30
0.0
  9
$LIMMIN
 10
0.0
 20
0.0
  9
$LIMMAX
 10
420.0
 20
297.0
  9
$VIEWCTR
 10
210.0
 20
148.5
  9
$VIEWSIZE
 40
297.0
  9
$CLAYER
  8
0
  9
$LTSCALE
 40
23.1
  9
$CELTYPE
  6
BYLAYER
  9
$DIMSCALE
 40
1.0
  9
$DIMASZ
 40
3.5
  9
$DIMEXO
 40
1.0
  9
$DIMDLI
 40
15.96
  9
$DIMEXE
 40
2.0
  9
$DIMCEN
 40
3.78
  9
$DIMLFAC
 40
1.0
  9
$DIMBLK
  1
_FILLED
  9
$DIMTXT
 40
3.5
  9
$PDMODE
 70
3
  9
$PDSIZE
 40
0.3125
  9
$TILEMODE
 70
1
  0
ENDSEC
  0
SECTION
  2
TABLES
  0
TABLE
  2
LTYPE
 70
6
  0
LTYPE
  2
BYBLOCK
 70
0
  3

 72
65
 73
0
 40
0.0
  0
LTYPE
  2
BYLAYER
 70
0
  3

 72
65
 73
0
 40
0.0
  0
LTYPE
  2
CONTINUOUS
 70
64
  3
Solid line
 72
65
 73
0
 40
0.0
  0
LTYPE
  2
CENTER
 70
64
  3
____ _ ____ _ ____ _ ____ _ ____ _ ____ _ ____
 72
65
 73
4
 40
0.6
 49
0.375
 49
-0.075
 49
0.075
 49
-0.075
  0
LTYPE
  2
HIDDEN
 70
64
  3
- - - - - - - - - - - - - - - - - - - -
 72
65
 73
2
 40
0.2
 49
0.1
 49
-0.1
  0
LTYPE
  2
PHANTOM
 70
64
  3
_____ _ _ _____ _ _ _____ _ _ _____
 72
65
 73
6
 40
0.8
 49
0.45
 49
-0.05
 49
0.1
 49
-0.05
 49
0.1
 49
-0.05
  0
LTYPE
  2
DOT
 70
64
  3
. . . . . . . . . . . . . . . . . . . .
 72
65
 73
2
 40
0.2
 49
0.1
 49
-0.1
  0
LTYPE
  2
DASHED
 70
64
  3
- - - - - - - - - - - - - - - - - - - -
 72
65
 73
2
 40
0.2
 49
0.1
 49
-0.1
  0
ENDTAB
  0
TABLE
  2
LAYER
 70
36
  0
LAYER
  2
0
 70
0
 62
7
  6
CONTINUOUS
  0
LAYER
  2
DEFAULT_1
 70
0
 62
7
  6
CENTER
  0
LAYER
  2
DEFAULT_2
 70
0
 62
8
  6
HIDDEN
  0
LAYER
  2
DEFAULT_3
 70
0
 62
7
  6
PHANTOM
  0
LAYER
  2
1_DATUM_PLANE
 70
0
 62
7
  6
CONTINUOUS
  0
LAYER
  2
AXES
 70
0
 62
7
  6
CONTINUOUS
  0
LAYER
  2
PLANES
 70
0
 62
7
  6
CONTINUOUS
  0
ENDTAB
  0
TABLE
  2
STYLE
 70
1
  0
STYLE
  2
STANDARD
 70
0
 40
0.0
 41
0.8
 50
0.0
 71
0
 42
0.2
  3
txt
  4

  0
STYLE
  2
TEXTSTYLE_1
 70
0
 40
0.0
 41
0.8
 50
0.0
 71
0
 42
0.2
  3
gdt
  4

  0
STYLE
  2
TEXTSTYLE_2
 70
0
 40
0.0
 41
0.6
 50
0.0
 71
0
 42
0.2
  3
txt
  4

  0
STYLE
  2
TEXTSTYLE_3
 70
0
 40
0.0
 41
1.0
 50
0.0
 71
0
 42
0.2
  3
ftb_____.ttf
  4

  0
STYLE
  2
TEXTSTYLE_4
 70
0
 40
0.0
 41
1.0
 50
0.0
 71
0
 42
0.2
  3
fti_____.ttf
  4

  0
STYLE
  2
TEXTSTYLE_5
 70
0
 40
0.0
 41
1.0
 50
0.0
 71
0
 42
0.2
  3
frutiger light.ttf
  4

  0
STYLE
  2
TEXTSTYLE_6
 70
0
 40
0.0
 41
0.7
 50
0.0
 71
0
 42
0.2
  3
txt
  4

  0
STYLE
  2
TEXTSTYLE_7
 70
0
 40
0.0
 41
0.8
 50
0.0
 71
0
 42
0.2
  3
txt
  4

  0
ENDTAB
  0
ENDSEC
  0
SECTION
  2
BLOCKS
  0
BLOCK
  8
0
 62
2
  6
CONTINUOUS
  2
SYMBOL_5_BL1
 70
64
 10
382.3920721743
 20
35.81661148
  0
TEXT
  8
0
 62
7
  6
CONTINUOUS
 10
373.4503571828
 20
30.9093678571
  7
TEXTSTYLE_4
 40
1.0655737705
  1
The brand for plastic modular belts and chains
 41
1.0
 72
0
  0
LINE
  8
0
 62
7
  6
CONTINUOUS
 10
358.3701405634
 20
36.3903819718
 11
358.3701405634
 21
34.2592344308
  0
LINE
  8
0
 62
7
  6
CONTINUOUS
 10
358.6592030565
 20
31.2683031351
 11
358.6592030565
 21
31.3650941944
  0
LINE
  8
0
 62
7
  6
CONTINUOUS
 10
358.3701405634
 20
31.332830508
 11
358.4279530651
 21
31.1392483894
  0
LINE
  8
0
 62
7
  6
CONTINUOUS
 10
359.7635831863
 20
34.1772672177
 11
359.7635831863
 21
36.3903819718
  0
LINE
  8
0
 62
7
  6
CONTINUOUS
 10
360.6826405082
 20
32.3330049227
 11
360.6826405082
 21
30.81661148
  0
LINE
  8
0
 62
7
  6
CONTINUOUS
 10
360.9717030634
 20
30.81661148
 11
360.9717030634
 21
31.5586763581
  0
LINE
  8
0
 62
7
  6
CONTINUOUS
 10
360.9717030634
 20
31.6877311038
 11
360.9717030634
 21
32.3330049227
  0
LINE
  8
0
 62
7
  6
CONTINUOUS
 10
358.4279530651
 20
31.5264126717
 11
358.3701405634
 21
31.332830508
  0
LINE
  8
0
 62
7
  6
CONTINUOUS
 10
358.7748280496
 20
31.106984703
 11
358.6592030565
 21
31.2683031351
  0
LINE
  8
0
 62
7
  6
CONTINUOUS
 10
359.8732656185
 20
31.623203731
 11
359.9310780634
 21
31.5264126717
  0
LINE
  8
0
 62
7
  6
CONTINUOUS
 10
360.2201406185
 20
31.5264126717
 11
360.1623280082
 21
31.6554674174
  0
LINE
  8
0
 62
7
  6
CONTINUOUS
 10
361.648829088
 20
36.3903819718
 11
361.648829088
 21
34.5871032833
  0
LINE
  8
0
 62
7
  6
CONTINUOUS
 10
361.648829088
 20
33.2756278735
 11
361.648829088
 21
32.6198901686
  0
LINE
  8
0
 62
7
  6
CONTINUOUS
 10
362.0123280634
 20
31.4618852989
 11
362.0123280634
 21
30.81661148
  0
LINE
  8
0
 62
7
  6
CONTINUOUS
 10
362.3013904531
 20
30.81661148
 11
362.3013904531
 21
31.4618852989
  0
LINE
  8
0
 62
7
  6
CONTINUOUS
 10
358.6592030565
 20
31.3650941944
 11
358.7170155634
 21
31.4941489853
  0
LINE
  8
0
 62
7
  6
CONTINUOUS
 10
358.4279530651
 20
31.1392483894
 11
358.5435780634
 21
31.0101936212
  0
LINE
  8
0
 62
7
  6
CONTINUOUS
 10
361.9545154531
 20
31.5909400446
 11
362.0123280634
 21
31.4618852989
  0
LINE
  8
0
 62
7
  6
CONTINUOUS
 10
362.7638906736
 20
31.106984703
 11
362.8217029531
 21
30.9779299347
  0
LINE
  8
0
 62
7
  6
CONTINUOUS
 10
362.3013904531
 20
31.4618852989
 11
362.2435781736
 21
31.623203731
  0
LINE
  8
0
 62
7
  6
CONTINUOUS
 10
362.7638906736
 20
31.6554674174
 11
362.7638906736
 21
31.5909400446
  0
LINE
  8
0
 62
7
  6
CONTINUOUS
 10
362.7638906736
 20
31.2037757623
 11
362.7638906736
 21
31.106984703
  0
LINE
  8
0
 62
7
  6
CONTINUOUS
 10
363.0422717109
 20
32.6198901686
 11
363.0422717109
 21
36.3903819718
  0
LINE
  8
0
 62
7
  6
CONTINUOUS
 10
363.0529530634
 20
31.074720994
 11
363.0529530634
 21
31.1392483894
  0
LINE
  8
0
 62
7
  6
CONTINUOUS
 10
363.3701405634
 20
36.3903819718
 11
363.3701405634
 21
32.6198901686
  0
LINE
  8
0
 62
7
  6
CONTINUOUS
 10
360.1623280082
 20
31.0101936212
 11
360.2201406185
 21
31.1392483894
  0
LINE
  8
0
 62
7
  6
CONTINUOUS
 10
364.5560782839
 20
30.9134025506
 11
364.4982653428
 21
31.074720994
  0
LINE
  8
0
 62
7
  6
CONTINUOUS
 10
364.2092032839
 20
31.5909400446
 11
364.2092032839
 21
31.4941489853
  0
LINE
  8
0
 62
7
  6
CONTINUOUS
 10
364.2092032839
 20
31.3650941944
 11
364.2092032839
 21
31.1715120759
  0
LINE
  8
0
 62
7
  6
CONTINUOUS
 10
364.4982653428
 20
31.074720994
 11
364.4982653428
 21
31.5909400446
  0
LINE
  8
0
 62
7
  6
CONTINUOUS
 10
364.7635831863
 20
32.6198901686
 11
364.7635831863
 21
34.4231688571
  0
LINE
  8
0
 62
7
  6
CONTINUOUS
 10
364.7635831863
 20
35.7346442669
 11
364.7635831863
 21
36.3903819718
  0
LINE
  8
0
 62
7
  6
CONTINUOUS
 10
365.0763907839
 20
32.3330049227
 11
365.0763907839
 21
32.1716864905
  0
LINE
  8
0
 62
7
  6
CONTINUOUS
 10
365.0763907839
 20
31.8490495359
 11
365.0763907839
 21
30.81661148
  0
LINE
  8
0
 62
7
  6
CONTINUOUS
 10
365.3654528428
 20
30.81661148
 11
365.3654528428
 21
31.8490495359
  0
LINE
  8
0
 62
7
  6
CONTINUOUS
 10
365.3654528428
 20
32.1716864905
 11
365.3654528428
 21
32.3330049227
  0
LINE
  8
0
 62
7
  6
CONTINUOUS
 10
359.9310780634
 20
31.1392483894
 11
359.8732656185
 21
31.0424573076
  0
LINE
  8
0
 62
7
  6
CONTINUOUS
 10
362.2435781736
 20
31.623203731
 11
362.1857655634
 21
31.6877311038
  0
LINE
  8
0
 62
7
  6
CONTINUOUS
 10
363.1107656736
 20
31.0101936212
 11
363.0529530634
 21
31.074720994
  0
LINE
  8
0
 62
7
  6
CONTINUOUS
 10
364.2670155634
 20
30.8811388585
 11
364.3248278428
 21
30.81661148
  0
LINE
  8
0
 62
7
  6
CONTINUOUS
 10
364.2092032839
 20
30.9779299347
 11
364.2670155634
 21
30.8811388585
  0
LINE
  8
0
 62
7
  6
CONTINUOUS
 10
364.6138905634
 20
30.81661148
 11
364.5560782839
 21
30.9134025506
  0
LINE
  8
0
 62
7
  6
CONTINUOUS
 10
364.4982653428
 20
31.5909400446
 11
364.4404530634
 21
31.6877311038
  0
LINE
  8
0
 62
7
  6
CONTINUOUS
 10
365.8279530634
 20
31.8490495359
 11
365.8279530634
 21
30.81661148
  0
LINE
  8
0
 62
7
  6
CONTINUOUS
 10
366.1170157839
 20
30.81661148
 11
366.1170157839
 21
31.5586763581
  0
LINE
  8
0
 62
7
  6
CONTINUOUS
 10
366.1170157839
 20
31.6877311038
 11
366.1170157839
 21
31.8490495359
  0
LINE
  8
0
 62
7
  6
CONTINUOUS
 10
366.648829088
 20
34.8330049227
 11
366.648829088
 21
32.6198901686
  0
LINE
  8
0
 62
7
  6
CONTINUOUS
 10
358.5435780634
 20
31.6554674174
 11
358.4279530651
 21
31.5264126717
  0
LINE
  8
0
 62
7
  6
CONTINUOUS
 10
358.7170155634
 20
31.4941489853
 11
358.7748280496
 21
31.5586763581
  0
LINE
  8
0
 62
7
  6
CONTINUOUS
 10
358.5435780634
 20
31.0101936212
 11
358.6592030565
 21
30.945666237
  0
LINE
  8
0
 62
7
  6
CONTINUOUS
 10
358.9482655496
 20
31.0101936212
 11
358.7748280496
 21
31.106984703
  0
LINE
  8
0
 62
7
  6
CONTINUOUS
 10
364.1513903428
 20
31.6554674174
 11
364.2092032839
 21
31.5909400446
  0
LINE
  8
0
 62
7
  6
CONTINUOUS
 10
367.0998278428
 20
31.5909400446
 11
367.1576407839
 21
31.4296216124
  0
LINE
  8
0
 62
7
  6
CONTINUOUS
 10
367.4467028428
 20
31.4296216124
 11
367.3888905634
 21
31.5909400446
  0
LINE
  8
0
 62
7
  6
CONTINUOUS
 10
367.1576407839
 20
31.4296216124
 11
367.1576407839
 21
30.81661148
  0
LINE
  8
0
 62
7
  6
CONTINUOUS
 10
367.4467028428
 20
30.81661148
 11
367.4467028428
 21
31.4296216124
  0
LINE
  8
0
 62
7
  6
CONTINUOUS
 10
367.9092030634
 20
31.6554674174
 11
367.9092030634
 21
31.5909400446
  0
LINE
  8
0
 62
7
  6
CONTINUOUS
 10
368.0422717109
 20
32.6198901686
 11
368.0422717109
 21
34.7510377095
  0
LINE
  8
0
 62
7
  6
CONTINUOUS
 10
368.3701405634
 20
36.3903819718
 11
368.3701405634
 21
32.6198901686
  0
LINE
  8
0
 62
7
  6
CONTINUOUS
 10
363.0529530634
 20
31.1392483894
 11
363.1107656736
 21
31.2360394487
  0
LINE
  8
0
 62
7
  6
CONTINUOUS
 10
358.6592030565
 20
30.945666237
 11
358.8326405772
 21
30.8811388585
  0
LINE
  8
0
 62
7
  6
CONTINUOUS
 10
360.1623280082
 20
31.6554674174
 11
359.9888905082
 21
31.7522584767
  0
LINE
  8
0
 62
7
  6
CONTINUOUS
 10
362.8217029531
 20
30.9779299347
 11
362.9951404531
 21
30.8811388585
  0
LINE
  8
0
 62
7
  6
CONTINUOUS
 10
361.8388905634
 20
31.6554674174
 11
361.9545154531
 21
31.5909400446
  0
LINE
  8
0
 62
7
  6
CONTINUOUS
 10
362.1857655634
 20
31.6877311038
 11
362.0701406736
 21
31.7522584767
  0
LINE
  8
0
 62
7
  6
CONTINUOUS
 10
367.9092030634
 20
31.074720994
 11
368.0248282839
 21
30.945666237
  0
LINE
  8
0
 62
7
  6
CONTINUOUS
 10
368.2560780634
 20
31.0101936212
 11
368.1982657839
 21
31.074720994
  0
LINE
  8
0
 62
7
  6
CONTINUOUS
 10
367.9092030634
 20
31.5909400446
 11
368.0248282839
 21
31.4618852989
  0
LINE
  8
0
 62
7
  6
CONTINUOUS
 10
367.3888905634
 20
31.5909400446
 11
367.3310782839
 21
31.6877311038
  0
LINE
  8
0
 62
7
  6
CONTINUOUS
 10
369.7592026223
 20
31.0101936212
 11
369.7592026223
 21
31.074720994
  0
LINE
  8
0
 62
7
  6
CONTINUOUS
 10
369.7635831863
 20
32.6198901686
 11
369.7635831863
 21
36.3903819718
  0
LINE
  8
0
 62
7
  6
CONTINUOUS
 10
362.8217029531
 20
31.7199947902
 11
362.7638906736
 21
31.6554674174
  0
LINE
  8
0
 62
7
  6
CONTINUOUS
 10
359.6998280358
 20
31.6877311038
 11
359.8732656185
 21
31.623203731
  0
LINE
  8
0
 62
7
  6
CONTINUOUS
 10
364.4404530634
 20
31.6877311038
 11
364.3248278428
 21
31.7522584767
  0
LINE
  8
0
 62
7
  6
CONTINUOUS
 10
368.2560780634
 20
31.5264126717
 11
368.1982657839
 21
31.5909400446
  0
LINE
  8
0
 62
7
  6
CONTINUOUS
 10
369.4123282839
 20
31.1392483894
 11
369.4701405634
 21
31.074720994
  0
LINE
  8
0
 62
7
  6
CONTINUOUS
 10
369.7592026223
 20
31.074720994
 11
369.6435780634
 21
31.2037757623
  0
LINE
  8
0
 62
7
  6
CONTINUOUS
 10
369.4123282839
 20
31.6554674174
 11
369.4701405634
 21
31.5909400446
  0
LINE
  8
0
 62
7
  6
CONTINUOUS
 10
369.7592026223
 20
31.5909400446
 11
369.6435780634
 21
31.7199947902
  0
LINE
  8
0
 62
7
  6
CONTINUOUS
 10
363.0529530634
 20
31.5909400446
 11
363.1107656736
 21
31.6554674174
  0
LINE
  8
0
 62
7
  6
CONTINUOUS
 10
362.8795155634
 20
31.332830508
 11
362.7638906736
 21
31.2037757623
  0
LINE
  8
0
 62
7
  6
CONTINUOUS
 10
364.2092032839
 20
31.1715120759
 11
364.1513903428
 21
31.106984703
  0
LINE
  8
0
 62
7
  6
CONTINUOUS
 10
364.1513903428
 20
30.9134025506
 11
364.2092032839
 21
30.9779299347
  0
LINE
  8
0
 62
7
  6
CONTINUOUS
 10
362.9951404531
 20
30.8811388585
 11
363.1107656736
 21
30.8488751693
  0
LINE
  8
0
 62
7
  6
CONTINUOUS
 10
359.9888905082
 20
31.7522584767
 11
359.7576405634
 21
31.8167858495
  0
LINE
  8
0
 62
7
  6
CONTINUOUS
 10
363.3420154531
 20
30.945666237
 11
363.1107656736
 21
31.0101936212
  0
LINE
  8
0
 62
7
  6
CONTINUOUS
 10
362.0701406736
 20
31.7522584767
 11
361.8967031736
 21
31.8167858495
  0
LINE
  8
0
 62
7
  6
CONTINUOUS
 10
364.3248278428
 20
31.7522584767
 11
364.1513903428
 21
31.8167858495
  0
LINE
  8
0
 62
7
  6
CONTINUOUS
 10
366.9842032839
 20
31.6554674174
 11
367.0998278428
 21
31.5909400446
  0
LINE
  8
0
 62
7
  6
CONTINUOUS
 10
367.3310782839
 20
31.6877311038
 11
367.2154530634
 21
31.7522584767
  0
LINE
  8
0
 62
7
  6
CONTINUOUS
 10
358.8326405772
 20
30.8811388585
 11
359.0060780772
 21
30.8488751693
  0
LINE
  8
0
 62
7
  6
CONTINUOUS
 10
359.2951405909
 20
30.945666237
 11
358.9482655496
 21
31.0101936212
  0
LINE
  8
0
 62
7
  6
CONTINUOUS
 10
361.7232656736
 20
31.6877311038
 11
361.8388905634
 21
31.6554674174
  0
LINE
  8
0
 62
7
  6
CONTINUOUS
 10
364.0357657839
 20
31.6877311038
 11
364.1513903428
 21
31.6554674174
  0
LINE
  8
0
 62
7
  6
CONTINUOUS
 10
368.3717032839
 20
30.9779299347
 11
368.2560780634
 21
31.0101936212
  0
LINE
  8
0
 62
7
  6
CONTINUOUS
 10
366.8685780634
 20
31.6877311038
 11
366.9842032839
 21
31.6554674174
  0
LINE
  8
0
 62
7
  6
CONTINUOUS
 10
368.0248282839
 20
30.945666237
 11
368.1982657839
 21
30.8811388585
  0
LINE
  8
0
 62
7
  6
CONTINUOUS
 10
367.2154530634
 20
31.7522584767
 11
367.0420155634
 21
31.8167858495
  0
LINE
  8
0
 62
7
  6
CONTINUOUS
 10
368.4295155634
 20
31.4618852989
 11
368.2560780634
 21
31.5264126717
  0
LINE
  8
0
 62
7
  6
CONTINUOUS
 10
369.2388907839
 20
31.2037757623
 11
369.4123282839
 21
31.1392483894
  0
LINE
  8
0
 62
7
  6
CONTINUOUS
 10
369.6435780634
 20
31.7199947902
 11
369.4701405634
 21
31.7845221631
  0
LINE
  8
0
 62
7
  6
CONTINUOUS
 10
368.0248282839
 20
31.4618852989
 11
368.2560780634
 21
31.3650941944
  0
LINE
  8
0
 62
7
  6
CONTINUOUS
 10
369.6435780634
 20
31.2037757623
 11
369.4123282839
 21
31.3005668216
  0
LINE
  8
0
 62
7
  6
CONTINUOUS
 10
368.1982657839
 20
31.5909400446
 11
368.2560780634
 21
31.6554674174
  0
LINE
  8
0
 62
7
  6
CONTINUOUS
 10
358.6592030565
 20
31.7199947902
 11
358.5435780634
 21
31.6554674174
  0
LINE
  8
0
 62
7
  6
CONTINUOUS
 10
358.7748280496
 20
31.5586763581
 11
358.9482655496
 21
31.6554674174
  0
LINE
  8
0
 62
7
  6
CONTINUOUS
 10
361.0873281185
 20
31.7522584767
 11
360.9717030634
 21
31.6877311038
  0
LINE
  8
0
 62
7
  6
CONTINUOUS
 10
360.9717030634
 20
31.5586763581
 11
361.0873281185
 21
31.623203731
  0
LINE
  8
0
 62
7
  6
CONTINUOUS
 10
359.9888905082
 20
30.9134025506
 11
360.1623280082
 21
31.0101936212
  0
LINE
  8
0
 62
7
  6
CONTINUOUS
 10
359.0060780772
 20
30.8488751693
 11
359.3529530358
 21
30.81661148
  0
LINE
  8
0
 62
7
  6
CONTINUOUS
 10
363.1107656736
 20
30.8488751693
 11
363.3420154531
 21
30.81661148
  0
LINE
  8
0
 62
7
  6
CONTINUOUS
 10
361.4920155634
 20
31.7199947902
 11
361.7232656736
 21
31.6877311038
  0
LINE
  8
0
 62
7
  6
CONTINUOUS
 10
363.8045156736
 20
31.7199947902
 11
364.0357657839
 21
31.6877311038
  0
LINE
  8
0
 62
7
  6
CONTINUOUS
 10
368.2560780634
 20
31.3650941944
 11
369.2388907839
 21
31.2037757623
  0
LINE
  8
0
 62
7
  6
CONTINUOUS
 10
369.4123282839
 20
31.3005668216
 11
368.4295155634
 21
31.4618852989
  0
LINE
  8
0
 62
7
  6
CONTINUOUS
 10
361.8967031736
 20
31.8167858495
 11
361.7232656736
 21
31.8490495359
  0
LINE
  8
0
 62
7
  6
CONTINUOUS
 10
368.1982657839
 20
30.8811388585
 11
368.3717032839
 21
30.8488751693
  0
LINE
  8
0
 62
7
  6
CONTINUOUS
 10
367.0420155634
 20
31.8167858495
 11
366.8685780634
 21
31.8490495359
  0
LINE
  8
0
 62
7
  6
CONTINUOUS
 10
369.2967030634
 20
31.6877311038
 11
369.4123282839
 21
31.6554674174
  0
LINE
  8
0
 62
7
  6
CONTINUOUS
 10
369.4701405634
 20
31.074720994
 11
369.4123282839
 21
31.0101936212
  0
LINE
  8
0
 62
7
  6
CONTINUOUS
 10
368.0248282839
 20
31.7522584767
 11
367.9092030634
 21
31.6554674174
  0
LINE
  8
0
 62
7
  6
CONTINUOUS
 10
362.9373281736
 20
31.7845221631
 11
362.8217029531
 21
31.7199947902
  0
LINE
  8
0
 62
7
  6
CONTINUOUS
 10
362.9951404531
 20
31.397357926
 11
362.8795155634
 21
31.332830508
  0
LINE
  8
0
 62
7
  6
CONTINUOUS
 10
363.1107656736
 20
31.2360394487
 11
363.2263905634
 21
31.3005668216
  0
LINE
  8
0
 62
7
  6
CONTINUOUS
 10
360.6826405082
 20
30.81661148
 11
360.9717030634
 21
30.81661148
  0
LINE
  8
0
 62
7
  6
CONTINUOUS
 10
362.0123280634
 20
30.81661148
 11
362.3013904531
 21
30.81661148
  0
LINE
  8
0
 62
7
  6
CONTINUOUS
 10
363.3420154531
 20
30.81661148
 11
363.6888904531
 21
30.81661148
  0
LINE
  8
0
 62
7
  6
CONTINUOUS
 10
364.3248278428
 20
30.81661148
 11
364.6138905634
 21
30.81661148
  0
LINE
  8
0
 62
7
  6
CONTINUOUS
 10
365.0763907839
 20
30.81661148
 11
365.3654528428
 21
30.81661148
  0
LINE
  8
0
 62
7
  6
CONTINUOUS
 10
365.8279530634
 20
30.81661148
 11
366.1170157839
 21
30.81661148
  0
LINE
  8
0
 62
7
  6
CONTINUOUS
 10
367.1576407839
 20
30.81661148
 11
367.4467028428
 21
30.81661148
  0
LINE
  8
0
 62
7
  6
CONTINUOUS
 10
368.7185782839
 20
30.81661148
 11
369.0654532839
 21
30.81661148
  0
LINE
  8
0
 62
7
  6
CONTINUOUS
 10
369.0654532839
 20
30.945666237
 11
368.7185782839
 21
30.945666237
  0
LINE
  8
0
 62
7
  6
CONTINUOUS
 10
363.6888904531
 20
30.945666237
 11
363.3420154531
 21
30.945666237
  0
LINE
  8
0
 62
7
  6
CONTINUOUS
 10
368.1982657839
 20
31.074720994
 11
367.9092030634
 21
31.074720994
  0
LINE
  8
0
 62
7
  6
CONTINUOUS
 10
360.2201406185
 20
31.1392483894
 11
359.9310780634
 21
31.1392483894
  0
LINE
  8
0
 62
7
  6
CONTINUOUS
 10
359.2951405909
 20
31.7199947902
 11
359.6998280358
 21
31.6877311038
  0
LINE
  8
0
 62
7
  6
CONTINUOUS
 10
359.7576405634
 20
31.8167858495
 11
359.3529530358
 21
31.8490495359
  0
LINE
  8
0
 62
7
  6
CONTINUOUS
 10
368.3717032839
 20
30.8488751693
 11
368.7185782839
 21
30.81661148
  0
LINE
  8
0
 62
7
  6
CONTINUOUS
 10
368.7185782839
 20
30.945666237
 11
368.3717032839
 21
30.9779299347
  0
LINE
  8
0
 62
7
  6
CONTINUOUS
 10
364.1513903428
 20
31.8167858495
 11
363.8045156736
 21
31.8490495359
  0
LINE
  8
0
 62
7
  6
CONTINUOUS
 10
368.9498280634
 20
31.7199947902
 11
369.2967030634
 21
31.6877311038
  0
LINE
  8
0
 62
7
  6
CONTINUOUS
 10
369.2967030634
 20
31.8167858495
 11
368.9498280634
 21
31.8490495359
  0
LINE
  8
0
 62
7
  6
CONTINUOUS
 10
366.6373282839
 20
31.7199947902
 11
366.8685780634
 21
31.6877311038
  0
LINE
  8
0
 62
7
  6
CONTINUOUS
 10
369.4701405634
 20
31.7845221631
 11
369.2967030634
 21
31.8167858495
  0
LINE
  8
0
 62
7
  6
CONTINUOUS
 10
369.6435780634
 20
30.9134025506
 11
369.7592026223
 21
31.0101936212
  0
LINE
  8
0
 62
7
  6
CONTINUOUS
 10
364.1513903428
 20
31.106984703
 11
363.9779528428
 21
31.0101936212
  0
LINE
  8
0
 62
7
  6
CONTINUOUS
 10
366.2326403428
 20
31.7522584767
 11
366.1170157839
 21
31.6877311038
  0
LINE
  8
0
 62
7
  6
CONTINUOUS
 10
366.1170157839
 20
31.5586763581
 11
366.2326403428
 21
31.623203731
  0
LINE
  8
0
 62
7
  6
CONTINUOUS
 10
358.8326405772
 20
31.7845221631
 11
358.6592030565
 21
31.7199947902
  0
LINE
  8
0
 62
7
  6
CONTINUOUS
 10
361.2607654531
 20
31.8167858495
 11
361.0873281185
 21
31.7522584767
  0
LINE
  8
0
 62
7
  6
CONTINUOUS
 10
361.0873281185
 20
31.623203731
 11
361.2607654531
 21
31.6877311038
  0
LINE
  8
0
 62
7
  6
CONTINUOUS
 10
359.8732656185
 20
31.0424573076
 11
359.6998280358
 21
30.9779299347
  0
LINE
  8
0
 62
7
  6
CONTINUOUS
 10
369.2967030634
 20
30.9779299347
 11
369.0654532839
 21
30.945666237
  0
LINE
  8
0
 62
7
  6
CONTINUOUS
 10
363.6888904531
 20
30.81661148
 11
363.9779528428
 21
30.8488751693
  0
LINE
  8
0
 62
7
  6
CONTINUOUS
 10
369.0654532839
 20
30.81661148
 11
369.4123282839
 21
30.8488751693
  0
LINE
  8
0
 62
7
  6
CONTINUOUS
 10
359.3529530358
 20
30.81661148
 11
359.7576405634
 21
30.8488751693
  0
LINE
  8
0
 62
7
  6
CONTINUOUS
 10
359.6998280358
 20
30.9779299347
 11
359.2951405909
 21
30.945666237
  0
LINE
  8
0
 62
7
  6
CONTINUOUS
 10
363.5732655634
 20
31.3650941944
 11
364.2092032839
 21
31.3650941944
  0
LINE
  8
0
 62
7
  6
CONTINUOUS
 10
364.2092032839
 20
31.4941489853
 11
363.5732655634
 21
31.4941489853
  0
LINE
  8
0
 62
7
  6
CONTINUOUS
 10
359.9310780634
 20
31.5264126717
 11
360.2201406185
 21
31.5264126717
  0
LINE
  8
0
 62
7
  6
CONTINUOUS
 10
362.7638906736
 20
31.5909400446
 11
363.0529530634
 21
31.5909400446
  0
LINE
  8
0
 62
7
  6
CONTINUOUS
 10
369.4701405634
 20
31.5909400446
 11
369.7592026223
 21
31.5909400446
  0
LINE
  8
0
 62
7
  6
CONTINUOUS
 10
363.4576406736
 20
31.7199947902
 11
363.8045156736
 21
31.7199947902
  0
LINE
  8
0
 62
7
  6
CONTINUOUS
 10
368.6029530634
 20
31.7199947902
 11
368.9498280634
 21
31.7199947902
  0
LINE
  8
0
 62
7
  6
CONTINUOUS
 10
368.9498280634
 20
31.8490495359
 11
368.6029530634
 21
31.8490495359
  0
LINE
  8
0
 62
7
  6
CONTINUOUS
 10
366.8685780634
 20
31.8490495359
 11
366.6373282839
 21
31.8490495359
  0
LINE
  8
0
 62
7
  6
CONTINUOUS
 10
366.1170157839
 20
31.8490495359
 11
365.8279530634
 21
31.8490495359
  0
LINE
  8
0
 62
7
  6
CONTINUOUS
 10
365.3654528428
 20
31.8490495359
 11
365.0763907839
 21
31.8490495359
  0
LINE
  8
0
 62
7
  6
CONTINUOUS
 10
363.8045156736
 20
31.8490495359
 11
363.4576406736
 21
31.8490495359
  0
LINE
  8
0
 62
7
  6
CONTINUOUS
 10
361.7232656736
 20
31.8490495359
 11
361.4920155634
 21
31.8490495359
  0
LINE
  8
0
 62
7
  6
CONTINUOUS
 10
365.0763907839
 20
32.1716864905
 11
365.3654528428
 21
32.1716864905
  0
LINE
  8
0
 62
7
  6
CONTINUOUS
 10
365.3654528428
 20
32.3330049227
 11
365.0763907839
 21
32.3330049227
  0
LINE
  8
0
 62
7
  6
CONTINUOUS
 10
360.9717030634
 20
32.3330049227
 11
360.6826405082
 21
32.3330049227
  0
LINE
  8
0
 62
7
  6
CONTINUOUS
 10
360.0094848257
 20
32.6198901686
 11
360.4220561743
 21
32.6198901686
  0
LINE
  8
0
 62
7
  6
CONTINUOUS
 10
361.648829088
 20
32.6198901686
 11
363.0422717109
 21
32.6198901686
  0
LINE
  8
0
 62
7
  6
CONTINUOUS
 10
363.3701405634
 20
32.6198901686
 11
364.7635831863
 21
32.6198901686
  0
LINE
  8
0
 62
7
  6
CONTINUOUS
 10
366.648829088
 20
32.6198901686
 11
368.0422717109
 21
32.6198901686
  0
LINE
  8
0
 62
7
  6
CONTINUOUS
 10
368.3701405634
 20
32.6198901686
 11
369.7635831863
 21
32.6198901686
  0
LINE
  8
0
 62
7
  6
CONTINUOUS
 10
366.4060778428
 20
31.8167858495
 11
366.2326403428
 21
31.7522584767
  0
LINE
  8
0
 62
7
  6
CONTINUOUS
 10
363.9779528428
 20
30.8488751693
 11
364.1513903428
 21
30.9134025506
  0
LINE
  8
0
 62
7
  6
CONTINUOUS
 10
369.4123282839
 20
30.8488751693
 11
369.6435780634
 21
30.9134025506
  0
LINE
  8
0
 62
7
  6
CONTINUOUS
 10
369.4123282839
 20
31.0101936212
 11
369.2967030634
 21
30.9779299347
  0
LINE
  8
0
 62
7
  6
CONTINUOUS
 10
368.3717032839
 20
31.6877311038
 11
368.6029530634
 21
31.7199947902
  0
LINE
  8
0
 62
7
  6
CONTINUOUS
 10
366.4060778428
 20
31.6877311038
 11
366.6373282839
 21
31.7199947902
  0
LINE
  8
0
 62
7
  6
CONTINUOUS
 10
363.3420154531
 20
31.332830508
 11
363.5732655634
 21
31.3650941944
  0
LINE
  8
0
 62
7
  6
CONTINUOUS
 10
366.6373282839
 20
31.8490495359
 11
366.4060778428
 21
31.8167858495
  0
LINE
  8
0
 62
7
  6
CONTINUOUS
 10
363.2263905634
 20
31.6877311038
 11
363.4576406736
 21
31.7199947902
  0
LINE
  8
0
 62
7
  6
CONTINUOUS
 10
368.6029530634
 20
31.8490495359
 11
368.2560780634
 21
31.8167858495
  0
LINE
  8
0
 62
7
  6
CONTINUOUS
 10
363.5732655634
 20
31.4941489853
 11
363.2263905634
 21
31.4618852989
  0
LINE
  8
0
 62
7
  6
CONTINUOUS
 10
359.3529530358
 20
31.8490495359
 11
359.0060780772
 21
31.8167858495
  0
LINE
  8
0
 62
7
  6
CONTINUOUS
 10
363.4576406736
 20
31.8490495359
 11
363.0529530634
 21
31.8167858495
  0
LINE
  8
0
 62
7
  6
CONTINUOUS
 10
360.8291569568
 20
33.7674311522
 11
360.1734192519
 21
33.7674311522
  0
LINE
  8
0
 62
7
  6
CONTINUOUS
 10
366.2326403428
 20
31.623203731
 11
366.4060778428
 21
31.6877311038
  0
LINE
  8
0
 62
7
  6
CONTINUOUS
 10
368.2560780634
 20
31.6554674174
 11
368.3717032839
 21
31.6877311038
  0
LINE
  8
0
 62
7
  6
CONTINUOUS
 10
368.2560780634
 20
31.8167858495
 11
368.0248282839
 21
31.7522584767
  0
LINE
  8
0
 62
7
  6
CONTINUOUS
 10
363.9779528428
 20
31.0101936212
 11
363.6888904531
 21
30.945666237
  0
LINE
  8
0
 62
7
  6
CONTINUOUS
 10
361.2607654531
 20
31.6877311038
 11
361.4920155634
 21
31.7199947902
  0
LINE
  8
0
 62
7
  6
CONTINUOUS
 10
361.4920155634
 20
31.8490495359
 11
361.2607654531
 21
31.8167858495
  0
LINE
  8
0
 62
7
  6
CONTINUOUS
 10
359.0638905634
 20
31.6877311038
 11
359.2951405909
 21
31.7199947902
  0
LINE
  8
0
 62
7
  6
CONTINUOUS
 10
365.5832553175
 20
35.2428409882
 11
366.2389930224
 21
35.2428409882
  0
LINE
  8
0
 62
7
  6
CONTINUOUS
 10
363.2263905634
 20
31.3005668216
 11
363.3420154531
 21
31.332830508
  0
LINE
  8
0
 62
7
  6
CONTINUOUS
 10
363.2263905634
 20
31.4618852989
 11
362.9951404531
 21
31.397357926
  0
LINE
  8
0
 62
7
  6
CONTINUOUS
 10
363.1107656736
 20
31.6554674174
 11
363.2263905634
 21
31.6877311038
  0
LINE
  8
0
 62
7
  6
CONTINUOUS
 10
359.7576405634
 20
30.8488751693
 11
359.9888905082
 21
30.9134025506
  0
LINE
  8
0
 62
7
  6
CONTINUOUS
 10
363.0529530634
 20
31.8167858495
 11
362.9373281736
 21
31.7845221631
  0
LINE
  8
0
 62
7
  6
CONTINUOUS
 10
359.0060780772
 20
31.8167858495
 11
358.8326405772
 21
31.7845221631
  0
LINE
  8
0
 62
7
  6
CONTINUOUS
 10
369.7635831863
 20
36.3903819718
 11
368.3701405634
 21
36.3903819718
  0
LINE
  8
0
 62
7
  6
CONTINUOUS
 10
366.4029274486
 20
36.3903819718
 11
365.9903561
 21
36.3903819718
  0
LINE
  8
0
 62
7
  6
CONTINUOUS
 10
364.7635831863
 20
36.3903819718
 11
363.3701405634
 21
36.3903819718
  0
LINE
  8
0
 62
7
  6
CONTINUOUS
 10
363.0422717109
 20
36.3903819718
 11
361.648829088
 21
36.3903819718
  0
LINE
  8
0
 62
7
  6
CONTINUOUS
 10
359.7635831863
 20
36.3903819718
 11
358.3701405634
 21
36.3903819718
  0
LINE
  8
0
 62
7
  6
CONTINUOUS
 10
358.9482655496
 20
31.6554674174
 11
359.0638905634
 21
31.6877311038
  0
CIRCLE
  8
0
 62
7
  6
CONTINUOUS
 10
369.0668618749
 20
38.7264475456
 40
2.0901639344
  0
ARC
  8
0
 62
7
  6
CONTINUOUS
 10
360.0094848257
 20
34.2592344308
 40
1.6393442623
 50
180.0
 51
270.0
  0
ARC
  8
0
 62
7
  6
CONTINUOUS
 10
366.4029274486
 20
34.7510377095
 40
1.6393442623
 50
0.0
 51
90.0
  0
ARC
  8
0
 62
7
  6
CONTINUOUS
 10
360.4220561743
 20
34.0953000046
 40
1.4754098361
 50
270.0
 51
326.2510114041
  0
ARC
  8
0
 62
7
  6
CONTINUOUS
 10
365.9903561
 20
34.9149721358
 40
1.4754098361
 50
90.0
 51
146.2510114041
  0
ARC
  8
0
 62
7
  6
CONTINUOUS
 10
360.8291569568
 20
34.5871032833
 40
0.8196721311
 50
270.0
 51
360.0
  0
ARC
  8
0
 62
7
  6
CONTINUOUS
 10
365.5832553175
 20
34.4231688571
 40
0.8196721311
 50
90.0
 51
180.0
  0
ARC
  8
0
 62
7
  6
CONTINUOUS
 10
360.1734192519
 20
34.1772672177
 40
0.4098360656
 50
180.0
 51
270.0
  0
ARC
  8
0
 62
7
  6
CONTINUOUS
 10
366.2389930224
 20
34.8330049227
 40
0.4098360656
 50
0.0
 51
90.0
  0
SOLID
  8
0
 62
7
  6
CONTINUOUS
 10
365.0763907839
 20
32.1716868508
 11
365.0763907839
 21
32.3330053344
 12
365.3654528428
 22
32.1716868508
 13
365.3654528428
 23
32.3330053344
  0
SOLID
  8
0
 62
7
  6
CONTINUOUS
 10
359.3529530358
 20
31.8490498836
 11
359.7576405634
 21
31.8167854792
 12
359.0060780772
 22
31.8167854792
 13
359.0060780772
 23
31.8167854792
  0
SOLID
  8
0
 62
7
  6
CONTINUOUS
 10
358.8326405772
 20
31.7845227934
 11
359.0060780772
 21
31.8167854792
 12
359.7576405634
 22
31.8167854792
 13
359.7576405634
 23
31.8167854792
  0
SOLID
  8
0
 62
7
  6
CONTINUOUS
 10
359.7576405634
 20
31.8167854792
 11
359.9888905082
 21
31.7522584901
 12
358.8326405772
 22
31.7845227934
 13
358.8326405772
 23
31.7845227934
  0
SOLID
  8
0
 62
7
  6
CONTINUOUS
 10
358.6592030565
 20
31.7199940664
 11
358.8326405772
 21
31.7845227934
 12
359.9888905082
 22
31.7522584901
 13
359.9888905082
 23
31.7522584901
  0
SOLID
  8
0
 62
7
  6
CONTINUOUS
 10
358.6592030565
 20
31.7199940664
 11
359.9888905082
 21
31.7522584901
 12
359.2951405909
 22
31.7199940664
 13
359.2951405909
 23
31.7199940664
  0
SOLID
  8
0
 62
7
  6
CONTINUOUS
 10
359.2951405909
 20
31.7199940664
 11
359.9888905082
 21
31.7522584901
 12
359.6998280358
 22
31.6877314
 13
359.6998280358
 23
31.6877314
  0
SOLID
  8
0
 62
7
  6
CONTINUOUS
 10
359.9888905082
 20
31.7522584901
 11
360.1623280082
 21
31.6554670967
 12
359.6998280358
 22
31.6877314
 13
359.6998280358
 23
31.6877314
  0
SOLID
  8
0
 62
7
  6
CONTINUOUS
 10
359.8732656185
 20
31.6232043098
 11
359.6998280358
 21
31.6877314
 12
360.1623280082
 22
31.6554670967
 13
360.1623280082
 23
31.6554670967
  0
SOLID
  8
0
 62
7
  6
CONTINUOUS
 10
359.8732656185
 20
31.6232043098
 11
360.1623280082
 21
31.6554670967
 12
359.9310780634
 22
31.5264128539
 13
359.9310780634
 23
31.5264128539
  0
SOLID
  8
0
 62
7
  6
CONTINUOUS
 10
360.1623280082
 20
31.6554670967
 11
360.2201406185
 21
31.5264128539
 12
359.9310780634
 22
31.5264128539
 13
359.9310780634
 23
31.5264128539
  0
SOLID
  8
0
 62
7
  6
CONTINUOUS
 10
361.2607654531
 20
31.8167852459
 11
361.4920155634
 21
31.8490495492
 12
361.7232656736
 22
31.8490495492
 13
361.7232656736
 23
31.8490495492
  0
SOLID
  8
0
 62
7
  6
CONTINUOUS
 10
361.7232656736
 20
31.8490495492
 11
361.8967031736
 21
31.8167852459
 12
361.2607654531
 22
31.8167852459
 13
361.2607654531
 23
31.8167852459
  0
SOLID
  8
0
 62
7
  6
CONTINUOUS
 10
361.0873281185
 20
31.7522581557
 11
361.2607654531
 21
31.8167852459
 12
361.8967031736
 22
31.8167852459
 13
361.8967031736
 23
31.8167852459
  0
SOLID
  8
0
 62
7
  6
CONTINUOUS
 10
361.8967031736
 20
31.8167852459
 11
362.0701406736
 21
31.7522581557
 12
361.0873281185
 22
31.7522581557
 13
361.0873281185
 23
31.7522581557
  0
SOLID
  8
0
 62
7
  6
CONTINUOUS
 10
362.0701406736
 20
31.7522581557
 11
361.4920155634
 21
31.7199941869
 12
361.0873281185
 22
31.7522581557
 13
361.0873281185
 23
31.7522581557
  0
SOLID
  8
0
 62
7
  6
CONTINUOUS
 10
360.9717030634
 20
31.6877310656
 11
361.0873281185
 21
31.7522581557
 12
361.4920155634
 22
31.7199941869
 13
361.4920155634
 23
31.7199941869
  0
SOLID
  8
0
 62
7
  6
CONTINUOUS
 10
361.4920155634
 20
31.7199941869
 11
361.2607654531
 21
31.6877310656
 12
360.9717030634
 22
31.6877310656
 13
360.9717030634
 23
31.6877310656
  0
SOLID
  8
0
 62
7
  6
CONTINUOUS
 10
361.4920155634
 20
31.7199941869
 11
362.0701406736
 21
31.7522581557
 12
361.7232656736
 22
31.6877310656
 13
361.7232656736
 23
31.6877310656
  0
SOLID
  8
0
 62
7
  6
CONTINUOUS
 10
362.0701406736
 20
31.7522581557
 11
362.1857655634
 21
31.6877310656
 12
361.7232656736
 22
31.6877310656
 13
361.7232656736
 23
31.6877310656
  0
SOLID
  8
0
 62
7
  6
CONTINUOUS
 10
361.8388905634
 20
31.6554670967
 11
361.7232656736
 21
31.6877310656
 12
362.1857655634
 22
31.6877310656
 13
362.1857655634
 23
31.6877310656
  0
SOLID
  8
0
 62
7
  6
CONTINUOUS
 10
362.1857655634
 20
31.6877310656
 11
362.2435781736
 21
31.6232039754
 12
361.8388905634
 22
31.6554670967
 13
361.8388905634
 23
31.6554670967
  0
SOLID
  8
0
 62
7
  6
CONTINUOUS
 10
361.9545154531
 20
31.5909400065
 11
361.8388905634
 21
31.6554670967
 12
362.2435781736
 22
31.6232039754
 13
362.2435781736
 23
31.6232039754
  0
SOLID
  8
0
 62
7
  6
CONTINUOUS
 10
361.9545154531
 20
31.5909400065
 11
362.2435781736
 21
31.6232039754
 12
362.0123280634
 22
31.4618854918
 13
362.0123280634
 23
31.4618854918
  0
SOLID
  8
0
 62
7
  6
CONTINUOUS
 10
362.2435781736
 20
31.6232039754
 11
362.3013904531
 21
31.4618854918
 12
362.0123280634
 22
31.4618854918
 13
362.0123280634
 23
31.4618854918
  0
SOLID
  8
0
 62
7
  6
CONTINUOUS
 10
361.2607654531
 20
31.6877310656
 11
361.0873281185
 21
31.6232039754
 12
360.9717030634
 22
31.6877310656
 13
360.9717030634
 23
31.6877310656
  0
SOLID
  8
0
 62
7
  6
CONTINUOUS
 10
361.0873281185
 20
31.6232039754
 11
360.9717030634
 21
31.5586757033
 12
360.9717030634
 22
31.6877310656
 13
360.9717030634
 23
31.6877310656
  0
SOLID
  8
0
 62
7
  6
CONTINUOUS
 10
360.9717030634
 20
31.5586757033
 11
360.6826405082
 21
30.8166115574
 12
360.9717030634
 22
31.6877310656
 13
360.9717030634
 23
31.6877310656
  0
SOLID
  8
0
 62
7
  6
CONTINUOUS
 10
360.9717030634
 20
31.6877310656
 11
360.6826405082
 21
30.8166115574
 12
360.9717030634
 22
32.333005
 13
360.9717030634
 23
32.333005
  0
SOLID
  8
0
 62
7
  6
CONTINUOUS
 10
360.6826405082
 20
30.8166115574
 11
360.6826405082
 21
32.333005
 12
360.9717030634
 22
32.333005
 13
360.9717030634
 23
32.333005
  0
SOLID
  8
0
 62
7
  6
CONTINUOUS
 10
360.9717030634
 20
31.5586757033
 11
360.9717030634
 21
30.8166115574
 12
360.6826405082
 22
30.8166115574
 13
360.6826405082
 23
30.8166115574
  0
SOLID
  8
0
 62
7
  6
CONTINUOUS
 10
362.0123280634
 20
30.8166115574
 11
362.0123280634
 21
31.4618854918
 12
362.3013904531
 22
31.4618854918
 13
362.3013904531
 23
31.4618854918
  0
SOLID
  8
0
 62
7
  6
CONTINUOUS
 10
362.3013904531
 20
31.4618854918
 11
362.3013904531
 21
30.8166115574
 12
362.0123280634
 22
30.8166115574
 13
362.0123280634
 23
30.8166115574
  0
SOLID
  8
0
 62
7
  6
CONTINUOUS
 10
363.0529530634
 20
31.8167856315
 11
363.4576406736
 21
31.8490496243
 12
363.8045156736
 22
31.8490496243
 13
363.8045156736
 23
31.8490496243
  0
SOLID
  8
0
 62
7
  6
CONTINUOUS
 10
363.8045156736
 20
31.8490496243
 11
364.1513903428
 21
31.8167856315
 12
363.0529530634
 22
31.8167856315
 13
363.0529530634
 23
31.8167856315
  0
SOLID
  8
0
 62
7
  6
CONTINUOUS
 10
362.9373281736
 20
31.7845227934
 11
363.0529530634
 21
31.8167856315
 12
364.1513903428
 22
31.8167856315
 13
364.1513903428
 23
31.8167856315
  0
SOLID
  8
0
 62
7
  6
CONTINUOUS
 10
364.1513903428
 20
31.8167856315
 11
364.3248278428
 21
31.7522584901
 12
362.9373281736
 22
31.7845227934
 13
362.9373281736
 23
31.7845227934
  0
SOLID
  8
0
 62
7
  6
CONTINUOUS
 10
362.8217029531
 20
31.7199944276
 11
362.9373281736
 21
31.7845227934
 12
364.3248278428
 22
31.7522584901
 13
364.3248278428
 23
31.7522584901
  0
SOLID
  8
0
 62
7
  6
CONTINUOUS
 10
362.8217029531
 20
31.7199944276
 11
364.3248278428
 21
31.7522584901
 12
363.4576406736
 22
31.7199944276
 13
363.4576406736
 23
31.7199944276
  0
SOLID
  8
0
 62
7
  6
CONTINUOUS
 10
363.4576406736
 20
31.7199944276
 11
364.3248278428
 21
31.7522584901
 12
363.8045156736
 22
31.7199944276
 13
363.8045156736
 23
31.7199944276
  0
SOLID
  8
0
 62
7
  6
CONTINUOUS
 10
363.8045156736
 20
31.7199944276
 11
364.3248278428
 21
31.7522584901
 12
364.0357657839
 22
31.6877312092
 13
364.0357657839
 23
31.6877312092
  0
SOLID
  8
0
 62
7
  6
CONTINUOUS
 10
364.3248278428
 20
31.7522584901
 11
364.4404530634
 21
31.6877312092
 12
364.0357657839
 22
31.6877312092
 13
364.0357657839
 23
31.6877312092
  0
SOLID
  8
0
 62
7
  6
CONTINUOUS
 10
362.7638906736
 20
31.6554672165
 11
362.8217029531
 21
31.7199944276
 12
363.4576406736
 22
31.7199944276
 13
363.4576406736
 23
31.7199944276
  0
SOLID
  8
0
 62
7
  6
CONTINUOUS
 10
364.1513903428
 20
31.6554672165
 11
364.0357657839
 21
31.6877312092
 12
364.4404530634
 22
31.6877312092
 13
364.4404530634
 23
31.6877312092
  0
SOLID
  8
0
 62
7
  6
CONTINUOUS
 10
364.1513903428
 20
31.6554672165
 11
364.4404530634
 21
31.6877312092
 12
364.2092032839
 22
31.5909400053
 13
364.2092032839
 23
31.5909400053
  0
SOLID
  8
0
 62
7
  6
CONTINUOUS
 10
364.4404530634
 20
31.6877312092
 11
364.4982653428
 21
31.5909400053
 12
364.2092032839
 22
31.5909400053
 13
364.2092032839
 23
31.5909400053
  0
SOLID
  8
0
 62
7
  6
CONTINUOUS
 10
364.2092032839
 20
31.4941486131
 11
364.2092032839
 21
31.5909400053
 12
364.4982653428
 22
31.5909400053
 13
364.4982653428
 23
31.5909400053
  0
SOLID
  8
0
 62
7
  6
CONTINUOUS
 10
364.2092032839
 20
31.4941486131
 11
364.4982653428
 21
31.5909400053
 12
364.2092032839
 22
31.3650944328
 13
364.2092032839
 23
31.3650944328
  0
SOLID
  8
0
 62
7
  6
CONTINUOUS
 10
364.2092032839
 20
31.3650944328
 11
364.4982653428
 21
31.5909400053
 12
364.2092032839
 22
31.1715120759
 13
364.2092032839
 23
31.1715120759
  0
SOLID
  8
0
 62
7
  6
CONTINUOUS
 10
364.4982653428
 20
31.5909400053
 11
364.4982653428
 21
31.0747202524
 12
364.2092032839
 22
31.1715120759
 13
364.2092032839
 23
31.1715120759
  0
SOLID
  8
0
 62
7
  6
CONTINUOUS
 10
366.4060778428
 20
31.8167851023
 11
366.6373282839
 21
31.849049822
 12
366.8685780634
 22
31.849049822
 13
366.8685780634
 23
31.849049822
  0
SOLID
  8
0
 62
7
  6
CONTINUOUS
 10
366.8685780634
 20
31.849049822
 11
367.0420155634
 21
31.8167851023
 12
366.4060778428
 22
31.8167851023
 13
366.4060778428
 23
31.8167851023
  0
SOLID
  8
0
 62
7
  6
CONTINUOUS
 10
366.2326403428
 20
31.7522587602
 11
366.4060778428
 21
31.8167851023
 12
367.0420155634
 22
31.8167851023
 13
367.0420155634
 23
31.8167851023
  0
SOLID
  8
0
 62
7
  6
CONTINUOUS
 10
367.0420155634
 20
31.8167851023
 11
367.2154530634
 21
31.7522587602
 12
366.2326403428
 22
31.7522587602
 13
366.2326403428
 23
31.7522587602
  0
SOLID
  8
0
 62
7
  6
CONTINUOUS
 10
367.2154530634
 20
31.7522587602
 11
366.6373282839
 21
31.7199941869
 12
366.2326403428
 22
31.7522587602
 13
366.2326403428
 23
31.7522587602
  0
SOLID
  8
0
 62
7
  6
CONTINUOUS
 10
366.1170157839
 20
31.6877313857
 11
366.2326403428
 21
31.7522587602
 12
366.6373282839
 22
31.7199941869
 13
366.6373282839
 23
31.7199941869
  0
SOLID
  8
0
 62
7
  6
CONTINUOUS
 10
366.6373282839
 20
31.7199941869
 11
366.4060778428
 21
31.6877313857
 12
366.1170157839
 22
31.6877313857
 13
366.1170157839
 23
31.6877313857
  0
SOLID
  8
0
 62
7
  6
CONTINUOUS
 10
366.6373282839
 20
31.7199941869
 11
367.2154530634
 21
31.7522587602
 12
366.8685780634
 22
31.6877313857
 13
366.8685780634
 23
31.6877313857
  0
SOLID
  8
0
 62
7
  6
CONTINUOUS
 10
367.2154530634
 20
31.7522587602
 11
367.3310782839
 21
31.6877313857
 12
366.8685780634
 22
31.6877313857
 13
366.8685780634
 23
31.6877313857
  0
SOLID
  8
0
 62
7
  6
CONTINUOUS
 10
366.9842032839
 20
31.6554670967
 11
366.8685780634
 21
31.6877313857
 12
367.3310782839
 22
31.6877313857
 13
367.3310782839
 23
31.6877313857
  0
SOLID
  8
0
 62
7
  6
CONTINUOUS
 10
366.9842032839
 20
31.6554670967
 11
367.3310782839
 21
31.6877313857
 12
367.0998278428
 22
31.590940324
 13
367.0998278428
 23
31.590940324
  0
SOLID
  8
0
 62
7
  6
CONTINUOUS
 10
367.3310782839
 20
31.6877313857
 11
367.3888905634
 21
31.590940324
 12
367.0998278428
 22
31.590940324
 13
367.0998278428
 23
31.590940324
  0
SOLID
  8
0
 62
7
  6
CONTINUOUS
 10
367.1576407839
 20
31.4296218878
 11
367.0998278428
 21
31.590940324
 12
367.3888905634
 22
31.590940324
 13
367.3888905634
 23
31.590940324
  0
SOLID
  8
0
 62
7
  6
CONTINUOUS
 10
367.3888905634
 20
31.590940324
 11
367.4467028428
 21
31.4296218878
 12
367.1576407839
 22
31.4296218878
 13
367.1576407839
 23
31.4296218878
  0
SOLID
  8
0
 62
7
  6
CONTINUOUS
 10
366.4060778428
 20
31.6877313857
 11
366.2326403428
 21
31.6232043098
 12
366.1170157839
 22
31.6877313857
 13
366.1170157839
 23
31.6877313857
  0
SOLID
  8
0
 62
7
  6
CONTINUOUS
 10
366.2326403428
 20
31.6232043098
 11
366.1170157839
 21
31.5586757033
 12
366.1170157839
 22
31.6877313857
 13
366.1170157839
 23
31.6877313857
  0
SOLID
  8
0
 62
7
  6
CONTINUOUS
 10
366.1170157839
 20
31.5586757033
 11
365.8279530634
 21
30.8166118302
 12
366.1170157839
 22
31.6877313857
 13
366.1170157839
 23
31.6877313857
  0
SOLID
  8
0
 62
7
  6
CONTINUOUS
 10
366.1170157839
 20
31.6877313857
 11
365.8279530634
 21
30.8166118302
 12
366.1170157839
 22
31.849049822
 13
366.1170157839
 23
31.849049822
  0
SOLID
  8
0
 62
7
  6
CONTINUOUS
 10
365.8279530634
 20
30.8166118302
 11
365.8279530634
 21
31.849049822
 12
366.1170157839
 22
31.849049822
 13
366.1170157839
 23
31.849049822
  0
SOLID
  8
0
 62
7
  6
CONTINUOUS
 10
366.1170157839
 20
31.5586757033
 11
366.1170157839
 21
30.8166118302
 12
365.8279530634
 22
30.8166118302
 13
365.8279530634
 23
30.8166118302
  0
SOLID
  8
0
 62
7
  6
CONTINUOUS
 10
367.1576407839
 20
30.8166118302
 11
367.1576407839
 21
31.4296218878
 12
367.4467028428
 22
31.4296218878
 13
367.4467028428
 23
31.4296218878
  0
SOLID
  8
0
 62
7
  6
CONTINUOUS
 10
367.4467028428
 20
31.4296218878
 11
367.4467028428
 21
30.8166118302
 12
367.1576407839
 22
30.8166118302
 13
367.1576407839
 23
30.8166118302
  0
SOLID
  8
0
 62
7
  6
CONTINUOUS
 10
368.2560780634
 20
31.8167856056
 11
368.6029530634
 21
31.8490498552
 12
368.9498280634
 22
31.8490498552
 13
368.9498280634
 23
31.8490498552
  0
SOLID
  8
0
 62
7
  6
CONTINUOUS
 10
368.9498280634
 20
31.8490498552
 11
369.2967030634
 21
31.8167856056
 12
368.2560780634
 22
31.8167856056
 13
368.2560780634
 23
31.8167856056
  0
SOLID
  8
0
 62
7
  6
CONTINUOUS
 10
368.0248282839
 20
31.7522584901
 11
368.2560780634
 21
31.8167856056
 12
369.2967030634
 22
31.8167856056
 13
369.2967030634
 23
31.8167856056
  0
SOLID
  8
0
 62
7
  6
CONTINUOUS
 10
368.0248282839
 20
31.7522584901
 11
369.2967030634
 21
31.8167855803
 12
369.4701405634
 22
31.7845227934
 13
369.4701405634
 23
31.7845227934
  0
SOLID
  8
0
 62
7
  6
CONTINUOUS
 10
368.0248282839
 20
31.7522584901
 11
369.4701405634
 21
31.7845227934
 12
368.6029530634
 22
31.7199941235
 13
368.6029530634
 23
31.7199941235
  0
SOLID
  8
0
 62
7
  6
CONTINUOUS
 10
368.6029530634
 20
31.7199941235
 11
369.4701405634
 21
31.7845227934
 12
368.9498280634
 22
31.7199941235
 13
368.9498280634
 23
31.7199941235
  0
SOLID
  8
0
 62
7
  6
CONTINUOUS
 10
369.4701405634
 20
31.7845227934
 11
369.6435780634
 21
31.7199941235
 12
368.9498280634
 22
31.7199941235
 13
368.9498280634
 23
31.7199941235
  0
SOLID
  8
0
 62
7
  6
CONTINUOUS
 10
369.2967030634
 20
31.6877314
 11
368.9498280634
 21
31.7199941235
 12
369.6435780634
 22
31.7199941235
 13
369.6435780634
 23
31.7199941235
  0
SOLID
  8
0
 62
7
  6
CONTINUOUS
 10
367.9092030634
 20
31.6554671071
 11
368.0248282839
 21
31.7522584901
 12
368.6029530634
 22
31.7199941235
 13
368.6029530634
 23
31.7199941235
  0
SOLID
  8
0
 62
7
  6
CONTINUOUS
 10
369.2967030634
 20
31.6877314
 11
369.6435780634
 21
31.7199941235
 12
369.4123282839
 22
31.6554671071
 13
369.4123282839
 23
31.6554671071
  0
SOLID
  8
0
 62
7
  6
CONTINUOUS
 10
369.4123282839
 20
31.6554671071
 11
369.6435780634
 21
31.7199941235
 12
369.4701405634
 22
31.5909400907
 13
369.4701405634
 23
31.5909400907
  0
SOLID
  8
0
 62
7
  6
CONTINUOUS
 10
369.6435780634
 20
31.7199941235
 11
369.7592026223
 21
31.5909400907
 12
369.4701405634
 22
31.5909400907
 13
369.4701405634
 23
31.5909400907
  0
SOLID
  8
0
 62
7
  6
CONTINUOUS
 10
359.0638905634
 20
31.6877314
 11
358.5435780634
 21
31.6554670789
 12
359.2951405909
 22
31.7199941045
 13
359.2951405909
 23
31.7199941045
  0
SOLID
  8
0
 62
7
  6
CONTINUOUS
 10
358.5435780634
 20
31.6554670789
 11
358.6592030565
 21
31.7199941045
 12
359.2951405909
 22
31.7199941045
 13
359.2951405909
 23
31.7199941045
  0
SOLID
  8
0
 62
7
  6
CONTINUOUS
 10
359.0638905634
 20
31.6877314
 11
358.9482655496
 21
31.6554670789
 12
358.5435780634
 22
31.6554670789
 13
358.5435780634
 23
31.6554670789
  0
SOLID
  8
0
 62
7
  6
CONTINUOUS
 10
358.4279530651
 20
31.5264129164
 11
358.5435780634
 21
31.6554670789
 12
358.9482655496
 22
31.6554670789
 13
358.9482655496
 23
31.6554670789
  0
SOLID
  8
0
 62
7
  6
CONTINUOUS
 10
362.7638906736
 20
31.6554670789
 11
363.4576406736
 21
31.7199941869
 12
363.2263905634
 22
31.6877314
 13
363.2263905634
 23
31.6877314
  0
SOLID
  8
0
 62
7
  6
CONTINUOUS
 10
363.2263905634
 20
31.6877314
 11
363.1107656736
 21
31.6554670789
 12
362.7638906736
 22
31.6554670789
 13
362.7638906736
 23
31.6554670789
  0
SOLID
  8
0
 62
7
  6
CONTINUOUS
 10
362.7638906736
 20
31.5909399887
 11
362.7638906736
 21
31.6554670789
 12
363.1107656736
 22
31.6554670789
 13
363.1107656736
 23
31.6554670789
  0
SOLID
  8
0
 62
7
  6
CONTINUOUS
 10
363.1107656736
 20
31.6554670789
 11
363.0529530634
 21
31.5909399887
 12
362.7638906736
 22
31.5909399887
 13
362.7638906736
 23
31.5909399887
  0
SOLID
  8
0
 62
7
  6
CONTINUOUS
 10
367.9092030634
 20
31.6554670789
 11
368.6029530634
 21
31.7199941869
 12
368.3717032839
 22
31.6877314
 13
368.3717032839
 23
31.6877314
  0
SOLID
  8
0
 62
7
  6
CONTINUOUS
 10
368.3717032839
 20
31.6877314
 11
368.2560780634
 21
31.6554670789
 12
367.9092030634
 22
31.6554670789
 13
367.9092030634
 23
31.6554670789
  0
SOLID
  8
0
 62
7
  6
CONTINUOUS
 10
367.9092030634
 20
31.5909399887
 11
367.9092030634
 21
31.6554670789
 12
368.2560780634
 22
31.6554670789
 13
368.2560780634
 23
31.6554670789
  0
SOLID
  8
0
 62
7
  6
CONTINUOUS
 10
368.2560780634
 20
31.6554670789
 11
368.1982657839
 21
31.5909399887
 12
367.9092030634
 22
31.5909399887
 13
367.9092030634
 23
31.5909399887
  0
SOLID
  8
0
 62
7
  6
CONTINUOUS
 10
368.0248282839
 20
31.4618858262
 11
367.9092030634
 21
31.5909399887
 12
368.1982657839
 22
31.5909399887
 13
368.1982657839
 23
31.5909399887
  0
SOLID
  8
0
 62
7
  6
CONTINUOUS
 10
358.4279530651
 20
31.5264129164
 11
358.9482655496
 21
31.6554670967
 12
358.7748280496
 22
31.5586757033
 13
358.7748280496
 23
31.5586757033
  0
SOLID
  8
0
 62
7
  6
CONTINUOUS
 10
358.7748280496
 20
31.5586757033
 11
358.7170155634
 21
31.4941486131
 12
358.4279530651
 22
31.5264129164
 13
358.4279530651
 23
31.5264129164
  0
SOLID
  8
0
 62
7
  6
CONTINUOUS
 10
358.3701405634
 20
31.3328301295
 11
358.4279530651
 21
31.5264129164
 12
358.7170155634
 22
31.4941486131
 13
358.7170155634
 23
31.4941486131
  0
SOLID
  8
0
 62
7
  6
CONTINUOUS
 10
363.2263905634
 20
31.4618858262
 11
363.5732655634
 21
31.4941485791
 12
364.2092032839
 22
31.4941485791
 13
364.2092032839
 23
31.4941485791
  0
SOLID
  8
0
 62
7
  6
CONTINUOUS
 10
363.2263905634
 20
31.4618858262
 11
364.2092032839
 21
31.4941485791
 12
362.9951404531
 22
31.397357926
 13
362.9951404531
 23
31.397357926
  0
SOLID
  8
0
 62
7
  6
CONTINUOUS
 10
362.9951404531
 20
31.397357926
 11
364.2092032839
 21
31.4941485791
 12
363.5732655634
 22
31.3650943988
 13
363.5732655634
 23
31.3650943988
  0
SOLID
  8
0
 62
7
  6
CONTINUOUS
 10
364.2092032839
 20
31.4941485791
 11
364.2092032839
 21
31.3650943988
 12
363.5732655634
 22
31.3650943988
 13
363.5732655634
 23
31.3650943988
  0
SOLID
  8
0
 62
7
  6
CONTINUOUS
 10
368.0248282839
 20
31.4618859165
 11
368.1982657839
 21
31.5909400065
 12
368.2560780634
 22
31.5264129164
 13
368.2560780634
 23
31.5264129164
  0
SOLID
  8
0
 62
7
  6
CONTINUOUS
 10
368.2560780634
 20
31.5264129164
 11
368.4295155634
 21
31.4618859165
 12
368.0248282839
 22
31.4618859165
 13
368.0248282839
 23
31.4618859165
  0
SOLID
  8
0
 62
7
  6
CONTINUOUS
 10
368.2560780634
 20
31.3650944328
 11
368.0248282839
 21
31.4618859165
 12
368.4295155634
 22
31.4618859165
 13
368.4295155634
 23
31.4618859165
  0
SOLID
  8
0
 62
7
  6
CONTINUOUS
 10
368.4295155634
 20
31.4618859165
 11
369.4123282839
 21
31.3005673426
 12
368.2560780634
 22
31.3650944328
 13
368.2560780634
 23
31.3650944328
  0
SOLID
  8
0
 62
7
  6
CONTINUOUS
 10
369.2388907839
 20
31.2037760287
 11
368.2560780634
 21
31.3650944328
 12
369.4123282839
 22
31.3005673426
 13
369.4123282839
 23
31.3005673426
  0
SOLID
  8
0
 62
7
  6
CONTINUOUS
 10
369.4123282839
 20
31.3005673426
 11
369.6435780634
 21
31.2037760287
 12
369.2388907839
 22
31.2037760287
 13
369.2388907839
 23
31.2037760287
  0
SOLID
  8
0
 62
7
  6
CONTINUOUS
 10
369.4123282839
 20
31.139248859
 11
369.2388907839
 21
31.2037760287
 12
369.6435780634
 22
31.2037760287
 13
369.6435780634
 23
31.2037760287
  0
SOLID
  8
0
 62
7
  6
CONTINUOUS
 10
369.4123282839
 20
31.139248859
 11
369.6435780634
 21
31.2037760287
 12
369.4701405634
 22
31.0747203105
 13
369.4701405634
 23
31.0747203105
  0
SOLID
  8
0
 62
7
  6
CONTINUOUS
 10
369.6435780634
 20
31.2037760287
 11
369.7592026223
 21
31.0747203105
 12
369.4701405634
 22
31.0747203105
 13
369.4701405634
 23
31.0747203105
  0
SOLID
  8
0
 62
7
  6
CONTINUOUS
 10
369.4123282839
 20
31.0101932257
 11
369.4701405634
 21
31.0747203105
 12
369.7592026223
 22
31.0747203105
 13
369.7592026223
 23
31.0747203105
  0
SOLID
  8
0
 62
7
  6
CONTINUOUS
 10
369.7592026223
 20
31.0747203105
 11
369.7592026223
 21
31.0101932257
 12
369.4123282839
 22
31.0101932257
 13
369.4123282839
 23
31.0101932257
  0
SOLID
  8
0
 62
7
  6
CONTINUOUS
 10
369.2967030634
 20
30.9779303754
 11
369.4123282839
 21
31.0101932257
 12
369.7592026223
 22
31.0101932257
 13
369.7592026223
 23
31.0101932257
  0
SOLID
  8
0
 62
7
  6
CONTINUOUS
 10
369.2967030634
 20
30.9779303754
 11
369.7592026223
 21
31.0101932257
 12
369.0654532839
 22
30.9456661409
 13
369.0654532839
 23
30.9456661409
  0
SOLID
  8
0
 62
7
  6
CONTINUOUS
 10
369.7592026223
 20
31.0101932257
 11
369.6435780634
 21
30.9134032852
 12
369.0654532839
 22
30.9456661409
 13
369.0654532839
 23
30.9456661409
  0
SOLID
  8
0
 62
7
  6
CONTINUOUS
 10
369.6435780634
 20
30.9134032852
 11
368.1982657839
 21
30.8811389819
 12
369.0654532839
 22
30.9456661409
 13
369.0654532839
 23
30.9456661409
  0
SOLID
  8
0
 62
7
  6
CONTINUOUS
 10
369.0654532839
 20
30.9456661409
 11
368.1982657839
 21
30.8811389819
 12
368.7185782839
 22
30.9456661409
 13
368.7185782839
 23
30.9456661409
  0
SOLID
  8
0
 62
7
  6
CONTINUOUS
 10
368.1982657839
 20
30.8811389819
 11
368.0248282839
 21
30.9456661409
 12
368.7185782839
 22
30.9456661409
 13
368.7185782839
 23
30.9456661409
  0
SOLID
  8
0
 62
7
  6
CONTINUOUS
 10
368.1982657839
 20
30.8811389819
 11
369.6435780634
 21
30.9134032852
 12
368.3717032839
 22
30.8488743522
 13
368.3717032839
 23
30.8488743522
  0
SOLID
  8
0
 62
7
  6
CONTINUOUS
 10
369.6435780634
 20
30.9134032852
 11
369.4123282839
 21
30.8488743522
 12
368.3717032839
 22
30.8488743522
 13
368.3717032839
 23
30.8488743522
  0
SOLID
  8
0
 62
7
  6
CONTINUOUS
 10
368.7185782839
 20
30.8166119713
 11
368.3717032839
 21
30.8488743522
 12
369.4123282839
 22
30.8488743522
 13
369.4123282839
 23
30.8488743522
  0
SOLID
  8
0
 62
7
  6
CONTINUOUS
 10
369.4123282839
 20
30.8488743522
 11
369.0654532839
 21
30.8166119713
 12
368.7185782839
 22
30.8166119713
 13
368.7185782839
 23
30.8166119713
  0
SOLID
  8
0
 62
7
  6
CONTINUOUS
 10
358.3701405634
 20
31.3328301295
 11
358.7170155634
 21
31.4941486131
 12
358.6592030565
 22
31.3650944328
 13
358.6592030565
 23
31.3650944328
  0
SOLID
  8
0
 62
7
  6
CONTINUOUS
 10
358.6592030565
 20
31.3650944328
 11
358.6592030565
 21
31.2683031351
 12
358.3701405634
 22
31.3328301295
 13
358.3701405634
 23
31.3328301295
  0
SOLID
  8
0
 62
7
  6
CONTINUOUS
 10
358.4279530651
 20
31.139248859
 11
358.3701405634
 21
31.3328301295
 12
358.6592030565
 22
31.2683031351
 13
358.6592030565
 23
31.2683031351
  0
SOLID
  8
0
 62
7
  6
CONTINUOUS
 10
358.6592030565
 20
31.2683031351
 11
358.7748280496
 21
31.1069845557
 12
358.4279530651
 22
31.139248859
 13
358.4279530651
 23
31.139248859
  0
SOLID
  8
0
 62
7
  6
CONTINUOUS
 10
358.5435780634
 20
31.0101931569
 11
358.4279530651
 21
31.139248859
 12
358.7748280496
 22
31.1069845557
 13
358.7748280496
 23
31.1069845557
  0
SOLID
  8
0
 62
7
  6
CONTINUOUS
 10
358.7748280496
 20
31.1069845557
 11
358.9482655496
 21
31.0101931569
 12
358.5435780634
 22
31.0101931569
 13
358.5435780634
 23
31.0101931569
  0
SOLID
  8
0
 62
7
  6
CONTINUOUS
 10
358.6592030565
 20
30.9456659241
 11
358.5435780634
 21
31.0101931569
 12
358.9482655496
 22
31.0101931569
 13
358.9482655496
 23
31.0101931569
  0
SOLID
  8
0
 62
7
  6
CONTINUOUS
 10
358.9482655496
 20
31.0101931569
 11
359.2951405909
 21
30.9456659241
 12
358.6592030565
 22
30.9456659241
 13
358.6592030565
 23
30.9456659241
  0
SOLID
  8
0
 62
7
  6
CONTINUOUS
 10
358.8326405772
 20
30.8811389819
 11
358.6592030565
 21
30.9456659241
 12
359.2951405909
 22
30.9456659241
 13
359.2951405909
 23
30.9456659241
  0
SOLID
  8
0
 62
7
  6
CONTINUOUS
 10
362.8795155634
 20
31.3328301325
 11
362.9951404531
 21
31.397357926
 12
363.5732655634
 22
31.3650944328
 13
363.5732655634
 23
31.3650944328
  0
SOLID
  8
0
 62
7
  6
CONTINUOUS
 10
363.5732655634
 20
31.3650944328
 11
363.3420154531
 21
31.3328301325
 12
362.8795155634
 22
31.3328301325
 13
362.8795155634
 23
31.3328301325
  0
SOLID
  8
0
 62
7
  6
CONTINUOUS
 10
362.7638906736
 20
31.2037759492
 11
362.8795155634
 21
31.3328301325
 12
363.3420154531
 22
31.3328301325
 13
363.3420154531
 23
31.3328301325
  0
SOLID
  8
0
 62
7
  6
CONTINUOUS
 10
363.1107656736
 20
31.2360394487
 11
362.7638906736
 21
31.2037759492
 12
363.2263905634
 22
31.3005673426
 13
363.2263905634
 23
31.3005673426
  0
SOLID
  8
0
 62
7
  6
CONTINUOUS
 10
362.7638906736
 20
31.2037759492
 11
363.3420154531
 21
31.3328301295
 12
363.2263905634
 22
31.3005673426
 13
363.2263905634
 23
31.3005673426
  0
SOLID
  8
0
 62
7
  6
CONTINUOUS
 10
363.1107656736
 20
31.2360394487
 11
363.0529530634
 21
31.139248859
 12
362.7638906736
 22
31.2037759492
 13
362.7638906736
 23
31.2037759492
  0
SOLID
  8
0
 62
7
  6
CONTINUOUS
 10
362.7638906736
 20
31.1069845557
 11
362.7638906736
 21
31.2037759492
 12
363.0529530634
 22
31.139248859
 13
363.0529530634
 23
31.139248859
  0
SOLID
  8
0
 62
7
  6
CONTINUOUS
 10
363.0529530634
 20
31.139248859
 11
363.0529530634
 21
31.0747202524
 12
362.7638906736
 22
31.1069845557
 13
362.7638906736
 23
31.1069845557
  0
SOLID
  8
0
 62
7
  6
CONTINUOUS
 10
362.8217029531
 20
30.9779303754
 11
362.7638906736
 21
31.1069845557
 12
363.0529530634
 22
31.0747202524
 13
363.0529530634
 23
31.0747202524
  0
SOLID
  8
0
 62
7
  6
CONTINUOUS
 10
364.2092032839
 20
31.1715120759
 11
364.4982653428
 21
31.0747202524
 12
364.1513903428
 22
31.1069845557
 13
364.1513903428
 23
31.1069845557
  0
SOLID
  8
0
 62
7
  6
CONTINUOUS
 10
363.9779528428
 20
31.0101931623
 11
364.1513903428
 21
31.1069845557
 12
364.4982653428
 22
31.0747202524
 13
364.4982653428
 23
31.0747202524
  0
SOLID
  8
0
 62
7
  6
CONTINUOUS
 10
363.9779528428
 20
31.0101931623
 11
364.4982653428
 21
31.0747202524
 12
364.2092032839
 22
30.9779303754
 13
364.2092032839
 23
30.9779303754
  0
SOLID
  8
0
 62
7
  6
CONTINUOUS
 10
364.4982653428
 20
31.0747202524
 11
364.5560782839
 21
30.9134032852
 12
364.2092032839
 22
30.9779303754
 13
364.2092032839
 23
30.9779303754
  0
SOLID
  8
0
 62
7
  6
CONTINUOUS
 10
364.2670155634
 20
30.8811389819
 11
364.2092032839
 21
30.9779303754
 12
364.5560782839
 22
30.9134032852
 13
364.5560782839
 23
30.9134032852
  0
SOLID
  8
0
 62
7
  6
CONTINUOUS
 10
364.2670155634
 20
30.8811389819
 11
364.5560782839
 21
30.9134032852
 12
364.3248278428
 22
30.816611867
 13
364.3248278428
 23
30.816611867
  0
SOLID
  8
0
 62
7
  6
CONTINUOUS
 10
364.5560782839
 20
30.9134032852
 11
364.6138905634
 21
30.816611867
 12
364.3248278428
 22
30.816611867
 13
364.3248278428
 23
30.816611867
  0
SOLID
  8
0
 62
7
  6
CONTINUOUS
 10
359.8732656185
 20
31.0424573076
 11
359.9310780634
 21
31.1392488159
 12
360.2201406185
 22
31.1392488159
 13
360.2201406185
 23
31.1392488159
  0
SOLID
  8
0
 62
7
  6
CONTINUOUS
 10
360.2201406185
 20
31.1392488159
 11
360.1623280082
 21
31.0101931623
 12
359.8732656185
 22
31.0424573076
 13
359.8732656185
 23
31.0424573076
  0
SOLID
  8
0
 62
7
  6
CONTINUOUS
 10
359.6998280358
 20
30.9779303754
 11
359.8732656185
 21
31.0424573076
 12
360.1623280082
 22
31.0101931623
 13
360.1623280082
 23
31.0101931623
  0
SOLID
  8
0
 62
7
  6
CONTINUOUS
 10
359.6998280358
 20
30.9779303754
 11
360.1623280082
 21
31.0101931623
 12
359.2951405909
 22
30.9456660721
 13
359.2951405909
 23
30.9456660721
  0
SOLID
  8
0
 62
7
  6
CONTINUOUS
 10
360.1623280082
 20
31.0101931623
 11
359.9888905082
 21
30.9134032852
 12
359.2951405909
 22
30.9456660721
 13
359.2951405909
 23
30.9456660721
  0
SOLID
  8
0
 62
7
  6
CONTINUOUS
 10
358.8326405772
 20
30.8811389819
 11
359.2951405909
 21
30.9456660721
 12
359.9888905082
 22
30.9134032852
 13
359.9888905082
 23
30.9134032852
  0
SOLID
  8
0
 62
7
  6
CONTINUOUS
 10
358.8326405772
 20
30.8811389819
 11
359.9888905082
 21
30.9134032852
 12
359.0060780772
 22
30.8488745775
 13
359.0060780772
 23
30.8488745775
  0
SOLID
  8
0
 62
7
  6
CONTINUOUS
 10
359.9888905082
 20
30.9134032852
 11
359.7576405634
 21
30.8488745775
 12
359.0060780772
 22
30.8488745775
 13
359.0060780772
 23
30.8488745775
  0
SOLID
  8
0
 62
7
  6
CONTINUOUS
 10
359.3529530358
 20
30.8166118918
 11
359.0060780772
 21
30.8488745775
 12
359.7576405634
 22
30.8488745775
 13
359.7576405634
 23
30.8488745775
  0
SOLID
  8
0
 62
7
  6
CONTINUOUS
 10
362.8217029531
 20
30.9779303754
 11
363.0529530634
 21
31.0747202524
 12
363.1107656736
 22
31.0101931623
 13
363.1107656736
 23
31.0101931623
  0
SOLID
  8
0
 62
7
  6
CONTINUOUS
 10
363.1107656736
 20
31.0101931623
 11
363.3420154531
 21
30.9456660721
 12
362.8217029531
 22
30.9779303754
 13
362.8217029531
 23
30.9779303754
  0
SOLID
  8
0
 62
7
  6
CONTINUOUS
 10
362.9951404531
 20
30.8811389819
 11
362.8217029531
 21
30.9779303754
 12
363.3420154531
 22
30.9456660721
 13
363.3420154531
 23
30.9456660721
  0
SOLID
  8
0
 62
7
  6
CONTINUOUS
 10
363.6888904531
 20
30.9456661188
 11
363.9779528428
 21
31.0101931623
 12
364.2092032839
 22
30.9779303754
 13
364.2092032839
 23
30.9779303754
  0
SOLID
  8
0
 62
7
  6
CONTINUOUS
 10
364.2092032839
 20
30.9779303754
 11
364.1513903428
 21
30.9134032852
 12
363.6888904531
 22
30.9456661188
 13
363.6888904531
 23
30.9456661188
  0
SOLID
  8
0
 62
7
  6
CONTINUOUS
 10
364.1513903428
 20
30.9134032852
 11
362.9951404531
 21
30.8811389819
 12
363.6888904531
 22
30.9456661188
 13
363.6888904531
 23
30.9456661188
  0
SOLID
  8
0
 62
7
  6
CONTINUOUS
 10
362.9951404531
 20
30.8811389819
 11
363.3420154531
 21
30.9456661188
 12
363.6888904531
 22
30.9456661188
 13
363.6888904531
 23
30.9456661188
  0
SOLID
  8
0
 62
7
  6
CONTINUOUS
 10
362.9951404531
 20
30.8811389819
 11
364.1513903428
 21
30.9134032852
 12
363.1107656736
 22
30.8488747093
 13
363.1107656736
 23
30.8488747093
  0
SOLID
  8
0
 62
7
  6
CONTINUOUS
 10
364.1513903428
 20
30.9134032852
 11
363.9779528428
 21
30.8488747093
 12
363.1107656736
 22
30.8488747093
 13
363.1107656736
 23
30.8488747093
  0
SOLID
  8
0
 62
7
  6
CONTINUOUS
 10
363.3420154531
 20
30.816611874
 11
363.1107656736
 21
30.8488747093
 12
363.9779528428
 22
30.8488747093
 13
363.9779528428
 23
30.8488747093
  0
SOLID
  8
0
 62
7
  6
CONTINUOUS
 10
363.9779528428
 20
30.8488747093
 11
363.6888904531
 21
30.816611874
 12
363.3420154531
 22
30.816611874
 13
363.3420154531
 23
30.816611874
  0
SOLID
  8
0
 62
7
  6
CONTINUOUS
 10
368.3717032839
 20
30.9779303754
 11
368.0248282839
 21
30.9456661188
 12
368.2560780634
 22
31.0101931623
 13
368.2560780634
 23
31.0101931623
  0
SOLID
  8
0
 62
7
  6
CONTINUOUS
 10
368.2560780634
 20
31.0101931623
 11
368.0248282839
 21
30.9456661188
 12
368.1982657839
 22
31.0747202992
 13
368.1982657839
 23
31.0747202992
  0
SOLID
  8
0
 62
7
  6
CONTINUOUS
 10
368.0248282839
 20
30.9456661188
 11
367.9092030634
 21
31.0747202992
 12
368.1982657839
 22
31.0747202992
 13
368.1982657839
 23
31.0747202992
  0
SOLID
  8
0
 62
7
  6
CONTINUOUS
 10
368.3717032839
 20
30.9779303754
 11
368.7185782839
 21
30.9456661188
 12
368.0248282839
 22
30.9456661188
 13
368.0248282839
 23
30.9456661188
  0
SOLID
  8
0
 62
7
  6
CONTINUOUS
 10
365.0763907839
 20
30.8166118918
 11
365.0763907839
 21
31.8490498836
 12
365.3654528428
 22
30.8166118918
 13
365.3654528428
 23
31.8490498836
  0
ENDBLK
  8
0
  6
BYBLOCK
 62
0
  0
BLOCK
  8
0
 62
2
  6
CONTINUOUS
  2
SYMBOL_0_BL0
 70
64
 10
241.0459637928
 20
19.6790146053
  0
TEXT
  8
0
 62
7
  6
CONTINUOUS
 10
227.3106676351
 20
19.0524287129
  7
TEXTSTYLE_3
 40
2.7338706658
  1
Ammeraal Beltech
 41
1.0
 51
15.0
 72
0
  0
TEXT
  8
0
 62
7
  6
CONTINUOUS
 10
238.1114684608
 20
16.7788920401
  7
TEXTSTYLE_4
 40
1.0935482663
  1
Innovation & Service in Belting
 41
1.0
 72
0
  0
LINE
  8
0
 62
7
  6
CONTINUOUS
 10
221.2861269837
 20
19.8190220215
 11
222.0642789771
 21
23.4799393191
  0
LINE
  8
0
 62
7
  6
CONTINUOUS
 10
232.1594472669
 20
27.1433332308
 11
222.5520967201
 21
24.0217158095
  0
LINE
  8
0
 62
7
  6
CONTINUOUS
 10
221.511410316
 20
19.1256712184
 11
229.0184855772
 21
12.3662702925
  0
LINE
  8
0
 62
7
  6
CONTINUOUS
 10
221.7739447268
 20
20.3607985118
 11
232.5822140919
 21
23.8726181108
  0
LINE
  8
0
 62
7
  6
CONTINUOUS
 10
232.5780089548
 20
13.522829547
 11
224.132549286
 21
21.1271555887
  0
LINE
  8
0
 62
7
  6
CONTINUOUS
 10
233.0978316746
 20
26.298408115
 11
232.1212721373
 21
21.7040567125
  0
LINE
  8
0
 62
7
  6
CONTINUOUS
 10
231.4214701896
 20
18.4117473987
 11
230.7350219782
 21
15.1822624744
  0
LINE
  8
0
 62
7
  6
CONTINUOUS
 10
233.7789277731
 20
13.9130317247
 11
234.7351593087
 21
18.4117473987
  0
LINE
  8
0
 62
7
  6
CONTINUOUS
 10
235.4349612564
 20
21.7040567125
 11
235.8792030588
 21
23.7940500719
  0
LINE
  8
0
 62
7
  6
CONTINUOUS
 10
229.7315866525
 20
12.2146959798
 11
233.2911100301
 21
13.3712552343
  0
LINE
  8
0
 62
7
  6
CONTINUOUS
 10
232.8725483422
 20
26.9917589181
 11
235.6539197265
 21
24.487400875
  0
ARC
  8
0
 62
7
  6
CONTINUOUS
 10
222.7773800524
 20
23.3283650064
 40
0.7290321776
 50
108.0
 51
168.0
  0
ARC
  8
0
 62
7
  6
CONTINUOUS
 10
232.3847305992
 20
26.4499824277
 40
0.7290321776
 50
348.0
 51
108.0
  0
ARC
  8
0
 62
7
  6
CONTINUOUS
 10
235.1661019835
 20
23.9456243846
 40
0.7290321776
 50
348.0
 51
48.0
  0
ARC
  8
0
 62
7
  6
CONTINUOUS
 10
229.5063033202
 20
12.9080467828
 40
0.7290321776
 50
228.0
 51
288.0
  0
ARC
  8
0
 62
7
  6
CONTINUOUS
 10
221.9992280591
 20
19.6674477088
 40
0.7290321776
 50
108.0
 51
228.0
  0
ARC
  8
0
 62
7
  6
CONTINUOUS
 10
233.0658266978
 20
14.0646060374
 40
0.7290321776
 50
228.0
 51
348.0
  0
ENDBLK
  8
0
  6
BYBLOCK
 62
0
  0
ENDSEC
  0
SECTION
  2
ENTITIES
  0
TEXT
  8
0
 62
5
  6
CONTINUOUS
 10
304.937007874
 20
25.636
  7
TEXTSTYLE_2
 40
2.8
  1
Scale :
 41
0.6
 51
0.000019
 72
0
  0
TEXT
  8
0
 62
5
  6
CONTINUOUS
 10
324.937007874
 20
25.636
  7
TEXTSTYLE_2
 40
2.8
  1
Chain type:
 41
0.6
 51
0.000019
 72
0
  0
INSERT
  8
0
 62
2
  6
CONTINUOUS
  2
SYMBOL_0_BL0
 10
241.0459637928
 20
19.6790146053
  0
INSERT
  8
0
 62
2
  6
CONTINUOUS
  2
SYMBOL_5_BL1
 10
382.3920721743
 20
35.81661148
  0
LINE
  8
0
 62
2
  6
CONTINUOUS
 10
218.937007874
 20
30.0
 11
408.937007874
 21
30.0
  0
LINE
  8
0
 62
2
  6
CONTINUOUS
 10
218.937007874
 20
30.0
 11
218.937007874
 21
10.0
  0
LINE
  8
0
 62
2
  6
CONTINUOUS
 10
218.937007874
 20
10.0
 11
408.937007874
 21
10.0
  0
LINE
  8
0
 62
2
  6
CONTINUOUS
 10
303.937007874
 20
30.0
 11
303.937007874
 21
10.0
  0
LINE
  8
0
 62
2
  6
CONTINUOUS
 10
323.937007874
 20
30.0
 11
323.937007874
 21
10.0
  0
LINE
  8
0
 62
2
  6
CONTINUOUS
 10
408.937007874
 20
30.0
 11
408.937007874
 21
10.0
  0
TEXT
  8
0
 62
5
  6
CONTINUOUS
 10
221.937007874
 20
23.303
  7
TEXTSTYLE_5
 40
1.52
  1
                                                                     Ammeraal Beltech Modular A/S
 41
1.0
 72
0
  0
TEXT
  8
0
 62
5
  6
CONTINUOUS
 10
221.937007874
 20
20.595
  7
TEXTSTYLE_5
 40
1.5
  1
                                                                      Hjulmagervej 21, 7100 Vejle,  DK
 41
1.0
 72
0
  0
TEXT
  8
0
 62
5
  6
CONTINUOUS
 10
221.937007874
 20
17.881
  7
TEXTSTYLE_5
 40
1.495
  1
                                                                      tel: 
 41
1.0
 72
0
  0
TEXT
  8
0
 62
5
  6
CONTINUOUS
 10
266.9239544389
 20
17.881
  7
TEXTSTYLE_5
 40
1.51
  1
+45 75723100     fax: +45 75723348
 41
1.0
 72
0
  0
TEXT
  8
0
 62
5
  6
CONTINUOUS
 10
221.937007874
 20
15.177
  7
TEXTSTYLE_5
 40
1.5
  1
                                                                      admin@unichains.dk  www.unichains.com
 41
1.0
 72
0
  0
TEXT
  8
0
 62
5
  6
CONTINUOUS
 10
308.687007874
 20
13.75
  7
TEXTSTYLE_6
 40
5.0
  1
1:1
 41
0.7
 72
1
 11
313.937007874
 21
13.75
  0
TEXT
  8
0
 62
5
  6
CONTINUOUS
 10
326.937007874
 20
13.75
  7
TEXTSTYLE_7
 40
7.5
  1
uni 820 K325
 41
0.6847222222
 72
0
  0
LINE
  8
0
 62
7
  6
CONTINUOUS
 10
0.0
 20
0.0
 11
0.0
 21
297.0
  0
LINE
  8
0
 62
7
  6
CONTINUOUS
 10
8.937007874
 20
10.0
 11
8.937007874
 21
287.0
  0
LINE
  8
0
 62
7
  6
CONTINUOUS
 10
0.0
 20
0.0
 11
420.0
 21
0.0
  0
LINE
  8
0
 62
7
  6
CONTINUOUS
 10
408.937007874
 20
10.0
 11
8.937007874
 21
10.0
  0
LINE
  8
0
 62
7
  6
CONTINUOUS
 10
218.937007874
 20
30.0
 11
408.937007874
 21
30.0
  0
LINE
  8
0
 62
7
  6
CONTINUOUS
 10
210.0
 20
297.0
 11
210.0
 21
292.0
  0
LINE
  8
0
 62
7
  6
CONTINUOUS
 10
210.0
 20
0.0
 11
210.0
 21
5.0
  0
LINE
  8
0
 62
7
  6
CONTINUOUS
 10
8.937007874
 20
287.0
 11
408.937007874
 21
287.0
  0
LINE
  8
0
 62
7
  6
CONTINUOUS
 10
0.0
 20
297.0
 11
420.0
 21
297.0
  0
LINE
  8
0
 62
7
  6
CONTINUOUS
 10
408.937007874
 20
287.0
 11
408.937007874
 21
10.0
  0
LINE
  8
0
 62
7
  6
CONTINUOUS
 10
420.0
 20
0.0
 11
420.0
 21
297.0
  0
LINE
  8
0
 62
7
  6
CONTINUOUS
 10
89.9104508197
 20
187.1167260992
 11
89.9104508197
 21
153.8930326011
  0
POLYLINE
  8
0
 62
7
  6
CONTINUOUS
 66
1
 70
0
  0
VERTEX
  8
0
 62
7
  6
CONTINUOUS
 10
92.3891855844
 20
151.5540186605
  0
VERTEX
  8
0
 62
7
  6
CONTINUOUS
 10
92.3879511871
 20
151.5283868876
  0
VERTEX
  8
0
 62
7
  6
CONTINUOUS
 10
92.3869827346
 20
151.5029442376
  0
VERTEX
  8
0
 62
7
  6
CONTINUOUS
 10
92.3862750777
 20
151.4776939243
  0
VERTEX
  8
0
 62
7
  6
CONTINUOUS
 10
92.385843664
 20
151.4527032481
  0
VERTEX
  8
0
 62
7
  6
CONTINUOUS
 10
92.3856990441
 20
151.4280263972
  0
VERTEX
  8
0
 62
7
  6
CONTINUOUS
 10
92.385850759
 20
151.4036945093
  0
VERTEX
  8
0
 62
7
  6
CONTINUOUS
 10
92.3863090224
 20
151.3797455608
  0
VERTEX
  8
0
 62
7
  6
CONTINUOUS
 10
92.3870823663
 20
151.3562048229
  0
VERTEX
  8
0
 62
7
  6
CONTINUOUS
 10
92.3881798773
 20
151.3331009447
  0
VERTEX
  8
0
 62
7
  6
CONTINUOUS
 10
92.3896101058
 20
151.3104550163
  0
VERTEX
  8
0
 62
7
  6
CONTINUOUS
 10
92.3913815778
 20
151.2882897519
  0
VERTEX
  8
0
 62
7
  6
CONTINUOUS
 10
92.3935034529
 20
151.2666231082
  0
VERTEX
  8
0
 62
7
  6
CONTINUOUS
 10
92.3959843466
 20
151.2454737279
  0
VERTEX
  8
0
 62
7
  6
CONTINUOUS
 10
92.3988344174
 20
151.2248569717
  0
VERTEX
  8
0
 62
7
  6
CONTINUOUS
 10
92.4020628724
 20
151.2047882503
  0
VERTEX
  8
0
 62
7
  6
CONTINUOUS
 10
92.4056811817
 20
151.1852810795
  0
VERTEX
  8
0
 62
7
  6
CONTINUOUS
 10
92.4096995532
 20
151.1663485989
  0
VERTEX
  8
0
 62
7
  6
CONTINUOUS
 10
92.4141309811
 20
151.1480023901
  0
VERTEX
  8
0
 62
7
  6
CONTINUOUS
 10
92.4189867674
 20
151.1302534625
  0
VERTEX
  8
0
 62
7
  6
CONTINUOUS
 10
92.4242821964
 20
151.1131117076
  0
VERTEX
  8
0
 62
7
  6
CONTINUOUS
 10
92.4300301618
 20
151.0965861575
  0
VERTEX
  8
0
 62
7
  6
CONTINUOUS
 10
92.4362491372
 20
151.0806853301
  0
VERTEX
  8
0
 62
7
  6
CONTINUOUS
 10
92.4429543209
 20
151.0654165265
  0
VERTEX
  8
0
 62
7
  6
CONTINUOUS
 10
92.4501684317
 20
151.0507870321
  0
VERTEX
  8
0
 62
7
  6
CONTINUOUS
 10
92.4579097591
 20
151.0368025259
  0
VERTEX
  8
0
 62
7
  6
CONTINUOUS
 10
92.4662067889
 20
151.0234691526
  0
VERTEX
  8
0
 62
7
  6
CONTINUOUS
 10
92.4750820934
 20
151.0107909843
  0
VERTEX
  8
0
 62
7
  6
CONTINUOUS
 10
92.4845717014
 20
150.9987730373
  0
VERTEX
  8
0
 62
7
  6
CONTINUOUS
 10
92.4947038939
 20
150.9874176027
  0
VERTEX
  8
0
 62
7
  6
CONTINUOUS
 10
92.5055244866
 20
150.9767287174
  0
VERTEX
  8
0
 62
7
  6
CONTINUOUS
 10
92.5170684621
 20
150.9667065878
  0
VERTEX
  8
0
 62
7
  6
CONTINUOUS
 10
92.5293966004
 20
150.9573546738
  0
VERTEX
  8
0
 62
7
  6
CONTINUOUS
 10
92.5425537063
 20
150.9486708937
  0
VERTEX
  8
0
 62
7
  6
CONTINUOUS
 10
92.5566226884
 20
150.9406580667
  0
VERTEX
  8
0
 62
7
  6
CONTINUOUS
 10
92.571662711
 20
150.9333108277
  0
VERTEX
  8
0
 62
7
  6
CONTINUOUS
 10
92.5877898109
 20
150.9266316826
  0
VERTEX
  8
0
 62
7
  6
CONTINUOUS
 10
92.6050845855
 20
150.9206105371
  0
VERTEX
  8
0
 62
7
  6
CONTINUOUS
 10
92.6237125179
 20
150.9152495339
  0
VERTEX
  8
0
 62
7
  6
CONTINUOUS
 10
92.643786706
 20
150.910530984
  0
VERTEX
  8
0
 62
7
  6
CONTINUOUS
 10
92.665544903
 20
150.9064561373
  0
VERTEX
  8
0
 62
7
  6
CONTINUOUS
 10
92.6891473496
 20
150.9029940639
  0
VERTEX
  8
0
 62
7
  6
CONTINUOUS
 10
92.7149396802
 20
150.9001448555
  0
VERTEX
  8
0
 62
7
  6
CONTINUOUS
 10
92.743370824
 20
150.8978892158
  0
VERTEX
  8
0
 62
7
  6
CONTINUOUS
 10
92.774291138
 20
150.8961241038
  0
SEQEND
  0
LINE
  8
0
 62
7
  6
CONTINUOUS
 10
110.313349903
 20
150.6510729883
 11
110.3149756444
 21
150.648377149
  0
POLYLINE
  8
0
 62
7
  6
CONTINUOUS
 66
1
 70
0
  0
VERTEX
  8
0
 62
7
  6
CONTINUOUS
 10
110.3149756444
 20
150.648377149
  0
VERTEX
  8
0
 62
7
  6
CONTINUOUS
 10
110.3276157377
 20
150.6270804447
  0
VERTEX
  8
0
 62
7
  6
CONTINUOUS
 10
110.3385605539
 20
150.6079623208
  0
VERTEX
  8
0
 62
7
  6
CONTINUOUS
 10
110.3479959471
 20
150.5907612596
  0
VERTEX
  8
0
 62
7
  6
CONTINUOUS
 10
110.3560755904
 20
150.5752981535
  0
VERTEX
  8
0
 62
7
  6
CONTINUOUS
 10
110.3629122796
 20
150.5614751999
  0
VERTEX
  8
0
 62
7
  6
CONTINUOUS
 10
110.3686288934
 20
150.5491769864
  0
VERTEX
  8
0
 62
7
  6
CONTINUOUS
 10
110.3733321779
 20
150.5383307354
  0
VERTEX
  8
0
 62
7
  6
CONTINUOUS
 10
110.3771390883
 20
150.5288391638
  0
VERTEX
  8
0
 62
7
  6
CONTINUOUS
 10
110.3801243117
 20
150.5207037007
  0
VERTEX
  8
0
 62
7
  6
CONTINUOUS
 10
110.3823818532
 20
150.5138848599
  0
VERTEX
  8
0
 62
7
  6
CONTINUOUS
 10
110.3839803798
 20
150.5084406681
  0
VERTEX
  8
0
 62
7
  6
CONTINUOUS
 10
110.385010055
 20
150.5043921821
  0
VERTEX
  8
0
 62
7
  6
CONTINUOUS
 10
110.3855556156
 20
150.5018321838
  0
SEQEND
  0
LINE
  8
0
 62
7
  6
CONTINUOUS
 10
133.5854508197
 20
149.1024180328
 11
128.7854508197
 21
149.1024180328
  0
LINE
  8
0
 62
7
  6
CONTINUOUS
 10
117.2854508197
 20
149.1024180328
 11
110.8854508197
 21
149.1024180328
  0
LINE
  8
0
 62
7
  6
CONTINUOUS
 10
145.0854508197
 20
149.1024180328
 11
151.4854508197
 21
149.1024180328
  0
LINE
  8
0
 62
7
  6
CONTINUOUS
 10
169.4604508197
 20
150.8924180328
 11
152.4854508197
 21
150.8924180328
  0
LINE
  8
0
 62
7
  6
CONTINUOUS
 10
109.8854508197
 20
150.8924180328
 11
92.9104508197
 21
150.8924180328
  0
LINE
  8
0
 62
7
  6
CONTINUOUS
 10
110.3855556156
 20
150.5018321838
 11
110.3856620915
 21
150.5012438966
  0
LINE
  8
0
 62
7
  6
CONTINUOUS
 10
110.3854508197
 20
149.6024180328
 11
110.3854508197
 21
150.50232393
  0
LINE
  8
AXES
 62
2
  6
CENTER
 10
108.3854508197
 20
155.5824180328
 11
152.7854508197
 21
155.5824180328
  0
LINE
  8
0
 62
7
  6
CONTINUOUS
 10
117.2854508197
 20
159.8824180328
 11
117.3909483179
 21
159.7486884093
  0
LINE
  8
0
 62
7
  6
CONTINUOUS
 10
117.3909483179
 20
159.7486884093
 11
117.450892234
 21
159.672015148
  0
LINE
  8
0
 62
7
  6
CONTINUOUS
 10
117.450892234
 20
159.672015148
 11
117.4950217689
 21
159.6149413778
  0
LINE
  8
0
 62
7
  6
CONTINUOUS
 10
117.4950217689
 20
159.6149413778
 11
117.5238412215
 21
159.5772568993
  0
LINE
  8
0
 62
7
  6
CONTINUOUS
 10
117.5238412215
 20
159.5772568993
 11
117.5520471239
 21
159.5399630344
  0
LINE
  8
0
 62
7
  6
CONTINUOUS
 10
117.5520471239
 20
159.5399630344
 11
117.5795187551
 21
159.503145955
  0
POLYLINE
  8
0
 62
7
  6
CONTINUOUS
 66
1
 70
0
  0
VERTEX
  8
0
 62
7
  6
CONTINUOUS
 10
117.5795187551
 20
159.503145955
  0
VERTEX
  8
0
 62
7
  6
CONTINUOUS
 10
117.6061275014
 20
159.4668944547
  0
VERTEX
  8
0
 62
7
  6
CONTINUOUS
 10
117.6190650618
 20
159.4490095533
  0
VERTEX
  8
0
 62
7
  6
CONTINUOUS
 10
117.631733991
 20
159.4313018847
  0
VERTEX
  8
0
 62
7
  6
CONTINUOUS
 10
117.6441138981
 20
159.4137833908
  0
VERTEX
  8
0
 62
7
  6
CONTINUOUS
 10
117.6561847938
 20
159.3964682479
  0
VERTEX
  8
0
 62
7
  6
CONTINUOUS
 10
117.6679238859
 20
159.3793693526
  0
VERTEX
  8
0
 62
7
  6
CONTINUOUS
 10
117.6793085743
 20
159.3625024862
  0
VERTEX
  8
0
 62
7
  6
CONTINUOUS
 10
117.6903131016
 20
159.3458817586
  0
VERTEX
  8
0
 62
7
  6
CONTINUOUS
 10
117.7009115006
 20
159.3295250816
  0
VERTEX
  8
0
 62
7
  6
CONTINUOUS
 10
117.7110743422
 20
159.3134481527
  0
VERTEX
  8
0
 62
7
  6
CONTINUOUS
 10
117.7207713151
 20
159.2976717243
  0
VERTEX
  8
0
 62
7
  6
CONTINUOUS
 10
117.7299683561
 20
159.282213786
  0
VERTEX
  8
0
 62
7
  6
CONTINUOUS
 10
117.7386299599
 20
159.2670983235
  0
VERTEX
  8
0
 62
7
  6
CONTINUOUS
 10
117.7467166045
 20
159.2523460074
  0
VERTEX
  8
0
 62
7
  6
CONTINUOUS
 10
117.7541864272
 20
159.2379847731
  0
VERTEX
  8
0
 62
7
  6
CONTINUOUS
 10
117.7609934492
 20
159.2240386923
  0
VERTEX
  8
0
 62
7
  6
CONTINUOUS
 10
117.7670884532
 20
159.2105400261
  0
VERTEX
  8
0
 62
7
  6
CONTINUOUS
 10
117.7724181696
 20
159.1975168939
  0
VERTEX
  8
0
 62
7
  6
CONTINUOUS
 10
117.7769253595
 20
159.1850057923
  0
VERTEX
  8
0
 62
7
  6
CONTINUOUS
 10
117.7805490262
 20
159.1730393453
  0
VERTEX
  8
0
 62
7
  6
CONTINUOUS
 10
117.7832239839
 20
159.1616572893
  0
VERTEX
  8
0
 62
7
  6
CONTINUOUS
 10
117.7848822467
 20
159.150916562
  0
VERTEX
  8
0
 62
7
  6
CONTINUOUS
 10
117.7854508197
 20
159.1407981841
  0
SEQEND
  0
POLYLINE
  8
0
 62
7
  6
CONTINUOUS
 66
1
 70
0
  0
VERTEX
  8
0
 62
7
  6
CONTINUOUS
 10
134.2003050401
 20
159.095486736
  0
VERTEX
  8
0
 62
7
  6
CONTINUOUS
 10
134.2555045735
 20
159.1077883109
  0
VERTEX
  8
0
 62
7
  6
CONTINUOUS
 10
134.2762700815
 20
159.1122943537
  0
VERTEX
  8
0
 62
7
  6
CONTINUOUS
 10
134.2981161267
 20
159.1168553966
  0
VERTEX
  8
0
 62
7
  6
CONTINUOUS
 10
134.3209822845
 20
159.1213882194
  0
VERTEX
  8
0
 62
7
  6
CONTINUOUS
 10
134.3448346637
 20
159.1258078072
  0
VERTEX
  8
0
 62
7
  6
CONTINUOUS
 10
134.3695321803
 20
159.130024081
  0
VERTEX
  8
0
 62
7
  6
CONTINUOUS
 10
134.394946581
 20
159.1339427452
  0
VERTEX
  8
0
 62
7
  6
CONTINUOUS
 10
134.4210054815
 20
159.137498198
  0
VERTEX
  8
0
 62
7
  6
CONTINUOUS
 10
134.4476339253
 20
159.1406220767
  0
VERTEX
  8
0
 62
7
  6
CONTINUOUS
 10
134.4747113765
 20
159.1432590569
  0
VERTEX
  8
0
 62
7
  6
CONTINUOUS
 10
134.502121045
 20
159.1453546192
  0
VERTEX
  8
0
 62
7
  6
CONTINUOUS
 10
134.5297767371
 20
159.146878079
  0
VERTEX
  8
0
 62
7
  6
CONTINUOUS
 10
134.5575376881
 20
159.1477997166
  0
VERTEX
  8
0
 62
7
  6
CONTINUOUS
 10
134.5854508197
 20
159.1481099664
  0
SEQEND
  0
POLYLINE
  8
0
 62
7
  6
CONTINUOUS
 66
1
 70
0
  0
VERTEX
  8
0
 62
7
  6
CONTINUOUS
 10
128.1705965992
 20
159.095486736
  0
VERTEX
  8
0
 62
7
  6
CONTINUOUS
 10
128.1865650852
 20
159.0920375723
  0
VERTEX
  8
0
 62
7
  6
CONTINUOUS
 10
128.2013080939
 20
159.0890263531
  0
VERTEX
  8
0
 62
7
  6
CONTINUOUS
 10
128.2148013472
 20
159.0865174601
  0
VERTEX
  8
0
 62
7
  6
CONTINUOUS
 10
128.2270803215
 20
159.0845591968
  0
VERTEX
  8
0
 62
7
  6
CONTINUOUS
 10
128.2381727134
 20
159.0832040076
  0
VERTEX
  8
0
 62
7
  6
CONTINUOUS
 10
128.2480775841
 20
159.0825051769
  0
VERTEX
  8
0
 62
7
  6
CONTINUOUS
 10
128.2524302524
 20
159.0824180609
  0
SEQEND
  0
LINE
  8
0
 62
7
  6
CONTINUOUS
 10
128.1153970658
 20
159.1077883109
 11
128.1705965992
 21
159.095486736
  0
LINE
  8
0
 62
7
  6
CONTINUOUS
 10
117.7854508197
 20
149.6024180328
 11
117.7854508197
 21
159.1407983506
  0
LINE
  8
0
 62
7
  6
CONTINUOUS
 10
118.2354508197
 20
190.1240378815
 11
118.2354508197
 21
199.6824180328
  0
POLYLINE
  8
0
 62
7
  6
CONTINUOUS
 66
1
 70
0
  0
VERTEX
  8
0
 62
7
  6
CONTINUOUS
 10
134.1184713869
 20
159.0824180609
  0
VERTEX
  8
0
 62
7
  6
CONTINUOUS
 10
134.1228240552
 20
159.0825051769
  0
VERTEX
  8
0
 62
7
  6
CONTINUOUS
 10
134.132728926
 20
159.0832040076
  0
VERTEX
  8
0
 62
7
  6
CONTINUOUS
 10
134.1438213178
 20
159.0845591968
  0
VERTEX
  8
0
 62
7
  6
CONTINUOUS
 10
134.1561002921
 20
159.0865174601
  0
VERTEX
  8
0
 62
7
  6
CONTINUOUS
 10
134.1695935454
 20
159.0890263531
  0
VERTEX
  8
0
 62
7
  6
CONTINUOUS
 10
134.1843365542
 20
159.0920375723
  0
VERTEX
  8
0
 62
7
  6
CONTINUOUS
 10
134.2003050401
 20
159.095486736
  0
SEQEND
  0
POLYLINE
  8
0
 62
7
  6
CONTINUOUS
 66
1
 70
0
  0
VERTEX
  8
0
 62
7
  6
CONTINUOUS
 10
117.8184713869
 20
159.0824180609
  0
VERTEX
  8
0
 62
7
  6
CONTINUOUS
 10
117.8228240552
 20
159.0825051769
  0
VERTEX
  8
0
 62
7
  6
CONTINUOUS
 10
117.832728926
 20
159.0832040076
  0
VERTEX
  8
0
 62
7
  6
CONTINUOUS
 10
117.8438213178
 20
159.0845591968
  0
VERTEX
  8
0
 62
7
  6
CONTINUOUS
 10
117.8561002921
 20
159.0865174601
  0
VERTEX
  8
0
 62
7
  6
CONTINUOUS
 10
117.8695935454
 20
159.0890263531
  0
VERTEX
  8
0
 62
7
  6
CONTINUOUS
 10
117.8843365542
 20
159.0920375723
  0
VERTEX
  8
0
 62
7
  6
CONTINUOUS
 10
117.9003050401
 20
159.095486736
  0
SEQEND
  0
LINE
  8
0
 62
7
  6
CONTINUOUS
 10
117.7854508197
 20
159.0824180328
 11
117.8189008876
 21
159.0824180328
  0
LINE
  8
0
 62
7
  6
CONTINUOUS
 10
128.2520007518
 20
159.0824180328
 11
128.2854508197
 21
159.0824180328
  0
LINE
  8
0
 62
7
  6
CONTINUOUS
 10
134.0854508197
 20
159.0824180328
 11
134.1189008876
 21
159.0824180328
  0
LINE
  8
0
 62
7
  6
CONTINUOUS
 10
144.5520007518
 20
159.0824180328
 11
144.5854508197
 21
159.0824180328
  0
LINE
  8
0
 62
7
  6
CONTINUOUS
 10
127.7854508197
 20
159.1481099664
 11
118.2854508197
 21
159.1481099664
  0
LINE
  8
0
 62
7
  6
CONTINUOUS
 10
134.5854508197
 20
159.1481099664
 11
144.0854508197
 21
159.1481099664
  0
POLYLINE
  8
0
 62
7
  6
CONTINUOUS
 66
1
 70
0
  0
VERTEX
  8
0
 62
7
  6
CONTINUOUS
 10
127.7854508197
 20
159.1481099664
  0
VERTEX
  8
0
 62
7
  6
CONTINUOUS
 10
127.8133639512
 20
159.1477997166
  0
VERTEX
  8
0
 62
7
  6
CONTINUOUS
 10
127.8411249023
 20
159.146878079
  0
VERTEX
  8
0
 62
7
  6
CONTINUOUS
 10
127.8687805943
 20
159.1453546192
  0
VERTEX
  8
0
 62
7
  6
CONTINUOUS
 10
127.8961902629
 20
159.1432590569
  0
VERTEX
  8
0
 62
7
  6
CONTINUOUS
 10
127.923267714
 20
159.1406220767
  0
VERTEX
  8
0
 62
7
  6
CONTINUOUS
 10
127.9498961578
 20
159.137498198
  0
VERTEX
  8
0
 62
7
  6
CONTINUOUS
 10
127.9759550584
 20
159.1339427452
  0
VERTEX
  8
0
 62
7
  6
CONTINUOUS
 10
128.001369459
 20
159.130024081
  0
VERTEX
  8
0
 62
7
  6
CONTINUOUS
 10
128.0260669756
 20
159.1258078072
  0
VERTEX
  8
0
 62
7
  6
CONTINUOUS
 10
128.0499193549
 20
159.1213882194
  0
VERTEX
  8
0
 62
7
  6
CONTINUOUS
 10
128.0727855126
 20
159.1168553966
  0
VERTEX
  8
0
 62
7
  6
CONTINUOUS
 10
128.0946315579
 20
159.1122943537
  0
VERTEX
  8
0
 62
7
  6
CONTINUOUS
 10
128.1153970658
 20
159.1077883109
  0
SEQEND
  0
POLYLINE
  8
0
 62
7
  6
CONTINUOUS
 66
1
 70
0
  0
VERTEX
  8
0
 62
7
  6
CONTINUOUS
 10
144.0854508197
 20
159.1481099664
  0
VERTEX
  8
0
 62
7
  6
CONTINUOUS
 10
144.1133639512
 20
159.1477997166
  0
VERTEX
  8
0
 62
7
  6
CONTINUOUS
 10
144.1411249023
 20
159.146878079
  0
VERTEX
  8
0
 62
7
  6
CONTINUOUS
 10
144.1687805943
 20
159.1453546192
  0
VERTEX
  8
0
 62
7
  6
CONTINUOUS
 10
144.1961902629
 20
159.1432590569
  0
VERTEX
  8
0
 62
7
  6
CONTINUOUS
 10
144.223267714
 20
159.1406220767
  0
VERTEX
  8
0
 62
7
  6
CONTINUOUS
 10
144.2498961578
 20
159.137498198
  0
VERTEX
  8
0
 62
7
  6
CONTINUOUS
 10
144.2759550584
 20
159.1339427452
  0
VERTEX
  8
0
 62
7
  6
CONTINUOUS
 10
144.301369459
 20
159.130024081
  0
VERTEX
  8
0
 62
7
  6
CONTINUOUS
 10
144.3260669756
 20
159.1258078072
  0
VERTEX
  8
0
 62
7
  6
CONTINUOUS
 10
144.3499193549
 20
159.1213882194
  0
VERTEX
  8
0
 62
7
  6
CONTINUOUS
 10
144.3727855126
 20
159.1168553966
  0
VERTEX
  8
0
 62
7
  6
CONTINUOUS
 10
144.3946315579
 20
159.1122943537
  0
VERTEX
  8
0
 62
7
  6
CONTINUOUS
 10
144.4153970658
 20
159.1077883109
  0
SEQEND
  0
LINE
  8
0
 62
7
  6
CONTINUOUS
 10
127.6561275014
 20
189.7979416109
 11
127.6295187551
 21
189.7616901106
  0
LINE
  8
0
 62
7
  6
CONTINUOUS
 10
127.6295187551
 20
189.7616901106
 11
127.6020471239
 21
189.7248730311
  0
LINE
  8
0
 62
7
  6
CONTINUOUS
 10
127.6020471239
 20
189.7248730311
 11
127.5738412215
 21
189.6875791663
  0
LINE
  8
0
 62
7
  6
CONTINUOUS
 10
127.5738412215
 20
189.6875791663
 11
127.5450217689
 21
189.6498946878
  0
LINE
  8
0
 62
7
  6
CONTINUOUS
 10
127.5450217689
 20
189.6498946878
 11
127.500892234
 21
189.5928209175
  0
LINE
  8
0
 62
7
  6
CONTINUOUS
 10
127.500892234
 20
189.5928209175
 11
127.4409483179
 21
189.5161476563
  0
LINE
  8
0
 62
7
  6
CONTINUOUS
 10
127.4409483179
 20
189.5161476563
 11
127.3354508197
 21
189.3824180328
  0
POLYLINE
  8
0
 62
7
  6
CONTINUOUS
 66
1
 70
0
  0
VERTEX
  8
0
 62
7
  6
CONTINUOUS
 10
117.9003050401
 20
159.095486736
  0
VERTEX
  8
0
 62
7
  6
CONTINUOUS
 10
117.9555045735
 20
159.1077883109
  0
VERTEX
  8
0
 62
7
  6
CONTINUOUS
 10
117.9762700815
 20
159.1122943537
  0
VERTEX
  8
0
 62
7
  6
CONTINUOUS
 10
117.9981161267
 20
159.1168553966
  0
VERTEX
  8
0
 62
7
  6
CONTINUOUS
 10
118.0209822845
 20
159.1213882194
  0
VERTEX
  8
0
 62
7
  6
CONTINUOUS
 10
118.0448346637
 20
159.1258078072
  0
VERTEX
  8
0
 62
7
  6
CONTINUOUS
 10
118.0695321803
 20
159.130024081
  0
VERTEX
  8
0
 62
7
  6
CONTINUOUS
 10
118.094946581
 20
159.1339427452
  0
VERTEX
  8
0
 62
7
  6
CONTINUOUS
 10
118.1210054815
 20
159.137498198
  0
VERTEX
  8
0
 62
7
  6
CONTINUOUS
 10
118.1476339253
 20
159.1406220767
  0
VERTEX
  8
0
 62
7
  6
CONTINUOUS
 10
118.1747113765
 20
159.1432590569
  0
VERTEX
  8
0
 62
7
  6
CONTINUOUS
 10
118.202121045
 20
159.1453546192
  0
VERTEX
  8
0
 62
7
  6
CONTINUOUS
 10
118.2297767371
 20
159.146878079
  0
VERTEX
  8
0
 62
7
  6
CONTINUOUS
 10
118.2575376881
 20
159.1477997166
  0
VERTEX
  8
0
 62
7
  6
CONTINUOUS
 10
118.2854508197
 20
159.1481099664
  0
SEQEND
  0
POLYLINE
  8
0
 62
7
  6
CONTINUOUS
 66
1
 70
0
  0
VERTEX
  8
0
 62
7
  6
CONTINUOUS
 10
144.4705965992
 20
159.095486736
  0
VERTEX
  8
0
 62
7
  6
CONTINUOUS
 10
144.4865650852
 20
159.0920375723
  0
VERTEX
  8
0
 62
7
  6
CONTINUOUS
 10
144.5013080939
 20
159.0890263531
  0
VERTEX
  8
0
 62
7
  6
CONTINUOUS
 10
144.5148013472
 20
159.0865174601
  0
VERTEX
  8
0
 62
7
  6
CONTINUOUS
 10
144.5270803215
 20
159.0845591968
  0
VERTEX
  8
0
 62
7
  6
CONTINUOUS
 10
144.5381727134
 20
159.0832040076
  0
VERTEX
  8
0
 62
7
  6
CONTINUOUS
 10
144.5480775841
 20
159.0825051769
  0
VERTEX
  8
0
 62
7
  6
CONTINUOUS
 10
144.5524302524
 20
159.0824180609
  0
SEQEND
  0
LINE
  8
0
 62
7
  6
CONTINUOUS
 10
144.4153970658
 20
159.1077883109
 11
144.4705965992
 21
159.095486736
  0
LINE
  8
0
 62
7
  6
CONTINUOUS
 10
91.1680952857
 20
189.5588966897
 11
91.3295310739
 21
189.4414946187
  0
LINE
  8
0
 62
7
  6
CONTINUOUS
 10
91.3295310739
 20
189.4414946187
 11
91.4104508197
 21
189.3824180328
  0
LINE
  8
0
 62
7
  6
CONTINUOUS
 10
133.5854508197
 20
159.8824180328
 11
133.6909483179
 21
159.7486884093
  0
LINE
  8
0
 62
7
  6
CONTINUOUS
 10
133.6909483179
 20
159.7486884093
 11
133.750892234
 21
159.672015148
  0
LINE
  8
0
 62
7
  6
CONTINUOUS
 10
133.750892234
 20
159.672015148
 11
133.7950217689
 21
159.6149413778
  0
LINE
  8
0
 62
7
  6
CONTINUOUS
 10
133.7950217689
 20
159.6149413778
 11
133.8238412215
 21
159.5772568993
  0
LINE
  8
0
 62
7
  6
CONTINUOUS
 10
133.8238412215
 20
159.5772568993
 11
133.8520471239
 21
159.5399630344
  0
LINE
  8
0
 62
7
  6
CONTINUOUS
 10
133.8520471239
 20
159.5399630344
 11
133.8795187551
 21
159.503145955
  0
POLYLINE
  8
0
 62
7
  6
CONTINUOUS
 66
1
 70
0
  0
VERTEX
  8
0
 62
7
  6
CONTINUOUS
 10
133.8795187551
 20
159.503145955
  0
VERTEX
  8
0
 62
7
  6
CONTINUOUS
 10
133.9061275014
 20
159.4668944547
  0
VERTEX
  8
0
 62
7
  6
CONTINUOUS
 10
133.9190650618
 20
159.4490095533
  0
VERTEX
  8
0
 62
7
  6
CONTINUOUS
 10
133.931733991
 20
159.4313018847
  0
VERTEX
  8
0
 62
7
  6
CONTINUOUS
 10
133.9441138981
 20
159.4137833908
  0
VERTEX
  8
0
 62
7
  6
CONTINUOUS
 10
133.9561847938
 20
159.3964682479
  0
VERTEX
  8
0
 62
7
  6
CONTINUOUS
 10
133.9679238859
 20
159.3793693526
  0
VERTEX
  8
0
 62
7
  6
CONTINUOUS
 10
133.9793085743
 20
159.3625024862
  0
VERTEX
  8
0
 62
7
  6
CONTINUOUS
 10
133.9903131016
 20
159.3458817586
  0
VERTEX
  8
0
 62
7
  6
CONTINUOUS
 10
134.0009115006
 20
159.3295250816
  0
VERTEX
  8
0
 62
7
  6
CONTINUOUS
 10
134.0110743422
 20
159.3134481527
  0
VERTEX
  8
0
 62
7
  6
CONTINUOUS
 10
134.0207713151
 20
159.2976717243
  0
VERTEX
  8
0
 62
7
  6
CONTINUOUS
 10
134.0299683561
 20
159.282213786
  0
VERTEX
  8
0
 62
7
  6
CONTINUOUS
 10
134.0386299599
 20
159.2670983235
  0
VERTEX
  8
0
 62
7
  6
CONTINUOUS
 10
134.0467166045
 20
159.2523460074
  0
VERTEX
  8
0
 62
7
  6
CONTINUOUS
 10
134.0541864272
 20
159.2379847731
  0
VERTEX
  8
0
 62
7
  6
CONTINUOUS
 10
134.0609934492
 20
159.2240386923
  0
VERTEX
  8
0
 62
7
  6
CONTINUOUS
 10
134.0670884532
 20
159.2105400261
  0
VERTEX
  8
0
 62
7
  6
CONTINUOUS
 10
134.0724181696
 20
159.1975168939
  0
VERTEX
  8
0
 62
7
  6
CONTINUOUS
 10
134.0769253595
 20
159.1850057923
  0
VERTEX
  8
0
 62
7
  6
CONTINUOUS
 10
134.0805490262
 20
159.1730393453
  0
VERTEX
  8
0
 62
7
  6
CONTINUOUS
 10
134.0832239839
 20
159.1616572893
  0
VERTEX
  8
0
 62
7
  6
CONTINUOUS
 10
134.0848822467
 20
159.150916562
  0
VERTEX
  8
0
 62
7
  6
CONTINUOUS
 10
134.0854508197
 20
159.1407981841
  0
SEQEND
  0
LINE
  8
0
 62
7
  6
CONTINUOUS
 10
127.8354508197
 20
199.6824180328
 11
127.8354508197
 21
190.1240378815
  0
LINE
  8
0
 62
7
  6
CONTINUOUS
 10
128.2854508197
 20
159.14079835
 11
128.2854508197
 21
149.6024180328
  0
POLYLINE
  8
0
 62
7
  6
CONTINUOUS
 66
1
 70
0
  0
VERTEX
  8
0
 62
7
  6
CONTINUOUS
 10
127.8354508197
 20
190.1240378815
  0
VERTEX
  8
0
 62
7
  6
CONTINUOUS
 10
127.8348822467
 20
190.1139195036
  0
VERTEX
  8
0
 62
7
  6
CONTINUOUS
 10
127.8332239839
 20
190.1031787763
  0
VERTEX
  8
0
 62
7
  6
CONTINUOUS
 10
127.8305490262
 20
190.0917967203
  0
VERTEX
  8
0
 62
7
  6
CONTINUOUS
 10
127.8269253595
 20
190.0798302732
  0
VERTEX
  8
0
 62
7
  6
CONTINUOUS
 10
127.8224181696
 20
190.0673191716
  0
VERTEX
  8
0
 62
7
  6
CONTINUOUS
 10
127.8170884532
 20
190.0542960395
  0
VERTEX
  8
0
 62
7
  6
CONTINUOUS
 10
127.8109934492
 20
190.0407973733
  0
VERTEX
  8
0
 62
7
  6
CONTINUOUS
 10
127.8041864272
 20
190.0268512925
  0
VERTEX
  8
0
 62
7
  6
CONTINUOUS
 10
127.7967166045
 20
190.0124900582
  0
VERTEX
  8
0
 62
7
  6
CONTINUOUS
 10
127.7886299599
 20
189.9977377421
  0
VERTEX
  8
0
 62
7
  6
CONTINUOUS
 10
127.7799683561
 20
189.9826222796
  0
VERTEX
  8
0
 62
7
  6
CONTINUOUS
 10
127.7707713151
 20
189.9671643412
  0
VERTEX
  8
0
 62
7
  6
CONTINUOUS
 10
127.7610743422
 20
189.9513879129
  0
VERTEX
  8
0
 62
7
  6
CONTINUOUS
 10
127.7509115006
 20
189.935310984
  0
VERTEX
  8
0
 62
7
  6
CONTINUOUS
 10
127.7403131016
 20
189.918954307
  0
VERTEX
  8
0
 62
7
  6
CONTINUOUS
 10
127.7293085743
 20
189.9023335794
  0
VERTEX
  8
0
 62
7
  6
CONTINUOUS
 10
127.7179238859
 20
189.885466713
  0
VERTEX
  8
0
 62
7
  6
CONTINUOUS
 10
127.7061847938
 20
189.8683678176
  0
VERTEX
  8
0
 62
7
  6
CONTINUOUS
 10
127.6941138981
 20
189.8510526747
  0
VERTEX
  8
0
 62
7
  6
CONTINUOUS
 10
127.681733991
 20
189.8335341808
  0
VERTEX
  8
0
 62
7
  6
CONTINUOUS
 10
127.6690650618
 20
189.8158265123
  0
VERTEX
  8
0
 62
7
  6
CONTINUOUS
 10
127.6561275014
 20
189.7979416109
  0
SEQEND
  0
LINE
  8
DEFAULT_1
 62
2
  6
CENTER
 10
131.1854508197
 20
179.8824180328
 11
131.1854508197
 21
176.6325180328
  0
LINE
  8
0
 62
2
  6
CONTINUOUS
 10
131.1854508197
 20
175.6824180328
 11
131.1854508197
 21
173.5824180328
  0
LINE
  8
DEFAULT_1
 62
2
  6
CENTER
 10
131.1854508197
 20
169.3824180328
 11
131.1854508197
 21
172.6323180328
  0
POLYLINE
  8
0
 62
7
  6
CONTINUOUS
 66
1
 70
0
  0
VERTEX
  8
0
 62
7
  6
CONTINUOUS
 10
128.2854508197
 20
159.1407981841
  0
VERTEX
  8
0
 62
7
  6
CONTINUOUS
 10
128.2860193927
 20
159.150916562
  0
VERTEX
  8
0
 62
7
  6
CONTINUOUS
 10
128.2876776554
 20
159.1616572893
  0
VERTEX
  8
0
 62
7
  6
CONTINUOUS
 10
128.2903526131
 20
159.1730393453
  0
VERTEX
  8
0
 62
7
  6
CONTINUOUS
 10
128.2939762798
 20
159.1850057923
  0
VERTEX
  8
0
 62
7
  6
CONTINUOUS
 10
128.2984834698
 20
159.1975168939
  0
VERTEX
  8
0
 62
7
  6
CONTINUOUS
 10
128.3038131862
 20
159.2105400261
  0
VERTEX
  8
0
 62
7
  6
CONTINUOUS
 10
128.3099081901
 20
159.2240386923
  0
VERTEX
  8
0
 62
7
  6
CONTINUOUS
 10
128.3167152122
 20
159.2379847731
  0
VERTEX
  8
0
 62
7
  6
CONTINUOUS
 10
128.3241850349
 20
159.2523460074
  0
VERTEX
  8
0
 62
7
  6
CONTINUOUS
 10
128.3322716795
 20
159.2670983235
  0
VERTEX
  8
0
 62
7
  6
CONTINUOUS
 10
128.3409332833
 20
159.282213786
  0
VERTEX
  8
0
 62
7
  6
CONTINUOUS
 10
128.3501303242
 20
159.2976717243
  0
VERTEX
  8
0
 62
7
  6
CONTINUOUS
 10
128.3598272971
 20
159.3134481527
  0
VERTEX
  8
0
 62
7
  6
CONTINUOUS
 10
128.3699901388
 20
159.3295250816
  0
VERTEX
  8
0
 62
7
  6
CONTINUOUS
 10
128.3805885377
 20
159.3458817586
  0
VERTEX
  8
0
 62
7
  6
CONTINUOUS
 10
128.3915930651
 20
159.3625024862
  0
VERTEX
  8
0
 62
7
  6
CONTINUOUS
 10
128.4029777534
 20
159.3793693526
  0
VERTEX
  8
0
 62
7
  6
CONTINUOUS
 10
128.4147168455
 20
159.3964682479
  0
VERTEX
  8
0
 62
7
  6
CONTINUOUS
 10
128.4267877413
 20
159.4137833908
  0
VERTEX
  8
0
 62
7
  6
CONTINUOUS
 10
128.4391676484
 20
159.4313018847
  0
VERTEX
  8
0
 62
7
  6
CONTINUOUS
 10
128.4518365775
 20
159.4490095533
  0
VERTEX
  8
0
 62
7
  6
CONTINUOUS
 10
128.4647741379
 20
159.4668944547
  0
SEQEND
  0
LINE
  8
DEFAULT_1
 62
2
  6
CENTER
 10
136.4354508197
 20
174.6324180328
 11
133.1855508197
 21
174.6324180328
  0
LINE
  8
0
 62
2
  6
CONTINUOUS
 10
132.2354508197
 20
174.6324180328
 11
130.1354508197
 21
174.6324180328
  0
LINE
  8
DEFAULT_1
 62
2
  6
CENTER
 10
125.9354508197
 20
174.6324180328
 11
129.1853508197
 21
174.6324180328
  0
LINE
  8
0
 62
7
  6
CONTINUOUS
 10
118.7354508197
 20
189.3824180328
 11
118.6299533214
 21
189.5161476563
  0
LINE
  8
0
 62
7
  6
CONTINUOUS
 10
118.6299533214
 20
189.5161476563
 11
118.5700094053
 21
189.5928209175
  0
LINE
  8
0
 62
7
  6
CONTINUOUS
 10
118.5700094053
 20
189.5928209175
 11
118.5258798704
 21
189.6498946878
  0
LINE
  8
0
 62
7
  6
CONTINUOUS
 10
118.5258798704
 20
189.6498946878
 11
118.4970604178
 21
189.6875791663
  0
LINE
  8
0
 62
7
  6
CONTINUOUS
 10
118.4970604178
 20
189.6875791663
 11
118.4688545155
 21
189.7248730311
  0
LINE
  8
0
 62
7
  6
CONTINUOUS
 10
118.4688545155
 20
189.7248730311
 11
118.4413828842
 21
189.7616901106
  0
POLYLINE
  8
0
 62
7
  6
CONTINUOUS
 66
1
 70
0
  0
VERTEX
  8
0
 62
7
  6
CONTINUOUS
 10
118.4413828842
 20
189.7616901106
  0
VERTEX
  8
0
 62
7
  6
CONTINUOUS
 10
118.4147741379
 20
189.7979416109
  0
VERTEX
  8
0
 62
7
  6
CONTINUOUS
 10
118.4018365775
 20
189.8158265123
  0
VERTEX
  8
0
 62
7
  6
CONTINUOUS
 10
118.3891676484
 20
189.8335341808
  0
VERTEX
  8
0
 62
7
  6
CONTINUOUS
 10
118.3767877413
 20
189.8510526747
  0
VERTEX
  8
0
 62
7
  6
CONTINUOUS
 10
118.3647168455
 20
189.8683678176
  0
VERTEX
  8
0
 62
7
  6
CONTINUOUS
 10
118.3529777534
 20
189.885466713
  0
VERTEX
  8
0
 62
7
  6
CONTINUOUS
 10
118.3415930651
 20
189.9023335794
  0
VERTEX
  8
0
 62
7
  6
CONTINUOUS
 10
118.3305885377
 20
189.918954307
  0
VERTEX
  8
0
 62
7
  6
CONTINUOUS
 10
118.3199901388
 20
189.935310984
  0
VERTEX
  8
0
 62
7
  6
CONTINUOUS
 10
118.3098272971
 20
189.9513879129
  0
VERTEX
  8
0
 62
7
  6
CONTINUOUS
 10
118.3001303242
 20
189.9671643412
  0
VERTEX
  8
0
 62
7
  6
CONTINUOUS
 10
118.2909332833
 20
189.9826222796
  0
VERTEX
  8
0
 62
7
  6
CONTINUOUS
 10
118.2822716795
 20
189.9977377421
  0
VERTEX
  8
0
 62
7
  6
CONTINUOUS
 10
118.2741850349
 20
190.0124900582
  0
VERTEX
  8
0
 62
7
  6
CONTINUOUS
 10
118.2667152122
 20
190.0268512925
  0
VERTEX
  8
0
 62
7
  6
CONTINUOUS
 10
118.2599081901
 20
190.0407973733
  0
VERTEX
  8
0
 62
7
  6
CONTINUOUS
 10
118.2538131862
 20
190.0542960395
  0
VERTEX
  8
0
 62
7
  6
CONTINUOUS
 10
118.2484834698
 20
190.0673191716
  0
VERTEX
  8
0
 62
7
  6
CONTINUOUS
 10
118.2439762798
 20
190.0798302732
  0
VERTEX
  8
0
 62
7
  6
CONTINUOUS
 10
118.2403526131
 20
190.0917967203
  0
VERTEX
  8
0
 62
7
  6
CONTINUOUS
 10
118.2376776554
 20
190.1031787763
  0
VERTEX
  8
0
 62
7
  6
CONTINUOUS
 10
118.2360193927
 20
190.1139195036
  0
VERTEX
  8
0
 62
7
  6
CONTINUOUS
 10
118.2354508197
 20
190.1240378815
  0
SEQEND
  0
LINE
  8
0
 62
7
  6
CONTINUOUS
 10
134.0854508197
 20
159.1407981841
 11
134.0854508197
 21
149.6024180328
  0
LINE
  8
0
 62
7
  6
CONTINUOUS
 10
134.5354508197
 20
190.1240378815
 11
134.5354508197
 21
199.6824180328
  0
LINE
  8
0
 62
7
  6
CONTINUOUS
 10
143.9561275014
 20
189.7979416109
 11
143.9295187551
 21
189.7616901106
  0
LINE
  8
0
 62
7
  6
CONTINUOUS
 10
143.9295187551
 20
189.7616901106
 11
143.9020471239
 21
189.7248730311
  0
LINE
  8
0
 62
7
  6
CONTINUOUS
 10
143.9020471239
 20
189.7248730311
 11
143.8738412215
 21
189.6875791663
  0
LINE
  8
0
 62
7
  6
CONTINUOUS
 10
143.8738412215
 20
189.6875791663
 11
143.8450217689
 21
189.6498946878
  0
LINE
  8
0
 62
7
  6
CONTINUOUS
 10
143.8450217689
 20
189.6498946878
 11
143.800892234
 21
189.5928209175
  0
LINE
  8
0
 62
7
  6
CONTINUOUS
 10
143.800892234
 20
189.5928209175
 11
143.7409483179
 21
189.5161476563
  0
LINE
  8
0
 62
7
  6
CONTINUOUS
 10
143.7409483179
 20
189.5161476563
 11
143.6354508197
 21
189.3824180328
  0
POLYLINE
  8
0
 62
7
  6
CONTINUOUS
 66
1
 70
0
  0
VERTEX
  8
0
 62
7
  6
CONTINUOUS
 10
128.4647741379
 20
159.4668944547
  0
VERTEX
  8
0
 62
7
  6
CONTINUOUS
 10
128.4913828842
 20
159.503145955
  0
VERTEX
  8
0
 62
7
  6
CONTINUOUS
 10
128.5050192645
 20
159.5214893469
  0
SEQEND
  0
LINE
  8
0
 62
7
  6
CONTINUOUS
 10
128.5050192645
 20
159.5214893469
 11
128.5328735493
 21
159.5585557544
  0
LINE
  8
0
 62
7
  6
CONTINUOUS
 10
128.5328735493
 20
159.5585557544
 11
128.5614009029
 21
159.5960556156
  0
LINE
  8
0
 62
7
  6
CONTINUOUS
 10
128.5614009029
 20
159.5960556156
 11
128.6051979162
 21
159.6529316094
  0
LINE
  8
0
 62
7
  6
CONTINUOUS
 10
128.6051979162
 20
159.6529316094
 11
128.6648893581
 21
159.7294909552
  0
LINE
  8
0
 62
7
  6
CONTINUOUS
 10
128.6648893581
 20
159.7294909552
 11
128.7854508197
 21
159.8824180328
  0
LINE
  8
0
 62
7
  6
CONTINUOUS
 10
144.1354508197
 20
199.6824180328
 11
144.1354508197
 21
190.1240378815
  0
POLYLINE
  8
0
 62
7
  6
CONTINUOUS
 66
1
 70
0
  0
VERTEX
  8
0
 62
7
  6
CONTINUOUS
 10
144.1354508197
 20
190.1240378815
  0
VERTEX
  8
0
 62
7
  6
CONTINUOUS
 10
144.1348822467
 20
190.1139195036
  0
VERTEX
  8
0
 62
7
  6
CONTINUOUS
 10
144.1332239839
 20
190.1031787763
  0
VERTEX
  8
0
 62
7
  6
CONTINUOUS
 10
144.1305490262
 20
190.0917967203
  0
VERTEX
  8
0
 62
7
  6
CONTINUOUS
 10
144.1269253595
 20
190.0798302732
  0
VERTEX
  8
0
 62
7
  6
CONTINUOUS
 10
144.1224181696
 20
190.0673191716
  0
VERTEX
  8
0
 62
7
  6
CONTINUOUS
 10
144.1170884532
 20
190.0542960395
  0
VERTEX
  8
0
 62
7
  6
CONTINUOUS
 10
144.1109934492
 20
190.0407973733
  0
VERTEX
  8
0
 62
7
  6
CONTINUOUS
 10
144.1041864272
 20
190.0268512925
  0
VERTEX
  8
0
 62
7
  6
CONTINUOUS
 10
144.0967166045
 20
190.0124900582
  0
VERTEX
  8
0
 62
7
  6
CONTINUOUS
 10
144.0886299599
 20
189.9977377421
  0
VERTEX
  8
0
 62
7
  6
CONTINUOUS
 10
144.0799683561
 20
189.9826222796
  0
VERTEX
  8
0
 62
7
  6
CONTINUOUS
 10
144.0707713151
 20
189.9671643412
  0
VERTEX
  8
0
 62
7
  6
CONTINUOUS
 10
144.0610743422
 20
189.9513879129
  0
VERTEX
  8
0
 62
7
  6
CONTINUOUS
 10
144.0509115006
 20
189.935310984
  0
VERTEX
  8
0
 62
7
  6
CONTINUOUS
 10
144.0403131016
 20
189.918954307
  0
VERTEX
  8
0
 62
7
  6
CONTINUOUS
 10
144.0293085743
 20
189.9023335794
  0
VERTEX
  8
0
 62
7
  6
CONTINUOUS
 10
144.0179238859
 20
189.885466713
  0
VERTEX
  8
0
 62
7
  6
CONTINUOUS
 10
144.0061847938
 20
189.8683678176
  0
VERTEX
  8
0
 62
7
  6
CONTINUOUS
 10
143.9941138981
 20
189.8510526747
  0
VERTEX
  8
0
 62
7
  6
CONTINUOUS
 10
143.981733991
 20
189.8335341808
  0
VERTEX
  8
0
 62
7
  6
CONTINUOUS
 10
143.9690650618
 20
189.8158265123
  0
VERTEX
  8
0
 62
7
  6
CONTINUOUS
 10
143.9561275014
 20
189.7979416109
  0
SEQEND
  0
LINE
  8
0
 62
7
  6
CONTINUOUS
 10
171.2028063537
 20
189.5588966897
 11
170.9604508197
 21
189.3824180328
  0
LINE
  8
0
 62
7
  6
CONTINUOUS
 10
135.0354508197
 20
189.3824180328
 11
134.9299533214
 21
189.5161476563
  0
LINE
  8
0
 62
7
  6
CONTINUOUS
 10
134.9299533214
 20
189.5161476563
 11
134.8700094053
 21
189.5928209175
  0
LINE
  8
0
 62
7
  6
CONTINUOUS
 10
134.8700094053
 20
189.5928209175
 11
134.8258798704
 21
189.6498946878
  0
LINE
  8
0
 62
7
  6
CONTINUOUS
 10
134.8258798704
 20
189.6498946878
 11
134.7970604178
 21
189.6875791663
  0
LINE
  8
0
 62
7
  6
CONTINUOUS
 10
134.7970604178
 20
189.6875791663
 11
134.7688545155
 21
189.7248730311
  0
LINE
  8
0
 62
7
  6
CONTINUOUS
 10
134.7688545155
 20
189.7248730311
 11
134.7413828842
 21
189.7616901106
  0
POLYLINE
  8
0
 62
7
  6
CONTINUOUS
 66
1
 70
0
  0
VERTEX
  8
0
 62
7
  6
CONTINUOUS
 10
134.7413828842
 20
189.7616901106
  0
VERTEX
  8
0
 62
7
  6
CONTINUOUS
 10
134.7147741379
 20
189.7979416109
  0
VERTEX
  8
0
 62
7
  6
CONTINUOUS
 10
134.7018365775
 20
189.8158265123
  0
VERTEX
  8
0
 62
7
  6
CONTINUOUS
 10
134.6891676484
 20
189.8335341808
  0
VERTEX
  8
0
 62
7
  6
CONTINUOUS
 10
134.6767877413
 20
189.8510526747
  0
VERTEX
  8
0
 62
7
  6
CONTINUOUS
 10
134.6647168455
 20
189.8683678176
  0
VERTEX
  8
0
 62
7
  6
CONTINUOUS
 10
134.6529777534
 20
189.885466713
  0
VERTEX
  8
0
 62
7
  6
CONTINUOUS
 10
134.6415930651
 20
189.9023335794
  0
VERTEX
  8
0
 62
7
  6
CONTINUOUS
 10
134.6305885377
 20
189.918954307
  0
VERTEX
  8
0
 62
7
  6
CONTINUOUS
 10
134.6199901388
 20
189.935310984
  0
VERTEX
  8
0
 62
7
  6
CONTINUOUS
 10
134.6098272971
 20
189.9513879129
  0
VERTEX
  8
0
 62
7
  6
CONTINUOUS
 10
134.6001303242
 20
189.9671643412
  0
VERTEX
  8
0
 62
7
  6
CONTINUOUS
 10
134.5909332833
 20
189.9826222796
  0
VERTEX
  8
0
 62
7
  6
CONTINUOUS
 10
134.5822716795
 20
189.9977377421
  0
VERTEX
  8
0
 62
7
  6
CONTINUOUS
 10
134.5741850349
 20
190.0124900582
  0
VERTEX
  8
0
 62
7
  6
CONTINUOUS
 10
134.5667152122
 20
190.0268512925
  0
VERTEX
  8
0
 62
7
  6
CONTINUOUS
 10
134.5599081901
 20
190.0407973733
  0
VERTEX
  8
0
 62
7
  6
CONTINUOUS
 10
134.5538131862
 20
190.0542960395
  0
VERTEX
  8
0
 62
7
  6
CONTINUOUS
 10
134.5484834698
 20
190.0673191716
  0
VERTEX
  8
0
 62
7
  6
CONTINUOUS
 10
134.5439762798
 20
190.0798302732
  0
VERTEX
  8
0
 62
7
  6
CONTINUOUS
 10
134.5403526131
 20
190.0917967203
  0
VERTEX
  8
0
 62
7
  6
CONTINUOUS
 10
134.5376776554
 20
190.1031787763
  0
VERTEX
  8
0
 62
7
  6
CONTINUOUS
 10
134.5360193927
 20
190.1139195036
  0
VERTEX
  8
0
 62
7
  6
CONTINUOUS
 10
134.5354508197
 20
190.1240378815
  0
SEQEND
  0
LINE
  8
0
 62
7
  6
CONTINUOUS
 10
144.5854508197
 20
149.6024180328
 11
144.5854508197
 21
159.1407981841
  0
POLYLINE
  8
0
 62
7
  6
CONTINUOUS
 66
1
 70
0
  0
VERTEX
  8
0
 62
7
  6
CONTINUOUS
 10
144.5854508197
 20
159.1407981841
  0
VERTEX
  8
0
 62
7
  6
CONTINUOUS
 10
144.5860193927
 20
159.150916562
  0
VERTEX
  8
0
 62
7
  6
CONTINUOUS
 10
144.5876776554
 20
159.1616572893
  0
VERTEX
  8
0
 62
7
  6
CONTINUOUS
 10
144.5903526131
 20
159.1730393453
  0
VERTEX
  8
0
 62
7
  6
CONTINUOUS
 10
144.5939762798
 20
159.1850057923
  0
VERTEX
  8
0
 62
7
  6
CONTINUOUS
 10
144.5984834698
 20
159.1975168939
  0
VERTEX
  8
0
 62
7
  6
CONTINUOUS
 10
144.6038131862
 20
159.2105400261
  0
VERTEX
  8
0
 62
7
  6
CONTINUOUS
 10
144.6099081901
 20
159.2240386923
  0
VERTEX
  8
0
 62
7
  6
CONTINUOUS
 10
144.6167152122
 20
159.2379847731
  0
VERTEX
  8
0
 62
7
  6
CONTINUOUS
 10
144.6241850349
 20
159.2523460074
  0
VERTEX
  8
0
 62
7
  6
CONTINUOUS
 10
144.6322716795
 20
159.2670983235
  0
VERTEX
  8
0
 62
7
  6
CONTINUOUS
 10
144.6409332833
 20
159.282213786
  0
VERTEX
  8
0
 62
7
  6
CONTINUOUS
 10
144.6501303242
 20
159.2976717243
  0
VERTEX
  8
0
 62
7
  6
CONTINUOUS
 10
144.6598272971
 20
159.3134481527
  0
VERTEX
  8
0
 62
7
  6
CONTINUOUS
 10
144.6699901388
 20
159.3295250816
  0
VERTEX
  8
0
 62
7
  6
CONTINUOUS
 10
144.6805885377
 20
159.3458817586
  0
VERTEX
  8
0
 62
7
  6
CONTINUOUS
 10
144.6915930651
 20
159.3625024862
  0
VERTEX
  8
0
 62
7
  6
CONTINUOUS
 10
144.7029777534
 20
159.3793693526
  0
VERTEX
  8
0
 62
7
  6
CONTINUOUS
 10
144.7147168455
 20
159.3964682479
  0
VERTEX
  8
0
 62
7
  6
CONTINUOUS
 10
144.7267877413
 20
159.4137833908
  0
VERTEX
  8
0
 62
7
  6
CONTINUOUS
 10
144.7391676484
 20
159.4313018847
  0
VERTEX
  8
0
 62
7
  6
CONTINUOUS
 10
144.7518365775
 20
159.4490095533
  0
VERTEX
  8
0
 62
7
  6
CONTINUOUS
 10
144.7647741379
 20
159.4668944547
  0
SEQEND
  0
POLYLINE
  8
0
 62
7
  6
CONTINUOUS
 66
1
 70
0
  0
VERTEX
  8
0
 62
7
  6
CONTINUOUS
 10
134.4205965992
 20
190.1693493296
  0
VERTEX
  8
0
 62
7
  6
CONTINUOUS
 10
134.3653970658
 20
190.1570477547
  0
VERTEX
  8
0
 62
7
  6
CONTINUOUS
 10
134.3446315579
 20
190.1525417119
  0
VERTEX
  8
0
 62
7
  6
CONTINUOUS
 10
134.3227855126
 20
190.147980669
  0
VERTEX
  8
0
 62
7
  6
CONTINUOUS
 10
134.2999193549
 20
190.1434478462
  0
VERTEX
  8
0
 62
7
  6
CONTINUOUS
 10
134.2760669756
 20
190.1390282584
  0
VERTEX
  8
0
 62
7
  6
CONTINUOUS
 10
134.251369459
 20
190.1348119845
  0
VERTEX
  8
0
 62
7
  6
CONTINUOUS
 10
134.2259550584
 20
190.1308933204
  0
VERTEX
  8
0
 62
7
  6
CONTINUOUS
 10
134.1998961578
 20
190.1273378675
  0
VERTEX
  8
0
 62
7
  6
CONTINUOUS
 10
134.173267714
 20
190.1242139888
  0
VERTEX
  8
0
 62
7
  6
CONTINUOUS
 10
134.1461902629
 20
190.1215770087
  0
VERTEX
  8
0
 62
7
  6
CONTINUOUS
 10
134.1187805943
 20
190.1194814464
  0
VERTEX
  8
0
 62
7
  6
CONTINUOUS
 10
134.0911249023
 20
190.1179579866
  0
VERTEX
  8
0
 62
7
  6
CONTINUOUS
 10
134.0633639512
 20
190.117036349
  0
VERTEX
  8
0
 62
7
  6
CONTINUOUS
 10
134.0354508197
 20
190.1167260992
  0
SEQEND
  0
POLYLINE
  8
0
 62
7
  6
CONTINUOUS
 66
1
 70
0
  0
VERTEX
  8
0
 62
7
  6
CONTINUOUS
 10
134.5024302524
 20
190.1824180047
  0
VERTEX
  8
0
 62
7
  6
CONTINUOUS
 10
134.4980775841
 20
190.1823308887
  0
VERTEX
  8
0
 62
7
  6
CONTINUOUS
 10
134.4881727134
 20
190.181632058
  0
VERTEX
  8
0
 62
7
  6
CONTINUOUS
 10
134.4770803215
 20
190.1802768688
  0
VERTEX
  8
0
 62
7
  6
CONTINUOUS
 10
134.4648013472
 20
190.1783186054
  0
VERTEX
  8
0
 62
7
  6
CONTINUOUS
 10
134.4513080939
 20
190.1758097125
  0
VERTEX
  8
0
 62
7
  6
CONTINUOUS
 10
134.4365650852
 20
190.1727984933
  0
VERTEX
  8
0
 62
7
  6
CONTINUOUS
 10
134.4205965992
 20
190.1693493296
  0
SEQEND
  0
POLYLINE
  8
0
 62
7
  6
CONTINUOUS
 66
1
 70
0
  0
VERTEX
  8
0
 62
7
  6
CONTINUOUS
 10
118.2024302524
 20
190.1824180047
  0
VERTEX
  8
0
 62
7
  6
CONTINUOUS
 10
118.1980775841
 20
190.1823308887
  0
VERTEX
  8
0
 62
7
  6
CONTINUOUS
 10
118.1881727134
 20
190.181632058
  0
VERTEX
  8
0
 62
7
  6
CONTINUOUS
 10
118.1770803215
 20
190.1802768688
  0
VERTEX
  8
0
 62
7
  6
CONTINUOUS
 10
118.1648013472
 20
190.1783186054
  0
VERTEX
  8
0
 62
7
  6
CONTINUOUS
 10
118.1513080939
 20
190.1758097125
  0
VERTEX
  8
0
 62
7
  6
CONTINUOUS
 10
118.1365650852
 20
190.1727984933
  0
VERTEX
  8
0
 62
7
  6
CONTINUOUS
 10
118.1205965992
 20
190.1693493296
  0
SEQEND
  0
LINE
  8
0
 62
7
  6
CONTINUOUS
 10
134.0354508197
 20
190.1167260992
 11
128.3354508197
 21
190.1167260992
  0
LINE
  8
0
 62
7
  6
CONTINUOUS
 10
117.7354508197
 20
190.1167260992
 11
92.9104508143
 21
190.1167260992
  0
LINE
  8
0
 62
7
  6
CONTINUOUS
 10
144.6354508197
 20
190.1167260992
 11
169.4604508251
 21
190.1167260992
  0
LINE
  8
0
 62
7
  6
CONTINUOUS
 10
144.1689008876
 20
190.1824180328
 11
144.1354508197
 21
190.1824180328
  0
LINE
  8
0
 62
7
  6
CONTINUOUS
 10
134.5354508197
 20
190.1824180328
 11
134.5020007518
 21
190.1824180328
  0
LINE
  8
0
 62
7
  6
CONTINUOUS
 10
127.8689008876
 20
190.1824180328
 11
127.8354508197
 21
190.1824180328
  0
LINE
  8
0
 62
7
  6
CONTINUOUS
 10
118.2354508197
 20
190.1824180328
 11
118.2020007518
 21
190.1824180328
  0
POLYLINE
  8
0
 62
7
  6
CONTINUOUS
 66
1
 70
0
  0
VERTEX
  8
0
 62
7
  6
CONTINUOUS
 10
128.3354508197
 20
190.1167260992
  0
VERTEX
  8
0
 62
7
  6
CONTINUOUS
 10
128.3075376881
 20
190.117036349
  0
VERTEX
  8
0
 62
7
  6
CONTINUOUS
 10
128.2797767371
 20
190.1179579866
  0
VERTEX
  8
0
 62
7
  6
CONTINUOUS
 10
128.252121045
 20
190.1194814464
  0
VERTEX
  8
0
 62
7
  6
CONTINUOUS
 10
128.2247113765
 20
190.1215770087
  0
VERTEX
  8
0
 62
7
  6
CONTINUOUS
 10
128.1976339253
 20
190.1242139888
  0
VERTEX
  8
0
 62
7
  6
CONTINUOUS
 10
128.1710054815
 20
190.1273378675
  0
VERTEX
  8
0
 62
7
  6
CONTINUOUS
 10
128.144946581
 20
190.1308933204
  0
VERTEX
  8
0
 62
7
  6
CONTINUOUS
 10
128.1195321803
 20
190.1348119845
  0
VERTEX
  8
0
 62
7
  6
CONTINUOUS
 10
128.0948346637
 20
190.1390282584
  0
VERTEX
  8
0
 62
7
  6
CONTINUOUS
 10
128.0709822845
 20
190.1434478462
  0
VERTEX
  8
0
 62
7
  6
CONTINUOUS
 10
128.0481161267
 20
190.147980669
  0
VERTEX
  8
0
 62
7
  6
CONTINUOUS
 10
128.0262700815
 20
190.1525417119
  0
VERTEX
  8
0
 62
7
  6
CONTINUOUS
 10
128.0055045735
 20
190.1570477547
  0
SEQEND
  0
POLYLINE
  8
0
 62
7
  6
CONTINUOUS
 66
1
 70
0
  0
VERTEX
  8
0
 62
7
  6
CONTINUOUS
 10
144.6354508197
 20
190.1167260992
  0
VERTEX
  8
0
 62
7
  6
CONTINUOUS
 10
144.6075376881
 20
190.117036349
  0
VERTEX
  8
0
 62
7
  6
CONTINUOUS
 10
144.5797767371
 20
190.1179579866
  0
VERTEX
  8
0
 62
7
  6
CONTINUOUS
 10
144.552121045
 20
190.1194814464
  0
VERTEX
  8
0
 62
7
  6
CONTINUOUS
 10
144.5247113765
 20
190.1215770087
  0
VERTEX
  8
0
 62
7
  6
CONTINUOUS
 10
144.4976339253
 20
190.1242139888
  0
VERTEX
  8
0
 62
7
  6
CONTINUOUS
 10
144.4710054815
 20
190.1273378675
  0
VERTEX
  8
0
 62
7
  6
CONTINUOUS
 10
144.444946581
 20
190.1308933204
  0
VERTEX
  8
0
 62
7
  6
CONTINUOUS
 10
144.4195321803
 20
190.1348119845
  0
VERTEX
  8
0
 62
7
  6
CONTINUOUS
 10
144.3948346637
 20
190.1390282584
  0
VERTEX
  8
0
 62
7
  6
CONTINUOUS
 10
144.3709822845
 20
190.1434478462
  0
VERTEX
  8
0
 62
7
  6
CONTINUOUS
 10
144.3481161267
 20
190.147980669
  0
VERTEX
  8
0
 62
7
  6
CONTINUOUS
 10
144.3262700815
 20
190.1525417119
  0
VERTEX
  8
0
 62
7
  6
CONTINUOUS
 10
144.3055045735
 20
190.1570477547
  0
SEQEND
  0
POLYLINE
  8
0
 62
7
  6
CONTINUOUS
 66
1
 70
0
  0
VERTEX
  8
0
 62
7
  6
CONTINUOUS
 10
127.9503050401
 20
190.1693493296
  0
VERTEX
  8
0
 62
7
  6
CONTINUOUS
 10
127.9343365542
 20
190.1727984933
  0
VERTEX
  8
0
 62
7
  6
CONTINUOUS
 10
127.9195935454
 20
190.1758097125
  0
VERTEX
  8
0
 62
7
  6
CONTINUOUS
 10
127.9061002921
 20
190.1783186054
  0
VERTEX
  8
0
 62
7
  6
CONTINUOUS
 10
127.8938213178
 20
190.1802768688
  0
VERTEX
  8
0
 62
7
  6
CONTINUOUS
 10
127.882728926
 20
190.181632058
  0
VERTEX
  8
0
 62
7
  6
CONTINUOUS
 10
127.8728240552
 20
190.1823308887
  0
VERTEX
  8
0
 62
7
  6
CONTINUOUS
 10
127.8684713869
 20
190.1824180047
  0
SEQEND
  0
LINE
  8
0
 62
7
  6
CONTINUOUS
 10
128.0055045735
 20
190.1570477547
 11
127.9503050401
 21
190.1693493296
  0
POLYLINE
  8
0
 62
7
  6
CONTINUOUS
 66
1
 70
0
  0
VERTEX
  8
0
 62
7
  6
CONTINUOUS
 10
118.1205965992
 20
190.1693493296
  0
VERTEX
  8
0
 62
7
  6
CONTINUOUS
 10
118.0653970658
 20
190.1570477547
  0
VERTEX
  8
0
 62
7
  6
CONTINUOUS
 10
118.0446315579
 20
190.1525417119
  0
VERTEX
  8
0
 62
7
  6
CONTINUOUS
 10
118.0227855126
 20
190.147980669
  0
VERTEX
  8
0
 62
7
  6
CONTINUOUS
 10
117.9999193549
 20
190.1434478462
  0
VERTEX
  8
0
 62
7
  6
CONTINUOUS
 10
117.9760669756
 20
190.1390282584
  0
VERTEX
  8
0
 62
7
  6
CONTINUOUS
 10
117.951369459
 20
190.1348119845
  0
VERTEX
  8
0
 62
7
  6
CONTINUOUS
 10
117.9259550584
 20
190.1308933204
  0
VERTEX
  8
0
 62
7
  6
CONTINUOUS
 10
117.8998961578
 20
190.1273378675
  0
VERTEX
  8
0
 62
7
  6
CONTINUOUS
 10
117.873267714
 20
190.1242139888
  0
VERTEX
  8
0
 62
7
  6
CONTINUOUS
 10
117.8461902629
 20
190.1215770087
  0
VERTEX
  8
0
 62
7
  6
CONTINUOUS
 10
117.8187805943
 20
190.1194814464
  0
VERTEX
  8
0
 62
7
  6
CONTINUOUS
 10
117.7911249023
 20
190.1179579866
  0
VERTEX
  8
0
 62
7
  6
CONTINUOUS
 10
117.7633639512
 20
190.117036349
  0
VERTEX
  8
0
 62
7
  6
CONTINUOUS
 10
117.7354508197
 20
190.1167260992
  0
SEQEND
  0
LINE
  8
AXES
 62
2
  6
CENTER
 10
116.2354508197
 20
193.6824180328
 11
129.8354508197
 21
193.6824180328
  0
LINE
  8
DEFAULT_1
 62
2
  6
CENTER
 10
132.5354508197
 20
193.6824180328
 11
146.1354508197
 21
193.6824180328
  0
POLYLINE
  8
0
 62
7
  6
CONTINUOUS
 66
1
 70
0
  0
VERTEX
  8
0
 62
7
  6
CONTINUOUS
 10
144.2503050401
 20
190.1693493296
  0
VERTEX
  8
0
 62
7
  6
CONTINUOUS
 10
144.2343365542
 20
190.1727984933
  0
VERTEX
  8
0
 62
7
  6
CONTINUOUS
 10
144.2195935454
 20
190.1758097125
  0
VERTEX
  8
0
 62
7
  6
CONTINUOUS
 10
144.2061002921
 20
190.1783186054
  0
VERTEX
  8
0
 62
7
  6
CONTINUOUS
 10
144.1938213178
 20
190.1802768688
  0
VERTEX
  8
0
 62
7
  6
CONTINUOUS
 10
144.182728926
 20
190.181632058
  0
VERTEX
  8
0
 62
7
  6
CONTINUOUS
 10
144.1728240552
 20
190.1823308887
  0
VERTEX
  8
0
 62
7
  6
CONTINUOUS
 10
144.1684713869
 20
190.1824180047
  0
SEQEND
  0
LINE
  8
0
 62
7
  6
CONTINUOUS
 10
144.3055045735
 20
190.1570477547
 11
144.2503050401
 21
190.1693493296
  0
LINE
  8
0
 62
7
  6
CONTINUOUS
 10
151.9854508197
 20
150.5023259485
 11
151.9854508197
 21
149.6024180328
  0
POLYLINE
  8
0
 62
7
  6
CONTINUOUS
 66
1
 70
0
  0
VERTEX
  8
0
 62
7
  6
CONTINUOUS
 10
151.985269949
 20
150.5017902625
  0
VERTEX
  8
0
 62
7
  6
CONTINUOUS
 10
151.9852394759
 20
150.5014486034
  0
VERTEX
  8
0
 62
7
  6
CONTINUOUS
 10
151.9851722986
 20
150.5008265207
  0
VERTEX
  8
0
 62
7
  6
CONTINUOUS
 10
151.9853521398
 20
150.501864443
  0
VERTEX
  8
0
 62
7
  6
CONTINUOUS
 10
151.985904379
 20
150.5044471521
  0
VERTEX
  8
0
 62
7
  6
CONTINUOUS
 10
151.9869412356
 20
150.5085136665
  0
VERTEX
  8
0
 62
7
  6
CONTINUOUS
 10
151.9885471176
 20
150.5139723882
  0
SEQEND
  0
LINE
  8
0
 62
7
  6
CONTINUOUS
 10
144.7647741379
 20
159.4668944547
 11
144.7913828842
 21
159.503145955
  0
LINE
  8
0
 62
7
  6
CONTINUOUS
 10
144.7913828842
 20
159.503145955
 11
144.8188545155
 21
159.5399630344
  0
LINE
  8
0
 62
7
  6
CONTINUOUS
 10
144.8188545155
 20
159.5399630344
 11
144.8470604178
 21
159.5772568993
  0
LINE
  8
0
 62
7
  6
CONTINUOUS
 10
144.8470604178
 20
159.5772568993
 11
144.8758798704
 21
159.6149413778
  0
LINE
  8
0
 62
7
  6
CONTINUOUS
 10
144.8758798704
 20
159.6149413778
 11
144.9200094053
 21
159.672015148
  0
LINE
  8
0
 62
7
  6
CONTINUOUS
 10
144.9200094053
 20
159.672015148
 11
144.9799533214
 21
159.7486884093
  0
LINE
  8
0
 62
7
  6
CONTINUOUS
 10
144.9799533214
 20
159.7486884093
 11
145.0854508197
 21
159.8824180328
  0
LINE
  8
0
 62
7
  6
CONTINUOUS
 10
127.3354508197
 20
200.1824180328
 11
118.7354508197
 21
200.1824180328
  0
LINE
  8
0
 62
7
  6
CONTINUOUS
 10
135.0354508197
 20
200.1824180328
 11
143.6354508197
 21
200.1824180328
  0
POLYLINE
  8
0
 62
7
  6
CONTINUOUS
 66
1
 70
0
  0
VERTEX
  8
0
 62
7
  6
CONTINUOUS
 10
151.9885471176
 20
150.5139723882
  0
VERTEX
  8
0
 62
7
  6
CONTINUOUS
 10
151.9908118336
 20
150.5208025632
  0
VERTEX
  8
0
 62
7
  6
CONTINUOUS
 10
151.9938039286
 20
150.5289469524
  0
VERTEX
  8
0
 62
7
  6
CONTINUOUS
 10
151.9976169379
 20
150.5384445558
  0
VERTEX
  8
0
 62
7
  6
CONTINUOUS
 10
152.0023251111
 20
150.5492936051
  0
VERTEX
  8
0
 62
7
  6
CONTINUOUS
 10
152.0080451109
 20
150.5615913374
  0
VERTEX
  8
0
 62
7
  6
CONTINUOUS
 10
152.0148835511
 20
150.5754110167
  0
VERTEX
  8
0
 62
7
  6
CONTINUOUS
 10
152.022962002
 20
150.5908661583
  0
VERTEX
  8
0
 62
7
  6
CONTINUOUS
 10
152.0323920038
 20
150.6080530638
  0
VERTEX
  8
0
 62
7
  6
CONTINUOUS
 10
152.0433263238
 20
150.6271498953
  0
VERTEX
  8
0
 62
7
  6
CONTINUOUS
 10
152.0559495548
 20
150.6484163469
  0
SEQEND
  0
LINE
  8
0
 62
7
  6
CONTINUOUS
 10
152.0559495548
 20
150.6484163469
 11
152.0575882863
 21
150.6511302814
  0
POLYLINE
  8
0
 62
7
  6
CONTINUOUS
 66
1
 70
0
  0
VERTEX
  8
0
 62
7
  6
CONTINUOUS
 10
169.9817160549
 20
151.5540186605
  0
VERTEX
  8
0
 62
7
  6
CONTINUOUS
 10
169.9829504523
 20
151.5283868876
  0
VERTEX
  8
0
 62
7
  6
CONTINUOUS
 10
169.9839189048
 20
151.5029442376
  0
VERTEX
  8
0
 62
7
  6
CONTINUOUS
 10
169.9846265616
 20
151.4776939243
  0
VERTEX
  8
0
 62
7
  6
CONTINUOUS
 10
169.9850579753
 20
151.4527032481
  0
VERTEX
  8
0
 62
7
  6
CONTINUOUS
 10
169.9852025952
 20
151.4280263972
  0
VERTEX
  8
0
 62
7
  6
CONTINUOUS
 10
169.9850508804
 20
151.4036945093
  0
VERTEX
  8
0
 62
7
  6
CONTINUOUS
 10
169.984592617
 20
151.3797455608
  0
VERTEX
  8
0
 62
7
  6
CONTINUOUS
 10
169.983819273
 20
151.3562048229
  0
VERTEX
  8
0
 62
7
  6
CONTINUOUS
 10
169.982721762
 20
151.3331009447
  0
VERTEX
  8
0
 62
7
  6
CONTINUOUS
 10
169.9812915336
 20
151.3104550163
  0
VERTEX
  8
0
 62
7
  6
CONTINUOUS
 10
169.9795200616
 20
151.2882897519
  0
VERTEX
  8
0
 62
7
  6
CONTINUOUS
 10
169.9773981864
 20
151.2666231082
  0
VERTEX
  8
0
 62
7
  6
CONTINUOUS
 10
169.9749172927
 20
151.2454737279
  0
VERTEX
  8
0
 62
7
  6
CONTINUOUS
 10
169.9720672219
 20
151.2248569717
  0
VERTEX
  8
0
 62
7
  6
CONTINUOUS
 10
169.968838767
 20
151.2047882503
  0
VERTEX
  8
0
 62
7
  6
CONTINUOUS
 10
169.9652204576
 20
151.1852810795
  0
VERTEX
  8
0
 62
7
  6
CONTINUOUS
 10
169.9612020861
 20
151.1663485989
  0
VERTEX
  8
0
 62
7
  6
CONTINUOUS
 10
169.9567706582
 20
151.1480023901
  0
VERTEX
  8
0
 62
7
  6
CONTINUOUS
 10
169.951914872
 20
151.1302534625
  0
VERTEX
  8
0
 62
7
  6
CONTINUOUS
 10
169.946619443
 20
151.1131117076
  0
VERTEX
  8
0
 62
7
  6
CONTINUOUS
 10
169.9408714775
 20
151.0965861575
  0
VERTEX
  8
0
 62
7
  6
CONTINUOUS
 10
169.9346525021
 20
151.0806853301
  0
VERTEX
  8
0
 62
7
  6
CONTINUOUS
 10
169.9279473184
 20
151.0654165265
  0
VERTEX
  8
0
 62
7
  6
CONTINUOUS
 10
169.9207332077
 20
151.0507870321
  0
VERTEX
  8
0
 62
7
  6
CONTINUOUS
 10
169.9129918802
 20
151.0368025259
  0
VERTEX
  8
0
 62
7
  6
CONTINUOUS
 10
169.9046948505
 20
151.0234691526
  0
VERTEX
  8
0
 62
7
  6
CONTINUOUS
 10
169.8958195459
 20
151.0107909843
  0
VERTEX
  8
0
 62
7
  6
CONTINUOUS
 10
169.8863299379
 20
150.9987730373
  0
VERTEX
  8
0
 62
7
  6
CONTINUOUS
 10
169.8761977454
 20
150.9874176027
  0
VERTEX
  8
0
 62
7
  6
CONTINUOUS
 10
169.8653771528
 20
150.9767287174
  0
VERTEX
  8
0
 62
7
  6
CONTINUOUS
 10
169.8538331773
 20
150.9667065878
  0
VERTEX
  8
0
 62
7
  6
CONTINUOUS
 10
169.841505039
 20
150.9573546738
  0
VERTEX
  8
0
 62
7
  6
CONTINUOUS
 10
169.828347933
 20
150.9486708937
  0
VERTEX
  8
0
 62
7
  6
CONTINUOUS
 10
169.814278951
 20
150.9406580667
  0
VERTEX
  8
0
 62
7
  6
CONTINUOUS
 10
169.7992389284
 20
150.9333108277
  0
VERTEX
  8
0
 62
7
  6
CONTINUOUS
 10
169.7831118284
 20
150.9266316826
  0
VERTEX
  8
0
 62
7
  6
CONTINUOUS
 10
169.7658170539
 20
150.9206105371
  0
VERTEX
  8
0
 62
7
  6
CONTINUOUS
 10
169.7471891215
 20
150.9152495339
  0
VERTEX
  8
0
 62
7
  6
CONTINUOUS
 10
169.7271149333
 20
150.910530984
  0
VERTEX
  8
0
 62
7
  6
CONTINUOUS
 10
169.7053567364
 20
150.9064561373
  0
VERTEX
  8
0
 62
7
  6
CONTINUOUS
 10
169.6817542898
 20
150.9029940639
  0
VERTEX
  8
0
 62
7
  6
CONTINUOUS
 10
169.6559619591
 20
150.9001448555
  0
VERTEX
  8
0
 62
7
  6
CONTINUOUS
 10
169.6275308153
 20
150.8978892158
  0
VERTEX
  8
0
 62
7
  6
CONTINUOUS
 10
169.5966105014
 20
150.8961241038
  0
SEQEND
  0
LINE
  8
0
 62
7
  6
CONTINUOUS
 10
172.4604508197
 20
187.1167260992
 11
172.4604508197
 21
153.8930326011
  0
POLYLINE
  8
0
 62
7
  6
CONTINUOUS
 66
1
 70
0
  0
VERTEX
  8
0
 62
7
  6
CONTINUOUS
 10
89.9104508197
 20
82.3672805721
  0
VERTEX
  8
0
 62
7
  6
CONTINUOUS
 10
89.9127027531
 20
82.2405878668
  0
VERTEX
  8
0
 62
7
  6
CONTINUOUS
 10
89.9192669609
 20
82.1203871942
  0
VERTEX
  8
0
 62
7
  6
CONTINUOUS
 10
89.930192022
 20
82.0065272402
  0
VERTEX
  8
0
 62
7
  6
CONTINUOUS
 10
89.945332199
 20
81.898725017
  0
VERTEX
  8
0
 62
7
  6
CONTINUOUS
 10
89.9645937935
 20
81.7967547951
  0
VERTEX
  8
0
 62
7
  6
CONTINUOUS
 10
89.9878692674
 20
81.7003028827
  0
VERTEX
  8
0
 62
7
  6
CONTINUOUS
 10
90.0150351683
 20
81.6091188757
  0
VERTEX
  8
0
 62
7
  6
CONTINUOUS
 10
90.0460455405
 20
81.5228327716
  0
VERTEX
  8
0
 62
7
  6
CONTINUOUS
 10
90.0808283963
 20
81.4410938024
  0
VERTEX
  8
0
 62
7
  6
CONTINUOUS
 10
90.1193383786
 20
81.3636814246
  0
VERTEX
  8
0
 62
7
  6
CONTINUOUS
 10
90.1615434877
 20
81.290307951
  0
VERTEX
  8
0
 62
7
  6
CONTINUOUS
 10
90.2073316637
 20
81.2208795226
  0
VERTEX
  8
0
 62
7
  6
CONTINUOUS
 10
90.2565830468
 20
81.155284963
  0
VERTEX
  8
0
 62
7
  6
CONTINUOUS
 10
90.3092890364
 20
81.0932923561
  0
VERTEX
  8
0
 62
7
  6
CONTINUOUS
 10
90.3654275823
 20
81.0346824279
  0
VERTEX
  8
0
 62
7
  6
CONTINUOUS
 10
90.4249191728
 20
80.9793500697
  0
VERTEX
  8
0
 62
7
  6
CONTINUOUS
 10
90.4876727575
 20
80.9271773412
  0
VERTEX
  8
0
 62
7
  6
CONTINUOUS
 10
90.5537009026
 20
80.8779967363
  0
VERTEX
  8
0
 62
7
  6
CONTINUOUS
 10
90.6230272061
 20
80.8316296538
  0
VERTEX
  8
0
 62
7
  6
CONTINUOUS
 10
90.6955275218
 20
80.7880228041
  0
VERTEX
  8
0
 62
7
  6
CONTINUOUS
 10
90.7710818377
 20
80.7471067312
  0
VERTEX
  8
0
 62
7
  6
CONTINUOUS
 10
90.8497013492
 20
80.7087487961
  0
VERTEX
  8
0
 62
7
  6
CONTINUOUS
 10
90.9314114612
 20
80.672814151
  0
VERTEX
  8
0
 62
7
  6
CONTINUOUS
 10
91.0160495341
 20
80.6392604509
  0
VERTEX
  8
0
 62
7
  6
CONTINUOUS
 10
91.1034681792
 20
80.6080339644
  0
VERTEX
  8
0
 62
7
  6
CONTINUOUS
 10
91.1936470498
 20
80.5790322968
  0
VERTEX
  8
0
 62
7
  6
CONTINUOUS
 10
91.2865780997
 20
80.5521563481
  0
VERTEX
  8
0
 62
7
  6
CONTINUOUS
 10
91.3820770392
 20
80.5273603362
  0
VERTEX
  8
0
 62
7
  6
CONTINUOUS
 10
91.4799832739
 20
80.5045938035
  0
VERTEX
  8
0
 62
7
  6
CONTINUOUS
 10
91.5802176717
 20
80.4837812138
  0
VERTEX
  8
0
 62
7
  6
CONTINUOUS
 10
91.6827229845
 20
80.4648522599
  0
VERTEX
  8
0
 62
7
  6
CONTINUOUS
 10
91.7872729658
 20
80.4477637281
  0
VERTEX
  8
0
 62
7
  6
CONTINUOUS
 10
91.8936422128
 20
80.4324783641
  0
VERTEX
  8
0
 62
7
  6
CONTINUOUS
 10
92.0017709469
 20
80.4189318668
  0
VERTEX
  8
0
 62
7
  6
CONTINUOUS
 10
92.111577807
 20
80.4070715656
  0
VERTEX
  8
0
 62
7
  6
CONTINUOUS
 10
92.2229021368
 20
80.3968616392
  0
VERTEX
  8
0
 62
7
  6
CONTINUOUS
 10
92.3356692262
 20
80.3882688173
  0
VERTEX
  8
0
 62
7
  6
CONTINUOUS
 10
92.4495398756
 20
80.3812721728
  0
VERTEX
  8
0
 62
7
  6
CONTINUOUS
 10
92.564250115
 20
80.3758639252
  0
VERTEX
  8
0
 62
7
  6
CONTINUOUS
 10
92.6794995457
 20
80.3720156776
  0
VERTEX
  8
0
 62
7
  6
CONTINUOUS
 10
92.7948512302
 20
80.3697195434
  0
VERTEX
  8
0
 62
7
  6
CONTINUOUS
 10
92.9104508143
 20
80.3689573978
  0
SEQEND
  0
LINE
  8
0
 62
7
  6
CONTINUOUS
 10
89.9104508197
 20
81.3864344262
 11
89.9104508197
 21
83.8664344262
  0
LINE
  8
0
 62
7
  6
CONTINUOUS
 10
110.3854508197
 20
84.3664344262
 11
110.3854508197
 21
93.0464326914
  0
LINE
  8
0
 62
7
  6
CONTINUOUS
 10
117.7854508197
 20
83.8664344262
 11
117.7854508197
 21
93.0464326915
  0
LINE
  8
0
 62
7
  6
CONTINUOUS
 10
118.2354508197
 20
80.3864344262
 11
118.2354508197
 21
93.0664326856
  0
POLYLINE
  8
0
 62
7
  6
CONTINUOUS
 66
1
 70
0
  0
VERTEX
  8
0
 62
7
  6
CONTINUOUS
 10
118.2354508197
 20
80.8849028897
  0
VERTEX
  8
0
 62
7
  6
CONTINUOUS
 10
118.2348478079
 20
80.8565105913
  0
VERTEX
  8
0
 62
7
  6
CONTINUOUS
 10
118.2330754578
 20
80.8286887497
  0
VERTEX
  8
0
 62
7
  6
CONTINUOUS
 10
118.2301302089
 20
80.8015179342
  0
VERTEX
  8
0
 62
7
  6
CONTINUOUS
 10
118.2260227427
 20
80.7749577
  0
VERTEX
  8
0
 62
7
  6
CONTINUOUS
 10
118.2207624015
 20
80.7489738911
  0
VERTEX
  8
0
 62
7
  6
CONTINUOUS
 10
118.2143496424
 20
80.7235894734
  0
VERTEX
  8
0
 62
7
  6
CONTINUOUS
 10
118.2067963734
 20
80.6988140029
  0
VERTEX
  8
0
 62
7
  6
CONTINUOUS
 10
118.1980775841
 20
80.6746266742
  0
VERTEX
  8
0
 62
7
  6
CONTINUOUS
 10
118.1881727134
 20
80.650981049
  0
VERTEX
  8
0
 62
7
  6
CONTINUOUS
 10
118.1770803215
 20
80.6279427366
  0
VERTEX
  8
0
 62
7
  6
CONTINUOUS
 10
118.1648013472
 20
80.6055500738
  0
VERTEX
  8
0
 62
7
  6
CONTINUOUS
 10
118.1513080939
 20
80.5838203794
  0
VERTEX
  8
0
 62
7
  6
CONTINUOUS
 10
118.1365650852
 20
80.5627464009
  0
VERTEX
  8
0
 62
7
  6
CONTINUOUS
 10
118.1205965992
 20
80.5424235442
  0
VERTEX
  8
0
 62
7
  6
CONTINUOUS
 10
118.1034134205
 20
80.522920271
  0
VERTEX
  8
0
 62
7
  6
CONTINUOUS
 10
118.0850205541
 20
80.5042890774
  0
VERTEX
  8
0
 62
7
  6
CONTINUOUS
 10
118.0653970658
 20
80.4865624823
  0
VERTEX
  8
0
 62
7
  6
CONTINUOUS
 10
118.0446315579
 20
80.469848372
  0
VERTEX
  8
0
 62
7
  6
CONTINUOUS
 10
118.0227855126
 20
80.4542408646
  0
VERTEX
  8
0
 62
7
  6
CONTINUOUS
 10
117.9999193549
 20
80.4397896956
  0
VERTEX
  8
0
 62
7
  6
CONTINUOUS
 10
117.9760669756
 20
80.426547977
  0
VERTEX
  8
0
 62
7
  6
CONTINUOUS
 10
117.951369459
 20
80.4145827362
  0
VERTEX
  8
0
 62
7
  6
CONTINUOUS
 10
117.9259550584
 20
80.4039724927
  0
VERTEX
  8
0
 62
7
  6
CONTINUOUS
 10
117.8998961578
 20
80.3947249135
  0
VERTEX
  8
0
 62
7
  6
CONTINUOUS
 10
117.873267714
 20
80.3868701433
  0
VERTEX
  8
0
 62
7
  6
CONTINUOUS
 10
117.8461902629
 20
80.3804213409
  0
VERTEX
  8
0
 62
7
  6
CONTINUOUS
 10
117.8187805943
 20
80.3754078609
  0
VERTEX
  8
0
 62
7
  6
CONTINUOUS
 10
117.7911249023
 20
80.3718220038
  0
VERTEX
  8
0
 62
7
  6
CONTINUOUS
 10
117.7633639512
 20
80.3696759544
  0
VERTEX
  8
0
 62
7
  6
CONTINUOUS
 10
117.7354508197
 20
80.3689573978
  0
SEQEND
  0
POLYLINE
  8
0
 62
7
  6
CONTINUOUS
 66
1
 70
0
  0
VERTEX
  8
0
 62
7
  6
CONTINUOUS
 10
91.9245235373
 20
80.1227047057
  0
VERTEX
  8
0
 62
7
  6
CONTINUOUS
 10
91.8259178545
 20
80.0884363509
  0
VERTEX
  8
0
 62
7
  6
CONTINUOUS
 10
91.7299153091
 20
80.0558111976
  0
VERTEX
  8
0
 62
7
  6
CONTINUOUS
 10
91.6369595098
 20
80.0254024399
  0
VERTEX
  8
0
 62
7
  6
CONTINUOUS
 10
91.5486176509
 20
79.9979429311
  0
VERTEX
  8
0
 62
7
  6
CONTINUOUS
 10
91.4643594621
 20
79.9734148814
  0
VERTEX
  8
0
 62
7
  6
CONTINUOUS
 10
91.384175917
 20
79.95193628
  0
VERTEX
  8
0
 62
7
  6
CONTINUOUS
 10
91.3080704787
 20
79.9335610898
  0
VERTEX
  8
0
 62
7
  6
CONTINUOUS
 10
91.2360436583
 20
79.9183223692
  0
VERTEX
  8
0
 62
7
  6
CONTINUOUS
 10
91.1680952857
 20
79.9061426323
  0
SEQEND
  0
POLYLINE
  8
0
 62
7
  6
CONTINUOUS
 66
1
 70
0
  0
VERTEX
  8
0
 62
7
  6
CONTINUOUS
 10
92.9104507403
 20
80.3689573978
  0
VERTEX
  8
0
 62
7
  6
CONTINUOUS
 10
92.8514656249
 20
80.3676865836
  0
VERTEX
  8
0
 62
7
  6
CONTINUOUS
 10
92.7906098859
 20
80.3634751817
  0
VERTEX
  8
0
 62
7
  6
CONTINUOUS
 10
92.7280512262
 20
80.3564111014
  0
VERTEX
  8
0
 62
7
  6
CONTINUOUS
 10
92.6632865372
 20
80.3463372212
  0
VERTEX
  8
0
 62
7
  6
CONTINUOUS
 10
92.5959499
 20
80.3331649244
  0
VERTEX
  8
0
 62
7
  6
CONTINUOUS
 10
92.5257974482
 20
80.3169155092
  0
VERTEX
  8
0
 62
7
  6
CONTINUOUS
 10
92.4526542078
 20
80.2976562681
  0
VERTEX
  8
0
 62
7
  6
CONTINUOUS
 10
92.3759475829
 20
80.2753617981
  0
VERTEX
  8
0
 62
7
  6
CONTINUOUS
 10
92.2952751057
 20
80.2501627755
  0
VERTEX
  8
0
 62
7
  6
CONTINUOUS
 10
92.2099514181
 20
80.2219929345
  0
VERTEX
  8
0
 62
7
  6
CONTINUOUS
 10
92.11835776
 20
80.1906190627
  0
VERTEX
  8
0
 62
7
  6
CONTINUOUS
 10
91.9245235373
 20
80.1227047057
  0
SEQEND
  0
LINE
  8
0
 62
7
  6
CONTINUOUS
 10
170.9604508197
 20
79.8864344262
 11
91.4104508197
 21
79.8864344262
  0
LINE
  8
0
 62
7
  6
CONTINUOUS
 10
134.0354508197
 20
80.3689573978
 11
128.3354508197
 21
80.3689573978
  0
LINE
  8
0
 62
7
  6
CONTINUOUS
 10
117.7354508197
 20
80.3689573978
 11
92.9104508143
 21
80.3689573978
  0
LINE
  8
0
 62
7
  6
CONTINUOUS
 10
144.6354508197
 20
80.3689573978
 11
169.4604508251
 21
80.3689573978
  0
POLYLINE
  8
0
 62
7
  6
CONTINUOUS
 66
1
 70
0
  0
VERTEX
  8
0
 62
7
  6
CONTINUOUS
 10
169.460450899
 20
80.3689573978
  0
VERTEX
  8
0
 62
7
  6
CONTINUOUS
 10
169.5194360144
 20
80.3676865836
  0
VERTEX
  8
0
 62
7
  6
CONTINUOUS
 10
169.5802917534
 20
80.3634751817
  0
VERTEX
  8
0
 62
7
  6
CONTINUOUS
 10
169.6428504131
 20
80.3564111014
  0
VERTEX
  8
0
 62
7
  6
CONTINUOUS
 10
169.7076151022
 20
80.3463372212
  0
VERTEX
  8
0
 62
7
  6
CONTINUOUS
 10
169.7749517394
 20
80.3331649244
  0
VERTEX
  8
0
 62
7
  6
CONTINUOUS
 10
169.8451041911
 20
80.3169155092
  0
VERTEX
  8
0
 62
7
  6
CONTINUOUS
 10
169.9182474315
 20
80.2976562681
  0
VERTEX
  8
0
 62
7
  6
CONTINUOUS
 10
169.9949540564
 20
80.2753617981
  0
VERTEX
  8
0
 62
7
  6
CONTINUOUS
 10
170.0756265337
 20
80.2501627755
  0
VERTEX
  8
0
 62
7
  6
CONTINUOUS
 10
170.1609502213
 20
80.2219929345
  0
VERTEX
  8
0
 62
7
  6
CONTINUOUS
 10
170.2525438794
 20
80.1906190627
  0
SEQEND
  0
POLYLINE
  8
0
 62
7
  6
CONTINUOUS
 66
1
 70
0
  0
VERTEX
  8
0
 62
7
  6
CONTINUOUS
 10
128.3354508197
 20
80.3689573978
  0
VERTEX
  8
0
 62
7
  6
CONTINUOUS
 10
128.3075376881
 20
80.3696759544
  0
VERTEX
  8
0
 62
7
  6
CONTINUOUS
 10
128.2797767371
 20
80.3718220038
  0
VERTEX
  8
0
 62
7
  6
CONTINUOUS
 10
128.252121045
 20
80.3754078609
  0
VERTEX
  8
0
 62
7
  6
CONTINUOUS
 10
128.2247113765
 20
80.3804213409
  0
VERTEX
  8
0
 62
7
  6
CONTINUOUS
 10
128.1976339253
 20
80.3868701433
  0
VERTEX
  8
0
 62
7
  6
CONTINUOUS
 10
128.1710054815
 20
80.3947249135
  0
VERTEX
  8
0
 62
7
  6
CONTINUOUS
 10
128.144946581
 20
80.4039724927
  0
VERTEX
  8
0
 62
7
  6
CONTINUOUS
 10
128.1195321803
 20
80.4145827362
  0
VERTEX
  8
0
 62
7
  6
CONTINUOUS
 10
128.0948346637
 20
80.426547977
  0
VERTEX
  8
0
 62
7
  6
CONTINUOUS
 10
128.0709822845
 20
80.4397896956
  0
VERTEX
  8
0
 62
7
  6
CONTINUOUS
 10
128.0481161267
 20
80.4542408646
  0
VERTEX
  8
0
 62
7
  6
CONTINUOUS
 10
128.0262700815
 20
80.469848372
  0
VERTEX
  8
0
 62
7
  6
CONTINUOUS
 10
128.0055045735
 20
80.4865624823
  0
VERTEX
  8
0
 62
7
  6
CONTINUOUS
 10
127.9858810853
 20
80.5042890774
  0
VERTEX
  8
0
 62
7
  6
CONTINUOUS
 10
127.9674882189
 20
80.522920271
  0
VERTEX
  8
0
 62
7
  6
CONTINUOUS
 10
127.9503050401
 20
80.5424235442
  0
VERTEX
  8
0
 62
7
  6
CONTINUOUS
 10
127.9343365542
 20
80.5627464009
  0
VERTEX
  8
0
 62
7
  6
CONTINUOUS
 10
127.9195935454
 20
80.5838203794
  0
VERTEX
  8
0
 62
7
  6
CONTINUOUS
 10
127.9061002921
 20
80.6055500738
  0
VERTEX
  8
0
 62
7
  6
CONTINUOUS
 10
127.8938213178
 20
80.6279427366
  0
VERTEX
  8
0
 62
7
  6
CONTINUOUS
 10
127.882728926
 20
80.650981049
  0
VERTEX
  8
0
 62
7
  6
CONTINUOUS
 10
127.8728240552
 20
80.6746266742
  0
VERTEX
  8
0
 62
7
  6
CONTINUOUS
 10
127.8641052659
 20
80.6988140029
  0
VERTEX
  8
0
 62
7
  6
CONTINUOUS
 10
127.8565519969
 20
80.7235894734
  0
VERTEX
  8
0
 62
7
  6
CONTINUOUS
 10
127.8501392378
 20
80.7489738911
  0
VERTEX
  8
0
 62
7
  6
CONTINUOUS
 10
127.8448788966
 20
80.7749577
  0
VERTEX
  8
0
 62
7
  6
CONTINUOUS
 10
127.8407714304
 20
80.8015179342
  0
VERTEX
  8
0
 62
7
  6
CONTINUOUS
 10
127.8378261815
 20
80.8286887497
  0
VERTEX
  8
0
 62
7
  6
CONTINUOUS
 10
127.8360538314
 20
80.8565105913
  0
VERTEX
  8
0
 62
7
  6
CONTINUOUS
 10
127.8354508197
 20
80.8849028897
  0
SEQEND
  0
POLYLINE
  8
0
 62
7
  6
CONTINUOUS
 66
1
 70
0
  0
VERTEX
  8
0
 62
7
  6
CONTINUOUS
 10
144.6354508197
 20
80.3689573978
  0
VERTEX
  8
0
 62
7
  6
CONTINUOUS
 10
144.6075376881
 20
80.3696759544
  0
VERTEX
  8
0
 62
7
  6
CONTINUOUS
 10
144.5797767371
 20
80.3718220038
  0
VERTEX
  8
0
 62
7
  6
CONTINUOUS
 10
144.552121045
 20
80.3754078609
  0
VERTEX
  8
0
 62
7
  6
CONTINUOUS
 10
144.5247113765
 20
80.3804213409
  0
VERTEX
  8
0
 62
7
  6
CONTINUOUS
 10
144.4976339253
 20
80.3868701433
  0
VERTEX
  8
0
 62
7
  6
CONTINUOUS
 10
144.4710054815
 20
80.3947249135
  0
VERTEX
  8
0
 62
7
  6
CONTINUOUS
 10
144.444946581
 20
80.4039724927
  0
VERTEX
  8
0
 62
7
  6
CONTINUOUS
 10
144.4195321803
 20
80.4145827362
  0
VERTEX
  8
0
 62
7
  6
CONTINUOUS
 10
144.3948346637
 20
80.426547977
  0
VERTEX
  8
0
 62
7
  6
CONTINUOUS
 10
144.3709822845
 20
80.4397896956
  0
VERTEX
  8
0
 62
7
  6
CONTINUOUS
 10
144.3481161267
 20
80.4542408646
  0
VERTEX
  8
0
 62
7
  6
CONTINUOUS
 10
144.3262700815
 20
80.469848372
  0
VERTEX
  8
0
 62
7
  6
CONTINUOUS
 10
144.3055045735
 20
80.4865624823
  0
VERTEX
  8
0
 62
7
  6
CONTINUOUS
 10
144.2858810853
 20
80.5042890774
  0
VERTEX
  8
0
 62
7
  6
CONTINUOUS
 10
144.2674882189
 20
80.522920271
  0
VERTEX
  8
0
 62
7
  6
CONTINUOUS
 10
144.2503050401
 20
80.5424235442
  0
VERTEX
  8
0
 62
7
  6
CONTINUOUS
 10
144.2343365542
 20
80.5627464009
  0
VERTEX
  8
0
 62
7
  6
CONTINUOUS
 10
144.2195935454
 20
80.5838203794
  0
VERTEX
  8
0
 62
7
  6
CONTINUOUS
 10
144.2061002921
 20
80.6055500738
  0
VERTEX
  8
0
 62
7
  6
CONTINUOUS
 10
144.1938213178
 20
80.6279427366
  0
VERTEX
  8
0
 62
7
  6
CONTINUOUS
 10
144.182728926
 20
80.650981049
  0
VERTEX
  8
0
 62
7
  6
CONTINUOUS
 10
144.1728240552
 20
80.6746266742
  0
VERTEX
  8
0
 62
7
  6
CONTINUOUS
 10
144.1641052659
 20
80.6988140029
  0
VERTEX
  8
0
 62
7
  6
CONTINUOUS
 10
144.1565519969
 20
80.7235894734
  0
VERTEX
  8
0
 62
7
  6
CONTINUOUS
 10
144.1501392378
 20
80.7489738911
  0
VERTEX
  8
0
 62
7
  6
CONTINUOUS
 10
144.1448788966
 20
80.7749577
  0
VERTEX
  8
0
 62
7
  6
CONTINUOUS
 10
144.1407714304
 20
80.8015179342
  0
VERTEX
  8
0
 62
7
  6
CONTINUOUS
 10
144.1378261815
 20
80.8286887497
  0
VERTEX
  8
0
 62
7
  6
CONTINUOUS
 10
144.1360538314
 20
80.8565105913
  0
VERTEX
  8
0
 62
7
  6
CONTINUOUS
 10
144.1354508197
 20
80.8849028897
  0
SEQEND
  0
LINE
  8
0
 62
7
  6
CONTINUOUS
 10
127.8354508197
 20
93.0664344262
 11
127.8354508197
 21
80.3864344262
  0
LINE
  8
0
 62
7
  6
CONTINUOUS
 10
172.4604508197
 20
83.8664344262
 11
144.1354508197
 21
83.8664344262
  0
LINE
  8
0
 62
7
  6
CONTINUOUS
 10
134.0354508197
 20
83.8664344262
 11
128.3354508197
 21
83.8664344262
  0
LINE
  8
0
 62
7
  6
CONTINUOUS
 10
118.2354508197
 20
83.8664344262
 11
89.9104508197
 21
83.8664344262
  0
LINE
  8
DEFAULT_1
 62
2
  6
CENTER
 10
131.1854508197
 20
77.8864344262
 11
131.1854508197
 21
96.1010785984
  0
LINE
  8
AXES
 62
2
  6
CENTER
 10
108.3854508197
 20
87.0664344262
 11
152.7854508197
 21
87.0664344262
  0
LINE
  8
0
 62
7
  6
CONTINUOUS
 10
134.5354508197
 20
80.3864344262
 11
134.5354508197
 21
93.0664344262
  0
POLYLINE
  8
0
 62
7
  6
CONTINUOUS
 66
1
 70
0
  0
VERTEX
  8
0
 62
7
  6
CONTINUOUS
 10
134.5354508197
 20
80.8849028897
  0
VERTEX
  8
0
 62
7
  6
CONTINUOUS
 10
134.5348478079
 20
80.8565105913
  0
VERTEX
  8
0
 62
7
  6
CONTINUOUS
 10
134.5330754578
 20
80.8286887497
  0
VERTEX
  8
0
 62
7
  6
CONTINUOUS
 10
134.5301302089
 20
80.8015179342
  0
VERTEX
  8
0
 62
7
  6
CONTINUOUS
 10
134.5260227427
 20
80.7749577
  0
VERTEX
  8
0
 62
7
  6
CONTINUOUS
 10
134.5207624015
 20
80.7489738911
  0
VERTEX
  8
0
 62
7
  6
CONTINUOUS
 10
134.5143496424
 20
80.7235894734
  0
VERTEX
  8
0
 62
7
  6
CONTINUOUS
 10
134.5067963734
 20
80.6988140029
  0
VERTEX
  8
0
 62
7
  6
CONTINUOUS
 10
134.4980775841
 20
80.6746266742
  0
VERTEX
  8
0
 62
7
  6
CONTINUOUS
 10
134.4881727134
 20
80.650981049
  0
VERTEX
  8
0
 62
7
  6
CONTINUOUS
 10
134.4770803215
 20
80.6279427366
  0
VERTEX
  8
0
 62
7
  6
CONTINUOUS
 10
134.4648013472
 20
80.6055500738
  0
VERTEX
  8
0
 62
7
  6
CONTINUOUS
 10
134.4513080939
 20
80.5838203794
  0
VERTEX
  8
0
 62
7
  6
CONTINUOUS
 10
134.4365650852
 20
80.5627464009
  0
VERTEX
  8
0
 62
7
  6
CONTINUOUS
 10
134.4205965992
 20
80.5424235442
  0
VERTEX
  8
0
 62
7
  6
CONTINUOUS
 10
134.4034134205
 20
80.522920271
  0
VERTEX
  8
0
 62
7
  6
CONTINUOUS
 10
134.3850205541
 20
80.5042890774
  0
VERTEX
  8
0
 62
7
  6
CONTINUOUS
 10
134.3653970658
 20
80.4865624823
  0
VERTEX
  8
0
 62
7
  6
CONTINUOUS
 10
134.3446315579
 20
80.469848372
  0
VERTEX
  8
0
 62
7
  6
CONTINUOUS
 10
134.3227855126
 20
80.4542408646
  0
VERTEX
  8
0
 62
7
  6
CONTINUOUS
 10
134.2999193549
 20
80.4397896956
  0
VERTEX
  8
0
 62
7
  6
CONTINUOUS
 10
134.2760669756
 20
80.426547977
  0
VERTEX
  8
0
 62
7
  6
CONTINUOUS
 10
134.251369459
 20
80.4145827362
  0
VERTEX
  8
0
 62
7
  6
CONTINUOUS
 10
134.2259550584
 20
80.4039724927
  0
VERTEX
  8
0
 62
7
  6
CONTINUOUS
 10
134.1998961578
 20
80.3947249135
  0
VERTEX
  8
0
 62
7
  6
CONTINUOUS
 10
134.173267714
 20
80.3868701433
  0
VERTEX
  8
0
 62
7
  6
CONTINUOUS
 10
134.1461902629
 20
80.3804213409
  0
VERTEX
  8
0
 62
7
  6
CONTINUOUS
 10
134.1187805943
 20
80.3754078609
  0
VERTEX
  8
0
 62
7
  6
CONTINUOUS
 10
134.0911249023
 20
80.3718220038
  0
VERTEX
  8
0
 62
7
  6
CONTINUOUS
 10
134.0633639512
 20
80.3696759544
  0
VERTEX
  8
0
 62
7
  6
CONTINUOUS
 10
134.0354508197
 20
80.3689573978
  0
SEQEND
  0
LINE
  8
0
 62
7
  6
CONTINUOUS
 10
151.4854508197
 20
93.5464344262
 11
145.0854508197
 21
93.5464344262
  0
LINE
  8
0
 62
7
  6
CONTINUOUS
 10
117.2854508197
 20
93.5464344262
 11
110.8854508197
 21
93.5464344262
  0
LINE
  8
0
 62
7
  6
CONTINUOUS
 10
118.7354508197
 20
93.5664344262
 11
143.6354508197
 21
93.5664344262
  0
POLYLINE
  8
0
 62
7
  6
CONTINUOUS
 66
1
 70
0
  0
VERTEX
  8
0
 62
7
  6
CONTINUOUS
 10
170.2525438794
 20
80.1906190627
  0
VERTEX
  8
0
 62
7
  6
CONTINUOUS
 10
170.446378102
 20
80.1227047057
  0
VERTEX
  8
0
 62
7
  6
CONTINUOUS
 10
170.5449837849
 20
80.0884363509
  0
VERTEX
  8
0
 62
7
  6
CONTINUOUS
 10
170.6409863302
 20
80.0558111976
  0
VERTEX
  8
0
 62
7
  6
CONTINUOUS
 10
170.7339421296
 20
80.0254024399
  0
VERTEX
  8
0
 62
7
  6
CONTINUOUS
 10
170.8222839885
 20
79.9979429311
  0
VERTEX
  8
0
 62
7
  6
CONTINUOUS
 10
170.9065421772
 20
79.9734148814
  0
VERTEX
  8
0
 62
7
  6
CONTINUOUS
 10
170.9867257224
 20
79.95193628
  0
VERTEX
  8
0
 62
7
  6
CONTINUOUS
 10
171.0628311607
 20
79.9335610898
  0
VERTEX
  8
0
 62
7
  6
CONTINUOUS
 10
171.134857981
 20
79.9183223692
  0
VERTEX
  8
0
 62
7
  6
CONTINUOUS
 10
171.2028063537
 20
79.9061426323
  0
SEQEND
  0
LINE
  8
0
 62
7
  6
CONTINUOUS
 10
144.1354508197
 20
93.0664326856
 11
144.1354508197
 21
80.3864344262
  0
LINE
  8
0
 62
7
  6
CONTINUOUS
 10
144.5854508197
 20
83.8664344262
 11
144.5854508197
 21
93.0464326914
  0
LINE
  8
0
 62
7
  6
CONTINUOUS
 10
151.9854508197
 20
93.0464326914
 11
151.9854508197
 21
84.3664344262
  0
LINE
  8
0
 62
7
  6
CONTINUOUS
 10
172.4604508197
 20
81.3864344262
 11
172.4604508197
 21
83.8664344262
  0
POLYLINE
  8
0
 62
7
  6
CONTINUOUS
 66
1
 70
0
  0
VERTEX
  8
0
 62
7
  6
CONTINUOUS
 10
172.4604508197
 20
82.3672805721
  0
VERTEX
  8
0
 62
7
  6
CONTINUOUS
 10
172.4581988862
 20
82.2405878668
  0
VERTEX
  8
0
 62
7
  6
CONTINUOUS
 10
172.4516346785
 20
82.1203871942
  0
VERTEX
  8
0
 62
7
  6
CONTINUOUS
 10
172.4407096173
 20
82.0065272402
  0
VERTEX
  8
0
 62
7
  6
CONTINUOUS
 10
172.4255694403
 20
81.898725017
  0
VERTEX
  8
0
 62
7
  6
CONTINUOUS
 10
172.4063078458
 20
81.7967547951
  0
VERTEX
  8
0
 62
7
  6
CONTINUOUS
 10
172.383032372
 20
81.7003028827
  0
VERTEX
  8
0
 62
7
  6
CONTINUOUS
 10
172.355866471
 20
81.6091188757
  0
VERTEX
  8
0
 62
7
  6
CONTINUOUS
 10
172.3248560989
 20
81.5228327716
  0
VERTEX
  8
0
 62
7
  6
CONTINUOUS
 10
172.2900732431
 20
81.4410938024
  0
VERTEX
  8
0
 62
7
  6
CONTINUOUS
 10
172.2515632608
 20
81.3636814246
  0
VERTEX
  8
0
 62
7
  6
CONTINUOUS
 10
172.2093581516
 20
81.290307951
  0
VERTEX
  8
0
 62
7
  6
CONTINUOUS
 10
172.1635699757
 20
81.2208795226
  0
VERTEX
  8
0
 62
7
  6
CONTINUOUS
 10
172.1143185925
 20
81.155284963
  0
VERTEX
  8
0
 62
7
  6
CONTINUOUS
 10
172.061612603
 20
81.0932923561
  0
VERTEX
  8
0
 62
7
  6
CONTINUOUS
 10
172.0054740571
 20
81.0346824279
  0
VERTEX
  8
0
 62
7
  6
CONTINUOUS
 10
171.9459824665
 20
80.9793500697
  0
VERTEX
  8
0
 62
7
  6
CONTINUOUS
 10
171.8832288818
 20
80.9271773412
  0
VERTEX
  8
0
 62
7
  6
CONTINUOUS
 10
171.8172007367
 20
80.8779967363
  0
VERTEX
  8
0
 62
7
  6
CONTINUOUS
 10
171.7478744332
 20
80.8316296538
  0
VERTEX
  8
0
 62
7
  6
CONTINUOUS
 10
171.6753741175
 20
80.7880228041
  0
VERTEX
  8
0
 62
7
  6
CONTINUOUS
 10
171.5998198017
 20
80.7471067312
  0
VERTEX
  8
0
 62
7
  6
CONTINUOUS
 10
171.5212002901
 20
80.7087487961
  0
VERTEX
  8
0
 62
7
  6
CONTINUOUS
 10
171.4394901782
 20
80.672814151
  0
VERTEX
  8
0
 62
7
  6
CONTINUOUS
 10
171.3548521052
 20
80.6392604509
  0
VERTEX
  8
0
 62
7
  6
CONTINUOUS
 10
171.2674334602
 20
80.6080339644
  0
VERTEX
  8
0
 62
7
  6
CONTINUOUS
 10
171.1772545895
 20
80.5790322968
  0
VERTEX
  8
0
 62
7
  6
CONTINUOUS
 10
171.0843235396
 20
80.5521563481
  0
VERTEX
  8
0
 62
7
  6
CONTINUOUS
 10
170.9888246001
 20
80.5273603362
  0
VERTEX
  8
0
 62
7
  6
CONTINUOUS
 10
170.8909183654
 20
80.5045938035
  0
VERTEX
  8
0
 62
7
  6
CONTINUOUS
 10
170.7906839676
 20
80.4837812138
  0
VERTEX
  8
0
 62
7
  6
CONTINUOUS
 10
170.6881786549
 20
80.4648522599
  0
VERTEX
  8
0
 62
7
  6
CONTINUOUS
 10
170.5836286736
 20
80.4477637281
  0
VERTEX
  8
0
 62
7
  6
CONTINUOUS
 10
170.4772594265
 20
80.4324783641
  0
VERTEX
  8
0
 62
7
  6
CONTINUOUS
 10
170.3691306924
 20
80.4189318668
  0
VERTEX
  8
0
 62
7
  6
CONTINUOUS
 10
170.2593238323
 20
80.4070715656
  0
VERTEX
  8
0
 62
7
  6
CONTINUOUS
 10
170.1479995025
 20
80.3968616392
  0
VERTEX
  8
0
 62
7
  6
CONTINUOUS
 10
170.0352324132
 20
80.3882688173
  0
VERTEX
  8
0
 62
7
  6
CONTINUOUS
 10
169.9213617638
 20
80.3812721728
  0
VERTEX
  8
0
 62
7
  6
CONTINUOUS
 10
169.8066515243
 20
80.3758639252
  0
VERTEX
  8
0
 62
7
  6
CONTINUOUS
 10
169.6914020936
 20
80.3720156776
  0
VERTEX
  8
0
 62
7
  6
CONTINUOUS
 10
169.5760504092
 20
80.3697195434
  0
VERTEX
  8
0
 62
7
  6
CONTINUOUS
 10
169.4604508251
 20
80.3689573978
  0
SEQEND
  0
LINE
  8
0
 62
7
  6
CONTINUOUS
 10
262.5257786885
 20
149.1024180328
 11
263.2257786885
 21
149.1024180328
  0
LINE
  8
0
 62
7
  6
CONTINUOUS
 10
266.9926690068
 20
150.8930326011
 11
266.923266521
 21
150.8930326011
  0
LINE
  8
AXES
 62
2
  6
CENTER
 10
267.7757786885
 20
155.5824180328
 11
267.7007786885
 21
155.5824180328
  0
LINE
  8
AXES
 62
2
  6
CONTINUOUS
 10
263.5757786885
 20
155.5824180328
 11
261.4757786885
 21
155.5824180328
  0
LINE
  8
0
 62
7
  6
CONTINUOUS
 10
256.0457786885
 20
155.5824180328
 11
256.0257786885
 21
155.5824180328
  0
LINE
  8
AXES
 62
2
  6
CENTER
 10
257.2757786885
 20
155.5824180328
 11
257.3507786885
 21
155.5824180328
  0
LINE
  8
0
 62
7
  6
CONTINUOUS
 10
264.7257786885
 20
162.0624180328
 11
262.5257786885
 21
162.0624180328
  0
LINE
  8
0
 62
7
  6
CONTINUOUS
 10
256.0257786885
 20
155.5824180328
 11
256.0257786885
 21
193.6824180328
  0
POLYLINE
  8
0
 62
7
  6
CONTINUOUS
 66
1
 70
0
  0
VERTEX
  8
0
 62
7
  6
CONTINUOUS
 10
268.8783756185
 20
188.0811603839
  0
VERTEX
  8
0
 62
7
  6
CONTINUOUS
 10
268.924172076
 20
188.149077466
  0
VERTEX
  8
0
 62
7
  6
CONTINUOUS
 10
268.9694243525
 20
188.2167096474
  0
VERTEX
  8
0
 62
7
  6
CONTINUOUS
 10
269.014079352
 20
188.2840280923
  0
VERTEX
  8
0
 62
7
  6
CONTINUOUS
 10
269.0580863592
 20
188.351002019
  0
VERTEX
  8
0
 62
7
  6
CONTINUOUS
 10
269.1013880164
 20
188.417601952
  0
VERTEX
  8
0
 62
7
  6
CONTINUOUS
 10
269.1439290547
 20
188.483795137
  0
VERTEX
  8
0
 62
7
  6
CONTINUOUS
 10
269.1856465379
 20
188.549550816
  0
VERTEX
  8
0
 62
7
  6
CONTINUOUS
 10
269.2264793163
 20
188.6148335249
  0
VERTEX
  8
0
 62
7
  6
CONTINUOUS
 10
269.266357339
 20
188.6796105481
  0
VERTEX
  8
0
 62
7
  6
CONTINUOUS
 10
269.3052119743
 20
188.7438428815
  0
VERTEX
  8
0
 62
7
  6
CONTINUOUS
 10
269.3429642994
 20
188.8074952366
  0
VERTEX
  8
0
 62
7
  6
CONTINUOUS
 10
269.3795360066
 20
188.8705237511
  0
VERTEX
  8
0
 62
7
  6
CONTINUOUS
 10
269.4148370687
 20
188.932889657
  0
VERTEX
  8
0
 62
7
  6
CONTINUOUS
 10
269.448776638
 20
188.9945423816
  0
VERTEX
  8
0
 62
7
  6
CONTINUOUS
 10
269.4812506096
 20
189.0554380321
  0
VERTEX
  8
0
 62
7
  6
CONTINUOUS
 10
269.5121525402
 20
189.1155177998
  0
VERTEX
  8
0
 62
7
  6
CONTINUOUS
 10
269.5413611237
 20
189.1747314465
  0
VERTEX
  8
0
 62
7
  6
CONTINUOUS
 10
269.5687501965
 20
189.2330093675
  0
VERTEX
  8
0
 62
7
  6
CONTINUOUS
 10
269.5941773336
 20
189.2902928511
  0
VERTEX
  8
0
 62
7
  6
CONTINUOUS
 10
269.6174921362
 20
189.3464989807
  0
VERTEX
  8
0
 62
7
  6
CONTINUOUS
 10
269.6385268376
 20
189.4015581386
  0
VERTEX
  8
0
 62
7
  6
CONTINUOUS
 10
269.6571021195
 20
189.4553717165
  0
VERTEX
  8
0
 62
7
  6
CONTINUOUS
 10
269.673029548
 20
189.5078026735
  0
VERTEX
  8
0
 62
7
  6
CONTINUOUS
 10
269.6860704824
 20
189.5588966897
  0
SEQEND
  0
LINE
  8
0
 62
7
  6
CONTINUOUS
 10
268.7853420094
 20
187.9445888075
 11
268.8783756185
 21
188.0811603839
  0
LINE
  8
0
 62
7
  6
CONTINUOUS
 10
268.6907022247
 20
187.8072254534
 11
268.7853420094
 21
187.9445888075
  0
LINE
  8
0
 62
7
  6
CONTINUOUS
 10
268.5948175417
 20
187.6692992489
 11
268.6907022247
 21
187.8072254534
  0
LINE
  8
0
 62
7
  6
CONTINUOUS
 10
268.4494209174
 20
187.4618638847
 11
268.5948175417
 21
187.6692992489
  0
POLYLINE
  8
0
 62
7
  6
CONTINUOUS
 66
1
 70
0
  0
VERTEX
  8
0
 62
7
  6
CONTINUOUS
 10
268.2057786885
 20
187.1167260992
  0
VERTEX
  8
0
 62
7
  6
CONTINUOUS
 10
268.2544327146
 20
187.1855609761
  0
VERTEX
  8
0
 62
7
  6
CONTINUOUS
 10
268.4494209174
 20
187.4618638847
  0
SEQEND
  0
LINE
  8
DEFAULT_1
 62
2
  6
CENTER
 10
262.5257786885
 20
198.9324180328
 11
262.5257786885
 21
195.6825180328
  0
LINE
  8
0
 62
2
  6
CONTINUOUS
 10
262.5257786885
 20
194.7324180328
 11
262.5257786885
 21
192.6324180328
  0
LINE
  8
AXES
 62
2
  6
CENTER
 10
262.5257786885
 20
160.8324180328
 11
262.5257786885
 21
160.7574180328
  0
LINE
  8
AXES
 62
2
  6
CONTINUOUS
 10
262.5257786885
 20
156.6324180328
 11
262.5257786885
 21
154.5324180328
  0
LINE
  8
AXES
 62
2
  6
CENTER
 10
262.5257786885
 20
150.3324180328
 11
262.5257786885
 21
150.4074180328
  0
LINE
  8
DEFAULT_1
 62
2
  6
CENTER
 10
262.5257786885
 20
188.4324180328
 11
262.5257786885
 21
191.6823180328
  0
LINE
  8
DEFAULT_1
 62
2
  6
CENTER
 10
253.4911345164
 20
174.6324180328
 11
271.7057786885
 21
174.6324180328
  0
LINE
  8
0
 62
7
  6
CONTINUOUS
 10
265.7257786885
 20
186.1824180328
 11
265.7257786885
 21
159.377151225
  0
LINE
  8
0
 62
7
  6
CONTINUOUS
 10
269.7057786885
 20
155.5824180328
 11
269.7057786885
 21
193.6824180328
  0
LINE
  8
0
 62
7
  6
CONTINUOUS
 10
262.5257786885
 20
187.1824180328
 11
264.7257786885
 21
187.1824180328
  0
LINE
  8
DEFAULT_1
 62
2
  6
CENTER
 10
267.7757786885
 20
193.6824180328
 11
264.5258786885
 21
193.6824180328
  0
LINE
  8
0
 62
2
  6
CONTINUOUS
 10
263.5757786885
 20
193.6824180328
 11
261.4757786885
 21
193.6824180328
  0
LINE
  8
DEFAULT_1
 62
2
  6
CENTER
 10
257.2757786885
 20
193.6824180328
 11
260.5256786885
 21
193.6824180328
  0
LINE
  8
0
 62
7
  6
CONTINUOUS
 10
263.2057786885
 20
200.1824180328
 11
262.5257786885
 21
200.1824180328
  0
ARC
  8
0
 62
7
  6
CONTINUOUS
 10
92.9104508197
 20
153.8930326011
 40
3.0
 50
180.0
 51
270.0
  0
ARC
  8
0
 62
7
  6
CONTINUOUS
 10
92.9104508197
 20
187.1167260992
 40
3.0
 50
90.0
 51
180.0
  0
ARC
  8
0
 62
7
  6
CONTINUOUS
 10
169.4604508197
 20
153.8930326011
 40
3.0
 50
270.0
 51
360.0
  0
ARC
  8
0
 62
7
  6
CONTINUOUS
 10
169.4604508197
 20
187.1167260992
 40
3.0
 50
0.0
 51
90.0
  0
ARC
  8
0
 62
7
  6
CONTINUOUS
 10
109.8854508197
 20
150.3924180328
 40
0.5
 50
31.0507663167
 51
90.0
  0
ARC
  8
0
 62
7
  6
CONTINUOUS
 10
152.4854508197
 20
150.3924180328
 40
0.5
 50
90.0
 51
148.9483564507
  0
ARC
  8
0
 62
7
  6
CONTINUOUS
 10
143.6354508197
 20
199.6824180328
 40
0.5
 50
0.0
 51
90.0
  0
ARC
  8
0
 62
7
  6
CONTINUOUS
 10
110.8854508197
 20
149.6024180328
 40
0.5
 50
180.0
 51
270.0
  0
ARC
  8
0
 62
7
  6
CONTINUOUS
 10
118.7354508197
 20
199.6824180328
 40
0.5
 50
90.0
 51
180.0
  0
ARC
  8
0
 62
7
  6
CONTINUOUS
 10
151.4854508197
 20
149.6024180328
 40
0.5
 50
270.0
 51
360.0
  0
ARC
  8
0
 62
7
  6
CONTINUOUS
 10
128.7854508197
 20
149.6024180328
 40
0.5
 50
180.0
 51
270.0
  0
ARC
  8
0
 62
7
  6
CONTINUOUS
 10
117.2854508197
 20
149.6024180328
 40
0.5
 50
270.0
 51
360.0
  0
ARC
  8
0
 62
7
  6
CONTINUOUS
 10
145.0854508197
 20
149.6024180328
 40
0.5
 50
180.0
 51
270.0
  0
ARC
  8
0
 62
7
  6
CONTINUOUS
 10
135.0354508197
 20
199.6824180328
 40
0.5
 50
90.0
 51
180.0
  0
ARC
  8
0
 62
7
  6
CONTINUOUS
 10
133.5854508197
 20
149.6024180328
 40
0.5
 50
270.0
 51
360.0
  0
ARC
  8
0
 62
7
  6
CONTINUOUS
 10
127.3354508197
 20
199.6824180328
 40
0.5
 50
0.0
 51
90.0
  0
ARC
  8
0
 62
7
  6
CONTINUOUS
 10
91.4104508197
 20
81.3864344262
 40
1.5
 50
180.0
 51
270.0
  0
ARC
  8
0
 62
7
  6
CONTINUOUS
 10
170.9604508197
 20
81.3864344262
 40
1.5
 50
270.0
 51
360.0
  0
ARC
  8
0
 62
7
  6
CONTINUOUS
 10
110.8854508197
 20
93.0464344262
 40
0.5
 50
90.0
 51
180.000000016
  0
ARC
  8
0
 62
7
  6
CONTINUOUS
 10
151.4854508197
 20
93.0464344262
 40
0.5
 50
0.0
 51
90.0
  0
ARC
  8
0
 62
7
  6
CONTINUOUS
 10
117.2854508197
 20
93.0464344262
 40
0.5
 50
0.0
 51
90.0
  0
ARC
  8
0
 62
7
  6
CONTINUOUS
 10
145.0854508197
 20
93.0464344262
 40
0.5
 50
90.0
 51
180.000000016
  0
ARC
  8
0
 62
7
  6
CONTINUOUS
 10
118.7354508197
 20
93.0664344262
 40
0.5
 50
90.0
 51
180.0000000159
  0
ARC
  8
0
 62
7
  6
CONTINUOUS
 10
143.6354508197
 20
93.0664344262
 40
0.5
 50
0.0
 51
90.0
  0
ARC
  8
0
 62
7
  6
CONTINUOUS
 10
118.7354508197
 20
80.3864344262
 40
0.5
 50
180.0
 51
270.0
  0
ARC
  8
0
 62
7
  6
CONTINUOUS
 10
143.6354508197
 20
80.3864344262
 40
0.5
 50
270.0
 51
360.0
  0
ARC
  8
0
 62
7
  6
CONTINUOUS
 10
134.0354508197
 20
84.3664344262
 40
0.5
 50
270.0
 51
360.0
  0
ARC
  8
0
 62
7
  6
CONTINUOUS
 10
128.3354508197
 20
84.3664344262
 40
0.5
 50
180.0
 51
270.0
  0
ARC
  8
0
 62
7
  6
CONTINUOUS
 10
135.0354508197
 20
80.3864344262
 40
0.5
 50
180.0
 51
270.0
  0
ARC
  8
0
 62
7
  6
CONTINUOUS
 10
135.0354508197
 20
93.0664344262
 40
0.5
 50
90.0
 51
180.0
  0
ARC
  8
0
 62
7
  6
CONTINUOUS
 10
127.3354508197
 20
93.0664344262
 40
0.5
 50
0.0
 51
90.0
  0
ARC
  8
0
 62
7
  6
CONTINUOUS
 10
127.3354508197
 20
80.3864344262
 40
0.5
 50
270.0
 51
360.0
  0
ARC
  8
0
 62
7
  6
CONTINUOUS
 10
109.8854508197
 20
84.3664344262
 40
0.5
 50
270.0
 51
360.0
  0
ARC
  8
0
 62
7
  6
CONTINUOUS
 10
152.4854508197
 20
84.3664344262
 40
0.5
 50
180.0
 51
270.0
  0
ARC
  8
0
 62
7
  6
CONTINUOUS
 10
263.2257786885
 20
155.5824180328
 40
6.48
 50
270.0
 51
360.0
  0
ARC
  8
0
 62
7
  6
CONTINUOUS
 10
262.5257786885
 20
155.5824180328
 40
6.48
 50
90.0
 51
270.0
  0
ARC
  8
0
 62
7
  6
CONTINUOUS
 10
262.5257786885
 20
155.5824180328
 40
4.8
 50
320.0687087334
 51
45.7241782885
  0
CIRCLE
  8
AXES
 62
7
  6
CONTINUOUS
 10
262.5257786885
 20
155.5824180328
 40
3.175
  0
CIRCLE
  8
AXES
 62
7
  6
CONTINUOUS
 10
262.5257786885
 20
155.5824180328
 40
2.5
  0
ARC
  8
0
 62
7
  6
CONTINUOUS
 10
264.7257786885
 20
163.0624180328
 40
1.0
 50
270.0
 51
360.0
  0
ARC
  8
0
 62
7
  6
CONTINUOUS
 10
262.5257786885
 20
192.4124180328
 40
7.08
 50
299.2175258536
 51
341.0798407932
  0
ARC
  8
0
 62
7
  6
CONTINUOUS
 10
263.2057786885
 20
193.6824180328
 40
6.5
 50
0.0
 51
90.0
  0
ARC
  8
0
 62
7
  6
CONTINUOUS
 10
262.5257786885
 20
193.6824180328
 40
6.5
 50
90.0
 51
270.0
  0
CIRCLE
  8
AXES
 62
7
  6
CONTINUOUS
 10
262.5257786885
 20
193.6824180328
 40
3.25
  0
ARC
  8
0
 62
7
  6
CONTINUOUS
 10
264.7257786885
 20
186.1824180328
 40
1.0
 50
0.0
 51
90.0
  0
ARC
  8
0
 62
7
  6
CONTINUOUS
 10
266.9307025017
 20
152.6419351577
 40
1.75
 50
272.0292352955
 51
321.5620613728
  0
ARC
  8
0
 62
7
  6
CONTINUOUS
 10
266.9579677639
 20
151.8724180328
 40
0.98
 50
140.0687087334
 51
267.970764817
  0
ARC
  8
0
 62
7
  6
CONTINUOUS
 10
266.2257786885
 20
159.377151225
 40
0.5
 50
180.0
 51
225.7241782885
  0
ARC
  8
0
 62
7
  6
CONTINUOUS
 10
268.9057786885
 20
189.3824180328
 40
0.8
 50
0.0
 51
104.3642555028
  0
ARC
  8
0
 62
7
  6
CONTINUOUS
 10
266.2257786885
 20
185.7968001478
 40
0.5
 50
119.2175258536
 51
180.0
  0
ENDSEC
  0
EOF
