  0
SECTION
  2
HEADER
  9
$EXTMAX
 10
420.0
 20
297.0
 30
0.0
  9
$EXTMIN
 10
0.0
 20
0.0
 30
0.0
  9
$LIMMIN
 10
0.0
 20
0.0
  9
$LIMMAX
 10
420.0
 20
297.0
  9
$VIEWCTR
 10
210.0
 20
148.5
  9
$VIEWSIZE
 40
297.0
  9
$CLAYER
  8
0
  9
$LTSCALE
 40
23.1
  9
$CELTYPE
  6
BYLAYER
  9
$DIMSCALE
 40
1.0
  9
$DIMASZ
 40
3.5
  9
$DIMEXO
 40
1.0
  9
$DIMDLI
 40
15.96
  9
$DIMEXE
 40
2.0
  9
$DIMCEN
 40
3.78
  9
$DIMLFAC
 40
1.0
  9
$DIMBLK
  1
_FILLED
  9
$DIMTXT
 40
3.5
  9
$PDMODE
 70
3
  9
$PDSIZE
 40
0.3125
  9
$TILEMODE
 70
1
  0
ENDSEC
  0
SECTION
  2
TABLES
  0
TABLE
  2
LTYPE
 70
6
  0
LTYPE
  2
BYBLOCK
 70
0
  3

 72
65
 73
0
 40
0.0
  0
LTYPE
  2
BYLAYER
 70
0
  3

 72
65
 73
0
 40
0.0
  0
LTYPE
  2
CONTINUOUS
 70
64
  3
Solid line
 72
65
 73
0
 40
0.0
  0
LTYPE
  2
CENTER
 70
64
  3
____ _ ____ _ ____ _ ____ _ ____ _ ____ _ ____
 72
65
 73
4
 40
0.6
 49
0.375
 49
-0.075
 49
0.075
 49
-0.075
  0
LTYPE
  2
HIDDEN
 70
64
  3
- - - - - - - - - - - - - - - - - - - -
 72
65
 73
2
 40
0.2
 49
0.1
 49
-0.1
  0
LTYPE
  2
PHANTOM
 70
64
  3
_____ _ _ _____ _ _ _____ _ _ _____
 72
65
 73
6
 40
0.8
 49
0.45
 49
-0.05
 49
0.1
 49
-0.05
 49
0.1
 49
-0.05
  0
LTYPE
  2
DOT
 70
64
  3
. . . . . . . . . . . . . . . . . . . .
 72
65
 73
2
 40
0.2
 49
0.1
 49
-0.1
  0
LTYPE
  2
DASHED
 70
64
  3
- - - - - - - - - - - - - - - - - - - -
 72
65
 73
2
 40
0.2
 49
0.1
 49
-0.1
  0
ENDTAB
  0
TABLE
  2
LAYER
 70
36
  0
LAYER
  2
0
 70
0
 62
7
  6
CONTINUOUS
  0
LAYER
  2
DEFAULT_1
 70
0
 62
7
  6
CENTER
  0
LAYER
  2
DEFAULT_2
 70
0
 62
8
  6
HIDDEN
  0
LAYER
  2
DEFAULT_3
 70
0
 62
7
  6
PHANTOM
  0
LAYER
  2
1_DATUM_PLANE
 70
0
 62
7
  6
CONTINUOUS
  0
LAYER
  2
AXES
 70
0
 62
7
  6
CONTINUOUS
  0
LAYER
  2
PLANES
 70
0
 62
7
  6
CONTINUOUS
  0
ENDTAB
  0
TABLE
  2
STYLE
 70
1
  0
STYLE
  2
STANDARD
 70
0
 40
0.0
 41
0.8
 50
0.0
 71
0
 42
0.2
  3
txt
  4

  0
STYLE
  2
TEXTSTYLE_1
 70
0
 40
0.0
 41
0.8
 50
0.0
 71
0
 42
0.2
  3
gdt
  4

  0
STYLE
  2
TEXTSTYLE_2
 70
0
 40
0.0
 41
0.6
 50
0.0
 71
0
 42
0.2
  3
txt
  4

  0
STYLE
  2
TEXTSTYLE_3
 70
0
 40
0.0
 41
1.0
 50
0.0
 71
0
 42
0.2
  3
ftb_____.ttf
  4

  0
STYLE
  2
TEXTSTYLE_4
 70
0
 40
0.0
 41
1.0
 50
0.0
 71
0
 42
0.2
  3
fti_____.ttf
  4

  0
STYLE
  2
TEXTSTYLE_5
 70
0
 40
0.0
 41
1.0
 50
0.0
 71
0
 42
0.2
  3
frutiger light.ttf
  4

  0
STYLE
  2
TEXTSTYLE_6
 70
0
 40
0.0
 41
0.7
 50
0.0
 71
0
 42
0.2
  3
txt
  4

  0
STYLE
  2
TEXTSTYLE_7
 70
0
 40
0.0
 41
0.8
 50
0.0
 71
0
 42
0.2
  3
txt
  4

  0
ENDTAB
  0
ENDSEC
  0
SECTION
  2
BLOCKS
  0
BLOCK
  8
0
 62
2
  6
CONTINUOUS
  2
SYMBOL_5_BL1
 70
64
 10
382.3920721743
 20
35.81661148
  0
TEXT
  8
0
 62
7
  6
CONTINUOUS
 10
373.4503571828
 20
30.9093678571
  7
TEXTSTYLE_4
 40
1.0655737705
  1
The brand for plastic modular belts and chains
 41
1.0
 72
0
  0
LINE
  8
0
 62
7
  6
CONTINUOUS
 10
358.3701405634
 20
36.3903819718
 11
358.3701405634
 21
34.2592344308
  0
LINE
  8
0
 62
7
  6
CONTINUOUS
 10
358.6592030565
 20
31.2683031351
 11
358.6592030565
 21
31.3650941944
  0
LINE
  8
0
 62
7
  6
CONTINUOUS
 10
358.3701405634
 20
31.332830508
 11
358.4279530651
 21
31.1392483894
  0
LINE
  8
0
 62
7
  6
CONTINUOUS
 10
359.7635831863
 20
34.1772672177
 11
359.7635831863
 21
36.3903819718
  0
LINE
  8
0
 62
7
  6
CONTINUOUS
 10
360.6826405082
 20
32.3330049227
 11
360.6826405082
 21
30.81661148
  0
LINE
  8
0
 62
7
  6
CONTINUOUS
 10
360.9717030634
 20
30.81661148
 11
360.9717030634
 21
31.5586763581
  0
LINE
  8
0
 62
7
  6
CONTINUOUS
 10
360.9717030634
 20
31.6877311038
 11
360.9717030634
 21
32.3330049227
  0
LINE
  8
0
 62
7
  6
CONTINUOUS
 10
358.4279530651
 20
31.5264126717
 11
358.3701405634
 21
31.332830508
  0
LINE
  8
0
 62
7
  6
CONTINUOUS
 10
358.7748280496
 20
31.106984703
 11
358.6592030565
 21
31.2683031351
  0
LINE
  8
0
 62
7
  6
CONTINUOUS
 10
359.8732656185
 20
31.623203731
 11
359.9310780634
 21
31.5264126717
  0
LINE
  8
0
 62
7
  6
CONTINUOUS
 10
360.2201406185
 20
31.5264126717
 11
360.1623280082
 21
31.6554674174
  0
LINE
  8
0
 62
7
  6
CONTINUOUS
 10
361.648829088
 20
36.3903819718
 11
361.648829088
 21
34.5871032833
  0
LINE
  8
0
 62
7
  6
CONTINUOUS
 10
361.648829088
 20
33.2756278735
 11
361.648829088
 21
32.6198901686
  0
LINE
  8
0
 62
7
  6
CONTINUOUS
 10
362.0123280634
 20
31.4618852989
 11
362.0123280634
 21
30.81661148
  0
LINE
  8
0
 62
7
  6
CONTINUOUS
 10
362.3013904531
 20
30.81661148
 11
362.3013904531
 21
31.4618852989
  0
LINE
  8
0
 62
7
  6
CONTINUOUS
 10
358.6592030565
 20
31.3650941944
 11
358.7170155634
 21
31.4941489853
  0
LINE
  8
0
 62
7
  6
CONTINUOUS
 10
358.4279530651
 20
31.1392483894
 11
358.5435780634
 21
31.0101936212
  0
LINE
  8
0
 62
7
  6
CONTINUOUS
 10
361.9545154531
 20
31.5909400446
 11
362.0123280634
 21
31.4618852989
  0
LINE
  8
0
 62
7
  6
CONTINUOUS
 10
362.7638906736
 20
31.106984703
 11
362.8217029531
 21
30.9779299347
  0
LINE
  8
0
 62
7
  6
CONTINUOUS
 10
362.3013904531
 20
31.4618852989
 11
362.2435781736
 21
31.623203731
  0
LINE
  8
0
 62
7
  6
CONTINUOUS
 10
362.7638906736
 20
31.6554674174
 11
362.7638906736
 21
31.5909400446
  0
LINE
  8
0
 62
7
  6
CONTINUOUS
 10
362.7638906736
 20
31.2037757623
 11
362.7638906736
 21
31.106984703
  0
LINE
  8
0
 62
7
  6
CONTINUOUS
 10
363.0422717109
 20
32.6198901686
 11
363.0422717109
 21
36.3903819718
  0
LINE
  8
0
 62
7
  6
CONTINUOUS
 10
363.0529530634
 20
31.074720994
 11
363.0529530634
 21
31.1392483894
  0
LINE
  8
0
 62
7
  6
CONTINUOUS
 10
363.3701405634
 20
36.3903819718
 11
363.3701405634
 21
32.6198901686
  0
LINE
  8
0
 62
7
  6
CONTINUOUS
 10
360.1623280082
 20
31.0101936212
 11
360.2201406185
 21
31.1392483894
  0
LINE
  8
0
 62
7
  6
CONTINUOUS
 10
364.5560782839
 20
30.9134025506
 11
364.4982653428
 21
31.074720994
  0
LINE
  8
0
 62
7
  6
CONTINUOUS
 10
364.2092032839
 20
31.5909400446
 11
364.2092032839
 21
31.4941489853
  0
LINE
  8
0
 62
7
  6
CONTINUOUS
 10
364.2092032839
 20
31.3650941944
 11
364.2092032839
 21
31.1715120759
  0
LINE
  8
0
 62
7
  6
CONTINUOUS
 10
364.4982653428
 20
31.074720994
 11
364.4982653428
 21
31.5909400446
  0
LINE
  8
0
 62
7
  6
CONTINUOUS
 10
364.7635831863
 20
32.6198901686
 11
364.7635831863
 21
34.4231688571
  0
LINE
  8
0
 62
7
  6
CONTINUOUS
 10
364.7635831863
 20
35.7346442669
 11
364.7635831863
 21
36.3903819718
  0
LINE
  8
0
 62
7
  6
CONTINUOUS
 10
365.0763907839
 20
32.3330049227
 11
365.0763907839
 21
32.1716864905
  0
LINE
  8
0
 62
7
  6
CONTINUOUS
 10
365.0763907839
 20
31.8490495359
 11
365.0763907839
 21
30.81661148
  0
LINE
  8
0
 62
7
  6
CONTINUOUS
 10
365.3654528428
 20
30.81661148
 11
365.3654528428
 21
31.8490495359
  0
LINE
  8
0
 62
7
  6
CONTINUOUS
 10
365.3654528428
 20
32.1716864905
 11
365.3654528428
 21
32.3330049227
  0
LINE
  8
0
 62
7
  6
CONTINUOUS
 10
359.9310780634
 20
31.1392483894
 11
359.8732656185
 21
31.0424573076
  0
LINE
  8
0
 62
7
  6
CONTINUOUS
 10
362.2435781736
 20
31.623203731
 11
362.1857655634
 21
31.6877311038
  0
LINE
  8
0
 62
7
  6
CONTINUOUS
 10
363.1107656736
 20
31.0101936212
 11
363.0529530634
 21
31.074720994
  0
LINE
  8
0
 62
7
  6
CONTINUOUS
 10
364.2670155634
 20
30.8811388585
 11
364.3248278428
 21
30.81661148
  0
LINE
  8
0
 62
7
  6
CONTINUOUS
 10
364.2092032839
 20
30.9779299347
 11
364.2670155634
 21
30.8811388585
  0
LINE
  8
0
 62
7
  6
CONTINUOUS
 10
364.6138905634
 20
30.81661148
 11
364.5560782839
 21
30.9134025506
  0
LINE
  8
0
 62
7
  6
CONTINUOUS
 10
364.4982653428
 20
31.5909400446
 11
364.4404530634
 21
31.6877311038
  0
LINE
  8
0
 62
7
  6
CONTINUOUS
 10
365.8279530634
 20
31.8490495359
 11
365.8279530634
 21
30.81661148
  0
LINE
  8
0
 62
7
  6
CONTINUOUS
 10
366.1170157839
 20
30.81661148
 11
366.1170157839
 21
31.5586763581
  0
LINE
  8
0
 62
7
  6
CONTINUOUS
 10
366.1170157839
 20
31.6877311038
 11
366.1170157839
 21
31.8490495359
  0
LINE
  8
0
 62
7
  6
CONTINUOUS
 10
366.648829088
 20
34.8330049227
 11
366.648829088
 21
32.6198901686
  0
LINE
  8
0
 62
7
  6
CONTINUOUS
 10
358.5435780634
 20
31.6554674174
 11
358.4279530651
 21
31.5264126717
  0
LINE
  8
0
 62
7
  6
CONTINUOUS
 10
358.7170155634
 20
31.4941489853
 11
358.7748280496
 21
31.5586763581
  0
LINE
  8
0
 62
7
  6
CONTINUOUS
 10
358.5435780634
 20
31.0101936212
 11
358.6592030565
 21
30.945666237
  0
LINE
  8
0
 62
7
  6
CONTINUOUS
 10
358.9482655496
 20
31.0101936212
 11
358.7748280496
 21
31.106984703
  0
LINE
  8
0
 62
7
  6
CONTINUOUS
 10
364.1513903428
 20
31.6554674174
 11
364.2092032839
 21
31.5909400446
  0
LINE
  8
0
 62
7
  6
CONTINUOUS
 10
367.0998278428
 20
31.5909400446
 11
367.1576407839
 21
31.4296216124
  0
LINE
  8
0
 62
7
  6
CONTINUOUS
 10
367.4467028428
 20
31.4296216124
 11
367.3888905634
 21
31.5909400446
  0
LINE
  8
0
 62
7
  6
CONTINUOUS
 10
367.1576407839
 20
31.4296216124
 11
367.1576407839
 21
30.81661148
  0
LINE
  8
0
 62
7
  6
CONTINUOUS
 10
367.4467028428
 20
30.81661148
 11
367.4467028428
 21
31.4296216124
  0
LINE
  8
0
 62
7
  6
CONTINUOUS
 10
367.9092030634
 20
31.6554674174
 11
367.9092030634
 21
31.5909400446
  0
LINE
  8
0
 62
7
  6
CONTINUOUS
 10
368.0422717109
 20
32.6198901686
 11
368.0422717109
 21
34.7510377095
  0
LINE
  8
0
 62
7
  6
CONTINUOUS
 10
368.3701405634
 20
36.3903819718
 11
368.3701405634
 21
32.6198901686
  0
LINE
  8
0
 62
7
  6
CONTINUOUS
 10
363.0529530634
 20
31.1392483894
 11
363.1107656736
 21
31.2360394487
  0
LINE
  8
0
 62
7
  6
CONTINUOUS
 10
358.6592030565
 20
30.945666237
 11
358.8326405772
 21
30.8811388585
  0
LINE
  8
0
 62
7
  6
CONTINUOUS
 10
360.1623280082
 20
31.6554674174
 11
359.9888905082
 21
31.7522584767
  0
LINE
  8
0
 62
7
  6
CONTINUOUS
 10
362.8217029531
 20
30.9779299347
 11
362.9951404531
 21
30.8811388585
  0
LINE
  8
0
 62
7
  6
CONTINUOUS
 10
361.8388905634
 20
31.6554674174
 11
361.9545154531
 21
31.5909400446
  0
LINE
  8
0
 62
7
  6
CONTINUOUS
 10
362.1857655634
 20
31.6877311038
 11
362.0701406736
 21
31.7522584767
  0
LINE
  8
0
 62
7
  6
CONTINUOUS
 10
367.9092030634
 20
31.074720994
 11
368.0248282839
 21
30.945666237
  0
LINE
  8
0
 62
7
  6
CONTINUOUS
 10
368.2560780634
 20
31.0101936212
 11
368.1982657839
 21
31.074720994
  0
LINE
  8
0
 62
7
  6
CONTINUOUS
 10
367.9092030634
 20
31.5909400446
 11
368.0248282839
 21
31.4618852989
  0
LINE
  8
0
 62
7
  6
CONTINUOUS
 10
367.3888905634
 20
31.5909400446
 11
367.3310782839
 21
31.6877311038
  0
LINE
  8
0
 62
7
  6
CONTINUOUS
 10
369.7592026223
 20
31.0101936212
 11
369.7592026223
 21
31.074720994
  0
LINE
  8
0
 62
7
  6
CONTINUOUS
 10
369.7635831863
 20
32.6198901686
 11
369.7635831863
 21
36.3903819718
  0
LINE
  8
0
 62
7
  6
CONTINUOUS
 10
362.8217029531
 20
31.7199947902
 11
362.7638906736
 21
31.6554674174
  0
LINE
  8
0
 62
7
  6
CONTINUOUS
 10
359.6998280358
 20
31.6877311038
 11
359.8732656185
 21
31.623203731
  0
LINE
  8
0
 62
7
  6
CONTINUOUS
 10
364.4404530634
 20
31.6877311038
 11
364.3248278428
 21
31.7522584767
  0
LINE
  8
0
 62
7
  6
CONTINUOUS
 10
368.2560780634
 20
31.5264126717
 11
368.1982657839
 21
31.5909400446
  0
LINE
  8
0
 62
7
  6
CONTINUOUS
 10
369.4123282839
 20
31.1392483894
 11
369.4701405634
 21
31.074720994
  0
LINE
  8
0
 62
7
  6
CONTINUOUS
 10
369.7592026223
 20
31.074720994
 11
369.6435780634
 21
31.2037757623
  0
LINE
  8
0
 62
7
  6
CONTINUOUS
 10
369.4123282839
 20
31.6554674174
 11
369.4701405634
 21
31.5909400446
  0
LINE
  8
0
 62
7
  6
CONTINUOUS
 10
369.7592026223
 20
31.5909400446
 11
369.6435780634
 21
31.7199947902
  0
LINE
  8
0
 62
7
  6
CONTINUOUS
 10
363.0529530634
 20
31.5909400446
 11
363.1107656736
 21
31.6554674174
  0
LINE
  8
0
 62
7
  6
CONTINUOUS
 10
362.8795155634
 20
31.332830508
 11
362.7638906736
 21
31.2037757623
  0
LINE
  8
0
 62
7
  6
CONTINUOUS
 10
364.2092032839
 20
31.1715120759
 11
364.1513903428
 21
31.106984703
  0
LINE
  8
0
 62
7
  6
CONTINUOUS
 10
364.1513903428
 20
30.9134025506
 11
364.2092032839
 21
30.9779299347
  0
LINE
  8
0
 62
7
  6
CONTINUOUS
 10
362.9951404531
 20
30.8811388585
 11
363.1107656736
 21
30.8488751693
  0
LINE
  8
0
 62
7
  6
CONTINUOUS
 10
359.9888905082
 20
31.7522584767
 11
359.7576405634
 21
31.8167858495
  0
LINE
  8
0
 62
7
  6
CONTINUOUS
 10
363.3420154531
 20
30.945666237
 11
363.1107656736
 21
31.0101936212
  0
LINE
  8
0
 62
7
  6
CONTINUOUS
 10
362.0701406736
 20
31.7522584767
 11
361.8967031736
 21
31.8167858495
  0
LINE
  8
0
 62
7
  6
CONTINUOUS
 10
364.3248278428
 20
31.7522584767
 11
364.1513903428
 21
31.8167858495
  0
LINE
  8
0
 62
7
  6
CONTINUOUS
 10
366.9842032839
 20
31.6554674174
 11
367.0998278428
 21
31.5909400446
  0
LINE
  8
0
 62
7
  6
CONTINUOUS
 10
367.3310782839
 20
31.6877311038
 11
367.2154530634
 21
31.7522584767
  0
LINE
  8
0
 62
7
  6
CONTINUOUS
 10
358.8326405772
 20
30.8811388585
 11
359.0060780772
 21
30.8488751693
  0
LINE
  8
0
 62
7
  6
CONTINUOUS
 10
359.2951405909
 20
30.945666237
 11
358.9482655496
 21
31.0101936212
  0
LINE
  8
0
 62
7
  6
CONTINUOUS
 10
361.7232656736
 20
31.6877311038
 11
361.8388905634
 21
31.6554674174
  0
LINE
  8
0
 62
7
  6
CONTINUOUS
 10
364.0357657839
 20
31.6877311038
 11
364.1513903428
 21
31.6554674174
  0
LINE
  8
0
 62
7
  6
CONTINUOUS
 10
368.3717032839
 20
30.9779299347
 11
368.2560780634
 21
31.0101936212
  0
LINE
  8
0
 62
7
  6
CONTINUOUS
 10
366.8685780634
 20
31.6877311038
 11
366.9842032839
 21
31.6554674174
  0
LINE
  8
0
 62
7
  6
CONTINUOUS
 10
368.0248282839
 20
30.945666237
 11
368.1982657839
 21
30.8811388585
  0
LINE
  8
0
 62
7
  6
CONTINUOUS
 10
367.2154530634
 20
31.7522584767
 11
367.0420155634
 21
31.8167858495
  0
LINE
  8
0
 62
7
  6
CONTINUOUS
 10
368.4295155634
 20
31.4618852989
 11
368.2560780634
 21
31.5264126717
  0
LINE
  8
0
 62
7
  6
CONTINUOUS
 10
369.2388907839
 20
31.2037757623
 11
369.4123282839
 21
31.1392483894
  0
LINE
  8
0
 62
7
  6
CONTINUOUS
 10
369.6435780634
 20
31.7199947902
 11
369.4701405634
 21
31.7845221631
  0
LINE
  8
0
 62
7
  6
CONTINUOUS
 10
368.0248282839
 20
31.4618852989
 11
368.2560780634
 21
31.3650941944
  0
LINE
  8
0
 62
7
  6
CONTINUOUS
 10
369.6435780634
 20
31.2037757623
 11
369.4123282839
 21
31.3005668216
  0
LINE
  8
0
 62
7
  6
CONTINUOUS
 10
368.1982657839
 20
31.5909400446
 11
368.2560780634
 21
31.6554674174
  0
LINE
  8
0
 62
7
  6
CONTINUOUS
 10
358.6592030565
 20
31.7199947902
 11
358.5435780634
 21
31.6554674174
  0
LINE
  8
0
 62
7
  6
CONTINUOUS
 10
358.7748280496
 20
31.5586763581
 11
358.9482655496
 21
31.6554674174
  0
LINE
  8
0
 62
7
  6
CONTINUOUS
 10
361.0873281185
 20
31.7522584767
 11
360.9717030634
 21
31.6877311038
  0
LINE
  8
0
 62
7
  6
CONTINUOUS
 10
360.9717030634
 20
31.5586763581
 11
361.0873281185
 21
31.623203731
  0
LINE
  8
0
 62
7
  6
CONTINUOUS
 10
359.9888905082
 20
30.9134025506
 11
360.1623280082
 21
31.0101936212
  0
LINE
  8
0
 62
7
  6
CONTINUOUS
 10
359.0060780772
 20
30.8488751693
 11
359.3529530358
 21
30.81661148
  0
LINE
  8
0
 62
7
  6
CONTINUOUS
 10
363.1107656736
 20
30.8488751693
 11
363.3420154531
 21
30.81661148
  0
LINE
  8
0
 62
7
  6
CONTINUOUS
 10
361.4920155634
 20
31.7199947902
 11
361.7232656736
 21
31.6877311038
  0
LINE
  8
0
 62
7
  6
CONTINUOUS
 10
363.8045156736
 20
31.7199947902
 11
364.0357657839
 21
31.6877311038
  0
LINE
  8
0
 62
7
  6
CONTINUOUS
 10
368.2560780634
 20
31.3650941944
 11
369.2388907839
 21
31.2037757623
  0
LINE
  8
0
 62
7
  6
CONTINUOUS
 10
369.4123282839
 20
31.3005668216
 11
368.4295155634
 21
31.4618852989
  0
LINE
  8
0
 62
7
  6
CONTINUOUS
 10
361.8967031736
 20
31.8167858495
 11
361.7232656736
 21
31.8490495359
  0
LINE
  8
0
 62
7
  6
CONTINUOUS
 10
368.1982657839
 20
30.8811388585
 11
368.3717032839
 21
30.8488751693
  0
LINE
  8
0
 62
7
  6
CONTINUOUS
 10
367.0420155634
 20
31.8167858495
 11
366.8685780634
 21
31.8490495359
  0
LINE
  8
0
 62
7
  6
CONTINUOUS
 10
369.2967030634
 20
31.6877311038
 11
369.4123282839
 21
31.6554674174
  0
LINE
  8
0
 62
7
  6
CONTINUOUS
 10
369.4701405634
 20
31.074720994
 11
369.4123282839
 21
31.0101936212
  0
LINE
  8
0
 62
7
  6
CONTINUOUS
 10
368.0248282839
 20
31.7522584767
 11
367.9092030634
 21
31.6554674174
  0
LINE
  8
0
 62
7
  6
CONTINUOUS
 10
362.9373281736
 20
31.7845221631
 11
362.8217029531
 21
31.7199947902
  0
LINE
  8
0
 62
7
  6
CONTINUOUS
 10
362.9951404531
 20
31.397357926
 11
362.8795155634
 21
31.332830508
  0
LINE
  8
0
 62
7
  6
CONTINUOUS
 10
363.1107656736
 20
31.2360394487
 11
363.2263905634
 21
31.3005668216
  0
LINE
  8
0
 62
7
  6
CONTINUOUS
 10
360.6826405082
 20
30.81661148
 11
360.9717030634
 21
30.81661148
  0
LINE
  8
0
 62
7
  6
CONTINUOUS
 10
362.0123280634
 20
30.81661148
 11
362.3013904531
 21
30.81661148
  0
LINE
  8
0
 62
7
  6
CONTINUOUS
 10
363.3420154531
 20
30.81661148
 11
363.6888904531
 21
30.81661148
  0
LINE
  8
0
 62
7
  6
CONTINUOUS
 10
364.3248278428
 20
30.81661148
 11
364.6138905634
 21
30.81661148
  0
LINE
  8
0
 62
7
  6
CONTINUOUS
 10
365.0763907839
 20
30.81661148
 11
365.3654528428
 21
30.81661148
  0
LINE
  8
0
 62
7
  6
CONTINUOUS
 10
365.8279530634
 20
30.81661148
 11
366.1170157839
 21
30.81661148
  0
LINE
  8
0
 62
7
  6
CONTINUOUS
 10
367.1576407839
 20
30.81661148
 11
367.4467028428
 21
30.81661148
  0
LINE
  8
0
 62
7
  6
CONTINUOUS
 10
368.7185782839
 20
30.81661148
 11
369.0654532839
 21
30.81661148
  0
LINE
  8
0
 62
7
  6
CONTINUOUS
 10
369.0654532839
 20
30.945666237
 11
368.7185782839
 21
30.945666237
  0
LINE
  8
0
 62
7
  6
CONTINUOUS
 10
363.6888904531
 20
30.945666237
 11
363.3420154531
 21
30.945666237
  0
LINE
  8
0
 62
7
  6
CONTINUOUS
 10
368.1982657839
 20
31.074720994
 11
367.9092030634
 21
31.074720994
  0
LINE
  8
0
 62
7
  6
CONTINUOUS
 10
360.2201406185
 20
31.1392483894
 11
359.9310780634
 21
31.1392483894
  0
LINE
  8
0
 62
7
  6
CONTINUOUS
 10
359.2951405909
 20
31.7199947902
 11
359.6998280358
 21
31.6877311038
  0
LINE
  8
0
 62
7
  6
CONTINUOUS
 10
359.7576405634
 20
31.8167858495
 11
359.3529530358
 21
31.8490495359
  0
LINE
  8
0
 62
7
  6
CONTINUOUS
 10
368.3717032839
 20
30.8488751693
 11
368.7185782839
 21
30.81661148
  0
LINE
  8
0
 62
7
  6
CONTINUOUS
 10
368.7185782839
 20
30.945666237
 11
368.3717032839
 21
30.9779299347
  0
LINE
  8
0
 62
7
  6
CONTINUOUS
 10
364.1513903428
 20
31.8167858495
 11
363.8045156736
 21
31.8490495359
  0
LINE
  8
0
 62
7
  6
CONTINUOUS
 10
368.9498280634
 20
31.7199947902
 11
369.2967030634
 21
31.6877311038
  0
LINE
  8
0
 62
7
  6
CONTINUOUS
 10
369.2967030634
 20
31.8167858495
 11
368.9498280634
 21
31.8490495359
  0
LINE
  8
0
 62
7
  6
CONTINUOUS
 10
366.6373282839
 20
31.7199947902
 11
366.8685780634
 21
31.6877311038
  0
LINE
  8
0
 62
7
  6
CONTINUOUS
 10
369.4701405634
 20
31.7845221631
 11
369.2967030634
 21
31.8167858495
  0
LINE
  8
0
 62
7
  6
CONTINUOUS
 10
369.6435780634
 20
30.9134025506
 11
369.7592026223
 21
31.0101936212
  0
LINE
  8
0
 62
7
  6
CONTINUOUS
 10
364.1513903428
 20
31.106984703
 11
363.9779528428
 21
31.0101936212
  0
LINE
  8
0
 62
7
  6
CONTINUOUS
 10
366.2326403428
 20
31.7522584767
 11
366.1170157839
 21
31.6877311038
  0
LINE
  8
0
 62
7
  6
CONTINUOUS
 10
366.1170157839
 20
31.5586763581
 11
366.2326403428
 21
31.623203731
  0
LINE
  8
0
 62
7
  6
CONTINUOUS
 10
358.8326405772
 20
31.7845221631
 11
358.6592030565
 21
31.7199947902
  0
LINE
  8
0
 62
7
  6
CONTINUOUS
 10
361.2607654531
 20
31.8167858495
 11
361.0873281185
 21
31.7522584767
  0
LINE
  8
0
 62
7
  6
CONTINUOUS
 10
361.0873281185
 20
31.623203731
 11
361.2607654531
 21
31.6877311038
  0
LINE
  8
0
 62
7
  6
CONTINUOUS
 10
359.8732656185
 20
31.0424573076
 11
359.6998280358
 21
30.9779299347
  0
LINE
  8
0
 62
7
  6
CONTINUOUS
 10
369.2967030634
 20
30.9779299347
 11
369.0654532839
 21
30.945666237
  0
LINE
  8
0
 62
7
  6
CONTINUOUS
 10
363.6888904531
 20
30.81661148
 11
363.9779528428
 21
30.8488751693
  0
LINE
  8
0
 62
7
  6
CONTINUOUS
 10
369.0654532839
 20
30.81661148
 11
369.4123282839
 21
30.8488751693
  0
LINE
  8
0
 62
7
  6
CONTINUOUS
 10
359.3529530358
 20
30.81661148
 11
359.7576405634
 21
30.8488751693
  0
LINE
  8
0
 62
7
  6
CONTINUOUS
 10
359.6998280358
 20
30.9779299347
 11
359.2951405909
 21
30.945666237
  0
LINE
  8
0
 62
7
  6
CONTINUOUS
 10
363.5732655634
 20
31.3650941944
 11
364.2092032839
 21
31.3650941944
  0
LINE
  8
0
 62
7
  6
CONTINUOUS
 10
364.2092032839
 20
31.4941489853
 11
363.5732655634
 21
31.4941489853
  0
LINE
  8
0
 62
7
  6
CONTINUOUS
 10
359.9310780634
 20
31.5264126717
 11
360.2201406185
 21
31.5264126717
  0
LINE
  8
0
 62
7
  6
CONTINUOUS
 10
362.7638906736
 20
31.5909400446
 11
363.0529530634
 21
31.5909400446
  0
LINE
  8
0
 62
7
  6
CONTINUOUS
 10
369.4701405634
 20
31.5909400446
 11
369.7592026223
 21
31.5909400446
  0
LINE
  8
0
 62
7
  6
CONTINUOUS
 10
363.4576406736
 20
31.7199947902
 11
363.8045156736
 21
31.7199947902
  0
LINE
  8
0
 62
7
  6
CONTINUOUS
 10
368.6029530634
 20
31.7199947902
 11
368.9498280634
 21
31.7199947902
  0
LINE
  8
0
 62
7
  6
CONTINUOUS
 10
368.9498280634
 20
31.8490495359
 11
368.6029530634
 21
31.8490495359
  0
LINE
  8
0
 62
7
  6
CONTINUOUS
 10
366.8685780634
 20
31.8490495359
 11
366.6373282839
 21
31.8490495359
  0
LINE
  8
0
 62
7
  6
CONTINUOUS
 10
366.1170157839
 20
31.8490495359
 11
365.8279530634
 21
31.8490495359
  0
LINE
  8
0
 62
7
  6
CONTINUOUS
 10
365.3654528428
 20
31.8490495359
 11
365.0763907839
 21
31.8490495359
  0
LINE
  8
0
 62
7
  6
CONTINUOUS
 10
363.8045156736
 20
31.8490495359
 11
363.4576406736
 21
31.8490495359
  0
LINE
  8
0
 62
7
  6
CONTINUOUS
 10
361.7232656736
 20
31.8490495359
 11
361.4920155634
 21
31.8490495359
  0
LINE
  8
0
 62
7
  6
CONTINUOUS
 10
365.0763907839
 20
32.1716864905
 11
365.3654528428
 21
32.1716864905
  0
LINE
  8
0
 62
7
  6
CONTINUOUS
 10
365.3654528428
 20
32.3330049227
 11
365.0763907839
 21
32.3330049227
  0
LINE
  8
0
 62
7
  6
CONTINUOUS
 10
360.9717030634
 20
32.3330049227
 11
360.6826405082
 21
32.3330049227
  0
LINE
  8
0
 62
7
  6
CONTINUOUS
 10
360.0094848257
 20
32.6198901686
 11
360.4220561743
 21
32.6198901686
  0
LINE
  8
0
 62
7
  6
CONTINUOUS
 10
361.648829088
 20
32.6198901686
 11
363.0422717109
 21
32.6198901686
  0
LINE
  8
0
 62
7
  6
CONTINUOUS
 10
363.3701405634
 20
32.6198901686
 11
364.7635831863
 21
32.6198901686
  0
LINE
  8
0
 62
7
  6
CONTINUOUS
 10
366.648829088
 20
32.6198901686
 11
368.0422717109
 21
32.6198901686
  0
LINE
  8
0
 62
7
  6
CONTINUOUS
 10
368.3701405634
 20
32.6198901686
 11
369.7635831863
 21
32.6198901686
  0
LINE
  8
0
 62
7
  6
CONTINUOUS
 10
366.4060778428
 20
31.8167858495
 11
366.2326403428
 21
31.7522584767
  0
LINE
  8
0
 62
7
  6
CONTINUOUS
 10
363.9779528428
 20
30.8488751693
 11
364.1513903428
 21
30.9134025506
  0
LINE
  8
0
 62
7
  6
CONTINUOUS
 10
369.4123282839
 20
30.8488751693
 11
369.6435780634
 21
30.9134025506
  0
LINE
  8
0
 62
7
  6
CONTINUOUS
 10
369.4123282839
 20
31.0101936212
 11
369.2967030634
 21
30.9779299347
  0
LINE
  8
0
 62
7
  6
CONTINUOUS
 10
368.3717032839
 20
31.6877311038
 11
368.6029530634
 21
31.7199947902
  0
LINE
  8
0
 62
7
  6
CONTINUOUS
 10
366.4060778428
 20
31.6877311038
 11
366.6373282839
 21
31.7199947902
  0
LINE
  8
0
 62
7
  6
CONTINUOUS
 10
363.3420154531
 20
31.332830508
 11
363.5732655634
 21
31.3650941944
  0
LINE
  8
0
 62
7
  6
CONTINUOUS
 10
366.6373282839
 20
31.8490495359
 11
366.4060778428
 21
31.8167858495
  0
LINE
  8
0
 62
7
  6
CONTINUOUS
 10
363.2263905634
 20
31.6877311038
 11
363.4576406736
 21
31.7199947902
  0
LINE
  8
0
 62
7
  6
CONTINUOUS
 10
368.6029530634
 20
31.8490495359
 11
368.2560780634
 21
31.8167858495
  0
LINE
  8
0
 62
7
  6
CONTINUOUS
 10
363.5732655634
 20
31.4941489853
 11
363.2263905634
 21
31.4618852989
  0
LINE
  8
0
 62
7
  6
CONTINUOUS
 10
359.3529530358
 20
31.8490495359
 11
359.0060780772
 21
31.8167858495
  0
LINE
  8
0
 62
7
  6
CONTINUOUS
 10
363.4576406736
 20
31.8490495359
 11
363.0529530634
 21
31.8167858495
  0
LINE
  8
0
 62
7
  6
CONTINUOUS
 10
360.8291569568
 20
33.7674311522
 11
360.1734192519
 21
33.7674311522
  0
LINE
  8
0
 62
7
  6
CONTINUOUS
 10
366.2326403428
 20
31.623203731
 11
366.4060778428
 21
31.6877311038
  0
LINE
  8
0
 62
7
  6
CONTINUOUS
 10
368.2560780634
 20
31.6554674174
 11
368.3717032839
 21
31.6877311038
  0
LINE
  8
0
 62
7
  6
CONTINUOUS
 10
368.2560780634
 20
31.8167858495
 11
368.0248282839
 21
31.7522584767
  0
LINE
  8
0
 62
7
  6
CONTINUOUS
 10
363.9779528428
 20
31.0101936212
 11
363.6888904531
 21
30.945666237
  0
LINE
  8
0
 62
7
  6
CONTINUOUS
 10
361.2607654531
 20
31.6877311038
 11
361.4920155634
 21
31.7199947902
  0
LINE
  8
0
 62
7
  6
CONTINUOUS
 10
361.4920155634
 20
31.8490495359
 11
361.2607654531
 21
31.8167858495
  0
LINE
  8
0
 62
7
  6
CONTINUOUS
 10
359.0638905634
 20
31.6877311038
 11
359.2951405909
 21
31.7199947902
  0
LINE
  8
0
 62
7
  6
CONTINUOUS
 10
365.5832553175
 20
35.2428409882
 11
366.2389930224
 21
35.2428409882
  0
LINE
  8
0
 62
7
  6
CONTINUOUS
 10
363.2263905634
 20
31.3005668216
 11
363.3420154531
 21
31.332830508
  0
LINE
  8
0
 62
7
  6
CONTINUOUS
 10
363.2263905634
 20
31.4618852989
 11
362.9951404531
 21
31.397357926
  0
LINE
  8
0
 62
7
  6
CONTINUOUS
 10
363.1107656736
 20
31.6554674174
 11
363.2263905634
 21
31.6877311038
  0
LINE
  8
0
 62
7
  6
CONTINUOUS
 10
359.7576405634
 20
30.8488751693
 11
359.9888905082
 21
30.9134025506
  0
LINE
  8
0
 62
7
  6
CONTINUOUS
 10
363.0529530634
 20
31.8167858495
 11
362.9373281736
 21
31.7845221631
  0
LINE
  8
0
 62
7
  6
CONTINUOUS
 10
359.0060780772
 20
31.8167858495
 11
358.8326405772
 21
31.7845221631
  0
LINE
  8
0
 62
7
  6
CONTINUOUS
 10
369.7635831863
 20
36.3903819718
 11
368.3701405634
 21
36.3903819718
  0
LINE
  8
0
 62
7
  6
CONTINUOUS
 10
366.4029274486
 20
36.3903819718
 11
365.9903561
 21
36.3903819718
  0
LINE
  8
0
 62
7
  6
CONTINUOUS
 10
364.7635831863
 20
36.3903819718
 11
363.3701405634
 21
36.3903819718
  0
LINE
  8
0
 62
7
  6
CONTINUOUS
 10
363.0422717109
 20
36.3903819718
 11
361.648829088
 21
36.3903819718
  0
LINE
  8
0
 62
7
  6
CONTINUOUS
 10
359.7635831863
 20
36.3903819718
 11
358.3701405634
 21
36.3903819718
  0
LINE
  8
0
 62
7
  6
CONTINUOUS
 10
358.9482655496
 20
31.6554674174
 11
359.0638905634
 21
31.6877311038
  0
CIRCLE
  8
0
 62
7
  6
CONTINUOUS
 10
369.0668618749
 20
38.7264475456
 40
2.0901639344
  0
ARC
  8
0
 62
7
  6
CONTINUOUS
 10
360.0094848257
 20
34.2592344308
 40
1.6393442623
 50
180.0
 51
270.0
  0
ARC
  8
0
 62
7
  6
CONTINUOUS
 10
366.4029274486
 20
34.7510377095
 40
1.6393442623
 50
0.0
 51
90.0
  0
ARC
  8
0
 62
7
  6
CONTINUOUS
 10
360.4220561743
 20
34.0953000046
 40
1.4754098361
 50
270.0
 51
326.2510114041
  0
ARC
  8
0
 62
7
  6
CONTINUOUS
 10
365.9903561
 20
34.9149721358
 40
1.4754098361
 50
90.0
 51
146.2510114041
  0
ARC
  8
0
 62
7
  6
CONTINUOUS
 10
360.8291569568
 20
34.5871032833
 40
0.8196721311
 50
270.0
 51
360.0
  0
ARC
  8
0
 62
7
  6
CONTINUOUS
 10
365.5832553175
 20
34.4231688571
 40
0.8196721311
 50
90.0
 51
180.0
  0
ARC
  8
0
 62
7
  6
CONTINUOUS
 10
360.1734192519
 20
34.1772672177
 40
0.4098360656
 50
180.0
 51
270.0
  0
ARC
  8
0
 62
7
  6
CONTINUOUS
 10
366.2389930224
 20
34.8330049227
 40
0.4098360656
 50
0.0
 51
90.0
  0
SOLID
  8
0
 62
7
  6
CONTINUOUS
 10
365.0763907839
 20
32.1716868508
 11
365.0763907839
 21
32.3330053344
 12
365.3654528428
 22
32.1716868508
 13
365.3654528428
 23
32.3330053344
  0
SOLID
  8
0
 62
7
  6
CONTINUOUS
 10
359.3529530358
 20
31.8490498836
 11
359.7576405634
 21
31.8167854792
 12
359.0060780772
 22
31.8167854792
 13
359.0060780772
 23
31.8167854792
  0
SOLID
  8
0
 62
7
  6
CONTINUOUS
 10
358.8326405772
 20
31.7845227934
 11
359.0060780772
 21
31.8167854792
 12
359.7576405634
 22
31.8167854792
 13
359.7576405634
 23
31.8167854792
  0
SOLID
  8
0
 62
7
  6
CONTINUOUS
 10
359.7576405634
 20
31.8167854792
 11
359.9888905082
 21
31.7522584901
 12
358.8326405772
 22
31.7845227934
 13
358.8326405772
 23
31.7845227934
  0
SOLID
  8
0
 62
7
  6
CONTINUOUS
 10
358.6592030565
 20
31.7199940664
 11
358.8326405772
 21
31.7845227934
 12
359.9888905082
 22
31.7522584901
 13
359.9888905082
 23
31.7522584901
  0
SOLID
  8
0
 62
7
  6
CONTINUOUS
 10
358.6592030565
 20
31.7199940664
 11
359.9888905082
 21
31.7522584901
 12
359.2951405909
 22
31.7199940664
 13
359.2951405909
 23
31.7199940664
  0
SOLID
  8
0
 62
7
  6
CONTINUOUS
 10
359.2951405909
 20
31.7199940664
 11
359.9888905082
 21
31.7522584901
 12
359.6998280358
 22
31.6877314
 13
359.6998280358
 23
31.6877314
  0
SOLID
  8
0
 62
7
  6
CONTINUOUS
 10
359.9888905082
 20
31.7522584901
 11
360.1623280082
 21
31.6554670967
 12
359.6998280358
 22
31.6877314
 13
359.6998280358
 23
31.6877314
  0
SOLID
  8
0
 62
7
  6
CONTINUOUS
 10
359.8732656185
 20
31.6232043098
 11
359.6998280358
 21
31.6877314
 12
360.1623280082
 22
31.6554670967
 13
360.1623280082
 23
31.6554670967
  0
SOLID
  8
0
 62
7
  6
CONTINUOUS
 10
359.8732656185
 20
31.6232043098
 11
360.1623280082
 21
31.6554670967
 12
359.9310780634
 22
31.5264128539
 13
359.9310780634
 23
31.5264128539
  0
SOLID
  8
0
 62
7
  6
CONTINUOUS
 10
360.1623280082
 20
31.6554670967
 11
360.2201406185
 21
31.5264128539
 12
359.9310780634
 22
31.5264128539
 13
359.9310780634
 23
31.5264128539
  0
SOLID
  8
0
 62
7
  6
CONTINUOUS
 10
361.2607654531
 20
31.8167852459
 11
361.4920155634
 21
31.8490495492
 12
361.7232656736
 22
31.8490495492
 13
361.7232656736
 23
31.8490495492
  0
SOLID
  8
0
 62
7
  6
CONTINUOUS
 10
361.7232656736
 20
31.8490495492
 11
361.8967031736
 21
31.8167852459
 12
361.2607654531
 22
31.8167852459
 13
361.2607654531
 23
31.8167852459
  0
SOLID
  8
0
 62
7
  6
CONTINUOUS
 10
361.0873281185
 20
31.7522581557
 11
361.2607654531
 21
31.8167852459
 12
361.8967031736
 22
31.8167852459
 13
361.8967031736
 23
31.8167852459
  0
SOLID
  8
0
 62
7
  6
CONTINUOUS
 10
361.8967031736
 20
31.8167852459
 11
362.0701406736
 21
31.7522581557
 12
361.0873281185
 22
31.7522581557
 13
361.0873281185
 23
31.7522581557
  0
SOLID
  8
0
 62
7
  6
CONTINUOUS
 10
362.0701406736
 20
31.7522581557
 11
361.4920155634
 21
31.7199941869
 12
361.0873281185
 22
31.7522581557
 13
361.0873281185
 23
31.7522581557
  0
SOLID
  8
0
 62
7
  6
CONTINUOUS
 10
360.9717030634
 20
31.6877310656
 11
361.0873281185
 21
31.7522581557
 12
361.4920155634
 22
31.7199941869
 13
361.4920155634
 23
31.7199941869
  0
SOLID
  8
0
 62
7
  6
CONTINUOUS
 10
361.4920155634
 20
31.7199941869
 11
361.2607654531
 21
31.6877310656
 12
360.9717030634
 22
31.6877310656
 13
360.9717030634
 23
31.6877310656
  0
SOLID
  8
0
 62
7
  6
CONTINUOUS
 10
361.4920155634
 20
31.7199941869
 11
362.0701406736
 21
31.7522581557
 12
361.7232656736
 22
31.6877310656
 13
361.7232656736
 23
31.6877310656
  0
SOLID
  8
0
 62
7
  6
CONTINUOUS
 10
362.0701406736
 20
31.7522581557
 11
362.1857655634
 21
31.6877310656
 12
361.7232656736
 22
31.6877310656
 13
361.7232656736
 23
31.6877310656
  0
SOLID
  8
0
 62
7
  6
CONTINUOUS
 10
361.8388905634
 20
31.6554670967
 11
361.7232656736
 21
31.6877310656
 12
362.1857655634
 22
31.6877310656
 13
362.1857655634
 23
31.6877310656
  0
SOLID
  8
0
 62
7
  6
CONTINUOUS
 10
362.1857655634
 20
31.6877310656
 11
362.2435781736
 21
31.6232039754
 12
361.8388905634
 22
31.6554670967
 13
361.8388905634
 23
31.6554670967
  0
SOLID
  8
0
 62
7
  6
CONTINUOUS
 10
361.9545154531
 20
31.5909400065
 11
361.8388905634
 21
31.6554670967
 12
362.2435781736
 22
31.6232039754
 13
362.2435781736
 23
31.6232039754
  0
SOLID
  8
0
 62
7
  6
CONTINUOUS
 10
361.9545154531
 20
31.5909400065
 11
362.2435781736
 21
31.6232039754
 12
362.0123280634
 22
31.4618854918
 13
362.0123280634
 23
31.4618854918
  0
SOLID
  8
0
 62
7
  6
CONTINUOUS
 10
362.2435781736
 20
31.6232039754
 11
362.3013904531
 21
31.4618854918
 12
362.0123280634
 22
31.4618854918
 13
362.0123280634
 23
31.4618854918
  0
SOLID
  8
0
 62
7
  6
CONTINUOUS
 10
361.2607654531
 20
31.6877310656
 11
361.0873281185
 21
31.6232039754
 12
360.9717030634
 22
31.6877310656
 13
360.9717030634
 23
31.6877310656
  0
SOLID
  8
0
 62
7
  6
CONTINUOUS
 10
361.0873281185
 20
31.6232039754
 11
360.9717030634
 21
31.5586757033
 12
360.9717030634
 22
31.6877310656
 13
360.9717030634
 23
31.6877310656
  0
SOLID
  8
0
 62
7
  6
CONTINUOUS
 10
360.9717030634
 20
31.5586757033
 11
360.6826405082
 21
30.8166115574
 12
360.9717030634
 22
31.6877310656
 13
360.9717030634
 23
31.6877310656
  0
SOLID
  8
0
 62
7
  6
CONTINUOUS
 10
360.9717030634
 20
31.6877310656
 11
360.6826405082
 21
30.8166115574
 12
360.9717030634
 22
32.333005
 13
360.9717030634
 23
32.333005
  0
SOLID
  8
0
 62
7
  6
CONTINUOUS
 10
360.6826405082
 20
30.8166115574
 11
360.6826405082
 21
32.333005
 12
360.9717030634
 22
32.333005
 13
360.9717030634
 23
32.333005
  0
SOLID
  8
0
 62
7
  6
CONTINUOUS
 10
360.9717030634
 20
31.5586757033
 11
360.9717030634
 21
30.8166115574
 12
360.6826405082
 22
30.8166115574
 13
360.6826405082
 23
30.8166115574
  0
SOLID
  8
0
 62
7
  6
CONTINUOUS
 10
362.0123280634
 20
30.8166115574
 11
362.0123280634
 21
31.4618854918
 12
362.3013904531
 22
31.4618854918
 13
362.3013904531
 23
31.4618854918
  0
SOLID
  8
0
 62
7
  6
CONTINUOUS
 10
362.3013904531
 20
31.4618854918
 11
362.3013904531
 21
30.8166115574
 12
362.0123280634
 22
30.8166115574
 13
362.0123280634
 23
30.8166115574
  0
SOLID
  8
0
 62
7
  6
CONTINUOUS
 10
363.0529530634
 20
31.8167856315
 11
363.4576406736
 21
31.8490496243
 12
363.8045156736
 22
31.8490496243
 13
363.8045156736
 23
31.8490496243
  0
SOLID
  8
0
 62
7
  6
CONTINUOUS
 10
363.8045156736
 20
31.8490496243
 11
364.1513903428
 21
31.8167856315
 12
363.0529530634
 22
31.8167856315
 13
363.0529530634
 23
31.8167856315
  0
SOLID
  8
0
 62
7
  6
CONTINUOUS
 10
362.9373281736
 20
31.7845227934
 11
363.0529530634
 21
31.8167856315
 12
364.1513903428
 22
31.8167856315
 13
364.1513903428
 23
31.8167856315
  0
SOLID
  8
0
 62
7
  6
CONTINUOUS
 10
364.1513903428
 20
31.8167856315
 11
364.3248278428
 21
31.7522584901
 12
362.9373281736
 22
31.7845227934
 13
362.9373281736
 23
31.7845227934
  0
SOLID
  8
0
 62
7
  6
CONTINUOUS
 10
362.8217029531
 20
31.7199944276
 11
362.9373281736
 21
31.7845227934
 12
364.3248278428
 22
31.7522584901
 13
364.3248278428
 23
31.7522584901
  0
SOLID
  8
0
 62
7
  6
CONTINUOUS
 10
362.8217029531
 20
31.7199944276
 11
364.3248278428
 21
31.7522584901
 12
363.4576406736
 22
31.7199944276
 13
363.4576406736
 23
31.7199944276
  0
SOLID
  8
0
 62
7
  6
CONTINUOUS
 10
363.4576406736
 20
31.7199944276
 11
364.3248278428
 21
31.7522584901
 12
363.8045156736
 22
31.7199944276
 13
363.8045156736
 23
31.7199944276
  0
SOLID
  8
0
 62
7
  6
CONTINUOUS
 10
363.8045156736
 20
31.7199944276
 11
364.3248278428
 21
31.7522584901
 12
364.0357657839
 22
31.6877312092
 13
364.0357657839
 23
31.6877312092
  0
SOLID
  8
0
 62
7
  6
CONTINUOUS
 10
364.3248278428
 20
31.7522584901
 11
364.4404530634
 21
31.6877312092
 12
364.0357657839
 22
31.6877312092
 13
364.0357657839
 23
31.6877312092
  0
SOLID
  8
0
 62
7
  6
CONTINUOUS
 10
362.7638906736
 20
31.6554672165
 11
362.8217029531
 21
31.7199944276
 12
363.4576406736
 22
31.7199944276
 13
363.4576406736
 23
31.7199944276
  0
SOLID
  8
0
 62
7
  6
CONTINUOUS
 10
364.1513903428
 20
31.6554672165
 11
364.0357657839
 21
31.6877312092
 12
364.4404530634
 22
31.6877312092
 13
364.4404530634
 23
31.6877312092
  0
SOLID
  8
0
 62
7
  6
CONTINUOUS
 10
364.1513903428
 20
31.6554672165
 11
364.4404530634
 21
31.6877312092
 12
364.2092032839
 22
31.5909400053
 13
364.2092032839
 23
31.5909400053
  0
SOLID
  8
0
 62
7
  6
CONTINUOUS
 10
364.4404530634
 20
31.6877312092
 11
364.4982653428
 21
31.5909400053
 12
364.2092032839
 22
31.5909400053
 13
364.2092032839
 23
31.5909400053
  0
SOLID
  8
0
 62
7
  6
CONTINUOUS
 10
364.2092032839
 20
31.4941486131
 11
364.2092032839
 21
31.5909400053
 12
364.4982653428
 22
31.5909400053
 13
364.4982653428
 23
31.5909400053
  0
SOLID
  8
0
 62
7
  6
CONTINUOUS
 10
364.2092032839
 20
31.4941486131
 11
364.4982653428
 21
31.5909400053
 12
364.2092032839
 22
31.3650944328
 13
364.2092032839
 23
31.3650944328
  0
SOLID
  8
0
 62
7
  6
CONTINUOUS
 10
364.2092032839
 20
31.3650944328
 11
364.4982653428
 21
31.5909400053
 12
364.2092032839
 22
31.1715120759
 13
364.2092032839
 23
31.1715120759
  0
SOLID
  8
0
 62
7
  6
CONTINUOUS
 10
364.4982653428
 20
31.5909400053
 11
364.4982653428
 21
31.0747202524
 12
364.2092032839
 22
31.1715120759
 13
364.2092032839
 23
31.1715120759
  0
SOLID
  8
0
 62
7
  6
CONTINUOUS
 10
366.4060778428
 20
31.8167851023
 11
366.6373282839
 21
31.849049822
 12
366.8685780634
 22
31.849049822
 13
366.8685780634
 23
31.849049822
  0
SOLID
  8
0
 62
7
  6
CONTINUOUS
 10
366.8685780634
 20
31.849049822
 11
367.0420155634
 21
31.8167851023
 12
366.4060778428
 22
31.8167851023
 13
366.4060778428
 23
31.8167851023
  0
SOLID
  8
0
 62
7
  6
CONTINUOUS
 10
366.2326403428
 20
31.7522587602
 11
366.4060778428
 21
31.8167851023
 12
367.0420155634
 22
31.8167851023
 13
367.0420155634
 23
31.8167851023
  0
SOLID
  8
0
 62
7
  6
CONTINUOUS
 10
367.0420155634
 20
31.8167851023
 11
367.2154530634
 21
31.7522587602
 12
366.2326403428
 22
31.7522587602
 13
366.2326403428
 23
31.7522587602
  0
SOLID
  8
0
 62
7
  6
CONTINUOUS
 10
367.2154530634
 20
31.7522587602
 11
366.6373282839
 21
31.7199941869
 12
366.2326403428
 22
31.7522587602
 13
366.2326403428
 23
31.7522587602
  0
SOLID
  8
0
 62
7
  6
CONTINUOUS
 10
366.1170157839
 20
31.6877313857
 11
366.2326403428
 21
31.7522587602
 12
366.6373282839
 22
31.7199941869
 13
366.6373282839
 23
31.7199941869
  0
SOLID
  8
0
 62
7
  6
CONTINUOUS
 10
366.6373282839
 20
31.7199941869
 11
366.4060778428
 21
31.6877313857
 12
366.1170157839
 22
31.6877313857
 13
366.1170157839
 23
31.6877313857
  0
SOLID
  8
0
 62
7
  6
CONTINUOUS
 10
366.6373282839
 20
31.7199941869
 11
367.2154530634
 21
31.7522587602
 12
366.8685780634
 22
31.6877313857
 13
366.8685780634
 23
31.6877313857
  0
SOLID
  8
0
 62
7
  6
CONTINUOUS
 10
367.2154530634
 20
31.7522587602
 11
367.3310782839
 21
31.6877313857
 12
366.8685780634
 22
31.6877313857
 13
366.8685780634
 23
31.6877313857
  0
SOLID
  8
0
 62
7
  6
CONTINUOUS
 10
366.9842032839
 20
31.6554670967
 11
366.8685780634
 21
31.6877313857
 12
367.3310782839
 22
31.6877313857
 13
367.3310782839
 23
31.6877313857
  0
SOLID
  8
0
 62
7
  6
CONTINUOUS
 10
366.9842032839
 20
31.6554670967
 11
367.3310782839
 21
31.6877313857
 12
367.0998278428
 22
31.590940324
 13
367.0998278428
 23
31.590940324
  0
SOLID
  8
0
 62
7
  6
CONTINUOUS
 10
367.3310782839
 20
31.6877313857
 11
367.3888905634
 21
31.590940324
 12
367.0998278428
 22
31.590940324
 13
367.0998278428
 23
31.590940324
  0
SOLID
  8
0
 62
7
  6
CONTINUOUS
 10
367.1576407839
 20
31.4296218878
 11
367.0998278428
 21
31.590940324
 12
367.3888905634
 22
31.590940324
 13
367.3888905634
 23
31.590940324
  0
SOLID
  8
0
 62
7
  6
CONTINUOUS
 10
367.3888905634
 20
31.590940324
 11
367.4467028428
 21
31.4296218878
 12
367.1576407839
 22
31.4296218878
 13
367.1576407839
 23
31.4296218878
  0
SOLID
  8
0
 62
7
  6
CONTINUOUS
 10
366.4060778428
 20
31.6877313857
 11
366.2326403428
 21
31.6232043098
 12
366.1170157839
 22
31.6877313857
 13
366.1170157839
 23
31.6877313857
  0
SOLID
  8
0
 62
7
  6
CONTINUOUS
 10
366.2326403428
 20
31.6232043098
 11
366.1170157839
 21
31.5586757033
 12
366.1170157839
 22
31.6877313857
 13
366.1170157839
 23
31.6877313857
  0
SOLID
  8
0
 62
7
  6
CONTINUOUS
 10
366.1170157839
 20
31.5586757033
 11
365.8279530634
 21
30.8166118302
 12
366.1170157839
 22
31.6877313857
 13
366.1170157839
 23
31.6877313857
  0
SOLID
  8
0
 62
7
  6
CONTINUOUS
 10
366.1170157839
 20
31.6877313857
 11
365.8279530634
 21
30.8166118302
 12
366.1170157839
 22
31.849049822
 13
366.1170157839
 23
31.849049822
  0
SOLID
  8
0
 62
7
  6
CONTINUOUS
 10
365.8279530634
 20
30.8166118302
 11
365.8279530634
 21
31.849049822
 12
366.1170157839
 22
31.849049822
 13
366.1170157839
 23
31.849049822
  0
SOLID
  8
0
 62
7
  6
CONTINUOUS
 10
366.1170157839
 20
31.5586757033
 11
366.1170157839
 21
30.8166118302
 12
365.8279530634
 22
30.8166118302
 13
365.8279530634
 23
30.8166118302
  0
SOLID
  8
0
 62
7
  6
CONTINUOUS
 10
367.1576407839
 20
30.8166118302
 11
367.1576407839
 21
31.4296218878
 12
367.4467028428
 22
31.4296218878
 13
367.4467028428
 23
31.4296218878
  0
SOLID
  8
0
 62
7
  6
CONTINUOUS
 10
367.4467028428
 20
31.4296218878
 11
367.4467028428
 21
30.8166118302
 12
367.1576407839
 22
30.8166118302
 13
367.1576407839
 23
30.8166118302
  0
SOLID
  8
0
 62
7
  6
CONTINUOUS
 10
368.2560780634
 20
31.8167856056
 11
368.6029530634
 21
31.8490498552
 12
368.9498280634
 22
31.8490498552
 13
368.9498280634
 23
31.8490498552
  0
SOLID
  8
0
 62
7
  6
CONTINUOUS
 10
368.9498280634
 20
31.8490498552
 11
369.2967030634
 21
31.8167856056
 12
368.2560780634
 22
31.8167856056
 13
368.2560780634
 23
31.8167856056
  0
SOLID
  8
0
 62
7
  6
CONTINUOUS
 10
368.0248282839
 20
31.7522584901
 11
368.2560780634
 21
31.8167856056
 12
369.2967030634
 22
31.8167856056
 13
369.2967030634
 23
31.8167856056
  0
SOLID
  8
0
 62
7
  6
CONTINUOUS
 10
368.0248282839
 20
31.7522584901
 11
369.2967030634
 21
31.8167855803
 12
369.4701405634
 22
31.7845227934
 13
369.4701405634
 23
31.7845227934
  0
SOLID
  8
0
 62
7
  6
CONTINUOUS
 10
368.0248282839
 20
31.7522584901
 11
369.4701405634
 21
31.7845227934
 12
368.6029530634
 22
31.7199941235
 13
368.6029530634
 23
31.7199941235
  0
SOLID
  8
0
 62
7
  6
CONTINUOUS
 10
368.6029530634
 20
31.7199941235
 11
369.4701405634
 21
31.7845227934
 12
368.9498280634
 22
31.7199941235
 13
368.9498280634
 23
31.7199941235
  0
SOLID
  8
0
 62
7
  6
CONTINUOUS
 10
369.4701405634
 20
31.7845227934
 11
369.6435780634
 21
31.7199941235
 12
368.9498280634
 22
31.7199941235
 13
368.9498280634
 23
31.7199941235
  0
SOLID
  8
0
 62
7
  6
CONTINUOUS
 10
369.2967030634
 20
31.6877314
 11
368.9498280634
 21
31.7199941235
 12
369.6435780634
 22
31.7199941235
 13
369.6435780634
 23
31.7199941235
  0
SOLID
  8
0
 62
7
  6
CONTINUOUS
 10
367.9092030634
 20
31.6554671071
 11
368.0248282839
 21
31.7522584901
 12
368.6029530634
 22
31.7199941235
 13
368.6029530634
 23
31.7199941235
  0
SOLID
  8
0
 62
7
  6
CONTINUOUS
 10
369.2967030634
 20
31.6877314
 11
369.6435780634
 21
31.7199941235
 12
369.4123282839
 22
31.6554671071
 13
369.4123282839
 23
31.6554671071
  0
SOLID
  8
0
 62
7
  6
CONTINUOUS
 10
369.4123282839
 20
31.6554671071
 11
369.6435780634
 21
31.7199941235
 12
369.4701405634
 22
31.5909400907
 13
369.4701405634
 23
31.5909400907
  0
SOLID
  8
0
 62
7
  6
CONTINUOUS
 10
369.6435780634
 20
31.7199941235
 11
369.7592026223
 21
31.5909400907
 12
369.4701405634
 22
31.5909400907
 13
369.4701405634
 23
31.5909400907
  0
SOLID
  8
0
 62
7
  6
CONTINUOUS
 10
359.0638905634
 20
31.6877314
 11
358.5435780634
 21
31.6554670789
 12
359.2951405909
 22
31.7199941045
 13
359.2951405909
 23
31.7199941045
  0
SOLID
  8
0
 62
7
  6
CONTINUOUS
 10
358.5435780634
 20
31.6554670789
 11
358.6592030565
 21
31.7199941045
 12
359.2951405909
 22
31.7199941045
 13
359.2951405909
 23
31.7199941045
  0
SOLID
  8
0
 62
7
  6
CONTINUOUS
 10
359.0638905634
 20
31.6877314
 11
358.9482655496
 21
31.6554670789
 12
358.5435780634
 22
31.6554670789
 13
358.5435780634
 23
31.6554670789
  0
SOLID
  8
0
 62
7
  6
CONTINUOUS
 10
358.4279530651
 20
31.5264129164
 11
358.5435780634
 21
31.6554670789
 12
358.9482655496
 22
31.6554670789
 13
358.9482655496
 23
31.6554670789
  0
SOLID
  8
0
 62
7
  6
CONTINUOUS
 10
362.7638906736
 20
31.6554670789
 11
363.4576406736
 21
31.7199941869
 12
363.2263905634
 22
31.6877314
 13
363.2263905634
 23
31.6877314
  0
SOLID
  8
0
 62
7
  6
CONTINUOUS
 10
363.2263905634
 20
31.6877314
 11
363.1107656736
 21
31.6554670789
 12
362.7638906736
 22
31.6554670789
 13
362.7638906736
 23
31.6554670789
  0
SOLID
  8
0
 62
7
  6
CONTINUOUS
 10
362.7638906736
 20
31.5909399887
 11
362.7638906736
 21
31.6554670789
 12
363.1107656736
 22
31.6554670789
 13
363.1107656736
 23
31.6554670789
  0
SOLID
  8
0
 62
7
  6
CONTINUOUS
 10
363.1107656736
 20
31.6554670789
 11
363.0529530634
 21
31.5909399887
 12
362.7638906736
 22
31.5909399887
 13
362.7638906736
 23
31.5909399887
  0
SOLID
  8
0
 62
7
  6
CONTINUOUS
 10
367.9092030634
 20
31.6554670789
 11
368.6029530634
 21
31.7199941869
 12
368.3717032839
 22
31.6877314
 13
368.3717032839
 23
31.6877314
  0
SOLID
  8
0
 62
7
  6
CONTINUOUS
 10
368.3717032839
 20
31.6877314
 11
368.2560780634
 21
31.6554670789
 12
367.9092030634
 22
31.6554670789
 13
367.9092030634
 23
31.6554670789
  0
SOLID
  8
0
 62
7
  6
CONTINUOUS
 10
367.9092030634
 20
31.5909399887
 11
367.9092030634
 21
31.6554670789
 12
368.2560780634
 22
31.6554670789
 13
368.2560780634
 23
31.6554670789
  0
SOLID
  8
0
 62
7
  6
CONTINUOUS
 10
368.2560780634
 20
31.6554670789
 11
368.1982657839
 21
31.5909399887
 12
367.9092030634
 22
31.5909399887
 13
367.9092030634
 23
31.5909399887
  0
SOLID
  8
0
 62
7
  6
CONTINUOUS
 10
368.0248282839
 20
31.4618858262
 11
367.9092030634
 21
31.5909399887
 12
368.1982657839
 22
31.5909399887
 13
368.1982657839
 23
31.5909399887
  0
SOLID
  8
0
 62
7
  6
CONTINUOUS
 10
358.4279530651
 20
31.5264129164
 11
358.9482655496
 21
31.6554670967
 12
358.7748280496
 22
31.5586757033
 13
358.7748280496
 23
31.5586757033
  0
SOLID
  8
0
 62
7
  6
CONTINUOUS
 10
358.7748280496
 20
31.5586757033
 11
358.7170155634
 21
31.4941486131
 12
358.4279530651
 22
31.5264129164
 13
358.4279530651
 23
31.5264129164
  0
SOLID
  8
0
 62
7
  6
CONTINUOUS
 10
358.3701405634
 20
31.3328301295
 11
358.4279530651
 21
31.5264129164
 12
358.7170155634
 22
31.4941486131
 13
358.7170155634
 23
31.4941486131
  0
SOLID
  8
0
 62
7
  6
CONTINUOUS
 10
363.2263905634
 20
31.4618858262
 11
363.5732655634
 21
31.4941485791
 12
364.2092032839
 22
31.4941485791
 13
364.2092032839
 23
31.4941485791
  0
SOLID
  8
0
 62
7
  6
CONTINUOUS
 10
363.2263905634
 20
31.4618858262
 11
364.2092032839
 21
31.4941485791
 12
362.9951404531
 22
31.397357926
 13
362.9951404531
 23
31.397357926
  0
SOLID
  8
0
 62
7
  6
CONTINUOUS
 10
362.9951404531
 20
31.397357926
 11
364.2092032839
 21
31.4941485791
 12
363.5732655634
 22
31.3650943988
 13
363.5732655634
 23
31.3650943988
  0
SOLID
  8
0
 62
7
  6
CONTINUOUS
 10
364.2092032839
 20
31.4941485791
 11
364.2092032839
 21
31.3650943988
 12
363.5732655634
 22
31.3650943988
 13
363.5732655634
 23
31.3650943988
  0
SOLID
  8
0
 62
7
  6
CONTINUOUS
 10
368.0248282839
 20
31.4618859165
 11
368.1982657839
 21
31.5909400065
 12
368.2560780634
 22
31.5264129164
 13
368.2560780634
 23
31.5264129164
  0
SOLID
  8
0
 62
7
  6
CONTINUOUS
 10
368.2560780634
 20
31.5264129164
 11
368.4295155634
 21
31.4618859165
 12
368.0248282839
 22
31.4618859165
 13
368.0248282839
 23
31.4618859165
  0
SOLID
  8
0
 62
7
  6
CONTINUOUS
 10
368.2560780634
 20
31.3650944328
 11
368.0248282839
 21
31.4618859165
 12
368.4295155634
 22
31.4618859165
 13
368.4295155634
 23
31.4618859165
  0
SOLID
  8
0
 62
7
  6
CONTINUOUS
 10
368.4295155634
 20
31.4618859165
 11
369.4123282839
 21
31.3005673426
 12
368.2560780634
 22
31.3650944328
 13
368.2560780634
 23
31.3650944328
  0
SOLID
  8
0
 62
7
  6
CONTINUOUS
 10
369.2388907839
 20
31.2037760287
 11
368.2560780634
 21
31.3650944328
 12
369.4123282839
 22
31.3005673426
 13
369.4123282839
 23
31.3005673426
  0
SOLID
  8
0
 62
7
  6
CONTINUOUS
 10
369.4123282839
 20
31.3005673426
 11
369.6435780634
 21
31.2037760287
 12
369.2388907839
 22
31.2037760287
 13
369.2388907839
 23
31.2037760287
  0
SOLID
  8
0
 62
7
  6
CONTINUOUS
 10
369.4123282839
 20
31.139248859
 11
369.2388907839
 21
31.2037760287
 12
369.6435780634
 22
31.2037760287
 13
369.6435780634
 23
31.2037760287
  0
SOLID
  8
0
 62
7
  6
CONTINUOUS
 10
369.4123282839
 20
31.139248859
 11
369.6435780634
 21
31.2037760287
 12
369.4701405634
 22
31.0747203105
 13
369.4701405634
 23
31.0747203105
  0
SOLID
  8
0
 62
7
  6
CONTINUOUS
 10
369.6435780634
 20
31.2037760287
 11
369.7592026223
 21
31.0747203105
 12
369.4701405634
 22
31.0747203105
 13
369.4701405634
 23
31.0747203105
  0
SOLID
  8
0
 62
7
  6
CONTINUOUS
 10
369.4123282839
 20
31.0101932257
 11
369.4701405634
 21
31.0747203105
 12
369.7592026223
 22
31.0747203105
 13
369.7592026223
 23
31.0747203105
  0
SOLID
  8
0
 62
7
  6
CONTINUOUS
 10
369.7592026223
 20
31.0747203105
 11
369.7592026223
 21
31.0101932257
 12
369.4123282839
 22
31.0101932257
 13
369.4123282839
 23
31.0101932257
  0
SOLID
  8
0
 62
7
  6
CONTINUOUS
 10
369.2967030634
 20
30.9779303754
 11
369.4123282839
 21
31.0101932257
 12
369.7592026223
 22
31.0101932257
 13
369.7592026223
 23
31.0101932257
  0
SOLID
  8
0
 62
7
  6
CONTINUOUS
 10
369.2967030634
 20
30.9779303754
 11
369.7592026223
 21
31.0101932257
 12
369.0654532839
 22
30.9456661409
 13
369.0654532839
 23
30.9456661409
  0
SOLID
  8
0
 62
7
  6
CONTINUOUS
 10
369.7592026223
 20
31.0101932257
 11
369.6435780634
 21
30.9134032852
 12
369.0654532839
 22
30.9456661409
 13
369.0654532839
 23
30.9456661409
  0
SOLID
  8
0
 62
7
  6
CONTINUOUS
 10
369.6435780634
 20
30.9134032852
 11
368.1982657839
 21
30.8811389819
 12
369.0654532839
 22
30.9456661409
 13
369.0654532839
 23
30.9456661409
  0
SOLID
  8
0
 62
7
  6
CONTINUOUS
 10
369.0654532839
 20
30.9456661409
 11
368.1982657839
 21
30.8811389819
 12
368.7185782839
 22
30.9456661409
 13
368.7185782839
 23
30.9456661409
  0
SOLID
  8
0
 62
7
  6
CONTINUOUS
 10
368.1982657839
 20
30.8811389819
 11
368.0248282839
 21
30.9456661409
 12
368.7185782839
 22
30.9456661409
 13
368.7185782839
 23
30.9456661409
  0
SOLID
  8
0
 62
7
  6
CONTINUOUS
 10
368.1982657839
 20
30.8811389819
 11
369.6435780634
 21
30.9134032852
 12
368.3717032839
 22
30.8488743522
 13
368.3717032839
 23
30.8488743522
  0
SOLID
  8
0
 62
7
  6
CONTINUOUS
 10
369.6435780634
 20
30.9134032852
 11
369.4123282839
 21
30.8488743522
 12
368.3717032839
 22
30.8488743522
 13
368.3717032839
 23
30.8488743522
  0
SOLID
  8
0
 62
7
  6
CONTINUOUS
 10
368.7185782839
 20
30.8166119713
 11
368.3717032839
 21
30.8488743522
 12
369.4123282839
 22
30.8488743522
 13
369.4123282839
 23
30.8488743522
  0
SOLID
  8
0
 62
7
  6
CONTINUOUS
 10
369.4123282839
 20
30.8488743522
 11
369.0654532839
 21
30.8166119713
 12
368.7185782839
 22
30.8166119713
 13
368.7185782839
 23
30.8166119713
  0
SOLID
  8
0
 62
7
  6
CONTINUOUS
 10
358.3701405634
 20
31.3328301295
 11
358.7170155634
 21
31.4941486131
 12
358.6592030565
 22
31.3650944328
 13
358.6592030565
 23
31.3650944328
  0
SOLID
  8
0
 62
7
  6
CONTINUOUS
 10
358.6592030565
 20
31.3650944328
 11
358.6592030565
 21
31.2683031351
 12
358.3701405634
 22
31.3328301295
 13
358.3701405634
 23
31.3328301295
  0
SOLID
  8
0
 62
7
  6
CONTINUOUS
 10
358.4279530651
 20
31.139248859
 11
358.3701405634
 21
31.3328301295
 12
358.6592030565
 22
31.2683031351
 13
358.6592030565
 23
31.2683031351
  0
SOLID
  8
0
 62
7
  6
CONTINUOUS
 10
358.6592030565
 20
31.2683031351
 11
358.7748280496
 21
31.1069845557
 12
358.4279530651
 22
31.139248859
 13
358.4279530651
 23
31.139248859
  0
SOLID
  8
0
 62
7
  6
CONTINUOUS
 10
358.5435780634
 20
31.0101931569
 11
358.4279530651
 21
31.139248859
 12
358.7748280496
 22
31.1069845557
 13
358.7748280496
 23
31.1069845557
  0
SOLID
  8
0
 62
7
  6
CONTINUOUS
 10
358.7748280496
 20
31.1069845557
 11
358.9482655496
 21
31.0101931569
 12
358.5435780634
 22
31.0101931569
 13
358.5435780634
 23
31.0101931569
  0
SOLID
  8
0
 62
7
  6
CONTINUOUS
 10
358.6592030565
 20
30.9456659241
 11
358.5435780634
 21
31.0101931569
 12
358.9482655496
 22
31.0101931569
 13
358.9482655496
 23
31.0101931569
  0
SOLID
  8
0
 62
7
  6
CONTINUOUS
 10
358.9482655496
 20
31.0101931569
 11
359.2951405909
 21
30.9456659241
 12
358.6592030565
 22
30.9456659241
 13
358.6592030565
 23
30.9456659241
  0
SOLID
  8
0
 62
7
  6
CONTINUOUS
 10
358.8326405772
 20
30.8811389819
 11
358.6592030565
 21
30.9456659241
 12
359.2951405909
 22
30.9456659241
 13
359.2951405909
 23
30.9456659241
  0
SOLID
  8
0
 62
7
  6
CONTINUOUS
 10
362.8795155634
 20
31.3328301325
 11
362.9951404531
 21
31.397357926
 12
363.5732655634
 22
31.3650944328
 13
363.5732655634
 23
31.3650944328
  0
SOLID
  8
0
 62
7
  6
CONTINUOUS
 10
363.5732655634
 20
31.3650944328
 11
363.3420154531
 21
31.3328301325
 12
362.8795155634
 22
31.3328301325
 13
362.8795155634
 23
31.3328301325
  0
SOLID
  8
0
 62
7
  6
CONTINUOUS
 10
362.7638906736
 20
31.2037759492
 11
362.8795155634
 21
31.3328301325
 12
363.3420154531
 22
31.3328301325
 13
363.3420154531
 23
31.3328301325
  0
SOLID
  8
0
 62
7
  6
CONTINUOUS
 10
363.1107656736
 20
31.2360394487
 11
362.7638906736
 21
31.2037759492
 12
363.2263905634
 22
31.3005673426
 13
363.2263905634
 23
31.3005673426
  0
SOLID
  8
0
 62
7
  6
CONTINUOUS
 10
362.7638906736
 20
31.2037759492
 11
363.3420154531
 21
31.3328301295
 12
363.2263905634
 22
31.3005673426
 13
363.2263905634
 23
31.3005673426
  0
SOLID
  8
0
 62
7
  6
CONTINUOUS
 10
363.1107656736
 20
31.2360394487
 11
363.0529530634
 21
31.139248859
 12
362.7638906736
 22
31.2037759492
 13
362.7638906736
 23
31.2037759492
  0
SOLID
  8
0
 62
7
  6
CONTINUOUS
 10
362.7638906736
 20
31.1069845557
 11
362.7638906736
 21
31.2037759492
 12
363.0529530634
 22
31.139248859
 13
363.0529530634
 23
31.139248859
  0
SOLID
  8
0
 62
7
  6
CONTINUOUS
 10
363.0529530634
 20
31.139248859
 11
363.0529530634
 21
31.0747202524
 12
362.7638906736
 22
31.1069845557
 13
362.7638906736
 23
31.1069845557
  0
SOLID
  8
0
 62
7
  6
CONTINUOUS
 10
362.8217029531
 20
30.9779303754
 11
362.7638906736
 21
31.1069845557
 12
363.0529530634
 22
31.0747202524
 13
363.0529530634
 23
31.0747202524
  0
SOLID
  8
0
 62
7
  6
CONTINUOUS
 10
364.2092032839
 20
31.1715120759
 11
364.4982653428
 21
31.0747202524
 12
364.1513903428
 22
31.1069845557
 13
364.1513903428
 23
31.1069845557
  0
SOLID
  8
0
 62
7
  6
CONTINUOUS
 10
363.9779528428
 20
31.0101931623
 11
364.1513903428
 21
31.1069845557
 12
364.4982653428
 22
31.0747202524
 13
364.4982653428
 23
31.0747202524
  0
SOLID
  8
0
 62
7
  6
CONTINUOUS
 10
363.9779528428
 20
31.0101931623
 11
364.4982653428
 21
31.0747202524
 12
364.2092032839
 22
30.9779303754
 13
364.2092032839
 23
30.9779303754
  0
SOLID
  8
0
 62
7
  6
CONTINUOUS
 10
364.4982653428
 20
31.0747202524
 11
364.5560782839
 21
30.9134032852
 12
364.2092032839
 22
30.9779303754
 13
364.2092032839
 23
30.9779303754
  0
SOLID
  8
0
 62
7
  6
CONTINUOUS
 10
364.2670155634
 20
30.8811389819
 11
364.2092032839
 21
30.9779303754
 12
364.5560782839
 22
30.9134032852
 13
364.5560782839
 23
30.9134032852
  0
SOLID
  8
0
 62
7
  6
CONTINUOUS
 10
364.2670155634
 20
30.8811389819
 11
364.5560782839
 21
30.9134032852
 12
364.3248278428
 22
30.816611867
 13
364.3248278428
 23
30.816611867
  0
SOLID
  8
0
 62
7
  6
CONTINUOUS
 10
364.5560782839
 20
30.9134032852
 11
364.6138905634
 21
30.816611867
 12
364.3248278428
 22
30.816611867
 13
364.3248278428
 23
30.816611867
  0
SOLID
  8
0
 62
7
  6
CONTINUOUS
 10
359.8732656185
 20
31.0424573076
 11
359.9310780634
 21
31.1392488159
 12
360.2201406185
 22
31.1392488159
 13
360.2201406185
 23
31.1392488159
  0
SOLID
  8
0
 62
7
  6
CONTINUOUS
 10
360.2201406185
 20
31.1392488159
 11
360.1623280082
 21
31.0101931623
 12
359.8732656185
 22
31.0424573076
 13
359.8732656185
 23
31.0424573076
  0
SOLID
  8
0
 62
7
  6
CONTINUOUS
 10
359.6998280358
 20
30.9779303754
 11
359.8732656185
 21
31.0424573076
 12
360.1623280082
 22
31.0101931623
 13
360.1623280082
 23
31.0101931623
  0
SOLID
  8
0
 62
7
  6
CONTINUOUS
 10
359.6998280358
 20
30.9779303754
 11
360.1623280082
 21
31.0101931623
 12
359.2951405909
 22
30.9456660721
 13
359.2951405909
 23
30.9456660721
  0
SOLID
  8
0
 62
7
  6
CONTINUOUS
 10
360.1623280082
 20
31.0101931623
 11
359.9888905082
 21
30.9134032852
 12
359.2951405909
 22
30.9456660721
 13
359.2951405909
 23
30.9456660721
  0
SOLID
  8
0
 62
7
  6
CONTINUOUS
 10
358.8326405772
 20
30.8811389819
 11
359.2951405909
 21
30.9456660721
 12
359.9888905082
 22
30.9134032852
 13
359.9888905082
 23
30.9134032852
  0
SOLID
  8
0
 62
7
  6
CONTINUOUS
 10
358.8326405772
 20
30.8811389819
 11
359.9888905082
 21
30.9134032852
 12
359.0060780772
 22
30.8488745775
 13
359.0060780772
 23
30.8488745775
  0
SOLID
  8
0
 62
7
  6
CONTINUOUS
 10
359.9888905082
 20
30.9134032852
 11
359.7576405634
 21
30.8488745775
 12
359.0060780772
 22
30.8488745775
 13
359.0060780772
 23
30.8488745775
  0
SOLID
  8
0
 62
7
  6
CONTINUOUS
 10
359.3529530358
 20
30.8166118918
 11
359.0060780772
 21
30.8488745775
 12
359.7576405634
 22
30.8488745775
 13
359.7576405634
 23
30.8488745775
  0
SOLID
  8
0
 62
7
  6
CONTINUOUS
 10
362.8217029531
 20
30.9779303754
 11
363.0529530634
 21
31.0747202524
 12
363.1107656736
 22
31.0101931623
 13
363.1107656736
 23
31.0101931623
  0
SOLID
  8
0
 62
7
  6
CONTINUOUS
 10
363.1107656736
 20
31.0101931623
 11
363.3420154531
 21
30.9456660721
 12
362.8217029531
 22
30.9779303754
 13
362.8217029531
 23
30.9779303754
  0
SOLID
  8
0
 62
7
  6
CONTINUOUS
 10
362.9951404531
 20
30.8811389819
 11
362.8217029531
 21
30.9779303754
 12
363.3420154531
 22
30.9456660721
 13
363.3420154531
 23
30.9456660721
  0
SOLID
  8
0
 62
7
  6
CONTINUOUS
 10
363.6888904531
 20
30.9456661188
 11
363.9779528428
 21
31.0101931623
 12
364.2092032839
 22
30.9779303754
 13
364.2092032839
 23
30.9779303754
  0
SOLID
  8
0
 62
7
  6
CONTINUOUS
 10
364.2092032839
 20
30.9779303754
 11
364.1513903428
 21
30.9134032852
 12
363.6888904531
 22
30.9456661188
 13
363.6888904531
 23
30.9456661188
  0
SOLID
  8
0
 62
7
  6
CONTINUOUS
 10
364.1513903428
 20
30.9134032852
 11
362.9951404531
 21
30.8811389819
 12
363.6888904531
 22
30.9456661188
 13
363.6888904531
 23
30.9456661188
  0
SOLID
  8
0
 62
7
  6
CONTINUOUS
 10
362.9951404531
 20
30.8811389819
 11
363.3420154531
 21
30.9456661188
 12
363.6888904531
 22
30.9456661188
 13
363.6888904531
 23
30.9456661188
  0
SOLID
  8
0
 62
7
  6
CONTINUOUS
 10
362.9951404531
 20
30.8811389819
 11
364.1513903428
 21
30.9134032852
 12
363.1107656736
 22
30.8488747093
 13
363.1107656736
 23
30.8488747093
  0
SOLID
  8
0
 62
7
  6
CONTINUOUS
 10
364.1513903428
 20
30.9134032852
 11
363.9779528428
 21
30.8488747093
 12
363.1107656736
 22
30.8488747093
 13
363.1107656736
 23
30.8488747093
  0
SOLID
  8
0
 62
7
  6
CONTINUOUS
 10
363.3420154531
 20
30.816611874
 11
363.1107656736
 21
30.8488747093
 12
363.9779528428
 22
30.8488747093
 13
363.9779528428
 23
30.8488747093
  0
SOLID
  8
0
 62
7
  6
CONTINUOUS
 10
363.9779528428
 20
30.8488747093
 11
363.6888904531
 21
30.816611874
 12
363.3420154531
 22
30.816611874
 13
363.3420154531
 23
30.816611874
  0
SOLID
  8
0
 62
7
  6
CONTINUOUS
 10
368.3717032839
 20
30.9779303754
 11
368.0248282839
 21
30.9456661188
 12
368.2560780634
 22
31.0101931623
 13
368.2560780634
 23
31.0101931623
  0
SOLID
  8
0
 62
7
  6
CONTINUOUS
 10
368.2560780634
 20
31.0101931623
 11
368.0248282839
 21
30.9456661188
 12
368.1982657839
 22
31.0747202992
 13
368.1982657839
 23
31.0747202992
  0
SOLID
  8
0
 62
7
  6
CONTINUOUS
 10
368.0248282839
 20
30.9456661188
 11
367.9092030634
 21
31.0747202992
 12
368.1982657839
 22
31.0747202992
 13
368.1982657839
 23
31.0747202992
  0
SOLID
  8
0
 62
7
  6
CONTINUOUS
 10
368.3717032839
 20
30.9779303754
 11
368.7185782839
 21
30.9456661188
 12
368.0248282839
 22
30.9456661188
 13
368.0248282839
 23
30.9456661188
  0
SOLID
  8
0
 62
7
  6
CONTINUOUS
 10
365.0763907839
 20
30.8166118918
 11
365.0763907839
 21
31.8490498836
 12
365.3654528428
 22
30.8166118918
 13
365.3654528428
 23
31.8490498836
  0
ENDBLK
  8
0
  6
BYBLOCK
 62
0
  0
BLOCK
  8
0
 62
2
  6
CONTINUOUS
  2
SYMBOL_0_BL0
 70
64
 10
241.0459637928
 20
19.6790146053
  0
TEXT
  8
0
 62
7
  6
CONTINUOUS
 10
227.3106676351
 20
19.0524287129
  7
TEXTSTYLE_3
 40
2.7338706658
  1
Ammeraal Beltech
 41
1.0
 51
15.0
 72
0
  0
TEXT
  8
0
 62
7
  6
CONTINUOUS
 10
238.1114684608
 20
16.7788920401
  7
TEXTSTYLE_4
 40
1.0935482663
  1
Innovation & Service in Belting
 41
1.0
 72
0
  0
LINE
  8
0
 62
7
  6
CONTINUOUS
 10
221.2861269837
 20
19.8190220215
 11
222.0642789771
 21
23.4799393191
  0
LINE
  8
0
 62
7
  6
CONTINUOUS
 10
232.1594472669
 20
27.1433332308
 11
222.5520967201
 21
24.0217158095
  0
LINE
  8
0
 62
7
  6
CONTINUOUS
 10
221.511410316
 20
19.1256712184
 11
229.0184855772
 21
12.3662702925
  0
LINE
  8
0
 62
7
  6
CONTINUOUS
 10
221.7739447268
 20
20.3607985118
 11
232.5822140919
 21
23.8726181108
  0
LINE
  8
0
 62
7
  6
CONTINUOUS
 10
232.5780089548
 20
13.522829547
 11
224.132549286
 21
21.1271555887
  0
LINE
  8
0
 62
7
  6
CONTINUOUS
 10
233.0978316746
 20
26.298408115
 11
232.1212721373
 21
21.7040567125
  0
LINE
  8
0
 62
7
  6
CONTINUOUS
 10
231.4214701896
 20
18.4117473987
 11
230.7350219782
 21
15.1822624744
  0
LINE
  8
0
 62
7
  6
CONTINUOUS
 10
233.7789277731
 20
13.9130317247
 11
234.7351593087
 21
18.4117473987
  0
LINE
  8
0
 62
7
  6
CONTINUOUS
 10
235.4349612564
 20
21.7040567125
 11
235.8792030588
 21
23.7940500719
  0
LINE
  8
0
 62
7
  6
CONTINUOUS
 10
229.7315866525
 20
12.2146959798
 11
233.2911100301
 21
13.3712552343
  0
LINE
  8
0
 62
7
  6
CONTINUOUS
 10
232.8725483422
 20
26.9917589181
 11
235.6539197265
 21
24.487400875
  0
ARC
  8
0
 62
7
  6
CONTINUOUS
 10
222.7773800524
 20
23.3283650064
 40
0.7290321776
 50
108.0
 51
168.0
  0
ARC
  8
0
 62
7
  6
CONTINUOUS
 10
232.3847305992
 20
26.4499824277
 40
0.7290321776
 50
348.0
 51
108.0
  0
ARC
  8
0
 62
7
  6
CONTINUOUS
 10
235.1661019835
 20
23.9456243846
 40
0.7290321776
 50
348.0
 51
48.0
  0
ARC
  8
0
 62
7
  6
CONTINUOUS
 10
229.5063033202
 20
12.9080467828
 40
0.7290321776
 50
228.0
 51
288.0
  0
ARC
  8
0
 62
7
  6
CONTINUOUS
 10
221.9992280591
 20
19.6674477088
 40
0.7290321776
 50
108.0
 51
228.0
  0
ARC
  8
0
 62
7
  6
CONTINUOUS
 10
233.0658266978
 20
14.0646060374
 40
0.7290321776
 50
228.0
 51
348.0
  0
ENDBLK
  8
0
  6
BYBLOCK
 62
0
  0
ENDSEC
  0
SECTION
  2
ENTITIES
  0
TEXT
  8
0
 62
5
  6
CONTINUOUS
 10
304.937007874
 20
25.636
  7
TEXTSTYLE_2
 40
2.8
  1
Scale :
 41
0.6
 51
0.000019
 72
0
  0
TEXT
  8
0
 62
5
  6
CONTINUOUS
 10
324.937007874
 20
25.636
  7
TEXTSTYLE_2
 40
2.8
  1
Chain type:
 41
0.6
 51
0.000019
 72
0
  0
INSERT
  8
0
 62
2
  6
CONTINUOUS
  2
SYMBOL_0_BL0
 10
241.0459637928
 20
19.6790146053
  0
INSERT
  8
0
 62
2
  6
CONTINUOUS
  2
SYMBOL_5_BL1
 10
382.3920721743
 20
35.81661148
  0
LINE
  8
0
 62
2
  6
CONTINUOUS
 10
218.937007874
 20
30.0
 11
408.937007874
 21
30.0
  0
LINE
  8
0
 62
2
  6
CONTINUOUS
 10
218.937007874
 20
30.0
 11
218.937007874
 21
10.0
  0
LINE
  8
0
 62
2
  6
CONTINUOUS
 10
218.937007874
 20
10.0
 11
408.937007874
 21
10.0
  0
LINE
  8
0
 62
2
  6
CONTINUOUS
 10
303.937007874
 20
30.0
 11
303.937007874
 21
10.0
  0
LINE
  8
0
 62
2
  6
CONTINUOUS
 10
323.937007874
 20
30.0
 11
323.937007874
 21
10.0
  0
LINE
  8
0
 62
2
  6
CONTINUOUS
 10
408.937007874
 20
30.0
 11
408.937007874
 21
10.0
  0
TEXT
  8
0
 62
5
  6
CONTINUOUS
 10
221.937007874
 20
23.303
  7
TEXTSTYLE_5
 40
1.52
  1
                                                                     Ammeraal Beltech Modular A/S
 41
1.0
 72
0
  0
TEXT
  8
0
 62
5
  6
CONTINUOUS
 10
221.937007874
 20
20.595
  7
TEXTSTYLE_5
 40
1.5
  1
                                                                      Hjulmagervej 21, 7100 Vejle,  DK
 41
1.0
 72
0
  0
TEXT
  8
0
 62
5
  6
CONTINUOUS
 10
221.937007874
 20
17.881
  7
TEXTSTYLE_5
 40
1.495
  1
                                                                      tel: 
 41
1.0
 72
0
  0
TEXT
  8
0
 62
5
  6
CONTINUOUS
 10
266.9239544389
 20
17.881
  7
TEXTSTYLE_5
 40
1.51
  1
+45 75723100     fax: +45 75723348
 41
1.0
 72
0
  0
TEXT
  8
0
 62
5
  6
CONTINUOUS
 10
221.937007874
 20
15.177
  7
TEXTSTYLE_5
 40
1.5
  1
                                                                      admin@unichains.dk  www.unichains.com
 41
1.0
 72
0
  0
TEXT
  8
0
 62
5
  6
CONTINUOUS
 10
308.687007874
 20
13.75
  7
TEXTSTYLE_6
 40
5.0
  1
1:1
 41
0.7
 72
1
 11
313.937007874
 21
13.75
  0
TEXT
  8
0
 62
5
  6
CONTINUOUS
 10
326.937007874
 20
13.75
  7
TEXTSTYLE_7
 40
7.5
  1
uni 820 K250
 41
0.6847222222
 72
0
  0
LINE
  8
0
 62
7
  6
CONTINUOUS
 10
0.0
 20
0.0
 11
0.0
 21
297.0
  0
LINE
  8
0
 62
7
  6
CONTINUOUS
 10
8.937007874
 20
10.0
 11
8.937007874
 21
287.0
  0
LINE
  8
0
 62
7
  6
CONTINUOUS
 10
0.0
 20
0.0
 11
420.0
 21
0.0
  0
LINE
  8
0
 62
7
  6
CONTINUOUS
 10
408.937007874
 20
10.0
 11
8.937007874
 21
10.0
  0
LINE
  8
0
 62
7
  6
CONTINUOUS
 10
218.937007874
 20
30.0
 11
408.937007874
 21
30.0
  0
LINE
  8
0
 62
7
  6
CONTINUOUS
 10
210.0
 20
297.0
 11
210.0
 21
292.0
  0
LINE
  8
0
 62
7
  6
CONTINUOUS
 10
210.0
 20
0.0
 11
210.0
 21
5.0
  0
LINE
  8
0
 62
7
  6
CONTINUOUS
 10
8.937007874
 20
287.0
 11
408.937007874
 21
287.0
  0
LINE
  8
0
 62
7
  6
CONTINUOUS
 10
0.0
 20
297.0
 11
420.0
 21
297.0
  0
LINE
  8
0
 62
7
  6
CONTINUOUS
 10
408.937007874
 20
287.0
 11
408.937007874
 21
10.0
  0
LINE
  8
0
 62
7
  6
CONTINUOUS
 10
420.0
 20
0.0
 11
420.0
 21
297.0
  0
LINE
  8
0
 62
7
  6
CONTINUOUS
 10
99.4604508197
 20
187.1167260992
 11
99.4604508197
 21
153.8930326011
  0
LINE
  8
0
 62
7
  6
CONTINUOUS
 10
110.3133650961
 20
150.6510478759
 11
110.3166247155
 21
150.6456363111
  0
POLYLINE
  8
0
 62
7
  6
CONTINUOUS
 66
1
 70
0
  0
VERTEX
  8
0
 62
7
  6
CONTINUOUS
 10
110.3166247155
 20
150.6456363111
  0
VERTEX
  8
0
 62
7
  6
CONTINUOUS
 10
110.330500203
 20
150.622113365
  0
VERTEX
  8
0
 62
7
  6
CONTINUOUS
 10
110.3422722901
 20
150.6012882537
  0
VERTEX
  8
0
 62
7
  6
CONTINUOUS
 10
110.3521969651
 20
150.5828209708
  0
VERTEX
  8
0
 62
7
  6
CONTINUOUS
 10
110.3604808535
 20
150.5664851222
  0
VERTEX
  8
0
 62
7
  6
CONTINUOUS
 10
110.367287877
 20
150.5521369786
  0
VERTEX
  8
0
 62
7
  6
CONTINUOUS
 10
110.372800585
 20
150.5395987146
  0
VERTEX
  8
0
 62
7
  6
CONTINUOUS
 10
110.3771401943
 20
150.5288363327
  0
VERTEX
  8
0
 62
7
  6
CONTINUOUS
 10
110.3804508387
 20
150.5197612325
  0
VERTEX
  8
0
 62
7
  6
CONTINUOUS
 10
110.3828359366
 20
150.5124070712
  0
VERTEX
  8
0
 62
7
  6
CONTINUOUS
 10
110.3844291866
 20
150.5067535719
  0
VERTEX
  8
0
 62
7
  6
CONTINUOUS
 10
110.3853351891
 20
150.5029295185
  0
SEQEND
  0
POLYLINE
  8
0
 62
7
  6
CONTINUOUS
 66
1
 70
0
  0
VERTEX
  8
0
 62
7
  6
CONTINUOUS
 10
101.9391847011
 20
151.5540186605
  0
VERTEX
  8
0
 62
7
  6
CONTINUOUS
 10
101.9378996073
 20
151.5271728951
  0
VERTEX
  8
0
 62
7
  6
CONTINUOUS
 10
101.9369058642
 20
151.5005384989
  0
VERTEX
  8
0
 62
7
  6
CONTINUOUS
 10
101.9361969482
 20
151.4741194705
  0
VERTEX
  8
0
 62
7
  6
CONTINUOUS
 10
101.9357924302
 20
151.4479917996
  0
VERTEX
  8
0
 62
7
  6
CONTINUOUS
 10
101.9357065122
 20
151.4222167657
  0
VERTEX
  8
0
 62
7
  6
CONTINUOUS
 10
101.9359487769
 20
151.3968289425
  0
VERTEX
  8
0
 62
7
  6
CONTINUOUS
 10
101.9365303072
 20
151.3718706909
  0
VERTEX
  8
0
 62
7
  6
CONTINUOUS
 10
101.9374608047
 20
151.3473700508
  0
VERTEX
  8
0
 62
7
  6
CONTINUOUS
 10
101.9387502924
 20
151.3233587422
  0
VERTEX
  8
0
 62
7
  6
CONTINUOUS
 10
101.9404088881
 20
151.2998601497
  0
VERTEX
  8
0
 62
7
  6
CONTINUOUS
 10
101.942446381
 20
151.2768995439
  0
VERTEX
  8
0
 62
7
  6
CONTINUOUS
 10
101.9448737801
 20
151.2544961094
  0
VERTEX
  8
0
 62
7
  6
CONTINUOUS
 10
101.9477014052
 20
151.2326695122
  0
VERTEX
  8
0
 62
7
  6
CONTINUOUS
 10
101.950941113
 20
151.2114375567
  0
VERTEX
  8
0
 62
7
  6
CONTINUOUS
 10
101.9546036715
 20
151.1908176693
  0
VERTEX
  8
0
 62
7
  6
CONTINUOUS
 10
101.9587026669
 20
151.1708244096
  0
VERTEX
  8
0
 62
7
  6
CONTINUOUS
 10
101.9632499217
 20
151.1514719932
  0
VERTEX
  8
0
 62
7
  6
CONTINUOUS
 10
101.968261494
 20
151.1327728898
  0
VERTEX
  8
0
 62
7
  6
CONTINUOUS
 10
101.9737509159
 20
151.1147387421
  0
VERTEX
  8
0
 62
7
  6
CONTINUOUS
 10
101.9797375872
 20
151.0973802367
  0
VERTEX
  8
0
 62
7
  6
CONTINUOUS
 10
101.9862374636
 20
151.0807068059
  0
VERTEX
  8
0
 62
7
  6
CONTINUOUS
 10
101.9932744095
 20
151.0647275667
  0
VERTEX
  8
0
 62
7
  6
CONTINUOUS
 10
102.0008678598
 20
151.0494499595
  0
VERTEX
  8
0
 62
7
  6
CONTINUOUS
 10
102.0090470592
 20
151.0348815924
  0
VERTEX
  8
0
 62
7
  6
CONTINUOUS
 10
102.0178354154
 20
151.0210279021
  0
VERTEX
  8
0
 62
7
  6
CONTINUOUS
 10
102.0272698756
 20
151.007895117
  0
VERTEX
  8
0
 62
7
  6
CONTINUOUS
 10
102.0373790153
 20
150.9954865693
  0
VERTEX
  8
0
 62
7
  6
CONTINUOUS
 10
102.0482113578
 20
150.9838072909
  0
VERTEX
  8
0
 62
7
  6
CONTINUOUS
 10
102.0598031838
 20
150.9728583286
  0
VERTEX
  8
0
 62
7
  6
CONTINUOUS
 10
102.0722197961
 20
150.9626436522
  0
VERTEX
  8
0
 62
7
  6
CONTINUOUS
 10
102.085509058
 20
150.9531611995
  0
VERTEX
  8
0
 62
7
  6
CONTINUOUS
 10
102.099759568
 20
150.9444151744
  0
VERTEX
  8
0
 62
7
  6
CONTINUOUS
 10
102.115034447
 20
150.9364006451
  0
VERTEX
  8
0
 62
7
  6
CONTINUOUS
 10
102.131457991
 20
150.9291206429
  0
VERTEX
  8
0
 62
7
  6
CONTINUOUS
 10
102.1491164196
 20
150.9225645958
  0
VERTEX
  8
0
 62
7
  6
CONTINUOUS
 10
102.1681870824
 20
150.9167351054
  0
VERTEX
  8
0
 62
7
  6
CONTINUOUS
 10
102.1887878468
 20
150.9116127173
  0
VERTEX
  8
0
 62
7
  6
CONTINUOUS
 10
102.2111833786
 20
150.9071999172
  0
VERTEX
  8
0
 62
7
  6
CONTINUOUS
 10
102.2355462743
 20
150.90346219
  0
VERTEX
  8
0
 62
7
  6
CONTINUOUS
 10
102.2622706101
 20
150.9004015491
  0
VERTEX
  8
0
 62
7
  6
CONTINUOUS
 10
102.2918644452
 20
150.8979962682
  0
VERTEX
  8
0
 62
7
  6
CONTINUOUS
 10
102.3241584266
 20
150.8961301363
  0
SEQEND
  0
LINE
  8
0
 62
7
  6
CONTINUOUS
 10
151.4854508197
 20
149.1024180328
 11
145.0854508197
 21
149.1024180328
  0
LINE
  8
0
 62
7
  6
CONTINUOUS
 10
133.5854508197
 20
149.1024180328
 11
128.7854508197
 21
149.1024180328
  0
LINE
  8
0
 62
7
  6
CONTINUOUS
 10
117.2854508197
 20
149.1024180328
 11
110.8854508197
 21
149.1024180328
  0
LINE
  8
0
 62
7
  6
CONTINUOUS
 10
110.3853351891
 20
150.5029295185
 11
110.3855540765
 21
150.5018403162
  0
LINE
  8
0
 62
7
  6
CONTINUOUS
 10
159.9104508197
 20
150.8924180328
 11
152.4854508197
 21
150.8924180328
  0
LINE
  8
0
 62
7
  6
CONTINUOUS
 10
109.8854508197
 20
150.8924180328
 11
102.4604508197
 21
150.8924180328
  0
LINE
  8
0
 62
7
  6
CONTINUOUS
 10
110.3854508197
 20
149.6024180328
 11
110.3854508197
 21
150.5023541309
  0
LINE
  8
AXES
 62
2
  6
CENTER
 10
108.3854508197
 20
155.5824180328
 11
152.7854508197
 21
155.5824180328
  0
LINE
  8
0
 62
7
  6
CONTINUOUS
 10
117.2854508197
 20
159.8824180328
 11
117.3959726288
 21
159.7422897517
  0
LINE
  8
0
 62
7
  6
CONTINUOUS
 10
117.3959726288
 20
159.7422897517
 11
117.4586613265
 21
159.6620133492
  0
LINE
  8
0
 62
7
  6
CONTINUOUS
 10
117.4586613265
 20
159.6620133492
 11
117.5046902252
 21
159.6023404384
  0
LINE
  8
0
 62
7
  6
CONTINUOUS
 10
117.5046902252
 20
159.6023404384
 11
117.5346671131
 21
159.5629963325
  0
LINE
  8
0
 62
7
  6
CONTINUOUS
 10
117.5346671131
 20
159.5629963325
 11
117.5639206209
 21
159.5241171377
  0
POLYLINE
  8
0
 62
7
  6
CONTINUOUS
 66
1
 70
0
  0
VERTEX
  8
0
 62
7
  6
CONTINUOUS
 10
117.5639206209
 20
159.5241171377
  0
VERTEX
  8
0
 62
7
  6
CONTINUOUS
 10
117.5923085845
 20
159.4858029568
  0
VERTEX
  8
0
 62
7
  6
CONTINUOUS
 10
117.6061304531
 20
159.4668899106
  0
VERTEX
  8
0
 62
7
  6
CONTINUOUS
 10
117.6196778982
 20
159.4481580459
  0
VERTEX
  8
0
 62
7
  6
CONTINUOUS
 10
117.6329285664
 20
159.4296206386
  0
VERTEX
  8
0
 62
7
  6
CONTINUOUS
 10
117.6458606869
 20
159.4112933162
  0
VERTEX
  8
0
 62
7
  6
CONTINUOUS
 10
117.658449308
 20
159.3931903362
  0
VERTEX
  8
0
 62
7
  6
CONTINUOUS
 10
117.6706698218
 20
159.3753290844
  0
VERTEX
  8
0
 62
7
  6
CONTINUOUS
 10
117.6824939883
 20
159.3577251499
  0
VERTEX
  8
0
 62
7
  6
CONTINUOUS
 10
117.6938935693
 20
159.3403981798
  0
VERTEX
  8
0
 62
7
  6
CONTINUOUS
 10
117.7048362033
 20
159.3233655154
  0
VERTEX
  8
0
 62
7
  6
CONTINUOUS
 10
117.7152890398
 20
159.3066496637
  0
VERTEX
  8
0
 62
7
  6
CONTINUOUS
 10
117.7252148077
 20
159.2902699128
  0
VERTEX
  8
0
 62
7
  6
CONTINUOUS
 10
117.7345742101
 20
159.2742532611
  0
VERTEX
  8
0
 62
7
  6
CONTINUOUS
 10
117.7433233026
 20
159.2586227764
  0
VERTEX
  8
0
 62
7
  6
CONTINUOUS
 10
117.751415795
 20
159.2434095385
  0
VERTEX
  8
0
 62
7
  6
CONTINUOUS
 10
117.7588003952
 20
159.2286402036
  0
VERTEX
  8
0
 62
7
  6
CONTINUOUS
 10
117.7654221132
 20
159.2143511111
  0
VERTEX
  8
0
 62
7
  6
CONTINUOUS
 10
117.7712210413
 20
159.2005736499
  0
VERTEX
  8
0
 62
7
  6
CONTINUOUS
 10
117.7761325922
 20
159.1873493291
  0
VERTEX
  8
0
 62
7
  6
CONTINUOUS
 10
117.7800875814
 20
159.1747149303
  0
VERTEX
  8
0
 62
7
  6
CONTINUOUS
 10
117.7830117649
 20
159.1627160242
  0
VERTEX
  8
0
 62
7
  6
CONTINUOUS
 10
117.7848274496
 20
159.151417671
  0
VERTEX
  8
0
 62
7
  6
CONTINUOUS
 10
117.7854508197
 20
159.1407981841
  0
SEQEND
  0
LINE
  8
0
 62
7
  6
CONTINUOUS
 10
117.7854508197
 20
149.6024180328
 11
117.7854508197
 21
159.1407978877
  0
POLYLINE
  8
0
 62
7
  6
CONTINUOUS
 66
1
 70
0
  0
VERTEX
  8
0
 62
7
  6
CONTINUOUS
 10
134.2004343974
 20
159.0955151874
  0
VERTEX
  8
0
 62
7
  6
CONTINUOUS
 10
134.2556748117
 20
159.1078270083
  0
VERTEX
  8
0
 62
7
  6
CONTINUOUS
 10
134.2764008132
 20
159.1123222424
  0
VERTEX
  8
0
 62
7
  6
CONTINUOUS
 10
134.2982689215
 20
159.1168853921
  0
VERTEX
  8
0
 62
7
  6
CONTINUOUS
 10
134.3211536385
 20
159.1214211423
  0
VERTEX
  8
0
 62
7
  6
CONTINUOUS
 10
134.3449572463
 20
159.1258307551
  0
VERTEX
  8
0
 62
7
  6
CONTINUOUS
 10
134.3696009095
 20
159.1300352631
  0
VERTEX
  8
0
 62
7
  6
CONTINUOUS
 10
134.3950115674
 20
159.1339515505
  0
VERTEX
  8
0
 62
7
  6
CONTINUOUS
 10
134.4210741784
 20
159.1375069283
  0
VERTEX
  8
0
 62
7
  6
CONTINUOUS
 10
134.4476796637
 20
159.1406274524
  0
VERTEX
  8
0
 62
7
  6
CONTINUOUS
 10
134.4747370753
 20
159.1432612936
  0
VERTEX
  8
0
 62
7
  6
CONTINUOUS
 10
134.502158779
 20
159.14535652
  0
VERTEX
  8
0
 62
7
  6
CONTINUOUS
 10
134.5298257539
 20
159.1468802438
  0
VERTEX
  8
0
 62
7
  6
CONTINUOUS
 10
134.5575712384
 20
159.1478010619
  0
VERTEX
  8
0
 62
7
  6
CONTINUOUS
 10
134.5854508197
 20
159.1481099664
  0
SEQEND
  0
POLYLINE
  8
0
 62
7
  6
CONTINUOUS
 66
1
 70
0
  0
VERTEX
  8
0
 62
7
  6
CONTINUOUS
 10
134.1184771244
 20
159.0824180638
  0
VERTEX
  8
0
 62
7
  6
CONTINUOUS
 10
134.1228959363
 20
159.0825079236
  0
VERTEX
  8
0
 62
7
  6
CONTINUOUS
 10
134.1327980354
 20
159.0832111808
  0
VERTEX
  8
0
 62
7
  6
CONTINUOUS
 10
134.1438918301
 20
159.0845692554
  0
VERTEX
  8
0
 62
7
  6
CONTINUOUS
 10
134.1562137499
 20
159.0865364814
  0
VERTEX
  8
0
 62
7
  6
CONTINUOUS
 10
134.1697470957
 20
159.0890564952
  0
VERTEX
  8
0
 62
7
  6
CONTINUOUS
 10
134.1844784498
 20
159.092068472
  0
VERTEX
  8
0
 62
7
  6
CONTINUOUS
 10
134.2004343974
 20
159.0955151874
  0
SEQEND
  0
POLYLINE
  8
0
 62
7
  6
CONTINUOUS
 66
1
 70
0
  0
VERTEX
  8
0
 62
7
  6
CONTINUOUS
 10
117.8184771244
 20
159.0824180638
  0
VERTEX
  8
0
 62
7
  6
CONTINUOUS
 10
117.8228959363
 20
159.0825079236
  0
VERTEX
  8
0
 62
7
  6
CONTINUOUS
 10
117.8327980354
 20
159.0832111808
  0
VERTEX
  8
0
 62
7
  6
CONTINUOUS
 10
117.8438918301
 20
159.0845692554
  0
VERTEX
  8
0
 62
7
  6
CONTINUOUS
 10
117.8562137499
 20
159.0865364814
  0
VERTEX
  8
0
 62
7
  6
CONTINUOUS
 10
117.8697470957
 20
159.0890564952
  0
VERTEX
  8
0
 62
7
  6
CONTINUOUS
 10
117.8844784498
 20
159.092068472
  0
VERTEX
  8
0
 62
7
  6
CONTINUOUS
 10
117.9004343974
 20
159.0955151874
  0
SEQEND
  0
LINE
  8
0
 62
7
  6
CONTINUOUS
 10
117.7854508197
 20
159.0824180328
 11
117.818907793
 21
159.0824180328
  0
LINE
  8
0
 62
7
  6
CONTINUOUS
 10
128.2519938463
 20
159.0824180328
 11
128.2854508197
 21
159.0824180328
  0
LINE
  8
0
 62
7
  6
CONTINUOUS
 10
134.0854508197
 20
159.0824180328
 11
134.118907793
 21
159.0824180328
  0
LINE
  8
0
 62
7
  6
CONTINUOUS
 10
144.5519938463
 20
159.0824180328
 11
144.5854508197
 21
159.0824180328
  0
LINE
  8
0
 62
7
  6
CONTINUOUS
 10
127.7854508197
 20
159.1481099664
 11
118.2854508197
 21
159.1481099664
  0
LINE
  8
0
 62
7
  6
CONTINUOUS
 10
134.5854508197
 20
159.1481099664
 11
144.0854508197
 21
159.1481099664
  0
POLYLINE
  8
0
 62
7
  6
CONTINUOUS
 66
1
 70
0
  0
VERTEX
  8
0
 62
7
  6
CONTINUOUS
 10
127.7854508197
 20
159.1481099664
  0
VERTEX
  8
0
 62
7
  6
CONTINUOUS
 10
127.813330401
 20
159.1478010619
  0
VERTEX
  8
0
 62
7
  6
CONTINUOUS
 10
127.8410758855
 20
159.1468802438
  0
VERTEX
  8
0
 62
7
  6
CONTINUOUS
 10
127.8687428603
 20
159.14535652
  0
VERTEX
  8
0
 62
7
  6
CONTINUOUS
 10
127.8961645641
 20
159.1432612936
  0
VERTEX
  8
0
 62
7
  6
CONTINUOUS
 10
127.9232219756
 20
159.1406274524
  0
VERTEX
  8
0
 62
7
  6
CONTINUOUS
 10
127.9498274609
 20
159.1375069283
  0
VERTEX
  8
0
 62
7
  6
CONTINUOUS
 10
127.975890072
 20
159.1339515505
  0
VERTEX
  8
0
 62
7
  6
CONTINUOUS
 10
128.0013007298
 20
159.1300352631
  0
VERTEX
  8
0
 62
7
  6
CONTINUOUS
 10
128.0259443931
 20
159.1258307551
  0
VERTEX
  8
0
 62
7
  6
CONTINUOUS
 10
128.0497480008
 20
159.1214211423
  0
VERTEX
  8
0
 62
7
  6
CONTINUOUS
 10
128.0726327178
 20
159.1168853921
  0
VERTEX
  8
0
 62
7
  6
CONTINUOUS
 10
128.0945008261
 20
159.1123222424
  0
VERTEX
  8
0
 62
7
  6
CONTINUOUS
 10
128.1152268276
 20
159.1078270083
  0
SEQEND
  0
POLYLINE
  8
0
 62
7
  6
CONTINUOUS
 66
1
 70
0
  0
VERTEX
  8
0
 62
7
  6
CONTINUOUS
 10
144.0854508197
 20
159.1481099664
  0
VERTEX
  8
0
 62
7
  6
CONTINUOUS
 10
144.113330401
 20
159.1478010619
  0
VERTEX
  8
0
 62
7
  6
CONTINUOUS
 10
144.1410758855
 20
159.1468802438
  0
VERTEX
  8
0
 62
7
  6
CONTINUOUS
 10
144.1687428603
 20
159.14535652
  0
VERTEX
  8
0
 62
7
  6
CONTINUOUS
 10
144.1961645641
 20
159.1432612936
  0
VERTEX
  8
0
 62
7
  6
CONTINUOUS
 10
144.2232219756
 20
159.1406274524
  0
VERTEX
  8
0
 62
7
  6
CONTINUOUS
 10
144.2498274609
 20
159.1375069283
  0
VERTEX
  8
0
 62
7
  6
CONTINUOUS
 10
144.275890072
 20
159.1339515505
  0
VERTEX
  8
0
 62
7
  6
CONTINUOUS
 10
144.3013007298
 20
159.1300352631
  0
VERTEX
  8
0
 62
7
  6
CONTINUOUS
 10
144.3259443931
 20
159.1258307551
  0
VERTEX
  8
0
 62
7
  6
CONTINUOUS
 10
144.3497480008
 20
159.1214211423
  0
VERTEX
  8
0
 62
7
  6
CONTINUOUS
 10
144.3726327178
 20
159.1168853921
  0
VERTEX
  8
0
 62
7
  6
CONTINUOUS
 10
144.3945008261
 20
159.1123222424
  0
VERTEX
  8
0
 62
7
  6
CONTINUOUS
 10
144.4152268276
 20
159.1078270083
  0
SEQEND
  0
POLYLINE
  8
0
 62
7
  6
CONTINUOUS
 66
1
 70
0
  0
VERTEX
  8
0
 62
7
  6
CONTINUOUS
 10
128.1704672419
 20
159.0955151874
  0
VERTEX
  8
0
 62
7
  6
CONTINUOUS
 10
128.1864231895
 20
159.092068472
  0
VERTEX
  8
0
 62
7
  6
CONTINUOUS
 10
128.2011545436
 20
159.0890564952
  0
VERTEX
  8
0
 62
7
  6
CONTINUOUS
 10
128.2146878894
 20
159.0865364814
  0
VERTEX
  8
0
 62
7
  6
CONTINUOUS
 10
128.2270098093
 20
159.0845692554
  0
VERTEX
  8
0
 62
7
  6
CONTINUOUS
 10
128.238103604
 20
159.0832111808
  0
VERTEX
  8
0
 62
7
  6
CONTINUOUS
 10
128.2480057031
 20
159.0825079236
  0
VERTEX
  8
0
 62
7
  6
CONTINUOUS
 10
128.252424515
 20
159.0824180638
  0
SEQEND
  0
LINE
  8
0
 62
7
  6
CONTINUOUS
 10
128.1152268276
 20
159.1078270083
 11
128.1704672419
 21
159.0955151874
  0
LINE
  8
0
 62
7
  6
CONTINUOUS
 10
118.2354508197
 20
190.1240378815
 11
118.2354508197
 21
199.6824180328
  0
LINE
  8
0
 62
7
  6
CONTINUOUS
 10
127.6423085845
 20
189.7790331088
 11
127.6139206209
 21
189.7407189278
  0
LINE
  8
0
 62
7
  6
CONTINUOUS
 10
127.6139206209
 20
189.7407189278
 11
127.5846671131
 21
189.7018397331
  0
LINE
  8
0
 62
7
  6
CONTINUOUS
 10
127.5846671131
 20
189.7018397331
 11
127.5546902252
 21
189.6624956272
  0
LINE
  8
0
 62
7
  6
CONTINUOUS
 10
127.5546902252
 20
189.6624956272
 11
127.5086613265
 21
189.6028227164
  0
LINE
  8
0
 62
7
  6
CONTINUOUS
 10
127.5086613265
 20
189.6028227164
 11
127.4459726288
 21
189.5225463139
  0
LINE
  8
0
 62
7
  6
CONTINUOUS
 10
127.4459726288
 20
189.5225463139
 11
127.3354508197
 21
189.3824180328
  0
POLYLINE
  8
0
 62
7
  6
CONTINUOUS
 66
1
 70
0
  0
VERTEX
  8
0
 62
7
  6
CONTINUOUS
 10
117.9004343974
 20
159.0955151874
  0
VERTEX
  8
0
 62
7
  6
CONTINUOUS
 10
117.9556748117
 20
159.1078270083
  0
VERTEX
  8
0
 62
7
  6
CONTINUOUS
 10
117.9764008132
 20
159.1123222424
  0
VERTEX
  8
0
 62
7
  6
CONTINUOUS
 10
117.9982689215
 20
159.1168853921
  0
VERTEX
  8
0
 62
7
  6
CONTINUOUS
 10
118.0211536385
 20
159.1214211423
  0
VERTEX
  8
0
 62
7
  6
CONTINUOUS
 10
118.0449572463
 20
159.1258307551
  0
VERTEX
  8
0
 62
7
  6
CONTINUOUS
 10
118.0696009095
 20
159.1300352631
  0
VERTEX
  8
0
 62
7
  6
CONTINUOUS
 10
118.0950115674
 20
159.1339515505
  0
VERTEX
  8
0
 62
7
  6
CONTINUOUS
 10
118.1210741784
 20
159.1375069283
  0
VERTEX
  8
0
 62
7
  6
CONTINUOUS
 10
118.1476796637
 20
159.1406274524
  0
VERTEX
  8
0
 62
7
  6
CONTINUOUS
 10
118.1747370753
 20
159.1432612936
  0
VERTEX
  8
0
 62
7
  6
CONTINUOUS
 10
118.202158779
 20
159.14535652
  0
VERTEX
  8
0
 62
7
  6
CONTINUOUS
 10
118.2298257539
 20
159.1468802438
  0
VERTEX
  8
0
 62
7
  6
CONTINUOUS
 10
118.2575712384
 20
159.1478010619
  0
VERTEX
  8
0
 62
7
  6
CONTINUOUS
 10
118.2854508197
 20
159.1481099664
  0
SEQEND
  0
POLYLINE
  8
0
 62
7
  6
CONTINUOUS
 66
1
 70
0
  0
VERTEX
  8
0
 62
7
  6
CONTINUOUS
 10
144.4704672419
 20
159.0955151874
  0
VERTEX
  8
0
 62
7
  6
CONTINUOUS
 10
144.4864231895
 20
159.092068472
  0
VERTEX
  8
0
 62
7
  6
CONTINUOUS
 10
144.5011545436
 20
159.0890564952
  0
VERTEX
  8
0
 62
7
  6
CONTINUOUS
 10
144.5146878894
 20
159.0865364814
  0
VERTEX
  8
0
 62
7
  6
CONTINUOUS
 10
144.5270098093
 20
159.0845692554
  0
VERTEX
  8
0
 62
7
  6
CONTINUOUS
 10
144.538103604
 20
159.0832111808
  0
VERTEX
  8
0
 62
7
  6
CONTINUOUS
 10
144.5480057031
 20
159.0825079236
  0
VERTEX
  8
0
 62
7
  6
CONTINUOUS
 10
144.552424515
 20
159.0824180638
  0
SEQEND
  0
LINE
  8
0
 62
7
  6
CONTINUOUS
 10
144.4152268276
 20
159.1078270083
 11
144.4704672419
 21
159.0955151874
  0
LINE
  8
0
 62
7
  6
CONTINUOUS
 10
100.7180952857
 20
189.5588966897
 11
100.8795310739
 21
189.4414946187
  0
LINE
  8
0
 62
7
  6
CONTINUOUS
 10
100.8795310739
 20
189.4414946187
 11
100.9604508197
 21
189.3824180328
  0
LINE
  8
0
 62
7
  6
CONTINUOUS
 10
133.5854508197
 20
159.8824180328
 11
133.6959726288
 21
159.7422897517
  0
LINE
  8
0
 62
7
  6
CONTINUOUS
 10
133.6959726288
 20
159.7422897517
 11
133.7586613265
 21
159.6620133492
  0
LINE
  8
0
 62
7
  6
CONTINUOUS
 10
133.7586613265
 20
159.6620133492
 11
133.8046902252
 21
159.6023404384
  0
LINE
  8
0
 62
7
  6
CONTINUOUS
 10
133.8046902252
 20
159.6023404384
 11
133.8346671131
 21
159.5629963325
  0
LINE
  8
0
 62
7
  6
CONTINUOUS
 10
133.8346671131
 20
159.5629963325
 11
133.8639206209
 21
159.5241171377
  0
POLYLINE
  8
0
 62
7
  6
CONTINUOUS
 66
1
 70
0
  0
VERTEX
  8
0
 62
7
  6
CONTINUOUS
 10
133.8639206209
 20
159.5241171377
  0
VERTEX
  8
0
 62
7
  6
CONTINUOUS
 10
133.8923085845
 20
159.4858029568
  0
VERTEX
  8
0
 62
7
  6
CONTINUOUS
 10
133.9061304531
 20
159.4668899106
  0
VERTEX
  8
0
 62
7
  6
CONTINUOUS
 10
133.9196778982
 20
159.4481580459
  0
VERTEX
  8
0
 62
7
  6
CONTINUOUS
 10
133.9329285664
 20
159.4296206386
  0
VERTEX
  8
0
 62
7
  6
CONTINUOUS
 10
133.9458606869
 20
159.4112933162
  0
VERTEX
  8
0
 62
7
  6
CONTINUOUS
 10
133.958449308
 20
159.3931903362
  0
VERTEX
  8
0
 62
7
  6
CONTINUOUS
 10
133.9706698218
 20
159.3753290844
  0
VERTEX
  8
0
 62
7
  6
CONTINUOUS
 10
133.9824939883
 20
159.3577251499
  0
VERTEX
  8
0
 62
7
  6
CONTINUOUS
 10
133.9938935693
 20
159.3403981798
  0
VERTEX
  8
0
 62
7
  6
CONTINUOUS
 10
134.0048362033
 20
159.3233655154
  0
VERTEX
  8
0
 62
7
  6
CONTINUOUS
 10
134.0152890398
 20
159.3066496637
  0
VERTEX
  8
0
 62
7
  6
CONTINUOUS
 10
134.0252148077
 20
159.2902699128
  0
VERTEX
  8
0
 62
7
  6
CONTINUOUS
 10
134.0345742101
 20
159.2742532611
  0
VERTEX
  8
0
 62
7
  6
CONTINUOUS
 10
134.0433233026
 20
159.2586227764
  0
VERTEX
  8
0
 62
7
  6
CONTINUOUS
 10
134.051415795
 20
159.2434095385
  0
VERTEX
  8
0
 62
7
  6
CONTINUOUS
 10
134.0588003952
 20
159.2286402036
  0
VERTEX
  8
0
 62
7
  6
CONTINUOUS
 10
134.0654221132
 20
159.2143511111
  0
VERTEX
  8
0
 62
7
  6
CONTINUOUS
 10
134.0712210413
 20
159.2005736499
  0
VERTEX
  8
0
 62
7
  6
CONTINUOUS
 10
134.0761325922
 20
159.1873493291
  0
VERTEX
  8
0
 62
7
  6
CONTINUOUS
 10
134.0800875814
 20
159.1747149303
  0
VERTEX
  8
0
 62
7
  6
CONTINUOUS
 10
134.0830117649
 20
159.1627160242
  0
VERTEX
  8
0
 62
7
  6
CONTINUOUS
 10
134.0848274496
 20
159.151417671
  0
VERTEX
  8
0
 62
7
  6
CONTINUOUS
 10
134.0854508197
 20
159.1407981841
  0
SEQEND
  0
LINE
  8
0
 62
7
  6
CONTINUOUS
 10
127.8354508197
 20
199.6824180328
 11
127.8354508197
 21
190.1240378815
  0
LINE
  8
0
 62
7
  6
CONTINUOUS
 10
128.2854508197
 20
159.1407978872
 11
128.2854508197
 21
149.6024180328
  0
POLYLINE
  8
0
 62
7
  6
CONTINUOUS
 66
1
 70
0
  0
VERTEX
  8
0
 62
7
  6
CONTINUOUS
 10
127.8354508197
 20
190.1240378815
  0
VERTEX
  8
0
 62
7
  6
CONTINUOUS
 10
127.8348274496
 20
190.1134183945
  0
VERTEX
  8
0
 62
7
  6
CONTINUOUS
 10
127.8330117649
 20
190.1021200414
  0
VERTEX
  8
0
 62
7
  6
CONTINUOUS
 10
127.8300875814
 20
190.0901211353
  0
VERTEX
  8
0
 62
7
  6
CONTINUOUS
 10
127.8261325922
 20
190.0774867365
  0
VERTEX
  8
0
 62
7
  6
CONTINUOUS
 10
127.8212210413
 20
190.0642624156
  0
VERTEX
  8
0
 62
7
  6
CONTINUOUS
 10
127.8154221132
 20
190.0504849544
  0
VERTEX
  8
0
 62
7
  6
CONTINUOUS
 10
127.8088003952
 20
190.036195862
  0
VERTEX
  8
0
 62
7
  6
CONTINUOUS
 10
127.801415795
 20
190.021426527
  0
VERTEX
  8
0
 62
7
  6
CONTINUOUS
 10
127.7933233026
 20
190.0062132892
  0
VERTEX
  8
0
 62
7
  6
CONTINUOUS
 10
127.7845742101
 20
189.9905828044
  0
VERTEX
  8
0
 62
7
  6
CONTINUOUS
 10
127.7752148077
 20
189.9745661527
  0
VERTEX
  8
0
 62
7
  6
CONTINUOUS
 10
127.7652890398
 20
189.9581864018
  0
VERTEX
  8
0
 62
7
  6
CONTINUOUS
 10
127.7548362033
 20
189.9414705502
  0
VERTEX
  8
0
 62
7
  6
CONTINUOUS
 10
127.7438935693
 20
189.9244378858
  0
VERTEX
  8
0
 62
7
  6
CONTINUOUS
 10
127.7324939883
 20
189.9071109157
  0
VERTEX
  8
0
 62
7
  6
CONTINUOUS
 10
127.7206698218
 20
189.8895069812
  0
VERTEX
  8
0
 62
7
  6
CONTINUOUS
 10
127.708449308
 20
189.8716457293
  0
VERTEX
  8
0
 62
7
  6
CONTINUOUS
 10
127.6958606869
 20
189.8535427494
  0
VERTEX
  8
0
 62
7
  6
CONTINUOUS
 10
127.6829285664
 20
189.835215427
  0
VERTEX
  8
0
 62
7
  6
CONTINUOUS
 10
127.6696778982
 20
189.8166780197
  0
VERTEX
  8
0
 62
7
  6
CONTINUOUS
 10
127.6561304531
 20
189.7979461549
  0
VERTEX
  8
0
 62
7
  6
CONTINUOUS
 10
127.6423085845
 20
189.7790331088
  0
SEQEND
  0
LINE
  8
DEFAULT_1
 62
2
  6
CENTER
 10
131.1854508197
 20
179.8824180328
 11
131.1854508197
 21
176.6325180328
  0
LINE
  8
0
 62
2
  6
CONTINUOUS
 10
131.1854508197
 20
175.6824180328
 11
131.1854508197
 21
173.5824180328
  0
LINE
  8
DEFAULT_1
 62
2
  6
CENTER
 10
131.1854508197
 20
169.3824180328
 11
131.1854508197
 21
172.6323180328
  0
POLYLINE
  8
0
 62
7
  6
CONTINUOUS
 66
1
 70
0
  0
VERTEX
  8
0
 62
7
  6
CONTINUOUS
 10
128.2854508197
 20
159.1407981841
  0
VERTEX
  8
0
 62
7
  6
CONTINUOUS
 10
128.2860741897
 20
159.151417671
  0
VERTEX
  8
0
 62
7
  6
CONTINUOUS
 10
128.2878898744
 20
159.1627160242
  0
VERTEX
  8
0
 62
7
  6
CONTINUOUS
 10
128.2908140579
 20
159.1747149303
  0
VERTEX
  8
0
 62
7
  6
CONTINUOUS
 10
128.2947690471
 20
159.1873493291
  0
VERTEX
  8
0
 62
7
  6
CONTINUOUS
 10
128.2996805981
 20
159.2005736499
  0
VERTEX
  8
0
 62
7
  6
CONTINUOUS
 10
128.3054795261
 20
159.2143511111
  0
VERTEX
  8
0
 62
7
  6
CONTINUOUS
 10
128.3121012442
 20
159.2286402036
  0
VERTEX
  8
0
 62
7
  6
CONTINUOUS
 10
128.3194858443
 20
159.2434095385
  0
VERTEX
  8
0
 62
7
  6
CONTINUOUS
 10
128.3275783368
 20
159.2586227764
  0
VERTEX
  8
0
 62
7
  6
CONTINUOUS
 10
128.3363274293
 20
159.2742532611
  0
VERTEX
  8
0
 62
7
  6
CONTINUOUS
 10
128.3456868317
 20
159.2902699128
  0
VERTEX
  8
0
 62
7
  6
CONTINUOUS
 10
128.3556125996
 20
159.3066496637
  0
VERTEX
  8
0
 62
7
  6
CONTINUOUS
 10
128.366065436
 20
159.3233655154
  0
VERTEX
  8
0
 62
7
  6
CONTINUOUS
 10
128.3770080701
 20
159.3403981798
  0
VERTEX
  8
0
 62
7
  6
CONTINUOUS
 10
128.388407651
 20
159.3577251499
  0
VERTEX
  8
0
 62
7
  6
CONTINUOUS
 10
128.4002318176
 20
159.3753290844
  0
VERTEX
  8
0
 62
7
  6
CONTINUOUS
 10
128.4124523314
 20
159.3931903362
  0
VERTEX
  8
0
 62
7
  6
CONTINUOUS
 10
128.4250409524
 20
159.4112933162
  0
VERTEX
  8
0
 62
7
  6
CONTINUOUS
 10
128.437973073
 20
159.4296206386
  0
VERTEX
  8
0
 62
7
  6
CONTINUOUS
 10
128.4512237411
 20
159.4481580459
  0
VERTEX
  8
0
 62
7
  6
CONTINUOUS
 10
128.4647711863
 20
159.4668899106
  0
VERTEX
  8
0
 62
7
  6
CONTINUOUS
 10
128.4785930549
 20
159.4858029568
  0
SEQEND
  0
LINE
  8
DEFAULT_1
 62
2
  6
CENTER
 10
136.4354508197
 20
174.6324180328
 11
133.1855508197
 21
174.6324180328
  0
LINE
  8
0
 62
2
  6
CONTINUOUS
 10
132.2354508197
 20
174.6324180328
 11
130.1354508197
 21
174.6324180328
  0
LINE
  8
DEFAULT_1
 62
2
  6
CENTER
 10
125.9354508197
 20
174.6324180328
 11
129.1853508197
 21
174.6324180328
  0
LINE
  8
0
 62
7
  6
CONTINUOUS
 10
118.7354508197
 20
189.3824180328
 11
118.6249290106
 21
189.5225463139
  0
LINE
  8
0
 62
7
  6
CONTINUOUS
 10
118.6249290106
 20
189.5225463139
 11
118.5622403129
 21
189.6028227164
  0
LINE
  8
0
 62
7
  6
CONTINUOUS
 10
118.5622403129
 20
189.6028227164
 11
118.5162114141
 21
189.6624956272
  0
LINE
  8
0
 62
7
  6
CONTINUOUS
 10
118.5162114141
 20
189.6624956272
 11
118.4862345263
 21
189.7018397331
  0
LINE
  8
0
 62
7
  6
CONTINUOUS
 10
118.4862345263
 20
189.7018397331
 11
118.4569810184
 21
189.7407189278
  0
POLYLINE
  8
0
 62
7
  6
CONTINUOUS
 66
1
 70
0
  0
VERTEX
  8
0
 62
7
  6
CONTINUOUS
 10
118.4569810184
 20
189.7407189278
  0
VERTEX
  8
0
 62
7
  6
CONTINUOUS
 10
118.4285930549
 20
189.7790331088
  0
VERTEX
  8
0
 62
7
  6
CONTINUOUS
 10
118.4147711863
 20
189.7979461549
  0
VERTEX
  8
0
 62
7
  6
CONTINUOUS
 10
118.4012237411
 20
189.8166780197
  0
VERTEX
  8
0
 62
7
  6
CONTINUOUS
 10
118.387973073
 20
189.835215427
  0
VERTEX
  8
0
 62
7
  6
CONTINUOUS
 10
118.3750409524
 20
189.8535427494
  0
VERTEX
  8
0
 62
7
  6
CONTINUOUS
 10
118.3624523314
 20
189.8716457293
  0
VERTEX
  8
0
 62
7
  6
CONTINUOUS
 10
118.3502318176
 20
189.8895069812
  0
VERTEX
  8
0
 62
7
  6
CONTINUOUS
 10
118.338407651
 20
189.9071109157
  0
VERTEX
  8
0
 62
7
  6
CONTINUOUS
 10
118.3270080701
 20
189.9244378858
  0
VERTEX
  8
0
 62
7
  6
CONTINUOUS
 10
118.316065436
 20
189.9414705502
  0
VERTEX
  8
0
 62
7
  6
CONTINUOUS
 10
118.3056125996
 20
189.9581864018
  0
VERTEX
  8
0
 62
7
  6
CONTINUOUS
 10
118.2956868317
 20
189.9745661527
  0
VERTEX
  8
0
 62
7
  6
CONTINUOUS
 10
118.2863274293
 20
189.9905828044
  0
VERTEX
  8
0
 62
7
  6
CONTINUOUS
 10
118.2775783368
 20
190.0062132892
  0
VERTEX
  8
0
 62
7
  6
CONTINUOUS
 10
118.2694858443
 20
190.021426527
  0
VERTEX
  8
0
 62
7
  6
CONTINUOUS
 10
118.2621012442
 20
190.036195862
  0
VERTEX
  8
0
 62
7
  6
CONTINUOUS
 10
118.2554795261
 20
190.0504849544
  0
VERTEX
  8
0
 62
7
  6
CONTINUOUS
 10
118.2496805981
 20
190.0642624156
  0
VERTEX
  8
0
 62
7
  6
CONTINUOUS
 10
118.2447690471
 20
190.0774867365
  0
VERTEX
  8
0
 62
7
  6
CONTINUOUS
 10
118.2408140579
 20
190.0901211353
  0
VERTEX
  8
0
 62
7
  6
CONTINUOUS
 10
118.2378898744
 20
190.1021200414
  0
VERTEX
  8
0
 62
7
  6
CONTINUOUS
 10
118.2360741897
 20
190.1134183945
  0
VERTEX
  8
0
 62
7
  6
CONTINUOUS
 10
118.2354508197
 20
190.1240378815
  0
SEQEND
  0
LINE
  8
0
 62
7
  6
CONTINUOUS
 10
134.0854508197
 20
159.1407981841
 11
134.0854508197
 21
149.6024180328
  0
LINE
  8
0
 62
7
  6
CONTINUOUS
 10
143.9423085845
 20
189.7790331088
 11
143.9139206209
 21
189.7407189278
  0
LINE
  8
0
 62
7
  6
CONTINUOUS
 10
143.9139206209
 20
189.7407189278
 11
143.8846671131
 21
189.7018397331
  0
LINE
  8
0
 62
7
  6
CONTINUOUS
 10
143.8846671131
 20
189.7018397331
 11
143.8546902252
 21
189.6624956272
  0
LINE
  8
0
 62
7
  6
CONTINUOUS
 10
143.8546902252
 20
189.6624956272
 11
143.8086613265
 21
189.6028227164
  0
LINE
  8
0
 62
7
  6
CONTINUOUS
 10
143.8086613265
 20
189.6028227164
 11
143.7459726288
 21
189.5225463139
  0
LINE
  8
0
 62
7
  6
CONTINUOUS
 10
143.7459726288
 20
189.5225463139
 11
143.6354508197
 21
189.3824180328
  0
LINE
  8
0
 62
7
  6
CONTINUOUS
 10
134.5354508197
 20
190.1240378815
 11
134.5354508197
 21
199.6824180328
  0
LINE
  8
0
 62
7
  6
CONTINUOUS
 10
128.4785930549
 20
159.4858029568
 11
128.5069810184
 21
159.5241171377
  0
LINE
  8
0
 62
7
  6
CONTINUOUS
 10
128.5069810184
 20
159.5241171377
 11
128.5362345263
 21
159.5629963325
  0
LINE
  8
0
 62
7
  6
CONTINUOUS
 10
128.5362345263
 20
159.5629963325
 11
128.5662114141
 21
159.6023404384
  0
LINE
  8
0
 62
7
  6
CONTINUOUS
 10
128.5662114141
 20
159.6023404384
 11
128.6122403129
 21
159.6620133492
  0
LINE
  8
0
 62
7
  6
CONTINUOUS
 10
128.6122403129
 20
159.6620133492
 11
128.6749290106
 21
159.7422897517
  0
LINE
  8
0
 62
7
  6
CONTINUOUS
 10
128.6749290106
 20
159.7422897517
 11
128.7854508197
 21
159.8824180328
  0
LINE
  8
0
 62
7
  6
CONTINUOUS
 10
161.6528063537
 20
189.5588966897
 11
161.4104508197
 21
189.3824180328
  0
LINE
  8
0
 62
7
  6
CONTINUOUS
 10
144.1354508197
 20
199.6824180328
 11
144.1354508197
 21
190.1240378815
  0
LINE
  8
0
 62
7
  6
CONTINUOUS
 10
144.5854508197
 20
149.6024180328
 11
144.5854508197
 21
159.1407981841
  0
POLYLINE
  8
0
 62
7
  6
CONTINUOUS
 66
1
 70
0
  0
VERTEX
  8
0
 62
7
  6
CONTINUOUS
 10
144.1354508197
 20
190.1240378815
  0
VERTEX
  8
0
 62
7
  6
CONTINUOUS
 10
144.1348274496
 20
190.1134183945
  0
VERTEX
  8
0
 62
7
  6
CONTINUOUS
 10
144.1330117649
 20
190.1021200414
  0
VERTEX
  8
0
 62
7
  6
CONTINUOUS
 10
144.1300875814
 20
190.0901211353
  0
VERTEX
  8
0
 62
7
  6
CONTINUOUS
 10
144.1261325922
 20
190.0774867365
  0
VERTEX
  8
0
 62
7
  6
CONTINUOUS
 10
144.1212210413
 20
190.0642624156
  0
VERTEX
  8
0
 62
7
  6
CONTINUOUS
 10
144.1154221132
 20
190.0504849544
  0
VERTEX
  8
0
 62
7
  6
CONTINUOUS
 10
144.1088003952
 20
190.036195862
  0
VERTEX
  8
0
 62
7
  6
CONTINUOUS
 10
144.101415795
 20
190.021426527
  0
VERTEX
  8
0
 62
7
  6
CONTINUOUS
 10
144.0933233026
 20
190.0062132892
  0
VERTEX
  8
0
 62
7
  6
CONTINUOUS
 10
144.0845742101
 20
189.9905828044
  0
VERTEX
  8
0
 62
7
  6
CONTINUOUS
 10
144.0752148077
 20
189.9745661527
  0
VERTEX
  8
0
 62
7
  6
CONTINUOUS
 10
144.0652890398
 20
189.9581864018
  0
VERTEX
  8
0
 62
7
  6
CONTINUOUS
 10
144.0548362033
 20
189.9414705502
  0
VERTEX
  8
0
 62
7
  6
CONTINUOUS
 10
144.0438935693
 20
189.9244378858
  0
VERTEX
  8
0
 62
7
  6
CONTINUOUS
 10
144.0324939883
 20
189.9071109157
  0
VERTEX
  8
0
 62
7
  6
CONTINUOUS
 10
144.0206698218
 20
189.8895069812
  0
VERTEX
  8
0
 62
7
  6
CONTINUOUS
 10
144.008449308
 20
189.8716457293
  0
VERTEX
  8
0
 62
7
  6
CONTINUOUS
 10
143.9958606869
 20
189.8535427494
  0
VERTEX
  8
0
 62
7
  6
CONTINUOUS
 10
143.9829285664
 20
189.835215427
  0
VERTEX
  8
0
 62
7
  6
CONTINUOUS
 10
143.9696778982
 20
189.8166780197
  0
VERTEX
  8
0
 62
7
  6
CONTINUOUS
 10
143.9561304531
 20
189.7979461549
  0
VERTEX
  8
0
 62
7
  6
CONTINUOUS
 10
143.9423085845
 20
189.7790331088
  0
SEQEND
  0
LINE
  8
0
 62
7
  6
CONTINUOUS
 10
135.0354508197
 20
189.3824180328
 11
134.9249290106
 21
189.5225463139
  0
LINE
  8
0
 62
7
  6
CONTINUOUS
 10
134.9249290106
 20
189.5225463139
 11
134.8622403129
 21
189.6028227164
  0
LINE
  8
0
 62
7
  6
CONTINUOUS
 10
134.8622403129
 20
189.6028227164
 11
134.8162114141
 21
189.6624956272
  0
LINE
  8
0
 62
7
  6
CONTINUOUS
 10
134.8162114141
 20
189.6624956272
 11
134.7862345263
 21
189.7018397331
  0
LINE
  8
0
 62
7
  6
CONTINUOUS
 10
134.7862345263
 20
189.7018397331
 11
134.7569810184
 21
189.7407189278
  0
POLYLINE
  8
0
 62
7
  6
CONTINUOUS
 66
1
 70
0
  0
VERTEX
  8
0
 62
7
  6
CONTINUOUS
 10
134.7569810184
 20
189.7407189278
  0
VERTEX
  8
0
 62
7
  6
CONTINUOUS
 10
134.7285930549
 20
189.7790331088
  0
VERTEX
  8
0
 62
7
  6
CONTINUOUS
 10
134.7147711863
 20
189.7979461549
  0
VERTEX
  8
0
 62
7
  6
CONTINUOUS
 10
134.7012237411
 20
189.8166780197
  0
VERTEX
  8
0
 62
7
  6
CONTINUOUS
 10
134.687973073
 20
189.835215427
  0
VERTEX
  8
0
 62
7
  6
CONTINUOUS
 10
134.6750409524
 20
189.8535427494
  0
VERTEX
  8
0
 62
7
  6
CONTINUOUS
 10
134.6624523314
 20
189.8716457293
  0
VERTEX
  8
0
 62
7
  6
CONTINUOUS
 10
134.6502318176
 20
189.8895069812
  0
VERTEX
  8
0
 62
7
  6
CONTINUOUS
 10
134.638407651
 20
189.9071109157
  0
VERTEX
  8
0
 62
7
  6
CONTINUOUS
 10
134.6270080701
 20
189.9244378858
  0
VERTEX
  8
0
 62
7
  6
CONTINUOUS
 10
134.616065436
 20
189.9414705502
  0
VERTEX
  8
0
 62
7
  6
CONTINUOUS
 10
134.6056125996
 20
189.9581864018
  0
VERTEX
  8
0
 62
7
  6
CONTINUOUS
 10
134.5956868317
 20
189.9745661527
  0
VERTEX
  8
0
 62
7
  6
CONTINUOUS
 10
134.5863274293
 20
189.9905828044
  0
VERTEX
  8
0
 62
7
  6
CONTINUOUS
 10
134.5775783368
 20
190.0062132892
  0
VERTEX
  8
0
 62
7
  6
CONTINUOUS
 10
134.5694858443
 20
190.021426527
  0
VERTEX
  8
0
 62
7
  6
CONTINUOUS
 10
134.5621012442
 20
190.036195862
  0
VERTEX
  8
0
 62
7
  6
CONTINUOUS
 10
134.5554795261
 20
190.0504849544
  0
VERTEX
  8
0
 62
7
  6
CONTINUOUS
 10
134.5496805981
 20
190.0642624156
  0
VERTEX
  8
0
 62
7
  6
CONTINUOUS
 10
134.5447690471
 20
190.0774867365
  0
VERTEX
  8
0
 62
7
  6
CONTINUOUS
 10
134.5408140579
 20
190.0901211353
  0
VERTEX
  8
0
 62
7
  6
CONTINUOUS
 10
134.5378898744
 20
190.1021200414
  0
VERTEX
  8
0
 62
7
  6
CONTINUOUS
 10
134.5360741897
 20
190.1134183945
  0
VERTEX
  8
0
 62
7
  6
CONTINUOUS
 10
134.5354508197
 20
190.1240378815
  0
SEQEND
  0
POLYLINE
  8
0
 62
7
  6
CONTINUOUS
 66
1
 70
0
  0
VERTEX
  8
0
 62
7
  6
CONTINUOUS
 10
144.5854508197
 20
159.1407981841
  0
VERTEX
  8
0
 62
7
  6
CONTINUOUS
 10
144.5860741897
 20
159.151417671
  0
VERTEX
  8
0
 62
7
  6
CONTINUOUS
 10
144.5878898744
 20
159.1627160242
  0
VERTEX
  8
0
 62
7
  6
CONTINUOUS
 10
144.5908140579
 20
159.1747149303
  0
VERTEX
  8
0
 62
7
  6
CONTINUOUS
 10
144.5947690471
 20
159.1873493291
  0
VERTEX
  8
0
 62
7
  6
CONTINUOUS
 10
144.5996805981
 20
159.2005736499
  0
VERTEX
  8
0
 62
7
  6
CONTINUOUS
 10
144.6054795261
 20
159.2143511111
  0
VERTEX
  8
0
 62
7
  6
CONTINUOUS
 10
144.6121012442
 20
159.2286402036
  0
VERTEX
  8
0
 62
7
  6
CONTINUOUS
 10
144.6194858443
 20
159.2434095385
  0
VERTEX
  8
0
 62
7
  6
CONTINUOUS
 10
144.6275783368
 20
159.2586227764
  0
VERTEX
  8
0
 62
7
  6
CONTINUOUS
 10
144.6363274293
 20
159.2742532611
  0
VERTEX
  8
0
 62
7
  6
CONTINUOUS
 10
144.6456868317
 20
159.2902699128
  0
VERTEX
  8
0
 62
7
  6
CONTINUOUS
 10
144.6556125996
 20
159.3066496637
  0
VERTEX
  8
0
 62
7
  6
CONTINUOUS
 10
144.666065436
 20
159.3233655154
  0
VERTEX
  8
0
 62
7
  6
CONTINUOUS
 10
144.6770080701
 20
159.3403981798
  0
VERTEX
  8
0
 62
7
  6
CONTINUOUS
 10
144.688407651
 20
159.3577251499
  0
VERTEX
  8
0
 62
7
  6
CONTINUOUS
 10
144.7002318176
 20
159.3753290844
  0
VERTEX
  8
0
 62
7
  6
CONTINUOUS
 10
144.7124523314
 20
159.3931903362
  0
VERTEX
  8
0
 62
7
  6
CONTINUOUS
 10
144.7250409524
 20
159.4112933162
  0
VERTEX
  8
0
 62
7
  6
CONTINUOUS
 10
144.737973073
 20
159.4296206386
  0
VERTEX
  8
0
 62
7
  6
CONTINUOUS
 10
144.7512237411
 20
159.4481580459
  0
VERTEX
  8
0
 62
7
  6
CONTINUOUS
 10
144.7647711863
 20
159.4668899106
  0
VERTEX
  8
0
 62
7
  6
CONTINUOUS
 10
144.7785930549
 20
159.4858029568
  0
SEQEND
  0
POLYLINE
  8
0
 62
7
  6
CONTINUOUS
 66
1
 70
0
  0
VERTEX
  8
0
 62
7
  6
CONTINUOUS
 10
134.4204672419
 20
190.1693208782
  0
VERTEX
  8
0
 62
7
  6
CONTINUOUS
 10
134.3652268276
 20
190.1570090573
  0
VERTEX
  8
0
 62
7
  6
CONTINUOUS
 10
134.3445008261
 20
190.1525138232
  0
VERTEX
  8
0
 62
7
  6
CONTINUOUS
 10
134.3226327178
 20
190.1479506735
  0
VERTEX
  8
0
 62
7
  6
CONTINUOUS
 10
134.2997480008
 20
190.1434149232
  0
VERTEX
  8
0
 62
7
  6
CONTINUOUS
 10
134.2759443931
 20
190.1390053105
  0
VERTEX
  8
0
 62
7
  6
CONTINUOUS
 10
134.2513007298
 20
190.1348008025
  0
VERTEX
  8
0
 62
7
  6
CONTINUOUS
 10
134.225890072
 20
190.1308845151
  0
VERTEX
  8
0
 62
7
  6
CONTINUOUS
 10
134.1998274609
 20
190.1273291372
  0
VERTEX
  8
0
 62
7
  6
CONTINUOUS
 10
134.1732219756
 20
190.1242086131
  0
VERTEX
  8
0
 62
7
  6
CONTINUOUS
 10
134.1461645641
 20
190.1215747719
  0
VERTEX
  8
0
 62
7
  6
CONTINUOUS
 10
134.1187428603
 20
190.1194795455
  0
VERTEX
  8
0
 62
7
  6
CONTINUOUS
 10
134.0910758855
 20
190.1179558218
  0
VERTEX
  8
0
 62
7
  6
CONTINUOUS
 10
134.063330401
 20
190.1170350037
  0
VERTEX
  8
0
 62
7
  6
CONTINUOUS
 10
134.0354508197
 20
190.1167260992
  0
SEQEND
  0
POLYLINE
  8
0
 62
7
  6
CONTINUOUS
 66
1
 70
0
  0
VERTEX
  8
0
 62
7
  6
CONTINUOUS
 10
134.502424515
 20
190.1824180017
  0
VERTEX
  8
0
 62
7
  6
CONTINUOUS
 10
134.4980057031
 20
190.182328142
  0
VERTEX
  8
0
 62
7
  6
CONTINUOUS
 10
134.488103604
 20
190.1816248848
  0
VERTEX
  8
0
 62
7
  6
CONTINUOUS
 10
134.4770098093
 20
190.1802668101
  0
VERTEX
  8
0
 62
7
  6
CONTINUOUS
 10
134.4646878894
 20
190.1782995842
  0
VERTEX
  8
0
 62
7
  6
CONTINUOUS
 10
134.4511545436
 20
190.1757795704
  0
VERTEX
  8
0
 62
7
  6
CONTINUOUS
 10
134.4364231895
 20
190.1727675936
  0
VERTEX
  8
0
 62
7
  6
CONTINUOUS
 10
134.4204672419
 20
190.1693208782
  0
SEQEND
  0
POLYLINE
  8
0
 62
7
  6
CONTINUOUS
 66
1
 70
0
  0
VERTEX
  8
0
 62
7
  6
CONTINUOUS
 10
118.202424515
 20
190.1824180017
  0
VERTEX
  8
0
 62
7
  6
CONTINUOUS
 10
118.1980057031
 20
190.182328142
  0
VERTEX
  8
0
 62
7
  6
CONTINUOUS
 10
118.188103604
 20
190.1816248848
  0
VERTEX
  8
0
 62
7
  6
CONTINUOUS
 10
118.1770098093
 20
190.1802668101
  0
VERTEX
  8
0
 62
7
  6
CONTINUOUS
 10
118.1646878894
 20
190.1782995842
  0
VERTEX
  8
0
 62
7
  6
CONTINUOUS
 10
118.1511545436
 20
190.1757795704
  0
VERTEX
  8
0
 62
7
  6
CONTINUOUS
 10
118.1364231895
 20
190.1727675936
  0
VERTEX
  8
0
 62
7
  6
CONTINUOUS
 10
118.1204672419
 20
190.1693208782
  0
SEQEND
  0
LINE
  8
0
 62
7
  6
CONTINUOUS
 10
134.0354508197
 20
190.1167260992
 11
128.3354508197
 21
190.1167260992
  0
LINE
  8
0
 62
7
  6
CONTINUOUS
 10
117.7354508197
 20
190.1167260992
 11
102.4604508166
 21
190.1167260992
  0
LINE
  8
0
 62
7
  6
CONTINUOUS
 10
144.6354508197
 20
190.1167260992
 11
159.9104508228
 21
190.1167260992
  0
LINE
  8
0
 62
7
  6
CONTINUOUS
 10
144.168907793
 20
190.1824180328
 11
144.1354508197
 21
190.1824180328
  0
LINE
  8
0
 62
7
  6
CONTINUOUS
 10
134.5354508197
 20
190.1824180328
 11
134.5019938463
 21
190.1824180328
  0
LINE
  8
0
 62
7
  6
CONTINUOUS
 10
127.868907793
 20
190.1824180328
 11
127.8354508197
 21
190.1824180328
  0
LINE
  8
0
 62
7
  6
CONTINUOUS
 10
118.2354508197
 20
190.1824180328
 11
118.2019938463
 21
190.1824180328
  0
POLYLINE
  8
0
 62
7
  6
CONTINUOUS
 66
1
 70
0
  0
VERTEX
  8
0
 62
7
  6
CONTINUOUS
 10
128.3354508197
 20
190.1167260992
  0
VERTEX
  8
0
 62
7
  6
CONTINUOUS
 10
128.3075712384
 20
190.1170350037
  0
VERTEX
  8
0
 62
7
  6
CONTINUOUS
 10
128.2798257539
 20
190.1179558218
  0
VERTEX
  8
0
 62
7
  6
CONTINUOUS
 10
128.252158779
 20
190.1194795455
  0
VERTEX
  8
0
 62
7
  6
CONTINUOUS
 10
128.2247370753
 20
190.1215747719
  0
VERTEX
  8
0
 62
7
  6
CONTINUOUS
 10
128.1976796637
 20
190.1242086131
  0
VERTEX
  8
0
 62
7
  6
CONTINUOUS
 10
128.1710741784
 20
190.1273291372
  0
VERTEX
  8
0
 62
7
  6
CONTINUOUS
 10
128.1450115674
 20
190.1308845151
  0
VERTEX
  8
0
 62
7
  6
CONTINUOUS
 10
128.1196009095
 20
190.1348008025
  0
VERTEX
  8
0
 62
7
  6
CONTINUOUS
 10
128.0949572463
 20
190.1390053105
  0
VERTEX
  8
0
 62
7
  6
CONTINUOUS
 10
128.0711536385
 20
190.1434149232
  0
VERTEX
  8
0
 62
7
  6
CONTINUOUS
 10
128.0482689215
 20
190.1479506735
  0
VERTEX
  8
0
 62
7
  6
CONTINUOUS
 10
128.0264008132
 20
190.1525138232
  0
VERTEX
  8
0
 62
7
  6
CONTINUOUS
 10
128.0056748117
 20
190.1570090573
  0
SEQEND
  0
POLYLINE
  8
0
 62
7
  6
CONTINUOUS
 66
1
 70
0
  0
VERTEX
  8
0
 62
7
  6
CONTINUOUS
 10
144.6354508197
 20
190.1167260992
  0
VERTEX
  8
0
 62
7
  6
CONTINUOUS
 10
144.6075712384
 20
190.1170350037
  0
VERTEX
  8
0
 62
7
  6
CONTINUOUS
 10
144.5798257539
 20
190.1179558218
  0
VERTEX
  8
0
 62
7
  6
CONTINUOUS
 10
144.552158779
 20
190.1194795455
  0
VERTEX
  8
0
 62
7
  6
CONTINUOUS
 10
144.5247370753
 20
190.1215747719
  0
VERTEX
  8
0
 62
7
  6
CONTINUOUS
 10
144.4976796637
 20
190.1242086131
  0
VERTEX
  8
0
 62
7
  6
CONTINUOUS
 10
144.4710741784
 20
190.1273291372
  0
VERTEX
  8
0
 62
7
  6
CONTINUOUS
 10
144.4450115674
 20
190.1308845151
  0
VERTEX
  8
0
 62
7
  6
CONTINUOUS
 10
144.4196009095
 20
190.1348008025
  0
VERTEX
  8
0
 62
7
  6
CONTINUOUS
 10
144.3949572463
 20
190.1390053105
  0
VERTEX
  8
0
 62
7
  6
CONTINUOUS
 10
144.3711536385
 20
190.1434149232
  0
VERTEX
  8
0
 62
7
  6
CONTINUOUS
 10
144.3482689215
 20
190.1479506735
  0
VERTEX
  8
0
 62
7
  6
CONTINUOUS
 10
144.3264008132
 20
190.1525138232
  0
VERTEX
  8
0
 62
7
  6
CONTINUOUS
 10
144.3056748117
 20
190.1570090573
  0
SEQEND
  0
POLYLINE
  8
0
 62
7
  6
CONTINUOUS
 66
1
 70
0
  0
VERTEX
  8
0
 62
7
  6
CONTINUOUS
 10
127.9504343974
 20
190.1693208782
  0
VERTEX
  8
0
 62
7
  6
CONTINUOUS
 10
127.9344784498
 20
190.1727675936
  0
VERTEX
  8
0
 62
7
  6
CONTINUOUS
 10
127.9197470957
 20
190.1757795704
  0
VERTEX
  8
0
 62
7
  6
CONTINUOUS
 10
127.9062137499
 20
190.1782995842
  0
VERTEX
  8
0
 62
7
  6
CONTINUOUS
 10
127.8938918301
 20
190.1802668101
  0
VERTEX
  8
0
 62
7
  6
CONTINUOUS
 10
127.8827980354
 20
190.1816248848
  0
VERTEX
  8
0
 62
7
  6
CONTINUOUS
 10
127.8728959363
 20
190.182328142
  0
VERTEX
  8
0
 62
7
  6
CONTINUOUS
 10
127.8684771244
 20
190.1824180017
  0
SEQEND
  0
LINE
  8
0
 62
7
  6
CONTINUOUS
 10
128.0056748117
 20
190.1570090573
 11
127.9504343974
 21
190.1693208782
  0
POLYLINE
  8
0
 62
7
  6
CONTINUOUS
 66
1
 70
0
  0
VERTEX
  8
0
 62
7
  6
CONTINUOUS
 10
118.1204672419
 20
190.1693208782
  0
VERTEX
  8
0
 62
7
  6
CONTINUOUS
 10
118.0652268276
 20
190.1570090573
  0
VERTEX
  8
0
 62
7
  6
CONTINUOUS
 10
118.0445008261
 20
190.1525138232
  0
VERTEX
  8
0
 62
7
  6
CONTINUOUS
 10
118.0226327178
 20
190.1479506735
  0
VERTEX
  8
0
 62
7
  6
CONTINUOUS
 10
117.9997480008
 20
190.1434149232
  0
VERTEX
  8
0
 62
7
  6
CONTINUOUS
 10
117.9759443931
 20
190.1390053105
  0
VERTEX
  8
0
 62
7
  6
CONTINUOUS
 10
117.9513007298
 20
190.1348008025
  0
VERTEX
  8
0
 62
7
  6
CONTINUOUS
 10
117.925890072
 20
190.1308845151
  0
VERTEX
  8
0
 62
7
  6
CONTINUOUS
 10
117.8998274609
 20
190.1273291372
  0
VERTEX
  8
0
 62
7
  6
CONTINUOUS
 10
117.8732219756
 20
190.1242086131
  0
VERTEX
  8
0
 62
7
  6
CONTINUOUS
 10
117.8461645641
 20
190.1215747719
  0
VERTEX
  8
0
 62
7
  6
CONTINUOUS
 10
117.8187428603
 20
190.1194795455
  0
VERTEX
  8
0
 62
7
  6
CONTINUOUS
 10
117.7910758855
 20
190.1179558218
  0
VERTEX
  8
0
 62
7
  6
CONTINUOUS
 10
117.763330401
 20
190.1170350037
  0
VERTEX
  8
0
 62
7
  6
CONTINUOUS
 10
117.7354508197
 20
190.1167260992
  0
SEQEND
  0
LINE
  8
AXES
 62
2
  6
CENTER
 10
116.2354508197
 20
193.6824180328
 11
129.8354508197
 21
193.6824180328
  0
LINE
  8
DEFAULT_1
 62
2
  6
CENTER
 10
132.5354508197
 20
193.6824180328
 11
146.1354508197
 21
193.6824180328
  0
POLYLINE
  8
0
 62
7
  6
CONTINUOUS
 66
1
 70
0
  0
VERTEX
  8
0
 62
7
  6
CONTINUOUS
 10
144.2504343974
 20
190.1693208782
  0
VERTEX
  8
0
 62
7
  6
CONTINUOUS
 10
144.2344784498
 20
190.1727675936
  0
VERTEX
  8
0
 62
7
  6
CONTINUOUS
 10
144.2197470957
 20
190.1757795704
  0
VERTEX
  8
0
 62
7
  6
CONTINUOUS
 10
144.2062137499
 20
190.1782995842
  0
VERTEX
  8
0
 62
7
  6
CONTINUOUS
 10
144.1938918301
 20
190.1802668101
  0
VERTEX
  8
0
 62
7
  6
CONTINUOUS
 10
144.1827980354
 20
190.1816248848
  0
VERTEX
  8
0
 62
7
  6
CONTINUOUS
 10
144.1728959363
 20
190.182328142
  0
VERTEX
  8
0
 62
7
  6
CONTINUOUS
 10
144.1684771244
 20
190.1824180017
  0
SEQEND
  0
LINE
  8
0
 62
7
  6
CONTINUOUS
 10
144.3056748117
 20
190.1570090573
 11
144.2504343974
 21
190.1693208782
  0
LINE
  8
0
 62
7
  6
CONTINUOUS
 10
151.9854508197
 20
150.5023201774
 11
151.9854508197
 21
149.6024180328
  0
LINE
  8
0
 62
7
  6
CONTINUOUS
 10
144.7785930549
 20
159.4858029568
 11
144.8069810184
 21
159.5241171377
  0
LINE
  8
0
 62
7
  6
CONTINUOUS
 10
144.8069810184
 20
159.5241171377
 11
144.8362345263
 21
159.5629963325
  0
LINE
  8
0
 62
7
  6
CONTINUOUS
 10
144.8362345263
 20
159.5629963325
 11
144.8662114141
 21
159.6023404384
  0
LINE
  8
0
 62
7
  6
CONTINUOUS
 10
144.8662114141
 20
159.6023404384
 11
144.9122403129
 21
159.6620133492
  0
LINE
  8
0
 62
7
  6
CONTINUOUS
 10
144.9122403129
 20
159.6620133492
 11
144.9749290106
 21
159.7422897517
  0
LINE
  8
0
 62
7
  6
CONTINUOUS
 10
144.9749290106
 20
159.7422897517
 11
145.0854508197
 21
159.8824180328
  0
POLYLINE
  8
0
 62
7
  6
CONTINUOUS
 66
1
 70
0
  0
VERTEX
  8
0
 62
7
  6
CONTINUOUS
 10
151.985240691
 20
150.5014614525
  0
VERTEX
  8
0
 62
7
  6
CONTINUOUS
 10
151.9852073492
 20
150.5011293443
  0
VERTEX
  8
0
 62
7
  6
CONTINUOUS
 10
151.9852023373
 20
150.5010207455
  0
VERTEX
  8
0
 62
7
  6
CONTINUOUS
 10
151.9855756747
 20
150.5029731036
  0
VERTEX
  8
0
 62
7
  6
CONTINUOUS
 10
151.9864893855
 20
150.5068190723
  0
VERTEX
  8
0
 62
7
  6
CONTINUOUS
 10
151.9880905387
 20
150.5124890889
  0
SEQEND
  0
POLYLINE
  8
0
 62
7
  6
CONTINUOUS
 66
1
 70
0
  0
VERTEX
  8
0
 62
7
  6
CONTINUOUS
 10
151.9880905387
 20
150.5124890889
  0
VERTEX
  8
0
 62
7
  6
CONTINUOUS
 10
151.9904834298
 20
150.5198559654
  0
VERTEX
  8
0
 62
7
  6
CONTINUOUS
 10
151.9938012934
 20
150.5289401208
  0
VERTEX
  8
0
 62
7
  6
CONTINUOUS
 10
151.9981473768
 20
150.5397086245
  0
VERTEX
  8
0
 62
7
  6
CONTINUOUS
 10
152.0036651335
 20
150.5522493503
  0
VERTEX
  8
0
 62
7
  6
CONTINUOUS
 10
152.0104752541
 20
150.5665961174
  0
VERTEX
  8
0
 62
7
  6
CONTINUOUS
 10
152.0187592334
 20
150.582925426
  0
VERTEX
  8
0
 62
7
  6
CONTINUOUS
 10
152.0286800288
 20
150.6013801274
  0
VERTEX
  8
0
 62
7
  6
CONTINUOUS
 10
152.0404427252
 20
150.6221848119
  0
VERTEX
  8
0
 62
7
  6
CONTINUOUS
 10
152.0543013329
 20
150.6456769705
  0
SEQEND
  0
LINE
  8
0
 62
7
  6
CONTINUOUS
 10
127.3354508197
 20
200.1824180328
 11
118.7354508197
 21
200.1824180328
  0
LINE
  8
0
 62
7
  6
CONTINUOUS
 10
135.0354508197
 20
200.1824180328
 11
143.6354508197
 21
200.1824180328
  0
POLYLINE
  8
0
 62
7
  6
CONTINUOUS
 66
1
 70
0
  0
VERTEX
  8
0
 62
7
  6
CONTINUOUS
 10
160.4317169382
 20
151.5540186605
  0
VERTEX
  8
0
 62
7
  6
CONTINUOUS
 10
160.433002032
 20
151.5271728951
  0
VERTEX
  8
0
 62
7
  6
CONTINUOUS
 10
160.4339957751
 20
151.5005384989
  0
VERTEX
  8
0
 62
7
  6
CONTINUOUS
 10
160.4347046911
 20
151.4741194705
  0
VERTEX
  8
0
 62
7
  6
CONTINUOUS
 10
160.4351092091
 20
151.4479917996
  0
VERTEX
  8
0
 62
7
  6
CONTINUOUS
 10
160.4351951272
 20
151.4222167657
  0
VERTEX
  8
0
 62
7
  6
CONTINUOUS
 10
160.4349528625
 20
151.3968289425
  0
VERTEX
  8
0
 62
7
  6
CONTINUOUS
 10
160.4343713321
 20
151.3718706909
  0
VERTEX
  8
0
 62
7
  6
CONTINUOUS
 10
160.4334408347
 20
151.3473700508
  0
VERTEX
  8
0
 62
7
  6
CONTINUOUS
 10
160.432151347
 20
151.3233587422
  0
VERTEX
  8
0
 62
7
  6
CONTINUOUS
 10
160.4304927512
 20
151.2998601497
  0
VERTEX
  8
0
 62
7
  6
CONTINUOUS
 10
160.4284552583
 20
151.2768995439
  0
VERTEX
  8
0
 62
7
  6
CONTINUOUS
 10
160.4260278592
 20
151.2544961094
  0
VERTEX
  8
0
 62
7
  6
CONTINUOUS
 10
160.4232002342
 20
151.2326695122
  0
VERTEX
  8
0
 62
7
  6
CONTINUOUS
 10
160.4199605264
 20
151.2114375567
  0
VERTEX
  8
0
 62
7
  6
CONTINUOUS
 10
160.4162979678
 20
151.1908176693
  0
VERTEX
  8
0
 62
7
  6
CONTINUOUS
 10
160.4121989725
 20
151.1708244096
  0
VERTEX
  8
0
 62
7
  6
CONTINUOUS
 10
160.4076517176
 20
151.1514719932
  0
VERTEX
  8
0
 62
7
  6
CONTINUOUS
 10
160.4026401453
 20
151.1327728898
  0
VERTEX
  8
0
 62
7
  6
CONTINUOUS
 10
160.3971507234
 20
151.1147387421
  0
VERTEX
  8
0
 62
7
  6
CONTINUOUS
 10
160.3911640521
 20
151.0973802367
  0
VERTEX
  8
0
 62
7
  6
CONTINUOUS
 10
160.3846641757
 20
151.0807068059
  0
VERTEX
  8
0
 62
7
  6
CONTINUOUS
 10
160.3776272298
 20
151.0647275667
  0
VERTEX
  8
0
 62
7
  6
CONTINUOUS
 10
160.3700337796
 20
151.0494499595
  0
VERTEX
  8
0
 62
7
  6
CONTINUOUS
 10
160.3618545801
 20
151.0348815924
  0
VERTEX
  8
0
 62
7
  6
CONTINUOUS
 10
160.353066224
 20
151.0210279021
  0
VERTEX
  8
0
 62
7
  6
CONTINUOUS
 10
160.3436317638
 20
151.007895117
  0
VERTEX
  8
0
 62
7
  6
CONTINUOUS
 10
160.333522624
 20
150.9954865693
  0
VERTEX
  8
0
 62
7
  6
CONTINUOUS
 10
160.3226902815
 20
150.9838072909
  0
VERTEX
  8
0
 62
7
  6
CONTINUOUS
 10
160.3110984555
 20
150.9728583286
  0
VERTEX
  8
0
 62
7
  6
CONTINUOUS
 10
160.2986818433
 20
150.9626436522
  0
VERTEX
  8
0
 62
7
  6
CONTINUOUS
 10
160.2853925814
 20
150.9531611995
  0
VERTEX
  8
0
 62
7
  6
CONTINUOUS
 10
160.2711420714
 20
150.9444151744
  0
VERTEX
  8
0
 62
7
  6
CONTINUOUS
 10
160.2558671923
 20
150.9364006451
  0
VERTEX
  8
0
 62
7
  6
CONTINUOUS
 10
160.2394436484
 20
150.9291206429
  0
VERTEX
  8
0
 62
7
  6
CONTINUOUS
 10
160.2217852197
 20
150.9225645958
  0
VERTEX
  8
0
 62
7
  6
CONTINUOUS
 10
160.2027145569
 20
150.9167351054
  0
VERTEX
  8
0
 62
7
  6
CONTINUOUS
 10
160.1821137926
 20
150.9116127173
  0
VERTEX
  8
0
 62
7
  6
CONTINUOUS
 10
160.1597182607
 20
150.9071999172
  0
VERTEX
  8
0
 62
7
  6
CONTINUOUS
 10
160.135355365
 20
150.90346219
  0
VERTEX
  8
0
 62
7
  6
CONTINUOUS
 10
160.1086310293
 20
150.9004015491
  0
VERTEX
  8
0
 62
7
  6
CONTINUOUS
 10
160.0790371941
 20
150.8979962682
  0
VERTEX
  8
0
 62
7
  6
CONTINUOUS
 10
160.0467432127
 20
150.8961301363
  0
SEQEND
  0
LINE
  8
0
 62
7
  6
CONTINUOUS
 10
162.9104508197
 20
187.1167260992
 11
162.9104508197
 21
153.8930326011
  0
LINE
  8
0
 62
7
  6
CONTINUOUS
 10
152.0543013329
 20
150.6456769705
 11
152.0575685527
 21
150.6510976126
  0
POLYLINE
  8
0
 62
7
  6
CONTINUOUS
 66
1
 70
0
  0
VERTEX
  8
0
 62
7
  6
CONTINUOUS
 10
99.4604508197
 20
82.3672805721
  0
VERTEX
  8
0
 62
7
  6
CONTINUOUS
 10
99.4629233044
 20
82.2347659756
  0
VERTEX
  8
0
 62
7
  6
CONTINUOUS
 10
99.4701157114
 20
82.1093581908
  0
VERTEX
  8
0
 62
7
  6
CONTINUOUS
 10
99.4820843924
 20
81.9908859004
  0
VERTEX
  8
0
 62
7
  6
CONTINUOUS
 10
99.498660292
 20
81.8790156828
  0
VERTEX
  8
0
 62
7
  6
CONTINUOUS
 10
99.5197328675
 20
81.7734838463
  0
VERTEX
  8
0
 62
7
  6
CONTINUOUS
 10
99.5451829326
 20
81.6739254375
  0
VERTEX
  8
0
 62
7
  6
CONTINUOUS
 10
99.5748659491
 20
81.5800523076
  0
VERTEX
  8
0
 62
7
  6
CONTINUOUS
 10
99.6087474301
 20
81.4914298243
  0
VERTEX
  8
0
 62
7
  6
CONTINUOUS
 10
99.6467755373
 20
81.4076178083
  0
VERTEX
  8
0
 62
7
  6
CONTINUOUS
 10
99.688857787
 20
81.3284573175
  0
VERTEX
  8
0
 62
7
  6
CONTINUOUS
 10
99.7349163911
 20
81.2537120863
  0
VERTEX
  8
0
 62
7
  6
CONTINUOUS
 10
99.7848554242
 20
81.1832081023
  0
VERTEX
  8
0
 62
7
  6
CONTINUOUS
 10
99.8385530813
 20
81.1167834624
  0
VERTEX
  8
0
 62
7
  6
CONTINUOUS
 10
99.8960092136
 20
81.0541870633
  0
VERTEX
  8
0
 62
7
  6
CONTINUOUS
 10
99.9571699201
 20
80.9951979649
  0
VERTEX
  8
0
 62
7
  6
CONTINUOUS
 10
100.0220746535
 20
80.9396177994
  0
VERTEX
  8
0
 62
7
  6
CONTINUOUS
 10
100.0907481456
 20
80.8872271534
  0
VERTEX
  8
0
 62
7
  6
CONTINUOUS
 10
100.1631806573
 20
80.8379178836
  0
VERTEX
  8
0
 62
7
  6
CONTINUOUS
 10
100.239447525
 20
80.7915132082
  0
VERTEX
  8
0
 62
7
  6
CONTINUOUS
 10
100.3193182534
 20
80.7480171838
  0
VERTEX
  8
0
 62
7
  6
CONTINUOUS
 10
100.40265157
 20
80.70738975
  0
VERTEX
  8
0
 62
7
  6
CONTINUOUS
 10
100.4892551432
 20
80.6695534288
  0
VERTEX
  8
0
 62
7
  6
CONTINUOUS
 10
100.578892829
 20
80.6344633779
  0
VERTEX
  8
0
 62
7
  6
CONTINUOUS
 10
100.6715547926
 20
80.6019701467
  0
VERTEX
  8
0
 62
7
  6
CONTINUOUS
 10
100.7671431935
 20
80.5719584998
  0
VERTEX
  8
0
 62
7
  6
CONTINUOUS
 10
100.8656859057
 20
80.5443090127
  0
VERTEX
  8
0
 62
7
  6
CONTINUOUS
 10
100.9672999343
 20
80.518880225
  0
VERTEX
  8
0
 62
7
  6
CONTINUOUS
 10
101.0716200456
 20
80.495656969
  0
VERTEX
  8
0
 62
7
  6
CONTINUOUS
 10
101.178417945
 20
80.4746014472
  0
VERTEX
  8
0
 62
7
  6
CONTINUOUS
 10
101.2873998195
 20
80.4556478581
  0
VERTEX
  8
0
 62
7
  6
CONTINUOUS
 10
101.3982106226
 20
80.4387592525
  0
VERTEX
  8
0
 62
7
  6
CONTINUOUS
 10
101.5108057606
 20
80.4238383792
  0
VERTEX
  8
0
 62
7
  6
CONTINUOUS
 10
101.6250161735
 20
80.4108139754
  0
VERTEX
  8
0
 62
7
  6
CONTINUOUS
 10
101.7408602144
 20
80.3996200327
  0
VERTEX
  8
0
 62
7
  6
CONTINUOUS
 10
101.858433977
 20
80.3901891887
  0
VERTEX
  8
0
 62
7
  6
CONTINUOUS
 10
101.9773351795
 20
80.3825069302
  0
VERTEX
  8
0
 62
7
  6
CONTINUOUS
 10
102.0972992471
 20
80.3765627919
  0
VERTEX
  8
0
 62
7
  6
CONTINUOUS
 10
102.2180091522
 20
80.3723288185
  0
VERTEX
  8
0
 62
7
  6
CONTINUOUS
 10
102.3390090229
 20
80.369801658
  0
VERTEX
  8
0
 62
7
  6
CONTINUOUS
 10
102.4604508166
 20
80.3689573978
  0
SEQEND
  0
LINE
  8
0
 62
7
  6
CONTINUOUS
 10
99.4604508197
 20
81.3864344262
 11
99.4604508197
 21
83.8664344262
  0
LINE
  8
0
 62
7
  6
CONTINUOUS
 10
110.3854508197
 20
84.3664344262
 11
110.3854508197
 21
93.046432415
  0
LINE
  8
0
 62
7
  6
CONTINUOUS
 10
117.7854508197
 20
83.8664344262
 11
117.7854508197
 21
93.0464324151
  0
LINE
  8
0
 62
7
  6
CONTINUOUS
 10
118.2354508197
 20
80.3864344262
 11
118.2354508197
 21
93.0664324083
  0
POLYLINE
  8
0
 62
7
  6
CONTINUOUS
 66
1
 70
0
  0
VERTEX
  8
0
 62
7
  6
CONTINUOUS
 10
118.2354508197
 20
80.8849028897
  0
VERTEX
  8
0
 62
7
  6
CONTINUOUS
 10
118.2348501199
 20
80.8565298003
  0
VERTEX
  8
0
 62
7
  6
CONTINUOUS
 10
118.233076888
 20
80.8287053683
  0
VERTEX
  8
0
 62
7
  6
CONTINUOUS
 10
118.230126826
 20
80.8015011383
  0
VERTEX
  8
0
 62
7
  6
CONTINUOUS
 10
118.2260128276
 20
80.7749021026
  0
VERTEX
  8
0
 62
7
  6
CONTINUOUS
 10
118.2207487184
 20
80.7489081569
  0
VERTEX
  8
0
 62
7
  6
CONTINUOUS
 10
118.2143274041
 20
80.7235096409
  0
VERTEX
  8
0
 62
7
  6
CONTINUOUS
 10
118.206748458
 20
80.698677285
  0
VERTEX
  8
0
 62
7
  6
CONTINUOUS
 10
118.1980057031
 20
80.6744420467
  0
VERTEX
  8
0
 62
7
  6
CONTINUOUS
 10
118.188103604
 20
80.6508197144
  0
VERTEX
  8
0
 62
7
  6
CONTINUOUS
 10
118.1770098093
 20
80.6278056921
  0
VERTEX
  8
0
 62
7
  6
CONTINUOUS
 10
118.1646878894
 20
80.6053631232
  0
VERTEX
  8
0
 62
7
  6
CONTINUOUS
 10
118.1511545436
 20
80.5835875951
  0
VERTEX
  8
0
 62
7
  6
CONTINUOUS
 10
118.1364231895
 20
80.5625491092
  0
VERTEX
  8
0
 62
7
  6
CONTINUOUS
 10
118.1204672419
 20
80.5422681614
  0
VERTEX
  8
0
 62
7
  6
CONTINUOUS
 10
118.1032429286
 20
80.5227429063
  0
VERTEX
  8
0
 62
7
  6
CONTINUOUS
 10
118.0848152277
 20
80.5040926994
  0
VERTEX
  8
0
 62
7
  6
CONTINUOUS
 10
118.0652268276
 20
80.4864125654
  0
VERTEX
  8
0
 62
7
  6
CONTINUOUS
 10
118.0445008261
 20
80.4697492315
  0
VERTEX
  8
0
 62
7
  6
CONTINUOUS
 10
118.0226327178
 20
80.4541419898
  0
VERTEX
  8
0
 62
7
  6
CONTINUOUS
 10
117.9997480008
 20
80.439688134
  0
VERTEX
  8
0
 62
7
  6
CONTINUOUS
 10
117.9759443931
 20
80.4264811781
  0
VERTEX
  8
0
 62
7
  6
CONTINUOUS
 10
117.9513007298
 20
80.41455179
  0
VERTEX
  8
0
 62
7
  6
CONTINUOUS
 10
117.925890072
 20
80.4039491613
  0
VERTEX
  8
0
 62
7
  6
CONTINUOUS
 10
117.8998274609
 20
80.3947026205
  0
VERTEX
  8
0
 62
7
  6
CONTINUOUS
 10
117.8732219756
 20
80.3868568321
  0
VERTEX
  8
0
 62
7
  6
CONTINUOUS
 10
117.8461645641
 20
80.3804159383
  0
VERTEX
  8
0
 62
7
  6
CONTINUOUS
 10
117.8187428603
 20
80.3754033564
  0
VERTEX
  8
0
 62
7
  6
CONTINUOUS
 10
117.7910758855
 20
80.3718169427
  0
VERTEX
  8
0
 62
7
  6
CONTINUOUS
 10
117.763330401
 20
80.3696728345
  0
VERTEX
  8
0
 62
7
  6
CONTINUOUS
 10
117.7354508197
 20
80.3689573978
  0
SEQEND
  0
LINE
  8
0
 62
7
  6
CONTINUOUS
 10
161.4104508197
 20
79.8864344262
 11
100.9604508197
 21
79.8864344262
  0
LINE
  8
0
 62
7
  6
CONTINUOUS
 10
134.0354508197
 20
80.3689573978
 11
128.3354508197
 21
80.3689573978
  0
LINE
  8
0
 62
7
  6
CONTINUOUS
 10
117.7354508197
 20
80.3689573978
 11
102.4604508166
 21
80.3689573978
  0
LINE
  8
0
 62
7
  6
CONTINUOUS
 10
144.6354508197
 20
80.3689573978
 11
159.9104508228
 21
80.3689573978
  0
POLYLINE
  8
0
 62
7
  6
CONTINUOUS
 66
1
 70
0
  0
VERTEX
  8
0
 62
7
  6
CONTINUOUS
 10
128.3354508197
 20
80.3689573978
  0
VERTEX
  8
0
 62
7
  6
CONTINUOUS
 10
128.3075712384
 20
80.3696728345
  0
VERTEX
  8
0
 62
7
  6
CONTINUOUS
 10
128.2798257539
 20
80.3718169427
  0
VERTEX
  8
0
 62
7
  6
CONTINUOUS
 10
128.252158779
 20
80.3754033564
  0
VERTEX
  8
0
 62
7
  6
CONTINUOUS
 10
128.2247370753
 20
80.3804159383
  0
VERTEX
  8
0
 62
7
  6
CONTINUOUS
 10
128.1976796637
 20
80.3868568321
  0
VERTEX
  8
0
 62
7
  6
CONTINUOUS
 10
128.1710741784
 20
80.3947026205
  0
VERTEX
  8
0
 62
7
  6
CONTINUOUS
 10
128.1450115674
 20
80.4039491613
  0
VERTEX
  8
0
 62
7
  6
CONTINUOUS
 10
128.1196009095
 20
80.41455179
  0
VERTEX
  8
0
 62
7
  6
CONTINUOUS
 10
128.0949572463
 20
80.4264811781
  0
VERTEX
  8
0
 62
7
  6
CONTINUOUS
 10
128.0711536385
 20
80.439688134
  0
VERTEX
  8
0
 62
7
  6
CONTINUOUS
 10
128.0482689215
 20
80.4541419898
  0
VERTEX
  8
0
 62
7
  6
CONTINUOUS
 10
128.0264008132
 20
80.4697492315
  0
VERTEX
  8
0
 62
7
  6
CONTINUOUS
 10
128.0056748117
 20
80.4864125654
  0
VERTEX
  8
0
 62
7
  6
CONTINUOUS
 10
127.9860864116
 20
80.5040926994
  0
VERTEX
  8
0
 62
7
  6
CONTINUOUS
 10
127.9676587108
 20
80.5227429063
  0
VERTEX
  8
0
 62
7
  6
CONTINUOUS
 10
127.9504343974
 20
80.5422681614
  0
VERTEX
  8
0
 62
7
  6
CONTINUOUS
 10
127.9344784498
 20
80.5625491092
  0
VERTEX
  8
0
 62
7
  6
CONTINUOUS
 10
127.9197470957
 20
80.5835875951
  0
VERTEX
  8
0
 62
7
  6
CONTINUOUS
 10
127.9062137499
 20
80.6053631232
  0
VERTEX
  8
0
 62
7
  6
CONTINUOUS
 10
127.8938918301
 20
80.6278056921
  0
VERTEX
  8
0
 62
7
  6
CONTINUOUS
 10
127.8827980354
 20
80.6508197144
  0
VERTEX
  8
0
 62
7
  6
CONTINUOUS
 10
127.8728959363
 20
80.6744420467
  0
VERTEX
  8
0
 62
7
  6
CONTINUOUS
 10
127.8641531814
 20
80.698677285
  0
VERTEX
  8
0
 62
7
  6
CONTINUOUS
 10
127.8565742352
 20
80.7235096409
  0
VERTEX
  8
0
 62
7
  6
CONTINUOUS
 10
127.850152921
 20
80.7489081569
  0
VERTEX
  8
0
 62
7
  6
CONTINUOUS
 10
127.8448888118
 20
80.7749021026
  0
VERTEX
  8
0
 62
7
  6
CONTINUOUS
 10
127.8407748133
 20
80.8015011383
  0
VERTEX
  8
0
 62
7
  6
CONTINUOUS
 10
127.8378247513
 20
80.8287053683
  0
VERTEX
  8
0
 62
7
  6
CONTINUOUS
 10
127.8360515194
 20
80.8565298003
  0
VERTEX
  8
0
 62
7
  6
CONTINUOUS
 10
127.8354508197
 20
80.8849028897
  0
SEQEND
  0
POLYLINE
  8
0
 62
7
  6
CONTINUOUS
 66
1
 70
0
  0
VERTEX
  8
0
 62
7
  6
CONTINUOUS
 10
102.4604507996
 20
80.3689573978
  0
VERTEX
  8
0
 62
7
  6
CONTINUOUS
 10
102.401228452
 20
80.3676769675
  0
VERTEX
  8
0
 62
7
  6
CONTINUOUS
 10
102.3401115914
 20
80.3634299445
  0
VERTEX
  8
0
 62
7
  6
CONTINUOUS
 10
102.2772513477
 20
80.3563009301
  0
VERTEX
  8
0
 62
7
  6
CONTINUOUS
 10
102.2121943311
 20
80.3461446178
  0
VERTEX
  8
0
 62
7
  6
CONTINUOUS
 10
102.144610527
 20
80.3328764436
  0
VERTEX
  8
0
 62
7
  6
CONTINUOUS
 10
102.0742809395
 20
80.3165385236
  0
VERTEX
  8
0
 62
7
  6
CONTINUOUS
 10
102.0010600769
 20
80.2972128425
  0
VERTEX
  8
0
 62
7
  6
CONTINUOUS
 10
101.9243974121
 20
80.2748928469
  0
VERTEX
  8
0
 62
7
  6
CONTINUOUS
 10
101.8439078291
 20
80.2497214658
  0
VERTEX
  8
0
 62
7
  6
CONTINUOUS
 10
101.7589496025
 20
80.2216554596
  0
VERTEX
  8
0
 62
7
  6
CONTINUOUS
 10
101.6680131399
 20
80.1905031025
  0
VERTEX
  8
0
 62
7
  6
CONTINUOUS
 10
101.4757290224
 20
80.1231299882
  0
SEQEND
  0
POLYLINE
  8
0
 62
7
  6
CONTINUOUS
 66
1
 70
0
  0
VERTEX
  8
0
 62
7
  6
CONTINUOUS
 10
159.9104508397
 20
80.3689573978
  0
VERTEX
  8
0
 62
7
  6
CONTINUOUS
 10
159.9696731873
 20
80.3676769675
  0
VERTEX
  8
0
 62
7
  6
CONTINUOUS
 10
160.030790048
 20
80.3634299445
  0
VERTEX
  8
0
 62
7
  6
CONTINUOUS
 10
160.0936502916
 20
80.3563009301
  0
VERTEX
  8
0
 62
7
  6
CONTINUOUS
 10
160.1587073082
 20
80.3461446178
  0
VERTEX
  8
0
 62
7
  6
CONTINUOUS
 10
160.2262911123
 20
80.3328764436
  0
VERTEX
  8
0
 62
7
  6
CONTINUOUS
 10
160.2966206999
 20
80.3165385236
  0
VERTEX
  8
0
 62
7
  6
CONTINUOUS
 10
160.3698415624
 20
80.2972128425
  0
VERTEX
  8
0
 62
7
  6
CONTINUOUS
 10
160.4465042272
 20
80.2748928469
  0
VERTEX
  8
0
 62
7
  6
CONTINUOUS
 10
160.5269938102
 20
80.2497214658
  0
VERTEX
  8
0
 62
7
  6
CONTINUOUS
 10
160.6119520368
 20
80.2216554596
  0
VERTEX
  8
0
 62
7
  6
CONTINUOUS
 10
160.7028884994
 20
80.1905031025
  0
SEQEND
  0
POLYLINE
  8
0
 62
7
  6
CONTINUOUS
 66
1
 70
0
  0
VERTEX
  8
0
 62
7
  6
CONTINUOUS
 10
144.6354508197
 20
80.3689573978
  0
VERTEX
  8
0
 62
7
  6
CONTINUOUS
 10
144.6075712384
 20
80.3696728345
  0
VERTEX
  8
0
 62
7
  6
CONTINUOUS
 10
144.5798257539
 20
80.3718169427
  0
VERTEX
  8
0
 62
7
  6
CONTINUOUS
 10
144.552158779
 20
80.3754033564
  0
VERTEX
  8
0
 62
7
  6
CONTINUOUS
 10
144.5247370753
 20
80.3804159383
  0
VERTEX
  8
0
 62
7
  6
CONTINUOUS
 10
144.4976796637
 20
80.3868568321
  0
VERTEX
  8
0
 62
7
  6
CONTINUOUS
 10
144.4710741784
 20
80.3947026205
  0
VERTEX
  8
0
 62
7
  6
CONTINUOUS
 10
144.4450115674
 20
80.4039491613
  0
VERTEX
  8
0
 62
7
  6
CONTINUOUS
 10
144.4196009095
 20
80.41455179
  0
VERTEX
  8
0
 62
7
  6
CONTINUOUS
 10
144.3949572463
 20
80.4264811781
  0
VERTEX
  8
0
 62
7
  6
CONTINUOUS
 10
144.3711536385
 20
80.439688134
  0
VERTEX
  8
0
 62
7
  6
CONTINUOUS
 10
144.3482689215
 20
80.4541419898
  0
VERTEX
  8
0
 62
7
  6
CONTINUOUS
 10
144.3264008132
 20
80.4697492315
  0
VERTEX
  8
0
 62
7
  6
CONTINUOUS
 10
144.3056748117
 20
80.4864125654
  0
VERTEX
  8
0
 62
7
  6
CONTINUOUS
 10
144.2860864116
 20
80.5040926994
  0
VERTEX
  8
0
 62
7
  6
CONTINUOUS
 10
144.2676587108
 20
80.5227429063
  0
VERTEX
  8
0
 62
7
  6
CONTINUOUS
 10
144.2504343974
 20
80.5422681614
  0
VERTEX
  8
0
 62
7
  6
CONTINUOUS
 10
144.2344784498
 20
80.5625491092
  0
VERTEX
  8
0
 62
7
  6
CONTINUOUS
 10
144.2197470957
 20
80.5835875951
  0
VERTEX
  8
0
 62
7
  6
CONTINUOUS
 10
144.2062137499
 20
80.6053631232
  0
VERTEX
  8
0
 62
7
  6
CONTINUOUS
 10
144.1938918301
 20
80.6278056921
  0
VERTEX
  8
0
 62
7
  6
CONTINUOUS
 10
144.1827980354
 20
80.6508197144
  0
VERTEX
  8
0
 62
7
  6
CONTINUOUS
 10
144.1728959363
 20
80.6744420467
  0
VERTEX
  8
0
 62
7
  6
CONTINUOUS
 10
144.1641531814
 20
80.698677285
  0
VERTEX
  8
0
 62
7
  6
CONTINUOUS
 10
144.1565742352
 20
80.7235096409
  0
VERTEX
  8
0
 62
7
  6
CONTINUOUS
 10
144.150152921
 20
80.7489081569
  0
VERTEX
  8
0
 62
7
  6
CONTINUOUS
 10
144.1448888118
 20
80.7749021026
  0
VERTEX
  8
0
 62
7
  6
CONTINUOUS
 10
144.1407748133
 20
80.8015011383
  0
VERTEX
  8
0
 62
7
  6
CONTINUOUS
 10
144.1378247513
 20
80.8287053683
  0
VERTEX
  8
0
 62
7
  6
CONTINUOUS
 10
144.1360515194
 20
80.8565298003
  0
VERTEX
  8
0
 62
7
  6
CONTINUOUS
 10
144.1354508197
 20
80.8849028897
  0
SEQEND
  0
LINE
  8
0
 62
7
  6
CONTINUOUS
 10
127.8354508197
 20
93.0664344262
 11
127.8354508197
 21
80.3864344262
  0
POLYLINE
  8
0
 62
7
  6
CONTINUOUS
 66
1
 70
0
  0
VERTEX
  8
0
 62
7
  6
CONTINUOUS
 10
101.4757290224
 20
80.1231299882
  0
VERTEX
  8
0
 62
7
  6
CONTINUOUS
 10
101.3777911081
 20
80.0890819477
  0
VERTEX
  8
0
 62
7
  6
CONTINUOUS
 10
101.2821690338
 20
80.0565646664
  0
VERTEX
  8
0
 62
7
  6
CONTINUOUS
 10
101.1893583472
 20
80.0261695892
  0
VERTEX
  8
0
 62
7
  6
CONTINUOUS
 10
101.1008895029
 20
79.9986274951
  0
VERTEX
  8
0
 62
7
  6
CONTINUOUS
 10
101.0163236305
 20
79.9739652243
  0
VERTEX
  8
0
 62
7
  6
CONTINUOUS
 10
100.9357181772
 20
79.9523295065
  0
VERTEX
  8
0
 62
7
  6
CONTINUOUS
 10
100.8591146438
 20
79.9337983516
  0
VERTEX
  8
0
 62
7
  6
CONTINUOUS
 10
100.7865812612
 20
79.9184270248
  0
VERTEX
  8
0
 62
7
  6
CONTINUOUS
 10
100.7180952857
 20
79.9061426323
  0
SEQEND
  0
LINE
  8
0
 62
7
  6
CONTINUOUS
 10
162.9104508197
 20
83.8664344262
 11
144.1354508197
 21
83.8664344262
  0
LINE
  8
0
 62
7
  6
CONTINUOUS
 10
134.0354508197
 20
83.8664344262
 11
128.3354508197
 21
83.8664344262
  0
LINE
  8
0
 62
7
  6
CONTINUOUS
 10
118.2354508197
 20
83.8664344262
 11
99.4604508197
 21
83.8664344262
  0
LINE
  8
DEFAULT_1
 62
2
  6
CENTER
 10
131.1854508197
 20
77.8864344262
 11
131.1854508197
 21
96.1010782509
  0
LINE
  8
AXES
 62
2
  6
CENTER
 10
108.3854508197
 20
87.0664344262
 11
152.7854508197
 21
87.0664344262
  0
LINE
  8
0
 62
7
  6
CONTINUOUS
 10
134.5354508197
 20
80.3864344262
 11
134.5354508197
 21
93.0664344262
  0
POLYLINE
  8
0
 62
7
  6
CONTINUOUS
 66
1
 70
0
  0
VERTEX
  8
0
 62
7
  6
CONTINUOUS
 10
134.5354508197
 20
80.8849028897
  0
VERTEX
  8
0
 62
7
  6
CONTINUOUS
 10
134.5348501199
 20
80.8565298003
  0
VERTEX
  8
0
 62
7
  6
CONTINUOUS
 10
134.533076888
 20
80.8287053683
  0
VERTEX
  8
0
 62
7
  6
CONTINUOUS
 10
134.530126826
 20
80.8015011383
  0
VERTEX
  8
0
 62
7
  6
CONTINUOUS
 10
134.5260128276
 20
80.7749021026
  0
VERTEX
  8
0
 62
7
  6
CONTINUOUS
 10
134.5207487184
 20
80.7489081569
  0
VERTEX
  8
0
 62
7
  6
CONTINUOUS
 10
134.5143274041
 20
80.7235096409
  0
VERTEX
  8
0
 62
7
  6
CONTINUOUS
 10
134.506748458
 20
80.698677285
  0
VERTEX
  8
0
 62
7
  6
CONTINUOUS
 10
134.4980057031
 20
80.6744420467
  0
VERTEX
  8
0
 62
7
  6
CONTINUOUS
 10
134.488103604
 20
80.6508197144
  0
VERTEX
  8
0
 62
7
  6
CONTINUOUS
 10
134.4770098093
 20
80.6278056921
  0
VERTEX
  8
0
 62
7
  6
CONTINUOUS
 10
134.4646878894
 20
80.6053631232
  0
VERTEX
  8
0
 62
7
  6
CONTINUOUS
 10
134.4511545436
 20
80.5835875951
  0
VERTEX
  8
0
 62
7
  6
CONTINUOUS
 10
134.4364231895
 20
80.5625491092
  0
VERTEX
  8
0
 62
7
  6
CONTINUOUS
 10
134.4204672419
 20
80.5422681614
  0
VERTEX
  8
0
 62
7
  6
CONTINUOUS
 10
134.4032429286
 20
80.5227429063
  0
VERTEX
  8
0
 62
7
  6
CONTINUOUS
 10
134.3848152277
 20
80.5040926994
  0
VERTEX
  8
0
 62
7
  6
CONTINUOUS
 10
134.3652268276
 20
80.4864125654
  0
VERTEX
  8
0
 62
7
  6
CONTINUOUS
 10
134.3445008261
 20
80.4697492315
  0
VERTEX
  8
0
 62
7
  6
CONTINUOUS
 10
134.3226327178
 20
80.4541419898
  0
VERTEX
  8
0
 62
7
  6
CONTINUOUS
 10
134.2997480008
 20
80.439688134
  0
VERTEX
  8
0
 62
7
  6
CONTINUOUS
 10
134.2759443931
 20
80.4264811781
  0
VERTEX
  8
0
 62
7
  6
CONTINUOUS
 10
134.2513007298
 20
80.41455179
  0
VERTEX
  8
0
 62
7
  6
CONTINUOUS
 10
134.225890072
 20
80.4039491613
  0
VERTEX
  8
0
 62
7
  6
CONTINUOUS
 10
134.1998274609
 20
80.3947026205
  0
VERTEX
  8
0
 62
7
  6
CONTINUOUS
 10
134.1732219756
 20
80.3868568321
  0
VERTEX
  8
0
 62
7
  6
CONTINUOUS
 10
134.1461645641
 20
80.3804159383
  0
VERTEX
  8
0
 62
7
  6
CONTINUOUS
 10
134.1187428603
 20
80.3754033564
  0
VERTEX
  8
0
 62
7
  6
CONTINUOUS
 10
134.0910758855
 20
80.3718169427
  0
VERTEX
  8
0
 62
7
  6
CONTINUOUS
 10
134.063330401
 20
80.3696728345
  0
VERTEX
  8
0
 62
7
  6
CONTINUOUS
 10
134.0354508197
 20
80.3689573978
  0
SEQEND
  0
POLYLINE
  8
0
 62
7
  6
CONTINUOUS
 66
1
 70
0
  0
VERTEX
  8
0
 62
7
  6
CONTINUOUS
 10
160.7028884994
 20
80.1905031025
  0
VERTEX
  8
0
 62
7
  6
CONTINUOUS
 10
160.8951726169
 20
80.1231299882
  0
VERTEX
  8
0
 62
7
  6
CONTINUOUS
 10
160.9931105313
 20
80.0890819477
  0
VERTEX
  8
0
 62
7
  6
CONTINUOUS
 10
161.0887326056
 20
80.0565646664
  0
VERTEX
  8
0
 62
7
  6
CONTINUOUS
 10
161.1815432922
 20
80.0261695892
  0
VERTEX
  8
0
 62
7
  6
CONTINUOUS
 10
161.2700121364
 20
79.9986274951
  0
VERTEX
  8
0
 62
7
  6
CONTINUOUS
 10
161.3545780089
 20
79.9739652243
  0
VERTEX
  8
0
 62
7
  6
CONTINUOUS
 10
161.4351834621
 20
79.9523295065
  0
VERTEX
  8
0
 62
7
  6
CONTINUOUS
 10
161.5117869956
 20
79.9337983516
  0
VERTEX
  8
0
 62
7
  6
CONTINUOUS
 10
161.5843203782
 20
79.9184270248
  0
VERTEX
  8
0
 62
7
  6
CONTINUOUS
 10
161.6528063537
 20
79.9061426323
  0
SEQEND
  0
LINE
  8
0
 62
7
  6
CONTINUOUS
 10
151.4854508197
 20
93.5464344262
 11
145.0854508197
 21
93.5464344262
  0
LINE
  8
0
 62
7
  6
CONTINUOUS
 10
117.2854508197
 20
93.5464344262
 11
110.8854508197
 21
93.5464344262
  0
LINE
  8
0
 62
7
  6
CONTINUOUS
 10
118.7354508197
 20
93.5664344262
 11
143.6354508197
 21
93.5664344262
  0
LINE
  8
0
 62
7
  6
CONTINUOUS
 10
144.1354508197
 20
93.0664324083
 11
144.1354508197
 21
80.3864344262
  0
LINE
  8
0
 62
7
  6
CONTINUOUS
 10
144.5854508197
 20
83.8664344262
 11
144.5854508197
 21
93.046432415
  0
LINE
  8
0
 62
7
  6
CONTINUOUS
 10
151.9854508197
 20
93.046432415
 11
151.9854508197
 21
84.3664344262
  0
LINE
  8
0
 62
7
  6
CONTINUOUS
 10
162.9104508197
 20
81.3864344262
 11
162.9104508197
 21
83.8664344262
  0
POLYLINE
  8
0
 62
7
  6
CONTINUOUS
 66
1
 70
0
  0
VERTEX
  8
0
 62
7
  6
CONTINUOUS
 10
162.9104508197
 20
82.3672805721
  0
VERTEX
  8
0
 62
7
  6
CONTINUOUS
 10
162.9079783349
 20
82.2347659756
  0
VERTEX
  8
0
 62
7
  6
CONTINUOUS
 10
162.9007859279
 20
82.1093581908
  0
VERTEX
  8
0
 62
7
  6
CONTINUOUS
 10
162.8888172469
 20
81.9908859004
  0
VERTEX
  8
0
 62
7
  6
CONTINUOUS
 10
162.8722413474
 20
81.8790156828
  0
VERTEX
  8
0
 62
7
  6
CONTINUOUS
 10
162.8511687719
 20
81.7734838463
  0
VERTEX
  8
0
 62
7
  6
CONTINUOUS
 10
162.8257187068
 20
81.6739254375
  0
VERTEX
  8
0
 62
7
  6
CONTINUOUS
 10
162.7960356903
 20
81.5800523076
  0
VERTEX
  8
0
 62
7
  6
CONTINUOUS
 10
162.7621542093
 20
81.4914298243
  0
VERTEX
  8
0
 62
7
  6
CONTINUOUS
 10
162.724126102
 20
81.4076178083
  0
VERTEX
  8
0
 62
7
  6
CONTINUOUS
 10
162.6820438523
 20
81.3284573175
  0
VERTEX
  8
0
 62
7
  6
CONTINUOUS
 10
162.6359852483
 20
81.2537120863
  0
VERTEX
  8
0
 62
7
  6
CONTINUOUS
 10
162.5860462151
 20
81.1832081023
  0
VERTEX
  8
0
 62
7
  6
CONTINUOUS
 10
162.5323485581
 20
81.1167834624
  0
VERTEX
  8
0
 62
7
  6
CONTINUOUS
 10
162.4748924257
 20
81.0541870633
  0
VERTEX
  8
0
 62
7
  6
CONTINUOUS
 10
162.4137317192
 20
80.9951979649
  0
VERTEX
  8
0
 62
7
  6
CONTINUOUS
 10
162.3488269859
 20
80.9396177994
  0
VERTEX
  8
0
 62
7
  6
CONTINUOUS
 10
162.2801534937
 20
80.8872271534
  0
VERTEX
  8
0
 62
7
  6
CONTINUOUS
 10
162.207720982
 20
80.8379178836
  0
VERTEX
  8
0
 62
7
  6
CONTINUOUS
 10
162.1314541143
 20
80.7915132082
  0
VERTEX
  8
0
 62
7
  6
CONTINUOUS
 10
162.0515833859
 20
80.7480171838
  0
VERTEX
  8
0
 62
7
  6
CONTINUOUS
 10
161.9682500693
 20
80.70738975
  0
VERTEX
  8
0
 62
7
  6
CONTINUOUS
 10
161.8816464961
 20
80.6695534288
  0
VERTEX
  8
0
 62
7
  6
CONTINUOUS
 10
161.7920088104
 20
80.6344633779
  0
VERTEX
  8
0
 62
7
  6
CONTINUOUS
 10
161.6993468467
 20
80.6019701467
  0
VERTEX
  8
0
 62
7
  6
CONTINUOUS
 10
161.6037584459
 20
80.5719584998
  0
VERTEX
  8
0
 62
7
  6
CONTINUOUS
 10
161.5052157337
 20
80.5443090127
  0
VERTEX
  8
0
 62
7
  6
CONTINUOUS
 10
161.403601705
 20
80.518880225
  0
VERTEX
  8
0
 62
7
  6
CONTINUOUS
 10
161.2992815937
 20
80.495656969
  0
VERTEX
  8
0
 62
7
  6
CONTINUOUS
 10
161.1924836944
 20
80.4746014472
  0
VERTEX
  8
0
 62
7
  6
CONTINUOUS
 10
161.0835018198
 20
80.4556478581
  0
VERTEX
  8
0
 62
7
  6
CONTINUOUS
 10
160.9726910168
 20
80.4387592525
  0
VERTEX
  8
0
 62
7
  6
CONTINUOUS
 10
160.8600958787
 20
80.4238383792
  0
VERTEX
  8
0
 62
7
  6
CONTINUOUS
 10
160.7458854658
 20
80.4108139754
  0
VERTEX
  8
0
 62
7
  6
CONTINUOUS
 10
160.6300414249
 20
80.3996200327
  0
VERTEX
  8
0
 62
7
  6
CONTINUOUS
 10
160.5124676623
 20
80.3901891887
  0
VERTEX
  8
0
 62
7
  6
CONTINUOUS
 10
160.3935664599
 20
80.3825069302
  0
VERTEX
  8
0
 62
7
  6
CONTINUOUS
 10
160.2736023922
 20
80.3765627919
  0
VERTEX
  8
0
 62
7
  6
CONTINUOUS
 10
160.1528924872
 20
80.3723288185
  0
VERTEX
  8
0
 62
7
  6
CONTINUOUS
 10
160.0318926164
 20
80.369801658
  0
VERTEX
  8
0
 62
7
  6
CONTINUOUS
 10
159.9104508228
 20
80.3689573978
  0
SEQEND
  0
LINE
  8
0
 62
7
  6
CONTINUOUS
 10
262.5257786885
 20
149.1024180328
 11
263.2257786885
 21
149.1024180328
  0
LINE
  8
0
 62
7
  6
CONTINUOUS
 10
266.9926690068
 20
150.8930326011
 11
266.923266521
 21
150.8930326011
  0
LINE
  8
AXES
 62
2
  6
CENTER
 10
267.7757786885
 20
155.5824180328
 11
267.7007786885
 21
155.5824180328
  0
LINE
  8
AXES
 62
2
  6
CONTINUOUS
 10
263.5757786885
 20
155.5824180328
 11
261.4757786885
 21
155.5824180328
  0
LINE
  8
0
 62
7
  6
CONTINUOUS
 10
256.0457786885
 20
155.5824180328
 11
256.0257786885
 21
155.5824180328
  0
LINE
  8
AXES
 62
2
  6
CENTER
 10
257.2757786885
 20
155.5824180328
 11
257.3507786885
 21
155.5824180328
  0
LINE
  8
0
 62
7
  6
CONTINUOUS
 10
264.7257786885
 20
162.0624180328
 11
262.5257786885
 21
162.0624180328
  0
LINE
  8
0
 62
7
  6
CONTINUOUS
 10
256.0257786885
 20
155.5824180328
 11
256.0257786885
 21
193.682418024
  0
POLYLINE
  8
0
 62
7
  6
CONTINUOUS
 66
1
 70
0
  0
VERTEX
  8
0
 62
7
  6
CONTINUOUS
 10
268.7794697332
 20
187.9360236574
  0
VERTEX
  8
0
 62
7
  6
CONTINUOUS
 10
268.8349891753
 20
188.0172563381
  0
VERTEX
  8
0
 62
7
  6
CONTINUOUS
 10
268.8898744676
 20
188.0981665119
  0
VERTEX
  8
0
 62
7
  6
CONTINUOUS
 10
268.9440411479
 20
188.1787063652
  0
VERTEX
  8
0
 62
7
  6
CONTINUOUS
 10
268.997409676
 20
188.2588258759
  0
VERTEX
  8
0
 62
7
  6
CONTINUOUS
 10
269.0498886985
 20
188.3384767314
  0
VERTEX
  8
0
 62
7
  6
CONTINUOUS
 10
269.1013914663
 20
188.4176059892
  0
VERTEX
  8
0
 62
7
  6
CONTINUOUS
 10
269.1518172136
 20
188.4961638434
  0
VERTEX
  8
0
 62
7
  6
CONTINUOUS
 10
269.2010690544
 20
188.5740925722
  0
VERTEX
  8
0
 62
7
  6
CONTINUOUS
 10
269.2490334222
 20
188.6513392894
  0
VERTEX
  8
0
 62
7
  6
CONTINUOUS
 10
269.295599885
 20
188.7278396832
  0
VERTEX
  8
0
 62
7
  6
CONTINUOUS
 10
269.3406381654
 20
188.8035364054
  0
VERTEX
  8
0
 62
7
  6
CONTINUOUS
 10
269.3840194692
 20
188.8783556794
  0
VERTEX
  8
0
 62
7
  6
CONTINUOUS
 10
269.4255917669
 20
188.9522337818
  0
VERTEX
  8
0
 62
7
  6
CONTINUOUS
 10
269.4652012826
 20
189.0250832055
  0
VERTEX
  8
0
 62
7
  6
CONTINUOUS
 10
269.5026673652
 20
189.0968303027
  0
VERTEX
  8
0
 62
7
  6
CONTINUOUS
 10
269.5378036375
 20
189.1673697726
  0
VERTEX
  8
0
 62
7
  6
CONTINUOUS
 10
269.5703931164
 20
189.2366148536
  0
VERTEX
  8
0
 62
7
  6
CONTINUOUS
 10
269.600206638
 20
189.3044362794
  0
VERTEX
  8
0
 62
7
  6
CONTINUOUS
 10
269.6269813415
 20
189.3707289058
  0
VERTEX
  8
0
 62
7
  6
CONTINUOUS
 10
269.6504341405
 20
189.4353336045
  0
VERTEX
  8
0
 62
7
  6
CONTINUOUS
 10
269.6702616999
 20
189.4980319271
  0
VERTEX
  8
0
 62
7
  6
CONTINUOUS
 10
269.6860704824
 20
189.5588966897
  0
SEQEND
  0
LINE
  8
0
 62
7
  6
CONTINUOUS
 10
268.6668315387
 20
187.7727842376
 11
268.7794697332
 21
187.9360236574
  0
LINE
  8
0
 62
7
  6
CONTINUOUS
 10
268.552562278
 20
187.608832856
 11
268.6668315387
 21
187.7727842376
  0
LINE
  8
0
 62
7
  6
CONTINUOUS
 10
268.3793737169
 20
187.3624339552
 11
268.552562278
 21
187.608832856
  0
LINE
  8
0
 62
7
  6
CONTINUOUS
 10
268.2057786885
 20
187.1167260992
 11
268.3793737169
 21
187.3624339552
  0
LINE
  8
DEFAULT_1
 62
2
  6
CENTER
 10
262.5257786885
 20
198.9324180328
 11
262.5257786885
 21
195.6825180328
  0
LINE
  8
0
 62
2
  6
CONTINUOUS
 10
262.5257786885
 20
194.7324180328
 11
262.5257786885
 21
192.6324180328
  0
LINE
  8
AXES
 62
2
  6
CENTER
 10
262.5257786885
 20
160.8324180328
 11
262.5257786885
 21
160.7574180328
  0
LINE
  8
AXES
 62
2
  6
CONTINUOUS
 10
262.5257786885
 20
156.6324180328
 11
262.5257786885
 21
154.5324180328
  0
LINE
  8
AXES
 62
2
  6
CENTER
 10
262.5257786885
 20
150.3324180328
 11
262.5257786885
 21
150.4074180328
  0
LINE
  8
DEFAULT_1
 62
2
  6
CENTER
 10
262.5257786885
 20
188.4324180328
 11
262.5257786885
 21
191.6823180328
  0
LINE
  8
DEFAULT_1
 62
2
  6
CENTER
 10
253.4911348638
 20
174.6324180328
 11
271.7057786885
 21
174.6324180328
  0
LINE
  8
0
 62
7
  6
CONTINUOUS
 10
265.7257786885
 20
186.1824180328
 11
265.7257786885
 21
159.377151225
  0
LINE
  8
0
 62
7
  6
CONTINUOUS
 10
269.7057786885
 20
155.5824180328
 11
269.7057786885
 21
193.6824180328
  0
LINE
  8
0
 62
7
  6
CONTINUOUS
 10
262.5257786885
 20
187.1824180328
 11
264.7257786885
 21
187.1824180328
  0
LINE
  8
DEFAULT_1
 62
2
  6
CENTER
 10
267.7757786885
 20
193.6824180328
 11
264.5258786885
 21
193.6824180328
  0
LINE
  8
0
 62
2
  6
CONTINUOUS
 10
263.5757786885
 20
193.6824180328
 11
261.4757786885
 21
193.6824180328
  0
LINE
  8
DEFAULT_1
 62
2
  6
CENTER
 10
257.2757786885
 20
193.6824180328
 11
260.5256786885
 21
193.6824180328
  0
LINE
  8
0
 62
7
  6
CONTINUOUS
 10
263.2057786885
 20
200.1824180328
 11
262.5257786885
 21
200.1824180328
  0
ARC
  8
0
 62
7
  6
CONTINUOUS
 10
102.4604508197
 20
153.8930326011
 40
3.0
 50
180.0
 51
270.0
  0
ARC
  8
0
 62
7
  6
CONTINUOUS
 10
109.8854508197
 20
150.3924180328
 40
0.5
 50
31.0511309997
 51
90.0
  0
ARC
  8
0
 62
7
  6
CONTINUOUS
 10
110.8854508197
 20
149.6024180328
 40
0.5
 50
180.0
 51
270.0
  0
ARC
  8
0
 62
7
  6
CONTINUOUS
 10
128.7854508197
 20
149.6024180328
 40
0.5
 50
180.0
 51
270.0
  0
ARC
  8
0
 62
7
  6
CONTINUOUS
 10
117.2854508197
 20
149.6024180328
 40
0.5
 50
270.0
 51
360.0
  0
ARC
  8
0
 62
7
  6
CONTINUOUS
 10
102.4604508197
 20
187.1167260992
 40
3.0
 50
90.0
 51
180.0
  0
ARC
  8
0
 62
7
  6
CONTINUOUS
 10
118.7354508197
 20
199.6824180328
 40
0.5
 50
90.0
 51
180.0
  0
ARC
  8
0
 62
7
  6
CONTINUOUS
 10
127.3354508197
 20
199.6824180328
 40
0.5
 50
0.0
 51
90.0
  0
ARC
  8
0
 62
7
  6
CONTINUOUS
 10
159.9104508197
 20
153.8930326011
 40
3.0
 50
270.0
 51
360.0
  0
ARC
  8
0
 62
7
  6
CONTINUOUS
 10
152.4854508197
 20
150.3924180328
 40
0.5
 50
90.0
 51
148.9488971251
  0
ARC
  8
0
 62
7
  6
CONTINUOUS
 10
151.4854508197
 20
149.6024180328
 40
0.5
 50
270.0
 51
360.0
  0
ARC
  8
0
 62
7
  6
CONTINUOUS
 10
145.0854508197
 20
149.6024180328
 40
0.5
 50
180.0
 51
270.0
  0
ARC
  8
0
 62
7
  6
CONTINUOUS
 10
133.5854508197
 20
149.6024180328
 40
0.5
 50
270.0
 51
360.0
  0
ARC
  8
0
 62
7
  6
CONTINUOUS
 10
159.9104508197
 20
187.1167260992
 40
3.0
 50
0.0
 51
90.0
  0
ARC
  8
0
 62
7
  6
CONTINUOUS
 10
143.6354508197
 20
199.6824180328
 40
0.5
 50
0.0
 51
90.0
  0
ARC
  8
0
 62
7
  6
CONTINUOUS
 10
135.0354508197
 20
199.6824180328
 40
0.5
 50
90.0
 51
180.0
  0
ARC
  8
0
 62
7
  6
CONTINUOUS
 10
100.9604508197
 20
81.3864344262
 40
1.5
 50
180.0
 51
270.0
  0
ARC
  8
0
 62
7
  6
CONTINUOUS
 10
161.4104508197
 20
81.3864344262
 40
1.5
 50
270.0
 51
360.0
  0
ARC
  8
0
 62
7
  6
CONTINUOUS
 10
110.8854508197
 20
93.0464344262
 40
0.5
 50
90.0
 51
180.0000000173
  0
ARC
  8
0
 62
7
  6
CONTINUOUS
 10
151.4854508197
 20
93.0464344262
 40
0.5
 50
0.0
 51
90.0
  0
ARC
  8
0
 62
7
  6
CONTINUOUS
 10
117.2854508197
 20
93.0464344262
 40
0.5
 50
0.0
 51
90.0
  0
ARC
  8
0
 62
7
  6
CONTINUOUS
 10
145.0854508197
 20
93.0464344262
 40
0.5
 50
90.0
 51
180.0000000173
  0
ARC
  8
0
 62
7
  6
CONTINUOUS
 10
118.7354508197
 20
93.0664344262
 40
0.5
 50
90.0
 51
180.0000000172
  0
ARC
  8
0
 62
7
  6
CONTINUOUS
 10
118.7354508197
 20
80.3864344262
 40
0.5
 50
180.0
 51
270.0
  0
ARC
  8
0
 62
7
  6
CONTINUOUS
 10
134.0354508197
 20
84.3664344262
 40
0.5
 50
270.0
 51
360.0
  0
ARC
  8
0
 62
7
  6
CONTINUOUS
 10
143.6354508197
 20
93.0664344262
 40
0.5
 50
0.0
 51
90.0
  0
ARC
  8
0
 62
7
  6
CONTINUOUS
 10
128.3354508197
 20
84.3664344262
 40
0.5
 50
180.0
 51
270.0
  0
ARC
  8
0
 62
7
  6
CONTINUOUS
 10
143.6354508197
 20
80.3864344262
 40
0.5
 50
270.0
 51
360.0
  0
ARC
  8
0
 62
7
  6
CONTINUOUS
 10
135.0354508197
 20
80.3864344262
 40
0.5
 50
180.0
 51
270.0
  0
ARC
  8
0
 62
7
  6
CONTINUOUS
 10
135.0354508197
 20
93.0664344262
 40
0.5
 50
90.0
 51
180.0
  0
ARC
  8
0
 62
7
  6
CONTINUOUS
 10
127.3354508197
 20
93.0664344262
 40
0.5
 50
0.0
 51
90.0
  0
ARC
  8
0
 62
7
  6
CONTINUOUS
 10
127.3354508197
 20
80.3864344262
 40
0.5
 50
270.0
 51
360.0
  0
ARC
  8
0
 62
7
  6
CONTINUOUS
 10
109.8854508197
 20
84.3664344262
 40
0.5
 50
270.0
 51
360.0
  0
ARC
  8
0
 62
7
  6
CONTINUOUS
 10
152.4854508197
 20
84.3664344262
 40
0.5
 50
180.0
 51
270.0
  0
ARC
  8
0
 62
7
  6
CONTINUOUS
 10
263.2257786885
 20
155.5824180328
 40
6.48
 50
270.0
 51
360.0
  0
ARC
  8
0
 62
7
  6
CONTINUOUS
 10
262.5257786885
 20
155.5824180328
 40
6.48
 50
90.0
 51
270.0
  0
ARC
  8
0
 62
7
  6
CONTINUOUS
 10
262.5257786885
 20
155.5824180328
 40
4.8
 50
320.0687087334
 51
45.7241782885
  0
CIRCLE
  8
AXES
 62
7
  6
CONTINUOUS
 10
262.5257786885
 20
155.5824180328
 40
3.175
  0
CIRCLE
  8
AXES
 62
7
  6
CONTINUOUS
 10
262.5257786885
 20
155.5824180328
 40
2.5
  0
ARC
  8
0
 62
7
  6
CONTINUOUS
 10
264.7257786885
 20
163.0624180328
 40
1.0
 50
270.0
 51
360.0
  0
ARC
  8
0
 62
7
  6
CONTINUOUS
 10
262.5257786885
 20
192.4124180328
 40
7.08
 50
299.2175258536
 51
341.0798407932
  0
ARC
  8
0
 62
7
  6
CONTINUOUS
 10
262.5257786885
 20
193.6824180328
 40
6.5
 50
90.0
 51
270.0
  0
ARC
  8
0
 62
7
  6
CONTINUOUS
 10
263.2057786885
 20
193.6824180328
 40
6.5
 50
0.0
 51
90.0
  0
CIRCLE
  8
AXES
 62
7
  6
CONTINUOUS
 10
262.5257786885
 20
193.6824180328
 40
3.25
  0
ARC
  8
0
 62
7
  6
CONTINUOUS
 10
264.7257786885
 20
186.1824180328
 40
1.0
 50
0.0
 51
90.0
  0
ARC
  8
0
 62
7
  6
CONTINUOUS
 10
266.9307025017
 20
152.6419351577
 40
1.75
 50
272.0292353743
 51
321.5620613728
  0
ARC
  8
0
 62
7
  6
CONTINUOUS
 10
266.9579677639
 20
151.8724180328
 40
0.98
 50
140.0687087334
 51
267.970764817
  0
ARC
  8
0
 62
7
  6
CONTINUOUS
 10
266.2257786885
 20
159.377151225
 40
0.5
 50
180.0
 51
225.7241782885
  0
ARC
  8
0
 62
7
  6
CONTINUOUS
 10
268.9057786885
 20
189.3824180328
 40
0.8
 50
0.0
 51
104.3642555028
  0
ARC
  8
0
 62
7
  6
CONTINUOUS
 10
266.2257786885
 20
185.7968001478
 40
0.5
 50
119.2175258536
 51
180.0
  0
ENDSEC
  0
EOF
