  0
SECTION
  2
HEADER
  9
$EXTMAX
 10
210.0
 20
297.0
 30
0.0
  9
$EXTMIN
 10
0.0
 20
0.0
 30
0.0
  9
$LIMMIN
 10
0.0
 20
0.0
  9
$LIMMAX
 10
210.0
 20
297.0
  9
$VIEWCTR
 10
105.0
 20
148.5
  9
$VIEWSIZE
 40
297.0
  9
$CLAYER
  8
0
  9
$LTSCALE
 40
19.36
  9
$CELTYPE
  6
BYLAYER
  9
$DIMSCALE
 40
1.0
  9
$DIMASZ
 40
3.5
  9
$DIMEXO
 40
1.0
  9
$DIMDLI
 40
13.376
  9
$DIMEXE
 40
2.0
  9
$DIMCEN
 40
3.168
  9
$DIMLFAC
 40
1.0
  9
$DIMBLK
  1
_FILLED
  9
$DIMTXT
 40
3.5
  9
$PDMODE
 70
3
  9
$PDSIZE
 40
0.3125
  9
$TILEMODE
 70
1
  0
ENDSEC
  0
SECTION
  2
TABLES
  0
TABLE
  2
LTYPE
 70
6
  0
LTYPE
  2
BYBLOCK
 70
0
  3

 72
65
 73
0
 40
0.0
  0
LTYPE
  2
BYLAYER
 70
0
  3

 72
65
 73
0
 40
0.0
  0
LTYPE
  2
CONTINUOUS
 70
64
  3
Solid line
 72
65
 73
0
 40
0.0
  0
LTYPE
  2
CENTER
 70
64
  3
____ _ ____ _ ____ _ ____ _ ____ _ ____ _ ____
 72
65
 73
4
 40
0.6
 49
0.375
 49
-0.075
 49
0.075
 49
-0.075
  0
LTYPE
  2
HIDDEN
 70
64
  3
- - - - - - - - - - - - - - - - - - - -
 72
65
 73
2
 40
0.2
 49
0.1
 49
-0.1
  0
LTYPE
  2
PHANTOM
 70
64
  3
_____ _ _ _____ _ _ _____ _ _ _____
 72
65
 73
6
 40
0.8
 49
0.45
 49
-0.05
 49
0.1
 49
-0.05
 49
0.1
 49
-0.05
  0
LTYPE
  2
DOT
 70
64
  3
. . . . . . . . . . . . . . . . . . . .
 72
65
 73
2
 40
0.2
 49
0.1
 49
-0.1
  0
LTYPE
  2
DASHED
 70
64
  3
- - - - - - - - - - - - - - - - - - - -
 72
65
 73
2
 40
0.2
 49
0.1
 49
-0.1
  0
ENDTAB
  0
TABLE
  2
LAYER
 70
36
  0
LAYER
  2
0
 70
0
 62
7
  6
CONTINUOUS
  0
LAYER
  2
DEFAULT_1
 70
0
 62
7
  6
CENTER
  0
LAYER
  2
DEFAULT_2
 70
0
 62
8
  6
HIDDEN
  0
LAYER
  2
DEFAULT_3
 70
0
 62
7
  6
PHANTOM
  0
LAYER
  2
1_CSYS
 70
0
 62
7
  6
CONTINUOUS
  0
LAYER
  2
1_DATUM_PLANE
 70
0
 62
7
  6
CONTINUOUS
  0
LAYER
  2
2_FEATURE
 70
0
 62
7
  6
CONTINUOUS
  0
LAYER
  2
6_DIM
 70
0
 62
7
  6
CONTINUOUS
  0
LAYER
  2
AXES
 70
0
 62
7
  6
CONTINUOUS
  0
LAYER
  2
CSYS
 70
0
 62
7
  6
CONTINUOUS
  0
LAYER
  2
PLANES
 70
0
 62
7
  6
CONTINUOUS
  0
LAYER
  2
QUILTS
 70
0
 62
7
  6
CONTINUOUS
  0
ENDTAB
  0
TABLE
  2
STYLE
 70
1
  0
STYLE
  2
STANDARD
 70
0
 40
0.0
 41
0.8
 50
0.0
 71
0
 42
0.2
  3
txt
  4

  0
STYLE
  2
TEXTSTYLE_1
 70
0
 40
0.0
 41
0.8
 50
0.0
 71
0
 42
0.2
  3
gdt
  4

  0
STYLE
  2
TEXTSTYLE_2
 70
0
 40
0.0
 41
0.6
 50
0.0
 71
0
 42
0.2
  3
txt
  4

  0
STYLE
  2
TEXTSTYLE_3
 70
0
 40
0.0
 41
1.0
 50
0.0
 71
0
 42
0.2
  3
ftb_____.ttf
  4

  0
STYLE
  2
TEXTSTYLE_4
 70
0
 40
0.0
 41
1.0
 50
0.0
 71
0
 42
0.2
  3
fti_____.ttf
  4

  0
STYLE
  2
TEXTSTYLE_5
 70
0
 40
0.0
 41
1.0
 50
0.0
 71
0
 42
0.2
  3
frutiger light.ttf
  4

  0
STYLE
  2
TEXTSTYLE_6
 70
0
 40
0.0
 41
0.7
 50
0.0
 71
0
 42
0.2
  3
txt
  4

  0
STYLE
  2
TEXTSTYLE_7
 70
0
 40
0.0
 41
0.8
 50
0.0
 71
0
 42
0.2
  3
txt
  4

  0
ENDTAB
  0
ENDSEC
  0
SECTION
  2
BLOCKS
  0
BLOCK
  8
0
 62
2
  6
CONTINUOUS
  2
SYMBOL_11_BL1
 70
64
 10
173.3924355793
 20
35.4837666925
  0
TEXT
  8
0
 62
7
  6
CONTINUOUS
 10
164.4507205878
 20
30.5765230696
  7
TEXTSTYLE_4
 40
1.0655737705
  1
The brand for plastic modular belts and chains
 41
1.0
 72
0
  0
LINE
  8
0
 62
7
  6
CONTINUOUS
 10
149.3705039683
 20
36.0575371843
 11
149.3705039683
 21
33.9263896433
  0
LINE
  8
0
 62
7
  6
CONTINUOUS
 10
149.6595664615
 20
30.9354583476
 11
149.6595664615
 21
31.0322494069
  0
LINE
  8
0
 62
7
  6
CONTINUOUS
 10
149.3705039683
 20
30.9999857205
 11
149.4283164701
 21
30.8064036019
  0
LINE
  8
0
 62
7
  6
CONTINUOUS
 10
150.7639465913
 20
33.8444224302
 11
150.7639465913
 21
36.0575371843
  0
LINE
  8
0
 62
7
  6
CONTINUOUS
 10
151.6830039132
 20
32.0001601351
 11
151.6830039132
 21
30.4837666925
  0
LINE
  8
0
 62
7
  6
CONTINUOUS
 10
151.9720664683
 20
30.4837666925
 11
151.9720664683
 21
31.2258315706
  0
LINE
  8
0
 62
7
  6
CONTINUOUS
 10
151.9720664683
 20
31.3548863163
 11
151.9720664683
 21
32.0001601351
  0
LINE
  8
0
 62
7
  6
CONTINUOUS
 10
149.4283164701
 20
31.1935678842
 11
149.3705039683
 21
30.9999857205
  0
LINE
  8
0
 62
7
  6
CONTINUOUS
 10
149.7751914546
 20
30.7741399155
 11
149.6595664615
 21
30.9354583476
  0
LINE
  8
0
 62
7
  6
CONTINUOUS
 10
150.8736290235
 20
31.2903589434
 11
150.9314414683
 21
31.1935678842
  0
LINE
  8
0
 62
7
  6
CONTINUOUS
 10
151.2205040235
 20
31.1935678842
 11
151.1626914132
 21
31.3226226299
  0
LINE
  8
0
 62
7
  6
CONTINUOUS
 10
152.6491924929
 20
36.0575371843
 11
152.6491924929
 21
34.2542584958
  0
LINE
  8
0
 62
7
  6
CONTINUOUS
 10
152.6491924929
 20
32.9427830859
 11
152.6491924929
 21
32.287045381
  0
LINE
  8
0
 62
7
  6
CONTINUOUS
 10
153.0126914683
 20
31.1290405113
 11
153.0126914683
 21
30.4837666925
  0
LINE
  8
0
 62
7
  6
CONTINUOUS
 10
153.3017538581
 20
30.4837666925
 11
153.3017538581
 21
31.1290405113
  0
LINE
  8
0
 62
7
  6
CONTINUOUS
 10
149.6595664615
 20
31.0322494069
 11
149.7173789683
 21
31.1613041978
  0
LINE
  8
0
 62
7
  6
CONTINUOUS
 10
149.4283164701
 20
30.8064036019
 11
149.5439414683
 21
30.6773488336
  0
LINE
  8
0
 62
7
  6
CONTINUOUS
 10
152.9548788581
 20
31.258095257
 11
153.0126914683
 21
31.1290405113
  0
LINE
  8
0
 62
7
  6
CONTINUOUS
 10
153.7642540786
 20
30.7741399155
 11
153.8220663581
 21
30.6450851472
  0
LINE
  8
0
 62
7
  6
CONTINUOUS
 10
153.3017538581
 20
31.1290405113
 11
153.2439415786
 21
31.2903589434
  0
LINE
  8
0
 62
7
  6
CONTINUOUS
 10
153.7642540786
 20
31.3226226299
 11
153.7642540786
 21
31.258095257
  0
LINE
  8
0
 62
7
  6
CONTINUOUS
 10
153.7642540786
 20
30.8709309748
 11
153.7642540786
 21
30.7741399155
  0
LINE
  8
0
 62
7
  6
CONTINUOUS
 10
154.0426351159
 20
32.287045381
 11
154.0426351159
 21
36.0575371843
  0
LINE
  8
0
 62
7
  6
CONTINUOUS
 10
154.0533164683
 20
30.7418762065
 11
154.0533164683
 21
30.8064036019
  0
LINE
  8
0
 62
7
  6
CONTINUOUS
 10
154.3705039683
 20
36.0575371843
 11
154.3705039683
 21
32.287045381
  0
LINE
  8
0
 62
7
  6
CONTINUOUS
 10
151.1626914132
 20
30.6773488336
 11
151.2205040235
 21
30.8064036019
  0
LINE
  8
0
 62
7
  6
CONTINUOUS
 10
155.5564416889
 20
30.5805577631
 11
155.4986287478
 21
30.7418762065
  0
LINE
  8
0
 62
7
  6
CONTINUOUS
 10
155.2095666889
 20
31.258095257
 11
155.2095666889
 21
31.1613041978
  0
LINE
  8
0
 62
7
  6
CONTINUOUS
 10
155.2095666889
 20
31.0322494069
 11
155.2095666889
 21
30.8386672883
  0
LINE
  8
0
 62
7
  6
CONTINUOUS
 10
155.4986287478
 20
30.7418762065
 11
155.4986287478
 21
31.258095257
  0
LINE
  8
0
 62
7
  6
CONTINUOUS
 10
155.7639465913
 20
32.287045381
 11
155.7639465913
 21
34.0903240696
  0
LINE
  8
0
 62
7
  6
CONTINUOUS
 10
155.7639465913
 20
35.4017994794
 11
155.7639465913
 21
36.0575371843
  0
LINE
  8
0
 62
7
  6
CONTINUOUS
 10
156.0767541889
 20
32.0001601351
 11
156.0767541889
 21
31.838841703
  0
LINE
  8
0
 62
7
  6
CONTINUOUS
 10
156.0767541889
 20
31.5162047484
 11
156.0767541889
 21
30.4837666925
  0
LINE
  8
0
 62
7
  6
CONTINUOUS
 10
156.3658162478
 20
30.4837666925
 11
156.3658162478
 21
31.5162047484
  0
LINE
  8
0
 62
7
  6
CONTINUOUS
 10
156.3658162478
 20
31.838841703
 11
156.3658162478
 21
32.0001601351
  0
LINE
  8
0
 62
7
  6
CONTINUOUS
 10
150.9314414683
 20
30.8064036019
 11
150.8736290235
 21
30.7096125201
  0
LINE
  8
0
 62
7
  6
CONTINUOUS
 10
153.2439415786
 20
31.2903589434
 11
153.1861289683
 21
31.3548863163
  0
LINE
  8
0
 62
7
  6
CONTINUOUS
 10
154.1111290786
 20
30.6773488336
 11
154.0533164683
 21
30.7418762065
  0
LINE
  8
0
 62
7
  6
CONTINUOUS
 10
155.2673789683
 20
30.548294071
 11
155.3251912478
 21
30.4837666925
  0
LINE
  8
0
 62
7
  6
CONTINUOUS
 10
155.2095666889
 20
30.6450851472
 11
155.2673789683
 21
30.548294071
  0
LINE
  8
0
 62
7
  6
CONTINUOUS
 10
155.6142539683
 20
30.4837666925
 11
155.5564416889
 21
30.5805577631
  0
LINE
  8
0
 62
7
  6
CONTINUOUS
 10
155.4986287478
 20
31.258095257
 11
155.4408164683
 21
31.3548863163
  0
LINE
  8
0
 62
7
  6
CONTINUOUS
 10
156.8283164683
 20
31.5162047484
 11
156.8283164683
 21
30.4837666925
  0
LINE
  8
0
 62
7
  6
CONTINUOUS
 10
157.1173791889
 20
30.4837666925
 11
157.1173791889
 21
31.2258315706
  0
LINE
  8
0
 62
7
  6
CONTINUOUS
 10
157.1173791889
 20
31.3548863163
 11
157.1173791889
 21
31.5162047484
  0
LINE
  8
0
 62
7
  6
CONTINUOUS
 10
157.6491924929
 20
34.5001601351
 11
157.6491924929
 21
32.287045381
  0
LINE
  8
0
 62
7
  6
CONTINUOUS
 10
149.5439414683
 20
31.3226226299
 11
149.4283164701
 21
31.1935678842
  0
LINE
  8
0
 62
7
  6
CONTINUOUS
 10
149.7173789683
 20
31.1613041978
 11
149.7751914546
 21
31.2258315706
  0
LINE
  8
0
 62
7
  6
CONTINUOUS
 10
149.5439414683
 20
30.6773488336
 11
149.6595664615
 21
30.6128214495
  0
LINE
  8
0
 62
7
  6
CONTINUOUS
 10
149.9486289546
 20
30.6773488336
 11
149.7751914546
 21
30.7741399155
  0
LINE
  8
0
 62
7
  6
CONTINUOUS
 10
155.1517537478
 20
31.3226226299
 11
155.2095666889
 21
31.258095257
  0
LINE
  8
0
 62
7
  6
CONTINUOUS
 10
158.1001912478
 20
31.258095257
 11
158.1580041889
 21
31.0967768249
  0
LINE
  8
0
 62
7
  6
CONTINUOUS
 10
158.4470662478
 20
31.0967768249
 11
158.3892539683
 21
31.258095257
  0
LINE
  8
0
 62
7
  6
CONTINUOUS
 10
158.1580041889
 20
31.0967768249
 11
158.1580041889
 21
30.4837666925
  0
LINE
  8
0
 62
7
  6
CONTINUOUS
 10
158.4470662478
 20
30.4837666925
 11
158.4470662478
 21
31.0967768249
  0
LINE
  8
0
 62
7
  6
CONTINUOUS
 10
158.9095664683
 20
31.3226226299
 11
158.9095664683
 21
31.258095257
  0
LINE
  8
0
 62
7
  6
CONTINUOUS
 10
159.0426351159
 20
32.287045381
 11
159.0426351159
 21
34.418192922
  0
LINE
  8
0
 62
7
  6
CONTINUOUS
 10
159.3705039683
 20
36.0575371843
 11
159.3705039683
 21
32.287045381
  0
LINE
  8
0
 62
7
  6
CONTINUOUS
 10
154.0533164683
 20
30.8064036019
 11
154.1111290786
 21
30.9031946612
  0
LINE
  8
0
 62
7
  6
CONTINUOUS
 10
149.6595664615
 20
30.6128214495
 11
149.8330039821
 21
30.548294071
  0
LINE
  8
0
 62
7
  6
CONTINUOUS
 10
151.1626914132
 20
31.3226226299
 11
150.9892539132
 21
31.4194136891
  0
LINE
  8
0
 62
7
  6
CONTINUOUS
 10
153.8220663581
 20
30.6450851472
 11
153.9955038581
 21
30.548294071
  0
LINE
  8
0
 62
7
  6
CONTINUOUS
 10
152.8392539683
 20
31.3226226299
 11
152.9548788581
 21
31.258095257
  0
LINE
  8
0
 62
7
  6
CONTINUOUS
 10
153.1861289683
 20
31.3548863163
 11
153.0705040786
 21
31.4194136891
  0
LINE
  8
0
 62
7
  6
CONTINUOUS
 10
158.9095664683
 20
30.7418762065
 11
159.0251916889
 21
30.6128214495
  0
LINE
  8
0
 62
7
  6
CONTINUOUS
 10
159.2564414683
 20
30.6773488336
 11
159.1986291889
 21
30.7418762065
  0
LINE
  8
0
 62
7
  6
CONTINUOUS
 10
158.9095664683
 20
31.258095257
 11
159.0251916889
 21
31.1290405113
  0
LINE
  8
0
 62
7
  6
CONTINUOUS
 10
158.3892539683
 20
31.258095257
 11
158.3314416889
 21
31.3548863163
  0
LINE
  8
0
 62
7
  6
CONTINUOUS
 10
160.7595660273
 20
30.6773488336
 11
160.7595660273
 21
30.7418762065
  0
LINE
  8
0
 62
7
  6
CONTINUOUS
 10
160.7639465913
 20
32.287045381
 11
160.7639465913
 21
36.0575371843
  0
LINE
  8
0
 62
7
  6
CONTINUOUS
 10
153.8220663581
 20
31.3871500027
 11
153.7642540786
 21
31.3226226299
  0
LINE
  8
0
 62
7
  6
CONTINUOUS
 10
150.7001914408
 20
31.3548863163
 11
150.8736290235
 21
31.2903589434
  0
LINE
  8
0
 62
7
  6
CONTINUOUS
 10
155.4408164683
 20
31.3548863163
 11
155.3251912478
 21
31.4194136891
  0
LINE
  8
0
 62
7
  6
CONTINUOUS
 10
159.2564414683
 20
31.1935678842
 11
159.1986291889
 21
31.258095257
  0
LINE
  8
0
 62
7
  6
CONTINUOUS
 10
160.4126916889
 20
30.8064036019
 11
160.4705039683
 21
30.7418762065
  0
LINE
  8
0
 62
7
  6
CONTINUOUS
 10
160.7595660273
 20
30.7418762065
 11
160.6439414683
 21
30.8709309748
  0
LINE
  8
0
 62
7
  6
CONTINUOUS
 10
160.4126916889
 20
31.3226226299
 11
160.4705039683
 21
31.258095257
  0
LINE
  8
0
 62
7
  6
CONTINUOUS
 10
160.7595660273
 20
31.258095257
 11
160.6439414683
 21
31.3871500027
  0
LINE
  8
0
 62
7
  6
CONTINUOUS
 10
154.0533164683
 20
31.258095257
 11
154.1111290786
 21
31.3226226299
  0
LINE
  8
0
 62
7
  6
CONTINUOUS
 10
153.8798789683
 20
30.9999857205
 11
153.7642540786
 21
30.8709309748
  0
LINE
  8
0
 62
7
  6
CONTINUOUS
 10
155.2095666889
 20
30.8386672883
 11
155.1517537478
 21
30.7741399155
  0
LINE
  8
0
 62
7
  6
CONTINUOUS
 10
155.1517537478
 20
30.5805577631
 11
155.2095666889
 21
30.6450851472
  0
LINE
  8
0
 62
7
  6
CONTINUOUS
 10
153.9955038581
 20
30.548294071
 11
154.1111290786
 21
30.5160303817
  0
LINE
  8
0
 62
7
  6
CONTINUOUS
 10
150.9892539132
 20
31.4194136891
 11
150.7580039683
 21
31.483941062
  0
LINE
  8
0
 62
7
  6
CONTINUOUS
 10
154.3423788581
 20
30.6128214495
 11
154.1111290786
 21
30.6773488336
  0
LINE
  8
0
 62
7
  6
CONTINUOUS
 10
153.0705040786
 20
31.4194136891
 11
152.8970665786
 21
31.483941062
  0
LINE
  8
0
 62
7
  6
CONTINUOUS
 10
155.3251912478
 20
31.4194136891
 11
155.1517537478
 21
31.483941062
  0
LINE
  8
0
 62
7
  6
CONTINUOUS
 10
157.9845666889
 20
31.3226226299
 11
158.1001912478
 21
31.258095257
  0
LINE
  8
0
 62
7
  6
CONTINUOUS
 10
158.3314416889
 20
31.3548863163
 11
158.2158164683
 21
31.4194136891
  0
LINE
  8
0
 62
7
  6
CONTINUOUS
 10
149.8330039821
 20
30.548294071
 11
150.0064414821
 21
30.5160303817
  0
LINE
  8
0
 62
7
  6
CONTINUOUS
 10
150.2955039959
 20
30.6128214495
 11
149.9486289546
 21
30.6773488336
  0
LINE
  8
0
 62
7
  6
CONTINUOUS
 10
152.7236290786
 20
31.3548863163
 11
152.8392539683
 21
31.3226226299
  0
LINE
  8
0
 62
7
  6
CONTINUOUS
 10
155.0361291889
 20
31.3548863163
 11
155.1517537478
 21
31.3226226299
  0
LINE
  8
0
 62
7
  6
CONTINUOUS
 10
159.3720666889
 20
30.6450851472
 11
159.2564414683
 21
30.6773488336
  0
LINE
  8
0
 62
7
  6
CONTINUOUS
 10
157.8689414683
 20
31.3548863163
 11
157.9845666889
 21
31.3226226299
  0
LINE
  8
0
 62
7
  6
CONTINUOUS
 10
159.0251916889
 20
30.6128214495
 11
159.1986291889
 21
30.548294071
  0
LINE
  8
0
 62
7
  6
CONTINUOUS
 10
158.2158164683
 20
31.4194136891
 11
158.0423789683
 21
31.483941062
  0
LINE
  8
0
 62
7
  6
CONTINUOUS
 10
159.4298789683
 20
31.1290405113
 11
159.2564414683
 21
31.1935678842
  0
LINE
  8
0
 62
7
  6
CONTINUOUS
 10
160.2392541889
 20
30.8709309748
 11
160.4126916889
 21
30.8064036019
  0
LINE
  8
0
 62
7
  6
CONTINUOUS
 10
160.6439414683
 20
31.3871500027
 11
160.4705039683
 21
31.4516773756
  0
LINE
  8
0
 62
7
  6
CONTINUOUS
 10
159.0251916889
 20
31.1290405113
 11
159.2564414683
 21
31.0322494069
  0
LINE
  8
0
 62
7
  6
CONTINUOUS
 10
160.6439414683
 20
30.8709309748
 11
160.4126916889
 21
30.967722034
  0
LINE
  8
0
 62
7
  6
CONTINUOUS
 10
159.1986291889
 20
31.258095257
 11
159.2564414683
 21
31.3226226299
  0
LINE
  8
0
 62
7
  6
CONTINUOUS
 10
149.6595664615
 20
31.3871500027
 11
149.5439414683
 21
31.3226226299
  0
LINE
  8
0
 62
7
  6
CONTINUOUS
 10
149.7751914546
 20
31.2258315706
 11
149.9486289546
 21
31.3226226299
  0
LINE
  8
0
 62
7
  6
CONTINUOUS
 10
152.0876915235
 20
31.4194136891
 11
151.9720664683
 21
31.3548863163
  0
LINE
  8
0
 62
7
  6
CONTINUOUS
 10
151.9720664683
 20
31.2258315706
 11
152.0876915235
 21
31.2903589434
  0
LINE
  8
0
 62
7
  6
CONTINUOUS
 10
150.9892539132
 20
30.5805577631
 11
151.1626914132
 21
30.6773488336
  0
LINE
  8
0
 62
7
  6
CONTINUOUS
 10
150.0064414821
 20
30.5160303817
 11
150.3533164408
 21
30.4837666925
  0
LINE
  8
0
 62
7
  6
CONTINUOUS
 10
154.1111290786
 20
30.5160303817
 11
154.3423788581
 21
30.4837666925
  0
LINE
  8
0
 62
7
  6
CONTINUOUS
 10
152.4923789683
 20
31.3871500027
 11
152.7236290786
 21
31.3548863163
  0
LINE
  8
0
 62
7
  6
CONTINUOUS
 10
154.8048790786
 20
31.3871500027
 11
155.0361291889
 21
31.3548863163
  0
LINE
  8
0
 62
7
  6
CONTINUOUS
 10
159.2564414683
 20
31.0322494069
 11
160.2392541889
 21
30.8709309748
  0
LINE
  8
0
 62
7
  6
CONTINUOUS
 10
160.4126916889
 20
30.967722034
 11
159.4298789683
 21
31.1290405113
  0
LINE
  8
0
 62
7
  6
CONTINUOUS
 10
152.8970665786
 20
31.483941062
 11
152.7236290786
 21
31.5162047484
  0
LINE
  8
0
 62
7
  6
CONTINUOUS
 10
159.1986291889
 20
30.548294071
 11
159.3720666889
 21
30.5160303817
  0
LINE
  8
0
 62
7
  6
CONTINUOUS
 10
158.0423789683
 20
31.483941062
 11
157.8689414683
 21
31.5162047484
  0
LINE
  8
0
 62
7
  6
CONTINUOUS
 10
160.2970664683
 20
31.3548863163
 11
160.4126916889
 21
31.3226226299
  0
LINE
  8
0
 62
7
  6
CONTINUOUS
 10
160.4705039683
 20
30.7418762065
 11
160.4126916889
 21
30.6773488336
  0
LINE
  8
0
 62
7
  6
CONTINUOUS
 10
159.0251916889
 20
31.4194136891
 11
158.9095664683
 21
31.3226226299
  0
LINE
  8
0
 62
7
  6
CONTINUOUS
 10
153.9376915786
 20
31.4516773756
 11
153.8220663581
 21
31.3871500027
  0
LINE
  8
0
 62
7
  6
CONTINUOUS
 10
153.9955038581
 20
31.0645131385
 11
153.8798789683
 21
30.9999857205
  0
LINE
  8
0
 62
7
  6
CONTINUOUS
 10
154.1111290786
 20
30.9031946612
 11
154.2267539683
 21
30.967722034
  0
LINE
  8
0
 62
7
  6
CONTINUOUS
 10
151.6830039132
 20
30.4837666925
 11
151.9720664683
 21
30.4837666925
  0
LINE
  8
0
 62
7
  6
CONTINUOUS
 10
153.0126914683
 20
30.4837666925
 11
153.3017538581
 21
30.4837666925
  0
LINE
  8
0
 62
7
  6
CONTINUOUS
 10
154.3423788581
 20
30.4837666925
 11
154.6892538581
 21
30.4837666925
  0
LINE
  8
0
 62
7
  6
CONTINUOUS
 10
155.3251912478
 20
30.4837666925
 11
155.6142539683
 21
30.4837666925
  0
LINE
  8
0
 62
7
  6
CONTINUOUS
 10
156.0767541889
 20
30.4837666925
 11
156.3658162478
 21
30.4837666925
  0
LINE
  8
0
 62
7
  6
CONTINUOUS
 10
156.8283164683
 20
30.4837666925
 11
157.1173791889
 21
30.4837666925
  0
LINE
  8
0
 62
7
  6
CONTINUOUS
 10
158.1580041889
 20
30.4837666925
 11
158.4470662478
 21
30.4837666925
  0
LINE
  8
0
 62
7
  6
CONTINUOUS
 10
159.7189416889
 20
30.4837666925
 11
160.0658166889
 21
30.4837666925
  0
LINE
  8
0
 62
7
  6
CONTINUOUS
 10
160.0658166889
 20
30.6128214495
 11
159.7189416889
 21
30.6128214495
  0
LINE
  8
0
 62
7
  6
CONTINUOUS
 10
154.6892538581
 20
30.6128214495
 11
154.3423788581
 21
30.6128214495
  0
LINE
  8
0
 62
7
  6
CONTINUOUS
 10
159.1986291889
 20
30.7418762065
 11
158.9095664683
 21
30.7418762065
  0
LINE
  8
0
 62
7
  6
CONTINUOUS
 10
151.2205040235
 20
30.8064036019
 11
150.9314414683
 21
30.8064036019
  0
LINE
  8
0
 62
7
  6
CONTINUOUS
 10
150.2955039959
 20
31.3871500027
 11
150.7001914408
 21
31.3548863163
  0
LINE
  8
0
 62
7
  6
CONTINUOUS
 10
150.7580039683
 20
31.483941062
 11
150.3533164408
 21
31.5162047484
  0
LINE
  8
0
 62
7
  6
CONTINUOUS
 10
159.3720666889
 20
30.5160303817
 11
159.7189416889
 21
30.4837666925
  0
LINE
  8
0
 62
7
  6
CONTINUOUS
 10
159.7189416889
 20
30.6128214495
 11
159.3720666889
 21
30.6450851472
  0
LINE
  8
0
 62
7
  6
CONTINUOUS
 10
155.1517537478
 20
31.483941062
 11
154.8048790786
 21
31.5162047484
  0
LINE
  8
0
 62
7
  6
CONTINUOUS
 10
159.9501914683
 20
31.3871500027
 11
160.2970664683
 21
31.3548863163
  0
LINE
  8
0
 62
7
  6
CONTINUOUS
 10
160.2970664683
 20
31.483941062
 11
159.9501914683
 21
31.5162047484
  0
LINE
  8
0
 62
7
  6
CONTINUOUS
 10
157.6376916889
 20
31.3871500027
 11
157.8689414683
 21
31.3548863163
  0
LINE
  8
0
 62
7
  6
CONTINUOUS
 10
160.4705039683
 20
31.4516773756
 11
160.2970664683
 21
31.483941062
  0
LINE
  8
0
 62
7
  6
CONTINUOUS
 10
160.6439414683
 20
30.5805577631
 11
160.7595660273
 21
30.6773488336
  0
LINE
  8
0
 62
7
  6
CONTINUOUS
 10
155.1517537478
 20
30.7741399155
 11
154.9783162478
 21
30.6773488336
  0
LINE
  8
0
 62
7
  6
CONTINUOUS
 10
157.2330037478
 20
31.4194136891
 11
157.1173791889
 21
31.3548863163
  0
LINE
  8
0
 62
7
  6
CONTINUOUS
 10
157.1173791889
 20
31.2258315706
 11
157.2330037478
 21
31.2903589434
  0
LINE
  8
0
 62
7
  6
CONTINUOUS
 10
149.8330039821
 20
31.4516773756
 11
149.6595664615
 21
31.3871500027
  0
LINE
  8
0
 62
7
  6
CONTINUOUS
 10
152.2611288581
 20
31.483941062
 11
152.0876915235
 21
31.4194136891
  0
LINE
  8
0
 62
7
  6
CONTINUOUS
 10
152.0876915235
 20
31.2903589434
 11
152.2611288581
 21
31.3548863163
  0
LINE
  8
0
 62
7
  6
CONTINUOUS
 10
150.8736290235
 20
30.7096125201
 11
150.7001914408
 21
30.6450851472
  0
LINE
  8
0
 62
7
  6
CONTINUOUS
 10
160.2970664683
 20
30.6450851472
 11
160.0658166889
 21
30.6128214495
  0
LINE
  8
0
 62
7
  6
CONTINUOUS
 10
154.6892538581
 20
30.4837666925
 11
154.9783162478
 21
30.5160303817
  0
LINE
  8
0
 62
7
  6
CONTINUOUS
 10
160.0658166889
 20
30.4837666925
 11
160.4126916889
 21
30.5160303817
  0
LINE
  8
0
 62
7
  6
CONTINUOUS
 10
150.3533164408
 20
30.4837666925
 11
150.7580039683
 21
30.5160303817
  0
LINE
  8
0
 62
7
  6
CONTINUOUS
 10
150.7001914408
 20
30.6450851472
 11
150.2955039959
 21
30.6128214495
  0
LINE
  8
0
 62
7
  6
CONTINUOUS
 10
154.5736289683
 20
31.0322494069
 11
155.2095666889
 21
31.0322494069
  0
LINE
  8
0
 62
7
  6
CONTINUOUS
 10
155.2095666889
 20
31.1613041978
 11
154.5736289683
 21
31.1613041978
  0
LINE
  8
0
 62
7
  6
CONTINUOUS
 10
150.9314414683
 20
31.1935678842
 11
151.2205040235
 21
31.1935678842
  0
LINE
  8
0
 62
7
  6
CONTINUOUS
 10
153.7642540786
 20
31.258095257
 11
154.0533164683
 21
31.258095257
  0
LINE
  8
0
 62
7
  6
CONTINUOUS
 10
160.4705039683
 20
31.258095257
 11
160.7595660273
 21
31.258095257
  0
LINE
  8
0
 62
7
  6
CONTINUOUS
 10
154.4580040786
 20
31.3871500027
 11
154.8048790786
 21
31.3871500027
  0
LINE
  8
0
 62
7
  6
CONTINUOUS
 10
159.6033164683
 20
31.3871500027
 11
159.9501914683
 21
31.3871500027
  0
LINE
  8
0
 62
7
  6
CONTINUOUS
 10
159.9501914683
 20
31.5162047484
 11
159.6033164683
 21
31.5162047484
  0
LINE
  8
0
 62
7
  6
CONTINUOUS
 10
157.8689414683
 20
31.5162047484
 11
157.6376916889
 21
31.5162047484
  0
LINE
  8
0
 62
7
  6
CONTINUOUS
 10
157.1173791889
 20
31.5162047484
 11
156.8283164683
 21
31.5162047484
  0
LINE
  8
0
 62
7
  6
CONTINUOUS
 10
156.3658162478
 20
31.5162047484
 11
156.0767541889
 21
31.5162047484
  0
LINE
  8
0
 62
7
  6
CONTINUOUS
 10
154.8048790786
 20
31.5162047484
 11
154.4580040786
 21
31.5162047484
  0
LINE
  8
0
 62
7
  6
CONTINUOUS
 10
152.7236290786
 20
31.5162047484
 11
152.4923789683
 21
31.5162047484
  0
LINE
  8
0
 62
7
  6
CONTINUOUS
 10
156.0767541889
 20
31.838841703
 11
156.3658162478
 21
31.838841703
  0
LINE
  8
0
 62
7
  6
CONTINUOUS
 10
156.3658162478
 20
32.0001601351
 11
156.0767541889
 21
32.0001601351
  0
LINE
  8
0
 62
7
  6
CONTINUOUS
 10
151.9720664683
 20
32.0001601351
 11
151.6830039132
 21
32.0001601351
  0
LINE
  8
0
 62
7
  6
CONTINUOUS
 10
151.0098482306
 20
32.287045381
 11
151.4224195792
 21
32.287045381
  0
LINE
  8
0
 62
7
  6
CONTINUOUS
 10
152.6491924929
 20
32.287045381
 11
154.0426351159
 21
32.287045381
  0
LINE
  8
0
 62
7
  6
CONTINUOUS
 10
154.3705039683
 20
32.287045381
 11
155.7639465913
 21
32.287045381
  0
LINE
  8
0
 62
7
  6
CONTINUOUS
 10
157.6491924929
 20
32.287045381
 11
159.0426351159
 21
32.287045381
  0
LINE
  8
0
 62
7
  6
CONTINUOUS
 10
159.3705039683
 20
32.287045381
 11
160.7639465913
 21
32.287045381
  0
LINE
  8
0
 62
7
  6
CONTINUOUS
 10
157.4064412478
 20
31.483941062
 11
157.2330037478
 21
31.4194136891
  0
LINE
  8
0
 62
7
  6
CONTINUOUS
 10
154.9783162478
 20
30.5160303817
 11
155.1517537478
 21
30.5805577631
  0
LINE
  8
0
 62
7
  6
CONTINUOUS
 10
160.4126916889
 20
30.5160303817
 11
160.6439414683
 21
30.5805577631
  0
LINE
  8
0
 62
7
  6
CONTINUOUS
 10
160.4126916889
 20
30.6773488336
 11
160.2970664683
 21
30.6450851472
  0
LINE
  8
0
 62
7
  6
CONTINUOUS
 10
159.3720666889
 20
31.3548863163
 11
159.6033164683
 21
31.3871500027
  0
LINE
  8
0
 62
7
  6
CONTINUOUS
 10
157.4064412478
 20
31.3548863163
 11
157.6376916889
 21
31.3871500027
  0
LINE
  8
0
 62
7
  6
CONTINUOUS
 10
154.3423788581
 20
30.9999857205
 11
154.5736289683
 21
31.0322494069
  0
LINE
  8
0
 62
7
  6
CONTINUOUS
 10
157.6376916889
 20
31.5162047484
 11
157.4064412478
 21
31.483941062
  0
LINE
  8
0
 62
7
  6
CONTINUOUS
 10
154.2267539683
 20
31.3548863163
 11
154.4580040786
 21
31.3871500027
  0
LINE
  8
0
 62
7
  6
CONTINUOUS
 10
159.6033164683
 20
31.5162047484
 11
159.2564414683
 21
31.483941062
  0
LINE
  8
0
 62
7
  6
CONTINUOUS
 10
154.5736289683
 20
31.1613041978
 11
154.2267539683
 21
31.1290405113
  0
LINE
  8
0
 62
7
  6
CONTINUOUS
 10
150.3533164408
 20
31.5162047484
 11
150.0064414821
 21
31.483941062
  0
LINE
  8
0
 62
7
  6
CONTINUOUS
 10
154.4580040786
 20
31.5162047484
 11
154.0533164683
 21
31.483941062
  0
LINE
  8
0
 62
7
  6
CONTINUOUS
 10
151.8295203618
 20
33.4345863646
 11
151.1737826569
 21
33.4345863646
  0
LINE
  8
0
 62
7
  6
CONTINUOUS
 10
157.2330037478
 20
31.2903589434
 11
157.4064412478
 21
31.3548863163
  0
LINE
  8
0
 62
7
  6
CONTINUOUS
 10
159.2564414683
 20
31.3226226299
 11
159.3720666889
 21
31.3548863163
  0
LINE
  8
0
 62
7
  6
CONTINUOUS
 10
159.2564414683
 20
31.483941062
 11
159.0251916889
 21
31.4194136891
  0
LINE
  8
0
 62
7
  6
CONTINUOUS
 10
154.9783162478
 20
30.6773488336
 11
154.6892538581
 21
30.6128214495
  0
LINE
  8
0
 62
7
  6
CONTINUOUS
 10
152.2611288581
 20
31.3548863163
 11
152.4923789683
 21
31.3871500027
  0
LINE
  8
0
 62
7
  6
CONTINUOUS
 10
152.4923789683
 20
31.5162047484
 11
152.2611288581
 21
31.483941062
  0
LINE
  8
0
 62
7
  6
CONTINUOUS
 10
150.0642539683
 20
31.3548863163
 11
150.2955039959
 21
31.3871500027
  0
LINE
  8
0
 62
7
  6
CONTINUOUS
 10
156.5836187224
 20
34.9099962007
 11
157.2393564274
 21
34.9099962007
  0
LINE
  8
0
 62
7
  6
CONTINUOUS
 10
154.2267539683
 20
30.967722034
 11
154.3423788581
 21
30.9999857205
  0
LINE
  8
0
 62
7
  6
CONTINUOUS
 10
154.2267539683
 20
31.1290405113
 11
153.9955038581
 21
31.0645131385
  0
LINE
  8
0
 62
7
  6
CONTINUOUS
 10
154.1111290786
 20
31.3226226299
 11
154.2267539683
 21
31.3548863163
  0
LINE
  8
0
 62
7
  6
CONTINUOUS
 10
150.7580039683
 20
30.5160303817
 11
150.9892539132
 21
30.5805577631
  0
LINE
  8
0
 62
7
  6
CONTINUOUS
 10
154.0533164683
 20
31.483941062
 11
153.9376915786
 21
31.4516773756
  0
LINE
  8
0
 62
7
  6
CONTINUOUS
 10
150.0064414821
 20
31.483941062
 11
149.8330039821
 21
31.4516773756
  0
LINE
  8
0
 62
7
  6
CONTINUOUS
 10
160.7639465913
 20
36.0575371843
 11
159.3705039683
 21
36.0575371843
  0
LINE
  8
0
 62
7
  6
CONTINUOUS
 10
157.4032908536
 20
36.0575371843
 11
156.990719505
 21
36.0575371843
  0
LINE
  8
0
 62
7
  6
CONTINUOUS
 10
155.7639465913
 20
36.0575371843
 11
154.3705039683
 21
36.0575371843
  0
LINE
  8
0
 62
7
  6
CONTINUOUS
 10
154.0426351159
 20
36.0575371843
 11
152.6491924929
 21
36.0575371843
  0
LINE
  8
0
 62
7
  6
CONTINUOUS
 10
150.7639465913
 20
36.0575371843
 11
149.3705039683
 21
36.0575371843
  0
LINE
  8
0
 62
7
  6
CONTINUOUS
 10
149.9486289546
 20
31.3226226299
 11
150.0642539683
 21
31.3548863163
  0
CIRCLE
  8
0
 62
7
  6
CONTINUOUS
 10
160.0672252798
 20
38.3936027581
 40
2.0901639344
  0
ARC
  8
0
 62
7
  6
CONTINUOUS
 10
151.0098482306
 20
33.9263896433
 40
1.6393442623
 50
180.0
 51
270.0
  0
ARC
  8
0
 62
7
  6
CONTINUOUS
 10
157.4032908536
 20
34.418192922
 40
1.6393442623
 50
0.0
 51
90.0
  0
ARC
  8
0
 62
7
  6
CONTINUOUS
 10
151.4224195792
 20
33.7624552171
 40
1.4754098361
 50
270.0
 51
326.2510114041
  0
ARC
  8
0
 62
7
  6
CONTINUOUS
 10
156.990719505
 20
34.5821273482
 40
1.4754098361
 50
90.0
 51
146.2510114041
  0
ARC
  8
0
 62
7
  6
CONTINUOUS
 10
151.8295203618
 20
34.2542584958
 40
0.8196721311
 50
270.0
 51
360.0
  0
ARC
  8
0
 62
7
  6
CONTINUOUS
 10
156.5836187224
 20
34.0903240696
 40
0.8196721311
 50
90.0
 51
180.0
  0
ARC
  8
0
 62
7
  6
CONTINUOUS
 10
151.1737826569
 20
33.8444224302
 40
0.4098360656
 50
180.0
 51
270.0
  0
ARC
  8
0
 62
7
  6
CONTINUOUS
 10
157.2393564274
 20
34.5001601351
 40
0.4098360656
 50
0.0
 51
90.0
  0
SOLID
  8
0
 62
7
  6
CONTINUOUS
 10
156.0767541889
 20
31.8388420633
 11
156.0767541889
 21
32.0001605469
 12
156.3658162478
 22
31.8388420633
 13
156.3658162478
 23
32.0001605469
  0
SOLID
  8
0
 62
7
  6
CONTINUOUS
 10
150.3533164408
 20
31.5162050961
 11
150.7580039683
 21
31.4839409236
 12
150.0064414821
 22
31.4839409236
 13
150.0064414821
 23
31.4839409236
  0
SOLID
  8
0
 62
7
  6
CONTINUOUS
 10
149.8330039821
 20
31.4516780059
 11
150.0064414821
 21
31.4839409236
 12
150.7580039683
 22
31.4839409236
 13
150.7580039683
 23
31.4839409236
  0
SOLID
  8
0
 62
7
  6
CONTINUOUS
 10
150.7580039683
 20
31.4839409236
 11
150.9892539132
 21
31.4194137026
 12
149.8330039821
 22
31.4516780059
 13
149.8330039821
 23
31.4516780059
  0
SOLID
  8
0
 62
7
  6
CONTINUOUS
 10
149.6595664615
 20
31.3871495108
 11
149.8330039821
 21
31.4516780059
 12
150.9892539132
 22
31.4194137026
 13
150.9892539132
 23
31.4194137026
  0
SOLID
  8
0
 62
7
  6
CONTINUOUS
 10
149.6595664615
 20
31.3871495108
 11
150.9892539132
 21
31.4194137026
 12
150.2955039959
 22
31.3871495108
 13
150.2955039959
 23
31.3871495108
  0
SOLID
  8
0
 62
7
  6
CONTINUOUS
 10
150.2955039959
 20
31.3871495108
 11
150.9892539132
 21
31.4194137026
 12
150.7001914408
 22
31.3548866125
 13
150.7001914408
 23
31.3548866125
  0
SOLID
  8
0
 62
7
  6
CONTINUOUS
 10
150.9892539132
 20
31.4194137026
 11
151.1626914132
 21
31.3226223092
 12
150.7001914408
 22
31.3548866125
 13
150.7001914408
 23
31.3548866125
  0
SOLID
  8
0
 62
7
  6
CONTINUOUS
 10
150.8736290235
 20
31.2903595223
 11
150.7001914408
 21
31.3548866125
 12
151.1626914132
 22
31.3226223092
 13
151.1626914132
 23
31.3226223092
  0
SOLID
  8
0
 62
7
  6
CONTINUOUS
 10
150.8736290235
 20
31.2903595223
 11
151.1626914132
 21
31.3226223092
 12
150.9314414683
 22
31.1935679757
 13
150.9314414683
 23
31.1935679757
  0
SOLID
  8
0
 62
7
  6
CONTINUOUS
 10
151.1626914132
 20
31.3226223092
 11
151.2205040235
 21
31.1935679757
 12
150.9314414683
 22
31.1935679757
 13
150.9314414683
 23
31.1935679757
  0
SOLID
  8
0
 62
7
  6
CONTINUOUS
 10
152.2611288581
 20
31.4839414344
 11
152.4923789683
 21
31.5162057377
 12
152.7236290786
 22
31.5162057377
 13
152.7236290786
 23
31.5162057377
  0
SOLID
  8
0
 62
7
  6
CONTINUOUS
 10
152.7236290786
 20
31.5162057377
 11
152.8970665786
 21
31.4839414344
 12
152.2611288581
 22
31.4839414344
 13
152.2611288581
 23
31.4839414344
  0
SOLID
  8
0
 62
7
  6
CONTINUOUS
 10
152.0876915235
 20
31.4194143443
 11
152.2611288581
 21
31.4839414344
 12
152.8970665786
 22
31.4839414344
 13
152.8970665786
 23
31.4839414344
  0
SOLID
  8
0
 62
7
  6
CONTINUOUS
 10
152.8970665786
 20
31.4839414344
 11
153.0705040786
 21
31.4194143443
 12
152.0876915235
 22
31.4194143443
 13
152.0876915235
 23
31.4194143443
  0
SOLID
  8
0
 62
7
  6
CONTINUOUS
 10
153.0705040786
 20
31.4194143443
 11
152.4923789683
 21
31.3871493993
 12
152.0876915235
 22
31.4194143443
 13
152.0876915235
 23
31.4194143443
  0
SOLID
  8
0
 62
7
  6
CONTINUOUS
 10
151.9720664683
 20
31.3548872541
 11
152.0876915235
 21
31.4194143443
 12
152.4923789683
 22
31.3871493993
 13
152.4923789683
 23
31.3871493993
  0
SOLID
  8
0
 62
7
  6
CONTINUOUS
 10
152.4923789683
 20
31.3871493993
 11
152.2611288581
 21
31.3548872541
 12
151.9720664683
 22
31.3548872541
 13
151.9720664683
 23
31.3548872541
  0
SOLID
  8
0
 62
7
  6
CONTINUOUS
 10
152.4923789683
 20
31.3871493993
 11
153.0705040786
 21
31.4194143443
 12
152.7236290786
 22
31.3548872541
 13
152.7236290786
 23
31.3548872541
  0
SOLID
  8
0
 62
7
  6
CONTINUOUS
 10
153.0705040786
 20
31.4194143443
 11
153.1861289683
 21
31.3548872541
 12
152.7236290786
 22
31.3548872541
 13
152.7236290786
 23
31.3548872541
  0
SOLID
  8
0
 62
7
  6
CONTINUOUS
 10
152.8392539683
 20
31.3226223092
 11
152.7236290786
 21
31.3548872541
 12
153.1861289683
 22
31.3548872541
 13
153.1861289683
 23
31.3548872541
  0
SOLID
  8
0
 62
7
  6
CONTINUOUS
 10
153.1861289683
 20
31.3548872541
 11
153.2439415786
 21
31.2903601639
 12
152.8392539683
 22
31.3226223092
 13
152.8392539683
 23
31.3226223092
  0
SOLID
  8
0
 62
7
  6
CONTINUOUS
 10
152.9548788581
 20
31.258095219
 11
152.8392539683
 21
31.3226223092
 12
153.2439415786
 22
31.2903601639
 13
153.2439415786
 23
31.2903601639
  0
SOLID
  8
0
 62
7
  6
CONTINUOUS
 10
152.9548788581
 20
31.258095219
 11
153.2439415786
 21
31.2903601639
 12
153.0126914683
 22
31.1290416803
 13
153.0126914683
 23
31.1290416803
  0
SOLID
  8
0
 62
7
  6
CONTINUOUS
 10
153.2439415786
 20
31.2903601639
 11
153.3017538581
 21
31.1290416803
 12
153.0126914683
 22
31.1290416803
 13
153.0126914683
 23
31.1290416803
  0
SOLID
  8
0
 62
7
  6
CONTINUOUS
 10
152.2611288581
 20
31.3548872541
 11
152.0876915235
 21
31.2903601639
 12
151.9720664683
 22
31.3548872541
 13
151.9720664683
 23
31.3548872541
  0
SOLID
  8
0
 62
7
  6
CONTINUOUS
 10
152.0876915235
 20
31.2903601639
 11
151.9720664683
 21
31.2258309157
 12
151.9720664683
 22
31.3548872541
 13
151.9720664683
 23
31.3548872541
  0
SOLID
  8
0
 62
7
  6
CONTINUOUS
 10
151.9720664683
 20
31.2258309157
 11
151.6830039132
 21
30.4837677459
 12
151.9720664683
 22
31.3548872541
 13
151.9720664683
 23
31.3548872541
  0
SOLID
  8
0
 62
7
  6
CONTINUOUS
 10
151.9720664683
 20
31.3548872541
 11
151.6830039132
 21
30.4837677459
 12
151.9720664683
 22
32.0001611885
 13
151.9720664683
 23
32.0001611885
  0
SOLID
  8
0
 62
7
  6
CONTINUOUS
 10
151.6830039132
 20
30.4837677459
 11
151.6830039132
 21
32.0001611885
 12
151.9720664683
 22
32.0001611885
 13
151.9720664683
 23
32.0001611885
  0
SOLID
  8
0
 62
7
  6
CONTINUOUS
 10
151.9720664683
 20
31.2258309157
 11
151.9720664683
 21
30.4837677459
 12
151.6830039132
 22
30.4837677459
 13
151.6830039132
 23
30.4837677459
  0
SOLID
  8
0
 62
7
  6
CONTINUOUS
 10
153.0126914683
 20
30.4837677459
 11
153.0126914683
 21
31.1290416803
 12
153.3017538581
 22
31.1290416803
 13
153.3017538581
 23
31.1290416803
  0
SOLID
  8
0
 62
7
  6
CONTINUOUS
 10
153.3017538581
 20
31.1290416803
 11
153.3017538581
 21
30.4837677459
 12
153.0126914683
 22
30.4837677459
 13
153.0126914683
 23
30.4837677459
  0
SOLID
  8
0
 62
7
  6
CONTINUOUS
 10
154.0533164683
 20
31.4839408139
 11
154.4580040786
 21
31.5162048066
 12
154.8048790786
 22
31.5162048066
 13
154.8048790786
 23
31.5162048066
  0
SOLID
  8
0
 62
7
  6
CONTINUOUS
 10
154.8048790786
 20
31.5162048066
 11
155.1517537478
 21
31.4839408139
 12
154.0533164683
 22
31.4839408139
 13
154.0533164683
 23
31.4839408139
  0
SOLID
  8
0
 62
7
  6
CONTINUOUS
 10
153.9376915786
 20
31.4516780059
 11
154.0533164683
 21
31.4839408139
 12
155.1517537478
 22
31.4839408139
 13
155.1517537478
 23
31.4839408139
  0
SOLID
  8
0
 62
7
  6
CONTINUOUS
 10
155.1517537478
 20
31.4839408139
 11
155.3251912478
 21
31.4194137026
 12
153.9376915786
 22
31.4516780059
 13
153.9376915786
 23
31.4516780059
  0
SOLID
  8
0
 62
7
  6
CONTINUOUS
 10
153.8220663581
 20
31.38714961
 11
153.9376915786
 21
31.4516780059
 12
155.3251912478
 22
31.4194137026
 13
155.3251912478
 23
31.4194137026
  0
SOLID
  8
0
 62
7
  6
CONTINUOUS
 10
153.8220663581
 20
31.38714961
 11
155.3251912478
 21
31.4194137026
 12
154.4580040786
 22
31.38714961
 13
154.4580040786
 23
31.38714961
  0
SOLID
  8
0
 62
7
  6
CONTINUOUS
 10
154.4580040786
 20
31.38714961
 11
155.3251912478
 21
31.4194137026
 12
154.8048790786
 22
31.38714961
 13
154.8048790786
 23
31.38714961
  0
SOLID
  8
0
 62
7
  6
CONTINUOUS
 10
154.8048790786
 20
31.38714961
 11
155.3251912478
 21
31.4194137026
 12
155.0361291889
 22
31.3548863916
 13
155.0361291889
 23
31.3548863916
  0
SOLID
  8
0
 62
7
  6
CONTINUOUS
 10
155.3251912478
 20
31.4194137026
 11
155.4408164683
 21
31.3548863916
 12
155.0361291889
 22
31.3548863916
 13
155.0361291889
 23
31.3548863916
  0
SOLID
  8
0
 62
7
  6
CONTINUOUS
 10
153.7642540786
 20
31.3226223989
 11
153.8220663581
 21
31.38714961
 12
154.4580040786
 22
31.38714961
 13
154.4580040786
 23
31.38714961
  0
SOLID
  8
0
 62
7
  6
CONTINUOUS
 10
155.1517537478
 20
31.3226223989
 11
155.0361291889
 21
31.3548863916
 12
155.4408164683
 22
31.3548863916
 13
155.4408164683
 23
31.3548863916
  0
SOLID
  8
0
 62
7
  6
CONTINUOUS
 10
155.1517537478
 20
31.3226223989
 11
155.4408164683
 21
31.3548863916
 12
155.2095666889
 22
31.2580951877
 13
155.2095666889
 23
31.2580951877
  0
SOLID
  8
0
 62
7
  6
CONTINUOUS
 10
155.4408164683
 20
31.3548863916
 11
155.4986287478
 21
31.2580951877
 12
155.2095666889
 22
31.2580951877
 13
155.2095666889
 23
31.2580951877
  0
SOLID
  8
0
 62
7
  6
CONTINUOUS
 10
155.2095666889
 20
31.1613038256
 11
155.2095666889
 21
31.2580951877
 12
155.4986287478
 22
31.2580951877
 13
155.4986287478
 23
31.2580951877
  0
SOLID
  8
0
 62
7
  6
CONTINUOUS
 10
155.2095666889
 20
31.1613038256
 11
155.4986287478
 21
31.2580951877
 12
155.2095666889
 22
31.0322496452
 13
155.2095666889
 23
31.0322496452
  0
SOLID
  8
0
 62
7
  6
CONTINUOUS
 10
155.2095666889
 20
31.0322496452
 11
155.4986287478
 21
31.2580951877
 12
155.2095666889
 22
30.8386672883
 13
155.2095666889
 23
30.8386672883
  0
SOLID
  8
0
 62
7
  6
CONTINUOUS
 10
155.4986287478
 20
31.2580951877
 11
155.4986287478
 21
30.7418754649
 12
155.2095666889
 22
30.8386672883
 13
155.2095666889
 23
30.8386672883
  0
SOLID
  8
0
 62
7
  6
CONTINUOUS
 10
157.4064412478
 20
31.4839405154
 11
157.6376916889
 21
31.5162052351
 12
157.8689414683
 22
31.5162052351
 13
157.8689414683
 23
31.5162052351
  0
SOLID
  8
0
 62
7
  6
CONTINUOUS
 10
157.8689414683
 20
31.5162052351
 11
158.0423789683
 21
31.4839405154
 12
157.4064412478
 22
31.4839405154
 13
157.4064412478
 23
31.4839405154
  0
SOLID
  8
0
 62
7
  6
CONTINUOUS
 10
157.2330037478
 20
31.4194141734
 11
157.4064412478
 21
31.4839405154
 12
158.0423789683
 22
31.4839405154
 13
158.0423789683
 23
31.4839405154
  0
SOLID
  8
0
 62
7
  6
CONTINUOUS
 10
158.0423789683
 20
31.4839405154
 11
158.2158164683
 21
31.4194141734
 12
157.2330037478
 22
31.4194141734
 13
157.2330037478
 23
31.4194141734
  0
SOLID
  8
0
 62
7
  6
CONTINUOUS
 10
158.2158164683
 20
31.4194141734
 11
157.6376916889
 21
31.3871493993
 12
157.2330037478
 22
31.4194141734
 13
157.2330037478
 23
31.4194141734
  0
SOLID
  8
0
 62
7
  6
CONTINUOUS
 10
157.1173791889
 20
31.3548867989
 11
157.2330037478
 21
31.4194141734
 12
157.6376916889
 22
31.3871493993
 13
157.6376916889
 23
31.3871493993
  0
SOLID
  8
0
 62
7
  6
CONTINUOUS
 10
157.6376916889
 20
31.3871493993
 11
157.4064412478
 21
31.3548867989
 12
157.1173791889
 22
31.3548867989
 13
157.1173791889
 23
31.3548867989
  0
SOLID
  8
0
 62
7
  6
CONTINUOUS
 10
157.6376916889
 20
31.3871493993
 11
158.2158164683
 21
31.4194141734
 12
157.8689414683
 22
31.3548867989
 13
157.8689414683
 23
31.3548867989
  0
SOLID
  8
0
 62
7
  6
CONTINUOUS
 10
158.2158164683
 20
31.4194141734
 11
158.3314416889
 21
31.3548867989
 12
157.8689414683
 22
31.3548867989
 13
157.8689414683
 23
31.3548867989
  0
SOLID
  8
0
 62
7
  6
CONTINUOUS
 10
157.9845666889
 20
31.3226223092
 11
157.8689414683
 21
31.3548867989
 12
158.3314416889
 22
31.3548867989
 13
158.3314416889
 23
31.3548867989
  0
SOLID
  8
0
 62
7
  6
CONTINUOUS
 10
157.9845666889
 20
31.3226223092
 11
158.3314416889
 21
31.3548867989
 12
158.1001912478
 22
31.2580947047
 13
158.1001912478
 23
31.2580947047
  0
SOLID
  8
0
 62
7
  6
CONTINUOUS
 10
158.3314416889
 20
31.3548867989
 11
158.3892539683
 21
31.2580947047
 12
158.1001912478
 22
31.2580947047
 13
158.1001912478
 23
31.2580947047
  0
SOLID
  8
0
 62
7
  6
CONTINUOUS
 10
158.1580041889
 20
31.0967762685
 11
158.1001912478
 21
31.2580947047
 12
158.3892539683
 22
31.2580947047
 13
158.3892539683
 23
31.2580947047
  0
SOLID
  8
0
 62
7
  6
CONTINUOUS
 10
158.3892539683
 20
31.2580947047
 11
158.4470662478
 21
31.0967762685
 12
158.1580041889
 22
31.0967762685
 13
158.1580041889
 23
31.0967762685
  0
SOLID
  8
0
 62
7
  6
CONTINUOUS
 10
157.4064412478
 20
31.3548867989
 11
157.2330037478
 21
31.2903595223
 12
157.1173791889
 22
31.3548867989
 13
157.1173791889
 23
31.3548867989
  0
SOLID
  8
0
 62
7
  6
CONTINUOUS
 10
157.2330037478
 20
31.2903595223
 11
157.1173791889
 21
31.2258309157
 12
157.1173791889
 22
31.3548867989
 13
157.1173791889
 23
31.3548867989
  0
SOLID
  8
0
 62
7
  6
CONTINUOUS
 10
157.1173791889
 20
31.2258309157
 11
156.8283164683
 21
30.4837672433
 12
157.1173791889
 22
31.3548867989
 13
157.1173791889
 23
31.3548867989
  0
SOLID
  8
0
 62
7
  6
CONTINUOUS
 10
157.1173791889
 20
31.3548867989
 11
156.8283164683
 21
30.4837672433
 12
157.1173791889
 22
31.5162052351
 13
157.1173791889
 23
31.5162052351
  0
SOLID
  8
0
 62
7
  6
CONTINUOUS
 10
156.8283164683
 20
30.4837672433
 11
156.8283164683
 21
31.5162052351
 12
157.1173791889
 22
31.5162052351
 13
157.1173791889
 23
31.5162052351
  0
SOLID
  8
0
 62
7
  6
CONTINUOUS
 10
157.1173791889
 20
31.2258309157
 11
157.1173791889
 21
30.4837672433
 12
156.8283164683
 22
30.4837672433
 13
156.8283164683
 23
30.4837672433
  0
SOLID
  8
0
 62
7
  6
CONTINUOUS
 10
158.1580041889
 20
30.4837672433
 11
158.1580041889
 21
31.0967762685
 12
158.4470662478
 22
31.0967762685
 13
158.4470662478
 23
31.0967762685
  0
SOLID
  8
0
 62
7
  6
CONTINUOUS
 10
158.4470662478
 20
31.0967762685
 11
158.4470662478
 21
30.4837672433
 12
158.1580041889
 22
30.4837672433
 13
158.1580041889
 23
30.4837672433
  0
SOLID
  8
0
 62
7
  6
CONTINUOUS
 10
159.2564414683
 20
31.4839408138
 11
159.6033164683
 21
31.5162050633
 12
159.9501914683
 22
31.5162050633
 13
159.9501914683
 23
31.5162050633
  0
SOLID
  8
0
 62
7
  6
CONTINUOUS
 10
159.9501914683
 20
31.5162050633
 11
160.2970664683
 21
31.4839408138
 12
159.2564414683
 22
31.4839408138
 13
159.2564414683
 23
31.4839408138
  0
SOLID
  8
0
 62
7
  6
CONTINUOUS
 10
159.0251916889
 20
31.4194137026
 11
159.2564414683
 21
31.4839408138
 12
160.2970664683
 22
31.4839408138
 13
160.2970664683
 23
31.4839408138
  0
SOLID
  8
0
 62
7
  6
CONTINUOUS
 10
159.0251916889
 20
31.4194137026
 11
160.2970664683
 21
31.4839407928
 12
160.4705039683
 22
31.4516780059
 13
160.4705039683
 23
31.4516780059
  0
SOLID
  8
0
 62
7
  6
CONTINUOUS
 10
159.0251916889
 20
31.4194137026
 11
160.4705039683
 21
31.4516780059
 12
159.6033164683
 22
31.3871494664
 13
159.6033164683
 23
31.3871494664
  0
SOLID
  8
0
 62
7
  6
CONTINUOUS
 10
159.6033164683
 20
31.3871494664
 11
160.4705039683
 21
31.4516780059
 12
159.9501914683
 22
31.3871494664
 13
159.9501914683
 23
31.3871494664
  0
SOLID
  8
0
 62
7
  6
CONTINUOUS
 10
160.4705039683
 20
31.4516780059
 11
160.6439414683
 21
31.3871494664
 12
159.9501914683
 22
31.3871494664
 13
159.9501914683
 23
31.3871494664
  0
SOLID
  8
0
 62
7
  6
CONTINUOUS
 10
160.2970664683
 20
31.3548866125
 11
159.9501914683
 21
31.3871494664
 12
160.6439414683
 22
31.3871494664
 13
160.6439414683
 23
31.3871494664
  0
SOLID
  8
0
 62
7
  6
CONTINUOUS
 10
158.9095664683
 20
31.3226222241
 11
159.0251916889
 21
31.4194137026
 12
159.6033164683
 22
31.3871494664
 13
159.6033164683
 23
31.3871494664
  0
SOLID
  8
0
 62
7
  6
CONTINUOUS
 10
160.2970664683
 20
31.3548866125
 11
160.6439414683
 21
31.3871494664
 12
160.4126916889
 22
31.3226222241
 13
160.4126916889
 23
31.3226222241
  0
SOLID
  8
0
 62
7
  6
CONTINUOUS
 10
160.4126916889
 20
31.3226222241
 11
160.6439414683
 21
31.3871494664
 12
160.4705039683
 22
31.2580952077
 13
160.4705039683
 23
31.2580952077
  0
SOLID
  8
0
 62
7
  6
CONTINUOUS
 10
160.6439414683
 20
31.3871494664
 11
160.7595660273
 21
31.2580952077
 12
160.4705039683
 22
31.2580952077
 13
160.4705039683
 23
31.2580952077
  0
SOLID
  8
0
 62
7
  6
CONTINUOUS
 10
150.0642539683
 20
31.3548866125
 11
149.5439414683
 21
31.3226222809
 12
150.2955039959
 22
31.3871493065
 13
150.2955039959
 23
31.3871493065
  0
SOLID
  8
0
 62
7
  6
CONTINUOUS
 10
149.5439414683
 20
31.3226222809
 11
149.6595664615
 21
31.3871493065
 12
150.2955039959
 22
31.3871493065
 13
150.2955039959
 23
31.3871493065
  0
SOLID
  8
0
 62
7
  6
CONTINUOUS
 10
150.0642539683
 20
31.3548866125
 11
149.9486289546
 21
31.3226222809
 12
149.5439414683
 22
31.3226222809
 13
149.5439414683
 23
31.3226222809
  0
SOLID
  8
0
 62
7
  6
CONTINUOUS
 10
149.4283164701
 20
31.1935681288
 11
149.5439414683
 21
31.3226222809
 12
149.9486289546
 22
31.3226222809
 13
149.9486289546
 23
31.3226222809
  0
SOLID
  8
0
 62
7
  6
CONTINUOUS
 10
153.7642540786
 20
31.3226222809
 11
154.4580040786
 21
31.3871493993
 12
154.2267539683
 22
31.3548866125
 13
154.2267539683
 23
31.3548866125
  0
SOLID
  8
0
 62
7
  6
CONTINUOUS
 10
154.2267539683
 20
31.3548866125
 11
154.1111290786
 21
31.3226222809
 12
153.7642540786
 22
31.3226222809
 13
153.7642540786
 23
31.3226222809
  0
SOLID
  8
0
 62
7
  6
CONTINUOUS
 10
153.7642540786
 20
31.2580951907
 11
153.7642540786
 21
31.3226222809
 12
154.1111290786
 22
31.3226222809
 13
154.1111290786
 23
31.3226222809
  0
SOLID
  8
0
 62
7
  6
CONTINUOUS
 10
154.1111290786
 20
31.3226222809
 11
154.0533164683
 21
31.2580951907
 12
153.7642540786
 22
31.2580951907
 13
153.7642540786
 23
31.2580951907
  0
SOLID
  8
0
 62
7
  6
CONTINUOUS
 10
158.9095664683
 20
31.32262241
 11
159.6033164683
 21
31.3871493993
 12
159.3720666889
 22
31.3548866125
 13
159.3720666889
 23
31.3548866125
  0
SOLID
  8
0
 62
7
  6
CONTINUOUS
 10
159.3720666889
 20
31.3548866125
 11
159.2564414683
 21
31.32262241
 12
158.9095664683
 22
31.32262241
 13
158.9095664683
 23
31.32262241
  0
SOLID
  8
0
 62
7
  6
CONTINUOUS
 10
158.9095664683
 20
31.2580953198
 11
158.9095664683
 21
31.32262241
 12
159.2564414683
 22
31.32262241
 13
159.2564414683
 23
31.32262241
  0
SOLID
  8
0
 62
7
  6
CONTINUOUS
 10
159.2564414683
 20
31.32262241
 11
159.1986291889
 21
31.2580953198
 12
158.9095664683
 22
31.2580953198
 13
158.9095664683
 23
31.2580953198
  0
SOLID
  8
0
 62
7
  6
CONTINUOUS
 10
159.0251916889
 20
31.1290410387
 11
158.9095664683
 21
31.2580953198
 12
159.1986291889
 22
31.2580953198
 13
159.1986291889
 23
31.2580953198
  0
SOLID
  8
0
 62
7
  6
CONTINUOUS
 10
149.4283164701
 20
31.1935681288
 11
149.9486289546
 21
31.3226223092
 12
149.7751914546
 22
31.2258309157
 13
149.7751914546
 23
31.2258309157
  0
SOLID
  8
0
 62
7
  6
CONTINUOUS
 10
149.7751914546
 20
31.2258309157
 11
149.7173789683
 21
31.1613038256
 12
149.4283164701
 22
31.1935681288
 13
149.4283164701
 23
31.1935681288
  0
SOLID
  8
0
 62
7
  6
CONTINUOUS
 10
149.3705039683
 20
30.999985342
 11
149.4283164701
 21
31.1935681288
 12
149.7173789683
 22
31.1613038256
 13
149.7173789683
 23
31.1613038256
  0
SOLID
  8
0
 62
7
  6
CONTINUOUS
 10
154.2267539683
 20
31.1290410387
 11
154.5736289683
 21
31.1613037812
 12
155.2095666889
 22
31.1613037812
 13
155.2095666889
 23
31.1613037812
  0
SOLID
  8
0
 62
7
  6
CONTINUOUS
 10
154.2267539683
 20
31.1290410387
 11
155.2095666889
 21
31.1613037812
 12
153.9955038581
 22
31.0645131385
 13
153.9955038581
 23
31.0645131385
  0
SOLID
  8
0
 62
7
  6
CONTINUOUS
 10
153.9955038581
 20
31.0645131385
 11
155.2095666889
 21
31.1613037812
 12
154.5736289683
 22
31.0322496008
 13
154.5736289683
 23
31.0322496008
  0
SOLID
  8
0
 62
7
  6
CONTINUOUS
 10
155.2095666889
 20
31.1613037812
 11
155.2095666889
 21
31.0322496008
 12
154.5736289683
 22
31.0322496008
 13
154.5736289683
 23
31.0322496008
  0
SOLID
  8
0
 62
7
  6
CONTINUOUS
 10
159.0251916889
 20
31.1290409764
 11
159.1986291889
 21
31.258095219
 12
159.2564414683
 22
31.1935681288
 13
159.2564414683
 23
31.1935681288
  0
SOLID
  8
0
 62
7
  6
CONTINUOUS
 10
159.2564414683
 20
31.1935681288
 11
159.4298789683
 21
31.1290409764
 12
159.0251916889
 22
31.1290409764
 13
159.0251916889
 23
31.1290409764
  0
SOLID
  8
0
 62
7
  6
CONTINUOUS
 10
159.2564414683
 20
31.0322496452
 11
159.0251916889
 21
31.1290409764
 12
159.4298789683
 22
31.1290409764
 13
159.4298789683
 23
31.1290409764
  0
SOLID
  8
0
 62
7
  6
CONTINUOUS
 10
159.4298789683
 20
31.1290409764
 11
160.4126916889
 21
30.9677225551
 12
159.2564414683
 22
31.0322496452
 13
159.2564414683
 23
31.0322496452
  0
SOLID
  8
0
 62
7
  6
CONTINUOUS
 10
160.2392541889
 20
30.8709310886
 11
159.2564414683
 21
31.0322496452
 12
160.4126916889
 22
30.9677225551
 13
160.4126916889
 23
30.9677225551
  0
SOLID
  8
0
 62
7
  6
CONTINUOUS
 10
160.4126916889
 20
30.9677225551
 11
160.6439414683
 21
30.8709310886
 12
160.2392541889
 22
30.8709310886
 13
160.2392541889
 23
30.8709310886
  0
SOLID
  8
0
 62
7
  6
CONTINUOUS
 10
160.4126916889
 20
30.8064040715
 11
160.2392541889
 21
30.8709310886
 12
160.6439414683
 22
30.8709310886
 13
160.6439414683
 23
30.8709310886
  0
SOLID
  8
0
 62
7
  6
CONTINUOUS
 10
160.4126916889
 20
30.8064040715
 11
160.6439414683
 21
30.8709310886
 12
160.4705039683
 22
30.7418753703
 13
160.4705039683
 23
30.7418753703
  0
SOLID
  8
0
 62
7
  6
CONTINUOUS
 10
160.6439414683
 20
30.8709310886
 11
160.7595660273
 21
30.7418753703
 12
160.4705039683
 22
30.7418753703
 13
160.4705039683
 23
30.7418753703
  0
SOLID
  8
0
 62
7
  6
CONTINUOUS
 10
160.4126916889
 20
30.6773482855
 11
160.4705039683
 21
30.7418753703
 12
160.7595660273
 22
30.7418753703
 13
160.7595660273
 23
30.7418753703
  0
SOLID
  8
0
 62
7
  6
CONTINUOUS
 10
160.7595660273
 20
30.7418753703
 11
160.7595660273
 21
30.6773482855
 12
160.4126916889
 22
30.6773482855
 13
160.4126916889
 23
30.6773482855
  0
SOLID
  8
0
 62
7
  6
CONTINUOUS
 10
160.2970664683
 20
30.6450855879
 11
160.4126916889
 21
30.6773482855
 12
160.7595660273
 22
30.6773482855
 13
160.7595660273
 23
30.6773482855
  0
SOLID
  8
0
 62
7
  6
CONTINUOUS
 10
160.2970664683
 20
30.6450855879
 11
160.7595660273
 21
30.6773482855
 12
160.0658166889
 22
30.6128212008
 13
160.0658166889
 23
30.6128212008
  0
SOLID
  8
0
 62
7
  6
CONTINUOUS
 10
160.7595660273
 20
30.6773482855
 11
160.6439414683
 21
30.5805584977
 12
160.0658166889
 22
30.6128212008
 13
160.0658166889
 23
30.6128212008
  0
SOLID
  8
0
 62
7
  6
CONTINUOUS
 10
160.6439414683
 20
30.5805584977
 11
159.1986291889
 21
30.5482941944
 12
160.0658166889
 22
30.6128212008
 13
160.0658166889
 23
30.6128212008
  0
SOLID
  8
0
 62
7
  6
CONTINUOUS
 10
160.0658166889
 20
30.6128212008
 11
159.1986291889
 21
30.5482941944
 12
159.7189416889
 22
30.6128212008
 13
159.7189416889
 23
30.6128212008
  0
SOLID
  8
0
 62
7
  6
CONTINUOUS
 10
159.1986291889
 20
30.5482941944
 11
159.0251916889
 21
30.6128212008
 12
159.7189416889
 22
30.6128212008
 13
159.7189416889
 23
30.6128212008
  0
SOLID
  8
0
 62
7
  6
CONTINUOUS
 10
159.1986291889
 20
30.5482941944
 11
160.6439414683
 21
30.5805584977
 12
159.3720666889
 22
30.5160301864
 13
159.3720666889
 23
30.5160301864
  0
SOLID
  8
0
 62
7
  6
CONTINUOUS
 10
160.6439414683
 20
30.5805584977
 11
160.4126916889
 21
30.5160301864
 12
159.3720666889
 22
30.5160301864
 13
159.3720666889
 23
30.5160301864
  0
SOLID
  8
0
 62
7
  6
CONTINUOUS
 10
159.7189416889
 20
30.4837670312
 11
159.3720666889
 21
30.5160301864
 12
160.4126916889
 22
30.5160301864
 13
160.4126916889
 23
30.5160301864
  0
SOLID
  8
0
 62
7
  6
CONTINUOUS
 10
160.4126916889
 20
30.5160301864
 11
160.0658166889
 21
30.4837670312
 12
159.7189416889
 22
30.4837670312
 13
159.7189416889
 23
30.4837670312
  0
SOLID
  8
0
 62
7
  6
CONTINUOUS
 10
149.3705039683
 20
30.999985342
 11
149.7173789683
 21
31.1613038256
 12
149.6595664615
 22
31.0322496452
 13
149.6595664615
 23
31.0322496452
  0
SOLID
  8
0
 62
7
  6
CONTINUOUS
 10
149.6595664615
 20
31.0322496452
 11
149.6595664615
 21
30.9354583476
 12
149.3705039683
 22
30.999985342
 13
149.3705039683
 23
30.999985342
  0
SOLID
  8
0
 62
7
  6
CONTINUOUS
 10
149.4283164701
 20
30.8064040715
 11
149.3705039683
 21
30.999985342
 12
149.6595664615
 22
30.9354583476
 13
149.6595664615
 23
30.9354583476
  0
SOLID
  8
0
 62
7
  6
CONTINUOUS
 10
149.6595664615
 20
30.9354583476
 11
149.7751914546
 21
30.7741397682
 12
149.4283164701
 22
30.8064040715
 13
149.4283164701
 23
30.8064040715
  0
SOLID
  8
0
 62
7
  6
CONTINUOUS
 10
149.5439414683
 20
30.6773485435
 11
149.4283164701
 21
30.8064040715
 12
149.7751914546
 22
30.7741397682
 13
149.7751914546
 23
30.7741397682
  0
SOLID
  8
0
 62
7
  6
CONTINUOUS
 10
149.7751914546
 20
30.7741397682
 11
149.9486289546
 21
30.6773485435
 12
149.5439414683
 22
30.6773485435
 13
149.5439414683
 23
30.6773485435
  0
SOLID
  8
0
 62
7
  6
CONTINUOUS
 10
149.6595664615
 20
30.6128213107
 11
149.5439414683
 21
30.6773485435
 12
149.9486289546
 22
30.6773485435
 13
149.9486289546
 23
30.6773485435
  0
SOLID
  8
0
 62
7
  6
CONTINUOUS
 10
149.9486289546
 20
30.6773485435
 11
150.2955039959
 21
30.6128213107
 12
149.6595664615
 22
30.6128213107
 13
149.6595664615
 23
30.6128213107
  0
SOLID
  8
0
 62
7
  6
CONTINUOUS
 10
149.8330039821
 20
30.5482941944
 11
149.6595664615
 21
30.6128213107
 12
150.2955039959
 22
30.6128213107
 13
150.2955039959
 23
30.6128213107
  0
SOLID
  8
0
 62
7
  6
CONTINUOUS
 10
153.8798789683
 20
30.9999852815
 11
153.9955038581
 21
31.0645131385
 12
154.5736289683
 22
31.0322496452
 13
154.5736289683
 23
31.0322496452
  0
SOLID
  8
0
 62
7
  6
CONTINUOUS
 10
154.5736289683
 20
31.0322496452
 11
154.3423788581
 21
30.9999852815
 12
153.8798789683
 22
30.9999852815
 13
153.8798789683
 23
30.9999852815
  0
SOLID
  8
0
 62
7
  6
CONTINUOUS
 10
153.7642540786
 20
30.8709311616
 11
153.8798789683
 21
30.9999852815
 12
154.3423788581
 22
30.9999852815
 13
154.3423788581
 23
30.9999852815
  0
SOLID
  8
0
 62
7
  6
CONTINUOUS
 10
154.1111290786
 20
30.9031946612
 11
153.7642540786
 21
30.8709311616
 12
154.2267539683
 22
30.9677225551
 13
154.2267539683
 23
30.9677225551
  0
SOLID
  8
0
 62
7
  6
CONTINUOUS
 10
153.7642540786
 20
30.8709311616
 11
154.3423788581
 21
30.999985342
 12
154.2267539683
 22
30.9677225551
 13
154.2267539683
 23
30.9677225551
  0
SOLID
  8
0
 62
7
  6
CONTINUOUS
 10
154.1111290786
 20
30.9031946612
 11
154.0533164683
 21
30.8064040715
 12
153.7642540786
 22
30.8709311616
 13
153.7642540786
 23
30.8709311616
  0
SOLID
  8
0
 62
7
  6
CONTINUOUS
 10
153.7642540786
 20
30.7741397682
 11
153.7642540786
 21
30.8709311616
 12
154.0533164683
 22
30.8064040715
 13
154.0533164683
 23
30.8064040715
  0
SOLID
  8
0
 62
7
  6
CONTINUOUS
 10
154.0533164683
 20
30.8064040715
 11
154.0533164683
 21
30.7418754649
 12
153.7642540786
 22
30.7741397682
 13
153.7642540786
 23
30.7741397682
  0
SOLID
  8
0
 62
7
  6
CONTINUOUS
 10
153.8220663581
 20
30.6450855879
 11
153.7642540786
 21
30.7741397682
 12
154.0533164683
 22
30.7418754649
 13
154.0533164683
 23
30.7418754649
  0
SOLID
  8
0
 62
7
  6
CONTINUOUS
 10
155.2095666889
 20
30.8386672883
 11
155.4986287478
 21
30.7418754649
 12
155.1517537478
 22
30.7741397682
 13
155.1517537478
 23
30.7741397682
  0
SOLID
  8
0
 62
7
  6
CONTINUOUS
 10
154.9783162478
 20
30.6773483748
 11
155.1517537478
 21
30.7741397682
 12
155.4986287478
 22
30.7418754649
 13
155.4986287478
 23
30.7418754649
  0
SOLID
  8
0
 62
7
  6
CONTINUOUS
 10
154.9783162478
 20
30.6773483748
 11
155.4986287478
 21
30.7418754649
 12
155.2095666889
 22
30.6450855879
 13
155.2095666889
 23
30.6450855879
  0
SOLID
  8
0
 62
7
  6
CONTINUOUS
 10
155.4986287478
 20
30.7418754649
 11
155.5564416889
 21
30.5805584977
 12
155.2095666889
 22
30.6450855879
 13
155.2095666889
 23
30.6450855879
  0
SOLID
  8
0
 62
7
  6
CONTINUOUS
 10
155.2673789683
 20
30.5482941944
 11
155.2095666889
 21
30.6450855879
 12
155.5564416889
 22
30.5805584977
 13
155.5564416889
 23
30.5805584977
  0
SOLID
  8
0
 62
7
  6
CONTINUOUS
 10
155.2673789683
 20
30.5482941944
 11
155.5564416889
 21
30.5805584977
 12
155.3251912478
 22
30.4837669548
 13
155.3251912478
 23
30.4837669548
  0
SOLID
  8
0
 62
7
  6
CONTINUOUS
 10
155.5564416889
 20
30.5805584977
 11
155.6142539683
 21
30.4837669548
 12
155.3251912478
 22
30.4837669548
 13
155.3251912478
 23
30.4837669548
  0
SOLID
  8
0
 62
7
  6
CONTINUOUS
 10
150.8736290235
 20
30.7096125201
 11
150.9314414683
 21
30.8064039377
 12
151.2205040235
 22
30.8064039377
 13
151.2205040235
 23
30.8064039377
  0
SOLID
  8
0
 62
7
  6
CONTINUOUS
 10
151.2205040235
 20
30.8064039377
 11
151.1626914132
 21
30.6773483748
 12
150.8736290235
 22
30.7096125201
 13
150.8736290235
 23
30.7096125201
  0
SOLID
  8
0
 62
7
  6
CONTINUOUS
 10
150.7001914408
 20
30.6450855879
 11
150.8736290235
 21
30.7096125201
 12
151.1626914132
 22
30.6773483748
 13
151.1626914132
 23
30.6773483748
  0
SOLID
  8
0
 62
7
  6
CONTINUOUS
 10
150.7001914408
 20
30.6450855879
 11
151.1626914132
 21
30.6773483748
 12
150.2955039959
 22
30.6128212846
 13
150.2955039959
 23
30.6128212846
  0
SOLID
  8
0
 62
7
  6
CONTINUOUS
 10
151.1626914132
 20
30.6773483748
 11
150.9892539132
 21
30.5805584977
 12
150.2955039959
 22
30.6128212846
 13
150.2955039959
 23
30.6128212846
  0
SOLID
  8
0
 62
7
  6
CONTINUOUS
 10
149.8330039821
 20
30.5482941944
 11
150.2955039959
 21
30.6128212846
 12
150.9892539132
 22
30.5805584977
 13
150.9892539132
 23
30.5805584977
  0
SOLID
  8
0
 62
7
  6
CONTINUOUS
 10
149.8330039821
 20
30.5482941944
 11
150.9892539132
 21
30.5805584977
 12
150.0064414821
 22
30.5160300219
 13
150.0064414821
 23
30.5160300219
  0
SOLID
  8
0
 62
7
  6
CONTINUOUS
 10
150.9892539132
 20
30.5805584977
 11
150.7580039683
 21
30.5160300219
 12
150.0064414821
 22
30.5160300219
 13
150.0064414821
 23
30.5160300219
  0
SOLID
  8
0
 62
7
  6
CONTINUOUS
 10
150.3533164408
 20
30.4837671043
 11
150.0064414821
 21
30.5160300219
 12
150.7580039683
 22
30.5160300219
 13
150.7580039683
 23
30.5160300219
  0
SOLID
  8
0
 62
7
  6
CONTINUOUS
 10
153.8220663581
 20
30.6450855879
 11
154.0533164683
 21
30.7418754649
 12
154.1111290786
 22
30.6773483748
 13
154.1111290786
 23
30.6773483748
  0
SOLID
  8
0
 62
7
  6
CONTINUOUS
 10
154.1111290786
 20
30.6773483748
 11
154.3423788581
 21
30.6128212846
 12
153.8220663581
 22
30.6450855879
 13
153.8220663581
 23
30.6450855879
  0
SOLID
  8
0
 62
7
  6
CONTINUOUS
 10
153.9955038581
 20
30.5482941944
 11
153.8220663581
 21
30.6450855879
 12
154.3423788581
 22
30.6128212846
 13
154.3423788581
 23
30.6128212846
  0
SOLID
  8
0
 62
7
  6
CONTINUOUS
 10
154.6892538581
 20
30.6128213209
 11
154.9783162478
 21
30.6773483748
 12
155.2095666889
 22
30.6450855879
 13
155.2095666889
 23
30.6450855879
  0
SOLID
  8
0
 62
7
  6
CONTINUOUS
 10
155.2095666889
 20
30.6450855879
 11
155.1517537478
 21
30.5805584977
 12
154.6892538581
 22
30.6128213209
 13
154.6892538581
 23
30.6128213209
  0
SOLID
  8
0
 62
7
  6
CONTINUOUS
 10
155.1517537478
 20
30.5805584977
 11
153.9955038581
 21
30.5482941944
 12
154.6892538581
 22
30.6128213209
 13
154.6892538581
 23
30.6128213209
  0
SOLID
  8
0
 62
7
  6
CONTINUOUS
 10
153.9955038581
 20
30.5482941944
 11
154.3423788581
 21
30.6128213209
 12
154.6892538581
 22
30.6128213209
 13
154.6892538581
 23
30.6128213209
  0
SOLID
  8
0
 62
7
  6
CONTINUOUS
 10
153.9955038581
 20
30.5482941944
 11
155.1517537478
 21
30.5805584977
 12
154.1111290786
 22
30.5160299113
 13
154.1111290786
 23
30.5160299113
  0
SOLID
  8
0
 62
7
  6
CONTINUOUS
 10
155.1517537478
 20
30.5805584977
 11
154.9783162478
 21
30.5160299113
 12
154.1111290786
 22
30.5160299113
 13
154.1111290786
 23
30.5160299113
  0
SOLID
  8
0
 62
7
  6
CONTINUOUS
 10
154.3423788581
 20
30.483767076
 11
154.1111290786
 21
30.5160299113
 12
154.9783162478
 22
30.5160299113
 13
154.9783162478
 23
30.5160299113
  0
SOLID
  8
0
 62
7
  6
CONTINUOUS
 10
154.9783162478
 20
30.5160299113
 11
154.6892538581
 21
30.483767076
 12
154.3423788581
 22
30.483767076
 13
154.3423788581
 23
30.483767076
  0
SOLID
  8
0
 62
7
  6
CONTINUOUS
 10
159.3720666889
 20
30.6450855879
 11
159.0251916889
 21
30.6128213209
 12
159.2564414683
 22
30.6773483748
 13
159.2564414683
 23
30.6773483748
  0
SOLID
  8
0
 62
7
  6
CONTINUOUS
 10
159.2564414683
 20
30.6773483748
 11
159.0251916889
 21
30.6128213209
 12
159.1986291889
 22
30.7418755012
 13
159.1986291889
 23
30.7418755012
  0
SOLID
  8
0
 62
7
  6
CONTINUOUS
 10
159.0251916889
 20
30.6128213209
 11
158.9095664683
 21
30.7418755012
 12
159.1986291889
 22
30.7418755012
 13
159.1986291889
 23
30.7418755012
  0
SOLID
  8
0
 62
7
  6
CONTINUOUS
 10
159.3720666889
 20
30.6450855879
 11
159.7189416889
 21
30.6128213209
 12
159.0251916889
 22
30.6128213209
 13
159.0251916889
 23
30.6128213209
  0
SOLID
  8
0
 62
7
  6
CONTINUOUS
 10
156.0767541889
 20
30.4837671043
 11
156.0767541889
 21
31.5162050961
 12
156.3658162478
 22
30.4837671043
 13
156.3658162478
 23
31.5162050961
  0
ENDBLK
  8
0
  6
BYBLOCK
 62
0
  0
BLOCK
  8
0
 62
2
  6
CONTINUOUS
  2
SYMBOL_3_BL0
 70
64
 10
31.7740840678
 20
19.9150776578
  0
TEXT
  8
0
 62
7
  6
CONTINUOUS
 10
18.0387879101
 20
19.2884917655
  7
TEXTSTYLE_3
 40
2.7338706658
  1
Ammeraal Beltech
 41
1.0
 51
15.0
 72
0
  0
TEXT
  8
0
 62
7
  6
CONTINUOUS
 10
28.8395887358
 20
17.0149550926
  7
TEXTSTYLE_4
 40
1.0935482663
  1
Innovation & Service in Belting
 41
1.0
 72
0
  0
LINE
  8
0
 62
7
  6
CONTINUOUS
 10
12.0142472588
 20
20.055085074
 11
12.7923992521
 21
23.7160023717
  0
LINE
  8
0
 62
7
  6
CONTINUOUS
 10
22.8875675419
 20
27.3793962833
 11
13.2802169951
 21
24.257778862
  0
LINE
  8
0
 62
7
  6
CONTINUOUS
 10
12.2395305911
 20
19.361734271
 11
19.7466058522
 21
12.602333345
  0
LINE
  8
0
 62
7
  6
CONTINUOUS
 10
12.5020650018
 20
20.5968615644
 11
23.310334367
 21
24.1086811633
  0
LINE
  8
0
 62
7
  6
CONTINUOUS
 10
23.3061292298
 20
13.7588925996
 11
14.860669561
 21
21.3632186413
  0
LINE
  8
0
 62
7
  6
CONTINUOUS
 10
23.8259519496
 20
26.5344711676
 11
22.8493924124
 21
21.9401197651
  0
LINE
  8
0
 62
7
  6
CONTINUOUS
 10
22.1495904647
 20
18.6478104513
 11
21.4631422532
 21
15.4183255269
  0
LINE
  8
0
 62
7
  6
CONTINUOUS
 10
24.5070480481
 20
14.1490947773
 11
25.4632795838
 21
18.6478104513
  0
LINE
  8
0
 62
7
  6
CONTINUOUS
 10
26.1630815315
 20
21.9401197651
 11
26.6073233338
 21
24.0301131245
  0
LINE
  8
0
 62
7
  6
CONTINUOUS
 10
20.4597069275
 20
12.4507590323
 11
24.0192303051
 21
13.6073182869
  0
LINE
  8
0
 62
7
  6
CONTINUOUS
 10
23.6006686173
 20
27.2278219706
 11
26.3820400015
 21
24.7234639276
  0
ARC
  8
0
 62
7
  6
CONTINUOUS
 10
13.5055003274
 20
23.564428059
 40
0.7290321776
 50
108.0
 51
168.0
  0
ARC
  8
0
 62
7
  6
CONTINUOUS
 10
23.1128508743
 20
26.6860454803
 40
0.7290321776
 50
348.0
 51
108.0
  0
ARC
  8
0
 62
7
  6
CONTINUOUS
 10
25.8942222585
 20
24.1816874372
 40
0.7290321776
 50
348.0
 51
48.0
  0
ARC
  8
0
 62
7
  6
CONTINUOUS
 10
20.2344235952
 20
13.1441098354
 40
0.7290321776
 50
228.0
 51
288.0
  0
ARC
  8
0
 62
7
  6
CONTINUOUS
 10
12.7273483341
 20
19.9035107613
 40
0.7290321776
 50
108.0
 51
228.0
  0
ARC
  8
0
 62
7
  6
CONTINUOUS
 10
23.7939469728
 20
14.30066909
 40
0.7290321776
 50
228.0
 51
348.0
  0
ENDBLK
  8
0
  6
BYBLOCK
 62
0
  0
ENDSEC
  0
SECTION
  2
ENTITIES
  0
TEXT
  8
0
 62
5
  6
CONTINUOUS
 10
96.0
 20
25.636
  7
TEXTSTYLE_2
 40
2.8
  1
Scale :
 41
0.6
 51
0.000019
 72
0
  0
TEXT
  8
0
 62
5
  6
CONTINUOUS
 10
116.0
 20
25.636
  7
TEXTSTYLE_2
 40
2.8
  1
Chain type:
 41
0.6
 51
0.000019
 72
0
  0
INSERT
  8
0
 62
2
  6
CONTINUOUS
  2
SYMBOL_3_BL0
 10
31.7740840678
 20
19.9150776578
  0
INSERT
  8
0
 62
2
  6
CONTINUOUS
  2
SYMBOL_11_BL1
 10
173.3924355793
 20
35.4837666925
  0
LINE
  8
0
 62
2
  6
CONTINUOUS
 10
10.0
 20
30.0
 11
200.0
 21
30.0
  0
LINE
  8
0
 62
2
  6
CONTINUOUS
 10
10.0
 20
30.0
 11
10.0
 21
10.0
  0
LINE
  8
0
 62
2
  6
CONTINUOUS
 10
10.0
 20
10.0
 11
200.0
 21
10.0
  0
LINE
  8
0
 62
2
  6
CONTINUOUS
 10
95.0
 20
30.0
 11
95.0
 21
10.0
  0
LINE
  8
0
 62
2
  6
CONTINUOUS
 10
115.0
 20
30.0
 11
115.0
 21
10.0
  0
LINE
  8
0
 62
2
  6
CONTINUOUS
 10
200.0
 20
30.0
 11
200.0
 21
10.0
  0
TEXT
  8
0
 62
5
  6
CONTINUOUS
 10
13.0
 20
23.303
  7
TEXTSTYLE_5
 40
1.52
  1
                                                                     Ammeraal Beltech Modular A/S
 41
1.0
 72
0
  0
TEXT
  8
0
 62
5
  6
CONTINUOUS
 10
13.0
 20
20.595
  7
TEXTSTYLE_5
 40
1.5
  1
                                                                      Hjulmagervej 21,  7100 Vejle,  DK
 41
1.0
 72
0
  0
TEXT
  8
0
 62
5
  6
CONTINUOUS
 10
13.0
 20
17.881
  7
TEXTSTYLE_5
 40
1.495
  1
                                                                      tel: 
 41
1.0
 72
0
  0
TEXT
  8
0
 62
5
  6
CONTINUOUS
 10
57.9869465649
 20
17.881
  7
TEXTSTYLE_5
 40
1.51
  1
+45 75723100     fax: +45 75723348
 41
1.0
 72
0
  0
TEXT
  8
0
 62
5
  6
CONTINUOUS
 10
13.0
 20
15.177
  7
TEXTSTYLE_5
 40
1.5
  1
                                                                      admin@unichains.dk  www.unichains.com
 41
1.0
 72
0
  0
TEXT
  8
0
 62
5
  6
CONTINUOUS
 10
99.75
 20
13.75
  7
TEXTSTYLE_6
 40
5.0
  1
1:1
 41
0.7
 72
1
 11
105.0
 21
13.75
  0
TEXT
  8
0
 62
5
  6
CONTINUOUS
 10
118.0
 20
13.75
  7
TEXTSTYLE_7
 40
7.5
  1
Sprocket Z20
 41
0.6694444444
 72
0
  0
LINE
  8
0
 62
7
  6
CONTINUOUS
 10
210.0
 20
0.0
 11
0.0
 21
0.0
  0
LINE
  8
0
 62
7
  6
CONTINUOUS
 10
10.0
 20
10.0
 11
200.0
 21
10.0
  0
LINE
  8
0
 62
7
  6
CONTINUOUS
 10
10.0
 20
30.0
 11
200.0
 21
30.0
  0
LINE
  8
0
 62
7
  6
CONTINUOUS
 10
0.0
 20
0.0
 11
0.0
 21
297.0
  0
LINE
  8
0
 62
7
  6
CONTINUOUS
 10
10.0
 20
10.0
 11
10.0
 21
287.0
  0
LINE
  8
0
 62
7
  6
CONTINUOUS
 10
200.0
 20
287.0
 11
200.0
 21
10.0
  0
LINE
  8
0
 62
7
  6
CONTINUOUS
 10
210.0
 20
0.0
 11
210.0
 21
297.0
  0
LINE
  8
0
 62
7
  6
CONTINUOUS
 10
10.0
 20
287.0
 11
200.0
 21
287.0
  0
LINE
  8
0
 62
7
  6
CONTINUOUS
 10
0.0
 20
297.0
 11
210.0
 21
297.0
  0
LINE
  8
0
 62
7
  6
CONTINUOUS
 10
33.8923758702
 20
206.3916834999
 11
33.8923758702
 21
204.6641151872
  0
LINE
  8
0
 62
7
  6
CONTINUOUS
 10
37.2260518728
 20
225.7121170982
 11
36.6922039053
 21
224.0691019971
  0
LINE
  8
0
 62
7
  6
CONTINUOUS
 10
46.3669084789
 20
243.0567788311
 11
45.3514693024
 21
241.6591467072
  0
LINE
  8
0
 62
7
  6
CONTINUOUS
 10
60.4201749558
 20
256.7278523606
 11
59.0225428319
 21
255.7124131841
  0
LINE
  8
0
 62
7
  6
CONTINUOUS
 10
78.0102196659
 20
265.3871177577
 11
76.3672045648
 21
264.8532697902
  0
LINE
  8
0
 62
7
  6
CONTINUOUS
 10
95.6876381631
 20
142.8688528943
 11
97.4152064758
 21
142.8688528943
  0
LINE
  8
0
 62
7
  6
CONTINUOUS
 10
76.3672045648
 20
146.2025288969
 11
78.0102196659
 21
145.6686809294
  0
LINE
  8
0
 62
7
  6
CONTINUOUS
 10
59.0225428319
 20
155.343385503
 11
60.4201749558
 21
154.3279463265
  0
LINE
  8
0
 62
7
  6
CONTINUOUS
 10
45.3514693024
 20
169.3966519799
 11
46.3669084789
 21
167.999019856
  0
LINE
  8
0
 62
7
  6
CONTINUOUS
 10
36.6922039053
 20
186.9866966899
 11
37.2260518728
 21
185.3436815888
  0
LINE
  8
0
 62
7
  6
CONTINUOUS
 10
43.4520376796
 20
214.1509716422
 11
43.3862306624
 21
213.7354824877
  0
LINE
  8
0
 62
7
  6
CONTINUOUS
 10
48.7155824305
 20
230.1375406882
 11
48.5246030282
 21
229.7627225071
  0
LINE
  8
0
 62
7
  6
CONTINUOUS
 10
58.6616324816
 20
243.715146574
 11
58.3641750888
 21
243.4176891813
  0
LINE
  8
0
 62
7
  6
CONTINUOUS
 10
72.3165991557
 20
253.5547186346
 11
71.9417809745
 21
253.3637392324
  0
LINE
  8
0
 62
7
  6
CONTINUOUS
 10
104.759005464
 20
152.3627076865
 11
105.1744946184
 21
152.4285147037
  0
LINE
  8
0
 62
7
  6
CONTINUOUS
 10
87.9283500209
 20
152.4285147037
 11
88.3438391753
 21
152.3627076865
  0
LINE
  8
0
 62
7
  6
CONTINUOUS
 10
71.9417809748
 20
157.6920594545
 11
72.3165991557
 21
157.5010800525
  0
LINE
  8
0
 62
7
  6
CONTINUOUS
 10
58.364175089
 20
167.6381095056
 11
58.6616324818
 21
167.3406521129
  0
LINE
  8
0
 62
7
  6
CONTINUOUS
 10
48.5246030284
 20
181.2930761797
 11
48.7155824306
 21
180.9182579986
  0
LINE
  8
0
 62
7
  6
CONTINUOUS
 10
43.3862306625
 20
197.3203161991
 11
43.4520376797
 21
196.9048270446
  0
LINE
  8
0
 62
7
  6
CONTINUOUS
 10
55.3619059679
 20
229.6589614675
 11
55.1601328622
 21
229.2944086028
  0
LINE
  8
0
 62
7
  6
CONTINUOUS
 10
54.3530406269
 20
227.836197483
 11
54.1512675645
 21
227.4716446966
  0
LINE
  8
0
 62
7
  6
CONTINUOUS
 10
56.7067471429
 20
231.7964409257
 11
56.5252220717
 21
231.5168700659
  0
LINE
  8
0
 62
7
  6
CONTINUOUS
 10
56.1167908563
 20
230.8878359315
 11
55.8898845823
 21
230.5383724568
  0
LINE
  8
0
 62
7
  6
CONTINUOUS
 10
56.8283335114
 20
234.2179606591
 11
56.5858110263
 21
233.8791482879
  0
LINE
  8
0
 62
7
  6
CONTINUOUS
 10
56.9318322621
 20
233.631465685
 11
57.1743547472
 21
233.9702780561
  0
LINE
  8
0
 62
7
  6
CONTINUOUS
 10
57.8663974126
 20
233.4749127115
 11
57.6238749275
 21
233.1361003403
  0
LINE
  8
0
 62
7
  6
CONTINUOUS
 10
67.6436261941
 20
244.4602912292
 11
67.9301326369
 21
244.7745645724
  0
LINE
  8
0
 62
7
  6
CONTINUOUS
 10
61.836897701
 20
240.1197513498
 11
61.4900442584
 21
239.7596226376
  0
LINE
  8
0
 62
7
  6
CONTINUOUS
 10
64.0700461396
 20
239.1259158022
 11
63.4919572891
 21
238.5257015107
  0
LINE
  8
0
 62
7
  6
CONTINUOUS
 10
63.1451038466
 20
238.1655727985
 11
62.1623522055
 21
237.1452078849
  0
LINE
  8
0
 62
7
  6
CONTINUOUS
 10
67.6793986356
 20
245.118381134
 11
67.3255609278
 21
244.7550053351
  0
LINE
  8
0
 62
7
  6
CONTINUOUS
 10
65.0447342336
 20
243.0648551202
 11
64.6672808715
 21
242.7369390343
  0
LINE
  8
0
 62
7
  6
CONTINUOUS
 10
67.1808422349
 20
241.8767030927
 11
66.5517528181
 21
241.3301758658
  0
LINE
  8
0
 62
7
  6
CONTINUOUS
 10
66.174299456
 20
241.0022597799
 11
65.1048487433
 21
240.07316462
  0
LINE
  8
0
 62
7
  6
CONTINUOUS
 10
78.4352719318
 20
250.5097131878
 11
78.7927737211
 21
250.7400341293
  0
LINE
  8
0
 62
7
  6
CONTINUOUS
 10
78.7162290447
 20
251.1668391345
 11
78.2033906386
 21
250.8761186786
  0
LINE
  8
0
 62
7
  6
CONTINUOUS
 10
82.3162444921
 20
251.8825272525
 11
82.6913063028
 21
252.0829864843
  0
LINE
  8
0
 62
7
  6
CONTINUOUS
 10
68.1335299439
 20
245.3442303082
 11
67.6793986356
 21
245.118381134
  0
LINE
  8
0
 62
7
  6
CONTINUOUS
 10
82.5698861158
 20
252.4908277593
 11
82.1149565979
 21
252.2665907675
  0
LINE
  8
0
 62
7
  6
CONTINUOUS
 10
76.4690062914
 20
250.2545618854
 11
73.476307351
 21
248.7866192142
  0
LINE
  8
0
 62
7
  6
CONTINUOUS
 10
73.6637043369
 20
248.4045724408
 11
76.2823163379
 21
249.6890224881
  0
LINE
  8
0
 62
7
  6
CONTINUOUS
 10
67.9301326369
 20
244.7745645724
 11
68.3169342212
 21
244.9513124147
  0
LINE
  8
0
 62
7
  6
CONTINUOUS
 10
79.0269022783
 20
251.2876381633
 11
78.7162290447
 21
251.1668391345
  0
LINE
  8
0
 62
7
  6
CONTINUOUS
 10
78.7927737211
 20
250.7400341293
 11
79.1034469547
 21
250.8608331581
  0
LINE
  8
0
 62
7
  6
CONTINUOUS
 10
77.8127973885
 20
249.8111086399
 11
78.201141597
 21
249.9621084627
  0
LINE
  8
0
 62
7
  6
CONTINUOUS
 10
56.968829614
 20
227.8170988878
 11
56.8818730634
 21
227.4842434895
  0
LINE
  8
0
 62
7
  6
CONTINUOUS
 10
57.179720444
 20
227.3193906057
 11
57.2666770142
 21
227.6522459933
  0
LINE
  8
0
 62
7
  6
CONTINUOUS
 10
56.5252220717
 20
231.5168700659
 11
56.4150767519
 21
231.1909524071
  0
LINE
  8
0
 62
7
  6
CONTINUOUS
 10
56.7005957577
 20
231.0055652109
 11
56.8107410774
 21
231.3314828697
  0
LINE
  8
0
 62
7
  6
CONTINUOUS
 10
67.3255609278
 20
244.7550053351
 11
67.1393480855
 21
244.3032053673
  0
LINE
  8
0
 62
7
  6
CONTINUOUS
 10
56.8818730634
 20
227.4842434895
 11
56.7204545903
 21
227.1926012186
  0
LINE
  8
0
 62
7
  6
CONTINUOUS
 10
57.018301971
 20
227.0277483348
 11
57.179720444
 21
227.3193906057
  0
LINE
  8
0
 62
7
  6
CONTINUOUS
 10
57.6236211727
 20
228.1214067203
 11
57.8253942784
 21
228.485959585
  0
LINE
  8
0
 62
7
  6
CONTINUOUS
 10
58.1740368279
 20
229.0552747571
 11
58.400943102
 21
229.4047382318
  0
LINE
  8
0
 62
7
  6
CONTINUOUS
 10
59.2178055327
 20
230.6628065007
 11
59.4447116769
 21
231.0122697754
  0
LINE
  8
0
 62
7
  6
CONTINUOUS
 10
59.8384110304
 20
231.5509315426
 11
60.0809335155
 21
231.8897439138
  0
LINE
  8
0
 62
7
  6
CONTINUOUS
 10
78.2033906386
 20
250.8761186786
 11
77.9544022434
 21
250.5966774124
  0
LINE
  8
0
 62
7
  6
CONTINUOUS
 10
82.1149565979
 20
252.2665907675
 11
81.7884628621
 21
251.9029950257
  0
LINE
  8
0
 62
7
  6
CONTINUOUS
 10
70.0720724757
 20
242.5445961463
 11
69.7855644918
 21
242.2303216792
  0
LINE
  8
0
 62
7
  6
CONTINUOUS
 10
56.7824216816
 20
226.7773193371
 11
57.018301971
 21
227.0277483348
  0
LINE
  8
0
 62
7
  6
CONTINUOUS
 10
62.1254811436
 20
236.370824606
 11
63.5128949139
 21
237.811339455
  0
LINE
  8
0
 62
7
  6
CONTINUOUS
 10
63.8597483564
 20
238.1714681672
 11
64.4378372068
 21
238.7716824587
  0
LINE
  8
0
 62
7
  6
CONTINUOUS
 10
64.3710739564
 20
236.984795097
 11
64.7179273989
 21
237.3449238093
  0
LINE
  8
0
 62
7
  6
CONTINUOUS
 10
70.0362985282
 20
241.8865050695
 11
70.3901362316
 21
242.2498808744
  0
LINE
  8
0
 62
7
  6
CONTINUOUS
 10
56.8107410774
 20
231.3314828697
 11
57.0636459
 21
231.5647069304
  0
LINE
  8
0
 62
7
  6
CONTINUOUS
 10
64.9993797896
 20
239.3051117328
 11
66.5091925182
 21
240.6167754511
  0
LINE
  8
0
 62
7
  6
CONTINUOUS
 10
66.8866458803
 20
240.944691537
 11
67.5157352971
 21
241.4912187639
  0
LINE
  8
0
 62
7
  6
CONTINUOUS
 10
67.2906095591
 20
239.7173121373
 11
67.6680629212
 21
240.0452282233
  0
LINE
  8
0
 62
7
  6
CONTINUOUS
 10
56.9142706327
 20
231.9597721714
 11
56.7067471429
 21
231.7964409257
  0
LINE
  8
0
 62
7
  6
CONTINUOUS
 10
57.0636459
 20
231.5647069304
 11
57.2257880572
 21
231.6581453612
  0
LINE
  8
0
 62
7
  6
CONTINUOUS
 10
83.9648776166
 20
249.2654198812
 11
83.5898158059
 21
249.0649606493
  0
LINE
  8
0
 62
7
  6
CONTINUOUS
 10
69.5821672155
 20
241.6606559012
 11
70.0362985282
 21
241.8865050695
  0
LINE
  8
0
 62
7
  6
CONTINUOUS
 10
83.71123601
 20
248.6571193172
 11
84.1661655257
 21
248.8813563161
  0
LINE
  8
0
 62
7
  6
CONTINUOUS
 10
78.0056617595
 20
247.1217779686
 11
75.4618678314
 21
245.8740267821
  0
LINE
  8
0
 62
7
  6
CONTINUOUS
 10
75.2378392284
 20
245.1953791158
 11
78.2305381688
 21
246.663321787
  0
LINE
  8
0
 62
7
  6
CONTINUOUS
 10
69.7855644918
 20
242.2303216792
 11
69.3987644485
 21
242.0535749607
  0
LINE
  8
0
 62
7
  6
CONTINUOUS
 10
81.4873131056
 20
248.409148874
 11
79.3125933599
 21
247.5635529078
  0
LINE
  8
0
 62
7
  6
CONTINUOUS
 10
78.8454572326
 20
246.9253485099
 11
81.6415252232
 21
248.0125432248
  0
LINE
  8
0
 62
7
  6
CONTINUOUS
 10
56.940969777
 20
228.1182569996
 11
56.968829614
 21
227.8170988878
  0
LINE
  8
0
 62
7
  6
CONTINUOUS
 10
56.4150767519
 20
231.1909524071
 11
56.4216926462
 21
230.8885809642
  0
LINE
  8
0
 62
7
  6
CONTINUOUS
 10
56.7072116519
 20
230.703193768
 11
56.7005957577
 21
231.0055652109
  0
LINE
  8
0
 62
7
  6
CONTINUOUS
 10
57.2666770142
 20
227.6522459933
 11
57.2729244344
 21
227.8392804018
  0
LINE
  8
0
 62
7
  6
CONTINUOUS
 10
67.1393480855
 20
244.3032053673
 11
67.0877962322
 21
243.949609187
  0
LINE
  8
0
 62
7
  6
CONTINUOUS
 10
67.5419275405
 20
244.1754583612
 11
67.6436261941
 21
244.4602912292
  0
LINE
  8
0
 62
7
  6
CONTINUOUS
 10
70.1737711292
 20
242.8294290142
 11
70.0720724757
 21
242.5445961463
  0
LINE
  8
0
 62
7
  6
CONTINUOUS
 10
70.3901362316
 20
242.2498808744
 11
70.5763506018
 21
242.7016819841
  0
LINE
  8
0
 62
7
  6
CONTINUOUS
 10
77.9544022434
 20
250.5966774124
 11
77.7670969089
 21
250.1585932176
  0
LINE
  8
0
 62
7
  6
CONTINUOUS
 10
81.7884628621
 20
251.9029950257
 11
81.6217081966
 21
251.5869558923
  0
LINE
  8
0
 62
7
  6
CONTINUOUS
 10
78.2639509562
 20
250.2604713332
 11
78.4352719318
 21
250.5097131878
  0
LINE
  8
0
 62
7
  6
CONTINUOUS
 10
82.1252057893
 20
251.6480563741
 11
82.3162444921
 21
251.8825272525
  0
LINE
  8
0
 62
7
  6
CONTINUOUS
 10
84.1559163194
 20
249.4998907595
 11
83.9648776166
 21
249.2654198812
  0
LINE
  8
0
 62
7
  6
CONTINUOUS
 10
84.1661655257
 20
248.8813563161
 11
84.4926592552
 21
249.2449520794
  0
LINE
  8
0
 62
7
  6
CONTINUOUS
 10
56.7204545903
 20
227.1926012186
 11
56.4101124428
 21
226.983385449
  0
LINE
  8
0
 62
7
  6
CONTINUOUS
 10
56.51243413
 20
226.6410140794
 11
56.7824216816
 21
226.7773193371
  0
LINE
  8
0
 62
7
  6
CONTINUOUS
 10
57.1931738741
 20
232.0767566181
 11
56.9142706327
 21
231.9597721714
  0
LINE
  8
0
 62
7
  6
CONTINUOUS
 10
61.4900442584
 20
239.7596226376
 11
61.7576900763
 21
236.7250579495
  0
LINE
  8
0
 62
7
  6
CONTINUOUS
 10
62.1623522055
 20
237.1452078849
 11
61.9804322337
 21
239.2873116231
  0
LINE
  8
0
 62
7
  6
CONTINUOUS
 10
64.6672808715
 20
242.7369390343
 11
64.6644867274
 21
239.6905960615
  0
LINE
  8
0
 62
7
  6
CONTINUOUS
 10
65.1048487433
 20
240.07316462
 11
65.1138048502
 21
242.2229600493
  0
LINE
  8
0
 62
7
  6
CONTINUOUS
 10
70.5763506018
 20
242.7016819841
 11
70.6279024375
 21
243.0552781885
  0
LINE
  8
0
 62
7
  6
CONTINUOUS
 10
75.4618678314
 20
245.8740267821
 11
76.7313620717
 21
249.7196964026
  0
LINE
  8
0
 62
7
  6
CONTINUOUS
 10
76.2823163379
 20
249.6890224881
 11
74.9380040247
 21
245.8066540068
  0
LINE
  8
0
 62
7
  6
CONTINUOUS
 10
80.0949060939
 20
250.1505789512
 11
78.6912451151
 21
247.3219541591
  0
LINE
  8
0
 62
7
  6
CONTINUOUS
 10
79.3125933599
 20
247.5635529078
 11
80.5757740046
 21
250.0636140353
  0
LINE
  8
0
 62
7
  6
CONTINUOUS
 10
84.4926592552
 20
249.2449520794
 11
84.6594139121
 21
249.5609912413
  0
LINE
  8
DEFAULT_3
 62
2
  6
PHANTOM
 10
58.7050616279
 20
214.8455609571
 11
87.2337607059
 21
243.3742600351
  0
LINE
  8
DEFAULT_3
 62
2
  6
PHANTOM
 10
92.419117637
 20
246.2968752664
 11
91.3584574652
 21
245.2362150946
  0
LINE
  8
DEFAULT_3
 62
2
  6
PHANTOM
 10
55.7824463966
 20
209.660204026
 11
56.8431065684
 21
210.7208641978
  0
LINE
  8
DEFAULT_3
 62
2
  6
PHANTOM
 10
58.7050616279
 20
196.21023773
 11
87.2337607059
 21
167.681538652
  0
LINE
  8
DEFAULT_3
 62
2
  6
PHANTOM
 10
91.3584574652
 20
165.8195835924
 11
92.419117637
 21
164.7589234207
  0
LINE
  8
DEFAULT_3
 62
2
  6
PHANTOM
 10
56.8431065684
 20
200.3349344893
 11
55.7824463966
 21
201.3955946611
  0
LINE
  8
0
 62
7
  6
CONTINUOUS
 10
57.2729244344
 20
227.8392804018
 11
57.170602662
 21
228.1816516482
  0
LINE
  8
0
 62
7
  6
CONTINUOUS
 10
56.4216926462
 20
230.8885809642
 11
56.4736896134
 21
230.6561019362
  0
LINE
  8
0
 62
7
  6
CONTINUOUS
 10
56.7592086192
 20
230.47071474
 11
56.7072116519
 21
230.703193768
  0
LINE
  8
0
 62
7
  6
CONTINUOUS
 10
67.5734849634
 20
243.5664695957
 11
67.5419275405
 21
244.1754583612
  0
LINE
  8
0
 62
7
  6
CONTINUOUS
 10
70.1422122706
 20
243.4384165115
 11
70.1737711292
 21
242.8294290142
  0
LINE
  8
0
 62
7
  6
CONTINUOUS
 10
78.201141597
 20
249.9621084627
 11
78.2639509562
 21
250.2604713332
  0
LINE
  8
0
 62
7
  6
CONTINUOUS
 10
80.5757740046
 20
250.0636140353
 11
80.6385851415
 21
250.3619775971
  0
LINE
  8
0
 62
7
  6
CONTINUOUS
 10
81.951435597
 20
251.0635344872
 11
82.1252057893
 21
251.6480563741
  0
LINE
  8
0
 62
7
  6
CONTINUOUS
 10
84.3296865628
 20
250.084412475
 11
84.1559163194
 21
249.4998907595
  0
LINE
  8
0
 62
7
  6
CONTINUOUS
 10
123.8926852436
 20
243.9327389295
 11
124.2902564158
 21
244.0753105893
  0
LINE
  8
0
 62
7
  6
CONTINUOUS
 10
56.7982934166
 20
228.3877177637
 11
56.940969777
 21
228.1182569996
  0
LINE
  8
0
 62
7
  6
CONTINUOUS
 10
80.1268712562
 20
250.5282622492
 11
80.0949060939
 21
250.1505789512
  0
LINE
  8
0
 62
7
  6
CONTINUOUS
 10
81.6217081966
 20
251.5869558923
 11
81.5591089319
 21
251.2131273524
  0
LINE
  8
0
 62
7
  6
CONTINUOUS
 10
84.6594139121
 20
249.5609912413
 11
84.7220131598
 21
249.9348198384
  0
LINE
  8
0
 62
7
  6
CONTINUOUS
 10
129.0890922373
 20
241.2714679689
 11
128.6742924842
 21
241.0796460066
  0
LINE
  8
0
 62
7
  6
CONTINUOUS
 10
67.0877962322
 20
243.949609187
 11
67.1537224442
 21
243.5763521501
  0
LINE
  8
0
 62
7
  6
CONTINUOUS
 10
70.6279024375
 20
243.0552781885
 11
70.5619761904
 21
243.4285352735
  0
LINE
  8
0
 62
7
  6
CONTINUOUS
 10
81.5591089319
 20
251.2131273524
 11
81.5520897489
 21
250.9446435104
  0
LINE
  8
0
 62
7
  6
CONTINUOUS
 10
84.7220131598
 20
249.9348198384
 11
84.7290324109
 21
250.2033034518
  0
LINE
  8
0
 62
7
  6
CONTINUOUS
 10
76.1023903456
 20
150.3319172034
 11
75.6979711341
 21
147.2806268598
  0
LINE
  8
0
 62
7
  6
CONTINUOUS
 10
94.7180087558
 20
267.3684182032
 11
94.1597337113
 21
264.3414962296
  0
LINE
  8
0
 62
7
  6
CONTINUOUS
 10
60.0467407063
 20
159.3524992543
 11
58.7192146089
 21
156.5755220991
  0
LINE
  8
0
 62
7
  6
CONTINUOUS
 10
113.9175136713
 20
264.908283725
 11
112.4511922219
 21
262.202026334
  0
LINE
  8
0
 62
7
  6
CONTINUOUS
 10
47.5644236464
 20
172.8930511889
 11
45.443738167
 21
170.6622170944
  0
LINE
  8
0
 62
7
  6
CONTINUOUS
 10
131.4171045686
 20
256.6355834961
 11
129.1862704742
 21
254.5148980166
  0
LINE
  8
0
 62
7
  6
CONTINUOUS
 10
124.1350026607
 20
244.5904753965
 11
123.9232013971
 21
244.4253301716
  0
LINE
  8
0
 62
7
  6
CONTINUOUS
 10
124.2902564158
 20
244.0753105893
 11
124.5020576794
 21
244.2404558142
  0
LINE
  8
0
 62
7
  6
CONTINUOUS
 10
125.0894715819
 20
242.0730721951
 11
127.1164317735
 21
243.3899435097
  0
LINE
  8
0
 62
7
  6
CONTINUOUS
 10
123.9099199944
 20
241.275258953
 11
124.8107931446
 21
241.8605334645
  0
LINE
  8
0
 62
7
  6
CONTINUOUS
 10
127.0708976489
 20
243.8642102756
 11
123.5208696694
 21
241.5893287614
  0
LINE
  8
0
 62
7
  6
CONTINUOUS
 10
39.877295329
 20
189.6281294411
 11
37.171037938
 21
188.1618079917
  0
LINE
  8
0
 62
7
  6
CONTINUOUS
 10
128.9161564411
 20
240.7298547647
 11
129.1530087007
 21
240.8564796022
  0
LINE
  8
0
 62
7
  6
CONTINUOUS
 10
127.973770857
 20
239.7469295499
 11
128.210623034
 21
239.8735543013
  0
LINE
  8
0
 62
7
  6
CONTINUOUS
 10
129.3008998433
 20
238.1208284215
 11
129.0640477488
 21
237.9942037561
  0
LINE
  8
0
 62
7
  6
CONTINUOUS
 10
145.5037995639
 20
243.3601070541
 11
142.7268224087
 21
242.0325809567
  0
LINE
  8
0
 62
7
  6
CONTINUOUS
 10
129.1279641708
 20
237.5792153464
 11
129.5427638002
 21
237.7710371796
  0
LINE
  8
0
 62
7
  6
CONTINUOUS
 10
155.3650192056
 20
203.1362107354
 11
158.3919411792
 21
203.6944857799
  0
LINE
  8
0
 62
7
  6
CONTINUOUS
 10
38.3041498358
 20
184.6744481582
 11
41.3554401794
 21
185.0788673697
  0
LINE
  8
0
 62
7
  6
CONTINUOUS
 10
151.7474044596
 20
185.0788673697
 11
154.7986948032
 21
184.6744481582
  0
LINE
  8
0
 62
7
  6
CONTINUOUS
 10
34.7109034598
 20
203.6944857799
 11
37.7378254334
 21
203.1362107354
  0
LINE
  8
0
 62
7
  6
CONTINUOUS
 10
142.7268224087
 20
169.0232177304
 11
145.5037995639
 21
167.695691633
  0
LINE
  8
0
 62
7
  6
CONTINUOUS
 10
37.171037938
 20
222.8939906954
 11
39.877295329
 21
221.4276692459
  0
LINE
  8
0
 62
7
  6
CONTINUOUS
 10
129.1862704742
 20
156.5409006704
 11
131.4171045686
 21
154.420215191
  0
LINE
  8
0
 62
7
  6
CONTINUOUS
 10
45.443738167
 20
240.3935815927
 11
47.5644236464
 21
238.1627474982
  0
LINE
  8
0
 62
7
  6
CONTINUOUS
 10
112.4511922219
 20
148.8537723531
 11
113.9175136713
 21
146.1475149621
  0
LINE
  8
0
 62
7
  6
CONTINUOUS
 10
58.7192146089
 20
254.4802765879
 11
60.0467407063
 21
251.7032994328
  0
LINE
  8
0
 62
7
  6
CONTINUOUS
 10
67.1537224442
 20
243.5763521501
 11
67.2368317204
 21
243.3209595648
  0
LINE
  8
0
 62
7
  6
CONTINUOUS
 10
70.5619761904
 20
243.4285352735
 11
70.4788670547
 21
243.6839276662
  0
LINE
  8
0
 62
7
  6
CONTINUOUS
 10
94.1597337113
 20
146.7143024575
 11
94.7180087558
 21
143.6873804838
  0
LINE
  8
0
 62
7
  6
CONTINUOUS
 10
75.6979711341
 20
263.7751718272
 11
76.1023903456
 21
260.7238814836
  0
LINE
  8
0
 62
7
  6
CONTINUOUS
 10
77.7670969089
 20
250.1585932176
 11
77.8127973885
 21
249.8111086399
  0
LINE
  8
0
 62
7
  6
CONTINUOUS
 10
81.5520897489
 20
250.9446435104
 11
81.5936422287
 21
250.5130244755
  0
LINE
  8
0
 62
7
  6
CONTINUOUS
 10
84.7290324109
 20
250.2033034518
 11
84.687479897
 21
250.6349226011
  0
LINE
  8
0
 62
7
  6
CONTINUOUS
 10
128.6742924842
 20
241.0796460066
 11
128.2018440142
 21
240.7072900591
  0
LINE
  8
0
 62
7
  6
CONTINUOUS
 10
128.5026125721
 20
240.4189263577
 11
128.9161564411
 21
240.7298547647
  0
LINE
  8
0
 62
7
  6
CONTINUOUS
 10
67.8070360409
 20
243.1047883899
 11
67.5734849634
 21
243.5664695957
  0
LINE
  8
0
 62
7
  6
CONTINUOUS
 10
69.9086626639
 20
243.9000989374
 11
70.1422122706
 21
243.4384165115
  0
LINE
  8
0
 62
7
  6
CONTINUOUS
 10
67.2368317204
 20
243.3209595648
 11
67.4202344566
 21
242.9280405475
  0
LINE
  8
0
 62
7
  6
CONTINUOUS
 10
70.4788670547
 20
243.6839276662
 11
70.2954627072
 21
244.076845656
  0
LINE
  8
0
 62
7
  6
CONTINUOUS
 10
80.6385851415
 20
250.3619775971
 11
80.5928828843
 21
250.7094614835
  0
LINE
  8
0
 62
7
  6
CONTINUOUS
 10
82.0172721142
 20
250.5503471973
 11
81.951435597
 21
251.0635344872
  0
LINE
  8
0
 62
7
  6
CONTINUOUS
 10
84.2638500115
 20
250.5975998793
 11
84.3296865628
 21
250.084412475
  0
LINE
  8
AXES
 62
2
  6
CONTINUOUS
 10
96.5514223195
 20
206.4078993435
 11
96.5514223195
 21
204.6478993435
  0
LINE
  8
AXES
 62
2
  6
CENTER
 10
96.5514223195
 20
201.1278993435
 11
96.5514223195
 21
140.8628993435
  0
LINE
  8
AXES
 62
2
  6
CENTER
 10
96.5514223195
 20
209.9278993435
 11
96.5514223195
 21
270.1928993435
  0
LINE
  8
0
 62
7
  6
CONTINUOUS
 10
122.6587095378
 20
247.0223121498
 11
120.4231421261
 21
243.705349933
  0
LINE
  8
0
 62
7
  6
CONTINUOUS
 10
120.8377624032
 20
243.4259040065
 11
121.836632963
 21
244.9079509755
  0
LINE
  8
0
 62
7
  6
CONTINUOUS
 10
122.1220245135
 20
245.3313929101
 11
122.8355035228
 21
246.3899979444
  0
LINE
  8
0
 62
7
  6
CONTINUOUS
 10
128.2018440142
 20
240.7072900591
 11
127.7895503573
 21
240.2772603152
  0
LINE
  8
0
 62
7
  6
CONTINUOUS
 10
128.3848143844
 20
240.2960607166
 11
128.5026125721
 21
240.4189263577
  0
LINE
  8
0
 62
7
  6
CONTINUOUS
 10
127.7970735754
 20
239.5626310883
 11
127.973770857
 21
239.7469295499
  0
LINE
  8
AXES
 62
2
  6
CONTINUOUS
 10
97.4314223195
 20
205.5278993435
 11
95.6714223195
 21
205.5278993435
  0
LINE
  8
AXES
 62
2
  6
CENTER
 10
92.1514223195
 20
205.5278993435
 11
31.8864223195
 21
205.5278993435
  0
LINE
  8
AXES
 62
2
  6
CENTER
 10
100.9514223195
 20
205.5278993435
 11
161.2164223195
 21
205.5278993435
  0
LINE
  8
0
 62
7
  6
CONTINUOUS
 10
54.1512675645
 20
227.4716446966
 11
55.6405044416
 21
226.6473802922
  0
LINE
  8
0
 62
7
  6
CONTINUOUS
 10
55.842277504
 20
227.0119330787
 11
54.3530406269
 21
227.836197483
  0
LINE
  8
0
 62
7
  6
CONTINUOUS
 10
55.1601328622
 20
229.2944086028
 11
56.7982934166
 21
228.3877177637
  0
LINE
  8
0
 62
7
  6
CONTINUOUS
 10
55.8898845823
 20
230.5383724568
 11
58.1740368279
 21
229.0552747571
  0
LINE
  8
0
 62
7
  6
CONTINUOUS
 10
58.400943102
 20
229.4047382318
 11
56.7592086192
 21
230.47071474
  0
LINE
  8
0
 62
7
  6
CONTINUOUS
 10
56.4736896134
 20
230.6561019362
 11
56.1167908563
 21
230.8878359315
  0
LINE
  8
0
 62
7
  6
CONTINUOUS
 10
57.8615900556
 20
231.5433958126
 11
59.2178055327
 21
230.6628065007
  0
LINE
  8
0
 62
7
  6
CONTINUOUS
 10
56.5858110263
 20
233.8791482879
 11
56.9318322621
 21
233.631465685
  0
LINE
  8
0
 62
7
  6
CONTINUOUS
 10
57.6238749275
 20
233.1361003403
 11
59.8384110304
 21
231.5509315426
  0
LINE
  8
0
 62
7
  6
CONTINUOUS
 10
60.0809335155
 20
231.8897439138
 11
57.8663974126
 21
233.4749127115
  0
LINE
  8
0
 62
7
  6
CONTINUOUS
 10
57.1743547472
 20
233.9702780561
 11
56.8283335114
 21
234.2179606591
  0
LINE
  8
0
 62
7
  6
CONTINUOUS
 10
61.7576900763
 20
236.7250579495
 11
62.1254811436
 21
236.370824606
  0
LINE
  8
0
 62
7
  6
CONTINUOUS
 10
61.9804322337
 20
239.2873116231
 11
63.1451038466
 21
238.1655727985
  0
LINE
  8
0
 62
7
  6
CONTINUOUS
 10
63.5128949139
 20
237.811339455
 11
64.3710739564
 21
236.984795097
  0
LINE
  8
0
 62
7
  6
CONTINUOUS
 10
64.6644867274
 20
239.6905960615
 11
64.9993797896
 21
239.3051117328
  0
LINE
  8
0
 62
7
  6
CONTINUOUS
 10
65.1138048502
 20
242.2229600493
 11
66.174299456
 21
241.0022597799
  0
LINE
  8
0
 62
7
  6
CONTINUOUS
 10
66.5091925182
 20
240.6167754511
 11
67.2906095591
 21
239.7173121373
  0
LINE
  8
0
 62
7
  6
CONTINUOUS
 10
67.4202344566
 20
242.9280405475
 11
67.8715556588
 21
242.3091707365
  0
LINE
  8
0
 62
7
  6
CONTINUOUS
 10
68.1580636427
 20
242.6234452036
 11
67.8070360409
 21
243.1047883899
  0
LINE
  8
0
 62
7
  6
CONTINUOUS
 10
73.476307351
 20
248.7866192142
 11
73.6637043369
 21
248.4045724408
  0
LINE
  8
0
 62
7
  6
CONTINUOUS
 10
74.9380040247
 20
245.8066540068
 11
75.2378392284
 21
245.1953791158
  0
LINE
  8
0
 62
7
  6
CONTINUOUS
 10
78.6912451151
 20
247.3219541591
 11
78.8454572326
 21
246.9253485099
  0
LINE
  8
0
 62
7
  6
CONTINUOUS
 10
81.5936422287
 20
250.5130244755
 11
81.8121985654
 21
249.7789101804
  0
LINE
  8
0
 62
7
  6
CONTINUOUS
 10
82.1872603761
 20
249.9793694122
 11
82.0172721142
 21
250.5503471973
  0
LINE
  8
0
 62
7
  6
CONTINUOUS
 10
124.2776985692
 20
244.8021965615
 11
124.1350026607
 21
244.5904753965
  0
LINE
  8
0
 62
7
  6
CONTINUOUS
 10
124.5020576794
 20
244.2404558142
 11
124.6923188463
 21
244.522750635
  0
LINE
  8
0
 62
7
  6
CONTINUOUS
 10
127.7895503573
 20
240.2772603152
 11
127.4374114308
 21
239.7895566891
  0
LINE
  8
0
 62
7
  6
CONTINUOUS
 10
129.4775971249
 20
238.3051268831
 11
129.3008998433
 21
238.1208284215
  0
LINE
  8
0
 62
7
  6
CONTINUOUS
 10
129.5427638002
 20
237.7710371796
 11
129.837259352
 21
238.0782013684
  0
LINE
  8
0
 62
7
  6
CONTINUOUS
 10
57.297913929
 20
228.5874177302
 11
55.3619059679
 21
229.6589614675
  0
LINE
  8
0
 62
7
  6
CONTINUOUS
 10
59.4447116769
 20
231.0122697754
 11
58.0884961998
 21
231.8928590874
  0
LINE
  8
0
 62
7
  6
CONTINUOUS
 10
64.7179273989
 20
237.3449238093
 11
63.8597483564
 21
238.1714681672
  0
LINE
  8
0
 62
7
  6
CONTINUOUS
 10
63.4919572891
 20
238.5257015107
 11
61.836897701
 21
240.1197513498
  0
LINE
  8
0
 62
7
  6
CONTINUOUS
 10
64.4378372068
 20
238.7716824587
 11
64.0700461396
 21
239.1259158022
  0
LINE
  8
0
 62
7
  6
CONTINUOUS
 10
68.5262742384
 20
242.2599665652
 11
68.1580636427
 21
242.6234452036
  0
LINE
  8
0
 62
7
  6
CONTINUOUS
 10
67.6680629212
 20
240.0452282233
 11
66.8866458803
 21
240.944691537
  0
LINE
  8
0
 62
7
  6
CONTINUOUS
 10
66.5517528181
 20
241.3301758658
 11
65.0447342336
 21
243.0648551202
  0
LINE
  8
0
 62
7
  6
CONTINUOUS
 10
67.5157352971
 20
241.4912187639
 11
67.1808422349
 21
241.8767030927
  0
LINE
  8
0
 62
7
  6
CONTINUOUS
 10
69.5576350622
 20
244.3814421237
 11
69.9086626639
 21
243.9000989374
  0
LINE
  8
0
 62
7
  6
CONTINUOUS
 10
70.2954627072
 20
244.076845656
 11
69.844141505
 21
244.6957154669
  0
LINE
  8
0
 62
7
  6
CONTINUOUS
 10
78.2305381688
 20
246.663321787
 11
78.0056617595
 21
247.1217779686
  0
LINE
  8
0
 62
7
  6
CONTINUOUS
 10
76.7313620717
 20
249.7196964026
 11
76.4690062914
 21
250.2545618854
  0
LINE
  8
0
 62
7
  6
CONTINUOUS
 10
82.4128323417
 20
249.5137375279
 11
82.1872603761
 21
249.9793694122
  0
LINE
  8
0
 62
7
  6
CONTINUOUS
 10
80.0651863314
 20
250.6869047088
 11
80.1268712562
 21
250.5282622492
  0
LINE
  8
0
 62
7
  6
CONTINUOUS
 10
81.6415252232
 20
248.0125432248
 11
81.4873131056
 21
248.409148874
  0
LINE
  8
0
 62
7
  6
CONTINUOUS
 10
80.5928828843
 20
250.7094614835
 11
80.5311979595
 21
250.8681039432
  0
LINE
  8
0
 62
7
  6
CONTINUOUS
 10
84.0938617496
 20
251.1685776643
 11
84.2638500115
 21
250.5975998793
  0
LINE
  8
0
 62
7
  6
CONTINUOUS
 10
84.687479897
 20
250.6349226011
 11
84.4689235603
 21
251.3690368961
  0
LINE
  8
0
 62
7
  6
CONTINUOUS
 10
55.6405044416
 20
226.6473802922
 11
55.978706463
 21
226.5554379552
  0
LINE
  8
0
 62
7
  6
CONTINUOUS
 10
57.6361158977
 20
228.4954753287
 11
57.297913929
 21
228.5874177302
  0
LINE
  8
0
 62
7
  6
CONTINUOUS
 10
57.4593099658
 20
231.705236993
 11
57.8615900556
 21
231.5433958126
  0
LINE
  8
0
 62
7
  6
CONTINUOUS
 10
58.0884961998
 20
231.8928590874
 11
57.6862163697
 21
232.0547006677
  0
LINE
  8
0
 62
7
  6
CONTINUOUS
 10
67.8715556588
 20
242.3091707365
 11
68.1896209953
 21
242.0144565343
  0
LINE
  8
0
 62
7
  6
CONTINUOUS
 10
69.844141505
 20
244.6957154669
 11
69.5260777798
 21
244.9904306967
  0
LINE
  8
0
 62
7
  6
CONTINUOUS
 10
69.1894229957
 20
244.7449195419
 11
69.5576350622
 21
244.3814421237
  0
LINE
  8
0
 62
7
  6
CONTINUOUS
 10
81.8121985654
 20
249.7789101804
 11
82.0134864936
 21
249.3948465511
  0
LINE
  8
0
 62
7
  6
CONTINUOUS
 10
84.4689235603
 20
251.3690368961
 11
84.2676356661
 21
251.7531004111
  0
LINE
  8
0
 62
7
  6
CONTINUOUS
 10
83.868289818
 20
251.6342094343
 11
84.0938617496
 21
251.1685776643
  0
LINE
  8
0
 62
7
  6
CONTINUOUS
 10
117.0004542933
 20
260.7238814836
 11
117.4048735049
 21
263.7751718272
  0
LINE
  8
0
 62
7
  6
CONTINUOUS
 10
98.3848358831
 20
143.6873804838
 11
98.9431109276
 21
146.7143024575
  0
LINE
  8
0
 62
7
  6
CONTINUOUS
 10
124.351288856
 20
245.0604932712
 11
124.2776985692
 21
244.8021965615
  0
LINE
  8
0
 62
7
  6
CONTINUOUS
 10
124.6923188463
 20
244.522750635
 11
124.7659091331
 21
244.7810473448
  0
LINE
  8
0
 62
7
  6
CONTINUOUS
 10
126.1145404821
 20
239.4955284413
 11
127.5896294369
 21
243.4454521285
  0
LINE
  8
0
 62
7
  6
CONTINUOUS
 10
126.1076255827
 20
240.8136357006
 11
125.725490157
 21
239.8095982497
  0
LINE
  8
0
 62
7
  6
CONTINUOUS
 10
127.1164317735
 20
243.3899435097
 11
126.2566225571
 21
241.1308627699
  0
LINE
  8
0
 62
7
  6
CONTINUOUS
 10
127.4374114308
 20
239.7895566891
 11
127.2632200392
 21
239.3670502308
  0
LINE
  8
0
 62
7
  6
CONTINUOUS
 10
129.837259352
 20
238.0782013684
 11
130.0114507024
 21
238.5007077836
  0
LINE
  8
0
 62
7
  6
CONTINUOUS
 10
133.0561039326
 20
251.7032994328
 11
134.38363003
 21
254.4802765879
  0
LINE
  8
0
 62
7
  6
CONTINUOUS
 10
127.6805311069
 20
239.3206588304
 11
127.7970735754
 21
239.5626310883
  0
LINE
  8
0
 62
7
  6
CONTINUOUS
 10
129.5941396759
 20
238.5470992271
 11
129.4775971249
 21
238.3051268831
  0
LINE
  8
0
 62
7
  6
CONTINUOUS
 10
130.7771390875
 20
239.2993346228
 11
130.893681556
 21
239.5413068807
  0
LINE
  8
0
 62
7
  6
CONTINUOUS
 10
79.1853309676
 20
146.1475149621
 11
80.6516524171
 21
148.8537723531
  0
LINE
  8
0
 62
7
  6
CONTINUOUS
 10
145.5384209926
 20
238.1627474982
 11
147.659106472
 21
240.3935815927
  0
LINE
  8
0
 62
7
  6
CONTINUOUS
 10
61.6857400703
 20
154.420215191
 11
63.9165741648
 21
156.5409006704
  0
LINE
  8
0
 62
7
  6
CONTINUOUS
 10
153.2255493099
 20
221.4276692459
 11
155.9318067009
 21
222.8939906954
  0
LINE
  8
0
 62
7
  6
CONTINUOUS
 10
47.5990450751
 20
167.695691633
 11
50.3760222303
 21
169.0232177304
  0
LINE
  8
0
 62
7
  6
CONTINUOUS
 10
37.7378254334
 20
207.9195879517
 11
34.7109034598
 21
207.3613129072
  0
LINE
  8
0
 62
7
  6
CONTINUOUS
 10
154.7986948032
 20
226.3813505289
 11
151.7474044596
 21
225.9769313174
  0
LINE
  8
0
 62
7
  6
CONTINUOUS
 10
41.3554401794
 20
225.9769313174
 11
38.3041498358
 21
226.3813505289
  0
LINE
  8
0
 62
7
  6
CONTINUOUS
 10
57.170602662
 20
228.1816516482
 11
57.6236211727
 21
228.1214067203
  0
LINE
  8
0
 62
7
  6
CONTINUOUS
 10
158.3919411792
 20
207.3613129072
 11
155.3650192056
 21
207.9195879517
  0
LINE
  8
0
 62
7
  6
CONTINUOUS
 10
56.1060176382
 20
226.9612039944
 11
55.842277504
 21
227.0119330787
  0
LINE
  8
0
 62
7
  6
CONTINUOUS
 10
57.6862163697
 20
232.0547006677
 11
57.4266957827
 21
232.1238482499
  0
LINE
  8
0
 62
7
  6
CONTINUOUS
 10
50.3760222303
 20
242.0325809567
 11
47.5990450751
 21
243.3601070541
  0
LINE
  8
0
 62
7
  6
CONTINUOUS
 10
155.9318067009
 20
188.1618079917
 11
153.2255493099
 21
189.6281294411
  0
LINE
  8
0
 62
7
  6
CONTINUOUS
 10
68.1896209953
 20
242.0144565343
 11
68.4073926611
 21
241.8572690531
  0
LINE
  8
0
 62
7
  6
CONTINUOUS
 10
69.5260777798
 20
244.9904306967
 11
69.3083059735
 21
245.1476183705
  0
LINE
  8
0
 62
7
  6
CONTINUOUS
 10
63.9165741648
 20
254.5148980166
 11
61.6857400703
 21
256.6355834961
  0
LINE
  8
0
 62
7
  6
CONTINUOUS
 10
147.659106472
 20
170.6622170944
 11
145.5384209926
 21
172.8930511889
  0
LINE
  8
0
 62
7
  6
CONTINUOUS
 10
80.5311979595
 20
250.8681039432
 11
80.3301608632
 21
251.1551890065
  0
LINE
  8
0
 62
7
  6
CONTINUOUS
 10
82.0134864936
 20
249.3948465511
 11
82.1662099691
 21
249.1739206346
  0
LINE
  8
0
 62
7
  6
CONTINUOUS
 10
84.2676356661
 20
251.7531004111
 11
84.1149121226
 21
251.9740265562
  0
LINE
  8
0
 62
7
  6
CONTINUOUS
 10
80.6516524171
 20
262.202026334
 11
79.1853309676
 21
264.908283725
  0
LINE
  8
0
 62
7
  6
CONTINUOUS
 10
134.38363003
 20
156.5755220991
 11
133.0561039326
 21
159.3524992543
  0
LINE
  8
0
 62
7
  6
CONTINUOUS
 10
98.9431109276
 20
264.3414962296
 11
98.3848358831
 21
267.3684182032
  0
LINE
  8
0
 62
7
  6
CONTINUOUS
 10
117.4048735049
 20
147.2806268598
 11
117.0004542933
 21
150.3319172034
  0
LINE
  8
0
 62
7
  6
CONTINUOUS
 10
127.6241379029
 20
239.0210180132
 11
127.6805311069
 21
239.3206588304
  0
LINE
  8
0
 62
7
  6
CONTINUOUS
 10
129.0640477488
 20
237.9942037561
 11
128.7670463071
 21
237.925247564
  0
LINE
  8
0
 62
7
  6
CONTINUOUS
 10
56.4101124428
 20
226.983385449
 11
56.1060176382
 21
226.9612039944
  0
LINE
  8
0
 62
7
  6
CONTINUOUS
 10
55.978706463
 20
226.5554379552
 11
56.1679847549
 21
226.5459220818
  0
LINE
  8
0
 62
7
  6
CONTINUOUS
 10
57.8253942784
 20
228.485959585
 11
57.6361158977
 21
228.4954753287
  0
LINE
  8
0
 62
7
  6
CONTINUOUS
 10
69.096478594
 20
242.0437953421
 11
68.5262742384
 21
242.2599665652
  0
LINE
  8
0
 62
7
  6
CONTINUOUS
 10
68.4073926611
 20
241.8572690531
 11
68.7426408862
 21
241.6804195432
  0
LINE
  8
0
 62
7
  6
CONTINUOUS
 10
69.3083059735
 20
245.1476183705
 11
68.9730577836
 21
245.3244678323
  0
LINE
  8
0
 62
7
  6
CONTINUOUS
 10
82.878011068
 20
249.1194400692
 11
82.4128323417
 21
249.5137375279
  0
LINE
  8
0
 62
7
  6
CONTINUOUS
 10
82.1662099691
 20
249.1739206346
 11
82.4230815501
 21
248.8952030774
  0
LINE
  8
0
 62
7
  6
CONTINUOUS
 10
84.1149121226
 20
251.9740265562
 11
83.8580405586
 21
252.2527440563
  0
LINE
  8
0
 62
7
  6
CONTINUOUS
 10
124.7659091331
 20
244.7810473448
 11
124.7488600282
 21
245.2030649311
  0
LINE
  8
0
 62
7
  6
CONTINUOUS
 10
127.2632200392
 20
239.3670502308
 11
127.208082575
 21
238.9483028183
  0
LINE
  8
0
 62
7
  6
CONTINUOUS
 10
130.893681556
 20
239.5413068807
 11
130.9488189995
 21
239.9600542717
  0
LINE
  8
0
 62
7
  6
CONTINUOUS
 10
130.5327636923
 20
239.8873390984
 11
130.4763760367
 21
239.5876930442
  0
LINE
  8
0
 62
7
  6
CONTINUOUS
 10
129.1530087007
 20
240.8564796022
 11
129.4500101011
 21
240.9254357513
  0
LINE
  8
0
 62
7
  6
CONTINUOUS
 10
128.7119088429
 20
237.5065001515
 11
129.1279641708
 21
237.5792153464
  0
LINE
  8
0
 62
7
  6
CONTINUOUS
 10
129.5051475446
 20
241.3441831423
 11
129.0890922373
 21
241.2714679689
  0
LINE
  8
0
 62
7
  6
CONTINUOUS
 10
68.6192200757
 20
244.9610920334
 11
69.1894229957
 21
244.7449195419
  0
LINE
  8
0
 62
7
  6
CONTINUOUS
 10
79.8173242348
 20
250.8644692419
 11
80.0651863314
 21
250.6869047088
  0
LINE
  8
0
 62
7
  6
CONTINUOUS
 10
83.4031110408
 20
252.0285070645
 11
83.868289818
 21
251.6342094343
  0
LINE
  8
0
 62
7
  6
CONTINUOUS
 10
129.5916337448
 20
238.7853071807
 11
129.5941396759
 21
238.5470992271
  0
LINE
  8
0
 62
7
  6
CONTINUOUS
 10
130.0114507024
 20
238.5007077836
 11
130.0076890521
 21
238.8580223541
  0
LINE
  8
DEFAULT_3
 62
2
  6
PHANTOM
 10
137.3203982424
 20
201.3955946611
 11
136.2597380706
 21
200.3349344893
  0
LINE
  8
DEFAULT_3
 62
2
  6
PHANTOM
 10
100.6837270019
 20
164.7589234207
 11
101.7443871737
 21
165.8195835924
  0
LINE
  8
DEFAULT_3
 62
2
  6
PHANTOM
 10
105.869083933
 20
167.681538652
 11
134.3977830111
 21
196.21023773
  0
LINE
  8
0
 62
7
  6
CONTINUOUS
 10
56.1679847549
 20
226.5459220818
 11
56.51243413
 21
226.6410140794
  0
LINE
  8
0
 62
7
  6
CONTINUOUS
 10
123.9232013971
 20
244.4253301716
 11
123.6898662301
 21
244.3773300808
  0
LINE
  8
0
 62
7
  6
CONTINUOUS
 10
57.2257880572
 20
231.6581453612
 11
57.4593099658
 21
231.705236993
  0
LINE
  8
0
 62
7
  6
CONTINUOUS
 10
57.4266957827
 20
232.1238482499
 11
57.1931738741
 21
232.0767566181
  0
LINE
  8
0
 62
7
  6
CONTINUOUS
 10
128.210623034
 20
239.8735543013
 11
128.4487253406
 21
239.8810776299
  0
LINE
  8
0
 62
7
  6
CONTINUOUS
 10
68.7426408862
 20
241.6804195432
 11
69.0950735585
 21
241.6214358254
  0
LINE
  8
0
 62
7
  6
CONTINUOUS
 10
68.9730577836
 20
245.3244678323
 11
68.6206251288
 21
245.383451526
  0
LINE
  8
0
 62
7
  6
CONTINUOUS
 10
80.3301608632
 20
251.1551890065
 11
79.8961179528
 21
251.3516744526
  0
LINE
  8
0
 62
7
  6
CONTINUOUS
 10
82.4230815501
 20
248.8952030774
 11
82.7355404485
 21
248.7218326522
  0
LINE
  8
0
 62
7
  6
CONTINUOUS
 10
83.8580405586
 20
252.2527440563
 11
83.5455816688
 21
252.4261144529
  0
LINE
  8
DEFAULT_3
 62
2
  6
PHANTOM
 10
136.2597380706
 20
210.7208641978
 11
137.3203982424
 21
209.660204026
  0
LINE
  8
DEFAULT_3
 62
2
  6
PHANTOM
 10
101.7443871737
 20
245.2362150946
 11
100.6837270019
 21
246.2968752664
  0
LINE
  8
DEFAULT_3
 62
2
  6
PHANTOM
 10
105.869083933
 20
243.3742600351
 11
134.3977830111
 21
214.8455609571
  0
LINE
  8
0
 62
7
  6
CONTINUOUS
 10
124.3082147227
 20
245.2947878036
 11
124.351288856
 21
245.0604932712
  0
LINE
  8
0
 62
7
  6
CONTINUOUS
 10
69.0950735585
 20
241.6214358254
 11
69.5821672155
 21
241.6606559012
  0
LINE
  8
0
 62
7
  6
CONTINUOUS
 10
68.6206251288
 20
245.383451526
 11
68.1335299439
 21
245.3442303082
  0
LINE
  8
0
 62
7
  6
CONTINUOUS
 10
123.473580168
 20
243.9073124038
 11
123.8926852436
 21
243.9327389295
  0
LINE
  8
0
 62
7
  6
CONTINUOUS
 10
69.3987644485
 20
242.0535749607
 11
69.096478594
 21
242.0437953421
  0
LINE
  8
0
 62
7
  6
CONTINUOUS
 10
68.3169342212
 20
244.9513124147
 11
68.6192200757
 21
244.9610920334
  0
LINE
  8
0
 62
7
  6
CONTINUOUS
 10
128.7670463071
 20
237.925247564
 11
128.4687891875
 21
237.9753980317
  0
LINE
  8
0
 62
7
  6
CONTINUOUS
 10
128.4487253406
 20
239.8810776299
 11
128.7469824602
 21
239.8309271622
  0
LINE
  8
0
 62
7
  6
CONTINUOUS
 10
128.9813286236
 20
240.1957597811
 11
128.3848143844
 21
240.2960607166
  0
LINE
  8
0
 62
7
  6
CONTINUOUS
 10
129.4500101011
 20
240.9254357513
 11
129.7482672206
 21
240.8752852835
  0
LINE
  8
0
 62
7
  6
CONTINUOUS
 10
128.2344484952
 20
237.6105600951
 11
128.7119088429
 21
237.5065001515
  0
LINE
  8
0
 62
7
  6
CONTINUOUS
 10
129.9826133841
 20
241.2401179025
 11
129.5051475446
 21
241.3441831423
  0
LINE
  8
0
 62
7
  6
CONTINUOUS
 10
79.5226335824
 20
250.9325118621
 11
79.8173242348
 21
250.8644692419
  0
LINE
  8
0
 62
7
  6
CONTINUOUS
 10
82.7355404485
 20
248.7218326522
 11
83.2077384152
 21
248.5960188426
  0
LINE
  8
0
 62
7
  6
CONTINUOUS
 10
83.5455816688
 20
252.4261144529
 11
83.0733837084
 21
252.5519282411
  0
LINE
  8
0
 62
7
  6
CONTINUOUS
 10
83.1661859204
 20
249.0276379275
 11
82.878011068
 21
249.1194400692
  0
LINE
  8
0
 62
7
  6
CONTINUOUS
 10
83.1149361883
 20
252.1203092061
 11
83.4031110408
 21
252.0285070645
  0
LINE
  8
0
 62
7
  6
CONTINUOUS
 10
124.7488600282
 20
245.2030649311
 11
124.6151465031
 21
245.60108034
  0
LINE
  8
0
 62
7
  6
CONTINUOUS
 10
127.208082575
 20
238.9483028183
 11
127.3321538359
 21
238.4756406391
  0
LINE
  8
0
 62
7
  6
CONTINUOUS
 10
130.0076890521
 20
238.8580223541
 11
129.8836232829
 21
239.3306792371
  0
LINE
  8
0
 62
7
  6
CONTINUOUS
 10
130.9488189995
 20
239.9600542717
 11
130.8247532304
 21
240.4327111547
  0
LINE
  8
0
 62
7
  6
CONTINUOUS
 10
127.6867986471
 20
238.7251362633
 11
127.6241379029
 21
239.0210180132
  0
LINE
  8
0
 62
7
  6
CONTINUOUS
 10
129.5289730006
 20
239.0811889306
 11
129.5916337448
 21
238.7853071807
  0
LINE
  8
0
 62
7
  6
CONTINUOUS
 10
130.4701029481
 20
240.1832208483
 11
130.5327636923
 21
239.8873390984
  0
LINE
  8
0
 62
7
  6
CONTINUOUS
 10
79.1034469547
 20
250.8608331581
 11
79.5226335824
 21
250.9325118621
  0
LINE
  8
0
 62
7
  6
CONTINUOUS
 10
83.2077384152
 20
248.5960188426
 11
83.71123601
 21
248.6571193172
  0
LINE
  8
0
 62
7
  6
CONTINUOUS
 10
83.5898158059
 20
249.0649606493
 11
83.1661859204
 21
249.0276379275
  0
LINE
  8
0
 62
7
  6
CONTINUOUS
 10
82.6913063028
 20
252.0829864843
 11
83.1149361883
 21
252.1203092061
  0
LINE
  8
0
 62
7
  6
CONTINUOUS
 10
79.8961179528
 20
251.3516744526
 11
79.5237563255
 21
251.3895162789
  0
LINE
  8
0
 62
7
  6
CONTINUOUS
 10
123.6898662301
 20
244.3773300808
 11
123.4349908331
 21
244.4464793883
  0
LINE
  8
0
 62
7
  6
CONTINUOUS
 10
123.0804937943
 20
244.0696131961
 11
123.473580168
 21
243.9073124038
  0
LINE
  8
0
 62
7
  6
CONTINUOUS
 10
128.4687891875
 20
237.9753980317
 11
128.2294311618
 21
238.08698132
  0
LINE
  8
0
 62
7
  6
CONTINUOUS
 10
128.7469824602
 20
239.8309271622
 11
128.9863404859
 21
239.7193438739
  0
LINE
  8
0
 62
7
  6
CONTINUOUS
 10
129.7482672206
 20
240.8752852835
 11
129.9876252464
 21
240.7637019953
  0
LINE
  8
0
 62
7
  6
CONTINUOUS
 10
127.8747808383
 20
237.8374909705
 11
128.2344484952
 21
237.6105600951
  0
LINE
  8
0
 62
7
  6
CONTINUOUS
 10
129.3409907681
 20
239.9688341803
 11
128.9813286236
 21
240.1957597811
  0
LINE
  8
0
 62
7
  6
CONTINUOUS
 10
130.3422755286
 20
241.0131923017
 11
129.9826133841
 21
241.2401179025
  0
LINE
  8
0
 62
7
  6
CONTINUOUS
 10
120.4231421261
 20
243.705349933
 11
120.8377624032
 21
243.4259040065
  0
LINE
  8
0
 62
7
  6
CONTINUOUS
 10
121.836632963
 20
244.9079509755
 11
123.0804937943
 21
244.0696131961
  0
LINE
  8
0
 62
7
  6
CONTINUOUS
 10
123.4349908331
 20
244.4464793883
 11
122.1220245135
 21
245.3313929101
  0
LINE
  8
0
 62
7
  6
CONTINUOUS
 10
123.5208696694
 20
241.5893287614
 11
123.9099199944
 21
241.275258953
  0
LINE
  8
0
 62
7
  6
CONTINUOUS
 10
125.725490157
 20
239.8095982497
 11
126.1145404821
 21
239.4955284413
  0
LINE
  8
0
 62
7
  6
CONTINUOUS
 10
124.8107931446
 20
241.8605334645
 11
126.1076255827
 21
240.8136357006
  0
LINE
  8
0
 62
7
  6
CONTINUOUS
 10
126.2566225571
 20
241.1308627699
 11
125.0894715819
 21
242.0730721951
  0
LINE
  8
0
 62
7
  6
CONTINUOUS
 10
127.5740177876
 20
238.1258493919
 11
127.8747808383
 21
237.8374909705
  0
LINE
  8
0
 62
7
  6
CONTINUOUS
 10
128.2294311618
 20
238.08698132
 11
127.8083584851
 21
238.4906873339
  0
LINE
  8
0
 62
7
  6
CONTINUOUS
 10
128.9863404859
 20
239.7193438739
 11
129.4074131626
 21
239.31563786
  0
LINE
  8
0
 62
7
  6
CONTINUOUS
 10
129.6417538189
 20
239.680475759
 11
129.3409907681
 21
239.9688341803
  0
LINE
  8
0
 62
7
  6
CONTINUOUS
 10
124.1484698425
 20
245.5050844226
 11
124.3082147227
 21
245.2947878036
  0
LINE
  8
0
 62
7
  6
CONTINUOUS
 10
127.3321538359
 20
238.4756406391
 11
127.5740177876
 21
238.1258493919
  0
LINE
  8
0
 62
7
  6
CONTINUOUS
 10
129.8836232829
 20
239.3306792371
 11
129.6417538189
 21
239.680475759
  0
LINE
  8
0
 62
7
  6
CONTINUOUS
 10
130.8247532304
 20
240.4327111547
 11
130.5828892735
 21
240.7825023966
  0
LINE
  8
0
 62
7
  6
CONTINUOUS
 10
127.8083584851
 20
238.4906873339
 11
127.6867986471
 21
238.7251362633
  0
LINE
  8
0
 62
7
  6
CONTINUOUS
 10
129.4074131626
 20
239.31563786
 11
129.5289730006
 21
239.0811889306
  0
LINE
  8
0
 62
7
  6
CONTINUOUS
 10
130.3485431101
 20
240.4176697776
 11
130.4701029481
 21
240.1832208483
  0
LINE
  8
0
 62
7
  6
CONTINUOUS
 10
149.6508069593
 20
196.9048270449
 11
149.7166139765
 21
197.3203161994
  0
LINE
  8
0
 62
7
  6
CONTINUOUS
 10
144.3872622085
 20
180.9182579989
 11
144.5782416107
 21
181.29307618
  0
LINE
  8
0
 62
7
  6
CONTINUOUS
 10
134.4412121574
 20
167.3406521131
 11
134.7386695501
 21
167.6381095058
  0
LINE
  8
0
 62
7
  6
CONTINUOUS
 10
120.7862454833
 20
157.5010800525
 11
121.1610636644
 21
157.6920594547
  0
LINE
  8
0
 62
7
  6
CONTINUOUS
 10
79.5237563255
 20
251.3895162789
 11
79.0269022783
 21
251.2876381633
  0
LINE
  8
0
 62
7
  6
CONTINUOUS
 10
88.343839175
 20
258.6930910006
 11
87.9283500205
 21
258.6272839834
  0
LINE
  8
0
 62
7
  6
CONTINUOUS
 10
83.0733837084
 20
252.5519282411
 11
82.5698861158
 21
252.4908277593
  0
LINE
  8
0
 62
7
  6
CONTINUOUS
 10
105.1744946181
 20
258.6272839834
 11
104.7590054637
 21
258.6930910006
  0
LINE
  8
0
 62
7
  6
CONTINUOUS
 10
121.1610636641
 20
253.3637392326
 11
120.7862454833
 21
253.5547186346
  0
LINE
  8
0
 62
7
  6
CONTINUOUS
 10
122.8355035228
 20
246.3899979444
 11
124.1484698425
 21
245.5050844226
  0
LINE
  8
0
 62
7
  6
CONTINUOUS
 10
124.3171906462
 20
245.9045284439
 11
122.6587095378
 21
247.0223121498
  0
LINE
  8
0
 62
7
  6
CONTINUOUS
 10
127.5896294369
 20
243.4454521285
 11
127.0708976489
 21
243.8642102756
  0
LINE
  8
0
 62
7
  6
CONTINUOUS
 10
130.4763760367
 20
239.5876930442
 11
130.7771390875
 21
239.2993346228
  0
LINE
  8
0
 62
7
  6
CONTINUOUS
 10
129.9876252464
 20
240.7637019953
 11
130.3485431101
 21
240.4176697776
  0
LINE
  8
0
 62
7
  6
CONTINUOUS
 10
130.5828892735
 20
240.7825023966
 11
130.3422755286
 21
241.0131923017
  0
LINE
  8
0
 62
7
  6
CONTINUOUS
 10
134.4412121574
 20
243.715146574
 11
134.7386695499
 21
243.4176891815
  0
LINE
  8
0
 62
7
  6
CONTINUOUS
 10
124.6151465031
 20
245.60108034
 11
124.3171906462
 21
245.9045284439
  0
LINE
  8
0
 62
7
  6
CONTINUOUS
 10
144.5782416106
 20
229.7627225074
 11
144.3872622083
 21
230.1375406885
  0
LINE
  8
0
 62
7
  6
CONTINUOUS
 10
149.7166139765
 20
213.735482488
 11
149.6508069593
 21
214.1509716425
  0
LINE
  8
0
 62
7
  6
CONTINUOUS
 10
159.2104687687
 20
204.6641151872
 11
159.2104687687
 21
206.3916834999
  0
LINE
  8
0
 62
7
  6
CONTINUOUS
 10
156.4106407337
 20
186.9866966899
 11
155.8767927661
 21
185.3436815888
  0
LINE
  8
0
 62
7
  6
CONTINUOUS
 10
146.73593616
 20
167.999019856
 11
147.7513753365
 21
169.3966519799
  0
LINE
  8
0
 62
7
  6
CONTINUOUS
 10
132.6826696831
 20
154.3279463265
 11
134.080301807
 21
155.343385503
  0
LINE
  8
0
 62
7
  6
CONTINUOUS
 10
115.0926249731
 20
145.6686809294
 11
116.7356400742
 21
146.2025288969
  0
LINE
  8
0
 62
7
  6
CONTINUOUS
 10
97.4152064758
 20
268.1869457928
 11
95.6876381631
 21
268.1869457928
  0
LINE
  8
0
 62
7
  6
CONTINUOUS
 10
116.7356400742
 20
264.8532697902
 11
115.0926249731
 21
265.3871177577
  0
LINE
  8
0
 62
7
  6
CONTINUOUS
 10
134.080301807
 20
255.7124131841
 11
132.6826696831
 21
256.7278523606
  0
LINE
  8
0
 62
7
  6
CONTINUOUS
 10
147.7513753365
 20
241.6591467072
 11
146.73593616
 21
243.0567788311
  0
LINE
  8
0
 62
7
  6
CONTINUOUS
 10
156.4106407337
 20
224.0691019971
 11
155.8767927661
 21
225.7121170982
  0
LINE
  8
0
 62
7
  6
CONTINUOUS
 10
36.6554936427
 20
74.3095837688
 11
36.6474297449
 21
74.4363238512
  0
LINE
  8
0
 62
9
  6
CONTINUOUS
 10
33.8923758702
 20
74.4363238512
 11
33.8923758702
 21
88.2363238512
  0
LINE
  8
0
 62
9
  6
CONTINUOUS
 10
34.7109034598
 20
74.4363238512
 11
34.7109034598
 21
88.2363238512
  0
LINE
  8
0
 62
7
  6
CONTINUOUS
 10
36.6474296041
 20
88.2363238512
 11
36.6474296041
 21
74.4363238512
  0
LINE
  8
0
 62
9
  6
CONTINUOUS
 10
36.6922039053
 20
74.4363238512
 11
36.6922039053
 21
88.2363238512
  0
LINE
  8
0
 62
9
  6
CONTINUOUS
 10
37.2260518728
 20
74.4363238512
 11
37.2260518728
 21
88.2363238512
  0
LINE
  8
0
 62
9
  6
CONTINUOUS
 10
36.8754740261
 20
73.8473326652
 11
36.6922039053
 21
74.4363238512
  0
LINE
  8
0
 62
9
  6
CONTINUOUS
 10
38.3041498358
 20
74.4363238512
 11
38.3041498358
 21
88.2363238512
  0
LINE
  8
0
 62
9
  6
CONTINUOUS
 10
41.3554401794
 20
74.4363238512
 11
41.3554401794
 21
88.2363238512
  0
POLYLINE
  8
0
 62
9
  6
CONTINUOUS
 66
1
 70
0
  0
VERTEX
  8
0
 62
9
  6
CONTINUOUS
 10
34.8922808642
 20
89.2363238512
  0
VERTEX
  8
0
 62
9
  6
CONTINUOUS
 10
34.7856699008
 20
89.0453408456
  0
VERTEX
  8
0
 62
9
  6
CONTINUOUS
 10
34.7455434616
 20
88.8241091035
  0
VERTEX
  8
0
 62
9
  6
CONTINUOUS
 10
34.7109034598
 20
88.2363238512
  0
SEQEND
  0
POLYLINE
  8
0
 62
9
  6
CONTINUOUS
 66
1
 70
0
  0
VERTEX
  8
0
 62
9
  6
CONTINUOUS
 10
34.8922808642
 20
73.4363238512
  0
VERTEX
  8
0
 62
9
  6
CONTINUOUS
 10
34.785959283
 20
73.6261500803
  0
VERTEX
  8
0
 62
9
  6
CONTINUOUS
 10
34.7457026306
 20
73.8473326375
  0
VERTEX
  8
0
 62
9
  6
CONTINUOUS
 10
34.7109034598
 20
74.4363238512
  0
SEQEND
  0
LINE
  8
0
 62
7
  6
CONTINUOUS
 10
37.0048192513
 20
73.6701307068
 11
36.6554936427
 21
74.3095837688
  0
LINE
  8
AXES
 62
7
  6
CONTINUOUS
 10
43.9264223195
 20
92.8363238512
 11
43.9264223195
 21
90.0363238512
  0
LINE
  8
AXES
 62
7
  6
CONTINUOUS
 10
43.9264223195
 20
72.6363238512
 11
43.9264223195
 21
69.8363238512
  0
LINE
  8
0
 62
7
  6
CONTINUOUS
 10
45.1685115592
 20
88.2363238512
 11
45.1685115592
 21
74.4363238512
  0
LINE
  8
0
 62
9
  6
CONTINUOUS
 10
45.3514693024
 20
74.4363238512
 11
45.3514693024
 21
88.2363238512
  0
LINE
  8
0
 62
7
  6
CONTINUOUS
 10
45.3087885429
 20
88.7470843973
 11
45.1685208868
 21
88.2363238512
  0
POLYLINE
  8
0
 62
9
  6
CONTINUOUS
 66
1
 70
0
  0
VERTEX
  8
0
 62
9
  6
CONTINUOUS
 10
38.1727584945
 20
73.4363238512
  0
VERTEX
  8
0
 62
9
  6
CONTINUOUS
 10
38.2497787562
 20
73.6261500803
  0
VERTEX
  8
0
 62
9
  6
CONTINUOUS
 10
38.2789410191
 20
73.8473326375
  0
VERTEX
  8
0
 62
9
  6
CONTINUOUS
 10
38.3041498358
 20
74.4363238512
  0
SEQEND
  0
POLYLINE
  8
0
 62
9
  6
CONTINUOUS
 66
1
 70
0
  0
VERTEX
  8
0
 62
9
  6
CONTINUOUS
 10
38.1727584945
 20
89.2363238512
  0
VERTEX
  8
0
 62
9
  6
CONTINUOUS
 10
38.2499883872
 20
89.0453408456
  0
VERTEX
  8
0
 62
9
  6
CONTINUOUS
 10
38.2790563225
 20
88.8241091035
  0
VERTEX
  8
0
 62
9
  6
CONTINUOUS
 10
38.3041498358
 20
88.2363238512
  0
SEQEND
  0
LINE
  8
0
 62
7
  6
CONTINUOUS
 10
45.2790878551
 20
73.9792401886
 11
45.1685160283
 21
74.4363238512
  0
LINE
  8
0
 62
9
  6
CONTINUOUS
 10
46.3669084789
 20
74.4363238512
 11
46.3669084789
 21
88.2363238512
  0
LINE
  8
0
 62
9
  6
CONTINUOUS
 10
47.5990450751
 20
74.4363238512
 11
47.5990450751
 21
88.2363238512
  0
POLYLINE
  8
0
 62
9
  6
CONTINUOUS
 66
1
 70
0
  0
VERTEX
  8
0
 62
9
  6
CONTINUOUS
 10
41.2240488381
 20
73.4363238512
  0
VERTEX
  8
0
 62
9
  6
CONTINUOUS
 10
41.3169565442
 20
73.7292170695
  0
VERTEX
  8
0
 62
9
  6
CONTINUOUS
 10
41.3554401794
 20
74.4363238512
  0
SEQEND
  0
LINE
  8
0
 62
9
  6
CONTINUOUS
 10
37.0874860422
 20
73.6261500934
 11
36.8754740261
 21
73.8473326652
  0
POLYLINE
  8
0
 62
9
  6
CONTINUOUS
 66
1
 70
0
  0
VERTEX
  8
0
 62
9
  6
CONTINUOUS
 10
41.2240488381
 20
89.2363238512
  0
VERTEX
  8
0
 62
9
  6
CONTINUOUS
 10
41.3169574966
 20
88.9434233761
  0
VERTEX
  8
0
 62
9
  6
CONTINUOUS
 10
41.3554401734
 20
88.2363238512
  0
SEQEND
  0
LINE
  8
0
 62
9
  6
CONTINUOUS
 10
50.3760222303
 20
74.4363238512
 11
50.3760222303
 21
88.2363238512
  0
LINE
  8
0
 62
7
  6
CONTINUOUS
 10
54.1512675645
 20
68.8363238512
 11
54.1512675645
 21
68.6363238512
  0
LINE
  8
0
 62
7
  6
CONTINUOUS
 10
54.3530406269
 20
68.8363238512
 11
54.3530406269
 21
68.6363238512
  0
LINE
  8
0
 62
7
  6
CONTINUOUS
 10
55.1601328622
 20
68.8363238512
 11
55.1601328622
 21
68.6363238512
  0
LINE
  8
0
 62
7
  6
CONTINUOUS
 10
55.3619059679
 20
68.8363238512
 11
55.3619059679
 21
68.6363238512
  0
LINE
  8
0
 62
7
  6
CONTINUOUS
 10
55.8898845823
 20
68.8363238512
 11
55.8898845823
 21
68.6363238512
  0
LINE
  8
0
 62
7
  6
CONTINUOUS
 10
56.1167908563
 20
68.8363238512
 11
56.1167908563
 21
68.6363238512
  0
LINE
  8
0
 62
7
  6
CONTINUOUS
 10
56.4150767519
 20
68.8363238512
 11
56.4150767519
 21
68.6363238512
  0
LINE
  8
0
 62
7
  6
CONTINUOUS
 10
56.5252220717
 20
68.8363238512
 11
56.5252220717
 21
68.6363238512
  0
LINE
  8
0
 62
7
  6
CONTINUOUS
 10
56.5858110263
 20
68.8363238512
 11
56.5858110263
 21
68.6363238512
  0
LINE
  8
0
 62
7
  6
CONTINUOUS
 10
56.8283335114
 20
68.8363238512
 11
56.8283335114
 21
68.6363238512
  0
LINE
  8
0
 62
7
  6
CONTINUOUS
 10
57.1743547472
 20
68.8363238512
 11
57.1743547472
 21
68.6363238512
  0
LINE
  8
0
 62
7
  6
CONTINUOUS
 10
57.1931738741
 20
68.8363238512
 11
57.1931738741
 21
68.6363238512
  0
LINE
  8
0
 62
7
  6
CONTINUOUS
 10
57.4266957827
 20
68.8363238512
 11
57.4266957827
 21
68.6363238512
  0
LINE
  8
0
 62
7
  6
CONTINUOUS
 10
57.6238749275
 20
68.8363238512
 11
57.6238749275
 21
68.6363238512
  0
LINE
  8
0
 62
7
  6
CONTINUOUS
 10
57.8663974126
 20
68.8363238512
 11
57.8663974126
 21
68.6363238512
  0
LINE
  8
0
 62
9
  6
CONTINUOUS
 10
58.364175089
 20
74.3224733108
 11
58.364175089
 21
88.3501743916
  0
LINE
  8
0
 62
7
  6
CONTINUOUS
 10
58.6214238578
 20
88.2363238512
 11
58.6214238578
 21
74.4363238512
  0
LINE
  8
0
 62
9
  6
CONTINUOUS
 10
59.0225428319
 20
74.4363238512
 11
59.0225428319
 21
88.2363238512
  0
LINE
  8
0
 62
7
  6
CONTINUOUS
 10
60.0809335155
 20
68.8363238512
 11
60.0809335155
 21
68.6363238512
  0
LINE
  8
0
 62
9
  6
CONTINUOUS
 10
60.4201749558
 20
74.4363238512
 11
60.4201749558
 21
88.2363238512
  0
LINE
  8
0
 62
7
  6
CONTINUOUS
 10
61.4900442584
 20
68.8363238512
 11
61.4900442584
 21
68.6363238512
  0
LINE
  8
0
 62
9
  6
CONTINUOUS
 10
61.6857400703
 20
74.4363238512
 11
61.6857400703
 21
88.2363238512
  0
LINE
  8
0
 62
7
  6
CONTINUOUS
 10
61.836897701
 20
68.8363238512
 11
61.836897701
 21
68.6363238512
  0
POLYLINE
  8
0
 62
7
  6
CONTINUOUS
 66
1
 70
0
  0
VERTEX
  8
0
 62
7
  6
CONTINUOUS
 10
59.0185277063
 20
89.0341435241
  0
VERTEX
  8
0
 62
7
  6
CONTINUOUS
 10
58.6495293859
 20
88.4717407906
  0
VERTEX
  8
0
 62
7
  6
CONTINUOUS
 10
58.6214245657
 20
88.2363238512
  0
SEQEND
  0
POLYLINE
  8
0
 62
9
  6
CONTINUOUS
 66
1
 70
0
  0
VERTEX
  8
0
 62
9
  6
CONTINUOUS
 10
56.6295300706
 20
89.2363238512
  0
VERTEX
  8
0
 62
9
  6
CONTINUOUS
 10
56.3436450843
 20
88.9434290558
  0
VERTEX
  8
0
 62
9
  6
CONTINUOUS
 10
56.2252278546
 20
88.2363238512
  0
SEQEND
  0
LINE
  8
0
 62
9
  6
CONTINUOUS
 10
49.2935784511
 20
89.2869240914
 11
49.2217749408
 21
89.2363238512
  0
LINE
  8
0
 62
9
  6
CONTINUOUS
 10
49.1049066354
 20
89.2869240914
 11
49.032816016
 21
89.2363238512
  0
LINE
  8
0
 62
9
  6
CONTINUOUS
 10
44.0936326237
 20
89.2869240914
 11
44.0139283199
 21
89.2363238512
  0
LINE
  8
0
 62
9
  6
CONTINUOUS
 10
44.0286207466
 20
89.2869240914
 11
43.9488171774
 21
89.2363238512
  0
LINE
  8
0
 62
9
  6
CONTINUOUS
 10
44.0286207466
 20
73.385723611
 11
43.9488174456
 21
73.4363238512
  0
LINE
  8
0
 62
9
  6
CONTINUOUS
 10
44.0936326237
 20
73.385723611
 11
44.013927834
 21
73.4363238512
  0
LINE
  8
0
 62
9
  6
CONTINUOUS
 10
49.1049066354
 20
73.385723611
 11
49.03281627
 21
73.4363238512
  0
LINE
  8
0
 62
9
  6
CONTINUOUS
 10
49.2935784511
 20
73.385723611
 11
49.2217745011
 21
73.4363238512
  0
POLYLINE
  8
0
 62
9
  6
CONTINUOUS
 66
1
 70
0
  0
VERTEX
  8
0
 62
9
  6
CONTINUOUS
 10
56.6295300706
 20
73.4363238512
  0
VERTEX
  8
0
 62
9
  6
CONTINUOUS
 10
56.3436453623
 20
73.729216747
  0
VERTEX
  8
0
 62
9
  6
CONTINUOUS
 10
56.2252278542
 20
74.4363238512
  0
SEQEND
  0
LINE
  8
0
 62
7
  6
CONTINUOUS
 10
63.4919572891
 20
68.8363238512
 11
63.4919572891
 21
68.6363238512
  0
LINE
  8
0
 62
9
  6
CONTINUOUS
 10
63.9165741648
 20
74.4363238512
 11
63.9165741648
 21
88.2363238512
  0
LINE
  8
0
 62
7
  6
CONTINUOUS
 10
64.0700461396
 20
68.8363238512
 11
64.0700461396
 21
68.6363238512
  0
LINE
  8
0
 62
7
  6
CONTINUOUS
 10
64.4378372068
 20
68.8363238512
 11
64.4378372068
 21
68.6363238512
  0
LINE
  8
0
 62
7
  6
CONTINUOUS
 10
64.6672808715
 20
68.8363238512
 11
64.6672808715
 21
68.6363238512
  0
LINE
  8
0
 62
7
  6
CONTINUOUS
 10
65.0447342336
 20
68.8363238512
 11
65.0447342336
 21
68.6363238512
  0
LINE
  8
0
 62
7
  6
CONTINUOUS
 10
66.5517528181
 20
68.8363238512
 11
66.5517528181
 21
68.6363238512
  0
LINE
  8
0
 62
7
  6
CONTINUOUS
 10
67.0877962322
 20
68.8363238512
 11
67.0877962322
 21
68.6363238512
  0
LINE
  8
0
 62
7
  6
CONTINUOUS
 10
67.1393480855
 20
68.8363238512
 11
67.1393480855
 21
68.6363238512
  0
POLYLINE
  8
0
 62
9
  6
CONTINUOUS
 66
1
 70
0
  0
VERTEX
  8
0
 62
9
  6
CONTINUOUS
 10
59.119451301
 20
89.2869240914
  0
VERTEX
  8
0
 62
9
  6
CONTINUOUS
 10
58.8797231971
 20
89.073640188
  0
VERTEX
  8
0
 62
9
  6
CONTINUOUS
 10
58.718445441
 20
88.7436420625
  0
VERTEX
  8
0
 62
9
  6
CONTINUOUS
 10
58.6875534752
 20
88.5296945822
  0
SEQEND
  0
POLYLINE
  8
0
 62
9
  6
CONTINUOUS
 66
1
 70
0
  0
VERTEX
  8
0
 62
9
  6
CONTINUOUS
 10
58.8255880586
 20
89.2869240914
  0
VERTEX
  8
0
 62
9
  6
CONTINUOUS
 10
58.5839816396
 20
89.0736452552
  0
VERTEX
  8
0
 62
9
  6
CONTINUOUS
 10
58.4214362009
 20
88.7436493492
  0
VERTEX
  8
0
 62
9
  6
CONTINUOUS
 10
58.364175089
 20
88.3501743916
  0
SEQEND
  0
POLYLINE
  8
0
 62
9
  6
CONTINUOUS
 66
1
 70
0
  0
VERTEX
  8
0
 62
9
  6
CONTINUOUS
 10
58.8255880586
 20
73.385723611
  0
VERTEX
  8
0
 62
9
  6
CONTINUOUS
 10
58.5839802305
 20
73.5990044905
  0
VERTEX
  8
0
 62
9
  6
CONTINUOUS
 10
58.4214354191
 20
73.9290012919
  0
VERTEX
  8
0
 62
9
  6
CONTINUOUS
 10
58.3641750888
 20
74.3224733108
  0
SEQEND
  0
POLYLINE
  8
0
 62
9
  6
CONTINUOUS
 66
1
 70
0
  0
VERTEX
  8
0
 62
9
  6
CONTINUOUS
 10
59.119451301
 20
73.385723611
  0
VERTEX
  8
0
 62
9
  6
CONTINUOUS
 10
58.8797268611
 20
73.5990024473
  0
VERTEX
  8
0
 62
9
  6
CONTINUOUS
 10
58.7184475613
 20
73.9289983531
  0
VERTEX
  8
0
 62
9
  6
CONTINUOUS
 10
58.6670581124
 20
74.2848979015
  0
SEQEND
  0
LINE
  8
0
 62
7
  6
CONTINUOUS
 10
67.3255609278
 20
68.8363238512
 11
67.3255609278
 21
68.6363238512
  0
LINE
  8
0
 62
7
  6
CONTINUOUS
 10
67.6793986356
 20
68.8363238512
 11
67.6793986356
 21
68.6363238512
  0
LINE
  8
0
 62
7
  6
CONTINUOUS
 10
68.1335299439
 20
68.8363238512
 11
68.1335299439
 21
68.6363238512
  0
LINE
  8
0
 62
7
  6
CONTINUOUS
 10
68.6206251288
 20
68.8363238512
 11
68.6206251288
 21
68.6363238512
  0
LINE
  8
0
 62
7
  6
CONTINUOUS
 10
68.9730577836
 20
68.8363238512
 11
68.9730577836
 21
68.6363238512
  0
LINE
  8
0
 62
7
  6
CONTINUOUS
 10
69.3083059735
 20
68.8363238512
 11
69.3083059735
 21
68.6363238512
  0
LINE
  8
0
 62
7
  6
CONTINUOUS
 10
69.5260777798
 20
68.8363238512
 11
69.5260777798
 21
68.6363238512
  0
LINE
  8
0
 62
7
  6
CONTINUOUS
 10
69.844141505
 20
68.8363238512
 11
69.844141505
 21
68.6363238512
  0
LINE
  8
0
 62
7
  6
CONTINUOUS
 10
70.2954627072
 20
68.8363238512
 11
70.2954627072
 21
68.6363238512
  0
LINE
  8
0
 62
7
  6
CONTINUOUS
 10
70.4788670547
 20
68.8363238512
 11
70.4788670547
 21
68.6363238512
  0
LINE
  8
0
 62
7
  6
CONTINUOUS
 10
70.5619761904
 20
68.8363238512
 11
70.5619761904
 21
68.6363238512
  0
LINE
  8
0
 62
7
  6
CONTINUOUS
 10
70.6279024375
 20
68.8363238512
 11
70.6279024375
 21
68.6363238512
  0
POLYLINE
  8
0
 62
9
  6
CONTINUOUS
 66
1
 70
0
  0
VERTEX
  8
0
 62
9
  6
CONTINUOUS
 10
69.554521013
 20
89.2363238512
  0
VERTEX
  8
0
 62
9
  6
CONTINUOUS
 10
69.4824817359
 20
88.9434290558
  0
VERTEX
  8
0
 62
9
  6
CONTINUOUS
 10
69.4526415643
 20
88.2363238512
  0
SEQEND
  0
POLYLINE
  8
0
 62
9
  6
CONTINUOUS
 66
1
 70
0
  0
VERTEX
  8
0
 62
9
  6
CONTINUOUS
 10
49.9447236432
 20
73.4363238512
  0
VERTEX
  8
0
 62
9
  6
CONTINUOUS
 10
50.2496977965
 20
73.7292170695
  0
VERTEX
  8
0
 62
9
  6
CONTINUOUS
 10
50.3760222303
 20
74.4363238512
  0
SEQEND
  0
POLYLINE
  8
0
 62
9
  6
CONTINUOUS
 66
1
 70
0
  0
VERTEX
  8
0
 62
9
  6
CONTINUOUS
 10
47.167746488
 20
89.2363238512
  0
VERTEX
  8
0
 62
9
  6
CONTINUOUS
 10
46.6983034152
 20
89.046497609
  0
VERTEX
  8
0
 62
9
  6
CONTINUOUS
 10
46.5205576938
 20
88.8253150372
  0
VERTEX
  8
0
 62
9
  6
CONTINUOUS
 10
46.3669084789
 20
88.2363238512
  0
SEQEND
  0
POLYLINE
  8
0
 62
9
  6
CONTINUOUS
 66
1
 70
0
  0
VERTEX
  8
0
 62
9
  6
CONTINUOUS
 10
46.1685115592
 20
89.2363238512
  0
VERTEX
  8
0
 62
9
  6
CONTINUOUS
 10
45.6882661702
 20
89.0453408456
  0
VERTEX
  8
0
 62
9
  6
CONTINUOUS
 10
45.5075104883
 20
88.8241091035
  0
VERTEX
  8
0
 62
9
  6
CONTINUOUS
 10
45.3514693024
 20
88.2363238512
  0
SEQEND
  0
POLYLINE
  8
0
 62
9
  6
CONTINUOUS
 66
1
 70
0
  0
VERTEX
  8
0
 62
9
  6
CONTINUOUS
 10
38.1727584945
 20
89.2363238512
  0
VERTEX
  8
0
 62
9
  6
CONTINUOUS
 10
37.6178087288
 20
89.046497609
  0
VERTEX
  8
0
 62
9
  6
CONTINUOUS
 10
37.4076875189
 20
88.8253150372
  0
VERTEX
  8
0
 62
9
  6
CONTINUOUS
 10
37.2260518728
 20
88.2363238512
  0
SEQEND
  0
POLYLINE
  8
0
 62
9
  6
CONTINUOUS
 66
1
 70
0
  0
VERTEX
  8
0
 62
9
  6
CONTINUOUS
 10
37.6474296041
 20
89.2363238512
  0
VERTEX
  8
0
 62
9
  6
CONTINUOUS
 10
37.0859620257
 20
89.0453408456
  0
VERTEX
  8
0
 62
9
  6
CONTINUOUS
 10
36.8746357803
 20
88.8241091035
  0
VERTEX
  8
0
 62
9
  6
CONTINUOUS
 10
36.6922039053
 20
88.2363238512
  0
SEQEND
  0
POLYLINE
  8
0
 62
7
  6
CONTINUOUS
 66
1
 70
0
  0
VERTEX
  8
0
 62
7
  6
CONTINUOUS
 10
37.6474296041
 20
89.2363238512
  0
VERTEX
  8
0
 62
7
  6
CONTINUOUS
 10
37.0543211204
 20
89.041446405
  0
VERTEX
  8
0
 62
7
  6
CONTINUOUS
 10
36.8293636389
 20
88.8114482522
  0
VERTEX
  8
0
 62
7
  6
CONTINUOUS
 10
36.6474303339
 20
88.2363238512
  0
SEQEND
  0
POLYLINE
  8
0
 62
7
  6
CONTINUOUS
 66
1
 70
0
  0
VERTEX
  8
0
 62
7
  6
CONTINUOUS
 10
34.8922808642
 20
89.2363238512
  0
VERTEX
  8
0
 62
7
  6
CONTINUOUS
 10
34.3061467552
 20
89.046497609
  0
VERTEX
  8
0
 62
7
  6
CONTINUOUS
 10
34.0842181848
 20
88.8253150372
  0
VERTEX
  8
0
 62
7
  6
CONTINUOUS
 10
33.8923758702
 20
88.2363238512
  0
SEQEND
  0
POLYLINE
  8
0
 62
9
  6
CONTINUOUS
 66
1
 70
0
  0
VERTEX
  8
0
 62
9
  6
CONTINUOUS
 10
34.8922808642
 20
73.4363238512
  0
VERTEX
  8
0
 62
9
  6
CONTINUOUS
 10
34.304551455
 20
73.6273068568
  0
VERTEX
  8
0
 62
9
  6
CONTINUOUS
 10
34.0833407313
 20
73.8485385989
  0
VERTEX
  8
0
 62
9
  6
CONTINUOUS
 10
33.8923758702
 20
74.4363238512
  0
SEQEND
  0
LINE
  8
0
 62
9
  6
CONTINUOUS
 10
37.6474296041
 20
73.4363238512
 11
37.0874860422
 21
73.6261500934
  0
POLYLINE
  8
0
 62
9
  6
CONTINUOUS
 66
1
 70
0
  0
VERTEX
  8
0
 62
9
  6
CONTINUOUS
 10
38.1727584945
 20
73.4363238512
  0
VERTEX
  8
0
 62
9
  6
CONTINUOUS
 10
37.616298304
 20
73.6273068568
  0
VERTEX
  8
0
 62
9
  6
CONTINUOUS
 10
37.4068567489
 20
73.8485385989
  0
VERTEX
  8
0
 62
9
  6
CONTINUOUS
 10
37.2260518728
 20
74.4363238512
  0
SEQEND
  0
LINE
  8
0
 62
7
  6
CONTINUOUS
 10
37.6474296041
 20
73.4363238512
 11
37.0048192513
 21
73.6701307068
  0
POLYLINE
  8
0
 62
7
  6
CONTINUOUS
 66
1
 70
0
  0
VERTEX
  8
0
 62
7
  6
CONTINUOUS
 10
46.1685115592
 20
73.4363238512
  0
VERTEX
  8
0
 62
7
  6
CONTINUOUS
 10
45.5091800136
 20
73.6844715299
  0
VERTEX
  8
0
 62
7
  6
CONTINUOUS
 10
45.2790878551
 20
73.9792401886
  0
SEQEND
  0
POLYLINE
  8
0
 62
9
  6
CONTINUOUS
 66
1
 70
0
  0
VERTEX
  8
0
 62
9
  6
CONTINUOUS
 10
46.1685115592
 20
73.4363238512
  0
VERTEX
  8
0
 62
9
  6
CONTINUOUS
 10
45.6895697217
 20
73.6261500934
  0
VERTEX
  8
0
 62
9
  6
CONTINUOUS
 10
45.5082274731
 20
73.8473326652
  0
VERTEX
  8
0
 62
9
  6
CONTINUOUS
 10
45.3514693024
 20
74.4363238512
  0
SEQEND
  0
POLYLINE
  8
0
 62
9
  6
CONTINUOUS
 66
1
 70
0
  0
VERTEX
  8
0
 62
9
  6
CONTINUOUS
 10
47.167746488
 20
73.4363238512
  0
VERTEX
  8
0
 62
9
  6
CONTINUOUS
 10
46.6970257168
 20
73.6273068568
  0
VERTEX
  8
0
 62
9
  6
CONTINUOUS
 10
46.5198549289
 20
73.8485385989
  0
VERTEX
  8
0
 62
9
  6
CONTINUOUS
 10
46.3669084789
 20
74.4363238512
  0
SEQEND
  0
POLYLINE
  8
0
 62
9
  6
CONTINUOUS
 66
1
 70
0
  0
VERTEX
  8
0
 62
9
  6
CONTINUOUS
 10
49.9447236432
 20
89.2363238512
  0
VERTEX
  8
0
 62
9
  6
CONTINUOUS
 10
50.2497009254
 20
88.9434233761
  0
VERTEX
  8
0
 62
9
  6
CONTINUOUS
 10
50.3760222248
 20
88.2363238512
  0
SEQEND
  0
POLYLINE
  8
0
 62
9
  6
CONTINUOUS
 66
1
 70
0
  0
VERTEX
  8
0
 62
9
  6
CONTINUOUS
 10
69.554521013
 20
73.4363238512
  0
VERTEX
  8
0
 62
9
  6
CONTINUOUS
 10
69.4824813965
 20
73.729216747
  0
VERTEX
  8
0
 62
9
  6
CONTINUOUS
 10
69.4526415638
 20
74.4363238512
  0
SEQEND
  0
LINE
  8
0
 62
9
  6
CONTINUOUS
 10
71.9417809748
 20
74.3224733108
 11
71.9417809748
 21
88.3501743916
  0
LINE
  8
0
 62
9
  6
CONTINUOUS
 10
72.3165991557
 20
74.3224733108
 11
72.3165991557
 21
88.3501743916
  0
LINE
  8
0
 62
7
  6
CONTINUOUS
 10
73.476307351
 20
68.8363238512
 11
73.476307351
 21
68.6363238512
  0
LINE
  8
0
 62
7
  6
CONTINUOUS
 10
75.6893017124
 20
88.2363238512
 11
75.6893017124
 21
74.4363238512
  0
POLYLINE
  8
0
 62
9
  6
CONTINUOUS
 66
1
 70
0
  0
VERTEX
  8
0
 62
9
  6
CONTINUOUS
 10
72.6094262782
 20
89.2869240914
  0
VERTEX
  8
0
 62
9
  6
CONTINUOUS
 10
72.4560953045
 20
89.0736451716
  0
VERTEX
  8
0
 62
9
  6
CONTINUOUS
 10
72.3529388948
 20
88.7436492321
  0
VERTEX
  8
0
 62
9
  6
CONTINUOUS
 10
72.3165991557
 20
88.3501743916
  0
SEQEND
  0
POLYLINE
  8
0
 62
9
  6
CONTINUOUS
 66
1
 70
0
  0
VERTEX
  8
0
 62
9
  6
CONTINUOUS
 10
72.2391369907
 20
89.2869240914
  0
VERTEX
  8
0
 62
9
  6
CONTINUOUS
 10
72.0834345572
 20
89.0736452552
  0
VERTEX
  8
0
 62
9
  6
CONTINUOUS
 10
71.9786827032
 20
88.7436493492
  0
VERTEX
  8
0
 62
9
  6
CONTINUOUS
 10
71.9417809748
 20
88.3501743916
  0
SEQEND
  0
POLYLINE
  8
0
 62
9
  6
CONTINUOUS
 66
1
 70
0
  0
VERTEX
  8
0
 62
9
  6
CONTINUOUS
 10
47.167746488
 20
73.4363238512
  0
VERTEX
  8
0
 62
9
  6
CONTINUOUS
 10
47.4205693129
 20
73.6261500803
  0
VERTEX
  8
0
 62
9
  6
CONTINUOUS
 10
47.5162958855
 20
73.8473326375
  0
VERTEX
  8
0
 62
9
  6
CONTINUOUS
 10
47.5990450751
 20
74.4363238512
  0
SEQEND
  0
POLYLINE
  8
0
 62
9
  6
CONTINUOUS
 66
1
 70
0
  0
VERTEX
  8
0
 62
9
  6
CONTINUOUS
 10
60.9967527483
 20
89.2363238512
  0
VERTEX
  8
0
 62
9
  6
CONTINUOUS
 10
60.6587687271
 20
89.046497609
  0
VERTEX
  8
0
 62
9
  6
CONTINUOUS
 10
60.5307974839
 20
88.8253150372
  0
VERTEX
  8
0
 62
9
  6
CONTINUOUS
 10
60.4201749558
 20
88.2363238512
  0
SEQEND
  0
POLYLINE
  8
0
 62
9
  6
CONTINUOUS
 66
1
 70
0
  0
VERTEX
  8
0
 62
9
  6
CONTINUOUS
 10
59.6214238578
 20
89.2363238512
  0
VERTEX
  8
0
 62
9
  6
CONTINUOUS
 10
59.2694104229
 20
89.0453408456
  0
VERTEX
  8
0
 62
9
  6
CONTINUOUS
 10
59.1369189303
 20
88.8241091035
  0
VERTEX
  8
0
 62
9
  6
CONTINUOUS
 10
59.0225428319
 20
88.2363238512
  0
SEQEND
  0
POLYLINE
  8
0
 62
7
  6
CONTINUOUS
 66
1
 70
0
  0
VERTEX
  8
0
 62
7
  6
CONTINUOUS
 10
46.1685115592
 20
89.2363238512
  0
VERTEX
  8
0
 62
7
  6
CONTINUOUS
 10
45.5387194806
 20
89.0130876105
  0
VERTEX
  8
0
 62
7
  6
CONTINUOUS
 10
45.3087885429
 20
88.7470843973
  0
SEQEND
  0
POLYLINE
  8
0
 62
9
  6
CONTINUOUS
 66
1
 70
0
  0
VERTEX
  8
0
 62
9
  6
CONTINUOUS
 10
59.6214238578
 20
73.4363238512
  0
VERTEX
  8
0
 62
9
  6
CONTINUOUS
 10
59.2703659087
 20
73.6261500934
  0
VERTEX
  8
0
 62
9
  6
CONTINUOUS
 10
59.1374444705
 20
73.8473326652
  0
VERTEX
  8
0
 62
9
  6
CONTINUOUS
 10
59.0225428319
 20
74.4363238512
  0
SEQEND
  0
POLYLINE
  8
0
 62
9
  6
CONTINUOUS
 66
1
 70
0
  0
VERTEX
  8
0
 62
9
  6
CONTINUOUS
 10
60.9967527483
 20
73.4363238512
  0
VERTEX
  8
0
 62
9
  6
CONTINUOUS
 10
60.6578488251
 20
73.6273068568
  0
VERTEX
  8
0
 62
9
  6
CONTINUOUS
 10
60.5302915156
 20
73.8485385989
  0
VERTEX
  8
0
 62
9
  6
CONTINUOUS
 10
60.4201749558
 20
74.4363238512
  0
SEQEND
  0
POLYLINE
  8
0
 62
9
  6
CONTINUOUS
 66
1
 70
0
  0
VERTEX
  8
0
 62
9
  6
CONTINUOUS
 10
47.167746488
 20
89.2363238512
  0
VERTEX
  8
0
 62
9
  6
CONTINUOUS
 10
47.4212574368
 20
89.0453408456
  0
VERTEX
  8
0
 62
9
  6
CONTINUOUS
 10
47.5166743746
 20
88.8241091035
  0
VERTEX
  8
0
 62
9
  6
CONTINUOUS
 10
47.5990450751
 20
88.2363238512
  0
SEQEND
  0
POLYLINE
  8
0
 62
9
  6
CONTINUOUS
 66
1
 70
0
  0
VERTEX
  8
0
 62
9
  6
CONTINUOUS
 10
72.2391369907
 20
73.385723611
  0
VERTEX
  8
0
 62
9
  6
CONTINUOUS
 10
72.0834337177
 20
73.5990044905
  0
VERTEX
  8
0
 62
9
  6
CONTINUOUS
 10
71.978682268
 20
73.9290012919
  0
VERTEX
  8
0
 62
9
  6
CONTINUOUS
 10
71.9417809745
 20
74.3224733108
  0
SEQEND
  0
POLYLINE
  8
0
 62
9
  6
CONTINUOUS
 66
1
 70
0
  0
VERTEX
  8
0
 62
9
  6
CONTINUOUS
 10
72.6094262782
 20
73.385723611
  0
VERTEX
  8
0
 62
9
  6
CONTINUOUS
 10
72.4560952773
 20
73.5990024471
  0
VERTEX
  8
0
 62
9
  6
CONTINUOUS
 10
72.3529388508
 20
73.9289983532
  0
VERTEX
  8
0
 62
9
  6
CONTINUOUS
 10
72.3165991557
 20
74.3224733108
  0
SEQEND
  0
LINE
  8
0
 62
9
  6
CONTINUOUS
 10
76.3672045648
 20
74.4363238512
 11
76.3672045648
 21
88.2363238512
  0
LINE
  8
0
 62
7
  6
CONTINUOUS
 10
76.4690062914
 20
68.8363238512
 11
76.4690062914
 21
68.6363238512
  0
LINE
  8
0
 62
7
  6
CONTINUOUS
 10
76.7313620717
 20
68.8363238512
 11
76.7313620717
 21
68.6363238512
  0
LINE
  8
0
 62
7
  6
CONTINUOUS
 10
77.7670969089
 20
68.8363238512
 11
77.7670969089
 21
68.6363238512
  0
LINE
  8
0
 62
7
  6
CONTINUOUS
 10
77.9544022434
 20
68.8363238512
 11
77.9544022434
 21
68.6363238512
  0
LINE
  8
0
 62
9
  6
CONTINUOUS
 10
78.0102196659
 20
74.4363238512
 11
78.0102196659
 21
88.2363238512
  0
LINE
  8
0
 62
7
  6
CONTINUOUS
 10
78.2033906386
 20
68.8363238512
 11
78.2033906386
 21
68.6363238512
  0
LINE
  8
0
 62
7
  6
CONTINUOUS
 10
78.7162290447
 20
68.8363238512
 11
78.7162290447
 21
68.6363238512
  0
LINE
  8
0
 62
7
  6
CONTINUOUS
 10
79.0269022783
 20
68.8363238512
 11
79.0269022783
 21
68.6363238512
  0
LINE
  8
0
 62
9
  6
CONTINUOUS
 10
79.1853309676
 20
74.4363238512
 11
79.1853309676
 21
88.2363238512
  0
LINE
  8
0
 62
7
  6
CONTINUOUS
 10
79.5237563255
 20
68.8363238512
 11
79.5237563255
 21
68.6363238512
  0
LINE
  8
0
 62
7
  6
CONTINUOUS
 10
79.8961179528
 20
68.8363238512
 11
79.8961179528
 21
68.6363238512
  0
POLYLINE
  8
0
 62
9
  6
CONTINUOUS
 66
1
 70
0
  0
VERTEX
  8
0
 62
9
  6
CONTINUOUS
 10
78.3060977901
 20
89.2363238512
  0
VERTEX
  8
0
 62
9
  6
CONTINUOUS
 10
78.1326570515
 20
89.046497609
  0
VERTEX
  8
0
 62
9
  6
CONTINUOUS
 10
78.0669870033
 20
88.8253150372
  0
VERTEX
  8
0
 62
9
  6
CONTINUOUS
 10
78.0102196659
 20
88.2363238512
  0
SEQEND
  0
POLYLINE
  8
0
 62
9
  6
CONTINUOUS
 66
1
 70
0
  0
VERTEX
  8
0
 62
9
  6
CONTINUOUS
 10
76.6893017124
 20
89.2363238512
  0
VERTEX
  8
0
 62
9
  6
CONTINUOUS
 10
76.4999777592
 20
89.0453408456
  0
VERTEX
  8
0
 62
9
  6
CONTINUOUS
 10
76.4287196461
 20
88.8241091035
  0
VERTEX
  8
0
 62
9
  6
CONTINUOUS
 10
76.3672045648
 20
88.2363238512
  0
SEQEND
  0
POLYLINE
  8
0
 62
9
  6
CONTINUOUS
 66
1
 70
0
  0
VERTEX
  8
0
 62
9
  6
CONTINUOUS
 10
75.1224702222
 20
89.2363238512
  0
VERTEX
  8
0
 62
9
  6
CONTINUOUS
 10
74.5957293218
 20
88.9434307419
  0
VERTEX
  8
0
 62
9
  6
CONTINUOUS
 10
74.3775459816
 20
88.2363238512
  0
SEQEND
  0
LINE
  8
0
 62
7
  6
CONTINUOUS
 10
59.6214238578
 20
89.2363238512
 11
59.0185277063
 21
89.0341435241
  0
POLYLINE
  8
0
 62
7
  6
CONTINUOUS
 66
1
 70
0
  0
VERTEX
  8
0
 62
7
  6
CONTINUOUS
 10
59.6214238578
 20
73.4363238512
  0
VERTEX
  8
0
 62
7
  6
CONTINUOUS
 10
59.0153514497
 20
73.6409143742
  0
VERTEX
  8
0
 62
7
  6
CONTINUOUS
 10
58.7879195378
 20
73.8838109116
  0
VERTEX
  8
0
 62
7
  6
CONTINUOUS
 10
58.6214282202
 20
74.4363238512
  0
SEQEND
  0
POLYLINE
  8
0
 62
9
  6
CONTINUOUS
 66
1
 70
0
  0
VERTEX
  8
0
 62
9
  6
CONTINUOUS
 10
75.1224702222
 20
73.4363238512
  0
VERTEX
  8
0
 62
9
  6
CONTINUOUS
 10
74.5957297814
 20
73.7292172903
  0
VERTEX
  8
0
 62
9
  6
CONTINUOUS
 10
74.3775459816
 20
74.4363238512
  0
SEQEND
  0
POLYLINE
  8
0
 62
9
  6
CONTINUOUS
 66
1
 70
0
  0
VERTEX
  8
0
 62
9
  6
CONTINUOUS
 10
76.6893017124
 20
73.4363238512
  0
VERTEX
  8
0
 62
9
  6
CONTINUOUS
 10
76.5004916497
 20
73.6261500934
  0
VERTEX
  8
0
 62
9
  6
CONTINUOUS
 10
76.4290022982
 20
73.8473326652
  0
VERTEX
  8
0
 62
9
  6
CONTINUOUS
 10
76.3672045648
 20
74.4363238512
  0
SEQEND
  0
POLYLINE
  8
0
 62
9
  6
CONTINUOUS
 66
1
 70
0
  0
VERTEX
  8
0
 62
9
  6
CONTINUOUS
 10
78.3060977901
 20
73.4363238512
  0
VERTEX
  8
0
 62
9
  6
CONTINUOUS
 10
78.1321849922
 20
73.6273068568
  0
VERTEX
  8
0
 62
9
  6
CONTINUOUS
 10
78.0667273593
 20
73.8485385989
  0
VERTEX
  8
0
 62
9
  6
CONTINUOUS
 10
78.0102196659
 20
74.4363238512
  0
SEQEND
  0
LINE
  8
0
 62
7
  6
CONTINUOUS
 10
80.3301608632
 20
68.8363238512
 11
80.3301608632
 21
68.6363238512
  0
LINE
  8
0
 62
7
  6
CONTINUOUS
 10
80.5311979595
 20
68.8363238512
 11
80.5311979595
 21
68.6363238512
  0
LINE
  8
0
 62
7
  6
CONTINUOUS
 10
80.5928828843
 20
68.8363238512
 11
80.5928828843
 21
68.6363238512
  0
LINE
  8
0
 62
7
  6
CONTINUOUS
 10
80.6385851415
 20
68.8363238512
 11
80.6385851415
 21
68.6363238512
  0
LINE
  8
0
 62
9
  6
CONTINUOUS
 10
80.6516524171
 20
74.4363238512
 11
80.6516524171
 21
88.2363238512
  0
LINE
  8
0
 62
7
  6
CONTINUOUS
 10
81.4873131056
 20
68.8363238512
 11
81.4873131056
 21
68.6363238512
  0
LINE
  8
0
 62
7
  6
CONTINUOUS
 10
81.5520897489
 20
68.8363238512
 11
81.5520897489
 21
68.6363238512
  0
LINE
  8
0
 62
7
  6
CONTINUOUS
 10
81.5591089319
 20
68.8363238512
 11
81.5591089319
 21
68.6363238512
  0
LINE
  8
0
 62
7
  6
CONTINUOUS
 10
81.6217081966
 20
68.8363238512
 11
81.6217081966
 21
68.6363238512
  0
LINE
  8
0
 62
7
  6
CONTINUOUS
 10
81.7884628621
 20
68.8363238512
 11
81.7884628621
 21
68.6363238512
  0
LINE
  8
0
 62
7
  6
CONTINUOUS
 10
82.1149565979
 20
68.8363238512
 11
82.1149565979
 21
68.6363238512
  0
LINE
  8
0
 62
7
  6
CONTINUOUS
 10
82.5698861158
 20
68.8363238512
 11
82.5698861158
 21
68.6363238512
  0
LINE
  8
0
 62
7
  6
CONTINUOUS
 10
83.0733837084
 20
68.8363238512
 11
83.0733837084
 21
68.6363238512
  0
LINE
  8
0
 62
7
  6
CONTINUOUS
 10
83.5455816688
 20
68.8363238512
 11
83.5455816688
 21
68.6363238512
  0
LINE
  8
0
 62
7
  6
CONTINUOUS
 10
83.8580405586
 20
68.8363238512
 11
83.8580405586
 21
68.6363238512
  0
LINE
  8
0
 62
7
  6
CONTINUOUS
 10
84.1149121226
 20
68.8363238512
 11
84.1149121226
 21
68.6363238512
  0
LINE
  8
0
 62
7
  6
CONTINUOUS
 10
84.2676356661
 20
68.8363238512
 11
84.2676356661
 21
68.6363238512
  0
LINE
  8
0
 62
7
  6
CONTINUOUS
 10
130.9488189995
 20
68.6363238512
 11
120.4231421261
 21
68.6363238512
  0
LINE
  8
0
 62
7
  6
CONTINUOUS
 10
84.7290324109
 20
68.6363238512
 11
73.476307351
 21
68.6363238512
  0
LINE
  8
0
 62
7
  6
CONTINUOUS
 10
70.6279024375
 20
68.6363238512
 11
61.4900442584
 21
68.6363238512
  0
LINE
  8
0
 62
7
  6
CONTINUOUS
 10
60.0809335155
 20
68.6363238512
 11
57.1931738741
 21
68.6363238512
  0
LINE
  8
0
 62
7
  6
CONTINUOUS
 10
57.1743547472
 20
68.6363238512
 11
54.1512675645
 21
68.6363238512
  0
LINE
  8
AXES
 62
7
  6
CONTINUOUS
 10
44.9264223195
 20
68.8363238512
 11
148.1764223195
 21
68.8363238512
  0
POLYLINE
  8
0
 62
7
  6
CONTINUOUS
 66
1
 70
0
  0
VERTEX
  8
0
 62
7
  6
CONTINUOUS
 10
76.6893017124
 20
73.4363238512
  0
VERTEX
  8
0
 62
7
  6
CONTINUOUS
 10
76.106533227
 20
73.6236856214
  0
VERTEX
  8
0
 62
7
  6
CONTINUOUS
 10
75.8829646909
 20
73.8448675064
  0
VERTEX
  8
0
 62
7
  6
CONTINUOUS
 10
75.68930172
 20
74.4363238512
  0
SEQEND
  0
LINE
  8
0
 62
7
  6
CONTINUOUS
 10
84.4689235603
 20
68.8363238512
 11
84.4689235603
 21
68.6363238512
  0
LINE
  8
0
 62
7
  6
CONTINUOUS
 10
84.687479897
 20
68.8363238512
 11
84.687479897
 21
68.6363238512
  0
LINE
  8
0
 62
7
  6
CONTINUOUS
 10
84.7290324109
 20
68.8363238512
 11
84.7290324109
 21
68.6363238512
  0
LINE
  8
0
 62
9
  6
CONTINUOUS
 10
87.9283500209
 20
74.3224733108
 11
87.9283500209
 21
88.3501743916
  0
LINE
  8
0
 62
9
  6
CONTINUOUS
 10
88.343839175
 20
74.3224733108
 11
88.343839175
 21
88.3501743916
  0
POLYLINE
  8
0
 62
9
  6
CONTINUOUS
 66
1
 70
0
  0
VERTEX
  8
0
 62
9
  6
CONTINUOUS
 10
88.4430106416
 20
89.2869240914
  0
VERTEX
  8
0
 62
9
  6
CONTINUOUS
 10
88.3910816076
 20
89.073641481
  0
VERTEX
  8
0
 62
9
  6
CONTINUOUS
 10
88.3561459739
 20
88.7436439201
  0
VERTEX
  8
0
 62
9
  6
CONTINUOUS
 10
88.343839174
 20
88.3501743916
  0
SEQEND
  0
POLYLINE
  8
0
 62
9
  6
CONTINUOUS
 66
1
 70
0
  0
VERTEX
  8
0
 62
9
  6
CONTINUOUS
 10
88.0325418044
 20
89.2869240914
  0
VERTEX
  8
0
 62
9
  6
CONTINUOUS
 10
87.9779845955
 20
89.0736452552
  0
VERTEX
  8
0
 62
9
  6
CONTINUOUS
 10
87.9412801675
 20
88.7436493492
  0
VERTEX
  8
0
 62
9
  6
CONTINUOUS
 10
87.9283500209
 20
88.3501743916
  0
SEQEND
  0
POLYLINE
  8
0
 62
9
  6
CONTINUOUS
 66
1
 70
0
  0
VERTEX
  8
0
 62
9
  6
CONTINUOUS
 10
91.2942759983
 20
89.2363238512
  0
VERTEX
  8
0
 62
9
  6
CONTINUOUS
 10
90.9390930262
 20
88.9434307419
  0
VERTEX
  8
0
 62
9
  6
CONTINUOUS
 10
90.7919713442
 20
88.2363238512
  0
SEQEND
  0
POLYLINE
  8
0
 62
9
  6
CONTINUOUS
 66
1
 70
0
  0
VERTEX
  8
0
 62
9
  6
CONTINUOUS
 10
63.2275868427
 20
73.4363238512
  0
VERTEX
  8
0
 62
9
  6
CONTINUOUS
 10
63.7147744483
 20
73.7292170695
  0
VERTEX
  8
0
 62
9
  6
CONTINUOUS
 10
63.9165741648
 20
74.4363238512
  0
SEQEND
  0
POLYLINE
  8
0
 62
9
  6
CONTINUOUS
 66
1
 70
0
  0
VERTEX
  8
0
 62
9
  6
CONTINUOUS
 10
60.9967527483
 20
73.4363238512
  0
VERTEX
  8
0
 62
9
  6
CONTINUOUS
 10
61.4006300766
 20
73.6261500803
  0
VERTEX
  8
0
 62
9
  6
CONTINUOUS
 10
61.5535505751
 20
73.8473326375
  0
VERTEX
  8
0
 62
9
  6
CONTINUOUS
 10
61.6857400703
 20
74.4363238512
  0
SEQEND
  0
POLYLINE
  8
0
 62
9
  6
CONTINUOUS
 66
1
 70
0
  0
VERTEX
  8
0
 62
9
  6
CONTINUOUS
 10
44.3632769833
 20
73.4363238512
  0
VERTEX
  8
0
 62
9
  6
CONTINUOUS
 10
44.3187563176
 20
73.4198788592
  0
VERTEX
  8
0
 62
9
  6
CONTINUOUS
 10
44.2690373989
 20
73.4047568741
  0
VERTEX
  8
0
 62
9
  6
CONTINUOUS
 10
44.0936326237
 20
73.385723611
  0
SEQEND
  0
POLYLINE
  8
0
 62
7
  6
CONTINUOUS
 66
1
 70
0
  0
VERTEX
  8
0
 62
7
  6
CONTINUOUS
 10
116.4135429266
 20
73.4363238512
  0
VERTEX
  8
0
 62
7
  6
CONTINUOUS
 10
116.7413436134
 20
73.4915769487
  0
VERTEX
  8
0
 62
7
  6
CONTINUOUS
 10
117.2519912806
 20
73.8913427894
  0
VERTEX
  8
0
 62
7
  6
CONTINUOUS
 10
117.3891063421
 20
74.2166057996
  0
VERTEX
  8
0
 62
7
  6
CONTINUOUS
 10
117.413542239
 20
74.4363238512
  0
SEQEND
  0
POLYLINE
  8
0
 62
9
  6
CONTINUOUS
 66
1
 70
0
  0
VERTEX
  8
0
 62
9
  6
CONTINUOUS
 10
149.7171353078
 20
73.4363238512
  0
VERTEX
  8
0
 62
9
  6
CONTINUOUS
 10
149.4503545411
 20
73.4198788592
  0
VERTEX
  8
0
 62
9
  6
CONTINUOUS
 10
149.3192863983
 20
73.4047568741
  0
VERTEX
  8
0
 62
9
  6
CONTINUOUS
 10
149.0742238923
 20
73.385723611
  0
SEQEND
  0
LINE
  8
0
 62
9
  6
CONTINUOUS
 10
144.9385047065
 20
73.4198788592
 11
144.6394793651
 21
73.4047568741
  0
POLYLINE
  8
0
 62
9
  6
CONTINUOUS
 66
1
 70
0
  0
VERTEX
  8
0
 62
9
  6
CONTINUOUS
 10
136.8776167848
 20
74.4363238512
  0
VERTEX
  8
0
 62
9
  6
CONTINUOUS
 10
136.0628400347
 20
74.3993404121
  0
VERTEX
  8
0
 62
9
  6
CONTINUOUS
 10
135.6325911333
 20
74.3653264177
  0
VERTEX
  8
0
 62
9
  6
CONTINUOUS
 10
134.7386695499
 20
74.3224733108
  0
SEQEND
  0
LINE
  8
0
 62
9
  6
CONTINUOUS
 10
144.6394793651
 20
73.4047568741
 11
143.9979380036
 21
73.385723611
  0
POLYLINE
  8
0
 62
9
  6
CONTINUOUS
 66
1
 70
0
  0
VERTEX
  8
0
 62
9
  6
CONTINUOUS
 10
136.4733145684
 20
73.4363238512
  0
VERTEX
  8
0
 62
9
  6
CONTINUOUS
 10
135.6901901152
 20
73.4198788592
  0
VERTEX
  8
0
 62
9
  6
CONTINUOUS
 10
135.2524782591
 20
73.4047568741
  0
VERTEX
  8
0
 62
9
  6
CONTINUOUS
 10
134.2772565803
 20
73.385723611
  0
SEQEND
  0
POLYLINE
  8
0
 62
9
  6
CONTINUOUS
 66
1
 70
0
  0
VERTEX
  8
0
 62
9
  6
CONTINUOUS
 10
123.5483236259
 20
73.4363238512
  0
VERTEX
  8
0
 62
9
  6
CONTINUOUS
 10
122.6107106362
 20
73.4198791487
  0
VERTEX
  8
0
 62
9
  6
CONTINUOUS
 10
122.0771556906
 20
73.4047570796
  0
VERTEX
  8
0
 62
9
  6
CONTINUOUS
 10
120.8637076483
 20
73.385723611
  0
SEQEND
  0
POLYLINE
  8
0
 62
9
  6
CONTINUOUS
 66
1
 70
0
  0
VERTEX
  8
0
 62
9
  6
CONTINUOUS
 10
107.9806878851
 20
73.4363238512
  0
VERTEX
  8
0
 62
9
  6
CONTINUOUS
 10
106.9803466691
 20
73.4198788592
  0
VERTEX
  8
0
 62
9
  6
CONTINUOUS
 10
106.4031821516
 20
73.4047568741
  0
VERTEX
  8
0
 62
9
  6
CONTINUOUS
 10
105.0703028346
 20
73.385723611
  0
SEQEND
  0
LINE
  8
AXES
 62
9
  6
CONTINUOUS
 10
43.9264223195
 20
69.8363238512
 11
149.1764223195
 21
69.8363238512
  0
LINE
  8
AXES
 62
9
  6
CONTINUOUS
 10
43.9264223195
 20
72.6363238512
 11
149.1764223195
 21
72.6363238512
  0
POLYLINE
  8
0
 62
9
  6
CONTINUOUS
 66
1
 70
0
  0
VERTEX
  8
0
 62
9
  6
CONTINUOUS
 10
88.0325418044
 20
73.385723611
  0
VERTEX
  8
0
 62
9
  6
CONTINUOUS
 10
86.8947439818
 20
73.4000565067
  0
VERTEX
  8
0
 62
9
  6
CONTINUOUS
 10
85.9329681503
 20
73.4246216237
  0
VERTEX
  8
0
 62
9
  6
CONTINUOUS
 10
85.1221567539
 20
73.4363238512
  0
SEQEND
  0
POLYLINE
  8
0
 62
9
  6
CONTINUOUS
 66
1
 70
0
  0
VERTEX
  8
0
 62
9
  6
CONTINUOUS
 10
72.2391369907
 20
73.385723611
  0
VERTEX
  8
0
 62
9
  6
CONTINUOUS
 10
71.2049037279
 20
73.4000564051
  0
VERTEX
  8
0
 62
9
  6
CONTINUOUS
 10
70.3158056504
 20
73.4246214439
  0
VERTEX
  8
0
 62
9
  6
CONTINUOUS
 10
69.5545210131
 20
73.4363238512
  0
SEQEND
  0
POLYLINE
  8
0
 62
9
  6
CONTINUOUS
 66
1
 70
0
  0
VERTEX
  8
0
 62
9
  6
CONTINUOUS
 10
58.8255880586
 20
73.385723611
  0
VERTEX
  8
0
 62
9
  6
CONTINUOUS
 10
57.9961496038
 20
73.4000565067
  0
VERTEX
  8
0
 62
9
  6
CONTINUOUS
 10
57.2667548219
 20
73.4246216237
  0
VERTEX
  8
0
 62
9
  6
CONTINUOUS
 10
56.6295300706
 20
73.4363238512
  0
SEQEND
  0
LINE
  8
0
 62
9
  6
CONTINUOUS
 10
49.1049066354
 20
73.385723611
 11
48.5614582567
 21
73.4000565067
  0
POLYLINE
  8
0
 62
9
  6
CONTINUOUS
 66
1
 70
0
  0
VERTEX
  8
0
 62
9
  6
CONTINUOUS
 10
58.364175089
 20
74.3224733108
  0
VERTEX
  8
0
 62
9
  6
CONTINUOUS
 10
57.6096408538
 20
74.3547451758
  0
VERTEX
  8
0
 62
9
  6
CONTINUOUS
 10
56.8926613846
 20
74.4099993231
  0
VERTEX
  8
0
 62
9
  6
CONTINUOUS
 10
56.2252278542
 20
74.4363238512
  0
SEQEND
  0
LINE
  8
0
 62
9
  6
CONTINUOUS
 10
48.5614582567
 20
73.4000565067
 11
48.0631679434
 21
73.4246216237
  0
POLYLINE
  8
0
 62
9
  6
CONTINUOUS
 66
1
 70
0
  0
VERTEX
  8
0
 62
9
  6
CONTINUOUS
 10
44.0286207466
 20
73.385723611
  0
VERTEX
  8
0
 62
9
  6
CONTINUOUS
 10
43.8243589577
 20
73.4000565067
  0
VERTEX
  8
0
 62
9
  6
CONTINUOUS
 10
43.6059492408
 20
73.4246216237
  0
VERTEX
  8
0
 62
9
  6
CONTINUOUS
 10
43.3857093311
 20
73.4363238512
  0
SEQEND
  0
POLYLINE
  8
0
 62
9
  6
CONTINUOUS
 66
1
 70
0
  0
VERTEX
  8
0
 62
9
  6
CONTINUOUS
 10
63.2275868427
 20
89.2363238512
  0
VERTEX
  8
0
 62
9
  6
CONTINUOUS
 10
63.7147794474
 20
88.9434233761
  0
VERTEX
  8
0
 62
9
  6
CONTINUOUS
 10
63.9165741604
 20
88.2363238512
  0
SEQEND
  0
POLYLINE
  8
0
 62
9
  6
CONTINUOUS
 66
1
 70
0
  0
VERTEX
  8
0
 62
9
  6
CONTINUOUS
 10
91.2942759983
 20
73.4363238512
  0
VERTEX
  8
0
 62
9
  6
CONTINUOUS
 10
90.9390921221
 20
73.7292181027
  0
VERTEX
  8
0
 62
9
  6
CONTINUOUS
 10
90.7919713437
 20
74.4363238512
  0
SEQEND
  0
POLYLINE
  8
0
 62
9
  6
CONTINUOUS
 66
1
 70
0
  0
VERTEX
  8
0
 62
9
  6
CONTINUOUS
 10
88.0325418044
 20
73.385723611
  0
VERTEX
  8
0
 62
9
  6
CONTINUOUS
 10
87.9779844078
 20
73.5990044905
  0
VERTEX
  8
0
 62
9
  6
CONTINUOUS
 10
87.9412801215
 20
73.9290012919
  0
VERTEX
  8
0
 62
9
  6
CONTINUOUS
 10
87.9283500205
 20
74.3224733108
  0
SEQEND
  0
POLYLINE
  8
0
 62
9
  6
CONTINUOUS
 66
1
 70
0
  0
VERTEX
  8
0
 62
9
  6
CONTINUOUS
 10
88.4430106416
 20
73.385723611
  0
VERTEX
  8
0
 62
9
  6
CONTINUOUS
 10
88.3910821859
 20
73.5990024471
  0
VERTEX
  8
0
 62
9
  6
CONTINUOUS
 10
88.3561463029
 20
73.9289983532
  0
VERTEX
  8
0
 62
9
  6
CONTINUOUS
 10
88.343839175
 20
74.3224733108
  0
SEQEND
  0
POLYLINE
  8
0
 62
9
  6
CONTINUOUS
 66
1
 70
0
  0
VERTEX
  8
0
 62
9
  6
CONTINUOUS
 10
85.1221567539
 20
73.4363238512
  0
VERTEX
  8
0
 62
9
  6
CONTINUOUS
 10
85.2710139687
 20
73.729216747
  0
VERTEX
  8
0
 62
9
  6
CONTINUOUS
 10
85.3326727421
 20
74.4363238512
  0
SEQEND
  0
POLYLINE
  8
0
 62
9
  6
CONTINUOUS
 66
1
 70
0
  0
VERTEX
  8
0
 62
9
  6
CONTINUOUS
 10
95.143147275
 20
89.2363238512
  0
VERTEX
  8
0
 62
9
  6
CONTINUOUS
 10
94.4477688772
 20
88.9434306336
  0
VERTEX
  8
0
 62
9
  6
CONTINUOUS
 10
94.1597337113
 20
88.2363238512
  0
SEQEND
  0
POLYLINE
  8
0
 62
9
  6
CONTINUOUS
 66
1
 70
0
  0
VERTEX
  8
0
 62
9
  6
CONTINUOUS
 10
95.7014223195
 20
89.2363238512
  0
VERTEX
  8
0
 62
9
  6
CONTINUOUS
 10
95.1249553367
 20
89.0464976221
  0
VERTEX
  8
0
 62
9
  6
CONTINUOUS
 10
94.9066870355
 20
88.8253150649
  0
VERTEX
  8
0
 62
9
  6
CONTINUOUS
 10
94.7180087558
 20
88.2363238512
  0
SEQEND
  0
LINE
  8
0
 62
9
  6
CONTINUOUS
 10
50.0979240347
 20
73.4198791487
 11
49.8722839797
 21
73.4047570796
  0
POLYLINE
  8
0
 62
9
  6
CONTINUOUS
 66
1
 70
0
  0
VERTEX
  8
0
 62
9
  6
CONTINUOUS
 10
74.3775459816
 20
74.4363238512
  0
VERTEX
  8
0
 62
9
  6
CONTINUOUS
 10
73.7584013195
 20
74.4025525729
  0
VERTEX
  8
0
 62
9
  6
CONTINUOUS
 10
73.0004229334
 20
74.3432208283
  0
VERTEX
  8
0
 62
9
  6
CONTINUOUS
 10
72.3165991557
 20
74.3224733108
  0
SEQEND
  0
LINE
  8
0
 62
9
  6
CONTINUOUS
 10
50.4493839171
 20
73.4363238512
 11
50.0979240347
 21
73.4198791487
  0
POLYLINE
  8
0
 62
9
  6
CONTINUOUS
 66
1
 70
0
  0
VERTEX
  8
0
 62
9
  6
CONTINUOUS
 10
90.7919713443
 20
74.4363238512
  0
VERTEX
  8
0
 62
9
  6
CONTINUOUS
 10
89.9672825757
 20
74.3992722694
  0
VERTEX
  8
0
 62
9
  6
CONTINUOUS
 10
89.4842955531
 20
74.3652755786
  0
VERTEX
  8
0
 62
9
  6
CONTINUOUS
 10
88.343839175
 20
74.3224733108
  0
SEQEND
  0
POLYLINE
  8
0
 62
9
  6
CONTINUOUS
 66
1
 70
0
  0
VERTEX
  8
0
 62
9
  6
CONTINUOUS
 10
123.6502030751
 20
74.4363238512
  0
VERTEX
  8
0
 62
9
  6
CONTINUOUS
 10
122.7436127848
 20
74.3993410797
  0
VERTEX
  8
0
 62
9
  6
CONTINUOUS
 10
122.2464484116
 20
74.3653268924
  0
VERTEX
  8
0
 62
9
  6
CONTINUOUS
 10
121.1610636641
 20
74.3224733108
  0
SEQEND
  0
POLYLINE
  8
0
 62
9
  6
CONTINUOUS
 66
1
 70
0
  0
VERTEX
  8
0
 62
9
  6
CONTINUOUS
 10
107.7701718968
 20
74.4363238512
  0
VERTEX
  8
0
 62
9
  6
CONTINUOUS
 10
106.8604922853
 20
74.3993404121
  0
VERTEX
  8
0
 62
9
  6
CONTINUOUS
 10
106.3450839813
 20
74.3653264177
  0
VERTEX
  8
0
 62
9
  6
CONTINUOUS
 10
105.1744946181
 20
74.3224733108
  0
SEQEND
  0
LINE
  8
0
 62
9
  6
CONTINUOUS
 10
49.8722839797
 20
73.4047570796
 11
49.2935784511
 21
73.385723611
  0
LINE
  8
0
 62
9
  6
CONTINUOUS
 10
60.9967984618
 20
73.4347897764
 11
60.2238011247
 21
73.4117553946
  0
LINE
  8
0
 62
9
  6
CONTINUOUS
 10
60.2238011247
 20
73.4117553946
 11
59.119451301
 21
73.385723611
  0
POLYLINE
  8
0
 62
9
  6
CONTINUOUS
 66
1
 70
0
  0
VERTEX
  8
0
 62
9
  6
CONTINUOUS
 10
75.1224702222
 20
73.4363238512
  0
VERTEX
  8
0
 62
9
  6
CONTINUOUS
 10
74.3343848683
 20
73.4213082701
  0
VERTEX
  8
0
 62
9
  6
CONTINUOUS
 10
73.4105419852
 20
73.3949464378
  0
VERTEX
  8
0
 62
9
  6
CONTINUOUS
 10
72.6094262782
 20
73.385723611
  0
SEQEND
  0
POLYLINE
  8
0
 62
9
  6
CONTINUOUS
 66
1
 70
0
  0
VERTEX
  8
0
 62
9
  6
CONTINUOUS
 10
91.2942759983
 20
73.4363238512
  0
VERTEX
  8
0
 62
9
  6
CONTINUOUS
 10
90.3279953399
 20
73.4198485164
  0
VERTEX
  8
0
 62
9
  6
CONTINUOUS
 10
89.7639753328
 20
73.404734367
  0
VERTEX
  8
0
 62
9
  6
CONTINUOUS
 10
88.4430106416
 20
73.385723611
  0
SEQEND
  0
LINE
  8
0
 62
9
  6
CONTINUOUS
 10
149.0742238923
 20
73.385723611
 11
149.0092120153
 21
73.385723611
  0
LINE
  8
0
 62
9
  6
CONTINUOUS
 10
143.9979380036
 20
73.385723611
 11
143.8092661879
 21
73.385723611
  0
LINE
  8
0
 62
9
  6
CONTINUOUS
 10
134.2772565803
 20
73.385723611
 11
133.9833933379
 21
73.385723611
  0
LINE
  8
0
 62
9
  6
CONTINUOUS
 10
120.8637076483
 20
73.385723611
 11
120.4934183608
 21
73.385723611
  0
LINE
  8
0
 62
9
  6
CONTINUOUS
 10
105.0703028346
 20
73.385723611
 11
104.6598339974
 21
73.385723611
  0
LINE
  8
0
 62
9
  6
CONTINUOUS
 10
88.4430106416
 20
73.385723611
 11
88.0325418044
 21
73.385723611
  0
LINE
  8
0
 62
9
  6
CONTINUOUS
 10
72.6094262782
 20
73.385723611
 11
72.2391369907
 21
73.385723611
  0
LINE
  8
0
 62
9
  6
CONTINUOUS
 10
59.119451301
 20
73.385723611
 11
58.8255880586
 21
73.385723611
  0
LINE
  8
0
 62
9
  6
CONTINUOUS
 10
49.2935784511
 20
73.385723611
 11
49.1049066354
 21
73.385723611
  0
LINE
  8
0
 62
9
  6
CONTINUOUS
 10
44.0936326237
 20
73.385723611
 11
44.0286207466
 21
73.385723611
  0
LINE
  8
0
 62
7
  6
CONTINUOUS
 10
158.2105637747
 20
73.4363238512
 11
136.4733149809
 21
73.4363238512
  0
LINE
  8
0
 62
7
  6
CONTINUOUS
 10
133.4813899359
 20
73.4363238512
 11
123.5483240581
 21
73.4363238512
  0
LINE
  8
0
 62
7
  6
CONTINUOUS
 10
117.9803744556
 20
73.4363238512
 11
107.9806882956
 21
73.4363238512
  0
LINE
  8
0
 62
7
  6
CONTINUOUS
 10
101.8085689021
 20
73.4363238512
 11
91.2942763462
 21
73.4363238512
  0
LINE
  8
0
 62
7
  6
CONTINUOUS
 10
85.1221570648
 20
73.4363238512
 11
75.1224701513
 21
73.4363238512
  0
LINE
  8
0
 62
7
  6
CONTINUOUS
 10
69.5545213414
 20
73.4363238512
 11
59.6216823593
 21
73.4363238512
  0
LINE
  8
0
 62
7
  6
CONTINUOUS
 10
56.6295303831
 20
73.4363238512
 11
34.8922808642
 21
73.4363238512
  0
LINE
  8
0
 62
9
  6
CONTINUOUS
 10
134.7386695499
 20
74.3224733108
 11
134.4814200733
 21
74.3224733108
  0
LINE
  8
0
 62
9
  6
CONTINUOUS
 10
121.1610636641
 20
74.3224733108
 11
120.7862454833
 21
74.3224733108
  0
LINE
  8
0
 62
9
  6
CONTINUOUS
 10
105.1744946181
 20
74.3224733108
 11
104.759005464
 21
74.3224733108
  0
LINE
  8
0
 62
9
  6
CONTINUOUS
 10
88.343839175
 20
74.3224733108
 11
87.9283500209
 21
74.3224733108
  0
LINE
  8
0
 62
9
  6
CONTINUOUS
 10
72.3165991557
 20
74.3224733108
 11
71.9417809748
 21
74.3224733108
  0
LINE
  8
0
 62
9
  6
CONTINUOUS
 10
58.6214282202
 20
74.3224733108
 11
58.364175089
 21
74.3224733108
  0
LINE
  8
0
 62
9
  6
CONTINUOUS
 10
33.8923758702
 20
74.4363238512
 11
56.2252278542
 21
74.4363238512
  0
LINE
  8
0
 62
9
  6
CONTINUOUS
 10
58.6214282202
 20
74.4363238512
 11
69.4526415638
 21
74.4363238512
  0
LINE
  8
0
 62
9
  6
CONTINUOUS
 10
74.3775459816
 20
74.4363238512
 11
85.3326727421
 21
74.4363238512
  0
LINE
  8
0
 62
9
  6
CONTINUOUS
 10
90.7919713443
 20
74.4363238512
 11
102.3108732947
 21
74.4363238512
  0
LINE
  8
0
 62
9
  6
CONTINUOUS
 10
107.7701718968
 20
74.4363238512
 11
118.7252986573
 21
74.4363238512
  0
LINE
  8
0
 62
9
  6
CONTINUOUS
 10
123.6502030751
 20
74.4363238512
 11
134.4814200733
 21
74.4363238512
  0
LINE
  8
0
 62
9
  6
CONTINUOUS
 10
136.8776167848
 20
74.4363238512
 11
159.2104687687
 21
74.4363238512
  0
POLYLINE
  8
0
 62
9
  6
CONTINUOUS
 66
1
 70
0
  0
VERTEX
  8
0
 62
9
  6
CONTINUOUS
 10
120.4934183608
 20
73.385723611
  0
VERTEX
  8
0
 62
9
  6
CONTINUOUS
 10
119.7260308739
 20
73.3942133498
  0
VERTEX
  8
0
 62
9
  6
CONTINUOUS
 10
118.8319365304
 20
73.4193887574
  0
VERTEX
  8
0
 62
9
  6
CONTINUOUS
 10
117.9803744168
 20
73.4363238512
  0
SEQEND
  0
POLYLINE
  8
0
 62
9
  6
CONTINUOUS
 66
1
 70
0
  0
VERTEX
  8
0
 62
9
  6
CONTINUOUS
 10
104.6598339974
 20
73.385723611
  0
VERTEX
  8
0
 62
9
  6
CONTINUOUS
 10
103.530561755
 20
73.4000399288
  0
VERTEX
  8
0
 62
9
  6
CONTINUOUS
 10
102.5905139628
 20
73.4245976726
  0
VERTEX
  8
0
 62
9
  6
CONTINUOUS
 10
101.8085686406
 20
73.4363238512
  0
SEQEND
  0
LINE
  8
0
 62
9
  6
CONTINUOUS
 10
133.9833933379
 20
73.385723611
 11
133.0786057427
 21
73.4039907227
  0
LINE
  8
0
 62
9
  6
CONTINUOUS
 10
143.8092661879
 20
73.385723611
 11
143.3103320765
 21
73.4000564051
  0
POLYLINE
  8
0
 62
9
  6
CONTINUOUS
 66
1
 70
0
  0
VERTEX
  8
0
 62
9
  6
CONTINUOUS
 10
120.7862454833
 20
74.3224733108
  0
VERTEX
  8
0
 62
9
  6
CONTINUOUS
 10
120.1306012833
 20
74.3415808485
  0
VERTEX
  8
0
 62
9
  6
CONTINUOUS
 10
119.395429112
 20
74.3982284182
  0
VERTEX
  8
0
 62
9
  6
CONTINUOUS
 10
118.7252986573
 20
74.4363238512
  0
SEQEND
  0
POLYLINE
  8
0
 62
9
  6
CONTINUOUS
 66
1
 70
0
  0
VERTEX
  8
0
 62
9
  6
CONTINUOUS
 10
87.9283500209
 20
74.3224733108
  0
VERTEX
  8
0
 62
9
  6
CONTINUOUS
 10
86.9307345157
 20
74.3547451758
  0
VERTEX
  8
0
 62
9
  6
CONTINUOUS
 10
86.0717711901
 20
74.4099993231
  0
VERTEX
  8
0
 62
9
  6
CONTINUOUS
 10
85.3326727421
 20
74.4363238512
  0
SEQEND
  0
POLYLINE
  8
0
 62
9
  6
CONTINUOUS
 66
1
 70
0
  0
VERTEX
  8
0
 62
9
  6
CONTINUOUS
 10
104.759005464
 20
74.3224733108
  0
VERTEX
  8
0
 62
9
  6
CONTINUOUS
 10
103.7832001803
 20
74.3547077025
  0
VERTEX
  8
0
 62
9
  6
CONTINUOUS
 10
102.978090965
 20
74.4099455136
  0
VERTEX
  8
0
 62
9
  6
CONTINUOUS
 10
102.3108732947
 20
74.4363238512
  0
SEQEND
  0
POLYLINE
  8
0
 62
9
  6
CONTINUOUS
 66
1
 70
0
  0
VERTEX
  8
0
 62
9
  6
CONTINUOUS
 10
71.9417809748
 20
74.3224733108
  0
VERTEX
  8
0
 62
9
  6
CONTINUOUS
 10
71.0206251594
 20
74.3547449395
  0
VERTEX
  8
0
 62
9
  6
CONTINUOUS
 10
70.1921060527
 20
74.4099989049
  0
VERTEX
  8
0
 62
9
  6
CONTINUOUS
 10
69.4526415638
 20
74.4363238512
  0
SEQEND
  0
POLYLINE
  8
0
 62
9
  6
CONTINUOUS
 66
1
 70
0
  0
VERTEX
  8
0
 62
9
  6
CONTINUOUS
 10
133.0786057427
 20
73.4039907227
  0
VERTEX
  8
0
 62
9
  6
CONTINUOUS
 10
132.6925884641
 20
73.419316614
  0
VERTEX
  8
0
 62
9
  6
CONTINUOUS
 10
132.1538241553
 20
73.4336779874
  0
SEQEND
  0
LINE
  8
0
 62
9
  6
CONTINUOUS
 10
142.9343325692
 20
73.4246214439
 11
142.6534607218
 21
73.4363238512
  0
LINE
  8
0
 62
9
  6
CONTINUOUS
 10
143.3103320765
 20
73.4000564051
 11
142.9343325692
 21
73.4246214439
  0
POLYLINE
  8
0
 62
9
  6
CONTINUOUS
 66
1
 70
0
  0
VERTEX
  8
0
 62
9
  6
CONTINUOUS
 10
95.7014223195
 20
73.4363238512
  0
VERTEX
  8
0
 62
9
  6
CONTINUOUS
 10
95.1233863299
 20
73.6273068568
  0
VERTEX
  8
0
 62
9
  6
CONTINUOUS
 10
94.905824034
 20
73.8485385989
  0
VERTEX
  8
0
 62
9
  6
CONTINUOUS
 10
94.7180087558
 20
74.4363238512
  0
SEQEND
  0
POLYLINE
  8
0
 62
9
  6
CONTINUOUS
 66
1
 70
0
  0
VERTEX
  8
0
 62
9
  6
CONTINUOUS
 10
95.143147275
 20
73.4363238512
  0
VERTEX
  8
0
 62
9
  6
CONTINUOUS
 10
94.4477579167
 20
73.7292282146
  0
VERTEX
  8
0
 62
9
  6
CONTINUOUS
 10
94.1597337128
 20
74.4363238512
  0
SEQEND
  0
POLYLINE
  8
0
 62
9
  6
CONTINUOUS
 66
1
 70
0
  0
VERTEX
  8
0
 62
9
  6
CONTINUOUS
 10
60.9967527483
 20
89.2363238512
  0
VERTEX
  8
0
 62
9
  6
CONTINUOUS
 10
61.4017293352
 20
89.0453408456
  0
VERTEX
  8
0
 62
9
  6
CONTINUOUS
 10
61.5541552007
 20
88.8241091035
  0
VERTEX
  8
0
 62
9
  6
CONTINUOUS
 10
61.6857400703
 20
88.2363238512
  0
SEQEND
  0
POLYLINE
  8
0
 62
9
  6
CONTINUOUS
 66
1
 70
0
  0
VERTEX
  8
0
 62
9
  6
CONTINUOUS
 10
85.1221567539
 20
89.2363238512
  0
VERTEX
  8
0
 62
9
  6
CONTINUOUS
 10
85.2710148923
 20
88.9434290558
  0
VERTEX
  8
0
 62
9
  6
CONTINUOUS
 10
85.3326727426
 20
88.2363238512
  0
SEQEND
  0
POLYLINE
  8
0
 62
9
  6
CONTINUOUS
 66
1
 70
0
  0
VERTEX
  8
0
 62
9
  6
CONTINUOUS
 10
95.7014223195
 20
73.4363238512
  0
VERTEX
  8
0
 62
9
  6
CONTINUOUS
 10
95.6933421876
 20
73.6261500934
  0
VERTEX
  8
0
 62
9
  6
CONTINUOUS
 10
95.6902827989
 20
73.8473326652
  0
VERTEX
  8
0
 62
9
  6
CONTINUOUS
 10
95.6876381631
 20
74.4363238512
  0
SEQEND
  0
LINE
  8
0
 62
9
  6
CONTINUOUS
 10
94.1597337113
 20
74.4363238512
 11
94.1597337113
 21
88.2363238512
  0
LINE
  8
0
 62
9
  6
CONTINUOUS
 10
94.7180087558
 20
74.4363238512
 11
94.7180087558
 21
88.2363238512
  0
LINE
  8
0
 62
9
  6
CONTINUOUS
 10
95.6876381631
 20
74.4363238512
 11
95.6876381631
 21
88.2363238512
  0
LINE
  8
AXES
 62
2
  6
CENTER
 10
96.5514223195
 20
66.8363238512
 11
96.5514223195
 21
95.8363238512
  0
POLYLINE
  8
0
 62
9
  6
CONTINUOUS
 66
1
 70
0
  0
VERTEX
  8
0
 62
9
  6
CONTINUOUS
 10
95.7014223195
 20
89.2363238512
  0
VERTEX
  8
0
 62
9
  6
CONTINUOUS
 10
95.6933201957
 20
89.0453408456
  0
VERTEX
  8
0
 62
9
  6
CONTINUOUS
 10
95.6902707028
 20
88.8241091035
  0
VERTEX
  8
0
 62
9
  6
CONTINUOUS
 10
95.6876381631
 20
88.2363238512
  0
SEQEND
  0
POLYLINE
  8
0
 62
9
  6
CONTINUOUS
 66
1
 70
0
  0
VERTEX
  8
0
 62
9
  6
CONTINUOUS
 10
79.7724192395
 20
73.4363238512
  0
VERTEX
  8
0
 62
9
  6
CONTINUOUS
 10
80.39413098
 20
73.7292170695
  0
VERTEX
  8
0
 62
9
  6
CONTINUOUS
 10
80.6516524171
 20
74.4363238512
  0
SEQEND
  0
POLYLINE
  8
0
 62
9
  6
CONTINUOUS
 66
1
 70
0
  0
VERTEX
  8
0
 62
9
  6
CONTINUOUS
 10
113.3304253994
 20
89.2363238512
  0
VERTEX
  8
0
 62
9
  6
CONTINUOUS
 10
112.7087136599
 20
88.9434306336
  0
VERTEX
  8
0
 62
9
  6
CONTINUOUS
 10
112.4511922219
 20
88.2363238512
  0
SEQEND
  0
POLYLINE
  8
0
 62
9
  6
CONTINUOUS
 66
1
 70
0
  0
VERTEX
  8
0
 62
9
  6
CONTINUOUS
 10
114.7967468489
 20
89.2363238512
  0
VERTEX
  8
0
 62
9
  6
CONTINUOUS
 10
114.2813493439
 20
89.0464976221
  0
VERTEX
  8
0
 62
9
  6
CONTINUOUS
 10
114.0862038435
 20
88.8253150649
  0
VERTEX
  8
0
 62
9
  6
CONTINUOUS
 10
113.9175136713
 20
88.2363238512
  0
SEQEND
  0
LINE
  8
DEFAULT_1
 62
2
  6
CENTER
 10
31.8864223195
 20
81.3363238512
 11
161.2164223195
 21
81.3363238512
  0
POLYLINE
  8
0
 62
9
  6
CONTINUOUS
 66
1
 70
0
  0
VERTEX
  8
0
 62
9
  6
CONTINUOUS
 10
149.0092120153
 20
73.385723611
  0
VERTEX
  8
0
 62
9
  6
CONTINUOUS
 10
148.8542926473
 20
73.4000565067
  0
VERTEX
  8
0
 62
9
  6
CONTINUOUS
 10
148.7714423031
 20
73.4246216237
  0
VERTEX
  8
0
 62
9
  6
CONTINUOUS
 10
148.7395676557
 20
73.4363238512
  0
SEQEND
  0
POLYLINE
  8
0
 62
9
  6
CONTINUOUS
 66
1
 70
0
  0
VERTEX
  8
0
 62
9
  6
CONTINUOUS
 10
114.7967468489
 20
73.4363238512
  0
VERTEX
  8
0
 62
9
  6
CONTINUOUS
 10
114.2799465538
 20
73.6273068568
  0
VERTEX
  8
0
 62
9
  6
CONTINUOUS
 10
114.0854322662
 20
73.8485385989
  0
VERTEX
  8
0
 62
9
  6
CONTINUOUS
 10
113.9175136713
 20
74.4363238512
  0
SEQEND
  0
POLYLINE
  8
0
 62
9
  6
CONTINUOUS
 66
1
 70
0
  0
VERTEX
  8
0
 62
9
  6
CONTINUOUS
 10
79.7724192395
 20
89.2363238512
  0
VERTEX
  8
0
 62
9
  6
CONTINUOUS
 10
80.3941373599
 20
88.9434233761
  0
VERTEX
  8
0
 62
9
  6
CONTINUOUS
 10
80.6516524142
 20
88.2363238512
  0
SEQEND
  0
POLYLINE
  8
0
 62
9
  6
CONTINUOUS
 66
1
 70
0
  0
VERTEX
  8
0
 62
9
  6
CONTINUOUS
 10
113.3304253994
 20
73.4363238512
  0
VERTEX
  8
0
 62
9
  6
CONTINUOUS
 10
112.708703861
 20
73.7292282146
  0
VERTEX
  8
0
 62
9
  6
CONTINUOUS
 10
112.4511922258
 20
74.4363238512
  0
SEQEND
  0
POLYLINE
  8
0
 62
9
  6
CONTINUOUS
 66
1
 70
0
  0
VERTEX
  8
0
 62
9
  6
CONTINUOUS
 10
97.4014223195
 20
89.2363238512
  0
VERTEX
  8
0
 62
9
  6
CONTINUOUS
 10
97.4095024513
 20
89.046497609
  0
VERTEX
  8
0
 62
9
  6
CONTINUOUS
 10
97.4125618401
 20
88.8253150372
  0
VERTEX
  8
0
 62
9
  6
CONTINUOUS
 10
97.4152064758
 20
88.2363238512
  0
SEQEND
  0
LINE
  8
0
 62
9
  6
CONTINUOUS
 10
97.4152064758
 20
74.4363238512
 11
97.4152064758
 21
88.2363238512
  0
LINE
  8
0
 62
9
  6
CONTINUOUS
 10
98.3848358831
 20
74.4363238512
 11
98.3848358831
 21
88.2363238512
  0
LINE
  8
0
 62
9
  6
CONTINUOUS
 10
98.9431109276
 20
74.4363238512
 11
98.9431109276
 21
88.2363238512
  0
POLYLINE
  8
0
 62
9
  6
CONTINUOUS
 66
1
 70
0
  0
VERTEX
  8
0
 62
9
  6
CONTINUOUS
 10
97.4014223195
 20
73.4363238512
  0
VERTEX
  8
0
 62
9
  6
CONTINUOUS
 10
97.4095244433
 20
73.6273068568
  0
VERTEX
  8
0
 62
9
  6
CONTINUOUS
 10
97.4125739362
 20
73.8485385989
  0
VERTEX
  8
0
 62
9
  6
CONTINUOUS
 10
97.4152064758
 20
74.4363238512
  0
SEQEND
  0
POLYLINE
  8
0
 62
9
  6
CONTINUOUS
 66
1
 70
0
  0
VERTEX
  8
0
 62
9
  6
CONTINUOUS
 10
78.3060977901
 20
73.4363238512
  0
VERTEX
  8
0
 62
9
  6
CONTINUOUS
 10
78.821495295
 20
73.6261500803
  0
VERTEX
  8
0
 62
9
  6
CONTINUOUS
 10
79.0166407955
 20
73.8473326375
  0
VERTEX
  8
0
 62
9
  6
CONTINUOUS
 10
79.1853309676
 20
74.4363238512
  0
SEQEND
  0
POLYLINE
  8
0
 62
9
  6
CONTINUOUS
 66
1
 70
0
  0
VERTEX
  8
0
 62
9
  6
CONTINUOUS
 10
44.0936326237
 20
89.2869240914
  0
VERTEX
  8
0
 62
9
  6
CONTINUOUS
 10
44.2686753216
 20
89.267981235
  0
VERTEX
  8
0
 62
9
  6
CONTINUOUS
 10
44.3185040477
 20
89.2528583948
  0
VERTEX
  8
0
 62
9
  6
CONTINUOUS
 10
44.3632217873
 20
89.236324287
  0
SEQEND
  0
POLYLINE
  8
0
 62
9
  6
CONTINUOUS
 66
1
 70
0
  0
VERTEX
  8
0
 62
9
  6
CONTINUOUS
 10
78.3060977901
 20
89.2363238512
  0
VERTEX
  8
0
 62
9
  6
CONTINUOUS
 10
78.8228980852
 20
89.0453408456
  0
VERTEX
  8
0
 62
9
  6
CONTINUOUS
 10
79.0174123727
 20
88.8241091035
  0
VERTEX
  8
0
 62
9
  6
CONTINUOUS
 10
79.1853309676
 20
88.2363238512
  0
SEQEND
  0
LINE
  8
0
 62
9
  6
CONTINUOUS
 10
104.759005464
 20
74.3224733108
 11
104.759005464
 21
88.3501743916
  0
LINE
  8
0
 62
9
  6
CONTINUOUS
 10
105.1744946181
 20
74.3224733108
 11
105.1744946181
 21
88.3501743916
  0
POLYLINE
  8
0
 62
9
  6
CONTINUOUS
 66
1
 70
0
  0
VERTEX
  8
0
 62
9
  6
CONTINUOUS
 10
107.9806878851
 20
89.2363238512
  0
VERTEX
  8
0
 62
9
  6
CONTINUOUS
 10
107.8318306253
 20
88.9434307419
  0
VERTEX
  8
0
 62
9
  6
CONTINUOUS
 10
107.7701718968
 20
88.2363238512
  0
SEQEND
  0
POLYLINE
  8
0
 62
9
  6
CONTINUOUS
 66
1
 70
0
  0
VERTEX
  8
0
 62
9
  6
CONTINUOUS
 10
132.1060918907
 20
89.2363238512
  0
VERTEX
  8
0
 62
9
  6
CONTINUOUS
 10
131.7022145623
 20
89.0464976221
  0
VERTEX
  8
0
 62
9
  6
CONTINUOUS
 10
131.5492940639
 20
88.8253150649
  0
VERTEX
  8
0
 62
9
  6
CONTINUOUS
 10
131.4171045686
 20
88.2363238512
  0
SEQEND
  0
POLYLINE
  8
0
 62
9
  6
CONTINUOUS
 66
1
 70
0
  0
VERTEX
  8
0
 62
9
  6
CONTINUOUS
 10
97.959697364
 20
73.4363238512
  0
VERTEX
  8
0
 62
9
  6
CONTINUOUS
 10
98.6550757626
 20
73.7292170695
  0
VERTEX
  8
0
 62
9
  6
CONTINUOUS
 10
98.9431109276
 20
74.4363238512
  0
SEQEND
  0
POLYLINE
  8
0
 62
9
  6
CONTINUOUS
 66
1
 70
0
  0
VERTEX
  8
0
 62
9
  6
CONTINUOUS
 10
97.4014223195
 20
73.4363238512
  0
VERTEX
  8
0
 62
9
  6
CONTINUOUS
 10
97.9778893023
 20
73.6261500803
  0
VERTEX
  8
0
 62
9
  6
CONTINUOUS
 10
98.1961576035
 20
73.8473326375
  0
VERTEX
  8
0
 62
9
  6
CONTINUOUS
 10
98.3848358831
 20
74.4363238512
  0
SEQEND
  0
LINE
  8
0
 62
9
  6
CONTINUOUS
 10
143.0027581267
 20
89.2526202209
 11
143.2282471413
 21
89.2677467042
  0
POLYLINE
  8
0
 62
9
  6
CONTINUOUS
 66
1
 70
0
  0
VERTEX
  8
0
 62
9
  6
CONTINUOUS
 10
118.7252986573
 20
88.2363238512
  0
VERTEX
  8
0
 62
9
  6
CONTINUOUS
 10
119.3191320849
 20
88.2679816513
  0
VERTEX
  8
0
 62
9
  6
CONTINUOUS
 10
120.0597435598
 20
88.3268309389
  0
VERTEX
  8
0
 62
9
  6
CONTINUOUS
 10
120.7862454833
 20
88.3501743916
  0
SEQEND
  0
LINE
  8
0
 62
9
  6
CONTINUOUS
 10
142.6534607218
 20
89.2363238512
 11
143.0027581267
 21
89.2526202209
  0
POLYLINE
  8
0
 62
9
  6
CONTINUOUS
 66
1
 70
0
  0
VERTEX
  8
0
 62
9
  6
CONTINUOUS
 10
56.2252278542
 20
88.2363238512
  0
VERTEX
  8
0
 62
9
  6
CONTINUOUS
 10
57.0355700593
 20
88.2729694115
  0
VERTEX
  8
0
 62
9
  6
CONTINUOUS
 10
57.4661098155
 20
88.3069929106
  0
VERTEX
  8
0
 62
9
  6
CONTINUOUS
 10
58.364175089
 20
88.3501743916
  0
SEQEND
  0
POLYLINE
  8
0
 62
9
  6
CONTINUOUS
 66
1
 70
0
  0
VERTEX
  8
0
 62
9
  6
CONTINUOUS
 10
102.3108732947
 20
88.2363238512
  0
VERTEX
  8
0
 62
9
  6
CONTINUOUS
 10
103.1304153687
 20
88.2730127789
  0
VERTEX
  8
0
 62
9
  6
CONTINUOUS
 10
103.6134946979
 20
88.3070291127
  0
VERTEX
  8
0
 62
9
  6
CONTINUOUS
 10
104.759005464
 20
88.3501743916
  0
SEQEND
  0
POLYLINE
  8
0
 62
9
  6
CONTINUOUS
 66
1
 70
0
  0
VERTEX
  8
0
 62
9
  6
CONTINUOUS
 10
69.4526415638
 20
88.2363238512
  0
VERTEX
  8
0
 62
9
  6
CONTINUOUS
 10
70.3541894337
 20
88.2729694178
  0
VERTEX
  8
0
 62
9
  6
CONTINUOUS
 10
70.8515464052
 20
88.3069929151
  0
VERTEX
  8
0
 62
9
  6
CONTINUOUS
 10
71.9417809748
 20
88.3501743916
  0
SEQEND
  0
POLYLINE
  8
0
 62
9
  6
CONTINUOUS
 66
1
 70
0
  0
VERTEX
  8
0
 62
9
  6
CONTINUOUS
 10
85.3326727421
 20
88.2363238512
  0
VERTEX
  8
0
 62
9
  6
CONTINUOUS
 10
86.2371763086
 20
88.2729694115
  0
VERTEX
  8
0
 62
9
  6
CONTINUOUS
 10
86.7526657826
 20
88.3069929106
  0
VERTEX
  8
0
 62
9
  6
CONTINUOUS
 10
87.9283500209
 20
88.3501743916
  0
SEQEND
  0
LINE
  8
0
 62
9
  6
CONTINUOUS
 10
143.2282471413
 20
89.2677467042
 11
143.8092661879
 21
89.2869240914
  0
LINE
  8
0
 62
9
  6
CONTINUOUS
 10
132.1060461977
 20
89.2378575801
 11
132.87851276
 21
89.2608709446
  0
LINE
  8
0
 62
9
  6
CONTINUOUS
 10
132.87851276
 20
89.2608709446
 11
133.9833933379
 21
89.2869240914
  0
POLYLINE
  8
0
 62
9
  6
CONTINUOUS
 66
1
 70
0
  0
VERTEX
  8
0
 62
9
  6
CONTINUOUS
 10
56.6295300706
 20
89.2363238512
  0
VERTEX
  8
0
 62
9
  6
CONTINUOUS
 10
57.4082451665
 20
89.2526202183
  0
VERTEX
  8
0
 62
9
  6
CONTINUOUS
 10
57.8460656026
 20
89.2677467023
  0
VERTEX
  8
0
 62
9
  6
CONTINUOUS
 10
58.8255880586
 20
89.2869240914
  0
SEQEND
  0
POLYLINE
  8
0
 62
9
  6
CONTINUOUS
 66
1
 70
0
  0
VERTEX
  8
0
 62
9
  6
CONTINUOUS
 10
117.9803744168
 20
89.2363238512
  0
VERTEX
  8
0
 62
9
  6
CONTINUOUS
 10
118.7368682534
 20
89.2503991567
  0
VERTEX
  8
0
 62
9
  6
CONTINUOUS
 10
119.6413590697
 20
89.2765477408
  0
VERTEX
  8
0
 62
9
  6
CONTINUOUS
 10
120.4934183608
 20
89.2869240914
  0
SEQEND
  0
POLYLINE
  8
0
 62
9
  6
CONTINUOUS
 66
1
 70
0
  0
VERTEX
  8
0
 62
9
  6
CONTINUOUS
 10
69.5545210131
 20
89.2363238512
  0
VERTEX
  8
0
 62
9
  6
CONTINUOUS
 10
70.4868042096
 20
89.2526202209
  0
VERTEX
  8
0
 62
9
  6
CONTINUOUS
 10
71.0204216579
 20
89.2677467042
  0
VERTEX
  8
0
 62
9
  6
CONTINUOUS
 10
72.2391369907
 20
89.2869240914
  0
SEQEND
  0
POLYLINE
  8
0
 62
9
  6
CONTINUOUS
 66
1
 70
0
  0
VERTEX
  8
0
 62
9
  6
CONTINUOUS
 10
101.8085686406
 20
89.2363238512
  0
VERTEX
  8
0
 62
9
  6
CONTINUOUS
 10
102.7688413524
 20
89.2526395318
  0
VERTEX
  8
0
 62
9
  6
CONTINUOUS
 10
103.3329835814
 20
89.2677626993
  0
VERTEX
  8
0
 62
9
  6
CONTINUOUS
 10
104.6598339974
 20
89.2869240914
  0
SEQEND
  0
POLYLINE
  8
0
 62
9
  6
CONTINUOUS
 66
1
 70
0
  0
VERTEX
  8
0
 62
9
  6
CONTINUOUS
 10
85.1221567539
 20
89.2363238512
  0
VERTEX
  8
0
 62
9
  6
CONTINUOUS
 10
86.1167494942
 20
89.2526202183
  0
VERTEX
  8
0
 62
9
  6
CONTINUOUS
 10
86.6939298105
 20
89.2677467023
  0
VERTEX
  8
0
 62
9
  6
CONTINUOUS
 10
88.0325418044
 20
89.2869240914
  0
SEQEND
  0
LINE
  8
0
 62
9
  6
CONTINUOUS
 10
33.8923758702
 20
88.2363238512
 11
56.2252278542
 21
88.2363238512
  0
LINE
  8
0
 62
9
  6
CONTINUOUS
 10
58.6214245657
 20
88.2363238512
 11
69.4526415638
 21
88.2363238512
  0
LINE
  8
0
 62
9
  6
CONTINUOUS
 10
74.3775459816
 20
88.2363238512
 11
85.3326727421
 21
88.2363238512
  0
LINE
  8
0
 62
9
  6
CONTINUOUS
 10
90.7919713443
 20
88.2363238512
 11
102.3108732947
 21
88.2363238512
  0
LINE
  8
0
 62
9
  6
CONTINUOUS
 10
107.7701718968
 20
88.2363238512
 11
118.7252986573
 21
88.2363238512
  0
LINE
  8
0
 62
9
  6
CONTINUOUS
 10
123.6502030751
 20
88.2363238512
 11
134.4814164187
 21
88.2363238512
  0
LINE
  8
0
 62
9
  6
CONTINUOUS
 10
136.8776167848
 20
88.2363238512
 11
159.2104687687
 21
88.2363238512
  0
LINE
  8
0
 62
9
  6
CONTINUOUS
 10
58.364175089
 20
88.3501743916
 11
58.6214245657
 21
88.3501743916
  0
LINE
  8
0
 62
9
  6
CONTINUOUS
 10
71.9417809748
 20
88.3501743916
 11
72.3165991557
 21
88.3501743916
  0
LINE
  8
0
 62
9
  6
CONTINUOUS
 10
87.9283500209
 20
88.3501743916
 11
88.343839175
 21
88.3501743916
  0
LINE
  8
0
 62
9
  6
CONTINUOUS
 10
104.759005464
 20
88.3501743916
 11
105.1744946181
 21
88.3501743916
  0
LINE
  8
0
 62
9
  6
CONTINUOUS
 10
120.7862454833
 20
88.3501743916
 11
121.1610636641
 21
88.3501743916
  0
LINE
  8
0
 62
9
  6
CONTINUOUS
 10
134.4814164187
 20
88.3501743916
 11
134.7386695499
 21
88.3501743916
  0
LINE
  8
0
 62
7
  6
CONTINUOUS
 10
34.8922808642
 20
89.2363238512
 11
56.6295301613
 21
89.2363238512
  0
LINE
  8
0
 62
7
  6
CONTINUOUS
 10
59.6214238578
 20
89.2363238512
 11
69.5545211082
 21
89.2363238512
  0
LINE
  8
0
 62
7
  6
CONTINUOUS
 10
75.1224701707
 20
89.2363238512
 11
85.1221568441
 21
89.2363238512
  0
LINE
  8
0
 62
7
  6
CONTINUOUS
 10
91.2942759346
 20
89.2363238512
 11
101.8085687175
 21
89.2363238512
  0
LINE
  8
0
 62
7
  6
CONTINUOUS
 10
107.9806878093
 20
89.2363238512
 11
117.9803744793
 21
89.2363238512
  0
LINE
  8
0
 62
7
  6
CONTINUOUS
 10
123.5483235459
 20
89.2363238512
 11
133.4814207811
 21
89.2363238512
  0
LINE
  8
0
 62
7
  6
CONTINUOUS
 10
136.4733144923
 20
89.2363238512
 11
158.2105014452
 21
89.2363238512
  0
LINE
  8
0
 62
9
  6
CONTINUOUS
 10
44.0286207466
 20
89.2869240914
 11
44.0936326237
 21
89.2869240914
  0
LINE
  8
0
 62
9
  6
CONTINUOUS
 10
49.1049066354
 20
89.2869240914
 11
49.2935784511
 21
89.2869240914
  0
LINE
  8
0
 62
9
  6
CONTINUOUS
 10
58.8255880586
 20
89.2869240914
 11
59.119451301
 21
89.2869240914
  0
LINE
  8
0
 62
9
  6
CONTINUOUS
 10
72.2391369907
 20
89.2869240914
 11
72.6094262782
 21
89.2869240914
  0
LINE
  8
0
 62
9
  6
CONTINUOUS
 10
88.0325418044
 20
89.2869240914
 11
88.4430106416
 21
89.2869240914
  0
LINE
  8
0
 62
9
  6
CONTINUOUS
 10
104.6598339974
 20
89.2869240914
 11
105.0703028346
 21
89.2869240914
  0
LINE
  8
0
 62
9
  6
CONTINUOUS
 10
120.4934183608
 20
89.2869240914
 11
120.8637076483
 21
89.2869240914
  0
LINE
  8
0
 62
9
  6
CONTINUOUS
 10
133.9833933379
 20
89.2869240914
 11
134.2772565803
 21
89.2869240914
  0
LINE
  8
0
 62
9
  6
CONTINUOUS
 10
143.8092661879
 20
89.2869240914
 11
143.9979380036
 21
89.2869240914
  0
LINE
  8
0
 62
9
  6
CONTINUOUS
 10
149.0092120153
 20
89.2869240914
 11
149.0742238923
 21
89.2869240914
  0
LINE
  8
AXES
 62
9
  6
CONTINUOUS
 10
43.9264223195
 20
90.0363238512
 11
149.1764223195
 21
90.0363238512
  0
POLYLINE
  8
0
 62
9
  6
CONTINUOUS
 66
1
 70
0
  0
VERTEX
  8
0
 62
9
  6
CONTINUOUS
 10
72.6094262782
 20
89.2869240914
  0
VERTEX
  8
0
 62
9
  6
CONTINUOUS
 10
73.567651077
 20
89.2739679633
  0
VERTEX
  8
0
 62
9
  6
CONTINUOUS
 10
74.1140641005
 20
89.2580994747
  0
VERTEX
  8
0
 62
9
  6
CONTINUOUS
 10
75.1224702222
 20
89.2363238512
  0
SEQEND
  0
POLYLINE
  8
0
 62
9
  6
CONTINUOUS
 66
1
 70
0
  0
VERTEX
  8
0
 62
9
  6
CONTINUOUS
 10
105.0703028346
 20
89.2869240914
  0
VERTEX
  8
0
 62
9
  6
CONTINUOUS
 10
106.3995751897
 20
89.267981235
  0
VERTEX
  8
0
 62
9
  6
CONTINUOUS
 10
106.976864971
 20
89.2528583948
  0
VERTEX
  8
0
 62
9
  6
CONTINUOUS
 10
107.9806878851
 20
89.2363238512
  0
SEQEND
  0
POLYLINE
  8
0
 62
9
  6
CONTINUOUS
 66
1
 70
0
  0
VERTEX
  8
0
 62
9
  6
CONTINUOUS
 10
88.4430106416
 20
89.2869240914
  0
VERTEX
  8
0
 62
9
  6
CONTINUOUS
 10
89.7604687436
 20
89.2680028092
  0
VERTEX
  8
0
 62
9
  6
CONTINUOUS
 10
90.3247772665
 20
89.2528842155
  0
VERTEX
  8
0
 62
9
  6
CONTINUOUS
 10
91.2942759983
 20
89.2363238512
  0
SEQEND
  0
POLYLINE
  8
0
 62
9
  6
CONTINUOUS
 66
1
 70
0
  0
VERTEX
  8
0
 62
9
  6
CONTINUOUS
 10
120.8637076483
 20
89.2869240914
  0
VERTEX
  8
0
 62
9
  6
CONTINUOUS
 10
122.0738280718
 20
89.267981277
  0
VERTEX
  8
0
 62
9
  6
CONTINUOUS
 10
122.607464771
 20
89.2528584541
  0
VERTEX
  8
0
 62
9
  6
CONTINUOUS
 10
123.5483236259
 20
89.2363238512
  0
SEQEND
  0
POLYLINE
  8
0
 62
9
  6
CONTINUOUS
 66
1
 70
0
  0
VERTEX
  8
0
 62
9
  6
CONTINUOUS
 10
134.2772565803
 20
89.2869240914
  0
VERTEX
  8
0
 62
9
  6
CONTINUOUS
 10
135.2497729894
 20
89.267981235
  0
VERTEX
  8
0
 62
9
  6
CONTINUOUS
 10
135.6875216428
 20
89.2528583948
  0
VERTEX
  8
0
 62
9
  6
CONTINUOUS
 10
136.4733145684
 20
89.2363238512
  0
SEQEND
  0
POLYLINE
  8
0
 62
9
  6
CONTINUOUS
 66
1
 70
0
  0
VERTEX
  8
0
 62
9
  6
CONTINUOUS
 10
59.119451301
 20
89.2869240914
  0
VERTEX
  8
0
 62
9
  6
CONTINUOUS
 10
60.2206690509
 20
89.2610185276
  0
VERTEX
  8
0
 62
9
  6
CONTINUOUS
 10
60.9490383133
 20
89.2392850641
  0
SEQEND
  0
LINE
  8
0
 62
9
  6
CONTINUOUS
 10
49.2935784511
 20
89.2869240914
 11
49.8708210186
 21
89.267981277
  0
POLYLINE
  8
0
 62
9
  6
CONTINUOUS
 66
1
 70
0
  0
VERTEX
  8
0
 62
9
  6
CONTINUOUS
 10
72.3165991557
 20
88.3501743916
  0
VERTEX
  8
0
 62
9
  6
CONTINUOUS
 10
73.1316615865
 20
88.3210200127
  0
VERTEX
  8
0
 62
9
  6
CONTINUOUS
 10
73.5806427743
 20
88.2853103034
  0
VERTEX
  8
0
 62
9
  6
CONTINUOUS
 10
74.3775459816
 20
88.2363238512
  0
SEQEND
  0
POLYLINE
  8
0
 62
9
  6
CONTINUOUS
 66
1
 70
0
  0
VERTEX
  8
0
 62
9
  6
CONTINUOUS
 10
105.1744946181
 20
88.3501743916
  0
VERTEX
  8
0
 62
9
  6
CONTINUOUS
 10
106.3419013629
 20
88.3075321384
  0
VERTEX
  8
0
 62
9
  6
CONTINUOUS
 10
106.8573368645
 20
88.2735157686
  0
VERTEX
  8
0
 62
9
  6
CONTINUOUS
 10
107.7701718968
 20
88.2363238512
  0
SEQEND
  0
POLYLINE
  8
0
 62
9
  6
CONTINUOUS
 66
1
 70
0
  0
VERTEX
  8
0
 62
9
  6
CONTINUOUS
 10
88.343839175
 20
88.3501743916
  0
VERTEX
  8
0
 62
9
  6
CONTINUOUS
 10
89.4813077948
 20
88.3075806921
  0
VERTEX
  8
0
 62
9
  6
CONTINUOUS
 10
89.9645045378
 20
88.2735739904
  0
VERTEX
  8
0
 62
9
  6
CONTINUOUS
 10
90.7919713443
 20
88.2363238512
  0
SEQEND
  0
POLYLINE
  8
0
 62
9
  6
CONTINUOUS
 66
1
 70
0
  0
VERTEX
  8
0
 62
9
  6
CONTINUOUS
 10
121.1610636641
 20
88.3501743916
  0
VERTEX
  8
0
 62
9
  6
CONTINUOUS
 10
122.2434063652
 20
88.3075322377
  0
VERTEX
  8
0
 62
9
  6
CONTINUOUS
 10
122.740521033
 20
88.2735159084
  0
VERTEX
  8
0
 62
9
  6
CONTINUOUS
 10
123.6502030751
 20
88.2363238512
  0
SEQEND
  0
LINE
  8
0
 62
9
  6
CONTINUOUS
 10
50.0966031201
 20
89.2528584541
 11
50.4493839171
 21
89.2363238512
  0
POLYLINE
  8
0
 62
9
  6
CONTINUOUS
 66
1
 70
0
  0
VERTEX
  8
0
 62
9
  6
CONTINUOUS
 10
134.7386695499
 20
88.3501743916
  0
VERTEX
  8
0
 62
9
  6
CONTINUOUS
 10
135.6300037983
 20
88.3075321384
  0
VERTEX
  8
0
 62
9
  6
CONTINUOUS
 10
136.0601377618
 20
88.2735157686
  0
VERTEX
  8
0
 62
9
  6
CONTINUOUS
 10
136.8776167848
 20
88.2363238512
  0
SEQEND
  0
LINE
  8
0
 62
9
  6
CONTINUOUS
 10
49.8708210186
 20
89.267981277
 11
50.0966031201
 21
89.2528584541
  0
POLYLINE
  8
0
 62
9
  6
CONTINUOUS
 66
1
 70
0
  0
VERTEX
  8
0
 62
9
  6
CONTINUOUS
 10
97.4014223195
 20
89.2363238512
  0
VERTEX
  8
0
 62
9
  6
CONTINUOUS
 10
97.9794583091
 20
89.0453408456
  0
VERTEX
  8
0
 62
9
  6
CONTINUOUS
 10
98.197020605
 20
88.8241091035
  0
VERTEX
  8
0
 62
9
  6
CONTINUOUS
 10
98.3848358831
 20
88.2363238512
  0
SEQEND
  0
POLYLINE
  8
0
 62
9
  6
CONTINUOUS
 66
1
 70
0
  0
VERTEX
  8
0
 62
9
  6
CONTINUOUS
 10
97.959697364
 20
89.2363238512
  0
VERTEX
  8
0
 62
9
  6
CONTINUOUS
 10
98.6550828988
 20
88.9434233761
  0
VERTEX
  8
0
 62
9
  6
CONTINUOUS
 10
98.9431109265
 20
88.2363238512
  0
SEQEND
  0
POLYLINE
  8
0
 62
9
  6
CONTINUOUS
 66
1
 70
0
  0
VERTEX
  8
0
 62
9
  6
CONTINUOUS
 10
132.1060918907
 20
73.4363238512
  0
VERTEX
  8
0
 62
9
  6
CONTINUOUS
 10
131.7011153038
 20
73.6273068568
  0
VERTEX
  8
0
 62
9
  6
CONTINUOUS
 10
131.5486894382
 20
73.8485385989
  0
VERTEX
  8
0
 62
9
  6
CONTINUOUS
 10
131.4171045686
 20
74.4363238512
  0
SEQEND
  0
POLYLINE
  8
0
 62
9
  6
CONTINUOUS
 66
1
 70
0
  0
VERTEX
  8
0
 62
9
  6
CONTINUOUS
 10
107.9806878851
 20
73.4363238512
  0
VERTEX
  8
0
 62
9
  6
CONTINUOUS
 10
107.8318300224
 20
73.7292180813
  0
VERTEX
  8
0
 62
9
  6
CONTINUOUS
 10
107.7701718962
 20
74.4363238512
  0
SEQEND
  0
POLYLINE
  8
0
 62
9
  6
CONTINUOUS
 66
1
 70
0
  0
VERTEX
  8
0
 62
9
  6
CONTINUOUS
 10
104.6598339974
 20
73.385723611
  0
VERTEX
  8
0
 62
9
  6
CONTINUOUS
 10
104.7117629349
 20
73.5990044902
  0
VERTEX
  8
0
 62
9
  6
CONTINUOUS
 10
104.7466986832
 20
73.9290012915
  0
VERTEX
  8
0
 62
9
  6
CONTINUOUS
 10
104.7590054637
 20
74.3224733108
  0
SEQEND
  0
POLYLINE
  8
0
 62
9
  6
CONTINUOUS
 66
1
 70
0
  0
VERTEX
  8
0
 62
9
  6
CONTINUOUS
 10
105.0703028346
 20
73.385723611
  0
VERTEX
  8
0
 62
9
  6
CONTINUOUS
 10
105.1248600432
 20
73.5990024471
  0
VERTEX
  8
0
 62
9
  6
CONTINUOUS
 10
105.1615644714
 20
73.9289983532
  0
VERTEX
  8
0
 62
9
  6
CONTINUOUS
 10
105.1744946181
 20
74.3224733108
  0
SEQEND
  0
POLYLINE
  8
0
 62
9
  6
CONTINUOUS
 66
1
 70
0
  0
VERTEX
  8
0
 62
9
  6
CONTINUOUS
 10
101.8085686406
 20
73.4363238512
  0
VERTEX
  8
0
 62
9
  6
CONTINUOUS
 10
102.1637515055
 20
73.729216747
  0
VERTEX
  8
0
 62
9
  6
CONTINUOUS
 10
102.3108732947
 20
74.4363238512
  0
SEQEND
  0
POLYLINE
  8
0
 62
9
  6
CONTINUOUS
 66
1
 70
0
  0
VERTEX
  8
0
 62
9
  6
CONTINUOUS
 10
129.8752577962
 20
89.2363238512
  0
VERTEX
  8
0
 62
9
  6
CONTINUOUS
 10
129.3880701917
 20
88.9434306336
  0
VERTEX
  8
0
 62
9
  6
CONTINUOUS
 10
129.1862704742
 20
88.2363238512
  0
SEQEND
  0
POLYLINE
  8
0
 62
9
  6
CONTINUOUS
 66
1
 70
0
  0
VERTEX
  8
0
 62
9
  6
CONTINUOUS
 10
148.7395676557
 20
89.2363238512
  0
VERTEX
  8
0
 62
9
  6
CONTINUOUS
 10
148.78367787
 20
89.2526202183
  0
VERTEX
  8
0
 62
9
  6
CONTINUOUS
 10
148.8332338065
 20
89.2677467023
  0
VERTEX
  8
0
 62
9
  6
CONTINUOUS
 10
149.0092120153
 20
89.2869240914
  0
SEQEND
  0
POLYLINE
  8
0
 62
7
  6
CONTINUOUS
 66
1
 70
0
  0
VERTEX
  8
0
 62
7
  6
CONTINUOUS
 10
76.6893017124
 20
89.2363238512
  0
VERTEX
  8
0
 62
7
  6
CONTINUOUS
 10
76.3615010256
 20
89.1810707537
  0
VERTEX
  8
0
 62
7
  6
CONTINUOUS
 10
75.8508533584
 20
88.781304913
  0
VERTEX
  8
0
 62
7
  6
CONTINUOUS
 10
75.7137382968
 20
88.4560419028
  0
VERTEX
  8
0
 62
7
  6
CONTINUOUS
 10
75.6893023999
 20
88.2363238512
  0
SEQEND
  0
POLYLINE
  8
0
 62
9
  6
CONTINUOUS
 66
1
 70
0
  0
VERTEX
  8
0
 62
9
  6
CONTINUOUS
 10
43.3857093311
 20
89.2363238512
  0
VERTEX
  8
0
 62
9
  6
CONTINUOUS
 10
43.6511040836
 20
89.2526202183
  0
VERTEX
  8
0
 62
9
  6
CONTINUOUS
 10
43.7823321139
 20
89.2677467023
  0
VERTEX
  8
0
 62
9
  6
CONTINUOUS
 10
44.0286207466
 20
89.2869240914
  0
SEQEND
  0
LINE
  8
0
 62
9
  6
CONTINUOUS
 10
48.1612931254
 20
89.2526202183
 11
48.4604596085
 21
89.2677467023
  0
LINE
  8
0
 62
9
  6
CONTINUOUS
 10
48.4604596085
 20
89.2677467023
 11
49.1049066354
 21
89.2869240914
  0
LINE
  8
AXES
 62
9
  6
CONTINUOUS
 10
43.9264223195
 20
92.8363238512
 11
149.1764223195
 21
92.8363238512
  0
LINE
  8
AXES
 62
7
  6
CONTINUOUS
 10
148.1764223195
 20
93.8363238512
 11
44.9264223195
 21
93.8363238512
  0
LINE
  8
0
 62
9
  6
CONTINUOUS
 10
143.9979380036
 20
89.2869240914
 11
144.6376521728
 21
89.267981235
  0
LINE
  8
0
 62
9
  6
CONTINUOUS
 10
144.6376521728
 20
89.267981235
 11
144.9366623063
 21
89.2528583948
  0
POLYLINE
  8
0
 62
9
  6
CONTINUOUS
 66
1
 70
0
  0
VERTEX
  8
0
 62
9
  6
CONTINUOUS
 10
149.0742238923
 20
89.2869240914
  0
VERTEX
  8
0
 62
9
  6
CONTINUOUS
 10
149.3185161417
 20
89.267981235
  0
VERTEX
  8
0
 62
9
  6
CONTINUOUS
 10
149.4495185601
 20
89.2528583948
  0
VERTEX
  8
0
 62
9
  6
CONTINUOUS
 10
149.7171353078
 20
89.2363238512
  0
SEQEND
  0
POLYLINE
  8
0
 62
9
  6
CONTINUOUS
 66
1
 70
0
  0
VERTEX
  8
0
 62
9
  6
CONTINUOUS
 10
129.8752577962
 20
73.4363238512
  0
VERTEX
  8
0
 62
9
  6
CONTINUOUS
 10
129.3880625136
 20
73.7292282146
  0
VERTEX
  8
0
 62
9
  6
CONTINUOUS
 10
129.1862704802
 20
74.4363238512
  0
SEQEND
  0
POLYLINE
  8
0
 62
9
  6
CONTINUOUS
 66
1
 70
0
  0
VERTEX
  8
0
 62
9
  6
CONTINUOUS
 10
101.8085686406
 20
89.2363238512
  0
VERTEX
  8
0
 62
9
  6
CONTINUOUS
 10
102.163752932
 20
88.9434290435
  0
VERTEX
  8
0
 62
9
  6
CONTINUOUS
 10
102.3108732951
 20
88.2363238512
  0
SEQEND
  0
POLYLINE
  8
0
 62
9
  6
CONTINUOUS
 66
1
 70
0
  0
VERTEX
  8
0
 62
9
  6
CONTINUOUS
 10
105.0703028346
 20
89.2869240914
  0
VERTEX
  8
0
 62
9
  6
CONTINUOUS
 10
105.1248607035
 20
89.0736414756
  0
VERTEX
  8
0
 62
9
  6
CONTINUOUS
 10
105.1615648701
 20
88.7436439122
  0
VERTEX
  8
0
 62
9
  6
CONTINUOUS
 10
105.1744946171
 20
88.3501743916
  0
SEQEND
  0
POLYLINE
  8
0
 62
9
  6
CONTINUOUS
 66
1
 70
0
  0
VERTEX
  8
0
 62
9
  6
CONTINUOUS
 10
104.6598339974
 20
89.2869240914
  0
VERTEX
  8
0
 62
9
  6
CONTINUOUS
 10
104.7117624529
 20
89.0736452552
  0
VERTEX
  8
0
 62
9
  6
CONTINUOUS
 10
104.746698336
 20
88.7436493492
  0
VERTEX
  8
0
 62
9
  6
CONTINUOUS
 10
104.759005464
 20
88.3501743916
  0
SEQEND
  0
LINE
  8
0
 62
9
  6
CONTINUOUS
 10
112.4511922219
 20
74.4363238512
 11
112.4511922219
 21
88.2363238512
  0
LINE
  8
0
 62
9
  6
CONTINUOUS
 10
113.9175136713
 20
74.4363238512
 11
113.9175136713
 21
88.2363238512
  0
POLYLINE
  8
0
 62
9
  6
CONTINUOUS
 66
1
 70
0
  0
VERTEX
  8
0
 62
9
  6
CONTINUOUS
 10
117.9803744168
 20
73.4363238512
  0
VERTEX
  8
0
 62
9
  6
CONTINUOUS
 10
118.5071151582
 20
73.729216747
  0
VERTEX
  8
0
 62
9
  6
CONTINUOUS
 10
118.7252986573
 20
74.4363238512
  0
SEQEND
  0
POLYLINE
  8
0
 62
7
  6
CONTINUOUS
 66
1
 70
0
  0
VERTEX
  8
0
 62
7
  6
CONTINUOUS
 10
116.4135429266
 20
89.2363238512
  0
VERTEX
  8
0
 62
7
  6
CONTINUOUS
 10
116.9963114119
 20
89.048962081
  0
VERTEX
  8
0
 62
7
  6
CONTINUOUS
 10
117.219879948
 20
88.8277801961
  0
VERTEX
  8
0
 62
7
  6
CONTINUOUS
 10
117.413542919
 20
88.2363238512
  0
SEQEND
  0
POLYLINE
  8
0
 62
9
  6
CONTINUOUS
 66
1
 70
0
  0
VERTEX
  8
0
 62
9
  6
CONTINUOUS
 10
117.9803744168
 20
89.2363238512
  0
VERTEX
  8
0
 62
9
  6
CONTINUOUS
 10
118.5071149088
 20
88.9434304347
  0
VERTEX
  8
0
 62
9
  6
CONTINUOUS
 10
118.7252986573
 20
88.2363238512
  0
SEQEND
  0
LINE
  8
0
 62
9
  6
CONTINUOUS
 10
115.0926249731
 20
74.4363238512
 11
115.0926249731
 21
88.2363238512
  0
LINE
  8
0
 62
9
  6
CONTINUOUS
 10
116.7356400742
 20
74.4363238512
 11
116.7356400742
 21
88.2363238512
  0
LINE
  8
0
 62
7
  6
CONTINUOUS
 10
117.4135429266
 20
88.2363238512
 11
117.4135429266
 21
74.4363238512
  0
POLYLINE
  8
0
 62
9
  6
CONTINUOUS
 66
1
 70
0
  0
VERTEX
  8
0
 62
9
  6
CONTINUOUS
 10
114.7967468489
 20
73.4363238512
  0
VERTEX
  8
0
 62
9
  6
CONTINUOUS
 10
114.9701875875
 20
73.6261500934
  0
VERTEX
  8
0
 62
9
  6
CONTINUOUS
 10
115.0358576357
 20
73.8473326652
  0
VERTEX
  8
0
 62
9
  6
CONTINUOUS
 10
115.0926249731
 20
74.4363238512
  0
SEQEND
  0
POLYLINE
  8
0
 62
9
  6
CONTINUOUS
 66
1
 70
0
  0
VERTEX
  8
0
 62
9
  6
CONTINUOUS
 10
116.4135429266
 20
73.4363238512
  0
VERTEX
  8
0
 62
9
  6
CONTINUOUS
 10
116.6028668797
 20
73.6273068568
  0
VERTEX
  8
0
 62
9
  6
CONTINUOUS
 10
116.6741249928
 20
73.8485385989
  0
VERTEX
  8
0
 62
9
  6
CONTINUOUS
 10
116.7356400742
 20
74.4363238512
  0
SEQEND
  0
POLYLINE
  8
0
 62
7
  6
CONTINUOUS
 66
1
 70
0
  0
VERTEX
  8
0
 62
7
  6
CONTINUOUS
 10
133.4814207811
 20
73.4363238512
  0
VERTEX
  8
0
 62
7
  6
CONTINUOUS
 10
134.0843169327
 20
73.6385041783
  0
VERTEX
  8
0
 62
7
  6
CONTINUOUS
 10
134.4533152531
 20
74.2009069118
  0
VERTEX
  8
0
 62
7
  6
CONTINUOUS
 10
134.4814200733
 20
74.4363238512
  0
SEQEND
  0
POLYLINE
  8
0
 62
7
  6
CONTINUOUS
 66
1
 70
0
  0
VERTEX
  8
0
 62
7
  6
CONTINUOUS
 10
133.4814207811
 20
89.2363238512
  0
VERTEX
  8
0
 62
7
  6
CONTINUOUS
 10
134.0874931893
 20
89.0317333282
  0
VERTEX
  8
0
 62
7
  6
CONTINUOUS
 10
134.3149251012
 20
88.7888367908
  0
VERTEX
  8
0
 62
7
  6
CONTINUOUS
 10
134.4814164187
 20
88.2363238512
  0
SEQEND
  0
POLYLINE
  8
0
 62
9
  6
CONTINUOUS
 66
1
 70
0
  0
VERTEX
  8
0
 62
9
  6
CONTINUOUS
 10
116.4135429266
 20
89.2363238512
  0
VERTEX
  8
0
 62
9
  6
CONTINUOUS
 10
116.6023529893
 20
89.046497609
  0
VERTEX
  8
0
 62
9
  6
CONTINUOUS
 10
116.6738423407
 20
88.8253150372
  0
VERTEX
  8
0
 62
9
  6
CONTINUOUS
 10
116.7356400742
 20
88.2363238512
  0
SEQEND
  0
POLYLINE
  8
0
 62
9
  6
CONTINUOUS
 66
1
 70
0
  0
VERTEX
  8
0
 62
9
  6
CONTINUOUS
 10
114.7967468489
 20
89.2363238512
  0
VERTEX
  8
0
 62
9
  6
CONTINUOUS
 10
114.9706596468
 20
89.0453408456
  0
VERTEX
  8
0
 62
9
  6
CONTINUOUS
 10
115.0361172796
 20
88.8241091035
  0
VERTEX
  8
0
 62
9
  6
CONTINUOUS
 10
115.0926249731
 20
88.2363238512
  0
SEQEND
  0
LINE
  8
0
 62
7
  6
CONTINUOUS
 10
120.4231421261
 20
68.8363238512
 11
120.4231421261
 21
68.6363238512
  0
LINE
  8
0
 62
9
  6
CONTINUOUS
 10
120.7862454833
 20
74.3224733108
 11
120.7862454833
 21
88.3501743916
  0
LINE
  8
0
 62
9
  6
CONTINUOUS
 10
121.1610636641
 20
74.3224733108
 11
121.1610636641
 21
88.3501743916
  0
LINE
  8
0
 62
7
  6
CONTINUOUS
 10
122.6587095378
 20
68.8363238512
 11
122.6587095378
 21
68.6363238512
  0
POLYLINE
  8
0
 62
9
  6
CONTINUOUS
 66
1
 70
0
  0
VERTEX
  8
0
 62
9
  6
CONTINUOUS
 10
120.4934183608
 20
73.385723611
  0
VERTEX
  8
0
 62
9
  6
CONTINUOUS
 10
120.6467494798
 20
73.5990026746
  0
VERTEX
  8
0
 62
9
  6
CONTINUOUS
 10
120.7499058609
 20
73.9289986741
  0
VERTEX
  8
0
 62
9
  6
CONTINUOUS
 10
120.7862454833
 20
74.3224733108
  0
SEQEND
  0
POLYLINE
  8
0
 62
9
  6
CONTINUOUS
 66
1
 70
0
  0
VERTEX
  8
0
 62
9
  6
CONTINUOUS
 10
120.8637076483
 20
73.385723611
  0
VERTEX
  8
0
 62
9
  6
CONTINUOUS
 10
121.0194100815
 20
73.5990024471
  0
VERTEX
  8
0
 62
9
  6
CONTINUOUS
 10
121.1241619357
 20
73.9289983532
  0
VERTEX
  8
0
 62
9
  6
CONTINUOUS
 10
121.1610636641
 20
74.3224733108
  0
SEQEND
  0
POLYLINE
  8
0
 62
9
  6
CONTINUOUS
 66
1
 70
0
  0
VERTEX
  8
0
 62
9
  6
CONTINUOUS
 10
145.9350981509
 20
89.2363238512
  0
VERTEX
  8
0
 62
9
  6
CONTINUOUS
 10
145.6822753261
 20
89.0464976221
  0
VERTEX
  8
0
 62
9
  6
CONTINUOUS
 10
145.5865487535
 20
88.8253150649
  0
VERTEX
  8
0
 62
9
  6
CONTINUOUS
 10
145.5037995639
 20
88.2363238512
  0
SEQEND
  0
POLYLINE
  8
0
 62
9
  6
CONTINUOUS
 66
1
 70
0
  0
VERTEX
  8
0
 62
9
  6
CONTINUOUS
 10
132.1060918907
 20
73.4363238512
  0
VERTEX
  8
0
 62
9
  6
CONTINUOUS
 10
132.4440759118
 20
73.6261500934
  0
VERTEX
  8
0
 62
9
  6
CONTINUOUS
 10
132.5720471551
 20
73.8473326652
  0
VERTEX
  8
0
 62
9
  6
CONTINUOUS
 10
132.6826696831
 20
74.4363238512
  0
SEQEND
  0
POLYLINE
  8
0
 62
9
  6
CONTINUOUS
 66
1
 70
0
  0
VERTEX
  8
0
 62
9
  6
CONTINUOUS
 10
133.4814207811
 20
73.4363238512
  0
VERTEX
  8
0
 62
9
  6
CONTINUOUS
 10
133.833434216
 20
73.6273068568
  0
VERTEX
  8
0
 62
9
  6
CONTINUOUS
 10
133.9659257087
 20
73.8485385989
  0
VERTEX
  8
0
 62
9
  6
CONTINUOUS
 10
134.080301807
 20
74.4363238512
  0
SEQEND
  0
POLYLINE
  8
0
 62
9
  6
CONTINUOUS
 66
1
 70
0
  0
VERTEX
  8
0
 62
9
  6
CONTINUOUS
 10
145.9350981509
 20
73.4363238512
  0
VERTEX
  8
0
 62
9
  6
CONTINUOUS
 10
146.4045412237
 20
73.6261500934
  0
VERTEX
  8
0
 62
9
  6
CONTINUOUS
 10
146.5822869451
 20
73.8473326652
  0
VERTEX
  8
0
 62
9
  6
CONTINUOUS
 10
146.73593616
 20
74.4363238512
  0
SEQEND
  0
POLYLINE
  8
0
 62
9
  6
CONTINUOUS
 66
1
 70
0
  0
VERTEX
  8
0
 62
9
  6
CONTINUOUS
 10
146.9343330798
 20
73.4363238512
  0
VERTEX
  8
0
 62
9
  6
CONTINUOUS
 10
147.4145784688
 20
73.6273068568
  0
VERTEX
  8
0
 62
9
  6
CONTINUOUS
 10
147.5953341506
 20
73.8485385989
  0
VERTEX
  8
0
 62
9
  6
CONTINUOUS
 10
147.7513753365
 20
74.4363238512
  0
SEQEND
  0
POLYLINE
  8
0
 62
7
  6
CONTINUOUS
 66
1
 70
0
  0
VERTEX
  8
0
 62
7
  6
CONTINUOUS
 10
146.9343330798
 20
73.4363238512
  0
VERTEX
  8
0
 62
7
  6
CONTINUOUS
 10
147.5641251584
 20
73.6595600919
  0
VERTEX
  8
0
 62
7
  6
CONTINUOUS
 10
147.794056096
 20
73.9255633052
  0
SEQEND
  0
POLYLINE
  8
0
 62
7
  6
CONTINUOUS
 66
1
 70
0
  0
VERTEX
  8
0
 62
7
  6
CONTINUOUS
 10
155.4554150349
 20
73.4363238512
  0
VERTEX
  8
0
 62
7
  6
CONTINUOUS
 10
156.0485235185
 20
73.6312012974
  0
VERTEX
  8
0
 62
7
  6
CONTINUOUS
 10
156.273481
 20
73.8611994502
  0
VERTEX
  8
0
 62
7
  6
CONTINUOUS
 10
156.455414305
 20
74.4363238512
  0
SEQEND
  0
POLYLINE
  8
0
 62
7
  6
CONTINUOUS
 66
1
 70
0
  0
VERTEX
  8
0
 62
7
  6
CONTINUOUS
 10
146.9343330798
 20
89.2363238512
  0
VERTEX
  8
0
 62
7
  6
CONTINUOUS
 10
147.5936646253
 20
88.9881761725
  0
VERTEX
  8
0
 62
7
  6
CONTINUOUS
 10
147.8237567839
 20
88.6934075138
  0
SEQEND
  0
POLYLINE
  8
0
 62
9
  6
CONTINUOUS
 66
1
 70
0
  0
VERTEX
  8
0
 62
9
  6
CONTINUOUS
 10
146.9343330798
 20
89.2363238512
  0
VERTEX
  8
0
 62
9
  6
CONTINUOUS
 10
147.4132749173
 20
89.046497609
  0
VERTEX
  8
0
 62
9
  6
CONTINUOUS
 10
147.5946171659
 20
88.8253150372
  0
VERTEX
  8
0
 62
9
  6
CONTINUOUS
 10
147.7513753365
 20
88.2363238512
  0
SEQEND
  0
POLYLINE
  8
0
 62
9
  6
CONTINUOUS
 66
1
 70
0
  0
VERTEX
  8
0
 62
9
  6
CONTINUOUS
 10
145.9350981509
 20
89.2363238512
  0
VERTEX
  8
0
 62
9
  6
CONTINUOUS
 10
146.4058189221
 20
89.0453408456
  0
VERTEX
  8
0
 62
9
  6
CONTINUOUS
 10
146.58298971
 20
88.8241091035
  0
VERTEX
  8
0
 62
9
  6
CONTINUOUS
 10
146.73593616
 20
88.2363238512
  0
SEQEND
  0
POLYLINE
  8
0
 62
9
  6
CONTINUOUS
 66
1
 70
0
  0
VERTEX
  8
0
 62
9
  6
CONTINUOUS
 10
133.4814207811
 20
89.2363238512
  0
VERTEX
  8
0
 62
9
  6
CONTINUOUS
 10
133.8324787302
 20
89.046497609
  0
VERTEX
  8
0
 62
9
  6
CONTINUOUS
 10
133.9654001685
 20
88.8253150372
  0
VERTEX
  8
0
 62
9
  6
CONTINUOUS
 10
134.080301807
 20
88.2363238512
  0
SEQEND
  0
POLYLINE
  8
0
 62
9
  6
CONTINUOUS
 66
1
 70
0
  0
VERTEX
  8
0
 62
9
  6
CONTINUOUS
 10
132.1060918907
 20
89.2363238512
  0
VERTEX
  8
0
 62
9
  6
CONTINUOUS
 10
132.4449958139
 20
89.0453408456
  0
VERTEX
  8
0
 62
9
  6
CONTINUOUS
 10
132.5725531233
 20
88.8241091035
  0
VERTEX
  8
0
 62
9
  6
CONTINUOUS
 10
132.6826696831
 20
88.2363238512
  0
SEQEND
  0
POLYLINE
  8
0
 62
9
  6
CONTINUOUS
 66
1
 70
0
  0
VERTEX
  8
0
 62
9
  6
CONTINUOUS
 10
145.9350981509
 20
73.4363238512
  0
VERTEX
  8
0
 62
9
  6
CONTINUOUS
 10
145.6815872021
 20
73.6273068568
  0
VERTEX
  8
0
 62
9
  6
CONTINUOUS
 10
145.5861702643
 20
73.8485385989
  0
VERTEX
  8
0
 62
9
  6
CONTINUOUS
 10
145.5037995639
 20
74.4363238512
  0
SEQEND
  0
POLYLINE
  8
0
 62
9
  6
CONTINUOUS
 66
1
 70
0
  0
VERTEX
  8
0
 62
9
  6
CONTINUOUS
 10
120.8637076483
 20
89.2869240914
  0
VERTEX
  8
0
 62
9
  6
CONTINUOUS
 10
121.0194119164
 20
89.0736414756
  0
VERTEX
  8
0
 62
9
  6
CONTINUOUS
 10
121.1241630234
 20
88.7436439122
  0
VERTEX
  8
0
 62
9
  6
CONTINUOUS
 10
121.1610636633
 20
88.3501743916
  0
SEQEND
  0
POLYLINE
  8
0
 62
9
  6
CONTINUOUS
 66
1
 70
0
  0
VERTEX
  8
0
 62
9
  6
CONTINUOUS
 10
120.4934183608
 20
89.2869240914
  0
VERTEX
  8
0
 62
9
  6
CONTINUOUS
 10
120.6467493617
 20
89.0736452553
  0
VERTEX
  8
0
 62
9
  6
CONTINUOUS
 10
120.7499057882
 20
88.7436493492
  0
VERTEX
  8
0
 62
9
  6
CONTINUOUS
 10
120.7862454833
 20
88.3501743916
  0
SEQEND
  0
LINE
  8
0
 62
7
  6
CONTINUOUS
 10
124.3171906462
 20
68.8363238512
 11
124.3171906462
 21
68.6363238512
  0
LINE
  8
0
 62
7
  6
CONTINUOUS
 10
124.6151465031
 20
68.8363238512
 11
124.6151465031
 21
68.6363238512
  0
LINE
  8
0
 62
7
  6
CONTINUOUS
 10
124.7488600282
 20
68.8363238512
 11
124.7488600282
 21
68.6363238512
  0
LINE
  8
0
 62
7
  6
CONTINUOUS
 10
124.7659091331
 20
68.8363238512
 11
124.7659091331
 21
68.6363238512
  0
POLYLINE
  8
0
 62
9
  6
CONTINUOUS
 66
1
 70
0
  0
VERTEX
  8
0
 62
9
  6
CONTINUOUS
 10
123.5483236259
 20
73.4363238512
  0
VERTEX
  8
0
 62
9
  6
CONTINUOUS
 10
123.6203630056
 20
73.7292180792
  0
VERTEX
  8
0
 62
9
  6
CONTINUOUS
 10
123.6502030745
 20
74.4363238512
  0
SEQEND
  0
POLYLINE
  8
0
 62
9
  6
CONTINUOUS
 66
1
 70
0
  0
VERTEX
  8
0
 62
9
  6
CONTINUOUS
 10
143.1581209957
 20
89.2363238512
  0
VERTEX
  8
0
 62
9
  6
CONTINUOUS
 10
142.8531468434
 20
88.9434306336
  0
VERTEX
  8
0
 62
9
  6
CONTINUOUS
 10
142.7268224087
 20
88.2363238512
  0
SEQEND
  0
POLYLINE
  8
0
 62
9
  6
CONTINUOUS
 66
1
 70
0
  0
VERTEX
  8
0
 62
9
  6
CONTINUOUS
 10
154.9300861444
 20
73.4363238512
  0
VERTEX
  8
0
 62
9
  6
CONTINUOUS
 10
155.4850359102
 20
73.6261500934
  0
VERTEX
  8
0
 62
9
  6
CONTINUOUS
 10
155.6951571201
 20
73.8473326652
  0
VERTEX
  8
0
 62
9
  6
CONTINUOUS
 10
155.8767927661
 20
74.4363238512
  0
SEQEND
  0
POLYLINE
  8
0
 62
9
  6
CONTINUOUS
 66
1
 70
0
  0
VERTEX
  8
0
 62
9
  6
CONTINUOUS
 10
155.4554150349
 20
73.4363238512
  0
VERTEX
  8
0
 62
9
  6
CONTINUOUS
 10
156.0168826132
 20
73.6273068568
  0
VERTEX
  8
0
 62
9
  6
CONTINUOUS
 10
156.2282088587
 20
73.8485385989
  0
VERTEX
  8
0
 62
9
  6
CONTINUOUS
 10
156.4106407337
 20
74.4363238512
  0
SEQEND
  0
POLYLINE
  8
0
 62
7
  6
CONTINUOUS
 66
1
 70
0
  0
VERTEX
  8
0
 62
7
  6
CONTINUOUS
 10
158.2105637747
 20
73.4363238512
  0
VERTEX
  8
0
 62
7
  6
CONTINUOUS
 10
158.7966978837
 20
73.6261500934
  0
VERTEX
  8
0
 62
7
  6
CONTINUOUS
 10
159.0186264541
 20
73.8473326652
  0
VERTEX
  8
0
 62
7
  6
CONTINUOUS
 10
159.2104687687
 20
74.4363238512
  0
SEQEND
  0
POLYLINE
  8
0
 62
9
  6
CONTINUOUS
 66
1
 70
0
  0
VERTEX
  8
0
 62
9
  6
CONTINUOUS
 10
158.2105637747
 20
89.2363238512
  0
VERTEX
  8
0
 62
9
  6
CONTINUOUS
 10
158.7982931839
 20
89.0453408456
  0
VERTEX
  8
0
 62
9
  6
CONTINUOUS
 10
159.0195039076
 20
88.8241091035
  0
VERTEX
  8
0
 62
9
  6
CONTINUOUS
 10
159.2104687687
 20
88.2363238512
  0
SEQEND
  0
LINE
  8
0
 62
9
  6
CONTINUOUS
 10
155.4554150349
 20
89.2363238512
 11
156.0153585967
 21
89.046497609
  0
POLYLINE
  8
0
 62
9
  6
CONTINUOUS
 66
1
 70
0
  0
VERTEX
  8
0
 62
9
  6
CONTINUOUS
 10
154.9300861444
 20
89.2363238512
  0
VERTEX
  8
0
 62
9
  6
CONTINUOUS
 10
155.4865463349
 20
89.0453408456
  0
VERTEX
  8
0
 62
9
  6
CONTINUOUS
 10
155.6959878901
 20
88.8241091035
  0
VERTEX
  8
0
 62
9
  6
CONTINUOUS
 10
155.8767927661
 20
88.2363238512
  0
SEQEND
  0
LINE
  8
0
 62
7
  6
CONTINUOUS
 10
155.4554150349
 20
89.2363238512
 11
156.0980253877
 21
89.0025169956
  0
POLYLINE
  8
0
 62
9
  6
CONTINUOUS
 66
1
 70
0
  0
VERTEX
  8
0
 62
9
  6
CONTINUOUS
 10
143.1581209957
 20
73.4363238512
  0
VERTEX
  8
0
 62
9
  6
CONTINUOUS
 10
142.8531420377
 20
73.7292282146
  0
VERTEX
  8
0
 62
9
  6
CONTINUOUS
 10
142.7268224162
 20
74.4363238512
  0
SEQEND
  0
POLYLINE
  8
0
 62
9
  6
CONTINUOUS
 66
1
 70
0
  0
VERTEX
  8
0
 62
9
  6
CONTINUOUS
 10
123.5483236259
 20
89.2363238512
  0
VERTEX
  8
0
 62
9
  6
CONTINUOUS
 10
123.6203632642
 20
88.9434307419
  0
VERTEX
  8
0
 62
9
  6
CONTINUOUS
 10
123.6502030751
 20
88.2363238512
  0
SEQEND
  0
LINE
  8
0
 62
7
  6
CONTINUOUS
 10
127.0708976489
 20
68.8363238512
 11
127.0708976489
 21
68.6363238512
  0
LINE
  8
0
 62
7
  6
CONTINUOUS
 10
127.5896294369
 20
68.8363238512
 11
127.5896294369
 21
68.6363238512
  0
LINE
  8
0
 62
7
  6
CONTINUOUS
 10
127.7895503573
 20
68.8363238512
 11
127.7895503573
 21
68.6363238512
  0
LINE
  8
0
 62
7
  6
CONTINUOUS
 10
128.2018440142
 20
68.8363238512
 11
128.2018440142
 21
68.6363238512
  0
LINE
  8
0
 62
7
  6
CONTINUOUS
 10
128.6742924842
 20
68.8363238512
 11
128.6742924842
 21
68.6363238512
  0
LINE
  8
0
 62
7
  6
CONTINUOUS
 10
129.0890922373
 20
68.8363238512
 11
129.0890922373
 21
68.6363238512
  0
LINE
  8
0
 62
9
  6
CONTINUOUS
 10
129.1862704742
 20
74.4363238512
 11
129.1862704742
 21
88.2363238512
  0
LINE
  8
0
 62
7
  6
CONTINUOUS
 10
129.5051475446
 20
68.8363238512
 11
129.5051475446
 21
68.6363238512
  0
LINE
  8
0
 62
7
  6
CONTINUOUS
 10
129.9826133841
 20
68.8363238512
 11
129.9826133841
 21
68.6363238512
  0
LINE
  8
0
 62
7
  6
CONTINUOUS
 10
130.3422755286
 20
68.8363238512
 11
130.3422755286
 21
68.6363238512
  0
LINE
  8
0
 62
7
  6
CONTINUOUS
 10
130.5828892735
 20
68.8363238512
 11
130.5828892735
 21
68.6363238512
  0
LINE
  8
0
 62
7
  6
CONTINUOUS
 10
130.8247532304
 20
68.8363238512
 11
130.8247532304
 21
68.6363238512
  0
LINE
  8
0
 62
7
  6
CONTINUOUS
 10
130.9488189995
 20
68.8363238512
 11
130.9488189995
 21
68.6363238512
  0
POLYLINE
  8
0
 62
9
  6
CONTINUOUS
 66
1
 70
0
  0
VERTEX
  8
0
 62
9
  6
CONTINUOUS
 10
136.4733145684
 20
73.4363238512
  0
VERTEX
  8
0
 62
9
  6
CONTINUOUS
 10
136.7591994728
 20
73.7292180813
  0
VERTEX
  8
0
 62
9
  6
CONTINUOUS
 10
136.8776167842
 20
74.4363238512
  0
SEQEND
  0
POLYLINE
  8
0
 62
9
  6
CONTINUOUS
 66
1
 70
0
  0
VERTEX
  8
0
 62
9
  6
CONTINUOUS
 10
133.9833933379
 20
73.385723611
  0
VERTEX
  8
0
 62
9
  6
CONTINUOUS
 10
134.2231210141
 20
73.5990066155
  0
VERTEX
  8
0
 62
9
  6
CONTINUOUS
 10
134.3843990442
 20
73.9290043458
  0
VERTEX
  8
0
 62
9
  6
CONTINUOUS
 10
134.4152911819
 20
74.1429531479
  0
SEQEND
  0
POLYLINE
  8
0
 62
9
  6
CONTINUOUS
 66
1
 70
0
  0
VERTEX
  8
0
 62
9
  6
CONTINUOUS
 10
134.2772565803
 20
73.385723611
  0
VERTEX
  8
0
 62
9
  6
CONTINUOUS
 10
134.5188629992
 20
73.5990024471
  0
VERTEX
  8
0
 62
9
  6
CONTINUOUS
 10
134.681408438
 20
73.9289983532
  0
VERTEX
  8
0
 62
9
  6
CONTINUOUS
 10
134.7386695499
 20
74.3224733108
  0
SEQEND
  0
LINE
  8
0
 62
9
  6
CONTINUOUS
 10
143.8092661879
 20
73.385723611
 11
143.8810699187
 21
73.4363238512
  0
LINE
  8
0
 62
9
  6
CONTINUOUS
 10
143.9979380036
 20
73.385723611
 11
144.0700286229
 21
73.4363238512
  0
LINE
  8
0
 62
9
  6
CONTINUOUS
 10
143.9979380036
 20
89.2869240914
 11
144.0700281871
 21
89.2363238512
  0
LINE
  8
0
 62
9
  6
CONTINUOUS
 10
143.8092661879
 20
89.2869240914
 11
143.8810701378
 21
89.2363238512
  0
POLYLINE
  8
0
 62
9
  6
CONTINUOUS
 66
1
 70
0
  0
VERTEX
  8
0
 62
9
  6
CONTINUOUS
 10
134.2772565803
 20
89.2869240914
  0
VERTEX
  8
0
 62
9
  6
CONTINUOUS
 10
134.5188658291
 20
89.0736414756
  0
VERTEX
  8
0
 62
9
  6
CONTINUOUS
 10
134.6814101082
 20
88.7436439122
  0
VERTEX
  8
0
 62
9
  6
CONTINUOUS
 10
134.7386695492
 20
88.3501743916
  0
SEQEND
  0
POLYLINE
  8
0
 62
9
  6
CONTINUOUS
 66
1
 70
0
  0
VERTEX
  8
0
 62
9
  6
CONTINUOUS
 10
133.9833933379
 20
89.2869240914
  0
VERTEX
  8
0
 62
9
  6
CONTINUOUS
 10
134.2231177779
 20
89.0736452548
  0
VERTEX
  8
0
 62
9
  6
CONTINUOUS
 10
134.3843970777
 20
88.7436493493
  0
VERTEX
  8
0
 62
9
  6
CONTINUOUS
 10
134.4357865265
 20
88.3877498009
  0
SEQEND
  0
POLYLINE
  8
0
 62
9
  6
CONTINUOUS
 66
1
 70
0
  0
VERTEX
  8
0
 62
9
  6
CONTINUOUS
 10
136.4733145684
 20
89.2363238512
  0
VERTEX
  8
0
 62
9
  6
CONTINUOUS
 10
136.759199363
 20
88.9434307419
  0
VERTEX
  8
0
 62
9
  6
CONTINUOUS
 10
136.8776167847
 20
88.2363238512
  0
SEQEND
  0
LINE
  8
0
 62
9
  6
CONTINUOUS
 10
131.4171045686
 20
74.4363238512
 11
131.4171045686
 21
88.2363238512
  0
LINE
  8
0
 62
9
  6
CONTINUOUS
 10
132.6826696831
 20
74.4363238512
 11
132.6826696831
 21
88.2363238512
  0
LINE
  8
0
 62
9
  6
CONTINUOUS
 10
134.080301807
 20
74.4363238512
 11
134.080301807
 21
88.2363238512
  0
LINE
  8
0
 62
7
  6
CONTINUOUS
 10
134.4814207811
 20
88.2363238512
 11
134.4814207811
 21
74.4363238512
  0
LINE
  8
0
 62
9
  6
CONTINUOUS
 10
134.7386695499
 20
74.3224733108
 11
134.7386695499
 21
88.3501743916
  0
LINE
  8
0
 62
9
  6
CONTINUOUS
 10
149.0092120153
 20
73.385723611
 11
149.0889165487
 21
73.4363238512
  0
LINE
  8
0
 62
9
  6
CONTINUOUS
 10
149.0742238923
 20
73.385723611
 11
149.1540274615
 21
73.4363238512
  0
LINE
  8
0
 62
9
  6
CONTINUOUS
 10
149.0742238923
 20
89.2869240914
 11
149.1540269769
 21
89.2363238512
  0
LINE
  8
0
 62
9
  6
CONTINUOUS
 10
149.0092120153
 20
89.2869240914
 11
149.0889168049
 21
89.2363238512
  0
LINE
  8
0
 62
9
  6
CONTINUOUS
 10
142.7268224087
 20
74.4363238512
 11
142.7268224087
 21
88.2363238512
  0
LINE
  8
0
 62
9
  6
CONTINUOUS
 10
145.5037995639
 20
74.4363238512
 11
145.5037995639
 21
88.2363238512
  0
LINE
  8
0
 62
9
  6
CONTINUOUS
 10
146.73593616
 20
74.4363238512
 11
146.73593616
 21
88.2363238512
  0
LINE
  8
0
 62
9
  6
CONTINUOUS
 10
147.7513753365
 20
74.4363238512
 11
147.7513753365
 21
88.2363238512
  0
LINE
  8
0
 62
7
  6
CONTINUOUS
 10
147.9343330798
 20
88.2363238512
 11
147.9343330798
 21
74.4363238512
  0
LINE
  8
0
 62
7
  6
CONTINUOUS
 10
147.794056096
 20
73.9255633052
 11
147.9343237521
 21
74.4363238512
  0
POLYLINE
  8
0
 62
9
  6
CONTINUOUS
 66
1
 70
0
  0
VERTEX
  8
0
 62
9
  6
CONTINUOUS
 10
151.8787958008
 20
89.2363238512
  0
VERTEX
  8
0
 62
9
  6
CONTINUOUS
 10
151.7858880956
 20
88.9434306336
  0
VERTEX
  8
0
 62
9
  6
CONTINUOUS
 10
151.7474044596
 20
88.2363238512
  0
SEQEND
  0
POLYLINE
  8
0
 62
9
  6
CONTINUOUS
 66
1
 70
0
  0
VERTEX
  8
0
 62
9
  6
CONTINUOUS
 10
154.9300861444
 20
89.2363238512
  0
VERTEX
  8
0
 62
9
  6
CONTINUOUS
 10
154.8530658827
 20
89.0464976221
  0
VERTEX
  8
0
 62
9
  6
CONTINUOUS
 10
154.8239036198
 20
88.8253150649
  0
VERTEX
  8
0
 62
9
  6
CONTINUOUS
 10
154.7986948032
 20
88.2363238512
  0
SEQEND
  0
LINE
  8
0
 62
9
  6
CONTINUOUS
 10
156.0153585967
 20
89.046497609
 11
156.2273706129
 21
88.8253150372
  0
POLYLINE
  8
0
 62
9
  6
CONTINUOUS
 66
1
 70
0
  0
VERTEX
  8
0
 62
9
  6
CONTINUOUS
 10
154.9300861444
 20
73.4363238512
  0
VERTEX
  8
0
 62
9
  6
CONTINUOUS
 10
154.8528562518
 20
73.6273068568
  0
VERTEX
  8
0
 62
9
  6
CONTINUOUS
 10
154.8237883164
 20
73.8485385989
  0
VERTEX
  8
0
 62
9
  6
CONTINUOUS
 10
154.7986948032
 20
74.4363238512
  0
SEQEND
  0
POLYLINE
  8
0
 62
9
  6
CONTINUOUS
 66
1
 70
0
  0
VERTEX
  8
0
 62
9
  6
CONTINUOUS
 10
151.8787958008
 20
73.4363238512
  0
VERTEX
  8
0
 62
9
  6
CONTINUOUS
 10
151.7858866327
 20
73.7292282146
  0
VERTEX
  8
0
 62
9
  6
CONTINUOUS
 10
151.7474044678
 20
74.4363238512
  0
SEQEND
  0
LINE
  8
0
 62
7
  6
CONTINUOUS
 10
147.8237567839
 20
88.6934075138
 11
147.9343286106
 21
88.2363238512
  0
LINE
  8
AXES
 62
7
  6
CONTINUOUS
 10
149.1764223195
 20
92.8363238512
 11
149.1764223195
 21
90.0363238512
  0
LINE
  8
AXES
 62
7
  6
CONTINUOUS
 10
149.1764223195
 20
72.6363238512
 11
149.1764223195
 21
69.8363238512
  0
LINE
  8
0
 62
9
  6
CONTINUOUS
 10
151.7474044596
 20
74.4363238512
 11
151.7474044596
 21
88.2363238512
  0
LINE
  8
0
 62
7
  6
CONTINUOUS
 10
156.4473509963
 20
88.3630639336
 11
156.4554148941
 21
88.2363238512
  0
LINE
  8
0
 62
9
  6
CONTINUOUS
 10
154.7986948032
 20
74.4363238512
 11
154.7986948032
 21
88.2363238512
  0
LINE
  8
0
 62
9
  6
CONTINUOUS
 10
155.8767927661
 20
74.4363238512
 11
155.8767927661
 21
88.2363238512
  0
LINE
  8
0
 62
9
  6
CONTINUOUS
 10
156.4106407337
 20
74.4363238512
 11
156.4106407337
 21
88.2363238512
  0
LINE
  8
0
 62
7
  6
CONTINUOUS
 10
156.4554150349
 20
88.2363238512
 11
156.4554150349
 21
74.4363238512
  0
LINE
  8
0
 62
9
  6
CONTINUOUS
 10
158.3919411792
 20
74.4363238512
 11
158.3919411792
 21
88.2363238512
  0
LINE
  8
0
 62
9
  6
CONTINUOUS
 10
159.2104687687
 20
74.4363238512
 11
159.2104687687
 21
88.2363238512
  0
POLYLINE
  8
0
 62
9
  6
CONTINUOUS
 66
1
 70
0
  0
VERTEX
  8
0
 62
9
  6
CONTINUOUS
 10
158.2105637747
 20
73.4363238512
  0
VERTEX
  8
0
 62
9
  6
CONTINUOUS
 10
158.3171747382
 20
73.6273068568
  0
VERTEX
  8
0
 62
9
  6
CONTINUOUS
 10
158.3573011773
 20
73.8485385989
  0
VERTEX
  8
0
 62
9
  6
CONTINUOUS
 10
158.3919411792
 20
74.4363238512
  0
SEQEND
  0
POLYLINE
  8
0
 62
9
  6
CONTINUOUS
 66
1
 70
0
  0
VERTEX
  8
0
 62
9
  6
CONTINUOUS
 10
158.2105637747
 20
89.2363238512
  0
VERTEX
  8
0
 62
9
  6
CONTINUOUS
 10
158.316885356
 20
89.0464976221
  0
VERTEX
  8
0
 62
9
  6
CONTINUOUS
 10
158.3571420083
 20
88.8253150649
  0
VERTEX
  8
0
 62
9
  6
CONTINUOUS
 10
158.3919411792
 20
88.2363238512
  0
SEQEND
  0
LINE
  8
0
 62
7
  6
CONTINUOUS
 10
156.0980253877
 20
89.0025169956
 11
156.4473509963
 21
88.3630639336
  0
LINE
  8
0
 62
9
  6
CONTINUOUS
 10
156.2273706129
 20
88.8253150372
 11
156.4106407337
 21
88.2363238512
  0
ARC
  8
0
 62
7
  6
CONTINUOUS
 10
53.3951123395
 20
162.707752988
 40
7.0
 50
44.7759775225
 51
115.55
  0
ARC
  8
0
 62
7
  6
CONTINUOUS
 10
53.7312759639
 20
162.3715893635
 40
7.0
 50
334.45
 51
45.2240224775
  0
ARC
  8
0
 62
7
  6
CONTINUOUS
 10
47.167746488
 20
168.5979008819
 40
1.0
 50
216.7897989938
 51
295.55
  0
ARC
  8
0
 62
7
  6
CONTINUOUS
 10
46.1685115592
 20
169.9732297723
 40
1.0
 50
136.45
 51
215.2102010062
  0
ARC
  8
0
 62
7
  6
CONTINUOUS
 10
60.9967527483
 20
155.1449885832
 40
1.0
 50
234.7897989938
 51
313.55
  0
ARC
  8
0
 62
7
  6
CONTINUOUS
 10
59.6214238578
 20
156.1442235121
 40
1.0
 50
154.45
 51
233.2102010062
  0
ARC
  8
0
 62
7
  6
CONTINUOUS
 10
36.4681836023
 20
196.2523157899
 40
7.0
 50
8.7759775225
 51
79.55
  0
ARC
  8
0
 62
7
  6
CONTINUOUS
 10
36.5425536666
 20
195.782761684
 40
7.0
 50
298.45
 51
9.2240224775
  0
ARC
  8
0
 62
7
  6
CONTINUOUS
 10
42.2751795683
 20
178.1395533217
 40
7.0
 50
26.7759775225
 51
97.55
  0
ARC
  8
0
 62
7
  6
CONTINUOUS
 10
42.491009901
 20
177.7159624433
 40
7.0
 50
316.45
 51
27.2240224775
  0
ARC
  8
DEFAULT_3
 62
2
  6
PHANTOM
 10
60.9678033277
 20
198.4729794298
 40
3.2
 50
183.5903778907
 51
225.0
  0
ARC
  8
DEFAULT_3
 62
2
  6
PHANTOM
 10
54.5803648686
 20
198.0721927895
 40
3.2
 50
3.5903778907
 51
45.0
  0
ARC
  8
DEFAULT_3
 62
2
  6
PHANTOM
 10
53.5197046968
 20
199.1328529613
 40
3.2
 50
45.0
 51
87.7455692247
  0
ARC
  8
0
 62
7
  6
CONTINUOUS
 10
34.8922808642
 20
204.6778993435
 40
1.0
 50
180.7897989938
 51
259.55
  0
ARC
  8
0
 62
7
  6
CONTINUOUS
 10
38.1727584945
 20
185.6657787364
 40
1.0
 50
198.7897989938
 51
277.55
  0
ARC
  8
0
 62
7
  6
CONTINUOUS
 10
37.6474296041
 20
187.2825748142
 40
1.0
 50
118.45
 51
197.2102010062
  0
ARC
  8
0
 62
7
  6
CONTINUOUS
 10
68.7394854192
 20
151.4674869251
 40
7.0
 50
62.7759775225
 51
133.55
  0
ARC
  8
0
 62
7
  6
CONTINUOUS
 10
69.1630762977
 20
151.2516565923
 40
7.0
 50
352.45
 51
63.2240224775
  0
ARC
  8
0
 62
7
  6
CONTINUOUS
 10
86.8062846599
 20
145.5190306907
 40
7.0
 50
80.7759775225
 51
151.55
  0
ARC
  8
0
 62
7
  6
CONTINUOUS
 10
87.2758387658
 20
145.4446606264
 40
7.0
 50
10.45
 51
81.2240224775
  0
ARC
  8
DEFAULT_3
 62
2
  6
PHANTOM
 10
90.1563759372
 20
162.4961817209
 40
3.2
 50
2.2544307753
 51
45.0
  0
ARC
  8
DEFAULT_3
 62
2
  6
PHANTOM
 10
89.0957157654
 20
163.5568418926
 40
3.2
 50
45.0
 51
86.4096221093
  0
ARC
  8
DEFAULT_3
 62
2
  6
PHANTOM
 10
89.4965024057
 20
169.9442803518
 40
3.2
 50
225.0
 51
266.4096221093
  0
ARC
  8
0
 62
7
  6
CONTINUOUS
 10
78.3060977901
 20
146.6239066281
 40
1.0
 50
252.7897989938
 51
331.55
  0
ARC
  8
0
 62
7
  6
CONTINUOUS
 10
76.6893017124
 20
147.1492355186
 40
1.0
 50
172.45
 51
251.2102010062
  0
ARC
  8
0
 62
7
  6
CONTINUOUS
 10
95.7014223195
 20
143.8687578883
 40
1.0
 50
190.45
 51
269.2102010062
  0
ARC
  8
0
 62
7
  6
CONTINUOUS
 10
42.491009901
 20
233.3398362438
 40
7.0
 50
332.7759775225
 51
43.55
  0
ARC
  8
0
 62
7
  6
CONTINUOUS
 10
42.2751795683
 20
232.9162453654
 40
7.0
 50
262.45
 51
333.2240224775
  0
ARC
  8
0
 62
7
  6
CONTINUOUS
 10
36.5425536666
 20
215.2730370031
 40
7.0
 50
350.7759775225
 51
61.55
  0
ARC
  8
0
 62
7
  6
CONTINUOUS
 10
36.4681836023
 20
214.8034828972
 40
7.0
 50
280.45
 51
351.2240224775
  0
ARC
  8
DEFAULT_3
 62
2
  6
PHANTOM
 10
53.7714620577
 20
205.5278993435
 40
3.2
 50
92.2544307753
 51
267.7455692247
  0
ARC
  8
DEFAULT_3
 62
2
  6
PHANTOM
 10
53.5197046968
 20
211.9229457258
 40
3.2
 50
272.2544307753
 51
315.0
  0
ARC
  8
DEFAULT_3
 62
2
  6
PHANTOM
 10
54.5803648686
 20
212.9836058976
 40
3.2
 50
315.0
 51
356.4096221093
  0
ARC
  8
DEFAULT_3
 62
2
  6
PHANTOM
 10
60.9678033277
 20
212.5828192573
 40
3.2
 50
135.0
 51
176.4096221093
  0
ARC
  8
0
 62
7
  6
CONTINUOUS
 10
37.6474296041
 20
223.7732238729
 40
1.0
 50
162.7897989938
 51
241.55
  0
ARC
  8
0
 62
7
  6
CONTINUOUS
 10
38.1727584945
 20
225.3900199506
 40
1.0
 50
82.45
 51
161.2102010062
  0
ARC
  8
0
 62
7
  6
CONTINUOUS
 10
34.8922808642
 20
206.3778993435
 40
1.0
 50
100.45
 51
179.2102010062
  0
ARC
  8
0
 62
7
  6
CONTINUOUS
 10
53.7312759639
 20
248.6842093235
 40
7.0
 50
314.7759775225
 51
25.55
  0
ARC
  8
0
 62
7
  6
CONTINUOUS
 10
53.3951123395
 20
248.3480456991
 40
7.0
 50
244.45
 51
315.2240224775
  0
ARC
  8
0
 62
7
  6
CONTINUOUS
 10
59.6214238578
 20
254.911575175
 40
1.0
 50
126.7897989938
 51
205.55
  0
ARC
  8
0
 62
7
  6
CONTINUOUS
 10
60.9967527483
 20
255.9108101039
 40
1.0
 50
46.45
 51
125.2102010062
  0
ARC
  8
0
 62
7
  6
CONTINUOUS
 10
46.1685115592
 20
241.0825689147
 40
1.0
 50
144.7897989938
 51
223.55
  0
ARC
  8
0
 62
7
  6
CONTINUOUS
 10
47.167746488
 20
242.4578978052
 40
1.0
 50
64.45
 51
143.2102010062
  0
ARC
  8
0
 62
7
  6
CONTINUOUS
 10
87.2758387658
 20
265.6111380607
 40
7.0
 50
278.7759775225
 51
349.55
  0
ARC
  8
0
 62
7
  6
CONTINUOUS
 10
86.8062846599
 20
265.5367679964
 40
7.0
 50
208.45
 51
279.2240224775
  0
ARC
  8
0
 62
7
  6
CONTINUOUS
 10
69.1630762977
 20
259.8041420948
 40
7.0
 50
296.7759775225
 51
7.55
  0
ARC
  8
0
 62
7
  6
CONTINUOUS
 10
68.7394854192
 20
259.588311762
 40
7.0
 50
226.45
 51
297.2240224775
  0
ARC
  8
DEFAULT_3
 62
2
  6
PHANTOM
 10
89.4965024057
 20
241.1115183353
 40
3.2
 50
93.5903778907
 51
135.0
  0
ARC
  8
DEFAULT_3
 62
2
  6
PHANTOM
 10
89.0957157654
 20
247.4989567944
 40
3.2
 50
273.5903778907
 51
315.0
  0
ARC
  8
DEFAULT_3
 62
2
  6
PHANTOM
 10
90.1563759372
 20
248.5596169662
 40
3.2
 50
315.0
 51
357.7455692247
  0
ARC
  8
0
 62
7
  6
CONTINUOUS
 10
95.7014223195
 20
267.1870407988
 40
1.0
 50
90.7897989938
 51
169.55
  0
ARC
  8
0
 62
7
  6
CONTINUOUS
 10
76.6893017124
 20
263.9065631685
 40
1.0
 50
108.7897989938
 51
187.55
  0
ARC
  8
0
 62
7
  6
CONTINUOUS
 10
78.3060977901
 20
264.431892059
 40
1.0
 50
28.45
 51
107.2102010062
  0
ARC
  8
0
 62
7
  6
CONTINUOUS
 10
105.8270058731
 20
145.4446606264
 40
7.0
 50
98.7759775225
 51
169.55
  0
ARC
  8
0
 62
7
  6
CONTINUOUS
 10
106.296559979
 20
145.5190306907
 40
7.0
 50
28.45
 51
99.2240224775
  0
ARC
  8
0
 62
7
  6
CONTINUOUS
 10
123.9397683413
 20
151.2516565923
 40
7.0
 50
116.7759775225
 51
187.55
  0
ARC
  8
0
 62
7
  6
CONTINUOUS
 10
124.3633592197
 20
151.4674869251
 40
7.0
 50
46.45
 51
117.2240224775
  0
ARC
  8
DEFAULT_3
 62
2
  6
PHANTOM
 10
103.6063422332
 20
169.9442803518
 40
3.2
 50
273.5903778907
 51
315.0
  0
ARC
  8
DEFAULT_3
 62
2
  6
PHANTOM
 10
104.0071288735
 20
163.5568418926
 40
3.2
 50
93.5903778907
 51
135.0
  0
ARC
  8
DEFAULT_3
 62
2
  6
PHANTOM
 10
102.9464687017
 20
162.4961817209
 40
3.2
 50
135.0
 51
177.7455692247
  0
ARC
  8
DEFAULT_3
 62
2
  6
PHANTOM
 10
96.5514223195
 20
162.7479390818
 40
3.2
 50
182.2544307753
 51
357.7455692247
  0
ARC
  8
0
 62
7
  6
CONTINUOUS
 10
97.4014223195
 20
143.8687578883
 40
1.0
 50
270.7897989938
 51
349.55
  0
ARC
  8
0
 62
7
  6
CONTINUOUS
 10
116.4135429266
 20
147.1492355186
 40
1.0
 50
288.7897989938
 51
7.55
  0
ARC
  8
0
 62
7
  6
CONTINUOUS
 10
114.7967468489
 20
146.6239066281
 40
1.0
 50
208.45
 51
287.2102010062
  0
ARC
  8
0
 62
7
  6
CONTINUOUS
 10
139.371568675
 20
162.3715893635
 40
7.0
 50
134.7759775225
 51
205.55
  0
ARC
  8
0
 62
7
  6
CONTINUOUS
 10
139.7077322995
 20
162.707752988
 40
7.0
 50
64.45
 51
135.2240224775
  0
ARC
  8
0
 62
7
  6
CONTINUOUS
 10
133.4814207811
 20
156.1442235121
 40
1.0
 50
306.7897989938
 51
25.55
  0
ARC
  8
0
 62
7
  6
CONTINUOUS
 10
132.1060918907
 20
155.1449885832
 40
1.0
 50
226.45
 51
305.2102010062
  0
ARC
  8
0
 62
7
  6
CONTINUOUS
 10
146.9343330798
 20
169.9732297723
 40
1.0
 50
324.7897989938
 51
43.55
  0
ARC
  8
0
 62
7
  6
CONTINUOUS
 10
145.9350981509
 20
168.5979008819
 40
1.0
 50
244.45
 51
323.2102010062
  0
ARC
  8
0
 62
7
  6
CONTINUOUS
 10
150.611834738
 20
177.7159624433
 40
7.0
 50
152.7759775225
 51
223.55
  0
ARC
  8
0
 62
7
  6
CONTINUOUS
 10
150.8276650707
 20
178.1395533217
 40
7.0
 50
82.45
 51
153.2240224775
  0
ARC
  8
0
 62
7
  6
CONTINUOUS
 10
156.5602909723
 20
195.782761684
 40
7.0
 50
170.7759775225
 51
241.55
  0
ARC
  8
0
 62
7
  6
CONTINUOUS
 10
156.6346610366
 20
196.2523157899
 40
7.0
 50
100.45
 51
171.2240224775
  0
ARC
  8
DEFAULT_3
 62
2
  6
PHANTOM
 10
138.5224797704
 20
198.0721927895
 40
3.2
 50
135.0
 51
176.4096221093
  0
ARC
  8
DEFAULT_3
 62
2
  6
PHANTOM
 10
132.1350413113
 20
198.4729794298
 40
3.2
 50
315.0
 51
356.4096221093
  0
ARC
  8
DEFAULT_3
 62
2
  6
PHANTOM
 10
139.5831399422
 20
199.1328529613
 40
3.2
 50
92.2544307753
 51
135.0
  0
ARC
  8
0
 62
7
  6
CONTINUOUS
 10
155.4554150349
 20
187.2825748142
 40
1.0
 50
342.7897989938
 51
61.55
  0
ARC
  8
0
 62
7
  6
CONTINUOUS
 10
154.9300861444
 20
185.6657787364
 40
1.0
 50
262.45
 51
341.2102010062
  0
ARC
  8
0
 62
7
  6
CONTINUOUS
 10
158.2105637747
 20
204.6778993435
 40
1.0
 50
280.45
 51
359.2102010062
  0
CIRCLE
  8
AXES
 62
7
  6
CONTINUOUS
 10
96.5514223195
 20
205.5278993435
 40
52.625
  0
CIRCLE
  8
DEFAULT_3
 62
2
  6
PHANTOM
 10
96.5514223195
 20
205.5278993435
 40
5.0
  0
ARC
  8
0
 62
7
  6
CONTINUOUS
 10
105.8270058731
 20
265.6111380607
 40
7.0
 50
190.45
 51
261.2240224775
  0
ARC
  8
0
 62
7
  6
CONTINUOUS
 10
106.296559979
 20
265.5367679964
 40
7.0
 50
260.7759775225
 51
331.55
  0
ARC
  8
0
 62
7
  6
CONTINUOUS
 10
123.9397683413
 20
259.8041420948
 40
7.0
 50
172.45
 51
243.2240224775
  0
ARC
  8
0
 62
7
  6
CONTINUOUS
 10
124.3633592197
 20
259.588311762
 40
7.0
 50
242.7759775225
 51
313.55
  0
ARC
  8
DEFAULT_3
 62
2
  6
PHANTOM
 10
96.5514223195
 20
248.3078596053
 40
3.2
 50
2.2544307753
 51
177.7455692247
  0
ARC
  8
DEFAULT_3
 62
2
  6
PHANTOM
 10
102.9464687017
 20
248.5596169662
 40
3.2
 50
182.2544307753
 51
225.0
  0
ARC
  8
DEFAULT_3
 62
2
  6
PHANTOM
 10
104.0071288735
 20
247.4989567944
 40
3.2
 50
225.0
 51
266.4096221093
  0
ARC
  8
DEFAULT_3
 62
2
  6
PHANTOM
 10
103.6063422332
 20
241.1115183353
 40
3.2
 50
45.0
 51
86.4096221093
  0
CIRCLE
  8
0
 62
7
  6
CONTINUOUS
 10
96.5514223195
 20
260.5278993435
 40
1.2990381057
  0
ARC
  8
0
 62
7
  6
CONTINUOUS
 10
97.4014223195
 20
267.1870407988
 40
1.0
 50
10.45
 51
89.2102010062
  0
ARC
  8
0
 62
7
  6
CONTINUOUS
 10
116.4135429266
 20
263.9065631685
 40
1.0
 50
352.45
 51
71.2102010062
  0
ARC
  8
0
 62
7
  6
CONTINUOUS
 10
114.7967468489
 20
264.431892059
 40
1.0
 50
72.7897989938
 51
151.55
  0
ARC
  8
0
 62
7
  6
CONTINUOUS
 10
156.6346610366
 20
214.8034828972
 40
7.0
 50
188.7759775225
 51
259.55
  0
ARC
  8
0
 62
7
  6
CONTINUOUS
 10
156.5602909723
 20
215.2730370031
 40
7.0
 50
118.45
 51
189.2240224775
  0
ARC
  8
0
 62
7
  6
CONTINUOUS
 10
150.611834738
 20
233.3398362438
 40
7.0
 50
136.45
 51
207.2240224775
  0
ARC
  8
0
 62
7
  6
CONTINUOUS
 10
150.8276650707
 20
232.9162453654
 40
7.0
 50
206.7759775225
 51
277.55
  0
ARC
  8
DEFAULT_3
 62
2
  6
PHANTOM
 10
132.1350413113
 20
212.5828192573
 40
3.2
 50
3.5903778907
 51
45.0
  0
ARC
  8
DEFAULT_3
 62
2
  6
PHANTOM
 10
138.5224797704
 20
212.9836058976
 40
3.2
 50
183.5903778907
 51
225.0
  0
ARC
  8
DEFAULT_3
 62
2
  6
PHANTOM
 10
139.5831399422
 20
211.9229457258
 40
3.2
 50
225.0
 51
267.7455692247
  0
ARC
  8
DEFAULT_3
 62
2
  6
PHANTOM
 10
139.3313825813
 20
205.5278993435
 40
3.2
 50
272.2544307753
 51
87.7455692247
  0
ARC
  8
0
 62
7
  6
CONTINUOUS
 10
158.2105637747
 20
206.3778993435
 40
1.0
 50
0.7897989938
 51
79.55
  0
ARC
  8
0
 62
7
  6
CONTINUOUS
 10
154.9300861444
 20
225.3900199506
 40
1.0
 50
18.7897989938
 51
97.55
  0
ARC
  8
0
 62
7
  6
CONTINUOUS
 10
155.4554150349
 20
223.7732238729
 40
1.0
 50
298.45
 51
17.2102010062
  0
ARC
  8
0
 62
7
  6
CONTINUOUS
 10
139.371568675
 20
248.6842093235
 40
7.0
 50
154.45
 51
225.2240224775
  0
ARC
  8
0
 62
7
  6
CONTINUOUS
 10
139.7077322995
 20
248.3480456991
 40
7.0
 50
224.7759775225
 51
295.55
  0
ARC
  8
0
 62
7
  6
CONTINUOUS
 10
133.4814207811
 20
254.911575175
 40
1.0
 50
334.45
 51
53.2102010062
  0
ARC
  8
0
 62
7
  6
CONTINUOUS
 10
132.1060918907
 20
255.9108101039
 40
1.0
 50
54.7897989938
 51
133.55
  0
ARC
  8
0
 62
7
  6
CONTINUOUS
 10
145.9350981509
 20
242.4578978052
 40
1.0
 50
36.7897989938
 51
115.55
  0
ARC
  8
0
 62
7
  6
CONTINUOUS
 10
146.9343330798
 20
241.0825689147
 40
1.0
 50
316.45
 51
35.2102010062
  0
ARC
  8
0
 62
7
  6
CONTINUOUS
 10
158.2164223195
 20
88.2363238512
 40
1.0
 50
0.0
 51
90.0
  0
ARC
  8
0
 62
7
  6
CONTINUOUS
 10
34.8864223195
 20
88.2363238512
 40
1.0
 50
90.0
 51
180.0
  0
ARC
  8
0
 62
7
  6
CONTINUOUS
 10
34.8864223195
 20
74.4363238512
 40
1.0
 50
180.0
 51
270.0
  0
ARC
  8
0
 62
7
  6
CONTINUOUS
 10
158.2164223195
 20
74.4363238512
 40
1.0
 50
270.0
 51
360.0
  0
ARC
  8
AXES
 62
7
  6
CONTINUOUS
 10
148.1764223195
 20
92.8363238512
 40
1.0
 50
0.0
 51
90.0
  0
ARC
  8
AXES
 62
7
  6
CONTINUOUS
 10
44.9264223195
 20
92.8363238512
 40
1.0
 50
90.0
 51
180.0
  0
ARC
  8
AXES
 62
7
  6
CONTINUOUS
 10
148.1764223195
 20
69.8363238512
 40
1.0
 50
270.0
 51
360.0
  0
ARC
  8
AXES
 62
7
  6
CONTINUOUS
 10
44.9264223195
 20
69.8363238512
 40
1.0
 50
180.0
 51
270.0
  0
ARC
  8
AXES
 62
7
  6
CONTINUOUS
 10
149.9764223195
 20
90.0363238512
 40
0.8
 50
180.0
 51
270.0
  0
ARC
  8
AXES
 62
7
  6
CONTINUOUS
 10
43.1264223195
 20
90.0363238512
 40
0.8
 50
270.0
 51
360.0
  0
ARC
  8
AXES
 62
7
  6
CONTINUOUS
 10
149.9764223195
 20
72.6363238512
 40
0.8
 50
90.0
 51
180.0
  0
ARC
  8
AXES
 62
7
  6
CONTINUOUS
 10
43.1264223195
 20
72.6363238512
 40
0.8
 50
0.0
 51
90.0
  0
ENDSEC
  0
EOF
