  0
SECTION
  2
HEADER
  9
$EXTMAX
 10
210.0
 20
297.0
 30
0.0
  9
$EXTMIN
 10
0.0
 20
0.0
 30
0.0
  9
$LIMMIN
 10
0.0
 20
0.0
  9
$LIMMAX
 10
210.0
 20
297.0
  9
$VIEWCTR
 10
105.0
 20
148.5
  9
$VIEWSIZE
 40
297.0
  9
$CLAYER
  8
0
  9
$LTSCALE
 40
19.36
  9
$CELTYPE
  6
BYLAYER
  9
$DIMSCALE
 40
1.0
  9
$DIMASZ
 40
3.5
  9
$DIMEXO
 40
1.0
  9
$DIMDLI
 40
13.376
  9
$DIMEXE
 40
2.0
  9
$DIMCEN
 40
3.168
  9
$DIMLFAC
 40
1.0
  9
$DIMBLK
  1
_FILLED
  9
$DIMTXT
 40
3.5
  9
$PDMODE
 70
3
  9
$PDSIZE
 40
0.3125
  9
$TILEMODE
 70
1
  0
ENDSEC
  0
SECTION
  2
TABLES
  0
TABLE
  2
LTYPE
 70
6
  0
LTYPE
  2
BYBLOCK
 70
0
  3

 72
65
 73
0
 40
0.0
  0
LTYPE
  2
BYLAYER
 70
0
  3

 72
65
 73
0
 40
0.0
  0
LTYPE
  2
CONTINUOUS
 70
64
  3
Solid line
 72
65
 73
0
 40
0.0
  0
LTYPE
  2
CENTER
 70
64
  3
____ _ ____ _ ____ _ ____ _ ____ _ ____ _ ____
 72
65
 73
4
 40
0.6
 49
0.375
 49
-0.075
 49
0.075
 49
-0.075
  0
LTYPE
  2
HIDDEN
 70
64
  3
- - - - - - - - - - - - - - - - - - - -
 72
65
 73
2
 40
0.2
 49
0.1
 49
-0.1
  0
LTYPE
  2
PHANTOM
 70
64
  3
_____ _ _ _____ _ _ _____ _ _ _____
 72
65
 73
6
 40
0.8
 49
0.45
 49
-0.05
 49
0.1
 49
-0.05
 49
0.1
 49
-0.05
  0
LTYPE
  2
DOT
 70
64
  3
. . . . . . . . . . . . . . . . . . . .
 72
65
 73
2
 40
0.2
 49
0.1
 49
-0.1
  0
LTYPE
  2
DASHED
 70
64
  3
- - - - - - - - - - - - - - - - - - - -
 72
65
 73
2
 40
0.2
 49
0.1
 49
-0.1
  0
ENDTAB
  0
TABLE
  2
LAYER
 70
36
  0
LAYER
  2
0
 70
0
 62
7
  6
CONTINUOUS
  0
LAYER
  2
DEFAULT_1
 70
0
 62
7
  6
CENTER
  0
LAYER
  2
DEFAULT_2
 70
0
 62
8
  6
HIDDEN
  0
LAYER
  2
DEFAULT_3
 70
0
 62
7
  6
PHANTOM
  0
LAYER
  2
1_CSYS
 70
0
 62
7
  6
CONTINUOUS
  0
LAYER
  2
1_DATUM_PLANE
 70
0
 62
7
  6
CONTINUOUS
  0
LAYER
  2
2_FEATURE
 70
0
 62
7
  6
CONTINUOUS
  0
LAYER
  2
6_DIM
 70
0
 62
7
  6
CONTINUOUS
  0
LAYER
  2
AXES
 70
0
 62
7
  6
CONTINUOUS
  0
LAYER
  2
CSYS
 70
0
 62
7
  6
CONTINUOUS
  0
LAYER
  2
PLANES
 70
0
 62
7
  6
CONTINUOUS
  0
LAYER
  2
QUILTS
 70
0
 62
7
  6
CONTINUOUS
  0
ENDTAB
  0
TABLE
  2
STYLE
 70
1
  0
STYLE
  2
STANDARD
 70
0
 40
0.0
 41
0.8
 50
0.0
 71
0
 42
0.2
  3
txt
  4

  0
STYLE
  2
TEXTSTYLE_1
 70
0
 40
0.0
 41
0.8
 50
0.0
 71
0
 42
0.2
  3
gdt
  4

  0
STYLE
  2
TEXTSTYLE_2
 70
0
 40
0.0
 41
0.6
 50
0.0
 71
0
 42
0.2
  3
txt
  4

  0
STYLE
  2
TEXTSTYLE_3
 70
0
 40
0.0
 41
1.0
 50
0.0
 71
0
 42
0.2
  3
ftb_____.ttf
  4

  0
STYLE
  2
TEXTSTYLE_4
 70
0
 40
0.0
 41
1.0
 50
0.0
 71
0
 42
0.2
  3
fti_____.ttf
  4

  0
STYLE
  2
TEXTSTYLE_5
 70
0
 40
0.0
 41
1.0
 50
0.0
 71
0
 42
0.2
  3
frutiger light.ttf
  4

  0
STYLE
  2
TEXTSTYLE_6
 70
0
 40
0.0
 41
0.7
 50
0.0
 71
0
 42
0.2
  3
txt
  4

  0
STYLE
  2
TEXTSTYLE_7
 70
0
 40
0.0
 41
0.8
 50
0.0
 71
0
 42
0.2
  3
txt
  4

  0
ENDTAB
  0
ENDSEC
  0
SECTION
  2
BLOCKS
  0
BLOCK
  8
0
 62
2
  6
CONTINUOUS
  2
SYMBOL_11_BL1
 70
64
 10
173.3924355793
 20
35.4837666925
  0
TEXT
  8
0
 62
7
  6
CONTINUOUS
 10
164.4507205878
 20
30.5765230696
  7
TEXTSTYLE_4
 40
1.0655737705
  1
The brand for plastic modular belts and chains
 41
1.0
 72
0
  0
LINE
  8
0
 62
7
  6
CONTINUOUS
 10
149.3705039683
 20
36.0575371843
 11
149.3705039683
 21
33.9263896433
  0
LINE
  8
0
 62
7
  6
CONTINUOUS
 10
149.6595664615
 20
30.9354583476
 11
149.6595664615
 21
31.0322494069
  0
LINE
  8
0
 62
7
  6
CONTINUOUS
 10
149.3705039683
 20
30.9999857205
 11
149.4283164701
 21
30.8064036019
  0
LINE
  8
0
 62
7
  6
CONTINUOUS
 10
150.7639465913
 20
33.8444224302
 11
150.7639465913
 21
36.0575371843
  0
LINE
  8
0
 62
7
  6
CONTINUOUS
 10
151.6830039132
 20
32.0001601351
 11
151.6830039132
 21
30.4837666925
  0
LINE
  8
0
 62
7
  6
CONTINUOUS
 10
151.9720664683
 20
30.4837666925
 11
151.9720664683
 21
31.2258315706
  0
LINE
  8
0
 62
7
  6
CONTINUOUS
 10
151.9720664683
 20
31.3548863163
 11
151.9720664683
 21
32.0001601351
  0
LINE
  8
0
 62
7
  6
CONTINUOUS
 10
149.4283164701
 20
31.1935678842
 11
149.3705039683
 21
30.9999857205
  0
LINE
  8
0
 62
7
  6
CONTINUOUS
 10
149.7751914546
 20
30.7741399155
 11
149.6595664615
 21
30.9354583476
  0
LINE
  8
0
 62
7
  6
CONTINUOUS
 10
150.8736290235
 20
31.2903589434
 11
150.9314414683
 21
31.1935678842
  0
LINE
  8
0
 62
7
  6
CONTINUOUS
 10
151.2205040235
 20
31.1935678842
 11
151.1626914132
 21
31.3226226299
  0
LINE
  8
0
 62
7
  6
CONTINUOUS
 10
152.6491924929
 20
36.0575371843
 11
152.6491924929
 21
34.2542584958
  0
LINE
  8
0
 62
7
  6
CONTINUOUS
 10
152.6491924929
 20
32.9427830859
 11
152.6491924929
 21
32.287045381
  0
LINE
  8
0
 62
7
  6
CONTINUOUS
 10
153.0126914683
 20
31.1290405113
 11
153.0126914683
 21
30.4837666925
  0
LINE
  8
0
 62
7
  6
CONTINUOUS
 10
153.3017538581
 20
30.4837666925
 11
153.3017538581
 21
31.1290405113
  0
LINE
  8
0
 62
7
  6
CONTINUOUS
 10
149.6595664615
 20
31.0322494069
 11
149.7173789683
 21
31.1613041978
  0
LINE
  8
0
 62
7
  6
CONTINUOUS
 10
149.4283164701
 20
30.8064036019
 11
149.5439414683
 21
30.6773488336
  0
LINE
  8
0
 62
7
  6
CONTINUOUS
 10
152.9548788581
 20
31.258095257
 11
153.0126914683
 21
31.1290405113
  0
LINE
  8
0
 62
7
  6
CONTINUOUS
 10
153.7642540786
 20
30.7741399155
 11
153.8220663581
 21
30.6450851472
  0
LINE
  8
0
 62
7
  6
CONTINUOUS
 10
153.3017538581
 20
31.1290405113
 11
153.2439415786
 21
31.2903589434
  0
LINE
  8
0
 62
7
  6
CONTINUOUS
 10
153.7642540786
 20
31.3226226299
 11
153.7642540786
 21
31.258095257
  0
LINE
  8
0
 62
7
  6
CONTINUOUS
 10
153.7642540786
 20
30.8709309748
 11
153.7642540786
 21
30.7741399155
  0
LINE
  8
0
 62
7
  6
CONTINUOUS
 10
154.0426351159
 20
32.287045381
 11
154.0426351159
 21
36.0575371843
  0
LINE
  8
0
 62
7
  6
CONTINUOUS
 10
154.0533164683
 20
30.7418762065
 11
154.0533164683
 21
30.8064036019
  0
LINE
  8
0
 62
7
  6
CONTINUOUS
 10
154.3705039683
 20
36.0575371843
 11
154.3705039683
 21
32.287045381
  0
LINE
  8
0
 62
7
  6
CONTINUOUS
 10
151.1626914132
 20
30.6773488336
 11
151.2205040235
 21
30.8064036019
  0
LINE
  8
0
 62
7
  6
CONTINUOUS
 10
155.5564416889
 20
30.5805577631
 11
155.4986287478
 21
30.7418762065
  0
LINE
  8
0
 62
7
  6
CONTINUOUS
 10
155.2095666889
 20
31.258095257
 11
155.2095666889
 21
31.1613041978
  0
LINE
  8
0
 62
7
  6
CONTINUOUS
 10
155.2095666889
 20
31.0322494069
 11
155.2095666889
 21
30.8386672883
  0
LINE
  8
0
 62
7
  6
CONTINUOUS
 10
155.4986287478
 20
30.7418762065
 11
155.4986287478
 21
31.258095257
  0
LINE
  8
0
 62
7
  6
CONTINUOUS
 10
155.7639465913
 20
32.287045381
 11
155.7639465913
 21
34.0903240696
  0
LINE
  8
0
 62
7
  6
CONTINUOUS
 10
155.7639465913
 20
35.4017994794
 11
155.7639465913
 21
36.0575371843
  0
LINE
  8
0
 62
7
  6
CONTINUOUS
 10
156.0767541889
 20
32.0001601351
 11
156.0767541889
 21
31.838841703
  0
LINE
  8
0
 62
7
  6
CONTINUOUS
 10
156.0767541889
 20
31.5162047484
 11
156.0767541889
 21
30.4837666925
  0
LINE
  8
0
 62
7
  6
CONTINUOUS
 10
156.3658162478
 20
30.4837666925
 11
156.3658162478
 21
31.5162047484
  0
LINE
  8
0
 62
7
  6
CONTINUOUS
 10
156.3658162478
 20
31.838841703
 11
156.3658162478
 21
32.0001601351
  0
LINE
  8
0
 62
7
  6
CONTINUOUS
 10
150.9314414683
 20
30.8064036019
 11
150.8736290235
 21
30.7096125201
  0
LINE
  8
0
 62
7
  6
CONTINUOUS
 10
153.2439415786
 20
31.2903589434
 11
153.1861289683
 21
31.3548863163
  0
LINE
  8
0
 62
7
  6
CONTINUOUS
 10
154.1111290786
 20
30.6773488336
 11
154.0533164683
 21
30.7418762065
  0
LINE
  8
0
 62
7
  6
CONTINUOUS
 10
155.2673789683
 20
30.548294071
 11
155.3251912478
 21
30.4837666925
  0
LINE
  8
0
 62
7
  6
CONTINUOUS
 10
155.2095666889
 20
30.6450851472
 11
155.2673789683
 21
30.548294071
  0
LINE
  8
0
 62
7
  6
CONTINUOUS
 10
155.6142539683
 20
30.4837666925
 11
155.5564416889
 21
30.5805577631
  0
LINE
  8
0
 62
7
  6
CONTINUOUS
 10
155.4986287478
 20
31.258095257
 11
155.4408164683
 21
31.3548863163
  0
LINE
  8
0
 62
7
  6
CONTINUOUS
 10
156.8283164683
 20
31.5162047484
 11
156.8283164683
 21
30.4837666925
  0
LINE
  8
0
 62
7
  6
CONTINUOUS
 10
157.1173791889
 20
30.4837666925
 11
157.1173791889
 21
31.2258315706
  0
LINE
  8
0
 62
7
  6
CONTINUOUS
 10
157.1173791889
 20
31.3548863163
 11
157.1173791889
 21
31.5162047484
  0
LINE
  8
0
 62
7
  6
CONTINUOUS
 10
157.6491924929
 20
34.5001601351
 11
157.6491924929
 21
32.287045381
  0
LINE
  8
0
 62
7
  6
CONTINUOUS
 10
149.5439414683
 20
31.3226226299
 11
149.4283164701
 21
31.1935678842
  0
LINE
  8
0
 62
7
  6
CONTINUOUS
 10
149.7173789683
 20
31.1613041978
 11
149.7751914546
 21
31.2258315706
  0
LINE
  8
0
 62
7
  6
CONTINUOUS
 10
149.5439414683
 20
30.6773488336
 11
149.6595664615
 21
30.6128214495
  0
LINE
  8
0
 62
7
  6
CONTINUOUS
 10
149.9486289546
 20
30.6773488336
 11
149.7751914546
 21
30.7741399155
  0
LINE
  8
0
 62
7
  6
CONTINUOUS
 10
155.1517537478
 20
31.3226226299
 11
155.2095666889
 21
31.258095257
  0
LINE
  8
0
 62
7
  6
CONTINUOUS
 10
158.1001912478
 20
31.258095257
 11
158.1580041889
 21
31.0967768249
  0
LINE
  8
0
 62
7
  6
CONTINUOUS
 10
158.4470662478
 20
31.0967768249
 11
158.3892539683
 21
31.258095257
  0
LINE
  8
0
 62
7
  6
CONTINUOUS
 10
158.1580041889
 20
31.0967768249
 11
158.1580041889
 21
30.4837666925
  0
LINE
  8
0
 62
7
  6
CONTINUOUS
 10
158.4470662478
 20
30.4837666925
 11
158.4470662478
 21
31.0967768249
  0
LINE
  8
0
 62
7
  6
CONTINUOUS
 10
158.9095664683
 20
31.3226226299
 11
158.9095664683
 21
31.258095257
  0
LINE
  8
0
 62
7
  6
CONTINUOUS
 10
159.0426351159
 20
32.287045381
 11
159.0426351159
 21
34.418192922
  0
LINE
  8
0
 62
7
  6
CONTINUOUS
 10
159.3705039683
 20
36.0575371843
 11
159.3705039683
 21
32.287045381
  0
LINE
  8
0
 62
7
  6
CONTINUOUS
 10
154.0533164683
 20
30.8064036019
 11
154.1111290786
 21
30.9031946612
  0
LINE
  8
0
 62
7
  6
CONTINUOUS
 10
149.6595664615
 20
30.6128214495
 11
149.8330039821
 21
30.548294071
  0
LINE
  8
0
 62
7
  6
CONTINUOUS
 10
151.1626914132
 20
31.3226226299
 11
150.9892539132
 21
31.4194136891
  0
LINE
  8
0
 62
7
  6
CONTINUOUS
 10
153.8220663581
 20
30.6450851472
 11
153.9955038581
 21
30.548294071
  0
LINE
  8
0
 62
7
  6
CONTINUOUS
 10
152.8392539683
 20
31.3226226299
 11
152.9548788581
 21
31.258095257
  0
LINE
  8
0
 62
7
  6
CONTINUOUS
 10
153.1861289683
 20
31.3548863163
 11
153.0705040786
 21
31.4194136891
  0
LINE
  8
0
 62
7
  6
CONTINUOUS
 10
158.9095664683
 20
30.7418762065
 11
159.0251916889
 21
30.6128214495
  0
LINE
  8
0
 62
7
  6
CONTINUOUS
 10
159.2564414683
 20
30.6773488336
 11
159.1986291889
 21
30.7418762065
  0
LINE
  8
0
 62
7
  6
CONTINUOUS
 10
158.9095664683
 20
31.258095257
 11
159.0251916889
 21
31.1290405113
  0
LINE
  8
0
 62
7
  6
CONTINUOUS
 10
158.3892539683
 20
31.258095257
 11
158.3314416889
 21
31.3548863163
  0
LINE
  8
0
 62
7
  6
CONTINUOUS
 10
160.7595660273
 20
30.6773488336
 11
160.7595660273
 21
30.7418762065
  0
LINE
  8
0
 62
7
  6
CONTINUOUS
 10
160.7639465913
 20
32.287045381
 11
160.7639465913
 21
36.0575371843
  0
LINE
  8
0
 62
7
  6
CONTINUOUS
 10
153.8220663581
 20
31.3871500027
 11
153.7642540786
 21
31.3226226299
  0
LINE
  8
0
 62
7
  6
CONTINUOUS
 10
150.7001914408
 20
31.3548863163
 11
150.8736290235
 21
31.2903589434
  0
LINE
  8
0
 62
7
  6
CONTINUOUS
 10
155.4408164683
 20
31.3548863163
 11
155.3251912478
 21
31.4194136891
  0
LINE
  8
0
 62
7
  6
CONTINUOUS
 10
159.2564414683
 20
31.1935678842
 11
159.1986291889
 21
31.258095257
  0
LINE
  8
0
 62
7
  6
CONTINUOUS
 10
160.4126916889
 20
30.8064036019
 11
160.4705039683
 21
30.7418762065
  0
LINE
  8
0
 62
7
  6
CONTINUOUS
 10
160.7595660273
 20
30.7418762065
 11
160.6439414683
 21
30.8709309748
  0
LINE
  8
0
 62
7
  6
CONTINUOUS
 10
160.4126916889
 20
31.3226226299
 11
160.4705039683
 21
31.258095257
  0
LINE
  8
0
 62
7
  6
CONTINUOUS
 10
160.7595660273
 20
31.258095257
 11
160.6439414683
 21
31.3871500027
  0
LINE
  8
0
 62
7
  6
CONTINUOUS
 10
154.0533164683
 20
31.258095257
 11
154.1111290786
 21
31.3226226299
  0
LINE
  8
0
 62
7
  6
CONTINUOUS
 10
153.8798789683
 20
30.9999857205
 11
153.7642540786
 21
30.8709309748
  0
LINE
  8
0
 62
7
  6
CONTINUOUS
 10
155.2095666889
 20
30.8386672883
 11
155.1517537478
 21
30.7741399155
  0
LINE
  8
0
 62
7
  6
CONTINUOUS
 10
155.1517537478
 20
30.5805577631
 11
155.2095666889
 21
30.6450851472
  0
LINE
  8
0
 62
7
  6
CONTINUOUS
 10
153.9955038581
 20
30.548294071
 11
154.1111290786
 21
30.5160303817
  0
LINE
  8
0
 62
7
  6
CONTINUOUS
 10
150.9892539132
 20
31.4194136891
 11
150.7580039683
 21
31.483941062
  0
LINE
  8
0
 62
7
  6
CONTINUOUS
 10
154.3423788581
 20
30.6128214495
 11
154.1111290786
 21
30.6773488336
  0
LINE
  8
0
 62
7
  6
CONTINUOUS
 10
153.0705040786
 20
31.4194136891
 11
152.8970665786
 21
31.483941062
  0
LINE
  8
0
 62
7
  6
CONTINUOUS
 10
155.3251912478
 20
31.4194136891
 11
155.1517537478
 21
31.483941062
  0
LINE
  8
0
 62
7
  6
CONTINUOUS
 10
157.9845666889
 20
31.3226226299
 11
158.1001912478
 21
31.258095257
  0
LINE
  8
0
 62
7
  6
CONTINUOUS
 10
158.3314416889
 20
31.3548863163
 11
158.2158164683
 21
31.4194136891
  0
LINE
  8
0
 62
7
  6
CONTINUOUS
 10
149.8330039821
 20
30.548294071
 11
150.0064414821
 21
30.5160303817
  0
LINE
  8
0
 62
7
  6
CONTINUOUS
 10
150.2955039959
 20
30.6128214495
 11
149.9486289546
 21
30.6773488336
  0
LINE
  8
0
 62
7
  6
CONTINUOUS
 10
152.7236290786
 20
31.3548863163
 11
152.8392539683
 21
31.3226226299
  0
LINE
  8
0
 62
7
  6
CONTINUOUS
 10
155.0361291889
 20
31.3548863163
 11
155.1517537478
 21
31.3226226299
  0
LINE
  8
0
 62
7
  6
CONTINUOUS
 10
159.3720666889
 20
30.6450851472
 11
159.2564414683
 21
30.6773488336
  0
LINE
  8
0
 62
7
  6
CONTINUOUS
 10
157.8689414683
 20
31.3548863163
 11
157.9845666889
 21
31.3226226299
  0
LINE
  8
0
 62
7
  6
CONTINUOUS
 10
159.0251916889
 20
30.6128214495
 11
159.1986291889
 21
30.548294071
  0
LINE
  8
0
 62
7
  6
CONTINUOUS
 10
158.2158164683
 20
31.4194136891
 11
158.0423789683
 21
31.483941062
  0
LINE
  8
0
 62
7
  6
CONTINUOUS
 10
159.4298789683
 20
31.1290405113
 11
159.2564414683
 21
31.1935678842
  0
LINE
  8
0
 62
7
  6
CONTINUOUS
 10
160.2392541889
 20
30.8709309748
 11
160.4126916889
 21
30.8064036019
  0
LINE
  8
0
 62
7
  6
CONTINUOUS
 10
160.6439414683
 20
31.3871500027
 11
160.4705039683
 21
31.4516773756
  0
LINE
  8
0
 62
7
  6
CONTINUOUS
 10
159.0251916889
 20
31.1290405113
 11
159.2564414683
 21
31.0322494069
  0
LINE
  8
0
 62
7
  6
CONTINUOUS
 10
160.6439414683
 20
30.8709309748
 11
160.4126916889
 21
30.967722034
  0
LINE
  8
0
 62
7
  6
CONTINUOUS
 10
159.1986291889
 20
31.258095257
 11
159.2564414683
 21
31.3226226299
  0
LINE
  8
0
 62
7
  6
CONTINUOUS
 10
149.6595664615
 20
31.3871500027
 11
149.5439414683
 21
31.3226226299
  0
LINE
  8
0
 62
7
  6
CONTINUOUS
 10
149.7751914546
 20
31.2258315706
 11
149.9486289546
 21
31.3226226299
  0
LINE
  8
0
 62
7
  6
CONTINUOUS
 10
152.0876915235
 20
31.4194136891
 11
151.9720664683
 21
31.3548863163
  0
LINE
  8
0
 62
7
  6
CONTINUOUS
 10
151.9720664683
 20
31.2258315706
 11
152.0876915235
 21
31.2903589434
  0
LINE
  8
0
 62
7
  6
CONTINUOUS
 10
150.9892539132
 20
30.5805577631
 11
151.1626914132
 21
30.6773488336
  0
LINE
  8
0
 62
7
  6
CONTINUOUS
 10
150.0064414821
 20
30.5160303817
 11
150.3533164408
 21
30.4837666925
  0
LINE
  8
0
 62
7
  6
CONTINUOUS
 10
154.1111290786
 20
30.5160303817
 11
154.3423788581
 21
30.4837666925
  0
LINE
  8
0
 62
7
  6
CONTINUOUS
 10
152.4923789683
 20
31.3871500027
 11
152.7236290786
 21
31.3548863163
  0
LINE
  8
0
 62
7
  6
CONTINUOUS
 10
154.8048790786
 20
31.3871500027
 11
155.0361291889
 21
31.3548863163
  0
LINE
  8
0
 62
7
  6
CONTINUOUS
 10
159.2564414683
 20
31.0322494069
 11
160.2392541889
 21
30.8709309748
  0
LINE
  8
0
 62
7
  6
CONTINUOUS
 10
160.4126916889
 20
30.967722034
 11
159.4298789683
 21
31.1290405113
  0
LINE
  8
0
 62
7
  6
CONTINUOUS
 10
152.8970665786
 20
31.483941062
 11
152.7236290786
 21
31.5162047484
  0
LINE
  8
0
 62
7
  6
CONTINUOUS
 10
159.1986291889
 20
30.548294071
 11
159.3720666889
 21
30.5160303817
  0
LINE
  8
0
 62
7
  6
CONTINUOUS
 10
158.0423789683
 20
31.483941062
 11
157.8689414683
 21
31.5162047484
  0
LINE
  8
0
 62
7
  6
CONTINUOUS
 10
160.2970664683
 20
31.3548863163
 11
160.4126916889
 21
31.3226226299
  0
LINE
  8
0
 62
7
  6
CONTINUOUS
 10
160.4705039683
 20
30.7418762065
 11
160.4126916889
 21
30.6773488336
  0
LINE
  8
0
 62
7
  6
CONTINUOUS
 10
159.0251916889
 20
31.4194136891
 11
158.9095664683
 21
31.3226226299
  0
LINE
  8
0
 62
7
  6
CONTINUOUS
 10
153.9376915786
 20
31.4516773756
 11
153.8220663581
 21
31.3871500027
  0
LINE
  8
0
 62
7
  6
CONTINUOUS
 10
153.9955038581
 20
31.0645131385
 11
153.8798789683
 21
30.9999857205
  0
LINE
  8
0
 62
7
  6
CONTINUOUS
 10
154.1111290786
 20
30.9031946612
 11
154.2267539683
 21
30.967722034
  0
LINE
  8
0
 62
7
  6
CONTINUOUS
 10
151.6830039132
 20
30.4837666925
 11
151.9720664683
 21
30.4837666925
  0
LINE
  8
0
 62
7
  6
CONTINUOUS
 10
153.0126914683
 20
30.4837666925
 11
153.3017538581
 21
30.4837666925
  0
LINE
  8
0
 62
7
  6
CONTINUOUS
 10
154.3423788581
 20
30.4837666925
 11
154.6892538581
 21
30.4837666925
  0
LINE
  8
0
 62
7
  6
CONTINUOUS
 10
155.3251912478
 20
30.4837666925
 11
155.6142539683
 21
30.4837666925
  0
LINE
  8
0
 62
7
  6
CONTINUOUS
 10
156.0767541889
 20
30.4837666925
 11
156.3658162478
 21
30.4837666925
  0
LINE
  8
0
 62
7
  6
CONTINUOUS
 10
156.8283164683
 20
30.4837666925
 11
157.1173791889
 21
30.4837666925
  0
LINE
  8
0
 62
7
  6
CONTINUOUS
 10
158.1580041889
 20
30.4837666925
 11
158.4470662478
 21
30.4837666925
  0
LINE
  8
0
 62
7
  6
CONTINUOUS
 10
159.7189416889
 20
30.4837666925
 11
160.0658166889
 21
30.4837666925
  0
LINE
  8
0
 62
7
  6
CONTINUOUS
 10
160.0658166889
 20
30.6128214495
 11
159.7189416889
 21
30.6128214495
  0
LINE
  8
0
 62
7
  6
CONTINUOUS
 10
154.6892538581
 20
30.6128214495
 11
154.3423788581
 21
30.6128214495
  0
LINE
  8
0
 62
7
  6
CONTINUOUS
 10
159.1986291889
 20
30.7418762065
 11
158.9095664683
 21
30.7418762065
  0
LINE
  8
0
 62
7
  6
CONTINUOUS
 10
151.2205040235
 20
30.8064036019
 11
150.9314414683
 21
30.8064036019
  0
LINE
  8
0
 62
7
  6
CONTINUOUS
 10
150.2955039959
 20
31.3871500027
 11
150.7001914408
 21
31.3548863163
  0
LINE
  8
0
 62
7
  6
CONTINUOUS
 10
150.7580039683
 20
31.483941062
 11
150.3533164408
 21
31.5162047484
  0
LINE
  8
0
 62
7
  6
CONTINUOUS
 10
159.3720666889
 20
30.5160303817
 11
159.7189416889
 21
30.4837666925
  0
LINE
  8
0
 62
7
  6
CONTINUOUS
 10
159.7189416889
 20
30.6128214495
 11
159.3720666889
 21
30.6450851472
  0
LINE
  8
0
 62
7
  6
CONTINUOUS
 10
155.1517537478
 20
31.483941062
 11
154.8048790786
 21
31.5162047484
  0
LINE
  8
0
 62
7
  6
CONTINUOUS
 10
159.9501914683
 20
31.3871500027
 11
160.2970664683
 21
31.3548863163
  0
LINE
  8
0
 62
7
  6
CONTINUOUS
 10
160.2970664683
 20
31.483941062
 11
159.9501914683
 21
31.5162047484
  0
LINE
  8
0
 62
7
  6
CONTINUOUS
 10
157.6376916889
 20
31.3871500027
 11
157.8689414683
 21
31.3548863163
  0
LINE
  8
0
 62
7
  6
CONTINUOUS
 10
160.4705039683
 20
31.4516773756
 11
160.2970664683
 21
31.483941062
  0
LINE
  8
0
 62
7
  6
CONTINUOUS
 10
160.6439414683
 20
30.5805577631
 11
160.7595660273
 21
30.6773488336
  0
LINE
  8
0
 62
7
  6
CONTINUOUS
 10
155.1517537478
 20
30.7741399155
 11
154.9783162478
 21
30.6773488336
  0
LINE
  8
0
 62
7
  6
CONTINUOUS
 10
157.2330037478
 20
31.4194136891
 11
157.1173791889
 21
31.3548863163
  0
LINE
  8
0
 62
7
  6
CONTINUOUS
 10
157.1173791889
 20
31.2258315706
 11
157.2330037478
 21
31.2903589434
  0
LINE
  8
0
 62
7
  6
CONTINUOUS
 10
149.8330039821
 20
31.4516773756
 11
149.6595664615
 21
31.3871500027
  0
LINE
  8
0
 62
7
  6
CONTINUOUS
 10
152.2611288581
 20
31.483941062
 11
152.0876915235
 21
31.4194136891
  0
LINE
  8
0
 62
7
  6
CONTINUOUS
 10
152.0876915235
 20
31.2903589434
 11
152.2611288581
 21
31.3548863163
  0
LINE
  8
0
 62
7
  6
CONTINUOUS
 10
150.8736290235
 20
30.7096125201
 11
150.7001914408
 21
30.6450851472
  0
LINE
  8
0
 62
7
  6
CONTINUOUS
 10
160.2970664683
 20
30.6450851472
 11
160.0658166889
 21
30.6128214495
  0
LINE
  8
0
 62
7
  6
CONTINUOUS
 10
154.6892538581
 20
30.4837666925
 11
154.9783162478
 21
30.5160303817
  0
LINE
  8
0
 62
7
  6
CONTINUOUS
 10
160.0658166889
 20
30.4837666925
 11
160.4126916889
 21
30.5160303817
  0
LINE
  8
0
 62
7
  6
CONTINUOUS
 10
150.3533164408
 20
30.4837666925
 11
150.7580039683
 21
30.5160303817
  0
LINE
  8
0
 62
7
  6
CONTINUOUS
 10
150.7001914408
 20
30.6450851472
 11
150.2955039959
 21
30.6128214495
  0
LINE
  8
0
 62
7
  6
CONTINUOUS
 10
154.5736289683
 20
31.0322494069
 11
155.2095666889
 21
31.0322494069
  0
LINE
  8
0
 62
7
  6
CONTINUOUS
 10
155.2095666889
 20
31.1613041978
 11
154.5736289683
 21
31.1613041978
  0
LINE
  8
0
 62
7
  6
CONTINUOUS
 10
150.9314414683
 20
31.1935678842
 11
151.2205040235
 21
31.1935678842
  0
LINE
  8
0
 62
7
  6
CONTINUOUS
 10
153.7642540786
 20
31.258095257
 11
154.0533164683
 21
31.258095257
  0
LINE
  8
0
 62
7
  6
CONTINUOUS
 10
160.4705039683
 20
31.258095257
 11
160.7595660273
 21
31.258095257
  0
LINE
  8
0
 62
7
  6
CONTINUOUS
 10
154.4580040786
 20
31.3871500027
 11
154.8048790786
 21
31.3871500027
  0
LINE
  8
0
 62
7
  6
CONTINUOUS
 10
159.6033164683
 20
31.3871500027
 11
159.9501914683
 21
31.3871500027
  0
LINE
  8
0
 62
7
  6
CONTINUOUS
 10
159.9501914683
 20
31.5162047484
 11
159.6033164683
 21
31.5162047484
  0
LINE
  8
0
 62
7
  6
CONTINUOUS
 10
157.8689414683
 20
31.5162047484
 11
157.6376916889
 21
31.5162047484
  0
LINE
  8
0
 62
7
  6
CONTINUOUS
 10
157.1173791889
 20
31.5162047484
 11
156.8283164683
 21
31.5162047484
  0
LINE
  8
0
 62
7
  6
CONTINUOUS
 10
156.3658162478
 20
31.5162047484
 11
156.0767541889
 21
31.5162047484
  0
LINE
  8
0
 62
7
  6
CONTINUOUS
 10
154.8048790786
 20
31.5162047484
 11
154.4580040786
 21
31.5162047484
  0
LINE
  8
0
 62
7
  6
CONTINUOUS
 10
152.7236290786
 20
31.5162047484
 11
152.4923789683
 21
31.5162047484
  0
LINE
  8
0
 62
7
  6
CONTINUOUS
 10
156.0767541889
 20
31.838841703
 11
156.3658162478
 21
31.838841703
  0
LINE
  8
0
 62
7
  6
CONTINUOUS
 10
156.3658162478
 20
32.0001601351
 11
156.0767541889
 21
32.0001601351
  0
LINE
  8
0
 62
7
  6
CONTINUOUS
 10
151.9720664683
 20
32.0001601351
 11
151.6830039132
 21
32.0001601351
  0
LINE
  8
0
 62
7
  6
CONTINUOUS
 10
151.0098482306
 20
32.287045381
 11
151.4224195792
 21
32.287045381
  0
LINE
  8
0
 62
7
  6
CONTINUOUS
 10
152.6491924929
 20
32.287045381
 11
154.0426351159
 21
32.287045381
  0
LINE
  8
0
 62
7
  6
CONTINUOUS
 10
154.3705039683
 20
32.287045381
 11
155.7639465913
 21
32.287045381
  0
LINE
  8
0
 62
7
  6
CONTINUOUS
 10
157.6491924929
 20
32.287045381
 11
159.0426351159
 21
32.287045381
  0
LINE
  8
0
 62
7
  6
CONTINUOUS
 10
159.3705039683
 20
32.287045381
 11
160.7639465913
 21
32.287045381
  0
LINE
  8
0
 62
7
  6
CONTINUOUS
 10
157.4064412478
 20
31.483941062
 11
157.2330037478
 21
31.4194136891
  0
LINE
  8
0
 62
7
  6
CONTINUOUS
 10
154.9783162478
 20
30.5160303817
 11
155.1517537478
 21
30.5805577631
  0
LINE
  8
0
 62
7
  6
CONTINUOUS
 10
160.4126916889
 20
30.5160303817
 11
160.6439414683
 21
30.5805577631
  0
LINE
  8
0
 62
7
  6
CONTINUOUS
 10
160.4126916889
 20
30.6773488336
 11
160.2970664683
 21
30.6450851472
  0
LINE
  8
0
 62
7
  6
CONTINUOUS
 10
159.3720666889
 20
31.3548863163
 11
159.6033164683
 21
31.3871500027
  0
LINE
  8
0
 62
7
  6
CONTINUOUS
 10
157.4064412478
 20
31.3548863163
 11
157.6376916889
 21
31.3871500027
  0
LINE
  8
0
 62
7
  6
CONTINUOUS
 10
154.3423788581
 20
30.9999857205
 11
154.5736289683
 21
31.0322494069
  0
LINE
  8
0
 62
7
  6
CONTINUOUS
 10
157.6376916889
 20
31.5162047484
 11
157.4064412478
 21
31.483941062
  0
LINE
  8
0
 62
7
  6
CONTINUOUS
 10
154.2267539683
 20
31.3548863163
 11
154.4580040786
 21
31.3871500027
  0
LINE
  8
0
 62
7
  6
CONTINUOUS
 10
159.6033164683
 20
31.5162047484
 11
159.2564414683
 21
31.483941062
  0
LINE
  8
0
 62
7
  6
CONTINUOUS
 10
154.5736289683
 20
31.1613041978
 11
154.2267539683
 21
31.1290405113
  0
LINE
  8
0
 62
7
  6
CONTINUOUS
 10
150.3533164408
 20
31.5162047484
 11
150.0064414821
 21
31.483941062
  0
LINE
  8
0
 62
7
  6
CONTINUOUS
 10
154.4580040786
 20
31.5162047484
 11
154.0533164683
 21
31.483941062
  0
LINE
  8
0
 62
7
  6
CONTINUOUS
 10
151.8295203618
 20
33.4345863646
 11
151.1737826569
 21
33.4345863646
  0
LINE
  8
0
 62
7
  6
CONTINUOUS
 10
157.2330037478
 20
31.2903589434
 11
157.4064412478
 21
31.3548863163
  0
LINE
  8
0
 62
7
  6
CONTINUOUS
 10
159.2564414683
 20
31.3226226299
 11
159.3720666889
 21
31.3548863163
  0
LINE
  8
0
 62
7
  6
CONTINUOUS
 10
159.2564414683
 20
31.483941062
 11
159.0251916889
 21
31.4194136891
  0
LINE
  8
0
 62
7
  6
CONTINUOUS
 10
154.9783162478
 20
30.6773488336
 11
154.6892538581
 21
30.6128214495
  0
LINE
  8
0
 62
7
  6
CONTINUOUS
 10
152.2611288581
 20
31.3548863163
 11
152.4923789683
 21
31.3871500027
  0
LINE
  8
0
 62
7
  6
CONTINUOUS
 10
152.4923789683
 20
31.5162047484
 11
152.2611288581
 21
31.483941062
  0
LINE
  8
0
 62
7
  6
CONTINUOUS
 10
150.0642539683
 20
31.3548863163
 11
150.2955039959
 21
31.3871500027
  0
LINE
  8
0
 62
7
  6
CONTINUOUS
 10
156.5836187224
 20
34.9099962007
 11
157.2393564274
 21
34.9099962007
  0
LINE
  8
0
 62
7
  6
CONTINUOUS
 10
154.2267539683
 20
30.967722034
 11
154.3423788581
 21
30.9999857205
  0
LINE
  8
0
 62
7
  6
CONTINUOUS
 10
154.2267539683
 20
31.1290405113
 11
153.9955038581
 21
31.0645131385
  0
LINE
  8
0
 62
7
  6
CONTINUOUS
 10
154.1111290786
 20
31.3226226299
 11
154.2267539683
 21
31.3548863163
  0
LINE
  8
0
 62
7
  6
CONTINUOUS
 10
150.7580039683
 20
30.5160303817
 11
150.9892539132
 21
30.5805577631
  0
LINE
  8
0
 62
7
  6
CONTINUOUS
 10
154.0533164683
 20
31.483941062
 11
153.9376915786
 21
31.4516773756
  0
LINE
  8
0
 62
7
  6
CONTINUOUS
 10
150.0064414821
 20
31.483941062
 11
149.8330039821
 21
31.4516773756
  0
LINE
  8
0
 62
7
  6
CONTINUOUS
 10
160.7639465913
 20
36.0575371843
 11
159.3705039683
 21
36.0575371843
  0
LINE
  8
0
 62
7
  6
CONTINUOUS
 10
157.4032908536
 20
36.0575371843
 11
156.990719505
 21
36.0575371843
  0
LINE
  8
0
 62
7
  6
CONTINUOUS
 10
155.7639465913
 20
36.0575371843
 11
154.3705039683
 21
36.0575371843
  0
LINE
  8
0
 62
7
  6
CONTINUOUS
 10
154.0426351159
 20
36.0575371843
 11
152.6491924929
 21
36.0575371843
  0
LINE
  8
0
 62
7
  6
CONTINUOUS
 10
150.7639465913
 20
36.0575371843
 11
149.3705039683
 21
36.0575371843
  0
LINE
  8
0
 62
7
  6
CONTINUOUS
 10
149.9486289546
 20
31.3226226299
 11
150.0642539683
 21
31.3548863163
  0
CIRCLE
  8
0
 62
7
  6
CONTINUOUS
 10
160.0672252798
 20
38.3936027581
 40
2.0901639344
  0
ARC
  8
0
 62
7
  6
CONTINUOUS
 10
151.0098482306
 20
33.9263896433
 40
1.6393442623
 50
180.0
 51
270.0
  0
ARC
  8
0
 62
7
  6
CONTINUOUS
 10
157.4032908536
 20
34.418192922
 40
1.6393442623
 50
0.0
 51
90.0
  0
ARC
  8
0
 62
7
  6
CONTINUOUS
 10
151.4224195792
 20
33.7624552171
 40
1.4754098361
 50
270.0
 51
326.2510114041
  0
ARC
  8
0
 62
7
  6
CONTINUOUS
 10
156.990719505
 20
34.5821273482
 40
1.4754098361
 50
90.0
 51
146.2510114041
  0
ARC
  8
0
 62
7
  6
CONTINUOUS
 10
151.8295203618
 20
34.2542584958
 40
0.8196721311
 50
270.0
 51
360.0
  0
ARC
  8
0
 62
7
  6
CONTINUOUS
 10
156.5836187224
 20
34.0903240696
 40
0.8196721311
 50
90.0
 51
180.0
  0
ARC
  8
0
 62
7
  6
CONTINUOUS
 10
151.1737826569
 20
33.8444224302
 40
0.4098360656
 50
180.0
 51
270.0
  0
ARC
  8
0
 62
7
  6
CONTINUOUS
 10
157.2393564274
 20
34.5001601351
 40
0.4098360656
 50
0.0
 51
90.0
  0
SOLID
  8
0
 62
7
  6
CONTINUOUS
 10
156.0767541889
 20
31.8388420633
 11
156.0767541889
 21
32.0001605469
 12
156.3658162478
 22
31.8388420633
 13
156.3658162478
 23
32.0001605469
  0
SOLID
  8
0
 62
7
  6
CONTINUOUS
 10
150.3533164408
 20
31.5162050961
 11
150.7580039683
 21
31.4839409236
 12
150.0064414821
 22
31.4839409236
 13
150.0064414821
 23
31.4839409236
  0
SOLID
  8
0
 62
7
  6
CONTINUOUS
 10
149.8330039821
 20
31.4516780059
 11
150.0064414821
 21
31.4839409236
 12
150.7580039683
 22
31.4839409236
 13
150.7580039683
 23
31.4839409236
  0
SOLID
  8
0
 62
7
  6
CONTINUOUS
 10
150.7580039683
 20
31.4839409236
 11
150.9892539132
 21
31.4194137026
 12
149.8330039821
 22
31.4516780059
 13
149.8330039821
 23
31.4516780059
  0
SOLID
  8
0
 62
7
  6
CONTINUOUS
 10
149.6595664615
 20
31.3871495108
 11
149.8330039821
 21
31.4516780059
 12
150.9892539132
 22
31.4194137026
 13
150.9892539132
 23
31.4194137026
  0
SOLID
  8
0
 62
7
  6
CONTINUOUS
 10
149.6595664615
 20
31.3871495108
 11
150.9892539132
 21
31.4194137026
 12
150.2955039959
 22
31.3871495108
 13
150.2955039959
 23
31.3871495108
  0
SOLID
  8
0
 62
7
  6
CONTINUOUS
 10
150.2955039959
 20
31.3871495108
 11
150.9892539132
 21
31.4194137026
 12
150.7001914408
 22
31.3548866125
 13
150.7001914408
 23
31.3548866125
  0
SOLID
  8
0
 62
7
  6
CONTINUOUS
 10
150.9892539132
 20
31.4194137026
 11
151.1626914132
 21
31.3226223092
 12
150.7001914408
 22
31.3548866125
 13
150.7001914408
 23
31.3548866125
  0
SOLID
  8
0
 62
7
  6
CONTINUOUS
 10
150.8736290235
 20
31.2903595223
 11
150.7001914408
 21
31.3548866125
 12
151.1626914132
 22
31.3226223092
 13
151.1626914132
 23
31.3226223092
  0
SOLID
  8
0
 62
7
  6
CONTINUOUS
 10
150.8736290235
 20
31.2903595223
 11
151.1626914132
 21
31.3226223092
 12
150.9314414683
 22
31.1935679757
 13
150.9314414683
 23
31.1935679757
  0
SOLID
  8
0
 62
7
  6
CONTINUOUS
 10
151.1626914132
 20
31.3226223092
 11
151.2205040235
 21
31.1935679757
 12
150.9314414683
 22
31.1935679757
 13
150.9314414683
 23
31.1935679757
  0
SOLID
  8
0
 62
7
  6
CONTINUOUS
 10
152.2611288581
 20
31.4839414344
 11
152.4923789683
 21
31.5162057377
 12
152.7236290786
 22
31.5162057377
 13
152.7236290786
 23
31.5162057377
  0
SOLID
  8
0
 62
7
  6
CONTINUOUS
 10
152.7236290786
 20
31.5162057377
 11
152.8970665786
 21
31.4839414344
 12
152.2611288581
 22
31.4839414344
 13
152.2611288581
 23
31.4839414344
  0
SOLID
  8
0
 62
7
  6
CONTINUOUS
 10
152.0876915235
 20
31.4194143443
 11
152.2611288581
 21
31.4839414344
 12
152.8970665786
 22
31.4839414344
 13
152.8970665786
 23
31.4839414344
  0
SOLID
  8
0
 62
7
  6
CONTINUOUS
 10
152.8970665786
 20
31.4839414344
 11
153.0705040786
 21
31.4194143443
 12
152.0876915235
 22
31.4194143443
 13
152.0876915235
 23
31.4194143443
  0
SOLID
  8
0
 62
7
  6
CONTINUOUS
 10
153.0705040786
 20
31.4194143443
 11
152.4923789683
 21
31.3871493993
 12
152.0876915235
 22
31.4194143443
 13
152.0876915235
 23
31.4194143443
  0
SOLID
  8
0
 62
7
  6
CONTINUOUS
 10
151.9720664683
 20
31.3548872541
 11
152.0876915235
 21
31.4194143443
 12
152.4923789683
 22
31.3871493993
 13
152.4923789683
 23
31.3871493993
  0
SOLID
  8
0
 62
7
  6
CONTINUOUS
 10
152.4923789683
 20
31.3871493993
 11
152.2611288581
 21
31.3548872541
 12
151.9720664683
 22
31.3548872541
 13
151.9720664683
 23
31.3548872541
  0
SOLID
  8
0
 62
7
  6
CONTINUOUS
 10
152.4923789683
 20
31.3871493993
 11
153.0705040786
 21
31.4194143443
 12
152.7236290786
 22
31.3548872541
 13
152.7236290786
 23
31.3548872541
  0
SOLID
  8
0
 62
7
  6
CONTINUOUS
 10
153.0705040786
 20
31.4194143443
 11
153.1861289683
 21
31.3548872541
 12
152.7236290786
 22
31.3548872541
 13
152.7236290786
 23
31.3548872541
  0
SOLID
  8
0
 62
7
  6
CONTINUOUS
 10
152.8392539683
 20
31.3226223092
 11
152.7236290786
 21
31.3548872541
 12
153.1861289683
 22
31.3548872541
 13
153.1861289683
 23
31.3548872541
  0
SOLID
  8
0
 62
7
  6
CONTINUOUS
 10
153.1861289683
 20
31.3548872541
 11
153.2439415786
 21
31.2903601639
 12
152.8392539683
 22
31.3226223092
 13
152.8392539683
 23
31.3226223092
  0
SOLID
  8
0
 62
7
  6
CONTINUOUS
 10
152.9548788581
 20
31.258095219
 11
152.8392539683
 21
31.3226223092
 12
153.2439415786
 22
31.2903601639
 13
153.2439415786
 23
31.2903601639
  0
SOLID
  8
0
 62
7
  6
CONTINUOUS
 10
152.9548788581
 20
31.258095219
 11
153.2439415786
 21
31.2903601639
 12
153.0126914683
 22
31.1290416803
 13
153.0126914683
 23
31.1290416803
  0
SOLID
  8
0
 62
7
  6
CONTINUOUS
 10
153.2439415786
 20
31.2903601639
 11
153.3017538581
 21
31.1290416803
 12
153.0126914683
 22
31.1290416803
 13
153.0126914683
 23
31.1290416803
  0
SOLID
  8
0
 62
7
  6
CONTINUOUS
 10
152.2611288581
 20
31.3548872541
 11
152.0876915235
 21
31.2903601639
 12
151.9720664683
 22
31.3548872541
 13
151.9720664683
 23
31.3548872541
  0
SOLID
  8
0
 62
7
  6
CONTINUOUS
 10
152.0876915235
 20
31.2903601639
 11
151.9720664683
 21
31.2258309157
 12
151.9720664683
 22
31.3548872541
 13
151.9720664683
 23
31.3548872541
  0
SOLID
  8
0
 62
7
  6
CONTINUOUS
 10
151.9720664683
 20
31.2258309157
 11
151.6830039132
 21
30.4837677459
 12
151.9720664683
 22
31.3548872541
 13
151.9720664683
 23
31.3548872541
  0
SOLID
  8
0
 62
7
  6
CONTINUOUS
 10
151.9720664683
 20
31.3548872541
 11
151.6830039132
 21
30.4837677459
 12
151.9720664683
 22
32.0001611885
 13
151.9720664683
 23
32.0001611885
  0
SOLID
  8
0
 62
7
  6
CONTINUOUS
 10
151.6830039132
 20
30.4837677459
 11
151.6830039132
 21
32.0001611885
 12
151.9720664683
 22
32.0001611885
 13
151.9720664683
 23
32.0001611885
  0
SOLID
  8
0
 62
7
  6
CONTINUOUS
 10
151.9720664683
 20
31.2258309157
 11
151.9720664683
 21
30.4837677459
 12
151.6830039132
 22
30.4837677459
 13
151.6830039132
 23
30.4837677459
  0
SOLID
  8
0
 62
7
  6
CONTINUOUS
 10
153.0126914683
 20
30.4837677459
 11
153.0126914683
 21
31.1290416803
 12
153.3017538581
 22
31.1290416803
 13
153.3017538581
 23
31.1290416803
  0
SOLID
  8
0
 62
7
  6
CONTINUOUS
 10
153.3017538581
 20
31.1290416803
 11
153.3017538581
 21
30.4837677459
 12
153.0126914683
 22
30.4837677459
 13
153.0126914683
 23
30.4837677459
  0
SOLID
  8
0
 62
7
  6
CONTINUOUS
 10
154.0533164683
 20
31.4839408139
 11
154.4580040786
 21
31.5162048066
 12
154.8048790786
 22
31.5162048066
 13
154.8048790786
 23
31.5162048066
  0
SOLID
  8
0
 62
7
  6
CONTINUOUS
 10
154.8048790786
 20
31.5162048066
 11
155.1517537478
 21
31.4839408139
 12
154.0533164683
 22
31.4839408139
 13
154.0533164683
 23
31.4839408139
  0
SOLID
  8
0
 62
7
  6
CONTINUOUS
 10
153.9376915786
 20
31.4516780059
 11
154.0533164683
 21
31.4839408139
 12
155.1517537478
 22
31.4839408139
 13
155.1517537478
 23
31.4839408139
  0
SOLID
  8
0
 62
7
  6
CONTINUOUS
 10
155.1517537478
 20
31.4839408139
 11
155.3251912478
 21
31.4194137026
 12
153.9376915786
 22
31.4516780059
 13
153.9376915786
 23
31.4516780059
  0
SOLID
  8
0
 62
7
  6
CONTINUOUS
 10
153.8220663581
 20
31.38714961
 11
153.9376915786
 21
31.4516780059
 12
155.3251912478
 22
31.4194137026
 13
155.3251912478
 23
31.4194137026
  0
SOLID
  8
0
 62
7
  6
CONTINUOUS
 10
153.8220663581
 20
31.38714961
 11
155.3251912478
 21
31.4194137026
 12
154.4580040786
 22
31.38714961
 13
154.4580040786
 23
31.38714961
  0
SOLID
  8
0
 62
7
  6
CONTINUOUS
 10
154.4580040786
 20
31.38714961
 11
155.3251912478
 21
31.4194137026
 12
154.8048790786
 22
31.38714961
 13
154.8048790786
 23
31.38714961
  0
SOLID
  8
0
 62
7
  6
CONTINUOUS
 10
154.8048790786
 20
31.38714961
 11
155.3251912478
 21
31.4194137026
 12
155.0361291889
 22
31.3548863916
 13
155.0361291889
 23
31.3548863916
  0
SOLID
  8
0
 62
7
  6
CONTINUOUS
 10
155.3251912478
 20
31.4194137026
 11
155.4408164683
 21
31.3548863916
 12
155.0361291889
 22
31.3548863916
 13
155.0361291889
 23
31.3548863916
  0
SOLID
  8
0
 62
7
  6
CONTINUOUS
 10
153.7642540786
 20
31.3226223989
 11
153.8220663581
 21
31.38714961
 12
154.4580040786
 22
31.38714961
 13
154.4580040786
 23
31.38714961
  0
SOLID
  8
0
 62
7
  6
CONTINUOUS
 10
155.1517537478
 20
31.3226223989
 11
155.0361291889
 21
31.3548863916
 12
155.4408164683
 22
31.3548863916
 13
155.4408164683
 23
31.3548863916
  0
SOLID
  8
0
 62
7
  6
CONTINUOUS
 10
155.1517537478
 20
31.3226223989
 11
155.4408164683
 21
31.3548863916
 12
155.2095666889
 22
31.2580951877
 13
155.2095666889
 23
31.2580951877
  0
SOLID
  8
0
 62
7
  6
CONTINUOUS
 10
155.4408164683
 20
31.3548863916
 11
155.4986287478
 21
31.2580951877
 12
155.2095666889
 22
31.2580951877
 13
155.2095666889
 23
31.2580951877
  0
SOLID
  8
0
 62
7
  6
CONTINUOUS
 10
155.2095666889
 20
31.1613038256
 11
155.2095666889
 21
31.2580951877
 12
155.4986287478
 22
31.2580951877
 13
155.4986287478
 23
31.2580951877
  0
SOLID
  8
0
 62
7
  6
CONTINUOUS
 10
155.2095666889
 20
31.1613038256
 11
155.4986287478
 21
31.2580951877
 12
155.2095666889
 22
31.0322496452
 13
155.2095666889
 23
31.0322496452
  0
SOLID
  8
0
 62
7
  6
CONTINUOUS
 10
155.2095666889
 20
31.0322496452
 11
155.4986287478
 21
31.2580951877
 12
155.2095666889
 22
30.8386672883
 13
155.2095666889
 23
30.8386672883
  0
SOLID
  8
0
 62
7
  6
CONTINUOUS
 10
155.4986287478
 20
31.2580951877
 11
155.4986287478
 21
30.7418754649
 12
155.2095666889
 22
30.8386672883
 13
155.2095666889
 23
30.8386672883
  0
SOLID
  8
0
 62
7
  6
CONTINUOUS
 10
157.4064412478
 20
31.4839405154
 11
157.6376916889
 21
31.5162052351
 12
157.8689414683
 22
31.5162052351
 13
157.8689414683
 23
31.5162052351
  0
SOLID
  8
0
 62
7
  6
CONTINUOUS
 10
157.8689414683
 20
31.5162052351
 11
158.0423789683
 21
31.4839405154
 12
157.4064412478
 22
31.4839405154
 13
157.4064412478
 23
31.4839405154
  0
SOLID
  8
0
 62
7
  6
CONTINUOUS
 10
157.2330037478
 20
31.4194141734
 11
157.4064412478
 21
31.4839405154
 12
158.0423789683
 22
31.4839405154
 13
158.0423789683
 23
31.4839405154
  0
SOLID
  8
0
 62
7
  6
CONTINUOUS
 10
158.0423789683
 20
31.4839405154
 11
158.2158164683
 21
31.4194141734
 12
157.2330037478
 22
31.4194141734
 13
157.2330037478
 23
31.4194141734
  0
SOLID
  8
0
 62
7
  6
CONTINUOUS
 10
158.2158164683
 20
31.4194141734
 11
157.6376916889
 21
31.3871493993
 12
157.2330037478
 22
31.4194141734
 13
157.2330037478
 23
31.4194141734
  0
SOLID
  8
0
 62
7
  6
CONTINUOUS
 10
157.1173791889
 20
31.3548867989
 11
157.2330037478
 21
31.4194141734
 12
157.6376916889
 22
31.3871493993
 13
157.6376916889
 23
31.3871493993
  0
SOLID
  8
0
 62
7
  6
CONTINUOUS
 10
157.6376916889
 20
31.3871493993
 11
157.4064412478
 21
31.3548867989
 12
157.1173791889
 22
31.3548867989
 13
157.1173791889
 23
31.3548867989
  0
SOLID
  8
0
 62
7
  6
CONTINUOUS
 10
157.6376916889
 20
31.3871493993
 11
158.2158164683
 21
31.4194141734
 12
157.8689414683
 22
31.3548867989
 13
157.8689414683
 23
31.3548867989
  0
SOLID
  8
0
 62
7
  6
CONTINUOUS
 10
158.2158164683
 20
31.4194141734
 11
158.3314416889
 21
31.3548867989
 12
157.8689414683
 22
31.3548867989
 13
157.8689414683
 23
31.3548867989
  0
SOLID
  8
0
 62
7
  6
CONTINUOUS
 10
157.9845666889
 20
31.3226223092
 11
157.8689414683
 21
31.3548867989
 12
158.3314416889
 22
31.3548867989
 13
158.3314416889
 23
31.3548867989
  0
SOLID
  8
0
 62
7
  6
CONTINUOUS
 10
157.9845666889
 20
31.3226223092
 11
158.3314416889
 21
31.3548867989
 12
158.1001912478
 22
31.2580947047
 13
158.1001912478
 23
31.2580947047
  0
SOLID
  8
0
 62
7
  6
CONTINUOUS
 10
158.3314416889
 20
31.3548867989
 11
158.3892539683
 21
31.2580947047
 12
158.1001912478
 22
31.2580947047
 13
158.1001912478
 23
31.2580947047
  0
SOLID
  8
0
 62
7
  6
CONTINUOUS
 10
158.1580041889
 20
31.0967762685
 11
158.1001912478
 21
31.2580947047
 12
158.3892539683
 22
31.2580947047
 13
158.3892539683
 23
31.2580947047
  0
SOLID
  8
0
 62
7
  6
CONTINUOUS
 10
158.3892539683
 20
31.2580947047
 11
158.4470662478
 21
31.0967762685
 12
158.1580041889
 22
31.0967762685
 13
158.1580041889
 23
31.0967762685
  0
SOLID
  8
0
 62
7
  6
CONTINUOUS
 10
157.4064412478
 20
31.3548867989
 11
157.2330037478
 21
31.2903595223
 12
157.1173791889
 22
31.3548867989
 13
157.1173791889
 23
31.3548867989
  0
SOLID
  8
0
 62
7
  6
CONTINUOUS
 10
157.2330037478
 20
31.2903595223
 11
157.1173791889
 21
31.2258309157
 12
157.1173791889
 22
31.3548867989
 13
157.1173791889
 23
31.3548867989
  0
SOLID
  8
0
 62
7
  6
CONTINUOUS
 10
157.1173791889
 20
31.2258309157
 11
156.8283164683
 21
30.4837672433
 12
157.1173791889
 22
31.3548867989
 13
157.1173791889
 23
31.3548867989
  0
SOLID
  8
0
 62
7
  6
CONTINUOUS
 10
157.1173791889
 20
31.3548867989
 11
156.8283164683
 21
30.4837672433
 12
157.1173791889
 22
31.5162052351
 13
157.1173791889
 23
31.5162052351
  0
SOLID
  8
0
 62
7
  6
CONTINUOUS
 10
156.8283164683
 20
30.4837672433
 11
156.8283164683
 21
31.5162052351
 12
157.1173791889
 22
31.5162052351
 13
157.1173791889
 23
31.5162052351
  0
SOLID
  8
0
 62
7
  6
CONTINUOUS
 10
157.1173791889
 20
31.2258309157
 11
157.1173791889
 21
30.4837672433
 12
156.8283164683
 22
30.4837672433
 13
156.8283164683
 23
30.4837672433
  0
SOLID
  8
0
 62
7
  6
CONTINUOUS
 10
158.1580041889
 20
30.4837672433
 11
158.1580041889
 21
31.0967762685
 12
158.4470662478
 22
31.0967762685
 13
158.4470662478
 23
31.0967762685
  0
SOLID
  8
0
 62
7
  6
CONTINUOUS
 10
158.4470662478
 20
31.0967762685
 11
158.4470662478
 21
30.4837672433
 12
158.1580041889
 22
30.4837672433
 13
158.1580041889
 23
30.4837672433
  0
SOLID
  8
0
 62
7
  6
CONTINUOUS
 10
159.2564414683
 20
31.4839408138
 11
159.6033164683
 21
31.5162050633
 12
159.9501914683
 22
31.5162050633
 13
159.9501914683
 23
31.5162050633
  0
SOLID
  8
0
 62
7
  6
CONTINUOUS
 10
159.9501914683
 20
31.5162050633
 11
160.2970664683
 21
31.4839408138
 12
159.2564414683
 22
31.4839408138
 13
159.2564414683
 23
31.4839408138
  0
SOLID
  8
0
 62
7
  6
CONTINUOUS
 10
159.0251916889
 20
31.4194137026
 11
159.2564414683
 21
31.4839408138
 12
160.2970664683
 22
31.4839408138
 13
160.2970664683
 23
31.4839408138
  0
SOLID
  8
0
 62
7
  6
CONTINUOUS
 10
159.0251916889
 20
31.4194137026
 11
160.2970664683
 21
31.4839407928
 12
160.4705039683
 22
31.4516780059
 13
160.4705039683
 23
31.4516780059
  0
SOLID
  8
0
 62
7
  6
CONTINUOUS
 10
159.0251916889
 20
31.4194137026
 11
160.4705039683
 21
31.4516780059
 12
159.6033164683
 22
31.3871494664
 13
159.6033164683
 23
31.3871494664
  0
SOLID
  8
0
 62
7
  6
CONTINUOUS
 10
159.6033164683
 20
31.3871494664
 11
160.4705039683
 21
31.4516780059
 12
159.9501914683
 22
31.3871494664
 13
159.9501914683
 23
31.3871494664
  0
SOLID
  8
0
 62
7
  6
CONTINUOUS
 10
160.4705039683
 20
31.4516780059
 11
160.6439414683
 21
31.3871494664
 12
159.9501914683
 22
31.3871494664
 13
159.9501914683
 23
31.3871494664
  0
SOLID
  8
0
 62
7
  6
CONTINUOUS
 10
160.2970664683
 20
31.3548866125
 11
159.9501914683
 21
31.3871494664
 12
160.6439414683
 22
31.3871494664
 13
160.6439414683
 23
31.3871494664
  0
SOLID
  8
0
 62
7
  6
CONTINUOUS
 10
158.9095664683
 20
31.3226222241
 11
159.0251916889
 21
31.4194137026
 12
159.6033164683
 22
31.3871494664
 13
159.6033164683
 23
31.3871494664
  0
SOLID
  8
0
 62
7
  6
CONTINUOUS
 10
160.2970664683
 20
31.3548866125
 11
160.6439414683
 21
31.3871494664
 12
160.4126916889
 22
31.3226222241
 13
160.4126916889
 23
31.3226222241
  0
SOLID
  8
0
 62
7
  6
CONTINUOUS
 10
160.4126916889
 20
31.3226222241
 11
160.6439414683
 21
31.3871494664
 12
160.4705039683
 22
31.2580952077
 13
160.4705039683
 23
31.2580952077
  0
SOLID
  8
0
 62
7
  6
CONTINUOUS
 10
160.6439414683
 20
31.3871494664
 11
160.7595660273
 21
31.2580952077
 12
160.4705039683
 22
31.2580952077
 13
160.4705039683
 23
31.2580952077
  0
SOLID
  8
0
 62
7
  6
CONTINUOUS
 10
150.0642539683
 20
31.3548866125
 11
149.5439414683
 21
31.3226222809
 12
150.2955039959
 22
31.3871493065
 13
150.2955039959
 23
31.3871493065
  0
SOLID
  8
0
 62
7
  6
CONTINUOUS
 10
149.5439414683
 20
31.3226222809
 11
149.6595664615
 21
31.3871493065
 12
150.2955039959
 22
31.3871493065
 13
150.2955039959
 23
31.3871493065
  0
SOLID
  8
0
 62
7
  6
CONTINUOUS
 10
150.0642539683
 20
31.3548866125
 11
149.9486289546
 21
31.3226222809
 12
149.5439414683
 22
31.3226222809
 13
149.5439414683
 23
31.3226222809
  0
SOLID
  8
0
 62
7
  6
CONTINUOUS
 10
149.4283164701
 20
31.1935681288
 11
149.5439414683
 21
31.3226222809
 12
149.9486289546
 22
31.3226222809
 13
149.9486289546
 23
31.3226222809
  0
SOLID
  8
0
 62
7
  6
CONTINUOUS
 10
153.7642540786
 20
31.3226222809
 11
154.4580040786
 21
31.3871493993
 12
154.2267539683
 22
31.3548866125
 13
154.2267539683
 23
31.3548866125
  0
SOLID
  8
0
 62
7
  6
CONTINUOUS
 10
154.2267539683
 20
31.3548866125
 11
154.1111290786
 21
31.3226222809
 12
153.7642540786
 22
31.3226222809
 13
153.7642540786
 23
31.3226222809
  0
SOLID
  8
0
 62
7
  6
CONTINUOUS
 10
153.7642540786
 20
31.2580951907
 11
153.7642540786
 21
31.3226222809
 12
154.1111290786
 22
31.3226222809
 13
154.1111290786
 23
31.3226222809
  0
SOLID
  8
0
 62
7
  6
CONTINUOUS
 10
154.1111290786
 20
31.3226222809
 11
154.0533164683
 21
31.2580951907
 12
153.7642540786
 22
31.2580951907
 13
153.7642540786
 23
31.2580951907
  0
SOLID
  8
0
 62
7
  6
CONTINUOUS
 10
158.9095664683
 20
31.32262241
 11
159.6033164683
 21
31.3871493993
 12
159.3720666889
 22
31.3548866125
 13
159.3720666889
 23
31.3548866125
  0
SOLID
  8
0
 62
7
  6
CONTINUOUS
 10
159.3720666889
 20
31.3548866125
 11
159.2564414683
 21
31.32262241
 12
158.9095664683
 22
31.32262241
 13
158.9095664683
 23
31.32262241
  0
SOLID
  8
0
 62
7
  6
CONTINUOUS
 10
158.9095664683
 20
31.2580953198
 11
158.9095664683
 21
31.32262241
 12
159.2564414683
 22
31.32262241
 13
159.2564414683
 23
31.32262241
  0
SOLID
  8
0
 62
7
  6
CONTINUOUS
 10
159.2564414683
 20
31.32262241
 11
159.1986291889
 21
31.2580953198
 12
158.9095664683
 22
31.2580953198
 13
158.9095664683
 23
31.2580953198
  0
SOLID
  8
0
 62
7
  6
CONTINUOUS
 10
159.0251916889
 20
31.1290410387
 11
158.9095664683
 21
31.2580953198
 12
159.1986291889
 22
31.2580953198
 13
159.1986291889
 23
31.2580953198
  0
SOLID
  8
0
 62
7
  6
CONTINUOUS
 10
149.4283164701
 20
31.1935681288
 11
149.9486289546
 21
31.3226223092
 12
149.7751914546
 22
31.2258309157
 13
149.7751914546
 23
31.2258309157
  0
SOLID
  8
0
 62
7
  6
CONTINUOUS
 10
149.7751914546
 20
31.2258309157
 11
149.7173789683
 21
31.1613038256
 12
149.4283164701
 22
31.1935681288
 13
149.4283164701
 23
31.1935681288
  0
SOLID
  8
0
 62
7
  6
CONTINUOUS
 10
149.3705039683
 20
30.999985342
 11
149.4283164701
 21
31.1935681288
 12
149.7173789683
 22
31.1613038256
 13
149.7173789683
 23
31.1613038256
  0
SOLID
  8
0
 62
7
  6
CONTINUOUS
 10
154.2267539683
 20
31.1290410387
 11
154.5736289683
 21
31.1613037812
 12
155.2095666889
 22
31.1613037812
 13
155.2095666889
 23
31.1613037812
  0
SOLID
  8
0
 62
7
  6
CONTINUOUS
 10
154.2267539683
 20
31.1290410387
 11
155.2095666889
 21
31.1613037812
 12
153.9955038581
 22
31.0645131385
 13
153.9955038581
 23
31.0645131385
  0
SOLID
  8
0
 62
7
  6
CONTINUOUS
 10
153.9955038581
 20
31.0645131385
 11
155.2095666889
 21
31.1613037812
 12
154.5736289683
 22
31.0322496008
 13
154.5736289683
 23
31.0322496008
  0
SOLID
  8
0
 62
7
  6
CONTINUOUS
 10
155.2095666889
 20
31.1613037812
 11
155.2095666889
 21
31.0322496008
 12
154.5736289683
 22
31.0322496008
 13
154.5736289683
 23
31.0322496008
  0
SOLID
  8
0
 62
7
  6
CONTINUOUS
 10
159.0251916889
 20
31.1290409764
 11
159.1986291889
 21
31.258095219
 12
159.2564414683
 22
31.1935681288
 13
159.2564414683
 23
31.1935681288
  0
SOLID
  8
0
 62
7
  6
CONTINUOUS
 10
159.2564414683
 20
31.1935681288
 11
159.4298789683
 21
31.1290409764
 12
159.0251916889
 22
31.1290409764
 13
159.0251916889
 23
31.1290409764
  0
SOLID
  8
0
 62
7
  6
CONTINUOUS
 10
159.2564414683
 20
31.0322496452
 11
159.0251916889
 21
31.1290409764
 12
159.4298789683
 22
31.1290409764
 13
159.4298789683
 23
31.1290409764
  0
SOLID
  8
0
 62
7
  6
CONTINUOUS
 10
159.4298789683
 20
31.1290409764
 11
160.4126916889
 21
30.9677225551
 12
159.2564414683
 22
31.0322496452
 13
159.2564414683
 23
31.0322496452
  0
SOLID
  8
0
 62
7
  6
CONTINUOUS
 10
160.2392541889
 20
30.8709310886
 11
159.2564414683
 21
31.0322496452
 12
160.4126916889
 22
30.9677225551
 13
160.4126916889
 23
30.9677225551
  0
SOLID
  8
0
 62
7
  6
CONTINUOUS
 10
160.4126916889
 20
30.9677225551
 11
160.6439414683
 21
30.8709310886
 12
160.2392541889
 22
30.8709310886
 13
160.2392541889
 23
30.8709310886
  0
SOLID
  8
0
 62
7
  6
CONTINUOUS
 10
160.4126916889
 20
30.8064040715
 11
160.2392541889
 21
30.8709310886
 12
160.6439414683
 22
30.8709310886
 13
160.6439414683
 23
30.8709310886
  0
SOLID
  8
0
 62
7
  6
CONTINUOUS
 10
160.4126916889
 20
30.8064040715
 11
160.6439414683
 21
30.8709310886
 12
160.4705039683
 22
30.7418753703
 13
160.4705039683
 23
30.7418753703
  0
SOLID
  8
0
 62
7
  6
CONTINUOUS
 10
160.6439414683
 20
30.8709310886
 11
160.7595660273
 21
30.7418753703
 12
160.4705039683
 22
30.7418753703
 13
160.4705039683
 23
30.7418753703
  0
SOLID
  8
0
 62
7
  6
CONTINUOUS
 10
160.4126916889
 20
30.6773482855
 11
160.4705039683
 21
30.7418753703
 12
160.7595660273
 22
30.7418753703
 13
160.7595660273
 23
30.7418753703
  0
SOLID
  8
0
 62
7
  6
CONTINUOUS
 10
160.7595660273
 20
30.7418753703
 11
160.7595660273
 21
30.6773482855
 12
160.4126916889
 22
30.6773482855
 13
160.4126916889
 23
30.6773482855
  0
SOLID
  8
0
 62
7
  6
CONTINUOUS
 10
160.2970664683
 20
30.6450855879
 11
160.4126916889
 21
30.6773482855
 12
160.7595660273
 22
30.6773482855
 13
160.7595660273
 23
30.6773482855
  0
SOLID
  8
0
 62
7
  6
CONTINUOUS
 10
160.2970664683
 20
30.6450855879
 11
160.7595660273
 21
30.6773482855
 12
160.0658166889
 22
30.6128212008
 13
160.0658166889
 23
30.6128212008
  0
SOLID
  8
0
 62
7
  6
CONTINUOUS
 10
160.7595660273
 20
30.6773482855
 11
160.6439414683
 21
30.5805584977
 12
160.0658166889
 22
30.6128212008
 13
160.0658166889
 23
30.6128212008
  0
SOLID
  8
0
 62
7
  6
CONTINUOUS
 10
160.6439414683
 20
30.5805584977
 11
159.1986291889
 21
30.5482941944
 12
160.0658166889
 22
30.6128212008
 13
160.0658166889
 23
30.6128212008
  0
SOLID
  8
0
 62
7
  6
CONTINUOUS
 10
160.0658166889
 20
30.6128212008
 11
159.1986291889
 21
30.5482941944
 12
159.7189416889
 22
30.6128212008
 13
159.7189416889
 23
30.6128212008
  0
SOLID
  8
0
 62
7
  6
CONTINUOUS
 10
159.1986291889
 20
30.5482941944
 11
159.0251916889
 21
30.6128212008
 12
159.7189416889
 22
30.6128212008
 13
159.7189416889
 23
30.6128212008
  0
SOLID
  8
0
 62
7
  6
CONTINUOUS
 10
159.1986291889
 20
30.5482941944
 11
160.6439414683
 21
30.5805584977
 12
159.3720666889
 22
30.5160301864
 13
159.3720666889
 23
30.5160301864
  0
SOLID
  8
0
 62
7
  6
CONTINUOUS
 10
160.6439414683
 20
30.5805584977
 11
160.4126916889
 21
30.5160301864
 12
159.3720666889
 22
30.5160301864
 13
159.3720666889
 23
30.5160301864
  0
SOLID
  8
0
 62
7
  6
CONTINUOUS
 10
159.7189416889
 20
30.4837670312
 11
159.3720666889
 21
30.5160301864
 12
160.4126916889
 22
30.5160301864
 13
160.4126916889
 23
30.5160301864
  0
SOLID
  8
0
 62
7
  6
CONTINUOUS
 10
160.4126916889
 20
30.5160301864
 11
160.0658166889
 21
30.4837670312
 12
159.7189416889
 22
30.4837670312
 13
159.7189416889
 23
30.4837670312
  0
SOLID
  8
0
 62
7
  6
CONTINUOUS
 10
149.3705039683
 20
30.999985342
 11
149.7173789683
 21
31.1613038256
 12
149.6595664615
 22
31.0322496452
 13
149.6595664615
 23
31.0322496452
  0
SOLID
  8
0
 62
7
  6
CONTINUOUS
 10
149.6595664615
 20
31.0322496452
 11
149.6595664615
 21
30.9354583476
 12
149.3705039683
 22
30.999985342
 13
149.3705039683
 23
30.999985342
  0
SOLID
  8
0
 62
7
  6
CONTINUOUS
 10
149.4283164701
 20
30.8064040715
 11
149.3705039683
 21
30.999985342
 12
149.6595664615
 22
30.9354583476
 13
149.6595664615
 23
30.9354583476
  0
SOLID
  8
0
 62
7
  6
CONTINUOUS
 10
149.6595664615
 20
30.9354583476
 11
149.7751914546
 21
30.7741397682
 12
149.4283164701
 22
30.8064040715
 13
149.4283164701
 23
30.8064040715
  0
SOLID
  8
0
 62
7
  6
CONTINUOUS
 10
149.5439414683
 20
30.6773485435
 11
149.4283164701
 21
30.8064040715
 12
149.7751914546
 22
30.7741397682
 13
149.7751914546
 23
30.7741397682
  0
SOLID
  8
0
 62
7
  6
CONTINUOUS
 10
149.7751914546
 20
30.7741397682
 11
149.9486289546
 21
30.6773485435
 12
149.5439414683
 22
30.6773485435
 13
149.5439414683
 23
30.6773485435
  0
SOLID
  8
0
 62
7
  6
CONTINUOUS
 10
149.6595664615
 20
30.6128213107
 11
149.5439414683
 21
30.6773485435
 12
149.9486289546
 22
30.6773485435
 13
149.9486289546
 23
30.6773485435
  0
SOLID
  8
0
 62
7
  6
CONTINUOUS
 10
149.9486289546
 20
30.6773485435
 11
150.2955039959
 21
30.6128213107
 12
149.6595664615
 22
30.6128213107
 13
149.6595664615
 23
30.6128213107
  0
SOLID
  8
0
 62
7
  6
CONTINUOUS
 10
149.8330039821
 20
30.5482941944
 11
149.6595664615
 21
30.6128213107
 12
150.2955039959
 22
30.6128213107
 13
150.2955039959
 23
30.6128213107
  0
SOLID
  8
0
 62
7
  6
CONTINUOUS
 10
153.8798789683
 20
30.9999852815
 11
153.9955038581
 21
31.0645131385
 12
154.5736289683
 22
31.0322496452
 13
154.5736289683
 23
31.0322496452
  0
SOLID
  8
0
 62
7
  6
CONTINUOUS
 10
154.5736289683
 20
31.0322496452
 11
154.3423788581
 21
30.9999852815
 12
153.8798789683
 22
30.9999852815
 13
153.8798789683
 23
30.9999852815
  0
SOLID
  8
0
 62
7
  6
CONTINUOUS
 10
153.7642540786
 20
30.8709311616
 11
153.8798789683
 21
30.9999852815
 12
154.3423788581
 22
30.9999852815
 13
154.3423788581
 23
30.9999852815
  0
SOLID
  8
0
 62
7
  6
CONTINUOUS
 10
154.1111290786
 20
30.9031946612
 11
153.7642540786
 21
30.8709311616
 12
154.2267539683
 22
30.9677225551
 13
154.2267539683
 23
30.9677225551
  0
SOLID
  8
0
 62
7
  6
CONTINUOUS
 10
153.7642540786
 20
30.8709311616
 11
154.3423788581
 21
30.999985342
 12
154.2267539683
 22
30.9677225551
 13
154.2267539683
 23
30.9677225551
  0
SOLID
  8
0
 62
7
  6
CONTINUOUS
 10
154.1111290786
 20
30.9031946612
 11
154.0533164683
 21
30.8064040715
 12
153.7642540786
 22
30.8709311616
 13
153.7642540786
 23
30.8709311616
  0
SOLID
  8
0
 62
7
  6
CONTINUOUS
 10
153.7642540786
 20
30.7741397682
 11
153.7642540786
 21
30.8709311616
 12
154.0533164683
 22
30.8064040715
 13
154.0533164683
 23
30.8064040715
  0
SOLID
  8
0
 62
7
  6
CONTINUOUS
 10
154.0533164683
 20
30.8064040715
 11
154.0533164683
 21
30.7418754649
 12
153.7642540786
 22
30.7741397682
 13
153.7642540786
 23
30.7741397682
  0
SOLID
  8
0
 62
7
  6
CONTINUOUS
 10
153.8220663581
 20
30.6450855879
 11
153.7642540786
 21
30.7741397682
 12
154.0533164683
 22
30.7418754649
 13
154.0533164683
 23
30.7418754649
  0
SOLID
  8
0
 62
7
  6
CONTINUOUS
 10
155.2095666889
 20
30.8386672883
 11
155.4986287478
 21
30.7418754649
 12
155.1517537478
 22
30.7741397682
 13
155.1517537478
 23
30.7741397682
  0
SOLID
  8
0
 62
7
  6
CONTINUOUS
 10
154.9783162478
 20
30.6773483748
 11
155.1517537478
 21
30.7741397682
 12
155.4986287478
 22
30.7418754649
 13
155.4986287478
 23
30.7418754649
  0
SOLID
  8
0
 62
7
  6
CONTINUOUS
 10
154.9783162478
 20
30.6773483748
 11
155.4986287478
 21
30.7418754649
 12
155.2095666889
 22
30.6450855879
 13
155.2095666889
 23
30.6450855879
  0
SOLID
  8
0
 62
7
  6
CONTINUOUS
 10
155.4986287478
 20
30.7418754649
 11
155.5564416889
 21
30.5805584977
 12
155.2095666889
 22
30.6450855879
 13
155.2095666889
 23
30.6450855879
  0
SOLID
  8
0
 62
7
  6
CONTINUOUS
 10
155.2673789683
 20
30.5482941944
 11
155.2095666889
 21
30.6450855879
 12
155.5564416889
 22
30.5805584977
 13
155.5564416889
 23
30.5805584977
  0
SOLID
  8
0
 62
7
  6
CONTINUOUS
 10
155.2673789683
 20
30.5482941944
 11
155.5564416889
 21
30.5805584977
 12
155.3251912478
 22
30.4837669548
 13
155.3251912478
 23
30.4837669548
  0
SOLID
  8
0
 62
7
  6
CONTINUOUS
 10
155.5564416889
 20
30.5805584977
 11
155.6142539683
 21
30.4837669548
 12
155.3251912478
 22
30.4837669548
 13
155.3251912478
 23
30.4837669548
  0
SOLID
  8
0
 62
7
  6
CONTINUOUS
 10
150.8736290235
 20
30.7096125201
 11
150.9314414683
 21
30.8064039377
 12
151.2205040235
 22
30.8064039377
 13
151.2205040235
 23
30.8064039377
  0
SOLID
  8
0
 62
7
  6
CONTINUOUS
 10
151.2205040235
 20
30.8064039377
 11
151.1626914132
 21
30.6773483748
 12
150.8736290235
 22
30.7096125201
 13
150.8736290235
 23
30.7096125201
  0
SOLID
  8
0
 62
7
  6
CONTINUOUS
 10
150.7001914408
 20
30.6450855879
 11
150.8736290235
 21
30.7096125201
 12
151.1626914132
 22
30.6773483748
 13
151.1626914132
 23
30.6773483748
  0
SOLID
  8
0
 62
7
  6
CONTINUOUS
 10
150.7001914408
 20
30.6450855879
 11
151.1626914132
 21
30.6773483748
 12
150.2955039959
 22
30.6128212846
 13
150.2955039959
 23
30.6128212846
  0
SOLID
  8
0
 62
7
  6
CONTINUOUS
 10
151.1626914132
 20
30.6773483748
 11
150.9892539132
 21
30.5805584977
 12
150.2955039959
 22
30.6128212846
 13
150.2955039959
 23
30.6128212846
  0
SOLID
  8
0
 62
7
  6
CONTINUOUS
 10
149.8330039821
 20
30.5482941944
 11
150.2955039959
 21
30.6128212846
 12
150.9892539132
 22
30.5805584977
 13
150.9892539132
 23
30.5805584977
  0
SOLID
  8
0
 62
7
  6
CONTINUOUS
 10
149.8330039821
 20
30.5482941944
 11
150.9892539132
 21
30.5805584977
 12
150.0064414821
 22
30.5160300219
 13
150.0064414821
 23
30.5160300219
  0
SOLID
  8
0
 62
7
  6
CONTINUOUS
 10
150.9892539132
 20
30.5805584977
 11
150.7580039683
 21
30.5160300219
 12
150.0064414821
 22
30.5160300219
 13
150.0064414821
 23
30.5160300219
  0
SOLID
  8
0
 62
7
  6
CONTINUOUS
 10
150.3533164408
 20
30.4837671043
 11
150.0064414821
 21
30.5160300219
 12
150.7580039683
 22
30.5160300219
 13
150.7580039683
 23
30.5160300219
  0
SOLID
  8
0
 62
7
  6
CONTINUOUS
 10
153.8220663581
 20
30.6450855879
 11
154.0533164683
 21
30.7418754649
 12
154.1111290786
 22
30.6773483748
 13
154.1111290786
 23
30.6773483748
  0
SOLID
  8
0
 62
7
  6
CONTINUOUS
 10
154.1111290786
 20
30.6773483748
 11
154.3423788581
 21
30.6128212846
 12
153.8220663581
 22
30.6450855879
 13
153.8220663581
 23
30.6450855879
  0
SOLID
  8
0
 62
7
  6
CONTINUOUS
 10
153.9955038581
 20
30.5482941944
 11
153.8220663581
 21
30.6450855879
 12
154.3423788581
 22
30.6128212846
 13
154.3423788581
 23
30.6128212846
  0
SOLID
  8
0
 62
7
  6
CONTINUOUS
 10
154.6892538581
 20
30.6128213209
 11
154.9783162478
 21
30.6773483748
 12
155.2095666889
 22
30.6450855879
 13
155.2095666889
 23
30.6450855879
  0
SOLID
  8
0
 62
7
  6
CONTINUOUS
 10
155.2095666889
 20
30.6450855879
 11
155.1517537478
 21
30.5805584977
 12
154.6892538581
 22
30.6128213209
 13
154.6892538581
 23
30.6128213209
  0
SOLID
  8
0
 62
7
  6
CONTINUOUS
 10
155.1517537478
 20
30.5805584977
 11
153.9955038581
 21
30.5482941944
 12
154.6892538581
 22
30.6128213209
 13
154.6892538581
 23
30.6128213209
  0
SOLID
  8
0
 62
7
  6
CONTINUOUS
 10
153.9955038581
 20
30.5482941944
 11
154.3423788581
 21
30.6128213209
 12
154.6892538581
 22
30.6128213209
 13
154.6892538581
 23
30.6128213209
  0
SOLID
  8
0
 62
7
  6
CONTINUOUS
 10
153.9955038581
 20
30.5482941944
 11
155.1517537478
 21
30.5805584977
 12
154.1111290786
 22
30.5160299113
 13
154.1111290786
 23
30.5160299113
  0
SOLID
  8
0
 62
7
  6
CONTINUOUS
 10
155.1517537478
 20
30.5805584977
 11
154.9783162478
 21
30.5160299113
 12
154.1111290786
 22
30.5160299113
 13
154.1111290786
 23
30.5160299113
  0
SOLID
  8
0
 62
7
  6
CONTINUOUS
 10
154.3423788581
 20
30.483767076
 11
154.1111290786
 21
30.5160299113
 12
154.9783162478
 22
30.5160299113
 13
154.9783162478
 23
30.5160299113
  0
SOLID
  8
0
 62
7
  6
CONTINUOUS
 10
154.9783162478
 20
30.5160299113
 11
154.6892538581
 21
30.483767076
 12
154.3423788581
 22
30.483767076
 13
154.3423788581
 23
30.483767076
  0
SOLID
  8
0
 62
7
  6
CONTINUOUS
 10
159.3720666889
 20
30.6450855879
 11
159.0251916889
 21
30.6128213209
 12
159.2564414683
 22
30.6773483748
 13
159.2564414683
 23
30.6773483748
  0
SOLID
  8
0
 62
7
  6
CONTINUOUS
 10
159.2564414683
 20
30.6773483748
 11
159.0251916889
 21
30.6128213209
 12
159.1986291889
 22
30.7418755012
 13
159.1986291889
 23
30.7418755012
  0
SOLID
  8
0
 62
7
  6
CONTINUOUS
 10
159.0251916889
 20
30.6128213209
 11
158.9095664683
 21
30.7418755012
 12
159.1986291889
 22
30.7418755012
 13
159.1986291889
 23
30.7418755012
  0
SOLID
  8
0
 62
7
  6
CONTINUOUS
 10
159.3720666889
 20
30.6450855879
 11
159.7189416889
 21
30.6128213209
 12
159.0251916889
 22
30.6128213209
 13
159.0251916889
 23
30.6128213209
  0
SOLID
  8
0
 62
7
  6
CONTINUOUS
 10
156.0767541889
 20
30.4837671043
 11
156.0767541889
 21
31.5162050961
 12
156.3658162478
 22
30.4837671043
 13
156.3658162478
 23
31.5162050961
  0
ENDBLK
  8
0
  6
BYBLOCK
 62
0
  0
BLOCK
  8
0
 62
2
  6
CONTINUOUS
  2
SYMBOL_3_BL0
 70
64
 10
31.7740840678
 20
19.9150776578
  0
TEXT
  8
0
 62
7
  6
CONTINUOUS
 10
18.0387879101
 20
19.2884917655
  7
TEXTSTYLE_3
 40
2.7338706658
  1
Ammeraal Beltech
 41
1.0
 51
15.0
 72
0
  0
TEXT
  8
0
 62
7
  6
CONTINUOUS
 10
28.8395887358
 20
17.0149550926
  7
TEXTSTYLE_4
 40
1.0935482663
  1
Innovation & Service in Belting
 41
1.0
 72
0
  0
LINE
  8
0
 62
7
  6
CONTINUOUS
 10
12.0142472588
 20
20.055085074
 11
12.7923992521
 21
23.7160023717
  0
LINE
  8
0
 62
7
  6
CONTINUOUS
 10
22.8875675419
 20
27.3793962833
 11
13.2802169951
 21
24.257778862
  0
LINE
  8
0
 62
7
  6
CONTINUOUS
 10
12.2395305911
 20
19.361734271
 11
19.7466058522
 21
12.602333345
  0
LINE
  8
0
 62
7
  6
CONTINUOUS
 10
12.5020650018
 20
20.5968615644
 11
23.310334367
 21
24.1086811633
  0
LINE
  8
0
 62
7
  6
CONTINUOUS
 10
23.3061292298
 20
13.7588925996
 11
14.860669561
 21
21.3632186413
  0
LINE
  8
0
 62
7
  6
CONTINUOUS
 10
23.8259519496
 20
26.5344711676
 11
22.8493924124
 21
21.9401197651
  0
LINE
  8
0
 62
7
  6
CONTINUOUS
 10
22.1495904647
 20
18.6478104513
 11
21.4631422532
 21
15.4183255269
  0
LINE
  8
0
 62
7
  6
CONTINUOUS
 10
24.5070480481
 20
14.1490947773
 11
25.4632795838
 21
18.6478104513
  0
LINE
  8
0
 62
7
  6
CONTINUOUS
 10
26.1630815315
 20
21.9401197651
 11
26.6073233338
 21
24.0301131245
  0
LINE
  8
0
 62
7
  6
CONTINUOUS
 10
20.4597069275
 20
12.4507590323
 11
24.0192303051
 21
13.6073182869
  0
LINE
  8
0
 62
7
  6
CONTINUOUS
 10
23.6006686173
 20
27.2278219706
 11
26.3820400015
 21
24.7234639276
  0
ARC
  8
0
 62
7
  6
CONTINUOUS
 10
13.5055003274
 20
23.564428059
 40
0.7290321776
 50
108.0
 51
168.0
  0
ARC
  8
0
 62
7
  6
CONTINUOUS
 10
23.1128508743
 20
26.6860454803
 40
0.7290321776
 50
348.0
 51
108.0
  0
ARC
  8
0
 62
7
  6
CONTINUOUS
 10
25.8942222585
 20
24.1816874372
 40
0.7290321776
 50
348.0
 51
48.0
  0
ARC
  8
0
 62
7
  6
CONTINUOUS
 10
20.2344235952
 20
13.1441098354
 40
0.7290321776
 50
228.0
 51
288.0
  0
ARC
  8
0
 62
7
  6
CONTINUOUS
 10
12.7273483341
 20
19.9035107613
 40
0.7290321776
 50
108.0
 51
228.0
  0
ARC
  8
0
 62
7
  6
CONTINUOUS
 10
23.7939469728
 20
14.30066909
 40
0.7290321776
 50
228.0
 51
348.0
  0
ENDBLK
  8
0
  6
BYBLOCK
 62
0
  0
ENDSEC
  0
SECTION
  2
ENTITIES
  0
TEXT
  8
0
 62
5
  6
CONTINUOUS
 10
96.0
 20
25.636
  7
TEXTSTYLE_2
 40
2.8
  1
Scale :
 41
0.6
 51
0.000019
 72
0
  0
TEXT
  8
0
 62
5
  6
CONTINUOUS
 10
116.0
 20
25.636
  7
TEXTSTYLE_2
 40
2.8
  1
Chain type:
 41
0.6
 51
0.000019
 72
0
  0
INSERT
  8
0
 62
2
  6
CONTINUOUS
  2
SYMBOL_3_BL0
 10
31.7740840678
 20
19.9150776578
  0
INSERT
  8
0
 62
2
  6
CONTINUOUS
  2
SYMBOL_11_BL1
 10
173.3924355793
 20
35.4837666925
  0
LINE
  8
0
 62
2
  6
CONTINUOUS
 10
10.0
 20
30.0
 11
200.0
 21
30.0
  0
LINE
  8
0
 62
2
  6
CONTINUOUS
 10
10.0
 20
30.0
 11
10.0
 21
10.0
  0
LINE
  8
0
 62
2
  6
CONTINUOUS
 10
10.0
 20
10.0
 11
200.0
 21
10.0
  0
LINE
  8
0
 62
2
  6
CONTINUOUS
 10
95.0
 20
30.0
 11
95.0
 21
10.0
  0
LINE
  8
0
 62
2
  6
CONTINUOUS
 10
115.0
 20
30.0
 11
115.0
 21
10.0
  0
LINE
  8
0
 62
2
  6
CONTINUOUS
 10
200.0
 20
30.0
 11
200.0
 21
10.0
  0
TEXT
  8
0
 62
5
  6
CONTINUOUS
 10
13.0
 20
23.303
  7
TEXTSTYLE_5
 40
1.52
  1
                                                                     Ammeraal Beltech Modular A/S
 41
1.0
 72
0
  0
TEXT
  8
0
 62
5
  6
CONTINUOUS
 10
13.0
 20
20.595
  7
TEXTSTYLE_5
 40
1.5
  1
                                                                      Hjulmagervej 21,  7100 Vejle,  DK
 41
1.0
 72
0
  0
TEXT
  8
0
 62
5
  6
CONTINUOUS
 10
13.0
 20
17.881
  7
TEXTSTYLE_5
 40
1.495
  1
                                                                      tel: 
 41
1.0
 72
0
  0
TEXT
  8
0
 62
5
  6
CONTINUOUS
 10
57.9869465649
 20
17.881
  7
TEXTSTYLE_5
 40
1.51
  1
+45 75723100     fax: +45 75723348
 41
1.0
 72
0
  0
TEXT
  8
0
 62
5
  6
CONTINUOUS
 10
13.0
 20
15.177
  7
TEXTSTYLE_5
 40
1.5
  1
                                                                      admin@unichains.dk  www.unichains.com
 41
1.0
 72
0
  0
TEXT
  8
0
 62
5
  6
CONTINUOUS
 10
99.75
 20
13.75
  7
TEXTSTYLE_6
 40
5.0
  1
1:1
 41
0.7
 72
1
 11
105.0
 21
13.75
  0
TEXT
  8
0
 62
5
  6
CONTINUOUS
 10
118.0
 20
13.75
  7
TEXTSTYLE_7
 40
7.5
  1
Sprocket Z09
 41
0.6694444444
 72
0
  0
LINE
  8
0
 62
7
  6
CONTINUOUS
 10
210.0
 20
0.0
 11
0.0
 21
0.0
  0
LINE
  8
0
 62
7
  6
CONTINUOUS
 10
10.0
 20
10.0
 11
200.0
 21
10.0
  0
LINE
  8
0
 62
7
  6
CONTINUOUS
 10
10.0
 20
30.0
 11
200.0
 21
30.0
  0
LINE
  8
0
 62
7
  6
CONTINUOUS
 10
0.0
 20
0.0
 11
0.0
 21
297.0
  0
LINE
  8
0
 62
7
  6
CONTINUOUS
 10
10.0
 20
10.0
 11
10.0
 21
287.0
  0
LINE
  8
0
 62
7
  6
CONTINUOUS
 10
200.0
 20
287.0
 11
200.0
 21
10.0
  0
LINE
  8
0
 62
7
  6
CONTINUOUS
 10
210.0
 20
0.0
 11
210.0
 21
297.0
  0
LINE
  8
0
 62
7
  6
CONTINUOUS
 10
10.0
 20
287.0
 11
200.0
 21
287.0
  0
LINE
  8
0
 62
7
  6
CONTINUOUS
 10
0.0
 20
297.0
 11
210.0
 21
297.0
  0
LINE
  8
0
 62
7
  6
CONTINUOUS
 10
89.9195381465
 20
181.2580923022
 11
91.5751056911
 21
180.6555149951
  0
LINE
  8
0
 62
7
  6
CONTINUOUS
 10
75.3798529885
 20
194.2449455647
 11
76.2607620794
 21
192.7191662624
  0
LINE
  8
0
 62
7
  6
CONTINUOUS
 10
72.5895963345
 20
213.5393818083
 11
72.2836598179
 21
211.8043296034
  0
LINE
  8
0
 62
7
  6
CONTINUOUS
 10
82.8543602831
 20
230.1133198808
 11
81.5047292552
 21
228.980844983
  0
LINE
  8
0
 62
7
  6
CONTINUOUS
 10
100.2162294242
 20
186.8297727709
 11
100.7642477977
 21
186.8297727709
  0
LINE
  8
0
 62
7
  6
CONTINUOUS
 10
86.8489832948
 20
191.8945148525
 11
87.2687897245
 21
191.5422554321
  0
LINE
  8
0
 62
7
  6
CONTINUOUS
 10
79.8646321338
 20
204.3666325675
 11
79.9597945257
 21
203.8269398245
  0
LINE
  8
0
 62
7
  6
CONTINUOUS
 10
82.5312314719
 20
218.410283425
 11
82.2572222852
 21
217.9356855918
  0
LINE
  8
0
 62
7
  6
CONTINUOUS
 10
93.6010498429
 20
227.4542871109
 11
93.0860810212
 21
227.2668537883
  0
LINE
  8
0
 62
7
  6
CONTINUOUS
 10
87.6891358496
 20
217.915294523
 11
87.6186288637
 21
217.7583953742
  0
LINE
  8
0
 62
7
  6
CONTINUOUS
 10
86.9999568094
 20
217.0019853608
 11
86.8881024455
 21
216.8262258785
  0
LINE
  8
0
 62
7
  6
CONTINUOUS
 10
86.4406850942
 20
216.1231881127
 11
86.3288307544
 21
215.9474286681
  0
LINE
  8
0
 62
7
  6
CONTINUOUS
 10
87.7929356868
 20
218.0456916014
 11
87.6891358496
 21
217.915294523
  0
LINE
  8
0
 62
7
  6
CONTINUOUS
 10
87.4555863274
 20
217.6219012363
 11
87.325836568
 21
217.4589049349
  0
LINE
  8
0
 62
7
  6
CONTINUOUS
 10
88.0107863848
 20
219.2696884701
 11
87.8702528177
 21
219.1158929526
  0
LINE
  8
0
 62
7
  6
CONTINUOUS
 10
88.0273206214
 20
218.972369272
 11
88.1678541885
 21
219.1261647894
  0
LINE
  8
0
 62
7
  6
CONTINUOUS
 10
88.4819898839
 20
218.8391173478
 11
88.3414563168
 21
218.6853218303
  0
LINE
  8
0
 62
7
  6
CONTINUOUS
 10
91.0594434617
 20
221.8756435116
 11
90.8548715123
 21
221.7319413283
  0
LINE
  8
0
 62
7
  6
CONTINUOUS
 10
94.533108358
 20
223.3758172073
 11
94.7140788706
 21
223.487455429
  0
LINE
  8
0
 62
7
  6
CONTINUOUS
 10
94.6408702642
 20
223.6872299064
 11
94.4207769466
 21
223.5612548882
  0
LINE
  8
0
 62
7
  6
CONTINUOUS
 10
93.0242823978
 20
223.0037651415
 11
92.802422603
 21
222.8885339329
  0
LINE
  8
0
 62
7
  6
CONTINUOUS
 10
87.6186288637
 20
217.7583953742
 11
87.6073647997
 21
217.6075935647
  0
LINE
  8
0
 62
7
  6
CONTINUOUS
 10
87.7405362047
 20
217.5015852835
 11
87.7518002687
 21
217.6523870931
  0
LINE
  8
0
 62
7
  6
CONTINUOUS
 10
87.88914195
 20
215.9422142917
 11
87.8979839072
 21
216.0353649484
  0
LINE
  8
0
 62
7
  6
CONTINUOUS
 10
87.7455427359
 20
216.0336016725
 11
87.6919590938
 21
215.8701472973
  0
LINE
  8
0
 62
7
  6
CONTINUOUS
 10
87.8355582985
 20
215.7787599225
 11
87.88914195
 21
215.9422142917
  0
LINE
  8
0
 62
7
  6
CONTINUOUS
 10
87.7518002687
 20
217.6523870931
 11
87.8223072547
 21
217.8092862418
  0
LINE
  8
0
 62
7
  6
CONTINUOUS
 10
87.6919590938
 20
215.8701472973
 11
87.6024756091
 21
215.7295397215
  0
LINE
  8
0
 62
7
  6
CONTINUOUS
 10
87.7460748138
 20
215.6381523467
 11
87.8355582985
 21
215.7787599225
  0
LINE
  8
0
 62
7
  6
CONTINUOUS
 10
88.0816378413
 20
216.165430693
 11
88.1934922052
 21
216.3411901754
  0
LINE
  8
0
 62
7
  6
CONTINUOUS
 10
94.4450242811
 20
223.252897355
 11
94.533108358
 21
223.3758172073
  0
LINE
  8
0
 62
7
  6
CONTINUOUS
 10
94.4207769466
 20
223.5612548882
 11
94.2690898765
 21
223.3697068755
  0
LINE
  8
0
 62
7
  6
CONTINUOUS
 10
88.3912079014
 20
216.6108386114
 11
88.5209576607
 21
216.7738349128
  0
LINE
  8
0
 62
7
  6
CONTINUOUS
 10
88.9880567053
 20
217.3606214861
 11
89.1178063904
 21
217.5236176943
  0
LINE
  8
0
 62
7
  6
CONTINUOUS
 10
89.3466903484
 20
217.7667701939
 11
89.4872239155
 21
217.9205657113
  0
LINE
  8
0
 62
7
  6
CONTINUOUS
 10
87.620691544
 20
215.5203916397
 11
87.7460748138
 21
215.6381523467
  0
LINE
  8
0
 62
7
  6
CONTINUOUS
 10
87.8223072547
 20
217.8092862418
 11
87.9593999431
 21
217.91318125
  0
LINE
  8
0
 62
7
  6
CONTINUOUS
 10
92.0608151151
 20
221.1749866249
 11
91.719861996
 21
220.9354830774
  0
LINE
  8
0
 62
7
  6
CONTINUOUS
 10
91.5152900466
 20
220.7917808941
 11
90.935669393
 21
220.3846246167
  0
LINE
  8
0
 62
7
  6
CONTINUOUS
 10
90.8437619419
 20
220.0080475929
 11
91.6620497399
 21
220.5828563261
  0
LINE
  8
0
 62
7
  6
CONTINUOUS
 10
91.8666216894
 20
220.7265585094
 11
92.2075748084
 21
220.9660620569
  0
LINE
  8
0
 62
7
  6
CONTINUOUS
 10
92.0044889786
 20
220.0953657324
 11
92.2090609281
 21
220.2390679157
  0
LINE
  8
0
 62
7
  6
CONTINUOUS
 10
87.9040783788
 20
218.1169872934
 11
87.7929356868
 21
218.0456916014
  0
LINE
  8
0
 62
7
  6
CONTINUOUS
 10
95.4367940377
 20
222.1207626505
 11
95.2558226297
 21
222.0091241006
  0
LINE
  8
0
 62
7
  6
CONTINUOUS
 10
95.3290312463
 20
221.8093495953
 11
95.5491245626
 21
221.935324617
  0
LINE
  8
0
 62
7
  6
CONTINUOUS
 10
93.9236222105
 20
222.1762063462
 11
93.5538556037
 21
221.9841541853
  0
LINE
  8
0
 62
7
  6
CONTINUOUS
 10
93.3319958088
 20
221.8689229767
 11
92.7033933389
 21
221.5424346988
  0
LINE
  8
0
 62
7
  6
CONTINUOUS
 10
92.5622400026
 20
221.1814181202
 11
93.4496787588
 21
221.6423427348
  0
LINE
  8
0
 62
7
  6
CONTINUOUS
 10
93.6715385536
 20
221.7575739435
 11
94.0413051604
 21
221.9496261043
  0
LINE
  8
0
 62
7
  6
CONTINUOUS
 10
93.7242722719
 20
221.1136555743
 11
93.9461320667
 21
221.2288867829
  0
LINE
  8
0
 62
7
  6
CONTINUOUS
 10
87.9593999431
 20
217.91318125
 11
88.0445926387
 21
217.9518776257
  0
LINE
  8
0
 62
7
  6
CONTINUOUS
 10
88.0485139221
 20
218.161780915
 11
87.9040783788
 21
218.1169872934
  0
LINE
  8
0
 62
7
  6
CONTINUOUS
 10
105.163792382
 20
223.7193220472
 11
105.3085493644
 21
223.763065741
  0
LINE
  8
0
 62
7
  6
CONTINUOUS
 10
87.7408557453
 20
216.1847510252
 11
87.7455427359
 21
216.0336016725
  0
LINE
  8
0
 62
7
  6
CONTINUOUS
 10
90.8548715123
 20
221.7319413283
 11
90.6970022486
 21
220.2169721609
  0
LINE
  8
0
 62
7
  6
CONTINUOUS
 10
90.935669393
 20
220.3846246167
 11
91.0505510577
 21
221.4533753026
  0
LINE
  8
0
 62
7
  6
CONTINUOUS
 10
92.802422603
 20
222.8885339329
 11
92.4445570527
 21
221.407998362
  0
LINE
  8
0
 62
7
  6
CONTINUOUS
 10
92.7033933389
 20
221.5424346988
 11
92.9593331662
 21
222.5864270143
  0
LINE
  8
0
 62
7
  6
CONTINUOUS
 10
94.2690898765
 20
223.3697068755
 11
94.1956475209
 21
223.2068321277
  0
LINE
  8
0
 62
7
  6
CONTINUOUS
 10
95.5248781146
 20
222.2436825028
 11
95.4367940377
 21
222.1207626505
  0
LINE
  8
0
 62
7
  6
CONTINUOUS
 10
95.5491245626
 20
221.935324617
 11
95.7008125243
 21
222.1268729683
  0
LINE
  8
0
 62
7
  6
CONTINUOUS
 10
102.5948525054
 20
222.8459496663
 11
104.2435711373
 21
224.0215048079
  0
LINE
  8
0
 62
7
  6
CONTINUOUS
 10
104.0534194199
 20
224.1418728344
 11
102.3636822047
 21
222.9736343827
  0
LINE
  8
0
 62
7
  6
CONTINUOUS
 10
87.6024756091
 20
215.7295397215
 11
87.4411925318
 21
215.6346258622
  0
LINE
  8
0
 62
7
  6
CONTINUOUS
 10
105.0955345767
 20
223.9191676145
 11
104.9380277315
 21
223.8348257105
  0
LINE
  8
0
 62
7
  6
CONTINUOUS
 10
87.481779325
 20
215.4606296473
 11
87.620691544
 21
215.5203916397
  0
LINE
  8
0
 62
7
  6
CONTINUOUS
 10
105.4045846673
 20
222.2610296473
 11
105.2598276849
 21
222.2172859535
  0
LINE
  8
0
 62
7
  6
CONTINUOUS
 10
87.8979839072
 20
216.0353649484
 11
87.8573970677
 21
216.2093611045
  0
LINE
  8
0
 62
7
  6
CONTINUOUS
 10
87.6073647997
 20
217.6075935647
 11
87.6220505836
 21
217.4893908849
  0
LINE
  8
0
 62
7
  6
CONTINUOUS
 10
87.7552219887
 20
217.3833826037
 11
87.7405362047
 21
217.5015852835
  0
LINE
  8
0
 62
7
  6
CONTINUOUS
 10
94.1956475209
 20
223.2068321277
 11
94.1759696916
 21
223.0183392809
  0
LINE
  8
0
 62
7
  6
CONTINUOUS
 10
94.3763843254
 20
222.9558210123
 11
94.4450242811
 21
223.252897355
  0
LINE
  8
0
 62
7
  6
CONTINUOUS
 10
95.5935172057
 20
222.5407584334
 11
95.5248781146
 21
222.2436825028
  0
LINE
  8
0
 62
7
  6
CONTINUOUS
 10
95.7008125243
 20
222.1268729683
 11
95.7742548748
 21
222.2897477301
  0
LINE
  8
0
 62
7
  6
CONTINUOUS
 10
104.9282822805
 20
223.5256700219
 11
105.163792382
 21
223.7193220472
  0
LINE
  8
0
 62
7
  6
CONTINUOUS
 10
105.6400929223
 20
222.4546821588
 11
105.4045846673
 21
222.2610296473
  0
LINE
  8
0
 62
7
  6
CONTINUOUS
 10
106.8743474315
 20
222.982945859
 11
107.0030288754
 21
223.064693027
  0
LINE
  8
0
 62
7
  6
CONTINUOUS
 10
107.6059904312
 20
222.2765521205
 11
107.4773089873
 21
222.1948049525
  0
LINE
  8
0
 62
7
  6
CONTINUOUS
 10
106.9596450734
 20
223.2713696452
 11
106.7754259814
 21
223.1681189554
  0
LINE
  8
0
 62
7
  6
CONTINUOUS
 10
107.221417755
 20
221.3295327098
 11
107.4056368531
 21
221.4327834132
  0
LINE
  8
0
 62
7
  6
CONTINUOUS
 10
105.4728424682
 20
222.0611840658
 11
105.6303493178
 21
222.145525984
  0
LINE
  8
0
 62
7
  6
CONTINUOUS
 10
87.6778980524
 20
216.323595329
 11
87.7408557453
 21
216.1847510252
  0
LINE
  8
0
 62
7
  6
CONTINUOUS
 10
94.1759696916
 20
223.0183392809
 11
94.1807720914
 21
222.8841376861
  0
LINE
  8
0
 62
7
  6
CONTINUOUS
 10
95.7742548748
 20
222.2897477301
 11
95.7939326939
 21
222.4782406049
  0
LINE
  8
0
 62
7
  6
CONTINUOUS
 10
89.7429633315
 20
184.9600491275
 11
89.3042987224
 21
182.3526726455
  0
LINE
  8
0
 62
7
  6
CONTINUOUS
 10
98.6568250481
 20
235.3934851639
 11
98.1772596662
 21
232.7933205917
  0
LINE
  8
0
 62
7
  6
CONTINUOUS
 10
104.8075228357
 20
223.6974015445
 11
104.7295213992
 21
223.5880908519
  0
LINE
  8
0
 62
7
  6
CONTINUOUS
 10
106.7836009116
 20
222.8839604016
 11
106.8743474315
 21
222.982945859
  0
LINE
  8
0
 62
7
  6
CONTINUOUS
 10
104.9380277315
 20
223.8348257105
 11
104.8075228357
 21
223.6974015445
  0
LINE
  8
0
 62
7
  6
CONTINUOUS
 10
105.6303493178
 20
222.145525984
 11
105.7608542225
 21
222.2829501784
  0
LINE
  8
0
 62
7
  6
CONTINUOUS
 10
106.7754259814
 20
223.1681189554
 11
106.6115356658
 21
223.0088898518
  0
LINE
  8
0
 62
7
  6
CONTINUOUS
 10
77.6241608116
 20
197.1943091226
 11
75.612134929
 21
195.478911033
  0
LINE
  8
0
 62
7
  6
CONTINUOUS
 10
116.8705628445
 20
230.0988426798
 11
114.8318408784
 21
228.4152597436
  0
LINE
  8
0
 62
7
  6
CONTINUOUS
 10
107.3067154153
 20
221.6179565367
 11
107.1780339591
 21
221.5362093416
  0
LINE
  8
0
 62
7
  6
CONTINUOUS
 10
121.0433374662
 20
193.1881120721
 11
123.5349287308
 21
192.3033455895
  0
LINE
  8
0
 62
7
  6
CONTINUOUS
 10
72.9239744896
 20
210.7242264611
 11
75.4013610635
 21
209.8004329158
  0
LINE
  8
0
 62
7
  6
CONTINUOUS
 10
106.8905353976
 20
183.3778783466
 11
108.2304881078
 21
181.0985439059
  0
LINE
  8
0
 62
7
  6
CONTINUOUS
 10
81.3009618342
 20
227.7418516355
 11
82.6049470085
 21
225.4417513283
  0
LINE
  8
0
 62
7
  6
CONTINUOUS
 10
95.7939326939
 20
222.4782406049
 11
95.789130335
 21
222.6124420878
  0
LINE
  8
0
 62
7
  6
CONTINUOUS
 10
104.8120312912
 20
223.2945648124
 11
104.9282822805
 21
223.5256700219
  0
LINE
  8
0
 62
7
  6
CONTINUOUS
 10
104.7295213992
 20
223.5880908519
 11
104.6260184529
 21
223.397584424
  0
LINE
  8
0
 62
7
  6
CONTINUOUS
 10
105.7608542225
 20
222.2829501784
 11
105.8388556233
 21
222.3922607574
  0
LINE
  8
0
 62
7
  6
CONTINUOUS
 10
107.6967369018
 20
222.3755374693
 11
107.6059904312
 21
222.2765521205
  0
LINE
  8
0
 62
7
  6
CONTINUOUS
 10
107.3974618859
 20
221.7169418855
 11
107.3067154153
 21
221.6179565367
  0
LINE
  8
0
 62
7
  6
CONTINUOUS
 10
107.4056368531
 20
221.4327834132
 11
107.5695271318
 21
221.5920124353
  0
LINE
  8
0
 62
7
  6
CONTINUOUS
 10
114.1378558333
 20
216.841902471
 11
114.0097739115
 21
216.8015534622
  0
LINE
  8
0
 62
7
  6
CONTINUOUS
 10
114.1205516926
 20
216.5734327554
 11
114.2486336144
 21
216.6137817641
  0
LINE
  8
0
 62
7
  6
CONTINUOUS
 10
94.4251127435
 20
222.7017551711
 11
94.3763843254
 21
222.9558210123
  0
LINE
  8
0
 62
7
  6
CONTINUOUS
 10
94.1807720914
 20
222.8841376861
 11
94.2148578929
 21
222.6700264122
  0
LINE
  8
0
 62
7
  6
CONTINUOUS
 10
95.789130335
 20
222.6124420878
 11
95.7550436177
 21
222.8265530895
  0
LINE
  8
AXES
 62
2
  6
CONTINUOUS
 10
100.4902386117
 20
208.6052472621
 11
100.4902386117
 21
206.8452472621
  0
LINE
  8
AXES
 62
2
  6
CENTER
 10
100.4902386117
 20
203.3252472621
 11
100.4902386117
 21
178.6053301624
  0
LINE
  8
AXES
 62
2
  6
CENTER
 10
100.4902386117
 20
212.1252472621
 11
100.4902386117
 21
236.8451643619
  0
LINE
  8
0
 62
7
  6
CONTINUOUS
 10
102.6551088579
 20
224.6074207691
 11
102.6177464712
 21
224.3979610023
  0
LINE
  8
0
 62
7
  6
CONTINUOUS
 10
102.3636822047
 20
222.9736343827
 11
102.3039023807
 21
222.6384987264
  0
LINE
  8
0
 62
7
  6
CONTINUOUS
 10
104.6260184529
 20
223.397584424
 11
104.5112696874
 21
223.0322005322
  0
LINE
  8
0
 62
7
  6
CONTINUOUS
 10
104.7227822513
 20
223.010377341
 11
104.8120312912
 21
223.2945648124
  0
LINE
  8
0
 62
7
  6
CONTINUOUS
 10
106.6115356658
 20
223.0088898518
 11
106.5411180208
 21
222.8539261978
  0
LINE
  8
0
 62
7
  6
CONTINUOUS
 10
106.7483920891
 20
222.8064785746
 11
106.7836009116
 21
222.8839604016
  0
LINE
  8
0
 62
7
  6
CONTINUOUS
 10
105.7563457492
 20
222.6857868537
 11
105.6400929223
 21
222.4546821588
  0
LINE
  8
0
 62
7
  6
CONTINUOUS
 10
105.8388556233
 20
222.3922607574
 11
105.9423567677
 21
222.5827678136
  0
LINE
  8
0
 62
7
  6
CONTINUOUS
 10
107.5695271318
 20
221.5920124353
 11
107.730691272
 21
221.8459614924
  0
LINE
  8
0
 62
7
  6
CONTINUOUS
 10
107.5410216149
 20
221.9321500291
 11
107.3974618859
 21
221.7169418855
  0
LINE
  8
0
 62
7
  6
CONTINUOUS
 10
113.8712846624
 20
218.2391328486
 11
112.2443028625
 21
217.0759775612
  0
LINE
  8
0
 62
7
  6
CONTINUOUS
 10
112.3896972734
 20
216.8726048362
 11
113.1166465986
 21
217.3923125252
  0
LINE
  8
0
 62
7
  6
CONTINUOUS
 10
113.3243463781
 20
217.5408004166
 11
113.8435959238
 21
217.9120202142
  0
LINE
  8
0
 62
7
  6
CONTINUOUS
 10
115.3158793873
 20
214.1712548986
 11
115.0374941713
 21
214.0652851787
  0
LINE
  8
0
 62
7
  6
CONTINUOUS
 10
115.3104573944
 20
213.94627149
 11
115.3899960276
 21
213.9765485529
  0
LINE
  8
0
 62
7
  6
CONTINUOUS
 10
114.8878170987
 20
213.7408092063
 11
115.0071250485
 21
213.7862248005
  0
LINE
  8
AXES
 62
2
  6
CONTINUOUS
 10
101.3702386117
 20
207.7252472621
 11
99.6102386117
 21
207.7252472621
  0
LINE
  8
AXES
 62
2
  6
CENTER
 10
96.0902386117
 20
207.7252472621
 11
71.370321512
 21
207.7252472621
  0
LINE
  8
AXES
 62
2
  6
CENTER
 10
104.8902386117
 20
207.7252472621
 11
129.6101557115
 21
207.7252472621
  0
LINE
  8
0
 62
7
  6
CONTINUOUS
 10
86.3288307544
 20
215.9474286681
 11
87.0468267652
 21
215.490491802
  0
LINE
  8
0
 62
7
  6
CONTINUOUS
 10
87.158681105
 20
215.6662512466
 11
86.4406850942
 21
216.1231881127
  0
LINE
  8
0
 62
7
  6
CONTINUOUS
 10
86.8881024455
 20
216.8262258785
 11
87.6778980524
 21
216.323595329
  0
LINE
  8
0
 62
7
  6
CONTINUOUS
 10
87.9333516335
 20
216.4079674285
 11
86.9999568094
 21
217.0019853608
  0
LINE
  8
0
 62
7
  6
CONTINUOUS
 10
87.325836568
 20
217.4589049349
 11
88.3912079014
 21
216.6108386114
  0
LINE
  8
0
 62
7
  6
CONTINUOUS
 10
88.5209576607
 20
216.7738349128
 11
87.7552219887
 21
217.3833826037
  0
LINE
  8
0
 62
7
  6
CONTINUOUS
 10
87.6220505836
 20
217.4893908849
 11
87.4555863274
 21
217.6219012363
  0
LINE
  8
0
 62
7
  6
CONTINUOUS
 10
88.3554924382
 20
217.8641608959
 11
88.9880567053
 21
217.3606214861
  0
LINE
  8
0
 62
7
  6
CONTINUOUS
 10
89.1178063904
 20
217.5236176943
 11
88.4852421233
 21
218.027157104
  0
LINE
  8
0
 62
7
  6
CONTINUOUS
 10
87.8702528177
 20
219.1158929526
 11
88.0273206214
 21
218.972369272
  0
LINE
  8
0
 62
7
  6
CONTINUOUS
 10
88.3414563168
 20
218.6853218303
 11
89.3466903484
 21
217.7667701939
  0
LINE
  8
0
 62
7
  6
CONTINUOUS
 10
89.4872239155
 20
217.9205657113
 11
88.4819898839
 21
218.8391173478
  0
LINE
  8
0
 62
7
  6
CONTINUOUS
 10
88.1678541885
 20
219.1261647894
 11
88.0107863848
 21
219.2696884701
  0
LINE
  8
0
 62
7
  6
CONTINUOUS
 10
90.6970022486
 20
220.2169721609
 11
90.8437619419
 21
220.0080475929
  0
LINE
  8
0
 62
7
  6
CONTINUOUS
 10
91.0505510577
 20
221.4533753026
 11
91.5152900466
 21
220.7917808941
  0
LINE
  8
0
 62
7
  6
CONTINUOUS
 10
91.6620497399
 20
220.5828563261
 11
92.0044889786
 21
220.0953657324
  0
LINE
  8
0
 62
7
  6
CONTINUOUS
 10
92.2090609281
 20
220.2390679157
 11
91.8666216894
 21
220.7265585094
  0
LINE
  8
0
 62
7
  6
CONTINUOUS
 10
91.719861996
 20
220.9354830774
 11
91.0594434617
 21
221.8756435116
  0
LINE
  8
0
 62
7
  6
CONTINUOUS
 10
92.4445570527
 20
221.407998362
 11
92.5622400026
 21
221.1814181202
  0
LINE
  8
0
 62
7
  6
CONTINUOUS
 10
92.9593331662
 20
222.5864270143
 11
93.3319958088
 21
221.8689229767
  0
LINE
  8
0
 62
7
  6
CONTINUOUS
 10
93.4496787588
 20
221.6423427348
 11
93.7242722719
 21
221.1136555743
  0
LINE
  8
0
 62
7
  6
CONTINUOUS
 10
93.9461320667
 20
221.2288867829
 11
93.6715385536
 21
221.7575739435
  0
LINE
  8
0
 62
7
  6
CONTINUOUS
 10
93.5538556037
 20
221.9841541853
 11
93.0242823978
 21
223.0037651415
  0
LINE
  8
0
 62
7
  6
CONTINUOUS
 10
94.2148578929
 20
222.6700264122
 11
94.3466333844
 21
222.3104323529
  0
LINE
  8
0
 62
7
  6
CONTINUOUS
 10
94.5276047924
 20
222.4220709028
 11
94.4251127435
 21
222.7017551711
  0
LINE
  8
0
 62
7
  6
CONTINUOUS
 10
95.4422976135
 20
223.074508927
 11
95.5447896625
 21
222.7948246587
  0
LINE
  8
0
 62
7
  6
CONTINUOUS
 10
95.5447896625
 20
222.7948246587
 11
95.5935172057
 21
222.5407584334
  0
LINE
  8
0
 62
7
  6
CONTINUOUS
 10
104.5112696874
 20
223.0322005322
 11
104.4872739874
 21
222.8167248011
  0
LINE
  8
0
 62
7
  6
CONTINUOUS
 10
104.6860348687
 20
222.7543039712
 11
104.7227822513
 21
223.010377341
  0
LINE
  8
0
 62
7
  6
CONTINUOUS
 10
103.9446720014
 20
222.3458264388
 11
103.9895068708
 21
222.5971781883
  0
LINE
  8
0
 62
7
  6
CONTINUOUS
 10
104.2435711373
 20
224.0215048079
 11
104.2958784787
 21
224.3147484815
  0
LINE
  8
0
 62
7
  6
CONTINUOUS
 10
105.8455947891
 20
222.9699743251
 11
105.7563457492
 21
222.6857868537
  0
LINE
  8
0
 62
7
  6
CONTINUOUS
 10
105.9423567677
 20
222.5827678136
 11
106.0571055333
 21
222.9481517054
  0
LINE
  8
0
 62
7
  6
CONTINUOUS
 10
107.7319457243
 20
222.4530192963
 11
107.6967369018
 21
222.3755374693
  0
LINE
  8
0
 62
7
  6
CONTINUOUS
 10
107.5762304374
 20
222.0096318561
 11
107.5410216149
 21
221.9321500291
  0
LINE
  8
0
 62
7
  6
CONTINUOUS
 10
107.730691272
 20
221.8459614924
 11
107.8539221507
 21
222.1171478869
  0
LINE
  8
0
 62
7
  6
CONTINUOUS
 10
114.2417058201
 20
216.9161464859
 11
114.1378558333
 21
216.841902471
  0
LINE
  8
0
 62
7
  6
CONTINUOUS
 10
114.2486336144
 20
216.6137817641
 11
114.387100231
 21
216.712773761
  0
LINE
  8
0
 62
7
  6
CONTINUOUS
 10
115.0374941713
 20
214.0652851787
 11
114.773932499
 21
213.9203734555
  0
LINE
  8
0
 62
7
  6
CONTINUOUS
 10
115.3777041785
 20
212.8127037674
 11
115.2583962287
 21
212.7672881732
  0
LINE
  8
0
 62
7
  6
CONTINUOUS
 10
115.2927421953
 20
212.5574468612
 11
115.4915888339
 21
212.6331395394
  0
LINE
  8
0
 62
7
  6
CONTINUOUS
 10
115.6090882028
 20
214.2382826363
 11
115.3158793873
 21
214.1712548986
  0
LINE
  8
0
 62
7
  6
CONTINUOUS
 10
115.3899960276
 20
213.9765485529
 11
115.6434341694
 21
214.0284413243
  0
LINE
  8
0
 62
7
  6
CONTINUOUS
 10
87.0468267652
 20
215.490491802
 11
87.2127968516
 21
215.43425631
  0
LINE
  8
0
 62
7
  6
CONTINUOUS
 10
88.1630781855
 20
217.964071931
 11
88.3554924382
 21
217.8641608959
  0
LINE
  8
0
 62
7
  6
CONTINUOUS
 10
92.2075748084
 20
220.9660620569
 11
92.0608151151
 21
221.1749866249
  0
LINE
  8
0
 62
7
  6
CONTINUOUS
 10
94.3466333844
 20
222.3104323529
 11
94.4589648162
 21
222.1249946161
  0
LINE
  8
0
 62
7
  6
CONTINUOUS
 10
94.6545770501
 20
222.1966779424
 11
94.5276047924
 21
222.4220709028
  0
LINE
  8
0
 62
7
  6
CONTINUOUS
 10
95.3153244809
 20
223.2999015034
 11
95.4422976135
 21
223.074508927
  0
LINE
  8
0
 62
7
  6
CONTINUOUS
 10
94.0413051604
 20
221.9496261043
 11
93.9236222105
 21
222.1762063462
  0
LINE
  8
0
 62
7
  6
CONTINUOUS
 10
95.7550436177
 20
222.8265530895
 11
95.6232681262
 21
223.1861471487
  0
LINE
  8
0
 62
7
  6
CONTINUOUS
 10
104.4872739874
 20
222.8167248011
 11
104.4887762112
 21
222.6824461188
  0
LINE
  8
0
 62
7
  6
CONTINUOUS
 10
106.5411180208
 20
222.8539261978
 11
106.5289641747
 21
222.6257460578
  0
LINE
  8
0
 62
7
  6
CONTINUOUS
 10
106.0571055333
 20
222.9481517054
 11
106.0811030351
 21
223.1636268081
  0
LINE
  8
0
 62
7
  6
CONTINUOUS
 10
106.2825023926
 20
222.0833732146
 11
106.2676223833
 21
221.9499130552
  0
LINE
  8
0
 62
7
  6
CONTINUOUS
 10
106.7335120922
 20
222.6730184424
 11
106.7483920891
 21
222.8064785746
  0
LINE
  8
0
 62
7
  6
CONTINUOUS
 10
105.8823403341
 20
223.2260482095
 11
105.8455947891
 21
222.9699743251
  0
LINE
  8
0
 62
7
  6
CONTINUOUS
 10
107.8539221507
 20
222.1171478869
 11
107.9392197926
 21
222.4055716731
  0
LINE
  8
0
 62
7
  6
CONTINUOUS
 10
114.773932499
 20
213.9203734555
 11
114.6047317301
 21
213.7668003886
  0
LINE
  8
0
 62
7
  6
CONTINUOUS
 10
114.7833327485
 20
213.6564516299
 11
114.8878170987
 21
213.7408092063
  0
LINE
  8
0
 62
7
  6
CONTINUOUS
 10
113.4393239236
 20
215.3187620604
 11
113.9681737252
 21
215.4128201444
  0
LINE
  8
0
 62
7
  6
CONTINUOUS
 10
114.1379019292
 20
215.4564180077
 11
115.3278146974
 21
215.6680474566
  0
LINE
  8
0
 62
7
  6
CONTINUOUS
 10
115.3992208168
 20
215.8953162638
 11
113.321336702
 21
215.5391685384
  0
LINE
  8
0
 62
7
  6
CONTINUOUS
 10
115.2583962287
 20
212.7672881732
 11
115.1242646795
 21
212.7608145611
  0
LINE
  8
0
 62
7
  6
CONTINUOUS
 10
115.0071250485
 20
213.7862248005
 11
115.1412566534
 21
213.7926984338
  0
LINE
  8
0
 62
7
  6
CONTINUOUS
 10
115.6434341694
 20
214.0284413243
 11
115.77756583
 21
214.0349149787
  0
LINE
  8
0
 62
7
  6
CONTINUOUS
 10
115.0642497427
 20
212.5596345927
 11
115.2927421953
 21
212.5574468612
  0
LINE
  8
0
 62
7
  6
CONTINUOUS
 10
87.2127968516
 20
215.43425631
 11
87.3069673168
 21
215.4237145174
  0
LINE
  8
0
 62
7
  6
CONTINUOUS
 10
87.8573970677
 20
216.2093611045
 11
88.0816378413
 21
216.165430693
  0
LINE
  8
0
 62
7
  6
CONTINUOUS
 10
87.2887513703
 20
215.6328626154
 11
87.158681105
 21
215.6662512466
  0
LINE
  8
0
 62
7
  6
CONTINUOUS
 10
88.0993216917
 20
216.351731906
 11
87.9333516335
 21
216.4079674285
  0
LINE
  8
0
 62
7
  6
CONTINUOUS
 10
88.2928280191
 20
218.1270683258
 11
88.1669994689
 21
218.1739752204
  0
LINE
  8
0
 62
7
  6
CONTINUOUS
 10
88.4852421233
 20
218.027157104
 11
88.2928280191
 21
218.1270683258
  0
LINE
  8
0
 62
7
  6
CONTINUOUS
 10
94.4589648162
 20
222.1249946161
 11
94.542012785
 21
222.0194667262
  0
LINE
  8
0
 62
7
  6
CONTINUOUS
 10
95.5109376103
 20
223.3715851577
 11
95.4278896005
 21
223.4771131596
  0
LINE
  8
0
 62
7
  6
CONTINUOUS
 10
95.6232681262
 20
223.1861471487
 11
95.5109376103
 21
223.3715851577
  0
LINE
  8
0
 62
7
  6
CONTINUOUS
 10
106.0811030351
 20
223.1636268081
 11
106.079600847
 21
223.2979056041
  0
LINE
  8
0
 62
7
  6
CONTINUOUS
 10
107.9392197926
 20
222.4055716731
 11
107.951373688
 21
222.6337519216
  0
LINE
  8
0
 62
7
  6
CONTINUOUS
 10
107.7468257705
 20
222.5864795371
 11
107.7319457243
 21
222.4530192963
  0
LINE
  8
0
 62
7
  6
CONTINUOUS
 10
118.3755302149
 20
225.4417513283
 11
119.6795153892
 21
227.7418516355
  0
LINE
  8
0
 62
7
  6
CONTINUOUS
 10
92.7499891156
 20
181.0985439059
 11
94.0899418251
 21
183.3778783453
  0
LINE
  8
0
 62
7
  6
CONTINUOUS
 10
114.3213236777
 20
217.0242853686
 11
114.2417058201
 21
216.9161464859
  0
LINE
  8
0
 62
7
  6
CONTINUOUS
 10
114.387100231
 20
216.712773761
 11
114.4667180887
 21
216.8209126436
  0
LINE
  8
0
 62
7
  6
CONTINUOUS
 10
114.1079178794
 20
214.069792579
 11
115.5565365122
 21
215.6014420809
  0
LINE
  8
0
 62
7
  6
CONTINUOUS
 10
114.3614638638
 20
214.6781330055
 11
113.9899306578
 21
214.290199057
  0
LINE
  8
0
 62
7
  6
CONTINUOUS
 10
115.3278146974
 20
215.6680474566
 11
114.4918644942
 21
214.7951968922
  0
LINE
  8
0
 62
7
  6
CONTINUOUS
 10
115.4915888339
 20
212.6331395394
 11
115.6607895749
 21
212.7867125957
  0
LINE
  8
0
 62
7
  6
CONTINUOUS
 10
115.4821885844
 20
212.897061365
 11
115.3777041785
 21
212.8127037674
  0
LINE
  8
0
 62
7
  6
CONTINUOUS
 10
116.1777908018
 20
212.9835135464
 11
116.2822751521
 21
213.0678711228
  0
LINE
  8
0
 62
7
  6
CONTINUOUS
 10
125.5791161586
 20
209.8004329153
 11
128.0565027338
 21
210.7242264611
  0
LINE
  8
0
 62
7
  6
CONTINUOUS
 10
77.4455484927
 20
192.3033455895
 11
79.9371397558
 21
193.1881120716
  0
LINE
  8
0
 62
7
  6
CONTINUOUS
 10
87.4411925318
 20
215.6346258622
 11
87.2887513703
 21
215.6328626154
  0
LINE
  8
0
 62
7
  6
CONTINUOUS
 10
76.2046502226
 20
214.3561121116
 11
73.5607123381
 21
214.335346245
  0
LINE
  8
0
 62
7
  6
CONTINUOUS
 10
127.4197648853
 20
214.335346245
 11
124.7758270023
 21
214.3561121115
  0
LINE
  8
0
 62
7
  6
CONTINUOUS
 10
115.837580739
 20
214.2360949365
 11
115.6090882028
 21
214.2382826363
  0
LINE
  8
0
 62
7
  6
CONTINUOUS
 10
88.1934922052
 20
216.3411901754
 11
88.0993216917
 21
216.351731906
  0
LINE
  8
0
 62
7
  6
CONTINUOUS
 10
115.1242646795
 20
212.7608145611
 11
114.9753108601
 21
212.7932793555
  0
LINE
  8
0
 62
7
  6
CONTINUOUS
 10
114.8607030212
 20
212.6159028432
 11
115.0642497427
 21
212.5596345927
  0
LINE
  8
0
 62
7
  6
CONTINUOUS
 10
94.8989177125
 20
222.0142953994
 11
94.6545770501
 21
222.1966779424
  0
LINE
  8
0
 62
7
  6
CONTINUOUS
 10
86.1486363451
 20
228.4152597436
 11
84.109914379
 21
230.0988426798
  0
LINE
  8
0
 62
7
  6
CONTINUOUS
 10
125.3683422944
 20
195.478911033
 11
123.3563164129
 21
197.1943091217
  0
LINE
  8
0
 62
7
  6
CONTINUOUS
 10
94.542012785
 20
222.0194667262
 11
94.6788243948
 21
221.8883203812
  0
LINE
  8
0
 62
7
  6
CONTINUOUS
 10
95.4278896005
 20
223.4771131596
 11
95.2910780009
 21
223.6082594766
  0
LINE
  8
0
 62
7
  6
CONTINUOUS
 10
104.7685465715
 20
222.4607773318
 11
104.6860348687
 21
222.7543039712
  0
LINE
  8
0
 62
7
  6
CONTINUOUS
 10
102.8032175573
 20
232.7933205917
 11
102.3236521754
 21
235.3934851639
  0
LINE
  8
0
 62
7
  6
CONTINUOUS
 10
111.6761785011
 20
182.3526726455
 11
111.2375138922
 21
184.9600491261
  0
LINE
  8
0
 62
7
  6
CONTINUOUS
 10
106.4952252773
 20
221.8464871268
 11
106.4721703132
 21
221.9971854669
  0
LINE
  8
0
 62
7
  6
CONTINUOUS
 10
104.4887762112
 20
222.6824461188
 11
104.5172821953
 21
222.4950845747
  0
LINE
  8
0
 62
7
  6
CONTINUOUS
 10
106.079600847
 20
223.2979056041
 11
106.051094854
 21
223.4852671198
  0
LINE
  8
0
 62
7
  6
CONTINUOUS
 10
114.4667180887
 20
216.8209126436
 11
114.5324874029
 21
217.0215909336
  0
LINE
  8
0
 62
7
  6
CONTINUOUS
 10
114.6047317301
 20
213.7668003886
 11
114.4901238912
 21
213.5894238763
  0
LINE
  8
0
 62
7
  6
CONTINUOUS
 10
116.2822751521
 20
213.0678711228
 11
116.3968829771
 21
213.2452476298
  0
LINE
  8
0
 62
7
  6
CONTINUOUS
 10
114.6936706127
 20
213.5331556259
 11
114.7833327485
 21
213.6564516299
  0
LINE
  8
0
 62
7
  6
CONTINUOUS
 10
116.1933362695
 20
213.3015158855
 11
116.1036755187
 21
213.178216327
  0
LINE
  8
0
 62
7
  6
CONTINUOUS
 10
87.3069673168
 20
215.4237145174
 11
87.481779325
 21
215.4606296473
  0
LINE
  8
0
 62
7
  6
CONTINUOUS
 10
88.0445926387
 20
217.9518776257
 11
88.1630781855
 21
217.964071931
  0
LINE
  8
0
 62
7
  6
CONTINUOUS
 10
113.9093879674
 20
216.5761271903
 11
114.1205516926
 21
216.5734327554
  0
LINE
  8
0
 62
7
  6
CONTINUOUS
 10
114.0097739115
 20
216.8015534622
 11
113.8920754783
 21
216.819848924
  0
LINE
  8
0
 62
7
  6
CONTINUOUS
 10
115.77756583
 20
214.0349149787
 11
115.9265196216
 21
214.0024501738
  0
LINE
  8
0
 62
7
  6
CONTINUOUS
 10
116.0411274466
 20
214.1798266808
 11
115.837580739
 21
214.2360949365
  0
LINE
  8
0
 62
7
  6
CONTINUOUS
 10
115.1412566534
 20
213.7926984338
 11
115.2504411284
 21
213.7450950974
  0
LINE
  8
0
 62
7
  6
CONTINUOUS
 10
94.6788243948
 20
221.8883203812
 11
94.8401170833
 21
221.8114657422
  0
LINE
  8
0
 62
7
  6
CONTINUOUS
 10
95.0709846833
 20
223.4822844584
 11
95.3153244809
 21
223.2999015034
  0
LINE
  8
0
 62
7
  6
CONTINUOUS
 10
104.5172821953
 20
222.4950845747
 11
104.598289859
 21
222.3358372033
  0
LINE
  8
0
 62
7
  6
CONTINUOUS
 10
105.7998304778
 20
223.5195743627
 11
105.8823403341
 21
223.2260482095
  0
LINE
  8
0
 62
7
  6
CONTINUOUS
 10
106.2676223833
 20
221.9499130552
 11
106.3110061792
 21
221.7432364234
  0
LINE
  8
0
 62
7
  6
CONTINUOUS
 10
106.5289641747
 20
222.6257460578
 11
106.5723479767
 21
222.4190694396
  0
LINE
  8
0
 62
7
  6
CONTINUOUS
 10
107.951373688
 20
222.6337519216
 11
107.907989886
 21
222.8404285399
  0
LINE
  8
0
 62
7
  6
CONTINUOUS
 10
106.7565670686
 20
222.5223201294
 11
106.7335120922
 21
222.6730184424
  0
LINE
  8
0
 62
7
  6
CONTINUOUS
 10
107.7237707941
 20
222.7371778501
 11
107.7468257705
 21
222.5864795371
  0
LINE
  8
0
 62
7
  6
CONTINUOUS
 10
114.3420917642
 20
217.1415727579
 11
114.3213236777
 21
217.0242853686
  0
LINE
  8
0
 62
7
  6
CONTINUOUS
 10
114.4901238912
 20
213.5894238763
 11
114.4449325713
 21
213.3493019324
  0
LINE
  8
0
 62
7
  6
CONTINUOUS
 10
114.6586014209
 20
213.3860561817
 11
114.6936706127
 21
213.5331556259
  0
LINE
  8
0
 62
7
  6
CONTINUOUS
 10
115.5320813757
 20
213.005218827
 11
115.4821885844
 21
212.897061365
  0
LINE
  8
0
 62
7
  6
CONTINUOUS
 10
115.6607895749
 20
212.7867125957
 11
115.7356280834
 21
212.9489505713
  0
LINE
  8
0
 62
7
  6
CONTINUOUS
 10
105.2358301753
 20
222.0018108259
 11
105.4728424682
 21
222.0611840658
  0
LINE
  8
0
 62
7
  6
CONTINUOUS
 10
107.1780339591
 20
221.5362093416
 11
107.0290236897
 21
221.5104404788
  0
LINE
  8
0
 62
7
  6
CONTINUOUS
 10
107.2782098984
 20
221.9580941305
 11
107.5762304374
 21
222.0096318561
  0
LINE
  8
0
 62
7
  6
CONTINUOUS
 10
107.4773089873
 20
222.1948049525
 11
107.3282987178
 21
222.1690360897
  0
LINE
  8
0
 62
7
  6
CONTINUOUS
 10
107.0030288754
 20
223.064693027
 11
107.1520391449
 21
223.0904618898
  0
LINE
  8
0
 62
7
  6
CONTINUOUS
 10
106.9789348595
 20
221.2994984958
 11
107.221417755
 21
221.3295327098
  0
LINE
  8
0
 62
7
  6
CONTINUOUS
 10
88.1669994689
 20
218.1739752204
 11
88.0485139221
 21
218.161780915
  0
LINE
  8
0
 62
7
  6
CONTINUOUS
 10
94.8401170833
 20
221.8114657422
 11
95.0796544849
 21
221.7632843715
  0
LINE
  8
0
 62
7
  6
CONTINUOUS
 10
95.0455686745
 20
221.9773956699
 11
94.8989177125
 21
222.0142953994
  0
LINE
  8
0
 62
7
  6
CONTINUOUS
 10
94.9243337213
 20
223.5191841879
 11
95.0709846833
 21
223.4822844584
  0
LINE
  8
0
 62
7
  6
CONTINUOUS
 10
113.7086077309
 20
216.6374660957
 11
113.9093879674
 21
216.5761271903
  0
LINE
  8
0
 62
7
  6
CONTINUOUS
 10
95.2910780009
 20
223.6082594766
 11
95.1297853176
 21
223.6851141016
  0
LINE
  8
0
 62
7
  6
CONTINUOUS
 10
114.9753108601
 20
212.7932793555
 11
114.8513027856
 21
212.879824674
  0
LINE
  8
0
 62
7
  6
CONTINUOUS
 10
115.2504411284
 20
213.7450950974
 11
115.3744492028
 21
213.6585497789
  0
LINE
  8
0
 62
7
  6
CONTINUOUS
 10
115.5584735434
 20
213.7731808529
 11
115.3104573944
 21
213.94627149
  0
LINE
  8
0
 62
7
  6
CONTINUOUS
 10
115.9265196216
 20
214.0024501738
 11
116.0505276961
 21
213.9159048552
  0
LINE
  8
0
 62
7
  6
CONTINUOUS
 10
114.6672797778
 20
212.7651900256
 11
114.8607030212
 21
212.6159028432
  0
LINE
  8
0
 62
7
  6
CONTINUOUS
 10
104.598289859
 20
222.3358372033
 11
104.7588011485
 21
222.1516217321
  0
LINE
  8
0
 62
7
  6
CONTINUOUS
 10
104.8623041025
 20
222.3421281848
 11
104.7685465715
 21
222.4607773318
  0
LINE
  8
0
 62
7
  6
CONTINUOUS
 10
105.7060729468
 20
223.6382235097
 11
105.7998304778
 21
223.5195743627
  0
LINE
  8
0
 62
7
  6
CONTINUOUS
 10
106.3110061792
 20
221.7432364234
 11
106.4478625979
 21
221.5408251361
  0
LINE
  8
0
 62
7
  6
CONTINUOUS
 10
106.5723479767
 20
222.4190694396
 11
106.7092026636
 21
222.2166589515
  0
LINE
  8
0
 62
7
  6
CONTINUOUS
 10
106.5738179018
 20
221.7172923356
 11
106.4952252773
 21
221.8464871268
  0
LINE
  8
0
 62
7
  6
CONTINUOUS
 10
106.8351596931
 20
222.3931253382
 11
106.7565670686
 21
222.5223201294
  0
LINE
  8
0
 62
7
  6
CONTINUOUS
 10
106.051094854
 20
223.4852671198
 11
105.9700871858
 21
223.644514477
  0
LINE
  8
0
 62
7
  6
CONTINUOUS
 10
114.6633015456
 20
213.2540952689
 11
114.6586014209
 21
213.3860561817
  0
LINE
  8
0
 62
7
  6
CONTINUOUS
 10
115.5624504428
 20
213.284279184
 11
115.5671505676
 21
213.1523182712
  0
LINE
  8
0
 62
7
  6
CONTINUOUS
 10
116.2237053366
 20
213.5805762425
 11
116.2284054613
 21
213.4486153297
  0
LINE
  8
0
 62
7
  6
CONTINUOUS
 10
114.5324874029
 20
217.0215909336
 11
114.5394069458
 21
217.2314177304
  0
LINE
  8
0
 62
7
  6
CONTINUOUS
 10
115.7356280834
 20
212.9489505713
 11
115.7808207499
 21
213.1890689461
  0
LINE
  8
0
 62
7
  6
CONTINUOUS
 10
116.3968829771
 20
213.2452476298
 11
116.4420756437
 21
213.4853660046
  0
LINE
  8
0
 62
7
  6
CONTINUOUS
 10
115.5671505676
 20
213.1523182712
 11
115.5320813757
 21
213.005218827
  0
LINE
  8
0
 62
7
  6
CONTINUOUS
 10
116.2284054613
 20
213.4486153297
 11
116.1933362695
 21
213.3015158855
  0
LINE
  8
0
 62
7
  6
CONTINUOUS
 10
105.3325450465
 20
223.9785414152
 11
105.0955345767
 21
223.9191676145
  0
LINE
  8
0
 62
7
  6
CONTINUOUS
 10
95.0796544849
 20
221.7632843715
 11
95.3290312463
 21
221.8093495953
  0
LINE
  8
0
 62
7
  6
CONTINUOUS
 10
94.8902470244
 20
223.7332951337
 11
94.6408702642
 21
223.6872299064
  0
LINE
  8
0
 62
7
  6
CONTINUOUS
 10
95.2558226297
 20
222.0091241006
 11
95.0455686745
 21
221.9773956699
  0
LINE
  8
0
 62
7
  6
CONTINUOUS
 10
94.7140788706
 20
223.487455429
 11
94.9243337213
 21
223.5191841879
  0
LINE
  8
0
 62
7
  6
CONTINUOUS
 10
107.2021262278
 20
223.3014046381
 11
106.9596450734
 21
223.2713696452
  0
LINE
  8
0
 62
7
  6
CONTINUOUS
 10
107.0290236897
 20
221.5104404788
 11
106.8976178314
 21
221.5234125295
  0
LINE
  8
0
 62
7
  6
CONTINUOUS
 10
107.3282987178
 20
222.1690360897
 11
107.1968928596
 21
222.1820081404
  0
LINE
  8
0
 62
7
  6
CONTINUOUS
 10
107.1520391449
 20
223.0904618898
 11
107.2834450031
 21
223.0774898391
  0
LINE
  8
0
 62
7
  6
CONTINUOUS
 10
105.2598276849
 20
222.2172859535
 11
105.048315121
 21
222.2391091447
  0
LINE
  8
0
 62
7
  6
CONTINUOUS
 10
105.3085493644
 20
223.763065741
 11
105.5200601085
 21
223.7412431213
  0
LINE
  8
0
 62
7
  6
CONTINUOUS
 10
104.9845657979
 20
222.0361180652
 11
105.2358301753
 21
222.0018108259
  0
LINE
  8
0
 62
7
  6
CONTINUOUS
 10
105.5838094227
 20
223.9442341723
 11
105.3325450465
 21
223.9785414152
  0
LINE
  8
0
 62
7
  6
CONTINUOUS
 10
102.3039023807
 20
222.6384987264
 11
103.9446720014
 21
222.3458264388
  0
LINE
  8
0
 62
7
  6
CONTINUOUS
 10
103.9895068708
 20
222.5971781883
 11
102.5948525054
 21
222.8459496663
  0
LINE
  8
0
 62
7
  6
CONTINUOUS
 10
102.6177464712
 20
224.3979610023
 11
104.0534194199
 21
224.1418728344
  0
LINE
  8
0
 62
7
  6
CONTINUOUS
 10
95.1297853176
 20
223.6851141016
 11
94.8902470244
 21
223.7332951337
  0
LINE
  8
0
 62
7
  6
CONTINUOUS
 10
106.771662526
 20
221.3469453266
 11
106.9789348595
 21
221.2994984958
  0
LINE
  8
0
 62
7
  6
CONTINUOUS
 10
107.0709375419
 20
222.0055409104
 11
107.2782098984
 21
221.9580941305
  0
LINE
  8
0
 62
7
  6
CONTINUOUS
 10
107.4094002962
 20
223.2539570149
 11
107.2021262278
 21
223.3014046381
  0
LINE
  8
0
 62
7
  6
CONTINUOUS
 10
106.6199261058
 20
221.4158964716
 11
106.771662526
 21
221.3469453266
  0
LINE
  8
0
 62
7
  6
CONTINUOUS
 10
106.8976178314
 20
221.5234125295
 11
106.6700149375
 21
221.6268384579
  0
LINE
  8
0
 62
7
  6
CONTINUOUS
 10
106.4721703132
 20
221.9971854669
 11
106.2825023926
 21
222.0833732146
  0
LINE
  8
0
 62
7
  6
CONTINUOUS
 10
106.8812678848
 20
222.091729447
 11
107.0709375419
 21
222.0055409104
  0
LINE
  8
0
 62
7
  6
CONTINUOUS
 10
107.1968928596
 20
222.1820081404
 11
106.9313567288
 21
222.3026714605
  0
LINE
  8
0
 62
7
  6
CONTINUOUS
 10
107.2834450031
 20
223.0774898391
 11
107.5489811339
 21
222.956826519
  0
LINE
  8
0
 62
7
  6
CONTINUOUS
 10
104.7588011485
 20
222.1516217321
 11
104.9845657979
 21
222.0361180652
  0
LINE
  8
0
 62
7
  6
CONTINUOUS
 10
105.8095740733
 20
223.828730509
 11
105.5838094227
 21
223.9442341723
  0
LINE
  8
0
 62
7
  6
CONTINUOUS
 10
105.048315121
 20
222.2391091447
 11
104.8623041025
 21
222.3421281848
  0
LINE
  8
0
 62
7
  6
CONTINUOUS
 10
105.5200601085
 20
223.7412431213
 11
105.7060729468
 21
223.6382235097
  0
LINE
  8
0
 62
7
  6
CONTINUOUS
 10
113.8920754783
 20
216.819848924
 11
113.7847616429
 21
216.8967873046
  0
LINE
  8
0
 62
7
  6
CONTINUOUS
 10
106.4478625979
 20
221.5408251361
 11
106.6199261058
 21
221.4158964716
  0
LINE
  8
0
 62
7
  6
CONTINUOUS
 10
106.7092026636
 20
222.2166589515
 11
106.8812678848
 21
222.091729447
  0
LINE
  8
0
 62
7
  6
CONTINUOUS
 10
107.7711334627
 20
223.042839817
 11
107.5990699533
 21
223.1677684782
  0
LINE
  8
0
 62
7
  6
CONTINUOUS
 10
116.2345520366
 20
214.0305359293
 11
116.0411274466
 21
214.1798266808
  0
LINE
  8
0
 62
7
  6
CONTINUOUS
 10
113.5528298314
 20
216.7821943502
 11
113.7086077309
 21
216.6374660957
  0
LINE
  8
0
 62
7
  6
CONTINUOUS
 10
106.6700149375
 20
221.6268384579
 11
106.5738179018
 21
221.7172923356
  0
LINE
  8
0
 62
7
  6
CONTINUOUS
 10
106.9313567288
 20
222.3026714605
 11
106.8351596931
 21
222.3931253382
  0
LINE
  8
0
 62
7
  6
CONTINUOUS
 10
107.5489811339
 20
222.956826519
 11
107.6451781696
 21
222.8663726413
  0
LINE
  8
0
 62
7
  6
CONTINUOUS
 10
105.9700871858
 20
223.644514477
 11
105.8095740733
 21
223.828730509
  0
LINE
  8
0
 62
7
  6
CONTINUOUS
 10
114.8513027856
 20
212.879824674
 11
114.7670640277
 21
212.981508524
  0
LINE
  8
0
 62
7
  6
CONTINUOUS
 10
115.3744492028
 20
213.6585497789
 11
115.4586879607
 21
213.5568659289
  0
LINE
  8
0
 62
7
  6
CONTINUOUS
 10
116.0505276961
 20
213.9159048552
 11
116.134766454
 21
213.8142210053
  0
LINE
  8
0
 62
7
  6
CONTINUOUS
 10
112.2443028625
 20
217.0759775612
 11
112.3896972734
 21
216.8726048362
  0
LINE
  8
0
 62
7
  6
CONTINUOUS
 10
113.1166465986
 20
217.3923125252
 11
113.5528298314
 21
216.7821943502
  0
LINE
  8
0
 62
7
  6
CONTINUOUS
 10
113.7847616429
 20
216.8967873046
 11
113.3243463781
 21
217.5408004166
  0
LINE
  8
0
 62
7
  6
CONTINUOUS
 10
107.907989886
 20
222.8404285399
 11
107.7711334627
 21
223.042839817
  0
LINE
  8
0
 62
7
  6
CONTINUOUS
 10
114.5533938175
 20
212.9447578385
 11
114.6672797778
 21
212.7651900256
  0
LINE
  8
0
 62
7
  6
CONTINUOUS
 10
115.6723581431
 20
213.5936166038
 11
115.5584735434
 21
213.7731808529
  0
LINE
  8
0
 62
7
  6
CONTINUOUS
 10
107.6451781696
 20
222.8663726413
 11
107.7237707941
 21
222.7371778501
  0
LINE
  8
0
 62
7
  6
CONTINUOUS
 10
113.321336702
 20
215.5391685384
 11
113.4393239236
 21
215.3187620604
  0
LINE
  8
0
 62
7
  6
CONTINUOUS
 10
113.9899306578
 20
214.290199057
 11
114.1079178794
 21
214.069792579
  0
LINE
  8
0
 62
7
  6
CONTINUOUS
 10
113.9681737252
 20
215.4128201444
 11
114.3614638638
 21
214.6781330055
  0
LINE
  8
0
 62
7
  6
CONTINUOUS
 10
114.4918644942
 20
214.7951968922
 11
114.1379019292
 21
215.4564180077
  0
LINE
  8
0
 62
7
  6
CONTINUOUS
 10
114.4792785344
 20
213.1394606191
 11
114.5533938175
 21
212.9447578385
  0
LINE
  8
0
 62
7
  6
CONTINUOUS
 10
114.7670640277
 20
212.981508524
 11
114.6633015456
 21
213.2540952689
  0
LINE
  8
0
 62
7
  6
CONTINUOUS
 10
115.4586879607
 20
213.5568659289
 11
115.5624504428
 21
213.284279184
  0
LINE
  8
0
 62
7
  6
CONTINUOUS
 10
115.7464734262
 20
213.3989138232
 11
115.6723581431
 21
213.5936166038
  0
LINE
  8
0
 62
7
  6
CONTINUOUS
 10
114.3040111886
 20
217.2680071023
 11
114.3420917642
 21
217.1415727579
  0
LINE
  8
0
 62
7
  6
CONTINUOUS
 10
114.4449325713
 20
213.3493019324
 11
114.4792785344
 21
213.1394606191
  0
LINE
  8
0
 62
7
  6
CONTINUOUS
 10
115.7808207499
 20
213.1890689461
 11
115.7464734262
 21
213.3989138232
  0
LINE
  8
0
 62
7
  6
CONTINUOUS
 10
104.2958784787
 20
224.3147484815
 11
102.6551088579
 21
224.6074207691
  0
LINE
  8
0
 62
7
  6
CONTINUOUS
 10
107.5990699533
 20
223.1677684782
 11
107.4094002962
 21
223.2539570149
  0
LINE
  8
0
 62
7
  6
CONTINUOUS
 10
113.8435959238
 20
217.9120202142
 11
114.3040111886
 21
217.2680071023
  0
LINE
  8
0
 62
7
  6
CONTINUOUS
 10
114.4528623061
 20
217.4256419487
 11
113.8712846624
 21
218.2391328486
  0
LINE
  8
0
 62
7
  6
CONTINUOUS
 10
116.3484366363
 20
213.8509716801
 11
116.2345520366
 21
214.0305359293
  0
LINE
  8
0
 62
7
  6
CONTINUOUS
 10
115.5565365122
 20
215.6014420809
 11
115.3992208168
 21
215.8953162638
  0
LINE
  8
0
 62
7
  6
CONTINUOUS
 10
114.5394069458
 20
217.2314177304
 11
114.4528623061
 21
217.4256419487
  0
LINE
  8
0
 62
7
  6
CONTINUOUS
 10
116.1036755187
 20
213.178216327
 11
116.1777908018
 21
212.9835135464
  0
LINE
  8
0
 62
7
  6
CONTINUOUS
 10
116.134766454
 20
213.8142210053
 11
116.2237053366
 21
213.5805762425
  0
LINE
  8
0
 62
7
  6
CONTINUOUS
 10
116.4077296771
 20
213.6952073166
 11
116.3484366363
 21
213.8509716801
  0
LINE
  8
0
 62
7
  6
CONTINUOUS
 10
116.4420756437
 20
213.4853660046
 11
116.4077296771
 21
213.6952073166
  0
LINE
  8
0
 62
7
  6
CONTINUOUS
 10
121.1158450896
 20
204.3666325675
 11
121.0206826975
 21
203.826939823
  0
LINE
  8
0
 62
7
  6
CONTINUOUS
 10
113.7116874977
 20
191.5422554312
 11
114.1314939275
 21
191.8945148515
  0
LINE
  8
0
 62
7
  6
CONTINUOUS
 10
107.8943962036
 20
227.2668537878
 11
107.3794273819
 21
227.4542871104
  0
LINE
  8
0
 62
7
  6
CONTINUOUS
 10
118.723254939
 20
217.9356855905
 11
118.4492457522
 21
218.4102834237
  0
LINE
  8
0
 62
7
  6
CONTINUOUS
 10
124.719715144
 20
192.7191662624
 11
125.6006242349
 21
194.2449455647
  0
LINE
  8
0
 62
7
  6
CONTINUOUS
 10
109.4053715323
 20
180.6555149951
 11
111.060939077
 21
181.2580923022
  0
LINE
  8
0
 62
7
  6
CONTINUOUS
 10
101.3711477026
 20
236.2116299594
 11
99.6093295208
 21
236.2116299594
  0
LINE
  8
0
 62
7
  6
CONTINUOUS
 10
119.4757479683
 20
228.980844983
 11
118.1261169403
 21
230.1133198808
  0
LINE
  8
0
 62
7
  6
CONTINUOUS
 10
128.3908808889
 20
213.5393818083
 11
128.6968174056
 21
211.8043296034
  0
LINE
  8
0
 62
9
  6
CONTINUOUS
 10
72.4735084244
 20
81.5177841242
 11
72.2836598179
 21
82.1067245119
  0
POLYLINE
  8
0
 62
9
  6
CONTINUOUS
 66
1
 70
0
  0
VERTEX
  8
0
 62
9
  6
CONTINUOUS
 10
73.568566239
 20
81.1067245119
  0
VERTEX
  8
0
 62
9
  6
CONTINUOUS
 10
73.563961823
 20
81.2966004485
  0
VERTEX
  8
0
 62
9
  6
CONTINUOUS
 10
73.562218901
 20
81.5177841242
  0
SEQEND
  0
LINE
  8
0
 62
7
  6
CONTINUOUS
 10
72.273364337
 20
95.9067245119
 11
72.273364337
 21
82.1067245119
  0
LINE
  8
0
 62
9
  6
CONTINUOUS
 10
72.2836598179
 20
82.1067245119
 11
72.2836598179
 21
95.9067245119
  0
LINE
  8
0
 62
9
  6
CONTINUOUS
 10
72.5895963345
 20
82.1067245119
 11
72.5895963345
 21
95.9067245119
  0
LINE
  8
0
 62
9
  6
CONTINUOUS
 10
73.562218901
 20
81.5177841242
 11
73.5607123381
 21
95.9067245119
  0
POLYLINE
  8
0
 62
9
  6
CONTINUOUS
 66
1
 70
0
  0
VERTEX
  8
0
 62
9
  6
CONTINUOUS
 10
73.568566239
 20
96.9067245119
  0
VERTEX
  8
0
 62
9
  6
CONTINUOUS
 10
73.5639498319
 20
96.7157415063
  0
VERTEX
  8
0
 62
9
  6
CONTINUOUS
 10
73.5622122997
 20
96.4945097642
  0
VERTEX
  8
0
 62
9
  6
CONTINUOUS
 10
73.5607123381
 20
95.9067245119
  0
SEQEND
  0
POLYLINE
  8
0
 62
9
  6
CONTINUOUS
 66
1
 70
0
  0
VERTEX
  8
0
 62
9
  6
CONTINUOUS
 10
76.2125041235
 20
81.1067245119
  0
VERTEX
  8
0
 62
9
  6
CONTINUOUS
 10
76.2078877162
 20
81.2977075175
  0
VERTEX
  8
0
 62
9
  6
CONTINUOUS
 10
76.2061501837
 20
81.5189392596
  0
SEQEND
  0
POLYLINE
  8
0
 62
9
  6
CONTINUOUS
 66
1
 70
0
  0
VERTEX
  8
0
 62
9
  6
CONTINUOUS
 10
76.2125041235
 20
96.9067245119
  0
VERTEX
  8
0
 62
9
  6
CONTINUOUS
 10
76.2078877003
 20
96.7157400573
  0
VERTEX
  8
0
 62
9
  6
CONTINUOUS
 10
76.2061501733
 20
96.4945079529
  0
VERTEX
  8
0
 62
9
  6
CONTINUOUS
 10
76.2046502217
 20
95.9067245119
  0
SEQEND
  0
LINE
  8
0
 62
9
  6
CONTINUOUS
 10
76.2061501837
 20
81.5189392596
 11
76.2046502226
 21
95.9067245119
  0
LINE
  8
0
 62
7
  6
CONTINUOUS
 10
81.1708874782
 20
95.9067245119
 11
81.1708874782
 21
82.1067245119
  0
LINE
  8
0
 62
9
  6
CONTINUOUS
 10
81.5047292552
 20
82.1067245119
 11
81.5047292552
 21
95.9067245119
  0
LINE
  8
AXES
 62
7
  6
CONTINUOUS
 10
81.8202386117
 20
100.5067245119
 11
81.8202386117
 21
97.7067245119
  0
LINE
  8
AXES
 62
7
  6
CONTINUOUS
 10
81.8202386117
 20
80.3067245119
 11
81.8202386117
 21
77.5067245119
  0
LINE
  8
0
 62
9
  6
CONTINUOUS
 10
82.8543602831
 20
82.1067245119
 11
82.8543602831
 21
95.9067245119
  0
LINE
  8
0
 62
9
  6
CONTINUOUS
 10
84.109914379
 20
82.1067245119
 11
84.109914379
 21
95.9067245119
  0
LINE
  8
0
 62
9
  6
CONTINUOUS
 10
86.1486363451
 20
82.1067245119
 11
86.1486363451
 21
95.9067245119
  0
LINE
  8
0
 62
7
  6
CONTINUOUS
 10
86.3288307544
 20
76.5067245119
 11
86.3288307544
 21
76.3067245119
  0
POLYLINE
  8
0
 62
9
  6
CONTINUOUS
 66
1
 70
0
  0
VERTEX
  8
0
 62
9
  6
CONTINUOUS
 10
83.4731630315
 20
96.9067245119
  0
VERTEX
  8
0
 62
9
  6
CONTINUOUS
 10
83.1103846747
 20
96.7168485753
  0
VERTEX
  8
0
 62
9
  6
CONTINUOUS
 10
82.9730612057
 20
96.4956648996
  0
VERTEX
  8
0
 62
9
  6
CONTINUOUS
 10
82.8543602831
 20
95.9067245119
  0
SEQEND
  0
POLYLINE
  8
0
 62
9
  6
CONTINUOUS
 66
1
 70
0
  0
VERTEX
  8
0
 62
9
  6
CONTINUOUS
 10
82.1708874782
 20
96.9067245119
  0
VERTEX
  8
0
 62
9
  6
CONTINUOUS
 10
81.779329499
 20
96.7157415063
  0
VERTEX
  8
0
 62
9
  6
CONTINUOUS
 10
81.6319541548
 20
96.4945097642
  0
VERTEX
  8
0
 62
9
  6
CONTINUOUS
 10
81.5047292552
 20
95.9067245119
  0
SEQEND
  0
POLYLINE
  8
0
 62
9
  6
CONTINUOUS
 66
1
 70
0
  0
VERTEX
  8
0
 62
9
  6
CONTINUOUS
 10
73.568566239
 20
96.9067245119
  0
VERTEX
  8
0
 62
9
  6
CONTINUOUS
 10
72.9946368337
 20
96.7168485753
  0
VERTEX
  8
0
 62
9
  6
CONTINUOUS
 10
72.7773857895
 20
96.4956648996
  0
VERTEX
  8
0
 62
9
  6
CONTINUOUS
 10
72.5895963345
 20
95.9067245119
  0
SEQEND
  0
POLYLINE
  8
0
 62
9
  6
CONTINUOUS
 66
1
 70
0
  0
VERTEX
  8
0
 62
9
  6
CONTINUOUS
 10
73.273364337
 20
96.9067245119
  0
VERTEX
  8
0
 62
9
  6
CONTINUOUS
 10
72.6916306165
 20
96.7157415063
  0
VERTEX
  8
0
 62
9
  6
CONTINUOUS
 10
72.4726765616
 20
96.4945097642
  0
VERTEX
  8
0
 62
9
  6
CONTINUOUS
 10
72.2836598179
 20
95.9067245119
  0
SEQEND
  0
POLYLINE
  8
0
 62
7
  6
CONTINUOUS
 66
1
 70
0
  0
VERTEX
  8
0
 62
7
  6
CONTINUOUS
 10
73.273364337
 20
96.9067245119
  0
VERTEX
  8
0
 62
7
  6
CONTINUOUS
 10
72.690061992
 20
96.7189796285
  0
VERTEX
  8
0
 62
7
  6
CONTINUOUS
 10
72.4664470641
 20
96.4973889808
  0
VERTEX
  8
0
 62
7
  6
CONTINUOUS
 10
72.2733643495
 20
95.9067245119
  0
SEQEND
  0
POLYLINE
  8
0
 62
7
  6
CONTINUOUS
 66
1
 70
0
  0
VERTEX
  8
0
 62
7
  6
CONTINUOUS
 10
73.273364337
 20
81.1067245119
  0
VERTEX
  8
0
 62
7
  6
CONTINUOUS
 10
72.7329194941
 20
81.2653450661
  0
VERTEX
  8
0
 62
7
  6
CONTINUOUS
 10
72.3583530448
 20
81.7032962837
  0
VERTEX
  8
0
 62
7
  6
CONTINUOUS
 10
72.2733643431
 20
82.1067245119
  0
SEQEND
  0
POLYLINE
  8
0
 62
9
  6
CONTINUOUS
 66
1
 70
0
  0
VERTEX
  8
0
 62
9
  6
CONTINUOUS
 10
73.273364337
 20
81.1067245119
  0
VERTEX
  8
0
 62
9
  6
CONTINUOUS
 10
72.6931416729
 20
81.2966004485
  0
VERTEX
  8
0
 62
9
  6
CONTINUOUS
 10
72.4735084244
 20
81.5177841242
  0
SEQEND
  0
POLYLINE
  8
0
 62
9
  6
CONTINUOUS
 66
1
 70
0
  0
VERTEX
  8
0
 62
9
  6
CONTINUOUS
 10
73.568566239
 20
81.1067245119
  0
VERTEX
  8
0
 62
9
  6
CONTINUOUS
 10
72.9931421667
 20
81.2977075176
  0
VERTEX
  8
0
 62
9
  6
CONTINUOUS
 10
72.7765629493
 20
81.5189392596
  0
VERTEX
  8
0
 62
9
  6
CONTINUOUS
 10
72.5895963345
 20
82.1067245119
  0
SEQEND
  0
POLYLINE
  8
0
 62
9
  6
CONTINUOUS
 66
1
 70
0
  0
VERTEX
  8
0
 62
9
  6
CONTINUOUS
 10
82.1708874782
 20
81.1067245119
  0
VERTEX
  8
0
 62
9
  6
CONTINUOUS
 10
81.7803465729
 20
81.2966004485
  0
VERTEX
  8
0
 62
9
  6
CONTINUOUS
 10
81.6325140717
 20
81.5177841242
  0
VERTEX
  8
0
 62
9
  6
CONTINUOUS
 10
81.5047292552
 20
82.1067245119
  0
SEQEND
  0
POLYLINE
  8
0
 62
9
  6
CONTINUOUS
 66
1
 70
0
  0
VERTEX
  8
0
 62
9
  6
CONTINUOUS
 10
83.4731630315
 20
81.1067245119
  0
VERTEX
  8
0
 62
9
  6
CONTINUOUS
 10
83.1094399019
 20
81.2977075176
  0
VERTEX
  8
0
 62
9
  6
CONTINUOUS
 10
82.9725410919
 20
81.5189392596
  0
VERTEX
  8
0
 62
9
  6
CONTINUOUS
 10
82.8543602831
 20
82.1067245119
  0
SEQEND
  0
LINE
  8
0
 62
7
  6
CONTINUOUS
 10
86.4406850942
 20
76.5067245119
 11
86.4406850942
 21
76.3067245119
  0
LINE
  8
0
 62
7
  6
CONTINUOUS
 10
86.8881024455
 20
76.5067245119
 11
86.8881024455
 21
76.3067245119
  0
LINE
  8
0
 62
7
  6
CONTINUOUS
 10
86.9999568094
 20
76.5067245119
 11
86.9999568094
 21
76.3067245119
  0
LINE
  8
0
 62
7
  6
CONTINUOUS
 10
87.325836568
 20
76.5067245119
 11
87.325836568
 21
76.3067245119
  0
LINE
  8
0
 62
7
  6
CONTINUOUS
 10
87.4555863274
 20
76.5067245119
 11
87.4555863274
 21
76.3067245119
  0
LINE
  8
0
 62
7
  6
CONTINUOUS
 10
87.6073647997
 20
76.5067245119
 11
87.6073647997
 21
76.3067245119
  0
LINE
  8
0
 62
7
  6
CONTINUOUS
 10
87.6186288637
 20
76.5067245119
 11
87.6186288637
 21
76.3067245119
  0
LINE
  8
0
 62
7
  6
CONTINUOUS
 10
87.6891358496
 20
76.5067245119
 11
87.6891358496
 21
76.3067245119
  0
LINE
  8
0
 62
7
  6
CONTINUOUS
 10
87.7929356868
 20
76.5067245119
 11
87.7929356868
 21
76.3067245119
  0
LINE
  8
0
 62
7
  6
CONTINUOUS
 10
87.8702528177
 20
76.5067245119
 11
87.8702528177
 21
76.3067245119
  0
LINE
  8
0
 62
7
  6
CONTINUOUS
 10
88.0107863848
 20
76.5067245119
 11
88.0107863848
 21
76.3067245119
  0
LINE
  8
0
 62
7
  6
CONTINUOUS
 10
88.1678541885
 20
76.5067245119
 11
88.1678541885
 21
76.3067245119
  0
LINE
  8
0
 62
7
  6
CONTINUOUS
 10
88.2928280191
 20
76.5067245119
 11
88.2928280191
 21
76.3067245119
  0
LINE
  8
0
 62
7
  6
CONTINUOUS
 10
88.3414563168
 20
76.5067245119
 11
88.3414563168
 21
76.3067245119
  0
LINE
  8
0
 62
7
  6
CONTINUOUS
 10
116.4420756437
 20
76.3067245119
 11
112.2443028625
 21
76.3067245119
  0
LINE
  8
0
 62
7
  6
CONTINUOUS
 10
107.951373688
 20
76.3067245119
 11
106.2676223833
 21
76.3067245119
  0
LINE
  8
0
 62
7
  6
CONTINUOUS
 10
106.079600847
 20
76.3067245119
 11
104.4872739874
 21
76.3067245119
  0
LINE
  8
0
 62
7
  6
CONTINUOUS
 10
104.2958784787
 20
76.3067245119
 11
102.3039023807
 21
76.3067245119
  0
LINE
  8
0
 62
7
  6
CONTINUOUS
 10
95.7939326939
 20
76.3067245119
 11
94.1759696916
 21
76.3067245119
  0
LINE
  8
0
 62
7
  6
CONTINUOUS
 10
94.0413051604
 20
76.3067245119
 11
92.4445570527
 21
76.3067245119
  0
LINE
  8
0
 62
7
  6
CONTINUOUS
 10
92.2075748084
 20
76.3067245119
 11
90.6970022486
 21
76.3067245119
  0
LINE
  8
0
 62
7
  6
CONTINUOUS
 10
89.4872239155
 20
76.3067245119
 11
86.3288307544
 21
76.3067245119
  0
LINE
  8
AXES
 62
7
  6
CONTINUOUS
 10
82.8202386117
 20
76.5067245119
 11
118.1602386117
 21
76.5067245119
  0
POLYLINE
  8
0
 62
7
  6
CONTINUOUS
 66
1
 70
0
  0
VERTEX
  8
0
 62
7
  6
CONTINUOUS
 10
82.1708874782
 20
81.1067245119
  0
VERTEX
  8
0
 62
7
  6
CONTINUOUS
 10
81.6479696985
 20
81.2543413846
  0
VERTEX
  8
0
 62
7
  6
CONTINUOUS
 10
81.2710499122
 20
81.6704993925
  0
VERTEX
  8
0
 62
7
  6
CONTINUOUS
 10
81.170890379
 20
82.1067245119
  0
SEQEND
  0
LINE
  8
0
 62
7
  6
CONTINUOUS
 10
88.4819898839
 20
76.5067245119
 11
88.4819898839
 21
76.3067245119
  0
LINE
  8
0
 62
7
  6
CONTINUOUS
 10
89.4872239155
 20
76.5067245119
 11
89.4872239155
 21
76.3067245119
  0
POLYLINE
  8
0
 62
9
  6
CONTINUOUS
 66
1
 70
0
  0
VERTEX
  8
0
 62
9
  6
CONTINUOUS
 10
93.930719146
 20
96.9067245119
  0
VERTEX
  8
0
 62
9
  6
CONTINUOUS
 10
93.7369437337
 20
96.7157400573
  0
VERTEX
  8
0
 62
9
  6
CONTINUOUS
 10
93.6640106429
 20
96.4945079529
  0
VERTEX
  8
0
 62
9
  6
CONTINUOUS
 10
93.6010498421
 20
95.9067245119
  0
SEQEND
  0
POLYLINE
  8
0
 62
9
  6
CONTINUOUS
 66
1
 70
0
  0
VERTEX
  8
0
 62
9
  6
CONTINUOUS
 10
93.4403931974
 20
96.9067245119
  0
VERTEX
  8
0
 62
9
  6
CONTINUOUS
 10
93.232133725
 20
96.7157415069
  0
VERTEX
  8
0
 62
9
  6
CONTINUOUS
 10
93.1537486246
 20
96.4945097649
  0
VERTEX
  8
0
 62
9
  6
CONTINUOUS
 10
93.0860810199
 20
95.9067245119
  0
SEQEND
  0
POLYLINE
  8
0
 62
7
  6
CONTINUOUS
 66
1
 70
0
  0
VERTEX
  8
0
 62
7
  6
CONTINUOUS
 10
118.8095897452
 20
81.1067245119
  0
VERTEX
  8
0
 62
7
  6
CONTINUOUS
 10
119.07092937
 20
81.1414776003
  0
VERTEX
  8
0
 62
7
  6
CONTINUOUS
 10
119.526761228
 20
81.4098277733
  0
VERTEX
  8
0
 62
7
  6
CONTINUOUS
 10
119.6912874744
 20
81.6349098086
  0
VERTEX
  8
0
 62
7
  6
CONTINUOUS
 10
119.8095894887
 20
82.1067245119
  0
SEQEND
  0
LINE
  8
AXES
 62
9
  6
CONTINUOUS
 10
81.8202386117
 20
77.5067245119
 11
119.1602386117
 21
77.5067245119
  0
POLYLINE
  8
0
 62
9
  6
CONTINUOUS
 66
1
 70
0
  0
VERTEX
  8
0
 62
9
  6
CONTINUOUS
 10
93.4403931974
 20
81.1067245119
  0
VERTEX
  8
0
 62
9
  6
CONTINUOUS
 10
93.2321325777
 20
81.297709871
  0
VERTEX
  8
0
 62
9
  6
CONTINUOUS
 10
93.1537478659
 20
81.5189422097
  0
VERTEX
  8
0
 62
9
  6
CONTINUOUS
 10
93.0860810212
 20
82.1067245119
  0
SEQEND
  0
POLYLINE
  8
0
 62
9
  6
CONTINUOUS
 66
1
 70
0
  0
VERTEX
  8
0
 62
9
  6
CONTINUOUS
 10
93.9307191461
 20
81.1067245119
  0
VERTEX
  8
0
 62
9
  6
CONTINUOUS
 10
93.7369443918
 20
81.297707517
  0
VERTEX
  8
0
 62
9
  6
CONTINUOUS
 10
93.6640110774
 20
81.5189392589
  0
VERTEX
  8
0
 62
9
  6
CONTINUOUS
 10
93.6010498429
 20
82.1067245119
  0
SEQEND
  0
LINE
  8
0
 62
7
  6
CONTINUOUS
 10
90.6970022486
 20
76.5067245119
 11
90.6970022486
 21
76.3067245119
  0
LINE
  8
0
 62
7
  6
CONTINUOUS
 10
90.8548715123
 20
76.5067245119
 11
90.8548715123
 21
76.3067245119
  0
LINE
  8
0
 62
7
  6
CONTINUOUS
 10
91.0594434617
 20
76.5067245119
 11
91.0594434617
 21
76.3067245119
  0
LINE
  8
0
 62
7
  6
CONTINUOUS
 10
91.719861996
 20
76.5067245119
 11
91.719861996
 21
76.3067245119
  0
LINE
  8
0
 62
7
  6
CONTINUOUS
 10
92.0608151151
 20
76.5067245119
 11
92.0608151151
 21
76.3067245119
  0
LINE
  8
0
 62
7
  6
CONTINUOUS
 10
92.2075748084
 20
76.5067245119
 11
92.2075748084
 21
76.3067245119
  0
LINE
  8
0
 62
7
  6
CONTINUOUS
 10
92.4445570527
 20
76.5067245119
 11
92.4445570527
 21
76.3067245119
  0
POLYLINE
  8
0
 62
9
  6
CONTINUOUS
 66
1
 70
0
  0
VERTEX
  8
0
 62
9
  6
CONTINUOUS
 10
99.1606732298
 20
96.9067245119
  0
VERTEX
  8
0
 62
9
  6
CONTINUOUS
 10
98.5826372403
 20
96.7157415064
  0
VERTEX
  8
0
 62
9
  6
CONTINUOUS
 10
98.3650749445
 20
96.4945097643
  0
VERTEX
  8
0
 62
9
  6
CONTINUOUS
 10
98.1772596662
 20
95.9067245119
  0
SEQEND
  0
LINE
  8
AXES
 62
9
  6
CONTINUOUS
 10
81.8202386117
 20
80.3067245119
 11
119.1602386117
 21
80.3067245119
  0
LINE
  8
0
 62
7
  6
CONTINUOUS
 10
92.802422603
 20
76.5067245119
 11
92.802422603
 21
76.3067245119
  0
LINE
  8
0
 62
7
  6
CONTINUOUS
 10
93.0242823978
 20
76.5067245119
 11
93.0242823978
 21
76.3067245119
  0
LINE
  8
0
 62
9
  6
CONTINUOUS
 10
93.0860810199
 20
82.1067245119
 11
93.0860810199
 21
95.9067245119
  0
LINE
  8
0
 62
7
  6
CONTINUOUS
 10
93.5538556037
 20
76.5067245119
 11
93.5538556037
 21
76.3067245119
  0
LINE
  8
0
 62
9
  6
CONTINUOUS
 10
93.6010498429
 20
82.1067245119
 11
93.6010498429
 21
95.9067245119
  0
LINE
  8
0
 62
7
  6
CONTINUOUS
 10
93.9236222105
 20
76.5067245119
 11
93.9236222105
 21
76.3067245119
  0
LINE
  8
0
 62
7
  6
CONTINUOUS
 10
94.0413051604
 20
76.5067245119
 11
94.0413051604
 21
76.3067245119
  0
LINE
  8
0
 62
7
  6
CONTINUOUS
 10
94.1759696916
 20
76.5067245119
 11
94.1759696916
 21
76.3067245119
  0
LINE
  8
0
 62
7
  6
CONTINUOUS
 10
94.1956475209
 20
76.5067245119
 11
94.1956475209
 21
76.3067245119
  0
LINE
  8
0
 62
7
  6
CONTINUOUS
 10
94.2690898765
 20
76.5067245119
 11
94.2690898765
 21
76.3067245119
  0
LINE
  8
0
 62
7
  6
CONTINUOUS
 10
94.4207769466
 20
76.5067245119
 11
94.4207769466
 21
76.3067245119
  0
POLYLINE
  8
0
 62
9
  6
CONTINUOUS
 66
1
 70
0
  0
VERTEX
  8
0
 62
9
  6
CONTINUOUS
 10
99.6402386117
 20
96.9067245119
  0
VERTEX
  8
0
 62
9
  6
CONTINUOUS
 10
99.0637040736
 20
96.7168485753
  0
VERTEX
  8
0
 62
9
  6
CONTINUOUS
 10
98.8454669013
 20
96.4956648996
  0
VERTEX
  8
0
 62
9
  6
CONTINUOUS
 10
98.6568250481
 20
95.9067245119
  0
SEQEND
  0
LINE
  8
0
 62
7
  6
CONTINUOUS
 10
127.7070255043
 20
81.1067245119
 11
73.273585343
 21
81.1067245119
  0
LINE
  8
0
 62
9
  6
CONTINUOUS
 10
72.2733643431
 20
82.1067245119
 11
128.7071117991
 21
82.1067245119
  0
POLYLINE
  8
0
 62
9
  6
CONTINUOUS
 66
1
 70
0
  0
VERTEX
  8
0
 62
9
  6
CONTINUOUS
 10
99.1606732298
 20
81.1067245119
  0
VERTEX
  8
0
 62
9
  6
CONTINUOUS
 10
98.5826340548
 20
81.297709871
  0
VERTEX
  8
0
 62
9
  6
CONTINUOUS
 10
98.3650728367
 20
81.5189422097
  0
VERTEX
  8
0
 62
9
  6
CONTINUOUS
 10
98.1772596664
 20
82.1067245119
  0
SEQEND
  0
POLYLINE
  8
0
 62
9
  6
CONTINUOUS
 66
1
 70
0
  0
VERTEX
  8
0
 62
9
  6
CONTINUOUS
 10
99.6402386117
 20
81.1067245119
  0
VERTEX
  8
0
 62
9
  6
CONTINUOUS
 10
99.0622026221
 20
81.2977075176
  0
VERTEX
  8
0
 62
9
  6
CONTINUOUS
 10
98.8446403262
 20
81.5189392596
  0
VERTEX
  8
0
 62
9
  6
CONTINUOUS
 10
98.6568250481
 20
82.1067245119
  0
SEQEND
  0
LINE
  8
0
 62
7
  6
CONTINUOUS
 10
94.6408702642
 20
76.5067245119
 11
94.6408702642
 21
76.3067245119
  0
LINE
  8
0
 62
7
  6
CONTINUOUS
 10
94.8902470244
 20
76.5067245119
 11
94.8902470244
 21
76.3067245119
  0
LINE
  8
0
 62
7
  6
CONTINUOUS
 10
95.1297853176
 20
76.5067245119
 11
95.1297853176
 21
76.3067245119
  0
LINE
  8
0
 62
7
  6
CONTINUOUS
 10
95.2910780009
 20
76.5067245119
 11
95.2910780009
 21
76.3067245119
  0
LINE
  8
0
 62
7
  6
CONTINUOUS
 10
95.4278896005
 20
76.5067245119
 11
95.4278896005
 21
76.3067245119
  0
LINE
  8
0
 62
7
  6
CONTINUOUS
 10
95.5109376103
 20
76.5067245119
 11
95.5109376103
 21
76.3067245119
  0
LINE
  8
0
 62
7
  6
CONTINUOUS
 10
95.6232681262
 20
76.5067245119
 11
95.6232681262
 21
76.3067245119
  0
LINE
  8
0
 62
7
  6
CONTINUOUS
 10
95.7550436177
 20
76.5067245119
 11
95.7550436177
 21
76.3067245119
  0
LINE
  8
0
 62
7
  6
CONTINUOUS
 10
95.789130335
 20
76.5067245119
 11
95.789130335
 21
76.3067245119
  0
LINE
  8
0
 62
7
  6
CONTINUOUS
 10
95.7939326939
 20
76.5067245119
 11
95.7939326939
 21
76.3067245119
  0
LINE
  8
0
 62
9
  6
CONTINUOUS
 10
98.1772596662
 20
82.1067245119
 11
98.1772596662
 21
95.9067245119
  0
LINE
  8
0
 62
9
  6
CONTINUOUS
 10
98.6568250481
 20
82.1067245119
 11
98.6568250481
 21
95.9067245119
  0
POLYLINE
  8
0
 62
9
  6
CONTINUOUS
 66
1
 70
0
  0
VERTEX
  8
0
 62
9
  6
CONTINUOUS
 10
99.6402386117
 20
81.1067245119
  0
VERTEX
  8
0
 62
9
  6
CONTINUOUS
 10
99.6221178952
 20
81.2966004485
  0
VERTEX
  8
0
 62
9
  6
CONTINUOUS
 10
99.6152586115
 20
81.5177841242
  0
VERTEX
  8
0
 62
9
  6
CONTINUOUS
 10
99.6093295208
 20
82.1067245119
  0
SEQEND
  0
LINE
  8
0
 62
9
  6
CONTINUOUS
 10
99.6093295208
 20
82.1067245119
 11
99.6093295208
 21
95.9067245119
  0
LINE
  8
AXES
 62
2
  6
CENTER
 10
100.4902386117
 20
74.5067245119
 11
100.4902386117
 21
103.5067245119
  0
POLYLINE
  8
0
 62
9
  6
CONTINUOUS
 66
1
 70
0
  0
VERTEX
  8
0
 62
9
  6
CONTINUOUS
 10
99.6402386117
 20
96.9067245119
  0
VERTEX
  8
0
 62
9
  6
CONTINUOUS
 10
99.6220707039
 20
96.7157415063
  0
VERTEX
  8
0
 62
9
  6
CONTINUOUS
 10
99.6152326319
 20
96.4945097642
  0
VERTEX
  8
0
 62
9
  6
CONTINUOUS
 10
99.6093295208
 20
95.9067245119
  0
SEQEND
  0
POLYLINE
  8
0
 62
9
  6
CONTINUOUS
 66
1
 70
0
  0
VERTEX
  8
0
 62
9
  6
CONTINUOUS
 10
115.4685922258
 20
96.9067245119
  0
VERTEX
  8
0
 62
9
  6
CONTINUOUS
 10
115.0943191747
 20
96.7157415064
  0
VERTEX
  8
0
 62
9
  6
CONTINUOUS
 10
114.9534495652
 20
96.4945097643
  0
VERTEX
  8
0
 62
9
  6
CONTINUOUS
 10
114.8318408784
 20
95.9067245119
  0
SEQEND
  0
POLYLINE
  8
0
 62
9
  6
CONTINUOUS
 66
1
 70
0
  0
VERTEX
  8
0
 62
9
  6
CONTINUOUS
 10
85.5118849976
 20
81.1067245119
  0
VERTEX
  8
0
 62
9
  6
CONTINUOUS
 10
85.8861580488
 20
81.2977075175
  0
VERTEX
  8
0
 62
9
  6
CONTINUOUS
 10
86.0270276585
 20
81.5189392596
  0
VERTEX
  8
0
 62
9
  6
CONTINUOUS
 10
86.1486363451
 20
82.1067245119
  0
SEQEND
  0
POLYLINE
  8
0
 62
9
  6
CONTINUOUS
 66
1
 70
0
  0
VERTEX
  8
0
 62
9
  6
CONTINUOUS
 10
83.4731630315
 20
81.1067245119
  0
VERTEX
  8
0
 62
9
  6
CONTINUOUS
 10
83.8464639067
 20
81.2966004485
  0
VERTEX
  8
0
 62
9
  6
CONTINUOUS
 10
83.9877704929
 20
81.5177841242
  0
VERTEX
  8
0
 62
9
  6
CONTINUOUS
 10
84.109914379
 20
82.1067245119
  0
SEQEND
  0
LINE
  8
DEFAULT_1
 62
2
  6
CENTER
 10
66.3193500236
 20
89.0067245119
 11
136.4515992039
 21
89.0067245119
  0
POLYLINE
  8
0
 62
9
  6
CONTINUOUS
 66
1
 70
0
  0
VERTEX
  8
0
 62
9
  6
CONTINUOUS
 10
83.4731630315
 20
96.9067245119
  0
VERTEX
  8
0
 62
9
  6
CONTINUOUS
 10
83.8474360829
 20
96.7157415063
  0
VERTEX
  8
0
 62
9
  6
CONTINUOUS
 10
83.9883056928
 20
96.4945097642
  0
VERTEX
  8
0
 62
9
  6
CONTINUOUS
 10
84.109914379
 20
95.9067245119
  0
SEQEND
  0
POLYLINE
  8
0
 62
9
  6
CONTINUOUS
 66
1
 70
0
  0
VERTEX
  8
0
 62
9
  6
CONTINUOUS
 10
115.4685922258
 20
81.1067245119
  0
VERTEX
  8
0
 62
9
  6
CONTINUOUS
 10
115.0943171123
 20
81.297709871
  0
VERTEX
  8
0
 62
9
  6
CONTINUOUS
 10
114.9534482005
 20
81.5189422097
  0
VERTEX
  8
0
 62
9
  6
CONTINUOUS
 10
114.8318408795
 20
82.1067245119
  0
SEQEND
  0
POLYLINE
  8
0
 62
9
  6
CONTINUOUS
 66
1
 70
0
  0
VERTEX
  8
0
 62
9
  6
CONTINUOUS
 10
101.3402386117
 20
96.9067245119
  0
VERTEX
  8
0
 62
9
  6
CONTINUOUS
 10
101.3583593283
 20
96.7168485753
  0
VERTEX
  8
0
 62
9
  6
CONTINUOUS
 10
101.3652186119
 20
96.4956648996
  0
VERTEX
  8
0
 62
9
  6
CONTINUOUS
 10
101.3711477026
 20
95.9067245119
  0
SEQEND
  0
LINE
  8
0
 62
9
  6
CONTINUOUS
 10
101.3711477026
 20
82.1067245119
 11
101.3711477026
 21
95.9067245119
  0
LINE
  8
0
 62
7
  6
CONTINUOUS
 10
102.3039023807
 20
76.5067245119
 11
102.3039023807
 21
76.3067245119
  0
LINE
  8
0
 62
9
  6
CONTINUOUS
 10
102.3236521754
 20
82.1067245119
 11
102.3236521754
 21
95.9067245119
  0
LINE
  8
0
 62
7
  6
CONTINUOUS
 10
102.3636822047
 20
76.5067245119
 11
102.3636822047
 21
76.3067245119
  0
LINE
  8
0
 62
7
  6
CONTINUOUS
 10
102.6177464712
 20
76.5067245119
 11
102.6177464712
 21
76.3067245119
  0
LINE
  8
0
 62
7
  6
CONTINUOUS
 10
102.6551088579
 20
76.5067245119
 11
102.6551088579
 21
76.3067245119
  0
LINE
  8
0
 62
9
  6
CONTINUOUS
 10
102.8032175573
 20
82.1067245119
 11
102.8032175573
 21
95.9067245119
  0
POLYLINE
  8
0
 62
9
  6
CONTINUOUS
 66
1
 70
0
  0
VERTEX
  8
0
 62
9
  6
CONTINUOUS
 10
101.3402386117
 20
81.1067245119
  0
VERTEX
  8
0
 62
9
  6
CONTINUOUS
 10
101.3584065195
 20
81.2977075176
  0
VERTEX
  8
0
 62
9
  6
CONTINUOUS
 10
101.3652445915
 20
81.5189392596
  0
VERTEX
  8
0
 62
9
  6
CONTINUOUS
 10
101.3711477026
 20
82.1067245119
  0
SEQEND
  0
POLYLINE
  8
0
 62
9
  6
CONTINUOUS
 66
1
 70
0
  0
VERTEX
  8
0
 62
9
  6
CONTINUOUS
 10
117.5073141919
 20
96.9067245119
  0
VERTEX
  8
0
 62
9
  6
CONTINUOUS
 10
117.1340133167
 20
96.7168485753
  0
VERTEX
  8
0
 62
9
  6
CONTINUOUS
 10
116.9927067305
 20
96.4956648996
  0
VERTEX
  8
0
 62
9
  6
CONTINUOUS
 10
116.8705628445
 20
95.9067245119
  0
SEQEND
  0
POLYLINE
  8
0
 62
9
  6
CONTINUOUS
 66
1
 70
0
  0
VERTEX
  8
0
 62
9
  6
CONTINUOUS
 10
85.5118849976
 20
96.9067245119
  0
VERTEX
  8
0
 62
9
  6
CONTINUOUS
 10
85.8861593186
 20
96.7157400573
  0
VERTEX
  8
0
 62
9
  6
CONTINUOUS
 10
86.0270284965
 20
96.4945079529
  0
VERTEX
  8
0
 62
9
  6
CONTINUOUS
 10
86.1486363444
 20
95.9067245119
  0
SEQEND
  0
POLYLINE
  8
0
 62
9
  6
CONTINUOUS
 66
1
 70
0
  0
VERTEX
  8
0
 62
9
  6
CONTINUOUS
 10
117.5073141919
 20
81.1067245119
  0
VERTEX
  8
0
 62
9
  6
CONTINUOUS
 10
117.1330411405
 20
81.2977075176
  0
VERTEX
  8
0
 62
9
  6
CONTINUOUS
 10
116.9921715306
 20
81.5189392596
  0
VERTEX
  8
0
 62
9
  6
CONTINUOUS
 10
116.8705628445
 20
82.1067245119
  0
SEQEND
  0
LINE
  8
0
 62
7
  6
CONTINUOUS
 10
104.2958784787
 20
76.5067245119
 11
104.2958784787
 21
76.3067245119
  0
LINE
  8
0
 62
7
  6
CONTINUOUS
 10
104.4872739874
 20
76.5067245119
 11
104.4872739874
 21
76.3067245119
  0
LINE
  8
0
 62
7
  6
CONTINUOUS
 10
104.5112696874
 20
76.5067245119
 11
104.5112696874
 21
76.3067245119
  0
LINE
  8
0
 62
7
  6
CONTINUOUS
 10
104.6260184529
 20
76.5067245119
 11
104.6260184529
 21
76.3067245119
  0
LINE
  8
0
 62
7
  6
CONTINUOUS
 10
104.7295213992
 20
76.5067245119
 11
104.7295213992
 21
76.3067245119
  0
LINE
  8
0
 62
7
  6
CONTINUOUS
 10
104.8075228357
 20
76.5067245119
 11
104.8075228357
 21
76.3067245119
  0
LINE
  8
0
 62
7
  6
CONTINUOUS
 10
104.9380277315
 20
76.5067245119
 11
104.9380277315
 21
76.3067245119
  0
LINE
  8
0
 62
7
  6
CONTINUOUS
 10
105.0955345767
 20
76.5067245119
 11
105.0955345767
 21
76.3067245119
  0
LINE
  8
0
 62
7
  6
CONTINUOUS
 10
105.3325450465
 20
76.5067245119
 11
105.3325450465
 21
76.3067245119
  0
LINE
  8
0
 62
7
  6
CONTINUOUS
 10
105.5838094227
 20
76.5067245119
 11
105.5838094227
 21
76.3067245119
  0
LINE
  8
0
 62
7
  6
CONTINUOUS
 10
105.8095740733
 20
76.5067245119
 11
105.8095740733
 21
76.3067245119
  0
LINE
  8
0
 62
7
  6
CONTINUOUS
 10
105.9700871858
 20
76.5067245119
 11
105.9700871858
 21
76.3067245119
  0
LINE
  8
0
 62
7
  6
CONTINUOUS
 10
106.051094854
 20
76.5067245119
 11
106.051094854
 21
76.3067245119
  0
LINE
  8
0
 62
7
  6
CONTINUOUS
 10
106.079600847
 20
76.5067245119
 11
106.079600847
 21
76.3067245119
  0
LINE
  8
0
 62
7
  6
CONTINUOUS
 10
106.2676223833
 20
76.5067245119
 11
106.2676223833
 21
76.3067245119
  0
LINE
  8
0
 62
7
  6
CONTINUOUS
 10
106.2825023926
 20
76.5067245119
 11
106.2825023926
 21
76.3067245119
  0
LINE
  8
0
 62
7
  6
CONTINUOUS
 10
106.4721703132
 20
76.5067245119
 11
106.4721703132
 21
76.3067245119
  0
LINE
  8
0
 62
7
  6
CONTINUOUS
 10
106.4952252773
 20
76.5067245119
 11
106.4952252773
 21
76.3067245119
  0
LINE
  8
0
 62
7
  6
CONTINUOUS
 10
106.5289641747
 20
76.5067245119
 11
106.5289641747
 21
76.3067245119
  0
LINE
  8
0
 62
7
  6
CONTINUOUS
 10
106.5411180208
 20
76.5067245119
 11
106.5411180208
 21
76.3067245119
  0
LINE
  8
0
 62
7
  6
CONTINUOUS
 10
106.6115356658
 20
76.5067245119
 11
106.6115356658
 21
76.3067245119
  0
LINE
  8
0
 62
7
  6
CONTINUOUS
 10
106.7754259814
 20
76.5067245119
 11
106.7754259814
 21
76.3067245119
  0
LINE
  8
0
 62
7
  6
CONTINUOUS
 10
106.9596450734
 20
76.5067245119
 11
106.9596450734
 21
76.3067245119
  0
LINE
  8
0
 62
7
  6
CONTINUOUS
 10
107.2021262278
 20
76.5067245119
 11
107.2021262278
 21
76.3067245119
  0
LINE
  8
0
 62
9
  6
CONTINUOUS
 10
107.3794273805
 20
82.1067245119
 11
107.3794273805
 21
95.9067245119
  0
LINE
  8
0
 62
7
  6
CONTINUOUS
 10
107.4094002962
 20
76.5067245119
 11
107.4094002962
 21
76.3067245119
  0
LINE
  8
0
 62
7
  6
CONTINUOUS
 10
107.5990699533
 20
76.5067245119
 11
107.5990699533
 21
76.3067245119
  0
LINE
  8
0
 62
7
  6
CONTINUOUS
 10
107.7711334627
 20
76.5067245119
 11
107.7711334627
 21
76.3067245119
  0
LINE
  8
0
 62
9
  6
CONTINUOUS
 10
107.8943962036
 20
82.1067245119
 11
107.8943962036
 21
95.9067245119
  0
LINE
  8
0
 62
7
  6
CONTINUOUS
 10
107.907989886
 20
76.5067245119
 11
107.907989886
 21
76.3067245119
  0
LINE
  8
0
 62
7
  6
CONTINUOUS
 10
107.951373688
 20
76.5067245119
 11
107.951373688
 21
76.3067245119
  0
POLYLINE
  8
0
 62
9
  6
CONTINUOUS
 66
1
 70
0
  0
VERTEX
  8
0
 62
9
  6
CONTINUOUS
 10
101.8198039936
 20
81.1067245119
  0
VERTEX
  8
0
 62
9
  6
CONTINUOUS
 10
102.3978399832
 20
81.2977075175
  0
VERTEX
  8
0
 62
9
  6
CONTINUOUS
 10
102.615402279
 20
81.5189392596
  0
VERTEX
  8
0
 62
9
  6
CONTINUOUS
 10
102.8032175573
 20
82.1067245119
  0
SEQEND
  0
POLYLINE
  8
0
 62
9
  6
CONTINUOUS
 66
1
 70
0
  0
VERTEX
  8
0
 62
9
  6
CONTINUOUS
 10
101.3402386117
 20
81.1067245119
  0
VERTEX
  8
0
 62
9
  6
CONTINUOUS
 10
101.9167731498
 20
81.2966004485
  0
VERTEX
  8
0
 62
9
  6
CONTINUOUS
 10
102.1350103221
 20
81.5177841242
  0
VERTEX
  8
0
 62
9
  6
CONTINUOUS
 10
102.3236521754
 20
82.1067245119
  0
SEQEND
  0
LINE
  8
0
 62
9
  6
CONTINUOUS
 10
72.273364337
 20
95.9067245119
 11
128.7071128803
 21
95.9067245119
  0
LINE
  8
0
 62
7
  6
CONTINUOUS
 10
73.273364337
 20
96.9067245119
 11
127.7071128865
 21
96.9067245119
  0
POLYLINE
  8
0
 62
9
  6
CONTINUOUS
 66
1
 70
0
  0
VERTEX
  8
0
 62
9
  6
CONTINUOUS
 10
101.3402386117
 20
96.9067245119
  0
VERTEX
  8
0
 62
9
  6
CONTINUOUS
 10
101.9182746013
 20
96.7157415063
  0
VERTEX
  8
0
 62
9
  6
CONTINUOUS
 10
102.1358368972
 20
96.4945097642
  0
VERTEX
  8
0
 62
9
  6
CONTINUOUS
 10
102.3236521754
 20
95.9067245119
  0
SEQEND
  0
POLYLINE
  8
0
 62
9
  6
CONTINUOUS
 66
1
 70
0
  0
VERTEX
  8
0
 62
9
  6
CONTINUOUS
 10
101.8198039936
 20
96.9067245119
  0
VERTEX
  8
0
 62
9
  6
CONTINUOUS
 10
102.3978419445
 20
96.7157400573
  0
VERTEX
  8
0
 62
9
  6
CONTINUOUS
 10
102.6154035732
 20
96.4945079529
  0
VERTEX
  8
0
 62
9
  6
CONTINUOUS
 10
102.8032175571
 20
95.9067245119
  0
SEQEND
  0
POLYLINE
  8
0
 62
9
  6
CONTINUOUS
 66
1
 70
0
  0
VERTEX
  8
0
 62
9
  6
CONTINUOUS
 10
107.0497580775
 20
81.1067245119
  0
VERTEX
  8
0
 62
9
  6
CONTINUOUS
 10
107.2435339004
 20
81.297709871
  0
VERTEX
  8
0
 62
9
  6
CONTINUOUS
 10
107.3164668536
 20
81.5189422097
  0
VERTEX
  8
0
 62
9
  6
CONTINUOUS
 10
107.3794273819
 20
82.1067245119
  0
SEQEND
  0
POLYLINE
  8
0
 62
9
  6
CONTINUOUS
 66
1
 70
0
  0
VERTEX
  8
0
 62
9
  6
CONTINUOUS
 10
107.5400840261
 20
81.1067245119
  0
VERTEX
  8
0
 62
9
  6
CONTINUOUS
 10
107.7483434984
 20
81.297707517
  0
VERTEX
  8
0
 62
9
  6
CONTINUOUS
 10
107.8267285988
 20
81.5189392589
  0
VERTEX
  8
0
 62
9
  6
CONTINUOUS
 10
107.8943962036
 20
82.1067245119
  0
SEQEND
  0
POLYLINE
  8
0
 62
7
  6
CONTINUOUS
 66
1
 70
0
  0
VERTEX
  8
0
 62
7
  6
CONTINUOUS
 10
82.1708874782
 20
96.9067245119
  0
VERTEX
  8
0
 62
7
  6
CONTINUOUS
 10
81.9095478534
 20
96.8719714236
  0
VERTEX
  8
0
 62
7
  6
CONTINUOUS
 10
81.4537159955
 20
96.6036212506
  0
VERTEX
  8
0
 62
7
  6
CONTINUOUS
 10
81.289189749
 20
96.3785392153
  0
VERTEX
  8
0
 62
7
  6
CONTINUOUS
 10
81.1708877347
 20
95.9067245119
  0
SEQEND
  0
LINE
  8
AXES
 62
9
  6
CONTINUOUS
 10
81.8202386117
 20
97.7067245119
 11
119.1602386117
 21
97.7067245119
  0
POLYLINE
  8
0
 62
9
  6
CONTINUOUS
 66
1
 70
0
  0
VERTEX
  8
0
 62
9
  6
CONTINUOUS
 10
107.0497580774
 20
96.9067245119
  0
VERTEX
  8
0
 62
9
  6
CONTINUOUS
 10
107.2435328317
 20
96.7157415069
  0
VERTEX
  8
0
 62
9
  6
CONTINUOUS
 10
107.316466146
 20
96.4945097649
  0
VERTEX
  8
0
 62
9
  6
CONTINUOUS
 10
107.3794273805
 20
95.9067245119
  0
SEQEND
  0
LINE
  8
0
 62
7
  6
CONTINUOUS
 10
112.2443028625
 20
76.5067245119
 11
112.2443028625
 21
76.3067245119
  0
LINE
  8
AXES
 62
9
  6
CONTINUOUS
 10
81.8202386117
 20
100.5067245119
 11
119.1602386117
 21
100.5067245119
  0
LINE
  8
AXES
 62
7
  6
CONTINUOUS
 10
118.1602386117
 20
101.5067245119
 11
82.8202386117
 21
101.5067245119
  0
POLYLINE
  8
0
 62
9
  6
CONTINUOUS
 66
1
 70
0
  0
VERTEX
  8
0
 62
9
  6
CONTINUOUS
 10
107.540084026
 20
96.9067245119
  0
VERTEX
  8
0
 62
9
  6
CONTINUOUS
 10
107.748344205
 20
96.7157400573
  0
VERTEX
  8
0
 62
9
  6
CONTINUOUS
 10
107.8267290648
 20
96.4945079529
  0
VERTEX
  8
0
 62
9
  6
CONTINUOUS
 10
107.8943962028
 20
95.9067245119
  0
SEQEND
  0
LINE
  8
0
 62
7
  6
CONTINUOUS
 10
113.8712846624
 20
76.5067245119
 11
113.8712846624
 21
76.3067245119
  0
LINE
  8
0
 62
7
  6
CONTINUOUS
 10
114.4528623061
 20
76.5067245119
 11
114.4528623061
 21
76.3067245119
  0
LINE
  8
0
 62
7
  6
CONTINUOUS
 10
114.5394069458
 20
76.5067245119
 11
114.5394069458
 21
76.3067245119
  0
LINE
  8
0
 62
9
  6
CONTINUOUS
 10
114.8318408784
 20
82.1067245119
 11
114.8318408784
 21
95.9067245119
  0
POLYLINE
  8
0
 62
7
  6
CONTINUOUS
 66
1
 70
0
  0
VERTEX
  8
0
 62
7
  6
CONTINUOUS
 10
118.8095897452
 20
96.9067245119
  0
VERTEX
  8
0
 62
7
  6
CONTINUOUS
 10
119.3325075249
 20
96.7591076392
  0
VERTEX
  8
0
 62
7
  6
CONTINUOUS
 10
119.7094273112
 20
96.3429496313
  0
VERTEX
  8
0
 62
7
  6
CONTINUOUS
 10
119.8095868444
 20
95.9067245119
  0
SEQEND
  0
LINE
  8
0
 62
7
  6
CONTINUOUS
 10
115.3992208168
 20
76.5067245119
 11
115.3992208168
 21
76.3067245119
  0
LINE
  8
0
 62
7
  6
CONTINUOUS
 10
115.5565365122
 20
76.5067245119
 11
115.5565365122
 21
76.3067245119
  0
LINE
  8
0
 62
7
  6
CONTINUOUS
 10
115.6090882028
 20
76.5067245119
 11
115.6090882028
 21
76.3067245119
  0
LINE
  8
0
 62
7
  6
CONTINUOUS
 10
115.837580739
 20
76.5067245119
 11
115.837580739
 21
76.3067245119
  0
LINE
  8
0
 62
7
  6
CONTINUOUS
 10
116.0411274466
 20
76.5067245119
 11
116.0411274466
 21
76.3067245119
  0
LINE
  8
0
 62
7
  6
CONTINUOUS
 10
116.2345520366
 20
76.5067245119
 11
116.2345520366
 21
76.3067245119
  0
LINE
  8
0
 62
7
  6
CONTINUOUS
 10
116.3484366363
 20
76.5067245119
 11
116.3484366363
 21
76.3067245119
  0
LINE
  8
0
 62
7
  6
CONTINUOUS
 10
116.4077296771
 20
76.5067245119
 11
116.4077296771
 21
76.3067245119
  0
LINE
  8
0
 62
7
  6
CONTINUOUS
 10
116.4420756437
 20
76.5067245119
 11
116.4420756437
 21
76.3067245119
  0
LINE
  8
0
 62
9
  6
CONTINUOUS
 10
116.8705628445
 20
82.1067245119
 11
116.8705628445
 21
95.9067245119
  0
POLYLINE
  8
0
 62
9
  6
CONTINUOUS
 66
1
 70
0
  0
VERTEX
  8
0
 62
9
  6
CONTINUOUS
 10
117.5073141919
 20
81.1067245119
  0
VERTEX
  8
0
 62
9
  6
CONTINUOUS
 10
117.8700925488
 20
81.2966004485
  0
VERTEX
  8
0
 62
9
  6
CONTINUOUS
 10
118.0074160177
 20
81.5177841242
  0
VERTEX
  8
0
 62
9
  6
CONTINUOUS
 10
118.1261169403
 20
82.1067245119
  0
SEQEND
  0
POLYLINE
  8
0
 62
9
  6
CONTINUOUS
 66
1
 70
0
  0
VERTEX
  8
0
 62
9
  6
CONTINUOUS
 10
118.8095897452
 20
81.1067245119
  0
VERTEX
  8
0
 62
9
  6
CONTINUOUS
 10
119.2011477244
 20
81.2977075176
  0
VERTEX
  8
0
 62
9
  6
CONTINUOUS
 10
119.3485230686
 20
81.5189392596
  0
VERTEX
  8
0
 62
9
  6
CONTINUOUS
 10
119.4757479683
 20
82.1067245119
  0
SEQEND
  0
POLYLINE
  8
0
 62
9
  6
CONTINUOUS
 66
1
 70
0
  0
VERTEX
  8
0
 62
9
  6
CONTINUOUS
 10
127.4119109844
 20
81.1067245119
  0
VERTEX
  8
0
 62
9
  6
CONTINUOUS
 10
127.9858403897
 20
81.2966004485
  0
VERTEX
  8
0
 62
9
  6
CONTINUOUS
 10
128.203091434
 20
81.5177841242
  0
VERTEX
  8
0
 62
9
  6
CONTINUOUS
 10
128.3908808889
 20
82.1067245119
  0
SEQEND
  0
POLYLINE
  8
0
 62
9
  6
CONTINUOUS
 66
1
 70
0
  0
VERTEX
  8
0
 62
9
  6
CONTINUOUS
 10
127.7071128865
 20
81.1067245119
  0
VERTEX
  8
0
 62
9
  6
CONTINUOUS
 10
128.2873355505
 20
81.2966004485
  0
VERTEX
  8
0
 62
9
  6
CONTINUOUS
 10
128.506968799
 20
81.5177841242
  0
VERTEX
  8
0
 62
9
  6
CONTINUOUS
 10
128.6968174056
 20
82.1067245119
  0
SEQEND
  0
POLYLINE
  8
0
 62
7
  6
CONTINUOUS
 66
1
 70
0
  0
VERTEX
  8
0
 62
7
  6
CONTINUOUS
 10
127.7071128865
 20
81.1067245119
  0
VERTEX
  8
0
 62
7
  6
CONTINUOUS
 10
128.2359555015
 20
81.2580046002
  0
VERTEX
  8
0
 62
7
  6
CONTINUOUS
 10
128.6067889034
 20
81.6701663089
  0
VERTEX
  8
0
 62
7
  6
CONTINUOUS
 10
128.7071117991
 20
82.1067245119
  0
SEQEND
  0
POLYLINE
  8
0
 62
7
  6
CONTINUOUS
 66
1
 70
0
  0
VERTEX
  8
0
 62
7
  6
CONTINUOUS
 10
127.7071128865
 20
96.9067245119
  0
VERTEX
  8
0
 62
7
  6
CONTINUOUS
 10
128.2475577293
 20
96.7481039577
  0
VERTEX
  8
0
 62
7
  6
CONTINUOUS
 10
128.6221241786
 20
96.3101527401
  0
VERTEX
  8
0
 62
7
  6
CONTINUOUS
 10
128.7071128803
 20
95.9067245119
  0
SEQEND
  0
POLYLINE
  8
0
 62
9
  6
CONTINUOUS
 66
1
 70
0
  0
VERTEX
  8
0
 62
9
  6
CONTINUOUS
 10
127.7071128865
 20
96.9067245119
  0
VERTEX
  8
0
 62
9
  6
CONTINUOUS
 10
128.2873355505
 20
96.7168485753
  0
VERTEX
  8
0
 62
9
  6
CONTINUOUS
 10
128.506968799
 20
96.4956648996
  0
SEQEND
  0
POLYLINE
  8
0
 62
9
  6
CONTINUOUS
 66
1
 70
0
  0
VERTEX
  8
0
 62
9
  6
CONTINUOUS
 10
127.4119109844
 20
96.9067245119
  0
VERTEX
  8
0
 62
9
  6
CONTINUOUS
 10
127.9873350567
 20
96.7157415063
  0
VERTEX
  8
0
 62
9
  6
CONTINUOUS
 10
128.2039142741
 20
96.4945097642
  0
VERTEX
  8
0
 62
9
  6
CONTINUOUS
 10
128.3908808889
 20
95.9067245119
  0
SEQEND
  0
POLYLINE
  8
0
 62
9
  6
CONTINUOUS
 66
1
 70
0
  0
VERTEX
  8
0
 62
9
  6
CONTINUOUS
 10
118.8095897452
 20
96.9067245119
  0
VERTEX
  8
0
 62
9
  6
CONTINUOUS
 10
119.2001306505
 20
96.7168485753
  0
VERTEX
  8
0
 62
9
  6
CONTINUOUS
 10
119.3479631518
 20
96.4956648996
  0
VERTEX
  8
0
 62
9
  6
CONTINUOUS
 10
119.4757479683
 20
95.9067245119
  0
SEQEND
  0
POLYLINE
  8
0
 62
9
  6
CONTINUOUS
 66
1
 70
0
  0
VERTEX
  8
0
 62
9
  6
CONTINUOUS
 10
117.5073141919
 20
96.9067245119
  0
VERTEX
  8
0
 62
9
  6
CONTINUOUS
 10
117.8710373215
 20
96.7157415063
  0
VERTEX
  8
0
 62
9
  6
CONTINUOUS
 10
118.0079361315
 20
96.4945097642
  0
VERTEX
  8
0
 62
9
  6
CONTINUOUS
 10
118.1261169403
 20
95.9067245119
  0
SEQEND
  0
LINE
  8
0
 62
9
  6
CONTINUOUS
 10
118.1261169403
 20
82.1067245119
 11
118.1261169403
 21
95.9067245119
  0
LINE
  8
AXES
 62
7
  6
CONTINUOUS
 10
119.1602386117
 20
100.5067245119
 11
119.1602386117
 21
97.7067245119
  0
LINE
  8
AXES
 62
7
  6
CONTINUOUS
 10
119.1602386117
 20
80.3067245119
 11
119.1602386117
 21
77.5067245119
  0
LINE
  8
0
 62
9
  6
CONTINUOUS
 10
119.4757479683
 20
82.1067245119
 11
119.4757479683
 21
95.9067245119
  0
LINE
  8
0
 62
7
  6
CONTINUOUS
 10
119.8095897452
 20
95.9067245119
 11
119.8095897452
 21
82.1067245119
  0
POLYLINE
  8
0
 62
9
  6
CONTINUOUS
 66
1
 70
0
  0
VERTEX
  8
0
 62
9
  6
CONTINUOUS
 10
124.7679730999
 20
96.9067245119
  0
VERTEX
  8
0
 62
9
  6
CONTINUOUS
 10
124.7725895074
 20
96.7157415064
  0
VERTEX
  8
0
 62
9
  6
CONTINUOUS
 10
124.77432704
 20
96.4945097643
  0
SEQEND
  0
LINE
  8
0
 62
9
  6
CONTINUOUS
 10
124.7758270008
 20
82.1067245119
 11
124.77432704
 21
96.4945097643
  0
POLYLINE
  8
0
 62
9
  6
CONTINUOUS
 66
1
 70
0
  0
VERTEX
  8
0
 62
9
  6
CONTINUOUS
 10
124.7679730999
 20
81.1067245119
  0
VERTEX
  8
0
 62
9
  6
CONTINUOUS
 10
124.7725895332
 20
81.297709871
  0
VERTEX
  8
0
 62
9
  6
CONTINUOUS
 10
124.774327057
 20
81.5189422097
  0
VERTEX
  8
0
 62
9
  6
CONTINUOUS
 10
124.7758270023
 20
82.1067245119
  0
SEQEND
  0
LINE
  8
0
 62
9
  6
CONTINUOUS
 10
127.4197648853
 20
82.1067245119
 11
127.4182583224
 21
96.4956648996
  0
POLYLINE
  8
0
 62
9
  6
CONTINUOUS
 66
1
 70
0
  0
VERTEX
  8
0
 62
9
  6
CONTINUOUS
 10
127.4119109844
 20
96.9067245119
  0
VERTEX
  8
0
 62
9
  6
CONTINUOUS
 10
127.4165154004
 20
96.7168485753
  0
VERTEX
  8
0
 62
9
  6
CONTINUOUS
 10
127.4182583224
 20
96.4956648996
  0
SEQEND
  0
LINE
  8
0
 62
9
  6
CONTINUOUS
 10
128.3908808889
 20
82.1067245119
 11
128.3908808889
 21
95.9067245119
  0
LINE
  8
0
 62
9
  6
CONTINUOUS
 10
128.6968174056
 20
82.1067245119
 11
128.6968174056
 21
95.9067245119
  0
LINE
  8
0
 62
7
  6
CONTINUOUS
 10
128.7071128865
 20
95.9067245119
 11
128.7071128865
 21
82.1067245119
  0
POLYLINE
  8
0
 62
9
  6
CONTINUOUS
 66
1
 70
0
  0
VERTEX
  8
0
 62
9
  6
CONTINUOUS
 10
127.4119109844
 20
81.1067245119
  0
VERTEX
  8
0
 62
9
  6
CONTINUOUS
 10
127.4165273916
 20
81.2977075176
  0
VERTEX
  8
0
 62
9
  6
CONTINUOUS
 10
127.4182649237
 20
81.5189392596
  0
VERTEX
  8
0
 62
9
  6
CONTINUOUS
 10
127.4197648853
 20
82.1067245119
  0
SEQEND
  0
LINE
  8
0
 62
9
  6
CONTINUOUS
 10
128.506968799
 20
96.4956648996
 11
128.6968174056
 21
95.9067245119
  0
ARC
  8
0
 62
7
  6
CONTINUOUS
 10
72.9556321335
 20
203.2415907923
 40
7.0
 50
9.248704776
 51
69.55
  0
ARC
  8
0
 62
7
  6
CONTINUOUS
 10
73.0826712595
 20
202.5211161069
 40
7.0
 50
310.45
 51
10.751295224
  0
ARC
  8
0
 62
7
  6
CONTINUOUS
 10
82.2795451506
 20
186.5916632568
 40
7.0
 50
49.248704776
 51
109.55
  0
ARC
  8
0
 62
7
  6
CONTINUOUS
 10
82.8399749679
 20
186.1214068037
 40
7.0
 50
350.45
 51
50.751295224
  0
ARC
  8
0
 62
7
  6
CONTINUOUS
 10
100.1244440274
 20
179.830374551
 40
7.0
 50
89.248704776
 51
149.55
  0
ARC
  8
0
 62
7
  6
CONTINUOUS
 10
77.1109191507
 20
193.2456954202
 40
1.0
 50
211.7712425666
 51
289.55
  0
ARC
  8
0
 62
7
  6
CONTINUOUS
 10
76.2609191507
 20
194.7179386067
 40
1.0
 50
130.45
 51
208.2287574334
  0
ARC
  8
0
 62
7
  6
CONTINUOUS
 10
91.8879173725
 20
181.6053301624
 40
1.0
 50
251.7712425666
 51
329.55
  0
ARC
  8
0
 62
7
  6
CONTINUOUS
 10
90.2904399172
 20
182.186764406
 40
1.0
 50
170.45
 51
248.2287574334
  0
ARC
  8
0
 62
7
  6
CONTINUOUS
 10
91.2933647207
 20
234.0629624227
 40
7.0
 50
289.248704776
 51
349.55
  0
ARC
  8
0
 62
7
  6
CONTINUOUS
 10
90.6058957774
 20
233.8127441904
 40
7.0
 50
230.45
 51
290.751295224
  0
ARC
  8
0
 62
7
  6
CONTINUOUS
 10
76.5154675007
 20
221.9894710203
 40
7.0
 50
329.248704776
 51
29.55
  0
ARC
  8
0
 62
7
  6
CONTINUOUS
 10
76.1496729164
 20
221.3558962151
 40
7.0
 50
270.45
 51
330.751295224
  0
ARC
  8
0
 62
7
  6
CONTINUOUS
 10
99.6402386117
 20
235.2121077595
 40
1.0
 50
91.7712425666
 51
169.55
  0
ARC
  8
0
 62
7
  6
CONTINUOUS
 10
82.1708874782
 20
228.2350345367
 40
1.0
 50
131.7712425666
 51
209.55
  0
ARC
  8
0
 62
7
  6
CONTINUOUS
 10
83.4731630315
 20
229.3277734731
 40
1.0
 50
50.45
 51
128.2287574334
  0
ARC
  8
0
 62
7
  6
CONTINUOUS
 10
73.273364337
 20
211.6612039072
 40
1.0
 50
171.7712425666
 51
249.55
  0
ARC
  8
0
 62
7
  6
CONTINUOUS
 10
73.568566239
 20
213.3353770873
 40
1.0
 50
90.45
 51
168.2287574334
  0
ARC
  8
0
 62
7
  6
CONTINUOUS
 10
100.8560331961
 20
179.830374551
 40
7.0
 50
30.45
 51
90.751295224
  0
ARC
  8
0
 62
7
  6
CONTINUOUS
 10
118.1405022555
 20
186.1214068037
 40
7.0
 50
129.248704776
 51
189.55
  0
ARC
  8
0
 62
7
  6
CONTINUOUS
 10
118.7009320729
 20
186.5916632568
 40
7.0
 50
70.45
 51
130.751295224
  0
ARC
  8
0
 62
7
  6
CONTINUOUS
 10
127.8978059639
 20
202.5211161069
 40
7.0
 50
169.248704776
 51
229.55
  0
ARC
  8
0
 62
7
  6
CONTINUOUS
 10
128.0248450899
 20
203.2415907923
 40
7.0
 50
110.45
 51
170.751295224
  0
ARC
  8
0
 62
7
  6
CONTINUOUS
 10
110.6900373063
 20
182.186764406
 40
1.0
 50
291.7712425666
 51
9.55
  0
ARC
  8
0
 62
7
  6
CONTINUOUS
 10
109.0925598509
 20
181.6053301624
 40
1.0
 50
210.45
 51
288.2287574334
  0
ARC
  8
0
 62
7
  6
CONTINUOUS
 10
124.7195580727
 20
194.7179386067
 40
1.0
 50
331.7712425666
 51
49.55
  0
ARC
  8
0
 62
7
  6
CONTINUOUS
 10
123.8695580727
 20
193.2456954202
 40
1.0
 50
250.45
 51
328.2287574334
  0
CIRCLE
  8
AXES
 62
7
  6
CONTINUOUS
 10
100.4902386117
 20
207.7252472621
 40
18.67
  0
ARC
  8
0
 62
7
  6
CONTINUOUS
 10
109.6871125028
 20
234.0629624227
 40
7.0
 50
190.45
 51
250.751295224
  0
ARC
  8
0
 62
7
  6
CONTINUOUS
 10
110.3745814461
 20
233.8127441904
 40
7.0
 50
249.248704776
 51
309.55
  0
ARC
  8
0
 62
7
  6
CONTINUOUS
 10
124.4650097227
 20
221.9894710203
 40
7.0
 50
150.45
 51
210.751295224
  0
ARC
  8
0
 62
7
  6
CONTINUOUS
 10
124.8308043071
 20
221.3558962151
 40
7.0
 50
209.248704776
 51
269.55
  0
CIRCLE
  8
DEFAULT_3
 62
2
  6
PHANTOM
 10
100.4902386117
 20
207.7252472621
 40
5.0
  0
CIRCLE
  8
0
 62
7
  6
CONTINUOUS
 10
100.4902386117
 20
229.7252472621
 40
1.2990381057
  0
ARC
  8
0
 62
7
  6
CONTINUOUS
 10
101.3402386117
 20
235.2121077595
 40
1.0
 50
10.45
 51
88.2287574334
  0
ARC
  8
0
 62
7
  6
CONTINUOUS
 10
118.8095897452
 20
228.2350345367
 40
1.0
 50
330.45
 51
48.2287574334
  0
ARC
  8
0
 62
7
  6
CONTINUOUS
 10
117.5073141919
 20
229.3277734731
 40
1.0
 50
51.7712425666
 51
129.55
  0
ARC
  8
0
 62
7
  6
CONTINUOUS
 10
127.7071128865
 20
211.6612039072
 40
1.0
 50
290.45
 51
8.2287574334
  0
ARC
  8
0
 62
7
  6
CONTINUOUS
 10
127.4119109844
 20
213.3353770873
 40
1.0
 50
11.7712425666
 51
89.55
  0
ARC
  8
AXES
 62
7
  6
CONTINUOUS
 10
118.1602386117
 20
100.5067245119
 40
1.0
 50
0.0
 51
90.0
  0
ARC
  8
AXES
 62
7
  6
CONTINUOUS
 10
82.8202386117
 20
100.5067245119
 40
1.0
 50
90.0
 51
180.0
  0
ARC
  8
AXES
 62
7
  6
CONTINUOUS
 10
118.1602386117
 20
77.5067245119
 40
1.0
 50
270.0
 51
360.0
  0
ARC
  8
AXES
 62
7
  6
CONTINUOUS
 10
82.8202386117
 20
77.5067245119
 40
1.0
 50
180.0
 51
270.0
  0
ARC
  8
AXES
 62
7
  6
CONTINUOUS
 10
119.9602386117
 20
97.7067245119
 40
0.8
 50
180.0
 51
270.0
  0
ARC
  8
AXES
 62
7
  6
CONTINUOUS
 10
81.0202386117
 20
97.7067245119
 40
0.8
 50
270.0
 51
360.0
  0
ARC
  8
AXES
 62
7
  6
CONTINUOUS
 10
119.9602386117
 20
80.3067245119
 40
0.8
 50
90.0
 51
180.0
  0
ARC
  8
AXES
 62
7
  6
CONTINUOUS
 10
81.0202386117
 20
80.3067245119
 40
0.8
 50
0.0
 51
90.0
  0
ENDSEC
  0
EOF
