  0
SECTION
  2
HEADER
  9
$EXTMAX
 10
420.0
 20
297.0
 30
0.0
  9
$EXTMIN
 10
0.0
 20
0.0
 30
0.0
  9
$LIMMIN
 10
0.0
 20
0.0
  9
$LIMMAX
 10
420.0
 20
297.0
  9
$VIEWCTR
 10
210.0
 20
148.5
  9
$VIEWSIZE
 40
297.0
  9
$CLAYER
  8
0
  9
$LTSCALE
 40
23.1
  9
$CELTYPE
  6
BYLAYER
  9
$DIMSCALE
 40
1.0
  9
$DIMASZ
 40
3.5
  9
$DIMEXO
 40
1.0
  9
$DIMDLI
 40
15.96
  9
$DIMEXE
 40
2.0
  9
$DIMCEN
 40
3.78
  9
$DIMLFAC
 40
1.0
  9
$DIMBLK
  1
_FILLED
  9
$DIMTXT
 40
3.5
  9
$PDMODE
 70
3
  9
$PDSIZE
 40
0.3125
  9
$TILEMODE
 70
1
  0
ENDSEC
  0
SECTION
  2
TABLES
  0
TABLE
  2
LTYPE
 70
6
  0
LTYPE
  2
BYBLOCK
 70
0
  3

 72
65
 73
0
 40
0.0
  0
LTYPE
  2
BYLAYER
 70
0
  3

 72
65
 73
0
 40
0.0
  0
LTYPE
  2
CONTINUOUS
 70
64
  3
Solid line
 72
65
 73
0
 40
0.0
  0
LTYPE
  2
CENTER
 70
64
  3
____ _ ____ _ ____ _ ____ _ ____ _ ____ _ ____
 72
65
 73
4
 40
0.6
 49
0.375
 49
-0.075
 49
0.075
 49
-0.075
  0
LTYPE
  2
HIDDEN
 70
64
  3
- - - - - - - - - - - - - - - - - - - -
 72
65
 73
2
 40
0.2
 49
0.1
 49
-0.1
  0
LTYPE
  2
PHANTOM
 70
64
  3
_____ _ _ _____ _ _ _____ _ _ _____
 72
65
 73
6
 40
0.8
 49
0.45
 49
-0.05
 49
0.1
 49
-0.05
 49
0.1
 49
-0.05
  0
LTYPE
  2
DOT
 70
64
  3
. . . . . . . . . . . . . . . . . . . .
 72
65
 73
2
 40
0.2
 49
0.1
 49
-0.1
  0
LTYPE
  2
DASHED
 70
64
  3
- - - - - - - - - - - - - - - - - - - -
 72
65
 73
2
 40
0.2
 49
0.1
 49
-0.1
  0
ENDTAB
  0
TABLE
  2
LAYER
 70
36
  0
LAYER
  2
0
 70
0
 62
7
  6
CONTINUOUS
  0
LAYER
  2
DEFAULT_1
 70
0
 62
7
  6
CENTER
  0
LAYER
  2
DEFAULT_2
 70
0
 62
8
  6
HIDDEN
  0
LAYER
  2
DEFAULT_3
 70
0
 62
7
  6
PHANTOM
  0
LAYER
  2
1_AXIS
 70
0
 62
7
  6
CONTINUOUS
  0
LAYER
  2
1_DATUM_PLANE
 70
0
 62
7
  6
CONTINUOUS
  0
LAYER
  2
1_DATUM_PLANES
 70
0
 62
7
  6
CONTINUOUS
  0
LAYER
  2
2_FEATURE
 70
0
 62
7
  6
CONTINUOUS
  0
LAYER
  2
3_CURVE
 70
0
 62
7
  6
CONTINUOUS
  0
LAYER
  2
4_QUILT
 70
0
 62
7
  6
CONTINUOUS
  0
LAYER
  2
4_SURFACE
 70
0
 62
7
  6
CONTINUOUS
  0
LAYER
  2
6_DIM
 70
0
 62
7
  6
CONTINUOUS
  0
LAYER
  2
6_NOTE
 70
0
 62
7
  6
CONTINUOUS
  0
LAYER
  2
AXES
 70
0
 62
7
  6
CONTINUOUS
  0
LAYER
  2
CSYS
 70
0
 62
7
  6
CONTINUOUS
  0
LAYER
  2
NOTES
 70
0
 62
7
  6
CONTINUOUS
  0
ENDTAB
  0
TABLE
  2
STYLE
 70
1
  0
STYLE
  2
STANDARD
 70
0
 40
0.0
 41
0.8
 50
0.0
 71
0
 42
0.2
  3
txt
  4

  0
STYLE
  2
TEXTSTYLE_1
 70
0
 40
0.0
 41
0.8
 50
0.0
 71
0
 42
0.2
  3
gdt
  4

  0
STYLE
  2
TEXTSTYLE_2
 70
0
 40
0.0
 41
0.6
 50
0.0
 71
0
 42
0.2
  3
txt
  4

  0
STYLE
  2
TEXTSTYLE_3
 70
0
 40
0.0
 41
1.0
 50
0.0
 71
0
 42
0.2
  3
ftb_____.ttf
  4

  0
STYLE
  2
TEXTSTYLE_4
 70
0
 40
0.0
 41
1.0
 50
0.0
 71
0
 42
0.2
  3
fti_____.ttf
  4

  0
STYLE
  2
TEXTSTYLE_5
 70
0
 40
0.0
 41
1.0
 50
0.0
 71
0
 42
0.2
  3
frutiger light.ttf
  4

  0
STYLE
  2
TEXTSTYLE_6
 70
0
 40
0.0
 41
0.7
 50
0.0
 71
0
 42
0.2
  3
txt
  4

  0
STYLE
  2
TEXTSTYLE_7
 70
0
 40
0.0
 41
0.8
 50
0.0
 71
0
 42
0.2
  3
txt
  4

  0
ENDTAB
  0
ENDSEC
  0
SECTION
  2
BLOCKS
  0
BLOCK
  8
0
 62
2
  6
CONTINUOUS
  2
SYMBOL_5_BL1
 70
64
 10
382.3920721743
 20
35.7654615278
  0
TEXT
  8
0
 62
7
  6
CONTINUOUS
 10
373.4503571828
 20
30.9093678571
  7
TEXTSTYLE_4
 40
1.0655737705
  1
The brand for plastic modular belts and chains
 41
1.0
 72
0
  0
LINE
  8
0
 62
7
  6
CONTINUOUS
 10
358.3701405634
 20
36.3903819718
 11
358.3701405634
 21
34.2592344308
  0
LINE
  8
0
 62
7
  6
CONTINUOUS
 10
358.6592030565
 20
31.2683031351
 11
358.6592030565
 21
31.3650941944
  0
LINE
  8
0
 62
7
  6
CONTINUOUS
 10
358.3701405634
 20
31.332830508
 11
358.4279530651
 21
31.1392483894
  0
LINE
  8
0
 62
7
  6
CONTINUOUS
 10
359.7635831863
 20
34.1772672177
 11
359.7635831863
 21
36.3903819718
  0
LINE
  8
0
 62
7
  6
CONTINUOUS
 10
360.6826405082
 20
32.3330049227
 11
360.6826405082
 21
30.81661148
  0
LINE
  8
0
 62
7
  6
CONTINUOUS
 10
360.9717030634
 20
30.81661148
 11
360.9717030634
 21
31.5586763581
  0
LINE
  8
0
 62
7
  6
CONTINUOUS
 10
360.9717030634
 20
31.6877311038
 11
360.9717030634
 21
32.3330049227
  0
LINE
  8
0
 62
7
  6
CONTINUOUS
 10
358.4279530651
 20
31.5264126717
 11
358.3701405634
 21
31.332830508
  0
LINE
  8
0
 62
7
  6
CONTINUOUS
 10
358.7748280496
 20
31.106984703
 11
358.6592030565
 21
31.2683031351
  0
LINE
  8
0
 62
7
  6
CONTINUOUS
 10
359.8732656185
 20
31.623203731
 11
359.9310780634
 21
31.5264126717
  0
LINE
  8
0
 62
7
  6
CONTINUOUS
 10
360.2201406185
 20
31.5264126717
 11
360.1623280082
 21
31.6554674174
  0
LINE
  8
0
 62
7
  6
CONTINUOUS
 10
361.648829088
 20
36.3903819718
 11
361.648829088
 21
34.5871032833
  0
LINE
  8
0
 62
7
  6
CONTINUOUS
 10
361.648829088
 20
33.2756278735
 11
361.648829088
 21
32.6198901686
  0
LINE
  8
0
 62
7
  6
CONTINUOUS
 10
362.0123280634
 20
31.4618852989
 11
362.0123280634
 21
30.81661148
  0
LINE
  8
0
 62
7
  6
CONTINUOUS
 10
362.3013904531
 20
30.81661148
 11
362.3013904531
 21
31.4618852989
  0
LINE
  8
0
 62
7
  6
CONTINUOUS
 10
358.6592030565
 20
31.3650941944
 11
358.7170155634
 21
31.4941489853
  0
LINE
  8
0
 62
7
  6
CONTINUOUS
 10
358.4279530651
 20
31.1392483894
 11
358.5435780634
 21
31.0101936212
  0
LINE
  8
0
 62
7
  6
CONTINUOUS
 10
361.9545154531
 20
31.5909400446
 11
362.0123280634
 21
31.4618852989
  0
LINE
  8
0
 62
7
  6
CONTINUOUS
 10
362.7638906736
 20
31.106984703
 11
362.8217029531
 21
30.9779299347
  0
LINE
  8
0
 62
7
  6
CONTINUOUS
 10
362.3013904531
 20
31.4618852989
 11
362.2435781736
 21
31.623203731
  0
LINE
  8
0
 62
7
  6
CONTINUOUS
 10
362.7638906736
 20
31.6554674174
 11
362.7638906736
 21
31.5909400446
  0
LINE
  8
0
 62
7
  6
CONTINUOUS
 10
362.7638906736
 20
31.2037757623
 11
362.7638906736
 21
31.106984703
  0
LINE
  8
0
 62
7
  6
CONTINUOUS
 10
363.0422717109
 20
32.6198901686
 11
363.0422717109
 21
36.3903819718
  0
LINE
  8
0
 62
7
  6
CONTINUOUS
 10
363.0529530634
 20
31.074720994
 11
363.0529530634
 21
31.1392483894
  0
LINE
  8
0
 62
7
  6
CONTINUOUS
 10
363.3701405634
 20
36.3903819718
 11
363.3701405634
 21
32.6198901686
  0
LINE
  8
0
 62
7
  6
CONTINUOUS
 10
360.1623280082
 20
31.0101936212
 11
360.2201406185
 21
31.1392483894
  0
LINE
  8
0
 62
7
  6
CONTINUOUS
 10
364.5560782839
 20
30.9134025506
 11
364.4982653428
 21
31.074720994
  0
LINE
  8
0
 62
7
  6
CONTINUOUS
 10
364.2092032839
 20
31.5909400446
 11
364.2092032839
 21
31.4941489853
  0
LINE
  8
0
 62
7
  6
CONTINUOUS
 10
364.2092032839
 20
31.3650941944
 11
364.2092032839
 21
31.1715120759
  0
LINE
  8
0
 62
7
  6
CONTINUOUS
 10
364.4982653428
 20
31.074720994
 11
364.4982653428
 21
31.5909400446
  0
LINE
  8
0
 62
7
  6
CONTINUOUS
 10
364.7635831863
 20
32.6198901686
 11
364.7635831863
 21
34.4231688571
  0
LINE
  8
0
 62
7
  6
CONTINUOUS
 10
364.7635831863
 20
35.7346442669
 11
364.7635831863
 21
36.3903819718
  0
LINE
  8
0
 62
7
  6
CONTINUOUS
 10
365.0763907839
 20
32.3330049227
 11
365.0763907839
 21
32.1716864905
  0
LINE
  8
0
 62
7
  6
CONTINUOUS
 10
365.0763907839
 20
31.8490495359
 11
365.0763907839
 21
30.81661148
  0
LINE
  8
0
 62
7
  6
CONTINUOUS
 10
365.3654528428
 20
30.81661148
 11
365.3654528428
 21
31.8490495359
  0
LINE
  8
0
 62
7
  6
CONTINUOUS
 10
365.3654528428
 20
32.1716864905
 11
365.3654528428
 21
32.3330049227
  0
LINE
  8
0
 62
7
  6
CONTINUOUS
 10
359.9310780634
 20
31.1392483894
 11
359.8732656185
 21
31.0424573076
  0
LINE
  8
0
 62
7
  6
CONTINUOUS
 10
362.2435781736
 20
31.623203731
 11
362.1857655634
 21
31.6877311038
  0
LINE
  8
0
 62
7
  6
CONTINUOUS
 10
363.1107656736
 20
31.0101936212
 11
363.0529530634
 21
31.074720994
  0
LINE
  8
0
 62
7
  6
CONTINUOUS
 10
364.2670155634
 20
30.8811388585
 11
364.3248278428
 21
30.81661148
  0
LINE
  8
0
 62
7
  6
CONTINUOUS
 10
364.2092032839
 20
30.9779299347
 11
364.2670155634
 21
30.8811388585
  0
LINE
  8
0
 62
7
  6
CONTINUOUS
 10
364.6138905634
 20
30.81661148
 11
364.5560782839
 21
30.9134025506
  0
LINE
  8
0
 62
7
  6
CONTINUOUS
 10
364.4982653428
 20
31.5909400446
 11
364.4404530634
 21
31.6877311038
  0
LINE
  8
0
 62
7
  6
CONTINUOUS
 10
365.8279530634
 20
31.8490495359
 11
365.8279530634
 21
30.81661148
  0
LINE
  8
0
 62
7
  6
CONTINUOUS
 10
366.1170157839
 20
30.81661148
 11
366.1170157839
 21
31.5586763581
  0
LINE
  8
0
 62
7
  6
CONTINUOUS
 10
366.1170157839
 20
31.6877311038
 11
366.1170157839
 21
31.8490495359
  0
LINE
  8
0
 62
7
  6
CONTINUOUS
 10
366.648829088
 20
34.8330049227
 11
366.648829088
 21
32.6198901686
  0
LINE
  8
0
 62
7
  6
CONTINUOUS
 10
358.5435780634
 20
31.6554674174
 11
358.4279530651
 21
31.5264126717
  0
LINE
  8
0
 62
7
  6
CONTINUOUS
 10
358.7170155634
 20
31.4941489853
 11
358.7748280496
 21
31.5586763581
  0
LINE
  8
0
 62
7
  6
CONTINUOUS
 10
358.5435780634
 20
31.0101936212
 11
358.6592030565
 21
30.945666237
  0
LINE
  8
0
 62
7
  6
CONTINUOUS
 10
358.9482655496
 20
31.0101936212
 11
358.7748280496
 21
31.106984703
  0
LINE
  8
0
 62
7
  6
CONTINUOUS
 10
364.1513903428
 20
31.6554674174
 11
364.2092032839
 21
31.5909400446
  0
LINE
  8
0
 62
7
  6
CONTINUOUS
 10
367.0998278428
 20
31.5909400446
 11
367.1576407839
 21
31.4296216124
  0
LINE
  8
0
 62
7
  6
CONTINUOUS
 10
367.4467028428
 20
31.4296216124
 11
367.3888905634
 21
31.5909400446
  0
LINE
  8
0
 62
7
  6
CONTINUOUS
 10
367.1576407839
 20
31.4296216124
 11
367.1576407839
 21
30.81661148
  0
LINE
  8
0
 62
7
  6
CONTINUOUS
 10
367.4467028428
 20
30.81661148
 11
367.4467028428
 21
31.4296216124
  0
LINE
  8
0
 62
7
  6
CONTINUOUS
 10
367.9092030634
 20
31.6554674174
 11
367.9092030634
 21
31.5909400446
  0
LINE
  8
0
 62
7
  6
CONTINUOUS
 10
368.0422717109
 20
32.6198901686
 11
368.0422717109
 21
34.7510377095
  0
LINE
  8
0
 62
7
  6
CONTINUOUS
 10
368.3701405634
 20
36.3903819718
 11
368.3701405634
 21
32.6198901686
  0
LINE
  8
0
 62
7
  6
CONTINUOUS
 10
363.0529530634
 20
31.1392483894
 11
363.1107656736
 21
31.2360394487
  0
LINE
  8
0
 62
7
  6
CONTINUOUS
 10
358.6592030565
 20
30.945666237
 11
358.8326405772
 21
30.8811388585
  0
LINE
  8
0
 62
7
  6
CONTINUOUS
 10
360.1623280082
 20
31.6554674174
 11
359.9888905082
 21
31.7522584767
  0
LINE
  8
0
 62
7
  6
CONTINUOUS
 10
362.8217029531
 20
30.9779299347
 11
362.9951404531
 21
30.8811388585
  0
LINE
  8
0
 62
7
  6
CONTINUOUS
 10
361.8388905634
 20
31.6554674174
 11
361.9545154531
 21
31.5909400446
  0
LINE
  8
0
 62
7
  6
CONTINUOUS
 10
362.1857655634
 20
31.6877311038
 11
362.0701406736
 21
31.7522584767
  0
LINE
  8
0
 62
7
  6
CONTINUOUS
 10
367.9092030634
 20
31.074720994
 11
368.0248282839
 21
30.945666237
  0
LINE
  8
0
 62
7
  6
CONTINUOUS
 10
368.2560780634
 20
31.0101936212
 11
368.1982657839
 21
31.074720994
  0
LINE
  8
0
 62
7
  6
CONTINUOUS
 10
367.9092030634
 20
31.5909400446
 11
368.0248282839
 21
31.4618852989
  0
LINE
  8
0
 62
7
  6
CONTINUOUS
 10
367.3888905634
 20
31.5909400446
 11
367.3310782839
 21
31.6877311038
  0
LINE
  8
0
 62
7
  6
CONTINUOUS
 10
369.7592026223
 20
31.0101936212
 11
369.7592026223
 21
31.074720994
  0
LINE
  8
0
 62
7
  6
CONTINUOUS
 10
369.7635831863
 20
32.6198901686
 11
369.7635831863
 21
36.3903819718
  0
LINE
  8
0
 62
7
  6
CONTINUOUS
 10
362.8217029531
 20
31.7199947902
 11
362.7638906736
 21
31.6554674174
  0
LINE
  8
0
 62
7
  6
CONTINUOUS
 10
359.6998280358
 20
31.6877311038
 11
359.8732656185
 21
31.623203731
  0
LINE
  8
0
 62
7
  6
CONTINUOUS
 10
364.4404530634
 20
31.6877311038
 11
364.3248278428
 21
31.7522584767
  0
LINE
  8
0
 62
7
  6
CONTINUOUS
 10
368.2560780634
 20
31.5264126717
 11
368.1982657839
 21
31.5909400446
  0
LINE
  8
0
 62
7
  6
CONTINUOUS
 10
369.4123282839
 20
31.1392483894
 11
369.4701405634
 21
31.074720994
  0
LINE
  8
0
 62
7
  6
CONTINUOUS
 10
369.7592026223
 20
31.074720994
 11
369.6435780634
 21
31.2037757623
  0
LINE
  8
0
 62
7
  6
CONTINUOUS
 10
369.4123282839
 20
31.6554674174
 11
369.4701405634
 21
31.5909400446
  0
LINE
  8
0
 62
7
  6
CONTINUOUS
 10
369.7592026223
 20
31.5909400446
 11
369.6435780634
 21
31.7199947902
  0
LINE
  8
0
 62
7
  6
CONTINUOUS
 10
363.0529530634
 20
31.5909400446
 11
363.1107656736
 21
31.6554674174
  0
LINE
  8
0
 62
7
  6
CONTINUOUS
 10
362.8795155634
 20
31.332830508
 11
362.7638906736
 21
31.2037757623
  0
LINE
  8
0
 62
7
  6
CONTINUOUS
 10
364.2092032839
 20
31.1715120759
 11
364.1513903428
 21
31.106984703
  0
LINE
  8
0
 62
7
  6
CONTINUOUS
 10
364.1513903428
 20
30.9134025506
 11
364.2092032839
 21
30.9779299347
  0
LINE
  8
0
 62
7
  6
CONTINUOUS
 10
362.9951404531
 20
30.8811388585
 11
363.1107656736
 21
30.8488751693
  0
LINE
  8
0
 62
7
  6
CONTINUOUS
 10
359.9888905082
 20
31.7522584767
 11
359.7576405634
 21
31.8167858495
  0
LINE
  8
0
 62
7
  6
CONTINUOUS
 10
363.3420154531
 20
30.945666237
 11
363.1107656736
 21
31.0101936212
  0
LINE
  8
0
 62
7
  6
CONTINUOUS
 10
362.0701406736
 20
31.7522584767
 11
361.8967031736
 21
31.8167858495
  0
LINE
  8
0
 62
7
  6
CONTINUOUS
 10
364.3248278428
 20
31.7522584767
 11
364.1513903428
 21
31.8167858495
  0
LINE
  8
0
 62
7
  6
CONTINUOUS
 10
366.9842032839
 20
31.6554674174
 11
367.0998278428
 21
31.5909400446
  0
LINE
  8
0
 62
7
  6
CONTINUOUS
 10
367.3310782839
 20
31.6877311038
 11
367.2154530634
 21
31.7522584767
  0
LINE
  8
0
 62
7
  6
CONTINUOUS
 10
358.8326405772
 20
30.8811388585
 11
359.0060780772
 21
30.8488751693
  0
LINE
  8
0
 62
7
  6
CONTINUOUS
 10
359.2951405909
 20
30.945666237
 11
358.9482655496
 21
31.0101936212
  0
LINE
  8
0
 62
7
  6
CONTINUOUS
 10
361.7232656736
 20
31.6877311038
 11
361.8388905634
 21
31.6554674174
  0
LINE
  8
0
 62
7
  6
CONTINUOUS
 10
364.0357657839
 20
31.6877311038
 11
364.1513903428
 21
31.6554674174
  0
LINE
  8
0
 62
7
  6
CONTINUOUS
 10
368.3717032839
 20
30.9779299347
 11
368.2560780634
 21
31.0101936212
  0
LINE
  8
0
 62
7
  6
CONTINUOUS
 10
366.8685780634
 20
31.6877311038
 11
366.9842032839
 21
31.6554674174
  0
LINE
  8
0
 62
7
  6
CONTINUOUS
 10
368.0248282839
 20
30.945666237
 11
368.1982657839
 21
30.8811388585
  0
LINE
  8
0
 62
7
  6
CONTINUOUS
 10
367.2154530634
 20
31.7522584767
 11
367.0420155634
 21
31.8167858495
  0
LINE
  8
0
 62
7
  6
CONTINUOUS
 10
368.4295155634
 20
31.4618852989
 11
368.2560780634
 21
31.5264126717
  0
LINE
  8
0
 62
7
  6
CONTINUOUS
 10
369.2388907839
 20
31.2037757623
 11
369.4123282839
 21
31.1392483894
  0
LINE
  8
0
 62
7
  6
CONTINUOUS
 10
369.6435780634
 20
31.7199947902
 11
369.4701405634
 21
31.7845221631
  0
LINE
  8
0
 62
7
  6
CONTINUOUS
 10
368.0248282839
 20
31.4618852989
 11
368.2560780634
 21
31.3650941944
  0
LINE
  8
0
 62
7
  6
CONTINUOUS
 10
369.6435780634
 20
31.2037757623
 11
369.4123282839
 21
31.3005668216
  0
LINE
  8
0
 62
7
  6
CONTINUOUS
 10
368.1982657839
 20
31.5909400446
 11
368.2560780634
 21
31.6554674174
  0
LINE
  8
0
 62
7
  6
CONTINUOUS
 10
358.6592030565
 20
31.7199947902
 11
358.5435780634
 21
31.6554674174
  0
LINE
  8
0
 62
7
  6
CONTINUOUS
 10
358.7748280496
 20
31.5586763581
 11
358.9482655496
 21
31.6554674174
  0
LINE
  8
0
 62
7
  6
CONTINUOUS
 10
361.0873281185
 20
31.7522584767
 11
360.9717030634
 21
31.6877311038
  0
LINE
  8
0
 62
7
  6
CONTINUOUS
 10
360.9717030634
 20
31.5586763581
 11
361.0873281185
 21
31.623203731
  0
LINE
  8
0
 62
7
  6
CONTINUOUS
 10
359.9888905082
 20
30.9134025506
 11
360.1623280082
 21
31.0101936212
  0
LINE
  8
0
 62
7
  6
CONTINUOUS
 10
359.0060780772
 20
30.8488751693
 11
359.3529530358
 21
30.81661148
  0
LINE
  8
0
 62
7
  6
CONTINUOUS
 10
363.1107656736
 20
30.8488751693
 11
363.3420154531
 21
30.81661148
  0
LINE
  8
0
 62
7
  6
CONTINUOUS
 10
361.4920155634
 20
31.7199947902
 11
361.7232656736
 21
31.6877311038
  0
LINE
  8
0
 62
7
  6
CONTINUOUS
 10
363.8045156736
 20
31.7199947902
 11
364.0357657839
 21
31.6877311038
  0
LINE
  8
0
 62
7
  6
CONTINUOUS
 10
368.2560780634
 20
31.3650941944
 11
369.2388907839
 21
31.2037757623
  0
LINE
  8
0
 62
7
  6
CONTINUOUS
 10
369.4123282839
 20
31.3005668216
 11
368.4295155634
 21
31.4618852989
  0
LINE
  8
0
 62
7
  6
CONTINUOUS
 10
361.8967031736
 20
31.8167858495
 11
361.7232656736
 21
31.8490495359
  0
LINE
  8
0
 62
7
  6
CONTINUOUS
 10
368.1982657839
 20
30.8811388585
 11
368.3717032839
 21
30.8488751693
  0
LINE
  8
0
 62
7
  6
CONTINUOUS
 10
367.0420155634
 20
31.8167858495
 11
366.8685780634
 21
31.8490495359
  0
LINE
  8
0
 62
7
  6
CONTINUOUS
 10
369.2967030634
 20
31.6877311038
 11
369.4123282839
 21
31.6554674174
  0
LINE
  8
0
 62
7
  6
CONTINUOUS
 10
369.4701405634
 20
31.074720994
 11
369.4123282839
 21
31.0101936212
  0
LINE
  8
0
 62
7
  6
CONTINUOUS
 10
368.0248282839
 20
31.7522584767
 11
367.9092030634
 21
31.6554674174
  0
LINE
  8
0
 62
7
  6
CONTINUOUS
 10
362.9373281736
 20
31.7845221631
 11
362.8217029531
 21
31.7199947902
  0
LINE
  8
0
 62
7
  6
CONTINUOUS
 10
362.9951404531
 20
31.397357926
 11
362.8795155634
 21
31.332830508
  0
LINE
  8
0
 62
7
  6
CONTINUOUS
 10
363.1107656736
 20
31.2360394487
 11
363.2263905634
 21
31.3005668216
  0
LINE
  8
0
 62
7
  6
CONTINUOUS
 10
360.6826405082
 20
30.81661148
 11
360.9717030634
 21
30.81661148
  0
LINE
  8
0
 62
7
  6
CONTINUOUS
 10
362.0123280634
 20
30.81661148
 11
362.3013904531
 21
30.81661148
  0
LINE
  8
0
 62
7
  6
CONTINUOUS
 10
363.3420154531
 20
30.81661148
 11
363.6888904531
 21
30.81661148
  0
LINE
  8
0
 62
7
  6
CONTINUOUS
 10
364.3248278428
 20
30.81661148
 11
364.6138905634
 21
30.81661148
  0
LINE
  8
0
 62
7
  6
CONTINUOUS
 10
365.0763907839
 20
30.81661148
 11
365.3654528428
 21
30.81661148
  0
LINE
  8
0
 62
7
  6
CONTINUOUS
 10
365.8279530634
 20
30.81661148
 11
366.1170157839
 21
30.81661148
  0
LINE
  8
0
 62
7
  6
CONTINUOUS
 10
367.1576407839
 20
30.81661148
 11
367.4467028428
 21
30.81661148
  0
LINE
  8
0
 62
7
  6
CONTINUOUS
 10
368.7185782839
 20
30.81661148
 11
369.0654532839
 21
30.81661148
  0
LINE
  8
0
 62
7
  6
CONTINUOUS
 10
369.0654532839
 20
30.945666237
 11
368.7185782839
 21
30.945666237
  0
LINE
  8
0
 62
7
  6
CONTINUOUS
 10
363.6888904531
 20
30.945666237
 11
363.3420154531
 21
30.945666237
  0
LINE
  8
0
 62
7
  6
CONTINUOUS
 10
368.1982657839
 20
31.074720994
 11
367.9092030634
 21
31.074720994
  0
LINE
  8
0
 62
7
  6
CONTINUOUS
 10
360.2201406185
 20
31.1392483894
 11
359.9310780634
 21
31.1392483894
  0
LINE
  8
0
 62
7
  6
CONTINUOUS
 10
359.2951405909
 20
31.7199947902
 11
359.6998280358
 21
31.6877311038
  0
LINE
  8
0
 62
7
  6
CONTINUOUS
 10
359.7576405634
 20
31.8167858495
 11
359.3529530358
 21
31.8490495359
  0
LINE
  8
0
 62
7
  6
CONTINUOUS
 10
368.3717032839
 20
30.8488751693
 11
368.7185782839
 21
30.81661148
  0
LINE
  8
0
 62
7
  6
CONTINUOUS
 10
368.7185782839
 20
30.945666237
 11
368.3717032839
 21
30.9779299347
  0
LINE
  8
0
 62
7
  6
CONTINUOUS
 10
364.1513903428
 20
31.8167858495
 11
363.8045156736
 21
31.8490495359
  0
LINE
  8
0
 62
7
  6
CONTINUOUS
 10
368.9498280634
 20
31.7199947902
 11
369.2967030634
 21
31.6877311038
  0
LINE
  8
0
 62
7
  6
CONTINUOUS
 10
369.2967030634
 20
31.8167858495
 11
368.9498280634
 21
31.8490495359
  0
LINE
  8
0
 62
7
  6
CONTINUOUS
 10
366.6373282839
 20
31.7199947902
 11
366.8685780634
 21
31.6877311038
  0
LINE
  8
0
 62
7
  6
CONTINUOUS
 10
369.4701405634
 20
31.7845221631
 11
369.2967030634
 21
31.8167858495
  0
LINE
  8
0
 62
7
  6
CONTINUOUS
 10
369.6435780634
 20
30.9134025506
 11
369.7592026223
 21
31.0101936212
  0
LINE
  8
0
 62
7
  6
CONTINUOUS
 10
364.1513903428
 20
31.106984703
 11
363.9779528428
 21
31.0101936212
  0
LINE
  8
0
 62
7
  6
CONTINUOUS
 10
366.2326403428
 20
31.7522584767
 11
366.1170157839
 21
31.6877311038
  0
LINE
  8
0
 62
7
  6
CONTINUOUS
 10
366.1170157839
 20
31.5586763581
 11
366.2326403428
 21
31.623203731
  0
LINE
  8
0
 62
7
  6
CONTINUOUS
 10
358.8326405772
 20
31.7845221631
 11
358.6592030565
 21
31.7199947902
  0
LINE
  8
0
 62
7
  6
CONTINUOUS
 10
361.2607654531
 20
31.8167858495
 11
361.0873281185
 21
31.7522584767
  0
LINE
  8
0
 62
7
  6
CONTINUOUS
 10
361.0873281185
 20
31.623203731
 11
361.2607654531
 21
31.6877311038
  0
LINE
  8
0
 62
7
  6
CONTINUOUS
 10
359.8732656185
 20
31.0424573076
 11
359.6998280358
 21
30.9779299347
  0
LINE
  8
0
 62
7
  6
CONTINUOUS
 10
369.2967030634
 20
30.9779299347
 11
369.0654532839
 21
30.945666237
  0
LINE
  8
0
 62
7
  6
CONTINUOUS
 10
363.6888904531
 20
30.81661148
 11
363.9779528428
 21
30.8488751693
  0
LINE
  8
0
 62
7
  6
CONTINUOUS
 10
369.0654532839
 20
30.81661148
 11
369.4123282839
 21
30.8488751693
  0
LINE
  8
0
 62
7
  6
CONTINUOUS
 10
359.3529530358
 20
30.81661148
 11
359.7576405634
 21
30.8488751693
  0
LINE
  8
0
 62
7
  6
CONTINUOUS
 10
359.6998280358
 20
30.9779299347
 11
359.2951405909
 21
30.945666237
  0
LINE
  8
0
 62
7
  6
CONTINUOUS
 10
363.5732655634
 20
31.3650941944
 11
364.2092032839
 21
31.3650941944
  0
LINE
  8
0
 62
7
  6
CONTINUOUS
 10
364.2092032839
 20
31.4941489853
 11
363.5732655634
 21
31.4941489853
  0
LINE
  8
0
 62
7
  6
CONTINUOUS
 10
359.9310780634
 20
31.5264126717
 11
360.2201406185
 21
31.5264126717
  0
LINE
  8
0
 62
7
  6
CONTINUOUS
 10
362.7638906736
 20
31.5909400446
 11
363.0529530634
 21
31.5909400446
  0
LINE
  8
0
 62
7
  6
CONTINUOUS
 10
369.4701405634
 20
31.5909400446
 11
369.7592026223
 21
31.5909400446
  0
LINE
  8
0
 62
7
  6
CONTINUOUS
 10
363.4576406736
 20
31.7199947902
 11
363.8045156736
 21
31.7199947902
  0
LINE
  8
0
 62
7
  6
CONTINUOUS
 10
368.6029530634
 20
31.7199947902
 11
368.9498280634
 21
31.7199947902
  0
LINE
  8
0
 62
7
  6
CONTINUOUS
 10
368.9498280634
 20
31.8490495359
 11
368.6029530634
 21
31.8490495359
  0
LINE
  8
0
 62
7
  6
CONTINUOUS
 10
366.8685780634
 20
31.8490495359
 11
366.6373282839
 21
31.8490495359
  0
LINE
  8
0
 62
7
  6
CONTINUOUS
 10
366.1170157839
 20
31.8490495359
 11
365.8279530634
 21
31.8490495359
  0
LINE
  8
0
 62
7
  6
CONTINUOUS
 10
365.3654528428
 20
31.8490495359
 11
365.0763907839
 21
31.8490495359
  0
LINE
  8
0
 62
7
  6
CONTINUOUS
 10
363.8045156736
 20
31.8490495359
 11
363.4576406736
 21
31.8490495359
  0
LINE
  8
0
 62
7
  6
CONTINUOUS
 10
361.7232656736
 20
31.8490495359
 11
361.4920155634
 21
31.8490495359
  0
LINE
  8
0
 62
7
  6
CONTINUOUS
 10
365.0763907839
 20
32.1716864905
 11
365.3654528428
 21
32.1716864905
  0
LINE
  8
0
 62
7
  6
CONTINUOUS
 10
365.3654528428
 20
32.3330049227
 11
365.0763907839
 21
32.3330049227
  0
LINE
  8
0
 62
7
  6
CONTINUOUS
 10
360.9717030634
 20
32.3330049227
 11
360.6826405082
 21
32.3330049227
  0
LINE
  8
0
 62
7
  6
CONTINUOUS
 10
360.0094848257
 20
32.6198901686
 11
360.4220561743
 21
32.6198901686
  0
LINE
  8
0
 62
7
  6
CONTINUOUS
 10
361.648829088
 20
32.6198901686
 11
363.0422717109
 21
32.6198901686
  0
LINE
  8
0
 62
7
  6
CONTINUOUS
 10
363.3701405634
 20
32.6198901686
 11
364.7635831863
 21
32.6198901686
  0
LINE
  8
0
 62
7
  6
CONTINUOUS
 10
366.648829088
 20
32.6198901686
 11
368.0422717109
 21
32.6198901686
  0
LINE
  8
0
 62
7
  6
CONTINUOUS
 10
368.3701405634
 20
32.6198901686
 11
369.7635831863
 21
32.6198901686
  0
LINE
  8
0
 62
7
  6
CONTINUOUS
 10
366.4060778428
 20
31.8167858495
 11
366.2326403428
 21
31.7522584767
  0
LINE
  8
0
 62
7
  6
CONTINUOUS
 10
363.9779528428
 20
30.8488751693
 11
364.1513903428
 21
30.9134025506
  0
LINE
  8
0
 62
7
  6
CONTINUOUS
 10
369.4123282839
 20
30.8488751693
 11
369.6435780634
 21
30.9134025506
  0
LINE
  8
0
 62
7
  6
CONTINUOUS
 10
369.4123282839
 20
31.0101936212
 11
369.2967030634
 21
30.9779299347
  0
LINE
  8
0
 62
7
  6
CONTINUOUS
 10
368.3717032839
 20
31.6877311038
 11
368.6029530634
 21
31.7199947902
  0
LINE
  8
0
 62
7
  6
CONTINUOUS
 10
366.4060778428
 20
31.6877311038
 11
366.6373282839
 21
31.7199947902
  0
LINE
  8
0
 62
7
  6
CONTINUOUS
 10
363.3420154531
 20
31.332830508
 11
363.5732655634
 21
31.3650941944
  0
LINE
  8
0
 62
7
  6
CONTINUOUS
 10
366.6373282839
 20
31.8490495359
 11
366.4060778428
 21
31.8167858495
  0
LINE
  8
0
 62
7
  6
CONTINUOUS
 10
363.2263905634
 20
31.6877311038
 11
363.4576406736
 21
31.7199947902
  0
LINE
  8
0
 62
7
  6
CONTINUOUS
 10
368.6029530634
 20
31.8490495359
 11
368.2560780634
 21
31.8167858495
  0
LINE
  8
0
 62
7
  6
CONTINUOUS
 10
363.5732655634
 20
31.4941489853
 11
363.2263905634
 21
31.4618852989
  0
LINE
  8
0
 62
7
  6
CONTINUOUS
 10
359.3529530358
 20
31.8490495359
 11
359.0060780772
 21
31.8167858495
  0
LINE
  8
0
 62
7
  6
CONTINUOUS
 10
363.4576406736
 20
31.8490495359
 11
363.0529530634
 21
31.8167858495
  0
LINE
  8
0
 62
7
  6
CONTINUOUS
 10
360.8291569568
 20
33.7674311522
 11
360.1734192519
 21
33.7674311522
  0
LINE
  8
0
 62
7
  6
CONTINUOUS
 10
366.2326403428
 20
31.623203731
 11
366.4060778428
 21
31.6877311038
  0
LINE
  8
0
 62
7
  6
CONTINUOUS
 10
368.2560780634
 20
31.6554674174
 11
368.3717032839
 21
31.6877311038
  0
LINE
  8
0
 62
7
  6
CONTINUOUS
 10
368.2560780634
 20
31.8167858495
 11
368.0248282839
 21
31.7522584767
  0
LINE
  8
0
 62
7
  6
CONTINUOUS
 10
363.9779528428
 20
31.0101936212
 11
363.6888904531
 21
30.945666237
  0
LINE
  8
0
 62
7
  6
CONTINUOUS
 10
361.2607654531
 20
31.6877311038
 11
361.4920155634
 21
31.7199947902
  0
LINE
  8
0
 62
7
  6
CONTINUOUS
 10
361.4920155634
 20
31.8490495359
 11
361.2607654531
 21
31.8167858495
  0
LINE
  8
0
 62
7
  6
CONTINUOUS
 10
359.0638905634
 20
31.6877311038
 11
359.2951405909
 21
31.7199947902
  0
LINE
  8
0
 62
7
  6
CONTINUOUS
 10
365.5832553175
 20
35.2428409882
 11
366.2389930224
 21
35.2428409882
  0
LINE
  8
0
 62
7
  6
CONTINUOUS
 10
363.2263905634
 20
31.3005668216
 11
363.3420154531
 21
31.332830508
  0
LINE
  8
0
 62
7
  6
CONTINUOUS
 10
363.2263905634
 20
31.4618852989
 11
362.9951404531
 21
31.397357926
  0
LINE
  8
0
 62
7
  6
CONTINUOUS
 10
363.1107656736
 20
31.6554674174
 11
363.2263905634
 21
31.6877311038
  0
LINE
  8
0
 62
7
  6
CONTINUOUS
 10
359.7576405634
 20
30.8488751693
 11
359.9888905082
 21
30.9134025506
  0
LINE
  8
0
 62
7
  6
CONTINUOUS
 10
363.0529530634
 20
31.8167858495
 11
362.9373281736
 21
31.7845221631
  0
LINE
  8
0
 62
7
  6
CONTINUOUS
 10
359.0060780772
 20
31.8167858495
 11
358.8326405772
 21
31.7845221631
  0
LINE
  8
0
 62
7
  6
CONTINUOUS
 10
369.7635831863
 20
36.3903819718
 11
368.3701405634
 21
36.3903819718
  0
LINE
  8
0
 62
7
  6
CONTINUOUS
 10
366.4029274486
 20
36.3903819718
 11
365.9903561
 21
36.3903819718
  0
LINE
  8
0
 62
7
  6
CONTINUOUS
 10
364.7635831863
 20
36.3903819718
 11
363.3701405634
 21
36.3903819718
  0
LINE
  8
0
 62
7
  6
CONTINUOUS
 10
363.0422717109
 20
36.3903819718
 11
361.648829088
 21
36.3903819718
  0
LINE
  8
0
 62
7
  6
CONTINUOUS
 10
359.7635831863
 20
36.3903819718
 11
358.3701405634
 21
36.3903819718
  0
LINE
  8
0
 62
7
  6
CONTINUOUS
 10
358.9482655496
 20
31.6554674174
 11
359.0638905634
 21
31.6877311038
  0
CIRCLE
  8
0
 62
7
  6
CONTINUOUS
 10
369.0668618749
 20
38.7264475456
 40
2.0901639344
  0
ARC
  8
0
 62
7
  6
CONTINUOUS
 10
360.0094848257
 20
34.2592344308
 40
1.6393442623
 50
180.0
 51
270.0
  0
ARC
  8
0
 62
7
  6
CONTINUOUS
 10
366.4029274486
 20
34.7510377095
 40
1.6393442623
 50
0.0
 51
90.0
  0
ARC
  8
0
 62
7
  6
CONTINUOUS
 10
360.4220561743
 20
34.0953000046
 40
1.4754098361
 50
270.0
 51
326.2510114041
  0
ARC
  8
0
 62
7
  6
CONTINUOUS
 10
365.9903561
 20
34.9149721358
 40
1.4754098361
 50
90.0
 51
146.2510114041
  0
ARC
  8
0
 62
7
  6
CONTINUOUS
 10
360.8291569568
 20
34.5871032833
 40
0.8196721311
 50
270.0
 51
360.0
  0
ARC
  8
0
 62
7
  6
CONTINUOUS
 10
365.5832553175
 20
34.4231688571
 40
0.8196721311
 50
90.0
 51
180.0
  0
ARC
  8
0
 62
7
  6
CONTINUOUS
 10
360.1734192519
 20
34.1772672177
 40
0.4098360656
 50
180.0
 51
270.0
  0
ARC
  8
0
 62
7
  6
CONTINUOUS
 10
366.2389930224
 20
34.8330049227
 40
0.4098360656
 50
0.0
 51
90.0
  0
SOLID
  8
0
 62
7
  6
CONTINUOUS
 10
365.0763907839
 20
32.1716868508
 11
365.0763907839
 21
32.3330053344
 12
365.3654528428
 22
32.1716868508
 13
365.3654528428
 23
32.3330053344
  0
SOLID
  8
0
 62
7
  6
CONTINUOUS
 10
359.3529530358
 20
31.8490498836
 11
359.7576405634
 21
31.8167854792
 12
359.0060780772
 22
31.8167854792
 13
359.0060780772
 23
31.8167854792
  0
SOLID
  8
0
 62
7
  6
CONTINUOUS
 10
358.8326405772
 20
31.7845227934
 11
359.0060780772
 21
31.8167854792
 12
359.7576405634
 22
31.8167854792
 13
359.7576405634
 23
31.8167854792
  0
SOLID
  8
0
 62
7
  6
CONTINUOUS
 10
359.7576405634
 20
31.8167854792
 11
359.9888905082
 21
31.7522584901
 12
358.8326405772
 22
31.7845227934
 13
358.8326405772
 23
31.7845227934
  0
SOLID
  8
0
 62
7
  6
CONTINUOUS
 10
358.6592030565
 20
31.7199940664
 11
358.8326405772
 21
31.7845227934
 12
359.9888905082
 22
31.7522584901
 13
359.9888905082
 23
31.7522584901
  0
SOLID
  8
0
 62
7
  6
CONTINUOUS
 10
358.6592030565
 20
31.7199940664
 11
359.9888905082
 21
31.7522584901
 12
359.2951405909
 22
31.7199940664
 13
359.2951405909
 23
31.7199940664
  0
SOLID
  8
0
 62
7
  6
CONTINUOUS
 10
359.2951405909
 20
31.7199940664
 11
359.9888905082
 21
31.7522584901
 12
359.6998280358
 22
31.6877314
 13
359.6998280358
 23
31.6877314
  0
SOLID
  8
0
 62
7
  6
CONTINUOUS
 10
359.9888905082
 20
31.7522584901
 11
360.1623280082
 21
31.6554670967
 12
359.6998280358
 22
31.6877314
 13
359.6998280358
 23
31.6877314
  0
SOLID
  8
0
 62
7
  6
CONTINUOUS
 10
359.8732656185
 20
31.6232043098
 11
359.6998280358
 21
31.6877314
 12
360.1623280082
 22
31.6554670967
 13
360.1623280082
 23
31.6554670967
  0
SOLID
  8
0
 62
7
  6
CONTINUOUS
 10
359.8732656185
 20
31.6232043098
 11
360.1623280082
 21
31.6554670967
 12
359.9310780634
 22
31.5264128539
 13
359.9310780634
 23
31.5264128539
  0
SOLID
  8
0
 62
7
  6
CONTINUOUS
 10
360.1623280082
 20
31.6554670967
 11
360.2201406185
 21
31.5264128539
 12
359.9310780634
 22
31.5264128539
 13
359.9310780634
 23
31.5264128539
  0
SOLID
  8
0
 62
7
  6
CONTINUOUS
 10
361.2607654531
 20
31.8167852459
 11
361.4920155634
 21
31.8490495492
 12
361.7232656736
 22
31.8490495492
 13
361.7232656736
 23
31.8490495492
  0
SOLID
  8
0
 62
7
  6
CONTINUOUS
 10
361.7232656736
 20
31.8490495492
 11
361.8967031736
 21
31.8167852459
 12
361.2607654531
 22
31.8167852459
 13
361.2607654531
 23
31.8167852459
  0
SOLID
  8
0
 62
7
  6
CONTINUOUS
 10
361.0873281185
 20
31.7522581557
 11
361.2607654531
 21
31.8167852459
 12
361.8967031736
 22
31.8167852459
 13
361.8967031736
 23
31.8167852459
  0
SOLID
  8
0
 62
7
  6
CONTINUOUS
 10
361.8967031736
 20
31.8167852459
 11
362.0701406736
 21
31.7522581557
 12
361.0873281185
 22
31.7522581557
 13
361.0873281185
 23
31.7522581557
  0
SOLID
  8
0
 62
7
  6
CONTINUOUS
 10
362.0701406736
 20
31.7522581557
 11
361.4920155634
 21
31.7199941869
 12
361.0873281185
 22
31.7522581557
 13
361.0873281185
 23
31.7522581557
  0
SOLID
  8
0
 62
7
  6
CONTINUOUS
 10
360.9717030634
 20
31.6877310656
 11
361.0873281185
 21
31.7522581557
 12
361.4920155634
 22
31.7199941869
 13
361.4920155634
 23
31.7199941869
  0
SOLID
  8
0
 62
7
  6
CONTINUOUS
 10
361.4920155634
 20
31.7199941869
 11
361.2607654531
 21
31.6877310656
 12
360.9717030634
 22
31.6877310656
 13
360.9717030634
 23
31.6877310656
  0
SOLID
  8
0
 62
7
  6
CONTINUOUS
 10
361.4920155634
 20
31.7199941869
 11
362.0701406736
 21
31.7522581557
 12
361.7232656736
 22
31.6877310656
 13
361.7232656736
 23
31.6877310656
  0
SOLID
  8
0
 62
7
  6
CONTINUOUS
 10
362.0701406736
 20
31.7522581557
 11
362.1857655634
 21
31.6877310656
 12
361.7232656736
 22
31.6877310656
 13
361.7232656736
 23
31.6877310656
  0
SOLID
  8
0
 62
7
  6
CONTINUOUS
 10
361.8388905634
 20
31.6554670967
 11
361.7232656736
 21
31.6877310656
 12
362.1857655634
 22
31.6877310656
 13
362.1857655634
 23
31.6877310656
  0
SOLID
  8
0
 62
7
  6
CONTINUOUS
 10
362.1857655634
 20
31.6877310656
 11
362.2435781736
 21
31.6232039754
 12
361.8388905634
 22
31.6554670967
 13
361.8388905634
 23
31.6554670967
  0
SOLID
  8
0
 62
7
  6
CONTINUOUS
 10
361.9545154531
 20
31.5909400065
 11
361.8388905634
 21
31.6554670967
 12
362.2435781736
 22
31.6232039754
 13
362.2435781736
 23
31.6232039754
  0
SOLID
  8
0
 62
7
  6
CONTINUOUS
 10
361.9545154531
 20
31.5909400065
 11
362.2435781736
 21
31.6232039754
 12
362.0123280634
 22
31.4618854918
 13
362.0123280634
 23
31.4618854918
  0
SOLID
  8
0
 62
7
  6
CONTINUOUS
 10
362.2435781736
 20
31.6232039754
 11
362.3013904531
 21
31.4618854918
 12
362.0123280634
 22
31.4618854918
 13
362.0123280634
 23
31.4618854918
  0
SOLID
  8
0
 62
7
  6
CONTINUOUS
 10
361.2607654531
 20
31.6877310656
 11
361.0873281185
 21
31.6232039754
 12
360.9717030634
 22
31.6877310656
 13
360.9717030634
 23
31.6877310656
  0
SOLID
  8
0
 62
7
  6
CONTINUOUS
 10
361.0873281185
 20
31.6232039754
 11
360.9717030634
 21
31.5586757033
 12
360.9717030634
 22
31.6877310656
 13
360.9717030634
 23
31.6877310656
  0
SOLID
  8
0
 62
7
  6
CONTINUOUS
 10
360.9717030634
 20
31.5586757033
 11
360.6826405082
 21
30.8166115574
 12
360.9717030634
 22
31.6877310656
 13
360.9717030634
 23
31.6877310656
  0
SOLID
  8
0
 62
7
  6
CONTINUOUS
 10
360.9717030634
 20
31.6877310656
 11
360.6826405082
 21
30.8166115574
 12
360.9717030634
 22
32.333005
 13
360.9717030634
 23
32.333005
  0
SOLID
  8
0
 62
7
  6
CONTINUOUS
 10
360.6826405082
 20
30.8166115574
 11
360.6826405082
 21
32.333005
 12
360.9717030634
 22
32.333005
 13
360.9717030634
 23
32.333005
  0
SOLID
  8
0
 62
7
  6
CONTINUOUS
 10
360.9717030634
 20
31.5586757033
 11
360.9717030634
 21
30.8166115574
 12
360.6826405082
 22
30.8166115574
 13
360.6826405082
 23
30.8166115574
  0
SOLID
  8
0
 62
7
  6
CONTINUOUS
 10
362.0123280634
 20
30.8166115574
 11
362.0123280634
 21
31.4618854918
 12
362.3013904531
 22
31.4618854918
 13
362.3013904531
 23
31.4618854918
  0
SOLID
  8
0
 62
7
  6
CONTINUOUS
 10
362.3013904531
 20
31.4618854918
 11
362.3013904531
 21
30.8166115574
 12
362.0123280634
 22
30.8166115574
 13
362.0123280634
 23
30.8166115574
  0
SOLID
  8
0
 62
7
  6
CONTINUOUS
 10
363.0529530634
 20
31.8167856315
 11
363.4576406736
 21
31.8490496243
 12
363.8045156736
 22
31.8490496243
 13
363.8045156736
 23
31.8490496243
  0
SOLID
  8
0
 62
7
  6
CONTINUOUS
 10
363.8045156736
 20
31.8490496243
 11
364.1513903428
 21
31.8167856315
 12
363.0529530634
 22
31.8167856315
 13
363.0529530634
 23
31.8167856315
  0
SOLID
  8
0
 62
7
  6
CONTINUOUS
 10
362.9373281736
 20
31.7845227934
 11
363.0529530634
 21
31.8167856315
 12
364.1513903428
 22
31.8167856315
 13
364.1513903428
 23
31.8167856315
  0
SOLID
  8
0
 62
7
  6
CONTINUOUS
 10
364.1513903428
 20
31.8167856315
 11
364.3248278428
 21
31.7522584901
 12
362.9373281736
 22
31.7845227934
 13
362.9373281736
 23
31.7845227934
  0
SOLID
  8
0
 62
7
  6
CONTINUOUS
 10
362.8217029531
 20
31.7199944276
 11
362.9373281736
 21
31.7845227934
 12
364.3248278428
 22
31.7522584901
 13
364.3248278428
 23
31.7522584901
  0
SOLID
  8
0
 62
7
  6
CONTINUOUS
 10
362.8217029531
 20
31.7199944276
 11
364.3248278428
 21
31.7522584901
 12
363.4576406736
 22
31.7199944276
 13
363.4576406736
 23
31.7199944276
  0
SOLID
  8
0
 62
7
  6
CONTINUOUS
 10
363.4576406736
 20
31.7199944276
 11
364.3248278428
 21
31.7522584901
 12
363.8045156736
 22
31.7199944276
 13
363.8045156736
 23
31.7199944276
  0
SOLID
  8
0
 62
7
  6
CONTINUOUS
 10
363.8045156736
 20
31.7199944276
 11
364.3248278428
 21
31.7522584901
 12
364.0357657839
 22
31.6877312092
 13
364.0357657839
 23
31.6877312092
  0
SOLID
  8
0
 62
7
  6
CONTINUOUS
 10
364.3248278428
 20
31.7522584901
 11
364.4404530634
 21
31.6877312092
 12
364.0357657839
 22
31.6877312092
 13
364.0357657839
 23
31.6877312092
  0
SOLID
  8
0
 62
7
  6
CONTINUOUS
 10
362.7638906736
 20
31.6554672165
 11
362.8217029531
 21
31.7199944276
 12
363.4576406736
 22
31.7199944276
 13
363.4576406736
 23
31.7199944276
  0
SOLID
  8
0
 62
7
  6
CONTINUOUS
 10
364.1513903428
 20
31.6554672165
 11
364.0357657839
 21
31.6877312092
 12
364.4404530634
 22
31.6877312092
 13
364.4404530634
 23
31.6877312092
  0
SOLID
  8
0
 62
7
  6
CONTINUOUS
 10
364.1513903428
 20
31.6554672165
 11
364.4404530634
 21
31.6877312092
 12
364.2092032839
 22
31.5909400053
 13
364.2092032839
 23
31.5909400053
  0
SOLID
  8
0
 62
7
  6
CONTINUOUS
 10
364.4404530634
 20
31.6877312092
 11
364.4982653428
 21
31.5909400053
 12
364.2092032839
 22
31.5909400053
 13
364.2092032839
 23
31.5909400053
  0
SOLID
  8
0
 62
7
  6
CONTINUOUS
 10
364.2092032839
 20
31.4941486131
 11
364.2092032839
 21
31.5909400053
 12
364.4982653428
 22
31.5909400053
 13
364.4982653428
 23
31.5909400053
  0
SOLID
  8
0
 62
7
  6
CONTINUOUS
 10
364.2092032839
 20
31.4941486131
 11
364.4982653428
 21
31.5909400053
 12
364.2092032839
 22
31.3650944328
 13
364.2092032839
 23
31.3650944328
  0
SOLID
  8
0
 62
7
  6
CONTINUOUS
 10
364.2092032839
 20
31.3650944328
 11
364.4982653428
 21
31.5909400053
 12
364.2092032839
 22
31.1715120759
 13
364.2092032839
 23
31.1715120759
  0
SOLID
  8
0
 62
7
  6
CONTINUOUS
 10
364.4982653428
 20
31.5909400053
 11
364.4982653428
 21
31.0747202524
 12
364.2092032839
 22
31.1715120759
 13
364.2092032839
 23
31.1715120759
  0
SOLID
  8
0
 62
7
  6
CONTINUOUS
 10
366.4060778428
 20
31.8167851023
 11
366.6373282839
 21
31.849049822
 12
366.8685780634
 22
31.849049822
 13
366.8685780634
 23
31.849049822
  0
SOLID
  8
0
 62
7
  6
CONTINUOUS
 10
366.8685780634
 20
31.849049822
 11
367.0420155634
 21
31.8167851023
 12
366.4060778428
 22
31.8167851023
 13
366.4060778428
 23
31.8167851023
  0
SOLID
  8
0
 62
7
  6
CONTINUOUS
 10
366.2326403428
 20
31.7522587602
 11
366.4060778428
 21
31.8167851023
 12
367.0420155634
 22
31.8167851023
 13
367.0420155634
 23
31.8167851023
  0
SOLID
  8
0
 62
7
  6
CONTINUOUS
 10
367.0420155634
 20
31.8167851023
 11
367.2154530634
 21
31.7522587602
 12
366.2326403428
 22
31.7522587602
 13
366.2326403428
 23
31.7522587602
  0
SOLID
  8
0
 62
7
  6
CONTINUOUS
 10
367.2154530634
 20
31.7522587602
 11
366.6373282839
 21
31.7199941869
 12
366.2326403428
 22
31.7522587602
 13
366.2326403428
 23
31.7522587602
  0
SOLID
  8
0
 62
7
  6
CONTINUOUS
 10
366.1170157839
 20
31.6877313857
 11
366.2326403428
 21
31.7522587602
 12
366.6373282839
 22
31.7199941869
 13
366.6373282839
 23
31.7199941869
  0
SOLID
  8
0
 62
7
  6
CONTINUOUS
 10
366.6373282839
 20
31.7199941869
 11
366.4060778428
 21
31.6877313857
 12
366.1170157839
 22
31.6877313857
 13
366.1170157839
 23
31.6877313857
  0
SOLID
  8
0
 62
7
  6
CONTINUOUS
 10
366.6373282839
 20
31.7199941869
 11
367.2154530634
 21
31.7522587602
 12
366.8685780634
 22
31.6877313857
 13
366.8685780634
 23
31.6877313857
  0
SOLID
  8
0
 62
7
  6
CONTINUOUS
 10
367.2154530634
 20
31.7522587602
 11
367.3310782839
 21
31.6877313857
 12
366.8685780634
 22
31.6877313857
 13
366.8685780634
 23
31.6877313857
  0
SOLID
  8
0
 62
7
  6
CONTINUOUS
 10
366.9842032839
 20
31.6554670967
 11
366.8685780634
 21
31.6877313857
 12
367.3310782839
 22
31.6877313857
 13
367.3310782839
 23
31.6877313857
  0
SOLID
  8
0
 62
7
  6
CONTINUOUS
 10
366.9842032839
 20
31.6554670967
 11
367.3310782839
 21
31.6877313857
 12
367.0998278428
 22
31.590940324
 13
367.0998278428
 23
31.590940324
  0
SOLID
  8
0
 62
7
  6
CONTINUOUS
 10
367.3310782839
 20
31.6877313857
 11
367.3888905634
 21
31.590940324
 12
367.0998278428
 22
31.590940324
 13
367.0998278428
 23
31.590940324
  0
SOLID
  8
0
 62
7
  6
CONTINUOUS
 10
367.1576407839
 20
31.4296218878
 11
367.0998278428
 21
31.590940324
 12
367.3888905634
 22
31.590940324
 13
367.3888905634
 23
31.590940324
  0
SOLID
  8
0
 62
7
  6
CONTINUOUS
 10
367.3888905634
 20
31.590940324
 11
367.4467028428
 21
31.4296218878
 12
367.1576407839
 22
31.4296218878
 13
367.1576407839
 23
31.4296218878
  0
SOLID
  8
0
 62
7
  6
CONTINUOUS
 10
366.4060778428
 20
31.6877313857
 11
366.2326403428
 21
31.6232043098
 12
366.1170157839
 22
31.6877313857
 13
366.1170157839
 23
31.6877313857
  0
SOLID
  8
0
 62
7
  6
CONTINUOUS
 10
366.2326403428
 20
31.6232043098
 11
366.1170157839
 21
31.5586757033
 12
366.1170157839
 22
31.6877313857
 13
366.1170157839
 23
31.6877313857
  0
SOLID
  8
0
 62
7
  6
CONTINUOUS
 10
366.1170157839
 20
31.5586757033
 11
365.8279530634
 21
30.8166118302
 12
366.1170157839
 22
31.6877313857
 13
366.1170157839
 23
31.6877313857
  0
SOLID
  8
0
 62
7
  6
CONTINUOUS
 10
366.1170157839
 20
31.6877313857
 11
365.8279530634
 21
30.8166118302
 12
366.1170157839
 22
31.849049822
 13
366.1170157839
 23
31.849049822
  0
SOLID
  8
0
 62
7
  6
CONTINUOUS
 10
365.8279530634
 20
30.8166118302
 11
365.8279530634
 21
31.849049822
 12
366.1170157839
 22
31.849049822
 13
366.1170157839
 23
31.849049822
  0
SOLID
  8
0
 62
7
  6
CONTINUOUS
 10
366.1170157839
 20
31.5586757033
 11
366.1170157839
 21
30.8166118302
 12
365.8279530634
 22
30.8166118302
 13
365.8279530634
 23
30.8166118302
  0
SOLID
  8
0
 62
7
  6
CONTINUOUS
 10
367.1576407839
 20
30.8166118302
 11
367.1576407839
 21
31.4296218878
 12
367.4467028428
 22
31.4296218878
 13
367.4467028428
 23
31.4296218878
  0
SOLID
  8
0
 62
7
  6
CONTINUOUS
 10
367.4467028428
 20
31.4296218878
 11
367.4467028428
 21
30.8166118302
 12
367.1576407839
 22
30.8166118302
 13
367.1576407839
 23
30.8166118302
  0
SOLID
  8
0
 62
7
  6
CONTINUOUS
 10
368.2560780634
 20
31.8167856056
 11
368.6029530634
 21
31.8490498552
 12
368.9498280634
 22
31.8490498552
 13
368.9498280634
 23
31.8490498552
  0
SOLID
  8
0
 62
7
  6
CONTINUOUS
 10
368.9498280634
 20
31.8490498552
 11
369.2967030634
 21
31.8167856056
 12
368.2560780634
 22
31.8167856056
 13
368.2560780634
 23
31.8167856056
  0
SOLID
  8
0
 62
7
  6
CONTINUOUS
 10
368.0248282839
 20
31.7522584901
 11
368.2560780634
 21
31.8167856056
 12
369.2967030634
 22
31.8167856056
 13
369.2967030634
 23
31.8167856056
  0
SOLID
  8
0
 62
7
  6
CONTINUOUS
 10
368.0248282839
 20
31.7522584901
 11
369.2967030634
 21
31.8167855803
 12
369.4701405634
 22
31.7845227934
 13
369.4701405634
 23
31.7845227934
  0
SOLID
  8
0
 62
7
  6
CONTINUOUS
 10
368.0248282839
 20
31.7522584901
 11
369.4701405634
 21
31.7845227934
 12
368.6029530634
 22
31.7199941235
 13
368.6029530634
 23
31.7199941235
  0
SOLID
  8
0
 62
7
  6
CONTINUOUS
 10
368.6029530634
 20
31.7199941235
 11
369.4701405634
 21
31.7845227934
 12
368.9498280634
 22
31.7199941235
 13
368.9498280634
 23
31.7199941235
  0
SOLID
  8
0
 62
7
  6
CONTINUOUS
 10
369.4701405634
 20
31.7845227934
 11
369.6435780634
 21
31.7199941235
 12
368.9498280634
 22
31.7199941235
 13
368.9498280634
 23
31.7199941235
  0
SOLID
  8
0
 62
7
  6
CONTINUOUS
 10
369.2967030634
 20
31.6877314
 11
368.9498280634
 21
31.7199941235
 12
369.6435780634
 22
31.7199941235
 13
369.6435780634
 23
31.7199941235
  0
SOLID
  8
0
 62
7
  6
CONTINUOUS
 10
367.9092030634
 20
31.6554671071
 11
368.0248282839
 21
31.7522584901
 12
368.6029530634
 22
31.7199941235
 13
368.6029530634
 23
31.7199941235
  0
SOLID
  8
0
 62
7
  6
CONTINUOUS
 10
369.2967030634
 20
31.6877314
 11
369.6435780634
 21
31.7199941235
 12
369.4123282839
 22
31.6554671071
 13
369.4123282839
 23
31.6554671071
  0
SOLID
  8
0
 62
7
  6
CONTINUOUS
 10
369.4123282839
 20
31.6554671071
 11
369.6435780634
 21
31.7199941235
 12
369.4701405634
 22
31.5909400907
 13
369.4701405634
 23
31.5909400907
  0
SOLID
  8
0
 62
7
  6
CONTINUOUS
 10
369.6435780634
 20
31.7199941235
 11
369.7592026223
 21
31.5909400907
 12
369.4701405634
 22
31.5909400907
 13
369.4701405634
 23
31.5909400907
  0
SOLID
  8
0
 62
7
  6
CONTINUOUS
 10
359.0638905634
 20
31.6877314
 11
358.5435780634
 21
31.6554670789
 12
359.2951405909
 22
31.7199941045
 13
359.2951405909
 23
31.7199941045
  0
SOLID
  8
0
 62
7
  6
CONTINUOUS
 10
358.5435780634
 20
31.6554670789
 11
358.6592030565
 21
31.7199941045
 12
359.2951405909
 22
31.7199941045
 13
359.2951405909
 23
31.7199941045
  0
SOLID
  8
0
 62
7
  6
CONTINUOUS
 10
359.0638905634
 20
31.6877314
 11
358.9482655496
 21
31.6554670789
 12
358.5435780634
 22
31.6554670789
 13
358.5435780634
 23
31.6554670789
  0
SOLID
  8
0
 62
7
  6
CONTINUOUS
 10
358.4279530651
 20
31.5264129164
 11
358.5435780634
 21
31.6554670789
 12
358.9482655496
 22
31.6554670789
 13
358.9482655496
 23
31.6554670789
  0
SOLID
  8
0
 62
7
  6
CONTINUOUS
 10
362.7638906736
 20
31.6554670789
 11
363.4576406736
 21
31.7199941869
 12
363.2263905634
 22
31.6877314
 13
363.2263905634
 23
31.6877314
  0
SOLID
  8
0
 62
7
  6
CONTINUOUS
 10
363.2263905634
 20
31.6877314
 11
363.1107656736
 21
31.6554670789
 12
362.7638906736
 22
31.6554670789
 13
362.7638906736
 23
31.6554670789
  0
SOLID
  8
0
 62
7
  6
CONTINUOUS
 10
362.7638906736
 20
31.5909399887
 11
362.7638906736
 21
31.6554670789
 12
363.1107656736
 22
31.6554670789
 13
363.1107656736
 23
31.6554670789
  0
SOLID
  8
0
 62
7
  6
CONTINUOUS
 10
363.1107656736
 20
31.6554670789
 11
363.0529530634
 21
31.5909399887
 12
362.7638906736
 22
31.5909399887
 13
362.7638906736
 23
31.5909399887
  0
SOLID
  8
0
 62
7
  6
CONTINUOUS
 10
367.9092030634
 20
31.6554670789
 11
368.6029530634
 21
31.7199941869
 12
368.3717032839
 22
31.6877314
 13
368.3717032839
 23
31.6877314
  0
SOLID
  8
0
 62
7
  6
CONTINUOUS
 10
368.3717032839
 20
31.6877314
 11
368.2560780634
 21
31.6554670789
 12
367.9092030634
 22
31.6554670789
 13
367.9092030634
 23
31.6554670789
  0
SOLID
  8
0
 62
7
  6
CONTINUOUS
 10
367.9092030634
 20
31.5909399887
 11
367.9092030634
 21
31.6554670789
 12
368.2560780634
 22
31.6554670789
 13
368.2560780634
 23
31.6554670789
  0
SOLID
  8
0
 62
7
  6
CONTINUOUS
 10
368.2560780634
 20
31.6554670789
 11
368.1982657839
 21
31.5909399887
 12
367.9092030634
 22
31.5909399887
 13
367.9092030634
 23
31.5909399887
  0
SOLID
  8
0
 62
7
  6
CONTINUOUS
 10
368.0248282839
 20
31.4618858262
 11
367.9092030634
 21
31.5909399887
 12
368.1982657839
 22
31.5909399887
 13
368.1982657839
 23
31.5909399887
  0
SOLID
  8
0
 62
7
  6
CONTINUOUS
 10
358.4279530651
 20
31.5264129164
 11
358.9482655496
 21
31.6554670967
 12
358.7748280496
 22
31.5586757033
 13
358.7748280496
 23
31.5586757033
  0
SOLID
  8
0
 62
7
  6
CONTINUOUS
 10
358.7748280496
 20
31.5586757033
 11
358.7170155634
 21
31.4941486131
 12
358.4279530651
 22
31.5264129164
 13
358.4279530651
 23
31.5264129164
  0
SOLID
  8
0
 62
7
  6
CONTINUOUS
 10
358.3701405634
 20
31.3328301295
 11
358.4279530651
 21
31.5264129164
 12
358.7170155634
 22
31.4941486131
 13
358.7170155634
 23
31.4941486131
  0
SOLID
  8
0
 62
7
  6
CONTINUOUS
 10
363.2263905634
 20
31.4618858262
 11
363.5732655634
 21
31.4941485791
 12
364.2092032839
 22
31.4941485791
 13
364.2092032839
 23
31.4941485791
  0
SOLID
  8
0
 62
7
  6
CONTINUOUS
 10
363.2263905634
 20
31.4618858262
 11
364.2092032839
 21
31.4941485791
 12
362.9951404531
 22
31.397357926
 13
362.9951404531
 23
31.397357926
  0
SOLID
  8
0
 62
7
  6
CONTINUOUS
 10
362.9951404531
 20
31.397357926
 11
364.2092032839
 21
31.4941485791
 12
363.5732655634
 22
31.3650943988
 13
363.5732655634
 23
31.3650943988
  0
SOLID
  8
0
 62
7
  6
CONTINUOUS
 10
364.2092032839
 20
31.4941485791
 11
364.2092032839
 21
31.3650943988
 12
363.5732655634
 22
31.3650943988
 13
363.5732655634
 23
31.3650943988
  0
SOLID
  8
0
 62
7
  6
CONTINUOUS
 10
368.0248282839
 20
31.4618859165
 11
368.1982657839
 21
31.5909400065
 12
368.2560780634
 22
31.5264129164
 13
368.2560780634
 23
31.5264129164
  0
SOLID
  8
0
 62
7
  6
CONTINUOUS
 10
368.2560780634
 20
31.5264129164
 11
368.4295155634
 21
31.4618859165
 12
368.0248282839
 22
31.4618859165
 13
368.0248282839
 23
31.4618859165
  0
SOLID
  8
0
 62
7
  6
CONTINUOUS
 10
368.2560780634
 20
31.3650944328
 11
368.0248282839
 21
31.4618859165
 12
368.4295155634
 22
31.4618859165
 13
368.4295155634
 23
31.4618859165
  0
SOLID
  8
0
 62
7
  6
CONTINUOUS
 10
368.4295155634
 20
31.4618859165
 11
369.4123282839
 21
31.3005673426
 12
368.2560780634
 22
31.3650944328
 13
368.2560780634
 23
31.3650944328
  0
SOLID
  8
0
 62
7
  6
CONTINUOUS
 10
369.2388907839
 20
31.2037760287
 11
368.2560780634
 21
31.3650944328
 12
369.4123282839
 22
31.3005673426
 13
369.4123282839
 23
31.3005673426
  0
SOLID
  8
0
 62
7
  6
CONTINUOUS
 10
369.4123282839
 20
31.3005673426
 11
369.6435780634
 21
31.2037760287
 12
369.2388907839
 22
31.2037760287
 13
369.2388907839
 23
31.2037760287
  0
SOLID
  8
0
 62
7
  6
CONTINUOUS
 10
369.4123282839
 20
31.139248859
 11
369.2388907839
 21
31.2037760287
 12
369.6435780634
 22
31.2037760287
 13
369.6435780634
 23
31.2037760287
  0
SOLID
  8
0
 62
7
  6
CONTINUOUS
 10
369.4123282839
 20
31.139248859
 11
369.6435780634
 21
31.2037760287
 12
369.4701405634
 22
31.0747203105
 13
369.4701405634
 23
31.0747203105
  0
SOLID
  8
0
 62
7
  6
CONTINUOUS
 10
369.6435780634
 20
31.2037760287
 11
369.7592026223
 21
31.0747203105
 12
369.4701405634
 22
31.0747203105
 13
369.4701405634
 23
31.0747203105
  0
SOLID
  8
0
 62
7
  6
CONTINUOUS
 10
369.4123282839
 20
31.0101932257
 11
369.4701405634
 21
31.0747203105
 12
369.7592026223
 22
31.0747203105
 13
369.7592026223
 23
31.0747203105
  0
SOLID
  8
0
 62
7
  6
CONTINUOUS
 10
369.7592026223
 20
31.0747203105
 11
369.7592026223
 21
31.0101932257
 12
369.4123282839
 22
31.0101932257
 13
369.4123282839
 23
31.0101932257
  0
SOLID
  8
0
 62
7
  6
CONTINUOUS
 10
369.2967030634
 20
30.9779303754
 11
369.4123282839
 21
31.0101932257
 12
369.7592026223
 22
31.0101932257
 13
369.7592026223
 23
31.0101932257
  0
SOLID
  8
0
 62
7
  6
CONTINUOUS
 10
369.2967030634
 20
30.9779303754
 11
369.7592026223
 21
31.0101932257
 12
369.0654532839
 22
30.9456661409
 13
369.0654532839
 23
30.9456661409
  0
SOLID
  8
0
 62
7
  6
CONTINUOUS
 10
369.7592026223
 20
31.0101932257
 11
369.6435780634
 21
30.9134032852
 12
369.0654532839
 22
30.9456661409
 13
369.0654532839
 23
30.9456661409
  0
SOLID
  8
0
 62
7
  6
CONTINUOUS
 10
369.6435780634
 20
30.9134032852
 11
368.1982657839
 21
30.8811389819
 12
369.0654532839
 22
30.9456661409
 13
369.0654532839
 23
30.9456661409
  0
SOLID
  8
0
 62
7
  6
CONTINUOUS
 10
369.0654532839
 20
30.9456661409
 11
368.1982657839
 21
30.8811389819
 12
368.7185782839
 22
30.9456661409
 13
368.7185782839
 23
30.9456661409
  0
SOLID
  8
0
 62
7
  6
CONTINUOUS
 10
368.1982657839
 20
30.8811389819
 11
368.0248282839
 21
30.9456661409
 12
368.7185782839
 22
30.9456661409
 13
368.7185782839
 23
30.9456661409
  0
SOLID
  8
0
 62
7
  6
CONTINUOUS
 10
368.1982657839
 20
30.8811389819
 11
369.6435780634
 21
30.9134032852
 12
368.3717032839
 22
30.8488743522
 13
368.3717032839
 23
30.8488743522
  0
SOLID
  8
0
 62
7
  6
CONTINUOUS
 10
369.6435780634
 20
30.9134032852
 11
369.4123282839
 21
30.8488743522
 12
368.3717032839
 22
30.8488743522
 13
368.3717032839
 23
30.8488743522
  0
SOLID
  8
0
 62
7
  6
CONTINUOUS
 10
368.7185782839
 20
30.8166119713
 11
368.3717032839
 21
30.8488743522
 12
369.4123282839
 22
30.8488743522
 13
369.4123282839
 23
30.8488743522
  0
SOLID
  8
0
 62
7
  6
CONTINUOUS
 10
369.4123282839
 20
30.8488743522
 11
369.0654532839
 21
30.8166119713
 12
368.7185782839
 22
30.8166119713
 13
368.7185782839
 23
30.8166119713
  0
SOLID
  8
0
 62
7
  6
CONTINUOUS
 10
358.3701405634
 20
31.3328301295
 11
358.7170155634
 21
31.4941486131
 12
358.6592030565
 22
31.3650944328
 13
358.6592030565
 23
31.3650944328
  0
SOLID
  8
0
 62
7
  6
CONTINUOUS
 10
358.6592030565
 20
31.3650944328
 11
358.6592030565
 21
31.2683031351
 12
358.3701405634
 22
31.3328301295
 13
358.3701405634
 23
31.3328301295
  0
SOLID
  8
0
 62
7
  6
CONTINUOUS
 10
358.4279530651
 20
31.139248859
 11
358.3701405634
 21
31.3328301295
 12
358.6592030565
 22
31.2683031351
 13
358.6592030565
 23
31.2683031351
  0
SOLID
  8
0
 62
7
  6
CONTINUOUS
 10
358.6592030565
 20
31.2683031351
 11
358.7748280496
 21
31.1069845557
 12
358.4279530651
 22
31.139248859
 13
358.4279530651
 23
31.139248859
  0
SOLID
  8
0
 62
7
  6
CONTINUOUS
 10
358.5435780634
 20
31.0101931569
 11
358.4279530651
 21
31.139248859
 12
358.7748280496
 22
31.1069845557
 13
358.7748280496
 23
31.1069845557
  0
SOLID
  8
0
 62
7
  6
CONTINUOUS
 10
358.7748280496
 20
31.1069845557
 11
358.9482655496
 21
31.0101931569
 12
358.5435780634
 22
31.0101931569
 13
358.5435780634
 23
31.0101931569
  0
SOLID
  8
0
 62
7
  6
CONTINUOUS
 10
358.6592030565
 20
30.9456659241
 11
358.5435780634
 21
31.0101931569
 12
358.9482655496
 22
31.0101931569
 13
358.9482655496
 23
31.0101931569
  0
SOLID
  8
0
 62
7
  6
CONTINUOUS
 10
358.9482655496
 20
31.0101931569
 11
359.2951405909
 21
30.9456659241
 12
358.6592030565
 22
30.9456659241
 13
358.6592030565
 23
30.9456659241
  0
SOLID
  8
0
 62
7
  6
CONTINUOUS
 10
358.8326405772
 20
30.8811389819
 11
358.6592030565
 21
30.9456659241
 12
359.2951405909
 22
30.9456659241
 13
359.2951405909
 23
30.9456659241
  0
SOLID
  8
0
 62
7
  6
CONTINUOUS
 10
362.8795155634
 20
31.3328301325
 11
362.9951404531
 21
31.397357926
 12
363.5732655634
 22
31.3650944328
 13
363.5732655634
 23
31.3650944328
  0
SOLID
  8
0
 62
7
  6
CONTINUOUS
 10
363.5732655634
 20
31.3650944328
 11
363.3420154531
 21
31.3328301325
 12
362.8795155634
 22
31.3328301325
 13
362.8795155634
 23
31.3328301325
  0
SOLID
  8
0
 62
7
  6
CONTINUOUS
 10
362.7638906736
 20
31.2037759492
 11
362.8795155634
 21
31.3328301325
 12
363.3420154531
 22
31.3328301325
 13
363.3420154531
 23
31.3328301325
  0
SOLID
  8
0
 62
7
  6
CONTINUOUS
 10
363.1107656736
 20
31.2360394487
 11
362.7638906736
 21
31.2037759492
 12
363.2263905634
 22
31.3005673426
 13
363.2263905634
 23
31.3005673426
  0
SOLID
  8
0
 62
7
  6
CONTINUOUS
 10
362.7638906736
 20
31.2037759492
 11
363.3420154531
 21
31.3328301295
 12
363.2263905634
 22
31.3005673426
 13
363.2263905634
 23
31.3005673426
  0
SOLID
  8
0
 62
7
  6
CONTINUOUS
 10
363.1107656736
 20
31.2360394487
 11
363.0529530634
 21
31.139248859
 12
362.7638906736
 22
31.2037759492
 13
362.7638906736
 23
31.2037759492
  0
SOLID
  8
0
 62
7
  6
CONTINUOUS
 10
362.7638906736
 20
31.1069845557
 11
362.7638906736
 21
31.2037759492
 12
363.0529530634
 22
31.139248859
 13
363.0529530634
 23
31.139248859
  0
SOLID
  8
0
 62
7
  6
CONTINUOUS
 10
363.0529530634
 20
31.139248859
 11
363.0529530634
 21
31.0747202524
 12
362.7638906736
 22
31.1069845557
 13
362.7638906736
 23
31.1069845557
  0
SOLID
  8
0
 62
7
  6
CONTINUOUS
 10
362.8217029531
 20
30.9779303754
 11
362.7638906736
 21
31.1069845557
 12
363.0529530634
 22
31.0747202524
 13
363.0529530634
 23
31.0747202524
  0
SOLID
  8
0
 62
7
  6
CONTINUOUS
 10
364.2092032839
 20
31.1715120759
 11
364.4982653428
 21
31.0747202524
 12
364.1513903428
 22
31.1069845557
 13
364.1513903428
 23
31.1069845557
  0
SOLID
  8
0
 62
7
  6
CONTINUOUS
 10
363.9779528428
 20
31.0101931623
 11
364.1513903428
 21
31.1069845557
 12
364.4982653428
 22
31.0747202524
 13
364.4982653428
 23
31.0747202524
  0
SOLID
  8
0
 62
7
  6
CONTINUOUS
 10
363.9779528428
 20
31.0101931623
 11
364.4982653428
 21
31.0747202524
 12
364.2092032839
 22
30.9779303754
 13
364.2092032839
 23
30.9779303754
  0
SOLID
  8
0
 62
7
  6
CONTINUOUS
 10
364.4982653428
 20
31.0747202524
 11
364.5560782839
 21
30.9134032852
 12
364.2092032839
 22
30.9779303754
 13
364.2092032839
 23
30.9779303754
  0
SOLID
  8
0
 62
7
  6
CONTINUOUS
 10
364.2670155634
 20
30.8811389819
 11
364.2092032839
 21
30.9779303754
 12
364.5560782839
 22
30.9134032852
 13
364.5560782839
 23
30.9134032852
  0
SOLID
  8
0
 62
7
  6
CONTINUOUS
 10
364.2670155634
 20
30.8811389819
 11
364.5560782839
 21
30.9134032852
 12
364.3248278428
 22
30.816611867
 13
364.3248278428
 23
30.816611867
  0
SOLID
  8
0
 62
7
  6
CONTINUOUS
 10
364.5560782839
 20
30.9134032852
 11
364.6138905634
 21
30.816611867
 12
364.3248278428
 22
30.816611867
 13
364.3248278428
 23
30.816611867
  0
SOLID
  8
0
 62
7
  6
CONTINUOUS
 10
359.8732656185
 20
31.0424573076
 11
359.9310780634
 21
31.1392488159
 12
360.2201406185
 22
31.1392488159
 13
360.2201406185
 23
31.1392488159
  0
SOLID
  8
0
 62
7
  6
CONTINUOUS
 10
360.2201406185
 20
31.1392488159
 11
360.1623280082
 21
31.0101931623
 12
359.8732656185
 22
31.0424573076
 13
359.8732656185
 23
31.0424573076
  0
SOLID
  8
0
 62
7
  6
CONTINUOUS
 10
359.6998280358
 20
30.9779303754
 11
359.8732656185
 21
31.0424573076
 12
360.1623280082
 22
31.0101931623
 13
360.1623280082
 23
31.0101931623
  0
SOLID
  8
0
 62
7
  6
CONTINUOUS
 10
359.6998280358
 20
30.9779303754
 11
360.1623280082
 21
31.0101931623
 12
359.2951405909
 22
30.9456660721
 13
359.2951405909
 23
30.9456660721
  0
SOLID
  8
0
 62
7
  6
CONTINUOUS
 10
360.1623280082
 20
31.0101931623
 11
359.9888905082
 21
30.9134032852
 12
359.2951405909
 22
30.9456660721
 13
359.2951405909
 23
30.9456660721
  0
SOLID
  8
0
 62
7
  6
CONTINUOUS
 10
358.8326405772
 20
30.8811389819
 11
359.2951405909
 21
30.9456660721
 12
359.9888905082
 22
30.9134032852
 13
359.9888905082
 23
30.9134032852
  0
SOLID
  8
0
 62
7
  6
CONTINUOUS
 10
358.8326405772
 20
30.8811389819
 11
359.9888905082
 21
30.9134032852
 12
359.0060780772
 22
30.8488745775
 13
359.0060780772
 23
30.8488745775
  0
SOLID
  8
0
 62
7
  6
CONTINUOUS
 10
359.9888905082
 20
30.9134032852
 11
359.7576405634
 21
30.8488745775
 12
359.0060780772
 22
30.8488745775
 13
359.0060780772
 23
30.8488745775
  0
SOLID
  8
0
 62
7
  6
CONTINUOUS
 10
359.3529530358
 20
30.8166118918
 11
359.0060780772
 21
30.8488745775
 12
359.7576405634
 22
30.8488745775
 13
359.7576405634
 23
30.8488745775
  0
SOLID
  8
0
 62
7
  6
CONTINUOUS
 10
362.8217029531
 20
30.9779303754
 11
363.0529530634
 21
31.0747202524
 12
363.1107656736
 22
31.0101931623
 13
363.1107656736
 23
31.0101931623
  0
SOLID
  8
0
 62
7
  6
CONTINUOUS
 10
363.1107656736
 20
31.0101931623
 11
363.3420154531
 21
30.9456660721
 12
362.8217029531
 22
30.9779303754
 13
362.8217029531
 23
30.9779303754
  0
SOLID
  8
0
 62
7
  6
CONTINUOUS
 10
362.9951404531
 20
30.8811389819
 11
362.8217029531
 21
30.9779303754
 12
363.3420154531
 22
30.9456660721
 13
363.3420154531
 23
30.9456660721
  0
SOLID
  8
0
 62
7
  6
CONTINUOUS
 10
363.6888904531
 20
30.9456661188
 11
363.9779528428
 21
31.0101931623
 12
364.2092032839
 22
30.9779303754
 13
364.2092032839
 23
30.9779303754
  0
SOLID
  8
0
 62
7
  6
CONTINUOUS
 10
364.2092032839
 20
30.9779303754
 11
364.1513903428
 21
30.9134032852
 12
363.6888904531
 22
30.9456661188
 13
363.6888904531
 23
30.9456661188
  0
SOLID
  8
0
 62
7
  6
CONTINUOUS
 10
364.1513903428
 20
30.9134032852
 11
362.9951404531
 21
30.8811389819
 12
363.6888904531
 22
30.9456661188
 13
363.6888904531
 23
30.9456661188
  0
SOLID
  8
0
 62
7
  6
CONTINUOUS
 10
362.9951404531
 20
30.8811389819
 11
363.3420154531
 21
30.9456661188
 12
363.6888904531
 22
30.9456661188
 13
363.6888904531
 23
30.9456661188
  0
SOLID
  8
0
 62
7
  6
CONTINUOUS
 10
362.9951404531
 20
30.8811389819
 11
364.1513903428
 21
30.9134032852
 12
363.1107656736
 22
30.8488747093
 13
363.1107656736
 23
30.8488747093
  0
SOLID
  8
0
 62
7
  6
CONTINUOUS
 10
364.1513903428
 20
30.9134032852
 11
363.9779528428
 21
30.8488747093
 12
363.1107656736
 22
30.8488747093
 13
363.1107656736
 23
30.8488747093
  0
SOLID
  8
0
 62
7
  6
CONTINUOUS
 10
363.3420154531
 20
30.816611874
 11
363.1107656736
 21
30.8488747093
 12
363.9779528428
 22
30.8488747093
 13
363.9779528428
 23
30.8488747093
  0
SOLID
  8
0
 62
7
  6
CONTINUOUS
 10
363.9779528428
 20
30.8488747093
 11
363.6888904531
 21
30.816611874
 12
363.3420154531
 22
30.816611874
 13
363.3420154531
 23
30.816611874
  0
SOLID
  8
0
 62
7
  6
CONTINUOUS
 10
368.3717032839
 20
30.9779303754
 11
368.0248282839
 21
30.9456661188
 12
368.2560780634
 22
31.0101931623
 13
368.2560780634
 23
31.0101931623
  0
SOLID
  8
0
 62
7
  6
CONTINUOUS
 10
368.2560780634
 20
31.0101931623
 11
368.0248282839
 21
30.9456661188
 12
368.1982657839
 22
31.0747202992
 13
368.1982657839
 23
31.0747202992
  0
SOLID
  8
0
 62
7
  6
CONTINUOUS
 10
368.0248282839
 20
30.9456661188
 11
367.9092030634
 21
31.0747202992
 12
368.1982657839
 22
31.0747202992
 13
368.1982657839
 23
31.0747202992
  0
SOLID
  8
0
 62
7
  6
CONTINUOUS
 10
368.3717032839
 20
30.9779303754
 11
368.7185782839
 21
30.9456661188
 12
368.0248282839
 22
30.9456661188
 13
368.0248282839
 23
30.9456661188
  0
SOLID
  8
0
 62
7
  6
CONTINUOUS
 10
365.0763907839
 20
30.8166118918
 11
365.0763907839
 21
31.8490498836
 12
365.3654528428
 22
30.8166118918
 13
365.3654528428
 23
31.8490498836
  0
ENDBLK
  8
0
  6
BYBLOCK
 62
0
  0
BLOCK
  8
0
 62
2
  6
CONTINUOUS
  2
SYMBOL_0_BL0
 70
64
 10
241.0379982417
 20
19.661173918
  0
TEXT
  8
0
 62
7
  6
CONTINUOUS
 10
227.3106676351
 20
19.0524287129
  7
TEXTSTYLE_3
 40
2.7338706658
  1
Ammeraal Beltech
 41
1.0
 51
15.0
 72
0
  0
TEXT
  8
0
 62
7
  6
CONTINUOUS
 10
238.1114684608
 20
16.7788920401
  7
TEXTSTYLE_4
 40
1.0935482663
  1
Innovation & Service in Belting
 41
1.0
 72
0
  0
LINE
  8
0
 62
7
  6
CONTINUOUS
 10
221.2861269837
 20
19.8190220215
 11
222.0642789771
 21
23.4799393191
  0
LINE
  8
0
 62
7
  6
CONTINUOUS
 10
232.1594472669
 20
27.1433332308
 11
222.5520967201
 21
24.0217158095
  0
LINE
  8
0
 62
7
  6
CONTINUOUS
 10
221.511410316
 20
19.1256712184
 11
229.0184855772
 21
12.3662702925
  0
LINE
  8
0
 62
7
  6
CONTINUOUS
 10
221.7739447268
 20
20.3607985118
 11
232.5822140919
 21
23.8726181108
  0
LINE
  8
0
 62
7
  6
CONTINUOUS
 10
232.5780089548
 20
13.522829547
 11
224.132549286
 21
21.1271555887
  0
LINE
  8
0
 62
7
  6
CONTINUOUS
 10
233.0978316746
 20
26.298408115
 11
232.1212721373
 21
21.7040567125
  0
LINE
  8
0
 62
7
  6
CONTINUOUS
 10
231.4214701896
 20
18.4117473987
 11
230.7350219782
 21
15.1822624744
  0
LINE
  8
0
 62
7
  6
CONTINUOUS
 10
233.7789277731
 20
13.9130317247
 11
234.7351593087
 21
18.4117473987
  0
LINE
  8
0
 62
7
  6
CONTINUOUS
 10
235.4349612564
 20
21.7040567125
 11
235.8792030588
 21
23.7940500719
  0
LINE
  8
0
 62
7
  6
CONTINUOUS
 10
229.7315866525
 20
12.2146959798
 11
233.2911100301
 21
13.3712552343
  0
LINE
  8
0
 62
7
  6
CONTINUOUS
 10
232.8725483422
 20
26.9917589181
 11
235.6539197265
 21
24.487400875
  0
ARC
  8
0
 62
7
  6
CONTINUOUS
 10
222.7773800524
 20
23.3283650064
 40
0.7290321776
 50
108.0
 51
168.0
  0
ARC
  8
0
 62
7
  6
CONTINUOUS
 10
232.3847305992
 20
26.4499824277
 40
0.7290321776
 50
348.0
 51
108.0
  0
ARC
  8
0
 62
7
  6
CONTINUOUS
 10
235.1661019835
 20
23.9456243846
 40
0.7290321776
 50
348.0
 51
48.0
  0
ARC
  8
0
 62
7
  6
CONTINUOUS
 10
229.5063033202
 20
12.9080467828
 40
0.7290321776
 50
228.0
 51
288.0
  0
ARC
  8
0
 62
7
  6
CONTINUOUS
 10
221.9992280591
 20
19.6674477088
 40
0.7290321776
 50
108.0
 51
228.0
  0
ARC
  8
0
 62
7
  6
CONTINUOUS
 10
233.0658266978
 20
14.0646060374
 40
0.7290321776
 50
228.0
 51
348.0
  0
ENDBLK
  8
0
  6
BYBLOCK
 62
0
  0
ENDSEC
  0
SECTION
  2
ENTITIES
  0
TEXT
  8
0
 62
5
  6
CONTINUOUS
 10
304.937007874
 20
25.636
  7
TEXTSTYLE_2
 40
2.8
  1
Scale :
 41
0.6
 51
0.000019
 72
0
  0
TEXT
  8
0
 62
5
  6
CONTINUOUS
 10
324.937007874
 20
25.636
  7
TEXTSTYLE_2
 40
2.8
  1
Chain type:
 41
0.6
 51
0.000019
 72
0
  0
INSERT
  8
0
 62
2
  6
CONTINUOUS
  2
SYMBOL_0_BL0
 10
241.0379982417
 20
19.661173918
  0
INSERT
  8
0
 62
2
  6
CONTINUOUS
  2
SYMBOL_5_BL1
 10
382.3920721743
 20
35.7654615278
  0
LINE
  8
0
 62
2
  6
CONTINUOUS
 10
218.937007874
 20
30.0
 11
408.937007874
 21
30.0
  0
LINE
  8
0
 62
2
  6
CONTINUOUS
 10
218.937007874
 20
30.0
 11
218.937007874
 21
10.0
  0
LINE
  8
0
 62
2
  6
CONTINUOUS
 10
218.937007874
 20
10.0
 11
408.937007874
 21
10.0
  0
LINE
  8
0
 62
2
  6
CONTINUOUS
 10
303.937007874
 20
30.0
 11
303.937007874
 21
10.0
  0
LINE
  8
0
 62
2
  6
CONTINUOUS
 10
323.937007874
 20
30.0
 11
323.937007874
 21
10.0
  0
LINE
  8
0
 62
2
  6
CONTINUOUS
 10
408.937007874
 20
30.0
 11
408.937007874
 21
10.0
  0
TEXT
  8
0
 62
5
  6
CONTINUOUS
 10
221.937007874
 20
23.303
  7
TEXTSTYLE_5
 40
1.52
  1
                                                                     Ammeraal Beltech Modular A/S
 41
1.0
 72
0
  0
TEXT
  8
0
 62
5
  6
CONTINUOUS
 10
221.937007874
 20
20.595
  7
TEXTSTYLE_5
 40
1.5
  1
                                                                      Hjulmagervej 21, 7100 Vejle,  DK
 41
1.0
 72
0
  0
TEXT
  8
0
 62
5
  6
CONTINUOUS
 10
221.937007874
 20
17.881
  7
TEXTSTYLE_5
 40
1.495
  1
                                                                      tel: 
 41
1.0
 72
0
  0
TEXT
  8
0
 62
5
  6
CONTINUOUS
 10
266.9239544389
 20
17.881
  7
TEXTSTYLE_5
 40
1.51
  1
+45 75723100     fax: +45 75723348
 41
1.0
 72
0
  0
TEXT
  8
0
 62
5
  6
CONTINUOUS
 10
221.937007874
 20
15.177
  7
TEXTSTYLE_5
 40
1.5
  1
                                                                      admin@unichains.dk  www.unichains.com
 41
1.0
 72
0
  0
TEXT
  8
0
 62
5
  6
CONTINUOUS
 10
308.687007874
 20
13.75
  7
TEXTSTYLE_6
 40
5.0
  1
1:1
 41
0.7
 72
1
 11
313.937007874
 21
13.75
  0
TEXT
  8
0
 62
5
  6
CONTINUOUS
 10
326.937007874
 20
13.75
  7
TEXTSTYLE_7
 40
7.5
  1
uni 440 TAB-K750
 41
0.6885416667
 72
0
  0
LINE
  8
0
 62
7
  6
CONTINUOUS
 10
0.0
 20
0.0
 11
0.0
 21
297.0
  0
LINE
  8
0
 62
7
  6
CONTINUOUS
 10
8.937007874
 20
10.0
 11
8.937007874
 21
287.0
  0
LINE
  8
0
 62
7
  6
CONTINUOUS
 10
0.0
 20
0.0
 11
420.0
 21
0.0
  0
LINE
  8
0
 62
7
  6
CONTINUOUS
 10
408.937007874
 20
10.0
 11
8.937007874
 21
10.0
  0
LINE
  8
0
 62
7
  6
CONTINUOUS
 10
218.937007874
 20
30.0
 11
408.937007874
 21
30.0
  0
LINE
  8
0
 62
7
  6
CONTINUOUS
 10
210.0
 20
297.0
 11
210.0
 21
292.0
  0
LINE
  8
0
 62
7
  6
CONTINUOUS
 10
210.0
 20
0.0
 11
210.0
 21
5.0
  0
LINE
  8
0
 62
7
  6
CONTINUOUS
 10
8.937007874
 20
287.0
 11
408.937007874
 21
287.0
  0
LINE
  8
0
 62
7
  6
CONTINUOUS
 10
0.0
 20
297.0
 11
420.0
 21
297.0
  0
LINE
  8
0
 62
7
  6
CONTINUOUS
 10
408.937007874
 20
287.0
 11
408.937007874
 21
10.0
  0
LINE
  8
0
 62
7
  6
CONTINUOUS
 10
420.0
 20
0.0
 11
420.0
 21
297.0
  0
LINE
  8
2_FEATURE
 62
7
  6
CONTINUOUS
 10
41.7448770492
 20
227.4797551545
 11
41.7448770492
 21
231.1551231799
  0
POLYLINE
  8
2_FEATURE
 62
7
  6
CONTINUOUS
 66
1
 70
0
  0
VERTEX
  8
2_FEATURE
 62
7
  6
CONTINUOUS
 10
41.7448770492
 20
230.5459994208
  0
VERTEX
  8
2_FEATURE
 62
7
  6
CONTINUOUS
 10
41.7657785157
 20
230.6509993148
  0
VERTEX
  8
2_FEATURE
 62
7
  6
CONTINUOUS
 10
41.8255279774
 20
230.7405145757
  0
VERTEX
  8
2_FEATURE
 62
7
  6
CONTINUOUS
 10
41.9201560421
 20
230.8146401537
  0
VERTEX
  8
2_FEATURE
 62
7
  6
CONTINUOUS
 10
42.0440847467
 20
230.872952627
  0
VERTEX
  8
2_FEATURE
 62
7
  6
CONTINUOUS
 10
42.1929322859
 20
230.9163746322
  0
VERTEX
  8
2_FEATURE
 62
7
  6
CONTINUOUS
 10
42.3595530964
 20
230.9451231799
  0
SEQEND
  0
LINE
  8
2_FEATURE
 62
7
  6
CONTINUOUS
 10
42.3595530964
 20
230.9451231799
 11
42.3595530964
 21
230.9551231833
  0
LINE
  8
2_FEATURE
 62
7
  6
CONTINUOUS
 10
41.7466710621
 20
227.4782517073
 11
41.7448770492
 21
227.4797551545
  0
LINE
  8
2_FEATURE
 62
7
  6
CONTINUOUS
 10
109.4948770492
 20
212.0551231799
 11
109.4948770492
 21
215.0551231799
  0
LINE
  8
2_FEATURE
 62
7
  6
CONTINUOUS
 10
115.5448770492
 20
227.2751231799
 11
115.5448770492
 21
216.0004921817
  0
LINE
  8
2_FEATURE
 62
7
  6
CONTINUOUS
 10
121.4948770492
 20
215.7551231799
 11
121.4948770492
 21
212.0551231799
  0
LINE
  8
2_FEATURE
 62
7
  6
CONTINUOUS
 10
124.4198770492
 20
216.9551231799
 11
124.4198770492
 21
230.9551231799
  0
LINE
  8
2_FEATURE
 62
7
  6
CONTINUOUS
 10
120.9948770492
 20
211.5551231799
 11
109.9948770492
 21
211.5551231799
  0
LINE
  8
2_FEATURE
 62
7
  6
CONTINUOUS
 10
152.9948770492
 20
211.5551231799
 11
163.9948770492
 21
211.5551231799
  0
LINE
  8
2_FEATURE
 62
7
  6
CONTINUOUS
 10
115.0448770492
 20
215.5551231799
 11
109.9948770492
 21
215.5551231799
  0
LINE
  8
2_FEATURE
 62
7
  6
CONTINUOUS
 10
158.9448770492
 20
215.5551231799
 11
163.9948770492
 21
215.5551231799
  0
LINE
  8
DEFAULT_1
 62
2
  6
CENTER
 10
136.9948770492
 20
245.5174180328
 11
136.9948770492
 21
225.9552231799
  0
LINE
  8
0
 62
2
  6
CONTINUOUS
 10
136.9948770492
 20
225.0051231799
 11
136.9948770492
 21
222.9051231799
  0
LINE
  8
2_FEATURE
 62
7
  6
CONTINUOUS
 10
136.9948770492
 20
223.9551231799
 11
136.9948770492
 21
220.2890633425
  0
LINE
  8
DEFAULT_1
 62
2
  6
CENTER
 10
136.9948770492
 20
200.2038934426
 11
136.9948770492
 21
221.9550231799
  0
POLYLINE
  8
2_FEATURE
 62
7
  6
CONTINUOUS
 66
1
 70
0
  0
VERTEX
  8
2_FEATURE
 62
7
  6
CONTINUOUS
 10
124.6360746958
 20
220.2451231799
  0
VERTEX
  8
2_FEATURE
 62
7
  6
CONTINUOUS
 10
124.7429579576
 20
220.3084050362
  0
VERTEX
  8
2_FEATURE
 62
7
  6
CONTINUOUS
 10
124.8461678103
 20
220.4960245381
  0
VERTEX
  8
2_FEATURE
 62
7
  6
CONTINUOUS
 10
124.9421921502
 20
220.8014967322
  0
VERTEX
  8
2_FEATURE
 62
7
  6
CONTINUOUS
 10
125.0277649198
 20
221.2143295141
  0
VERTEX
  8
2_FEATURE
 62
7
  6
CONTINUOUS
 10
125.099979606
 20
221.7203851514
  0
VERTEX
  8
2_FEATURE
 62
7
  6
CONTINUOUS
 10
125.1563891819
 20
222.3023819549
  0
VERTEX
  8
2_FEATURE
 62
7
  6
CONTINUOUS
 10
125.1950869138
 20
222.9404980436
  0
VERTEX
  8
2_FEATURE
 62
7
  6
CONTINUOUS
 10
125.2147673359
 20
223.6130463896
  0
VERTEX
  8
2_FEATURE
 62
7
  6
CONTINUOUS
 10
125.2147673359
 20
224.2971999701
  0
VERTEX
  8
2_FEATURE
 62
7
  6
CONTINUOUS
 10
125.1950869138
 20
224.9697483161
  0
VERTEX
  8
2_FEATURE
 62
7
  6
CONTINUOUS
 10
125.1563891819
 20
225.6078644048
  0
VERTEX
  8
2_FEATURE
 62
7
  6
CONTINUOUS
 10
125.099979606
 20
226.1898612083
  0
VERTEX
  8
2_FEATURE
 62
7
  6
CONTINUOUS
 10
125.0277649198
 20
226.6959168456
  0
VERTEX
  8
2_FEATURE
 62
7
  6
CONTINUOUS
 10
124.9421921502
 20
227.1087496276
  0
VERTEX
  8
2_FEATURE
 62
7
  6
CONTINUOUS
 10
124.8461678103
 20
227.4142218216
  0
VERTEX
  8
2_FEATURE
 62
7
  6
CONTINUOUS
 10
124.7429579576
 20
227.6018413235
  0
VERTEX
  8
2_FEATURE
 62
7
  6
CONTINUOUS
 10
124.6360746958
 20
227.6651231799
  0
SEQEND
  0
POLYLINE
  8
2_FEATURE
 62
7
  6
CONTINUOUS
 66
1
 70
0
  0
VERTEX
  8
2_FEATURE
 62
7
  6
CONTINUOUS
 10
130.0311144732
 20
216.460496972
  0
VERTEX
  8
2_FEATURE
 62
7
  6
CONTINUOUS
 10
130.188673017
 20
216.4676195344
  0
VERTEX
  8
2_FEATURE
 62
7
  6
CONTINUOUS
 10
130.2269580889
 20
216.469136433
  0
VERTEX
  8
2_FEATURE
 62
7
  6
CONTINUOUS
 10
130.3035286048
 20
216.4715324001
  0
VERTEX
  8
2_FEATURE
 62
7
  6
CONTINUOUS
 10
130.3801717457
 20
216.4728280055
  0
VERTEX
  8
2_FEATURE
 62
7
  6
CONTINUOUS
 10
130.4571182693
 20
216.4728490164
  0
VERTEX
  8
2_FEATURE
 62
7
  6
CONTINUOUS
 10
130.4925014116
 20
216.4724211962
  0
SEQEND
  0
LINE
  8
2_FEATURE
 62
7
  6
CONTINUOUS
 10
143.5730569647
 20
216.473002029
 11
143.4156774323
 21
216.4718084063
  0
POLYLINE
  8
2_FEATURE
 62
7
  6
CONTINUOUS
 66
1
 70
0
  0
VERTEX
  8
2_FEATURE
 62
7
  6
CONTINUOUS
 10
129.828130524
 20
216.4551231661
  0
VERTEX
  8
2_FEATURE
 62
7
  6
CONTINUOUS
 10
129.8607646306
 20
216.4553030585
  0
VERTEX
  8
2_FEATURE
 62
7
  6
CONTINUOUS
 10
129.9462471077
 20
216.457206086
  0
VERTEX
  8
2_FEATURE
 62
7
  6
CONTINUOUS
 10
130.0311144732
 20
216.460496972
  0
SEQEND
  0
LINE
  8
2_FEATURE
 62
7
  6
CONTINUOUS
 10
122.1948770492
 20
216.4551231799
 11
129.8280253571
 21
216.4551231799
  0
LINE
  8
2_FEATURE
 62
7
  6
CONTINUOUS
 10
144.1617287413
 20
216.4551231799
 11
151.7948770492
 21
216.4551231799
  0
LINE
  8
2_FEATURE
 62
7
  6
CONTINUOUS
 10
130.5740766661
 20
216.4718084063
 11
143.4156774323
 21
216.4718084063
  0
LINE
  8
2_FEATURE
 62
7
  6
CONTINUOUS
 10
124.6360746958
 20
220.2451231799
 11
124.4198770492
 21
220.2451231799
  0
LINE
  8
2_FEATURE
 62
7
  6
CONTINUOUS
 10
149.3536794026
 20
220.2451231799
 11
149.5698770492
 21
220.2451231799
  0
LINE
  8
2_FEATURE
 62
7
  6
CONTINUOUS
 10
130.4925015051
 20
216.4724212233
 11
130.5740766661
 21
216.4718084063
  0
POLYLINE
  8
2_FEATURE
 62
7
  6
CONTINUOUS
 66
1
 70
0
  0
VERTEX
  8
2_FEATURE
 62
7
  6
CONTINUOUS
 10
143.5730569647
 20
216.473002029
  0
VERTEX
  8
2_FEATURE
 62
7
  6
CONTINUOUS
 10
143.6515885806
 20
216.4722683741
  0
VERTEX
  8
2_FEATURE
 62
7
  6
CONTINUOUS
 10
143.7279491476
 20
216.4703462451
  0
VERTEX
  8
2_FEATURE
 62
7
  6
CONTINUOUS
 10
143.8019899841
 20
216.467581525
  0
SEQEND
  0
POLYLINE
  8
2_FEATURE
 62
7
  6
CONTINUOUS
 66
1
 70
0
  0
VERTEX
  8
2_FEATURE
 62
7
  6
CONTINUOUS
 10
143.8019899841
 20
216.467581525
  0
VERTEX
  8
2_FEATURE
 62
7
  6
CONTINUOUS
 10
143.9470983517
 20
216.4610078746
  0
VERTEX
  8
2_FEATURE
 62
7
  6
CONTINUOUS
 10
144.0203525812
 20
216.4579997013
  0
VERTEX
  8
2_FEATURE
 62
7
  6
CONTINUOUS
 10
144.0948531168
 20
216.4558402538
  0
VERTEX
  8
2_FEATURE
 62
7
  6
CONTINUOUS
 10
144.1616131029
 20
216.4551231665
  0
SEQEND
  0
POLYLINE
  8
2_FEATURE
 62
7
  6
CONTINUOUS
 66
1
 70
0
  0
VERTEX
  8
2_FEATURE
 62
7
  6
CONTINUOUS
 10
136.9948770492
 20
220.2890633425
  0
VERTEX
  8
2_FEATURE
 62
7
  6
CONTINUOUS
 10
136.8807143709
 20
220.3544709662
  0
VERTEX
  8
2_FEATURE
 62
7
  6
CONTINUOUS
 10
136.6554344226
 20
220.5176585531
  0
VERTEX
  8
2_FEATURE
 62
7
  6
CONTINUOUS
 10
136.4378874963
 20
220.7284089923
  0
VERTEX
  8
2_FEATURE
 62
7
  6
CONTINUOUS
 10
136.2318514716
 20
220.9936361133
  0
VERTEX
  8
2_FEATURE
 62
7
  6
CONTINUOUS
 10
136.0404301467
 20
221.3240259853
  0
VERTEX
  8
2_FEATURE
 62
7
  6
CONTINUOUS
 10
135.9521761303
 20
221.5163233027
  0
VERTEX
  8
2_FEATURE
 62
7
  6
CONTINUOUS
 10
135.796438685
 20
221.9544138208
  0
VERTEX
  8
2_FEATURE
 62
7
  6
CONTINUOUS
 10
135.6733644714
 20
222.4630785123
  0
VERTEX
  8
2_FEATURE
 62
7
  6
CONTINUOUS
 10
135.5882784783
 20
223.0337836262
  0
VERTEX
  8
2_FEATURE
 62
7
  6
CONTINUOUS
 10
135.5451571387
 20
223.6436514399
  0
VERTEX
  8
2_FEATURE
 62
7
  6
CONTINUOUS
 10
135.5397523237
 20
223.9551231799
  0
SEQEND
  0
POLYLINE
  8
2_FEATURE
 62
7
  6
CONTINUOUS
 66
1
 70
0
  0
VERTEX
  8
2_FEATURE
 62
7
  6
CONTINUOUS
 10
138.4500017747
 20
223.9551231799
  0
VERTEX
  8
2_FEATURE
 62
7
  6
CONTINUOUS
 10
138.4445954553
 20
223.6436082387
  0
VERTEX
  8
2_FEATURE
 62
7
  6
CONTINUOUS
 10
138.4014684585
 20
223.0337175837
  0
VERTEX
  8
2_FEATURE
 62
7
  6
CONTINUOUS
 10
138.3163773446
 20
222.4630150388
  0
VERTEX
  8
2_FEATURE
 62
7
  6
CONTINUOUS
 10
138.1933169139
 20
221.9544188874
  0
VERTEX
  8
2_FEATURE
 62
7
  6
CONTINUOUS
 10
138.0376145479
 20
221.5164098095
  0
VERTEX
  8
2_FEATURE
 62
7
  6
CONTINUOUS
 10
137.9493603657
 20
221.3240991713
  0
VERTEX
  8
2_FEATURE
 62
7
  6
CONTINUOUS
 10
137.757917747
 20
220.993658548
  0
VERTEX
  8
2_FEATURE
 62
7
  6
CONTINUOUS
 10
137.5519025362
 20
220.7284490311
  0
VERTEX
  8
2_FEATURE
 62
7
  6
CONTINUOUS
 10
137.3343888604
 20
220.517716497
  0
VERTEX
  8
2_FEATURE
 62
7
  6
CONTINUOUS
 10
137.1090731269
 20
220.3544916792
  0
VERTEX
  8
2_FEATURE
 62
7
  6
CONTINUOUS
 10
136.9948770492
 20
220.2890633425
  0
SEQEND
  0
POLYLINE
  8
2_FEATURE
 62
7
  6
CONTINUOUS
 66
1
 70
0
  0
VERTEX
  8
2_FEATURE
 62
7
  6
CONTINUOUS
 10
219.9915597262
 20
227.7238731799
  0
VERTEX
  8
2_FEATURE
 62
7
  6
CONTINUOUS
 10
219.2618406557
 20
227.6835045689
  0
VERTEX
  8
2_FEATURE
 62
7
  6
CONTINUOUS
 10
218.5940707483
 20
227.648942296
  0
VERTEX
  8
2_FEATURE
 62
7
  6
CONTINUOUS
 10
217.9824173483
 20
227.6193709675
  0
SEQEND
  0
POLYLINE
  8
2_FEATURE
 62
7
  6
CONTINUOUS
 66
1
 70
0
  0
VERTEX
  8
2_FEATURE
 62
7
  6
CONTINUOUS
 10
232.2448770492
 20
228.3185897805
  0
VERTEX
  8
2_FEATURE
 62
7
  6
CONTINUOUS
 10
228.353738436
 20
228.1506115163
  0
VERTEX
  8
2_FEATURE
 62
7
  6
CONTINUOUS
 10
224.179490338
 20
227.9497255286
  0
VERTEX
  8
2_FEATURE
 62
7
  6
CONTINUOUS
 10
219.9915597262
 20
227.7238731799
  0
SEQEND
  0
POLYLINE
  8
2_FEATURE
 62
7
  6
CONTINUOUS
 66
1
 70
0
  0
VERTEX
  8
2_FEATURE
 62
7
  6
CONTINUOUS
 10
210.5460450316
 20
227.4751231799
  0
VERTEX
  8
2_FEATURE
 62
7
  6
CONTINUOUS
 10
213.2944497169
 20
227.4922790059
  0
VERTEX
  8
2_FEATURE
 62
7
  6
CONTINUOUS
 10
215.7666965564
 20
227.5401971172
  0
VERTEX
  8
2_FEATURE
 62
7
  6
CONTINUOUS
 10
217.9824173483
 20
227.6193709675
  0
SEQEND
  0
LINE
  8
2_FEATURE
 62
7
  6
CONTINUOUS
 10
138.4500017747
 20
223.9551231799
 11
135.5397523237
 21
223.9551231799
  0
LINE
  8
DEFAULT_1
 62
2
  6
CENTER
 10
36.2981557377
 20
223.9551231799
 11
243.5010245902
 21
223.9551231799
  0
LINE
  8
2_FEATURE
 62
7
  6
CONTINUOUS
 10
210.5460450316
 20
227.4751231799
 11
154.2118300048
 21
227.4751231799
  0
LINE
  8
2_FEATURE
 62
7
  6
CONTINUOUS
 10
119.7779240936
 20
227.4751231799
 11
63.4437090668
 21
227.4751231799
  0
LINE
  8
2_FEATURE
 62
7
  6
CONTINUOUS
 10
41.7473219147
 20
227.478251707
 11
62.9425114826
 21
227.478251707
  0
LINE
  8
2_FEATURE
 62
7
  6
CONTINUOUS
 10
211.0472426158
 20
227.478251707
 11
232.2424321837
 21
227.478251707
  0
LINE
  8
2_FEATURE
 62
7
  6
CONTINUOUS
 10
124.6360746958
 20
227.6651231799
 11
124.4198770492
 21
227.6651231799
  0
LINE
  8
2_FEATURE
 62
7
  6
CONTINUOUS
 10
149.3536794026
 20
227.6651231799
 11
149.5698770492
 21
227.6651231799
  0
LINE
  8
2_FEATURE
 62
7
  6
CONTINUOUS
 10
53.19916937
 20
227.7669640737
 11
41.7448770492
 21
227.7669640737
  0
LINE
  8
2_FEATURE
 62
7
  6
CONTINUOUS
 10
220.7905847283
 20
227.7669640737
 11
232.2448770492
 21
227.7669640737
  0
POLYLINE
  8
2_FEATURE
 62
7
  6
CONTINUOUS
 66
1
 70
0
  0
VERTEX
  8
2_FEATURE
 62
7
  6
CONTINUOUS
 10
63.4437090668
 20
227.4751231799
  0
VERTEX
  8
2_FEATURE
 62
7
  6
CONTINUOUS
 10
60.6953043815
 20
227.4922790059
  0
VERTEX
  8
2_FEATURE
 62
7
  6
CONTINUOUS
 10
58.223057542
 20
227.5401971172
  0
VERTEX
  8
2_FEATURE
 62
7
  6
CONTINUOUS
 10
56.00733675
 20
227.6193709675
  0
SEQEND
  0
POLYLINE
  8
2_FEATURE
 62
7
  6
CONTINUOUS
 66
1
 70
0
  0
VERTEX
  8
2_FEATURE
 62
7
  6
CONTINUOUS
 10
41.7448770492
 20
228.3185897805
  0
VERTEX
  8
2_FEATURE
 62
7
  6
CONTINUOUS
 10
45.6360156624
 20
228.1506115163
  0
VERTEX
  8
2_FEATURE
 62
7
  6
CONTINUOUS
 10
49.8102637604
 20
227.9497255286
  0
VERTEX
  8
2_FEATURE
 62
7
  6
CONTINUOUS
 10
53.9981943722
 20
227.7238731799
  0
SEQEND
  0
POLYLINE
  8
2_FEATURE
 62
7
  6
CONTINUOUS
 66
1
 70
0
  0
VERTEX
  8
2_FEATURE
 62
7
  6
CONTINUOUS
 10
53.9981943722
 20
227.7238731799
  0
VERTEX
  8
2_FEATURE
 62
7
  6
CONTINUOUS
 10
54.7279134426
 20
227.6835045689
  0
VERTEX
  8
2_FEATURE
 62
7
  6
CONTINUOUS
 10
55.3956833501
 20
227.648942296
  0
VERTEX
  8
2_FEATURE
 62
7
  6
CONTINUOUS
 10
56.00733675
 20
227.6193709675
  0
SEQEND
  0
POLYLINE
  8
2_FEATURE
 62
7
  6
CONTINUOUS
 66
1
 70
0
  0
VERTEX
  8
2_FEATURE
 62
7
  6
CONTINUOUS
 10
149.3536794026
 20
220.2451231799
  0
VERTEX
  8
2_FEATURE
 62
7
  6
CONTINUOUS
 10
149.2467961407
 20
220.3084050362
  0
VERTEX
  8
2_FEATURE
 62
7
  6
CONTINUOUS
 10
149.143586288
 20
220.4960245381
  0
VERTEX
  8
2_FEATURE
 62
7
  6
CONTINUOUS
 10
149.0475619481
 20
220.8014967322
  0
VERTEX
  8
2_FEATURE
 62
7
  6
CONTINUOUS
 10
148.9619891785
 20
221.2143295141
  0
VERTEX
  8
2_FEATURE
 62
7
  6
CONTINUOUS
 10
148.8897744924
 20
221.7203851514
  0
VERTEX
  8
2_FEATURE
 62
7
  6
CONTINUOUS
 10
148.8333649165
 20
222.3023819549
  0
VERTEX
  8
2_FEATURE
 62
7
  6
CONTINUOUS
 10
148.7946671845
 20
222.9404980436
  0
VERTEX
  8
2_FEATURE
 62
7
  6
CONTINUOUS
 10
148.7749867625
 20
223.6130463896
  0
VERTEX
  8
2_FEATURE
 62
7
  6
CONTINUOUS
 10
148.7749867625
 20
224.2971999701
  0
VERTEX
  8
2_FEATURE
 62
7
  6
CONTINUOUS
 10
148.7946671845
 20
224.9697483161
  0
VERTEX
  8
2_FEATURE
 62
7
  6
CONTINUOUS
 10
148.8333649165
 20
225.6078644048
  0
VERTEX
  8
2_FEATURE
 62
7
  6
CONTINUOUS
 10
148.8897744924
 20
226.1898612083
  0
VERTEX
  8
2_FEATURE
 62
7
  6
CONTINUOUS
 10
148.9619891785
 20
226.6959168456
  0
VERTEX
  8
2_FEATURE
 62
7
  6
CONTINUOUS
 10
149.0475619481
 20
227.1087496276
  0
VERTEX
  8
2_FEATURE
 62
7
  6
CONTINUOUS
 10
149.143586288
 20
227.4142218216
  0
VERTEX
  8
2_FEATURE
 62
7
  6
CONTINUOUS
 10
149.2467961407
 20
227.6018413235
  0
VERTEX
  8
2_FEATURE
 62
7
  6
CONTINUOUS
 10
149.3536794026
 20
227.6651231799
  0
SEQEND
  0
LINE
  8
2_FEATURE
 62
7
  6
CONTINUOUS
 10
149.5698770492
 20
216.9551231799
 11
149.5698770492
 21
230.9551231799
  0
POLYLINE
  8
2_FEATURE
 62
7
  6
CONTINUOUS
 66
1
 70
0
  0
VERTEX
  8
2_FEATURE
 62
7
  6
CONTINUOUS
 10
149.7510206351
 20
230.9447334459
  0
VERTEX
  8
2_FEATURE
 62
7
  6
CONTINUOUS
 10
149.6973467381
 20
230.9360088076
  0
VERTEX
  8
2_FEATURE
 62
7
  6
CONTINUOUS
 10
149.6516801181
 20
230.9188020289
  0
VERTEX
  8
2_FEATURE
 62
7
  6
CONTINUOUS
 10
149.6156662178
 20
230.8953902795
  0
VERTEX
  8
2_FEATURE
 62
7
  6
CONTINUOUS
 10
149.5899972806
 20
230.8677819649
  0
VERTEX
  8
2_FEATURE
 62
7
  6
CONTINUOUS
 10
149.5748183103
 20
230.8377573781
  0
VERTEX
  8
2_FEATURE
 62
7
  6
CONTINUOUS
 10
149.5698770492
 20
230.80694591
  0
SEQEND
  0
POLYLINE
  8
2_FEATURE
 62
7
  6
CONTINUOUS
 66
1
 70
0
  0
VERTEX
  8
2_FEATURE
 62
7
  6
CONTINUOUS
 10
149.7510206351
 20
230.9447334459
  0
VERTEX
  8
2_FEATURE
 62
7
  6
CONTINUOUS
 10
149.7550196104
 20
230.9449495886
  0
VERTEX
  8
2_FEATURE
 62
7
  6
CONTINUOUS
 10
149.759027285
 20
230.9450794437
  0
VERTEX
  8
2_FEATURE
 62
7
  6
CONTINUOUS
 10
149.7630423342
 20
230.9451231799
  0
SEQEND
  0
LINE
  8
2_FEATURE
 62
7
  6
CONTINUOUS
 10
231.630201002
 20
230.9451231799
 11
149.7630423342
 21
230.9451231799
  0
LINE
  8
2_FEATURE
 62
7
  6
CONTINUOUS
 10
42.3595530964
 20
230.9451231799
 11
124.2267117642
 21
230.9451231799
  0
LINE
  8
2_FEATURE
 62
7
  6
CONTINUOUS
 10
42.0448770492
 20
231.4551231799
 11
231.9448770492
 21
231.4551231799
  0
POLYLINE
  8
2_FEATURE
 62
7
  6
CONTINUOUS
 66
1
 70
0
  0
VERTEX
  8
2_FEATURE
 62
7
  6
CONTINUOUS
 10
124.2387334632
 20
230.9447334459
  0
VERTEX
  8
2_FEATURE
 62
7
  6
CONTINUOUS
 10
124.2347344879
 20
230.9449495886
  0
VERTEX
  8
2_FEATURE
 62
7
  6
CONTINUOUS
 10
124.2307268134
 20
230.9450794437
  0
VERTEX
  8
2_FEATURE
 62
7
  6
CONTINUOUS
 10
124.2267117642
 20
230.9451231799
  0
SEQEND
  0
POLYLINE
  8
2_FEATURE
 62
7
  6
CONTINUOUS
 66
1
 70
0
  0
VERTEX
  8
2_FEATURE
 62
7
  6
CONTINUOUS
 10
124.2387334632
 20
230.9447334459
  0
VERTEX
  8
2_FEATURE
 62
7
  6
CONTINUOUS
 10
124.2924073602
 20
230.9360088076
  0
VERTEX
  8
2_FEATURE
 62
7
  6
CONTINUOUS
 10
124.3380739803
 20
230.9188020289
  0
VERTEX
  8
2_FEATURE
 62
7
  6
CONTINUOUS
 10
124.3740878805
 20
230.8953902795
  0
VERTEX
  8
2_FEATURE
 62
7
  6
CONTINUOUS
 10
124.3997568178
 20
230.8677819649
  0
VERTEX
  8
2_FEATURE
 62
7
  6
CONTINUOUS
 10
124.414935788
 20
230.8377573781
  0
VERTEX
  8
2_FEATURE
 62
7
  6
CONTINUOUS
 10
124.4198770492
 20
230.80694591
  0
SEQEND
  0
LINE
  8
2_FEATURE
 62
7
  6
CONTINUOUS
 10
152.4948770492
 20
215.7551231799
 11
152.4948770492
 21
212.0551231799
  0
LINE
  8
2_FEATURE
 62
7
  6
CONTINUOUS
 10
158.4448770492
 20
227.2751231799
 11
158.4448770492
 21
216.0004921817
  0
LINE
  8
2_FEATURE
 62
7
  6
CONTINUOUS
 10
164.4948770492
 20
212.0551231799
 11
164.4948770492
 21
215.0551231799
  0
LINE
  8
2_FEATURE
 62
7
  6
CONTINUOUS
 10
232.2430830363
 20
227.4782517073
 11
232.2448770492
 21
227.4797551545
  0
LINE
  8
2_FEATURE
 62
7
  6
CONTINUOUS
 10
231.630201002
 20
230.9451231799
 11
231.630201002
 21
230.9551231833
  0
LINE
  8
2_FEATURE
 62
7
  6
CONTINUOUS
 10
232.2448770492
 20
227.4797551545
 11
232.2448770492
 21
231.1551231799
  0
POLYLINE
  8
2_FEATURE
 62
7
  6
CONTINUOUS
 66
1
 70
0
  0
VERTEX
  8
2_FEATURE
 62
7
  6
CONTINUOUS
 10
232.2448770492
 20
230.5459994208
  0
VERTEX
  8
2_FEATURE
 62
7
  6
CONTINUOUS
 10
232.2239755827
 20
230.6509993148
  0
VERTEX
  8
2_FEATURE
 62
7
  6
CONTINUOUS
 10
232.164226121
 20
230.7405145757
  0
VERTEX
  8
2_FEATURE
 62
7
  6
CONTINUOUS
 10
232.0695980563
 20
230.8146401537
  0
VERTEX
  8
2_FEATURE
 62
7
  6
CONTINUOUS
 10
231.9456693516
 20
230.872952627
  0
VERTEX
  8
2_FEATURE
 62
7
  6
CONTINUOUS
 10
231.7968218124
 20
230.9163746322
  0
VERTEX
  8
2_FEATURE
 62
7
  6
CONTINUOUS
 10
231.630201002
 20
230.9451231799
  0
SEQEND
  0
LINE
  8
2_FEATURE
 62
7
  6
CONTINUOUS
 10
41.7448770492
 20
135.4230975196
 11
41.7448770492
 21
144.8736799117
  0
LINE
  8
2_FEATURE
 62
7
  6
CONTINUOUS
 10
115.5448770492
 20
147.6536789148
 11
115.5448770492
 21
145.8736799117
  0
LINE
  8
2_FEATURE
 62
7
  6
CONTINUOUS
 10
123.9198770492
 20
140.5036799117
 11
123.9198770492
 21
136.4336799117
  0
LINE
  8
2_FEATURE
 62
7
  6
CONTINUOUS
 10
124.4198770492
 20
121.9936799117
 11
124.4198770492
 21
126.546927164
  0
LINE
  8
2_FEATURE
 62
7
  6
CONTINUOUS
 10
147.8763168812
 20
113.6036799117
 11
126.1134372171
 21
113.6036799117
  0
LINE
  8
2_FEATURE
 62
7
  6
CONTINUOUS
 10
125.619593047
 20
114.0254626792
 11
124.4814353462
 21
121.2115075865
  0
LINE
  8
DEFAULT_1
 62
2
  6
CENTER
 10
32.8125
 20
121.6036799117
 11
240.0153688525
 21
121.6036799117
  0
POLYLINE
  8
2_FEATURE
 62
7
  6
CONTINUOUS
 66
1
 70
0
  0
VERTEX
  8
2_FEATURE
 62
7
  6
CONTINUOUS
 10
115.5644868756
 20
145.8520636359
  0
VERTEX
  8
2_FEATURE
 62
7
  6
CONTINUOUS
 10
115.6041426926
 20
145.8074344363
  0
VERTEX
  8
2_FEATURE
 62
7
  6
CONTINUOUS
 10
115.6208897982
 20
145.788295265
  0
VERTEX
  8
2_FEATURE
 62
7
  6
CONTINUOUS
 10
115.6391113909
 20
145.7671222359
  0
VERTEX
  8
2_FEATURE
 62
7
  6
CONTINUOUS
 10
115.6586622586
 20
145.7439705189
  0
VERTEX
  8
2_FEATURE
 62
7
  6
CONTINUOUS
 10
115.6794119079
 20
145.7188931374
  0
VERTEX
  8
2_FEATURE
 62
7
  6
CONTINUOUS
 10
115.7012420354
 20
145.6919412957
  0
VERTEX
  8
2_FEATURE
 62
7
  6
CONTINUOUS
 10
115.7240444941
 20
145.6631646571
  0
VERTEX
  8
2_FEATURE
 62
7
  6
CONTINUOUS
 10
115.7357789104
 20
145.6481072038
  0
VERTEX
  8
2_FEATURE
 62
7
  6
CONTINUOUS
 10
115.7598552488
 20
145.6166837856
  0
VERTEX
  8
2_FEATURE
 62
7
  6
CONTINUOUS
 10
115.7846676306
 20
145.583554785
  0
VERTEX
  8
2_FEATURE
 62
7
  6
CONTINUOUS
 10
115.8101318839
 20
145.5487666694
  0
VERTEX
  8
2_FEATURE
 62
7
  6
CONTINUOUS
 10
115.8361682381
 20
145.5123656711
  0
VERTEX
  8
2_FEATURE
 62
7
  6
CONTINUOUS
 10
115.8627005368
 20
145.4743980866
  0
VERTEX
  8
2_FEATURE
 62
7
  6
CONTINUOUS
 10
115.8896556703
 20
145.4349104786
  0
VERTEX
  8
2_FEATURE
 62
7
  6
CONTINUOUS
 10
115.916963035
 20
145.3939501299
  0
VERTEX
  8
2_FEATURE
 62
7
  6
CONTINUOUS
 10
115.9445544235
 20
145.3515654998
  0
VERTEX
  8
2_FEATURE
 62
7
  6
CONTINUOUS
 10
115.9723649701
 20
145.3078071388
  0
VERTEX
  8
2_FEATURE
 62
7
  6
CONTINUOUS
 10
116.0003397356
 20
145.2627307568
  0
VERTEX
  8
2_FEATURE
 62
7
  6
CONTINUOUS
 10
116.0285130891
 20
145.2164275192
  0
VERTEX
  8
2_FEATURE
 62
7
  6
CONTINUOUS
 10
116.0448770492
 20
145.1936799117
  0
SEQEND
  0
POLYLINE
  8
2_FEATURE
 62
7
  6
CONTINUOUS
 66
1
 70
0
  0
VERTEX
  8
2_FEATURE
 62
7
  6
CONTINUOUS
 10
115.5468958741
 20
145.8736799117
  0
VERTEX
  8
2_FEATURE
 62
7
  6
CONTINUOUS
 10
115.5490614851
 20
145.8705417636
  0
VERTEX
  8
2_FEATURE
 62
7
  6
CONTINUOUS
 10
115.5555003009
 20
145.8624721798
  0
VERTEX
  8
2_FEATURE
 62
7
  6
CONTINUOUS
 10
115.5644868756
 20
145.8520636359
  0
SEQEND
  0
LINE
  8
2_FEATURE
 62
7
  6
CONTINUOUS
 10
122.0316262845
 20
147.7914970755
 11
123.7261855289
 21
141.8818666908
  0
LINE
  8
DEFAULT_1
 62
2
  6
CENTER
 10
136.9948770492
 20
106.4784836066
 11
136.9948770492
 21
150.1536799117
  0
LINE
  8
2_FEATURE
 62
7
  6
CONTINUOUS
 10
231.630201002
 20
134.5003161525
 11
149.7510206351
 21
126.7460362689
  0
LINE
  8
2_FEATURE
 62
7
  6
CONTINUOUS
 10
42.3595530964
 20
134.5003161525
 11
124.2387334632
 21
126.7460362689
  0
POLYLINE
  8
2_FEATURE
 62
7
  6
CONTINUOUS
 66
1
 70
0
  0
VERTEX
  8
2_FEATURE
 62
7
  6
CONTINUOUS
 10
158.3856114057
 20
145.8074344363
  0
VERTEX
  8
2_FEATURE
 62
7
  6
CONTINUOUS
 10
158.3688643002
 20
145.788295265
  0
VERTEX
  8
2_FEATURE
 62
7
  6
CONTINUOUS
 10
158.3506427075
 20
145.7671222359
  0
VERTEX
  8
2_FEATURE
 62
7
  6
CONTINUOUS
 10
158.3310918397
 20
145.7439705189
  0
VERTEX
  8
2_FEATURE
 62
7
  6
CONTINUOUS
 10
158.3103421905
 20
145.7188931374
  0
VERTEX
  8
2_FEATURE
 62
7
  6
CONTINUOUS
 10
158.288512063
 20
145.6919412957
  0
VERTEX
  8
2_FEATURE
 62
7
  6
CONTINUOUS
 10
158.2657096043
 20
145.6631646571
  0
VERTEX
  8
2_FEATURE
 62
7
  6
CONTINUOUS
 10
158.2539751879
 20
145.6481072038
  0
VERTEX
  8
2_FEATURE
 62
7
  6
CONTINUOUS
 10
158.2298988495
 20
145.6166837856
  0
VERTEX
  8
2_FEATURE
 62
7
  6
CONTINUOUS
 10
158.2050864678
 20
145.583554785
  0
VERTEX
  8
2_FEATURE
 62
7
  6
CONTINUOUS
 10
158.1796222144
 20
145.5487666694
  0
VERTEX
  8
2_FEATURE
 62
7
  6
CONTINUOUS
 10
158.1535858603
 20
145.5123656711
  0
VERTEX
  8
2_FEATURE
 62
7
  6
CONTINUOUS
 10
158.1270535615
 20
145.4743980866
  0
VERTEX
  8
2_FEATURE
 62
7
  6
CONTINUOUS
 10
158.1000984281
 20
145.4349104786
  0
VERTEX
  8
2_FEATURE
 62
7
  6
CONTINUOUS
 10
158.0727910634
 20
145.3939501299
  0
VERTEX
  8
2_FEATURE
 62
7
  6
CONTINUOUS
 10
158.0451996748
 20
145.3515654998
  0
VERTEX
  8
2_FEATURE
 62
7
  6
CONTINUOUS
 10
158.0173891282
 20
145.3078071388
  0
VERTEX
  8
2_FEATURE
 62
7
  6
CONTINUOUS
 10
157.9894143627
 20
145.2627307568
  0
VERTEX
  8
2_FEATURE
 62
7
  6
CONTINUOUS
 10
157.9612410092
 20
145.2164275192
  0
VERTEX
  8
2_FEATURE
 62
7
  6
CONTINUOUS
 10
157.9448770492
 20
145.1936799117
  0
SEQEND
  0
LINE
  8
2_FEATURE
 62
7
  6
CONTINUOUS
 10
158.4252672228
 20
145.8520636359
 11
158.3856114057
 21
145.8074344363
  0
LINE
  8
2_FEATURE
 62
7
  6
CONTINUOUS
 10
124.4198770492
 20
135.9336799117
 11
149.5698770492
 21
135.9336799117
  0
LINE
  8
2_FEATURE
 62
7
  6
CONTINUOUS
 10
149.5698770492
 20
121.9936799117
 11
149.5698770492
 21
126.546927164
  0
LINE
  8
2_FEATURE
 62
7
  6
CONTINUOUS
 10
150.0698770492
 20
140.5036799117
 11
150.0698770492
 21
136.4336799117
  0
LINE
  8
2_FEATURE
 62
7
  6
CONTINUOUS
 10
150.072655599
 20
140.6703465784
 11
150.0698770492
 21
140.5036799117
  0
LINE
  8
2_FEATURE
 62
7
  6
CONTINUOUS
 10
151.9581278138
 20
147.7914970755
 11
150.2635685695
 21
141.8818666908
  0
POLYLINE
  8
2_FEATURE
 62
7
  6
CONTINUOUS
 66
1
 70
0
  0
VERTEX
  8
2_FEATURE
 62
7
  6
CONTINUOUS
 10
158.4428582243
 20
145.8736799117
  0
VERTEX
  8
2_FEATURE
 62
7
  6
CONTINUOUS
 10
158.4406926132
 20
145.8705417636
  0
VERTEX
  8
2_FEATURE
 62
7
  6
CONTINUOUS
 10
158.4342537975
 20
145.8624721798
  0
VERTEX
  8
2_FEATURE
 62
7
  6
CONTINUOUS
 10
158.4252672228
 20
145.8520636359
  0
SEQEND
  0
LINE
  8
DEFAULT_1
 62
2
  6
CENTER
 10
31.6506147541
 20
140.6906799117
 11
241.5645491803
 21
140.6906799117
  0
LINE
  8
2_FEATURE
 62
7
  6
CONTINUOUS
 10
148.3701610514
 20
114.0254626792
 11
149.5083187522
 21
121.2115075865
  0
LINE
  8
2_FEATURE
 62
7
  6
CONTINUOUS
 10
231.9758595567
 20
145.1936799117
 11
157.9448770492
 21
145.1936799117
  0
LINE
  8
2_FEATURE
 62
7
  6
CONTINUOUS
 10
42.0138945416
 20
145.1936799117
 11
116.0448770492
 21
145.1936799117
  0
LINE
  8
2_FEATURE
 62
7
  6
CONTINUOUS
 10
115.5468958741
 20
145.8736799117
 11
42.744877055
 21
145.8736799117
  0
LINE
  8
2_FEATURE
 62
7
  6
CONTINUOUS
 10
158.4428582243
 20
145.8736799117
 11
231.2448770434
 21
145.8736799117
  0
LINE
  8
2_FEATURE
 62
7
  6
CONTINUOUS
 10
157.9448770492
 20
148.1536799117
 11
152.4378109712
 21
148.1536799117
  0
LINE
  8
2_FEATURE
 62
7
  6
CONTINUOUS
 10
121.5519431272
 20
148.1536799117
 11
116.0448770492
 21
148.1536799117
  0
LINE
  8
2_FEATURE
 62
7
  6
CONTINUOUS
 10
158.4448770492
 20
147.6536789148
 11
158.4448770492
 21
145.8736799117
  0
LINE
  8
2_FEATURE
 62
7
  6
CONTINUOUS
 10
232.2448770492
 20
135.4230975196
 11
232.2448770492
 21
144.8736799117
  0
LINE
  8
2_FEATURE
 62
7
  6
CONTINUOUS
 10
327.9137297372
 20
142.2991281789
 11
336.3137297372
 21
147.1488704401
  0
POLYLINE
  8
2_FEATURE
 62
7
  6
CONTINUOUS
 66
1
 70
0
  0
VERTEX
  8
2_FEATURE
 62
7
  6
CONTINUOUS
 10
327.6637297372
 20
131.8424244992
  0
VERTEX
  8
2_FEATURE
 62
7
  6
CONTINUOUS
 10
327.666445944
 20
131.7903780873
  0
VERTEX
  8
2_FEATURE
 62
7
  6
CONTINUOUS
 10
327.6879968016
 20
131.68854736
  0
VERTEX
  8
2_FEATURE
 62
7
  6
CONTINUOUS
 10
327.7303840949
 20
131.5930020578
  0
VERTEX
  8
2_FEATURE
 62
7
  6
CONTINUOUS
 10
327.7922312036
 20
131.5077771632
  0
VERTEX
  8
2_FEATURE
 62
7
  6
CONTINUOUS
 10
327.8297712636
 20
131.4703065906
  0
VERTEX
  8
2_FEATURE
 62
7
  6
CONTINUOUS
 10
327.9162476205
 20
131.4079678249
  0
VERTEX
  8
2_FEATURE
 62
7
  6
CONTINUOUS
 10
328.0147531014
 20
131.365134271
  0
VERTEX
  8
2_FEATURE
 62
7
  6
CONTINUOUS
 10
328.1206880374
 20
131.344280532
  0
VERTEX
  8
2_FEATURE
 62
7
  6
CONTINUOUS
 10
328.1637297372
 20
131.3424245004
  0
SEQEND
  0
LINE
  8
2_FEATURE
 62
7
  6
CONTINUOUS
 10
327.6637297372
 20
131.8424244992
 11
327.6637297372
 21
141.866115477
  0
LINE
  8
DEFAULT_1
 62
2
  6
CENTER
 10
356.9784836066
 20
121.6036799117
 11
342.0638297372
 21
121.6036799117
  0
LINE
  8
0
 62
2
  6
CONTINUOUS
 10
341.1137297372
 20
121.6036799117
 11
339.0137297372
 21
121.6036799117
  0
LINE
  8
DEFAULT_1
 62
2
  6
CENTER
 10
320.9600409836
 20
121.6036799117
 11
338.0636297372
 21
121.6036799117
  0
POLYLINE
  8
2_FEATURE
 62
7
  6
CONTINUOUS
 66
1
 70
0
  0
VERTEX
  8
2_FEATURE
 62
7
  6
CONTINUOUS
 10
331.6627129773
 20
140.1258976055
  0
VERTEX
  8
2_FEATURE
 62
7
  6
CONTINUOUS
 10
331.6632779741
 20
140.1043050854
  0
VERTEX
  8
2_FEATURE
 62
7
  6
CONTINUOUS
 10
331.6636168228
 20
140.0827157199
  0
VERTEX
  8
2_FEATURE
 62
7
  6
CONTINUOUS
 10
331.6637297372
 20
140.0611295543
  0
SEQEND
  0
LINE
  8
2_FEATURE
 62
7
  6
CONTINUOUS
 10
331.6637297372
 20
140.0611295543
 11
331.6637297372
 21
134.6406469335
  0
LINE
  8
2_FEATURE
 62
7
  6
CONTINUOUS
 10
343.7257156932
 20
144.0211992193
 11
343.8755706311
 21
144.1536799117
  0
LINE
  8
2_FEATURE
 62
7
  6
CONTINUOUS
 10
332.5637297372
 20
131.287428555
 11
332.5637297372
 21
121.1036799117
  0
POLYLINE
  8
2_FEATURE
 62
7
  6
CONTINUOUS
 66
1
 70
0
  0
VERTEX
  8
2_FEATURE
 62
7
  6
CONTINUOUS
 10
336.3537297372
 20
120.2351531587
  0
VERTEX
  8
2_FEATURE
 62
7
  6
CONTINUOUS
 10
336.4170115936
 20
119.5603188025
  0
VERTEX
  8
2_FEATURE
 62
7
  6
CONTINUOUS
 10
336.6046310955
 20
118.9086774388
  0
VERTEX
  8
2_FEATURE
 62
7
  6
CONTINUOUS
 10
336.9101032895
 20
118.3024036172
  0
VERTEX
  8
2_FEATURE
 62
7
  6
CONTINUOUS
 10
337.3229360715
 20
117.7621184135
  0
VERTEX
  8
2_FEATURE
 62
7
  6
CONTINUOUS
 10
337.8289917088
 20
117.3061728293
  0
VERTEX
  8
2_FEATURE
 62
7
  6
CONTINUOUS
 10
338.4109885123
 20
116.9500167843
  0
VERTEX
  8
2_FEATURE
 62
7
  6
CONTINUOUS
 10
339.049104601
 20
116.7056889204
  0
VERTEX
  8
2_FEATURE
 62
7
  6
CONTINUOUS
 10
339.721652947
 20
116.5814316257
  0
VERTEX
  8
2_FEATURE
 62
7
  6
CONTINUOUS
 10
340.4058065275
 20
116.5814316257
  0
VERTEX
  8
2_FEATURE
 62
7
  6
CONTINUOUS
 10
341.0783548734
 20
116.7056889204
  0
VERTEX
  8
2_FEATURE
 62
7
  6
CONTINUOUS
 10
341.7164709622
 20
116.9500167843
  0
VERTEX
  8
2_FEATURE
 62
7
  6
CONTINUOUS
 10
342.2984677657
 20
117.3061728293
  0
VERTEX
  8
2_FEATURE
 62
7
  6
CONTINUOUS
 10
342.804523403
 20
117.7621184135
  0
VERTEX
  8
2_FEATURE
 62
7
  6
CONTINUOUS
 10
343.2173561849
 20
118.3024036172
  0
VERTEX
  8
2_FEATURE
 62
7
  6
CONTINUOUS
 10
343.5228283789
 20
118.9086774388
  0
VERTEX
  8
2_FEATURE
 62
7
  6
CONTINUOUS
 10
343.7104478809
 20
119.5603188025
  0
VERTEX
  8
2_FEATURE
 62
7
  6
CONTINUOUS
 10
343.7737297372
 20
120.2351531587
  0
SEQEND
  0
LINE
  8
2_FEATURE
 62
7
  6
CONTINUOUS
 10
336.3843953949
 20
121.0554696095
 11
336.3537297372
 21
121.5341156289
  0
LINE
  8
2_FEATURE
 62
7
  6
CONTINUOUS
 10
336.3537297372
 20
120.2351531587
 11
336.3537297372
 21
122.7796782583
  0
POLYLINE
  8
2_FEATURE
 62
7
  6
CONTINUOUS
 66
1
 70
0
  0
VERTEX
  8
2_FEATURE
 62
7
  6
CONTINUOUS
 10
336.3537297372
 20
121.6795083144
  0
VERTEX
  8
2_FEATURE
 62
7
  6
CONTINUOUS
 10
336.3843320615
 20
122.1568589442
  0
VERTEX
  8
2_FEATURE
 62
7
  6
CONTINUOUS
 10
336.4756155333
 20
122.6262634086
  0
VERTEX
  8
2_FEATURE
 62
7
  6
CONTINUOUS
 10
336.6260213334
 20
123.0799218711
  0
VERTEX
  8
2_FEATURE
 62
7
  6
CONTINUOUS
 10
336.8329897619
 20
123.5103224804
  0
VERTEX
  8
2_FEATURE
 62
7
  6
CONTINUOUS
 10
337.0930155461
 20
123.910373906
  0
VERTEX
  8
2_FEATURE
 62
7
  6
CONTINUOUS
 10
337.4017210326
 20
124.2735251589
  0
VERTEX
  8
2_FEATURE
 62
7
  6
CONTINUOUS
 10
337.7539439323
 20
124.5938705543
  0
VERTEX
  8
2_FEATURE
 62
7
  6
CONTINUOUS
 10
338.1438357058
 20
124.8662382091
  0
VERTEX
  8
2_FEATURE
 62
7
  6
CONTINUOUS
 10
338.5649669848
 20
125.0862619888
  0
VERTEX
  8
2_FEATURE
 62
7
  6
CONTINUOUS
 10
339.0104370314
 20
125.2504377065
  0
VERTEX
  8
2_FEATURE
 62
7
  6
CONTINUOUS
 10
339.4729849605
 20
125.3561648817
  0
VERTEX
  8
2_FEATURE
 62
7
  6
CONTINUOUS
 10
339.9451010658
 20
125.4017755815
  0
VERTEX
  8
2_FEATURE
 62
7
  6
CONTINUOUS
 10
340.1823596476
 20
125.4017755417
  0
VERTEX
  8
2_FEATURE
 62
7
  6
CONTINUOUS
 10
340.6544757073
 20
125.3561646885
  0
VERTEX
  8
2_FEATURE
 62
7
  6
CONTINUOUS
 10
341.1170235349
 20
125.250437382
  0
VERTEX
  8
2_FEATURE
 62
7
  6
CONTINUOUS
 10
341.5624934358
 20
125.0862615694
  0
VERTEX
  8
2_FEATURE
 62
7
  6
CONTINUOUS
 10
341.983624541
 20
124.8662377402
  0
VERTEX
  8
2_FEATURE
 62
7
  6
CONTINUOUS
 10
342.3735161316
 20
124.5938700836
  0
VERTEX
  8
2_FEATURE
 62
7
  6
CONTINUOUS
 10
342.7257388562
 20
124.2735247305
  0
VERTEX
  8
2_FEATURE
 62
7
  6
CONTINUOUS
 10
343.0344441911
 20
123.9103735535
  0
VERTEX
  8
2_FEATURE
 62
7
  6
CONTINUOUS
 10
343.2944698573
 20
123.5103222229
  0
VERTEX
  8
2_FEATURE
 62
7
  6
CONTINUOUS
 10
343.5014382057
 20
123.0799217111
  0
VERTEX
  8
2_FEATURE
 62
7
  6
CONTINUOUS
 10
343.6518439611
 20
122.6262633324
  0
VERTEX
  8
2_FEATURE
 62
7
  6
CONTINUOUS
 10
343.7431274155
 20
122.1568589245
  0
SEQEND
  0
POLYLINE
  8
2_FEATURE
 62
7
  6
CONTINUOUS
 66
1
 70
0
  0
VERTEX
  8
2_FEATURE
 62
7
  6
CONTINUOUS
 10
342.5893767621
 20
142.9736799117
  0
VERTEX
  8
2_FEATURE
 62
7
  6
CONTINUOUS
 10
342.5621187701
 20
142.878171156
  0
VERTEX
  8
2_FEATURE
 62
7
  6
CONTINUOUS
 10
342.5353412691
 20
142.7857372678
  0
SEQEND
  0
LINE
  8
2_FEATURE
 62
7
  6
CONTINUOUS
 10
342.5353412691
 20
142.7857372678
 11
342.4874388772
 21
142.6238216252
  0
LINE
  8
2_FEATURE
 62
7
  6
CONTINUOUS
 10
342.4874388772
 20
142.6238216252
 11
342.4539736516
 21
142.5133235353
  0
LINE
  8
2_FEATURE
 62
7
  6
CONTINUOUS
 10
342.4539736516
 20
142.5133235353
 11
342.4418055649
 21
142.4736799117
  0
LINE
  8
2_FEATURE
 62
7
  6
CONTINUOUS
 10
328.1637297372
 20
131.3424244992
 11
331.8637297372
 21
131.3424244992
  0
POLYLINE
  8
2_FEATURE
 62
7
  6
CONTINUOUS
 66
1
 70
0
  0
VERTEX
  8
2_FEATURE
 62
7
  6
CONTINUOUS
 10
331.8637297372
 20
131.3424246835
  0
VERTEX
  8
2_FEATURE
 62
7
  6
CONTINUOUS
 10
332.0151467153
 20
131.3401849141
  0
VERTEX
  8
2_FEATURE
 62
7
  6
CONTINUOUS
 10
332.1818987105
 20
131.3323482929
  0
VERTEX
  8
2_FEATURE
 62
7
  6
CONTINUOUS
 10
332.3341386818
 20
131.3196959579
  0
VERTEX
  8
2_FEATURE
 62
7
  6
CONTINUOUS
 10
332.4635131728
 20
131.3039198684
  0
VERTEX
  8
2_FEATURE
 62
7
  6
CONTINUOUS
 10
332.5675713568
 20
131.2867963905
  0
VERTEX
  8
2_FEATURE
 62
7
  6
CONTINUOUS
 10
332.647796505
 20
131.2696921426
  0
VERTEX
  8
2_FEATURE
 62
7
  6
CONTINUOUS
 10
332.7039693302
 20
131.2544540339
  0
VERTEX
  8
2_FEATURE
 62
7
  6
CONTINUOUS
 10
332.7355533716
 20
131.243660751
  0
VERTEX
  8
2_FEATURE
 62
7
  6
CONTINUOUS
 10
332.744131786
 20
131.2400900942
  0
SEQEND
  0
LINE
  8
0
 62
2
  6
CONTINUOUS
 10
340.0637297372
 20
141.7406799117
 11
340.0637297372
 21
139.6406799117
  0
LINE
  8
DEFAULT_1
 62
2
  6
CENTER
 10
340.0637297372
 20
135.4406799117
 11
340.0637297372
 21
133.5406799117
  0
LINE
  8
DEFAULT_1
 62
2
  6
CENTER
 10
340.0637297372
 20
130.8780737705
 11
340.0637297372
 21
123.6037799117
  0
LINE
  8
0
 62
2
  6
CONTINUOUS
 10
340.0637297372
 20
122.6536799117
 11
340.0637297372
 21
120.5536799117
  0
LINE
  8
DEFAULT_1
 62
2
  6
CENTER
 10
340.0637297372
 20
104.1547131148
 11
340.0637297372
 21
119.6035799117
  0
LINE
  8
DEFAULT_1
 62
2
  6
CENTER
 10
340.0637297372
 20
145.9406799117
 11
340.0637297372
 21
147.8406799117
  0
LINE
  8
2_FEATURE
 62
7
  6
CONTINUOUS
 10
347.0537297372
 20
134.5003161525
 11
347.0637297407
 21
134.5003161525
  0
LINE
  8
2_FEATURE
 62
7
  6
CONTINUOUS
 10
337.6771282276
 20
142.5606962672
 11
337.7034902334
 21
142.4736799117
  0
POLYLINE
  8
2_FEATURE
 62
7
  6
CONTINUOUS
 66
1
 70
0
  0
VERTEX
  8
2_FEATURE
 62
7
  6
CONTINUOUS
 10
337.5572220989
 20
142.9736799117
  0
VERTEX
  8
2_FEATURE
 62
7
  6
CONTINUOUS
 10
337.5842476611
 20
142.8781368734
  0
VERTEX
  8
2_FEATURE
 62
7
  6
CONTINUOUS
 10
337.6107947106
 20
142.7856798215
  0
VERTEX
  8
2_FEATURE
 62
7
  6
CONTINUOUS
 10
337.6358230733
 20
142.6997775318
  0
VERTEX
  8
2_FEATURE
 62
7
  6
CONTINUOUS
 10
337.6771282276
 20
142.5606962672
  0
SEQEND
  0
POLYLINE
  8
2_FEATURE
 62
7
  6
CONTINUOUS
 66
1
 70
0
  0
VERTEX
  8
2_FEATURE
 62
7
  6
CONTINUOUS
 10
343.7737297372
 20
122.7796782583
  0
VERTEX
  8
2_FEATURE
 62
7
  6
CONTINUOUS
 10
343.7102651589
 20
123.4655740505
  0
VERTEX
  8
2_FEATURE
 62
7
  6
CONTINUOUS
 10
343.5221572981
 20
124.1277073186
  0
VERTEX
  8
2_FEATURE
 62
7
  6
CONTINUOUS
 10
343.216055672
 20
124.7434077782
  0
VERTEX
  8
2_FEATURE
 62
7
  6
CONTINUOUS
 10
342.8026721237
 20
125.2916949528
  0
VERTEX
  8
2_FEATURE
 62
7
  6
CONTINUOUS
 10
342.2963509132
 20
125.754019082
  0
VERTEX
  8
2_FEATURE
 62
7
  6
CONTINUOUS
 10
341.7145026181
 20
126.1148761107
  0
VERTEX
  8
2_FEATURE
 62
7
  6
CONTINUOUS
 10
341.076960838
 20
126.3622693133
  0
VERTEX
  8
2_FEATURE
 62
7
  6
CONTINUOUS
 10
340.4053030203
 20
126.4880321704
  0
VERTEX
  8
2_FEATURE
 62
7
  6
CONTINUOUS
 10
339.7221564542
 20
126.4880321704
  0
VERTEX
  8
2_FEATURE
 62
7
  6
CONTINUOUS
 10
339.0504986364
 20
126.3622693133
  0
VERTEX
  8
2_FEATURE
 62
7
  6
CONTINUOUS
 10
338.4129568563
 20
126.1148761107
  0
VERTEX
  8
2_FEATURE
 62
7
  6
CONTINUOUS
 10
337.8311085612
 20
125.754019082
  0
VERTEX
  8
2_FEATURE
 62
7
  6
CONTINUOUS
 10
337.3247873507
 20
125.2916949528
  0
VERTEX
  8
2_FEATURE
 62
7
  6
CONTINUOUS
 10
336.9114038024
 20
124.7434077782
  0
VERTEX
  8
2_FEATURE
 62
7
  6
CONTINUOUS
 10
336.6053021763
 20
124.1277073186
  0
VERTEX
  8
2_FEATURE
 62
7
  6
CONTINUOUS
 10
336.4171943155
 20
123.4655740505
  0
VERTEX
  8
2_FEATURE
 62
7
  6
CONTINUOUS
 10
336.3537297372
 20
122.7796782583
  0
SEQEND
  0
LINE
  8
2_FEATURE
 62
7
  6
CONTINUOUS
 10
343.7431274155
 20
122.1568589245
 11
343.7737297372
 21
121.6795083144
  0
LINE
  8
2_FEATURE
 62
7
  6
CONTINUOUS
 10
343.5837297372
 20
136.7205287811
 11
343.5837297372
 21
131.3854574188
  0
LINE
  8
2_FEATURE
 62
7
  6
CONTINUOUS
 10
343.7737297372
 20
120.2351531587
 11
343.7737297372
 21
122.7796782583
  0
POLYLINE
  8
2_FEATURE
 62
7
  6
CONTINUOUS
 66
1
 70
0
  0
VERTEX
  8
2_FEATURE
 62
7
  6
CONTINUOUS
 10
343.7737297372
 20
121.5341156289
  0
VERTEX
  8
2_FEATURE
 62
7
  6
CONTINUOUS
 10
343.7430640759
 20
121.0554695814
  0
VERTEX
  8
2_FEATURE
 62
7
  6
CONTINUOUS
 10
343.6516009696
 20
120.5848391142
  0
VERTEX
  8
2_FEATURE
 62
7
  6
CONTINUOUS
 10
343.5009288061
 20
120.1300852184
  0
VERTEX
  8
2_FEATURE
 62
7
  6
CONTINUOUS
 10
343.2936515841
 20
119.6987655603
  0
VERTEX
  8
2_FEATURE
 62
7
  6
CONTINUOUS
 10
343.0333269294
 20
119.2979971205
  0
VERTEX
  8
2_FEATURE
 62
7
  6
CONTINUOUS
 10
342.7243850775
 20
118.9343345161
  0
VERTEX
  8
2_FEATURE
 62
7
  6
CONTINUOUS
 10
342.372033251
 20
118.613666226
  0
VERTEX
  8
2_FEATURE
 62
7
  6
CONTINUOUS
 10
341.9821505697
 20
118.3411302206
  0
VERTEX
  8
2_FEATURE
 62
7
  6
CONTINUOUS
 10
341.5611780686
 20
118.1210483718
  0
VERTEX
  8
2_FEATURE
 62
7
  6
CONTINUOUS
 10
341.1160074328
 20
117.9568778415
  0
VERTEX
  8
2_FEATURE
 62
7
  6
CONTINUOUS
 10
340.6538709099
 20
117.8511770236
  0
VERTEX
  8
2_FEATURE
 62
7
  6
CONTINUOUS
 10
340.182233953
 20
117.8055834436
  0
VERTEX
  8
2_FEATURE
 62
7
  6
CONTINUOUS
 10
339.9452237417
 20
117.8055835008
  0
VERTEX
  8
2_FEATURE
 62
7
  6
CONTINUOUS
 10
339.4735868505
 20
117.8511773013
  0
VERTEX
  8
2_FEATURE
 62
7
  6
CONTINUOUS
 10
339.011450474
 20
117.9568783077
  0
VERTEX
  8
2_FEATURE
 62
7
  6
CONTINUOUS
 10
338.5662800483
 20
118.121048974
  0
VERTEX
  8
2_FEATURE
 62
7
  6
CONTINUOUS
 10
338.1453077976
 20
118.3411308932
  0
VERTEX
  8
2_FEATURE
 62
7
  6
CONTINUOUS
 10
337.7554253791
 20
118.6136669007
  0
VERTEX
  8
2_FEATURE
 62
7
  6
CONTINUOUS
 10
337.403073804
 20
118.9343351297
  0
VERTEX
  8
2_FEATURE
 62
7
  6
CONTINUOUS
 10
337.0941321694
 20
119.2979976248
  0
VERTEX
  8
2_FEATURE
 62
7
  6
CONTINUOUS
 10
336.8338076835
 20
119.6987659282
  0
VERTEX
  8
2_FEATURE
 62
7
  6
CONTINUOUS
 10
336.626530576
 20
120.1300854469
  0
VERTEX
  8
2_FEATURE
 62
7
  6
CONTINUOUS
 10
336.4758584764
 20
120.5848392231
  0
VERTEX
  8
2_FEATURE
 62
7
  6
CONTINUOUS
 10
336.3843953949
 20
121.0554696095
  0
SEQEND
  0
LINE
  8
2_FEATURE
 62
7
  6
CONTINUOUS
 10
347.0537297372
 20
134.5003161525
 11
347.0537297372
 21
126.747174771
  0
LINE
  8
2_FEATURE
 62
7
  6
CONTINUOUS
 10
344.2338387617
 20
140.3662938918
 11
343.7317100745
 21
140.3564926885
  0
LINE
  8
2_FEATURE
 62
7
  6
CONTINUOUS
 10
335.8979833514
 20
140.308778406
 11
336.4001410875
 21
140.306522591
  0
LINE
  8
2_FEATURE
 62
7
  6
CONTINUOUS
 10
347.5637297372
 20
121.1036799117
 11
347.5637297372
 21
140.6536799117
  0
POLYLINE
  8
2_FEATURE
 62
7
  6
CONTINUOUS
 66
1
 70
0
  0
VERTEX
  8
2_FEATURE
 62
7
  6
CONTINUOUS
 10
347.0533400033
 20
126.7460362689
  0
VERTEX
  8
2_FEATURE
 62
7
  6
CONTINUOUS
 10
347.053556146
 20
126.7464149875
  0
VERTEX
  8
2_FEATURE
 62
7
  6
CONTINUOUS
 10
347.0536860011
 20
126.74679453
  0
VERTEX
  8
2_FEATURE
 62
7
  6
CONTINUOUS
 10
347.0537297372
 20
126.747174771
  0
SEQEND
  0
LINE
  8
2_FEATURE
 62
7
  6
CONTINUOUS
 10
347.0533400033
 20
126.7460362689
 11
346.9763885223
 21
126.6343529545
  0
LINE
  8
2_FEATURE
 62
7
  6
CONTINUOUS
 10
346.9763885223
 20
126.6343529545
 11
346.9155524674
 21
126.546927164
  0
LINE
  8
0
 62
2
  6
CONTINUOUS
 10
341.1137297372
 20
140.6906799117
 11
339.0137297372
 21
140.6906799117
  0
LINE
  8
DEFAULT_1
 62
2
  6
CENTER
 10
334.8137297372
 20
140.6906799117
 11
332.9137297372
 21
140.6906799117
  0
LINE
  8
DEFAULT_1
 62
2
  6
CENTER
 10
345.3137297372
 20
140.6906799117
 11
347.2137297372
 21
140.6906799117
  0
POLYLINE
  8
2_FEATURE
 62
7
  6
CONTINUOUS
 66
1
 70
0
  0
VERTEX
  8
2_FEATURE
 62
7
  6
CONTINUOUS
 10
344.4271963379
 20
137.9552349342
  0
VERTEX
  8
2_FEATURE
 62
7
  6
CONTINUOUS
 10
345.0871356248
 20
137.4219931198
  0
VERTEX
  8
2_FEATURE
 62
7
  6
CONTINUOUS
 10
345.6833633349
 20
136.8170137146
  0
VERTEX
  8
2_FEATURE
 62
7
  6
CONTINUOUS
 10
346.2081407133
 20
136.1478935944
  0
VERTEX
  8
2_FEATURE
 62
7
  6
CONTINUOUS
 10
346.6546059782
 20
135.4230975196
  0
SEQEND
  0
POLYLINE
  8
2_FEATURE
 62
7
  6
CONTINUOUS
 66
1
 70
0
  0
VERTEX
  8
2_FEATURE
 62
7
  6
CONTINUOUS
 10
346.6546059782
 20
135.4230975196
  0
VERTEX
  8
2_FEATURE
 62
7
  6
CONTINUOUS
 10
346.7596058722
 20
135.219711036
  0
VERTEX
  8
2_FEATURE
 62
7
  6
CONTINUOUS
 10
346.849121133
 20
135.0296546594
  0
VERTEX
  8
2_FEATURE
 62
7
  6
CONTINUOUS
 10
346.9232467111
 20
134.8575577239
  0
VERTEX
  8
2_FEATURE
 62
7
  6
CONTINUOUS
 10
346.9815591844
 20
134.7097321511
  0
VERTEX
  8
2_FEATURE
 62
7
  6
CONTINUOUS
 10
347.0249811896
 20
134.5892168456
  0
VERTEX
  8
2_FEATURE
 62
7
  6
CONTINUOUS
 10
347.0537297372
 20
134.5003161525
  0
SEQEND
  0
LINE
  8
2_FEATURE
 62
7
  6
CONTINUOUS
 10
342.4418055649
 20
142.4736799117
 11
337.7034902334
 21
142.4736799117
  0
LINE
  8
2_FEATURE
 62
7
  6
CONTINUOUS
 10
343.750061666
 20
145.8736799117
 11
344.7946935042
 21
145.8736799117
  0
LINE
  8
2_FEATURE
 62
7
  6
CONTINUOUS
 10
346.2638587681
 20
144.8736799117
 11
346.1622754012
 21
145.0191971531
  0
ARC
  8
2_FEATURE
 62
7
  6
CONTINUOUS
 10
109.9948770492
 20
212.0551231799
 40
0.5
 50
180.0
 51
270.0
  0
ARC
  8
2_FEATURE
 62
7
  6
CONTINUOUS
 10
109.9948770492
 20
215.055123091
 40
0.5
 50
90.0
 51
179.9999898146
  0
ARC
  8
2_FEATURE
 62
7
  6
CONTINUOUS
 10
115.0448770492
 20
216.0551231799
 40
0.5
 50
270.0
 51
359.7200001344
  0
ARC
  8
2_FEATURE
 62
7
  6
CONTINUOUS
 10
120.9948770492
 20
212.0551231799
 40
0.5
 50
270.0
 51
360.0
  0
ARC
  8
2_FEATURE
 62
7
  6
CONTINUOUS
 10
122.1948770492
 20
215.7551231799
 40
0.7
 50
90.0
 51
180.0
  0
ARC
  8
2_FEATURE
 62
7
  6
CONTINUOUS
 10
124.9198770492
 20
216.9551231799
 40
0.5
 50
180.0
 51
270.0
  0
ARC
  8
2_FEATURE
 62
7
  6
CONTINUOUS
 10
124.9198770492
 20
230.9551231799
 40
0.5
 50
90.0
 51
180.0
  0
ARC
  8
2_FEATURE
 62
7
  6
CONTINUOUS
 10
42.0448770492
 20
231.1551231799
 40
0.3
 50
90.0
 51
180.0
  0
ARC
  8
2_FEATURE
 62
7
  6
CONTINUOUS
 10
115.3448770492
 20
227.2751231799
 40
0.2
 50
0.0
 51
90.0
  0
ARC
  8
2_FEATURE
 62
7
  6
CONTINUOUS
 10
152.9948770492
 20
212.0551231799
 40
0.5
 50
180.0
 51
270.0
  0
ARC
  8
2_FEATURE
 62
7
  6
CONTINUOUS
 10
151.7948770492
 20
215.7551231799
 40
0.7
 50
0.0
 51
90.0
  0
ARC
  8
2_FEATURE
 62
7
  6
CONTINUOUS
 10
149.0698770492
 20
216.9551231799
 40
0.5
 50
270.0
 51
360.0
  0
ARC
  8
2_FEATURE
 62
7
  6
CONTINUOUS
 10
163.9948770492
 20
212.0551231799
 40
0.5
 50
270.0
 51
360.0
  0
ARC
  8
2_FEATURE
 62
7
  6
CONTINUOUS
 10
158.9448770492
 20
216.0551231799
 40
0.5
 50
180.2799998656
 51
270.0
  0
ARC
  8
2_FEATURE
 62
7
  6
CONTINUOUS
 10
163.9948770492
 20
215.0551231799
 40
0.5
 50
0.0
 51
90.0
  0
ARC
  8
2_FEATURE
 62
7
  6
CONTINUOUS
 10
149.0698770492
 20
230.9551231799
 40
0.5
 50
0.0
 51
90.0
  0
ARC
  8
2_FEATURE
 62
7
  6
CONTINUOUS
 10
231.9448770492
 20
231.1551231799
 40
0.3
 50
0.0
 51
90.0
  0
ARC
  8
2_FEATURE
 62
7
  6
CONTINUOUS
 10
158.6448770492
 20
227.2751231799
 40
0.2
 50
90.0
 51
180.0
  0
ARC
  8
2_FEATURE
 62
7
  6
CONTINUOUS
 10
129.4198770492
 20
121.9936799117
 40
5.0
 50
180.0
 51
189.0
  0
ARC
  8
2_FEATURE
 62
7
  6
CONTINUOUS
 10
126.1134372173
 20
114.1036799117
 40
0.5
 50
189.0
 51
270.0
  0
ARC
  8
2_FEATURE
 62
7
  6
CONTINUOUS
 10
124.2198770492
 20
126.546927164
 40
0.2
 50
0.0
 51
84.59
  0
ARC
  8
2_FEATURE
 62
7
  6
CONTINUOUS
 10
118.9198770492
 20
140.5036799117
 40
5.0
 50
0.0
 51
16.0
  0
ARC
  8
2_FEATURE
 62
7
  6
CONTINUOUS
 10
42.7448770492
 20
144.8736799117
 40
1.0
 50
89.9999996665
 51
180.0
  0
ARC
  8
2_FEATURE
 62
7
  6
CONTINUOUS
 10
42.7448770492
 20
135.4230975196
 40
1.0
 50
180.0
 51
247.3361468826
  0
ARC
  8
2_FEATURE
 62
7
  6
CONTINUOUS
 10
116.0448770492
 20
147.6536799117
 40
0.5
 50
90.0
 51
180.0
  0
ARC
  8
2_FEATURE
 62
7
  6
CONTINUOUS
 10
121.5509951022
 20
147.6536795636
 40
0.5
 50
16.0
 51
89.9999974371
  0
ARC
  8
2_FEATURE
 62
7
  6
CONTINUOUS
 10
124.4198770492
 20
136.4336799117
 40
0.5
 50
180.0
 51
270.0
  0
ARC
  8
2_FEATURE
 62
7
  6
CONTINUOUS
 10
144.5698770492
 20
121.9936799117
 40
5.0
 50
351.0
 51
360.0
  0
ARC
  8
2_FEATURE
 62
7
  6
CONTINUOUS
 10
147.8763168811
 20
114.1036799117
 40
0.5
 50
270.0
 51
351.0
  0
ARC
  8
2_FEATURE
 62
7
  6
CONTINUOUS
 10
149.7698770492
 20
126.546927164
 40
0.2
 50
95.41
 51
180.0
  0
ARC
  8
2_FEATURE
 62
7
  6
CONTINUOUS
 10
155.0698770492
 20
140.5036799117
 40
5.0
 50
164.0
 51
180.0
  0
ARC
  8
2_FEATURE
 62
7
  6
CONTINUOUS
 10
231.2448770492
 20
144.8736799117
 40
1.0
 50
0.0
 51
90.0000003335
  0
ARC
  8
2_FEATURE
 62
7
  6
CONTINUOUS
 10
231.2448770492
 20
135.4230975196
 40
1.0
 50
292.6638531174
 51
360.0
  0
ARC
  8
2_FEATURE
 62
7
  6
CONTINUOUS
 10
157.9448770492
 20
147.6536799117
 40
0.5
 50
0.0
 51
90.0
  0
ARC
  8
2_FEATURE
 62
7
  6
CONTINUOUS
 10
152.4387589962
 20
147.6536795636
 40
0.5
 50
90.0000025629
 51
164.0
  0
ARC
  8
2_FEATURE
 62
7
  6
CONTINUOUS
 10
149.5698770492
 20
136.4336799117
 40
0.5
 50
270.0
 51
360.0
  0
ARC
  8
2_FEATURE
 62
7
  6
CONTINUOUS
 10
328.1637297372
 20
141.866115477
 40
0.5
 50
120.0
 51
180.0
  0
ARC
  8
2_FEATURE
 62
7
  6
CONTINUOUS
 10
340.0637297372
 20
121.1036799117
 40
7.5
 50
180.0
 51
360.0
  0
ARC
  8
2_FEATURE
 62
7
  6
CONTINUOUS
 10
339.3737297372
 20
139.9936799117
 40
2.99
 50
123.9596228214
 51
173.9941699644
  0
ARC
  8
2_FEATURE
 62
7
  6
CONTINUOUS
 10
340.7537297372
 20
139.9936799117
 40
3.0
 50
6.9462167689
 51
55.7578312974
  0
ARC
  8
2_FEATURE
 62
7
  6
CONTINUOUS
 10
340.0637297372
 20
140.6536799117
 40
7.5
 50
0.0
 51
120.0
  0
ARC
  8
2_FEATURE
 62
7
  6
CONTINUOUS
 10
340.0637297372
 20
140.6906799117
 40
5.15
 50
315.357265155
 51
42.2546735916
  0
ARC
  8
2_FEATURE
 62
7
  6
CONTINUOUS
 10
340.0637297372
 20
140.6536799117
 40
3.68
 50
185.41311693
 51
355.36789771
  0
ARC
  8
2_FEATURE
 62
7
  6
CONTINUOUS
 10
344.0837297372
 20
136.7205287811
 40
0.5
 50
135.3574516585
 51
180.0
  0
ARC
  8
2_FEATURE
 62
7
  6
CONTINUOUS
 10
344.6437297372
 20
144.1302035164
 40
1.75
 50
37.4234406716
 51
85.0512281941
  0
ARC
  8
2_FEATURE
 62
7
  6
CONTINUOUS
 10
344.7848582643
 20
144.9336799117
 40
1.198
 50
128.3125063401
 51
220.6234669706
  0
ENDSEC
  0
EOF
