  0
SECTION
  2
HEADER
  9
$EXTMAX
 10
420.0
 20
297.0
 30
0.0
  9
$EXTMIN
 10
0.0
 20
0.0
 30
0.0
  9
$LIMMIN
 10
0.0
 20
0.0
  9
$LIMMAX
 10
420.0
 20
297.0
  9
$VIEWCTR
 10
210.0
 20
148.5
  9
$VIEWSIZE
 40
297.0
  9
$CLAYER
  8
0
  9
$LTSCALE
 40
23.1
  9
$CELTYPE
  6
BYLAYER
  9
$DIMSCALE
 40
1.0
  9
$DIMASZ
 40
3.5
  9
$DIMEXO
 40
1.0
  9
$DIMDLI
 40
15.96
  9
$DIMEXE
 40
2.0
  9
$DIMCEN
 40
3.78
  9
$DIMLFAC
 40
1.0
  9
$DIMBLK
  1
_FILLED
  9
$DIMTXT
 40
3.5
  9
$PDMODE
 70
3
  9
$PDSIZE
 40
0.3125
  9
$TILEMODE
 70
1
  0
ENDSEC
  0
SECTION
  2
TABLES
  0
TABLE
  2
LTYPE
 70
6
  0
LTYPE
  2
BYBLOCK
 70
0
  3

 72
65
 73
0
 40
0.0
  0
LTYPE
  2
BYLAYER
 70
0
  3

 72
65
 73
0
 40
0.0
  0
LTYPE
  2
CONTINUOUS
 70
64
  3
Solid line
 72
65
 73
0
 40
0.0
  0
LTYPE
  2
CENTER
 70
64
  3
____ _ ____ _ ____ _ ____ _ ____ _ ____ _ ____
 72
65
 73
4
 40
0.6
 49
0.375
 49
-0.075
 49
0.075
 49
-0.075
  0
LTYPE
  2
HIDDEN
 70
64
  3
- - - - - - - - - - - - - - - - - - - -
 72
65
 73
2
 40
0.2
 49
0.1
 49
-0.1
  0
LTYPE
  2
PHANTOM
 70
64
  3
_____ _ _ _____ _ _ _____ _ _ _____
 72
65
 73
6
 40
0.8
 49
0.45
 49
-0.05
 49
0.1
 49
-0.05
 49
0.1
 49
-0.05
  0
LTYPE
  2
DOT
 70
64
  3
. . . . . . . . . . . . . . . . . . . .
 72
65
 73
2
 40
0.2
 49
0.1
 49
-0.1
  0
LTYPE
  2
DASHED
 70
64
  3
- - - - - - - - - - - - - - - - - - - -
 72
65
 73
2
 40
0.2
 49
0.1
 49
-0.1
  0
ENDTAB
  0
TABLE
  2
LAYER
 70
36
  0
LAYER
  2
0
 70
0
 62
7
  6
CONTINUOUS
  0
LAYER
  2
DEFAULT_1
 70
0
 62
7
  6
CENTER
  0
LAYER
  2
DEFAULT_2
 70
0
 62
8
  6
HIDDEN
  0
LAYER
  2
DEFAULT_3
 70
0
 62
7
  6
PHANTOM
  0
LAYER
  2
1_AXIS
 70
0
 62
7
  6
CONTINUOUS
  0
LAYER
  2
1_DATUM_PLANE
 70
0
 62
7
  6
CONTINUOUS
  0
LAYER
  2
1_DATUM_PLANES
 70
0
 62
7
  6
CONTINUOUS
  0
LAYER
  2
2_FEATURE
 70
0
 62
7
  6
CONTINUOUS
  0
LAYER
  2
3_CURVE
 70
0
 62
7
  6
CONTINUOUS
  0
LAYER
  2
4_QUILT
 70
0
 62
7
  6
CONTINUOUS
  0
LAYER
  2
4_SURFACE
 70
0
 62
7
  6
CONTINUOUS
  0
LAYER
  2
6_DIM
 70
0
 62
7
  6
CONTINUOUS
  0
LAYER
  2
6_NOTE
 70
0
 62
7
  6
CONTINUOUS
  0
LAYER
  2
AXES
 70
0
 62
7
  6
CONTINUOUS
  0
LAYER
  2
CSYS
 70
0
 62
7
  6
CONTINUOUS
  0
LAYER
  2
NOTES
 70
0
 62
7
  6
CONTINUOUS
  0
ENDTAB
  0
TABLE
  2
STYLE
 70
1
  0
STYLE
  2
STANDARD
 70
0
 40
0.0
 41
0.8
 50
0.0
 71
0
 42
0.2
  3
txt
  4

  0
STYLE
  2
TEXTSTYLE_1
 70
0
 40
0.0
 41
0.8
 50
0.0
 71
0
 42
0.2
  3
gdt
  4

  0
STYLE
  2
TEXTSTYLE_2
 70
0
 40
0.0
 41
0.6
 50
0.0
 71
0
 42
0.2
  3
txt
  4

  0
STYLE
  2
TEXTSTYLE_3
 70
0
 40
0.0
 41
1.0
 50
0.0
 71
0
 42
0.2
  3
ftb_____.ttf
  4

  0
STYLE
  2
TEXTSTYLE_4
 70
0
 40
0.0
 41
1.0
 50
0.0
 71
0
 42
0.2
  3
fti_____.ttf
  4

  0
STYLE
  2
TEXTSTYLE_5
 70
0
 40
0.0
 41
1.0
 50
0.0
 71
0
 42
0.2
  3
frutiger light.ttf
  4

  0
STYLE
  2
TEXTSTYLE_6
 70
0
 40
0.0
 41
0.7
 50
0.0
 71
0
 42
0.2
  3
txt
  4

  0
STYLE
  2
TEXTSTYLE_7
 70
0
 40
0.0
 41
0.8
 50
0.0
 71
0
 42
0.2
  3
txt
  4

  0
ENDTAB
  0
ENDSEC
  0
SECTION
  2
BLOCKS
  0
BLOCK
  8
0
 62
2
  6
CONTINUOUS
  2
SYMBOL_5_BL1
 70
64
 10
382.3920721743
 20
35.7654615278
  0
TEXT
  8
0
 62
7
  6
CONTINUOUS
 10
373.4503571828
 20
30.9093678571
  7
TEXTSTYLE_4
 40
1.0655737705
  1
The brand for plastic modular belts and chains
 41
1.0
 72
0
  0
LINE
  8
0
 62
7
  6
CONTINUOUS
 10
358.3701405634
 20
36.3903819718
 11
358.3701405634
 21
34.2592344308
  0
LINE
  8
0
 62
7
  6
CONTINUOUS
 10
358.6592030565
 20
31.2683031351
 11
358.6592030565
 21
31.3650941944
  0
LINE
  8
0
 62
7
  6
CONTINUOUS
 10
358.3701405634
 20
31.332830508
 11
358.4279530651
 21
31.1392483894
  0
LINE
  8
0
 62
7
  6
CONTINUOUS
 10
359.7635831863
 20
34.1772672177
 11
359.7635831863
 21
36.3903819718
  0
LINE
  8
0
 62
7
  6
CONTINUOUS
 10
360.6826405082
 20
32.3330049227
 11
360.6826405082
 21
30.81661148
  0
LINE
  8
0
 62
7
  6
CONTINUOUS
 10
360.9717030634
 20
30.81661148
 11
360.9717030634
 21
31.5586763581
  0
LINE
  8
0
 62
7
  6
CONTINUOUS
 10
360.9717030634
 20
31.6877311038
 11
360.9717030634
 21
32.3330049227
  0
LINE
  8
0
 62
7
  6
CONTINUOUS
 10
358.4279530651
 20
31.5264126717
 11
358.3701405634
 21
31.332830508
  0
LINE
  8
0
 62
7
  6
CONTINUOUS
 10
358.7748280496
 20
31.106984703
 11
358.6592030565
 21
31.2683031351
  0
LINE
  8
0
 62
7
  6
CONTINUOUS
 10
359.8732656185
 20
31.623203731
 11
359.9310780634
 21
31.5264126717
  0
LINE
  8
0
 62
7
  6
CONTINUOUS
 10
360.2201406185
 20
31.5264126717
 11
360.1623280082
 21
31.6554674174
  0
LINE
  8
0
 62
7
  6
CONTINUOUS
 10
361.648829088
 20
36.3903819718
 11
361.648829088
 21
34.5871032833
  0
LINE
  8
0
 62
7
  6
CONTINUOUS
 10
361.648829088
 20
33.2756278735
 11
361.648829088
 21
32.6198901686
  0
LINE
  8
0
 62
7
  6
CONTINUOUS
 10
362.0123280634
 20
31.4618852989
 11
362.0123280634
 21
30.81661148
  0
LINE
  8
0
 62
7
  6
CONTINUOUS
 10
362.3013904531
 20
30.81661148
 11
362.3013904531
 21
31.4618852989
  0
LINE
  8
0
 62
7
  6
CONTINUOUS
 10
358.6592030565
 20
31.3650941944
 11
358.7170155634
 21
31.4941489853
  0
LINE
  8
0
 62
7
  6
CONTINUOUS
 10
358.4279530651
 20
31.1392483894
 11
358.5435780634
 21
31.0101936212
  0
LINE
  8
0
 62
7
  6
CONTINUOUS
 10
361.9545154531
 20
31.5909400446
 11
362.0123280634
 21
31.4618852989
  0
LINE
  8
0
 62
7
  6
CONTINUOUS
 10
362.7638906736
 20
31.106984703
 11
362.8217029531
 21
30.9779299347
  0
LINE
  8
0
 62
7
  6
CONTINUOUS
 10
362.3013904531
 20
31.4618852989
 11
362.2435781736
 21
31.623203731
  0
LINE
  8
0
 62
7
  6
CONTINUOUS
 10
362.7638906736
 20
31.6554674174
 11
362.7638906736
 21
31.5909400446
  0
LINE
  8
0
 62
7
  6
CONTINUOUS
 10
362.7638906736
 20
31.2037757623
 11
362.7638906736
 21
31.106984703
  0
LINE
  8
0
 62
7
  6
CONTINUOUS
 10
363.0422717109
 20
32.6198901686
 11
363.0422717109
 21
36.3903819718
  0
LINE
  8
0
 62
7
  6
CONTINUOUS
 10
363.0529530634
 20
31.074720994
 11
363.0529530634
 21
31.1392483894
  0
LINE
  8
0
 62
7
  6
CONTINUOUS
 10
363.3701405634
 20
36.3903819718
 11
363.3701405634
 21
32.6198901686
  0
LINE
  8
0
 62
7
  6
CONTINUOUS
 10
360.1623280082
 20
31.0101936212
 11
360.2201406185
 21
31.1392483894
  0
LINE
  8
0
 62
7
  6
CONTINUOUS
 10
364.5560782839
 20
30.9134025506
 11
364.4982653428
 21
31.074720994
  0
LINE
  8
0
 62
7
  6
CONTINUOUS
 10
364.2092032839
 20
31.5909400446
 11
364.2092032839
 21
31.4941489853
  0
LINE
  8
0
 62
7
  6
CONTINUOUS
 10
364.2092032839
 20
31.3650941944
 11
364.2092032839
 21
31.1715120759
  0
LINE
  8
0
 62
7
  6
CONTINUOUS
 10
364.4982653428
 20
31.074720994
 11
364.4982653428
 21
31.5909400446
  0
LINE
  8
0
 62
7
  6
CONTINUOUS
 10
364.7635831863
 20
32.6198901686
 11
364.7635831863
 21
34.4231688571
  0
LINE
  8
0
 62
7
  6
CONTINUOUS
 10
364.7635831863
 20
35.7346442669
 11
364.7635831863
 21
36.3903819718
  0
LINE
  8
0
 62
7
  6
CONTINUOUS
 10
365.0763907839
 20
32.3330049227
 11
365.0763907839
 21
32.1716864905
  0
LINE
  8
0
 62
7
  6
CONTINUOUS
 10
365.0763907839
 20
31.8490495359
 11
365.0763907839
 21
30.81661148
  0
LINE
  8
0
 62
7
  6
CONTINUOUS
 10
365.3654528428
 20
30.81661148
 11
365.3654528428
 21
31.8490495359
  0
LINE
  8
0
 62
7
  6
CONTINUOUS
 10
365.3654528428
 20
32.1716864905
 11
365.3654528428
 21
32.3330049227
  0
LINE
  8
0
 62
7
  6
CONTINUOUS
 10
359.9310780634
 20
31.1392483894
 11
359.8732656185
 21
31.0424573076
  0
LINE
  8
0
 62
7
  6
CONTINUOUS
 10
362.2435781736
 20
31.623203731
 11
362.1857655634
 21
31.6877311038
  0
LINE
  8
0
 62
7
  6
CONTINUOUS
 10
363.1107656736
 20
31.0101936212
 11
363.0529530634
 21
31.074720994
  0
LINE
  8
0
 62
7
  6
CONTINUOUS
 10
364.2670155634
 20
30.8811388585
 11
364.3248278428
 21
30.81661148
  0
LINE
  8
0
 62
7
  6
CONTINUOUS
 10
364.2092032839
 20
30.9779299347
 11
364.2670155634
 21
30.8811388585
  0
LINE
  8
0
 62
7
  6
CONTINUOUS
 10
364.6138905634
 20
30.81661148
 11
364.5560782839
 21
30.9134025506
  0
LINE
  8
0
 62
7
  6
CONTINUOUS
 10
364.4982653428
 20
31.5909400446
 11
364.4404530634
 21
31.6877311038
  0
LINE
  8
0
 62
7
  6
CONTINUOUS
 10
365.8279530634
 20
31.8490495359
 11
365.8279530634
 21
30.81661148
  0
LINE
  8
0
 62
7
  6
CONTINUOUS
 10
366.1170157839
 20
30.81661148
 11
366.1170157839
 21
31.5586763581
  0
LINE
  8
0
 62
7
  6
CONTINUOUS
 10
366.1170157839
 20
31.6877311038
 11
366.1170157839
 21
31.8490495359
  0
LINE
  8
0
 62
7
  6
CONTINUOUS
 10
366.648829088
 20
34.8330049227
 11
366.648829088
 21
32.6198901686
  0
LINE
  8
0
 62
7
  6
CONTINUOUS
 10
358.5435780634
 20
31.6554674174
 11
358.4279530651
 21
31.5264126717
  0
LINE
  8
0
 62
7
  6
CONTINUOUS
 10
358.7170155634
 20
31.4941489853
 11
358.7748280496
 21
31.5586763581
  0
LINE
  8
0
 62
7
  6
CONTINUOUS
 10
358.5435780634
 20
31.0101936212
 11
358.6592030565
 21
30.945666237
  0
LINE
  8
0
 62
7
  6
CONTINUOUS
 10
358.9482655496
 20
31.0101936212
 11
358.7748280496
 21
31.106984703
  0
LINE
  8
0
 62
7
  6
CONTINUOUS
 10
364.1513903428
 20
31.6554674174
 11
364.2092032839
 21
31.5909400446
  0
LINE
  8
0
 62
7
  6
CONTINUOUS
 10
367.0998278428
 20
31.5909400446
 11
367.1576407839
 21
31.4296216124
  0
LINE
  8
0
 62
7
  6
CONTINUOUS
 10
367.4467028428
 20
31.4296216124
 11
367.3888905634
 21
31.5909400446
  0
LINE
  8
0
 62
7
  6
CONTINUOUS
 10
367.1576407839
 20
31.4296216124
 11
367.1576407839
 21
30.81661148
  0
LINE
  8
0
 62
7
  6
CONTINUOUS
 10
367.4467028428
 20
30.81661148
 11
367.4467028428
 21
31.4296216124
  0
LINE
  8
0
 62
7
  6
CONTINUOUS
 10
367.9092030634
 20
31.6554674174
 11
367.9092030634
 21
31.5909400446
  0
LINE
  8
0
 62
7
  6
CONTINUOUS
 10
368.0422717109
 20
32.6198901686
 11
368.0422717109
 21
34.7510377095
  0
LINE
  8
0
 62
7
  6
CONTINUOUS
 10
368.3701405634
 20
36.3903819718
 11
368.3701405634
 21
32.6198901686
  0
LINE
  8
0
 62
7
  6
CONTINUOUS
 10
363.0529530634
 20
31.1392483894
 11
363.1107656736
 21
31.2360394487
  0
LINE
  8
0
 62
7
  6
CONTINUOUS
 10
358.6592030565
 20
30.945666237
 11
358.8326405772
 21
30.8811388585
  0
LINE
  8
0
 62
7
  6
CONTINUOUS
 10
360.1623280082
 20
31.6554674174
 11
359.9888905082
 21
31.7522584767
  0
LINE
  8
0
 62
7
  6
CONTINUOUS
 10
362.8217029531
 20
30.9779299347
 11
362.9951404531
 21
30.8811388585
  0
LINE
  8
0
 62
7
  6
CONTINUOUS
 10
361.8388905634
 20
31.6554674174
 11
361.9545154531
 21
31.5909400446
  0
LINE
  8
0
 62
7
  6
CONTINUOUS
 10
362.1857655634
 20
31.6877311038
 11
362.0701406736
 21
31.7522584767
  0
LINE
  8
0
 62
7
  6
CONTINUOUS
 10
367.9092030634
 20
31.074720994
 11
368.0248282839
 21
30.945666237
  0
LINE
  8
0
 62
7
  6
CONTINUOUS
 10
368.2560780634
 20
31.0101936212
 11
368.1982657839
 21
31.074720994
  0
LINE
  8
0
 62
7
  6
CONTINUOUS
 10
367.9092030634
 20
31.5909400446
 11
368.0248282839
 21
31.4618852989
  0
LINE
  8
0
 62
7
  6
CONTINUOUS
 10
367.3888905634
 20
31.5909400446
 11
367.3310782839
 21
31.6877311038
  0
LINE
  8
0
 62
7
  6
CONTINUOUS
 10
369.7592026223
 20
31.0101936212
 11
369.7592026223
 21
31.074720994
  0
LINE
  8
0
 62
7
  6
CONTINUOUS
 10
369.7635831863
 20
32.6198901686
 11
369.7635831863
 21
36.3903819718
  0
LINE
  8
0
 62
7
  6
CONTINUOUS
 10
362.8217029531
 20
31.7199947902
 11
362.7638906736
 21
31.6554674174
  0
LINE
  8
0
 62
7
  6
CONTINUOUS
 10
359.6998280358
 20
31.6877311038
 11
359.8732656185
 21
31.623203731
  0
LINE
  8
0
 62
7
  6
CONTINUOUS
 10
364.4404530634
 20
31.6877311038
 11
364.3248278428
 21
31.7522584767
  0
LINE
  8
0
 62
7
  6
CONTINUOUS
 10
368.2560780634
 20
31.5264126717
 11
368.1982657839
 21
31.5909400446
  0
LINE
  8
0
 62
7
  6
CONTINUOUS
 10
369.4123282839
 20
31.1392483894
 11
369.4701405634
 21
31.074720994
  0
LINE
  8
0
 62
7
  6
CONTINUOUS
 10
369.7592026223
 20
31.074720994
 11
369.6435780634
 21
31.2037757623
  0
LINE
  8
0
 62
7
  6
CONTINUOUS
 10
369.4123282839
 20
31.6554674174
 11
369.4701405634
 21
31.5909400446
  0
LINE
  8
0
 62
7
  6
CONTINUOUS
 10
369.7592026223
 20
31.5909400446
 11
369.6435780634
 21
31.7199947902
  0
LINE
  8
0
 62
7
  6
CONTINUOUS
 10
363.0529530634
 20
31.5909400446
 11
363.1107656736
 21
31.6554674174
  0
LINE
  8
0
 62
7
  6
CONTINUOUS
 10
362.8795155634
 20
31.332830508
 11
362.7638906736
 21
31.2037757623
  0
LINE
  8
0
 62
7
  6
CONTINUOUS
 10
364.2092032839
 20
31.1715120759
 11
364.1513903428
 21
31.106984703
  0
LINE
  8
0
 62
7
  6
CONTINUOUS
 10
364.1513903428
 20
30.9134025506
 11
364.2092032839
 21
30.9779299347
  0
LINE
  8
0
 62
7
  6
CONTINUOUS
 10
362.9951404531
 20
30.8811388585
 11
363.1107656736
 21
30.8488751693
  0
LINE
  8
0
 62
7
  6
CONTINUOUS
 10
359.9888905082
 20
31.7522584767
 11
359.7576405634
 21
31.8167858495
  0
LINE
  8
0
 62
7
  6
CONTINUOUS
 10
363.3420154531
 20
30.945666237
 11
363.1107656736
 21
31.0101936212
  0
LINE
  8
0
 62
7
  6
CONTINUOUS
 10
362.0701406736
 20
31.7522584767
 11
361.8967031736
 21
31.8167858495
  0
LINE
  8
0
 62
7
  6
CONTINUOUS
 10
364.3248278428
 20
31.7522584767
 11
364.1513903428
 21
31.8167858495
  0
LINE
  8
0
 62
7
  6
CONTINUOUS
 10
366.9842032839
 20
31.6554674174
 11
367.0998278428
 21
31.5909400446
  0
LINE
  8
0
 62
7
  6
CONTINUOUS
 10
367.3310782839
 20
31.6877311038
 11
367.2154530634
 21
31.7522584767
  0
LINE
  8
0
 62
7
  6
CONTINUOUS
 10
358.8326405772
 20
30.8811388585
 11
359.0060780772
 21
30.8488751693
  0
LINE
  8
0
 62
7
  6
CONTINUOUS
 10
359.2951405909
 20
30.945666237
 11
358.9482655496
 21
31.0101936212
  0
LINE
  8
0
 62
7
  6
CONTINUOUS
 10
361.7232656736
 20
31.6877311038
 11
361.8388905634
 21
31.6554674174
  0
LINE
  8
0
 62
7
  6
CONTINUOUS
 10
364.0357657839
 20
31.6877311038
 11
364.1513903428
 21
31.6554674174
  0
LINE
  8
0
 62
7
  6
CONTINUOUS
 10
368.3717032839
 20
30.9779299347
 11
368.2560780634
 21
31.0101936212
  0
LINE
  8
0
 62
7
  6
CONTINUOUS
 10
366.8685780634
 20
31.6877311038
 11
366.9842032839
 21
31.6554674174
  0
LINE
  8
0
 62
7
  6
CONTINUOUS
 10
368.0248282839
 20
30.945666237
 11
368.1982657839
 21
30.8811388585
  0
LINE
  8
0
 62
7
  6
CONTINUOUS
 10
367.2154530634
 20
31.7522584767
 11
367.0420155634
 21
31.8167858495
  0
LINE
  8
0
 62
7
  6
CONTINUOUS
 10
368.4295155634
 20
31.4618852989
 11
368.2560780634
 21
31.5264126717
  0
LINE
  8
0
 62
7
  6
CONTINUOUS
 10
369.2388907839
 20
31.2037757623
 11
369.4123282839
 21
31.1392483894
  0
LINE
  8
0
 62
7
  6
CONTINUOUS
 10
369.6435780634
 20
31.7199947902
 11
369.4701405634
 21
31.7845221631
  0
LINE
  8
0
 62
7
  6
CONTINUOUS
 10
368.0248282839
 20
31.4618852989
 11
368.2560780634
 21
31.3650941944
  0
LINE
  8
0
 62
7
  6
CONTINUOUS
 10
369.6435780634
 20
31.2037757623
 11
369.4123282839
 21
31.3005668216
  0
LINE
  8
0
 62
7
  6
CONTINUOUS
 10
368.1982657839
 20
31.5909400446
 11
368.2560780634
 21
31.6554674174
  0
LINE
  8
0
 62
7
  6
CONTINUOUS
 10
358.6592030565
 20
31.7199947902
 11
358.5435780634
 21
31.6554674174
  0
LINE
  8
0
 62
7
  6
CONTINUOUS
 10
358.7748280496
 20
31.5586763581
 11
358.9482655496
 21
31.6554674174
  0
LINE
  8
0
 62
7
  6
CONTINUOUS
 10
361.0873281185
 20
31.7522584767
 11
360.9717030634
 21
31.6877311038
  0
LINE
  8
0
 62
7
  6
CONTINUOUS
 10
360.9717030634
 20
31.5586763581
 11
361.0873281185
 21
31.623203731
  0
LINE
  8
0
 62
7
  6
CONTINUOUS
 10
359.9888905082
 20
30.9134025506
 11
360.1623280082
 21
31.0101936212
  0
LINE
  8
0
 62
7
  6
CONTINUOUS
 10
359.0060780772
 20
30.8488751693
 11
359.3529530358
 21
30.81661148
  0
LINE
  8
0
 62
7
  6
CONTINUOUS
 10
363.1107656736
 20
30.8488751693
 11
363.3420154531
 21
30.81661148
  0
LINE
  8
0
 62
7
  6
CONTINUOUS
 10
361.4920155634
 20
31.7199947902
 11
361.7232656736
 21
31.6877311038
  0
LINE
  8
0
 62
7
  6
CONTINUOUS
 10
363.8045156736
 20
31.7199947902
 11
364.0357657839
 21
31.6877311038
  0
LINE
  8
0
 62
7
  6
CONTINUOUS
 10
368.2560780634
 20
31.3650941944
 11
369.2388907839
 21
31.2037757623
  0
LINE
  8
0
 62
7
  6
CONTINUOUS
 10
369.4123282839
 20
31.3005668216
 11
368.4295155634
 21
31.4618852989
  0
LINE
  8
0
 62
7
  6
CONTINUOUS
 10
361.8967031736
 20
31.8167858495
 11
361.7232656736
 21
31.8490495359
  0
LINE
  8
0
 62
7
  6
CONTINUOUS
 10
368.1982657839
 20
30.8811388585
 11
368.3717032839
 21
30.8488751693
  0
LINE
  8
0
 62
7
  6
CONTINUOUS
 10
367.0420155634
 20
31.8167858495
 11
366.8685780634
 21
31.8490495359
  0
LINE
  8
0
 62
7
  6
CONTINUOUS
 10
369.2967030634
 20
31.6877311038
 11
369.4123282839
 21
31.6554674174
  0
LINE
  8
0
 62
7
  6
CONTINUOUS
 10
369.4701405634
 20
31.074720994
 11
369.4123282839
 21
31.0101936212
  0
LINE
  8
0
 62
7
  6
CONTINUOUS
 10
368.0248282839
 20
31.7522584767
 11
367.9092030634
 21
31.6554674174
  0
LINE
  8
0
 62
7
  6
CONTINUOUS
 10
362.9373281736
 20
31.7845221631
 11
362.8217029531
 21
31.7199947902
  0
LINE
  8
0
 62
7
  6
CONTINUOUS
 10
362.9951404531
 20
31.397357926
 11
362.8795155634
 21
31.332830508
  0
LINE
  8
0
 62
7
  6
CONTINUOUS
 10
363.1107656736
 20
31.2360394487
 11
363.2263905634
 21
31.3005668216
  0
LINE
  8
0
 62
7
  6
CONTINUOUS
 10
360.6826405082
 20
30.81661148
 11
360.9717030634
 21
30.81661148
  0
LINE
  8
0
 62
7
  6
CONTINUOUS
 10
362.0123280634
 20
30.81661148
 11
362.3013904531
 21
30.81661148
  0
LINE
  8
0
 62
7
  6
CONTINUOUS
 10
363.3420154531
 20
30.81661148
 11
363.6888904531
 21
30.81661148
  0
LINE
  8
0
 62
7
  6
CONTINUOUS
 10
364.3248278428
 20
30.81661148
 11
364.6138905634
 21
30.81661148
  0
LINE
  8
0
 62
7
  6
CONTINUOUS
 10
365.0763907839
 20
30.81661148
 11
365.3654528428
 21
30.81661148
  0
LINE
  8
0
 62
7
  6
CONTINUOUS
 10
365.8279530634
 20
30.81661148
 11
366.1170157839
 21
30.81661148
  0
LINE
  8
0
 62
7
  6
CONTINUOUS
 10
367.1576407839
 20
30.81661148
 11
367.4467028428
 21
30.81661148
  0
LINE
  8
0
 62
7
  6
CONTINUOUS
 10
368.7185782839
 20
30.81661148
 11
369.0654532839
 21
30.81661148
  0
LINE
  8
0
 62
7
  6
CONTINUOUS
 10
369.0654532839
 20
30.945666237
 11
368.7185782839
 21
30.945666237
  0
LINE
  8
0
 62
7
  6
CONTINUOUS
 10
363.6888904531
 20
30.945666237
 11
363.3420154531
 21
30.945666237
  0
LINE
  8
0
 62
7
  6
CONTINUOUS
 10
368.1982657839
 20
31.074720994
 11
367.9092030634
 21
31.074720994
  0
LINE
  8
0
 62
7
  6
CONTINUOUS
 10
360.2201406185
 20
31.1392483894
 11
359.9310780634
 21
31.1392483894
  0
LINE
  8
0
 62
7
  6
CONTINUOUS
 10
359.2951405909
 20
31.7199947902
 11
359.6998280358
 21
31.6877311038
  0
LINE
  8
0
 62
7
  6
CONTINUOUS
 10
359.7576405634
 20
31.8167858495
 11
359.3529530358
 21
31.8490495359
  0
LINE
  8
0
 62
7
  6
CONTINUOUS
 10
368.3717032839
 20
30.8488751693
 11
368.7185782839
 21
30.81661148
  0
LINE
  8
0
 62
7
  6
CONTINUOUS
 10
368.7185782839
 20
30.945666237
 11
368.3717032839
 21
30.9779299347
  0
LINE
  8
0
 62
7
  6
CONTINUOUS
 10
364.1513903428
 20
31.8167858495
 11
363.8045156736
 21
31.8490495359
  0
LINE
  8
0
 62
7
  6
CONTINUOUS
 10
368.9498280634
 20
31.7199947902
 11
369.2967030634
 21
31.6877311038
  0
LINE
  8
0
 62
7
  6
CONTINUOUS
 10
369.2967030634
 20
31.8167858495
 11
368.9498280634
 21
31.8490495359
  0
LINE
  8
0
 62
7
  6
CONTINUOUS
 10
366.6373282839
 20
31.7199947902
 11
366.8685780634
 21
31.6877311038
  0
LINE
  8
0
 62
7
  6
CONTINUOUS
 10
369.4701405634
 20
31.7845221631
 11
369.2967030634
 21
31.8167858495
  0
LINE
  8
0
 62
7
  6
CONTINUOUS
 10
369.6435780634
 20
30.9134025506
 11
369.7592026223
 21
31.0101936212
  0
LINE
  8
0
 62
7
  6
CONTINUOUS
 10
364.1513903428
 20
31.106984703
 11
363.9779528428
 21
31.0101936212
  0
LINE
  8
0
 62
7
  6
CONTINUOUS
 10
366.2326403428
 20
31.7522584767
 11
366.1170157839
 21
31.6877311038
  0
LINE
  8
0
 62
7
  6
CONTINUOUS
 10
366.1170157839
 20
31.5586763581
 11
366.2326403428
 21
31.623203731
  0
LINE
  8
0
 62
7
  6
CONTINUOUS
 10
358.8326405772
 20
31.7845221631
 11
358.6592030565
 21
31.7199947902
  0
LINE
  8
0
 62
7
  6
CONTINUOUS
 10
361.2607654531
 20
31.8167858495
 11
361.0873281185
 21
31.7522584767
  0
LINE
  8
0
 62
7
  6
CONTINUOUS
 10
361.0873281185
 20
31.623203731
 11
361.2607654531
 21
31.6877311038
  0
LINE
  8
0
 62
7
  6
CONTINUOUS
 10
359.8732656185
 20
31.0424573076
 11
359.6998280358
 21
30.9779299347
  0
LINE
  8
0
 62
7
  6
CONTINUOUS
 10
369.2967030634
 20
30.9779299347
 11
369.0654532839
 21
30.945666237
  0
LINE
  8
0
 62
7
  6
CONTINUOUS
 10
363.6888904531
 20
30.81661148
 11
363.9779528428
 21
30.8488751693
  0
LINE
  8
0
 62
7
  6
CONTINUOUS
 10
369.0654532839
 20
30.81661148
 11
369.4123282839
 21
30.8488751693
  0
LINE
  8
0
 62
7
  6
CONTINUOUS
 10
359.3529530358
 20
30.81661148
 11
359.7576405634
 21
30.8488751693
  0
LINE
  8
0
 62
7
  6
CONTINUOUS
 10
359.6998280358
 20
30.9779299347
 11
359.2951405909
 21
30.945666237
  0
LINE
  8
0
 62
7
  6
CONTINUOUS
 10
363.5732655634
 20
31.3650941944
 11
364.2092032839
 21
31.3650941944
  0
LINE
  8
0
 62
7
  6
CONTINUOUS
 10
364.2092032839
 20
31.4941489853
 11
363.5732655634
 21
31.4941489853
  0
LINE
  8
0
 62
7
  6
CONTINUOUS
 10
359.9310780634
 20
31.5264126717
 11
360.2201406185
 21
31.5264126717
  0
LINE
  8
0
 62
7
  6
CONTINUOUS
 10
362.7638906736
 20
31.5909400446
 11
363.0529530634
 21
31.5909400446
  0
LINE
  8
0
 62
7
  6
CONTINUOUS
 10
369.4701405634
 20
31.5909400446
 11
369.7592026223
 21
31.5909400446
  0
LINE
  8
0
 62
7
  6
CONTINUOUS
 10
363.4576406736
 20
31.7199947902
 11
363.8045156736
 21
31.7199947902
  0
LINE
  8
0
 62
7
  6
CONTINUOUS
 10
368.6029530634
 20
31.7199947902
 11
368.9498280634
 21
31.7199947902
  0
LINE
  8
0
 62
7
  6
CONTINUOUS
 10
368.9498280634
 20
31.8490495359
 11
368.6029530634
 21
31.8490495359
  0
LINE
  8
0
 62
7
  6
CONTINUOUS
 10
366.8685780634
 20
31.8490495359
 11
366.6373282839
 21
31.8490495359
  0
LINE
  8
0
 62
7
  6
CONTINUOUS
 10
366.1170157839
 20
31.8490495359
 11
365.8279530634
 21
31.8490495359
  0
LINE
  8
0
 62
7
  6
CONTINUOUS
 10
365.3654528428
 20
31.8490495359
 11
365.0763907839
 21
31.8490495359
  0
LINE
  8
0
 62
7
  6
CONTINUOUS
 10
363.8045156736
 20
31.8490495359
 11
363.4576406736
 21
31.8490495359
  0
LINE
  8
0
 62
7
  6
CONTINUOUS
 10
361.7232656736
 20
31.8490495359
 11
361.4920155634
 21
31.8490495359
  0
LINE
  8
0
 62
7
  6
CONTINUOUS
 10
365.0763907839
 20
32.1716864905
 11
365.3654528428
 21
32.1716864905
  0
LINE
  8
0
 62
7
  6
CONTINUOUS
 10
365.3654528428
 20
32.3330049227
 11
365.0763907839
 21
32.3330049227
  0
LINE
  8
0
 62
7
  6
CONTINUOUS
 10
360.9717030634
 20
32.3330049227
 11
360.6826405082
 21
32.3330049227
  0
LINE
  8
0
 62
7
  6
CONTINUOUS
 10
360.0094848257
 20
32.6198901686
 11
360.4220561743
 21
32.6198901686
  0
LINE
  8
0
 62
7
  6
CONTINUOUS
 10
361.648829088
 20
32.6198901686
 11
363.0422717109
 21
32.6198901686
  0
LINE
  8
0
 62
7
  6
CONTINUOUS
 10
363.3701405634
 20
32.6198901686
 11
364.7635831863
 21
32.6198901686
  0
LINE
  8
0
 62
7
  6
CONTINUOUS
 10
366.648829088
 20
32.6198901686
 11
368.0422717109
 21
32.6198901686
  0
LINE
  8
0
 62
7
  6
CONTINUOUS
 10
368.3701405634
 20
32.6198901686
 11
369.7635831863
 21
32.6198901686
  0
LINE
  8
0
 62
7
  6
CONTINUOUS
 10
366.4060778428
 20
31.8167858495
 11
366.2326403428
 21
31.7522584767
  0
LINE
  8
0
 62
7
  6
CONTINUOUS
 10
363.9779528428
 20
30.8488751693
 11
364.1513903428
 21
30.9134025506
  0
LINE
  8
0
 62
7
  6
CONTINUOUS
 10
369.4123282839
 20
30.8488751693
 11
369.6435780634
 21
30.9134025506
  0
LINE
  8
0
 62
7
  6
CONTINUOUS
 10
369.4123282839
 20
31.0101936212
 11
369.2967030634
 21
30.9779299347
  0
LINE
  8
0
 62
7
  6
CONTINUOUS
 10
368.3717032839
 20
31.6877311038
 11
368.6029530634
 21
31.7199947902
  0
LINE
  8
0
 62
7
  6
CONTINUOUS
 10
366.4060778428
 20
31.6877311038
 11
366.6373282839
 21
31.7199947902
  0
LINE
  8
0
 62
7
  6
CONTINUOUS
 10
363.3420154531
 20
31.332830508
 11
363.5732655634
 21
31.3650941944
  0
LINE
  8
0
 62
7
  6
CONTINUOUS
 10
366.6373282839
 20
31.8490495359
 11
366.4060778428
 21
31.8167858495
  0
LINE
  8
0
 62
7
  6
CONTINUOUS
 10
363.2263905634
 20
31.6877311038
 11
363.4576406736
 21
31.7199947902
  0
LINE
  8
0
 62
7
  6
CONTINUOUS
 10
368.6029530634
 20
31.8490495359
 11
368.2560780634
 21
31.8167858495
  0
LINE
  8
0
 62
7
  6
CONTINUOUS
 10
363.5732655634
 20
31.4941489853
 11
363.2263905634
 21
31.4618852989
  0
LINE
  8
0
 62
7
  6
CONTINUOUS
 10
359.3529530358
 20
31.8490495359
 11
359.0060780772
 21
31.8167858495
  0
LINE
  8
0
 62
7
  6
CONTINUOUS
 10
363.4576406736
 20
31.8490495359
 11
363.0529530634
 21
31.8167858495
  0
LINE
  8
0
 62
7
  6
CONTINUOUS
 10
360.8291569568
 20
33.7674311522
 11
360.1734192519
 21
33.7674311522
  0
LINE
  8
0
 62
7
  6
CONTINUOUS
 10
366.2326403428
 20
31.623203731
 11
366.4060778428
 21
31.6877311038
  0
LINE
  8
0
 62
7
  6
CONTINUOUS
 10
368.2560780634
 20
31.6554674174
 11
368.3717032839
 21
31.6877311038
  0
LINE
  8
0
 62
7
  6
CONTINUOUS
 10
368.2560780634
 20
31.8167858495
 11
368.0248282839
 21
31.7522584767
  0
LINE
  8
0
 62
7
  6
CONTINUOUS
 10
363.9779528428
 20
31.0101936212
 11
363.6888904531
 21
30.945666237
  0
LINE
  8
0
 62
7
  6
CONTINUOUS
 10
361.2607654531
 20
31.6877311038
 11
361.4920155634
 21
31.7199947902
  0
LINE
  8
0
 62
7
  6
CONTINUOUS
 10
361.4920155634
 20
31.8490495359
 11
361.2607654531
 21
31.8167858495
  0
LINE
  8
0
 62
7
  6
CONTINUOUS
 10
359.0638905634
 20
31.6877311038
 11
359.2951405909
 21
31.7199947902
  0
LINE
  8
0
 62
7
  6
CONTINUOUS
 10
365.5832553175
 20
35.2428409882
 11
366.2389930224
 21
35.2428409882
  0
LINE
  8
0
 62
7
  6
CONTINUOUS
 10
363.2263905634
 20
31.3005668216
 11
363.3420154531
 21
31.332830508
  0
LINE
  8
0
 62
7
  6
CONTINUOUS
 10
363.2263905634
 20
31.4618852989
 11
362.9951404531
 21
31.397357926
  0
LINE
  8
0
 62
7
  6
CONTINUOUS
 10
363.1107656736
 20
31.6554674174
 11
363.2263905634
 21
31.6877311038
  0
LINE
  8
0
 62
7
  6
CONTINUOUS
 10
359.7576405634
 20
30.8488751693
 11
359.9888905082
 21
30.9134025506
  0
LINE
  8
0
 62
7
  6
CONTINUOUS
 10
363.0529530634
 20
31.8167858495
 11
362.9373281736
 21
31.7845221631
  0
LINE
  8
0
 62
7
  6
CONTINUOUS
 10
359.0060780772
 20
31.8167858495
 11
358.8326405772
 21
31.7845221631
  0
LINE
  8
0
 62
7
  6
CONTINUOUS
 10
369.7635831863
 20
36.3903819718
 11
368.3701405634
 21
36.3903819718
  0
LINE
  8
0
 62
7
  6
CONTINUOUS
 10
366.4029274486
 20
36.3903819718
 11
365.9903561
 21
36.3903819718
  0
LINE
  8
0
 62
7
  6
CONTINUOUS
 10
364.7635831863
 20
36.3903819718
 11
363.3701405634
 21
36.3903819718
  0
LINE
  8
0
 62
7
  6
CONTINUOUS
 10
363.0422717109
 20
36.3903819718
 11
361.648829088
 21
36.3903819718
  0
LINE
  8
0
 62
7
  6
CONTINUOUS
 10
359.7635831863
 20
36.3903819718
 11
358.3701405634
 21
36.3903819718
  0
LINE
  8
0
 62
7
  6
CONTINUOUS
 10
358.9482655496
 20
31.6554674174
 11
359.0638905634
 21
31.6877311038
  0
CIRCLE
  8
0
 62
7
  6
CONTINUOUS
 10
369.0668618749
 20
38.7264475456
 40
2.0901639344
  0
ARC
  8
0
 62
7
  6
CONTINUOUS
 10
360.0094848257
 20
34.2592344308
 40
1.6393442623
 50
180.0
 51
270.0
  0
ARC
  8
0
 62
7
  6
CONTINUOUS
 10
366.4029274486
 20
34.7510377095
 40
1.6393442623
 50
0.0
 51
90.0
  0
ARC
  8
0
 62
7
  6
CONTINUOUS
 10
360.4220561743
 20
34.0953000046
 40
1.4754098361
 50
270.0
 51
326.2510114041
  0
ARC
  8
0
 62
7
  6
CONTINUOUS
 10
365.9903561
 20
34.9149721358
 40
1.4754098361
 50
90.0
 51
146.2510114041
  0
ARC
  8
0
 62
7
  6
CONTINUOUS
 10
360.8291569568
 20
34.5871032833
 40
0.8196721311
 50
270.0
 51
360.0
  0
ARC
  8
0
 62
7
  6
CONTINUOUS
 10
365.5832553175
 20
34.4231688571
 40
0.8196721311
 50
90.0
 51
180.0
  0
ARC
  8
0
 62
7
  6
CONTINUOUS
 10
360.1734192519
 20
34.1772672177
 40
0.4098360656
 50
180.0
 51
270.0
  0
ARC
  8
0
 62
7
  6
CONTINUOUS
 10
366.2389930224
 20
34.8330049227
 40
0.4098360656
 50
0.0
 51
90.0
  0
SOLID
  8
0
 62
7
  6
CONTINUOUS
 10
365.0763907839
 20
32.1716868508
 11
365.0763907839
 21
32.3330053344
 12
365.3654528428
 22
32.1716868508
 13
365.3654528428
 23
32.3330053344
  0
SOLID
  8
0
 62
7
  6
CONTINUOUS
 10
359.3529530358
 20
31.8490498836
 11
359.7576405634
 21
31.8167854792
 12
359.0060780772
 22
31.8167854792
 13
359.0060780772
 23
31.8167854792
  0
SOLID
  8
0
 62
7
  6
CONTINUOUS
 10
358.8326405772
 20
31.7845227934
 11
359.0060780772
 21
31.8167854792
 12
359.7576405634
 22
31.8167854792
 13
359.7576405634
 23
31.8167854792
  0
SOLID
  8
0
 62
7
  6
CONTINUOUS
 10
359.7576405634
 20
31.8167854792
 11
359.9888905082
 21
31.7522584901
 12
358.8326405772
 22
31.7845227934
 13
358.8326405772
 23
31.7845227934
  0
SOLID
  8
0
 62
7
  6
CONTINUOUS
 10
358.6592030565
 20
31.7199940664
 11
358.8326405772
 21
31.7845227934
 12
359.9888905082
 22
31.7522584901
 13
359.9888905082
 23
31.7522584901
  0
SOLID
  8
0
 62
7
  6
CONTINUOUS
 10
358.6592030565
 20
31.7199940664
 11
359.9888905082
 21
31.7522584901
 12
359.2951405909
 22
31.7199940664
 13
359.2951405909
 23
31.7199940664
  0
SOLID
  8
0
 62
7
  6
CONTINUOUS
 10
359.2951405909
 20
31.7199940664
 11
359.9888905082
 21
31.7522584901
 12
359.6998280358
 22
31.6877314
 13
359.6998280358
 23
31.6877314
  0
SOLID
  8
0
 62
7
  6
CONTINUOUS
 10
359.9888905082
 20
31.7522584901
 11
360.1623280082
 21
31.6554670967
 12
359.6998280358
 22
31.6877314
 13
359.6998280358
 23
31.6877314
  0
SOLID
  8
0
 62
7
  6
CONTINUOUS
 10
359.8732656185
 20
31.6232043098
 11
359.6998280358
 21
31.6877314
 12
360.1623280082
 22
31.6554670967
 13
360.1623280082
 23
31.6554670967
  0
SOLID
  8
0
 62
7
  6
CONTINUOUS
 10
359.8732656185
 20
31.6232043098
 11
360.1623280082
 21
31.6554670967
 12
359.9310780634
 22
31.5264128539
 13
359.9310780634
 23
31.5264128539
  0
SOLID
  8
0
 62
7
  6
CONTINUOUS
 10
360.1623280082
 20
31.6554670967
 11
360.2201406185
 21
31.5264128539
 12
359.9310780634
 22
31.5264128539
 13
359.9310780634
 23
31.5264128539
  0
SOLID
  8
0
 62
7
  6
CONTINUOUS
 10
361.2607654531
 20
31.8167852459
 11
361.4920155634
 21
31.8490495492
 12
361.7232656736
 22
31.8490495492
 13
361.7232656736
 23
31.8490495492
  0
SOLID
  8
0
 62
7
  6
CONTINUOUS
 10
361.7232656736
 20
31.8490495492
 11
361.8967031736
 21
31.8167852459
 12
361.2607654531
 22
31.8167852459
 13
361.2607654531
 23
31.8167852459
  0
SOLID
  8
0
 62
7
  6
CONTINUOUS
 10
361.0873281185
 20
31.7522581557
 11
361.2607654531
 21
31.8167852459
 12
361.8967031736
 22
31.8167852459
 13
361.8967031736
 23
31.8167852459
  0
SOLID
  8
0
 62
7
  6
CONTINUOUS
 10
361.8967031736
 20
31.8167852459
 11
362.0701406736
 21
31.7522581557
 12
361.0873281185
 22
31.7522581557
 13
361.0873281185
 23
31.7522581557
  0
SOLID
  8
0
 62
7
  6
CONTINUOUS
 10
362.0701406736
 20
31.7522581557
 11
361.4920155634
 21
31.7199941869
 12
361.0873281185
 22
31.7522581557
 13
361.0873281185
 23
31.7522581557
  0
SOLID
  8
0
 62
7
  6
CONTINUOUS
 10
360.9717030634
 20
31.6877310656
 11
361.0873281185
 21
31.7522581557
 12
361.4920155634
 22
31.7199941869
 13
361.4920155634
 23
31.7199941869
  0
SOLID
  8
0
 62
7
  6
CONTINUOUS
 10
361.4920155634
 20
31.7199941869
 11
361.2607654531
 21
31.6877310656
 12
360.9717030634
 22
31.6877310656
 13
360.9717030634
 23
31.6877310656
  0
SOLID
  8
0
 62
7
  6
CONTINUOUS
 10
361.4920155634
 20
31.7199941869
 11
362.0701406736
 21
31.7522581557
 12
361.7232656736
 22
31.6877310656
 13
361.7232656736
 23
31.6877310656
  0
SOLID
  8
0
 62
7
  6
CONTINUOUS
 10
362.0701406736
 20
31.7522581557
 11
362.1857655634
 21
31.6877310656
 12
361.7232656736
 22
31.6877310656
 13
361.7232656736
 23
31.6877310656
  0
SOLID
  8
0
 62
7
  6
CONTINUOUS
 10
361.8388905634
 20
31.6554670967
 11
361.7232656736
 21
31.6877310656
 12
362.1857655634
 22
31.6877310656
 13
362.1857655634
 23
31.6877310656
  0
SOLID
  8
0
 62
7
  6
CONTINUOUS
 10
362.1857655634
 20
31.6877310656
 11
362.2435781736
 21
31.6232039754
 12
361.8388905634
 22
31.6554670967
 13
361.8388905634
 23
31.6554670967
  0
SOLID
  8
0
 62
7
  6
CONTINUOUS
 10
361.9545154531
 20
31.5909400065
 11
361.8388905634
 21
31.6554670967
 12
362.2435781736
 22
31.6232039754
 13
362.2435781736
 23
31.6232039754
  0
SOLID
  8
0
 62
7
  6
CONTINUOUS
 10
361.9545154531
 20
31.5909400065
 11
362.2435781736
 21
31.6232039754
 12
362.0123280634
 22
31.4618854918
 13
362.0123280634
 23
31.4618854918
  0
SOLID
  8
0
 62
7
  6
CONTINUOUS
 10
362.2435781736
 20
31.6232039754
 11
362.3013904531
 21
31.4618854918
 12
362.0123280634
 22
31.4618854918
 13
362.0123280634
 23
31.4618854918
  0
SOLID
  8
0
 62
7
  6
CONTINUOUS
 10
361.2607654531
 20
31.6877310656
 11
361.0873281185
 21
31.6232039754
 12
360.9717030634
 22
31.6877310656
 13
360.9717030634
 23
31.6877310656
  0
SOLID
  8
0
 62
7
  6
CONTINUOUS
 10
361.0873281185
 20
31.6232039754
 11
360.9717030634
 21
31.5586757033
 12
360.9717030634
 22
31.6877310656
 13
360.9717030634
 23
31.6877310656
  0
SOLID
  8
0
 62
7
  6
CONTINUOUS
 10
360.9717030634
 20
31.5586757033
 11
360.6826405082
 21
30.8166115574
 12
360.9717030634
 22
31.6877310656
 13
360.9717030634
 23
31.6877310656
  0
SOLID
  8
0
 62
7
  6
CONTINUOUS
 10
360.9717030634
 20
31.6877310656
 11
360.6826405082
 21
30.8166115574
 12
360.9717030634
 22
32.333005
 13
360.9717030634
 23
32.333005
  0
SOLID
  8
0
 62
7
  6
CONTINUOUS
 10
360.6826405082
 20
30.8166115574
 11
360.6826405082
 21
32.333005
 12
360.9717030634
 22
32.333005
 13
360.9717030634
 23
32.333005
  0
SOLID
  8
0
 62
7
  6
CONTINUOUS
 10
360.9717030634
 20
31.5586757033
 11
360.9717030634
 21
30.8166115574
 12
360.6826405082
 22
30.8166115574
 13
360.6826405082
 23
30.8166115574
  0
SOLID
  8
0
 62
7
  6
CONTINUOUS
 10
362.0123280634
 20
30.8166115574
 11
362.0123280634
 21
31.4618854918
 12
362.3013904531
 22
31.4618854918
 13
362.3013904531
 23
31.4618854918
  0
SOLID
  8
0
 62
7
  6
CONTINUOUS
 10
362.3013904531
 20
31.4618854918
 11
362.3013904531
 21
30.8166115574
 12
362.0123280634
 22
30.8166115574
 13
362.0123280634
 23
30.8166115574
  0
SOLID
  8
0
 62
7
  6
CONTINUOUS
 10
363.0529530634
 20
31.8167856315
 11
363.4576406736
 21
31.8490496243
 12
363.8045156736
 22
31.8490496243
 13
363.8045156736
 23
31.8490496243
  0
SOLID
  8
0
 62
7
  6
CONTINUOUS
 10
363.8045156736
 20
31.8490496243
 11
364.1513903428
 21
31.8167856315
 12
363.0529530634
 22
31.8167856315
 13
363.0529530634
 23
31.8167856315
  0
SOLID
  8
0
 62
7
  6
CONTINUOUS
 10
362.9373281736
 20
31.7845227934
 11
363.0529530634
 21
31.8167856315
 12
364.1513903428
 22
31.8167856315
 13
364.1513903428
 23
31.8167856315
  0
SOLID
  8
0
 62
7
  6
CONTINUOUS
 10
364.1513903428
 20
31.8167856315
 11
364.3248278428
 21
31.7522584901
 12
362.9373281736
 22
31.7845227934
 13
362.9373281736
 23
31.7845227934
  0
SOLID
  8
0
 62
7
  6
CONTINUOUS
 10
362.8217029531
 20
31.7199944276
 11
362.9373281736
 21
31.7845227934
 12
364.3248278428
 22
31.7522584901
 13
364.3248278428
 23
31.7522584901
  0
SOLID
  8
0
 62
7
  6
CONTINUOUS
 10
362.8217029531
 20
31.7199944276
 11
364.3248278428
 21
31.7522584901
 12
363.4576406736
 22
31.7199944276
 13
363.4576406736
 23
31.7199944276
  0
SOLID
  8
0
 62
7
  6
CONTINUOUS
 10
363.4576406736
 20
31.7199944276
 11
364.3248278428
 21
31.7522584901
 12
363.8045156736
 22
31.7199944276
 13
363.8045156736
 23
31.7199944276
  0
SOLID
  8
0
 62
7
  6
CONTINUOUS
 10
363.8045156736
 20
31.7199944276
 11
364.3248278428
 21
31.7522584901
 12
364.0357657839
 22
31.6877312092
 13
364.0357657839
 23
31.6877312092
  0
SOLID
  8
0
 62
7
  6
CONTINUOUS
 10
364.3248278428
 20
31.7522584901
 11
364.4404530634
 21
31.6877312092
 12
364.0357657839
 22
31.6877312092
 13
364.0357657839
 23
31.6877312092
  0
SOLID
  8
0
 62
7
  6
CONTINUOUS
 10
362.7638906736
 20
31.6554672165
 11
362.8217029531
 21
31.7199944276
 12
363.4576406736
 22
31.7199944276
 13
363.4576406736
 23
31.7199944276
  0
SOLID
  8
0
 62
7
  6
CONTINUOUS
 10
364.1513903428
 20
31.6554672165
 11
364.0357657839
 21
31.6877312092
 12
364.4404530634
 22
31.6877312092
 13
364.4404530634
 23
31.6877312092
  0
SOLID
  8
0
 62
7
  6
CONTINUOUS
 10
364.1513903428
 20
31.6554672165
 11
364.4404530634
 21
31.6877312092
 12
364.2092032839
 22
31.5909400053
 13
364.2092032839
 23
31.5909400053
  0
SOLID
  8
0
 62
7
  6
CONTINUOUS
 10
364.4404530634
 20
31.6877312092
 11
364.4982653428
 21
31.5909400053
 12
364.2092032839
 22
31.5909400053
 13
364.2092032839
 23
31.5909400053
  0
SOLID
  8
0
 62
7
  6
CONTINUOUS
 10
364.2092032839
 20
31.4941486131
 11
364.2092032839
 21
31.5909400053
 12
364.4982653428
 22
31.5909400053
 13
364.4982653428
 23
31.5909400053
  0
SOLID
  8
0
 62
7
  6
CONTINUOUS
 10
364.2092032839
 20
31.4941486131
 11
364.4982653428
 21
31.5909400053
 12
364.2092032839
 22
31.3650944328
 13
364.2092032839
 23
31.3650944328
  0
SOLID
  8
0
 62
7
  6
CONTINUOUS
 10
364.2092032839
 20
31.3650944328
 11
364.4982653428
 21
31.5909400053
 12
364.2092032839
 22
31.1715120759
 13
364.2092032839
 23
31.1715120759
  0
SOLID
  8
0
 62
7
  6
CONTINUOUS
 10
364.4982653428
 20
31.5909400053
 11
364.4982653428
 21
31.0747202524
 12
364.2092032839
 22
31.1715120759
 13
364.2092032839
 23
31.1715120759
  0
SOLID
  8
0
 62
7
  6
CONTINUOUS
 10
366.4060778428
 20
31.8167851023
 11
366.6373282839
 21
31.849049822
 12
366.8685780634
 22
31.849049822
 13
366.8685780634
 23
31.849049822
  0
SOLID
  8
0
 62
7
  6
CONTINUOUS
 10
366.8685780634
 20
31.849049822
 11
367.0420155634
 21
31.8167851023
 12
366.4060778428
 22
31.8167851023
 13
366.4060778428
 23
31.8167851023
  0
SOLID
  8
0
 62
7
  6
CONTINUOUS
 10
366.2326403428
 20
31.7522587602
 11
366.4060778428
 21
31.8167851023
 12
367.0420155634
 22
31.8167851023
 13
367.0420155634
 23
31.8167851023
  0
SOLID
  8
0
 62
7
  6
CONTINUOUS
 10
367.0420155634
 20
31.8167851023
 11
367.2154530634
 21
31.7522587602
 12
366.2326403428
 22
31.7522587602
 13
366.2326403428
 23
31.7522587602
  0
SOLID
  8
0
 62
7
  6
CONTINUOUS
 10
367.2154530634
 20
31.7522587602
 11
366.6373282839
 21
31.7199941869
 12
366.2326403428
 22
31.7522587602
 13
366.2326403428
 23
31.7522587602
  0
SOLID
  8
0
 62
7
  6
CONTINUOUS
 10
366.1170157839
 20
31.6877313857
 11
366.2326403428
 21
31.7522587602
 12
366.6373282839
 22
31.7199941869
 13
366.6373282839
 23
31.7199941869
  0
SOLID
  8
0
 62
7
  6
CONTINUOUS
 10
366.6373282839
 20
31.7199941869
 11
366.4060778428
 21
31.6877313857
 12
366.1170157839
 22
31.6877313857
 13
366.1170157839
 23
31.6877313857
  0
SOLID
  8
0
 62
7
  6
CONTINUOUS
 10
366.6373282839
 20
31.7199941869
 11
367.2154530634
 21
31.7522587602
 12
366.8685780634
 22
31.6877313857
 13
366.8685780634
 23
31.6877313857
  0
SOLID
  8
0
 62
7
  6
CONTINUOUS
 10
367.2154530634
 20
31.7522587602
 11
367.3310782839
 21
31.6877313857
 12
366.8685780634
 22
31.6877313857
 13
366.8685780634
 23
31.6877313857
  0
SOLID
  8
0
 62
7
  6
CONTINUOUS
 10
366.9842032839
 20
31.6554670967
 11
366.8685780634
 21
31.6877313857
 12
367.3310782839
 22
31.6877313857
 13
367.3310782839
 23
31.6877313857
  0
SOLID
  8
0
 62
7
  6
CONTINUOUS
 10
366.9842032839
 20
31.6554670967
 11
367.3310782839
 21
31.6877313857
 12
367.0998278428
 22
31.590940324
 13
367.0998278428
 23
31.590940324
  0
SOLID
  8
0
 62
7
  6
CONTINUOUS
 10
367.3310782839
 20
31.6877313857
 11
367.3888905634
 21
31.590940324
 12
367.0998278428
 22
31.590940324
 13
367.0998278428
 23
31.590940324
  0
SOLID
  8
0
 62
7
  6
CONTINUOUS
 10
367.1576407839
 20
31.4296218878
 11
367.0998278428
 21
31.590940324
 12
367.3888905634
 22
31.590940324
 13
367.3888905634
 23
31.590940324
  0
SOLID
  8
0
 62
7
  6
CONTINUOUS
 10
367.3888905634
 20
31.590940324
 11
367.4467028428
 21
31.4296218878
 12
367.1576407839
 22
31.4296218878
 13
367.1576407839
 23
31.4296218878
  0
SOLID
  8
0
 62
7
  6
CONTINUOUS
 10
366.4060778428
 20
31.6877313857
 11
366.2326403428
 21
31.6232043098
 12
366.1170157839
 22
31.6877313857
 13
366.1170157839
 23
31.6877313857
  0
SOLID
  8
0
 62
7
  6
CONTINUOUS
 10
366.2326403428
 20
31.6232043098
 11
366.1170157839
 21
31.5586757033
 12
366.1170157839
 22
31.6877313857
 13
366.1170157839
 23
31.6877313857
  0
SOLID
  8
0
 62
7
  6
CONTINUOUS
 10
366.1170157839
 20
31.5586757033
 11
365.8279530634
 21
30.8166118302
 12
366.1170157839
 22
31.6877313857
 13
366.1170157839
 23
31.6877313857
  0
SOLID
  8
0
 62
7
  6
CONTINUOUS
 10
366.1170157839
 20
31.6877313857
 11
365.8279530634
 21
30.8166118302
 12
366.1170157839
 22
31.849049822
 13
366.1170157839
 23
31.849049822
  0
SOLID
  8
0
 62
7
  6
CONTINUOUS
 10
365.8279530634
 20
30.8166118302
 11
365.8279530634
 21
31.849049822
 12
366.1170157839
 22
31.849049822
 13
366.1170157839
 23
31.849049822
  0
SOLID
  8
0
 62
7
  6
CONTINUOUS
 10
366.1170157839
 20
31.5586757033
 11
366.1170157839
 21
30.8166118302
 12
365.8279530634
 22
30.8166118302
 13
365.8279530634
 23
30.8166118302
  0
SOLID
  8
0
 62
7
  6
CONTINUOUS
 10
367.1576407839
 20
30.8166118302
 11
367.1576407839
 21
31.4296218878
 12
367.4467028428
 22
31.4296218878
 13
367.4467028428
 23
31.4296218878
  0
SOLID
  8
0
 62
7
  6
CONTINUOUS
 10
367.4467028428
 20
31.4296218878
 11
367.4467028428
 21
30.8166118302
 12
367.1576407839
 22
30.8166118302
 13
367.1576407839
 23
30.8166118302
  0
SOLID
  8
0
 62
7
  6
CONTINUOUS
 10
368.2560780634
 20
31.8167856056
 11
368.6029530634
 21
31.8490498552
 12
368.9498280634
 22
31.8490498552
 13
368.9498280634
 23
31.8490498552
  0
SOLID
  8
0
 62
7
  6
CONTINUOUS
 10
368.9498280634
 20
31.8490498552
 11
369.2967030634
 21
31.8167856056
 12
368.2560780634
 22
31.8167856056
 13
368.2560780634
 23
31.8167856056
  0
SOLID
  8
0
 62
7
  6
CONTINUOUS
 10
368.0248282839
 20
31.7522584901
 11
368.2560780634
 21
31.8167856056
 12
369.2967030634
 22
31.8167856056
 13
369.2967030634
 23
31.8167856056
  0
SOLID
  8
0
 62
7
  6
CONTINUOUS
 10
368.0248282839
 20
31.7522584901
 11
369.2967030634
 21
31.8167855803
 12
369.4701405634
 22
31.7845227934
 13
369.4701405634
 23
31.7845227934
  0
SOLID
  8
0
 62
7
  6
CONTINUOUS
 10
368.0248282839
 20
31.7522584901
 11
369.4701405634
 21
31.7845227934
 12
368.6029530634
 22
31.7199941235
 13
368.6029530634
 23
31.7199941235
  0
SOLID
  8
0
 62
7
  6
CONTINUOUS
 10
368.6029530634
 20
31.7199941235
 11
369.4701405634
 21
31.7845227934
 12
368.9498280634
 22
31.7199941235
 13
368.9498280634
 23
31.7199941235
  0
SOLID
  8
0
 62
7
  6
CONTINUOUS
 10
369.4701405634
 20
31.7845227934
 11
369.6435780634
 21
31.7199941235
 12
368.9498280634
 22
31.7199941235
 13
368.9498280634
 23
31.7199941235
  0
SOLID
  8
0
 62
7
  6
CONTINUOUS
 10
369.2967030634
 20
31.6877314
 11
368.9498280634
 21
31.7199941235
 12
369.6435780634
 22
31.7199941235
 13
369.6435780634
 23
31.7199941235
  0
SOLID
  8
0
 62
7
  6
CONTINUOUS
 10
367.9092030634
 20
31.6554671071
 11
368.0248282839
 21
31.7522584901
 12
368.6029530634
 22
31.7199941235
 13
368.6029530634
 23
31.7199941235
  0
SOLID
  8
0
 62
7
  6
CONTINUOUS
 10
369.2967030634
 20
31.6877314
 11
369.6435780634
 21
31.7199941235
 12
369.4123282839
 22
31.6554671071
 13
369.4123282839
 23
31.6554671071
  0
SOLID
  8
0
 62
7
  6
CONTINUOUS
 10
369.4123282839
 20
31.6554671071
 11
369.6435780634
 21
31.7199941235
 12
369.4701405634
 22
31.5909400907
 13
369.4701405634
 23
31.5909400907
  0
SOLID
  8
0
 62
7
  6
CONTINUOUS
 10
369.6435780634
 20
31.7199941235
 11
369.7592026223
 21
31.5909400907
 12
369.4701405634
 22
31.5909400907
 13
369.4701405634
 23
31.5909400907
  0
SOLID
  8
0
 62
7
  6
CONTINUOUS
 10
359.0638905634
 20
31.6877314
 11
358.5435780634
 21
31.6554670789
 12
359.2951405909
 22
31.7199941045
 13
359.2951405909
 23
31.7199941045
  0
SOLID
  8
0
 62
7
  6
CONTINUOUS
 10
358.5435780634
 20
31.6554670789
 11
358.6592030565
 21
31.7199941045
 12
359.2951405909
 22
31.7199941045
 13
359.2951405909
 23
31.7199941045
  0
SOLID
  8
0
 62
7
  6
CONTINUOUS
 10
359.0638905634
 20
31.6877314
 11
358.9482655496
 21
31.6554670789
 12
358.5435780634
 22
31.6554670789
 13
358.5435780634
 23
31.6554670789
  0
SOLID
  8
0
 62
7
  6
CONTINUOUS
 10
358.4279530651
 20
31.5264129164
 11
358.5435780634
 21
31.6554670789
 12
358.9482655496
 22
31.6554670789
 13
358.9482655496
 23
31.6554670789
  0
SOLID
  8
0
 62
7
  6
CONTINUOUS
 10
362.7638906736
 20
31.6554670789
 11
363.4576406736
 21
31.7199941869
 12
363.2263905634
 22
31.6877314
 13
363.2263905634
 23
31.6877314
  0
SOLID
  8
0
 62
7
  6
CONTINUOUS
 10
363.2263905634
 20
31.6877314
 11
363.1107656736
 21
31.6554670789
 12
362.7638906736
 22
31.6554670789
 13
362.7638906736
 23
31.6554670789
  0
SOLID
  8
0
 62
7
  6
CONTINUOUS
 10
362.7638906736
 20
31.5909399887
 11
362.7638906736
 21
31.6554670789
 12
363.1107656736
 22
31.6554670789
 13
363.1107656736
 23
31.6554670789
  0
SOLID
  8
0
 62
7
  6
CONTINUOUS
 10
363.1107656736
 20
31.6554670789
 11
363.0529530634
 21
31.5909399887
 12
362.7638906736
 22
31.5909399887
 13
362.7638906736
 23
31.5909399887
  0
SOLID
  8
0
 62
7
  6
CONTINUOUS
 10
367.9092030634
 20
31.6554670789
 11
368.6029530634
 21
31.7199941869
 12
368.3717032839
 22
31.6877314
 13
368.3717032839
 23
31.6877314
  0
SOLID
  8
0
 62
7
  6
CONTINUOUS
 10
368.3717032839
 20
31.6877314
 11
368.2560780634
 21
31.6554670789
 12
367.9092030634
 22
31.6554670789
 13
367.9092030634
 23
31.6554670789
  0
SOLID
  8
0
 62
7
  6
CONTINUOUS
 10
367.9092030634
 20
31.5909399887
 11
367.9092030634
 21
31.6554670789
 12
368.2560780634
 22
31.6554670789
 13
368.2560780634
 23
31.6554670789
  0
SOLID
  8
0
 62
7
  6
CONTINUOUS
 10
368.2560780634
 20
31.6554670789
 11
368.1982657839
 21
31.5909399887
 12
367.9092030634
 22
31.5909399887
 13
367.9092030634
 23
31.5909399887
  0
SOLID
  8
0
 62
7
  6
CONTINUOUS
 10
368.0248282839
 20
31.4618858262
 11
367.9092030634
 21
31.5909399887
 12
368.1982657839
 22
31.5909399887
 13
368.1982657839
 23
31.5909399887
  0
SOLID
  8
0
 62
7
  6
CONTINUOUS
 10
358.4279530651
 20
31.5264129164
 11
358.9482655496
 21
31.6554670967
 12
358.7748280496
 22
31.5586757033
 13
358.7748280496
 23
31.5586757033
  0
SOLID
  8
0
 62
7
  6
CONTINUOUS
 10
358.7748280496
 20
31.5586757033
 11
358.7170155634
 21
31.4941486131
 12
358.4279530651
 22
31.5264129164
 13
358.4279530651
 23
31.5264129164
  0
SOLID
  8
0
 62
7
  6
CONTINUOUS
 10
358.3701405634
 20
31.3328301295
 11
358.4279530651
 21
31.5264129164
 12
358.7170155634
 22
31.4941486131
 13
358.7170155634
 23
31.4941486131
  0
SOLID
  8
0
 62
7
  6
CONTINUOUS
 10
363.2263905634
 20
31.4618858262
 11
363.5732655634
 21
31.4941485791
 12
364.2092032839
 22
31.4941485791
 13
364.2092032839
 23
31.4941485791
  0
SOLID
  8
0
 62
7
  6
CONTINUOUS
 10
363.2263905634
 20
31.4618858262
 11
364.2092032839
 21
31.4941485791
 12
362.9951404531
 22
31.397357926
 13
362.9951404531
 23
31.397357926
  0
SOLID
  8
0
 62
7
  6
CONTINUOUS
 10
362.9951404531
 20
31.397357926
 11
364.2092032839
 21
31.4941485791
 12
363.5732655634
 22
31.3650943988
 13
363.5732655634
 23
31.3650943988
  0
SOLID
  8
0
 62
7
  6
CONTINUOUS
 10
364.2092032839
 20
31.4941485791
 11
364.2092032839
 21
31.3650943988
 12
363.5732655634
 22
31.3650943988
 13
363.5732655634
 23
31.3650943988
  0
SOLID
  8
0
 62
7
  6
CONTINUOUS
 10
368.0248282839
 20
31.4618859165
 11
368.1982657839
 21
31.5909400065
 12
368.2560780634
 22
31.5264129164
 13
368.2560780634
 23
31.5264129164
  0
SOLID
  8
0
 62
7
  6
CONTINUOUS
 10
368.2560780634
 20
31.5264129164
 11
368.4295155634
 21
31.4618859165
 12
368.0248282839
 22
31.4618859165
 13
368.0248282839
 23
31.4618859165
  0
SOLID
  8
0
 62
7
  6
CONTINUOUS
 10
368.2560780634
 20
31.3650944328
 11
368.0248282839
 21
31.4618859165
 12
368.4295155634
 22
31.4618859165
 13
368.4295155634
 23
31.4618859165
  0
SOLID
  8
0
 62
7
  6
CONTINUOUS
 10
368.4295155634
 20
31.4618859165
 11
369.4123282839
 21
31.3005673426
 12
368.2560780634
 22
31.3650944328
 13
368.2560780634
 23
31.3650944328
  0
SOLID
  8
0
 62
7
  6
CONTINUOUS
 10
369.2388907839
 20
31.2037760287
 11
368.2560780634
 21
31.3650944328
 12
369.4123282839
 22
31.3005673426
 13
369.4123282839
 23
31.3005673426
  0
SOLID
  8
0
 62
7
  6
CONTINUOUS
 10
369.4123282839
 20
31.3005673426
 11
369.6435780634
 21
31.2037760287
 12
369.2388907839
 22
31.2037760287
 13
369.2388907839
 23
31.2037760287
  0
SOLID
  8
0
 62
7
  6
CONTINUOUS
 10
369.4123282839
 20
31.139248859
 11
369.2388907839
 21
31.2037760287
 12
369.6435780634
 22
31.2037760287
 13
369.6435780634
 23
31.2037760287
  0
SOLID
  8
0
 62
7
  6
CONTINUOUS
 10
369.4123282839
 20
31.139248859
 11
369.6435780634
 21
31.2037760287
 12
369.4701405634
 22
31.0747203105
 13
369.4701405634
 23
31.0747203105
  0
SOLID
  8
0
 62
7
  6
CONTINUOUS
 10
369.6435780634
 20
31.2037760287
 11
369.7592026223
 21
31.0747203105
 12
369.4701405634
 22
31.0747203105
 13
369.4701405634
 23
31.0747203105
  0
SOLID
  8
0
 62
7
  6
CONTINUOUS
 10
369.4123282839
 20
31.0101932257
 11
369.4701405634
 21
31.0747203105
 12
369.7592026223
 22
31.0747203105
 13
369.7592026223
 23
31.0747203105
  0
SOLID
  8
0
 62
7
  6
CONTINUOUS
 10
369.7592026223
 20
31.0747203105
 11
369.7592026223
 21
31.0101932257
 12
369.4123282839
 22
31.0101932257
 13
369.4123282839
 23
31.0101932257
  0
SOLID
  8
0
 62
7
  6
CONTINUOUS
 10
369.2967030634
 20
30.9779303754
 11
369.4123282839
 21
31.0101932257
 12
369.7592026223
 22
31.0101932257
 13
369.7592026223
 23
31.0101932257
  0
SOLID
  8
0
 62
7
  6
CONTINUOUS
 10
369.2967030634
 20
30.9779303754
 11
369.7592026223
 21
31.0101932257
 12
369.0654532839
 22
30.9456661409
 13
369.0654532839
 23
30.9456661409
  0
SOLID
  8
0
 62
7
  6
CONTINUOUS
 10
369.7592026223
 20
31.0101932257
 11
369.6435780634
 21
30.9134032852
 12
369.0654532839
 22
30.9456661409
 13
369.0654532839
 23
30.9456661409
  0
SOLID
  8
0
 62
7
  6
CONTINUOUS
 10
369.6435780634
 20
30.9134032852
 11
368.1982657839
 21
30.8811389819
 12
369.0654532839
 22
30.9456661409
 13
369.0654532839
 23
30.9456661409
  0
SOLID
  8
0
 62
7
  6
CONTINUOUS
 10
369.0654532839
 20
30.9456661409
 11
368.1982657839
 21
30.8811389819
 12
368.7185782839
 22
30.9456661409
 13
368.7185782839
 23
30.9456661409
  0
SOLID
  8
0
 62
7
  6
CONTINUOUS
 10
368.1982657839
 20
30.8811389819
 11
368.0248282839
 21
30.9456661409
 12
368.7185782839
 22
30.9456661409
 13
368.7185782839
 23
30.9456661409
  0
SOLID
  8
0
 62
7
  6
CONTINUOUS
 10
368.1982657839
 20
30.8811389819
 11
369.6435780634
 21
30.9134032852
 12
368.3717032839
 22
30.8488743522
 13
368.3717032839
 23
30.8488743522
  0
SOLID
  8
0
 62
7
  6
CONTINUOUS
 10
369.6435780634
 20
30.9134032852
 11
369.4123282839
 21
30.8488743522
 12
368.3717032839
 22
30.8488743522
 13
368.3717032839
 23
30.8488743522
  0
SOLID
  8
0
 62
7
  6
CONTINUOUS
 10
368.7185782839
 20
30.8166119713
 11
368.3717032839
 21
30.8488743522
 12
369.4123282839
 22
30.8488743522
 13
369.4123282839
 23
30.8488743522
  0
SOLID
  8
0
 62
7
  6
CONTINUOUS
 10
369.4123282839
 20
30.8488743522
 11
369.0654532839
 21
30.8166119713
 12
368.7185782839
 22
30.8166119713
 13
368.7185782839
 23
30.8166119713
  0
SOLID
  8
0
 62
7
  6
CONTINUOUS
 10
358.3701405634
 20
31.3328301295
 11
358.7170155634
 21
31.4941486131
 12
358.6592030565
 22
31.3650944328
 13
358.6592030565
 23
31.3650944328
  0
SOLID
  8
0
 62
7
  6
CONTINUOUS
 10
358.6592030565
 20
31.3650944328
 11
358.6592030565
 21
31.2683031351
 12
358.3701405634
 22
31.3328301295
 13
358.3701405634
 23
31.3328301295
  0
SOLID
  8
0
 62
7
  6
CONTINUOUS
 10
358.4279530651
 20
31.139248859
 11
358.3701405634
 21
31.3328301295
 12
358.6592030565
 22
31.2683031351
 13
358.6592030565
 23
31.2683031351
  0
SOLID
  8
0
 62
7
  6
CONTINUOUS
 10
358.6592030565
 20
31.2683031351
 11
358.7748280496
 21
31.1069845557
 12
358.4279530651
 22
31.139248859
 13
358.4279530651
 23
31.139248859
  0
SOLID
  8
0
 62
7
  6
CONTINUOUS
 10
358.5435780634
 20
31.0101931569
 11
358.4279530651
 21
31.139248859
 12
358.7748280496
 22
31.1069845557
 13
358.7748280496
 23
31.1069845557
  0
SOLID
  8
0
 62
7
  6
CONTINUOUS
 10
358.7748280496
 20
31.1069845557
 11
358.9482655496
 21
31.0101931569
 12
358.5435780634
 22
31.0101931569
 13
358.5435780634
 23
31.0101931569
  0
SOLID
  8
0
 62
7
  6
CONTINUOUS
 10
358.6592030565
 20
30.9456659241
 11
358.5435780634
 21
31.0101931569
 12
358.9482655496
 22
31.0101931569
 13
358.9482655496
 23
31.0101931569
  0
SOLID
  8
0
 62
7
  6
CONTINUOUS
 10
358.9482655496
 20
31.0101931569
 11
359.2951405909
 21
30.9456659241
 12
358.6592030565
 22
30.9456659241
 13
358.6592030565
 23
30.9456659241
  0
SOLID
  8
0
 62
7
  6
CONTINUOUS
 10
358.8326405772
 20
30.8811389819
 11
358.6592030565
 21
30.9456659241
 12
359.2951405909
 22
30.9456659241
 13
359.2951405909
 23
30.9456659241
  0
SOLID
  8
0
 62
7
  6
CONTINUOUS
 10
362.8795155634
 20
31.3328301325
 11
362.9951404531
 21
31.397357926
 12
363.5732655634
 22
31.3650944328
 13
363.5732655634
 23
31.3650944328
  0
SOLID
  8
0
 62
7
  6
CONTINUOUS
 10
363.5732655634
 20
31.3650944328
 11
363.3420154531
 21
31.3328301325
 12
362.8795155634
 22
31.3328301325
 13
362.8795155634
 23
31.3328301325
  0
SOLID
  8
0
 62
7
  6
CONTINUOUS
 10
362.7638906736
 20
31.2037759492
 11
362.8795155634
 21
31.3328301325
 12
363.3420154531
 22
31.3328301325
 13
363.3420154531
 23
31.3328301325
  0
SOLID
  8
0
 62
7
  6
CONTINUOUS
 10
363.1107656736
 20
31.2360394487
 11
362.7638906736
 21
31.2037759492
 12
363.2263905634
 22
31.3005673426
 13
363.2263905634
 23
31.3005673426
  0
SOLID
  8
0
 62
7
  6
CONTINUOUS
 10
362.7638906736
 20
31.2037759492
 11
363.3420154531
 21
31.3328301295
 12
363.2263905634
 22
31.3005673426
 13
363.2263905634
 23
31.3005673426
  0
SOLID
  8
0
 62
7
  6
CONTINUOUS
 10
363.1107656736
 20
31.2360394487
 11
363.0529530634
 21
31.139248859
 12
362.7638906736
 22
31.2037759492
 13
362.7638906736
 23
31.2037759492
  0
SOLID
  8
0
 62
7
  6
CONTINUOUS
 10
362.7638906736
 20
31.1069845557
 11
362.7638906736
 21
31.2037759492
 12
363.0529530634
 22
31.139248859
 13
363.0529530634
 23
31.139248859
  0
SOLID
  8
0
 62
7
  6
CONTINUOUS
 10
363.0529530634
 20
31.139248859
 11
363.0529530634
 21
31.0747202524
 12
362.7638906736
 22
31.1069845557
 13
362.7638906736
 23
31.1069845557
  0
SOLID
  8
0
 62
7
  6
CONTINUOUS
 10
362.8217029531
 20
30.9779303754
 11
362.7638906736
 21
31.1069845557
 12
363.0529530634
 22
31.0747202524
 13
363.0529530634
 23
31.0747202524
  0
SOLID
  8
0
 62
7
  6
CONTINUOUS
 10
364.2092032839
 20
31.1715120759
 11
364.4982653428
 21
31.0747202524
 12
364.1513903428
 22
31.1069845557
 13
364.1513903428
 23
31.1069845557
  0
SOLID
  8
0
 62
7
  6
CONTINUOUS
 10
363.9779528428
 20
31.0101931623
 11
364.1513903428
 21
31.1069845557
 12
364.4982653428
 22
31.0747202524
 13
364.4982653428
 23
31.0747202524
  0
SOLID
  8
0
 62
7
  6
CONTINUOUS
 10
363.9779528428
 20
31.0101931623
 11
364.4982653428
 21
31.0747202524
 12
364.2092032839
 22
30.9779303754
 13
364.2092032839
 23
30.9779303754
  0
SOLID
  8
0
 62
7
  6
CONTINUOUS
 10
364.4982653428
 20
31.0747202524
 11
364.5560782839
 21
30.9134032852
 12
364.2092032839
 22
30.9779303754
 13
364.2092032839
 23
30.9779303754
  0
SOLID
  8
0
 62
7
  6
CONTINUOUS
 10
364.2670155634
 20
30.8811389819
 11
364.2092032839
 21
30.9779303754
 12
364.5560782839
 22
30.9134032852
 13
364.5560782839
 23
30.9134032852
  0
SOLID
  8
0
 62
7
  6
CONTINUOUS
 10
364.2670155634
 20
30.8811389819
 11
364.5560782839
 21
30.9134032852
 12
364.3248278428
 22
30.816611867
 13
364.3248278428
 23
30.816611867
  0
SOLID
  8
0
 62
7
  6
CONTINUOUS
 10
364.5560782839
 20
30.9134032852
 11
364.6138905634
 21
30.816611867
 12
364.3248278428
 22
30.816611867
 13
364.3248278428
 23
30.816611867
  0
SOLID
  8
0
 62
7
  6
CONTINUOUS
 10
359.8732656185
 20
31.0424573076
 11
359.9310780634
 21
31.1392488159
 12
360.2201406185
 22
31.1392488159
 13
360.2201406185
 23
31.1392488159
  0
SOLID
  8
0
 62
7
  6
CONTINUOUS
 10
360.2201406185
 20
31.1392488159
 11
360.1623280082
 21
31.0101931623
 12
359.8732656185
 22
31.0424573076
 13
359.8732656185
 23
31.0424573076
  0
SOLID
  8
0
 62
7
  6
CONTINUOUS
 10
359.6998280358
 20
30.9779303754
 11
359.8732656185
 21
31.0424573076
 12
360.1623280082
 22
31.0101931623
 13
360.1623280082
 23
31.0101931623
  0
SOLID
  8
0
 62
7
  6
CONTINUOUS
 10
359.6998280358
 20
30.9779303754
 11
360.1623280082
 21
31.0101931623
 12
359.2951405909
 22
30.9456660721
 13
359.2951405909
 23
30.9456660721
  0
SOLID
  8
0
 62
7
  6
CONTINUOUS
 10
360.1623280082
 20
31.0101931623
 11
359.9888905082
 21
30.9134032852
 12
359.2951405909
 22
30.9456660721
 13
359.2951405909
 23
30.9456660721
  0
SOLID
  8
0
 62
7
  6
CONTINUOUS
 10
358.8326405772
 20
30.8811389819
 11
359.2951405909
 21
30.9456660721
 12
359.9888905082
 22
30.9134032852
 13
359.9888905082
 23
30.9134032852
  0
SOLID
  8
0
 62
7
  6
CONTINUOUS
 10
358.8326405772
 20
30.8811389819
 11
359.9888905082
 21
30.9134032852
 12
359.0060780772
 22
30.8488745775
 13
359.0060780772
 23
30.8488745775
  0
SOLID
  8
0
 62
7
  6
CONTINUOUS
 10
359.9888905082
 20
30.9134032852
 11
359.7576405634
 21
30.8488745775
 12
359.0060780772
 22
30.8488745775
 13
359.0060780772
 23
30.8488745775
  0
SOLID
  8
0
 62
7
  6
CONTINUOUS
 10
359.3529530358
 20
30.8166118918
 11
359.0060780772
 21
30.8488745775
 12
359.7576405634
 22
30.8488745775
 13
359.7576405634
 23
30.8488745775
  0
SOLID
  8
0
 62
7
  6
CONTINUOUS
 10
362.8217029531
 20
30.9779303754
 11
363.0529530634
 21
31.0747202524
 12
363.1107656736
 22
31.0101931623
 13
363.1107656736
 23
31.0101931623
  0
SOLID
  8
0
 62
7
  6
CONTINUOUS
 10
363.1107656736
 20
31.0101931623
 11
363.3420154531
 21
30.9456660721
 12
362.8217029531
 22
30.9779303754
 13
362.8217029531
 23
30.9779303754
  0
SOLID
  8
0
 62
7
  6
CONTINUOUS
 10
362.9951404531
 20
30.8811389819
 11
362.8217029531
 21
30.9779303754
 12
363.3420154531
 22
30.9456660721
 13
363.3420154531
 23
30.9456660721
  0
SOLID
  8
0
 62
7
  6
CONTINUOUS
 10
363.6888904531
 20
30.9456661188
 11
363.9779528428
 21
31.0101931623
 12
364.2092032839
 22
30.9779303754
 13
364.2092032839
 23
30.9779303754
  0
SOLID
  8
0
 62
7
  6
CONTINUOUS
 10
364.2092032839
 20
30.9779303754
 11
364.1513903428
 21
30.9134032852
 12
363.6888904531
 22
30.9456661188
 13
363.6888904531
 23
30.9456661188
  0
SOLID
  8
0
 62
7
  6
CONTINUOUS
 10
364.1513903428
 20
30.9134032852
 11
362.9951404531
 21
30.8811389819
 12
363.6888904531
 22
30.9456661188
 13
363.6888904531
 23
30.9456661188
  0
SOLID
  8
0
 62
7
  6
CONTINUOUS
 10
362.9951404531
 20
30.8811389819
 11
363.3420154531
 21
30.9456661188
 12
363.6888904531
 22
30.9456661188
 13
363.6888904531
 23
30.9456661188
  0
SOLID
  8
0
 62
7
  6
CONTINUOUS
 10
362.9951404531
 20
30.8811389819
 11
364.1513903428
 21
30.9134032852
 12
363.1107656736
 22
30.8488747093
 13
363.1107656736
 23
30.8488747093
  0
SOLID
  8
0
 62
7
  6
CONTINUOUS
 10
364.1513903428
 20
30.9134032852
 11
363.9779528428
 21
30.8488747093
 12
363.1107656736
 22
30.8488747093
 13
363.1107656736
 23
30.8488747093
  0
SOLID
  8
0
 62
7
  6
CONTINUOUS
 10
363.3420154531
 20
30.816611874
 11
363.1107656736
 21
30.8488747093
 12
363.9779528428
 22
30.8488747093
 13
363.9779528428
 23
30.8488747093
  0
SOLID
  8
0
 62
7
  6
CONTINUOUS
 10
363.9779528428
 20
30.8488747093
 11
363.6888904531
 21
30.816611874
 12
363.3420154531
 22
30.816611874
 13
363.3420154531
 23
30.816611874
  0
SOLID
  8
0
 62
7
  6
CONTINUOUS
 10
368.3717032839
 20
30.9779303754
 11
368.0248282839
 21
30.9456661188
 12
368.2560780634
 22
31.0101931623
 13
368.2560780634
 23
31.0101931623
  0
SOLID
  8
0
 62
7
  6
CONTINUOUS
 10
368.2560780634
 20
31.0101931623
 11
368.0248282839
 21
30.9456661188
 12
368.1982657839
 22
31.0747202992
 13
368.1982657839
 23
31.0747202992
  0
SOLID
  8
0
 62
7
  6
CONTINUOUS
 10
368.0248282839
 20
30.9456661188
 11
367.9092030634
 21
31.0747202992
 12
368.1982657839
 22
31.0747202992
 13
368.1982657839
 23
31.0747202992
  0
SOLID
  8
0
 62
7
  6
CONTINUOUS
 10
368.3717032839
 20
30.9779303754
 11
368.7185782839
 21
30.9456661188
 12
368.0248282839
 22
30.9456661188
 13
368.0248282839
 23
30.9456661188
  0
SOLID
  8
0
 62
7
  6
CONTINUOUS
 10
365.0763907839
 20
30.8166118918
 11
365.0763907839
 21
31.8490498836
 12
365.3654528428
 22
30.8166118918
 13
365.3654528428
 23
31.8490498836
  0
ENDBLK
  8
0
  6
BYBLOCK
 62
0
  0
BLOCK
  8
0
 62
2
  6
CONTINUOUS
  2
SYMBOL_0_BL0
 70
64
 10
241.0379982417
 20
19.661173918
  0
TEXT
  8
0
 62
7
  6
CONTINUOUS
 10
227.3106676351
 20
19.0524287129
  7
TEXTSTYLE_3
 40
2.7338706658
  1
Ammeraal Beltech
 41
1.0
 51
15.0
 72
0
  0
TEXT
  8
0
 62
7
  6
CONTINUOUS
 10
238.1114684608
 20
16.7788920401
  7
TEXTSTYLE_4
 40
1.0935482663
  1
Innovation & Service in Belting
 41
1.0
 72
0
  0
LINE
  8
0
 62
7
  6
CONTINUOUS
 10
221.2861269837
 20
19.8190220215
 11
222.0642789771
 21
23.4799393191
  0
LINE
  8
0
 62
7
  6
CONTINUOUS
 10
232.1594472669
 20
27.1433332308
 11
222.5520967201
 21
24.0217158095
  0
LINE
  8
0
 62
7
  6
CONTINUOUS
 10
221.511410316
 20
19.1256712184
 11
229.0184855772
 21
12.3662702925
  0
LINE
  8
0
 62
7
  6
CONTINUOUS
 10
221.7739447268
 20
20.3607985118
 11
232.5822140919
 21
23.8726181108
  0
LINE
  8
0
 62
7
  6
CONTINUOUS
 10
232.5780089548
 20
13.522829547
 11
224.132549286
 21
21.1271555887
  0
LINE
  8
0
 62
7
  6
CONTINUOUS
 10
233.0978316746
 20
26.298408115
 11
232.1212721373
 21
21.7040567125
  0
LINE
  8
0
 62
7
  6
CONTINUOUS
 10
231.4214701896
 20
18.4117473987
 11
230.7350219782
 21
15.1822624744
  0
LINE
  8
0
 62
7
  6
CONTINUOUS
 10
233.7789277731
 20
13.9130317247
 11
234.7351593087
 21
18.4117473987
  0
LINE
  8
0
 62
7
  6
CONTINUOUS
 10
235.4349612564
 20
21.7040567125
 11
235.8792030588
 21
23.7940500719
  0
LINE
  8
0
 62
7
  6
CONTINUOUS
 10
229.7315866525
 20
12.2146959798
 11
233.2911100301
 21
13.3712552343
  0
LINE
  8
0
 62
7
  6
CONTINUOUS
 10
232.8725483422
 20
26.9917589181
 11
235.6539197265
 21
24.487400875
  0
ARC
  8
0
 62
7
  6
CONTINUOUS
 10
222.7773800524
 20
23.3283650064
 40
0.7290321776
 50
108.0
 51
168.0
  0
ARC
  8
0
 62
7
  6
CONTINUOUS
 10
232.3847305992
 20
26.4499824277
 40
0.7290321776
 50
348.0
 51
108.0
  0
ARC
  8
0
 62
7
  6
CONTINUOUS
 10
235.1661019835
 20
23.9456243846
 40
0.7290321776
 50
348.0
 51
48.0
  0
ARC
  8
0
 62
7
  6
CONTINUOUS
 10
229.5063033202
 20
12.9080467828
 40
0.7290321776
 50
228.0
 51
288.0
  0
ARC
  8
0
 62
7
  6
CONTINUOUS
 10
221.9992280591
 20
19.6674477088
 40
0.7290321776
 50
108.0
 51
228.0
  0
ARC
  8
0
 62
7
  6
CONTINUOUS
 10
233.0658266978
 20
14.0646060374
 40
0.7290321776
 50
228.0
 51
348.0
  0
ENDBLK
  8
0
  6
BYBLOCK
 62
0
  0
ENDSEC
  0
SECTION
  2
ENTITIES
  0
TEXT
  8
0
 62
5
  6
CONTINUOUS
 10
304.937007874
 20
25.636
  7
TEXTSTYLE_2
 40
2.8
  1
Scale :
 41
0.6
 51
0.000019
 72
0
  0
TEXT
  8
0
 62
5
  6
CONTINUOUS
 10
324.937007874
 20
25.636
  7
TEXTSTYLE_2
 40
2.8
  1
Chain type:
 41
0.6
 51
0.000019
 72
0
  0
INSERT
  8
0
 62
2
  6
CONTINUOUS
  2
SYMBOL_0_BL0
 10
241.0379982417
 20
19.661173918
  0
INSERT
  8
0
 62
2
  6
CONTINUOUS
  2
SYMBOL_5_BL1
 10
382.3920721743
 20
35.7654615278
  0
LINE
  8
0
 62
2
  6
CONTINUOUS
 10
218.937007874
 20
30.0
 11
408.937007874
 21
30.0
  0
LINE
  8
0
 62
2
  6
CONTINUOUS
 10
218.937007874
 20
30.0
 11
218.937007874
 21
10.0
  0
LINE
  8
0
 62
2
  6
CONTINUOUS
 10
218.937007874
 20
10.0
 11
408.937007874
 21
10.0
  0
LINE
  8
0
 62
2
  6
CONTINUOUS
 10
303.937007874
 20
30.0
 11
303.937007874
 21
10.0
  0
LINE
  8
0
 62
2
  6
CONTINUOUS
 10
323.937007874
 20
30.0
 11
323.937007874
 21
10.0
  0
LINE
  8
0
 62
2
  6
CONTINUOUS
 10
408.937007874
 20
30.0
 11
408.937007874
 21
10.0
  0
TEXT
  8
0
 62
5
  6
CONTINUOUS
 10
221.937007874
 20
23.303
  7
TEXTSTYLE_5
 40
1.52
  1
                                                                     Ammeraal Beltech Modular A/S
 41
1.0
 72
0
  0
TEXT
  8
0
 62
5
  6
CONTINUOUS
 10
221.937007874
 20
20.595
  7
TEXTSTYLE_5
 40
1.5
  1
                                                                      Hjulmagervej 21, 7100 Vejle,  DK
 41
1.0
 72
0
  0
TEXT
  8
0
 62
5
  6
CONTINUOUS
 10
221.937007874
 20
17.881
  7
TEXTSTYLE_5
 40
1.495
  1
                                                                      tel: 
 41
1.0
 72
0
  0
TEXT
  8
0
 62
5
  6
CONTINUOUS
 10
266.9239544389
 20
17.881
  7
TEXTSTYLE_5
 40
1.51
  1
+45 75723100     fax: +45 75723348
 41
1.0
 72
0
  0
TEXT
  8
0
 62
5
  6
CONTINUOUS
 10
221.937007874
 20
15.177
  7
TEXTSTYLE_5
 40
1.5
  1
                                                                      admin@unichains.dk  www.unichains.com
 41
1.0
 72
0
  0
TEXT
  8
0
 62
5
  6
CONTINUOUS
 10
308.687007874
 20
13.75
  7
TEXTSTYLE_6
 40
5.0
  1
1:1
 41
0.7
 72
1
 11
313.937007874
 21
13.75
  0
TEXT
  8
0
 62
5
  6
CONTINUOUS
 10
326.937007874
 20
13.75
  7
TEXTSTYLE_7
 40
7.5
  1
uni 440 TAB-K450
 41
0.6927083333
 72
0
  0
LINE
  8
0
 62
7
  6
CONTINUOUS
 10
0.0
 20
0.0
 11
0.0
 21
297.0
  0
LINE
  8
0
 62
7
  6
CONTINUOUS
 10
8.937007874
 20
10.0
 11
8.937007874
 21
287.0
  0
LINE
  8
0
 62
7
  6
CONTINUOUS
 10
0.0
 20
0.0
 11
420.0
 21
0.0
  0
LINE
  8
0
 62
7
  6
CONTINUOUS
 10
408.937007874
 20
10.0
 11
8.937007874
 21
10.0
  0
LINE
  8
0
 62
7
  6
CONTINUOUS
 10
218.937007874
 20
30.0
 11
408.937007874
 21
30.0
  0
LINE
  8
0
 62
7
  6
CONTINUOUS
 10
210.0
 20
297.0
 11
210.0
 21
292.0
  0
LINE
  8
0
 62
7
  6
CONTINUOUS
 10
210.0
 20
0.0
 11
210.0
 21
5.0
  0
LINE
  8
0
 62
7
  6
CONTINUOUS
 10
8.937007874
 20
287.0
 11
408.937007874
 21
287.0
  0
LINE
  8
0
 62
7
  6
CONTINUOUS
 10
0.0
 20
297.0
 11
420.0
 21
297.0
  0
LINE
  8
0
 62
7
  6
CONTINUOUS
 10
408.937007874
 20
287.0
 11
408.937007874
 21
10.0
  0
LINE
  8
0
 62
7
  6
CONTINUOUS
 10
420.0
 20
0.0
 11
420.0
 21
297.0
  0
POLYLINE
  8
2_FEATURE
 62
7
  6
CONTINUOUS
 66
1
 70
0
  0
VERTEX
  8
2_FEATURE
 62
7
  6
CONTINUOUS
 10
74.4227459016
 20
225.1238683558
  0
VERTEX
  8
2_FEATURE
 62
7
  6
CONTINUOUS
 10
74.4290366791
 20
225.1828944129
  0
VERTEX
  8
2_FEATURE
 62
7
  6
CONTINUOUS
 10
74.4774910408
 20
225.2876993585
  0
VERTEX
  8
2_FEATURE
 62
7
  6
CONTINUOUS
 10
74.569024002
 20
225.3738417571
  0
VERTEX
  8
2_FEATURE
 62
7
  6
CONTINUOUS
 10
74.6291846501
 20
225.4099767177
  0
VERTEX
  8
2_FEATURE
 62
7
  6
CONTINUOUS
 10
74.7734758665
 20
225.4683129813
  0
VERTEX
  8
2_FEATURE
 62
7
  6
CONTINUOUS
 10
74.9447813747
 20
225.5090938509
  0
VERTEX
  8
2_FEATURE
 62
7
  6
CONTINUOUS
 10
75.0374219489
 20
225.5229921148
  0
SEQEND
  0
LINE
  8
2_FEATURE
 62
7
  6
CONTINUOUS
 10
74.4227459016
 20
222.0529921148
 11
74.4227459016
 21
225.7329921148
  0
LINE
  8
2_FEATURE
 62
7
  6
CONTINUOUS
 10
75.0374219489
 20
225.5229921148
 11
75.0374219489
 21
225.5329921166
  0
LINE
  8
2_FEATURE
 62
7
  6
CONTINUOUS
 10
104.0727459016
 20
206.6329921148
 11
104.0727459016
 21
209.6329921148
  0
LINE
  8
2_FEATURE
 62
7
  6
CONTINUOUS
 10
110.1227459016
 20
221.8529921148
 11
110.1227459016
 21
210.5783611166
  0
LINE
  8
2_FEATURE
 62
7
  6
CONTINUOUS
 10
116.0727459016
 20
210.3329921148
 11
116.0727459016
 21
206.6329921148
  0
LINE
  8
2_FEATURE
 62
7
  6
CONTINUOUS
 10
118.9977459016
 20
211.5329921148
 11
118.9977459016
 21
225.5329921148
  0
LINE
  8
2_FEATURE
 62
7
  6
CONTINUOUS
 10
115.5727459016
 20
206.1329921148
 11
104.5727459016
 21
206.1329921148
  0
LINE
  8
2_FEATURE
 62
7
  6
CONTINUOUS
 10
147.5727459016
 20
206.1329921148
 11
158.5727459016
 21
206.1329921148
  0
POLYLINE
  8
2_FEATURE
 62
7
  6
CONTINUOUS
 66
1
 70
0
  0
VERTEX
  8
2_FEATURE
 62
7
  6
CONTINUOUS
 10
119.2139435483
 20
214.8229921148
  0
VERTEX
  8
2_FEATURE
 62
7
  6
CONTINUOUS
 10
119.3208268101
 20
214.8862739711
  0
VERTEX
  8
2_FEATURE
 62
7
  6
CONTINUOUS
 10
119.4240366628
 20
215.0738934731
  0
VERTEX
  8
2_FEATURE
 62
7
  6
CONTINUOUS
 10
119.5200610027
 20
215.3793656671
  0
VERTEX
  8
2_FEATURE
 62
7
  6
CONTINUOUS
 10
119.6056337723
 20
215.792198449
  0
VERTEX
  8
2_FEATURE
 62
7
  6
CONTINUOUS
 10
119.6778484585
 20
216.2982540863
  0
VERTEX
  8
2_FEATURE
 62
7
  6
CONTINUOUS
 10
119.7342580343
 20
216.8802508898
  0
VERTEX
  8
2_FEATURE
 62
7
  6
CONTINUOUS
 10
119.7729557663
 20
217.5183669786
  0
VERTEX
  8
2_FEATURE
 62
7
  6
CONTINUOUS
 10
119.7926361884
 20
218.1909153245
  0
VERTEX
  8
2_FEATURE
 62
7
  6
CONTINUOUS
 10
119.7926361884
 20
218.875068905
  0
VERTEX
  8
2_FEATURE
 62
7
  6
CONTINUOUS
 10
119.7729557663
 20
219.547617251
  0
VERTEX
  8
2_FEATURE
 62
7
  6
CONTINUOUS
 10
119.7342580343
 20
220.1857333397
  0
VERTEX
  8
2_FEATURE
 62
7
  6
CONTINUOUS
 10
119.6778484585
 20
220.7677301432
  0
VERTEX
  8
2_FEATURE
 62
7
  6
CONTINUOUS
 10
119.6056337723
 20
221.2737857805
  0
VERTEX
  8
2_FEATURE
 62
7
  6
CONTINUOUS
 10
119.5200610027
 20
221.6866185625
  0
VERTEX
  8
2_FEATURE
 62
7
  6
CONTINUOUS
 10
119.4240366628
 20
221.9920907565
  0
VERTEX
  8
2_FEATURE
 62
7
  6
CONTINUOUS
 10
119.3208268101
 20
222.1797102584
  0
VERTEX
  8
2_FEATURE
 62
7
  6
CONTINUOUS
 10
119.2139435483
 20
222.2429921148
  0
SEQEND
  0
POLYLINE
  8
2_FEATURE
 62
7
  6
CONTINUOUS
 66
1
 70
0
  0
VERTEX
  8
2_FEATURE
 62
7
  6
CONTINUOUS
 10
124.7250438899
 20
211.0436806377
  0
VERTEX
  8
2_FEATURE
 62
7
  6
CONTINUOUS
 10
124.8061244767
 20
211.0470535637
  0
VERTEX
  8
2_FEATURE
 62
7
  6
CONTINUOUS
 10
124.8898325772
 20
211.0496023657
  0
VERTEX
  8
2_FEATURE
 62
7
  6
CONTINUOUS
 10
124.9766584738
 20
211.0508225696
  0
VERTEX
  8
2_FEATURE
 62
7
  6
CONTINUOUS
 10
125.0703675637
 20
211.0502901697
  0
SEQEND
  0
POLYLINE
  8
2_FEATURE
 62
7
  6
CONTINUOUS
 66
1
 70
0
  0
VERTEX
  8
2_FEATURE
 62
7
  6
CONTINUOUS
 10
138.0751209774
 20
211.0502910968
  0
VERTEX
  8
2_FEATURE
 62
7
  6
CONTINUOUS
 10
138.0478431413
 20
211.0499394911
  0
VERTEX
  8
2_FEATURE
 62
7
  6
CONTINUOUS
 10
137.9935470413
 20
211.0496773412
  0
SEQEND
  0
POLYLINE
  8
2_FEATURE
 62
7
  6
CONTINUOUS
 66
1
 70
0
  0
VERTEX
  8
2_FEATURE
 62
7
  6
CONTINUOUS
 10
124.4060732156
 20
211.0329920911
  0
VERTEX
  8
2_FEATURE
 62
7
  6
CONTINUOUS
 10
124.4813988334
 20
211.0338953636
  0
VERTEX
  8
2_FEATURE
 62
7
  6
CONTINUOUS
 10
124.5639395987
 20
211.0364949619
  0
VERTEX
  8
2_FEATURE
 62
7
  6
CONTINUOUS
 10
124.7250438899
 20
211.0436806377
  0
SEQEND
  0
POLYLINE
  8
2_FEATURE
 62
7
  6
CONTINUOUS
 66
1
 70
0
  0
VERTEX
  8
2_FEATURE
 62
7
  6
CONTINUOUS
 10
138.0751241686
 20
211.0502901686
  0
VERTEX
  8
2_FEATURE
 62
7
  6
CONTINUOUS
 10
138.1685735197
 20
211.0508237821
  0
VERTEX
  8
2_FEATURE
 62
7
  6
CONTINUOUS
 10
138.2552612651
 20
211.0496115118
  0
VERTEX
  8
2_FEATURE
 62
7
  6
CONTINUOUS
 10
138.3390302777
 20
211.0470660498
  0
VERTEX
  8
2_FEATURE
 62
7
  6
CONTINUOUS
 10
138.420336248
 20
211.0436856688
  0
VERTEX
  8
2_FEATURE
 62
7
  6
CONTINUOUS
 10
138.5818720716
 20
211.0364825561
  0
SEQEND
  0
LINE
  8
2_FEATURE
 62
7
  6
CONTINUOUS
 10
109.6227459016
 20
210.1329921148
 11
104.5727459016
 21
210.1329921148
  0
LINE
  8
2_FEATURE
 62
7
  6
CONTINUOUS
 10
153.5227459016
 20
210.1329921148
 11
158.5727459016
 21
210.1329921148
  0
LINE
  8
2_FEATURE
 62
7
  6
CONTINUOUS
 10
116.7727459016
 20
211.0329921148
 11
124.4058942095
 21
211.0329921148
  0
LINE
  8
2_FEATURE
 62
7
  6
CONTINUOUS
 10
138.7395975937
 20
211.0329921148
 11
146.3727459016
 21
211.0329921148
  0
LINE
  8
2_FEATURE
 62
7
  6
CONTINUOUS
 10
125.151944762
 20
211.0496773412
 11
137.9935470413
 21
211.0496773412
  0
POLYLINE
  8
2_FEATURE
 62
7
  6
CONTINUOUS
 66
1
 70
0
  0
VERTEX
  8
2_FEATURE
 62
7
  6
CONTINUOUS
 10
125.0703707549
 20
211.0502910979
  0
VERTEX
  8
2_FEATURE
 62
7
  6
CONTINUOUS
 10
125.097648662
 20
211.0499394911
  0
VERTEX
  8
2_FEATURE
 62
7
  6
CONTINUOUS
 10
125.151944762
 20
211.0496773412
  0
SEQEND
  0
POLYLINE
  8
2_FEATURE
 62
7
  6
CONTINUOUS
 66
1
 70
0
  0
VERTEX
  8
2_FEATURE
 62
7
  6
CONTINUOUS
 10
138.5818720716
 20
211.0364825561
  0
VERTEX
  8
2_FEATURE
 62
7
  6
CONTINUOUS
 10
138.6643758342
 20
211.03388896
  0
VERTEX
  8
2_FEATURE
 62
7
  6
CONTINUOUS
 10
138.7394195911
 20
211.032992091
  0
SEQEND
  0
LINE
  8
DEFAULT_1
 62
2
  6
CENTER
 10
131.5727459016
 20
235.4477459016
 11
131.5727459016
 21
220.5330921148
  0
LINE
  8
0
 62
2
  6
CONTINUOUS
 10
131.5727459016
 20
219.5829921148
 11
131.5727459016
 21
217.4829921148
  0
LINE
  8
2_FEATURE
 62
7
  6
CONTINUOUS
 10
131.5727459016
 20
218.5329921148
 11
131.5727459016
 21
214.8669322774
  0
LINE
  8
DEFAULT_1
 62
2
  6
CENTER
 10
131.5727459016
 20
195.169057377
 11
131.5727459016
 21
216.5328921148
  0
LINE
  8
2_FEATURE
 62
7
  6
CONTINUOUS
 10
119.2139435483
 20
214.8229921148
 11
118.9977459016
 21
214.8229921148
  0
LINE
  8
2_FEATURE
 62
7
  6
CONTINUOUS
 10
143.931548255
 20
214.8229921148
 11
144.1477459016
 21
214.8229921148
  0
POLYLINE
  8
2_FEATURE
 62
7
  6
CONTINUOUS
 66
1
 70
0
  0
VERTEX
  8
2_FEATURE
 62
7
  6
CONTINUOUS
 10
131.5727459016
 20
214.8669322774
  0
VERTEX
  8
2_FEATURE
 62
7
  6
CONTINUOUS
 10
131.318515545
 20
215.0280013147
  0
VERTEX
  8
2_FEATURE
 62
7
  6
CONTINUOUS
 10
131.0722519905
 20
215.2456348644
  0
VERTEX
  8
2_FEATURE
 62
7
  6
CONTINUOUS
 10
130.8381264028
 20
215.5302180044
  0
VERTEX
  8
2_FEATURE
 62
7
  6
CONTINUOUS
 10
130.6233771792
 20
215.8917338335
  0
VERTEX
  8
2_FEATURE
 62
7
  6
CONTINUOUS
 10
130.5255312625
 20
216.1049137595
  0
VERTEX
  8
2_FEATURE
 62
7
  6
CONTINUOUS
 10
130.3542405888
 20
216.6019701775
  0
VERTEX
  8
2_FEATURE
 62
7
  6
CONTINUOUS
 10
130.2245021453
 20
217.1884678581
  0
VERTEX
  8
2_FEATURE
 62
7
  6
CONTINUOUS
 10
130.1445067816
 20
217.842786415
  0
VERTEX
  8
2_FEATURE
 62
7
  6
CONTINUOUS
 10
130.1176211762
 20
218.5329921148
  0
SEQEND
  0
POLYLINE
  8
2_FEATURE
 62
7
  6
CONTINUOUS
 66
1
 70
0
  0
VERTEX
  8
2_FEATURE
 62
7
  6
CONTINUOUS
 10
133.0278706271
 20
218.5329921148
  0
VERTEX
  8
2_FEATURE
 62
7
  6
CONTINUOUS
 10
133.0009842328
 20
217.8427764524
  0
VERTEX
  8
2_FEATURE
 62
7
  6
CONTINUOUS
 10
132.9209978322
 20
217.1885161621
  0
VERTEX
  8
2_FEATURE
 62
7
  6
CONTINUOUS
 10
132.7912891909
 20
216.6021058665
  0
VERTEX
  8
2_FEATURE
 62
7
  6
CONTINUOUS
 10
132.6200186414
 20
216.1050523898
  0
VERTEX
  8
2_FEATURE
 62
7
  6
CONTINUOUS
 10
132.5221606384
 20
215.8918255043
  0
VERTEX
  8
2_FEATURE
 62
7
  6
CONTINUOUS
 10
132.3073513652
 20
215.5301980218
  0
VERTEX
  8
2_FEATURE
 62
7
  6
CONTINUOUS
 10
132.0732275263
 20
215.2456221628
  0
VERTEX
  8
2_FEATURE
 62
7
  6
CONTINUOUS
 10
131.8269487776
 20
215.0279807351
  0
VERTEX
  8
2_FEATURE
 62
7
  6
CONTINUOUS
 10
131.5727459016
 20
214.8669322774
  0
SEQEND
  0
LINE
  8
2_FEATURE
 62
7
  6
CONTINUOUS
 10
133.0278706271
 20
218.5329921148
 11
130.1176211762
 21
218.5329921148
  0
LINE
  8
DEFAULT_1
 62
2
  6
CENTER
 10
72.0676898062
 20
218.5329921148
 11
191.0778019971
 21
218.5329921148
  0
POLYLINE
  8
2_FEATURE
 62
7
  6
CONTINUOUS
 66
1
 70
0
  0
VERTEX
  8
2_FEATURE
 62
7
  6
CONTINUOUS
 10
144.3288894876
 20
225.5226021327
  0
VERTEX
  8
2_FEATURE
 62
7
  6
CONTINUOUS
 10
144.2987699376
 20
225.5190390175
  0
VERTEX
  8
2_FEATURE
 62
7
  6
CONTINUOUS
 10
144.245097705
 20
225.5037598372
  0
VERTEX
  8
2_FEATURE
 62
7
  6
CONTINUOUS
 10
144.2023477813
 20
225.4801396674
  0
VERTEX
  8
2_FEATURE
 62
7
  6
CONTINUOUS
 10
144.1854941734
 20
225.4660671635
  0
VERTEX
  8
2_FEATURE
 62
7
  6
CONTINUOUS
 10
144.1611378787
 20
225.4349237196
  0
VERTEX
  8
2_FEATURE
 62
7
  6
CONTINUOUS
 10
144.1492008754
 20
225.401624854
  0
VERTEX
  8
2_FEATURE
 62
7
  6
CONTINUOUS
 10
144.1477459016
 20
225.3848148403
  0
SEQEND
  0
LINE
  8
2_FEATURE
 62
7
  6
CONTINUOUS
 10
188.7227459016
 20
222.0529921148
 11
148.7896988572
 21
222.0529921148
  0
LINE
  8
2_FEATURE
 62
7
  6
CONTINUOUS
 10
74.4227459016
 20
222.0529921148
 11
114.355792946
 21
222.0529921148
  0
LINE
  8
2_FEATURE
 62
7
  6
CONTINUOUS
 10
119.2139435483
 20
222.2429921148
 11
118.9977459016
 21
222.2429921148
  0
LINE
  8
2_FEATURE
 62
7
  6
CONTINUOUS
 10
143.931548255
 20
222.2429921148
 11
144.1477459016
 21
222.2429921148
  0
POLYLINE
  8
2_FEATURE
 62
7
  6
CONTINUOUS
 66
1
 70
0
  0
VERTEX
  8
2_FEATURE
 62
7
  6
CONTINUOUS
 10
118.8166023157
 20
225.5226021327
  0
VERTEX
  8
2_FEATURE
 62
7
  6
CONTINUOUS
 10
118.8467218656
 20
225.5190390175
  0
VERTEX
  8
2_FEATURE
 62
7
  6
CONTINUOUS
 10
118.9003940983
 20
225.5037598372
  0
VERTEX
  8
2_FEATURE
 62
7
  6
CONTINUOUS
 10
118.943144022
 20
225.4801396674
  0
VERTEX
  8
2_FEATURE
 62
7
  6
CONTINUOUS
 10
118.9599976299
 20
225.4660671635
  0
VERTEX
  8
2_FEATURE
 62
7
  6
CONTINUOUS
 10
118.9843539245
 20
225.4349237196
  0
VERTEX
  8
2_FEATURE
 62
7
  6
CONTINUOUS
 10
118.9962909279
 20
225.401624854
  0
VERTEX
  8
2_FEATURE
 62
7
  6
CONTINUOUS
 10
118.9977459016
 20
225.3848148403
  0
SEQEND
  0
POLYLINE
  8
2_FEATURE
 62
7
  6
CONTINUOUS
 66
1
 70
0
  0
VERTEX
  8
2_FEATURE
 62
7
  6
CONTINUOUS
 10
143.931548255
 20
214.8229921148
  0
VERTEX
  8
2_FEATURE
 62
7
  6
CONTINUOUS
 10
143.8246649932
 20
214.8862739711
  0
VERTEX
  8
2_FEATURE
 62
7
  6
CONTINUOUS
 10
143.7214551405
 20
215.0738934731
  0
VERTEX
  8
2_FEATURE
 62
7
  6
CONTINUOUS
 10
143.6254308006
 20
215.3793656671
  0
VERTEX
  8
2_FEATURE
 62
7
  6
CONTINUOUS
 10
143.539858031
 20
215.792198449
  0
VERTEX
  8
2_FEATURE
 62
7
  6
CONTINUOUS
 10
143.4676433448
 20
216.2982540863
  0
VERTEX
  8
2_FEATURE
 62
7
  6
CONTINUOUS
 10
143.411233769
 20
216.8802508898
  0
VERTEX
  8
2_FEATURE
 62
7
  6
CONTINUOUS
 10
143.372536037
 20
217.5183669786
  0
VERTEX
  8
2_FEATURE
 62
7
  6
CONTINUOUS
 10
143.3528556149
 20
218.1909153245
  0
VERTEX
  8
2_FEATURE
 62
7
  6
CONTINUOUS
 10
143.3528556149
 20
218.875068905
  0
VERTEX
  8
2_FEATURE
 62
7
  6
CONTINUOUS
 10
143.372536037
 20
219.547617251
  0
VERTEX
  8
2_FEATURE
 62
7
  6
CONTINUOUS
 10
143.411233769
 20
220.1857333397
  0
VERTEX
  8
2_FEATURE
 62
7
  6
CONTINUOUS
 10
143.4676433448
 20
220.7677301432
  0
VERTEX
  8
2_FEATURE
 62
7
  6
CONTINUOUS
 10
143.539858031
 20
221.2737857805
  0
VERTEX
  8
2_FEATURE
 62
7
  6
CONTINUOUS
 10
143.6254308006
 20
221.6866185625
  0
VERTEX
  8
2_FEATURE
 62
7
  6
CONTINUOUS
 10
143.7214551405
 20
221.9920907565
  0
VERTEX
  8
2_FEATURE
 62
7
  6
CONTINUOUS
 10
143.8246649932
 20
222.1797102584
  0
VERTEX
  8
2_FEATURE
 62
7
  6
CONTINUOUS
 10
143.931548255
 20
222.2429921148
  0
SEQEND
  0
POLYLINE
  8
2_FEATURE
 62
7
  6
CONTINUOUS
 66
1
 70
0
  0
VERTEX
  8
2_FEATURE
 62
7
  6
CONTINUOUS
 10
144.3288894876
 20
225.5226021327
  0
VERTEX
  8
2_FEATURE
 62
7
  6
CONTINUOUS
 10
144.3328884495
 20
225.5228182742
  0
VERTEX
  8
2_FEATURE
 62
7
  6
CONTINUOUS
 10
144.3368961106
 20
225.5229481286
  0
VERTEX
  8
2_FEATURE
 62
7
  6
CONTINUOUS
 10
144.3409111437
 20
225.5229921148
  0
SEQEND
  0
LINE
  8
2_FEATURE
 62
7
  6
CONTINUOUS
 10
74.7256104391
 20
226.0329921148
 11
74.7075061517
 21
226.0323307659
  0
LINE
  8
2_FEATURE
 62
7
  6
CONTINUOUS
 10
188.1080698544
 20
225.5229921148
 11
144.3409111437
 21
225.5229921148
  0
LINE
  8
2_FEATURE
 62
7
  6
CONTINUOUS
 10
75.0374219489
 20
225.5229921148
 11
118.8045806596
 21
225.5229921148
  0
LINE
  8
2_FEATURE
 62
7
  6
CONTINUOUS
 10
74.7227459016
 20
226.0329921148
 11
188.4227459016
 21
226.0329921148
  0
LINE
  8
2_FEATURE
 62
7
  6
CONTINUOUS
 10
188.4198132319
 20
226.0329921148
 11
188.4379845768
 21
226.0323308445
  0
LINE
  8
2_FEATURE
 62
7
  6
CONTINUOUS
 10
188.4379845762
 20
226.0323308443
 11
188.4198825339
 21
226.0329921148
  0
POLYLINE
  8
2_FEATURE
 62
7
  6
CONTINUOUS
 66
1
 70
0
  0
VERTEX
  8
2_FEATURE
 62
7
  6
CONTINUOUS
 10
118.8166023157
 20
225.5226021327
  0
VERTEX
  8
2_FEATURE
 62
7
  6
CONTINUOUS
 10
118.8126033538
 20
225.5228182742
  0
VERTEX
  8
2_FEATURE
 62
7
  6
CONTINUOUS
 10
118.8085956926
 20
225.5229481286
  0
VERTEX
  8
2_FEATURE
 62
7
  6
CONTINUOUS
 10
118.8045806596
 20
225.5229921148
  0
SEQEND
  0
LINE
  8
2_FEATURE
 62
7
  6
CONTINUOUS
 10
144.1477459016
 20
211.5329921148
 11
144.1477459016
 21
225.5329921148
  0
LINE
  8
2_FEATURE
 62
7
  6
CONTINUOUS
 10
147.0727459016
 20
210.3329921148
 11
147.0727459016
 21
206.6329921148
  0
LINE
  8
2_FEATURE
 62
7
  6
CONTINUOUS
 10
74.707506151
 20
226.0323307662
 11
74.7069167057
 21
226.0322871055
  0
LINE
  8
2_FEATURE
 62
7
  6
CONTINUOUS
 10
188.4379845768
 20
226.0323308445
 11
188.4385765085
 21
226.0322869993
  0
LINE
  8
2_FEATURE
 62
7
  6
CONTINUOUS
 10
153.0227459016
 20
221.8529921148
 11
153.0227459016
 21
210.5783611166
  0
LINE
  8
2_FEATURE
 62
7
  6
CONTINUOUS
 10
159.0727459016
 20
206.6329921148
 11
159.0727459016
 21
209.6329921148
  0
POLYLINE
  8
2_FEATURE
 62
7
  6
CONTINUOUS
 66
1
 70
0
  0
VERTEX
  8
2_FEATURE
 62
7
  6
CONTINUOUS
 10
188.7227459016
 20
225.1238683558
  0
VERTEX
  8
2_FEATURE
 62
7
  6
CONTINUOUS
 10
188.7164551242
 20
225.1828944129
  0
VERTEX
  8
2_FEATURE
 62
7
  6
CONTINUOUS
 10
188.6680007625
 20
225.2876993585
  0
VERTEX
  8
2_FEATURE
 62
7
  6
CONTINUOUS
 10
188.5764678013
 20
225.3738417571
  0
VERTEX
  8
2_FEATURE
 62
7
  6
CONTINUOUS
 10
188.5163071531
 20
225.4099767177
  0
VERTEX
  8
2_FEATURE
 62
7
  6
CONTINUOUS
 10
188.3720159368
 20
225.4683129813
  0
VERTEX
  8
2_FEATURE
 62
7
  6
CONTINUOUS
 10
188.2007104286
 20
225.5090938509
  0
VERTEX
  8
2_FEATURE
 62
7
  6
CONTINUOUS
 10
188.1080698544
 20
225.5229921148
  0
SEQEND
  0
LINE
  8
2_FEATURE
 62
7
  6
CONTINUOUS
 10
188.1080698544
 20
225.5229921148
 11
188.1080698544
 21
225.5329921166
  0
LINE
  8
2_FEATURE
 62
7
  6
CONTINUOUS
 10
188.7227459016
 20
222.0529921148
 11
188.7227459016
 21
225.7329921148
  0
LINE
  8
2_FEATURE
 62
7
  6
CONTINUOUS
 10
74.4227459016
 20
130.2651389404
 11
74.4227459016
 21
143.3239409342
  0
LINE
  8
2_FEATURE
 62
7
  6
CONTINUOUS
 10
110.1227459016
 20
146.1039371086
 11
110.1227459016
 21
144.3239409342
  0
LINE
  8
2_FEATURE
 62
7
  6
CONTINUOUS
 10
142.4548521613
 20
112.0539409342
 11
120.6906396419
 21
112.0539409342
  0
LINE
  8
2_FEATURE
 62
7
  6
CONTINUOUS
 10
118.4977459016
 20
138.9539409342
 11
118.4977459016
 21
134.8839409342
  0
LINE
  8
2_FEATURE
 62
7
  6
CONTINUOUS
 10
118.9977459016
 20
120.4439409342
 11
118.9977459016
 21
124.9971881864
  0
LINE
  8
2_FEATURE
 62
7
  6
CONTINUOUS
 10
120.1974613604
 20
112.4757271049
 11
119.0593041987
 21
119.661768609
  0
LINE
  8
DEFAULT_1
 62
2
  6
CENTER
 10
62.2469262295
 20
120.0539409342
 11
205.5461065574
 21
120.0539409342
  0
POLYLINE
  8
2_FEATURE
 62
7
  6
CONTINUOUS
 66
1
 70
0
  0
VERTEX
  8
2_FEATURE
 62
7
  6
CONTINUOUS
 10
110.1247647265
 20
144.3239409342
  0
VERTEX
  8
2_FEATURE
 62
7
  6
CONTINUOUS
 10
110.1271688817
 20
144.3204802132
  0
VERTEX
  8
2_FEATURE
 62
7
  6
CONTINUOUS
 10
110.1344769424
 20
144.3114197631
  0
VERTEX
  8
2_FEATURE
 62
7
  6
CONTINUOUS
 10
110.1447805577
 20
144.2995754654
  0
VERTEX
  8
2_FEATURE
 62
7
  6
CONTINUOUS
 10
110.1730163605
 20
144.2678651863
  0
SEQEND
  0
LINE
  8
2_FEATURE
 62
7
  6
CONTINUOUS
 10
116.6094947513
 20
146.2417594431
 11
118.3040543813
 21
140.3321277133
  0
LINE
  8
2_FEATURE
 62
7
  6
CONTINUOUS
 10
188.1080698544
 20
129.3423575733
 11
144.3288894876
 21
125.1962972913
  0
LINE
  8
2_FEATURE
 62
7
  6
CONTINUOUS
 10
75.0374219489
 20
129.3423575733
 11
118.8166023157
 21
125.1962972913
  0
POLYLINE
  8
2_FEATURE
 62
7
  6
CONTINUOUS
 66
1
 70
0
  0
VERTEX
  8
2_FEATURE
 62
7
  6
CONTINUOUS
 10
110.1730163605
 20
144.2678651863
  0
VERTEX
  8
2_FEATURE
 62
7
  6
CONTINUOUS
 10
110.1903860436
 20
144.2481608502
  0
VERTEX
  8
2_FEATURE
 62
7
  6
CONTINUOUS
 10
110.209609785
 20
144.225993482
  0
VERTEX
  8
2_FEATURE
 62
7
  6
CONTINUOUS
 10
110.2304882363
 20
144.2014363771
  0
VERTEX
  8
2_FEATURE
 62
7
  6
CONTINUOUS
 10
110.2528445944
 20
144.174559737
  0
VERTEX
  8
2_FEATURE
 62
7
  6
CONTINUOUS
 10
110.2765205141
 20
144.1454310013
  0
VERTEX
  8
2_FEATURE
 62
7
  6
CONTINUOUS
 10
110.3013727218
 20
144.1141153312
  0
VERTEX
  8
2_FEATURE
 62
7
  6
CONTINUOUS
 10
110.3141986068
 20
144.0976572389
  0
VERTEX
  8
2_FEATURE
 62
7
  6
CONTINUOUS
 10
110.3405730515
 20
144.0631793996
  0
VERTEX
  8
2_FEATURE
 62
7
  6
CONTINUOUS
 10
110.3678149601
 20
144.0266703593
  0
VERTEX
  8
2_FEATURE
 62
7
  6
CONTINUOUS
 10
110.3958154025
 20
143.988190729
  0
VERTEX
  8
2_FEATURE
 62
7
  6
CONTINUOUS
 10
110.4244714806
 20
143.9478008794
  0
VERTEX
  8
2_FEATURE
 62
7
  6
CONTINUOUS
 10
110.4536852115
 20
143.9055613341
  0
VERTEX
  8
2_FEATURE
 62
7
  6
CONTINUOUS
 10
110.4833626015
 20
143.8615332834
  0
VERTEX
  8
2_FEATURE
 62
7
  6
CONTINUOUS
 10
110.5134130966
 20
143.8157792263
  0
VERTEX
  8
2_FEATURE
 62
7
  6
CONTINUOUS
 10
110.5437500916
 20
143.7683640074
  0
VERTEX
  8
2_FEATURE
 62
7
  6
CONTINUOUS
 10
110.5742966979
 20
143.7193578946
  0
VERTEX
  8
2_FEATURE
 62
7
  6
CONTINUOUS
 10
110.6050598486
 20
143.6688652606
  0
VERTEX
  8
2_FEATURE
 62
7
  6
CONTINUOUS
 10
110.6227459016
 20
143.6439409342
  0
SEQEND
  0
LINE
  8
DEFAULT_1
 62
2
  6
CENTER
 10
131.5727459016
 20
156.4395491803
 11
131.5727459016
 21
100.669057377
  0
POLYLINE
  8
2_FEATURE
 62
7
  6
CONTINUOUS
 66
1
 70
0
  0
VERTEX
  8
2_FEATURE
 62
7
  6
CONTINUOUS
 10
153.0007112455
 20
144.2995754654
  0
VERTEX
  8
2_FEATURE
 62
7
  6
CONTINUOUS
 10
152.9724754428
 20
144.2678651863
  0
VERTEX
  8
2_FEATURE
 62
7
  6
CONTINUOUS
 10
152.9551057597
 20
144.2481608502
  0
VERTEX
  8
2_FEATURE
 62
7
  6
CONTINUOUS
 10
152.9358820183
 20
144.225993482
  0
VERTEX
  8
2_FEATURE
 62
7
  6
CONTINUOUS
 10
152.915003567
 20
144.2014363771
  0
VERTEX
  8
2_FEATURE
 62
7
  6
CONTINUOUS
 10
152.8926472089
 20
144.174559737
  0
VERTEX
  8
2_FEATURE
 62
7
  6
CONTINUOUS
 10
152.8689712891
 20
144.1454310013
  0
VERTEX
  8
2_FEATURE
 62
7
  6
CONTINUOUS
 10
152.8441190815
 20
144.1141153312
  0
VERTEX
  8
2_FEATURE
 62
7
  6
CONTINUOUS
 10
152.8312931965
 20
144.0976572389
  0
VERTEX
  8
2_FEATURE
 62
7
  6
CONTINUOUS
 10
152.8049187518
 20
144.0631793996
  0
VERTEX
  8
2_FEATURE
 62
7
  6
CONTINUOUS
 10
152.7776768432
 20
144.0266703593
  0
VERTEX
  8
2_FEATURE
 62
7
  6
CONTINUOUS
 10
152.7496764008
 20
143.988190729
  0
VERTEX
  8
2_FEATURE
 62
7
  6
CONTINUOUS
 10
152.7210203227
 20
143.9478008794
  0
VERTEX
  8
2_FEATURE
 62
7
  6
CONTINUOUS
 10
152.6918065918
 20
143.9055613341
  0
VERTEX
  8
2_FEATURE
 62
7
  6
CONTINUOUS
 10
152.6621292018
 20
143.8615332834
  0
VERTEX
  8
2_FEATURE
 62
7
  6
CONTINUOUS
 10
152.6320787066
 20
143.8157792263
  0
VERTEX
  8
2_FEATURE
 62
7
  6
CONTINUOUS
 10
152.6017417117
 20
143.7683640074
  0
VERTEX
  8
2_FEATURE
 62
7
  6
CONTINUOUS
 10
152.5711951054
 20
143.7193578946
  0
VERTEX
  8
2_FEATURE
 62
7
  6
CONTINUOUS
 10
152.5404319547
 20
143.6688652606
  0
VERTEX
  8
2_FEATURE
 62
7
  6
CONTINUOUS
 10
152.5227459016
 20
143.6439409342
  0
SEQEND
  0
LINE
  8
2_FEATURE
 62
7
  6
CONTINUOUS
 10
118.9977459016
 20
134.3839409342
 11
144.1477459016
 21
134.3839409342
  0
LINE
  8
2_FEATURE
 62
7
  6
CONTINUOUS
 10
146.535997052
 20
146.2417594431
 11
144.8414374219
 21
140.3321277133
  0
POLYLINE
  8
2_FEATURE
 62
7
  6
CONTINUOUS
 66
1
 70
0
  0
VERTEX
  8
2_FEATURE
 62
7
  6
CONTINUOUS
 10
153.0207270767
 20
144.3239409342
  0
VERTEX
  8
2_FEATURE
 62
7
  6
CONTINUOUS
 10
153.0183229216
 20
144.3204802132
  0
VERTEX
  8
2_FEATURE
 62
7
  6
CONTINUOUS
 10
153.0110148609
 20
144.3114197631
  0
VERTEX
  8
2_FEATURE
 62
7
  6
CONTINUOUS
 10
153.0007112455
 20
144.2995754654
  0
SEQEND
  0
LINE
  8
DEFAULT_1
 62
2
  6
CENTER
 10
62.6342213115
 20
139.1409409342
 11
203.9969262295
 21
139.1409409342
  0
LINE
  8
2_FEATURE
 62
7
  6
CONTINUOUS
 10
144.1477459016
 20
120.4439409342
 11
144.1477459016
 21
124.9971881864
  0
LINE
  8
2_FEATURE
 62
7
  6
CONTINUOUS
 10
144.6477459016
 20
138.9539409342
 11
144.6477459016
 21
134.8839409342
  0
LINE
  8
2_FEATURE
 62
7
  6
CONTINUOUS
 10
144.6505244515
 20
139.1206076008
 11
144.6477459016
 21
138.9539409342
  0
LINE
  8
2_FEATURE
 62
7
  6
CONTINUOUS
 10
142.9480304429
 20
112.4757271049
 11
144.0861876046
 21
119.661768609
  0
LINE
  8
2_FEATURE
 62
7
  6
CONTINUOUS
 10
188.4537227868
 20
143.6439409342
 11
152.5227459016
 21
143.6439409342
  0
LINE
  8
2_FEATURE
 62
7
  6
CONTINUOUS
 10
74.6917690165
 20
143.6439409342
 11
110.6227459016
 21
143.6439409342
  0
LINE
  8
2_FEATURE
 62
7
  6
CONTINUOUS
 10
110.1247647265
 20
144.3239409342
 11
75.4227459068
 21
144.3239409342
  0
LINE
  8
2_FEATURE
 62
7
  6
CONTINUOUS
 10
153.0207270767
 20
144.3239409342
 11
187.7227458964
 21
144.3239409342
  0
LINE
  8
2_FEATURE
 62
7
  6
CONTINUOUS
 10
152.5227459016
 20
146.6039409342
 11
147.0163209187
 21
146.6039409342
  0
LINE
  8
2_FEATURE
 62
7
  6
CONTINUOUS
 10
116.1291708845
 20
146.6039409342
 11
110.6227459016
 21
146.6039409342
  0
LINE
  8
2_FEATURE
 62
7
  6
CONTINUOUS
 10
153.0227459016
 20
146.1039371086
 11
153.0227459016
 21
144.3239409342
  0
LINE
  8
2_FEATURE
 62
7
  6
CONTINUOUS
 10
188.7227459016
 20
130.2651389404
 11
188.7227459016
 21
143.3239409342
  0
LINE
  8
2_FEATURE
 62
7
  6
CONTINUOUS
 10
300.0284839181
 20
140.7493892014
 11
308.4284839181
 21
145.5991314626
  0
LINE
  8
2_FEATURE
 62
7
  6
CONTINUOUS
 10
299.7784839181
 20
130.2926855217
 11
299.7784839181
 21
140.3163764995
  0
LINE
  8
DEFAULT_1
 62
2
  6
CENTER
 10
343.8104508197
 20
120.0539409342
 11
314.1785839181
 21
120.0539409342
  0
LINE
  8
0
 62
2
  6
CONTINUOUS
 10
313.2284839181
 20
120.0539409342
 11
311.1284839181
 21
120.0539409342
  0
LINE
  8
DEFAULT_1
 62
2
  6
CENTER
 10
293.4620901639
 20
120.0539409342
 11
310.1783839181
 21
120.0539409342
  0
POLYLINE
  8
2_FEATURE
 62
7
  6
CONTINUOUS
 66
1
 70
0
  0
VERTEX
  8
2_FEATURE
 62
7
  6
CONTINUOUS
 10
299.7784839181
 20
130.2926855217
  0
VERTEX
  8
2_FEATURE
 62
7
  6
CONTINUOUS
 10
299.7909113453
 20
130.1819020108
  0
VERTEX
  8
2_FEATURE
 62
7
  6
CONTINUOUS
 10
299.8276707141
 20
130.0764276775
  0
VERTEX
  8
2_FEATURE
 62
7
  6
CONTINUOUS
 10
299.8874315239
 20
129.9811120552
  0
VERTEX
  8
2_FEATURE
 62
7
  6
CONTINUOUS
 10
299.9677572246
 20
129.900959952
  0
VERTEX
  8
2_FEATURE
 62
7
  6
CONTINUOUS
 10
300.0650142268
 20
129.8405453986
  0
VERTEX
  8
2_FEATURE
 62
7
  6
CONTINUOUS
 10
300.1742956229
 20
129.8036611878
  0
SEQEND
  0
POLYLINE
  8
2_FEATURE
 62
7
  6
CONTINUOUS
 66
1
 70
0
  0
VERTEX
  8
2_FEATURE
 62
7
  6
CONTINUOUS
 10
303.7774671581
 20
138.576158628
  0
VERTEX
  8
2_FEATURE
 62
7
  6
CONTINUOUS
 10
303.7780321549
 20
138.5545661079
  0
VERTEX
  8
2_FEATURE
 62
7
  6
CONTINUOUS
 10
303.7783710036
 20
138.5329767424
  0
VERTEX
  8
2_FEATURE
 62
7
  6
CONTINUOUS
 10
303.7784839181
 20
138.5113905768
  0
SEQEND
  0
LINE
  8
2_FEATURE
 62
7
  6
CONTINUOUS
 10
303.7784839181
 20
138.5113905768
 11
303.7784839181
 21
133.0909079559
  0
LINE
  8
2_FEATURE
 62
7
  6
CONTINUOUS
 10
315.840469874
 20
142.4714602417
 11
315.9903248119
 21
142.6039409342
  0
LINE
  8
2_FEATURE
 62
7
  6
CONTINUOUS
 10
304.6784839181
 20
129.7375331089
 11
304.6784839181
 21
119.5539409342
  0
POLYLINE
  8
2_FEATURE
 62
7
  6
CONTINUOUS
 66
1
 70
0
  0
VERTEX
  8
2_FEATURE
 62
7
  6
CONTINUOUS
 10
308.4684839181
 20
118.6854141812
  0
VERTEX
  8
2_FEATURE
 62
7
  6
CONTINUOUS
 10
308.5317657744
 20
118.010579825
  0
VERTEX
  8
2_FEATURE
 62
7
  6
CONTINUOUS
 10
308.7193852763
 20
117.3589384612
  0
VERTEX
  8
2_FEATURE
 62
7
  6
CONTINUOUS
 10
309.0248574704
 20
116.7526646397
  0
VERTEX
  8
2_FEATURE
 62
7
  6
CONTINUOUS
 10
309.4376902523
 20
116.2123794359
  0
VERTEX
  8
2_FEATURE
 62
7
  6
CONTINUOUS
 10
309.9437458896
 20
115.7564338518
  0
VERTEX
  8
2_FEATURE
 62
7
  6
CONTINUOUS
 10
310.5257426931
 20
115.4002778067
  0
VERTEX
  8
2_FEATURE
 62
7
  6
CONTINUOUS
 10
311.1638587818
 20
115.1559499429
  0
VERTEX
  8
2_FEATURE
 62
7
  6
CONTINUOUS
 10
311.8364071278
 20
115.0316926482
  0
VERTEX
  8
2_FEATURE
 62
7
  6
CONTINUOUS
 10
312.5205607083
 20
115.0316926482
  0
VERTEX
  8
2_FEATURE
 62
7
  6
CONTINUOUS
 10
313.1931090543
 20
115.1559499429
  0
VERTEX
  8
2_FEATURE
 62
7
  6
CONTINUOUS
 10
313.831225143
 20
115.4002778067
  0
VERTEX
  8
2_FEATURE
 62
7
  6
CONTINUOUS
 10
314.4132219465
 20
115.7564338518
  0
VERTEX
  8
2_FEATURE
 62
7
  6
CONTINUOUS
 10
314.9192775838
 20
116.2123794359
  0
VERTEX
  8
2_FEATURE
 62
7
  6
CONTINUOUS
 10
315.3321103658
 20
116.7526646397
  0
VERTEX
  8
2_FEATURE
 62
7
  6
CONTINUOUS
 10
315.6375825598
 20
117.3589384612
  0
VERTEX
  8
2_FEATURE
 62
7
  6
CONTINUOUS
 10
315.8252020617
 20
118.010579825
  0
VERTEX
  8
2_FEATURE
 62
7
  6
CONTINUOUS
 10
315.8884839181
 20
118.6854141812
  0
SEQEND
  0
LINE
  8
2_FEATURE
 62
7
  6
CONTINUOUS
 10
308.4684839181
 20
118.6854141812
 11
308.4684839181
 21
121.2299392807
  0
POLYLINE
  8
2_FEATURE
 62
7
  6
CONTINUOUS
 66
1
 70
0
  0
VERTEX
  8
2_FEATURE
 62
7
  6
CONTINUOUS
 10
308.4684839181
 20
120.1297693369
  0
VERTEX
  8
2_FEATURE
 62
7
  6
CONTINUOUS
 10
308.5064233545
 20
120.6610084144
  0
VERTEX
  8
2_FEATURE
 62
7
  6
CONTINUOUS
 10
308.6194372353
 20
121.1812852116
  0
VERTEX
  8
2_FEATURE
 62
7
  6
CONTINUOUS
 10
308.8051344872
 20
121.6798874244
  0
VERTEX
  8
2_FEATURE
 62
7
  6
CONTINUOUS
 10
309.059602547
 20
122.146592782
  0
VERTEX
  8
2_FEATURE
 62
7
  6
CONTINUOUS
 10
309.3775110802
 20
122.5718901557
  0
VERTEX
  8
2_FEATURE
 62
7
  6
CONTINUOUS
 10
309.752247735
 20
122.9471749339
  0
VERTEX
  8
2_FEATURE
 62
7
  6
CONTINUOUS
 10
310.1760781335
 20
123.2649143722
  0
VERTEX
  8
2_FEATURE
 62
7
  6
CONTINUOUS
 10
310.6403223124
 20
123.5187814964
  0
VERTEX
  8
2_FEATURE
 62
7
  6
CONTINUOUS
 10
311.1355407109
 20
123.703758393
  0
VERTEX
  8
2_FEATURE
 62
7
  6
CONTINUOUS
 10
311.6517241816
 20
123.8162113061
  0
VERTEX
  8
2_FEATURE
 62
7
  6
CONTINUOUS
 10
312.1784846879
 20
123.8539409342
  0
VERTEX
  8
2_FEATURE
 62
7
  6
CONTINUOUS
 10
312.7052451472
 20
123.8162110912
  0
VERTEX
  8
2_FEATURE
 62
7
  6
CONTINUOUS
 10
313.2214284835
 20
123.7037579936
  0
VERTEX
  8
2_FEATURE
 62
7
  6
CONTINUOUS
 10
313.7166466792
 20
123.518780968
  0
VERTEX
  8
2_FEATURE
 62
7
  6
CONTINUOUS
 10
314.1808906146
 20
123.2649137853
  0
VERTEX
  8
2_FEATURE
 62
7
  6
CONTINUOUS
 10
314.6047207607
 20
122.9471743615
  0
VERTEX
  8
2_FEATURE
 62
7
  6
CONTINUOUS
 10
314.9794571842
 20
122.5718896606
  0
VERTEX
  8
2_FEATURE
 62
7
  6
CONTINUOUS
 10
315.2973655296
 20
122.1465924073
  0
VERTEX
  8
2_FEATURE
 62
7
  6
CONTINUOUS
 10
315.5518334577
 20
121.6798871857
  0
VERTEX
  8
2_FEATURE
 62
7
  6
CONTINUOUS
 10
315.7375306347
 20
121.1812850959
  0
VERTEX
  8
2_FEATURE
 62
7
  6
CONTINUOUS
 10
315.8505444859
 20
120.6610083841
  0
VERTEX
  8
2_FEATURE
 62
7
  6
CONTINUOUS
 10
315.8884839181
 20
120.1297693369
  0
SEQEND
  0
LINE
  8
2_FEATURE
 62
7
  6
CONTINUOUS
 10
319.1684839181
 20
129.3423575733
 11
319.1784839199
 21
129.3423575733
  0
LINE
  8
2_FEATURE
 62
7
  6
CONTINUOUS
 10
300.1742956229
 20
129.8036611878
 11
300.2784839181
 21
129.7926855233
  0
POLYLINE
  8
2_FEATURE
 62
7
  6
CONTINUOUS
 66
1
 70
0
  0
VERTEX
  8
2_FEATURE
 62
7
  6
CONTINUOUS
 10
314.7041309429
 20
141.4239409342
  0
VERTEX
  8
2_FEATURE
 62
7
  6
CONTINUOUS
 10
314.667842513
 20
141.2971056968
  0
VERTEX
  8
2_FEATURE
 62
7
  6
CONTINUOUS
 10
314.6330276341
 20
141.1778010551
  0
VERTEX
  8
2_FEATURE
 62
7
  6
CONTINUOUS
 10
314.6021935504
 20
141.0740842892
  0
SEQEND
  0
POLYLINE
  8
2_FEATURE
 62
7
  6
CONTINUOUS
 66
1
 70
0
  0
VERTEX
  8
2_FEATURE
 62
7
  6
CONTINUOUS
 10
314.6021935504
 20
141.0740842892
  0
VERTEX
  8
2_FEATURE
 62
7
  6
CONTINUOUS
 10
314.5620473793
 20
140.941784393
  0
VERTEX
  8
2_FEATURE
 62
7
  6
CONTINUOUS
 10
314.5565597457
 20
140.9239409342
  0
SEQEND
  0
LINE
  8
2_FEATURE
 62
7
  6
CONTINUOUS
 10
300.2784839181
 20
129.7926855217
 11
303.978483918
 21
129.7926855217
  0
POLYLINE
  8
2_FEATURE
 62
7
  6
CONTINUOUS
 66
1
 70
0
  0
VERTEX
  8
2_FEATURE
 62
7
  6
CONTINUOUS
 10
303.978483918
 20
129.7926857764
  0
VERTEX
  8
2_FEATURE
 62
7
  6
CONTINUOUS
 10
304.1502725993
 20
129.7897983866
  0
VERTEX
  8
2_FEATURE
 62
7
  6
CONTINUOUS
 10
304.3200617221
 20
129.781027192
  0
VERTEX
  8
2_FEATURE
 62
7
  6
CONTINUOUS
 10
304.4666885299
 20
129.768088414
  0
VERTEX
  8
2_FEATURE
 62
7
  6
CONTINUOUS
 10
304.5899581794
 20
129.7524806078
  0
VERTEX
  8
2_FEATURE
 62
7
  6
CONTINUOUS
 10
304.6902208413
 20
129.735551339
  0
VERTEX
  8
2_FEATURE
 62
7
  6
CONTINUOUS
 10
304.7677607598
 20
129.7186801961
  0
VERTEX
  8
2_FEATURE
 62
7
  6
CONTINUOUS
 10
304.8222060545
 20
129.7036334172
  0
VERTEX
  8
2_FEATURE
 62
7
  6
CONTINUOUS
 10
304.8526858827
 20
129.6929822812
  0
VERTEX
  8
2_FEATURE
 62
7
  6
CONTINUOUS
 10
304.8561481903
 20
129.6915552742
  0
SEQEND
  0
LINE
  8
0
 62
2
  6
CONTINUOUS
 10
312.1784839181
 20
140.1909409342
 11
312.1784839181
 21
138.0909409342
  0
LINE
  8
DEFAULT_1
 62
2
  6
CENTER
 10
312.1784839181
 20
133.8909409342
 11
312.1784839181
 21
131.9909409342
  0
LINE
  8
DEFAULT_1
 62
2
  6
CENTER
 10
312.1784839181
 20
130.1034836066
 11
312.1784839181
 21
122.0540409342
  0
LINE
  8
0
 62
2
  6
CONTINUOUS
 10
312.1784839181
 20
121.1039409342
 11
312.1784839181
 21
119.0039409342
  0
LINE
  8
DEFAULT_1
 62
2
  6
CENTER
 10
312.1784839181
 20
105.7038934426
 11
312.1784839181
 21
118.0538409342
  0
LINE
  8
DEFAULT_1
 62
2
  6
CENTER
 10
312.1784839181
 20
144.3909409342
 11
312.1784839181
 21
146.2909409342
  0
POLYLINE
  8
2_FEATURE
 62
7
  6
CONTINUOUS
 66
1
 70
0
  0
VERTEX
  8
2_FEATURE
 62
7
  6
CONTINUOUS
 10
309.6719762798
 20
141.4239409342
  0
VERTEX
  8
2_FEATURE
 62
7
  6
CONTINUOUS
 10
309.7079548368
 20
141.2970623156
  0
VERTEX
  8
2_FEATURE
 62
7
  6
CONTINUOUS
 10
309.7424683151
 20
141.1777355282
  0
VERTEX
  8
2_FEATURE
 62
7
  6
CONTINUOUS
 10
309.7730302163
 20
141.074020741
  0
VERTEX
  8
2_FEATURE
 62
7
  6
CONTINUOUS
 10
309.7971994145
 20
140.9932970832
  0
VERTEX
  8
2_FEATURE
 62
7
  6
CONTINUOUS
 10
309.8182444143
 20
140.9239409342
  0
SEQEND
  0
POLYLINE
  8
2_FEATURE
 62
7
  6
CONTINUOUS
 66
1
 70
0
  0
VERTEX
  8
2_FEATURE
 62
7
  6
CONTINUOUS
 10
315.8884839181
 20
121.2299392807
  0
VERTEX
  8
2_FEATURE
 62
7
  6
CONTINUOUS
 10
315.8250193397
 20
121.9158350729
  0
VERTEX
  8
2_FEATURE
 62
7
  6
CONTINUOUS
 10
315.6369114789
 20
122.5779683411
  0
VERTEX
  8
2_FEATURE
 62
7
  6
CONTINUOUS
 10
315.3308098529
 20
123.1936688007
  0
VERTEX
  8
2_FEATURE
 62
7
  6
CONTINUOUS
 10
314.9174263045
 20
123.7419559753
  0
VERTEX
  8
2_FEATURE
 62
7
  6
CONTINUOUS
 10
314.411105094
 20
124.2042801044
  0
VERTEX
  8
2_FEATURE
 62
7
  6
CONTINUOUS
 10
313.829256799
 20
124.5651371332
  0
VERTEX
  8
2_FEATURE
 62
7
  6
CONTINUOUS
 10
313.1917150188
 20
124.8125303357
  0
VERTEX
  8
2_FEATURE
 62
7
  6
CONTINUOUS
 10
312.5200572011
 20
124.9382931928
  0
VERTEX
  8
2_FEATURE
 62
7
  6
CONTINUOUS
 10
311.836910635
 20
124.9382931928
  0
VERTEX
  8
2_FEATURE
 62
7
  6
CONTINUOUS
 10
311.1652528173
 20
124.8125303357
  0
VERTEX
  8
2_FEATURE
 62
7
  6
CONTINUOUS
 10
310.5277110371
 20
124.5651371332
  0
VERTEX
  8
2_FEATURE
 62
7
  6
CONTINUOUS
 10
309.9458627421
 20
124.2042801044
  0
VERTEX
  8
2_FEATURE
 62
7
  6
CONTINUOUS
 10
309.4395415316
 20
123.7419559753
  0
VERTEX
  8
2_FEATURE
 62
7
  6
CONTINUOUS
 10
309.0261579832
 20
123.1936688007
  0
VERTEX
  8
2_FEATURE
 62
7
  6
CONTINUOUS
 10
308.7200563572
 20
122.5779683411
  0
VERTEX
  8
2_FEATURE
 62
7
  6
CONTINUOUS
 10
308.5319484964
 20
121.9158350729
  0
VERTEX
  8
2_FEATURE
 62
7
  6
CONTINUOUS
 10
308.4684839181
 20
121.2299392807
  0
SEQEND
  0
LINE
  8
2_FEATURE
 62
7
  6
CONTINUOUS
 10
315.6984839181
 20
135.1707898035
 11
315.6984839181
 21
129.8357184413
  0
LINE
  8
2_FEATURE
 62
7
  6
CONTINUOUS
 10
315.8884839181
 20
118.6854141812
 11
315.8884839181
 21
121.2299392807
  0
POLYLINE
  8
2_FEATURE
 62
7
  6
CONTINUOUS
 66
1
 70
0
  0
VERTEX
  8
2_FEATURE
 62
7
  6
CONTINUOUS
 10
315.8884839181
 20
119.9843766513
  0
VERTEX
  8
2_FEATURE
 62
7
  6
CONTINUOUS
 10
315.8504662436
 20
119.4516984491
  0
VERTEX
  8
2_FEATURE
 62
7
  6
CONTINUOUS
 10
315.7372335004
 20
118.9300776484
  0
VERTEX
  8
2_FEATURE
 62
7
  6
CONTINUOUS
 10
315.5512213646
 20
118.4303076978
  0
VERTEX
  8
2_FEATURE
 62
7
  6
CONTINUOUS
 10
315.2964074404
 20
117.9626665602
  0
VERTEX
  8
2_FEATURE
 62
7
  6
CONTINUOUS
 10
314.9781954511
 20
117.5366887387
  0
VERTEX
  8
2_FEATURE
 62
7
  6
CONTINUOUS
 10
314.6032658913
 20
117.160968777
  0
VERTEX
  8
2_FEATURE
 62
7
  6
CONTINUOUS
 10
314.1794034683
 20
116.8430006232
  0
VERTEX
  8
2_FEATURE
 62
7
  6
CONTINUOUS
 10
313.7153113887
 20
116.5890532545
  0
VERTEX
  8
2_FEATURE
 62
7
  6
CONTINUOUS
 10
313.220420959
 20
116.4040798808
  0
VERTEX
  8
2_FEATURE
 62
7
  6
CONTINUOUS
 10
312.7047028178
 20
116.2916560617
  0
VERTEX
  8
2_FEATURE
 62
7
  6
CONTINUOUS
 10
312.1784828119
 20
116.2539409342
  0
VERTEX
  8
2_FEATURE
 62
7
  6
CONTINUOUS
 10
311.6522628738
 20
116.2916563707
  0
VERTEX
  8
2_FEATURE
 62
7
  6
CONTINUOUS
 10
311.1365449265
 20
116.4040804547
  0
VERTEX
  8
2_FEATURE
 62
7
  6
CONTINUOUS
 10
310.6416547893
 20
116.5890540133
  0
VERTEX
  8
2_FEATURE
 62
7
  6
CONTINUOUS
 10
310.1775630603
 20
116.8430014652
  0
VERTEX
  8
2_FEATURE
 62
7
  6
CONTINUOUS
 10
309.7537010002
 20
117.1609695971
  0
VERTEX
  8
2_FEATURE
 62
7
  6
CONTINUOUS
 10
309.3787717721
 20
117.5366894475
  0
VERTEX
  8
2_FEATURE
 62
7
  6
CONTINUOUS
 10
309.060560052
 20
117.9626670962
  0
VERTEX
  8
2_FEATURE
 62
7
  6
CONTINUOUS
 10
308.8057463161
 20
118.4303080388
  0
VERTEX
  8
2_FEATURE
 62
7
  6
CONTINUOUS
 10
308.6197342873
 20
118.9300778136
  0
VERTEX
  8
2_FEATURE
 62
7
  6
CONTINUOUS
 10
308.5065015863
 20
119.4516984923
  0
VERTEX
  8
2_FEATURE
 62
7
  6
CONTINUOUS
 10
308.4684839181
 20
119.9843766513
  0
SEQEND
  0
POLYLINE
  8
2_FEATURE
 62
7
  6
CONTINUOUS
 66
1
 70
0
  0
VERTEX
  8
2_FEATURE
 62
7
  6
CONTINUOUS
 10
315.9472339181
 20
133.1833119561
  0
VERTEX
  8
2_FEATURE
 62
7
  6
CONTINUOUS
 10
316.7045165331
 20
132.6771150565
  0
VERTEX
  8
2_FEATURE
 62
7
  6
CONTINUOUS
 10
317.3957519559
 20
132.0820374063
  0
VERTEX
  8
2_FEATURE
 62
7
  6
CONTINUOUS
 10
317.713294226
 20
131.753828074
  0
VERTEX
  8
2_FEATURE
 62
7
  6
CONTINUOUS
 10
318.286272221
 20
131.0420210456
  0
VERTEX
  8
2_FEATURE
 62
7
  6
CONTINUOUS
 10
318.769360159
 20
130.2651389404
  0
SEQEND
  0
POLYLINE
  8
2_FEATURE
 62
7
  6
CONTINUOUS
 66
1
 70
0
  0
VERTEX
  8
2_FEATURE
 62
7
  6
CONTINUOUS
 10
315.9472339181
 20
133.1833119561
  0
VERTEX
  8
2_FEATURE
 62
7
  6
CONTINUOUS
 10
315.8443263816
 20
133.2630073511
  0
VERTEX
  8
2_FEATURE
 62
7
  6
CONTINUOUS
 10
315.7652511756
 20
133.3667994103
  0
VERTEX
  8
2_FEATURE
 62
7
  6
CONTINUOUS
 10
315.7154752612
 20
133.4877178452
  0
VERTEX
  8
2_FEATURE
 62
7
  6
CONTINUOUS
 10
315.6984839181
 20
133.6175347956
  0
SEQEND
  0
LINE
  8
2_FEATURE
 62
7
  6
CONTINUOUS
 10
319.1684839181
 20
129.3423575733
 11
319.1684839181
 21
125.1974357894
  0
LINE
  8
2_FEATURE
 62
7
  6
CONTINUOUS
 10
316.3485929425
 20
138.8165549142
 11
315.8464642553
 21
138.806753711
  0
LINE
  8
2_FEATURE
 62
7
  6
CONTINUOUS
 10
308.0127375322
 20
138.7590394285
 11
308.5148952683
 21
138.7567836135
  0
POLYLINE
  8
2_FEATURE
 62
7
  6
CONTINUOUS
 66
1
 70
0
  0
VERTEX
  8
2_FEATURE
 62
7
  6
CONTINUOUS
 10
318.769360159
 20
130.2651389404
  0
VERTEX
  8
2_FEATURE
 62
7
  6
CONTINUOUS
 10
318.8283862162
 20
130.153147954
  0
VERTEX
  8
2_FEATURE
 62
7
  6
CONTINUOUS
 10
318.9331911618
 20
129.938805908
  0
VERTEX
  8
2_FEATURE
 62
7
  6
CONTINUOUS
 10
319.0193335604
 20
129.7444097228
  0
VERTEX
  8
2_FEATURE
 62
7
  6
CONTINUOUS
 10
319.055468521
 20
129.6566485624
  0
VERTEX
  8
2_FEATURE
 62
7
  6
CONTINUOUS
 10
319.1138047846
 20
129.5045809732
  0
VERTEX
  8
2_FEATURE
 62
7
  6
CONTINUOUS
 10
319.1545856542
 20
129.3867598019
  0
VERTEX
  8
2_FEATURE
 62
7
  6
CONTINUOUS
 10
319.1684839181
 20
129.3423575733
  0
SEQEND
  0
LINE
  8
2_FEATURE
 62
7
  6
CONTINUOUS
 10
319.6784839181
 20
119.5539409342
 11
319.6784839181
 21
139.1039409342
  0
POLYLINE
  8
2_FEATURE
 62
7
  6
CONTINUOUS
 66
1
 70
0
  0
VERTEX
  8
2_FEATURE
 62
7
  6
CONTINUOUS
 10
319.1680939359
 20
125.1962972913
  0
VERTEX
  8
2_FEATURE
 62
7
  6
CONTINUOUS
 10
319.1683100775
 20
125.1966760087
  0
VERTEX
  8
2_FEATURE
 62
7
  6
CONTINUOUS
 10
319.1684399319
 20
125.19705555
  0
VERTEX
  8
2_FEATURE
 62
7
  6
CONTINUOUS
 10
319.1684839181
 20
125.1974357894
  0
SEQEND
  0
LINE
  8
2_FEATURE
 62
7
  6
CONTINUOUS
 10
319.1680939359
 20
125.1962972913
 11
319.1115589667
 21
125.1141256769
  0
LINE
  8
2_FEATURE
 62
7
  6
CONTINUOUS
 10
319.1115589667
 20
125.1141256769
 11
319.0303066436
 21
124.9971881864
  0
LINE
  8
0
 62
2
  6
CONTINUOUS
 10
313.2284839181
 20
139.1409409342
 11
311.1284839181
 21
139.1409409342
  0
LINE
  8
DEFAULT_1
 62
2
  6
CENTER
 10
306.9284839181
 20
139.1409409342
 11
305.0284839181
 21
139.1409409342
  0
LINE
  8
DEFAULT_1
 62
2
  6
CENTER
 10
317.4284839181
 20
139.1409409342
 11
319.3284839181
 21
139.1409409342
  0
LINE
  8
2_FEATURE
 62
7
  6
CONTINUOUS
 10
314.5565597457
 20
140.9239409342
 11
309.8182444143
 21
140.9239409342
  0
LINE
  8
2_FEATURE
 62
7
  6
CONTINUOUS
 10
316.909447685
 20
144.3239409342
 11
315.8648158468
 21
144.3239409342
  0
LINE
  8
2_FEATURE
 62
7
  6
CONTINUOUS
 10
318.378612949
 20
143.3239409342
 11
318.277029582
 21
143.4694581755
  0
ARC
  8
2_FEATURE
 62
7
  6
CONTINUOUS
 10
104.5727459016
 20
206.6329921148
 40
0.5
 50
180.0
 51
270.0
  0
ARC
  8
2_FEATURE
 62
7
  6
CONTINUOUS
 10
104.5727459016
 20
209.6329920111
 40
0.5
 50
90.0
 51
179.9999881235
  0
ARC
  8
2_FEATURE
 62
7
  6
CONTINUOUS
 10
109.6227459016
 20
210.6329921148
 40
0.5
 50
270.0
 51
359.6987182453
  0
ARC
  8
2_FEATURE
 62
7
  6
CONTINUOUS
 10
115.5727459016
 20
206.6329921148
 40
0.5
 50
270.0
 51
360.0
  0
ARC
  8
2_FEATURE
 62
7
  6
CONTINUOUS
 10
116.7727459016
 20
210.3329921148
 40
0.7
 50
90.0
 51
180.0
  0
ARC
  8
2_FEATURE
 62
7
  6
CONTINUOUS
 10
119.4977459016
 20
211.5329921148
 40
0.5
 50
180.0
 51
270.0
  0
ARC
  8
2_FEATURE
 62
7
  6
CONTINUOUS
 10
119.4977459016
 20
225.5329921148
 40
0.5
 50
90.0
 51
180.0
  0
ARC
  8
2_FEATURE
 62
7
  6
CONTINUOUS
 10
74.7227459016
 20
225.7329921148
 40
0.3
 50
90.0
 51
180.0
  0
ARC
  8
2_FEATURE
 62
7
  6
CONTINUOUS
 10
109.9227459016
 20
221.8529921148
 40
0.2
 50
0.0
 51
90.0
  0
ARC
  8
2_FEATURE
 62
7
  6
CONTINUOUS
 10
147.5727459016
 20
206.6329921148
 40
0.5
 50
180.0
 51
270.0
  0
ARC
  8
2_FEATURE
 62
7
  6
CONTINUOUS
 10
146.3727459016
 20
210.3329921148
 40
0.7
 50
0.0
 51
90.0
  0
ARC
  8
2_FEATURE
 62
7
  6
CONTINUOUS
 10
143.6477459016
 20
211.5329921148
 40
0.5
 50
270.0
 51
360.0
  0
ARC
  8
2_FEATURE
 62
7
  6
CONTINUOUS
 10
158.5727459016
 20
206.6329921148
 40
0.5
 50
270.0
 51
360.0
  0
ARC
  8
2_FEATURE
 62
7
  6
CONTINUOUS
 10
153.5227459016
 20
210.6329921148
 40
0.5
 50
180.3012817547
 51
270.0
  0
ARC
  8
2_FEATURE
 62
7
  6
CONTINUOUS
 10
158.5727459016
 20
209.6329921148
 40
0.5
 50
0.0
 51
90.0
  0
ARC
  8
2_FEATURE
 62
7
  6
CONTINUOUS
 10
143.6477459016
 20
225.5329921148
 40
0.5
 50
0.0
 51
90.0
  0
ARC
  8
2_FEATURE
 62
7
  6
CONTINUOUS
 10
188.4227459016
 20
225.7329921148
 40
0.3
 50
0.0
 51
90.0
  0
ARC
  8
2_FEATURE
 62
7
  6
CONTINUOUS
 10
153.2227459016
 20
221.8529921148
 40
0.2
 50
90.0
 51
180.0
  0
ARC
  8
2_FEATURE
 62
7
  6
CONTINUOUS
 10
123.9977459016
 20
120.4439409342
 40
5.0
 50
180.0
 51
189.0
  0
ARC
  8
2_FEATURE
 62
7
  6
CONTINUOUS
 10
120.691305996
 20
112.5539413995
 40
0.5
 50
189.0
 51
269.999998542
  0
ARC
  8
2_FEATURE
 62
7
  6
CONTINUOUS
 10
118.7977459016
 20
124.9971881864
 40
0.2
 50
0.0
 51
84.59
  0
ARC
  8
2_FEATURE
 62
7
  6
CONTINUOUS
 10
113.4977459016
 20
138.9539409342
 40
5.0
 50
0.0
 51
16.0
  0
ARC
  8
2_FEATURE
 62
7
  6
CONTINUOUS
 10
75.4227459016
 20
143.3239409342
 40
1.0
 50
89.999999702
 51
180.0
  0
ARC
  8
2_FEATURE
 62
7
  6
CONTINUOUS
 10
75.4227459016
 20
130.2651389404
 40
1.0
 50
180.0
 51
247.3361468826
  0
ARC
  8
2_FEATURE
 62
7
  6
CONTINUOUS
 10
110.6227459016
 20
146.1039409342
 40
0.5
 50
90.0
 51
180.0
  0
ARC
  8
2_FEATURE
 62
7
  6
CONTINUOUS
 10
116.128863863
 20
146.1039409057
 40
0.5
 50
15.9999999999
 51
89.9999997907
  0
ARC
  8
2_FEATURE
 62
7
  6
CONTINUOUS
 10
118.9977459016
 20
134.8839409342
 40
0.5
 50
180.0
 51
270.0
  0
ARC
  8
2_FEATURE
 62
7
  6
CONTINUOUS
 10
139.1477459016
 20
120.4439409342
 40
5.0
 50
351.0
 51
360.0
  0
ARC
  8
2_FEATURE
 62
7
  6
CONTINUOUS
 10
142.4541858072
 20
112.5539413995
 40
0.5
 50
270.000001458
 51
351.0
  0
ARC
  8
2_FEATURE
 62
7
  6
CONTINUOUS
 10
144.3477459016
 20
124.9971881864
 40
0.2
 50
95.41
 51
180.0
  0
ARC
  8
2_FEATURE
 62
7
  6
CONTINUOUS
 10
149.6477459016
 20
138.9539409342
 40
5.0
 50
164.0
 51
180.0
  0
ARC
  8
2_FEATURE
 62
7
  6
CONTINUOUS
 10
187.7227459016
 20
143.3239409342
 40
1.0
 50
0.0
 51
90.000000298
  0
ARC
  8
2_FEATURE
 62
7
  6
CONTINUOUS
 10
187.7227459016
 20
130.2651389404
 40
1.0
 50
292.6638531174
 51
360.0
  0
ARC
  8
2_FEATURE
 62
7
  6
CONTINUOUS
 10
152.5227459016
 20
146.1039409342
 40
0.5
 50
0.0
 51
90.0
  0
ARC
  8
2_FEATURE
 62
7
  6
CONTINUOUS
 10
147.0166279403
 20
146.1039409057
 40
0.5
 50
90.0000002093
 51
164.0000000001
  0
ARC
  8
2_FEATURE
 62
7
  6
CONTINUOUS
 10
144.1477459016
 20
134.8839409342
 40
0.5
 50
270.0
 51
360.0
  0
ARC
  8
2_FEATURE
 62
7
  6
CONTINUOUS
 10
300.2784839181
 20
140.3163764995
 40
0.5
 50
120.0
 51
180.0
  0
ARC
  8
2_FEATURE
 62
7
  6
CONTINUOUS
 10
312.1784839181
 20
119.5539409342
 40
7.5
 50
180.0
 51
360.0
  0
ARC
  8
2_FEATURE
 62
7
  6
CONTINUOUS
 10
311.4884839181
 20
138.4439409342
 40
2.99
 50
123.9596228214
 51
173.9941699644
  0
ARC
  8
2_FEATURE
 62
7
  6
CONTINUOUS
 10
312.8684839181
 20
138.4439409342
 40
3.0
 50
6.9462167689
 51
55.7578312974
  0
ARC
  8
2_FEATURE
 62
7
  6
CONTINUOUS
 10
312.1784839181
 20
139.1039409342
 40
7.5
 50
0.0
 51
120.0
  0
ARC
  8
2_FEATURE
 62
7
  6
CONTINUOUS
 10
312.1784839181
 20
139.1409409342
 40
5.15
 50
315.3574516585
 51
42.2546735916
  0
ARC
  8
2_FEATURE
 62
7
  6
CONTINUOUS
 10
312.1784839181
 20
139.1039409342
 40
3.68
 50
185.41311693
 51
355.36789771
  0
ARC
  8
2_FEATURE
 62
7
  6
CONTINUOUS
 10
316.1984839181
 20
135.1707898035
 40
0.5
 50
135.3574516585
 51
180.0
  0
ARC
  8
2_FEATURE
 62
7
  6
CONTINUOUS
 10
316.7584839181
 20
142.5804645388
 40
1.75
 50
37.4234406716
 51
85.0512281941
  0
ARC
  8
2_FEATURE
 62
7
  6
CONTINUOUS
 10
316.8996124452
 20
143.3839409342
 40
1.198
 50
128.3125063401
 51
220.6234669706
  0
ENDSEC
  0
EOF
