  0
SECTION
  2
HEADER
  9
$EXTMAX
 10
420.0
 20
297.0
 30
0.0
  9
$EXTMIN
 10
0.0
 20
0.0
 30
0.0
  9
$LIMMIN
 10
0.0
 20
0.0
  9
$LIMMAX
 10
420.0
 20
297.0
  9
$VIEWCTR
 10
210.0
 20
148.5
  9
$VIEWSIZE
 40
297.0
  9
$CLAYER
  8
0
  9
$LTSCALE
 40
23.1
  9
$CELTYPE
  6
BYLAYER
  9
$DIMSCALE
 40
1.0
  9
$DIMASZ
 40
3.5
  9
$DIMEXO
 40
1.0
  9
$DIMDLI
 40
15.96
  9
$DIMEXE
 40
2.0
  9
$DIMCEN
 40
3.78
  9
$DIMLFAC
 40
1.0
  9
$DIMBLK
  1
_FILLED
  9
$DIMTXT
 40
3.5
  9
$PDMODE
 70
3
  9
$PDSIZE
 40
0.3125
  9
$TILEMODE
 70
1
  0
ENDSEC
  0
SECTION
  2
TABLES
  0
TABLE
  2
LTYPE
 70
6
  0
LTYPE
  2
BYBLOCK
 70
0
  3

 72
65
 73
0
 40
0.0
  0
LTYPE
  2
BYLAYER
 70
0
  3

 72
65
 73
0
 40
0.0
  0
LTYPE
  2
CONTINUOUS
 70
64
  3
Solid line
 72
65
 73
0
 40
0.0
  0
LTYPE
  2
CENTER
 70
64
  3
____ _ ____ _ ____ _ ____ _ ____ _ ____ _ ____
 72
65
 73
4
 40
0.6
 49
0.375
 49
-0.075
 49
0.075
 49
-0.075
  0
LTYPE
  2
HIDDEN
 70
64
  3
- - - - - - - - - - - - - - - - - - - -
 72
65
 73
2
 40
0.2
 49
0.1
 49
-0.1
  0
LTYPE
  2
PHANTOM
 70
64
  3
_____ _ _ _____ _ _ _____ _ _ _____
 72
65
 73
6
 40
0.8
 49
0.45
 49
-0.05
 49
0.1
 49
-0.05
 49
0.1
 49
-0.05
  0
LTYPE
  2
DOT
 70
64
  3
. . . . . . . . . . . . . . . . . . . .
 72
65
 73
2
 40
0.2
 49
0.1
 49
-0.1
  0
LTYPE
  2
DASHED
 70
64
  3
- - - - - - - - - - - - - - - - - - - -
 72
65
 73
2
 40
0.2
 49
0.1
 49
-0.1
  0
ENDTAB
  0
TABLE
  2
LAYER
 70
36
  0
LAYER
  2
0
 70
0
 62
7
  6
CONTINUOUS
  0
LAYER
  2
DEFAULT_1
 70
0
 62
7
  6
CENTER
  0
LAYER
  2
DEFAULT_2
 70
0
 62
8
  6
HIDDEN
  0
LAYER
  2
DEFAULT_3
 70
0
 62
7
  6
PHANTOM
  0
LAYER
  2
1_AXIS
 70
0
 62
7
  6
CONTINUOUS
  0
LAYER
  2
1_DATUM_PLANE
 70
0
 62
7
  6
CONTINUOUS
  0
LAYER
  2
1_DATUM_PLANES
 70
0
 62
7
  6
CONTINUOUS
  0
LAYER
  2
2_FEATURE
 70
0
 62
7
  6
CONTINUOUS
  0
LAYER
  2
3_CURVE
 70
0
 62
7
  6
CONTINUOUS
  0
LAYER
  2
4_QUILT
 70
0
 62
7
  6
CONTINUOUS
  0
LAYER
  2
4_SURFACE
 70
0
 62
7
  6
CONTINUOUS
  0
LAYER
  2
6_DIM
 70
0
 62
7
  6
CONTINUOUS
  0
LAYER
  2
6_NOTE
 70
0
 62
7
  6
CONTINUOUS
  0
LAYER
  2
AXES
 70
0
 62
7
  6
CONTINUOUS
  0
LAYER
  2
CSYS
 70
0
 62
7
  6
CONTINUOUS
  0
LAYER
  2
NOTES
 70
0
 62
7
  6
CONTINUOUS
  0
ENDTAB
  0
TABLE
  2
STYLE
 70
1
  0
STYLE
  2
STANDARD
 70
0
 40
0.0
 41
0.8
 50
0.0
 71
0
 42
0.2
  3
txt
  4

  0
STYLE
  2
TEXTSTYLE_1
 70
0
 40
0.0
 41
0.8
 50
0.0
 71
0
 42
0.2
  3
gdt
  4

  0
STYLE
  2
TEXTSTYLE_2
 70
0
 40
0.0
 41
0.6
 50
0.0
 71
0
 42
0.2
  3
txt
  4

  0
STYLE
  2
TEXTSTYLE_3
 70
0
 40
0.0
 41
1.0
 50
0.0
 71
0
 42
0.2
  3
ftb_____.ttf
  4

  0
STYLE
  2
TEXTSTYLE_4
 70
0
 40
0.0
 41
1.0
 50
0.0
 71
0
 42
0.2
  3
fti_____.ttf
  4

  0
STYLE
  2
TEXTSTYLE_5
 70
0
 40
0.0
 41
1.0
 50
0.0
 71
0
 42
0.2
  3
frutiger light.ttf
  4

  0
STYLE
  2
TEXTSTYLE_6
 70
0
 40
0.0
 41
0.7
 50
0.0
 71
0
 42
0.2
  3
txt
  4

  0
STYLE
  2
TEXTSTYLE_7
 70
0
 40
0.0
 41
0.8
 50
0.0
 71
0
 42
0.2
  3
txt
  4

  0
ENDTAB
  0
ENDSEC
  0
SECTION
  2
BLOCKS
  0
BLOCK
  8
0
 62
2
  6
CONTINUOUS
  2
SYMBOL_5_BL1
 70
64
 10
382.3920721743
 20
35.7654615278
  0
TEXT
  8
0
 62
7
  6
CONTINUOUS
 10
373.4503571828
 20
30.9093678571
  7
TEXTSTYLE_4
 40
1.0655737705
  1
The brand for plastic modular belts and chains
 41
1.0
 72
0
  0
LINE
  8
0
 62
7
  6
CONTINUOUS
 10
358.3701405634
 20
36.3903819718
 11
358.3701405634
 21
34.2592344308
  0
LINE
  8
0
 62
7
  6
CONTINUOUS
 10
358.6592030565
 20
31.2683031351
 11
358.6592030565
 21
31.3650941944
  0
LINE
  8
0
 62
7
  6
CONTINUOUS
 10
358.3701405634
 20
31.332830508
 11
358.4279530651
 21
31.1392483894
  0
LINE
  8
0
 62
7
  6
CONTINUOUS
 10
359.7635831863
 20
34.1772672177
 11
359.7635831863
 21
36.3903819718
  0
LINE
  8
0
 62
7
  6
CONTINUOUS
 10
360.6826405082
 20
32.3330049227
 11
360.6826405082
 21
30.81661148
  0
LINE
  8
0
 62
7
  6
CONTINUOUS
 10
360.9717030634
 20
30.81661148
 11
360.9717030634
 21
31.5586763581
  0
LINE
  8
0
 62
7
  6
CONTINUOUS
 10
360.9717030634
 20
31.6877311038
 11
360.9717030634
 21
32.3330049227
  0
LINE
  8
0
 62
7
  6
CONTINUOUS
 10
358.4279530651
 20
31.5264126717
 11
358.3701405634
 21
31.332830508
  0
LINE
  8
0
 62
7
  6
CONTINUOUS
 10
358.7748280496
 20
31.106984703
 11
358.6592030565
 21
31.2683031351
  0
LINE
  8
0
 62
7
  6
CONTINUOUS
 10
359.8732656185
 20
31.623203731
 11
359.9310780634
 21
31.5264126717
  0
LINE
  8
0
 62
7
  6
CONTINUOUS
 10
360.2201406185
 20
31.5264126717
 11
360.1623280082
 21
31.6554674174
  0
LINE
  8
0
 62
7
  6
CONTINUOUS
 10
361.648829088
 20
36.3903819718
 11
361.648829088
 21
34.5871032833
  0
LINE
  8
0
 62
7
  6
CONTINUOUS
 10
361.648829088
 20
33.2756278735
 11
361.648829088
 21
32.6198901686
  0
LINE
  8
0
 62
7
  6
CONTINUOUS
 10
362.0123280634
 20
31.4618852989
 11
362.0123280634
 21
30.81661148
  0
LINE
  8
0
 62
7
  6
CONTINUOUS
 10
362.3013904531
 20
30.81661148
 11
362.3013904531
 21
31.4618852989
  0
LINE
  8
0
 62
7
  6
CONTINUOUS
 10
358.6592030565
 20
31.3650941944
 11
358.7170155634
 21
31.4941489853
  0
LINE
  8
0
 62
7
  6
CONTINUOUS
 10
358.4279530651
 20
31.1392483894
 11
358.5435780634
 21
31.0101936212
  0
LINE
  8
0
 62
7
  6
CONTINUOUS
 10
361.9545154531
 20
31.5909400446
 11
362.0123280634
 21
31.4618852989
  0
LINE
  8
0
 62
7
  6
CONTINUOUS
 10
362.7638906736
 20
31.106984703
 11
362.8217029531
 21
30.9779299347
  0
LINE
  8
0
 62
7
  6
CONTINUOUS
 10
362.3013904531
 20
31.4618852989
 11
362.2435781736
 21
31.623203731
  0
LINE
  8
0
 62
7
  6
CONTINUOUS
 10
362.7638906736
 20
31.6554674174
 11
362.7638906736
 21
31.5909400446
  0
LINE
  8
0
 62
7
  6
CONTINUOUS
 10
362.7638906736
 20
31.2037757623
 11
362.7638906736
 21
31.106984703
  0
LINE
  8
0
 62
7
  6
CONTINUOUS
 10
363.0422717109
 20
32.6198901686
 11
363.0422717109
 21
36.3903819718
  0
LINE
  8
0
 62
7
  6
CONTINUOUS
 10
363.0529530634
 20
31.074720994
 11
363.0529530634
 21
31.1392483894
  0
LINE
  8
0
 62
7
  6
CONTINUOUS
 10
363.3701405634
 20
36.3903819718
 11
363.3701405634
 21
32.6198901686
  0
LINE
  8
0
 62
7
  6
CONTINUOUS
 10
360.1623280082
 20
31.0101936212
 11
360.2201406185
 21
31.1392483894
  0
LINE
  8
0
 62
7
  6
CONTINUOUS
 10
364.5560782839
 20
30.9134025506
 11
364.4982653428
 21
31.074720994
  0
LINE
  8
0
 62
7
  6
CONTINUOUS
 10
364.2092032839
 20
31.5909400446
 11
364.2092032839
 21
31.4941489853
  0
LINE
  8
0
 62
7
  6
CONTINUOUS
 10
364.2092032839
 20
31.3650941944
 11
364.2092032839
 21
31.1715120759
  0
LINE
  8
0
 62
7
  6
CONTINUOUS
 10
364.4982653428
 20
31.074720994
 11
364.4982653428
 21
31.5909400446
  0
LINE
  8
0
 62
7
  6
CONTINUOUS
 10
364.7635831863
 20
32.6198901686
 11
364.7635831863
 21
34.4231688571
  0
LINE
  8
0
 62
7
  6
CONTINUOUS
 10
364.7635831863
 20
35.7346442669
 11
364.7635831863
 21
36.3903819718
  0
LINE
  8
0
 62
7
  6
CONTINUOUS
 10
365.0763907839
 20
32.3330049227
 11
365.0763907839
 21
32.1716864905
  0
LINE
  8
0
 62
7
  6
CONTINUOUS
 10
365.0763907839
 20
31.8490495359
 11
365.0763907839
 21
30.81661148
  0
LINE
  8
0
 62
7
  6
CONTINUOUS
 10
365.3654528428
 20
30.81661148
 11
365.3654528428
 21
31.8490495359
  0
LINE
  8
0
 62
7
  6
CONTINUOUS
 10
365.3654528428
 20
32.1716864905
 11
365.3654528428
 21
32.3330049227
  0
LINE
  8
0
 62
7
  6
CONTINUOUS
 10
359.9310780634
 20
31.1392483894
 11
359.8732656185
 21
31.0424573076
  0
LINE
  8
0
 62
7
  6
CONTINUOUS
 10
362.2435781736
 20
31.623203731
 11
362.1857655634
 21
31.6877311038
  0
LINE
  8
0
 62
7
  6
CONTINUOUS
 10
363.1107656736
 20
31.0101936212
 11
363.0529530634
 21
31.074720994
  0
LINE
  8
0
 62
7
  6
CONTINUOUS
 10
364.2670155634
 20
30.8811388585
 11
364.3248278428
 21
30.81661148
  0
LINE
  8
0
 62
7
  6
CONTINUOUS
 10
364.2092032839
 20
30.9779299347
 11
364.2670155634
 21
30.8811388585
  0
LINE
  8
0
 62
7
  6
CONTINUOUS
 10
364.6138905634
 20
30.81661148
 11
364.5560782839
 21
30.9134025506
  0
LINE
  8
0
 62
7
  6
CONTINUOUS
 10
364.4982653428
 20
31.5909400446
 11
364.4404530634
 21
31.6877311038
  0
LINE
  8
0
 62
7
  6
CONTINUOUS
 10
365.8279530634
 20
31.8490495359
 11
365.8279530634
 21
30.81661148
  0
LINE
  8
0
 62
7
  6
CONTINUOUS
 10
366.1170157839
 20
30.81661148
 11
366.1170157839
 21
31.5586763581
  0
LINE
  8
0
 62
7
  6
CONTINUOUS
 10
366.1170157839
 20
31.6877311038
 11
366.1170157839
 21
31.8490495359
  0
LINE
  8
0
 62
7
  6
CONTINUOUS
 10
366.648829088
 20
34.8330049227
 11
366.648829088
 21
32.6198901686
  0
LINE
  8
0
 62
7
  6
CONTINUOUS
 10
358.5435780634
 20
31.6554674174
 11
358.4279530651
 21
31.5264126717
  0
LINE
  8
0
 62
7
  6
CONTINUOUS
 10
358.7170155634
 20
31.4941489853
 11
358.7748280496
 21
31.5586763581
  0
LINE
  8
0
 62
7
  6
CONTINUOUS
 10
358.5435780634
 20
31.0101936212
 11
358.6592030565
 21
30.945666237
  0
LINE
  8
0
 62
7
  6
CONTINUOUS
 10
358.9482655496
 20
31.0101936212
 11
358.7748280496
 21
31.106984703
  0
LINE
  8
0
 62
7
  6
CONTINUOUS
 10
364.1513903428
 20
31.6554674174
 11
364.2092032839
 21
31.5909400446
  0
LINE
  8
0
 62
7
  6
CONTINUOUS
 10
367.0998278428
 20
31.5909400446
 11
367.1576407839
 21
31.4296216124
  0
LINE
  8
0
 62
7
  6
CONTINUOUS
 10
367.4467028428
 20
31.4296216124
 11
367.3888905634
 21
31.5909400446
  0
LINE
  8
0
 62
7
  6
CONTINUOUS
 10
367.1576407839
 20
31.4296216124
 11
367.1576407839
 21
30.81661148
  0
LINE
  8
0
 62
7
  6
CONTINUOUS
 10
367.4467028428
 20
30.81661148
 11
367.4467028428
 21
31.4296216124
  0
LINE
  8
0
 62
7
  6
CONTINUOUS
 10
367.9092030634
 20
31.6554674174
 11
367.9092030634
 21
31.5909400446
  0
LINE
  8
0
 62
7
  6
CONTINUOUS
 10
368.0422717109
 20
32.6198901686
 11
368.0422717109
 21
34.7510377095
  0
LINE
  8
0
 62
7
  6
CONTINUOUS
 10
368.3701405634
 20
36.3903819718
 11
368.3701405634
 21
32.6198901686
  0
LINE
  8
0
 62
7
  6
CONTINUOUS
 10
363.0529530634
 20
31.1392483894
 11
363.1107656736
 21
31.2360394487
  0
LINE
  8
0
 62
7
  6
CONTINUOUS
 10
358.6592030565
 20
30.945666237
 11
358.8326405772
 21
30.8811388585
  0
LINE
  8
0
 62
7
  6
CONTINUOUS
 10
360.1623280082
 20
31.6554674174
 11
359.9888905082
 21
31.7522584767
  0
LINE
  8
0
 62
7
  6
CONTINUOUS
 10
362.8217029531
 20
30.9779299347
 11
362.9951404531
 21
30.8811388585
  0
LINE
  8
0
 62
7
  6
CONTINUOUS
 10
361.8388905634
 20
31.6554674174
 11
361.9545154531
 21
31.5909400446
  0
LINE
  8
0
 62
7
  6
CONTINUOUS
 10
362.1857655634
 20
31.6877311038
 11
362.0701406736
 21
31.7522584767
  0
LINE
  8
0
 62
7
  6
CONTINUOUS
 10
367.9092030634
 20
31.074720994
 11
368.0248282839
 21
30.945666237
  0
LINE
  8
0
 62
7
  6
CONTINUOUS
 10
368.2560780634
 20
31.0101936212
 11
368.1982657839
 21
31.074720994
  0
LINE
  8
0
 62
7
  6
CONTINUOUS
 10
367.9092030634
 20
31.5909400446
 11
368.0248282839
 21
31.4618852989
  0
LINE
  8
0
 62
7
  6
CONTINUOUS
 10
367.3888905634
 20
31.5909400446
 11
367.3310782839
 21
31.6877311038
  0
LINE
  8
0
 62
7
  6
CONTINUOUS
 10
369.7592026223
 20
31.0101936212
 11
369.7592026223
 21
31.074720994
  0
LINE
  8
0
 62
7
  6
CONTINUOUS
 10
369.7635831863
 20
32.6198901686
 11
369.7635831863
 21
36.3903819718
  0
LINE
  8
0
 62
7
  6
CONTINUOUS
 10
362.8217029531
 20
31.7199947902
 11
362.7638906736
 21
31.6554674174
  0
LINE
  8
0
 62
7
  6
CONTINUOUS
 10
359.6998280358
 20
31.6877311038
 11
359.8732656185
 21
31.623203731
  0
LINE
  8
0
 62
7
  6
CONTINUOUS
 10
364.4404530634
 20
31.6877311038
 11
364.3248278428
 21
31.7522584767
  0
LINE
  8
0
 62
7
  6
CONTINUOUS
 10
368.2560780634
 20
31.5264126717
 11
368.1982657839
 21
31.5909400446
  0
LINE
  8
0
 62
7
  6
CONTINUOUS
 10
369.4123282839
 20
31.1392483894
 11
369.4701405634
 21
31.074720994
  0
LINE
  8
0
 62
7
  6
CONTINUOUS
 10
369.7592026223
 20
31.074720994
 11
369.6435780634
 21
31.2037757623
  0
LINE
  8
0
 62
7
  6
CONTINUOUS
 10
369.4123282839
 20
31.6554674174
 11
369.4701405634
 21
31.5909400446
  0
LINE
  8
0
 62
7
  6
CONTINUOUS
 10
369.7592026223
 20
31.5909400446
 11
369.6435780634
 21
31.7199947902
  0
LINE
  8
0
 62
7
  6
CONTINUOUS
 10
363.0529530634
 20
31.5909400446
 11
363.1107656736
 21
31.6554674174
  0
LINE
  8
0
 62
7
  6
CONTINUOUS
 10
362.8795155634
 20
31.332830508
 11
362.7638906736
 21
31.2037757623
  0
LINE
  8
0
 62
7
  6
CONTINUOUS
 10
364.2092032839
 20
31.1715120759
 11
364.1513903428
 21
31.106984703
  0
LINE
  8
0
 62
7
  6
CONTINUOUS
 10
364.1513903428
 20
30.9134025506
 11
364.2092032839
 21
30.9779299347
  0
LINE
  8
0
 62
7
  6
CONTINUOUS
 10
362.9951404531
 20
30.8811388585
 11
363.1107656736
 21
30.8488751693
  0
LINE
  8
0
 62
7
  6
CONTINUOUS
 10
359.9888905082
 20
31.7522584767
 11
359.7576405634
 21
31.8167858495
  0
LINE
  8
0
 62
7
  6
CONTINUOUS
 10
363.3420154531
 20
30.945666237
 11
363.1107656736
 21
31.0101936212
  0
LINE
  8
0
 62
7
  6
CONTINUOUS
 10
362.0701406736
 20
31.7522584767
 11
361.8967031736
 21
31.8167858495
  0
LINE
  8
0
 62
7
  6
CONTINUOUS
 10
364.3248278428
 20
31.7522584767
 11
364.1513903428
 21
31.8167858495
  0
LINE
  8
0
 62
7
  6
CONTINUOUS
 10
366.9842032839
 20
31.6554674174
 11
367.0998278428
 21
31.5909400446
  0
LINE
  8
0
 62
7
  6
CONTINUOUS
 10
367.3310782839
 20
31.6877311038
 11
367.2154530634
 21
31.7522584767
  0
LINE
  8
0
 62
7
  6
CONTINUOUS
 10
358.8326405772
 20
30.8811388585
 11
359.0060780772
 21
30.8488751693
  0
LINE
  8
0
 62
7
  6
CONTINUOUS
 10
359.2951405909
 20
30.945666237
 11
358.9482655496
 21
31.0101936212
  0
LINE
  8
0
 62
7
  6
CONTINUOUS
 10
361.7232656736
 20
31.6877311038
 11
361.8388905634
 21
31.6554674174
  0
LINE
  8
0
 62
7
  6
CONTINUOUS
 10
364.0357657839
 20
31.6877311038
 11
364.1513903428
 21
31.6554674174
  0
LINE
  8
0
 62
7
  6
CONTINUOUS
 10
368.3717032839
 20
30.9779299347
 11
368.2560780634
 21
31.0101936212
  0
LINE
  8
0
 62
7
  6
CONTINUOUS
 10
366.8685780634
 20
31.6877311038
 11
366.9842032839
 21
31.6554674174
  0
LINE
  8
0
 62
7
  6
CONTINUOUS
 10
368.0248282839
 20
30.945666237
 11
368.1982657839
 21
30.8811388585
  0
LINE
  8
0
 62
7
  6
CONTINUOUS
 10
367.2154530634
 20
31.7522584767
 11
367.0420155634
 21
31.8167858495
  0
LINE
  8
0
 62
7
  6
CONTINUOUS
 10
368.4295155634
 20
31.4618852989
 11
368.2560780634
 21
31.5264126717
  0
LINE
  8
0
 62
7
  6
CONTINUOUS
 10
369.2388907839
 20
31.2037757623
 11
369.4123282839
 21
31.1392483894
  0
LINE
  8
0
 62
7
  6
CONTINUOUS
 10
369.6435780634
 20
31.7199947902
 11
369.4701405634
 21
31.7845221631
  0
LINE
  8
0
 62
7
  6
CONTINUOUS
 10
368.0248282839
 20
31.4618852989
 11
368.2560780634
 21
31.3650941944
  0
LINE
  8
0
 62
7
  6
CONTINUOUS
 10
369.6435780634
 20
31.2037757623
 11
369.4123282839
 21
31.3005668216
  0
LINE
  8
0
 62
7
  6
CONTINUOUS
 10
368.1982657839
 20
31.5909400446
 11
368.2560780634
 21
31.6554674174
  0
LINE
  8
0
 62
7
  6
CONTINUOUS
 10
358.6592030565
 20
31.7199947902
 11
358.5435780634
 21
31.6554674174
  0
LINE
  8
0
 62
7
  6
CONTINUOUS
 10
358.7748280496
 20
31.5586763581
 11
358.9482655496
 21
31.6554674174
  0
LINE
  8
0
 62
7
  6
CONTINUOUS
 10
361.0873281185
 20
31.7522584767
 11
360.9717030634
 21
31.6877311038
  0
LINE
  8
0
 62
7
  6
CONTINUOUS
 10
360.9717030634
 20
31.5586763581
 11
361.0873281185
 21
31.623203731
  0
LINE
  8
0
 62
7
  6
CONTINUOUS
 10
359.9888905082
 20
30.9134025506
 11
360.1623280082
 21
31.0101936212
  0
LINE
  8
0
 62
7
  6
CONTINUOUS
 10
359.0060780772
 20
30.8488751693
 11
359.3529530358
 21
30.81661148
  0
LINE
  8
0
 62
7
  6
CONTINUOUS
 10
363.1107656736
 20
30.8488751693
 11
363.3420154531
 21
30.81661148
  0
LINE
  8
0
 62
7
  6
CONTINUOUS
 10
361.4920155634
 20
31.7199947902
 11
361.7232656736
 21
31.6877311038
  0
LINE
  8
0
 62
7
  6
CONTINUOUS
 10
363.8045156736
 20
31.7199947902
 11
364.0357657839
 21
31.6877311038
  0
LINE
  8
0
 62
7
  6
CONTINUOUS
 10
368.2560780634
 20
31.3650941944
 11
369.2388907839
 21
31.2037757623
  0
LINE
  8
0
 62
7
  6
CONTINUOUS
 10
369.4123282839
 20
31.3005668216
 11
368.4295155634
 21
31.4618852989
  0
LINE
  8
0
 62
7
  6
CONTINUOUS
 10
361.8967031736
 20
31.8167858495
 11
361.7232656736
 21
31.8490495359
  0
LINE
  8
0
 62
7
  6
CONTINUOUS
 10
368.1982657839
 20
30.8811388585
 11
368.3717032839
 21
30.8488751693
  0
LINE
  8
0
 62
7
  6
CONTINUOUS
 10
367.0420155634
 20
31.8167858495
 11
366.8685780634
 21
31.8490495359
  0
LINE
  8
0
 62
7
  6
CONTINUOUS
 10
369.2967030634
 20
31.6877311038
 11
369.4123282839
 21
31.6554674174
  0
LINE
  8
0
 62
7
  6
CONTINUOUS
 10
369.4701405634
 20
31.074720994
 11
369.4123282839
 21
31.0101936212
  0
LINE
  8
0
 62
7
  6
CONTINUOUS
 10
368.0248282839
 20
31.7522584767
 11
367.9092030634
 21
31.6554674174
  0
LINE
  8
0
 62
7
  6
CONTINUOUS
 10
362.9373281736
 20
31.7845221631
 11
362.8217029531
 21
31.7199947902
  0
LINE
  8
0
 62
7
  6
CONTINUOUS
 10
362.9951404531
 20
31.397357926
 11
362.8795155634
 21
31.332830508
  0
LINE
  8
0
 62
7
  6
CONTINUOUS
 10
363.1107656736
 20
31.2360394487
 11
363.2263905634
 21
31.3005668216
  0
LINE
  8
0
 62
7
  6
CONTINUOUS
 10
360.6826405082
 20
30.81661148
 11
360.9717030634
 21
30.81661148
  0
LINE
  8
0
 62
7
  6
CONTINUOUS
 10
362.0123280634
 20
30.81661148
 11
362.3013904531
 21
30.81661148
  0
LINE
  8
0
 62
7
  6
CONTINUOUS
 10
363.3420154531
 20
30.81661148
 11
363.6888904531
 21
30.81661148
  0
LINE
  8
0
 62
7
  6
CONTINUOUS
 10
364.3248278428
 20
30.81661148
 11
364.6138905634
 21
30.81661148
  0
LINE
  8
0
 62
7
  6
CONTINUOUS
 10
365.0763907839
 20
30.81661148
 11
365.3654528428
 21
30.81661148
  0
LINE
  8
0
 62
7
  6
CONTINUOUS
 10
365.8279530634
 20
30.81661148
 11
366.1170157839
 21
30.81661148
  0
LINE
  8
0
 62
7
  6
CONTINUOUS
 10
367.1576407839
 20
30.81661148
 11
367.4467028428
 21
30.81661148
  0
LINE
  8
0
 62
7
  6
CONTINUOUS
 10
368.7185782839
 20
30.81661148
 11
369.0654532839
 21
30.81661148
  0
LINE
  8
0
 62
7
  6
CONTINUOUS
 10
369.0654532839
 20
30.945666237
 11
368.7185782839
 21
30.945666237
  0
LINE
  8
0
 62
7
  6
CONTINUOUS
 10
363.6888904531
 20
30.945666237
 11
363.3420154531
 21
30.945666237
  0
LINE
  8
0
 62
7
  6
CONTINUOUS
 10
368.1982657839
 20
31.074720994
 11
367.9092030634
 21
31.074720994
  0
LINE
  8
0
 62
7
  6
CONTINUOUS
 10
360.2201406185
 20
31.1392483894
 11
359.9310780634
 21
31.1392483894
  0
LINE
  8
0
 62
7
  6
CONTINUOUS
 10
359.2951405909
 20
31.7199947902
 11
359.6998280358
 21
31.6877311038
  0
LINE
  8
0
 62
7
  6
CONTINUOUS
 10
359.7576405634
 20
31.8167858495
 11
359.3529530358
 21
31.8490495359
  0
LINE
  8
0
 62
7
  6
CONTINUOUS
 10
368.3717032839
 20
30.8488751693
 11
368.7185782839
 21
30.81661148
  0
LINE
  8
0
 62
7
  6
CONTINUOUS
 10
368.7185782839
 20
30.945666237
 11
368.3717032839
 21
30.9779299347
  0
LINE
  8
0
 62
7
  6
CONTINUOUS
 10
364.1513903428
 20
31.8167858495
 11
363.8045156736
 21
31.8490495359
  0
LINE
  8
0
 62
7
  6
CONTINUOUS
 10
368.9498280634
 20
31.7199947902
 11
369.2967030634
 21
31.6877311038
  0
LINE
  8
0
 62
7
  6
CONTINUOUS
 10
369.2967030634
 20
31.8167858495
 11
368.9498280634
 21
31.8490495359
  0
LINE
  8
0
 62
7
  6
CONTINUOUS
 10
366.6373282839
 20
31.7199947902
 11
366.8685780634
 21
31.6877311038
  0
LINE
  8
0
 62
7
  6
CONTINUOUS
 10
369.4701405634
 20
31.7845221631
 11
369.2967030634
 21
31.8167858495
  0
LINE
  8
0
 62
7
  6
CONTINUOUS
 10
369.6435780634
 20
30.9134025506
 11
369.7592026223
 21
31.0101936212
  0
LINE
  8
0
 62
7
  6
CONTINUOUS
 10
364.1513903428
 20
31.106984703
 11
363.9779528428
 21
31.0101936212
  0
LINE
  8
0
 62
7
  6
CONTINUOUS
 10
366.2326403428
 20
31.7522584767
 11
366.1170157839
 21
31.6877311038
  0
LINE
  8
0
 62
7
  6
CONTINUOUS
 10
366.1170157839
 20
31.5586763581
 11
366.2326403428
 21
31.623203731
  0
LINE
  8
0
 62
7
  6
CONTINUOUS
 10
358.8326405772
 20
31.7845221631
 11
358.6592030565
 21
31.7199947902
  0
LINE
  8
0
 62
7
  6
CONTINUOUS
 10
361.2607654531
 20
31.8167858495
 11
361.0873281185
 21
31.7522584767
  0
LINE
  8
0
 62
7
  6
CONTINUOUS
 10
361.0873281185
 20
31.623203731
 11
361.2607654531
 21
31.6877311038
  0
LINE
  8
0
 62
7
  6
CONTINUOUS
 10
359.8732656185
 20
31.0424573076
 11
359.6998280358
 21
30.9779299347
  0
LINE
  8
0
 62
7
  6
CONTINUOUS
 10
369.2967030634
 20
30.9779299347
 11
369.0654532839
 21
30.945666237
  0
LINE
  8
0
 62
7
  6
CONTINUOUS
 10
363.6888904531
 20
30.81661148
 11
363.9779528428
 21
30.8488751693
  0
LINE
  8
0
 62
7
  6
CONTINUOUS
 10
369.0654532839
 20
30.81661148
 11
369.4123282839
 21
30.8488751693
  0
LINE
  8
0
 62
7
  6
CONTINUOUS
 10
359.3529530358
 20
30.81661148
 11
359.7576405634
 21
30.8488751693
  0
LINE
  8
0
 62
7
  6
CONTINUOUS
 10
359.6998280358
 20
30.9779299347
 11
359.2951405909
 21
30.945666237
  0
LINE
  8
0
 62
7
  6
CONTINUOUS
 10
363.5732655634
 20
31.3650941944
 11
364.2092032839
 21
31.3650941944
  0
LINE
  8
0
 62
7
  6
CONTINUOUS
 10
364.2092032839
 20
31.4941489853
 11
363.5732655634
 21
31.4941489853
  0
LINE
  8
0
 62
7
  6
CONTINUOUS
 10
359.9310780634
 20
31.5264126717
 11
360.2201406185
 21
31.5264126717
  0
LINE
  8
0
 62
7
  6
CONTINUOUS
 10
362.7638906736
 20
31.5909400446
 11
363.0529530634
 21
31.5909400446
  0
LINE
  8
0
 62
7
  6
CONTINUOUS
 10
369.4701405634
 20
31.5909400446
 11
369.7592026223
 21
31.5909400446
  0
LINE
  8
0
 62
7
  6
CONTINUOUS
 10
363.4576406736
 20
31.7199947902
 11
363.8045156736
 21
31.7199947902
  0
LINE
  8
0
 62
7
  6
CONTINUOUS
 10
368.6029530634
 20
31.7199947902
 11
368.9498280634
 21
31.7199947902
  0
LINE
  8
0
 62
7
  6
CONTINUOUS
 10
368.9498280634
 20
31.8490495359
 11
368.6029530634
 21
31.8490495359
  0
LINE
  8
0
 62
7
  6
CONTINUOUS
 10
366.8685780634
 20
31.8490495359
 11
366.6373282839
 21
31.8490495359
  0
LINE
  8
0
 62
7
  6
CONTINUOUS
 10
366.1170157839
 20
31.8490495359
 11
365.8279530634
 21
31.8490495359
  0
LINE
  8
0
 62
7
  6
CONTINUOUS
 10
365.3654528428
 20
31.8490495359
 11
365.0763907839
 21
31.8490495359
  0
LINE
  8
0
 62
7
  6
CONTINUOUS
 10
363.8045156736
 20
31.8490495359
 11
363.4576406736
 21
31.8490495359
  0
LINE
  8
0
 62
7
  6
CONTINUOUS
 10
361.7232656736
 20
31.8490495359
 11
361.4920155634
 21
31.8490495359
  0
LINE
  8
0
 62
7
  6
CONTINUOUS
 10
365.0763907839
 20
32.1716864905
 11
365.3654528428
 21
32.1716864905
  0
LINE
  8
0
 62
7
  6
CONTINUOUS
 10
365.3654528428
 20
32.3330049227
 11
365.0763907839
 21
32.3330049227
  0
LINE
  8
0
 62
7
  6
CONTINUOUS
 10
360.9717030634
 20
32.3330049227
 11
360.6826405082
 21
32.3330049227
  0
LINE
  8
0
 62
7
  6
CONTINUOUS
 10
360.0094848257
 20
32.6198901686
 11
360.4220561743
 21
32.6198901686
  0
LINE
  8
0
 62
7
  6
CONTINUOUS
 10
361.648829088
 20
32.6198901686
 11
363.0422717109
 21
32.6198901686
  0
LINE
  8
0
 62
7
  6
CONTINUOUS
 10
363.3701405634
 20
32.6198901686
 11
364.7635831863
 21
32.6198901686
  0
LINE
  8
0
 62
7
  6
CONTINUOUS
 10
366.648829088
 20
32.6198901686
 11
368.0422717109
 21
32.6198901686
  0
LINE
  8
0
 62
7
  6
CONTINUOUS
 10
368.3701405634
 20
32.6198901686
 11
369.7635831863
 21
32.6198901686
  0
LINE
  8
0
 62
7
  6
CONTINUOUS
 10
366.4060778428
 20
31.8167858495
 11
366.2326403428
 21
31.7522584767
  0
LINE
  8
0
 62
7
  6
CONTINUOUS
 10
363.9779528428
 20
30.8488751693
 11
364.1513903428
 21
30.9134025506
  0
LINE
  8
0
 62
7
  6
CONTINUOUS
 10
369.4123282839
 20
30.8488751693
 11
369.6435780634
 21
30.9134025506
  0
LINE
  8
0
 62
7
  6
CONTINUOUS
 10
369.4123282839
 20
31.0101936212
 11
369.2967030634
 21
30.9779299347
  0
LINE
  8
0
 62
7
  6
CONTINUOUS
 10
368.3717032839
 20
31.6877311038
 11
368.6029530634
 21
31.7199947902
  0
LINE
  8
0
 62
7
  6
CONTINUOUS
 10
366.4060778428
 20
31.6877311038
 11
366.6373282839
 21
31.7199947902
  0
LINE
  8
0
 62
7
  6
CONTINUOUS
 10
363.3420154531
 20
31.332830508
 11
363.5732655634
 21
31.3650941944
  0
LINE
  8
0
 62
7
  6
CONTINUOUS
 10
366.6373282839
 20
31.8490495359
 11
366.4060778428
 21
31.8167858495
  0
LINE
  8
0
 62
7
  6
CONTINUOUS
 10
363.2263905634
 20
31.6877311038
 11
363.4576406736
 21
31.7199947902
  0
LINE
  8
0
 62
7
  6
CONTINUOUS
 10
368.6029530634
 20
31.8490495359
 11
368.2560780634
 21
31.8167858495
  0
LINE
  8
0
 62
7
  6
CONTINUOUS
 10
363.5732655634
 20
31.4941489853
 11
363.2263905634
 21
31.4618852989
  0
LINE
  8
0
 62
7
  6
CONTINUOUS
 10
359.3529530358
 20
31.8490495359
 11
359.0060780772
 21
31.8167858495
  0
LINE
  8
0
 62
7
  6
CONTINUOUS
 10
363.4576406736
 20
31.8490495359
 11
363.0529530634
 21
31.8167858495
  0
LINE
  8
0
 62
7
  6
CONTINUOUS
 10
360.8291569568
 20
33.7674311522
 11
360.1734192519
 21
33.7674311522
  0
LINE
  8
0
 62
7
  6
CONTINUOUS
 10
366.2326403428
 20
31.623203731
 11
366.4060778428
 21
31.6877311038
  0
LINE
  8
0
 62
7
  6
CONTINUOUS
 10
368.2560780634
 20
31.6554674174
 11
368.3717032839
 21
31.6877311038
  0
LINE
  8
0
 62
7
  6
CONTINUOUS
 10
368.2560780634
 20
31.8167858495
 11
368.0248282839
 21
31.7522584767
  0
LINE
  8
0
 62
7
  6
CONTINUOUS
 10
363.9779528428
 20
31.0101936212
 11
363.6888904531
 21
30.945666237
  0
LINE
  8
0
 62
7
  6
CONTINUOUS
 10
361.2607654531
 20
31.6877311038
 11
361.4920155634
 21
31.7199947902
  0
LINE
  8
0
 62
7
  6
CONTINUOUS
 10
361.4920155634
 20
31.8490495359
 11
361.2607654531
 21
31.8167858495
  0
LINE
  8
0
 62
7
  6
CONTINUOUS
 10
359.0638905634
 20
31.6877311038
 11
359.2951405909
 21
31.7199947902
  0
LINE
  8
0
 62
7
  6
CONTINUOUS
 10
365.5832553175
 20
35.2428409882
 11
366.2389930224
 21
35.2428409882
  0
LINE
  8
0
 62
7
  6
CONTINUOUS
 10
363.2263905634
 20
31.3005668216
 11
363.3420154531
 21
31.332830508
  0
LINE
  8
0
 62
7
  6
CONTINUOUS
 10
363.2263905634
 20
31.4618852989
 11
362.9951404531
 21
31.397357926
  0
LINE
  8
0
 62
7
  6
CONTINUOUS
 10
363.1107656736
 20
31.6554674174
 11
363.2263905634
 21
31.6877311038
  0
LINE
  8
0
 62
7
  6
CONTINUOUS
 10
359.7576405634
 20
30.8488751693
 11
359.9888905082
 21
30.9134025506
  0
LINE
  8
0
 62
7
  6
CONTINUOUS
 10
363.0529530634
 20
31.8167858495
 11
362.9373281736
 21
31.7845221631
  0
LINE
  8
0
 62
7
  6
CONTINUOUS
 10
359.0060780772
 20
31.8167858495
 11
358.8326405772
 21
31.7845221631
  0
LINE
  8
0
 62
7
  6
CONTINUOUS
 10
369.7635831863
 20
36.3903819718
 11
368.3701405634
 21
36.3903819718
  0
LINE
  8
0
 62
7
  6
CONTINUOUS
 10
366.4029274486
 20
36.3903819718
 11
365.9903561
 21
36.3903819718
  0
LINE
  8
0
 62
7
  6
CONTINUOUS
 10
364.7635831863
 20
36.3903819718
 11
363.3701405634
 21
36.3903819718
  0
LINE
  8
0
 62
7
  6
CONTINUOUS
 10
363.0422717109
 20
36.3903819718
 11
361.648829088
 21
36.3903819718
  0
LINE
  8
0
 62
7
  6
CONTINUOUS
 10
359.7635831863
 20
36.3903819718
 11
358.3701405634
 21
36.3903819718
  0
LINE
  8
0
 62
7
  6
CONTINUOUS
 10
358.9482655496
 20
31.6554674174
 11
359.0638905634
 21
31.6877311038
  0
CIRCLE
  8
0
 62
7
  6
CONTINUOUS
 10
369.0668618749
 20
38.7264475456
 40
2.0901639344
  0
ARC
  8
0
 62
7
  6
CONTINUOUS
 10
360.0094848257
 20
34.2592344308
 40
1.6393442623
 50
180.0
 51
270.0
  0
ARC
  8
0
 62
7
  6
CONTINUOUS
 10
366.4029274486
 20
34.7510377095
 40
1.6393442623
 50
0.0
 51
90.0
  0
ARC
  8
0
 62
7
  6
CONTINUOUS
 10
360.4220561743
 20
34.0953000046
 40
1.4754098361
 50
270.0
 51
326.2510114041
  0
ARC
  8
0
 62
7
  6
CONTINUOUS
 10
365.9903561
 20
34.9149721358
 40
1.4754098361
 50
90.0
 51
146.2510114041
  0
ARC
  8
0
 62
7
  6
CONTINUOUS
 10
360.8291569568
 20
34.5871032833
 40
0.8196721311
 50
270.0
 51
360.0
  0
ARC
  8
0
 62
7
  6
CONTINUOUS
 10
365.5832553175
 20
34.4231688571
 40
0.8196721311
 50
90.0
 51
180.0
  0
ARC
  8
0
 62
7
  6
CONTINUOUS
 10
360.1734192519
 20
34.1772672177
 40
0.4098360656
 50
180.0
 51
270.0
  0
ARC
  8
0
 62
7
  6
CONTINUOUS
 10
366.2389930224
 20
34.8330049227
 40
0.4098360656
 50
0.0
 51
90.0
  0
SOLID
  8
0
 62
7
  6
CONTINUOUS
 10
365.0763907839
 20
32.1716868508
 11
365.0763907839
 21
32.3330053344
 12
365.3654528428
 22
32.1716868508
 13
365.3654528428
 23
32.3330053344
  0
SOLID
  8
0
 62
7
  6
CONTINUOUS
 10
359.3529530358
 20
31.8490498836
 11
359.7576405634
 21
31.8167854792
 12
359.0060780772
 22
31.8167854792
 13
359.0060780772
 23
31.8167854792
  0
SOLID
  8
0
 62
7
  6
CONTINUOUS
 10
358.8326405772
 20
31.7845227934
 11
359.0060780772
 21
31.8167854792
 12
359.7576405634
 22
31.8167854792
 13
359.7576405634
 23
31.8167854792
  0
SOLID
  8
0
 62
7
  6
CONTINUOUS
 10
359.7576405634
 20
31.8167854792
 11
359.9888905082
 21
31.7522584901
 12
358.8326405772
 22
31.7845227934
 13
358.8326405772
 23
31.7845227934
  0
SOLID
  8
0
 62
7
  6
CONTINUOUS
 10
358.6592030565
 20
31.7199940664
 11
358.8326405772
 21
31.7845227934
 12
359.9888905082
 22
31.7522584901
 13
359.9888905082
 23
31.7522584901
  0
SOLID
  8
0
 62
7
  6
CONTINUOUS
 10
358.6592030565
 20
31.7199940664
 11
359.9888905082
 21
31.7522584901
 12
359.2951405909
 22
31.7199940664
 13
359.2951405909
 23
31.7199940664
  0
SOLID
  8
0
 62
7
  6
CONTINUOUS
 10
359.2951405909
 20
31.7199940664
 11
359.9888905082
 21
31.7522584901
 12
359.6998280358
 22
31.6877314
 13
359.6998280358
 23
31.6877314
  0
SOLID
  8
0
 62
7
  6
CONTINUOUS
 10
359.9888905082
 20
31.7522584901
 11
360.1623280082
 21
31.6554670967
 12
359.6998280358
 22
31.6877314
 13
359.6998280358
 23
31.6877314
  0
SOLID
  8
0
 62
7
  6
CONTINUOUS
 10
359.8732656185
 20
31.6232043098
 11
359.6998280358
 21
31.6877314
 12
360.1623280082
 22
31.6554670967
 13
360.1623280082
 23
31.6554670967
  0
SOLID
  8
0
 62
7
  6
CONTINUOUS
 10
359.8732656185
 20
31.6232043098
 11
360.1623280082
 21
31.6554670967
 12
359.9310780634
 22
31.5264128539
 13
359.9310780634
 23
31.5264128539
  0
SOLID
  8
0
 62
7
  6
CONTINUOUS
 10
360.1623280082
 20
31.6554670967
 11
360.2201406185
 21
31.5264128539
 12
359.9310780634
 22
31.5264128539
 13
359.9310780634
 23
31.5264128539
  0
SOLID
  8
0
 62
7
  6
CONTINUOUS
 10
361.2607654531
 20
31.8167852459
 11
361.4920155634
 21
31.8490495492
 12
361.7232656736
 22
31.8490495492
 13
361.7232656736
 23
31.8490495492
  0
SOLID
  8
0
 62
7
  6
CONTINUOUS
 10
361.7232656736
 20
31.8490495492
 11
361.8967031736
 21
31.8167852459
 12
361.2607654531
 22
31.8167852459
 13
361.2607654531
 23
31.8167852459
  0
SOLID
  8
0
 62
7
  6
CONTINUOUS
 10
361.0873281185
 20
31.7522581557
 11
361.2607654531
 21
31.8167852459
 12
361.8967031736
 22
31.8167852459
 13
361.8967031736
 23
31.8167852459
  0
SOLID
  8
0
 62
7
  6
CONTINUOUS
 10
361.8967031736
 20
31.8167852459
 11
362.0701406736
 21
31.7522581557
 12
361.0873281185
 22
31.7522581557
 13
361.0873281185
 23
31.7522581557
  0
SOLID
  8
0
 62
7
  6
CONTINUOUS
 10
362.0701406736
 20
31.7522581557
 11
361.4920155634
 21
31.7199941869
 12
361.0873281185
 22
31.7522581557
 13
361.0873281185
 23
31.7522581557
  0
SOLID
  8
0
 62
7
  6
CONTINUOUS
 10
360.9717030634
 20
31.6877310656
 11
361.0873281185
 21
31.7522581557
 12
361.4920155634
 22
31.7199941869
 13
361.4920155634
 23
31.7199941869
  0
SOLID
  8
0
 62
7
  6
CONTINUOUS
 10
361.4920155634
 20
31.7199941869
 11
361.2607654531
 21
31.6877310656
 12
360.9717030634
 22
31.6877310656
 13
360.9717030634
 23
31.6877310656
  0
SOLID
  8
0
 62
7
  6
CONTINUOUS
 10
361.4920155634
 20
31.7199941869
 11
362.0701406736
 21
31.7522581557
 12
361.7232656736
 22
31.6877310656
 13
361.7232656736
 23
31.6877310656
  0
SOLID
  8
0
 62
7
  6
CONTINUOUS
 10
362.0701406736
 20
31.7522581557
 11
362.1857655634
 21
31.6877310656
 12
361.7232656736
 22
31.6877310656
 13
361.7232656736
 23
31.6877310656
  0
SOLID
  8
0
 62
7
  6
CONTINUOUS
 10
361.8388905634
 20
31.6554670967
 11
361.7232656736
 21
31.6877310656
 12
362.1857655634
 22
31.6877310656
 13
362.1857655634
 23
31.6877310656
  0
SOLID
  8
0
 62
7
  6
CONTINUOUS
 10
362.1857655634
 20
31.6877310656
 11
362.2435781736
 21
31.6232039754
 12
361.8388905634
 22
31.6554670967
 13
361.8388905634
 23
31.6554670967
  0
SOLID
  8
0
 62
7
  6
CONTINUOUS
 10
361.9545154531
 20
31.5909400065
 11
361.8388905634
 21
31.6554670967
 12
362.2435781736
 22
31.6232039754
 13
362.2435781736
 23
31.6232039754
  0
SOLID
  8
0
 62
7
  6
CONTINUOUS
 10
361.9545154531
 20
31.5909400065
 11
362.2435781736
 21
31.6232039754
 12
362.0123280634
 22
31.4618854918
 13
362.0123280634
 23
31.4618854918
  0
SOLID
  8
0
 62
7
  6
CONTINUOUS
 10
362.2435781736
 20
31.6232039754
 11
362.3013904531
 21
31.4618854918
 12
362.0123280634
 22
31.4618854918
 13
362.0123280634
 23
31.4618854918
  0
SOLID
  8
0
 62
7
  6
CONTINUOUS
 10
361.2607654531
 20
31.6877310656
 11
361.0873281185
 21
31.6232039754
 12
360.9717030634
 22
31.6877310656
 13
360.9717030634
 23
31.6877310656
  0
SOLID
  8
0
 62
7
  6
CONTINUOUS
 10
361.0873281185
 20
31.6232039754
 11
360.9717030634
 21
31.5586757033
 12
360.9717030634
 22
31.6877310656
 13
360.9717030634
 23
31.6877310656
  0
SOLID
  8
0
 62
7
  6
CONTINUOUS
 10
360.9717030634
 20
31.5586757033
 11
360.6826405082
 21
30.8166115574
 12
360.9717030634
 22
31.6877310656
 13
360.9717030634
 23
31.6877310656
  0
SOLID
  8
0
 62
7
  6
CONTINUOUS
 10
360.9717030634
 20
31.6877310656
 11
360.6826405082
 21
30.8166115574
 12
360.9717030634
 22
32.333005
 13
360.9717030634
 23
32.333005
  0
SOLID
  8
0
 62
7
  6
CONTINUOUS
 10
360.6826405082
 20
30.8166115574
 11
360.6826405082
 21
32.333005
 12
360.9717030634
 22
32.333005
 13
360.9717030634
 23
32.333005
  0
SOLID
  8
0
 62
7
  6
CONTINUOUS
 10
360.9717030634
 20
31.5586757033
 11
360.9717030634
 21
30.8166115574
 12
360.6826405082
 22
30.8166115574
 13
360.6826405082
 23
30.8166115574
  0
SOLID
  8
0
 62
7
  6
CONTINUOUS
 10
362.0123280634
 20
30.8166115574
 11
362.0123280634
 21
31.4618854918
 12
362.3013904531
 22
31.4618854918
 13
362.3013904531
 23
31.4618854918
  0
SOLID
  8
0
 62
7
  6
CONTINUOUS
 10
362.3013904531
 20
31.4618854918
 11
362.3013904531
 21
30.8166115574
 12
362.0123280634
 22
30.8166115574
 13
362.0123280634
 23
30.8166115574
  0
SOLID
  8
0
 62
7
  6
CONTINUOUS
 10
363.0529530634
 20
31.8167856315
 11
363.4576406736
 21
31.8490496243
 12
363.8045156736
 22
31.8490496243
 13
363.8045156736
 23
31.8490496243
  0
SOLID
  8
0
 62
7
  6
CONTINUOUS
 10
363.8045156736
 20
31.8490496243
 11
364.1513903428
 21
31.8167856315
 12
363.0529530634
 22
31.8167856315
 13
363.0529530634
 23
31.8167856315
  0
SOLID
  8
0
 62
7
  6
CONTINUOUS
 10
362.9373281736
 20
31.7845227934
 11
363.0529530634
 21
31.8167856315
 12
364.1513903428
 22
31.8167856315
 13
364.1513903428
 23
31.8167856315
  0
SOLID
  8
0
 62
7
  6
CONTINUOUS
 10
364.1513903428
 20
31.8167856315
 11
364.3248278428
 21
31.7522584901
 12
362.9373281736
 22
31.7845227934
 13
362.9373281736
 23
31.7845227934
  0
SOLID
  8
0
 62
7
  6
CONTINUOUS
 10
362.8217029531
 20
31.7199944276
 11
362.9373281736
 21
31.7845227934
 12
364.3248278428
 22
31.7522584901
 13
364.3248278428
 23
31.7522584901
  0
SOLID
  8
0
 62
7
  6
CONTINUOUS
 10
362.8217029531
 20
31.7199944276
 11
364.3248278428
 21
31.7522584901
 12
363.4576406736
 22
31.7199944276
 13
363.4576406736
 23
31.7199944276
  0
SOLID
  8
0
 62
7
  6
CONTINUOUS
 10
363.4576406736
 20
31.7199944276
 11
364.3248278428
 21
31.7522584901
 12
363.8045156736
 22
31.7199944276
 13
363.8045156736
 23
31.7199944276
  0
SOLID
  8
0
 62
7
  6
CONTINUOUS
 10
363.8045156736
 20
31.7199944276
 11
364.3248278428
 21
31.7522584901
 12
364.0357657839
 22
31.6877312092
 13
364.0357657839
 23
31.6877312092
  0
SOLID
  8
0
 62
7
  6
CONTINUOUS
 10
364.3248278428
 20
31.7522584901
 11
364.4404530634
 21
31.6877312092
 12
364.0357657839
 22
31.6877312092
 13
364.0357657839
 23
31.6877312092
  0
SOLID
  8
0
 62
7
  6
CONTINUOUS
 10
362.7638906736
 20
31.6554672165
 11
362.8217029531
 21
31.7199944276
 12
363.4576406736
 22
31.7199944276
 13
363.4576406736
 23
31.7199944276
  0
SOLID
  8
0
 62
7
  6
CONTINUOUS
 10
364.1513903428
 20
31.6554672165
 11
364.0357657839
 21
31.6877312092
 12
364.4404530634
 22
31.6877312092
 13
364.4404530634
 23
31.6877312092
  0
SOLID
  8
0
 62
7
  6
CONTINUOUS
 10
364.1513903428
 20
31.6554672165
 11
364.4404530634
 21
31.6877312092
 12
364.2092032839
 22
31.5909400053
 13
364.2092032839
 23
31.5909400053
  0
SOLID
  8
0
 62
7
  6
CONTINUOUS
 10
364.4404530634
 20
31.6877312092
 11
364.4982653428
 21
31.5909400053
 12
364.2092032839
 22
31.5909400053
 13
364.2092032839
 23
31.5909400053
  0
SOLID
  8
0
 62
7
  6
CONTINUOUS
 10
364.2092032839
 20
31.4941486131
 11
364.2092032839
 21
31.5909400053
 12
364.4982653428
 22
31.5909400053
 13
364.4982653428
 23
31.5909400053
  0
SOLID
  8
0
 62
7
  6
CONTINUOUS
 10
364.2092032839
 20
31.4941486131
 11
364.4982653428
 21
31.5909400053
 12
364.2092032839
 22
31.3650944328
 13
364.2092032839
 23
31.3650944328
  0
SOLID
  8
0
 62
7
  6
CONTINUOUS
 10
364.2092032839
 20
31.3650944328
 11
364.4982653428
 21
31.5909400053
 12
364.2092032839
 22
31.1715120759
 13
364.2092032839
 23
31.1715120759
  0
SOLID
  8
0
 62
7
  6
CONTINUOUS
 10
364.4982653428
 20
31.5909400053
 11
364.4982653428
 21
31.0747202524
 12
364.2092032839
 22
31.1715120759
 13
364.2092032839
 23
31.1715120759
  0
SOLID
  8
0
 62
7
  6
CONTINUOUS
 10
366.4060778428
 20
31.8167851023
 11
366.6373282839
 21
31.849049822
 12
366.8685780634
 22
31.849049822
 13
366.8685780634
 23
31.849049822
  0
SOLID
  8
0
 62
7
  6
CONTINUOUS
 10
366.8685780634
 20
31.849049822
 11
367.0420155634
 21
31.8167851023
 12
366.4060778428
 22
31.8167851023
 13
366.4060778428
 23
31.8167851023
  0
SOLID
  8
0
 62
7
  6
CONTINUOUS
 10
366.2326403428
 20
31.7522587602
 11
366.4060778428
 21
31.8167851023
 12
367.0420155634
 22
31.8167851023
 13
367.0420155634
 23
31.8167851023
  0
SOLID
  8
0
 62
7
  6
CONTINUOUS
 10
367.0420155634
 20
31.8167851023
 11
367.2154530634
 21
31.7522587602
 12
366.2326403428
 22
31.7522587602
 13
366.2326403428
 23
31.7522587602
  0
SOLID
  8
0
 62
7
  6
CONTINUOUS
 10
367.2154530634
 20
31.7522587602
 11
366.6373282839
 21
31.7199941869
 12
366.2326403428
 22
31.7522587602
 13
366.2326403428
 23
31.7522587602
  0
SOLID
  8
0
 62
7
  6
CONTINUOUS
 10
366.1170157839
 20
31.6877313857
 11
366.2326403428
 21
31.7522587602
 12
366.6373282839
 22
31.7199941869
 13
366.6373282839
 23
31.7199941869
  0
SOLID
  8
0
 62
7
  6
CONTINUOUS
 10
366.6373282839
 20
31.7199941869
 11
366.4060778428
 21
31.6877313857
 12
366.1170157839
 22
31.6877313857
 13
366.1170157839
 23
31.6877313857
  0
SOLID
  8
0
 62
7
  6
CONTINUOUS
 10
366.6373282839
 20
31.7199941869
 11
367.2154530634
 21
31.7522587602
 12
366.8685780634
 22
31.6877313857
 13
366.8685780634
 23
31.6877313857
  0
SOLID
  8
0
 62
7
  6
CONTINUOUS
 10
367.2154530634
 20
31.7522587602
 11
367.3310782839
 21
31.6877313857
 12
366.8685780634
 22
31.6877313857
 13
366.8685780634
 23
31.6877313857
  0
SOLID
  8
0
 62
7
  6
CONTINUOUS
 10
366.9842032839
 20
31.6554670967
 11
366.8685780634
 21
31.6877313857
 12
367.3310782839
 22
31.6877313857
 13
367.3310782839
 23
31.6877313857
  0
SOLID
  8
0
 62
7
  6
CONTINUOUS
 10
366.9842032839
 20
31.6554670967
 11
367.3310782839
 21
31.6877313857
 12
367.0998278428
 22
31.590940324
 13
367.0998278428
 23
31.590940324
  0
SOLID
  8
0
 62
7
  6
CONTINUOUS
 10
367.3310782839
 20
31.6877313857
 11
367.3888905634
 21
31.590940324
 12
367.0998278428
 22
31.590940324
 13
367.0998278428
 23
31.590940324
  0
SOLID
  8
0
 62
7
  6
CONTINUOUS
 10
367.1576407839
 20
31.4296218878
 11
367.0998278428
 21
31.590940324
 12
367.3888905634
 22
31.590940324
 13
367.3888905634
 23
31.590940324
  0
SOLID
  8
0
 62
7
  6
CONTINUOUS
 10
367.3888905634
 20
31.590940324
 11
367.4467028428
 21
31.4296218878
 12
367.1576407839
 22
31.4296218878
 13
367.1576407839
 23
31.4296218878
  0
SOLID
  8
0
 62
7
  6
CONTINUOUS
 10
366.4060778428
 20
31.6877313857
 11
366.2326403428
 21
31.6232043098
 12
366.1170157839
 22
31.6877313857
 13
366.1170157839
 23
31.6877313857
  0
SOLID
  8
0
 62
7
  6
CONTINUOUS
 10
366.2326403428
 20
31.6232043098
 11
366.1170157839
 21
31.5586757033
 12
366.1170157839
 22
31.6877313857
 13
366.1170157839
 23
31.6877313857
  0
SOLID
  8
0
 62
7
  6
CONTINUOUS
 10
366.1170157839
 20
31.5586757033
 11
365.8279530634
 21
30.8166118302
 12
366.1170157839
 22
31.6877313857
 13
366.1170157839
 23
31.6877313857
  0
SOLID
  8
0
 62
7
  6
CONTINUOUS
 10
366.1170157839
 20
31.6877313857
 11
365.8279530634
 21
30.8166118302
 12
366.1170157839
 22
31.849049822
 13
366.1170157839
 23
31.849049822
  0
SOLID
  8
0
 62
7
  6
CONTINUOUS
 10
365.8279530634
 20
30.8166118302
 11
365.8279530634
 21
31.849049822
 12
366.1170157839
 22
31.849049822
 13
366.1170157839
 23
31.849049822
  0
SOLID
  8
0
 62
7
  6
CONTINUOUS
 10
366.1170157839
 20
31.5586757033
 11
366.1170157839
 21
30.8166118302
 12
365.8279530634
 22
30.8166118302
 13
365.8279530634
 23
30.8166118302
  0
SOLID
  8
0
 62
7
  6
CONTINUOUS
 10
367.1576407839
 20
30.8166118302
 11
367.1576407839
 21
31.4296218878
 12
367.4467028428
 22
31.4296218878
 13
367.4467028428
 23
31.4296218878
  0
SOLID
  8
0
 62
7
  6
CONTINUOUS
 10
367.4467028428
 20
31.4296218878
 11
367.4467028428
 21
30.8166118302
 12
367.1576407839
 22
30.8166118302
 13
367.1576407839
 23
30.8166118302
  0
SOLID
  8
0
 62
7
  6
CONTINUOUS
 10
368.2560780634
 20
31.8167856056
 11
368.6029530634
 21
31.8490498552
 12
368.9498280634
 22
31.8490498552
 13
368.9498280634
 23
31.8490498552
  0
SOLID
  8
0
 62
7
  6
CONTINUOUS
 10
368.9498280634
 20
31.8490498552
 11
369.2967030634
 21
31.8167856056
 12
368.2560780634
 22
31.8167856056
 13
368.2560780634
 23
31.8167856056
  0
SOLID
  8
0
 62
7
  6
CONTINUOUS
 10
368.0248282839
 20
31.7522584901
 11
368.2560780634
 21
31.8167856056
 12
369.2967030634
 22
31.8167856056
 13
369.2967030634
 23
31.8167856056
  0
SOLID
  8
0
 62
7
  6
CONTINUOUS
 10
368.0248282839
 20
31.7522584901
 11
369.2967030634
 21
31.8167855803
 12
369.4701405634
 22
31.7845227934
 13
369.4701405634
 23
31.7845227934
  0
SOLID
  8
0
 62
7
  6
CONTINUOUS
 10
368.0248282839
 20
31.7522584901
 11
369.4701405634
 21
31.7845227934
 12
368.6029530634
 22
31.7199941235
 13
368.6029530634
 23
31.7199941235
  0
SOLID
  8
0
 62
7
  6
CONTINUOUS
 10
368.6029530634
 20
31.7199941235
 11
369.4701405634
 21
31.7845227934
 12
368.9498280634
 22
31.7199941235
 13
368.9498280634
 23
31.7199941235
  0
SOLID
  8
0
 62
7
  6
CONTINUOUS
 10
369.4701405634
 20
31.7845227934
 11
369.6435780634
 21
31.7199941235
 12
368.9498280634
 22
31.7199941235
 13
368.9498280634
 23
31.7199941235
  0
SOLID
  8
0
 62
7
  6
CONTINUOUS
 10
369.2967030634
 20
31.6877314
 11
368.9498280634
 21
31.7199941235
 12
369.6435780634
 22
31.7199941235
 13
369.6435780634
 23
31.7199941235
  0
SOLID
  8
0
 62
7
  6
CONTINUOUS
 10
367.9092030634
 20
31.6554671071
 11
368.0248282839
 21
31.7522584901
 12
368.6029530634
 22
31.7199941235
 13
368.6029530634
 23
31.7199941235
  0
SOLID
  8
0
 62
7
  6
CONTINUOUS
 10
369.2967030634
 20
31.6877314
 11
369.6435780634
 21
31.7199941235
 12
369.4123282839
 22
31.6554671071
 13
369.4123282839
 23
31.6554671071
  0
SOLID
  8
0
 62
7
  6
CONTINUOUS
 10
369.4123282839
 20
31.6554671071
 11
369.6435780634
 21
31.7199941235
 12
369.4701405634
 22
31.5909400907
 13
369.4701405634
 23
31.5909400907
  0
SOLID
  8
0
 62
7
  6
CONTINUOUS
 10
369.6435780634
 20
31.7199941235
 11
369.7592026223
 21
31.5909400907
 12
369.4701405634
 22
31.5909400907
 13
369.4701405634
 23
31.5909400907
  0
SOLID
  8
0
 62
7
  6
CONTINUOUS
 10
359.0638905634
 20
31.6877314
 11
358.5435780634
 21
31.6554670789
 12
359.2951405909
 22
31.7199941045
 13
359.2951405909
 23
31.7199941045
  0
SOLID
  8
0
 62
7
  6
CONTINUOUS
 10
358.5435780634
 20
31.6554670789
 11
358.6592030565
 21
31.7199941045
 12
359.2951405909
 22
31.7199941045
 13
359.2951405909
 23
31.7199941045
  0
SOLID
  8
0
 62
7
  6
CONTINUOUS
 10
359.0638905634
 20
31.6877314
 11
358.9482655496
 21
31.6554670789
 12
358.5435780634
 22
31.6554670789
 13
358.5435780634
 23
31.6554670789
  0
SOLID
  8
0
 62
7
  6
CONTINUOUS
 10
358.4279530651
 20
31.5264129164
 11
358.5435780634
 21
31.6554670789
 12
358.9482655496
 22
31.6554670789
 13
358.9482655496
 23
31.6554670789
  0
SOLID
  8
0
 62
7
  6
CONTINUOUS
 10
362.7638906736
 20
31.6554670789
 11
363.4576406736
 21
31.7199941869
 12
363.2263905634
 22
31.6877314
 13
363.2263905634
 23
31.6877314
  0
SOLID
  8
0
 62
7
  6
CONTINUOUS
 10
363.2263905634
 20
31.6877314
 11
363.1107656736
 21
31.6554670789
 12
362.7638906736
 22
31.6554670789
 13
362.7638906736
 23
31.6554670789
  0
SOLID
  8
0
 62
7
  6
CONTINUOUS
 10
362.7638906736
 20
31.5909399887
 11
362.7638906736
 21
31.6554670789
 12
363.1107656736
 22
31.6554670789
 13
363.1107656736
 23
31.6554670789
  0
SOLID
  8
0
 62
7
  6
CONTINUOUS
 10
363.1107656736
 20
31.6554670789
 11
363.0529530634
 21
31.5909399887
 12
362.7638906736
 22
31.5909399887
 13
362.7638906736
 23
31.5909399887
  0
SOLID
  8
0
 62
7
  6
CONTINUOUS
 10
367.9092030634
 20
31.6554670789
 11
368.6029530634
 21
31.7199941869
 12
368.3717032839
 22
31.6877314
 13
368.3717032839
 23
31.6877314
  0
SOLID
  8
0
 62
7
  6
CONTINUOUS
 10
368.3717032839
 20
31.6877314
 11
368.2560780634
 21
31.6554670789
 12
367.9092030634
 22
31.6554670789
 13
367.9092030634
 23
31.6554670789
  0
SOLID
  8
0
 62
7
  6
CONTINUOUS
 10
367.9092030634
 20
31.5909399887
 11
367.9092030634
 21
31.6554670789
 12
368.2560780634
 22
31.6554670789
 13
368.2560780634
 23
31.6554670789
  0
SOLID
  8
0
 62
7
  6
CONTINUOUS
 10
368.2560780634
 20
31.6554670789
 11
368.1982657839
 21
31.5909399887
 12
367.9092030634
 22
31.5909399887
 13
367.9092030634
 23
31.5909399887
  0
SOLID
  8
0
 62
7
  6
CONTINUOUS
 10
368.0248282839
 20
31.4618858262
 11
367.9092030634
 21
31.5909399887
 12
368.1982657839
 22
31.5909399887
 13
368.1982657839
 23
31.5909399887
  0
SOLID
  8
0
 62
7
  6
CONTINUOUS
 10
358.4279530651
 20
31.5264129164
 11
358.9482655496
 21
31.6554670967
 12
358.7748280496
 22
31.5586757033
 13
358.7748280496
 23
31.5586757033
  0
SOLID
  8
0
 62
7
  6
CONTINUOUS
 10
358.7748280496
 20
31.5586757033
 11
358.7170155634
 21
31.4941486131
 12
358.4279530651
 22
31.5264129164
 13
358.4279530651
 23
31.5264129164
  0
SOLID
  8
0
 62
7
  6
CONTINUOUS
 10
358.3701405634
 20
31.3328301295
 11
358.4279530651
 21
31.5264129164
 12
358.7170155634
 22
31.4941486131
 13
358.7170155634
 23
31.4941486131
  0
SOLID
  8
0
 62
7
  6
CONTINUOUS
 10
363.2263905634
 20
31.4618858262
 11
363.5732655634
 21
31.4941485791
 12
364.2092032839
 22
31.4941485791
 13
364.2092032839
 23
31.4941485791
  0
SOLID
  8
0
 62
7
  6
CONTINUOUS
 10
363.2263905634
 20
31.4618858262
 11
364.2092032839
 21
31.4941485791
 12
362.9951404531
 22
31.397357926
 13
362.9951404531
 23
31.397357926
  0
SOLID
  8
0
 62
7
  6
CONTINUOUS
 10
362.9951404531
 20
31.397357926
 11
364.2092032839
 21
31.4941485791
 12
363.5732655634
 22
31.3650943988
 13
363.5732655634
 23
31.3650943988
  0
SOLID
  8
0
 62
7
  6
CONTINUOUS
 10
364.2092032839
 20
31.4941485791
 11
364.2092032839
 21
31.3650943988
 12
363.5732655634
 22
31.3650943988
 13
363.5732655634
 23
31.3650943988
  0
SOLID
  8
0
 62
7
  6
CONTINUOUS
 10
368.0248282839
 20
31.4618859165
 11
368.1982657839
 21
31.5909400065
 12
368.2560780634
 22
31.5264129164
 13
368.2560780634
 23
31.5264129164
  0
SOLID
  8
0
 62
7
  6
CONTINUOUS
 10
368.2560780634
 20
31.5264129164
 11
368.4295155634
 21
31.4618859165
 12
368.0248282839
 22
31.4618859165
 13
368.0248282839
 23
31.4618859165
  0
SOLID
  8
0
 62
7
  6
CONTINUOUS
 10
368.2560780634
 20
31.3650944328
 11
368.0248282839
 21
31.4618859165
 12
368.4295155634
 22
31.4618859165
 13
368.4295155634
 23
31.4618859165
  0
SOLID
  8
0
 62
7
  6
CONTINUOUS
 10
368.4295155634
 20
31.4618859165
 11
369.4123282839
 21
31.3005673426
 12
368.2560780634
 22
31.3650944328
 13
368.2560780634
 23
31.3650944328
  0
SOLID
  8
0
 62
7
  6
CONTINUOUS
 10
369.2388907839
 20
31.2037760287
 11
368.2560780634
 21
31.3650944328
 12
369.4123282839
 22
31.3005673426
 13
369.4123282839
 23
31.3005673426
  0
SOLID
  8
0
 62
7
  6
CONTINUOUS
 10
369.4123282839
 20
31.3005673426
 11
369.6435780634
 21
31.2037760287
 12
369.2388907839
 22
31.2037760287
 13
369.2388907839
 23
31.2037760287
  0
SOLID
  8
0
 62
7
  6
CONTINUOUS
 10
369.4123282839
 20
31.139248859
 11
369.2388907839
 21
31.2037760287
 12
369.6435780634
 22
31.2037760287
 13
369.6435780634
 23
31.2037760287
  0
SOLID
  8
0
 62
7
  6
CONTINUOUS
 10
369.4123282839
 20
31.139248859
 11
369.6435780634
 21
31.2037760287
 12
369.4701405634
 22
31.0747203105
 13
369.4701405634
 23
31.0747203105
  0
SOLID
  8
0
 62
7
  6
CONTINUOUS
 10
369.6435780634
 20
31.2037760287
 11
369.7592026223
 21
31.0747203105
 12
369.4701405634
 22
31.0747203105
 13
369.4701405634
 23
31.0747203105
  0
SOLID
  8
0
 62
7
  6
CONTINUOUS
 10
369.4123282839
 20
31.0101932257
 11
369.4701405634
 21
31.0747203105
 12
369.7592026223
 22
31.0747203105
 13
369.7592026223
 23
31.0747203105
  0
SOLID
  8
0
 62
7
  6
CONTINUOUS
 10
369.7592026223
 20
31.0747203105
 11
369.7592026223
 21
31.0101932257
 12
369.4123282839
 22
31.0101932257
 13
369.4123282839
 23
31.0101932257
  0
SOLID
  8
0
 62
7
  6
CONTINUOUS
 10
369.2967030634
 20
30.9779303754
 11
369.4123282839
 21
31.0101932257
 12
369.7592026223
 22
31.0101932257
 13
369.7592026223
 23
31.0101932257
  0
SOLID
  8
0
 62
7
  6
CONTINUOUS
 10
369.2967030634
 20
30.9779303754
 11
369.7592026223
 21
31.0101932257
 12
369.0654532839
 22
30.9456661409
 13
369.0654532839
 23
30.9456661409
  0
SOLID
  8
0
 62
7
  6
CONTINUOUS
 10
369.7592026223
 20
31.0101932257
 11
369.6435780634
 21
30.9134032852
 12
369.0654532839
 22
30.9456661409
 13
369.0654532839
 23
30.9456661409
  0
SOLID
  8
0
 62
7
  6
CONTINUOUS
 10
369.6435780634
 20
30.9134032852
 11
368.1982657839
 21
30.8811389819
 12
369.0654532839
 22
30.9456661409
 13
369.0654532839
 23
30.9456661409
  0
SOLID
  8
0
 62
7
  6
CONTINUOUS
 10
369.0654532839
 20
30.9456661409
 11
368.1982657839
 21
30.8811389819
 12
368.7185782839
 22
30.9456661409
 13
368.7185782839
 23
30.9456661409
  0
SOLID
  8
0
 62
7
  6
CONTINUOUS
 10
368.1982657839
 20
30.8811389819
 11
368.0248282839
 21
30.9456661409
 12
368.7185782839
 22
30.9456661409
 13
368.7185782839
 23
30.9456661409
  0
SOLID
  8
0
 62
7
  6
CONTINUOUS
 10
368.1982657839
 20
30.8811389819
 11
369.6435780634
 21
30.9134032852
 12
368.3717032839
 22
30.8488743522
 13
368.3717032839
 23
30.8488743522
  0
SOLID
  8
0
 62
7
  6
CONTINUOUS
 10
369.6435780634
 20
30.9134032852
 11
369.4123282839
 21
30.8488743522
 12
368.3717032839
 22
30.8488743522
 13
368.3717032839
 23
30.8488743522
  0
SOLID
  8
0
 62
7
  6
CONTINUOUS
 10
368.7185782839
 20
30.8166119713
 11
368.3717032839
 21
30.8488743522
 12
369.4123282839
 22
30.8488743522
 13
369.4123282839
 23
30.8488743522
  0
SOLID
  8
0
 62
7
  6
CONTINUOUS
 10
369.4123282839
 20
30.8488743522
 11
369.0654532839
 21
30.8166119713
 12
368.7185782839
 22
30.8166119713
 13
368.7185782839
 23
30.8166119713
  0
SOLID
  8
0
 62
7
  6
CONTINUOUS
 10
358.3701405634
 20
31.3328301295
 11
358.7170155634
 21
31.4941486131
 12
358.6592030565
 22
31.3650944328
 13
358.6592030565
 23
31.3650944328
  0
SOLID
  8
0
 62
7
  6
CONTINUOUS
 10
358.6592030565
 20
31.3650944328
 11
358.6592030565
 21
31.2683031351
 12
358.3701405634
 22
31.3328301295
 13
358.3701405634
 23
31.3328301295
  0
SOLID
  8
0
 62
7
  6
CONTINUOUS
 10
358.4279530651
 20
31.139248859
 11
358.3701405634
 21
31.3328301295
 12
358.6592030565
 22
31.2683031351
 13
358.6592030565
 23
31.2683031351
  0
SOLID
  8
0
 62
7
  6
CONTINUOUS
 10
358.6592030565
 20
31.2683031351
 11
358.7748280496
 21
31.1069845557
 12
358.4279530651
 22
31.139248859
 13
358.4279530651
 23
31.139248859
  0
SOLID
  8
0
 62
7
  6
CONTINUOUS
 10
358.5435780634
 20
31.0101931569
 11
358.4279530651
 21
31.139248859
 12
358.7748280496
 22
31.1069845557
 13
358.7748280496
 23
31.1069845557
  0
SOLID
  8
0
 62
7
  6
CONTINUOUS
 10
358.7748280496
 20
31.1069845557
 11
358.9482655496
 21
31.0101931569
 12
358.5435780634
 22
31.0101931569
 13
358.5435780634
 23
31.0101931569
  0
SOLID
  8
0
 62
7
  6
CONTINUOUS
 10
358.6592030565
 20
30.9456659241
 11
358.5435780634
 21
31.0101931569
 12
358.9482655496
 22
31.0101931569
 13
358.9482655496
 23
31.0101931569
  0
SOLID
  8
0
 62
7
  6
CONTINUOUS
 10
358.9482655496
 20
31.0101931569
 11
359.2951405909
 21
30.9456659241
 12
358.6592030565
 22
30.9456659241
 13
358.6592030565
 23
30.9456659241
  0
SOLID
  8
0
 62
7
  6
CONTINUOUS
 10
358.8326405772
 20
30.8811389819
 11
358.6592030565
 21
30.9456659241
 12
359.2951405909
 22
30.9456659241
 13
359.2951405909
 23
30.9456659241
  0
SOLID
  8
0
 62
7
  6
CONTINUOUS
 10
362.8795155634
 20
31.3328301325
 11
362.9951404531
 21
31.397357926
 12
363.5732655634
 22
31.3650944328
 13
363.5732655634
 23
31.3650944328
  0
SOLID
  8
0
 62
7
  6
CONTINUOUS
 10
363.5732655634
 20
31.3650944328
 11
363.3420154531
 21
31.3328301325
 12
362.8795155634
 22
31.3328301325
 13
362.8795155634
 23
31.3328301325
  0
SOLID
  8
0
 62
7
  6
CONTINUOUS
 10
362.7638906736
 20
31.2037759492
 11
362.8795155634
 21
31.3328301325
 12
363.3420154531
 22
31.3328301325
 13
363.3420154531
 23
31.3328301325
  0
SOLID
  8
0
 62
7
  6
CONTINUOUS
 10
363.1107656736
 20
31.2360394487
 11
362.7638906736
 21
31.2037759492
 12
363.2263905634
 22
31.3005673426
 13
363.2263905634
 23
31.3005673426
  0
SOLID
  8
0
 62
7
  6
CONTINUOUS
 10
362.7638906736
 20
31.2037759492
 11
363.3420154531
 21
31.3328301295
 12
363.2263905634
 22
31.3005673426
 13
363.2263905634
 23
31.3005673426
  0
SOLID
  8
0
 62
7
  6
CONTINUOUS
 10
363.1107656736
 20
31.2360394487
 11
363.0529530634
 21
31.139248859
 12
362.7638906736
 22
31.2037759492
 13
362.7638906736
 23
31.2037759492
  0
SOLID
  8
0
 62
7
  6
CONTINUOUS
 10
362.7638906736
 20
31.1069845557
 11
362.7638906736
 21
31.2037759492
 12
363.0529530634
 22
31.139248859
 13
363.0529530634
 23
31.139248859
  0
SOLID
  8
0
 62
7
  6
CONTINUOUS
 10
363.0529530634
 20
31.139248859
 11
363.0529530634
 21
31.0747202524
 12
362.7638906736
 22
31.1069845557
 13
362.7638906736
 23
31.1069845557
  0
SOLID
  8
0
 62
7
  6
CONTINUOUS
 10
362.8217029531
 20
30.9779303754
 11
362.7638906736
 21
31.1069845557
 12
363.0529530634
 22
31.0747202524
 13
363.0529530634
 23
31.0747202524
  0
SOLID
  8
0
 62
7
  6
CONTINUOUS
 10
364.2092032839
 20
31.1715120759
 11
364.4982653428
 21
31.0747202524
 12
364.1513903428
 22
31.1069845557
 13
364.1513903428
 23
31.1069845557
  0
SOLID
  8
0
 62
7
  6
CONTINUOUS
 10
363.9779528428
 20
31.0101931623
 11
364.1513903428
 21
31.1069845557
 12
364.4982653428
 22
31.0747202524
 13
364.4982653428
 23
31.0747202524
  0
SOLID
  8
0
 62
7
  6
CONTINUOUS
 10
363.9779528428
 20
31.0101931623
 11
364.4982653428
 21
31.0747202524
 12
364.2092032839
 22
30.9779303754
 13
364.2092032839
 23
30.9779303754
  0
SOLID
  8
0
 62
7
  6
CONTINUOUS
 10
364.4982653428
 20
31.0747202524
 11
364.5560782839
 21
30.9134032852
 12
364.2092032839
 22
30.9779303754
 13
364.2092032839
 23
30.9779303754
  0
SOLID
  8
0
 62
7
  6
CONTINUOUS
 10
364.2670155634
 20
30.8811389819
 11
364.2092032839
 21
30.9779303754
 12
364.5560782839
 22
30.9134032852
 13
364.5560782839
 23
30.9134032852
  0
SOLID
  8
0
 62
7
  6
CONTINUOUS
 10
364.2670155634
 20
30.8811389819
 11
364.5560782839
 21
30.9134032852
 12
364.3248278428
 22
30.816611867
 13
364.3248278428
 23
30.816611867
  0
SOLID
  8
0
 62
7
  6
CONTINUOUS
 10
364.5560782839
 20
30.9134032852
 11
364.6138905634
 21
30.816611867
 12
364.3248278428
 22
30.816611867
 13
364.3248278428
 23
30.816611867
  0
SOLID
  8
0
 62
7
  6
CONTINUOUS
 10
359.8732656185
 20
31.0424573076
 11
359.9310780634
 21
31.1392488159
 12
360.2201406185
 22
31.1392488159
 13
360.2201406185
 23
31.1392488159
  0
SOLID
  8
0
 62
7
  6
CONTINUOUS
 10
360.2201406185
 20
31.1392488159
 11
360.1623280082
 21
31.0101931623
 12
359.8732656185
 22
31.0424573076
 13
359.8732656185
 23
31.0424573076
  0
SOLID
  8
0
 62
7
  6
CONTINUOUS
 10
359.6998280358
 20
30.9779303754
 11
359.8732656185
 21
31.0424573076
 12
360.1623280082
 22
31.0101931623
 13
360.1623280082
 23
31.0101931623
  0
SOLID
  8
0
 62
7
  6
CONTINUOUS
 10
359.6998280358
 20
30.9779303754
 11
360.1623280082
 21
31.0101931623
 12
359.2951405909
 22
30.9456660721
 13
359.2951405909
 23
30.9456660721
  0
SOLID
  8
0
 62
7
  6
CONTINUOUS
 10
360.1623280082
 20
31.0101931623
 11
359.9888905082
 21
30.9134032852
 12
359.2951405909
 22
30.9456660721
 13
359.2951405909
 23
30.9456660721
  0
SOLID
  8
0
 62
7
  6
CONTINUOUS
 10
358.8326405772
 20
30.8811389819
 11
359.2951405909
 21
30.9456660721
 12
359.9888905082
 22
30.9134032852
 13
359.9888905082
 23
30.9134032852
  0
SOLID
  8
0
 62
7
  6
CONTINUOUS
 10
358.8326405772
 20
30.8811389819
 11
359.9888905082
 21
30.9134032852
 12
359.0060780772
 22
30.8488745775
 13
359.0060780772
 23
30.8488745775
  0
SOLID
  8
0
 62
7
  6
CONTINUOUS
 10
359.9888905082
 20
30.9134032852
 11
359.7576405634
 21
30.8488745775
 12
359.0060780772
 22
30.8488745775
 13
359.0060780772
 23
30.8488745775
  0
SOLID
  8
0
 62
7
  6
CONTINUOUS
 10
359.3529530358
 20
30.8166118918
 11
359.0060780772
 21
30.8488745775
 12
359.7576405634
 22
30.8488745775
 13
359.7576405634
 23
30.8488745775
  0
SOLID
  8
0
 62
7
  6
CONTINUOUS
 10
362.8217029531
 20
30.9779303754
 11
363.0529530634
 21
31.0747202524
 12
363.1107656736
 22
31.0101931623
 13
363.1107656736
 23
31.0101931623
  0
SOLID
  8
0
 62
7
  6
CONTINUOUS
 10
363.1107656736
 20
31.0101931623
 11
363.3420154531
 21
30.9456660721
 12
362.8217029531
 22
30.9779303754
 13
362.8217029531
 23
30.9779303754
  0
SOLID
  8
0
 62
7
  6
CONTINUOUS
 10
362.9951404531
 20
30.8811389819
 11
362.8217029531
 21
30.9779303754
 12
363.3420154531
 22
30.9456660721
 13
363.3420154531
 23
30.9456660721
  0
SOLID
  8
0
 62
7
  6
CONTINUOUS
 10
363.6888904531
 20
30.9456661188
 11
363.9779528428
 21
31.0101931623
 12
364.2092032839
 22
30.9779303754
 13
364.2092032839
 23
30.9779303754
  0
SOLID
  8
0
 62
7
  6
CONTINUOUS
 10
364.2092032839
 20
30.9779303754
 11
364.1513903428
 21
30.9134032852
 12
363.6888904531
 22
30.9456661188
 13
363.6888904531
 23
30.9456661188
  0
SOLID
  8
0
 62
7
  6
CONTINUOUS
 10
364.1513903428
 20
30.9134032852
 11
362.9951404531
 21
30.8811389819
 12
363.6888904531
 22
30.9456661188
 13
363.6888904531
 23
30.9456661188
  0
SOLID
  8
0
 62
7
  6
CONTINUOUS
 10
362.9951404531
 20
30.8811389819
 11
363.3420154531
 21
30.9456661188
 12
363.6888904531
 22
30.9456661188
 13
363.6888904531
 23
30.9456661188
  0
SOLID
  8
0
 62
7
  6
CONTINUOUS
 10
362.9951404531
 20
30.8811389819
 11
364.1513903428
 21
30.9134032852
 12
363.1107656736
 22
30.8488747093
 13
363.1107656736
 23
30.8488747093
  0
SOLID
  8
0
 62
7
  6
CONTINUOUS
 10
364.1513903428
 20
30.9134032852
 11
363.9779528428
 21
30.8488747093
 12
363.1107656736
 22
30.8488747093
 13
363.1107656736
 23
30.8488747093
  0
SOLID
  8
0
 62
7
  6
CONTINUOUS
 10
363.3420154531
 20
30.816611874
 11
363.1107656736
 21
30.8488747093
 12
363.9779528428
 22
30.8488747093
 13
363.9779528428
 23
30.8488747093
  0
SOLID
  8
0
 62
7
  6
CONTINUOUS
 10
363.9779528428
 20
30.8488747093
 11
363.6888904531
 21
30.816611874
 12
363.3420154531
 22
30.816611874
 13
363.3420154531
 23
30.816611874
  0
SOLID
  8
0
 62
7
  6
CONTINUOUS
 10
368.3717032839
 20
30.9779303754
 11
368.0248282839
 21
30.9456661188
 12
368.2560780634
 22
31.0101931623
 13
368.2560780634
 23
31.0101931623
  0
SOLID
  8
0
 62
7
  6
CONTINUOUS
 10
368.2560780634
 20
31.0101931623
 11
368.0248282839
 21
30.9456661188
 12
368.1982657839
 22
31.0747202992
 13
368.1982657839
 23
31.0747202992
  0
SOLID
  8
0
 62
7
  6
CONTINUOUS
 10
368.0248282839
 20
30.9456661188
 11
367.9092030634
 21
31.0747202992
 12
368.1982657839
 22
31.0747202992
 13
368.1982657839
 23
31.0747202992
  0
SOLID
  8
0
 62
7
  6
CONTINUOUS
 10
368.3717032839
 20
30.9779303754
 11
368.7185782839
 21
30.9456661188
 12
368.0248282839
 22
30.9456661188
 13
368.0248282839
 23
30.9456661188
  0
SOLID
  8
0
 62
7
  6
CONTINUOUS
 10
365.0763907839
 20
30.8166118918
 11
365.0763907839
 21
31.8490498836
 12
365.3654528428
 22
30.8166118918
 13
365.3654528428
 23
31.8490498836
  0
ENDBLK
  8
0
  6
BYBLOCK
 62
0
  0
BLOCK
  8
0
 62
2
  6
CONTINUOUS
  2
SYMBOL_0_BL0
 70
64
 10
241.0379982417
 20
19.661173918
  0
TEXT
  8
0
 62
7
  6
CONTINUOUS
 10
227.3106676351
 20
19.0524287129
  7
TEXTSTYLE_3
 40
2.7338706658
  1
Ammeraal Beltech
 41
1.0
 51
15.0
 72
0
  0
TEXT
  8
0
 62
7
  6
CONTINUOUS
 10
238.1114684608
 20
16.7788920401
  7
TEXTSTYLE_4
 40
1.0935482663
  1
Innovation & Service in Belting
 41
1.0
 72
0
  0
LINE
  8
0
 62
7
  6
CONTINUOUS
 10
221.2861269837
 20
19.8190220215
 11
222.0642789771
 21
23.4799393191
  0
LINE
  8
0
 62
7
  6
CONTINUOUS
 10
232.1594472669
 20
27.1433332308
 11
222.5520967201
 21
24.0217158095
  0
LINE
  8
0
 62
7
  6
CONTINUOUS
 10
221.511410316
 20
19.1256712184
 11
229.0184855772
 21
12.3662702925
  0
LINE
  8
0
 62
7
  6
CONTINUOUS
 10
221.7739447268
 20
20.3607985118
 11
232.5822140919
 21
23.8726181108
  0
LINE
  8
0
 62
7
  6
CONTINUOUS
 10
232.5780089548
 20
13.522829547
 11
224.132549286
 21
21.1271555887
  0
LINE
  8
0
 62
7
  6
CONTINUOUS
 10
233.0978316746
 20
26.298408115
 11
232.1212721373
 21
21.7040567125
  0
LINE
  8
0
 62
7
  6
CONTINUOUS
 10
231.4214701896
 20
18.4117473987
 11
230.7350219782
 21
15.1822624744
  0
LINE
  8
0
 62
7
  6
CONTINUOUS
 10
233.7789277731
 20
13.9130317247
 11
234.7351593087
 21
18.4117473987
  0
LINE
  8
0
 62
7
  6
CONTINUOUS
 10
235.4349612564
 20
21.7040567125
 11
235.8792030588
 21
23.7940500719
  0
LINE
  8
0
 62
7
  6
CONTINUOUS
 10
229.7315866525
 20
12.2146959798
 11
233.2911100301
 21
13.3712552343
  0
LINE
  8
0
 62
7
  6
CONTINUOUS
 10
232.8725483422
 20
26.9917589181
 11
235.6539197265
 21
24.487400875
  0
ARC
  8
0
 62
7
  6
CONTINUOUS
 10
222.7773800524
 20
23.3283650064
 40
0.7290321776
 50
108.0
 51
168.0
  0
ARC
  8
0
 62
7
  6
CONTINUOUS
 10
232.3847305992
 20
26.4499824277
 40
0.7290321776
 50
348.0
 51
108.0
  0
ARC
  8
0
 62
7
  6
CONTINUOUS
 10
235.1661019835
 20
23.9456243846
 40
0.7290321776
 50
348.0
 51
48.0
  0
ARC
  8
0
 62
7
  6
CONTINUOUS
 10
229.5063033202
 20
12.9080467828
 40
0.7290321776
 50
228.0
 51
288.0
  0
ARC
  8
0
 62
7
  6
CONTINUOUS
 10
221.9992280591
 20
19.6674477088
 40
0.7290321776
 50
108.0
 51
228.0
  0
ARC
  8
0
 62
7
  6
CONTINUOUS
 10
233.0658266978
 20
14.0646060374
 40
0.7290321776
 50
228.0
 51
348.0
  0
ENDBLK
  8
0
  6
BYBLOCK
 62
0
  0
ENDSEC
  0
SECTION
  2
ENTITIES
  0
TEXT
  8
0
 62
5
  6
CONTINUOUS
 10
304.937007874
 20
25.636
  7
TEXTSTYLE_2
 40
2.8
  1
Scale :
 41
0.6
 51
0.000019
 72
0
  0
TEXT
  8
0
 62
5
  6
CONTINUOUS
 10
324.937007874
 20
25.636
  7
TEXTSTYLE_2
 40
2.8
  1
Chain type:
 41
0.6
 51
0.000019
 72
0
  0
INSERT
  8
0
 62
2
  6
CONTINUOUS
  2
SYMBOL_0_BL0
 10
241.0379982417
 20
19.661173918
  0
INSERT
  8
0
 62
2
  6
CONTINUOUS
  2
SYMBOL_5_BL1
 10
382.3920721743
 20
35.7654615278
  0
LINE
  8
0
 62
2
  6
CONTINUOUS
 10
218.937007874
 20
30.0
 11
408.937007874
 21
30.0
  0
LINE
  8
0
 62
2
  6
CONTINUOUS
 10
218.937007874
 20
30.0
 11
218.937007874
 21
10.0
  0
LINE
  8
0
 62
2
  6
CONTINUOUS
 10
218.937007874
 20
10.0
 11
408.937007874
 21
10.0
  0
LINE
  8
0
 62
2
  6
CONTINUOUS
 10
303.937007874
 20
30.0
 11
303.937007874
 21
10.0
  0
LINE
  8
0
 62
2
  6
CONTINUOUS
 10
323.937007874
 20
30.0
 11
323.937007874
 21
10.0
  0
LINE
  8
0
 62
2
  6
CONTINUOUS
 10
408.937007874
 20
30.0
 11
408.937007874
 21
10.0
  0
TEXT
  8
0
 62
5
  6
CONTINUOUS
 10
221.937007874
 20
23.303
  7
TEXTSTYLE_5
 40
1.52
  1
                                                                     Ammeraal Beltech Modular A/S
 41
1.0
 72
0
  0
TEXT
  8
0
 62
5
  6
CONTINUOUS
 10
221.937007874
 20
20.595
  7
TEXTSTYLE_5
 40
1.5
  1
                                                                      Hjulmagervej 21, 7100 Vejle,  DK
 41
1.0
 72
0
  0
TEXT
  8
0
 62
5
  6
CONTINUOUS
 10
221.937007874
 20
17.881
  7
TEXTSTYLE_5
 40
1.495
  1
                                                                      tel: 
 41
1.0
 72
0
  0
TEXT
  8
0
 62
5
  6
CONTINUOUS
 10
266.9239544389
 20
17.881
  7
TEXTSTYLE_5
 40
1.51
  1
+45 75723100     fax: +45 75723348
 41
1.0
 72
0
  0
TEXT
  8
0
 62
5
  6
CONTINUOUS
 10
221.937007874
 20
15.177
  7
TEXTSTYLE_5
 40
1.5
  1
                                                                      admin@unichains.dk  www.unichains.com
 41
1.0
 72
0
  0
TEXT
  8
0
 62
5
  6
CONTINUOUS
 10
308.687007874
 20
13.75
  7
TEXTSTYLE_6
 40
5.0
  1
1:1
 41
0.7
 72
1
 11
313.937007874
 21
13.75
  0
TEXT
  8
0
 62
5
  6
CONTINUOUS
 10
326.937007874
 20
13.75
  7
TEXTSTYLE_7
 40
7.5
  1
uni 440 TAB-K350
 41
0.6885416667
 72
0
  0
LINE
  8
0
 62
7
  6
CONTINUOUS
 10
0.0
 20
0.0
 11
0.0
 21
297.0
  0
LINE
  8
0
 62
7
  6
CONTINUOUS
 10
8.937007874
 20
10.0
 11
8.937007874
 21
287.0
  0
LINE
  8
0
 62
7
  6
CONTINUOUS
 10
0.0
 20
0.0
 11
420.0
 21
0.0
  0
LINE
  8
0
 62
7
  6
CONTINUOUS
 10
408.937007874
 20
10.0
 11
8.937007874
 21
10.0
  0
LINE
  8
0
 62
7
  6
CONTINUOUS
 10
218.937007874
 20
30.0
 11
408.937007874
 21
30.0
  0
LINE
  8
0
 62
7
  6
CONTINUOUS
 10
210.0
 20
297.0
 11
210.0
 21
292.0
  0
LINE
  8
0
 62
7
  6
CONTINUOUS
 10
210.0
 20
0.0
 11
210.0
 21
5.0
  0
LINE
  8
0
 62
7
  6
CONTINUOUS
 10
8.937007874
 20
287.0
 11
408.937007874
 21
287.0
  0
LINE
  8
0
 62
7
  6
CONTINUOUS
 10
0.0
 20
297.0
 11
420.0
 21
297.0
  0
LINE
  8
0
 62
7
  6
CONTINUOUS
 10
408.937007874
 20
287.0
 11
408.937007874
 21
10.0
  0
LINE
  8
0
 62
7
  6
CONTINUOUS
 10
420.0
 20
0.0
 11
420.0
 21
297.0
  0
POLYLINE
  8
2_FEATURE
 62
7
  6
CONTINUOUS
 66
1
 70
0
  0
VERTEX
  8
2_FEATURE
 62
7
  6
CONTINUOUS
 10
85.5735655738
 20
222.4128027819
  0
VERTEX
  8
2_FEATURE
 62
7
  6
CONTINUOUS
 10
85.5798563512
 20
222.4718288391
  0
VERTEX
  8
2_FEATURE
 62
7
  6
CONTINUOUS
 10
85.6283107129
 20
222.5766337847
  0
VERTEX
  8
2_FEATURE
 62
7
  6
CONTINUOUS
 10
85.7198436741
 20
222.6627761833
  0
VERTEX
  8
2_FEATURE
 62
7
  6
CONTINUOUS
 10
85.7800043223
 20
222.6989111439
  0
VERTEX
  8
2_FEATURE
 62
7
  6
CONTINUOUS
 10
85.9242955386
 20
222.7572474075
  0
VERTEX
  8
2_FEATURE
 62
7
  6
CONTINUOUS
 10
86.0956010468
 20
222.7980282771
  0
VERTEX
  8
2_FEATURE
 62
7
  6
CONTINUOUS
 10
86.188241621
 20
222.811926541
  0
SEQEND
  0
LINE
  8
2_FEATURE
 62
7
  6
CONTINUOUS
 10
85.5735655738
 20
219.341926541
 11
85.5735655738
 21
223.021926541
  0
LINE
  8
2_FEATURE
 62
7
  6
CONTINUOUS
 10
86.188241621
 20
222.811926541
 11
86.188241621
 21
222.8219265431
  0
LINE
  8
2_FEATURE
 62
7
  6
CONTINUOUS
 10
102.5235655738
 20
203.921926541
 11
102.5235655738
 21
206.921926541
  0
LINE
  8
2_FEATURE
 62
7
  6
CONTINUOUS
 10
108.5735655738
 20
219.141926541
 11
108.5735655738
 21
207.8672955428
  0
LINE
  8
2_FEATURE
 62
7
  6
CONTINUOUS
 10
114.5235655738
 20
207.621926541
 11
114.5235655738
 21
203.921926541
  0
LINE
  8
2_FEATURE
 62
7
  6
CONTINUOUS
 10
117.4485655738
 20
208.821926541
 11
117.4485655738
 21
222.821926541
  0
LINE
  8
2_FEATURE
 62
7
  6
CONTINUOUS
 10
114.0235655738
 20
203.421926541
 11
103.0235655738
 21
203.421926541
  0
LINE
  8
2_FEATURE
 62
7
  6
CONTINUOUS
 10
146.0235655738
 20
203.421926541
 11
157.0235655738
 21
203.421926541
  0
LINE
  8
2_FEATURE
 62
7
  6
CONTINUOUS
 10
108.0735655738
 20
207.421926541
 11
103.0235655738
 21
207.421926541
  0
LINE
  8
2_FEATURE
 62
7
  6
CONTINUOUS
 10
151.9735655738
 20
207.421926541
 11
157.0235655738
 21
207.421926541
  0
POLYLINE
  8
2_FEATURE
 62
7
  6
CONTINUOUS
 66
1
 70
0
  0
VERTEX
  8
2_FEATURE
 62
7
  6
CONTINUOUS
 10
117.6647632204
 20
212.111926541
  0
VERTEX
  8
2_FEATURE
 62
7
  6
CONTINUOUS
 10
117.7716464822
 20
212.1752083973
  0
VERTEX
  8
2_FEATURE
 62
7
  6
CONTINUOUS
 10
117.8748563349
 20
212.3628278992
  0
VERTEX
  8
2_FEATURE
 62
7
  6
CONTINUOUS
 10
117.9708806748
 20
212.6683000933
  0
VERTEX
  8
2_FEATURE
 62
7
  6
CONTINUOUS
 10
118.0564534444
 20
213.0811328752
  0
VERTEX
  8
2_FEATURE
 62
7
  6
CONTINUOUS
 10
118.1286681306
 20
213.5871885125
  0
VERTEX
  8
2_FEATURE
 62
7
  6
CONTINUOUS
 10
118.1850777065
 20
214.169185316
  0
VERTEX
  8
2_FEATURE
 62
7
  6
CONTINUOUS
 10
118.2237754384
 20
214.8073014047
  0
VERTEX
  8
2_FEATURE
 62
7
  6
CONTINUOUS
 10
118.2434558605
 20
215.4798497507
  0
VERTEX
  8
2_FEATURE
 62
7
  6
CONTINUOUS
 10
118.2434558605
 20
216.1640033312
  0
VERTEX
  8
2_FEATURE
 62
7
  6
CONTINUOUS
 10
118.2237754384
 20
216.8365516772
  0
VERTEX
  8
2_FEATURE
 62
7
  6
CONTINUOUS
 10
118.1850777065
 20
217.4746677659
  0
VERTEX
  8
2_FEATURE
 62
7
  6
CONTINUOUS
 10
118.1286681306
 20
218.0566645694
  0
VERTEX
  8
2_FEATURE
 62
7
  6
CONTINUOUS
 10
118.0564534444
 20
218.5627202067
  0
VERTEX
  8
2_FEATURE
 62
7
  6
CONTINUOUS
 10
117.9708806748
 20
218.9755529887
  0
VERTEX
  8
2_FEATURE
 62
7
  6
CONTINUOUS
 10
117.8748563349
 20
219.2810251827
  0
VERTEX
  8
2_FEATURE
 62
7
  6
CONTINUOUS
 10
117.7716464822
 20
219.4686446846
  0
VERTEX
  8
2_FEATURE
 62
7
  6
CONTINUOUS
 10
117.6647632204
 20
219.531926541
  0
SEQEND
  0
POLYLINE
  8
2_FEATURE
 62
7
  6
CONTINUOUS
 66
1
 70
0
  0
VERTEX
  8
2_FEATURE
 62
7
  6
CONTINUOUS
 10
123.0243825612
 20
208.3258091661
  0
VERTEX
  8
2_FEATURE
 62
7
  6
CONTINUOUS
 10
123.2377499845
 20
208.3352523931
  0
VERTEX
  8
2_FEATURE
 62
7
  6
CONTINUOUS
 10
123.3257323058
 20
208.3381719815
  0
VERTEX
  8
2_FEATURE
 62
7
  6
CONTINUOUS
 10
123.4172583945
 20
208.3396974661
  0
VERTEX
  8
2_FEATURE
 62
7
  6
CONTINUOUS
 10
123.5211808728
 20
208.3392246428
  0
SEQEND
  0
POLYLINE
  8
2_FEATURE
 62
7
  6
CONTINUOUS
 66
1
 70
0
  0
VERTEX
  8
2_FEATURE
 62
7
  6
CONTINUOUS
 10
136.5259465802
 20
208.3392256965
  0
VERTEX
  8
2_FEATURE
 62
7
  6
CONTINUOUS
 10
136.4986511921
 20
208.3388738039
  0
VERTEX
  8
2_FEATURE
 62
7
  6
CONTINUOUS
 10
136.4443491851
 20
208.3386117674
  0
SEQEND
  0
POLYLINE
  8
2_FEATURE
 62
7
  6
CONTINUOUS
 66
1
 70
0
  0
VERTEX
  8
2_FEATURE
 62
7
  6
CONTINUOUS
 10
122.8569027188
 20
208.3219265157
  0
VERTEX
  8
2_FEATURE
 62
7
  6
CONTINUOUS
 10
122.9371468954
 20
208.3229445469
  0
VERTEX
  8
2_FEATURE
 62
7
  6
CONTINUOUS
 10
123.0243825612
 20
208.3258091661
  0
SEQEND
  0
POLYLINE
  8
2_FEATURE
 62
7
  6
CONTINUOUS
 66
1
 70
0
  0
VERTEX
  8
2_FEATURE
 62
7
  6
CONTINUOUS
 10
136.5259502073
 20
208.3392246418
  0
VERTEX
  8
2_FEATURE
 62
7
  6
CONTINUOUS
 10
136.6295845786
 20
208.3396994585
  0
VERTEX
  8
2_FEATURE
 62
7
  6
CONTINUOUS
 10
136.7209904934
 20
208.3381825248
  0
VERTEX
  8
2_FEATURE
 62
7
  6
CONTINUOUS
 10
136.8090837627
 20
208.3352641446
  0
SEQEND
  0
LINE
  8
2_FEATURE
 62
7
  6
CONTINUOUS
 10
115.2235655738
 20
208.321926541
 11
122.8567138817
 21
208.321926541
  0
LINE
  8
2_FEATURE
 62
7
  6
CONTINUOUS
 10
137.1904172659
 20
208.321926541
 11
144.8235655738
 21
208.321926541
  0
LINE
  8
2_FEATURE
 62
7
  6
CONTINUOUS
 10
123.6027819625
 20
208.3386117674
 11
136.4443491851
 21
208.3386117674
  0
POLYLINE
  8
2_FEATURE
 62
7
  6
CONTINUOUS
 66
1
 70
0
  0
VERTEX
  8
2_FEATURE
 62
7
  6
CONTINUOUS
 10
123.5211844998
 20
208.3392256975
  0
VERTEX
  8
2_FEATURE
 62
7
  6
CONTINUOUS
 10
123.5484799554
 20
208.3388738039
  0
VERTEX
  8
2_FEATURE
 62
7
  6
CONTINUOUS
 10
123.6027819625
 20
208.3386117674
  0
SEQEND
  0
POLYLINE
  8
2_FEATURE
 62
7
  6
CONTINUOUS
 66
1
 70
0
  0
VERTEX
  8
2_FEATURE
 62
7
  6
CONTINUOUS
 10
137.0230571534
 20
208.3257967987
  0
VERTEX
  8
2_FEATURE
 62
7
  6
CONTINUOUS
 10
137.1102746112
 20
208.32293762
  0
VERTEX
  8
2_FEATURE
 62
7
  6
CONTINUOUS
 10
137.1902295624
 20
208.3219265156
  0
SEQEND
  0
LINE
  8
2_FEATURE
 62
7
  6
CONTINUOUS
 10
136.8090837627
 20
208.3352641446
 11
137.0230571534
 21
208.3257967987
  0
LINE
  8
DEFAULT_1
 62
2
  6
CENTER
 10
130.0235655738
 20
235.1447262295
 11
130.0235655738
 21
217.822026541
  0
LINE
  8
0
 62
2
  6
CONTINUOUS
 10
130.0235655738
 20
216.871926541
 11
130.0235655738
 21
214.771926541
  0
LINE
  8
2_FEATURE
 62
7
  6
CONTINUOUS
 10
130.0235655738
 20
215.821926541
 11
130.0235655738
 21
212.1558667036
  0
LINE
  8
DEFAULT_1
 62
2
  6
CENTER
 10
130.0235655738
 20
198.0635459016
 11
130.0235655738
 21
213.821826541
  0
LINE
  8
2_FEATURE
 62
7
  6
CONTINUOUS
 10
117.6647632204
 20
212.111926541
 11
117.4485655738
 21
212.111926541
  0
LINE
  8
2_FEATURE
 62
7
  6
CONTINUOUS
 10
142.3823679271
 20
212.111926541
 11
142.5985655738
 21
212.111926541
  0
POLYLINE
  8
2_FEATURE
 62
7
  6
CONTINUOUS
 66
1
 70
0
  0
VERTEX
  8
2_FEATURE
 62
7
  6
CONTINUOUS
 10
130.0235655738
 20
212.1558667036
  0
VERTEX
  8
2_FEATURE
 62
7
  6
CONTINUOUS
 10
129.7544426938
 20
212.328198911
  0
VERTEX
  8
2_FEATURE
 62
7
  6
CONTINUOUS
 10
129.4913653268
 20
212.5680430604
  0
VERTEX
  8
2_FEATURE
 62
7
  6
CONTINUOUS
 10
129.2458041143
 20
212.8825422818
  0
VERTEX
  8
2_FEATURE
 62
7
  6
CONTINUOUS
 10
129.0234718612
 20
213.2863821144
  0
VERTEX
  8
2_FEATURE
 62
7
  6
CONTINUOUS
 10
128.8337776535
 20
213.7923481285
  0
VERTEX
  8
2_FEATURE
 62
7
  6
CONTINUOUS
 10
128.6886934526
 20
214.4011413259
  0
VERTEX
  8
2_FEATURE
 62
7
  6
CONTINUOUS
 10
128.598721425
 20
215.0901800283
  0
VERTEX
  8
2_FEATURE
 62
7
  6
CONTINUOUS
 10
128.5684408483
 20
215.821926541
  0
SEQEND
  0
POLYLINE
  8
2_FEATURE
 62
7
  6
CONTINUOUS
 66
1
 70
0
  0
VERTEX
  8
2_FEATURE
 62
7
  6
CONTINUOUS
 10
131.4786902992
 20
215.821926541
  0
VERTEX
  8
2_FEATURE
 62
7
  6
CONTINUOUS
 10
131.4484131076
 20
215.0902201921
  0
VERTEX
  8
2_FEATURE
 62
7
  6
CONTINUOUS
 10
131.3584637715
 20
214.4012849809
  0
VERTEX
  8
2_FEATURE
 62
7
  6
CONTINUOUS
 10
131.2134346939
 20
213.7926160076
  0
VERTEX
  8
2_FEATURE
 62
7
  6
CONTINUOUS
 10
131.0237713819
 20
213.2866266015
  0
VERTEX
  8
2_FEATURE
 62
7
  6
CONTINUOUS
 10
130.8014058068
 20
212.8826617326
  0
VERTEX
  8
2_FEATURE
 62
7
  6
CONTINUOUS
 10
130.5558727726
 20
212.5681583681
  0
VERTEX
  8
2_FEATURE
 62
7
  6
CONTINUOUS
 10
130.2929484115
 20
212.3283974866
  0
VERTEX
  8
2_FEATURE
 62
7
  6
CONTINUOUS
 10
130.0235655738
 20
212.1558667036
  0
SEQEND
  0
LINE
  8
2_FEATURE
 62
7
  6
CONTINUOUS
 10
131.4786902992
 20
215.821926541
 11
128.5684408483
 21
215.821926541
  0
LINE
  8
DEFAULT_1
 62
2
  6
CENTER
 10
83.2185094783
 20
215.821926541
 11
176.8286216692
 21
215.821926541
  0
LINE
  8
2_FEATURE
 62
7
  6
CONTINUOUS
 10
174.4735655738
 20
219.341926541
 11
147.2405185294
 21
219.341926541
  0
LINE
  8
2_FEATURE
 62
7
  6
CONTINUOUS
 10
112.8066126182
 20
219.341926541
 11
85.5735655738
 21
219.341926541
  0
LINE
  8
2_FEATURE
 62
7
  6
CONTINUOUS
 10
117.6647632204
 20
219.531926541
 11
117.4485655738
 21
219.531926541
  0
LINE
  8
2_FEATURE
 62
7
  6
CONTINUOUS
 10
142.3823679271
 20
219.531926541
 11
142.5985655738
 21
219.531926541
  0
POLYLINE
  8
2_FEATURE
 62
7
  6
CONTINUOUS
 66
1
 70
0
  0
VERTEX
  8
2_FEATURE
 62
7
  6
CONTINUOUS
 10
142.3823679271
 20
212.111926541
  0
VERTEX
  8
2_FEATURE
 62
7
  6
CONTINUOUS
 10
142.2754846653
 20
212.1752083973
  0
VERTEX
  8
2_FEATURE
 62
7
  6
CONTINUOUS
 10
142.1722748126
 20
212.3628278992
  0
VERTEX
  8
2_FEATURE
 62
7
  6
CONTINUOUS
 10
142.0762504727
 20
212.6683000933
  0
VERTEX
  8
2_FEATURE
 62
7
  6
CONTINUOUS
 10
141.9906777031
 20
213.0811328752
  0
VERTEX
  8
2_FEATURE
 62
7
  6
CONTINUOUS
 10
141.9184630169
 20
213.5871885125
  0
VERTEX
  8
2_FEATURE
 62
7
  6
CONTINUOUS
 10
141.8620534411
 20
214.169185316
  0
VERTEX
  8
2_FEATURE
 62
7
  6
CONTINUOUS
 10
141.8233557091
 20
214.8073014047
  0
VERTEX
  8
2_FEATURE
 62
7
  6
CONTINUOUS
 10
141.803675287
 20
215.4798497507
  0
VERTEX
  8
2_FEATURE
 62
7
  6
CONTINUOUS
 10
141.803675287
 20
216.1640033312
  0
VERTEX
  8
2_FEATURE
 62
7
  6
CONTINUOUS
 10
141.8233557091
 20
216.8365516772
  0
VERTEX
  8
2_FEATURE
 62
7
  6
CONTINUOUS
 10
141.8620534411
 20
217.4746677659
  0
VERTEX
  8
2_FEATURE
 62
7
  6
CONTINUOUS
 10
141.9184630169
 20
218.0566645694
  0
VERTEX
  8
2_FEATURE
 62
7
  6
CONTINUOUS
 10
141.9906777031
 20
218.5627202067
  0
VERTEX
  8
2_FEATURE
 62
7
  6
CONTINUOUS
 10
142.0762504727
 20
218.9755529887
  0
VERTEX
  8
2_FEATURE
 62
7
  6
CONTINUOUS
 10
142.1722748126
 20
219.2810251827
  0
VERTEX
  8
2_FEATURE
 62
7
  6
CONTINUOUS
 10
142.2754846653
 20
219.4686446846
  0
VERTEX
  8
2_FEATURE
 62
7
  6
CONTINUOUS
 10
142.3823679271
 20
219.531926541
  0
SEQEND
  0
POLYLINE
  8
2_FEATURE
 62
7
  6
CONTINUOUS
 66
1
 70
0
  0
VERTEX
  8
2_FEATURE
 62
7
  6
CONTINUOUS
 10
142.7797091597
 20
222.8115365656
  0
VERTEX
  8
2_FEATURE
 62
7
  6
CONTINUOUS
 10
142.7161894712
 20
222.7999727114
  0
VERTEX
  8
2_FEATURE
 62
7
  6
CONTINUOUS
 10
142.6647497275
 20
222.7768660702
  0
VERTEX
  8
2_FEATURE
 62
7
  6
CONTINUOUS
 10
142.627692614
 20
222.7460135862
  0
VERTEX
  8
2_FEATURE
 62
7
  6
CONTINUOUS
 10
142.6057100575
 20
222.7106786472
  0
VERTEX
  8
2_FEATURE
 62
7
  6
CONTINUOUS
 10
142.5985655738
 20
222.6737492666
  0
SEQEND
  0
POLYLINE
  8
2_FEATURE
 62
7
  6
CONTINUOUS
 66
1
 70
0
  0
VERTEX
  8
2_FEATURE
 62
7
  6
CONTINUOUS
 10
142.7797091597
 20
222.8115365656
  0
VERTEX
  8
2_FEATURE
 62
7
  6
CONTINUOUS
 10
142.783708122
 20
222.8117527072
  0
VERTEX
  8
2_FEATURE
 62
7
  6
CONTINUOUS
 10
142.7877157836
 20
222.8118825616
  0
VERTEX
  8
2_FEATURE
 62
7
  6
CONTINUOUS
 10
142.7917308171
 20
222.811926541
  0
SEQEND
  0
LINE
  8
2_FEATURE
 62
7
  6
CONTINUOUS
 10
173.8588895266
 20
222.811926541
 11
142.7917308171
 21
222.811926541
  0
LINE
  8
2_FEATURE
 62
7
  6
CONTINUOUS
 10
86.188241621
 20
222.811926541
 11
117.2554003305
 21
222.811926541
  0
POLYLINE
  8
2_FEATURE
 62
7
  6
CONTINUOUS
 66
1
 70
0
  0
VERTEX
  8
2_FEATURE
 62
7
  6
CONTINUOUS
 10
117.2674219878
 20
222.8115365656
  0
VERTEX
  8
2_FEATURE
 62
7
  6
CONTINUOUS
 10
117.2634230255
 20
222.8117527072
  0
VERTEX
  8
2_FEATURE
 62
7
  6
CONTINUOUS
 10
117.259415364
 20
222.8118825616
  0
VERTEX
  8
2_FEATURE
 62
7
  6
CONTINUOUS
 10
117.2554003305
 20
222.811926541
  0
SEQEND
  0
POLYLINE
  8
2_FEATURE
 62
7
  6
CONTINUOUS
 66
1
 70
0
  0
VERTEX
  8
2_FEATURE
 62
7
  6
CONTINUOUS
 10
117.2674219878
 20
222.8115365656
  0
VERTEX
  8
2_FEATURE
 62
7
  6
CONTINUOUS
 10
117.3309416763
 20
222.7999727114
  0
VERTEX
  8
2_FEATURE
 62
7
  6
CONTINUOUS
 10
117.38238142
 20
222.7768660702
  0
VERTEX
  8
2_FEATURE
 62
7
  6
CONTINUOUS
 10
117.4194385335
 20
222.7460135862
  0
VERTEX
  8
2_FEATURE
 62
7
  6
CONTINUOUS
 10
117.44142109
 20
222.7106786472
  0
VERTEX
  8
2_FEATURE
 62
7
  6
CONTINUOUS
 10
117.4485655738
 20
222.6737492666
  0
SEQEND
  0
LINE
  8
2_FEATURE
 62
7
  6
CONTINUOUS
 10
85.8735655738
 20
223.321926541
 11
174.1735655738
 21
223.321926541
  0
LINE
  8
2_FEATURE
 62
7
  6
CONTINUOUS
 10
142.5985655738
 20
208.821926541
 11
142.5985655738
 21
222.821926541
  0
LINE
  8
2_FEATURE
 62
7
  6
CONTINUOUS
 10
145.5235655738
 20
207.621926541
 11
145.5235655738
 21
203.921926541
  0
LINE
  8
2_FEATURE
 62
7
  6
CONTINUOUS
 10
151.4735655738
 20
219.141926541
 11
151.4735655738
 21
207.8672955428
  0
LINE
  8
2_FEATURE
 62
7
  6
CONTINUOUS
 10
157.5235655738
 20
203.921926541
 11
157.5235655738
 21
206.921926541
  0
POLYLINE
  8
2_FEATURE
 62
7
  6
CONTINUOUS
 66
1
 70
0
  0
VERTEX
  8
2_FEATURE
 62
7
  6
CONTINUOUS
 10
174.4735655738
 20
222.4128027819
  0
VERTEX
  8
2_FEATURE
 62
7
  6
CONTINUOUS
 10
174.4672747963
 20
222.4718288391
  0
VERTEX
  8
2_FEATURE
 62
7
  6
CONTINUOUS
 10
174.4188204346
 20
222.5766337847
  0
VERTEX
  8
2_FEATURE
 62
7
  6
CONTINUOUS
 10
174.3272874734
 20
222.6627761833
  0
VERTEX
  8
2_FEATURE
 62
7
  6
CONTINUOUS
 10
174.2671268253
 20
222.6989111439
  0
VERTEX
  8
2_FEATURE
 62
7
  6
CONTINUOUS
 10
174.122835609
 20
222.7572474075
  0
VERTEX
  8
2_FEATURE
 62
7
  6
CONTINUOUS
 10
173.9515301008
 20
222.7980282771
  0
VERTEX
  8
2_FEATURE
 62
7
  6
CONTINUOUS
 10
173.8588895266
 20
222.811926541
  0
SEQEND
  0
LINE
  8
2_FEATURE
 62
7
  6
CONTINUOUS
 10
173.8588895266
 20
222.811926541
 11
173.8588895266
 21
222.8219265431
  0
LINE
  8
2_FEATURE
 62
7
  6
CONTINUOUS
 10
174.4735655738
 20
219.341926541
 11
174.4735655738
 21
223.021926541
  0
LINE
  8
2_FEATURE
 62
7
  6
CONTINUOUS
 10
85.5735655738
 20
129.062967541
 11
85.5735655738
 21
143.324509402
  0
LINE
  8
2_FEATURE
 62
7
  6
CONTINUOUS
 10
108.5735655738
 20
146.1045055673
 11
108.5735655738
 21
144.324509402
  0
LINE
  8
2_FEATURE
 62
7
  6
CONTINUOUS
 10
140.9050054059
 20
112.054509402
 11
119.1421257416
 21
112.054509402
  0
LINE
  8
2_FEATURE
 62
7
  6
CONTINUOUS
 10
116.9485655738
 20
138.954509402
 11
116.9485655738
 21
134.884509402
  0
LINE
  8
2_FEATURE
 62
7
  6
CONTINUOUS
 10
117.4485655738
 20
120.444509402
 11
117.4485655738
 21
124.9977566543
  0
LINE
  8
2_FEATURE
 62
7
  6
CONTINUOUS
 10
118.6482815716
 20
112.4762921695
 11
117.5101238708
 21
119.6623370768
  0
LINE
  8
DEFAULT_1
 62
2
  6
CENTER
 10
83.2185094783
 20
120.054509402
 11
176.8286216692
 21
120.054509402
  0
LINE
  8
2_FEATURE
 62
7
  6
CONTINUOUS
 10
115.060315077
 20
146.2423256315
 11
116.7548740535
 21
140.3326961811
  0
POLYLINE
  8
2_FEATURE
 62
7
  6
CONTINUOUS
 66
1
 70
0
  0
VERTEX
  8
2_FEATURE
 62
7
  6
CONTINUOUS
 10
108.5911172906
 20
144.3052399409
  0
VERTEX
  8
2_FEATURE
 62
7
  6
CONTINUOUS
 10
108.6365722872
 20
144.2540131173
  0
VERTEX
  8
2_FEATURE
 62
7
  6
CONTINUOUS
 10
108.6563018733
 20
144.2313563386
  0
VERTEX
  8
2_FEATURE
 62
7
  6
CONTINUOUS
 10
108.677895
 20
144.2060545522
  0
VERTEX
  8
2_FEATURE
 62
7
  6
CONTINUOUS
 10
108.7011432756
 20
144.1781893704
  0
VERTEX
  8
2_FEATURE
 62
7
  6
CONTINUOUS
 10
108.7258613898
 20
144.1478389727
  0
VERTEX
  8
2_FEATURE
 62
7
  6
CONTINUOUS
 10
108.7518826721
 20
144.1150787361
  0
VERTEX
  8
2_FEATURE
 62
7
  6
CONTINUOUS
 10
108.7653341426
 20
144.0978178461
  0
VERTEX
  8
2_FEATURE
 62
7
  6
CONTINUOUS
 10
108.7930300337
 20
144.0615793522
  0
VERTEX
  8
2_FEATURE
 62
7
  6
CONTINUOUS
 10
108.8216726425
 20
144.0231107127
  0
VERTEX
  8
2_FEATURE
 62
7
  6
CONTINUOUS
 10
108.8511369404
 20
143.9824818099
  0
VERTEX
  8
2_FEATURE
 62
7
  6
CONTINUOUS
 10
108.8813050213
 20
143.9397623123
  0
VERTEX
  8
2_FEATURE
 62
7
  6
CONTINUOUS
 10
108.9120647483
 20
143.8950221473
  0
VERTEX
  8
2_FEATURE
 62
7
  6
CONTINUOUS
 10
108.9433086416
 20
143.8483321807
  0
VERTEX
  8
2_FEATURE
 62
7
  6
CONTINUOUS
 10
108.9749333659
 20
143.7997651367
  0
VERTEX
  8
2_FEATURE
 62
7
  6
CONTINUOUS
 10
109.0068413746
 20
143.7493972924
  0
VERTEX
  8
2_FEATURE
 62
7
  6
CONTINUOUS
 10
109.0389577172
 20
143.6973159667
  0
VERTEX
  8
2_FEATURE
 62
7
  6
CONTINUOUS
 10
109.0735655738
 20
143.644509402
  0
SEQEND
  0
POLYLINE
  8
2_FEATURE
 62
7
  6
CONTINUOUS
 66
1
 70
0
  0
VERTEX
  8
2_FEATURE
 62
7
  6
CONTINUOUS
 10
108.5755843987
 20
144.324509402
  0
VERTEX
  8
2_FEATURE
 62
7
  6
CONTINUOUS
 10
108.5816050251
 20
144.3164260303
  0
VERTEX
  8
2_FEATURE
 62
7
  6
CONTINUOUS
 10
108.5911172906
 20
144.3052399409
  0
SEQEND
  0
LINE
  8
2_FEATURE
 62
7
  6
CONTINUOUS
 10
173.8588895266
 20
128.1401861739
 11
142.7797091597
 21
125.1968657591
  0
LINE
  8
2_FEATURE
 62
7
  6
CONTINUOUS
 10
86.188241621
 20
128.1401861739
 11
117.2674219878
 21
125.1968657591
  0
LINE
  8
DEFAULT_1
 62
2
  6
CENTER
 10
130.0235655738
 20
110.054509402
 11
130.0235655738
 21
148.604509402
  0
POLYLINE
  8
2_FEATURE
 62
7
  6
CONTINUOUS
 66
1
 70
0
  0
VERTEX
  8
2_FEATURE
 62
7
  6
CONTINUOUS
 10
151.4105588603
 20
144.2540131173
  0
VERTEX
  8
2_FEATURE
 62
7
  6
CONTINUOUS
 10
151.3908292742
 20
144.2313563386
  0
VERTEX
  8
2_FEATURE
 62
7
  6
CONTINUOUS
 10
151.3692361476
 20
144.2060545522
  0
VERTEX
  8
2_FEATURE
 62
7
  6
CONTINUOUS
 10
151.345987872
 20
144.1781893704
  0
VERTEX
  8
2_FEATURE
 62
7
  6
CONTINUOUS
 10
151.3212697577
 20
144.1478389727
  0
VERTEX
  8
2_FEATURE
 62
7
  6
CONTINUOUS
 10
151.2952484755
 20
144.1150787361
  0
VERTEX
  8
2_FEATURE
 62
7
  6
CONTINUOUS
 10
151.281797005
 20
144.0978178461
  0
VERTEX
  8
2_FEATURE
 62
7
  6
CONTINUOUS
 10
151.2541011139
 20
144.0615793522
  0
VERTEX
  8
2_FEATURE
 62
7
  6
CONTINUOUS
 10
151.225458505
 20
144.0231107127
  0
VERTEX
  8
2_FEATURE
 62
7
  6
CONTINUOUS
 10
151.1959942072
 20
143.9824818099
  0
VERTEX
  8
2_FEATURE
 62
7
  6
CONTINUOUS
 10
151.1658261262
 20
143.9397623123
  0
VERTEX
  8
2_FEATURE
 62
7
  6
CONTINUOUS
 10
151.1350663993
 20
143.8950221473
  0
VERTEX
  8
2_FEATURE
 62
7
  6
CONTINUOUS
 10
151.103822506
 20
143.8483321807
  0
VERTEX
  8
2_FEATURE
 62
7
  6
CONTINUOUS
 10
151.0721977817
 20
143.7997651367
  0
VERTEX
  8
2_FEATURE
 62
7
  6
CONTINUOUS
 10
151.0402897729
 20
143.7493972924
  0
VERTEX
  8
2_FEATURE
 62
7
  6
CONTINUOUS
 10
151.0081734303
 20
143.6973159667
  0
VERTEX
  8
2_FEATURE
 62
7
  6
CONTINUOUS
 10
150.9735655738
 20
143.644509402
  0
SEQEND
  0
LINE
  8
2_FEATURE
 62
7
  6
CONTINUOUS
 10
151.456013857
 20
144.3052399409
 11
151.4105588603
 21
144.2540131173
  0
LINE
  8
2_FEATURE
 62
7
  6
CONTINUOUS
 10
117.4485655738
 20
134.384509402
 11
142.5985655738
 21
134.384509402
  0
LINE
  8
2_FEATURE
 62
7
  6
CONTINUOUS
 10
144.9868160705
 20
146.2423256315
 11
143.2922570941
 21
140.3326961811
  0
POLYLINE
  8
2_FEATURE
 62
7
  6
CONTINUOUS
 66
1
 70
0
  0
VERTEX
  8
2_FEATURE
 62
7
  6
CONTINUOUS
 10
151.4715467489
 20
144.324509402
  0
VERTEX
  8
2_FEATURE
 62
7
  6
CONTINUOUS
 10
151.4655261224
 20
144.3164260303
  0
VERTEX
  8
2_FEATURE
 62
7
  6
CONTINUOUS
 10
151.456013857
 20
144.3052399409
  0
SEQEND
  0
LINE
  8
DEFAULT_1
 62
2
  6
CENTER
 10
78.3336147541
 20
139.141509402
 11
180.4555819672
 21
139.141509402
  0
LINE
  8
2_FEATURE
 62
7
  6
CONTINUOUS
 10
142.5985655738
 20
120.444509402
 11
142.5985655738
 21
124.9977566543
  0
LINE
  8
2_FEATURE
 62
7
  6
CONTINUOUS
 10
143.0985655738
 20
138.954509402
 11
143.0985655738
 21
134.884509402
  0
LINE
  8
2_FEATURE
 62
7
  6
CONTINUOUS
 10
143.1013441236
 20
139.1211760687
 11
143.0985655738
 21
138.954509402
  0
LINE
  8
2_FEATURE
 62
7
  6
CONTINUOUS
 10
141.398849576
 20
112.4762921695
 11
142.5370072767
 21
119.6623370768
  0
LINE
  8
2_FEATURE
 62
7
  6
CONTINUOUS
 10
174.204540391
 20
143.644509402
 11
150.9735655738
 21
143.644509402
  0
LINE
  8
2_FEATURE
 62
7
  6
CONTINUOUS
 10
85.8425907565
 20
143.644509402
 11
109.0735655738
 21
143.644509402
  0
LINE
  8
2_FEATURE
 62
7
  6
CONTINUOUS
 10
108.5755843987
 20
144.324509402
 11
86.5735655738
 21
144.324509402
  0
LINE
  8
2_FEATURE
 62
7
  6
CONTINUOUS
 10
151.4715467489
 20
144.324509402
 11
173.4735655738
 21
144.324509402
  0
LINE
  8
2_FEATURE
 62
7
  6
CONTINUOUS
 10
150.9735655738
 20
146.604509402
 11
145.4662690682
 21
146.604509402
  0
LINE
  8
2_FEATURE
 62
7
  6
CONTINUOUS
 10
114.5808620794
 20
146.604509402
 11
109.0735655738
 21
146.604509402
  0
LINE
  8
2_FEATURE
 62
7
  6
CONTINUOUS
 10
151.4735655738
 20
146.1045055673
 11
151.4735655738
 21
144.324509402
  0
LINE
  8
2_FEATURE
 62
7
  6
CONTINUOUS
 10
174.4735655738
 20
129.062967541
 11
174.4735655738
 21
143.324509402
  0
LINE
  8
2_FEATURE
 62
7
  6
CONTINUOUS
 10
286.8604511311
 20
140.7499576692
 11
295.2604511311
 21
145.5996999304
  0
LINE
  8
2_FEATURE
 62
7
  6
CONTINUOUS
 10
286.6104511311
 20
130.2932539895
 11
286.6104511311
 21
140.3169449673
  0
LINE
  8
DEFAULT_1
 62
2
  6
CENTER
 10
317.0015754098
 20
120.054509402
 11
301.0105511311
 21
120.054509402
  0
LINE
  8
0
 62
2
  6
CONTINUOUS
 10
300.0604511311
 20
120.054509402
 11
297.9604511311
 21
120.054509402
  0
LINE
  8
DEFAULT_1
 62
2
  6
CENTER
 10
280.3566442623
 20
120.054509402
 11
297.0103511311
 21
120.054509402
  0
POLYLINE
  8
2_FEATURE
 62
7
  6
CONTINUOUS
 66
1
 70
0
  0
VERTEX
  8
2_FEATURE
 62
7
  6
CONTINUOUS
 10
286.6104511311
 20
130.2932539895
  0
VERTEX
  8
2_FEATURE
 62
7
  6
CONTINUOUS
 10
286.6248391145
 20
130.1741701143
  0
VERTEX
  8
2_FEATURE
 62
7
  6
CONTINUOUS
 10
286.6673782862
 20
130.0615506142
  0
VERTEX
  8
2_FEATURE
 62
7
  6
CONTINUOUS
 10
286.7362247206
 20
129.9616599702
  0
VERTEX
  8
2_FEATURE
 62
7
  6
CONTINUOUS
 10
286.7795387961
 20
129.9184246596
  0
VERTEX
  8
2_FEATURE
 62
7
  6
CONTINUOUS
 10
286.8810909581
 20
129.8489636441
  0
VERTEX
  8
2_FEATURE
 62
7
  6
CONTINUOUS
 10
286.9975445005
 20
129.8061686862
  0
SEQEND
  0
POLYLINE
  8
2_FEATURE
 62
7
  6
CONTINUOUS
 66
1
 70
0
  0
VERTEX
  8
2_FEATURE
 62
7
  6
CONTINUOUS
 10
290.6094343712
 20
138.5767270958
  0
VERTEX
  8
2_FEATURE
 62
7
  6
CONTINUOUS
 10
290.609999368
 20
138.5551345757
  0
VERTEX
  8
2_FEATURE
 62
7
  6
CONTINUOUS
 10
290.6103382166
 20
138.5335452102
  0
VERTEX
  8
2_FEATURE
 62
7
  6
CONTINUOUS
 10
290.6104511311
 20
138.5119590446
  0
SEQEND
  0
LINE
  8
2_FEATURE
 62
7
  6
CONTINUOUS
 10
290.6104511311
 20
138.5119590446
 11
290.6104511311
 21
133.0914764238
  0
LINE
  8
2_FEATURE
 62
7
  6
CONTINUOUS
 10
302.6724370871
 20
142.4720287096
 11
302.822292025
 21
142.604509402
  0
LINE
  8
2_FEATURE
 62
7
  6
CONTINUOUS
 10
291.5104511311
 20
129.737732517
 11
291.5104511311
 21
119.554509402
  0
POLYLINE
  8
2_FEATURE
 62
7
  6
CONTINUOUS
 66
1
 70
0
  0
VERTEX
  8
2_FEATURE
 62
7
  6
CONTINUOUS
 10
295.3004511311
 20
118.685982649
  0
VERTEX
  8
2_FEATURE
 62
7
  6
CONTINUOUS
 10
295.3637329874
 20
118.0111482928
  0
VERTEX
  8
2_FEATURE
 62
7
  6
CONTINUOUS
 10
295.5513524894
 20
117.3595069291
  0
VERTEX
  8
2_FEATURE
 62
7
  6
CONTINUOUS
 10
295.8568246834
 20
116.7532331075
  0
VERTEX
  8
2_FEATURE
 62
7
  6
CONTINUOUS
 10
296.2696574653
 20
116.2129479038
  0
VERTEX
  8
2_FEATURE
 62
7
  6
CONTINUOUS
 10
296.7757131026
 20
115.7570023196
  0
VERTEX
  8
2_FEATURE
 62
7
  6
CONTINUOUS
 10
297.3577099062
 20
115.4008462745
  0
VERTEX
  8
2_FEATURE
 62
7
  6
CONTINUOUS
 10
297.9958259949
 20
115.1565184107
  0
VERTEX
  8
2_FEATURE
 62
7
  6
CONTINUOUS
 10
298.6683743409
 20
115.032261116
  0
VERTEX
  8
2_FEATURE
 62
7
  6
CONTINUOUS
 10
299.3525279213
 20
115.032261116
  0
VERTEX
  8
2_FEATURE
 62
7
  6
CONTINUOUS
 10
300.0250762673
 20
115.1565184107
  0
VERTEX
  8
2_FEATURE
 62
7
  6
CONTINUOUS
 10
300.663192356
 20
115.4008462745
  0
VERTEX
  8
2_FEATURE
 62
7
  6
CONTINUOUS
 10
301.2451891596
 20
115.7570023196
  0
VERTEX
  8
2_FEATURE
 62
7
  6
CONTINUOUS
 10
301.7512447969
 20
116.2129479038
  0
VERTEX
  8
2_FEATURE
 62
7
  6
CONTINUOUS
 10
302.1640775788
 20
116.7532331075
  0
VERTEX
  8
2_FEATURE
 62
7
  6
CONTINUOUS
 10
302.4695497728
 20
117.3595069291
  0
VERTEX
  8
2_FEATURE
 62
7
  6
CONTINUOUS
 10
302.6571692748
 20
118.0111482928
  0
VERTEX
  8
2_FEATURE
 62
7
  6
CONTINUOUS
 10
302.7204511311
 20
118.685982649
  0
SEQEND
  0
LINE
  8
2_FEATURE
 62
7
  6
CONTINUOUS
 10
295.3004511311
 20
118.685982649
 11
295.3004511311
 21
121.2305077485
  0
LINE
  8
2_FEATURE
 62
7
  6
CONTINUOUS
 10
306.0004511311
 20
128.1401861739
 11
306.0104511333
 21
128.1401861739
  0
POLYLINE
  8
2_FEATURE
 62
7
  6
CONTINUOUS
 66
1
 70
0
  0
VERTEX
  8
2_FEATURE
 62
7
  6
CONTINUOUS
 10
295.3004511311
 20
120.1303378047
  0
VERTEX
  8
2_FEATURE
 62
7
  6
CONTINUOUS
 10
295.3441339607
 20
120.7001489591
  0
VERTEX
  8
2_FEATURE
 62
7
  6
CONTINUOUS
 10
295.4741162281
 20
121.256422994
  0
VERTEX
  8
2_FEATURE
 62
7
  6
CONTINUOUS
 10
295.6872331109
 20
121.78597788
  0
VERTEX
  8
2_FEATURE
 62
7
  6
CONTINUOUS
 10
295.9783200982
 20
122.2763255842
  0
VERTEX
  8
2_FEATURE
 62
7
  6
CONTINUOUS
 10
296.3403693968
 20
122.7159804286
  0
VERTEX
  8
2_FEATURE
 62
7
  6
CONTINUOUS
 10
296.7647326983
 20
123.0947265138
  0
VERTEX
  8
2_FEATURE
 62
7
  6
CONTINUOUS
 10
297.2413575014
 20
123.4038384259
  0
VERTEX
  8
2_FEATURE
 62
7
  6
CONTINUOUS
 10
297.7590445075
 20
123.6362540652
  0
VERTEX
  8
2_FEATURE
 62
7
  6
CONTINUOUS
 10
298.3057156552
 20
123.7867021858
  0
VERTEX
  8
2_FEATURE
 62
7
  6
CONTINUOUS
 10
298.8686854109
 20
123.8517895019
  0
VERTEX
  8
2_FEATURE
 62
7
  6
CONTINUOUS
 10
299.1522186212
 20
123.851789434
  0
VERTEX
  8
2_FEATURE
 62
7
  6
CONTINUOUS
 10
299.715188284
 20
123.7867018601
  0
VERTEX
  8
2_FEATURE
 62
7
  6
CONTINUOUS
 10
300.2618592307
 20
123.6362535343
  0
VERTEX
  8
2_FEATURE
 62
7
  6
CONTINUOUS
 10
300.7795459591
 20
123.4038377734
  0
VERTEX
  8
2_FEATURE
 62
7
  6
CONTINUOUS
 10
301.2561704507
 20
123.0947258369
  0
VERTEX
  8
2_FEATURE
 62
7
  6
CONTINUOUS
 10
301.6805334517
 20
122.7159798185
  0
VERTEX
  8
2_FEATURE
 62
7
  6
CONTINUOUS
 10
302.042582498
 20
122.2763251087
  0
VERTEX
  8
2_FEATURE
 62
7
  6
CONTINUOUS
 10
302.3336693042
 20
121.7859775709
  0
VERTEX
  8
2_FEATURE
 62
7
  6
CONTINUOUS
 10
302.5467860821
 20
121.2564228422
  0
VERTEX
  8
2_FEATURE
 62
7
  6
CONTINUOUS
 10
302.6767683077
 20
120.700148919
  0
VERTEX
  8
2_FEATURE
 62
7
  6
CONTINUOUS
 10
302.7204511311
 20
120.1303378047
  0
SEQEND
  0
LINE
  8
2_FEATURE
 62
7
  6
CONTINUOUS
 10
286.9975445005
 20
129.8061686862
 11
287.1104511311
 21
129.7932539916
  0
POLYLINE
  8
2_FEATURE
 62
7
  6
CONTINUOUS
 66
1
 70
0
  0
VERTEX
  8
2_FEATURE
 62
7
  6
CONTINUOUS
 10
301.536098156
 20
141.424509402
  0
VERTEX
  8
2_FEATURE
 62
7
  6
CONTINUOUS
 10
301.504961259
 20
141.3155255575
  0
VERTEX
  8
2_FEATURE
 62
7
  6
CONTINUOUS
 10
301.4746461482
 20
141.2112093624
  0
VERTEX
  8
2_FEATURE
 62
7
  6
CONTINUOUS
 10
301.4467262071
 20
141.1166984798
  0
SEQEND
  0
LINE
  8
2_FEATURE
 62
7
  6
CONTINUOUS
 10
301.4467262071
 20
141.1166984798
 11
301.4043037164
 21
140.9759648179
  0
LINE
  8
2_FEATURE
 62
7
  6
CONTINUOUS
 10
301.4043037164
 20
140.9759648179
 11
301.3885269588
 21
140.924509402
  0
LINE
  8
2_FEATURE
 62
7
  6
CONTINUOUS
 10
287.1104511311
 20
129.7932539895
 11
290.8104511311
 21
129.7932539895
  0
POLYLINE
  8
2_FEATURE
 62
7
  6
CONTINUOUS
 66
1
 70
0
  0
VERTEX
  8
2_FEATURE
 62
7
  6
CONTINUOUS
 10
290.8104511311
 20
129.7932542442
  0
VERTEX
  8
2_FEATURE
 62
7
  6
CONTINUOUS
 10
290.9945872641
 20
129.7899333992
  0
VERTEX
  8
2_FEATURE
 62
7
  6
CONTINUOUS
 10
291.1735121336
 20
129.7800327547
  0
VERTEX
  8
2_FEATURE
 62
7
  6
CONTINUOUS
 10
291.3258959682
 20
129.7656205387
  0
VERTEX
  8
2_FEATURE
 62
7
  6
CONTINUOUS
 10
291.4516803733
 20
129.7484843414
  0
VERTEX
  8
2_FEATURE
 62
7
  6
CONTINUOUS
 10
291.5513103322
 20
129.7302575248
  0
VERTEX
  8
2_FEATURE
 62
7
  6
CONTINUOUS
 10
291.6249614472
 20
129.7127156191
  0
VERTEX
  8
2_FEATURE
 62
7
  6
CONTINUOUS
 10
291.6718413715
 20
129.6983434206
  0
VERTEX
  8
2_FEATURE
 62
7
  6
CONTINUOUS
 10
291.688447598
 20
129.6919821338
  0
SEQEND
  0
LINE
  8
0
 62
2
  6
CONTINUOUS
 10
299.0104511311
 20
140.191509402
 11
299.0104511311
 21
138.091509402
  0
LINE
  8
DEFAULT_1
 62
2
  6
CENTER
 10
299.0104511311
 20
133.891509402
 11
299.0104511311
 21
131.991509402
  0
LINE
  8
DEFAULT_1
 62
2
  6
CENTER
 10
299.0104511311
 20
125.304509402
 11
299.0104511311
 21
122.054609402
  0
LINE
  8
0
 62
2
  6
CONTINUOUS
 10
299.0104511311
 20
121.104509402
 11
299.0104511311
 21
119.004509402
  0
LINE
  8
DEFAULT_1
 62
2
  6
CENTER
 10
299.0104511311
 20
103.3181557377
 11
299.0104511311
 21
118.054409402
  0
LINE
  8
DEFAULT_1
 62
2
  6
CENTER
 10
299.0104511311
 20
144.391509402
 11
299.0104511311
 21
146.291509402
  0
POLYLINE
  8
2_FEATURE
 62
7
  6
CONTINUOUS
 66
1
 70
0
  0
VERTEX
  8
2_FEATURE
 62
7
  6
CONTINUOUS
 10
296.5039434928
 20
141.424509402
  0
VERTEX
  8
2_FEATURE
 62
7
  6
CONTINUOUS
 10
296.5348147263
 20
141.315487216
  0
VERTEX
  8
2_FEATURE
 62
7
  6
CONTINUOUS
 10
296.5648683022
 20
141.2111477051
  0
VERTEX
  8
2_FEATURE
 62
7
  6
CONTINUOUS
 10
296.5925436446
 20
141.1166312469
  0
VERTEX
  8
2_FEATURE
 62
7
  6
CONTINUOUS
 10
296.6162742867
 20
141.0367826538
  0
VERTEX
  8
2_FEATURE
 62
7
  6
CONTINUOUS
 10
296.6502116273
 20
140.924509402
  0
SEQEND
  0
POLYLINE
  8
2_FEATURE
 62
7
  6
CONTINUOUS
 66
1
 70
0
  0
VERTEX
  8
2_FEATURE
 62
7
  6
CONTINUOUS
 10
302.7204511311
 20
121.2305077485
  0
VERTEX
  8
2_FEATURE
 62
7
  6
CONTINUOUS
 10
302.6569865528
 20
121.9164035407
  0
VERTEX
  8
2_FEATURE
 62
7
  6
CONTINUOUS
 10
302.468878692
 20
122.5785368089
  0
VERTEX
  8
2_FEATURE
 62
7
  6
CONTINUOUS
 10
302.1627770659
 20
123.1942372685
  0
VERTEX
  8
2_FEATURE
 62
7
  6
CONTINUOUS
 10
301.7493935176
 20
123.7425244431
  0
VERTEX
  8
2_FEATURE
 62
7
  6
CONTINUOUS
 10
301.2430723071
 20
124.2048485723
  0
VERTEX
  8
2_FEATURE
 62
7
  6
CONTINUOUS
 10
300.661224012
 20
124.565705601
  0
VERTEX
  8
2_FEATURE
 62
7
  6
CONTINUOUS
 10
300.0236822319
 20
124.8130988036
  0
VERTEX
  8
2_FEATURE
 62
7
  6
CONTINUOUS
 10
299.3520244142
 20
124.9388616606
  0
VERTEX
  8
2_FEATURE
 62
7
  6
CONTINUOUS
 10
298.668877848
 20
124.9388616606
  0
VERTEX
  8
2_FEATURE
 62
7
  6
CONTINUOUS
 10
297.9972200303
 20
124.8130988036
  0
VERTEX
  8
2_FEATURE
 62
7
  6
CONTINUOUS
 10
297.3596782502
 20
124.565705601
  0
VERTEX
  8
2_FEATURE
 62
7
  6
CONTINUOUS
 10
296.7778299551
 20
124.2048485723
  0
VERTEX
  8
2_FEATURE
 62
7
  6
CONTINUOUS
 10
296.2715087446
 20
123.7425244431
  0
VERTEX
  8
2_FEATURE
 62
7
  6
CONTINUOUS
 10
295.8581251963
 20
123.1942372685
  0
VERTEX
  8
2_FEATURE
 62
7
  6
CONTINUOUS
 10
295.5520235702
 20
122.5785368089
  0
VERTEX
  8
2_FEATURE
 62
7
  6
CONTINUOUS
 10
295.3639157094
 20
121.9164035407
  0
VERTEX
  8
2_FEATURE
 62
7
  6
CONTINUOUS
 10
295.3004511311
 20
121.2305077485
  0
SEQEND
  0
LINE
  8
2_FEATURE
 62
7
  6
CONTINUOUS
 10
302.5304511311
 20
135.1713582714
 11
302.5304511311
 21
129.8362869091
  0
LINE
  8
2_FEATURE
 62
7
  6
CONTINUOUS
 10
302.7204511311
 20
118.685982649
 11
302.7204511311
 21
121.2305077485
  0
POLYLINE
  8
2_FEATURE
 62
7
  6
CONTINUOUS
 66
1
 70
0
  0
VERTEX
  8
2_FEATURE
 62
7
  6
CONTINUOUS
 10
302.7792011311
 20
131.9811405567
  0
VERTEX
  8
2_FEATURE
 62
7
  6
CONTINUOUS
 10
303.5364837462
 20
131.4749436571
  0
VERTEX
  8
2_FEATURE
 62
7
  6
CONTINUOUS
 10
304.227719169
 20
130.8798660069
  0
VERTEX
  8
2_FEATURE
 62
7
  6
CONTINUOUS
 10
304.545261439
 20
130.5516566746
  0
VERTEX
  8
2_FEATURE
 62
7
  6
CONTINUOUS
 10
305.1182394341
 20
129.8398496462
  0
VERTEX
  8
2_FEATURE
 62
7
  6
CONTINUOUS
 10
305.6013273721
 20
129.062967541
  0
SEQEND
  0
POLYLINE
  8
2_FEATURE
 62
7
  6
CONTINUOUS
 66
1
 70
0
  0
VERTEX
  8
2_FEATURE
 62
7
  6
CONTINUOUS
 10
302.7792011311
 20
131.9811405567
  0
VERTEX
  8
2_FEATURE
 62
7
  6
CONTINUOUS
 10
302.676233061
 20
132.060896975
  0
VERTEX
  8
2_FEATURE
 62
7
  6
CONTINUOUS
 10
302.5972112826
 20
132.1646403996
  0
VERTEX
  8
2_FEATURE
 62
7
  6
CONTINUOUS
 10
302.5474631818
 20
132.2854687336
  0
VERTEX
  8
2_FEATURE
 62
7
  6
CONTINUOUS
 10
302.5304511311
 20
132.4153633962
  0
SEQEND
  0
POLYLINE
  8
2_FEATURE
 62
7
  6
CONTINUOUS
 66
1
 70
0
  0
VERTEX
  8
2_FEATURE
 62
7
  6
CONTINUOUS
 10
302.7204511311
 20
119.9849451192
  0
VERTEX
  8
2_FEATURE
 62
7
  6
CONTINUOUS
 10
302.6766784756
 20
119.4135924704
  0
VERTEX
  8
2_FEATURE
 62
7
  6
CONTINUOUS
 10
302.5464476446
 20
118.8558937895
  0
VERTEX
  8
2_FEATURE
 62
7
  6
CONTINUOUS
 10
302.3329817257
 20
118.3251282494
  0
VERTEX
  8
2_FEATURE
 62
7
  6
CONTINUOUS
 10
302.0415283746
 20
117.8338456864
  0
VERTEX
  8
2_FEATURE
 62
7
  6
CONTINUOUS
 10
301.6791856654
 20
117.393549933
  0
VERTEX
  8
2_FEATURE
 62
7
  6
CONTINUOUS
 10
301.2546801381
 20
117.0144319672
  0
VERTEX
  8
2_FEATURE
 62
7
  6
CONTINUOUS
 10
300.7781138967
 20
116.7051583132
  0
VERTEX
  8
2_FEATURE
 62
7
  6
CONTINUOUS
 10
300.2606966531
 20
116.472713747
  0
VERTEX
  8
2_FEATURE
 62
7
  6
CONTINUOUS
 10
299.7144752253
 20
116.3222923484
  0
VERTEX
  8
2_FEATURE
 62
7
  6
CONTINUOUS
 10
299.1520682955
 20
116.2572281679
  0
VERTEX
  8
2_FEATURE
 62
7
  6
CONTINUOUS
 10
298.8688314234
 20
116.2572282656
  0
VERTEX
  8
2_FEATURE
 62
7
  6
CONTINUOUS
 10
298.3064246278
 20
116.3222928166
  0
VERTEX
  8
2_FEATURE
 62
7
  6
CONTINUOUS
 10
297.7602034898
 20
116.4727145097
  0
VERTEX
  8
2_FEATURE
 62
7
  6
CONTINUOUS
 10
297.2427866465
 20
116.7051592499
  0
VERTEX
  8
2_FEATURE
 62
7
  6
CONTINUOUS
 10
296.7662208533
 20
117.0144329379
  0
VERTEX
  8
2_FEATURE
 62
7
  6
CONTINUOUS
 10
296.3417157576
 20
117.3935508068
  0
VERTEX
  8
2_FEATURE
 62
7
  6
CONTINUOUS
 10
295.9793734102
 20
117.8338463666
  0
VERTEX
  8
2_FEATURE
 62
7
  6
CONTINUOUS
 10
295.6879203183
 20
118.3251286911
  0
VERTEX
  8
2_FEATURE
 62
7
  6
CONTINUOUS
 10
295.4744545492
 20
118.8558940063
  0
VERTEX
  8
2_FEATURE
 62
7
  6
CONTINUOUS
 10
295.3442237778
 20
119.4135925277
  0
VERTEX
  8
2_FEATURE
 62
7
  6
CONTINUOUS
 10
295.3004511311
 20
119.9849451192
  0
SEQEND
  0
POLYLINE
  8
2_FEATURE
 62
7
  6
CONTINUOUS
 66
1
 70
0
  0
VERTEX
  8
2_FEATURE
 62
7
  6
CONTINUOUS
 10
305.6013273721
 20
129.062967541
  0
VERTEX
  8
2_FEATURE
 62
7
  6
CONTINUOUS
 10
305.6603534293
 20
128.9509765546
  0
VERTEX
  8
2_FEATURE
 62
7
  6
CONTINUOUS
 10
305.7651583748
 20
128.7366345086
  0
VERTEX
  8
2_FEATURE
 62
7
  6
CONTINUOUS
 10
305.8513007735
 20
128.5422383234
  0
VERTEX
  8
2_FEATURE
 62
7
  6
CONTINUOUS
 10
305.8874357341
 20
128.454477163
  0
VERTEX
  8
2_FEATURE
 62
7
  6
CONTINUOUS
 10
305.9457719976
 20
128.3024095738
  0
VERTEX
  8
2_FEATURE
 62
7
  6
CONTINUOUS
 10
305.9865528672
 20
128.1845884025
  0
VERTEX
  8
2_FEATURE
 62
7
  6
CONTINUOUS
 10
306.0004511311
 20
128.1401861739
  0
SEQEND
  0
LINE
  8
2_FEATURE
 62
7
  6
CONTINUOUS
 10
306.0004511311
 20
128.1401861739
 11
306.0004511311
 21
125.1980042573
  0
LINE
  8
2_FEATURE
 62
7
  6
CONTINUOUS
 10
303.1805601555
 20
138.8171233821
 11
302.6784314684
 21
138.8073221788
  0
LINE
  8
2_FEATURE
 62
7
  6
CONTINUOUS
 10
294.8447047452
 20
138.7596078963
 11
295.3468624814
 21
138.7573520813
  0
LINE
  8
2_FEATURE
 62
7
  6
CONTINUOUS
 10
306.5104511311
 20
119.554509402
 11
306.5104511311
 21
139.104509402
  0
POLYLINE
  8
2_FEATURE
 62
7
  6
CONTINUOUS
 66
1
 70
0
  0
VERTEX
  8
2_FEATURE
 62
7
  6
CONTINUOUS
 10
306.0000611558
 20
125.1968657591
  0
VERTEX
  8
2_FEATURE
 62
7
  6
CONTINUOUS
 10
306.0002772973
 20
125.1972444766
  0
VERTEX
  8
2_FEATURE
 62
7
  6
CONTINUOUS
 10
306.0004071518
 20
125.1976240179
  0
VERTEX
  8
2_FEATURE
 62
7
  6
CONTINUOUS
 10
306.0004511311
 20
125.1980042573
  0
SEQEND
  0
LINE
  8
2_FEATURE
 62
7
  6
CONTINUOUS
 10
306.0000611558
 20
125.1968657591
 11
305.9345381764
 21
125.1016914012
  0
LINE
  8
2_FEATURE
 62
7
  6
CONTINUOUS
 10
305.9345381764
 20
125.1016914012
 11
305.8622738568
 21
124.9977566543
  0
LINE
  8
0
 62
2
  6
CONTINUOUS
 10
300.0604511311
 20
139.141509402
 11
297.9604511311
 21
139.141509402
  0
LINE
  8
DEFAULT_1
 62
2
  6
CENTER
 10
293.7604511311
 20
139.141509402
 11
291.8604511311
 21
139.141509402
  0
LINE
  8
DEFAULT_1
 62
2
  6
CENTER
 10
304.2604511311
 20
139.141509402
 11
306.1604511311
 21
139.141509402
  0
LINE
  8
2_FEATURE
 62
7
  6
CONTINUOUS
 10
301.3885269588
 20
140.924509402
 11
296.6502116273
 21
140.924509402
  0
LINE
  8
2_FEATURE
 62
7
  6
CONTINUOUS
 10
302.6967830599
 20
144.324509402
 11
303.7414148981
 21
144.324509402
  0
ARC
  8
2_FEATURE
 62
7
  6
CONTINUOUS
 10
103.0235655738
 20
203.921926541
 40
0.5
 50
180.0
 51
270.0
  0
ARC
  8
2_FEATURE
 62
7
  6
CONTINUOUS
 10
103.0235655738
 20
206.921926419
 40
0.5
 50
90.0
 51
179.9999860195
  0
ARC
  8
2_FEATURE
 62
7
  6
CONTINUOUS
 10
108.0735655738
 20
207.921926541
 40
0.5
 50
270.0
 51
359.5246439039
  0
ARC
  8
2_FEATURE
 62
7
  6
CONTINUOUS
 10
114.0235655738
 20
203.921926541
 40
0.5
 50
270.0
 51
360.0
  0
ARC
  8
2_FEATURE
 62
7
  6
CONTINUOUS
 10
115.2235655738
 20
207.621926541
 40
0.7
 50
90.0
 51
180.0
  0
ARC
  8
2_FEATURE
 62
7
  6
CONTINUOUS
 10
117.9485655738
 20
208.821926541
 40
0.5
 50
180.0
 51
270.0
  0
ARC
  8
2_FEATURE
 62
7
  6
CONTINUOUS
 10
117.9485655738
 20
222.821926541
 40
0.5
 50
90.0
 51
180.0
  0
ARC
  8
2_FEATURE
 62
7
  6
CONTINUOUS
 10
85.8735655738
 20
223.021926541
 40
0.3
 50
90.0
 51
180.0
  0
ARC
  8
2_FEATURE
 62
7
  6
CONTINUOUS
 10
108.3735655738
 20
219.141926541
 40
0.2
 50
0.0
 51
90.0
  0
ARC
  8
2_FEATURE
 62
7
  6
CONTINUOUS
 10
146.0235655738
 20
203.921926541
 40
0.5
 50
180.0
 51
270.0
  0
ARC
  8
2_FEATURE
 62
7
  6
CONTINUOUS
 10
144.8235655738
 20
207.621926541
 40
0.7
 50
0.0
 51
90.0
  0
ARC
  8
2_FEATURE
 62
7
  6
CONTINUOUS
 10
142.0985655738
 20
208.821926541
 40
0.5
 50
270.0
 51
360.0
  0
ARC
  8
2_FEATURE
 62
7
  6
CONTINUOUS
 10
157.0235655738
 20
203.921926541
 40
0.5
 50
270.0
 51
360.0
  0
ARC
  8
2_FEATURE
 62
7
  6
CONTINUOUS
 10
151.9735655738
 20
207.921926541
 40
0.5
 50
180.4753560961
 51
270.0
  0
ARC
  8
2_FEATURE
 62
7
  6
CONTINUOUS
 10
157.0235655738
 20
206.921926541
 40
0.5
 50
0.0
 51
90.0
  0
ARC
  8
2_FEATURE
 62
7
  6
CONTINUOUS
 10
142.0985655738
 20
222.821926541
 40
0.5
 50
0.0
 51
90.0
  0
ARC
  8
2_FEATURE
 62
7
  6
CONTINUOUS
 10
174.1735655738
 20
223.021926541
 40
0.3
 50
0.0
 51
90.0
  0
ARC
  8
2_FEATURE
 62
7
  6
CONTINUOUS
 10
151.6735655738
 20
219.141926541
 40
0.2
 50
90.0
 51
180.0
  0
ARC
  8
2_FEATURE
 62
7
  6
CONTINUOUS
 10
122.4485655738
 20
120.444509402
 40
5.0
 50
180.0
 51
189.0
  0
ARC
  8
2_FEATURE
 62
7
  6
CONTINUOUS
 10
86.5735655738
 20
129.062967541
 40
1.0
 50
180.0
 51
247.3361468826
  0
ARC
  8
2_FEATURE
 62
7
  6
CONTINUOUS
 10
119.1421257419
 20
112.554509402
 40
0.5
 50
189.0
 51
270.0
  0
ARC
  8
2_FEATURE
 62
7
  6
CONTINUOUS
 10
117.2485655738
 20
124.9977566543
 40
0.2
 50
0.0
 51
84.59
  0
ARC
  8
2_FEATURE
 62
7
  6
CONTINUOUS
 10
111.9485655738
 20
138.954509402
 40
5.0
 50
0.0
 51
16.0
  0
ARC
  8
2_FEATURE
 62
7
  6
CONTINUOUS
 10
86.5735655738
 20
143.324509402
 40
1.0
 50
90.0
 51
180.0
  0
ARC
  8
2_FEATURE
 62
7
  6
CONTINUOUS
 10
109.0735655738
 20
146.104509402
 40
0.5
 50
90.0
 51
180.0
  0
ARC
  8
2_FEATURE
 62
7
  6
CONTINUOUS
 10
114.5796836833
 20
146.104508857
 40
0.5
 50
15.9999999999
 51
89.9999959811
  0
ARC
  8
2_FEATURE
 62
7
  6
CONTINUOUS
 10
117.4485655738
 20
134.884509402
 40
0.5
 50
180.0
 51
270.0
  0
ARC
  8
2_FEATURE
 62
7
  6
CONTINUOUS
 10
137.5985655738
 20
120.444509402
 40
5.0
 50
351.0
 51
360.0
  0
ARC
  8
2_FEATURE
 62
7
  6
CONTINUOUS
 10
173.4735655738
 20
129.062967541
 40
1.0
 50
292.6638531174
 51
360.0
  0
ARC
  8
2_FEATURE
 62
7
  6
CONTINUOUS
 10
140.9050054057
 20
112.554509402
 40
0.5
 50
270.0
 51
351.0
  0
ARC
  8
2_FEATURE
 62
7
  6
CONTINUOUS
 10
142.7985655738
 20
124.9977566543
 40
0.2
 50
95.41
 51
180.0
  0
ARC
  8
2_FEATURE
 62
7
  6
CONTINUOUS
 10
148.0985655738
 20
138.954509402
 40
5.0
 50
164.0
 51
180.0
  0
ARC
  8
2_FEATURE
 62
7
  6
CONTINUOUS
 10
173.4735655738
 20
143.324509402
 40
1.0
 50
0.0
 51
90.0
  0
ARC
  8
2_FEATURE
 62
7
  6
CONTINUOUS
 10
150.9735655738
 20
146.104509402
 40
0.5
 50
0.0
 51
90.0
  0
ARC
  8
2_FEATURE
 62
7
  6
CONTINUOUS
 10
145.4674474643
 20
146.104508857
 40
0.5
 50
90.0000040189
 51
164.0000000001
  0
ARC
  8
2_FEATURE
 62
7
  6
CONTINUOUS
 10
142.5985655738
 20
134.884509402
 40
0.5
 50
270.0
 51
360.0
  0
ARC
  8
2_FEATURE
 62
7
  6
CONTINUOUS
 10
287.1104511311
 20
140.3169449673
 40
0.5
 50
120.0
 51
180.0
  0
ARC
  8
2_FEATURE
 62
7
  6
CONTINUOUS
 10
299.0104511311
 20
119.554509402
 40
7.5
 50
180.0
 51
360.0
  0
ARC
  8
2_FEATURE
 62
7
  6
CONTINUOUS
 10
298.3204511311
 20
138.444509402
 40
2.99
 50
123.9596228214
 51
173.9941699644
  0
ARC
  8
2_FEATURE
 62
7
  6
CONTINUOUS
 10
299.7004511311
 20
138.444509402
 40
3.0
 50
6.9462167689
 51
55.7578312974
  0
ARC
  8
2_FEATURE
 62
7
  6
CONTINUOUS
 10
299.0104511311
 20
139.104509402
 40
7.5
 50
0.0
 51
120.0
  0
ARC
  8
2_FEATURE
 62
7
  6
CONTINUOUS
 10
299.0104511311
 20
139.141509402
 40
5.15
 50
315.3574516585
 51
42.2546735916
  0
ARC
  8
2_FEATURE
 62
7
  6
CONTINUOUS
 10
299.0104511311
 20
139.104509402
 40
3.68
 50
185.41311693
 51
355.36789771
  0
ARC
  8
2_FEATURE
 62
7
  6
CONTINUOUS
 10
303.0304511311
 20
135.1713582714
 40
0.5
 50
135.3574516585
 51
180.0
  0
ARC
  8
2_FEATURE
 62
7
  6
CONTINUOUS
 10
303.5904511311
 20
142.5810330067
 40
1.75
 50
37.4234406716
 51
85.0512281941
  0
ARC
  8
2_FEATURE
 62
7
  6
CONTINUOUS
 10
303.7315796582
 20
143.384509402
 40
1.198
 50
128.3125063401
 51
220.6234669706
  0
ENDSEC
  0
EOF
