  0
SECTION
  2
HEADER
  9
$EXTMAX
 10
420.0
 20
297.0
 30
0.0
  9
$EXTMIN
 10
0.0
 20
0.0
 30
0.0
  9
$LIMMIN
 10
0.0
 20
0.0
  9
$LIMMAX
 10
420.0
 20
297.0
  9
$VIEWCTR
 10
210.0
 20
148.5
  9
$VIEWSIZE
 40
297.0
  9
$CLAYER
  8
0
  9
$LTSCALE
 40
23.1
  9
$CELTYPE
  6
BYLAYER
  9
$DIMSCALE
 40
1.0
  9
$DIMASZ
 40
3.5
  9
$DIMEXO
 40
1.0
  9
$DIMDLI
 40
15.96
  9
$DIMEXE
 40
2.0
  9
$DIMCEN
 40
3.78
  9
$DIMLFAC
 40
1.0
  9
$DIMBLK
  1
_FILLED
  9
$DIMTXT
 40
3.5
  9
$PDMODE
 70
3
  9
$PDSIZE
 40
0.3125
  9
$TILEMODE
 70
1
  0
ENDSEC
  0
SECTION
  2
TABLES
  0
TABLE
  2
LTYPE
 70
6
  0
LTYPE
  2
BYBLOCK
 70
0
  3

 72
65
 73
0
 40
0.0
  0
LTYPE
  2
BYLAYER
 70
0
  3

 72
65
 73
0
 40
0.0
  0
LTYPE
  2
CONTINUOUS
 70
64
  3
Solid line
 72
65
 73
0
 40
0.0
  0
LTYPE
  2
CENTER
 70
64
  3
____ _ ____ _ ____ _ ____ _ ____ _ ____ _ ____
 72
65
 73
4
 40
0.6
 49
0.375
 49
-0.075
 49
0.075
 49
-0.075
  0
LTYPE
  2
HIDDEN
 70
64
  3
- - - - - - - - - - - - - - - - - - - -
 72
65
 73
2
 40
0.2
 49
0.1
 49
-0.1
  0
LTYPE
  2
PHANTOM
 70
64
  3
_____ _ _ _____ _ _ _____ _ _ _____
 72
65
 73
6
 40
0.8
 49
0.45
 49
-0.05
 49
0.1
 49
-0.05
 49
0.1
 49
-0.05
  0
LTYPE
  2
DOT
 70
64
  3
. . . . . . . . . . . . . . . . . . . .
 72
65
 73
2
 40
0.2
 49
0.1
 49
-0.1
  0
LTYPE
  2
DASHED
 70
64
  3
- - - - - - - - - - - - - - - - - - - -
 72
65
 73
2
 40
0.2
 49
0.1
 49
-0.1
  0
ENDTAB
  0
TABLE
  2
LAYER
 70
36
  0
LAYER
  2
0
 70
0
 62
7
  6
CONTINUOUS
  0
LAYER
  2
DEFAULT_1
 70
0
 62
7
  6
CENTER
  0
LAYER
  2
DEFAULT_2
 70
0
 62
8
  6
HIDDEN
  0
LAYER
  2
DEFAULT_3
 70
0
 62
7
  6
PHANTOM
  0
LAYER
  2
1_AXIS
 70
0
 62
7
  6
CONTINUOUS
  0
LAYER
  2
1_DATUM_PLANE
 70
0
 62
7
  6
CONTINUOUS
  0
LAYER
  2
1_DATUM_PLANES
 70
0
 62
7
  6
CONTINUOUS
  0
LAYER
  2
2_FEATURE
 70
0
 62
7
  6
CONTINUOUS
  0
LAYER
  2
3_CURVE
 70
0
 62
7
  6
CONTINUOUS
  0
LAYER
  2
4_QUILT
 70
0
 62
7
  6
CONTINUOUS
  0
LAYER
  2
4_SURFACE
 70
0
 62
7
  6
CONTINUOUS
  0
LAYER
  2
6_DIM
 70
0
 62
7
  6
CONTINUOUS
  0
LAYER
  2
6_NOTE
 70
0
 62
7
  6
CONTINUOUS
  0
LAYER
  2
AXES
 70
0
 62
7
  6
CONTINUOUS
  0
LAYER
  2
CSYS
 70
0
 62
7
  6
CONTINUOUS
  0
LAYER
  2
NOTES
 70
0
 62
7
  6
CONTINUOUS
  0
ENDTAB
  0
TABLE
  2
STYLE
 70
1
  0
STYLE
  2
STANDARD
 70
0
 40
0.0
 41
0.8
 50
0.0
 71
0
 42
0.2
  3
txt
  4

  0
STYLE
  2
TEXTSTYLE_1
 70
0
 40
0.0
 41
0.8
 50
0.0
 71
0
 42
0.2
  3
gdt
  4

  0
STYLE
  2
TEXTSTYLE_2
 70
0
 40
0.0
 41
0.6
 50
0.0
 71
0
 42
0.2
  3
txt
  4

  0
STYLE
  2
TEXTSTYLE_3
 70
0
 40
0.0
 41
1.0
 50
0.0
 71
0
 42
0.2
  3
ftb_____.ttf
  4

  0
STYLE
  2
TEXTSTYLE_4
 70
0
 40
0.0
 41
1.0
 50
0.0
 71
0
 42
0.2
  3
fti_____.ttf
  4

  0
STYLE
  2
TEXTSTYLE_5
 70
0
 40
0.0
 41
1.0
 50
0.0
 71
0
 42
0.2
  3
frutiger light.ttf
  4

  0
STYLE
  2
TEXTSTYLE_6
 70
0
 40
0.0
 41
0.7
 50
0.0
 71
0
 42
0.2
  3
txt
  4

  0
STYLE
  2
TEXTSTYLE_7
 70
0
 40
0.0
 41
0.8
 50
0.0
 71
0
 42
0.2
  3
txt
  4

  0
ENDTAB
  0
ENDSEC
  0
SECTION
  2
BLOCKS
  0
BLOCK
  8
0
 62
2
  6
CONTINUOUS
  2
SYMBOL_5_BL1
 70
64
 10
382.3920721743
 20
35.7654615278
  0
TEXT
  8
0
 62
7
  6
CONTINUOUS
 10
373.4503571828
 20
30.9093678571
  7
TEXTSTYLE_4
 40
1.0655737705
  1
The brand for plastic modular belts and chains
 41
1.0
 72
0
  0
LINE
  8
0
 62
7
  6
CONTINUOUS
 10
358.3701405634
 20
36.3903819718
 11
358.3701405634
 21
34.2592344308
  0
LINE
  8
0
 62
7
  6
CONTINUOUS
 10
358.6592030565
 20
31.2683031351
 11
358.6592030565
 21
31.3650941944
  0
LINE
  8
0
 62
7
  6
CONTINUOUS
 10
358.3701405634
 20
31.332830508
 11
358.4279530651
 21
31.1392483894
  0
LINE
  8
0
 62
7
  6
CONTINUOUS
 10
359.7635831863
 20
34.1772672177
 11
359.7635831863
 21
36.3903819718
  0
LINE
  8
0
 62
7
  6
CONTINUOUS
 10
360.6826405082
 20
32.3330049227
 11
360.6826405082
 21
30.81661148
  0
LINE
  8
0
 62
7
  6
CONTINUOUS
 10
360.9717030634
 20
30.81661148
 11
360.9717030634
 21
31.5586763581
  0
LINE
  8
0
 62
7
  6
CONTINUOUS
 10
360.9717030634
 20
31.6877311038
 11
360.9717030634
 21
32.3330049227
  0
LINE
  8
0
 62
7
  6
CONTINUOUS
 10
358.4279530651
 20
31.5264126717
 11
358.3701405634
 21
31.332830508
  0
LINE
  8
0
 62
7
  6
CONTINUOUS
 10
358.7748280496
 20
31.106984703
 11
358.6592030565
 21
31.2683031351
  0
LINE
  8
0
 62
7
  6
CONTINUOUS
 10
359.8732656185
 20
31.623203731
 11
359.9310780634
 21
31.5264126717
  0
LINE
  8
0
 62
7
  6
CONTINUOUS
 10
360.2201406185
 20
31.5264126717
 11
360.1623280082
 21
31.6554674174
  0
LINE
  8
0
 62
7
  6
CONTINUOUS
 10
361.648829088
 20
36.3903819718
 11
361.648829088
 21
34.5871032833
  0
LINE
  8
0
 62
7
  6
CONTINUOUS
 10
361.648829088
 20
33.2756278735
 11
361.648829088
 21
32.6198901686
  0
LINE
  8
0
 62
7
  6
CONTINUOUS
 10
362.0123280634
 20
31.4618852989
 11
362.0123280634
 21
30.81661148
  0
LINE
  8
0
 62
7
  6
CONTINUOUS
 10
362.3013904531
 20
30.81661148
 11
362.3013904531
 21
31.4618852989
  0
LINE
  8
0
 62
7
  6
CONTINUOUS
 10
358.6592030565
 20
31.3650941944
 11
358.7170155634
 21
31.4941489853
  0
LINE
  8
0
 62
7
  6
CONTINUOUS
 10
358.4279530651
 20
31.1392483894
 11
358.5435780634
 21
31.0101936212
  0
LINE
  8
0
 62
7
  6
CONTINUOUS
 10
361.9545154531
 20
31.5909400446
 11
362.0123280634
 21
31.4618852989
  0
LINE
  8
0
 62
7
  6
CONTINUOUS
 10
362.7638906736
 20
31.106984703
 11
362.8217029531
 21
30.9779299347
  0
LINE
  8
0
 62
7
  6
CONTINUOUS
 10
362.3013904531
 20
31.4618852989
 11
362.2435781736
 21
31.623203731
  0
LINE
  8
0
 62
7
  6
CONTINUOUS
 10
362.7638906736
 20
31.6554674174
 11
362.7638906736
 21
31.5909400446
  0
LINE
  8
0
 62
7
  6
CONTINUOUS
 10
362.7638906736
 20
31.2037757623
 11
362.7638906736
 21
31.106984703
  0
LINE
  8
0
 62
7
  6
CONTINUOUS
 10
363.0422717109
 20
32.6198901686
 11
363.0422717109
 21
36.3903819718
  0
LINE
  8
0
 62
7
  6
CONTINUOUS
 10
363.0529530634
 20
31.074720994
 11
363.0529530634
 21
31.1392483894
  0
LINE
  8
0
 62
7
  6
CONTINUOUS
 10
363.3701405634
 20
36.3903819718
 11
363.3701405634
 21
32.6198901686
  0
LINE
  8
0
 62
7
  6
CONTINUOUS
 10
360.1623280082
 20
31.0101936212
 11
360.2201406185
 21
31.1392483894
  0
LINE
  8
0
 62
7
  6
CONTINUOUS
 10
364.5560782839
 20
30.9134025506
 11
364.4982653428
 21
31.074720994
  0
LINE
  8
0
 62
7
  6
CONTINUOUS
 10
364.2092032839
 20
31.5909400446
 11
364.2092032839
 21
31.4941489853
  0
LINE
  8
0
 62
7
  6
CONTINUOUS
 10
364.2092032839
 20
31.3650941944
 11
364.2092032839
 21
31.1715120759
  0
LINE
  8
0
 62
7
  6
CONTINUOUS
 10
364.4982653428
 20
31.074720994
 11
364.4982653428
 21
31.5909400446
  0
LINE
  8
0
 62
7
  6
CONTINUOUS
 10
364.7635831863
 20
32.6198901686
 11
364.7635831863
 21
34.4231688571
  0
LINE
  8
0
 62
7
  6
CONTINUOUS
 10
364.7635831863
 20
35.7346442669
 11
364.7635831863
 21
36.3903819718
  0
LINE
  8
0
 62
7
  6
CONTINUOUS
 10
365.0763907839
 20
32.3330049227
 11
365.0763907839
 21
32.1716864905
  0
LINE
  8
0
 62
7
  6
CONTINUOUS
 10
365.0763907839
 20
31.8490495359
 11
365.0763907839
 21
30.81661148
  0
LINE
  8
0
 62
7
  6
CONTINUOUS
 10
365.3654528428
 20
30.81661148
 11
365.3654528428
 21
31.8490495359
  0
LINE
  8
0
 62
7
  6
CONTINUOUS
 10
365.3654528428
 20
32.1716864905
 11
365.3654528428
 21
32.3330049227
  0
LINE
  8
0
 62
7
  6
CONTINUOUS
 10
359.9310780634
 20
31.1392483894
 11
359.8732656185
 21
31.0424573076
  0
LINE
  8
0
 62
7
  6
CONTINUOUS
 10
362.2435781736
 20
31.623203731
 11
362.1857655634
 21
31.6877311038
  0
LINE
  8
0
 62
7
  6
CONTINUOUS
 10
363.1107656736
 20
31.0101936212
 11
363.0529530634
 21
31.074720994
  0
LINE
  8
0
 62
7
  6
CONTINUOUS
 10
364.2670155634
 20
30.8811388585
 11
364.3248278428
 21
30.81661148
  0
LINE
  8
0
 62
7
  6
CONTINUOUS
 10
364.2092032839
 20
30.9779299347
 11
364.2670155634
 21
30.8811388585
  0
LINE
  8
0
 62
7
  6
CONTINUOUS
 10
364.6138905634
 20
30.81661148
 11
364.5560782839
 21
30.9134025506
  0
LINE
  8
0
 62
7
  6
CONTINUOUS
 10
364.4982653428
 20
31.5909400446
 11
364.4404530634
 21
31.6877311038
  0
LINE
  8
0
 62
7
  6
CONTINUOUS
 10
365.8279530634
 20
31.8490495359
 11
365.8279530634
 21
30.81661148
  0
LINE
  8
0
 62
7
  6
CONTINUOUS
 10
366.1170157839
 20
30.81661148
 11
366.1170157839
 21
31.5586763581
  0
LINE
  8
0
 62
7
  6
CONTINUOUS
 10
366.1170157839
 20
31.6877311038
 11
366.1170157839
 21
31.8490495359
  0
LINE
  8
0
 62
7
  6
CONTINUOUS
 10
366.648829088
 20
34.8330049227
 11
366.648829088
 21
32.6198901686
  0
LINE
  8
0
 62
7
  6
CONTINUOUS
 10
358.5435780634
 20
31.6554674174
 11
358.4279530651
 21
31.5264126717
  0
LINE
  8
0
 62
7
  6
CONTINUOUS
 10
358.7170155634
 20
31.4941489853
 11
358.7748280496
 21
31.5586763581
  0
LINE
  8
0
 62
7
  6
CONTINUOUS
 10
358.5435780634
 20
31.0101936212
 11
358.6592030565
 21
30.945666237
  0
LINE
  8
0
 62
7
  6
CONTINUOUS
 10
358.9482655496
 20
31.0101936212
 11
358.7748280496
 21
31.106984703
  0
LINE
  8
0
 62
7
  6
CONTINUOUS
 10
364.1513903428
 20
31.6554674174
 11
364.2092032839
 21
31.5909400446
  0
LINE
  8
0
 62
7
  6
CONTINUOUS
 10
367.0998278428
 20
31.5909400446
 11
367.1576407839
 21
31.4296216124
  0
LINE
  8
0
 62
7
  6
CONTINUOUS
 10
367.4467028428
 20
31.4296216124
 11
367.3888905634
 21
31.5909400446
  0
LINE
  8
0
 62
7
  6
CONTINUOUS
 10
367.1576407839
 20
31.4296216124
 11
367.1576407839
 21
30.81661148
  0
LINE
  8
0
 62
7
  6
CONTINUOUS
 10
367.4467028428
 20
30.81661148
 11
367.4467028428
 21
31.4296216124
  0
LINE
  8
0
 62
7
  6
CONTINUOUS
 10
367.9092030634
 20
31.6554674174
 11
367.9092030634
 21
31.5909400446
  0
LINE
  8
0
 62
7
  6
CONTINUOUS
 10
368.0422717109
 20
32.6198901686
 11
368.0422717109
 21
34.7510377095
  0
LINE
  8
0
 62
7
  6
CONTINUOUS
 10
368.3701405634
 20
36.3903819718
 11
368.3701405634
 21
32.6198901686
  0
LINE
  8
0
 62
7
  6
CONTINUOUS
 10
363.0529530634
 20
31.1392483894
 11
363.1107656736
 21
31.2360394487
  0
LINE
  8
0
 62
7
  6
CONTINUOUS
 10
358.6592030565
 20
30.945666237
 11
358.8326405772
 21
30.8811388585
  0
LINE
  8
0
 62
7
  6
CONTINUOUS
 10
360.1623280082
 20
31.6554674174
 11
359.9888905082
 21
31.7522584767
  0
LINE
  8
0
 62
7
  6
CONTINUOUS
 10
362.8217029531
 20
30.9779299347
 11
362.9951404531
 21
30.8811388585
  0
LINE
  8
0
 62
7
  6
CONTINUOUS
 10
361.8388905634
 20
31.6554674174
 11
361.9545154531
 21
31.5909400446
  0
LINE
  8
0
 62
7
  6
CONTINUOUS
 10
362.1857655634
 20
31.6877311038
 11
362.0701406736
 21
31.7522584767
  0
LINE
  8
0
 62
7
  6
CONTINUOUS
 10
367.9092030634
 20
31.074720994
 11
368.0248282839
 21
30.945666237
  0
LINE
  8
0
 62
7
  6
CONTINUOUS
 10
368.2560780634
 20
31.0101936212
 11
368.1982657839
 21
31.074720994
  0
LINE
  8
0
 62
7
  6
CONTINUOUS
 10
367.9092030634
 20
31.5909400446
 11
368.0248282839
 21
31.4618852989
  0
LINE
  8
0
 62
7
  6
CONTINUOUS
 10
367.3888905634
 20
31.5909400446
 11
367.3310782839
 21
31.6877311038
  0
LINE
  8
0
 62
7
  6
CONTINUOUS
 10
369.7592026223
 20
31.0101936212
 11
369.7592026223
 21
31.074720994
  0
LINE
  8
0
 62
7
  6
CONTINUOUS
 10
369.7635831863
 20
32.6198901686
 11
369.7635831863
 21
36.3903819718
  0
LINE
  8
0
 62
7
  6
CONTINUOUS
 10
362.8217029531
 20
31.7199947902
 11
362.7638906736
 21
31.6554674174
  0
LINE
  8
0
 62
7
  6
CONTINUOUS
 10
359.6998280358
 20
31.6877311038
 11
359.8732656185
 21
31.623203731
  0
LINE
  8
0
 62
7
  6
CONTINUOUS
 10
364.4404530634
 20
31.6877311038
 11
364.3248278428
 21
31.7522584767
  0
LINE
  8
0
 62
7
  6
CONTINUOUS
 10
368.2560780634
 20
31.5264126717
 11
368.1982657839
 21
31.5909400446
  0
LINE
  8
0
 62
7
  6
CONTINUOUS
 10
369.4123282839
 20
31.1392483894
 11
369.4701405634
 21
31.074720994
  0
LINE
  8
0
 62
7
  6
CONTINUOUS
 10
369.7592026223
 20
31.074720994
 11
369.6435780634
 21
31.2037757623
  0
LINE
  8
0
 62
7
  6
CONTINUOUS
 10
369.4123282839
 20
31.6554674174
 11
369.4701405634
 21
31.5909400446
  0
LINE
  8
0
 62
7
  6
CONTINUOUS
 10
369.7592026223
 20
31.5909400446
 11
369.6435780634
 21
31.7199947902
  0
LINE
  8
0
 62
7
  6
CONTINUOUS
 10
363.0529530634
 20
31.5909400446
 11
363.1107656736
 21
31.6554674174
  0
LINE
  8
0
 62
7
  6
CONTINUOUS
 10
362.8795155634
 20
31.332830508
 11
362.7638906736
 21
31.2037757623
  0
LINE
  8
0
 62
7
  6
CONTINUOUS
 10
364.2092032839
 20
31.1715120759
 11
364.1513903428
 21
31.106984703
  0
LINE
  8
0
 62
7
  6
CONTINUOUS
 10
364.1513903428
 20
30.9134025506
 11
364.2092032839
 21
30.9779299347
  0
LINE
  8
0
 62
7
  6
CONTINUOUS
 10
362.9951404531
 20
30.8811388585
 11
363.1107656736
 21
30.8488751693
  0
LINE
  8
0
 62
7
  6
CONTINUOUS
 10
359.9888905082
 20
31.7522584767
 11
359.7576405634
 21
31.8167858495
  0
LINE
  8
0
 62
7
  6
CONTINUOUS
 10
363.3420154531
 20
30.945666237
 11
363.1107656736
 21
31.0101936212
  0
LINE
  8
0
 62
7
  6
CONTINUOUS
 10
362.0701406736
 20
31.7522584767
 11
361.8967031736
 21
31.8167858495
  0
LINE
  8
0
 62
7
  6
CONTINUOUS
 10
364.3248278428
 20
31.7522584767
 11
364.1513903428
 21
31.8167858495
  0
LINE
  8
0
 62
7
  6
CONTINUOUS
 10
366.9842032839
 20
31.6554674174
 11
367.0998278428
 21
31.5909400446
  0
LINE
  8
0
 62
7
  6
CONTINUOUS
 10
367.3310782839
 20
31.6877311038
 11
367.2154530634
 21
31.7522584767
  0
LINE
  8
0
 62
7
  6
CONTINUOUS
 10
358.8326405772
 20
30.8811388585
 11
359.0060780772
 21
30.8488751693
  0
LINE
  8
0
 62
7
  6
CONTINUOUS
 10
359.2951405909
 20
30.945666237
 11
358.9482655496
 21
31.0101936212
  0
LINE
  8
0
 62
7
  6
CONTINUOUS
 10
361.7232656736
 20
31.6877311038
 11
361.8388905634
 21
31.6554674174
  0
LINE
  8
0
 62
7
  6
CONTINUOUS
 10
364.0357657839
 20
31.6877311038
 11
364.1513903428
 21
31.6554674174
  0
LINE
  8
0
 62
7
  6
CONTINUOUS
 10
368.3717032839
 20
30.9779299347
 11
368.2560780634
 21
31.0101936212
  0
LINE
  8
0
 62
7
  6
CONTINUOUS
 10
366.8685780634
 20
31.6877311038
 11
366.9842032839
 21
31.6554674174
  0
LINE
  8
0
 62
7
  6
CONTINUOUS
 10
368.0248282839
 20
30.945666237
 11
368.1982657839
 21
30.8811388585
  0
LINE
  8
0
 62
7
  6
CONTINUOUS
 10
367.2154530634
 20
31.7522584767
 11
367.0420155634
 21
31.8167858495
  0
LINE
  8
0
 62
7
  6
CONTINUOUS
 10
368.4295155634
 20
31.4618852989
 11
368.2560780634
 21
31.5264126717
  0
LINE
  8
0
 62
7
  6
CONTINUOUS
 10
369.2388907839
 20
31.2037757623
 11
369.4123282839
 21
31.1392483894
  0
LINE
  8
0
 62
7
  6
CONTINUOUS
 10
369.6435780634
 20
31.7199947902
 11
369.4701405634
 21
31.7845221631
  0
LINE
  8
0
 62
7
  6
CONTINUOUS
 10
368.0248282839
 20
31.4618852989
 11
368.2560780634
 21
31.3650941944
  0
LINE
  8
0
 62
7
  6
CONTINUOUS
 10
369.6435780634
 20
31.2037757623
 11
369.4123282839
 21
31.3005668216
  0
LINE
  8
0
 62
7
  6
CONTINUOUS
 10
368.1982657839
 20
31.5909400446
 11
368.2560780634
 21
31.6554674174
  0
LINE
  8
0
 62
7
  6
CONTINUOUS
 10
358.6592030565
 20
31.7199947902
 11
358.5435780634
 21
31.6554674174
  0
LINE
  8
0
 62
7
  6
CONTINUOUS
 10
358.7748280496
 20
31.5586763581
 11
358.9482655496
 21
31.6554674174
  0
LINE
  8
0
 62
7
  6
CONTINUOUS
 10
361.0873281185
 20
31.7522584767
 11
360.9717030634
 21
31.6877311038
  0
LINE
  8
0
 62
7
  6
CONTINUOUS
 10
360.9717030634
 20
31.5586763581
 11
361.0873281185
 21
31.623203731
  0
LINE
  8
0
 62
7
  6
CONTINUOUS
 10
359.9888905082
 20
30.9134025506
 11
360.1623280082
 21
31.0101936212
  0
LINE
  8
0
 62
7
  6
CONTINUOUS
 10
359.0060780772
 20
30.8488751693
 11
359.3529530358
 21
30.81661148
  0
LINE
  8
0
 62
7
  6
CONTINUOUS
 10
363.1107656736
 20
30.8488751693
 11
363.3420154531
 21
30.81661148
  0
LINE
  8
0
 62
7
  6
CONTINUOUS
 10
361.4920155634
 20
31.7199947902
 11
361.7232656736
 21
31.6877311038
  0
LINE
  8
0
 62
7
  6
CONTINUOUS
 10
363.8045156736
 20
31.7199947902
 11
364.0357657839
 21
31.6877311038
  0
LINE
  8
0
 62
7
  6
CONTINUOUS
 10
368.2560780634
 20
31.3650941944
 11
369.2388907839
 21
31.2037757623
  0
LINE
  8
0
 62
7
  6
CONTINUOUS
 10
369.4123282839
 20
31.3005668216
 11
368.4295155634
 21
31.4618852989
  0
LINE
  8
0
 62
7
  6
CONTINUOUS
 10
361.8967031736
 20
31.8167858495
 11
361.7232656736
 21
31.8490495359
  0
LINE
  8
0
 62
7
  6
CONTINUOUS
 10
368.1982657839
 20
30.8811388585
 11
368.3717032839
 21
30.8488751693
  0
LINE
  8
0
 62
7
  6
CONTINUOUS
 10
367.0420155634
 20
31.8167858495
 11
366.8685780634
 21
31.8490495359
  0
LINE
  8
0
 62
7
  6
CONTINUOUS
 10
369.2967030634
 20
31.6877311038
 11
369.4123282839
 21
31.6554674174
  0
LINE
  8
0
 62
7
  6
CONTINUOUS
 10
369.4701405634
 20
31.074720994
 11
369.4123282839
 21
31.0101936212
  0
LINE
  8
0
 62
7
  6
CONTINUOUS
 10
368.0248282839
 20
31.7522584767
 11
367.9092030634
 21
31.6554674174
  0
LINE
  8
0
 62
7
  6
CONTINUOUS
 10
362.9373281736
 20
31.7845221631
 11
362.8217029531
 21
31.7199947902
  0
LINE
  8
0
 62
7
  6
CONTINUOUS
 10
362.9951404531
 20
31.397357926
 11
362.8795155634
 21
31.332830508
  0
LINE
  8
0
 62
7
  6
CONTINUOUS
 10
363.1107656736
 20
31.2360394487
 11
363.2263905634
 21
31.3005668216
  0
LINE
  8
0
 62
7
  6
CONTINUOUS
 10
360.6826405082
 20
30.81661148
 11
360.9717030634
 21
30.81661148
  0
LINE
  8
0
 62
7
  6
CONTINUOUS
 10
362.0123280634
 20
30.81661148
 11
362.3013904531
 21
30.81661148
  0
LINE
  8
0
 62
7
  6
CONTINUOUS
 10
363.3420154531
 20
30.81661148
 11
363.6888904531
 21
30.81661148
  0
LINE
  8
0
 62
7
  6
CONTINUOUS
 10
364.3248278428
 20
30.81661148
 11
364.6138905634
 21
30.81661148
  0
LINE
  8
0
 62
7
  6
CONTINUOUS
 10
365.0763907839
 20
30.81661148
 11
365.3654528428
 21
30.81661148
  0
LINE
  8
0
 62
7
  6
CONTINUOUS
 10
365.8279530634
 20
30.81661148
 11
366.1170157839
 21
30.81661148
  0
LINE
  8
0
 62
7
  6
CONTINUOUS
 10
367.1576407839
 20
30.81661148
 11
367.4467028428
 21
30.81661148
  0
LINE
  8
0
 62
7
  6
CONTINUOUS
 10
368.7185782839
 20
30.81661148
 11
369.0654532839
 21
30.81661148
  0
LINE
  8
0
 62
7
  6
CONTINUOUS
 10
369.0654532839
 20
30.945666237
 11
368.7185782839
 21
30.945666237
  0
LINE
  8
0
 62
7
  6
CONTINUOUS
 10
363.6888904531
 20
30.945666237
 11
363.3420154531
 21
30.945666237
  0
LINE
  8
0
 62
7
  6
CONTINUOUS
 10
368.1982657839
 20
31.074720994
 11
367.9092030634
 21
31.074720994
  0
LINE
  8
0
 62
7
  6
CONTINUOUS
 10
360.2201406185
 20
31.1392483894
 11
359.9310780634
 21
31.1392483894
  0
LINE
  8
0
 62
7
  6
CONTINUOUS
 10
359.2951405909
 20
31.7199947902
 11
359.6998280358
 21
31.6877311038
  0
LINE
  8
0
 62
7
  6
CONTINUOUS
 10
359.7576405634
 20
31.8167858495
 11
359.3529530358
 21
31.8490495359
  0
LINE
  8
0
 62
7
  6
CONTINUOUS
 10
368.3717032839
 20
30.8488751693
 11
368.7185782839
 21
30.81661148
  0
LINE
  8
0
 62
7
  6
CONTINUOUS
 10
368.7185782839
 20
30.945666237
 11
368.3717032839
 21
30.9779299347
  0
LINE
  8
0
 62
7
  6
CONTINUOUS
 10
364.1513903428
 20
31.8167858495
 11
363.8045156736
 21
31.8490495359
  0
LINE
  8
0
 62
7
  6
CONTINUOUS
 10
368.9498280634
 20
31.7199947902
 11
369.2967030634
 21
31.6877311038
  0
LINE
  8
0
 62
7
  6
CONTINUOUS
 10
369.2967030634
 20
31.8167858495
 11
368.9498280634
 21
31.8490495359
  0
LINE
  8
0
 62
7
  6
CONTINUOUS
 10
366.6373282839
 20
31.7199947902
 11
366.8685780634
 21
31.6877311038
  0
LINE
  8
0
 62
7
  6
CONTINUOUS
 10
369.4701405634
 20
31.7845221631
 11
369.2967030634
 21
31.8167858495
  0
LINE
  8
0
 62
7
  6
CONTINUOUS
 10
369.6435780634
 20
30.9134025506
 11
369.7592026223
 21
31.0101936212
  0
LINE
  8
0
 62
7
  6
CONTINUOUS
 10
364.1513903428
 20
31.106984703
 11
363.9779528428
 21
31.0101936212
  0
LINE
  8
0
 62
7
  6
CONTINUOUS
 10
366.2326403428
 20
31.7522584767
 11
366.1170157839
 21
31.6877311038
  0
LINE
  8
0
 62
7
  6
CONTINUOUS
 10
366.1170157839
 20
31.5586763581
 11
366.2326403428
 21
31.623203731
  0
LINE
  8
0
 62
7
  6
CONTINUOUS
 10
358.8326405772
 20
31.7845221631
 11
358.6592030565
 21
31.7199947902
  0
LINE
  8
0
 62
7
  6
CONTINUOUS
 10
361.2607654531
 20
31.8167858495
 11
361.0873281185
 21
31.7522584767
  0
LINE
  8
0
 62
7
  6
CONTINUOUS
 10
361.0873281185
 20
31.623203731
 11
361.2607654531
 21
31.6877311038
  0
LINE
  8
0
 62
7
  6
CONTINUOUS
 10
359.8732656185
 20
31.0424573076
 11
359.6998280358
 21
30.9779299347
  0
LINE
  8
0
 62
7
  6
CONTINUOUS
 10
369.2967030634
 20
30.9779299347
 11
369.0654532839
 21
30.945666237
  0
LINE
  8
0
 62
7
  6
CONTINUOUS
 10
363.6888904531
 20
30.81661148
 11
363.9779528428
 21
30.8488751693
  0
LINE
  8
0
 62
7
  6
CONTINUOUS
 10
369.0654532839
 20
30.81661148
 11
369.4123282839
 21
30.8488751693
  0
LINE
  8
0
 62
7
  6
CONTINUOUS
 10
359.3529530358
 20
30.81661148
 11
359.7576405634
 21
30.8488751693
  0
LINE
  8
0
 62
7
  6
CONTINUOUS
 10
359.6998280358
 20
30.9779299347
 11
359.2951405909
 21
30.945666237
  0
LINE
  8
0
 62
7
  6
CONTINUOUS
 10
363.5732655634
 20
31.3650941944
 11
364.2092032839
 21
31.3650941944
  0
LINE
  8
0
 62
7
  6
CONTINUOUS
 10
364.2092032839
 20
31.4941489853
 11
363.5732655634
 21
31.4941489853
  0
LINE
  8
0
 62
7
  6
CONTINUOUS
 10
359.9310780634
 20
31.5264126717
 11
360.2201406185
 21
31.5264126717
  0
LINE
  8
0
 62
7
  6
CONTINUOUS
 10
362.7638906736
 20
31.5909400446
 11
363.0529530634
 21
31.5909400446
  0
LINE
  8
0
 62
7
  6
CONTINUOUS
 10
369.4701405634
 20
31.5909400446
 11
369.7592026223
 21
31.5909400446
  0
LINE
  8
0
 62
7
  6
CONTINUOUS
 10
363.4576406736
 20
31.7199947902
 11
363.8045156736
 21
31.7199947902
  0
LINE
  8
0
 62
7
  6
CONTINUOUS
 10
368.6029530634
 20
31.7199947902
 11
368.9498280634
 21
31.7199947902
  0
LINE
  8
0
 62
7
  6
CONTINUOUS
 10
368.9498280634
 20
31.8490495359
 11
368.6029530634
 21
31.8490495359
  0
LINE
  8
0
 62
7
  6
CONTINUOUS
 10
366.8685780634
 20
31.8490495359
 11
366.6373282839
 21
31.8490495359
  0
LINE
  8
0
 62
7
  6
CONTINUOUS
 10
366.1170157839
 20
31.8490495359
 11
365.8279530634
 21
31.8490495359
  0
LINE
  8
0
 62
7
  6
CONTINUOUS
 10
365.3654528428
 20
31.8490495359
 11
365.0763907839
 21
31.8490495359
  0
LINE
  8
0
 62
7
  6
CONTINUOUS
 10
363.8045156736
 20
31.8490495359
 11
363.4576406736
 21
31.8490495359
  0
LINE
  8
0
 62
7
  6
CONTINUOUS
 10
361.7232656736
 20
31.8490495359
 11
361.4920155634
 21
31.8490495359
  0
LINE
  8
0
 62
7
  6
CONTINUOUS
 10
365.0763907839
 20
32.1716864905
 11
365.3654528428
 21
32.1716864905
  0
LINE
  8
0
 62
7
  6
CONTINUOUS
 10
365.3654528428
 20
32.3330049227
 11
365.0763907839
 21
32.3330049227
  0
LINE
  8
0
 62
7
  6
CONTINUOUS
 10
360.9717030634
 20
32.3330049227
 11
360.6826405082
 21
32.3330049227
  0
LINE
  8
0
 62
7
  6
CONTINUOUS
 10
360.0094848257
 20
32.6198901686
 11
360.4220561743
 21
32.6198901686
  0
LINE
  8
0
 62
7
  6
CONTINUOUS
 10
361.648829088
 20
32.6198901686
 11
363.0422717109
 21
32.6198901686
  0
LINE
  8
0
 62
7
  6
CONTINUOUS
 10
363.3701405634
 20
32.6198901686
 11
364.7635831863
 21
32.6198901686
  0
LINE
  8
0
 62
7
  6
CONTINUOUS
 10
366.648829088
 20
32.6198901686
 11
368.0422717109
 21
32.6198901686
  0
LINE
  8
0
 62
7
  6
CONTINUOUS
 10
368.3701405634
 20
32.6198901686
 11
369.7635831863
 21
32.6198901686
  0
LINE
  8
0
 62
7
  6
CONTINUOUS
 10
366.4060778428
 20
31.8167858495
 11
366.2326403428
 21
31.7522584767
  0
LINE
  8
0
 62
7
  6
CONTINUOUS
 10
363.9779528428
 20
30.8488751693
 11
364.1513903428
 21
30.9134025506
  0
LINE
  8
0
 62
7
  6
CONTINUOUS
 10
369.4123282839
 20
30.8488751693
 11
369.6435780634
 21
30.9134025506
  0
LINE
  8
0
 62
7
  6
CONTINUOUS
 10
369.4123282839
 20
31.0101936212
 11
369.2967030634
 21
30.9779299347
  0
LINE
  8
0
 62
7
  6
CONTINUOUS
 10
368.3717032839
 20
31.6877311038
 11
368.6029530634
 21
31.7199947902
  0
LINE
  8
0
 62
7
  6
CONTINUOUS
 10
366.4060778428
 20
31.6877311038
 11
366.6373282839
 21
31.7199947902
  0
LINE
  8
0
 62
7
  6
CONTINUOUS
 10
363.3420154531
 20
31.332830508
 11
363.5732655634
 21
31.3650941944
  0
LINE
  8
0
 62
7
  6
CONTINUOUS
 10
366.6373282839
 20
31.8490495359
 11
366.4060778428
 21
31.8167858495
  0
LINE
  8
0
 62
7
  6
CONTINUOUS
 10
363.2263905634
 20
31.6877311038
 11
363.4576406736
 21
31.7199947902
  0
LINE
  8
0
 62
7
  6
CONTINUOUS
 10
368.6029530634
 20
31.8490495359
 11
368.2560780634
 21
31.8167858495
  0
LINE
  8
0
 62
7
  6
CONTINUOUS
 10
363.5732655634
 20
31.4941489853
 11
363.2263905634
 21
31.4618852989
  0
LINE
  8
0
 62
7
  6
CONTINUOUS
 10
359.3529530358
 20
31.8490495359
 11
359.0060780772
 21
31.8167858495
  0
LINE
  8
0
 62
7
  6
CONTINUOUS
 10
363.4576406736
 20
31.8490495359
 11
363.0529530634
 21
31.8167858495
  0
LINE
  8
0
 62
7
  6
CONTINUOUS
 10
360.8291569568
 20
33.7674311522
 11
360.1734192519
 21
33.7674311522
  0
LINE
  8
0
 62
7
  6
CONTINUOUS
 10
366.2326403428
 20
31.623203731
 11
366.4060778428
 21
31.6877311038
  0
LINE
  8
0
 62
7
  6
CONTINUOUS
 10
368.2560780634
 20
31.6554674174
 11
368.3717032839
 21
31.6877311038
  0
LINE
  8
0
 62
7
  6
CONTINUOUS
 10
368.2560780634
 20
31.8167858495
 11
368.0248282839
 21
31.7522584767
  0
LINE
  8
0
 62
7
  6
CONTINUOUS
 10
363.9779528428
 20
31.0101936212
 11
363.6888904531
 21
30.945666237
  0
LINE
  8
0
 62
7
  6
CONTINUOUS
 10
361.2607654531
 20
31.6877311038
 11
361.4920155634
 21
31.7199947902
  0
LINE
  8
0
 62
7
  6
CONTINUOUS
 10
361.4920155634
 20
31.8490495359
 11
361.2607654531
 21
31.8167858495
  0
LINE
  8
0
 62
7
  6
CONTINUOUS
 10
359.0638905634
 20
31.6877311038
 11
359.2951405909
 21
31.7199947902
  0
LINE
  8
0
 62
7
  6
CONTINUOUS
 10
365.5832553175
 20
35.2428409882
 11
366.2389930224
 21
35.2428409882
  0
LINE
  8
0
 62
7
  6
CONTINUOUS
 10
363.2263905634
 20
31.3005668216
 11
363.3420154531
 21
31.332830508
  0
LINE
  8
0
 62
7
  6
CONTINUOUS
 10
363.2263905634
 20
31.4618852989
 11
362.9951404531
 21
31.397357926
  0
LINE
  8
0
 62
7
  6
CONTINUOUS
 10
363.1107656736
 20
31.6554674174
 11
363.2263905634
 21
31.6877311038
  0
LINE
  8
0
 62
7
  6
CONTINUOUS
 10
359.7576405634
 20
30.8488751693
 11
359.9888905082
 21
30.9134025506
  0
LINE
  8
0
 62
7
  6
CONTINUOUS
 10
363.0529530634
 20
31.8167858495
 11
362.9373281736
 21
31.7845221631
  0
LINE
  8
0
 62
7
  6
CONTINUOUS
 10
359.0060780772
 20
31.8167858495
 11
358.8326405772
 21
31.7845221631
  0
LINE
  8
0
 62
7
  6
CONTINUOUS
 10
369.7635831863
 20
36.3903819718
 11
368.3701405634
 21
36.3903819718
  0
LINE
  8
0
 62
7
  6
CONTINUOUS
 10
366.4029274486
 20
36.3903819718
 11
365.9903561
 21
36.3903819718
  0
LINE
  8
0
 62
7
  6
CONTINUOUS
 10
364.7635831863
 20
36.3903819718
 11
363.3701405634
 21
36.3903819718
  0
LINE
  8
0
 62
7
  6
CONTINUOUS
 10
363.0422717109
 20
36.3903819718
 11
361.648829088
 21
36.3903819718
  0
LINE
  8
0
 62
7
  6
CONTINUOUS
 10
359.7635831863
 20
36.3903819718
 11
358.3701405634
 21
36.3903819718
  0
LINE
  8
0
 62
7
  6
CONTINUOUS
 10
358.9482655496
 20
31.6554674174
 11
359.0638905634
 21
31.6877311038
  0
CIRCLE
  8
0
 62
7
  6
CONTINUOUS
 10
369.0668618749
 20
38.7264475456
 40
2.0901639344
  0
ARC
  8
0
 62
7
  6
CONTINUOUS
 10
360.0094848257
 20
34.2592344308
 40
1.6393442623
 50
180.0
 51
270.0
  0
ARC
  8
0
 62
7
  6
CONTINUOUS
 10
366.4029274486
 20
34.7510377095
 40
1.6393442623
 50
0.0
 51
90.0
  0
ARC
  8
0
 62
7
  6
CONTINUOUS
 10
360.4220561743
 20
34.0953000046
 40
1.4754098361
 50
270.0
 51
326.2510114041
  0
ARC
  8
0
 62
7
  6
CONTINUOUS
 10
365.9903561
 20
34.9149721358
 40
1.4754098361
 50
90.0
 51
146.2510114041
  0
ARC
  8
0
 62
7
  6
CONTINUOUS
 10
360.8291569568
 20
34.5871032833
 40
0.8196721311
 50
270.0
 51
360.0
  0
ARC
  8
0
 62
7
  6
CONTINUOUS
 10
365.5832553175
 20
34.4231688571
 40
0.8196721311
 50
90.0
 51
180.0
  0
ARC
  8
0
 62
7
  6
CONTINUOUS
 10
360.1734192519
 20
34.1772672177
 40
0.4098360656
 50
180.0
 51
270.0
  0
ARC
  8
0
 62
7
  6
CONTINUOUS
 10
366.2389930224
 20
34.8330049227
 40
0.4098360656
 50
0.0
 51
90.0
  0
SOLID
  8
0
 62
7
  6
CONTINUOUS
 10
365.0763907839
 20
32.1716868508
 11
365.0763907839
 21
32.3330053344
 12
365.3654528428
 22
32.1716868508
 13
365.3654528428
 23
32.3330053344
  0
SOLID
  8
0
 62
7
  6
CONTINUOUS
 10
359.3529530358
 20
31.8490498836
 11
359.7576405634
 21
31.8167854792
 12
359.0060780772
 22
31.8167854792
 13
359.0060780772
 23
31.8167854792
  0
SOLID
  8
0
 62
7
  6
CONTINUOUS
 10
358.8326405772
 20
31.7845227934
 11
359.0060780772
 21
31.8167854792
 12
359.7576405634
 22
31.8167854792
 13
359.7576405634
 23
31.8167854792
  0
SOLID
  8
0
 62
7
  6
CONTINUOUS
 10
359.7576405634
 20
31.8167854792
 11
359.9888905082
 21
31.7522584901
 12
358.8326405772
 22
31.7845227934
 13
358.8326405772
 23
31.7845227934
  0
SOLID
  8
0
 62
7
  6
CONTINUOUS
 10
358.6592030565
 20
31.7199940664
 11
358.8326405772
 21
31.7845227934
 12
359.9888905082
 22
31.7522584901
 13
359.9888905082
 23
31.7522584901
  0
SOLID
  8
0
 62
7
  6
CONTINUOUS
 10
358.6592030565
 20
31.7199940664
 11
359.9888905082
 21
31.7522584901
 12
359.2951405909
 22
31.7199940664
 13
359.2951405909
 23
31.7199940664
  0
SOLID
  8
0
 62
7
  6
CONTINUOUS
 10
359.2951405909
 20
31.7199940664
 11
359.9888905082
 21
31.7522584901
 12
359.6998280358
 22
31.6877314
 13
359.6998280358
 23
31.6877314
  0
SOLID
  8
0
 62
7
  6
CONTINUOUS
 10
359.9888905082
 20
31.7522584901
 11
360.1623280082
 21
31.6554670967
 12
359.6998280358
 22
31.6877314
 13
359.6998280358
 23
31.6877314
  0
SOLID
  8
0
 62
7
  6
CONTINUOUS
 10
359.8732656185
 20
31.6232043098
 11
359.6998280358
 21
31.6877314
 12
360.1623280082
 22
31.6554670967
 13
360.1623280082
 23
31.6554670967
  0
SOLID
  8
0
 62
7
  6
CONTINUOUS
 10
359.8732656185
 20
31.6232043098
 11
360.1623280082
 21
31.6554670967
 12
359.9310780634
 22
31.5264128539
 13
359.9310780634
 23
31.5264128539
  0
SOLID
  8
0
 62
7
  6
CONTINUOUS
 10
360.1623280082
 20
31.6554670967
 11
360.2201406185
 21
31.5264128539
 12
359.9310780634
 22
31.5264128539
 13
359.9310780634
 23
31.5264128539
  0
SOLID
  8
0
 62
7
  6
CONTINUOUS
 10
361.2607654531
 20
31.8167852459
 11
361.4920155634
 21
31.8490495492
 12
361.7232656736
 22
31.8490495492
 13
361.7232656736
 23
31.8490495492
  0
SOLID
  8
0
 62
7
  6
CONTINUOUS
 10
361.7232656736
 20
31.8490495492
 11
361.8967031736
 21
31.8167852459
 12
361.2607654531
 22
31.8167852459
 13
361.2607654531
 23
31.8167852459
  0
SOLID
  8
0
 62
7
  6
CONTINUOUS
 10
361.0873281185
 20
31.7522581557
 11
361.2607654531
 21
31.8167852459
 12
361.8967031736
 22
31.8167852459
 13
361.8967031736
 23
31.8167852459
  0
SOLID
  8
0
 62
7
  6
CONTINUOUS
 10
361.8967031736
 20
31.8167852459
 11
362.0701406736
 21
31.7522581557
 12
361.0873281185
 22
31.7522581557
 13
361.0873281185
 23
31.7522581557
  0
SOLID
  8
0
 62
7
  6
CONTINUOUS
 10
362.0701406736
 20
31.7522581557
 11
361.4920155634
 21
31.7199941869
 12
361.0873281185
 22
31.7522581557
 13
361.0873281185
 23
31.7522581557
  0
SOLID
  8
0
 62
7
  6
CONTINUOUS
 10
360.9717030634
 20
31.6877310656
 11
361.0873281185
 21
31.7522581557
 12
361.4920155634
 22
31.7199941869
 13
361.4920155634
 23
31.7199941869
  0
SOLID
  8
0
 62
7
  6
CONTINUOUS
 10
361.4920155634
 20
31.7199941869
 11
361.2607654531
 21
31.6877310656
 12
360.9717030634
 22
31.6877310656
 13
360.9717030634
 23
31.6877310656
  0
SOLID
  8
0
 62
7
  6
CONTINUOUS
 10
361.4920155634
 20
31.7199941869
 11
362.0701406736
 21
31.7522581557
 12
361.7232656736
 22
31.6877310656
 13
361.7232656736
 23
31.6877310656
  0
SOLID
  8
0
 62
7
  6
CONTINUOUS
 10
362.0701406736
 20
31.7522581557
 11
362.1857655634
 21
31.6877310656
 12
361.7232656736
 22
31.6877310656
 13
361.7232656736
 23
31.6877310656
  0
SOLID
  8
0
 62
7
  6
CONTINUOUS
 10
361.8388905634
 20
31.6554670967
 11
361.7232656736
 21
31.6877310656
 12
362.1857655634
 22
31.6877310656
 13
362.1857655634
 23
31.6877310656
  0
SOLID
  8
0
 62
7
  6
CONTINUOUS
 10
362.1857655634
 20
31.6877310656
 11
362.2435781736
 21
31.6232039754
 12
361.8388905634
 22
31.6554670967
 13
361.8388905634
 23
31.6554670967
  0
SOLID
  8
0
 62
7
  6
CONTINUOUS
 10
361.9545154531
 20
31.5909400065
 11
361.8388905634
 21
31.6554670967
 12
362.2435781736
 22
31.6232039754
 13
362.2435781736
 23
31.6232039754
  0
SOLID
  8
0
 62
7
  6
CONTINUOUS
 10
361.9545154531
 20
31.5909400065
 11
362.2435781736
 21
31.6232039754
 12
362.0123280634
 22
31.4618854918
 13
362.0123280634
 23
31.4618854918
  0
SOLID
  8
0
 62
7
  6
CONTINUOUS
 10
362.2435781736
 20
31.6232039754
 11
362.3013904531
 21
31.4618854918
 12
362.0123280634
 22
31.4618854918
 13
362.0123280634
 23
31.4618854918
  0
SOLID
  8
0
 62
7
  6
CONTINUOUS
 10
361.2607654531
 20
31.6877310656
 11
361.0873281185
 21
31.6232039754
 12
360.9717030634
 22
31.6877310656
 13
360.9717030634
 23
31.6877310656
  0
SOLID
  8
0
 62
7
  6
CONTINUOUS
 10
361.0873281185
 20
31.6232039754
 11
360.9717030634
 21
31.5586757033
 12
360.9717030634
 22
31.6877310656
 13
360.9717030634
 23
31.6877310656
  0
SOLID
  8
0
 62
7
  6
CONTINUOUS
 10
360.9717030634
 20
31.5586757033
 11
360.6826405082
 21
30.8166115574
 12
360.9717030634
 22
31.6877310656
 13
360.9717030634
 23
31.6877310656
  0
SOLID
  8
0
 62
7
  6
CONTINUOUS
 10
360.9717030634
 20
31.6877310656
 11
360.6826405082
 21
30.8166115574
 12
360.9717030634
 22
32.333005
 13
360.9717030634
 23
32.333005
  0
SOLID
  8
0
 62
7
  6
CONTINUOUS
 10
360.6826405082
 20
30.8166115574
 11
360.6826405082
 21
32.333005
 12
360.9717030634
 22
32.333005
 13
360.9717030634
 23
32.333005
  0
SOLID
  8
0
 62
7
  6
CONTINUOUS
 10
360.9717030634
 20
31.5586757033
 11
360.9717030634
 21
30.8166115574
 12
360.6826405082
 22
30.8166115574
 13
360.6826405082
 23
30.8166115574
  0
SOLID
  8
0
 62
7
  6
CONTINUOUS
 10
362.0123280634
 20
30.8166115574
 11
362.0123280634
 21
31.4618854918
 12
362.3013904531
 22
31.4618854918
 13
362.3013904531
 23
31.4618854918
  0
SOLID
  8
0
 62
7
  6
CONTINUOUS
 10
362.3013904531
 20
31.4618854918
 11
362.3013904531
 21
30.8166115574
 12
362.0123280634
 22
30.8166115574
 13
362.0123280634
 23
30.8166115574
  0
SOLID
  8
0
 62
7
  6
CONTINUOUS
 10
363.0529530634
 20
31.8167856315
 11
363.4576406736
 21
31.8490496243
 12
363.8045156736
 22
31.8490496243
 13
363.8045156736
 23
31.8490496243
  0
SOLID
  8
0
 62
7
  6
CONTINUOUS
 10
363.8045156736
 20
31.8490496243
 11
364.1513903428
 21
31.8167856315
 12
363.0529530634
 22
31.8167856315
 13
363.0529530634
 23
31.8167856315
  0
SOLID
  8
0
 62
7
  6
CONTINUOUS
 10
362.9373281736
 20
31.7845227934
 11
363.0529530634
 21
31.8167856315
 12
364.1513903428
 22
31.8167856315
 13
364.1513903428
 23
31.8167856315
  0
SOLID
  8
0
 62
7
  6
CONTINUOUS
 10
364.1513903428
 20
31.8167856315
 11
364.3248278428
 21
31.7522584901
 12
362.9373281736
 22
31.7845227934
 13
362.9373281736
 23
31.7845227934
  0
SOLID
  8
0
 62
7
  6
CONTINUOUS
 10
362.8217029531
 20
31.7199944276
 11
362.9373281736
 21
31.7845227934
 12
364.3248278428
 22
31.7522584901
 13
364.3248278428
 23
31.7522584901
  0
SOLID
  8
0
 62
7
  6
CONTINUOUS
 10
362.8217029531
 20
31.7199944276
 11
364.3248278428
 21
31.7522584901
 12
363.4576406736
 22
31.7199944276
 13
363.4576406736
 23
31.7199944276
  0
SOLID
  8
0
 62
7
  6
CONTINUOUS
 10
363.4576406736
 20
31.7199944276
 11
364.3248278428
 21
31.7522584901
 12
363.8045156736
 22
31.7199944276
 13
363.8045156736
 23
31.7199944276
  0
SOLID
  8
0
 62
7
  6
CONTINUOUS
 10
363.8045156736
 20
31.7199944276
 11
364.3248278428
 21
31.7522584901
 12
364.0357657839
 22
31.6877312092
 13
364.0357657839
 23
31.6877312092
  0
SOLID
  8
0
 62
7
  6
CONTINUOUS
 10
364.3248278428
 20
31.7522584901
 11
364.4404530634
 21
31.6877312092
 12
364.0357657839
 22
31.6877312092
 13
364.0357657839
 23
31.6877312092
  0
SOLID
  8
0
 62
7
  6
CONTINUOUS
 10
362.7638906736
 20
31.6554672165
 11
362.8217029531
 21
31.7199944276
 12
363.4576406736
 22
31.7199944276
 13
363.4576406736
 23
31.7199944276
  0
SOLID
  8
0
 62
7
  6
CONTINUOUS
 10
364.1513903428
 20
31.6554672165
 11
364.0357657839
 21
31.6877312092
 12
364.4404530634
 22
31.6877312092
 13
364.4404530634
 23
31.6877312092
  0
SOLID
  8
0
 62
7
  6
CONTINUOUS
 10
364.1513903428
 20
31.6554672165
 11
364.4404530634
 21
31.6877312092
 12
364.2092032839
 22
31.5909400053
 13
364.2092032839
 23
31.5909400053
  0
SOLID
  8
0
 62
7
  6
CONTINUOUS
 10
364.4404530634
 20
31.6877312092
 11
364.4982653428
 21
31.5909400053
 12
364.2092032839
 22
31.5909400053
 13
364.2092032839
 23
31.5909400053
  0
SOLID
  8
0
 62
7
  6
CONTINUOUS
 10
364.2092032839
 20
31.4941486131
 11
364.2092032839
 21
31.5909400053
 12
364.4982653428
 22
31.5909400053
 13
364.4982653428
 23
31.5909400053
  0
SOLID
  8
0
 62
7
  6
CONTINUOUS
 10
364.2092032839
 20
31.4941486131
 11
364.4982653428
 21
31.5909400053
 12
364.2092032839
 22
31.3650944328
 13
364.2092032839
 23
31.3650944328
  0
SOLID
  8
0
 62
7
  6
CONTINUOUS
 10
364.2092032839
 20
31.3650944328
 11
364.4982653428
 21
31.5909400053
 12
364.2092032839
 22
31.1715120759
 13
364.2092032839
 23
31.1715120759
  0
SOLID
  8
0
 62
7
  6
CONTINUOUS
 10
364.4982653428
 20
31.5909400053
 11
364.4982653428
 21
31.0747202524
 12
364.2092032839
 22
31.1715120759
 13
364.2092032839
 23
31.1715120759
  0
SOLID
  8
0
 62
7
  6
CONTINUOUS
 10
366.4060778428
 20
31.8167851023
 11
366.6373282839
 21
31.849049822
 12
366.8685780634
 22
31.849049822
 13
366.8685780634
 23
31.849049822
  0
SOLID
  8
0
 62
7
  6
CONTINUOUS
 10
366.8685780634
 20
31.849049822
 11
367.0420155634
 21
31.8167851023
 12
366.4060778428
 22
31.8167851023
 13
366.4060778428
 23
31.8167851023
  0
SOLID
  8
0
 62
7
  6
CONTINUOUS
 10
366.2326403428
 20
31.7522587602
 11
366.4060778428
 21
31.8167851023
 12
367.0420155634
 22
31.8167851023
 13
367.0420155634
 23
31.8167851023
  0
SOLID
  8
0
 62
7
  6
CONTINUOUS
 10
367.0420155634
 20
31.8167851023
 11
367.2154530634
 21
31.7522587602
 12
366.2326403428
 22
31.7522587602
 13
366.2326403428
 23
31.7522587602
  0
SOLID
  8
0
 62
7
  6
CONTINUOUS
 10
367.2154530634
 20
31.7522587602
 11
366.6373282839
 21
31.7199941869
 12
366.2326403428
 22
31.7522587602
 13
366.2326403428
 23
31.7522587602
  0
SOLID
  8
0
 62
7
  6
CONTINUOUS
 10
366.1170157839
 20
31.6877313857
 11
366.2326403428
 21
31.7522587602
 12
366.6373282839
 22
31.7199941869
 13
366.6373282839
 23
31.7199941869
  0
SOLID
  8
0
 62
7
  6
CONTINUOUS
 10
366.6373282839
 20
31.7199941869
 11
366.4060778428
 21
31.6877313857
 12
366.1170157839
 22
31.6877313857
 13
366.1170157839
 23
31.6877313857
  0
SOLID
  8
0
 62
7
  6
CONTINUOUS
 10
366.6373282839
 20
31.7199941869
 11
367.2154530634
 21
31.7522587602
 12
366.8685780634
 22
31.6877313857
 13
366.8685780634
 23
31.6877313857
  0
SOLID
  8
0
 62
7
  6
CONTINUOUS
 10
367.2154530634
 20
31.7522587602
 11
367.3310782839
 21
31.6877313857
 12
366.8685780634
 22
31.6877313857
 13
366.8685780634
 23
31.6877313857
  0
SOLID
  8
0
 62
7
  6
CONTINUOUS
 10
366.9842032839
 20
31.6554670967
 11
366.8685780634
 21
31.6877313857
 12
367.3310782839
 22
31.6877313857
 13
367.3310782839
 23
31.6877313857
  0
SOLID
  8
0
 62
7
  6
CONTINUOUS
 10
366.9842032839
 20
31.6554670967
 11
367.3310782839
 21
31.6877313857
 12
367.0998278428
 22
31.590940324
 13
367.0998278428
 23
31.590940324
  0
SOLID
  8
0
 62
7
  6
CONTINUOUS
 10
367.3310782839
 20
31.6877313857
 11
367.3888905634
 21
31.590940324
 12
367.0998278428
 22
31.590940324
 13
367.0998278428
 23
31.590940324
  0
SOLID
  8
0
 62
7
  6
CONTINUOUS
 10
367.1576407839
 20
31.4296218878
 11
367.0998278428
 21
31.590940324
 12
367.3888905634
 22
31.590940324
 13
367.3888905634
 23
31.590940324
  0
SOLID
  8
0
 62
7
  6
CONTINUOUS
 10
367.3888905634
 20
31.590940324
 11
367.4467028428
 21
31.4296218878
 12
367.1576407839
 22
31.4296218878
 13
367.1576407839
 23
31.4296218878
  0
SOLID
  8
0
 62
7
  6
CONTINUOUS
 10
366.4060778428
 20
31.6877313857
 11
366.2326403428
 21
31.6232043098
 12
366.1170157839
 22
31.6877313857
 13
366.1170157839
 23
31.6877313857
  0
SOLID
  8
0
 62
7
  6
CONTINUOUS
 10
366.2326403428
 20
31.6232043098
 11
366.1170157839
 21
31.5586757033
 12
366.1170157839
 22
31.6877313857
 13
366.1170157839
 23
31.6877313857
  0
SOLID
  8
0
 62
7
  6
CONTINUOUS
 10
366.1170157839
 20
31.5586757033
 11
365.8279530634
 21
30.8166118302
 12
366.1170157839
 22
31.6877313857
 13
366.1170157839
 23
31.6877313857
  0
SOLID
  8
0
 62
7
  6
CONTINUOUS
 10
366.1170157839
 20
31.6877313857
 11
365.8279530634
 21
30.8166118302
 12
366.1170157839
 22
31.849049822
 13
366.1170157839
 23
31.849049822
  0
SOLID
  8
0
 62
7
  6
CONTINUOUS
 10
365.8279530634
 20
30.8166118302
 11
365.8279530634
 21
31.849049822
 12
366.1170157839
 22
31.849049822
 13
366.1170157839
 23
31.849049822
  0
SOLID
  8
0
 62
7
  6
CONTINUOUS
 10
366.1170157839
 20
31.5586757033
 11
366.1170157839
 21
30.8166118302
 12
365.8279530634
 22
30.8166118302
 13
365.8279530634
 23
30.8166118302
  0
SOLID
  8
0
 62
7
  6
CONTINUOUS
 10
367.1576407839
 20
30.8166118302
 11
367.1576407839
 21
31.4296218878
 12
367.4467028428
 22
31.4296218878
 13
367.4467028428
 23
31.4296218878
  0
SOLID
  8
0
 62
7
  6
CONTINUOUS
 10
367.4467028428
 20
31.4296218878
 11
367.4467028428
 21
30.8166118302
 12
367.1576407839
 22
30.8166118302
 13
367.1576407839
 23
30.8166118302
  0
SOLID
  8
0
 62
7
  6
CONTINUOUS
 10
368.2560780634
 20
31.8167856056
 11
368.6029530634
 21
31.8490498552
 12
368.9498280634
 22
31.8490498552
 13
368.9498280634
 23
31.8490498552
  0
SOLID
  8
0
 62
7
  6
CONTINUOUS
 10
368.9498280634
 20
31.8490498552
 11
369.2967030634
 21
31.8167856056
 12
368.2560780634
 22
31.8167856056
 13
368.2560780634
 23
31.8167856056
  0
SOLID
  8
0
 62
7
  6
CONTINUOUS
 10
368.0248282839
 20
31.7522584901
 11
368.2560780634
 21
31.8167856056
 12
369.2967030634
 22
31.8167856056
 13
369.2967030634
 23
31.8167856056
  0
SOLID
  8
0
 62
7
  6
CONTINUOUS
 10
368.0248282839
 20
31.7522584901
 11
369.2967030634
 21
31.8167855803
 12
369.4701405634
 22
31.7845227934
 13
369.4701405634
 23
31.7845227934
  0
SOLID
  8
0
 62
7
  6
CONTINUOUS
 10
368.0248282839
 20
31.7522584901
 11
369.4701405634
 21
31.7845227934
 12
368.6029530634
 22
31.7199941235
 13
368.6029530634
 23
31.7199941235
  0
SOLID
  8
0
 62
7
  6
CONTINUOUS
 10
368.6029530634
 20
31.7199941235
 11
369.4701405634
 21
31.7845227934
 12
368.9498280634
 22
31.7199941235
 13
368.9498280634
 23
31.7199941235
  0
SOLID
  8
0
 62
7
  6
CONTINUOUS
 10
369.4701405634
 20
31.7845227934
 11
369.6435780634
 21
31.7199941235
 12
368.9498280634
 22
31.7199941235
 13
368.9498280634
 23
31.7199941235
  0
SOLID
  8
0
 62
7
  6
CONTINUOUS
 10
369.2967030634
 20
31.6877314
 11
368.9498280634
 21
31.7199941235
 12
369.6435780634
 22
31.7199941235
 13
369.6435780634
 23
31.7199941235
  0
SOLID
  8
0
 62
7
  6
CONTINUOUS
 10
367.9092030634
 20
31.6554671071
 11
368.0248282839
 21
31.7522584901
 12
368.6029530634
 22
31.7199941235
 13
368.6029530634
 23
31.7199941235
  0
SOLID
  8
0
 62
7
  6
CONTINUOUS
 10
369.2967030634
 20
31.6877314
 11
369.6435780634
 21
31.7199941235
 12
369.4123282839
 22
31.6554671071
 13
369.4123282839
 23
31.6554671071
  0
SOLID
  8
0
 62
7
  6
CONTINUOUS
 10
369.4123282839
 20
31.6554671071
 11
369.6435780634
 21
31.7199941235
 12
369.4701405634
 22
31.5909400907
 13
369.4701405634
 23
31.5909400907
  0
SOLID
  8
0
 62
7
  6
CONTINUOUS
 10
369.6435780634
 20
31.7199941235
 11
369.7592026223
 21
31.5909400907
 12
369.4701405634
 22
31.5909400907
 13
369.4701405634
 23
31.5909400907
  0
SOLID
  8
0
 62
7
  6
CONTINUOUS
 10
359.0638905634
 20
31.6877314
 11
358.5435780634
 21
31.6554670789
 12
359.2951405909
 22
31.7199941045
 13
359.2951405909
 23
31.7199941045
  0
SOLID
  8
0
 62
7
  6
CONTINUOUS
 10
358.5435780634
 20
31.6554670789
 11
358.6592030565
 21
31.7199941045
 12
359.2951405909
 22
31.7199941045
 13
359.2951405909
 23
31.7199941045
  0
SOLID
  8
0
 62
7
  6
CONTINUOUS
 10
359.0638905634
 20
31.6877314
 11
358.9482655496
 21
31.6554670789
 12
358.5435780634
 22
31.6554670789
 13
358.5435780634
 23
31.6554670789
  0
SOLID
  8
0
 62
7
  6
CONTINUOUS
 10
358.4279530651
 20
31.5264129164
 11
358.5435780634
 21
31.6554670789
 12
358.9482655496
 22
31.6554670789
 13
358.9482655496
 23
31.6554670789
  0
SOLID
  8
0
 62
7
  6
CONTINUOUS
 10
362.7638906736
 20
31.6554670789
 11
363.4576406736
 21
31.7199941869
 12
363.2263905634
 22
31.6877314
 13
363.2263905634
 23
31.6877314
  0
SOLID
  8
0
 62
7
  6
CONTINUOUS
 10
363.2263905634
 20
31.6877314
 11
363.1107656736
 21
31.6554670789
 12
362.7638906736
 22
31.6554670789
 13
362.7638906736
 23
31.6554670789
  0
SOLID
  8
0
 62
7
  6
CONTINUOUS
 10
362.7638906736
 20
31.5909399887
 11
362.7638906736
 21
31.6554670789
 12
363.1107656736
 22
31.6554670789
 13
363.1107656736
 23
31.6554670789
  0
SOLID
  8
0
 62
7
  6
CONTINUOUS
 10
363.1107656736
 20
31.6554670789
 11
363.0529530634
 21
31.5909399887
 12
362.7638906736
 22
31.5909399887
 13
362.7638906736
 23
31.5909399887
  0
SOLID
  8
0
 62
7
  6
CONTINUOUS
 10
367.9092030634
 20
31.6554670789
 11
368.6029530634
 21
31.7199941869
 12
368.3717032839
 22
31.6877314
 13
368.3717032839
 23
31.6877314
  0
SOLID
  8
0
 62
7
  6
CONTINUOUS
 10
368.3717032839
 20
31.6877314
 11
368.2560780634
 21
31.6554670789
 12
367.9092030634
 22
31.6554670789
 13
367.9092030634
 23
31.6554670789
  0
SOLID
  8
0
 62
7
  6
CONTINUOUS
 10
367.9092030634
 20
31.5909399887
 11
367.9092030634
 21
31.6554670789
 12
368.2560780634
 22
31.6554670789
 13
368.2560780634
 23
31.6554670789
  0
SOLID
  8
0
 62
7
  6
CONTINUOUS
 10
368.2560780634
 20
31.6554670789
 11
368.1982657839
 21
31.5909399887
 12
367.9092030634
 22
31.5909399887
 13
367.9092030634
 23
31.5909399887
  0
SOLID
  8
0
 62
7
  6
CONTINUOUS
 10
368.0248282839
 20
31.4618858262
 11
367.9092030634
 21
31.5909399887
 12
368.1982657839
 22
31.5909399887
 13
368.1982657839
 23
31.5909399887
  0
SOLID
  8
0
 62
7
  6
CONTINUOUS
 10
358.4279530651
 20
31.5264129164
 11
358.9482655496
 21
31.6554670967
 12
358.7748280496
 22
31.5586757033
 13
358.7748280496
 23
31.5586757033
  0
SOLID
  8
0
 62
7
  6
CONTINUOUS
 10
358.7748280496
 20
31.5586757033
 11
358.7170155634
 21
31.4941486131
 12
358.4279530651
 22
31.5264129164
 13
358.4279530651
 23
31.5264129164
  0
SOLID
  8
0
 62
7
  6
CONTINUOUS
 10
358.3701405634
 20
31.3328301295
 11
358.4279530651
 21
31.5264129164
 12
358.7170155634
 22
31.4941486131
 13
358.7170155634
 23
31.4941486131
  0
SOLID
  8
0
 62
7
  6
CONTINUOUS
 10
363.2263905634
 20
31.4618858262
 11
363.5732655634
 21
31.4941485791
 12
364.2092032839
 22
31.4941485791
 13
364.2092032839
 23
31.4941485791
  0
SOLID
  8
0
 62
7
  6
CONTINUOUS
 10
363.2263905634
 20
31.4618858262
 11
364.2092032839
 21
31.4941485791
 12
362.9951404531
 22
31.397357926
 13
362.9951404531
 23
31.397357926
  0
SOLID
  8
0
 62
7
  6
CONTINUOUS
 10
362.9951404531
 20
31.397357926
 11
364.2092032839
 21
31.4941485791
 12
363.5732655634
 22
31.3650943988
 13
363.5732655634
 23
31.3650943988
  0
SOLID
  8
0
 62
7
  6
CONTINUOUS
 10
364.2092032839
 20
31.4941485791
 11
364.2092032839
 21
31.3650943988
 12
363.5732655634
 22
31.3650943988
 13
363.5732655634
 23
31.3650943988
  0
SOLID
  8
0
 62
7
  6
CONTINUOUS
 10
368.0248282839
 20
31.4618859165
 11
368.1982657839
 21
31.5909400065
 12
368.2560780634
 22
31.5264129164
 13
368.2560780634
 23
31.5264129164
  0
SOLID
  8
0
 62
7
  6
CONTINUOUS
 10
368.2560780634
 20
31.5264129164
 11
368.4295155634
 21
31.4618859165
 12
368.0248282839
 22
31.4618859165
 13
368.0248282839
 23
31.4618859165
  0
SOLID
  8
0
 62
7
  6
CONTINUOUS
 10
368.2560780634
 20
31.3650944328
 11
368.0248282839
 21
31.4618859165
 12
368.4295155634
 22
31.4618859165
 13
368.4295155634
 23
31.4618859165
  0
SOLID
  8
0
 62
7
  6
CONTINUOUS
 10
368.4295155634
 20
31.4618859165
 11
369.4123282839
 21
31.3005673426
 12
368.2560780634
 22
31.3650944328
 13
368.2560780634
 23
31.3650944328
  0
SOLID
  8
0
 62
7
  6
CONTINUOUS
 10
369.2388907839
 20
31.2037760287
 11
368.2560780634
 21
31.3650944328
 12
369.4123282839
 22
31.3005673426
 13
369.4123282839
 23
31.3005673426
  0
SOLID
  8
0
 62
7
  6
CONTINUOUS
 10
369.4123282839
 20
31.3005673426
 11
369.6435780634
 21
31.2037760287
 12
369.2388907839
 22
31.2037760287
 13
369.2388907839
 23
31.2037760287
  0
SOLID
  8
0
 62
7
  6
CONTINUOUS
 10
369.4123282839
 20
31.139248859
 11
369.2388907839
 21
31.2037760287
 12
369.6435780634
 22
31.2037760287
 13
369.6435780634
 23
31.2037760287
  0
SOLID
  8
0
 62
7
  6
CONTINUOUS
 10
369.4123282839
 20
31.139248859
 11
369.6435780634
 21
31.2037760287
 12
369.4701405634
 22
31.0747203105
 13
369.4701405634
 23
31.0747203105
  0
SOLID
  8
0
 62
7
  6
CONTINUOUS
 10
369.6435780634
 20
31.2037760287
 11
369.7592026223
 21
31.0747203105
 12
369.4701405634
 22
31.0747203105
 13
369.4701405634
 23
31.0747203105
  0
SOLID
  8
0
 62
7
  6
CONTINUOUS
 10
369.4123282839
 20
31.0101932257
 11
369.4701405634
 21
31.0747203105
 12
369.7592026223
 22
31.0747203105
 13
369.7592026223
 23
31.0747203105
  0
SOLID
  8
0
 62
7
  6
CONTINUOUS
 10
369.7592026223
 20
31.0747203105
 11
369.7592026223
 21
31.0101932257
 12
369.4123282839
 22
31.0101932257
 13
369.4123282839
 23
31.0101932257
  0
SOLID
  8
0
 62
7
  6
CONTINUOUS
 10
369.2967030634
 20
30.9779303754
 11
369.4123282839
 21
31.0101932257
 12
369.7592026223
 22
31.0101932257
 13
369.7592026223
 23
31.0101932257
  0
SOLID
  8
0
 62
7
  6
CONTINUOUS
 10
369.2967030634
 20
30.9779303754
 11
369.7592026223
 21
31.0101932257
 12
369.0654532839
 22
30.9456661409
 13
369.0654532839
 23
30.9456661409
  0
SOLID
  8
0
 62
7
  6
CONTINUOUS
 10
369.7592026223
 20
31.0101932257
 11
369.6435780634
 21
30.9134032852
 12
369.0654532839
 22
30.9456661409
 13
369.0654532839
 23
30.9456661409
  0
SOLID
  8
0
 62
7
  6
CONTINUOUS
 10
369.6435780634
 20
30.9134032852
 11
368.1982657839
 21
30.8811389819
 12
369.0654532839
 22
30.9456661409
 13
369.0654532839
 23
30.9456661409
  0
SOLID
  8
0
 62
7
  6
CONTINUOUS
 10
369.0654532839
 20
30.9456661409
 11
368.1982657839
 21
30.8811389819
 12
368.7185782839
 22
30.9456661409
 13
368.7185782839
 23
30.9456661409
  0
SOLID
  8
0
 62
7
  6
CONTINUOUS
 10
368.1982657839
 20
30.8811389819
 11
368.0248282839
 21
30.9456661409
 12
368.7185782839
 22
30.9456661409
 13
368.7185782839
 23
30.9456661409
  0
SOLID
  8
0
 62
7
  6
CONTINUOUS
 10
368.1982657839
 20
30.8811389819
 11
369.6435780634
 21
30.9134032852
 12
368.3717032839
 22
30.8488743522
 13
368.3717032839
 23
30.8488743522
  0
SOLID
  8
0
 62
7
  6
CONTINUOUS
 10
369.6435780634
 20
30.9134032852
 11
369.4123282839
 21
30.8488743522
 12
368.3717032839
 22
30.8488743522
 13
368.3717032839
 23
30.8488743522
  0
SOLID
  8
0
 62
7
  6
CONTINUOUS
 10
368.7185782839
 20
30.8166119713
 11
368.3717032839
 21
30.8488743522
 12
369.4123282839
 22
30.8488743522
 13
369.4123282839
 23
30.8488743522
  0
SOLID
  8
0
 62
7
  6
CONTINUOUS
 10
369.4123282839
 20
30.8488743522
 11
369.0654532839
 21
30.8166119713
 12
368.7185782839
 22
30.8166119713
 13
368.7185782839
 23
30.8166119713
  0
SOLID
  8
0
 62
7
  6
CONTINUOUS
 10
358.3701405634
 20
31.3328301295
 11
358.7170155634
 21
31.4941486131
 12
358.6592030565
 22
31.3650944328
 13
358.6592030565
 23
31.3650944328
  0
SOLID
  8
0
 62
7
  6
CONTINUOUS
 10
358.6592030565
 20
31.3650944328
 11
358.6592030565
 21
31.2683031351
 12
358.3701405634
 22
31.3328301295
 13
358.3701405634
 23
31.3328301295
  0
SOLID
  8
0
 62
7
  6
CONTINUOUS
 10
358.4279530651
 20
31.139248859
 11
358.3701405634
 21
31.3328301295
 12
358.6592030565
 22
31.2683031351
 13
358.6592030565
 23
31.2683031351
  0
SOLID
  8
0
 62
7
  6
CONTINUOUS
 10
358.6592030565
 20
31.2683031351
 11
358.7748280496
 21
31.1069845557
 12
358.4279530651
 22
31.139248859
 13
358.4279530651
 23
31.139248859
  0
SOLID
  8
0
 62
7
  6
CONTINUOUS
 10
358.5435780634
 20
31.0101931569
 11
358.4279530651
 21
31.139248859
 12
358.7748280496
 22
31.1069845557
 13
358.7748280496
 23
31.1069845557
  0
SOLID
  8
0
 62
7
  6
CONTINUOUS
 10
358.7748280496
 20
31.1069845557
 11
358.9482655496
 21
31.0101931569
 12
358.5435780634
 22
31.0101931569
 13
358.5435780634
 23
31.0101931569
  0
SOLID
  8
0
 62
7
  6
CONTINUOUS
 10
358.6592030565
 20
30.9456659241
 11
358.5435780634
 21
31.0101931569
 12
358.9482655496
 22
31.0101931569
 13
358.9482655496
 23
31.0101931569
  0
SOLID
  8
0
 62
7
  6
CONTINUOUS
 10
358.9482655496
 20
31.0101931569
 11
359.2951405909
 21
30.9456659241
 12
358.6592030565
 22
30.9456659241
 13
358.6592030565
 23
30.9456659241
  0
SOLID
  8
0
 62
7
  6
CONTINUOUS
 10
358.8326405772
 20
30.8811389819
 11
358.6592030565
 21
30.9456659241
 12
359.2951405909
 22
30.9456659241
 13
359.2951405909
 23
30.9456659241
  0
SOLID
  8
0
 62
7
  6
CONTINUOUS
 10
362.8795155634
 20
31.3328301325
 11
362.9951404531
 21
31.397357926
 12
363.5732655634
 22
31.3650944328
 13
363.5732655634
 23
31.3650944328
  0
SOLID
  8
0
 62
7
  6
CONTINUOUS
 10
363.5732655634
 20
31.3650944328
 11
363.3420154531
 21
31.3328301325
 12
362.8795155634
 22
31.3328301325
 13
362.8795155634
 23
31.3328301325
  0
SOLID
  8
0
 62
7
  6
CONTINUOUS
 10
362.7638906736
 20
31.2037759492
 11
362.8795155634
 21
31.3328301325
 12
363.3420154531
 22
31.3328301325
 13
363.3420154531
 23
31.3328301325
  0
SOLID
  8
0
 62
7
  6
CONTINUOUS
 10
363.1107656736
 20
31.2360394487
 11
362.7638906736
 21
31.2037759492
 12
363.2263905634
 22
31.3005673426
 13
363.2263905634
 23
31.3005673426
  0
SOLID
  8
0
 62
7
  6
CONTINUOUS
 10
362.7638906736
 20
31.2037759492
 11
363.3420154531
 21
31.3328301295
 12
363.2263905634
 22
31.3005673426
 13
363.2263905634
 23
31.3005673426
  0
SOLID
  8
0
 62
7
  6
CONTINUOUS
 10
363.1107656736
 20
31.2360394487
 11
363.0529530634
 21
31.139248859
 12
362.7638906736
 22
31.2037759492
 13
362.7638906736
 23
31.2037759492
  0
SOLID
  8
0
 62
7
  6
CONTINUOUS
 10
362.7638906736
 20
31.1069845557
 11
362.7638906736
 21
31.2037759492
 12
363.0529530634
 22
31.139248859
 13
363.0529530634
 23
31.139248859
  0
SOLID
  8
0
 62
7
  6
CONTINUOUS
 10
363.0529530634
 20
31.139248859
 11
363.0529530634
 21
31.0747202524
 12
362.7638906736
 22
31.1069845557
 13
362.7638906736
 23
31.1069845557
  0
SOLID
  8
0
 62
7
  6
CONTINUOUS
 10
362.8217029531
 20
30.9779303754
 11
362.7638906736
 21
31.1069845557
 12
363.0529530634
 22
31.0747202524
 13
363.0529530634
 23
31.0747202524
  0
SOLID
  8
0
 62
7
  6
CONTINUOUS
 10
364.2092032839
 20
31.1715120759
 11
364.4982653428
 21
31.0747202524
 12
364.1513903428
 22
31.1069845557
 13
364.1513903428
 23
31.1069845557
  0
SOLID
  8
0
 62
7
  6
CONTINUOUS
 10
363.9779528428
 20
31.0101931623
 11
364.1513903428
 21
31.1069845557
 12
364.4982653428
 22
31.0747202524
 13
364.4982653428
 23
31.0747202524
  0
SOLID
  8
0
 62
7
  6
CONTINUOUS
 10
363.9779528428
 20
31.0101931623
 11
364.4982653428
 21
31.0747202524
 12
364.2092032839
 22
30.9779303754
 13
364.2092032839
 23
30.9779303754
  0
SOLID
  8
0
 62
7
  6
CONTINUOUS
 10
364.4982653428
 20
31.0747202524
 11
364.5560782839
 21
30.9134032852
 12
364.2092032839
 22
30.9779303754
 13
364.2092032839
 23
30.9779303754
  0
SOLID
  8
0
 62
7
  6
CONTINUOUS
 10
364.2670155634
 20
30.8811389819
 11
364.2092032839
 21
30.9779303754
 12
364.5560782839
 22
30.9134032852
 13
364.5560782839
 23
30.9134032852
  0
SOLID
  8
0
 62
7
  6
CONTINUOUS
 10
364.2670155634
 20
30.8811389819
 11
364.5560782839
 21
30.9134032852
 12
364.3248278428
 22
30.816611867
 13
364.3248278428
 23
30.816611867
  0
SOLID
  8
0
 62
7
  6
CONTINUOUS
 10
364.5560782839
 20
30.9134032852
 11
364.6138905634
 21
30.816611867
 12
364.3248278428
 22
30.816611867
 13
364.3248278428
 23
30.816611867
  0
SOLID
  8
0
 62
7
  6
CONTINUOUS
 10
359.8732656185
 20
31.0424573076
 11
359.9310780634
 21
31.1392488159
 12
360.2201406185
 22
31.1392488159
 13
360.2201406185
 23
31.1392488159
  0
SOLID
  8
0
 62
7
  6
CONTINUOUS
 10
360.2201406185
 20
31.1392488159
 11
360.1623280082
 21
31.0101931623
 12
359.8732656185
 22
31.0424573076
 13
359.8732656185
 23
31.0424573076
  0
SOLID
  8
0
 62
7
  6
CONTINUOUS
 10
359.6998280358
 20
30.9779303754
 11
359.8732656185
 21
31.0424573076
 12
360.1623280082
 22
31.0101931623
 13
360.1623280082
 23
31.0101931623
  0
SOLID
  8
0
 62
7
  6
CONTINUOUS
 10
359.6998280358
 20
30.9779303754
 11
360.1623280082
 21
31.0101931623
 12
359.2951405909
 22
30.9456660721
 13
359.2951405909
 23
30.9456660721
  0
SOLID
  8
0
 62
7
  6
CONTINUOUS
 10
360.1623280082
 20
31.0101931623
 11
359.9888905082
 21
30.9134032852
 12
359.2951405909
 22
30.9456660721
 13
359.2951405909
 23
30.9456660721
  0
SOLID
  8
0
 62
7
  6
CONTINUOUS
 10
358.8326405772
 20
30.8811389819
 11
359.2951405909
 21
30.9456660721
 12
359.9888905082
 22
30.9134032852
 13
359.9888905082
 23
30.9134032852
  0
SOLID
  8
0
 62
7
  6
CONTINUOUS
 10
358.8326405772
 20
30.8811389819
 11
359.9888905082
 21
30.9134032852
 12
359.0060780772
 22
30.8488745775
 13
359.0060780772
 23
30.8488745775
  0
SOLID
  8
0
 62
7
  6
CONTINUOUS
 10
359.9888905082
 20
30.9134032852
 11
359.7576405634
 21
30.8488745775
 12
359.0060780772
 22
30.8488745775
 13
359.0060780772
 23
30.8488745775
  0
SOLID
  8
0
 62
7
  6
CONTINUOUS
 10
359.3529530358
 20
30.8166118918
 11
359.0060780772
 21
30.8488745775
 12
359.7576405634
 22
30.8488745775
 13
359.7576405634
 23
30.8488745775
  0
SOLID
  8
0
 62
7
  6
CONTINUOUS
 10
362.8217029531
 20
30.9779303754
 11
363.0529530634
 21
31.0747202524
 12
363.1107656736
 22
31.0101931623
 13
363.1107656736
 23
31.0101931623
  0
SOLID
  8
0
 62
7
  6
CONTINUOUS
 10
363.1107656736
 20
31.0101931623
 11
363.3420154531
 21
30.9456660721
 12
362.8217029531
 22
30.9779303754
 13
362.8217029531
 23
30.9779303754
  0
SOLID
  8
0
 62
7
  6
CONTINUOUS
 10
362.9951404531
 20
30.8811389819
 11
362.8217029531
 21
30.9779303754
 12
363.3420154531
 22
30.9456660721
 13
363.3420154531
 23
30.9456660721
  0
SOLID
  8
0
 62
7
  6
CONTINUOUS
 10
363.6888904531
 20
30.9456661188
 11
363.9779528428
 21
31.0101931623
 12
364.2092032839
 22
30.9779303754
 13
364.2092032839
 23
30.9779303754
  0
SOLID
  8
0
 62
7
  6
CONTINUOUS
 10
364.2092032839
 20
30.9779303754
 11
364.1513903428
 21
30.9134032852
 12
363.6888904531
 22
30.9456661188
 13
363.6888904531
 23
30.9456661188
  0
SOLID
  8
0
 62
7
  6
CONTINUOUS
 10
364.1513903428
 20
30.9134032852
 11
362.9951404531
 21
30.8811389819
 12
363.6888904531
 22
30.9456661188
 13
363.6888904531
 23
30.9456661188
  0
SOLID
  8
0
 62
7
  6
CONTINUOUS
 10
362.9951404531
 20
30.8811389819
 11
363.3420154531
 21
30.9456661188
 12
363.6888904531
 22
30.9456661188
 13
363.6888904531
 23
30.9456661188
  0
SOLID
  8
0
 62
7
  6
CONTINUOUS
 10
362.9951404531
 20
30.8811389819
 11
364.1513903428
 21
30.9134032852
 12
363.1107656736
 22
30.8488747093
 13
363.1107656736
 23
30.8488747093
  0
SOLID
  8
0
 62
7
  6
CONTINUOUS
 10
364.1513903428
 20
30.9134032852
 11
363.9779528428
 21
30.8488747093
 12
363.1107656736
 22
30.8488747093
 13
363.1107656736
 23
30.8488747093
  0
SOLID
  8
0
 62
7
  6
CONTINUOUS
 10
363.3420154531
 20
30.816611874
 11
363.1107656736
 21
30.8488747093
 12
363.9779528428
 22
30.8488747093
 13
363.9779528428
 23
30.8488747093
  0
SOLID
  8
0
 62
7
  6
CONTINUOUS
 10
363.9779528428
 20
30.8488747093
 11
363.6888904531
 21
30.816611874
 12
363.3420154531
 22
30.816611874
 13
363.3420154531
 23
30.816611874
  0
SOLID
  8
0
 62
7
  6
CONTINUOUS
 10
368.3717032839
 20
30.9779303754
 11
368.0248282839
 21
30.9456661188
 12
368.2560780634
 22
31.0101931623
 13
368.2560780634
 23
31.0101931623
  0
SOLID
  8
0
 62
7
  6
CONTINUOUS
 10
368.2560780634
 20
31.0101931623
 11
368.0248282839
 21
30.9456661188
 12
368.1982657839
 22
31.0747202992
 13
368.1982657839
 23
31.0747202992
  0
SOLID
  8
0
 62
7
  6
CONTINUOUS
 10
368.0248282839
 20
30.9456661188
 11
367.9092030634
 21
31.0747202992
 12
368.1982657839
 22
31.0747202992
 13
368.1982657839
 23
31.0747202992
  0
SOLID
  8
0
 62
7
  6
CONTINUOUS
 10
368.3717032839
 20
30.9779303754
 11
368.7185782839
 21
30.9456661188
 12
368.0248282839
 22
30.9456661188
 13
368.0248282839
 23
30.9456661188
  0
SOLID
  8
0
 62
7
  6
CONTINUOUS
 10
365.0763907839
 20
30.8166118918
 11
365.0763907839
 21
31.8490498836
 12
365.3654528428
 22
30.8166118918
 13
365.3654528428
 23
31.8490498836
  0
ENDBLK
  8
0
  6
BYBLOCK
 62
0
  0
BLOCK
  8
0
 62
2
  6
CONTINUOUS
  2
SYMBOL_0_BL0
 70
64
 10
241.0379982417
 20
19.661173918
  0
TEXT
  8
0
 62
7
  6
CONTINUOUS
 10
227.3106676351
 20
19.0524287129
  7
TEXTSTYLE_3
 40
2.7338706658
  1
Ammeraal Beltech
 41
1.0
 51
15.0
 72
0
  0
TEXT
  8
0
 62
7
  6
CONTINUOUS
 10
238.1114684608
 20
16.7788920401
  7
TEXTSTYLE_4
 40
1.0935482663
  1
Innovation & Service in Belting
 41
1.0
 72
0
  0
LINE
  8
0
 62
7
  6
CONTINUOUS
 10
221.2861269837
 20
19.8190220215
 11
222.0642789771
 21
23.4799393191
  0
LINE
  8
0
 62
7
  6
CONTINUOUS
 10
232.1594472669
 20
27.1433332308
 11
222.5520967201
 21
24.0217158095
  0
LINE
  8
0
 62
7
  6
CONTINUOUS
 10
221.511410316
 20
19.1256712184
 11
229.0184855772
 21
12.3662702925
  0
LINE
  8
0
 62
7
  6
CONTINUOUS
 10
221.7739447268
 20
20.3607985118
 11
232.5822140919
 21
23.8726181108
  0
LINE
  8
0
 62
7
  6
CONTINUOUS
 10
232.5780089548
 20
13.522829547
 11
224.132549286
 21
21.1271555887
  0
LINE
  8
0
 62
7
  6
CONTINUOUS
 10
233.0978316746
 20
26.298408115
 11
232.1212721373
 21
21.7040567125
  0
LINE
  8
0
 62
7
  6
CONTINUOUS
 10
231.4214701896
 20
18.4117473987
 11
230.7350219782
 21
15.1822624744
  0
LINE
  8
0
 62
7
  6
CONTINUOUS
 10
233.7789277731
 20
13.9130317247
 11
234.7351593087
 21
18.4117473987
  0
LINE
  8
0
 62
7
  6
CONTINUOUS
 10
235.4349612564
 20
21.7040567125
 11
235.8792030588
 21
23.7940500719
  0
LINE
  8
0
 62
7
  6
CONTINUOUS
 10
229.7315866525
 20
12.2146959798
 11
233.2911100301
 21
13.3712552343
  0
LINE
  8
0
 62
7
  6
CONTINUOUS
 10
232.8725483422
 20
26.9917589181
 11
235.6539197265
 21
24.487400875
  0
ARC
  8
0
 62
7
  6
CONTINUOUS
 10
222.7773800524
 20
23.3283650064
 40
0.7290321776
 50
108.0
 51
168.0
  0
ARC
  8
0
 62
7
  6
CONTINUOUS
 10
232.3847305992
 20
26.4499824277
 40
0.7290321776
 50
348.0
 51
108.0
  0
ARC
  8
0
 62
7
  6
CONTINUOUS
 10
235.1661019835
 20
23.9456243846
 40
0.7290321776
 50
348.0
 51
48.0
  0
ARC
  8
0
 62
7
  6
CONTINUOUS
 10
229.5063033202
 20
12.9080467828
 40
0.7290321776
 50
228.0
 51
288.0
  0
ARC
  8
0
 62
7
  6
CONTINUOUS
 10
221.9992280591
 20
19.6674477088
 40
0.7290321776
 50
108.0
 51
228.0
  0
ARC
  8
0
 62
7
  6
CONTINUOUS
 10
233.0658266978
 20
14.0646060374
 40
0.7290321776
 50
228.0
 51
348.0
  0
ENDBLK
  8
0
  6
BYBLOCK
 62
0
  0
ENDSEC
  0
SECTION
  2
ENTITIES
  0
TEXT
  8
0
 62
5
  6
CONTINUOUS
 10
304.937007874
 20
25.636
  7
TEXTSTYLE_2
 40
2.8
  1
Scale :
 41
0.6
 51
0.000019
 72
0
  0
TEXT
  8
0
 62
5
  6
CONTINUOUS
 10
324.937007874
 20
25.636
  7
TEXTSTYLE_2
 40
2.8
  1
Chain type:
 41
0.6
 51
0.000019
 72
0
  0
INSERT
  8
0
 62
2
  6
CONTINUOUS
  2
SYMBOL_0_BL0
 10
241.0379982417
 20
19.661173918
  0
INSERT
  8
0
 62
2
  6
CONTINUOUS
  2
SYMBOL_5_BL1
 10
382.3920721743
 20
35.7654615278
  0
LINE
  8
0
 62
2
  6
CONTINUOUS
 10
218.937007874
 20
30.0
 11
408.937007874
 21
30.0
  0
LINE
  8
0
 62
2
  6
CONTINUOUS
 10
218.937007874
 20
30.0
 11
218.937007874
 21
10.0
  0
LINE
  8
0
 62
2
  6
CONTINUOUS
 10
218.937007874
 20
10.0
 11
408.937007874
 21
10.0
  0
LINE
  8
0
 62
2
  6
CONTINUOUS
 10
303.937007874
 20
30.0
 11
303.937007874
 21
10.0
  0
LINE
  8
0
 62
2
  6
CONTINUOUS
 10
323.937007874
 20
30.0
 11
323.937007874
 21
10.0
  0
LINE
  8
0
 62
2
  6
CONTINUOUS
 10
408.937007874
 20
30.0
 11
408.937007874
 21
10.0
  0
TEXT
  8
0
 62
5
  6
CONTINUOUS
 10
221.937007874
 20
23.303
  7
TEXTSTYLE_5
 40
1.52
  1
                                                                     Ammeraal Beltech Modular A/S
 41
1.0
 72
0
  0
TEXT
  8
0
 62
5
  6
CONTINUOUS
 10
221.937007874
 20
20.595
  7
TEXTSTYLE_5
 40
1.5
  1
                                                                      Hjulmagervej 21, 7100 Vejle,  DK
 41
1.0
 72
0
  0
TEXT
  8
0
 62
5
  6
CONTINUOUS
 10
221.937007874
 20
17.881
  7
TEXTSTYLE_5
 40
1.495
  1
                                                                      tel: 
 41
1.0
 72
0
  0
TEXT
  8
0
 62
5
  6
CONTINUOUS
 10
266.9239544389
 20
17.881
  7
TEXTSTYLE_5
 40
1.51
  1
+45 75723100     fax: +45 75723348
 41
1.0
 72
0
  0
TEXT
  8
0
 62
5
  6
CONTINUOUS
 10
221.937007874
 20
15.177
  7
TEXTSTYLE_5
 40
1.5
  1
                                                                      admin@unichains.dk  www.unichains.com
 41
1.0
 72
0
  0
TEXT
  8
0
 62
5
  6
CONTINUOUS
 10
308.687007874
 20
13.75
  7
TEXTSTYLE_6
 40
5.0
  1
1:1
 41
0.7
 72
1
 11
313.937007874
 21
13.75
  0
TEXT
  8
0
 62
5
  6
CONTINUOUS
 10
326.937007874
 20
13.75
  7
TEXTSTYLE_7
 40
7.5
  1
uni 440 TAB-K325
 41
0.6885416667
 72
0
  0
LINE
  8
0
 62
7
  6
CONTINUOUS
 10
0.0
 20
0.0
 11
0.0
 21
297.0
  0
LINE
  8
0
 62
7
  6
CONTINUOUS
 10
8.937007874
 20
10.0
 11
8.937007874
 21
287.0
  0
LINE
  8
0
 62
7
  6
CONTINUOUS
 10
0.0
 20
0.0
 11
420.0
 21
0.0
  0
LINE
  8
0
 62
7
  6
CONTINUOUS
 10
408.937007874
 20
10.0
 11
8.937007874
 21
10.0
  0
LINE
  8
0
 62
7
  6
CONTINUOUS
 10
218.937007874
 20
30.0
 11
408.937007874
 21
30.0
  0
LINE
  8
0
 62
7
  6
CONTINUOUS
 10
210.0
 20
297.0
 11
210.0
 21
292.0
  0
LINE
  8
0
 62
7
  6
CONTINUOUS
 10
210.0
 20
0.0
 11
210.0
 21
5.0
  0
LINE
  8
0
 62
7
  6
CONTINUOUS
 10
8.937007874
 20
287.0
 11
408.937007874
 21
287.0
  0
LINE
  8
0
 62
7
  6
CONTINUOUS
 10
0.0
 20
297.0
 11
420.0
 21
297.0
  0
LINE
  8
0
 62
7
  6
CONTINUOUS
 10
408.937007874
 20
287.0
 11
408.937007874
 21
10.0
  0
LINE
  8
0
 62
7
  6
CONTINUOUS
 10
420.0
 20
0.0
 11
420.0
 21
297.0
  0
LINE
  8
2_FEATURE
 62
7
  6
CONTINUOUS
 10
86.210795082
 20
228.0235330982
 11
86.210795082
 21
231.7035330982
  0
LINE
  8
2_FEATURE
 62
7
  6
CONTINUOUS
 10
86.8254711292
 20
231.4935330982
 11
86.8254711292
 21
231.5035333475
  0
POLYLINE
  8
2_FEATURE
 62
7
  6
CONTINUOUS
 66
1
 70
0
  0
VERTEX
  8
2_FEATURE
 62
7
  6
CONTINUOUS
 10
86.210795082
 20
231.0944093392
  0
VERTEX
  8
2_FEATURE
 62
7
  6
CONTINUOUS
 10
86.2170858594
 20
231.1534353964
  0
VERTEX
  8
2_FEATURE
 62
7
  6
CONTINUOUS
 10
86.2655402211
 20
231.2582403419
  0
VERTEX
  8
2_FEATURE
 62
7
  6
CONTINUOUS
 10
86.3570731823
 20
231.3443827405
  0
VERTEX
  8
2_FEATURE
 62
7
  6
CONTINUOUS
 10
86.4172338305
 20
231.3805177011
  0
VERTEX
  8
2_FEATURE
 62
7
  6
CONTINUOUS
 10
86.5615250468
 20
231.4388539647
  0
VERTEX
  8
2_FEATURE
 62
7
  6
CONTINUOUS
 10
86.732830555
 20
231.4796348343
  0
VERTEX
  8
2_FEATURE
 62
7
  6
CONTINUOUS
 10
86.8254711292
 20
231.4935330982
  0
SEQEND
  0
LINE
  8
2_FEATURE
 62
7
  6
CONTINUOUS
 10
100.010795082
 20
212.6035330982
 11
100.010795082
 21
215.6035330982
  0
LINE
  8
2_FEATURE
 62
7
  6
CONTINUOUS
 10
106.060795082
 20
227.8235330982
 11
106.060795082
 21
216.5489021
  0
LINE
  8
2_FEATURE
 62
7
  6
CONTINUOUS
 10
112.010795082
 20
216.3035330982
 11
112.010795082
 21
212.6035330982
  0
LINE
  8
2_FEATURE
 62
7
  6
CONTINUOUS
 10
114.935795082
 20
217.5035330982
 11
114.935795082
 21
231.5035330982
  0
LINE
  8
2_FEATURE
 62
7
  6
CONTINUOUS
 10
111.510795082
 20
212.1035330982
 11
100.510795082
 21
212.1035330982
  0
LINE
  8
2_FEATURE
 62
7
  6
CONTINUOUS
 10
143.510795082
 20
212.1035330982
 11
154.510795082
 21
212.1035330982
  0
LINE
  8
2_FEATURE
 62
7
  6
CONTINUOUS
 10
105.560795082
 20
216.1035330982
 11
100.510795082
 21
216.1035330982
  0
LINE
  8
2_FEATURE
 62
7
  6
CONTINUOUS
 10
149.460795082
 20
216.1035330982
 11
154.510795082
 21
216.1035330982
  0
POLYLINE
  8
2_FEATURE
 62
7
  6
CONTINUOUS
 66
1
 70
0
  0
VERTEX
  8
2_FEATURE
 62
7
  6
CONTINUOUS
 10
115.1519927286
 20
220.7935330982
  0
VERTEX
  8
2_FEATURE
 62
7
  6
CONTINUOUS
 10
115.2588759904
 20
220.8568149545
  0
VERTEX
  8
2_FEATURE
 62
7
  6
CONTINUOUS
 10
115.3620858431
 20
221.0444344565
  0
VERTEX
  8
2_FEATURE
 62
7
  6
CONTINUOUS
 10
115.458110183
 20
221.3499066505
  0
VERTEX
  8
2_FEATURE
 62
7
  6
CONTINUOUS
 10
115.5436829526
 20
221.7627394324
  0
VERTEX
  8
2_FEATURE
 62
7
  6
CONTINUOUS
 10
115.6158976388
 20
222.2687950697
  0
VERTEX
  8
2_FEATURE
 62
7
  6
CONTINUOUS
 10
115.6723072147
 20
222.8507918733
  0
VERTEX
  8
2_FEATURE
 62
7
  6
CONTINUOUS
 10
115.7110049466
 20
223.488907962
  0
VERTEX
  8
2_FEATURE
 62
7
  6
CONTINUOUS
 10
115.7306853687
 20
224.161456308
  0
VERTEX
  8
2_FEATURE
 62
7
  6
CONTINUOUS
 10
115.7306853687
 20
224.8456098884
  0
VERTEX
  8
2_FEATURE
 62
7
  6
CONTINUOUS
 10
115.7110049466
 20
225.5181582344
  0
VERTEX
  8
2_FEATURE
 62
7
  6
CONTINUOUS
 10
115.6723072147
 20
226.1562743231
  0
VERTEX
  8
2_FEATURE
 62
7
  6
CONTINUOUS
 10
115.6158976388
 20
226.7382711266
  0
VERTEX
  8
2_FEATURE
 62
7
  6
CONTINUOUS
 10
115.5436829526
 20
227.244326764
  0
VERTEX
  8
2_FEATURE
 62
7
  6
CONTINUOUS
 10
115.458110183
 20
227.6571595459
  0
VERTEX
  8
2_FEATURE
 62
7
  6
CONTINUOUS
 10
115.3620858431
 20
227.9626317399
  0
VERTEX
  8
2_FEATURE
 62
7
  6
CONTINUOUS
 10
115.2588759904
 20
228.1502512418
  0
VERTEX
  8
2_FEATURE
 62
7
  6
CONTINUOUS
 10
115.1519927286
 20
228.2135330982
  0
SEQEND
  0
POLYLINE
  8
2_FEATURE
 62
7
  6
CONTINUOUS
 66
1
 70
0
  0
VERTEX
  8
2_FEATURE
 62
7
  6
CONTINUOUS
 10
120.5116122877
 20
217.0074157308
  0
VERTEX
  8
2_FEATURE
 62
7
  6
CONTINUOUS
 10
120.7249796536
 20
217.0168589581
  0
VERTEX
  8
2_FEATURE
 62
7
  6
CONTINUOUS
 10
120.8129622733
 20
217.0197785499
  0
VERTEX
  8
2_FEATURE
 62
7
  6
CONTINUOUS
 10
120.9044884158
 20
217.0213040268
  0
VERTEX
  8
2_FEATURE
 62
7
  6
CONTINUOUS
 10
121.0084102617
 20
217.0208312007
  0
SEQEND
  0
POLYLINE
  8
2_FEATURE
 62
7
  6
CONTINUOUS
 66
1
 70
0
  0
VERTEX
  8
2_FEATURE
 62
7
  6
CONTINUOUS
 10
134.0131761995
 20
217.0208322568
  0
VERTEX
  8
2_FEATURE
 62
7
  6
CONTINUOUS
 10
133.9858806512
 20
217.020480361
  0
VERTEX
  8
2_FEATURE
 62
7
  6
CONTINUOUS
 10
133.9315786404
 20
217.0202183246
  0
SEQEND
  0
POLYLINE
  8
2_FEATURE
 62
7
  6
CONTINUOUS
 66
1
 70
0
  0
VERTEX
  8
2_FEATURE
 62
7
  6
CONTINUOUS
 10
120.3441311042
 20
217.0035330732
  0
VERTEX
  8
2_FEATURE
 62
7
  6
CONTINUOUS
 10
120.4243765107
 20
217.004551107
  0
VERTEX
  8
2_FEATURE
 62
7
  6
CONTINUOUS
 10
120.5116122877
 20
217.0074157308
  0
SEQEND
  0
POLYLINE
  8
2_FEATURE
 62
7
  6
CONTINUOUS
 66
1
 70
0
  0
VERTEX
  8
2_FEATURE
 62
7
  6
CONTINUOUS
 10
134.013179835
 20
217.0208311996
  0
VERTEX
  8
2_FEATURE
 62
7
  6
CONTINUOUS
 10
134.1168135294
 20
217.0213060195
  0
VERTEX
  8
2_FEATURE
 62
7
  6
CONTINUOUS
 10
134.2082194926
 20
217.0197890945
  0
VERTEX
  8
2_FEATURE
 62
7
  6
CONTINUOUS
 10
134.2963130539
 20
217.0168707118
  0
SEQEND
  0
LINE
  8
2_FEATURE
 62
7
  6
CONTINUOUS
 10
112.710795082
 20
217.0035330982
 11
120.3439433899
 21
217.0035330982
  0
LINE
  8
2_FEATURE
 62
7
  6
CONTINUOUS
 10
134.6776467741
 20
217.0035330982
 11
142.310795082
 21
217.0035330982
  0
LINE
  8
2_FEATURE
 62
7
  6
CONTINUOUS
 10
121.0900115236
 20
217.0202183246
 11
133.9315786404
 21
217.0202183246
  0
POLYLINE
  8
2_FEATURE
 62
7
  6
CONTINUOUS
 66
1
 70
0
  0
VERTEX
  8
2_FEATURE
 62
7
  6
CONTINUOUS
 10
121.0084138972
 20
217.0208322578
  0
VERTEX
  8
2_FEATURE
 62
7
  6
CONTINUOUS
 10
121.0357095127
 20
217.020480361
  0
VERTEX
  8
2_FEATURE
 62
7
  6
CONTINUOUS
 10
121.0900115236
 20
217.0202183246
  0
SEQEND
  0
POLYLINE
  8
2_FEATURE
 62
7
  6
CONTINUOUS
 66
1
 70
0
  0
VERTEX
  8
2_FEATURE
 62
7
  6
CONTINUOUS
 10
134.5102864524
 20
217.0074033631
  0
VERTEX
  8
2_FEATURE
 62
7
  6
CONTINUOUS
 10
134.5975040232
 20
217.0045441799
  0
VERTEX
  8
2_FEATURE
 62
7
  6
CONTINUOUS
 10
134.6774601928
 20
217.0035330731
  0
SEQEND
  0
LINE
  8
2_FEATURE
 62
7
  6
CONTINUOUS
 10
134.2963130539
 20
217.0168707118
 11
134.5102864524
 21
217.0074033631
  0
LINE
  8
DEFAULT_1
 62
2
  6
CENTER
 10
127.510795082
 20
244.4639754098
 11
127.510795082
 21
226.5036330982
  0
LINE
  8
0
 62
2
  6
CONTINUOUS
 10
127.510795082
 20
225.5535330982
 11
127.510795082
 21
223.4535330982
  0
LINE
  8
2_FEATURE
 62
7
  6
CONTINUOUS
 10
127.510795082
 20
224.5035330982
 11
127.510795082
 21
220.8374732608
  0
LINE
  8
DEFAULT_1
 62
2
  6
CENTER
 10
127.510795082
 20
199.8475819672
 11
127.510795082
 21
222.5034330982
  0
LINE
  8
2_FEATURE
 62
7
  6
CONTINUOUS
 10
115.1519927286
 20
220.7935330982
 11
114.935795082
 21
220.7935330982
  0
LINE
  8
2_FEATURE
 62
7
  6
CONTINUOUS
 10
139.8695974353
 20
220.7935330982
 11
140.085795082
 21
220.7935330982
  0
POLYLINE
  8
2_FEATURE
 62
7
  6
CONTINUOUS
 66
1
 70
0
  0
VERTEX
  8
2_FEATURE
 62
7
  6
CONTINUOUS
 10
127.510795082
 20
220.8374732608
  0
VERTEX
  8
2_FEATURE
 62
7
  6
CONTINUOUS
 10
127.2334744982
 20
221.0161003392
  0
VERTEX
  8
2_FEATURE
 62
7
  6
CONTINUOUS
 10
126.9658684361
 20
221.2634859027
  0
VERTEX
  8
2_FEATURE
 62
7
  6
CONTINUOUS
 10
126.7143136845
 20
221.5929324109
  0
VERTEX
  8
2_FEATURE
 62
7
  6
CONTINUOUS
 10
126.4835753486
 20
222.0286695424
  0
VERTEX
  8
2_FEATURE
 62
7
  6
CONTINUOUS
 10
126.3851125552
 20
222.2787241287
  0
VERTEX
  8
2_FEATURE
 62
7
  6
CONTINUOUS
 10
126.2328327245
 20
222.805896363
  0
VERTEX
  8
2_FEATURE
 62
7
  6
CONTINUOUS
 10
126.1322622363
 20
223.3554574618
  0
VERTEX
  8
2_FEATURE
 62
7
  6
CONTINUOUS
 10
126.0744087735
 20
223.9259087436
  0
VERTEX
  8
2_FEATURE
 62
7
  6
CONTINUOUS
 10
126.0556703565
 20
224.5035330982
  0
SEQEND
  0
POLYLINE
  8
2_FEATURE
 62
7
  6
CONTINUOUS
 66
1
 70
0
  0
VERTEX
  8
2_FEATURE
 62
7
  6
CONTINUOUS
 10
128.9659198074
 20
224.5035330982
  0
VERTEX
  8
2_FEATURE
 62
7
  6
CONTINUOUS
 10
128.9471715846
 20
223.9257593317
  0
VERTEX
  8
2_FEATURE
 62
7
  6
CONTINUOUS
 10
128.8892884231
 20
223.3551745208
  0
VERTEX
  8
2_FEATURE
 62
7
  6
CONTINUOUS
 10
128.7886972154
 20
222.8056356026
  0
VERTEX
  8
2_FEATURE
 62
7
  6
CONTINUOUS
 10
128.6365685257
 20
222.2789803001
  0
VERTEX
  8
2_FEATURE
 62
7
  6
CONTINUOUS
 10
128.5382456411
 20
222.0291993745
  0
VERTEX
  8
2_FEATURE
 62
7
  6
CONTINUOUS
 10
128.3075651375
 20
221.5933825777
  0
VERTEX
  8
2_FEATURE
 62
7
  6
CONTINUOUS
 10
128.0558705653
 20
221.2636491091
  0
VERTEX
  8
2_FEATURE
 62
7
  6
CONTINUOUS
 10
127.7882318058
 20
221.0161900098
  0
VERTEX
  8
2_FEATURE
 62
7
  6
CONTINUOUS
 10
127.510795082
 20
220.8374732608
  0
SEQEND
  0
LINE
  8
DEFAULT_1
 62
2
  6
CENTER
 10
176.722057377
 20
224.5035330982
 11
129.510895082
 21
224.5035330982
  0
LINE
  8
0
 62
2
  6
CONTINUOUS
 10
128.560795082
 20
224.5035330982
 11
126.460795082
 21
224.5035330982
  0
LINE
  8
2_FEATURE
 62
7
  6
CONTINUOUS
 10
128.9659198074
 20
224.5035330982
 11
126.0556703565
 21
224.5035330982
  0
LINE
  8
DEFAULT_1
 62
2
  6
CENTER
 10
83.3250737705
 20
224.5035330982
 11
125.510695082
 21
224.5035330982
  0
LINE
  8
2_FEATURE
 62
7
  6
CONTINUOUS
 10
168.810795082
 20
228.0235330982
 11
144.7277480376
 21
228.0235330982
  0
LINE
  8
2_FEATURE
 62
7
  6
CONTINUOUS
 10
86.210795082
 20
228.0235330982
 11
110.2938421264
 21
228.0235330982
  0
POLYLINE
  8
2_FEATURE
 62
7
  6
CONTINUOUS
 66
1
 70
0
  0
VERTEX
  8
2_FEATURE
 62
7
  6
CONTINUOUS
 10
139.8695974353
 20
220.7935330982
  0
VERTEX
  8
2_FEATURE
 62
7
  6
CONTINUOUS
 10
139.7627141735
 20
220.8568149545
  0
VERTEX
  8
2_FEATURE
 62
7
  6
CONTINUOUS
 10
139.6595043208
 20
221.0444344565
  0
VERTEX
  8
2_FEATURE
 62
7
  6
CONTINUOUS
 10
139.5634799809
 20
221.3499066505
  0
VERTEX
  8
2_FEATURE
 62
7
  6
CONTINUOUS
 10
139.4779072113
 20
221.7627394324
  0
VERTEX
  8
2_FEATURE
 62
7
  6
CONTINUOUS
 10
139.4056925251
 20
222.2687950697
  0
VERTEX
  8
2_FEATURE
 62
7
  6
CONTINUOUS
 10
139.3492829493
 20
222.8507918733
  0
VERTEX
  8
2_FEATURE
 62
7
  6
CONTINUOUS
 10
139.3105852173
 20
223.488907962
  0
VERTEX
  8
2_FEATURE
 62
7
  6
CONTINUOUS
 10
139.2909047952
 20
224.161456308
  0
VERTEX
  8
2_FEATURE
 62
7
  6
CONTINUOUS
 10
139.2909047952
 20
224.8456098884
  0
VERTEX
  8
2_FEATURE
 62
7
  6
CONTINUOUS
 10
139.3105852173
 20
225.5181582344
  0
VERTEX
  8
2_FEATURE
 62
7
  6
CONTINUOUS
 10
139.3492829493
 20
226.1562743231
  0
VERTEX
  8
2_FEATURE
 62
7
  6
CONTINUOUS
 10
139.4056925251
 20
226.7382711266
  0
VERTEX
  8
2_FEATURE
 62
7
  6
CONTINUOUS
 10
139.4779072113
 20
227.244326764
  0
VERTEX
  8
2_FEATURE
 62
7
  6
CONTINUOUS
 10
139.5634799809
 20
227.6571595459
  0
VERTEX
  8
2_FEATURE
 62
7
  6
CONTINUOUS
 10
139.6595043208
 20
227.9626317399
  0
VERTEX
  8
2_FEATURE
 62
7
  6
CONTINUOUS
 10
139.7627141735
 20
228.1502512418
  0
VERTEX
  8
2_FEATURE
 62
7
  6
CONTINUOUS
 10
139.8695974353
 20
228.2135330982
  0
SEQEND
  0
POLYLINE
  8
2_FEATURE
 62
7
  6
CONTINUOUS
 66
1
 70
0
  0
VERTEX
  8
2_FEATURE
 62
7
  6
CONTINUOUS
 10
140.2669386679
 20
231.4931431228
  0
VERTEX
  8
2_FEATURE
 62
7
  6
CONTINUOUS
 10
140.2034189794
 20
231.4815792686
  0
VERTEX
  8
2_FEATURE
 62
7
  6
CONTINUOUS
 10
140.1519792357
 20
231.4584726275
  0
VERTEX
  8
2_FEATURE
 62
7
  6
CONTINUOUS
 10
140.1149221222
 20
231.4276201434
  0
VERTEX
  8
2_FEATURE
 62
7
  6
CONTINUOUS
 10
140.0929395657
 20
231.3922852044
  0
VERTEX
  8
2_FEATURE
 62
7
  6
CONTINUOUS
 10
140.085795082
 20
231.3553558238
  0
SEQEND
  0
POLYLINE
  8
2_FEATURE
 62
7
  6
CONTINUOUS
 66
1
 70
0
  0
VERTEX
  8
2_FEATURE
 62
7
  6
CONTINUOUS
 10
140.2669386679
 20
231.4931431228
  0
VERTEX
  8
2_FEATURE
 62
7
  6
CONTINUOUS
 10
140.2709376302
 20
231.4933592644
  0
VERTEX
  8
2_FEATURE
 62
7
  6
CONTINUOUS
 10
140.2749452918
 20
231.4934891188
  0
VERTEX
  8
2_FEATURE
 62
7
  6
CONTINUOUS
 10
140.2789603253
 20
231.4935330982
  0
SEQEND
  0
LINE
  8
2_FEATURE
 62
7
  6
CONTINUOUS
 10
115.1519927286
 20
228.2135330982
 11
114.935795082
 21
228.2135330982
  0
LINE
  8
2_FEATURE
 62
7
  6
CONTINUOUS
 10
139.8695974353
 20
228.2135330982
 11
140.085795082
 21
228.2135330982
  0
POLYLINE
  8
2_FEATURE
 62
7
  6
CONTINUOUS
 66
1
 70
0
  0
VERTEX
  8
2_FEATURE
 62
7
  6
CONTINUOUS
 10
114.754651496
 20
231.4931431228
  0
VERTEX
  8
2_FEATURE
 62
7
  6
CONTINUOUS
 10
114.7506525337
 20
231.4933592644
  0
VERTEX
  8
2_FEATURE
 62
7
  6
CONTINUOUS
 10
114.7466448722
 20
231.4934891188
  0
VERTEX
  8
2_FEATURE
 62
7
  6
CONTINUOUS
 10
114.7426298387
 20
231.4935330982
  0
SEQEND
  0
POLYLINE
  8
2_FEATURE
 62
7
  6
CONTINUOUS
 66
1
 70
0
  0
VERTEX
  8
2_FEATURE
 62
7
  6
CONTINUOUS
 10
114.754651496
 20
231.4931431228
  0
VERTEX
  8
2_FEATURE
 62
7
  6
CONTINUOUS
 10
114.8181711845
 20
231.4815792686
  0
VERTEX
  8
2_FEATURE
 62
7
  6
CONTINUOUS
 10
114.8696109282
 20
231.4584726275
  0
VERTEX
  8
2_FEATURE
 62
7
  6
CONTINUOUS
 10
114.9066680417
 20
231.4276201434
  0
VERTEX
  8
2_FEATURE
 62
7
  6
CONTINUOUS
 10
114.9286505982
 20
231.3922852044
  0
VERTEX
  8
2_FEATURE
 62
7
  6
CONTINUOUS
 10
114.935795082
 20
231.3553558238
  0
SEQEND
  0
LINE
  8
2_FEATURE
 62
7
  6
CONTINUOUS
 10
168.1961190348
 20
231.4935330982
 11
140.2789603253
 21
231.4935330982
  0
LINE
  8
2_FEATURE
 62
7
  6
CONTINUOUS
 10
86.8254711292
 20
231.4935330982
 11
114.7426298387
 21
231.4935330982
  0
LINE
  8
2_FEATURE
 62
7
  6
CONTINUOUS
 10
86.510795082
 20
232.0035330982
 11
168.510795082
 21
232.0035330982
  0
LINE
  8
2_FEATURE
 62
7
  6
CONTINUOUS
 10
140.085795082
 20
217.5035330982
 11
140.085795082
 21
231.5035330982
  0
LINE
  8
2_FEATURE
 62
7
  6
CONTINUOUS
 10
143.010795082
 20
216.3035330982
 11
143.010795082
 21
212.6035330982
  0
LINE
  8
2_FEATURE
 62
7
  6
CONTINUOUS
 10
148.960795082
 20
227.8235330982
 11
148.960795082
 21
216.5489021
  0
LINE
  8
2_FEATURE
 62
7
  6
CONTINUOUS
 10
155.010795082
 20
212.6035330982
 11
155.010795082
 21
215.6035330982
  0
POLYLINE
  8
2_FEATURE
 62
7
  6
CONTINUOUS
 66
1
 70
0
  0
VERTEX
  8
2_FEATURE
 62
7
  6
CONTINUOUS
 10
168.810795082
 20
231.0944093392
  0
VERTEX
  8
2_FEATURE
 62
7
  6
CONTINUOUS
 10
168.8045043045
 20
231.1534353964
  0
VERTEX
  8
2_FEATURE
 62
7
  6
CONTINUOUS
 10
168.7560499428
 20
231.2582403419
  0
VERTEX
  8
2_FEATURE
 62
7
  6
CONTINUOUS
 10
168.6645169816
 20
231.3443827405
  0
VERTEX
  8
2_FEATURE
 62
7
  6
CONTINUOUS
 10
168.6043563335
 20
231.3805177011
  0
VERTEX
  8
2_FEATURE
 62
7
  6
CONTINUOUS
 10
168.4600651172
 20
231.4388539647
  0
VERTEX
  8
2_FEATURE
 62
7
  6
CONTINUOUS
 10
168.288759609
 20
231.4796348343
  0
VERTEX
  8
2_FEATURE
 62
7
  6
CONTINUOUS
 10
168.1961190348
 20
231.4935330982
  0
SEQEND
  0
LINE
  8
2_FEATURE
 62
7
  6
CONTINUOUS
 10
168.1961190348
 20
231.4935330982
 11
168.1961190348
 21
231.5035333475
  0
LINE
  8
2_FEATURE
 62
7
  6
CONTINUOUS
 10
168.810795082
 20
228.0235330982
 11
168.810795082
 21
231.7035330982
  0
LINE
  8
2_FEATURE
 62
7
  6
CONTINUOUS
 10
86.210795082
 20
129.9265354182
 11
86.210795082
 21
144.4863946479
  0
LINE
  8
2_FEATURE
 62
7
  6
CONTINUOUS
 10
106.060795082
 20
147.2663908132
 11
106.060795082
 21
145.4863946479
  0
LINE
  8
2_FEATURE
 62
7
  6
CONTINUOUS
 10
138.3929647704
 20
113.2163946479
 11
116.6286253936
 21
113.2163946479
  0
LINE
  8
2_FEATURE
 62
7
  6
CONTINUOUS
 10
114.435795082
 20
140.1163946479
 11
114.435795082
 21
136.0463946479
  0
LINE
  8
2_FEATURE
 62
7
  6
CONTINUOUS
 10
114.935795082
 20
121.6063946479
 11
114.935795082
 21
126.1596419002
  0
LINE
  8
2_FEATURE
 62
7
  6
CONTINUOUS
 10
116.1355104336
 20
113.6381814949
 11
114.997353379
 21
120.8242223227
  0
LINE
  8
DEFAULT_1
 62
2
  6
CENTER
 10
73.6086147541
 20
121.2163946479
 11
180.6879590164
 21
121.2163946479
  0
LINE
  8
2_FEATURE
 62
7
  6
CONTINUOUS
 10
112.5475445852
 20
147.4042108774
 11
114.2421035617
 21
141.494581427
  0
POLYLINE
  8
2_FEATURE
 62
7
  6
CONTINUOUS
 66
1
 70
0
  0
VERTEX
  8
2_FEATURE
 62
7
  6
CONTINUOUS
 10
106.0783467988
 20
145.4671251868
  0
VERTEX
  8
2_FEATURE
 62
7
  6
CONTINUOUS
 10
106.1238017954
 20
145.4158983632
  0
VERTEX
  8
2_FEATURE
 62
7
  6
CONTINUOUS
 10
106.1435313815
 20
145.3932415845
  0
VERTEX
  8
2_FEATURE
 62
7
  6
CONTINUOUS
 10
106.1651245082
 20
145.3679397981
  0
VERTEX
  8
2_FEATURE
 62
7
  6
CONTINUOUS
 10
106.1883727838
 20
145.3400746163
  0
VERTEX
  8
2_FEATURE
 62
7
  6
CONTINUOUS
 10
106.213090898
 20
145.3097242186
  0
VERTEX
  8
2_FEATURE
 62
7
  6
CONTINUOUS
 10
106.2391121802
 20
145.276963982
  0
VERTEX
  8
2_FEATURE
 62
7
  6
CONTINUOUS
 10
106.2525636507
 20
145.259703092
  0
VERTEX
  8
2_FEATURE
 62
7
  6
CONTINUOUS
 10
106.2802595419
 20
145.2234645981
  0
VERTEX
  8
2_FEATURE
 62
7
  6
CONTINUOUS
 10
106.3089021507
 20
145.1849959586
  0
VERTEX
  8
2_FEATURE
 62
7
  6
CONTINUOUS
 10
106.3383664486
 20
145.1443670558
  0
VERTEX
  8
2_FEATURE
 62
7
  6
CONTINUOUS
 10
106.3685345295
 20
145.1016475582
  0
VERTEX
  8
2_FEATURE
 62
7
  6
CONTINUOUS
 10
106.3992942565
 20
145.0569073932
  0
VERTEX
  8
2_FEATURE
 62
7
  6
CONTINUOUS
 10
106.4305381498
 20
145.0102174266
  0
VERTEX
  8
2_FEATURE
 62
7
  6
CONTINUOUS
 10
106.4621628741
 20
144.9616503826
  0
VERTEX
  8
2_FEATURE
 62
7
  6
CONTINUOUS
 10
106.4940708828
 20
144.9112825384
  0
VERTEX
  8
2_FEATURE
 62
7
  6
CONTINUOUS
 10
106.5261872254
 20
144.8592012126
  0
VERTEX
  8
2_FEATURE
 62
7
  6
CONTINUOUS
 10
106.560795082
 20
144.8063946479
  0
SEQEND
  0
POLYLINE
  8
2_FEATURE
 62
7
  6
CONTINUOUS
 66
1
 70
0
  0
VERTEX
  8
2_FEATURE
 62
7
  6
CONTINUOUS
 10
106.0628139069
 20
145.4863946479
  0
VERTEX
  8
2_FEATURE
 62
7
  6
CONTINUOUS
 10
106.0688345333
 20
145.4783112762
  0
VERTEX
  8
2_FEATURE
 62
7
  6
CONTINUOUS
 10
106.0783467988
 20
145.4671251868
  0
SEQEND
  0
LINE
  8
2_FEATURE
 62
7
  6
CONTINUOUS
 10
168.1961190348
 20
129.0037540512
 11
140.2669386679
 21
126.358751005
  0
LINE
  8
2_FEATURE
 62
7
  6
CONTINUOUS
 10
86.8254711292
 20
129.0037540512
 11
114.754651496
 21
126.358751005
  0
LINE
  8
DEFAULT_1
 62
2
  6
CENTER
 10
127.510795082
 20
111.2163946479
 11
127.510795082
 21
149.7663946479
  0
POLYLINE
  8
2_FEATURE
 62
7
  6
CONTINUOUS
 66
1
 70
0
  0
VERTEX
  8
2_FEATURE
 62
7
  6
CONTINUOUS
 10
148.8977883685
 20
145.4158983632
  0
VERTEX
  8
2_FEATURE
 62
7
  6
CONTINUOUS
 10
148.8780587824
 20
145.3932415845
  0
VERTEX
  8
2_FEATURE
 62
7
  6
CONTINUOUS
 10
148.8564656558
 20
145.3679397981
  0
VERTEX
  8
2_FEATURE
 62
7
  6
CONTINUOUS
 10
148.8332173801
 20
145.3400746163
  0
VERTEX
  8
2_FEATURE
 62
7
  6
CONTINUOUS
 10
148.8084992659
 20
145.3097242186
  0
VERTEX
  8
2_FEATURE
 62
7
  6
CONTINUOUS
 10
148.7824779837
 20
145.276963982
  0
VERTEX
  8
2_FEATURE
 62
7
  6
CONTINUOUS
 10
148.7690265132
 20
145.259703092
  0
VERTEX
  8
2_FEATURE
 62
7
  6
CONTINUOUS
 10
148.7413306221
 20
145.2234645981
  0
VERTEX
  8
2_FEATURE
 62
7
  6
CONTINUOUS
 10
148.7126880132
 20
145.1849959586
  0
VERTEX
  8
2_FEATURE
 62
7
  6
CONTINUOUS
 10
148.6832237154
 20
145.1443670558
  0
VERTEX
  8
2_FEATURE
 62
7
  6
CONTINUOUS
 10
148.6530556344
 20
145.1016475582
  0
VERTEX
  8
2_FEATURE
 62
7
  6
CONTINUOUS
 10
148.6222959075
 20
145.0569073932
  0
VERTEX
  8
2_FEATURE
 62
7
  6
CONTINUOUS
 10
148.5910520142
 20
145.0102174266
  0
VERTEX
  8
2_FEATURE
 62
7
  6
CONTINUOUS
 10
148.5594272899
 20
144.9616503826
  0
VERTEX
  8
2_FEATURE
 62
7
  6
CONTINUOUS
 10
148.5275192811
 20
144.9112825384
  0
VERTEX
  8
2_FEATURE
 62
7
  6
CONTINUOUS
 10
148.4954029385
 20
144.8592012126
  0
VERTEX
  8
2_FEATURE
 62
7
  6
CONTINUOUS
 10
148.460795082
 20
144.8063946479
  0
SEQEND
  0
LINE
  8
2_FEATURE
 62
7
  6
CONTINUOUS
 10
148.9432433652
 20
145.4671251868
 11
148.8977883685
 21
145.4158983632
  0
LINE
  8
2_FEATURE
 62
7
  6
CONTINUOUS
 10
114.935795082
 20
135.5463946479
 11
140.085795082
 21
135.5463946479
  0
POLYLINE
  8
2_FEATURE
 62
7
  6
CONTINUOUS
 66
1
 70
0
  0
VERTEX
  8
2_FEATURE
 62
7
  6
CONTINUOUS
 10
148.9587762571
 20
145.4863946479
  0
VERTEX
  8
2_FEATURE
 62
7
  6
CONTINUOUS
 10
148.9527556306
 20
145.4783112762
  0
VERTEX
  8
2_FEATURE
 62
7
  6
CONTINUOUS
 10
148.9432433652
 20
145.4671251868
  0
SEQEND
  0
LINE
  8
2_FEATURE
 62
7
  6
CONTINUOUS
 10
142.4740455787
 20
147.4042108774
 11
140.7794866023
 21
141.494581427
  0
LINE
  8
DEFAULT_1
 62
2
  6
CENTER
 10
75.3932704918
 20
140.3033946479
 11
178.7050081967
 21
140.3033946479
  0
LINE
  8
2_FEATURE
 62
7
  6
CONTINUOUS
 10
140.085795082
 20
121.6063946479
 11
140.085795082
 21
126.1596419002
  0
LINE
  8
2_FEATURE
 62
7
  6
CONTINUOUS
 10
140.585795082
 20
140.1163946479
 11
140.585795082
 21
136.0463946479
  0
LINE
  8
2_FEATURE
 62
7
  6
CONTINUOUS
 10
140.5885736318
 20
140.2830613146
 11
140.585795082
 21
140.1163946479
  0
LINE
  8
2_FEATURE
 62
7
  6
CONTINUOUS
 10
138.8860797303
 20
113.6381814949
 11
140.0242367849
 21
120.8242223227
  0
LINE
  8
2_FEATURE
 62
7
  6
CONTINUOUS
 10
168.5417694037
 20
144.8063946479
 11
148.460795082
 21
144.8063946479
  0
LINE
  8
2_FEATURE
 62
7
  6
CONTINUOUS
 10
86.4798207603
 20
144.8063946479
 11
106.560795082
 21
144.8063946479
  0
LINE
  8
2_FEATURE
 62
7
  6
CONTINUOUS
 10
106.0628139069
 20
145.4863946479
 11
87.2107950833
 21
145.4863946479
  0
LINE
  8
2_FEATURE
 62
7
  6
CONTINUOUS
 10
148.9587762571
 20
145.4863946479
 11
167.8107950806
 21
145.4863946479
  0
LINE
  8
2_FEATURE
 62
7
  6
CONTINUOUS
 10
148.460795082
 20
147.7663946479
 11
142.9534985764
 21
147.7663946479
  0
LINE
  8
2_FEATURE
 62
7
  6
CONTINUOUS
 10
112.0680915876
 20
147.7663946479
 11
106.560795082
 21
147.7663946479
  0
LINE
  8
2_FEATURE
 62
7
  6
CONTINUOUS
 10
148.960795082
 20
147.2663908132
 11
148.960795082
 21
145.4863946479
  0
LINE
  8
2_FEATURE
 62
7
  6
CONTINUOUS
 10
168.810795082
 20
129.9265354182
 11
168.810795082
 21
144.4863946479
  0
LINE
  8
2_FEATURE
 62
7
  6
CONTINUOUS
 10
263.6227462129
 20
141.9118429151
 11
272.0227462129
 21
146.7615851763
  0
LINE
  8
2_FEATURE
 62
7
  6
CONTINUOUS
 10
263.3727462129
 20
131.4551392354
 11
263.3727462129
 21
141.4788302132
  0
LINE
  8
DEFAULT_1
 62
2
  6
CENTER
 10
294.4845491803
 20
121.2163946479
 11
277.7728462129
 21
121.2163946479
  0
LINE
  8
0
 62
2
  6
CONTINUOUS
 10
276.8227462129
 20
121.2163946479
 11
274.7227462129
 21
121.2163946479
  0
LINE
  8
DEFAULT_1
 62
2
  6
CENTER
 10
263.9471065574
 20
121.2163946479
 11
273.7726462129
 21
121.2163946479
  0
POLYLINE
  8
2_FEATURE
 62
7
  6
CONTINUOUS
 66
1
 70
0
  0
VERTEX
  8
2_FEATURE
 62
7
  6
CONTINUOUS
 10
263.3727462129
 20
131.4551392354
  0
VERTEX
  8
2_FEATURE
 62
7
  6
CONTINUOUS
 10
263.3871338182
 20
131.3360569023
  0
VERTEX
  8
2_FEATURE
 62
7
  6
CONTINUOUS
 10
263.4296727611
 20
131.2234370208
  0
VERTEX
  8
2_FEATURE
 62
7
  6
CONTINUOUS
 10
263.4985191221
 20
131.1235459839
  0
VERTEX
  8
2_FEATURE
 62
7
  6
CONTINUOUS
 10
263.5418332172
 20
131.0803104889
  0
VERTEX
  8
2_FEATURE
 62
7
  6
CONTINUOUS
 10
263.6433855171
 20
131.0108491599
  0
VERTEX
  8
2_FEATURE
 62
7
  6
CONTINUOUS
 10
263.7598392875
 20
130.9680540004
  0
SEQEND
  0
POLYLINE
  8
2_FEATURE
 62
7
  6
CONTINUOUS
 66
1
 70
0
  0
VERTEX
  8
2_FEATURE
 62
7
  6
CONTINUOUS
 10
267.371729453
 20
139.7386123417
  0
VERTEX
  8
2_FEATURE
 62
7
  6
CONTINUOUS
 10
267.3722944498
 20
139.7170198216
  0
VERTEX
  8
2_FEATURE
 62
7
  6
CONTINUOUS
 10
267.3726332985
 20
139.6954304561
  0
VERTEX
  8
2_FEATURE
 62
7
  6
CONTINUOUS
 10
267.3727462129
 20
139.6738442905
  0
SEQEND
  0
LINE
  8
2_FEATURE
 62
7
  6
CONTINUOUS
 10
267.3727462129
 20
134.2533616697
 11
267.3727462129
 21
139.6738442905
  0
LINE
  8
2_FEATURE
 62
7
  6
CONTINUOUS
 10
279.4347321689
 20
143.6339139555
 11
279.5845871068
 21
143.7663946479
  0
LINE
  8
2_FEATURE
 62
7
  6
CONTINUOUS
 10
268.2727462129
 20
130.8997723443
 11
268.2727462129
 21
120.7163946479
  0
POLYLINE
  8
2_FEATURE
 62
7
  6
CONTINUOUS
 66
1
 70
0
  0
VERTEX
  8
2_FEATURE
 62
7
  6
CONTINUOUS
 10
272.0627462129
 20
119.8478678949
  0
VERTEX
  8
2_FEATURE
 62
7
  6
CONTINUOUS
 10
272.1260280693
 20
119.1730335387
  0
VERTEX
  8
2_FEATURE
 62
7
  6
CONTINUOUS
 10
272.3136475712
 20
118.521392175
  0
VERTEX
  8
2_FEATURE
 62
7
  6
CONTINUOUS
 10
272.6191197652
 20
117.9151183534
  0
VERTEX
  8
2_FEATURE
 62
7
  6
CONTINUOUS
 10
273.0319525472
 20
117.3748331497
  0
VERTEX
  8
2_FEATURE
 62
7
  6
CONTINUOUS
 10
273.5380081845
 20
116.9188875655
  0
VERTEX
  8
2_FEATURE
 62
7
  6
CONTINUOUS
 10
274.120004988
 20
116.5627315204
  0
VERTEX
  8
2_FEATURE
 62
7
  6
CONTINUOUS
 10
274.7581210767
 20
116.3184036566
  0
VERTEX
  8
2_FEATURE
 62
7
  6
CONTINUOUS
 10
275.4306694227
 20
116.1941463619
  0
VERTEX
  8
2_FEATURE
 62
7
  6
CONTINUOUS
 10
276.1148230032
 20
116.1941463619
  0
VERTEX
  8
2_FEATURE
 62
7
  6
CONTINUOUS
 10
276.7873713492
 20
116.3184036566
  0
VERTEX
  8
2_FEATURE
 62
7
  6
CONTINUOUS
 10
277.4254874379
 20
116.5627315204
  0
VERTEX
  8
2_FEATURE
 62
7
  6
CONTINUOUS
 10
278.0074842414
 20
116.9188875655
  0
VERTEX
  8
2_FEATURE
 62
7
  6
CONTINUOUS
 10
278.5135398787
 20
117.3748331497
  0
VERTEX
  8
2_FEATURE
 62
7
  6
CONTINUOUS
 10
278.9263726606
 20
117.9151183534
  0
VERTEX
  8
2_FEATURE
 62
7
  6
CONTINUOUS
 10
279.2318448547
 20
118.521392175
  0
VERTEX
  8
2_FEATURE
 62
7
  6
CONTINUOUS
 10
279.4194643566
 20
119.1730335387
  0
VERTEX
  8
2_FEATURE
 62
7
  6
CONTINUOUS
 10
279.4827462129
 20
119.8478678949
  0
SEQEND
  0
LINE
  8
2_FEATURE
 62
7
  6
CONTINUOUS
 10
272.0627462129
 20
119.8478678949
 11
272.0627462129
 21
122.3923929944
  0
LINE
  8
2_FEATURE
 62
7
  6
CONTINUOUS
 10
282.7627462129
 20
129.0037540512
 11
282.7727464622
 21
129.0037540512
  0
POLYLINE
  8
2_FEATURE
 62
7
  6
CONTINUOUS
 66
1
 70
0
  0
VERTEX
  8
2_FEATURE
 62
7
  6
CONTINUOUS
 10
272.0627462129
 20
121.2922230506
  0
VERTEX
  8
2_FEATURE
 62
7
  6
CONTINUOUS
 10
272.1064290426
 20
121.862034205
  0
VERTEX
  8
2_FEATURE
 62
7
  6
CONTINUOUS
 10
272.2364113099
 20
122.4183082399
  0
VERTEX
  8
2_FEATURE
 62
7
  6
CONTINUOUS
 10
272.4495281927
 20
122.9478631259
  0
VERTEX
  8
2_FEATURE
 62
7
  6
CONTINUOUS
 10
272.74061518
 20
123.4382108301
  0
VERTEX
  8
2_FEATURE
 62
7
  6
CONTINUOUS
 10
273.1026644786
 20
123.8778656745
  0
VERTEX
  8
2_FEATURE
 62
7
  6
CONTINUOUS
 10
273.5270277801
 20
124.2566117597
  0
VERTEX
  8
2_FEATURE
 62
7
  6
CONTINUOUS
 10
274.0036525832
 20
124.5657236718
  0
VERTEX
  8
2_FEATURE
 62
7
  6
CONTINUOUS
 10
274.5213395894
 20
124.7981393111
  0
VERTEX
  8
2_FEATURE
 62
7
  6
CONTINUOUS
 10
275.068010737
 20
124.9485874317
  0
VERTEX
  8
2_FEATURE
 62
7
  6
CONTINUOUS
 10
275.6309804927
 20
125.0136747478
  0
VERTEX
  8
2_FEATURE
 62
7
  6
CONTINUOUS
 10
275.914513703
 20
125.0136746799
  0
VERTEX
  8
2_FEATURE
 62
7
  6
CONTINUOUS
 10
276.4774833658
 20
124.948587106
  0
VERTEX
  8
2_FEATURE
 62
7
  6
CONTINUOUS
 10
277.0241543125
 20
124.7981387802
  0
VERTEX
  8
2_FEATURE
 62
7
  6
CONTINUOUS
 10
277.5418410409
 20
124.5657230194
  0
VERTEX
  8
2_FEATURE
 62
7
  6
CONTINUOUS
 10
278.0184655325
 20
124.2566110828
  0
VERTEX
  8
2_FEATURE
 62
7
  6
CONTINUOUS
 10
278.4428285335
 20
123.8778650645
  0
VERTEX
  8
2_FEATURE
 62
7
  6
CONTINUOUS
 10
278.8048775798
 20
123.4382103546
  0
VERTEX
  8
2_FEATURE
 62
7
  6
CONTINUOUS
 10
279.095964386
 20
122.9478628168
  0
VERTEX
  8
2_FEATURE
 62
7
  6
CONTINUOUS
 10
279.309081164
 20
122.4183080881
  0
VERTEX
  8
2_FEATURE
 62
7
  6
CONTINUOUS
 10
279.4390633895
 20
121.8620341649
  0
VERTEX
  8
2_FEATURE
 62
7
  6
CONTINUOUS
 10
279.4827462129
 20
121.2922230506
  0
SEQEND
  0
LINE
  8
2_FEATURE
 62
7
  6
CONTINUOUS
 10
263.7598392875
 20
130.9680540004
 11
263.8727462129
 21
130.9551392375
  0
POLYLINE
  8
2_FEATURE
 62
7
  6
CONTINUOUS
 66
1
 70
0
  0
VERTEX
  8
2_FEATURE
 62
7
  6
CONTINUOUS
 10
278.2983932378
 20
142.5863946479
  0
VERTEX
  8
2_FEATURE
 62
7
  6
CONTINUOUS
 10
278.2672563409
 20
142.4774108034
  0
VERTEX
  8
2_FEATURE
 62
7
  6
CONTINUOUS
 10
278.2369412301
 20
142.3730946083
  0
VERTEX
  8
2_FEATURE
 62
7
  6
CONTINUOUS
 10
278.2090212889
 20
142.2785837257
  0
SEQEND
  0
LINE
  8
2_FEATURE
 62
7
  6
CONTINUOUS
 10
278.2090212889
 20
142.2785837257
 11
278.1665987983
 21
142.1378500638
  0
LINE
  8
2_FEATURE
 62
7
  6
CONTINUOUS
 10
278.1665987983
 20
142.1378500638
 11
278.1508220406
 21
142.0863946479
  0
LINE
  8
2_FEATURE
 62
7
  6
CONTINUOUS
 10
263.8727462129
 20
130.9551392354
 11
267.5727462129
 21
130.9551392354
  0
POLYLINE
  8
2_FEATURE
 62
7
  6
CONTINUOUS
 66
1
 70
0
  0
VERTEX
  8
2_FEATURE
 62
7
  6
CONTINUOUS
 10
267.5727462129
 20
130.9551394901
  0
VERTEX
  8
2_FEATURE
 62
7
  6
CONTINUOUS
 10
267.6628227064
 20
130.9543493486
  0
VERTEX
  8
2_FEATURE
 62
7
  6
CONTINUOUS
 10
267.8640282823
 20
130.9467281405
  0
VERTEX
  8
2_FEATURE
 62
7
  6
CONTINUOUS
 10
268.0374015758
 20
130.932996436
  0
VERTEX
  8
2_FEATURE
 62
7
  6
CONTINUOUS
 10
268.1804938131
 20
130.9154818449
  0
VERTEX
  8
2_FEATURE
 62
7
  6
CONTINUOUS
 10
268.2936765002
 20
130.8962081621
  0
VERTEX
  8
2_FEATURE
 62
7
  6
CONTINUOUS
 10
268.3778724801
 20
130.8771065383
  0
VERTEX
  8
2_FEATURE
 62
7
  6
CONTINUOUS
 10
268.4312672454
 20
130.8612288435
  0
VERTEX
  8
2_FEATURE
 62
7
  6
CONTINUOUS
 10
268.4500954
 20
130.8541424208
  0
SEQEND
  0
LINE
  8
0
 62
2
  6
CONTINUOUS
 10
275.7727462129
 20
141.3533946479
 11
275.7727462129
 21
139.2533946479
  0
LINE
  8
DEFAULT_1
 62
2
  6
CENTER
 10
275.7727462129
 20
135.0533946479
 11
275.7727462129
 21
133.1533946479
  0
LINE
  8
DEFAULT_1
 62
2
  6
CENTER
 10
275.7727462129
 20
130.2460081967
 11
275.7727462129
 21
123.2164946479
  0
LINE
  8
0
 62
2
  6
CONTINUOUS
 10
275.7727462129
 20
122.2663946479
 11
275.7727462129
 21
120.1663946479
  0
LINE
  8
DEFAULT_1
 62
2
  6
CENTER
 10
275.7727462129
 20
106.0540081967
 11
275.7727462129
 21
119.2162946479
  0
LINE
  8
DEFAULT_1
 62
2
  6
CENTER
 10
275.7727462129
 20
145.5533946479
 11
275.7727462129
 21
147.4533946479
  0
POLYLINE
  8
2_FEATURE
 62
7
  6
CONTINUOUS
 66
1
 70
0
  0
VERTEX
  8
2_FEATURE
 62
7
  6
CONTINUOUS
 10
273.2662385746
 20
142.5863946479
  0
VERTEX
  8
2_FEATURE
 62
7
  6
CONTINUOUS
 10
273.2971098081
 20
142.4773724619
  0
VERTEX
  8
2_FEATURE
 62
7
  6
CONTINUOUS
 10
273.327163384
 20
142.373032951
  0
VERTEX
  8
2_FEATURE
 62
7
  6
CONTINUOUS
 10
273.3548387265
 20
142.2785164928
  0
VERTEX
  8
2_FEATURE
 62
7
  6
CONTINUOUS
 10
273.3785693686
 20
142.1986678997
  0
VERTEX
  8
2_FEATURE
 62
7
  6
CONTINUOUS
 10
273.4125067092
 20
142.0863946479
  0
SEQEND
  0
POLYLINE
  8
2_FEATURE
 62
7
  6
CONTINUOUS
 66
1
 70
0
  0
VERTEX
  8
2_FEATURE
 62
7
  6
CONTINUOUS
 10
279.4827462129
 20
122.3923929944
  0
VERTEX
  8
2_FEATURE
 62
7
  6
CONTINUOUS
 10
279.4192816346
 20
123.0782887866
  0
VERTEX
  8
2_FEATURE
 62
7
  6
CONTINUOUS
 10
279.2311737738
 20
123.7404220548
  0
VERTEX
  8
2_FEATURE
 62
7
  6
CONTINUOUS
 10
278.9250721477
 20
124.3561225144
  0
VERTEX
  8
2_FEATURE
 62
7
  6
CONTINUOUS
 10
278.5116885994
 20
124.904409689
  0
VERTEX
  8
2_FEATURE
 62
7
  6
CONTINUOUS
 10
278.0053673889
 20
125.3667338182
  0
VERTEX
  8
2_FEATURE
 62
7
  6
CONTINUOUS
 10
277.4235190938
 20
125.7275908469
  0
VERTEX
  8
2_FEATURE
 62
7
  6
CONTINUOUS
 10
276.7859773137
 20
125.9749840495
  0
VERTEX
  8
2_FEATURE
 62
7
  6
CONTINUOUS
 10
276.114319496
 20
126.1007469065
  0
VERTEX
  8
2_FEATURE
 62
7
  6
CONTINUOUS
 10
275.4311729299
 20
126.1007469065
  0
VERTEX
  8
2_FEATURE
 62
7
  6
CONTINUOUS
 10
274.7595151121
 20
125.9749840495
  0
VERTEX
  8
2_FEATURE
 62
7
  6
CONTINUOUS
 10
274.121973332
 20
125.7275908469
  0
VERTEX
  8
2_FEATURE
 62
7
  6
CONTINUOUS
 10
273.540125037
 20
125.3667338182
  0
VERTEX
  8
2_FEATURE
 62
7
  6
CONTINUOUS
 10
273.0338038265
 20
124.904409689
  0
VERTEX
  8
2_FEATURE
 62
7
  6
CONTINUOUS
 10
272.6204202781
 20
124.3561225144
  0
VERTEX
  8
2_FEATURE
 62
7
  6
CONTINUOUS
 10
272.3143186521
 20
123.7404220548
  0
VERTEX
  8
2_FEATURE
 62
7
  6
CONTINUOUS
 10
272.1262107912
 20
123.0782887866
  0
VERTEX
  8
2_FEATURE
 62
7
  6
CONTINUOUS
 10
272.0627462129
 20
122.3923929944
  0
SEQEND
  0
POLYLINE
  8
2_FEATURE
 62
7
  6
CONTINUOUS
 66
1
 70
0
  0
VERTEX
  8
2_FEATURE
 62
7
  6
CONTINUOUS
 10
279.5414962129
 20
132.844708434
  0
VERTEX
  8
2_FEATURE
 62
7
  6
CONTINUOUS
 10
280.298778828
 20
132.3385115343
  0
VERTEX
  8
2_FEATURE
 62
7
  6
CONTINUOUS
 10
280.9900142508
 20
131.7434338842
  0
VERTEX
  8
2_FEATURE
 62
7
  6
CONTINUOUS
 10
281.3075565209
 20
131.4152245519
  0
VERTEX
  8
2_FEATURE
 62
7
  6
CONTINUOUS
 10
281.8805345159
 20
130.7034175235
  0
VERTEX
  8
2_FEATURE
 62
7
  6
CONTINUOUS
 10
282.3636224539
 20
129.9265354182
  0
SEQEND
  0
LINE
  8
2_FEATURE
 62
7
  6
CONTINUOUS
 10
279.2927462129
 20
136.3332435173
 11
279.2927462129
 21
130.998172155
  0
LINE
  8
2_FEATURE
 62
7
  6
CONTINUOUS
 10
279.4827462129
 20
119.8478678949
 11
279.4827462129
 21
122.3923929944
  0
POLYLINE
  8
2_FEATURE
 62
7
  6
CONTINUOUS
 66
1
 70
0
  0
VERTEX
  8
2_FEATURE
 62
7
  6
CONTINUOUS
 10
279.5414962129
 20
132.844708434
  0
VERTEX
  8
2_FEATURE
 62
7
  6
CONTINUOUS
 10
279.4385281428
 20
132.9244648523
  0
VERTEX
  8
2_FEATURE
 62
7
  6
CONTINUOUS
 10
279.3595063645
 20
133.0282082768
  0
VERTEX
  8
2_FEATURE
 62
7
  6
CONTINUOUS
 10
279.3097582636
 20
133.1490366109
  0
VERTEX
  8
2_FEATURE
 62
7
  6
CONTINUOUS
 10
279.2927462129
 20
133.2789312734
  0
SEQEND
  0
POLYLINE
  8
2_FEATURE
 62
7
  6
CONTINUOUS
 66
1
 70
0
  0
VERTEX
  8
2_FEATURE
 62
7
  6
CONTINUOUS
 10
279.4827462129
 20
121.1468303651
  0
VERTEX
  8
2_FEATURE
 62
7
  6
CONTINUOUS
 10
279.4389735574
 20
120.5754777163
  0
VERTEX
  8
2_FEATURE
 62
7
  6
CONTINUOUS
 10
279.3087427264
 20
120.0177790354
  0
VERTEX
  8
2_FEATURE
 62
7
  6
CONTINUOUS
 10
279.0952768075
 20
119.4870134953
  0
VERTEX
  8
2_FEATURE
 62
7
  6
CONTINUOUS
 10
278.8038234564
 20
118.9957309323
  0
VERTEX
  8
2_FEATURE
 62
7
  6
CONTINUOUS
 10
278.4414807473
 20
118.5554351789
  0
VERTEX
  8
2_FEATURE
 62
7
  6
CONTINUOUS
 10
278.0169752199
 20
118.1763172131
  0
VERTEX
  8
2_FEATURE
 62
7
  6
CONTINUOUS
 10
277.5404089786
 20
117.8670435591
  0
VERTEX
  8
2_FEATURE
 62
7
  6
CONTINUOUS
 10
277.0229917349
 20
117.6345989929
  0
VERTEX
  8
2_FEATURE
 62
7
  6
CONTINUOUS
 10
276.4767703072
 20
117.4841775943
  0
VERTEX
  8
2_FEATURE
 62
7
  6
CONTINUOUS
 10
275.9143633773
 20
117.4191134138
  0
VERTEX
  8
2_FEATURE
 62
7
  6
CONTINUOUS
 10
275.6311265053
 20
117.4191135115
  0
VERTEX
  8
2_FEATURE
 62
7
  6
CONTINUOUS
 10
275.0687197096
 20
117.4841780625
  0
VERTEX
  8
2_FEATURE
 62
7
  6
CONTINUOUS
 10
274.5224985716
 20
117.6345997556
  0
VERTEX
  8
2_FEATURE
 62
7
  6
CONTINUOUS
 10
274.0050817283
 20
117.8670444958
  0
VERTEX
  8
2_FEATURE
 62
7
  6
CONTINUOUS
 10
273.5285159351
 20
118.1763181838
  0
VERTEX
  8
2_FEATURE
 62
7
  6
CONTINUOUS
 10
273.1040108394
 20
118.5554360527
  0
VERTEX
  8
2_FEATURE
 62
7
  6
CONTINUOUS
 10
272.7416684921
 20
118.9957316125
  0
VERTEX
  8
2_FEATURE
 62
7
  6
CONTINUOUS
 10
272.4502154001
 20
119.487013937
  0
VERTEX
  8
2_FEATURE
 62
7
  6
CONTINUOUS
 10
272.236749631
 20
120.0177792522
  0
VERTEX
  8
2_FEATURE
 62
7
  6
CONTINUOUS
 10
272.1065188596
 20
120.5754777736
  0
VERTEX
  8
2_FEATURE
 62
7
  6
CONTINUOUS
 10
272.0627462129
 20
121.1468303651
  0
SEQEND
  0
POLYLINE
  8
2_FEATURE
 62
7
  6
CONTINUOUS
 66
1
 70
0
  0
VERTEX
  8
2_FEATURE
 62
7
  6
CONTINUOUS
 10
282.3636224539
 20
129.9265354182
  0
VERTEX
  8
2_FEATURE
 62
7
  6
CONTINUOUS
 10
282.4226485111
 20
129.8145444319
  0
VERTEX
  8
2_FEATURE
 62
7
  6
CONTINUOUS
 10
282.5274534567
 20
129.6002023858
  0
VERTEX
  8
2_FEATURE
 62
7
  6
CONTINUOUS
 10
282.6135958553
 20
129.4058062006
  0
VERTEX
  8
2_FEATURE
 62
7
  6
CONTINUOUS
 10
282.6497308159
 20
129.3180450402
  0
VERTEX
  8
2_FEATURE
 62
7
  6
CONTINUOUS
 10
282.7080670794
 20
129.1659774511
  0
VERTEX
  8
2_FEATURE
 62
7
  6
CONTINUOUS
 10
282.748847949
 20
129.0481562797
  0
VERTEX
  8
2_FEATURE
 62
7
  6
CONTINUOUS
 10
282.7627462129
 20
129.0037540512
  0
SEQEND
  0
LINE
  8
2_FEATURE
 62
7
  6
CONTINUOUS
 10
282.7627462129
 20
129.0037540512
 11
282.7627462129
 21
126.3598895032
  0
LINE
  8
2_FEATURE
 62
7
  6
CONTINUOUS
 10
279.9428552374
 20
139.979008628
 11
279.4407265502
 21
139.9692074247
  0
LINE
  8
2_FEATURE
 62
7
  6
CONTINUOUS
 10
271.6069998271
 20
139.9214931422
 11
272.1091575632
 21
139.9192373272
  0
LINE
  8
2_FEATURE
 62
7
  6
CONTINUOUS
 10
283.2727462129
 20
120.7163946479
 11
283.2727462129
 21
140.2663946479
  0
POLYLINE
  8
2_FEATURE
 62
7
  6
CONTINUOUS
 66
1
 70
0
  0
VERTEX
  8
2_FEATURE
 62
7
  6
CONTINUOUS
 10
282.7623562376
 20
126.358751005
  0
VERTEX
  8
2_FEATURE
 62
7
  6
CONTINUOUS
 10
282.7625723792
 20
126.3591297225
  0
VERTEX
  8
2_FEATURE
 62
7
  6
CONTINUOUS
 10
282.7627022336
 20
126.3595092638
  0
VERTEX
  8
2_FEATURE
 62
7
  6
CONTINUOUS
 10
282.7627462129
 20
126.3598895032
  0
SEQEND
  0
LINE
  8
2_FEATURE
 62
7
  6
CONTINUOUS
 10
282.7623562376
 20
126.358751005
 11
282.6968332582
 21
126.2635766471
  0
LINE
  8
2_FEATURE
 62
7
  6
CONTINUOUS
 10
282.6968332582
 20
126.2635766471
 11
282.6245689386
 21
126.1596419002
  0
LINE
  8
0
 62
2
  6
CONTINUOUS
 10
276.8227462129
 20
140.3033946479
 11
274.7227462129
 21
140.3033946479
  0
LINE
  8
DEFAULT_1
 62
2
  6
CENTER
 10
270.5227462129
 20
140.3033946479
 11
268.6227462129
 21
140.3033946479
  0
LINE
  8
DEFAULT_1
 62
2
  6
CENTER
 10
281.0227462129
 20
140.3033946479
 11
282.9227462129
 21
140.3033946479
  0
LINE
  8
2_FEATURE
 62
7
  6
CONTINUOUS
 10
278.1508220406
 20
142.0863946479
 11
273.4125067092
 21
142.0863946479
  0
LINE
  8
2_FEATURE
 62
7
  6
CONTINUOUS
 10
279.4590781417
 20
145.4863946479
 11
280.5037099799
 21
145.4863946479
  0
LINE
  8
2_FEATURE
 62
7
  6
CONTINUOUS
 10
281.9728752439
 20
144.4863946479
 11
281.8712918769
 21
144.6319118893
  0
ARC
  8
2_FEATURE
 62
7
  6
CONTINUOUS
 10
100.510795082
 20
212.6035330982
 40
0.5
 50
180.0
 51
270.0
  0
ARC
  8
2_FEATURE
 62
7
  6
CONTINUOUS
 10
100.510795082
 20
215.6035329762
 40
0.5
 50
90.0
 51
179.9999860195
  0
ARC
  8
2_FEATURE
 62
7
  6
CONTINUOUS
 10
105.560795082
 20
216.6035330982
 40
0.5
 50
270.0
 51
359.5246439039
  0
ARC
  8
2_FEATURE
 62
7
  6
CONTINUOUS
 10
111.510795082
 20
212.6035330982
 40
0.5
 50
270.0
 51
360.0
  0
ARC
  8
2_FEATURE
 62
7
  6
CONTINUOUS
 10
112.710795082
 20
216.3035330982
 40
0.7
 50
90.0
 51
180.0
  0
ARC
  8
2_FEATURE
 62
7
  6
CONTINUOUS
 10
115.435795082
 20
217.5035330982
 40
0.5
 50
180.0
 51
270.0
  0
ARC
  8
2_FEATURE
 62
7
  6
CONTINUOUS
 10
115.435795082
 20
231.5035330982
 40
0.5
 50
90.0
 51
180.0
  0
ARC
  8
2_FEATURE
 62
7
  6
CONTINUOUS
 10
86.510795082
 20
231.7035330982
 40
0.3
 50
90.0
 51
180.0
  0
ARC
  8
2_FEATURE
 62
7
  6
CONTINUOUS
 10
105.860795082
 20
227.8235330982
 40
0.2
 50
0.0
 51
90.0
  0
ARC
  8
2_FEATURE
 62
7
  6
CONTINUOUS
 10
143.510795082
 20
212.6035330982
 40
0.5
 50
180.0
 51
270.0
  0
ARC
  8
2_FEATURE
 62
7
  6
CONTINUOUS
 10
142.310795082
 20
216.3035330982
 40
0.7
 50
0.0
 51
90.0
  0
ARC
  8
2_FEATURE
 62
7
  6
CONTINUOUS
 10
139.585795082
 20
217.5035330982
 40
0.5
 50
270.0
 51
360.0
  0
ARC
  8
2_FEATURE
 62
7
  6
CONTINUOUS
 10
154.510795082
 20
212.6035330982
 40
0.5
 50
270.0
 51
360.0
  0
ARC
  8
2_FEATURE
 62
7
  6
CONTINUOUS
 10
149.460795082
 20
216.6035330982
 40
0.5
 50
180.4753560961
 51
270.0
  0
ARC
  8
2_FEATURE
 62
7
  6
CONTINUOUS
 10
154.510795082
 20
215.6035330982
 40
0.5
 50
0.0
 51
90.0
  0
ARC
  8
2_FEATURE
 62
7
  6
CONTINUOUS
 10
139.585795082
 20
231.5035330982
 40
0.5
 50
0.0
 51
90.0
  0
ARC
  8
2_FEATURE
 62
7
  6
CONTINUOUS
 10
168.510795082
 20
231.7035330982
 40
0.3
 50
0.0
 51
90.0
  0
ARC
  8
2_FEATURE
 62
7
  6
CONTINUOUS
 10
149.160795082
 20
227.8235330982
 40
0.2
 50
90.0
 51
180.0
  0
ARC
  8
2_FEATURE
 62
7
  6
CONTINUOUS
 10
119.935795082
 20
121.6063946479
 40
5.0
 50
180.0
 51
189.0
  0
ARC
  8
2_FEATURE
 62
7
  6
CONTINUOUS
 10
87.210795082
 20
129.9265354182
 40
1.0
 50
180.0
 51
247.3361468826
  0
ARC
  8
2_FEATURE
 62
7
  6
CONTINUOUS
 10
116.6293551617
 20
113.7163952062
 40
0.5
 50
189.0
 51
269.9999982505
  0
ARC
  8
2_FEATURE
 62
7
  6
CONTINUOUS
 10
114.735795082
 20
126.1596419002
 40
0.2
 50
0.0
 51
84.59
  0
ARC
  8
2_FEATURE
 62
7
  6
CONTINUOUS
 10
109.435795082
 20
140.1163946479
 40
5.0
 50
0.0
 51
16.0
  0
ARC
  8
2_FEATURE
 62
7
  6
CONTINUOUS
 10
87.210795082
 20
144.4863946479
 40
1.0
 50
89.999999924
 51
180.0
  0
ARC
  8
2_FEATURE
 62
7
  6
CONTINUOUS
 10
106.560795082
 20
147.2663946479
 40
0.5
 50
90.0
 51
180.0
  0
ARC
  8
2_FEATURE
 62
7
  6
CONTINUOUS
 10
112.0669131914
 20
147.2663941029
 40
0.5
 50
15.9999999999
 51
89.9999959811
  0
ARC
  8
2_FEATURE
 62
7
  6
CONTINUOUS
 10
114.935795082
 20
136.0463946479
 40
0.5
 50
180.0
 51
270.0
  0
ARC
  8
2_FEATURE
 62
7
  6
CONTINUOUS
 10
135.085795082
 20
121.6063946479
 40
5.0
 50
351.0
 51
360.0
  0
ARC
  8
2_FEATURE
 62
7
  6
CONTINUOUS
 10
167.810795082
 20
129.9265354182
 40
1.0
 50
292.6638531174
 51
360.0
  0
ARC
  8
2_FEATURE
 62
7
  6
CONTINUOUS
 10
138.3922350023
 20
113.7163952062
 40
0.5
 50
270.0000017495
 51
351.0
  0
ARC
  8
2_FEATURE
 62
7
  6
CONTINUOUS
 10
140.285795082
 20
126.1596419002
 40
0.2
 50
95.41
 51
180.0
  0
ARC
  8
2_FEATURE
 62
7
  6
CONTINUOUS
 10
145.585795082
 20
140.1163946479
 40
5.0
 50
164.0
 51
180.0
  0
ARC
  8
2_FEATURE
 62
7
  6
CONTINUOUS
 10
167.810795082
 20
144.4863946479
 40
1.0
 50
0.0
 51
90.000000076
  0
ARC
  8
2_FEATURE
 62
7
  6
CONTINUOUS
 10
148.460795082
 20
147.2663946479
 40
0.5
 50
0.0
 51
90.0
  0
ARC
  8
2_FEATURE
 62
7
  6
CONTINUOUS
 10
142.9546769725
 20
147.2663941029
 40
0.5
 50
90.0000040189
 51
164.0000000001
  0
ARC
  8
2_FEATURE
 62
7
  6
CONTINUOUS
 10
140.085795082
 20
136.0463946479
 40
0.5
 50
270.0
 51
360.0
  0
ARC
  8
2_FEATURE
 62
7
  6
CONTINUOUS
 10
263.8727462129
 20
141.4788302132
 40
0.5
 50
120.0
 51
180.0
  0
ARC
  8
2_FEATURE
 62
7
  6
CONTINUOUS
 10
275.7727462129
 20
120.7163946479
 40
7.5
 50
180.0
 51
360.0
  0
ARC
  8
2_FEATURE
 62
7
  6
CONTINUOUS
 10
275.0827462129
 20
139.6063946479
 40
2.99
 50
123.9596228214
 51
173.9941699644
  0
ARC
  8
2_FEATURE
 62
7
  6
CONTINUOUS
 10
276.4627462129
 20
139.6063946479
 40
3.0
 50
6.9462167689
 51
55.7578312974
  0
ARC
  8
2_FEATURE
 62
7
  6
CONTINUOUS
 10
275.7727462129
 20
140.2663946479
 40
7.5
 50
0.0
 51
120.0
  0
ARC
  8
2_FEATURE
 62
7
  6
CONTINUOUS
 10
275.7727462129
 20
140.3033946479
 40
5.15
 50
315.3574516585
 51
42.2546735916
  0
ARC
  8
2_FEATURE
 62
7
  6
CONTINUOUS
 10
275.7727462129
 20
140.2663946479
 40
3.68
 50
185.41311693
 51
355.36789771
  0
ARC
  8
2_FEATURE
 62
7
  6
CONTINUOUS
 10
279.7927462129
 20
136.3332435173
 40
0.5
 50
135.3574516585
 51
180.0
  0
ARC
  8
2_FEATURE
 62
7
  6
CONTINUOUS
 10
280.3527462129
 20
143.7429182526
 40
1.75
 50
37.4234406716
 51
85.0512281941
  0
ARC
  8
2_FEATURE
 62
7
  6
CONTINUOUS
 10
280.49387474
 20
144.5463946479
 40
1.198
 50
128.3125063401
 51
220.6234669706
  0
ENDSEC
  0
EOF
