  0
SECTION
  2
HEADER
  9
$EXTMAX
 10
420.0
 20
297.0
 30
0.0
  9
$EXTMIN
 10
0.0
 20
0.0
 30
0.0
  9
$LIMMIN
 10
0.0
 20
0.0
  9
$LIMMAX
 10
420.0
 20
297.0
  9
$VIEWCTR
 10
210.0
 20
148.5
  9
$VIEWSIZE
 40
297.0
  9
$CLAYER
  8
0
  9
$LTSCALE
 40
23.1
  9
$CELTYPE
  6
BYLAYER
  9
$DIMSCALE
 40
1.0
  9
$DIMASZ
 40
3.5
  9
$DIMEXO
 40
1.0
  9
$DIMDLI
 40
15.96
  9
$DIMEXE
 40
2.0
  9
$DIMCEN
 40
3.78
  9
$DIMLFAC
 40
1.0
  9
$DIMBLK
  1
_FILLED
  9
$DIMTXT
 40
3.5
  9
$PDMODE
 70
3
  9
$PDSIZE
 40
0.3125
  9
$TILEMODE
 70
1
  0
ENDSEC
  0
SECTION
  2
TABLES
  0
TABLE
  2
LTYPE
 70
6
  0
LTYPE
  2
BYBLOCK
 70
0
  3

 72
65
 73
0
 40
0.0
  0
LTYPE
  2
BYLAYER
 70
0
  3

 72
65
 73
0
 40
0.0
  0
LTYPE
  2
CONTINUOUS
 70
64
  3
Solid line
 72
65
 73
0
 40
0.0
  0
LTYPE
  2
CENTER
 70
64
  3
____ _ ____ _ ____ _ ____ _ ____ _ ____ _ ____
 72
65
 73
4
 40
0.6
 49
0.375
 49
-0.075
 49
0.075
 49
-0.075
  0
LTYPE
  2
HIDDEN
 70
64
  3
- - - - - - - - - - - - - - - - - - - -
 72
65
 73
2
 40
0.2
 49
0.1
 49
-0.1
  0
LTYPE
  2
PHANTOM
 70
64
  3
_____ _ _ _____ _ _ _____ _ _ _____
 72
65
 73
6
 40
0.8
 49
0.45
 49
-0.05
 49
0.1
 49
-0.05
 49
0.1
 49
-0.05
  0
LTYPE
  2
DOT
 70
64
  3
. . . . . . . . . . . . . . . . . . . .
 72
65
 73
2
 40
0.2
 49
0.1
 49
-0.1
  0
LTYPE
  2
DASHED
 70
64
  3
- - - - - - - - - - - - - - - - - - - -
 72
65
 73
2
 40
0.2
 49
0.1
 49
-0.1
  0
ENDTAB
  0
TABLE
  2
LAYER
 70
36
  0
LAYER
  2
0
 70
0
 62
7
  6
CONTINUOUS
  0
LAYER
  2
DEFAULT_1
 70
0
 62
7
  6
CENTER
  0
LAYER
  2
DEFAULT_2
 70
0
 62
8
  6
HIDDEN
  0
LAYER
  2
DEFAULT_3
 70
0
 62
7
  6
PHANTOM
  0
LAYER
  2
1_AXIS
 70
0
 62
7
  6
CONTINUOUS
  0
LAYER
  2
1_DATUM_PLANE
 70
0
 62
7
  6
CONTINUOUS
  0
LAYER
  2
1_DATUM_PLANES
 70
0
 62
7
  6
CONTINUOUS
  0
LAYER
  2
2_FEATURE
 70
0
 62
7
  6
CONTINUOUS
  0
LAYER
  2
3_CURVE
 70
0
 62
7
  6
CONTINUOUS
  0
LAYER
  2
4_QUILT
 70
0
 62
7
  6
CONTINUOUS
  0
LAYER
  2
4_SURFACE
 70
0
 62
7
  6
CONTINUOUS
  0
LAYER
  2
6_DIM
 70
0
 62
7
  6
CONTINUOUS
  0
LAYER
  2
6_NOTE
 70
0
 62
7
  6
CONTINUOUS
  0
LAYER
  2
AXES
 70
0
 62
7
  6
CONTINUOUS
  0
LAYER
  2
CSYS
 70
0
 62
7
  6
CONTINUOUS
  0
LAYER
  2
NOTES
 70
0
 62
7
  6
CONTINUOUS
  0
ENDTAB
  0
TABLE
  2
STYLE
 70
1
  0
STYLE
  2
STANDARD
 70
0
 40
0.0
 41
0.8
 50
0.0
 71
0
 42
0.2
  3
txt
  4

  0
STYLE
  2
TEXTSTYLE_1
 70
0
 40
0.0
 41
0.8
 50
0.0
 71
0
 42
0.2
  3
gdt
  4

  0
STYLE
  2
TEXTSTYLE_2
 70
0
 40
0.0
 41
0.6
 50
0.0
 71
0
 42
0.2
  3
txt
  4

  0
STYLE
  2
TEXTSTYLE_3
 70
0
 40
0.0
 41
1.0
 50
0.0
 71
0
 42
0.2
  3
ftb_____.ttf
  4

  0
STYLE
  2
TEXTSTYLE_4
 70
0
 40
0.0
 41
1.0
 50
0.0
 71
0
 42
0.2
  3
fti_____.ttf
  4

  0
STYLE
  2
TEXTSTYLE_5
 70
0
 40
0.0
 41
1.0
 50
0.0
 71
0
 42
0.2
  3
frutiger light.ttf
  4

  0
STYLE
  2
TEXTSTYLE_6
 70
0
 40
0.0
 41
0.7
 50
0.0
 71
0
 42
0.2
  3
txt
  4

  0
STYLE
  2
TEXTSTYLE_7
 70
0
 40
0.0
 41
0.8
 50
0.0
 71
0
 42
0.2
  3
txt
  4

  0
ENDTAB
  0
ENDSEC
  0
SECTION
  2
BLOCKS
  0
BLOCK
  8
0
 62
2
  6
CONTINUOUS
  2
SYMBOL_5_BL1
 70
64
 10
382.3920721743
 20
35.7654615278
  0
TEXT
  8
0
 62
7
  6
CONTINUOUS
 10
373.4503571828
 20
30.9093678571
  7
TEXTSTYLE_4
 40
1.0655737705
  1
The brand for plastic modular belts and chains
 41
1.0
 72
0
  0
LINE
  8
0
 62
7
  6
CONTINUOUS
 10
358.3701405634
 20
36.3903819718
 11
358.3701405634
 21
34.2592344308
  0
LINE
  8
0
 62
7
  6
CONTINUOUS
 10
358.6592030565
 20
31.2683031351
 11
358.6592030565
 21
31.3650941944
  0
LINE
  8
0
 62
7
  6
CONTINUOUS
 10
358.3701405634
 20
31.332830508
 11
358.4279530651
 21
31.1392483894
  0
LINE
  8
0
 62
7
  6
CONTINUOUS
 10
359.7635831863
 20
34.1772672177
 11
359.7635831863
 21
36.3903819718
  0
LINE
  8
0
 62
7
  6
CONTINUOUS
 10
360.6826405082
 20
32.3330049227
 11
360.6826405082
 21
30.81661148
  0
LINE
  8
0
 62
7
  6
CONTINUOUS
 10
360.9717030634
 20
30.81661148
 11
360.9717030634
 21
31.5586763581
  0
LINE
  8
0
 62
7
  6
CONTINUOUS
 10
360.9717030634
 20
31.6877311038
 11
360.9717030634
 21
32.3330049227
  0
LINE
  8
0
 62
7
  6
CONTINUOUS
 10
358.4279530651
 20
31.5264126717
 11
358.3701405634
 21
31.332830508
  0
LINE
  8
0
 62
7
  6
CONTINUOUS
 10
358.7748280496
 20
31.106984703
 11
358.6592030565
 21
31.2683031351
  0
LINE
  8
0
 62
7
  6
CONTINUOUS
 10
359.8732656185
 20
31.623203731
 11
359.9310780634
 21
31.5264126717
  0
LINE
  8
0
 62
7
  6
CONTINUOUS
 10
360.2201406185
 20
31.5264126717
 11
360.1623280082
 21
31.6554674174
  0
LINE
  8
0
 62
7
  6
CONTINUOUS
 10
361.648829088
 20
36.3903819718
 11
361.648829088
 21
34.5871032833
  0
LINE
  8
0
 62
7
  6
CONTINUOUS
 10
361.648829088
 20
33.2756278735
 11
361.648829088
 21
32.6198901686
  0
LINE
  8
0
 62
7
  6
CONTINUOUS
 10
362.0123280634
 20
31.4618852989
 11
362.0123280634
 21
30.81661148
  0
LINE
  8
0
 62
7
  6
CONTINUOUS
 10
362.3013904531
 20
30.81661148
 11
362.3013904531
 21
31.4618852989
  0
LINE
  8
0
 62
7
  6
CONTINUOUS
 10
358.6592030565
 20
31.3650941944
 11
358.7170155634
 21
31.4941489853
  0
LINE
  8
0
 62
7
  6
CONTINUOUS
 10
358.4279530651
 20
31.1392483894
 11
358.5435780634
 21
31.0101936212
  0
LINE
  8
0
 62
7
  6
CONTINUOUS
 10
361.9545154531
 20
31.5909400446
 11
362.0123280634
 21
31.4618852989
  0
LINE
  8
0
 62
7
  6
CONTINUOUS
 10
362.7638906736
 20
31.106984703
 11
362.8217029531
 21
30.9779299347
  0
LINE
  8
0
 62
7
  6
CONTINUOUS
 10
362.3013904531
 20
31.4618852989
 11
362.2435781736
 21
31.623203731
  0
LINE
  8
0
 62
7
  6
CONTINUOUS
 10
362.7638906736
 20
31.6554674174
 11
362.7638906736
 21
31.5909400446
  0
LINE
  8
0
 62
7
  6
CONTINUOUS
 10
362.7638906736
 20
31.2037757623
 11
362.7638906736
 21
31.106984703
  0
LINE
  8
0
 62
7
  6
CONTINUOUS
 10
363.0422717109
 20
32.6198901686
 11
363.0422717109
 21
36.3903819718
  0
LINE
  8
0
 62
7
  6
CONTINUOUS
 10
363.0529530634
 20
31.074720994
 11
363.0529530634
 21
31.1392483894
  0
LINE
  8
0
 62
7
  6
CONTINUOUS
 10
363.3701405634
 20
36.3903819718
 11
363.3701405634
 21
32.6198901686
  0
LINE
  8
0
 62
7
  6
CONTINUOUS
 10
360.1623280082
 20
31.0101936212
 11
360.2201406185
 21
31.1392483894
  0
LINE
  8
0
 62
7
  6
CONTINUOUS
 10
364.5560782839
 20
30.9134025506
 11
364.4982653428
 21
31.074720994
  0
LINE
  8
0
 62
7
  6
CONTINUOUS
 10
364.2092032839
 20
31.5909400446
 11
364.2092032839
 21
31.4941489853
  0
LINE
  8
0
 62
7
  6
CONTINUOUS
 10
364.2092032839
 20
31.3650941944
 11
364.2092032839
 21
31.1715120759
  0
LINE
  8
0
 62
7
  6
CONTINUOUS
 10
364.4982653428
 20
31.074720994
 11
364.4982653428
 21
31.5909400446
  0
LINE
  8
0
 62
7
  6
CONTINUOUS
 10
364.7635831863
 20
32.6198901686
 11
364.7635831863
 21
34.4231688571
  0
LINE
  8
0
 62
7
  6
CONTINUOUS
 10
364.7635831863
 20
35.7346442669
 11
364.7635831863
 21
36.3903819718
  0
LINE
  8
0
 62
7
  6
CONTINUOUS
 10
365.0763907839
 20
32.3330049227
 11
365.0763907839
 21
32.1716864905
  0
LINE
  8
0
 62
7
  6
CONTINUOUS
 10
365.0763907839
 20
31.8490495359
 11
365.0763907839
 21
30.81661148
  0
LINE
  8
0
 62
7
  6
CONTINUOUS
 10
365.3654528428
 20
30.81661148
 11
365.3654528428
 21
31.8490495359
  0
LINE
  8
0
 62
7
  6
CONTINUOUS
 10
365.3654528428
 20
32.1716864905
 11
365.3654528428
 21
32.3330049227
  0
LINE
  8
0
 62
7
  6
CONTINUOUS
 10
359.9310780634
 20
31.1392483894
 11
359.8732656185
 21
31.0424573076
  0
LINE
  8
0
 62
7
  6
CONTINUOUS
 10
362.2435781736
 20
31.623203731
 11
362.1857655634
 21
31.6877311038
  0
LINE
  8
0
 62
7
  6
CONTINUOUS
 10
363.1107656736
 20
31.0101936212
 11
363.0529530634
 21
31.074720994
  0
LINE
  8
0
 62
7
  6
CONTINUOUS
 10
364.2670155634
 20
30.8811388585
 11
364.3248278428
 21
30.81661148
  0
LINE
  8
0
 62
7
  6
CONTINUOUS
 10
364.2092032839
 20
30.9779299347
 11
364.2670155634
 21
30.8811388585
  0
LINE
  8
0
 62
7
  6
CONTINUOUS
 10
364.6138905634
 20
30.81661148
 11
364.5560782839
 21
30.9134025506
  0
LINE
  8
0
 62
7
  6
CONTINUOUS
 10
364.4982653428
 20
31.5909400446
 11
364.4404530634
 21
31.6877311038
  0
LINE
  8
0
 62
7
  6
CONTINUOUS
 10
365.8279530634
 20
31.8490495359
 11
365.8279530634
 21
30.81661148
  0
LINE
  8
0
 62
7
  6
CONTINUOUS
 10
366.1170157839
 20
30.81661148
 11
366.1170157839
 21
31.5586763581
  0
LINE
  8
0
 62
7
  6
CONTINUOUS
 10
366.1170157839
 20
31.6877311038
 11
366.1170157839
 21
31.8490495359
  0
LINE
  8
0
 62
7
  6
CONTINUOUS
 10
366.648829088
 20
34.8330049227
 11
366.648829088
 21
32.6198901686
  0
LINE
  8
0
 62
7
  6
CONTINUOUS
 10
358.5435780634
 20
31.6554674174
 11
358.4279530651
 21
31.5264126717
  0
LINE
  8
0
 62
7
  6
CONTINUOUS
 10
358.7170155634
 20
31.4941489853
 11
358.7748280496
 21
31.5586763581
  0
LINE
  8
0
 62
7
  6
CONTINUOUS
 10
358.5435780634
 20
31.0101936212
 11
358.6592030565
 21
30.945666237
  0
LINE
  8
0
 62
7
  6
CONTINUOUS
 10
358.9482655496
 20
31.0101936212
 11
358.7748280496
 21
31.106984703
  0
LINE
  8
0
 62
7
  6
CONTINUOUS
 10
364.1513903428
 20
31.6554674174
 11
364.2092032839
 21
31.5909400446
  0
LINE
  8
0
 62
7
  6
CONTINUOUS
 10
367.0998278428
 20
31.5909400446
 11
367.1576407839
 21
31.4296216124
  0
LINE
  8
0
 62
7
  6
CONTINUOUS
 10
367.4467028428
 20
31.4296216124
 11
367.3888905634
 21
31.5909400446
  0
LINE
  8
0
 62
7
  6
CONTINUOUS
 10
367.1576407839
 20
31.4296216124
 11
367.1576407839
 21
30.81661148
  0
LINE
  8
0
 62
7
  6
CONTINUOUS
 10
367.4467028428
 20
30.81661148
 11
367.4467028428
 21
31.4296216124
  0
LINE
  8
0
 62
7
  6
CONTINUOUS
 10
367.9092030634
 20
31.6554674174
 11
367.9092030634
 21
31.5909400446
  0
LINE
  8
0
 62
7
  6
CONTINUOUS
 10
368.0422717109
 20
32.6198901686
 11
368.0422717109
 21
34.7510377095
  0
LINE
  8
0
 62
7
  6
CONTINUOUS
 10
368.3701405634
 20
36.3903819718
 11
368.3701405634
 21
32.6198901686
  0
LINE
  8
0
 62
7
  6
CONTINUOUS
 10
363.0529530634
 20
31.1392483894
 11
363.1107656736
 21
31.2360394487
  0
LINE
  8
0
 62
7
  6
CONTINUOUS
 10
358.6592030565
 20
30.945666237
 11
358.8326405772
 21
30.8811388585
  0
LINE
  8
0
 62
7
  6
CONTINUOUS
 10
360.1623280082
 20
31.6554674174
 11
359.9888905082
 21
31.7522584767
  0
LINE
  8
0
 62
7
  6
CONTINUOUS
 10
362.8217029531
 20
30.9779299347
 11
362.9951404531
 21
30.8811388585
  0
LINE
  8
0
 62
7
  6
CONTINUOUS
 10
361.8388905634
 20
31.6554674174
 11
361.9545154531
 21
31.5909400446
  0
LINE
  8
0
 62
7
  6
CONTINUOUS
 10
362.1857655634
 20
31.6877311038
 11
362.0701406736
 21
31.7522584767
  0
LINE
  8
0
 62
7
  6
CONTINUOUS
 10
367.9092030634
 20
31.074720994
 11
368.0248282839
 21
30.945666237
  0
LINE
  8
0
 62
7
  6
CONTINUOUS
 10
368.2560780634
 20
31.0101936212
 11
368.1982657839
 21
31.074720994
  0
LINE
  8
0
 62
7
  6
CONTINUOUS
 10
367.9092030634
 20
31.5909400446
 11
368.0248282839
 21
31.4618852989
  0
LINE
  8
0
 62
7
  6
CONTINUOUS
 10
367.3888905634
 20
31.5909400446
 11
367.3310782839
 21
31.6877311038
  0
LINE
  8
0
 62
7
  6
CONTINUOUS
 10
369.7592026223
 20
31.0101936212
 11
369.7592026223
 21
31.074720994
  0
LINE
  8
0
 62
7
  6
CONTINUOUS
 10
369.7635831863
 20
32.6198901686
 11
369.7635831863
 21
36.3903819718
  0
LINE
  8
0
 62
7
  6
CONTINUOUS
 10
362.8217029531
 20
31.7199947902
 11
362.7638906736
 21
31.6554674174
  0
LINE
  8
0
 62
7
  6
CONTINUOUS
 10
359.6998280358
 20
31.6877311038
 11
359.8732656185
 21
31.623203731
  0
LINE
  8
0
 62
7
  6
CONTINUOUS
 10
364.4404530634
 20
31.6877311038
 11
364.3248278428
 21
31.7522584767
  0
LINE
  8
0
 62
7
  6
CONTINUOUS
 10
368.2560780634
 20
31.5264126717
 11
368.1982657839
 21
31.5909400446
  0
LINE
  8
0
 62
7
  6
CONTINUOUS
 10
369.4123282839
 20
31.1392483894
 11
369.4701405634
 21
31.074720994
  0
LINE
  8
0
 62
7
  6
CONTINUOUS
 10
369.7592026223
 20
31.074720994
 11
369.6435780634
 21
31.2037757623
  0
LINE
  8
0
 62
7
  6
CONTINUOUS
 10
369.4123282839
 20
31.6554674174
 11
369.4701405634
 21
31.5909400446
  0
LINE
  8
0
 62
7
  6
CONTINUOUS
 10
369.7592026223
 20
31.5909400446
 11
369.6435780634
 21
31.7199947902
  0
LINE
  8
0
 62
7
  6
CONTINUOUS
 10
363.0529530634
 20
31.5909400446
 11
363.1107656736
 21
31.6554674174
  0
LINE
  8
0
 62
7
  6
CONTINUOUS
 10
362.8795155634
 20
31.332830508
 11
362.7638906736
 21
31.2037757623
  0
LINE
  8
0
 62
7
  6
CONTINUOUS
 10
364.2092032839
 20
31.1715120759
 11
364.1513903428
 21
31.106984703
  0
LINE
  8
0
 62
7
  6
CONTINUOUS
 10
364.1513903428
 20
30.9134025506
 11
364.2092032839
 21
30.9779299347
  0
LINE
  8
0
 62
7
  6
CONTINUOUS
 10
362.9951404531
 20
30.8811388585
 11
363.1107656736
 21
30.8488751693
  0
LINE
  8
0
 62
7
  6
CONTINUOUS
 10
359.9888905082
 20
31.7522584767
 11
359.7576405634
 21
31.8167858495
  0
LINE
  8
0
 62
7
  6
CONTINUOUS
 10
363.3420154531
 20
30.945666237
 11
363.1107656736
 21
31.0101936212
  0
LINE
  8
0
 62
7
  6
CONTINUOUS
 10
362.0701406736
 20
31.7522584767
 11
361.8967031736
 21
31.8167858495
  0
LINE
  8
0
 62
7
  6
CONTINUOUS
 10
364.3248278428
 20
31.7522584767
 11
364.1513903428
 21
31.8167858495
  0
LINE
  8
0
 62
7
  6
CONTINUOUS
 10
366.9842032839
 20
31.6554674174
 11
367.0998278428
 21
31.5909400446
  0
LINE
  8
0
 62
7
  6
CONTINUOUS
 10
367.3310782839
 20
31.6877311038
 11
367.2154530634
 21
31.7522584767
  0
LINE
  8
0
 62
7
  6
CONTINUOUS
 10
358.8326405772
 20
30.8811388585
 11
359.0060780772
 21
30.8488751693
  0
LINE
  8
0
 62
7
  6
CONTINUOUS
 10
359.2951405909
 20
30.945666237
 11
358.9482655496
 21
31.0101936212
  0
LINE
  8
0
 62
7
  6
CONTINUOUS
 10
361.7232656736
 20
31.6877311038
 11
361.8388905634
 21
31.6554674174
  0
LINE
  8
0
 62
7
  6
CONTINUOUS
 10
364.0357657839
 20
31.6877311038
 11
364.1513903428
 21
31.6554674174
  0
LINE
  8
0
 62
7
  6
CONTINUOUS
 10
368.3717032839
 20
30.9779299347
 11
368.2560780634
 21
31.0101936212
  0
LINE
  8
0
 62
7
  6
CONTINUOUS
 10
366.8685780634
 20
31.6877311038
 11
366.9842032839
 21
31.6554674174
  0
LINE
  8
0
 62
7
  6
CONTINUOUS
 10
368.0248282839
 20
30.945666237
 11
368.1982657839
 21
30.8811388585
  0
LINE
  8
0
 62
7
  6
CONTINUOUS
 10
367.2154530634
 20
31.7522584767
 11
367.0420155634
 21
31.8167858495
  0
LINE
  8
0
 62
7
  6
CONTINUOUS
 10
368.4295155634
 20
31.4618852989
 11
368.2560780634
 21
31.5264126717
  0
LINE
  8
0
 62
7
  6
CONTINUOUS
 10
369.2388907839
 20
31.2037757623
 11
369.4123282839
 21
31.1392483894
  0
LINE
  8
0
 62
7
  6
CONTINUOUS
 10
369.6435780634
 20
31.7199947902
 11
369.4701405634
 21
31.7845221631
  0
LINE
  8
0
 62
7
  6
CONTINUOUS
 10
368.0248282839
 20
31.4618852989
 11
368.2560780634
 21
31.3650941944
  0
LINE
  8
0
 62
7
  6
CONTINUOUS
 10
369.6435780634
 20
31.2037757623
 11
369.4123282839
 21
31.3005668216
  0
LINE
  8
0
 62
7
  6
CONTINUOUS
 10
368.1982657839
 20
31.5909400446
 11
368.2560780634
 21
31.6554674174
  0
LINE
  8
0
 62
7
  6
CONTINUOUS
 10
358.6592030565
 20
31.7199947902
 11
358.5435780634
 21
31.6554674174
  0
LINE
  8
0
 62
7
  6
CONTINUOUS
 10
358.7748280496
 20
31.5586763581
 11
358.9482655496
 21
31.6554674174
  0
LINE
  8
0
 62
7
  6
CONTINUOUS
 10
361.0873281185
 20
31.7522584767
 11
360.9717030634
 21
31.6877311038
  0
LINE
  8
0
 62
7
  6
CONTINUOUS
 10
360.9717030634
 20
31.5586763581
 11
361.0873281185
 21
31.623203731
  0
LINE
  8
0
 62
7
  6
CONTINUOUS
 10
359.9888905082
 20
30.9134025506
 11
360.1623280082
 21
31.0101936212
  0
LINE
  8
0
 62
7
  6
CONTINUOUS
 10
359.0060780772
 20
30.8488751693
 11
359.3529530358
 21
30.81661148
  0
LINE
  8
0
 62
7
  6
CONTINUOUS
 10
363.1107656736
 20
30.8488751693
 11
363.3420154531
 21
30.81661148
  0
LINE
  8
0
 62
7
  6
CONTINUOUS
 10
361.4920155634
 20
31.7199947902
 11
361.7232656736
 21
31.6877311038
  0
LINE
  8
0
 62
7
  6
CONTINUOUS
 10
363.8045156736
 20
31.7199947902
 11
364.0357657839
 21
31.6877311038
  0
LINE
  8
0
 62
7
  6
CONTINUOUS
 10
368.2560780634
 20
31.3650941944
 11
369.2388907839
 21
31.2037757623
  0
LINE
  8
0
 62
7
  6
CONTINUOUS
 10
369.4123282839
 20
31.3005668216
 11
368.4295155634
 21
31.4618852989
  0
LINE
  8
0
 62
7
  6
CONTINUOUS
 10
361.8967031736
 20
31.8167858495
 11
361.7232656736
 21
31.8490495359
  0
LINE
  8
0
 62
7
  6
CONTINUOUS
 10
368.1982657839
 20
30.8811388585
 11
368.3717032839
 21
30.8488751693
  0
LINE
  8
0
 62
7
  6
CONTINUOUS
 10
367.0420155634
 20
31.8167858495
 11
366.8685780634
 21
31.8490495359
  0
LINE
  8
0
 62
7
  6
CONTINUOUS
 10
369.2967030634
 20
31.6877311038
 11
369.4123282839
 21
31.6554674174
  0
LINE
  8
0
 62
7
  6
CONTINUOUS
 10
369.4701405634
 20
31.074720994
 11
369.4123282839
 21
31.0101936212
  0
LINE
  8
0
 62
7
  6
CONTINUOUS
 10
368.0248282839
 20
31.7522584767
 11
367.9092030634
 21
31.6554674174
  0
LINE
  8
0
 62
7
  6
CONTINUOUS
 10
362.9373281736
 20
31.7845221631
 11
362.8217029531
 21
31.7199947902
  0
LINE
  8
0
 62
7
  6
CONTINUOUS
 10
362.9951404531
 20
31.397357926
 11
362.8795155634
 21
31.332830508
  0
LINE
  8
0
 62
7
  6
CONTINUOUS
 10
363.1107656736
 20
31.2360394487
 11
363.2263905634
 21
31.3005668216
  0
LINE
  8
0
 62
7
  6
CONTINUOUS
 10
360.6826405082
 20
30.81661148
 11
360.9717030634
 21
30.81661148
  0
LINE
  8
0
 62
7
  6
CONTINUOUS
 10
362.0123280634
 20
30.81661148
 11
362.3013904531
 21
30.81661148
  0
LINE
  8
0
 62
7
  6
CONTINUOUS
 10
363.3420154531
 20
30.81661148
 11
363.6888904531
 21
30.81661148
  0
LINE
  8
0
 62
7
  6
CONTINUOUS
 10
364.3248278428
 20
30.81661148
 11
364.6138905634
 21
30.81661148
  0
LINE
  8
0
 62
7
  6
CONTINUOUS
 10
365.0763907839
 20
30.81661148
 11
365.3654528428
 21
30.81661148
  0
LINE
  8
0
 62
7
  6
CONTINUOUS
 10
365.8279530634
 20
30.81661148
 11
366.1170157839
 21
30.81661148
  0
LINE
  8
0
 62
7
  6
CONTINUOUS
 10
367.1576407839
 20
30.81661148
 11
367.4467028428
 21
30.81661148
  0
LINE
  8
0
 62
7
  6
CONTINUOUS
 10
368.7185782839
 20
30.81661148
 11
369.0654532839
 21
30.81661148
  0
LINE
  8
0
 62
7
  6
CONTINUOUS
 10
369.0654532839
 20
30.945666237
 11
368.7185782839
 21
30.945666237
  0
LINE
  8
0
 62
7
  6
CONTINUOUS
 10
363.6888904531
 20
30.945666237
 11
363.3420154531
 21
30.945666237
  0
LINE
  8
0
 62
7
  6
CONTINUOUS
 10
368.1982657839
 20
31.074720994
 11
367.9092030634
 21
31.074720994
  0
LINE
  8
0
 62
7
  6
CONTINUOUS
 10
360.2201406185
 20
31.1392483894
 11
359.9310780634
 21
31.1392483894
  0
LINE
  8
0
 62
7
  6
CONTINUOUS
 10
359.2951405909
 20
31.7199947902
 11
359.6998280358
 21
31.6877311038
  0
LINE
  8
0
 62
7
  6
CONTINUOUS
 10
359.7576405634
 20
31.8167858495
 11
359.3529530358
 21
31.8490495359
  0
LINE
  8
0
 62
7
  6
CONTINUOUS
 10
368.3717032839
 20
30.8488751693
 11
368.7185782839
 21
30.81661148
  0
LINE
  8
0
 62
7
  6
CONTINUOUS
 10
368.7185782839
 20
30.945666237
 11
368.3717032839
 21
30.9779299347
  0
LINE
  8
0
 62
7
  6
CONTINUOUS
 10
364.1513903428
 20
31.8167858495
 11
363.8045156736
 21
31.8490495359
  0
LINE
  8
0
 62
7
  6
CONTINUOUS
 10
368.9498280634
 20
31.7199947902
 11
369.2967030634
 21
31.6877311038
  0
LINE
  8
0
 62
7
  6
CONTINUOUS
 10
369.2967030634
 20
31.8167858495
 11
368.9498280634
 21
31.8490495359
  0
LINE
  8
0
 62
7
  6
CONTINUOUS
 10
366.6373282839
 20
31.7199947902
 11
366.8685780634
 21
31.6877311038
  0
LINE
  8
0
 62
7
  6
CONTINUOUS
 10
369.4701405634
 20
31.7845221631
 11
369.2967030634
 21
31.8167858495
  0
LINE
  8
0
 62
7
  6
CONTINUOUS
 10
369.6435780634
 20
30.9134025506
 11
369.7592026223
 21
31.0101936212
  0
LINE
  8
0
 62
7
  6
CONTINUOUS
 10
364.1513903428
 20
31.106984703
 11
363.9779528428
 21
31.0101936212
  0
LINE
  8
0
 62
7
  6
CONTINUOUS
 10
366.2326403428
 20
31.7522584767
 11
366.1170157839
 21
31.6877311038
  0
LINE
  8
0
 62
7
  6
CONTINUOUS
 10
366.1170157839
 20
31.5586763581
 11
366.2326403428
 21
31.623203731
  0
LINE
  8
0
 62
7
  6
CONTINUOUS
 10
358.8326405772
 20
31.7845221631
 11
358.6592030565
 21
31.7199947902
  0
LINE
  8
0
 62
7
  6
CONTINUOUS
 10
361.2607654531
 20
31.8167858495
 11
361.0873281185
 21
31.7522584767
  0
LINE
  8
0
 62
7
  6
CONTINUOUS
 10
361.0873281185
 20
31.623203731
 11
361.2607654531
 21
31.6877311038
  0
LINE
  8
0
 62
7
  6
CONTINUOUS
 10
359.8732656185
 20
31.0424573076
 11
359.6998280358
 21
30.9779299347
  0
LINE
  8
0
 62
7
  6
CONTINUOUS
 10
369.2967030634
 20
30.9779299347
 11
369.0654532839
 21
30.945666237
  0
LINE
  8
0
 62
7
  6
CONTINUOUS
 10
363.6888904531
 20
30.81661148
 11
363.9779528428
 21
30.8488751693
  0
LINE
  8
0
 62
7
  6
CONTINUOUS
 10
369.0654532839
 20
30.81661148
 11
369.4123282839
 21
30.8488751693
  0
LINE
  8
0
 62
7
  6
CONTINUOUS
 10
359.3529530358
 20
30.81661148
 11
359.7576405634
 21
30.8488751693
  0
LINE
  8
0
 62
7
  6
CONTINUOUS
 10
359.6998280358
 20
30.9779299347
 11
359.2951405909
 21
30.945666237
  0
LINE
  8
0
 62
7
  6
CONTINUOUS
 10
363.5732655634
 20
31.3650941944
 11
364.2092032839
 21
31.3650941944
  0
LINE
  8
0
 62
7
  6
CONTINUOUS
 10
364.2092032839
 20
31.4941489853
 11
363.5732655634
 21
31.4941489853
  0
LINE
  8
0
 62
7
  6
CONTINUOUS
 10
359.9310780634
 20
31.5264126717
 11
360.2201406185
 21
31.5264126717
  0
LINE
  8
0
 62
7
  6
CONTINUOUS
 10
362.7638906736
 20
31.5909400446
 11
363.0529530634
 21
31.5909400446
  0
LINE
  8
0
 62
7
  6
CONTINUOUS
 10
369.4701405634
 20
31.5909400446
 11
369.7592026223
 21
31.5909400446
  0
LINE
  8
0
 62
7
  6
CONTINUOUS
 10
363.4576406736
 20
31.7199947902
 11
363.8045156736
 21
31.7199947902
  0
LINE
  8
0
 62
7
  6
CONTINUOUS
 10
368.6029530634
 20
31.7199947902
 11
368.9498280634
 21
31.7199947902
  0
LINE
  8
0
 62
7
  6
CONTINUOUS
 10
368.9498280634
 20
31.8490495359
 11
368.6029530634
 21
31.8490495359
  0
LINE
  8
0
 62
7
  6
CONTINUOUS
 10
366.8685780634
 20
31.8490495359
 11
366.6373282839
 21
31.8490495359
  0
LINE
  8
0
 62
7
  6
CONTINUOUS
 10
366.1170157839
 20
31.8490495359
 11
365.8279530634
 21
31.8490495359
  0
LINE
  8
0
 62
7
  6
CONTINUOUS
 10
365.3654528428
 20
31.8490495359
 11
365.0763907839
 21
31.8490495359
  0
LINE
  8
0
 62
7
  6
CONTINUOUS
 10
363.8045156736
 20
31.8490495359
 11
363.4576406736
 21
31.8490495359
  0
LINE
  8
0
 62
7
  6
CONTINUOUS
 10
361.7232656736
 20
31.8490495359
 11
361.4920155634
 21
31.8490495359
  0
LINE
  8
0
 62
7
  6
CONTINUOUS
 10
365.0763907839
 20
32.1716864905
 11
365.3654528428
 21
32.1716864905
  0
LINE
  8
0
 62
7
  6
CONTINUOUS
 10
365.3654528428
 20
32.3330049227
 11
365.0763907839
 21
32.3330049227
  0
LINE
  8
0
 62
7
  6
CONTINUOUS
 10
360.9717030634
 20
32.3330049227
 11
360.6826405082
 21
32.3330049227
  0
LINE
  8
0
 62
7
  6
CONTINUOUS
 10
360.0094848257
 20
32.6198901686
 11
360.4220561743
 21
32.6198901686
  0
LINE
  8
0
 62
7
  6
CONTINUOUS
 10
361.648829088
 20
32.6198901686
 11
363.0422717109
 21
32.6198901686
  0
LINE
  8
0
 62
7
  6
CONTINUOUS
 10
363.3701405634
 20
32.6198901686
 11
364.7635831863
 21
32.6198901686
  0
LINE
  8
0
 62
7
  6
CONTINUOUS
 10
366.648829088
 20
32.6198901686
 11
368.0422717109
 21
32.6198901686
  0
LINE
  8
0
 62
7
  6
CONTINUOUS
 10
368.3701405634
 20
32.6198901686
 11
369.7635831863
 21
32.6198901686
  0
LINE
  8
0
 62
7
  6
CONTINUOUS
 10
366.4060778428
 20
31.8167858495
 11
366.2326403428
 21
31.7522584767
  0
LINE
  8
0
 62
7
  6
CONTINUOUS
 10
363.9779528428
 20
30.8488751693
 11
364.1513903428
 21
30.9134025506
  0
LINE
  8
0
 62
7
  6
CONTINUOUS
 10
369.4123282839
 20
30.8488751693
 11
369.6435780634
 21
30.9134025506
  0
LINE
  8
0
 62
7
  6
CONTINUOUS
 10
369.4123282839
 20
31.0101936212
 11
369.2967030634
 21
30.9779299347
  0
LINE
  8
0
 62
7
  6
CONTINUOUS
 10
368.3717032839
 20
31.6877311038
 11
368.6029530634
 21
31.7199947902
  0
LINE
  8
0
 62
7
  6
CONTINUOUS
 10
366.4060778428
 20
31.6877311038
 11
366.6373282839
 21
31.7199947902
  0
LINE
  8
0
 62
7
  6
CONTINUOUS
 10
363.3420154531
 20
31.332830508
 11
363.5732655634
 21
31.3650941944
  0
LINE
  8
0
 62
7
  6
CONTINUOUS
 10
366.6373282839
 20
31.8490495359
 11
366.4060778428
 21
31.8167858495
  0
LINE
  8
0
 62
7
  6
CONTINUOUS
 10
363.2263905634
 20
31.6877311038
 11
363.4576406736
 21
31.7199947902
  0
LINE
  8
0
 62
7
  6
CONTINUOUS
 10
368.6029530634
 20
31.8490495359
 11
368.2560780634
 21
31.8167858495
  0
LINE
  8
0
 62
7
  6
CONTINUOUS
 10
363.5732655634
 20
31.4941489853
 11
363.2263905634
 21
31.4618852989
  0
LINE
  8
0
 62
7
  6
CONTINUOUS
 10
359.3529530358
 20
31.8490495359
 11
359.0060780772
 21
31.8167858495
  0
LINE
  8
0
 62
7
  6
CONTINUOUS
 10
363.4576406736
 20
31.8490495359
 11
363.0529530634
 21
31.8167858495
  0
LINE
  8
0
 62
7
  6
CONTINUOUS
 10
360.8291569568
 20
33.7674311522
 11
360.1734192519
 21
33.7674311522
  0
LINE
  8
0
 62
7
  6
CONTINUOUS
 10
366.2326403428
 20
31.623203731
 11
366.4060778428
 21
31.6877311038
  0
LINE
  8
0
 62
7
  6
CONTINUOUS
 10
368.2560780634
 20
31.6554674174
 11
368.3717032839
 21
31.6877311038
  0
LINE
  8
0
 62
7
  6
CONTINUOUS
 10
368.2560780634
 20
31.8167858495
 11
368.0248282839
 21
31.7522584767
  0
LINE
  8
0
 62
7
  6
CONTINUOUS
 10
363.9779528428
 20
31.0101936212
 11
363.6888904531
 21
30.945666237
  0
LINE
  8
0
 62
7
  6
CONTINUOUS
 10
361.2607654531
 20
31.6877311038
 11
361.4920155634
 21
31.7199947902
  0
LINE
  8
0
 62
7
  6
CONTINUOUS
 10
361.4920155634
 20
31.8490495359
 11
361.2607654531
 21
31.8167858495
  0
LINE
  8
0
 62
7
  6
CONTINUOUS
 10
359.0638905634
 20
31.6877311038
 11
359.2951405909
 21
31.7199947902
  0
LINE
  8
0
 62
7
  6
CONTINUOUS
 10
365.5832553175
 20
35.2428409882
 11
366.2389930224
 21
35.2428409882
  0
LINE
  8
0
 62
7
  6
CONTINUOUS
 10
363.2263905634
 20
31.3005668216
 11
363.3420154531
 21
31.332830508
  0
LINE
  8
0
 62
7
  6
CONTINUOUS
 10
363.2263905634
 20
31.4618852989
 11
362.9951404531
 21
31.397357926
  0
LINE
  8
0
 62
7
  6
CONTINUOUS
 10
363.1107656736
 20
31.6554674174
 11
363.2263905634
 21
31.6877311038
  0
LINE
  8
0
 62
7
  6
CONTINUOUS
 10
359.7576405634
 20
30.8488751693
 11
359.9888905082
 21
30.9134025506
  0
LINE
  8
0
 62
7
  6
CONTINUOUS
 10
363.0529530634
 20
31.8167858495
 11
362.9373281736
 21
31.7845221631
  0
LINE
  8
0
 62
7
  6
CONTINUOUS
 10
359.0060780772
 20
31.8167858495
 11
358.8326405772
 21
31.7845221631
  0
LINE
  8
0
 62
7
  6
CONTINUOUS
 10
369.7635831863
 20
36.3903819718
 11
368.3701405634
 21
36.3903819718
  0
LINE
  8
0
 62
7
  6
CONTINUOUS
 10
366.4029274486
 20
36.3903819718
 11
365.9903561
 21
36.3903819718
  0
LINE
  8
0
 62
7
  6
CONTINUOUS
 10
364.7635831863
 20
36.3903819718
 11
363.3701405634
 21
36.3903819718
  0
LINE
  8
0
 62
7
  6
CONTINUOUS
 10
363.0422717109
 20
36.3903819718
 11
361.648829088
 21
36.3903819718
  0
LINE
  8
0
 62
7
  6
CONTINUOUS
 10
359.7635831863
 20
36.3903819718
 11
358.3701405634
 21
36.3903819718
  0
LINE
  8
0
 62
7
  6
CONTINUOUS
 10
358.9482655496
 20
31.6554674174
 11
359.0638905634
 21
31.6877311038
  0
CIRCLE
  8
0
 62
7
  6
CONTINUOUS
 10
369.0668618749
 20
38.7264475456
 40
2.0901639344
  0
ARC
  8
0
 62
7
  6
CONTINUOUS
 10
360.0094848257
 20
34.2592344308
 40
1.6393442623
 50
180.0
 51
270.0
  0
ARC
  8
0
 62
7
  6
CONTINUOUS
 10
366.4029274486
 20
34.7510377095
 40
1.6393442623
 50
0.0
 51
90.0
  0
ARC
  8
0
 62
7
  6
CONTINUOUS
 10
360.4220561743
 20
34.0953000046
 40
1.4754098361
 50
270.0
 51
326.2510114041
  0
ARC
  8
0
 62
7
  6
CONTINUOUS
 10
365.9903561
 20
34.9149721358
 40
1.4754098361
 50
90.0
 51
146.2510114041
  0
ARC
  8
0
 62
7
  6
CONTINUOUS
 10
360.8291569568
 20
34.5871032833
 40
0.8196721311
 50
270.0
 51
360.0
  0
ARC
  8
0
 62
7
  6
CONTINUOUS
 10
365.5832553175
 20
34.4231688571
 40
0.8196721311
 50
90.0
 51
180.0
  0
ARC
  8
0
 62
7
  6
CONTINUOUS
 10
360.1734192519
 20
34.1772672177
 40
0.4098360656
 50
180.0
 51
270.0
  0
ARC
  8
0
 62
7
  6
CONTINUOUS
 10
366.2389930224
 20
34.8330049227
 40
0.4098360656
 50
0.0
 51
90.0
  0
SOLID
  8
0
 62
7
  6
CONTINUOUS
 10
365.0763907839
 20
32.1716868508
 11
365.0763907839
 21
32.3330053344
 12
365.3654528428
 22
32.1716868508
 13
365.3654528428
 23
32.3330053344
  0
SOLID
  8
0
 62
7
  6
CONTINUOUS
 10
359.3529530358
 20
31.8490498836
 11
359.7576405634
 21
31.8167854792
 12
359.0060780772
 22
31.8167854792
 13
359.0060780772
 23
31.8167854792
  0
SOLID
  8
0
 62
7
  6
CONTINUOUS
 10
358.8326405772
 20
31.7845227934
 11
359.0060780772
 21
31.8167854792
 12
359.7576405634
 22
31.8167854792
 13
359.7576405634
 23
31.8167854792
  0
SOLID
  8
0
 62
7
  6
CONTINUOUS
 10
359.7576405634
 20
31.8167854792
 11
359.9888905082
 21
31.7522584901
 12
358.8326405772
 22
31.7845227934
 13
358.8326405772
 23
31.7845227934
  0
SOLID
  8
0
 62
7
  6
CONTINUOUS
 10
358.6592030565
 20
31.7199940664
 11
358.8326405772
 21
31.7845227934
 12
359.9888905082
 22
31.7522584901
 13
359.9888905082
 23
31.7522584901
  0
SOLID
  8
0
 62
7
  6
CONTINUOUS
 10
358.6592030565
 20
31.7199940664
 11
359.9888905082
 21
31.7522584901
 12
359.2951405909
 22
31.7199940664
 13
359.2951405909
 23
31.7199940664
  0
SOLID
  8
0
 62
7
  6
CONTINUOUS
 10
359.2951405909
 20
31.7199940664
 11
359.9888905082
 21
31.7522584901
 12
359.6998280358
 22
31.6877314
 13
359.6998280358
 23
31.6877314
  0
SOLID
  8
0
 62
7
  6
CONTINUOUS
 10
359.9888905082
 20
31.7522584901
 11
360.1623280082
 21
31.6554670967
 12
359.6998280358
 22
31.6877314
 13
359.6998280358
 23
31.6877314
  0
SOLID
  8
0
 62
7
  6
CONTINUOUS
 10
359.8732656185
 20
31.6232043098
 11
359.6998280358
 21
31.6877314
 12
360.1623280082
 22
31.6554670967
 13
360.1623280082
 23
31.6554670967
  0
SOLID
  8
0
 62
7
  6
CONTINUOUS
 10
359.8732656185
 20
31.6232043098
 11
360.1623280082
 21
31.6554670967
 12
359.9310780634
 22
31.5264128539
 13
359.9310780634
 23
31.5264128539
  0
SOLID
  8
0
 62
7
  6
CONTINUOUS
 10
360.1623280082
 20
31.6554670967
 11
360.2201406185
 21
31.5264128539
 12
359.9310780634
 22
31.5264128539
 13
359.9310780634
 23
31.5264128539
  0
SOLID
  8
0
 62
7
  6
CONTINUOUS
 10
361.2607654531
 20
31.8167852459
 11
361.4920155634
 21
31.8490495492
 12
361.7232656736
 22
31.8490495492
 13
361.7232656736
 23
31.8490495492
  0
SOLID
  8
0
 62
7
  6
CONTINUOUS
 10
361.7232656736
 20
31.8490495492
 11
361.8967031736
 21
31.8167852459
 12
361.2607654531
 22
31.8167852459
 13
361.2607654531
 23
31.8167852459
  0
SOLID
  8
0
 62
7
  6
CONTINUOUS
 10
361.0873281185
 20
31.7522581557
 11
361.2607654531
 21
31.8167852459
 12
361.8967031736
 22
31.8167852459
 13
361.8967031736
 23
31.8167852459
  0
SOLID
  8
0
 62
7
  6
CONTINUOUS
 10
361.8967031736
 20
31.8167852459
 11
362.0701406736
 21
31.7522581557
 12
361.0873281185
 22
31.7522581557
 13
361.0873281185
 23
31.7522581557
  0
SOLID
  8
0
 62
7
  6
CONTINUOUS
 10
362.0701406736
 20
31.7522581557
 11
361.4920155634
 21
31.7199941869
 12
361.0873281185
 22
31.7522581557
 13
361.0873281185
 23
31.7522581557
  0
SOLID
  8
0
 62
7
  6
CONTINUOUS
 10
360.9717030634
 20
31.6877310656
 11
361.0873281185
 21
31.7522581557
 12
361.4920155634
 22
31.7199941869
 13
361.4920155634
 23
31.7199941869
  0
SOLID
  8
0
 62
7
  6
CONTINUOUS
 10
361.4920155634
 20
31.7199941869
 11
361.2607654531
 21
31.6877310656
 12
360.9717030634
 22
31.6877310656
 13
360.9717030634
 23
31.6877310656
  0
SOLID
  8
0
 62
7
  6
CONTINUOUS
 10
361.4920155634
 20
31.7199941869
 11
362.0701406736
 21
31.7522581557
 12
361.7232656736
 22
31.6877310656
 13
361.7232656736
 23
31.6877310656
  0
SOLID
  8
0
 62
7
  6
CONTINUOUS
 10
362.0701406736
 20
31.7522581557
 11
362.1857655634
 21
31.6877310656
 12
361.7232656736
 22
31.6877310656
 13
361.7232656736
 23
31.6877310656
  0
SOLID
  8
0
 62
7
  6
CONTINUOUS
 10
361.8388905634
 20
31.6554670967
 11
361.7232656736
 21
31.6877310656
 12
362.1857655634
 22
31.6877310656
 13
362.1857655634
 23
31.6877310656
  0
SOLID
  8
0
 62
7
  6
CONTINUOUS
 10
362.1857655634
 20
31.6877310656
 11
362.2435781736
 21
31.6232039754
 12
361.8388905634
 22
31.6554670967
 13
361.8388905634
 23
31.6554670967
  0
SOLID
  8
0
 62
7
  6
CONTINUOUS
 10
361.9545154531
 20
31.5909400065
 11
361.8388905634
 21
31.6554670967
 12
362.2435781736
 22
31.6232039754
 13
362.2435781736
 23
31.6232039754
  0
SOLID
  8
0
 62
7
  6
CONTINUOUS
 10
361.9545154531
 20
31.5909400065
 11
362.2435781736
 21
31.6232039754
 12
362.0123280634
 22
31.4618854918
 13
362.0123280634
 23
31.4618854918
  0
SOLID
  8
0
 62
7
  6
CONTINUOUS
 10
362.2435781736
 20
31.6232039754
 11
362.3013904531
 21
31.4618854918
 12
362.0123280634
 22
31.4618854918
 13
362.0123280634
 23
31.4618854918
  0
SOLID
  8
0
 62
7
  6
CONTINUOUS
 10
361.2607654531
 20
31.6877310656
 11
361.0873281185
 21
31.6232039754
 12
360.9717030634
 22
31.6877310656
 13
360.9717030634
 23
31.6877310656
  0
SOLID
  8
0
 62
7
  6
CONTINUOUS
 10
361.0873281185
 20
31.6232039754
 11
360.9717030634
 21
31.5586757033
 12
360.9717030634
 22
31.6877310656
 13
360.9717030634
 23
31.6877310656
  0
SOLID
  8
0
 62
7
  6
CONTINUOUS
 10
360.9717030634
 20
31.5586757033
 11
360.6826405082
 21
30.8166115574
 12
360.9717030634
 22
31.6877310656
 13
360.9717030634
 23
31.6877310656
  0
SOLID
  8
0
 62
7
  6
CONTINUOUS
 10
360.9717030634
 20
31.6877310656
 11
360.6826405082
 21
30.8166115574
 12
360.9717030634
 22
32.333005
 13
360.9717030634
 23
32.333005
  0
SOLID
  8
0
 62
7
  6
CONTINUOUS
 10
360.6826405082
 20
30.8166115574
 11
360.6826405082
 21
32.333005
 12
360.9717030634
 22
32.333005
 13
360.9717030634
 23
32.333005
  0
SOLID
  8
0
 62
7
  6
CONTINUOUS
 10
360.9717030634
 20
31.5586757033
 11
360.9717030634
 21
30.8166115574
 12
360.6826405082
 22
30.8166115574
 13
360.6826405082
 23
30.8166115574
  0
SOLID
  8
0
 62
7
  6
CONTINUOUS
 10
362.0123280634
 20
30.8166115574
 11
362.0123280634
 21
31.4618854918
 12
362.3013904531
 22
31.4618854918
 13
362.3013904531
 23
31.4618854918
  0
SOLID
  8
0
 62
7
  6
CONTINUOUS
 10
362.3013904531
 20
31.4618854918
 11
362.3013904531
 21
30.8166115574
 12
362.0123280634
 22
30.8166115574
 13
362.0123280634
 23
30.8166115574
  0
SOLID
  8
0
 62
7
  6
CONTINUOUS
 10
363.0529530634
 20
31.8167856315
 11
363.4576406736
 21
31.8490496243
 12
363.8045156736
 22
31.8490496243
 13
363.8045156736
 23
31.8490496243
  0
SOLID
  8
0
 62
7
  6
CONTINUOUS
 10
363.8045156736
 20
31.8490496243
 11
364.1513903428
 21
31.8167856315
 12
363.0529530634
 22
31.8167856315
 13
363.0529530634
 23
31.8167856315
  0
SOLID
  8
0
 62
7
  6
CONTINUOUS
 10
362.9373281736
 20
31.7845227934
 11
363.0529530634
 21
31.8167856315
 12
364.1513903428
 22
31.8167856315
 13
364.1513903428
 23
31.8167856315
  0
SOLID
  8
0
 62
7
  6
CONTINUOUS
 10
364.1513903428
 20
31.8167856315
 11
364.3248278428
 21
31.7522584901
 12
362.9373281736
 22
31.7845227934
 13
362.9373281736
 23
31.7845227934
  0
SOLID
  8
0
 62
7
  6
CONTINUOUS
 10
362.8217029531
 20
31.7199944276
 11
362.9373281736
 21
31.7845227934
 12
364.3248278428
 22
31.7522584901
 13
364.3248278428
 23
31.7522584901
  0
SOLID
  8
0
 62
7
  6
CONTINUOUS
 10
362.8217029531
 20
31.7199944276
 11
364.3248278428
 21
31.7522584901
 12
363.4576406736
 22
31.7199944276
 13
363.4576406736
 23
31.7199944276
  0
SOLID
  8
0
 62
7
  6
CONTINUOUS
 10
363.4576406736
 20
31.7199944276
 11
364.3248278428
 21
31.7522584901
 12
363.8045156736
 22
31.7199944276
 13
363.8045156736
 23
31.7199944276
  0
SOLID
  8
0
 62
7
  6
CONTINUOUS
 10
363.8045156736
 20
31.7199944276
 11
364.3248278428
 21
31.7522584901
 12
364.0357657839
 22
31.6877312092
 13
364.0357657839
 23
31.6877312092
  0
SOLID
  8
0
 62
7
  6
CONTINUOUS
 10
364.3248278428
 20
31.7522584901
 11
364.4404530634
 21
31.6877312092
 12
364.0357657839
 22
31.6877312092
 13
364.0357657839
 23
31.6877312092
  0
SOLID
  8
0
 62
7
  6
CONTINUOUS
 10
362.7638906736
 20
31.6554672165
 11
362.8217029531
 21
31.7199944276
 12
363.4576406736
 22
31.7199944276
 13
363.4576406736
 23
31.7199944276
  0
SOLID
  8
0
 62
7
  6
CONTINUOUS
 10
364.1513903428
 20
31.6554672165
 11
364.0357657839
 21
31.6877312092
 12
364.4404530634
 22
31.6877312092
 13
364.4404530634
 23
31.6877312092
  0
SOLID
  8
0
 62
7
  6
CONTINUOUS
 10
364.1513903428
 20
31.6554672165
 11
364.4404530634
 21
31.6877312092
 12
364.2092032839
 22
31.5909400053
 13
364.2092032839
 23
31.5909400053
  0
SOLID
  8
0
 62
7
  6
CONTINUOUS
 10
364.4404530634
 20
31.6877312092
 11
364.4982653428
 21
31.5909400053
 12
364.2092032839
 22
31.5909400053
 13
364.2092032839
 23
31.5909400053
  0
SOLID
  8
0
 62
7
  6
CONTINUOUS
 10
364.2092032839
 20
31.4941486131
 11
364.2092032839
 21
31.5909400053
 12
364.4982653428
 22
31.5909400053
 13
364.4982653428
 23
31.5909400053
  0
SOLID
  8
0
 62
7
  6
CONTINUOUS
 10
364.2092032839
 20
31.4941486131
 11
364.4982653428
 21
31.5909400053
 12
364.2092032839
 22
31.3650944328
 13
364.2092032839
 23
31.3650944328
  0
SOLID
  8
0
 62
7
  6
CONTINUOUS
 10
364.2092032839
 20
31.3650944328
 11
364.4982653428
 21
31.5909400053
 12
364.2092032839
 22
31.1715120759
 13
364.2092032839
 23
31.1715120759
  0
SOLID
  8
0
 62
7
  6
CONTINUOUS
 10
364.4982653428
 20
31.5909400053
 11
364.4982653428
 21
31.0747202524
 12
364.2092032839
 22
31.1715120759
 13
364.2092032839
 23
31.1715120759
  0
SOLID
  8
0
 62
7
  6
CONTINUOUS
 10
366.4060778428
 20
31.8167851023
 11
366.6373282839
 21
31.849049822
 12
366.8685780634
 22
31.849049822
 13
366.8685780634
 23
31.849049822
  0
SOLID
  8
0
 62
7
  6
CONTINUOUS
 10
366.8685780634
 20
31.849049822
 11
367.0420155634
 21
31.8167851023
 12
366.4060778428
 22
31.8167851023
 13
366.4060778428
 23
31.8167851023
  0
SOLID
  8
0
 62
7
  6
CONTINUOUS
 10
366.2326403428
 20
31.7522587602
 11
366.4060778428
 21
31.8167851023
 12
367.0420155634
 22
31.8167851023
 13
367.0420155634
 23
31.8167851023
  0
SOLID
  8
0
 62
7
  6
CONTINUOUS
 10
367.0420155634
 20
31.8167851023
 11
367.2154530634
 21
31.7522587602
 12
366.2326403428
 22
31.7522587602
 13
366.2326403428
 23
31.7522587602
  0
SOLID
  8
0
 62
7
  6
CONTINUOUS
 10
367.2154530634
 20
31.7522587602
 11
366.6373282839
 21
31.7199941869
 12
366.2326403428
 22
31.7522587602
 13
366.2326403428
 23
31.7522587602
  0
SOLID
  8
0
 62
7
  6
CONTINUOUS
 10
366.1170157839
 20
31.6877313857
 11
366.2326403428
 21
31.7522587602
 12
366.6373282839
 22
31.7199941869
 13
366.6373282839
 23
31.7199941869
  0
SOLID
  8
0
 62
7
  6
CONTINUOUS
 10
366.6373282839
 20
31.7199941869
 11
366.4060778428
 21
31.6877313857
 12
366.1170157839
 22
31.6877313857
 13
366.1170157839
 23
31.6877313857
  0
SOLID
  8
0
 62
7
  6
CONTINUOUS
 10
366.6373282839
 20
31.7199941869
 11
367.2154530634
 21
31.7522587602
 12
366.8685780634
 22
31.6877313857
 13
366.8685780634
 23
31.6877313857
  0
SOLID
  8
0
 62
7
  6
CONTINUOUS
 10
367.2154530634
 20
31.7522587602
 11
367.3310782839
 21
31.6877313857
 12
366.8685780634
 22
31.6877313857
 13
366.8685780634
 23
31.6877313857
  0
SOLID
  8
0
 62
7
  6
CONTINUOUS
 10
366.9842032839
 20
31.6554670967
 11
366.8685780634
 21
31.6877313857
 12
367.3310782839
 22
31.6877313857
 13
367.3310782839
 23
31.6877313857
  0
SOLID
  8
0
 62
7
  6
CONTINUOUS
 10
366.9842032839
 20
31.6554670967
 11
367.3310782839
 21
31.6877313857
 12
367.0998278428
 22
31.590940324
 13
367.0998278428
 23
31.590940324
  0
SOLID
  8
0
 62
7
  6
CONTINUOUS
 10
367.3310782839
 20
31.6877313857
 11
367.3888905634
 21
31.590940324
 12
367.0998278428
 22
31.590940324
 13
367.0998278428
 23
31.590940324
  0
SOLID
  8
0
 62
7
  6
CONTINUOUS
 10
367.1576407839
 20
31.4296218878
 11
367.0998278428
 21
31.590940324
 12
367.3888905634
 22
31.590940324
 13
367.3888905634
 23
31.590940324
  0
SOLID
  8
0
 62
7
  6
CONTINUOUS
 10
367.3888905634
 20
31.590940324
 11
367.4467028428
 21
31.4296218878
 12
367.1576407839
 22
31.4296218878
 13
367.1576407839
 23
31.4296218878
  0
SOLID
  8
0
 62
7
  6
CONTINUOUS
 10
366.4060778428
 20
31.6877313857
 11
366.2326403428
 21
31.6232043098
 12
366.1170157839
 22
31.6877313857
 13
366.1170157839
 23
31.6877313857
  0
SOLID
  8
0
 62
7
  6
CONTINUOUS
 10
366.2326403428
 20
31.6232043098
 11
366.1170157839
 21
31.5586757033
 12
366.1170157839
 22
31.6877313857
 13
366.1170157839
 23
31.6877313857
  0
SOLID
  8
0
 62
7
  6
CONTINUOUS
 10
366.1170157839
 20
31.5586757033
 11
365.8279530634
 21
30.8166118302
 12
366.1170157839
 22
31.6877313857
 13
366.1170157839
 23
31.6877313857
  0
SOLID
  8
0
 62
7
  6
CONTINUOUS
 10
366.1170157839
 20
31.6877313857
 11
365.8279530634
 21
30.8166118302
 12
366.1170157839
 22
31.849049822
 13
366.1170157839
 23
31.849049822
  0
SOLID
  8
0
 62
7
  6
CONTINUOUS
 10
365.8279530634
 20
30.8166118302
 11
365.8279530634
 21
31.849049822
 12
366.1170157839
 22
31.849049822
 13
366.1170157839
 23
31.849049822
  0
SOLID
  8
0
 62
7
  6
CONTINUOUS
 10
366.1170157839
 20
31.5586757033
 11
366.1170157839
 21
30.8166118302
 12
365.8279530634
 22
30.8166118302
 13
365.8279530634
 23
30.8166118302
  0
SOLID
  8
0
 62
7
  6
CONTINUOUS
 10
367.1576407839
 20
30.8166118302
 11
367.1576407839
 21
31.4296218878
 12
367.4467028428
 22
31.4296218878
 13
367.4467028428
 23
31.4296218878
  0
SOLID
  8
0
 62
7
  6
CONTINUOUS
 10
367.4467028428
 20
31.4296218878
 11
367.4467028428
 21
30.8166118302
 12
367.1576407839
 22
30.8166118302
 13
367.1576407839
 23
30.8166118302
  0
SOLID
  8
0
 62
7
  6
CONTINUOUS
 10
368.2560780634
 20
31.8167856056
 11
368.6029530634
 21
31.8490498552
 12
368.9498280634
 22
31.8490498552
 13
368.9498280634
 23
31.8490498552
  0
SOLID
  8
0
 62
7
  6
CONTINUOUS
 10
368.9498280634
 20
31.8490498552
 11
369.2967030634
 21
31.8167856056
 12
368.2560780634
 22
31.8167856056
 13
368.2560780634
 23
31.8167856056
  0
SOLID
  8
0
 62
7
  6
CONTINUOUS
 10
368.0248282839
 20
31.7522584901
 11
368.2560780634
 21
31.8167856056
 12
369.2967030634
 22
31.8167856056
 13
369.2967030634
 23
31.8167856056
  0
SOLID
  8
0
 62
7
  6
CONTINUOUS
 10
368.0248282839
 20
31.7522584901
 11
369.2967030634
 21
31.8167855803
 12
369.4701405634
 22
31.7845227934
 13
369.4701405634
 23
31.7845227934
  0
SOLID
  8
0
 62
7
  6
CONTINUOUS
 10
368.0248282839
 20
31.7522584901
 11
369.4701405634
 21
31.7845227934
 12
368.6029530634
 22
31.7199941235
 13
368.6029530634
 23
31.7199941235
  0
SOLID
  8
0
 62
7
  6
CONTINUOUS
 10
368.6029530634
 20
31.7199941235
 11
369.4701405634
 21
31.7845227934
 12
368.9498280634
 22
31.7199941235
 13
368.9498280634
 23
31.7199941235
  0
SOLID
  8
0
 62
7
  6
CONTINUOUS
 10
369.4701405634
 20
31.7845227934
 11
369.6435780634
 21
31.7199941235
 12
368.9498280634
 22
31.7199941235
 13
368.9498280634
 23
31.7199941235
  0
SOLID
  8
0
 62
7
  6
CONTINUOUS
 10
369.2967030634
 20
31.6877314
 11
368.9498280634
 21
31.7199941235
 12
369.6435780634
 22
31.7199941235
 13
369.6435780634
 23
31.7199941235
  0
SOLID
  8
0
 62
7
  6
CONTINUOUS
 10
367.9092030634
 20
31.6554671071
 11
368.0248282839
 21
31.7522584901
 12
368.6029530634
 22
31.7199941235
 13
368.6029530634
 23
31.7199941235
  0
SOLID
  8
0
 62
7
  6
CONTINUOUS
 10
369.2967030634
 20
31.6877314
 11
369.6435780634
 21
31.7199941235
 12
369.4123282839
 22
31.6554671071
 13
369.4123282839
 23
31.6554671071
  0
SOLID
  8
0
 62
7
  6
CONTINUOUS
 10
369.4123282839
 20
31.6554671071
 11
369.6435780634
 21
31.7199941235
 12
369.4701405634
 22
31.5909400907
 13
369.4701405634
 23
31.5909400907
  0
SOLID
  8
0
 62
7
  6
CONTINUOUS
 10
369.6435780634
 20
31.7199941235
 11
369.7592026223
 21
31.5909400907
 12
369.4701405634
 22
31.5909400907
 13
369.4701405634
 23
31.5909400907
  0
SOLID
  8
0
 62
7
  6
CONTINUOUS
 10
359.0638905634
 20
31.6877314
 11
358.5435780634
 21
31.6554670789
 12
359.2951405909
 22
31.7199941045
 13
359.2951405909
 23
31.7199941045
  0
SOLID
  8
0
 62
7
  6
CONTINUOUS
 10
358.5435780634
 20
31.6554670789
 11
358.6592030565
 21
31.7199941045
 12
359.2951405909
 22
31.7199941045
 13
359.2951405909
 23
31.7199941045
  0
SOLID
  8
0
 62
7
  6
CONTINUOUS
 10
359.0638905634
 20
31.6877314
 11
358.9482655496
 21
31.6554670789
 12
358.5435780634
 22
31.6554670789
 13
358.5435780634
 23
31.6554670789
  0
SOLID
  8
0
 62
7
  6
CONTINUOUS
 10
358.4279530651
 20
31.5264129164
 11
358.5435780634
 21
31.6554670789
 12
358.9482655496
 22
31.6554670789
 13
358.9482655496
 23
31.6554670789
  0
SOLID
  8
0
 62
7
  6
CONTINUOUS
 10
362.7638906736
 20
31.6554670789
 11
363.4576406736
 21
31.7199941869
 12
363.2263905634
 22
31.6877314
 13
363.2263905634
 23
31.6877314
  0
SOLID
  8
0
 62
7
  6
CONTINUOUS
 10
363.2263905634
 20
31.6877314
 11
363.1107656736
 21
31.6554670789
 12
362.7638906736
 22
31.6554670789
 13
362.7638906736
 23
31.6554670789
  0
SOLID
  8
0
 62
7
  6
CONTINUOUS
 10
362.7638906736
 20
31.5909399887
 11
362.7638906736
 21
31.6554670789
 12
363.1107656736
 22
31.6554670789
 13
363.1107656736
 23
31.6554670789
  0
SOLID
  8
0
 62
7
  6
CONTINUOUS
 10
363.1107656736
 20
31.6554670789
 11
363.0529530634
 21
31.5909399887
 12
362.7638906736
 22
31.5909399887
 13
362.7638906736
 23
31.5909399887
  0
SOLID
  8
0
 62
7
  6
CONTINUOUS
 10
367.9092030634
 20
31.6554670789
 11
368.6029530634
 21
31.7199941869
 12
368.3717032839
 22
31.6877314
 13
368.3717032839
 23
31.6877314
  0
SOLID
  8
0
 62
7
  6
CONTINUOUS
 10
368.3717032839
 20
31.6877314
 11
368.2560780634
 21
31.6554670789
 12
367.9092030634
 22
31.6554670789
 13
367.9092030634
 23
31.6554670789
  0
SOLID
  8
0
 62
7
  6
CONTINUOUS
 10
367.9092030634
 20
31.5909399887
 11
367.9092030634
 21
31.6554670789
 12
368.2560780634
 22
31.6554670789
 13
368.2560780634
 23
31.6554670789
  0
SOLID
  8
0
 62
7
  6
CONTINUOUS
 10
368.2560780634
 20
31.6554670789
 11
368.1982657839
 21
31.5909399887
 12
367.9092030634
 22
31.5909399887
 13
367.9092030634
 23
31.5909399887
  0
SOLID
  8
0
 62
7
  6
CONTINUOUS
 10
368.0248282839
 20
31.4618858262
 11
367.9092030634
 21
31.5909399887
 12
368.1982657839
 22
31.5909399887
 13
368.1982657839
 23
31.5909399887
  0
SOLID
  8
0
 62
7
  6
CONTINUOUS
 10
358.4279530651
 20
31.5264129164
 11
358.9482655496
 21
31.6554670967
 12
358.7748280496
 22
31.5586757033
 13
358.7748280496
 23
31.5586757033
  0
SOLID
  8
0
 62
7
  6
CONTINUOUS
 10
358.7748280496
 20
31.5586757033
 11
358.7170155634
 21
31.4941486131
 12
358.4279530651
 22
31.5264129164
 13
358.4279530651
 23
31.5264129164
  0
SOLID
  8
0
 62
7
  6
CONTINUOUS
 10
358.3701405634
 20
31.3328301295
 11
358.4279530651
 21
31.5264129164
 12
358.7170155634
 22
31.4941486131
 13
358.7170155634
 23
31.4941486131
  0
SOLID
  8
0
 62
7
  6
CONTINUOUS
 10
363.2263905634
 20
31.4618858262
 11
363.5732655634
 21
31.4941485791
 12
364.2092032839
 22
31.4941485791
 13
364.2092032839
 23
31.4941485791
  0
SOLID
  8
0
 62
7
  6
CONTINUOUS
 10
363.2263905634
 20
31.4618858262
 11
364.2092032839
 21
31.4941485791
 12
362.9951404531
 22
31.397357926
 13
362.9951404531
 23
31.397357926
  0
SOLID
  8
0
 62
7
  6
CONTINUOUS
 10
362.9951404531
 20
31.397357926
 11
364.2092032839
 21
31.4941485791
 12
363.5732655634
 22
31.3650943988
 13
363.5732655634
 23
31.3650943988
  0
SOLID
  8
0
 62
7
  6
CONTINUOUS
 10
364.2092032839
 20
31.4941485791
 11
364.2092032839
 21
31.3650943988
 12
363.5732655634
 22
31.3650943988
 13
363.5732655634
 23
31.3650943988
  0
SOLID
  8
0
 62
7
  6
CONTINUOUS
 10
368.0248282839
 20
31.4618859165
 11
368.1982657839
 21
31.5909400065
 12
368.2560780634
 22
31.5264129164
 13
368.2560780634
 23
31.5264129164
  0
SOLID
  8
0
 62
7
  6
CONTINUOUS
 10
368.2560780634
 20
31.5264129164
 11
368.4295155634
 21
31.4618859165
 12
368.0248282839
 22
31.4618859165
 13
368.0248282839
 23
31.4618859165
  0
SOLID
  8
0
 62
7
  6
CONTINUOUS
 10
368.2560780634
 20
31.3650944328
 11
368.0248282839
 21
31.4618859165
 12
368.4295155634
 22
31.4618859165
 13
368.4295155634
 23
31.4618859165
  0
SOLID
  8
0
 62
7
  6
CONTINUOUS
 10
368.4295155634
 20
31.4618859165
 11
369.4123282839
 21
31.3005673426
 12
368.2560780634
 22
31.3650944328
 13
368.2560780634
 23
31.3650944328
  0
SOLID
  8
0
 62
7
  6
CONTINUOUS
 10
369.2388907839
 20
31.2037760287
 11
368.2560780634
 21
31.3650944328
 12
369.4123282839
 22
31.3005673426
 13
369.4123282839
 23
31.3005673426
  0
SOLID
  8
0
 62
7
  6
CONTINUOUS
 10
369.4123282839
 20
31.3005673426
 11
369.6435780634
 21
31.2037760287
 12
369.2388907839
 22
31.2037760287
 13
369.2388907839
 23
31.2037760287
  0
SOLID
  8
0
 62
7
  6
CONTINUOUS
 10
369.4123282839
 20
31.139248859
 11
369.2388907839
 21
31.2037760287
 12
369.6435780634
 22
31.2037760287
 13
369.6435780634
 23
31.2037760287
  0
SOLID
  8
0
 62
7
  6
CONTINUOUS
 10
369.4123282839
 20
31.139248859
 11
369.6435780634
 21
31.2037760287
 12
369.4701405634
 22
31.0747203105
 13
369.4701405634
 23
31.0747203105
  0
SOLID
  8
0
 62
7
  6
CONTINUOUS
 10
369.6435780634
 20
31.2037760287
 11
369.7592026223
 21
31.0747203105
 12
369.4701405634
 22
31.0747203105
 13
369.4701405634
 23
31.0747203105
  0
SOLID
  8
0
 62
7
  6
CONTINUOUS
 10
369.4123282839
 20
31.0101932257
 11
369.4701405634
 21
31.0747203105
 12
369.7592026223
 22
31.0747203105
 13
369.7592026223
 23
31.0747203105
  0
SOLID
  8
0
 62
7
  6
CONTINUOUS
 10
369.7592026223
 20
31.0747203105
 11
369.7592026223
 21
31.0101932257
 12
369.4123282839
 22
31.0101932257
 13
369.4123282839
 23
31.0101932257
  0
SOLID
  8
0
 62
7
  6
CONTINUOUS
 10
369.2967030634
 20
30.9779303754
 11
369.4123282839
 21
31.0101932257
 12
369.7592026223
 22
31.0101932257
 13
369.7592026223
 23
31.0101932257
  0
SOLID
  8
0
 62
7
  6
CONTINUOUS
 10
369.2967030634
 20
30.9779303754
 11
369.7592026223
 21
31.0101932257
 12
369.0654532839
 22
30.9456661409
 13
369.0654532839
 23
30.9456661409
  0
SOLID
  8
0
 62
7
  6
CONTINUOUS
 10
369.7592026223
 20
31.0101932257
 11
369.6435780634
 21
30.9134032852
 12
369.0654532839
 22
30.9456661409
 13
369.0654532839
 23
30.9456661409
  0
SOLID
  8
0
 62
7
  6
CONTINUOUS
 10
369.6435780634
 20
30.9134032852
 11
368.1982657839
 21
30.8811389819
 12
369.0654532839
 22
30.9456661409
 13
369.0654532839
 23
30.9456661409
  0
SOLID
  8
0
 62
7
  6
CONTINUOUS
 10
369.0654532839
 20
30.9456661409
 11
368.1982657839
 21
30.8811389819
 12
368.7185782839
 22
30.9456661409
 13
368.7185782839
 23
30.9456661409
  0
SOLID
  8
0
 62
7
  6
CONTINUOUS
 10
368.1982657839
 20
30.8811389819
 11
368.0248282839
 21
30.9456661409
 12
368.7185782839
 22
30.9456661409
 13
368.7185782839
 23
30.9456661409
  0
SOLID
  8
0
 62
7
  6
CONTINUOUS
 10
368.1982657839
 20
30.8811389819
 11
369.6435780634
 21
30.9134032852
 12
368.3717032839
 22
30.8488743522
 13
368.3717032839
 23
30.8488743522
  0
SOLID
  8
0
 62
7
  6
CONTINUOUS
 10
369.6435780634
 20
30.9134032852
 11
369.4123282839
 21
30.8488743522
 12
368.3717032839
 22
30.8488743522
 13
368.3717032839
 23
30.8488743522
  0
SOLID
  8
0
 62
7
  6
CONTINUOUS
 10
368.7185782839
 20
30.8166119713
 11
368.3717032839
 21
30.8488743522
 12
369.4123282839
 22
30.8488743522
 13
369.4123282839
 23
30.8488743522
  0
SOLID
  8
0
 62
7
  6
CONTINUOUS
 10
369.4123282839
 20
30.8488743522
 11
369.0654532839
 21
30.8166119713
 12
368.7185782839
 22
30.8166119713
 13
368.7185782839
 23
30.8166119713
  0
SOLID
  8
0
 62
7
  6
CONTINUOUS
 10
358.3701405634
 20
31.3328301295
 11
358.7170155634
 21
31.4941486131
 12
358.6592030565
 22
31.3650944328
 13
358.6592030565
 23
31.3650944328
  0
SOLID
  8
0
 62
7
  6
CONTINUOUS
 10
358.6592030565
 20
31.3650944328
 11
358.6592030565
 21
31.2683031351
 12
358.3701405634
 22
31.3328301295
 13
358.3701405634
 23
31.3328301295
  0
SOLID
  8
0
 62
7
  6
CONTINUOUS
 10
358.4279530651
 20
31.139248859
 11
358.3701405634
 21
31.3328301295
 12
358.6592030565
 22
31.2683031351
 13
358.6592030565
 23
31.2683031351
  0
SOLID
  8
0
 62
7
  6
CONTINUOUS
 10
358.6592030565
 20
31.2683031351
 11
358.7748280496
 21
31.1069845557
 12
358.4279530651
 22
31.139248859
 13
358.4279530651
 23
31.139248859
  0
SOLID
  8
0
 62
7
  6
CONTINUOUS
 10
358.5435780634
 20
31.0101931569
 11
358.4279530651
 21
31.139248859
 12
358.7748280496
 22
31.1069845557
 13
358.7748280496
 23
31.1069845557
  0
SOLID
  8
0
 62
7
  6
CONTINUOUS
 10
358.7748280496
 20
31.1069845557
 11
358.9482655496
 21
31.0101931569
 12
358.5435780634
 22
31.0101931569
 13
358.5435780634
 23
31.0101931569
  0
SOLID
  8
0
 62
7
  6
CONTINUOUS
 10
358.6592030565
 20
30.9456659241
 11
358.5435780634
 21
31.0101931569
 12
358.9482655496
 22
31.0101931569
 13
358.9482655496
 23
31.0101931569
  0
SOLID
  8
0
 62
7
  6
CONTINUOUS
 10
358.9482655496
 20
31.0101931569
 11
359.2951405909
 21
30.9456659241
 12
358.6592030565
 22
30.9456659241
 13
358.6592030565
 23
30.9456659241
  0
SOLID
  8
0
 62
7
  6
CONTINUOUS
 10
358.8326405772
 20
30.8811389819
 11
358.6592030565
 21
30.9456659241
 12
359.2951405909
 22
30.9456659241
 13
359.2951405909
 23
30.9456659241
  0
SOLID
  8
0
 62
7
  6
CONTINUOUS
 10
362.8795155634
 20
31.3328301325
 11
362.9951404531
 21
31.397357926
 12
363.5732655634
 22
31.3650944328
 13
363.5732655634
 23
31.3650944328
  0
SOLID
  8
0
 62
7
  6
CONTINUOUS
 10
363.5732655634
 20
31.3650944328
 11
363.3420154531
 21
31.3328301325
 12
362.8795155634
 22
31.3328301325
 13
362.8795155634
 23
31.3328301325
  0
SOLID
  8
0
 62
7
  6
CONTINUOUS
 10
362.7638906736
 20
31.2037759492
 11
362.8795155634
 21
31.3328301325
 12
363.3420154531
 22
31.3328301325
 13
363.3420154531
 23
31.3328301325
  0
SOLID
  8
0
 62
7
  6
CONTINUOUS
 10
363.1107656736
 20
31.2360394487
 11
362.7638906736
 21
31.2037759492
 12
363.2263905634
 22
31.3005673426
 13
363.2263905634
 23
31.3005673426
  0
SOLID
  8
0
 62
7
  6
CONTINUOUS
 10
362.7638906736
 20
31.2037759492
 11
363.3420154531
 21
31.3328301295
 12
363.2263905634
 22
31.3005673426
 13
363.2263905634
 23
31.3005673426
  0
SOLID
  8
0
 62
7
  6
CONTINUOUS
 10
363.1107656736
 20
31.2360394487
 11
363.0529530634
 21
31.139248859
 12
362.7638906736
 22
31.2037759492
 13
362.7638906736
 23
31.2037759492
  0
SOLID
  8
0
 62
7
  6
CONTINUOUS
 10
362.7638906736
 20
31.1069845557
 11
362.7638906736
 21
31.2037759492
 12
363.0529530634
 22
31.139248859
 13
363.0529530634
 23
31.139248859
  0
SOLID
  8
0
 62
7
  6
CONTINUOUS
 10
363.0529530634
 20
31.139248859
 11
363.0529530634
 21
31.0747202524
 12
362.7638906736
 22
31.1069845557
 13
362.7638906736
 23
31.1069845557
  0
SOLID
  8
0
 62
7
  6
CONTINUOUS
 10
362.8217029531
 20
30.9779303754
 11
362.7638906736
 21
31.1069845557
 12
363.0529530634
 22
31.0747202524
 13
363.0529530634
 23
31.0747202524
  0
SOLID
  8
0
 62
7
  6
CONTINUOUS
 10
364.2092032839
 20
31.1715120759
 11
364.4982653428
 21
31.0747202524
 12
364.1513903428
 22
31.1069845557
 13
364.1513903428
 23
31.1069845557
  0
SOLID
  8
0
 62
7
  6
CONTINUOUS
 10
363.9779528428
 20
31.0101931623
 11
364.1513903428
 21
31.1069845557
 12
364.4982653428
 22
31.0747202524
 13
364.4982653428
 23
31.0747202524
  0
SOLID
  8
0
 62
7
  6
CONTINUOUS
 10
363.9779528428
 20
31.0101931623
 11
364.4982653428
 21
31.0747202524
 12
364.2092032839
 22
30.9779303754
 13
364.2092032839
 23
30.9779303754
  0
SOLID
  8
0
 62
7
  6
CONTINUOUS
 10
364.4982653428
 20
31.0747202524
 11
364.5560782839
 21
30.9134032852
 12
364.2092032839
 22
30.9779303754
 13
364.2092032839
 23
30.9779303754
  0
SOLID
  8
0
 62
7
  6
CONTINUOUS
 10
364.2670155634
 20
30.8811389819
 11
364.2092032839
 21
30.9779303754
 12
364.5560782839
 22
30.9134032852
 13
364.5560782839
 23
30.9134032852
  0
SOLID
  8
0
 62
7
  6
CONTINUOUS
 10
364.2670155634
 20
30.8811389819
 11
364.5560782839
 21
30.9134032852
 12
364.3248278428
 22
30.816611867
 13
364.3248278428
 23
30.816611867
  0
SOLID
  8
0
 62
7
  6
CONTINUOUS
 10
364.5560782839
 20
30.9134032852
 11
364.6138905634
 21
30.816611867
 12
364.3248278428
 22
30.816611867
 13
364.3248278428
 23
30.816611867
  0
SOLID
  8
0
 62
7
  6
CONTINUOUS
 10
359.8732656185
 20
31.0424573076
 11
359.9310780634
 21
31.1392488159
 12
360.2201406185
 22
31.1392488159
 13
360.2201406185
 23
31.1392488159
  0
SOLID
  8
0
 62
7
  6
CONTINUOUS
 10
360.2201406185
 20
31.1392488159
 11
360.1623280082
 21
31.0101931623
 12
359.8732656185
 22
31.0424573076
 13
359.8732656185
 23
31.0424573076
  0
SOLID
  8
0
 62
7
  6
CONTINUOUS
 10
359.6998280358
 20
30.9779303754
 11
359.8732656185
 21
31.0424573076
 12
360.1623280082
 22
31.0101931623
 13
360.1623280082
 23
31.0101931623
  0
SOLID
  8
0
 62
7
  6
CONTINUOUS
 10
359.6998280358
 20
30.9779303754
 11
360.1623280082
 21
31.0101931623
 12
359.2951405909
 22
30.9456660721
 13
359.2951405909
 23
30.9456660721
  0
SOLID
  8
0
 62
7
  6
CONTINUOUS
 10
360.1623280082
 20
31.0101931623
 11
359.9888905082
 21
30.9134032852
 12
359.2951405909
 22
30.9456660721
 13
359.2951405909
 23
30.9456660721
  0
SOLID
  8
0
 62
7
  6
CONTINUOUS
 10
358.8326405772
 20
30.8811389819
 11
359.2951405909
 21
30.9456660721
 12
359.9888905082
 22
30.9134032852
 13
359.9888905082
 23
30.9134032852
  0
SOLID
  8
0
 62
7
  6
CONTINUOUS
 10
358.8326405772
 20
30.8811389819
 11
359.9888905082
 21
30.9134032852
 12
359.0060780772
 22
30.8488745775
 13
359.0060780772
 23
30.8488745775
  0
SOLID
  8
0
 62
7
  6
CONTINUOUS
 10
359.9888905082
 20
30.9134032852
 11
359.7576405634
 21
30.8488745775
 12
359.0060780772
 22
30.8488745775
 13
359.0060780772
 23
30.8488745775
  0
SOLID
  8
0
 62
7
  6
CONTINUOUS
 10
359.3529530358
 20
30.8166118918
 11
359.0060780772
 21
30.8488745775
 12
359.7576405634
 22
30.8488745775
 13
359.7576405634
 23
30.8488745775
  0
SOLID
  8
0
 62
7
  6
CONTINUOUS
 10
362.8217029531
 20
30.9779303754
 11
363.0529530634
 21
31.0747202524
 12
363.1107656736
 22
31.0101931623
 13
363.1107656736
 23
31.0101931623
  0
SOLID
  8
0
 62
7
  6
CONTINUOUS
 10
363.1107656736
 20
31.0101931623
 11
363.3420154531
 21
30.9456660721
 12
362.8217029531
 22
30.9779303754
 13
362.8217029531
 23
30.9779303754
  0
SOLID
  8
0
 62
7
  6
CONTINUOUS
 10
362.9951404531
 20
30.8811389819
 11
362.8217029531
 21
30.9779303754
 12
363.3420154531
 22
30.9456660721
 13
363.3420154531
 23
30.9456660721
  0
SOLID
  8
0
 62
7
  6
CONTINUOUS
 10
363.6888904531
 20
30.9456661188
 11
363.9779528428
 21
31.0101931623
 12
364.2092032839
 22
30.9779303754
 13
364.2092032839
 23
30.9779303754
  0
SOLID
  8
0
 62
7
  6
CONTINUOUS
 10
364.2092032839
 20
30.9779303754
 11
364.1513903428
 21
30.9134032852
 12
363.6888904531
 22
30.9456661188
 13
363.6888904531
 23
30.9456661188
  0
SOLID
  8
0
 62
7
  6
CONTINUOUS
 10
364.1513903428
 20
30.9134032852
 11
362.9951404531
 21
30.8811389819
 12
363.6888904531
 22
30.9456661188
 13
363.6888904531
 23
30.9456661188
  0
SOLID
  8
0
 62
7
  6
CONTINUOUS
 10
362.9951404531
 20
30.8811389819
 11
363.3420154531
 21
30.9456661188
 12
363.6888904531
 22
30.9456661188
 13
363.6888904531
 23
30.9456661188
  0
SOLID
  8
0
 62
7
  6
CONTINUOUS
 10
362.9951404531
 20
30.8811389819
 11
364.1513903428
 21
30.9134032852
 12
363.1107656736
 22
30.8488747093
 13
363.1107656736
 23
30.8488747093
  0
SOLID
  8
0
 62
7
  6
CONTINUOUS
 10
364.1513903428
 20
30.9134032852
 11
363.9779528428
 21
30.8488747093
 12
363.1107656736
 22
30.8488747093
 13
363.1107656736
 23
30.8488747093
  0
SOLID
  8
0
 62
7
  6
CONTINUOUS
 10
363.3420154531
 20
30.816611874
 11
363.1107656736
 21
30.8488747093
 12
363.9779528428
 22
30.8488747093
 13
363.9779528428
 23
30.8488747093
  0
SOLID
  8
0
 62
7
  6
CONTINUOUS
 10
363.9779528428
 20
30.8488747093
 11
363.6888904531
 21
30.816611874
 12
363.3420154531
 22
30.816611874
 13
363.3420154531
 23
30.816611874
  0
SOLID
  8
0
 62
7
  6
CONTINUOUS
 10
368.3717032839
 20
30.9779303754
 11
368.0248282839
 21
30.9456661188
 12
368.2560780634
 22
31.0101931623
 13
368.2560780634
 23
31.0101931623
  0
SOLID
  8
0
 62
7
  6
CONTINUOUS
 10
368.2560780634
 20
31.0101931623
 11
368.0248282839
 21
30.9456661188
 12
368.1982657839
 22
31.0747202992
 13
368.1982657839
 23
31.0747202992
  0
SOLID
  8
0
 62
7
  6
CONTINUOUS
 10
368.0248282839
 20
30.9456661188
 11
367.9092030634
 21
31.0747202992
 12
368.1982657839
 22
31.0747202992
 13
368.1982657839
 23
31.0747202992
  0
SOLID
  8
0
 62
7
  6
CONTINUOUS
 10
368.3717032839
 20
30.9779303754
 11
368.7185782839
 21
30.9456661188
 12
368.0248282839
 22
30.9456661188
 13
368.0248282839
 23
30.9456661188
  0
SOLID
  8
0
 62
7
  6
CONTINUOUS
 10
365.0763907839
 20
30.8166118918
 11
365.0763907839
 21
31.8490498836
 12
365.3654528428
 22
30.8166118918
 13
365.3654528428
 23
31.8490498836
  0
ENDBLK
  8
0
  6
BYBLOCK
 62
0
  0
BLOCK
  8
0
 62
2
  6
CONTINUOUS
  2
SYMBOL_0_BL0
 70
64
 10
241.0379982417
 20
19.661173918
  0
TEXT
  8
0
 62
7
  6
CONTINUOUS
 10
227.3106676351
 20
19.0524287129
  7
TEXTSTYLE_3
 40
2.7338706658
  1
Ammeraal Beltech
 41
1.0
 51
15.0
 72
0
  0
TEXT
  8
0
 62
7
  6
CONTINUOUS
 10
238.1114684608
 20
16.7788920401
  7
TEXTSTYLE_4
 40
1.0935482663
  1
Innovation & Service in Belting
 41
1.0
 72
0
  0
LINE
  8
0
 62
7
  6
CONTINUOUS
 10
221.2861269837
 20
19.8190220215
 11
222.0642789771
 21
23.4799393191
  0
LINE
  8
0
 62
7
  6
CONTINUOUS
 10
232.1594472669
 20
27.1433332308
 11
222.5520967201
 21
24.0217158095
  0
LINE
  8
0
 62
7
  6
CONTINUOUS
 10
221.511410316
 20
19.1256712184
 11
229.0184855772
 21
12.3662702925
  0
LINE
  8
0
 62
7
  6
CONTINUOUS
 10
221.7739447268
 20
20.3607985118
 11
232.5822140919
 21
23.8726181108
  0
LINE
  8
0
 62
7
  6
CONTINUOUS
 10
232.5780089548
 20
13.522829547
 11
224.132549286
 21
21.1271555887
  0
LINE
  8
0
 62
7
  6
CONTINUOUS
 10
233.0978316746
 20
26.298408115
 11
232.1212721373
 21
21.7040567125
  0
LINE
  8
0
 62
7
  6
CONTINUOUS
 10
231.4214701896
 20
18.4117473987
 11
230.7350219782
 21
15.1822624744
  0
LINE
  8
0
 62
7
  6
CONTINUOUS
 10
233.7789277731
 20
13.9130317247
 11
234.7351593087
 21
18.4117473987
  0
LINE
  8
0
 62
7
  6
CONTINUOUS
 10
235.4349612564
 20
21.7040567125
 11
235.8792030588
 21
23.7940500719
  0
LINE
  8
0
 62
7
  6
CONTINUOUS
 10
229.7315866525
 20
12.2146959798
 11
233.2911100301
 21
13.3712552343
  0
LINE
  8
0
 62
7
  6
CONTINUOUS
 10
232.8725483422
 20
26.9917589181
 11
235.6539197265
 21
24.487400875
  0
ARC
  8
0
 62
7
  6
CONTINUOUS
 10
222.7773800524
 20
23.3283650064
 40
0.7290321776
 50
108.0
 51
168.0
  0
ARC
  8
0
 62
7
  6
CONTINUOUS
 10
232.3847305992
 20
26.4499824277
 40
0.7290321776
 50
348.0
 51
108.0
  0
ARC
  8
0
 62
7
  6
CONTINUOUS
 10
235.1661019835
 20
23.9456243846
 40
0.7290321776
 50
348.0
 51
48.0
  0
ARC
  8
0
 62
7
  6
CONTINUOUS
 10
229.5063033202
 20
12.9080467828
 40
0.7290321776
 50
228.0
 51
288.0
  0
ARC
  8
0
 62
7
  6
CONTINUOUS
 10
221.9992280591
 20
19.6674477088
 40
0.7290321776
 50
108.0
 51
228.0
  0
ARC
  8
0
 62
7
  6
CONTINUOUS
 10
233.0658266978
 20
14.0646060374
 40
0.7290321776
 50
228.0
 51
348.0
  0
ENDBLK
  8
0
  6
BYBLOCK
 62
0
  0
ENDSEC
  0
SECTION
  2
ENTITIES
  0
TEXT
  8
0
 62
5
  6
CONTINUOUS
 10
304.937007874
 20
25.636
  7
TEXTSTYLE_2
 40
2.8
  1
Scale :
 41
0.6
 51
0.000019
 72
0
  0
TEXT
  8
0
 62
5
  6
CONTINUOUS
 10
324.937007874
 20
25.636
  7
TEXTSTYLE_2
 40
2.8
  1
Chain type:
 41
0.6
 51
0.000019
 72
0
  0
INSERT
  8
0
 62
2
  6
CONTINUOUS
  2
SYMBOL_0_BL0
 10
241.0379982417
 20
19.661173918
  0
INSERT
  8
0
 62
2
  6
CONTINUOUS
  2
SYMBOL_5_BL1
 10
382.3920721743
 20
35.7654615278
  0
LINE
  8
0
 62
2
  6
CONTINUOUS
 10
218.937007874
 20
30.0
 11
408.937007874
 21
30.0
  0
LINE
  8
0
 62
2
  6
CONTINUOUS
 10
218.937007874
 20
30.0
 11
218.937007874
 21
10.0
  0
LINE
  8
0
 62
2
  6
CONTINUOUS
 10
218.937007874
 20
10.0
 11
408.937007874
 21
10.0
  0
LINE
  8
0
 62
2
  6
CONTINUOUS
 10
303.937007874
 20
30.0
 11
303.937007874
 21
10.0
  0
LINE
  8
0
 62
2
  6
CONTINUOUS
 10
323.937007874
 20
30.0
 11
323.937007874
 21
10.0
  0
LINE
  8
0
 62
2
  6
CONTINUOUS
 10
408.937007874
 20
30.0
 11
408.937007874
 21
10.0
  0
TEXT
  8
0
 62
5
  6
CONTINUOUS
 10
221.937007874
 20
23.303
  7
TEXTSTYLE_5
 40
1.52
  1
                                                                     Ammeraal Beltech Modular A/S
 41
1.0
 72
0
  0
TEXT
  8
0
 62
5
  6
CONTINUOUS
 10
221.937007874
 20
20.595
  7
TEXTSTYLE_5
 40
1.5
  1
                                                                      Hjulmagervej 21, 7100 Vejle,  DK
 41
1.0
 72
0
  0
TEXT
  8
0
 62
5
  6
CONTINUOUS
 10
221.937007874
 20
17.881
  7
TEXTSTYLE_5
 40
1.495
  1
                                                                      tel: 
 41
1.0
 72
0
  0
TEXT
  8
0
 62
5
  6
CONTINUOUS
 10
266.9239544389
 20
17.881
  7
TEXTSTYLE_5
 40
1.51
  1
+45 75723100     fax: +45 75723348
 41
1.0
 72
0
  0
TEXT
  8
0
 62
5
  6
CONTINUOUS
 10
221.937007874
 20
15.177
  7
TEXTSTYLE_5
 40
1.5
  1
                                                                      admin@unichains.dk  www.unichains.com
 41
1.0
 72
0
  0
TEXT
  8
0
 62
5
  6
CONTINUOUS
 10
308.687007874
 20
13.75
  7
TEXTSTYLE_6
 40
5.0
  1
1:1
 41
0.7
 72
1
 11
313.937007874
 21
13.75
  0
TEXT
  8
0
 62
5
  6
CONTINUOUS
 10
326.937007874
 20
13.75
  7
TEXTSTYLE_7
 40
7.5
  1
uni 440 TAB-K250
 41
0.6885416667
 72
0
  0
LINE
  8
0
 62
7
  6
CONTINUOUS
 10
0.0
 20
0.0
 11
0.0
 21
297.0
  0
LINE
  8
0
 62
7
  6
CONTINUOUS
 10
8.937007874
 20
10.0
 11
8.937007874
 21
287.0
  0
LINE
  8
0
 62
7
  6
CONTINUOUS
 10
0.0
 20
0.0
 11
420.0
 21
0.0
  0
LINE
  8
0
 62
7
  6
CONTINUOUS
 10
408.937007874
 20
10.0
 11
8.937007874
 21
10.0
  0
LINE
  8
0
 62
7
  6
CONTINUOUS
 10
218.937007874
 20
30.0
 11
408.937007874
 21
30.0
  0
LINE
  8
0
 62
7
  6
CONTINUOUS
 10
210.0
 20
297.0
 11
210.0
 21
292.0
  0
LINE
  8
0
 62
7
  6
CONTINUOUS
 10
210.0
 20
0.0
 11
210.0
 21
5.0
  0
LINE
  8
0
 62
7
  6
CONTINUOUS
 10
8.937007874
 20
287.0
 11
408.937007874
 21
287.0
  0
LINE
  8
0
 62
7
  6
CONTINUOUS
 10
0.0
 20
297.0
 11
420.0
 21
297.0
  0
LINE
  8
0
 62
7
  6
CONTINUOUS
 10
408.937007874
 20
287.0
 11
408.937007874
 21
10.0
  0
LINE
  8
0
 62
7
  6
CONTINUOUS
 10
420.0
 20
0.0
 11
420.0
 21
297.0
  0
LINE
  8
2_FEATURE
 62
7
  6
CONTINUOUS
 10
97.8862704918
 20
239.0939757758
 11
97.8862704918
 21
242.7739757758
  0
LINE
  8
2_FEATURE
 62
7
  6
CONTINUOUS
 10
98.500946539
 20
242.5639757758
 11
98.500946539
 21
242.5739757742
  0
POLYLINE
  8
2_FEATURE
 62
7
  6
CONTINUOUS
 66
1
 70
0
  0
VERTEX
  8
2_FEATURE
 62
7
  6
CONTINUOUS
 10
97.8862704918
 20
242.1648520168
  0
VERTEX
  8
2_FEATURE
 62
7
  6
CONTINUOUS
 10
97.8926015799
 20
242.2240614983
  0
VERTEX
  8
2_FEATURE
 62
7
  6
CONTINUOUS
 10
97.9416869748
 20
242.3295832411
  0
VERTEX
  8
2_FEATURE
 62
7
  6
CONTINUOUS
 10
98.0335426325
 20
242.4155107193
  0
VERTEX
  8
2_FEATURE
 62
7
  6
CONTINUOUS
 10
98.0935875504
 20
242.4514197773
  0
VERTEX
  8
2_FEATURE
 62
7
  6
CONTINUOUS
 10
98.2376706144
 20
242.5095048663
  0
VERTEX
  8
2_FEATURE
 62
7
  6
CONTINUOUS
 10
98.4080928329
 20
242.5500398521
  0
VERTEX
  8
2_FEATURE
 62
7
  6
CONTINUOUS
 10
98.500946539
 20
242.5639757758
  0
SEQEND
  0
LINE
  8
2_FEATURE
 62
7
  6
CONTINUOUS
 10
102.1362704918
 20
223.6739757758
 11
102.1362704918
 21
226.6739757758
  0
LINE
  8
2_FEATURE
 62
7
  6
CONTINUOUS
 10
108.1862704918
 20
238.8939757758
 11
108.1862704918
 21
227.6193447777
  0
LINE
  8
2_FEATURE
 62
7
  6
CONTINUOUS
 10
114.1362704918
 20
227.3739757758
 11
114.1362704918
 21
223.6739757758
  0
LINE
  8
2_FEATURE
 62
7
  6
CONTINUOUS
 10
117.0612704918
 20
228.5739757758
 11
117.0612704918
 21
242.5739757758
  0
LINE
  8
2_FEATURE
 62
7
  6
CONTINUOUS
 10
113.6362704918
 20
223.1739757758
 11
102.6362704918
 21
223.1739757758
  0
LINE
  8
2_FEATURE
 62
7
  6
CONTINUOUS
 10
145.6362704918
 20
223.1739757758
 11
156.6362704918
 21
223.1739757758
  0
POLYLINE
  8
2_FEATURE
 62
7
  6
CONTINUOUS
 66
1
 70
0
  0
VERTEX
  8
2_FEATURE
 62
7
  6
CONTINUOUS
 10
117.2774681384
 20
231.8639757758
  0
VERTEX
  8
2_FEATURE
 62
7
  6
CONTINUOUS
 10
117.3843514002
 20
231.9272576322
  0
VERTEX
  8
2_FEATURE
 62
7
  6
CONTINUOUS
 10
117.4875612529
 20
232.1148771341
  0
VERTEX
  8
2_FEATURE
 62
7
  6
CONTINUOUS
 10
117.5835855928
 20
232.4203493281
  0
VERTEX
  8
2_FEATURE
 62
7
  6
CONTINUOUS
 10
117.6691583625
 20
232.8331821101
  0
VERTEX
  8
2_FEATURE
 62
7
  6
CONTINUOUS
 10
117.7413730486
 20
233.3392377474
  0
VERTEX
  8
2_FEATURE
 62
7
  6
CONTINUOUS
 10
117.7977826245
 20
233.9212345509
  0
VERTEX
  8
2_FEATURE
 62
7
  6
CONTINUOUS
 10
117.8364803565
 20
234.5593506396
  0
VERTEX
  8
2_FEATURE
 62
7
  6
CONTINUOUS
 10
117.8561607785
 20
235.2318989856
  0
VERTEX
  8
2_FEATURE
 62
7
  6
CONTINUOUS
 10
117.8561607785
 20
235.9160525661
  0
VERTEX
  8
2_FEATURE
 62
7
  6
CONTINUOUS
 10
117.8364803565
 20
236.5886009121
  0
VERTEX
  8
2_FEATURE
 62
7
  6
CONTINUOUS
 10
117.7977826245
 20
237.2267170008
  0
VERTEX
  8
2_FEATURE
 62
7
  6
CONTINUOUS
 10
117.7413730486
 20
237.8087138043
  0
VERTEX
  8
2_FEATURE
 62
7
  6
CONTINUOUS
 10
117.6691583625
 20
238.3147694416
  0
VERTEX
  8
2_FEATURE
 62
7
  6
CONTINUOUS
 10
117.5835855928
 20
238.7276022235
  0
VERTEX
  8
2_FEATURE
 62
7
  6
CONTINUOUS
 10
117.4875612529
 20
239.0330744176
  0
VERTEX
  8
2_FEATURE
 62
7
  6
CONTINUOUS
 10
117.3843514002
 20
239.2206939195
  0
VERTEX
  8
2_FEATURE
 62
7
  6
CONTINUOUS
 10
117.2774681384
 20
239.2839757758
  0
SEQEND
  0
POLYLINE
  8
2_FEATURE
 62
7
  6
CONTINUOUS
 66
1
 70
0
  0
VERTEX
  8
2_FEATURE
 62
7
  6
CONTINUOUS
 10
122.8289350121
 20
228.0864247513
  0
VERTEX
  8
2_FEATURE
 62
7
  6
CONTINUOUS
 10
122.9216715948
 20
228.0897619785
  0
VERTEX
  8
2_FEATURE
 62
7
  6
CONTINUOUS
 10
123.0183613611
 20
228.0916512964
  0
VERTEX
  8
2_FEATURE
 62
7
  6
CONTINUOUS
 10
123.1172138075
 20
228.0915090343
  0
VERTEX
  8
2_FEATURE
 62
7
  6
CONTINUOUS
 10
123.1611844931
 20
228.0909230458
  0
SEQEND
  0
POLYLINE
  8
2_FEATURE
 62
7
  6
CONTINUOUS
 66
1
 70
0
  0
VERTEX
  8
2_FEATURE
 62
7
  6
CONTINUOUS
 10
122.4696036478
 20
228.0739757526
  0
VERTEX
  8
2_FEATURE
 62
7
  6
CONTINUOUS
 10
122.5553702799
 20
228.0751293038
  0
VERTEX
  8
2_FEATURE
 62
7
  6
CONTINUOUS
 10
122.6478563112
 20
228.0782973831
  0
VERTEX
  8
2_FEATURE
 62
7
  6
CONTINUOUS
 10
122.8289350121
 20
228.0864247513
  0
SEQEND
  0
POLYLINE
  8
2_FEATURE
 62
7
  6
CONTINUOUS
 66
1
 70
0
  0
VERTEX
  8
2_FEATURE
 62
7
  6
CONTINUOUS
 10
136.1552367303
 20
228.0915079185
  0
VERTEX
  8
2_FEATURE
 62
7
  6
CONTINUOUS
 10
136.1113564905
 20
228.0909230458
  0
VERTEX
  8
2_FEATURE
 62
7
  6
CONTINUOUS
 10
136.0570564971
 20
228.0906610023
  0
SEQEND
  0
POLYLINE
  8
2_FEATURE
 62
7
  6
CONTINUOUS
 66
1
 70
0
  0
VERTEX
  8
2_FEATURE
 62
7
  6
CONTINUOUS
 10
136.1552367303
 20
228.0915079185
  0
VERTEX
  8
2_FEATURE
 62
7
  6
CONTINUOUS
 10
136.2538680908
 20
228.0916542443
  0
VERTEX
  8
2_FEATURE
 62
7
  6
CONTINUOUS
 10
136.3504637507
 20
228.0897736849
  0
VERTEX
  8
2_FEATURE
 62
7
  6
CONTINUOUS
 10
136.4433662602
 20
228.0864347899
  0
VERTEX
  8
2_FEATURE
 62
7
  6
CONTINUOUS
 10
136.6249796644
 20
228.0782851738
  0
SEQEND
  0
LINE
  8
2_FEATURE
 62
7
  6
CONTINUOUS
 10
107.6862704918
 20
227.1739757758
 11
102.6362704918
 21
227.1739757758
  0
LINE
  8
2_FEATURE
 62
7
  6
CONTINUOUS
 10
151.5862704918
 20
227.1739757758
 11
156.6362704918
 21
227.1739757758
  0
LINE
  8
2_FEATURE
 62
7
  6
CONTINUOUS
 10
114.8362704918
 20
228.0739757758
 11
122.4694187997
 21
228.0739757758
  0
LINE
  8
2_FEATURE
 62
7
  6
CONTINUOUS
 10
136.8031221839
 20
228.0739757758
 11
144.4362704918
 21
228.0739757758
  0
LINE
  8
2_FEATURE
 62
7
  6
CONTINUOUS
 10
123.2154844865
 20
228.0906610023
 11
136.0570564971
 21
228.0906610023
  0
LINE
  8
2_FEATURE
 62
7
  6
CONTINUOUS
 10
123.1611844931
 20
228.0909230458
 11
123.2154844865
 21
228.0906610023
  0
POLYLINE
  8
2_FEATURE
 62
7
  6
CONTINUOUS
 66
1
 70
0
  0
VERTEX
  8
2_FEATURE
 62
7
  6
CONTINUOUS
 10
136.6249796644
 20
228.0782851738
  0
VERTEX
  8
2_FEATURE
 62
7
  6
CONTINUOUS
 10
136.717469822
 20
228.0751217716
  0
VERTEX
  8
2_FEATURE
 62
7
  6
CONTINUOUS
 10
136.8029386171
 20
228.0739757525
  0
SEQEND
  0
LINE
  8
DEFAULT_1
 62
2
  6
CENTER
 10
129.6362704918
 20
249.1313211148
 11
129.6362704918
 21
237.5740757758
  0
LINE
  8
0
 62
2
  6
CONTINUOUS
 10
129.6362704918
 20
236.6239757758
 11
129.6362704918
 21
234.5239757758
  0
LINE
  8
2_FEATURE
 62
7
  6
CONTINUOUS
 10
129.6362704918
 20
235.5739757758
 11
129.6362704918
 21
231.9079159385
  0
LINE
  8
DEFAULT_1
 62
2
  6
CENTER
 10
129.6362704918
 20
214.8262719344
 11
129.6362704918
 21
233.5738757758
  0
LINE
  8
2_FEATURE
 62
7
  6
CONTINUOUS
 10
117.2774681384
 20
231.8639757758
 11
117.0612704918
 21
231.8639757758
  0
LINE
  8
2_FEATURE
 62
7
  6
CONTINUOUS
 10
141.9950728452
 20
231.8639757758
 11
142.2112704918
 21
231.8639757758
  0
POLYLINE
  8
2_FEATURE
 62
7
  6
CONTINUOUS
 66
1
 70
0
  0
VERTEX
  8
2_FEATURE
 62
7
  6
CONTINUOUS
 10
129.6362704918
 20
231.9079159385
  0
VERTEX
  8
2_FEATURE
 62
7
  6
CONTINUOUS
 10
129.4905708854
 20
231.9933110091
  0
VERTEX
  8
2_FEATURE
 62
7
  6
CONTINUOUS
 10
129.2067780901
 20
232.2165354834
  0
VERTEX
  8
2_FEATURE
 62
7
  6
CONTINUOUS
 10
128.937581234
 20
232.5213375173
  0
VERTEX
  8
2_FEATURE
 62
7
  6
CONTINUOUS
 10
128.6906581986
 20
232.9252583698
  0
VERTEX
  8
2_FEATURE
 62
7
  6
CONTINUOUS
 10
128.5795084312
 20
233.1688939873
  0
VERTEX
  8
2_FEATURE
 62
7
  6
CONTINUOUS
 10
128.3911783155
 20
233.7418213693
  0
VERTEX
  8
2_FEATURE
 62
7
  6
CONTINUOUS
 10
128.2586041495
 20
234.4197128932
  0
VERTEX
  8
2_FEATURE
 62
7
  6
CONTINUOUS
 10
128.1899003297
 20
235.177967364
  0
VERTEX
  8
2_FEATURE
 62
7
  6
CONTINUOUS
 10
128.1811457663
 20
235.5739757758
  0
SEQEND
  0
POLYLINE
  8
2_FEATURE
 62
7
  6
CONTINUOUS
 66
1
 70
0
  0
VERTEX
  8
2_FEATURE
 62
7
  6
CONTINUOUS
 10
131.0913952173
 20
235.5739757758
  0
VERTEX
  8
2_FEATURE
 62
7
  6
CONTINUOUS
 10
131.082640078
 20
235.1779544088
  0
VERTEX
  8
2_FEATURE
 62
7
  6
CONTINUOUS
 10
131.0139312004
 20
234.4196727945
  0
VERTEX
  8
2_FEATURE
 62
7
  6
CONTINUOUS
 10
130.8813366581
 20
233.7417206333
  0
VERTEX
  8
2_FEATURE
 62
7
  6
CONTINUOUS
 10
130.6930121689
 20
233.1688444218
  0
VERTEX
  8
2_FEATURE
 62
7
  6
CONTINUOUS
 10
130.5818853339
 20
232.9252634148
  0
VERTEX
  8
2_FEATURE
 62
7
  6
CONTINUOUS
 10
130.3349962472
 20
232.5213868884
  0
VERTEX
  8
2_FEATURE
 62
7
  6
CONTINUOUS
 10
130.0657573821
 20
232.2165302922
  0
VERTEX
  8
2_FEATURE
 62
7
  6
CONTINUOUS
 10
129.7819615525
 20
231.9933054753
  0
VERTEX
  8
2_FEATURE
 62
7
  6
CONTINUOUS
 10
129.6362704918
 20
231.9079159385
  0
SEQEND
  0
LINE
  8
2_FEATURE
 62
7
  6
CONTINUOUS
 10
131.0913952173
 20
235.5739757758
 11
128.1811457663
 21
235.5739757758
  0
LINE
  8
DEFAULT_1
 62
2
  6
CENTER
 10
88.2819798689
 20
235.5739757758
 11
173.3505700328
 21
235.5739757758
  0
LINE
  8
2_FEATURE
 62
7
  6
CONTINUOUS
 10
161.3862704918
 20
239.0939757758
 11
146.8532234474
 21
239.0939757758
  0
LINE
  8
2_FEATURE
 62
7
  6
CONTINUOUS
 10
112.4193175362
 20
239.0939757758
 11
97.8862704918
 21
239.0939757758
  0
LINE
  8
2_FEATURE
 62
7
  6
CONTINUOUS
 10
117.2774681384
 20
239.2839757758
 11
117.0612704918
 21
239.2839757758
  0
LINE
  8
2_FEATURE
 62
7
  6
CONTINUOUS
 10
141.9950728452
 20
239.2839757758
 11
142.2112704918
 21
239.2839757758
  0
POLYLINE
  8
2_FEATURE
 62
7
  6
CONTINUOUS
 66
1
 70
0
  0
VERTEX
  8
2_FEATURE
 62
7
  6
CONTINUOUS
 10
141.9950728452
 20
231.8639757758
  0
VERTEX
  8
2_FEATURE
 62
7
  6
CONTINUOUS
 10
141.8881895834
 20
231.9272576322
  0
VERTEX
  8
2_FEATURE
 62
7
  6
CONTINUOUS
 10
141.7849797307
 20
232.1148771341
  0
VERTEX
  8
2_FEATURE
 62
7
  6
CONTINUOUS
 10
141.6889553908
 20
232.4203493281
  0
VERTEX
  8
2_FEATURE
 62
7
  6
CONTINUOUS
 10
141.6033826211
 20
232.8331821101
  0
VERTEX
  8
2_FEATURE
 62
7
  6
CONTINUOUS
 10
141.531167935
 20
233.3392377474
  0
VERTEX
  8
2_FEATURE
 62
7
  6
CONTINUOUS
 10
141.4747583591
 20
233.9212345509
  0
VERTEX
  8
2_FEATURE
 62
7
  6
CONTINUOUS
 10
141.4360606271
 20
234.5593506396
  0
VERTEX
  8
2_FEATURE
 62
7
  6
CONTINUOUS
 10
141.4163802051
 20
235.2318989856
  0
VERTEX
  8
2_FEATURE
 62
7
  6
CONTINUOUS
 10
141.4163802051
 20
235.9160525661
  0
VERTEX
  8
2_FEATURE
 62
7
  6
CONTINUOUS
 10
141.4360606271
 20
236.5886009121
  0
VERTEX
  8
2_FEATURE
 62
7
  6
CONTINUOUS
 10
141.4747583591
 20
237.2267170008
  0
VERTEX
  8
2_FEATURE
 62
7
  6
CONTINUOUS
 10
141.531167935
 20
237.8087138043
  0
VERTEX
  8
2_FEATURE
 62
7
  6
CONTINUOUS
 10
141.6033826211
 20
238.3147694416
  0
VERTEX
  8
2_FEATURE
 62
7
  6
CONTINUOUS
 10
141.6889553908
 20
238.7276022235
  0
VERTEX
  8
2_FEATURE
 62
7
  6
CONTINUOUS
 10
141.7849797307
 20
239.0330744176
  0
VERTEX
  8
2_FEATURE
 62
7
  6
CONTINUOUS
 10
141.8881895834
 20
239.2206939195
  0
VERTEX
  8
2_FEATURE
 62
7
  6
CONTINUOUS
 10
141.9950728452
 20
239.2839757758
  0
SEQEND
  0
POLYLINE
  8
2_FEATURE
 62
7
  6
CONTINUOUS
 66
1
 70
0
  0
VERTEX
  8
2_FEATURE
 62
7
  6
CONTINUOUS
 10
142.3924140778
 20
242.5635858005
  0
VERTEX
  8
2_FEATURE
 62
7
  6
CONTINUOUS
 10
142.3288943893
 20
242.5520219463
  0
VERTEX
  8
2_FEATURE
 62
7
  6
CONTINUOUS
 10
142.2774546456
 20
242.5289153051
  0
VERTEX
  8
2_FEATURE
 62
7
  6
CONTINUOUS
 10
142.2403975321
 20
242.4980628211
  0
VERTEX
  8
2_FEATURE
 62
7
  6
CONTINUOUS
 10
142.2184149756
 20
242.4627278821
  0
VERTEX
  8
2_FEATURE
 62
7
  6
CONTINUOUS
 10
142.2112704918
 20
242.4257985015
  0
SEQEND
  0
POLYLINE
  8
2_FEATURE
 62
7
  6
CONTINUOUS
 66
1
 70
0
  0
VERTEX
  8
2_FEATURE
 62
7
  6
CONTINUOUS
 10
142.3924140778
 20
242.5635858005
  0
VERTEX
  8
2_FEATURE
 62
7
  6
CONTINUOUS
 10
142.3964130401
 20
242.5638019421
  0
VERTEX
  8
2_FEATURE
 62
7
  6
CONTINUOUS
 10
142.4004207016
 20
242.5639317965
  0
VERTEX
  8
2_FEATURE
 62
7
  6
CONTINUOUS
 10
142.4044357351
 20
242.5639757758
  0
SEQEND
  0
POLYLINE
  8
2_FEATURE
 62
7
  6
CONTINUOUS
 66
1
 70
0
  0
VERTEX
  8
2_FEATURE
 62
7
  6
CONTINUOUS
 10
116.8801269058
 20
242.5635858005
  0
VERTEX
  8
2_FEATURE
 62
7
  6
CONTINUOUS
 10
116.8761279435
 20
242.5638019421
  0
VERTEX
  8
2_FEATURE
 62
7
  6
CONTINUOUS
 10
116.872120282
 20
242.5639317965
  0
VERTEX
  8
2_FEATURE
 62
7
  6
CONTINUOUS
 10
116.8681052485
 20
242.5639757758
  0
SEQEND
  0
POLYLINE
  8
2_FEATURE
 62
7
  6
CONTINUOUS
 66
1
 70
0
  0
VERTEX
  8
2_FEATURE
 62
7
  6
CONTINUOUS
 10
116.8801269058
 20
242.5635858005
  0
VERTEX
  8
2_FEATURE
 62
7
  6
CONTINUOUS
 10
116.9436465943
 20
242.5520219463
  0
VERTEX
  8
2_FEATURE
 62
7
  6
CONTINUOUS
 10
116.9950863381
 20
242.5289153051
  0
VERTEX
  8
2_FEATURE
 62
7
  6
CONTINUOUS
 10
117.0321434515
 20
242.4980628211
  0
VERTEX
  8
2_FEATURE
 62
7
  6
CONTINUOUS
 10
117.054126008
 20
242.4627278821
  0
VERTEX
  8
2_FEATURE
 62
7
  6
CONTINUOUS
 10
117.0612704918
 20
242.4257985015
  0
SEQEND
  0
LINE
  8
2_FEATURE
 62
7
  6
CONTINUOUS
 10
160.7715944446
 20
242.5639757758
 11
142.4044357351
 21
242.5639757758
  0
LINE
  8
2_FEATURE
 62
7
  6
CONTINUOUS
 10
98.500946539
 20
242.5639757758
 11
116.8681052485
 21
242.5639757758
  0
LINE
  8
2_FEATURE
 62
7
  6
CONTINUOUS
 10
98.1863222483
 20
243.0739757758
 11
161.0862704918
 21
243.0739757758
  0
LINE
  8
2_FEATURE
 62
7
  6
CONTINUOUS
 10
161.0862916194
 20
243.0739757758
 11
161.0917390343
 21
243.0739259592
  0
LINE
  8
2_FEATURE
 62
7
  6
CONTINUOUS
 10
161.0862704918
 20
243.0739757758
 11
161.0956331114
 21
243.0738296425
  0
LINE
  8
2_FEATURE
 62
7
  6
CONTINUOUS
 10
161.0917390343
 20
243.0739259592
 11
161.0956331114
 21
243.0738296425
  0
LINE
  8
2_FEATURE
 62
7
  6
CONTINUOUS
 10
142.2112704918
 20
228.5739757758
 11
142.2112704918
 21
242.5739757758
  0
LINE
  8
2_FEATURE
 62
7
  6
CONTINUOUS
 10
145.1362704918
 20
227.3739757758
 11
145.1362704918
 21
223.6739757758
  0
LINE
  8
2_FEATURE
 62
7
  6
CONTINUOUS
 10
151.0862704918
 20
238.8939757758
 11
151.0862704918
 21
227.6193447777
  0
LINE
  8
2_FEATURE
 62
7
  6
CONTINUOUS
 10
157.1362704918
 20
223.6739757758
 11
157.1362704918
 21
226.6739757758
  0
POLYLINE
  8
2_FEATURE
 62
7
  6
CONTINUOUS
 66
1
 70
0
  0
VERTEX
  8
2_FEATURE
 62
7
  6
CONTINUOUS
 10
161.3862704918
 20
242.1648520168
  0
VERTEX
  8
2_FEATURE
 62
7
  6
CONTINUOUS
 10
161.3799394037
 20
242.2240614983
  0
VERTEX
  8
2_FEATURE
 62
7
  6
CONTINUOUS
 10
161.3308540089
 20
242.3295832411
  0
VERTEX
  8
2_FEATURE
 62
7
  6
CONTINUOUS
 10
161.2389983511
 20
242.4155107193
  0
VERTEX
  8
2_FEATURE
 62
7
  6
CONTINUOUS
 10
161.1789534332
 20
242.4514197773
  0
VERTEX
  8
2_FEATURE
 62
7
  6
CONTINUOUS
 10
161.0348703692
 20
242.5095048663
  0
VERTEX
  8
2_FEATURE
 62
7
  6
CONTINUOUS
 10
160.8644481507
 20
242.5500398521
  0
VERTEX
  8
2_FEATURE
 62
7
  6
CONTINUOUS
 10
160.7715944446
 20
242.5639757758
  0
SEQEND
  0
LINE
  8
2_FEATURE
 62
7
  6
CONTINUOUS
 10
160.7715944446
 20
242.5639757758
 11
160.7715944446
 21
242.5739757742
  0
LINE
  8
2_FEATURE
 62
7
  6
CONTINUOUS
 10
161.3862704918
 20
239.0939757758
 11
161.3862704918
 21
242.7739757758
  0
LINE
  8
2_FEATURE
 62
7
  6
CONTINUOUS
 10
97.8862704918
 20
125.5359501359
 11
97.8862704918
 21
141.0002318641
  0
LINE
  8
2_FEATURE
 62
7
  6
CONTINUOUS
 10
108.1862704918
 20
143.7802311855
 11
108.1862704918
 21
142.0002318641
  0
LINE
  8
2_FEATURE
 62
7
  6
CONTINUOUS
 10
140.517710324
 20
109.7302318641
 11
118.7548306596
 21
109.7302318641
  0
LINE
  8
2_FEATURE
 62
7
  6
CONTINUOUS
 10
116.5612704918
 20
136.6302318641
 11
116.5612704918
 21
132.5602318641
  0
LINE
  8
2_FEATURE
 62
7
  6
CONTINUOUS
 10
117.0612704918
 20
118.1202318641
 11
117.0612704918
 21
122.6734791164
  0
LINE
  8
2_FEATURE
 62
7
  6
CONTINUOUS
 10
118.2609864896
 20
110.1520146316
 11
117.1228287888
 21
117.3380595389
  0
LINE
  8
2_FEATURE
 62
7
  6
CONTINUOUS
 10
114.6730194247
 20
143.9180500827
 11
116.3675789715
 21
138.0084186432
  0
LINE
  8
DEFAULT_1
 62
2
  6
CENTER
 10
169.7440782295
 20
117.7302318641
 11
84.5391601967
 21
117.7302318641
  0
POLYLINE
  8
2_FEATURE
 62
7
  6
CONTINUOUS
 66
1
 70
0
  0
VERTEX
  8
2_FEATURE
 62
7
  6
CONTINUOUS
 10
108.1882893167
 20
142.0002318641
  0
VERTEX
  8
2_FEATURE
 62
7
  6
CONTINUOUS
 10
108.1945071705
 20
141.99190625
  0
VERTEX
  8
2_FEATURE
 62
7
  6
CONTINUOUS
 10
108.2043813988
 20
141.9803233185
  0
VERTEX
  8
2_FEATURE
 62
7
  6
CONTINUOUS
 10
108.2333090062
 20
141.9477946424
  0
SEQEND
  0
LINE
  8
2_FEATURE
 62
7
  6
CONTINUOUS
 10
160.7715944446
 20
124.6131687688
 11
142.3924140778
 21
122.8725882213
  0
LINE
  8
2_FEATURE
 62
7
  6
CONTINUOUS
 10
98.500946539
 20
124.6131687688
 11
116.8801269058
 21
122.8725882213
  0
POLYLINE
  8
2_FEATURE
 62
7
  6
CONTINUOUS
 66
1
 70
0
  0
VERTEX
  8
2_FEATURE
 62
7
  6
CONTINUOUS
 10
108.2333090062
 20
141.9477946424
  0
VERTEX
  8
2_FEATURE
 62
7
  6
CONTINUOUS
 10
108.2516337239
 20
141.9270509891
  0
VERTEX
  8
2_FEATURE
 62
7
  6
CONTINUOUS
 10
108.2721323544
 20
141.9034501051
  0
VERTEX
  8
2_FEATURE
 62
7
  6
CONTINUOUS
 10
108.2945544043
 20
141.87708339
  0
VERTEX
  8
2_FEATURE
 62
7
  6
CONTINUOUS
 10
108.3186798229
 20
141.8480381017
  0
VERTEX
  8
2_FEATURE
 62
7
  6
CONTINUOUS
 10
108.3443131069
 20
141.8163978313
  0
VERTEX
  8
2_FEATURE
 62
7
  6
CONTINUOUS
 10
108.3712785045
 20
141.7822431854
  0
VERTEX
  8
2_FEATURE
 62
7
  6
CONTINUOUS
 10
108.3994162384
 20
141.7456523926
  0
VERTEX
  8
2_FEATURE
 62
7
  6
CONTINUOUS
 10
108.4285794309
 20
141.7067019324
  0
VERTEX
  8
2_FEATURE
 62
7
  6
CONTINUOUS
 10
108.4586315587
 20
141.6654672024
  0
VERTEX
  8
2_FEATURE
 62
7
  6
CONTINUOUS
 10
108.4894443375
 20
141.6220232169
  0
VERTEX
  8
2_FEATURE
 62
7
  6
CONTINUOUS
 10
108.520896085
 20
141.5764451875
  0
VERTEX
  8
2_FEATURE
 62
7
  6
CONTINUOUS
 10
108.552870405
 20
141.528809262
  0
VERTEX
  8
2_FEATURE
 62
7
  6
CONTINUOUS
 10
108.5852554993
 20
141.4791934849
  0
VERTEX
  8
2_FEATURE
 62
7
  6
CONTINUOUS
 10
108.6179455927
 20
141.4276795637
  0
VERTEX
  8
2_FEATURE
 62
7
  6
CONTINUOUS
 10
108.6508572409
 20
141.3743603194
  0
VERTEX
  8
2_FEATURE
 62
7
  6
CONTINUOUS
 10
108.6862704918
 20
141.3202318641
  0
SEQEND
  0
LINE
  8
DEFAULT_1
 62
2
  6
CENTER
 10
129.6362704918
 20
107.7302318641
 11
129.6362704918
 21
146.2802318641
  0
LINE
  8
2_FEATURE
 62
7
  6
CONTINUOUS
 10
117.0612704918
 20
132.0602318641
 11
142.2112704918
 21
132.0602318641
  0
POLYLINE
  8
2_FEATURE
 62
7
  6
CONTINUOUS
 66
1
 70
0
  0
VERTEX
  8
2_FEATURE
 62
7
  6
CONTINUOUS
 10
151.0681595848
 20
141.9803233185
  0
VERTEX
  8
2_FEATURE
 62
7
  6
CONTINUOUS
 10
151.0392319774
 20
141.9477946424
  0
VERTEX
  8
2_FEATURE
 62
7
  6
CONTINUOUS
 10
151.0209072597
 20
141.9270509891
  0
VERTEX
  8
2_FEATURE
 62
7
  6
CONTINUOUS
 10
151.0004086292
 20
141.9034501051
  0
VERTEX
  8
2_FEATURE
 62
7
  6
CONTINUOUS
 10
150.9779865793
 20
141.87708339
  0
VERTEX
  8
2_FEATURE
 62
7
  6
CONTINUOUS
 10
150.9538611607
 20
141.8480381017
  0
VERTEX
  8
2_FEATURE
 62
7
  6
CONTINUOUS
 10
150.9282278767
 20
141.8163978313
  0
VERTEX
  8
2_FEATURE
 62
7
  6
CONTINUOUS
 10
150.9012624791
 20
141.7822431854
  0
VERTEX
  8
2_FEATURE
 62
7
  6
CONTINUOUS
 10
150.8731247452
 20
141.7456523926
  0
VERTEX
  8
2_FEATURE
 62
7
  6
CONTINUOUS
 10
150.8439615527
 20
141.7067019324
  0
VERTEX
  8
2_FEATURE
 62
7
  6
CONTINUOUS
 10
150.8139094249
 20
141.6654672024
  0
VERTEX
  8
2_FEATURE
 62
7
  6
CONTINUOUS
 10
150.7830966461
 20
141.6220232169
  0
VERTEX
  8
2_FEATURE
 62
7
  6
CONTINUOUS
 10
150.7516448986
 20
141.5764451875
  0
VERTEX
  8
2_FEATURE
 62
7
  6
CONTINUOUS
 10
150.7196705786
 20
141.528809262
  0
VERTEX
  8
2_FEATURE
 62
7
  6
CONTINUOUS
 10
150.6872854843
 20
141.4791934849
  0
VERTEX
  8
2_FEATURE
 62
7
  6
CONTINUOUS
 10
150.6545953909
 20
141.4276795637
  0
VERTEX
  8
2_FEATURE
 62
7
  6
CONTINUOUS
 10
150.6216837427
 20
141.3743603194
  0
VERTEX
  8
2_FEATURE
 62
7
  6
CONTINUOUS
 10
150.5862704918
 20
141.3202318641
  0
SEQEND
  0
LINE
  8
2_FEATURE
 62
7
  6
CONTINUOUS
 10
144.5995215589
 20
143.9180500827
 11
142.9049620121
 21
138.0084186432
  0
POLYLINE
  8
2_FEATURE
 62
7
  6
CONTINUOUS
 66
1
 70
0
  0
VERTEX
  8
2_FEATURE
 62
7
  6
CONTINUOUS
 10
151.0842516669
 20
142.0002318641
  0
VERTEX
  8
2_FEATURE
 62
7
  6
CONTINUOUS
 10
151.0780338131
 20
141.99190625
  0
VERTEX
  8
2_FEATURE
 62
7
  6
CONTINUOUS
 10
151.0681595848
 20
141.9803233185
  0
SEQEND
  0
LINE
  8
DEFAULT_1
 62
2
  6
CENTER
 10
89.4965372459
 20
136.8172318641
 11
178.4194880656
 21
136.8172318641
  0
LINE
  8
2_FEATURE
 62
7
  6
CONTINUOUS
 10
142.2112704918
 20
118.1202318641
 11
142.2112704918
 21
122.6734791164
  0
LINE
  8
2_FEATURE
 62
7
  6
CONTINUOUS
 10
142.7112704918
 20
136.6302318641
 11
142.7112704918
 21
132.5602318641
  0
LINE
  8
2_FEATURE
 62
7
  6
CONTINUOUS
 10
142.7140490416
 20
136.7968985308
 11
142.7112704918
 21
136.6302318641
  0
LINE
  8
2_FEATURE
 62
7
  6
CONTINUOUS
 10
141.011554494
 20
110.1520146316
 11
142.1497121948
 21
117.3380595389
  0
LINE
  8
2_FEATURE
 62
7
  6
CONTINUOUS
 10
161.1172433516
 20
141.3202318641
 11
150.5862704918
 21
141.3202318641
  0
LINE
  8
2_FEATURE
 62
7
  6
CONTINUOUS
 10
98.155297632
 20
141.3202318641
 11
108.6862704918
 21
141.3202318641
  0
LINE
  8
2_FEATURE
 62
7
  6
CONTINUOUS
 10
108.1882893167
 20
142.0002318641
 11
98.8862704918
 21
142.0002318641
  0
LINE
  8
2_FEATURE
 62
7
  6
CONTINUOUS
 10
151.0842516669
 20
142.0002318641
 11
160.3862704918
 21
142.0002318641
  0
LINE
  8
2_FEATURE
 62
7
  6
CONTINUOUS
 10
150.5862704918
 20
144.2802318641
 11
145.0796492868
 21
144.2802318641
  0
LINE
  8
2_FEATURE
 62
7
  6
CONTINUOUS
 10
114.1928916968
 20
144.2802318641
 11
108.6862704918
 21
144.2802318641
  0
LINE
  8
2_FEATURE
 62
7
  6
CONTINUOUS
 10
151.0862704918
 20
143.7802311855
 11
151.0862704918
 21
142.0002318641
  0
LINE
  8
2_FEATURE
 62
7
  6
CONTINUOUS
 10
161.3862704918
 20
125.5359501359
 11
161.3862704918
 21
141.0002318641
  0
LINE
  8
2_FEATURE
 62
7
  6
CONTINUOUS
 10
289.1842216775
 20
138.4256801313
 11
297.5842216775
 21
143.2754223925
  0
LINE
  8
2_FEATURE
 62
7
  6
CONTINUOUS
 10
288.9342216775
 20
127.9689764516
 11
288.9342216775
 21
137.9926674294
  0
LINE
  8
DEFAULT_1
 62
2
  6
CENTER
 10
326.6599339672
 20
117.7302318641
 11
303.3343216775
 21
117.7302318641
  0
LINE
  8
0
 62
2
  6
CONTINUOUS
 10
302.3842216775
 20
117.7302318641
 11
300.2842216775
 21
117.7302318641
  0
LINE
  8
DEFAULT_1
 62
2
  6
CENTER
 10
280.0209306885
 20
117.7302318641
 11
299.3341216775
 21
117.7302318641
  0
POLYLINE
  8
2_FEATURE
 62
7
  6
CONTINUOUS
 66
1
 70
0
  0
VERTEX
  8
2_FEATURE
 62
7
  6
CONTINUOUS
 10
288.9342216775
 20
127.9689764516
  0
VERTEX
  8
2_FEATURE
 62
7
  6
CONTINUOUS
 10
288.9511005374
 20
127.8401588905
  0
VERTEX
  8
2_FEATURE
 62
7
  6
CONTINUOUS
 10
289.0008654585
 20
127.7195723869
  0
VERTEX
  8
2_FEATURE
 62
7
  6
CONTINUOUS
 10
289.0809616756
 20
127.6151299156
  0
VERTEX
  8
2_FEATURE
 62
7
  6
CONTINUOUS
 10
289.1867302611
 20
127.5345250748
  0
VERTEX
  8
2_FEATURE
 62
7
  6
CONTINUOUS
 10
289.3112451161
 20
127.4843355894
  0
SEQEND
  0
POLYLINE
  8
2_FEATURE
 62
7
  6
CONTINUOUS
 66
1
 70
0
  0
VERTEX
  8
2_FEATURE
 62
7
  6
CONTINUOUS
 10
292.9332049176
 20
136.2524495579
  0
VERTEX
  8
2_FEATURE
 62
7
  6
CONTINUOUS
 10
292.9337699143
 20
136.2308570378
  0
VERTEX
  8
2_FEATURE
 62
7
  6
CONTINUOUS
 10
292.934108763
 20
136.2092676723
  0
VERTEX
  8
2_FEATURE
 62
7
  6
CONTINUOUS
 10
292.9342216775
 20
136.1876815067
  0
SEQEND
  0
LINE
  8
2_FEATURE
 62
7
  6
CONTINUOUS
 10
292.9342216775
 20
130.7671988859
 11
292.9342216775
 21
136.1876815067
  0
LINE
  8
2_FEATURE
 62
7
  6
CONTINUOUS
 10
304.9962076335
 20
140.1477511717
 11
305.1460625713
 21
140.2802318641
  0
LINE
  8
2_FEATURE
 62
7
  6
CONTINUOUS
 10
293.8342216775
 20
127.413706976
 11
293.8342216775
 21
117.2302318641
  0
POLYLINE
  8
2_FEATURE
 62
7
  6
CONTINUOUS
 66
1
 70
0
  0
VERTEX
  8
2_FEATURE
 62
7
  6
CONTINUOUS
 10
297.6242216775
 20
116.3617051111
  0
VERTEX
  8
2_FEATURE
 62
7
  6
CONTINUOUS
 10
297.6875035338
 20
115.6868707549
  0
VERTEX
  8
2_FEATURE
 62
7
  6
CONTINUOUS
 10
297.8751230358
 20
115.0352293912
  0
VERTEX
  8
2_FEATURE
 62
7
  6
CONTINUOUS
 10
298.1805952298
 20
114.4289555696
  0
VERTEX
  8
2_FEATURE
 62
7
  6
CONTINUOUS
 10
298.5934280117
 20
113.8886703659
  0
VERTEX
  8
2_FEATURE
 62
7
  6
CONTINUOUS
 10
299.099483649
 20
113.4327247817
  0
VERTEX
  8
2_FEATURE
 62
7
  6
CONTINUOUS
 10
299.6814804525
 20
113.0765687367
  0
VERTEX
  8
2_FEATURE
 62
7
  6
CONTINUOUS
 10
300.3195965413
 20
112.8322408728
  0
VERTEX
  8
2_FEATURE
 62
7
  6
CONTINUOUS
 10
300.9921448872
 20
112.7079835781
  0
VERTEX
  8
2_FEATURE
 62
7
  6
CONTINUOUS
 10
301.6762984677
 20
112.7079835781
  0
VERTEX
  8
2_FEATURE
 62
7
  6
CONTINUOUS
 10
302.3488468137
 20
112.8322408728
  0
VERTEX
  8
2_FEATURE
 62
7
  6
CONTINUOUS
 10
302.9869629024
 20
113.0765687367
  0
VERTEX
  8
2_FEATURE
 62
7
  6
CONTINUOUS
 10
303.5689597059
 20
113.4327247817
  0
VERTEX
  8
2_FEATURE
 62
7
  6
CONTINUOUS
 10
304.0750153433
 20
113.8886703659
  0
VERTEX
  8
2_FEATURE
 62
7
  6
CONTINUOUS
 10
304.4878481252
 20
114.4289555696
  0
VERTEX
  8
2_FEATURE
 62
7
  6
CONTINUOUS
 10
304.7933203192
 20
115.0352293912
  0
VERTEX
  8
2_FEATURE
 62
7
  6
CONTINUOUS
 10
304.9809398211
 20
115.6868707549
  0
VERTEX
  8
2_FEATURE
 62
7
  6
CONTINUOUS
 10
305.0442216775
 20
116.3617051111
  0
SEQEND
  0
LINE
  8
2_FEATURE
 62
7
  6
CONTINUOUS
 10
297.6242216775
 20
116.3617051111
 11
297.6242216775
 21
118.9062302107
  0
LINE
  8
2_FEATURE
 62
7
  6
CONTINUOUS
 10
308.3242216775
 20
124.6131687688
 11
308.3342216759
 21
124.6131687688
  0
LINE
  8
2_FEATURE
 62
7
  6
CONTINUOUS
 10
297.6242216775
 20
117.8060602668
 11
297.636308992
 21
118.1064386073
  0
LINE
  8
2_FEATURE
 62
7
  6
CONTINUOUS
 10
289.3112451161
 20
127.4843355894
 11
289.4342216775
 21
127.4689764545
  0
POLYLINE
  8
2_FEATURE
 62
7
  6
CONTINUOUS
 66
1
 70
0
  0
VERTEX
  8
2_FEATURE
 62
7
  6
CONTINUOUS
 10
297.636308992
 20
118.1064386073
  0
VERTEX
  8
2_FEATURE
 62
7
  6
CONTINUOUS
 10
297.7325179713
 20
118.6993078775
  0
VERTEX
  8
2_FEATURE
 62
7
  6
CONTINUOUS
 10
297.92234421
 20
119.2687439731
  0
VERTEX
  8
2_FEATURE
 62
7
  6
CONTINUOUS
 10
298.200694473
 20
119.7998767479
  0
VERTEX
  8
2_FEATURE
 62
7
  6
CONTINUOUS
 10
298.5601467157
 20
120.2789247695
  0
VERTEX
  8
2_FEATURE
 62
7
  6
CONTINUOUS
 10
298.9911912736
 20
120.693557849
  0
VERTEX
  8
2_FEATURE
 62
7
  6
CONTINUOUS
 10
299.4825229619
 20
121.0331984875
  0
VERTEX
  8
2_FEATURE
 62
7
  6
CONTINUOUS
 10
300.0213660537
 20
121.2892587081
  0
VERTEX
  8
2_FEATURE
 62
7
  6
CONTINUOUS
 10
300.5938164002
 20
121.4553147171
  0
VERTEX
  8
2_FEATURE
 62
7
  6
CONTINUOUS
 10
301.1851896058
 20
121.5272258802
  0
VERTEX
  8
2_FEATURE
 62
7
  6
CONTINUOUS
 10
301.4832557051
 20
121.5272258012
  0
VERTEX
  8
2_FEATURE
 62
7
  6
CONTINUOUS
 10
302.0746287976
 20
121.4553143403
  0
VERTEX
  8
2_FEATURE
 62
7
  6
CONTINUOUS
 10
302.6470789003
 20
121.2892581008
  0
VERTEX
  8
2_FEATURE
 62
7
  6
CONTINUOUS
 10
303.1859216614
 20
121.0331977542
  0
VERTEX
  8
2_FEATURE
 62
7
  6
CONTINUOUS
 10
303.6772529866
 20
120.6935571088
  0
VERTEX
  8
2_FEATURE
 62
7
  6
CONTINUOUS
 10
304.1082972056
 20
120.2789241293
  0
VERTEX
  8
2_FEATURE
 62
7
  6
CONTINUOUS
 10
304.4677491777
 20
119.7998762795
  0
VERTEX
  8
2_FEATURE
 62
7
  6
CONTINUOUS
 10
304.7460992614
 20
119.2687436996
  0
VERTEX
  8
2_FEATURE
 62
7
  6
CONTINUOUS
 10
304.9359254101
 20
118.6993077699
  0
VERTEX
  8
2_FEATURE
 62
7
  6
CONTINUOUS
 10
305.0321343639
 20
118.1064385952
  0
SEQEND
  0
POLYLINE
  8
2_FEATURE
 62
7
  6
CONTINUOUS
 66
1
 70
0
  0
VERTEX
  8
2_FEATURE
 62
7
  6
CONTINUOUS
 10
303.8598687024
 20
139.1002318641
  0
VERTEX
  8
2_FEATURE
 62
7
  6
CONTINUOUS
 10
303.826350925
 20
138.9829913112
  0
VERTEX
  8
2_FEATURE
 62
7
  6
CONTINUOUS
 10
303.7939254931
 20
138.8716276287
  0
SEQEND
  0
LINE
  8
2_FEATURE
 62
7
  6
CONTINUOUS
 10
303.7939254931
 20
138.8716276287
 11
303.751644489
 21
138.7294526043
  0
LINE
  8
2_FEATURE
 62
7
  6
CONTINUOUS
 10
303.751644489
 20
138.7294526043
 11
303.7122975052
 21
138.6002318641
  0
LINE
  8
2_FEATURE
 62
7
  6
CONTINUOUS
 10
289.4342216775
 20
127.4689764516
 11
293.1342216775
 21
127.4689764516
  0
POLYLINE
  8
2_FEATURE
 62
7
  6
CONTINUOUS
 66
1
 70
0
  0
VERTEX
  8
2_FEATURE
 62
7
  6
CONTINUOUS
 10
293.1342216775
 20
127.4689767506
  0
VERTEX
  8
2_FEATURE
 62
7
  6
CONTINUOUS
 10
293.335897636
 20
127.4649867678
  0
VERTEX
  8
2_FEATURE
 62
7
  6
CONTINUOUS
 10
293.5291880852
 20
127.4532318561
  0
VERTEX
  8
2_FEATURE
 62
7
  6
CONTINUOUS
 10
293.6905675247
 20
127.4363627195
  0
VERTEX
  8
2_FEATURE
 62
7
  6
CONTINUOUS
 10
293.819258597
 20
127.4168047097
  0
VERTEX
  8
2_FEATURE
 62
7
  6
CONTINUOUS
 10
293.9165763201
 20
127.3966574957
  0
VERTEX
  8
2_FEATURE
 62
7
  6
CONTINUOUS
 10
293.9814943394
 20
127.3787994228
  0
VERTEX
  8
2_FEATURE
 62
7
  6
CONTINUOUS
 10
294.0120808135
 20
127.3677632301
  0
VERTEX
  8
2_FEATURE
 62
7
  6
CONTINUOUS
 10
294.0143421666
 20
127.3667708424
  0
SEQEND
  0
LINE
  8
0
 62
2
  6
CONTINUOUS
 10
301.3342216775
 20
137.8672318641
 11
301.3342216775
 21
135.7672318641
  0
LINE
  8
DEFAULT_1
 62
2
  6
CENTER
 10
301.3342216775
 20
131.5672318641
 11
301.3342216775
 21
129.6672318641
  0
LINE
  8
DEFAULT_1
 62
2
  6
CENTER
 10
301.3342216775
 20
126.4064948852
 11
301.3342216775
 21
119.7303318641
  0
LINE
  8
0
 62
2
  6
CONTINUOUS
 10
301.3342216775
 20
118.7802318641
 11
301.3342216775
 21
116.6802318641
  0
LINE
  8
DEFAULT_1
 62
2
  6
CENTER
 10
301.3342216775
 20
102.7697211148
 11
301.3342216775
 21
115.7301318641
  0
LINE
  8
DEFAULT_1
 62
2
  6
CENTER
 10
301.3342216775
 20
142.0672318641
 11
301.3342216775
 21
143.9672318641
  0
LINE
  8
2_FEATURE
 62
7
  6
CONTINUOUS
 10
298.9360919876
 20
138.7257289597
 11
298.9739821737
 21
138.6002318641
  0
LINE
  8
2_FEATURE
 62
7
  6
CONTINUOUS
 10
298.8859813029
 20
138.8960252119
 11
298.9360919876
 21
138.7257289597
  0
LINE
  8
2_FEATURE
 62
7
  6
CONTINUOUS
 10
298.8277140392
 20
139.1002318641
 11
298.8859813029
 21
138.8960252119
  0
POLYLINE
  8
2_FEATURE
 62
7
  6
CONTINUOUS
 66
1
 70
0
  0
VERTEX
  8
2_FEATURE
 62
7
  6
CONTINUOUS
 10
305.0442216775
 20
118.9062302107
  0
VERTEX
  8
2_FEATURE
 62
7
  6
CONTINUOUS
 10
304.9807570992
 20
119.5921260029
  0
VERTEX
  8
2_FEATURE
 62
7
  6
CONTINUOUS
 10
304.7926492384
 20
120.254259271
  0
VERTEX
  8
2_FEATURE
 62
7
  6
CONTINUOUS
 10
304.4865476123
 20
120.8699597306
  0
VERTEX
  8
2_FEATURE
 62
7
  6
CONTINUOUS
 10
304.073164064
 20
121.4182469052
  0
VERTEX
  8
2_FEATURE
 62
7
  6
CONTINUOUS
 10
303.5668428535
 20
121.8805710344
  0
VERTEX
  8
2_FEATURE
 62
7
  6
CONTINUOUS
 10
302.9849945584
 20
122.2414280631
  0
VERTEX
  8
2_FEATURE
 62
7
  6
CONTINUOUS
 10
302.3474527783
 20
122.4888212657
  0
VERTEX
  8
2_FEATURE
 62
7
  6
CONTINUOUS
 10
301.6757949605
 20
122.6145841228
  0
VERTEX
  8
2_FEATURE
 62
7
  6
CONTINUOUS
 10
300.9926483944
 20
122.6145841228
  0
VERTEX
  8
2_FEATURE
 62
7
  6
CONTINUOUS
 10
300.3209905767
 20
122.4888212657
  0
VERTEX
  8
2_FEATURE
 62
7
  6
CONTINUOUS
 10
299.6834487966
 20
122.2414280631
  0
VERTEX
  8
2_FEATURE
 62
7
  6
CONTINUOUS
 10
299.1016005015
 20
121.8805710344
  0
VERTEX
  8
2_FEATURE
 62
7
  6
CONTINUOUS
 10
298.595279291
 20
121.4182469052
  0
VERTEX
  8
2_FEATURE
 62
7
  6
CONTINUOUS
 10
298.1818957427
 20
120.8699597306
  0
VERTEX
  8
2_FEATURE
 62
7
  6
CONTINUOUS
 10
297.8757941166
 20
120.254259271
  0
VERTEX
  8
2_FEATURE
 62
7
  6
CONTINUOUS
 10
297.6876862558
 20
119.5921260029
  0
VERTEX
  8
2_FEATURE
 62
7
  6
CONTINUOUS
 10
297.6242216775
 20
118.9062302107
  0
SEQEND
  0
POLYLINE
  8
2_FEATURE
 62
7
  6
CONTINUOUS
 66
1
 70
0
  0
VERTEX
  8
2_FEATURE
 62
7
  6
CONTINUOUS
 10
305.1029716775
 20
128.4541231516
  0
VERTEX
  8
2_FEATURE
 62
7
  6
CONTINUOUS
 10
305.8602325119
 20
127.9479428095
  0
VERTEX
  8
2_FEATURE
 62
7
  6
CONTINUOUS
 10
306.5514783589
 20
127.3528596477
  0
VERTEX
  8
2_FEATURE
 62
7
  6
CONTINUOUS
 10
306.8690177076
 20
127.0246549532
  0
VERTEX
  8
2_FEATURE
 62
7
  6
CONTINUOUS
 10
307.4419939995
 20
126.3128547668
  0
VERTEX
  8
2_FEATURE
 62
7
  6
CONTINUOUS
 10
307.9250979185
 20
125.5359501359
  0
SEQEND
  0
POLYLINE
  8
2_FEATURE
 62
7
  6
CONTINUOUS
 66
1
 70
0
  0
VERTEX
  8
2_FEATURE
 62
7
  6
CONTINUOUS
 10
305.1029716775
 20
128.4541231516
  0
VERTEX
  8
2_FEATURE
 62
7
  6
CONTINUOUS
 10
305.0416573886
 20
128.4963389112
  0
VERTEX
  8
2_FEATURE
 62
7
  6
CONTINUOUS
 10
304.940832927
 20
128.60582296
  0
VERTEX
  8
2_FEATURE
 62
7
  6
CONTINUOUS
 10
304.9035453373
 20
128.6708341695
  0
VERTEX
  8
2_FEATURE
 62
7
  6
CONTINUOUS
 10
304.8597883022
 20
128.8136112225
  0
VERTEX
  8
2_FEATURE
 62
7
  6
CONTINUOUS
 10
304.8542216775
 20
128.8883459911
  0
SEQEND
  0
LINE
  8
2_FEATURE
 62
7
  6
CONTINUOUS
 10
305.0321343639
 20
118.1064385952
 11
305.0442216775
 21
117.8060602668
  0
LINE
  8
2_FEATURE
 62
7
  6
CONTINUOUS
 10
304.8542216775
 20
132.8470807335
 11
304.8542216775
 21
127.5120093712
  0
LINE
  8
2_FEATURE
 62
7
  6
CONTINUOUS
 10
305.0442216775
 20
116.3617051111
 11
305.0442216775
 21
118.9062302107
  0
POLYLINE
  8
2_FEATURE
 62
7
  6
CONTINUOUS
 66
1
 70
0
  0
VERTEX
  8
2_FEATURE
 62
7
  6
CONTINUOUS
 10
305.0442216775
 20
117.6606675813
  0
VERTEX
  8
2_FEATURE
 62
7
  6
CONTINUOUS
 10
305.0321091961
 20
117.3594714414
  0
VERTEX
  8
2_FEATURE
 62
7
  6
CONTINUOUS
 10
304.9357086155
 20
116.765035762
  0
VERTEX
  8
2_FEATURE
 62
7
  6
CONTINUOUS
 10
304.7455485265
 20
116.194227905
  0
VERTEX
  8
2_FEATURE
 62
7
  6
CONTINUOUS
 10
304.4668092102
 20
115.6620076299
  0
VERTEX
  8
2_FEATURE
 62
7
  6
CONTINUOUS
 10
304.107016933
 20
115.1821954321
  0
VERTEX
  8
2_FEATURE
 62
7
  6
CONTINUOUS
 10
303.6757782895
 20
114.7671067364
  0
VERTEX
  8
2_FEATURE
 62
7
  6
CONTINUOUS
 10
303.1844654315
 20
114.427259053
  0
VERTEX
  8
2_FEATURE
 62
7
  6
CONTINUOUS
 10
302.6458753949
 20
114.1711533334
  0
VERTEX
  8
2_FEATURE
 62
7
  6
CONTINUOUS
 10
302.0738827538
 20
114.0051226986
  0
VERTEX
  8
2_FEATURE
 62
7
  6
CONTINUOUS
 10
301.4830976453
 20
113.9332365971
  0
VERTEX
  8
2_FEATURE
 62
7
  6
CONTINUOUS
 10
301.1853428987
 20
113.9332367106
  0
VERTEX
  8
2_FEATURE
 62
7
  6
CONTINUOUS
 10
300.5945579536
 20
114.0051232402
  0
VERTEX
  8
2_FEATURE
 62
7
  6
CONTINUOUS
 10
300.0225656644
 20
114.1711542058
  0
VERTEX
  8
2_FEATURE
 62
7
  6
CONTINUOUS
 10
299.483976104
 20
114.4272601056
  0
VERTEX
  8
2_FEATURE
 62
7
  6
CONTINUOUS
 10
298.9926637684
 20
114.7671077976
  0
VERTEX
  8
2_FEATURE
 62
7
  6
CONTINUOUS
 10
298.5614256115
 20
115.1821963488
  0
VERTEX
  8
2_FEATURE
 62
7
  6
CONTINUOUS
 10
298.201633722
 20
115.6620082997
  0
VERTEX
  8
2_FEATURE
 62
7
  6
CONTINUOUS
 10
297.9228946623
 20
116.1942282958
  0
VERTEX
  8
2_FEATURE
 62
7
  6
CONTINUOUS
 10
297.7327347017
 20
116.7650359155
  0
VERTEX
  8
2_FEATURE
 62
7
  6
CONTINUOUS
 10
297.6363341575
 20
117.3594714586
  0
VERTEX
  8
2_FEATURE
 62
7
  6
CONTINUOUS
 10
297.6242216775
 20
117.6606675813
  0
SEQEND
  0
POLYLINE
  8
2_FEATURE
 62
7
  6
CONTINUOUS
 66
1
 70
0
  0
VERTEX
  8
2_FEATURE
 62
7
  6
CONTINUOUS
 10
304.9228221833
 20
126.9715565829
  0
VERTEX
  8
2_FEATURE
 62
7
  6
CONTINUOUS
 10
304.8783453814
 20
127.1839551895
  0
VERTEX
  8
2_FEATURE
 62
7
  6
CONTINUOUS
 10
304.8592431828
 20
127.3608796091
  0
VERTEX
  8
2_FEATURE
 62
7
  6
CONTINUOUS
 10
304.8542216775
 20
127.5120093712
  0
SEQEND
  0
POLYLINE
  8
2_FEATURE
 62
7
  6
CONTINUOUS
 66
1
 70
0
  0
VERTEX
  8
2_FEATURE
 62
7
  6
CONTINUOUS
 10
307.9250979185
 20
125.5359501359
  0
VERTEX
  8
2_FEATURE
 62
7
  6
CONTINUOUS
 10
307.9843074
 20
125.4236020447
  0
VERTEX
  8
2_FEATURE
 62
7
  6
CONTINUOUS
 10
308.0898291427
 20
125.2076789381
  0
VERTEX
  8
2_FEATURE
 62
7
  6
CONTINUOUS
 10
308.1757566209
 20
125.0135947033
  0
VERTEX
  8
2_FEATURE
 62
7
  6
CONTINUOUS
 10
308.2116656789
 20
124.9263160207
  0
VERTEX
  8
2_FEATURE
 62
7
  6
CONTINUOUS
 10
308.269750768
 20
124.7748205812
  0
VERTEX
  8
2_FEATURE
 62
7
  6
CONTINUOUS
 10
308.3102857538
 20
124.6576870053
  0
VERTEX
  8
2_FEATURE
 62
7
  6
CONTINUOUS
 10
308.3242216775
 20
124.6131687688
  0
SEQEND
  0
LINE
  8
2_FEATURE
 62
7
  6
CONTINUOUS
 10
308.3242216775
 20
124.6131687688
 11
308.3242216775
 21
122.8737267194
  0
LINE
  8
2_FEATURE
 62
7
  6
CONTINUOUS
 10
305.5043307019
 20
136.4928458442
 11
305.0022020147
 21
136.4830446409
  0
LINE
  8
2_FEATURE
 62
7
  6
CONTINUOUS
 10
297.1684752916
 20
136.4353303584
 11
297.6706330277
 21
136.4330745434
  0
LINE
  8
2_FEATURE
 62
7
  6
CONTINUOUS
 10
308.8342216775
 20
117.2302318641
 11
308.8342216775
 21
136.7802318641
  0
POLYLINE
  8
2_FEATURE
 62
7
  6
CONTINUOUS
 66
1
 70
0
  0
VERTEX
  8
2_FEATURE
 62
7
  6
CONTINUOUS
 10
308.3238317021
 20
122.8725882213
  0
VERTEX
  8
2_FEATURE
 62
7
  6
CONTINUOUS
 10
308.3240478437
 20
122.8729669387
  0
VERTEX
  8
2_FEATURE
 62
7
  6
CONTINUOUS
 10
308.3241776981
 20
122.87334648
  0
VERTEX
  8
2_FEATURE
 62
7
  6
CONTINUOUS
 10
308.3242216775
 20
122.8737267194
  0
SEQEND
  0
LINE
  8
2_FEATURE
 62
7
  6
CONTINUOUS
 10
308.3238317021
 20
122.8725882213
 11
308.2583087227
 21
122.7774138634
  0
LINE
  8
2_FEATURE
 62
7
  6
CONTINUOUS
 10
308.2583087227
 20
122.7774138634
 11
308.1860444031
 21
122.6734791164
  0
LINE
  8
0
 62
2
  6
CONTINUOUS
 10
302.3842216775
 20
136.8172318641
 11
300.2842216775
 21
136.8172318641
  0
LINE
  8
DEFAULT_1
 62
2
  6
CENTER
 10
296.0842216775
 20
136.8172318641
 11
294.1842216775
 21
136.8172318641
  0
LINE
  8
DEFAULT_1
 62
2
  6
CENTER
 10
306.5842216775
 20
136.8172318641
 11
308.4842216775
 21
136.8172318641
  0
LINE
  8
2_FEATURE
 62
7
  6
CONTINUOUS
 10
303.7122975052
 20
138.6002318641
 11
298.9739821737
 21
138.6002318641
  0
LINE
  8
2_FEATURE
 62
7
  6
CONTINUOUS
 10
305.0205536062
 20
142.0002318641
 11
306.0651854444
 21
142.0002318641
  0
ARC
  8
2_FEATURE
 62
7
  6
CONTINUOUS
 10
102.6362704918
 20
223.6739757758
 40
0.5
 50
180.0
 51
270.0
  0
ARC
  8
2_FEATURE
 62
7
  6
CONTINUOUS
 10
102.6362704918
 20
226.6739756538
 40
0.5
 50
90.0
 51
179.9999860195
  0
ARC
  8
2_FEATURE
 62
7
  6
CONTINUOUS
 10
107.6862704918
 20
227.6739757758
 40
0.5
 50
270.0
 51
359.5246439039
  0
ARC
  8
2_FEATURE
 62
7
  6
CONTINUOUS
 10
113.6362704918
 20
223.6739757758
 40
0.5
 50
270.0
 51
360.0
  0
ARC
  8
2_FEATURE
 62
7
  6
CONTINUOUS
 10
114.8362704918
 20
227.3739757758
 40
0.7
 50
90.0
 51
180.0
  0
ARC
  8
2_FEATURE
 62
7
  6
CONTINUOUS
 10
117.5612704918
 20
228.5739757758
 40
0.5
 50
180.0
 51
270.0
  0
ARC
  8
2_FEATURE
 62
7
  6
CONTINUOUS
 10
117.5612704918
 20
242.5739757758
 40
0.5
 50
90.0
 51
180.0
  0
ARC
  8
2_FEATURE
 62
7
  6
CONTINUOUS
 10
98.1862704918
 20
242.7739757758
 40
0.3
 50
90.0
 51
180.0
  0
ARC
  8
2_FEATURE
 62
7
  6
CONTINUOUS
 10
107.9862704918
 20
238.8939757758
 40
0.2
 50
0.0
 51
90.0
  0
ARC
  8
2_FEATURE
 62
7
  6
CONTINUOUS
 10
145.6362704918
 20
223.6739757758
 40
0.5
 50
180.0
 51
270.0
  0
ARC
  8
2_FEATURE
 62
7
  6
CONTINUOUS
 10
144.4362704918
 20
227.3739757758
 40
0.7
 50
0.0
 51
90.0
  0
ARC
  8
2_FEATURE
 62
7
  6
CONTINUOUS
 10
141.7112704918
 20
228.5739757758
 40
0.5
 50
270.0
 51
360.0
  0
ARC
  8
2_FEATURE
 62
7
  6
CONTINUOUS
 10
156.6362704918
 20
223.6739757758
 40
0.5
 50
270.0
 51
360.0
  0
ARC
  8
2_FEATURE
 62
7
  6
CONTINUOUS
 10
151.5862704918
 20
227.6739757758
 40
0.5
 50
180.4753560961
 51
270.0
  0
ARC
  8
2_FEATURE
 62
7
  6
CONTINUOUS
 10
156.6362704918
 20
226.6739757758
 40
0.5
 50
0.0
 51
90.0
  0
ARC
  8
2_FEATURE
 62
7
  6
CONTINUOUS
 10
141.7112704918
 20
242.5739757758
 40
0.5
 50
0.0
 51
90.0
  0
ARC
  8
2_FEATURE
 62
7
  6
CONTINUOUS
 10
161.0862704918
 20
242.7739757758
 40
0.3
 50
0.0
 51
90.0
  0
ARC
  8
2_FEATURE
 62
7
  6
CONTINUOUS
 10
151.2862704918
 20
238.8939757758
 40
0.2
 50
90.0
 51
180.0
  0
ARC
  8
2_FEATURE
 62
7
  6
CONTINUOUS
 10
122.0612704918
 20
118.1202318641
 40
5.0
 50
180.0
 51
189.0
  0
ARC
  8
2_FEATURE
 62
7
  6
CONTINUOUS
 10
98.8862704918
 20
125.5359501359
 40
1.0
 50
180.0
 51
247.3361468826
  0
ARC
  8
2_FEATURE
 62
7
  6
CONTINUOUS
 10
118.7548306599
 20
110.2302318641
 40
0.5
 50
189.0
 51
270.0
  0
ARC
  8
2_FEATURE
 62
7
  6
CONTINUOUS
 10
116.8612704918
 20
122.6734791164
 40
0.2
 50
0.0
 51
84.59
  0
ARC
  8
2_FEATURE
 62
7
  6
CONTINUOUS
 10
111.5612704918
 20
136.6302318641
 40
5.0
 50
0.0
 51
16.0
  0
ARC
  8
2_FEATURE
 62
7
  6
CONTINUOUS
 10
98.8862704918
 20
141.0002318641
 40
1.0
 50
90.0000000001
 51
180.0
  0
ARC
  8
2_FEATURE
 62
7
  6
CONTINUOUS
 10
108.6862704918
 20
143.7802318641
 40
0.5
 50
90.0
 51
180.0
  0
ARC
  8
2_FEATURE
 62
7
  6
CONTINUOUS
 10
114.192388477
 20
143.7802317524
 40
0.5
 50
15.9999999998
 51
89.9999991763
  0
ARC
  8
2_FEATURE
 62
7
  6
CONTINUOUS
 10
117.0612704918
 20
132.5602318641
 40
0.5
 50
180.0
 51
270.0
  0
ARC
  8
2_FEATURE
 62
7
  6
CONTINUOUS
 10
137.2112704918
 20
118.1202318641
 40
5.0
 50
351.0
 51
360.0
  0
ARC
  8
2_FEATURE
 62
7
  6
CONTINUOUS
 10
160.3862704918
 20
125.5359501359
 40
1.0
 50
292.6638531174
 51
360.0
  0
ARC
  8
2_FEATURE
 62
7
  6
CONTINUOUS
 10
140.5177103237
 20
110.2302318641
 40
0.5
 50
270.0
 51
351.0
  0
ARC
  8
2_FEATURE
 62
7
  6
CONTINUOUS
 10
142.4112704918
 20
122.6734791164
 40
0.2
 50
95.41
 51
180.0
  0
ARC
  8
2_FEATURE
 62
7
  6
CONTINUOUS
 10
147.7112704918
 20
136.6302318641
 40
5.0
 50
164.0
 51
180.0
  0
ARC
  8
2_FEATURE
 62
7
  6
CONTINUOUS
 10
160.3862704918
 20
141.0002318641
 40
1.0
 50
0.0
 51
89.9999999999
  0
ARC
  8
2_FEATURE
 62
7
  6
CONTINUOUS
 10
150.5862704918
 20
143.7802318641
 40
0.5
 50
0.0
 51
90.0
  0
ARC
  8
2_FEATURE
 62
7
  6
CONTINUOUS
 10
145.0801525066
 20
143.7802317524
 40
0.5
 50
90.0000008238
 51
164.0000000003
  0
ARC
  8
2_FEATURE
 62
7
  6
CONTINUOUS
 10
142.2112704918
 20
132.5602318641
 40
0.5
 50
270.0
 51
360.0
  0
ARC
  8
2_FEATURE
 62
7
  6
CONTINUOUS
 10
289.4342216775
 20
137.9926674294
 40
0.5
 50
120.0
 51
180.0
  0
ARC
  8
2_FEATURE
 62
7
  6
CONTINUOUS
 10
301.3342216775
 20
117.2302318641
 40
7.5
 50
180.0
 51
360.0
  0
ARC
  8
2_FEATURE
 62
7
  6
CONTINUOUS
 10
300.6442216775
 20
136.1202318641
 40
2.99
 50
123.9596228214
 51
173.9941699644
  0
ARC
  8
2_FEATURE
 62
7
  6
CONTINUOUS
 10
302.0242216775
 20
136.1202318641
 40
3.0
 50
6.9462167689
 51
55.7578312974
  0
ARC
  8
2_FEATURE
 62
7
  6
CONTINUOUS
 10
301.3342216775
 20
136.7802318641
 40
7.5
 50
0.0
 51
120.0
  0
ARC
  8
2_FEATURE
 62
7
  6
CONTINUOUS
 10
301.3342216775
 20
136.8172318641
 40
5.15
 50
315.3574516585
 51
42.2546735916
  0
ARC
  8
2_FEATURE
 62
7
  6
CONTINUOUS
 10
301.3342216775
 20
136.7802318641
 40
3.68
 50
185.41311693
 51
355.36789771
  0
ARC
  8
2_FEATURE
 62
7
  6
CONTINUOUS
 10
305.3542216775
 20
132.8470807335
 40
0.5
 50
135.3574516585
 51
180.0
  0
ARC
  8
2_FEATURE
 62
7
  6
CONTINUOUS
 10
305.9142216775
 20
140.2567554688
 40
1.75
 50
37.4234406716
 51
85.0512281941
  0
ARC
  8
2_FEATURE
 62
7
  6
CONTINUOUS
 10
306.0553502046
 20
141.0602318641
 40
1.198
 50
128.3125063401
 51
220.6234669706
  0
ENDSEC
  0
EOF
