999
DXF file: G:\afd20\200100-Web\Chains\uni 3200\2D-DXF\Sprockets\uni_3200_z15_2w_1r_1p_hub65.dxf
999
Pro/ENGINEER 2015290 by Parametric Technology Corporation
  0
SECTION
  2
HEADER
  9
$ACADVER
  1
AC1027
  9
$DWGCODEPAGE
  3
ANSI_1252
  9
$EXTMAX
 10
594.0
 20
420.0
 30
0.0
  9
$EXTMIN
 10
0.0
 20
0.0
 30
0.0
  9
$LIMMIN
 10
0.0
 20
0.0
  9
$LIMMAX
 10
594.0
 20
420.0
  9
$VIEWCTR
 10
297.0
 20
210.0
  9
$VIEWSIZE
 40
420.0
  9
$CLAYER
  8
0
  9
$LTSCALE
 40
32.67
  9
$CELTYPE
  6
BYLAYER
  9
$DIMSCALE
 40
1.0
  9
$DIMASZ
 40
3.5
  9
$DIMEXO
 40
1.0
  9
$DIMDLI
 40
22.572
  9
$DIMEXE
 40
2.0
  9
$DIMCEN
 40
5.346
  9
$DIMLFAC
 40
1.0
  9
$DIMBLK
  1
_FILLED
  9
$DIMALT
 70
0
  9
$DIMALTF
 40
0.0393700787
  9
$DIMTXT
 40
3.5
  9
$DIMTOL
 70
1
  9
$DIMLIM
 70
0
  9
$DIMTFAC
 40
1.0
  9
$DIMTP
 40
0.01
  9
$DIMTM
 40
0.01
  9
$DIMGAP
 40
0.625
  9
$DIMDSEP
 70
46
  9
$AUNITS
 70
0
  9
$PDMODE
 70
3
  9
$PDSIZE
 40
0.3125
  9
$HANDSEED
  5
422
  9
$TILEMODE
 70
1
  9
$MEASUREMENT
 70
1
  9
$INSUNITS
 70
4
  0
ENDSEC
  0
SECTION
  2
CLASSES
  0
CLASS
  1
ACDBDICTIONARYWDFLT
  2
AcDbDictionaryWithDefault
  3
AutoCAD 2000
 90
0
 91
1
280
0
281
0
  0
CLASS
  1
ACDBPLACEHOLDER
  2
AcDbPlaceHolder
  3
AutoCAD 2000
 90
0
 91
1
280
0
281
0
  0
CLASS
  1
LAYOUT
  2
AcDbLayout
  3
AutoCAD 2000
 90
0
 91
0
280
0
281
0
  0
CLASS
  1
TABLESTYLE
  2
AcDbTableStyle
  3
ObjectDBX Classes
 90
2047
 91
1
280
0
281
0
  0
CLASS
  1
ACAD_TABLE
  2
AcDbTable
  3
ObjectDBX Classes
 90
1025
 91
1
280
0
281
1
  0
ENDSEC
  0
SECTION
  2
TABLES
  0
TABLE
  2
VPORT
  5
8
100
AcDbSymbolTable
 70
2
  0
VPORT
  5
1F4
100
AcDbSymbolTableRecord
100
AcDbViewportTableRecord
  2
*ACTIVE
 70
0
 10
0.0
 20
0.0
 11
1.0
 21
1.0
 12
297.0
 22
210.0
 13
0.0
 23
0.0
 14
1.0
 24
1.0
 15
0.0
 25
0.0
 16
0.0
 26
0.0
 36
1.0
 17
0.0
 27
0.0
 37
0.0
 40
420.0
 41
1.4142857143
 42
50.0
 43
0.0
 44
0.0
 50
0.0
 51
0.0
 71
0
 72
100
 73
1
 74
1
 75
0
 76
0
 77
0
 78
0
  0
ENDTAB
  0
TABLE
  2
LTYPE
  5
5
100
AcDbSymbolTable
 70
6
  0
LTYPE
  5
14
100
AcDbSymbolTableRecord
100
AcDbLinetypeTableRecord
  2
BYBLOCK
 70
0
  3

 72
65
 73
0
 40
0.0
  0
LTYPE
  5
15
100
AcDbSymbolTableRecord
100
AcDbLinetypeTableRecord
  2
BYLAYER
 70
0
  3

 72
65
 73
0
 40
0.0
  0
LTYPE
  5
16
100
AcDbSymbolTableRecord
100
AcDbLinetypeTableRecord
  2
CONTINUOUS
 70
64
  3
Solid line
 72
65
 73
0
 40
0.0
  0
LTYPE
  5
1F5
100
AcDbSymbolTableRecord
100
AcDbLinetypeTableRecord
  2
CENTER
 70
64
  3
____ _ ____ _ ____ _ ____ _ ____ _ ____ _ ____
 72
65
 73
4
 40
0.6
 49
0.375
 74
0
 49
-0.075
 74
0
 49
0.075
 74
0
 49
-0.075
 74
0
  0
LTYPE
  5
1F6
100
AcDbSymbolTableRecord
100
AcDbLinetypeTableRecord
  2
HIDDEN
 70
64
  3
- - - - - - - - - - - - - - - - - - - -
 72
65
 73
2
 40
0.2
 49
0.1
 74
0
 49
-0.1
 74
0
  0
LTYPE
  5
1F7
100
AcDbSymbolTableRecord
100
AcDbLinetypeTableRecord
  2
PHANTOM
 70
64
  3
_____ _ _ _____ _ _ _____ _ _ _____
 72
65
 73
6
 40
0.8
 49
0.45
 74
0
 49
-0.05
 74
0
 49
0.1
 74
0
 49
-0.05
 74
0
 49
0.1
 74
0
 49
-0.05
 74
0
  0
LTYPE
  5
1F8
100
AcDbSymbolTableRecord
100
AcDbLinetypeTableRecord
  2
DOT
 70
64
  3
. . . . . . . . . . . . . . . . . . . .
 72
65
 73
2
 40
0.2
 49
0.1
 74
0
 49
-0.1
 74
0
  0
LTYPE
  5
1F9
100
AcDbSymbolTableRecord
100
AcDbLinetypeTableRecord
  2
DASHED
 70
64
  3
- - - - - - - - - - - - - - - - - - - -
 72
65
 73
2
 40
0.2
 49
0.1
 74
0
 49
-0.1
 74
0
  0
ENDTAB
  0
TABLE
  2
LAYER
  5
2
100
AcDbSymbolTable
 70
36
  0
LAYER
  5
10
100
AcDbSymbolTableRecord
100
AcDbLayerTableRecord
  2
0
 70
0
 62
7
  6
CONTINUOUS
370
-3
390
F
  0
LAYER
  5
1FA
100
AcDbSymbolTableRecord
100
AcDbLayerTableRecord
  2
DEFAULT_1
 70
0
 62
7
  6
CENTER
370
-3
390
F
  0
LAYER
  5
1FB
100
AcDbSymbolTableRecord
100
AcDbLayerTableRecord
  2
DEFAULT_2
 70
0
 62
8
  6
HIDDEN
370
-3
390
F
  0
LAYER
  5
1FC
100
AcDbSymbolTableRecord
100
AcDbLayerTableRecord
  2
DEFAULT_3
 70
0
 62
7
  6
PHANTOM
370
-3
390
F
  0
LAYER
  5
1FD
100
AcDbSymbolTableRecord
100
AcDbLayerTableRecord
  2
1_AXIS
 70
0
 62
7
  6
CONTINUOUS
370
-3
390
F
  0
LAYER
  5
1FE
100
AcDbSymbolTableRecord
100
AcDbLayerTableRecord
  2
1_CSYS
 70
0
 62
7
  6
CONTINUOUS
370
-3
390
F
  0
LAYER
  5
1FF
100
AcDbSymbolTableRecord
100
AcDbLayerTableRecord
  2
1_DATUM_PLANE
 70
0
 62
7
  6
CONTINUOUS
370
-3
390
F
  0
LAYER
  5
200
100
AcDbSymbolTableRecord
100
AcDbLayerTableRecord
  2
2_FEATURE
 70
0
 62
7
  6
CONTINUOUS
370
-3
390
F
  0
LAYER
  5
201
100
AcDbSymbolTableRecord
100
AcDbLayerTableRecord
  2
4_QUILT
 70
0
 62
7
  6
CONTINUOUS
370
-3
390
F
  0
LAYER
  5
202
100
AcDbSymbolTableRecord
100
AcDbLayerTableRecord
  2
6_DIM
 70
0
 62
7
  6
CONTINUOUS
370
-3
390
F
  0
LAYER
  5
203
100
AcDbSymbolTableRecord
100
AcDbLayerTableRecord
  2
AXES
 70
0
 62
7
  6
CONTINUOUS
370
-3
390
F
  0
LAYER
  5
204
100
AcDbSymbolTableRecord
100
AcDbLayerTableRecord
  2
CSYS
 70
0
 62
7
  6
CONTINUOUS
370
-3
390
F
  0
LAYER
  5
205
100
AcDbSymbolTableRecord
100
AcDbLayerTableRecord
  2
PITCH
 70
0
 62
7
  6
CONTINUOUS
370
-3
390
F
  0
LAYER
  5
206
100
AcDbSymbolTableRecord
100
AcDbLayerTableRecord
  2
PLANES
 70
0
 62
7
  6
CONTINUOUS
370
-3
390
F
  0
LAYER
  5
207
100
AcDbSymbolTableRecord
100
AcDbLayerTableRecord
  2
QUILTS
 70
0
 62
7
  6
CONTINUOUS
370
-3
390
F
  0
ENDTAB
  0
TABLE
  2
STYLE
  5
3
100
AcDbSymbolTable
 70
1
  0
STYLE
  5
11
100
AcDbSymbolTableRecord
100
AcDbTextStyleTableRecord
  2
STANDARD
 70
0
 40
0.0
 41
0.8
 50
0.0
 71
0
 42
0.2
  3
txt
  4

  0
STYLE
  5
208
100
AcDbSymbolTableRecord
100
AcDbTextStyleTableRecord
  2
TEXTSTYLE_1
 70
0
 40
0.0
 41
0.8
 50
0.0
 71
0
 42
0.2
  3
gdt
  4

  0
STYLE
  5
209
100
AcDbSymbolTableRecord
100
AcDbTextStyleTableRecord
  2
TEXTSTYLE_2
 70
0
 40
0.0
 41
0.6
 50
0.0
 71
0
 42
0.2
  3
txt
  4

  0
STYLE
  5
20A
100
AcDbSymbolTableRecord
100
AcDbTextStyleTableRecord
  2
TEXTSTYLE_3
 70
0
 40
0.0
 41
1.0
 50
0.0
 71
0
 42
0.2
  3
ftb_____.ttf
  4

  0
STYLE
  5
20B
100
AcDbSymbolTableRecord
100
AcDbTextStyleTableRecord
  2
TEXTSTYLE_4
 70
0
 40
0.0
 41
1.0
 50
0.0
 71
0
 42
0.2
  3
fti_____.ttf
  4

  0
STYLE
  5
20C
100
AcDbSymbolTableRecord
100
AcDbTextStyleTableRecord
  2
TEXTSTYLE_5
 70
0
 40
0.0
 41
1.0
 50
0.0
 71
0
 42
0.2
  3
frutiger light.ttf
  4

  0
STYLE
  5
20D
100
AcDbSymbolTableRecord
100
AcDbTextStyleTableRecord
  2
TEXTSTYLE_6
 70
0
 40
0.0
 41
0.7
 50
0.0
 71
0
 42
0.2
  3
txt
  4

  0
STYLE
  5
20E
100
AcDbSymbolTableRecord
100
AcDbTextStyleTableRecord
  2
TEXTSTYLE_7
 70
0
 40
0.0
 41
0.8
 50
0.0
 71
0
 42
0.2
  3
txt
  4

  0
ENDTAB
  0
TABLE
  2
VIEW
  5
6
100
AcDbSymbolTable
 70
0
  0
ENDTAB
  0
TABLE
  2
UCS
  5
7
100
AcDbSymbolTable
 70
0
  0
ENDTAB
  0
TABLE
  2
APPID
  5
9
100
AcDbSymbolTable
 70
1
  0
APPID
  5
20F
100
AcDbSymbolTableRecord
100
AcDbRegAppTableRecord
  2
ACAD
 70
0
  0
ENDTAB
  0
TABLE
  2
BLOCK_RECORD
  5
1
100
AcDbSymbolTable
 70
0
  0
BLOCK_RECORD
  5
210
100
AcDbSymbolTableRecord
100
AcDbBlockTableRecord
  2
*Model_Space
  0
BLOCK_RECORD
  5
211
100
AcDbSymbolTableRecord
100
AcDbBlockTableRecord
  2
*Paper_Space
  0
BLOCK_RECORD
  5
212
100
AcDbSymbolTableRecord
100
AcDbBlockTableRecord
  2
UNI_LOGO2_BL1
  0
BLOCK_RECORD
  5
213
100
AcDbSymbolTableRecord
100
AcDbBlockTableRecord
  2
AMMEAAL_LOGO_BL0
  0
BLOCK_RECORD
  5
214
100
AcDbSymbolTableRecord
100
AcDbBlockTableRecord
  2
*T1
  0
ENDTAB
  0
TABLE
  2
DIMSTYLE
  5
A
100
AcDbSymbolTable
 70
1
100
AcDbDimStyleTable
 71
0
  0
DIMSTYLE
105
215
100
AcDbSymbolTableRecord
100
AcDbDimStyleTableRecord
  2
STANDARD
 70
0
  3

  4

 40
1.0
 41
3.5
 42
1.0
 43
0.38
 44
2.0
 45
0.0
 46
0.0
 47
0.01
 48
0.01
140
3.5
141
0.09
142
0.0
143
25.4
144
1.0
145
0.0
146
1.0
147
0.625
 71
1.0
 72
0.0
 73
0
 74
0
 75
0
 76
0
 77
1
 78
0
170
0
171
2
172
0
173
0
174
0
175
0
176
0
177
0
178
0
270
2
271
2
272
2
273
2
274
2
275
0
280
0
281
0
282
0
283
1
284
0
285
0
286
0
287
3
288
0
340
11
278
46
  0
ENDTAB
  0
ENDSEC
  0
SECTION
  2
BLOCKS
  0
BLOCK
  5
20
100
AcDbEntity
  8
0
100
AcDbBlockBegin
  2
*Model_Space
 70
0
 10
0.0
 20
0.0
 30
0.0
  3
*Model_Space
  1

  0
ENDBLK
  5
21
100
AcDbEntity
  8
0
100
AcDbBlockEnd
  0
BLOCK
  5
1C
100
AcDbEntity
  8
0
100
AcDbBlockBegin
  2
*Paper_Space
 70
0
 10
0.0
 20
0.0
 30
0.0
  3
*Paper_Space
  1

  0
ENDBLK
  5
1D
100
AcDbEntity
  8
0
100
AcDbBlockEnd
  0
BLOCK
  5
216
100
AcDbEntity
  8
0
100
AcDbBlockBegin
 62
2
  6
CONTINUOUS
  2
UNI_LOGO2_BL1
 70
64
 10
557.4079930916
 20
35.8092573885
  3
UNI_LOGO2_BL1
  1

  0
TEXT
  5
217
100
AcDbEntity
  8
0
100
AcDbText
 62
7
  6
CONTINUOUS
 10
548.4662781001
 20
30.9020137655
  7
TEXTSTYLE_4
 40
1.0655737705
  1
The brand for plastic modular belts and chains
 41
1.0
 72
0
100
AcDbText
  0
LINE
  5
218
100
AcDbEntity
  8
0
100
AcDbLine
 62
7
  6
CONTINUOUS
 10
533.3860614807
 20
36.3830278803
 11
533.3860614807
 21
34.2518803393
  0
LINE
  5
219
100
AcDbEntity
  8
0
100
AcDbLine
 62
7
  6
CONTINUOUS
 10
533.6751239738
 20
31.2609490436
 11
533.6751239738
 21
31.3577401029
  0
LINE
  5
21A
100
AcDbEntity
  8
0
100
AcDbLine
 62
7
  6
CONTINUOUS
 10
533.3860614807
 20
31.3254764164
 11
533.4438739824
 21
31.1318942979
  0
LINE
  5
21B
100
AcDbEntity
  8
0
100
AcDbLine
 62
7
  6
CONTINUOUS
 10
534.7795041036
 20
34.1699131262
 11
534.7795041036
 21
36.3830278803
  0
LINE
  5
21C
100
AcDbEntity
  8
0
100
AcDbLine
 62
7
  6
CONTINUOUS
 10
535.6985614255
 20
32.3256508311
 11
535.6985614255
 21
30.8092573885
  0
LINE
  5
21D
100
AcDbEntity
  8
0
100
AcDbLine
 62
7
  6
CONTINUOUS
 10
535.9876239807
 20
30.8092573885
 11
535.9876239807
 21
31.5513222666
  0
LINE
  5
21E
100
AcDbEntity
  8
0
100
AcDbLine
 62
7
  6
CONTINUOUS
 10
535.9876239807
 20
31.6803770123
 11
535.9876239807
 21
32.3256508311
  0
LINE
  5
21F
100
AcDbEntity
  8
0
100
AcDbLine
 62
7
  6
CONTINUOUS
 10
533.4438739824
 20
31.5190585802
 11
533.3860614807
 21
31.3254764164
  0
LINE
  5
220
100
AcDbEntity
  8
0
100
AcDbLine
 62
7
  6
CONTINUOUS
 10
533.7907489669
 20
31.0996306115
 11
533.6751239738
 21
31.2609490436
  0
LINE
  5
221
100
AcDbEntity
  8
0
100
AcDbLine
 62
7
  6
CONTINUOUS
 10
534.8891865358
 20
31.6158496394
 11
534.9469989807
 21
31.5190585802
  0
LINE
  5
222
100
AcDbEntity
  8
0
100
AcDbLine
 62
7
  6
CONTINUOUS
 10
535.2360615358
 20
31.5190585802
 11
535.1782489255
 21
31.6481133259
  0
LINE
  5
223
100
AcDbEntity
  8
0
100
AcDbLine
 62
7
  6
CONTINUOUS
 10
536.6647500053
 20
36.3830278803
 11
536.6647500053
 21
34.5797491918
  0
LINE
  5
224
100
AcDbEntity
  8
0
100
AcDbLine
 62
7
  6
CONTINUOUS
 10
536.6647500053
 20
33.2682737819
 11
536.6647500053
 21
32.612536077
  0
LINE
  5
225
100
AcDbEntity
  8
0
100
AcDbLine
 62
7
  6
CONTINUOUS
 10
537.0282489807
 20
31.4545312073
 11
537.0282489807
 21
30.8092573885
  0
LINE
  5
226
100
AcDbEntity
  8
0
100
AcDbLine
 62
7
  6
CONTINUOUS
 10
537.3173113704
 20
30.8092573885
 11
537.3173113704
 21
31.4545312073
  0
LINE
  5
227
100
AcDbEntity
  8
0
100
AcDbLine
 62
7
  6
CONTINUOUS
 10
533.6751239738
 20
31.3577401029
 11
533.7329364807
 21
31.4867948937
  0
LINE
  5
228
100
AcDbEntity
  8
0
100
AcDbLine
 62
7
  6
CONTINUOUS
 10
533.4438739824
 20
31.1318942979
 11
533.5594989807
 21
31.0028395296
  0
LINE
  5
229
100
AcDbEntity
  8
0
100
AcDbLine
 62
7
  6
CONTINUOUS
 10
536.9704363704
 20
31.583585953
 11
537.0282489807
 21
31.4545312073
  0
LINE
  5
22A
100
AcDbEntity
  8
0
100
AcDbLine
 62
7
  6
CONTINUOUS
 10
537.7798115909
 20
31.0996306115
 11
537.8376238704
 21
30.9705758432
  0
LINE
  5
22B
100
AcDbEntity
  8
0
100
AcDbLine
 62
7
  6
CONTINUOUS
 10
537.3173113704
 20
31.4545312073
 11
537.2594990909
 21
31.6158496394
  0
LINE
  5
22C
100
AcDbEntity
  8
0
100
AcDbLine
 62
7
  6
CONTINUOUS
 10
537.7798115909
 20
31.6481133259
 11
537.7798115909
 21
31.583585953
  0
LINE
  5
22D
100
AcDbEntity
  8
0
100
AcDbLine
 62
7
  6
CONTINUOUS
 10
537.7798115909
 20
31.1964216708
 11
537.7798115909
 21
31.0996306115
  0
LINE
  5
22E
100
AcDbEntity
  8
0
100
AcDbLine
 62
7
  6
CONTINUOUS
 10
538.0581926282
 20
32.612536077
 11
538.0581926282
 21
36.3830278803
  0
LINE
  5
22F
100
AcDbEntity
  8
0
100
AcDbLine
 62
7
  6
CONTINUOUS
 10
538.0688739807
 20
31.0673669025
 11
538.0688739807
 21
31.1318942979
  0
LINE
  5
230
100
AcDbEntity
  8
0
100
AcDbLine
 62
7
  6
CONTINUOUS
 10
538.3860614807
 20
36.3830278803
 11
538.3860614807
 21
32.612536077
  0
LINE
  5
231
100
AcDbEntity
  8
0
100
AcDbLine
 62
7
  6
CONTINUOUS
 10
535.1782489255
 20
31.0028395296
 11
535.2360615358
 21
31.1318942979
  0
LINE
  5
232
100
AcDbEntity
  8
0
100
AcDbLine
 62
7
  6
CONTINUOUS
 10
539.5719992012
 20
30.9060484591
 11
539.5141862601
 21
31.0673669025
  0
LINE
  5
233
100
AcDbEntity
  8
0
100
AcDbLine
 62
7
  6
CONTINUOUS
 10
539.2251242012
 20
31.583585953
 11
539.2251242012
 21
31.4867948937
  0
LINE
  5
234
100
AcDbEntity
  8
0
100
AcDbLine
 62
7
  6
CONTINUOUS
 10
539.2251242012
 20
31.3577401029
 11
539.2251242012
 21
31.1641579843
  0
LINE
  5
235
100
AcDbEntity
  8
0
100
AcDbLine
 62
7
  6
CONTINUOUS
 10
539.5141862601
 20
31.0673669025
 11
539.5141862601
 21
31.583585953
  0
LINE
  5
236
100
AcDbEntity
  8
0
100
AcDbLine
 62
7
  6
CONTINUOUS
 10
539.7795041036
 20
32.612536077
 11
539.7795041036
 21
34.4158147655
  0
LINE
  5
237
100
AcDbEntity
  8
0
100
AcDbLine
 62
7
  6
CONTINUOUS
 10
539.7795041036
 20
35.7272901754
 11
539.7795041036
 21
36.3830278803
  0
LINE
  5
238
100
AcDbEntity
  8
0
100
AcDbLine
 62
7
  6
CONTINUOUS
 10
540.0923117012
 20
32.3256508311
 11
540.0923117012
 21
32.164332399
  0
LINE
  5
239
100
AcDbEntity
  8
0
100
AcDbLine
 62
7
  6
CONTINUOUS
 10
540.0923117012
 20
31.8416954444
 11
540.0923117012
 21
30.8092573885
  0
LINE
  5
23A
100
AcDbEntity
  8
0
100
AcDbLine
 62
7
  6
CONTINUOUS
 10
540.3813737601
 20
30.8092573885
 11
540.3813737601
 21
31.8416954444
  0
LINE
  5
23B
100
AcDbEntity
  8
0
100
AcDbLine
 62
7
  6
CONTINUOUS
 10
540.3813737601
 20
32.164332399
 11
540.3813737601
 21
32.3256508311
  0
LINE
  5
23C
100
AcDbEntity
  8
0
100
AcDbLine
 62
7
  6
CONTINUOUS
 10
534.9469989807
 20
31.1318942979
 11
534.8891865358
 21
31.035103216
  0
LINE
  5
23D
100
AcDbEntity
  8
0
100
AcDbLine
 62
7
  6
CONTINUOUS
 10
537.2594990909
 20
31.6158496394
 11
537.2016864807
 21
31.6803770123
  0
LINE
  5
23E
100
AcDbEntity
  8
0
100
AcDbLine
 62
7
  6
CONTINUOUS
 10
538.1266865909
 20
31.0028395296
 11
538.0688739807
 21
31.0673669025
  0
LINE
  5
23F
100
AcDbEntity
  8
0
100
AcDbLine
 62
7
  6
CONTINUOUS
 10
539.2829364807
 20
30.873784767
 11
539.3407487601
 21
30.8092573885
  0
LINE
  5
240
100
AcDbEntity
  8
0
100
AcDbLine
 62
7
  6
CONTINUOUS
 10
539.2251242012
 20
30.9705758432
 11
539.2829364807
 21
30.873784767
  0
LINE
  5
241
100
AcDbEntity
  8
0
100
AcDbLine
 62
7
  6
CONTINUOUS
 10
539.6298114807
 20
30.8092573885
 11
539.5719992012
 21
30.9060484591
  0
LINE
  5
242
100
AcDbEntity
  8
0
100
AcDbLine
 62
7
  6
CONTINUOUS
 10
539.5141862601
 20
31.583585953
 11
539.4563739807
 21
31.6803770123
  0
LINE
  5
243
100
AcDbEntity
  8
0
100
AcDbLine
 62
7
  6
CONTINUOUS
 10
540.8438739807
 20
31.8416954444
 11
540.8438739807
 21
30.8092573885
  0
LINE
  5
244
100
AcDbEntity
  8
0
100
AcDbLine
 62
7
  6
CONTINUOUS
 10
541.1329367012
 20
30.8092573885
 11
541.1329367012
 21
31.5513222666
  0
LINE
  5
245
100
AcDbEntity
  8
0
100
AcDbLine
 62
7
  6
CONTINUOUS
 10
541.1329367012
 20
31.6803770123
 11
541.1329367012
 21
31.8416954444
  0
LINE
  5
246
100
AcDbEntity
  8
0
100
AcDbLine
 62
7
  6
CONTINUOUS
 10
541.6647500053
 20
34.8256508311
 11
541.6647500053
 21
32.612536077
  0
LINE
  5
247
100
AcDbEntity
  8
0
100
AcDbLine
 62
7
  6
CONTINUOUS
 10
533.5594989807
 20
31.6481133259
 11
533.4438739824
 21
31.5190585802
  0
LINE
  5
248
100
AcDbEntity
  8
0
100
AcDbLine
 62
7
  6
CONTINUOUS
 10
533.7329364807
 20
31.4867948937
 11
533.7907489669
 21
31.5513222666
  0
LINE
  5
249
100
AcDbEntity
  8
0
100
AcDbLine
 62
7
  6
CONTINUOUS
 10
533.5594989807
 20
31.0028395296
 11
533.6751239738
 21
30.9383121455
  0
LINE
  5
24A
100
AcDbEntity
  8
0
100
AcDbLine
 62
7
  6
CONTINUOUS
 10
533.9641864669
 20
31.0028395296
 11
533.7907489669
 21
31.0996306115
  0
LINE
  5
24B
100
AcDbEntity
  8
0
100
AcDbLine
 62
7
  6
CONTINUOUS
 10
539.1673112601
 20
31.6481133259
 11
539.2251242012
 21
31.583585953
  0
LINE
  5
24C
100
AcDbEntity
  8
0
100
AcDbLine
 62
7
  6
CONTINUOUS
 10
542.1157487601
 20
31.583585953
 11
542.1735617012
 21
31.4222675209
  0
LINE
  5
24D
100
AcDbEntity
  8
0
100
AcDbLine
 62
7
  6
CONTINUOUS
 10
542.4626237601
 20
31.4222675209
 11
542.4048114807
 21
31.583585953
  0
LINE
  5
24E
100
AcDbEntity
  8
0
100
AcDbLine
 62
7
  6
CONTINUOUS
 10
542.1735617012
 20
31.4222675209
 11
542.1735617012
 21
30.8092573885
  0
LINE
  5
24F
100
AcDbEntity
  8
0
100
AcDbLine
 62
7
  6
CONTINUOUS
 10
542.4626237601
 20
30.8092573885
 11
542.4626237601
 21
31.4222675209
  0
LINE
  5
250
100
AcDbEntity
  8
0
100
AcDbLine
 62
7
  6
CONTINUOUS
 10
542.9251239807
 20
31.6481133259
 11
542.9251239807
 21
31.583585953
  0
LINE
  5
251
100
AcDbEntity
  8
0
100
AcDbLine
 62
7
  6
CONTINUOUS
 10
543.0581926282
 20
32.612536077
 11
543.0581926282
 21
34.743683618
  0
LINE
  5
252
100
AcDbEntity
  8
0
100
AcDbLine
 62
7
  6
CONTINUOUS
 10
543.3860614807
 20
36.3830278803
 11
543.3860614807
 21
32.612536077
  0
LINE
  5
253
100
AcDbEntity
  8
0
100
AcDbLine
 62
7
  6
CONTINUOUS
 10
538.0688739807
 20
31.1318942979
 11
538.1266865909
 21
31.2286853572
  0
LINE
  5
254
100
AcDbEntity
  8
0
100
AcDbLine
 62
7
  6
CONTINUOUS
 10
533.6751239738
 20
30.9383121455
 11
533.8485614944
 21
30.873784767
  0
LINE
  5
255
100
AcDbEntity
  8
0
100
AcDbLine
 62
7
  6
CONTINUOUS
 10
535.1782489255
 20
31.6481133259
 11
535.0048114255
 21
31.7449043851
  0
LINE
  5
256
100
AcDbEntity
  8
0
100
AcDbLine
 62
7
  6
CONTINUOUS
 10
537.8376238704
 20
30.9705758432
 11
538.0110613704
 21
30.873784767
  0
LINE
  5
257
100
AcDbEntity
  8
0
100
AcDbLine
 62
7
  6
CONTINUOUS
 10
536.8548114807
 20
31.6481133259
 11
536.9704363704
 21
31.583585953
  0
LINE
  5
258
100
AcDbEntity
  8
0
100
AcDbLine
 62
7
  6
CONTINUOUS
 10
537.2016864807
 20
31.6803770123
 11
537.0860615909
 21
31.7449043851
  0
LINE
  5
259
100
AcDbEntity
  8
0
100
AcDbLine
 62
7
  6
CONTINUOUS
 10
542.9251239807
 20
31.0673669025
 11
543.0407492012
 21
30.9383121455
  0
LINE
  5
25A
100
AcDbEntity
  8
0
100
AcDbLine
 62
7
  6
CONTINUOUS
 10
543.2719989807
 20
31.0028395296
 11
543.2141867012
 21
31.0673669025
  0
LINE
  5
25B
100
AcDbEntity
  8
0
100
AcDbLine
 62
7
  6
CONTINUOUS
 10
542.9251239807
 20
31.583585953
 11
543.0407492012
 21
31.4545312073
  0
LINE
  5
25C
100
AcDbEntity
  8
0
100
AcDbLine
 62
7
  6
CONTINUOUS
 10
542.4048114807
 20
31.583585953
 11
542.3469992012
 21
31.6803770123
  0
LINE
  5
25D
100
AcDbEntity
  8
0
100
AcDbLine
 62
7
  6
CONTINUOUS
 10
544.7751235396
 20
31.0028395296
 11
544.7751235396
 21
31.0673669025
  0
LINE
  5
25E
100
AcDbEntity
  8
0
100
AcDbLine
 62
7
  6
CONTINUOUS
 10
544.7795041036
 20
32.612536077
 11
544.7795041036
 21
36.3830278803
  0
LINE
  5
25F
100
AcDbEntity
  8
0
100
AcDbLine
 62
7
  6
CONTINUOUS
 10
537.8376238704
 20
31.7126406987
 11
537.7798115909
 21
31.6481133259
  0
LINE
  5
260
100
AcDbEntity
  8
0
100
AcDbLine
 62
7
  6
CONTINUOUS
 10
534.7157489531
 20
31.6803770123
 11
534.8891865358
 21
31.6158496394
  0
LINE
  5
261
100
AcDbEntity
  8
0
100
AcDbLine
 62
7
  6
CONTINUOUS
 10
539.4563739807
 20
31.6803770123
 11
539.3407487601
 21
31.7449043851
  0
LINE
  5
262
100
AcDbEntity
  8
0
100
AcDbLine
 62
7
  6
CONTINUOUS
 10
543.2719989807
 20
31.5190585802
 11
543.2141867012
 21
31.583585953
  0
LINE
  5
263
100
AcDbEntity
  8
0
100
AcDbLine
 62
7
  6
CONTINUOUS
 10
544.4282492012
 20
31.1318942979
 11
544.4860614807
 21
31.0673669025
  0
LINE
  5
264
100
AcDbEntity
  8
0
100
AcDbLine
 62
7
  6
CONTINUOUS
 10
544.7751235396
 20
31.0673669025
 11
544.6594989807
 21
31.1964216708
  0
LINE
  5
265
100
AcDbEntity
  8
0
100
AcDbLine
 62
7
  6
CONTINUOUS
 10
544.4282492012
 20
31.6481133259
 11
544.4860614807
 21
31.583585953
  0
LINE
  5
266
100
AcDbEntity
  8
0
100
AcDbLine
 62
7
  6
CONTINUOUS
 10
544.7751235396
 20
31.583585953
 11
544.6594989807
 21
31.7126406987
  0
LINE
  5
267
100
AcDbEntity
  8
0
100
AcDbLine
 62
7
  6
CONTINUOUS
 10
538.0688739807
 20
31.583585953
 11
538.1266865909
 21
31.6481133259
  0
LINE
  5
268
100
AcDbEntity
  8
0
100
AcDbLine
 62
7
  6
CONTINUOUS
 10
537.8954364807
 20
31.3254764164
 11
537.7798115909
 21
31.1964216708
  0
LINE
  5
269
100
AcDbEntity
  8
0
100
AcDbLine
 62
7
  6
CONTINUOUS
 10
539.2251242012
 20
31.1641579843
 11
539.1673112601
 21
31.0996306115
  0
LINE
  5
26A
100
AcDbEntity
  8
0
100
AcDbLine
 62
7
  6
CONTINUOUS
 10
539.1673112601
 20
30.9060484591
 11
539.2251242012
 21
30.9705758432
  0
LINE
  5
26B
100
AcDbEntity
  8
0
100
AcDbLine
 62
7
  6
CONTINUOUS
 10
538.0110613704
 20
30.873784767
 11
538.1266865909
 21
30.8415210777
  0
LINE
  5
26C
100
AcDbEntity
  8
0
100
AcDbLine
 62
7
  6
CONTINUOUS
 10
535.0048114255
 20
31.7449043851
 11
534.7735614807
 21
31.809431758
  0
LINE
  5
26D
100
AcDbEntity
  8
0
100
AcDbLine
 62
7
  6
CONTINUOUS
 10
538.3579363704
 20
30.9383121455
 11
538.1266865909
 21
31.0028395296
  0
LINE
  5
26E
100
AcDbEntity
  8
0
100
AcDbLine
 62
7
  6
CONTINUOUS
 10
537.0860615909
 20
31.7449043851
 11
536.9126240909
 21
31.809431758
  0
LINE
  5
26F
100
AcDbEntity
  8
0
100
AcDbLine
 62
7
  6
CONTINUOUS
 10
539.3407487601
 20
31.7449043851
 11
539.1673112601
 21
31.809431758
  0
LINE
  5
270
100
AcDbEntity
  8
0
100
AcDbLine
 62
7
  6
CONTINUOUS
 10
542.0001242012
 20
31.6481133259
 11
542.1157487601
 21
31.583585953
  0
LINE
  5
271
100
AcDbEntity
  8
0
100
AcDbLine
 62
7
  6
CONTINUOUS
 10
542.3469992012
 20
31.6803770123
 11
542.2313739807
 21
31.7449043851
  0
LINE
  5
272
100
AcDbEntity
  8
0
100
AcDbLine
 62
7
  6
CONTINUOUS
 10
533.8485614944
 20
30.873784767
 11
534.0219989944
 21
30.8415210777
  0
LINE
  5
273
100
AcDbEntity
  8
0
100
AcDbLine
 62
7
  6
CONTINUOUS
 10
534.3110615082
 20
30.9383121455
 11
533.9641864669
 21
31.0028395296
  0
LINE
  5
274
100
AcDbEntity
  8
0
100
AcDbLine
 62
7
  6
CONTINUOUS
 10
536.7391865909
 20
31.6803770123
 11
536.8548114807
 21
31.6481133259
  0
LINE
  5
275
100
AcDbEntity
  8
0
100
AcDbLine
 62
7
  6
CONTINUOUS
 10
539.0516867012
 20
31.6803770123
 11
539.1673112601
 21
31.6481133259
  0
LINE
  5
276
100
AcDbEntity
  8
0
100
AcDbLine
 62
7
  6
CONTINUOUS
 10
543.3876242012
 20
30.9705758432
 11
543.2719989807
 21
31.0028395296
  0
LINE
  5
277
100
AcDbEntity
  8
0
100
AcDbLine
 62
7
  6
CONTINUOUS
 10
541.8844989807
 20
31.6803770123
 11
542.0001242012
 21
31.6481133259
  0
LINE
  5
278
100
AcDbEntity
  8
0
100
AcDbLine
 62
7
  6
CONTINUOUS
 10
543.0407492012
 20
30.9383121455
 11
543.2141867012
 21
30.873784767
  0
LINE
  5
279
100
AcDbEntity
  8
0
100
AcDbLine
 62
7
  6
CONTINUOUS
 10
542.2313739807
 20
31.7449043851
 11
542.0579364807
 21
31.809431758
  0
LINE
  5
27A
100
AcDbEntity
  8
0
100
AcDbLine
 62
7
  6
CONTINUOUS
 10
543.4454364807
 20
31.4545312073
 11
543.2719989807
 21
31.5190585802
  0
LINE
  5
27B
100
AcDbEntity
  8
0
100
AcDbLine
 62
7
  6
CONTINUOUS
 10
544.2548117012
 20
31.1964216708
 11
544.4282492012
 21
31.1318942979
  0
LINE
  5
27C
100
AcDbEntity
  8
0
100
AcDbLine
 62
7
  6
CONTINUOUS
 10
544.6594989807
 20
31.7126406987
 11
544.4860614807
 21
31.7771680715
  0
LINE
  5
27D
100
AcDbEntity
  8
0
100
AcDbLine
 62
7
  6
CONTINUOUS
 10
543.0407492012
 20
31.4545312073
 11
543.2719989807
 21
31.3577401029
  0
LINE
  5
27E
100
AcDbEntity
  8
0
100
AcDbLine
 62
7
  6
CONTINUOUS
 10
544.6594989807
 20
31.1964216708
 11
544.4282492012
 21
31.29321273
  0
LINE
  5
27F
100
AcDbEntity
  8
0
100
AcDbLine
 62
7
  6
CONTINUOUS
 10
543.2141867012
 20
31.583585953
 11
543.2719989807
 21
31.6481133259
  0
LINE
  5
280
100
AcDbEntity
  8
0
100
AcDbLine
 62
7
  6
CONTINUOUS
 10
533.6751239738
 20
31.7126406987
 11
533.5594989807
 21
31.6481133259
  0
LINE
  5
281
100
AcDbEntity
  8
0
100
AcDbLine
 62
7
  6
CONTINUOUS
 10
533.7907489669
 20
31.5513222666
 11
533.9641864669
 21
31.6481133259
  0
LINE
  5
282
100
AcDbEntity
  8
0
100
AcDbLine
 62
7
  6
CONTINUOUS
 10
536.1032490358
 20
31.7449043851
 11
535.9876239807
 21
31.6803770123
  0
LINE
  5
283
100
AcDbEntity
  8
0
100
AcDbLine
 62
7
  6
CONTINUOUS
 10
535.9876239807
 20
31.5513222666
 11
536.1032490358
 21
31.6158496394
  0
LINE
  5
284
100
AcDbEntity
  8
0
100
AcDbLine
 62
7
  6
CONTINUOUS
 10
535.0048114255
 20
30.9060484591
 11
535.1782489255
 21
31.0028395296
  0
LINE
  5
285
100
AcDbEntity
  8
0
100
AcDbLine
 62
7
  6
CONTINUOUS
 10
534.0219989944
 20
30.8415210777
 11
534.3688739531
 21
30.8092573885
  0
LINE
  5
286
100
AcDbEntity
  8
0
100
AcDbLine
 62
7
  6
CONTINUOUS
 10
538.1266865909
 20
30.8415210777
 11
538.3579363704
 21
30.8092573885
  0
LINE
  5
287
100
AcDbEntity
  8
0
100
AcDbLine
 62
7
  6
CONTINUOUS
 10
536.5079364807
 20
31.7126406987
 11
536.7391865909
 21
31.6803770123
  0
LINE
  5
288
100
AcDbEntity
  8
0
100
AcDbLine
 62
7
  6
CONTINUOUS
 10
538.8204365909
 20
31.7126406987
 11
539.0516867012
 21
31.6803770123
  0
LINE
  5
289
100
AcDbEntity
  8
0
100
AcDbLine
 62
7
  6
CONTINUOUS
 10
543.2719989807
 20
31.3577401029
 11
544.2548117012
 21
31.1964216708
  0
LINE
  5
28A
100
AcDbEntity
  8
0
100
AcDbLine
 62
7
  6
CONTINUOUS
 10
544.4282492012
 20
31.29321273
 11
543.4454364807
 21
31.4545312073
  0
LINE
  5
28B
100
AcDbEntity
  8
0
100
AcDbLine
 62
7
  6
CONTINUOUS
 10
536.9126240909
 20
31.809431758
 11
536.7391865909
 21
31.8416954444
  0
LINE
  5
28C
100
AcDbEntity
  8
0
100
AcDbLine
 62
7
  6
CONTINUOUS
 10
543.2141867012
 20
30.873784767
 11
543.3876242012
 21
30.8415210777
  0
LINE
  5
28D
100
AcDbEntity
  8
0
100
AcDbLine
 62
7
  6
CONTINUOUS
 10
542.0579364807
 20
31.809431758
 11
541.8844989807
 21
31.8416954444
  0
LINE
  5
28E
100
AcDbEntity
  8
0
100
AcDbLine
 62
7
  6
CONTINUOUS
 10
544.3126239807
 20
31.6803770123
 11
544.4282492012
 21
31.6481133259
  0
LINE
  5
28F
100
AcDbEntity
  8
0
100
AcDbLine
 62
7
  6
CONTINUOUS
 10
544.4860614807
 20
31.0673669025
 11
544.4282492012
 21
31.0028395296
  0
LINE
  5
290
100
AcDbEntity
  8
0
100
AcDbLine
 62
7
  6
CONTINUOUS
 10
543.0407492012
 20
31.7449043851
 11
542.9251239807
 21
31.6481133259
  0
LINE
  5
291
100
AcDbEntity
  8
0
100
AcDbLine
 62
7
  6
CONTINUOUS
 10
537.9532490909
 20
31.7771680715
 11
537.8376238704
 21
31.7126406987
  0
LINE
  5
292
100
AcDbEntity
  8
0
100
AcDbLine
 62
7
  6
CONTINUOUS
 10
538.0110613704
 20
31.3900038345
 11
537.8954364807
 21
31.3254764164
  0
LINE
  5
293
100
AcDbEntity
  8
0
100
AcDbLine
 62
7
  6
CONTINUOUS
 10
538.1266865909
 20
31.2286853572
 11
538.2423114807
 21
31.29321273
  0
LINE
  5
294
100
AcDbEntity
  8
0
100
AcDbLine
 62
7
  6
CONTINUOUS
 10
535.6985614255
 20
30.8092573885
 11
535.9876239807
 21
30.8092573885
  0
LINE
  5
295
100
AcDbEntity
  8
0
100
AcDbLine
 62
7
  6
CONTINUOUS
 10
537.0282489807
 20
30.8092573885
 11
537.3173113704
 21
30.8092573885
  0
LINE
  5
296
100
AcDbEntity
  8
0
100
AcDbLine
 62
7
  6
CONTINUOUS
 10
538.3579363704
 20
30.8092573885
 11
538.7048113704
 21
30.8092573885
  0
LINE
  5
297
100
AcDbEntity
  8
0
100
AcDbLine
 62
7
  6
CONTINUOUS
 10
539.3407487601
 20
30.8092573885
 11
539.6298114807
 21
30.8092573885
  0
LINE
  5
298
100
AcDbEntity
  8
0
100
AcDbLine
 62
7
  6
CONTINUOUS
 10
540.0923117012
 20
30.8092573885
 11
540.3813737601
 21
30.8092573885
  0
LINE
  5
299
100
AcDbEntity
  8
0
100
AcDbLine
 62
7
  6
CONTINUOUS
 10
540.8438739807
 20
30.8092573885
 11
541.1329367012
 21
30.8092573885
  0
LINE
  5
29A
100
AcDbEntity
  8
0
100
AcDbLine
 62
7
  6
CONTINUOUS
 10
542.1735617012
 20
30.8092573885
 11
542.4626237601
 21
30.8092573885
  0
LINE
  5
29B
100
AcDbEntity
  8
0
100
AcDbLine
 62
7
  6
CONTINUOUS
 10
543.7344992012
 20
30.8092573885
 11
544.0813742012
 21
30.8092573885
  0
LINE
  5
29C
100
AcDbEntity
  8
0
100
AcDbLine
 62
7
  6
CONTINUOUS
 10
544.0813742012
 20
30.9383121455
 11
543.7344992012
 21
30.9383121455
  0
LINE
  5
29D
100
AcDbEntity
  8
0
100
AcDbLine
 62
7
  6
CONTINUOUS
 10
538.7048113704
 20
30.9383121455
 11
538.3579363704
 21
30.9383121455
  0
LINE
  5
29E
100
AcDbEntity
  8
0
100
AcDbLine
 62
7
  6
CONTINUOUS
 10
543.2141867012
 20
31.0673669025
 11
542.9251239807
 21
31.0673669025
  0
LINE
  5
29F
100
AcDbEntity
  8
0
100
AcDbLine
 62
7
  6
CONTINUOUS
 10
535.2360615358
 20
31.1318942979
 11
534.9469989807
 21
31.1318942979
  0
LINE
  5
2A0
100
AcDbEntity
  8
0
100
AcDbLine
 62
7
  6
CONTINUOUS
 10
534.3110615082
 20
31.7126406987
 11
534.7157489531
 21
31.6803770123
  0
LINE
  5
2A1
100
AcDbEntity
  8
0
100
AcDbLine
 62
7
  6
CONTINUOUS
 10
534.7735614807
 20
31.809431758
 11
534.3688739531
 21
31.8416954444
  0
LINE
  5
2A2
100
AcDbEntity
  8
0
100
AcDbLine
 62
7
  6
CONTINUOUS
 10
543.3876242012
 20
30.8415210777
 11
543.7344992012
 21
30.8092573885
  0
LINE
  5
2A3
100
AcDbEntity
  8
0
100
AcDbLine
 62
7
  6
CONTINUOUS
 10
543.7344992012
 20
30.9383121455
 11
543.3876242012
 21
30.9705758432
  0
LINE
  5
2A4
100
AcDbEntity
  8
0
100
AcDbLine
 62
7
  6
CONTINUOUS
 10
539.1673112601
 20
31.809431758
 11
538.8204365909
 21
31.8416954444
  0
LINE
  5
2A5
100
AcDbEntity
  8
0
100
AcDbLine
 62
7
  6
CONTINUOUS
 10
543.9657489807
 20
31.7126406987
 11
544.3126239807
 21
31.6803770123
  0
LINE
  5
2A6
100
AcDbEntity
  8
0
100
AcDbLine
 62
7
  6
CONTINUOUS
 10
544.3126239807
 20
31.809431758
 11
543.9657489807
 21
31.8416954444
  0
LINE
  5
2A7
100
AcDbEntity
  8
0
100
AcDbLine
 62
7
  6
CONTINUOUS
 10
541.6532492012
 20
31.7126406987
 11
541.8844989807
 21
31.6803770123
  0
LINE
  5
2A8
100
AcDbEntity
  8
0
100
AcDbLine
 62
7
  6
CONTINUOUS
 10
544.4860614807
 20
31.7771680715
 11
544.3126239807
 21
31.809431758
  0
LINE
  5
2A9
100
AcDbEntity
  8
0
100
AcDbLine
 62
7
  6
CONTINUOUS
 10
544.6594989807
 20
30.9060484591
 11
544.7751235396
 21
31.0028395296
  0
LINE
  5
2AA
100
AcDbEntity
  8
0
100
AcDbLine
 62
7
  6
CONTINUOUS
 10
539.1673112601
 20
31.0996306115
 11
538.9938737601
 21
31.0028395296
  0
LINE
  5
2AB
100
AcDbEntity
  8
0
100
AcDbLine
 62
7
  6
CONTINUOUS
 10
541.2485612601
 20
31.7449043851
 11
541.1329367012
 21
31.6803770123
  0
LINE
  5
2AC
100
AcDbEntity
  8
0
100
AcDbLine
 62
7
  6
CONTINUOUS
 10
541.1329367012
 20
31.5513222666
 11
541.2485612601
 21
31.6158496394
  0
LINE
  5
2AD
100
AcDbEntity
  8
0
100
AcDbLine
 62
7
  6
CONTINUOUS
 10
533.8485614944
 20
31.7771680715
 11
533.6751239738
 21
31.7126406987
  0
LINE
  5
2AE
100
AcDbEntity
  8
0
100
AcDbLine
 62
7
  6
CONTINUOUS
 10
536.2766863704
 20
31.809431758
 11
536.1032490358
 21
31.7449043851
  0
LINE
  5
2AF
100
AcDbEntity
  8
0
100
AcDbLine
 62
7
  6
CONTINUOUS
 10
536.1032490358
 20
31.6158496394
 11
536.2766863704
 21
31.6803770123
  0
LINE
  5
2B0
100
AcDbEntity
  8
0
100
AcDbLine
 62
7
  6
CONTINUOUS
 10
534.8891865358
 20
31.035103216
 11
534.7157489531
 21
30.9705758432
  0
LINE
  5
2B1
100
AcDbEntity
  8
0
100
AcDbLine
 62
7
  6
CONTINUOUS
 10
544.3126239807
 20
30.9705758432
 11
544.0813742012
 21
30.9383121455
  0
LINE
  5
2B2
100
AcDbEntity
  8
0
100
AcDbLine
 62
7
  6
CONTINUOUS
 10
538.7048113704
 20
30.8092573885
 11
538.9938737601
 21
30.8415210777
  0
LINE
  5
2B3
100
AcDbEntity
  8
0
100
AcDbLine
 62
7
  6
CONTINUOUS
 10
544.0813742012
 20
30.8092573885
 11
544.4282492012
 21
30.8415210777
  0
LINE
  5
2B4
100
AcDbEntity
  8
0
100
AcDbLine
 62
7
  6
CONTINUOUS
 10
534.3688739531
 20
30.8092573885
 11
534.7735614807
 21
30.8415210777
  0
LINE
  5
2B5
100
AcDbEntity
  8
0
100
AcDbLine
 62
7
  6
CONTINUOUS
 10
534.7157489531
 20
30.9705758432
 11
534.3110615082
 21
30.9383121455
  0
LINE
  5
2B6
100
AcDbEntity
  8
0
100
AcDbLine
 62
7
  6
CONTINUOUS
 10
538.5891864807
 20
31.3577401029
 11
539.2251242012
 21
31.3577401029
  0
LINE
  5
2B7
100
AcDbEntity
  8
0
100
AcDbLine
 62
7
  6
CONTINUOUS
 10
539.2251242012
 20
31.4867948937
 11
538.5891864807
 21
31.4867948937
  0
LINE
  5
2B8
100
AcDbEntity
  8
0
100
AcDbLine
 62
7
  6
CONTINUOUS
 10
534.9469989807
 20
31.5190585802
 11
535.2360615358
 21
31.5190585802
  0
LINE
  5
2B9
100
AcDbEntity
  8
0
100
AcDbLine
 62
7
  6
CONTINUOUS
 10
537.7798115909
 20
31.583585953
 11
538.0688739807
 21
31.583585953
  0
LINE
  5
2BA
100
AcDbEntity
  8
0
100
AcDbLine
 62
7
  6
CONTINUOUS
 10
544.4860614807
 20
31.583585953
 11
544.7751235396
 21
31.583585953
  0
LINE
  5
2BB
100
AcDbEntity
  8
0
100
AcDbLine
 62
7
  6
CONTINUOUS
 10
538.4735615909
 20
31.7126406987
 11
538.8204365909
 21
31.7126406987
  0
LINE
  5
2BC
100
AcDbEntity
  8
0
100
AcDbLine
 62
7
  6
CONTINUOUS
 10
543.6188739807
 20
31.7126406987
 11
543.9657489807
 21
31.7126406987
  0
LINE
  5
2BD
100
AcDbEntity
  8
0
100
AcDbLine
 62
7
  6
CONTINUOUS
 10
543.9657489807
 20
31.8416954444
 11
543.6188739807
 21
31.8416954444
  0
LINE
  5
2BE
100
AcDbEntity
  8
0
100
AcDbLine
 62
7
  6
CONTINUOUS
 10
541.8844989807
 20
31.8416954444
 11
541.6532492012
 21
31.8416954444
  0
LINE
  5
2BF
100
AcDbEntity
  8
0
100
AcDbLine
 62
7
  6
CONTINUOUS
 10
541.1329367012
 20
31.8416954444
 11
540.8438739807
 21
31.8416954444
  0
LINE
  5
2C0
100
AcDbEntity
  8
0
100
AcDbLine
 62
7
  6
CONTINUOUS
 10
540.3813737601
 20
31.8416954444
 11
540.0923117012
 21
31.8416954444
  0
LINE
  5
2C1
100
AcDbEntity
  8
0
100
AcDbLine
 62
7
  6
CONTINUOUS
 10
538.8204365909
 20
31.8416954444
 11
538.4735615909
 21
31.8416954444
  0
LINE
  5
2C2
100
AcDbEntity
  8
0
100
AcDbLine
 62
7
  6
CONTINUOUS
 10
536.7391865909
 20
31.8416954444
 11
536.5079364807
 21
31.8416954444
  0
LINE
  5
2C3
100
AcDbEntity
  8
0
100
AcDbLine
 62
7
  6
CONTINUOUS
 10
540.0923117012
 20
32.164332399
 11
540.3813737601
 21
32.164332399
  0
LINE
  5
2C4
100
AcDbEntity
  8
0
100
AcDbLine
 62
7
  6
CONTINUOUS
 10
540.3813737601
 20
32.3256508311
 11
540.0923117012
 21
32.3256508311
  0
LINE
  5
2C5
100
AcDbEntity
  8
0
100
AcDbLine
 62
7
  6
CONTINUOUS
 10
535.9876239807
 20
32.3256508311
 11
535.6985614255
 21
32.3256508311
  0
LINE
  5
2C6
100
AcDbEntity
  8
0
100
AcDbLine
 62
7
  6
CONTINUOUS
 10
535.025405743
 20
32.612536077
 11
535.4379770916
 21
32.612536077
  0
LINE
  5
2C7
100
AcDbEntity
  8
0
100
AcDbLine
 62
7
  6
CONTINUOUS
 10
536.6647500053
 20
32.612536077
 11
538.0581926282
 21
32.612536077
  0
LINE
  5
2C8
100
AcDbEntity
  8
0
100
AcDbLine
 62
7
  6
CONTINUOUS
 10
538.3860614807
 20
32.612536077
 11
539.7795041036
 21
32.612536077
  0
LINE
  5
2C9
100
AcDbEntity
  8
0
100
AcDbLine
 62
7
  6
CONTINUOUS
 10
541.6647500053
 20
32.612536077
 11
543.0581926282
 21
32.612536077
  0
LINE
  5
2CA
100
AcDbEntity
  8
0
100
AcDbLine
 62
7
  6
CONTINUOUS
 10
543.3860614807
 20
32.612536077
 11
544.7795041036
 21
32.612536077
  0
LINE
  5
2CB
100
AcDbEntity
  8
0
100
AcDbLine
 62
7
  6
CONTINUOUS
 10
541.4219987601
 20
31.809431758
 11
541.2485612601
 21
31.7449043851
  0
LINE
  5
2CC
100
AcDbEntity
  8
0
100
AcDbLine
 62
7
  6
CONTINUOUS
 10
538.9938737601
 20
30.8415210777
 11
539.1673112601
 21
30.9060484591
  0
LINE
  5
2CD
100
AcDbEntity
  8
0
100
AcDbLine
 62
7
  6
CONTINUOUS
 10
544.4282492012
 20
30.8415210777
 11
544.6594989807
 21
30.9060484591
  0
LINE
  5
2CE
100
AcDbEntity
  8
0
100
AcDbLine
 62
7
  6
CONTINUOUS
 10
544.4282492012
 20
31.0028395296
 11
544.3126239807
 21
30.9705758432
  0
LINE
  5
2CF
100
AcDbEntity
  8
0
100
AcDbLine
 62
7
  6
CONTINUOUS
 10
543.3876242012
 20
31.6803770123
 11
543.6188739807
 21
31.7126406987
  0
LINE
  5
2D0
100
AcDbEntity
  8
0
100
AcDbLine
 62
7
  6
CONTINUOUS
 10
541.4219987601
 20
31.6803770123
 11
541.6532492012
 21
31.7126406987
  0
LINE
  5
2D1
100
AcDbEntity
  8
0
100
AcDbLine
 62
7
  6
CONTINUOUS
 10
538.3579363704
 20
31.3254764164
 11
538.5891864807
 21
31.3577401029
  0
LINE
  5
2D2
100
AcDbEntity
  8
0
100
AcDbLine
 62
7
  6
CONTINUOUS
 10
541.6532492012
 20
31.8416954444
 11
541.4219987601
 21
31.809431758
  0
LINE
  5
2D3
100
AcDbEntity
  8
0
100
AcDbLine
 62
7
  6
CONTINUOUS
 10
538.2423114807
 20
31.6803770123
 11
538.4735615909
 21
31.7126406987
  0
LINE
  5
2D4
100
AcDbEntity
  8
0
100
AcDbLine
 62
7
  6
CONTINUOUS
 10
543.6188739807
 20
31.8416954444
 11
543.2719989807
 21
31.809431758
  0
LINE
  5
2D5
100
AcDbEntity
  8
0
100
AcDbLine
 62
7
  6
CONTINUOUS
 10
538.5891864807
 20
31.4867948937
 11
538.2423114807
 21
31.4545312073
  0
LINE
  5
2D6
100
AcDbEntity
  8
0
100
AcDbLine
 62
7
  6
CONTINUOUS
 10
534.3688739531
 20
31.8416954444
 11
534.0219989944
 21
31.809431758
  0
LINE
  5
2D7
100
AcDbEntity
  8
0
100
AcDbLine
 62
7
  6
CONTINUOUS
 10
538.4735615909
 20
31.8416954444
 11
538.0688739807
 21
31.809431758
  0
LINE
  5
2D8
100
AcDbEntity
  8
0
100
AcDbLine
 62
7
  6
CONTINUOUS
 10
535.8450778741
 20
33.7600770606
 11
535.1893401692
 21
33.7600770606
  0
LINE
  5
2D9
100
AcDbEntity
  8
0
100
AcDbLine
 62
7
  6
CONTINUOUS
 10
541.2485612601
 20
31.6158496394
 11
541.4219987601
 21
31.6803770123
  0
LINE
  5
2DA
100
AcDbEntity
  8
0
100
AcDbLine
 62
7
  6
CONTINUOUS
 10
543.2719989807
 20
31.6481133259
 11
543.3876242012
 21
31.6803770123
  0
LINE
  5
2DB
100
AcDbEntity
  8
0
100
AcDbLine
 62
7
  6
CONTINUOUS
 10
543.2719989807
 20
31.809431758
 11
543.0407492012
 21
31.7449043851
  0
LINE
  5
2DC
100
AcDbEntity
  8
0
100
AcDbLine
 62
7
  6
CONTINUOUS
 10
538.9938737601
 20
31.0028395296
 11
538.7048113704
 21
30.9383121455
  0
LINE
  5
2DD
100
AcDbEntity
  8
0
100
AcDbLine
 62
7
  6
CONTINUOUS
 10
536.2766863704
 20
31.6803770123
 11
536.5079364807
 21
31.7126406987
  0
LINE
  5
2DE
100
AcDbEntity
  8
0
100
AcDbLine
 62
7
  6
CONTINUOUS
 10
536.5079364807
 20
31.8416954444
 11
536.2766863704
 21
31.809431758
  0
LINE
  5
2DF
100
AcDbEntity
  8
0
100
AcDbLine
 62
7
  6
CONTINUOUS
 10
534.0798114807
 20
31.6803770123
 11
534.3110615082
 21
31.7126406987
  0
LINE
  5
2E0
100
AcDbEntity
  8
0
100
AcDbLine
 62
7
  6
CONTINUOUS
 10
540.5991762348
 20
35.2354868967
 11
541.2549139397
 21
35.2354868967
  0
LINE
  5
2E1
100
AcDbEntity
  8
0
100
AcDbLine
 62
7
  6
CONTINUOUS
 10
538.2423114807
 20
31.29321273
 11
538.3579363704
 21
31.3254764164
  0
LINE
  5
2E2
100
AcDbEntity
  8
0
100
AcDbLine
 62
7
  6
CONTINUOUS
 10
538.2423114807
 20
31.4545312073
 11
538.0110613704
 21
31.3900038345
  0
LINE
  5
2E3
100
AcDbEntity
  8
0
100
AcDbLine
 62
7
  6
CONTINUOUS
 10
538.1266865909
 20
31.6481133259
 11
538.2423114807
 21
31.6803770123
  0
LINE
  5
2E4
100
AcDbEntity
  8
0
100
AcDbLine
 62
7
  6
CONTINUOUS
 10
534.7735614807
 20
30.8415210777
 11
535.0048114255
 21
30.9060484591
  0
LINE
  5
2E5
100
AcDbEntity
  8
0
100
AcDbLine
 62
7
  6
CONTINUOUS
 10
538.0688739807
 20
31.809431758
 11
537.9532490909
 21
31.7771680715
  0
LINE
  5
2E6
100
AcDbEntity
  8
0
100
AcDbLine
 62
7
  6
CONTINUOUS
 10
534.0219989944
 20
31.809431758
 11
533.8485614944
 21
31.7771680715
  0
LINE
  5
2E7
100
AcDbEntity
  8
0
100
AcDbLine
 62
7
  6
CONTINUOUS
 10
544.7795041036
 20
36.3830278803
 11
543.3860614807
 21
36.3830278803
  0
LINE
  5
2E8
100
AcDbEntity
  8
0
100
AcDbLine
 62
7
  6
CONTINUOUS
 10
541.4188483659
 20
36.3830278803
 11
541.0062770173
 21
36.3830278803
  0
LINE
  5
2E9
100
AcDbEntity
  8
0
100
AcDbLine
 62
7
  6
CONTINUOUS
 10
539.7795041036
 20
36.3830278803
 11
538.3860614807
 21
36.3830278803
  0
LINE
  5
2EA
100
AcDbEntity
  8
0
100
AcDbLine
 62
7
  6
CONTINUOUS
 10
538.0581926282
 20
36.3830278803
 11
536.6647500053
 21
36.3830278803
  0
LINE
  5
2EB
100
AcDbEntity
  8
0
100
AcDbLine
 62
7
  6
CONTINUOUS
 10
534.7795041036
 20
36.3830278803
 11
533.3860614807
 21
36.3830278803
  0
LINE
  5
2EC
100
AcDbEntity
  8
0
100
AcDbLine
 62
7
  6
CONTINUOUS
 10
533.9641864669
 20
31.6481133259
 11
534.0798114807
 21
31.6803770123
  0
CIRCLE
  5
2ED
100
AcDbEntity
  8
0
100
AcDbCircle
 62
7
  6
CONTINUOUS
 10
544.0827827921
 20
38.7190934541
 40
2.0901639344
  0
ARC
  5
2EE
100
AcDbEntity
  8
0
100
AcDbCircle
 62
7
  6
CONTINUOUS
 10
535.025405743
 20
34.2518803393
 40
1.6393442623
100
AcDbArc
 50
180.0
 51
270.0
  0
ARC
  5
2EF
100
AcDbEntity
  8
0
100
AcDbCircle
 62
7
  6
CONTINUOUS
 10
541.4188483659
 20
34.743683618
 40
1.6393442623
100
AcDbArc
 50
0.0
 51
90.0
  0
ARC
  5
2F0
100
AcDbEntity
  8
0
100
AcDbCircle
 62
7
  6
CONTINUOUS
 10
535.4379770916
 20
34.0879459131
 40
1.4754098361
100
AcDbArc
 50
270.0
 51
326.2510114041
  0
ARC
  5
2F1
100
AcDbEntity
  8
0
100
AcDbCircle
 62
7
  6
CONTINUOUS
 10
541.0062770173
 20
34.9076180442
 40
1.4754098361
100
AcDbArc
 50
90.0
 51
146.2510114041
  0
ARC
  5
2F2
100
AcDbEntity
  8
0
100
AcDbCircle
 62
7
  6
CONTINUOUS
 10
535.8450778741
 20
34.5797491918
 40
0.8196721311
100
AcDbArc
 50
270.0
 51
360.0
  0
ARC
  5
2F3
100
AcDbEntity
  8
0
100
AcDbCircle
 62
7
  6
CONTINUOUS
 10
540.5991762348
 20
34.4158147655
 40
0.8196721311
100
AcDbArc
 50
90.0
 51
180.0
  0
ARC
  5
2F4
100
AcDbEntity
  8
0
100
AcDbCircle
 62
7
  6
CONTINUOUS
 10
535.1893401692
 20
34.1699131262
 40
0.4098360656
100
AcDbArc
 50
180.0
 51
270.0
  0
ARC
  5
2F5
100
AcDbEntity
  8
0
100
AcDbCircle
 62
7
  6
CONTINUOUS
 10
541.2549139397
 20
34.8256508311
 40
0.4098360656
100
AcDbArc
 50
0.0
 51
90.0
  0
SOLID
  5
2F6
100
AcDbEntity
  8
0
100
AcDbTrace
 62
7
  6
CONTINUOUS
 10
540.0923117012
 20
32.1643327593
 11
540.0923117012
 21
32.3256512429
 12
540.3813737601
 22
32.1643327593
 13
540.3813737601
 23
32.3256512429
  0
LWPOLYLINE
  5
2F7
100
AcDbEntity
  8
0
100
AcDbPolyline
 62
7
  6
CONTINUOUS
 90
13
 70
0
 10
534.3688739531
 20
31.841695792
 10
534.7735614807
 20
31.8094314888
 10
535.0048114255
 20
31.7449043986
 10
535.1782489255
 20
31.6481130052
 10
535.2360615358
 20
31.5190588248
 10
534.9469989807
 20
31.5190588248
 10
534.8891865358
 20
31.6158502183
 10
534.7157489531
 20
31.6803773084
 10
534.3110615082
 20
31.7126400953
 10
533.6751239738
 20
31.7126400953
 10
533.8485614944
 20
31.7771687019
 10
534.0219989944
 20
31.8094314888
 10
534.3688739531
 20
31.841695792
  0
HATCH
  5
2F8
100
AcDbEntity
  8
0
100
AcDbHatch
 62
7
  6
CONTINUOUS
 10
0.0
 20
0.0
 30
0.0
210
0.0
220
0.0
230
1.0
  2
SOLID
 70
1
 71
1
 91
1
 92
1
 93
12
 72
1
 10
534.3688739531
 20
31.841695792
 11
534.7735614807
 21
31.8094314888
 72
1
 10
534.7735614807
 20
31.8094314888
 11
535.0048114255
 21
31.7449043986
 72
1
 10
535.0048114255
 20
31.7449043986
 11
535.1782489255
 21
31.6481130052
 72
1
 10
535.1782489255
 20
31.6481130052
 11
535.2360615358
 21
31.5190588248
 72
1
 10
535.2360615358
 20
31.5190588248
 11
534.9469989807
 21
31.5190588248
 72
1
 10
534.9469989807
 20
31.5190588248
 11
534.8891865358
 21
31.6158502183
 72
1
 10
534.8891865358
 20
31.6158502183
 11
534.7157489531
 21
31.6803773084
 72
1
 10
534.7157489531
 20
31.6803773084
 11
534.3110615082
 21
31.7126400953
 72
1
 10
534.3110615082
 20
31.7126400953
 11
533.6751239738
 21
31.7126400953
 72
1
 10
533.6751239738
 20
31.7126400953
 11
533.8485614944
 21
31.7771687019
 72
1
 10
533.8485614944
 20
31.7771687019
 11
534.0219989944
 21
31.8094314888
 72
1
 10
534.0219989944
 20
31.8094314888
 11
534.3688739531
 21
31.841695792
 97
1
330
2F7
 75
0
 76
1
 98
1
 10
0.0
 20
0.0
  0
LWPOLYLINE
  5
2F9
100
AcDbEntity
  8
0
100
AcDbPolyline
 62
7
  6
CONTINUOUS
 90
25
 70
0
 10
536.2766863704
 20
31.8094314888
 10
536.5079364807
 20
31.841695792
 10
536.7391865909
 20
31.841695792
 10
536.9126240909
 20
31.8094314888
 10
537.0860615909
 20
31.7449043986
 10
537.2016864807
 20
31.6803773084
 10
537.2594990909
 20
31.6158502183
 10
537.3173113704
 20
31.4545317347
 10
537.3173113704
 20
30.8092578002
 10
537.0282489807
 20
30.8092578002
 10
537.0282489807
 20
31.4545317347
 10
536.9704363704
 20
31.583585915
 10
536.8548114807
 20
31.6481130052
 10
536.7391865909
 20
31.6803773084
 10
536.5079364807
 20
31.7126400953
 10
536.2766863704
 20
31.6803773084
 10
536.1032490358
 20
31.6158502183
 10
535.9876239807
 20
31.5513216117
 10
535.9876239807
 20
30.8092578002
 10
535.6985614255
 20
30.8092578002
 10
535.6985614255
 20
32.3256512429
 10
535.9876239807
 20
32.3256512429
 10
535.9876239807
 20
31.6803773084
 10
536.1032490358
 20
31.7449043986
 10
536.2766863704
 20
31.8094314888
  0
HATCH
  5
2FA
100
AcDbEntity
  8
0
100
AcDbHatch
 62
7
  6
CONTINUOUS
 10
0.0
 20
0.0
 30
0.0
210
0.0
220
0.0
230
1.0
  2
SOLID
 70
1
 71
1
 91
1
 92
1
 93
24
 72
1
 10
536.2766863704
 20
31.8094314888
 11
536.5079364807
 21
31.841695792
 72
1
 10
536.5079364807
 20
31.841695792
 11
536.7391865909
 21
31.841695792
 72
1
 10
536.7391865909
 20
31.841695792
 11
536.9126240909
 21
31.8094314888
 72
1
 10
536.9126240909
 20
31.8094314888
 11
537.0860615909
 21
31.7449043986
 72
1
 10
537.0860615909
 20
31.7449043986
 11
537.2016864807
 21
31.6803773084
 72
1
 10
537.2016864807
 20
31.6803773084
 11
537.2594990909
 21
31.6158502183
 72
1
 10
537.2594990909
 20
31.6158502183
 11
537.3173113704
 21
31.4545317347
 72
1
 10
537.3173113704
 20
31.4545317347
 11
537.3173113704
 21
30.8092578002
 72
1
 10
537.3173113704
 20
30.8092578002
 11
537.0282489807
 21
30.8092578002
 72
1
 10
537.0282489807
 20
30.8092578002
 11
537.0282489807
 21
31.4545317347
 72
1
 10
537.0282489807
 20
31.4545317347
 11
536.9704363704
 21
31.583585915
 72
1
 10
536.9704363704
 20
31.583585915
 11
536.8548114807
 21
31.6481130052
 72
1
 10
536.8548114807
 20
31.6481130052
 11
536.7391865909
 21
31.6803773084
 72
1
 10
536.7391865909
 20
31.6803773084
 11
536.5079364807
 21
31.7126400953
 72
1
 10
536.5079364807
 20
31.7126400953
 11
536.2766863704
 21
31.6803773084
 72
1
 10
536.2766863704
 20
31.6803773084
 11
536.1032490358
 21
31.6158502183
 72
1
 10
536.1032490358
 20
31.6158502183
 11
535.9876239807
 21
31.5513216117
 72
1
 10
535.9876239807
 20
31.5513216117
 11
535.9876239807
 21
30.8092578002
 72
1
 10
535.9876239807
 20
30.8092578002
 11
535.6985614255
 21
30.8092578002
 72
1
 10
535.6985614255
 20
30.8092578002
 11
535.6985614255
 21
32.3256512429
 72
1
 10
535.6985614255
 20
32.3256512429
 11
535.9876239807
 21
32.3256512429
 72
1
 10
535.9876239807
 20
32.3256512429
 11
535.9876239807
 21
31.6803773084
 72
1
 10
535.9876239807
 20
31.6803773084
 11
536.1032490358
 21
31.7449043986
 72
1
 10
536.1032490358
 20
31.7449043986
 11
536.2766863704
 21
31.8094314888
 97
1
330
2F9
 75
0
 76
1
 98
1
 10
0.0
 20
0.0
  0
LWPOLYLINE
  5
2FB
100
AcDbEntity
  8
0
100
AcDbPolyline
 62
7
  6
CONTINUOUS
 90
20
 70
0
 10
538.0688739807
 20
31.8094314888
 10
538.4735615909
 20
31.841695792
 10
538.8204365909
 20
31.841695792
 10
539.1673112601
 20
31.8094314888
 10
539.3407487601
 20
31.7449043986
 10
539.4563739807
 20
31.6803773084
 10
539.5141862601
 20
31.583585915
 10
539.5141862601
 20
31.0673661609
 10
539.2251242012
 20
31.1641579843
 10
539.2251242012
 20
31.3577403412
 10
539.2251242012
 20
31.4867945216
 10
539.2251242012
 20
31.583585915
 10
539.1673112601
 20
31.6481130052
 10
539.0516867012
 20
31.6803773084
 10
538.8204365909
 20
31.7126400953
 10
538.4735615909
 20
31.7126400953
 10
537.7798115909
 20
31.6481130052
 10
537.8376238704
 20
31.7126400953
 10
537.9532490909
 20
31.7771687019
 10
538.0688739807
 20
31.8094314888
  0
HATCH
  5
2FC
100
AcDbEntity
  8
0
100
AcDbHatch
 62
7
  6
CONTINUOUS
 10
0.0
 20
0.0
 30
0.0
210
0.0
220
0.0
230
1.0
  2
SOLID
 70
1
 71
1
 91
1
 92
1
 93
19
 72
1
 10
538.0688739807
 20
31.8094314888
 11
538.4735615909
 21
31.841695792
 72
1
 10
538.4735615909
 20
31.841695792
 11
538.8204365909
 21
31.841695792
 72
1
 10
538.8204365909
 20
31.841695792
 11
539.1673112601
 21
31.8094314888
 72
1
 10
539.1673112601
 20
31.8094314888
 11
539.3407487601
 21
31.7449043986
 72
1
 10
539.3407487601
 20
31.7449043986
 11
539.4563739807
 21
31.6803773084
 72
1
 10
539.4563739807
 20
31.6803773084
 11
539.5141862601
 21
31.583585915
 72
1
 10
539.5141862601
 20
31.583585915
 11
539.5141862601
 21
31.0673661609
 72
1
 10
539.5141862601
 20
31.0673661609
 11
539.2251242012
 21
31.1641579843
 72
1
 10
539.2251242012
 20
31.1641579843
 11
539.2251242012
 21
31.3577403412
 72
1
 10
539.2251242012
 20
31.3577403412
 11
539.2251242012
 21
31.4867945216
 72
1
 10
539.2251242012
 20
31.4867945216
 11
539.2251242012
 21
31.583585915
 72
1
 10
539.2251242012
 20
31.583585915
 11
539.1673112601
 21
31.6481130052
 72
1
 10
539.1673112601
 20
31.6481130052
 11
539.0516867012
 21
31.6803773084
 72
1
 10
539.0516867012
 20
31.6803773084
 11
538.8204365909
 21
31.7126400953
 72
1
 10
538.8204365909
 20
31.7126400953
 11
538.4735615909
 21
31.7126400953
 72
1
 10
538.4735615909
 20
31.7126400953
 11
537.7798115909
 21
31.6481130052
 72
1
 10
537.7798115909
 20
31.6481130052
 11
537.8376238704
 21
31.7126400953
 72
1
 10
537.8376238704
 20
31.7126400953
 11
537.9532490909
 21
31.7771687019
 72
1
 10
537.9532490909
 20
31.7771687019
 11
538.0688739807
 21
31.8094314888
 97
1
330
2FB
 75
0
 76
1
 98
1
 10
0.0
 20
0.0
  0
LWPOLYLINE
  5
2FD
100
AcDbEntity
  8
0
100
AcDbPolyline
 62
7
  6
CONTINUOUS
 90
25
 70
0
 10
541.4219987601
 20
31.8094314888
 10
541.6532492012
 20
31.841695792
 10
541.8844989807
 20
31.841695792
 10
542.0579364807
 20
31.8094314888
 10
542.2313739807
 20
31.7449043986
 10
542.3469992012
 20
31.6803773084
 10
542.4048114807
 20
31.583585915
 10
542.4626237601
 20
31.4222674314
 10
542.4626237601
 20
30.8092578002
 10
542.1735617012
 20
30.8092578002
 10
542.1735617012
 20
31.4222674314
 10
542.1157487601
 20
31.583585915
 10
542.0001242012
 20
31.6481130052
 10
541.8844989807
 20
31.6803773084
 10
541.6532492012
 20
31.7126400953
 10
541.4219987601
 20
31.6803773084
 10
541.2485612601
 20
31.6158502183
 10
541.1329367012
 20
31.5513216117
 10
541.1329367012
 20
30.8092578002
 10
540.8438739807
 20
30.8092578002
 10
540.8438739807
 20
31.841695792
 10
541.1329367012
 20
31.841695792
 10
541.1329367012
 20
31.6803773084
 10
541.2485612601
 20
31.7449043986
 10
541.4219987601
 20
31.8094314888
  0
HATCH
  5
2FE
100
AcDbEntity
  8
0
100
AcDbHatch
 62
7
  6
CONTINUOUS
 10
0.0
 20
0.0
 30
0.0
210
0.0
220
0.0
230
1.0
  2
SOLID
 70
1
 71
1
 91
1
 92
1
 93
24
 72
1
 10
541.4219987601
 20
31.8094314888
 11
541.6532492012
 21
31.841695792
 72
1
 10
541.6532492012
 20
31.841695792
 11
541.8844989807
 21
31.841695792
 72
1
 10
541.8844989807
 20
31.841695792
 11
542.0579364807
 21
31.8094314888
 72
1
 10
542.0579364807
 20
31.8094314888
 11
542.2313739807
 21
31.7449043986
 72
1
 10
542.2313739807
 20
31.7449043986
 11
542.3469992012
 21
31.6803773084
 72
1
 10
542.3469992012
 20
31.6803773084
 11
542.4048114807
 21
31.583585915
 72
1
 10
542.4048114807
 20
31.583585915
 11
542.4626237601
 21
31.4222674314
 72
1
 10
542.4626237601
 20
31.4222674314
 11
542.4626237601
 21
30.8092578002
 72
1
 10
542.4626237601
 20
30.8092578002
 11
542.1735617012
 21
30.8092578002
 72
1
 10
542.1735617012
 20
30.8092578002
 11
542.1735617012
 21
31.4222674314
 72
1
 10
542.1735617012
 20
31.4222674314
 11
542.1157487601
 21
31.583585915
 72
1
 10
542.1157487601
 20
31.583585915
 11
542.0001242012
 21
31.6481130052
 72
1
 10
542.0001242012
 20
31.6481130052
 11
541.8844989807
 21
31.6803773084
 72
1
 10
541.8844989807
 20
31.6803773084
 11
541.6532492012
 21
31.7126400953
 72
1
 10
541.6532492012
 20
31.7126400953
 11
541.4219987601
 21
31.6803773084
 72
1
 10
541.4219987601
 20
31.6803773084
 11
541.2485612601
 21
31.6158502183
 72
1
 10
541.2485612601
 20
31.6158502183
 11
541.1329367012
 21
31.5513216117
 72
1
 10
541.1329367012
 20
31.5513216117
 11
541.1329367012
 21
30.8092578002
 72
1
 10
541.1329367012
 20
30.8092578002
 11
540.8438739807
 21
30.8092578002
 72
1
 10
540.8438739807
 20
30.8092578002
 11
540.8438739807
 21
31.841695792
 72
1
 10
540.8438739807
 20
31.841695792
 11
541.1329367012
 21
31.841695792
 72
1
 10
541.1329367012
 20
31.841695792
 11
541.1329367012
 21
31.6803773084
 72
1
 10
541.1329367012
 20
31.6803773084
 11
541.2485612601
 21
31.7449043986
 72
1
 10
541.2485612601
 20
31.7449043986
 11
541.4219987601
 21
31.8094314888
 97
1
330
2FD
 75
0
 76
1
 98
1
 10
0.0
 20
0.0
  0
LWPOLYLINE
  5
2FF
100
AcDbEntity
  8
0
100
AcDbPolyline
 62
7
  6
CONTINUOUS
 90
6
 70
0
 10
543.2719989807
 20
31.8094314888
 10
543.6188739807
 20
31.841695792
 10
543.9657489807
 20
31.841695792
 10
544.3126239807
 20
31.8094314888
 10
543.0407492012
 20
31.7449043986
 10
543.2719989807
 20
31.8094314888
  0
HATCH
  5
300
100
AcDbEntity
  8
0
100
AcDbHatch
 62
7
  6
CONTINUOUS
 10
0.0
 20
0.0
 30
0.0
210
0.0
220
0.0
230
1.0
  2
SOLID
 70
1
 71
1
 91
1
 92
1
 93
5
 72
1
 10
543.2719989807
 20
31.8094314888
 11
543.6188739807
 21
31.841695792
 72
1
 10
543.6188739807
 20
31.841695792
 11
543.9657489807
 21
31.841695792
 72
1
 10
543.9657489807
 20
31.841695792
 11
544.3126239807
 21
31.8094314888
 72
1
 10
544.3126239807
 20
31.8094314888
 11
543.0407492012
 21
31.7449043986
 72
1
 10
543.0407492012
 20
31.7449043986
 11
543.2719989807
 21
31.8094314888
 97
1
330
2FF
 75
0
 76
1
 98
1
 10
0.0
 20
0.0
  0
LWPOLYLINE
  5
301
100
AcDbEntity
  8
0
100
AcDbPolyline
 62
7
  6
CONTINUOUS
 90
12
 70
0
 10
544.4860614807
 20
31.7771687019
 10
544.6594989807
 20
31.7126400953
 10
544.7751235396
 20
31.583585915
 10
544.4860614807
 20
31.583585915
 10
544.4282492012
 20
31.6481130052
 10
544.3126239807
 20
31.6803773084
 10
543.9657489807
 20
31.7126400953
 10
543.6188739807
 20
31.7126400953
 10
542.9251239807
 20
31.6481130052
 10
543.0407492012
 20
31.7449043986
 10
544.3126239807
 20
31.8094314888
 10
544.4860614807
 20
31.7771687019
  0
HATCH
  5
302
100
AcDbEntity
  8
0
100
AcDbHatch
 62
7
  6
CONTINUOUS
 10
0.0
 20
0.0
 30
0.0
210
0.0
220
0.0
230
1.0
  2
SOLID
 70
1
 71
1
 91
1
 92
1
 93
11
 72
1
 10
544.4860614807
 20
31.7771687019
 11
544.6594989807
 21
31.7126400953
 72
1
 10
544.6594989807
 20
31.7126400953
 11
544.7751235396
 21
31.583585915
 72
1
 10
544.7751235396
 20
31.583585915
 11
544.4860614807
 21
31.583585915
 72
1
 10
544.4860614807
 20
31.583585915
 11
544.4282492012
 21
31.6481130052
 72
1
 10
544.4282492012
 20
31.6481130052
 11
544.3126239807
 21
31.6803773084
 72
1
 10
544.3126239807
 20
31.6803773084
 11
543.9657489807
 21
31.7126400953
 72
1
 10
543.9657489807
 20
31.7126400953
 11
543.6188739807
 21
31.7126400953
 72
1
 10
543.6188739807
 20
31.7126400953
 11
542.9251239807
 21
31.6481130052
 72
1
 10
542.9251239807
 20
31.6481130052
 11
543.0407492012
 21
31.7449043986
 72
1
 10
543.0407492012
 20
31.7449043986
 11
544.3126239807
 21
31.8094314888
 72
1
 10
544.3126239807
 20
31.8094314888
 11
544.4860614807
 21
31.7771687019
 97
1
330
301
 75
0
 76
1
 98
1
 10
0.0
 20
0.0
  0
LWPOLYLINE
  5
303
100
AcDbEntity
  8
0
100
AcDbPolyline
 62
7
  6
CONTINUOUS
 90
7
 70
0
 10
534.0798114807
 20
31.6803773084
 10
533.9641864669
 20
31.6481130052
 10
533.4438739824
 20
31.5190588248
 10
533.5594989807
 20
31.6481130052
 10
533.6751239738
 20
31.7126400953
 10
534.3110615082
 20
31.7126400953
 10
534.0798114807
 20
31.6803773084
  0
HATCH
  5
304
100
AcDbEntity
  8
0
100
AcDbHatch
 62
7
  6
CONTINUOUS
 10
0.0
 20
0.0
 30
0.0
210
0.0
220
0.0
230
1.0
  2
SOLID
 70
1
 71
1
 91
1
 92
1
 93
6
 72
1
 10
534.0798114807
 20
31.6803773084
 11
533.9641864669
 21
31.6481130052
 72
1
 10
533.9641864669
 20
31.6481130052
 11
533.4438739824
 21
31.5190588248
 72
1
 10
533.4438739824
 20
31.5190588248
 11
533.5594989807
 21
31.6481130052
 72
1
 10
533.5594989807
 20
31.6481130052
 11
533.6751239738
 21
31.7126400953
 72
1
 10
533.6751239738
 20
31.7126400953
 11
534.3110615082
 21
31.7126400953
 72
1
 10
534.3110615082
 20
31.7126400953
 11
534.0798114807
 21
31.6803773084
 97
1
330
303
 75
0
 76
1
 98
1
 10
0.0
 20
0.0
  0
LWPOLYLINE
  5
305
100
AcDbEntity
  8
0
100
AcDbPolyline
 62
7
  6
CONTINUOUS
 90
7
 70
0
 10
538.2423114807
 20
31.6803773084
 10
538.1266865909
 20
31.6481130052
 10
538.0688739807
 20
31.583585915
 10
537.7798115909
 20
31.583585915
 10
537.7798115909
 20
31.6481130052
 10
538.4735615909
 20
31.7126400953
 10
538.2423114807
 20
31.6803773084
  0
HATCH
  5
306
100
AcDbEntity
  8
0
100
AcDbHatch
 62
7
  6
CONTINUOUS
 10
0.0
 20
0.0
 30
0.0
210
0.0
220
0.0
230
1.0
  2
SOLID
 70
1
 71
1
 91
1
 92
1
 93
6
 72
1
 10
538.2423114807
 20
31.6803773084
 11
538.1266865909
 21
31.6481130052
 72
1
 10
538.1266865909
 20
31.6481130052
 11
538.0688739807
 21
31.583585915
 72
1
 10
538.0688739807
 20
31.583585915
 11
537.7798115909
 21
31.583585915
 72
1
 10
537.7798115909
 20
31.583585915
 11
537.7798115909
 21
31.6481130052
 72
1
 10
537.7798115909
 20
31.6481130052
 11
538.4735615909
 21
31.7126400953
 72
1
 10
538.4735615909
 20
31.7126400953
 11
538.2423114807
 21
31.6803773084
 97
1
330
305
 75
0
 76
1
 98
1
 10
0.0
 20
0.0
  0
LWPOLYLINE
  5
307
100
AcDbEntity
  8
0
100
AcDbPolyline
 62
7
  6
CONTINUOUS
 90
8
 70
0
 10
543.3876242012
 20
31.6803773084
 10
543.2719989807
 20
31.6481130052
 10
543.2141867012
 20
31.583585915
 10
543.0407492012
 20
31.4545317347
 10
542.9251239807
 20
31.583585915
 10
542.9251239807
 20
31.6481130052
 10
543.6188739807
 20
31.7126400953
 10
543.3876242012
 20
31.6803773084
  0
HATCH
  5
308
100
AcDbEntity
  8
0
100
AcDbHatch
 62
7
  6
CONTINUOUS
 10
0.0
 20
0.0
 30
0.0
210
0.0
220
0.0
230
1.0
  2
SOLID
 70
1
 71
1
 91
1
 92
1
 93
7
 72
1
 10
543.3876242012
 20
31.6803773084
 11
543.2719989807
 21
31.6481130052
 72
1
 10
543.2719989807
 20
31.6481130052
 11
543.2141867012
 21
31.583585915
 72
1
 10
543.2141867012
 20
31.583585915
 11
543.0407492012
 21
31.4545317347
 72
1
 10
543.0407492012
 20
31.4545317347
 11
542.9251239807
 21
31.583585915
 72
1
 10
542.9251239807
 20
31.583585915
 11
542.9251239807
 21
31.6481130052
 72
1
 10
542.9251239807
 20
31.6481130052
 11
543.6188739807
 21
31.7126400953
 72
1
 10
543.6188739807
 20
31.7126400953
 11
543.3876242012
 21
31.6803773084
 97
1
330
307
 75
0
 76
1
 98
1
 10
0.0
 20
0.0
  0
LWPOLYLINE
  5
309
100
AcDbEntity
  8
0
100
AcDbPolyline
 62
7
  6
CONTINUOUS
 90
6
 70
0
 10
533.7907489669
 20
31.5513216117
 10
533.7329364807
 20
31.4867945216
 10
533.3860614807
 20
31.325476038
 10
533.4438739824
 20
31.5190588248
 10
533.9641864669
 20
31.6481130052
 10
533.7907489669
 20
31.5513216117
  0
HATCH
  5
30A
100
AcDbEntity
  8
0
100
AcDbHatch
 62
7
  6
CONTINUOUS
 10
0.0
 20
0.0
 30
0.0
210
0.0
220
0.0
230
1.0
  2
SOLID
 70
1
 71
1
 91
1
 92
1
 93
5
 72
1
 10
533.7907489669
 20
31.5513216117
 11
533.7329364807
 21
31.4867945216
 72
1
 10
533.7329364807
 20
31.4867945216
 11
533.3860614807
 21
31.325476038
 72
1
 10
533.3860614807
 20
31.325476038
 11
533.4438739824
 21
31.5190588248
 72
1
 10
533.4438739824
 20
31.5190588248
 11
533.9641864669
 21
31.6481130052
 72
1
 10
533.9641864669
 20
31.6481130052
 11
533.7907489669
 21
31.5513216117
 97
1
330
309
 75
0
 76
1
 98
1
 10
0.0
 20
0.0
  0
LWPOLYLINE
  5
30B
100
AcDbEntity
  8
0
100
AcDbPolyline
 62
7
  6
CONTINUOUS
 90
7
 70
0
 10
538.2423114807
 20
31.4545317347
 10
538.5891864807
 20
31.4867945216
 10
539.2251242012
 20
31.4867945216
 10
539.2251242012
 20
31.3577403412
 10
538.5891864807
 20
31.3577403412
 10
538.0110613704
 20
31.3900038345
 10
538.2423114807
 20
31.4545317347
  0
HATCH
  5
30C
100
AcDbEntity
  8
0
100
AcDbHatch
 62
7
  6
CONTINUOUS
 10
0.0
 20
0.0
 30
0.0
210
0.0
220
0.0
230
1.0
  2
SOLID
 70
1
 71
1
 91
1
 92
1
 93
6
 72
1
 10
538.2423114807
 20
31.4545317347
 11
538.5891864807
 21
31.4867945216
 72
1
 10
538.5891864807
 20
31.4867945216
 11
539.2251242012
 21
31.4867945216
 72
1
 10
539.2251242012
 20
31.4867945216
 11
539.2251242012
 21
31.3577403412
 72
1
 10
539.2251242012
 20
31.3577403412
 11
538.5891864807
 21
31.3577403412
 72
1
 10
538.5891864807
 20
31.3577403412
 11
538.0110613704
 21
31.3900038345
 72
1
 10
538.0110613704
 20
31.3900038345
 11
538.2423114807
 21
31.4545317347
 97
1
330
30B
 75
0
 76
1
 98
1
 10
0.0
 20
0.0
  0
LWPOLYLINE
  5
30D
100
AcDbEntity
  8
0
100
AcDbPolyline
 62
7
  6
CONTINUOUS
 90
24
 70
0
 10
543.2719989807
 20
31.5190588248
 10
543.4454364807
 20
31.4545317347
 10
544.4282492012
 20
31.2932132511
 10
544.6594989807
 20
31.1964218576
 10
544.7751235396
 20
31.0673661609
 10
544.7751235396
 20
31.0028390707
 10
544.6594989807
 20
30.9060491937
 10
544.4282492012
 20
30.8415205871
 10
544.0813742012
 20
30.8092578002
 10
543.7344992012
 20
30.8092578002
 10
543.3876242012
 20
30.8415205871
 10
543.2141867012
 20
30.8737848904
 10
543.0407492012
 20
30.9383119806
 10
543.7344992012
 20
30.9383119806
 10
544.0813742012
 20
30.9383119806
 10
544.3126239807
 20
30.9705762839
 10
544.4282492012
 20
31.0028390707
 10
544.4860614807
 20
31.0673661609
 10
544.4282492012
 20
31.1318947675
 10
544.2548117012
 20
31.1964218576
 10
543.2719989807
 20
31.3577403412
 10
543.0407492012
 20
31.4545317347
 10
543.2141867012
 20
31.583585915
 10
543.2719989807
 20
31.5190588248
  0
HATCH
  5
30E
100
AcDbEntity
  8
0
100
AcDbHatch
 62
7
  6
CONTINUOUS
 10
0.0
 20
0.0
 30
0.0
210
0.0
220
0.0
230
1.0
  2
SOLID
 70
1
 71
1
 91
1
 92
1
 93
23
 72
1
 10
543.2719989807
 20
31.5190588248
 11
543.4454364807
 21
31.4545317347
 72
1
 10
543.4454364807
 20
31.4545317347
 11
544.4282492012
 21
31.2932132511
 72
1
 10
544.4282492012
 20
31.2932132511
 11
544.6594989807
 21
31.1964218576
 72
1
 10
544.6594989807
 20
31.1964218576
 11
544.7751235396
 21
31.0673661609
 72
1
 10
544.7751235396
 20
31.0673661609
 11
544.7751235396
 21
31.0028390707
 72
1
 10
544.7751235396
 20
31.0028390707
 11
544.6594989807
 21
30.9060491937
 72
1
 10
544.6594989807
 20
30.9060491937
 11
544.4282492012
 21
30.8415205871
 72
1
 10
544.4282492012
 20
30.8415205871
 11
544.0813742012
 21
30.8092578002
 72
1
 10
544.0813742012
 20
30.8092578002
 11
543.7344992012
 21
30.8092578002
 72
1
 10
543.7344992012
 20
30.8092578002
 11
543.3876242012
 21
30.8415205871
 72
1
 10
543.3876242012
 20
30.8415205871
 11
543.2141867012
 21
30.8737848904
 72
1
 10
543.2141867012
 20
30.8737848904
 11
543.0407492012
 21
30.9383119806
 72
1
 10
543.0407492012
 20
30.9383119806
 11
543.7344992012
 21
30.9383119806
 72
1
 10
543.7344992012
 20
30.9383119806
 11
544.0813742012
 21
30.9383119806
 72
1
 10
544.0813742012
 20
30.9383119806
 11
544.3126239807
 21
30.9705762839
 72
1
 10
544.3126239807
 20
30.9705762839
 11
544.4282492012
 21
31.0028390707
 72
1
 10
544.4282492012
 20
31.0028390707
 11
544.4860614807
 21
31.0673661609
 72
1
 10
544.4860614807
 20
31.0673661609
 11
544.4282492012
 21
31.1318947675
 72
1
 10
544.4282492012
 20
31.1318947675
 11
544.2548117012
 21
31.1964218576
 72
1
 10
544.2548117012
 20
31.1964218576
 11
543.2719989807
 21
31.3577403412
 72
1
 10
543.2719989807
 20
31.3577403412
 11
543.0407492012
 21
31.4545317347
 72
1
 10
543.0407492012
 20
31.4545317347
 11
543.2141867012
 21
31.583585915
 72
1
 10
543.2141867012
 20
31.583585915
 11
543.2719989807
 21
31.5190588248
 97
1
330
30D
 75
0
 76
1
 98
1
 10
0.0
 20
0.0
  0
LWPOLYLINE
  5
30F
100
AcDbEntity
  8
0
100
AcDbPolyline
 62
7
  6
CONTINUOUS
 90
12
 70
0
 10
533.6751239738
 20
31.3577403412
 10
533.6751239738
 20
31.2609490436
 10
533.7907489669
 20
31.0996304642
 10
533.9641864669
 20
31.0028390707
 10
534.3110615082
 20
30.9383119806
 10
533.8485614944
 20
30.8737848904
 10
533.6751239738
 20
30.9383119806
 10
533.5594989807
 20
31.0028390707
 10
533.4438739824
 20
31.1318947675
 10
533.3860614807
 20
31.325476038
 10
533.7329364807
 20
31.4867945216
 10
533.6751239738
 20
31.3577403412
  0
HATCH
  5
310
100
AcDbEntity
  8
0
100
AcDbHatch
 62
7
  6
CONTINUOUS
 10
0.0
 20
0.0
 30
0.0
210
0.0
220
0.0
230
1.0
  2
SOLID
 70
1
 71
1
 91
1
 92
1
 93
11
 72
1
 10
533.6751239738
 20
31.3577403412
 11
533.6751239738
 21
31.2609490436
 72
1
 10
533.6751239738
 20
31.2609490436
 11
533.7907489669
 21
31.0996304642
 72
1
 10
533.7907489669
 20
31.0996304642
 11
533.9641864669
 21
31.0028390707
 72
1
 10
533.9641864669
 20
31.0028390707
 11
534.3110615082
 21
30.9383119806
 72
1
 10
534.3110615082
 20
30.9383119806
 11
533.8485614944
 21
30.8737848904
 72
1
 10
533.8485614944
 20
30.8737848904
 11
533.6751239738
 21
30.9383119806
 72
1
 10
533.6751239738
 20
30.9383119806
 11
533.5594989807
 21
31.0028390707
 72
1
 10
533.5594989807
 20
31.0028390707
 11
533.4438739824
 21
31.1318947675
 72
1
 10
533.4438739824
 20
31.1318947675
 11
533.3860614807
 21
31.325476038
 72
1
 10
533.3860614807
 20
31.325476038
 11
533.7329364807
 21
31.4867945216
 72
1
 10
533.7329364807
 20
31.4867945216
 11
533.6751239738
 21
31.3577403412
 97
1
330
30F
 75
0
 76
1
 98
1
 10
0.0
 20
0.0
  0
LWPOLYLINE
  5
311
100
AcDbEntity
  8
0
100
AcDbPolyline
 62
7
  6
CONTINUOUS
 90
6
 70
0
 10
537.8954364807
 20
31.325476038
 10
538.0110613704
 20
31.3900038345
 10
538.5891864807
 20
31.3577403412
 10
538.3579363704
 20
31.325476038
 10
537.7798115909
 20
31.1964218576
 10
537.8954364807
 20
31.325476038
  0
HATCH
  5
312
100
AcDbEntity
  8
0
100
AcDbHatch
 62
7
  6
CONTINUOUS
 10
0.0
 20
0.0
 30
0.0
210
0.0
220
0.0
230
1.0
  2
SOLID
 70
1
 71
1
 91
1
 92
1
 93
5
 72
1
 10
537.8954364807
 20
31.325476038
 11
538.0110613704
 21
31.3900038345
 72
1
 10
538.0110613704
 20
31.3900038345
 11
538.5891864807
 21
31.3577403412
 72
1
 10
538.5891864807
 20
31.3577403412
 11
538.3579363704
 21
31.325476038
 72
1
 10
538.3579363704
 20
31.325476038
 11
537.7798115909
 21
31.1964218576
 72
1
 10
537.7798115909
 20
31.1964218576
 11
537.8954364807
 21
31.325476038
 97
1
330
311
 75
0
 76
1
 98
1
 10
0.0
 20
0.0
  0
LWPOLYLINE
  5
313
100
AcDbEntity
  8
0
100
AcDbPolyline
 62
7
  6
CONTINUOUS
 90
9
 70
0
 10
538.1266865909
 20
31.2286853572
 10
538.0688739807
 20
31.1318947675
 10
538.0688739807
 20
31.0673661609
 10
537.8376238704
 20
30.9705762839
 10
537.7798115909
 20
31.0996304642
 10
537.7798115909
 20
31.1964218576
 10
538.3579363704
 20
31.325476038
 10
538.2423114807
 20
31.2932132511
 10
538.1266865909
 20
31.2286853572
  0
HATCH
  5
314
100
AcDbEntity
  8
0
100
AcDbHatch
 62
7
  6
CONTINUOUS
 10
0.0
 20
0.0
 30
0.0
210
0.0
220
0.0
230
1.0
  2
SOLID
 70
1
 71
1
 91
1
 92
1
 93
8
 72
1
 10
538.1266865909
 20
31.2286853572
 11
538.0688739807
 21
31.1318947675
 72
1
 10
538.0688739807
 20
31.1318947675
 11
538.0688739807
 21
31.0673661609
 72
1
 10
538.0688739807
 20
31.0673661609
 11
537.8376238704
 21
30.9705762839
 72
1
 10
537.8376238704
 20
30.9705762839
 11
537.7798115909
 21
31.0996304642
 72
1
 10
537.7798115909
 20
31.0996304642
 11
537.7798115909
 21
31.1964218576
 72
1
 10
537.7798115909
 20
31.1964218576
 11
538.3579363704
 21
31.325476038
 72
1
 10
538.3579363704
 20
31.325476038
 11
538.2423114807
 21
31.2932132511
 72
1
 10
538.2423114807
 20
31.2932132511
 11
538.1266865909
 21
31.2286853572
 97
1
330
313
 75
0
 76
1
 98
1
 10
0.0
 20
0.0
  0
LWPOLYLINE
  5
315
100
AcDbEntity
  8
0
100
AcDbPolyline
 62
7
  6
CONTINUOUS
 90
10
 70
0
 10
539.1673112601
 20
31.0996304642
 10
539.2251242012
 20
31.1641579843
 10
539.5141862601
 20
31.0673661609
 10
539.5719992012
 20
30.9060491937
 10
539.6298114807
 20
30.8092578002
 10
539.3407487601
 20
30.8092578002
 10
539.2829364807
 20
30.8737848904
 10
539.2251242012
 20
30.9705762839
 10
538.9938737601
 20
31.0028390707
 10
539.1673112601
 20
31.0996304642
  0
HATCH
  5
316
100
AcDbEntity
  8
0
100
AcDbHatch
 62
7
  6
CONTINUOUS
 10
0.0
 20
0.0
 30
0.0
210
0.0
220
0.0
230
1.0
  2
SOLID
 70
1
 71
1
 91
1
 92
1
 93
9
 72
1
 10
539.1673112601
 20
31.0996304642
 11
539.2251242012
 21
31.1641579843
 72
1
 10
539.2251242012
 20
31.1641579843
 11
539.5141862601
 21
31.0673661609
 72
1
 10
539.5141862601
 20
31.0673661609
 11
539.5719992012
 21
30.9060491937
 72
1
 10
539.5719992012
 20
30.9060491937
 11
539.6298114807
 21
30.8092578002
 72
1
 10
539.6298114807
 20
30.8092578002
 11
539.3407487601
 21
30.8092578002
 72
1
 10
539.3407487601
 20
30.8092578002
 11
539.2829364807
 21
30.8737848904
 72
1
 10
539.2829364807
 20
30.8737848904
 11
539.2251242012
 21
30.9705762839
 72
1
 10
539.2251242012
 20
30.9705762839
 11
538.9938737601
 21
31.0028390707
 72
1
 10
538.9938737601
 20
31.0028390707
 11
539.1673112601
 21
31.0996304642
 97
1
330
315
 75
0
 76
1
 98
1
 10
0.0
 20
0.0
  0
LWPOLYLINE
  5
317
100
AcDbEntity
  8
0
100
AcDbPolyline
 62
7
  6
CONTINUOUS
 90
12
 70
0
 10
534.8891865358
 20
31.035103216
 10
534.9469989807
 20
31.1318947675
 10
535.2360615358
 20
31.1318947675
 10
535.1782489255
 20
31.0028390707
 10
535.0048114255
 20
30.9060491937
 10
534.7735614807
 20
30.8415205871
 10
534.3688739531
 20
30.8092578002
 10
534.0219989944
 20
30.8415205871
 10
533.8485614944
 20
30.8737848904
 10
534.3110615082
 20
30.9383119806
 10
534.7157489531
 20
30.9705762839
 10
534.8891865358
 20
31.035103216
  0
HATCH
  5
318
100
AcDbEntity
  8
0
100
AcDbHatch
 62
7
  6
CONTINUOUS
 10
0.0
 20
0.0
 30
0.0
210
0.0
220
0.0
230
1.0
  2
SOLID
 70
1
 71
1
 91
1
 92
1
 93
11
 72
1
 10
534.8891865358
 20
31.035103216
 11
534.9469989807
 21
31.1318947675
 72
1
 10
534.9469989807
 20
31.1318947675
 11
535.2360615358
 21
31.1318947675
 72
1
 10
535.2360615358
 20
31.1318947675
 11
535.1782489255
 21
31.0028390707
 72
1
 10
535.1782489255
 20
31.0028390707
 11
535.0048114255
 21
30.9060491937
 72
1
 10
535.0048114255
 20
30.9060491937
 11
534.7735614807
 21
30.8415205871
 72
1
 10
534.7735614807
 20
30.8415205871
 11
534.3688739531
 21
30.8092578002
 72
1
 10
534.3688739531
 20
30.8092578002
 11
534.0219989944
 21
30.8415205871
 72
1
 10
534.0219989944
 20
30.8415205871
 11
533.8485614944
 21
30.8737848904
 72
1
 10
533.8485614944
 20
30.8737848904
 11
534.3110615082
 21
30.9383119806
 72
1
 10
534.3110615082
 20
30.9383119806
 11
534.7157489531
 21
30.9705762839
 72
1
 10
534.7157489531
 20
30.9705762839
 11
534.8891865358
 21
31.035103216
 97
1
330
317
 75
0
 76
1
 98
1
 10
0.0
 20
0.0
  0
LWPOLYLINE
  5
319
100
AcDbEntity
  8
0
100
AcDbPolyline
 62
7
  6
CONTINUOUS
 90
6
 70
0
 10
538.1266865909
 20
31.0028390707
 10
538.3579363704
 20
30.9383119806
 10
538.0110613704
 20
30.8737848904
 10
537.8376238704
 20
30.9705762839
 10
538.0688739807
 20
31.0673661609
 10
538.1266865909
 20
31.0028390707
  0
HATCH
  5
31A
100
AcDbEntity
  8
0
100
AcDbHatch
 62
7
  6
CONTINUOUS
 10
0.0
 20
0.0
 30
0.0
210
0.0
220
0.0
230
1.0
  2
SOLID
 70
1
 71
1
 91
1
 92
1
 93
5
 72
1
 10
538.1266865909
 20
31.0028390707
 11
538.3579363704
 21
30.9383119806
 72
1
 10
538.3579363704
 20
30.9383119806
 11
538.0110613704
 21
30.8737848904
 72
1
 10
538.0110613704
 20
30.8737848904
 11
537.8376238704
 21
30.9705762839
 72
1
 10
537.8376238704
 20
30.9705762839
 11
538.0688739807
 21
31.0673661609
 72
1
 10
538.0688739807
 20
31.0673661609
 11
538.1266865909
 21
31.0028390707
 97
1
330
319
 75
0
 76
1
 98
1
 10
0.0
 20
0.0
  0
LWPOLYLINE
  5
31B
100
AcDbEntity
  8
0
100
AcDbPolyline
 62
7
  6
CONTINUOUS
 90
11
 70
0
 10
538.7048113704
 20
30.9383119806
 10
538.9938737601
 20
31.0028390707
 10
539.2251242012
 20
30.9705762839
 10
539.1673112601
 20
30.9060491937
 10
538.9938737601
 20
30.8415205871
 10
538.7048113704
 20
30.8092578002
 10
538.3579363704
 20
30.8092578002
 10
538.1266865909
 20
30.8415205871
 10
538.0110613704
 20
30.8737848904
 10
538.3579363704
 20
30.9383119806
 10
538.7048113704
 20
30.9383119806
  0
HATCH
  5
31C
100
AcDbEntity
  8
0
100
AcDbHatch
 62
7
  6
CONTINUOUS
 10
0.0
 20
0.0
 30
0.0
210
0.0
220
0.0
230
1.0
  2
SOLID
 70
1
 71
1
 91
1
 92
1
 93
10
 72
1
 10
538.7048113704
 20
30.9383119806
 11
538.9938737601
 21
31.0028390707
 72
1
 10
538.9938737601
 20
31.0028390707
 11
539.2251242012
 21
30.9705762839
 72
1
 10
539.2251242012
 20
30.9705762839
 11
539.1673112601
 21
30.9060491937
 72
1
 10
539.1673112601
 20
30.9060491937
 11
538.9938737601
 21
30.8415205871
 72
1
 10
538.9938737601
 20
30.8415205871
 11
538.7048113704
 21
30.8092578002
 72
1
 10
538.7048113704
 20
30.8092578002
 11
538.3579363704
 21
30.8092578002
 72
1
 10
538.3579363704
 20
30.8092578002
 11
538.1266865909
 21
30.8415205871
 72
1
 10
538.1266865909
 20
30.8415205871
 11
538.0110613704
 21
30.8737848904
 72
1
 10
538.0110613704
 20
30.8737848904
 11
538.3579363704
 21
30.9383119806
 72
1
 10
538.3579363704
 20
30.9383119806
 11
538.7048113704
 21
30.9383119806
 97
1
330
31B
 75
0
 76
1
 98
1
 10
0.0
 20
0.0
  0
LWPOLYLINE
  5
31D
100
AcDbEntity
  8
0
100
AcDbPolyline
 62
7
  6
CONTINUOUS
 90
7
 70
0
 10
543.3876242012
 20
30.9705762839
 10
543.7344992012
 20
30.9383119806
 10
543.0407492012
 20
30.9383119806
 10
542.9251239807
 20
31.0673661609
 10
543.2141867012
 20
31.0673661609
 10
543.2719989807
 20
31.0028390707
 10
543.3876242012
 20
30.9705762839
  0
HATCH
  5
31E
100
AcDbEntity
  8
0
100
AcDbHatch
 62
7
  6
CONTINUOUS
 10
0.0
 20
0.0
 30
0.0
210
0.0
220
0.0
230
1.0
  2
SOLID
 70
1
 71
1
 91
1
 92
1
 93
6
 72
1
 10
543.3876242012
 20
30.9705762839
 11
543.7344992012
 21
30.9383119806
 72
1
 10
543.7344992012
 20
30.9383119806
 11
543.0407492012
 21
30.9383119806
 72
1
 10
543.0407492012
 20
30.9383119806
 11
542.9251239807
 21
31.0673661609
 72
1
 10
542.9251239807
 20
31.0673661609
 11
543.2141867012
 21
31.0673661609
 72
1
 10
543.2141867012
 20
31.0673661609
 11
543.2719989807
 21
31.0028390707
 72
1
 10
543.2719989807
 20
31.0028390707
 11
543.3876242012
 21
30.9705762839
 97
1
330
31D
 75
0
 76
1
 98
1
 10
0.0
 20
0.0
  0
SOLID
  5
31F
100
AcDbEntity
  8
0
100
AcDbTrace
 62
7
  6
CONTINUOUS
 10
540.0923117012
 20
30.8092578002
 11
540.0923117012
 21
31.841695792
 12
540.3813737601
 22
30.8092578002
 13
540.3813737601
 23
31.841695792
  0
ENDBLK
  5
320
100
AcDbEntity
  8
0
  6
BYBLOCK
 62
0
100
AcDbBlockEnd
  0
BLOCK
  5
321
100
AcDbEntity
  8
0
100
AcDbBlockBegin
 62
2
  6
CONTINUOUS
  2
AMMEAAL_LOGO_BL0
 70
64
 10
416.1419631151
 20
19.7009994242
  3
AMMEAAL_LOGO_BL0
  1

  0
TEXT
  5
322
100
AcDbEntity
  8
0
100
AcDbText
 62
7
  6
CONTINUOUS
 10
402.4066669574
 20
19.0744135318
  7
TEXTSTYLE_3
 40
2.7338706658
  1
Ammeraal Beltech
 41
1.0
 51
15.0
 72
0
100
AcDbText
  0
TEXT
  5
323
100
AcDbEntity
  8
0
100
AcDbText
 62
7
  6
CONTINUOUS
 10
413.2074677831
 20
16.800876859
  7
TEXTSTYLE_4
 40
1.0935482663
  1
Innovation & Service in Belting
 41
1.0
 72
0
100
AcDbText
  0
LINE
  5
324
100
AcDbEntity
  8
0
100
AcDbLine
 62
7
  6
CONTINUOUS
 10
396.382126306
 20
19.8410068404
 11
397.1602782994
 21
23.5019241381
  0
LINE
  5
325
100
AcDbEntity
  8
0
100
AcDbLine
 62
7
  6
CONTINUOUS
 10
407.2554465892
 20
27.1653180497
 11
397.6480960424
 21
24.0437006284
  0
LINE
  5
326
100
AcDbEntity
  8
0
100
AcDbLine
 62
7
  6
CONTINUOUS
 10
396.6074096383
 20
19.1476560374
 11
404.1144848995
 21
12.3882551114
  0
LINE
  5
327
100
AcDbEntity
  8
0
100
AcDbLine
 62
7
  6
CONTINUOUS
 10
396.869944049
 20
20.3827833308
 11
407.6782134142
 21
23.8946029297
  0
LINE
  5
328
100
AcDbEntity
  8
0
100
AcDbLine
 62
7
  6
CONTINUOUS
 10
407.674008277
 20
13.544814366
 11
399.2285486083
 21
21.1491404077
  0
LINE
  5
329
100
AcDbEntity
  8
0
100
AcDbLine
 62
7
  6
CONTINUOUS
 10
408.1938309968
 20
26.320392934
 11
407.2172714596
 21
21.7260415315
  0
LINE
  5
32A
100
AcDbEntity
  8
0
100
AcDbLine
 62
7
  6
CONTINUOUS
 10
406.5174695119
 20
18.4337322177
 11
405.8310213004
 21
15.2042472933
  0
LINE
  5
32B
100
AcDbEntity
  8
0
100
AcDbLine
 62
7
  6
CONTINUOUS
 10
408.8749270954
 20
13.9350165436
 11
409.831158631
 21
18.4337322177
  0
LINE
  5
32C
100
AcDbEntity
  8
0
100
AcDbLine
 62
7
  6
CONTINUOUS
 10
410.5309605787
 20
21.7260415315
 11
410.9752023811
 21
23.8160348909
  0
LINE
  5
32D
100
AcDbEntity
  8
0
100
AcDbLine
 62
7
  6
CONTINUOUS
 10
404.8275859748
 20
12.2366807987
 11
408.3871093524
 21
13.3932400533
  0
LINE
  5
32E
100
AcDbEntity
  8
0
100
AcDbLine
 62
7
  6
CONTINUOUS
 10
407.9685476645
 20
27.013743737
 11
410.7499190488
 21
24.5093856939
  0
ARC
  5
32F
100
AcDbEntity
  8
0
100
AcDbCircle
 62
7
  6
CONTINUOUS
 10
397.8733793747
 20
23.3503498254
 40
0.7290321776
100
AcDbArc
 50
108.0
 51
168.0
  0
ARC
  5
330
100
AcDbEntity
  8
0
100
AcDbCircle
 62
7
  6
CONTINUOUS
 10
407.4807299215
 20
26.4719672466
 40
0.7290321776
100
AcDbArc
 50
348.0
 51
108.0
  0
ARC
  5
331
100
AcDbEntity
  8
0
100
AcDbCircle
 62
7
  6
CONTINUOUS
 10
410.2621013058
 20
23.9676092036
 40
0.7290321776
100
AcDbArc
 50
348.0
 51
48.0
  0
ARC
  5
332
100
AcDbEntity
  8
0
100
AcDbCircle
 62
7
  6
CONTINUOUS
 10
404.6023026425
 20
12.9300316018
 40
0.7290321776
100
AcDbArc
 50
228.0
 51
288.0
  0
ARC
  5
333
100
AcDbEntity
  8
0
100
AcDbCircle
 62
7
  6
CONTINUOUS
 10
397.0952273813
 20
19.6894325277
 40
0.7290321776
100
AcDbArc
 50
108.0
 51
228.0
  0
ARC
  5
334
100
AcDbEntity
  8
0
100
AcDbCircle
 62
7
  6
CONTINUOUS
 10
408.1618260201
 20
14.0865908563
 40
0.7290321776
100
AcDbArc
 50
228.0
 51
348.0
  0
ENDBLK
  5
335
100
AcDbEntity
  8
0
  6
BYBLOCK
 62
0
100
AcDbBlockEnd
  0
BLOCK
  5
336
100
AcDbEntity
  8
0
100
AcDbBlockBegin
  2
*T1
 70
1
 10
0.0
 20
0.0
  3
*T1
  1

  0
LINE
  5
337
100
AcDbEntity
  8
0
100
AcDbLine
 62
2
  6
CONTINUOUS
 10
0.0
 20
0.0
 11
190.0
 21
0.0
  0
LINE
  5
338
100
AcDbEntity
  8
0
100
AcDbLine
 62
2
  6
CONTINUOUS
 10
0.0
 20
0.0
 11
0.0
 21
-20.0
  0
LINE
  5
339
100
AcDbEntity
  8
0
100
AcDbLine
 62
2
  6
CONTINUOUS
 10
0.0
 20
-20.0
 11
190.0
 21
-20.0
  0
LINE
  5
33A
100
AcDbEntity
  8
0
100
AcDbLine
 62
2
  6
CONTINUOUS
 10
85.0
 20
0.0
 11
85.0
 21
-20.0
  0
LINE
  5
33B
100
AcDbEntity
  8
0
100
AcDbLine
 62
2
  6
CONTINUOUS
 10
105.0
 20
0.0
 11
105.0
 21
-20.0
  0
LINE
  5
33C
100
AcDbEntity
  8
0
100
AcDbLine
 62
2
  6
CONTINUOUS
 10
190.0
 20
0.0
 11
190.0
 21
-20.0
  0
MTEXT
  5
33D
100
AcDbEntity
  8
0
100
AcDbMText
 62
5
  6
CONTINUOUS
  7
TEXTSTYLE_5
 71
1
 72
1
 10
3.0
 20
-5.177
 30
0.0
 11
1.0
 21
0.0
 31
0.0
 44
1.08
  3
                                                                     Ammeraal Beltech Modular A/S\P\H1.5;                                                                      Hjulmagervej 21, 7100 Vejle,  DK\P\H1.495;                                 
  1
                                     tel: \H1.51;+45 75723100     fax: +45 75723348\P\H1.5;                                                                      admin@unichains.dk  www.unichains.com
 40
1.52
 41
161.0496183206
  0
MTEXT
  5
33E
100
AcDbEntity
  8
0
100
AcDbMText
 62
5
  6
CONTINUOUS
  7
TEXTSTYLE_6
 71
2
 72
1
 10
95.0
 20
-11.25
 30
0.0
 11
1.0
 21
0.0
 31
0.0
 44
0.9
  1
1:4
 40
5.0
 41
21.0
  0
MTEXT
  5
33F
100
AcDbEntity
  8
0
100
AcDbMText
 62
5
  6
CONTINUOUS
  7
TEXTSTYLE_7
 71
1
 72
1
 10
108.0
 20
-8.75
 30
0.0
 11
1.0
 21
0.0
 31
0.0
 44
0.9
  1
 Z 15
 40
7.5
 41
52.0
  0
ENDBLK
  5
340
100
AcDbEntity
  8
0
  6
BYBLOCK
 62
0
100
AcDbBlockEnd
  0
ENDSEC
  0
SECTION
  2
ENTITIES
  0
MTEXT
  5
341
100
AcDbEntity
  8
0
100
AcDbMText
 62
5
  6
CONTINUOUS
  7
TEXTSTYLE_2
 71
1
 72
1
 10
480.0
 20
28.436
 30
0.0
 11
1.0
 21
0.0
 31
0.0
 44
0.9
  1
\Q0.000019;Scale :
 40
2.8
 41
11.76
  0
MTEXT
  5
342
100
AcDbEntity
  8
0
100
AcDbMText
 62
5
  6
CONTINUOUS
  7
TEXTSTYLE_2
 71
1
 72
1
 10
500.0
 20
28.436
 30
0.0
 11
1.0
 21
0.0
 31
0.0
 44
0.9
  1
\Q0.000019;Chain type:
 40
2.8
 41
18.48
  0
INSERT
  5
343
100
AcDbEntity
  8
0
100
AcDbBlockReference
 62
2
  6
CONTINUOUS
  2
AMMEAAL_LOGO_BL0
 10
416.1419631151
 20
19.7009994242
  0
INSERT
  5
344
100
AcDbEntity
  8
0
100
AcDbBlockReference
 62
2
  6
CONTINUOUS
  2
UNI_LOGO2_BL1
 10
557.4079930916
 20
35.8092573885
  0
ACAD_TABLE
  5
345
100
AcDbEntity
  8
0
 62
2
  6
CONTINUOUS
100
AcDbBlockReference
  2
*T1
 10
394.0
 20
30.0
 30
0.0
100
AcDbTable
342
       420
343
214
 11
1.0
 21
0.0
 31
0.0
 90
22
 91
1
 92
3
 93
0
 94
0
 95
0
 96
0
141
20.0
142
85.0
142
20.0
142
85.0
171
1
172
0
173
0
174
0
175
1
176
1
 91
57
178
0
145
0.0
  7
TEXTSTYLE_5
301
CELL_VALUE
 90
4
  2
                                                                     Ammeraal Beltech Modular A/S\P\H1.5;                                                                      Hjulmagervej 21, 7100 Vejle,  DK\P\H1.495;                                 
  1
                                     tel: \H1.51;+45 75723100     fax: +45 75723348\P\H1.5;                                                                      admin@unichains.dk  www.unichains.com
304
ACVALUE_END
170
4
140
1.52
 64
5
171
1
172
0
173
0
174
0
175
1
176
1
 91
57
178
0
145
0.0
  7
TEXTSTYLE_6
301
CELL_VALUE
 90
4
  1
1:4
304
ACVALUE_END
170
8
140
5.0
 64
5
171
1
172
0
173
0
174
0
175
1
176
1
 91
57
178
0
145
0.0
  7
TEXTSTYLE_7
301
CELL_VALUE
 90
4
  1
 Z 15
304
ACVALUE_END
170
7
140
7.5
 64
5
  0
LINE
  5
346
100
AcDbEntity
  8
0
100
AcDbLine
 62
7
  6
CONTINUOUS
 10
-0.0
 20
-0.0
 11
-0.0
 21
420.0
  0
LINE
  5
347
100
AcDbEntity
  8
0
100
AcDbLine
 62
7
  6
CONTINUOUS
 10
10.0
 20
10.0
 11
10.0
 21
410.0
  0
LINE
  5
348
100
AcDbEntity
  8
0
100
AcDbLine
 62
7
  6
CONTINUOUS
 10
-0.0
 20
-0.0
 11
594.0
 21
-0.0
  0
LINE
  5
349
100
AcDbEntity
  8
0
100
AcDbLine
 62
7
  6
CONTINUOUS
 10
10.0
 20
10.0
 11
584.0
 21
10.0
  0
LINE
  5
34A
100
AcDbEntity
  8
0
100
AcDbLine
 62
7
  6
CONTINUOUS
 10
394.0
 20
30.0
 11
584.0
 21
30.0
  0
LINE
  5
34B
100
AcDbEntity
  8
0
100
AcDbLine
 62
7
  6
CONTINUOUS
 10
179.0
 20
5.0
 11
179.0
 21
10.0
  0
LINE
  5
34C
100
AcDbEntity
  8
0
100
AcDbLine
 62
7
  6
CONTINUOUS
 10
179.0
 20
410.0
 11
179.0
 21
415.0
  0
LINE
  5
34D
100
AcDbEntity
  8
0
100
AcDbLine
 62
7
  6
CONTINUOUS
 10
384.0
 20
410.0
 11
384.0
 21
415.0
  0
LINE
  5
34E
100
AcDbEntity
  8
0
100
AcDbLine
 62
7
  6
CONTINUOUS
 10
5.0
 20
297.0
 11
10.0
 21
297.0
  0
LINE
  5
34F
100
AcDbEntity
  8
0
100
AcDbLine
 62
7
  6
CONTINUOUS
 10
584.0
 20
297.0
 11
589.0
 21
297.0
  0
LINE
  5
350
100
AcDbEntity
  8
0
100
AcDbLine
 62
7
  6
CONTINUOUS
 10
10.0
 20
410.0
 11
584.0
 21
410.0
  0
LINE
  5
351
100
AcDbEntity
  8
0
100
AcDbLine
 62
7
  6
CONTINUOUS
 10
-0.0
 20
420.0
 11
594.0
 21
420.0
  0
LINE
  5
352
100
AcDbEntity
  8
0
100
AcDbLine
 62
7
  6
CONTINUOUS
 10
584.0
 20
10.0
 11
584.0
 21
410.0
  0
LINE
  5
353
100
AcDbEntity
  8
0
100
AcDbLine
 62
7
  6
CONTINUOUS
 10
594.0
 20
-0.0
 11
594.0
 21
420.0
  0
LINE
  5
354
100
AcDbEntity
  8
0
100
AcDbLine
 62
7
  6
CONTINUOUS
 10
175.5331260719
 20
349.7774122417
 11
175.4277795873
 21
347.7672815693
  0
LINE
  5
355
100
AcDbEntity
  8
0
100
AcDbLine
 62
7
  6
CONTINUOUS
 10
150.8333872461
 20
113.7672693049
 11
150.5185019904
 21
111.7791620448
  0
LINE
  5
356
100
AcDbEntity
  8
0
100
AcDbLine
 62
7
  6
CONTINUOUS
 10
225.491971321
 20
342.5237743284
 11
224.5781387166
 21
340.7302768588
  0
LINE
  5
357
100
AcDbEntity
  8
0
100
AcDbLine
 62
7
  6
CONTINUOUS
 10
106.9336638418
 20
136.9640691457
 11
105.8373657736
 21
135.2759181608
  0
LINE
  5
358
100
AcDbEntity
  8
0
100
AcDbLine
 62
7
  6
CONTINUOUS
 10
268.1813271324
 20
315.5771533527
 11
266.6170183675
 21
314.3104010919
  0
LINE
  5
359
100
AcDbEntity
  8
0
100
AcDbLine
 62
7
  6
CONTINUOUS
 10
76.2642594313
 20
176.0110264016
 11
74.5761084463
 21
174.9147283335
  0
LINE
  5
35A
100
AcDbEntity
  8
0
100
AcDbLine
 62
7
  6
CONTINUOUS
 10
63.7951014839
 20
208.0952559758
 11
65.8052321564
 21
208.2006024604
  0
LINE
  5
35B
100
AcDbEntity
  8
0
100
AcDbLine
 62
7
  6
CONTINUOUS
 10
301.0941819061
 20
208.2006024604
 11
303.1043125786
 21
208.0952559758
  0
LINE
  5
35C
100
AcDbEntity
  8
0
100
AcDbLine
 62
7
  6
CONTINUOUS
 10
65.7868818893
 20
258.5386330675
 11
67.6660759099
 21
257.8172780681
  0
LINE
  5
35D
100
AcDbEntity
  8
0
100
AcDbLine
 62
7
  6
CONTINUOUS
 10
282.6132271873
 20
162.1166404941
 11
284.4067246569
 21
161.2028078897
  0
LINE
  5
35E
100
AcDbEntity
  8
0
100
AcDbLine
 62
7
  6
CONTINUOUS
 10
88.1236336949
 20
303.8108210019
 11
89.5469613456
 21
302.3874933513
  0
LINE
  5
35F
100
AcDbEntity
  8
0
100
AcDbLine
 62
7
  6
CONTINUOUS
 10
246.9859989612
 20
127.5337278527
 11
248.252751222
 21
125.9694190878
  0
LINE
  5
360
100
AcDbEntity
  8
0
100
AcDbLine
 62
7
  6
CONTINUOUS
 10
126.9431295906
 20
336.0838472003
 11
127.66448459
 21
334.2046531797
  0
LINE
  5
361
100
AcDbEntity
  8
0
100
AcDbLine
 62
7
  6
CONTINUOUS
 10
200.3727686513
 20
110.431564308
 11
200.8937427293
 21
108.4872625793
  0
LINE
  5
362
100
AcDbEntity
  8
DEFAULT_1
100
AcDbLine
 62
2
  6
CENTER
 10
183.4497070312
 20
360.44069898
 11
183.4497070312
 21
230.6317494883
  0
LINE
  5
363
100
AcDbEntity
  8
0
100
AcDbLine
 62
2
  6
CONTINUOUS
 10
183.4497070312
 20
230.1166494883
 11
183.4497070312
 21
227.1466494883
  0
LINE
  5
364
100
AcDbEntity
  8
DEFAULT_1
100
AcDbLine
 62
2
  6
CENTER
 10
183.4497070312
 20
96.6864265191
 11
183.4497070312
 21
226.6315494883
  0
LINE
  5
365
100
AcDbEntity
  8
DEFAULT_1
100
AcDbLine
 62
2
  6
CENTER
 10
317.3157377775
 20
228.6316494883
 11
185.4498070313
 21
228.6316494883
  0
LINE
  5
366
100
AcDbEntity
  8
0
100
AcDbLine
 62
2
  6
CONTINUOUS
 10
184.9347070312
 20
228.6316494883
 11
181.9647070312
 21
228.6316494883
  0
LINE
  5
367
100
AcDbEntity
  8
DEFAULT_1
100
AcDbLine
 62
2
  6
CENTER
 10
51.3861723478
 20
228.6316494883
 11
181.4496070312
 21
228.6316494883
  0
LINE
  5
368
100
AcDbEntity
  8
0
100
AcDbLine
 62
7
  6
CONTINUOUS
 10
191.4716344752
 20
347.7672815693
 11
191.3662879906
 21
349.7774122417
  0
LINE
  5
369
100
AcDbEntity
  8
0
100
AcDbLine
 62
7
  6
CONTINUOUS
 10
166.0056713332
 20
108.4872625793
 11
166.5266454112
 21
110.431564308
  0
LINE
  5
36A
100
AcDbEntity
  8
0
100
AcDbLine
 62
7
  6
CONTINUOUS
 10
239.2349294725
 20
334.2046531797
 11
239.9562844719
 21
336.0838472003
  0
LINE
  5
36B
100
AcDbEntity
  8
0
100
AcDbLine
 62
7
  6
CONTINUOUS
 10
118.6466628405
 20
125.9694190878
 11
119.9134151013
 21
127.5337278527
  0
LINE
  5
36C
100
AcDbEntity
  8
0
100
AcDbLine
 62
7
  6
CONTINUOUS
 10
277.3524527169
 20
302.3874933513
 11
278.7757803676
 21
303.8108210019
  0
LINE
  5
36D
100
AcDbEntity
  8
0
100
AcDbLine
 62
7
  6
CONTINUOUS
 10
82.4926894056
 20
161.2028078897
 11
84.2861868752
 21
162.1166404941
  0
LINE
  5
36E
100
AcDbEntity
  8
0
100
AcDbLine
 62
7
  6
CONTINUOUS
 10
299.2333381526
 20
257.8172780681
 11
301.1125321732
 21
258.5386330675
  0
LINE
  5
36F
100
AcDbEntity
  8
0
100
AcDbLine
 62
7
  6
CONTINUOUS
 10
296.2198160656
 20
273.5968648838
 11
294.275514337
 21
273.0758908057
  0
LINE
  5
370
100
AcDbEntity
  8
0
100
AcDbLine
 62
7
  6
CONTINUOUS
 10
64.1281926601
 20
224.1565674325
 11
62.1400853999
 21
223.8416821768
  0
LINE
  5
371
100
AcDbEntity
  8
0
100
AcDbLine
 62
7
  6
CONTINUOUS
 10
304.7593286626
 20
223.8416821768
 11
302.7712214024
 21
224.1565674325
  0
LINE
  5
372
100
AcDbEntity
  8
0
100
AcDbLine
 62
7
  6
CONTINUOUS
 10
72.6238997255
 20
273.0758908057
 11
70.6795979969
 21
273.5968648838
  0
LINE
  5
373
100
AcDbEntity
  8
0
100
AcDbLine
 62
7
  6
CONTINUOUS
 10
292.3233056162
 20
174.9147283335
 11
290.6351546312
 21
176.0110264016
  0
LINE
  5
374
100
AcDbEntity
  8
0
100
AcDbLine
 62
7
  6
CONTINUOUS
 10
100.282395695
 20
314.3104010919
 11
98.7180869301
 21
315.5771533527
  0
LINE
  5
375
100
AcDbEntity
  8
0
100
AcDbLine
 62
7
  6
CONTINUOUS
 10
261.0620482889
 20
135.2759181608
 11
259.9657502207
 21
136.9640691457
  0
LINE
  5
376
100
AcDbEntity
  8
0
100
AcDbLine
 62
7
  6
CONTINUOUS
 10
142.3212753459
 20
340.7302768588
 11
141.4074427415
 21
342.5237743284
  0
LINE
  5
377
100
AcDbEntity
  8
0
100
AcDbLine
 62
7
  6
CONTINUOUS
 10
216.3809120721
 20
111.7791620448
 11
216.0660268164
 21
113.7672693049
  0
LINE
  5
378
100
AcDbEntity
  8
0
100
AcDbLine
 62
7
  6
CONTINUOUS
 10
408.1411132813
 20
105.5225387597
 11
425.1411132813
 21
105.5225387597
  0
LINE
  5
379
100
AcDbEntity
  8
0
100
AcDbLine
 62
7
  6
CONTINUOUS
 10
408.1411132813
 20
124.486700652
 11
425.1411132813
 21
124.486700652
  0
LINE
  5
37A
100
AcDbEntity
  8
0
100
AcDbLine
 62
7
  6
CONTINUOUS
 10
408.1411132813
 20
160.7668339865
 11
425.1411132813
 21
160.7668339865
  0
LINE
  5
37B
100
AcDbEntity
  8
0
100
AcDbLine
 62
7
  6
CONTINUOUS
 10
398.4911132813
 20
196.1316494883
 11
404.1411132813
 21
196.1316494883
  0
LINE
  5
37C
100
AcDbEntity
  8
0
100
AcDbLine
 62
7
  6
CONTINUOUS
 10
429.1411132813
 20
196.1316494883
 11
434.7911132813
 21
196.1316494883
  0
LINE
  5
37D
100
AcDbEntity
  8
0
100
AcDbLine
 62
7
  6
CONTINUOUS
 10
395.4911132813
 20
258.1316494883
 11
395.4911132813
 21
199.1316494883
  0
LINE
  5
37E
100
AcDbEntity
  8
0
100
AcDbLine
 62
7
  6
CONTINUOUS
 10
408.1411132813
 20
208.0897741149
 11
425.1411132813
 21
208.0897741149
  0
LINE
  5
37F
100
AcDbEntity
  8
0
100
AcDbLine
 62
7
  6
CONTINUOUS
 10
404.1411132813
 20
109.5225387597
 11
404.1411132813
 21
349.6316494883
  0
LINE
  5
380
100
AcDbEntity
  8
DEFAULT_1
100
AcDbLine
 62
2
  6
CENTER
 10
393.4911132813
 20
228.6316494883
 11
439.7911132813
 21
228.6316494883
  0
LINE
  5
381
100
AcDbEntity
  8
0
100
AcDbLine
 62
7
  6
CONTINUOUS
 10
429.1411132812
 20
349.6316494883
 11
429.1411132812
 21
109.5225387656
  0
LINE
  5
382
100
AcDbEntity
  8
0
100
AcDbLine
 62
7
  6
CONTINUOUS
 10
437.7911132812
 20
258.1316468346
 11
437.7911132812
 21
199.1316494883
  0
LINE
  5
383
100
AcDbEntity
  8
0
100
AcDbLine
 62
7
  6
CONTINUOUS
 10
398.4911132813
 20
261.1316494883
 11
404.1411132813
 21
261.1316494883
  0
LINE
  5
384
100
AcDbEntity
  8
0
100
AcDbLine
 62
7
  6
CONTINUOUS
 10
429.1411132813
 20
261.1316494883
 11
434.7911132813
 21
261.1316494883
  0
LINE
  5
385
100
AcDbEntity
  8
0
100
AcDbLine
 62
7
  6
CONTINUOUS
 10
408.1411132813
 20
273.7331615786
 11
425.1411132813
 21
273.7331615786
  0
LINE
  5
386
100
AcDbEntity
  8
0
100
AcDbLine
 62
7
  6
CONTINUOUS
 10
408.1411132813
 20
316.4685695069
 11
425.1411132813
 21
316.4685695069
  0
LINE
  5
387
100
AcDbEntity
  8
0
100
AcDbLine
 62
7
  6
CONTINUOUS
 10
408.1411132813
 20
344.7078123294
 11
425.1411132813
 21
344.7078123294
  0
LINE
  5
388
100
AcDbEntity
  8
0
100
AcDbLine
 62
7
  6
CONTINUOUS
 10
408.1411132813
 20
353.6316494883
 11
425.1411132813
 21
353.6316494883
  0
LINE
  5
389
100
AcDbEntity
  8
0
100
AcDbLine
 62
7
  6
CONTINUOUS
 10
58.76582326
 20
59.2685546875
 11
58.76582326
 21
42.2685546875
  0
LINE
  5
38A
100
AcDbEntity
  8
0
100
AcDbLine
 62
7
  6
CONTINUOUS
 10
63.2203536875
 20
59.2685546875
 11
63.2203536875
 21
42.2685546875
  0
LINE
  5
38B
100
AcDbEntity
  8
0
100
AcDbLine
 62
7
  6
CONTINUOUS
 10
86.9520608197
 20
59.2685546875
 11
86.9520608197
 21
42.2685546875
  0
LINE
  5
38C
100
AcDbEntity
  8
0
100
AcDbLine
 62
7
  6
CONTINUOUS
 10
126.6774512966
 20
59.2685546875
 11
126.6774512966
 21
42.2685546875
  0
LINE
  5
38D
100
AcDbEntity
  8
0
100
AcDbLine
 62
7
  6
CONTINUOUS
 10
150.9497070312
 20
68.9185546875
 11
150.9497070312
 21
63.2685546875
  0
LINE
  5
38E
100
AcDbEntity
  8
0
100
AcDbLine
 62
7
  6
CONTINUOUS
 10
150.9497070312
 20
38.2685546875
 11
150.9497070312
 21
32.6185546875
  0
LINE
  5
38F
100
AcDbEntity
  8
0
100
AcDbLine
 62
7
  6
CONTINUOUS
 10
212.9497070312
 20
29.6185546875
 11
153.9497070312
 21
29.6185546875
  0
LINE
  5
390
100
AcDbEntity
  8
0
100
AcDbLine
 62
7
  6
CONTINUOUS
 10
304.1335907964
 20
38.2685546875
 11
62.7658232602
 21
38.2685546875
  0
LINE
  5
391
100
AcDbEntity
  8
DEFAULT_1
100
AcDbLine
 62
2
  6
CENTER
 10
183.4497070312
 20
27.6185546875
 11
183.4497070312
 21
73.9185546875
  0
LINE
  5
392
100
AcDbEntity
  8
0
100
AcDbLine
 62
7
  6
CONTINUOUS
 10
62.7658232661
 20
63.2685546875
 11
304.1335908024
 21
63.2685546875
  0
LINE
  5
393
100
AcDbEntity
  8
0
100
AcDbLine
 62
7
  6
CONTINUOUS
 10
153.9497070312
 20
71.9185546875
 11
212.9497070312
 21
71.9185546875
  0
LINE
  5
394
100
AcDbEntity
  8
0
100
AcDbLine
 62
7
  6
CONTINUOUS
 10
215.9497070312
 20
68.9185546875
 11
215.9497070312
 21
63.2685546875
  0
LINE
  5
395
100
AcDbEntity
  8
0
100
AcDbLine
 62
7
  6
CONTINUOUS
 10
215.9497070312
 20
38.2685546875
 11
215.9497070312
 21
32.6185546875
  0
LINE
  5
396
100
AcDbEntity
  8
0
100
AcDbLine
 62
7
  6
CONTINUOUS
 10
240.2219627659
 20
59.2685546875
 11
240.2219627659
 21
42.2685546875
  0
LINE
  5
397
100
AcDbEntity
  8
0
100
AcDbLine
 62
7
  6
CONTINUOUS
 10
279.9473532428
 20
59.2685546875
 11
279.9473532428
 21
42.2685546875
  0
LINE
  5
398
100
AcDbEntity
  8
0
100
AcDbLine
 62
7
  6
CONTINUOUS
 10
303.679060375
 20
59.2685546875
 11
303.679060375
 21
42.2685546875
  0
LINE
  5
399
100
AcDbEntity
  8
0
100
AcDbLine
 62
7
  6
CONTINUOUS
 10
308.1335908025
 20
59.2685546875
 11
308.1335908025
 21
42.2685546875
  0
ARC
  5
39A
100
AcDbEntity
  8
0
100
AcDbCircle
 62
7
  6
CONTINUOUS
 10
135.0303737966
 20
116.2702207456
 40
16.0
100
AcDbArc
 50
351.0
 51
66.6875885232
  0
ARC
  5
39B
100
AcDbEntity
  8
0
100
AcDbCircle
 62
7
  6
CONTINUOUS
 10
181.9814586318
 20
106.2904595863
 40
16.0
100
AcDbArc
 50
89.3124114768
 51
165.0
  0
ARC
  5
39C
100
AcDbEntity
  8
0
100
AcDbCircle
 62
7
  6
CONTINUOUS
 10
93.5149347546
 20
145.678293706
 40
16.0
100
AcDbArc
 50
327.0
 51
42.6875885232
  0
ARC
  5
39D
100
AcDbEntity
  8
0
100
AcDbCircle
 62
7
  6
CONTINUOUS
 10
132.3477504846
 20
117.4646015959
 40
16.0
100
AcDbArc
 50
65.3124114768
 51
141.0
  0
ARC
  5
39E
100
AcDbEntity
  8
0
100
AcDbCircle
 62
7
  6
CONTINUOUS
 10
67.550034871
 20
189.4297554887
 40
16.0
100
AcDbArc
 50
303.0
 51
18.6875885232
  0
ARC
  5
39F
100
AcDbEntity
  8
0
100
AcDbCircle
 62
7
  6
CONTINUOUS
 10
91.550034871
 20
147.8605361071
 40
16.0
100
AcDbArc
 50
41.3124114768
 51
117.0
  0
ARC
  5
3A0
100
AcDbEntity
  8
0
100
AcDbCircle
 62
7
  6
CONTINUOUS
 10
66.6426074563
 20
192.2225299044
 40
16.0
100
AcDbArc
 50
17.3124114768
 51
93.0
  0
ARC
  5
3A1
100
AcDbEntity
  8
0
100
AcDbCircle
 62
7
  6
CONTINUOUS
 10
154.4692553528
 20
111.1534241846
 40
4.0
100
AcDbArc
 50
171.0
 51
256.1425040069
  0
ARC
  5
3A2
100
AcDbEntity
  8
0
100
AcDbCircle
 62
7
  6
CONTINUOUS
 10
162.141968028
 20
109.5225387597
 40
4.0
100
AcDbArc
 50
259.8574959931
 51
345.0
  0
ARC
  5
3A3
100
AcDbEntity
  8
0
100
AcDbCircle
 62
7
  6
CONTINUOUS
 10
109.1920480454
 20
133.0973620207
 40
4.0
100
AcDbArc
 50
147.0
 51
232.1425040069
  0
ARC
  5
3A4
100
AcDbEntity
  8
0
100
AcDbCircle
 62
7
  6
CONTINUOUS
 10
115.5380789947
 20
128.486700652
 40
4.0
100
AcDbArc
 50
235.8574959931
 51
321.0
  0
ARC
  5
3A5
100
AcDbEntity
  8
0
100
AcDbCircle
 62
7
  6
CONTINUOUS
 10
76.7546645864
 20
171.5600460617
 40
4.0
100
AcDbArc
 50
123.0
 51
208.1425040069
  0
ARC
  5
3A6
100
AcDbEntity
  8
0
100
AcDbCircle
 62
7
  6
CONTINUOUS
 10
80.6767274067
 20
164.7668339865
 40
4.0
100
AcDbArc
 50
211.8574959931
 51
297.0
  0
ARC
  5
3A7
100
AcDbEntity
  8
0
100
AcDbCircle
 62
7
  6
CONTINUOUS
 10
62.76582326
 20
219.8909288144
 40
4.0
100
AcDbArc
 50
99.0
 51
184.1425040069
  0
ARC
  5
3A8
100
AcDbEntity
  8
0
100
AcDbCircle
 62
7
  6
CONTINUOUS
 10
63.5857576589
 20
212.0897741149
 40
4.0
100
AcDbArc
 50
187.8574959931
 51
273.0
  0
ARC
  5
3A9
100
AcDbEntity
  8
0
100
AcDbCircle
 62
7
  6
CONTINUOUS
 10
159.4497070312
 20
348.6046568692
 40
16.0
100
AcDbArc
 50
281.3124114768
 51
357.0
  0
ARC
  5
3AA
100
AcDbEntity
  8
0
100
AcDbCircle
 62
7
  6
CONTINUOUS
 10
112.727197766
 20
328.470765987
 40
16.0
100
AcDbArc
 50
305.3124114768
 51
21.0
  0
ARC
  5
3AB
100
AcDbEntity
  8
0
100
AcDbCircle
 62
7
  6
CONTINUOUS
 10
156.5773797329
 20
347.9941248546
 40
16.0
100
AcDbArc
 50
207.0
 51
282.6875885232
  0
ARC
  5
3AC
100
AcDbEntity
  8
0
100
AcDbCircle
 62
7
  6
CONTINUOUS
 10
78.2332528466
 20
291.0737848523
 40
16.0
100
AcDbArc
 50
329.3124114768
 51
45.0
  0
ARC
  5
3AD
100
AcDbEntity
  8
0
100
AcDbCircle
 62
7
  6
CONTINUOUS
 10
110.3515219518
 20
326.7447364752
 40
16.0
100
AcDbArc
 50
231.0
 51
306.6875885232
  0
ARC
  5
3AE
100
AcDbEntity
  8
0
100
AcDbCircle
 62
7
  6
CONTINUOUS
 10
61.9321887172
 20
242.8799912442
 40
16.0
100
AcDbArc
 50
353.3124114768
 51
69.0
  0
ARC
  5
3AF
100
AcDbEntity
  8
0
100
AcDbCircle
 62
7
  6
CONTINUOUS
 10
76.7650044472
 20
288.5307040264
 40
16.0
100
AcDbArc
 50
255.0
 51
330.6875885232
  0
ARC
  5
3B0
100
AcDbEntity
  8
0
100
AcDbCircle
 62
7
  6
CONTINUOUS
 10
61.6252412194
 20
239.9595808821
 40
16.0
100
AcDbArc
 50
279.0
 51
354.6875885232
  0
ARC
  5
3B1
100
AcDbEntity
  8
0
100
AcDbCircle
 62
7
  6
CONTINUOUS
 10
179.527644211
 20
349.5680684168
 40
4.0
100
AcDbArc
 50
91.8574959931
 51
177.0
  0
ARC
  5
3B2
100
AcDbEntity
  8
0
100
AcDbCircle
 62
7
  6
CONTINUOUS
 10
130.6774512966
 20
337.5173189985
 40
4.0
100
AcDbArc
 50
115.8574959931
 51
201.0
  0
ARC
  5
3B3
100
AcDbEntity
  8
0
100
AcDbCircle
 62
7
  6
CONTINUOUS
 10
137.8434166448
 20
340.7078123294
 40
4.0
100
AcDbArc
 50
27.0
 51
112.1425040069
  0
ARC
  5
3B4
100
AcDbEntity
  8
0
100
AcDbCircle
 62
7
  6
CONTINUOUS
 10
90.9520608197
 20
306.6392481267
 40
4.0
100
AcDbArc
 50
139.8574959931
 51
225.0
  0
ARC
  5
3B5
100
AcDbEntity
  8
0
100
AcDbCircle
 62
7
  6
CONTINUOUS
 10
96.2008053659
 20
312.4685695069
 40
4.0
100
AcDbArc
 50
51.0
 51
136.1425040069
  0
ARC
  5
3B6
100
AcDbEntity
  8
0
100
AcDbCircle
 62
7
  6
CONTINUOUS
 10
67.2203536875
 20
262.2729547735
 40
4.0
100
AcDbArc
 50
163.8574959931
 51
249.0
  0
ARC
  5
3B7
100
AcDbEntity
  8
0
100
AcDbCircle
 62
7
  6
CONTINUOUS
 10
69.6443218164
 20
269.7331615786
 40
4.0
100
AcDbArc
 50
75.0
 51
160.1425040069
  0
ARC
  5
3B8
100
AcDbEntity
  8
0
100
AcDbCircle
 62
7
  6
CONTINUOUS
 10
300.2568066062
 20
192.2225299044
 40
16.0
100
AcDbArc
 50
87.0
 51
162.6875885232
  0
ARC
  5
3B9
100
AcDbEntity
  8
0
100
AcDbCircle
 62
7
  6
CONTINUOUS
 10
275.3493791915
 20
147.8605361071
 40
16.0
100
AcDbArc
 50
63.0
 51
138.6875885232
  0
ARC
  5
3BA
100
AcDbEntity
  8
0
100
AcDbCircle
 62
7
  6
CONTINUOUS
 10
299.3493791915
 20
189.4297554887
 40
16.0
100
AcDbArc
 50
161.3124114768
 51
237.0
  0
ARC
  5
3BB
100
AcDbEntity
  8
0
100
AcDbCircle
 62
7
  6
CONTINUOUS
 10
234.5516635779
 20
117.4646015959
 40
16.0
100
AcDbArc
 50
39.0
 51
114.6875885232
  0
ARC
  5
3BC
100
AcDbEntity
  8
0
100
AcDbCircle
 62
7
  6
CONTINUOUS
 10
273.3844793079
 20
145.678293706
 40
16.0
100
AcDbArc
 50
137.3124114768
 51
213.0
  0
ARC
  5
3BD
100
AcDbEntity
  8
0
100
AcDbCircle
 62
7
  6
CONTINUOUS
 10
184.9179554307
 20
106.2904595863
 40
16.0
100
AcDbArc
 50
15.0
 51
90.6875885232
  0
ARC
  5
3BE
100
AcDbEntity
  8
0
100
AcDbCircle
 62
7
  6
CONTINUOUS
 10
231.8690402659
 20
116.2702207456
 40
16.0
100
AcDbArc
 50
113.3124114768
 51
189.0
  0
ARC
  5
3BF
100
AcDbEntity
  8
0
100
AcDbCircle
 62
7
  6
CONTINUOUS
 10
303.3136564036
 20
212.0897741149
 40
4.0
100
AcDbArc
 50
267.0
 51
352.1425040069
  0
ARC
  5
3C0
100
AcDbEntity
  8
0
100
AcDbCircle
 62
7
  6
CONTINUOUS
 10
304.1335908025
 20
219.8909288144
 40
4.0
100
AcDbArc
 50
355.8574959931
 51
81.0
  0
ARC
  5
3C1
100
AcDbEntity
  8
0
100
AcDbCircle
 62
7
  6
CONTINUOUS
 10
286.2226866558
 20
164.7668339865
 40
4.0
100
AcDbArc
 50
243.0
 51
328.1425040069
  0
ARC
  5
3C2
100
AcDbEntity
  8
0
100
AcDbCircle
 62
7
  6
CONTINUOUS
 10
290.1447494761
 20
171.5600460617
 40
4.0
100
AcDbArc
 50
331.8574959931
 51
57.0
  0
ARC
  5
3C3
100
AcDbEntity
  8
0
100
AcDbCircle
 62
7
  6
CONTINUOUS
 10
251.3613350678
 20
128.486700652
 40
4.0
100
AcDbArc
 50
219.0
 51
304.1425040069
  0
ARC
  5
3C4
100
AcDbEntity
  8
0
100
AcDbCircle
 62
7
  6
CONTINUOUS
 10
257.7073660171
 20
133.0973620207
 40
4.0
100
AcDbArc
 50
307.8574959931
 51
33.0
  0
ARC
  5
3C5
100
AcDbEntity
  8
0
100
AcDbCircle
 62
7
  6
CONTINUOUS
 10
204.7574460345
 20
109.5225387597
 40
4.0
100
AcDbArc
 50
195.0
 51
280.1425040069
  0
ARC
  5
3C6
100
AcDbEntity
  8
0
100
AcDbCircle
 62
7
  6
CONTINUOUS
 10
212.4301587097
 20
111.1534241846
 40
4.0
100
AcDbArc
 50
283.8574959931
 51
9.0
  0
ARC
  5
3C7
100
AcDbEntity
  8
0
100
AcDbCircle
 62
7
  6
CONTINUOUS
 10
183.4497070312
 20
228.6316494883
 40
125.0
100
AcDbArc
 50
64.1425040069
 51
67.8574959931
  0
ARC
  5
3C8
100
AcDbEntity
  8
0
100
AcDbCircle
 62
7
  6
CONTINUOUS
 10
183.4497070312
 20
228.6316494883
 40
125.0
100
AcDbArc
 50
40.1425040069
 51
43.8574959931
  0
ARC
  5
3C9
100
AcDbEntity
  8
0
100
AcDbCircle
 62
7
  6
CONTINUOUS
 10
183.4497070312
 20
228.6316494883
 40
125.0
100
AcDbArc
 50
16.1425040069
 51
19.8574959931
  0
ARC
  5
3CA
100
AcDbEntity
  8
0
100
AcDbCircle
 62
7
  6
CONTINUOUS
 10
183.4497070312
 20
228.6316494883
 40
125.0
100
AcDbArc
 50
88.1425040069
 51
91.8574959931
  0
ARC
  5
3CB
100
AcDbEntity
  8
0
100
AcDbCircle
 62
7
  6
CONTINUOUS
 10
183.4497070312
 20
228.6316494883
 40
125.0
100
AcDbArc
 50
352.1425040069
 51
355.8574959931
  0
ARC
  5
3CC
100
AcDbEntity
  8
0
100
AcDbCircle
 62
7
  6
CONTINUOUS
 10
183.4497070312
 20
228.6316494883
 40
125.0
100
AcDbArc
 50
328.1425040069
 51
331.8574959931
  0
ARC
  5
3CD
100
AcDbEntity
  8
0
100
AcDbCircle
 62
7
  6
CONTINUOUS
 10
183.4497070312
 20
228.6316494883
 40
125.0
100
AcDbArc
 50
112.1425040069
 51
115.8574959931
  0
ARC
  5
3CE
100
AcDbEntity
  8
0
100
AcDbCircle
 62
7
  6
CONTINUOUS
 10
183.4497070312
 20
228.6316494883
 40
125.0
100
AcDbArc
 50
304.1425040069
 51
307.8574959931
  0
ARC
  5
3CF
100
AcDbEntity
  8
0
100
AcDbCircle
 62
7
  6
CONTINUOUS
 10
183.4497070312
 20
228.6316494883
 40
125.0
100
AcDbArc
 50
280.1425040069
 51
283.8574959931
  0
ARC
  5
3D0
100
AcDbEntity
  8
0
100
AcDbCircle
 62
7
  6
CONTINUOUS
 10
183.4497070312
 20
228.6316494883
 40
125.0
100
AcDbArc
 50
136.1425040069
 51
139.8574959931
  0
ARC
  5
3D1
100
AcDbEntity
  8
0
100
AcDbCircle
 62
7
  6
CONTINUOUS
 10
183.4497070312
 20
228.6316494883
 40
125.0
100
AcDbArc
 50
256.1425040069
 51
259.8574959931
  0
ARC
  5
3D2
100
AcDbEntity
  8
0
100
AcDbCircle
 62
7
  6
CONTINUOUS
 10
183.4497070312
 20
228.6316494883
 40
125.0
100
AcDbArc
 50
232.1425040069
 51
235.8574959931
  0
ARC
  5
3D3
100
AcDbEntity
  8
0
100
AcDbCircle
 62
7
  6
CONTINUOUS
 10
183.4497070312
 20
228.6316494883
 40
125.0
100
AcDbArc
 50
160.1425040069
 51
163.8574959931
  0
ARC
  5
3D4
100
AcDbEntity
  8
0
100
AcDbCircle
 62
7
  6
CONTINUOUS
 10
183.4497070312
 20
228.6316494883
 40
125.0
100
AcDbArc
 50
208.1425040069
 51
211.8574959931
  0
ARC
  5
3D5
100
AcDbEntity
  8
0
100
AcDbCircle
 62
7
  6
CONTINUOUS
 10
183.4497070312
 20
228.6316494883
 40
125.0
100
AcDbArc
 50
184.1425040069
 51
187.8574959931
  0
ARC
  5
3D6
100
AcDbEntity
  8
0
100
AcDbCircle
 62
7
  6
CONTINUOUS
 10
183.4497070312
 20
228.6316494883
 40
106.35
100
AcDbArc
 50
53.3124114768
 51
54.6875885232
  0
ARC
  5
3D7
100
AcDbEntity
  8
0
100
AcDbCircle
 62
7
  6
CONTINUOUS
 10
183.4497070312
 20
228.6316494883
 40
106.35
100
AcDbArc
 50
77.3124114768
 51
78.6875885232
  0
ARC
  5
3D8
100
AcDbEntity
  8
0
100
AcDbCircle
 62
7
  6
CONTINUOUS
 10
183.4497070312
 20
228.6316494883
 40
106.35
100
AcDbArc
 50
29.3124114768
 51
30.6875885232
  0
ARC
  5
3D9
100
AcDbEntity
  8
0
100
AcDbCircle
 62
7
  6
CONTINUOUS
 10
183.4497070312
 20
228.6316494883
 40
106.35
100
AcDbArc
 50
5.3124114768
 51
6.6875885232
  0
ARC
  5
3DA
100
AcDbEntity
  8
0
100
AcDbCircle
 62
7
  6
CONTINUOUS
 10
183.4497070312
 20
228.6316494883
 40
106.35
100
AcDbArc
 50
341.3124114768
 51
342.6875885232
  0
ARC
  5
3DB
100
AcDbEntity
  8
0
100
AcDbCircle
 62
7
  6
CONTINUOUS
 10
183.4497070312
 20
228.6316494883
 40
106.35
100
AcDbArc
 50
317.3124114768
 51
318.6875885232
  0
ARC
  5
3DC
100
AcDbEntity
  8
0
100
AcDbCircle
 62
7
  6
CONTINUOUS
 10
183.4497070312
 20
228.6316494883
 40
106.35
100
AcDbArc
 50
293.3124114768
 51
294.6875885232
  0
ARC
  5
3DD
100
AcDbEntity
  8
0
100
AcDbCircle
 62
7
  6
CONTINUOUS
 10
183.4497070312
 20
228.6316494883
 40
106.35
100
AcDbArc
 50
269.3124114768
 51
270.6875885232
  0
ARC
  5
3DE
100
AcDbEntity
  8
0
100
AcDbCircle
 62
7
  6
CONTINUOUS
 10
183.4497070312
 20
228.6316494883
 40
106.35
100
AcDbArc
 50
101.3124114768
 51
102.6875885232
  0
ARC
  5
3DF
100
AcDbEntity
  8
0
100
AcDbCircle
 62
7
  6
CONTINUOUS
 10
183.4497070312
 20
228.6316494883
 40
106.35
100
AcDbArc
 50
245.3124114768
 51
246.6875885232
  0
ARC
  5
3E0
100
AcDbEntity
  8
0
100
AcDbCircle
 62
7
  6
CONTINUOUS
 10
183.4497070312
 20
228.6316494883
 40
106.35
100
AcDbArc
 50
221.3124114768
 51
222.6875885232
  0
ARC
  5
3E1
100
AcDbEntity
  8
0
100
AcDbCircle
 62
7
  6
CONTINUOUS
 10
183.4497070312
 20
228.6316494883
 40
106.35
100
AcDbArc
 50
125.3124114768
 51
126.6875885232
  0
ARC
  5
3E2
100
AcDbEntity
  8
0
100
AcDbCircle
 62
7
  6
CONTINUOUS
 10
183.4497070312
 20
228.6316494883
 40
106.35
100
AcDbArc
 50
197.3124114768
 51
198.6875885232
  0
ARC
  5
3E3
100
AcDbEntity
  8
0
100
AcDbCircle
 62
7
  6
CONTINUOUS
 10
183.4497070312
 20
228.6316494883
 40
106.35
100
AcDbArc
 50
173.3124114768
 51
174.6875885232
  0
ARC
  5
3E4
100
AcDbEntity
  8
0
100
AcDbCircle
 62
7
  6
CONTINUOUS
 10
183.4497070312
 20
228.6316494883
 40
106.35
100
AcDbArc
 50
149.3124114768
 51
150.6875885232
  0
CIRCLE
  5
3E5
100
AcDbEntity
  8
0
100
AcDbCircle
 62
7
  6
CONTINUOUS
 10
183.4497070312
 20
228.6316494883
 40
32.5
  0
ARC
  5
3E6
100
AcDbEntity
  8
0
100
AcDbCircle
 62
7
  6
CONTINUOUS
 10
210.3220343296
 20
347.9941248546
 40
16.0
100
AcDbArc
 50
257.3124114768
 51
333.0
  0
ARC
  5
3E7
100
AcDbEntity
  8
0
100
AcDbCircle
 62
7
  6
CONTINUOUS
 10
207.4497070312
 20
348.6046568692
 40
16.0
100
AcDbArc
 50
183.0
 51
258.6875885232
  0
ARC
  5
3E8
100
AcDbEntity
  8
0
100
AcDbCircle
 62
7
  6
CONTINUOUS
 10
236.2219627659
 20
337.5173189985
 40
4.0
100
AcDbArc
 50
339.0
 51
64.1425040069
  0
ARC
  5
3E9
100
AcDbEntity
  8
0
100
AcDbCircle
 62
7
  6
CONTINUOUS
 10
229.0559974177
 20
340.7078123294
 40
4.0
100
AcDbArc
 50
67.8574959931
 51
153.0
  0
ARC
  5
3EA
100
AcDbEntity
  8
0
100
AcDbCircle
 62
7
  6
CONTINUOUS
 10
187.3717698515
 20
349.5680684168
 40
4.0
100
AcDbArc
 50
3.0
 51
88.1425040069
  0
ARC
  5
3EB
100
AcDbEntity
  8
0
100
AcDbCircle
 62
7
  6
CONTINUOUS
 10
304.9672253453
 20
242.8799912442
 40
16.0
100
AcDbArc
 50
111.0
 51
186.6875885232
  0
ARC
  5
3EC
100
AcDbEntity
  8
0
100
AcDbCircle
 62
7
  6
CONTINUOUS
 10
290.1344096153
 20
288.5307040264
 40
16.0
100
AcDbArc
 50
209.3124114768
 51
285.0
  0
ARC
  5
3ED
100
AcDbEntity
  8
0
100
AcDbCircle
 62
7
  6
CONTINUOUS
 10
305.2741728431
 20
239.9595808821
 40
16.0
100
AcDbArc
 50
185.3124114768
 51
261.0
  0
ARC
  5
3EE
100
AcDbEntity
  8
0
100
AcDbCircle
 62
7
  6
CONTINUOUS
 10
299.679060375
 20
262.2729547735
 40
4.0
100
AcDbArc
 50
291.0
 51
16.1425040069
  0
ARC
  5
3EF
100
AcDbEntity
  8
0
100
AcDbCircle
 62
7
  6
CONTINUOUS
 10
297.2550922461
 20
269.7331615786
 40
4.0
100
AcDbArc
 50
19.8574959931
 51
105.0
  0
ARC
  5
3F0
100
AcDbEntity
  8
0
100
AcDbCircle
 62
7
  6
CONTINUOUS
 10
254.1722162965
 20
328.470765987
 40
16.0
100
AcDbArc
 50
159.0
 51
234.6875885232
  0
ARC
  5
3F1
100
AcDbEntity
  8
0
100
AcDbCircle
 62
7
  6
CONTINUOUS
 10
288.6661612159
 20
291.0737848523
 40
16.0
100
AcDbArc
 50
135.0
 51
210.6875885232
  0
ARC
  5
3F2
100
AcDbEntity
  8
0
100
AcDbCircle
 62
7
  6
CONTINUOUS
 10
256.5478921107
 20
326.7447364752
 40
16.0
100
AcDbArc
 50
233.3124114768
 51
309.0
  0
ARC
  5
3F3
100
AcDbEntity
  8
0
100
AcDbCircle
 62
7
  6
CONTINUOUS
 10
275.9473532428
 20
306.6392481267
 40
4.0
100
AcDbArc
 50
315.0
 51
40.1425040069
  0
ARC
  5
3F4
100
AcDbEntity
  8
0
100
AcDbCircle
 62
7
  6
CONTINUOUS
 10
270.6986086966
 20
312.4685695069
 40
4.0
100
AcDbArc
 50
43.8574959931
 51
129.0
  0
ARC
  5
3F5
100
AcDbEntity
  8
0
100
AcDbCircle
 62
7
  6
CONTINUOUS
 10
425.1411131117
 20
340.7078121608
 40
4.0000001696
100
AcDbArc
 50
0.0000024153
 51
89.9999975616
  0
ARC
  5
3F6
100
AcDbEntity
  8
0
100
AcDbCircle
 62
7
  6
CONTINUOUS
 10
408.1411134024
 20
164.7668341283
 40
4.0000001212
100
AcDbArc
 50
180.000002031
 51
269.9999982646
  0
ARC
  5
3F7
100
AcDbEntity
  8
0
100
AcDbCircle
 62
7
  6
CONTINUOUS
 10
425.1411131596
 20
212.089774238
 40
4.0000001216
100
AcDbArc
 50
270.0000017419
 51
359.9999982354
  0
ARC
  5
3F8
100
AcDbEntity
  8
0
100
AcDbCircle
 62
7
  6
CONTINUOUS
 10
425.1411132031
 20
128.4867007782
 40
4.0000000782
100
AcDbArc
 50
270.00000112
 51
359.9999981929
  0
ARC
  5
3F9
100
AcDbEntity
  8
0
100
AcDbCircle
 62
7
  6
CONTINUOUS
 10
425.1411132516
 20
312.4685694566
 40
4.0000000296
100
AcDbArc
 50
0.0000007197
 51
89.9999944329
  0
ARC
  5
3FA
100
AcDbEntity
  8
0
100
AcDbCircle
 62
7
  6
CONTINUOUS
 10
408.1411132813
 20
349.6316494883
 40
4.0
100
AcDbArc
 50
90.0
 51
180.0
  0
ARC
  5
3FB
100
AcDbEntity
  8
0
100
AcDbCircle
 62
7
  6
CONTINUOUS
 10
425.1411132813
 20
349.6316494883
 40
4.0
100
AcDbArc
 50
0.0
 51
90.0
  0
ARC
  5
3FC
100
AcDbEntity
  8
0
100
AcDbCircle
 62
7
  6
CONTINUOUS
 10
425.1411132856
 20
269.7331615485
 40
3.9999999957
100
AcDbArc
 50
0.0000004321
 51
90.0000000618
  0
ARC
  5
3FD
100
AcDbEntity
  8
0
100
AcDbCircle
 62
7
  6
CONTINUOUS
 10
425.1411132887
 20
164.7668340328
 40
3.9999999926
100
AcDbArc
 50
269.9999998703
 51
359.9999993367
  0
ARC
  5
3FE
100
AcDbEntity
  8
0
100
AcDbCircle
 62
7
  6
CONTINUOUS
 10
408.1411132533
 20
109.5225388475
 40
3.999999972
100
AcDbArc
 50
180.0000012576
 51
270.0000003946
  0
ARC
  5
3FF
100
AcDbEntity
  8
0
100
AcDbCircle
 62
7
  6
CONTINUOUS
 10
408.1411132069
 20
340.7078123393
 40
3.9999999257
100
AcDbArc
 50
89.9999989354
 51
180.0000001415
  0
ARC
  5
400
100
AcDbEntity
  8
0
100
AcDbCircle
 62
7
  6
CONTINUOUS
 10
408.1411131987
 20
312.4685695131
 40
3.9999999174
100
AcDbArc
 50
89.9999988166
 51
180.0000000893
  0
ARC
  5
401
100
AcDbEntity
  8
0
100
AcDbCircle
 62
7
  6
CONTINUOUS
 10
408.1411131963
 20
128.4867006504
 40
3.999999915
100
AcDbArc
 50
179.9999999769
 51
270.0000012126
  0
ARC
  5
402
100
AcDbEntity
  8
0
100
AcDbCircle
 62
7
  6
CONTINUOUS
 10
408.1411131867
 20
212.089774076
 40
3.9999999055
100
AcDbArc
 50
179.9999994439
 51
270.000001354
  0
ARC
  5
403
100
AcDbEntity
  8
0
100
AcDbCircle
 62
7
  6
CONTINUOUS
 10
408.141113076
 20
269.7331616438
 40
3.9999997948
100
AcDbArc
 50
89.9999969984
 51
180.0000009336
  0
ARC
  5
404
100
AcDbEntity
  8
0
100
AcDbCircle
 62
7
  6
CONTINUOUS
 10
425.1411135153
 20
109.5225384798
 40
3.9999996043
100
AcDbArc
 50
269.9999966535
 51
359.9999989401
  0
ARC
  5
405
100
AcDbEntity
  8
0
100
AcDbCircle
 62
7
  6
CONTINUOUS
 10
434.7911132813
 20
258.1316494883
 40
3.0
100
AcDbArc
 50
0.0
 51
90.0
  0
ARC
  5
406
100
AcDbEntity
  8
0
100
AcDbCircle
 62
7
  6
CONTINUOUS
 10
434.7911132813
 20
199.1316494883
 40
3.0
100
AcDbArc
 50
270.0
 51
360.0
  0
ARC
  5
407
100
AcDbEntity
  8
0
100
AcDbCircle
 62
7
  6
CONTINUOUS
 10
398.4911132813
 20
258.1316494883
 40
3.0
100
AcDbArc
 50
90.0
 51
180.0
  0
ARC
  5
408
100
AcDbEntity
  8
0
100
AcDbCircle
 62
7
  6
CONTINUOUS
 10
398.4911132813
 20
199.1316494883
 40
3.0
100
AcDbArc
 50
180.0
 51
270.0
  0
ARC
  5
409
100
AcDbEntity
  8
0
100
AcDbCircle
 62
7
  6
CONTINUOUS
 10
236.2219626077
 20
59.2685545184
 40
4.0000001691
100
AcDbArc
 50
0.0000024182
 51
89.9999977344
  0
ARC
  5
40A
100
AcDbEntity
  8
0
100
AcDbCircle
 62
7
  6
CONTINUOUS
 10
130.6774514548
 20
42.2685548566
 40
4.0000001691
100
AcDbArc
 50
180.0000024182
 51
269.9999977344
  0
ARC
  5
40B
100
AcDbEntity
  8
0
100
AcDbCircle
 62
7
  6
CONTINUOUS
 10
236.2219626077
 20
42.2685548566
 40
4.0000001691
100
AcDbArc
 50
270.0000022656
 51
359.9999975818
  0
ARC
  5
40C
100
AcDbEntity
  8
0
100
AcDbCircle
 62
7
  6
CONTINUOUS
 10
304.1335906766
 20
59.2685545672
 40
4.0000001203
100
AcDbArc
 50
0.000001724
 51
89.9999981971
  0
ARC
  5
40D
100
AcDbEntity
  8
0
100
AcDbCircle
 62
7
  6
CONTINUOUS
 10
62.7658233859
 20
42.2685548078
 40
4.0000001203
100
AcDbArc
 50
180.000001724
 51
269.9999981971
  0
ARC
  5
40E
100
AcDbEntity
  8
0
100
AcDbCircle
 62
7
  6
CONTINUOUS
 10
275.9473531363
 20
59.2685546002
 40
4.0000000873
100
AcDbArc
 50
0.0000012508
 51
89.999998475
  0
ARC
  5
40F
100
AcDbEntity
  8
0
100
AcDbCircle
 62
7
  6
CONTINUOUS
 10
90.9520609262
 20
42.2685547748
 40
4.0000000873
100
AcDbArc
 50
180.0000012508
 51
269.999998475
  0
ARC
  5
410
100
AcDbEntity
  8
0
100
AcDbCircle
 62
7
  6
CONTINUOUS
 10
90.9520608062
 20
59.2685547235
 40
3.999999964
100
AcDbArc
 50
89.999999807
 51
180.0000005159
  0
ARC
  5
411
100
AcDbEntity
  8
0
100
AcDbCircle
 62
7
  6
CONTINUOUS
 10
275.9473532563
 20
42.2685546515
 40
3.999999964
100
AcDbArc
 50
269.999999807
 51
0.0000005159
  0
ARC
  5
412
100
AcDbEntity
  8
0
100
AcDbCircle
 62
7
  6
CONTINUOUS
 10
130.6774512687
 20
59.2685547548
 40
3.9999999327
100
AcDbArc
 50
89.9999995999
 51
180.0000009645
  0
ARC
  5
413
100
AcDbEntity
  8
0
100
AcDbCircle
 62
7
  6
CONTINUOUS
 10
62.7658232303
 20
59.2685547915
 40
3.999999896
100
AcDbArc
 50
89.9999995742
 51
180.0000014897
  0
ARC
  5
414
100
AcDbEntity
  8
0
100
AcDbCircle
 62
7
  6
CONTINUOUS
 10
304.1335908322
 20
42.2685545835
 40
3.999999896
100
AcDbArc
 50
269.9999995742
 51
0.0000014897
  0
ARC
  5
415
100
AcDbEntity
  8
0
100
AcDbCircle
 62
7
  6
CONTINUOUS
 10
299.679060415
 20
59.268554799
 40
3.9999998885
100
AcDbArc
 50
359.9999937941
 51
90.0000005726
  0
ARC
  5
416
100
AcDbEntity
  8
0
100
AcDbCircle
 62
7
  6
CONTINUOUS
 10
67.2203536475
 20
42.268554576
 40
3.9999998885
100
AcDbArc
 50
179.9999984024
 51
270.0000005726
  0
ARC
  5
417
100
AcDbEntity
  8
0
100
AcDbCircle
 62
7
  6
CONTINUOUS
 10
67.2203536659
 20
59.2685548107
 40
3.9999998768
100
AcDbArc
 50
89.9999996908
 51
180.0000018374
  0
ARC
  5
418
100
AcDbEntity
  8
0
100
AcDbCircle
 62
7
  6
CONTINUOUS
 10
299.6790603966
 20
42.2685545643
 40
3.9999998768
100
AcDbArc
 50
269.9999996908
 51
0.0000018374
  0
ARC
  5
419
100
AcDbEntity
  8
0
100
AcDbCircle
 62
7
  6
CONTINUOUS
 10
212.9497070312
 20
68.9185546875
 40
3.0
100
AcDbArc
 50
0.0
 51
90.0
  0
ARC
  5
41A
100
AcDbEntity
  8
0
100
AcDbCircle
 62
7
  6
CONTINUOUS
 10
153.9497070312
 20
68.9185546875
 40
3.0
100
AcDbArc
 50
90.0
 51
180.0
  0
ARC
  5
41B
100
AcDbEntity
  8
0
100
AcDbCircle
 62
7
  6
CONTINUOUS
 10
153.9497070312
 20
32.6185546875
 40
3.0
100
AcDbArc
 50
180.0
 51
270.0
  0
ARC
  5
41C
100
AcDbEntity
  8
0
100
AcDbCircle
 62
7
  6
CONTINUOUS
 10
212.9497070312
 20
32.6185546875
 40
3.0
100
AcDbArc
 50
270.0
 51
360.0
  0
ENDSEC
  0
SECTION
  2
OBJECTS
  0
DICTIONARY
  5
C
100
AcDbDictionary
280
0
281
1
  3
ACAD_GROUP
350
D
  3
ACAD_MLINESTYLE
350
17
  3
ACAD_LAYOUT
350
1A
  3
ACAD_PLOTSETTINGS
350
19
  3
ACAD_PLOTSTYLENAME
350
E
  3
ACAD_TABLESTYLE
350
       41D
  0
DICTIONARY
  5
D
102
{ACAD_REACTORS
330
C
102
}
100
AcDbDictionary
280
0
281
1
  0
ACDBDICTIONARYWDFLT
  5
E
102
{ACAD_REACTORS
330
C
102
}
100
AcDbDictionary
281
1
  3
Normal
350
F
100
AcDbDictionaryWithDefault
340
F
  0
DICTIONARY
  5
17
102
{ACAD_REACTORS
330
C
102
}
100
AcDbDictionary
280
0
281
1
  3
Standard
350
18
  0
DICTIONARY
  5
41D
330
C
100
AcDbDictionary
281
1
  3
Standard
350
       420
  3
Standard1
350
       421
  0
DICTIONARY
  5
19
102
{ACAD_REACTORS
330
C
102
}
100
AcDbDictionary
281
1
  0
DICTIONARY
  5
1A
102
{ACAD_REACTORS
330
C
102
}
100
AcDbDictionary
281
1
  3
Model
350
41E
  3
Layout1
350
41F
  0
ACDBPLACEHOLDER
  5
F
102
{ACAD_REACTORS
330
E
102
}
  0
MLINESTYLE
  5
18
102
{ACAD_REACTORS
330
17
102
}
100
AcDbMlineStyle
  2
STANDARD
 70
0
  3

 62
256
 51
90.0
 52
90.0
 71
2
 49
0.5
 62
256
  6
BYLAYER
 49
-0.5
 62
256
  6
BYLAYER
  0
LAYOUT
  5
41E
102
{ACAD_REACTORS
330
1A
102
}
100
AcDbPlotSettings
  1

  2
none_device
  4
ISO_A2_(594.00_x_420.00_MM)
  6

 40
0.0
 41
0.0
 42
0.0
 43
0.0
 44
594.0
 45
420.0
 46
0.0
 47
0.0
 48
0.0
 49
0.0
140
0.0
141
0.0
142
1.0
143
1.0
 70
1024
 72
1
 73
0
 74
0
  7

 75
0
147
1.0
148
0.0
149
0.0
100
AcDbLayout
  1
Model
 70
0
 71
0
 10
0.0
 20
0.0
 11
594.0
 21
420.0
 12
0.0
 22
0.0
 32
0.0
 14
0.0
 24
0.0
 34
0.0
 15
0.0
 25
0.0
 35
0.0
146
0.0
 13
0.0
 23
0.0
 33
0.0
 16
1.0
 26
0.0
 36
0.0
 17
0.0
 27
1.0
 37
0.0
 76
0
330
210
345
0
346
0
  0
LAYOUT
  5
41F
102
{ACAD_REACTORS
330
1A
102
}
100
AcDbPlotSettings
  1

  2
none_device
  4
ISO_A2_(594.00_x_420.00_MM)
  6

 40
0.0
 41
0.0
 42
0.0
 43
0.0
 44
594.0
 45
420.0
 46
0.0
 47
0.0
 48
0.0
 49
0.0
140
0.0
141
0.0
142
1.0
143
1.0
 70
0
 72
1
 73
0
 74
0
  7

 75
0
147
1.0
148
0.0
149
0.0
100
AcDbLayout
  1
Layout1
 70
0
 71
1
 10
0.0
 20
0.0
 11
594.0
 21
420.0
 12
0.0
 22
0.0
 32
0.0
 14
0.0
 24
0.0
 34
0.0
 15
0.0
 25
0.0
 35
0.0
146
0.0
 13
0.0
 23
0.0
 33
0.0
 16
1.0
 26
0.0
 36
0.0
 17
0.0
 27
1.0
 37
0.0
 76
0
330
211
345
0
346
0
  0
TABLESTYLE
  5
420
102
{ACAD_REACTORS
330
41D
330
345
102
}
330
41D
100
AcDbTableStyle
  3
Standard
 70
0
 71
0
 40
0.06
 41
0.06
280
1
281
1
  7
Standard
140
0.18
170
1
 62
0
 63
7
283
0
  7
Standard
140
0.18
170
1
 62
0
 63
7
283
0
  7
Standard
140
0.18
170
1
 62
0
 63
7
283
0
  0
TABLESTYLE
  5
421
102
{ACAD_REACTORS
330
41D
102
}
330
41D
100
AcDbTableStyle
  3
Standard1
 70
1
 71
0
 40
0.06
 41
0.06
280
1
281
1
  7
Standard
140
0.18
170
1
 62
0
 63
7
283
0
  7
Standard
140
0.18
170
1
 62
0
 63
7
283
0
  7
Standard
140
0.18
170
1
 62
0
 63
7
283
0
  0
ENDSEC
  0
EOF
