999
DXF file: uni_3200.dxf
999
Pro/ENGINEER 2015290 by Parametric Technology Corporation
  0
SECTION
  2
HEADER
  9
$ACADVER
  1
AC1027
  9
$DWGCODEPAGE
  3
ANSI_1252
  9
$EXTMAX
 10
210.0
 20
297.0
 30
0.0
  9
$EXTMIN
 10
0.0
 20
0.0
 30
0.0
  9
$LIMMIN
 10
0.0
 20
0.0
  9
$LIMMAX
 10
210.0
 20
297.0
  9
$VIEWCTR
 10
105.0
 20
148.5
  9
$VIEWSIZE
 40
297.0
  9
$CLAYER
  8
0
  9
$LTSCALE
 40
19.36
  9
$CELTYPE
  6
BYLAYER
  9
$DIMSCALE
 40
1.0
  9
$DIMASZ
 40
3.5
  9
$DIMEXO
 40
1.0
  9
$DIMDLI
 40
13.376
  9
$DIMEXE
 40
2.0
  9
$DIMCEN
 40
3.168
  9
$DIMLFAC
 40
1.0
  9
$DIMBLK
  1
_FILLED
  9
$DIMALT
 70
0
  9
$DIMALTF
 40
0.0393700787
  9
$DIMTXT
 40
3.5
  9
$DIMTOL
 70
1
  9
$DIMLIM
 70
0
  9
$DIMTFAC
 40
1.0
  9
$DIMTP
 40
0.01
  9
$DIMTM
 40
0.01
  9
$DIMGAP
 40
0.625
  9
$DIMDSEP
 70
46
  9
$AUNITS
 70
0
  9
$PDMODE
 70
3
  9
$PDSIZE
 40
0.3125
  9
$HANDSEED
  5
3B5
  9
$TILEMODE
 70
1
  9
$MEASUREMENT
 70
1
  9
$INSUNITS
 70
4
  0
ENDSEC
  0
SECTION
  2
CLASSES
  0
CLASS
  1
ACDBDICTIONARYWDFLT
  2
AcDbDictionaryWithDefault
  3
AutoCAD 2000
 90
0
 91
1
280
0
281
0
  0
CLASS
  1
ACDBPLACEHOLDER
  2
AcDbPlaceHolder
  3
AutoCAD 2000
 90
0
 91
1
280
0
281
0
  0
CLASS
  1
LAYOUT
  2
AcDbLayout
  3
AutoCAD 2000
 90
0
 91
0
280
0
281
0
  0
CLASS
  1
TABLESTYLE
  2
AcDbTableStyle
  3
ObjectDBX Classes
 90
2047
 91
1
280
0
281
0
  0
CLASS
  1
ACAD_TABLE
  2
AcDbTable
  3
ObjectDBX Classes
 90
1025
 91
1
280
0
281
1
  0
ENDSEC
  0
SECTION
  2
TABLES
  0
TABLE
  2
VPORT
  5
8
100
AcDbSymbolTable
 70
2
  0
VPORT
  5
1F4
100
AcDbSymbolTableRecord
100
AcDbViewportTableRecord
  2
*ACTIVE
 70
0
 10
0.0
 20
0.0
 11
1.0
 21
1.0
 12
105.0
 22
148.5
 13
0.0
 23
0.0
 14
1.0
 24
1.0
 15
0.0
 25
0.0
 16
0.0
 26
0.0
 36
1.0
 17
0.0
 27
0.0
 37
0.0
 40
297.0
 41
0.7070707071
 42
50.0
 43
0.0
 44
0.0
 50
0.0
 51
0.0
 71
0
 72
100
 73
1
 74
1
 75
0
 76
0
 77
0
 78
0
  0
ENDTAB
  0
TABLE
  2
LTYPE
  5
5
100
AcDbSymbolTable
 70
6
  0
LTYPE
  5
14
100
AcDbSymbolTableRecord
100
AcDbLinetypeTableRecord
  2
BYBLOCK
 70
0
  3

 72
65
 73
0
 40
0.0
  0
LTYPE
  5
15
100
AcDbSymbolTableRecord
100
AcDbLinetypeTableRecord
  2
BYLAYER
 70
0
  3

 72
65
 73
0
 40
0.0
  0
LTYPE
  5
16
100
AcDbSymbolTableRecord
100
AcDbLinetypeTableRecord
  2
CONTINUOUS
 70
64
  3
Solid line
 72
65
 73
0
 40
0.0
  0
LTYPE
  5
1F5
100
AcDbSymbolTableRecord
100
AcDbLinetypeTableRecord
  2
CENTER
 70
64
  3
____ _ ____ _ ____ _ ____ _ ____ _ ____ _ ____
 72
65
 73
4
 40
0.6
 49
0.375
 74
0
 49
-0.075
 74
0
 49
0.075
 74
0
 49
-0.075
 74
0
  0
LTYPE
  5
1F6
100
AcDbSymbolTableRecord
100
AcDbLinetypeTableRecord
  2
HIDDEN
 70
64
  3
- - - - - - - - - - - - - - - - - - - -
 72
65
 73
2
 40
0.2
 49
0.1
 74
0
 49
-0.1
 74
0
  0
LTYPE
  5
1F7
100
AcDbSymbolTableRecord
100
AcDbLinetypeTableRecord
  2
PHANTOM
 70
64
  3
_____ _ _ _____ _ _ _____ _ _ _____
 72
65
 73
6
 40
0.8
 49
0.45
 74
0
 49
-0.05
 74
0
 49
0.1
 74
0
 49
-0.05
 74
0
 49
0.1
 74
0
 49
-0.05
 74
0
  0
LTYPE
  5
1F8
100
AcDbSymbolTableRecord
100
AcDbLinetypeTableRecord
  2
DOT
 70
64
  3
. . . . . . . . . . . . . . . . . . . .
 72
65
 73
2
 40
0.2
 49
0.1
 74
0
 49
-0.1
 74
0
  0
LTYPE
  5
1F9
100
AcDbSymbolTableRecord
100
AcDbLinetypeTableRecord
  2
DASHED
 70
64
  3
- - - - - - - - - - - - - - - - - - - -
 72
65
 73
2
 40
0.2
 49
0.1
 74
0
 49
-0.1
 74
0
  0
ENDTAB
  0
TABLE
  2
LAYER
  5
2
100
AcDbSymbolTable
 70
36
  0
LAYER
  5
10
100
AcDbSymbolTableRecord
100
AcDbLayerTableRecord
  2
0
 70
0
 62
7
  6
CONTINUOUS
370
-3
390
F
  0
LAYER
  5
1FA
100
AcDbSymbolTableRecord
100
AcDbLayerTableRecord
  2
DEFAULT_1
 70
0
 62
7
  6
CENTER
370
-3
390
F
  0
LAYER
  5
1FB
100
AcDbSymbolTableRecord
100
AcDbLayerTableRecord
  2
DEFAULT_2
 70
0
 62
8
  6
HIDDEN
370
-3
390
F
  0
LAYER
  5
1FC
100
AcDbSymbolTableRecord
100
AcDbLayerTableRecord
  2
DEFAULT_3
 70
0
 62
7
  6
PHANTOM
370
-3
390
F
  0
LAYER
  5
1FD
100
AcDbSymbolTableRecord
100
AcDbLayerTableRecord
  2
AXES
 70
0
 62
7
  6
CONTINUOUS
370
-3
390
F
  0
LAYER
  5
1FE
100
AcDbSymbolTableRecord
100
AcDbLayerTableRecord
  2
CSYS
 70
0
 62
7
  6
CONTINUOUS
370
-3
390
F
  0
LAYER
  5
1FF
100
AcDbSymbolTableRecord
100
AcDbLayerTableRecord
  2
NOTES
 70
0
 62
7
  6
CONTINUOUS
370
-3
390
F
  0
LAYER
  5
200
100
AcDbSymbolTableRecord
100
AcDbLayerTableRecord
  2
PLANES
 70
0
 62
7
  6
CONTINUOUS
370
-3
390
F
  0
LAYER
  5
201
100
AcDbSymbolTableRecord
100
AcDbLayerTableRecord
  2
QUILTS
 70
0
 62
7
  6
CONTINUOUS
370
-3
390
F
  0
ENDTAB
  0
TABLE
  2
STYLE
  5
3
100
AcDbSymbolTable
 70
1
  0
STYLE
  5
11
100
AcDbSymbolTableRecord
100
AcDbTextStyleTableRecord
  2
STANDARD
 70
0
 40
0.0
 41
0.8
 50
0.0
 71
0
 42
0.2
  3
txt
  4

  0
STYLE
  5
202
100
AcDbSymbolTableRecord
100
AcDbTextStyleTableRecord
  2
TEXTSTYLE_1
 70
0
 40
0.0
 41
0.8
 50
0.0
 71
0
 42
0.2
  3
gdt
  4

  0
STYLE
  5
203
100
AcDbSymbolTableRecord
100
AcDbTextStyleTableRecord
  2
TEXTSTYLE_2
 70
0
 40
0.0
 41
0.6
 50
0.0
 71
0
 42
0.2
  3
txt
  4

  0
STYLE
  5
204
100
AcDbSymbolTableRecord
100
AcDbTextStyleTableRecord
  2
TEXTSTYLE_3
 70
0
 40
0.0
 41
1.0
 50
0.0
 71
0
 42
0.2
  3
ftb_____.ttf
  4

  0
STYLE
  5
205
100
AcDbSymbolTableRecord
100
AcDbTextStyleTableRecord
  2
TEXTSTYLE_4
 70
0
 40
0.0
 41
1.0
 50
0.0
 71
0
 42
0.2
  3
fti_____.ttf
  4

  0
STYLE
  5
206
100
AcDbSymbolTableRecord
100
AcDbTextStyleTableRecord
  2
TEXTSTYLE_5
 70
0
 40
0.0
 41
1.0
 50
0.0
 71
0
 42
0.2
  3
frutiger light.ttf
  4

  0
STYLE
  5
207
100
AcDbSymbolTableRecord
100
AcDbTextStyleTableRecord
  2
TEXTSTYLE_6
 70
0
 40
0.0
 41
0.7
 50
0.0
 71
0
 42
0.2
  3
txt
  4

  0
STYLE
  5
208
100
AcDbSymbolTableRecord
100
AcDbTextStyleTableRecord
  2
TEXTSTYLE_7
 70
0
 40
0.0
 41
0.8
 50
0.0
 71
0
 42
0.2
  3
txt
  4

  0
ENDTAB
  0
TABLE
  2
VIEW
  5
6
100
AcDbSymbolTable
 70
0
  0
ENDTAB
  0
TABLE
  2
UCS
  5
7
100
AcDbSymbolTable
 70
0
  0
ENDTAB
  0
TABLE
  2
APPID
  5
9
100
AcDbSymbolTable
 70
1
  0
APPID
  5
209
100
AcDbSymbolTableRecord
100
AcDbRegAppTableRecord
  2
ACAD
 70
0
  0
ENDTAB
  0
TABLE
  2
BLOCK_RECORD
  5
1
100
AcDbSymbolTable
 70
0
  0
BLOCK_RECORD
  5
20A
100
AcDbSymbolTableRecord
100
AcDbBlockTableRecord
  2
*Model_Space
  0
BLOCK_RECORD
  5
20B
100
AcDbSymbolTableRecord
100
AcDbBlockTableRecord
  2
*Paper_Space
  0
BLOCK_RECORD
  5
20C
100
AcDbSymbolTableRecord
100
AcDbBlockTableRecord
  2
UNI_LOGO2_BL1
  0
BLOCK_RECORD
  5
20D
100
AcDbSymbolTableRecord
100
AcDbBlockTableRecord
  2
AMMEAAL_LOGO_BL0
  0
BLOCK_RECORD
  5
20E
100
AcDbSymbolTableRecord
100
AcDbBlockTableRecord
  2
*T1
  0
ENDTAB
  0
TABLE
  2
DIMSTYLE
  5
A
100
AcDbSymbolTable
 70
1
100
AcDbDimStyleTable
 71
0
  0
DIMSTYLE
105
20F
100
AcDbSymbolTableRecord
100
AcDbDimStyleTableRecord
  2
STANDARD
 70
0
  3

  4

 40
1.0
 41
3.5
 42
1.0
 43
0.38
 44
2.0
 45
0.0
 46
0.0
 47
0.01
 48
0.01
140
3.5
141
0.09
142
0.0
143
25.4
144
1.0
145
0.0
146
1.0
147
0.625
 71
1.0
 72
0.0
 73
0
 74
0
 75
0
 76
0
 77
1
 78
0
170
0
171
2
172
0
173
0
174
0
175
0
176
0
177
0
178
5
270
2
271
2
272
2
273
2
274
2
275
0
280
0
281
0
282
0
283
1
284
0
285
0
286
0
287
3
288
0
340
11
278
46
  0
ENDTAB
  0
ENDSEC
  0
SECTION
  2
BLOCKS
  0
BLOCK
  5
20
100
AcDbEntity
  8
0
100
AcDbBlockBegin
  2
*Model_Space
 70
0
 10
0.0
 20
0.0
 30
0.0
  3
*Model_Space
  1

  0
ENDBLK
  5
21
100
AcDbEntity
  8
0
100
AcDbBlockEnd
  0
BLOCK
  5
1C
100
AcDbEntity
  8
0
100
AcDbBlockBegin
  2
*Paper_Space
 70
0
 10
0.0
 20
0.0
 30
0.0
  3
*Paper_Space
  1

  0
ENDBLK
  5
1D
100
AcDbEntity
  8
0
100
AcDbBlockEnd
  0
BLOCK
  5
210
100
AcDbEntity
  8
0
100
AcDbBlockBegin
 62
2
  6
CONTINUOUS
  2
UNI_LOGO2_BL1
 70
64
 10
173.3924355793
 20
35.4326167403
  3
UNI_LOGO2_BL1
  1

  0
TEXT
  5
211
100
AcDbEntity
  8
0
100
AcDbText
 62
7
  6
CONTINUOUS
 10
164.4507205878
 20
30.5765230696
  7
TEXTSTYLE_4
 40
1.0655737705
  1
The brand for plastic modular belts and chains
 41
1.0
 72
0
100
AcDbText
  0
LINE
  5
212
100
AcDbEntity
  8
0
100
AcDbLine
 62
7
  6
CONTINUOUS
 10
149.3705039683
 20
36.0575371843
 11
149.3705039683
 21
33.9263896433
  0
LINE
  5
213
100
AcDbEntity
  8
0
100
AcDbLine
 62
7
  6
CONTINUOUS
 10
149.6595664615
 20
30.9354583476
 11
149.6595664615
 21
31.0322494069
  0
LINE
  5
214
100
AcDbEntity
  8
0
100
AcDbLine
 62
7
  6
CONTINUOUS
 10
149.3705039683
 20
30.9999857205
 11
149.4283164701
 21
30.8064036019
  0
LINE
  5
215
100
AcDbEntity
  8
0
100
AcDbLine
 62
7
  6
CONTINUOUS
 10
150.7639465913
 20
33.8444224302
 11
150.7639465913
 21
36.0575371843
  0
LINE
  5
216
100
AcDbEntity
  8
0
100
AcDbLine
 62
7
  6
CONTINUOUS
 10
151.6830039132
 20
32.0001601351
 11
151.6830039132
 21
30.4837666925
  0
LINE
  5
217
100
AcDbEntity
  8
0
100
AcDbLine
 62
7
  6
CONTINUOUS
 10
151.9720664683
 20
30.4837666925
 11
151.9720664683
 21
31.2258315706
  0
LINE
  5
218
100
AcDbEntity
  8
0
100
AcDbLine
 62
7
  6
CONTINUOUS
 10
151.9720664683
 20
31.3548863163
 11
151.9720664683
 21
32.0001601351
  0
LINE
  5
219
100
AcDbEntity
  8
0
100
AcDbLine
 62
7
  6
CONTINUOUS
 10
149.4283164701
 20
31.1935678842
 11
149.3705039683
 21
30.9999857205
  0
LINE
  5
21A
100
AcDbEntity
  8
0
100
AcDbLine
 62
7
  6
CONTINUOUS
 10
149.7751914546
 20
30.7741399155
 11
149.6595664615
 21
30.9354583476
  0
LINE
  5
21B
100
AcDbEntity
  8
0
100
AcDbLine
 62
7
  6
CONTINUOUS
 10
150.8736290235
 20
31.2903589434
 11
150.9314414683
 21
31.1935678842
  0
LINE
  5
21C
100
AcDbEntity
  8
0
100
AcDbLine
 62
7
  6
CONTINUOUS
 10
151.2205040235
 20
31.1935678842
 11
151.1626914132
 21
31.3226226299
  0
LINE
  5
21D
100
AcDbEntity
  8
0
100
AcDbLine
 62
7
  6
CONTINUOUS
 10
152.6491924929
 20
36.0575371843
 11
152.6491924929
 21
34.2542584958
  0
LINE
  5
21E
100
AcDbEntity
  8
0
100
AcDbLine
 62
7
  6
CONTINUOUS
 10
152.6491924929
 20
32.9427830859
 11
152.6491924929
 21
32.287045381
  0
LINE
  5
21F
100
AcDbEntity
  8
0
100
AcDbLine
 62
7
  6
CONTINUOUS
 10
153.0126914683
 20
31.1290405113
 11
153.0126914683
 21
30.4837666925
  0
LINE
  5
220
100
AcDbEntity
  8
0
100
AcDbLine
 62
7
  6
CONTINUOUS
 10
153.3017538581
 20
30.4837666925
 11
153.3017538581
 21
31.1290405113
  0
LINE
  5
221
100
AcDbEntity
  8
0
100
AcDbLine
 62
7
  6
CONTINUOUS
 10
149.6595664615
 20
31.0322494069
 11
149.7173789683
 21
31.1613041978
  0
LINE
  5
222
100
AcDbEntity
  8
0
100
AcDbLine
 62
7
  6
CONTINUOUS
 10
149.4283164701
 20
30.8064036019
 11
149.5439414683
 21
30.6773488336
  0
LINE
  5
223
100
AcDbEntity
  8
0
100
AcDbLine
 62
7
  6
CONTINUOUS
 10
152.9548788581
 20
31.258095257
 11
153.0126914683
 21
31.1290405113
  0
LINE
  5
224
100
AcDbEntity
  8
0
100
AcDbLine
 62
7
  6
CONTINUOUS
 10
153.7642540786
 20
30.7741399155
 11
153.8220663581
 21
30.6450851472
  0
LINE
  5
225
100
AcDbEntity
  8
0
100
AcDbLine
 62
7
  6
CONTINUOUS
 10
153.3017538581
 20
31.1290405113
 11
153.2439415786
 21
31.2903589434
  0
LINE
  5
226
100
AcDbEntity
  8
0
100
AcDbLine
 62
7
  6
CONTINUOUS
 10
153.7642540786
 20
31.3226226299
 11
153.7642540786
 21
31.258095257
  0
LINE
  5
227
100
AcDbEntity
  8
0
100
AcDbLine
 62
7
  6
CONTINUOUS
 10
153.7642540786
 20
30.8709309748
 11
153.7642540786
 21
30.7741399155
  0
LINE
  5
228
100
AcDbEntity
  8
0
100
AcDbLine
 62
7
  6
CONTINUOUS
 10
154.0426351159
 20
32.287045381
 11
154.0426351159
 21
36.0575371843
  0
LINE
  5
229
100
AcDbEntity
  8
0
100
AcDbLine
 62
7
  6
CONTINUOUS
 10
154.0533164683
 20
30.7418762065
 11
154.0533164683
 21
30.8064036019
  0
LINE
  5
22A
100
AcDbEntity
  8
0
100
AcDbLine
 62
7
  6
CONTINUOUS
 10
154.3705039683
 20
36.0575371843
 11
154.3705039683
 21
32.287045381
  0
LINE
  5
22B
100
AcDbEntity
  8
0
100
AcDbLine
 62
7
  6
CONTINUOUS
 10
151.1626914132
 20
30.6773488336
 11
151.2205040235
 21
30.8064036019
  0
LINE
  5
22C
100
AcDbEntity
  8
0
100
AcDbLine
 62
7
  6
CONTINUOUS
 10
155.5564416889
 20
30.5805577631
 11
155.4986287478
 21
30.7418762065
  0
LINE
  5
22D
100
AcDbEntity
  8
0
100
AcDbLine
 62
7
  6
CONTINUOUS
 10
155.2095666889
 20
31.258095257
 11
155.2095666889
 21
31.1613041978
  0
LINE
  5
22E
100
AcDbEntity
  8
0
100
AcDbLine
 62
7
  6
CONTINUOUS
 10
155.2095666889
 20
31.0322494069
 11
155.2095666889
 21
30.8386672883
  0
LINE
  5
22F
100
AcDbEntity
  8
0
100
AcDbLine
 62
7
  6
CONTINUOUS
 10
155.4986287478
 20
30.7418762065
 11
155.4986287478
 21
31.258095257
  0
LINE
  5
230
100
AcDbEntity
  8
0
100
AcDbLine
 62
7
  6
CONTINUOUS
 10
155.7639465913
 20
32.287045381
 11
155.7639465913
 21
34.0903240696
  0
LINE
  5
231
100
AcDbEntity
  8
0
100
AcDbLine
 62
7
  6
CONTINUOUS
 10
155.7639465913
 20
35.4017994794
 11
155.7639465913
 21
36.0575371843
  0
LINE
  5
232
100
AcDbEntity
  8
0
100
AcDbLine
 62
7
  6
CONTINUOUS
 10
156.0767541889
 20
32.0001601351
 11
156.0767541889
 21
31.838841703
  0
LINE
  5
233
100
AcDbEntity
  8
0
100
AcDbLine
 62
7
  6
CONTINUOUS
 10
156.0767541889
 20
31.5162047484
 11
156.0767541889
 21
30.4837666925
  0
LINE
  5
234
100
AcDbEntity
  8
0
100
AcDbLine
 62
7
  6
CONTINUOUS
 10
156.3658162478
 20
30.4837666925
 11
156.3658162478
 21
31.5162047484
  0
LINE
  5
235
100
AcDbEntity
  8
0
100
AcDbLine
 62
7
  6
CONTINUOUS
 10
156.3658162478
 20
31.838841703
 11
156.3658162478
 21
32.0001601351
  0
LINE
  5
236
100
AcDbEntity
  8
0
100
AcDbLine
 62
7
  6
CONTINUOUS
 10
150.9314414683
 20
30.8064036019
 11
150.8736290235
 21
30.7096125201
  0
LINE
  5
237
100
AcDbEntity
  8
0
100
AcDbLine
 62
7
  6
CONTINUOUS
 10
153.2439415786
 20
31.2903589434
 11
153.1861289683
 21
31.3548863163
  0
LINE
  5
238
100
AcDbEntity
  8
0
100
AcDbLine
 62
7
  6
CONTINUOUS
 10
154.1111290786
 20
30.6773488336
 11
154.0533164683
 21
30.7418762065
  0
LINE
  5
239
100
AcDbEntity
  8
0
100
AcDbLine
 62
7
  6
CONTINUOUS
 10
155.2673789683
 20
30.548294071
 11
155.3251912478
 21
30.4837666925
  0
LINE
  5
23A
100
AcDbEntity
  8
0
100
AcDbLine
 62
7
  6
CONTINUOUS
 10
155.2095666889
 20
30.6450851472
 11
155.2673789683
 21
30.548294071
  0
LINE
  5
23B
100
AcDbEntity
  8
0
100
AcDbLine
 62
7
  6
CONTINUOUS
 10
155.6142539683
 20
30.4837666925
 11
155.5564416889
 21
30.5805577631
  0
LINE
  5
23C
100
AcDbEntity
  8
0
100
AcDbLine
 62
7
  6
CONTINUOUS
 10
155.4986287478
 20
31.258095257
 11
155.4408164683
 21
31.3548863163
  0
LINE
  5
23D
100
AcDbEntity
  8
0
100
AcDbLine
 62
7
  6
CONTINUOUS
 10
156.8283164683
 20
31.5162047484
 11
156.8283164683
 21
30.4837666925
  0
LINE
  5
23E
100
AcDbEntity
  8
0
100
AcDbLine
 62
7
  6
CONTINUOUS
 10
157.1173791889
 20
30.4837666925
 11
157.1173791889
 21
31.2258315706
  0
LINE
  5
23F
100
AcDbEntity
  8
0
100
AcDbLine
 62
7
  6
CONTINUOUS
 10
157.1173791889
 20
31.3548863163
 11
157.1173791889
 21
31.5162047484
  0
LINE
  5
240
100
AcDbEntity
  8
0
100
AcDbLine
 62
7
  6
CONTINUOUS
 10
157.6491924929
 20
34.5001601351
 11
157.6491924929
 21
32.287045381
  0
LINE
  5
241
100
AcDbEntity
  8
0
100
AcDbLine
 62
7
  6
CONTINUOUS
 10
149.5439414683
 20
31.3226226299
 11
149.4283164701
 21
31.1935678842
  0
LINE
  5
242
100
AcDbEntity
  8
0
100
AcDbLine
 62
7
  6
CONTINUOUS
 10
149.7173789683
 20
31.1613041978
 11
149.7751914546
 21
31.2258315706
  0
LINE
  5
243
100
AcDbEntity
  8
0
100
AcDbLine
 62
7
  6
CONTINUOUS
 10
149.5439414683
 20
30.6773488336
 11
149.6595664615
 21
30.6128214495
  0
LINE
  5
244
100
AcDbEntity
  8
0
100
AcDbLine
 62
7
  6
CONTINUOUS
 10
149.9486289546
 20
30.6773488336
 11
149.7751914546
 21
30.7741399155
  0
LINE
  5
245
100
AcDbEntity
  8
0
100
AcDbLine
 62
7
  6
CONTINUOUS
 10
155.1517537478
 20
31.3226226299
 11
155.2095666889
 21
31.258095257
  0
LINE
  5
246
100
AcDbEntity
  8
0
100
AcDbLine
 62
7
  6
CONTINUOUS
 10
158.1001912478
 20
31.258095257
 11
158.1580041889
 21
31.0967768249
  0
LINE
  5
247
100
AcDbEntity
  8
0
100
AcDbLine
 62
7
  6
CONTINUOUS
 10
158.4470662478
 20
31.0967768249
 11
158.3892539683
 21
31.258095257
  0
LINE
  5
248
100
AcDbEntity
  8
0
100
AcDbLine
 62
7
  6
CONTINUOUS
 10
158.1580041889
 20
31.0967768249
 11
158.1580041889
 21
30.4837666925
  0
LINE
  5
249
100
AcDbEntity
  8
0
100
AcDbLine
 62
7
  6
CONTINUOUS
 10
158.4470662478
 20
30.4837666925
 11
158.4470662478
 21
31.0967768249
  0
LINE
  5
24A
100
AcDbEntity
  8
0
100
AcDbLine
 62
7
  6
CONTINUOUS
 10
158.9095664683
 20
31.3226226299
 11
158.9095664683
 21
31.258095257
  0
LINE
  5
24B
100
AcDbEntity
  8
0
100
AcDbLine
 62
7
  6
CONTINUOUS
 10
159.0426351159
 20
32.287045381
 11
159.0426351159
 21
34.418192922
  0
LINE
  5
24C
100
AcDbEntity
  8
0
100
AcDbLine
 62
7
  6
CONTINUOUS
 10
159.3705039683
 20
36.0575371843
 11
159.3705039683
 21
32.287045381
  0
LINE
  5
24D
100
AcDbEntity
  8
0
100
AcDbLine
 62
7
  6
CONTINUOUS
 10
154.0533164683
 20
30.8064036019
 11
154.1111290786
 21
30.9031946612
  0
LINE
  5
24E
100
AcDbEntity
  8
0
100
AcDbLine
 62
7
  6
CONTINUOUS
 10
149.6595664615
 20
30.6128214495
 11
149.8330039821
 21
30.548294071
  0
LINE
  5
24F
100
AcDbEntity
  8
0
100
AcDbLine
 62
7
  6
CONTINUOUS
 10
151.1626914132
 20
31.3226226299
 11
150.9892539132
 21
31.4194136891
  0
LINE
  5
250
100
AcDbEntity
  8
0
100
AcDbLine
 62
7
  6
CONTINUOUS
 10
153.8220663581
 20
30.6450851472
 11
153.9955038581
 21
30.548294071
  0
LINE
  5
251
100
AcDbEntity
  8
0
100
AcDbLine
 62
7
  6
CONTINUOUS
 10
152.8392539683
 20
31.3226226299
 11
152.9548788581
 21
31.258095257
  0
LINE
  5
252
100
AcDbEntity
  8
0
100
AcDbLine
 62
7
  6
CONTINUOUS
 10
153.1861289683
 20
31.3548863163
 11
153.0705040786
 21
31.4194136891
  0
LINE
  5
253
100
AcDbEntity
  8
0
100
AcDbLine
 62
7
  6
CONTINUOUS
 10
158.9095664683
 20
30.7418762065
 11
159.0251916889
 21
30.6128214495
  0
LINE
  5
254
100
AcDbEntity
  8
0
100
AcDbLine
 62
7
  6
CONTINUOUS
 10
159.2564414683
 20
30.6773488336
 11
159.1986291889
 21
30.7418762065
  0
LINE
  5
255
100
AcDbEntity
  8
0
100
AcDbLine
 62
7
  6
CONTINUOUS
 10
158.9095664683
 20
31.258095257
 11
159.0251916889
 21
31.1290405113
  0
LINE
  5
256
100
AcDbEntity
  8
0
100
AcDbLine
 62
7
  6
CONTINUOUS
 10
158.3892539683
 20
31.258095257
 11
158.3314416889
 21
31.3548863163
  0
LINE
  5
257
100
AcDbEntity
  8
0
100
AcDbLine
 62
7
  6
CONTINUOUS
 10
160.7595660273
 20
30.6773488336
 11
160.7595660273
 21
30.7418762065
  0
LINE
  5
258
100
AcDbEntity
  8
0
100
AcDbLine
 62
7
  6
CONTINUOUS
 10
160.7639465913
 20
32.287045381
 11
160.7639465913
 21
36.0575371843
  0
LINE
  5
259
100
AcDbEntity
  8
0
100
AcDbLine
 62
7
  6
CONTINUOUS
 10
153.8220663581
 20
31.3871500027
 11
153.7642540786
 21
31.3226226299
  0
LINE
  5
25A
100
AcDbEntity
  8
0
100
AcDbLine
 62
7
  6
CONTINUOUS
 10
150.7001914408
 20
31.3548863163
 11
150.8736290235
 21
31.2903589434
  0
LINE
  5
25B
100
AcDbEntity
  8
0
100
AcDbLine
 62
7
  6
CONTINUOUS
 10
155.4408164683
 20
31.3548863163
 11
155.3251912478
 21
31.4194136891
  0
LINE
  5
25C
100
AcDbEntity
  8
0
100
AcDbLine
 62
7
  6
CONTINUOUS
 10
159.2564414683
 20
31.1935678842
 11
159.1986291889
 21
31.258095257
  0
LINE
  5
25D
100
AcDbEntity
  8
0
100
AcDbLine
 62
7
  6
CONTINUOUS
 10
160.4126916889
 20
30.8064036019
 11
160.4705039683
 21
30.7418762065
  0
LINE
  5
25E
100
AcDbEntity
  8
0
100
AcDbLine
 62
7
  6
CONTINUOUS
 10
160.7595660273
 20
30.7418762065
 11
160.6439414683
 21
30.8709309748
  0
LINE
  5
25F
100
AcDbEntity
  8
0
100
AcDbLine
 62
7
  6
CONTINUOUS
 10
160.4126916889
 20
31.3226226299
 11
160.4705039683
 21
31.258095257
  0
LINE
  5
260
100
AcDbEntity
  8
0
100
AcDbLine
 62
7
  6
CONTINUOUS
 10
160.7595660273
 20
31.258095257
 11
160.6439414683
 21
31.3871500027
  0
LINE
  5
261
100
AcDbEntity
  8
0
100
AcDbLine
 62
7
  6
CONTINUOUS
 10
154.0533164683
 20
31.258095257
 11
154.1111290786
 21
31.3226226299
  0
LINE
  5
262
100
AcDbEntity
  8
0
100
AcDbLine
 62
7
  6
CONTINUOUS
 10
153.8798789683
 20
30.9999857205
 11
153.7642540786
 21
30.8709309748
  0
LINE
  5
263
100
AcDbEntity
  8
0
100
AcDbLine
 62
7
  6
CONTINUOUS
 10
155.2095666889
 20
30.8386672883
 11
155.1517537478
 21
30.7741399155
  0
LINE
  5
264
100
AcDbEntity
  8
0
100
AcDbLine
 62
7
  6
CONTINUOUS
 10
155.1517537478
 20
30.5805577631
 11
155.2095666889
 21
30.6450851472
  0
LINE
  5
265
100
AcDbEntity
  8
0
100
AcDbLine
 62
7
  6
CONTINUOUS
 10
153.9955038581
 20
30.548294071
 11
154.1111290786
 21
30.5160303817
  0
LINE
  5
266
100
AcDbEntity
  8
0
100
AcDbLine
 62
7
  6
CONTINUOUS
 10
150.9892539132
 20
31.4194136891
 11
150.7580039683
 21
31.483941062
  0
LINE
  5
267
100
AcDbEntity
  8
0
100
AcDbLine
 62
7
  6
CONTINUOUS
 10
154.3423788581
 20
30.6128214495
 11
154.1111290786
 21
30.6773488336
  0
LINE
  5
268
100
AcDbEntity
  8
0
100
AcDbLine
 62
7
  6
CONTINUOUS
 10
153.0705040786
 20
31.4194136891
 11
152.8970665786
 21
31.483941062
  0
LINE
  5
269
100
AcDbEntity
  8
0
100
AcDbLine
 62
7
  6
CONTINUOUS
 10
155.3251912478
 20
31.4194136891
 11
155.1517537478
 21
31.483941062
  0
LINE
  5
26A
100
AcDbEntity
  8
0
100
AcDbLine
 62
7
  6
CONTINUOUS
 10
157.9845666889
 20
31.3226226299
 11
158.1001912478
 21
31.258095257
  0
LINE
  5
26B
100
AcDbEntity
  8
0
100
AcDbLine
 62
7
  6
CONTINUOUS
 10
158.3314416889
 20
31.3548863163
 11
158.2158164683
 21
31.4194136891
  0
LINE
  5
26C
100
AcDbEntity
  8
0
100
AcDbLine
 62
7
  6
CONTINUOUS
 10
149.8330039821
 20
30.548294071
 11
150.0064414821
 21
30.5160303817
  0
LINE
  5
26D
100
AcDbEntity
  8
0
100
AcDbLine
 62
7
  6
CONTINUOUS
 10
150.2955039959
 20
30.6128214495
 11
149.9486289546
 21
30.6773488336
  0
LINE
  5
26E
100
AcDbEntity
  8
0
100
AcDbLine
 62
7
  6
CONTINUOUS
 10
152.7236290786
 20
31.3548863163
 11
152.8392539683
 21
31.3226226299
  0
LINE
  5
26F
100
AcDbEntity
  8
0
100
AcDbLine
 62
7
  6
CONTINUOUS
 10
155.0361291889
 20
31.3548863163
 11
155.1517537478
 21
31.3226226299
  0
LINE
  5
270
100
AcDbEntity
  8
0
100
AcDbLine
 62
7
  6
CONTINUOUS
 10
159.3720666889
 20
30.6450851472
 11
159.2564414683
 21
30.6773488336
  0
LINE
  5
271
100
AcDbEntity
  8
0
100
AcDbLine
 62
7
  6
CONTINUOUS
 10
157.8689414683
 20
31.3548863163
 11
157.9845666889
 21
31.3226226299
  0
LINE
  5
272
100
AcDbEntity
  8
0
100
AcDbLine
 62
7
  6
CONTINUOUS
 10
159.0251916889
 20
30.6128214495
 11
159.1986291889
 21
30.548294071
  0
LINE
  5
273
100
AcDbEntity
  8
0
100
AcDbLine
 62
7
  6
CONTINUOUS
 10
158.2158164683
 20
31.4194136891
 11
158.0423789683
 21
31.483941062
  0
LINE
  5
274
100
AcDbEntity
  8
0
100
AcDbLine
 62
7
  6
CONTINUOUS
 10
159.4298789683
 20
31.1290405113
 11
159.2564414683
 21
31.1935678842
  0
LINE
  5
275
100
AcDbEntity
  8
0
100
AcDbLine
 62
7
  6
CONTINUOUS
 10
160.2392541889
 20
30.8709309748
 11
160.4126916889
 21
30.8064036019
  0
LINE
  5
276
100
AcDbEntity
  8
0
100
AcDbLine
 62
7
  6
CONTINUOUS
 10
160.6439414683
 20
31.3871500027
 11
160.4705039683
 21
31.4516773756
  0
LINE
  5
277
100
AcDbEntity
  8
0
100
AcDbLine
 62
7
  6
CONTINUOUS
 10
159.0251916889
 20
31.1290405113
 11
159.2564414683
 21
31.0322494069
  0
LINE
  5
278
100
AcDbEntity
  8
0
100
AcDbLine
 62
7
  6
CONTINUOUS
 10
160.6439414683
 20
30.8709309748
 11
160.4126916889
 21
30.967722034
  0
LINE
  5
279
100
AcDbEntity
  8
0
100
AcDbLine
 62
7
  6
CONTINUOUS
 10
159.1986291889
 20
31.258095257
 11
159.2564414683
 21
31.3226226299
  0
LINE
  5
27A
100
AcDbEntity
  8
0
100
AcDbLine
 62
7
  6
CONTINUOUS
 10
149.6595664615
 20
31.3871500027
 11
149.5439414683
 21
31.3226226299
  0
LINE
  5
27B
100
AcDbEntity
  8
0
100
AcDbLine
 62
7
  6
CONTINUOUS
 10
149.7751914546
 20
31.2258315706
 11
149.9486289546
 21
31.3226226299
  0
LINE
  5
27C
100
AcDbEntity
  8
0
100
AcDbLine
 62
7
  6
CONTINUOUS
 10
152.0876915235
 20
31.4194136891
 11
151.9720664683
 21
31.3548863163
  0
LINE
  5
27D
100
AcDbEntity
  8
0
100
AcDbLine
 62
7
  6
CONTINUOUS
 10
151.9720664683
 20
31.2258315706
 11
152.0876915235
 21
31.2903589434
  0
LINE
  5
27E
100
AcDbEntity
  8
0
100
AcDbLine
 62
7
  6
CONTINUOUS
 10
150.9892539132
 20
30.5805577631
 11
151.1626914132
 21
30.6773488336
  0
LINE
  5
27F
100
AcDbEntity
  8
0
100
AcDbLine
 62
7
  6
CONTINUOUS
 10
150.0064414821
 20
30.5160303817
 11
150.3533164408
 21
30.4837666925
  0
LINE
  5
280
100
AcDbEntity
  8
0
100
AcDbLine
 62
7
  6
CONTINUOUS
 10
154.1111290786
 20
30.5160303817
 11
154.3423788581
 21
30.4837666925
  0
LINE
  5
281
100
AcDbEntity
  8
0
100
AcDbLine
 62
7
  6
CONTINUOUS
 10
152.4923789683
 20
31.3871500027
 11
152.7236290786
 21
31.3548863163
  0
LINE
  5
282
100
AcDbEntity
  8
0
100
AcDbLine
 62
7
  6
CONTINUOUS
 10
154.8048790786
 20
31.3871500027
 11
155.0361291889
 21
31.3548863163
  0
LINE
  5
283
100
AcDbEntity
  8
0
100
AcDbLine
 62
7
  6
CONTINUOUS
 10
159.2564414683
 20
31.0322494069
 11
160.2392541889
 21
30.8709309748
  0
LINE
  5
284
100
AcDbEntity
  8
0
100
AcDbLine
 62
7
  6
CONTINUOUS
 10
160.4126916889
 20
30.967722034
 11
159.4298789683
 21
31.1290405113
  0
LINE
  5
285
100
AcDbEntity
  8
0
100
AcDbLine
 62
7
  6
CONTINUOUS
 10
152.8970665786
 20
31.483941062
 11
152.7236290786
 21
31.5162047484
  0
LINE
  5
286
100
AcDbEntity
  8
0
100
AcDbLine
 62
7
  6
CONTINUOUS
 10
159.1986291889
 20
30.548294071
 11
159.3720666889
 21
30.5160303817
  0
LINE
  5
287
100
AcDbEntity
  8
0
100
AcDbLine
 62
7
  6
CONTINUOUS
 10
158.0423789683
 20
31.483941062
 11
157.8689414683
 21
31.5162047484
  0
LINE
  5
288
100
AcDbEntity
  8
0
100
AcDbLine
 62
7
  6
CONTINUOUS
 10
160.2970664683
 20
31.3548863163
 11
160.4126916889
 21
31.3226226299
  0
LINE
  5
289
100
AcDbEntity
  8
0
100
AcDbLine
 62
7
  6
CONTINUOUS
 10
160.4705039683
 20
30.7418762065
 11
160.4126916889
 21
30.6773488336
  0
LINE
  5
28A
100
AcDbEntity
  8
0
100
AcDbLine
 62
7
  6
CONTINUOUS
 10
159.0251916889
 20
31.4194136891
 11
158.9095664683
 21
31.3226226299
  0
LINE
  5
28B
100
AcDbEntity
  8
0
100
AcDbLine
 62
7
  6
CONTINUOUS
 10
153.9376915786
 20
31.4516773756
 11
153.8220663581
 21
31.3871500027
  0
LINE
  5
28C
100
AcDbEntity
  8
0
100
AcDbLine
 62
7
  6
CONTINUOUS
 10
153.9955038581
 20
31.0645131385
 11
153.8798789683
 21
30.9999857205
  0
LINE
  5
28D
100
AcDbEntity
  8
0
100
AcDbLine
 62
7
  6
CONTINUOUS
 10
154.1111290786
 20
30.9031946612
 11
154.2267539683
 21
30.967722034
  0
LINE
  5
28E
100
AcDbEntity
  8
0
100
AcDbLine
 62
7
  6
CONTINUOUS
 10
151.6830039132
 20
30.4837666925
 11
151.9720664683
 21
30.4837666925
  0
LINE
  5
28F
100
AcDbEntity
  8
0
100
AcDbLine
 62
7
  6
CONTINUOUS
 10
153.0126914683
 20
30.4837666925
 11
153.3017538581
 21
30.4837666925
  0
LINE
  5
290
100
AcDbEntity
  8
0
100
AcDbLine
 62
7
  6
CONTINUOUS
 10
154.3423788581
 20
30.4837666925
 11
154.6892538581
 21
30.4837666925
  0
LINE
  5
291
100
AcDbEntity
  8
0
100
AcDbLine
 62
7
  6
CONTINUOUS
 10
155.3251912478
 20
30.4837666925
 11
155.6142539683
 21
30.4837666925
  0
LINE
  5
292
100
AcDbEntity
  8
0
100
AcDbLine
 62
7
  6
CONTINUOUS
 10
156.0767541889
 20
30.4837666925
 11
156.3658162478
 21
30.4837666925
  0
LINE
  5
293
100
AcDbEntity
  8
0
100
AcDbLine
 62
7
  6
CONTINUOUS
 10
156.8283164683
 20
30.4837666925
 11
157.1173791889
 21
30.4837666925
  0
LINE
  5
294
100
AcDbEntity
  8
0
100
AcDbLine
 62
7
  6
CONTINUOUS
 10
158.1580041889
 20
30.4837666925
 11
158.4470662478
 21
30.4837666925
  0
LINE
  5
295
100
AcDbEntity
  8
0
100
AcDbLine
 62
7
  6
CONTINUOUS
 10
159.7189416889
 20
30.4837666925
 11
160.0658166889
 21
30.4837666925
  0
LINE
  5
296
100
AcDbEntity
  8
0
100
AcDbLine
 62
7
  6
CONTINUOUS
 10
160.0658166889
 20
30.6128214495
 11
159.7189416889
 21
30.6128214495
  0
LINE
  5
297
100
AcDbEntity
  8
0
100
AcDbLine
 62
7
  6
CONTINUOUS
 10
154.6892538581
 20
30.6128214495
 11
154.3423788581
 21
30.6128214495
  0
LINE
  5
298
100
AcDbEntity
  8
0
100
AcDbLine
 62
7
  6
CONTINUOUS
 10
159.1986291889
 20
30.7418762065
 11
158.9095664683
 21
30.7418762065
  0
LINE
  5
299
100
AcDbEntity
  8
0
100
AcDbLine
 62
7
  6
CONTINUOUS
 10
151.2205040235
 20
30.8064036019
 11
150.9314414683
 21
30.8064036019
  0
LINE
  5
29A
100
AcDbEntity
  8
0
100
AcDbLine
 62
7
  6
CONTINUOUS
 10
150.2955039959
 20
31.3871500027
 11
150.7001914408
 21
31.3548863163
  0
LINE
  5
29B
100
AcDbEntity
  8
0
100
AcDbLine
 62
7
  6
CONTINUOUS
 10
150.7580039683
 20
31.483941062
 11
150.3533164408
 21
31.5162047484
  0
LINE
  5
29C
100
AcDbEntity
  8
0
100
AcDbLine
 62
7
  6
CONTINUOUS
 10
159.3720666889
 20
30.5160303817
 11
159.7189416889
 21
30.4837666925
  0
LINE
  5
29D
100
AcDbEntity
  8
0
100
AcDbLine
 62
7
  6
CONTINUOUS
 10
159.7189416889
 20
30.6128214495
 11
159.3720666889
 21
30.6450851472
  0
LINE
  5
29E
100
AcDbEntity
  8
0
100
AcDbLine
 62
7
  6
CONTINUOUS
 10
155.1517537478
 20
31.483941062
 11
154.8048790786
 21
31.5162047484
  0
LINE
  5
29F
100
AcDbEntity
  8
0
100
AcDbLine
 62
7
  6
CONTINUOUS
 10
159.9501914683
 20
31.3871500027
 11
160.2970664683
 21
31.3548863163
  0
LINE
  5
2A0
100
AcDbEntity
  8
0
100
AcDbLine
 62
7
  6
CONTINUOUS
 10
160.2970664683
 20
31.483941062
 11
159.9501914683
 21
31.5162047484
  0
LINE
  5
2A1
100
AcDbEntity
  8
0
100
AcDbLine
 62
7
  6
CONTINUOUS
 10
157.6376916889
 20
31.3871500027
 11
157.8689414683
 21
31.3548863163
  0
LINE
  5
2A2
100
AcDbEntity
  8
0
100
AcDbLine
 62
7
  6
CONTINUOUS
 10
160.4705039683
 20
31.4516773756
 11
160.2970664683
 21
31.483941062
  0
LINE
  5
2A3
100
AcDbEntity
  8
0
100
AcDbLine
 62
7
  6
CONTINUOUS
 10
160.6439414683
 20
30.5805577631
 11
160.7595660273
 21
30.6773488336
  0
LINE
  5
2A4
100
AcDbEntity
  8
0
100
AcDbLine
 62
7
  6
CONTINUOUS
 10
155.1517537478
 20
30.7741399155
 11
154.9783162478
 21
30.6773488336
  0
LINE
  5
2A5
100
AcDbEntity
  8
0
100
AcDbLine
 62
7
  6
CONTINUOUS
 10
157.2330037478
 20
31.4194136891
 11
157.1173791889
 21
31.3548863163
  0
LINE
  5
2A6
100
AcDbEntity
  8
0
100
AcDbLine
 62
7
  6
CONTINUOUS
 10
157.1173791889
 20
31.2258315706
 11
157.2330037478
 21
31.2903589434
  0
LINE
  5
2A7
100
AcDbEntity
  8
0
100
AcDbLine
 62
7
  6
CONTINUOUS
 10
149.8330039821
 20
31.4516773756
 11
149.6595664615
 21
31.3871500027
  0
LINE
  5
2A8
100
AcDbEntity
  8
0
100
AcDbLine
 62
7
  6
CONTINUOUS
 10
152.2611288581
 20
31.483941062
 11
152.0876915235
 21
31.4194136891
  0
LINE
  5
2A9
100
AcDbEntity
  8
0
100
AcDbLine
 62
7
  6
CONTINUOUS
 10
152.0876915235
 20
31.2903589434
 11
152.2611288581
 21
31.3548863163
  0
LINE
  5
2AA
100
AcDbEntity
  8
0
100
AcDbLine
 62
7
  6
CONTINUOUS
 10
150.8736290235
 20
30.7096125201
 11
150.7001914408
 21
30.6450851472
  0
LINE
  5
2AB
100
AcDbEntity
  8
0
100
AcDbLine
 62
7
  6
CONTINUOUS
 10
160.2970664683
 20
30.6450851472
 11
160.0658166889
 21
30.6128214495
  0
LINE
  5
2AC
100
AcDbEntity
  8
0
100
AcDbLine
 62
7
  6
CONTINUOUS
 10
154.6892538581
 20
30.4837666925
 11
154.9783162478
 21
30.5160303817
  0
LINE
  5
2AD
100
AcDbEntity
  8
0
100
AcDbLine
 62
7
  6
CONTINUOUS
 10
160.0658166889
 20
30.4837666925
 11
160.4126916889
 21
30.5160303817
  0
LINE
  5
2AE
100
AcDbEntity
  8
0
100
AcDbLine
 62
7
  6
CONTINUOUS
 10
150.3533164408
 20
30.4837666925
 11
150.7580039683
 21
30.5160303817
  0
LINE
  5
2AF
100
AcDbEntity
  8
0
100
AcDbLine
 62
7
  6
CONTINUOUS
 10
150.7001914408
 20
30.6450851472
 11
150.2955039959
 21
30.6128214495
  0
LINE
  5
2B0
100
AcDbEntity
  8
0
100
AcDbLine
 62
7
  6
CONTINUOUS
 10
154.5736289683
 20
31.0322494069
 11
155.2095666889
 21
31.0322494069
  0
LINE
  5
2B1
100
AcDbEntity
  8
0
100
AcDbLine
 62
7
  6
CONTINUOUS
 10
155.2095666889
 20
31.1613041978
 11
154.5736289683
 21
31.1613041978
  0
LINE
  5
2B2
100
AcDbEntity
  8
0
100
AcDbLine
 62
7
  6
CONTINUOUS
 10
150.9314414683
 20
31.1935678842
 11
151.2205040235
 21
31.1935678842
  0
LINE
  5
2B3
100
AcDbEntity
  8
0
100
AcDbLine
 62
7
  6
CONTINUOUS
 10
153.7642540786
 20
31.258095257
 11
154.0533164683
 21
31.258095257
  0
LINE
  5
2B4
100
AcDbEntity
  8
0
100
AcDbLine
 62
7
  6
CONTINUOUS
 10
160.4705039683
 20
31.258095257
 11
160.7595660273
 21
31.258095257
  0
LINE
  5
2B5
100
AcDbEntity
  8
0
100
AcDbLine
 62
7
  6
CONTINUOUS
 10
154.4580040786
 20
31.3871500027
 11
154.8048790786
 21
31.3871500027
  0
LINE
  5
2B6
100
AcDbEntity
  8
0
100
AcDbLine
 62
7
  6
CONTINUOUS
 10
159.6033164683
 20
31.3871500027
 11
159.9501914683
 21
31.3871500027
  0
LINE
  5
2B7
100
AcDbEntity
  8
0
100
AcDbLine
 62
7
  6
CONTINUOUS
 10
159.9501914683
 20
31.5162047484
 11
159.6033164683
 21
31.5162047484
  0
LINE
  5
2B8
100
AcDbEntity
  8
0
100
AcDbLine
 62
7
  6
CONTINUOUS
 10
157.8689414683
 20
31.5162047484
 11
157.6376916889
 21
31.5162047484
  0
LINE
  5
2B9
100
AcDbEntity
  8
0
100
AcDbLine
 62
7
  6
CONTINUOUS
 10
157.1173791889
 20
31.5162047484
 11
156.8283164683
 21
31.5162047484
  0
LINE
  5
2BA
100
AcDbEntity
  8
0
100
AcDbLine
 62
7
  6
CONTINUOUS
 10
156.3658162478
 20
31.5162047484
 11
156.0767541889
 21
31.5162047484
  0
LINE
  5
2BB
100
AcDbEntity
  8
0
100
AcDbLine
 62
7
  6
CONTINUOUS
 10
154.8048790786
 20
31.5162047484
 11
154.4580040786
 21
31.5162047484
  0
LINE
  5
2BC
100
AcDbEntity
  8
0
100
AcDbLine
 62
7
  6
CONTINUOUS
 10
152.7236290786
 20
31.5162047484
 11
152.4923789683
 21
31.5162047484
  0
LINE
  5
2BD
100
AcDbEntity
  8
0
100
AcDbLine
 62
7
  6
CONTINUOUS
 10
156.0767541889
 20
31.838841703
 11
156.3658162478
 21
31.838841703
  0
LINE
  5
2BE
100
AcDbEntity
  8
0
100
AcDbLine
 62
7
  6
CONTINUOUS
 10
156.3658162478
 20
32.0001601351
 11
156.0767541889
 21
32.0001601351
  0
LINE
  5
2BF
100
AcDbEntity
  8
0
100
AcDbLine
 62
7
  6
CONTINUOUS
 10
151.9720664683
 20
32.0001601351
 11
151.6830039132
 21
32.0001601351
  0
LINE
  5
2C0
100
AcDbEntity
  8
0
100
AcDbLine
 62
7
  6
CONTINUOUS
 10
151.0098482306
 20
32.287045381
 11
151.4224195792
 21
32.287045381
  0
LINE
  5
2C1
100
AcDbEntity
  8
0
100
AcDbLine
 62
7
  6
CONTINUOUS
 10
152.6491924929
 20
32.287045381
 11
154.0426351159
 21
32.287045381
  0
LINE
  5
2C2
100
AcDbEntity
  8
0
100
AcDbLine
 62
7
  6
CONTINUOUS
 10
154.3705039683
 20
32.287045381
 11
155.7639465913
 21
32.287045381
  0
LINE
  5
2C3
100
AcDbEntity
  8
0
100
AcDbLine
 62
7
  6
CONTINUOUS
 10
157.6491924929
 20
32.287045381
 11
159.0426351159
 21
32.287045381
  0
LINE
  5
2C4
100
AcDbEntity
  8
0
100
AcDbLine
 62
7
  6
CONTINUOUS
 10
159.3705039683
 20
32.287045381
 11
160.7639465913
 21
32.287045381
  0
LINE
  5
2C5
100
AcDbEntity
  8
0
100
AcDbLine
 62
7
  6
CONTINUOUS
 10
157.4064412478
 20
31.483941062
 11
157.2330037478
 21
31.4194136891
  0
LINE
  5
2C6
100
AcDbEntity
  8
0
100
AcDbLine
 62
7
  6
CONTINUOUS
 10
154.9783162478
 20
30.5160303817
 11
155.1517537478
 21
30.5805577631
  0
LINE
  5
2C7
100
AcDbEntity
  8
0
100
AcDbLine
 62
7
  6
CONTINUOUS
 10
160.4126916889
 20
30.5160303817
 11
160.6439414683
 21
30.5805577631
  0
LINE
  5
2C8
100
AcDbEntity
  8
0
100
AcDbLine
 62
7
  6
CONTINUOUS
 10
160.4126916889
 20
30.6773488336
 11
160.2970664683
 21
30.6450851472
  0
LINE
  5
2C9
100
AcDbEntity
  8
0
100
AcDbLine
 62
7
  6
CONTINUOUS
 10
159.3720666889
 20
31.3548863163
 11
159.6033164683
 21
31.3871500027
  0
LINE
  5
2CA
100
AcDbEntity
  8
0
100
AcDbLine
 62
7
  6
CONTINUOUS
 10
157.4064412478
 20
31.3548863163
 11
157.6376916889
 21
31.3871500027
  0
LINE
  5
2CB
100
AcDbEntity
  8
0
100
AcDbLine
 62
7
  6
CONTINUOUS
 10
154.3423788581
 20
30.9999857205
 11
154.5736289683
 21
31.0322494069
  0
LINE
  5
2CC
100
AcDbEntity
  8
0
100
AcDbLine
 62
7
  6
CONTINUOUS
 10
157.6376916889
 20
31.5162047484
 11
157.4064412478
 21
31.483941062
  0
LINE
  5
2CD
100
AcDbEntity
  8
0
100
AcDbLine
 62
7
  6
CONTINUOUS
 10
154.2267539683
 20
31.3548863163
 11
154.4580040786
 21
31.3871500027
  0
LINE
  5
2CE
100
AcDbEntity
  8
0
100
AcDbLine
 62
7
  6
CONTINUOUS
 10
159.6033164683
 20
31.5162047484
 11
159.2564414683
 21
31.483941062
  0
LINE
  5
2CF
100
AcDbEntity
  8
0
100
AcDbLine
 62
7
  6
CONTINUOUS
 10
154.5736289683
 20
31.1613041978
 11
154.2267539683
 21
31.1290405113
  0
LINE
  5
2D0
100
AcDbEntity
  8
0
100
AcDbLine
 62
7
  6
CONTINUOUS
 10
150.3533164408
 20
31.5162047484
 11
150.0064414821
 21
31.483941062
  0
LINE
  5
2D1
100
AcDbEntity
  8
0
100
AcDbLine
 62
7
  6
CONTINUOUS
 10
154.4580040786
 20
31.5162047484
 11
154.0533164683
 21
31.483941062
  0
LINE
  5
2D2
100
AcDbEntity
  8
0
100
AcDbLine
 62
7
  6
CONTINUOUS
 10
151.8295203618
 20
33.4345863646
 11
151.1737826569
 21
33.4345863646
  0
LINE
  5
2D3
100
AcDbEntity
  8
0
100
AcDbLine
 62
7
  6
CONTINUOUS
 10
157.2330037478
 20
31.2903589434
 11
157.4064412478
 21
31.3548863163
  0
LINE
  5
2D4
100
AcDbEntity
  8
0
100
AcDbLine
 62
7
  6
CONTINUOUS
 10
159.2564414683
 20
31.3226226299
 11
159.3720666889
 21
31.3548863163
  0
LINE
  5
2D5
100
AcDbEntity
  8
0
100
AcDbLine
 62
7
  6
CONTINUOUS
 10
159.2564414683
 20
31.483941062
 11
159.0251916889
 21
31.4194136891
  0
LINE
  5
2D6
100
AcDbEntity
  8
0
100
AcDbLine
 62
7
  6
CONTINUOUS
 10
154.9783162478
 20
30.6773488336
 11
154.6892538581
 21
30.6128214495
  0
LINE
  5
2D7
100
AcDbEntity
  8
0
100
AcDbLine
 62
7
  6
CONTINUOUS
 10
152.2611288581
 20
31.3548863163
 11
152.4923789683
 21
31.3871500027
  0
LINE
  5
2D8
100
AcDbEntity
  8
0
100
AcDbLine
 62
7
  6
CONTINUOUS
 10
152.4923789683
 20
31.5162047484
 11
152.2611288581
 21
31.483941062
  0
LINE
  5
2D9
100
AcDbEntity
  8
0
100
AcDbLine
 62
7
  6
CONTINUOUS
 10
150.0642539683
 20
31.3548863163
 11
150.2955039959
 21
31.3871500027
  0
LINE
  5
2DA
100
AcDbEntity
  8
0
100
AcDbLine
 62
7
  6
CONTINUOUS
 10
156.5836187224
 20
34.9099962007
 11
157.2393564274
 21
34.9099962007
  0
LINE
  5
2DB
100
AcDbEntity
  8
0
100
AcDbLine
 62
7
  6
CONTINUOUS
 10
154.2267539683
 20
30.967722034
 11
154.3423788581
 21
30.9999857205
  0
LINE
  5
2DC
100
AcDbEntity
  8
0
100
AcDbLine
 62
7
  6
CONTINUOUS
 10
154.2267539683
 20
31.1290405113
 11
153.9955038581
 21
31.0645131385
  0
LINE
  5
2DD
100
AcDbEntity
  8
0
100
AcDbLine
 62
7
  6
CONTINUOUS
 10
154.1111290786
 20
31.3226226299
 11
154.2267539683
 21
31.3548863163
  0
LINE
  5
2DE
100
AcDbEntity
  8
0
100
AcDbLine
 62
7
  6
CONTINUOUS
 10
150.7580039683
 20
30.5160303817
 11
150.9892539132
 21
30.5805577631
  0
LINE
  5
2DF
100
AcDbEntity
  8
0
100
AcDbLine
 62
7
  6
CONTINUOUS
 10
154.0533164683
 20
31.483941062
 11
153.9376915786
 21
31.4516773756
  0
LINE
  5
2E0
100
AcDbEntity
  8
0
100
AcDbLine
 62
7
  6
CONTINUOUS
 10
150.0064414821
 20
31.483941062
 11
149.8330039821
 21
31.4516773756
  0
LINE
  5
2E1
100
AcDbEntity
  8
0
100
AcDbLine
 62
7
  6
CONTINUOUS
 10
160.7639465913
 20
36.0575371843
 11
159.3705039683
 21
36.0575371843
  0
LINE
  5
2E2
100
AcDbEntity
  8
0
100
AcDbLine
 62
7
  6
CONTINUOUS
 10
157.4032908536
 20
36.0575371843
 11
156.990719505
 21
36.0575371843
  0
LINE
  5
2E3
100
AcDbEntity
  8
0
100
AcDbLine
 62
7
  6
CONTINUOUS
 10
155.7639465913
 20
36.0575371843
 11
154.3705039683
 21
36.0575371843
  0
LINE
  5
2E4
100
AcDbEntity
  8
0
100
AcDbLine
 62
7
  6
CONTINUOUS
 10
154.0426351159
 20
36.0575371843
 11
152.6491924929
 21
36.0575371843
  0
LINE
  5
2E5
100
AcDbEntity
  8
0
100
AcDbLine
 62
7
  6
CONTINUOUS
 10
150.7639465913
 20
36.0575371843
 11
149.3705039683
 21
36.0575371843
  0
LINE
  5
2E6
100
AcDbEntity
  8
0
100
AcDbLine
 62
7
  6
CONTINUOUS
 10
149.9486289546
 20
31.3226226299
 11
150.0642539683
 21
31.3548863163
  0
CIRCLE
  5
2E7
100
AcDbEntity
  8
0
100
AcDbCircle
 62
7
  6
CONTINUOUS
 10
160.0672252798
 20
38.3936027581
 40
2.0901639344
  0
ARC
  5
2E8
100
AcDbEntity
  8
0
100
AcDbCircle
 62
7
  6
CONTINUOUS
 10
151.0098482306
 20
33.9263896433
 40
1.6393442623
100
AcDbArc
 50
180.0
 51
270.0
  0
ARC
  5
2E9
100
AcDbEntity
  8
0
100
AcDbCircle
 62
7
  6
CONTINUOUS
 10
157.4032908536
 20
34.418192922
 40
1.6393442623
100
AcDbArc
 50
0.0
 51
90.0
  0
ARC
  5
2EA
100
AcDbEntity
  8
0
100
AcDbCircle
 62
7
  6
CONTINUOUS
 10
151.4224195792
 20
33.7624552171
 40
1.4754098361
100
AcDbArc
 50
270.0
 51
326.2510114041
  0
ARC
  5
2EB
100
AcDbEntity
  8
0
100
AcDbCircle
 62
7
  6
CONTINUOUS
 10
156.990719505
 20
34.5821273482
 40
1.4754098361
100
AcDbArc
 50
90.0
 51
146.2510114041
  0
ARC
  5
2EC
100
AcDbEntity
  8
0
100
AcDbCircle
 62
7
  6
CONTINUOUS
 10
151.8295203618
 20
34.2542584958
 40
0.8196721311
100
AcDbArc
 50
270.0
 51
360.0
  0
ARC
  5
2ED
100
AcDbEntity
  8
0
100
AcDbCircle
 62
7
  6
CONTINUOUS
 10
156.5836187224
 20
34.0903240696
 40
0.8196721311
100
AcDbArc
 50
90.0
 51
180.0
  0
ARC
  5
2EE
100
AcDbEntity
  8
0
100
AcDbCircle
 62
7
  6
CONTINUOUS
 10
151.1737826569
 20
33.8444224302
 40
0.4098360656
100
AcDbArc
 50
180.0
 51
270.0
  0
ARC
  5
2EF
100
AcDbEntity
  8
0
100
AcDbCircle
 62
7
  6
CONTINUOUS
 10
157.2393564274
 20
34.5001601351
 40
0.4098360656
100
AcDbArc
 50
0.0
 51
90.0
  0
SOLID
  5
2F0
100
AcDbEntity
  8
0
100
AcDbTrace
 62
7
  6
CONTINUOUS
 10
156.0767541889
 20
31.8388420633
 11
156.0767541889
 21
32.0001605469
 12
156.3658162478
 22
31.8388420633
 13
156.3658162478
 23
32.0001605469
  0
LWPOLYLINE
  5
2F1
100
AcDbEntity
  8
0
100
AcDbPolyline
 62
7
  6
CONTINUOUS
 90
13
 70
0
 10
150.3533164408
 20
31.5162050961
 10
150.7580039683
 20
31.4839407928
 10
150.9892539132
 20
31.4194137026
 10
151.1626914132
 20
31.3226223092
 10
151.2205040235
 20
31.1935681288
 10
150.9314414683
 20
31.1935681288
 10
150.8736290235
 20
31.2903595223
 10
150.7001914408
 20
31.3548866125
 10
150.2955039959
 20
31.3871493993
 10
149.6595664615
 20
31.3871493993
 10
149.8330039821
 20
31.4516780059
 10
150.0064414821
 20
31.4839407928
 10
150.3533164408
 20
31.5162050961
  0
HATCH
  5
2F2
100
AcDbEntity
  8
0
100
AcDbHatch
 62
7
  6
CONTINUOUS
 10
0.0
 20
0.0
 30
0.0
210
0.0
220
0.0
230
1.0
  2
SOLID
 70
1
 71
1
 91
1
 92
1
 93
12
 72
1
 10
150.3533164408
 20
31.5162050961
 11
150.7580039683
 21
31.4839407928
 72
1
 10
150.7580039683
 20
31.4839407928
 11
150.9892539132
 21
31.4194137026
 72
1
 10
150.9892539132
 20
31.4194137026
 11
151.1626914132
 21
31.3226223092
 72
1
 10
151.1626914132
 20
31.3226223092
 11
151.2205040235
 21
31.1935681288
 72
1
 10
151.2205040235
 20
31.1935681288
 11
150.9314414683
 21
31.1935681288
 72
1
 10
150.9314414683
 20
31.1935681288
 11
150.8736290235
 21
31.2903595223
 72
1
 10
150.8736290235
 20
31.2903595223
 11
150.7001914408
 21
31.3548866125
 72
1
 10
150.7001914408
 20
31.3548866125
 11
150.2955039959
 21
31.3871493993
 72
1
 10
150.2955039959
 20
31.3871493993
 11
149.6595664615
 21
31.3871493993
 72
1
 10
149.6595664615
 20
31.3871493993
 11
149.8330039821
 21
31.4516780059
 72
1
 10
149.8330039821
 20
31.4516780059
 11
150.0064414821
 21
31.4839407928
 72
1
 10
150.0064414821
 20
31.4839407928
 11
150.3533164408
 21
31.5162050961
 97
1
330
2F1
 75
0
 76
1
 98
1
 10
0.0
 20
0.0
  0
LWPOLYLINE
  5
2F3
100
AcDbEntity
  8
0
100
AcDbPolyline
 62
7
  6
CONTINUOUS
 90
25
 70
0
 10
152.2611288581
 20
31.4839407928
 10
152.4923789683
 20
31.5162050961
 10
152.7236290786
 20
31.5162050961
 10
152.8970665786
 20
31.4839407928
 10
153.0705040786
 20
31.4194137026
 10
153.1861289683
 20
31.3548866125
 10
153.2439415786
 20
31.2903595223
 10
153.3017538581
 20
31.1290410387
 10
153.3017538581
 20
30.4837671043
 10
153.0126914683
 20
30.4837671043
 10
153.0126914683
 20
31.1290410387
 10
152.9548788581
 20
31.258095219
 10
152.8392539683
 20
31.3226223092
 10
152.7236290786
 20
31.3548866125
 10
152.4923789683
 20
31.3871493993
 10
152.2611288581
 20
31.3548866125
 10
152.0876915235
 20
31.2903595223
 10
151.9720664683
 20
31.2258309157
 10
151.9720664683
 20
30.4837671043
 10
151.6830039132
 20
30.4837671043
 10
151.6830039132
 20
32.0001605469
 10
151.9720664683
 20
32.0001605469
 10
151.9720664683
 20
31.3548866125
 10
152.0876915235
 20
31.4194137026
 10
152.2611288581
 20
31.4839407928
  0
HATCH
  5
2F4
100
AcDbEntity
  8
0
100
AcDbHatch
 62
7
  6
CONTINUOUS
 10
0.0
 20
0.0
 30
0.0
210
0.0
220
0.0
230
1.0
  2
SOLID
 70
1
 71
1
 91
1
 92
1
 93
24
 72
1
 10
152.2611288581
 20
31.4839407928
 11
152.4923789683
 21
31.5162050961
 72
1
 10
152.4923789683
 20
31.5162050961
 11
152.7236290786
 21
31.5162050961
 72
1
 10
152.7236290786
 20
31.5162050961
 11
152.8970665786
 21
31.4839407928
 72
1
 10
152.8970665786
 20
31.4839407928
 11
153.0705040786
 21
31.4194137026
 72
1
 10
153.0705040786
 20
31.4194137026
 11
153.1861289683
 21
31.3548866125
 72
1
 10
153.1861289683
 20
31.3548866125
 11
153.2439415786
 21
31.2903595223
 72
1
 10
153.2439415786
 20
31.2903595223
 11
153.3017538581
 21
31.1290410387
 72
1
 10
153.3017538581
 20
31.1290410387
 11
153.3017538581
 21
30.4837671043
 72
1
 10
153.3017538581
 20
30.4837671043
 11
153.0126914683
 21
30.4837671043
 72
1
 10
153.0126914683
 20
30.4837671043
 11
153.0126914683
 21
31.1290410387
 72
1
 10
153.0126914683
 20
31.1290410387
 11
152.9548788581
 21
31.258095219
 72
1
 10
152.9548788581
 20
31.258095219
 11
152.8392539683
 21
31.3226223092
 72
1
 10
152.8392539683
 20
31.3226223092
 11
152.7236290786
 21
31.3548866125
 72
1
 10
152.7236290786
 20
31.3548866125
 11
152.4923789683
 21
31.3871493993
 72
1
 10
152.4923789683
 20
31.3871493993
 11
152.2611288581
 21
31.3548866125
 72
1
 10
152.2611288581
 20
31.3548866125
 11
152.0876915235
 21
31.2903595223
 72
1
 10
152.0876915235
 20
31.2903595223
 11
151.9720664683
 21
31.2258309157
 72
1
 10
151.9720664683
 20
31.2258309157
 11
151.9720664683
 21
30.4837671043
 72
1
 10
151.9720664683
 20
30.4837671043
 11
151.6830039132
 21
30.4837671043
 72
1
 10
151.6830039132
 20
30.4837671043
 11
151.6830039132
 21
32.0001605469
 72
1
 10
151.6830039132
 20
32.0001605469
 11
151.9720664683
 21
32.0001605469
 72
1
 10
151.9720664683
 20
32.0001605469
 11
151.9720664683
 21
31.3548866125
 72
1
 10
151.9720664683
 20
31.3548866125
 11
152.0876915235
 21
31.4194137026
 72
1
 10
152.0876915235
 20
31.4194137026
 11
152.2611288581
 21
31.4839407928
 97
1
330
2F3
 75
0
 76
1
 98
1
 10
0.0
 20
0.0
  0
LWPOLYLINE
  5
2F5
100
AcDbEntity
  8
0
100
AcDbPolyline
 62
7
  6
CONTINUOUS
 90
20
 70
0
 10
154.0533164683
 20
31.4839407928
 10
154.4580040786
 20
31.5162050961
 10
154.8048790786
 20
31.5162050961
 10
155.1517537478
 20
31.4839407928
 10
155.3251912478
 20
31.4194137026
 10
155.4408164683
 20
31.3548866125
 10
155.4986287478
 20
31.258095219
 10
155.4986287478
 20
30.7418754649
 10
155.2095666889
 20
30.8386672883
 10
155.2095666889
 20
31.0322496452
 10
155.2095666889
 20
31.1613038256
 10
155.2095666889
 20
31.258095219
 10
155.1517537478
 20
31.3226223092
 10
155.0361291889
 20
31.3548866125
 10
154.8048790786
 20
31.3871493993
 10
154.4580040786
 20
31.3871493993
 10
153.7642540786
 20
31.3226223092
 10
153.8220663581
 20
31.3871493993
 10
153.9376915786
 20
31.4516780059
 10
154.0533164683
 20
31.4839407928
  0
HATCH
  5
2F6
100
AcDbEntity
  8
0
100
AcDbHatch
 62
7
  6
CONTINUOUS
 10
0.0
 20
0.0
 30
0.0
210
0.0
220
0.0
230
1.0
  2
SOLID
 70
1
 71
1
 91
1
 92
1
 93
19
 72
1
 10
154.0533164683
 20
31.4839407928
 11
154.4580040786
 21
31.5162050961
 72
1
 10
154.4580040786
 20
31.5162050961
 11
154.8048790786
 21
31.5162050961
 72
1
 10
154.8048790786
 20
31.5162050961
 11
155.1517537478
 21
31.4839407928
 72
1
 10
155.1517537478
 20
31.4839407928
 11
155.3251912478
 21
31.4194137026
 72
1
 10
155.3251912478
 20
31.4194137026
 11
155.4408164683
 21
31.3548866125
 72
1
 10
155.4408164683
 20
31.3548866125
 11
155.4986287478
 21
31.258095219
 72
1
 10
155.4986287478
 20
31.258095219
 11
155.4986287478
 21
30.7418754649
 72
1
 10
155.4986287478
 20
30.7418754649
 11
155.2095666889
 21
30.8386672883
 72
1
 10
155.2095666889
 20
30.8386672883
 11
155.2095666889
 21
31.0322496452
 72
1
 10
155.2095666889
 20
31.0322496452
 11
155.2095666889
 21
31.1613038256
 72
1
 10
155.2095666889
 20
31.1613038256
 11
155.2095666889
 21
31.258095219
 72
1
 10
155.2095666889
 20
31.258095219
 11
155.1517537478
 21
31.3226223092
 72
1
 10
155.1517537478
 20
31.3226223092
 11
155.0361291889
 21
31.3548866125
 72
1
 10
155.0361291889
 20
31.3548866125
 11
154.8048790786
 21
31.3871493993
 72
1
 10
154.8048790786
 20
31.3871493993
 11
154.4580040786
 21
31.3871493993
 72
1
 10
154.4580040786
 20
31.3871493993
 11
153.7642540786
 21
31.3226223092
 72
1
 10
153.7642540786
 20
31.3226223092
 11
153.8220663581
 21
31.3871493993
 72
1
 10
153.8220663581
 20
31.3871493993
 11
153.9376915786
 21
31.4516780059
 72
1
 10
153.9376915786
 20
31.4516780059
 11
154.0533164683
 21
31.4839407928
 97
1
330
2F5
 75
0
 76
1
 98
1
 10
0.0
 20
0.0
  0
LWPOLYLINE
  5
2F7
100
AcDbEntity
  8
0
100
AcDbPolyline
 62
7
  6
CONTINUOUS
 90
25
 70
0
 10
157.4064412478
 20
31.4839407928
 10
157.6376916889
 20
31.5162050961
 10
157.8689414683
 20
31.5162050961
 10
158.0423789683
 20
31.4839407928
 10
158.2158164683
 20
31.4194137026
 10
158.3314416889
 20
31.3548866125
 10
158.3892539683
 20
31.258095219
 10
158.4470662478
 20
31.0967767354
 10
158.4470662478
 20
30.4837671043
 10
158.1580041889
 20
30.4837671043
 10
158.1580041889
 20
31.0967767354
 10
158.1001912478
 20
31.258095219
 10
157.9845666889
 20
31.3226223092
 10
157.8689414683
 20
31.3548866125
 10
157.6376916889
 20
31.3871493993
 10
157.4064412478
 20
31.3548866125
 10
157.2330037478
 20
31.2903595223
 10
157.1173791889
 20
31.2258309157
 10
157.1173791889
 20
30.4837671043
 10
156.8283164683
 20
30.4837671043
 10
156.8283164683
 20
31.5162050961
 10
157.1173791889
 20
31.5162050961
 10
157.1173791889
 20
31.3548866125
 10
157.2330037478
 20
31.4194137026
 10
157.4064412478
 20
31.4839407928
  0
HATCH
  5
2F8
100
AcDbEntity
  8
0
100
AcDbHatch
 62
7
  6
CONTINUOUS
 10
0.0
 20
0.0
 30
0.0
210
0.0
220
0.0
230
1.0
  2
SOLID
 70
1
 71
1
 91
1
 92
1
 93
24
 72
1
 10
157.4064412478
 20
31.4839407928
 11
157.6376916889
 21
31.5162050961
 72
1
 10
157.6376916889
 20
31.5162050961
 11
157.8689414683
 21
31.5162050961
 72
1
 10
157.8689414683
 20
31.5162050961
 11
158.0423789683
 21
31.4839407928
 72
1
 10
158.0423789683
 20
31.4839407928
 11
158.2158164683
 21
31.4194137026
 72
1
 10
158.2158164683
 20
31.4194137026
 11
158.3314416889
 21
31.3548866125
 72
1
 10
158.3314416889
 20
31.3548866125
 11
158.3892539683
 21
31.258095219
 72
1
 10
158.3892539683
 20
31.258095219
 11
158.4470662478
 21
31.0967767354
 72
1
 10
158.4470662478
 20
31.0967767354
 11
158.4470662478
 21
30.4837671043
 72
1
 10
158.4470662478
 20
30.4837671043
 11
158.1580041889
 21
30.4837671043
 72
1
 10
158.1580041889
 20
30.4837671043
 11
158.1580041889
 21
31.0967767354
 72
1
 10
158.1580041889
 20
31.0967767354
 11
158.1001912478
 21
31.258095219
 72
1
 10
158.1001912478
 20
31.258095219
 11
157.9845666889
 21
31.3226223092
 72
1
 10
157.9845666889
 20
31.3226223092
 11
157.8689414683
 21
31.3548866125
 72
1
 10
157.8689414683
 20
31.3548866125
 11
157.6376916889
 21
31.3871493993
 72
1
 10
157.6376916889
 20
31.3871493993
 11
157.4064412478
 21
31.3548866125
 72
1
 10
157.4064412478
 20
31.3548866125
 11
157.2330037478
 21
31.2903595223
 72
1
 10
157.2330037478
 20
31.2903595223
 11
157.1173791889
 21
31.2258309157
 72
1
 10
157.1173791889
 20
31.2258309157
 11
157.1173791889
 21
30.4837671043
 72
1
 10
157.1173791889
 20
30.4837671043
 11
156.8283164683
 21
30.4837671043
 72
1
 10
156.8283164683
 20
30.4837671043
 11
156.8283164683
 21
31.5162050961
 72
1
 10
156.8283164683
 20
31.5162050961
 11
157.1173791889
 21
31.5162050961
 72
1
 10
157.1173791889
 20
31.5162050961
 11
157.1173791889
 21
31.3548866125
 72
1
 10
157.1173791889
 20
31.3548866125
 11
157.2330037478
 21
31.4194137026
 72
1
 10
157.2330037478
 20
31.4194137026
 11
157.4064412478
 21
31.4839407928
 97
1
330
2F7
 75
0
 76
1
 98
1
 10
0.0
 20
0.0
  0
LWPOLYLINE
  5
2F9
100
AcDbEntity
  8
0
100
AcDbPolyline
 62
7
  6
CONTINUOUS
 90
6
 70
0
 10
159.2564414683
 20
31.4839407928
 10
159.6033164683
 20
31.5162050961
 10
159.9501914683
 20
31.5162050961
 10
160.2970664683
 20
31.4839407928
 10
159.0251916889
 20
31.4194137026
 10
159.2564414683
 20
31.4839407928
  0
HATCH
  5
2FA
100
AcDbEntity
  8
0
100
AcDbHatch
 62
7
  6
CONTINUOUS
 10
0.0
 20
0.0
 30
0.0
210
0.0
220
0.0
230
1.0
  2
SOLID
 70
1
 71
1
 91
1
 92
1
 93
5
 72
1
 10
159.2564414683
 20
31.4839407928
 11
159.6033164683
 21
31.5162050961
 72
1
 10
159.6033164683
 20
31.5162050961
 11
159.9501914683
 21
31.5162050961
 72
1
 10
159.9501914683
 20
31.5162050961
 11
160.2970664683
 21
31.4839407928
 72
1
 10
160.2970664683
 20
31.4839407928
 11
159.0251916889
 21
31.4194137026
 72
1
 10
159.0251916889
 20
31.4194137026
 11
159.2564414683
 21
31.4839407928
 97
1
330
2F9
 75
0
 76
1
 98
1
 10
0.0
 20
0.0
  0
LWPOLYLINE
  5
2FB
100
AcDbEntity
  8
0
100
AcDbPolyline
 62
7
  6
CONTINUOUS
 90
12
 70
0
 10
160.4705039683
 20
31.4516780059
 10
160.6439414683
 20
31.3871493993
 10
160.7595660273
 20
31.258095219
 10
160.4705039683
 20
31.258095219
 10
160.4126916889
 20
31.3226223092
 10
160.2970664683
 20
31.3548866125
 10
159.9501914683
 20
31.3871493993
 10
159.6033164683
 20
31.3871493993
 10
158.9095664683
 20
31.3226223092
 10
159.0251916889
 20
31.4194137026
 10
160.2970664683
 20
31.4839407928
 10
160.4705039683
 20
31.4516780059
  0
HATCH
  5
2FC
100
AcDbEntity
  8
0
100
AcDbHatch
 62
7
  6
CONTINUOUS
 10
0.0
 20
0.0
 30
0.0
210
0.0
220
0.0
230
1.0
  2
SOLID
 70
1
 71
1
 91
1
 92
1
 93
11
 72
1
 10
160.4705039683
 20
31.4516780059
 11
160.6439414683
 21
31.3871493993
 72
1
 10
160.6439414683
 20
31.3871493993
 11
160.7595660273
 21
31.258095219
 72
1
 10
160.7595660273
 20
31.258095219
 11
160.4705039683
 21
31.258095219
 72
1
 10
160.4705039683
 20
31.258095219
 11
160.4126916889
 21
31.3226223092
 72
1
 10
160.4126916889
 20
31.3226223092
 11
160.2970664683
 21
31.3548866125
 72
1
 10
160.2970664683
 20
31.3548866125
 11
159.9501914683
 21
31.3871493993
 72
1
 10
159.9501914683
 20
31.3871493993
 11
159.6033164683
 21
31.3871493993
 72
1
 10
159.6033164683
 20
31.3871493993
 11
158.9095664683
 21
31.3226223092
 72
1
 10
158.9095664683
 20
31.3226223092
 11
159.0251916889
 21
31.4194137026
 72
1
 10
159.0251916889
 20
31.4194137026
 11
160.2970664683
 21
31.4839407928
 72
1
 10
160.2970664683
 20
31.4839407928
 11
160.4705039683
 21
31.4516780059
 97
1
330
2FB
 75
0
 76
1
 98
1
 10
0.0
 20
0.0
  0
LWPOLYLINE
  5
2FD
100
AcDbEntity
  8
0
100
AcDbPolyline
 62
7
  6
CONTINUOUS
 90
7
 70
0
 10
150.0642539683
 20
31.3548866125
 10
149.9486289546
 20
31.3226223092
 10
149.4283164701
 20
31.1935681288
 10
149.5439414683
 20
31.3226223092
 10
149.6595664615
 20
31.3871493993
 10
150.2955039959
 20
31.3871493993
 10
150.0642539683
 20
31.3548866125
  0
HATCH
  5
2FE
100
AcDbEntity
  8
0
100
AcDbHatch
 62
7
  6
CONTINUOUS
 10
0.0
 20
0.0
 30
0.0
210
0.0
220
0.0
230
1.0
  2
SOLID
 70
1
 71
1
 91
1
 92
1
 93
6
 72
1
 10
150.0642539683
 20
31.3548866125
 11
149.9486289546
 21
31.3226223092
 72
1
 10
149.9486289546
 20
31.3226223092
 11
149.4283164701
 21
31.1935681288
 72
1
 10
149.4283164701
 20
31.1935681288
 11
149.5439414683
 21
31.3226223092
 72
1
 10
149.5439414683
 20
31.3226223092
 11
149.6595664615
 21
31.3871493993
 72
1
 10
149.6595664615
 20
31.3871493993
 11
150.2955039959
 21
31.3871493993
 72
1
 10
150.2955039959
 20
31.3871493993
 11
150.0642539683
 21
31.3548866125
 97
1
330
2FD
 75
0
 76
1
 98
1
 10
0.0
 20
0.0
  0
LWPOLYLINE
  5
2FF
100
AcDbEntity
  8
0
100
AcDbPolyline
 62
7
  6
CONTINUOUS
 90
7
 70
0
 10
154.2267539683
 20
31.3548866125
 10
154.1111290786
 20
31.3226223092
 10
154.0533164683
 20
31.258095219
 10
153.7642540786
 20
31.258095219
 10
153.7642540786
 20
31.3226223092
 10
154.4580040786
 20
31.3871493993
 10
154.2267539683
 20
31.3548866125
  0
HATCH
  5
300
100
AcDbEntity
  8
0
100
AcDbHatch
 62
7
  6
CONTINUOUS
 10
0.0
 20
0.0
 30
0.0
210
0.0
220
0.0
230
1.0
  2
SOLID
 70
1
 71
1
 91
1
 92
1
 93
6
 72
1
 10
154.2267539683
 20
31.3548866125
 11
154.1111290786
 21
31.3226223092
 72
1
 10
154.1111290786
 20
31.3226223092
 11
154.0533164683
 21
31.258095219
 72
1
 10
154.0533164683
 20
31.258095219
 11
153.7642540786
 21
31.258095219
 72
1
 10
153.7642540786
 20
31.258095219
 11
153.7642540786
 21
31.3226223092
 72
1
 10
153.7642540786
 20
31.3226223092
 11
154.4580040786
 21
31.3871493993
 72
1
 10
154.4580040786
 20
31.3871493993
 11
154.2267539683
 21
31.3548866125
 97
1
330
2FF
 75
0
 76
1
 98
1
 10
0.0
 20
0.0
  0
LWPOLYLINE
  5
301
100
AcDbEntity
  8
0
100
AcDbPolyline
 62
7
  6
CONTINUOUS
 90
8
 70
0
 10
159.3720666889
 20
31.3548866125
 10
159.2564414683
 20
31.3226223092
 10
159.1986291889
 20
31.258095219
 10
159.0251916889
 20
31.1290410387
 10
158.9095664683
 20
31.258095219
 10
158.9095664683
 20
31.3226223092
 10
159.6033164683
 20
31.3871493993
 10
159.3720666889
 20
31.3548866125
  0
HATCH
  5
302
100
AcDbEntity
  8
0
100
AcDbHatch
 62
7
  6
CONTINUOUS
 10
0.0
 20
0.0
 30
0.0
210
0.0
220
0.0
230
1.0
  2
SOLID
 70
1
 71
1
 91
1
 92
1
 93
7
 72
1
 10
159.3720666889
 20
31.3548866125
 11
159.2564414683
 21
31.3226223092
 72
1
 10
159.2564414683
 20
31.3226223092
 11
159.1986291889
 21
31.258095219
 72
1
 10
159.1986291889
 20
31.258095219
 11
159.0251916889
 21
31.1290410387
 72
1
 10
159.0251916889
 20
31.1290410387
 11
158.9095664683
 21
31.258095219
 72
1
 10
158.9095664683
 20
31.258095219
 11
158.9095664683
 21
31.3226223092
 72
1
 10
158.9095664683
 20
31.3226223092
 11
159.6033164683
 21
31.3871493993
 72
1
 10
159.6033164683
 20
31.3871493993
 11
159.3720666889
 21
31.3548866125
 97
1
330
301
 75
0
 76
1
 98
1
 10
0.0
 20
0.0
  0
LWPOLYLINE
  5
303
100
AcDbEntity
  8
0
100
AcDbPolyline
 62
7
  6
CONTINUOUS
 90
6
 70
0
 10
149.7751914546
 20
31.2258309157
 10
149.7173789683
 20
31.1613038256
 10
149.3705039683
 20
30.999985342
 10
149.4283164701
 20
31.1935681288
 10
149.9486289546
 20
31.3226223092
 10
149.7751914546
 20
31.2258309157
  0
HATCH
  5
304
100
AcDbEntity
  8
0
100
AcDbHatch
 62
7
  6
CONTINUOUS
 10
0.0
 20
0.0
 30
0.0
210
0.0
220
0.0
230
1.0
  2
SOLID
 70
1
 71
1
 91
1
 92
1
 93
5
 72
1
 10
149.7751914546
 20
31.2258309157
 11
149.7173789683
 21
31.1613038256
 72
1
 10
149.7173789683
 20
31.1613038256
 11
149.3705039683
 21
30.999985342
 72
1
 10
149.3705039683
 20
30.999985342
 11
149.4283164701
 21
31.1935681288
 72
1
 10
149.4283164701
 20
31.1935681288
 11
149.9486289546
 21
31.3226223092
 72
1
 10
149.9486289546
 20
31.3226223092
 11
149.7751914546
 21
31.2258309157
 97
1
330
303
 75
0
 76
1
 98
1
 10
0.0
 20
0.0
  0
LWPOLYLINE
  5
305
100
AcDbEntity
  8
0
100
AcDbPolyline
 62
7
  6
CONTINUOUS
 90
7
 70
0
 10
154.2267539683
 20
31.1290410387
 10
154.5736289683
 20
31.1613038256
 10
155.2095666889
 20
31.1613038256
 10
155.2095666889
 20
31.0322496452
 10
154.5736289683
 20
31.0322496452
 10
153.9955038581
 20
31.0645131385
 10
154.2267539683
 20
31.1290410387
  0
HATCH
  5
306
100
AcDbEntity
  8
0
100
AcDbHatch
 62
7
  6
CONTINUOUS
 10
0.0
 20
0.0
 30
0.0
210
0.0
220
0.0
230
1.0
  2
SOLID
 70
1
 71
1
 91
1
 92
1
 93
6
 72
1
 10
154.2267539683
 20
31.1290410387
 11
154.5736289683
 21
31.1613038256
 72
1
 10
154.5736289683
 20
31.1613038256
 11
155.2095666889
 21
31.1613038256
 72
1
 10
155.2095666889
 20
31.1613038256
 11
155.2095666889
 21
31.0322496452
 72
1
 10
155.2095666889
 20
31.0322496452
 11
154.5736289683
 21
31.0322496452
 72
1
 10
154.5736289683
 20
31.0322496452
 11
153.9955038581
 21
31.0645131385
 72
1
 10
153.9955038581
 20
31.0645131385
 11
154.2267539683
 21
31.1290410387
 97
1
330
305
 75
0
 76
1
 98
1
 10
0.0
 20
0.0
  0
LWPOLYLINE
  5
307
100
AcDbEntity
  8
0
100
AcDbPolyline
 62
7
  6
CONTINUOUS
 90
24
 70
0
 10
159.2564414683
 20
31.1935681288
 10
159.4298789683
 20
31.1290410387
 10
160.4126916889
 20
30.9677225551
 10
160.6439414683
 20
30.8709311616
 10
160.7595660273
 20
30.7418754649
 10
160.7595660273
 20
30.6773483748
 10
160.6439414683
 20
30.5805584977
 10
160.4126916889
 20
30.5160298911
 10
160.0658166889
 20
30.4837671043
 10
159.7189416889
 20
30.4837671043
 10
159.3720666889
 20
30.5160298911
 10
159.1986291889
 20
30.5482941944
 10
159.0251916889
 20
30.6128212846
 10
159.7189416889
 20
30.6128212846
 10
160.0658166889
 20
30.6128212846
 10
160.2970664683
 20
30.6450855879
 10
160.4126916889
 20
30.6773483748
 10
160.4705039683
 20
30.7418754649
 10
160.4126916889
 20
30.8064040715
 10
160.2392541889
 20
30.8709311616
 10
159.2564414683
 20
31.0322496452
 10
159.0251916889
 20
31.1290410387
 10
159.1986291889
 20
31.258095219
 10
159.2564414683
 20
31.1935681288
  0
HATCH
  5
308
100
AcDbEntity
  8
0
100
AcDbHatch
 62
7
  6
CONTINUOUS
 10
0.0
 20
0.0
 30
0.0
210
0.0
220
0.0
230
1.0
  2
SOLID
 70
1
 71
1
 91
1
 92
1
 93
23
 72
1
 10
159.2564414683
 20
31.1935681288
 11
159.4298789683
 21
31.1290410387
 72
1
 10
159.4298789683
 20
31.1290410387
 11
160.4126916889
 21
30.9677225551
 72
1
 10
160.4126916889
 20
30.9677225551
 11
160.6439414683
 21
30.8709311616
 72
1
 10
160.6439414683
 20
30.8709311616
 11
160.7595660273
 21
30.7418754649
 72
1
 10
160.7595660273
 20
30.7418754649
 11
160.7595660273
 21
30.6773483748
 72
1
 10
160.7595660273
 20
30.6773483748
 11
160.6439414683
 21
30.5805584977
 72
1
 10
160.6439414683
 20
30.5805584977
 11
160.4126916889
 21
30.5160298911
 72
1
 10
160.4126916889
 20
30.5160298911
 11
160.0658166889
 21
30.4837671043
 72
1
 10
160.0658166889
 20
30.4837671043
 11
159.7189416889
 21
30.4837671043
 72
1
 10
159.7189416889
 20
30.4837671043
 11
159.3720666889
 21
30.5160298911
 72
1
 10
159.3720666889
 20
30.5160298911
 11
159.1986291889
 21
30.5482941944
 72
1
 10
159.1986291889
 20
30.5482941944
 11
159.0251916889
 21
30.6128212846
 72
1
 10
159.0251916889
 20
30.6128212846
 11
159.7189416889
 21
30.6128212846
 72
1
 10
159.7189416889
 20
30.6128212846
 11
160.0658166889
 21
30.6128212846
 72
1
 10
160.0658166889
 20
30.6128212846
 11
160.2970664683
 21
30.6450855879
 72
1
 10
160.2970664683
 20
30.6450855879
 11
160.4126916889
 21
30.6773483748
 72
1
 10
160.4126916889
 20
30.6773483748
 11
160.4705039683
 21
30.7418754649
 72
1
 10
160.4705039683
 20
30.7418754649
 11
160.4126916889
 21
30.8064040715
 72
1
 10
160.4126916889
 20
30.8064040715
 11
160.2392541889
 21
30.8709311616
 72
1
 10
160.2392541889
 20
30.8709311616
 11
159.2564414683
 21
31.0322496452
 72
1
 10
159.2564414683
 20
31.0322496452
 11
159.0251916889
 21
31.1290410387
 72
1
 10
159.0251916889
 20
31.1290410387
 11
159.1986291889
 21
31.258095219
 72
1
 10
159.1986291889
 20
31.258095219
 11
159.2564414683
 21
31.1935681288
 97
1
330
307
 75
0
 76
1
 98
1
 10
0.0
 20
0.0
  0
LWPOLYLINE
  5
309
100
AcDbEntity
  8
0
100
AcDbPolyline
 62
7
  6
CONTINUOUS
 90
12
 70
0
 10
149.6595664615
 20
31.0322496452
 10
149.6595664615
 20
30.9354583476
 10
149.7751914546
 20
30.7741397682
 10
149.9486289546
 20
30.6773483748
 10
150.2955039959
 20
30.6128212846
 10
149.8330039821
 20
30.5482941944
 10
149.6595664615
 20
30.6128212846
 10
149.5439414683
 20
30.6773483748
 10
149.4283164701
 20
30.8064040715
 10
149.3705039683
 20
30.999985342
 10
149.7173789683
 20
31.1613038256
 10
149.6595664615
 20
31.0322496452
  0
HATCH
  5
30A
100
AcDbEntity
  8
0
100
AcDbHatch
 62
7
  6
CONTINUOUS
 10
0.0
 20
0.0
 30
0.0
210
0.0
220
0.0
230
1.0
  2
SOLID
 70
1
 71
1
 91
1
 92
1
 93
11
 72
1
 10
149.6595664615
 20
31.0322496452
 11
149.6595664615
 21
30.9354583476
 72
1
 10
149.6595664615
 20
30.9354583476
 11
149.7751914546
 21
30.7741397682
 72
1
 10
149.7751914546
 20
30.7741397682
 11
149.9486289546
 21
30.6773483748
 72
1
 10
149.9486289546
 20
30.6773483748
 11
150.2955039959
 21
30.6128212846
 72
1
 10
150.2955039959
 20
30.6128212846
 11
149.8330039821
 21
30.5482941944
 72
1
 10
149.8330039821
 20
30.5482941944
 11
149.6595664615
 21
30.6128212846
 72
1
 10
149.6595664615
 20
30.6128212846
 11
149.5439414683
 21
30.6773483748
 72
1
 10
149.5439414683
 20
30.6773483748
 11
149.4283164701
 21
30.8064040715
 72
1
 10
149.4283164701
 20
30.8064040715
 11
149.3705039683
 21
30.999985342
 72
1
 10
149.3705039683
 20
30.999985342
 11
149.7173789683
 21
31.1613038256
 72
1
 10
149.7173789683
 20
31.1613038256
 11
149.6595664615
 21
31.0322496452
 97
1
330
309
 75
0
 76
1
 98
1
 10
0.0
 20
0.0
  0
LWPOLYLINE
  5
30B
100
AcDbEntity
  8
0
100
AcDbPolyline
 62
7
  6
CONTINUOUS
 90
6
 70
0
 10
153.8798789683
 20
30.999985342
 10
153.9955038581
 20
31.0645131385
 10
154.5736289683
 20
31.0322496452
 10
154.3423788581
 20
30.999985342
 10
153.7642540786
 20
30.8709311616
 10
153.8798789683
 20
30.999985342
  0
HATCH
  5
30C
100
AcDbEntity
  8
0
100
AcDbHatch
 62
7
  6
CONTINUOUS
 10
0.0
 20
0.0
 30
0.0
210
0.0
220
0.0
230
1.0
  2
SOLID
 70
1
 71
1
 91
1
 92
1
 93
5
 72
1
 10
153.8798789683
 20
30.999985342
 11
153.9955038581
 21
31.0645131385
 72
1
 10
153.9955038581
 20
31.0645131385
 11
154.5736289683
 21
31.0322496452
 72
1
 10
154.5736289683
 20
31.0322496452
 11
154.3423788581
 21
30.999985342
 72
1
 10
154.3423788581
 20
30.999985342
 11
153.7642540786
 21
30.8709311616
 72
1
 10
153.7642540786
 20
30.8709311616
 11
153.8798789683
 21
30.999985342
 97
1
330
30B
 75
0
 76
1
 98
1
 10
0.0
 20
0.0
  0
LWPOLYLINE
  5
30D
100
AcDbEntity
  8
0
100
AcDbPolyline
 62
7
  6
CONTINUOUS
 90
9
 70
0
 10
154.1111290786
 20
30.9031946612
 10
154.0533164683
 20
30.8064040715
 10
154.0533164683
 20
30.7418754649
 10
153.8220663581
 20
30.6450855879
 10
153.7642540786
 20
30.7741397682
 10
153.7642540786
 20
30.8709311616
 10
154.3423788581
 20
30.999985342
 10
154.2267539683
 20
30.9677225551
 10
154.1111290786
 20
30.9031946612
  0
HATCH
  5
30E
100
AcDbEntity
  8
0
100
AcDbHatch
 62
7
  6
CONTINUOUS
 10
0.0
 20
0.0
 30
0.0
210
0.0
220
0.0
230
1.0
  2
SOLID
 70
1
 71
1
 91
1
 92
1
 93
8
 72
1
 10
154.1111290786
 20
30.9031946612
 11
154.0533164683
 21
30.8064040715
 72
1
 10
154.0533164683
 20
30.8064040715
 11
154.0533164683
 21
30.7418754649
 72
1
 10
154.0533164683
 20
30.7418754649
 11
153.8220663581
 21
30.6450855879
 72
1
 10
153.8220663581
 20
30.6450855879
 11
153.7642540786
 21
30.7741397682
 72
1
 10
153.7642540786
 20
30.7741397682
 11
153.7642540786
 21
30.8709311616
 72
1
 10
153.7642540786
 20
30.8709311616
 11
154.3423788581
 21
30.999985342
 72
1
 10
154.3423788581
 20
30.999985342
 11
154.2267539683
 21
30.9677225551
 72
1
 10
154.2267539683
 20
30.9677225551
 11
154.1111290786
 21
30.9031946612
 97
1
330
30D
 75
0
 76
1
 98
1
 10
0.0
 20
0.0
  0
LWPOLYLINE
  5
30F
100
AcDbEntity
  8
0
100
AcDbPolyline
 62
7
  6
CONTINUOUS
 90
10
 70
0
 10
155.1517537478
 20
30.7741397682
 10
155.2095666889
 20
30.8386672883
 10
155.4986287478
 20
30.7418754649
 10
155.5564416889
 20
30.5805584977
 10
155.6142539683
 20
30.4837671043
 10
155.3251912478
 20
30.4837671043
 10
155.2673789683
 20
30.5482941944
 10
155.2095666889
 20
30.6450855879
 10
154.9783162478
 20
30.6773483748
 10
155.1517537478
 20
30.7741397682
  0
HATCH
  5
310
100
AcDbEntity
  8
0
100
AcDbHatch
 62
7
  6
CONTINUOUS
 10
0.0
 20
0.0
 30
0.0
210
0.0
220
0.0
230
1.0
  2
SOLID
 70
1
 71
1
 91
1
 92
1
 93
9
 72
1
 10
155.1517537478
 20
30.7741397682
 11
155.2095666889
 21
30.8386672883
 72
1
 10
155.2095666889
 20
30.8386672883
 11
155.4986287478
 21
30.7418754649
 72
1
 10
155.4986287478
 20
30.7418754649
 11
155.5564416889
 21
30.5805584977
 72
1
 10
155.5564416889
 20
30.5805584977
 11
155.6142539683
 21
30.4837671043
 72
1
 10
155.6142539683
 20
30.4837671043
 11
155.3251912478
 21
30.4837671043
 72
1
 10
155.3251912478
 20
30.4837671043
 11
155.2673789683
 21
30.5482941944
 72
1
 10
155.2673789683
 20
30.5482941944
 11
155.2095666889
 21
30.6450855879
 72
1
 10
155.2095666889
 20
30.6450855879
 11
154.9783162478
 21
30.6773483748
 72
1
 10
154.9783162478
 20
30.6773483748
 11
155.1517537478
 21
30.7741397682
 97
1
330
30F
 75
0
 76
1
 98
1
 10
0.0
 20
0.0
  0
LWPOLYLINE
  5
311
100
AcDbEntity
  8
0
100
AcDbPolyline
 62
7
  6
CONTINUOUS
 90
12
 70
0
 10
150.8736290235
 20
30.7096125201
 10
150.9314414683
 20
30.8064040715
 10
151.2205040235
 20
30.8064040715
 10
151.1626914132
 20
30.6773483748
 10
150.9892539132
 20
30.5805584977
 10
150.7580039683
 20
30.5160298911
 10
150.3533164408
 20
30.4837671043
 10
150.0064414821
 20
30.5160298911
 10
149.8330039821
 20
30.5482941944
 10
150.2955039959
 20
30.6128212846
 10
150.7001914408
 20
30.6450855879
 10
150.8736290235
 20
30.7096125201
  0
HATCH
  5
312
100
AcDbEntity
  8
0
100
AcDbHatch
 62
7
  6
CONTINUOUS
 10
0.0
 20
0.0
 30
0.0
210
0.0
220
0.0
230
1.0
  2
SOLID
 70
1
 71
1
 91
1
 92
1
 93
11
 72
1
 10
150.8736290235
 20
30.7096125201
 11
150.9314414683
 21
30.8064040715
 72
1
 10
150.9314414683
 20
30.8064040715
 11
151.2205040235
 21
30.8064040715
 72
1
 10
151.2205040235
 20
30.8064040715
 11
151.1626914132
 21
30.6773483748
 72
1
 10
151.1626914132
 20
30.6773483748
 11
150.9892539132
 21
30.5805584977
 72
1
 10
150.9892539132
 20
30.5805584977
 11
150.7580039683
 21
30.5160298911
 72
1
 10
150.7580039683
 20
30.5160298911
 11
150.3533164408
 21
30.4837671043
 72
1
 10
150.3533164408
 20
30.4837671043
 11
150.0064414821
 21
30.5160298911
 72
1
 10
150.0064414821
 20
30.5160298911
 11
149.8330039821
 21
30.5482941944
 72
1
 10
149.8330039821
 20
30.5482941944
 11
150.2955039959
 21
30.6128212846
 72
1
 10
150.2955039959
 20
30.6128212846
 11
150.7001914408
 21
30.6450855879
 72
1
 10
150.7001914408
 20
30.6450855879
 11
150.8736290235
 21
30.7096125201
 97
1
330
311
 75
0
 76
1
 98
1
 10
0.0
 20
0.0
  0
LWPOLYLINE
  5
313
100
AcDbEntity
  8
0
100
AcDbPolyline
 62
7
  6
CONTINUOUS
 90
6
 70
0
 10
154.1111290786
 20
30.6773483748
 10
154.3423788581
 20
30.6128212846
 10
153.9955038581
 20
30.5482941944
 10
153.8220663581
 20
30.6450855879
 10
154.0533164683
 20
30.7418754649
 10
154.1111290786
 20
30.6773483748
  0
HATCH
  5
314
100
AcDbEntity
  8
0
100
AcDbHatch
 62
7
  6
CONTINUOUS
 10
0.0
 20
0.0
 30
0.0
210
0.0
220
0.0
230
1.0
  2
SOLID
 70
1
 71
1
 91
1
 92
1
 93
5
 72
1
 10
154.1111290786
 20
30.6773483748
 11
154.3423788581
 21
30.6128212846
 72
1
 10
154.3423788581
 20
30.6128212846
 11
153.9955038581
 21
30.5482941944
 72
1
 10
153.9955038581
 20
30.5482941944
 11
153.8220663581
 21
30.6450855879
 72
1
 10
153.8220663581
 20
30.6450855879
 11
154.0533164683
 21
30.7418754649
 72
1
 10
154.0533164683
 20
30.7418754649
 11
154.1111290786
 21
30.6773483748
 97
1
330
313
 75
0
 76
1
 98
1
 10
0.0
 20
0.0
  0
LWPOLYLINE
  5
315
100
AcDbEntity
  8
0
100
AcDbPolyline
 62
7
  6
CONTINUOUS
 90
11
 70
0
 10
154.6892538581
 20
30.6128212846
 10
154.9783162478
 20
30.6773483748
 10
155.2095666889
 20
30.6450855879
 10
155.1517537478
 20
30.5805584977
 10
154.9783162478
 20
30.5160298911
 10
154.6892538581
 20
30.4837671043
 10
154.3423788581
 20
30.4837671043
 10
154.1111290786
 20
30.5160298911
 10
153.9955038581
 20
30.5482941944
 10
154.3423788581
 20
30.6128212846
 10
154.6892538581
 20
30.6128212846
  0
HATCH
  5
316
100
AcDbEntity
  8
0
100
AcDbHatch
 62
7
  6
CONTINUOUS
 10
0.0
 20
0.0
 30
0.0
210
0.0
220
0.0
230
1.0
  2
SOLID
 70
1
 71
1
 91
1
 92
1
 93
10
 72
1
 10
154.6892538581
 20
30.6128212846
 11
154.9783162478
 21
30.6773483748
 72
1
 10
154.9783162478
 20
30.6773483748
 11
155.2095666889
 21
30.6450855879
 72
1
 10
155.2095666889
 20
30.6450855879
 11
155.1517537478
 21
30.5805584977
 72
1
 10
155.1517537478
 20
30.5805584977
 11
154.9783162478
 21
30.5160298911
 72
1
 10
154.9783162478
 20
30.5160298911
 11
154.6892538581
 21
30.4837671043
 72
1
 10
154.6892538581
 20
30.4837671043
 11
154.3423788581
 21
30.4837671043
 72
1
 10
154.3423788581
 20
30.4837671043
 11
154.1111290786
 21
30.5160298911
 72
1
 10
154.1111290786
 20
30.5160298911
 11
153.9955038581
 21
30.5482941944
 72
1
 10
153.9955038581
 20
30.5482941944
 11
154.3423788581
 21
30.6128212846
 72
1
 10
154.3423788581
 20
30.6128212846
 11
154.6892538581
 21
30.6128212846
 97
1
330
315
 75
0
 76
1
 98
1
 10
0.0
 20
0.0
  0
LWPOLYLINE
  5
317
100
AcDbEntity
  8
0
100
AcDbPolyline
 62
7
  6
CONTINUOUS
 90
7
 70
0
 10
159.3720666889
 20
30.6450855879
 10
159.7189416889
 20
30.6128212846
 10
159.0251916889
 20
30.6128212846
 10
158.9095664683
 20
30.7418754649
 10
159.1986291889
 20
30.7418754649
 10
159.2564414683
 20
30.6773483748
 10
159.3720666889
 20
30.6450855879
  0
HATCH
  5
318
100
AcDbEntity
  8
0
100
AcDbHatch
 62
7
  6
CONTINUOUS
 10
0.0
 20
0.0
 30
0.0
210
0.0
220
0.0
230
1.0
  2
SOLID
 70
1
 71
1
 91
1
 92
1
 93
6
 72
1
 10
159.3720666889
 20
30.6450855879
 11
159.7189416889
 21
30.6128212846
 72
1
 10
159.7189416889
 20
30.6128212846
 11
159.0251916889
 21
30.6128212846
 72
1
 10
159.0251916889
 20
30.6128212846
 11
158.9095664683
 21
30.7418754649
 72
1
 10
158.9095664683
 20
30.7418754649
 11
159.1986291889
 21
30.7418754649
 72
1
 10
159.1986291889
 20
30.7418754649
 11
159.2564414683
 21
30.6773483748
 72
1
 10
159.2564414683
 20
30.6773483748
 11
159.3720666889
 21
30.6450855879
 97
1
330
317
 75
0
 76
1
 98
1
 10
0.0
 20
0.0
  0
SOLID
  5
319
100
AcDbEntity
  8
0
100
AcDbTrace
 62
7
  6
CONTINUOUS
 10
156.0767541889
 20
30.4837671043
 11
156.0767541889
 21
31.5162050961
 12
156.3658162478
 22
30.4837671043
 13
156.3658162478
 23
31.5162050961
  0
ENDBLK
  5
31A
100
AcDbEntity
  8
0
  6
BYBLOCK
 62
0
100
AcDbBlockEnd
  0
BLOCK
  5
31B
100
AcDbEntity
  8
0
100
AcDbBlockBegin
 62
2
  6
CONTINUOUS
  2
AMMEAAL_LOGO_BL0
 70
64
 10
31.7661185167
 20
19.8972369706
  3
AMMEAAL_LOGO_BL0
  1

  0
TEXT
  5
31C
100
AcDbEntity
  8
0
100
AcDbText
 62
7
  6
CONTINUOUS
 10
18.0387879101
 20
19.2884917655
  7
TEXTSTYLE_3
 40
2.7338706658
  1
Ammeraal Beltech
 41
1.0
 51
15.0
 72
0
100
AcDbText
  0
TEXT
  5
31D
100
AcDbEntity
  8
0
100
AcDbText
 62
7
  6
CONTINUOUS
 10
28.8395887358
 20
17.0149550926
  7
TEXTSTYLE_4
 40
1.0935482663
  1
Innovation & Service in Belting
 41
1.0
 72
0
100
AcDbText
  0
LINE
  5
31E
100
AcDbEntity
  8
0
100
AcDbLine
 62
7
  6
CONTINUOUS
 10
12.0142472588
 20
20.055085074
 11
12.7923992521
 21
23.7160023717
  0
LINE
  5
31F
100
AcDbEntity
  8
0
100
AcDbLine
 62
7
  6
CONTINUOUS
 10
22.8875675419
 20
27.3793962833
 11
13.2802169951
 21
24.257778862
  0
LINE
  5
320
100
AcDbEntity
  8
0
100
AcDbLine
 62
7
  6
CONTINUOUS
 10
12.2395305911
 20
19.361734271
 11
19.7466058522
 21
12.602333345
  0
LINE
  5
321
100
AcDbEntity
  8
0
100
AcDbLine
 62
7
  6
CONTINUOUS
 10
12.5020650018
 20
20.5968615644
 11
23.310334367
 21
24.1086811633
  0
LINE
  5
322
100
AcDbEntity
  8
0
100
AcDbLine
 62
7
  6
CONTINUOUS
 10
23.3061292298
 20
13.7588925996
 11
14.860669561
 21
21.3632186413
  0
LINE
  5
323
100
AcDbEntity
  8
0
100
AcDbLine
 62
7
  6
CONTINUOUS
 10
23.8259519496
 20
26.5344711676
 11
22.8493924124
 21
21.9401197651
  0
LINE
  5
324
100
AcDbEntity
  8
0
100
AcDbLine
 62
7
  6
CONTINUOUS
 10
22.1495904647
 20
18.6478104513
 11
21.4631422532
 21
15.4183255269
  0
LINE
  5
325
100
AcDbEntity
  8
0
100
AcDbLine
 62
7
  6
CONTINUOUS
 10
24.5070480481
 20
14.1490947773
 11
25.4632795838
 21
18.6478104513
  0
LINE
  5
326
100
AcDbEntity
  8
0
100
AcDbLine
 62
7
  6
CONTINUOUS
 10
26.1630815315
 20
21.9401197651
 11
26.6073233338
 21
24.0301131245
  0
LINE
  5
327
100
AcDbEntity
  8
0
100
AcDbLine
 62
7
  6
CONTINUOUS
 10
20.4597069275
 20
12.4507590323
 11
24.0192303051
 21
13.6073182869
  0
LINE
  5
328
100
AcDbEntity
  8
0
100
AcDbLine
 62
7
  6
CONTINUOUS
 10
23.6006686173
 20
27.2278219706
 11
26.3820400015
 21
24.7234639276
  0
ARC
  5
329
100
AcDbEntity
  8
0
100
AcDbCircle
 62
7
  6
CONTINUOUS
 10
13.5055003274
 20
23.564428059
 40
0.7290321776
100
AcDbArc
 50
108.0
 51
168.0
  0
ARC
  5
32A
100
AcDbEntity
  8
0
100
AcDbCircle
 62
7
  6
CONTINUOUS
 10
23.1128508743
 20
26.6860454803
 40
0.7290321776
100
AcDbArc
 50
348.0
 51
108.0
  0
ARC
  5
32B
100
AcDbEntity
  8
0
100
AcDbCircle
 62
7
  6
CONTINUOUS
 10
25.8942222585
 20
24.1816874372
 40
0.7290321776
100
AcDbArc
 50
348.0
 51
48.0
  0
ARC
  5
32C
100
AcDbEntity
  8
0
100
AcDbCircle
 62
7
  6
CONTINUOUS
 10
20.2344235952
 20
13.1441098354
 40
0.7290321776
100
AcDbArc
 50
228.0
 51
288.0
  0
ARC
  5
32D
100
AcDbEntity
  8
0
100
AcDbCircle
 62
7
  6
CONTINUOUS
 10
12.7273483341
 20
19.9035107613
 40
0.7290321776
100
AcDbArc
 50
108.0
 51
228.0
  0
ARC
  5
32E
100
AcDbEntity
  8
0
100
AcDbCircle
 62
7
  6
CONTINUOUS
 10
23.7939469728
 20
14.30066909
 40
0.7290321776
100
AcDbArc
 50
228.0
 51
348.0
  0
ENDBLK
  5
32F
100
AcDbEntity
  8
0
  6
BYBLOCK
 62
0
100
AcDbBlockEnd
  0
BLOCK
  5
330
100
AcDbEntity
  8
0
100
AcDbBlockBegin
  2
*T1
 70
1
 10
0.0
 20
0.0
  3
*T1
  1

  0
LINE
  5
331
100
AcDbEntity
  8
0
100
AcDbLine
 62
2
  6
CONTINUOUS
 10
0.0
 20
0.0
 11
190.0
 21
0.0
  0
LINE
  5
332
100
AcDbEntity
  8
0
100
AcDbLine
 62
2
  6
CONTINUOUS
 10
0.0
 20
0.0
 11
0.0
 21
-20.0
  0
LINE
  5
333
100
AcDbEntity
  8
0
100
AcDbLine
 62
2
  6
CONTINUOUS
 10
0.0
 20
-20.0
 11
190.0
 21
-20.0
  0
LINE
  5
334
100
AcDbEntity
  8
0
100
AcDbLine
 62
2
  6
CONTINUOUS
 10
85.0
 20
0.0
 11
85.0
 21
-20.0
  0
LINE
  5
335
100
AcDbEntity
  8
0
100
AcDbLine
 62
2
  6
CONTINUOUS
 10
105.0
 20
0.0
 11
105.0
 21
-20.0
  0
LINE
  5
336
100
AcDbEntity
  8
0
100
AcDbLine
 62
2
  6
CONTINUOUS
 10
190.0
 20
0.0
 11
190.0
 21
-20.0
  0
MTEXT
  5
337
100
AcDbEntity
  8
0
100
AcDbMText
 62
5
  6
CONTINUOUS
  7
TEXTSTYLE_5
 71
1
 72
1
 10
3.0
 20
-5.177
 30
0.0
 11
1.0
 21
0.0
 31
0.0
 44
1.08
  3
                                                                     Ammeraal Beltech Modular A/S\P\H1.5;                                                                      Hjulmagervej 21,  7100 Vejle,  DK\P\H1.495;                                
  1
                                      tel: \H1.51;+45 75723100     fax: +45 75723348\P\H1.5;                                                                      admin@unichains.dk  www.unichains.com
 40
1.52
 41
161.0496183206
  0
MTEXT
  5
338
100
AcDbEntity
  8
0
100
AcDbMText
 62
5
  6
CONTINUOUS
  7
TEXTSTYLE_6
 71
2
 72
1
 10
95.0
 20
-11.25
 30
0.0
 11
1.0
 21
0.0
 31
0.0
 44
0.9
  1
1:1
 40
5.0
 41
21.0
  0
MTEXT
  5
339
100
AcDbEntity
  8
0
100
AcDbMText
 62
5
  6
CONTINUOUS
  7
TEXTSTYLE_7
 71
1
 72
1
 10
108.0
 20
-8.75
 30
0.0
 11
1.0
 21
0.0
 31
0.0
 44
0.9
  1
uni 3200
 40
7.5
 41
78.25
  0
ENDBLK
  5
33A
100
AcDbEntity
  8
0
  6
BYBLOCK
 62
0
100
AcDbBlockEnd
  0
ENDSEC
  0
SECTION
  2
ENTITIES
  0
MTEXT
  5
33B
100
AcDbEntity
  8
0
100
AcDbMText
 62
5
  6
CONTINUOUS
  7
TEXTSTYLE_2
 71
1
 72
1
 10
96.0
 20
28.436
 30
0.0
 11
1.0
 21
0.0
 31
0.0
 44
0.9
  1
\Q0.000019;Scale :
 40
2.8
 41
11.76
  0
MTEXT
  5
33C
100
AcDbEntity
  8
0
100
AcDbMText
 62
5
  6
CONTINUOUS
  7
TEXTSTYLE_2
 71
1
 72
1
 10
116.0
 20
28.436
 30
0.0
 11
1.0
 21
0.0
 31
0.0
 44
0.9
  1
\Q0.000019;Chain type:
 40
2.8
 41
18.48
  0
INSERT
  5
33D
100
AcDbEntity
  8
0
100
AcDbBlockReference
 62
2
  6
CONTINUOUS
  2
AMMEAAL_LOGO_BL0
 10
31.7661185167
 20
19.8972369706
  0
INSERT
  5
33E
100
AcDbEntity
  8
0
100
AcDbBlockReference
 62
2
  6
CONTINUOUS
  2
UNI_LOGO2_BL1
 10
173.3924355793
 20
35.4326167403
  0
ACAD_TABLE
  5
33F
100
AcDbEntity
  8
0
 62
2
  6
CONTINUOUS
100
AcDbBlockReference
  2
*T1
 10
10.0
 20
30.0
 30
0.0
100
AcDbTable
342
       3B3
343
20E
 11
1.0
 21
0.0
 31
0.0
 90
22
 91
1
 92
3
 93
0
 94
0
 95
0
 96
0
141
20.0
142
85.0
142
20.0
142
85.0
171
1
172
0
173
0
174
0
175
1
176
1
 91
57
178
0
145
0.0
  7
TEXTSTYLE_5
301
CELL_VALUE
 90
4
  2
                                                                     Ammeraal Beltech Modular A/S\P\H1.5;                                                                      Hjulmagervej 21,  7100 Vejle,  DK\P\H1.495;                                
  1
                                      tel: \H1.51;+45 75723100     fax: +45 75723348\P\H1.5;                                                                      admin@unichains.dk  www.unichains.com
304
ACVALUE_END
170
4
140
1.52
 64
5
171
1
172
0
173
0
174
0
175
1
176
1
 91
57
178
0
145
0.0
  7
TEXTSTYLE_6
301
CELL_VALUE
 90
4
  1
1:1
304
ACVALUE_END
170
8
140
5.0
 64
5
171
1
172
0
173
0
174
0
175
1
176
1
 91
57
178
0
145
0.0
  7
TEXTSTYLE_7
301
CELL_VALUE
 90
4
  1
uni 3200
304
ACVALUE_END
170
7
140
7.5
 64
5
  0
LINE
  5
340
100
AcDbEntity
  8
0
100
AcDbLine
 62
7
  6
CONTINUOUS
 10
210.0
 20
0.0
 11
0.0
 21
0.0
  0
LINE
  5
341
100
AcDbEntity
  8
0
100
AcDbLine
 62
7
  6
CONTINUOUS
 10
10.0
 20
10.0
 11
200.0
 21
10.0
  0
LINE
  5
342
100
AcDbEntity
  8
0
100
AcDbLine
 62
7
  6
CONTINUOUS
 10
10.0
 20
30.0
 11
200.0
 21
30.0
  0
LINE
  5
343
100
AcDbEntity
  8
0
100
AcDbLine
 62
7
  6
CONTINUOUS
 10
0.0
 20
0.0
 11
0.0
 21
297.0
  0
LINE
  5
344
100
AcDbEntity
  8
0
100
AcDbLine
 62
7
  6
CONTINUOUS
 10
10.0
 20
10.0
 11
10.0
 21
287.0
  0
LINE
  5
345
100
AcDbEntity
  8
0
100
AcDbLine
 62
7
  6
CONTINUOUS
 10
200.0
 20
287.0
 11
200.0
 21
10.0
  0
LINE
  5
346
100
AcDbEntity
  8
0
100
AcDbLine
 62
7
  6
CONTINUOUS
 10
210.0
 20
0.0
 11
210.0
 21
297.0
  0
LINE
  5
347
100
AcDbEntity
  8
0
100
AcDbLine
 62
7
  6
CONTINUOUS
 10
10.0
 20
287.0
 11
200.0
 21
287.0
  0
LINE
  5
348
100
AcDbEntity
  8
0
100
AcDbLine
 62
7
  6
CONTINUOUS
 10
0.0
 20
297.0
 11
210.0
 21
297.0
  0
LWPOLYLINE
  5
349
100
AcDbEntity
  8
AXES
100
AcDbPolyline
 62
7
  6
CONTINUOUS
 90
17
 70
0
 10
66.5961930438
 20
153.853741527
 10
66.5364087616
 20
153.8346662559
 10
66.420802018
 20
153.7896750044
 10
66.3093084421
 20
153.7352849618
 10
66.2026905892
 20
153.6718681674
 10
66.101677662
 20
153.5998583973
 10
66.0069605236
 20
153.5197481973
 10
65.9191869698
 20
153.4320855102
 10
65.8389573131
 20
153.3374699432
 10
65.7668202552
 20
153.2365486457
 10
65.7032691623
 20
153.1300119222
 10
65.6487386161
 20
153.0185883762
 10
65.6036016665
 20
152.90304043
 10
65.5681671229
 20
152.7841592155
 10
65.5426767634
 20
152.662756347
 10
65.5273048795
 20
152.5396607197
 10
65.522157035
 20
152.4157145931
  0
LWPOLYLINE
  5
34A
100
AcDbEntity
  8
AXES
100
AcDbPolyline
 62
7
  6
CONTINUOUS
 90
29
 70
0
 10
58.3239349522
 20
84.8822922439
 10
58.6189211381
 20
84.8910092936
 10
58.9200551722
 20
84.917971168
 10
59.219099077
 20
84.9631006922
 10
59.5148290253
 20
85.0262179257
 10
59.8060379606
 20
85.1070456027
 10
60.0915528073
 20
85.2052139076
 10
60.3701083478
 20
85.3202054685
 10
60.6409839878
 20
85.4516406251
 10
60.9031473612
 20
85.5989542544
 10
61.1563763434
 20
85.7620337467
 10
61.4003661762
 20
85.9408761263
 10
61.6340278122
 20
86.1349713562
 10
61.857278136
 20
86.3447004423
 10
62.0667725036
 20
86.5671479441
 10
62.2606689573
 20
86.7999085878
 10
62.4369471502
 20
87.0393979622
 10
62.5938789075
 20
87.2810512777
 10
62.7324054485
 20
87.5234307834
 10
62.8527693567
 20
87.763692046
 10
62.9567232054
 20
88.0018525188
 10
63.0455164039
 20
88.2374743593
 10
63.1203043762
 20
88.470350992
 10
63.1819212599
 20
88.6996296467
 10
63.2318430612
 20
88.9277519138
 10
63.2713324909
 20
89.1598269035
 10
63.2993082796
 20
89.3879667437
 10
63.316131935
 20
89.6054195574
 10
63.3233326543
 20
89.8137910396
  0
LINE
  5
34B
100
AcDbEntity
  8
AXES
100
AcDbLine
 62
7
  6
CONTINUOUS
 10
51.4239349569
 20
84.882110589
 11
58.3239349524
 21
84.8822922439
  0
LINE
  5
34C
100
AcDbEntity
  8
0
100
AcDbLine
 62
7
  6
CONTINUOUS
 10
98.7239349239
 20
84.8833558464
 11
105.6239349194
 21
84.8835375013
  0
LINE
  5
34D
100
AcDbEntity
  8
AXES
100
AcDbLine
 62
7
  6
CONTINUOUS
 10
49.9225219899
 20
129.9023919998
 11
49.9238954678
 21
86.3820710983
  0
LINE
  5
34E
100
AcDbEntity
  8
AXES
100
AcDbLine
 62
2
  6
CENTER
 10
44.7558440314
 20
94.5319350429
 11
112.0348868132
 21
94.5337062844
  0
LINE
  5
34F
100
AcDbEntity
  8
AXES
100
AcDbLine
 62
7
  6
CONTINUOUS
 10
63.3231938494
 20
104.3824238711
 11
63.3238689451
 21
90.0347208761
  0
LINE
  5
350
100
AcDbEntity
  8
AXES
100
AcDbLine
 62
7
  6
CONTINUOUS
 10
63.3237251746
 20
89.8528273423
 11
63.3239129815
 21
91.3311063025
  0
LINE
  5
351
100
AcDbEntity
  8
AXES
100
AcDbLine
 62
7
  6
CONTINUOUS
 10
63.3231938494
 20
104.3824238711
 11
63.323649303
 21
104.3824238711
  0
LINE
  5
352
100
AcDbEntity
  8
AXES
100
AcDbLine
 62
7
  6
CONTINUOUS
 10
64.0231056595
 20
116.3824422957
 11
64.0228818818
 21
124.8824422927
  0
LINE
  5
353
100
AcDbEntity
  8
AXES
100
AcDbLine
 62
7
  6
CONTINUOUS
 10
65.5222776286
 20
139.1842398319
 11
65.5222968619
 21
138.4536813291
  0
LINE
  5
354
100
AcDbEntity
  8
AXES
100
AcDbLine
 62
7
  6
CONTINUOUS
 10
65.5220986402
 20
151.9807237196
 11
65.5221570197
 21
152.4154473061
  0
LWPOLYLINE
  5
355
100
AcDbEntity
  8
AXES
100
AcDbPolyline
 62
7
  6
CONTINUOUS
 90
3
 70
0
 10
63.3233326543
 20
89.8137910396
 10
63.3233799275
 20
89.8168964272
 10
63.3237251746
 20
89.8528273423
  0
LINE
  5
356
100
AcDbEntity
  8
AXES
100
AcDbLine
 62
7
  6
CONTINUOUS
 10
91.723117482
 20
106.3831715514
 11
65.3231175003
 21
106.382476524
  0
LINE
  5
357
100
AcDbEntity
  8
0
100
AcDbLine
 62
7
  6
CONTINUOUS
 10
88.0232372715
 20
111.3830741405
 11
69.0232372847
 21
111.3825739314
  0
LINE
  5
358
100
AcDbEntity
  8
DEFAULT_1
100
AcDbLine
 62
2
  6
CENTER
 10
78.5227251116
 20
127.7817302326
 11
78.5227251116
 21
122.0929240329
  0
LINE
  5
359
100
AcDbEntity
  8
0
100
AcDbLine
 62
2
  6
CONTINUOUS
 10
78.5227251116
 20
120.9728240329
 11
78.5227251116
 21
119.2128240329
  0
LINE
  5
35A
100
AcDbEntity
  8
DEFAULT_1
100
AcDbLine
 62
2
  6
CENTER
 10
78.5227251116
 20
113.7119627907
 11
78.5227251116
 21
118.0927240329
  0
LINE
  5
35B
100
AcDbEntity
  8
DEFAULT_1
100
AcDbLine
 62
2
  6
CENTER
 10
84.943572093
 20
120.0928240329
 11
80.5228251116
 21
120.0928240329
  0
LINE
  5
35C
100
AcDbEntity
  8
0
100
AcDbLine
 62
2
  6
CONTINUOUS
 10
79.4027251116
 20
120.0928240329
 11
77.6427251116
 21
120.0928240329
  0
LINE
  5
35D
100
AcDbEntity
  8
DEFAULT_1
100
AcDbLine
 62
2
  6
CENTER
 10
71.6412465116
 20
120.0928240329
 11
76.5226251116
 21
120.0928240329
  0
LINE
  5
35E
100
AcDbEntity
  8
0
100
AcDbLine
 62
7
  6
CONTINUOUS
 10
69.022750239
 20
129.882573925
 11
88.0227502258
 21
129.8830741341
  0
LWPOLYLINE
  5
35F
100
AcDbEntity
  8
0
100
AcDbPolyline
 62
7
  6
CONTINUOUS
 90
17
 70
0
 10
91.5221570034
 20
152.4161400029
 10
91.5170035707
 20
152.540333307
 10
91.5015820423
 20
152.6636920261
 10
91.4759987775
 20
152.7853484253
 10
91.440429459
 20
152.904468284
 10
91.3951178369
 20
153.0202348387
 10
91.3403752528
 20
153.1318520495
 10
91.2765778226
 20
153.238552878
 10
91.2041636954
 20
153.3396044518
 10
91.1236302687
 20
153.4343125958
 10
91.0355306981
 20
153.5220267348
 10
90.9404701249
 20
153.6021443232
 10
90.8391014983
 20
153.6741150054
 10
90.7321211046
 20
153.7374443812
 10
90.6202637816
 20
153.7916974053
 10
90.5042978719
 20
153.8365013766
 10
90.4480452496
 20
153.8543694698
  0
LWPOLYLINE
  5
360
100
AcDbEntity
  8
0
100
AcDbPolyline
 62
7
  6
CONTINUOUS
 90
29
 70
0
 10
93.7238713359
 20
89.856963209
 10
93.7299812754
 20
89.6348460022
 10
93.746788
 20
89.4044752005
 10
93.7754728468
 20
89.1663983013
 10
93.817213431
 20
88.92139052
 10
93.8733196002
 20
88.6697625576
 10
93.9445274262
 20
88.4141646857
 10
94.0313117604
 20
88.1569365632
 10
94.1341357847
 20
87.899684402
 10
94.2531997889
 20
87.6442255493
 10
94.3884553752
 20
87.3924205661
 10
94.5396059163
 20
87.1461140913
 10
94.7061931488
 20
86.9069807318
 10
94.8875162702
 20
86.6766594221
 10
95.0827250582
 20
86.4566155067
 10
95.2906715124
 20
86.2483034071
 10
95.5104514199
 20
86.052641841
 10
95.7407491673
 20
85.8707023441
 10
95.9810148246
 20
85.7027923127
 10
96.2304757184
 20
85.5493833449
 10
96.488412918
 20
85.4108811504
 10
96.7541481533
 20
85.2876558276
 10
97.0267327752
 20
85.1801705761
 10
97.3052833534
 20
85.0887963038
 10
97.5887871162
 20
85.0138858236
 10
97.8762366595
 20
84.9557163685
 10
98.1666080573
 20
84.91449949
 10
98.4588658514
 20
84.8903799631
 10
98.7239349242
 20
84.8833558464
  0
LINE
  5
361
100
AcDbEntity
  8
0
100
AcDbLine
 62
7
  6
CONTINUOUS
 10
93.7237355569
 20
90.0039594813
 11
93.7238713359
 21
89.856963209
  0
LINE
  5
362
100
AcDbEntity
  8
0
100
AcDbLine
 62
7
  6
CONTINUOUS
 10
91.5221570036
 20
152.4161318028
 11
91.5222382728
 21
151.9814082162
  0
LINE
  5
363
100
AcDbEntity
  8
0
100
AcDbLine
 62
7
  6
CONTINUOUS
 10
91.5222968444
 20
138.4543658258
 11
91.5222776111
 21
139.1849243286
  0
LINE
  5
364
100
AcDbEntity
  8
0
100
AcDbLine
 62
7
  6
CONTINUOUS
 10
93.0228818509
 20
124.8832057698
 11
93.0231056287
 21
116.3832057727
  0
LINE
  5
365
100
AcDbEntity
  8
0
100
AcDbLine
 62
7
  6
CONTINUOUS
 10
93.7231938283
 20
104.3832242056
 11
93.7237502168
 21
89.9423580768
  0
LINE
  5
366
100
AcDbEntity
  8
AXES
100
AcDbLine
 62
7
  6
CONTINUOUS
 10
60.6927219724
 20
132.994550346
 11
51.6787310412
 21
131.8875305392
  0
LINE
  5
367
100
AcDbEntity
  8
0
100
AcDbLine
 62
7
  6
CONTINUOUS
 10
105.3662083777
 20
131.8889439584
 11
96.3521591704
 21
132.9954891447
  0
LINE
  5
368
100
AcDbEntity
  8
0
100
AcDbLine
 62
7
  6
CONTINUOUS
 10
91.6693166175
 20
139.9376625465
 11
91.669772071
 21
139.9376625465
  0
LINE
  5
369
100
AcDbEntity
  8
DEFAULT_1
100
AcDbLine
 62
2
  6
CENTER
 10
43.7325302686
 20
145.0819081198
 11
112.8022774583
 21
145.0837265049
  0
LINE
  5
36A
100
AcDbEntity
  8
0
100
AcDbLine
 62
7
  6
CONTINUOUS
 10
107.1238954281
 20
86.3835769909
 11
107.1225219508
 21
129.9038978925
  0
LINE
  5
36B
100
AcDbEntity
  8
0
100
AcDbLine
 62
7
  6
CONTINUOUS
 10
107.1239187148
 20
86.4342836615
 11
107.1239758356
 21
90.9586188818
  0
LINE
  5
36C
100
AcDbEntity
  8
0
100
AcDbLine
 62
7
  6
CONTINUOUS
 10
91.6690827509
 20
151.2287575042
 11
91.6693465098
 21
151.2287577729
  0
LINE
  5
36D
100
AcDbEntity
  8
0
100
AcDbLine
 62
7
  6
CONTINUOUS
 10
91.5220986222
 20
151.9814082162
 11
91.5222382728
 21
151.9814082162
  0
LINE
  5
36E
100
AcDbEntity
  8
AXES
100
AcDbLine
 62
7
  6
CONTINUOUS
 10
49.9234400142
 20
222.2538982255
 11
49.9226555982
 21
217.1788981234
  0
LINE
  5
36F
100
AcDbEntity
  8
AXES
100
AcDbLine
 62
7
  6
CONTINUOUS
 10
49.9228438348
 20
210.0288982056
 11
49.9229774433
 21
204.9538982074
  0
LINE
  5
370
100
AcDbEntity
  8
AXES
100
AcDbLine
 62
7
  6
CONTINUOUS
 10
49.9234526992
 20
222.2411491514
 11
49.9239074816
 21
204.9666478598
  0
LINE
  5
371
100
AcDbEntity
  8
AXES
100
AcDbLine
 62
7
  6
CONTINUOUS
 10
63.3231938494
 20
222.2542509981
 11
63.323649303
 21
204.9542510041
  0
LINE
  5
372
100
AcDbEntity
  8
AXES
100
AcDbLine
 62
7
  6
CONTINUOUS
 10
51.4239349569
 20
203.4539377223
 11
91.7236203238
 21
203.4549986838
  0
LINE
  5
373
100
AcDbEntity
  8
0
100
AcDbLine
 62
7
  6
CONTINUOUS
 10
91.7236203238
 20
203.4549986838
 11
105.6239349194
 21
203.4553646345
  0
LINE
  5
374
100
AcDbEntity
  8
AXES
100
AcDbLine
 62
7
  6
CONTINUOUS
 10
49.922977444
 20
204.9538982074
 11
49.9238954678
 21
204.9538982315
  0
LINE
  5
375
100
AcDbEntity
  8
DEFAULT_1
100
AcDbLine
 62
2
  6
CENTER
 10
78.5233434854
 20
200.8604612099
 11
78.522672458
 21
226.3488411058
  0
LINE
  5
376
100
AcDbEntity
  8
AXES
100
AcDbLine
 62
2
  6
CENTER
 10
47.9223369222
 20
213.6038455399
 11
109.1223368812
 21
213.6054567398
  0
LINE
  5
377
100
AcDbEntity
  8
AXES
100
AcDbLine
 62
7
  6
CONTINUOUS
 10
49.9234400142
 20
222.2538982255
 11
49.9225219904
 21
222.2538982014
  0
LINE
  5
378
100
AcDbEntity
  8
AXES
100
AcDbLine
 62
7
  6
CONTINUOUS
 10
51.423400523
 20
223.7539377152
 11
91.7230858899
 21
223.7549986768
  0
LINE
  5
379
100
AcDbEntity
  8
0
100
AcDbLine
 62
7
  6
CONTINUOUS
 10
65.3230859082
 20
223.7543036494
 11
105.6234004854
 21
223.7553646275
  0
LINE
  5
37A
100
AcDbEntity
  8
0
100
AcDbLine
 62
7
  6
CONTINUOUS
 10
93.7231938283
 20
222.2550513327
 11
93.7236492819
 21
204.9550513387
  0
LINE
  5
37B
100
AcDbEntity
  8
0
100
AcDbLine
 62
7
  6
CONTINUOUS
 10
107.1238954281
 20
204.9554041242
 11
107.1234399746
 21
222.2554041182
  0
LINE
  5
37C
100
AcDbEntity
  8
0
100
AcDbLine
 62
2
  6
CONTINUOUS
 10
165.1016726606
 20
94.5335664574
 11
163.3416726606
 21
94.5335664574
  0
LINE
  5
37D
100
AcDbEntity
  8
DEFAULT_1
100
AcDbLine
 62
2
  6
CENTER
 10
159.8216726606
 20
94.5335664574
 11
156.5694325581
 21
94.5335664574
  0
LINE
  5
37E
100
AcDbEntity
  8
DEFAULT_1
100
AcDbLine
 62
2
  6
CENTER
 10
168.6216726606
 20
94.5335664574
 11
172.0246883721
 21
94.5335664574
  0
LINE
  5
37F
100
AcDbEntity
  8
0
100
AcDbLine
 62
7
  6
CONTINUOUS
 10
154.070601708
 20
142.8864341423
 11
154.0708978932
 21
145.4080416249
  0
LINE
  5
380
100
AcDbEntity
  8
AXES
100
AcDbLine
 62
7
  6
CONTINUOUS
 10
154.0708978932
 20
145.4080416249
 11
154.070216792
 21
95.0321105855
  0
LINE
  5
381
100
AcDbEntity
  8
AXES
100
AcDbLine
 62
7
  6
CONTINUOUS
 10
174.3706801096
 20
133.9124391277
 11
174.3711803187
 21
133.9129393368
  0
LINE
  5
382
100
AcDbEntity
  8
0
100
AcDbLine
 62
2
  6
CONTINUOUS
 10
164.2205763464
 20
145.9624701607
 11
164.2205763464
 21
144.2024701607
  0
LINE
  5
383
100
AcDbEntity
  8
DEFAULT_1
100
AcDbLine
 62
2
  6
CENTER
 10
164.2205763464
 20
140.6824701607
 11
164.2205763464
 21
137.5026604651
  0
LINE
  5
384
100
AcDbEntity
  8
DEFAULT_1
100
AcDbLine
 62
2
  6
CENTER
 10
164.2205763464
 20
149.4824701607
 11
164.2205763464
 21
153.5514046512
  0
LINE
  5
385
100
AcDbEntity
  8
0
100
AcDbLine
 62
2
  6
CONTINUOUS
 10
164.2216726606
 20
95.4135664574
 11
164.2216726606
 21
93.6535664574
  0
LINE
  5
386
100
AcDbEntity
  8
DEFAULT_1
100
AcDbLine
 62
2
  6
CENTER
 10
164.2216726606
 20
90.1335664574
 11
164.2216726606
 21
87.0152186047
  0
LINE
  5
387
100
AcDbEntity
  8
DEFAULT_1
100
AcDbLine
 62
2
  6
CENTER
 10
164.2216726606
 20
98.9335664574
 11
164.2216726606
 21
101.6846139535
  0
LINE
  5
388
100
AcDbEntity
  8
DEFAULT_1
100
AcDbLine
 62
2
  6
CENTER
 10
151.4767402789
 20
120.0928240329
 11
176.9651201763
 21
120.0928240329
  0
LINE
  5
389
100
AcDbEntity
  8
AXES
100
AcDbLine
 62
7
  6
CONTINUOUS
 10
174.3709302282
 20
145.4328240352
 11
174.3708978862
 21
145.4080417513
  0
LINE
  5
38A
100
AcDbEntity
  8
0
100
AcDbLine
 62
7
  6
CONTINUOUS
 10
174.3708978862
 20
145.4080417513
 11
174.3709302062
 21
145.4328240242
  0
LINE
  5
38B
100
AcDbEntity
  8
0
100
AcDbLine
 62
7
  6
CONTINUOUS
 10
174.3712329687
 20
139.1848848384
 11
174.3709302062
 21
145.4328240242
  0
LINE
  5
38C
100
AcDbEntity
  8
0
100
AcDbLine
 62
7
  6
CONTINUOUS
 10
174.3713778654
 20
129.902431511
 11
174.3712329692
 21
138.4543263356
  0
LINE
  5
38D
100
AcDbEntity
  8
AXES
100
AcDbLine
 62
7
  6
CONTINUOUS
 10
174.3708978862
 20
145.4080417513
 11
174.370216785
 21
95.0321105855
  0
LINE
  5
38E
100
AcDbEntity
  8
AXES
100
AcDbLine
 62
7
  6
CONTINUOUS
 10
174.3704656291
 20
131.5057359317
 11
174.3705833291
 21
133.9124391298
  0
LINE
  5
38F
100
AcDbEntity
  8
0
100
AcDbLine
 62
2
  6
CONTINUOUS
 10
165.1005763464
 20
145.0824701607
 11
163.3405763464
 21
145.0824701607
  0
LINE
  5
390
100
AcDbEntity
  8
DEFAULT_1
100
AcDbLine
 62
2
  6
CENTER
 10
159.8205763464
 20
145.0824701607
 11
156.1765023256
 21
145.0824701607
  0
LINE
  5
391
100
AcDbEntity
  8
DEFAULT_1
100
AcDbLine
 62
2
  6
CENTER
 10
168.6205763464
 20
145.0824701607
 11
172.4176186047
 21
145.0824701607
  0
ARC
  5
392
100
AcDbEntity
  8
0
100
AcDbCircle
 62
7
  6
CONTINUOUS
 10
78.5231793591
 20
113.5828240352
 40
42.0
100
AcDbArc
 50
73.501788175
 51
106.5012286534
  0
ARC
  5
393
100
AcDbEntity
  8
AXES
100
AcDbCircle
 62
7
  6
CONTINUOUS
 10
69.0231056507
 20
116.3825739297
 40
5.0
100
AcDbArc
 50
180.0015084142
 51
270.0015084142
  0
ARC
  5
394
100
AcDbEntity
  8
AXES
100
AcDbCircle
 62
7
  6
CONTINUOUS
 10
65.3234215657
 20
104.3824765247
 40
2.0
100
AcDbArc
 50
90.0091936065
 51
180.0015082119
  0
ARC
  5
395
100
AcDbEntity
  8
AXES
100
AcDbCircle
 62
7
  6
CONTINUOUS
 10
51.4238954667
 20
86.3821105885
 40
1.5
100
AcDbArc
 50
180.0015084041
 51
270.0015084142
  0
ARC
  5
396
100
AcDbEntity
  8
AXES
100
AcDbCircle
 62
7
  6
CONTINUOUS
 10
51.9225219891
 20
129.9024446534
 40
2.0
100
AcDbArc
 50
97.0015084118
 51
180.0015084142
  0
ARC
  5
397
100
AcDbEntity
  8
AXES
100
AcDbCircle
 62
7
  6
CONTINUOUS
 10
60.0222968662
 20
138.4535365318
 40
5.5
100
AcDbArc
 50
277.0015084118
 51
0.0015084142
  0
ARC
  5
398
100
AcDbEntity
  8
AXES
100
AcDbCircle
 62
7
  6
CONTINUOUS
 10
63.5222776305
 20
139.1841871783
 40
2.0
100
AcDbArc
 50
0.0015084142
 51
22.1103461462
  0
ARC
  5
399
100
AcDbEntity
  8
AXES
100
AcDbCircle
 62
7
  6
CONTINUOUS
 10
63.5221684565
 20
151.980671066
 40
2.0
100
AcDbArc
 50
337.8918194517
 51
0.0015086463
  0
ARC
  5
39A
100
AcDbEntity
  8
AXES
100
AcDbCircle
 62
7
  6
CONTINUOUS
 10
69.0228818729
 20
124.8825739267
 40
5.0
100
AcDbArc
 50
90.0015084142
 51
180.0015084142
  0
ARC
  5
39B
100
AcDbEntity
  8
0
100
AcDbCircle
 62
7
  6
CONTINUOUS
 10
77.772564629
 20
145.582804279
 40
15.0
100
AcDbArc
 50
337.8926706822
 51
22.1104864173
  0
ARC
  5
39C
100
AcDbEntity
  8
0
100
AcDbCircle
 62
7
  6
CONTINUOUS
 10
88.0231056375
 20
116.3830741388
 40
5.0
100
AcDbArc
 50
270.0015084142
 51
0.0015084142
  0
ARC
  5
39D
100
AcDbEntity
  8
0
100
AcDbCircle
 62
7
  6
CONTINUOUS
 10
91.7234215657
 20
104.3831715521
 40
2.0
100
AcDbArc
 50
0.0015086166
 51
90.0091941307
  0
ARC
  5
39E
100
AcDbEntity
  8
0
100
AcDbCircle
 62
7
  6
CONTINUOUS
 10
105.6238954292
 20
86.3835375007
 40
1.5
100
AcDbArc
 50
270.0015084142
 51
0.0015084244
  0
ARC
  5
39F
100
AcDbEntity
  8
0
100
AcDbCircle
 62
7
  6
CONTINUOUS
 10
88.0228818598
 20
124.8830741358
 40
5.0
100
AcDbArc
 50
0.0015084142
 51
90.0015084142
  0
ARC
  5
3A0
100
AcDbEntity
  8
AXES
100
AcDbCircle
 62
7
  6
CONTINUOUS
 10
79.2723369017
 20
145.5828437692
 40
15.0
100
AcDbArc
 50
157.8927259606
 51
202.1103461462
  0
ARC
  5
3A1
100
AcDbEntity
  8
0
100
AcDbCircle
 62
7
  6
CONTINUOUS
 10
105.1225219522
 20
129.9038452389
 40
2.0
100
AcDbArc
 50
0.0015084126
 51
83.0015084198
  0
ARC
  5
3A2
100
AcDbEntity
  8
0
100
AcDbCircle
 62
7
  6
CONTINUOUS
 10
97.0222968406
 20
138.4545106232
 40
5.5
100
AcDbArc
 50
180.001508414
 51
263.0015084168
  0
ARC
  5
3A3
100
AcDbEntity
  8
0
100
AcDbCircle
 62
7
  6
CONTINUOUS
 10
93.5221684565
 20
151.9814608698
 40
2.0
100
AcDbArc
 50
180.0015081822
 51
202.1045541198
  0
ARC
  5
3A4
100
AcDbEntity
  8
0
100
AcDbCircle
 62
7
  6
CONTINUOUS
 10
93.5222776097
 20
139.1849769822
 40
2.0
100
AcDbArc
 50
157.8926706824
 51
180.0015084143
  0
ARC
  5
3A5
100
AcDbEntity
  8
AXES
100
AcDbCircle
 62
7
  6
CONTINUOUS
 10
51.4238954667
 20
204.9539377217
 40
1.5
100
AcDbArc
 50
180.0015084142
 51
270.0015084142
  0
ARC
  5
3A6
100
AcDbEntity
  8
AXES
100
AcDbCircle
 62
7
  6
CONTINUOUS
 10
51.4234400132
 20
222.2539377157
 40
1.5
100
AcDbArc
 50
90.0015084142
 51
180.0015084142
  0
ARC
  5
3A7
100
AcDbEntity
  8
0
100
AcDbCircle
 62
7
  6
CONTINUOUS
 10
105.6234399756
 20
222.255364628
 40
1.5
100
AcDbArc
 50
0.0015084142
 51
90.0015084142
  0
ARC
  5
3A8
100
AcDbEntity
  8
0
100
AcDbCircle
 62
7
  6
CONTINUOUS
 10
105.6238954292
 20
204.955364634
 40
1.5
100
AcDbArc
 50
270.0015084142
 51
0.0015084142
  0
ARC
  5
3A9
100
AcDbEntity
  8
0
100
AcDbCircle
 62
7
  6
CONTINUOUS
 10
164.2209302338
 20
95.0328240308
 40
10.15
100
AcDbArc
 50
305.9875182724
 51
0.0026303771
  0
ARC
  5
3AA
100
AcDbEntity
  8
0
100
AcDbCircle
 62
7
  6
CONTINUOUS
 10
164.2209302318
 20
145.4328240352
 40
10.15
100
AcDbArc
 50
0.0
 51
180.0
  0
ARC
  5
3AB
100
AcDbEntity
  8
AXES
100
AcDbCircle
 62
7
  6
CONTINUOUS
 10
164.2209302338
 20
95.0328240308
 40
10.15
100
AcDbArc
 50
180.0
 51
359.9973695038
  0
CIRCLE
  5
3AC
100
AcDbEntity
  8
AXES
100
AcDbCircle
 62
7
  6
CONTINUOUS
 10
164.2209302338
 20
145.0828240481
 40
3.675
  0
ARC
  5
3AD
100
AcDbEntity
  8
0
100
AcDbCircle
 62
7
  6
CONTINUOUS
 10
164.2209302338
 20
145.0828240481
 40
3.675
100
AcDbArc
 50
136.0064097913
 51
315.6478471249
  0
CIRCLE
  5
3AE
100
AcDbEntity
  8
AXES
100
AcDbCircle
 62
7
  6
CONTINUOUS
 10
164.2201772987
 20
94.5320710954
 40
3.575
  0
CIRCLE
  5
3AF
100
AcDbEntity
  8
AXES
100
AcDbCircle
 62
7
  6
CONTINUOUS
 10
164.2201878294
 20
94.5320816262
 40
3.175
  0
ENDSEC
  0
SECTION
  2
OBJECTS
  0
DICTIONARY
  5
C
100
AcDbDictionary
280
0
281
1
  3
ACAD_GROUP
350
D
  3
ACAD_MLINESTYLE
350
17
  3
ACAD_LAYOUT
350
1A
  3
ACAD_PLOTSETTINGS
350
19
  3
ACAD_PLOTSTYLENAME
350
E
  3
ACAD_TABLESTYLE
350
       3B0
  0
DICTIONARY
  5
D
102
{ACAD_REACTORS
330
C
102
}
100
AcDbDictionary
280
0
281
1
  0
ACDBDICTIONARYWDFLT
  5
E
102
{ACAD_REACTORS
330
C
102
}
100
AcDbDictionary
281
1
  3
Normal
350
F
100
AcDbDictionaryWithDefault
340
F
  0
DICTIONARY
  5
17
102
{ACAD_REACTORS
330
C
102
}
100
AcDbDictionary
280
0
281
1
  3
Standard
350
18
  0
DICTIONARY
  5
3B0
330
C
100
AcDbDictionary
281
1
  3
Standard
350
       3B3
  3
Standard1
350
       3B4
  0
DICTIONARY
  5
19
102
{ACAD_REACTORS
330
C
102
}
100
AcDbDictionary
281
1
  0
DICTIONARY
  5
1A
102
{ACAD_REACTORS
330
C
102
}
100
AcDbDictionary
281
1
  3
Model
350
3B1
  3
Layout1
350
3B2
  0
ACDBPLACEHOLDER
  5
F
102
{ACAD_REACTORS
330
E
102
}
  0
MLINESTYLE
  5
18
102
{ACAD_REACTORS
330
17
102
}
100
AcDbMlineStyle
  2
STANDARD
 70
0
  3

 62
256
 51
90.0
 52
90.0
 71
2
 49
0.5
 62
256
  6
BYLAYER
 49
-0.5
 62
256
  6
BYLAYER
  0
LAYOUT
  5
3B1
102
{ACAD_REACTORS
330
1A
102
}
100
AcDbPlotSettings
  1

  2
none_device
  4

  6

 40
0.0
 41
0.0
 42
0.0
 43
0.0
 44
210.0
 45
297.0
 46
0.0
 47
0.0
 48
0.0
 49
0.0
140
0.0
141
0.0
142
1.0
143
1.0
 70
1024
 72
1
 73
0
 74
0
  7

 75
0
147
1.0
148
0.0
149
0.0
100
AcDbLayout
  1
Model
 70
0
 71
0
 10
0.0
 20
0.0
 11
210.0
 21
297.0
 12
0.0
 22
0.0
 32
0.0
 14
0.0
 24
0.0
 34
0.0
 15
0.0
 25
0.0
 35
0.0
146
0.0
 13
0.0
 23
0.0
 33
0.0
 16
1.0
 26
0.0
 36
0.0
 17
0.0
 27
1.0
 37
0.0
 76
0
330
20A
345
0
346
0
  0
LAYOUT
  5
3B2
102
{ACAD_REACTORS
330
1A
102
}
100
AcDbPlotSettings
  1

  2
none_device
  4

  6

 40
0.0
 41
0.0
 42
0.0
 43
0.0
 44
210.0
 45
297.0
 46
0.0
 47
0.0
 48
0.0
 49
0.0
140
0.0
141
0.0
142
1.0
143
1.0
 70
0
 72
1
 73
0
 74
0
  7

 75
0
147
1.0
148
0.0
149
0.0
100
AcDbLayout
  1
Layout1
 70
0
 71
1
 10
0.0
 20
0.0
 11
210.0
 21
297.0
 12
0.0
 22
0.0
 32
0.0
 14
0.0
 24
0.0
 34
0.0
 15
0.0
 25
0.0
 35
0.0
146
0.0
 13
0.0
 23
0.0
 33
0.0
 16
1.0
 26
0.0
 36
0.0
 17
0.0
 27
1.0
 37
0.0
 76
0
330
20B
345
0
346
0
  0
TABLESTYLE
  5
3B3
102
{ACAD_REACTORS
330
3B0
330
33F
102
}
330
3B0
100
AcDbTableStyle
  3
Standard
 70
0
 71
0
 40
0.06
 41
0.06
280
1
281
1
  7
Standard
140
0.18
170
1
 62
0
 63
7
283
0
  7
Standard
140
0.18
170
1
 62
0
 63
7
283
0
  7
Standard
140
0.18
170
1
 62
0
 63
7
283
0
  0
TABLESTYLE
  5
3B4
102
{ACAD_REACTORS
330
3B0
102
}
330
3B0
100
AcDbTableStyle
  3
Standard1
 70
1
 71
0
 40
0.06
 41
0.06
280
1
281
1
  7
Standard
140
0.18
170
1
 62
0
 63
7
283
0
  7
Standard
140
0.18
170
1
 62
0
 63
7
283
0
  7
Standard
140
0.18
170
1
 62
0
 63
7
283
0
  0
ENDSEC
  0
EOF
