999
DXF file: G:\afd20\200100-Web\Chains\uni 2800\2D-DXF\Belt links\uni_2800_tab.dxf
999
Pro/ENGINEER 2015290 by Parametric Technology Corporation
  0
SECTION
  2
HEADER
  9
$ACADVER
  1
AC1027
  9
$DWGCODEPAGE
  3
ANSI_1252
  9
$EXTMAX
 10
210.0
 20
297.0
 30
0.0
  9
$EXTMIN
 10
0.0
 20
0.0
 30
0.0
  9
$LIMMIN
 10
0.0
 20
0.0
  9
$LIMMAX
 10
210.0
 20
297.0
  9
$VIEWCTR
 10
105.0
 20
148.5
  9
$VIEWSIZE
 40
297.0
  9
$CLAYER
  8
0
  9
$LTSCALE
 40
19.36
  9
$CELTYPE
  6
BYLAYER
  9
$DIMSCALE
 40
1.0
  9
$DIMASZ
 40
3.5
  9
$DIMEXO
 40
1.0
  9
$DIMDLI
 40
13.376
  9
$DIMEXE
 40
2.0
  9
$DIMCEN
 40
3.168
  9
$DIMLFAC
 40
1.0
  9
$DIMBLK
  1
_FILLED
  9
$DIMALT
 70
0
  9
$DIMALTF
 40
0.0393700787
  9
$DIMTXT
 40
3.5
  9
$DIMTOL
 70
1
  9
$DIMLIM
 70
0
  9
$DIMTFAC
 40
1.0
  9
$DIMTP
 40
0.01
  9
$DIMTM
 40
0.01
  9
$DIMGAP
 40
0.625
  9
$DIMDSEP
 70
46
  9
$AUNITS
 70
0
  9
$PDMODE
 70
3
  9
$PDSIZE
 40
0.3125
  9
$HANDSEED
  5
41A
  9
$TILEMODE
 70
1
  9
$MEASUREMENT
 70
1
  9
$INSUNITS
 70
4
  0
ENDSEC
  0
SECTION
  2
CLASSES
  0
CLASS
  1
ACDBDICTIONARYWDFLT
  2
AcDbDictionaryWithDefault
  3
AutoCAD 2000
 90
0
 91
1
280
0
281
0
  0
CLASS
  1
ACDBPLACEHOLDER
  2
AcDbPlaceHolder
  3
AutoCAD 2000
 90
0
 91
1
280
0
281
0
  0
CLASS
  1
LAYOUT
  2
AcDbLayout
  3
AutoCAD 2000
 90
0
 91
0
280
0
281
0
  0
CLASS
  1
TABLESTYLE
  2
AcDbTableStyle
  3
ObjectDBX Classes
 90
2047
 91
1
280
0
281
0
  0
CLASS
  1
ACAD_TABLE
  2
AcDbTable
  3
ObjectDBX Classes
 90
1025
 91
1
280
0
281
1
  0
ENDSEC
  0
SECTION
  2
TABLES
  0
TABLE
  2
VPORT
  5
8
100
AcDbSymbolTable
 70
2
  0
VPORT
  5
1F4
100
AcDbSymbolTableRecord
100
AcDbViewportTableRecord
  2
*ACTIVE
 70
0
 10
0.0
 20
0.0
 11
1.0
 21
1.0
 12
105.0
 22
148.5
 13
0.0
 23
0.0
 14
1.0
 24
1.0
 15
0.0
 25
0.0
 16
0.0
 26
0.0
 36
1.0
 17
0.0
 27
0.0
 37
0.0
 40
297.0
 41
0.7070707071
 42
50.0
 43
0.0
 44
0.0
 50
0.0
 51
0.0
 71
0
 72
100
 73
1
 74
1
 75
0
 76
0
 77
0
 78
0
  0
ENDTAB
  0
TABLE
  2
LTYPE
  5
5
100
AcDbSymbolTable
 70
6
  0
LTYPE
  5
14
100
AcDbSymbolTableRecord
100
AcDbLinetypeTableRecord
  2
BYBLOCK
 70
0
  3

 72
65
 73
0
 40
0.0
  0
LTYPE
  5
15
100
AcDbSymbolTableRecord
100
AcDbLinetypeTableRecord
  2
BYLAYER
 70
0
  3

 72
65
 73
0
 40
0.0
  0
LTYPE
  5
16
100
AcDbSymbolTableRecord
100
AcDbLinetypeTableRecord
  2
CONTINUOUS
 70
64
  3
Solid line
 72
65
 73
0
 40
0.0
  0
LTYPE
  5
1F5
100
AcDbSymbolTableRecord
100
AcDbLinetypeTableRecord
  2
CENTER
 70
64
  3
____ _ ____ _ ____ _ ____ _ ____ _ ____ _ ____
 72
65
 73
4
 40
0.6
 49
0.375
 74
0
 49
-0.075
 74
0
 49
0.075
 74
0
 49
-0.075
 74
0
  0
LTYPE
  5
1F6
100
AcDbSymbolTableRecord
100
AcDbLinetypeTableRecord
  2
HIDDEN
 70
64
  3
- - - - - - - - - - - - - - - - - - - -
 72
65
 73
2
 40
0.2
 49
0.1
 74
0
 49
-0.1
 74
0
  0
LTYPE
  5
1F7
100
AcDbSymbolTableRecord
100
AcDbLinetypeTableRecord
  2
PHANTOM
 70
64
  3
_____ _ _ _____ _ _ _____ _ _ _____
 72
65
 73
6
 40
0.8
 49
0.45
 74
0
 49
-0.05
 74
0
 49
0.1
 74
0
 49
-0.05
 74
0
 49
0.1
 74
0
 49
-0.05
 74
0
  0
LTYPE
  5
1F8
100
AcDbSymbolTableRecord
100
AcDbLinetypeTableRecord
  2
DOT
 70
64
  3
. . . . . . . . . . . . . . . . . . . .
 72
65
 73
2
 40
0.2
 49
0.1
 74
0
 49
-0.1
 74
0
  0
LTYPE
  5
1F9
100
AcDbSymbolTableRecord
100
AcDbLinetypeTableRecord
  2
DASHED
 70
64
  3
- - - - - - - - - - - - - - - - - - - -
 72
65
 73
2
 40
0.2
 49
0.1
 74
0
 49
-0.1
 74
0
  0
ENDTAB
  0
TABLE
  2
LAYER
  5
2
100
AcDbSymbolTable
 70
36
  0
LAYER
  5
10
100
AcDbSymbolTableRecord
100
AcDbLayerTableRecord
  2
0
 70
0
 62
7
  6
CONTINUOUS
370
-3
390
F
  0
LAYER
  5
1FA
100
AcDbSymbolTableRecord
100
AcDbLayerTableRecord
  2
DEFAULT_1
 70
0
 62
7
  6
CENTER
370
-3
390
F
  0
LAYER
  5
1FB
100
AcDbSymbolTableRecord
100
AcDbLayerTableRecord
  2
DEFAULT_2
 70
0
 62
8
  6
HIDDEN
370
-3
390
F
  0
LAYER
  5
1FC
100
AcDbSymbolTableRecord
100
AcDbLayerTableRecord
  2
DEFAULT_3
 70
0
 62
7
  6
PHANTOM
370
-3
390
F
  0
LAYER
  5
1FD
100
AcDbSymbolTableRecord
100
AcDbLayerTableRecord
  2
AXES
 70
0
 62
7
  6
CONTINUOUS
370
-3
390
F
  0
LAYER
  5
1FE
100
AcDbSymbolTableRecord
100
AcDbLayerTableRecord
  2
CSYS
 70
0
 62
7
  6
CONTINUOUS
370
-3
390
F
  0
LAYER
  5
1FF
100
AcDbSymbolTableRecord
100
AcDbLayerTableRecord
  2
CURVES
 70
0
 62
7
  6
CONTINUOUS
370
-3
390
F
  0
LAYER
  5
200
100
AcDbSymbolTableRecord
100
AcDbLayerTableRecord
  2
NOTES
 70
0
 62
7
  6
CONTINUOUS
370
-3
390
F
  0
LAYER
  5
201
100
AcDbSymbolTableRecord
100
AcDbLayerTableRecord
  2
PLANES
 70
0
 62
7
  6
CONTINUOUS
370
-3
390
F
  0
LAYER
  5
202
100
AcDbSymbolTableRecord
100
AcDbLayerTableRecord
  2
QUILT
 70
0
 62
7
  6
CONTINUOUS
370
-3
390
F
  0
LAYER
  5
203
100
AcDbSymbolTableRecord
100
AcDbLayerTableRecord
  2
SURFACE
 70
0
 62
7
  6
CONTINUOUS
370
-3
390
F
  0
ENDTAB
  0
TABLE
  2
STYLE
  5
3
100
AcDbSymbolTable
 70
1
  0
STYLE
  5
11
100
AcDbSymbolTableRecord
100
AcDbTextStyleTableRecord
  2
STANDARD
 70
0
 40
0.0
 41
0.8
 50
0.0
 71
0
 42
0.2
  3
txt
  4

  0
STYLE
  5
204
100
AcDbSymbolTableRecord
100
AcDbTextStyleTableRecord
  2
TEXTSTYLE_1
 70
0
 40
0.0
 41
0.8
 50
0.0
 71
0
 42
0.2
  3
gdt
  4

  0
STYLE
  5
205
100
AcDbSymbolTableRecord
100
AcDbTextStyleTableRecord
  2
TEXTSTYLE_2
 70
0
 40
0.0
 41
0.6
 50
0.0
 71
0
 42
0.2
  3
txt
  4

  0
STYLE
  5
206
100
AcDbSymbolTableRecord
100
AcDbTextStyleTableRecord
  2
TEXTSTYLE_3
 70
0
 40
0.0
 41
1.0
 50
0.0
 71
0
 42
0.2
  3
ftb_____.ttf
  4

  0
STYLE
  5
207
100
AcDbSymbolTableRecord
100
AcDbTextStyleTableRecord
  2
TEXTSTYLE_4
 70
0
 40
0.0
 41
1.0
 50
0.0
 71
0
 42
0.2
  3
fti_____.ttf
  4

  0
STYLE
  5
208
100
AcDbSymbolTableRecord
100
AcDbTextStyleTableRecord
  2
TEXTSTYLE_5
 70
0
 40
0.0
 41
1.0
 50
0.0
 71
0
 42
0.2
  3
frutiger light.ttf
  4

  0
STYLE
  5
209
100
AcDbSymbolTableRecord
100
AcDbTextStyleTableRecord
  2
TEXTSTYLE_6
 70
0
 40
0.0
 41
0.7
 50
0.0
 71
0
 42
0.2
  3
txt
  4

  0
STYLE
  5
20A
100
AcDbSymbolTableRecord
100
AcDbTextStyleTableRecord
  2
TEXTSTYLE_7
 70
0
 40
0.0
 41
0.8
 50
0.0
 71
0
 42
0.2
  3
txt
  4

  0
ENDTAB
  0
TABLE
  2
VIEW
  5
6
100
AcDbSymbolTable
 70
0
  0
ENDTAB
  0
TABLE
  2
UCS
  5
7
100
AcDbSymbolTable
 70
0
  0
ENDTAB
  0
TABLE
  2
APPID
  5
9
100
AcDbSymbolTable
 70
1
  0
APPID
  5
20B
100
AcDbSymbolTableRecord
100
AcDbRegAppTableRecord
  2
ACAD
 70
0
  0
ENDTAB
  0
TABLE
  2
BLOCK_RECORD
  5
1
100
AcDbSymbolTable
 70
0
  0
BLOCK_RECORD
  5
20C
100
AcDbSymbolTableRecord
100
AcDbBlockTableRecord
  2
*Model_Space
  0
BLOCK_RECORD
  5
20D
100
AcDbSymbolTableRecord
100
AcDbBlockTableRecord
  2
*Paper_Space
  0
BLOCK_RECORD
  5
20E
100
AcDbSymbolTableRecord
100
AcDbBlockTableRecord
  2
UNI_LOGO2_BL1
  0
BLOCK_RECORD
  5
20F
100
AcDbSymbolTableRecord
100
AcDbBlockTableRecord
  2
AMMEAAL_LOGO_BL0
  0
BLOCK_RECORD
  5
210
100
AcDbSymbolTableRecord
100
AcDbBlockTableRecord
  2
*T1
  0
ENDTAB
  0
TABLE
  2
DIMSTYLE
  5
A
100
AcDbSymbolTable
 70
1
100
AcDbDimStyleTable
 71
0
  0
DIMSTYLE
105
211
100
AcDbSymbolTableRecord
100
AcDbDimStyleTableRecord
  2
STANDARD
 70
0
  3

  4

 40
1.0
 41
3.5
 42
1.0
 43
0.38
 44
2.0
 45
0.0
 46
0.0
 47
0.01
 48
0.01
140
3.5
141
0.09
142
0.0
143
25.4
144
1.0
145
0.0
146
1.0
147
0.625
 71
1.0
 72
0.0
 73
0
 74
0
 75
0
 76
0
 77
1
 78
0
170
0
171
2
172
0
173
0
174
0
175
0
176
0
177
0
178
5
270
2
271
2
272
2
273
2
274
2
275
0
280
0
281
0
282
0
283
1
284
0
285
0
286
0
287
3
288
0
340
11
278
46
  0
ENDTAB
  0
ENDSEC
  0
SECTION
  2
BLOCKS
  0
BLOCK
  5
20
100
AcDbEntity
  8
0
100
AcDbBlockBegin
  2
*Model_Space
 70
0
 10
0.0
 20
0.0
 30
0.0
  3
*Model_Space
  1

  0
ENDBLK
  5
21
100
AcDbEntity
  8
0
100
AcDbBlockEnd
  0
BLOCK
  5
1C
100
AcDbEntity
  8
0
100
AcDbBlockBegin
  2
*Paper_Space
 70
0
 10
0.0
 20
0.0
 30
0.0
  3
*Paper_Space
  1

  0
ENDBLK
  5
1D
100
AcDbEntity
  8
0
100
AcDbBlockEnd
  0
BLOCK
  5
212
100
AcDbEntity
  8
0
100
AcDbBlockBegin
 62
2
  6
CONTINUOUS
  2
UNI_LOGO2_BL1
 70
64
 10
173.3924355793
 20
35.4837666925
  3
UNI_LOGO2_BL1
  1

  0
TEXT
  5
213
100
AcDbEntity
  8
0
100
AcDbText
 62
7
  6
CONTINUOUS
 10
164.4507205878
 20
30.5765230696
  7
TEXTSTYLE_4
 40
1.0655737705
  1
The brand for plastic modular belts and chains
 41
1.0
 72
0
100
AcDbText
  0
LINE
  5
214
100
AcDbEntity
  8
0
100
AcDbLine
 62
7
  6
CONTINUOUS
 10
149.3705039683
 20
36.0575371843
 11
149.3705039683
 21
33.9263896433
  0
LINE
  5
215
100
AcDbEntity
  8
0
100
AcDbLine
 62
7
  6
CONTINUOUS
 10
149.6595664615
 20
30.9354583476
 11
149.6595664615
 21
31.0322494069
  0
LINE
  5
216
100
AcDbEntity
  8
0
100
AcDbLine
 62
7
  6
CONTINUOUS
 10
149.3705039683
 20
30.9999857205
 11
149.4283164701
 21
30.8064036019
  0
LINE
  5
217
100
AcDbEntity
  8
0
100
AcDbLine
 62
7
  6
CONTINUOUS
 10
150.7639465913
 20
33.8444224302
 11
150.7639465913
 21
36.0575371843
  0
LINE
  5
218
100
AcDbEntity
  8
0
100
AcDbLine
 62
7
  6
CONTINUOUS
 10
151.6830039132
 20
32.0001601351
 11
151.6830039132
 21
30.4837666925
  0
LINE
  5
219
100
AcDbEntity
  8
0
100
AcDbLine
 62
7
  6
CONTINUOUS
 10
151.9720664683
 20
30.4837666925
 11
151.9720664683
 21
31.2258315706
  0
LINE
  5
21A
100
AcDbEntity
  8
0
100
AcDbLine
 62
7
  6
CONTINUOUS
 10
151.9720664683
 20
31.3548863163
 11
151.9720664683
 21
32.0001601351
  0
LINE
  5
21B
100
AcDbEntity
  8
0
100
AcDbLine
 62
7
  6
CONTINUOUS
 10
149.4283164701
 20
31.1935678842
 11
149.3705039683
 21
30.9999857205
  0
LINE
  5
21C
100
AcDbEntity
  8
0
100
AcDbLine
 62
7
  6
CONTINUOUS
 10
149.7751914546
 20
30.7741399155
 11
149.6595664615
 21
30.9354583476
  0
LINE
  5
21D
100
AcDbEntity
  8
0
100
AcDbLine
 62
7
  6
CONTINUOUS
 10
150.8736290235
 20
31.2903589434
 11
150.9314414683
 21
31.1935678842
  0
LINE
  5
21E
100
AcDbEntity
  8
0
100
AcDbLine
 62
7
  6
CONTINUOUS
 10
151.2205040235
 20
31.1935678842
 11
151.1626914132
 21
31.3226226299
  0
LINE
  5
21F
100
AcDbEntity
  8
0
100
AcDbLine
 62
7
  6
CONTINUOUS
 10
152.6491924929
 20
36.0575371843
 11
152.6491924929
 21
34.2542584958
  0
LINE
  5
220
100
AcDbEntity
  8
0
100
AcDbLine
 62
7
  6
CONTINUOUS
 10
152.6491924929
 20
32.9427830859
 11
152.6491924929
 21
32.287045381
  0
LINE
  5
221
100
AcDbEntity
  8
0
100
AcDbLine
 62
7
  6
CONTINUOUS
 10
153.0126914683
 20
31.1290405113
 11
153.0126914683
 21
30.4837666925
  0
LINE
  5
222
100
AcDbEntity
  8
0
100
AcDbLine
 62
7
  6
CONTINUOUS
 10
153.3017538581
 20
30.4837666925
 11
153.3017538581
 21
31.1290405113
  0
LINE
  5
223
100
AcDbEntity
  8
0
100
AcDbLine
 62
7
  6
CONTINUOUS
 10
149.6595664615
 20
31.0322494069
 11
149.7173789683
 21
31.1613041978
  0
LINE
  5
224
100
AcDbEntity
  8
0
100
AcDbLine
 62
7
  6
CONTINUOUS
 10
149.4283164701
 20
30.8064036019
 11
149.5439414683
 21
30.6773488336
  0
LINE
  5
225
100
AcDbEntity
  8
0
100
AcDbLine
 62
7
  6
CONTINUOUS
 10
152.9548788581
 20
31.258095257
 11
153.0126914683
 21
31.1290405113
  0
LINE
  5
226
100
AcDbEntity
  8
0
100
AcDbLine
 62
7
  6
CONTINUOUS
 10
153.7642540786
 20
30.7741399155
 11
153.8220663581
 21
30.6450851472
  0
LINE
  5
227
100
AcDbEntity
  8
0
100
AcDbLine
 62
7
  6
CONTINUOUS
 10
153.3017538581
 20
31.1290405113
 11
153.2439415786
 21
31.2903589434
  0
LINE
  5
228
100
AcDbEntity
  8
0
100
AcDbLine
 62
7
  6
CONTINUOUS
 10
153.7642540786
 20
31.3226226299
 11
153.7642540786
 21
31.258095257
  0
LINE
  5
229
100
AcDbEntity
  8
0
100
AcDbLine
 62
7
  6
CONTINUOUS
 10
153.7642540786
 20
30.8709309748
 11
153.7642540786
 21
30.7741399155
  0
LINE
  5
22A
100
AcDbEntity
  8
0
100
AcDbLine
 62
7
  6
CONTINUOUS
 10
154.0426351159
 20
32.287045381
 11
154.0426351159
 21
36.0575371843
  0
LINE
  5
22B
100
AcDbEntity
  8
0
100
AcDbLine
 62
7
  6
CONTINUOUS
 10
154.0533164683
 20
30.7418762065
 11
154.0533164683
 21
30.8064036019
  0
LINE
  5
22C
100
AcDbEntity
  8
0
100
AcDbLine
 62
7
  6
CONTINUOUS
 10
154.3705039683
 20
36.0575371843
 11
154.3705039683
 21
32.287045381
  0
LINE
  5
22D
100
AcDbEntity
  8
0
100
AcDbLine
 62
7
  6
CONTINUOUS
 10
151.1626914132
 20
30.6773488336
 11
151.2205040235
 21
30.8064036019
  0
LINE
  5
22E
100
AcDbEntity
  8
0
100
AcDbLine
 62
7
  6
CONTINUOUS
 10
155.5564416889
 20
30.5805577631
 11
155.4986287478
 21
30.7418762065
  0
LINE
  5
22F
100
AcDbEntity
  8
0
100
AcDbLine
 62
7
  6
CONTINUOUS
 10
155.2095666889
 20
31.258095257
 11
155.2095666889
 21
31.1613041978
  0
LINE
  5
230
100
AcDbEntity
  8
0
100
AcDbLine
 62
7
  6
CONTINUOUS
 10
155.2095666889
 20
31.0322494069
 11
155.2095666889
 21
30.8386672883
  0
LINE
  5
231
100
AcDbEntity
  8
0
100
AcDbLine
 62
7
  6
CONTINUOUS
 10
155.4986287478
 20
30.7418762065
 11
155.4986287478
 21
31.258095257
  0
LINE
  5
232
100
AcDbEntity
  8
0
100
AcDbLine
 62
7
  6
CONTINUOUS
 10
155.7639465913
 20
32.287045381
 11
155.7639465913
 21
34.0903240696
  0
LINE
  5
233
100
AcDbEntity
  8
0
100
AcDbLine
 62
7
  6
CONTINUOUS
 10
155.7639465913
 20
35.4017994794
 11
155.7639465913
 21
36.0575371843
  0
LINE
  5
234
100
AcDbEntity
  8
0
100
AcDbLine
 62
7
  6
CONTINUOUS
 10
156.0767541889
 20
32.0001601351
 11
156.0767541889
 21
31.838841703
  0
LINE
  5
235
100
AcDbEntity
  8
0
100
AcDbLine
 62
7
  6
CONTINUOUS
 10
156.0767541889
 20
31.5162047484
 11
156.0767541889
 21
30.4837666925
  0
LINE
  5
236
100
AcDbEntity
  8
0
100
AcDbLine
 62
7
  6
CONTINUOUS
 10
156.3658162478
 20
30.4837666925
 11
156.3658162478
 21
31.5162047484
  0
LINE
  5
237
100
AcDbEntity
  8
0
100
AcDbLine
 62
7
  6
CONTINUOUS
 10
156.3658162478
 20
31.838841703
 11
156.3658162478
 21
32.0001601351
  0
LINE
  5
238
100
AcDbEntity
  8
0
100
AcDbLine
 62
7
  6
CONTINUOUS
 10
150.9314414683
 20
30.8064036019
 11
150.8736290235
 21
30.7096125201
  0
LINE
  5
239
100
AcDbEntity
  8
0
100
AcDbLine
 62
7
  6
CONTINUOUS
 10
153.2439415786
 20
31.2903589434
 11
153.1861289683
 21
31.3548863163
  0
LINE
  5
23A
100
AcDbEntity
  8
0
100
AcDbLine
 62
7
  6
CONTINUOUS
 10
154.1111290786
 20
30.6773488336
 11
154.0533164683
 21
30.7418762065
  0
LINE
  5
23B
100
AcDbEntity
  8
0
100
AcDbLine
 62
7
  6
CONTINUOUS
 10
155.2673789683
 20
30.548294071
 11
155.3251912478
 21
30.4837666925
  0
LINE
  5
23C
100
AcDbEntity
  8
0
100
AcDbLine
 62
7
  6
CONTINUOUS
 10
155.2095666889
 20
30.6450851472
 11
155.2673789683
 21
30.548294071
  0
LINE
  5
23D
100
AcDbEntity
  8
0
100
AcDbLine
 62
7
  6
CONTINUOUS
 10
155.6142539683
 20
30.4837666925
 11
155.5564416889
 21
30.5805577631
  0
LINE
  5
23E
100
AcDbEntity
  8
0
100
AcDbLine
 62
7
  6
CONTINUOUS
 10
155.4986287478
 20
31.258095257
 11
155.4408164683
 21
31.3548863163
  0
LINE
  5
23F
100
AcDbEntity
  8
0
100
AcDbLine
 62
7
  6
CONTINUOUS
 10
156.8283164683
 20
31.5162047484
 11
156.8283164683
 21
30.4837666925
  0
LINE
  5
240
100
AcDbEntity
  8
0
100
AcDbLine
 62
7
  6
CONTINUOUS
 10
157.1173791889
 20
30.4837666925
 11
157.1173791889
 21
31.2258315706
  0
LINE
  5
241
100
AcDbEntity
  8
0
100
AcDbLine
 62
7
  6
CONTINUOUS
 10
157.1173791889
 20
31.3548863163
 11
157.1173791889
 21
31.5162047484
  0
LINE
  5
242
100
AcDbEntity
  8
0
100
AcDbLine
 62
7
  6
CONTINUOUS
 10
157.6491924929
 20
34.5001601351
 11
157.6491924929
 21
32.287045381
  0
LINE
  5
243
100
AcDbEntity
  8
0
100
AcDbLine
 62
7
  6
CONTINUOUS
 10
149.5439414683
 20
31.3226226299
 11
149.4283164701
 21
31.1935678842
  0
LINE
  5
244
100
AcDbEntity
  8
0
100
AcDbLine
 62
7
  6
CONTINUOUS
 10
149.7173789683
 20
31.1613041978
 11
149.7751914546
 21
31.2258315706
  0
LINE
  5
245
100
AcDbEntity
  8
0
100
AcDbLine
 62
7
  6
CONTINUOUS
 10
149.5439414683
 20
30.6773488336
 11
149.6595664615
 21
30.6128214495
  0
LINE
  5
246
100
AcDbEntity
  8
0
100
AcDbLine
 62
7
  6
CONTINUOUS
 10
149.9486289546
 20
30.6773488336
 11
149.7751914546
 21
30.7741399155
  0
LINE
  5
247
100
AcDbEntity
  8
0
100
AcDbLine
 62
7
  6
CONTINUOUS
 10
155.1517537478
 20
31.3226226299
 11
155.2095666889
 21
31.258095257
  0
LINE
  5
248
100
AcDbEntity
  8
0
100
AcDbLine
 62
7
  6
CONTINUOUS
 10
158.1001912478
 20
31.258095257
 11
158.1580041889
 21
31.0967768249
  0
LINE
  5
249
100
AcDbEntity
  8
0
100
AcDbLine
 62
7
  6
CONTINUOUS
 10
158.4470662478
 20
31.0967768249
 11
158.3892539683
 21
31.258095257
  0
LINE
  5
24A
100
AcDbEntity
  8
0
100
AcDbLine
 62
7
  6
CONTINUOUS
 10
158.1580041889
 20
31.0967768249
 11
158.1580041889
 21
30.4837666925
  0
LINE
  5
24B
100
AcDbEntity
  8
0
100
AcDbLine
 62
7
  6
CONTINUOUS
 10
158.4470662478
 20
30.4837666925
 11
158.4470662478
 21
31.0967768249
  0
LINE
  5
24C
100
AcDbEntity
  8
0
100
AcDbLine
 62
7
  6
CONTINUOUS
 10
158.9095664683
 20
31.3226226299
 11
158.9095664683
 21
31.258095257
  0
LINE
  5
24D
100
AcDbEntity
  8
0
100
AcDbLine
 62
7
  6
CONTINUOUS
 10
159.0426351159
 20
32.287045381
 11
159.0426351159
 21
34.418192922
  0
LINE
  5
24E
100
AcDbEntity
  8
0
100
AcDbLine
 62
7
  6
CONTINUOUS
 10
159.3705039683
 20
36.0575371843
 11
159.3705039683
 21
32.287045381
  0
LINE
  5
24F
100
AcDbEntity
  8
0
100
AcDbLine
 62
7
  6
CONTINUOUS
 10
154.0533164683
 20
30.8064036019
 11
154.1111290786
 21
30.9031946612
  0
LINE
  5
250
100
AcDbEntity
  8
0
100
AcDbLine
 62
7
  6
CONTINUOUS
 10
149.6595664615
 20
30.6128214495
 11
149.8330039821
 21
30.548294071
  0
LINE
  5
251
100
AcDbEntity
  8
0
100
AcDbLine
 62
7
  6
CONTINUOUS
 10
151.1626914132
 20
31.3226226299
 11
150.9892539132
 21
31.4194136891
  0
LINE
  5
252
100
AcDbEntity
  8
0
100
AcDbLine
 62
7
  6
CONTINUOUS
 10
153.8220663581
 20
30.6450851472
 11
153.9955038581
 21
30.548294071
  0
LINE
  5
253
100
AcDbEntity
  8
0
100
AcDbLine
 62
7
  6
CONTINUOUS
 10
152.8392539683
 20
31.3226226299
 11
152.9548788581
 21
31.258095257
  0
LINE
  5
254
100
AcDbEntity
  8
0
100
AcDbLine
 62
7
  6
CONTINUOUS
 10
153.1861289683
 20
31.3548863163
 11
153.0705040786
 21
31.4194136891
  0
LINE
  5
255
100
AcDbEntity
  8
0
100
AcDbLine
 62
7
  6
CONTINUOUS
 10
158.9095664683
 20
30.7418762065
 11
159.0251916889
 21
30.6128214495
  0
LINE
  5
256
100
AcDbEntity
  8
0
100
AcDbLine
 62
7
  6
CONTINUOUS
 10
159.2564414683
 20
30.6773488336
 11
159.1986291889
 21
30.7418762065
  0
LINE
  5
257
100
AcDbEntity
  8
0
100
AcDbLine
 62
7
  6
CONTINUOUS
 10
158.9095664683
 20
31.258095257
 11
159.0251916889
 21
31.1290405113
  0
LINE
  5
258
100
AcDbEntity
  8
0
100
AcDbLine
 62
7
  6
CONTINUOUS
 10
158.3892539683
 20
31.258095257
 11
158.3314416889
 21
31.3548863163
  0
LINE
  5
259
100
AcDbEntity
  8
0
100
AcDbLine
 62
7
  6
CONTINUOUS
 10
160.7595660273
 20
30.6773488336
 11
160.7595660273
 21
30.7418762065
  0
LINE
  5
25A
100
AcDbEntity
  8
0
100
AcDbLine
 62
7
  6
CONTINUOUS
 10
160.7639465913
 20
32.287045381
 11
160.7639465913
 21
36.0575371843
  0
LINE
  5
25B
100
AcDbEntity
  8
0
100
AcDbLine
 62
7
  6
CONTINUOUS
 10
153.8220663581
 20
31.3871500027
 11
153.7642540786
 21
31.3226226299
  0
LINE
  5
25C
100
AcDbEntity
  8
0
100
AcDbLine
 62
7
  6
CONTINUOUS
 10
150.7001914408
 20
31.3548863163
 11
150.8736290235
 21
31.2903589434
  0
LINE
  5
25D
100
AcDbEntity
  8
0
100
AcDbLine
 62
7
  6
CONTINUOUS
 10
155.4408164683
 20
31.3548863163
 11
155.3251912478
 21
31.4194136891
  0
LINE
  5
25E
100
AcDbEntity
  8
0
100
AcDbLine
 62
7
  6
CONTINUOUS
 10
159.2564414683
 20
31.1935678842
 11
159.1986291889
 21
31.258095257
  0
LINE
  5
25F
100
AcDbEntity
  8
0
100
AcDbLine
 62
7
  6
CONTINUOUS
 10
160.4126916889
 20
30.8064036019
 11
160.4705039683
 21
30.7418762065
  0
LINE
  5
260
100
AcDbEntity
  8
0
100
AcDbLine
 62
7
  6
CONTINUOUS
 10
160.7595660273
 20
30.7418762065
 11
160.6439414683
 21
30.8709309748
  0
LINE
  5
261
100
AcDbEntity
  8
0
100
AcDbLine
 62
7
  6
CONTINUOUS
 10
160.4126916889
 20
31.3226226299
 11
160.4705039683
 21
31.258095257
  0
LINE
  5
262
100
AcDbEntity
  8
0
100
AcDbLine
 62
7
  6
CONTINUOUS
 10
160.7595660273
 20
31.258095257
 11
160.6439414683
 21
31.3871500027
  0
LINE
  5
263
100
AcDbEntity
  8
0
100
AcDbLine
 62
7
  6
CONTINUOUS
 10
154.0533164683
 20
31.258095257
 11
154.1111290786
 21
31.3226226299
  0
LINE
  5
264
100
AcDbEntity
  8
0
100
AcDbLine
 62
7
  6
CONTINUOUS
 10
153.8798789683
 20
30.9999857205
 11
153.7642540786
 21
30.8709309748
  0
LINE
  5
265
100
AcDbEntity
  8
0
100
AcDbLine
 62
7
  6
CONTINUOUS
 10
155.2095666889
 20
30.8386672883
 11
155.1517537478
 21
30.7741399155
  0
LINE
  5
266
100
AcDbEntity
  8
0
100
AcDbLine
 62
7
  6
CONTINUOUS
 10
155.1517537478
 20
30.5805577631
 11
155.2095666889
 21
30.6450851472
  0
LINE
  5
267
100
AcDbEntity
  8
0
100
AcDbLine
 62
7
  6
CONTINUOUS
 10
153.9955038581
 20
30.548294071
 11
154.1111290786
 21
30.5160303817
  0
LINE
  5
268
100
AcDbEntity
  8
0
100
AcDbLine
 62
7
  6
CONTINUOUS
 10
150.9892539132
 20
31.4194136891
 11
150.7580039683
 21
31.483941062
  0
LINE
  5
269
100
AcDbEntity
  8
0
100
AcDbLine
 62
7
  6
CONTINUOUS
 10
154.3423788581
 20
30.6128214495
 11
154.1111290786
 21
30.6773488336
  0
LINE
  5
26A
100
AcDbEntity
  8
0
100
AcDbLine
 62
7
  6
CONTINUOUS
 10
153.0705040786
 20
31.4194136891
 11
152.8970665786
 21
31.483941062
  0
LINE
  5
26B
100
AcDbEntity
  8
0
100
AcDbLine
 62
7
  6
CONTINUOUS
 10
155.3251912478
 20
31.4194136891
 11
155.1517537478
 21
31.483941062
  0
LINE
  5
26C
100
AcDbEntity
  8
0
100
AcDbLine
 62
7
  6
CONTINUOUS
 10
157.9845666889
 20
31.3226226299
 11
158.1001912478
 21
31.258095257
  0
LINE
  5
26D
100
AcDbEntity
  8
0
100
AcDbLine
 62
7
  6
CONTINUOUS
 10
158.3314416889
 20
31.3548863163
 11
158.2158164683
 21
31.4194136891
  0
LINE
  5
26E
100
AcDbEntity
  8
0
100
AcDbLine
 62
7
  6
CONTINUOUS
 10
149.8330039821
 20
30.548294071
 11
150.0064414821
 21
30.5160303817
  0
LINE
  5
26F
100
AcDbEntity
  8
0
100
AcDbLine
 62
7
  6
CONTINUOUS
 10
150.2955039959
 20
30.6128214495
 11
149.9486289546
 21
30.6773488336
  0
LINE
  5
270
100
AcDbEntity
  8
0
100
AcDbLine
 62
7
  6
CONTINUOUS
 10
152.7236290786
 20
31.3548863163
 11
152.8392539683
 21
31.3226226299
  0
LINE
  5
271
100
AcDbEntity
  8
0
100
AcDbLine
 62
7
  6
CONTINUOUS
 10
155.0361291889
 20
31.3548863163
 11
155.1517537478
 21
31.3226226299
  0
LINE
  5
272
100
AcDbEntity
  8
0
100
AcDbLine
 62
7
  6
CONTINUOUS
 10
159.3720666889
 20
30.6450851472
 11
159.2564414683
 21
30.6773488336
  0
LINE
  5
273
100
AcDbEntity
  8
0
100
AcDbLine
 62
7
  6
CONTINUOUS
 10
157.8689414683
 20
31.3548863163
 11
157.9845666889
 21
31.3226226299
  0
LINE
  5
274
100
AcDbEntity
  8
0
100
AcDbLine
 62
7
  6
CONTINUOUS
 10
159.0251916889
 20
30.6128214495
 11
159.1986291889
 21
30.548294071
  0
LINE
  5
275
100
AcDbEntity
  8
0
100
AcDbLine
 62
7
  6
CONTINUOUS
 10
158.2158164683
 20
31.4194136891
 11
158.0423789683
 21
31.483941062
  0
LINE
  5
276
100
AcDbEntity
  8
0
100
AcDbLine
 62
7
  6
CONTINUOUS
 10
159.4298789683
 20
31.1290405113
 11
159.2564414683
 21
31.1935678842
  0
LINE
  5
277
100
AcDbEntity
  8
0
100
AcDbLine
 62
7
  6
CONTINUOUS
 10
160.2392541889
 20
30.8709309748
 11
160.4126916889
 21
30.8064036019
  0
LINE
  5
278
100
AcDbEntity
  8
0
100
AcDbLine
 62
7
  6
CONTINUOUS
 10
160.6439414683
 20
31.3871500027
 11
160.4705039683
 21
31.4516773756
  0
LINE
  5
279
100
AcDbEntity
  8
0
100
AcDbLine
 62
7
  6
CONTINUOUS
 10
159.0251916889
 20
31.1290405113
 11
159.2564414683
 21
31.0322494069
  0
LINE
  5
27A
100
AcDbEntity
  8
0
100
AcDbLine
 62
7
  6
CONTINUOUS
 10
160.6439414683
 20
30.8709309748
 11
160.4126916889
 21
30.967722034
  0
LINE
  5
27B
100
AcDbEntity
  8
0
100
AcDbLine
 62
7
  6
CONTINUOUS
 10
159.1986291889
 20
31.258095257
 11
159.2564414683
 21
31.3226226299
  0
LINE
  5
27C
100
AcDbEntity
  8
0
100
AcDbLine
 62
7
  6
CONTINUOUS
 10
149.6595664615
 20
31.3871500027
 11
149.5439414683
 21
31.3226226299
  0
LINE
  5
27D
100
AcDbEntity
  8
0
100
AcDbLine
 62
7
  6
CONTINUOUS
 10
149.7751914546
 20
31.2258315706
 11
149.9486289546
 21
31.3226226299
  0
LINE
  5
27E
100
AcDbEntity
  8
0
100
AcDbLine
 62
7
  6
CONTINUOUS
 10
152.0876915235
 20
31.4194136891
 11
151.9720664683
 21
31.3548863163
  0
LINE
  5
27F
100
AcDbEntity
  8
0
100
AcDbLine
 62
7
  6
CONTINUOUS
 10
151.9720664683
 20
31.2258315706
 11
152.0876915235
 21
31.2903589434
  0
LINE
  5
280
100
AcDbEntity
  8
0
100
AcDbLine
 62
7
  6
CONTINUOUS
 10
150.9892539132
 20
30.5805577631
 11
151.1626914132
 21
30.6773488336
  0
LINE
  5
281
100
AcDbEntity
  8
0
100
AcDbLine
 62
7
  6
CONTINUOUS
 10
150.0064414821
 20
30.5160303817
 11
150.3533164408
 21
30.4837666925
  0
LINE
  5
282
100
AcDbEntity
  8
0
100
AcDbLine
 62
7
  6
CONTINUOUS
 10
154.1111290786
 20
30.5160303817
 11
154.3423788581
 21
30.4837666925
  0
LINE
  5
283
100
AcDbEntity
  8
0
100
AcDbLine
 62
7
  6
CONTINUOUS
 10
152.4923789683
 20
31.3871500027
 11
152.7236290786
 21
31.3548863163
  0
LINE
  5
284
100
AcDbEntity
  8
0
100
AcDbLine
 62
7
  6
CONTINUOUS
 10
154.8048790786
 20
31.3871500027
 11
155.0361291889
 21
31.3548863163
  0
LINE
  5
285
100
AcDbEntity
  8
0
100
AcDbLine
 62
7
  6
CONTINUOUS
 10
159.2564414683
 20
31.0322494069
 11
160.2392541889
 21
30.8709309748
  0
LINE
  5
286
100
AcDbEntity
  8
0
100
AcDbLine
 62
7
  6
CONTINUOUS
 10
160.4126916889
 20
30.967722034
 11
159.4298789683
 21
31.1290405113
  0
LINE
  5
287
100
AcDbEntity
  8
0
100
AcDbLine
 62
7
  6
CONTINUOUS
 10
152.8970665786
 20
31.483941062
 11
152.7236290786
 21
31.5162047484
  0
LINE
  5
288
100
AcDbEntity
  8
0
100
AcDbLine
 62
7
  6
CONTINUOUS
 10
159.1986291889
 20
30.548294071
 11
159.3720666889
 21
30.5160303817
  0
LINE
  5
289
100
AcDbEntity
  8
0
100
AcDbLine
 62
7
  6
CONTINUOUS
 10
158.0423789683
 20
31.483941062
 11
157.8689414683
 21
31.5162047484
  0
LINE
  5
28A
100
AcDbEntity
  8
0
100
AcDbLine
 62
7
  6
CONTINUOUS
 10
160.2970664683
 20
31.3548863163
 11
160.4126916889
 21
31.3226226299
  0
LINE
  5
28B
100
AcDbEntity
  8
0
100
AcDbLine
 62
7
  6
CONTINUOUS
 10
160.4705039683
 20
30.7418762065
 11
160.4126916889
 21
30.6773488336
  0
LINE
  5
28C
100
AcDbEntity
  8
0
100
AcDbLine
 62
7
  6
CONTINUOUS
 10
159.0251916889
 20
31.4194136891
 11
158.9095664683
 21
31.3226226299
  0
LINE
  5
28D
100
AcDbEntity
  8
0
100
AcDbLine
 62
7
  6
CONTINUOUS
 10
153.9376915786
 20
31.4516773756
 11
153.8220663581
 21
31.3871500027
  0
LINE
  5
28E
100
AcDbEntity
  8
0
100
AcDbLine
 62
7
  6
CONTINUOUS
 10
153.9955038581
 20
31.0645131385
 11
153.8798789683
 21
30.9999857205
  0
LINE
  5
28F
100
AcDbEntity
  8
0
100
AcDbLine
 62
7
  6
CONTINUOUS
 10
154.1111290786
 20
30.9031946612
 11
154.2267539683
 21
30.967722034
  0
LINE
  5
290
100
AcDbEntity
  8
0
100
AcDbLine
 62
7
  6
CONTINUOUS
 10
151.6830039132
 20
30.4837666925
 11
151.9720664683
 21
30.4837666925
  0
LINE
  5
291
100
AcDbEntity
  8
0
100
AcDbLine
 62
7
  6
CONTINUOUS
 10
153.0126914683
 20
30.4837666925
 11
153.3017538581
 21
30.4837666925
  0
LINE
  5
292
100
AcDbEntity
  8
0
100
AcDbLine
 62
7
  6
CONTINUOUS
 10
154.3423788581
 20
30.4837666925
 11
154.6892538581
 21
30.4837666925
  0
LINE
  5
293
100
AcDbEntity
  8
0
100
AcDbLine
 62
7
  6
CONTINUOUS
 10
155.3251912478
 20
30.4837666925
 11
155.6142539683
 21
30.4837666925
  0
LINE
  5
294
100
AcDbEntity
  8
0
100
AcDbLine
 62
7
  6
CONTINUOUS
 10
156.0767541889
 20
30.4837666925
 11
156.3658162478
 21
30.4837666925
  0
LINE
  5
295
100
AcDbEntity
  8
0
100
AcDbLine
 62
7
  6
CONTINUOUS
 10
156.8283164683
 20
30.4837666925
 11
157.1173791889
 21
30.4837666925
  0
LINE
  5
296
100
AcDbEntity
  8
0
100
AcDbLine
 62
7
  6
CONTINUOUS
 10
158.1580041889
 20
30.4837666925
 11
158.4470662478
 21
30.4837666925
  0
LINE
  5
297
100
AcDbEntity
  8
0
100
AcDbLine
 62
7
  6
CONTINUOUS
 10
159.7189416889
 20
30.4837666925
 11
160.0658166889
 21
30.4837666925
  0
LINE
  5
298
100
AcDbEntity
  8
0
100
AcDbLine
 62
7
  6
CONTINUOUS
 10
160.0658166889
 20
30.6128214495
 11
159.7189416889
 21
30.6128214495
  0
LINE
  5
299
100
AcDbEntity
  8
0
100
AcDbLine
 62
7
  6
CONTINUOUS
 10
154.6892538581
 20
30.6128214495
 11
154.3423788581
 21
30.6128214495
  0
LINE
  5
29A
100
AcDbEntity
  8
0
100
AcDbLine
 62
7
  6
CONTINUOUS
 10
159.1986291889
 20
30.7418762065
 11
158.9095664683
 21
30.7418762065
  0
LINE
  5
29B
100
AcDbEntity
  8
0
100
AcDbLine
 62
7
  6
CONTINUOUS
 10
151.2205040235
 20
30.8064036019
 11
150.9314414683
 21
30.8064036019
  0
LINE
  5
29C
100
AcDbEntity
  8
0
100
AcDbLine
 62
7
  6
CONTINUOUS
 10
150.2955039959
 20
31.3871500027
 11
150.7001914408
 21
31.3548863163
  0
LINE
  5
29D
100
AcDbEntity
  8
0
100
AcDbLine
 62
7
  6
CONTINUOUS
 10
150.7580039683
 20
31.483941062
 11
150.3533164408
 21
31.5162047484
  0
LINE
  5
29E
100
AcDbEntity
  8
0
100
AcDbLine
 62
7
  6
CONTINUOUS
 10
159.3720666889
 20
30.5160303817
 11
159.7189416889
 21
30.4837666925
  0
LINE
  5
29F
100
AcDbEntity
  8
0
100
AcDbLine
 62
7
  6
CONTINUOUS
 10
159.7189416889
 20
30.6128214495
 11
159.3720666889
 21
30.6450851472
  0
LINE
  5
2A0
100
AcDbEntity
  8
0
100
AcDbLine
 62
7
  6
CONTINUOUS
 10
155.1517537478
 20
31.483941062
 11
154.8048790786
 21
31.5162047484
  0
LINE
  5
2A1
100
AcDbEntity
  8
0
100
AcDbLine
 62
7
  6
CONTINUOUS
 10
159.9501914683
 20
31.3871500027
 11
160.2970664683
 21
31.3548863163
  0
LINE
  5
2A2
100
AcDbEntity
  8
0
100
AcDbLine
 62
7
  6
CONTINUOUS
 10
160.2970664683
 20
31.483941062
 11
159.9501914683
 21
31.5162047484
  0
LINE
  5
2A3
100
AcDbEntity
  8
0
100
AcDbLine
 62
7
  6
CONTINUOUS
 10
157.6376916889
 20
31.3871500027
 11
157.8689414683
 21
31.3548863163
  0
LINE
  5
2A4
100
AcDbEntity
  8
0
100
AcDbLine
 62
7
  6
CONTINUOUS
 10
160.4705039683
 20
31.4516773756
 11
160.2970664683
 21
31.483941062
  0
LINE
  5
2A5
100
AcDbEntity
  8
0
100
AcDbLine
 62
7
  6
CONTINUOUS
 10
160.6439414683
 20
30.5805577631
 11
160.7595660273
 21
30.6773488336
  0
LINE
  5
2A6
100
AcDbEntity
  8
0
100
AcDbLine
 62
7
  6
CONTINUOUS
 10
155.1517537478
 20
30.7741399155
 11
154.9783162478
 21
30.6773488336
  0
LINE
  5
2A7
100
AcDbEntity
  8
0
100
AcDbLine
 62
7
  6
CONTINUOUS
 10
157.2330037478
 20
31.4194136891
 11
157.1173791889
 21
31.3548863163
  0
LINE
  5
2A8
100
AcDbEntity
  8
0
100
AcDbLine
 62
7
  6
CONTINUOUS
 10
157.1173791889
 20
31.2258315706
 11
157.2330037478
 21
31.2903589434
  0
LINE
  5
2A9
100
AcDbEntity
  8
0
100
AcDbLine
 62
7
  6
CONTINUOUS
 10
149.8330039821
 20
31.4516773756
 11
149.6595664615
 21
31.3871500027
  0
LINE
  5
2AA
100
AcDbEntity
  8
0
100
AcDbLine
 62
7
  6
CONTINUOUS
 10
152.2611288581
 20
31.483941062
 11
152.0876915235
 21
31.4194136891
  0
LINE
  5
2AB
100
AcDbEntity
  8
0
100
AcDbLine
 62
7
  6
CONTINUOUS
 10
152.0876915235
 20
31.2903589434
 11
152.2611288581
 21
31.3548863163
  0
LINE
  5
2AC
100
AcDbEntity
  8
0
100
AcDbLine
 62
7
  6
CONTINUOUS
 10
150.8736290235
 20
30.7096125201
 11
150.7001914408
 21
30.6450851472
  0
LINE
  5
2AD
100
AcDbEntity
  8
0
100
AcDbLine
 62
7
  6
CONTINUOUS
 10
160.2970664683
 20
30.6450851472
 11
160.0658166889
 21
30.6128214495
  0
LINE
  5
2AE
100
AcDbEntity
  8
0
100
AcDbLine
 62
7
  6
CONTINUOUS
 10
154.6892538581
 20
30.4837666925
 11
154.9783162478
 21
30.5160303817
  0
LINE
  5
2AF
100
AcDbEntity
  8
0
100
AcDbLine
 62
7
  6
CONTINUOUS
 10
160.0658166889
 20
30.4837666925
 11
160.4126916889
 21
30.5160303817
  0
LINE
  5
2B0
100
AcDbEntity
  8
0
100
AcDbLine
 62
7
  6
CONTINUOUS
 10
150.3533164408
 20
30.4837666925
 11
150.7580039683
 21
30.5160303817
  0
LINE
  5
2B1
100
AcDbEntity
  8
0
100
AcDbLine
 62
7
  6
CONTINUOUS
 10
150.7001914408
 20
30.6450851472
 11
150.2955039959
 21
30.6128214495
  0
LINE
  5
2B2
100
AcDbEntity
  8
0
100
AcDbLine
 62
7
  6
CONTINUOUS
 10
154.5736289683
 20
31.0322494069
 11
155.2095666889
 21
31.0322494069
  0
LINE
  5
2B3
100
AcDbEntity
  8
0
100
AcDbLine
 62
7
  6
CONTINUOUS
 10
155.2095666889
 20
31.1613041978
 11
154.5736289683
 21
31.1613041978
  0
LINE
  5
2B4
100
AcDbEntity
  8
0
100
AcDbLine
 62
7
  6
CONTINUOUS
 10
150.9314414683
 20
31.1935678842
 11
151.2205040235
 21
31.1935678842
  0
LINE
  5
2B5
100
AcDbEntity
  8
0
100
AcDbLine
 62
7
  6
CONTINUOUS
 10
153.7642540786
 20
31.258095257
 11
154.0533164683
 21
31.258095257
  0
LINE
  5
2B6
100
AcDbEntity
  8
0
100
AcDbLine
 62
7
  6
CONTINUOUS
 10
160.4705039683
 20
31.258095257
 11
160.7595660273
 21
31.258095257
  0
LINE
  5
2B7
100
AcDbEntity
  8
0
100
AcDbLine
 62
7
  6
CONTINUOUS
 10
154.4580040786
 20
31.3871500027
 11
154.8048790786
 21
31.3871500027
  0
LINE
  5
2B8
100
AcDbEntity
  8
0
100
AcDbLine
 62
7
  6
CONTINUOUS
 10
159.6033164683
 20
31.3871500027
 11
159.9501914683
 21
31.3871500027
  0
LINE
  5
2B9
100
AcDbEntity
  8
0
100
AcDbLine
 62
7
  6
CONTINUOUS
 10
159.9501914683
 20
31.5162047484
 11
159.6033164683
 21
31.5162047484
  0
LINE
  5
2BA
100
AcDbEntity
  8
0
100
AcDbLine
 62
7
  6
CONTINUOUS
 10
157.8689414683
 20
31.5162047484
 11
157.6376916889
 21
31.5162047484
  0
LINE
  5
2BB
100
AcDbEntity
  8
0
100
AcDbLine
 62
7
  6
CONTINUOUS
 10
157.1173791889
 20
31.5162047484
 11
156.8283164683
 21
31.5162047484
  0
LINE
  5
2BC
100
AcDbEntity
  8
0
100
AcDbLine
 62
7
  6
CONTINUOUS
 10
156.3658162478
 20
31.5162047484
 11
156.0767541889
 21
31.5162047484
  0
LINE
  5
2BD
100
AcDbEntity
  8
0
100
AcDbLine
 62
7
  6
CONTINUOUS
 10
154.8048790786
 20
31.5162047484
 11
154.4580040786
 21
31.5162047484
  0
LINE
  5
2BE
100
AcDbEntity
  8
0
100
AcDbLine
 62
7
  6
CONTINUOUS
 10
152.7236290786
 20
31.5162047484
 11
152.4923789683
 21
31.5162047484
  0
LINE
  5
2BF
100
AcDbEntity
  8
0
100
AcDbLine
 62
7
  6
CONTINUOUS
 10
156.0767541889
 20
31.838841703
 11
156.3658162478
 21
31.838841703
  0
LINE
  5
2C0
100
AcDbEntity
  8
0
100
AcDbLine
 62
7
  6
CONTINUOUS
 10
156.3658162478
 20
32.0001601351
 11
156.0767541889
 21
32.0001601351
  0
LINE
  5
2C1
100
AcDbEntity
  8
0
100
AcDbLine
 62
7
  6
CONTINUOUS
 10
151.9720664683
 20
32.0001601351
 11
151.6830039132
 21
32.0001601351
  0
LINE
  5
2C2
100
AcDbEntity
  8
0
100
AcDbLine
 62
7
  6
CONTINUOUS
 10
151.0098482306
 20
32.287045381
 11
151.4224195792
 21
32.287045381
  0
LINE
  5
2C3
100
AcDbEntity
  8
0
100
AcDbLine
 62
7
  6
CONTINUOUS
 10
152.6491924929
 20
32.287045381
 11
154.0426351159
 21
32.287045381
  0
LINE
  5
2C4
100
AcDbEntity
  8
0
100
AcDbLine
 62
7
  6
CONTINUOUS
 10
154.3705039683
 20
32.287045381
 11
155.7639465913
 21
32.287045381
  0
LINE
  5
2C5
100
AcDbEntity
  8
0
100
AcDbLine
 62
7
  6
CONTINUOUS
 10
157.6491924929
 20
32.287045381
 11
159.0426351159
 21
32.287045381
  0
LINE
  5
2C6
100
AcDbEntity
  8
0
100
AcDbLine
 62
7
  6
CONTINUOUS
 10
159.3705039683
 20
32.287045381
 11
160.7639465913
 21
32.287045381
  0
LINE
  5
2C7
100
AcDbEntity
  8
0
100
AcDbLine
 62
7
  6
CONTINUOUS
 10
157.4064412478
 20
31.483941062
 11
157.2330037478
 21
31.4194136891
  0
LINE
  5
2C8
100
AcDbEntity
  8
0
100
AcDbLine
 62
7
  6
CONTINUOUS
 10
154.9783162478
 20
30.5160303817
 11
155.1517537478
 21
30.5805577631
  0
LINE
  5
2C9
100
AcDbEntity
  8
0
100
AcDbLine
 62
7
  6
CONTINUOUS
 10
160.4126916889
 20
30.5160303817
 11
160.6439414683
 21
30.5805577631
  0
LINE
  5
2CA
100
AcDbEntity
  8
0
100
AcDbLine
 62
7
  6
CONTINUOUS
 10
160.4126916889
 20
30.6773488336
 11
160.2970664683
 21
30.6450851472
  0
LINE
  5
2CB
100
AcDbEntity
  8
0
100
AcDbLine
 62
7
  6
CONTINUOUS
 10
159.3720666889
 20
31.3548863163
 11
159.6033164683
 21
31.3871500027
  0
LINE
  5
2CC
100
AcDbEntity
  8
0
100
AcDbLine
 62
7
  6
CONTINUOUS
 10
157.4064412478
 20
31.3548863163
 11
157.6376916889
 21
31.3871500027
  0
LINE
  5
2CD
100
AcDbEntity
  8
0
100
AcDbLine
 62
7
  6
CONTINUOUS
 10
154.3423788581
 20
30.9999857205
 11
154.5736289683
 21
31.0322494069
  0
LINE
  5
2CE
100
AcDbEntity
  8
0
100
AcDbLine
 62
7
  6
CONTINUOUS
 10
157.6376916889
 20
31.5162047484
 11
157.4064412478
 21
31.483941062
  0
LINE
  5
2CF
100
AcDbEntity
  8
0
100
AcDbLine
 62
7
  6
CONTINUOUS
 10
154.2267539683
 20
31.3548863163
 11
154.4580040786
 21
31.3871500027
  0
LINE
  5
2D0
100
AcDbEntity
  8
0
100
AcDbLine
 62
7
  6
CONTINUOUS
 10
159.6033164683
 20
31.5162047484
 11
159.2564414683
 21
31.483941062
  0
LINE
  5
2D1
100
AcDbEntity
  8
0
100
AcDbLine
 62
7
  6
CONTINUOUS
 10
154.5736289683
 20
31.1613041978
 11
154.2267539683
 21
31.1290405113
  0
LINE
  5
2D2
100
AcDbEntity
  8
0
100
AcDbLine
 62
7
  6
CONTINUOUS
 10
150.3533164408
 20
31.5162047484
 11
150.0064414821
 21
31.483941062
  0
LINE
  5
2D3
100
AcDbEntity
  8
0
100
AcDbLine
 62
7
  6
CONTINUOUS
 10
154.4580040786
 20
31.5162047484
 11
154.0533164683
 21
31.483941062
  0
LINE
  5
2D4
100
AcDbEntity
  8
0
100
AcDbLine
 62
7
  6
CONTINUOUS
 10
151.8295203618
 20
33.4345863646
 11
151.1737826569
 21
33.4345863646
  0
LINE
  5
2D5
100
AcDbEntity
  8
0
100
AcDbLine
 62
7
  6
CONTINUOUS
 10
157.2330037478
 20
31.2903589434
 11
157.4064412478
 21
31.3548863163
  0
LINE
  5
2D6
100
AcDbEntity
  8
0
100
AcDbLine
 62
7
  6
CONTINUOUS
 10
159.2564414683
 20
31.3226226299
 11
159.3720666889
 21
31.3548863163
  0
LINE
  5
2D7
100
AcDbEntity
  8
0
100
AcDbLine
 62
7
  6
CONTINUOUS
 10
159.2564414683
 20
31.483941062
 11
159.0251916889
 21
31.4194136891
  0
LINE
  5
2D8
100
AcDbEntity
  8
0
100
AcDbLine
 62
7
  6
CONTINUOUS
 10
154.9783162478
 20
30.6773488336
 11
154.6892538581
 21
30.6128214495
  0
LINE
  5
2D9
100
AcDbEntity
  8
0
100
AcDbLine
 62
7
  6
CONTINUOUS
 10
152.2611288581
 20
31.3548863163
 11
152.4923789683
 21
31.3871500027
  0
LINE
  5
2DA
100
AcDbEntity
  8
0
100
AcDbLine
 62
7
  6
CONTINUOUS
 10
152.4923789683
 20
31.5162047484
 11
152.2611288581
 21
31.483941062
  0
LINE
  5
2DB
100
AcDbEntity
  8
0
100
AcDbLine
 62
7
  6
CONTINUOUS
 10
150.0642539683
 20
31.3548863163
 11
150.2955039959
 21
31.3871500027
  0
LINE
  5
2DC
100
AcDbEntity
  8
0
100
AcDbLine
 62
7
  6
CONTINUOUS
 10
156.5836187224
 20
34.9099962007
 11
157.2393564274
 21
34.9099962007
  0
LINE
  5
2DD
100
AcDbEntity
  8
0
100
AcDbLine
 62
7
  6
CONTINUOUS
 10
154.2267539683
 20
30.967722034
 11
154.3423788581
 21
30.9999857205
  0
LINE
  5
2DE
100
AcDbEntity
  8
0
100
AcDbLine
 62
7
  6
CONTINUOUS
 10
154.2267539683
 20
31.1290405113
 11
153.9955038581
 21
31.0645131385
  0
LINE
  5
2DF
100
AcDbEntity
  8
0
100
AcDbLine
 62
7
  6
CONTINUOUS
 10
154.1111290786
 20
31.3226226299
 11
154.2267539683
 21
31.3548863163
  0
LINE
  5
2E0
100
AcDbEntity
  8
0
100
AcDbLine
 62
7
  6
CONTINUOUS
 10
150.7580039683
 20
30.5160303817
 11
150.9892539132
 21
30.5805577631
  0
LINE
  5
2E1
100
AcDbEntity
  8
0
100
AcDbLine
 62
7
  6
CONTINUOUS
 10
154.0533164683
 20
31.483941062
 11
153.9376915786
 21
31.4516773756
  0
LINE
  5
2E2
100
AcDbEntity
  8
0
100
AcDbLine
 62
7
  6
CONTINUOUS
 10
150.0064414821
 20
31.483941062
 11
149.8330039821
 21
31.4516773756
  0
LINE
  5
2E3
100
AcDbEntity
  8
0
100
AcDbLine
 62
7
  6
CONTINUOUS
 10
160.7639465913
 20
36.0575371843
 11
159.3705039683
 21
36.0575371843
  0
LINE
  5
2E4
100
AcDbEntity
  8
0
100
AcDbLine
 62
7
  6
CONTINUOUS
 10
157.4032908536
 20
36.0575371843
 11
156.990719505
 21
36.0575371843
  0
LINE
  5
2E5
100
AcDbEntity
  8
0
100
AcDbLine
 62
7
  6
CONTINUOUS
 10
155.7639465913
 20
36.0575371843
 11
154.3705039683
 21
36.0575371843
  0
LINE
  5
2E6
100
AcDbEntity
  8
0
100
AcDbLine
 62
7
  6
CONTINUOUS
 10
154.0426351159
 20
36.0575371843
 11
152.6491924929
 21
36.0575371843
  0
LINE
  5
2E7
100
AcDbEntity
  8
0
100
AcDbLine
 62
7
  6
CONTINUOUS
 10
150.7639465913
 20
36.0575371843
 11
149.3705039683
 21
36.0575371843
  0
LINE
  5
2E8
100
AcDbEntity
  8
0
100
AcDbLine
 62
7
  6
CONTINUOUS
 10
149.9486289546
 20
31.3226226299
 11
150.0642539683
 21
31.3548863163
  0
CIRCLE
  5
2E9
100
AcDbEntity
  8
0
100
AcDbCircle
 62
7
  6
CONTINUOUS
 10
160.0672252798
 20
38.3936027581
 40
2.0901639344
  0
ARC
  5
2EA
100
AcDbEntity
  8
0
100
AcDbCircle
 62
7
  6
CONTINUOUS
 10
151.0098482306
 20
33.9263896433
 40
1.6393442623
100
AcDbArc
 50
180.0
 51
270.0
  0
ARC
  5
2EB
100
AcDbEntity
  8
0
100
AcDbCircle
 62
7
  6
CONTINUOUS
 10
157.4032908536
 20
34.418192922
 40
1.6393442623
100
AcDbArc
 50
0.0
 51
90.0
  0
ARC
  5
2EC
100
AcDbEntity
  8
0
100
AcDbCircle
 62
7
  6
CONTINUOUS
 10
151.4224195792
 20
33.7624552171
 40
1.4754098361
100
AcDbArc
 50
270.0
 51
326.2510114041
  0
ARC
  5
2ED
100
AcDbEntity
  8
0
100
AcDbCircle
 62
7
  6
CONTINUOUS
 10
156.990719505
 20
34.5821273482
 40
1.4754098361
100
AcDbArc
 50
90.0
 51
146.2510114041
  0
ARC
  5
2EE
100
AcDbEntity
  8
0
100
AcDbCircle
 62
7
  6
CONTINUOUS
 10
151.8295203618
 20
34.2542584958
 40
0.8196721311
100
AcDbArc
 50
270.0
 51
360.0
  0
ARC
  5
2EF
100
AcDbEntity
  8
0
100
AcDbCircle
 62
7
  6
CONTINUOUS
 10
156.5836187224
 20
34.0903240696
 40
0.8196721311
100
AcDbArc
 50
90.0
 51
180.0
  0
ARC
  5
2F0
100
AcDbEntity
  8
0
100
AcDbCircle
 62
7
  6
CONTINUOUS
 10
151.1737826569
 20
33.8444224302
 40
0.4098360656
100
AcDbArc
 50
180.0
 51
270.0
  0
ARC
  5
2F1
100
AcDbEntity
  8
0
100
AcDbCircle
 62
7
  6
CONTINUOUS
 10
157.2393564274
 20
34.5001601351
 40
0.4098360656
100
AcDbArc
 50
0.0
 51
90.0
  0
SOLID
  5
2F2
100
AcDbEntity
  8
0
100
AcDbTrace
 62
7
  6
CONTINUOUS
 10
156.0767541889
 20
31.8388420633
 11
156.0767541889
 21
32.0001605469
 12
156.3658162478
 22
31.8388420633
 13
156.3658162478
 23
32.0001605469
  0
LWPOLYLINE
  5
2F3
100
AcDbEntity
  8
0
100
AcDbPolyline
 62
7
  6
CONTINUOUS
 90
13
 70
0
 10
150.3533164408
 20
31.5162050961
 10
150.7580039683
 20
31.4839407928
 10
150.9892539132
 20
31.4194137026
 10
151.1626914132
 20
31.3226223092
 10
151.2205040235
 20
31.1935681288
 10
150.9314414683
 20
31.1935681288
 10
150.8736290235
 20
31.2903595223
 10
150.7001914408
 20
31.3548866125
 10
150.2955039959
 20
31.3871493993
 10
149.6595664615
 20
31.3871493993
 10
149.8330039821
 20
31.4516780059
 10
150.0064414821
 20
31.4839407928
 10
150.3533164408
 20
31.5162050961
  0
HATCH
  5
2F4
100
AcDbEntity
  8
0
100
AcDbHatch
 62
7
  6
CONTINUOUS
 10
0.0
 20
0.0
 30
0.0
210
0.0
220
0.0
230
1.0
  2
SOLID
 70
1
 71
1
 91
1
 92
1
 93
12
 72
1
 10
150.3533164408
 20
31.5162050961
 11
150.7580039683
 21
31.4839407928
 72
1
 10
150.7580039683
 20
31.4839407928
 11
150.9892539132
 21
31.4194137026
 72
1
 10
150.9892539132
 20
31.4194137026
 11
151.1626914132
 21
31.3226223092
 72
1
 10
151.1626914132
 20
31.3226223092
 11
151.2205040235
 21
31.1935681288
 72
1
 10
151.2205040235
 20
31.1935681288
 11
150.9314414683
 21
31.1935681288
 72
1
 10
150.9314414683
 20
31.1935681288
 11
150.8736290235
 21
31.2903595223
 72
1
 10
150.8736290235
 20
31.2903595223
 11
150.7001914408
 21
31.3548866125
 72
1
 10
150.7001914408
 20
31.3548866125
 11
150.2955039959
 21
31.3871493993
 72
1
 10
150.2955039959
 20
31.3871493993
 11
149.6595664615
 21
31.3871493993
 72
1
 10
149.6595664615
 20
31.3871493993
 11
149.8330039821
 21
31.4516780059
 72
1
 10
149.8330039821
 20
31.4516780059
 11
150.0064414821
 21
31.4839407928
 72
1
 10
150.0064414821
 20
31.4839407928
 11
150.3533164408
 21
31.5162050961
 97
1
330
2F3
 75
0
 76
1
 98
1
 10
0.0
 20
0.0
  0
LWPOLYLINE
  5
2F5
100
AcDbEntity
  8
0
100
AcDbPolyline
 62
7
  6
CONTINUOUS
 90
25
 70
0
 10
152.2611288581
 20
31.4839407928
 10
152.4923789683
 20
31.5162050961
 10
152.7236290786
 20
31.5162050961
 10
152.8970665786
 20
31.4839407928
 10
153.0705040786
 20
31.4194137026
 10
153.1861289683
 20
31.3548866125
 10
153.2439415786
 20
31.2903595223
 10
153.3017538581
 20
31.1290410387
 10
153.3017538581
 20
30.4837671043
 10
153.0126914683
 20
30.4837671043
 10
153.0126914683
 20
31.1290410387
 10
152.9548788581
 20
31.258095219
 10
152.8392539683
 20
31.3226223092
 10
152.7236290786
 20
31.3548866125
 10
152.4923789683
 20
31.3871493993
 10
152.2611288581
 20
31.3548866125
 10
152.0876915235
 20
31.2903595223
 10
151.9720664683
 20
31.2258309157
 10
151.9720664683
 20
30.4837671043
 10
151.6830039132
 20
30.4837671043
 10
151.6830039132
 20
32.0001605469
 10
151.9720664683
 20
32.0001605469
 10
151.9720664683
 20
31.3548866125
 10
152.0876915235
 20
31.4194137026
 10
152.2611288581
 20
31.4839407928
  0
HATCH
  5
2F6
100
AcDbEntity
  8
0
100
AcDbHatch
 62
7
  6
CONTINUOUS
 10
0.0
 20
0.0
 30
0.0
210
0.0
220
0.0
230
1.0
  2
SOLID
 70
1
 71
1
 91
1
 92
1
 93
24
 72
1
 10
152.2611288581
 20
31.4839407928
 11
152.4923789683
 21
31.5162050961
 72
1
 10
152.4923789683
 20
31.5162050961
 11
152.7236290786
 21
31.5162050961
 72
1
 10
152.7236290786
 20
31.5162050961
 11
152.8970665786
 21
31.4839407928
 72
1
 10
152.8970665786
 20
31.4839407928
 11
153.0705040786
 21
31.4194137026
 72
1
 10
153.0705040786
 20
31.4194137026
 11
153.1861289683
 21
31.3548866125
 72
1
 10
153.1861289683
 20
31.3548866125
 11
153.2439415786
 21
31.2903595223
 72
1
 10
153.2439415786
 20
31.2903595223
 11
153.3017538581
 21
31.1290410387
 72
1
 10
153.3017538581
 20
31.1290410387
 11
153.3017538581
 21
30.4837671043
 72
1
 10
153.3017538581
 20
30.4837671043
 11
153.0126914683
 21
30.4837671043
 72
1
 10
153.0126914683
 20
30.4837671043
 11
153.0126914683
 21
31.1290410387
 72
1
 10
153.0126914683
 20
31.1290410387
 11
152.9548788581
 21
31.258095219
 72
1
 10
152.9548788581
 20
31.258095219
 11
152.8392539683
 21
31.3226223092
 72
1
 10
152.8392539683
 20
31.3226223092
 11
152.7236290786
 21
31.3548866125
 72
1
 10
152.7236290786
 20
31.3548866125
 11
152.4923789683
 21
31.3871493993
 72
1
 10
152.4923789683
 20
31.3871493993
 11
152.2611288581
 21
31.3548866125
 72
1
 10
152.2611288581
 20
31.3548866125
 11
152.0876915235
 21
31.2903595223
 72
1
 10
152.0876915235
 20
31.2903595223
 11
151.9720664683
 21
31.2258309157
 72
1
 10
151.9720664683
 20
31.2258309157
 11
151.9720664683
 21
30.4837671043
 72
1
 10
151.9720664683
 20
30.4837671043
 11
151.6830039132
 21
30.4837671043
 72
1
 10
151.6830039132
 20
30.4837671043
 11
151.6830039132
 21
32.0001605469
 72
1
 10
151.6830039132
 20
32.0001605469
 11
151.9720664683
 21
32.0001605469
 72
1
 10
151.9720664683
 20
32.0001605469
 11
151.9720664683
 21
31.3548866125
 72
1
 10
151.9720664683
 20
31.3548866125
 11
152.0876915235
 21
31.4194137026
 72
1
 10
152.0876915235
 20
31.4194137026
 11
152.2611288581
 21
31.4839407928
 97
1
330
2F5
 75
0
 76
1
 98
1
 10
0.0
 20
0.0
  0
LWPOLYLINE
  5
2F7
100
AcDbEntity
  8
0
100
AcDbPolyline
 62
7
  6
CONTINUOUS
 90
20
 70
0
 10
154.0533164683
 20
31.4839407928
 10
154.4580040786
 20
31.5162050961
 10
154.8048790786
 20
31.5162050961
 10
155.1517537478
 20
31.4839407928
 10
155.3251912478
 20
31.4194137026
 10
155.4408164683
 20
31.3548866125
 10
155.4986287478
 20
31.258095219
 10
155.4986287478
 20
30.7418754649
 10
155.2095666889
 20
30.8386672883
 10
155.2095666889
 20
31.0322496452
 10
155.2095666889
 20
31.1613038256
 10
155.2095666889
 20
31.258095219
 10
155.1517537478
 20
31.3226223092
 10
155.0361291889
 20
31.3548866125
 10
154.8048790786
 20
31.3871493993
 10
154.4580040786
 20
31.3871493993
 10
153.7642540786
 20
31.3226223092
 10
153.8220663581
 20
31.3871493993
 10
153.9376915786
 20
31.4516780059
 10
154.0533164683
 20
31.4839407928
  0
HATCH
  5
2F8
100
AcDbEntity
  8
0
100
AcDbHatch
 62
7
  6
CONTINUOUS
 10
0.0
 20
0.0
 30
0.0
210
0.0
220
0.0
230
1.0
  2
SOLID
 70
1
 71
1
 91
1
 92
1
 93
19
 72
1
 10
154.0533164683
 20
31.4839407928
 11
154.4580040786
 21
31.5162050961
 72
1
 10
154.4580040786
 20
31.5162050961
 11
154.8048790786
 21
31.5162050961
 72
1
 10
154.8048790786
 20
31.5162050961
 11
155.1517537478
 21
31.4839407928
 72
1
 10
155.1517537478
 20
31.4839407928
 11
155.3251912478
 21
31.4194137026
 72
1
 10
155.3251912478
 20
31.4194137026
 11
155.4408164683
 21
31.3548866125
 72
1
 10
155.4408164683
 20
31.3548866125
 11
155.4986287478
 21
31.258095219
 72
1
 10
155.4986287478
 20
31.258095219
 11
155.4986287478
 21
30.7418754649
 72
1
 10
155.4986287478
 20
30.7418754649
 11
155.2095666889
 21
30.8386672883
 72
1
 10
155.2095666889
 20
30.8386672883
 11
155.2095666889
 21
31.0322496452
 72
1
 10
155.2095666889
 20
31.0322496452
 11
155.2095666889
 21
31.1613038256
 72
1
 10
155.2095666889
 20
31.1613038256
 11
155.2095666889
 21
31.258095219
 72
1
 10
155.2095666889
 20
31.258095219
 11
155.1517537478
 21
31.3226223092
 72
1
 10
155.1517537478
 20
31.3226223092
 11
155.0361291889
 21
31.3548866125
 72
1
 10
155.0361291889
 20
31.3548866125
 11
154.8048790786
 21
31.3871493993
 72
1
 10
154.8048790786
 20
31.3871493993
 11
154.4580040786
 21
31.3871493993
 72
1
 10
154.4580040786
 20
31.3871493993
 11
153.7642540786
 21
31.3226223092
 72
1
 10
153.7642540786
 20
31.3226223092
 11
153.8220663581
 21
31.3871493993
 72
1
 10
153.8220663581
 20
31.3871493993
 11
153.9376915786
 21
31.4516780059
 72
1
 10
153.9376915786
 20
31.4516780059
 11
154.0533164683
 21
31.4839407928
 97
1
330
2F7
 75
0
 76
1
 98
1
 10
0.0
 20
0.0
  0
LWPOLYLINE
  5
2F9
100
AcDbEntity
  8
0
100
AcDbPolyline
 62
7
  6
CONTINUOUS
 90
25
 70
0
 10
157.4064412478
 20
31.4839407928
 10
157.6376916889
 20
31.5162050961
 10
157.8689414683
 20
31.5162050961
 10
158.0423789683
 20
31.4839407928
 10
158.2158164683
 20
31.4194137026
 10
158.3314416889
 20
31.3548866125
 10
158.3892539683
 20
31.258095219
 10
158.4470662478
 20
31.0967767354
 10
158.4470662478
 20
30.4837671043
 10
158.1580041889
 20
30.4837671043
 10
158.1580041889
 20
31.0967767354
 10
158.1001912478
 20
31.258095219
 10
157.9845666889
 20
31.3226223092
 10
157.8689414683
 20
31.3548866125
 10
157.6376916889
 20
31.3871493993
 10
157.4064412478
 20
31.3548866125
 10
157.2330037478
 20
31.2903595223
 10
157.1173791889
 20
31.2258309157
 10
157.1173791889
 20
30.4837671043
 10
156.8283164683
 20
30.4837671043
 10
156.8283164683
 20
31.5162050961
 10
157.1173791889
 20
31.5162050961
 10
157.1173791889
 20
31.3548866125
 10
157.2330037478
 20
31.4194137026
 10
157.4064412478
 20
31.4839407928
  0
HATCH
  5
2FA
100
AcDbEntity
  8
0
100
AcDbHatch
 62
7
  6
CONTINUOUS
 10
0.0
 20
0.0
 30
0.0
210
0.0
220
0.0
230
1.0
  2
SOLID
 70
1
 71
1
 91
1
 92
1
 93
24
 72
1
 10
157.4064412478
 20
31.4839407928
 11
157.6376916889
 21
31.5162050961
 72
1
 10
157.6376916889
 20
31.5162050961
 11
157.8689414683
 21
31.5162050961
 72
1
 10
157.8689414683
 20
31.5162050961
 11
158.0423789683
 21
31.4839407928
 72
1
 10
158.0423789683
 20
31.4839407928
 11
158.2158164683
 21
31.4194137026
 72
1
 10
158.2158164683
 20
31.4194137026
 11
158.3314416889
 21
31.3548866125
 72
1
 10
158.3314416889
 20
31.3548866125
 11
158.3892539683
 21
31.258095219
 72
1
 10
158.3892539683
 20
31.258095219
 11
158.4470662478
 21
31.0967767354
 72
1
 10
158.4470662478
 20
31.0967767354
 11
158.4470662478
 21
30.4837671043
 72
1
 10
158.4470662478
 20
30.4837671043
 11
158.1580041889
 21
30.4837671043
 72
1
 10
158.1580041889
 20
30.4837671043
 11
158.1580041889
 21
31.0967767354
 72
1
 10
158.1580041889
 20
31.0967767354
 11
158.1001912478
 21
31.258095219
 72
1
 10
158.1001912478
 20
31.258095219
 11
157.9845666889
 21
31.3226223092
 72
1
 10
157.9845666889
 20
31.3226223092
 11
157.8689414683
 21
31.3548866125
 72
1
 10
157.8689414683
 20
31.3548866125
 11
157.6376916889
 21
31.3871493993
 72
1
 10
157.6376916889
 20
31.3871493993
 11
157.4064412478
 21
31.3548866125
 72
1
 10
157.4064412478
 20
31.3548866125
 11
157.2330037478
 21
31.2903595223
 72
1
 10
157.2330037478
 20
31.2903595223
 11
157.1173791889
 21
31.2258309157
 72
1
 10
157.1173791889
 20
31.2258309157
 11
157.1173791889
 21
30.4837671043
 72
1
 10
157.1173791889
 20
30.4837671043
 11
156.8283164683
 21
30.4837671043
 72
1
 10
156.8283164683
 20
30.4837671043
 11
156.8283164683
 21
31.5162050961
 72
1
 10
156.8283164683
 20
31.5162050961
 11
157.1173791889
 21
31.5162050961
 72
1
 10
157.1173791889
 20
31.5162050961
 11
157.1173791889
 21
31.3548866125
 72
1
 10
157.1173791889
 20
31.3548866125
 11
157.2330037478
 21
31.4194137026
 72
1
 10
157.2330037478
 20
31.4194137026
 11
157.4064412478
 21
31.4839407928
 97
1
330
2F9
 75
0
 76
1
 98
1
 10
0.0
 20
0.0
  0
LWPOLYLINE
  5
2FB
100
AcDbEntity
  8
0
100
AcDbPolyline
 62
7
  6
CONTINUOUS
 90
6
 70
0
 10
159.2564414683
 20
31.4839407928
 10
159.6033164683
 20
31.5162050961
 10
159.9501914683
 20
31.5162050961
 10
160.2970664683
 20
31.4839407928
 10
159.0251916889
 20
31.4194137026
 10
159.2564414683
 20
31.4839407928
  0
HATCH
  5
2FC
100
AcDbEntity
  8
0
100
AcDbHatch
 62
7
  6
CONTINUOUS
 10
0.0
 20
0.0
 30
0.0
210
0.0
220
0.0
230
1.0
  2
SOLID
 70
1
 71
1
 91
1
 92
1
 93
5
 72
1
 10
159.2564414683
 20
31.4839407928
 11
159.6033164683
 21
31.5162050961
 72
1
 10
159.6033164683
 20
31.5162050961
 11
159.9501914683
 21
31.5162050961
 72
1
 10
159.9501914683
 20
31.5162050961
 11
160.2970664683
 21
31.4839407928
 72
1
 10
160.2970664683
 20
31.4839407928
 11
159.0251916889
 21
31.4194137026
 72
1
 10
159.0251916889
 20
31.4194137026
 11
159.2564414683
 21
31.4839407928
 97
1
330
2FB
 75
0
 76
1
 98
1
 10
0.0
 20
0.0
  0
LWPOLYLINE
  5
2FD
100
AcDbEntity
  8
0
100
AcDbPolyline
 62
7
  6
CONTINUOUS
 90
12
 70
0
 10
160.4705039683
 20
31.4516780059
 10
160.6439414683
 20
31.3871493993
 10
160.7595660273
 20
31.258095219
 10
160.4705039683
 20
31.258095219
 10
160.4126916889
 20
31.3226223092
 10
160.2970664683
 20
31.3548866125
 10
159.9501914683
 20
31.3871493993
 10
159.6033164683
 20
31.3871493993
 10
158.9095664683
 20
31.3226223092
 10
159.0251916889
 20
31.4194137026
 10
160.2970664683
 20
31.4839407928
 10
160.4705039683
 20
31.4516780059
  0
HATCH
  5
2FE
100
AcDbEntity
  8
0
100
AcDbHatch
 62
7
  6
CONTINUOUS
 10
0.0
 20
0.0
 30
0.0
210
0.0
220
0.0
230
1.0
  2
SOLID
 70
1
 71
1
 91
1
 92
1
 93
11
 72
1
 10
160.4705039683
 20
31.4516780059
 11
160.6439414683
 21
31.3871493993
 72
1
 10
160.6439414683
 20
31.3871493993
 11
160.7595660273
 21
31.258095219
 72
1
 10
160.7595660273
 20
31.258095219
 11
160.4705039683
 21
31.258095219
 72
1
 10
160.4705039683
 20
31.258095219
 11
160.4126916889
 21
31.3226223092
 72
1
 10
160.4126916889
 20
31.3226223092
 11
160.2970664683
 21
31.3548866125
 72
1
 10
160.2970664683
 20
31.3548866125
 11
159.9501914683
 21
31.3871493993
 72
1
 10
159.9501914683
 20
31.3871493993
 11
159.6033164683
 21
31.3871493993
 72
1
 10
159.6033164683
 20
31.3871493993
 11
158.9095664683
 21
31.3226223092
 72
1
 10
158.9095664683
 20
31.3226223092
 11
159.0251916889
 21
31.4194137026
 72
1
 10
159.0251916889
 20
31.4194137026
 11
160.2970664683
 21
31.4839407928
 72
1
 10
160.2970664683
 20
31.4839407928
 11
160.4705039683
 21
31.4516780059
 97
1
330
2FD
 75
0
 76
1
 98
1
 10
0.0
 20
0.0
  0
LWPOLYLINE
  5
2FF
100
AcDbEntity
  8
0
100
AcDbPolyline
 62
7
  6
CONTINUOUS
 90
7
 70
0
 10
150.0642539683
 20
31.3548866125
 10
149.9486289546
 20
31.3226223092
 10
149.4283164701
 20
31.1935681288
 10
149.5439414683
 20
31.3226223092
 10
149.6595664615
 20
31.3871493993
 10
150.2955039959
 20
31.3871493993
 10
150.0642539683
 20
31.3548866125
  0
HATCH
  5
300
100
AcDbEntity
  8
0
100
AcDbHatch
 62
7
  6
CONTINUOUS
 10
0.0
 20
0.0
 30
0.0
210
0.0
220
0.0
230
1.0
  2
SOLID
 70
1
 71
1
 91
1
 92
1
 93
6
 72
1
 10
150.0642539683
 20
31.3548866125
 11
149.9486289546
 21
31.3226223092
 72
1
 10
149.9486289546
 20
31.3226223092
 11
149.4283164701
 21
31.1935681288
 72
1
 10
149.4283164701
 20
31.1935681288
 11
149.5439414683
 21
31.3226223092
 72
1
 10
149.5439414683
 20
31.3226223092
 11
149.6595664615
 21
31.3871493993
 72
1
 10
149.6595664615
 20
31.3871493993
 11
150.2955039959
 21
31.3871493993
 72
1
 10
150.2955039959
 20
31.3871493993
 11
150.0642539683
 21
31.3548866125
 97
1
330
2FF
 75
0
 76
1
 98
1
 10
0.0
 20
0.0
  0
LWPOLYLINE
  5
301
100
AcDbEntity
  8
0
100
AcDbPolyline
 62
7
  6
CONTINUOUS
 90
7
 70
0
 10
154.2267539683
 20
31.3548866125
 10
154.1111290786
 20
31.3226223092
 10
154.0533164683
 20
31.258095219
 10
153.7642540786
 20
31.258095219
 10
153.7642540786
 20
31.3226223092
 10
154.4580040786
 20
31.3871493993
 10
154.2267539683
 20
31.3548866125
  0
HATCH
  5
302
100
AcDbEntity
  8
0
100
AcDbHatch
 62
7
  6
CONTINUOUS
 10
0.0
 20
0.0
 30
0.0
210
0.0
220
0.0
230
1.0
  2
SOLID
 70
1
 71
1
 91
1
 92
1
 93
6
 72
1
 10
154.2267539683
 20
31.3548866125
 11
154.1111290786
 21
31.3226223092
 72
1
 10
154.1111290786
 20
31.3226223092
 11
154.0533164683
 21
31.258095219
 72
1
 10
154.0533164683
 20
31.258095219
 11
153.7642540786
 21
31.258095219
 72
1
 10
153.7642540786
 20
31.258095219
 11
153.7642540786
 21
31.3226223092
 72
1
 10
153.7642540786
 20
31.3226223092
 11
154.4580040786
 21
31.3871493993
 72
1
 10
154.4580040786
 20
31.3871493993
 11
154.2267539683
 21
31.3548866125
 97
1
330
301
 75
0
 76
1
 98
1
 10
0.0
 20
0.0
  0
LWPOLYLINE
  5
303
100
AcDbEntity
  8
0
100
AcDbPolyline
 62
7
  6
CONTINUOUS
 90
8
 70
0
 10
159.3720666889
 20
31.3548866125
 10
159.2564414683
 20
31.3226223092
 10
159.1986291889
 20
31.258095219
 10
159.0251916889
 20
31.1290410387
 10
158.9095664683
 20
31.258095219
 10
158.9095664683
 20
31.3226223092
 10
159.6033164683
 20
31.3871493993
 10
159.3720666889
 20
31.3548866125
  0
HATCH
  5
304
100
AcDbEntity
  8
0
100
AcDbHatch
 62
7
  6
CONTINUOUS
 10
0.0
 20
0.0
 30
0.0
210
0.0
220
0.0
230
1.0
  2
SOLID
 70
1
 71
1
 91
1
 92
1
 93
7
 72
1
 10
159.3720666889
 20
31.3548866125
 11
159.2564414683
 21
31.3226223092
 72
1
 10
159.2564414683
 20
31.3226223092
 11
159.1986291889
 21
31.258095219
 72
1
 10
159.1986291889
 20
31.258095219
 11
159.0251916889
 21
31.1290410387
 72
1
 10
159.0251916889
 20
31.1290410387
 11
158.9095664683
 21
31.258095219
 72
1
 10
158.9095664683
 20
31.258095219
 11
158.9095664683
 21
31.3226223092
 72
1
 10
158.9095664683
 20
31.3226223092
 11
159.6033164683
 21
31.3871493993
 72
1
 10
159.6033164683
 20
31.3871493993
 11
159.3720666889
 21
31.3548866125
 97
1
330
303
 75
0
 76
1
 98
1
 10
0.0
 20
0.0
  0
LWPOLYLINE
  5
305
100
AcDbEntity
  8
0
100
AcDbPolyline
 62
7
  6
CONTINUOUS
 90
6
 70
0
 10
149.7751914546
 20
31.2258309157
 10
149.7173789683
 20
31.1613038256
 10
149.3705039683
 20
30.999985342
 10
149.4283164701
 20
31.1935681288
 10
149.9486289546
 20
31.3226223092
 10
149.7751914546
 20
31.2258309157
  0
HATCH
  5
306
100
AcDbEntity
  8
0
100
AcDbHatch
 62
7
  6
CONTINUOUS
 10
0.0
 20
0.0
 30
0.0
210
0.0
220
0.0
230
1.0
  2
SOLID
 70
1
 71
1
 91
1
 92
1
 93
5
 72
1
 10
149.7751914546
 20
31.2258309157
 11
149.7173789683
 21
31.1613038256
 72
1
 10
149.7173789683
 20
31.1613038256
 11
149.3705039683
 21
30.999985342
 72
1
 10
149.3705039683
 20
30.999985342
 11
149.4283164701
 21
31.1935681288
 72
1
 10
149.4283164701
 20
31.1935681288
 11
149.9486289546
 21
31.3226223092
 72
1
 10
149.9486289546
 20
31.3226223092
 11
149.7751914546
 21
31.2258309157
 97
1
330
305
 75
0
 76
1
 98
1
 10
0.0
 20
0.0
  0
LWPOLYLINE
  5
307
100
AcDbEntity
  8
0
100
AcDbPolyline
 62
7
  6
CONTINUOUS
 90
7
 70
0
 10
154.2267539683
 20
31.1290410387
 10
154.5736289683
 20
31.1613038256
 10
155.2095666889
 20
31.1613038256
 10
155.2095666889
 20
31.0322496452
 10
154.5736289683
 20
31.0322496452
 10
153.9955038581
 20
31.0645131385
 10
154.2267539683
 20
31.1290410387
  0
HATCH
  5
308
100
AcDbEntity
  8
0
100
AcDbHatch
 62
7
  6
CONTINUOUS
 10
0.0
 20
0.0
 30
0.0
210
0.0
220
0.0
230
1.0
  2
SOLID
 70
1
 71
1
 91
1
 92
1
 93
6
 72
1
 10
154.2267539683
 20
31.1290410387
 11
154.5736289683
 21
31.1613038256
 72
1
 10
154.5736289683
 20
31.1613038256
 11
155.2095666889
 21
31.1613038256
 72
1
 10
155.2095666889
 20
31.1613038256
 11
155.2095666889
 21
31.0322496452
 72
1
 10
155.2095666889
 20
31.0322496452
 11
154.5736289683
 21
31.0322496452
 72
1
 10
154.5736289683
 20
31.0322496452
 11
153.9955038581
 21
31.0645131385
 72
1
 10
153.9955038581
 20
31.0645131385
 11
154.2267539683
 21
31.1290410387
 97
1
330
307
 75
0
 76
1
 98
1
 10
0.0
 20
0.0
  0
LWPOLYLINE
  5
309
100
AcDbEntity
  8
0
100
AcDbPolyline
 62
7
  6
CONTINUOUS
 90
24
 70
0
 10
159.2564414683
 20
31.1935681288
 10
159.4298789683
 20
31.1290410387
 10
160.4126916889
 20
30.9677225551
 10
160.6439414683
 20
30.8709311616
 10
160.7595660273
 20
30.7418754649
 10
160.7595660273
 20
30.6773483748
 10
160.6439414683
 20
30.5805584977
 10
160.4126916889
 20
30.5160298911
 10
160.0658166889
 20
30.4837671043
 10
159.7189416889
 20
30.4837671043
 10
159.3720666889
 20
30.5160298911
 10
159.1986291889
 20
30.5482941944
 10
159.0251916889
 20
30.6128212846
 10
159.7189416889
 20
30.6128212846
 10
160.0658166889
 20
30.6128212846
 10
160.2970664683
 20
30.6450855879
 10
160.4126916889
 20
30.6773483748
 10
160.4705039683
 20
30.7418754649
 10
160.4126916889
 20
30.8064040715
 10
160.2392541889
 20
30.8709311616
 10
159.2564414683
 20
31.0322496452
 10
159.0251916889
 20
31.1290410387
 10
159.1986291889
 20
31.258095219
 10
159.2564414683
 20
31.1935681288
  0
HATCH
  5
30A
100
AcDbEntity
  8
0
100
AcDbHatch
 62
7
  6
CONTINUOUS
 10
0.0
 20
0.0
 30
0.0
210
0.0
220
0.0
230
1.0
  2
SOLID
 70
1
 71
1
 91
1
 92
1
 93
23
 72
1
 10
159.2564414683
 20
31.1935681288
 11
159.4298789683
 21
31.1290410387
 72
1
 10
159.4298789683
 20
31.1290410387
 11
160.4126916889
 21
30.9677225551
 72
1
 10
160.4126916889
 20
30.9677225551
 11
160.6439414683
 21
30.8709311616
 72
1
 10
160.6439414683
 20
30.8709311616
 11
160.7595660273
 21
30.7418754649
 72
1
 10
160.7595660273
 20
30.7418754649
 11
160.7595660273
 21
30.6773483748
 72
1
 10
160.7595660273
 20
30.6773483748
 11
160.6439414683
 21
30.5805584977
 72
1
 10
160.6439414683
 20
30.5805584977
 11
160.4126916889
 21
30.5160298911
 72
1
 10
160.4126916889
 20
30.5160298911
 11
160.0658166889
 21
30.4837671043
 72
1
 10
160.0658166889
 20
30.4837671043
 11
159.7189416889
 21
30.4837671043
 72
1
 10
159.7189416889
 20
30.4837671043
 11
159.3720666889
 21
30.5160298911
 72
1
 10
159.3720666889
 20
30.5160298911
 11
159.1986291889
 21
30.5482941944
 72
1
 10
159.1986291889
 20
30.5482941944
 11
159.0251916889
 21
30.6128212846
 72
1
 10
159.0251916889
 20
30.6128212846
 11
159.7189416889
 21
30.6128212846
 72
1
 10
159.7189416889
 20
30.6128212846
 11
160.0658166889
 21
30.6128212846
 72
1
 10
160.0658166889
 20
30.6128212846
 11
160.2970664683
 21
30.6450855879
 72
1
 10
160.2970664683
 20
30.6450855879
 11
160.4126916889
 21
30.6773483748
 72
1
 10
160.4126916889
 20
30.6773483748
 11
160.4705039683
 21
30.7418754649
 72
1
 10
160.4705039683
 20
30.7418754649
 11
160.4126916889
 21
30.8064040715
 72
1
 10
160.4126916889
 20
30.8064040715
 11
160.2392541889
 21
30.8709311616
 72
1
 10
160.2392541889
 20
30.8709311616
 11
159.2564414683
 21
31.0322496452
 72
1
 10
159.2564414683
 20
31.0322496452
 11
159.0251916889
 21
31.1290410387
 72
1
 10
159.0251916889
 20
31.1290410387
 11
159.1986291889
 21
31.258095219
 72
1
 10
159.1986291889
 20
31.258095219
 11
159.2564414683
 21
31.1935681288
 97
1
330
309
 75
0
 76
1
 98
1
 10
0.0
 20
0.0
  0
LWPOLYLINE
  5
30B
100
AcDbEntity
  8
0
100
AcDbPolyline
 62
7
  6
CONTINUOUS
 90
12
 70
0
 10
149.6595664615
 20
31.0322496452
 10
149.6595664615
 20
30.9354583476
 10
149.7751914546
 20
30.7741397682
 10
149.9486289546
 20
30.6773483748
 10
150.2955039959
 20
30.6128212846
 10
149.8330039821
 20
30.5482941944
 10
149.6595664615
 20
30.6128212846
 10
149.5439414683
 20
30.6773483748
 10
149.4283164701
 20
30.8064040715
 10
149.3705039683
 20
30.999985342
 10
149.7173789683
 20
31.1613038256
 10
149.6595664615
 20
31.0322496452
  0
HATCH
  5
30C
100
AcDbEntity
  8
0
100
AcDbHatch
 62
7
  6
CONTINUOUS
 10
0.0
 20
0.0
 30
0.0
210
0.0
220
0.0
230
1.0
  2
SOLID
 70
1
 71
1
 91
1
 92
1
 93
11
 72
1
 10
149.6595664615
 20
31.0322496452
 11
149.6595664615
 21
30.9354583476
 72
1
 10
149.6595664615
 20
30.9354583476
 11
149.7751914546
 21
30.7741397682
 72
1
 10
149.7751914546
 20
30.7741397682
 11
149.9486289546
 21
30.6773483748
 72
1
 10
149.9486289546
 20
30.6773483748
 11
150.2955039959
 21
30.6128212846
 72
1
 10
150.2955039959
 20
30.6128212846
 11
149.8330039821
 21
30.5482941944
 72
1
 10
149.8330039821
 20
30.5482941944
 11
149.6595664615
 21
30.6128212846
 72
1
 10
149.6595664615
 20
30.6128212846
 11
149.5439414683
 21
30.6773483748
 72
1
 10
149.5439414683
 20
30.6773483748
 11
149.4283164701
 21
30.8064040715
 72
1
 10
149.4283164701
 20
30.8064040715
 11
149.3705039683
 21
30.999985342
 72
1
 10
149.3705039683
 20
30.999985342
 11
149.7173789683
 21
31.1613038256
 72
1
 10
149.7173789683
 20
31.1613038256
 11
149.6595664615
 21
31.0322496452
 97
1
330
30B
 75
0
 76
1
 98
1
 10
0.0
 20
0.0
  0
LWPOLYLINE
  5
30D
100
AcDbEntity
  8
0
100
AcDbPolyline
 62
7
  6
CONTINUOUS
 90
6
 70
0
 10
153.8798789683
 20
30.999985342
 10
153.9955038581
 20
31.0645131385
 10
154.5736289683
 20
31.0322496452
 10
154.3423788581
 20
30.999985342
 10
153.7642540786
 20
30.8709311616
 10
153.8798789683
 20
30.999985342
  0
HATCH
  5
30E
100
AcDbEntity
  8
0
100
AcDbHatch
 62
7
  6
CONTINUOUS
 10
0.0
 20
0.0
 30
0.0
210
0.0
220
0.0
230
1.0
  2
SOLID
 70
1
 71
1
 91
1
 92
1
 93
5
 72
1
 10
153.8798789683
 20
30.999985342
 11
153.9955038581
 21
31.0645131385
 72
1
 10
153.9955038581
 20
31.0645131385
 11
154.5736289683
 21
31.0322496452
 72
1
 10
154.5736289683
 20
31.0322496452
 11
154.3423788581
 21
30.999985342
 72
1
 10
154.3423788581
 20
30.999985342
 11
153.7642540786
 21
30.8709311616
 72
1
 10
153.7642540786
 20
30.8709311616
 11
153.8798789683
 21
30.999985342
 97
1
330
30D
 75
0
 76
1
 98
1
 10
0.0
 20
0.0
  0
LWPOLYLINE
  5
30F
100
AcDbEntity
  8
0
100
AcDbPolyline
 62
7
  6
CONTINUOUS
 90
9
 70
0
 10
154.1111290786
 20
30.9031946612
 10
154.0533164683
 20
30.8064040715
 10
154.0533164683
 20
30.7418754649
 10
153.8220663581
 20
30.6450855879
 10
153.7642540786
 20
30.7741397682
 10
153.7642540786
 20
30.8709311616
 10
154.3423788581
 20
30.999985342
 10
154.2267539683
 20
30.9677225551
 10
154.1111290786
 20
30.9031946612
  0
HATCH
  5
310
100
AcDbEntity
  8
0
100
AcDbHatch
 62
7
  6
CONTINUOUS
 10
0.0
 20
0.0
 30
0.0
210
0.0
220
0.0
230
1.0
  2
SOLID
 70
1
 71
1
 91
1
 92
1
 93
8
 72
1
 10
154.1111290786
 20
30.9031946612
 11
154.0533164683
 21
30.8064040715
 72
1
 10
154.0533164683
 20
30.8064040715
 11
154.0533164683
 21
30.7418754649
 72
1
 10
154.0533164683
 20
30.7418754649
 11
153.8220663581
 21
30.6450855879
 72
1
 10
153.8220663581
 20
30.6450855879
 11
153.7642540786
 21
30.7741397682
 72
1
 10
153.7642540786
 20
30.7741397682
 11
153.7642540786
 21
30.8709311616
 72
1
 10
153.7642540786
 20
30.8709311616
 11
154.3423788581
 21
30.999985342
 72
1
 10
154.3423788581
 20
30.999985342
 11
154.2267539683
 21
30.9677225551
 72
1
 10
154.2267539683
 20
30.9677225551
 11
154.1111290786
 21
30.9031946612
 97
1
330
30F
 75
0
 76
1
 98
1
 10
0.0
 20
0.0
  0
LWPOLYLINE
  5
311
100
AcDbEntity
  8
0
100
AcDbPolyline
 62
7
  6
CONTINUOUS
 90
10
 70
0
 10
155.1517537478
 20
30.7741397682
 10
155.2095666889
 20
30.8386672883
 10
155.4986287478
 20
30.7418754649
 10
155.5564416889
 20
30.5805584977
 10
155.6142539683
 20
30.4837671043
 10
155.3251912478
 20
30.4837671043
 10
155.2673789683
 20
30.5482941944
 10
155.2095666889
 20
30.6450855879
 10
154.9783162478
 20
30.6773483748
 10
155.1517537478
 20
30.7741397682
  0
HATCH
  5
312
100
AcDbEntity
  8
0
100
AcDbHatch
 62
7
  6
CONTINUOUS
 10
0.0
 20
0.0
 30
0.0
210
0.0
220
0.0
230
1.0
  2
SOLID
 70
1
 71
1
 91
1
 92
1
 93
9
 72
1
 10
155.1517537478
 20
30.7741397682
 11
155.2095666889
 21
30.8386672883
 72
1
 10
155.2095666889
 20
30.8386672883
 11
155.4986287478
 21
30.7418754649
 72
1
 10
155.4986287478
 20
30.7418754649
 11
155.5564416889
 21
30.5805584977
 72
1
 10
155.5564416889
 20
30.5805584977
 11
155.6142539683
 21
30.4837671043
 72
1
 10
155.6142539683
 20
30.4837671043
 11
155.3251912478
 21
30.4837671043
 72
1
 10
155.3251912478
 20
30.4837671043
 11
155.2673789683
 21
30.5482941944
 72
1
 10
155.2673789683
 20
30.5482941944
 11
155.2095666889
 21
30.6450855879
 72
1
 10
155.2095666889
 20
30.6450855879
 11
154.9783162478
 21
30.6773483748
 72
1
 10
154.9783162478
 20
30.6773483748
 11
155.1517537478
 21
30.7741397682
 97
1
330
311
 75
0
 76
1
 98
1
 10
0.0
 20
0.0
  0
LWPOLYLINE
  5
313
100
AcDbEntity
  8
0
100
AcDbPolyline
 62
7
  6
CONTINUOUS
 90
12
 70
0
 10
150.8736290235
 20
30.7096125201
 10
150.9314414683
 20
30.8064040715
 10
151.2205040235
 20
30.8064040715
 10
151.1626914132
 20
30.6773483748
 10
150.9892539132
 20
30.5805584977
 10
150.7580039683
 20
30.5160298911
 10
150.3533164408
 20
30.4837671043
 10
150.0064414821
 20
30.5160298911
 10
149.8330039821
 20
30.5482941944
 10
150.2955039959
 20
30.6128212846
 10
150.7001914408
 20
30.6450855879
 10
150.8736290235
 20
30.7096125201
  0
HATCH
  5
314
100
AcDbEntity
  8
0
100
AcDbHatch
 62
7
  6
CONTINUOUS
 10
0.0
 20
0.0
 30
0.0
210
0.0
220
0.0
230
1.0
  2
SOLID
 70
1
 71
1
 91
1
 92
1
 93
11
 72
1
 10
150.8736290235
 20
30.7096125201
 11
150.9314414683
 21
30.8064040715
 72
1
 10
150.9314414683
 20
30.8064040715
 11
151.2205040235
 21
30.8064040715
 72
1
 10
151.2205040235
 20
30.8064040715
 11
151.1626914132
 21
30.6773483748
 72
1
 10
151.1626914132
 20
30.6773483748
 11
150.9892539132
 21
30.5805584977
 72
1
 10
150.9892539132
 20
30.5805584977
 11
150.7580039683
 21
30.5160298911
 72
1
 10
150.7580039683
 20
30.5160298911
 11
150.3533164408
 21
30.4837671043
 72
1
 10
150.3533164408
 20
30.4837671043
 11
150.0064414821
 21
30.5160298911
 72
1
 10
150.0064414821
 20
30.5160298911
 11
149.8330039821
 21
30.5482941944
 72
1
 10
149.8330039821
 20
30.5482941944
 11
150.2955039959
 21
30.6128212846
 72
1
 10
150.2955039959
 20
30.6128212846
 11
150.7001914408
 21
30.6450855879
 72
1
 10
150.7001914408
 20
30.6450855879
 11
150.8736290235
 21
30.7096125201
 97
1
330
313
 75
0
 76
1
 98
1
 10
0.0
 20
0.0
  0
LWPOLYLINE
  5
315
100
AcDbEntity
  8
0
100
AcDbPolyline
 62
7
  6
CONTINUOUS
 90
6
 70
0
 10
154.1111290786
 20
30.6773483748
 10
154.3423788581
 20
30.6128212846
 10
153.9955038581
 20
30.5482941944
 10
153.8220663581
 20
30.6450855879
 10
154.0533164683
 20
30.7418754649
 10
154.1111290786
 20
30.6773483748
  0
HATCH
  5
316
100
AcDbEntity
  8
0
100
AcDbHatch
 62
7
  6
CONTINUOUS
 10
0.0
 20
0.0
 30
0.0
210
0.0
220
0.0
230
1.0
  2
SOLID
 70
1
 71
1
 91
1
 92
1
 93
5
 72
1
 10
154.1111290786
 20
30.6773483748
 11
154.3423788581
 21
30.6128212846
 72
1
 10
154.3423788581
 20
30.6128212846
 11
153.9955038581
 21
30.5482941944
 72
1
 10
153.9955038581
 20
30.5482941944
 11
153.8220663581
 21
30.6450855879
 72
1
 10
153.8220663581
 20
30.6450855879
 11
154.0533164683
 21
30.7418754649
 72
1
 10
154.0533164683
 20
30.7418754649
 11
154.1111290786
 21
30.6773483748
 97
1
330
315
 75
0
 76
1
 98
1
 10
0.0
 20
0.0
  0
LWPOLYLINE
  5
317
100
AcDbEntity
  8
0
100
AcDbPolyline
 62
7
  6
CONTINUOUS
 90
11
 70
0
 10
154.6892538581
 20
30.6128212846
 10
154.9783162478
 20
30.6773483748
 10
155.2095666889
 20
30.6450855879
 10
155.1517537478
 20
30.5805584977
 10
154.9783162478
 20
30.5160298911
 10
154.6892538581
 20
30.4837671043
 10
154.3423788581
 20
30.4837671043
 10
154.1111290786
 20
30.5160298911
 10
153.9955038581
 20
30.5482941944
 10
154.3423788581
 20
30.6128212846
 10
154.6892538581
 20
30.6128212846
  0
HATCH
  5
318
100
AcDbEntity
  8
0
100
AcDbHatch
 62
7
  6
CONTINUOUS
 10
0.0
 20
0.0
 30
0.0
210
0.0
220
0.0
230
1.0
  2
SOLID
 70
1
 71
1
 91
1
 92
1
 93
10
 72
1
 10
154.6892538581
 20
30.6128212846
 11
154.9783162478
 21
30.6773483748
 72
1
 10
154.9783162478
 20
30.6773483748
 11
155.2095666889
 21
30.6450855879
 72
1
 10
155.2095666889
 20
30.6450855879
 11
155.1517537478
 21
30.5805584977
 72
1
 10
155.1517537478
 20
30.5805584977
 11
154.9783162478
 21
30.5160298911
 72
1
 10
154.9783162478
 20
30.5160298911
 11
154.6892538581
 21
30.4837671043
 72
1
 10
154.6892538581
 20
30.4837671043
 11
154.3423788581
 21
30.4837671043
 72
1
 10
154.3423788581
 20
30.4837671043
 11
154.1111290786
 21
30.5160298911
 72
1
 10
154.1111290786
 20
30.5160298911
 11
153.9955038581
 21
30.5482941944
 72
1
 10
153.9955038581
 20
30.5482941944
 11
154.3423788581
 21
30.6128212846
 72
1
 10
154.3423788581
 20
30.6128212846
 11
154.6892538581
 21
30.6128212846
 97
1
330
317
 75
0
 76
1
 98
1
 10
0.0
 20
0.0
  0
LWPOLYLINE
  5
319
100
AcDbEntity
  8
0
100
AcDbPolyline
 62
7
  6
CONTINUOUS
 90
7
 70
0
 10
159.3720666889
 20
30.6450855879
 10
159.7189416889
 20
30.6128212846
 10
159.0251916889
 20
30.6128212846
 10
158.9095664683
 20
30.7418754649
 10
159.1986291889
 20
30.7418754649
 10
159.2564414683
 20
30.6773483748
 10
159.3720666889
 20
30.6450855879
  0
HATCH
  5
31A
100
AcDbEntity
  8
0
100
AcDbHatch
 62
7
  6
CONTINUOUS
 10
0.0
 20
0.0
 30
0.0
210
0.0
220
0.0
230
1.0
  2
SOLID
 70
1
 71
1
 91
1
 92
1
 93
6
 72
1
 10
159.3720666889
 20
30.6450855879
 11
159.7189416889
 21
30.6128212846
 72
1
 10
159.7189416889
 20
30.6128212846
 11
159.0251916889
 21
30.6128212846
 72
1
 10
159.0251916889
 20
30.6128212846
 11
158.9095664683
 21
30.7418754649
 72
1
 10
158.9095664683
 20
30.7418754649
 11
159.1986291889
 21
30.7418754649
 72
1
 10
159.1986291889
 20
30.7418754649
 11
159.2564414683
 21
30.6773483748
 72
1
 10
159.2564414683
 20
30.6773483748
 11
159.3720666889
 21
30.6450855879
 97
1
330
319
 75
0
 76
1
 98
1
 10
0.0
 20
0.0
  0
SOLID
  5
31B
100
AcDbEntity
  8
0
100
AcDbTrace
 62
7
  6
CONTINUOUS
 10
156.0767541889
 20
30.4837671043
 11
156.0767541889
 21
31.5162050961
 12
156.3658162478
 22
30.4837671043
 13
156.3658162478
 23
31.5162050961
  0
ENDBLK
  5
31C
100
AcDbEntity
  8
0
  6
BYBLOCK
 62
0
100
AcDbBlockEnd
  0
BLOCK
  5
31D
100
AcDbEntity
  8
0
100
AcDbBlockBegin
 62
2
  6
CONTINUOUS
  2
AMMEAAL_LOGO_BL0
 70
64
 10
31.7740840678
 20
19.9150776578
  3
AMMEAAL_LOGO_BL0
  1

  0
TEXT
  5
31E
100
AcDbEntity
  8
0
100
AcDbText
 62
7
  6
CONTINUOUS
 10
18.0387879101
 20
19.2884917655
  7
TEXTSTYLE_3
 40
2.7338706658
  1
Ammeraal Beltech
 41
1.0
 51
15.0
 72
0
100
AcDbText
  0
TEXT
  5
31F
100
AcDbEntity
  8
0
100
AcDbText
 62
7
  6
CONTINUOUS
 10
28.8395887358
 20
17.0149550926
  7
TEXTSTYLE_4
 40
1.0935482663
  1
Innovation & Service in Belting
 41
1.0
 72
0
100
AcDbText
  0
LINE
  5
320
100
AcDbEntity
  8
0
100
AcDbLine
 62
7
  6
CONTINUOUS
 10
12.0142472588
 20
20.055085074
 11
12.7923992521
 21
23.7160023717
  0
LINE
  5
321
100
AcDbEntity
  8
0
100
AcDbLine
 62
7
  6
CONTINUOUS
 10
22.8875675419
 20
27.3793962833
 11
13.2802169951
 21
24.257778862
  0
LINE
  5
322
100
AcDbEntity
  8
0
100
AcDbLine
 62
7
  6
CONTINUOUS
 10
12.2395305911
 20
19.361734271
 11
19.7466058522
 21
12.602333345
  0
LINE
  5
323
100
AcDbEntity
  8
0
100
AcDbLine
 62
7
  6
CONTINUOUS
 10
12.5020650018
 20
20.5968615644
 11
23.310334367
 21
24.1086811633
  0
LINE
  5
324
100
AcDbEntity
  8
0
100
AcDbLine
 62
7
  6
CONTINUOUS
 10
23.3061292298
 20
13.7588925996
 11
14.860669561
 21
21.3632186413
  0
LINE
  5
325
100
AcDbEntity
  8
0
100
AcDbLine
 62
7
  6
CONTINUOUS
 10
23.8259519496
 20
26.5344711676
 11
22.8493924124
 21
21.9401197651
  0
LINE
  5
326
100
AcDbEntity
  8
0
100
AcDbLine
 62
7
  6
CONTINUOUS
 10
22.1495904647
 20
18.6478104513
 11
21.4631422532
 21
15.4183255269
  0
LINE
  5
327
100
AcDbEntity
  8
0
100
AcDbLine
 62
7
  6
CONTINUOUS
 10
24.5070480481
 20
14.1490947773
 11
25.4632795838
 21
18.6478104513
  0
LINE
  5
328
100
AcDbEntity
  8
0
100
AcDbLine
 62
7
  6
CONTINUOUS
 10
26.1630815315
 20
21.9401197651
 11
26.6073233338
 21
24.0301131245
  0
LINE
  5
329
100
AcDbEntity
  8
0
100
AcDbLine
 62
7
  6
CONTINUOUS
 10
20.4597069275
 20
12.4507590323
 11
24.0192303051
 21
13.6073182869
  0
LINE
  5
32A
100
AcDbEntity
  8
0
100
AcDbLine
 62
7
  6
CONTINUOUS
 10
23.6006686173
 20
27.2278219706
 11
26.3820400015
 21
24.7234639276
  0
ARC
  5
32B
100
AcDbEntity
  8
0
100
AcDbCircle
 62
7
  6
CONTINUOUS
 10
13.5055003274
 20
23.564428059
 40
0.7290321776
100
AcDbArc
 50
108.0
 51
168.0
  0
ARC
  5
32C
100
AcDbEntity
  8
0
100
AcDbCircle
 62
7
  6
CONTINUOUS
 10
23.1128508743
 20
26.6860454803
 40
0.7290321776
100
AcDbArc
 50
348.0
 51
108.0
  0
ARC
  5
32D
100
AcDbEntity
  8
0
100
AcDbCircle
 62
7
  6
CONTINUOUS
 10
25.8942222585
 20
24.1816874372
 40
0.7290321776
100
AcDbArc
 50
348.0
 51
48.0
  0
ARC
  5
32E
100
AcDbEntity
  8
0
100
AcDbCircle
 62
7
  6
CONTINUOUS
 10
20.2344235952
 20
13.1441098354
 40
0.7290321776
100
AcDbArc
 50
228.0
 51
288.0
  0
ARC
  5
32F
100
AcDbEntity
  8
0
100
AcDbCircle
 62
7
  6
CONTINUOUS
 10
12.7273483341
 20
19.9035107613
 40
0.7290321776
100
AcDbArc
 50
108.0
 51
228.0
  0
ARC
  5
330
100
AcDbEntity
  8
0
100
AcDbCircle
 62
7
  6
CONTINUOUS
 10
23.7939469728
 20
14.30066909
 40
0.7290321776
100
AcDbArc
 50
228.0
 51
348.0
  0
ENDBLK
  5
331
100
AcDbEntity
  8
0
  6
BYBLOCK
 62
0
100
AcDbBlockEnd
  0
BLOCK
  5
332
100
AcDbEntity
  8
0
100
AcDbBlockBegin
  2
*T1
 70
1
 10
0.0
 20
0.0
  3
*T1
  1

  0
LINE
  5
333
100
AcDbEntity
  8
0
100
AcDbLine
 62
2
  6
CONTINUOUS
 10
0.0
 20
0.0
 11
190.0
 21
0.0
  0
LINE
  5
334
100
AcDbEntity
  8
0
100
AcDbLine
 62
2
  6
CONTINUOUS
 10
0.0
 20
0.0
 11
0.0
 21
-20.0
  0
LINE
  5
335
100
AcDbEntity
  8
0
100
AcDbLine
 62
2
  6
CONTINUOUS
 10
0.0
 20
-20.0
 11
190.0
 21
-20.0
  0
LINE
  5
336
100
AcDbEntity
  8
0
100
AcDbLine
 62
2
  6
CONTINUOUS
 10
85.0
 20
0.0
 11
85.0
 21
-20.0
  0
LINE
  5
337
100
AcDbEntity
  8
0
100
AcDbLine
 62
2
  6
CONTINUOUS
 10
105.0
 20
0.0
 11
105.0
 21
-20.0
  0
LINE
  5
338
100
AcDbEntity
  8
0
100
AcDbLine
 62
2
  6
CONTINUOUS
 10
190.0
 20
0.0
 11
190.0
 21
-20.0
  0
MTEXT
  5
339
100
AcDbEntity
  8
0
100
AcDbMText
 62
5
  6
CONTINUOUS
  7
TEXTSTYLE_5
 71
1
 72
1
 10
3.0
 20
-5.177
 30
0.0
 11
1.0
 21
0.0
 31
0.0
 44
1.08
  3
                                                                     Ammeraal Beltech Modular A/S\P\H1.5;                                                                      Hjulmagervej 21,  7100 Vejle,  DK\P\H1.495;                                
  1
                                      tel: \H1.51;+45 75723100     fax: +45 75723348\P\H1.5;                                                                      admin@unichains.dk  www.unichains.com
 40
1.52
 41
161.0496183206
  0
MTEXT
  5
33A
100
AcDbEntity
  8
0
100
AcDbMText
 62
5
  6
CONTINUOUS
  7
TEXTSTYLE_6
 71
2
 72
1
 10
95.0
 20
-11.25
 30
0.0
 11
1.0
 21
0.0
 31
0.0
 44
0.9
  1
1:1
 40
5.0
 41
21.0
  0
MTEXT
  5
33B
100
AcDbEntity
  8
0
100
AcDbMText
 62
5
  6
CONTINUOUS
  7
TEXTSTYLE_7
 71
1
 72
1
 10
108.0
 20
-8.75
 30
0.0
 11
1.0
 21
0.0
 31
0.0
 44
0.9
  1
uni 2800 TAB
 40
7.5
 41
124.75
  0
ENDBLK
  5
33C
100
AcDbEntity
  8
0
  6
BYBLOCK
 62
0
100
AcDbBlockEnd
  0
ENDSEC
  0
SECTION
  2
ENTITIES
  0
MTEXT
  5
33D
100
AcDbEntity
  8
0
100
AcDbMText
 62
5
  6
CONTINUOUS
  7
TEXTSTYLE_2
 71
1
 72
1
 10
96.0
 20
28.436
 30
0.0
 11
1.0
 21
0.0
 31
0.0
 44
0.9
  1
\Q0.000019;Scale :
 40
2.8
 41
11.76
  0
MTEXT
  5
33E
100
AcDbEntity
  8
0
100
AcDbMText
 62
5
  6
CONTINUOUS
  7
TEXTSTYLE_2
 71
1
 72
1
 10
116.0
 20
28.436
 30
0.0
 11
1.0
 21
0.0
 31
0.0
 44
0.9
  1
\Q0.000019;Chain type:
 40
2.8
 41
18.48
  0
INSERT
  5
33F
100
AcDbEntity
  8
0
100
AcDbBlockReference
 62
2
  6
CONTINUOUS
  2
AMMEAAL_LOGO_BL0
 10
31.7740840678
 20
19.9150776578
  0
INSERT
  5
340
100
AcDbEntity
  8
0
100
AcDbBlockReference
 62
2
  6
CONTINUOUS
  2
UNI_LOGO2_BL1
 10
173.3924355793
 20
35.4837666925
  0
ACAD_TABLE
  5
341
100
AcDbEntity
  8
0
 62
2
  6
CONTINUOUS
100
AcDbBlockReference
  2
*T1
 10
10.0
 20
30.0
 30
0.0
100
AcDbTable
342
       418
343
210
 11
1.0
 21
0.0
 31
0.0
 90
22
 91
1
 92
3
 93
0
 94
0
 95
0
 96
0
141
20.0
142
85.0
142
20.0
142
85.0
171
1
172
0
173
0
174
0
175
1
176
1
 91
57
178
0
145
0.0
  7
TEXTSTYLE_5
301
CELL_VALUE
 90
4
  2
                                                                     Ammeraal Beltech Modular A/S\P\H1.5;                                                                      Hjulmagervej 21,  7100 Vejle,  DK\P\H1.495;                                
  1
                                      tel: \H1.51;+45 75723100     fax: +45 75723348\P\H1.5;                                                                      admin@unichains.dk  www.unichains.com
304
ACVALUE_END
170
4
140
1.52
 64
5
171
1
172
0
173
0
174
0
175
1
176
1
 91
57
178
0
145
0.0
  7
TEXTSTYLE_6
301
CELL_VALUE
 90
4
  1
1:1
304
ACVALUE_END
170
8
140
5.0
 64
5
171
1
172
0
173
0
174
0
175
1
176
1
 91
57
178
0
145
0.0
  7
TEXTSTYLE_7
301
CELL_VALUE
 90
4
  1
uni 2800 TAB
304
ACVALUE_END
170
7
140
7.5
 64
5
  0
LINE
  5
342
100
AcDbEntity
  8
0
100
AcDbLine
 62
7
  6
CONTINUOUS
 10
210.0
 20
0.0
 11
0.0
 21
0.0
  0
LINE
  5
343
100
AcDbEntity
  8
0
100
AcDbLine
 62
7
  6
CONTINUOUS
 10
10.0
 20
10.0
 11
200.0
 21
10.0
  0
LINE
  5
344
100
AcDbEntity
  8
0
100
AcDbLine
 62
7
  6
CONTINUOUS
 10
10.0
 20
30.0
 11
200.0
 21
30.0
  0
LINE
  5
345
100
AcDbEntity
  8
0
100
AcDbLine
 62
7
  6
CONTINUOUS
 10
0.0
 20
0.0
 11
0.0
 21
297.0
  0
LINE
  5
346
100
AcDbEntity
  8
0
100
AcDbLine
 62
7
  6
CONTINUOUS
 10
10.0
 20
10.0
 11
10.0
 21
287.0
  0
LINE
  5
347
100
AcDbEntity
  8
0
100
AcDbLine
 62
7
  6
CONTINUOUS
 10
200.0
 20
287.0
 11
200.0
 21
10.0
  0
LINE
  5
348
100
AcDbEntity
  8
0
100
AcDbLine
 62
7
  6
CONTINUOUS
 10
210.0
 20
0.0
 11
210.0
 21
297.0
  0
LINE
  5
349
100
AcDbEntity
  8
0
100
AcDbLine
 62
7
  6
CONTINUOUS
 10
10.0
 20
287.0
 11
200.0
 21
287.0
  0
LINE
  5
34A
100
AcDbEntity
  8
0
100
AcDbLine
 62
7
  6
CONTINUOUS
 10
0.0
 20
297.0
 11
210.0
 21
297.0
  0
LINE
  5
34B
100
AcDbEntity
  8
0
100
AcDbLine
 62
7
  6
CONTINUOUS
 10
75.915128926
 20
83.7326625282
 11
59.515128926
 21
83.7326625282
  0
LINE
  5
34C
100
AcDbEntity
  8
DEFAULT_1
100
AcDbLine
 62
2
  6
CENTER
 10
29.3926367126
 20
101.4826625282
 11
105.8830553173
 21
101.4826625282
  0
LINE
  5
34D
100
AcDbEntity
  8
0
100
AcDbLine
 62
7
  6
CONTINUOUS
 10
32.965128926
 20
145.0160255068
 11
32.965128926
 21
162.4126419685
  0
LINE
  5
34E
100
AcDbEntity
  8
0
100
AcDbLine
 62
7
  6
CONTINUOUS
 10
40.965128926
 20
155.4306625282
 11
40.965128926
 21
197.9326605177
  0
LINE
  5
34F
100
AcDbEntity
  8
0
100
AcDbLine
 62
7
  6
CONTINUOUS
 10
75.5716768442
 20
120.8146625282
 11
59.8585810078
 21
120.8146625282
  0
LINE
  5
350
100
AcDbEntity
  8
0
100
AcDbLine
 62
7
  6
CONTINUOUS
 10
55.575128926
 20
112.2136625282
 11
40.965128926
 21
155.4306625282
  0
LINE
  5
351
100
AcDbEntity
  8
0
100
AcDbLine
 62
7
  6
CONTINUOUS
 10
52.465128926
 20
155.7326625282
 11
52.465128926
 21
154.2716625282
  0
LINE
  5
352
100
AcDbEntity
  8
0
100
AcDbLine
 62
7
  6
CONTINUOUS
 10
52.465128926
 20
170.0365101055
 11
52.465128926
 21
190.7128490937
  0
LINE
  5
353
100
AcDbEntity
  8
0
100
AcDbLine
 62
7
  6
CONTINUOUS
 10
56.715128926
 20
92.3034084904
 11
56.715128926
 21
86.5326625282
  0
LINE
  5
354
100
AcDbEntity
  8
0
100
AcDbLine
 62
7
  6
CONTINUOUS
 10
82.965128926
 20
190.7128490937
 11
87.6107795875
 21
199.1762223501
  0
LINE
  5
355
100
AcDbEntity
  8
0
100
AcDbLine
 62
7
  6
CONTINUOUS
 10
61.4694463079
 20
112.1377539062
 11
52.465128926
 21
154.2716625282
  0
LINE
  5
356
100
AcDbEntity
  8
0
100
AcDbLine
 62
7
  6
CONTINUOUS
 10
53.8647726373
 20
103.0051400998
 11
55.575128926
 21
112.2136625282
  0
LINE
  5
357
100
AcDbEntity
  8
0
100
AcDbLine
 62
7
  6
CONTINUOUS
 10
89.4624961657
 20
140.6326625282
 11
100.8809523076
 21
143.0597303053
  0
LINE
  5
358
100
AcDbEntity
  8
0
100
AcDbLine
 62
7
  6
CONTINUOUS
 10
45.9677616863
 20
140.6326625282
 11
34.5493055444
 21
143.0597303053
  0
LINE
  5
359
100
AcDbEntity
  8
DEFAULT_1
100
AcDbLine
 62
2
  6
CENTER
 10
67.715128926
 20
206.112448475
 11
67.715128926
 21
144.2327625282
  0
LINE
  5
35A
100
AcDbEntity
  8
0
100
AcDbLine
 62
2
  6
CONTINUOUS
 10
67.715128926
 20
143.1126625282
 11
67.715128926
 21
141.3526625282
  0
LINE
  5
35B
100
AcDbEntity
  8
DEFAULT_1
100
AcDbLine
 62
2
  6
CENTER
 10
67.715128926
 20
76.2064792843
 11
67.715128926
 21
140.2325625282
  0
LINE
  5
35C
100
AcDbEntity
  8
DEFAULT_1
100
AcDbLine
 62
2
  6
CENTER
 10
74.710590201
 20
142.2326625282
 11
69.715228926
 21
142.2326625282
  0
LINE
  5
35D
100
AcDbEntity
  8
0
100
AcDbLine
 62
2
  6
CONTINUOUS
 10
68.595128926
 20
142.2326625282
 11
66.835128926
 21
142.2326625282
  0
LINE
  5
35E
100
AcDbEntity
  8
DEFAULT_1
100
AcDbLine
 62
2
  6
CENTER
 10
60.9580320615
 20
142.2326625282
 11
65.715028926
 21
142.2326625282
  0
LINE
  5
35F
100
AcDbEntity
  8
0
100
AcDbLine
 62
7
  6
CONTINUOUS
 10
81.5654852147
 20
103.0051400998
 11
79.855128926
 21
112.2136625282
  0
LINE
  5
360
100
AcDbEntity
  8
0
100
AcDbLine
 62
7
  6
CONTINUOUS
 10
78.715128926
 20
92.3034084904
 11
78.715128926
 21
86.5326625282
  0
LINE
  5
361
100
AcDbEntity
  8
0
100
AcDbLine
 62
7
  6
CONTINUOUS
 10
73.9608115441
 20
112.1377539062
 11
82.965128926
 21
154.2716625282
  0
LINE
  5
362
100
AcDbEntity
  8
0
100
AcDbLine
 62
7
  6
CONTINUOUS
 10
83.3670527146
 20
155.7326625282
 11
52.0632051374
 21
155.7326625282
  0
LINE
  5
363
100
AcDbEntity
  8
0
100
AcDbLine
 62
7
  6
CONTINUOUS
 10
52.465128926
 20
190.7128490937
 11
47.8194782645
 21
199.1762223501
  0
LINE
  5
364
100
AcDbEntity
  8
0
100
AcDbLine
 62
7
  6
CONTINUOUS
 10
82.965128926
 20
190.7128490937
 11
82.965128926
 21
170.0365101055
  0
LINE
  5
365
100
AcDbEntity
  8
0
100
AcDbLine
 62
7
  6
CONTINUOUS
 10
82.965128926
 20
155.7326625282
 11
82.965128926
 21
154.2716625282
  0
LINE
  5
366
100
AcDbEntity
  8
0
100
AcDbLine
 62
7
  6
CONTINUOUS
 10
79.855128926
 20
112.2136625282
 11
94.465128926
 21
155.4306625282
  0
LINE
  5
367
100
AcDbEntity
  8
0
100
AcDbLine
 62
7
  6
CONTINUOUS
 10
94.465128926
 20
155.4306625282
 11
94.465128926
 21
197.9326625282
  0
LINE
  5
368
100
AcDbEntity
  8
0
100
AcDbLine
 62
7
  6
CONTINUOUS
 10
82.965128926
 20
170.0365101055
 11
52.465128926
 21
170.0365101055
  0
LINE
  5
369
100
AcDbEntity
  8
0
100
AcDbLine
 62
7
  6
CONTINUOUS
 10
34.5493055444
 20
164.36893717
 11
40.965128926
 21
165.7326625282
  0
LINE
  5
36A
100
AcDbEntity
  8
0
100
AcDbLine
 62
7
  6
CONTINUOUS
 10
100.8809523076
 20
164.36893717
 11
94.465128926
 21
165.7326625282
  0
LINE
  5
36B
100
AcDbEntity
  8
0
100
AcDbLine
 62
7
  6
CONTINUOUS
 10
102.465128926
 20
145.0160255068
 11
102.465128926
 21
162.4126419685
  0
LINE
  5
36C
100
AcDbEntity
  8
DEFAULT_1
100
AcDbLine
 62
2
  6
CENTER
 10
29.3926367126
 20
182.2326625282
 11
105.0971948522
 21
182.2326625282
  0
LINE
  5
36D
100
AcDbEntity
  8
0
100
AcDbLine
 62
7
  6
CONTINUOUS
 10
91.665128926
 20
200.7326625282
 11
90.2404478845
 21
200.7326625282
  0
LINE
  5
36E
100
AcDbEntity
  8
0
100
AcDbLine
 62
7
  6
CONTINUOUS
 10
45.1898099675
 20
200.7326625282
 11
43.765128926
 21
200.7326625282
  0
LINE
  5
36F
100
AcDbEntity
  8
0
100
AcDbLine
 62
7
  6
CONTINUOUS
 10
32.965128926
 20
235.8181923523
 11
32.965128926
 21
220.6181923523
  0
LINE
  5
370
100
AcDbEntity
  8
0
100
AcDbLine
 62
7
  6
CONTINUOUS
 10
40.965128926
 20
252.8181923523
 11
40.965128926
 21
237.8181923523
  0
LINE
  5
371
100
AcDbEntity
  8
0
100
AcDbLine
 62
7
  6
CONTINUOUS
 10
45.9677616863
 20
221.4181923523
 11
45.9677616863
 21
235.8181923523
  0
LWPOLYLINE
  5
372
100
AcDbEntity
  8
0
100
AcDbPolyline
 62
7
  6
CONTINUOUS
 90
45
 70
0
 10
78.8429940103
 20
218.618192467
 10
78.9095307979
 20
218.618930801
 10
78.9945914827
 20
218.6220371391
 10
79.0824724951
 20
218.6278190501
 10
79.1727355935
 20
218.6365118001
 10
79.265044708
 20
218.6483291722
 10
79.3590652138
 20
218.6634603156
 10
79.454445188
 20
218.68206507
 10
79.5508266047
 20
218.7042728126
 10
79.6478239856
 20
218.7301741944
 10
79.7451210318
 20
218.7598459951
 10
79.8423699858
 20
218.7933265402
 10
79.9392575258
 20
218.830634883
 10
80.0354603305
 20
218.8717564395
 10
80.1306661055
 20
218.9166494482
 10
80.2245479425
 20
218.9652313993
 10
80.3168631948
 20
219.0174311383
 10
80.4073206965
 20
219.0731216175
 10
80.4957876249
 20
219.1322482532
 10
80.5820910668
 20
219.1947201428
 10
80.6660859905
 20
219.2604527517
 10
80.747624594
 20
219.3293478075
 10
80.8265697712
 20
219.4013035104
 10
80.902784308
 20
219.4762052651
 10
80.9761529742
 20
219.5539476967
 10
81.0465594262
 20
219.6344137957
 10
81.1139000175
 20
219.7174898966
 10
81.1780739984
 20
219.8030556502
 10
81.2389862489
 20
219.8909870425
 10
81.2965481966
 20
219.9811580898
 10
81.3506717845
 20
220.0734309233
 10
81.4012807907
 20
220.167673829
 10
81.4482895378
 20
220.263720573
 10
81.4916272083
 20
220.3614111229
 10
81.5312279722
 20
220.4605716982
 10
81.567037911
 20
220.561028825
 10
81.599012773
 20
220.6626043619
 10
81.6271204956
 20
220.76512381
 10
81.6513354187
 20
220.868394663
 10
81.6716467806
 20
220.9722363238
 10
81.6880505185
 20
221.0764389841
 10
81.7005589017
 20
221.1808053078
 10
81.7091967293
 20
221.2851279672
 10
81.714002882
 20
221.3891747622
 10
81.7151280862
 20
221.469569188
  0
LINE
  5
373
100
AcDbEntity
  8
0
100
AcDbLine
 62
7
  6
CONTINUOUS
 10
34.965128926
 20
218.6181923523
 11
100.465128926
 21
218.6181923523
  0
LWPOLYLINE
  5
374
100
AcDbEntity
  8
0
100
AcDbPolyline
 62
7
  6
CONTINUOUS
 90
45
 70
0
 10
53.7151297657
 20
221.4695690292
 10
53.7162943378
 20
221.3877811727
 10
53.7211523335
 20
221.2837174918
 10
53.7298434727
 20
221.179381395
 10
53.742406384
 20
221.0750049627
 10
53.758865639
 20
220.9707954568
 10
53.7792332997
 20
220.8669501385
 10
53.8035051088
 20
220.7636787125
 10
53.831670131
 20
220.6611617104
 10
53.8637025478
 20
220.5595915347
 10
53.8995701443
 20
220.4591426305
 10
53.9392285295
 20
220.3599930606
 10
53.9826236572
 20
220.2623162197
 10
54.0296895798
 20
220.1662858027
 10
54.0803553843
 20
220.0720617473
 10
54.1345353225
 20
219.9798101607
 10
54.1921530608
 20
219.8896627541
 10
54.2531204563
 20
219.8017573405
 10
54.3173488144
 20
219.7162199091
 10
54.3847429037
 20
219.6331744534
 10
54.4552018553
 20
219.5527413037
 10
54.528621924
 20
219.4750340808
 10
54.6048865952
 20
219.4001698067
 10
54.6838805005
 20
219.328253825
 10
54.765466209
 20
219.2594007356
 10
54.8495064148
 20
219.1937123076
 10
54.9358531013
 20
219.1312867662
 10
55.0243610667
 20
219.0722085532
 10
55.1148570587
 20
219.0165685453
 10
55.2072080892
 20
218.9644211964
 10
55.3011222882
 20
218.915893561
 10
55.3963564191
 20
218.8710566906
 10
55.4925830291
 20
218.8299928417
 10
55.5894892618
 20
218.7927434814
 10
55.686751343
 20
218.7593227979
 10
55.7840554615
 20
218.7297113177
 10
55.8810535819
 20
218.7038701749
 10
55.9774288709
 20
218.6817221091
 10
56.0727963768
 20
218.6631757092
 10
56.1667983232
 20
218.6481009917
 10
56.2590834204
 20
218.6363375244
 10
56.3493176088
 20
218.6276956782
 10
56.4371655208
 20
218.6219612656
 10
56.5221898269
 20
218.6188986561
 10
56.5872639378
 20
218.618192467
  0
LINE
  5
375
100
AcDbEntity
  8
0
100
AcDbLine
 62
7
  6
CONTINUOUS
 10
53.715128926
 20
221.4716299876
 11
53.715128926
 21
223.6181923523
  0
LINE
  5
376
100
AcDbEntity
  8
0
100
AcDbLine
 62
7
  6
CONTINUOUS
 10
53.715128926
 20
250.6181923523
 11
53.715128926
 21
252.7647548056
  0
LINE
  5
377
100
AcDbEntity
  8
0
100
AcDbLine
 62
7
  6
CONTINUOUS
 10
54.3304356804
 20
224.1181923523
 11
54.2151295201
 21
224.1181923523
  0
LINE
  5
378
100
AcDbEntity
  8
0
100
AcDbLine
 62
7
  6
CONTINUOUS
 10
81.0998224522
 20
224.1181923523
 11
81.2151283319
 21
224.1181923523
  0
LINE
  5
379
100
AcDbEntity
  8
0
100
AcDbLine
 62
7
  6
CONTINUOUS
 10
55.5709672802
 20
245.6181923523
 11
55.5709672802
 21
228.6181923523
  0
LINE
  5
37A
100
AcDbEntity
  8
0
100
AcDbLine
 62
7
  6
CONTINUOUS
 10
55.8790608687
 20
228.6181923516
 11
55.8790608687
 21
245.6181923523
  0
LINE
  5
37B
100
AcDbEntity
  8
0
100
AcDbLine
 62
7
  6
CONTINUOUS
 10
56.715128926
 20
249.279600757
 11
56.715128926
 21
224.9567838697
  0
LWPOLYLINE
  5
37C
100
AcDbEntity
  8
0
100
AcDbPolyline
 62
7
  6
CONTINUOUS
 90
60
 70
0
 10
55.8790608389
 20
228.6181923516
 10
55.8781974595
 20
228.5064677847
 10
55.8750889528
 20
228.3785128795
 10
55.8697168156
 20
228.2505775278
 10
55.8620740214
 20
228.1225326241
 10
55.8521499564
 20
227.9943350469
 10
55.8399340994
 20
227.8659561299
 10
55.8254118811
 20
227.7373696371
 10
55.8085699368
 20
227.6085608725
 10
55.7893876923
 20
227.4794903318
 10
55.7678643073
 20
227.3502424569
 10
55.7439947039
 20
227.2208612862
 10
55.7177926877
 20
227.0914646061
 10
55.6892750257
 20
226.9621579724
 10
55.6584665211
 20
226.8330518414
 10
55.6253978073
 20
226.7042603062
 10
55.5901093591
 20
226.5759098119
 10
55.5526353401
 20
226.44808789
 10
55.513069876
 20
226.3210596005
 10
55.4714105304
 20
226.1947615664
 10
55.4280513214
 20
226.0702662293
 10
55.3832604095
 20
225.9481158955
 10
55.3376066161
 20
225.8295301048
 10
55.2916433674
 20
225.715491509
 10
55.2458569966
 20
225.6066808162
 10
55.2009205971
 20
225.5041081546
 10
55.1568469328
 20
225.4072301174
 10
55.1138593701
 20
225.3160361231
 10
55.0718649686
 20
225.229892294
 10
55.0308198266
 20
225.1483515557
 10
54.9906768456
 20
225.0710211436
 10
54.9513383914
 20
224.9974655842
 10
54.9128399884
 20
224.9275412278
 10
54.8751417602
 20
224.8609903519
 10
54.8383311695
 20
224.7978006783
 10
54.8024540656
 20
224.7378939032
 10
54.7675601975
 20
224.6812050821
 10
54.7336922473
 20
224.627664651
 10
54.7008868113
 20
224.5771996338
 10
54.6691841013
 20
224.5297465707
 10
54.6385919428
 20
224.4851992213
 10
54.6091254343
 20
224.4434692389
 10
54.580788203
 20
224.4044568663
 10
54.5535839823
 20
224.3680682813
 10
54.527522831
 20
224.3342233142
 10
54.5026097839
 20
224.3028380858
 10
54.4788669927
 20
224.2738521288
 10
54.4563051358
 20
224.2471923294
 10
54.4349712472
 20
224.2228275232
 10
54.4148986599
 20
224.2007062948
 10
54.3961485836
 20
224.180803161
 10
54.3787737072
 20
224.1630762531
 10
54.3628432173
 20
224.1474917506
 10
54.3484207227
 20
224.1339997952
 10
54.3355949157
 20
224.1225623287
 10
54.3244483789
 20
224.113120987
 10
54.3150880109
 20
224.1056211604
 10
54.3076163552
 20
224.0999848098
 10
54.3021598567
 20
224.0961300589
 10
54.300821349
 20
224.0952302565
  0
LWPOLYLINE
  5
37D
100
AcDbEntity
  8
0
100
AcDbPolyline
 62
7
  6
CONTINUOUS
 90
16
 70
0
 10
55.5810821105
 20
227.6498656481
 10
55.5788278571
 20
227.6074270721
 10
55.5717725963
 20
227.4852820051
 10
55.5638663202
 20
227.363180606
 10
55.5550949063
 20
227.2411542317
 10
55.5454432303
 20
227.1192407363
 10
55.534895228
 20
226.9974844942
 10
55.5234346963
 20
226.8759437042
 10
55.5110438699
 20
226.7546747997
 10
55.4977086067
 20
226.6337791249
 10
55.4834138299
 20
226.5133544273
 10
55.4681461547
 20
226.3935151898
 10
55.4518924936
 20
226.2743817876
 10
55.434640789
 20
226.156081838
 10
55.4163777966
 20
226.0387392388
 10
55.4162844366
 20
226.038176485
  0
LWPOLYLINE
  5
37E
100
AcDbEntity
  8
0
100
AcDbPolyline
 62
7
  6
CONTINUOUS
 90
16
 70
0
 10
55.4162678759
 20
248.198274785
 10
55.416551743
 20
248.1965626961
 10
55.4348067989
 20
248.0792007155
 10
55.4520504994
 20
247.9608825284
 10
55.4682960945
 20
247.8417320614
 10
55.4835556582
 20
247.7218768367
 10
55.4978422864
 20
247.6014372394
 10
55.5111693767
 20
247.4805276555
 10
55.5235520133
 20
247.359245831
 10
55.5350043485
 20
247.2376930038
 10
55.5455441554
 20
247.1159255487
 10
55.5551876468
 20
246.9940014811
 10
55.5639508873
 20
246.8719651334
 10
55.5718490051
 20
246.7498541709
 10
55.578896118
 20
246.627699905
 10
55.5810821145
 20
246.5865189798
  0
LWPOLYLINE
  5
37F
100
AcDbEntity
  8
0
100
AcDbPolyline
 62
7
  6
CONTINUOUS
 90
62
 70
0
 10
81.1323220891
 20
224.0933848255
 10
81.1324612972
 20
224.0933056833
 10
81.1314093467
 20
224.0939512752
 10
81.1280878461
 20
224.0961369634
 10
81.1226215206
 20
224.0999993805
 10
81.1151373722
 20
224.1056463952
 10
81.1057622485
 20
224.1131598881
 10
81.0945991027
 20
224.1226178103
 10
81.0817551874
 20
224.1340746478
 10
81.0673136827
 20
224.147588343
 10
81.0513638701
 20
224.1631964374
 10
81.0339699063
 20
224.1809482224
 10
81.015201551
 20
224.2008768336
 10
80.9951121039
 20
224.2230233333
 10
80.9737636237
 20
224.2474120366
 10
80.95118942
 20
224.2740941158
 10
80.9274367508
 20
224.3031001928
 10
80.9025162342
 20
224.3345031987
 10
80.8764499378
 20
224.3683634566
 10
80.8492430117
 20
224.4047644467
 10
80.8209055712
 20
224.443786008
 10
80.7914413613
 20
224.4855216952
 10
80.7608540056
 20
224.5300710007
 10
80.7291586039
 20
224.5775219895
 10
80.6963630562
 20
224.6279805081
 10
80.6625072726
 20
224.6815101747
 10
80.6276276356
 20
224.738184013
 10
80.5917664957
 20
224.7980718592
 10
80.5549732715
 20
224.8612389514
 10
80.5172934558
 20
224.9277639707
 10
80.4788140053
 20
224.9976598917
 10
80.4394950756
 20
225.0711841985
 10
80.3993718115
 20
225.1484810536
 10
80.3583472609
 20
225.2299843629
 10
80.3163746929
 20
225.3160857293
 10
80.2734106323
 20
225.4072307367
 10
80.2293628952
 20
225.5040507513
 10
80.1844538744
 20
225.6065574075
 10
80.1386964163
 20
225.7152926772
 10
80.0927608992
 20
225.8292518748
 10
80.0471317997
 20
225.9477585039
 10
80.0023607016
 20
226.0698350429
 10
79.959014628
 20
226.1942682188
 10
79.9173612781
 20
226.3205191943
 10
79.8777932855
 20
226.4475230931
 10
79.8403108259
 20
226.5753383987
 10
79.8050075556
 20
226.7037055186
 10
79.7719251943
 20
226.8325114768
 10
79.7411090652
 20
226.9616082026
 10
79.7125911855
 20
227.0908689079
 10
79.6864027227
 20
227.2201401062
 10
79.6625444864
 20
227.3493826715
 10
79.6410223983
 20
227.4785245443
 10
79.6218289107
 20
227.6075518986
 10
79.6049586214
 20
227.7364455148
 10
79.5904034871
 20
227.8651901079
 10
79.578156068
 20
227.9937769516
 10
79.5682068823
 20
228.1221964318
 10
79.560547806
 20
228.2504443879
 10
79.5551684218
 20
228.378527285
 10
79.5520595715
 20
228.5065209336
 10
79.5511970131
 20
228.6181923516
  0
LINE
  5
380
100
AcDbEntity
  8
DEFAULT_1
100
AcDbLine
 62
2
  6
CENTER
 10
67.715128926
 20
214.6018281215
 11
67.715128926
 21
260.1367118424
  0
LINE
  5
381
100
AcDbEntity
  8
DEFAULT_1
100
AcDbLine
 62
2
  6
CENTER
 10
28.7377529917
 20
237.0981923523
 11
105.6211018289
 21
237.0981923523
  0
LINE
  5
382
100
AcDbEntity
  8
0
100
AcDbLine
 62
7
  6
CONTINUOUS
 10
45.2230187581
 20
237.8181923523
 11
34.965128926
 21
237.8181923523
  0
LINE
  5
383
100
AcDbEntity
  8
0
100
AcDbLine
 62
7
  6
CONTINUOUS
 10
90.2072390939
 20
237.8181923523
 11
100.465128926
 21
237.8181923523
  0
LWPOLYLINE
  5
384
100
AcDbEntity
  8
0
100
AcDbPolyline
 62
7
  6
CONTINUOUS
 90
62
 70
0
 10
54.2979535839
 20
250.1429898615
 10
54.2977999074
 20
250.1430770853
 10
54.2987997597
 20
250.1424641072
 10
54.3020691443
 20
250.1403163052
 10
54.3074832788
 20
250.1364968844
 10
54.3149153834
 20
250.1308976108
 10
54.3242388564
 20
250.1234361901
 10
54.3353508564
 20
250.1140343619
 10
54.348144182
 20
250.1026373655
 10
54.3625361383
 20
250.0891865948
 10
54.3784379296
 20
250.0736437836
 10
54.3957858108
 20
250.055958944
 10
54.4145104565
 20
250.0360981533
 10
54.434559171
 20
250.0140193447
 10
54.4558707922
 20
249.9896967962
 10
54.4784118231
 20
249.9630791132
 10
54.502135128
 20
249.9341350966
 10
54.5270299023
 20
249.9027917049
 10
54.5530738462
 20
249.868988584
 10
54.5802618913
 20
249.8326418422
 10
54.6085839331
 20
249.793671335
 10
54.6380361732
 20
249.7519833364
 10
54.6686148714
 20
249.7074782474
 10
54.7003050208
 20
249.6600675939
 10
54.7330988583
 20
249.6096450921
 10
54.7669562319
 20
249.5561471904
 10
54.8018406183
 20
249.4995008032
 10
54.8377093872
 20
249.4396363306
 10
54.8745128633
 20
249.3764887219
 10
54.9122051931
 20
249.3099797095
 10
54.9506991341
 20
249.2400966623
 10
54.9900340152
 20
249.1665830076
 10
55.0301739218
 20
249.0892960369
 10
55.0712163167
 20
249.007801081
 10
55.1132080638
 20
248.9217063599
 10
55.1561930467
 20
248.8305655411
 10
55.2002635409
 20
248.733747171
 10
55.2451982127
 20
248.6312368818
 10
55.2909854525
 20
248.5224893923
 10
55.3369540386
 20
248.4085098243
 10
55.3826193102
 20
248.2899736753
 10
55.4274284682
 20
248.167859999
 10
55.4708142941
 20
248.0433808189
 10
55.5125057798
 20
247.9170836348
 10
55.5521074938
 20
247.790042063
 10
55.5896193173
 20
247.6621993442
 10
55.6249444098
 20
247.5338291016
 10
55.658049253
 20
247.4050166978
 10
55.688893125
 20
247.2758893436
 10
55.7174454818
 20
247.1465607642
 10
55.743681495
 20
247.0171412432
 10
55.7675843919
 20
246.8877362229
 10
55.7891403446
 20
246.7584631081
 10
55.8083543257
 20
246.6293663529
 10
55.8252270805
 20
246.50053056
 10
55.8397791437
 20
246.3719165437
 10
55.8520238236
 20
246.243509898
 10
55.8619756952
 20
246.11528451
 10
55.8696452695
 20
245.9872118737
 10
55.8750431729
 20
245.8592491948
 10
55.8781764666
 20
245.7312675348
 10
55.8790608388
 20
245.6181923523
  0
LWPOLYLINE
  5
385
100
AcDbEntity
  8
0
100
AcDbPolyline
 62
7
  6
CONTINUOUS
 90
16
 70
0
 10
80.0139751172
 20
226.0381662271
 10
80.0138800554
 20
226.0387392388
 10
79.995617063
 20
226.156081838
 10
79.9783653584
 20
226.2743817876
 10
79.9621116973
 20
226.3935151898
 10
79.9468440221
 20
226.5133544273
 10
79.9325492453
 20
226.6337791249
 10
79.9192139821
 20
226.7546747997
 10
79.9068231557
 20
226.8759437042
 10
79.895362624
 20
226.9974844942
 10
79.8848146217
 20
227.1192407363
 10
79.8751629457
 20
227.2411542317
 10
79.8663915318
 20
227.363180606
 10
79.8584852557
 20
227.4852820051
 10
79.8514299949
 20
227.6074270721
 10
79.8491757415
 20
227.6498656481
  0
LINE
  5
386
100
AcDbEntity
  8
0
100
AcDbLine
 62
7
  6
CONTINUOUS
 10
78.715128926
 20
249.279600757
 11
78.715128926
 21
224.9567838697
  0
LINE
  5
387
100
AcDbEntity
  8
0
100
AcDbLine
 62
7
  6
CONTINUOUS
 10
79.5511969833
 20
245.6181923523
 11
79.5511969833
 21
228.6181923516
  0
LINE
  5
388
100
AcDbEntity
  8
0
100
AcDbLine
 62
7
  6
CONTINUOUS
 10
79.8592905718
 20
245.6181923523
 11
79.8592905718
 21
228.6181923523
  0
LWPOLYLINE
  5
389
100
AcDbEntity
  8
0
100
AcDbPolyline
 62
7
  6
CONTINUOUS
 90
60
 70
0
 10
79.5511970132
 20
245.6181923523
 10
79.5520805399
 20
245.7312134529
 10
79.5552141293
 20
245.8592326998
 10
79.5606191985
 20
245.9873415007
 10
79.5683049267
 20
246.1156156373
 10
79.5782817403
 20
246.2440613714
 10
79.5905577476
 20
246.3726743906
 10
79.6051424248
 20
246.501444933
 10
79.6220431814
 20
246.6303642142
 10
79.6412680531
 20
246.7594168453
 10
79.6628223845
 20
246.8885834536
 10
79.6867137051
 20
247.0178500979
 10
79.7129359732
 20
247.1471444022
 10
79.7414882422
 20
247.2764267089
 10
79.7723393378
 20
247.4055439476
 10
79.8054572739
 20
247.5343695638
 10
79.840796592
 20
247.6627552285
 10
79.8783163328
 20
247.7905905359
 10
79.9179201715
 20
247.9176074024
 10
79.959605523
 20
248.0438580545
 10
80.0029781949
 20
248.1682758937
 10
80.04776749
 20
248.2903164435
 10
80.0934080584
 20
248.4087741357
 10
80.1393489647
 20
248.5226750868
 10
80.185107402
 20
248.6313479911
 10
80.2300148777
 20
248.73379319
 10
80.2740596628
 20
248.8305544475
 10
80.3170213622
 20
248.9216471149
 10
80.3589914969
 20
249.0077001505
 10
80.4000135159
 20
249.0891583913
 10
80.4401339134
 20
249.1664124587
 10
80.4794494636
 20
249.2398954504
 10
80.5179246392
 20
249.3097506078
 10
80.5555987435
 20
249.3762342806
 10
80.5923850389
 20
249.4393597968
 10
80.6282380299
 20
249.4992058052
 10
80.6631083712
 20
249.5558376514
 10
80.6969537648
 20
249.60932521
 10
80.7297379003
 20
249.659741614
 10
80.7614209277
 20
249.7071505749
 10
80.7919950083
 20
249.7516579819
 10
80.8214451331
 20
249.7933520269
 10
80.8497675658
 20
249.8323320455
 10
80.8769584961
 20
249.8686914969
 10
80.9030077635
 20
249.9025101956
 10
80.9279101845
 20
249.9338716349
 10
80.9516435429
 20
249.9628360248
 10
80.9741970978
 20
249.9894762273
 10
80.9955234798
 20
250.0138228882
 10
81.0155892082
 20
250.0359271519
 10
81.0343322714
 20
250.0558135741
 10
81.0516993603
 20
250.0735234141
 10
81.0676205765
 20
250.0890899129
 10
81.0820316277
 20
250.1025624941
 10
81.0948431273
 20
250.1139789084
 10
81.1059717807
 20
250.1233973414
 10
81.1153100386
 20
250.1308724377
 10
81.122754654
 20
250.1364823752
 10
81.1281786214
 20
250.1403094539
 10
81.129504893
 20
250.1411998086
  0
LWPOLYLINE
  5
38A
100
AcDbEntity
  8
0
100
AcDbPolyline
 62
7
  6
CONTINUOUS
 90
16
 70
0
 10
79.8491757375
 20
246.5865189798
 10
79.851361734
 20
246.627699905
 10
79.8584088469
 20
246.7498541709
 10
79.8663069647
 20
246.8719651334
 10
79.8750702052
 20
246.9940014811
 10
79.8847136966
 20
247.1159255487
 10
79.8952535035
 20
247.2376930038
 10
79.9067058387
 20
247.359245831
 10
79.9190884753
 20
247.4805276555
 10
79.9324155655
 20
247.6014372394
 10
79.9467021938
 20
247.7218768367
 10
79.9619617575
 20
247.8417320614
 10
79.9782073526
 20
247.9608825284
 10
79.9954510531
 20
248.0792007155
 10
80.013706109
 20
248.1965626961
 10
80.0139916955
 20
248.1982851552
  0
LINE
  5
38B
100
AcDbEntity
  8
0
100
AcDbLine
 62
7
  6
CONTINUOUS
 10
81.2151283319
 20
250.1181923523
 11
81.0998216578
 21
250.1181923523
  0
LINE
  5
38C
100
AcDbEntity
  8
0
100
AcDbLine
 62
7
  6
CONTINUOUS
 10
54.2151295201
 20
250.1181923523
 11
54.3304365368
 21
250.1181923523
  0
LWPOLYLINE
  5
38D
100
AcDbEntity
  8
0
100
AcDbPolyline
 62
7
  6
CONTINUOUS
 90
45
 70
0
 10
81.7151280884
 20
252.7668155975
 10
81.7139634989
 20
252.8486041014
 10
81.7091054468
 20
252.9526683062
 10
81.7004142229
 20
253.057004823
 10
81.687851208
 20
253.1613815848
 10
81.671391838
 20
253.2655913391
 10
81.6510240579
 20
253.3694368346
 10
81.6267521295
 20
253.4727083773
 10
81.5985869921
 20
253.5752254459
 10
81.5665544674
 20
253.6767956443
 10
81.5306867673
 20
253.7772445492
 10
81.4910282778
 20
253.8763941155
 10
81.4476330381
 20
253.9740709627
 10
81.4005669803
 20
254.0701014214
 10
81.3499010246
 20
254.1643255302
 10
81.2957209251
 20
254.2565771687
 10
81.2381030152
 20
254.3467246242
 10
81.1771354392
 20
254.434630081
 10
81.1129068983
 20
254.5201675409
 10
81.0455126309
 20
254.6032130037
 10
80.975053513
 20
254.6836461337
 10
80.9016333029
 20
254.761353301
 10
80.8253685108
 20
254.8362174941
 10
80.7463745115
 20
254.9081333682
 10
80.6647887135
 20
254.9769863465
 10
80.5807484049
 20
255.0426746739
 10
80.494401581
 20
255.1051001373
 10
80.4058934167
 20
255.1641783062
 10
80.3153971518
 20
255.219818302
 10
80.2230457347
 20
255.2719656817
 10
80.1291310876
 20
255.3204933502
 10
80.033896491
 20
255.3653302295
 10
79.9376694015
 20
255.4063940613
 10
79.8407626594
 20
255.4436433837
 10
79.7435001486
 20
255.47706397
 10
79.6461957835
 20
255.5066752754
 10
79.5491976242
 20
255.5325161813
 10
79.4528225809
 20
255.554663955
 10
79.3574555511
 20
255.5732100469
 10
79.2634542925
 20
255.5882844655
 10
79.1711700515
 20
255.6000476667
 10
79.0809368469
 20
255.6086892963
 10
78.9930900101
 20
255.6144235522
 10
78.9080668147
 20
255.6174860709
 10
78.8429938309
 20
255.6181922343
  0
LINE
  5
38E
100
AcDbEntity
  8
0
100
AcDbLine
 62
7
  6
CONTINUOUS
 10
81.715128926
 20
252.7647548056
 11
81.715128926
 21
250.6181923523
  0
LINE
  5
38F
100
AcDbEntity
  8
0
100
AcDbLine
 62
7
  6
CONTINUOUS
 10
81.715128926
 20
223.6181923523
 11
81.715128926
 21
221.4716299876
  0
LWPOLYLINE
  5
390
100
AcDbEntity
  8
0
100
AcDbPolyline
 62
7
  6
CONTINUOUS
 90
45
 70
0
 10
56.5872639251
 20
255.6181922343
 10
56.5207282608
 20
255.6174539266
 10
56.4356686842
 20
255.6143476796
 10
56.347788745
 20
255.6085659256
 10
56.2575266286
 20
255.5998733923
 10
56.1652183689
 20
255.5880562863
 10
56.0711985495
 20
255.5729254417
 10
55.9758190499
 20
255.5543209949
 10
55.8794378772
 20
255.5321135437
 10
55.7824404555
 20
255.5062123977
 10
55.6851431612
 20
255.4765407707
 10
55.5878937773
 20
255.4430603217
 10
55.491005728
 20
255.4057520157
 10
55.3948024429
 20
255.3646304749
 10
55.2995962014
 20
255.3197374558
 10
55.2057139163
 20
255.2711554704
 10
55.113398278
 20
255.2189556997
 10
55.0229405043
 20
255.1632652321
 10
54.9344733782
 20
255.1041386402
 10
54.8481698002
 20
255.0416668286
 10
54.7641747753
 20
254.9759343205
 10
54.6826360837
 20
254.907039376
 10
54.6036908138
 20
254.8350837811
 10
54.5274761574
 20
254.7601821079
 10
54.454107351
 20
254.6824397323
 10
54.383700734
 20
254.6019736535
 10
54.3163599655
 20
254.518897546
 10
54.2521858028
 20
254.4333317644
 10
54.1912733727
 20
254.3454003294
 10
54.1337112543
 20
254.2552292337
 10
54.0795875056
 20
254.1629563487
 10
54.0289783487
 20
254.0687133897
 10
53.9819694668
 20
253.9726666044
 10
53.9386316852
 20
253.8749760491
 10
53.8990308174
 20
253.7758154782
 10
53.8632207753
 20
253.675358351
 10
53.8312458057
 20
253.5737827913
 10
53.8031379681
 20
253.4712632769
 10
53.7789229259
 20
253.3679923073
 10
53.7586114447
 20
253.2641504695
 10
53.7422075922
 20
253.1599475612
 10
53.7296991057
 20
253.0555809082
 10
53.7210611938
 20
252.9512578294
 10
53.716254985
 20
252.8472105111
 10
53.7151297636
 20
252.7668154388
  0
LINE
  5
391
100
AcDbEntity
  8
0
100
AcDbLine
 62
7
  6
CONTINUOUS
 10
43.765128926
 20
255.6181923523
 11
91.665128926
 21
255.6181923523
  0
LINE
  5
392
100
AcDbEntity
  8
0
100
AcDbLine
 62
7
  6
CONTINUOUS
 10
89.4624961657
 20
221.4181923523
 11
89.4624961657
 21
235.8181923523
  0
LINE
  5
393
100
AcDbEntity
  8
0
100
AcDbLine
 62
7
  6
CONTINUOUS
 10
94.465128926
 20
252.8181923523
 11
94.465128926
 21
237.8181923523
  0
LINE
  5
394
100
AcDbEntity
  8
0
100
AcDbLine
 62
7
  6
CONTINUOUS
 10
102.465128926
 20
235.8181923523
 11
102.465128926
 21
220.6181923523
  0
LINE
  5
395
100
AcDbEntity
  8
0
100
AcDbLine
 62
7
  6
CONTINUOUS
 10
167.0629147778
 20
92.3034084904
 11
142.7400978905
 21
92.3034084904
  0
LINE
  5
396
100
AcDbEntity
  8
0
100
AcDbLine
 62
7
  6
CONTINUOUS
 10
163.4015063731
 20
94.1326625282
 11
146.4015063731
 21
94.1326625282
  0
LINE
  5
397
100
AcDbEntity
  8
DEFAULT_1
100
AcDbLine
 62
2
  6
CENTER
 10
179.7257355498
 20
101.4826625282
 11
156.8816063731
 21
101.4826625282
  0
LINE
  5
398
100
AcDbEntity
  8
0
100
AcDbLine
 62
2
  6
CONTINUOUS
 10
155.7615063731
 20
101.4826625282
 11
154.0015063731
 21
101.4826625282
  0
LINE
  5
399
100
AcDbEntity
  8
DEFAULT_1
100
AcDbLine
 62
2
  6
CENTER
 10
130.4457355498
 20
101.4826625282
 11
152.8814063731
 21
101.4826625282
  0
LINE
  5
39A
100
AcDbEntity
  8
0
100
AcDbLine
 62
7
  6
CONTINUOUS
 10
170.6015063731
 20
103.0051400998
 11
168.4015063731
 21
103.0051400998
  0
LINE
  5
39B
100
AcDbEntity
  8
0
100
AcDbLine
 62
7
  6
CONTINUOUS
 10
141.4015063731
 20
103.0051400998
 11
139.2015063731
 21
103.0051400998
  0
LINE
  5
39C
100
AcDbEntity
  8
0
100
AcDbLine
 62
7
  6
CONTINUOUS
 10
139.2015063731
 20
112.2136625282
 11
145.1727520671
 21
112.2136625282
  0
LINE
  5
39D
100
AcDbEntity
  8
0
100
AcDbLine
 62
7
  6
CONTINUOUS
 10
164.6302606793
 20
112.2136625282
 11
170.6015063731
 21
112.2136625282
  0
LINE
  5
39E
100
AcDbEntity
  8
0
100
AcDbLine
 62
7
  6
CONTINUOUS
 10
163.4015063731
 20
112.2259728531
 11
146.4015063731
 21
112.2259728531
  0
LINE
  5
39F
100
AcDbEntity
  8
0
100
AcDbLine
 62
7
  6
CONTINUOUS
 10
136.4015063731
 20
102.2326625282
 11
136.4015063731
 21
182.2326625282
  0
LINE
  5
3A0
100
AcDbEntity
  8
0
100
AcDbLine
 62
7
  6
CONTINUOUS
 10
141.9015063731
 20
98.6326625282
 11
141.9015063731
 21
105.4439565338
  0
LINE
  5
3A1
100
AcDbEntity
  8
0
100
AcDbLine
 62
7
  6
CONTINUOUS
 10
150.1515063731
 20
99.7326625282
 11
150.1515063731
 21
103.2326625282
  0
LINE
  5
3A2
100
AcDbEntity
  8
DEFAULT_1
100
AcDbLine
 62
2
  6
CENTER
 10
154.8815063731
 20
105.8826625282
 11
154.8815063731
 21
103.4827625282
  0
LINE
  5
3A3
100
AcDbEntity
  8
0
100
AcDbLine
 62
2
  6
CONTINUOUS
 10
154.8815063731
 20
102.3626625282
 11
154.8815063731
 21
100.6026625282
  0
LINE
  5
3A4
100
AcDbEntity
  8
DEFAULT_1
100
AcDbLine
 62
2
  6
CENTER
 10
154.8815063731
 20
97.0826625282
 11
154.8815063731
 21
99.4825625282
  0
LINE
  5
3A5
100
AcDbEntity
  8
DEFAULT_1
100
AcDbLine
 62
2
  6
CENTER
 10
154.9015063731
 20
205.7225715662
 11
154.9015063731
 21
184.2327625282
  0
LINE
  5
3A6
100
AcDbEntity
  8
0
100
AcDbLine
 62
2
  6
CONTINUOUS
 10
154.9015063731
 20
183.1126625282
 11
154.9015063731
 21
181.3526625282
  0
LINE
  5
3A7
100
AcDbEntity
  8
AXES
100
AcDbLine
 62
2
  6
CONTINUOUS
 10
154.9015063731
 20
183.1126625282
 11
154.9015063731
 21
181.3526625282
  0
LINE
  5
3A8
100
AcDbEntity
  8
AXES
100
AcDbLine
 62
2
  6
CENTER
 10
154.9015063731
 20
177.8326625282
 11
154.9015063731
 21
173.5326625282
  0
LINE
  5
3A9
100
AcDbEntity
  8
DEFAULT_1
100
AcDbLine
 62
2
  6
CENTER
 10
154.9015063731
 20
77.8871715662
 11
154.9015063731
 21
180.2325625282
  0
LINE
  5
3AA
100
AcDbEntity
  8
AXES
100
AcDbLine
 62
2
  6
CENTER
 10
154.9015063731
 20
186.6326625282
 11
154.9015063731
 21
190.9326625282
  0
LINE
  5
3AB
100
AcDbEntity
  8
0
100
AcDbLine
 62
7
  6
CONTINUOUS
 10
139.2015063731
 20
140.6326625282
 11
153.6015063731
 21
140.6326625282
  0
LINE
  5
3AC
100
AcDbEntity
  8
DEFAULT_1
100
AcDbLine
 62
2
  6
CENTER
 10
129.0659390382
 20
142.2326625282
 11
178.3131948522
 21
142.2326625282
  0
LINE
  5
3AD
100
AcDbEntity
  8
0
100
AcDbLine
 62
7
  6
CONTINUOUS
 10
155.6015063731
 20
142.8356437141
 11
155.6015063731
 21
163.6879813385
  0
LINE
  5
3AE
100
AcDbEntity
  8
0
100
AcDbLine
 62
7
  6
CONTINUOUS
 10
159.6515063731
 20
99.7326625282
 11
159.6515063731
 21
103.2326625282
  0
LINE
  5
3AF
100
AcDbEntity
  8
0
100
AcDbLine
 62
7
  6
CONTINUOUS
 10
167.9015063731
 20
105.4439565338
 11
167.9015063731
 21
98.6326625282
  0
LINE
  5
3B0
100
AcDbEntity
  8
0
100
AcDbLine
 62
7
  6
CONTINUOUS
 10
170.6015063731
 20
155.4306625282
 11
155.6015063731
 21
155.4306625282
  0
LINE
  5
3B1
100
AcDbEntity
  8
0
100
AcDbLine
 62
7
  6
CONTINUOUS
 10
173.4015063731
 20
102.2326625282
 11
173.4015063731
 21
182.2326625282
  0
LINE
  5
3B2
100
AcDbEntity
  8
0
100
AcDbLine
 62
7
  6
CONTINUOUS
 10
139.2015063731
 20
165.7326625282
 11
153.6015063731
 21
165.7326625282
  0
LINE
  5
3B3
100
AcDbEntity
  8
DEFAULT_1
100
AcDbLine
 62
2
  6
CENTER
 10
178.415968108
 20
182.2326625282
 11
156.9016063731
 21
182.2326625282
  0
LINE
  5
3B4
100
AcDbEntity
  8
0
100
AcDbLine
 62
2
  6
CONTINUOUS
 10
155.7815063731
 20
182.2326625282
 11
154.0215063731
 21
182.2326625282
  0
LINE
  5
3B5
100
AcDbEntity
  8
AXES
100
AcDbLine
 62
2
  6
CONTINUOUS
 10
155.7815063731
 20
182.2326625282
 11
154.0215063731
 21
182.2326625282
  0
LINE
  5
3B6
100
AcDbEntity
  8
AXES
100
AcDbLine
 62
2
  6
CENTER
 10
150.5015063731
 20
182.2326625282
 11
146.2015063731
 21
182.2326625282
  0
LINE
  5
3B7
100
AcDbEntity
  8
DEFAULT_1
100
AcDbLine
 62
2
  6
CENTER
 10
130.2820146196
 20
182.2326625282
 11
152.9014063731
 21
182.2326625282
  0
LINE
  5
3B8
100
AcDbEntity
  8
AXES
100
AcDbLine
 62
2
  6
CENTER
 10
159.3015063731
 20
182.2326625282
 11
163.6015063731
 21
182.2326625282
  0
ARC
  5
3B9
100
AcDbEntity
  8
0
100
AcDbCircle
 62
7
  6
CONTINUOUS
 10
59.515128926
 20
86.5326625282
 40
2.8
100
AcDbArc
 50
180.0
 51
270.0
  0
ARC
  5
3BA
100
AcDbEntity
  8
0
100
AcDbCircle
 62
7
  6
CONTINUOUS
 10
59.8577909125
 20
121.1146625274
 40
0.3
100
AcDbArc
 50
192.063059175
 51
270.0
  0
ARC
  5
3BB
100
AcDbEntity
  8
0
100
AcDbCircle
 62
7
  6
CONTINUOUS
 10
45.1896236995
 20
197.7326625256
 40
2.9999999995
100
AcDbArc
 50
28.7750039601
 51
90.0
  0
ARC
  5
3BC
100
AcDbEntity
  8
0
100
AcDbCircle
 62
7
  6
CONTINUOUS
 10
43.765128926
 20
197.9326625282
 40
2.8
100
AcDbArc
 50
90.0
 51
180.0
  0
ARC
  5
3BD
100
AcDbEntity
  8
0
100
AcDbCircle
 62
7
  6
CONTINUOUS
 10
34.965128926
 20
162.4126419685
 40
2.0
100
AcDbArc
 50
102.0
 51
180.0
  0
ARC
  5
3BE
100
AcDbEntity
  8
0
100
AcDbCircle
 62
7
  6
CONTINUOUS
 10
34.965128926
 20
145.0160255068
 40
2.0
100
AcDbArc
 50
180.0
 51
258.0
  0
ARC
  5
3BF
100
AcDbEntity
  8
0
100
AcDbCircle
 62
7
  6
CONTINUOUS
 10
67.715128926
 20
100.9636625282
 40
14.0
100
AcDbArc
 50
320.5346794069
 51
8.3847564026
  0
ARC
  5
3C0
100
AcDbEntity
  8
0
100
AcDbCircle
 62
7
  6
CONTINUOUS
 10
67.715128926
 20
100.9636625282
 40
14.0
100
AcDbArc
 50
171.6152435974
 51
219.4653205931
  0
ARC
  5
3C1
100
AcDbEntity
  8
0
100
AcDbCircle
 62
7
  6
CONTINUOUS
 10
75.915128926
 20
86.5326625282
 40
2.8
100
AcDbArc
 50
270.0
 51
360.0
  0
ARC
  5
3C2
100
AcDbEntity
  8
0
100
AcDbCircle
 62
7
  6
CONTINUOUS
 10
75.5724669395
 20
121.1146625274
 40
0.3
100
AcDbArc
 50
270.0
 51
347.936940825
  0
ARC
  5
3C3
100
AcDbEntity
  8
0
100
AcDbCircle
 62
7
  6
CONTINUOUS
 10
90.2406341525
 20
197.7326625256
 40
2.9999999995
100
AcDbArc
 50
90.0
 51
151.2359679524
  0
ARC
  5
3C4
100
AcDbEntity
  8
0
100
AcDbCircle
 62
7
  6
CONTINUOUS
 10
91.665128926
 20
197.9326625282
 40
2.8
100
AcDbArc
 50
0.0
 51
90.0
  0
ARC
  5
3C5
100
AcDbEntity
  8
0
100
AcDbCircle
 62
7
  6
CONTINUOUS
 10
100.465128926
 20
145.0160255068
 40
2.0
100
AcDbArc
 50
282.0
 51
360.0
  0
ARC
  5
3C6
100
AcDbEntity
  8
0
100
AcDbCircle
 62
7
  6
CONTINUOUS
 10
100.465128926
 20
162.4126419685
 40
2.0
100
AcDbArc
 50
0.0
 51
78.0
  0
ARC
  5
3C7
100
AcDbEntity
  8
0
100
AcDbCircle
 62
7
  6
CONTINUOUS
 10
59.5419485963
 20
228.6193465042
 40
3.9709814839
100
AcDbArc
 50
180.0166528192
 51
193.3453483127
  0
ARC
  5
3C8
100
AcDbEntity
  8
0
100
AcDbCircle
 62
7
  6
CONTINUOUS
 10
75.8883092557
 20
228.6193465042
 40
3.9709814839
100
AcDbArc
 50
346.6546516873
 51
359.9833471808
  0
ARC
  5
3C9
100
AcDbEntity
  8
0
100
AcDbCircle
 62
7
  6
CONTINUOUS
 10
75.8883092573
 20
245.6170382004
 40
3.9709814823
100
AcDbArc
 50
0.0166528178
 51
13.3453483304
  0
ARC
  5
3CA
100
AcDbEntity
  8
0
100
AcDbCircle
 62
7
  6
CONTINUOUS
 10
59.5419485947
 20
245.6170382004
 40
3.9709814823
100
AcDbArc
 50
166.6546516696
 51
179.9833471822
  0
ARC
  5
3CB
100
AcDbEntity
  8
0
100
AcDbCircle
 62
7
  6
CONTINUOUS
 10
91.665128926
 20
252.8181923523
 40
2.8
100
AcDbArc
 50
0.0
 51
90.0
  0
ARC
  5
3CC
100
AcDbEntity
  8
0
100
AcDbCircle
 62
7
  6
CONTINUOUS
 10
43.765128926
 20
252.8181923523
 40
2.8
100
AcDbArc
 50
90.0
 51
180.0
  0
ARC
  5
3CD
100
AcDbEntity
  8
0
100
AcDbCircle
 62
7
  6
CONTINUOUS
 10
100.465128926
 20
220.6181923523
 40
2.0
100
AcDbArc
 50
270.0
 51
360.0
  0
ARC
  5
3CE
100
AcDbEntity
  8
0
100
AcDbCircle
 62
7
  6
CONTINUOUS
 10
34.965128926
 20
235.8181923523
 40
2.0
100
AcDbArc
 50
90.0
 51
180.0
  0
ARC
  5
3CF
100
AcDbEntity
  8
0
100
AcDbCircle
 62
7
  6
CONTINUOUS
 10
100.465128926
 20
235.8181923523
 40
2.0
100
AcDbArc
 50
0.0
 51
90.0
  0
ARC
  5
3D0
100
AcDbEntity
  8
0
100
AcDbCircle
 62
7
  6
CONTINUOUS
 10
34.965128926
 20
220.6181923523
 40
2.0
100
AcDbArc
 50
180.0
 51
270.0
  0
ARC
  5
3D1
100
AcDbEntity
  8
0
100
AcDbCircle
 62
7
  6
CONTINUOUS
 10
54.215128926
 20
250.6181923523
 40
0.5
100
AcDbArc
 50
180.0
 51
270.0
  0
ARC
  5
3D2
100
AcDbEntity
  8
0
100
AcDbCircle
 62
7
  6
CONTINUOUS
 10
54.215128926
 20
223.6181923523
 40
0.5
100
AcDbArc
 50
90.0
 51
180.0
  0
ARC
  5
3D3
100
AcDbEntity
  8
0
100
AcDbCircle
 62
7
  6
CONTINUOUS
 10
81.215128926
 20
250.6181923523
 40
0.5
100
AcDbArc
 50
270.0
 51
360.0
  0
ARC
  5
3D4
100
AcDbEntity
  8
0
100
AcDbCircle
 62
7
  6
CONTINUOUS
 10
81.215128926
 20
223.6181923523
 40
0.5
100
AcDbArc
 50
0.0
 51
90.0
  0
ARC
  5
3D5
100
AcDbEntity
  8
0
100
AcDbCircle
 62
7
  6
CONTINUOUS
 10
146.4015063731
 20
98.6326625282
 40
4.5
100
AcDbArc
 50
180.0
 51
270.0
  0
ARC
  5
3D6
100
AcDbEntity
  8
0
100
AcDbCircle
 62
7
  6
CONTINUOUS
 10
154.9015063731
 20
102.2326625282
 40
18.5
100
AcDbArc
 50
180.0
 51
360.0
  0
ARC
  5
3D7
100
AcDbEntity
  8
0
100
AcDbCircle
 62
7
  6
CONTINUOUS
 10
154.9015063731
 20
99.7326625282
 40
4.75
100
AcDbArc
 50
180.0
 51
360.0
  0
ARC
  5
3D8
100
AcDbEntity
  8
0
100
AcDbCircle
 62
7
  6
CONTINUOUS
 10
154.9015063731
 20
103.2326625282
 40
4.75
100
AcDbArc
 50
0.0
 51
180.0
  0
ARC
  5
3D9
100
AcDbEntity
  8
0
100
AcDbCircle
 62
7
  6
CONTINUOUS
 10
163.4015063731
 20
98.6326625282
 40
4.5
100
AcDbArc
 50
270.0
 51
360.0
  0
ARC
  5
3DA
100
AcDbEntity
  8
0
100
AcDbCircle
 62
7
  6
CONTINUOUS
 10
154.9015063731
 20
182.2326625282
 40
18.5
100
AcDbArc
 50
0.0
 51
180.0
  0
CIRCLE
  5
3DB
100
AcDbEntity
  8
0
100
AcDbCircle
 62
7
  6
CONTINUOUS
 10
154.9015063731
 20
182.2326625282
 40
6.7
  0
CIRCLE
  5
3DC
100
AcDbEntity
  8
0
100
AcDbCircle
 62
7
  6
CONTINUOUS
 10
154.9015063731
 20
182.2326625282
 40
4.7
  0
SPLINE
  5
3DD
100
AcDbEntity
  8
0
100
AcDbSpline
 62
7
  6
CONTINUOUS
 70
0
 71
3
 72
13
 73
9
 74
0
 42
0.0000001
 43
0.0000001
 44
0.0000000001
 40
0.0
 40
0.0
 40
0.0
 40
0.0
 40
0.3816443023
 40
0.706014877
 40
0.8306929253
 40
0.9234801027
 40
0.9806783906
 40
1.0
 40
1.0
 40
1.0
 40
1.0
 10
49.465128926
 20
153.9267521935
 30
0.0
 10
49.8465466574
 20
153.9725752256
 30
0.0
 10
50.5522970189
 20
154.0560610828
 30
0.0
 10
51.3829773676
 20
154.1517278649
 30
0.0
 10
51.9249666859
 20
154.212702404
 30
0.0
 10
52.1997663252
 20
154.2430874616
 30
0.0
 10
52.3691907691
 20
154.2615143663
 30
0.0
 10
52.4457864184
 20
154.2696299422
 30
0.0
 10
52.465128926
 20
154.2716625282
 30
0.0
  0
SPLINE
  5
3DE
100
AcDbEntity
  8
0
100
AcDbSpline
 62
7
  6
CONTINUOUS
 70
0
 71
3
 72
13
 73
9
 74
0
 42
0.0000001
 43
0.0000001
 44
0.0000000001
 40
0.0
 40
0.0
 40
0.0
 40
0.0
 40
0.3816443023
 40
0.706014877
 40
0.8306929253
 40
0.9234801027
 40
0.9806783906
 40
1.0
 40
1.0
 40
1.0
 40
1.0
 10
85.965128926
 20
153.9267521935
 30
0.0
 10
85.5837111946
 20
153.9725752256
 30
0.0
 10
84.8779608331
 20
154.0560610828
 30
0.0
 10
84.0472804844
 20
154.1517278649
 30
0.0
 10
83.5052911661
 20
154.212702404
 30
0.0
 10
83.2304915268
 20
154.2430874616
 30
0.0
 10
83.0610670829
 20
154.2615143663
 30
0.0
 10
82.9844714336
 20
154.2696299422
 30
0.0
 10
82.965128926
 20
154.2716625282
 30
0.0
  0
SPLINE
  5
3DF
100
AcDbEntity
  8
0
100
AcDbSpline
 62
7
  6
CONTINUOUS
 70
0
 71
3
 72
19
 73
15
 74
0
 42
0.0000001
 43
0.0000001
 44
0.0000000001
 40
0.0
 40
0.0
 40
0.0
 40
0.0
 40
0.0410483136
 40
0.0841165051
 40
0.1298089742
 40
0.1785533402
 40
0.2306165299
 40
0.2861271182
 40
0.3451001094
 40
0.4074586854
 40
0.5416145176
 40
0.6868146046
 40
0.8405734726
 40
1.0
 40
1.0
 40
1.0
 40
1.0
 10
83.0529868172
 20
190.8729072171
 30
0.0
 10
83.0735496794
 20
190.9103683166
 30
0.0
 10
83.1223883045
 20
190.9836092567
 30
0.0
 10
83.2141857517
 20
191.0834037239
 30
0.0
 10
83.3249913347
 20
191.1746768301
 30
0.0
 10
83.4538235991
 20
191.2569010837
 30
0.0
 10
83.5996767273
 20
191.329669036
 30
0.0
 10
83.7614658531
 20
191.3925974539
 30
0.0
 10
83.9380311362
 20
191.4453637078
 30
0.0
 10
84.1978390811
 20
191.5031782937
 30
0.0
 10
84.551845985
 20
191.5464426792
 30
0.0
 10
85.0033388627
 20
191.5541949123
 30
0.0
 10
85.479827196
 20
191.5190198384
 30
0.0
 10
85.8023037689
 20
191.4682239749
 30
0.0
 10
85.965128926
 20
191.4360566943
 30
0.0
  0
SPLINE
  5
3E0
100
AcDbEntity
  8
0
100
AcDbSpline
 62
7
  6
CONTINUOUS
 70
0
 71
3
 72
18
 73
14
 74
0
 42
0.0000001
 43
0.0000001
 44
0.0000000001
 40
0.0
 40
0.0
 40
0.0
 40
0.0
 40
0.1458183091
 40
0.2901899211
 40
0.4315133617
 40
0.5678376336
 40
0.6966222511
 40
0.7571682041
 40
0.8144708981
 40
0.8679456831
 40
0.9169869011
 40
0.9610721182
 40
1.0
 40
1.0
 40
1.0
 40
1.0
 10
85.965128926
 20
157.2326625282
 30
0.0
 10
85.8451112898
 20
157.1477972438
 30
0.0
 10
85.6062683636
 20
156.9789056953
 30
0.0
 10
85.2498143897
 20
156.7295985734
 30
0.0
 10
84.8984981303
 20
156.4896641286
 30
0.0
 10
84.5557603598
 20
156.2651462386
 30
0.0
 10
84.27559249
 20
156.0938443281
 30
0.0
 10
84.05835007
 20
155.9728695967
 30
0.0
 10
83.9044950109
 20
155.8943086554
 30
0.0
 10
83.7575571074
 20
155.828056769
 30
0.0
 10
83.6188755396
 20
155.776501334
 30
0.0
 10
83.489980128
 20
155.7423300224
 30
0.0
 10
83.4062936556
 20
155.7326625282
 30
0.0
 10
83.3670527146
 20
155.7326625282
 30
0.0
  0
LINE
  5
3E1
100
AcDbEntity
  8
0
100
AcDbLine
 62
7
  6
CONTINUOUS
 10
43.765128926
 20
155.8911476543
 11
40.965128926
 21
155.4306625282
  0
LINE
  5
3E2
100
AcDbEntity
  8
0
100
AcDbLine
 62
7
  6
CONTINUOUS
 10
49.465128926
 20
167.0365101055
 11
52.465128926
 21
170.0365101055
  0
LINE
  5
3E3
100
AcDbEntity
  8
0
100
AcDbLine
 62
7
  6
CONTINUOUS
 10
56.627759627
 20
102.5480368617
 11
53.8647726373
 21
103.0051400998
  0
LINE
  5
3E4
100
AcDbEntity
  8
0
100
AcDbLine
 62
7
  6
CONTINUOUS
 10
58.4612364832
 20
112.419437846
 11
55.575128926
 21
112.2136625282
  0
SPLINE
  5
3E5
100
AcDbEntity
  8
0
100
AcDbSpline
 62
7
  6
CONTINUOUS
 70
0
 71
3
 72
18
 73
14
 74
0
 42
0.0000001
 43
0.0000001
 44
0.0000000001
 40
0.0
 40
0.0
 40
0.0
 40
0.0
 40
0.0389278696
 40
0.0830130746
 40
0.1320542882
 40
0.1855290748
 40
0.2428317704
 40
0.303377725
 40
0.4321623462
 40
0.5684866224
 40
0.7098100685
 40
0.8541816852
 40
1.0
 40
1.0
 40
1.0
 40
1.0
 10
52.0632051374
 20
155.7326625282
 30
0.0
 10
52.0239642087
 20
155.7326625282
 30
0.0
 10
51.9402777609
 20
155.7423300176
 30
0.0
 10
51.8113823754
 20
155.7765013141
 30
0.0
 10
51.6727008186
 20
155.8280567362
 30
0.0
 10
51.5257629149
 20
155.8943086194
 30
0.0
 10
51.3719078503
 20
155.9728695606
 30
0.0
 10
51.1546654229
 20
156.0938442928
 30
0.0
 10
50.8744975433
 20
156.2651462061
 30
0.0
 10
50.53175976
 20
156.4896641016
 30
0.0
 10
50.1804434892
 20
156.7295985555
 30
0.0
 10
49.8239895015
 20
156.9789056856
 30
0.0
 10
49.585146567
 20
157.1477972405
 30
0.0
 10
49.465128926
 20
157.2326625282
 30
0.0
  0
SPLINE
  5
3E6
100
AcDbEntity
  8
0
100
AcDbSpline
 62
7
  6
CONTINUOUS
 70
0
 71
3
 72
16
 73
12
 74
0
 42
0.0000001
 43
0.0000001
 44
0.0000000001
 40
0.0
 40
0.0
 40
0.0
 40
0.0
 40
0.0454143384
 40
0.0926084073
 40
0.1935437421
 40
0.3046852885
 40
0.4264153501
 40
0.5581806155
 40
0.6988022493
 40
0.8466927693
 40
1.0
 40
1.0
 40
1.0
 40
1.0
 10
56.9069967389
 20
92.0651076393
 30
0.0
 10
56.9334997544
 20
92.0329172333
 30
0.0
 10
56.9921254812
 20
91.9709292722
 30
0.0
 10
57.1297159762
 20
91.8578827406
 30
0.0
 10
57.3388070128
 20
91.7401066763
 30
0.0
 10
57.6302112253
 20
91.6410098291
 30
0.0
 10
57.9607777846
 20
91.5816648416
 30
0.0
 10
58.3229293603
 20
91.5626812953
 30
0.0
 10
58.7088771634
 20
91.5839141965
 30
0.0
 10
59.1105053566
 20
91.6445662472
 30
0.0
 10
59.379723066
 20
91.7094382902
 30
0.0
 10
59.515128926
 20
91.7478844119
 30
0.0
  0
SPLINE
  5
3E7
100
AcDbEntity
  8
0
100
AcDbSpline
 62
7
  6
CONTINUOUS
 70
0
 71
3
 72
19
 73
15
 74
0
 42
0.0000001
 43
0.0000001
 44
0.0000000001
 40
0.0
 40
0.0
 40
0.0
 40
0.0
 40
0.0410483136
 40
0.0841165051
 40
0.1298089742
 40
0.1785533402
 40
0.2306165299
 40
0.2861271182
 40
0.3451001094
 40
0.4074586854
 40
0.5416145176
 40
0.6868146046
 40
0.8405734726
 40
1.0
 40
1.0
 40
1.0
 40
1.0
 10
52.3772710348
 20
190.8729072171
 30
0.0
 10
52.3567081726
 20
190.9103683166
 30
0.0
 10
52.3078695475
 20
190.9836092567
 30
0.0
 10
52.2160721003
 20
191.0834037239
 30
0.0
 10
52.1052665173
 20
191.1746768301
 30
0.0
 10
51.9764342529
 20
191.2569010837
 30
0.0
 10
51.8305811247
 20
191.329669036
 30
0.0
 10
51.6687919989
 20
191.3925974539
 30
0.0
 10
51.4922267158
 20
191.4453637078
 30
0.0
 10
51.2324187709
 20
191.5031782937
 30
0.0
 10
50.878411867
 20
191.5464426792
 30
0.0
 10
50.4269189893
 20
191.5541949123
 30
0.0
 10
49.950430656
 20
191.5190198384
 30
0.0
 10
49.6279540831
 20
191.4682239749
 30
0.0
 10
49.465128926
 20
191.4360566943
 30
0.0
  0
SPLINE
  5
3E8
100
AcDbEntity
  8
0
100
AcDbSpline
 62
7
  6
CONTINUOUS
 70
0
 71
3
 72
16
 73
12
 74
0
 42
0.0000001
 43
0.0000001
 44
0.0000000001
 40
0.0
 40
0.0
 40
0.0
 40
0.0
 40
0.0454143384
 40
0.0926084073
 40
0.1935437421
 40
0.3046852885
 40
0.4264153501
 40
0.5581806155
 40
0.6988022493
 40
0.8466927693
 40
1.0
 40
1.0
 40
1.0
 40
1.0
 10
78.5232611131
 20
92.0651076393
 30
0.0
 10
78.4967580976
 20
92.0329172333
 30
0.0
 10
78.4381323708
 20
91.9709292722
 30
0.0
 10
78.3005418758
 20
91.8578827406
 30
0.0
 10
78.0914508392
 20
91.7401066763
 30
0.0
 10
77.8000466267
 20
91.6410098291
 30
0.0
 10
77.4694800674
 20
91.5816648416
 30
0.0
 10
77.1073284917
 20
91.5626812953
 30
0.0
 10
76.7213806886
 20
91.5839141965
 30
0.0
 10
76.3197524954
 20
91.6445662472
 30
0.0
 10
76.050534786
 20
91.7094382902
 30
0.0
 10
75.915128926
 20
91.7478844119
 30
0.0
  0
LINE
  5
3E9
100
AcDbEntity
  8
0
100
AcDbLine
 62
7
  6
CONTINUOUS
 10
82.965128926
 20
170.0365101055
 11
85.965128926
 21
167.0365101055
  0
LINE
  5
3EA
100
AcDbEntity
  8
0
100
AcDbLine
 62
7
  6
CONTINUOUS
 10
78.802498225
 20
102.5480368617
 11
81.5654852147
 21
103.0051400998
  0
LINE
  5
3EB
100
AcDbEntity
  8
0
100
AcDbLine
 62
7
  6
CONTINUOUS
 10
76.9690213688
 20
112.419437846
 11
79.855128926
 21
112.2136625282
  0
LINE
  5
3EC
100
AcDbEntity
  8
0
100
AcDbLine
 62
7
  6
CONTINUOUS
 10
91.665128926
 20
155.8911476543
 11
94.465128926
 21
155.4306625282
  0
SPLINE
  5
3ED
100
AcDbEntity
  8
0
100
AcDbSpline
 62
7
  6
CONTINUOUS
 70
0
 71
3
 72
31
 73
27
 74
0
 42
0.0000001
 43
0.0000001
 44
0.0000000001
 40
0.0
 40
0.0
 40
0.0
 40
0.0
 40
0.1570086828
 40
0.2345261355
 40
0.3108677754
 40
0.3851597467
 40
0.4209913818
 40
0.4553642165
 40
0.4874473512
 40
0.5158061629
 40
0.5382946877
 40
0.5536902315
 40
0.5600952722
 40
0.5669376351
 40
0.57482384
 40
0.5838877738
 40
0.6050990283
 40
0.6294697512
 40
0.656038002
 40
0.6841631803
 40
0.7134262395
 40
0.7435463178
 40
0.8056273815
 40
0.8694045487
 40
0.9343112054
 40
1.0
 40
1.0
 40
1.0
 40
1.0
 10
55.5810820873
 20
246.586518966
 30
0.0
 10
55.5821928268
 20
246.5651311838
 30
0.0
 10
55.5841515177
 20
246.5331968872
 30
0.0
 10
55.5876691642
 20
246.490937464
 30
0.0
 10
55.5908560897
 20
246.459978455
 30
0.0
 10
55.5941609571
 20
246.4347523632
 30
0.0
 10
55.5974051472
 20
246.4153098633
 30
0.0
 10
55.6001612835
 20
246.4016258436
 30
0.0
 10
55.6033053846
 20
246.3890837375
 30
0.0
 10
55.6070022972
 20
246.3783337048
 30
0.0
 10
55.6109944335
 20
246.3702900684
 30
0.0
 10
55.6158253419
 20
246.3658448554
 30
0.0
 10
55.6198909952
 20
246.365748626
 30
0.0
 10
55.6225815468
 20
246.3669413404
 30
0.0
 10
55.6251077976
 20
246.3690126365
 30
0.0
 10
55.628520371
 20
246.3729648911
 30
0.0
 10
55.6324105158
 20
246.3793652373
 30
0.0
 10
55.6366590818
 20
246.3882460568
 30
0.0
 10
55.6407098234
 20
246.3982475218
 30
0.0
 10
55.6445887913
 20
246.4090240424
 30
0.0
 10
55.6483210894
 20
246.420363315
 30
0.0
 10
55.6531827164
 20
246.4362029576
 30
0.0
 10
55.6589618325
 20
246.4566816075
 30
0.0
 10
55.6655660314
 20
246.4818514173
 30
0.0
 10
55.6719757101
 20
246.5075786855
 30
0.0
 10
55.6761330605
 20
246.5249006752
 30
0.0
 10
55.6781975556
 20
246.5336198062
 30
0.0
  0
SPLINE
  5
3EE
100
AcDbEntity
  8
0
100
AcDbSpline
 62
7
  6
CONTINUOUS
 70
0
 71
3
 72
16
 73
12
 74
0
 42
0.0000001
 43
0.0000001
 44
0.0000000001
 40
0.0
 40
0.0
 40
0.0
 40
0.0
 40
0.1092571167
 40
0.2206134843
 40
0.3359918403
 40
0.4569467508
 40
0.5198922808
 40
0.5845251584
 40
0.7185931705
 40
0.8580233628
 40
1.0
 40
1.0
 40
1.0
 40
1.0
 10
48.4075202805
 20
218.6181923523
 30
0.0
 10
48.288891105
 20
218.6181923523
 30
0.0
 10
48.0487652303
 20
218.64090675
 30
0.0
 10
47.696368258
 20
218.742564238
 30
0.0
 10
47.3564048714
 20
218.9110681715
 30
0.0
 10
47.0925422729
 20
219.103372643
 30
0.0
 10
46.8943478445
 20
219.2868248107
 30
0.0
 10
46.7009618821
 20
219.4952702534
 30
0.0
 10
46.4818281176
 20
219.7915112677
 30
0.0
 10
46.2639258406
 20
220.1878252531
 30
0.0
 10
46.1500112528
 20
220.4722015368
 30
0.0
 10
46.1005081179
 20
220.6181923523
 30
0.0
  0
SPLINE
  5
3EF
100
AcDbEntity
  8
0
100
AcDbSpline
 62
7
  6
CONTINUOUS
 70
0
 71
3
 72
11
 73
7
 74
0
 42
0.0000001
 43
0.0000001
 44
0.0000000001
 40
0.0
 40
0.0
 40
0.0
 40
0.0
 40
0.2384617725
 40
0.4874846077
 40
0.7425429352
 40
1.0
 40
1.0
 40
1.0
 40
1.0
 10
78.5232611014
 20
223.8466414464
 30
0.0
 10
78.559264312
 20
223.9292646905
 30
0.0
 10
78.6196243989
 20
224.104104856
 30
0.0
 10
78.6776815402
 20
224.3792104273
 30
0.0
 10
78.7091060803
 20
224.6656878191
 30
0.0
 10
78.715128926
 20
224.8594754522
 30
0.0
 10
78.715128926
 20
224.9567814862
 30
0.0
  0
SPLINE
  5
3F0
100
AcDbEntity
  8
0
100
AcDbSpline
 62
7
  6
CONTINUOUS
 70
0
 71
3
 72
11
 73
7
 74
0
 42
0.0000001
 43
0.0000001
 44
0.0000000001
 40
0.0
 40
0.0
 40
0.0
 40
0.0
 40
0.2384617726
 40
0.4874846078
 40
0.7425429352
 40
1.0
 40
1.0
 40
1.0
 40
1.0
 10
78.5232610997
 20
250.3897432644
 30
0.0
 10
78.5592643108
 20
250.3071200198
 30
0.0
 10
78.6196243973
 20
250.1322798531
 30
0.0
 10
78.6776815399
 20
249.8571742804
 30
0.0
 10
78.7091060802
 20
249.5706968871
 30
0.0
 10
78.715128926
 20
249.3769092529
 30
0.0
 10
78.715128926
 20
249.2796032183
 30
0.0
  0
SPLINE
  5
3F1
100
AcDbEntity
  8
0
100
AcDbSpline
 62
7
  6
CONTINUOUS
 70
0
 71
3
 72
14
 73
10
 74
0
 42
0.0000001
 43
0.0000001
 44
0.0000000001
 40
0.0
 40
0.0
 40
0.0
 40
0.0
 40
0.117717914
 40
0.2394194873
 40
0.364336033
 40
0.491486718
 40
0.619776128
 40
0.7480749866
 40
1.0
 40
1.0
 40
1.0
 40
1.0
 10
78.5232611131
 20
250.3897432644
 30
0.0
 10
78.4701539231
 20
250.5116181805
 30
0.0
 10
78.3428244353
 20
250.7514285967
 30
0.0
 10
78.1010120539
 20
251.0857161585
 30
0.0
 10
77.8114940293
 20
251.3943863176
 30
0.0
 10
77.4817509211
 20
251.6711361675
 30
0.0
 10
77.1194805502
 20
251.910790863
 30
0.0
 10
76.6078147274
 20
252.1731393645
 30
0.0
 10
76.1943608583
 20
252.3056830545
 30
0.0
 10
75.915128926
 20
252.3602206901
 30
0.0
  0
SPLINE
  5
3F2
100
AcDbEntity
  8
0
100
AcDbSpline
 62
7
  6
CONTINUOUS
 70
0
 71
3
 72
14
 73
10
 74
0
 42
0.0000001
 43
0.0000001
 44
0.0000000001
 40
0.0
 40
0.0
 40
0.0
 40
0.0
 40
0.1177179142
 40
0.2394194876
 40
0.3643360332
 40
0.4914867182
 40
0.6197761281
 40
0.7480749868
 40
1.0
 40
1.0
 40
1.0
 40
1.0
 10
78.5232611154
 20
223.8466414464
 30
0.0
 10
78.4701539256
 20
223.7247665295
 30
0.0
 10
78.3428244384
 20
223.484956112
 30
0.0
 10
78.1010120573
 20
223.1506685483
 30
0.0
 10
77.8114940321
 20
222.8419983884
 30
0.0
 10
77.4817509229
 20
222.5652485384
 30
0.0
 10
77.1194805511
 20
222.3255938425
 30
0.0
 10
76.6078147286
 20
222.0632453387
 30
0.0
 10
76.1943608596
 20
221.930701643
 30
0.0
 10
75.915128926
 20
221.8761640112
 30
0.0
  0
SPLINE
  5
3F3
100
AcDbEntity
  8
0
100
AcDbSpline
 62
7
  6
CONTINUOUS
 70
0
 71
3
 72
16
 73
12
 74
0
 42
0.0000001
 43
0.0000001
 44
0.0000000001
 40
0.0
 40
0.0
 40
0.0
 40
0.0
 40
0.1092571167
 40
0.2206134843
 40
0.3359918403
 40
0.4569467508
 40
0.5198922808
 40
0.5845251584
 40
0.7185931705
 40
0.8580233628
 40
1.0
 40
1.0
 40
1.0
 40
1.0
 10
87.0227375715
 20
218.6181923523
 30
0.0
 10
87.141366747
 20
218.6181923523
 30
0.0
 10
87.3814926217
 20
218.64090675
 30
0.0
 10
87.733889594
 20
218.742564238
 30
0.0
 10
88.0738529806
 20
218.9110681715
 30
0.0
 10
88.3377155791
 20
219.103372643
 30
0.0
 10
88.5359100075
 20
219.2868248107
 30
0.0
 10
88.7292959699
 20
219.4952702534
 30
0.0
 10
88.9484297344
 20
219.7915112677
 30
0.0
 10
89.1663320114
 20
220.1878252531
 30
0.0
 10
89.2802465992
 20
220.4722015368
 30
0.0
 10
89.3297497341
 20
220.6181923523
 30
0.0
  0
SPLINE
  5
3F4
100
AcDbEntity
  8
0
100
AcDbSpline
 62
7
  6
CONTINUOUS
 70
0
 71
3
 72
31
 73
27
 74
0
 42
0.0000001
 43
0.0000001
 44
0.0000000001
 40
0.0
 40
0.0
 40
0.0
 40
0.0
 40
0.0656896395
 40
0.1305971051
 40
0.1943748393
 40
0.2564557714
 40
0.2865756626
 40
0.315838929
 40
0.3439637014
 40
0.3705310201
 40
0.3949011675
 40
0.4161122931
 40
0.425175303
 40
0.4330621512
 40
0.4399048563
 40
0.4463083126
 40
0.4617030766
 40
0.4841908073
 40
0.5125485418
 40
0.5446313211
 40
0.5790046667
 40
0.6148367529
 40
0.6891284276
 40
0.7654710316
 40
0.8429894369
 40
1.0
 40
1.0
 40
1.0
 40
1.0
 10
79.7520602966
 20
227.7027648992
 30
0.0
 10
79.7541248226
 20
227.7114841605
 30
0.0
 10
79.758282234
 20
227.7288064057
 30
0.0
 10
79.7646919903
 20
227.7545340235
 30
0.0
 10
79.7712962495
 20
227.779704049
 30
0.0
 10
79.7770755097
 20
227.8001827415
 30
0.0
 10
79.7819372189
 20
227.8160223758
 30
0.0
 10
79.7856693325
 20
227.8273616843
 30
0.0
 10
79.7895482313
 20
227.8381380756
 30
0.0
 10
79.7935988798
 20
227.8481393787
 30
0.0
 10
79.7978475799
 20
227.8570197358
 30
0.0
 10
79.8017370258
 20
227.8634206396
 30
0.0
 10
79.8051505671
 20
227.8673716203
 30
0.0
 10
79.8076759636
 20
227.8694445318
 30
0.0
 10
79.8103673497
 20
227.8706343931
 30
0.0
 10
79.8144324742
 20
227.8705424883
 30
0.0
 10
79.8192633804
 20
227.8660950784
 30
0.0
 10
79.8232551136
 20
227.8580529128
 30
0.0
 10
79.8269520726
 20
227.8473027228
 30
0.0
 10
79.8300962631
 20
227.8347608924
 30
0.0
 10
79.8328523608
 20
227.8210767028
 30
0.0
 10
79.8360964807
 20
227.8016340765
 30
0.0
 10
79.8394017327
 20
227.7764078207
 30
0.0
 10
79.8425885373
 20
227.745448511
 30
0.0
 10
79.8461062809
 20
227.703188489
 30
0.0
 10
79.848065008
 20
227.6712537399
 30
0.0
 10
79.8491757589
 20
227.6498656568
 30
0.0
  0
SPLINE
  5
3F5
100
AcDbEntity
  8
0
100
AcDbSpline
 62
7
  6
CONTINUOUS
 70
0
 71
3
 72
11
 73
7
 74
0
 42
0.0000001
 43
0.0000001
 44
0.0000000001
 40
0.0
 40
0.0
 40
0.0
 40
0.0
 40
0.2384617726
 40
0.4874846078
 40
0.7425429352
 40
1.0
 40
1.0
 40
1.0
 40
1.0
 10
56.9069967523
 20
250.3897432644
 30
0.0
 10
56.8709935412
 20
250.3071200198
 30
0.0
 10
56.8106334547
 20
250.1322798531
 30
0.0
 10
56.7525763121
 20
249.8571742804
 30
0.0
 10
56.7211517718
 20
249.5706968871
 30
0.0
 10
56.715128926
 20
249.3769092529
 30
0.0
 10
56.715128926
 20
249.2796032183
 30
0.0
  0
SPLINE
  5
3F6
100
AcDbEntity
  8
0
100
AcDbSpline
 62
7
  6
CONTINUOUS
 70
0
 71
3
 72
11
 73
7
 74
0
 42
0.0000001
 43
0.0000001
 44
0.0000000001
 40
0.0
 40
0.0
 40
0.0
 40
0.0
 40
0.2384617725
 40
0.4874846077
 40
0.7425429352
 40
1.0
 40
1.0
 40
1.0
 40
1.0
 10
56.9069967506
 20
223.8466414464
 30
0.0
 10
56.87099354
 20
223.9292646905
 30
0.0
 10
56.8106334531
 20
224.104104856
 30
0.0
 10
56.7525763118
 20
224.3792104273
 30
0.0
 10
56.7211517717
 20
224.6656878191
 30
0.0
 10
56.715128926
 20
224.8594754522
 30
0.0
 10
56.715128926
 20
224.9567814862
 30
0.0
  0
SPLINE
  5
3F7
100
AcDbEntity
  8
0
100
AcDbSpline
 62
7
  6
CONTINUOUS
 70
0
 71
3
 72
14
 73
10
 74
0
 42
0.0000001
 43
0.0000001
 44
0.0000000001
 40
0.0
 40
0.0
 40
0.0
 40
0.0
 40
0.117717914
 40
0.2394194873
 40
0.364336033
 40
0.491486718
 40
0.619776128
 40
0.7480749866
 40
1.0
 40
1.0
 40
1.0
 40
1.0
 10
56.9069967389
 20
250.3897432644
 30
0.0
 10
56.9601039289
 20
250.5116181805
 30
0.0
 10
57.0874334167
 20
250.7514285967
 30
0.0
 10
57.3292457981
 20
251.0857161585
 30
0.0
 10
57.6187638227
 20
251.3943863176
 30
0.0
 10
57.9485069309
 20
251.6711361675
 30
0.0
 10
58.3107773018
 20
251.910790863
 30
0.0
 10
58.8224431246
 20
252.1731393645
 30
0.0
 10
59.2358969937
 20
252.3056830545
 30
0.0
 10
59.515128926
 20
252.3602206901
 30
0.0
  0
SPLINE
  5
3F8
100
AcDbEntity
  8
0
100
AcDbSpline
 62
7
  6
CONTINUOUS
 70
0
 71
3
 72
14
 73
10
 74
0
 42
0.0000001
 43
0.0000001
 44
0.0000000001
 40
0.0
 40
0.0
 40
0.0
 40
0.0
 40
0.1177179142
 40
0.2394194876
 40
0.3643360332
 40
0.4914867182
 40
0.6197761281
 40
0.7480749868
 40
1.0
 40
1.0
 40
1.0
 40
1.0
 10
56.9069967366
 20
223.8466414464
 30
0.0
 10
56.9601039264
 20
223.7247665295
 30
0.0
 10
57.0874334136
 20
223.484956112
 30
0.0
 10
57.3292457947
 20
223.1506685483
 30
0.0
 10
57.6187638199
 20
222.8419983884
 30
0.0
 10
57.9485069291
 20
222.5652485384
 30
0.0
 10
58.3107773009
 20
222.3255938425
 30
0.0
 10
58.8224431234
 20
222.0632453387
 30
0.0
 10
59.2358969924
 20
221.930701643
 30
0.0
 10
59.515128926
 20
221.8761640112
 30
0.0
  0
SPLINE
  5
3F9
100
AcDbEntity
  8
0
100
AcDbSpline
 62
7
  6
CONTINUOUS
 70
0
 71
3
 72
31
 73
27
 74
0
 42
0.0000001
 43
0.0000001
 44
0.0000000001
 40
0.0
 40
0.0
 40
0.0
 40
0.0
 40
0.1570086828
 40
0.2345261355
 40
0.3108677754
 40
0.3851597467
 40
0.4209913818
 40
0.4553642165
 40
0.4874473512
 40
0.5158061629
 40
0.5382946877
 40
0.5536902315
 40
0.5600952722
 40
0.5669376351
 40
0.57482384
 40
0.5838877738
 40
0.6050990283
 40
0.6294697512
 40
0.656038002
 40
0.6841631803
 40
0.7134262395
 40
0.7435463178
 40
0.8056273815
 40
0.8694045487
 40
0.9343112054
 40
1.0
 40
1.0
 40
1.0
 40
1.0
 10
79.8491757647
 20
246.586518966
 30
0.0
 10
79.8480650252
 20
246.5651311838
 30
0.0
 10
79.8461063343
 20
246.5331968872
 30
0.0
 10
79.8425886878
 20
246.490937464
 30
0.0
 10
79.8394017623
 20
246.459978455
 30
0.0
 10
79.8360968949
 20
246.4347523632
 30
0.0
 10
79.8328527048
 20
246.4153098633
 30
0.0
 10
79.8300965685
 20
246.4016258436
 30
0.0
 10
79.8269524674
 20
246.3890837375
 30
0.0
 10
79.8232555548
 20
246.3783337048
 30
0.0
 10
79.8192634185
 20
246.3702900684
 30
0.0
 10
79.8144325101
 20
246.3658448554
 30
0.0
 10
79.8103668568
 20
246.365748626
 30
0.0
 10
79.8076763052
 20
246.3669413404
 30
0.0
 10
79.8051500544
 20
246.3690126365
 30
0.0
 10
79.801737481
 20
246.3729648911
 30
0.0
 10
79.7978473362
 20
246.3793652373
 30
0.0
 10
79.7935987702
 20
246.3882460568
 30
0.0
 10
79.7895480286
 20
246.3982475218
 30
0.0
 10
79.7856690607
 20
246.4090240424
 30
0.0
 10
79.7819367626
 20
246.420363315
 30
0.0
 10
79.7770751356
 20
246.4362029576
 30
0.0
 10
79.7712960195
 20
246.4566816075
 30
0.0
 10
79.7646918206
 20
246.4818514173
 30
0.0
 10
79.7582821419
 20
246.5075786855
 30
0.0
 10
79.7541247915
 20
246.5249006752
 30
0.0
 10
79.7520602964
 20
246.5336198062
 30
0.0
  0
SPLINE
  5
3FA
100
AcDbEntity
  8
0
100
AcDbSpline
 62
7
  6
CONTINUOUS
 70
0
 71
3
 72
31
 73
27
 74
0
 42
0.0000001
 43
0.0000001
 44
0.0000000001
 40
0.0
 40
0.0
 40
0.0
 40
0.0
 40
0.0656896395
 40
0.1305971051
 40
0.1943748393
 40
0.2564557714
 40
0.2865756626
 40
0.315838929
 40
0.3439637014
 40
0.3705310201
 40
0.3949011675
 40
0.4161122931
 40
0.425175303
 40
0.4330621512
 40
0.4399048563
 40
0.4463083126
 40
0.4617030766
 40
0.4841908073
 40
0.5125485418
 40
0.5446313211
 40
0.5790046667
 40
0.6148367529
 40
0.6891284276
 40
0.7654710316
 40
0.8429894369
 40
1.0
 40
1.0
 40
1.0
 40
1.0
 10
55.6781975554
 20
227.7027648992
 30
0.0
 10
55.6761330294
 20
227.7114841605
 30
0.0
 10
55.671975618
 20
227.7288064057
 30
0.0
 10
55.6655658617
 20
227.7545340235
 30
0.0
 10
55.6589616025
 20
227.779704049
 30
0.0
 10
55.6531823423
 20
227.8001827415
 30
0.0
 10
55.6483206331
 20
227.8160223758
 30
0.0
 10
55.6445885194
 20
227.8273616843
 30
0.0
 10
55.6407096207
 20
227.8381380756
 30
0.0
 10
55.6366589722
 20
227.8481393787
 30
0.0
 10
55.6324102721
 20
227.8570197358
 30
0.0
 10
55.6285208262
 20
227.8634206396
 30
0.0
 10
55.6251072849
 20
227.8673716203
 30
0.0
 10
55.6225818884
 20
227.8694445318
 30
0.0
 10
55.6198905023
 20
227.8706343931
 30
0.0
 10
55.6158253778
 20
227.8705424883
 30
0.0
 10
55.6109944716
 20
227.8660950784
 30
0.0
 10
55.6070027384
 20
227.8580529128
 30
0.0
 10
55.6033057794
 20
227.8473027228
 30
0.0
 10
55.6001615889
 20
227.8347608924
 30
0.0
 10
55.5974054912
 20
227.8210767028
 30
0.0
 10
55.5941613713
 20
227.8016340765
 30
0.0
 10
55.5908561193
 20
227.7764078207
 30
0.0
 10
55.5876693147
 20
227.745448511
 30
0.0
 10
55.5841515711
 20
227.703188489
 30
0.0
 10
55.582192844
 20
227.6712537399
 30
0.0
 10
55.5810820931
 20
227.6498656568
 30
0.0
  0
SPLINE
  5
3FB
100
AcDbEntity
  8
0
100
AcDbSpline
 62
7
  6
CONTINUOUS
 70
0
 71
3
 72
24
 73
20
 74
0
 42
0.0000001
 43
0.0000001
 44
0.0000000001
 40
0.0
 40
0.0
 40
0.0
 40
0.0
 40
0.007818034
 40
0.0162655226
 40
0.025842519
 40
0.0368904033
 40
0.0496221279
 40
0.0641651742
 40
0.098924017
 40
0.1413990799
 40
0.1914896145
 40
0.2489151649
 40
0.3132667059
 40
0.3840320751
 40
0.4606111222
 40
0.5423261789
 40
0.6284314624
 40
0.8105408922
 40
1.0
 40
1.0
 40
1.0
 40
1.0
 10
173.4015063731
 20
155.8911476543
 30
0.0
 10
173.4015063731
 20
155.8835842804
 30
0.0
 10
173.3990600473
 20
155.8677692129
 30
0.0
 10
173.388456074
 20
155.8448550689
 30
0.0
 10
173.371245222
 20
155.8223930407
 30
0.0
 10
173.3475871661
 20
155.8002905421
 30
0.0
 10
173.3175277722
 20
155.7784687028
 30
0.0
 10
173.265796002
 20
155.7479175792
 30
0.0
 10
173.1845178283
 20
155.7115880827
 30
0.0
 10
173.067906566
 20
155.6716435776
 30
0.0
 10
172.9277983556
 20
155.6335719793
 30
0.0
 10
172.765383593
 20
155.5977626606
 30
0.0
 10
172.5820493615
 20
155.5646078752
 30
0.0
 10
172.3794525701
 20
155.5344595708
 30
0.0
 10
172.1594607939
 20
155.5076408694
 30
0.0
 10
171.9241448626
 20
155.4844357161
 30
0.0
 10
171.5866143373
 20
155.4581659137
 30
0.0
 10
171.1442843239
 20
155.4364195647
 30
0.0
 10
170.7847941508
 20
155.4306625282
 30
0.0
 10
170.6015063731
 20
155.4306625282
 30
0.0
  0
SPLINE
  5
3FC
100
AcDbEntity
  8
0
100
AcDbSpline
 62
7
  6
CONTINUOUS
 70
0
 71
3
 72
24
 73
20
 74
0
 42
0.0000001
 43
0.0000001
 44
0.0000000001
 40
0.0
 40
0.0
 40
0.0
 40
0.0
 40
0.0077678493
 40
0.0161906389
 40
0.0257791618
 40
0.0368762305
 40
0.0496922617
 40
0.0643504236
 40
0.0994119344
 40
0.1422507344
 40
0.1927226503
 40
0.250504591
 40
0.3151479719
 40
0.3861073476
 40
0.4627573519
 40
0.5444059916
 40
0.630304941
 40
0.8116315922
 40
1.0
 40
1.0
 40
1.0
 40
1.0
 10
173.4015063731
 20
102.5480368617
 30
0.0
 10
173.4015063731
 20
102.5555472682
 30
0.0
 10
173.3990160601
 20
102.5712820205
 30
0.0
 10
173.3882552358
 20
102.5940443575
 30
0.0
 10
173.3708189292
 20
102.6163556931
 30
0.0
 10
173.3468678514
 20
102.6383191287
 30
0.0
 10
173.3164483709
 20
102.6600132314
 30
0.0
 10
173.2641033007
 20
102.6904056104
 30
0.0
 10
173.1819726095
 20
102.7265356606
 30
0.0
 10
173.0642963408
 20
102.7662622217
 30
0.0
 10
172.9231161271
 20
102.8041139258
 30
0.0
 10
172.7597334307
 20
102.8396942364
 30
0.0
 10
172.5756408007
 20
102.8726084835
 30
0.0
 10
172.3725852484
 20
102.9025070952
 30
0.0
 10
172.1525013928
 20
102.9290744656
 30
0.0
 10
171.9174977438
 20
102.9520364254
 30
0.0
 10
171.5811661886
 20
102.9779869579
 30
0.0
 10
171.1410988318
 20
102.999457134
 30
0.0
 10
170.7836318562
 20
103.0051400998
 30
0.0
 10
170.6015063731
 20
103.0051400998
 30
0.0
  0
SPLINE
  5
3FD
100
AcDbEntity
  8
0
100
AcDbSpline
 62
7
  6
CONTINUOUS
 70
0
 71
3
 72
25
 73
21
 74
0
 42
0.0000001
 43
0.0000001
 44
0.0000000001
 40
0.0
 40
0.0
 40
0.0
 40
0.0
 40
0.0017814796
 40
0.0037405975
 40
0.0060132151
 40
0.0086874761
 40
0.015428734
 40
0.0242023857
 40
0.0350961548
 40
0.0481437265
 40
0.063352201
 40
0.0807131164
 40
0.121805695
 40
0.1711794177
 40
0.2284853004
 40
0.2932820732
 40
0.4431332549
 40
0.6154420556
 40
0.8036101007
 40
1.0
 40
1.0
 40
1.0
 40
1.0
 10
173.4015063731
 20
112.419437846
 30
0.0
 10
173.4015063731
 20
112.417759493
 30
0.0
 10
173.400892283
 20
112.4142154
 30
0.0
 10
173.3982641412
 20
112.4091255946
 30
0.0
 10
173.394027353
 20
112.4041348982
 30
0.0
 10
173.3855941295
 20
112.3970011427
 30
0.0
 10
173.3706173765
 20
112.3884510435
 30
0.0
 10
173.3476356325
 20
112.3788680877
 30
0.0
 10
173.3182995352
 20
112.3693234155
 30
0.0
 10
173.2826439811
 20
112.3598453323
 30
0.0
 10
173.240693957
 20
112.3504667141
 30
0.0
 10
173.1725311753
 20
112.3373917571
 30
0.0
 10
173.0720970448
 20
112.3219409112
 30
0.0
 10
172.9339003658
 20
112.3050083494
 30
0.0
 10
172.7731306812
 20
112.2890295734
 30
0.0
 10
172.5177567421
 20
112.2682168056
 30
0.0
 10
172.1537972422
 20
112.2466410558
 30
0.0
 10
171.6733534468
 20
112.2279083711
 30
0.0
 10
171.148829782
 20
112.2162773499
 30
0.0
 10
170.786527611
 20
112.2136625282
 30
0.0
 10
170.6015063731
 20
112.2136625282
 30
0.0
  0
SPLINE
  5
3FE
100
AcDbEntity
  8
0
100
AcDbSpline
 62
7
  6
CONTINUOUS
 70
0
 71
3
 72
19
 73
15
 74
0
 42
0.0000001
 43
0.0000001
 44
0.0000000001
 40
0.0
 40
0.0
 40
0.0
 40
0.0
 40
0.0525466255
 40
0.1053834872
 40
0.15879644
 40
0.2130636863
 40
0.3250498876
 40
0.443409342
 40
0.5055427681
 40
0.5697839197
 40
0.6362207527
 40
0.7048877197
 40
0.8485739544
 40
1.0
 40
1.0
 40
1.0
 40
1.0
 10
136.4015063731
 20
142.1587570199
 30
0.0
 10
136.4015063731
 20
142.1091323906
 30
0.0
 10
136.4070936219
 20
142.009519244
 30
0.0
 10
136.4322022424
 20
141.8613725363
 30
0.0
 10
136.4740379787
 20
141.7153327953
 30
0.0
 10
136.5528071487
 20
141.5230328383
 30
0.0
 10
136.6951854378
 20
141.2924552685
 30
0.0
 10
136.8875793599
 20
141.0914207824
 30
0.0
 10
137.0706381766
 20
140.9498215098
 30
0.0
 10
137.2252699637
 20
140.853080693
 30
0.0
 10
137.3941594396
 20
140.7692198539
 30
0.0
 10
137.6405550588
 20
140.6754121195
 30
0.0
 10
137.9782120346
 20
140.6009310723
 30
0.0
 10
138.2588707766
 20
140.5941660128
 30
0.0
 10
138.4015063731
 20
140.6044464032
 30
0.0
  0
SPLINE
  5
3FF
100
AcDbEntity
  8
0
100
AcDbSpline
 62
7
  6
CONTINUOUS
 70
0
 71
3
 72
20
 73
16
 74
0
 42
0.0000001
 43
0.0000001
 44
0.0000000001
 40
0.0
 40
0.0
 40
0.0
 40
0.0
 40
0.185933445
 40
0.3572264038
 40
0.5109895023
 40
0.5806610736
 40
0.6452930959
 40
0.7048168932
 40
0.7592588162
 40
0.8087625635
 40
0.8536209163
 40
0.8943177659
 40
0.9315754716
 40
0.9663875922
 40
1.0
 40
1.0
 40
1.0
 40
1.0
 10
168.1730572852
 20
92.0651076393
 30
0.0
 10
168.2889430964
 20
92.0037737618
 30
0.0
 10
168.5148313488
 20
91.8918752837
 30
0.0
 10
168.8474290779
 20
91.7525899046
 30
0.0
 10
169.1119376035
 20
91.6646392212
 30
0.0
 10
169.309020383
 20
91.6150589973
 30
0.0
 10
169.4433107277
 20
91.5891576398
 30
0.0
 10
169.5683636179
 20
91.5733657801
 30
0.0
 10
169.6836341698
 20
91.5677219635
 30
0.0
 10
169.7886468428
 20
91.5722225247
 30
0.0
 10
169.8829959248
 20
91.5868507741
 30
0.0
 10
169.9663176076
 20
91.6115969044
 30
0.0
 10
170.0382421023
 20
91.646494385
 30
0.0
 10
170.0982560894
 20
91.6915057897
 30
0.0
 10
170.1301013529
 20
91.7283559319
 30
0.0
 10
170.1435347109
 20
91.7478844119
 30
0.0
  0
SPLINE
  5
400
100
AcDbEntity
  8
0
100
AcDbSpline
 62
7
  6
CONTINUOUS
 70
0
 71
3
 72
20
 73
16
 74
0
 42
0.0000001
 43
0.0000001
 44
0.0000000001
 40
0.0
 40
0.0
 40
0.0
 40
0.0
 40
0.1859334448
 40
0.3572264034
 40
0.5109895017
 40
0.5806610728
 40
0.6452930949
 40
0.7048168921
 40
0.759258815
 40
0.8087625624
 40
0.8536209157
 40
0.894317766
 40
0.9315754731
 40
0.9663875895
 40
1.0
 40
1.0
 40
1.0
 40
1.0
 10
141.6299554672
 20
92.0651076409
 30
0.0
 10
141.5140696554
 20
92.0037737636
 30
0.0
 10
141.2881814014
 20
91.8918752865
 30
0.0
 10
140.9555836706
 20
91.7525899084
 30
0.0
 10
140.6910751445
 20
91.6646392237
 30
0.0
 10
140.4939923648
 20
91.6150589984
 30
0.0
 10
140.3597020199
 20
91.58915764
 30
0.0
 10
140.2346491295
 20
91.5733657797
 30
0.0
 10
140.119378577
 20
91.5677219631
 30
0.0
 10
140.0143659032
 20
91.5722225251
 30
0.0
 10
139.92001682
 20
91.5868507764
 30
0.0
 10
139.8366951353
 20
91.6115969083
 30
0.0
 10
139.7647706435
 20
91.6464943916
 30
0.0
 10
139.7047566523
 20
91.6915057914
 30
0.0
 10
139.6729113912
 20
91.728355935
 30
0.0
 10
139.6594780321
 20
91.7478844166
 30
0.0
  0
SPLINE
  5
401
100
AcDbEntity
  8
0
100
AcDbSpline
 62
7
  6
CONTINUOUS
 70
0
 71
3
 72
25
 73
21
 74
0
 42
0.0000001
 43
0.0000001
 44
0.0000000001
 40
0.0
 40
0.0
 40
0.0
 40
0.0
 40
0.0017814796
 40
0.0037405975
 40
0.0060132151
 40
0.0086874761
 40
0.015428734
 40
0.0242023857
 40
0.0350961548
 40
0.0481437265
 40
0.063352201
 40
0.0807131164
 40
0.121805695
 40
0.1711794177
 40
0.2284853004
 40
0.2932820732
 40
0.4431332549
 40
0.6154420556
 40
0.8036101007
 40
1.0
 40
1.0
 40
1.0
 40
1.0
 10
136.4015063731
 20
112.419437846
 30
0.0
 10
136.4015063731
 20
112.417759493
 30
0.0
 10
136.4021204632
 20
112.4142154
 30
0.0
 10
136.404748605
 20
112.4091255946
 30
0.0
 10
136.4089853933
 20
112.4041348982
 30
0.0
 10
136.4174186167
 20
112.3970011427
 30
0.0
 10
136.4323953698
 20
112.3884510435
 30
0.0
 10
136.4553771137
 20
112.3788680877
 30
0.0
 10
136.484713211
 20
112.3693234155
 30
0.0
 10
136.5203687651
 20
112.3598453323
 30
0.0
 10
136.5623187893
 20
112.3504667141
 30
0.0
 10
136.630481571
 20
112.3373917571
 30
0.0
 10
136.7309157014
 20
112.3219409112
 30
0.0
 10
136.8691123804
 20
112.3050083494
 30
0.0
 10
137.0298820651
 20
112.2890295734
 30
0.0
 10
137.2852560041
 20
112.2682168056
 30
0.0
 10
137.6492155041
 20
112.2466410558
 30
0.0
 10
138.1296592994
 20
112.2279083711
 30
0.0
 10
138.6541829643
 20
112.2162773499
 30
0.0
 10
139.0164851352
 20
112.2136625282
 30
0.0
 10
139.2015063731
 20
112.2136625282
 30
0.0
  0
SPLINE
  5
402
100
AcDbEntity
  8
0
100
AcDbSpline
 62
7
  6
CONTINUOUS
 70
0
 71
3
 72
24
 73
20
 74
0
 42
0.0000001
 43
0.0000001
 44
0.0000000001
 40
0.0
 40
0.0
 40
0.0
 40
0.0
 40
0.1883684078
 40
0.369695059
 40
0.4555940084
 40
0.5372426481
 40
0.6138926524
 40
0.6848520281
 40
0.749495409
 40
0.8072773497
 40
0.8577492656
 40
0.9005880656
 40
0.9356495764
 40
0.9503077383
 40
0.9631237695
 40
0.9742208382
 40
0.9838093611
 40
0.9922321507
 40
1.0
 40
1.0
 40
1.0
 40
1.0
 10
139.2015063731
 20
103.0051400998
 30
0.0
 10
139.01938089
 20
103.0051400998
 30
0.0
 10
138.6619139144
 20
102.999457134
 30
0.0
 10
138.2218465576
 20
102.9779869579
 30
0.0
 10
137.8855150024
 20
102.9520364254
 30
0.0
 10
137.6505113535
 20
102.9290744656
 30
0.0
 10
137.4304274978
 20
102.9025070952
 30
0.0
 10
137.2273719456
 20
102.8726084835
 30
0.0
 10
137.0432793156
 20
102.8396942364
 30
0.0
 10
136.8798966191
 20
102.8041139258
 30
0.0
 10
136.7387164054
 20
102.7662622217
 30
0.0
 10
136.6210401367
 20
102.7265356606
 30
0.0
 10
136.5389094456
 20
102.6904056104
 30
0.0
 10
136.4865643753
 20
102.6600132314
 30
0.0
 10
136.4561448949
 20
102.6383191287
 30
0.0
 10
136.432193817
 20
102.6163556931
 30
0.0
 10
136.4147575105
 20
102.5940443575
 30
0.0
 10
136.4039966862
 20
102.5712820205
 30
0.0
 10
136.4015063731
 20
102.5555472682
 30
0.0
 10
136.4015063731
 20
102.5480368617
 30
0.0
  0
SPLINE
  5
403
100
AcDbEntity
  8
0
100
AcDbSpline
 62
7
  6
CONTINUOUS
 70
0
 71
3
 72
15
 73
11
 74
0
 42
0.0000001
 43
0.0000001
 44
0.0000000001
 40
0.0
 40
0.0
 40
0.0
 40
0.0
 40
0.165095307
 40
0.3174690681
 40
0.4559699785
 40
0.5815009929
 40
0.6960675769
 40
0.8021703891
 40
0.9025339594
 40
1.0
 40
1.0
 40
1.0
 40
1.0
 10
138.4015063731
 20
165.7574717958
 30
0.0
 10
138.2494182595
 20
165.7671099424
 30
0.0
 10
137.9543182259
 20
165.7574025344
 30
0.0
 10
137.5416193641
 20
165.663319291
 30
0.0
 10
137.1874524825
 20
165.5080373415
 30
0.0
 10
136.8982576056
 20
165.3079252554
 30
0.0
 10
136.6750471231
 20
165.0761811636
 30
0.0
 10
136.5168777174
 20
164.8229074401
 30
0.0
 10
136.4225179551
 20
164.5563660601
 30
0.0
 10
136.4015063731
 20
164.3731069085
 30
0.0
 10
136.4015063731
 20
164.2831397112
 30
0.0
  0
SPLINE
  5
404
100
AcDbEntity
  8
0
100
AcDbSpline
 62
7
  6
CONTINUOUS
 70
0
 71
3
 72
27
 73
23
 74
0
 42
0.0000001
 43
0.0000001
 44
0.0000000001
 40
0.0
 40
0.0
 40
0.0
 40
0.0
 40
0.1267943314
 40
0.2535469687
 40
0.3168965913
 40
0.3802047897
 40
0.4434423143
 40
0.5065446597
 40
0.5380162113
 40
0.569380984
 40
0.6005549931
 40
0.6313661566
 40
0.6615726323
 40
0.6766061485
 40
0.6916320743
 40
0.72178896
 40
0.7522731398
 40
0.7829690902
 40
0.8138010952
 40
0.8756988694
 40
0.9377947286
 40
1.0
 40
1.0
 40
1.0
 40
1.0
 10
164.6302606793
 20
112.2136625282
 30
0.0
 10
164.5975857477
 20
112.2136624927
 30
0.0
 10
164.5322376571
 20
112.212275131
 30
0.0
 10
164.4507301102
 20
112.2064920618
 30
0.0
 10
164.3858772665
 20
112.1987275305
 30
0.0
 10
164.3375365267
 20
112.1910080487
 30
0.0
 10
164.289702214
 20
112.1808863767
 30
0.0
 10
164.25053234
 20
112.1697172655
 30
0.0
 10
164.2201659301
 20
112.1582026482
 30
0.0
 10
164.1982241484
 20
112.1478473513
 30
0.0
 10
164.1777501059
 20
112.1350722861
 30
0.0
 10
164.1600710109
 20
112.1188727917
 30
0.0
 10
164.1505585991
 20
112.1009848404
 30
0.0
 10
164.1486917706
 20
112.0854136138
 30
0.0
 10
164.1503690319
 20
112.0698743054
 30
0.0
 10
164.1578154079
 20
112.0515169272
 30
0.0
 10
164.1710051192
 20
112.0319461856
 30
0.0
 10
164.1865370822
 20
112.0139765788
 30
0.0
 10
164.2091449982
 20
111.991578173
 30
0.0
 10
164.2395859882
 20
111.9657153248
 30
0.0
 10
164.2777382857
 20
111.9366044152
 30
0.0
 10
164.303803739
 20
111.9179774388
 30
0.0
 10
164.3169338271
 20
111.908781148
 30
0.0
  0
SPLINE
  5
405
100
AcDbEntity
  8
0
100
AcDbSpline
 62
7
  6
CONTINUOUS
 70
0
 71
3
 72
27
 73
23
 74
0
 42
0.0000001
 43
0.0000001
 44
0.0000000001
 40
0.0
 40
0.0
 40
0.0
 40
0.0
 40
0.0622058397
 40
0.1243021991
 40
0.1861998685
 40
0.2170311056
 40
0.2477264193
 40
0.2782090803
 40
0.3083664128
 40
0.3233938468
 40
0.3384278594
 40
0.3686297884
 40
0.39944074
 40
0.4306140873
 40
0.4619787608
 40
0.4934505334
 40
0.5565534315
 40
0.6197915392
 40
0.6831002996
 40
0.7464505282
 40
0.8732044308
 40
1.0
 40
1.0
 40
1.0
 40
1.0
 10
145.4860789201
 20
111.9087811487
 30
0.0
 10
145.4992091298
 20
111.9179775246
 30
0.0
 10
145.525274774
 20
111.9366047227
 30
0.0
 10
145.563427273
 20
111.9657157507
 30
0.0
 10
145.5938683052
 20
111.9915785032
 30
0.0
 10
145.6164751785
 20
112.0139773449
 30
0.0
 10
145.6320078943
 20
112.0319453089
 30
0.0
 10
145.6451963344
 20
112.0515165814
 30
0.0
 10
145.6526430869
 20
112.0698733145
 30
0.0
 10
145.6543231241
 20
112.0854133667
 30
0.0
 10
145.6524511882
 20
112.1009832141
 30
0.0
 10
145.6429449406
 20
112.1188720532
 30
0.0
 10
145.6252645169
 20
112.1350693713
 30
0.0
 10
145.6047920772
 20
112.1478457567
 30
0.0
 10
145.5828504079
 20
112.1582013495
 30
0.0
 10
145.5524839796
 20
112.1697162835
 30
0.0
 10
145.5133137616
 20
112.1808856027
 30
0.0
 10
145.4654790469
 20
112.1910074623
 30
0.0
 10
145.4171378881
 20
112.1987272429
 30
0.0
 10
145.3522844173
 20
112.2064918919
 30
0.0
 10
145.2707760669
 20
112.2122751019
 30
0.0
 10
145.2054273219
 20
112.2136624927
 30
0.0
 10
145.1727520671
 20
112.2136625282
 30
0.0
  0
SPLINE
  5
406
100
AcDbEntity
  8
0
100
AcDbSpline
 62
7
  6
CONTINUOUS
 70
0
 71
3
 72
19
 73
15
 74
0
 42
0.0000001
 43
0.0000001
 44
0.0000000001
 40
0.0
 40
0.0
 40
0.0
 40
0.0
 40
0.0161903583
 40
0.0369053249
 40
0.0644110605
 40
0.0995098873
 40
0.1423695575
 40
0.1928513481
 40
0.2506353443
 40
0.3152753171
 40
0.4628540044
 40
0.630366636
 40
0.8116632042
 40
1.0
 40
1.0
 40
1.0
 40
1.0
 10
167.9015063731
 20
102.9230867084
 30
0.0
 10
167.9015063731
 20
102.925882468
 30
0.0
 10
167.9037277509
 20
102.9322511709
 30
0.0
 10
167.9117595983
 20
102.9401994009
 30
0.0
 10
167.9240145462
 20
102.9478443922
 30
0.0
 10
167.940703145
 20
102.9552389675
 30
0.0
 10
167.9617216024
 20
102.9623751632
 30
0.0
 10
167.9869330237
 20
102.969167074
 30
0.0
 10
168.0161096691
 20
102.9755468187
 30
0.0
 10
168.0620111338
 20
102.9837738324
 30
0.0
 10
168.127065904
 20
102.9922694023
 30
0.0
 10
168.2124882093
 20
102.9996015818
 30
0.0
 10
168.3051509975
 20
103.0041259252
 30
0.0
 10
168.3689842764
 20
103.0051400998
 30
0.0
 10
168.4015063731
 20
103.0051400998
 30
0.0
  0
SPLINE
  5
407
100
AcDbEntity
  8
0
100
AcDbSpline
 62
7
  6
CONTINUOUS
 70
0
 71
3
 72
19
 73
15
 74
0
 42
0.0000001
 43
0.0000001
 44
0.0000000001
 40
0.0
 40
0.0
 40
0.0
 40
0.0
 40
0.0161903583
 40
0.0369053249
 40
0.0644110605
 40
0.0995098873
 40
0.1423695575
 40
0.1928513481
 40
0.2506353443
 40
0.3152753171
 40
0.4628540044
 40
0.630366636
 40
0.8116632042
 40
1.0
 40
1.0
 40
1.0
 40
1.0
 10
141.9015063731
 20
102.9230867084
 30
0.0
 10
141.9015063731
 20
102.925882468
 30
0.0
 10
141.8992849953
 20
102.9322511709
 30
0.0
 10
141.8912531479
 20
102.9401994009
 30
0.0
 10
141.8789982
 20
102.9478443922
 30
0.0
 10
141.8623096012
 20
102.9552389675
 30
0.0
 10
141.8412911438
 20
102.9623751632
 30
0.0
 10
141.8160797225
 20
102.969167074
 30
0.0
 10
141.7869030771
 20
102.9755468187
 30
0.0
 10
141.7410016124
 20
102.9837738324
 30
0.0
 10
141.6759468423
 20
102.9922694023
 30
0.0
 10
141.5905245369
 20
102.9996015818
 30
0.0
 10
141.4978617488
 20
103.0041259252
 30
0.0
 10
141.4340284698
 20
103.0051400998
 30
0.0
 10
141.4015063731
 20
103.0051400998
 30
0.0
  0
SPLINE
  5
408
100
AcDbEntity
  8
0
100
AcDbSpline
 62
7
  6
CONTINUOUS
 70
0
 71
3
 72
11
 73
7
 74
0
 42
0.0000001
 43
0.0000001
 44
0.0000000001
 40
0.0
 40
0.0
 40
0.0
 40
0.0
 40
0.2516203705
 40
0.5024254444
 40
0.751923846
 40
1.0
 40
1.0
 40
1.0
 40
1.0
 10
163.4015063731
 20
112.2259728531
 30
0.0
 10
163.4839885858
 20
112.2259728531
 30
0.0
 10
163.6490694417
 20
112.2104961104
 30
0.0
 10
163.8875768202
 20
112.1440418522
 30
0.0
 10
164.1115670707
 20
112.0419779519
 30
0.0
 10
164.2503259257
 20
111.9554330023
 30
0.0
 10
164.3169338271
 20
111.908781148
 30
0.0
  0
SPLINE
  5
409
100
AcDbEntity
  8
0
100
AcDbSpline
 62
7
  6
CONTINUOUS
 70
0
 71
3
 72
11
 73
7
 74
0
 42
0.0000001
 43
0.0000001
 44
0.0000000001
 40
0.0
 40
0.0
 40
0.0
 40
0.0
 40
0.248076154
 40
0.4975745556
 40
0.7483796295
 40
1.0
 40
1.0
 40
1.0
 40
1.0
 10
145.4860789201
 20
111.9087811487
 30
0.0
 10
145.5526868213
 20
111.955433003
 30
0.0
 10
145.6914456764
 20
112.0419779522
 30
0.0
 10
145.9154359266
 20
112.1440418524
 30
0.0
 10
146.1539433048
 20
112.2104961105
 30
0.0
 10
146.3190241606
 20
112.2259728531
 30
0.0
 10
146.4015063731
 20
112.2259728531
 30
0.0
  0
SPLINE
  5
40A
100
AcDbEntity
  8
0
100
AcDbSpline
 62
7
  6
CONTINUOUS
 70
0
 71
3
 72
11
 73
7
 74
0
 42
0.0000001
 43
0.0000001
 44
0.0000000001
 40
0.0
 40
0.0
 40
0.0
 40
0.0
 40
0.2424247128
 40
0.4918705693
 40
0.7451789453
 40
1.0
 40
1.0
 40
1.0
 40
1.0
 10
168.1730572852
 20
92.0651076503
 30
0.0
 10
168.0912093666
 20
92.1084265878
 30
0.0
 10
167.9175833726
 20
92.1825618362
 30
0.0
 10
167.6416914216
 20
92.2557505205
 30
0.0
 10
167.3544936604
 20
92.2957207978
 30
0.0
 10
167.1602571589
 20
92.3034084904
 30
0.0
 10
167.0629172391
 20
92.3034084904
 30
0.0
  0
SPLINE
  5
40B
100
AcDbEntity
  8
0
100
AcDbSpline
 62
7
  6
CONTINUOUS
 70
0
 71
3
 72
11
 73
7
 74
0
 42
0.0000001
 43
0.0000001
 44
0.0000000001
 40
0.0
 40
0.0
 40
0.0
 40
0.0
 40
0.2424247127
 40
0.4918705693
 40
0.7451789453
 40
1.0
 40
1.0
 40
1.0
 40
1.0
 10
141.6299554672
 20
92.0651076524
 30
0.0
 10
141.7118033855
 20
92.1084265893
 30
0.0
 10
141.8854293782
 20
92.1825618381
 30
0.0
 10
142.1613213279
 20
92.2557505209
 30
0.0
 10
142.4485190874
 20
92.295720798
 30
0.0
 10
142.6427555879
 20
92.3034084904
 30
0.0
 10
142.7400955071
 20
92.3034084904
 30
0.0
  0
ELLIPSE
  5
40C
100
AcDbEntity
  8
0
100
AcDbEllipse
 62
7
  6
CONTINUOUS
 10
86.2779946433
 20
221.4181923523
 30
0.0
 11
3.1845015224
 21
-0.0
 31
0.0
 40
0.87925849
 41
-0.2897517014
 42
-0.0000023126
  0
ELLIPSE
  5
40D
100
AcDbEntity
  8
0
100
AcDbEllipse
 62
7
  6
CONTINUOUS
 10
45.2230187581
 20
235.8181923523
 30
0.0
 11
0.0
 21
2.0
 31
0.0
 40
0.3723714641
 41
-1.5707963268
 42
-0.0
  0
ELLIPSE
  5
40E
100
AcDbEntity
  8
0
100
AcDbEllipse
 62
7
  6
CONTINUOUS
 10
90.2072390939
 20
235.8181923523
 30
0.0
 11
0.0
 21
2.0
 31
0.0
 40
0.3723714641
 41
-0.0
 42
1.5707963268
  0
ELLIPSE
  5
40F
100
AcDbEntity
  8
0
100
AcDbEllipse
 62
7
  6
CONTINUOUS
 10
49.1522632087
 20
221.4181923523
 30
0.0
 11
3.1845015224
 21
-0.0
 31
0.0
 40
0.87925849
 41
-3.141590341
 42
-2.8518409522
  0
ELLIPSE
  5
410
100
AcDbEntity
  8
0
100
AcDbEllipse
 62
7
  6
CONTINUOUS
 10
153.6015063731
 20
142.8356437141
 30
0.0
 11
-0.0
 21
2.2029811859
 31
0.0
 40
0.9078606812
 41
-3.1415926536
 42
-1.5707963268
  0
ELLIPSE
  5
411
100
AcDbEntity
  8
0
100
AcDbEllipse
 62
7
  6
CONTINUOUS
 10
153.6015063731
 20
163.6879813385
 30
0.0
 11
0.0
 21
2.0446811897
 31
0.0
 40
0.9781476007
 41
-1.5707963268
 42
0.0
  0
ELLIPSE
  5
412
100
AcDbEntity
  8
0
100
AcDbEllipse
 62
7
  6
CONTINUOUS
 10
139.2015063731
 20
166.3278209009
 30
0.0
 11
2.8
 21
-0.0
 31
0.0
 40
0.2125565617
 41
-1.8605480282
 42
-1.5707968897
  0
ELLIPSE
  5
413
100
AcDbEntity
  8
0
100
AcDbEllipse
 62
7
  6
CONTINUOUS
 10
139.2015063731
 20
139.955775834
 30
0.0
 11
2.8
 21
-0.0
 31
0.0
 40
0.2417452479
 41
1.5707986394
 42
1.8605480282
  0
ELLIPSE
  5
414
100
AcDbEntity
  8
0
100
AcDbEllipse
 62
7
  6
CONTINUOUS
 10
154.9015063731
 20
104.5311882723
 30
0.0
 11
-0.0
 21
3.9891777015
 31
0.0
 40
0.9923488676
 41
-1.0510403393
 42
1.0510403393
  0
ENDSEC
  0
SECTION
  2
OBJECTS
  0
DICTIONARY
  5
C
100
AcDbDictionary
280
0
281
1
  3
ACAD_GROUP
350
D
  3
ACAD_MLINESTYLE
350
17
  3
ACAD_LAYOUT
350
1A
  3
ACAD_PLOTSETTINGS
350
19
  3
ACAD_PLOTSTYLENAME
350
E
  3
ACAD_TABLESTYLE
350
       415
  0
DICTIONARY
  5
D
102
{ACAD_REACTORS
330
C
102
}
100
AcDbDictionary
280
0
281
1
  0
ACDBDICTIONARYWDFLT
  5
E
102
{ACAD_REACTORS
330
C
102
}
100
AcDbDictionary
281
1
  3
Normal
350
F
100
AcDbDictionaryWithDefault
340
F
  0
DICTIONARY
  5
17
102
{ACAD_REACTORS
330
C
102
}
100
AcDbDictionary
280
0
281
1
  3
Standard
350
18
  0
DICTIONARY
  5
415
330
C
100
AcDbDictionary
281
1
  3
Standard
350
       418
  3
Standard1
350
       419
  0
DICTIONARY
  5
19
102
{ACAD_REACTORS
330
C
102
}
100
AcDbDictionary
281
1
  0
DICTIONARY
  5
1A
102
{ACAD_REACTORS
330
C
102
}
100
AcDbDictionary
281
1
  3
Model
350
416
  3
Layout1
350
417
  0
ACDBPLACEHOLDER
  5
F
102
{ACAD_REACTORS
330
E
102
}
  0
MLINESTYLE
  5
18
102
{ACAD_REACTORS
330
17
102
}
100
AcDbMlineStyle
  2
STANDARD
 70
0
  3

 62
256
 51
90.0
 52
90.0
 71
2
 49
0.5
 62
256
  6
BYLAYER
 49
-0.5
 62
256
  6
BYLAYER
  0
LAYOUT
  5
416
102
{ACAD_REACTORS
330
1A
102
}
100
AcDbPlotSettings
  1

  2
none_device
  4

  6

 40
0.0
 41
0.0
 42
0.0
 43
0.0
 44
210.0
 45
297.0
 46
0.0
 47
0.0
 48
0.0
 49
0.0
140
0.0
141
0.0
142
1.0
143
1.0
 70
1024
 72
1
 73
0
 74
0
  7

 75
0
147
1.0
148
0.0
149
0.0
100
AcDbLayout
  1
Model
 70
0
 71
0
 10
0.0
 20
0.0
 11
210.0
 21
297.0
 12
0.0
 22
0.0
 32
0.0
 14
0.0
 24
0.0
 34
0.0
 15
0.0
 25
0.0
 35
0.0
146
0.0
 13
0.0
 23
0.0
 33
0.0
 16
1.0
 26
0.0
 36
0.0
 17
0.0
 27
1.0
 37
0.0
 76
0
330
20C
345
0
346
0
  0
LAYOUT
  5
417
102
{ACAD_REACTORS
330
1A
102
}
100
AcDbPlotSettings
  1

  2
none_device
  4

  6

 40
0.0
 41
0.0
 42
0.0
 43
0.0
 44
210.0
 45
297.0
 46
0.0
 47
0.0
 48
0.0
 49
0.0
140
0.0
141
0.0
142
1.0
143
1.0
 70
0
 72
1
 73
0
 74
0
  7

 75
0
147
1.0
148
0.0
149
0.0
100
AcDbLayout
  1
Layout1
 70
0
 71
1
 10
0.0
 20
0.0
 11
210.0
 21
297.0
 12
0.0
 22
0.0
 32
0.0
 14
0.0
 24
0.0
 34
0.0
 15
0.0
 25
0.0
 35
0.0
146
0.0
 13
0.0
 23
0.0
 33
0.0
 16
1.0
 26
0.0
 36
0.0
 17
0.0
 27
1.0
 37
0.0
 76
0
330
20D
345
0
346
0
  0
TABLESTYLE
  5
418
102
{ACAD_REACTORS
330
415
330
341
102
}
330
415
100
AcDbTableStyle
  3
Standard
 70
0
 71
0
 40
0.06
 41
0.06
280
1
281
1
  7
Standard
140
0.18
170
1
 62
0
 63
7
283
0
  7
Standard
140
0.18
170
1
 62
0
 63
7
283
0
  7
Standard
140
0.18
170
1
 62
0
 63
7
283
0
  0
TABLESTYLE
  5
419
102
{ACAD_REACTORS
330
415
102
}
330
415
100
AcDbTableStyle
  3
Standard1
 70
1
 71
0
 40
0.06
 41
0.06
280
1
281
1
  7
Standard
140
0.18
170
1
 62
0
 63
7
283
0
  7
Standard
140
0.18
170
1
 62
0
 63
7
283
0
  7
Standard
140
0.18
170
1
 62
0
 63
7
283
0
  0
ENDSEC
  0
EOF
