  0
SECTION
  2
HEADER
  9
$EXTMAX
 10
420.0
 20
297.0
 30
0.0
  9
$EXTMIN
 10
0.0
 20
0.0
 30
0.0
  9
$LIMMIN
 10
0.0
 20
0.0
  9
$LIMMAX
 10
420.0
 20
297.0
  9
$VIEWCTR
 10
210.0
 20
148.5
  9
$VIEWSIZE
 40
297.0
  9
$CLAYER
  8
0
  9
$LTSCALE
 40
23.1
  9
$CELTYPE
  6
BYLAYER
  9
$DIMSCALE
 40
1.0
  9
$DIMASZ
 40
3.5
  9
$DIMEXO
 40
1.0
  9
$DIMDLI
 40
15.96
  9
$DIMEXE
 40
2.0
  9
$DIMCEN
 40
3.78
  9
$DIMLFAC
 40
1.0
  9
$DIMBLK
  1
_FILLED
  9
$DIMTXT
 40
3.5
  9
$PDMODE
 70
3
  9
$PDSIZE
 40
0.3125
  9
$TILEMODE
 70
1
  0
ENDSEC
  0
SECTION
  2
TABLES
  0
TABLE
  2
LTYPE
 70
6
  0
LTYPE
  2
BYBLOCK
 70
0
  3

 72
65
 73
0
 40
0.0
  0
LTYPE
  2
BYLAYER
 70
0
  3

 72
65
 73
0
 40
0.0
  0
LTYPE
  2
CONTINUOUS
 70
64
  3
Solid line
 72
65
 73
0
 40
0.0
  0
LTYPE
  2
CENTER
 70
64
  3
____ _ ____ _ ____ _ ____ _ ____ _ ____ _ ____
 72
65
 73
4
 40
0.6
 49
0.375
 49
-0.075
 49
0.075
 49
-0.075
  0
LTYPE
  2
HIDDEN
 70
64
  3
- - - - - - - - - - - - - - - - - - - -
 72
65
 73
2
 40
0.2
 49
0.1
 49
-0.1
  0
LTYPE
  2
PHANTOM
 70
64
  3
_____ _ _ _____ _ _ _____ _ _ _____
 72
65
 73
6
 40
0.8
 49
0.45
 49
-0.05
 49
0.1
 49
-0.05
 49
0.1
 49
-0.05
  0
LTYPE
  2
DOT
 70
64
  3
. . . . . . . . . . . . . . . . . . . .
 72
65
 73
2
 40
0.2
 49
0.1
 49
-0.1
  0
LTYPE
  2
DASHED
 70
64
  3
- - - - - - - - - - - - - - - - - - - -
 72
65
 73
2
 40
0.2
 49
0.1
 49
-0.1
  0
ENDTAB
  0
TABLE
  2
LAYER
 70
36
  0
LAYER
  2
0
 70
0
 62
7
  6
CONTINUOUS
  0
LAYER
  2
DEFAULT_1
 70
0
 62
7
  6
CENTER
  0
LAYER
  2
DEFAULT_2
 70
0
 62
8
  6
HIDDEN
  0
LAYER
  2
DEFAULT_3
 70
0
 62
7
  6
PHANTOM
  0
LAYER
  2
1_AXIS
 70
0
 62
7
  6
CONTINUOUS
  0
LAYER
  2
1_DATUM_PLANE
 70
0
 62
7
  6
CONTINUOUS
  0
LAYER
  2
2_FEATURE
 70
0
 62
7
  6
CONTINUOUS
  0
LAYER
  2
4_QUILT
 70
0
 62
7
  6
CONTINUOUS
  0
LAYER
  2
6_DIM
 70
0
 62
7
  6
CONTINUOUS
  0
LAYER
  2
AXES
 70
0
 62
7
  6
CONTINUOUS
  0
LAYER
  2
CSYS
 70
0
 62
7
  6
CONTINUOUS
  0
LAYER
  2
CURVES
 70
0
 62
7
  6
CONTINUOUS
  0
LAYER
  2
NOTES
 70
0
 62
7
  6
CONTINUOUS
  0
LAYER
  2
PLANES
 70
0
 62
7
  6
CONTINUOUS
  0
LAYER
  2
QUILTS
 70
0
 62
7
  6
CONTINUOUS
  0
ENDTAB
  0
TABLE
  2
STYLE
 70
1
  0
STYLE
  2
STANDARD
 70
0
 40
0.0
 41
0.8
 50
0.0
 71
0
 42
0.2
  3
txt
  4

  0
STYLE
  2
TEXTSTYLE_1
 70
0
 40
0.0
 41
0.8
 50
0.0
 71
0
 42
0.2
  3
gdt
  4

  0
STYLE
  2
TEXTSTYLE_2
 70
0
 40
0.0
 41
0.6
 50
0.0
 71
0
 42
0.2
  3
txt
  4

  0
STYLE
  2
TEXTSTYLE_3
 70
0
 40
0.0
 41
1.0
 50
0.0
 71
0
 42
0.2
  3
ftb_____.ttf
  4

  0
STYLE
  2
TEXTSTYLE_4
 70
0
 40
0.0
 41
1.0
 50
0.0
 71
0
 42
0.2
  3
fti_____.ttf
  4

  0
STYLE
  2
TEXTSTYLE_5
 70
0
 40
0.0
 41
1.0
 50
0.0
 71
0
 42
0.2
  3
frutiger light.ttf
  4

  0
STYLE
  2
TEXTSTYLE_6
 70
0
 40
0.0
 41
0.7
 50
0.0
 71
0
 42
0.2
  3
txt
  4

  0
STYLE
  2
TEXTSTYLE_7
 70
0
 40
0.0
 41
0.8
 50
0.0
 71
0
 42
0.2
  3
txt
  4

  0
ENDTAB
  0
ENDSEC
  0
SECTION
  2
BLOCKS
  0
BLOCK
  8
0
 62
2
  6
CONTINUOUS
  2
SYMBOL_5_BL1
 70
64
 10
382.3920721743
 20
35.81661148
  0
TEXT
  8
0
 62
7
  6
CONTINUOUS
 10
373.4503571828
 20
30.9093678571
  7
TEXTSTYLE_4
 40
1.0655737705
  1
The brand for plastic modular belts and chains
 41
1.0
 72
0
  0
LINE
  8
0
 62
7
  6
CONTINUOUS
 10
358.3701405634
 20
36.3903819718
 11
358.3701405634
 21
34.2592344308
  0
LINE
  8
0
 62
7
  6
CONTINUOUS
 10
358.6592030565
 20
31.2683031351
 11
358.6592030565
 21
31.3650941944
  0
LINE
  8
0
 62
7
  6
CONTINUOUS
 10
358.3701405634
 20
31.332830508
 11
358.4279530651
 21
31.1392483894
  0
LINE
  8
0
 62
7
  6
CONTINUOUS
 10
359.7635831863
 20
34.1772672177
 11
359.7635831863
 21
36.3903819718
  0
LINE
  8
0
 62
7
  6
CONTINUOUS
 10
360.6826405082
 20
32.3330049227
 11
360.6826405082
 21
30.81661148
  0
LINE
  8
0
 62
7
  6
CONTINUOUS
 10
360.9717030634
 20
30.81661148
 11
360.9717030634
 21
31.5586763581
  0
LINE
  8
0
 62
7
  6
CONTINUOUS
 10
360.9717030634
 20
31.6877311038
 11
360.9717030634
 21
32.3330049227
  0
LINE
  8
0
 62
7
  6
CONTINUOUS
 10
358.4279530651
 20
31.5264126717
 11
358.3701405634
 21
31.332830508
  0
LINE
  8
0
 62
7
  6
CONTINUOUS
 10
358.7748280496
 20
31.106984703
 11
358.6592030565
 21
31.2683031351
  0
LINE
  8
0
 62
7
  6
CONTINUOUS
 10
359.8732656185
 20
31.623203731
 11
359.9310780634
 21
31.5264126717
  0
LINE
  8
0
 62
7
  6
CONTINUOUS
 10
360.2201406185
 20
31.5264126717
 11
360.1623280082
 21
31.6554674174
  0
LINE
  8
0
 62
7
  6
CONTINUOUS
 10
361.648829088
 20
36.3903819718
 11
361.648829088
 21
34.5871032833
  0
LINE
  8
0
 62
7
  6
CONTINUOUS
 10
361.648829088
 20
33.2756278735
 11
361.648829088
 21
32.6198901686
  0
LINE
  8
0
 62
7
  6
CONTINUOUS
 10
362.0123280634
 20
31.4618852989
 11
362.0123280634
 21
30.81661148
  0
LINE
  8
0
 62
7
  6
CONTINUOUS
 10
362.3013904531
 20
30.81661148
 11
362.3013904531
 21
31.4618852989
  0
LINE
  8
0
 62
7
  6
CONTINUOUS
 10
358.6592030565
 20
31.3650941944
 11
358.7170155634
 21
31.4941489853
  0
LINE
  8
0
 62
7
  6
CONTINUOUS
 10
358.4279530651
 20
31.1392483894
 11
358.5435780634
 21
31.0101936212
  0
LINE
  8
0
 62
7
  6
CONTINUOUS
 10
361.9545154531
 20
31.5909400446
 11
362.0123280634
 21
31.4618852989
  0
LINE
  8
0
 62
7
  6
CONTINUOUS
 10
362.7638906736
 20
31.106984703
 11
362.8217029531
 21
30.9779299347
  0
LINE
  8
0
 62
7
  6
CONTINUOUS
 10
362.3013904531
 20
31.4618852989
 11
362.2435781736
 21
31.623203731
  0
LINE
  8
0
 62
7
  6
CONTINUOUS
 10
362.7638906736
 20
31.6554674174
 11
362.7638906736
 21
31.5909400446
  0
LINE
  8
0
 62
7
  6
CONTINUOUS
 10
362.7638906736
 20
31.2037757623
 11
362.7638906736
 21
31.106984703
  0
LINE
  8
0
 62
7
  6
CONTINUOUS
 10
363.0422717109
 20
32.6198901686
 11
363.0422717109
 21
36.3903819718
  0
LINE
  8
0
 62
7
  6
CONTINUOUS
 10
363.0529530634
 20
31.074720994
 11
363.0529530634
 21
31.1392483894
  0
LINE
  8
0
 62
7
  6
CONTINUOUS
 10
363.3701405634
 20
36.3903819718
 11
363.3701405634
 21
32.6198901686
  0
LINE
  8
0
 62
7
  6
CONTINUOUS
 10
360.1623280082
 20
31.0101936212
 11
360.2201406185
 21
31.1392483894
  0
LINE
  8
0
 62
7
  6
CONTINUOUS
 10
364.5560782839
 20
30.9134025506
 11
364.4982653428
 21
31.074720994
  0
LINE
  8
0
 62
7
  6
CONTINUOUS
 10
364.2092032839
 20
31.5909400446
 11
364.2092032839
 21
31.4941489853
  0
LINE
  8
0
 62
7
  6
CONTINUOUS
 10
364.2092032839
 20
31.3650941944
 11
364.2092032839
 21
31.1715120759
  0
LINE
  8
0
 62
7
  6
CONTINUOUS
 10
364.4982653428
 20
31.074720994
 11
364.4982653428
 21
31.5909400446
  0
LINE
  8
0
 62
7
  6
CONTINUOUS
 10
364.7635831863
 20
32.6198901686
 11
364.7635831863
 21
34.4231688571
  0
LINE
  8
0
 62
7
  6
CONTINUOUS
 10
364.7635831863
 20
35.7346442669
 11
364.7635831863
 21
36.3903819718
  0
LINE
  8
0
 62
7
  6
CONTINUOUS
 10
365.0763907839
 20
32.3330049227
 11
365.0763907839
 21
32.1716864905
  0
LINE
  8
0
 62
7
  6
CONTINUOUS
 10
365.0763907839
 20
31.8490495359
 11
365.0763907839
 21
30.81661148
  0
LINE
  8
0
 62
7
  6
CONTINUOUS
 10
365.3654528428
 20
30.81661148
 11
365.3654528428
 21
31.8490495359
  0
LINE
  8
0
 62
7
  6
CONTINUOUS
 10
365.3654528428
 20
32.1716864905
 11
365.3654528428
 21
32.3330049227
  0
LINE
  8
0
 62
7
  6
CONTINUOUS
 10
359.9310780634
 20
31.1392483894
 11
359.8732656185
 21
31.0424573076
  0
LINE
  8
0
 62
7
  6
CONTINUOUS
 10
362.2435781736
 20
31.623203731
 11
362.1857655634
 21
31.6877311038
  0
LINE
  8
0
 62
7
  6
CONTINUOUS
 10
363.1107656736
 20
31.0101936212
 11
363.0529530634
 21
31.074720994
  0
LINE
  8
0
 62
7
  6
CONTINUOUS
 10
364.2670155634
 20
30.8811388585
 11
364.3248278428
 21
30.81661148
  0
LINE
  8
0
 62
7
  6
CONTINUOUS
 10
364.2092032839
 20
30.9779299347
 11
364.2670155634
 21
30.8811388585
  0
LINE
  8
0
 62
7
  6
CONTINUOUS
 10
364.6138905634
 20
30.81661148
 11
364.5560782839
 21
30.9134025506
  0
LINE
  8
0
 62
7
  6
CONTINUOUS
 10
364.4982653428
 20
31.5909400446
 11
364.4404530634
 21
31.6877311038
  0
LINE
  8
0
 62
7
  6
CONTINUOUS
 10
365.8279530634
 20
31.8490495359
 11
365.8279530634
 21
30.81661148
  0
LINE
  8
0
 62
7
  6
CONTINUOUS
 10
366.1170157839
 20
30.81661148
 11
366.1170157839
 21
31.5586763581
  0
LINE
  8
0
 62
7
  6
CONTINUOUS
 10
366.1170157839
 20
31.6877311038
 11
366.1170157839
 21
31.8490495359
  0
LINE
  8
0
 62
7
  6
CONTINUOUS
 10
366.648829088
 20
34.8330049227
 11
366.648829088
 21
32.6198901686
  0
LINE
  8
0
 62
7
  6
CONTINUOUS
 10
358.5435780634
 20
31.6554674174
 11
358.4279530651
 21
31.5264126717
  0
LINE
  8
0
 62
7
  6
CONTINUOUS
 10
358.7170155634
 20
31.4941489853
 11
358.7748280496
 21
31.5586763581
  0
LINE
  8
0
 62
7
  6
CONTINUOUS
 10
358.5435780634
 20
31.0101936212
 11
358.6592030565
 21
30.945666237
  0
LINE
  8
0
 62
7
  6
CONTINUOUS
 10
358.9482655496
 20
31.0101936212
 11
358.7748280496
 21
31.106984703
  0
LINE
  8
0
 62
7
  6
CONTINUOUS
 10
364.1513903428
 20
31.6554674174
 11
364.2092032839
 21
31.5909400446
  0
LINE
  8
0
 62
7
  6
CONTINUOUS
 10
367.0998278428
 20
31.5909400446
 11
367.1576407839
 21
31.4296216124
  0
LINE
  8
0
 62
7
  6
CONTINUOUS
 10
367.4467028428
 20
31.4296216124
 11
367.3888905634
 21
31.5909400446
  0
LINE
  8
0
 62
7
  6
CONTINUOUS
 10
367.1576407839
 20
31.4296216124
 11
367.1576407839
 21
30.81661148
  0
LINE
  8
0
 62
7
  6
CONTINUOUS
 10
367.4467028428
 20
30.81661148
 11
367.4467028428
 21
31.4296216124
  0
LINE
  8
0
 62
7
  6
CONTINUOUS
 10
367.9092030634
 20
31.6554674174
 11
367.9092030634
 21
31.5909400446
  0
LINE
  8
0
 62
7
  6
CONTINUOUS
 10
368.0422717109
 20
32.6198901686
 11
368.0422717109
 21
34.7510377095
  0
LINE
  8
0
 62
7
  6
CONTINUOUS
 10
368.3701405634
 20
36.3903819718
 11
368.3701405634
 21
32.6198901686
  0
LINE
  8
0
 62
7
  6
CONTINUOUS
 10
363.0529530634
 20
31.1392483894
 11
363.1107656736
 21
31.2360394487
  0
LINE
  8
0
 62
7
  6
CONTINUOUS
 10
358.6592030565
 20
30.945666237
 11
358.8326405772
 21
30.8811388585
  0
LINE
  8
0
 62
7
  6
CONTINUOUS
 10
360.1623280082
 20
31.6554674174
 11
359.9888905082
 21
31.7522584767
  0
LINE
  8
0
 62
7
  6
CONTINUOUS
 10
362.8217029531
 20
30.9779299347
 11
362.9951404531
 21
30.8811388585
  0
LINE
  8
0
 62
7
  6
CONTINUOUS
 10
361.8388905634
 20
31.6554674174
 11
361.9545154531
 21
31.5909400446
  0
LINE
  8
0
 62
7
  6
CONTINUOUS
 10
362.1857655634
 20
31.6877311038
 11
362.0701406736
 21
31.7522584767
  0
LINE
  8
0
 62
7
  6
CONTINUOUS
 10
367.9092030634
 20
31.074720994
 11
368.0248282839
 21
30.945666237
  0
LINE
  8
0
 62
7
  6
CONTINUOUS
 10
368.2560780634
 20
31.0101936212
 11
368.1982657839
 21
31.074720994
  0
LINE
  8
0
 62
7
  6
CONTINUOUS
 10
367.9092030634
 20
31.5909400446
 11
368.0248282839
 21
31.4618852989
  0
LINE
  8
0
 62
7
  6
CONTINUOUS
 10
367.3888905634
 20
31.5909400446
 11
367.3310782839
 21
31.6877311038
  0
LINE
  8
0
 62
7
  6
CONTINUOUS
 10
369.7592026223
 20
31.0101936212
 11
369.7592026223
 21
31.074720994
  0
LINE
  8
0
 62
7
  6
CONTINUOUS
 10
369.7635831863
 20
32.6198901686
 11
369.7635831863
 21
36.3903819718
  0
LINE
  8
0
 62
7
  6
CONTINUOUS
 10
362.8217029531
 20
31.7199947902
 11
362.7638906736
 21
31.6554674174
  0
LINE
  8
0
 62
7
  6
CONTINUOUS
 10
359.6998280358
 20
31.6877311038
 11
359.8732656185
 21
31.623203731
  0
LINE
  8
0
 62
7
  6
CONTINUOUS
 10
364.4404530634
 20
31.6877311038
 11
364.3248278428
 21
31.7522584767
  0
LINE
  8
0
 62
7
  6
CONTINUOUS
 10
368.2560780634
 20
31.5264126717
 11
368.1982657839
 21
31.5909400446
  0
LINE
  8
0
 62
7
  6
CONTINUOUS
 10
369.4123282839
 20
31.1392483894
 11
369.4701405634
 21
31.074720994
  0
LINE
  8
0
 62
7
  6
CONTINUOUS
 10
369.7592026223
 20
31.074720994
 11
369.6435780634
 21
31.2037757623
  0
LINE
  8
0
 62
7
  6
CONTINUOUS
 10
369.4123282839
 20
31.6554674174
 11
369.4701405634
 21
31.5909400446
  0
LINE
  8
0
 62
7
  6
CONTINUOUS
 10
369.7592026223
 20
31.5909400446
 11
369.6435780634
 21
31.7199947902
  0
LINE
  8
0
 62
7
  6
CONTINUOUS
 10
363.0529530634
 20
31.5909400446
 11
363.1107656736
 21
31.6554674174
  0
LINE
  8
0
 62
7
  6
CONTINUOUS
 10
362.8795155634
 20
31.332830508
 11
362.7638906736
 21
31.2037757623
  0
LINE
  8
0
 62
7
  6
CONTINUOUS
 10
364.2092032839
 20
31.1715120759
 11
364.1513903428
 21
31.106984703
  0
LINE
  8
0
 62
7
  6
CONTINUOUS
 10
364.1513903428
 20
30.9134025506
 11
364.2092032839
 21
30.9779299347
  0
LINE
  8
0
 62
7
  6
CONTINUOUS
 10
362.9951404531
 20
30.8811388585
 11
363.1107656736
 21
30.8488751693
  0
LINE
  8
0
 62
7
  6
CONTINUOUS
 10
359.9888905082
 20
31.7522584767
 11
359.7576405634
 21
31.8167858495
  0
LINE
  8
0
 62
7
  6
CONTINUOUS
 10
363.3420154531
 20
30.945666237
 11
363.1107656736
 21
31.0101936212
  0
LINE
  8
0
 62
7
  6
CONTINUOUS
 10
362.0701406736
 20
31.7522584767
 11
361.8967031736
 21
31.8167858495
  0
LINE
  8
0
 62
7
  6
CONTINUOUS
 10
364.3248278428
 20
31.7522584767
 11
364.1513903428
 21
31.8167858495
  0
LINE
  8
0
 62
7
  6
CONTINUOUS
 10
366.9842032839
 20
31.6554674174
 11
367.0998278428
 21
31.5909400446
  0
LINE
  8
0
 62
7
  6
CONTINUOUS
 10
367.3310782839
 20
31.6877311038
 11
367.2154530634
 21
31.7522584767
  0
LINE
  8
0
 62
7
  6
CONTINUOUS
 10
358.8326405772
 20
30.8811388585
 11
359.0060780772
 21
30.8488751693
  0
LINE
  8
0
 62
7
  6
CONTINUOUS
 10
359.2951405909
 20
30.945666237
 11
358.9482655496
 21
31.0101936212
  0
LINE
  8
0
 62
7
  6
CONTINUOUS
 10
361.7232656736
 20
31.6877311038
 11
361.8388905634
 21
31.6554674174
  0
LINE
  8
0
 62
7
  6
CONTINUOUS
 10
364.0357657839
 20
31.6877311038
 11
364.1513903428
 21
31.6554674174
  0
LINE
  8
0
 62
7
  6
CONTINUOUS
 10
368.3717032839
 20
30.9779299347
 11
368.2560780634
 21
31.0101936212
  0
LINE
  8
0
 62
7
  6
CONTINUOUS
 10
366.8685780634
 20
31.6877311038
 11
366.9842032839
 21
31.6554674174
  0
LINE
  8
0
 62
7
  6
CONTINUOUS
 10
368.0248282839
 20
30.945666237
 11
368.1982657839
 21
30.8811388585
  0
LINE
  8
0
 62
7
  6
CONTINUOUS
 10
367.2154530634
 20
31.7522584767
 11
367.0420155634
 21
31.8167858495
  0
LINE
  8
0
 62
7
  6
CONTINUOUS
 10
368.4295155634
 20
31.4618852989
 11
368.2560780634
 21
31.5264126717
  0
LINE
  8
0
 62
7
  6
CONTINUOUS
 10
369.2388907839
 20
31.2037757623
 11
369.4123282839
 21
31.1392483894
  0
LINE
  8
0
 62
7
  6
CONTINUOUS
 10
369.6435780634
 20
31.7199947902
 11
369.4701405634
 21
31.7845221631
  0
LINE
  8
0
 62
7
  6
CONTINUOUS
 10
368.0248282839
 20
31.4618852989
 11
368.2560780634
 21
31.3650941944
  0
LINE
  8
0
 62
7
  6
CONTINUOUS
 10
369.6435780634
 20
31.2037757623
 11
369.4123282839
 21
31.3005668216
  0
LINE
  8
0
 62
7
  6
CONTINUOUS
 10
368.1982657839
 20
31.5909400446
 11
368.2560780634
 21
31.6554674174
  0
LINE
  8
0
 62
7
  6
CONTINUOUS
 10
358.6592030565
 20
31.7199947902
 11
358.5435780634
 21
31.6554674174
  0
LINE
  8
0
 62
7
  6
CONTINUOUS
 10
358.7748280496
 20
31.5586763581
 11
358.9482655496
 21
31.6554674174
  0
LINE
  8
0
 62
7
  6
CONTINUOUS
 10
361.0873281185
 20
31.7522584767
 11
360.9717030634
 21
31.6877311038
  0
LINE
  8
0
 62
7
  6
CONTINUOUS
 10
360.9717030634
 20
31.5586763581
 11
361.0873281185
 21
31.623203731
  0
LINE
  8
0
 62
7
  6
CONTINUOUS
 10
359.9888905082
 20
30.9134025506
 11
360.1623280082
 21
31.0101936212
  0
LINE
  8
0
 62
7
  6
CONTINUOUS
 10
359.0060780772
 20
30.8488751693
 11
359.3529530358
 21
30.81661148
  0
LINE
  8
0
 62
7
  6
CONTINUOUS
 10
363.1107656736
 20
30.8488751693
 11
363.3420154531
 21
30.81661148
  0
LINE
  8
0
 62
7
  6
CONTINUOUS
 10
361.4920155634
 20
31.7199947902
 11
361.7232656736
 21
31.6877311038
  0
LINE
  8
0
 62
7
  6
CONTINUOUS
 10
363.8045156736
 20
31.7199947902
 11
364.0357657839
 21
31.6877311038
  0
LINE
  8
0
 62
7
  6
CONTINUOUS
 10
368.2560780634
 20
31.3650941944
 11
369.2388907839
 21
31.2037757623
  0
LINE
  8
0
 62
7
  6
CONTINUOUS
 10
369.4123282839
 20
31.3005668216
 11
368.4295155634
 21
31.4618852989
  0
LINE
  8
0
 62
7
  6
CONTINUOUS
 10
361.8967031736
 20
31.8167858495
 11
361.7232656736
 21
31.8490495359
  0
LINE
  8
0
 62
7
  6
CONTINUOUS
 10
368.1982657839
 20
30.8811388585
 11
368.3717032839
 21
30.8488751693
  0
LINE
  8
0
 62
7
  6
CONTINUOUS
 10
367.0420155634
 20
31.8167858495
 11
366.8685780634
 21
31.8490495359
  0
LINE
  8
0
 62
7
  6
CONTINUOUS
 10
369.2967030634
 20
31.6877311038
 11
369.4123282839
 21
31.6554674174
  0
LINE
  8
0
 62
7
  6
CONTINUOUS
 10
369.4701405634
 20
31.074720994
 11
369.4123282839
 21
31.0101936212
  0
LINE
  8
0
 62
7
  6
CONTINUOUS
 10
368.0248282839
 20
31.7522584767
 11
367.9092030634
 21
31.6554674174
  0
LINE
  8
0
 62
7
  6
CONTINUOUS
 10
362.9373281736
 20
31.7845221631
 11
362.8217029531
 21
31.7199947902
  0
LINE
  8
0
 62
7
  6
CONTINUOUS
 10
362.9951404531
 20
31.397357926
 11
362.8795155634
 21
31.332830508
  0
LINE
  8
0
 62
7
  6
CONTINUOUS
 10
363.1107656736
 20
31.2360394487
 11
363.2263905634
 21
31.3005668216
  0
LINE
  8
0
 62
7
  6
CONTINUOUS
 10
360.6826405082
 20
30.81661148
 11
360.9717030634
 21
30.81661148
  0
LINE
  8
0
 62
7
  6
CONTINUOUS
 10
362.0123280634
 20
30.81661148
 11
362.3013904531
 21
30.81661148
  0
LINE
  8
0
 62
7
  6
CONTINUOUS
 10
363.3420154531
 20
30.81661148
 11
363.6888904531
 21
30.81661148
  0
LINE
  8
0
 62
7
  6
CONTINUOUS
 10
364.3248278428
 20
30.81661148
 11
364.6138905634
 21
30.81661148
  0
LINE
  8
0
 62
7
  6
CONTINUOUS
 10
365.0763907839
 20
30.81661148
 11
365.3654528428
 21
30.81661148
  0
LINE
  8
0
 62
7
  6
CONTINUOUS
 10
365.8279530634
 20
30.81661148
 11
366.1170157839
 21
30.81661148
  0
LINE
  8
0
 62
7
  6
CONTINUOUS
 10
367.1576407839
 20
30.81661148
 11
367.4467028428
 21
30.81661148
  0
LINE
  8
0
 62
7
  6
CONTINUOUS
 10
368.7185782839
 20
30.81661148
 11
369.0654532839
 21
30.81661148
  0
LINE
  8
0
 62
7
  6
CONTINUOUS
 10
369.0654532839
 20
30.945666237
 11
368.7185782839
 21
30.945666237
  0
LINE
  8
0
 62
7
  6
CONTINUOUS
 10
363.6888904531
 20
30.945666237
 11
363.3420154531
 21
30.945666237
  0
LINE
  8
0
 62
7
  6
CONTINUOUS
 10
368.1982657839
 20
31.074720994
 11
367.9092030634
 21
31.074720994
  0
LINE
  8
0
 62
7
  6
CONTINUOUS
 10
360.2201406185
 20
31.1392483894
 11
359.9310780634
 21
31.1392483894
  0
LINE
  8
0
 62
7
  6
CONTINUOUS
 10
359.2951405909
 20
31.7199947902
 11
359.6998280358
 21
31.6877311038
  0
LINE
  8
0
 62
7
  6
CONTINUOUS
 10
359.7576405634
 20
31.8167858495
 11
359.3529530358
 21
31.8490495359
  0
LINE
  8
0
 62
7
  6
CONTINUOUS
 10
368.3717032839
 20
30.8488751693
 11
368.7185782839
 21
30.81661148
  0
LINE
  8
0
 62
7
  6
CONTINUOUS
 10
368.7185782839
 20
30.945666237
 11
368.3717032839
 21
30.9779299347
  0
LINE
  8
0
 62
7
  6
CONTINUOUS
 10
364.1513903428
 20
31.8167858495
 11
363.8045156736
 21
31.8490495359
  0
LINE
  8
0
 62
7
  6
CONTINUOUS
 10
368.9498280634
 20
31.7199947902
 11
369.2967030634
 21
31.6877311038
  0
LINE
  8
0
 62
7
  6
CONTINUOUS
 10
369.2967030634
 20
31.8167858495
 11
368.9498280634
 21
31.8490495359
  0
LINE
  8
0
 62
7
  6
CONTINUOUS
 10
366.6373282839
 20
31.7199947902
 11
366.8685780634
 21
31.6877311038
  0
LINE
  8
0
 62
7
  6
CONTINUOUS
 10
369.4701405634
 20
31.7845221631
 11
369.2967030634
 21
31.8167858495
  0
LINE
  8
0
 62
7
  6
CONTINUOUS
 10
369.6435780634
 20
30.9134025506
 11
369.7592026223
 21
31.0101936212
  0
LINE
  8
0
 62
7
  6
CONTINUOUS
 10
364.1513903428
 20
31.106984703
 11
363.9779528428
 21
31.0101936212
  0
LINE
  8
0
 62
7
  6
CONTINUOUS
 10
366.2326403428
 20
31.7522584767
 11
366.1170157839
 21
31.6877311038
  0
LINE
  8
0
 62
7
  6
CONTINUOUS
 10
366.1170157839
 20
31.5586763581
 11
366.2326403428
 21
31.623203731
  0
LINE
  8
0
 62
7
  6
CONTINUOUS
 10
358.8326405772
 20
31.7845221631
 11
358.6592030565
 21
31.7199947902
  0
LINE
  8
0
 62
7
  6
CONTINUOUS
 10
361.2607654531
 20
31.8167858495
 11
361.0873281185
 21
31.7522584767
  0
LINE
  8
0
 62
7
  6
CONTINUOUS
 10
361.0873281185
 20
31.623203731
 11
361.2607654531
 21
31.6877311038
  0
LINE
  8
0
 62
7
  6
CONTINUOUS
 10
359.8732656185
 20
31.0424573076
 11
359.6998280358
 21
30.9779299347
  0
LINE
  8
0
 62
7
  6
CONTINUOUS
 10
369.2967030634
 20
30.9779299347
 11
369.0654532839
 21
30.945666237
  0
LINE
  8
0
 62
7
  6
CONTINUOUS
 10
363.6888904531
 20
30.81661148
 11
363.9779528428
 21
30.8488751693
  0
LINE
  8
0
 62
7
  6
CONTINUOUS
 10
369.0654532839
 20
30.81661148
 11
369.4123282839
 21
30.8488751693
  0
LINE
  8
0
 62
7
  6
CONTINUOUS
 10
359.3529530358
 20
30.81661148
 11
359.7576405634
 21
30.8488751693
  0
LINE
  8
0
 62
7
  6
CONTINUOUS
 10
359.6998280358
 20
30.9779299347
 11
359.2951405909
 21
30.945666237
  0
LINE
  8
0
 62
7
  6
CONTINUOUS
 10
363.5732655634
 20
31.3650941944
 11
364.2092032839
 21
31.3650941944
  0
LINE
  8
0
 62
7
  6
CONTINUOUS
 10
364.2092032839
 20
31.4941489853
 11
363.5732655634
 21
31.4941489853
  0
LINE
  8
0
 62
7
  6
CONTINUOUS
 10
359.9310780634
 20
31.5264126717
 11
360.2201406185
 21
31.5264126717
  0
LINE
  8
0
 62
7
  6
CONTINUOUS
 10
362.7638906736
 20
31.5909400446
 11
363.0529530634
 21
31.5909400446
  0
LINE
  8
0
 62
7
  6
CONTINUOUS
 10
369.4701405634
 20
31.5909400446
 11
369.7592026223
 21
31.5909400446
  0
LINE
  8
0
 62
7
  6
CONTINUOUS
 10
363.4576406736
 20
31.7199947902
 11
363.8045156736
 21
31.7199947902
  0
LINE
  8
0
 62
7
  6
CONTINUOUS
 10
368.6029530634
 20
31.7199947902
 11
368.9498280634
 21
31.7199947902
  0
LINE
  8
0
 62
7
  6
CONTINUOUS
 10
368.9498280634
 20
31.8490495359
 11
368.6029530634
 21
31.8490495359
  0
LINE
  8
0
 62
7
  6
CONTINUOUS
 10
366.8685780634
 20
31.8490495359
 11
366.6373282839
 21
31.8490495359
  0
LINE
  8
0
 62
7
  6
CONTINUOUS
 10
366.1170157839
 20
31.8490495359
 11
365.8279530634
 21
31.8490495359
  0
LINE
  8
0
 62
7
  6
CONTINUOUS
 10
365.3654528428
 20
31.8490495359
 11
365.0763907839
 21
31.8490495359
  0
LINE
  8
0
 62
7
  6
CONTINUOUS
 10
363.8045156736
 20
31.8490495359
 11
363.4576406736
 21
31.8490495359
  0
LINE
  8
0
 62
7
  6
CONTINUOUS
 10
361.7232656736
 20
31.8490495359
 11
361.4920155634
 21
31.8490495359
  0
LINE
  8
0
 62
7
  6
CONTINUOUS
 10
365.0763907839
 20
32.1716864905
 11
365.3654528428
 21
32.1716864905
  0
LINE
  8
0
 62
7
  6
CONTINUOUS
 10
365.3654528428
 20
32.3330049227
 11
365.0763907839
 21
32.3330049227
  0
LINE
  8
0
 62
7
  6
CONTINUOUS
 10
360.9717030634
 20
32.3330049227
 11
360.6826405082
 21
32.3330049227
  0
LINE
  8
0
 62
7
  6
CONTINUOUS
 10
360.0094848257
 20
32.6198901686
 11
360.4220561743
 21
32.6198901686
  0
LINE
  8
0
 62
7
  6
CONTINUOUS
 10
361.648829088
 20
32.6198901686
 11
363.0422717109
 21
32.6198901686
  0
LINE
  8
0
 62
7
  6
CONTINUOUS
 10
363.3701405634
 20
32.6198901686
 11
364.7635831863
 21
32.6198901686
  0
LINE
  8
0
 62
7
  6
CONTINUOUS
 10
366.648829088
 20
32.6198901686
 11
368.0422717109
 21
32.6198901686
  0
LINE
  8
0
 62
7
  6
CONTINUOUS
 10
368.3701405634
 20
32.6198901686
 11
369.7635831863
 21
32.6198901686
  0
LINE
  8
0
 62
7
  6
CONTINUOUS
 10
366.4060778428
 20
31.8167858495
 11
366.2326403428
 21
31.7522584767
  0
LINE
  8
0
 62
7
  6
CONTINUOUS
 10
363.9779528428
 20
30.8488751693
 11
364.1513903428
 21
30.9134025506
  0
LINE
  8
0
 62
7
  6
CONTINUOUS
 10
369.4123282839
 20
30.8488751693
 11
369.6435780634
 21
30.9134025506
  0
LINE
  8
0
 62
7
  6
CONTINUOUS
 10
369.4123282839
 20
31.0101936212
 11
369.2967030634
 21
30.9779299347
  0
LINE
  8
0
 62
7
  6
CONTINUOUS
 10
368.3717032839
 20
31.6877311038
 11
368.6029530634
 21
31.7199947902
  0
LINE
  8
0
 62
7
  6
CONTINUOUS
 10
366.4060778428
 20
31.6877311038
 11
366.6373282839
 21
31.7199947902
  0
LINE
  8
0
 62
7
  6
CONTINUOUS
 10
363.3420154531
 20
31.332830508
 11
363.5732655634
 21
31.3650941944
  0
LINE
  8
0
 62
7
  6
CONTINUOUS
 10
366.6373282839
 20
31.8490495359
 11
366.4060778428
 21
31.8167858495
  0
LINE
  8
0
 62
7
  6
CONTINUOUS
 10
363.2263905634
 20
31.6877311038
 11
363.4576406736
 21
31.7199947902
  0
LINE
  8
0
 62
7
  6
CONTINUOUS
 10
368.6029530634
 20
31.8490495359
 11
368.2560780634
 21
31.8167858495
  0
LINE
  8
0
 62
7
  6
CONTINUOUS
 10
363.5732655634
 20
31.4941489853
 11
363.2263905634
 21
31.4618852989
  0
LINE
  8
0
 62
7
  6
CONTINUOUS
 10
359.3529530358
 20
31.8490495359
 11
359.0060780772
 21
31.8167858495
  0
LINE
  8
0
 62
7
  6
CONTINUOUS
 10
363.4576406736
 20
31.8490495359
 11
363.0529530634
 21
31.8167858495
  0
LINE
  8
0
 62
7
  6
CONTINUOUS
 10
360.8291569568
 20
33.7674311522
 11
360.1734192519
 21
33.7674311522
  0
LINE
  8
0
 62
7
  6
CONTINUOUS
 10
366.2326403428
 20
31.623203731
 11
366.4060778428
 21
31.6877311038
  0
LINE
  8
0
 62
7
  6
CONTINUOUS
 10
368.2560780634
 20
31.6554674174
 11
368.3717032839
 21
31.6877311038
  0
LINE
  8
0
 62
7
  6
CONTINUOUS
 10
368.2560780634
 20
31.8167858495
 11
368.0248282839
 21
31.7522584767
  0
LINE
  8
0
 62
7
  6
CONTINUOUS
 10
363.9779528428
 20
31.0101936212
 11
363.6888904531
 21
30.945666237
  0
LINE
  8
0
 62
7
  6
CONTINUOUS
 10
361.2607654531
 20
31.6877311038
 11
361.4920155634
 21
31.7199947902
  0
LINE
  8
0
 62
7
  6
CONTINUOUS
 10
361.4920155634
 20
31.8490495359
 11
361.2607654531
 21
31.8167858495
  0
LINE
  8
0
 62
7
  6
CONTINUOUS
 10
359.0638905634
 20
31.6877311038
 11
359.2951405909
 21
31.7199947902
  0
LINE
  8
0
 62
7
  6
CONTINUOUS
 10
365.5832553175
 20
35.2428409882
 11
366.2389930224
 21
35.2428409882
  0
LINE
  8
0
 62
7
  6
CONTINUOUS
 10
363.2263905634
 20
31.3005668216
 11
363.3420154531
 21
31.332830508
  0
LINE
  8
0
 62
7
  6
CONTINUOUS
 10
363.2263905634
 20
31.4618852989
 11
362.9951404531
 21
31.397357926
  0
LINE
  8
0
 62
7
  6
CONTINUOUS
 10
363.1107656736
 20
31.6554674174
 11
363.2263905634
 21
31.6877311038
  0
LINE
  8
0
 62
7
  6
CONTINUOUS
 10
359.7576405634
 20
30.8488751693
 11
359.9888905082
 21
30.9134025506
  0
LINE
  8
0
 62
7
  6
CONTINUOUS
 10
363.0529530634
 20
31.8167858495
 11
362.9373281736
 21
31.7845221631
  0
LINE
  8
0
 62
7
  6
CONTINUOUS
 10
359.0060780772
 20
31.8167858495
 11
358.8326405772
 21
31.7845221631
  0
LINE
  8
0
 62
7
  6
CONTINUOUS
 10
369.7635831863
 20
36.3903819718
 11
368.3701405634
 21
36.3903819718
  0
LINE
  8
0
 62
7
  6
CONTINUOUS
 10
366.4029274486
 20
36.3903819718
 11
365.9903561
 21
36.3903819718
  0
LINE
  8
0
 62
7
  6
CONTINUOUS
 10
364.7635831863
 20
36.3903819718
 11
363.3701405634
 21
36.3903819718
  0
LINE
  8
0
 62
7
  6
CONTINUOUS
 10
363.0422717109
 20
36.3903819718
 11
361.648829088
 21
36.3903819718
  0
LINE
  8
0
 62
7
  6
CONTINUOUS
 10
359.7635831863
 20
36.3903819718
 11
358.3701405634
 21
36.3903819718
  0
LINE
  8
0
 62
7
  6
CONTINUOUS
 10
358.9482655496
 20
31.6554674174
 11
359.0638905634
 21
31.6877311038
  0
CIRCLE
  8
0
 62
7
  6
CONTINUOUS
 10
369.0668618749
 20
38.7264475456
 40
2.0901639344
  0
ARC
  8
0
 62
7
  6
CONTINUOUS
 10
360.0094848257
 20
34.2592344308
 40
1.6393442623
 50
180.0
 51
270.0
  0
ARC
  8
0
 62
7
  6
CONTINUOUS
 10
366.4029274486
 20
34.7510377095
 40
1.6393442623
 50
0.0
 51
90.0
  0
ARC
  8
0
 62
7
  6
CONTINUOUS
 10
360.4220561743
 20
34.0953000046
 40
1.4754098361
 50
270.0
 51
326.2510114041
  0
ARC
  8
0
 62
7
  6
CONTINUOUS
 10
365.9903561
 20
34.9149721358
 40
1.4754098361
 50
90.0
 51
146.2510114041
  0
ARC
  8
0
 62
7
  6
CONTINUOUS
 10
360.8291569568
 20
34.5871032833
 40
0.8196721311
 50
270.0
 51
360.0
  0
ARC
  8
0
 62
7
  6
CONTINUOUS
 10
365.5832553175
 20
34.4231688571
 40
0.8196721311
 50
90.0
 51
180.0
  0
ARC
  8
0
 62
7
  6
CONTINUOUS
 10
360.1734192519
 20
34.1772672177
 40
0.4098360656
 50
180.0
 51
270.0
  0
ARC
  8
0
 62
7
  6
CONTINUOUS
 10
366.2389930224
 20
34.8330049227
 40
0.4098360656
 50
0.0
 51
90.0
  0
SOLID
  8
0
 62
7
  6
CONTINUOUS
 10
365.0763907839
 20
32.1716868508
 11
365.0763907839
 21
32.3330053344
 12
365.3654528428
 22
32.1716868508
 13
365.3654528428
 23
32.3330053344
  0
SOLID
  8
0
 62
7
  6
CONTINUOUS
 10
359.3529530358
 20
31.8490498836
 11
359.7576405634
 21
31.8167854792
 12
359.0060780772
 22
31.8167854792
 13
359.0060780772
 23
31.8167854792
  0
SOLID
  8
0
 62
7
  6
CONTINUOUS
 10
358.8326405772
 20
31.7845227934
 11
359.0060780772
 21
31.8167854792
 12
359.7576405634
 22
31.8167854792
 13
359.7576405634
 23
31.8167854792
  0
SOLID
  8
0
 62
7
  6
CONTINUOUS
 10
359.7576405634
 20
31.8167854792
 11
359.9888905082
 21
31.7522584901
 12
358.8326405772
 22
31.7845227934
 13
358.8326405772
 23
31.7845227934
  0
SOLID
  8
0
 62
7
  6
CONTINUOUS
 10
358.6592030565
 20
31.7199940664
 11
358.8326405772
 21
31.7845227934
 12
359.9888905082
 22
31.7522584901
 13
359.9888905082
 23
31.7522584901
  0
SOLID
  8
0
 62
7
  6
CONTINUOUS
 10
358.6592030565
 20
31.7199940664
 11
359.9888905082
 21
31.7522584901
 12
359.2951405909
 22
31.7199940664
 13
359.2951405909
 23
31.7199940664
  0
SOLID
  8
0
 62
7
  6
CONTINUOUS
 10
359.2951405909
 20
31.7199940664
 11
359.9888905082
 21
31.7522584901
 12
359.6998280358
 22
31.6877314
 13
359.6998280358
 23
31.6877314
  0
SOLID
  8
0
 62
7
  6
CONTINUOUS
 10
359.9888905082
 20
31.7522584901
 11
360.1623280082
 21
31.6554670967
 12
359.6998280358
 22
31.6877314
 13
359.6998280358
 23
31.6877314
  0
SOLID
  8
0
 62
7
  6
CONTINUOUS
 10
359.8732656185
 20
31.6232043098
 11
359.6998280358
 21
31.6877314
 12
360.1623280082
 22
31.6554670967
 13
360.1623280082
 23
31.6554670967
  0
SOLID
  8
0
 62
7
  6
CONTINUOUS
 10
359.8732656185
 20
31.6232043098
 11
360.1623280082
 21
31.6554670967
 12
359.9310780634
 22
31.5264128539
 13
359.9310780634
 23
31.5264128539
  0
SOLID
  8
0
 62
7
  6
CONTINUOUS
 10
360.1623280082
 20
31.6554670967
 11
360.2201406185
 21
31.5264128539
 12
359.9310780634
 22
31.5264128539
 13
359.9310780634
 23
31.5264128539
  0
SOLID
  8
0
 62
7
  6
CONTINUOUS
 10
361.2607654531
 20
31.8167852459
 11
361.4920155634
 21
31.8490495492
 12
361.7232656736
 22
31.8490495492
 13
361.7232656736
 23
31.8490495492
  0
SOLID
  8
0
 62
7
  6
CONTINUOUS
 10
361.7232656736
 20
31.8490495492
 11
361.8967031736
 21
31.8167852459
 12
361.2607654531
 22
31.8167852459
 13
361.2607654531
 23
31.8167852459
  0
SOLID
  8
0
 62
7
  6
CONTINUOUS
 10
361.0873281185
 20
31.7522581557
 11
361.2607654531
 21
31.8167852459
 12
361.8967031736
 22
31.8167852459
 13
361.8967031736
 23
31.8167852459
  0
SOLID
  8
0
 62
7
  6
CONTINUOUS
 10
361.8967031736
 20
31.8167852459
 11
362.0701406736
 21
31.7522581557
 12
361.0873281185
 22
31.7522581557
 13
361.0873281185
 23
31.7522581557
  0
SOLID
  8
0
 62
7
  6
CONTINUOUS
 10
362.0701406736
 20
31.7522581557
 11
361.4920155634
 21
31.7199941869
 12
361.0873281185
 22
31.7522581557
 13
361.0873281185
 23
31.7522581557
  0
SOLID
  8
0
 62
7
  6
CONTINUOUS
 10
360.9717030634
 20
31.6877310656
 11
361.0873281185
 21
31.7522581557
 12
361.4920155634
 22
31.7199941869
 13
361.4920155634
 23
31.7199941869
  0
SOLID
  8
0
 62
7
  6
CONTINUOUS
 10
361.4920155634
 20
31.7199941869
 11
361.2607654531
 21
31.6877310656
 12
360.9717030634
 22
31.6877310656
 13
360.9717030634
 23
31.6877310656
  0
SOLID
  8
0
 62
7
  6
CONTINUOUS
 10
361.4920155634
 20
31.7199941869
 11
362.0701406736
 21
31.7522581557
 12
361.7232656736
 22
31.6877310656
 13
361.7232656736
 23
31.6877310656
  0
SOLID
  8
0
 62
7
  6
CONTINUOUS
 10
362.0701406736
 20
31.7522581557
 11
362.1857655634
 21
31.6877310656
 12
361.7232656736
 22
31.6877310656
 13
361.7232656736
 23
31.6877310656
  0
SOLID
  8
0
 62
7
  6
CONTINUOUS
 10
361.8388905634
 20
31.6554670967
 11
361.7232656736
 21
31.6877310656
 12
362.1857655634
 22
31.6877310656
 13
362.1857655634
 23
31.6877310656
  0
SOLID
  8
0
 62
7
  6
CONTINUOUS
 10
362.1857655634
 20
31.6877310656
 11
362.2435781736
 21
31.6232039754
 12
361.8388905634
 22
31.6554670967
 13
361.8388905634
 23
31.6554670967
  0
SOLID
  8
0
 62
7
  6
CONTINUOUS
 10
361.9545154531
 20
31.5909400065
 11
361.8388905634
 21
31.6554670967
 12
362.2435781736
 22
31.6232039754
 13
362.2435781736
 23
31.6232039754
  0
SOLID
  8
0
 62
7
  6
CONTINUOUS
 10
361.9545154531
 20
31.5909400065
 11
362.2435781736
 21
31.6232039754
 12
362.0123280634
 22
31.4618854918
 13
362.0123280634
 23
31.4618854918
  0
SOLID
  8
0
 62
7
  6
CONTINUOUS
 10
362.2435781736
 20
31.6232039754
 11
362.3013904531
 21
31.4618854918
 12
362.0123280634
 22
31.4618854918
 13
362.0123280634
 23
31.4618854918
  0
SOLID
  8
0
 62
7
  6
CONTINUOUS
 10
361.2607654531
 20
31.6877310656
 11
361.0873281185
 21
31.6232039754
 12
360.9717030634
 22
31.6877310656
 13
360.9717030634
 23
31.6877310656
  0
SOLID
  8
0
 62
7
  6
CONTINUOUS
 10
361.0873281185
 20
31.6232039754
 11
360.9717030634
 21
31.5586757033
 12
360.9717030634
 22
31.6877310656
 13
360.9717030634
 23
31.6877310656
  0
SOLID
  8
0
 62
7
  6
CONTINUOUS
 10
360.9717030634
 20
31.5586757033
 11
360.6826405082
 21
30.8166115574
 12
360.9717030634
 22
31.6877310656
 13
360.9717030634
 23
31.6877310656
  0
SOLID
  8
0
 62
7
  6
CONTINUOUS
 10
360.9717030634
 20
31.6877310656
 11
360.6826405082
 21
30.8166115574
 12
360.9717030634
 22
32.333005
 13
360.9717030634
 23
32.333005
  0
SOLID
  8
0
 62
7
  6
CONTINUOUS
 10
360.6826405082
 20
30.8166115574
 11
360.6826405082
 21
32.333005
 12
360.9717030634
 22
32.333005
 13
360.9717030634
 23
32.333005
  0
SOLID
  8
0
 62
7
  6
CONTINUOUS
 10
360.9717030634
 20
31.5586757033
 11
360.9717030634
 21
30.8166115574
 12
360.6826405082
 22
30.8166115574
 13
360.6826405082
 23
30.8166115574
  0
SOLID
  8
0
 62
7
  6
CONTINUOUS
 10
362.0123280634
 20
30.8166115574
 11
362.0123280634
 21
31.4618854918
 12
362.3013904531
 22
31.4618854918
 13
362.3013904531
 23
31.4618854918
  0
SOLID
  8
0
 62
7
  6
CONTINUOUS
 10
362.3013904531
 20
31.4618854918
 11
362.3013904531
 21
30.8166115574
 12
362.0123280634
 22
30.8166115574
 13
362.0123280634
 23
30.8166115574
  0
SOLID
  8
0
 62
7
  6
CONTINUOUS
 10
363.0529530634
 20
31.8167856315
 11
363.4576406736
 21
31.8490496243
 12
363.8045156736
 22
31.8490496243
 13
363.8045156736
 23
31.8490496243
  0
SOLID
  8
0
 62
7
  6
CONTINUOUS
 10
363.8045156736
 20
31.8490496243
 11
364.1513903428
 21
31.8167856315
 12
363.0529530634
 22
31.8167856315
 13
363.0529530634
 23
31.8167856315
  0
SOLID
  8
0
 62
7
  6
CONTINUOUS
 10
362.9373281736
 20
31.7845227934
 11
363.0529530634
 21
31.8167856315
 12
364.1513903428
 22
31.8167856315
 13
364.1513903428
 23
31.8167856315
  0
SOLID
  8
0
 62
7
  6
CONTINUOUS
 10
364.1513903428
 20
31.8167856315
 11
364.3248278428
 21
31.7522584901
 12
362.9373281736
 22
31.7845227934
 13
362.9373281736
 23
31.7845227934
  0
SOLID
  8
0
 62
7
  6
CONTINUOUS
 10
362.8217029531
 20
31.7199944276
 11
362.9373281736
 21
31.7845227934
 12
364.3248278428
 22
31.7522584901
 13
364.3248278428
 23
31.7522584901
  0
SOLID
  8
0
 62
7
  6
CONTINUOUS
 10
362.8217029531
 20
31.7199944276
 11
364.3248278428
 21
31.7522584901
 12
363.4576406736
 22
31.7199944276
 13
363.4576406736
 23
31.7199944276
  0
SOLID
  8
0
 62
7
  6
CONTINUOUS
 10
363.4576406736
 20
31.7199944276
 11
364.3248278428
 21
31.7522584901
 12
363.8045156736
 22
31.7199944276
 13
363.8045156736
 23
31.7199944276
  0
SOLID
  8
0
 62
7
  6
CONTINUOUS
 10
363.8045156736
 20
31.7199944276
 11
364.3248278428
 21
31.7522584901
 12
364.0357657839
 22
31.6877312092
 13
364.0357657839
 23
31.6877312092
  0
SOLID
  8
0
 62
7
  6
CONTINUOUS
 10
364.3248278428
 20
31.7522584901
 11
364.4404530634
 21
31.6877312092
 12
364.0357657839
 22
31.6877312092
 13
364.0357657839
 23
31.6877312092
  0
SOLID
  8
0
 62
7
  6
CONTINUOUS
 10
362.7638906736
 20
31.6554672165
 11
362.8217029531
 21
31.7199944276
 12
363.4576406736
 22
31.7199944276
 13
363.4576406736
 23
31.7199944276
  0
SOLID
  8
0
 62
7
  6
CONTINUOUS
 10
364.1513903428
 20
31.6554672165
 11
364.0357657839
 21
31.6877312092
 12
364.4404530634
 22
31.6877312092
 13
364.4404530634
 23
31.6877312092
  0
SOLID
  8
0
 62
7
  6
CONTINUOUS
 10
364.1513903428
 20
31.6554672165
 11
364.4404530634
 21
31.6877312092
 12
364.2092032839
 22
31.5909400053
 13
364.2092032839
 23
31.5909400053
  0
SOLID
  8
0
 62
7
  6
CONTINUOUS
 10
364.4404530634
 20
31.6877312092
 11
364.4982653428
 21
31.5909400053
 12
364.2092032839
 22
31.5909400053
 13
364.2092032839
 23
31.5909400053
  0
SOLID
  8
0
 62
7
  6
CONTINUOUS
 10
364.2092032839
 20
31.4941486131
 11
364.2092032839
 21
31.5909400053
 12
364.4982653428
 22
31.5909400053
 13
364.4982653428
 23
31.5909400053
  0
SOLID
  8
0
 62
7
  6
CONTINUOUS
 10
364.2092032839
 20
31.4941486131
 11
364.4982653428
 21
31.5909400053
 12
364.2092032839
 22
31.3650944328
 13
364.2092032839
 23
31.3650944328
  0
SOLID
  8
0
 62
7
  6
CONTINUOUS
 10
364.2092032839
 20
31.3650944328
 11
364.4982653428
 21
31.5909400053
 12
364.2092032839
 22
31.1715120759
 13
364.2092032839
 23
31.1715120759
  0
SOLID
  8
0
 62
7
  6
CONTINUOUS
 10
364.4982653428
 20
31.5909400053
 11
364.4982653428
 21
31.0747202524
 12
364.2092032839
 22
31.1715120759
 13
364.2092032839
 23
31.1715120759
  0
SOLID
  8
0
 62
7
  6
CONTINUOUS
 10
366.4060778428
 20
31.8167851023
 11
366.6373282839
 21
31.849049822
 12
366.8685780634
 22
31.849049822
 13
366.8685780634
 23
31.849049822
  0
SOLID
  8
0
 62
7
  6
CONTINUOUS
 10
366.8685780634
 20
31.849049822
 11
367.0420155634
 21
31.8167851023
 12
366.4060778428
 22
31.8167851023
 13
366.4060778428
 23
31.8167851023
  0
SOLID
  8
0
 62
7
  6
CONTINUOUS
 10
366.2326403428
 20
31.7522587602
 11
366.4060778428
 21
31.8167851023
 12
367.0420155634
 22
31.8167851023
 13
367.0420155634
 23
31.8167851023
  0
SOLID
  8
0
 62
7
  6
CONTINUOUS
 10
367.0420155634
 20
31.8167851023
 11
367.2154530634
 21
31.7522587602
 12
366.2326403428
 22
31.7522587602
 13
366.2326403428
 23
31.7522587602
  0
SOLID
  8
0
 62
7
  6
CONTINUOUS
 10
367.2154530634
 20
31.7522587602
 11
366.6373282839
 21
31.7199941869
 12
366.2326403428
 22
31.7522587602
 13
366.2326403428
 23
31.7522587602
  0
SOLID
  8
0
 62
7
  6
CONTINUOUS
 10
366.1170157839
 20
31.6877313857
 11
366.2326403428
 21
31.7522587602
 12
366.6373282839
 22
31.7199941869
 13
366.6373282839
 23
31.7199941869
  0
SOLID
  8
0
 62
7
  6
CONTINUOUS
 10
366.6373282839
 20
31.7199941869
 11
366.4060778428
 21
31.6877313857
 12
366.1170157839
 22
31.6877313857
 13
366.1170157839
 23
31.6877313857
  0
SOLID
  8
0
 62
7
  6
CONTINUOUS
 10
366.6373282839
 20
31.7199941869
 11
367.2154530634
 21
31.7522587602
 12
366.8685780634
 22
31.6877313857
 13
366.8685780634
 23
31.6877313857
  0
SOLID
  8
0
 62
7
  6
CONTINUOUS
 10
367.2154530634
 20
31.7522587602
 11
367.3310782839
 21
31.6877313857
 12
366.8685780634
 22
31.6877313857
 13
366.8685780634
 23
31.6877313857
  0
SOLID
  8
0
 62
7
  6
CONTINUOUS
 10
366.9842032839
 20
31.6554670967
 11
366.8685780634
 21
31.6877313857
 12
367.3310782839
 22
31.6877313857
 13
367.3310782839
 23
31.6877313857
  0
SOLID
  8
0
 62
7
  6
CONTINUOUS
 10
366.9842032839
 20
31.6554670967
 11
367.3310782839
 21
31.6877313857
 12
367.0998278428
 22
31.590940324
 13
367.0998278428
 23
31.590940324
  0
SOLID
  8
0
 62
7
  6
CONTINUOUS
 10
367.3310782839
 20
31.6877313857
 11
367.3888905634
 21
31.590940324
 12
367.0998278428
 22
31.590940324
 13
367.0998278428
 23
31.590940324
  0
SOLID
  8
0
 62
7
  6
CONTINUOUS
 10
367.1576407839
 20
31.4296218878
 11
367.0998278428
 21
31.590940324
 12
367.3888905634
 22
31.590940324
 13
367.3888905634
 23
31.590940324
  0
SOLID
  8
0
 62
7
  6
CONTINUOUS
 10
367.3888905634
 20
31.590940324
 11
367.4467028428
 21
31.4296218878
 12
367.1576407839
 22
31.4296218878
 13
367.1576407839
 23
31.4296218878
  0
SOLID
  8
0
 62
7
  6
CONTINUOUS
 10
366.4060778428
 20
31.6877313857
 11
366.2326403428
 21
31.6232043098
 12
366.1170157839
 22
31.6877313857
 13
366.1170157839
 23
31.6877313857
  0
SOLID
  8
0
 62
7
  6
CONTINUOUS
 10
366.2326403428
 20
31.6232043098
 11
366.1170157839
 21
31.5586757033
 12
366.1170157839
 22
31.6877313857
 13
366.1170157839
 23
31.6877313857
  0
SOLID
  8
0
 62
7
  6
CONTINUOUS
 10
366.1170157839
 20
31.5586757033
 11
365.8279530634
 21
30.8166118302
 12
366.1170157839
 22
31.6877313857
 13
366.1170157839
 23
31.6877313857
  0
SOLID
  8
0
 62
7
  6
CONTINUOUS
 10
366.1170157839
 20
31.6877313857
 11
365.8279530634
 21
30.8166118302
 12
366.1170157839
 22
31.849049822
 13
366.1170157839
 23
31.849049822
  0
SOLID
  8
0
 62
7
  6
CONTINUOUS
 10
365.8279530634
 20
30.8166118302
 11
365.8279530634
 21
31.849049822
 12
366.1170157839
 22
31.849049822
 13
366.1170157839
 23
31.849049822
  0
SOLID
  8
0
 62
7
  6
CONTINUOUS
 10
366.1170157839
 20
31.5586757033
 11
366.1170157839
 21
30.8166118302
 12
365.8279530634
 22
30.8166118302
 13
365.8279530634
 23
30.8166118302
  0
SOLID
  8
0
 62
7
  6
CONTINUOUS
 10
367.1576407839
 20
30.8166118302
 11
367.1576407839
 21
31.4296218878
 12
367.4467028428
 22
31.4296218878
 13
367.4467028428
 23
31.4296218878
  0
SOLID
  8
0
 62
7
  6
CONTINUOUS
 10
367.4467028428
 20
31.4296218878
 11
367.4467028428
 21
30.8166118302
 12
367.1576407839
 22
30.8166118302
 13
367.1576407839
 23
30.8166118302
  0
SOLID
  8
0
 62
7
  6
CONTINUOUS
 10
368.2560780634
 20
31.8167856056
 11
368.6029530634
 21
31.8490498552
 12
368.9498280634
 22
31.8490498552
 13
368.9498280634
 23
31.8490498552
  0
SOLID
  8
0
 62
7
  6
CONTINUOUS
 10
368.9498280634
 20
31.8490498552
 11
369.2967030634
 21
31.8167856056
 12
368.2560780634
 22
31.8167856056
 13
368.2560780634
 23
31.8167856056
  0
SOLID
  8
0
 62
7
  6
CONTINUOUS
 10
368.0248282839
 20
31.7522584901
 11
368.2560780634
 21
31.8167856056
 12
369.2967030634
 22
31.8167856056
 13
369.2967030634
 23
31.8167856056
  0
SOLID
  8
0
 62
7
  6
CONTINUOUS
 10
368.0248282839
 20
31.7522584901
 11
369.2967030634
 21
31.8167855803
 12
369.4701405634
 22
31.7845227934
 13
369.4701405634
 23
31.7845227934
  0
SOLID
  8
0
 62
7
  6
CONTINUOUS
 10
368.0248282839
 20
31.7522584901
 11
369.4701405634
 21
31.7845227934
 12
368.6029530634
 22
31.7199941235
 13
368.6029530634
 23
31.7199941235
  0
SOLID
  8
0
 62
7
  6
CONTINUOUS
 10
368.6029530634
 20
31.7199941235
 11
369.4701405634
 21
31.7845227934
 12
368.9498280634
 22
31.7199941235
 13
368.9498280634
 23
31.7199941235
  0
SOLID
  8
0
 62
7
  6
CONTINUOUS
 10
369.4701405634
 20
31.7845227934
 11
369.6435780634
 21
31.7199941235
 12
368.9498280634
 22
31.7199941235
 13
368.9498280634
 23
31.7199941235
  0
SOLID
  8
0
 62
7
  6
CONTINUOUS
 10
369.2967030634
 20
31.6877314
 11
368.9498280634
 21
31.7199941235
 12
369.6435780634
 22
31.7199941235
 13
369.6435780634
 23
31.7199941235
  0
SOLID
  8
0
 62
7
  6
CONTINUOUS
 10
367.9092030634
 20
31.6554671071
 11
368.0248282839
 21
31.7522584901
 12
368.6029530634
 22
31.7199941235
 13
368.6029530634
 23
31.7199941235
  0
SOLID
  8
0
 62
7
  6
CONTINUOUS
 10
369.2967030634
 20
31.6877314
 11
369.6435780634
 21
31.7199941235
 12
369.4123282839
 22
31.6554671071
 13
369.4123282839
 23
31.6554671071
  0
SOLID
  8
0
 62
7
  6
CONTINUOUS
 10
369.4123282839
 20
31.6554671071
 11
369.6435780634
 21
31.7199941235
 12
369.4701405634
 22
31.5909400907
 13
369.4701405634
 23
31.5909400907
  0
SOLID
  8
0
 62
7
  6
CONTINUOUS
 10
369.6435780634
 20
31.7199941235
 11
369.7592026223
 21
31.5909400907
 12
369.4701405634
 22
31.5909400907
 13
369.4701405634
 23
31.5909400907
  0
SOLID
  8
0
 62
7
  6
CONTINUOUS
 10
359.0638905634
 20
31.6877314
 11
358.5435780634
 21
31.6554670789
 12
359.2951405909
 22
31.7199941045
 13
359.2951405909
 23
31.7199941045
  0
SOLID
  8
0
 62
7
  6
CONTINUOUS
 10
358.5435780634
 20
31.6554670789
 11
358.6592030565
 21
31.7199941045
 12
359.2951405909
 22
31.7199941045
 13
359.2951405909
 23
31.7199941045
  0
SOLID
  8
0
 62
7
  6
CONTINUOUS
 10
359.0638905634
 20
31.6877314
 11
358.9482655496
 21
31.6554670789
 12
358.5435780634
 22
31.6554670789
 13
358.5435780634
 23
31.6554670789
  0
SOLID
  8
0
 62
7
  6
CONTINUOUS
 10
358.4279530651
 20
31.5264129164
 11
358.5435780634
 21
31.6554670789
 12
358.9482655496
 22
31.6554670789
 13
358.9482655496
 23
31.6554670789
  0
SOLID
  8
0
 62
7
  6
CONTINUOUS
 10
362.7638906736
 20
31.6554670789
 11
363.4576406736
 21
31.7199941869
 12
363.2263905634
 22
31.6877314
 13
363.2263905634
 23
31.6877314
  0
SOLID
  8
0
 62
7
  6
CONTINUOUS
 10
363.2263905634
 20
31.6877314
 11
363.1107656736
 21
31.6554670789
 12
362.7638906736
 22
31.6554670789
 13
362.7638906736
 23
31.6554670789
  0
SOLID
  8
0
 62
7
  6
CONTINUOUS
 10
362.7638906736
 20
31.5909399887
 11
362.7638906736
 21
31.6554670789
 12
363.1107656736
 22
31.6554670789
 13
363.1107656736
 23
31.6554670789
  0
SOLID
  8
0
 62
7
  6
CONTINUOUS
 10
363.1107656736
 20
31.6554670789
 11
363.0529530634
 21
31.5909399887
 12
362.7638906736
 22
31.5909399887
 13
362.7638906736
 23
31.5909399887
  0
SOLID
  8
0
 62
7
  6
CONTINUOUS
 10
367.9092030634
 20
31.6554670789
 11
368.6029530634
 21
31.7199941869
 12
368.3717032839
 22
31.6877314
 13
368.3717032839
 23
31.6877314
  0
SOLID
  8
0
 62
7
  6
CONTINUOUS
 10
368.3717032839
 20
31.6877314
 11
368.2560780634
 21
31.6554670789
 12
367.9092030634
 22
31.6554670789
 13
367.9092030634
 23
31.6554670789
  0
SOLID
  8
0
 62
7
  6
CONTINUOUS
 10
367.9092030634
 20
31.5909399887
 11
367.9092030634
 21
31.6554670789
 12
368.2560780634
 22
31.6554670789
 13
368.2560780634
 23
31.6554670789
  0
SOLID
  8
0
 62
7
  6
CONTINUOUS
 10
368.2560780634
 20
31.6554670789
 11
368.1982657839
 21
31.5909399887
 12
367.9092030634
 22
31.5909399887
 13
367.9092030634
 23
31.5909399887
  0
SOLID
  8
0
 62
7
  6
CONTINUOUS
 10
368.0248282839
 20
31.4618858262
 11
367.9092030634
 21
31.5909399887
 12
368.1982657839
 22
31.5909399887
 13
368.1982657839
 23
31.5909399887
  0
SOLID
  8
0
 62
7
  6
CONTINUOUS
 10
358.4279530651
 20
31.5264129164
 11
358.9482655496
 21
31.6554670967
 12
358.7748280496
 22
31.5586757033
 13
358.7748280496
 23
31.5586757033
  0
SOLID
  8
0
 62
7
  6
CONTINUOUS
 10
358.7748280496
 20
31.5586757033
 11
358.7170155634
 21
31.4941486131
 12
358.4279530651
 22
31.5264129164
 13
358.4279530651
 23
31.5264129164
  0
SOLID
  8
0
 62
7
  6
CONTINUOUS
 10
358.3701405634
 20
31.3328301295
 11
358.4279530651
 21
31.5264129164
 12
358.7170155634
 22
31.4941486131
 13
358.7170155634
 23
31.4941486131
  0
SOLID
  8
0
 62
7
  6
CONTINUOUS
 10
363.2263905634
 20
31.4618858262
 11
363.5732655634
 21
31.4941485791
 12
364.2092032839
 22
31.4941485791
 13
364.2092032839
 23
31.4941485791
  0
SOLID
  8
0
 62
7
  6
CONTINUOUS
 10
363.2263905634
 20
31.4618858262
 11
364.2092032839
 21
31.4941485791
 12
362.9951404531
 22
31.397357926
 13
362.9951404531
 23
31.397357926
  0
SOLID
  8
0
 62
7
  6
CONTINUOUS
 10
362.9951404531
 20
31.397357926
 11
364.2092032839
 21
31.4941485791
 12
363.5732655634
 22
31.3650943988
 13
363.5732655634
 23
31.3650943988
  0
SOLID
  8
0
 62
7
  6
CONTINUOUS
 10
364.2092032839
 20
31.4941485791
 11
364.2092032839
 21
31.3650943988
 12
363.5732655634
 22
31.3650943988
 13
363.5732655634
 23
31.3650943988
  0
SOLID
  8
0
 62
7
  6
CONTINUOUS
 10
368.0248282839
 20
31.4618859165
 11
368.1982657839
 21
31.5909400065
 12
368.2560780634
 22
31.5264129164
 13
368.2560780634
 23
31.5264129164
  0
SOLID
  8
0
 62
7
  6
CONTINUOUS
 10
368.2560780634
 20
31.5264129164
 11
368.4295155634
 21
31.4618859165
 12
368.0248282839
 22
31.4618859165
 13
368.0248282839
 23
31.4618859165
  0
SOLID
  8
0
 62
7
  6
CONTINUOUS
 10
368.2560780634
 20
31.3650944328
 11
368.0248282839
 21
31.4618859165
 12
368.4295155634
 22
31.4618859165
 13
368.4295155634
 23
31.4618859165
  0
SOLID
  8
0
 62
7
  6
CONTINUOUS
 10
368.4295155634
 20
31.4618859165
 11
369.4123282839
 21
31.3005673426
 12
368.2560780634
 22
31.3650944328
 13
368.2560780634
 23
31.3650944328
  0
SOLID
  8
0
 62
7
  6
CONTINUOUS
 10
369.2388907839
 20
31.2037760287
 11
368.2560780634
 21
31.3650944328
 12
369.4123282839
 22
31.3005673426
 13
369.4123282839
 23
31.3005673426
  0
SOLID
  8
0
 62
7
  6
CONTINUOUS
 10
369.4123282839
 20
31.3005673426
 11
369.6435780634
 21
31.2037760287
 12
369.2388907839
 22
31.2037760287
 13
369.2388907839
 23
31.2037760287
  0
SOLID
  8
0
 62
7
  6
CONTINUOUS
 10
369.4123282839
 20
31.139248859
 11
369.2388907839
 21
31.2037760287
 12
369.6435780634
 22
31.2037760287
 13
369.6435780634
 23
31.2037760287
  0
SOLID
  8
0
 62
7
  6
CONTINUOUS
 10
369.4123282839
 20
31.139248859
 11
369.6435780634
 21
31.2037760287
 12
369.4701405634
 22
31.0747203105
 13
369.4701405634
 23
31.0747203105
  0
SOLID
  8
0
 62
7
  6
CONTINUOUS
 10
369.6435780634
 20
31.2037760287
 11
369.7592026223
 21
31.0747203105
 12
369.4701405634
 22
31.0747203105
 13
369.4701405634
 23
31.0747203105
  0
SOLID
  8
0
 62
7
  6
CONTINUOUS
 10
369.4123282839
 20
31.0101932257
 11
369.4701405634
 21
31.0747203105
 12
369.7592026223
 22
31.0747203105
 13
369.7592026223
 23
31.0747203105
  0
SOLID
  8
0
 62
7
  6
CONTINUOUS
 10
369.7592026223
 20
31.0747203105
 11
369.7592026223
 21
31.0101932257
 12
369.4123282839
 22
31.0101932257
 13
369.4123282839
 23
31.0101932257
  0
SOLID
  8
0
 62
7
  6
CONTINUOUS
 10
369.2967030634
 20
30.9779303754
 11
369.4123282839
 21
31.0101932257
 12
369.7592026223
 22
31.0101932257
 13
369.7592026223
 23
31.0101932257
  0
SOLID
  8
0
 62
7
  6
CONTINUOUS
 10
369.2967030634
 20
30.9779303754
 11
369.7592026223
 21
31.0101932257
 12
369.0654532839
 22
30.9456661409
 13
369.0654532839
 23
30.9456661409
  0
SOLID
  8
0
 62
7
  6
CONTINUOUS
 10
369.7592026223
 20
31.0101932257
 11
369.6435780634
 21
30.9134032852
 12
369.0654532839
 22
30.9456661409
 13
369.0654532839
 23
30.9456661409
  0
SOLID
  8
0
 62
7
  6
CONTINUOUS
 10
369.6435780634
 20
30.9134032852
 11
368.1982657839
 21
30.8811389819
 12
369.0654532839
 22
30.9456661409
 13
369.0654532839
 23
30.9456661409
  0
SOLID
  8
0
 62
7
  6
CONTINUOUS
 10
369.0654532839
 20
30.9456661409
 11
368.1982657839
 21
30.8811389819
 12
368.7185782839
 22
30.9456661409
 13
368.7185782839
 23
30.9456661409
  0
SOLID
  8
0
 62
7
  6
CONTINUOUS
 10
368.1982657839
 20
30.8811389819
 11
368.0248282839
 21
30.9456661409
 12
368.7185782839
 22
30.9456661409
 13
368.7185782839
 23
30.9456661409
  0
SOLID
  8
0
 62
7
  6
CONTINUOUS
 10
368.1982657839
 20
30.8811389819
 11
369.6435780634
 21
30.9134032852
 12
368.3717032839
 22
30.8488743522
 13
368.3717032839
 23
30.8488743522
  0
SOLID
  8
0
 62
7
  6
CONTINUOUS
 10
369.6435780634
 20
30.9134032852
 11
369.4123282839
 21
30.8488743522
 12
368.3717032839
 22
30.8488743522
 13
368.3717032839
 23
30.8488743522
  0
SOLID
  8
0
 62
7
  6
CONTINUOUS
 10
368.7185782839
 20
30.8166119713
 11
368.3717032839
 21
30.8488743522
 12
369.4123282839
 22
30.8488743522
 13
369.4123282839
 23
30.8488743522
  0
SOLID
  8
0
 62
7
  6
CONTINUOUS
 10
369.4123282839
 20
30.8488743522
 11
369.0654532839
 21
30.8166119713
 12
368.7185782839
 22
30.8166119713
 13
368.7185782839
 23
30.8166119713
  0
SOLID
  8
0
 62
7
  6
CONTINUOUS
 10
358.3701405634
 20
31.3328301295
 11
358.7170155634
 21
31.4941486131
 12
358.6592030565
 22
31.3650944328
 13
358.6592030565
 23
31.3650944328
  0
SOLID
  8
0
 62
7
  6
CONTINUOUS
 10
358.6592030565
 20
31.3650944328
 11
358.6592030565
 21
31.2683031351
 12
358.3701405634
 22
31.3328301295
 13
358.3701405634
 23
31.3328301295
  0
SOLID
  8
0
 62
7
  6
CONTINUOUS
 10
358.4279530651
 20
31.139248859
 11
358.3701405634
 21
31.3328301295
 12
358.6592030565
 22
31.2683031351
 13
358.6592030565
 23
31.2683031351
  0
SOLID
  8
0
 62
7
  6
CONTINUOUS
 10
358.6592030565
 20
31.2683031351
 11
358.7748280496
 21
31.1069845557
 12
358.4279530651
 22
31.139248859
 13
358.4279530651
 23
31.139248859
  0
SOLID
  8
0
 62
7
  6
CONTINUOUS
 10
358.5435780634
 20
31.0101931569
 11
358.4279530651
 21
31.139248859
 12
358.7748280496
 22
31.1069845557
 13
358.7748280496
 23
31.1069845557
  0
SOLID
  8
0
 62
7
  6
CONTINUOUS
 10
358.7748280496
 20
31.1069845557
 11
358.9482655496
 21
31.0101931569
 12
358.5435780634
 22
31.0101931569
 13
358.5435780634
 23
31.0101931569
  0
SOLID
  8
0
 62
7
  6
CONTINUOUS
 10
358.6592030565
 20
30.9456659241
 11
358.5435780634
 21
31.0101931569
 12
358.9482655496
 22
31.0101931569
 13
358.9482655496
 23
31.0101931569
  0
SOLID
  8
0
 62
7
  6
CONTINUOUS
 10
358.9482655496
 20
31.0101931569
 11
359.2951405909
 21
30.9456659241
 12
358.6592030565
 22
30.9456659241
 13
358.6592030565
 23
30.9456659241
  0
SOLID
  8
0
 62
7
  6
CONTINUOUS
 10
358.8326405772
 20
30.8811389819
 11
358.6592030565
 21
30.9456659241
 12
359.2951405909
 22
30.9456659241
 13
359.2951405909
 23
30.9456659241
  0
SOLID
  8
0
 62
7
  6
CONTINUOUS
 10
362.8795155634
 20
31.3328301325
 11
362.9951404531
 21
31.397357926
 12
363.5732655634
 22
31.3650944328
 13
363.5732655634
 23
31.3650944328
  0
SOLID
  8
0
 62
7
  6
CONTINUOUS
 10
363.5732655634
 20
31.3650944328
 11
363.3420154531
 21
31.3328301325
 12
362.8795155634
 22
31.3328301325
 13
362.8795155634
 23
31.3328301325
  0
SOLID
  8
0
 62
7
  6
CONTINUOUS
 10
362.7638906736
 20
31.2037759492
 11
362.8795155634
 21
31.3328301325
 12
363.3420154531
 22
31.3328301325
 13
363.3420154531
 23
31.3328301325
  0
SOLID
  8
0
 62
7
  6
CONTINUOUS
 10
363.1107656736
 20
31.2360394487
 11
362.7638906736
 21
31.2037759492
 12
363.2263905634
 22
31.3005673426
 13
363.2263905634
 23
31.3005673426
  0
SOLID
  8
0
 62
7
  6
CONTINUOUS
 10
362.7638906736
 20
31.2037759492
 11
363.3420154531
 21
31.3328301295
 12
363.2263905634
 22
31.3005673426
 13
363.2263905634
 23
31.3005673426
  0
SOLID
  8
0
 62
7
  6
CONTINUOUS
 10
363.1107656736
 20
31.2360394487
 11
363.0529530634
 21
31.139248859
 12
362.7638906736
 22
31.2037759492
 13
362.7638906736
 23
31.2037759492
  0
SOLID
  8
0
 62
7
  6
CONTINUOUS
 10
362.7638906736
 20
31.1069845557
 11
362.7638906736
 21
31.2037759492
 12
363.0529530634
 22
31.139248859
 13
363.0529530634
 23
31.139248859
  0
SOLID
  8
0
 62
7
  6
CONTINUOUS
 10
363.0529530634
 20
31.139248859
 11
363.0529530634
 21
31.0747202524
 12
362.7638906736
 22
31.1069845557
 13
362.7638906736
 23
31.1069845557
  0
SOLID
  8
0
 62
7
  6
CONTINUOUS
 10
362.8217029531
 20
30.9779303754
 11
362.7638906736
 21
31.1069845557
 12
363.0529530634
 22
31.0747202524
 13
363.0529530634
 23
31.0747202524
  0
SOLID
  8
0
 62
7
  6
CONTINUOUS
 10
364.2092032839
 20
31.1715120759
 11
364.4982653428
 21
31.0747202524
 12
364.1513903428
 22
31.1069845557
 13
364.1513903428
 23
31.1069845557
  0
SOLID
  8
0
 62
7
  6
CONTINUOUS
 10
363.9779528428
 20
31.0101931623
 11
364.1513903428
 21
31.1069845557
 12
364.4982653428
 22
31.0747202524
 13
364.4982653428
 23
31.0747202524
  0
SOLID
  8
0
 62
7
  6
CONTINUOUS
 10
363.9779528428
 20
31.0101931623
 11
364.4982653428
 21
31.0747202524
 12
364.2092032839
 22
30.9779303754
 13
364.2092032839
 23
30.9779303754
  0
SOLID
  8
0
 62
7
  6
CONTINUOUS
 10
364.4982653428
 20
31.0747202524
 11
364.5560782839
 21
30.9134032852
 12
364.2092032839
 22
30.9779303754
 13
364.2092032839
 23
30.9779303754
  0
SOLID
  8
0
 62
7
  6
CONTINUOUS
 10
364.2670155634
 20
30.8811389819
 11
364.2092032839
 21
30.9779303754
 12
364.5560782839
 22
30.9134032852
 13
364.5560782839
 23
30.9134032852
  0
SOLID
  8
0
 62
7
  6
CONTINUOUS
 10
364.2670155634
 20
30.8811389819
 11
364.5560782839
 21
30.9134032852
 12
364.3248278428
 22
30.816611867
 13
364.3248278428
 23
30.816611867
  0
SOLID
  8
0
 62
7
  6
CONTINUOUS
 10
364.5560782839
 20
30.9134032852
 11
364.6138905634
 21
30.816611867
 12
364.3248278428
 22
30.816611867
 13
364.3248278428
 23
30.816611867
  0
SOLID
  8
0
 62
7
  6
CONTINUOUS
 10
359.8732656185
 20
31.0424573076
 11
359.9310780634
 21
31.1392488159
 12
360.2201406185
 22
31.1392488159
 13
360.2201406185
 23
31.1392488159
  0
SOLID
  8
0
 62
7
  6
CONTINUOUS
 10
360.2201406185
 20
31.1392488159
 11
360.1623280082
 21
31.0101931623
 12
359.8732656185
 22
31.0424573076
 13
359.8732656185
 23
31.0424573076
  0
SOLID
  8
0
 62
7
  6
CONTINUOUS
 10
359.6998280358
 20
30.9779303754
 11
359.8732656185
 21
31.0424573076
 12
360.1623280082
 22
31.0101931623
 13
360.1623280082
 23
31.0101931623
  0
SOLID
  8
0
 62
7
  6
CONTINUOUS
 10
359.6998280358
 20
30.9779303754
 11
360.1623280082
 21
31.0101931623
 12
359.2951405909
 22
30.9456660721
 13
359.2951405909
 23
30.9456660721
  0
SOLID
  8
0
 62
7
  6
CONTINUOUS
 10
360.1623280082
 20
31.0101931623
 11
359.9888905082
 21
30.9134032852
 12
359.2951405909
 22
30.9456660721
 13
359.2951405909
 23
30.9456660721
  0
SOLID
  8
0
 62
7
  6
CONTINUOUS
 10
358.8326405772
 20
30.8811389819
 11
359.2951405909
 21
30.9456660721
 12
359.9888905082
 22
30.9134032852
 13
359.9888905082
 23
30.9134032852
  0
SOLID
  8
0
 62
7
  6
CONTINUOUS
 10
358.8326405772
 20
30.8811389819
 11
359.9888905082
 21
30.9134032852
 12
359.0060780772
 22
30.8488745775
 13
359.0060780772
 23
30.8488745775
  0
SOLID
  8
0
 62
7
  6
CONTINUOUS
 10
359.9888905082
 20
30.9134032852
 11
359.7576405634
 21
30.8488745775
 12
359.0060780772
 22
30.8488745775
 13
359.0060780772
 23
30.8488745775
  0
SOLID
  8
0
 62
7
  6
CONTINUOUS
 10
359.3529530358
 20
30.8166118918
 11
359.0060780772
 21
30.8488745775
 12
359.7576405634
 22
30.8488745775
 13
359.7576405634
 23
30.8488745775
  0
SOLID
  8
0
 62
7
  6
CONTINUOUS
 10
362.8217029531
 20
30.9779303754
 11
363.0529530634
 21
31.0747202524
 12
363.1107656736
 22
31.0101931623
 13
363.1107656736
 23
31.0101931623
  0
SOLID
  8
0
 62
7
  6
CONTINUOUS
 10
363.1107656736
 20
31.0101931623
 11
363.3420154531
 21
30.9456660721
 12
362.8217029531
 22
30.9779303754
 13
362.8217029531
 23
30.9779303754
  0
SOLID
  8
0
 62
7
  6
CONTINUOUS
 10
362.9951404531
 20
30.8811389819
 11
362.8217029531
 21
30.9779303754
 12
363.3420154531
 22
30.9456660721
 13
363.3420154531
 23
30.9456660721
  0
SOLID
  8
0
 62
7
  6
CONTINUOUS
 10
363.6888904531
 20
30.9456661188
 11
363.9779528428
 21
31.0101931623
 12
364.2092032839
 22
30.9779303754
 13
364.2092032839
 23
30.9779303754
  0
SOLID
  8
0
 62
7
  6
CONTINUOUS
 10
364.2092032839
 20
30.9779303754
 11
364.1513903428
 21
30.9134032852
 12
363.6888904531
 22
30.9456661188
 13
363.6888904531
 23
30.9456661188
  0
SOLID
  8
0
 62
7
  6
CONTINUOUS
 10
364.1513903428
 20
30.9134032852
 11
362.9951404531
 21
30.8811389819
 12
363.6888904531
 22
30.9456661188
 13
363.6888904531
 23
30.9456661188
  0
SOLID
  8
0
 62
7
  6
CONTINUOUS
 10
362.9951404531
 20
30.8811389819
 11
363.3420154531
 21
30.9456661188
 12
363.6888904531
 22
30.9456661188
 13
363.6888904531
 23
30.9456661188
  0
SOLID
  8
0
 62
7
  6
CONTINUOUS
 10
362.9951404531
 20
30.8811389819
 11
364.1513903428
 21
30.9134032852
 12
363.1107656736
 22
30.8488747093
 13
363.1107656736
 23
30.8488747093
  0
SOLID
  8
0
 62
7
  6
CONTINUOUS
 10
364.1513903428
 20
30.9134032852
 11
363.9779528428
 21
30.8488747093
 12
363.1107656736
 22
30.8488747093
 13
363.1107656736
 23
30.8488747093
  0
SOLID
  8
0
 62
7
  6
CONTINUOUS
 10
363.3420154531
 20
30.816611874
 11
363.1107656736
 21
30.8488747093
 12
363.9779528428
 22
30.8488747093
 13
363.9779528428
 23
30.8488747093
  0
SOLID
  8
0
 62
7
  6
CONTINUOUS
 10
363.9779528428
 20
30.8488747093
 11
363.6888904531
 21
30.816611874
 12
363.3420154531
 22
30.816611874
 13
363.3420154531
 23
30.816611874
  0
SOLID
  8
0
 62
7
  6
CONTINUOUS
 10
368.3717032839
 20
30.9779303754
 11
368.0248282839
 21
30.9456661188
 12
368.2560780634
 22
31.0101931623
 13
368.2560780634
 23
31.0101931623
  0
SOLID
  8
0
 62
7
  6
CONTINUOUS
 10
368.2560780634
 20
31.0101931623
 11
368.0248282839
 21
30.9456661188
 12
368.1982657839
 22
31.0747202992
 13
368.1982657839
 23
31.0747202992
  0
SOLID
  8
0
 62
7
  6
CONTINUOUS
 10
368.0248282839
 20
30.9456661188
 11
367.9092030634
 21
31.0747202992
 12
368.1982657839
 22
31.0747202992
 13
368.1982657839
 23
31.0747202992
  0
SOLID
  8
0
 62
7
  6
CONTINUOUS
 10
368.3717032839
 20
30.9779303754
 11
368.7185782839
 21
30.9456661188
 12
368.0248282839
 22
30.9456661188
 13
368.0248282839
 23
30.9456661188
  0
SOLID
  8
0
 62
7
  6
CONTINUOUS
 10
365.0763907839
 20
30.8166118918
 11
365.0763907839
 21
31.8490498836
 12
365.3654528428
 22
30.8166118918
 13
365.3654528428
 23
31.8490498836
  0
ENDBLK
  8
0
  6
BYBLOCK
 62
0
  0
BLOCK
  8
0
 62
2
  6
CONTINUOUS
  2
SYMBOL_0_BL0
 70
64
 10
241.0459637928
 20
19.6790146053
  0
TEXT
  8
0
 62
7
  6
CONTINUOUS
 10
227.3106676351
 20
19.0524287129
  7
TEXTSTYLE_3
 40
2.7338706658
  1
Ammeraal Beltech
 41
1.0
 51
15.0
 72
0
  0
TEXT
  8
0
 62
7
  6
CONTINUOUS
 10
238.1114684608
 20
16.7788920401
  7
TEXTSTYLE_4
 40
1.0935482663
  1
Innovation & Service in Belting
 41
1.0
 72
0
  0
LINE
  8
0
 62
7
  6
CONTINUOUS
 10
221.2861269837
 20
19.8190220215
 11
222.0642789771
 21
23.4799393191
  0
LINE
  8
0
 62
7
  6
CONTINUOUS
 10
232.1594472669
 20
27.1433332308
 11
222.5520967201
 21
24.0217158095
  0
LINE
  8
0
 62
7
  6
CONTINUOUS
 10
221.511410316
 20
19.1256712184
 11
229.0184855772
 21
12.3662702925
  0
LINE
  8
0
 62
7
  6
CONTINUOUS
 10
221.7739447268
 20
20.3607985118
 11
232.5822140919
 21
23.8726181108
  0
LINE
  8
0
 62
7
  6
CONTINUOUS
 10
232.5780089548
 20
13.522829547
 11
224.132549286
 21
21.1271555887
  0
LINE
  8
0
 62
7
  6
CONTINUOUS
 10
233.0978316746
 20
26.298408115
 11
232.1212721373
 21
21.7040567125
  0
LINE
  8
0
 62
7
  6
CONTINUOUS
 10
231.4214701896
 20
18.4117473987
 11
230.7350219782
 21
15.1822624744
  0
LINE
  8
0
 62
7
  6
CONTINUOUS
 10
233.7789277731
 20
13.9130317247
 11
234.7351593087
 21
18.4117473987
  0
LINE
  8
0
 62
7
  6
CONTINUOUS
 10
235.4349612564
 20
21.7040567125
 11
235.8792030588
 21
23.7940500719
  0
LINE
  8
0
 62
7
  6
CONTINUOUS
 10
229.7315866525
 20
12.2146959798
 11
233.2911100301
 21
13.3712552343
  0
LINE
  8
0
 62
7
  6
CONTINUOUS
 10
232.8725483422
 20
26.9917589181
 11
235.6539197265
 21
24.487400875
  0
ARC
  8
0
 62
7
  6
CONTINUOUS
 10
222.7773800524
 20
23.3283650064
 40
0.7290321776
 50
108.0
 51
168.0
  0
ARC
  8
0
 62
7
  6
CONTINUOUS
 10
232.3847305992
 20
26.4499824277
 40
0.7290321776
 50
348.0
 51
108.0
  0
ARC
  8
0
 62
7
  6
CONTINUOUS
 10
235.1661019835
 20
23.9456243846
 40
0.7290321776
 50
348.0
 51
48.0
  0
ARC
  8
0
 62
7
  6
CONTINUOUS
 10
229.5063033202
 20
12.9080467828
 40
0.7290321776
 50
228.0
 51
288.0
  0
ARC
  8
0
 62
7
  6
CONTINUOUS
 10
221.9992280591
 20
19.6674477088
 40
0.7290321776
 50
108.0
 51
228.0
  0
ARC
  8
0
 62
7
  6
CONTINUOUS
 10
233.0658266978
 20
14.0646060374
 40
0.7290321776
 50
228.0
 51
348.0
  0
ENDBLK
  8
0
  6
BYBLOCK
 62
0
  0
ENDSEC
  0
SECTION
  2
ENTITIES
  0
TEXT
  8
0
 62
5
  6
CONTINUOUS
 10
304.937007874
 20
25.636
  7
TEXTSTYLE_2
 40
2.8
  1
Scale :
 41
0.6
 51
0.000019
 72
0
  0
TEXT
  8
0
 62
5
  6
CONTINUOUS
 10
324.937007874
 20
25.636
  7
TEXTSTYLE_2
 40
2.8
  1
Chain type:
 41
0.6
 51
0.000019
 72
0
  0
INSERT
  8
0
 62
2
  6
CONTINUOUS
  2
SYMBOL_0_BL0
 10
241.0459637928
 20
19.6790146053
  0
INSERT
  8
0
 62
2
  6
CONTINUOUS
  2
SYMBOL_5_BL1
 10
382.3920721743
 20
35.81661148
  0
LINE
  8
0
 62
2
  6
CONTINUOUS
 10
218.937007874
 20
30.0
 11
408.937007874
 21
30.0
  0
LINE
  8
0
 62
2
  6
CONTINUOUS
 10
218.937007874
 20
30.0
 11
218.937007874
 21
10.0
  0
LINE
  8
0
 62
2
  6
CONTINUOUS
 10
218.937007874
 20
10.0
 11
408.937007874
 21
10.0
  0
LINE
  8
0
 62
2
  6
CONTINUOUS
 10
303.937007874
 20
30.0
 11
303.937007874
 21
10.0
  0
LINE
  8
0
 62
2
  6
CONTINUOUS
 10
323.937007874
 20
30.0
 11
323.937007874
 21
10.0
  0
LINE
  8
0
 62
2
  6
CONTINUOUS
 10
408.937007874
 20
30.0
 11
408.937007874
 21
10.0
  0
TEXT
  8
0
 62
5
  6
CONTINUOUS
 10
221.937007874
 20
23.303
  7
TEXTSTYLE_5
 40
1.52
  1
                                                                     Ammeraal Beltech Modular A/S
 41
1.0
 72
0
  0
TEXT
  8
0
 62
5
  6
CONTINUOUS
 10
221.937007874
 20
20.595
  7
TEXTSTYLE_5
 40
1.5
  1
                                                                      Hjulmagervej 21, 7100 Vejle,  DK
 41
1.0
 72
0
  0
TEXT
  8
0
 62
5
  6
CONTINUOUS
 10
221.937007874
 20
17.881
  7
TEXTSTYLE_5
 40
1.495
  1
                                                                      tel: 
 41
1.0
 72
0
  0
TEXT
  8
0
 62
5
  6
CONTINUOUS
 10
266.9239544389
 20
17.881
  7
TEXTSTYLE_5
 40
1.51
  1
+45 75723100     fax: +45 75723348
 41
1.0
 72
0
  0
TEXT
  8
0
 62
5
  6
CONTINUOUS
 10
221.937007874
 20
15.177
  7
TEXTSTYLE_5
 40
1.5
  1
                                                                      admin@unichains.dk  www.unichains.com
 41
1.0
 72
0
  0
TEXT
  8
0
 62
5
  6
CONTINUOUS
 10
308.687007874
 20
13.75
  7
TEXTSTYLE_6
 40
5.0
  1
1:1
 41
0.7
 72
1
 11
313.937007874
 21
13.75
  0
TEXT
  8
0
 62
5
  6
CONTINUOUS
 10
326.937007874
 20
13.75
  7
TEXTSTYLE_7
 40
7.5
  1
Sprocket Z10
 41
0.6361111111
 72
0
  0
LINE
  8
0
 62
7
  6
CONTINUOUS
 10
0.0
 20
0.0
 11
0.0
 21
297.0
  0
LINE
  8
0
 62
7
  6
CONTINUOUS
 10
8.937007874
 20
10.0
 11
8.937007874
 21
287.0
  0
LINE
  8
0
 62
7
  6
CONTINUOUS
 10
0.0
 20
0.0
 11
420.0
 21
0.0
  0
LINE
  8
0
 62
7
  6
CONTINUOUS
 10
408.937007874
 20
10.0
 11
8.937007874
 21
10.0
  0
LINE
  8
0
 62
7
  6
CONTINUOUS
 10
218.937007874
 20
30.0
 11
408.937007874
 21
30.0
  0
LINE
  8
0
 62
7
  6
CONTINUOUS
 10
210.0
 20
297.0
 11
210.0
 21
292.0
  0
LINE
  8
0
 62
7
  6
CONTINUOUS
 10
210.0
 20
0.0
 11
210.0
 21
5.0
  0
LINE
  8
0
 62
7
  6
CONTINUOUS
 10
8.937007874
 20
287.0
 11
408.937007874
 21
287.0
  0
LINE
  8
0
 62
7
  6
CONTINUOUS
 10
0.0
 20
297.0
 11
420.0
 21
297.0
  0
LINE
  8
0
 62
7
  6
CONTINUOUS
 10
408.937007874
 20
287.0
 11
408.937007874
 21
10.0
  0
LINE
  8
0
 62
7
  6
CONTINUOUS
 10
420.0
 20
0.0
 11
420.0
 21
297.0
  0
POLYLINE
  8
0
 62
9
  6
CONTINUOUS
 66
1
 70
0
  0
VERTEX
  8
0
 62
9
  6
CONTINUOUS
 10
50.1077042832
 20
189.264671106
  0
VERTEX
  8
0
 62
9
  6
CONTINUOUS
 10
49.0015184368
 20
186.3127552032
  0
VERTEX
  8
0
 62
9
  6
CONTINUOUS
 10
47.9834829737
 20
183.3304223746
  0
VERTEX
  8
0
 62
9
  6
CONTINUOUS
 10
47.0535978938
 20
180.3176726203
  0
VERTEX
  8
0
 62
9
  6
CONTINUOUS
 10
46.2118631971
 20
177.2745059402
  0
SEQEND
  0
POLYLINE
  8
0
 62
9
  6
CONTINUOUS
 66
1
 70
0
  0
VERTEX
  8
0
 62
9
  6
CONTINUOUS
 10
81.4300547833
 20
232.3761884211
  0
VERTEX
  8
0
 62
9
  6
CONTINUOUS
 10
83.8976242167
 20
234.3418503598
  0
VERTEX
  8
0
 62
9
  6
CONTINUOUS
 10
86.4200546788
 20
236.2321259135
  0
VERTEX
  8
0
 62
9
  6
CONTINUOUS
 10
88.9973461697
 20
238.0470150821
  0
VERTEX
  8
0
 62
9
  6
CONTINUOUS
 10
91.6294986894
 20
239.7865178658
  0
SEQEND
  0
POLYLINE
  8
0
 62
9
  6
CONTINUOUS
 66
1
 70
0
  0
VERTEX
  8
0
 62
9
  6
CONTINUOUS
 10
142.3101265737
 20
45.0065938175
  0
VERTEX
  8
0
 62
9
  6
CONTINUOUS
 10
145.4606781074
 20
44.8667407089
  0
VERTEX
  8
0
 62
9
  6
CONTINUOUS
 10
148.6120629212
 20
44.8201229639
  0
VERTEX
  8
0
 62
9
  6
CONTINUOUS
 10
151.7642810151
 20
44.8667405828
  0
VERTEX
  8
0
 62
9
  6
CONTINUOUS
 10
154.9173323891
 20
45.0065935653
  0
SEQEND
  0
POLYLINE
  8
0
 62
9
  6
CONTINUOUS
 66
1
 70
0
  0
VERTEX
  8
0
 62
9
  6
CONTINUOUS
 10
81.4300548883
 20
68.8840577163
  0
VERTEX
  8
0
 62
9
  6
CONTINUOUS
 10
83.8957884244
 20
66.919729523
  0
VERTEX
  8
0
 62
9
  6
CONTINUOUS
 10
86.4176068714
 20
65.029898483
  0
VERTEX
  8
0
 62
9
  6
CONTINUOUS
 10
88.9955102291
 20
63.2145645964
  0
VERTEX
  8
0
 62
9
  6
CONTINUOUS
 10
91.6294984976
 20
61.4737278632
  0
SEQEND
  0
POLYLINE
  8
0
 62
9
  6
CONTINUOUS
 66
1
 70
0
  0
VERTEX
  8
0
 62
9
  6
CONTINUOUS
 10
46.2118634178
 20
123.9857400889
  0
VERTEX
  8
0
 62
9
  6
CONTINUOUS
 10
47.0518683785
 20
120.947896646
  0
VERTEX
  8
0
 62
9
  6
CONTINUOUS
 10
47.9811768008
 20
117.9369212784
  0
VERTEX
  8
0
 62
9
  6
CONTINUOUS
 10
48.9997886845
 20
114.9528139861
  0
VERTEX
  8
0
 62
9
  6
CONTINUOUS
 10
50.1077040298
 20
111.995574769
  0
SEQEND
  0
LINE
  8
0
 62
9
  6
CONTINUOUS
 10
50.3182686149
 20
110.0066894396
 11
50.1092116884
 21
111.9957332303
  0
LINE
  8
0
 62
9
  6
CONTINUOUS
 10
53.6619297583
 20
110.3581223871
 11
53.4528728318
 21
112.3471661778
  0
LINE
  8
0
 62
9
  6
CONTINUOUS
 10
50.3182686149
 20
191.253556462
 11
50.1092116883
 21
189.2645126713
  0
LINE
  8
0
 62
9
  6
CONTINUOUS
 10
53.6619297583
 20
190.9021235146
 11
53.4528728311
 21
188.9130797246
  0
LINE
  8
0
 62
9
  6
CONTINUOUS
 10
45.2131760602
 20
175.5416971508
 11
46.2131760602
 21
177.2737479583
  0
LINE
  8
0
 62
9
  6
CONTINUOUS
 10
48.1248218523
 20
173.8606576689
 11
49.1248218523
 21
175.5927084765
  0
LINE
  8
0
 62
9
  6
CONTINUOUS
 10
92.968886291
 20
241.2717933117
 11
91.6306250782
 21
239.7855036607
  0
LINE
  8
0
 62
9
  6
CONTINUOUS
 10
95.4673978757
 20
239.022123376
 11
94.1291366629
 21
237.535833726
  0
LINE
  8
0
 62
9
  6
CONTINUOUS
 10
79.6035804671
 20
231.5613302308
 11
81.4306713824
 21
232.374803517
  0
LINE
  8
0
 62
9
  6
CONTINUOUS
 10
80.9710611786
 20
228.4899182652
 11
82.7981520939
 21
229.3033915514
  0
LINE
  8
0
 62
9
  6
CONTINUOUS
 10
140.353516239
 20
44.5922530212
 11
142.3098114405
 21
45.0080764028
  0
LINE
  8
0
 62
9
  6
CONTINUOUS
 10
139.654500717
 20
47.880862493
 11
141.6107959179
 21
48.2966858738
  0
LINE
  8
0
 62
9
  6
CONTINUOUS
 10
156.8739427774
 20
44.5922530212
 11
154.9176475759
 21
45.0080764028
  0
LINE
  8
0
 62
9
  6
CONTINUOUS
 10
157.5729582994
 20
47.880862493
 11
155.6166630979
 21
48.2966858747
  0
LINE
  8
0
 62
9
  6
CONTINUOUS
 10
79.6035804671
 20
69.6989156708
 11
81.4306713824
 21
68.8854423847
  0
LINE
  8
0
 62
9
  6
CONTINUOUS
 10
80.9710611786
 20
72.7703276364
 11
82.798152093
 21
71.9568543499
  0
LINE
  8
0
 62
9
  6
CONTINUOUS
 10
92.968886291
 20
59.98845259
 11
91.6306250783
 21
61.474742241
  0
LINE
  8
0
 62
9
  6
CONTINUOUS
 10
95.4673978757
 20
62.2381225256
 11
94.129136663
 21
63.7244121766
  0
LINE
  8
0
 62
9
  6
CONTINUOUS
 10
45.2131760602
 20
125.7185487509
 11
46.2131760602
 21
123.9864979433
  0
LINE
  8
0
 62
9
  6
CONTINUOUS
 10
48.1248218523
 20
127.3995882328
 11
49.1248218514
 21
125.6675374254
  0
POLYLINE
  8
0
 62
9
  6
CONTINUOUS
 66
1
 70
0
  0
VERTEX
  8
0
 62
9
  6
CONTINUOUS
 10
79.3838266431
 20
69.2053405008
  0
VERTEX
  8
0
 62
9
  6
CONTINUOUS
 10
79.3910809343
 20
69.1325794212
  0
VERTEX
  8
0
 62
9
  6
CONTINUOUS
 10
79.4642508828
 20
69.0329893195
  0
VERTEX
  8
0
 62
9
  6
CONTINUOUS
 10
79.6006862272
 20
68.9101774134
  0
VERTEX
  8
0
 62
9
  6
CONTINUOUS
 10
79.7954451928
 20
68.7685920288
  0
VERTEX
  8
0
 62
9
  6
CONTINUOUS
 10
80.0414734867
 20
68.6133614787
  0
VERTEX
  8
0
 62
9
  6
CONTINUOUS
 10
80.3298598077
 20
68.4501083121
  0
VERTEX
  8
0
 62
9
  6
CONTINUOUS
 10
80.6501586204
 20
68.2847456623
  0
VERTEX
  8
0
 62
9
  6
CONTINUOUS
 10
80.9907684981
 20
68.1232630691
  0
SEQEND
  0
POLYLINE
  8
0
 62
9
  6
CONTINUOUS
 66
1
 70
0
  0
VERTEX
  8
0
 62
9
  6
CONTINUOUS
 10
77.0772290842
 20
64.024637561
  0
VERTEX
  8
0
 62
9
  6
CONTINUOUS
 10
77.0828703601
 20
63.9470866575
  0
VERTEX
  8
0
 62
9
  6
CONTINUOUS
 10
77.1577863461
 20
63.8515579735
  0
VERTEX
  8
0
 62
9
  6
CONTINUOUS
 10
77.2939146382
 20
63.7285138385
  0
VERTEX
  8
0
 62
9
  6
CONTINUOUS
 10
77.4898279176
 20
63.586267768
  0
VERTEX
  8
0
 62
9
  6
CONTINUOUS
 10
77.7363637476
 20
63.4309381096
  0
VERTEX
  8
0
 62
9
  6
CONTINUOUS
 10
78.0255429507
 20
63.2669662105
  0
VERTEX
  8
0
 62
9
  6
CONTINUOUS
 10
78.3498884732
 20
63.1049923267
  0
VERTEX
  8
0
 62
9
  6
CONTINUOUS
 10
78.6877935552
 20
62.9396296985
  0
SEQEND
  0
POLYLINE
  8
0
 62
9
  6
CONTINUOUS
 66
1
 70
0
  0
VERTEX
  8
0
 62
9
  6
CONTINUOUS
 10
77.0772290869
 20
237.2356083345
  0
VERTEX
  8
0
 62
9
  6
CONTINUOUS
 10
77.0828721588
 20
237.3131661248
  0
VERTEX
  8
0
 62
9
  6
CONTINUOUS
 10
77.1577976996
 20
237.4086999918
  0
VERTEX
  8
0
 62
9
  6
CONTINUOUS
 10
77.2939377299
 20
237.5317501838
  0
VERTEX
  8
0
 62
9
  6
CONTINUOUS
 10
77.489861148
 20
237.6740005343
  0
VERTEX
  8
0
 62
9
  6
CONTINUOUS
 10
77.7364008179
 20
237.8293293271
  0
VERTEX
  8
0
 62
9
  6
CONTINUOUS
 10
78.0255751058
 20
237.9932970616
  0
VERTEX
  8
0
 62
9
  6
CONTINUOUS
 10
78.349908149
 20
238.155263779
  0
VERTEX
  8
0
 62
9
  6
CONTINUOUS
 10
78.6877935552
 20
238.3206162031
  0
SEQEND
  0
POLYLINE
  8
0
 62
9
  6
CONTINUOUS
 66
1
 70
0
  0
VERTEX
  8
0
 62
9
  6
CONTINUOUS
 10
79.3838266431
 20
232.0549054009
  0
VERTEX
  8
0
 62
9
  6
CONTINUOUS
 10
79.3910800025
 20
232.1276662103
  0
VERTEX
  8
0
 62
9
  6
CONTINUOUS
 10
79.464249265
 20
232.2272561902
  0
VERTEX
  8
0
 62
9
  6
CONTINUOUS
 10
79.6006841843
 20
232.3500681156
  0
VERTEX
  8
0
 62
9
  6
CONTINUOUS
 10
79.7954429836
 20
232.4916536449
  0
VERTEX
  8
0
 62
9
  6
CONTINUOUS
 10
80.0414713507
 20
232.6468844424
  0
VERTEX
  8
0
 62
9
  6
CONTINUOUS
 10
80.3298579506
 20
232.8101379302
  0
VERTEX
  8
0
 62
9
  6
CONTINUOUS
 10
80.650157201
 20
232.9755009426
  0
VERTEX
  8
0
 62
9
  6
CONTINUOUS
 10
80.9907676189
 20
233.1369839054
  0
SEQEND
  0
POLYLINE
  8
0
 62
9
  6
CONTINUOUS
 66
1
 70
0
  0
VERTEX
  8
0
 62
9
  6
CONTINUOUS
 10
44.7452752761
 20
125.4484061072
  0
VERTEX
  8
0
 62
9
  6
CONTINUOUS
 10
44.7083762315
 20
125.3852771919
  0
VERTEX
  8
0
 62
9
  6
CONTINUOUS
 10
44.7090343703
 20
125.2616988905
  0
VERTEX
  8
0
 62
9
  6
CONTINUOUS
 10
44.7472258552
 20
125.0821472881
  0
VERTEX
  8
0
 62
9
  6
CONTINUOUS
 10
44.8215673673
 20
124.853125858
  0
VERTEX
  8
0
 62
9
  6
CONTINUOUS
 10
44.92936621
 20
124.5829299021
  0
VERTEX
  8
0
 62
9
  6
CONTINUOUS
 10
45.066717841
 20
124.2813460895
  0
VERTEX
  8
0
 62
9
  6
CONTINUOUS
 10
45.2286472969
 20
123.9592979772
  0
VERTEX
  8
0
 62
9
  6
CONTINUOUS
 10
45.4092893897
 20
123.6284503521
  0
SEQEND
  0
POLYLINE
  8
0
 62
9
  6
CONTINUOUS
 66
1
 70
0
  0
VERTEX
  8
0
 62
9
  6
CONTINUOUS
 10
39.8340578673
 20
122.6129134142
  0
VERTEX
  8
0
 62
9
  6
CONTINUOUS
 10
39.793038478
 20
122.5468575566
  0
VERTEX
  8
0
 62
9
  6
CONTINUOUS
 10
39.7974964322
 20
122.425538716
  0
VERTEX
  8
0
 62
9
  6
CONTINUOUS
 10
39.835303006
 20
122.2459797173
  0
VERTEX
  8
0
 62
9
  6
CONTINUOUS
 10
39.910190036
 20
122.0157452924
  0
VERTEX
  8
0
 62
9
  6
CONTINUOUS
 10
40.0183412297
 20
121.745170834
  0
VERTEX
  8
0
 62
9
  6
CONTINUOUS
 10
40.1559118554
 20
121.4425395102
  0
VERTEX
  8
0
 62
9
  6
CONTINUOUS
 10
40.323107035
 20
121.1208543708
  0
VERTEX
  8
0
 62
9
  6
CONTINUOUS
 10
40.4992802747
 20
120.7884575705
  0
SEQEND
  0
POLYLINE
  8
0
 62
9
  6
CONTINUOUS
 66
1
 70
0
  0
VERTEX
  8
0
 62
9
  6
CONTINUOUS
 10
141.6449120254
 20
262.7435323806
  0
VERTEX
  8
0
 62
9
  6
CONTINUOUS
 10
141.6950646918
 20
262.8029610365
  0
VERTEX
  8
0
 62
9
  6
CONTINUOUS
 10
141.8118341258
 20
262.8362094306
  0
VERTEX
  8
0
 62
9
  6
CONTINUOUS
 10
141.994300812
 20
262.855738025
  0
VERTEX
  8
0
 62
9
  6
CONTINUOUS
 10
142.236418845
 20
262.8556600802
  0
VERTEX
  8
0
 62
9
  6
CONTINUOUS
 10
142.5271736014
 20
262.8364113313
  0
VERTEX
  8
0
 62
9
  6
CONTINUOUS
 10
142.8574983309
 20
262.7990916333
  0
VERTEX
  8
0
 62
9
  6
CONTINUOUS
 10
143.2150909225
 20
262.7394872806
  0
VERTEX
  8
0
 62
9
  6
CONTINUOUS
 10
143.5856376746
 20
262.674656143
  0
SEQEND
  0
POLYLINE
  8
0
 62
9
  6
CONTINUOUS
 66
1
 70
0
  0
VERTEX
  8
0
 62
9
  6
CONTINUOUS
 10
140.4658478666
 20
257.196471638
  0
VERTEX
  8
0
 62
9
  6
CONTINUOUS
 10
140.5144836884
 20
257.2510729517
  0
VERTEX
  8
0
 62
9
  6
CONTINUOUS
 10
140.6322163868
 20
257.2886351244
  0
VERTEX
  8
0
 62
9
  6
CONTINUOUS
 10
140.8147815936
 20
257.3077976257
  0
VERTEX
  8
0
 62
9
  6
CONTINUOUS
 10
141.0555666581
 20
257.3078663751
  0
VERTEX
  8
0
 62
9
  6
CONTINUOUS
 10
141.3458501616
 20
257.2888388825
  0
VERTEX
  8
0
 62
9
  6
CONTINUOUS
 10
141.6751178145
 20
257.2514043381
  0
VERTEX
  8
0
 62
9
  6
CONTINUOUS
 10
142.0314432913
 20
257.1969186497
  0
VERTEX
  8
0
 62
9
  6
CONTINUOUS
 10
142.4019202118
 20
257.1273553305
  0
SEQEND
  0
POLYLINE
  8
0
 62
9
  6
CONTINUOUS
 66
1
 70
0
  0
VERTEX
  8
0
 62
9
  6
CONTINUOUS
 10
49.7809430669
 20
191.3100316528
  0
VERTEX
  8
0
 62
9
  6
CONTINUOUS
 10
49.7139848673
 20
191.2806480018
  0
VERTEX
  8
0
 62
9
  6
CONTINUOUS
 10
49.6418798097
 20
191.1802842115
  0
VERTEX
  8
0
 62
9
  6
CONTINUOUS
 10
49.5672395862
 20
191.0125755221
  0
VERTEX
  8
0
 62
9
  6
CONTINUOUS
 10
49.4927677137
 20
190.7835964488
  0
VERTEX
  8
0
 62
9
  6
CONTINUOUS
 10
49.4211616114
 20
190.5016407587
  0
VERTEX
  8
0
 62
9
  6
CONTINUOUS
 10
49.3550148977
 20
190.176921066
  0
VERTEX
  8
0
 62
9
  6
CONTINUOUS
 10
49.2967234484
 20
189.821198924
  0
VERTEX
  8
0
 62
9
  6
CONTINUOUS
 10
49.2483986166
 20
189.4473588146
  0
SEQEND
  0
POLYLINE
  8
0
 62
9
  6
CONTINUOUS
 66
1
 70
0
  0
VERTEX
  8
0
 62
9
  6
CONTINUOUS
 10
44.1410239322
 20
191.9028110405
  0
VERTEX
  8
0
 62
9
  6
CONTINUOUS
 10
44.0690118901
 20
191.8734813212
  0
VERTEX
  8
0
 62
9
  6
CONTINUOUS
 10
44.0013090256
 20
191.7727119977
  0
VERTEX
  8
0
 62
9
  6
CONTINUOUS
 10
43.9263530549
 20
191.6052235697
  0
VERTEX
  8
0
 62
9
  6
CONTINUOUS
 10
43.8516095354
 20
191.3749425155
  0
VERTEX
  8
0
 62
9
  6
CONTINUOUS
 10
43.7800660127
 20
191.0924735037
  0
VERTEX
  8
0
 62
9
  6
CONTINUOUS
 10
43.7134807578
 20
190.7667776348
  0
VERTEX
  8
0
 62
9
  6
CONTINUOUS
 10
43.6596627187
 20
190.4082540294
  0
VERTEX
  8
0
 62
9
  6
CONTINUOUS
 10
43.6068119264
 20
190.0357873369
  0
SEQEND
  0
POLYLINE
  8
0
 62
9
  6
CONTINUOUS
 66
1
 70
0
  0
VERTEX
  8
0
 62
9
  6
CONTINUOUS
 10
88.3530126354
 20
55.8323012826
  0
VERTEX
  8
0
 62
9
  6
CONTINUOUS
 10
88.2775069885
 20
55.8137014876
  0
VERTEX
  8
0
 62
9
  6
CONTINUOUS
 10
88.1634956163
 20
55.855438323
  0
VERTEX
  8
0
 62
9
  6
CONTINUOUS
 10
88.0043983464
 20
55.9468905855
  0
VERTEX
  8
0
 62
9
  6
CONTINUOUS
 10
87.8085665578
 20
56.0892670532
  0
VERTEX
  8
0
 62
9
  6
CONTINUOUS
 10
87.5846551495
 20
56.275740976
  0
VERTEX
  8
0
 62
9
  6
CONTINUOUS
 10
87.3393527978
 20
56.5000932504
  0
VERTEX
  8
0
 62
9
  6
CONTINUOUS
 10
87.0850888736
 20
56.7585018364
  0
VERTEX
  8
0
 62
9
  6
CONTINUOUS
 10
86.8234170405
 20
57.0287532446
  0
SEQEND
  0
POLYLINE
  8
0
 62
9
  6
CONTINUOUS
 66
1
 70
0
  0
VERTEX
  8
0
 62
9
  6
CONTINUOUS
 10
92.5673760754
 20
59.6269311681
  0
VERTEX
  8
0
 62
9
  6
CONTINUOUS
 10
92.4959350221
 20
59.6113451962
  0
VERTEX
  8
0
 62
9
  6
CONTINUOUS
 10
92.3786087772
 20
59.6501583039
  0
VERTEX
  8
0
 62
9
  6
CONTINUOUS
 10
92.2196469866
 20
59.7419646509
  0
VERTEX
  8
0
 62
9
  6
CONTINUOUS
 10
92.0248073675
 20
59.8834389413
  0
VERTEX
  8
0
 62
9
  6
CONTINUOUS
 10
91.8011471596
 20
60.0694568685
  0
VERTEX
  8
0
 62
9
  6
CONTINUOUS
 10
91.5567675058
 20
60.2932807215
  0
VERTEX
  8
0
 62
9
  6
CONTINUOUS
 10
91.3005200236
 20
60.5468034297
  0
VERTEX
  8
0
 62
9
  6
CONTINUOUS
 10
91.0416861921
 20
60.8208422073
  0
SEQEND
  0
POLYLINE
  8
0
 62
9
  6
CONTINUOUS
 66
1
 70
0
  0
VERTEX
  8
0
 62
9
  6
CONTINUOUS
 10
204.660082941
 20
59.6269311681
  0
VERTEX
  8
0
 62
9
  6
CONTINUOUS
 10
204.7315245391
 20
59.6113459989
  0
VERTEX
  8
0
 62
9
  6
CONTINUOUS
 10
204.8488511119
 20
59.6501597214
  0
VERTEX
  8
0
 62
9
  6
CONTINUOUS
 10
205.0078130155
 20
59.7419664786
  0
VERTEX
  8
0
 62
9
  6
CONTINUOUS
 10
205.2026525483
 20
59.883440972
  0
VERTEX
  8
0
 62
9
  6
CONTINUOUS
 10
205.4263124984
 20
60.069458906
  0
VERTEX
  8
0
 62
9
  6
CONTINUOUS
 10
205.6706917604
 20
60.293282593
  0
VERTEX
  8
0
 62
9
  6
CONTINUOUS
 10
205.9269387625
 20
60.5468049969
  0
VERTEX
  8
0
 62
9
  6
CONTINUOUS
 10
206.1857720757
 20
60.8208433751
  0
SEQEND
  0
POLYLINE
  8
0
 62
9
  6
CONTINUOUS
 66
1
 70
0
  0
VERTEX
  8
0
 62
9
  6
CONTINUOUS
 10
208.8744463859
 20
55.8323012781
  0
VERTEX
  8
0
 62
9
  6
CONTINUOUS
 10
208.9499449282
 20
55.8137019031
  0
VERTEX
  8
0
 62
9
  6
CONTINUOUS
 10
209.0639484184
 20
55.855431253
  0
VERTEX
  8
0
 62
9
  6
CONTINUOUS
 10
209.2230363004
 20
55.9468742235
  0
VERTEX
  8
0
 62
9
  6
CONTINUOUS
 10
209.4188608856
 20
56.0892423714
  0
VERTEX
  8
0
 62
9
  6
CONTINUOUS
 10
209.6427719305
 20
56.2757123748
  0
VERTEX
  8
0
 62
9
  6
CONTINUOUS
 10
209.8880797618
 20
56.5000680368
  0
VERTEX
  8
0
 62
9
  6
CONTINUOUS
 10
210.142354358
 20
56.7584862768
  0
VERTEX
  8
0
 62
9
  6
CONTINUOUS
 10
210.4040419759
 20
57.0287532446
  0
SEQEND
  0
POLYLINE
  8
0
 62
9
  6
CONTINUOUS
 66
1
 70
0
  0
VERTEX
  8
0
 62
9
  6
CONTINUOUS
 10
44.1410239388
 20
109.3574348619
  0
VERTEX
  8
0
 62
9
  6
CONTINUOUS
 10
44.0690059021
 20
109.3867684174
  0
VERTEX
  8
0
 62
9
  6
CONTINUOUS
 10
44.0013010608
 20
109.4875484297
  0
VERTEX
  8
0
 62
9
  6
CONTINUOUS
 10
43.9263429569
 20
109.6550498931
  0
VERTEX
  8
0
 62
9
  6
CONTINUOUS
 10
43.8515984999
 20
109.8853419123
  0
VERTEX
  8
0
 62
9
  6
CONTINUOUS
 10
43.7800569871
 20
110.1678143086
  0
VERTEX
  8
0
 62
9
  6
CONTINUOUS
 10
43.713474174
 20
110.493504216
  0
VERTEX
  8
0
 62
9
  6
CONTINUOUS
 10
43.6596590942
 20
110.8520137383
  0
VERTEX
  8
0
 62
9
  6
CONTINUOUS
 10
43.6068119264
 20
111.2244585648
  0
SEQEND
  0
POLYLINE
  8
0
 62
9
  6
CONTINUOUS
 66
1
 70
0
  0
VERTEX
  8
0
 62
9
  6
CONTINUOUS
 10
49.7809430669
 20
109.9502142488
  0
VERTEX
  8
0
 62
9
  6
CONTINUOUS
 10
49.7139848363
 20
109.9795969302
  0
VERTEX
  8
0
 62
9
  6
CONTINUOUS
 10
49.6418796825
 20
110.0799600304
  0
VERTEX
  8
0
 62
9
  6
CONTINUOUS
 10
49.5672393093
 20
110.2476683215
  0
VERTEX
  8
0
 62
9
  6
CONTINUOUS
 10
49.4927672478
 20
110.4766472814
  0
VERTEX
  8
0
 62
9
  6
CONTINUOUS
 10
49.4211609329
 20
110.7586031175
  0
VERTEX
  8
0
 62
9
  6
CONTINUOUS
 10
49.3550139998
 20
111.0833231747
  0
VERTEX
  8
0
 62
9
  6
CONTINUOUS
 10
49.2967223409
 20
111.4390458451
  0
VERTEX
  8
0
 62
9
  6
CONTINUOUS
 10
49.2483973245
 20
111.8128865823
  0
SEQEND
  0
POLYLINE
  8
0
 62
9
  6
CONTINUOUS
 66
1
 70
0
  0
VERTEX
  8
0
 62
9
  6
CONTINUOUS
 10
140.4658478666
 20
44.0637742637
  0
VERTEX
  8
0
 62
9
  6
CONTINUOUS
 10
140.514484601
 20
44.0091732792
  0
VERTEX
  8
0
 62
9
  6
CONTINUOUS
 10
140.6322179259
 20
43.9716114111
  0
VERTEX
  8
0
 62
9
  6
CONTINUOUS
 10
140.8147834654
 20
43.9524491752
  0
VERTEX
  8
0
 62
9
  6
CONTINUOUS
 10
141.0555685794
 20
43.9523806407
  0
VERTEX
  8
0
 62
9
  6
CONTINUOUS
 10
141.3458518783
 20
43.9714082904
  0
VERTEX
  8
0
 62
9
  6
CONTINUOUS
 10
141.6751191166
 20
44.0088429307
  0
VERTEX
  8
0
 62
9
  6
CONTINUOUS
 10
142.0314440262
 20
44.0633286552
  0
VERTEX
  8
0
 62
9
  6
CONTINUOUS
 10
142.4019202925
 20
44.132891956
  0
SEQEND
  0
POLYLINE
  8
0
 62
9
  6
CONTINUOUS
 66
1
 70
0
  0
VERTEX
  8
0
 62
9
  6
CONTINUOUS
 10
141.6449120268
 20
38.5167135146
  0
VERTEX
  8
0
 62
9
  6
CONTINUOUS
 10
141.6950591923
 20
38.4572893744
  0
VERTEX
  8
0
 62
9
  6
CONTINUOUS
 10
141.8118178497
 20
38.4240395574
  0
VERTEX
  8
0
 62
9
  6
CONTINUOUS
 10
141.9942714793
 20
38.4045089636
  0
VERTEX
  8
0
 62
9
  6
CONTINUOUS
 10
142.2363787943
 20
38.4045844115
  0
VERTEX
  8
0
 62
9
  6
CONTINUOUS
 10
142.527130953
 20
38.4238302032
  0
VERTEX
  8
0
 62
9
  6
CONTINUOUS
 10
142.8574621067
 20
38.4611494211
  0
VERTEX
  8
0
 62
9
  6
CONTINUOUS
 10
143.2150690066
 20
38.5207553112
  0
VERTEX
  8
0
 62
9
  6
CONTINUOUS
 10
143.5856376746
 20
38.5855897587
  0
SEQEND
  0
POLYLINE
  8
0
 62
9
  6
CONTINUOUS
 66
1
 70
0
  0
VERTEX
  8
0
 62
9
  6
CONTINUOUS
 10
39.8340578731
 20
178.6473324841
  0
VERTEX
  8
0
 62
9
  6
CONTINUOUS
 10
39.7930358888
 20
178.7133949689
  0
VERTEX
  8
0
 62
9
  6
CONTINUOUS
 10
39.7974985266
 20
178.8347236188
  0
VERTEX
  8
0
 62
9
  6
CONTINUOUS
 10
39.8353110365
 20
179.0142944173
  0
VERTEX
  8
0
 62
9
  6
CONTINUOUS
 10
39.9102037532
 20
179.244538264
  0
VERTEX
  8
0
 62
9
  6
CONTINUOUS
 10
40.0183585622
 20
179.5151142792
  0
VERTEX
  8
0
 62
9
  6
CONTINUOUS
 10
40.1559276593
 20
179.8177393448
  0
VERTEX
  8
0
 62
9
  6
CONTINUOUS
 10
40.3231169552
 20
180.1394113512
  0
VERTEX
  8
0
 62
9
  6
CONTINUOUS
 10
40.4992802747
 20
180.4717883311
  0
SEQEND
  0
POLYLINE
  8
0
 62
9
  6
CONTINUOUS
 66
1
 70
0
  0
VERTEX
  8
0
 62
9
  6
CONTINUOUS
 10
44.7452752761
 20
175.8118397944
  0
VERTEX
  8
0
 62
9
  6
CONTINUOUS
 10
44.7083756364
 20
175.8749679435
  0
VERTEX
  8
0
 62
9
  6
CONTINUOUS
 10
44.7090332918
 20
175.9985457432
  0
VERTEX
  8
0
 62
9
  6
CONTINUOUS
 10
44.7472244216
 20
176.1780971114
  0
VERTEX
  8
0
 62
9
  6
CONTINUOUS
 10
44.8215657139
 20
176.4071185607
  0
VERTEX
  8
0
 62
9
  6
CONTINUOUS
 10
44.9293644706
 20
176.6773147597
  0
VERTEX
  8
0
 62
9
  6
CONTINUOUS
 10
45.0667161383
 20
176.9788989962
  0
VERTEX
  8
0
 62
9
  6
CONTINUOUS
 10
45.2286457352
 20
177.3009476592
  0
VERTEX
  8
0
 62
9
  6
CONTINUOUS
 10
45.4092880477
 20
177.6317959007
  0
SEQEND
  0
LINE
  8
0
 62
7
  6
CONTINUOUS
 10
104.7761180201
 20
191.4492805231
 11
104.6416420784
 21
191.0011771272
  0
LINE
  8
0
 62
7
  6
CONTINUOUS
 10
112.3223518936
 20
198.2806412861
 11
112.0954483672
 21
197.7135099406
  0
LINE
  8
0
 62
7
  6
CONTINUOUS
 10
116.4145732606
 20
201.1360663967
 11
116.1412503666
 21
200.5897895531
  0
LINE
  8
0
 62
7
  6
CONTINUOUS
 10
105.2323606757
 20
191.1566600684
 11
105.5157166318
 21
191.6064312597
  0
LINE
  8
0
 62
7
  6
CONTINUOUS
 10
105.2035525815
 20
192.049531323
 11
104.7761180201
 21
191.4492805231
  0
LINE
  8
0
 62
7
  6
CONTINUOUS
 10
112.7237284967
 20
197.916387159
 11
113.0777726983
 21
198.3129178287
  0
LINE
  8
0
 62
7
  6
CONTINUOUS
 10
115.7839295002
 20
195.5533428805
 11
115.4298843427
 21
195.1568114984
  0
LINE
  8
0
 62
7
  6
CONTINUOUS
 10
112.7599198155
 20
198.7394186277
 11
112.3223518936
 21
198.2806412861
  0
LINE
  8
0
 62
7
  6
CONTINUOUS
 10
115.74773727
 20
194.7303106398
 11
116.1853051864
 21
195.1890879888
  0
LINE
  8
0
 62
7
  6
CONTINUOUS
 10
105.4917098952
 20
192.3504906475
 11
105.2035525815
 21
192.049531323
  0
LINE
  8
0
 62
7
  6
CONTINUOUS
 10
105.5157166318
 20
191.6064312597
 11
105.8038738425
 21
191.9073904767
  0
LINE
  8
0
 62
7
  6
CONTINUOUS
 10
104.8961707637
 20
190.0364015181
 11
105.2563673608
 21
190.4126006268
  0
LINE
  8
0
 62
7
  6
CONTINUOUS
 10
109.799607802
 20
190.389060992
 11
107.7825068635
 21
188.282345989
  0
LINE
  8
0
 62
7
  6
CONTINUOUS
 10
107.5903956429
 20
187.3125670293
 11
110.1838111573
 21
190.0212006276
  0
LINE
  8
0
 62
7
  6
CONTINUOUS
 10
116.7842365985
 20
200.7396663274
 11
117.1700591938
 21
201.1053520332
  0
LINE
  8
0
 62
7
  6
CONTINUOUS
 10
119.6371265402
 20
198.1301012473
 11
119.2513039449
 21
197.7644155415
  0
LINE
  8
0
 62
7
  6
CONTINUOUS
 10
116.8888099404
 20
201.5568298777
 11
116.4145732606
 21
201.1360663967
  0
LINE
  8
0
 62
7
  6
CONTINUOUS
 10
119.5325532377
 20
197.3129376338
 11
120.0067899126
 21
197.7337011228
  0
LINE
  8
0
 62
7
  6
CONTINUOUS
 10
110.2848079798
 20
196.829791769
 11
107.4749340881
 21
194.3464258117
  0
LINE
  8
0
 62
7
  6
CONTINUOUS
 10
107.8271845645
 20
193.947862155
 11
110.1687461037
 21
196.0173337532
  0
LINE
  8
0
 62
7
  6
CONTINUOUS
 10
111.566609474
 20
191.2897508578
 11
112.0349218265
 21
191.7036452169
  0
LINE
  8
0
 62
7
  6
CONTINUOUS
 10
138.2665426745
 20
209.6264932717
 11
137.8044770763
 21
209.2269680297
  0
LINE
  8
0
 62
7
  6
CONTINUOUS
 10
106.0007864746
 20
192.728357518
 11
105.4917098952
 21
192.3504906475
  0
LINE
  8
0
 62
7
  6
CONTINUOUS
 10
105.8038738425
 20
191.9073904767
 11
106.2409110677
 21
192.2100174891
  0
LINE
  8
0
 62
7
  6
CONTINUOUS
 10
113.3246288906
 20
199.0275956497
 11
112.7599198155
 21
198.7394186277
  0
LINE
  8
0
 62
7
  6
CONTINUOUS
 10
115.1830281894
 20
194.4421336252
 11
115.74773727
 21
194.7303106398
  0
LINE
  8
0
 62
7
  6
CONTINUOUS
 10
113.0777726983
 20
198.3129178287
 11
113.5589590089
 21
198.5388488912
  0
LINE
  8
0
 62
7
  6
CONTINUOUS
 10
115.4298843427
 20
195.1568114984
 11
114.948698988
 21
194.9308811483
  0
LINE
  8
0
 62
7
  6
CONTINUOUS
 10
117.4755463216
 20
201.797002221
 11
116.8888099404
 21
201.5568298777
  0
LINE
  8
0
 62
7
  6
CONTINUOUS
 10
118.9458168516
 20
197.0727652984
 11
119.5325532377
 21
197.3129376338
  0
LINE
  8
0
 62
7
  6
CONTINUOUS
 10
138.4557403037
 20
209.1185680735
 11
138.9523724703
 21
209.3081540523
  0
LINE
  8
0
 62
7
  6
CONTINUOUS
 10
140.088483885
 20
205.6138627614
 11
139.5918540709
 21
205.4242771699
  0
LINE
  8
0
 62
7
  6
CONTINUOUS
 10
117.1700591938
 20
201.1053520332
 11
117.6683814905
 21
201.2904466013
  0
LINE
  8
0
 62
7
  6
CONTINUOUS
 10
119.2513039449
 20
197.7644155415
 11
118.7529816482
 21
197.5793209735
  0
LINE
  8
0
 62
7
  6
CONTINUOUS
 10
106.4426250058
 20
192.8821726098
 11
106.0007864746
 21
192.728357518
  0
LINE
  8
0
 62
7
  6
CONTINUOUS
 10
138.8659560492
 20
209.8330022101
 11
138.2665426745
 21
209.6264932717
  0
LINE
  8
0
 62
7
  6
CONTINUOUS
 10
139.6782705041
 20
204.8994289385
 11
140.2776838773
 21
205.1059378861
  0
LINE
  8
0
 62
7
  6
CONTINUOUS
 10
133.5583260235
 20
208.7478922245
 11
129.5634879513
 21
207.5636682124
  0
LINE
  8
0
 62
7
  6
CONTINUOUS
 10
129.7146654379
 20
207.0536890421
 11
133.2101496083
 21
208.0898853068
  0
LINE
  8
0
 62
7
  6
CONTINUOUS
 10
134.7979815618
 20
204.566062528
 11
131.4023690861
 21
203.5594720839
  0
LINE
  8
0
 62
7
  6
CONTINUOUS
 10
130.9845564947
 20
202.7698634401
 11
134.9793945669
 21
203.9540874522
  0
LINE
  8
0
 62
7
  6
CONTINUOUS
 10
104.6416420784
 20
191.0011771272
 11
104.6608474445
 21
190.4059295928
  0
LINE
  8
0
 62
7
  6
CONTINUOUS
 10
107.3022765057
 20
191.6264440614
 11
107.2061922876
 21
187.6804273937
  0
LINE
  8
0
 62
7
  6
CONTINUOUS
 10
107.7825068635
 20
188.282345989
 11
107.8929951545
 21
191.7819270563
  0
LINE
  8
0
 62
7
  6
CONTINUOUS
 10
112.0954483672
 20
197.7135099406
 11
112.0355908476
 21
197.2708708703
  0
LINE
  8
0
 62
7
  6
CONTINUOUS
 10
105.1699240368
 20
190.7837964767
 11
105.2323606757
 21
191.1566600684
  0
LINE
  8
0
 62
7
  6
CONTINUOUS
 10
116.1412503666
 20
200.5897895531
 11
116.0447566535
 21
200.1536688903
  0
LINE
  8
0
 62
7
  6
CONTINUOUS
 10
112.6003004006
 20
197.5590482485
 11
112.7237284967
 21
197.916387159
  0
LINE
  8
0
 62
7
  6
CONTINUOUS
 10
115.9073575963
 20
195.910681791
 11
115.7839295002
 21
195.5533428805
  0
LINE
  8
0
 62
7
  6
CONTINUOUS
 10
116.1853051864
 20
195.1890879888
 11
116.412209174
 21
195.7562197129
  0
LINE
  8
0
 62
7
  6
CONTINUOUS
 10
116.6314930346
 20
200.3938412336
 11
116.7842365985
 21
200.7396663274
  0
LINE
  8
0
 62
7
  6
CONTINUOUS
 10
119.7898701041
 20
198.4759263412
 11
119.6371265402
 21
198.1301012473
  0
LINE
  8
0
 62
7
  6
CONTINUOUS
 10
120.0067899126
 20
197.7337011228
 11
120.2801127918
 21
198.2799779901
  0
LINE
  8
0
 62
7
  6
CONTINUOUS
 10
133.2101496083
 20
208.0898853068
 11
130.742672495
 21
203.5858301841
  0
LINE
  8
0
 62
7
  6
CONTINUOUS
 10
137.8044770763
 20
209.2269680297
 11
137.5479785995
 21
208.8612894816
  0
LINE
  8
0
 62
7
  6
CONTINUOUS
 10
138.1819585427
 20
208.8578591569
 11
138.4557403037
 21
209.1185680735
  0
LINE
  8
0
 62
7
  6
CONTINUOUS
 10
140.3622656461
 20
205.8745716779
 11
140.088483885
 21
205.6138627614
  0
LINE
  8
0
 62
7
  6
CONTINUOUS
 10
140.2776838773
 20
205.1059378861
 11
140.7397471185
 21
205.5054627683
  0
LINE
  8
0
 62
7
  6
CONTINUOUS
 10
155.5923171986
 20
207.5548101304
 11
156.0395641765
 21
207.8294661816
  0
LINE
  8
0
 62
7
  6
CONTINUOUS
 10
163.1952187831
 20
205.8774088726
 11
163.4539599194
 21
206.0248056375
  0
LINE
  8
0
 62
7
  6
CONTINUOUS
 10
163.9504517257
 20
207.7638303392
 11
164.309355742
 21
207.8826305872
  0
LINE
  8
0
 62
7
  6
CONTINUOUS
 10
163.8587280335
 20
206.6836801715
 11
163.1409200008
 21
206.4460796755
  0
LINE
  8
0
 62
7
  6
CONTINUOUS
 10
163.4539599194
 20
206.0248056375
 11
163.8128639357
 21
206.1436058855
  0
LINE
  8
0
 62
7
  6
CONTINUOUS
 10
164.9482065515
 20
204.049325994
 11
164.5893025352
 21
203.930525746
  0
LINE
  8
0
 62
7
  6
CONTINUOUS
 10
112.6476315464
 20
196.7982621442
 11
112.6003004006
 21
197.5590482485
  0
LINE
  8
0
 62
7
  6
CONTINUOUS
 10
116.6153349466
 20
199.6317558359
 11
116.6314930346
 21
200.3938412336
  0
LINE
  8
0
 62
7
  6
CONTINUOUS
 10
116.412209174
 20
195.7562197129
 11
116.4720666713
 21
196.198858813
  0
LINE
  8
0
 62
7
  6
CONTINUOUS
 10
120.2801127918
 20
198.2799779901
 11
120.3766064853
 21
198.7160986845
  0
LINE
  8
0
 62
7
  6
CONTINUOUS
 10
137.8745287587
 20
208.1603484605
 11
138.1819585427
 21
208.8578591569
  0
LINE
  8
0
 62
7
  6
CONTINUOUS
 10
135.2979939778
 20
209.1338936608
 11
134.8538459009
 21
208.2690775395
  0
LINE
  8
0
 62
7
  6
CONTINUOUS
 10
135.0427216259
 20
207.4392366286
 11
135.4868696365
 21
208.3040530404
  0
LINE
  8
0
 62
7
  6
CONTINUOUS
 10
131.4023690861
 20
203.5594720839
 11
133.7699745047
 21
208.0339213861
  0
LINE
  8
0
 62
7
  6
CONTINUOUS
 10
140.7397471185
 20
205.5054627683
 11
140.9962455892
 21
205.8711413532
  0
LINE
  8
0
 62
7
  6
CONTINUOUS
 10
156.0395641765
 20
207.8294661816
 11
156.39412599
 21
208.2206432999
  0
LINE
  8
0
 62
7
  6
CONTINUOUS
 10
163.6625051938
 20
207.5141380205
 11
163.9504517257
 21
207.7638303392
  0
LINE
  8
0
 62
7
  6
CONTINUOUS
 10
155.7833615334
 20
208.3906701038
 11
155.5542712745
 21
208.2004322653
  0
LINE
  8
0
 62
7
  6
CONTINUOUS
 10
163.7667800827
 20
208.2588034142
 11
163.3494652752
 21
207.9354120586
  0
LINE
  8
0
 62
7
  6
CONTINUOUS
 10
165.1318781842
 20
203.5543528831
 11
165.5491930019
 21
203.8777442746
  0
LINE
  8
0
 62
7
  6
CONTINUOUS
 10
105.2563673608
 20
190.4126006268
 11
105.1699240368
 21
190.7837964767
  0
LINE
  8
0
 62
7
  6
CONTINUOUS
 10
107.8929951545
 20
191.7819270563
 11
107.806551882
 21
192.1531229601
  0
LINE
  8
0
 62
7
  6
CONTINUOUS
 10
116.0447566535
 20
200.1536688903
 11
116.0929278872
 21
199.6823310642
  0
LINE
  8
0
 62
7
  6
CONTINUOUS
 10
120.3766064853
 20
198.7160986845
 11
120.3284352121
 21
199.1874365738
  0
LINE
  8
0
 62
7
  6
CONTINUOUS
 10
115.8600261061
 20
196.6714673599
 11
115.9073575963
 21
195.910681791
  0
LINE
  8
0
 62
7
  6
CONTINUOUS
 10
119.8060283103
 20
199.2380115491
 11
119.7898701041
 21
198.4759263412
  0
LINE
  8
0
 62
7
  6
CONTINUOUS
 10
137.4115469675
 20
208.4075646488
 11
137.3606133079
 21
208.0757321132
  0
LINE
  8
0
 62
7
  6
CONTINUOUS
 10
139.654500717
 20
253.3793834086
 11
141.6449120172
 21
262.7435323417
  0
LINE
  8
0
 62
9
  6
CONTINUOUS
 10
141.6107959185
 20
252.963560027
 11
142.3101266275
 21
256.253652337
  0
LINE
  8
0
 62
9
  6
CONTINUOUS
 10
142.4019202076
 20
257.1273553091
 11
143.5856376746
 21
262.674656143
  0
LINE
  8
0
 62
7
  6
CONTINUOUS
 10
137.5479785995
 20
208.8612894816
 11
137.4115469675
 21
208.4075646488
  0
LINE
  8
0
 62
7
  6
CONTINUOUS
 10
140.9962455892
 20
205.8711413532
 11
141.1326772091
 21
206.3248662595
  0
LINE
  8
0
 62
7
  6
CONTINUOUS
 10
140.6696978188
 20
206.5720825412
 11
140.3622656461
 21
205.8745716779
  0
LINE
  8
0
 62
9
  6
CONTINUOUS
 10
78.6877935552
 20
62.9396296985
 11
80.9907676283
 21
68.1232620165
  0
LINE
  8
0
 62
7
  6
CONTINUOUS
 10
77.0772291031
 20
64.0246376034
 11
80.9710611786
 21
72.7703276364
  0
LINE
  8
0
 62
9
  6
CONTINUOUS
 10
81.4300548883
 20
68.8840577163
 11
82.7981520939
 21
71.9568543502
  0
LINE
  8
0
 62
7
  6
CONTINUOUS
 10
163.3494652752
 20
207.9354120586
 11
163.0031078704
 21
207.4811283456
  0
LINE
  8
0
 62
7
  6
CONTINUOUS
 10
201.7600611407
 20
239.022123376
 11
208.8744463515
 21
245.4279445925
  0
LINE
  8
0
 62
9
  6
CONTINUOUS
 10
203.0983223534
 20
237.535833725
 11
205.5979605206
 21
239.7865180401
  0
LINE
  8
0
 62
9
  6
CONTINUOUS
 10
206.1857728084
 20
240.4394036795
 11
210.4040419759
 21
244.2314926571
  0
LINE
  8
0
 62
7
  6
CONTINUOUS
 10
165.2361531038
 20
204.2990183843
 11
164.9482065515
 21
204.049325994
  0
LINE
  8
0
 62
9
  6
CONTINUOUS
 10
40.4992802747
 20
120.7884575705
 11
45.4092880673
 21
123.6284500118
  0
LINE
  8
0
 62
7
  6
CONTINUOUS
 10
39.8340579075
 20
122.6129134374
 11
48.1248218523
 21
127.3995882328
  0
LINE
  8
0
 62
9
  6
CONTINUOUS
 10
46.2118634178
 20
123.9857400889
 11
49.1248218523
 21
125.6675374252
  0
LINE
  8
0
 62
7
  6
CONTINUOUS
 10
53.6619297583
 20
110.3581223871
 11
44.1410239783
 21
109.357434866
  0
LINE
  8
0
 62
9
  6
CONTINUOUS
 10
53.4528728318
 20
112.3471661778
 11
50.1077040298
 21
111.995574769
  0
LINE
  8
0
 62
9
  6
CONTINUOUS
 10
49.2483973461
 20
111.8128865849
 11
43.6068119264
 21
111.2244585648
  0
LINE
  8
0
 62
9
  6
CONTINUOUS
 10
253.62064709
 20
111.2244585648
 11
247.9790616697
 21
111.812886585
  0
LINE
  8
0
 62
7
  6
CONTINUOUS
 10
253.0864350381
 20
109.357434866
 11
243.5655292581
 21
110.3581223871
  0
LINE
  8
0
 62
9
  6
CONTINUOUS
 10
247.1197547307
 20
111.9955747959
 11
243.7745861846
 21
112.3471661778
  0
LINE
  8
0
 62
7
  6
CONTINUOUS
 10
48.1248218523
 20
173.8606576689
 11
39.8340579075
 21
178.6473324642
  0
LINE
  8
0
 62
9
  6
CONTINUOUS
 10
49.1248218523
 20
175.5927084765
 11
46.2118631971
 21
177.2745059402
  0
LINE
  8
0
 62
9
  6
CONTINUOUS
 10
45.4092880668
 20
177.6317958901
 11
40.4992802747
 21
180.4717883311
  0
LINE
  8
0
 62
9
  6
CONTINUOUS
 10
210.4040419759
 20
57.0287532446
 11
206.185772808
 21
60.8208422225
  0
LINE
  8
0
 62
7
  6
CONTINUOUS
 10
208.8744463515
 20
55.8323013091
 11
201.7600611407
 21
62.2381225256
  0
LINE
  8
0
 62
9
  6
CONTINUOUS
 10
205.5979603271
 20
61.4737280358
 11
203.0983223534
 21
63.7244121766
  0
LINE
  8
0
 62
7
  6
CONTINUOUS
 10
80.9710611786
 20
228.4899182652
 11
77.0772291031
 21
237.2356082982
  0
LINE
  8
0
 62
9
  6
CONTINUOUS
 10
82.7981520939
 20
229.3033915514
 11
81.4300547833
 21
232.3761884211
  0
LINE
  8
0
 62
9
  6
CONTINUOUS
 10
80.9907676281
 20
233.1369838856
 11
78.6877935552
 21
238.3206162031
  0
LINE
  8
0
 62
7
  6
CONTINUOUS
 10
107.1389925729
 20
192.0712120277
 11
107.3022765057
 21
191.6264440614
  0
LINE
  8
0
 62
7
  6
CONTINUOUS
 10
112.122827147
 20
196.805177956
 11
112.2300158124
 21
196.487030922
  0
LINE
  8
0
 62
7
  6
CONTINUOUS
 10
110.1687461037
 20
196.0173337532
 11
111.566609474
 21
191.2897508578
  0
LINE
  8
0
 62
7
  6
CONTINUOUS
 10
112.0349218265
 20
191.7036452169
 11
110.6370584562
 21
196.4312281123
  0
LINE
  8
0
 62
7
  6
CONTINUOUS
 10
116.0929278872
 20
199.6823310642
 11
116.1732625006
 21
199.356365699
  0
LINE
  8
0
 62
9
  6
CONTINUOUS
 10
143.5856376746
 20
38.5855897587
 11
142.4019202075
 21
44.1328905931
  0
LINE
  8
0
 62
7
  6
CONTINUOUS
 10
141.6449120172
 20
38.5167135599
 11
139.654500717
 21
47.880862493
  0
LINE
  8
0
 62
9
  6
CONTINUOUS
 10
142.3101265737
 20
45.0065938175
 11
141.6107959185
 21
48.2966858747
  0
LINE
  8
0
 62
7
  6
CONTINUOUS
 10
112.0355908476
 20
197.2708708703
 11
112.122827147
 21
196.805177956
  0
LINE
  8
0
 62
7
  6
CONTINUOUS
 10
116.4720666713
 20
196.198858813
 11
116.3848308053
 21
196.6645521433
  0
LINE
  8
0
 62
9
  6
CONTINUOUS
 10
142.4019202096
 20
44.132890593
 11
142.3099652634
 21
45.0065987894
  0
LINE
  8
0
 62
7
  6
CONTINUOUS
 10
137.8754449034
 20
207.5136073241
 11
137.8745287587
 21
208.1603484605
  0
LINE
  8
0
 62
7
  6
CONTINUOUS
 10
137.3606133079
 20
208.0757321132
 11
137.3442485209
 21
207.5339609958
  0
LINE
  8
0
 62
9
  6
CONTINUOUS
 10
142.3099652898
 20
256.2536473659
 11
142.4019202097
 21
257.1273553092
  0
LINE
  8
0
 62
7
  6
CONTINUOUS
 10
141.1326772091
 20
206.3248662595
 11
141.1836109171
 21
206.6566985011
  0
LINE
  8
0
 62
7
  6
CONTINUOUS
 10
163.0031078704
 20
207.4811283456
 11
162.6985072215
 21
206.7936559857
  0
LINE
  8
0
 62
7
  6
CONTINUOUS
 10
155.9197618847
 20
208.6974294992
 11
155.7833615334
 21
208.3906701038
  0
LINE
  8
0
 62
7
  6
CONTINUOUS
 10
156.39412599
 20
208.2206432999
 11
156.5305263412
 21
208.5274026953
  0
LINE
  8
0
 62
7
  6
CONTINUOUS
 10
163.1993307919
 20
206.6506707832
 11
163.4747260453
 21
207.2358475893
  0
LINE
  8
0
 62
7
  6
CONTINUOUS
 10
158.4565656838
 20
206.479283668
 11
159.9222529037
 21
209.1214432666
  0
LINE
  8
0
 62
7
  6
CONTINUOUS
 10
157.6220996792
 20
204.906968849
 11
158.2735146514
 21
206.0812622569
  0
LINE
  8
0
 62
7
  6
CONTINUOUS
 10
159.5939338409
 20
209.6183313029
 11
157.0084630555
 21
205.0256073511
  0
LINE
  8
0
 62
9
  6
CONTINUOUS
 10
80.9907676299
 20
68.1232620152
 11
81.4299273084
 21
68.8841565555
  0
LINE
  8
0
 62
7
  6
CONTINUOUS
 10
163.4747260453
 20
207.2358475893
 11
163.6625051938
 21
207.5141380205
  0
LINE
  8
0
 62
7
  6
CONTINUOUS
 10
163.0074396755
 20
205.5991185847
 11
163.1952187831
 21
205.8774088726
  0
LINE
  8
0
 62
7
  6
CONTINUOUS
 10
165.4239321705
 20
204.5773085289
 11
165.2361531038
 21
204.2990183843
  0
LINE
  8
0
 62
7
  6
CONTINUOUS
 10
165.5491930019
 20
203.8777442746
 11
165.8955503453
 21
204.3320277726
  0
LINE
  8
0
 62
9
  6
CONTINUOUS
 10
205.5978270733
 20
239.78660885
 11
206.1857728101
 21
240.4394036784
  0
LINE
  8
0
 62
9
  6
CONTINUOUS
 10
45.4092880678
 20
123.6284500097
 11
46.2118183003
 21
123.9858950414
  0
LINE
  8
0
 62
9
  6
CONTINUOUS
 10
50.1077586112
 20
111.9954228636
 11
49.2483973454
 21
111.8128865869
  0
LINE
  8
0
 62
9
  6
CONTINUOUS
 10
247.9790616704
 20
111.812886587
 11
247.1197001557
 21
111.9954229169
  0
LINE
  8
0
 62
9
  6
CONTINUOUS
 10
46.2118180671
 20
177.2743509638
 11
45.4092880673
 21
177.6317958921
  0
LINE
  8
0
 62
9
  6
CONTINUOUS
 10
206.1857728098
 20
60.8208422237
 11
205.5978269028
 21
61.4736372415
  0
LINE
  8
0
 62
7
  6
CONTINUOUS
 10
104.6608474445
 20
190.4059295928
 11
104.8961707637
 21
190.0364015181
  0
LINE
  8
0
 62
7
  6
CONTINUOUS
 10
107.806551882
 20
192.1531229601
 11
107.571228492
 21
192.5226509608
  0
LINE
  8
0
 62
9
  6
CONTINUOUS
 10
81.4299271806
 20
232.3760895669
 11
80.9907676297
 21
233.136983887
  0
LINE
  8
0
 62
7
  6
CONTINUOUS
 10
112.9455317634
 20
196.2242148698
 11
112.6476315464
 21
196.7982621442
  0
LINE
  8
0
 62
7
  6
CONTINUOUS
 10
112.2300158124
 20
196.487030922
 11
112.4643459307
 21
195.9982841635
  0
LINE
  8
0
 62
7
  6
CONTINUOUS
 10
116.8644199662
 20
199.0349046473
 11
116.6153349466
 21
199.6317558359
  0
LINE
  8
0
 62
7
  6
CONTINUOUS
 10
116.1732625006
 20
199.356365699
 11
116.3660976695
 21
198.8498100793
  0
LINE
  8
0
 62
7
  6
CONTINUOUS
 10
116.3848308053
 20
196.6645521433
 11
116.2776418401
 21
196.9826985822
  0
LINE
  8
0
 62
7
  6
CONTINUOUS
 10
120.3284352121
 20
199.1874365738
 11
120.2481007564
 21
199.513401686
  0
LINE
  8
0
 62
9
  6
CONTINUOUS
 10
143.5115457878
 20
264.3256981562
 11
143.5856376746
 21
262.674656143
  0
LINE
  8
0
 62
9
  6
CONTINUOUS
 10
153.7159132285
 20
36.9345477454
 11
153.6418213418
 21
38.5855897587
  0
POLYLINE
  8
0
 62
9
  6
CONTINUOUS
 66
1
 70
0
  0
VERTEX
  8
0
 62
9
  6
CONTINUOUS
 10
143.5115457041
 20
36.9345477492
  0
VERTEX
  8
0
 62
9
  6
CONTINUOUS
 10
143.5110212937
 20
36.9650849174
  0
VERTEX
  8
0
 62
9
  6
CONTINUOUS
 10
143.5168743408
 20
37.0532876674
  0
VERTEX
  8
0
 62
9
  6
CONTINUOUS
 10
143.5225110436
 20
37.1991586233
  0
VERTEX
  8
0
 62
9
  6
CONTINUOUS
 10
143.5324196244
 20
37.399694237
  0
SEQEND
  0
LINE
  8
0
 62
7
  6
CONTINUOUS
 10
140.6687792975
 20
207.2188234372
 11
140.6696978188
 21
206.5720825412
  0
LINE
  8
1_AXIS
 62
2
  6
CONTINUOUS
 10
148.6137295082
 20
151.6801229508
 11
148.6137295082
 21
149.5801229508
  0
LINE
  8
1_AXIS
 62
2
  6
CENTER
 10
148.6137295082
 20
145.3801229508
 11
148.6137295082
 21
34.8201229508
  0
LINE
  8
1_AXIS
 62
2
  6
CENTER
 10
148.6137295082
 20
155.8801229508
 11
148.6137295082
 21
266.4401229508
  0
LINE
  8
0
 62
7
  6
CONTINUOUS
 10
141.1836109171
 20
206.6566985011
 11
141.1999780325
 21
207.1984701529
  0
POLYLINE
  8
0
 62
9
  6
CONTINUOUS
 66
1
 70
0
  0
VERTEX
  8
0
 62
9
  6
CONTINUOUS
 10
153.695039392
 20
263.8605516645
  0
VERTEX
  8
0
 62
9
  6
CONTINUOUS
 10
153.6711632093
 20
263.3285017679
  0
VERTEX
  8
0
 62
9
  6
CONTINUOUS
 10
153.6530392577
 20
263.011424762
  0
VERTEX
  8
0
 62
9
  6
CONTINUOUS
 10
153.6418213418
 20
262.674656143
  0
SEQEND
  0
POLYLINE
  8
0
 62
9
  6
CONTINUOUS
 66
1
 70
0
  0
VERTEX
  8
0
 62
9
  6
CONTINUOUS
 10
143.5324196244
 20
37.399694237
  0
VERTEX
  8
0
 62
9
  6
CONTINUOUS
 10
143.5562958071
 20
37.9317441339
  0
VERTEX
  8
0
 62
9
  6
CONTINUOUS
 10
143.5744197587
 20
38.2488211398
  0
VERTEX
  8
0
 62
9
  6
CONTINUOUS
 10
143.5856376746
 20
38.5855897587
  0
SEQEND
  0
LINE
  8
0
 62
7
  6
CONTINUOUS
 10
152.8606848415
 20
210.5106458068
 11
152.3470313353
 21
205.5370997805
  0
LINE
  8
0
 62
7
  6
CONTINUOUS
 10
152.9687245886
 20
205.4728930923
 11
153.1982293499
 21
207.6951158164
  0
LINE
  8
0
 62
7
  6
CONTINUOUS
 10
153.2638021301
 20
208.33003651
 11
153.4277341113
 21
209.9173385405
  0
LINE
  8
0
 62
7
  6
CONTINUOUS
 10
155.9525483054
 20
209.0148901424
 11
155.9197618847
 21
208.6974294992
  0
LINE
  8
0
 62
9
  6
CONTINUOUS
 10
130.2322618595
 20
57.1603992587
 11
130.618183918
 21
59.1228121013
  0
LINE
  8
0
 62
9
  6
CONTINUOUS
 10
166.9951971569
 20
244.0998466429
 11
166.6092750984
 21
242.1374338004
  0
LINE
  8
0
 62
7
  6
CONTINUOUS
 10
162.6985072215
 20
206.7936559857
 11
162.4940694526
 21
206.0775871088
  0
LINE
  8
0
 62
7
  6
CONTINUOUS
 10
163.1409200008
 20
206.4460796755
 11
163.1993307919
 21
206.6506707832
  0
LINE
  8
0
 62
7
  6
CONTINUOUS
 10
162.9198234888
 20
205.2922319232
 11
163.0074396755
 21
205.5991185847
  0
LINE
  8
0
 62
7
  6
CONTINUOUS
 10
165.5115483572
 20
204.8841951904
 11
165.4239321705
 21
204.5773085289
  0
LINE
  8
0
 62
9
  6
CONTINUOUS
 10
108.5445241048
 20
64.2071724206
 11
109.3857839197
 21
66.0216370582
  0
LINE
  8
0
 62
9
  6
CONTINUOUS
 10
188.6829349116
 20
237.053073481
 11
187.8416750967
 21
235.2386088434
  0
LINE
  8
0
 62
9
  6
CONTINUOUS
 10
211.3145585277
 20
245.6107638218
 11
210.4040419757
 21
244.2314926567
  0
LINE
  8
0
 62
9
  6
CONTINUOUS
 10
85.9129004897
 20
55.6494820792
 11
86.823417041
 21
57.0287532453
  0
POLYLINE
  8
0
 62
9
  6
CONTINUOUS
 66
1
 70
0
  0
VERTEX
  8
0
 62
9
  6
CONTINUOUS
 10
77.6573937478
 20
61.647458822
  0
VERTEX
  8
0
 62
9
  6
CONTINUOUS
 10
77.674918788
 20
61.6724721507
  0
VERTEX
  8
0
 62
9
  6
CONTINUOUS
 10
77.7314982783
 20
61.7403893397
  0
VERTEX
  8
0
 62
9
  6
CONTINUOUS
 10
77.8217992633
 20
61.8550882513
  0
VERTEX
  8
0
 62
9
  6
CONTINUOUS
 10
77.9476873498
 20
62.011500853
  0
SEQEND
  0
POLYLINE
  8
0
 62
9
  6
CONTINUOUS
 66
1
 70
0
  0
VERTEX
  8
0
 62
9
  6
CONTINUOUS
 10
219.2797716666
 20
239.2487450487
  0
VERTEX
  8
0
 62
9
  6
CONTINUOUS
 10
218.9477243462
 20
238.8323417083
  0
VERTEX
  8
0
 62
9
  6
CONTINUOUS
 10
218.7466885734
 20
238.5864740134
  0
VERTEX
  8
0
 62
9
  6
CONTINUOUS
 10
218.5396654612
 20
238.3206162031
  0
SEQEND
  0
POLYLINE
  8
0
 62
9
  6
CONTINUOUS
 66
1
 70
0
  0
VERTEX
  8
0
 62
9
  6
CONTINUOUS
 10
77.9476873498
 20
62.011500853
  0
VERTEX
  8
0
 62
9
  6
CONTINUOUS
 10
78.2797346701
 20
62.4279041933
  0
VERTEX
  8
0
 62
9
  6
CONTINUOUS
 10
78.4807704429
 20
62.6737718882
  0
VERTEX
  8
0
 62
9
  6
CONTINUOUS
 10
78.6877935552
 20
62.9396296985
  0
SEQEND
  0
LINE
  8
0
 62
9
  6
CONTINUOUS
 10
78.8026846768
 20
85.8158836238
 11
80.2683795084
 21
87.1766696689
  0
LINE
  8
0
 62
9
  6
CONTINUOUS
 10
218.4247743396
 20
215.4443622779
 11
216.959079508
 21
214.0835762328
  0
LINE
  8
0
 62
9
  6
CONTINUOUS
 10
65.3989256045
 20
104.2645752751
 11
67.1460346463
 21
105.23802789
  0
LINE
  8
0
 62
9
  6
CONTINUOUS
 10
231.8285334119
 20
196.9956706266
 11
230.0814243701
 21
196.0222180116
  0
LINE
  8
0
 62
9
  6
CONTINUOUS
 10
42.0594733132
 20
110.6437929525
 11
43.6068119264
 21
111.2244585648
  0
LINE
  8
0
 62
9
  6
CONTINUOUS
 10
255.1679857027
 20
190.6164529504
 11
253.6206470896
 21
190.0357873368
  0
POLYLINE
  8
0
 62
9
  6
CONTINUOUS
 66
1
 70
0
  0
VERTEX
  8
0
 62
9
  6
CONTINUOUS
 10
38.9061503349
 20
120.3487231825
  0
VERTEX
  8
0
 62
9
  6
CONTINUOUS
 10
38.9350308559
 20
120.3586584304
  0
VERTEX
  8
0
 62
9
  6
CONTINUOUS
 10
39.0207253471
 20
120.3803480005
  0
VERTEX
  8
0
 62
9
  6
CONTINUOUS
 10
39.1611987073
 20
120.4200637819
  0
VERTEX
  8
0
 62
9
  6
CONTINUOUS
 10
39.3549813293
 20
120.4726090742
  0
SEQEND
  0
POLYLINE
  8
0
 62
9
  6
CONTINUOUS
 66
1
 70
0
  0
VERTEX
  8
0
 62
9
  6
CONTINUOUS
 10
39.3549813293
 20
120.4726090742
  0
VERTEX
  8
0
 62
9
  6
CONTINUOUS
 10
39.8683689968
 20
120.614313935
  0
VERTEX
  8
0
 62
9
  6
CONTINUOUS
 10
40.1755277585
 20
120.6950592161
  0
VERTEX
  8
0
 62
9
  6
CONTINUOUS
 10
40.4992802747
 20
120.7884575705
  0
SEQEND
  0
POLYLINE
  8
0
 62
9
  6
CONTINUOUS
 66
1
 70
0
  0
VERTEX
  8
0
 62
9
  6
CONTINUOUS
 10
257.872477687
 20
180.7876368275
  0
VERTEX
  8
0
 62
9
  6
CONTINUOUS
 10
257.3590900196
 20
180.6459319666
  0
VERTEX
  8
0
 62
9
  6
CONTINUOUS
 10
257.0519312579
 20
180.5651866855
  0
VERTEX
  8
0
 62
9
  6
CONTINUOUS
 10
256.7281787417
 20
180.4717883311
  0
SEQEND
  0
LINE
  8
0
 62
9
  6
CONTINUOUS
 10
243.1889051869
 20
162.0320414449
 11
241.2032831907
 21
161.7926562151
  0
LINE
  8
0
 62
9
  6
CONTINUOUS
 10
54.0385538295
 20
139.2282044568
 11
56.0241758257
 21
139.4675896866
  0
LINE
  8
1_AXIS
 62
2
  6
CONTINUOUS
 10
149.6637295082
 20
150.6301229508
 11
147.5637295082
 21
150.6301229508
  0
LINE
  8
1_AXIS
 62
2
  6
CENTER
 10
143.3637295082
 20
150.6301229508
 11
32.8037295082
 21
150.6301229508
  0
LINE
  8
1_AXIS
 62
2
  6
CENTER
 10
153.8637295082
 20
150.6301229508
 11
264.4237295082
 21
150.6301229508
  0
LINE
  8
0
 62
9
  6
CONTINUOUS
 10
243.1889051881
 20
139.228204467
 11
241.2032831915
 21
139.4675896872
  0
LINE
  8
0
 62
9
  6
CONTINUOUS
 10
54.0385538283
 20
162.0320414346
 11
56.0241758249
 21
161.7926562145
  0
LINE
  8
0
 62
9
  6
CONTINUOUS
 10
38.9061503572
 20
180.9115227999
 11
40.4992802747
 21
180.4717883311
  0
LINE
  8
0
 62
9
  6
CONTINUOUS
 10
258.321308659
 20
120.348723101
 11
256.7281787416
 21
120.7884575705
  0
POLYLINE
  8
0
 62
9
  6
CONTINUOUS
 66
1
 70
0
  0
VERTEX
  8
0
 62
9
  6
CONTINUOUS
 10
255.1679856737
 20
110.643792874
  0
VERTEX
  8
0
 62
9
  6
CONTINUOUS
 10
255.1387810492
 20
110.6527306341
  0
VERTEX
  8
0
 62
9
  6
CONTINUOUS
 10
255.0567039401
 20
110.6855533614
  0
VERTEX
  8
0
 62
9
  6
CONTINUOUS
 10
254.9197142539
 20
110.7359907886
  0
VERTEX
  8
0
 62
9
  6
CONTINUOUS
 10
254.7320554716
 20
110.8073833216
  0
SEQEND
  0
POLYLINE
  8
0
 62
9
  6
CONTINUOUS
 66
1
 70
0
  0
VERTEX
  8
0
 62
9
  6
CONTINUOUS
 10
42.4954035449
 20
190.45286258
  0
VERTEX
  8
0
 62
9
  6
CONTINUOUS
 10
42.9940349199
 20
190.265742521
  0
VERTEX
  8
0
 62
9
  6
CONTINUOUS
 10
43.2899924635
 20
190.1505234354
  0
VERTEX
  8
0
 62
9
  6
CONTINUOUS
 10
43.6068119264
 20
190.0357873369
  0
SEQEND
  0
POLYLINE
  8
0
 62
9
  6
CONTINUOUS
 66
1
 70
0
  0
VERTEX
  8
0
 62
9
  6
CONTINUOUS
 10
254.7320554716
 20
110.8073833216
  0
VERTEX
  8
0
 62
9
  6
CONTINUOUS
 10
254.2334240964
 20
110.9945033807
  0
VERTEX
  8
0
 62
9
  6
CONTINUOUS
 10
253.9374665528
 20
111.1097224663
  0
VERTEX
  8
0
 62
9
  6
CONTINUOUS
 10
253.62064709
 20
111.2244585648
  0
SEQEND
  0
LINE
  8
0
 62
9
  6
CONTINUOUS
 10
231.8285334169
 20
104.2645752841
 11
230.0814243699
 21
105.238027891
  0
LINE
  8
0
 62
9
  6
CONTINUOUS
 10
65.3989255995
 20
196.9956706176
 11
67.1460346465
 21
196.0222180107
  0
LINE
  8
0
 62
9
  6
CONTINUOUS
 10
218.4247743466
 20
85.8158836313
 11
216.959079509
 21
87.1766696689
  0
LINE
  8
0
 62
9
  6
CONTINUOUS
 10
78.8026846698
 20
215.4443622703
 11
80.2683795074
 21
214.0835762327
  0
LINE
  8
0
 62
7
  6
CONTINUOUS
 10
107.2061922876
 20
187.6804273937
 11
107.5903956429
 21
187.3125670293
  0
LINE
  8
0
 62
7
  6
CONTINUOUS
 10
106.9853110371
 20
192.2183563589
 11
107.1389925729
 21
192.0712120277
  0
LINE
  8
0
 62
7
  6
CONTINUOUS
 10
107.4749340881
 20
194.3464258117
 11
107.8271845645
 21
193.947862155
  0
LINE
  8
0
 62
9
  6
CONTINUOUS
 10
219.5700652039
 20
61.6474587704
 11
218.5396654608
 21
62.9396296991
  0
LINE
  8
0
 62
9
  6
CONTINUOUS
 10
77.6573938134
 20
239.6127871319
 11
78.6877935552
 21
238.3206162031
  0
POLYLINE
  8
0
 62
9
  6
CONTINUOUS
 66
1
 70
0
  0
VERTEX
  8
0
 62
9
  6
CONTINUOUS
 10
211.3145584567
 20
55.6494820329
  0
VERTEX
  8
0
 62
9
  6
CONTINUOUS
 10
211.2961849026
 20
55.6738788803
  0
VERTEX
  8
0
 62
9
  6
CONTINUOUS
 10
211.2490758415
 20
55.7486767389
  0
VERTEX
  8
0
 62
9
  6
CONTINUOUS
 10
211.1678952332
 20
55.870001992
  0
VERTEX
  8
0
 62
9
  6
CONTINUOUS
 10
211.0580395672
 20
56.0380628291
  0
SEQEND
  0
LINE
  8
0
 62
7
  6
CONTINUOUS
 10
112.4643459307
 20
195.9982841635
 11
113.0364811197
 21
195.2305827254
  0
LINE
  8
0
 62
7
  6
CONTINUOUS
 10
113.3905257993
 20
195.6271137513
 11
112.9455317634
 21
196.2242148698
  0
LINE
  8
0
 62
7
  6
CONTINUOUS
 10
115.1171322421
 20
197.8426162285
 11
115.562126278
 21
197.2455151099
  0
POLYLINE
  8
0
 62
9
  6
CONTINUOUS
 66
1
 70
0
  0
VERTEX
  8
0
 62
9
  6
CONTINUOUS
 10
86.1694194492
 20
245.2221830726
  0
VERTEX
  8
0
 62
9
  6
CONTINUOUS
 10
86.4628342944
 20
244.7777115963
  0
VERTEX
  8
0
 62
9
  6
CONTINUOUS
 10
86.6345448975
 20
244.5105379185
  0
VERTEX
  8
0
 62
9
  6
CONTINUOUS
 10
86.8234170405
 20
244.2314926571
  0
SEQEND
  0
POLYLINE
  8
0
 62
9
  6
CONTINUOUS
 66
1
 70
0
  0
VERTEX
  8
0
 62
9
  6
CONTINUOUS
 10
211.0580395672
 20
56.0380628291
  0
VERTEX
  8
0
 62
9
  6
CONTINUOUS
 10
210.764624722
 20
56.4825343053
  0
VERTEX
  8
0
 62
9
  6
CONTINUOUS
 10
210.5929141189
 20
56.7497079831
  0
VERTEX
  8
0
 62
9
  6
CONTINUOUS
 10
210.4040419759
 20
57.0287532446
  0
SEQEND
  0
LINE
  8
0
 62
7
  6
CONTINUOUS
 10
116.3660976695
 20
198.8498100793
 11
116.8723463257
 21
198.0371499592
  0
LINE
  8
0
 62
7
  6
CONTINUOUS
 10
117.258168921
 20
198.4028356651
 11
116.8644199662
 21
199.0349046473
  0
LINE
  8
0
 62
7
  6
CONTINUOUS
 10
119.1631942571
 20
200.4669318465
 11
119.5569432119
 21
199.8348628642
  0
LINE
  8
0
 62
7
  6
CONTINUOUS
 10
115.562126278
 20
197.2455151099
 11
115.8600261061
 21
196.6714673599
  0
LINE
  8
0
 62
7
  6
CONTINUOUS
 10
116.2776418401
 20
196.9826985822
 11
116.0433116328
 21
197.4714454601
  0
LINE
  8
0
 62
9
  6
CONTINUOUS
 10
188.6829349209
 20
64.207172425
 11
187.841675097
 21
66.0216370592
  0
LINE
  8
0
 62
9
  6
CONTINUOUS
 10
108.5445240955
 20
237.0530734767
 11
109.3857839194
 21
235.2386088425
  0
LINE
  8
0
 62
7
  6
CONTINUOUS
 10
119.5569432119
 20
199.8348628642
 11
119.8060283103
 21
199.2380115491
  0
LINE
  8
0
 62
7
  6
CONTINUOUS
 10
120.2481007564
 20
199.513401686
 11
120.0552655086
 21
200.0199574322
  0
LINE
  8
0
 62
7
  6
CONTINUOUS
 10
129.5634879513
 20
207.5636682124
 11
129.7146654379
 21
207.0536890421
  0
LINE
  8
0
 62
7
  6
CONTINUOUS
 10
130.742672495
 20
203.5858301841
 11
130.9845564947
 21
202.7698634401
  0
LINE
  8
0
 62
7
  6
CONTINUOUS
 10
134.8538459009
 20
208.2690775395
 11
135.0427216259
 21
207.4392366286
  0
LINE
  8
0
 62
7
  6
CONTINUOUS
 10
135.4868696365
 20
208.3040530404
 11
136.4076386053
 21
204.258579435
  0
LINE
  8
0
 62
7
  6
CONTINUOUS
 10
137.0170528835
 20
204.3972850134
 11
135.907408256
 21
209.2725992392
  0
LINE
  8
0
 62
9
  6
CONTINUOUS
 10
166.995197167
 20
57.1603992607
 11
166.6092750992
 21
59.1228121008
  0
LINE
  8
0
 62
9
  6
CONTINUOUS
 10
130.2322618494
 20
244.0998466409
 11
130.6181839172
 21
242.1374338009
  0
LINE
  8
0
 62
7
  6
CONTINUOUS
 10
137.3442485209
 20
207.5339609958
 11
137.4997980788
 21
206.5892343117
  0
LINE
  8
0
 62
7
  6
CONTINUOUS
 10
137.9964278929
 20
206.7788199032
 11
137.8754449034
 21
207.5136073241
  0
LINE
  8
0
 62
7
  6
CONTINUOUS
 10
140.547796308
 20
207.9536108581
 11
140.6687792975
 21
207.2188234372
  0
POLYLINE
  8
0
 62
9
  6
CONTINUOUS
 66
1
 70
0
  0
VERTEX
  8
0
 62
9
  6
CONTINUOUS
 10
153.7159133123
 20
264.3256981524
  0
VERTEX
  8
0
 62
9
  6
CONTINUOUS
 10
153.7164377227
 20
264.2951609842
  0
VERTEX
  8
0
 62
9
  6
CONTINUOUS
 10
153.7105846756
 20
264.2069582341
  0
VERTEX
  8
0
 62
9
  6
CONTINUOUS
 10
153.7049479728
 20
264.0610872782
  0
VERTEX
  8
0
 62
9
  6
CONTINUOUS
 10
153.695039392
 20
263.8605516645
  0
SEQEND
  0
LINE
  8
0
 62
7
  6
CONTINUOUS
 10
156.5305263412
 20
208.5274026953
 11
156.5742415587
 21
208.9506834541
  0
LINE
  8
0
 62
7
  6
CONTINUOUS
 10
162.4940694526
 20
206.0775871088
 11
162.3897945229
 21
205.3329215718
  0
LINE
  8
0
 62
7
  6
CONTINUOUS
 10
165.8955503453
 20
204.3320277726
 11
166.041577364
 21
204.8435056851
  0
POLYLINE
  8
0
 62
9
  6
CONTINUOUS
 66
1
 70
0
  0
VERTEX
  8
0
 62
9
  6
CONTINUOUS
 10
219.5700652686
 20
239.6127870796
  0
VERTEX
  8
0
 62
9
  6
CONTINUOUS
 10
219.5525402284
 20
239.5877737509
  0
VERTEX
  8
0
 62
9
  6
CONTINUOUS
 10
219.4959607381
 20
239.519856562
  0
VERTEX
  8
0
 62
9
  6
CONTINUOUS
 10
219.4056597532
 20
239.4051576504
  0
VERTEX
  8
0
 62
9
  6
CONTINUOUS
 10
219.2797716666
 20
239.2487450487
  0
SEQEND
  0
POLYLINE
  8
0
 62
9
  6
CONTINUOUS
 66
1
 70
0
  0
VERTEX
  8
0
 62
9
  6
CONTINUOUS
 10
258.3213086815
 20
180.9115227191
  0
VERTEX
  8
0
 62
9
  6
CONTINUOUS
 10
258.2924281604
 20
180.9015874713
  0
VERTEX
  8
0
 62
9
  6
CONTINUOUS
 10
258.2067336692
 20
180.8798979012
  0
VERTEX
  8
0
 62
9
  6
CONTINUOUS
 10
258.066260309
 20
180.8401821197
  0
VERTEX
  8
0
 62
9
  6
CONTINUOUS
 10
257.872477687
 20
180.7876368275
  0
SEQEND
  0
POLYLINE
  8
0
 62
9
  6
CONTINUOUS
 66
1
 70
0
  0
VERTEX
  8
0
 62
9
  6
CONTINUOUS
 10
42.0594733427
 20
190.6164530276
  0
VERTEX
  8
0
 62
9
  6
CONTINUOUS
 10
42.0886779672
 20
190.6075152676
  0
VERTEX
  8
0
 62
9
  6
CONTINUOUS
 10
42.1707550764
 20
190.5746925402
  0
VERTEX
  8
0
 62
9
  6
CONTINUOUS
 10
42.3077447626
 20
190.524255113
  0
VERTEX
  8
0
 62
9
  6
CONTINUOUS
 10
42.4954035449
 20
190.45286258
  0
SEQEND
  0
LINE
  8
0
 62
7
  6
CONTINUOUS
 10
113.0364811197
 20
195.2305827254
 11
113.4378568561
 21
194.8663277665
  0
LINE
  8
0
 62
7
  6
CONTINUOUS
 10
110.1838111573
 20
190.0212006276
 11
109.799607802
 21
190.389060992
  0
LINE
  8
0
 62
7
  6
CONTINUOUS
 10
107.571228492
 20
192.5226509608
 11
107.4175469561
 21
192.669795292
  0
LINE
  8
0
 62
7
  6
CONTINUOUS
 10
113.8554725901
 20
195.1775589888
 11
113.3905257993
 21
195.6271137513
  0
LINE
  8
0
 62
7
  6
CONTINUOUS
 10
114.6521850624
 20
198.2921705153
 11
115.1171322421
 21
197.8426162285
  0
LINE
  8
0
 62
7
  6
CONTINUOUS
 10
116.8723463257
 20
198.0371499592
 11
117.2420097424
 21
197.6407497636
  0
LINE
  8
0
 62
7
  6
CONTINUOUS
 10
110.6370584562
 20
196.4312281123
 11
110.2848079798
 21
196.829791769
  0
LINE
  8
0
 62
7
  6
CONTINUOUS
 10
117.6840821884
 20
197.9161399005
 11
117.258168921
 21
198.4028356651
  0
LINE
  8
0
 62
7
  6
CONTINUOUS
 10
118.7372810685
 20
200.9536274846
 11
119.1631942571
 21
200.4669318465
  0
POLYLINE
  8
0
 62
9
  6
CONTINUOUS
 66
1
 70
0
  0
VERTEX
  8
0
 62
9
  6
CONTINUOUS
 10
85.9129005597
 20
245.6107638687
  0
VERTEX
  8
0
 62
9
  6
CONTINUOUS
 10
85.9312741138
 20
245.5863670214
  0
VERTEX
  8
0
 62
9
  6
CONTINUOUS
 10
85.9783831749
 20
245.5115691628
  0
VERTEX
  8
0
 62
9
  6
CONTINUOUS
 10
86.0595637832
 20
245.3902439097
  0
VERTEX
  8
0
 62
9
  6
CONTINUOUS
 10
86.1694194492
 20
245.2221830726
  0
SEQEND
  0
LINE
  8
0
 62
7
  6
CONTINUOUS
 10
116.0433116328
 20
197.4714454601
 11
115.4711764437
 21
198.2391468982
  0
LINE
  8
0
 62
7
  6
CONTINUOUS
 10
120.0552655086
 20
200.0199574322
 11
119.5490168525
 21
200.8326175523
  0
LINE
  8
0
 62
7
  6
CONTINUOUS
 10
137.4997980788
 20
206.5892343117
 11
137.6889957322
 21
206.0813089664
  0
LINE
  8
0
 62
7
  6
CONTINUOUS
 10
138.202911183
 20
206.1659253137
 11
137.9964278929
 21
206.7788199032
  0
LINE
  8
0
 62
7
  6
CONTINUOUS
 10
140.3413153945
 20
208.5665056879
 11
140.547796308
 21
207.9536108581
  0
LINE
  8
0
 62
7
  6
CONTINUOUS
 10
134.9793945669
 20
203.9540874522
 11
134.7979815618
 21
204.566062528
  0
LINE
  8
0
 62
7
  6
CONTINUOUS
 10
133.7699745047
 20
208.0339213861
 11
133.5583260235
 21
208.7478922245
  0
LINE
  8
0
 62
7
  6
CONTINUOUS
 10
141.1999780325
 20
207.1984701529
 11
141.0444284746
 21
208.143196837
  0
LINE
  8
0
 62
9
  6
CONTINUOUS
 10
154.8255388068
 20
257.1273553087
 11
154.917493753
 21
256.2536471122
  0
LINE
  8
0
 62
7
  6
CONTINUOUS
 10
162.3897945229
 20
205.3329215718
 11
162.4440978698
 21
204.7642493882
  0
LINE
  8
0
 62
7
  6
CONTINUOUS
 10
162.9323701822
 20
204.9567487448
 11
162.9198234888
 21
205.2922319232
  0
LINE
  8
0
 62
7
  6
CONTINUOUS
 10
165.4990017047
 20
205.2196785121
 11
165.5115483572
 21
204.8841951904
  0
LINE
  8
0
 62
7
  6
CONTINUOUS
 10
166.3669442207
 20
206.7420202835
 11
166.3543975273
 21
207.0775034618
  0
LINE
  8
0
 62
9
  6
CONTINUOUS
 10
154.9174937266
 20
45.0065985357
 11
154.8255388067
 21
44.1328905924
  0
LINE
  8
0
 62
9
  6
CONTINUOUS
 10
216.2366913865
 20
233.1369838865
 11
215.797531708
 21
232.3760893461
  0
LINE
  8
0
 62
9
  6
CONTINUOUS
 10
91.6296319431
 20
61.4736370517
 11
91.0416862063
 21
60.8208422233
  0
LINE
  8
0
 62
9
  6
CONTINUOUS
 10
251.8181709486
 20
177.6317958919
 11
251.0156407161
 21
177.2743508602
  0
LINE
  8
0
 62
9
  6
CONTINUOUS
 10
247.1197004052
 20
189.264823038
 11
247.979061671
 21
189.4473593148
  0
LINE
  8
0
 62
9
  6
CONTINUOUS
 10
49.2483973459
 20
189.4473593147
 11
50.1077588606
 21
189.2648229847
  0
LINE
  8
0
 62
9
  6
CONTINUOUS
 10
251.0156409493
 20
123.9858949379
 11
251.8181709491
 21
123.6284500095
  0
LINE
  8
0
 62
7
  6
CONTINUOUS
 10
107.4175469561
 20
192.669795292
 11
107.0381450638
 21
192.8888437918
  0
LINE
  8
0
 62
7
  6
CONTINUOUS
 10
113.4378568561
 20
194.8663277665
 11
113.7120918281
 21
194.6726736029
  0
LINE
  8
0
 62
7
  6
CONTINUOUS
 10
115.0698007965
 20
198.6034017376
 11
114.7955661242
 21
198.7970564964
  0
LINE
  8
0
 62
7
  6
CONTINUOUS
 10
117.2420097424
 20
197.6407497636
 11
117.4991743907
 21
197.4249414624
  0
LINE
  8
0
 62
7
  6
CONTINUOUS
 10
119.1793535146
 20
201.2290176215
 11
118.9221887086
 21
201.4448261756
  0
LINE
  8
0
 62
7
  6
CONTINUOUS
 10
115.4711764437
 20
198.2391468982
 11
115.0698007965
 21
198.6034017376
  0
LINE
  8
0
 62
7
  6
CONTINUOUS
 10
119.5490168525
 20
200.8326175523
 11
119.1793535146
 21
201.2290176215
  0
LINE
  8
0
 62
9
  6
CONTINUOUS
 10
91.0416862066
 20
240.439403678
 11
91.6296321136
 21
239.7866086602
  0
LINE
  8
0
 62
9
  6
CONTINUOUS
 10
215.7975318358
 20
68.8841563347
 11
216.2366913867
 21
68.1232620147
  0
LINE
  8
0
 62
7
  6
CONTINUOUS
 10
137.6889957322
 20
206.0813089664
 11
137.8436291455
 21
205.7833234187
  0
LINE
  8
0
 62
7
  6
CONTINUOUS
 10
140.8552284928
 20
208.6511216478
 11
140.7005950311
 21
208.9491074897
  0
LINE
  8
0
 62
7
  6
CONTINUOUS
 10
141.0444284746
 20
208.143196837
 11
140.8552284928
 21
208.6511216478
  0
LINE
  8
0
 62
7
  6
CONTINUOUS
 10
155.8817207343
 20
209.3430514406
 11
155.9525483054
 21
209.0148901424
  0
LINE
  8
0
 62
7
  6
CONTINUOUS
 10
156.5742415587
 20
208.9506834541
 11
156.5034139876
 21
209.2788447524
  0
LINE
  8
0
 62
7
  6
CONTINUOUS
 10
161.0993723191
 20
204.2346843059
 11
160.4121175663
 21
209.4601463318
  0
LINE
  8
0
 62
7
  6
CONTINUOUS
 10
160.318971624
 20
205.6858002817
 11
160.4857356954
 21
204.3533228079
  0
LINE
  8
0
 62
7
  6
CONTINUOUS
 10
159.9222529037
 20
209.1214432666
 11
160.2974755546
 21
206.1233681619
  0
LINE
  8
0
 62
7
  6
CONTINUOUS
 10
166.041577364
 20
204.8435056851
 11
165.9872739966
 21
205.412177797
  0
LINE
  8
0
 62
9
  6
CONTINUOUS
 10
155.6166630979
 20
48.2966858747
 11
154.9173323891
 21
45.0065935653
  0
LINE
  8
0
 62
7
  6
CONTINUOUS
 10
157.5729582994
 20
47.880862493
 11
155.5825469992
 21
38.5167135599
  0
LINE
  8
0
 62
9
  6
CONTINUOUS
 10
154.8255388088
 20
44.1328905925
 11
153.6418213418
 21
38.5855897587
  0
LINE
  8
0
 62
9
  6
CONTINUOUS
 10
218.5396654612
 20
238.3206162031
 11
216.2366913881
 21
233.1369838851
  0
LINE
  8
0
 62
9
  6
CONTINUOUS
 10
215.7974041271
 20
232.3761881832
 11
214.4293069225
 21
229.3033915514
  0
LINE
  8
0
 62
7
  6
CONTINUOUS
 10
220.1502299133
 20
237.2356082982
 11
216.2563978378
 21
228.4899182652
  0
LINE
  8
0
 62
9
  6
CONTINUOUS
 10
94.129136663
 20
63.7244121766
 11
91.6294984976
 21
61.4737278632
  0
LINE
  8
0
 62
7
  6
CONTINUOUS
 10
95.4673978757
 20
62.2381225256
 11
88.3530126649
 21
55.8323013091
  0
LINE
  8
0
 62
9
  6
CONTINUOUS
 10
91.041686208
 20
60.8208422221
 11
86.8234170405
 21
57.0287532446
  0
LINE
  8
0
 62
9
  6
CONTINUOUS
 10
256.7281787417
 20
180.4717883311
 11
251.8181709491
 21
177.6317958899
  0
LINE
  8
0
 62
9
  6
CONTINUOUS
 10
251.015595596
 20
177.2745058113
 11
248.1026371641
 21
175.5927084765
  0
LINE
  8
0
 62
7
  6
CONTINUOUS
 10
257.3934011089
 20
178.6473324642
 11
249.1026371641
 21
173.8606576689
  0
LINE
  8
0
 62
9
  6
CONTINUOUS
 10
243.7745861846
 20
188.9130797238
 11
247.1197549896
 21
189.2646711329
  0
LINE
  8
0
 62
7
  6
CONTINUOUS
 10
243.5655292581
 20
190.9021235146
 11
253.0864350381
 21
191.9028110356
  0
LINE
  8
0
 62
9
  6
CONTINUOUS
 10
247.9790616703
 20
189.4473593167
 11
253.62064709
 21
190.0357873369
  0
LINE
  8
0
 62
9
  6
CONTINUOUS
 10
43.6068119264
 20
190.0357873369
 11
49.2483973467
 21
189.4473593167
  0
LINE
  8
0
 62
9
  6
CONTINUOUS
 10
50.1077042832
 20
189.264671106
 11
53.4528728318
 21
188.9130797238
  0
LINE
  8
0
 62
7
  6
CONTINUOUS
 10
44.1410239783
 20
191.9028110356
 11
53.6619297583
 21
190.9021235146
  0
LINE
  8
0
 62
7
  6
CONTINUOUS
 10
114.5709885856
 20
194.9147428769
 11
113.8554725901
 21
195.1775589888
  0
LINE
  8
0
 62
7
  6
CONTINUOUS
 10
113.9366694113
 20
198.5549871626
 11
114.6521850624
 21
198.2921705153
  0
LINE
  8
0
 62
7
  6
CONTINUOUS
 10
118.3752386816
 20
197.5946781552
 11
117.6840821884
 21
197.9161399005
  0
LINE
  8
0
 62
7
  6
CONTINUOUS
 10
118.0461244571
 20
201.2750894196
 11
118.7372810685
 21
200.9536274846
  0
LINE
  8
0
 62
7
  6
CONTINUOUS
 10
113.7120918281
 20
194.6726736029
 11
114.1334201857
 21
194.4559651792
  0
LINE
  8
0
 62
7
  6
CONTINUOUS
 10
114.7955661242
 20
198.7970564964
 11
114.3742373332
 21
199.0137645042
  0
LINE
  8
0
 62
9
  6
CONTINUOUS
 10
248.1026371641
 20
125.6675374252
 11
251.0155958214
 21
123.9857399602
  0
LINE
  8
0
 62
7
  6
CONTINUOUS
 10
249.1026371641
 20
127.3995882328
 11
257.3934011089
 21
122.6129134374
  0
LINE
  8
0
 62
9
  6
CONTINUOUS
 10
251.8181709496
 20
123.6284500115
 11
256.7281787417
 21
120.7884575705
  0
LINE
  8
0
 62
7
  6
CONTINUOUS
 10
117.4991743907
 20
197.4249414624
 11
117.9010020018
 21
197.1739146741
  0
LINE
  8
0
 62
7
  6
CONTINUOUS
 10
118.9221887086
 20
201.4448261756
 11
118.5203611369
 21
201.6958529006
  0
LINE
  8
0
 62
9
  6
CONTINUOUS
 10
86.8234170405
 20
244.2314926571
 11
91.0416862084
 21
240.4394036791
  0
LINE
  8
0
 62
9
  6
CONTINUOUS
 10
91.6294986894
 20
239.7865178658
 11
94.129136663
 21
237.535833725
  0
LINE
  8
0
 62
7
  6
CONTINUOUS
 10
88.353012673
 20
245.4279445852
 11
95.4673978757
 21
239.022123376
  0
LINE
  8
0
 62
7
  6
CONTINUOUS
 10
138.717740438
 20
205.6038000638
 11
138.202911183
 21
206.1659253137
  0
LINE
  8
0
 62
7
  6
CONTINUOUS
 10
139.8264837507
 20
209.128630771
 11
140.3413153945
 21
208.5665056879
  0
LINE
  8
0
 62
7
  6
CONTINUOUS
 10
137.8436291455
 20
205.7833234187
 11
138.1183270633
 21
205.3972911254
  0
LINE
  8
0
 62
7
  6
CONTINUOUS
 10
140.7005950311
 20
208.9491074897
 11
140.4258971254
 21
209.3351397094
  0
LINE
  8
0
 62
9
  6
CONTINUOUS
 10
214.4293069225
 20
71.9568543502
 11
215.797404233
 21
68.8840574806
  0
LINE
  8
0
 62
7
  6
CONTINUOUS
 10
216.2563978378
 20
72.7703276364
 11
220.1502299133
 21
64.0246376034
  0
LINE
  8
0
 62
9
  6
CONTINUOUS
 10
216.2366913883
 20
68.123262016
 11
218.5396654612
 21
62.9396296985
  0
LINE
  8
0
 62
7
  6
CONTINUOUS
 10
162.4440978698
 20
204.7642493882
 11
162.6277695026
 21
204.2692762774
  0
LINE
  8
0
 62
7
  6
CONTINUOUS
 10
163.0450843202
 20
204.5926676689
 11
162.9323701822
 21
204.9567487448
  0
LINE
  8
0
 62
9
  6
CONTINUOUS
 10
153.6418213418
 20
262.674656143
 11
154.8255388089
 21
257.1273553085
  0
LINE
  8
0
 62
9
  6
CONTINUOUS
 10
154.9173324428
 20
256.2536520835
 11
155.6166630979
 21
252.963560027
  0
LINE
  8
0
 62
7
  6
CONTINUOUS
 10
155.5825469992
 20
262.7435323417
 11
157.5729582994
 21
253.3793834086
  0
LINE
  8
0
 62
7
  6
CONTINUOUS
 10
107.0381450638
 20
192.8888437918
 11
106.4426250058
 21
192.8821726098
  0
LINE
  8
0
 62
7
  6
CONTINUOUS
 10
114.1334201857
 20
194.4559651792
 11
114.5747011869
 21
194.3868032609
  0
LINE
  8
0
 62
7
  6
CONTINUOUS
 10
114.3742373332
 20
199.0137645042
 11
113.9329563543
 21
199.0829263926
  0
LINE
  8
0
 62
7
  6
CONTINUOUS
 10
106.6107103478
 20
192.2885928305
 11
106.9853110371
 21
192.2183563589
  0
LINE
  8
0
 62
7
  6
CONTINUOUS
 10
117.9010020018
 20
197.1739146741
 11
118.3349948388
 21
197.0682618919
  0
LINE
  8
0
 62
7
  6
CONTINUOUS
 10
118.5203611369
 20
201.6958529006
 11
118.0863683197
 21
201.8015056512
  0
LINE
  8
0
 62
7
  6
CONTINUOUS
 10
138.1183270633
 20
205.3972911254
 11
138.4785252515
 21
205.1331518474
  0
LINE
  8
0
 62
7
  6
CONTINUOUS
 10
140.4258971254
 20
209.3351397094
 11
140.0656989433
 21
209.5992789507
  0
LINE
  8
0
 62
7
  6
CONTINUOUS
 10
155.6963456622
 20
209.5760940646
 11
155.8817207343
 21
209.3430514406
  0
LINE
  8
0
 62
7
  6
CONTINUOUS
 10
156.5034139876
 20
209.2788447524
 11
156.2362825478
 21
209.7342285589
  0
LINE
  8
0
 62
7
  6
CONTINUOUS
 10
165.3570821506
 20
205.4814639626
 11
165.4990017047
 21
205.2196785121
  0
LINE
  8
0
 62
7
  6
CONTINUOUS
 10
165.9872739966
 20
205.412177797
 11
165.7743969581
 21
205.8048553182
  0
LINE
  8
0
 62
7
  6
CONTINUOUS
 10
166.3543975273
 20
207.0775034618
 11
166.1707258843
 21
207.5724765368
  0
LINE
  8
0
 62
7
  6
CONTINUOUS
 10
165.7534110769
 20
207.2490851812
 11
165.8661252354
 21
206.8850041769
  0
LINE
  8
0
 62
7
  6
CONTINUOUS
 10
164.5434430047
 20
203.3904500882
 11
165.1318781842
 21
203.5543528831
  0
LINE
  8
0
 62
7
  6
CONTINUOUS
 10
164.3552198397
 20
208.4227048733
 11
163.7667800827
 21
208.2588034142
  0
LINE
  8
0
 62
7
  6
CONTINUOUS
 10
106.2409110677
 20
192.2100174891
 11
106.6107103478
 21
192.2885928305
  0
LINE
  8
0
 62
7
  6
CONTINUOUS
 10
114.5747011869
 20
194.3868032609
 11
115.1830281894
 21
194.4421336252
  0
LINE
  8
0
 62
7
  6
CONTINUOUS
 10
113.9329563543
 20
199.0829263926
 11
113.3246288906
 21
199.0275956497
  0
LINE
  8
0
 62
7
  6
CONTINUOUS
 10
164.5893025352
 20
203.930525746
 11
164.2596039144
 21
203.9140210518
  0
LINE
  8
0
 62
7
  6
CONTINUOUS
 10
114.948698988
 20
194.9308811483
 11
114.5709885856
 21
194.9147428769
  0
LINE
  8
0
 62
7
  6
CONTINUOUS
 10
113.5589590089
 20
198.5388488912
 11
113.9366694113
 21
198.5549871626
  0
LINE
  8
0
 62
7
  6
CONTINUOUS
 10
118.3349948388
 20
197.0682618919
 11
118.9458168516
 21
197.0727652984
  0
LINE
  8
0
 62
7
  6
CONTINUOUS
 10
118.0863683197
 20
201.8015056512
 11
117.4755463216
 21
201.797002221
  0
LINE
  8
0
 62
7
  6
CONTINUOUS
 10
118.7529816482
 20
197.5793209735
 11
118.3752386816
 21
197.5946781552
  0
LINE
  8
0
 62
7
  6
CONTINUOUS
 10
117.6683814905
 20
201.2904466013
 11
118.0461244571
 21
201.2750894196
  0
LINE
  8
0
 62
7
  6
CONTINUOUS
 10
164.0134140362
 20
203.4311397279
 11
164.5434430047
 21
203.3904500882
  0
LINE
  8
0
 62
7
  6
CONTINUOUS
 10
138.4785252515
 20
205.1331518474
 11
139.0442905594
 21
204.9028592724
  0
LINE
  8
0
 62
7
  6
CONTINUOUS
 10
140.0656989433
 20
209.5992789507
 11
139.4999359924
 21
209.8295718854
  0
LINE
  8
0
 62
7
  6
CONTINUOUS
 10
139.0606553359
 20
205.4446304541
 11
138.717740438
 21
205.6038000638
  0
LINE
  8
0
 62
7
  6
CONTINUOUS
 10
139.4835688528
 20
209.2878003807
 11
139.8264837507
 21
209.128630771
  0
LINE
  8
0
 62
7
  6
CONTINUOUS
 10
163.0409768786
 20
203.8194043865
 11
163.5125904657
 21
203.5741249303
  0
LINE
  8
0
 62
7
  6
CONTINUOUS
 10
163.558454584
 20
204.114199288
 11
163.2871667543
 21
204.3022857015
  0
LINE
  8
0
 62
7
  6
CONTINUOUS
 10
156.2362825478
 20
209.7342285589
 11
155.85460835
 21
210.0944932013
  0
LINE
  8
0
 62
7
  6
CONTINUOUS
 10
162.6277695026
 20
204.2692762774
 11
163.0409768786
 21
203.8194043865
  0
LINE
  8
0
 62
7
  6
CONTINUOUS
 10
166.1707258843
 20
207.5724765368
 11
165.7575185006
 21
208.0223484008
  0
LINE
  8
0
 62
7
  6
CONTINUOUS
 10
165.7743969581
 20
205.8048553182
 11
165.3611941595
 21
206.2547258731
  0
LINE
  8
0
 62
7
  6
CONTINUOUS
 10
163.2871667543
 20
204.3022857015
 11
163.0450843202
 21
204.5926676689
  0
LINE
  8
0
 62
7
  6
CONTINUOUS
 10
165.1149997166
 20
205.7718459299
 11
165.3570821506
 21
205.4814639626
  0
LINE
  8
0
 62
7
  6
CONTINUOUS
 10
165.5113286428
 20
207.5394671485
 11
165.7534110769
 21
207.2490851812
  0
LINE
  8
0
 62
7
  6
CONTINUOUS
 10
155.5542712745
 20
208.2004322653
 11
155.2324958512
 21
208.1267154938
  0
LINE
  8
0
 62
7
  6
CONTINUOUS
 10
136.4076386053
 20
204.258579435
 11
137.0170528835
 21
204.3972850134
  0
LINE
  8
0
 62
7
  6
CONTINUOUS
 10
135.907408256
 20
209.2725992392
 11
135.2979939778
 21
209.1338936608
  0
LINE
  8
0
 62
7
  6
CONTINUOUS
 10
155.0633091098
 20
207.5024957516
 11
155.5923171986
 21
207.5548101304
  0
LINE
  8
0
 62
7
  6
CONTINUOUS
 10
163.8128639357
 20
206.1436058855
 11
164.1425625565
 21
206.1601105796
  0
LINE
  8
0
 62
7
  6
CONTINUOUS
 10
164.309355742
 20
207.8826305872
 11
164.6390543627
 21
207.8991352814
  0
LINE
  8
0
 62
7
  6
CONTINUOUS
 10
139.0442905594
 20
204.9028592724
 11
139.6782705041
 21
204.8994289385
  0
LINE
  8
0
 62
7
  6
CONTINUOUS
 10
139.4999359924
 20
209.8295718854
 11
138.8659560492
 21
209.8330022101
  0
LINE
  8
0
 62
7
  6
CONTINUOUS
 10
139.5918540709
 20
205.4242771699
 11
139.0606553359
 21
205.4446304541
  0
LINE
  8
0
 62
7
  6
CONTINUOUS
 10
138.9523724703
 20
209.3081540523
 11
139.4835688528
 21
209.2878003807
  0
LINE
  8
0
 62
7
  6
CONTINUOUS
 10
164.3887524143
 20
206.6429918319
 11
163.8587280335
 21
206.6836801715
  0
LINE
  8
0
 62
7
  6
CONTINUOUS
 10
164.8852442205
 20
208.3820165337
 11
164.3552198397
 21
208.4227048733
  0
LINE
  8
0
 62
7
  6
CONTINUOUS
 10
152.3470313353
 20
205.5370997805
 11
152.9687245886
 21
205.4728930923
  0
LINE
  8
0
 62
7
  6
CONTINUOUS
 10
153.1982293499
 20
207.6951158164
 11
155.0633091098
 21
207.5024957516
  0
LINE
  8
0
 62
7
  6
CONTINUOUS
 10
155.2324958512
 20
208.1267154938
 11
153.2638021301
 21
208.33003651
  0
LINE
  8
0
 62
7
  6
CONTINUOUS
 10
153.4277341113
 20
209.9173385405
 11
155.3964278323
 21
209.7140175243
  0
LINE
  8
0
 62
7
  6
CONTINUOUS
 10
155.3474578546
 20
210.2538190537
 11
152.8606848415
 21
210.5106458068
  0
LINE
  8
0
 62
7
  6
CONTINUOUS
 10
157.0084630555
 20
205.0256073511
 11
157.6220996792
 21
204.906968849
  0
LINE
  8
0
 62
7
  6
CONTINUOUS
 10
160.4857356954
 20
204.3533228079
 11
161.0993723191
 21
204.2346843059
  0
LINE
  8
0
 62
7
  6
CONTINUOUS
 10
158.2735146514
 20
206.0812622569
 11
160.318971624
 21
205.6858002817
  0
LINE
  8
0
 62
7
  6
CONTINUOUS
 10
160.2974755546
 20
206.1233681619
 11
158.4565656838
 21
206.479283668
  0
LINE
  8
0
 62
7
  6
CONTINUOUS
 10
160.4121175663
 20
209.4601463318
 11
159.5939338409
 21
209.6183313029
  0
LINE
  8
0
 62
7
  6
CONTINUOUS
 10
163.5125904657
 20
203.5741249303
 11
164.0134140362
 21
203.4311397279
  0
LINE
  8
0
 62
7
  6
CONTINUOUS
 10
164.2596039144
 20
203.9140210518
 11
163.558454584
 21
204.114199288
  0
LINE
  8
0
 62
7
  6
CONTINUOUS
 10
164.1425625565
 20
206.1601105796
 11
164.8437118869
 21
205.9599323434
  0
LINE
  8
0
 62
7
  6
CONTINUOUS
 10
164.8895759847
 20
206.5000066295
 11
164.3887524143
 21
206.6429918319
  0
LINE
  8
0
 62
7
  6
CONTINUOUS
 10
165.8661252354
 20
206.8850041769
 11
166.3669442207
 21
206.7420202835
  0
LINE
  8
0
 62
7
  6
CONTINUOUS
 10
164.6390543627
 20
207.8991352814
 11
165.2400408132
 21
207.727553562
  0
LINE
  8
0
 62
7
  6
CONTINUOUS
 10
165.2859049109
 20
208.2676278481
 11
164.8852442205
 21
208.3820165337
  0
LINE
  8
0
 62
7
  6
CONTINUOUS
 10
155.85460835
 20
210.0944932013
 11
155.3474578546
 21
210.2538190537
  0
LINE
  8
0
 62
7
  6
CONTINUOUS
 10
155.3964278323
 20
209.7140175243
 11
155.6963456622
 21
209.5760940646
  0
LINE
  8
0
 62
7
  6
CONTINUOUS
 10
165.3611941595
 20
206.2547258731
 11
164.8895759847
 21
206.5000066295
  0
LINE
  8
0
 62
7
  6
CONTINUOUS
 10
165.7575185006
 20
208.0223484008
 11
165.2859049109
 21
208.2676278481
  0
LINE
  8
0
 62
7
  6
CONTINUOUS
 10
164.8437118869
 20
205.9599323434
 11
165.1149997166
 21
205.7718459299
  0
LINE
  8
0
 62
7
  6
CONTINUOUS
 10
165.2400408132
 20
207.727553562
 11
165.5113286428
 21
207.5394671485
  0
POLYLINE
  8
0
 62
9
  6
CONTINUOUS
 66
1
 70
0
  0
VERTEX
  8
0
 62
9
  6
CONTINUOUS
 10
217.8436323733
 20
232.0549054009
  0
VERTEX
  8
0
 62
9
  6
CONTINUOUS
 10
217.8363780821
 20
232.1276664804
  0
VERTEX
  8
0
 62
9
  6
CONTINUOUS
 10
217.7632081336
 20
232.2272565822
  0
VERTEX
  8
0
 62
9
  6
CONTINUOUS
 10
217.6267727892
 20
232.3500684883
  0
VERTEX
  8
0
 62
9
  6
CONTINUOUS
 10
217.4320138236
 20
232.4916538728
  0
VERTEX
  8
0
 62
9
  6
CONTINUOUS
 10
217.1859855297
 20
232.646884423
  0
VERTEX
  8
0
 62
9
  6
CONTINUOUS
 10
216.8975992087
 20
232.8101375895
  0
VERTEX
  8
0
 62
9
  6
CONTINUOUS
 10
216.577300396
 20
232.9755002393
  0
VERTEX
  8
0
 62
9
  6
CONTINUOUS
 10
216.2366905182
 20
233.1369828325
  0
SEQEND
  0
POLYLINE
  8
0
 62
9
  6
CONTINUOUS
 66
1
 70
0
  0
VERTEX
  8
0
 62
9
  6
CONTINUOUS
 10
220.1502299322
 20
237.2356083406
  0
VERTEX
  8
0
 62
9
  6
CONTINUOUS
 10
220.1445886563
 20
237.3131592442
  0
VERTEX
  8
0
 62
9
  6
CONTINUOUS
 10
220.0696726703
 20
237.4086879281
  0
VERTEX
  8
0
 62
9
  6
CONTINUOUS
 10
219.9335443782
 20
237.5317320631
  0
VERTEX
  8
0
 62
9
  6
CONTINUOUS
 10
219.7376310988
 20
237.6739781337
  0
VERTEX
  8
0
 62
9
  6
CONTINUOUS
 10
219.4910952688
 20
237.8293077921
  0
VERTEX
  8
0
 62
9
  6
CONTINUOUS
 10
219.2019160657
 20
237.9932796911
  0
VERTEX
  8
0
 62
9
  6
CONTINUOUS
 10
218.8775705432
 20
238.1552535749
  0
VERTEX
  8
0
 62
9
  6
CONTINUOUS
 10
218.5396654612
 20
238.3206162031
  0
SEQEND
  0
POLYLINE
  8
0
 62
9
  6
CONTINUOUS
 66
1
 70
0
  0
VERTEX
  8
0
 62
9
  6
CONTINUOUS
 10
220.1502299295
 20
64.0246375671
  0
VERTEX
  8
0
 62
9
  6
CONTINUOUS
 10
220.1445868576
 20
63.9470797769
  0
VERTEX
  8
0
 62
9
  6
CONTINUOUS
 10
220.0696613168
 20
63.8515459098
  0
VERTEX
  8
0
 62
9
  6
CONTINUOUS
 10
219.9335212865
 20
63.7284957179
  0
VERTEX
  8
0
 62
9
  6
CONTINUOUS
 10
219.7375978684
 20
63.5862453674
  0
VERTEX
  8
0
 62
9
  6
CONTINUOUS
 10
219.4910581985
 20
63.4309165746
  0
VERTEX
  8
0
 62
9
  6
CONTINUOUS
 10
219.2018839106
 20
63.26694884
  0
VERTEX
  8
0
 62
9
  6
CONTINUOUS
 10
218.8775508674
 20
63.1049821226
  0
VERTEX
  8
0
 62
9
  6
CONTINUOUS
 10
218.5396654612
 20
62.9396296985
  0
SEQEND
  0
POLYLINE
  8
0
 62
9
  6
CONTINUOUS
 66
1
 70
0
  0
VERTEX
  8
0
 62
9
  6
CONTINUOUS
 10
217.8436323733
 20
69.2053405008
  0
VERTEX
  8
0
 62
9
  6
CONTINUOUS
 10
217.8363790139
 20
69.1325796913
  0
VERTEX
  8
0
 62
9
  6
CONTINUOUS
 10
217.7632097513
 20
69.0329897114
  0
VERTEX
  8
0
 62
9
  6
CONTINUOUS
 10
217.6267748321
 20
68.910177786
  0
VERTEX
  8
0
 62
9
  6
CONTINUOUS
 10
217.4320160328
 20
68.7685922567
  0
VERTEX
  8
0
 62
9
  6
CONTINUOUS
 10
217.1859876657
 20
68.6133614593
  0
VERTEX
  8
0
 62
9
  6
CONTINUOUS
 10
216.8976010658
 20
68.4501079714
  0
VERTEX
  8
0
 62
9
  6
CONTINUOUS
 10
216.5773018154
 20
68.284744959
  0
VERTEX
  8
0
 62
9
  6
CONTINUOUS
 10
216.2366913975
 20
68.1232619963
  0
SEQEND
  0
POLYLINE
  8
0
 62
9
  6
CONTINUOUS
 66
1
 70
0
  0
VERTEX
  8
0
 62
9
  6
CONTINUOUS
 10
252.4821837403
 20
175.8118397944
  0
VERTEX
  8
0
 62
9
  6
CONTINUOUS
 10
252.5190827849
 20
175.8749687097
  0
VERTEX
  8
0
 62
9
  6
CONTINUOUS
 10
252.5184246461
 20
175.9985470112
  0
VERTEX
  8
0
 62
9
  6
CONTINUOUS
 10
252.4802331611
 20
176.1780986136
  0
VERTEX
  8
0
 62
9
  6
CONTINUOUS
 10
252.4058916491
 20
176.4071200436
  0
VERTEX
  8
0
 62
9
  6
CONTINUOUS
 10
252.2980928064
 20
176.6773159995
  0
VERTEX
  8
0
 62
9
  6
CONTINUOUS
 10
252.1607411754
 20
176.9788998121
  0
VERTEX
  8
0
 62
9
  6
CONTINUOUS
 10
251.9988117195
 20
177.3009479244
  0
VERTEX
  8
0
 62
9
  6
CONTINUOUS
 10
251.8181696267
 20
177.6317955496
  0
SEQEND
  0
POLYLINE
  8
0
 62
9
  6
CONTINUOUS
 66
1
 70
0
  0
VERTEX
  8
0
 62
9
  6
CONTINUOUS
 10
257.3934011491
 20
178.6473324874
  0
VERTEX
  8
0
 62
9
  6
CONTINUOUS
 10
257.4344205384
 20
178.7133883451
  0
VERTEX
  8
0
 62
9
  6
CONTINUOUS
 10
257.4299625842
 20
178.8347071856
  0
VERTEX
  8
0
 62
9
  6
CONTINUOUS
 10
257.3921560104
 20
179.0142661843
  0
VERTEX
  8
0
 62
9
  6
CONTINUOUS
 10
257.3172689804
 20
179.2445006092
  0
VERTEX
  8
0
 62
9
  6
CONTINUOUS
 10
257.2091177867
 20
179.5150750676
  0
VERTEX
  8
0
 62
9
  6
CONTINUOUS
 10
257.071547161
 20
179.8177063914
  0
VERTEX
  8
0
 62
9
  6
CONTINUOUS
 10
256.9043519814
 20
180.1393915308
  0
VERTEX
  8
0
 62
9
  6
CONTINUOUS
 10
256.7281787417
 20
180.4717883311
  0
SEQEND
  0
POLYLINE
  8
0
 62
9
  6
CONTINUOUS
 66
1
 70
0
  0
VERTEX
  8
0
 62
9
  6
CONTINUOUS
 10
155.5825469909
 20
38.5167135211
  0
VERTEX
  8
0
 62
9
  6
CONTINUOUS
 10
155.5323943246
 20
38.4572848651
  0
VERTEX
  8
0
 62
9
  6
CONTINUOUS
 10
155.4156248906
 20
38.4240364711
  0
VERTEX
  8
0
 62
9
  6
CONTINUOUS
 10
155.2331582044
 20
38.4045078767
  0
VERTEX
  8
0
 62
9
  6
CONTINUOUS
 10
154.9910401714
 20
38.4045858214
  0
VERTEX
  8
0
 62
9
  6
CONTINUOUS
 10
154.700285415
 20
38.4238345704
  0
VERTEX
  8
0
 62
9
  6
CONTINUOUS
 10
154.3699606855
 20
38.4611542684
  0
VERTEX
  8
0
 62
9
  6
CONTINUOUS
 10
154.0123680939
 20
38.5207586211
  0
VERTEX
  8
0
 62
9
  6
CONTINUOUS
 10
153.6418213418
 20
38.5855897587
  0
SEQEND
  0
POLYLINE
  8
0
 62
9
  6
CONTINUOUS
 66
1
 70
0
  0
VERTEX
  8
0
 62
9
  6
CONTINUOUS
 10
156.7616111498
 20
44.0637742637
  0
VERTEX
  8
0
 62
9
  6
CONTINUOUS
 10
156.712975328
 20
44.00917295
  0
VERTEX
  8
0
 62
9
  6
CONTINUOUS
 10
156.5952426296
 20
43.9716107772
  0
VERTEX
  8
0
 62
9
  6
CONTINUOUS
 10
156.4126774227
 20
43.952448276
  0
VERTEX
  8
0
 62
9
  6
CONTINUOUS
 10
156.1718923583
 20
43.9523795265
  0
VERTEX
  8
0
 62
9
  6
CONTINUOUS
 10
155.8816088548
 20
43.9714070192
  0
VERTEX
  8
0
 62
9
  6
CONTINUOUS
 10
155.5523412019
 20
44.0088415635
  0
VERTEX
  8
0
 62
9
  6
CONTINUOUS
 10
155.1960157251
 20
44.0633272519
  0
VERTEX
  8
0
 62
9
  6
CONTINUOUS
 10
154.8255388046
 20
44.1328905712
  0
SEQEND
  0
POLYLINE
  8
0
 62
9
  6
CONTINUOUS
 66
1
 70
0
  0
VERTEX
  8
0
 62
9
  6
CONTINUOUS
 10
247.4465159495
 20
109.9502142488
  0
VERTEX
  8
0
 62
9
  6
CONTINUOUS
 10
247.5134741491
 20
109.9795978999
  0
VERTEX
  8
0
 62
9
  6
CONTINUOUS
 10
247.5855792067
 20
110.0799616901
  0
VERTEX
  8
0
 62
9
  6
CONTINUOUS
 10
247.6602194302
 20
110.2476703795
  0
VERTEX
  8
0
 62
9
  6
CONTINUOUS
 10
247.7346913026
 20
110.4766494529
  0
VERTEX
  8
0
 62
9
  6
CONTINUOUS
 10
247.806297405
 20
110.758605143
  0
VERTEX
  8
0
 62
9
  6
CONTINUOUS
 10
247.8724441187
 20
111.0833248357
  0
VERTEX
  8
0
 62
9
  6
CONTINUOUS
 10
247.930735568
 20
111.4390469776
  0
VERTEX
  8
0
 62
9
  6
CONTINUOUS
 10
247.9790603998
 20
111.812887087
  0
SEQEND
  0
POLYLINE
  8
0
 62
9
  6
CONTINUOUS
 66
1
 70
0
  0
VERTEX
  8
0
 62
9
  6
CONTINUOUS
 10
253.0864350842
 20
109.3574348612
  0
VERTEX
  8
0
 62
9
  6
CONTINUOUS
 10
253.1584471262
 20
109.3867645805
  0
VERTEX
  8
0
 62
9
  6
CONTINUOUS
 10
253.2261499908
 20
109.4875339039
  0
VERTEX
  8
0
 62
9
  6
CONTINUOUS
 10
253.3011059615
 20
109.6550223319
  0
VERTEX
  8
0
 62
9
  6
CONTINUOUS
 10
253.375849481
 20
109.8853033862
  0
VERTEX
  8
0
 62
9
  6
CONTINUOUS
 10
253.4473930036
 20
110.167772398
  0
VERTEX
  8
0
 62
9
  6
CONTINUOUS
 10
253.5139782586
 20
110.4934682668
  0
VERTEX
  8
0
 62
9
  6
CONTINUOUS
 10
253.5677962977
 20
110.8519918723
  0
VERTEX
  8
0
 62
9
  6
CONTINUOUS
 10
253.62064709
 20
111.2244585648
  0
SEQEND
  0
POLYLINE
  8
0
 62
9
  6
CONTINUOUS
 66
1
 70
0
  0
VERTEX
  8
0
 62
9
  6
CONTINUOUS
 10
208.874446381
 20
245.4279446191
  0
VERTEX
  8
0
 62
9
  6
CONTINUOUS
 10
208.9499520279
 20
245.446544414
  0
VERTEX
  8
0
 62
9
  6
CONTINUOUS
 10
209.0639634001
 20
245.4048075786
  0
VERTEX
  8
0
 62
9
  6
CONTINUOUS
 10
209.22306067
 20
245.3133553162
  0
VERTEX
  8
0
 62
9
  6
CONTINUOUS
 10
209.4188924586
 20
245.1709788485
  0
VERTEX
  8
0
 62
9
  6
CONTINUOUS
 10
209.6428038669
 20
244.9845049256
  0
VERTEX
  8
0
 62
9
  6
CONTINUOUS
 10
209.8881062186
 20
244.7601526512
  0
VERTEX
  8
0
 62
9
  6
CONTINUOUS
 10
210.1423701428
 20
244.5017440653
  0
VERTEX
  8
0
 62
9
  6
CONTINUOUS
 10
210.4040419759
 20
244.2314926571
  0
SEQEND
  0
POLYLINE
  8
0
 62
9
  6
CONTINUOUS
 66
1
 70
0
  0
VERTEX
  8
0
 62
9
  6
CONTINUOUS
 10
204.660082941
 20
241.6333147335
  0
VERTEX
  8
0
 62
9
  6
CONTINUOUS
 10
204.7315239943
 20
241.6489007055
  0
VERTEX
  8
0
 62
9
  6
CONTINUOUS
 10
204.8488502392
 20
241.6100875978
  0
VERTEX
  8
0
 62
9
  6
CONTINUOUS
 10
205.0078120298
 20
241.5182812508
  0
VERTEX
  8
0
 62
9
  6
CONTINUOUS
 10
205.2026516489
 20
241.3768069603
  0
VERTEX
  8
0
 62
9
  6
CONTINUOUS
 10
205.4263118568
 20
241.1907890331
  0
VERTEX
  8
0
 62
9
  6
CONTINUOUS
 10
205.6706915106
 20
240.9669651801
  0
VERTEX
  8
0
 62
9
  6
CONTINUOUS
 10
205.9269389928
 20
240.713442472
  0
VERTEX
  8
0
 62
9
  6
CONTINUOUS
 10
206.1857728243
 20
240.4394036943
  0
SEQEND
  0
POLYLINE
  8
0
 62
9
  6
CONTINUOUS
 66
1
 70
0
  0
VERTEX
  8
0
 62
9
  6
CONTINUOUS
 10
92.5673760754
 20
241.6333147335
  0
VERTEX
  8
0
 62
9
  6
CONTINUOUS
 10
92.4959344773
 20
241.6488999027
  0
VERTEX
  8
0
 62
9
  6
CONTINUOUS
 10
92.3786079045
 20
241.6100861803
  0
VERTEX
  8
0
 62
9
  6
CONTINUOUS
 10
92.2196460009
 20
241.5182794231
  0
VERTEX
  8
0
 62
9
  6
CONTINUOUS
 10
92.0248064681
 20
241.3768049297
  0
VERTEX
  8
0
 62
9
  6
CONTINUOUS
 10
91.801146518
 20
241.1907869957
  0
VERTEX
  8
0
 62
9
  6
CONTINUOUS
 10
91.5567672559
 20
240.9669633087
  0
VERTEX
  8
0
 62
9
  6
CONTINUOUS
 10
91.3005202539
 20
240.7134409048
  0
VERTEX
  8
0
 62
9
  6
CONTINUOUS
 10
91.0416869407
 20
240.4394025266
  0
SEQEND
  0
POLYLINE
  8
0
 62
9
  6
CONTINUOUS
 66
1
 70
0
  0
VERTEX
  8
0
 62
9
  6
CONTINUOUS
 10
88.3530126305
 20
245.4279446235
  0
VERTEX
  8
0
 62
9
  6
CONTINUOUS
 10
88.2775140882
 20
245.4465439985
  0
VERTEX
  8
0
 62
9
  6
CONTINUOUS
 10
88.163510598
 20
245.4048146486
  0
VERTEX
  8
0
 62
9
  6
CONTINUOUS
 10
88.0044227159
 20
245.3133716781
  0
VERTEX
  8
0
 62
9
  6
CONTINUOUS
 10
87.8085981308
 20
245.1710035303
  0
VERTEX
  8
0
 62
9
  6
CONTINUOUS
 10
87.5846870859
 20
244.9845335269
  0
VERTEX
  8
0
 62
9
  6
CONTINUOUS
 10
87.3393792546
 20
244.7601778648
  0
VERTEX
  8
0
 62
9
  6
CONTINUOUS
 10
87.0851046584
 20
244.5017596248
  0
VERTEX
  8
0
 62
9
  6
CONTINUOUS
 10
86.8234170405
 20
244.2314926571
  0
SEQEND
  0
POLYLINE
  8
0
 62
9
  6
CONTINUOUS
 66
1
 70
0
  0
VERTEX
  8
0
 62
9
  6
CONTINUOUS
 10
253.0864350776
 20
191.9028110398
  0
VERTEX
  8
0
 62
9
  6
CONTINUOUS
 10
253.1584531143
 20
191.8734774843
  0
VERTEX
  8
0
 62
9
  6
CONTINUOUS
 10
253.2261579556
 20
191.772697472
  0
VERTEX
  8
0
 62
9
  6
CONTINUOUS
 10
253.3011160595
 20
191.6051960085
  0
VERTEX
  8
0
 62
9
  6
CONTINUOUS
 10
253.3758605165
 20
191.3749039893
  0
VERTEX
  8
0
 62
9
  6
CONTINUOUS
 10
253.4474020293
 20
191.0924315931
  0
VERTEX
  8
0
 62
9
  6
CONTINUOUS
 10
253.5139848424
 20
190.7667416857
  0
VERTEX
  8
0
 62
9
  6
CONTINUOUS
 10
253.5677999222
 20
190.4082321633
  0
VERTEX
  8
0
 62
9
  6
CONTINUOUS
 10
253.62064709
 20
190.0357873369
  0
SEQEND
  0
POLYLINE
  8
0
 62
9
  6
CONTINUOUS
 66
1
 70
0
  0
VERTEX
  8
0
 62
9
  6
CONTINUOUS
 10
247.4465159495
 20
191.3100316529
  0
VERTEX
  8
0
 62
9
  6
CONTINUOUS
 10
247.5134741801
 20
191.2806489715
  0
VERTEX
  8
0
 62
9
  6
CONTINUOUS
 10
247.5855793339
 20
191.1802858712
  0
VERTEX
  8
0
 62
9
  6
CONTINUOUS
 10
247.6602197071
 20
191.0125775801
  0
VERTEX
  8
0
 62
9
  6
CONTINUOUS
 10
247.7346917686
 20
190.7835986203
  0
VERTEX
  8
0
 62
9
  6
CONTINUOUS
 10
247.8062980835
 20
190.5016427841
  0
VERTEX
  8
0
 62
9
  6
CONTINUOUS
 10
247.8724450166
 20
190.1769227269
  0
VERTEX
  8
0
 62
9
  6
CONTINUOUS
 10
247.9307366755
 20
189.8212000566
  0
VERTEX
  8
0
 62
9
  6
CONTINUOUS
 10
247.9790616918
 20
189.4473593194
  0
SEQEND
  0
POLYLINE
  8
0
 62
9
  6
CONTINUOUS
 66
1
 70
0
  0
VERTEX
  8
0
 62
9
  6
CONTINUOUS
 10
156.7616111498
 20
257.196471638
  0
VERTEX
  8
0
 62
9
  6
CONTINUOUS
 10
156.7129744154
 20
257.2510726225
  0
VERTEX
  8
0
 62
9
  6
CONTINUOUS
 10
156.5952410904
 20
257.2886344906
  0
VERTEX
  8
0
 62
9
  6
CONTINUOUS
 10
156.412675551
 20
257.3077967264
  0
VERTEX
  8
0
 62
9
  6
CONTINUOUS
 10
156.171890437
 20
257.3078652609
  0
VERTEX
  8
0
 62
9
  6
CONTINUOUS
 10
155.8816071381
 20
257.2888376113
  0
VERTEX
  8
0
 62
9
  6
CONTINUOUS
 10
155.5523398998
 20
257.2514029709
  0
VERTEX
  8
0
 62
9
  6
CONTINUOUS
 10
155.1960149902
 20
257.1969172465
  0
VERTEX
  8
0
 62
9
  6
CONTINUOUS
 10
154.8255387239
 20
257.1273539457
  0
SEQEND
  0
POLYLINE
  8
0
 62
9
  6
CONTINUOUS
 66
1
 70
0
  0
VERTEX
  8
0
 62
9
  6
CONTINUOUS
 10
155.5825469896
 20
262.7435323871
  0
VERTEX
  8
0
 62
9
  6
CONTINUOUS
 10
155.5323998241
 20
262.8029565272
  0
VERTEX
  8
0
 62
9
  6
CONTINUOUS
 10
155.4156411667
 20
262.8362063443
  0
VERTEX
  8
0
 62
9
  6
CONTINUOUS
 10
155.233187537
 20
262.855736938
  0
VERTEX
  8
0
 62
9
  6
CONTINUOUS
 10
154.9910802221
 20
262.8556614901
  0
VERTEX
  8
0
 62
9
  6
CONTINUOUS
 10
154.7003280634
 20
262.8364156985
  0
VERTEX
  8
0
 62
9
  6
CONTINUOUS
 10
154.3699969097
 20
262.7990964806
  0
VERTEX
  8
0
 62
9
  6
CONTINUOUS
 10
154.0123900097
 20
262.7394905904
  0
VERTEX
  8
0
 62
9
  6
CONTINUOUS
 10
153.6418213418
 20
262.674656143
  0
SEQEND
  0
POLYLINE
  8
0
 62
9
  6
CONTINUOUS
 66
1
 70
0
  0
VERTEX
  8
0
 62
9
  6
CONTINUOUS
 10
257.3934011433
 20
122.6129134176
  0
VERTEX
  8
0
 62
9
  6
CONTINUOUS
 10
257.4344231276
 20
122.5468509328
  0
VERTEX
  8
0
 62
9
  6
CONTINUOUS
 10
257.4299604898
 20
122.4255222829
  0
VERTEX
  8
0
 62
9
  6
CONTINUOUS
 10
257.3921479799
 20
122.2459514844
  0
VERTEX
  8
0
 62
9
  6
CONTINUOUS
 10
257.3172552632
 20
122.0157076376
  0
VERTEX
  8
0
 62
9
  6
CONTINUOUS
 10
257.2091004541
 20
121.7451316225
  0
VERTEX
  8
0
 62
9
  6
CONTINUOUS
 10
257.0715313571
 20
121.4425065569
  0
VERTEX
  8
0
 62
9
  6
CONTINUOUS
 10
256.9043420612
 20
121.1208345504
  0
VERTEX
  8
0
 62
9
  6
CONTINUOUS
 10
256.7281787417
 20
120.7884575705
  0
SEQEND
  0
POLYLINE
  8
0
 62
9
  6
CONTINUOUS
 66
1
 70
0
  0
VERTEX
  8
0
 62
9
  6
CONTINUOUS
 10
252.4821837403
 20
125.4484061072
  0
VERTEX
  8
0
 62
9
  6
CONTINUOUS
 10
252.51908338
 20
125.3852779581
  0
VERTEX
  8
0
 62
9
  6
CONTINUOUS
 10
252.5184257246
 20
125.2617001585
  0
VERTEX
  8
0
 62
9
  6
CONTINUOUS
 10
252.4802345948
 20
125.0821487903
  0
VERTEX
  8
0
 62
9
  6
CONTINUOUS
 10
252.4058933024
 20
124.8531273409
  0
VERTEX
  8
0
 62
9
  6
CONTINUOUS
 10
252.2980945458
 20
124.5829311419
  0
VERTEX
  8
0
 62
9
  6
CONTINUOUS
 10
252.1607428781
 20
124.2813469055
  0
VERTEX
  8
0
 62
9
  6
CONTINUOUS
 10
251.9988132812
 20
123.9592982425
  0
VERTEX
  8
0
 62
9
  6
CONTINUOUS
 10
251.8181709687
 20
123.6284500009
  0
SEQEND
  0
LINE
  8
0
 62
9
  6
CONTINUOUS
 10
243.5655292581
 20
190.9021235146
 11
243.7745861846
 21
188.9130797238
  0
LINE
  8
0
 62
9
  6
CONTINUOUS
 10
246.9091904015
 20
191.253556462
 11
247.118247328
 21
189.2645126713
  0
LINE
  8
0
 62
9
  6
CONTINUOUS
 10
243.5655292581
 20
110.3581223871
 11
243.7745861853
 21
112.347166177
  0
LINE
  8
0
 62
9
  6
CONTINUOUS
 10
246.9091904015
 20
110.0066894396
 11
247.1182473281
 21
111.9957332303
  0
POLYLINE
  8
0
 62
9
  6
CONTINUOUS
 66
1
 70
0
  0
VERTEX
  8
0
 62
9
  6
CONTINUOUS
 10
247.1197547307
 20
111.9955747959
  0
VERTEX
  8
0
 62
9
  6
CONTINUOUS
 10
248.2267238501
 20
114.9499012305
  0
VERTEX
  8
0
 62
9
  6
CONTINUOUS
 10
249.245020405
 20
117.9330375694
  0
VERTEX
  8
0
 62
9
  6
CONTINUOUS
 10
250.1746443954
 20
120.9449838126
  0
VERTEX
  8
0
 62
9
  6
CONTINUOUS
 10
251.0155958214
 20
123.9857399602
  0
SEQEND
  0
LINE
  8
0
 62
9
  6
CONTINUOUS
 10
249.1026371641
 20
127.3995882328
 11
248.1026371641
 21
125.6675374252
  0
LINE
  8
0
 62
9
  6
CONTINUOUS
 10
252.0142829562
 20
125.7185487509
 11
251.0142829562
 21
123.9864979433
  0
LINE
  8
0
 62
9
  6
CONTINUOUS
 10
201.7600611407
 20
62.2381225256
 11
203.0983223534
 21
63.7244121756
  0
LINE
  8
0
 62
9
  6
CONTINUOUS
 10
204.2585727254
 20
59.98845259
 11
205.5968339382
 21
61.4747422409
  0
POLYLINE
  8
0
 62
9
  6
CONTINUOUS
 66
1
 70
0
  0
VERTEX
  8
0
 62
9
  6
CONTINUOUS
 10
205.5979603271
 20
61.4737280358
  0
VERTEX
  8
0
 62
9
  6
CONTINUOUS
 10
208.2300349325
 20
63.2131742114
  0
VERTEX
  8
0
 62
9
  6
CONTINUOUS
 10
210.807300452
 20
65.0280445107
  0
VERTEX
  8
0
 62
9
  6
CONTINUOUS
 10
213.3297568855
 20
66.9183389338
  0
VERTEX
  8
0
 62
9
  6
CONTINUOUS
 10
215.797404233
 20
68.8840574806
  0
SEQEND
  0
LINE
  8
0
 62
9
  6
CONTINUOUS
 10
216.2563978378
 20
72.7703276364
 11
214.4293069225
 21
71.9568543502
  0
LINE
  8
0
 62
9
  6
CONTINUOUS
 10
217.6238785493
 20
69.6989156708
 11
215.796787634
 21
68.8854423847
  0
LINE
  8
0
 62
9
  6
CONTINUOUS
 10
157.5729582994
 20
253.3793834086
 11
155.6166630985
 21
252.9635600278
  0
LINE
  8
0
 62
9
  6
CONTINUOUS
 10
156.8739427774
 20
256.6679928805
 11
154.9176475759
 21
256.2521694989
  0
POLYLINE
  8
0
 62
9
  6
CONTINUOUS
 66
1
 70
0
  0
VERTEX
  8
0
 62
9
  6
CONTINUOUS
 10
154.9173324428
 20
256.2536520835
  0
VERTEX
  8
0
 62
9
  6
CONTINUOUS
 10
151.7661159154
 20
256.3935052001
  0
VERTEX
  8
0
 62
9
  6
CONTINUOUS
 10
148.614509437
 20
256.4401229479
  0
VERTEX
  8
0
 62
9
  6
CONTINUOUS
 10
145.4625130077
 20
256.3935053269
  0
VERTEX
  8
0
 62
9
  6
CONTINUOUS
 10
142.3101266275
 20
256.253652337
  0
SEQEND
  0
LINE
  8
0
 62
9
  6
CONTINUOUS
 10
139.654500717
 20
253.3793834086
 11
141.6107959185
 21
252.963560027
  0
LINE
  8
0
 62
9
  6
CONTINUOUS
 10
140.353516239
 20
256.6679928805
 11
142.3098114405
 21
256.2521694988
  0
LINE
  8
0
 62
9
  6
CONTINUOUS
 10
216.2563978378
 20
228.4899182652
 11
214.4293069234
 21
229.3033915518
  0
LINE
  8
0
 62
9
  6
CONTINUOUS
 10
217.6238785493
 20
231.5613302308
 11
215.796787634
 21
232.374803517
  0
POLYLINE
  8
0
 62
9
  6
CONTINUOUS
 66
1
 70
0
  0
VERTEX
  8
0
 62
9
  6
CONTINUOUS
 10
215.7974041271
 20
232.3761881832
  0
VERTEX
  8
0
 62
9
  6
CONTINUOUS
 10
213.3297611701
 20
234.3419036975
  0
VERTEX
  8
0
 62
9
  6
CONTINUOUS
 10
210.8073062499
 20
236.2321971784
  0
VERTEX
  8
0
 62
9
  6
CONTINUOUS
 10
208.2300393668
 20
238.0470686259
  0
VERTEX
  8
0
 62
9
  6
CONTINUOUS
 10
205.5979605206
 20
239.7865180401
  0
SEQEND
  0
LINE
  8
0
 62
9
  6
CONTINUOUS
 10
201.7600611407
 20
239.022123376
 11
203.0983223534
 21
237.535833725
  0
LINE
  8
0
 62
9
  6
CONTINUOUS
 10
204.2585727254
 20
241.2717933117
 11
205.5968339381
 21
239.7855036607
  0
LINE
  8
0
 62
9
  6
CONTINUOUS
 10
249.1026371641
 20
173.8606576689
 11
248.102637165
 21
175.5927084762
  0
LINE
  8
0
 62
9
  6
CONTINUOUS
 10
252.0142829562
 20
175.5416971508
 11
251.0142829562
 21
177.2737479583
  0
POLYLINE
  8
0
 62
9
  6
CONTINUOUS
 66
1
 70
0
  0
VERTEX
  8
0
 62
9
  6
CONTINUOUS
 10
251.015595596
 20
177.2745058113
  0
VERTEX
  8
0
 62
9
  6
CONTINUOUS
 10
250.1746463354
 20
180.3152557063
  0
VERTEX
  8
0
 62
9
  6
CONTINUOUS
 10
249.2450231475
 20
183.3271998916
  0
VERTEX
  8
0
 62
9
  6
CONTINUOUS
 10
248.2267260323
 20
186.3103383672
  0
VERTEX
  8
0
 62
9
  6
CONTINUOUS
 10
247.1197549896
 20
189.2646711329
  0
SEQEND
  0
POLYLINE
  8
0
 62
9
  6
CONTINUOUS
 66
1
 70
0
  0
VERTEX
  8
0
 62
9
  6
CONTINUOUS
 10
324.5940804974
 20
38.5167135187
  0
VERTEX
  8
0
 62
9
  6
CONTINUOUS
 10
324.2212283282
 20
38.4516527107
  0
VERTEX
  8
0
 62
9
  6
CONTINUOUS
 10
323.8633920047
 20
38.4130274682
  0
VERTEX
  8
0
 62
9
  6
CONTINUOUS
 10
323.532206062
 20
38.3884190409
  0
VERTEX
  8
0
 62
9
  6
CONTINUOUS
 10
323.237398254
 20
38.383767291
  0
VERTEX
  8
0
 62
9
  6
CONTINUOUS
 10
322.9927490335
 20
38.3990165428
  0
VERTEX
  8
0
 62
9
  6
CONTINUOUS
 10
322.8057667221
 20
38.4331178602
  0
VERTEX
  8
0
 62
9
  6
CONTINUOUS
 10
322.6822610849
 20
38.4903890094
  0
VERTEX
  8
0
 62
9
  6
CONTINUOUS
 10
322.6303024685
 20
38.5540038195
  0
SEQEND
  0
POLYLINE
  8
0
 62
9
  6
CONTINUOUS
 66
1
 70
0
  0
VERTEX
  8
0
 62
9
  6
CONTINUOUS
 10
334.4688507434
 20
36.9345477492
  0
VERTEX
  8
0
 62
9
  6
CONTINUOUS
 10
334.8166998887
 20
36.9650849174
  0
VERTEX
  8
0
 62
9
  6
CONTINUOUS
 10
335.1480488915
 20
37.0532876674
  0
VERTEX
  8
0
 62
9
  6
CONTINUOUS
 10
335.4634393557
 20
37.1991586233
  0
VERTEX
  8
0
 62
9
  6
CONTINUOUS
 10
335.7516841296
 20
37.399694237
  0
VERTEX
  8
0
 62
9
  6
CONTINUOUS
 10
335.9986760101
 20
37.6455662608
  0
VERTEX
  8
0
 62
9
  6
CONTINUOUS
 10
336.1998610563
 20
37.9317441339
  0
VERTEX
  8
0
 62
9
  6
CONTINUOUS
 10
336.3481631483
 20
38.2488211398
  0
VERTEX
  8
0
 62
9
  6
CONTINUOUS
 10
336.4384662443
 20
38.5855897587
  0
SEQEND
  0
LINE
  8
1_AXIS
 62
7
  6
CONTINUOUS
 10
324.59408049
 20
36.8201229508
 11
334.4688507383
 21
36.8201229508
  0
LINE
  8
0
 62
9
  6
CONTINUOUS
 10
324.59408049
 20
36.9345477454
 11
334.4688507383
 21
36.9345477454
  0
LINE
  8
0
 62
9
  6
CONTINUOUS
 10
334.4688507383
 20
38.5167135599
 11
324.59408049
 21
38.5167135599
  0
POLYLINE
  8
0
 62
9
  6
CONTINUOUS
 66
1
 70
0
  0
VERTEX
  8
0
 62
9
  6
CONTINUOUS
 10
324.59408049
 20
36.9345477455
  0
VERTEX
  8
0
 62
9
  6
CONTINUOUS
 10
324.2539628334
 20
36.9636506319
  0
VERTEX
  8
0
 62
9
  6
CONTINUOUS
 10
323.9222358331
 20
37.0506515158
  0
VERTEX
  8
0
 62
9
  6
CONTINUOUS
 10
323.608507551
 20
37.1939860995
  0
VERTEX
  8
0
 62
9
  6
CONTINUOUS
 10
323.3234899289
 20
37.3895511787
  0
VERTEX
  8
0
 62
9
  6
CONTINUOUS
 10
323.0767579237
 20
37.63087641
  0
VERTEX
  8
0
 62
9
  6
CONTINUOUS
 10
322.8752246754
 20
37.9110510727
  0
VERTEX
  8
0
 62
9
  6
CONTINUOUS
 10
322.7248799887
 20
38.2218525174
  0
VERTEX
  8
0
 62
9
  6
CONTINUOUS
 10
322.6303024683
 20
38.5540038204
  0
SEQEND
  0
POLYLINE
  8
0
 62
9
  6
CONTINUOUS
 66
1
 70
0
  0
VERTEX
  8
0
 62
9
  6
CONTINUOUS
 10
334.4688507309
 20
38.5167135148
  0
VERTEX
  8
0
 62
9
  6
CONTINUOUS
 10
334.8440033091
 20
38.4572893744
  0
VERTEX
  8
0
 62
9
  6
CONTINUOUS
 10
335.2033683328
 20
38.4240395574
  0
VERTEX
  8
0
 62
9
  6
CONTINUOUS
 10
335.5360639242
 20
38.4045089636
  0
VERTEX
  8
0
 62
9
  6
CONTINUOUS
 10
335.832122354
 20
38.4045844115
  0
VERTEX
  8
0
 62
9
  6
CONTINUOUS
 10
336.0774456624
 20
38.4238302032
  0
VERTEX
  8
0
 62
9
  6
CONTINUOUS
 10
336.2645781714
 20
38.4611494211
  0
VERTEX
  8
0
 62
9
  6
CONTINUOUS
 10
336.3875307976
 20
38.5207553112
  0
VERTEX
  8
0
 62
9
  6
CONTINUOUS
 10
336.4384662443
 20
38.5855897587
  0
SEQEND
  0
POLYLINE
  8
0
 62
9
  6
CONTINUOUS
 66
1
 70
0
  0
VERTEX
  8
0
 62
9
  6
CONTINUOUS
 10
323.5348657546
 20
44.0744047583
  0
VERTEX
  8
0
 62
9
  6
CONTINUOUS
 10
323.163363789
 20
44.0142767078
  0
VERTEX
  8
0
 62
9
  6
CONTINUOUS
 10
322.8052442562
 20
43.9712936219
  0
VERTEX
  8
0
 62
9
  6
CONTINUOUS
 10
322.47340752
 20
43.9470038592
  0
VERTEX
  8
0
 62
9
  6
CONTINUOUS
 10
322.1798071723
 20
43.9422823979
  0
VERTEX
  8
0
 62
9
  6
CONTINUOUS
 10
321.9350194341
 20
43.9572993169
  0
VERTEX
  8
0
 62
9
  6
CONTINUOUS
 10
321.747862174
 20
43.9915136691
  0
VERTEX
  8
0
 62
9
  6
CONTINUOUS
 10
321.6250772659
 20
44.0436929677
  0
VERTEX
  8
0
 62
9
  6
CONTINUOUS
 10
321.5710877302
 20
44.1119575834
  0
SEQEND
  0
POLYLINE
  8
0
 62
9
  6
CONTINUOUS
 66
1
 70
0
  0
VERTEX
  8
0
 62
9
  6
CONTINUOUS
 10
335.4805327869
 20
44.5922530212
  0
VERTEX
  8
0
 62
9
  6
CONTINUOUS
 10
335.8707134309
 20
44.6002429508
  0
VERTEX
  8
0
 62
9
  6
CONTINUOUS
 10
336.2458996516
 20
44.6239056914
  0
VERTEX
  8
0
 62
9
  6
CONTINUOUS
 10
336.5916732529
 20
44.6623318969
  0
VERTEX
  8
0
 62
9
  6
CONTINUOUS
 10
336.8947463493
 20
44.7140448699
  0
VERTEX
  8
0
 62
9
  6
CONTINUOUS
 10
337.1434720115
 20
44.7770573098
  0
VERTEX
  8
0
 62
9
  6
CONTINUOUS
 10
337.3282918519
 20
44.8489476838
  0
VERTEX
  8
0
 62
9
  6
CONTINUOUS
 10
337.4421033477
 20
44.9269532854
  0
SEQEND
  0
POLYLINE
  8
0
 62
9
  6
CONTINUOUS
 66
1
 70
0
  0
VERTEX
  8
0
 62
9
  6
CONTINUOUS
 10
335.4805327869
 20
47.880862493
  0
VERTEX
  8
0
 62
9
  6
CONTINUOUS
 10
335.7934015849
 20
47.8859819645
  0
VERTEX
  8
0
 62
9
  6
CONTINUOUS
 10
336.0985665825
 20
47.9012143249
  0
VERTEX
  8
0
 62
9
  6
CONTINUOUS
 10
336.3885136082
 20
47.9261845099
  0
VERTEX
  8
0
 62
9
  6
CONTINUOUS
 10
336.656103171
 20
47.9602776741
  0
VERTEX
  8
0
 62
9
  6
CONTINUOUS
 10
336.8947463043
 20
48.0026543324
  0
VERTEX
  8
0
 62
9
  6
CONTINUOUS
 10
337.0985667937
 20
48.0522710286
  0
VERTEX
  8
0
 62
9
  6
CONTINUOUS
 10
337.2625458873
 20
48.1079060311
  0
VERTEX
  8
0
 62
9
  6
CONTINUOUS
 10
337.3826458678
 20
48.168189414
  0
VERTEX
  8
0
 62
9
  6
CONTINUOUS
 10
337.4559094858
 20
48.2316367894
  0
VERTEX
  8
0
 62
9
  6
CONTINUOUS
 10
337.4805327869
 20
48.2966858738
  0
SEQEND
  0
LINE
  8
0
 62
9
  6
CONTINUOUS
 10
335.4805327869
 20
47.880862493
 11
323.4805327869
 21
47.880862493
  0
POLYLINE
  8
0
 62
9
  6
CONTINUOUS
 66
1
 70
0
  0
VERTEX
  8
0
 62
9
  6
CONTINUOUS
 10
323.4805327869
 20
47.880862493
  0
VERTEX
  8
0
 62
9
  6
CONTINUOUS
 10
323.1676638569
 20
47.8859819689
  0
VERTEX
  8
0
 62
9
  6
CONTINUOUS
 10
322.8624987983
 20
47.9012143379
  0
VERTEX
  8
0
 62
9
  6
CONTINUOUS
 10
322.5725517875
 20
47.9261845287
  0
VERTEX
  8
0
 62
9
  6
CONTINUOUS
 10
322.3049622824
 20
47.9602776923
  0
VERTEX
  8
0
 62
9
  6
CONTINUOUS
 10
322.0663192245
 20
48.0026543417
  0
VERTEX
  8
0
 62
9
  6
CONTINUOUS
 10
321.8624987982
 20
48.0522710234
  0
VERTEX
  8
0
 62
9
  6
CONTINUOUS
 10
321.6985197385
 20
48.1079060098
  0
VERTEX
  8
0
 62
9
  6
CONTINUOUS
 10
321.5784197543
 20
48.1681893831
  0
VERTEX
  8
0
 62
9
  6
CONTINUOUS
 10
321.5051561057
 20
48.2316367664
  0
VERTEX
  8
0
 62
9
  6
CONTINUOUS
 10
321.4805327869
 20
48.2966858747
  0
SEQEND
  0
POLYLINE
  8
0
 62
9
  6
CONTINUOUS
 66
1
 70
0
  0
VERTEX
  8
0
 62
9
  6
CONTINUOUS
 10
323.4805327869
 20
44.6510101126
  0
VERTEX
  8
0
 62
9
  6
CONTINUOUS
 10
323.0903522705
 20
44.6590000419
  0
VERTEX
  8
0
 62
9
  6
CONTINUOUS
 10
322.7151661236
 20
44.6826627738
  0
VERTEX
  8
0
 62
9
  6
CONTINUOUS
 10
322.3693925387
 20
44.7210889686
  0
VERTEX
  8
0
 62
9
  6
CONTINUOUS
 10
322.0663194136
 20
44.7728019333
  0
VERTEX
  8
0
 62
9
  6
CONTINUOUS
 10
321.8175936938
 20
44.8358143708
  0
VERTEX
  8
0
 62
9
  6
CONTINUOUS
 10
321.6327737899
 20
44.9077047495
  0
VERTEX
  8
0
 62
9
  6
CONTINUOUS
 10
321.5189622456
 20
44.9857103613
  0
SEQEND
  0
POLYLINE
  8
0
 62
9
  6
CONTINUOUS
 66
1
 70
0
  0
VERTEX
  8
0
 62
9
  6
CONTINUOUS
 10
335.4349560459
 20
44.0637742637
  0
VERTEX
  8
0
 62
9
  6
CONTINUOUS
 10
335.8085004423
 20
44.0091732792
  0
VERTEX
  8
0
 62
9
  6
CONTINUOUS
 10
336.1685146209
 20
43.9716114111
  0
VERTEX
  8
0
 62
9
  6
CONTINUOUS
 10
336.5019586398
 20
43.9524491752
  0
VERTEX
  8
0
 62
9
  6
CONTINUOUS
 10
336.7967549452
 20
43.9523806407
  0
VERTEX
  8
0
 62
9
  6
CONTINUOUS
 10
337.0422258279
 20
43.9714082904
  0
VERTEX
  8
0
 62
9
  6
CONTINUOUS
 10
337.2294801766
 20
44.0088429307
  0
VERTEX
  8
0
 62
9
  6
CONTINUOUS
 10
337.35173552
 20
44.0633286552
  0
VERTEX
  8
0
 62
9
  6
CONTINUOUS
 10
337.4045636919
 20
44.132891956
  0
SEQEND
  0
POLYLINE
  8
0
 62
7
  6
CONTINUOUS
 66
1
 70
0
  0
VERTEX
  8
0
 62
7
  6
CONTINUOUS
 10
335.169501595
 20
55.4453348706
  0
VERTEX
  8
0
 62
7
  6
CONTINUOUS
 10
334.8248933794
 20
55.3505377036
  0
VERTEX
  8
0
 62
7
  6
CONTINUOUS
 10
334.4688507383
 20
55.3185909601
  0
SEQEND
  0
POLYLINE
  8
0
 62
9
  6
CONTINUOUS
 66
1
 70
0
  0
VERTEX
  8
0
 62
9
  6
CONTINUOUS
 10
334.4688507383
 20
55.6494820792
  0
VERTEX
  8
0
 62
9
  6
CONTINUOUS
 10
334.8127870979
 20
55.6743476205
  0
VERTEX
  8
0
 62
9
  6
CONTINUOUS
 10
335.1480549615
 20
55.7486785678
  0
VERTEX
  8
0
 62
9
  6
CONTINUOUS
 10
335.4647138421
 20
55.8711124756
  0
VERTEX
  8
0
 62
9
  6
CONTINUOUS
 10
335.7516863451
 20
56.0380643747
  0
VERTEX
  8
0
 62
9
  6
CONTINUOUS
 10
335.9991000038
 20
56.2438814502
  0
SEQEND
  0
LINE
  8
0
 62
7
  6
CONTINUOUS
 10
324.59408049
 20
55.3185909601
 11
334.4688507383
 21
55.3185909601
  0
LINE
  8
0
 62
9
  6
CONTINUOUS
 10
324.59408049
 20
55.6494820791
 11
334.4688507383
 21
55.6494820791
  0
POLYLINE
  8
0
 62
9
  6
CONTINUOUS
 66
1
 70
0
  0
VERTEX
  8
0
 62
9
  6
CONTINUOUS
 10
324.5940804858
 20
55.6494820236
  0
VERTEX
  8
0
 62
9
  6
CONTINUOUS
 10
324.2501442265
 20
55.6733473063
  0
VERTEX
  8
0
 62
9
  6
CONTINUOUS
 10
323.9222410714
 20
55.7464729535
  0
VERTEX
  8
0
 62
9
  6
CONTINUOUS
 10
323.6097382388
 20
55.865150175
  0
VERTEX
  8
0
 62
9
  6
CONTINUOUS
 10
323.3234918483
 20
56.0295880577
  0
SEQEND
  0
POLYLINE
  8
0
 62
7
  6
CONTINUOUS
 66
1
 70
0
  0
VERTEX
  8
0
 62
7
  6
CONTINUOUS
 10
323.8994800206
 20
55.4430829788
  0
VERTEX
  8
0
 62
7
  6
CONTINUOUS
 10
324.2412155179
 20
55.3499654763
  0
VERTEX
  8
0
 62
7
  6
CONTINUOUS
 10
324.59408049
 20
55.3185909601
  0
SEQEND
  0
POLYLINE
  8
0
 62
9
  6
CONTINUOUS
 66
1
 70
0
  0
VERTEX
  8
0
 62
9
  6
CONTINUOUS
 10
334.4688507434
 20
61.647458822
  0
VERTEX
  8
0
 62
9
  6
CONTINUOUS
 10
334.8166998888
 20
61.6724721507
  0
VERTEX
  8
0
 62
9
  6
CONTINUOUS
 10
335.1480488917
 20
61.7403893397
  0
VERTEX
  8
0
 62
9
  6
CONTINUOUS
 10
335.4634393558
 20
61.8550882513
  0
VERTEX
  8
0
 62
9
  6
CONTINUOUS
 10
335.7516841297
 20
62.011500853
  0
VERTEX
  8
0
 62
9
  6
CONTINUOUS
 10
335.9986760101
 20
62.2039584986
  0
VERTEX
  8
0
 62
9
  6
CONTINUOUS
 10
336.1998610563
 20
62.4279041933
  0
VERTEX
  8
0
 62
9
  6
CONTINUOUS
 10
336.3481631483
 20
62.6737718882
  0
VERTEX
  8
0
 62
9
  6
CONTINUOUS
 10
336.4384662443
 20
62.9396296985
  0
SEQEND
  0
LINE
  8
0
 62
9
  6
CONTINUOUS
 10
324.59408049
 20
61.6474587697
 11
334.4688507383
 21
61.6474587697
  0
LINE
  8
0
 62
9
  6
CONTINUOUS
 10
334.4688507383
 20
64.0246376034
 11
324.59408049
 21
64.0246376034
  0
POLYLINE
  8
0
 62
9
  6
CONTINUOUS
 66
1
 70
0
  0
VERTEX
  8
0
 62
9
  6
CONTINUOUS
 10
324.59408049
 20
61.6474587693
  0
VERTEX
  8
0
 62
9
  6
CONTINUOUS
 10
324.2539627854
 20
61.6702358487
  0
VERTEX
  8
0
 62
9
  6
CONTINUOUS
 10
323.922235752
 20
61.7383262055
  0
VERTEX
  8
0
 62
9
  6
CONTINUOUS
 10
323.6085074514
 20
61.8505055542
  0
VERTEX
  8
0
 62
9
  6
CONTINUOUS
 10
323.3234898311
 20
62.0035625564
  0
VERTEX
  8
0
 62
9
  6
CONTINUOUS
 10
323.0767578503
 20
62.1924332527
  0
VERTEX
  8
0
 62
9
  6
CONTINUOUS
 10
322.8752246329
 20
62.4117090393
  0
VERTEX
  8
0
 62
9
  6
CONTINUOUS
 10
322.7248799722
 20
62.6549545483
  0
VERTEX
  8
0
 62
9
  6
CONTINUOUS
 10
322.6303024685
 20
62.9149092905
  0
SEQEND
  0
POLYLINE
  8
0
 62
9
  6
CONTINUOUS
 66
1
 70
0
  0
VERTEX
  8
0
 62
9
  6
CONTINUOUS
 10
323.3234897799
 20
245.230656424
  0
VERTEX
  8
0
 62
9
  6
CONTINUOUS
 10
323.0767578119
 20
245.0290546834
  0
VERTEX
  8
0
 62
9
  6
CONTINUOUS
 10
322.8752246106
 20
244.7949983716
  0
VERTEX
  8
0
 62
9
  6
CONTINUOUS
 10
322.7248799636
 20
244.5353566373
  0
SEQEND
  0
POLYLINE
  8
0
 62
9
  6
CONTINUOUS
 66
1
 70
0
  0
VERTEX
  8
0
 62
9
  6
CONTINUOUS
 10
322.4879774405
 20
243.8351032389
  0
VERTEX
  8
0
 62
9
  6
CONTINUOUS
 10
322.3049622825
 20
243.7250591401
  0
VERTEX
  8
0
 62
9
  6
CONTINUOUS
 10
322.0663192247
 20
243.525069229
  0
VERTEX
  8
0
 62
9
  6
CONTINUOUS
 10
321.8624987983
 20
243.2909111283
  0
VERTEX
  8
0
 62
9
  6
CONTINUOUS
 10
321.6985197386
 20
243.0283505877
  0
VERTEX
  8
0
 62
9
  6
CONTINUOUS
 10
321.5784197544
 20
242.7438527189
  0
VERTEX
  8
0
 62
9
  6
CONTINUOUS
 10
321.5051561057
 20
242.4444228037
  0
VERTEX
  8
0
 62
9
  6
CONTINUOUS
 10
321.4805327869
 20
242.1374338004
  0
SEQEND
  0
POLYLINE
  8
0
 62
9
  6
CONTINUOUS
 66
1
 70
0
  0
VERTEX
  8
0
 62
9
  6
CONTINUOUS
 10
324.5940804974
 20
64.0246375649
  0
VERTEX
  8
0
 62
9
  6
CONTINUOUS
 10
324.2212283282
 20
63.9419607161
  0
VERTEX
  8
0
 62
9
  6
CONTINUOUS
 10
323.8633920047
 20
63.8417107554
  0
VERTEX
  8
0
 62
9
  6
CONTINUOUS
 10
323.532206062
 20
63.7144200674
  0
VERTEX
  8
0
 62
9
  6
CONTINUOUS
 10
323.237398254
 20
63.5684586232
  0
VERTEX
  8
0
 62
9
  6
CONTINUOUS
 10
322.9927490335
 20
63.4101663311
  0
VERTEX
  8
0
 62
9
  6
CONTINUOUS
 10
322.8057667221
 20
63.2440343044
  0
VERTEX
  8
0
 62
9
  6
CONTINUOUS
 10
322.6822610849
 20
63.0806909813
  0
VERTEX
  8
0
 62
9
  6
CONTINUOUS
 10
322.6303024685
 20
62.9149092905
  0
SEQEND
  0
POLYLINE
  8
0
 62
9
  6
CONTINUOUS
 66
1
 70
0
  0
VERTEX
  8
0
 62
9
  6
CONTINUOUS
 10
323.5348657546
 20
69.2152689002
  0
VERTEX
  8
0
 62
9
  6
CONTINUOUS
 10
323.163363789
 20
69.1374655028
  0
VERTEX
  8
0
 62
9
  6
CONTINUOUS
 10
322.8052442562
 20
69.0331614303
  0
VERTEX
  8
0
 62
9
  6
CONTINUOUS
 10
322.47340752
 20
68.9061139772
  0
VERTEX
  8
0
 62
9
  6
CONTINUOUS
 10
322.1798071723
 20
68.7608997115
  0
VERTEX
  8
0
 62
9
  6
CONTINUOUS
 10
321.9350194341
 20
68.6027496152
  0
VERTEX
  8
0
 62
9
  6
CONTINUOUS
 10
321.747862174
 20
68.4373606516
  0
VERTEX
  8
0
 62
9
  6
CONTINUOUS
 10
321.6250772659
 20
68.2706905461
  0
SEQEND
  0
POLYLINE
  8
0
 62
9
  6
CONTINUOUS
 66
1
 70
0
  0
VERTEX
  8
0
 62
9
  6
CONTINUOUS
 10
323.4805327869
 20
69.753792127
  0
VERTEX
  8
0
 62
9
  6
CONTINUOUS
 10
323.0903522705
 20
69.7381614808
  0
VERTEX
  8
0
 62
9
  6
CONTINUOUS
 10
322.7151661236
 20
69.691870202
  0
VERTEX
  8
0
 62
9
  6
CONTINUOUS
 10
322.3693925387
 20
69.6166972278
  0
VERTEX
  8
0
 62
9
  6
CONTINUOUS
 10
322.0663194136
 20
69.5155314053
  0
VERTEX
  8
0
 62
9
  6
CONTINUOUS
 10
321.8175936938
 20
69.392260474
  0
VERTEX
  8
0
 62
9
  6
CONTINUOUS
 10
321.6327737899
 20
69.2516216648
  0
VERTEX
  8
0
 62
9
  6
CONTINUOUS
 10
321.5189622456
 20
69.0990196506
  0
VERTEX
  8
0
 62
9
  6
CONTINUOUS
 10
321.4805327869
 20
68.9403188408
  0
SEQEND
  0
POLYLINE
  8
0
 62
9
  6
CONTINUOUS
 66
1
 70
0
  0
VERTEX
  8
0
 62
9
  6
CONTINUOUS
 10
323.4805327869
 20
72.7703276364
  0
VERTEX
  8
0
 62
9
  6
CONTINUOUS
 10
323.1676638569
 20
72.7603124304
  0
VERTEX
  8
0
 62
9
  6
CONTINUOUS
 10
322.8624987983
 20
72.7305134199
  0
VERTEX
  8
0
 62
9
  6
CONTINUOUS
 10
322.5725517875
 20
72.6816643555
  0
VERTEX
  8
0
 62
9
  6
CONTINUOUS
 10
322.3049622824
 20
72.6149680632
  0
VERTEX
  8
0
 62
9
  6
CONTINUOUS
 10
322.0663192245
 20
72.5320668272
  0
VERTEX
  8
0
 62
9
  6
CONTINUOUS
 10
321.8624987982
 20
72.435001951
  0
VERTEX
  8
0
 62
9
  6
CONTINUOUS
 10
321.6985197385
 20
72.326163494
  0
VERTEX
  8
0
 62
9
  6
CONTINUOUS
 10
321.5784197543
 20
72.2082314202
  0
VERTEX
  8
0
 62
9
  6
CONTINUOUS
 10
321.5051561057
 20
72.0841096086
  0
VERTEX
  8
0
 62
9
  6
CONTINUOUS
 10
321.4805327869
 20
71.9568543502
  0
SEQEND
  0
LINE
  8
0
 62
9
  6
CONTINUOUS
 10
335.4805327869
 20
72.7703276364
 11
323.4805327869
 21
72.7703276364
  0
POLYLINE
  8
0
 62
9
  6
CONTINUOUS
 66
1
 70
0
  0
VERTEX
  8
0
 62
9
  6
CONTINUOUS
 10
335.4805327869
 20
72.7703276364
  0
VERTEX
  8
0
 62
9
  6
CONTINUOUS
 10
335.7934015849
 20
72.7603124389
  0
VERTEX
  8
0
 62
9
  6
CONTINUOUS
 10
336.0985665825
 20
72.7305134454
  0
VERTEX
  8
0
 62
9
  6
CONTINUOUS
 10
336.3885136082
 20
72.6816643924
  0
VERTEX
  8
0
 62
9
  6
CONTINUOUS
 10
336.656103171
 20
72.6149680988
  0
VERTEX
  8
0
 62
9
  6
CONTINUOUS
 10
336.8947463043
 20
72.5320668455
  0
VERTEX
  8
0
 62
9
  6
CONTINUOUS
 10
337.0985667937
 20
72.4350019408
  0
VERTEX
  8
0
 62
9
  6
CONTINUOUS
 10
337.2625458873
 20
72.3261634525
  0
VERTEX
  8
0
 62
9
  6
CONTINUOUS
 10
337.3826458678
 20
72.2082313597
  0
VERTEX
  8
0
 62
9
  6
CONTINUOUS
 10
337.4559094858
 20
72.0841095629
  0
VERTEX
  8
0
 62
9
  6
CONTINUOUS
 10
337.4805327869
 20
71.9568543499
  0
SEQEND
  0
POLYLINE
  8
0
 62
9
  6
CONTINUOUS
 66
1
 70
0
  0
VERTEX
  8
0
 62
9
  6
CONTINUOUS
 10
335.4805327869
 20
69.6989156708
  0
VERTEX
  8
0
 62
9
  6
CONTINUOUS
 10
335.8707134309
 20
69.6832850097
  0
VERTEX
  8
0
 62
9
  6
CONTINUOUS
 10
336.2458996516
 20
69.636993704
  0
VERTEX
  8
0
 62
9
  6
CONTINUOUS
 10
336.5916732529
 20
69.5618207025
  0
VERTEX
  8
0
 62
9
  6
CONTINUOUS
 10
336.8947463493
 20
69.4606548616
  0
VERTEX
  8
0
 62
9
  6
CONTINUOUS
 10
337.1434720115
 20
69.3373839278
  0
VERTEX
  8
0
 62
9
  6
CONTINUOUS
 10
337.3282918519
 20
69.1967451339
  0
VERTEX
  8
0
 62
9
  6
CONTINUOUS
 10
337.4421033477
 20
69.04414315
  0
VERTEX
  8
0
 62
9
  6
CONTINUOUS
 10
337.4805327869
 20
68.8854423847
  0
SEQEND
  0
POLYLINE
  8
0
 62
9
  6
CONTINUOUS
 66
1
 70
0
  0
VERTEX
  8
0
 62
9
  6
CONTINUOUS
 10
335.4349560459
 20
69.2053405008
  0
VERTEX
  8
0
 62
9
  6
CONTINUOUS
 10
335.8085004423
 20
69.1325794212
  0
VERTEX
  8
0
 62
9
  6
CONTINUOUS
 10
336.1685146209
 20
69.0329893195
  0
VERTEX
  8
0
 62
9
  6
CONTINUOUS
 10
336.5019586398
 20
68.9101774134
  0
VERTEX
  8
0
 62
9
  6
CONTINUOUS
 10
336.7967549452
 20
68.7685920288
  0
VERTEX
  8
0
 62
9
  6
CONTINUOUS
 10
337.0422258279
 20
68.6133614787
  0
VERTEX
  8
0
 62
9
  6
CONTINUOUS
 10
337.2294801766
 20
68.4501083121
  0
VERTEX
  8
0
 62
9
  6
CONTINUOUS
 10
337.35173552
 20
68.2847456623
  0
SEQEND
  0
POLYLINE
  8
0
 62
9
  6
CONTINUOUS
 66
1
 70
0
  0
VERTEX
  8
0
 62
9
  6
CONTINUOUS
 10
334.4688507309
 20
64.0246375613
  0
VERTEX
  8
0
 62
9
  6
CONTINUOUS
 10
334.8440033091
 20
63.9470866575
  0
VERTEX
  8
0
 62
9
  6
CONTINUOUS
 10
335.2033683328
 20
63.8515579735
  0
VERTEX
  8
0
 62
9
  6
CONTINUOUS
 10
335.5360639242
 20
63.7285138385
  0
VERTEX
  8
0
 62
9
  6
CONTINUOUS
 10
335.832122354
 20
63.586267768
  0
VERTEX
  8
0
 62
9
  6
CONTINUOUS
 10
336.0774456624
 20
63.4309381096
  0
VERTEX
  8
0
 62
9
  6
CONTINUOUS
 10
336.2645781714
 20
63.2669662105
  0
VERTEX
  8
0
 62
9
  6
CONTINUOUS
 10
336.3875307976
 20
63.1049923267
  0
VERTEX
  8
0
 62
9
  6
CONTINUOUS
 10
336.4384662443
 20
62.9396296985
  0
SEQEND
  0
POLYLINE
  8
0
 62
9
  6
CONTINUOUS
 66
1
 70
0
  0
VERTEX
  8
0
 62
9
  6
CONTINUOUS
 10
322.4879789506
 20
57.4251417601
  0
VERTEX
  8
0
 62
9
  6
CONTINUOUS
 10
322.3049623082
 20
57.5351867432
  0
VERTEX
  8
0
 62
9
  6
CONTINUOUS
 10
322.0663191898
 20
57.7351767069
  0
VERTEX
  8
0
 62
9
  6
CONTINUOUS
 10
321.8624987257
 20
57.9693348714
  0
VERTEX
  8
0
 62
9
  6
CONTINUOUS
 10
321.6985196619
 20
58.2318954616
  0
VERTEX
  8
0
 62
9
  6
CONTINUOUS
 10
321.5784197008
 20
58.5163933444
  0
VERTEX
  8
0
 62
9
  6
CONTINUOUS
 10
321.5051560878
 20
58.8158232087
  0
VERTEX
  8
0
 62
9
  6
CONTINUOUS
 10
321.4805327869
 20
59.1228121009
  0
SEQEND
  0
POLYLINE
  8
0
 62
9
  6
CONTINUOUS
 66
1
 70
0
  0
VERTEX
  8
0
 62
9
  6
CONTINUOUS
 10
323.3234918483
 20
56.0295880577
  0
VERTEX
  8
0
 62
9
  6
CONTINUOUS
 10
323.0771802236
 20
56.2307493653
  0
VERTEX
  8
0
 62
9
  6
CONTINUOUS
 10
322.8752236419
 20
56.465248889
  0
VERTEX
  8
0
 62
9
  6
CONTINUOUS
 10
322.7245775613
 20
56.7276351414
  0
SEQEND
  0
POLYLINE
  8
0
 62
9
  6
CONTINUOUS
 66
1
 70
0
  0
VERTEX
  8
0
 62
9
  6
CONTINUOUS
 10
335.4805327869
 20
85.8158836238
  0
VERTEX
  8
0
 62
9
  6
CONTINUOUS
 10
335.793401717
 20
85.8326371581
  0
VERTEX
  8
0
 62
9
  6
CONTINUOUS
 10
336.0985667756
 20
85.8824852334
  0
VERTEX
  8
0
 62
9
  6
CONTINUOUS
 10
336.3885137863
 20
85.9642004246
  0
VERTEX
  8
0
 62
9
  6
CONTINUOUS
 10
336.6561032914
 20
86.0757706326
  0
VERTEX
  8
0
 62
9
  6
CONTINUOUS
 10
336.8947463492
 20
86.2144486286
  0
VERTEX
  8
0
 62
9
  6
CONTINUOUS
 10
337.0985667755
 20
86.3768196999
  0
VERTEX
  8
0
 62
9
  6
CONTINUOUS
 10
337.2625458352
 20
86.5588857321
  0
VERTEX
  8
0
 62
9
  6
CONTINUOUS
 10
337.3826458194
 20
86.7561636551
  0
VERTEX
  8
0
 62
9
  6
CONTINUOUS
 10
337.4559094681
 20
86.9637958318
  0
VERTEX
  8
0
 62
9
  6
CONTINUOUS
 10
337.4805327869
 20
87.1766696689
  0
SEQEND
  0
LINE
  8
0
 62
9
  6
CONTINUOUS
 10
335.4805327869
 20
85.8158836238
 11
323.4805327869
 21
85.8158836238
  0
POLYLINE
  8
0
 62
9
  6
CONTINUOUS
 66
1
 70
0
  0
VERTEX
  8
0
 62
9
  6
CONTINUOUS
 10
323.4805327869
 20
85.8158836306
  0
VERTEX
  8
0
 62
9
  6
CONTINUOUS
 10
323.1676639547
 20
85.8326371501
  0
VERTEX
  8
0
 62
9
  6
CONTINUOUS
 10
322.8624989288
 20
85.8824852045
  0
VERTEX
  8
0
 62
9
  6
CONTINUOUS
 10
322.5725518792
 20
85.9642003924
  0
VERTEX
  8
0
 62
9
  6
CONTINUOUS
 10
322.3049623082
 20
86.0757706199
  0
VERTEX
  8
0
 62
9
  6
CONTINUOUS
 10
322.0663191898
 20
86.2144486523
  0
VERTEX
  8
0
 62
9
  6
CONTINUOUS
 10
321.8624987257
 20
86.3768197679
  0
VERTEX
  8
0
 62
9
  6
CONTINUOUS
 10
321.6985196619
 20
86.5588858344
  0
VERTEX
  8
0
 62
9
  6
CONTINUOUS
 10
321.5784197008
 20
86.7561637671
  0
VERTEX
  8
0
 62
9
  6
CONTINUOUS
 10
321.5051560878
 20
86.9637959087
  0
VERTEX
  8
0
 62
9
  6
CONTINUOUS
 10
321.4805327869
 20
87.1766696689
  0
SEQEND
  0
POLYLINE
  8
0
 62
7
  6
CONTINUOUS
 66
1
 70
0
  0
VERTEX
  8
0
 62
7
  6
CONTINUOUS
 10
322.8452436552
 20
244.9120000993
  0
VERTEX
  8
0
 62
7
  6
CONTINUOUS
 10
323.0439130984
 20
245.2053721001
  0
VERTEX
  8
0
 62
7
  6
CONTINUOUS
 10
323.2912307339
 20
245.4590812208
  0
VERTEX
  8
0
 62
7
  6
CONTINUOUS
 10
323.5794536334
 20
245.6651781759
  0
VERTEX
  8
0
 62
7
  6
CONTINUOUS
 10
323.8994800212
 20
245.8171629231
  0
SEQEND
  0
POLYLINE
  8
0
 62
7
  6
CONTINUOUS
 66
1
 70
0
  0
VERTEX
  8
0
 62
7
  6
CONTINUOUS
 10
322.8452436547
 20
56.3482458032
  0
VERTEX
  8
0
 62
7
  6
CONTINUOUS
 10
323.0439130978
 20
56.0548738023
  0
VERTEX
  8
0
 62
7
  6
CONTINUOUS
 10
323.2912307333
 20
55.8011646813
  0
VERTEX
  8
0
 62
7
  6
CONTINUOUS
 10
323.5794536327
 20
55.5950677261
  0
VERTEX
  8
0
 62
7
  6
CONTINUOUS
 10
323.8994800206
 20
55.4430829788
  0
SEQEND
  0
LINE
  8
0
 62
9
  6
CONTINUOUS
 10
321.5189622261
 20
256.2745355249
 11
321.4805327869
 21
256.1934124074
  0
POLYLINE
  8
0
 62
9
  6
CONTINUOUS
 66
1
 70
0
  0
VERTEX
  8
0
 62
9
  6
CONTINUOUS
 10
335.4805327869
 20
104.2645752751
  0
VERTEX
  8
0
 62
9
  6
CONTINUOUS
 10
335.7934016037
 20
104.2765600889
  0
VERTEX
  8
0
 62
9
  6
CONTINUOUS
 10
336.0985666243
 20
104.3122194219
  0
VERTEX
  8
0
 62
9
  6
CONTINUOUS
 10
336.3885136801
 20
104.3706752415
  0
VERTEX
  8
0
 62
9
  6
CONTINUOUS
 10
336.6561032616
 20
104.4504881782
  0
VERTEX
  8
0
 62
9
  6
CONTINUOUS
 10
336.8947463895
 20
104.5496929711
  0
VERTEX
  8
0
 62
9
  6
CONTINUOUS
 10
337.0985668596
 20
104.665846861
  0
VERTEX
  8
0
 62
9
  6
CONTINUOUS
 10
337.2625459239
 20
104.7960897402
  0
VERTEX
  8
0
 62
9
  6
CONTINUOUS
 10
337.3826458814
 20
104.9372145849
  0
VERTEX
  8
0
 62
9
  6
CONTINUOUS
 10
337.4559094887
 20
105.0857464164
  0
VERTEX
  8
0
 62
9
  6
CONTINUOUS
 10
337.4805327869
 20
105.23802789
  0
SEQEND
  0
LINE
  8
0
 62
9
  6
CONTINUOUS
 10
335.4805327869
 20
104.2645752841
 11
323.4805327869
 21
104.2645752841
  0
POLYLINE
  8
0
 62
9
  6
CONTINUOUS
 66
1
 70
0
  0
VERTEX
  8
0
 62
9
  6
CONTINUOUS
 10
323.4805327869
 20
104.2645752841
  0
VERTEX
  8
0
 62
9
  6
CONTINUOUS
 10
323.1676638569
 20
104.276560101
  0
VERTEX
  8
0
 62
9
  6
CONTINUOUS
 10
322.8624987982
 20
104.3122194459
  0
VERTEX
  8
0
 62
9
  6
CONTINUOUS
 10
322.5725517875
 20
104.3706752672
  0
VERTEX
  8
0
 62
9
  6
CONTINUOUS
 10
322.3049622825
 20
104.4504881887
  0
VERTEX
  8
0
 62
9
  6
CONTINUOUS
 10
322.0663192247
 20
104.5496929514
  0
VERTEX
  8
0
 62
9
  6
CONTINUOUS
 10
321.8624987983
 20
104.6658468047
  0
VERTEX
  8
0
 62
9
  6
CONTINUOUS
 10
321.6985197386
 20
104.7960896554
  0
VERTEX
  8
0
 62
9
  6
CONTINUOUS
 10
321.5784197544
 20
104.9372144921
  0
VERTEX
  8
0
 62
9
  6
CONTINUOUS
 10
321.5051561057
 20
105.0857463531
  0
VERTEX
  8
0
 62
9
  6
CONTINUOUS
 10
321.4805327869
 20
105.238027891
  0
SEQEND
  0
LINE
  8
0
 62
9
  6
CONTINUOUS
 10
321.5189622456
 20
44.9857103613
 11
321.4805327869
 21
45.0668334942
  0
POLYLINE
  8
0
 62
7
  6
CONTINUOUS
 66
1
 70
0
  0
VERTEX
  8
0
 62
7
  6
CONTINUOUS
 10
322.5554876658
 20
191.0636460955
  0
VERTEX
  8
0
 62
7
  6
CONTINUOUS
 10
322.3043317327
 20
190.8994456842
  0
VERTEX
  8
0
 62
7
  6
CONTINUOUS
 10
322.0664379667
 20
190.6899414794
  0
VERTEX
  8
0
 62
7
  6
CONTINUOUS
 10
321.8518391099
 20
190.4314396024
  0
SEQEND
  0
POLYLINE
  8
0
 62
9
  6
CONTINUOUS
 66
1
 70
0
  0
VERTEX
  8
0
 62
9
  6
CONTINUOUS
 10
323.6121841504
 20
191.6561446904
  0
VERTEX
  8
0
 62
9
  6
CONTINUOUS
 10
323.532206062
 20
191.6084534109
  0
VERTEX
  8
0
 62
9
  6
CONTINUOUS
 10
323.237398254
 20
191.3798095225
  0
SEQEND
  0
LINE
  8
0
 62
9
  6
CONTINUOUS
 10
322.5553411114
 20
191.0635638311
 11
322.47340752
 21
191.0148114508
  0
LINE
  8
0
 62
7
  6
CONTINUOUS
 10
323.618069745
 20
191.6594482834
 11
322.5553411114
 21
191.0635638311
  0
LINE
  8
0
 62
9
  6
CONTINUOUS
 10
321.5710877283
 20
189.4577376544
 11
322.6303024685
 21
190.0468959995
  0
POLYLINE
  8
0
 62
7
  6
CONTINUOUS
 66
1
 70
0
  0
VERTEX
  8
0
 62
7
  6
CONTINUOUS
 10
323.6121841504
 20
191.6561446904
  0
VERTEX
  8
0
 62
7
  6
CONTINUOUS
 10
323.9166076429
 20
191.7955298605
  0
VERTEX
  8
0
 62
7
  6
CONTINUOUS
 10
324.2485996283
 20
191.8837016826
  0
VERTEX
  8
0
 62
7
  6
CONTINUOUS
 10
324.59408049
 20
191.9137672449
  0
SEQEND
  0
POLYLINE
  8
0
 62
9
  6
CONTINUOUS
 66
1
 70
0
  0
VERTEX
  8
0
 62
9
  6
CONTINUOUS
 10
334.4688507383
 20
110.6437929525
  0
VERTEX
  8
0
 62
9
  6
CONTINUOUS
 10
334.8127871803
 20
110.6542612144
  0
VERTEX
  8
0
 62
9
  6
CONTINUOUS
 10
335.1480550994
 20
110.6855541489
  0
VERTEX
  8
0
 62
9
  6
CONTINUOUS
 10
335.4647140089
 20
110.7370981702
  0
VERTEX
  8
0
 62
9
  6
CONTINUOUS
 10
335.7516865065
 20
110.8073840198
  0
VERTEX
  8
0
 62
9
  6
CONTINUOUS
 10
335.9991001233
 20
110.8940318847
  0
VERTEX
  8
0
 62
9
  6
CONTINUOUS
 10
336.1998599296
 20
110.9945026967
  0
VERTEX
  8
0
 62
9
  6
CONTINUOUS
 10
336.3478545614
 20
111.1057781247
  0
VERTEX
  8
0
 62
9
  6
CONTINUOUS
 10
336.4384662443
 20
111.2244585648
  0
SEQEND
  0
LINE
  8
0
 62
7
  6
CONTINUOUS
 10
324.59408049
 20
109.3464786568
 11
334.4688507383
 21
109.3464786568
  0
LINE
  8
0
 62
9
  6
CONTINUOUS
 10
324.59408049
 20
110.6437929526
 11
334.4688507383
 21
110.6437929526
  0
POLYLINE
  8
0
 62
9
  6
CONTINUOUS
 66
1
 70
0
  0
VERTEX
  8
0
 62
9
  6
CONTINUOUS
 10
324.5940804858
 20
110.6437928582
  0
VERTEX
  8
0
 62
9
  6
CONTINUOUS
 10
324.2501442263
 20
110.652560392
  0
VERTEX
  8
0
 62
9
  6
CONTINUOUS
 10
323.9222410712
 20
110.6846255799
  0
VERTEX
  8
0
 62
9
  6
CONTINUOUS
 10
323.6097382386
 20
110.7339689741
  0
VERTEX
  8
0
 62
9
  6
CONTINUOUS
 10
323.3234918482
 20
110.8038154893
  0
VERTEX
  8
0
 62
9
  6
CONTINUOUS
 10
323.0771802236
 20
110.8884630688
  0
VERTEX
  8
0
 62
9
  6
CONTINUOUS
 10
322.875223642
 20
110.9872263149
  0
VERTEX
  8
0
 62
9
  6
CONTINUOUS
 10
322.7245775614
 20
111.1003409528
  0
VERTEX
  8
0
 62
9
  6
CONTINUOUS
 10
322.6303024685
 20
111.2133499021
  0
SEQEND
  0
POLYLINE
  8
0
 62
7
  6
CONTINUOUS
 66
1
 70
0
  0
VERTEX
  8
0
 62
7
  6
CONTINUOUS
 10
323.6121869345
 20
109.6040996423
  0
VERTEX
  8
0
 62
7
  6
CONTINUOUS
 10
323.9166076409
 20
109.4647160419
  0
VERTEX
  8
0
 62
7
  6
CONTINUOUS
 10
324.2485996263
 20
109.3765442194
  0
VERTEX
  8
0
 62
7
  6
CONTINUOUS
 10
324.59408049
 20
109.3464786568
  0
SEQEND
  0
LINE
  8
0
 62
9
  6
CONTINUOUS
 10
322.6303024685
 20
111.2133499021
 11
321.5710877284
 21
111.8025082472
  0
LINE
  8
0
 62
7
  6
CONTINUOUS
 10
322.5553411057
 20
110.1966820738
 11
323.6172280855
 21
109.6012682438
  0
POLYLINE
  8
0
 62
9
  6
CONTINUOUS
 66
1
 70
0
  0
VERTEX
  8
0
 62
9
  6
CONTINUOUS
 10
322.5549322123
 20
110.1969118889
  0
VERTEX
  8
0
 62
9
  6
CONTINUOUS
 10
322.4734075196
 20
110.245434508
  0
VERTEX
  8
0
 62
9
  6
CONTINUOUS
 10
322.1798071767
 20
110.4727566421
  0
VERTEX
  8
0
 62
9
  6
CONTINUOUS
 10
321.9350194434
 20
110.752946752
  0
VERTEX
  8
0
 62
9
  6
CONTINUOUS
 10
321.7478621869
 20
111.0759116881
  0
VERTEX
  8
0
 62
9
  6
CONTINUOUS
 10
321.6250772803
 20
111.4300174446
  0
VERTEX
  8
0
 62
9
  6
CONTINUOUS
 10
321.5710877437
 20
111.8025082452
  0
SEQEND
  0
POLYLINE
  8
0
 62
9
  6
CONTINUOUS
 66
1
 70
0
  0
VERTEX
  8
0
 62
9
  6
CONTINUOUS
 10
323.6121869345
 20
109.6040996423
  0
VERTEX
  8
0
 62
9
  6
CONTINUOUS
 10
323.5322417369
 20
109.6517700259
  0
VERTEX
  8
0
 62
9
  6
CONTINUOUS
 10
323.2374314819
 20
109.8804049744
  0
SEQEND
  0
LINE
  8
0
 62
7
  6
CONTINUOUS
 10
322.6664728641
 20
244.4748740847
 11
321.6079844188
 21
240.6755965481
  0
LINE
  8
0
 62
9
  6
CONTINUOUS
 10
321.5710877283
 20
240.45875514
 11
322.6303024685
 21
244.2578793721
  0
POLYLINE
  8
0
 62
7
  6
CONTINUOUS
 66
1
 70
0
  0
VERTEX
  8
0
 62
7
  6
CONTINUOUS
 10
322.6656615295
 20
244.4719380517
  0
VERTEX
  8
0
 62
7
  6
CONTINUOUS
 10
322.7014813721
 20
244.5882370633
  0
VERTEX
  8
0
 62
7
  6
CONTINUOUS
 10
322.8452436552
 20
244.9120000993
  0
SEQEND
  0
LINE
  8
0
 62
9
  6
CONTINUOUS
 10
322.7248799636
 20
244.5353566373
 11
322.6303024685
 21
244.2578793721
  0
POLYLINE
  8
0
 62
9
  6
CONTINUOUS
 66
1
 70
0
  0
VERTEX
  8
0
 62
9
  6
CONTINUOUS
 10
323.237398254
 20
191.3798095225
  0
VERTEX
  8
0
 62
9
  6
CONTINUOUS
 10
322.9927490335
 20
191.0990134059
  0
VERTEX
  8
0
 62
9
  6
CONTINUOUS
 10
322.8057667221
 20
190.7750290496
  0
VERTEX
  8
0
 62
9
  6
CONTINUOUS
 10
322.6822610849
 20
190.418067335
  0
VERTEX
  8
0
 62
9
  6
CONTINUOUS
 10
322.6303024685
 20
190.0468959995
  0
SEQEND
  0
POLYLINE
  8
0
 62
9
  6
CONTINUOUS
 66
1
 70
0
  0
VERTEX
  8
0
 62
9
  6
CONTINUOUS
 10
322.47340752
 20
191.0148114508
  0
VERTEX
  8
0
 62
9
  6
CONTINUOUS
 10
322.1798071723
 20
190.7874893179
  0
VERTEX
  8
0
 62
9
  6
CONTINUOUS
 10
321.9350194341
 20
190.5072992015
  0
VERTEX
  8
0
 62
9
  6
CONTINUOUS
 10
321.747862174
 20
190.1843342523
  0
VERTEX
  8
0
 62
9
  6
CONTINUOUS
 10
321.6250772659
 20
189.8302284782
  0
SEQEND
  0
POLYLINE
  8
0
 62
9
  6
CONTINUOUS
 66
1
 70
0
  0
VERTEX
  8
0
 62
9
  6
CONTINUOUS
 10
334.4688507434
 20
120.3487231825
  0
VERTEX
  8
0
 62
9
  6
CONTINUOUS
 10
334.8166998887
 20
120.3586584304
  0
VERTEX
  8
0
 62
9
  6
CONTINUOUS
 10
335.1480488915
 20
120.3803480005
  0
VERTEX
  8
0
 62
9
  6
CONTINUOUS
 10
335.4634393557
 20
120.4200637819
  0
VERTEX
  8
0
 62
9
  6
CONTINUOUS
 10
335.7516841297
 20
120.4726090742
  0
VERTEX
  8
0
 62
9
  6
CONTINUOUS
 10
335.9986760101
 20
120.5381400624
  0
VERTEX
  8
0
 62
9
  6
CONTINUOUS
 10
336.1998610563
 20
120.614313935
  0
VERTEX
  8
0
 62
9
  6
CONTINUOUS
 10
336.3481631483
 20
120.6950592161
  0
VERTEX
  8
0
 62
9
  6
CONTINUOUS
 10
336.4384662443
 20
120.7884575705
  0
SEQEND
  0
LINE
  8
1_AXIS
 62
7
  6
CONTINUOUS
 10
310.3305327869
 20
113.1301229508
 11
316.4805327869
 21
113.1301229508
  0
LINE
  8
1_AXIS
 62
7
  6
CONTINUOUS
 10
342.4805327869
 20
113.1301229508
 11
348.6305327869
 21
113.1301229508
  0
LINE
  8
0
 62
9
  6
CONTINUOUS
 10
324.59408049
 20
120.3487231017
 11
334.4688507383
 21
120.3487231017
  0
POLYLINE
  8
0
 62
9
  6
CONTINUOUS
 66
1
 70
0
  0
VERTEX
  8
0
 62
9
  6
CONTINUOUS
 10
324.59408049
 20
120.3487231029
  0
VERTEX
  8
0
 62
9
  6
CONTINUOUS
 10
324.2539628081
 20
120.3564742945
  0
VERTEX
  8
0
 62
9
  6
CONTINUOUS
 10
323.9222357904
 20
120.3796458984
  0
VERTEX
  8
0
 62
9
  6
CONTINUOUS
 10
323.6085074986
 20
120.4178212826
  0
VERTEX
  8
0
 62
9
  6
CONTINUOUS
 10
323.3234898775
 20
120.4699076082
  0
VERTEX
  8
0
 62
9
  6
CONTINUOUS
 10
323.0767578852
 20
120.5341815774
  0
VERTEX
  8
0
 62
9
  6
CONTINUOUS
 10
322.8752246531
 20
120.608802606
  0
VERTEX
  8
0
 62
9
  6
CONTINUOUS
 10
322.7248799801
 20
120.6915806944
  0
VERTEX
  8
0
 62
9
  6
CONTINUOUS
 10
322.6303024684
 20
120.7800450493
  0
SEQEND
  0
POLYLINE
  8
0
 62
9
  6
CONTINUOUS
 66
1
 70
0
  0
VERTEX
  8
0
 62
9
  6
CONTINUOUS
 10
323.2374314819
 20
109.8804049744
  0
VERTEX
  8
0
 62
9
  6
CONTINUOUS
 10
322.9927734773
 20
110.1611983169
  0
VERTEX
  8
0
 62
9
  6
CONTINUOUS
 10
322.8057800804
 20
110.4851875193
  0
VERTEX
  8
0
 62
9
  6
CONTINUOUS
 10
322.6822653118
 20
110.842160721
  0
VERTEX
  8
0
 62
9
  6
CONTINUOUS
 10
322.6303024685
 20
111.2133499021
  0
SEQEND
  0
POLYLINE
  8
0
 62
7
  6
CONTINUOUS
 66
1
 70
0
  0
VERTEX
  8
0
 62
7
  6
CONTINUOUS
 10
321.8682472913
 20
110.8057529041
  0
VERTEX
  8
0
 62
7
  6
CONTINUOUS
 10
322.088550512
 20
110.5480014483
  0
VERTEX
  8
0
 62
7
  6
CONTINUOUS
 10
322.3310791747
 20
110.3408913688
  0
VERTEX
  8
0
 62
7
  6
CONTINUOUS
 10
322.5549322123
 20
110.1969118889
  0
SEQEND
  0
POLYLINE
  8
0
 62
9
  6
CONTINUOUS
 66
1
 70
0
  0
VERTEX
  8
0
 62
9
  6
CONTINUOUS
 10
321.5710877284
 20
111.8025082496
  0
VERTEX
  8
0
 62
9
  6
CONTINUOUS
 10
321.5315097284
 20
111.851887623
  0
VERTEX
  8
0
 62
9
  6
CONTINUOUS
 10
321.503198287
 20
111.9017273628
  0
VERTEX
  8
0
 62
9
  6
CONTINUOUS
 10
321.4861992841
 20
111.9518337861
  0
VERTEX
  8
0
 62
9
  6
CONTINUOUS
 10
321.4805327869
 20
112.00201223
  0
SEQEND
  0
LINE
  8
0
 62
9
  6
CONTINUOUS
 10
322.7245775613
 20
56.7276351414
 11
322.6303024685
 21
57.0023665296
  0
POLYLINE
  8
0
 62
7
  6
CONTINUOUS
 66
1
 70
0
  0
VERTEX
  8
0
 62
7
  6
CONTINUOUS
 10
322.6656613849
 20
56.7883083759
  0
VERTEX
  8
0
 62
7
  6
CONTINUOUS
 10
322.7014813718
 20
56.6720088392
  0
VERTEX
  8
0
 62
7
  6
CONTINUOUS
 10
322.8452436547
 20
56.3482458032
  0
SEQEND
  0
LINE
  8
0
 62
9
  6
CONTINUOUS
 10
322.6303024685
 20
57.0023665296
 11
321.5710877284
 21
60.8014907613
  0
LINE
  8
0
 62
7
  6
CONTINUOUS
 10
321.6079844193
 20
60.5846493519
 11
322.6676974109
 21
56.7809588891
  0
LINE
  8
0
 62
7
  6
CONTINUOUS
 10
321.5775354042
 20
60.7019249164
 11
321.6078968923
 21
60.5849643446
  0
POLYLINE
  8
0
 62
9
  6
CONTINUOUS
 66
1
 70
0
  0
VERTEX
  8
0
 62
9
  6
CONTINUOUS
 10
323.5348657546
 20
257.1858411434
  0
VERTEX
  8
0
 62
9
  6
CONTINUOUS
 10
323.5111060506
 20
257.0425655481
  0
VERTEX
  8
0
 62
9
  6
CONTINUOUS
 10
323.4941306547
 20
256.898706124
  0
VERTEX
  8
0
 62
9
  6
CONTINUOUS
 10
323.4839395668
 20
256.754262871
  0
VERTEX
  8
0
 62
9
  6
CONTINUOUS
 10
323.4805327869
 20
256.6092357891
  0
SEQEND
  0
POLYLINE
  8
0
 62
7
  6
CONTINUOUS
 66
1
 70
0
  0
VERTEX
  8
0
 62
7
  6
CONTINUOUS
 10
321.5710877284
 20
257.1482882929
  0
VERTEX
  8
0
 62
7
  6
CONTINUOUS
 10
321.5315097284
 20
256.9112914213
  0
VERTEX
  8
0
 62
7
  6
CONTINUOUS
 10
321.503198287
 20
256.6727872141
  0
VERTEX
  8
0
 62
7
  6
CONTINUOUS
 10
321.4861992841
 20
256.4333144139
  0
SEQEND
  0
LINE
  8
0
 62
9
  6
CONTINUOUS
 10
321.6078675792
 20
240.6751760629
 11
321.5710877302
 21
240.4587551579
  0
LINE
  8
0
 62
9
  6
CONTINUOUS
 10
322.6303024685
 20
262.7062420821
 11
321.5710877284
 21
257.1482882928
  0
LINE
  8
0
 62
9
  6
CONTINUOUS
 10
324.59408049
 20
262.7435323417
 11
323.5348657546
 21
257.1858411434
  0
POLYLINE
  8
0
 62
9
  6
CONTINUOUS
 66
1
 70
0
  0
VERTEX
  8
0
 62
9
  6
CONTINUOUS
 10
321.5710877284
 20
233.1515027055
  0
VERTEX
  8
0
 62
9
  6
CONTINUOUS
 10
321.5315097284
 20
232.945023965
  0
VERTEX
  8
0
 62
9
  6
CONTINUOUS
 10
321.503198287
 20
232.7373224109
  0
VERTEX
  8
0
 62
9
  6
CONTINUOUS
 10
321.4861992841
 20
232.5288170834
  0
VERTEX
  8
0
 62
9
  6
CONTINUOUS
 10
321.4805327869
 20
232.3199270608
  0
SEQEND
  0
LINE
  8
1_AXIS
 62
7
  6
CONTINUOUS
 10
321.5710877331
 20
257.3295007226
 11
322.6303024685
 21
262.8190370338
  0
LINE
  8
0
 62
9
  6
CONTINUOUS
 10
322.6303024685
 20
238.3453366112
 11
321.5710877284
 21
233.1515027039
  0
POLYLINE
  8
0
 62
9
  6
CONTINUOUS
 66
1
 70
0
  0
VERTEX
  8
0
 62
9
  6
CONTINUOUS
 10
324.59408049
 20
237.2356082982
  0
VERTEX
  8
0
 62
9
  6
CONTINUOUS
 10
324.2364017147
 20
235.4848853253
  0
VERTEX
  8
0
 62
9
  6
CONTINUOUS
 10
323.5348657546
 20
232.0449770015
  0
SEQEND
  0
POLYLINE
  8
0
 62
7
  6
CONTINUOUS
 66
1
 70
0
  0
VERTEX
  8
0
 62
7
  6
CONTINUOUS
 10
321.6078675929
 20
240.6751760598
  0
VERTEX
  8
0
 62
7
  6
CONTINUOUS
 10
321.5669544308
 20
240.5131668899
  0
VERTEX
  8
0
 62
7
  6
CONTINUOUS
 10
321.5076809219
 20
240.1771450001
  0
SEQEND
  0
LINE
  8
0
 62
7
  6
CONTINUOUS
 10
321.8518391099
 20
190.4314396024
 11
321.676115604
 21
190.1292088359
  0
POLYLINE
  8
0
 62
9
  6
CONTINUOUS
 66
1
 70
0
  0
VERTEX
  8
0
 62
9
  6
CONTINUOUS
 10
324.5940804974
 20
122.6129134163
  0
VERTEX
  8
0
 62
9
  6
CONTINUOUS
 10
324.2212283282
 20
122.5442002729
  0
VERTEX
  8
0
 62
9
  6
CONTINUOUS
 10
323.8633920047
 20
122.4206176716
  0
VERTEX
  8
0
 62
9
  6
CONTINUOUS
 10
323.532206062
 20
122.2392654393
  0
VERTEX
  8
0
 62
9
  6
CONTINUOUS
 10
323.237398254
 20
122.0077466114
  0
VERTEX
  8
0
 62
9
  6
CONTINUOUS
 10
322.9927490335
 20
121.7363750508
  0
VERTEX
  8
0
 62
9
  6
CONTINUOUS
 10
322.8057667221
 20
121.4334664676
  0
VERTEX
  8
0
 62
9
  6
CONTINUOUS
 10
322.6822610849
 20
121.1119002698
  0
VERTEX
  8
0
 62
9
  6
CONTINUOUS
 10
322.6303024685
 20
120.7800450492
  0
SEQEND
  0
POLYLINE
  8
0
 62
9
  6
CONTINUOUS
 66
1
 70
0
  0
VERTEX
  8
0
 62
9
  6
CONTINUOUS
 10
323.5348657546
 20
125.4538401003
  0
VERTEX
  8
0
 62
9
  6
CONTINUOUS
 10
323.163363789
 20
125.3880796094
  0
VERTEX
  8
0
 62
9
  6
CONTINUOUS
 10
322.8052442562
 20
125.2622951609
  0
VERTEX
  8
0
 62
9
  6
CONTINUOUS
 10
322.47340752
 20
125.0810178263
  0
VERTEX
  8
0
 62
9
  6
CONTINUOUS
 10
322.1798071723
 20
124.8507776699
  0
VERTEX
  8
0
 62
9
  6
CONTINUOUS
 10
321.9350194341
 20
124.5798685198
  0
VERTEX
  8
0
 62
9
  6
CONTINUOUS
 10
321.747862174
 20
124.2780492032
  0
VERTEX
  8
0
 62
9
  6
CONTINUOUS
 10
321.6250772659
 20
123.9561920091
  0
VERTEX
  8
0
 62
9
  6
CONTINUOUS
 10
321.5710877302
 20
123.625891041
  0
SEQEND
  0
POLYLINE
  8
0
 62
9
  6
CONTINUOUS
 66
1
 70
0
  0
VERTEX
  8
0
 62
9
  6
CONTINUOUS
 10
323.4805327869
 20
125.7485836308
  0
VERTEX
  8
0
 62
9
  6
CONTINUOUS
 10
323.0903522705
 20
125.7153027847
  0
VERTEX
  8
0
 62
9
  6
CONTINUOUS
 10
322.7151661236
 20
125.6167391901
  0
VERTEX
  8
0
 62
9
  6
CONTINUOUS
 10
322.3693925387
 20
125.4566805681
  0
VERTEX
  8
0
 62
9
  6
CONTINUOUS
 10
322.0663194136
 20
125.2412778642
  0
VERTEX
  8
0
 62
9
  6
CONTINUOUS
 10
321.8175936938
 20
124.9788088699
  0
VERTEX
  8
0
 62
9
  6
CONTINUOUS
 10
321.6327737899
 20
124.6793601178
  0
VERTEX
  8
0
 62
9
  6
CONTINUOUS
 10
321.5189622456
 20
124.3544392603
  0
VERTEX
  8
0
 62
9
  6
CONTINUOUS
 10
321.4805327869
 20
124.0165328232
  0
SEQEND
  0
POLYLINE
  8
0
 62
9
  6
CONTINUOUS
 66
1
 70
0
  0
VERTEX
  8
0
 62
9
  6
CONTINUOUS
 10
323.4805327869
 20
127.3995882328
  0
VERTEX
  8
0
 62
9
  6
CONTINUOUS
 10
323.1676638569
 20
127.3782638132
  0
VERTEX
  8
0
 62
9
  6
CONTINUOUS
 10
322.8624987983
 20
127.3148156323
  0
VERTEX
  8
0
 62
9
  6
CONTINUOUS
 10
322.5725517875
 20
127.210805995
  0
VERTEX
  8
0
 62
9
  6
CONTINUOUS
 10
322.3049622824
 20
127.0687959637
  0
VERTEX
  8
0
 62
9
  6
CONTINUOUS
 10
322.0663192245
 20
126.8922822966
  0
VERTEX
  8
0
 62
9
  6
CONTINUOUS
 10
321.8624987982
 20
126.6856113461
  0
VERTEX
  8
0
 62
9
  6
CONTINUOUS
 10
321.6985197385
 20
126.453872037
  0
VERTEX
  8
0
 62
9
  6
CONTINUOUS
 10
321.5784197543
 20
126.2027705599
  0
VERTEX
  8
0
 62
9
  6
CONTINUOUS
 10
321.5051561057
 20
125.9384898668
  0
VERTEX
  8
0
 62
9
  6
CONTINUOUS
 10
321.4805327869
 20
125.6675374252
  0
SEQEND
  0
LINE
  8
0
 62
9
  6
CONTINUOUS
 10
334.4688507383
 20
122.6129134374
 11
324.59408049
 21
122.6129134374
  0
LINE
  8
0
 62
9
  6
CONTINUOUS
 10
335.4805327869
 20
127.3995882328
 11
323.4805327869
 21
127.3995882328
  0
POLYLINE
  8
0
 62
9
  6
CONTINUOUS
 66
1
 70
0
  0
VERTEX
  8
0
 62
9
  6
CONTINUOUS
 10
335.4805327869
 20
127.3995882328
  0
VERTEX
  8
0
 62
9
  6
CONTINUOUS
 10
335.7934015849
 20
127.3782638313
  0
VERTEX
  8
0
 62
9
  6
CONTINUOUS
 10
336.0985665825
 20
127.3148156866
  0
VERTEX
  8
0
 62
9
  6
CONTINUOUS
 10
336.3885136082
 20
127.2108060736
  0
VERTEX
  8
0
 62
9
  6
CONTINUOUS
 10
336.656103171
 20
127.0687960395
  0
VERTEX
  8
0
 62
9
  6
CONTINUOUS
 10
336.8947463043
 20
126.8922823355
  0
VERTEX
  8
0
 62
9
  6
CONTINUOUS
 10
337.0985667937
 20
126.6856113245
  0
VERTEX
  8
0
 62
9
  6
CONTINUOUS
 10
337.2625458873
 20
126.4538719485
  0
VERTEX
  8
0
 62
9
  6
CONTINUOUS
 10
337.3826458678
 20
126.2027704311
  0
VERTEX
  8
0
 62
9
  6
CONTINUOUS
 10
337.4559094858
 20
125.9384897698
  0
VERTEX
  8
0
 62
9
  6
CONTINUOUS
 10
337.4805327869
 20
125.6675374254
  0
SEQEND
  0
POLYLINE
  8
0
 62
9
  6
CONTINUOUS
 66
1
 70
0
  0
VERTEX
  8
0
 62
9
  6
CONTINUOUS
 10
335.4805327869
 20
125.7185487509
  0
VERTEX
  8
0
 62
9
  6
CONTINUOUS
 10
335.8707134309
 20
125.6852678803
  0
VERTEX
  8
0
 62
9
  6
CONTINUOUS
 10
336.2458996516
 20
125.5867042337
  0
VERTEX
  8
0
 62
9
  6
CONTINUOUS
 10
336.5916732529
 20
125.4266455568
  0
VERTEX
  8
0
 62
9
  6
CONTINUOUS
 10
336.8947463493
 20
125.2112428147
  0
VERTEX
  8
0
 62
9
  6
CONTINUOUS
 10
337.1434720115
 20
124.9487738141
  0
VERTEX
  8
0
 62
9
  6
CONTINUOUS
 10
337.3282918519
 20
124.6493250914
  0
VERTEX
  8
0
 62
9
  6
CONTINUOUS
 10
337.4421033477
 20
124.3244042931
  0
VERTEX
  8
0
 62
9
  6
CONTINUOUS
 10
337.4805327869
 20
123.9864979433
  0
SEQEND
  0
POLYLINE
  8
0
 62
9
  6
CONTINUOUS
 66
1
 70
0
  0
VERTEX
  8
0
 62
9
  6
CONTINUOUS
 10
335.4349560459
 20
125.4484061072
  0
VERTEX
  8
0
 62
9
  6
CONTINUOUS
 10
335.8085004423
 20
125.3852771919
  0
VERTEX
  8
0
 62
9
  6
CONTINUOUS
 10
336.1685146209
 20
125.2616988905
  0
VERTEX
  8
0
 62
9
  6
CONTINUOUS
 10
336.5019586398
 20
125.0821472881
  0
VERTEX
  8
0
 62
9
  6
CONTINUOUS
 10
336.7967549452
 20
124.853125858
  0
VERTEX
  8
0
 62
9
  6
CONTINUOUS
 10
337.0422258279
 20
124.5829299021
  0
VERTEX
  8
0
 62
9
  6
CONTINUOUS
 10
337.2294801766
 20
124.2813460895
  0
VERTEX
  8
0
 62
9
  6
CONTINUOUS
 10
337.35173552
 20
123.9592979772
  0
VERTEX
  8
0
 62
9
  6
CONTINUOUS
 10
337.4045636919
 20
123.6284503521
  0
SEQEND
  0
POLYLINE
  8
0
 62
9
  6
CONTINUOUS
 66
1
 70
0
  0
VERTEX
  8
0
 62
9
  6
CONTINUOUS
 10
334.4688507309
 20
122.6129134143
  0
VERTEX
  8
0
 62
9
  6
CONTINUOUS
 10
334.8440033091
 20
122.5468575566
  0
VERTEX
  8
0
 62
9
  6
CONTINUOUS
 10
335.2033683328
 20
122.425538716
  0
VERTEX
  8
0
 62
9
  6
CONTINUOUS
 10
335.5360639242
 20
122.2459797173
  0
VERTEX
  8
0
 62
9
  6
CONTINUOUS
 10
335.832122354
 20
122.0157452924
  0
VERTEX
  8
0
 62
9
  6
CONTINUOUS
 10
336.0774456624
 20
121.745170834
  0
VERTEX
  8
0
 62
9
  6
CONTINUOUS
 10
336.2645781714
 20
121.4425395102
  0
VERTEX
  8
0
 62
9
  6
CONTINUOUS
 10
336.3875307976
 20
121.1208543708
  0
VERTEX
  8
0
 62
9
  6
CONTINUOUS
 10
336.4384662443
 20
120.7884575705
  0
SEQEND
  0
LINE
  8
0
 62
7
  6
CONTINUOUS
 10
321.6865257534
 20
111.1093334633
 11
321.8682472913
 21
110.8057529041
  0
POLYLINE
  8
0
 62
9
  6
CONTINUOUS
 66
1
 70
0
  0
VERTEX
  8
0
 62
9
  6
CONTINUOUS
 10
321.5710877284
 20
60.8014907627
  0
VERTEX
  8
0
 62
9
  6
CONTINUOUS
 10
321.5315097284
 20
60.9784810157
  0
VERTEX
  8
0
 62
9
  6
CONTINUOUS
 10
321.503198287
 20
61.1566873754
  0
VERTEX
  8
0
 62
9
  6
CONTINUOUS
 10
321.4861992841
 20
61.3356571779
  0
VERTEX
  8
0
 62
9
  6
CONTINUOUS
 10
321.4805327869
 20
61.5149367557
  0
SEQEND
  0
LINE
  8
0
 62
9
  6
CONTINUOUS
 10
324.2364023621
 20
65.7753574047
 11
324.59408049
 21
64.0246376034
  0
LINE
  8
0
 62
9
  6
CONTINUOUS
 10
321.5710877283
 20
68.1087431982
 11
322.6303024685
 21
62.9149092905
  0
LINE
  8
1_AXIS
 62
7
  6
CONTINUOUS
 10
321.5710877331
 20
43.930745179
 11
322.6303024685
 21
38.4412088678
  0
LINE
  8
0
 62
9
  6
CONTINUOUS
 10
321.5710877283
 20
44.1119576093
 11
322.6303024685
 21
38.5540038195
  0
LINE
  8
0
 62
9
  6
CONTINUOUS
 10
323.5348657546
 20
44.0744047583
 11
324.59408049
 21
38.5167135599
  0
LINE
  8
0
 62
9
  6
CONTINUOUS
 10
321.6078968923
 20
60.5849643446
 11
321.5710877437
 21
60.8014907459
  0
LINE
  8
1_AXIS
 62
7
  6
CONTINUOUS
 10
308.3305327869
 20
186.1301229508
 11
308.3305327869
 21
115.1301229508
  0
LINE
  8
1_AXIS
 62
9
  6
CONTINUOUS
 10
310.3305327869
 20
113.1301229508
 11
310.3305327869
 21
188.1301229508
  0
LINE
  8
0
 62
7
  6
CONTINUOUS
 10
321.5076809219
 20
240.1771450001
 11
321.4818049852
 21
239.8389299932
  0
POLYLINE
  8
0
 62
9
  6
CONTINUOUS
 66
1
 70
0
  0
VERTEX
  8
0
 62
9
  6
CONTINUOUS
 10
321.4861993177
 20
239.9245892547
  0
VERTEX
  8
0
 62
9
  6
CONTINUOUS
 10
321.5031983765
 20
240.103559231
  0
VERTEX
  8
0
 62
9
  6
CONTINUOUS
 10
321.5315098289
 20
240.2817654108
  0
VERTEX
  8
0
 62
9
  6
CONTINUOUS
 10
321.5710877283
 20
240.4587551386
  0
SEQEND
  0
LINE
  8
0
 62
9
  6
CONTINUOUS
 10
322.6656615295
 20
244.4719380517
 11
322.6303024685
 21
244.2578793721
  0
POLYLINE
  8
0
 62
9
  6
CONTINUOUS
 66
1
 70
0
  0
VERTEX
  8
0
 62
9
  6
CONTINUOUS
 10
323.5348657546
 20
232.0449770015
  0
VERTEX
  8
0
 62
9
  6
CONTINUOUS
 10
323.5111060506
 20
231.9111640993
  0
VERTEX
  8
0
 62
9
  6
CONTINUOUS
 10
323.4941306547
 20
231.7768059274
  0
VERTEX
  8
0
 62
9
  6
CONTINUOUS
 10
323.4839395668
 20
231.6419024859
  0
VERTEX
  8
0
 62
9
  6
CONTINUOUS
 10
323.4805327869
 20
231.5064537746
  0
SEQEND
  0
LINE
  8
0
 62
9
  6
CONTINUOUS
 10
337.3517431149
 20
232.9755009426
 11
337.404571558
 21
233.1369839054
  0
POLYLINE
  8
0
 62
7
  6
CONTINUOUS
 66
1
 70
0
  0
VERTEX
  8
0
 62
7
  6
CONTINUOUS
 10
321.676115604
 20
190.1292088359
  0
VERTEX
  8
0
 62
7
  6
CONTINUOUS
 10
321.553104687
 20
189.7969679511
  0
VERTEX
  8
0
 62
7
  6
CONTINUOUS
 10
321.4894774056
 20
189.448834297
  0
SEQEND
  0
LINE
  8
0
 62
9
  6
CONTINUOUS
 10
322.6303024685
 20
180.4802008525
 11
321.5710877284
 21
177.6343548478
  0
POLYLINE
  8
0
 62
9
  6
CONTINUOUS
 66
1
 70
0
  0
VERTEX
  8
0
 62
9
  6
CONTINUOUS
 10
321.5710877284
 20
177.6343548503
  0
VERTEX
  8
0
 62
9
  6
CONTINUOUS
 10
321.5315097284
 20
177.5372621019
  0
VERTEX
  8
0
 62
9
  6
CONTINUOUS
 10
321.503198287
 20
177.4396981351
  0
VERTEX
  8
0
 62
9
  6
CONTINUOUS
 10
321.4861992841
 20
177.3418022285
  0
VERTEX
  8
0
 62
9
  6
CONTINUOUS
 10
321.4805327869
 20
177.2437130784
  0
SEQEND
  0
LINE
  8
0
 62
7
  6
CONTINUOUS
 10
337.7953280525
 20
203.5772881335
 11
338.9805327869
 21
205.6301229508
  0
LINE
  8
0
 62
9
  6
CONTINUOUS
 10
321.5710877283
 20
123.6258910541
 11
322.6303024685
 21
120.7800450492
  0
LINE
  8
0
 62
9
  6
CONTINUOUS
 10
337.35173552
 20
68.2847456623
 11
337.4045636919
 21
68.1232630691
  0
LINE
  8
0
 62
9
  6
CONTINUOUS
 10
323.5348657546
 20
69.2152689002
 11
324.2364023621
 21
65.7753574047
  0
POLYLINE
  8
0
 62
7
  6
CONTINUOUS
 66
1
 70
0
  0
VERTEX
  8
0
 62
7
  6
CONTINUOUS
 10
321.4907475058
 20
111.7983584146
  0
VERTEX
  8
0
 62
7
  6
CONTINUOUS
 10
321.5582054046
 20
111.4450159704
  0
VERTEX
  8
0
 62
7
  6
CONTINUOUS
 10
321.6865257534
 20
111.1093334633
  0
SEQEND
  0
LINE
  8
0
 62
9
  6
CONTINUOUS
 10
322.6656613849
 20
56.7883083759
 11
322.6303024685
 21
57.0023665296
  0
POLYLINE
  8
0
 62
7
  6
CONTINUOUS
 66
1
 70
0
  0
VERTEX
  8
0
 62
7
  6
CONTINUOUS
 10
321.5031983765
 20
44.5874577431
  0
VERTEX
  8
0
 62
7
  6
CONTINUOUS
 10
321.5315098289
 20
44.3489537761
  0
VERTEX
  8
0
 62
7
  6
CONTINUOUS
 10
321.5710877283
 20
44.1119576092
  0
SEQEND
  0
POLYLINE
  8
0
 62
9
  6
CONTINUOUS
 66
1
 70
0
  0
VERTEX
  8
0
 62
9
  6
CONTINUOUS
 10
321.4805327869
 20
124.0165328232
  0
VERTEX
  8
0
 62
9
  6
CONTINUOUS
 10
321.4861993177
 20
123.9184433822
  0
VERTEX
  8
0
 62
9
  6
CONTINUOUS
 10
321.5031983765
 20
123.8205473788
  0
VERTEX
  8
0
 62
9
  6
CONTINUOUS
 10
321.5315098289
 20
123.7229835095
  0
VERTEX
  8
0
 62
9
  6
CONTINUOUS
 10
321.5710877283
 20
123.6258910516
  0
SEQEND
  0
LINE
  8
0
 62
7
  6
CONTINUOUS
 10
321.4805345861
 20
112.0024646262
 11
321.4907475058
 21
111.7983584146
  0
POLYLINE
  8
0
 62
9
  6
CONTINUOUS
 66
1
 70
0
  0
VERTEX
  8
0
 62
9
  6
CONTINUOUS
 10
323.4805327869
 20
125.7485836308
  0
VERTEX
  8
0
 62
9
  6
CONTINUOUS
 10
323.4839396076
 20
125.6744498763
  0
VERTEX
  8
0
 62
9
  6
CONTINUOUS
 10
323.4941307091
 20
125.6006147031
  0
VERTEX
  8
0
 62
9
  6
CONTINUOUS
 10
323.5111060915
 20
125.5270781111
  0
VERTEX
  8
0
 62
9
  6
CONTINUOUS
 10
323.5348657546
 20
125.4538401003
  0
SEQEND
  0
POLYLINE
  8
0
 62
9
  6
CONTINUOUS
 66
1
 70
0
  0
VERTEX
  8
0
 62
9
  6
CONTINUOUS
 10
321.4805327869
 20
68.9403188409
  0
VERTEX
  8
0
 62
9
  6
CONTINUOUS
 10
321.4861993177
 20
68.7314281991
  0
VERTEX
  8
0
 62
9
  6
CONTINUOUS
 10
321.5031983765
 20
68.5229226673
  0
VERTEX
  8
0
 62
9
  6
CONTINUOUS
 10
321.5315098289
 20
68.315221322
  0
VERTEX
  8
0
 62
9
  6
CONTINUOUS
 10
321.5710877283
 20
68.1087431966
  0
SEQEND
  0
POLYLINE
  8
0
 62
9
  6
CONTINUOUS
 66
1
 70
0
  0
VERTEX
  8
0
 62
9
  6
CONTINUOUS
 10
323.4805327869
 20
69.753792127
  0
VERTEX
  8
0
 62
9
  6
CONTINUOUS
 10
323.4839396076
 20
69.6183430178
  0
VERTEX
  8
0
 62
9
  6
CONTINUOUS
 10
323.4941307091
 20
69.4834394436
  0
VERTEX
  8
0
 62
9
  6
CONTINUOUS
 10
323.5111060915
 20
69.3490814044
  0
VERTEX
  8
0
 62
9
  6
CONTINUOUS
 10
323.5348657546
 20
69.2152689002
  0
SEQEND
  0
POLYLINE
  8
0
 62
7
  6
CONTINUOUS
 66
1
 70
0
  0
VERTEX
  8
0
 62
7
  6
CONTINUOUS
 10
321.4805327869
 20
45.0668334942
  0
VERTEX
  8
0
 62
7
  6
CONTINUOUS
 10
321.4861993177
 20
44.8269307769
  0
VERTEX
  8
0
 62
7
  6
CONTINUOUS
 10
321.5031983765
 20
44.5874577431
  0
SEQEND
  0
POLYLINE
  8
0
 62
9
  6
CONTINUOUS
 66
1
 70
0
  0
VERTEX
  8
0
 62
9
  6
CONTINUOUS
 10
323.4805327869
 20
44.6510101126
  0
VERTEX
  8
0
 62
9
  6
CONTINUOUS
 10
323.4839396076
 20
44.5059826045
  0
VERTEX
  8
0
 62
9
  6
CONTINUOUS
 10
323.4941307091
 20
44.3615392094
  0
VERTEX
  8
0
 62
9
  6
CONTINUOUS
 10
323.5111060915
 20
44.2176799274
  0
VERTEX
  8
0
 62
9
  6
CONTINUOUS
 10
323.5348657546
 20
44.0744047583
  0
SEQEND
  0
POLYLINE
  8
0
 62
7
  6
CONTINUOUS
 66
1
 70
0
  0
VERTEX
  8
0
 62
7
  6
CONTINUOUS
 10
321.4805342866
 20
61.5159122311
  0
VERTEX
  8
0
 62
7
  6
CONTINUOUS
 10
321.4833928131
 20
61.3745696772
  0
VERTEX
  8
0
 62
7
  6
CONTINUOUS
 10
321.5138086781
 20
61.0370104264
  0
VERTEX
  8
0
 62
7
  6
CONTINUOUS
 10
321.5775354042
 20
60.7019249164
  0
SEQEND
  0
LINE
  8
1_AXIS
 62
9
  6
CONTINUOUS
 10
316.4805327869
 20
113.1301229508
 11
316.4805327869
 21
188.1301229508
  0
LINE
  8
1_AXIS
 62
7
  6
CONTINUOUS
 10
321.4805327869
 20
256.3821928586
 11
321.4805327869
 21
256.1934124074
  0
LINE
  8
1_AXIS
 62
7
  6
CONTINUOUS
 10
321.4805327869
 20
239.7453091459
 11
321.4805327869
 21
232.3199270608
  0
LINE
  8
1_AXIS
 62
7
  6
CONTINUOUS
 10
321.4805327869
 20
189.2582336716
 11
321.4805327869
 21
177.2437130784
  0
LINE
  8
1_AXIS
 62
7
  6
CONTINUOUS
 10
321.4805327869
 20
124.0165328232
 11
321.4805327869
 21
112.00201223
  0
LINE
  8
1_AXIS
 62
7
  6
CONTINUOUS
 10
321.4805327869
 20
68.9403188409
 11
321.4805327869
 21
61.5149367557
  0
LINE
  8
1_AXIS
 62
7
  6
CONTINUOUS
 10
321.4805327869
 20
45.0668334942
 11
321.4805327869
 21
44.8990140607
  0
LINE
  8
0
 62
7
  6
CONTINUOUS
 10
321.4805327869
 20
44.8780304124
 11
321.4805327869
 21
189.2582336716
  0
LINE
  8
0
 62
7
  6
CONTINUOUS
 10
321.4805327869
 20
189.3969433892
 11
321.4805327869
 21
239.7453091459
  0
LINE
  8
0
 62
7
  6
CONTINUOUS
 10
321.4805327869
 20
240.4084623602
 11
321.4805327869
 21
256.3822155094
  0
LINE
  8
0
 62
9
  6
CONTINUOUS
 10
321.5710877331
 20
257.3295007226
 11
321.5710877284
 21
257.1482882928
  0
LINE
  8
0
 62
9
  6
CONTINUOUS
 10
321.5710877283
 20
44.1119576093
 11
321.5710877331
 21
43.930745179
  0
LINE
  8
0
 62
9
  6
CONTINUOUS
 10
321.5710877283
 20
189.4577376544
 11
321.5710877284
 21
177.6343548478
  0
LINE
  8
0
 62
9
  6
CONTINUOUS
 10
321.5710877283
 20
123.6258910541
 11
321.5710877284
 21
111.8025082472
  0
LINE
  8
0
 62
9
  6
CONTINUOUS
 10
321.5710877283
 20
68.1087431982
 11
321.5710877284
 21
60.8014907613
  0
LINE
  8
0
 62
9
  6
CONTINUOUS
 10
321.5710877284
 20
233.1515027039
 11
321.5710877283
 21
240.45875514
  0
LINE
  8
0
 62
9
  6
CONTINUOUS
 10
322.6303024685
 20
262.8190370338
 11
322.6303024685
 21
262.7062420821
  0
LINE
  8
0
 62
9
  6
CONTINUOUS
 10
322.6303024685
 20
244.2578793721
 11
322.6303024685
 21
238.3453366112
  0
LINE
  8
0
 62
9
  6
CONTINUOUS
 10
322.6303024685
 20
190.0468959995
 11
322.6303024685
 21
180.4802008525
  0
LINE
  8
0
 62
9
  6
CONTINUOUS
 10
322.6303024685
 20
120.7800450492
 11
322.6303024685
 21
111.2133499021
  0
LINE
  8
0
 62
9
  6
CONTINUOUS
 10
322.6303024685
 20
62.9149092905
 11
322.6303024685
 21
57.0023665296
  0
LINE
  8
0
 62
9
  6
CONTINUOUS
 10
322.6303024685
 20
38.5540038195
 11
322.6303024685
 21
38.4412088678
  0
LINE
  8
0
 62
7
  6
CONTINUOUS
 10
321.4818049852
 20
239.8389299932
 11
321.4805341515
 21
239.7447776695
  0
LINE
  8
0
 62
7
  6
CONTINUOUS
 10
321.4861992841
 20
256.4333144139
 11
321.4805327869
 21
256.1934124074
  0
LINE
  8
0
 62
9
  6
CONTINUOUS
 10
321.4805327869
 20
239.7453091459
 11
321.4861993177
 21
239.9245892547
  0
LINE
  8
0
 62
7
  6
CONTINUOUS
 10
321.4894774056
 20
189.448834297
 11
321.4805344965
 21
189.2578248972
  0
POLYLINE
  8
0
 62
9
  6
CONTINUOUS
 66
1
 70
0
  0
VERTEX
  8
0
 62
9
  6
CONTINUOUS
 10
321.4805327869
 20
189.2582336716
  0
VERTEX
  8
0
 62
9
  6
CONTINUOUS
 10
321.4861993177
 20
189.3084122639
  0
VERTEX
  8
0
 62
9
  6
CONTINUOUS
 10
321.5031983765
 20
189.3585187348
  0
VERTEX
  8
0
 62
9
  6
CONTINUOUS
 10
321.5315098289
 20
189.4083584236
  0
VERTEX
  8
0
 62
9
  6
CONTINUOUS
 10
321.5710877283
 20
189.457737652
  0
SEQEND
  0
LINE
  8
0
 62
9
  6
CONTINUOUS
 10
321.6250772659
 20
189.8302284782
 11
321.5710877302
 21
189.4577376574
  0
POLYLINE
  8
0
 62
9
  6
CONTINUOUS
 66
1
 70
0
  0
VERTEX
  8
0
 62
9
  6
CONTINUOUS
 10
323.5348657546
 20
175.8064058013
  0
VERTEX
  8
0
 62
9
  6
CONTINUOUS
 10
323.5111060506
 20
175.7331675727
  0
VERTEX
  8
0
 62
9
  6
CONTINUOUS
 10
323.4941306547
 20
175.6596309081
  0
VERTEX
  8
0
 62
9
  6
CONTINUOUS
 10
323.4839395668
 20
175.5857958075
  0
VERTEX
  8
0
 62
9
  6
CONTINUOUS
 10
323.4805327869
 20
175.5116622709
  0
SEQEND
  0
LINE
  8
0
 62
9
  6
CONTINUOUS
 10
324.59408049
 20
178.6473324642
 11
323.5348657546
 21
175.8064058013
  0
POLYLINE
  8
0
 62
9
  6
CONTINUOUS
 66
1
 70
0
  0
VERTEX
  8
0
 62
9
  6
CONTINUOUS
 10
335.4805327869
 20
139.2282044568
  0
VERTEX
  8
0
 62
9
  6
CONTINUOUS
 10
335.793401717
 20
139.2311516862
  0
VERTEX
  8
0
 62
9
  6
CONTINUOUS
 10
336.0985667756
 20
139.2399208039
  0
VERTEX
  8
0
 62
9
  6
CONTINUOUS
 10
336.3885137863
 20
139.254295885
  0
VERTEX
  8
0
 62
9
  6
CONTINUOUS
 10
336.6561032914
 20
139.2739229675
  0
VERTEX
  8
0
 62
9
  6
CONTINUOUS
 10
336.8947463492
 20
139.2983187673
  0
VERTEX
  8
0
 62
9
  6
CONTINUOUS
 10
337.0985667755
 20
139.3268825789
  0
VERTEX
  8
0
 62
9
  6
CONTINUOUS
 10
337.2625458352
 20
139.3589110665
  0
VERTEX
  8
0
 62
9
  6
CONTINUOUS
 10
337.3826458194
 20
139.3936155823
  0
VERTEX
  8
0
 62
9
  6
CONTINUOUS
 10
337.4559094681
 20
139.4301415862
  0
VERTEX
  8
0
 62
9
  6
CONTINUOUS
 10
337.4805327869
 20
139.4675896866
  0
SEQEND
  0
LINE
  8
0
 62
9
  6
CONTINUOUS
 10
335.4805327869
 20
139.2282044568
 11
323.4805327869
 21
139.2282044568
  0
POLYLINE
  8
0
 62
9
  6
CONTINUOUS
 66
1
 70
0
  0
VERTEX
  8
0
 62
9
  6
CONTINUOUS
 10
323.4805327869
 20
139.2282044661
  0
VERTEX
  8
0
 62
9
  6
CONTINUOUS
 10
323.1676639546
 20
139.2311516878
  0
VERTEX
  8
0
 62
9
  6
CONTINUOUS
 10
322.8624989288
 20
139.2399207988
  0
VERTEX
  8
0
 62
9
  6
CONTINUOUS
 10
322.5725518791
 20
139.2542958789
  0
VERTEX
  8
0
 62
9
  6
CONTINUOUS
 10
322.3049623082
 20
139.2739229652
  0
VERTEX
  8
0
 62
9
  6
CONTINUOUS
 10
322.0663191898
 20
139.2983187714
  0
VERTEX
  8
0
 62
9
  6
CONTINUOUS
 10
321.8624987257
 20
139.3268825908
  0
VERTEX
  8
0
 62
9
  6
CONTINUOUS
 10
321.698519662
 20
139.3589110844
  0
VERTEX
  8
0
 62
9
  6
CONTINUOUS
 10
321.5784197009
 20
139.3936156021
  0
VERTEX
  8
0
 62
9
  6
CONTINUOUS
 10
321.5051560879
 20
139.4301415999
  0
VERTEX
  8
0
 62
9
  6
CONTINUOUS
 10
321.4805327869
 20
139.4675896871
  0
SEQEND
  0
LINE
  8
0
 62
9
  6
CONTINUOUS
 10
323.5348657546
 20
125.4538401003
 11
324.59408049
 21
122.6129134374
  0
LINE
  8
0
 62
9
  6
CONTINUOUS
 10
323.4805327869
 20
256.6092357891
 11
323.4805327869
 21
245.5944437364
  0
LINE
  8
0
 62
9
  6
CONTINUOUS
 10
323.4805327869
 20
231.5064537746
 11
323.4805327869
 21
191.5824465629
  0
LINE
  8
0
 62
9
  6
CONTINUOUS
 10
323.4805327869
 20
175.5116622709
 11
323.4805327869
 21
125.7485836308
  0
LINE
  8
0
 62
9
  6
CONTINUOUS
 10
323.4805327869
 20
109.677800665
 11
323.4805327869
 21
69.753792127
  0
LINE
  8
0
 62
9
  6
CONTINUOUS
 10
323.4805327869
 20
55.6658021652
 11
323.4805327869
 21
44.6510101126
  0
LINE
  8
0
 62
9
  6
CONTINUOUS
 10
324.59408049
 20
264.4401229508
 11
324.59408049
 21
262.7435323417
  0
LINE
  8
0
 62
9
  6
CONTINUOUS
 10
324.59408049
 20
245.9416549416
 11
324.59408049
 21
237.2356082982
  0
LINE
  8
0
 62
9
  6
CONTINUOUS
 10
324.59408049
 20
191.9137672449
 11
324.59408049
 21
178.6473324642
  0
LINE
  8
0
 62
9
  6
CONTINUOUS
 10
324.59408049
 20
122.6129134374
 11
324.59408049
 21
109.3464786568
  0
LINE
  8
0
 62
9
  6
CONTINUOUS
 10
324.59408049
 20
64.0246376034
 11
324.59408049
 21
55.3185909601
  0
LINE
  8
0
 62
9
  6
CONTINUOUS
 10
324.59408049
 20
38.5167135599
 11
324.59408049
 21
36.8201229508
  0
LINE
  8
1_AXIS
 62
2
  6
CENTER
 10
306.3305327869
 20
150.6301229508
 11
352.6305327869
 21
150.6301229508
  0
POLYLINE
  8
0
 62
9
  6
CONTINUOUS
 66
1
 70
0
  0
VERTEX
  8
0
 62
9
  6
CONTINUOUS
 10
335.4805327869
 20
175.5416971508
  0
VERTEX
  8
0
 62
9
  6
CONTINUOUS
 10
335.4776762279
 20
175.6095884801
  0
VERTEX
  8
0
 62
9
  6
CONTINUOUS
 10
335.4691279181
 20
175.6772426971
  0
VERTEX
  8
0
 62
9
  6
CONTINUOUS
 10
335.4548878574
 20
175.7446598019
  0
VERTEX
  8
0
 62
9
  6
CONTINUOUS
 10
335.4349560459
 20
175.8118397944
  0
SEQEND
  0
POLYLINE
  8
0
 62
9
  6
CONTINUOUS
 66
1
 70
0
  0
VERTEX
  8
0
 62
9
  6
CONTINUOUS
 10
335.4805327869
 20
231.5613302308
  0
VERTEX
  8
0
 62
9
  6
CONTINUOUS
 10
335.4776762279
 20
231.6853738619
  0
VERTEX
  8
0
 62
9
  6
CONTINUOUS
 10
335.4691279181
 20
231.8089842672
  0
VERTEX
  8
0
 62
9
  6
CONTINUOUS
 10
335.4548878574
 20
231.9321614469
  0
VERTEX
  8
0
 62
9
  6
CONTINUOUS
 10
335.4349560459
 20
232.0549054009
  0
SEQEND
  0
POLYLINE
  8
0
 62
9
  6
CONTINUOUS
 66
1
 70
0
  0
VERTEX
  8
0
 62
9
  6
CONTINUOUS
 10
335.4805327869
 20
256.6679928805
  0
VERTEX
  8
0
 62
9
  6
CONTINUOUS
 10
335.4776762279
 20
256.8008083623
  0
VERTEX
  8
0
 62
9
  6
CONTINUOUS
 10
335.4691279181
 20
256.9331599824
  0
VERTEX
  8
0
 62
9
  6
CONTINUOUS
 10
335.4548878574
 20
257.065047741
  0
VERTEX
  8
0
 62
9
  6
CONTINUOUS
 10
335.4349560459
 20
257.196471638
  0
SEQEND
  0
LINE
  8
0
 62
9
  6
CONTINUOUS
 10
334.4688507383
 20
36.8201229508
 11
334.4688507383
 21
38.5167135599
  0
LINE
  8
0
 62
9
  6
CONTINUOUS
 10
334.4688507383
 20
55.3185909601
 11
334.4688507383
 21
64.0246376034
  0
LINE
  8
0
 62
9
  6
CONTINUOUS
 10
334.4688507383
 20
109.3464786568
 11
334.4688507383
 21
122.6129134374
  0
LINE
  8
0
 62
9
  6
CONTINUOUS
 10
334.4688507383
 20
178.6473324642
 11
334.4688507383
 21
191.9137672449
  0
LINE
  8
0
 62
9
  6
CONTINUOUS
 10
334.4688507383
 20
237.2356082982
 11
334.4688507383
 21
245.9416549416
  0
LINE
  8
0
 62
9
  6
CONTINUOUS
 10
334.4688507383
 20
262.7435323417
 11
334.4688507383
 21
264.4401229508
  0
LINE
  8
0
 62
9
  6
CONTINUOUS
 10
335.4805327869
 20
44.5922530212
 11
335.4805327869
 21
55.5945887707
  0
LINE
  8
0
 62
9
  6
CONTINUOUS
 10
335.4805327869
 20
69.6989156708
 11
335.4805327869
 21
109.6213449452
  0
LINE
  8
0
 62
9
  6
CONTINUOUS
 10
335.4805327869
 20
125.7185487509
 11
335.4805327869
 21
175.5416971508
  0
LINE
  8
0
 62
9
  6
CONTINUOUS
 10
335.4805327869
 20
191.6389009673
 11
335.4805327869
 21
231.5613302308
  0
LINE
  8
0
 62
9
  6
CONTINUOUS
 10
335.4805327869
 20
245.665657131
 11
335.4805327869
 21
256.6679928805
  0
LINE
  8
0
 62
9
  6
CONTINUOUS
 10
336.4384662443
 20
38.4728265955
 11
336.4384662443
 21
38.5855897587
  0
LINE
  8
0
 62
9
  6
CONTINUOUS
 10
336.4384662443
 20
57.0287532446
 11
336.4384662443
 21
62.9396296985
  0
LINE
  8
0
 62
9
  6
CONTINUOUS
 10
336.4384662443
 20
111.2244585648
 11
336.4384662443
 21
120.7884575705
  0
LINE
  8
0
 62
9
  6
CONTINUOUS
 10
336.4384662443
 20
180.4717883311
 11
336.4384662443
 21
190.0357873369
  0
LINE
  8
0
 62
9
  6
CONTINUOUS
 10
336.4384662443
 20
238.3206162031
 11
336.4384662443
 21
244.2314926571
  0
LINE
  8
0
 62
9
  6
CONTINUOUS
 10
336.4384662443
 20
262.674656143
 11
336.4384662443
 21
262.7874193062
  0
LINE
  8
0
 62
9
  6
CONTINUOUS
 10
337.4045715555
 20
60.8208422221
 11
337.4045715556
 21
68.1232620165
  0
LINE
  8
0
 62
9
  6
CONTINUOUS
 10
337.4045715555
 20
111.8128865849
 11
337.4045715556
 21
123.6284500118
  0
LINE
  8
0
 62
9
  6
CONTINUOUS
 10
337.4045715555
 20
177.6317958901
 11
337.4045715556
 21
189.4473593167
  0
LINE
  8
0
 62
9
  6
CONTINUOUS
 10
337.4045715555
 20
233.1369838856
 11
337.4045715556
 21
240.4394036791
  0
LINE
  8
0
 62
9
  6
CONTINUOUS
 10
337.4045715519
 20
43.9518820625
 11
337.4045715556
 21
44.1328905931
  0
LINE
  8
0
 62
9
  6
CONTINUOUS
 10
337.4045715555
 20
257.1273553091
 11
337.4045715519
 21
257.3083638392
  0
LINE
  8
0
 62
7
  6
CONTINUOUS
 10
337.4805327869
 20
44.8201229769
 11
337.4805327869
 21
256.4401229451
  0
LINE
  8
0
 62
7
  6
CONTINUOUS
 10
337.7805327869
 20
210.5106458068
 11
337.7805327869
 21
202.7698634401
  0
LINE
  8
0
 62
7
  6
CONTINUOUS
 10
337.7805327869
 20
201.797002221
 11
337.7805327869
 21
187.3125670293
  0
POLYLINE
  8
0
 62
9
  6
CONTINUOUS
 66
1
 70
0
  0
VERTEX
  8
0
 62
9
  6
CONTINUOUS
 10
337.4805325719
 20
177.2743509638
  0
VERTEX
  8
0
 62
9
  6
CONTINUOUS
 10
337.4757751102
 20
177.3636317637
  0
VERTEX
  8
0
 62
9
  6
CONTINUOUS
 10
337.4615733452
 20
177.4530369567
  0
VERTEX
  8
0
 62
9
  6
CONTINUOUS
 10
337.4378563556
 20
177.5424609629
  0
VERTEX
  8
0
 62
9
  6
CONTINUOUS
 10
337.4045715555
 20
177.6317958921
  0
SEQEND
  0
LINE
  8
0
 62
7
  6
CONTINUOUS
 10
337.4805245917
 20
189.2707559732
 11
337.4722885484
 21
189.4475483054
  0
POLYLINE
  8
0
 62
9
  6
CONTINUOUS
 66
1
 70
0
  0
VERTEX
  8
0
 62
9
  6
CONTINUOUS
 10
337.4805325719
 20
232.3760895669
  0
VERTEX
  8
0
 62
9
  6
CONTINUOUS
 10
337.4757751102
 20
232.5662163385
  0
VERTEX
  8
0
 62
9
  6
CONTINUOUS
 10
337.4615733452
 20
232.7566234437
  0
VERTEX
  8
0
 62
9
  6
CONTINUOUS
 10
337.4378563556
 20
232.9469886294
  0
VERTEX
  8
0
 62
9
  6
CONTINUOUS
 10
337.4045715555
 20
233.136983887
  0
SEQEND
  0
POLYLINE
  8
0
 62
7
  6
CONTINUOUS
 66
1
 70
0
  0
VERTEX
  8
0
 62
7
  6
CONTINUOUS
 10
337.4805325719
 20
256.2536473659
  0
VERTEX
  8
0
 62
7
  6
CONTINUOUS
 10
337.4757751102
 20
256.4719981446
  0
VERTEX
  8
0
 62
7
  6
CONTINUOUS
 10
337.4615733452
 20
256.6906781195
  0
VERTEX
  8
0
 62
7
  6
CONTINUOUS
 10
337.4378563556
 20
256.909271454
  0
VERTEX
  8
0
 62
7
  6
CONTINUOUS
 10
337.4045715555
 20
257.1273553092
  0
SEQEND
  0
POLYLINE
  8
0
 62
7
  6
CONTINUOUS
 66
1
 70
0
  0
VERTEX
  8
0
 62
7
  6
CONTINUOUS
 10
337.4805343585
 20
239.7849794739
  0
VERTEX
  8
0
 62
7
  6
CONTINUOUS
 10
337.4785350102
 20
239.9029179501
  0
VERTEX
  8
0
 62
7
  6
CONTINUOUS
 10
337.4519973765
 20
240.2282211017
  0
VERTEX
  8
0
 62
7
  6
CONTINUOUS
 10
337.3946237713
 20
240.5510649595
  0
SEQEND
  0
LINE
  8
1_AXIS
 62
9
  6
CONTINUOUS
 10
342.4805327869
 20
113.1301229508
 11
342.4805327869
 21
188.1301229508
  0
LINE
  8
0
 62
7
  6
CONTINUOUS
 10
337.4798154792
 20
61.4043002994
 11
337.4805344273
 21
61.4748595539
  0
LINE
  8
0
 62
9
  6
CONTINUOUS
 10
337.4805325719
 20
61.4736370517
 11
337.4757751102
 21
61.310464842
  0
LINE
  8
0
 62
7
  6
CONTINUOUS
 10
337.4733672268
 20
111.8250657903
 11
337.4805341455
 21
111.9960644027
  0
LINE
  8
0
 62
7
  6
CONTINUOUS
 10
337.4576823362
 20
61.0784327801
 11
337.4798154792
 21
61.4043002994
  0
POLYLINE
  8
0
 62
9
  6
CONTINUOUS
 66
1
 70
0
  0
VERTEX
  8
0
 62
9
  6
CONTINUOUS
 10
337.4757751102
 20
61.310464842
  0
VERTEX
  8
0
 62
9
  6
CONTINUOUS
 10
337.4615733452
 20
61.1470403151
  0
VERTEX
  8
0
 62
9
  6
CONTINUOUS
 10
337.4378563556
 20
60.9837140558
  0
VERTEX
  8
0
 62
9
  6
CONTINUOUS
 10
337.4045715555
 20
60.8208422233
  0
SEQEND
  0
POLYLINE
  8
0
 62
9
  6
CONTINUOUS
 66
1
 70
0
  0
VERTEX
  8
0
 62
9
  6
CONTINUOUS
 10
337.4805325719
 20
111.9954228636
  0
VERTEX
  8
0
 62
9
  6
CONTINUOUS
 10
337.4757751102
 20
111.949755461
  0
VERTEX
  8
0
 62
9
  6
CONTINUOUS
 10
337.4615733452
 20
111.9040089968
  0
VERTEX
  8
0
 62
9
  6
CONTINUOUS
 10
337.4378563556
 20
111.8583348925
  0
VERTEX
  8
0
 62
9
  6
CONTINUOUS
 10
337.4045715555
 20
111.8128865869
  0
SEQEND
  0
POLYLINE
  8
0
 62
9
  6
CONTINUOUS
 66
1
 70
0
  0
VERTEX
  8
0
 62
9
  6
CONTINUOUS
 10
335.4349560459
 20
125.4484061072
  0
VERTEX
  8
0
 62
9
  6
CONTINUOUS
 10
335.4548878658
 20
125.515586152
  0
VERTEX
  8
0
 62
9
  6
CONTINUOUS
 10
335.4691279292
 20
125.5830032742
  0
VERTEX
  8
0
 62
9
  6
CONTINUOUS
 10
335.4776762363
 20
125.6506574738
  0
VERTEX
  8
0
 62
9
  6
CONTINUOUS
 10
335.4805327869
 20
125.7185487509
  0
SEQEND
  0
LINE
  8
0
 62
9
  6
CONTINUOUS
 10
336.4384662443
 20
120.7884575705
 11
337.4045715556
 21
123.6284500118
  0
LINE
  8
0
 62
9
  6
CONTINUOUS
 10
334.4688507383
 20
122.6129134374
 11
335.4349560459
 21
125.4484061072
  0
POLYLINE
  8
0
 62
9
  6
CONTINUOUS
 66
1
 70
0
  0
VERTEX
  8
0
 62
9
  6
CONTINUOUS
 10
323.4805327869
 20
162.0320414449
  0
VERTEX
  8
0
 62
9
  6
CONTINUOUS
 10
323.1676638569
 20
162.0290942154
  0
VERTEX
  8
0
 62
9
  6
CONTINUOUS
 10
322.8624987982
 20
162.0203250978
  0
VERTEX
  8
0
 62
9
  6
CONTINUOUS
 10
322.5725517875
 20
162.0059500166
  0
VERTEX
  8
0
 62
9
  6
CONTINUOUS
 10
322.3049622825
 20
161.9863229342
  0
VERTEX
  8
0
 62
9
  6
CONTINUOUS
 10
322.0663192247
 20
161.9619271344
  0
VERTEX
  8
0
 62
9
  6
CONTINUOUS
 10
321.8624987983
 20
161.9333633228
  0
VERTEX
  8
0
 62
9
  6
CONTINUOUS
 10
321.6985197386
 20
161.9013348352
  0
VERTEX
  8
0
 62
9
  6
CONTINUOUS
 10
321.5784197544
 20
161.8666303193
  0
VERTEX
  8
0
 62
9
  6
CONTINUOUS
 10
321.5051561057
 20
161.8301043155
  0
VERTEX
  8
0
 62
9
  6
CONTINUOUS
 10
321.4805327869
 20
161.7926562151
  0
SEQEND
  0
LINE
  8
0
 62
9
  6
CONTINUOUS
 10
335.4805327869
 20
162.0320414448
 11
323.4805327869
 21
162.0320414448
  0
POLYLINE
  8
0
 62
9
  6
CONTINUOUS
 66
1
 70
0
  0
VERTEX
  8
0
 62
9
  6
CONTINUOUS
 10
335.4805327869
 20
162.0320414346
  0
VERTEX
  8
0
 62
9
  6
CONTINUOUS
 10
335.7934016037
 20
162.0290942137
  0
VERTEX
  8
0
 62
9
  6
CONTINUOUS
 10
336.0985666244
 20
162.0203251036
  0
VERTEX
  8
0
 62
9
  6
CONTINUOUS
 10
336.3885136802
 20
162.0059500237
  0
VERTEX
  8
0
 62
9
  6
CONTINUOUS
 10
336.6561032616
 20
161.9863229368
  0
VERTEX
  8
0
 62
9
  6
CONTINUOUS
 10
336.8947463895
 20
161.9619271295
  0
VERTEX
  8
0
 62
9
  6
CONTINUOUS
 10
337.0985668595
 20
161.9333633089
  0
VERTEX
  8
0
 62
9
  6
CONTINUOUS
 10
337.2625459239
 20
161.9013348144
  0
VERTEX
  8
0
 62
9
  6
CONTINUOUS
 10
337.3826458813
 20
161.8666302965
  0
VERTEX
  8
0
 62
9
  6
CONTINUOUS
 10
337.4559094887
 20
161.8301042996
  0
VERTEX
  8
0
 62
9
  6
CONTINUOUS
 10
337.4805327869
 20
161.7926562145
  0
SEQEND
  0
LINE
  8
0
 62
9
  6
CONTINUOUS
 10
335.4349560459
 20
175.8118397944
 11
334.4688507383
 21
178.6473324642
  0
LINE
  8
0
 62
9
  6
CONTINUOUS
 10
337.4045715555
 20
177.6317958901
 11
336.4384662443
 21
180.4717883311
  0
POLYLINE
  8
0
 62
7
  6
CONTINUOUS
 66
1
 70
0
  0
VERTEX
  8
0
 62
7
  6
CONTINUOUS
 10
337.4722885484
 20
189.4475483054
  0
VERTEX
  8
0
 62
7
  6
CONTINUOUS
 10
337.4109634432
 20
189.7921909847
  0
VERTEX
  8
0
 62
7
  6
CONTINUOUS
 10
337.2913570213
 20
190.121803151
  0
SEQEND
  0
LINE
  8
1_AXIS
 62
9
  6
CONTINUOUS
 10
348.6305327869
 20
113.1301229508
 11
348.6305327869
 21
188.1301229508
  0
LINE
  8
1_AXIS
 62
7
  6
CONTINUOUS
 10
350.6305327869
 20
115.1301229508
 11
350.6305327869
 21
186.1301229508
  0
LINE
  8
0
 62
9
  6
CONTINUOUS
 10
336.4086780226
 20
56.8316926428
 11
336.4384662443
 21
57.0287532446
  0
POLYLINE
  8
0
 62
9
  6
CONTINUOUS
 66
1
 70
0
  0
VERTEX
  8
0
 62
9
  6
CONTINUOUS
 10
335.4349560459
 20
44.0637742637
  0
VERTEX
  8
0
 62
9
  6
CONTINUOUS
 10
335.4548878658
 20
44.1951982629
  0
VERTEX
  8
0
 62
9
  6
CONTINUOUS
 10
335.4691279292
 20
44.3270860556
  0
VERTEX
  8
0
 62
9
  6
CONTINUOUS
 10
335.4776762363
 20
44.4594376417
  0
VERTEX
  8
0
 62
9
  6
CONTINUOUS
 10
335.4805327869
 20
44.5922530212
  0
SEQEND
  0
POLYLINE
  8
0
 62
7
  6
CONTINUOUS
 66
1
 70
0
  0
VERTEX
  8
0
 62
7
  6
CONTINUOUS
 10
337.4045715556
 20
44.132890593
  0
VERTEX
  8
0
 62
7
  6
CONTINUOUS
 10
337.4378563739
 20
44.3509745881
  0
VERTEX
  8
0
 62
7
  6
CONTINUOUS
 10
337.4615733652
 20
44.5695680122
  0
VERTEX
  8
0
 62
7
  6
CONTINUOUS
 10
337.4757751218
 20
44.7882480251
  0
VERTEX
  8
0
 62
7
  6
CONTINUOUS
 10
337.480532572
 20
45.0065987894
  0
SEQEND
  0
LINE
  8
0
 62
9
  6
CONTINUOUS
 10
337.3734120007
 20
60.6208911865
 11
337.404571558
 21
60.8208422073
  0
POLYLINE
  8
0
 62
9
  6
CONTINUOUS
 66
1
 70
0
  0
VERTEX
  8
0
 62
9
  6
CONTINUOUS
 10
335.4349560459
 20
69.2053405008
  0
VERTEX
  8
0
 62
9
  6
CONTINUOUS
 10
335.4548878658
 20
69.3280845503
  0
VERTEX
  8
0
 62
9
  6
CONTINUOUS
 10
335.4691279292
 20
69.4512617618
  0
VERTEX
  8
0
 62
9
  6
CONTINUOUS
 10
335.4776762363
 20
69.5748721353
  0
VERTEX
  8
0
 62
9
  6
CONTINUOUS
 10
335.4805327869
 20
69.6989156708
  0
SEQEND
  0
LINE
  8
0
 62
9
  6
CONTINUOUS
 10
334.4688507383
 20
38.5167135599
 11
335.4349560459
 21
44.0637742637
  0
POLYLINE
  8
0
 62
9
  6
CONTINUOUS
 66
1
 70
0
  0
VERTEX
  8
0
 62
9
  6
CONTINUOUS
 10
337.4045715556
 20
68.1232620152
  0
VERTEX
  8
0
 62
9
  6
CONTINUOUS
 10
337.4378563739
 20
68.3132573942
  0
VERTEX
  8
0
 62
9
  6
CONTINUOUS
 10
337.4615733652
 20
68.5036226575
  0
VERTEX
  8
0
 62
9
  6
CONTINUOUS
 10
337.4757751218
 20
68.6940297959
  0
VERTEX
  8
0
 62
9
  6
CONTINUOUS
 10
337.480532572
 20
68.8841565555
  0
SEQEND
  0
LINE
  8
0
 62
9
  6
CONTINUOUS
 10
334.4688507383
 20
64.0246376034
 11
335.4349560459
 21
69.2053405008
  0
LINE
  8
0
 62
9
  6
CONTINUOUS
 10
336.4384662443
 20
62.9396296985
 11
337.4045715556
 21
68.1232620165
  0
LINE
  8
0
 62
9
  6
CONTINUOUS
 10
321.6250772659
 20
68.2706905461
 11
321.5710877302
 21
68.1087431741
  0
POLYLINE
  8
0
 62
7
  6
CONTINUOUS
 66
1
 70
0
  0
VERTEX
  8
0
 62
7
  6
CONTINUOUS
 10
337.3013075719
 20
111.1602473172
  0
VERTEX
  8
0
 62
7
  6
CONTINUOUS
 10
337.4156601726
 20
111.4858840367
  0
VERTEX
  8
0
 62
7
  6
CONTINUOUS
 10
337.4733672268
 20
111.8250657903
  0
SEQEND
  0
POLYLINE
  8
0
 62
9
  6
CONTINUOUS
 66
1
 70
0
  0
VERTEX
  8
0
 62
9
  6
CONTINUOUS
 10
337.4045715556
 20
123.6284500097
  0
VERTEX
  8
0
 62
9
  6
CONTINUOUS
 10
337.4378563739
 20
123.7177849955
  0
VERTEX
  8
0
 62
9
  6
CONTINUOUS
 10
337.4615733652
 20
123.8072090378
  0
VERTEX
  8
0
 62
9
  6
CONTINUOUS
 10
337.4757751218
 20
123.8966142464
  0
VERTEX
  8
0
 62
9
  6
CONTINUOUS
 10
337.480532572
 20
123.9858950414
  0
SEQEND
  0
POLYLINE
  8
0
 62
9
  6
CONTINUOUS
 66
1
 70
0
  0
VERTEX
  8
0
 62
9
  6
CONTINUOUS
 10
335.4349560459
 20
175.8118397944
  0
VERTEX
  8
0
 62
9
  6
CONTINUOUS
 10
335.8085016279
 20
175.8749679435
  0
VERTEX
  8
0
 62
9
  6
CONTINUOUS
 10
336.1685171044
 20
175.9985457432
  0
VERTEX
  8
0
 62
9
  6
CONTINUOUS
 10
336.5019624405
 20
176.1780971114
  0
VERTEX
  8
0
 62
9
  6
CONTINUOUS
 10
336.7967599921
 20
176.4071185607
  0
VERTEX
  8
0
 62
9
  6
CONTINUOUS
 10
337.0422319672
 20
176.6773147597
  0
VERTEX
  8
0
 62
9
  6
CONTINUOUS
 10
337.2294871837
 20
176.9788989962
  0
VERTEX
  8
0
 62
9
  6
CONTINUOUS
 10
337.3517431149
 20
177.3009476592
  0
VERTEX
  8
0
 62
9
  6
CONTINUOUS
 10
337.404571558
 20
177.6317959007
  0
SEQEND
  0
POLYLINE
  8
0
 62
9
  6
CONTINUOUS
 66
1
 70
0
  0
VERTEX
  8
0
 62
9
  6
CONTINUOUS
 10
335.4805327869
 20
173.8606576689
  0
VERTEX
  8
0
 62
9
  6
CONTINUOUS
 10
335.7934017169
 20
173.8819820885
  0
VERTEX
  8
0
 62
9
  6
CONTINUOUS
 10
336.0985667755
 20
173.9454302693
  0
VERTEX
  8
0
 62
9
  6
CONTINUOUS
 10
336.3885137863
 20
174.0494399066
  0
VERTEX
  8
0
 62
9
  6
CONTINUOUS
 10
336.6561032914
 20
174.191449938
  0
VERTEX
  8
0
 62
9
  6
CONTINUOUS
 10
336.8947463492
 20
174.367963605
  0
VERTEX
  8
0
 62
9
  6
CONTINUOUS
 10
337.0985667756
 20
174.5746345555
  0
VERTEX
  8
0
 62
9
  6
CONTINUOUS
 10
337.2625458352
 20
174.8063738647
  0
VERTEX
  8
0
 62
9
  6
CONTINUOUS
 10
337.3826458194
 20
175.0574753417
  0
VERTEX
  8
0
 62
9
  6
CONTINUOUS
 10
337.4559094681
 20
175.3217560349
  0
VERTEX
  8
0
 62
9
  6
CONTINUOUS
 10
337.4805327869
 20
175.5927084765
  0
SEQEND
  0
LINE
  8
0
 62
9
  6
CONTINUOUS
 10
335.4805327869
 20
173.8606576689
 11
323.4805327869
 21
173.8606576689
  0
POLYLINE
  8
0
 62
9
  6
CONTINUOUS
 66
1
 70
0
  0
VERTEX
  8
0
 62
9
  6
CONTINUOUS
 10
323.4805327869
 20
173.8606576689
  0
VERTEX
  8
0
 62
9
  6
CONTINUOUS
 10
323.1676639709
 20
173.8819820729
  0
VERTEX
  8
0
 62
9
  6
CONTINUOUS
 10
322.862498965
 20
173.9454302224
  0
VERTEX
  8
0
 62
9
  6
CONTINUOUS
 10
322.5725519413
 20
174.0494398388
  0
VERTEX
  8
0
 62
9
  6
CONTINUOUS
 10
322.3049623864
 20
174.1914498725
  0
VERTEX
  8
0
 62
9
  6
CONTINUOUS
 10
322.0663192633
 20
174.3679635714
  0
VERTEX
  8
0
 62
9
  6
CONTINUOUS
 10
321.8624987825
 20
174.5746345742
  0
VERTEX
  8
0
 62
9
  6
CONTINUOUS
 10
321.6985196936
 20
174.8063739411
  0
VERTEX
  8
0
 62
9
  6
CONTINUOUS
 10
321.5784197126
 20
175.057475453
  0
VERTEX
  8
0
 62
9
  6
CONTINUOUS
 10
321.5051560904
 20
175.3217561186
  0
VERTEX
  8
0
 62
9
  6
CONTINUOUS
 10
321.4805327869
 20
175.5927084763
  0
SEQEND
  0
POLYLINE
  8
0
 62
9
  6
CONTINUOUS
 66
1
 70
0
  0
VERTEX
  8
0
 62
9
  6
CONTINUOUS
 10
323.5348657546
 20
175.8064058013
  0
VERTEX
  8
0
 62
9
  6
CONTINUOUS
 10
323.1633637849
 20
175.8721663232
  0
VERTEX
  8
0
 62
9
  6
CONTINUOUS
 10
322.8052442524
 20
175.9979507929
  0
VERTEX
  8
0
 62
9
  6
CONTINUOUS
 10
322.4734075196
 20
176.1792281388
  0
VERTEX
  8
0
 62
9
  6
CONTINUOUS
 10
322.1798071767
 20
176.4094682968
  0
VERTEX
  8
0
 62
9
  6
CONTINUOUS
 10
321.9350194434
 20
176.6803774398
  0
VERTEX
  8
0
 62
9
  6
CONTINUOUS
 10
321.7478621869
 20
176.9821967418
  0
VERTEX
  8
0
 62
9
  6
CONTINUOUS
 10
321.6250772803
 20
177.3040539157
  0
VERTEX
  8
0
 62
9
  6
CONTINUOUS
 10
321.5710877437
 20
177.63435486
  0
SEQEND
  0
LINE
  8
0
 62
9
  6
CONTINUOUS
 10
321.6250772803
 20
232.9895553718
 11
321.5710877437
 21
233.1515027255
  0
LINE
  8
0
 62
9
  6
CONTINUOUS
 10
335.4349560459
 20
232.0549054009
 11
334.4688507383
 21
237.2356082982
  0
LINE
  8
0
 62
9
  6
CONTINUOUS
 10
337.4045715555
 20
233.1369838856
 11
336.4384662443
 21
238.3206162031
  0
LINE
  8
0
 62
9
  6
CONTINUOUS
 10
335.4349560459
 20
257.196471638
 11
334.4688507383
 21
262.7435323417
  0
LINE
  8
0
 62
9
  6
CONTINUOUS
 10
337.3733781452
 20
240.6394562543
 11
337.4045636919
 21
240.4394025266
  0
LINE
  8
0
 62
9
  6
CONTINUOUS
 10
336.4086781668
 20
244.4285526844
 11
336.4384662443
 21
244.2314926571
  0
LINE
  8
0
 62
9
  6
CONTINUOUS
 10
336.4384662443
 20
38.5855897587
 11
337.4045715556
 21
44.1328905931
  0
LINE
  8
1_AXIS
 62
7
  6
CONTINUOUS
 10
336.4384662443
 20
38.4728265955
 11
337.4045715519
 21
43.9518820625
  0
POLYLINE
  8
0
 62
7
  6
CONTINUOUS
 66
1
 70
0
  0
VERTEX
  8
0
 62
7
  6
CONTINUOUS
 10
337.373404422
 20
60.6208931431
  0
VERTEX
  8
0
 62
7
  6
CONTINUOUS
 10
337.4046322983
 20
60.7547370566
  0
VERTEX
  8
0
 62
7
  6
CONTINUOUS
 10
337.4576823362
 20
61.0784327801
  0
SEQEND
  0
LINE
  8
0
 62
7
  6
CONTINUOUS
 10
336.4079299468
 20
56.8287281146
 11
337.3733425664
 21
60.6206178132
  0
LINE
  8
0
 62
9
  6
CONTINUOUS
 10
337.4045715555
 20
60.8208422221
 11
336.4384662443
 21
57.0287532446
  0
LINE
  8
0
 62
7
  6
CONTINUOUS
 10
337.1359254263
 20
110.86152684
 11
337.3013075719
 21
111.1602473172
  0
POLYLINE
  8
0
 62
9
  6
CONTINUOUS
 66
1
 70
0
  0
VERTEX
  8
0
 62
9
  6
CONTINUOUS
 10
335.8321629952
 20
109.8853419123
  0
VERTEX
  8
0
 62
9
  6
CONTINUOUS
 10
336.0774755194
 20
110.1678143086
  0
VERTEX
  8
0
 62
9
  6
CONTINUOUS
 10
336.2645944465
 20
110.493504216
  0
VERTEX
  8
0
 62
9
  6
CONTINUOUS
 10
336.3875359185
 20
110.8520137383
  0
VERTEX
  8
0
 62
9
  6
CONTINUOUS
 10
336.4384662443
 20
111.2244585648
  0
SEQEND
  0
POLYLINE
  8
0
 62
9
  6
CONTINUOUS
 66
1
 70
0
  0
VERTEX
  8
0
 62
9
  6
CONTINUOUS
 10
334.4688507322
 20
178.647332484
  0
VERTEX
  8
0
 62
9
  6
CONTINUOUS
 10
334.8440255391
 20
178.7133949689
  0
VERTEX
  8
0
 62
9
  6
CONTINUOUS
 10
335.2034058459
 20
178.8347236188
  0
VERTEX
  8
0
 62
9
  6
CONTINUOUS
 10
335.5361075523
 20
179.0142944173
  0
VERTEX
  8
0
 62
9
  6
CONTINUOUS
 10
335.8321629952
 20
179.244538264
  0
VERTEX
  8
0
 62
9
  6
CONTINUOUS
 10
336.0774755194
 20
179.5151142792
  0
VERTEX
  8
0
 62
9
  6
CONTINUOUS
 10
336.2645944465
 20
179.8177393448
  0
VERTEX
  8
0
 62
9
  6
CONTINUOUS
 10
336.3875359185
 20
180.1394113512
  0
VERTEX
  8
0
 62
9
  6
CONTINUOUS
 10
336.4384662443
 20
180.4717883311
  0
SEQEND
  0
POLYLINE
  8
0
 62
9
  6
CONTINUOUS
 66
1
 70
0
  0
VERTEX
  8
0
 62
9
  6
CONTINUOUS
 10
335.4805327869
 20
175.5416971508
  0
VERTEX
  8
0
 62
9
  6
CONTINUOUS
 10
335.870713591
 20
175.5749780546
  0
VERTEX
  8
0
 62
9
  6
CONTINUOUS
 10
336.2458999056
 20
175.6735417687
  0
VERTEX
  8
0
 62
9
  6
CONTINUOUS
 10
336.5916735299
 20
175.8336005174
  0
VERTEX
  8
0
 62
9
  6
CONTINUOUS
 10
336.894746592
 20
176.0490033103
  0
VERTEX
  8
0
 62
9
  6
CONTINUOUS
 10
337.1434721822
 20
176.311472321
  0
VERTEX
  8
0
 62
9
  6
CONTINUOUS
 10
337.3282919412
 20
176.6109210066
  0
VERTEX
  8
0
 62
9
  6
CONTINUOUS
 10
337.4421033735
 20
176.9358417263
  0
VERTEX
  8
0
 62
9
  6
CONTINUOUS
 10
337.4805327869
 20
177.2737479583
  0
SEQEND
  0
POLYLINE
  8
0
 62
9
  6
CONTINUOUS
 66
1
 70
0
  0
VERTEX
  8
0
 62
9
  6
CONTINUOUS
 10
324.5940804858
 20
180.9115227028
  0
VERTEX
  8
0
 62
9
  6
CONTINUOUS
 10
324.2501442263
 20
180.9018435877
  0
VERTEX
  8
0
 62
9
  6
CONTINUOUS
 10
323.9222410712
 20
180.8806005044
  0
VERTEX
  8
0
 62
9
  6
CONTINUOUS
 10
323.6097382386
 20
180.8417625719
  0
VERTEX
  8
0
 62
9
  6
CONTINUOUS
 10
323.3234918482
 20
180.7903387248
  0
VERTEX
  8
0
 62
9
  6
CONTINUOUS
 10
323.0771802236
 20
180.7261400778
  0
VERTEX
  8
0
 62
9
  6
CONTINUOUS
 10
322.875223642
 20
180.6514428434
  0
VERTEX
  8
0
 62
9
  6
CONTINUOUS
 10
322.7245775614
 20
180.5720799197
  0
VERTEX
  8
0
 62
9
  6
CONTINUOUS
 10
322.6303024685
 20
180.4802008525
  0
SEQEND
  0
LINE
  8
0
 62
9
  6
CONTINUOUS
 10
334.4688507383
 20
178.6473324642
 11
324.59408049
 21
178.6473324642
  0
LINE
  8
0
 62
9
  6
CONTINUOUS
 10
324.59408049
 20
180.9115228002
 11
334.4688507383
 21
180.9115227999
  0
POLYLINE
  8
0
 62
9
  6
CONTINUOUS
 66
1
 70
0
  0
VERTEX
  8
0
 62
9
  6
CONTINUOUS
 10
334.4688507383
 20
180.9115227999
  0
VERTEX
  8
0
 62
9
  6
CONTINUOUS
 10
334.8127871814
 20
180.90359525
  0
VERTEX
  8
0
 62
9
  6
CONTINUOUS
 10
335.148055101
 20
180.8798973047
  0
VERTEX
  8
0
 62
9
  6
CONTINUOUS
 10
335.4647140104
 20
180.8408633368
  0
VERTEX
  8
0
 62
9
  6
CONTINUOUS
 10
335.7516865075
 20
180.7876362985
  0
VERTEX
  8
0
 62
9
  6
CONTINUOUS
 10
335.9991001238
 20
180.7220184076
  0
VERTEX
  8
0
 62
9
  6
CONTINUOUS
 10
336.1998599297
 20
180.6459324846
  0
VERTEX
  8
0
 62
9
  6
CONTINUOUS
 10
336.3478545615
 20
180.5616642927
  0
VERTEX
  8
0
 62
9
  6
CONTINUOUS
 10
336.4384662443
 20
180.4717883311
  0
SEQEND
  0
POLYLINE
  8
0
 62
9
  6
CONTINUOUS
 66
1
 70
0
  0
VERTEX
  8
0
 62
9
  6
CONTINUOUS
 10
323.4805327869
 20
175.5116622709
  0
VERTEX
  8
0
 62
9
  6
CONTINUOUS
 10
323.0903521429
 20
175.5449431415
  0
VERTEX
  8
0
 62
9
  6
CONTINUOUS
 10
322.7151659222
 20
175.6435067881
  0
VERTEX
  8
0
 62
9
  6
CONTINUOUS
 10
322.3693923208
 20
175.803565465
  0
VERTEX
  8
0
 62
9
  6
CONTINUOUS
 10
322.0663192245
 20
176.0189682071
  0
VERTEX
  8
0
 62
9
  6
CONTINUOUS
 10
321.8175935623
 20
176.2814372077
  0
VERTEX
  8
0
 62
9
  6
CONTINUOUS
 10
321.6327737219
 20
176.5808859304
  0
VERTEX
  8
0
 62
9
  6
CONTINUOUS
 10
321.5189622261
 20
176.9058067287
  0
VERTEX
  8
0
 62
9
  6
CONTINUOUS
 10
321.4805327869
 20
177.2437130784
  0
SEQEND
  0
POLYLINE
  8
0
 62
9
  6
CONTINUOUS
 66
1
 70
0
  0
VERTEX
  8
0
 62
9
  6
CONTINUOUS
 10
324.5940804961
 20
178.6473324822
  0
VERTEX
  8
0
 62
9
  6
CONTINUOUS
 10
324.2212464604
 20
178.7160400654
  0
VERTEX
  8
0
 62
9
  6
CONTINUOUS
 10
323.8634226705
 20
178.8396145447
  0
VERTEX
  8
0
 62
9
  6
CONTINUOUS
 10
323.5322417369
 20
179.0209571011
  0
VERTEX
  8
0
 62
9
  6
CONTINUOUS
 10
323.2374314819
 20
179.2524682652
  0
VERTEX
  8
0
 62
9
  6
CONTINUOUS
 10
322.9927734773
 20
179.5238386256
  0
VERTEX
  8
0
 62
9
  6
CONTINUOUS
 10
322.8057800804
 20
179.8267524083
  0
VERTEX
  8
0
 62
9
  6
CONTINUOUS
 10
322.6822653118
 20
180.1483294008
  0
VERTEX
  8
0
 62
9
  6
CONTINUOUS
 10
322.6303024685
 20
180.4802008525
  0
SEQEND
  0
POLYLINE
  8
0
 62
9
  6
CONTINUOUS
 66
1
 70
0
  0
VERTEX
  8
0
 62
9
  6
CONTINUOUS
 10
335.832122354
 20
191.3749425155
  0
VERTEX
  8
0
 62
9
  6
CONTINUOUS
 10
336.0774456624
 20
191.0924735037
  0
VERTEX
  8
0
 62
9
  6
CONTINUOUS
 10
336.2645781714
 20
190.7667776348
  0
VERTEX
  8
0
 62
9
  6
CONTINUOUS
 10
336.3875307976
 20
190.4082540294
  0
VERTEX
  8
0
 62
9
  6
CONTINUOUS
 10
336.4384662443
 20
190.0357873369
  0
SEQEND
  0
POLYLINE
  8
0
 62
7
  6
CONTINUOUS
 66
1
 70
0
  0
VERTEX
  8
0
 62
7
  6
CONTINUOUS
 10
337.1197704888
 20
190.4225478276
  0
VERTEX
  8
0
 62
7
  6
CONTINUOUS
 10
336.9093349444
 20
190.6810106171
  0
VERTEX
  8
0
 62
7
  6
CONTINUOUS
 10
336.6749288071
 20
190.8918054855
  0
VERTEX
  8
0
 62
7
  6
CONTINUOUS
 10
336.4829513972
 20
191.024422913
  0
SEQEND
  0
POLYLINE
  8
0
 62
9
  6
CONTINUOUS
 66
1
 70
0
  0
VERTEX
  8
0
 62
9
  6
CONTINUOUS
 10
337.4045715556
 20
189.4473593147
  0
VERTEX
  8
0
 62
9
  6
CONTINUOUS
 10
337.4378563739
 20
189.401910979
  0
VERTEX
  8
0
 62
9
  6
CONTINUOUS
 10
337.4615733652
 20
189.3562368555
  0
VERTEX
  8
0
 62
9
  6
CONTINUOUS
 10
337.4757751218
 20
189.3104903835
  0
VERTEX
  8
0
 62
9
  6
CONTINUOUS
 10
337.480532572
 20
189.2648229847
  0
SEQEND
  0
LINE
  8
0
 62
7
  6
CONTINUOUS
 10
337.2913570213
 20
190.121803151
 11
337.1197704888
 21
190.4225478276
  0
LINE
  8
0
 62
9
  6
CONTINUOUS
 10
336.4384662443
 20
244.2314926571
 11
337.4045715556
 21
240.4394036791
  0
LINE
  8
0
 62
7
  6
CONTINUOUS
 10
337.3733425581
 20
240.6396281218
 11
336.4068145036
 21
244.4359184926
  0
LINE
  8
0
 62
7
  6
CONTINUOUS
 10
337.3946237713
 20
240.5510649595
 11
337.3733781452
 21
240.6394562543
  0
POLYLINE
  8
0
 62
9
  6
CONTINUOUS
 66
1
 70
0
  0
VERTEX
  8
0
 62
9
  6
CONTINUOUS
 10
337.4045715556
 20
240.439403678
  0
VERTEX
  8
0
 62
9
  6
CONTINUOUS
 10
337.4378563739
 20
240.2765317404
  0
VERTEX
  8
0
 62
9
  6
CONTINUOUS
 10
337.4615733652
 20
240.1132054139
  0
VERTEX
  8
0
 62
9
  6
CONTINUOUS
 10
337.4757751218
 20
239.9497808587
  0
VERTEX
  8
0
 62
9
  6
CONTINUOUS
 10
337.480532572
 20
239.7866086602
  0
SEQEND
  0
LINE
  8
1_AXIS
 62
7
  6
CONTINUOUS
 10
336.4384662443
 20
262.7874193062
 11
337.4045715519
 21
257.3083638392
  0
LINE
  8
0
 62
9
  6
CONTINUOUS
 10
337.4045715555
 20
257.1273553091
 11
336.4384662443
 21
262.674656143
  0
POLYLINE
  8
0
 62
7
  6
CONTINUOUS
 66
1
 70
0
  0
VERTEX
  8
0
 62
7
  6
CONTINUOUS
 10
336.4086780226
 20
56.8316926428
  0
VERTEX
  8
0
 62
7
  6
CONTINUOUS
 10
336.3686344475
 20
56.6934336116
  0
VERTEX
  8
0
 62
7
  6
CONTINUOUS
 10
336.2270033088
 20
56.3652287315
  0
SEQEND
  0
LINE
  8
0
 62
9
  6
CONTINUOUS
 10
336.3478545357
 20
56.7468482382
 11
336.4384662445
 21
57.0287532453
  0
LINE
  8
0
 62
9
  6
CONTINUOUS
 10
335.5169553382
 20
109.6431067149
 11
335.8321629952
 21
109.8853419123
  0
POLYLINE
  8
0
 62
9
  6
CONTINUOUS
 66
1
 70
0
  0
VERTEX
  8
0
 62
9
  6
CONTINUOUS
 10
336.4823115122
 20
110.2354251427
  0
VERTEX
  8
0
 62
9
  6
CONTINUOUS
 10
336.7967599921
 20
110.4766472814
  0
VERTEX
  8
0
 62
9
  6
CONTINUOUS
 10
337.0422319672
 20
110.7586031175
  0
VERTEX
  8
0
 62
9
  6
CONTINUOUS
 10
337.2294871837
 20
111.0833231747
  0
VERTEX
  8
0
 62
9
  6
CONTINUOUS
 10
337.3517431149
 20
111.4390458451
  0
VERTEX
  8
0
 62
9
  6
CONTINUOUS
 10
337.404571558
 20
111.8128865823
  0
SEQEND
  0
POLYLINE
  8
0
 62
7
  6
CONTINUOUS
 66
1
 70
0
  0
VERTEX
  8
0
 62
7
  6
CONTINUOUS
 10
336.4823095728
 20
110.2354282788
  0
VERTEX
  8
0
 62
7
  6
CONTINUOUS
 10
336.7024877102
 20
110.3901122111
  0
VERTEX
  8
0
 62
7
  6
CONTINUOUS
 10
336.9316548328
 20
110.602920146
  0
VERTEX
  8
0
 62
7
  6
CONTINUOUS
 10
337.1359254263
 20
110.86152684
  0
SEQEND
  0
LINE
  8
0
 62
7
  6
CONTINUOUS
 10
335.5124195541
 20
109.6403238953
 11
336.4823113349
 21
110.2354250337
  0
LINE
  8
0
 62
9
  6
CONTINUOUS
 10
337.4045715555
 20
111.8128865849
 11
336.4384662443
 21
111.2244585648
  0
POLYLINE
  8
0
 62
7
  6
CONTINUOUS
 66
1
 70
0
  0
VERTEX
  8
0
 62
7
  6
CONTINUOUS
 10
335.5169553382
 20
109.6431067149
  0
VERTEX
  8
0
 62
7
  6
CONTINUOUS
 10
335.4721858442
 20
109.6163578084
  0
VERTEX
  8
0
 62
7
  6
CONTINUOUS
 10
335.1533628915
 20
109.4672652277
  0
VERTEX
  8
0
 62
7
  6
CONTINUOUS
 10
334.8180616231
 20
109.3772020495
  0
VERTEX
  8
0
 62
7
  6
CONTINUOUS
 10
334.4688507383
 20
109.3464786568
  0
SEQEND
  0
LINE
  8
0
 62
7
  6
CONTINUOUS
 10
337.4805327869
 20
187.3125670293
 11
337.7805327869
 21
187.3125670293
  0
LINE
  8
0
 62
7
  6
CONTINUOUS
 10
337.4805327869
 20
187.6804273937
 11
337.7805327869
 21
187.6804273937
  0
LINE
  8
1_AXIS
 62
7
  6
CONTINUOUS
 10
310.3305327869
 20
188.1301229508
 11
316.4805327869
 21
188.1301229508
  0
LINE
  8
1_AXIS
 62
7
  6
CONTINUOUS
 10
342.4805327869
 20
188.1301229508
 11
348.6305327869
 21
188.1301229508
  0
LINE
  8
0
 62
7
  6
CONTINUOUS
 10
337.4805327869
 20
190.0364015181
 11
337.7805327869
 21
190.0364015181
  0
POLYLINE
  8
0
 62
7
  6
CONTINUOUS
 66
1
 70
0
  0
VERTEX
  8
0
 62
7
  6
CONTINUOUS
 10
335.5169520772
 20
191.6171411933
  0
VERTEX
  8
0
 62
7
  6
CONTINUOUS
 10
335.4721858425
 20
191.6438880943
  0
VERTEX
  8
0
 62
7
  6
CONTINUOUS
 10
335.1533628896
 20
191.7929806747
  0
VERTEX
  8
0
 62
7
  6
CONTINUOUS
 10
334.8180616212
 20
191.8830438525
  0
VERTEX
  8
0
 62
7
  6
CONTINUOUS
 10
334.4688507383
 20
191.9137672449
  0
SEQEND
  0
LINE
  8
0
 62
9
  6
CONTINUOUS
 10
336.4384662443
 20
190.0357873369
 11
337.4045715556
 21
189.4473593167
  0
LINE
  8
0
 62
7
  6
CONTINUOUS
 10
336.4823113152
 20
191.0248208801
 11
335.5134830138
 21
191.6192711048
  0
POLYLINE
  8
0
 62
9
  6
CONTINUOUS
 66
1
 70
0
  0
VERTEX
  8
0
 62
9
  6
CONTINUOUS
 10
336.4829513972
 20
191.024422913
  0
VERTEX
  8
0
 62
9
  6
CONTINUOUS
 10
336.7967549452
 20
190.7835964488
  0
VERTEX
  8
0
 62
9
  6
CONTINUOUS
 10
337.0422258279
 20
190.5016407587
  0
VERTEX
  8
0
 62
9
  6
CONTINUOUS
 10
337.2294801766
 20
190.176921066
  0
VERTEX
  8
0
 62
9
  6
CONTINUOUS
 10
337.35173552
 20
189.821198924
  0
VERTEX
  8
0
 62
9
  6
CONTINUOUS
 10
337.4045636919
 20
189.4473588146
  0
SEQEND
  0
LINE
  8
0
 62
9
  6
CONTINUOUS
 10
335.5169520772
 20
191.6171411933
 11
335.832122354
 21
191.3749425155
  0
LINE
  8
0
 62
7
  6
CONTINUOUS
 10
337.8221635853
 20
207.636477262
 11
338.9805327869
 21
205.6301229508
  0
LINE
  8
0
 62
9
  6
CONTINUOUS
 10
336.3481631483
 20
244.5105379185
 11
336.4384662443
 21
244.2314926571
  0
POLYLINE
  8
0
 62
7
  6
CONTINUOUS
 66
1
 70
0
  0
VERTEX
  8
0
 62
7
  6
CONTINUOUS
 10
336.4086781668
 20
244.4285526844
  0
VERTEX
  8
0
 62
7
  6
CONTINUOUS
 10
336.3686344472
 20
244.5668122908
  0
VERTEX
  8
0
 62
7
  6
CONTINUOUS
 10
336.2270033084
 20
244.8950171708
  0
SEQEND
  0
POLYLINE
  8
0
 62
9
  6
CONTINUOUS
 66
1
 70
0
  0
VERTEX
  8
0
 62
9
  6
CONTINUOUS
 10
323.4805327869
 20
196.9956706257
  0
VERTEX
  8
0
 62
9
  6
CONTINUOUS
 10
323.1676639547
 20
196.9836858113
  0
VERTEX
  8
0
 62
9
  6
CONTINUOUS
 10
322.8624989288
 20
196.9480264765
  0
VERTEX
  8
0
 62
9
  6
CONTINUOUS
 10
322.5725518792
 20
196.8895706567
  0
VERTEX
  8
0
 62
9
  6
CONTINUOUS
 10
322.3049623082
 20
196.809757722
  0
VERTEX
  8
0
 62
9
  6
CONTINUOUS
 10
322.0663191898
 20
196.7105529333
  0
VERTEX
  8
0
 62
9
  6
CONTINUOUS
 10
321.8624987257
 20
196.5943990483
  0
VERTEX
  8
0
 62
9
  6
CONTINUOUS
 10
321.6985196619
 20
196.464156173
  0
VERTEX
  8
0
 62
9
  6
CONTINUOUS
 10
321.5784197008
 20
196.3230313294
  0
VERTEX
  8
0
 62
9
  6
CONTINUOUS
 10
321.5051560878
 20
196.1744994938
  0
VERTEX
  8
0
 62
9
  6
CONTINUOUS
 10
321.4805327869
 20
196.0222180115
  0
SEQEND
  0
POLYLINE
  8
0
 62
9
  6
CONTINUOUS
 66
1
 70
0
  0
VERTEX
  8
0
 62
9
  6
CONTINUOUS
 10
324.59408049
 20
190.6164529491
  0
VERTEX
  8
0
 62
9
  6
CONTINUOUS
 10
324.2539627781
 20
190.6062175639
  0
VERTEX
  8
0
 62
9
  6
CONTINUOUS
 10
323.9222357388
 20
190.5756196536
  0
VERTEX
  8
0
 62
9
  6
CONTINUOUS
 10
323.6085074336
 20
190.525209378
  0
VERTEX
  8
0
 62
9
  6
CONTINUOUS
 10
323.3234898123
 20
190.4564298239
  0
VERTEX
  8
0
 62
9
  6
CONTINUOUS
 10
323.0767578354
 20
190.3715565947
  0
VERTEX
  8
0
 62
9
  6
CONTINUOUS
 10
322.8752246237
 20
190.2730201665
  0
VERTEX
  8
0
 62
9
  6
CONTINUOUS
 10
322.7248799685
 20
190.1637124142
  0
VERTEX
  8
0
 62
9
  6
CONTINUOUS
 10
322.6303024685
 20
190.0468959995
  0
SEQEND
  0
LINE
  8
0
 62
7
  6
CONTINUOUS
 10
337.4805327869
 20
190.4059295928
 11
337.7805327869
 21
190.4059295928
  0
LINE
  8
0
 62
9
  6
CONTINUOUS
 10
324.59408049
 20
190.6164529491
 11
334.4688507383
 21
190.6164529491
  0
LINE
  8
0
 62
7
  6
CONTINUOUS
 10
337.4805327869
 20
191.0011771272
 11
337.7805327869
 21
191.0011771272
  0
LINE
  8
0
 62
7
  6
CONTINUOUS
 10
337.4805327869
 20
191.4492805231
 11
337.7805327869
 21
191.4492805231
  0
LINE
  8
0
 62
7
  6
CONTINUOUS
 10
324.59408049
 20
191.9137672449
 11
334.4688507383
 21
191.9137672449
  0
LINE
  8
0
 62
7
  6
CONTINUOUS
 10
337.4805327869
 20
192.049531323
 11
337.7805327869
 21
192.049531323
  0
LINE
  8
0
 62
7
  6
CONTINUOUS
 10
337.4805327869
 20
192.3504906475
 11
337.7805327869
 21
192.3504906475
  0
LINE
  8
0
 62
7
  6
CONTINUOUS
 10
337.4805327869
 20
192.728357518
 11
337.7805327869
 21
192.728357518
  0
LINE
  8
0
 62
7
  6
CONTINUOUS
 10
337.4805327869
 20
192.8821726098
 11
337.7805327869
 21
192.8821726098
  0
LINE
  8
0
 62
7
  6
CONTINUOUS
 10
337.4805327869
 20
193.947862155
 11
337.7805327869
 21
193.947862155
  0
LINE
  8
0
 62
7
  6
CONTINUOUS
 10
337.4805327869
 20
194.3464258117
 11
337.7805327869
 21
194.3464258117
  0
LINE
  8
0
 62
7
  6
CONTINUOUS
 10
337.4805327869
 20
196.829791769
 11
337.7805327869
 21
196.829791769
  0
LINE
  8
0
 62
9
  6
CONTINUOUS
 10
335.4805327869
 20
196.9956706176
 11
323.4805327869
 21
196.9956706176
  0
LINE
  8
0
 62
7
  6
CONTINUOUS
 10
337.4805327869
 20
197.2708708703
 11
337.7805327869
 21
197.2708708703
  0
LINE
  8
0
 62
7
  6
CONTINUOUS
 10
337.4805327869
 20
197.7135099406
 11
337.7805327869
 21
197.7135099406
  0
POLYLINE
  8
0
 62
9
  6
CONTINUOUS
 66
1
 70
0
  0
VERTEX
  8
0
 62
9
  6
CONTINUOUS
 10
334.4688507434
 20
190.6164530276
  0
VERTEX
  8
0
 62
9
  6
CONTINUOUS
 10
334.8166998888
 20
190.6075152676
  0
VERTEX
  8
0
 62
9
  6
CONTINUOUS
 10
335.1480488917
 20
190.5746925402
  0
VERTEX
  8
0
 62
9
  6
CONTINUOUS
 10
335.4634393559
 20
190.524255113
  0
VERTEX
  8
0
 62
9
  6
CONTINUOUS
 10
335.7516841297
 20
190.45286258
  0
VERTEX
  8
0
 62
9
  6
CONTINUOUS
 10
335.9986760101
 20
190.3664363006
  0
VERTEX
  8
0
 62
9
  6
CONTINUOUS
 10
336.1998610563
 20
190.265742521
  0
VERTEX
  8
0
 62
9
  6
CONTINUOUS
 10
336.3481631483
 20
190.1505234354
  0
VERTEX
  8
0
 62
9
  6
CONTINUOUS
 10
336.4384662443
 20
190.0357873369
  0
SEQEND
  0
POLYLINE
  8
0
 62
9
  6
CONTINUOUS
 66
1
 70
0
  0
VERTEX
  8
0
 62
9
  6
CONTINUOUS
 10
335.4805327869
 20
196.9956706176
  0
VERTEX
  8
0
 62
9
  6
CONTINUOUS
 10
335.793401717
 20
196.9836858006
  0
VERTEX
  8
0
 62
9
  6
CONTINUOUS
 10
336.0985667756
 20
196.9480264558
  0
VERTEX
  8
0
 62
9
  6
CONTINUOUS
 10
336.3885137863
 20
196.8895706344
  0
VERTEX
  8
0
 62
9
  6
CONTINUOUS
 10
336.6561032914
 20
196.8097577129
  0
VERTEX
  8
0
 62
9
  6
CONTINUOUS
 10
336.8947463492
 20
196.7105529502
  0
VERTEX
  8
0
 62
9
  6
CONTINUOUS
 10
337.0985667755
 20
196.5943990969
  0
VERTEX
  8
0
 62
9
  6
CONTINUOUS
 10
337.2625458352
 20
196.4641562463
  0
VERTEX
  8
0
 62
9
  6
CONTINUOUS
 10
337.3826458194
 20
196.3230314095
  0
VERTEX
  8
0
 62
9
  6
CONTINUOUS
 10
337.4559094681
 20
196.1744995486
  0
VERTEX
  8
0
 62
9
  6
CONTINUOUS
 10
337.4805327869
 20
196.0222180107
  0
SEQEND
  0
LINE
  8
0
 62
9
  6
CONTINUOUS
 10
337.4421033477
 20
44.9269532854
 11
337.4805327869
 21
45.0080764028
  0
LINE
  8
0
 62
7
  6
CONTINUOUS
 10
337.4805327869
 20
198.2806412861
 11
337.7805327869
 21
198.2806412861
  0
LINE
  8
0
 62
7
  6
CONTINUOUS
 10
337.4805327869
 20
198.7394186277
 11
337.7805327869
 21
198.7394186277
  0
LINE
  8
0
 62
7
  6
CONTINUOUS
 10
337.4805327869
 20
199.0275956497
 11
337.7805327869
 21
199.0275956497
  0
LINE
  8
0
 62
7
  6
CONTINUOUS
 10
337.4805327869
 20
199.0829263926
 11
337.7805327869
 21
199.0829263926
  0
LINE
  8
0
 62
7
  6
CONTINUOUS
 10
337.4805327869
 20
199.356365699
 11
337.7805327869
 21
199.356365699
  0
LINE
  8
0
 62
7
  6
CONTINUOUS
 10
337.4805327869
 20
199.6823310642
 11
337.7805327869
 21
199.6823310642
  0
LINE
  8
0
 62
7
  6
CONTINUOUS
 10
337.4805327869
 20
200.1536688903
 11
337.7805327869
 21
200.1536688903
  0
LINE
  8
0
 62
7
  6
CONTINUOUS
 10
337.4805327869
 20
200.5897895531
 11
337.7805327869
 21
200.5897895531
  0
LINE
  8
0
 62
7
  6
CONTINUOUS
 10
337.4805327869
 20
201.1360663967
 11
337.7805327869
 21
201.1360663967
  0
LINE
  8
0
 62
7
  6
CONTINUOUS
 10
337.4805327869
 20
201.5568298777
 11
337.7805327869
 21
201.5568298777
  0
LINE
  8
0
 62
7
  6
CONTINUOUS
 10
337.4805327869
 20
201.797002221
 11
337.7805327869
 21
201.797002221
  0
LINE
  8
0
 62
7
  6
CONTINUOUS
 10
337.4805327869
 20
202.7698634401
 11
337.7805327869
 21
202.7698634401
  0
LINE
  8
0
 62
7
  6
CONTINUOUS
 10
337.4805327869
 20
203.5858301841
 11
337.7805327869
 21
203.5858301841
  0
LINE
  8
0
 62
9
  6
CONTINUOUS
 10
337.4421033735
 20
256.3332926003
 11
337.4805327869
 21
256.2521694988
  0
POLYLINE
  8
0
 62
7
  6
CONTINUOUS
 66
1
 70
0
  0
VERTEX
  8
0
 62
7
  6
CONTINUOUS
 10
336.2270033088
 20
56.3652287315
  0
VERTEX
  8
0
 62
7
  6
CONTINUOUS
 10
336.0291672729
 20
56.0674265781
  0
VERTEX
  8
0
 62
7
  6
CONTINUOUS
 10
335.7814717533
 20
55.8096091606
  0
VERTEX
  8
0
 62
7
  6
CONTINUOUS
 10
335.4918116144
 20
55.6000011185
  0
VERTEX
  8
0
 62
7
  6
CONTINUOUS
 10
335.169501595
 20
55.4453348706
  0
SEQEND
  0
LINE
  8
0
 62
7
  6
CONTINUOUS
 10
337.4805327869
 20
207.0536890421
 11
337.7805327869
 21
207.0536890421
  0
LINE
  8
0
 62
7
  6
CONTINUOUS
 10
337.4805327869
 20
207.5636682124
 11
337.7805327869
 21
207.5636682124
  0
LINE
  8
0
 62
7
  6
CONTINUOUS
 10
337.4805327869
 20
208.7478922245
 11
337.7805327869
 21
208.7478922245
  0
LINE
  8
0
 62
7
  6
CONTINUOUS
 10
337.4805327869
 20
209.1338936608
 11
337.7805327869
 21
209.1338936608
  0
LINE
  8
0
 62
7
  6
CONTINUOUS
 10
337.4805327869
 20
209.2725992392
 11
337.7805327869
 21
209.2725992392
  0
LINE
  8
0
 62
7
  6
CONTINUOUS
 10
337.4805327869
 20
209.6264932717
 11
337.7805327869
 21
209.6264932717
  0
LINE
  8
0
 62
7
  6
CONTINUOUS
 10
337.4805327869
 20
209.8330022101
 11
337.7805327869
 21
209.8330022101
  0
LINE
  8
0
 62
7
  6
CONTINUOUS
 10
337.4805327869
 20
210.5106458068
 11
337.7805327869
 21
210.5106458068
  0
POLYLINE
  8
0
 62
7
  6
CONTINUOUS
 66
1
 70
0
  0
VERTEX
  8
0
 62
7
  6
CONTINUOUS
 10
336.2270033084
 20
244.8950171708
  0
VERTEX
  8
0
 62
7
  6
CONTINUOUS
 10
336.0291672724
 20
245.1928193241
  0
VERTEX
  8
0
 62
7
  6
CONTINUOUS
 10
335.7814717527
 20
245.4506367415
  0
VERTEX
  8
0
 62
7
  6
CONTINUOUS
 10
335.4918116138
 20
245.6602447835
  0
VERTEX
  8
0
 62
7
  6
CONTINUOUS
 10
335.1695015944
 20
245.8149110313
  0
SEQEND
  0
POLYLINE
  8
0
 62
9
  6
CONTINUOUS
 66
1
 70
0
  0
VERTEX
  8
0
 62
9
  6
CONTINUOUS
 10
335.9991000038
 20
56.2438814502
  0
VERTEX
  8
0
 62
9
  6
CONTINUOUS
 10
336.1998598615
 20
56.4825325825
  0
VERTEX
  8
0
 62
9
  6
CONTINUOUS
 10
336.3478545357
 20
56.7468482382
  0
SEQEND
  0
POLYLINE
  8
0
 62
9
  6
CONTINUOUS
 66
1
 70
0
  0
VERTEX
  8
0
 62
9
  6
CONTINUOUS
 10
323.4805327869
 20
215.4443622779
  0
VERTEX
  8
0
 62
9
  6
CONTINUOUS
 10
323.1676638569
 20
215.4276087436
  0
VERTEX
  8
0
 62
9
  6
CONTINUOUS
 10
322.8624987982
 20
215.3777606683
  0
VERTEX
  8
0
 62
9
  6
CONTINUOUS
 10
322.5725517875
 20
215.296045477
  0
VERTEX
  8
0
 62
9
  6
CONTINUOUS
 10
322.3049622825
 20
215.1844752691
  0
VERTEX
  8
0
 62
9
  6
CONTINUOUS
 10
322.0663192247
 20
215.0457972731
  0
VERTEX
  8
0
 62
9
  6
CONTINUOUS
 10
321.8624987983
 20
214.8834262018
  0
VERTEX
  8
0
 62
9
  6
CONTINUOUS
 10
321.6985197386
 20
214.7013601696
  0
VERTEX
  8
0
 62
9
  6
CONTINUOUS
 10
321.5784197544
 20
214.5040822466
  0
VERTEX
  8
0
 62
9
  6
CONTINUOUS
 10
321.5051561057
 20
214.2964500699
  0
VERTEX
  8
0
 62
9
  6
CONTINUOUS
 10
321.4805327869
 20
214.0835762328
  0
SEQEND
  0
LINE
  8
0
 62
9
  6
CONTINUOUS
 10
335.4805327869
 20
215.4443622779
 11
323.4805327869
 21
215.4443622779
  0
POLYLINE
  8
0
 62
9
  6
CONTINUOUS
 66
1
 70
0
  0
VERTEX
  8
0
 62
9
  6
CONTINUOUS
 10
335.4805327869
 20
215.4443622703
  0
VERTEX
  8
0
 62
9
  6
CONTINUOUS
 10
335.7934016037
 20
215.4276087529
  0
VERTEX
  8
0
 62
9
  6
CONTINUOUS
 10
336.0985666243
 20
215.3777607017
  0
VERTEX
  8
0
 62
9
  6
CONTINUOUS
 10
336.3885136802
 20
215.2960455143
  0
VERTEX
  8
0
 62
9
  6
CONTINUOUS
 10
336.6561032616
 20
215.1844752838
  0
VERTEX
  8
0
 62
9
  6
CONTINUOUS
 10
336.8947463895
 20
215.0457972456
  0
VERTEX
  8
0
 62
9
  6
CONTINUOUS
 10
337.0985668596
 20
214.883426123
  0
VERTEX
  8
0
 62
9
  6
CONTINUOUS
 10
337.2625459239
 20
214.7013600511
  0
VERTEX
  8
0
 62
9
  6
CONTINUOUS
 10
337.3826458814
 20
214.5040821169
  0
VERTEX
  8
0
 62
9
  6
CONTINUOUS
 10
337.4559094887
 20
214.2964499808
  0
VERTEX
  8
0
 62
9
  6
CONTINUOUS
 10
337.4805327869
 20
214.0835762327
  0
SEQEND
  0
POLYLINE
  8
0
 62
9
  6
CONTINUOUS
 66
1
 70
0
  0
VERTEX
  8
0
 62
9
  6
CONTINUOUS
 10
335.9986760101
 20
245.0168114269
  0
VERTEX
  8
0
 62
9
  6
CONTINUOUS
 10
336.1998610563
 20
244.7777115963
  0
VERTEX
  8
0
 62
9
  6
CONTINUOUS
 10
336.3481631483
 20
244.5105379185
  0
SEQEND
  0
POLYLINE
  8
0
 62
9
  6
CONTINUOUS
 66
1
 70
0
  0
VERTEX
  8
0
 62
9
  6
CONTINUOUS
 10
335.4805327869
 20
228.4899182652
  0
VERTEX
  8
0
 62
9
  6
CONTINUOUS
 10
335.7934017169
 20
228.4999334713
  0
VERTEX
  8
0
 62
9
  6
CONTINUOUS
 10
336.0985667755
 20
228.5297324818
  0
VERTEX
  8
0
 62
9
  6
CONTINUOUS
 10
336.3885137863
 20
228.5785815462
  0
VERTEX
  8
0
 62
9
  6
CONTINUOUS
 10
336.6561032914
 20
228.6452778384
  0
VERTEX
  8
0
 62
9
  6
CONTINUOUS
 10
336.8947463492
 20
228.7281790744
  0
VERTEX
  8
0
 62
9
  6
CONTINUOUS
 10
337.0985667756
 20
228.8252439507
  0
VERTEX
  8
0
 62
9
  6
CONTINUOUS
 10
337.2625458352
 20
228.9340824077
  0
VERTEX
  8
0
 62
9
  6
CONTINUOUS
 10
337.3826458194
 20
229.0520144815
  0
VERTEX
  8
0
 62
9
  6
CONTINUOUS
 10
337.4559094681
 20
229.176136293
  0
VERTEX
  8
0
 62
9
  6
CONTINUOUS
 10
337.4805327869
 20
229.3033915514
  0
SEQEND
  0
LINE
  8
0
 62
9
  6
CONTINUOUS
 10
335.4805327869
 20
228.4899182652
 11
323.4805327869
 21
228.4899182652
  0
POLYLINE
  8
0
 62
9
  6
CONTINUOUS
 66
1
 70
0
  0
VERTEX
  8
0
 62
9
  6
CONTINUOUS
 10
323.4805327869
 20
228.4899182652
  0
VERTEX
  8
0
 62
9
  6
CONTINUOUS
 10
323.1676639709
 20
228.4999334639
  0
VERTEX
  8
0
 62
9
  6
CONTINUOUS
 10
322.862498965
 20
228.5297324597
  0
VERTEX
  8
0
 62
9
  6
CONTINUOUS
 10
322.5725519413
 20
228.5785815143
  0
VERTEX
  8
0
 62
9
  6
CONTINUOUS
 10
322.3049623864
 20
228.6452778077
  0
VERTEX
  8
0
 62
9
  6
CONTINUOUS
 10
322.0663192633
 20
228.7281790587
  0
VERTEX
  8
0
 62
9
  6
CONTINUOUS
 10
321.8624987825
 20
228.8252439594
  0
VERTEX
  8
0
 62
9
  6
CONTINUOUS
 10
321.6985196936
 20
228.9340824435
  0
VERTEX
  8
0
 62
9
  6
CONTINUOUS
 10
321.5784197126
 20
229.0520145337
  0
VERTEX
  8
0
 62
9
  6
CONTINUOUS
 10
321.5051560904
 20
229.1761363325
  0
VERTEX
  8
0
 62
9
  6
CONTINUOUS
 10
321.4805327869
 20
229.3033915517
  0
SEQEND
  0
POLYLINE
  8
0
 62
9
  6
CONTINUOUS
 66
1
 70
0
  0
VERTEX
  8
0
 62
9
  6
CONTINUOUS
 10
336.5757252713
 20
57.4868567387
  0
VERTEX
  8
0
 62
9
  6
CONTINUOUS
 10
336.6561032914
 20
57.5351867616
  0
VERTEX
  8
0
 62
9
  6
CONTINUOUS
 10
336.8947463492
 20
57.7351766727
  0
VERTEX
  8
0
 62
9
  6
CONTINUOUS
 10
337.0985667755
 20
57.9693347734
  0
VERTEX
  8
0
 62
9
  6
CONTINUOUS
 10
337.2625458352
 20
58.231895314
  0
VERTEX
  8
0
 62
9
  6
CONTINUOUS
 10
337.3826458194
 20
58.5163931827
  0
VERTEX
  8
0
 62
9
  6
CONTINUOUS
 10
337.4559094681
 20
58.8158230979
  0
VERTEX
  8
0
 62
9
  6
CONTINUOUS
 10
337.4805327869
 20
59.1228121013
  0
SEQEND
  0
POLYLINE
  8
0
 62
9
  6
CONTINUOUS
 66
1
 70
0
  0
VERTEX
  8
0
 62
9
  6
CONTINUOUS
 10
334.4688507322
 20
237.2356083343
  0
VERTEX
  8
0
 62
9
  6
CONTINUOUS
 10
334.8440255391
 20
237.3131661248
  0
VERTEX
  8
0
 62
9
  6
CONTINUOUS
 10
335.2034058459
 20
237.4086999918
  0
VERTEX
  8
0
 62
9
  6
CONTINUOUS
 10
335.5361075523
 20
237.5317501838
  0
VERTEX
  8
0
 62
9
  6
CONTINUOUS
 10
335.8321629952
 20
237.6740005343
  0
VERTEX
  8
0
 62
9
  6
CONTINUOUS
 10
336.0774755194
 20
237.8293293271
  0
VERTEX
  8
0
 62
9
  6
CONTINUOUS
 10
336.2645944465
 20
237.9932970616
  0
VERTEX
  8
0
 62
9
  6
CONTINUOUS
 10
336.3875359185
 20
238.155263779
  0
VERTEX
  8
0
 62
9
  6
CONTINUOUS
 10
336.4384662443
 20
238.3206162031
  0
SEQEND
  0
POLYLINE
  8
0
 62
9
  6
CONTINUOUS
 66
1
 70
0
  0
VERTEX
  8
0
 62
9
  6
CONTINUOUS
 10
335.4349560459
 20
232.0549054009
  0
VERTEX
  8
0
 62
9
  6
CONTINUOUS
 10
335.8085016279
 20
232.1276662103
  0
VERTEX
  8
0
 62
9
  6
CONTINUOUS
 10
336.1685171044
 20
232.2272561902
  0
VERTEX
  8
0
 62
9
  6
CONTINUOUS
 10
336.5019624405
 20
232.3500681156
  0
VERTEX
  8
0
 62
9
  6
CONTINUOUS
 10
336.7967599921
 20
232.4916536449
  0
VERTEX
  8
0
 62
9
  6
CONTINUOUS
 10
337.0422319672
 20
232.6468844424
  0
VERTEX
  8
0
 62
9
  6
CONTINUOUS
 10
337.2294871837
 20
232.8101379302
  0
VERTEX
  8
0
 62
9
  6
CONTINUOUS
 10
337.3517431149
 20
232.9755009426
  0
SEQEND
  0
POLYLINE
  8
0
 62
9
  6
CONTINUOUS
 66
1
 70
0
  0
VERTEX
  8
0
 62
9
  6
CONTINUOUS
 10
335.4805327869
 20
231.5613302308
  0
VERTEX
  8
0
 62
9
  6
CONTINUOUS
 10
335.870713591
 20
231.5769609152
  0
VERTEX
  8
0
 62
9
  6
CONTINUOUS
 10
336.2458999056
 20
231.6232522581
  0
VERTEX
  8
0
 62
9
  6
CONTINUOUS
 10
336.5916735299
 20
231.6984252967
  0
VERTEX
  8
0
 62
9
  6
CONTINUOUS
 10
336.894746592
 20
231.7995911627
  0
VERTEX
  8
0
 62
9
  6
CONTINUOUS
 10
337.1434721822
 20
231.9228621
  0
VERTEX
  8
0
 62
9
  6
CONTINUOUS
 10
337.3282919412
 20
232.063500873
  0
VERTEX
  8
0
 62
9
  6
CONTINUOUS
 10
337.4421033735
 20
232.2161028146
  0
VERTEX
  8
0
 62
9
  6
CONTINUOUS
 10
337.4805327869
 20
232.374803517
  0
SEQEND
  0
POLYLINE
  8
0
 62
9
  6
CONTINUOUS
 66
1
 70
0
  0
VERTEX
  8
0
 62
9
  6
CONTINUOUS
 10
323.4805327869
 20
231.5064537746
  0
VERTEX
  8
0
 62
9
  6
CONTINUOUS
 10
323.0903521429
 20
231.5220844357
  0
VERTEX
  8
0
 62
9
  6
CONTINUOUS
 10
322.7151659222
 20
231.5683757415
  0
VERTEX
  8
0
 62
9
  6
CONTINUOUS
 10
322.3693923208
 20
231.6435487429
  0
VERTEX
  8
0
 62
9
  6
CONTINUOUS
 10
322.0663192245
 20
231.7447145838
  0
VERTEX
  8
0
 62
9
  6
CONTINUOUS
 10
321.8175935623
 20
231.8679855176
  0
VERTEX
  8
0
 62
9
  6
CONTINUOUS
 10
321.6327737219
 20
232.0086243115
  0
VERTEX
  8
0
 62
9
  6
CONTINUOUS
 10
321.5189622261
 20
232.1612262954
  0
VERTEX
  8
0
 62
9
  6
CONTINUOUS
 10
321.4805327869
 20
232.3199270608
  0
SEQEND
  0
POLYLINE
  8
0
 62
9
  6
CONTINUOUS
 66
1
 70
0
  0
VERTEX
  8
0
 62
9
  6
CONTINUOUS
 10
323.5348657546
 20
232.0449770015
  0
VERTEX
  8
0
 62
9
  6
CONTINUOUS
 10
323.1633637849
 20
232.1227804209
  0
VERTEX
  8
0
 62
9
  6
CONTINUOUS
 10
322.8052442524
 20
232.2270845086
  0
VERTEX
  8
0
 62
9
  6
CONTINUOUS
 10
322.4734075196
 20
232.35413197
  0
VERTEX
  8
0
 62
9
  6
CONTINUOUS
 10
322.1798071767
 20
232.4993462371
  0
VERTEX
  8
0
 62
9
  6
CONTINUOUS
 10
321.9350194434
 20
232.6574963284
  0
VERTEX
  8
0
 62
9
  6
CONTINUOUS
 10
321.7478621869
 20
232.8228852814
  0
VERTEX
  8
0
 62
9
  6
CONTINUOUS
 10
321.6250772803
 20
232.9895553718
  0
SEQEND
  0
POLYLINE
  8
0
 62
9
  6
CONTINUOUS
 66
1
 70
0
  0
VERTEX
  8
0
 62
9
  6
CONTINUOUS
 10
324.5940804961
 20
237.2356083311
  0
VERTEX
  8
0
 62
9
  6
CONTINUOUS
 10
324.2212464604
 20
237.3182792838
  0
VERTEX
  8
0
 62
9
  6
CONTINUOUS
 10
323.8634226705
 20
237.4185248241
  0
VERTEX
  8
0
 62
9
  6
CONTINUOUS
 10
323.5322417369
 20
237.5458104998
  0
VERTEX
  8
0
 62
9
  6
CONTINUOUS
 10
323.2374314819
 20
237.6917684836
  0
VERTEX
  8
0
 62
9
  6
CONTINUOUS
 10
322.9927734773
 20
237.8500616078
  0
VERTEX
  8
0
 62
9
  6
CONTINUOUS
 10
322.8057800804
 20
238.0161972016
  0
VERTEX
  8
0
 62
9
  6
CONTINUOUS
 10
322.6822653118
 20
238.1795465036
  0
VERTEX
  8
0
 62
9
  6
CONTINUOUS
 10
322.6303024685
 20
238.3453366112
  0
SEQEND
  0
POLYLINE
  8
0
 62
9
  6
CONTINUOUS
 66
1
 70
0
  0
VERTEX
  8
0
 62
9
  6
CONTINUOUS
 10
336.57572407
 20
243.7733898844
  0
VERTEX
  8
0
 62
9
  6
CONTINUOUS
 10
336.6561032616
 20
243.7250591613
  0
VERTEX
  8
0
 62
9
  6
CONTINUOUS
 10
336.8947463895
 20
243.5250691893
  0
VERTEX
  8
0
 62
9
  6
CONTINUOUS
 10
337.0985668596
 20
243.2909110148
  0
VERTEX
  8
0
 62
9
  6
CONTINUOUS
 10
337.2625459239
 20
243.0283504167
  0
VERTEX
  8
0
 62
9
  6
CONTINUOUS
 10
337.3826458814
 20
242.7438525318
  0
VERTEX
  8
0
 62
9
  6
CONTINUOUS
 10
337.4559094887
 20
242.4444226755
  0
VERTEX
  8
0
 62
9
  6
CONTINUOUS
 10
337.4805327869
 20
242.1374338009
  0
SEQEND
  0
POLYLINE
  8
0
 62
7
  6
CONTINUOUS
 66
1
 70
0
  0
VERTEX
  8
0
 62
7
  6
CONTINUOUS
 10
323.8994800212
 20
245.8171629231
  0
VERTEX
  8
0
 62
7
  6
CONTINUOUS
 10
324.2412155186
 20
245.9102804254
  0
VERTEX
  8
0
 62
7
  6
CONTINUOUS
 10
324.59408049
 20
245.9416549416
  0
SEQEND
  0
POLYLINE
  8
0
 62
9
  6
CONTINUOUS
 66
1
 70
0
  0
VERTEX
  8
0
 62
9
  6
CONTINUOUS
 10
324.5940804858
 20
239.6127870691
  0
VERTEX
  8
0
 62
9
  6
CONTINUOUS
 10
324.2501442263
 20
239.5883583982
  0
VERTEX
  8
0
 62
9
  6
CONTINUOUS
 10
323.9222410712
 20
239.5219211793
  0
VERTEX
  8
0
 62
9
  6
CONTINUOUS
 10
323.6097382385
 20
239.4097366902
  0
VERTEX
  8
0
 62
9
  6
CONTINUOUS
 10
323.3234918481
 20
239.2566846426
  0
VERTEX
  8
0
 62
9
  6
CONTINUOUS
 10
323.0771802236
 20
239.0681614703
  0
VERTEX
  8
0
 62
9
  6
CONTINUOUS
 10
322.875223642
 20
238.8485355601
  0
VERTEX
  8
0
 62
9
  6
CONTINUOUS
 10
322.7245775614
 20
238.6070090141
  0
VERTEX
  8
0
 62
9
  6
CONTINUOUS
 10
322.6303024685
 20
238.3453366112
  0
SEQEND
  0
LINE
  8
0
 62
9
  6
CONTINUOUS
 10
334.4688507383
 20
237.2356082982
 11
324.59408049
 21
237.2356082982
  0
LINE
  8
0
 62
9
  6
CONTINUOUS
 10
324.59408049
 20
239.6127871319
 11
334.4688507383
 21
239.6127871319
  0
POLYLINE
  8
0
 62
9
  6
CONTINUOUS
 66
1
 70
0
  0
VERTEX
  8
0
 62
9
  6
CONTINUOUS
 10
334.4688507383
 20
239.6127871319
  0
VERTEX
  8
0
 62
9
  6
CONTINUOUS
 10
334.8127871847
 20
239.5894918243
  0
VERTEX
  8
0
 62
9
  6
CONTINUOUS
 10
335.1480551067
 20
239.5198548075
  0
VERTEX
  8
0
 62
9
  6
CONTINUOUS
 10
335.4647140179
 20
239.4051524976
  0
VERTEX
  8
0
 62
9
  6
CONTINUOUS
 10
335.7516865152
 20
239.2487434893
  0
VERTEX
  8
0
 62
9
  6
CONTINUOUS
 10
335.9991001298
 20
239.0559236462
  0
VERTEX
  8
0
 62
9
  6
CONTINUOUS
 10
336.1998599333
 20
238.8323432255
  0
VERTEX
  8
0
 62
9
  6
CONTINUOUS
 10
336.3478545629
 20
238.5847190008
  0
VERTEX
  8
0
 62
9
  6
CONTINUOUS
 10
336.4384662443
 20
238.3206162031
  0
SEQEND
  0
POLYLINE
  8
0
 62
7
  6
CONTINUOUS
 66
1
 70
0
  0
VERTEX
  8
0
 62
7
  6
CONTINUOUS
 10
335.1695015944
 20
245.8149110313
  0
VERTEX
  8
0
 62
7
  6
CONTINUOUS
 10
334.8248933788
 20
245.9097081981
  0
VERTEX
  8
0
 62
7
  6
CONTINUOUS
 10
334.4688507383
 20
245.9416549416
  0
SEQEND
  0
POLYLINE
  8
0
 62
9
  6
CONTINUOUS
 66
1
 70
0
  0
VERTEX
  8
0
 62
9
  6
CONTINUOUS
 10
324.59408049
 20
245.6107638225
  0
VERTEX
  8
0
 62
9
  6
CONTINUOUS
 10
324.2539627603
 20
245.5864514251
  0
VERTEX
  8
0
 62
9
  6
CONTINUOUS
 10
323.9222357095
 20
245.5137713522
  0
VERTEX
  8
0
 62
9
  6
CONTINUOUS
 10
323.6085073993
 20
245.3940304163
  0
VERTEX
  8
0
 62
9
  6
CONTINUOUS
 10
323.3234897799
 20
245.230656424
  0
SEQEND
  0
LINE
  8
0
 62
9
  6
CONTINUOUS
 10
324.59408049
 20
245.6107638225
 11
334.4688507383
 21
245.6107638225
  0
LINE
  8
0
 62
7
  6
CONTINUOUS
 10
324.59408049
 20
245.9416549416
 11
334.4688507383
 21
245.9416549416
  0
POLYLINE
  8
0
 62
9
  6
CONTINUOUS
 66
1
 70
0
  0
VERTEX
  8
0
 62
9
  6
CONTINUOUS
 10
334.4688507434
 20
245.6107638687
  0
VERTEX
  8
0
 62
9
  6
CONTINUOUS
 10
334.8166998889
 20
245.5863670214
  0
VERTEX
  8
0
 62
9
  6
CONTINUOUS
 10
335.1480488918
 20
245.5115691628
  0
VERTEX
  8
0
 62
9
  6
CONTINUOUS
 10
335.463439356
 20
245.3902439097
  0
VERTEX
  8
0
 62
9
  6
CONTINUOUS
 10
335.7516841298
 20
245.2221830726
  0
VERTEX
  8
0
 62
9
  6
CONTINUOUS
 10
335.9986760101
 20
245.0168114269
  0
SEQEND
  0
POLYLINE
  8
0
 62
9
  6
CONTINUOUS
 66
1
 70
0
  0
VERTEX
  8
0
 62
9
  6
CONTINUOUS
 10
334.4688507322
 20
262.7435323803
  0
VERTEX
  8
0
 62
9
  6
CONTINUOUS
 10
334.8440255391
 20
262.8029610365
  0
VERTEX
  8
0
 62
9
  6
CONTINUOUS
 10
335.2034058459
 20
262.8362094306
  0
VERTEX
  8
0
 62
9
  6
CONTINUOUS
 10
335.5361075523
 20
262.855738025
  0
VERTEX
  8
0
 62
9
  6
CONTINUOUS
 10
335.8321629952
 20
262.8556600802
  0
VERTEX
  8
0
 62
9
  6
CONTINUOUS
 10
336.0774755194
 20
262.8364113313
  0
VERTEX
  8
0
 62
9
  6
CONTINUOUS
 10
336.2645944465
 20
262.7990916333
  0
VERTEX
  8
0
 62
9
  6
CONTINUOUS
 10
336.3875359185
 20
262.7394872806
  0
VERTEX
  8
0
 62
9
  6
CONTINUOUS
 10
336.4384662443
 20
262.674656143
  0
SEQEND
  0
POLYLINE
  8
0
 62
9
  6
CONTINUOUS
 66
1
 70
0
  0
VERTEX
  8
0
 62
9
  6
CONTINUOUS
 10
335.4349560459
 20
257.196471638
  0
VERTEX
  8
0
 62
9
  6
CONTINUOUS
 10
335.8085016279
 20
257.2510729517
  0
VERTEX
  8
0
 62
9
  6
CONTINUOUS
 10
336.1685171044
 20
257.2886351244
  0
VERTEX
  8
0
 62
9
  6
CONTINUOUS
 10
336.5019624405
 20
257.3077976257
  0
VERTEX
  8
0
 62
9
  6
CONTINUOUS
 10
336.7967599921
 20
257.3078663751
  0
VERTEX
  8
0
 62
9
  6
CONTINUOUS
 10
337.0422319672
 20
257.2888388825
  0
VERTEX
  8
0
 62
9
  6
CONTINUOUS
 10
337.2294871837
 20
257.2514043381
  0
VERTEX
  8
0
 62
9
  6
CONTINUOUS
 10
337.3517431149
 20
257.1969186497
  0
VERTEX
  8
0
 62
9
  6
CONTINUOUS
 10
337.404571558
 20
257.1273553305
  0
SEQEND
  0
POLYLINE
  8
0
 62
9
  6
CONTINUOUS
 66
1
 70
0
  0
VERTEX
  8
0
 62
9
  6
CONTINUOUS
 10
324.5940804858
 20
264.3256981517
  0
VERTEX
  8
0
 62
9
  6
CONTINUOUS
 10
324.2501442263
 20
264.2958508469
  0
VERTEX
  8
0
 62
9
  6
CONTINUOUS
 10
323.9222410712
 20
264.2095962521
  0
VERTEX
  8
0
 62
9
  6
CONTINUOUS
 10
323.6097382385
 20
264.0669158682
  0
VERTEX
  8
0
 62
9
  6
CONTINUOUS
 10
323.3234918481
 20
263.8706963002
  0
VERTEX
  8
0
 62
9
  6
CONTINUOUS
 10
323.0771802236
 20
263.6298580468
  0
VERTEX
  8
0
 62
9
  6
CONTINUOUS
 10
322.875223642
 20
263.3491930936
  0
VERTEX
  8
0
 62
9
  6
CONTINUOUS
 10
322.7245775614
 20
263.0377578568
  0
VERTEX
  8
0
 62
9
  6
CONTINUOUS
 10
322.6303024685
 20
262.7062420821
  0
SEQEND
  0
POLYLINE
  8
0
 62
9
  6
CONTINUOUS
 66
1
 70
0
  0
VERTEX
  8
0
 62
9
  6
CONTINUOUS
 10
323.4805327869
 20
256.6092357891
  0
VERTEX
  8
0
 62
9
  6
CONTINUOUS
 10
323.0903521429
 20
256.6012458594
  0
VERTEX
  8
0
 62
9
  6
CONTINUOUS
 10
322.7151659222
 20
256.5775831189
  0
VERTEX
  8
0
 62
9
  6
CONTINUOUS
 10
322.3693923208
 20
256.5391569134
  0
VERTEX
  8
0
 62
9
  6
CONTINUOUS
 10
322.0663192245
 20
256.4874439404
  0
VERTEX
  8
0
 62
9
  6
CONTINUOUS
 10
321.8175935623
 20
256.4244315005
  0
VERTEX
  8
0
 62
9
  6
CONTINUOUS
 10
321.6327737219
 20
256.3525411264
  0
VERTEX
  8
0
 62
9
  6
CONTINUOUS
 10
321.5189622261
 20
256.2745355249
  0
SEQEND
  0
POLYLINE
  8
0
 62
9
  6
CONTINUOUS
 66
1
 70
0
  0
VERTEX
  8
0
 62
9
  6
CONTINUOUS
 10
323.4805327869
 20
253.3793834086
  0
VERTEX
  8
0
 62
9
  6
CONTINUOUS
 10
323.1676639709
 20
253.3742639365
  0
VERTEX
  8
0
 62
9
  6
CONTINUOUS
 10
322.862498965
 20
253.359031575
  0
VERTEX
  8
0
 62
9
  6
CONTINUOUS
 10
322.5725519413
 20
253.3340613892
  0
VERTEX
  8
0
 62
9
  6
CONTINUOUS
 10
322.3049623864
 20
253.2999682251
  0
VERTEX
  8
0
 62
9
  6
CONTINUOUS
 10
322.0663192633
 20
253.257591568
  0
VERTEX
  8
0
 62
9
  6
CONTINUOUS
 10
321.8624987825
 20
253.2079748738
  0
VERTEX
  8
0
 62
9
  6
CONTINUOUS
 10
321.6985196936
 20
253.1523398734
  0
VERTEX
  8
0
 62
9
  6
CONTINUOUS
 10
321.5784197126
 20
253.0920564919
  0
VERTEX
  8
0
 62
9
  6
CONTINUOUS
 10
321.5051560904
 20
253.0286091154
  0
VERTEX
  8
0
 62
9
  6
CONTINUOUS
 10
321.4805327869
 20
252.9635600277
  0
SEQEND
  0
LINE
  8
0
 62
9
  6
CONTINUOUS
 10
335.4805327869
 20
253.3793834086
 11
323.4805327869
 21
253.3793834086
  0
LINE
  8
0
 62
9
  6
CONTINUOUS
 10
334.4688507383
 20
262.7435323417
 11
324.59408049
 21
262.7435323417
  0
LINE
  8
0
 62
9
  6
CONTINUOUS
 10
324.59408049
 20
264.3256981562
 11
334.4688507383
 21
264.3256981562
  0
LINE
  8
1_AXIS
 62
7
  6
CONTINUOUS
 10
324.59408049
 20
264.4401229508
 11
334.4688507383
 21
264.4401229508
  0
POLYLINE
  8
0
 62
9
  6
CONTINUOUS
 66
1
 70
0
  0
VERTEX
  8
0
 62
9
  6
CONTINUOUS
 10
335.4805327869
 20
253.3793834086
  0
VERTEX
  8
0
 62
9
  6
CONTINUOUS
 10
335.7934017169
 20
253.3742639328
  0
VERTEX
  8
0
 62
9
  6
CONTINUOUS
 10
336.0985667755
 20
253.3590315637
  0
VERTEX
  8
0
 62
9
  6
CONTINUOUS
 10
336.3885137863
 20
253.3340613729
  0
VERTEX
  8
0
 62
9
  6
CONTINUOUS
 10
336.6561032914
 20
253.2999682094
  0
VERTEX
  8
0
 62
9
  6
CONTINUOUS
 10
336.8947463492
 20
253.2575915599
  0
VERTEX
  8
0
 62
9
  6
CONTINUOUS
 10
337.0985667756
 20
253.2079748783
  0
VERTEX
  8
0
 62
9
  6
CONTINUOUS
 10
337.2625458352
 20
253.1523398918
  0
VERTEX
  8
0
 62
9
  6
CONTINUOUS
 10
337.3826458194
 20
253.0920565186
  0
VERTEX
  8
0
 62
9
  6
CONTINUOUS
 10
337.4559094681
 20
253.0286091352
  0
VERTEX
  8
0
 62
9
  6
CONTINUOUS
 10
337.4805327869
 20
252.963560027
  0
SEQEND
  0
POLYLINE
  8
0
 62
9
  6
CONTINUOUS
 66
1
 70
0
  0
VERTEX
  8
0
 62
9
  6
CONTINUOUS
 10
335.4805327869
 20
256.6679928805
  0
VERTEX
  8
0
 62
9
  6
CONTINUOUS
 10
335.870713591
 20
256.6600029552
  0
VERTEX
  8
0
 62
9
  6
CONTINUOUS
 10
336.2458999056
 20
256.6363402074
  0
VERTEX
  8
0
 62
9
  6
CONTINUOUS
 10
336.5916735299
 20
256.5979139901
  0
VERTEX
  8
0
 62
9
  6
CONTINUOUS
 10
336.894746592
 20
256.5462010069
  0
VERTEX
  8
0
 62
9
  6
CONTINUOUS
 10
337.1434721822
 20
256.4831885626
  0
VERTEX
  8
0
 62
9
  6
CONTINUOUS
 10
337.3282919412
 20
256.4112981919
  0
VERTEX
  8
0
 62
9
  6
CONTINUOUS
 10
337.4421033735
 20
256.3332926003
  0
SEQEND
  0
POLYLINE
  8
0
 62
9
  6
CONTINUOUS
 66
1
 70
0
  0
VERTEX
  8
0
 62
9
  6
CONTINUOUS
 10
334.4688507383
 20
264.3256981562
  0
VERTEX
  8
0
 62
9
  6
CONTINUOUS
 10
334.8127871842
 20
264.2959331069
  0
VERTEX
  8
0
 62
9
  6
CONTINUOUS
 10
335.148055106
 20
264.2069559927
  0
VERTEX
  8
0
 62
9
  6
CONTINUOUS
 10
335.4647140172
 20
264.0603977253
  0
VERTEX
  8
0
 62
9
  6
CONTINUOUS
 10
335.7516865148
 20
263.8605496725
  0
VERTEX
  8
0
 62
9
  6
CONTINUOUS
 10
335.9991001296
 20
263.6141785037
  0
VERTEX
  8
0
 62
9
  6
CONTINUOUS
 10
336.1998599333
 20
263.3285037064
  0
VERTEX
  8
0
 62
9
  6
CONTINUOUS
 10
336.3478545629
 20
263.0121074856
  0
VERTEX
  8
0
 62
9
  6
CONTINUOUS
 10
336.4384662443
 20
262.674656143
  0
SEQEND
  0
POLYLINE
  8
0
 62
9
  6
CONTINUOUS
 66
1
 70
0
  0
VERTEX
  8
0
 62
9
  6
CONTINUOUS
 10
323.5348657546
 20
257.1858411434
  0
VERTEX
  8
0
 62
9
  6
CONTINUOUS
 10
323.1633637849
 20
257.2459691986
  0
VERTEX
  8
0
 62
9
  6
CONTINUOUS
 10
322.8052442524
 20
257.2889522879
  0
VERTEX
  8
0
 62
9
  6
CONTINUOUS
 10
322.4734075196
 20
257.3132420527
  0
VERTEX
  8
0
 62
9
  6
CONTINUOUS
 10
322.1798071767
 20
257.3179635146
  0
VERTEX
  8
0
 62
9
  6
CONTINUOUS
 10
321.9350194434
 20
257.3029465946
  0
VERTEX
  8
0
 62
9
  6
CONTINUOUS
 10
321.7478621869
 20
257.2687322399
  0
VERTEX
  8
0
 62
9
  6
CONTINUOUS
 10
321.6250772803
 20
257.2165529372
  0
VERTEX
  8
0
 62
9
  6
CONTINUOUS
 10
321.5710877437
 20
257.1482883157
  0
SEQEND
  0
POLYLINE
  8
0
 62
9
  6
CONTINUOUS
 66
1
 70
0
  0
VERTEX
  8
0
 62
9
  6
CONTINUOUS
 10
324.5940804961
 20
262.7435323769
  0
VERTEX
  8
0
 62
9
  6
CONTINUOUS
 10
324.2212464604
 20
262.8085892051
  0
VERTEX
  8
0
 62
9
  6
CONTINUOUS
 10
323.8634226705
 20
262.8472154172
  0
VERTEX
  8
0
 62
9
  6
CONTINUOUS
 10
323.5322417369
 20
262.8718254104
  0
VERTEX
  8
0
 62
9
  6
CONTINUOUS
 10
323.2374314819
 20
262.876479225
  0
VERTEX
  8
0
 62
9
  6
CONTINUOUS
 10
322.9927734773
 20
262.8612325197
  0
VERTEX
  8
0
 62
9
  6
CONTINUOUS
 10
322.8057800804
 20
262.8271317744
  0
VERTEX
  8
0
 62
9
  6
CONTINUOUS
 10
322.6822653118
 20
262.7698595048
  0
VERTEX
  8
0
 62
9
  6
CONTINUOUS
 10
322.6303024685
 20
262.7062420821
  0
SEQEND
  0
ARC
  8
0
 62
9
  6
CONTINUOUS
 10
70.0085156869
 20
77.6511673533
 40
14.0
 50
336.0
 51
42.8743628497
  0
ARC
  8
0
 62
7
  6
CONTINUOUS
 10
70.0085156869
 20
77.6511673533
 40
12.0
 50
336.0
 51
42.8743628497
  0
ARC
  8
0
 62
7
  6
CONTINUOUS
 10
78.9043200184
 20
63.2111643172
 40
2.0
 50
156.0
 51
231.4305280396
  0
ARC
  8
0
 62
7
  6
CONTINUOUS
 10
87.0147514522
 20
57.3185909601
 40
2.0
 50
236.5694719604
 51
312.0
  0
ARC
  8
0
 62
9
  6
CONTINUOUS
 10
54.9162713175
 20
98.4238596426
 40
14.0
 50
29.1256371503
 51
96.0
  0
ARC
  8
0
 62
9
  6
CONTINUOUS
 10
42.1248218523
 20
137.7918930782
 40
14.0
 50
300.0
 51
6.8743628497
  0
ARC
  8
0
 62
7
  6
CONTINUOUS
 10
42.1248218523
 20
137.7918930782
 40
12.0
 50
300.0
 51
6.8743628497
  0
ARC
  8
0
 62
7
  6
CONTINUOUS
 10
54.9162713175
 20
98.4238596426
 40
12.0
 50
29.1256371503
 51
96.0
  0
ARC
  8
0
 62
7
  6
CONTINUOUS
 10
40.8340579075
 20
120.8808626298
 40
2.0
 50
120.0
 51
195.4305280396
  0
ARC
  8
0
 62
7
  6
CONTINUOUS
 10
43.9319670518
 20
111.3464786568
 40
2.0
 50
200.5694719604
 51
276.0
  0
ARC
  8
0
 62
9
  6
CONTINUOUS
 10
103.496965152
 20
53.3203846199
 40
14.0
 50
65.1256371503
 51
132.0
  0
ARC
  8
0
 62
9
  6
CONTINUOUS
 10
127.9167295082
 20
45.3859222032
 40
14.0
 50
12.0
 51
78.8743628497
  0
ARC
  8
0
 62
7
  6
CONTINUOUS
 10
103.496965152
 20
53.3203846199
 40
12.0
 50
65.1256371503
 51
132.0
  0
ARC
  8
0
 62
7
  6
CONTINUOUS
 10
127.9167295082
 20
45.3859222032
 40
12.0
 50
12.0
 51
78.8743628497
  0
ARC
  8
0
 62
7
  6
CONTINUOUS
 10
143.6012072187
 20
38.9325369416
 40
2.0
 50
192.0
 51
267.4305280396
  0
ARC
  8
0
 62
9
  6
CONTINUOUS
 10
42.1248218523
 20
163.4683528235
 40
14.0
 50
353.1256371503
 51
60.0
  0
ARC
  8
0
 62
9
  6
CONTINUOUS
 10
54.9162713175
 20
202.836386259
 40
14.0
 50
264.0
 51
330.8743628497
  0
ARC
  8
0
 62
7
  6
CONTINUOUS
 10
54.9162713175
 20
202.836386259
 40
12.0
 50
264.0
 51
330.8743628497
  0
ARC
  8
0
 62
7
  6
CONTINUOUS
 10
42.1248218523
 20
163.4683528235
 40
12.0
 50
353.1256371503
 51
60.0
  0
ARC
  8
0
 62
7
  6
CONTINUOUS
 10
43.9319670518
 20
189.9137672449
 40
2.0
 50
84.0
 51
159.4305280396
  0
ARC
  8
0
 62
7
  6
CONTINUOUS
 10
40.8340579075
 20
180.3793832718
 40
2.0
 50
164.5694719604
 51
240.0
  0
ARC
  8
0
 62
9
  6
CONTINUOUS
 10
70.0085156869
 20
223.6090785483
 40
14.0
 50
317.1256371503
 51
24.0
  0
ARC
  8
0
 62
7
  6
CONTINUOUS
 10
70.0085156869
 20
223.6090785483
 40
12.0
 50
317.1256371503
 51
24.0
  0
ARC
  8
0
 62
7
  6
CONTINUOUS
 10
87.0147514522
 20
243.9416549416
 40
2.0
 50
47.9999996882
 51
123.4305280396
  0
ARC
  8
0
 62
7
  6
CONTINUOUS
 10
78.9043200184
 20
238.0490815844
 40
2.0
 50
128.5694719604
 51
204.0
  0
ARC
  8
0
 62
9
  6
CONTINUOUS
 10
103.496965152
 20
247.9398612817
 40
14.0
 50
228.0
 51
294.8743628497
  0
ARC
  8
0
 62
9
  6
CONTINUOUS
 10
127.9167295082
 20
255.8743236984
 40
14.0
 50
281.1256371503
 51
348.0
  0
ARC
  8
0
 62
7
  6
CONTINUOUS
 10
103.496965152
 20
247.9398612817
 40
12.0
 50
228.0
 51
294.8743628497
  0
ARC
  8
0
 62
7
  6
CONTINUOUS
 10
127.9167295082
 20
255.8743236984
 40
12.0
 50
281.1256371503
 51
348.0
  0
ARC
  8
0
 62
7
  6
CONTINUOUS
 10
143.6012072187
 20
262.3277089601
 40
2.0
 50
92.5694719604
 51
168.0
  0
ARC
  8
0
 62
9
  6
CONTINUOUS
 10
255.1026371641
 20
137.7918930782
 40
14.0
 50
173.1256371503
 51
240.0
  0
ARC
  8
0
 62
9
  6
CONTINUOUS
 10
242.3111876989
 20
98.4238596426
 40
14.0
 50
84.0
 51
150.8743628497
  0
ARC
  8
0
 62
9
  6
CONTINUOUS
 10
227.2189433295
 20
77.6511673533
 40
14.0
 50
137.1256371503
 51
204.0
  0
ARC
  8
0
 62
9
  6
CONTINUOUS
 10
193.7304938644
 20
53.3203846199
 40
14.0
 50
48.0
 51
114.8743628497
  0
ARC
  8
0
 62
9
  6
CONTINUOUS
 10
169.3107295082
 20
45.3859222032
 40
14.0
 50
101.1256371503
 51
168.0
  0
ARC
  8
0
 62
7
  6
CONTINUOUS
 10
169.3107295082
 20
45.3859222032
 40
12.0
 50
101.1256371503
 51
168.0
  0
ARC
  8
0
 62
7
  6
CONTINUOUS
 10
193.7304938644
 20
53.3203846199
 40
12.0
 50
48.0
 51
114.8743628497
  0
ARC
  8
0
 62
7
  6
CONTINUOUS
 10
227.2189433295
 20
77.6511673533
 40
12.0
 50
137.1256371503
 51
204.0
  0
ARC
  8
0
 62
7
  6
CONTINUOUS
 10
242.3111876989
 20
98.4238596426
 40
12.0
 50
84.0
 51
150.8743628497
  0
ARC
  8
0
 62
7
  6
CONTINUOUS
 10
255.1026371641
 20
137.7918930782
 40
12.0
 50
173.1256371503
 51
240.0
  0
ARC
  8
0
 62
7
  6
CONTINUOUS
 10
153.6262517977
 20
38.9325369416
 40
2.0
 50
272.5694719604
 51
348.0
  0
ARC
  8
0
 62
7
  6
CONTINUOUS
 10
210.2127075642
 20
57.3185909601
 40
2.0
 50
228.0
 51
303.4305280396
  0
ARC
  8
0
 62
7
  6
CONTINUOUS
 10
218.323138998
 20
63.2111643172
 40
2.0
 50
308.5694719604
 51
24.0
  0
ARC
  8
0
 62
7
  6
CONTINUOUS
 10
253.2954919646
 20
111.3464786568
 40
2.0
 50
264.0
 51
339.4305280396
  0
ARC
  8
0
 62
7
  6
CONTINUOUS
 10
256.3934011089
 20
120.8808626298
 40
2.0
 50
344.5694719604
 51
60.0
  0
ARC
  8
0
 62
7
  6
CONTINUOUS
 10
148.6137295082
 20
150.6301229508
 40
113.81
 50
87.4305280396
 51
92.5694719604
  0
ARC
  8
0
 62
7
  6
CONTINUOUS
 10
148.6137295082
 20
150.6301229508
 40
113.81
 50
123.4305280396
 51
128.5694719604
  0
ARC
  8
0
 62
7
  6
CONTINUOUS
 10
148.6137295082
 20
150.6301229508
 40
113.81
 50
159.4305280396
 51
164.5694719604
  0
ARC
  8
0
 62
7
  6
CONTINUOUS
 10
148.6137295082
 20
150.6301229508
 40
113.81
 50
195.4305280396
 51
200.5694719604
  0
ARC
  8
0
 62
7
  6
CONTINUOUS
 10
148.6137295082
 20
150.6301229508
 40
113.81
 50
231.4305280396
 51
236.5694719604
  0
ARC
  8
0
 62
7
  6
CONTINUOUS
 10
148.6137295082
 20
150.6301229508
 40
113.81
 50
51.4305280396
 51
56.5694719604
  0
ARC
  8
0
 62
7
  6
CONTINUOUS
 10
148.6137295082
 20
150.6301229508
 40
113.81
 50
15.4305280396
 51
20.5694719604
  0
ARC
  8
0
 62
7
  6
CONTINUOUS
 10
148.6137295082
 20
150.6301229508
 40
113.81
 50
339.4305280396
 51
344.5694719604
  0
ARC
  8
0
 62
7
  6
CONTINUOUS
 10
148.6137295082
 20
150.6301229508
 40
113.81
 50
303.4305280396
 51
308.5694719604
  0
ARC
  8
0
 62
7
  6
CONTINUOUS
 10
148.6137295082
 20
150.6301229508
 40
113.81
 50
267.4305280396
 51
272.5694719604
  0
ARC
  8
0
 62
9
  6
CONTINUOUS
 10
148.6137295082
 20
150.6301229508
 40
112.1572963553
 50
231.4305280396
 51
236.5694719604
  0
ARC
  8
0
 62
9
  6
CONTINUOUS
 10
148.6137295082
 20
150.6301229508
 40
112.1572963553
 50
51.4305280396
 51
56.5694719604
  0
ARC
  8
0
 62
9
  6
CONTINUOUS
 10
148.6137295082
 20
150.6301229508
 40
112.1572963553
 50
195.4305280396
 51
200.5694719604
  0
ARC
  8
0
 62
9
  6
CONTINUOUS
 10
148.6137295082
 20
150.6301229508
 40
112.1572963553
 50
15.4305280396
 51
20.5694719604
  0
ARC
  8
0
 62
9
  6
CONTINUOUS
 10
148.6137295082
 20
150.6301229508
 40
112.1572963553
 50
159.4305280396
 51
164.5694719604
  0
ARC
  8
0
 62
9
  6
CONTINUOUS
 10
148.6137295082
 20
150.6301229508
 40
112.1572963553
 50
339.4305280396
 51
344.5694719604
  0
ARC
  8
0
 62
9
  6
CONTINUOUS
 10
148.6137295082
 20
150.6301229508
 40
112.1572963553
 50
123.4305280396
 51
128.5694719604
  0
ARC
  8
0
 62
9
  6
CONTINUOUS
 10
148.6137295082
 20
150.6301229508
 40
112.1572963553
 50
303.4305280396
 51
308.5694719604
  0
ARC
  8
0
 62
9
  6
CONTINUOUS
 10
148.6137295082
 20
150.6301229508
 40
112.1572963553
 50
267.4305280396
 51
272.5694719604
  0
ARC
  8
0
 62
9
  6
CONTINUOUS
 10
148.6137295082
 20
150.6301229508
 40
112.1572963553
 50
87.4305280396
 51
92.5694719604
  0
ARC
  8
0
 62
9
  6
CONTINUOUS
 10
148.6137295082
 20
150.6301229508
 40
106.6782408883
 50
50.6618132304
 51
57.3381867695
  0
ARC
  8
0
 62
9
  6
CONTINUOUS
 10
148.6137295082
 20
150.6301229508
 40
106.6782408883
 50
14.6618132304
 51
21.3381867695
  0
ARC
  8
0
 62
9
  6
CONTINUOUS
 10
148.6137295082
 20
150.6301229508
 40
106.6782408883
 50
338.6618132304
 51
345.3381867695
  0
ARC
  8
0
 62
9
  6
CONTINUOUS
 10
148.6137295082
 20
150.6301229508
 40
106.6782408883
 50
302.6618132304
 51
309.3381867695
  0
ARC
  8
0
 62
9
  6
CONTINUOUS
 10
148.6137295082
 20
150.6301229508
 40
106.6782408883
 50
122.6618132304
 51
129.3381867695
  0
ARC
  8
0
 62
9
  6
CONTINUOUS
 10
148.6137295082
 20
150.6301229508
 40
106.6782408883
 50
230.6618132304
 51
237.3381867695
  0
ARC
  8
0
 62
9
  6
CONTINUOUS
 10
148.6137295082
 20
150.6301229508
 40
106.6782408883
 50
194.6618132304
 51
201.3381867695
  0
ARC
  8
0
 62
9
  6
CONTINUOUS
 10
148.6137295082
 20
150.6301229508
 40
106.6782408883
 50
158.6618132304
 51
165.3381867695
  0
ARC
  8
0
 62
9
  6
CONTINUOUS
 10
148.6137295082
 20
150.6301229508
 40
106.6782408883
 50
266.6618132304
 51
273.3381867695
  0
ARC
  8
0
 62
9
  6
CONTINUOUS
 10
148.6137295082
 20
150.6301229508
 40
106.6782408883
 50
86.6618132304
 51
93.3381867695
  0
ARC
  8
0
 62
7
  6
CONTINUOUS
 10
148.6137295082
 20
150.6301229508
 40
95.26
 50
101.1256371503
 51
114.8743628497
  0
ARC
  8
0
 62
7
  6
CONTINUOUS
 10
148.6137295082
 20
150.6301229508
 40
95.26
 50
137.1256371503
 51
150.8743628497
  0
ARC
  8
0
 62
7
  6
CONTINUOUS
 10
148.6137295082
 20
150.6301229508
 40
95.26
 50
173.1256371503
 51
186.8743628497
  0
ARC
  8
0
 62
7
  6
CONTINUOUS
 10
148.6137295082
 20
150.6301229508
 40
95.26
 50
209.1256371503
 51
222.8743628497
  0
ARC
  8
0
 62
7
  6
CONTINUOUS
 10
148.6137295082
 20
150.6301229508
 40
95.26
 50
245.1256371503
 51
258.8743628497
  0
ARC
  8
0
 62
7
  6
CONTINUOUS
 10
148.6137295082
 20
150.6301229508
 40
95.26
 50
281.1256371503
 51
294.8743628497
  0
ARC
  8
0
 62
7
  6
CONTINUOUS
 10
148.6137295082
 20
150.6301229508
 40
95.26
 50
317.1256371503
 51
330.8743628497
  0
ARC
  8
0
 62
7
  6
CONTINUOUS
 10
148.6137295082
 20
150.6301229508
 40
95.26
 50
353.1256371503
 51
6.8743628497
  0
ARC
  8
0
 62
7
  6
CONTINUOUS
 10
148.6137295082
 20
150.6301229508
 40
95.26
 50
29.1256371503
 51
42.8743628497
  0
ARC
  8
0
 62
7
  6
CONTINUOUS
 10
148.6137295082
 20
150.6301229508
 40
95.26
 50
65.1256371503
 51
78.8743628497
  0
ARC
  8
0
 62
9
  6
CONTINUOUS
 10
148.6137295082
 20
150.6301229508
 40
93.26
 50
209.1256371503
 51
222.8743628497
  0
ARC
  8
0
 62
9
  6
CONTINUOUS
 10
148.6137295082
 20
150.6301229508
 40
93.26
 50
173.1256371503
 51
186.8743628497
  0
ARC
  8
0
 62
9
  6
CONTINUOUS
 10
148.6137295082
 20
150.6301229508
 40
93.26
 50
137.1256371503
 51
150.8743628497
  0
ARC
  8
0
 62
9
  6
CONTINUOUS
 10
148.6137295082
 20
150.6301229508
 40
93.26
 50
101.1256371503
 51
114.8743628497
  0
ARC
  8
0
 62
9
  6
CONTINUOUS
 10
148.6137295082
 20
150.6301229508
 40
93.26
 50
65.1256371503
 51
78.8743628497
  0
ARC
  8
0
 62
9
  6
CONTINUOUS
 10
148.6137295082
 20
150.6301229508
 40
93.26
 50
29.1256371503
 51
42.8743628497
  0
ARC
  8
0
 62
9
  6
CONTINUOUS
 10
148.6137295082
 20
150.6301229508
 40
93.26
 50
353.1256371503
 51
6.8743628497
  0
ARC
  8
0
 62
9
  6
CONTINUOUS
 10
148.6137295082
 20
150.6301229508
 40
93.26
 50
317.1256371503
 51
330.8743628497
  0
ARC
  8
0
 62
9
  6
CONTINUOUS
 10
148.6137295082
 20
150.6301229508
 40
93.26
 50
281.1256371503
 51
294.8743628497
  0
ARC
  8
0
 62
9
  6
CONTINUOUS
 10
148.6137295082
 20
150.6301229508
 40
93.26
 50
245.1256371503
 51
258.8743628497
  0
CIRCLE
  8
1_AXIS
 62
9
  6
CONTINUOUS
 10
148.6137295082
 20
150.6301229508
 40
42.5
  0
CIRCLE
  8
1_AXIS
 62
7
  6
CONTINUOUS
 10
148.6137295082
 20
150.6301229508
 40
37.5
  0
CIRCLE
  8
1_AXIS
 62
9
  6
CONTINUOUS
 10
148.6137295082
 20
150.6301229508
 40
35.5
  0
CIRCLE
  8
0
 62
7
  6
CONTINUOUS
 10
148.6137295082
 20
205.6301229508
 40
2.5980762114
  0
ARC
  8
0
 62
9
  6
CONTINUOUS
 10
169.3107295082
 20
255.8743236984
 40
14.0
 50
192.0
 51
258.8743628497
  0
ARC
  8
0
 62
9
  6
CONTINUOUS
 10
193.7304938644
 20
247.9398612817
 40
14.0
 50
245.1256371503
 51
312.0
  0
ARC
  8
0
 62
7
  6
CONTINUOUS
 10
169.3107295082
 20
255.8743236984
 40
12.0
 50
192.0
 51
258.8743628497
  0
ARC
  8
0
 62
7
  6
CONTINUOUS
 10
193.7304938644
 20
247.9398612817
 40
12.0
 50
245.1256371503
 51
312.0
  0
ARC
  8
0
 62
7
  6
CONTINUOUS
 10
153.6262517977
 20
262.3277089601
 40
2.0
 50
12.0
 51
87.4305280396
  0
ARC
  8
0
 62
9
  6
CONTINUOUS
 10
242.3111876989
 20
202.836386259
 40
14.0
 50
209.1256371503
 51
276.0
  0
ARC
  8
0
 62
9
  6
CONTINUOUS
 10
255.1026371641
 20
163.4683528235
 40
14.0
 50
120.0
 51
186.8743628497
  0
ARC
  8
0
 62
7
  6
CONTINUOUS
 10
255.1026371641
 20
163.4683528235
 40
12.0
 50
120.0
 51
186.8743628497
  0
ARC
  8
0
 62
7
  6
CONTINUOUS
 10
242.3111876989
 20
202.836386259
 40
12.0
 50
209.1256371503
 51
276.0
  0
ARC
  8
0
 62
7
  6
CONTINUOUS
 10
256.3934011089
 20
180.3793832718
 40
2.0
 50
300.0
 51
15.4305280396
  0
ARC
  8
0
 62
7
  6
CONTINUOUS
 10
253.2954919646
 20
189.9137672449
 40
2.0
 50
20.5694719604
 51
96.0
  0
ARC
  8
0
 62
9
  6
CONTINUOUS
 10
227.2189433295
 20
223.6090785483
 40
14.0
 50
156.0
 51
222.8743628497
  0
ARC
  8
0
 62
7
  6
CONTINUOUS
 10
227.2189433295
 20
223.6090785483
 40
12.0
 50
156.0
 51
222.8743628497
  0
ARC
  8
0
 62
7
  6
CONTINUOUS
 10
210.2127075642
 20
243.9416549416
 40
2.0
 50
56.5694719604
 51
132.0
  0
ARC
  8
0
 62
7
  6
CONTINUOUS
 10
218.323138998
 20
238.0490815844
 40
2.0
 50
336.0
 51
51.4305280396
  0
ARC
  8
1_AXIS
 62
7
  6
CONTINUOUS
 10
316.4805327869
 20
108.1301229508
 40
5.0
 50
0.0
 51
90.0
  0
ARC
  8
1_AXIS
 62
7
  6
CONTINUOUS
 10
326.4805327869
 20
44.8780303865
 40
5.0
 50
180.0
 51
190.9210994647
  0
ARC
  8
0
 62
7
  6
CONTINUOUS
 10
324.59408049
 20
38.8201229508
 40
2.0
 50
190.9210994647
 51
270.0
  0
ARC
  8
1_AXIS
 62
7
  6
CONTINUOUS
 10
310.3305327869
 20
115.1301229508
 40
2.0
 50
180.0
 51
270.0
  0
ARC
  8
1_AXIS
 62
7
  6
CONTINUOUS
 10
316.4805327869
 20
193.1301229508
 40
5.0
 50
270.0
 51
360.0
  0
ARC
  8
1_AXIS
 62
7
  6
CONTINUOUS
 10
326.4805327869
 20
256.3822155152
 40
5.0
 50
169.0789005353
 51
180.0
  0
ARC
  8
0
 62
7
  6
CONTINUOUS
 10
324.59408049
 20
262.4401229508
 40
2.0
 50
90.0
 51
169.0789005353
  0
ARC
  8
1_AXIS
 62
7
  6
CONTINUOUS
 10
310.3305327869
 20
186.1301229508
 40
2.0
 50
90.0
 51
180.0
  0
ARC
  8
1_AXIS
 62
7
  6
CONTINUOUS
 10
332.4805327869
 20
44.8201229508
 40
5.0
 50
350.0
 51
359.9999955622
  0
ARC
  8
1_AXIS
 62
7
  6
CONTINUOUS
 10
342.4805327869
 20
108.1301229508
 40
5.0
 50
90.0
 51
180.0
  0
ARC
  8
0
 62
7
  6
CONTINUOUS
 10
334.4688507383
 20
38.8201229508
 40
2.0
 50
270.0
 51
350.0
  0
ARC
  8
1_AXIS
 62
7
  6
CONTINUOUS
 10
348.6305327869
 20
115.1301229508
 40
2.0
 50
270.0
 51
360.0
  0
ARC
  8
1_AXIS
 62
7
  6
CONTINUOUS
 10
332.4805327869
 20
256.4401229508
 40
5.0
 50
0.0000020771
 51
10.0
  0
ARC
  8
1_AXIS
 62
7
  6
CONTINUOUS
 10
342.4805327869
 20
193.1301229508
 40
5.0
 50
201.4097155993
 51
270.0
  0
ARC
  8
0
 62
7
  6
CONTINUOUS
 10
334.4688507383
 20
262.4401229508
 40
2.0
 50
10.0
 51
90.0
  0
ARC
  8
1_AXIS
 62
7
  6
CONTINUOUS
 10
348.6305327869
 20
186.1301229508
 40
2.0
 50
0.0
 51
90.0
  0
ENDSEC
  0
EOF
