  0
SECTION
  2
HEADER
  9
$EXTMAX
 10
420.0
 20
297.0
 30
0.0
  9
$EXTMIN
 10
0.0
 20
0.0
 30
0.0
  9
$LIMMIN
 10
0.0
 20
0.0
  9
$LIMMAX
 10
420.0
 20
297.0
  9
$VIEWCTR
 10
210.0
 20
148.5
  9
$VIEWSIZE
 40
297.0
  9
$CLAYER
  8
0
  9
$LTSCALE
 40
23.1
  9
$CELTYPE
  6
BYLAYER
  9
$DIMSCALE
 40
1.0
  9
$DIMASZ
 40
3.5
  9
$DIMEXO
 40
1.0
  9
$DIMDLI
 40
15.96
  9
$DIMEXE
 40
2.0
  9
$DIMCEN
 40
3.78
  9
$DIMLFAC
 40
1.0
  9
$DIMBLK
  1
_FILLED
  9
$DIMTXT
 40
3.5
  9
$PDMODE
 70
3
  9
$PDSIZE
 40
0.3125
  9
$TILEMODE
 70
1
  0
ENDSEC
  0
SECTION
  2
TABLES
  0
TABLE
  2
LTYPE
 70
6
  0
LTYPE
  2
BYBLOCK
 70
0
  3

 72
65
 73
0
 40
0.0
  0
LTYPE
  2
BYLAYER
 70
0
  3

 72
65
 73
0
 40
0.0
  0
LTYPE
  2
CONTINUOUS
 70
64
  3
Solid line
 72
65
 73
0
 40
0.0
  0
LTYPE
  2
CENTER
 70
64
  3
____ _ ____ _ ____ _ ____ _ ____ _ ____ _ ____
 72
65
 73
4
 40
0.6
 49
0.375
 49
-0.075
 49
0.075
 49
-0.075
  0
LTYPE
  2
HIDDEN
 70
64
  3
- - - - - - - - - - - - - - - - - - - -
 72
65
 73
2
 40
0.2
 49
0.1
 49
-0.1
  0
LTYPE
  2
PHANTOM
 70
64
  3
_____ _ _ _____ _ _ _____ _ _ _____
 72
65
 73
6
 40
0.8
 49
0.45
 49
-0.05
 49
0.1
 49
-0.05
 49
0.1
 49
-0.05
  0
LTYPE
  2
DOT
 70
64
  3
. . . . . . . . . . . . . . . . . . . .
 72
65
 73
2
 40
0.2
 49
0.1
 49
-0.1
  0
LTYPE
  2
DASHED
 70
64
  3
- - - - - - - - - - - - - - - - - - - -
 72
65
 73
2
 40
0.2
 49
0.1
 49
-0.1
  0
ENDTAB
  0
TABLE
  2
LAYER
 70
36
  0
LAYER
  2
0
 70
0
 62
7
  6
CONTINUOUS
  0
LAYER
  2
DEFAULT_1
 70
0
 62
7
  6
CENTER
  0
LAYER
  2
DEFAULT_2
 70
0
 62
8
  6
HIDDEN
  0
LAYER
  2
DEFAULT_3
 70
0
 62
7
  6
PHANTOM
  0
LAYER
  2
1_AXIS
 70
0
 62
7
  6
CONTINUOUS
  0
LAYER
  2
1_DATUM_PLANE
 70
0
 62
7
  6
CONTINUOUS
  0
LAYER
  2
2_FEATURE
 70
0
 62
7
  6
CONTINUOUS
  0
LAYER
  2
4_QUILT
 70
0
 62
7
  6
CONTINUOUS
  0
LAYER
  2
6_DIM
 70
0
 62
7
  6
CONTINUOUS
  0
LAYER
  2
AXES
 70
0
 62
7
  6
CONTINUOUS
  0
LAYER
  2
CSYS
 70
0
 62
7
  6
CONTINUOUS
  0
LAYER
  2
CURVES
 70
0
 62
7
  6
CONTINUOUS
  0
LAYER
  2
NOTES
 70
0
 62
7
  6
CONTINUOUS
  0
LAYER
  2
PLANES
 70
0
 62
7
  6
CONTINUOUS
  0
LAYER
  2
QUILTS
 70
0
 62
7
  6
CONTINUOUS
  0
ENDTAB
  0
TABLE
  2
STYLE
 70
1
  0
STYLE
  2
STANDARD
 70
0
 40
0.0
 41
0.8
 50
0.0
 71
0
 42
0.2
  3
txt
  4

  0
STYLE
  2
TEXTSTYLE_1
 70
0
 40
0.0
 41
0.8
 50
0.0
 71
0
 42
0.2
  3
gdt
  4

  0
STYLE
  2
TEXTSTYLE_2
 70
0
 40
0.0
 41
0.6
 50
0.0
 71
0
 42
0.2
  3
txt
  4

  0
STYLE
  2
TEXTSTYLE_3
 70
0
 40
0.0
 41
1.0
 50
0.0
 71
0
 42
0.2
  3
ftb_____.ttf
  4

  0
STYLE
  2
TEXTSTYLE_4
 70
0
 40
0.0
 41
1.0
 50
0.0
 71
0
 42
0.2
  3
fti_____.ttf
  4

  0
STYLE
  2
TEXTSTYLE_5
 70
0
 40
0.0
 41
1.0
 50
0.0
 71
0
 42
0.2
  3
frutiger light.ttf
  4

  0
STYLE
  2
TEXTSTYLE_6
 70
0
 40
0.0
 41
0.7
 50
0.0
 71
0
 42
0.2
  3
txt
  4

  0
STYLE
  2
TEXTSTYLE_7
 70
0
 40
0.0
 41
0.8
 50
0.0
 71
0
 42
0.2
  3
txt
  4

  0
ENDTAB
  0
ENDSEC
  0
SECTION
  2
BLOCKS
  0
BLOCK
  8
0
 62
2
  6
CONTINUOUS
  2
SYMBOL_5_BL1
 70
64
 10
382.3920721743
 20
35.81661148
  0
TEXT
  8
0
 62
7
  6
CONTINUOUS
 10
373.4503571828
 20
30.9093678571
  7
TEXTSTYLE_4
 40
1.0655737705
  1
The brand for plastic modular belts and chains
 41
1.0
 72
0
  0
LINE
  8
0
 62
7
  6
CONTINUOUS
 10
358.3701405634
 20
36.3903819718
 11
358.3701405634
 21
34.2592344308
  0
LINE
  8
0
 62
7
  6
CONTINUOUS
 10
358.6592030565
 20
31.2683031351
 11
358.6592030565
 21
31.3650941944
  0
LINE
  8
0
 62
7
  6
CONTINUOUS
 10
358.3701405634
 20
31.332830508
 11
358.4279530651
 21
31.1392483894
  0
LINE
  8
0
 62
7
  6
CONTINUOUS
 10
359.7635831863
 20
34.1772672177
 11
359.7635831863
 21
36.3903819718
  0
LINE
  8
0
 62
7
  6
CONTINUOUS
 10
360.6826405082
 20
32.3330049227
 11
360.6826405082
 21
30.81661148
  0
LINE
  8
0
 62
7
  6
CONTINUOUS
 10
360.9717030634
 20
30.81661148
 11
360.9717030634
 21
31.5586763581
  0
LINE
  8
0
 62
7
  6
CONTINUOUS
 10
360.9717030634
 20
31.6877311038
 11
360.9717030634
 21
32.3330049227
  0
LINE
  8
0
 62
7
  6
CONTINUOUS
 10
358.4279530651
 20
31.5264126717
 11
358.3701405634
 21
31.332830508
  0
LINE
  8
0
 62
7
  6
CONTINUOUS
 10
358.7748280496
 20
31.106984703
 11
358.6592030565
 21
31.2683031351
  0
LINE
  8
0
 62
7
  6
CONTINUOUS
 10
359.8732656185
 20
31.623203731
 11
359.9310780634
 21
31.5264126717
  0
LINE
  8
0
 62
7
  6
CONTINUOUS
 10
360.2201406185
 20
31.5264126717
 11
360.1623280082
 21
31.6554674174
  0
LINE
  8
0
 62
7
  6
CONTINUOUS
 10
361.648829088
 20
36.3903819718
 11
361.648829088
 21
34.5871032833
  0
LINE
  8
0
 62
7
  6
CONTINUOUS
 10
361.648829088
 20
33.2756278735
 11
361.648829088
 21
32.6198901686
  0
LINE
  8
0
 62
7
  6
CONTINUOUS
 10
362.0123280634
 20
31.4618852989
 11
362.0123280634
 21
30.81661148
  0
LINE
  8
0
 62
7
  6
CONTINUOUS
 10
362.3013904531
 20
30.81661148
 11
362.3013904531
 21
31.4618852989
  0
LINE
  8
0
 62
7
  6
CONTINUOUS
 10
358.6592030565
 20
31.3650941944
 11
358.7170155634
 21
31.4941489853
  0
LINE
  8
0
 62
7
  6
CONTINUOUS
 10
358.4279530651
 20
31.1392483894
 11
358.5435780634
 21
31.0101936212
  0
LINE
  8
0
 62
7
  6
CONTINUOUS
 10
361.9545154531
 20
31.5909400446
 11
362.0123280634
 21
31.4618852989
  0
LINE
  8
0
 62
7
  6
CONTINUOUS
 10
362.7638906736
 20
31.106984703
 11
362.8217029531
 21
30.9779299347
  0
LINE
  8
0
 62
7
  6
CONTINUOUS
 10
362.3013904531
 20
31.4618852989
 11
362.2435781736
 21
31.623203731
  0
LINE
  8
0
 62
7
  6
CONTINUOUS
 10
362.7638906736
 20
31.6554674174
 11
362.7638906736
 21
31.5909400446
  0
LINE
  8
0
 62
7
  6
CONTINUOUS
 10
362.7638906736
 20
31.2037757623
 11
362.7638906736
 21
31.106984703
  0
LINE
  8
0
 62
7
  6
CONTINUOUS
 10
363.0422717109
 20
32.6198901686
 11
363.0422717109
 21
36.3903819718
  0
LINE
  8
0
 62
7
  6
CONTINUOUS
 10
363.0529530634
 20
31.074720994
 11
363.0529530634
 21
31.1392483894
  0
LINE
  8
0
 62
7
  6
CONTINUOUS
 10
363.3701405634
 20
36.3903819718
 11
363.3701405634
 21
32.6198901686
  0
LINE
  8
0
 62
7
  6
CONTINUOUS
 10
360.1623280082
 20
31.0101936212
 11
360.2201406185
 21
31.1392483894
  0
LINE
  8
0
 62
7
  6
CONTINUOUS
 10
364.5560782839
 20
30.9134025506
 11
364.4982653428
 21
31.074720994
  0
LINE
  8
0
 62
7
  6
CONTINUOUS
 10
364.2092032839
 20
31.5909400446
 11
364.2092032839
 21
31.4941489853
  0
LINE
  8
0
 62
7
  6
CONTINUOUS
 10
364.2092032839
 20
31.3650941944
 11
364.2092032839
 21
31.1715120759
  0
LINE
  8
0
 62
7
  6
CONTINUOUS
 10
364.4982653428
 20
31.074720994
 11
364.4982653428
 21
31.5909400446
  0
LINE
  8
0
 62
7
  6
CONTINUOUS
 10
364.7635831863
 20
32.6198901686
 11
364.7635831863
 21
34.4231688571
  0
LINE
  8
0
 62
7
  6
CONTINUOUS
 10
364.7635831863
 20
35.7346442669
 11
364.7635831863
 21
36.3903819718
  0
LINE
  8
0
 62
7
  6
CONTINUOUS
 10
365.0763907839
 20
32.3330049227
 11
365.0763907839
 21
32.1716864905
  0
LINE
  8
0
 62
7
  6
CONTINUOUS
 10
365.0763907839
 20
31.8490495359
 11
365.0763907839
 21
30.81661148
  0
LINE
  8
0
 62
7
  6
CONTINUOUS
 10
365.3654528428
 20
30.81661148
 11
365.3654528428
 21
31.8490495359
  0
LINE
  8
0
 62
7
  6
CONTINUOUS
 10
365.3654528428
 20
32.1716864905
 11
365.3654528428
 21
32.3330049227
  0
LINE
  8
0
 62
7
  6
CONTINUOUS
 10
359.9310780634
 20
31.1392483894
 11
359.8732656185
 21
31.0424573076
  0
LINE
  8
0
 62
7
  6
CONTINUOUS
 10
362.2435781736
 20
31.623203731
 11
362.1857655634
 21
31.6877311038
  0
LINE
  8
0
 62
7
  6
CONTINUOUS
 10
363.1107656736
 20
31.0101936212
 11
363.0529530634
 21
31.074720994
  0
LINE
  8
0
 62
7
  6
CONTINUOUS
 10
364.2670155634
 20
30.8811388585
 11
364.3248278428
 21
30.81661148
  0
LINE
  8
0
 62
7
  6
CONTINUOUS
 10
364.2092032839
 20
30.9779299347
 11
364.2670155634
 21
30.8811388585
  0
LINE
  8
0
 62
7
  6
CONTINUOUS
 10
364.6138905634
 20
30.81661148
 11
364.5560782839
 21
30.9134025506
  0
LINE
  8
0
 62
7
  6
CONTINUOUS
 10
364.4982653428
 20
31.5909400446
 11
364.4404530634
 21
31.6877311038
  0
LINE
  8
0
 62
7
  6
CONTINUOUS
 10
365.8279530634
 20
31.8490495359
 11
365.8279530634
 21
30.81661148
  0
LINE
  8
0
 62
7
  6
CONTINUOUS
 10
366.1170157839
 20
30.81661148
 11
366.1170157839
 21
31.5586763581
  0
LINE
  8
0
 62
7
  6
CONTINUOUS
 10
366.1170157839
 20
31.6877311038
 11
366.1170157839
 21
31.8490495359
  0
LINE
  8
0
 62
7
  6
CONTINUOUS
 10
366.648829088
 20
34.8330049227
 11
366.648829088
 21
32.6198901686
  0
LINE
  8
0
 62
7
  6
CONTINUOUS
 10
358.5435780634
 20
31.6554674174
 11
358.4279530651
 21
31.5264126717
  0
LINE
  8
0
 62
7
  6
CONTINUOUS
 10
358.7170155634
 20
31.4941489853
 11
358.7748280496
 21
31.5586763581
  0
LINE
  8
0
 62
7
  6
CONTINUOUS
 10
358.5435780634
 20
31.0101936212
 11
358.6592030565
 21
30.945666237
  0
LINE
  8
0
 62
7
  6
CONTINUOUS
 10
358.9482655496
 20
31.0101936212
 11
358.7748280496
 21
31.106984703
  0
LINE
  8
0
 62
7
  6
CONTINUOUS
 10
364.1513903428
 20
31.6554674174
 11
364.2092032839
 21
31.5909400446
  0
LINE
  8
0
 62
7
  6
CONTINUOUS
 10
367.0998278428
 20
31.5909400446
 11
367.1576407839
 21
31.4296216124
  0
LINE
  8
0
 62
7
  6
CONTINUOUS
 10
367.4467028428
 20
31.4296216124
 11
367.3888905634
 21
31.5909400446
  0
LINE
  8
0
 62
7
  6
CONTINUOUS
 10
367.1576407839
 20
31.4296216124
 11
367.1576407839
 21
30.81661148
  0
LINE
  8
0
 62
7
  6
CONTINUOUS
 10
367.4467028428
 20
30.81661148
 11
367.4467028428
 21
31.4296216124
  0
LINE
  8
0
 62
7
  6
CONTINUOUS
 10
367.9092030634
 20
31.6554674174
 11
367.9092030634
 21
31.5909400446
  0
LINE
  8
0
 62
7
  6
CONTINUOUS
 10
368.0422717109
 20
32.6198901686
 11
368.0422717109
 21
34.7510377095
  0
LINE
  8
0
 62
7
  6
CONTINUOUS
 10
368.3701405634
 20
36.3903819718
 11
368.3701405634
 21
32.6198901686
  0
LINE
  8
0
 62
7
  6
CONTINUOUS
 10
363.0529530634
 20
31.1392483894
 11
363.1107656736
 21
31.2360394487
  0
LINE
  8
0
 62
7
  6
CONTINUOUS
 10
358.6592030565
 20
30.945666237
 11
358.8326405772
 21
30.8811388585
  0
LINE
  8
0
 62
7
  6
CONTINUOUS
 10
360.1623280082
 20
31.6554674174
 11
359.9888905082
 21
31.7522584767
  0
LINE
  8
0
 62
7
  6
CONTINUOUS
 10
362.8217029531
 20
30.9779299347
 11
362.9951404531
 21
30.8811388585
  0
LINE
  8
0
 62
7
  6
CONTINUOUS
 10
361.8388905634
 20
31.6554674174
 11
361.9545154531
 21
31.5909400446
  0
LINE
  8
0
 62
7
  6
CONTINUOUS
 10
362.1857655634
 20
31.6877311038
 11
362.0701406736
 21
31.7522584767
  0
LINE
  8
0
 62
7
  6
CONTINUOUS
 10
367.9092030634
 20
31.074720994
 11
368.0248282839
 21
30.945666237
  0
LINE
  8
0
 62
7
  6
CONTINUOUS
 10
368.2560780634
 20
31.0101936212
 11
368.1982657839
 21
31.074720994
  0
LINE
  8
0
 62
7
  6
CONTINUOUS
 10
367.9092030634
 20
31.5909400446
 11
368.0248282839
 21
31.4618852989
  0
LINE
  8
0
 62
7
  6
CONTINUOUS
 10
367.3888905634
 20
31.5909400446
 11
367.3310782839
 21
31.6877311038
  0
LINE
  8
0
 62
7
  6
CONTINUOUS
 10
369.7592026223
 20
31.0101936212
 11
369.7592026223
 21
31.074720994
  0
LINE
  8
0
 62
7
  6
CONTINUOUS
 10
369.7635831863
 20
32.6198901686
 11
369.7635831863
 21
36.3903819718
  0
LINE
  8
0
 62
7
  6
CONTINUOUS
 10
362.8217029531
 20
31.7199947902
 11
362.7638906736
 21
31.6554674174
  0
LINE
  8
0
 62
7
  6
CONTINUOUS
 10
359.6998280358
 20
31.6877311038
 11
359.8732656185
 21
31.623203731
  0
LINE
  8
0
 62
7
  6
CONTINUOUS
 10
364.4404530634
 20
31.6877311038
 11
364.3248278428
 21
31.7522584767
  0
LINE
  8
0
 62
7
  6
CONTINUOUS
 10
368.2560780634
 20
31.5264126717
 11
368.1982657839
 21
31.5909400446
  0
LINE
  8
0
 62
7
  6
CONTINUOUS
 10
369.4123282839
 20
31.1392483894
 11
369.4701405634
 21
31.074720994
  0
LINE
  8
0
 62
7
  6
CONTINUOUS
 10
369.7592026223
 20
31.074720994
 11
369.6435780634
 21
31.2037757623
  0
LINE
  8
0
 62
7
  6
CONTINUOUS
 10
369.4123282839
 20
31.6554674174
 11
369.4701405634
 21
31.5909400446
  0
LINE
  8
0
 62
7
  6
CONTINUOUS
 10
369.7592026223
 20
31.5909400446
 11
369.6435780634
 21
31.7199947902
  0
LINE
  8
0
 62
7
  6
CONTINUOUS
 10
363.0529530634
 20
31.5909400446
 11
363.1107656736
 21
31.6554674174
  0
LINE
  8
0
 62
7
  6
CONTINUOUS
 10
362.8795155634
 20
31.332830508
 11
362.7638906736
 21
31.2037757623
  0
LINE
  8
0
 62
7
  6
CONTINUOUS
 10
364.2092032839
 20
31.1715120759
 11
364.1513903428
 21
31.106984703
  0
LINE
  8
0
 62
7
  6
CONTINUOUS
 10
364.1513903428
 20
30.9134025506
 11
364.2092032839
 21
30.9779299347
  0
LINE
  8
0
 62
7
  6
CONTINUOUS
 10
362.9951404531
 20
30.8811388585
 11
363.1107656736
 21
30.8488751693
  0
LINE
  8
0
 62
7
  6
CONTINUOUS
 10
359.9888905082
 20
31.7522584767
 11
359.7576405634
 21
31.8167858495
  0
LINE
  8
0
 62
7
  6
CONTINUOUS
 10
363.3420154531
 20
30.945666237
 11
363.1107656736
 21
31.0101936212
  0
LINE
  8
0
 62
7
  6
CONTINUOUS
 10
362.0701406736
 20
31.7522584767
 11
361.8967031736
 21
31.8167858495
  0
LINE
  8
0
 62
7
  6
CONTINUOUS
 10
364.3248278428
 20
31.7522584767
 11
364.1513903428
 21
31.8167858495
  0
LINE
  8
0
 62
7
  6
CONTINUOUS
 10
366.9842032839
 20
31.6554674174
 11
367.0998278428
 21
31.5909400446
  0
LINE
  8
0
 62
7
  6
CONTINUOUS
 10
367.3310782839
 20
31.6877311038
 11
367.2154530634
 21
31.7522584767
  0
LINE
  8
0
 62
7
  6
CONTINUOUS
 10
358.8326405772
 20
30.8811388585
 11
359.0060780772
 21
30.8488751693
  0
LINE
  8
0
 62
7
  6
CONTINUOUS
 10
359.2951405909
 20
30.945666237
 11
358.9482655496
 21
31.0101936212
  0
LINE
  8
0
 62
7
  6
CONTINUOUS
 10
361.7232656736
 20
31.6877311038
 11
361.8388905634
 21
31.6554674174
  0
LINE
  8
0
 62
7
  6
CONTINUOUS
 10
364.0357657839
 20
31.6877311038
 11
364.1513903428
 21
31.6554674174
  0
LINE
  8
0
 62
7
  6
CONTINUOUS
 10
368.3717032839
 20
30.9779299347
 11
368.2560780634
 21
31.0101936212
  0
LINE
  8
0
 62
7
  6
CONTINUOUS
 10
366.8685780634
 20
31.6877311038
 11
366.9842032839
 21
31.6554674174
  0
LINE
  8
0
 62
7
  6
CONTINUOUS
 10
368.0248282839
 20
30.945666237
 11
368.1982657839
 21
30.8811388585
  0
LINE
  8
0
 62
7
  6
CONTINUOUS
 10
367.2154530634
 20
31.7522584767
 11
367.0420155634
 21
31.8167858495
  0
LINE
  8
0
 62
7
  6
CONTINUOUS
 10
368.4295155634
 20
31.4618852989
 11
368.2560780634
 21
31.5264126717
  0
LINE
  8
0
 62
7
  6
CONTINUOUS
 10
369.2388907839
 20
31.2037757623
 11
369.4123282839
 21
31.1392483894
  0
LINE
  8
0
 62
7
  6
CONTINUOUS
 10
369.6435780634
 20
31.7199947902
 11
369.4701405634
 21
31.7845221631
  0
LINE
  8
0
 62
7
  6
CONTINUOUS
 10
368.0248282839
 20
31.4618852989
 11
368.2560780634
 21
31.3650941944
  0
LINE
  8
0
 62
7
  6
CONTINUOUS
 10
369.6435780634
 20
31.2037757623
 11
369.4123282839
 21
31.3005668216
  0
LINE
  8
0
 62
7
  6
CONTINUOUS
 10
368.1982657839
 20
31.5909400446
 11
368.2560780634
 21
31.6554674174
  0
LINE
  8
0
 62
7
  6
CONTINUOUS
 10
358.6592030565
 20
31.7199947902
 11
358.5435780634
 21
31.6554674174
  0
LINE
  8
0
 62
7
  6
CONTINUOUS
 10
358.7748280496
 20
31.5586763581
 11
358.9482655496
 21
31.6554674174
  0
LINE
  8
0
 62
7
  6
CONTINUOUS
 10
361.0873281185
 20
31.7522584767
 11
360.9717030634
 21
31.6877311038
  0
LINE
  8
0
 62
7
  6
CONTINUOUS
 10
360.9717030634
 20
31.5586763581
 11
361.0873281185
 21
31.623203731
  0
LINE
  8
0
 62
7
  6
CONTINUOUS
 10
359.9888905082
 20
30.9134025506
 11
360.1623280082
 21
31.0101936212
  0
LINE
  8
0
 62
7
  6
CONTINUOUS
 10
359.0060780772
 20
30.8488751693
 11
359.3529530358
 21
30.81661148
  0
LINE
  8
0
 62
7
  6
CONTINUOUS
 10
363.1107656736
 20
30.8488751693
 11
363.3420154531
 21
30.81661148
  0
LINE
  8
0
 62
7
  6
CONTINUOUS
 10
361.4920155634
 20
31.7199947902
 11
361.7232656736
 21
31.6877311038
  0
LINE
  8
0
 62
7
  6
CONTINUOUS
 10
363.8045156736
 20
31.7199947902
 11
364.0357657839
 21
31.6877311038
  0
LINE
  8
0
 62
7
  6
CONTINUOUS
 10
368.2560780634
 20
31.3650941944
 11
369.2388907839
 21
31.2037757623
  0
LINE
  8
0
 62
7
  6
CONTINUOUS
 10
369.4123282839
 20
31.3005668216
 11
368.4295155634
 21
31.4618852989
  0
LINE
  8
0
 62
7
  6
CONTINUOUS
 10
361.8967031736
 20
31.8167858495
 11
361.7232656736
 21
31.8490495359
  0
LINE
  8
0
 62
7
  6
CONTINUOUS
 10
368.1982657839
 20
30.8811388585
 11
368.3717032839
 21
30.8488751693
  0
LINE
  8
0
 62
7
  6
CONTINUOUS
 10
367.0420155634
 20
31.8167858495
 11
366.8685780634
 21
31.8490495359
  0
LINE
  8
0
 62
7
  6
CONTINUOUS
 10
369.2967030634
 20
31.6877311038
 11
369.4123282839
 21
31.6554674174
  0
LINE
  8
0
 62
7
  6
CONTINUOUS
 10
369.4701405634
 20
31.074720994
 11
369.4123282839
 21
31.0101936212
  0
LINE
  8
0
 62
7
  6
CONTINUOUS
 10
368.0248282839
 20
31.7522584767
 11
367.9092030634
 21
31.6554674174
  0
LINE
  8
0
 62
7
  6
CONTINUOUS
 10
362.9373281736
 20
31.7845221631
 11
362.8217029531
 21
31.7199947902
  0
LINE
  8
0
 62
7
  6
CONTINUOUS
 10
362.9951404531
 20
31.397357926
 11
362.8795155634
 21
31.332830508
  0
LINE
  8
0
 62
7
  6
CONTINUOUS
 10
363.1107656736
 20
31.2360394487
 11
363.2263905634
 21
31.3005668216
  0
LINE
  8
0
 62
7
  6
CONTINUOUS
 10
360.6826405082
 20
30.81661148
 11
360.9717030634
 21
30.81661148
  0
LINE
  8
0
 62
7
  6
CONTINUOUS
 10
362.0123280634
 20
30.81661148
 11
362.3013904531
 21
30.81661148
  0
LINE
  8
0
 62
7
  6
CONTINUOUS
 10
363.3420154531
 20
30.81661148
 11
363.6888904531
 21
30.81661148
  0
LINE
  8
0
 62
7
  6
CONTINUOUS
 10
364.3248278428
 20
30.81661148
 11
364.6138905634
 21
30.81661148
  0
LINE
  8
0
 62
7
  6
CONTINUOUS
 10
365.0763907839
 20
30.81661148
 11
365.3654528428
 21
30.81661148
  0
LINE
  8
0
 62
7
  6
CONTINUOUS
 10
365.8279530634
 20
30.81661148
 11
366.1170157839
 21
30.81661148
  0
LINE
  8
0
 62
7
  6
CONTINUOUS
 10
367.1576407839
 20
30.81661148
 11
367.4467028428
 21
30.81661148
  0
LINE
  8
0
 62
7
  6
CONTINUOUS
 10
368.7185782839
 20
30.81661148
 11
369.0654532839
 21
30.81661148
  0
LINE
  8
0
 62
7
  6
CONTINUOUS
 10
369.0654532839
 20
30.945666237
 11
368.7185782839
 21
30.945666237
  0
LINE
  8
0
 62
7
  6
CONTINUOUS
 10
363.6888904531
 20
30.945666237
 11
363.3420154531
 21
30.945666237
  0
LINE
  8
0
 62
7
  6
CONTINUOUS
 10
368.1982657839
 20
31.074720994
 11
367.9092030634
 21
31.074720994
  0
LINE
  8
0
 62
7
  6
CONTINUOUS
 10
360.2201406185
 20
31.1392483894
 11
359.9310780634
 21
31.1392483894
  0
LINE
  8
0
 62
7
  6
CONTINUOUS
 10
359.2951405909
 20
31.7199947902
 11
359.6998280358
 21
31.6877311038
  0
LINE
  8
0
 62
7
  6
CONTINUOUS
 10
359.7576405634
 20
31.8167858495
 11
359.3529530358
 21
31.8490495359
  0
LINE
  8
0
 62
7
  6
CONTINUOUS
 10
368.3717032839
 20
30.8488751693
 11
368.7185782839
 21
30.81661148
  0
LINE
  8
0
 62
7
  6
CONTINUOUS
 10
368.7185782839
 20
30.945666237
 11
368.3717032839
 21
30.9779299347
  0
LINE
  8
0
 62
7
  6
CONTINUOUS
 10
364.1513903428
 20
31.8167858495
 11
363.8045156736
 21
31.8490495359
  0
LINE
  8
0
 62
7
  6
CONTINUOUS
 10
368.9498280634
 20
31.7199947902
 11
369.2967030634
 21
31.6877311038
  0
LINE
  8
0
 62
7
  6
CONTINUOUS
 10
369.2967030634
 20
31.8167858495
 11
368.9498280634
 21
31.8490495359
  0
LINE
  8
0
 62
7
  6
CONTINUOUS
 10
366.6373282839
 20
31.7199947902
 11
366.8685780634
 21
31.6877311038
  0
LINE
  8
0
 62
7
  6
CONTINUOUS
 10
369.4701405634
 20
31.7845221631
 11
369.2967030634
 21
31.8167858495
  0
LINE
  8
0
 62
7
  6
CONTINUOUS
 10
369.6435780634
 20
30.9134025506
 11
369.7592026223
 21
31.0101936212
  0
LINE
  8
0
 62
7
  6
CONTINUOUS
 10
364.1513903428
 20
31.106984703
 11
363.9779528428
 21
31.0101936212
  0
LINE
  8
0
 62
7
  6
CONTINUOUS
 10
366.2326403428
 20
31.7522584767
 11
366.1170157839
 21
31.6877311038
  0
LINE
  8
0
 62
7
  6
CONTINUOUS
 10
366.1170157839
 20
31.5586763581
 11
366.2326403428
 21
31.623203731
  0
LINE
  8
0
 62
7
  6
CONTINUOUS
 10
358.8326405772
 20
31.7845221631
 11
358.6592030565
 21
31.7199947902
  0
LINE
  8
0
 62
7
  6
CONTINUOUS
 10
361.2607654531
 20
31.8167858495
 11
361.0873281185
 21
31.7522584767
  0
LINE
  8
0
 62
7
  6
CONTINUOUS
 10
361.0873281185
 20
31.623203731
 11
361.2607654531
 21
31.6877311038
  0
LINE
  8
0
 62
7
  6
CONTINUOUS
 10
359.8732656185
 20
31.0424573076
 11
359.6998280358
 21
30.9779299347
  0
LINE
  8
0
 62
7
  6
CONTINUOUS
 10
369.2967030634
 20
30.9779299347
 11
369.0654532839
 21
30.945666237
  0
LINE
  8
0
 62
7
  6
CONTINUOUS
 10
363.6888904531
 20
30.81661148
 11
363.9779528428
 21
30.8488751693
  0
LINE
  8
0
 62
7
  6
CONTINUOUS
 10
369.0654532839
 20
30.81661148
 11
369.4123282839
 21
30.8488751693
  0
LINE
  8
0
 62
7
  6
CONTINUOUS
 10
359.3529530358
 20
30.81661148
 11
359.7576405634
 21
30.8488751693
  0
LINE
  8
0
 62
7
  6
CONTINUOUS
 10
359.6998280358
 20
30.9779299347
 11
359.2951405909
 21
30.945666237
  0
LINE
  8
0
 62
7
  6
CONTINUOUS
 10
363.5732655634
 20
31.3650941944
 11
364.2092032839
 21
31.3650941944
  0
LINE
  8
0
 62
7
  6
CONTINUOUS
 10
364.2092032839
 20
31.4941489853
 11
363.5732655634
 21
31.4941489853
  0
LINE
  8
0
 62
7
  6
CONTINUOUS
 10
359.9310780634
 20
31.5264126717
 11
360.2201406185
 21
31.5264126717
  0
LINE
  8
0
 62
7
  6
CONTINUOUS
 10
362.7638906736
 20
31.5909400446
 11
363.0529530634
 21
31.5909400446
  0
LINE
  8
0
 62
7
  6
CONTINUOUS
 10
369.4701405634
 20
31.5909400446
 11
369.7592026223
 21
31.5909400446
  0
LINE
  8
0
 62
7
  6
CONTINUOUS
 10
363.4576406736
 20
31.7199947902
 11
363.8045156736
 21
31.7199947902
  0
LINE
  8
0
 62
7
  6
CONTINUOUS
 10
368.6029530634
 20
31.7199947902
 11
368.9498280634
 21
31.7199947902
  0
LINE
  8
0
 62
7
  6
CONTINUOUS
 10
368.9498280634
 20
31.8490495359
 11
368.6029530634
 21
31.8490495359
  0
LINE
  8
0
 62
7
  6
CONTINUOUS
 10
366.8685780634
 20
31.8490495359
 11
366.6373282839
 21
31.8490495359
  0
LINE
  8
0
 62
7
  6
CONTINUOUS
 10
366.1170157839
 20
31.8490495359
 11
365.8279530634
 21
31.8490495359
  0
LINE
  8
0
 62
7
  6
CONTINUOUS
 10
365.3654528428
 20
31.8490495359
 11
365.0763907839
 21
31.8490495359
  0
LINE
  8
0
 62
7
  6
CONTINUOUS
 10
363.8045156736
 20
31.8490495359
 11
363.4576406736
 21
31.8490495359
  0
LINE
  8
0
 62
7
  6
CONTINUOUS
 10
361.7232656736
 20
31.8490495359
 11
361.4920155634
 21
31.8490495359
  0
LINE
  8
0
 62
7
  6
CONTINUOUS
 10
365.0763907839
 20
32.1716864905
 11
365.3654528428
 21
32.1716864905
  0
LINE
  8
0
 62
7
  6
CONTINUOUS
 10
365.3654528428
 20
32.3330049227
 11
365.0763907839
 21
32.3330049227
  0
LINE
  8
0
 62
7
  6
CONTINUOUS
 10
360.9717030634
 20
32.3330049227
 11
360.6826405082
 21
32.3330049227
  0
LINE
  8
0
 62
7
  6
CONTINUOUS
 10
360.0094848257
 20
32.6198901686
 11
360.4220561743
 21
32.6198901686
  0
LINE
  8
0
 62
7
  6
CONTINUOUS
 10
361.648829088
 20
32.6198901686
 11
363.0422717109
 21
32.6198901686
  0
LINE
  8
0
 62
7
  6
CONTINUOUS
 10
363.3701405634
 20
32.6198901686
 11
364.7635831863
 21
32.6198901686
  0
LINE
  8
0
 62
7
  6
CONTINUOUS
 10
366.648829088
 20
32.6198901686
 11
368.0422717109
 21
32.6198901686
  0
LINE
  8
0
 62
7
  6
CONTINUOUS
 10
368.3701405634
 20
32.6198901686
 11
369.7635831863
 21
32.6198901686
  0
LINE
  8
0
 62
7
  6
CONTINUOUS
 10
366.4060778428
 20
31.8167858495
 11
366.2326403428
 21
31.7522584767
  0
LINE
  8
0
 62
7
  6
CONTINUOUS
 10
363.9779528428
 20
30.8488751693
 11
364.1513903428
 21
30.9134025506
  0
LINE
  8
0
 62
7
  6
CONTINUOUS
 10
369.4123282839
 20
30.8488751693
 11
369.6435780634
 21
30.9134025506
  0
LINE
  8
0
 62
7
  6
CONTINUOUS
 10
369.4123282839
 20
31.0101936212
 11
369.2967030634
 21
30.9779299347
  0
LINE
  8
0
 62
7
  6
CONTINUOUS
 10
368.3717032839
 20
31.6877311038
 11
368.6029530634
 21
31.7199947902
  0
LINE
  8
0
 62
7
  6
CONTINUOUS
 10
366.4060778428
 20
31.6877311038
 11
366.6373282839
 21
31.7199947902
  0
LINE
  8
0
 62
7
  6
CONTINUOUS
 10
363.3420154531
 20
31.332830508
 11
363.5732655634
 21
31.3650941944
  0
LINE
  8
0
 62
7
  6
CONTINUOUS
 10
366.6373282839
 20
31.8490495359
 11
366.4060778428
 21
31.8167858495
  0
LINE
  8
0
 62
7
  6
CONTINUOUS
 10
363.2263905634
 20
31.6877311038
 11
363.4576406736
 21
31.7199947902
  0
LINE
  8
0
 62
7
  6
CONTINUOUS
 10
368.6029530634
 20
31.8490495359
 11
368.2560780634
 21
31.8167858495
  0
LINE
  8
0
 62
7
  6
CONTINUOUS
 10
363.5732655634
 20
31.4941489853
 11
363.2263905634
 21
31.4618852989
  0
LINE
  8
0
 62
7
  6
CONTINUOUS
 10
359.3529530358
 20
31.8490495359
 11
359.0060780772
 21
31.8167858495
  0
LINE
  8
0
 62
7
  6
CONTINUOUS
 10
363.4576406736
 20
31.8490495359
 11
363.0529530634
 21
31.8167858495
  0
LINE
  8
0
 62
7
  6
CONTINUOUS
 10
360.8291569568
 20
33.7674311522
 11
360.1734192519
 21
33.7674311522
  0
LINE
  8
0
 62
7
  6
CONTINUOUS
 10
366.2326403428
 20
31.623203731
 11
366.4060778428
 21
31.6877311038
  0
LINE
  8
0
 62
7
  6
CONTINUOUS
 10
368.2560780634
 20
31.6554674174
 11
368.3717032839
 21
31.6877311038
  0
LINE
  8
0
 62
7
  6
CONTINUOUS
 10
368.2560780634
 20
31.8167858495
 11
368.0248282839
 21
31.7522584767
  0
LINE
  8
0
 62
7
  6
CONTINUOUS
 10
363.9779528428
 20
31.0101936212
 11
363.6888904531
 21
30.945666237
  0
LINE
  8
0
 62
7
  6
CONTINUOUS
 10
361.2607654531
 20
31.6877311038
 11
361.4920155634
 21
31.7199947902
  0
LINE
  8
0
 62
7
  6
CONTINUOUS
 10
361.4920155634
 20
31.8490495359
 11
361.2607654531
 21
31.8167858495
  0
LINE
  8
0
 62
7
  6
CONTINUOUS
 10
359.0638905634
 20
31.6877311038
 11
359.2951405909
 21
31.7199947902
  0
LINE
  8
0
 62
7
  6
CONTINUOUS
 10
365.5832553175
 20
35.2428409882
 11
366.2389930224
 21
35.2428409882
  0
LINE
  8
0
 62
7
  6
CONTINUOUS
 10
363.2263905634
 20
31.3005668216
 11
363.3420154531
 21
31.332830508
  0
LINE
  8
0
 62
7
  6
CONTINUOUS
 10
363.2263905634
 20
31.4618852989
 11
362.9951404531
 21
31.397357926
  0
LINE
  8
0
 62
7
  6
CONTINUOUS
 10
363.1107656736
 20
31.6554674174
 11
363.2263905634
 21
31.6877311038
  0
LINE
  8
0
 62
7
  6
CONTINUOUS
 10
359.7576405634
 20
30.8488751693
 11
359.9888905082
 21
30.9134025506
  0
LINE
  8
0
 62
7
  6
CONTINUOUS
 10
363.0529530634
 20
31.8167858495
 11
362.9373281736
 21
31.7845221631
  0
LINE
  8
0
 62
7
  6
CONTINUOUS
 10
359.0060780772
 20
31.8167858495
 11
358.8326405772
 21
31.7845221631
  0
LINE
  8
0
 62
7
  6
CONTINUOUS
 10
369.7635831863
 20
36.3903819718
 11
368.3701405634
 21
36.3903819718
  0
LINE
  8
0
 62
7
  6
CONTINUOUS
 10
366.4029274486
 20
36.3903819718
 11
365.9903561
 21
36.3903819718
  0
LINE
  8
0
 62
7
  6
CONTINUOUS
 10
364.7635831863
 20
36.3903819718
 11
363.3701405634
 21
36.3903819718
  0
LINE
  8
0
 62
7
  6
CONTINUOUS
 10
363.0422717109
 20
36.3903819718
 11
361.648829088
 21
36.3903819718
  0
LINE
  8
0
 62
7
  6
CONTINUOUS
 10
359.7635831863
 20
36.3903819718
 11
358.3701405634
 21
36.3903819718
  0
LINE
  8
0
 62
7
  6
CONTINUOUS
 10
358.9482655496
 20
31.6554674174
 11
359.0638905634
 21
31.6877311038
  0
CIRCLE
  8
0
 62
7
  6
CONTINUOUS
 10
369.0668618749
 20
38.7264475456
 40
2.0901639344
  0
ARC
  8
0
 62
7
  6
CONTINUOUS
 10
360.0094848257
 20
34.2592344308
 40
1.6393442623
 50
180.0
 51
270.0
  0
ARC
  8
0
 62
7
  6
CONTINUOUS
 10
366.4029274486
 20
34.7510377095
 40
1.6393442623
 50
0.0
 51
90.0
  0
ARC
  8
0
 62
7
  6
CONTINUOUS
 10
360.4220561743
 20
34.0953000046
 40
1.4754098361
 50
270.0
 51
326.2510114041
  0
ARC
  8
0
 62
7
  6
CONTINUOUS
 10
365.9903561
 20
34.9149721358
 40
1.4754098361
 50
90.0
 51
146.2510114041
  0
ARC
  8
0
 62
7
  6
CONTINUOUS
 10
360.8291569568
 20
34.5871032833
 40
0.8196721311
 50
270.0
 51
360.0
  0
ARC
  8
0
 62
7
  6
CONTINUOUS
 10
365.5832553175
 20
34.4231688571
 40
0.8196721311
 50
90.0
 51
180.0
  0
ARC
  8
0
 62
7
  6
CONTINUOUS
 10
360.1734192519
 20
34.1772672177
 40
0.4098360656
 50
180.0
 51
270.0
  0
ARC
  8
0
 62
7
  6
CONTINUOUS
 10
366.2389930224
 20
34.8330049227
 40
0.4098360656
 50
0.0
 51
90.0
  0
SOLID
  8
0
 62
7
  6
CONTINUOUS
 10
365.0763907839
 20
32.1716868508
 11
365.0763907839
 21
32.3330053344
 12
365.3654528428
 22
32.1716868508
 13
365.3654528428
 23
32.3330053344
  0
SOLID
  8
0
 62
7
  6
CONTINUOUS
 10
359.3529530358
 20
31.8490498836
 11
359.7576405634
 21
31.8167854792
 12
359.0060780772
 22
31.8167854792
 13
359.0060780772
 23
31.8167854792
  0
SOLID
  8
0
 62
7
  6
CONTINUOUS
 10
358.8326405772
 20
31.7845227934
 11
359.0060780772
 21
31.8167854792
 12
359.7576405634
 22
31.8167854792
 13
359.7576405634
 23
31.8167854792
  0
SOLID
  8
0
 62
7
  6
CONTINUOUS
 10
359.7576405634
 20
31.8167854792
 11
359.9888905082
 21
31.7522584901
 12
358.8326405772
 22
31.7845227934
 13
358.8326405772
 23
31.7845227934
  0
SOLID
  8
0
 62
7
  6
CONTINUOUS
 10
358.6592030565
 20
31.7199940664
 11
358.8326405772
 21
31.7845227934
 12
359.9888905082
 22
31.7522584901
 13
359.9888905082
 23
31.7522584901
  0
SOLID
  8
0
 62
7
  6
CONTINUOUS
 10
358.6592030565
 20
31.7199940664
 11
359.9888905082
 21
31.7522584901
 12
359.2951405909
 22
31.7199940664
 13
359.2951405909
 23
31.7199940664
  0
SOLID
  8
0
 62
7
  6
CONTINUOUS
 10
359.2951405909
 20
31.7199940664
 11
359.9888905082
 21
31.7522584901
 12
359.6998280358
 22
31.6877314
 13
359.6998280358
 23
31.6877314
  0
SOLID
  8
0
 62
7
  6
CONTINUOUS
 10
359.9888905082
 20
31.7522584901
 11
360.1623280082
 21
31.6554670967
 12
359.6998280358
 22
31.6877314
 13
359.6998280358
 23
31.6877314
  0
SOLID
  8
0
 62
7
  6
CONTINUOUS
 10
359.8732656185
 20
31.6232043098
 11
359.6998280358
 21
31.6877314
 12
360.1623280082
 22
31.6554670967
 13
360.1623280082
 23
31.6554670967
  0
SOLID
  8
0
 62
7
  6
CONTINUOUS
 10
359.8732656185
 20
31.6232043098
 11
360.1623280082
 21
31.6554670967
 12
359.9310780634
 22
31.5264128539
 13
359.9310780634
 23
31.5264128539
  0
SOLID
  8
0
 62
7
  6
CONTINUOUS
 10
360.1623280082
 20
31.6554670967
 11
360.2201406185
 21
31.5264128539
 12
359.9310780634
 22
31.5264128539
 13
359.9310780634
 23
31.5264128539
  0
SOLID
  8
0
 62
7
  6
CONTINUOUS
 10
361.2607654531
 20
31.8167852459
 11
361.4920155634
 21
31.8490495492
 12
361.7232656736
 22
31.8490495492
 13
361.7232656736
 23
31.8490495492
  0
SOLID
  8
0
 62
7
  6
CONTINUOUS
 10
361.7232656736
 20
31.8490495492
 11
361.8967031736
 21
31.8167852459
 12
361.2607654531
 22
31.8167852459
 13
361.2607654531
 23
31.8167852459
  0
SOLID
  8
0
 62
7
  6
CONTINUOUS
 10
361.0873281185
 20
31.7522581557
 11
361.2607654531
 21
31.8167852459
 12
361.8967031736
 22
31.8167852459
 13
361.8967031736
 23
31.8167852459
  0
SOLID
  8
0
 62
7
  6
CONTINUOUS
 10
361.8967031736
 20
31.8167852459
 11
362.0701406736
 21
31.7522581557
 12
361.0873281185
 22
31.7522581557
 13
361.0873281185
 23
31.7522581557
  0
SOLID
  8
0
 62
7
  6
CONTINUOUS
 10
362.0701406736
 20
31.7522581557
 11
361.4920155634
 21
31.7199941869
 12
361.0873281185
 22
31.7522581557
 13
361.0873281185
 23
31.7522581557
  0
SOLID
  8
0
 62
7
  6
CONTINUOUS
 10
360.9717030634
 20
31.6877310656
 11
361.0873281185
 21
31.7522581557
 12
361.4920155634
 22
31.7199941869
 13
361.4920155634
 23
31.7199941869
  0
SOLID
  8
0
 62
7
  6
CONTINUOUS
 10
361.4920155634
 20
31.7199941869
 11
361.2607654531
 21
31.6877310656
 12
360.9717030634
 22
31.6877310656
 13
360.9717030634
 23
31.6877310656
  0
SOLID
  8
0
 62
7
  6
CONTINUOUS
 10
361.4920155634
 20
31.7199941869
 11
362.0701406736
 21
31.7522581557
 12
361.7232656736
 22
31.6877310656
 13
361.7232656736
 23
31.6877310656
  0
SOLID
  8
0
 62
7
  6
CONTINUOUS
 10
362.0701406736
 20
31.7522581557
 11
362.1857655634
 21
31.6877310656
 12
361.7232656736
 22
31.6877310656
 13
361.7232656736
 23
31.6877310656
  0
SOLID
  8
0
 62
7
  6
CONTINUOUS
 10
361.8388905634
 20
31.6554670967
 11
361.7232656736
 21
31.6877310656
 12
362.1857655634
 22
31.6877310656
 13
362.1857655634
 23
31.6877310656
  0
SOLID
  8
0
 62
7
  6
CONTINUOUS
 10
362.1857655634
 20
31.6877310656
 11
362.2435781736
 21
31.6232039754
 12
361.8388905634
 22
31.6554670967
 13
361.8388905634
 23
31.6554670967
  0
SOLID
  8
0
 62
7
  6
CONTINUOUS
 10
361.9545154531
 20
31.5909400065
 11
361.8388905634
 21
31.6554670967
 12
362.2435781736
 22
31.6232039754
 13
362.2435781736
 23
31.6232039754
  0
SOLID
  8
0
 62
7
  6
CONTINUOUS
 10
361.9545154531
 20
31.5909400065
 11
362.2435781736
 21
31.6232039754
 12
362.0123280634
 22
31.4618854918
 13
362.0123280634
 23
31.4618854918
  0
SOLID
  8
0
 62
7
  6
CONTINUOUS
 10
362.2435781736
 20
31.6232039754
 11
362.3013904531
 21
31.4618854918
 12
362.0123280634
 22
31.4618854918
 13
362.0123280634
 23
31.4618854918
  0
SOLID
  8
0
 62
7
  6
CONTINUOUS
 10
361.2607654531
 20
31.6877310656
 11
361.0873281185
 21
31.6232039754
 12
360.9717030634
 22
31.6877310656
 13
360.9717030634
 23
31.6877310656
  0
SOLID
  8
0
 62
7
  6
CONTINUOUS
 10
361.0873281185
 20
31.6232039754
 11
360.9717030634
 21
31.5586757033
 12
360.9717030634
 22
31.6877310656
 13
360.9717030634
 23
31.6877310656
  0
SOLID
  8
0
 62
7
  6
CONTINUOUS
 10
360.9717030634
 20
31.5586757033
 11
360.6826405082
 21
30.8166115574
 12
360.9717030634
 22
31.6877310656
 13
360.9717030634
 23
31.6877310656
  0
SOLID
  8
0
 62
7
  6
CONTINUOUS
 10
360.9717030634
 20
31.6877310656
 11
360.6826405082
 21
30.8166115574
 12
360.9717030634
 22
32.333005
 13
360.9717030634
 23
32.333005
  0
SOLID
  8
0
 62
7
  6
CONTINUOUS
 10
360.6826405082
 20
30.8166115574
 11
360.6826405082
 21
32.333005
 12
360.9717030634
 22
32.333005
 13
360.9717030634
 23
32.333005
  0
SOLID
  8
0
 62
7
  6
CONTINUOUS
 10
360.9717030634
 20
31.5586757033
 11
360.9717030634
 21
30.8166115574
 12
360.6826405082
 22
30.8166115574
 13
360.6826405082
 23
30.8166115574
  0
SOLID
  8
0
 62
7
  6
CONTINUOUS
 10
362.0123280634
 20
30.8166115574
 11
362.0123280634
 21
31.4618854918
 12
362.3013904531
 22
31.4618854918
 13
362.3013904531
 23
31.4618854918
  0
SOLID
  8
0
 62
7
  6
CONTINUOUS
 10
362.3013904531
 20
31.4618854918
 11
362.3013904531
 21
30.8166115574
 12
362.0123280634
 22
30.8166115574
 13
362.0123280634
 23
30.8166115574
  0
SOLID
  8
0
 62
7
  6
CONTINUOUS
 10
363.0529530634
 20
31.8167856315
 11
363.4576406736
 21
31.8490496243
 12
363.8045156736
 22
31.8490496243
 13
363.8045156736
 23
31.8490496243
  0
SOLID
  8
0
 62
7
  6
CONTINUOUS
 10
363.8045156736
 20
31.8490496243
 11
364.1513903428
 21
31.8167856315
 12
363.0529530634
 22
31.8167856315
 13
363.0529530634
 23
31.8167856315
  0
SOLID
  8
0
 62
7
  6
CONTINUOUS
 10
362.9373281736
 20
31.7845227934
 11
363.0529530634
 21
31.8167856315
 12
364.1513903428
 22
31.8167856315
 13
364.1513903428
 23
31.8167856315
  0
SOLID
  8
0
 62
7
  6
CONTINUOUS
 10
364.1513903428
 20
31.8167856315
 11
364.3248278428
 21
31.7522584901
 12
362.9373281736
 22
31.7845227934
 13
362.9373281736
 23
31.7845227934
  0
SOLID
  8
0
 62
7
  6
CONTINUOUS
 10
362.8217029531
 20
31.7199944276
 11
362.9373281736
 21
31.7845227934
 12
364.3248278428
 22
31.7522584901
 13
364.3248278428
 23
31.7522584901
  0
SOLID
  8
0
 62
7
  6
CONTINUOUS
 10
362.8217029531
 20
31.7199944276
 11
364.3248278428
 21
31.7522584901
 12
363.4576406736
 22
31.7199944276
 13
363.4576406736
 23
31.7199944276
  0
SOLID
  8
0
 62
7
  6
CONTINUOUS
 10
363.4576406736
 20
31.7199944276
 11
364.3248278428
 21
31.7522584901
 12
363.8045156736
 22
31.7199944276
 13
363.8045156736
 23
31.7199944276
  0
SOLID
  8
0
 62
7
  6
CONTINUOUS
 10
363.8045156736
 20
31.7199944276
 11
364.3248278428
 21
31.7522584901
 12
364.0357657839
 22
31.6877312092
 13
364.0357657839
 23
31.6877312092
  0
SOLID
  8
0
 62
7
  6
CONTINUOUS
 10
364.3248278428
 20
31.7522584901
 11
364.4404530634
 21
31.6877312092
 12
364.0357657839
 22
31.6877312092
 13
364.0357657839
 23
31.6877312092
  0
SOLID
  8
0
 62
7
  6
CONTINUOUS
 10
362.7638906736
 20
31.6554672165
 11
362.8217029531
 21
31.7199944276
 12
363.4576406736
 22
31.7199944276
 13
363.4576406736
 23
31.7199944276
  0
SOLID
  8
0
 62
7
  6
CONTINUOUS
 10
364.1513903428
 20
31.6554672165
 11
364.0357657839
 21
31.6877312092
 12
364.4404530634
 22
31.6877312092
 13
364.4404530634
 23
31.6877312092
  0
SOLID
  8
0
 62
7
  6
CONTINUOUS
 10
364.1513903428
 20
31.6554672165
 11
364.4404530634
 21
31.6877312092
 12
364.2092032839
 22
31.5909400053
 13
364.2092032839
 23
31.5909400053
  0
SOLID
  8
0
 62
7
  6
CONTINUOUS
 10
364.4404530634
 20
31.6877312092
 11
364.4982653428
 21
31.5909400053
 12
364.2092032839
 22
31.5909400053
 13
364.2092032839
 23
31.5909400053
  0
SOLID
  8
0
 62
7
  6
CONTINUOUS
 10
364.2092032839
 20
31.4941486131
 11
364.2092032839
 21
31.5909400053
 12
364.4982653428
 22
31.5909400053
 13
364.4982653428
 23
31.5909400053
  0
SOLID
  8
0
 62
7
  6
CONTINUOUS
 10
364.2092032839
 20
31.4941486131
 11
364.4982653428
 21
31.5909400053
 12
364.2092032839
 22
31.3650944328
 13
364.2092032839
 23
31.3650944328
  0
SOLID
  8
0
 62
7
  6
CONTINUOUS
 10
364.2092032839
 20
31.3650944328
 11
364.4982653428
 21
31.5909400053
 12
364.2092032839
 22
31.1715120759
 13
364.2092032839
 23
31.1715120759
  0
SOLID
  8
0
 62
7
  6
CONTINUOUS
 10
364.4982653428
 20
31.5909400053
 11
364.4982653428
 21
31.0747202524
 12
364.2092032839
 22
31.1715120759
 13
364.2092032839
 23
31.1715120759
  0
SOLID
  8
0
 62
7
  6
CONTINUOUS
 10
366.4060778428
 20
31.8167851023
 11
366.6373282839
 21
31.849049822
 12
366.8685780634
 22
31.849049822
 13
366.8685780634
 23
31.849049822
  0
SOLID
  8
0
 62
7
  6
CONTINUOUS
 10
366.8685780634
 20
31.849049822
 11
367.0420155634
 21
31.8167851023
 12
366.4060778428
 22
31.8167851023
 13
366.4060778428
 23
31.8167851023
  0
SOLID
  8
0
 62
7
  6
CONTINUOUS
 10
366.2326403428
 20
31.7522587602
 11
366.4060778428
 21
31.8167851023
 12
367.0420155634
 22
31.8167851023
 13
367.0420155634
 23
31.8167851023
  0
SOLID
  8
0
 62
7
  6
CONTINUOUS
 10
367.0420155634
 20
31.8167851023
 11
367.2154530634
 21
31.7522587602
 12
366.2326403428
 22
31.7522587602
 13
366.2326403428
 23
31.7522587602
  0
SOLID
  8
0
 62
7
  6
CONTINUOUS
 10
367.2154530634
 20
31.7522587602
 11
366.6373282839
 21
31.7199941869
 12
366.2326403428
 22
31.7522587602
 13
366.2326403428
 23
31.7522587602
  0
SOLID
  8
0
 62
7
  6
CONTINUOUS
 10
366.1170157839
 20
31.6877313857
 11
366.2326403428
 21
31.7522587602
 12
366.6373282839
 22
31.7199941869
 13
366.6373282839
 23
31.7199941869
  0
SOLID
  8
0
 62
7
  6
CONTINUOUS
 10
366.6373282839
 20
31.7199941869
 11
366.4060778428
 21
31.6877313857
 12
366.1170157839
 22
31.6877313857
 13
366.1170157839
 23
31.6877313857
  0
SOLID
  8
0
 62
7
  6
CONTINUOUS
 10
366.6373282839
 20
31.7199941869
 11
367.2154530634
 21
31.7522587602
 12
366.8685780634
 22
31.6877313857
 13
366.8685780634
 23
31.6877313857
  0
SOLID
  8
0
 62
7
  6
CONTINUOUS
 10
367.2154530634
 20
31.7522587602
 11
367.3310782839
 21
31.6877313857
 12
366.8685780634
 22
31.6877313857
 13
366.8685780634
 23
31.6877313857
  0
SOLID
  8
0
 62
7
  6
CONTINUOUS
 10
366.9842032839
 20
31.6554670967
 11
366.8685780634
 21
31.6877313857
 12
367.3310782839
 22
31.6877313857
 13
367.3310782839
 23
31.6877313857
  0
SOLID
  8
0
 62
7
  6
CONTINUOUS
 10
366.9842032839
 20
31.6554670967
 11
367.3310782839
 21
31.6877313857
 12
367.0998278428
 22
31.590940324
 13
367.0998278428
 23
31.590940324
  0
SOLID
  8
0
 62
7
  6
CONTINUOUS
 10
367.3310782839
 20
31.6877313857
 11
367.3888905634
 21
31.590940324
 12
367.0998278428
 22
31.590940324
 13
367.0998278428
 23
31.590940324
  0
SOLID
  8
0
 62
7
  6
CONTINUOUS
 10
367.1576407839
 20
31.4296218878
 11
367.0998278428
 21
31.590940324
 12
367.3888905634
 22
31.590940324
 13
367.3888905634
 23
31.590940324
  0
SOLID
  8
0
 62
7
  6
CONTINUOUS
 10
367.3888905634
 20
31.590940324
 11
367.4467028428
 21
31.4296218878
 12
367.1576407839
 22
31.4296218878
 13
367.1576407839
 23
31.4296218878
  0
SOLID
  8
0
 62
7
  6
CONTINUOUS
 10
366.4060778428
 20
31.6877313857
 11
366.2326403428
 21
31.6232043098
 12
366.1170157839
 22
31.6877313857
 13
366.1170157839
 23
31.6877313857
  0
SOLID
  8
0
 62
7
  6
CONTINUOUS
 10
366.2326403428
 20
31.6232043098
 11
366.1170157839
 21
31.5586757033
 12
366.1170157839
 22
31.6877313857
 13
366.1170157839
 23
31.6877313857
  0
SOLID
  8
0
 62
7
  6
CONTINUOUS
 10
366.1170157839
 20
31.5586757033
 11
365.8279530634
 21
30.8166118302
 12
366.1170157839
 22
31.6877313857
 13
366.1170157839
 23
31.6877313857
  0
SOLID
  8
0
 62
7
  6
CONTINUOUS
 10
366.1170157839
 20
31.6877313857
 11
365.8279530634
 21
30.8166118302
 12
366.1170157839
 22
31.849049822
 13
366.1170157839
 23
31.849049822
  0
SOLID
  8
0
 62
7
  6
CONTINUOUS
 10
365.8279530634
 20
30.8166118302
 11
365.8279530634
 21
31.849049822
 12
366.1170157839
 22
31.849049822
 13
366.1170157839
 23
31.849049822
  0
SOLID
  8
0
 62
7
  6
CONTINUOUS
 10
366.1170157839
 20
31.5586757033
 11
366.1170157839
 21
30.8166118302
 12
365.8279530634
 22
30.8166118302
 13
365.8279530634
 23
30.8166118302
  0
SOLID
  8
0
 62
7
  6
CONTINUOUS
 10
367.1576407839
 20
30.8166118302
 11
367.1576407839
 21
31.4296218878
 12
367.4467028428
 22
31.4296218878
 13
367.4467028428
 23
31.4296218878
  0
SOLID
  8
0
 62
7
  6
CONTINUOUS
 10
367.4467028428
 20
31.4296218878
 11
367.4467028428
 21
30.8166118302
 12
367.1576407839
 22
30.8166118302
 13
367.1576407839
 23
30.8166118302
  0
SOLID
  8
0
 62
7
  6
CONTINUOUS
 10
368.2560780634
 20
31.8167856056
 11
368.6029530634
 21
31.8490498552
 12
368.9498280634
 22
31.8490498552
 13
368.9498280634
 23
31.8490498552
  0
SOLID
  8
0
 62
7
  6
CONTINUOUS
 10
368.9498280634
 20
31.8490498552
 11
369.2967030634
 21
31.8167856056
 12
368.2560780634
 22
31.8167856056
 13
368.2560780634
 23
31.8167856056
  0
SOLID
  8
0
 62
7
  6
CONTINUOUS
 10
368.0248282839
 20
31.7522584901
 11
368.2560780634
 21
31.8167856056
 12
369.2967030634
 22
31.8167856056
 13
369.2967030634
 23
31.8167856056
  0
SOLID
  8
0
 62
7
  6
CONTINUOUS
 10
368.0248282839
 20
31.7522584901
 11
369.2967030634
 21
31.8167855803
 12
369.4701405634
 22
31.7845227934
 13
369.4701405634
 23
31.7845227934
  0
SOLID
  8
0
 62
7
  6
CONTINUOUS
 10
368.0248282839
 20
31.7522584901
 11
369.4701405634
 21
31.7845227934
 12
368.6029530634
 22
31.7199941235
 13
368.6029530634
 23
31.7199941235
  0
SOLID
  8
0
 62
7
  6
CONTINUOUS
 10
368.6029530634
 20
31.7199941235
 11
369.4701405634
 21
31.7845227934
 12
368.9498280634
 22
31.7199941235
 13
368.9498280634
 23
31.7199941235
  0
SOLID
  8
0
 62
7
  6
CONTINUOUS
 10
369.4701405634
 20
31.7845227934
 11
369.6435780634
 21
31.7199941235
 12
368.9498280634
 22
31.7199941235
 13
368.9498280634
 23
31.7199941235
  0
SOLID
  8
0
 62
7
  6
CONTINUOUS
 10
369.2967030634
 20
31.6877314
 11
368.9498280634
 21
31.7199941235
 12
369.6435780634
 22
31.7199941235
 13
369.6435780634
 23
31.7199941235
  0
SOLID
  8
0
 62
7
  6
CONTINUOUS
 10
367.9092030634
 20
31.6554671071
 11
368.0248282839
 21
31.7522584901
 12
368.6029530634
 22
31.7199941235
 13
368.6029530634
 23
31.7199941235
  0
SOLID
  8
0
 62
7
  6
CONTINUOUS
 10
369.2967030634
 20
31.6877314
 11
369.6435780634
 21
31.7199941235
 12
369.4123282839
 22
31.6554671071
 13
369.4123282839
 23
31.6554671071
  0
SOLID
  8
0
 62
7
  6
CONTINUOUS
 10
369.4123282839
 20
31.6554671071
 11
369.6435780634
 21
31.7199941235
 12
369.4701405634
 22
31.5909400907
 13
369.4701405634
 23
31.5909400907
  0
SOLID
  8
0
 62
7
  6
CONTINUOUS
 10
369.6435780634
 20
31.7199941235
 11
369.7592026223
 21
31.5909400907
 12
369.4701405634
 22
31.5909400907
 13
369.4701405634
 23
31.5909400907
  0
SOLID
  8
0
 62
7
  6
CONTINUOUS
 10
359.0638905634
 20
31.6877314
 11
358.5435780634
 21
31.6554670789
 12
359.2951405909
 22
31.7199941045
 13
359.2951405909
 23
31.7199941045
  0
SOLID
  8
0
 62
7
  6
CONTINUOUS
 10
358.5435780634
 20
31.6554670789
 11
358.6592030565
 21
31.7199941045
 12
359.2951405909
 22
31.7199941045
 13
359.2951405909
 23
31.7199941045
  0
SOLID
  8
0
 62
7
  6
CONTINUOUS
 10
359.0638905634
 20
31.6877314
 11
358.9482655496
 21
31.6554670789
 12
358.5435780634
 22
31.6554670789
 13
358.5435780634
 23
31.6554670789
  0
SOLID
  8
0
 62
7
  6
CONTINUOUS
 10
358.4279530651
 20
31.5264129164
 11
358.5435780634
 21
31.6554670789
 12
358.9482655496
 22
31.6554670789
 13
358.9482655496
 23
31.6554670789
  0
SOLID
  8
0
 62
7
  6
CONTINUOUS
 10
362.7638906736
 20
31.6554670789
 11
363.4576406736
 21
31.7199941869
 12
363.2263905634
 22
31.6877314
 13
363.2263905634
 23
31.6877314
  0
SOLID
  8
0
 62
7
  6
CONTINUOUS
 10
363.2263905634
 20
31.6877314
 11
363.1107656736
 21
31.6554670789
 12
362.7638906736
 22
31.6554670789
 13
362.7638906736
 23
31.6554670789
  0
SOLID
  8
0
 62
7
  6
CONTINUOUS
 10
362.7638906736
 20
31.5909399887
 11
362.7638906736
 21
31.6554670789
 12
363.1107656736
 22
31.6554670789
 13
363.1107656736
 23
31.6554670789
  0
SOLID
  8
0
 62
7
  6
CONTINUOUS
 10
363.1107656736
 20
31.6554670789
 11
363.0529530634
 21
31.5909399887
 12
362.7638906736
 22
31.5909399887
 13
362.7638906736
 23
31.5909399887
  0
SOLID
  8
0
 62
7
  6
CONTINUOUS
 10
367.9092030634
 20
31.6554670789
 11
368.6029530634
 21
31.7199941869
 12
368.3717032839
 22
31.6877314
 13
368.3717032839
 23
31.6877314
  0
SOLID
  8
0
 62
7
  6
CONTINUOUS
 10
368.3717032839
 20
31.6877314
 11
368.2560780634
 21
31.6554670789
 12
367.9092030634
 22
31.6554670789
 13
367.9092030634
 23
31.6554670789
  0
SOLID
  8
0
 62
7
  6
CONTINUOUS
 10
367.9092030634
 20
31.5909399887
 11
367.9092030634
 21
31.6554670789
 12
368.2560780634
 22
31.6554670789
 13
368.2560780634
 23
31.6554670789
  0
SOLID
  8
0
 62
7
  6
CONTINUOUS
 10
368.2560780634
 20
31.6554670789
 11
368.1982657839
 21
31.5909399887
 12
367.9092030634
 22
31.5909399887
 13
367.9092030634
 23
31.5909399887
  0
SOLID
  8
0
 62
7
  6
CONTINUOUS
 10
368.0248282839
 20
31.4618858262
 11
367.9092030634
 21
31.5909399887
 12
368.1982657839
 22
31.5909399887
 13
368.1982657839
 23
31.5909399887
  0
SOLID
  8
0
 62
7
  6
CONTINUOUS
 10
358.4279530651
 20
31.5264129164
 11
358.9482655496
 21
31.6554670967
 12
358.7748280496
 22
31.5586757033
 13
358.7748280496
 23
31.5586757033
  0
SOLID
  8
0
 62
7
  6
CONTINUOUS
 10
358.7748280496
 20
31.5586757033
 11
358.7170155634
 21
31.4941486131
 12
358.4279530651
 22
31.5264129164
 13
358.4279530651
 23
31.5264129164
  0
SOLID
  8
0
 62
7
  6
CONTINUOUS
 10
358.3701405634
 20
31.3328301295
 11
358.4279530651
 21
31.5264129164
 12
358.7170155634
 22
31.4941486131
 13
358.7170155634
 23
31.4941486131
  0
SOLID
  8
0
 62
7
  6
CONTINUOUS
 10
363.2263905634
 20
31.4618858262
 11
363.5732655634
 21
31.4941485791
 12
364.2092032839
 22
31.4941485791
 13
364.2092032839
 23
31.4941485791
  0
SOLID
  8
0
 62
7
  6
CONTINUOUS
 10
363.2263905634
 20
31.4618858262
 11
364.2092032839
 21
31.4941485791
 12
362.9951404531
 22
31.397357926
 13
362.9951404531
 23
31.397357926
  0
SOLID
  8
0
 62
7
  6
CONTINUOUS
 10
362.9951404531
 20
31.397357926
 11
364.2092032839
 21
31.4941485791
 12
363.5732655634
 22
31.3650943988
 13
363.5732655634
 23
31.3650943988
  0
SOLID
  8
0
 62
7
  6
CONTINUOUS
 10
364.2092032839
 20
31.4941485791
 11
364.2092032839
 21
31.3650943988
 12
363.5732655634
 22
31.3650943988
 13
363.5732655634
 23
31.3650943988
  0
SOLID
  8
0
 62
7
  6
CONTINUOUS
 10
368.0248282839
 20
31.4618859165
 11
368.1982657839
 21
31.5909400065
 12
368.2560780634
 22
31.5264129164
 13
368.2560780634
 23
31.5264129164
  0
SOLID
  8
0
 62
7
  6
CONTINUOUS
 10
368.2560780634
 20
31.5264129164
 11
368.4295155634
 21
31.4618859165
 12
368.0248282839
 22
31.4618859165
 13
368.0248282839
 23
31.4618859165
  0
SOLID
  8
0
 62
7
  6
CONTINUOUS
 10
368.2560780634
 20
31.3650944328
 11
368.0248282839
 21
31.4618859165
 12
368.4295155634
 22
31.4618859165
 13
368.4295155634
 23
31.4618859165
  0
SOLID
  8
0
 62
7
  6
CONTINUOUS
 10
368.4295155634
 20
31.4618859165
 11
369.4123282839
 21
31.3005673426
 12
368.2560780634
 22
31.3650944328
 13
368.2560780634
 23
31.3650944328
  0
SOLID
  8
0
 62
7
  6
CONTINUOUS
 10
369.2388907839
 20
31.2037760287
 11
368.2560780634
 21
31.3650944328
 12
369.4123282839
 22
31.3005673426
 13
369.4123282839
 23
31.3005673426
  0
SOLID
  8
0
 62
7
  6
CONTINUOUS
 10
369.4123282839
 20
31.3005673426
 11
369.6435780634
 21
31.2037760287
 12
369.2388907839
 22
31.2037760287
 13
369.2388907839
 23
31.2037760287
  0
SOLID
  8
0
 62
7
  6
CONTINUOUS
 10
369.4123282839
 20
31.139248859
 11
369.2388907839
 21
31.2037760287
 12
369.6435780634
 22
31.2037760287
 13
369.6435780634
 23
31.2037760287
  0
SOLID
  8
0
 62
7
  6
CONTINUOUS
 10
369.4123282839
 20
31.139248859
 11
369.6435780634
 21
31.2037760287
 12
369.4701405634
 22
31.0747203105
 13
369.4701405634
 23
31.0747203105
  0
SOLID
  8
0
 62
7
  6
CONTINUOUS
 10
369.6435780634
 20
31.2037760287
 11
369.7592026223
 21
31.0747203105
 12
369.4701405634
 22
31.0747203105
 13
369.4701405634
 23
31.0747203105
  0
SOLID
  8
0
 62
7
  6
CONTINUOUS
 10
369.4123282839
 20
31.0101932257
 11
369.4701405634
 21
31.0747203105
 12
369.7592026223
 22
31.0747203105
 13
369.7592026223
 23
31.0747203105
  0
SOLID
  8
0
 62
7
  6
CONTINUOUS
 10
369.7592026223
 20
31.0747203105
 11
369.7592026223
 21
31.0101932257
 12
369.4123282839
 22
31.0101932257
 13
369.4123282839
 23
31.0101932257
  0
SOLID
  8
0
 62
7
  6
CONTINUOUS
 10
369.2967030634
 20
30.9779303754
 11
369.4123282839
 21
31.0101932257
 12
369.7592026223
 22
31.0101932257
 13
369.7592026223
 23
31.0101932257
  0
SOLID
  8
0
 62
7
  6
CONTINUOUS
 10
369.2967030634
 20
30.9779303754
 11
369.7592026223
 21
31.0101932257
 12
369.0654532839
 22
30.9456661409
 13
369.0654532839
 23
30.9456661409
  0
SOLID
  8
0
 62
7
  6
CONTINUOUS
 10
369.7592026223
 20
31.0101932257
 11
369.6435780634
 21
30.9134032852
 12
369.0654532839
 22
30.9456661409
 13
369.0654532839
 23
30.9456661409
  0
SOLID
  8
0
 62
7
  6
CONTINUOUS
 10
369.6435780634
 20
30.9134032852
 11
368.1982657839
 21
30.8811389819
 12
369.0654532839
 22
30.9456661409
 13
369.0654532839
 23
30.9456661409
  0
SOLID
  8
0
 62
7
  6
CONTINUOUS
 10
369.0654532839
 20
30.9456661409
 11
368.1982657839
 21
30.8811389819
 12
368.7185782839
 22
30.9456661409
 13
368.7185782839
 23
30.9456661409
  0
SOLID
  8
0
 62
7
  6
CONTINUOUS
 10
368.1982657839
 20
30.8811389819
 11
368.0248282839
 21
30.9456661409
 12
368.7185782839
 22
30.9456661409
 13
368.7185782839
 23
30.9456661409
  0
SOLID
  8
0
 62
7
  6
CONTINUOUS
 10
368.1982657839
 20
30.8811389819
 11
369.6435780634
 21
30.9134032852
 12
368.3717032839
 22
30.8488743522
 13
368.3717032839
 23
30.8488743522
  0
SOLID
  8
0
 62
7
  6
CONTINUOUS
 10
369.6435780634
 20
30.9134032852
 11
369.4123282839
 21
30.8488743522
 12
368.3717032839
 22
30.8488743522
 13
368.3717032839
 23
30.8488743522
  0
SOLID
  8
0
 62
7
  6
CONTINUOUS
 10
368.7185782839
 20
30.8166119713
 11
368.3717032839
 21
30.8488743522
 12
369.4123282839
 22
30.8488743522
 13
369.4123282839
 23
30.8488743522
  0
SOLID
  8
0
 62
7
  6
CONTINUOUS
 10
369.4123282839
 20
30.8488743522
 11
369.0654532839
 21
30.8166119713
 12
368.7185782839
 22
30.8166119713
 13
368.7185782839
 23
30.8166119713
  0
SOLID
  8
0
 62
7
  6
CONTINUOUS
 10
358.3701405634
 20
31.3328301295
 11
358.7170155634
 21
31.4941486131
 12
358.6592030565
 22
31.3650944328
 13
358.6592030565
 23
31.3650944328
  0
SOLID
  8
0
 62
7
  6
CONTINUOUS
 10
358.6592030565
 20
31.3650944328
 11
358.6592030565
 21
31.2683031351
 12
358.3701405634
 22
31.3328301295
 13
358.3701405634
 23
31.3328301295
  0
SOLID
  8
0
 62
7
  6
CONTINUOUS
 10
358.4279530651
 20
31.139248859
 11
358.3701405634
 21
31.3328301295
 12
358.6592030565
 22
31.2683031351
 13
358.6592030565
 23
31.2683031351
  0
SOLID
  8
0
 62
7
  6
CONTINUOUS
 10
358.6592030565
 20
31.2683031351
 11
358.7748280496
 21
31.1069845557
 12
358.4279530651
 22
31.139248859
 13
358.4279530651
 23
31.139248859
  0
SOLID
  8
0
 62
7
  6
CONTINUOUS
 10
358.5435780634
 20
31.0101931569
 11
358.4279530651
 21
31.139248859
 12
358.7748280496
 22
31.1069845557
 13
358.7748280496
 23
31.1069845557
  0
SOLID
  8
0
 62
7
  6
CONTINUOUS
 10
358.7748280496
 20
31.1069845557
 11
358.9482655496
 21
31.0101931569
 12
358.5435780634
 22
31.0101931569
 13
358.5435780634
 23
31.0101931569
  0
SOLID
  8
0
 62
7
  6
CONTINUOUS
 10
358.6592030565
 20
30.9456659241
 11
358.5435780634
 21
31.0101931569
 12
358.9482655496
 22
31.0101931569
 13
358.9482655496
 23
31.0101931569
  0
SOLID
  8
0
 62
7
  6
CONTINUOUS
 10
358.9482655496
 20
31.0101931569
 11
359.2951405909
 21
30.9456659241
 12
358.6592030565
 22
30.9456659241
 13
358.6592030565
 23
30.9456659241
  0
SOLID
  8
0
 62
7
  6
CONTINUOUS
 10
358.8326405772
 20
30.8811389819
 11
358.6592030565
 21
30.9456659241
 12
359.2951405909
 22
30.9456659241
 13
359.2951405909
 23
30.9456659241
  0
SOLID
  8
0
 62
7
  6
CONTINUOUS
 10
362.8795155634
 20
31.3328301325
 11
362.9951404531
 21
31.397357926
 12
363.5732655634
 22
31.3650944328
 13
363.5732655634
 23
31.3650944328
  0
SOLID
  8
0
 62
7
  6
CONTINUOUS
 10
363.5732655634
 20
31.3650944328
 11
363.3420154531
 21
31.3328301325
 12
362.8795155634
 22
31.3328301325
 13
362.8795155634
 23
31.3328301325
  0
SOLID
  8
0
 62
7
  6
CONTINUOUS
 10
362.7638906736
 20
31.2037759492
 11
362.8795155634
 21
31.3328301325
 12
363.3420154531
 22
31.3328301325
 13
363.3420154531
 23
31.3328301325
  0
SOLID
  8
0
 62
7
  6
CONTINUOUS
 10
363.1107656736
 20
31.2360394487
 11
362.7638906736
 21
31.2037759492
 12
363.2263905634
 22
31.3005673426
 13
363.2263905634
 23
31.3005673426
  0
SOLID
  8
0
 62
7
  6
CONTINUOUS
 10
362.7638906736
 20
31.2037759492
 11
363.3420154531
 21
31.3328301295
 12
363.2263905634
 22
31.3005673426
 13
363.2263905634
 23
31.3005673426
  0
SOLID
  8
0
 62
7
  6
CONTINUOUS
 10
363.1107656736
 20
31.2360394487
 11
363.0529530634
 21
31.139248859
 12
362.7638906736
 22
31.2037759492
 13
362.7638906736
 23
31.2037759492
  0
SOLID
  8
0
 62
7
  6
CONTINUOUS
 10
362.7638906736
 20
31.1069845557
 11
362.7638906736
 21
31.2037759492
 12
363.0529530634
 22
31.139248859
 13
363.0529530634
 23
31.139248859
  0
SOLID
  8
0
 62
7
  6
CONTINUOUS
 10
363.0529530634
 20
31.139248859
 11
363.0529530634
 21
31.0747202524
 12
362.7638906736
 22
31.1069845557
 13
362.7638906736
 23
31.1069845557
  0
SOLID
  8
0
 62
7
  6
CONTINUOUS
 10
362.8217029531
 20
30.9779303754
 11
362.7638906736
 21
31.1069845557
 12
363.0529530634
 22
31.0747202524
 13
363.0529530634
 23
31.0747202524
  0
SOLID
  8
0
 62
7
  6
CONTINUOUS
 10
364.2092032839
 20
31.1715120759
 11
364.4982653428
 21
31.0747202524
 12
364.1513903428
 22
31.1069845557
 13
364.1513903428
 23
31.1069845557
  0
SOLID
  8
0
 62
7
  6
CONTINUOUS
 10
363.9779528428
 20
31.0101931623
 11
364.1513903428
 21
31.1069845557
 12
364.4982653428
 22
31.0747202524
 13
364.4982653428
 23
31.0747202524
  0
SOLID
  8
0
 62
7
  6
CONTINUOUS
 10
363.9779528428
 20
31.0101931623
 11
364.4982653428
 21
31.0747202524
 12
364.2092032839
 22
30.9779303754
 13
364.2092032839
 23
30.9779303754
  0
SOLID
  8
0
 62
7
  6
CONTINUOUS
 10
364.4982653428
 20
31.0747202524
 11
364.5560782839
 21
30.9134032852
 12
364.2092032839
 22
30.9779303754
 13
364.2092032839
 23
30.9779303754
  0
SOLID
  8
0
 62
7
  6
CONTINUOUS
 10
364.2670155634
 20
30.8811389819
 11
364.2092032839
 21
30.9779303754
 12
364.5560782839
 22
30.9134032852
 13
364.5560782839
 23
30.9134032852
  0
SOLID
  8
0
 62
7
  6
CONTINUOUS
 10
364.2670155634
 20
30.8811389819
 11
364.5560782839
 21
30.9134032852
 12
364.3248278428
 22
30.816611867
 13
364.3248278428
 23
30.816611867
  0
SOLID
  8
0
 62
7
  6
CONTINUOUS
 10
364.5560782839
 20
30.9134032852
 11
364.6138905634
 21
30.816611867
 12
364.3248278428
 22
30.816611867
 13
364.3248278428
 23
30.816611867
  0
SOLID
  8
0
 62
7
  6
CONTINUOUS
 10
359.8732656185
 20
31.0424573076
 11
359.9310780634
 21
31.1392488159
 12
360.2201406185
 22
31.1392488159
 13
360.2201406185
 23
31.1392488159
  0
SOLID
  8
0
 62
7
  6
CONTINUOUS
 10
360.2201406185
 20
31.1392488159
 11
360.1623280082
 21
31.0101931623
 12
359.8732656185
 22
31.0424573076
 13
359.8732656185
 23
31.0424573076
  0
SOLID
  8
0
 62
7
  6
CONTINUOUS
 10
359.6998280358
 20
30.9779303754
 11
359.8732656185
 21
31.0424573076
 12
360.1623280082
 22
31.0101931623
 13
360.1623280082
 23
31.0101931623
  0
SOLID
  8
0
 62
7
  6
CONTINUOUS
 10
359.6998280358
 20
30.9779303754
 11
360.1623280082
 21
31.0101931623
 12
359.2951405909
 22
30.9456660721
 13
359.2951405909
 23
30.9456660721
  0
SOLID
  8
0
 62
7
  6
CONTINUOUS
 10
360.1623280082
 20
31.0101931623
 11
359.9888905082
 21
30.9134032852
 12
359.2951405909
 22
30.9456660721
 13
359.2951405909
 23
30.9456660721
  0
SOLID
  8
0
 62
7
  6
CONTINUOUS
 10
358.8326405772
 20
30.8811389819
 11
359.2951405909
 21
30.9456660721
 12
359.9888905082
 22
30.9134032852
 13
359.9888905082
 23
30.9134032852
  0
SOLID
  8
0
 62
7
  6
CONTINUOUS
 10
358.8326405772
 20
30.8811389819
 11
359.9888905082
 21
30.9134032852
 12
359.0060780772
 22
30.8488745775
 13
359.0060780772
 23
30.8488745775
  0
SOLID
  8
0
 62
7
  6
CONTINUOUS
 10
359.9888905082
 20
30.9134032852
 11
359.7576405634
 21
30.8488745775
 12
359.0060780772
 22
30.8488745775
 13
359.0060780772
 23
30.8488745775
  0
SOLID
  8
0
 62
7
  6
CONTINUOUS
 10
359.3529530358
 20
30.8166118918
 11
359.0060780772
 21
30.8488745775
 12
359.7576405634
 22
30.8488745775
 13
359.7576405634
 23
30.8488745775
  0
SOLID
  8
0
 62
7
  6
CONTINUOUS
 10
362.8217029531
 20
30.9779303754
 11
363.0529530634
 21
31.0747202524
 12
363.1107656736
 22
31.0101931623
 13
363.1107656736
 23
31.0101931623
  0
SOLID
  8
0
 62
7
  6
CONTINUOUS
 10
363.1107656736
 20
31.0101931623
 11
363.3420154531
 21
30.9456660721
 12
362.8217029531
 22
30.9779303754
 13
362.8217029531
 23
30.9779303754
  0
SOLID
  8
0
 62
7
  6
CONTINUOUS
 10
362.9951404531
 20
30.8811389819
 11
362.8217029531
 21
30.9779303754
 12
363.3420154531
 22
30.9456660721
 13
363.3420154531
 23
30.9456660721
  0
SOLID
  8
0
 62
7
  6
CONTINUOUS
 10
363.6888904531
 20
30.9456661188
 11
363.9779528428
 21
31.0101931623
 12
364.2092032839
 22
30.9779303754
 13
364.2092032839
 23
30.9779303754
  0
SOLID
  8
0
 62
7
  6
CONTINUOUS
 10
364.2092032839
 20
30.9779303754
 11
364.1513903428
 21
30.9134032852
 12
363.6888904531
 22
30.9456661188
 13
363.6888904531
 23
30.9456661188
  0
SOLID
  8
0
 62
7
  6
CONTINUOUS
 10
364.1513903428
 20
30.9134032852
 11
362.9951404531
 21
30.8811389819
 12
363.6888904531
 22
30.9456661188
 13
363.6888904531
 23
30.9456661188
  0
SOLID
  8
0
 62
7
  6
CONTINUOUS
 10
362.9951404531
 20
30.8811389819
 11
363.3420154531
 21
30.9456661188
 12
363.6888904531
 22
30.9456661188
 13
363.6888904531
 23
30.9456661188
  0
SOLID
  8
0
 62
7
  6
CONTINUOUS
 10
362.9951404531
 20
30.8811389819
 11
364.1513903428
 21
30.9134032852
 12
363.1107656736
 22
30.8488747093
 13
363.1107656736
 23
30.8488747093
  0
SOLID
  8
0
 62
7
  6
CONTINUOUS
 10
364.1513903428
 20
30.9134032852
 11
363.9779528428
 21
30.8488747093
 12
363.1107656736
 22
30.8488747093
 13
363.1107656736
 23
30.8488747093
  0
SOLID
  8
0
 62
7
  6
CONTINUOUS
 10
363.3420154531
 20
30.816611874
 11
363.1107656736
 21
30.8488747093
 12
363.9779528428
 22
30.8488747093
 13
363.9779528428
 23
30.8488747093
  0
SOLID
  8
0
 62
7
  6
CONTINUOUS
 10
363.9779528428
 20
30.8488747093
 11
363.6888904531
 21
30.816611874
 12
363.3420154531
 22
30.816611874
 13
363.3420154531
 23
30.816611874
  0
SOLID
  8
0
 62
7
  6
CONTINUOUS
 10
368.3717032839
 20
30.9779303754
 11
368.0248282839
 21
30.9456661188
 12
368.2560780634
 22
31.0101931623
 13
368.2560780634
 23
31.0101931623
  0
SOLID
  8
0
 62
7
  6
CONTINUOUS
 10
368.2560780634
 20
31.0101931623
 11
368.0248282839
 21
30.9456661188
 12
368.1982657839
 22
31.0747202992
 13
368.1982657839
 23
31.0747202992
  0
SOLID
  8
0
 62
7
  6
CONTINUOUS
 10
368.0248282839
 20
30.9456661188
 11
367.9092030634
 21
31.0747202992
 12
368.1982657839
 22
31.0747202992
 13
368.1982657839
 23
31.0747202992
  0
SOLID
  8
0
 62
7
  6
CONTINUOUS
 10
368.3717032839
 20
30.9779303754
 11
368.7185782839
 21
30.9456661188
 12
368.0248282839
 22
30.9456661188
 13
368.0248282839
 23
30.9456661188
  0
SOLID
  8
0
 62
7
  6
CONTINUOUS
 10
365.0763907839
 20
30.8166118918
 11
365.0763907839
 21
31.8490498836
 12
365.3654528428
 22
30.8166118918
 13
365.3654528428
 23
31.8490498836
  0
ENDBLK
  8
0
  6
BYBLOCK
 62
0
  0
BLOCK
  8
0
 62
2
  6
CONTINUOUS
  2
SYMBOL_0_BL0
 70
64
 10
241.0459637928
 20
19.6790146053
  0
TEXT
  8
0
 62
7
  6
CONTINUOUS
 10
227.3106676351
 20
19.0524287129
  7
TEXTSTYLE_3
 40
2.7338706658
  1
Ammeraal Beltech
 41
1.0
 51
15.0
 72
0
  0
TEXT
  8
0
 62
7
  6
CONTINUOUS
 10
238.1114684608
 20
16.7788920401
  7
TEXTSTYLE_4
 40
1.0935482663
  1
Innovation & Service in Belting
 41
1.0
 72
0
  0
LINE
  8
0
 62
7
  6
CONTINUOUS
 10
221.2861269837
 20
19.8190220215
 11
222.0642789771
 21
23.4799393191
  0
LINE
  8
0
 62
7
  6
CONTINUOUS
 10
232.1594472669
 20
27.1433332308
 11
222.5520967201
 21
24.0217158095
  0
LINE
  8
0
 62
7
  6
CONTINUOUS
 10
221.511410316
 20
19.1256712184
 11
229.0184855772
 21
12.3662702925
  0
LINE
  8
0
 62
7
  6
CONTINUOUS
 10
221.7739447268
 20
20.3607985118
 11
232.5822140919
 21
23.8726181108
  0
LINE
  8
0
 62
7
  6
CONTINUOUS
 10
232.5780089548
 20
13.522829547
 11
224.132549286
 21
21.1271555887
  0
LINE
  8
0
 62
7
  6
CONTINUOUS
 10
233.0978316746
 20
26.298408115
 11
232.1212721373
 21
21.7040567125
  0
LINE
  8
0
 62
7
  6
CONTINUOUS
 10
231.4214701896
 20
18.4117473987
 11
230.7350219782
 21
15.1822624744
  0
LINE
  8
0
 62
7
  6
CONTINUOUS
 10
233.7789277731
 20
13.9130317247
 11
234.7351593087
 21
18.4117473987
  0
LINE
  8
0
 62
7
  6
CONTINUOUS
 10
235.4349612564
 20
21.7040567125
 11
235.8792030588
 21
23.7940500719
  0
LINE
  8
0
 62
7
  6
CONTINUOUS
 10
229.7315866525
 20
12.2146959798
 11
233.2911100301
 21
13.3712552343
  0
LINE
  8
0
 62
7
  6
CONTINUOUS
 10
232.8725483422
 20
26.9917589181
 11
235.6539197265
 21
24.487400875
  0
ARC
  8
0
 62
7
  6
CONTINUOUS
 10
222.7773800524
 20
23.3283650064
 40
0.7290321776
 50
108.0
 51
168.0
  0
ARC
  8
0
 62
7
  6
CONTINUOUS
 10
232.3847305992
 20
26.4499824277
 40
0.7290321776
 50
348.0
 51
108.0
  0
ARC
  8
0
 62
7
  6
CONTINUOUS
 10
235.1661019835
 20
23.9456243846
 40
0.7290321776
 50
348.0
 51
48.0
  0
ARC
  8
0
 62
7
  6
CONTINUOUS
 10
229.5063033202
 20
12.9080467828
 40
0.7290321776
 50
228.0
 51
288.0
  0
ARC
  8
0
 62
7
  6
CONTINUOUS
 10
221.9992280591
 20
19.6674477088
 40
0.7290321776
 50
108.0
 51
228.0
  0
ARC
  8
0
 62
7
  6
CONTINUOUS
 10
233.0658266978
 20
14.0646060374
 40
0.7290321776
 50
228.0
 51
348.0
  0
ENDBLK
  8
0
  6
BYBLOCK
 62
0
  0
ENDSEC
  0
SECTION
  2
ENTITIES
  0
TEXT
  8
0
 62
5
  6
CONTINUOUS
 10
304.937007874
 20
25.636
  7
TEXTSTYLE_2
 40
2.8
  1
Scale :
 41
0.6
 51
0.000019
 72
0
  0
TEXT
  8
0
 62
5
  6
CONTINUOUS
 10
324.937007874
 20
25.636
  7
TEXTSTYLE_2
 40
2.8
  1
Chain type:
 41
0.6
 51
0.000019
 72
0
  0
INSERT
  8
0
 62
2
  6
CONTINUOUS
  2
SYMBOL_0_BL0
 10
241.0459637928
 20
19.6790146053
  0
INSERT
  8
0
 62
2
  6
CONTINUOUS
  2
SYMBOL_5_BL1
 10
382.3920721743
 20
35.81661148
  0
LINE
  8
0
 62
2
  6
CONTINUOUS
 10
218.937007874
 20
30.0
 11
408.937007874
 21
30.0
  0
LINE
  8
0
 62
2
  6
CONTINUOUS
 10
218.937007874
 20
30.0
 11
218.937007874
 21
10.0
  0
LINE
  8
0
 62
2
  6
CONTINUOUS
 10
218.937007874
 20
10.0
 11
408.937007874
 21
10.0
  0
LINE
  8
0
 62
2
  6
CONTINUOUS
 10
303.937007874
 20
30.0
 11
303.937007874
 21
10.0
  0
LINE
  8
0
 62
2
  6
CONTINUOUS
 10
323.937007874
 20
30.0
 11
323.937007874
 21
10.0
  0
LINE
  8
0
 62
2
  6
CONTINUOUS
 10
408.937007874
 20
30.0
 11
408.937007874
 21
10.0
  0
TEXT
  8
0
 62
5
  6
CONTINUOUS
 10
221.937007874
 20
23.303
  7
TEXTSTYLE_5
 40
1.52
  1
                                                                     Ammeraal Beltech Modular A/S
 41
1.0
 72
0
  0
TEXT
  8
0
 62
5
  6
CONTINUOUS
 10
221.937007874
 20
20.595
  7
TEXTSTYLE_5
 40
1.5
  1
                                                                      Hjulmagervej 21, 7100 Vejle,  DK
 41
1.0
 72
0
  0
TEXT
  8
0
 62
5
  6
CONTINUOUS
 10
221.937007874
 20
17.881
  7
TEXTSTYLE_5
 40
1.495
  1
                                                                      tel: 
 41
1.0
 72
0
  0
TEXT
  8
0
 62
5
  6
CONTINUOUS
 10
266.9239544389
 20
17.881
  7
TEXTSTYLE_5
 40
1.51
  1
+45 75723100     fax: +45 75723348
 41
1.0
 72
0
  0
TEXT
  8
0
 62
5
  6
CONTINUOUS
 10
221.937007874
 20
15.177
  7
TEXTSTYLE_5
 40
1.5
  1
                                                                      admin@unichains.dk  www.unichains.com
 41
1.0
 72
0
  0
TEXT
  8
0
 62
5
  6
CONTINUOUS
 10
308.687007874
 20
13.75
  7
TEXTSTYLE_6
 40
5.0
  1
1:1
 41
0.7
 72
1
 11
313.937007874
 21
13.75
  0
TEXT
  8
0
 62
5
  6
CONTINUOUS
 10
326.937007874
 20
13.75
  7
TEXTSTYLE_7
 40
7.5
  1
Sprocket Z09
 41
0.6694444444
 72
0
  0
LINE
  8
0
 62
7
  6
CONTINUOUS
 10
0.0
 20
0.0
 11
0.0
 21
297.0
  0
LINE
  8
0
 62
7
  6
CONTINUOUS
 10
8.937007874
 20
10.0
 11
8.937007874
 21
287.0
  0
LINE
  8
0
 62
7
  6
CONTINUOUS
 10
0.0
 20
0.0
 11
420.0
 21
0.0
  0
LINE
  8
0
 62
7
  6
CONTINUOUS
 10
408.937007874
 20
10.0
 11
8.937007874
 21
10.0
  0
LINE
  8
0
 62
7
  6
CONTINUOUS
 10
218.937007874
 20
30.0
 11
408.937007874
 21
30.0
  0
LINE
  8
0
 62
7
  6
CONTINUOUS
 10
210.0
 20
297.0
 11
210.0
 21
292.0
  0
LINE
  8
0
 62
7
  6
CONTINUOUS
 10
210.0
 20
0.0
 11
210.0
 21
5.0
  0
LINE
  8
0
 62
7
  6
CONTINUOUS
 10
8.937007874
 20
287.0
 11
408.937007874
 21
287.0
  0
LINE
  8
0
 62
7
  6
CONTINUOUS
 10
0.0
 20
297.0
 11
420.0
 21
297.0
  0
LINE
  8
0
 62
7
  6
CONTINUOUS
 10
408.937007874
 20
287.0
 11
408.937007874
 21
10.0
  0
LINE
  8
0
 62
7
  6
CONTINUOUS
 10
420.0
 20
0.0
 11
420.0
 21
297.0
  0
POLYLINE
  8
0
 62
9
  6
CONTINUOUS
 66
1
 70
0
  0
VERTEX
  8
0
 62
9
  6
CONTINUOUS
 10
51.29255098
 20
191.2618375153
  0
VERTEX
  8
0
 62
9
  6
CONTINUOUS
 10
50.6734153434
 20
188.4832024413
  0
VERTEX
  8
0
 62
9
  6
CONTINUOUS
 10
50.1378289863
 20
185.6899606183
  0
VERTEX
  8
0
 62
9
  6
CONTINUOUS
 10
49.6857919087
 20
182.8821120465
  0
VERTEX
  8
0
 62
9
  6
CONTINUOUS
 10
49.3173041105
 20
180.0596567258
  0
SEQEND
  0
POLYLINE
  8
0
 62
9
  6
CONTINUOUS
 66
1
 70
0
  0
VERTEX
  8
0
 62
9
  6
CONTINUOUS
 10
105.8406867874
 20
82.158286304
  0
VERTEX
  8
0
 62
9
  6
CONTINUOUS
 10
108.4694236455
 20
81.0661146805
  0
VERTEX
  8
0
 62
9
  6
CONTINUOUS
 10
111.127168677
 20
80.0536446875
  0
VERTEX
  8
0
 62
9
  6
CONTINUOUS
 10
113.813921882
 20
79.120876325
  0
VERTEX
  8
0
 62
9
  6
CONTINUOUS
 10
116.5296832603
 20
78.2678095929
  0
SEQEND
  0
POLYLINE
  8
0
 62
9
  6
CONTINUOUS
 66
1
 70
0
  0
VERTEX
  8
0
 62
9
  6
CONTINUOUS
 10
58.7113963368
 20
126.7831130253
  0
VERTEX
  8
0
 62
9
  6
CONTINUOUS
 10
60.0230906073
 20
124.2567425882
  0
VERTEX
  8
0
 62
9
  6
CONTINUOUS
 10
61.4082380517
 20
121.7727803495
  0
VERTEX
  8
0
 62
9
  6
CONTINUOUS
 10
62.8668386698
 20
119.3312263091
  0
VERTEX
  8
0
 62
9
  6
CONTINUOUS
 10
64.3988924618
 20
116.932080467
  0
SEQEND
  0
LINE
  8
0
 62
9
  6
CONTINUOUS
 10
51.2237682107
 20
193.2606546567
 11
51.2935672041
 21
191.2618730026
  0
LINE
  8
0
 62
9
  6
CONTINUOUS
 10
54.709787267
 20
193.3823891246
 11
54.7795862598
 21
191.383607471
  0
LINE
  8
0
 62
9
  6
CONTINUOUS
 10
48.5690338679
 20
178.2049080424
 11
49.3182470547
 21
180.0592757516
  0
LINE
  8
0
 62
9
  6
CONTINUOUS
 10
51.8031846108
 20
176.898226324
 11
52.5523977977
 21
178.7525940331
  0
LINE
  8
0
 62
9
  6
CONTINUOUS
 10
88.2876351448
 20
246.9995434597
 11
87.0563121942
 21
245.4235219524
  0
LINE
  8
0
 62
9
  6
CONTINUOUS
 10
91.0363300791
 20
244.8520276158
 11
89.8050071283
 21
243.2760061093
  0
POLYLINE
  8
0
 62
9
  6
CONTINUOUS
 66
1
 70
0
  0
VERTEX
  8
0
 62
9
  6
CONTINUOUS
 10
78.3417610095
 20
238.1124438528
  0
VERTEX
  8
0
 62
9
  6
CONTINUOUS
 10
80.4385022465
 20
240.0378985492
  0
VERTEX
  8
0
 62
9
  6
CONTINUOUS
 10
82.5897076424
 20
241.8983341365
  0
VERTEX
  8
0
 62
9
  6
CONTINUOUS
 10
84.795377197
 20
243.6937506147
  0
VERTEX
  8
0
 62
9
  6
CONTINUOUS
 10
87.0555109104
 20
245.4241479839
  0
SEQEND
  0
LINE
  8
0
 62
9
  6
CONTINUOUS
 10
76.5763432753
 20
237.1726027714
 11
78.3422384611
 21
238.1115458969
  0
LINE
  8
0
 62
9
  6
CONTINUOUS
 10
78.2139276618
 20
234.0927544766
 11
79.9798228475
 21
235.0316976022
  0
LINE
  8
0
 62
9
  6
CONTINUOUS
 10
183.297494721
 20
82.4376394536
 11
181.3169585836
 21
82.1592932517
  0
LINE
  8
0
 62
9
  6
CONTINUOUS
 10
182.8120389124
 20
85.8918370159
 11
180.8315027749
 21
85.613490814
  0
LINE
  8
0
 62
9
  6
CONTINUOUS
 10
103.8602921672
 20
82.4376394536
 11
105.8408283047
 21
82.1592932517
  0
LINE
  8
0
 62
9
  6
CONTINUOUS
 10
104.3457479758
 20
85.8918370159
 11
106.3262841127
 21
85.6134908135
  0
LINE
  8
0
 62
9
  6
CONTINUOUS
 10
118.2263183795
 20
77.2088335277
 11
116.5302221872
 21
78.2686720562
  0
LINE
  8
0
 62
9
  6
CONTINUOUS
 10
120.0747530493
 20
80.1669473545
 11
118.378656857
 21
81.226785883
  0
LINE
  8
0
 62
9
  6
CONTINUOUS
 10
57.3738907862
 20
128.2700830775
 11
58.7121519989
 21
126.7837934265
  0
LINE
  8
0
 62
9
  6
CONTINUOUS
 10
59.9660869052
 20
130.6041069466
 11
61.3043481172
 21
129.1178172957
  0
LINE
  8
0
 62
9
  6
CONTINUOUS
 10
65.0178936731
 20
115.030281704
 11
64.3998596844
 21
116.9323947366
  0
LINE
  8
0
 62
9
  6
CONTINUOUS
 10
68.3353156964
 20
116.1081774601
 11
67.7172817076
 21
118.0102904927
  0
POLYLINE
  8
0
 62
9
  6
CONTINUOUS
 66
1
 70
0
  0
VERTEX
  8
0
 62
9
  6
CONTINUOUS
 10
73.6606916178
 20
242.6561460075
  0
VERTEX
  8
0
 62
9
  6
CONTINUOUS
 10
73.6609015397
 20
242.7339482492
  0
VERTEX
  8
0
 62
9
  6
CONTINUOUS
 10
73.7289978031
 20
242.8345037295
  0
VERTEX
  8
0
 62
9
  6
CONTINUOUS
 10
73.8562512691
 20
242.96679202
  0
VERTEX
  8
0
 62
9
  6
CONTINUOUS
 10
74.0418191661
 20
243.1224092149
  0
VERTEX
  8
0
 62
9
  6
CONTINUOUS
 10
74.2769788101
 20
243.2946001817
  0
VERTEX
  8
0
 62
9
  6
CONTINUOUS
 10
74.5540714467
 20
243.4783816412
  0
VERTEX
  8
0
 62
9
  6
CONTINUOUS
 10
74.8663837845
 20
243.6626063837
  0
VERTEX
  8
0
 62
9
  6
CONTINUOUS
 10
75.1919668585
 20
243.8511520632
  0
SEQEND
  0
POLYLINE
  8
0
 62
9
  6
CONTINUOUS
 66
1
 70
0
  0
VERTEX
  8
0
 62
9
  6
CONTINUOUS
 10
76.3226745204
 20
237.6496843122
  0
VERTEX
  8
0
 62
9
  6
CONTINUOUS
 10
76.3248355549
 20
237.7227686248
  0
VERTEX
  8
0
 62
9
  6
CONTINUOUS
 10
76.3908774317
 20
237.8272135539
  0
VERTEX
  8
0
 62
9
  6
CONTINUOUS
 10
76.5184081743
 20
237.9592361995
  0
VERTEX
  8
0
 62
9
  6
CONTINUOUS
 10
76.7028087356
 20
238.1140548217
  0
VERTEX
  8
0
 62
9
  6
CONTINUOUS
 10
76.9374002954
 20
238.2860620313
  0
VERTEX
  8
0
 62
9
  6
CONTINUOUS
 10
77.2136861613
 20
238.469027884
  0
VERTEX
  8
0
 62
9
  6
CONTINUOUS
 10
77.5216595113
 20
238.6563255235
  0
VERTEX
  8
0
 62
9
  6
CONTINUOUS
 10
77.8501658315
 20
238.8411712001
  0
SEQEND
  0
POLYLINE
  8
0
 62
9
  6
CONTINUOUS
 66
1
 70
0
  0
VERTEX
  8
0
 62
9
  6
CONTINUOUS
 10
56.972348632
 20
127.9085328979
  0
VERTEX
  8
0
 62
9
  6
CONTINUOUS
 10
56.9493836427
 20
127.8391164758
  0
VERTEX
  8
0
 62
9
  6
CONTINUOUS
 10
56.9757209118
 20
127.7183823727
  0
VERTEX
  8
0
 62
9
  6
CONTINUOUS
 10
57.0504065307
 20
127.5507034557
  0
VERTEX
  8
0
 62
9
  6
CONTINUOUS
 10
57.1707354629
 20
127.3421528851
  0
VERTEX
  8
0
 62
9
  6
CONTINUOUS
 10
57.332349517
 20
127.1002841507
  0
VERTEX
  8
0
 62
9
  6
CONTINUOUS
 10
57.5293951965
 20
126.8338574923
  0
VERTEX
  8
0
 62
9
  6
CONTINUOUS
 10
57.754735707
 20
126.5525226123
  0
VERTEX
  8
0
 62
9
  6
CONTINUOUS
 10
58.0002094443
 20
126.2664691739
  0
SEQEND
  0
POLYLINE
  8
0
 62
9
  6
CONTINUOUS
 66
1
 70
0
  0
VERTEX
  8
0
 62
9
  6
CONTINUOUS
 10
52.758592187
 20
124.1144495532
  0
VERTEX
  8
0
 62
9
  6
CONTINUOUS
 10
52.7321806479
 20
124.0412744085
  0
VERTEX
  8
0
 62
9
  6
CONTINUOUS
 10
52.7617717495
 20
123.9235012735
  0
VERTEX
  8
0
 62
9
  6
CONTINUOUS
 10
52.8360975805
 20
123.755677741
  0
VERTEX
  8
0
 62
9
  6
CONTINUOUS
 10
52.9572428169
 20
123.5459852837
  0
VERTEX
  8
0
 62
9
  6
CONTINUOUS
 10
53.1193240569
 20
123.3037501192
  0
VERTEX
  8
0
 62
9
  6
CONTINUOUS
 10
53.3168517284
 20
123.0362751184
  0
VERTEX
  8
0
 62
9
  6
CONTINUOUS
 10
53.5473290281
 20
122.756332049
  0
VERTEX
  8
0
 62
9
  6
CONTINUOUS
 10
53.7888040969
 20
122.4677842109
  0
SEQEND
  0
POLYLINE
  8
0
 62
9
  6
CONTINUOUS
 66
1
 70
0
  0
VERTEX
  8
0
 62
9
  6
CONTINUOUS
 10
137.2261254562
 20
270.4165087585
  0
VERTEX
  8
0
 62
9
  6
CONTINUOUS
 10
137.2762965826
 20
270.4759737982
  0
VERTEX
  8
0
 62
9
  6
CONTINUOUS
 10
137.3930971636
 20
270.5092323307
  0
VERTEX
  8
0
 62
9
  6
CONTINUOUS
 10
137.5756122482
 20
270.5287740893
  0
VERTEX
  8
0
 62
9
  6
CONTINUOUS
 10
137.8177943092
 20
270.5287030318
  0
VERTEX
  8
0
 62
9
  6
CONTINUOUS
 10
138.1086192678
 20
270.5094512596
  0
VERTEX
  8
0
 62
9
  6
CONTINUOUS
 10
138.4390169873
 20
270.4721243118
  0
VERTEX
  8
0
 62
9
  6
CONTINUOUS
 10
138.7966795001
 20
270.412498151
  0
VERTEX
  8
0
 62
9
  6
CONTINUOUS
 10
139.1672854314
 20
270.3476517552
  0
SEQEND
  0
POLYLINE
  8
0
 62
9
  6
CONTINUOUS
 66
1
 70
0
  0
VERTEX
  8
0
 62
9
  6
CONTINUOUS
 10
136.0472311203
 20
264.8702469701
  0
VERTEX
  8
0
 62
9
  6
CONTINUOUS
 10
136.0958642593
 20
264.9248437155
  0
VERTEX
  8
0
 62
9
  6
CONTINUOUS
 10
136.2135911784
 20
264.9624022729
  0
VERTEX
  8
0
 62
9
  6
CONTINUOUS
 10
136.3961479159
 20
264.9815623057
  0
VERTEX
  8
0
 62
9
  6
CONTINUOUS
 10
136.6369224333
 20
264.9816298549
  0
VERTEX
  8
0
 62
9
  6
CONTINUOUS
 10
136.9271940972
 20
264.9626024741
  0
VERTEX
  8
0
 62
9
  6
CONTINUOUS
 10
137.2564495326
 20
264.9251693175
  0
VERTEX
  8
0
 62
9
  6
CONTINUOUS
 10
137.612763408
 20
264.8706861799
  0
VERTEX
  8
0
 62
9
  6
CONTINUOUS
 10
137.9832303597
 20
264.801126391
  0
SEQEND
  0
POLYLINE
  8
0
 62
9
  6
CONTINUOUS
 66
1
 70
0
  0
VERTEX
  8
0
 62
9
  6
CONTINUOUS
 10
50.6837690992
 20
193.2417974722
  0
VERTEX
  8
0
 62
9
  6
CONTINUOUS
 10
50.6215568807
 20
193.2033830183
  0
VERTEX
  8
0
 62
9
  6
CONTINUOUS
 10
50.5641260137
 20
193.0939660593
  0
VERTEX
  8
0
 62
9
  6
CONTINUOUS
 10
50.5135565868
 20
192.9175095663
  0
VERTEX
  8
0
 62
9
  6
CONTINUOUS
 10
50.4716801739
 20
192.6804046139
  0
VERTEX
  8
0
 62
9
  6
CONTINUOUS
 10
50.4400134964
 20
192.3912389024
  0
VERTEX
  8
0
 62
9
  6
CONTINUOUS
 10
50.4197034892
 20
192.0604857199
  0
VERTEX
  8
0
 62
9
  6
CONTINUOUS
 10
50.4114857601
 20
191.7001246103
  0
VERTEX
  8
0
 62
9
  6
CONTINUOUS
 10
50.4156579465
 20
191.3232074865
  0
SEQEND
  0
POLYLINE
  8
0
 62
9
  6
CONTINUOUS
 66
1
 70
0
  0
VERTEX
  8
0
 62
9
  6
CONTINUOUS
 10
45.0170546257
 20
193.0439114423
  0
VERTEX
  8
0
 62
9
  6
CONTINUOUS
 10
44.9497861366
 20
193.0048330394
  0
VERTEX
  8
0
 62
9
  6
CONTINUOUS
 10
44.8967511236
 20
192.8955927903
  0
VERTEX
  8
0
 62
9
  6
CONTINUOUS
 10
44.8458131261
 20
192.7192567826
  0
VERTEX
  8
0
 62
9
  6
CONTINUOUS
 10
44.8038280478
 20
192.480752384
  0
VERTEX
  8
0
 62
9
  6
CONTINUOUS
 10
44.7722837187
 20
192.1910056695
  0
VERTEX
  8
0
 62
9
  6
CONTINUOUS
 10
44.7516690774
 20
191.8591395916
  0
VERTEX
  8
0
 62
9
  6
CONTINUOUS
 10
44.7482809957
 20
191.4965428064
  0
VERTEX
  8
0
 62
9
  6
CONTINUOUS
 10
44.7477866551
 20
191.1202851561
  0
SEQEND
  0
POLYLINE
  8
0
 62
9
  6
CONTINUOUS
 66
1
 70
0
  0
VERTEX
  8
0
 62
9
  6
CONTINUOUS
 10
222.6537759324
 20
114.8633110877
  0
VERTEX
  8
0
 62
9
  6
CONTINUOUS
 10
222.7253748121
 20
114.8781310346
  0
VERTEX
  8
0
 62
9
  6
CONTINUOUS
 10
222.8167649779
 20
114.9613068302
  0
VERTEX
  8
0
 62
9
  6
CONTINUOUS
 10
222.9246363703
 20
115.109825932
  0
VERTEX
  8
0
 62
9
  6
CONTINUOUS
 10
223.0450819963
 20
115.3183091294
  0
VERTEX
  8
0
 62
9
  6
CONTINUOUS
 10
223.1737394375
 20
115.579205373
  0
VERTEX
  8
0
 62
9
  6
CONTINUOUS
 10
223.3059488523
 20
115.8830652663
  0
VERTEX
  8
0
 62
9
  6
CONTINUOUS
 10
223.4369217501
 20
116.218883313
  0
VERTEX
  8
0
 62
9
  6
CONTINUOUS
 10
223.5619144259
 20
116.5744965246
  0
SEQEND
  0
POLYLINE
  8
0
 62
9
  6
CONTINUOUS
 66
1
 70
0
  0
VERTEX
  8
0
 62
9
  6
CONTINUOUS
 10
228.0464267155
 20
113.1111326333
  0
VERTEX
  8
0
 62
9
  6
CONTINUOUS
 10
228.1230040193
 20
113.1248471418
  0
VERTEX
  8
0
 62
9
  6
CONTINUOUS
 10
228.2102029953
 20
113.2093603551
  0
VERTEX
  8
0
 62
9
  6
CONTINUOUS
 10
228.3183795223
 20
113.357640179
  0
VERTEX
  8
0
 62
9
  6
CONTINUOUS
 10
228.4394058991
 20
113.5674012599
  0
VERTEX
  8
0
 62
9
  6
CONTINUOUS
 10
228.5681470853
 20
113.8288853135
  0
VERTEX
  8
0
 62
9
  6
CONTINUOUS
 10
228.7010233951
 20
114.1336867954
  0
VERTEX
  8
0
 62
9
  6
CONTINUOUS
 10
228.8282225549
 20
114.4732575266
  0
VERTEX
  8
0
 62
9
  6
CONTINUOUS
 10
228.9573747786
 20
114.8266549897
  0
SEQEND
  0
POLYLINE
  8
0
 62
9
  6
CONTINUOUS
 66
1
 70
0
  0
VERTEX
  8
0
 62
9
  6
CONTINUOUS
 10
59.1113601832
 20
113.1111326367
  0
VERTEX
  8
0
 62
9
  6
CONTINUOUS
 10
59.0347763849
 20
113.1248495869
  0
VERTEX
  8
0
 62
9
  6
CONTINUOUS
 10
58.9475733603
 20
113.2093725909
  0
VERTEX
  8
0
 62
9
  6
CONTINUOUS
 10
58.8393921587
 20
113.3576644115
  0
VERTEX
  8
0
 62
9
  6
CONTINUOUS
 10
58.7183626658
 20
113.5674357574
  0
VERTEX
  8
0
 62
9
  6
CONTINUOUS
 10
58.5896227103
 20
113.8289234457
  0
VERTEX
  8
0
 62
9
  6
CONTINUOUS
 10
58.4567499356
 20
114.1337197381
  0
VERTEX
  8
0
 62
9
  6
CONTINUOUS
 10
58.3295564491
 20
114.4732776405
  0
VERTEX
  8
0
 62
9
  6
CONTINUOUS
 10
58.2004121097
 20
114.8266549897
  0
SEQEND
  0
POLYLINE
  8
0
 62
9
  6
CONTINUOUS
 66
1
 70
0
  0
VERTEX
  8
0
 62
9
  6
CONTINUOUS
 10
64.5040109558
 20
114.8633110876
  0
VERTEX
  8
0
 62
9
  6
CONTINUOUS
 10
64.4324122179
 20
114.8781302488
  0
VERTEX
  8
0
 62
9
  6
CONTINUOUS
 10
64.3410220935
 20
114.9613054728
  0
VERTEX
  8
0
 62
9
  6
CONTINUOUS
 10
64.2331506497
 20
115.1098242287
  0
VERTEX
  8
0
 62
9
  6
CONTINUOUS
 10
64.1127048916
 20
115.3183073027
  0
VERTEX
  8
0
 62
9
  6
CONTINUOUS
 10
63.9840472548
 20
115.5792036281
  0
VERTEX
  8
0
 62
9
  6
CONTINUOUS
 10
63.8518376017
 20
115.8830637778
  0
VERTEX
  8
0
 62
9
  6
CONTINUOUS
 10
63.7208644452
 20
116.2188822144
  0
VERTEX
  8
0
 62
9
  6
CONTINUOUS
 10
63.5958715136
 20
116.5744959003
  0
SEQEND
  0
POLYLINE
  8
0
 62
9
  6
CONTINUOUS
 66
1
 70
0
  0
VERTEX
  8
0
 62
9
  6
CONTINUOUS
 10
169.2177988654
 20
76.7506091713
  0
VERTEX
  8
0
 62
9
  6
CONTINUOUS
 10
169.2821728675
 20
76.7159390366
  0
VERTEX
  8
0
 62
9
  6
CONTINUOUS
 10
169.4056461671
 20
76.7209109263
  0
VERTEX
  8
0
 62
9
  6
CONTINUOUS
 10
169.5837466862
 20
76.7653447646
  0
VERTEX
  8
0
 62
9
  6
CONTINUOUS
 10
169.8100238048
 20
76.8476312033
  0
VERTEX
  8
0
 62
9
  6
CONTINUOUS
 10
170.0762819956
 20
76.9647899119
  0
VERTEX
  8
0
 62
9
  6
CONTINUOUS
 10
170.3728776576
 20
77.112577521
  0
VERTEX
  8
0
 62
9
  6
CONTINUOUS
 10
170.6890683976
 20
77.2856413136
  0
VERTEX
  8
0
 62
9
  6
CONTINUOUS
 10
171.0134021087
 20
77.4777130949
  0
SEQEND
  0
POLYLINE
  8
0
 62
9
  6
CONTINUOUS
 66
1
 70
0
  0
VERTEX
  8
0
 62
9
  6
CONTINUOUS
 10
172.222530431
 20
71.9420334963
  0
VERTEX
  8
0
 62
9
  6
CONTINUOUS
 10
172.2900075652
 20
71.9033164772
  0
VERTEX
  8
0
 62
9
  6
CONTINUOUS
 10
172.4111299025
 20
71.9120069333
  0
VERTEX
  8
0
 62
9
  6
CONTINUOUS
 10
172.5893103636
 20
71.9560613372
  0
VERTEX
  8
0
 62
9
  6
CONTINUOUS
 10
172.8168537708
 20
72.0389533922
  0
VERTEX
  8
0
 62
9
  6
CONTINUOUS
 10
173.0835539508
 20
72.1565085591
  0
VERTEX
  8
0
 62
9
  6
CONTINUOUS
 10
173.3812657255
 20
72.304588795
  0
VERTEX
  8
0
 62
9
  6
CONTINUOUS
 10
173.6969777937
 20
72.4829530228
  0
VERTEX
  8
0
 62
9
  6
CONTINUOUS
 10
174.0230736475
 20
72.6706537364
  0
SEQEND
  0
POLYLINE
  8
0
 62
9
  6
CONTINUOUS
 66
1
 70
0
  0
VERTEX
  8
0
 62
9
  6
CONTINUOUS
 10
42.8107614682
 20
180.5314011074
  0
VERTEX
  8
0
 62
9
  6
CONTINUOUS
 10
42.7609119607
 20
180.5911360175
  0
VERTEX
  8
0
 62
9
  6
CONTINUOUS
 10
42.7484409081
 20
180.7119374188
  0
VERTEX
  8
0
 62
9
  6
CONTINUOUS
 10
42.7608894446
 20
180.8950730799
  0
VERTEX
  8
0
 62
9
  6
CONTINUOUS
 10
42.8030138961
 20
181.1335635122
  0
VERTEX
  8
0
 62
9
  6
CONTINUOUS
 10
42.8724744147
 20
181.416627151
  0
VERTEX
  8
0
 62
9
  6
CONTINUOUS
 10
42.9666072442
 20
181.7355236304
  0
VERTEX
  8
0
 62
9
  6
CONTINUOUS
 10
43.0874349931
 20
182.0773984717
  0
VERTEX
  8
0
 62
9
  6
CONTINUOUS
 10
43.2156512711
 20
182.4311136077
  0
SEQEND
  0
POLYLINE
  8
0
 62
9
  6
CONTINUOUS
 66
1
 70
0
  0
VERTEX
  8
0
 62
9
  6
CONTINUOUS
 10
48.0680502245
 20
178.4073185731
  0
VERTEX
  8
0
 62
9
  6
CONTINUOUS
 10
48.0227279824
 20
178.4646934908
  0
VERTEX
  8
0
 62
9
  6
CONTINUOUS
 10
48.0061830888
 20
178.5871538485
  0
VERTEX
  8
0
 62
9
  6
CONTINUOUS
 10
48.0190147848
 20
178.7702642437
  0
VERTEX
  8
0
 62
9
  6
CONTINUOUS
 10
48.0607583179
 20
179.007392585
  0
VERTEX
  8
0
 62
9
  6
CONTINUOUS
 10
48.1299017756
 20
179.2899503001
  0
VERTEX
  8
0
 62
9
  6
CONTINUOUS
 10
48.2239408448
 20
179.6077034062
  0
VERTEX
  8
0
 62
9
  6
CONTINUOUS
 10
48.3394695162
 20
179.9491431756
  0
VERTEX
  8
0
 62
9
  6
CONTINUOUS
 10
48.4723034467
 20
180.3019029713
  0
SEQEND
  0
POLYLINE
  8
0
 62
9
  6
CONTINUOUS
 66
1
 70
0
  0
VERTEX
  8
0
 62
9
  6
CONTINUOUS
 10
103.785093007
 20
81.9025696263
  0
VERTEX
  8
0
 62
9
  6
CONTINUOUS
 10
103.8121208207
 20
81.8346319512
  0
VERTEX
  8
0
 62
9
  6
CONTINUOUS
 10
103.9099027248
 20
81.7590735326
  0
VERTEX
  8
0
 62
9
  6
CONTINUOUS
 10
104.0748971584
 20
81.6786310205
  0
VERTEX
  8
0
 62
9
  6
CONTINUOUS
 10
104.301128191
 20
81.5962179615
  0
VERTEX
  8
0
 62
9
  6
CONTINUOUS
 10
104.5804019647
 20
81.5148192732
  0
VERTEX
  8
0
 62
9
  6
CONTINUOUS
 10
104.9026034674
 20
81.4373831332
  0
VERTEX
  8
0
 62
9
  6
CONTINUOUS
 10
105.2560628884
 20
81.3667141999
  0
VERTEX
  8
0
 62
9
  6
CONTINUOUS
 10
105.6279782867
 20
81.3053720298
  0
SEQEND
  0
POLYLINE
  8
0
 62
9
  6
CONTINUOUS
 66
1
 70
0
  0
VERTEX
  8
0
 62
9
  6
CONTINUOUS
 10
102.9959580618
 20
76.2875827302
  0
VERTEX
  8
0
 62
9
  6
CONTINUOUS
 10
103.0227617253
 20
76.2145503071
  0
VERTEX
  8
0
 62
9
  6
CONTINUOUS
 10
103.1211329363
 20
76.143351645
  0
VERTEX
  8
0
 62
9
  6
CONTINUOUS
 10
103.2859447133
 20
76.0625670837
  0
VERTEX
  8
0
 62
9
  6
CONTINUOUS
 10
103.5135350619
 20
75.9798039989
  0
VERTEX
  8
0
 62
9
  6
CONTINUOUS
 10
103.7934022575
 20
75.8984249101
  0
VERTEX
  8
0
 62
9
  6
CONTINUOUS
 10
104.1166468491
 20
75.8204955119
  0
VERTEX
  8
0
 62
9
  6
CONTINUOUS
 10
104.4731466402
 20
75.7541946318
  0
VERTEX
  8
0
 62
9
  6
CONTINUOUS
 10
104.8436022499
 20
75.6883713461
  0
SEQEND
  0
LINE
  8
0
 62
7
  6
CONTINUOUS
 10
100.1975246116
 20
209.7405674361
 11
100.4808805677
 21
210.1903386275
  0
LINE
  8
0
 62
7
  6
CONTINUOUS
 10
100.1687165174
 20
210.6334386907
 11
99.741281956
 21
210.0331878909
  0
LINE
  8
0
 62
7
  6
CONTINUOUS
 10
107.6888924326
 20
216.5002945268
 11
108.0429366343
 21
216.8968251965
  0
LINE
  8
0
 62
7
  6
CONTINUOUS
 10
107.7250837515
 20
217.3233259954
 11
107.2875158295
 21
216.8645486538
  0
LINE
  8
0
 62
7
  6
CONTINUOUS
 10
100.4568738311
 20
210.9343980153
 11
100.1687165174
 21
210.6334386907
  0
LINE
  8
0
 62
7
  6
CONTINUOUS
 10
100.4808805677
 20
210.1903386275
 11
100.7690377784
 21
210.4912978444
  0
LINE
  8
0
 62
7
  6
CONTINUOUS
 10
99.8613346997
 20
208.6203088859
 11
100.2215312967
 21
208.9965079945
  0
LINE
  8
0
 62
7
  6
CONTINUOUS
 10
111.7494005344
 20
219.3235736952
 11
112.1352231298
 21
219.689259401
  0
LINE
  8
0
 62
7
  6
CONTINUOUS
 10
111.8539738763
 20
220.1407372455
 11
111.3797371965
 21
219.7199737644
  0
LINE
  8
0
 62
7
  6
CONTINUOUS
 10
105.2499719157
 20
215.4136991368
 11
102.4400980241
 21
212.9303331795
  0
LINE
  8
0
 62
7
  6
CONTINUOUS
 10
102.7923485004
 20
212.5317695228
 11
105.1339100396
 21
214.6012411209
  0
LINE
  8
0
 62
7
  6
CONTINUOUS
 10
100.9659504105
 20
211.3122648858
 11
100.4568738311
 21
210.9343980153
  0
LINE
  8
0
 62
7
  6
CONTINUOUS
 10
100.7690377784
 20
210.4912978444
 11
101.2060750036
 21
210.7939248569
  0
LINE
  8
0
 62
7
  6
CONTINUOUS
 10
108.2897928265
 20
217.6115030174
 11
107.7250837515
 21
217.3233259954
  0
LINE
  8
0
 62
7
  6
CONTINUOUS
 10
108.0429366343
 20
216.8968251965
 11
108.5241229448
 21
217.122756259
  0
LINE
  8
0
 62
7
  6
CONTINUOUS
 10
131.2132497309
 20
227.2758405781
 11
131.7023437434
 21
227.4840974283
  0
LINE
  8
0
 62
7
  6
CONTINUOUS
 10
112.4407102575
 20
220.3809095887
 11
111.8539738763
 21
220.1407372455
  0
LINE
  8
0
 62
7
  6
CONTINUOUS
 10
131.5961134369
 20
228.0052965347
 11
131.0049504751
 21
227.7762360884
  0
LINE
  8
0
 62
7
  6
CONTINUOUS
 10
112.1352231298
 20
219.689259401
 11
112.6335454265
 21
219.874353969
  0
LINE
  8
0
 62
7
  6
CONTINUOUS
 10
136.2209647943
 20
228.7619819331
 11
135.7162310155
 21
228.5951581796
  0
LINE
  8
0
 62
7
  6
CONTINUOUS
 10
128.5234899594
 20
227.3317995922
 11
124.5286518872
 21
226.1475755802
  0
LINE
  8
0
 62
7
  6
CONTINUOUS
 10
124.6798293738
 20
225.6375964099
 11
128.1753135442
 21
226.6737926745
  0
LINE
  8
0
 62
7
  6
CONTINUOUS
 10
100.1350879727
 20
209.3677038445
 11
100.1975246116
 21
209.7405674361
  0
LINE
  8
0
 62
7
  6
CONTINUOUS
 10
99.741281956
 20
210.0331878909
 11
99.6068060144
 21
209.585084495
  0
LINE
  8
0
 62
7
  6
CONTINUOUS
 10
107.5654643365
 20
216.1429556163
 11
107.6888924326
 21
216.5002945268
  0
LINE
  8
0
 62
7
  6
CONTINUOUS
 10
107.2875158295
 20
216.8645486538
 11
107.0606123031
 21
216.2974173083
  0
LINE
  8
0
 62
7
  6
CONTINUOUS
 10
111.5966569705
 20
218.9777486013
 11
111.7494005344
 21
219.3235736952
  0
LINE
  8
0
 62
7
  6
CONTINUOUS
 10
111.3797371965
 20
219.7199737644
 11
111.1064143026
 21
219.1736969208
  0
LINE
  8
0
 62
7
  6
CONTINUOUS
 10
110.7490934361
 20
214.1372502483
 11
110.3950482786
 21
213.7407188662
  0
LINE
  8
0
 62
7
  6
CONTINUOUS
 10
110.7129012059
 20
213.3142180075
 11
111.1504691223
 21
213.7729953566
  0
LINE
  8
0
 62
7
  6
CONTINUOUS
 10
104.7647717379
 20
208.9729683597
 11
102.7476707994
 21
206.8662533568
  0
LINE
  8
0
 62
7
  6
CONTINUOUS
 10
102.5555595788
 20
205.8964743971
 11
105.1489750932
 21
208.6051079954
  0
LINE
  8
0
 62
7
  6
CONTINUOUS
 10
130.949537342
 20
227.004950623
 11
131.2132497309
 21
227.2758405781
  0
LINE
  8
0
 62
7
  6
CONTINUOUS
 10
114.6022904762
 20
216.7140086151
 11
114.2164678808
 21
216.3483229093
  0
LINE
  8
0
 62
7
  6
CONTINUOUS
 10
131.0049504751
 20
227.7762360884
 11
130.5583485852
 21
227.3594995956
  0
LINE
  8
0
 62
7
  6
CONTINUOUS
 10
114.4977171736
 20
215.8968450016
 11
114.9719538485
 21
216.3176084905
  0
LINE
  8
0
 62
7
  6
CONTINUOUS
 10
106.53177341
 20
209.8736582256
 11
107.0000857625
 21
210.2875525847
  0
LINE
  8
0
 62
7
  6
CONTINUOUS
 10
135.5968107485
 20
227.8311616585
 11
135.8821560455
 21
228.0791609597
  0
LINE
  8
0
 62
7
  6
CONTINUOUS
 10
135.7162310155
 20
228.5951581796
 11
135.2364910661
 21
228.217041619
  0
LINE
  8
0
 62
7
  6
CONTINUOUS
 10
110.1481921253
 20
213.026040993
 11
110.7129012059
 21
213.3142180075
  0
LINE
  8
0
 62
7
  6
CONTINUOUS
 10
135.8821560455
 20
228.0791609597
 11
136.1799970734
 21
228.2215137172
  0
LINE
  8
0
 62
7
  6
CONTINUOUS
 10
137.4518702799
 20
226.3365829527
 11
137.1540292521
 21
226.1942301952
  0
LINE
  8
0
 62
7
  6
CONTINUOUS
 10
137.6642977317
 20
224.5405914897
 11
137.3664567038
 21
224.3982387322
  0
LINE
  8
0
 62
7
  6
CONTINUOUS
 10
110.3950482786
 20
213.7407188662
 11
109.9138629239
 21
213.514788516
  0
LINE
  8
0
 62
7
  6
CONTINUOUS
 10
132.9775444648
 20
223.8354808558
 11
132.4884481161
 21
223.6272235295
  0
LINE
  8
0
 62
7
  6
CONTINUOUS
 10
113.9109807876
 20
215.6566726662
 11
114.4977171736
 21
215.8968450016
  0
LINE
  8
0
 62
7
  6
CONTINUOUS
 10
132.5946784375
 20
223.10602435
 11
133.1858413974
 21
223.3350848055
  0
LINE
  8
0
 62
7
  6
CONTINUOUS
 10
114.2164678808
 20
216.3483229093
 11
113.7181455841
 21
216.1632283413
  0
LINE
  8
0
 62
7
  6
CONTINUOUS
 10
101.4077889418
 20
211.4660799776
 11
100.9659504105
 21
211.3122648858
  0
LINE
  8
0
 62
7
  6
CONTINUOUS
 10
137.1130639163
 20
225.6537621113
 11
137.6177976777
 21
225.8205860128
  0
LINE
  8
0
 62
7
  6
CONTINUOUS
 10
137.3254913593
 20
223.8577707223
 11
137.8302251371
 21
224.0245944851
  0
LINE
  8
0
 62
7
  6
CONTINUOUS
 10
129.7631454977
 20
223.1499698957
 11
126.367533022
 21
222.1433794516
  0
LINE
  8
0
 62
7
  6
CONTINUOUS
 10
125.9497204306
 20
221.3537708079
 11
129.9445585028
 21
222.5379948199
  0
LINE
  8
0
 62
7
  6
CONTINUOUS
 10
99.6068060144
 20
209.585084495
 11
99.6260113805
 21
208.9898369605
  0
LINE
  8
0
 62
7
  6
CONTINUOUS
 10
102.2674404416
 20
210.2103514291
 11
102.1713562235
 21
206.2643347614
  0
LINE
  8
0
 62
7
  6
CONTINUOUS
 10
102.7476707994
 20
206.8662533568
 11
102.8581590904
 21
210.3658344241
  0
LINE
  8
0
 62
7
  6
CONTINUOUS
 10
107.0606123031
 20
216.2974173083
 11
107.0007547835
 21
215.8547782381
  0
LINE
  8
0
 62
7
  6
CONTINUOUS
 10
111.3773731099
 20
214.3401270806
 11
111.4372306072
 21
214.7827661808
  0
LINE
  8
0
 62
7
  6
CONTINUOUS
 10
111.1064143026
 20
219.1736969208
 11
111.0099205894
 21
218.7375762581
  0
LINE
  8
0
 62
7
  6
CONTINUOUS
 10
115.2452767277
 20
216.8638853578
 11
115.3417704212
 21
217.3000060522
  0
LINE
  8
0
 62
7
  6
CONTINUOUS
 10
110.8725215322
 20
214.4945891587
 11
110.7490934361
 21
214.1372502483
  0
LINE
  8
0
 62
7
  6
CONTINUOUS
 10
111.1504691223
 20
213.7729953566
 11
111.3773731099
 21
214.3401270806
  0
LINE
  8
0
 62
7
  6
CONTINUOUS
 10
114.75503404
 20
217.0598337089
 11
114.6022904762
 21
216.7140086151
  0
LINE
  8
0
 62
7
  6
CONTINUOUS
 10
114.9719538485
 20
216.3176084905
 11
115.2452767277
 21
216.8638853578
  0
LINE
  8
0
 62
7
  6
CONTINUOUS
 10
126.367533022
 20
222.1433794516
 11
128.7351384406
 21
226.6178287538
  0
LINE
  8
0
 62
7
  6
CONTINUOUS
 10
128.1753135442
 20
226.6737926745
 11
125.7078364309
 21
222.1697375518
  0
LINE
  8
0
 62
7
  6
CONTINUOUS
 10
130.5583485852
 20
227.3594995956
 11
130.3158822576
 21
226.9843698192
  0
LINE
  8
0
 62
7
  6
CONTINUOUS
 10
133.2412568537
 20
224.1063708109
 11
132.9775444648
 21
223.8354808558
  0
LINE
  8
0
 62
7
  6
CONTINUOUS
 10
133.1858413974
 20
223.3350848055
 11
133.6324456179
 21
223.7518218018
  0
LINE
  8
0
 62
7
  6
CONTINUOUS
 10
137.7372155769
 20
226.5845822538
 11
137.4518702799
 21
226.3365829527
  0
LINE
  8
0
 62
7
  6
CONTINUOUS
 10
137.6177976777
 20
225.8205860128
 11
138.1884882716
 21
226.316584615
  0
LINE
  8
0
 62
7
  6
CONTINUOUS
 10
137.9496430287
 20
224.7885907908
 11
137.6642977317
 21
224.5405914897
  0
LINE
  8
0
 62
7
  6
CONTINUOUS
 10
137.8302251371
 20
224.0245944851
 11
138.3099627155
 21
224.4027107934
  0
LINE
  8
0
 62
7
  6
CONTINUOUS
 10
153.3656955185
 20
226.5891376034
 11
153.1281976853
 21
226.4095058659
  0
LINE
  8
0
 62
7
  6
CONTINUOUS
 10
153.1368679564
 20
225.7628218164
 11
153.5961330492
 21
226.0168717726
  0
LINE
  8
0
 62
7
  6
CONTINUOUS
 10
160.6556973968
 20
223.7416856685
 11
160.9208688306
 21
223.877173279
  0
LINE
  8
0
 62
7
  6
CONTINUOUS
 10
111.0099205894
 20
218.7375762581
 11
111.0580918232
 21
218.266238432
  0
LINE
  8
0
 62
7
  6
CONTINUOUS
 10
107.6127954823
 20
215.382169512
 11
107.5654643365
 21
216.1429556163
  0
LINE
  8
0
 62
7
  6
CONTINUOUS
 10
110.825190042
 20
215.2553747276
 11
110.8725215322
 21
214.4945891587
  0
LINE
  8
0
 62
7
  6
CONTINUOUS
 10
111.5804988825
 20
218.2156632037
 11
111.5966569705
 21
218.9777486013
  0
LINE
  8
0
 62
7
  6
CONTINUOUS
 10
114.7711922463
 20
217.8219189169
 11
114.75503404
 21
217.0598337089
  0
LINE
  8
0
 62
7
  6
CONTINUOUS
 10
130.6687403086
 20
226.2962974945
 11
130.949537342
 21
227.004950623
  0
LINE
  8
0
 62
7
  6
CONTINUOUS
 10
133.5220515956
 20
224.8150232443
 11
133.2412568537
 21
224.1063708109
  0
LINE
  8
0
 62
7
  6
CONTINUOUS
 10
135.427407558
 20
227.4897513118
 11
135.5968107485
 21
227.8311616585
  0
LINE
  8
0
 62
7
  6
CONTINUOUS
 10
137.9066211351
 20
226.9259928806
 11
137.7372155769
 21
226.5845822538
  0
LINE
  8
0
 62
7
  6
CONTINUOUS
 10
138.1190485782
 20
225.1300014916
 11
137.9496430287
 21
224.7885907908
  0
LINE
  8
0
 62
7
  6
CONTINUOUS
 10
135.2364910661
 20
228.217041619
 11
134.976137231
 21
227.7577492307
  0
LINE
  8
0
 62
7
  6
CONTINUOUS
 10
138.3099627155
 20
224.4027107934
 11
138.5703165463
 21
224.8620032187
  0
LINE
  8
0
 62
7
  6
CONTINUOUS
 10
133.6324456179
 20
223.7518218018
 11
133.8749119381
 21
224.1269516147
  0
LINE
  8
0
 62
7
  6
CONTINUOUS
 10
153.5961330492
 20
226.0168717726
 11
153.9681032987
 21
226.3915339549
  0
LINE
  8
0
 62
7
  6
CONTINUOUS
 10
161.1968723201
 20
225.3554912936
 11
161.4958671807
 21
225.591841738
  0
LINE
  8
0
 62
7
  6
CONTINUOUS
 10
162.6228033581
 20
222.0721876685
 11
162.3238084738
 21
221.8358371535
  0
LINE
  8
0
 62
7
  6
CONTINUOUS
 10
161.3348762779
 20
226.0946494017
 11
160.9032979608
 21
225.790554394
  0
LINE
  8
0
 62
7
  6
CONTINUOUS
 10
162.4847993647
 20
221.3330294545
 11
162.9163776937
 21
221.6371244975
  0
LINE
  8
0
 62
9
  6
CONTINUOUS
 10
228.9573747786
 20
114.8266549897
 11
223.5619153443
 21
116.5744959106
  0
LINE
  8
0
 62
7
  6
CONTINUOUS
 10
228.0464266829
 20
113.1111326439
 11
218.8224711918
 21
116.1081774601
  0
LINE
  8
0
 62
9
  6
CONTINUOUS
 10
222.7588942796
 20
116.9320805147
 11
219.4405051806
 21
118.0102904927
  0
LINE
  8
0
 62
7
  6
CONTINUOUS
 10
51.8031846108
 20
176.898226324
 11
42.8107614898
 21
180.5314010987
  0
LINE
  8
0
 62
9
  6
CONTINUOUS
 10
52.5523977977
 20
178.7525940331
 11
49.3173041105
 21
180.0596567258
  0
LINE
  8
0
 62
9
  6
CONTINUOUS
 10
48.4723034759
 20
180.30190296
 11
43.2156512711
 21
182.4311136077
  0
LINE
  8
0
 62
7
  6
CONTINUOUS
 10
172.2225304129
 20
71.9420335253
 11
167.0830338389
 21
80.1669473545
  0
LINE
  8
0
 62
7
  6
CONTINUOUS
 10
78.2139276618
 20
234.0927544766
 11
73.6606916287
 21
242.6561459869
  0
LINE
  8
0
 62
7
  6
CONTINUOUS
 10
100.2215312967
 20
208.9965079945
 11
100.1350879727
 21
209.3677038445
  0
LINE
  8
0
 62
7
  6
CONTINUOUS
 10
102.8581590904
 20
210.3658344241
 11
102.7717158179
 21
210.7370303279
  0
LINE
  8
0
 62
7
  6
CONTINUOUS
 10
107.0007547835
 20
215.8547782381
 11
107.0879910829
 21
215.3890853237
  0
LINE
  8
0
 62
7
  6
CONTINUOUS
 10
115.3417704212
 20
217.3000060522
 11
115.293599148
 21
217.7713439415
  0
LINE
  8
0
 62
7
  6
CONTINUOUS
 10
130.1967309405
 20
226.5258038178
 11
130.1584002347
 21
226.1922804657
  0
LINE
  8
0
 62
9
  6
CONTINUOUS
 10
104.8436022499
 20
75.6883713461
 11
105.6279778415
 21
81.3053710188
  0
LINE
  8
0
 62
7
  6
CONTINUOUS
 10
102.9959580666
 20
76.2875827642
 11
104.3457479758
 21
85.8918370159
  0
LINE
  8
0
 62
9
  6
CONTINUOUS
 10
105.8406867874
 20
82.158286304
 11
106.3262841133
 21
85.613490814
  0
LINE
  8
0
 62
7
  6
CONTINUOUS
 10
135.3614484102
 20
227.1605758871
 11
135.427407558
 21
227.4897513118
  0
LINE
  8
0
 62
7
  6
CONTINUOUS
 10
135.2096646529
 20
260.929806549
 11
137.2261254513
 21
270.4165087357
  0
LINE
  8
0
 62
9
  6
CONTINUOUS
 10
137.1659598544
 20
260.5139831673
 11
137.8913972043
 21
263.9268975665
  0
LINE
  8
0
 62
9
  6
CONTINUOUS
 10
137.9832303537
 20
264.8011263602
 11
139.1672854314
 21
270.3476517552
  0
LINE
  8
0
 62
7
  6
CONTINUOUS
 10
130.3158822576
 20
226.9843698192
 11
130.1967309405
 21
226.5258038178
  0
LINE
  8
0
 62
7
  6
CONTINUOUS
 10
133.8749119381
 20
224.1269516147
 11
133.9940632403
 21
224.5855176892
  0
LINE
  8
0
 62
7
  6
CONTINUOUS
 10
134.976137231
 20
227.7577492307
 11
134.8317255372
 21
227.2050455008
  0
LINE
  8
0
 62
7
  6
CONTINUOUS
 10
138.5703165463
 20
224.8620032187
 11
138.7147306339
 21
225.4147070066
  0
LINE
  8
0
 62
7
  6
CONTINUOUS
 10
157.2281155301
 20
227.642382582
 11
154.4366269258
 21
223.1718832976
  0
LINE
  8
0
 62
7
  6
CONTINUOUS
 10
160.9966419153
 20
225.08602078
 11
161.1968723201
 21
225.3554912936
  0
LINE
  8
0
 62
7
  6
CONTINUOUS
 10
160.9032979608
 20
225.790554394
 11
160.5366561519
 21
225.3524779993
  0
LINE
  8
0
 62
9
  6
CONTINUOUS
 10
53.7888040969
 20
122.4677842109
 11
58.0002084534
 21
126.2664686855
  0
LINE
  8
0
 62
7
  6
CONTINUOUS
 10
52.7585922125
 20
124.1144495761
 11
59.9660869052
 21
130.6041069466
  0
LINE
  8
0
 62
9
  6
CONTINUOUS
 10
58.7113963368
 20
126.7831130253
 11
61.3043481179
 21
129.1178172957
  0
LINE
  8
0
 62
7
  6
CONTINUOUS
 10
196.1214568091
 20
244.8520276158
 11
203.7640900209
 21
250.8231070929
  0
LINE
  8
0
 62
9
  6
CONTINUOUS
 10
197.3527797598
 20
243.2760061086
 11
200.1022760994
 21
245.4241480789
  0
LINE
  8
0
 62
9
  6
CONTINUOUS
 10
200.7345678123
 20
246.0348169798
 11
205.2068444229
 21
249.522606002
  0
LINE
  8
0
 62
9
  6
CONTINUOUS
 10
174.0230736475
 20
72.6706537364
 11
171.0134024175
 21
77.4777120343
  0
LINE
  8
0
 62
9
  6
CONTINUOUS
 10
170.6281035461
 20
78.2678097239
 11
168.7791300312
 21
81.226785883
  0
LINE
  8
0
 62
9
  6
CONTINUOUS
 10
79.9798228475
 20
235.0316976022
 11
78.3417610095
 21
238.1124438528
  0
LINE
  8
0
 62
9
  6
CONTINUOUS
 10
77.8501658466
 20
238.8411711727
 11
75.1919668585
 21
243.8511520632
  0
LINE
  8
0
 62
7
  6
CONTINUOUS
 10
102.1041565088
 20
210.6551193955
 11
102.2674404416
 21
210.2103514291
  0
LINE
  8
0
 62
7
  6
CONTINUOUS
 10
107.0879910829
 20
215.3890853237
 11
107.1951797483
 21
215.0709382897
  0
LINE
  8
0
 62
7
  6
CONTINUOUS
 10
105.1339100396
 20
214.6012411209
 11
106.53177341
 21
209.8736582256
  0
LINE
  8
0
 62
7
  6
CONTINUOUS
 10
107.0000857625
 20
210.2875525847
 11
105.6022223921
 21
215.01513548
  0
LINE
  8
0
 62
7
  6
CONTINUOUS
 10
111.0580918232
 20
218.266238432
 11
111.1384264365
 21
217.9402730668
  0
LINE
  8
0
 62
7
  6
CONTINUOUS
 10
111.4372306072
 20
214.7827661808
 11
111.3499947413
 21
215.248459511
  0
LINE
  8
0
 62
7
  6
CONTINUOUS
 10
130.6941500634
 20
225.6500554467
 11
130.6687403086
 21
226.2962974945
  0
LINE
  8
0
 62
7
  6
CONTINUOUS
 10
130.1584002347
 20
226.1922804657
 11
130.1625615921
 21
225.650277763
  0
LINE
  8
0
 62
7
  6
CONTINUOUS
 10
134.0323940056
 20
224.9190407493
 11
134.0282302823
 21
225.4610431218
  0
LINE
  8
0
 62
9
  6
CONTINUOUS
 10
137.8912887748
 20
263.9268941364
 11
137.9832303567
 21
264.8011263604
  0
LINE
  8
0
 62
7
  6
CONTINUOUS
 10
133.9940632403
 20
224.5855176892
 11
134.0323940056
 21
224.9190407493
  0
LINE
  8
0
 62
7
  6
CONTINUOUS
 10
137.9725779502
 20
227.2551677293
 11
137.9066211351
 21
226.9259928806
  0
LINE
  8
0
 62
7
  6
CONTINUOUS
 10
138.1850053932
 20
225.4591763403
 11
138.1190485782
 21
225.1300014916
  0
LINE
  8
0
 62
9
  6
CONTINUOUS
 10
105.6279778443
 20
81.3053710175
 11
105.8405860854
 21
82.1583266064
  0
LINE
  8
0
 62
7
  6
CONTINUOUS
 10
160.5366561519
 20
225.3524779993
 11
160.2011321347
 21
224.6795564326
  0
LINE
  8
0
 62
7
  6
CONTINUOUS
 10
153.5158937925
 20
226.8893822719
 11
153.3656955185
 21
226.5891376034
  0
LINE
  8
0
 62
7
  6
CONTINUOUS
 10
153.9681032987
 20
226.3915339549
 11
154.1183015726
 21
226.6917786235
  0
LINE
  8
0
 62
7
  6
CONTINUOUS
 10
160.6949413249
 20
224.5139620472
 11
160.9966419153
 21
225.08602078
  0
LINE
  8
0
 62
7
  6
CONTINUOUS
 10
155.9492872829
 20
224.5582579585
 11
157.5335174356
 21
227.1310893161
  0
LINE
  8
0
 62
7
  6
CONTINUOUS
 10
155.0442389341
 20
223.025484365
 11
155.7483396673
 21
224.1689652924
  0
LINE
  8
0
 62
7
  6
CONTINUOUS
 10
160.4554670394
 20
223.4722152962
 11
160.6556973968
 21
223.7416856685
  0
LINE
  8
0
 62
7
  6
CONTINUOUS
 10
162.8230336681
 20
222.3416578996
 11
162.6228033581
 21
222.0721876685
  0
LINE
  8
0
 62
7
  6
CONTINUOUS
 10
162.9163776937
 20
221.6371244975
 11
163.2830194315
 21
222.0752006803
  0
LINE
  8
0
 62
9
  6
CONTINUOUS
 10
200.1021908326
 20
245.4242151483
 11
200.7345678145
 21
246.0348169782
  0
LINE
  8
0
 62
9
  6
CONTINUOUS
 10
58.0002084547
 20
126.2664686828
 11
58.7113451005
 21
126.7832086287
  0
POLYLINE
  8
0
 62
9
  6
CONTINUOUS
 66
1
 70
0
  0
VERTEX
  8
0
 62
9
  6
CONTINUOUS
 10
245.5806916823
 20
182.6468990526
  0
VERTEX
  8
0
 62
9
  6
CONTINUOUS
 10
245.5507177686
 20
182.6410385657
  0
VERTEX
  8
0
 62
9
  6
CONTINUOUS
 10
245.4628550292
 20
182.6313809037
  0
VERTEX
  8
0
 62
9
  6
CONTINUOUS
 10
245.3182506439
 20
182.6114192621
  0
VERTEX
  8
0
 62
9
  6
CONTINUOUS
 10
245.1190707384
 20
182.5861071012
  0
SEQEND
  0
POLYLINE
  8
0
 62
9
  6
CONTINUOUS
 66
1
 70
0
  0
VERTEX
  8
0
 62
9
  6
CONTINUOUS
 10
49.3172886602
 20
180.0595493478
  0
VERTEX
  8
0
 62
9
  6
CONTINUOUS
 10
48.6829787783
 20
180.2413445117
  0
VERTEX
  8
0
 62
9
  6
CONTINUOUS
 10
48.4723034762
 20
180.301902963
  0
SEQEND
  0
LINE
  8
0
 62
9
  6
CONTINUOUS
 10
223.561915346
 20
116.5744959132
 11
222.7588371028
 21
116.9319883411
  0
POLYLINE
  8
0
 62
9
  6
CONTINUOUS
 66
1
 70
0
  0
VERTEX
  8
0
 62
9
  6
CONTINUOUS
 10
230.3512857574
 20
113.9387126942
  0
VERTEX
  8
0
 62
9
  6
CONTINUOUS
 10
230.324557359
 20
113.9534901611
  0
VERTEX
  8
0
 62
9
  6
CONTINUOUS
 10
230.2510427703
 20
114.002569043
  0
VERTEX
  8
0
 62
9
  6
CONTINUOUS
 10
230.1274382886
 20
114.0802274456
  0
VERTEX
  8
0
 62
9
  6
CONTINUOUS
 10
229.9585872853
 20
114.1888675807
  0
SEQEND
  0
LINE
  8
0
 62
9
  6
CONTINUOUS
 10
78.3416801525
 20
238.1123715279
 11
77.8501658488
 21
238.8411711747
  0
LINE
  8
0
 62
7
  6
CONTINUOUS
 10
99.6260113805
 20
208.9898369605
 11
99.8613346997
 21
208.6203088859
  0
LINE
  8
0
 62
7
  6
CONTINUOUS
 10
102.7717158179
 20
210.7370303279
 11
102.5363924279
 21
211.1065583285
  0
LINE
  8
0
 62
7
  6
CONTINUOUS
 10
107.9106956993
 20
214.8081222376
 11
107.6127954823
 21
215.382169512
  0
LINE
  8
0
 62
7
  6
CONTINUOUS
 10
110.5272902139
 20
215.8294224777
 11
110.825190042
 21
215.2553747276
  0
LINE
  8
0
 62
9
  6
CONTINUOUS
 10
171.0134024205
 20
77.4777120352
 11
170.628000498
 21
78.2677758673
  0
LINE
  8
0
 62
7
  6
CONTINUOUS
 10
107.1951797483
 20
215.0709382897
 11
107.4295098666
 21
214.5821915313
  0
LINE
  8
0
 62
7
  6
CONTINUOUS
 10
111.2428057761
 20
215.5666059499
 11
111.0084755687
 21
216.0553528279
  0
LINE
  8
0
 62
7
  6
CONTINUOUS
 10
111.8295839021
 20
217.6188120151
 11
111.5804988825
 21
218.2156632037
  0
LINE
  8
0
 62
7
  6
CONTINUOUS
 10
114.5221071478
 20
218.418770232
 11
114.7711922463
 21
217.8219189169
  0
LINE
  8
0
 62
7
  6
CONTINUOUS
 10
111.1384264365
 20
217.9402730668
 11
111.3312616054
 21
217.433717447
  0
LINE
  8
0
 62
7
  6
CONTINUOUS
 10
115.2132646923
 20
218.0973090538
 11
115.0204294445
 21
218.6038648
  0
LINE
  8
0
 62
7
  6
CONTINUOUS
 10
111.3499947413
 20
215.248459511
 11
111.2428057761
 21
215.5666059499
  0
LINE
  8
0
 62
7
  6
CONTINUOUS
 10
115.293599148
 20
217.7713439415
 11
115.2132646923
 21
218.0973090538
  0
LINE
  8
0
 62
9
  6
CONTINUOUS
 10
139.0952603863
 20
271.9987852234
 11
139.1672854314
 21
270.3476517552
  0
LINE
  8
0
 62
7
  6
CONTINUOUS
 10
133.4966441472
 20
225.4612659143
 11
133.5220515956
 21
224.8150232443
  0
LINE
  8
1_AXIS
 62
2
  6
CONTINUOUS
 10
143.5788934441
 20
170.2640303186
 11
143.5788934441
 21
168.1640303186
  0
LINE
  8
1_AXIS
 62
2
  6
CENTER
 10
143.5788934441
 20
163.9640303186
 11
143.5788934441
 21
64.3315303186
  0
LINE
  8
1_AXIS
 62
2
  6
CENTER
 10
143.5788934441
 20
174.4640303186
 11
143.5788934441
 21
274.0965303186
  0
LINE
  8
0
 62
7
  6
CONTINUOUS
 10
138.7147306339
 20
225.4147070066
 11
138.7307045078
 21
226.1664681777
  0
POLYLINE
  8
0
 62
9
  6
CONTINUOUS
 66
1
 70
0
  0
VERTEX
  8
0
 62
9
  6
CONTINUOUS
 10
148.0422353018
 20
271.533620925
  0
VERTEX
  8
0
 62
9
  6
CONTINUOUS
 10
148.0190250973
 20
271.0015400972
  0
VERTEX
  8
0
 62
9
  6
CONTINUOUS
 10
148.0012927475
 20
270.6844365404
  0
VERTEX
  8
0
 62
9
  6
CONTINUOUS
 10
147.9905014569
 20
270.3476517552
  0
SEQEND
  0
LINE
  8
0
 62
7
  6
CONTINUOUS
 10
138.2134797334
 20
226.1052915279
 11
138.1850053932
 21
225.4591763403
  0
LINE
  8
0
 62
9
  6
CONTINUOUS
 10
131.9115254611
 20
85.6925176371
 11
132.1882246617
 21
87.6732845468
  0
LINE
  8
0
 62
7
  6
CONTINUOUS
 10
150.5423669536
 20
228.8397268243
 11
149.8032515558
 21
223.8946577218
  0
LINE
  8
0
 62
7
  6
CONTINUOUS
 10
150.4213851937
 20
223.8022682971
 11
150.7516282484
 21
226.0117672891
  0
LINE
  8
0
 62
7
  6
CONTINUOUS
 10
150.8459833943
 20
226.6430526312
 11
151.0818713032
 21
228.2212662812
  0
LINE
  8
0
 62
9
  6
CONTINUOUS
 10
161.1811935765
 20
251.6890543337
 11
160.7637435985
 21
249.7331055829
  0
LINE
  8
0
 62
9
  6
CONTINUOUS
 10
112.6376737385
 20
71.0944617842
 11
113.1347132407
 21
72.6706537364
  0
LINE
  8
0
 62
7
  6
CONTINUOUS
 10
160.2011321347
 20
224.6795564326
 11
159.9643681472
 21
223.9735165952
  0
LINE
  8
0
 62
7
  6
CONTINUOUS
 10
160.6272944714
 20
224.3122363794
 11
160.6949413249
 21
224.5139620472
  0
LINE
  8
0
 62
7
  6
CONTINUOUS
 10
160.353996759
 20
223.1696267944
 11
160.4554670394
 21
223.4722152962
  0
POLYLINE
  8
0
 62
9
  6
CONTINUOUS
 66
1
 70
0
  0
VERTEX
  8
0
 62
9
  6
CONTINUOUS
 10
104.2111998944
 20
74.1614474456
  0
VERTEX
  8
0
 62
9
  6
CONTINUOUS
 10
104.2211115207
 20
74.1903358598
  0
VERTEX
  8
0
 62
9
  6
CONTINUOUS
 10
104.2566791098
 20
74.2712560551
  0
VERTEX
  8
0
 62
9
  6
CONTINUOUS
 10
104.3116940137
 20
74.4064679471
  0
VERTEX
  8
0
 62
9
  6
CONTINUOUS
 10
104.3893629921
 20
74.5916188857
  0
SEQEND
  0
POLYLINE
  8
0
 62
9
  6
CONTINUOUS
 66
1
 70
0
  0
VERTEX
  8
0
 62
9
  6
CONTINUOUS
 10
104.3893629921
 20
74.5916188857
  0
VERTEX
  8
0
 62
9
  6
CONTINUOUS
 10
104.5931558111
 20
75.083672956
  0
VERTEX
  8
0
 62
9
  6
CONTINUOUS
 10
104.7182745733
 20
75.3755880075
  0
VERTEX
  8
0
 62
9
  6
CONTINUOUS
 10
104.8436022499
 20
75.6883713461
  0
SEQEND
  0
LINE
  8
0
 62
9
  6
CONTINUOUS
 10
183.1086727799
 20
243.7081045924
 11
182.1711984006
 21
241.9414292441
  0
LINE
  8
0
 62
9
  6
CONTINUOUS
 10
98.8300223664
 20
97.7332000665
 11
99.8912709024
 21
99.428414373
  0
POLYLINE
  8
0
 62
9
  6
CONTINUOUS
 66
1
 70
0
  0
VERTEX
  8
0
 62
9
  6
CONTINUOUS
 10
52.3228680225
 20
121.7045930403
  0
VERTEX
  8
0
 62
9
  6
CONTINUOUS
 10
52.3490298834
 20
121.7203517789
  0
VERTEX
  8
0
 62
9
  6
CONTINUOUS
 10
52.4282907363
 20
121.7594778393
  0
VERTEX
  8
0
 62
9
  6
CONTINUOUS
 10
52.5573471266
 20
121.8276932592
  0
VERTEX
  8
0
 62
9
  6
CONTINUOUS
 10
52.7358577452
 20
121.9196024499
  0
SEQEND
  0
LINE
  8
0
 62
9
  6
CONTINUOUS
 10
244.0235422563
 20
191.4779322955
 11
242.4100002327
 21
191.120285156
  0
POLYLINE
  8
0
 62
9
  6
CONTINUOUS
 66
1
 70
0
  0
VERTEX
  8
0
 62
9
  6
CONTINUOUS
 10
245.1190707384
 20
182.5861071012
  0
VERTEX
  8
0
 62
9
  6
CONTINUOUS
 10
244.591043004
 20
182.5165698245
  0
VERTEX
  8
0
 62
9
  6
CONTINUOUS
 10
244.2756777725
 20
182.4789683252
  0
VERTEX
  8
0
 62
9
  6
CONTINUOUS
 10
243.9421356171
 20
182.4311136077
  0
SEQEND
  0
LINE
  8
0
 62
9
  6
CONTINUOUS
 10
59.3002430237
 20
166.2007862924
 11
61.2989659452
 21
166.2722473387
  0
LINE
  8
1_AXIS
 62
2
  6
CONTINUOUS
 10
144.6288934441
 20
169.2140303186
 11
142.5288934441
 21
169.2140303186
  0
LINE
  8
1_AXIS
 62
2
  6
CENTER
 10
138.3288934441
 20
169.2140303186
 11
38.6963934441
 21
169.2140303186
  0
LINE
  8
1_AXIS
 62
2
  6
CENTER
 10
148.8288934441
 20
169.2140303186
 11
248.4613934441
 21
169.2140303186
  0
LINE
  8
0
 62
9
  6
CONTINUOUS
 10
227.8575438648
 20
166.2007863007
 11
225.8588209426
 21
166.2722473392
  0
LINE
  8
0
 62
9
  6
CONTINUOUS
 10
41.5770952124
 20
182.6468991014
 11
43.2156512712
 21
182.4311136076
  0
POLYLINE
  8
0
 62
9
  6
CONTINUOUS
 66
1
 70
0
  0
VERTEX
  8
0
 62
9
  6
CONTINUOUS
 10
43.5888185097
 20
191.3771744329
  0
VERTEX
  8
0
 62
9
  6
CONTINUOUS
 10
44.1087854248
 20
191.2619219772
  0
VERTEX
  8
0
 62
9
  6
CONTINUOUS
 10
44.4179922758
 20
191.1893945669
  0
VERTEX
  8
0
 62
9
  6
CONTINUOUS
 10
44.7477866551
 20
191.1202851561
  0
SEQEND
  0
LINE
  8
0
 62
9
  6
CONTINUOUS
 10
223.8055094877
 20
143.2205573985
 11
221.9028831901
 21
143.8370094807
  0
LINE
  8
0
 62
9
  6
CONTINUOUS
 10
65.4134577048
 20
200.870549583
 11
67.2672017712
 21
200.1197946721
  0
LINE
  8
0
 62
9
  6
CONTINUOUS
 10
234.8349188419
 20
121.7045929945
 11
233.3689827911
 21
122.4677842109
  0
POLYLINE
  8
0
 62
9
  6
CONTINUOUS
 66
1
 70
0
  0
VERTEX
  8
0
 62
9
  6
CONTINUOUS
 10
229.9585872853
 20
114.1888675807
  0
VERTEX
  8
0
 62
9
  6
CONTINUOUS
 10
229.5093968737
 20
114.4750086216
  0
VERTEX
  8
0
 62
9
  6
CONTINUOUS
 10
229.2436433127
 20
114.6489170653
  0
VERTEX
  8
0
 62
9
  6
CONTINUOUS
 10
228.9573747786
 20
114.8266549897
  0
SEQEND
  0
LINE
  8
0
 62
9
  6
CONTINUOUS
 10
77.080825691
 20
221.0790237279
 11
78.6578705535
 21
219.8490117362
  0
LINE
  8
0
 62
9
  6
CONTINUOUS
 10
206.2032093528
 20
112.7324792314
 11
204.718033035
 21
114.0719758925
  0
LINE
  8
0
 62
7
  6
CONTINUOUS
 10
102.1713562235
 20
206.2643347614
 11
102.5555595788
 21
205.8964743971
  0
LINE
  8
0
 62
7
  6
CONTINUOUS
 10
101.950474973
 20
210.8022637267
 11
102.1041565088
 21
210.6551193955
  0
LINE
  8
0
 62
7
  6
CONTINUOUS
 10
105.1489750932
 20
208.6051079954
 11
104.7647717379
 21
208.9729683597
  0
LINE
  8
0
 62
7
  6
CONTINUOUS
 10
102.5363924279
 20
211.1065583285
 11
102.382710892
 21
211.2537026597
  0
LINE
  8
0
 62
9
  6
CONTINUOUS
 10
74.0754643377
 20
245.0696968749
 11
75.1919668585
 21
243.8511520632
  0
LINE
  8
0
 62
7
  6
CONTINUOUS
 10
102.4400980241
 20
212.9303331795
 11
102.7923485004
 21
212.5317695228
  0
LINE
  8
0
 62
7
  6
CONTINUOUS
 10
105.6022223921
 20
215.01513548
 11
105.2499719157
 21
215.4136991368
  0
POLYLINE
  8
0
 62
9
  6
CONTINUOUS
 66
1
 70
0
  0
VERTEX
  8
0
 62
9
  6
CONTINUOUS
 10
81.228246602
 20
250.4643649688
  0
VERTEX
  8
0
 62
9
  6
CONTINUOUS
 10
81.5524815172
 20
250.0418481754
  0
VERTEX
  8
0
 62
9
  6
CONTINUOUS
 10
81.7427279865
 20
249.7875346231
  0
VERTEX
  8
0
 62
9
  6
CONTINUOUS
 10
81.9509424653
 20
249.522606002
  0
SEQEND
  0
LINE
  8
0
 62
7
  6
CONTINUOUS
 10
107.4295098666
 20
214.5821915313
 11
108.0016450557
 21
213.8144900932
  0
LINE
  8
0
 62
7
  6
CONTINUOUS
 10
108.3556897352
 20
214.2110211191
 11
107.9106956993
 21
214.8081222376
  0
LINE
  8
0
 62
7
  6
CONTINUOUS
 10
110.082296178
 20
216.4265235962
 11
110.5272902139
 21
215.8294224777
  0
LINE
  8
0
 62
7
  6
CONTINUOUS
 10
111.0084755687
 20
216.0553528279
 11
110.4363403796
 21
216.8230542659
  0
LINE
  8
0
 62
9
  6
CONTINUOUS
 10
188.3277645288
 20
97.7332000709
 11
187.2665159866
 21
99.4284143729
  0
LINE
  8
0
 62
7
  6
CONTINUOUS
 10
111.3312616054
 20
217.433717447
 11
111.8375102616
 21
216.621057327
  0
LINE
  8
0
 62
7
  6
CONTINUOUS
 10
112.2233328569
 20
216.9867430328
 11
111.8295839021
 21
217.6188120151
  0
LINE
  8
0
 62
7
  6
CONTINUOUS
 10
114.128358193
 20
219.0508392142
 11
114.5221071478
 21
218.418770232
  0
LINE
  8
0
 62
7
  6
CONTINUOUS
 10
115.0204294445
 20
218.6038648
 11
114.5141807884
 21
219.41652492
  0
LINE
  8
0
 62
9
  6
CONTINUOUS
 10
104.0491141011
 20
243.7081045885
 11
104.9865884874
 21
241.9414292435
  0
LINE
  8
0
 62
9
  6
CONTINUOUS
 10
182.9465869466
 20
74.161447426
 11
182.3141846383
 21
75.6883713461
  0
POLYLINE
  8
0
 62
9
  6
CONTINUOUS
 66
1
 70
0
  0
VERTEX
  8
0
 62
9
  6
CONTINUOUS
 10
174.5201131014
 20
71.0944617689
  0
VERTEX
  8
0
 62
9
  6
CONTINUOUS
 10
174.5091367329
 20
71.1229626487
  0
VERTEX
  8
0
 62
9
  6
CONTINUOUS
 10
174.484368588
 20
71.2078135202
  0
VERTEX
  8
0
 62
9
  6
CONTINUOUS
 10
174.4395999206
 20
71.3467547372
  0
VERTEX
  8
0
 62
9
  6
CONTINUOUS
 10
174.3800850806
 20
71.5385132419
  0
SEQEND
  0
POLYLINE
  8
0
 62
9
  6
CONTINUOUS
 66
1
 70
0
  0
VERTEX
  8
0
 62
9
  6
CONTINUOUS
 10
174.3800850806
 20
71.5385132419
  0
VERTEX
  8
0
 62
9
  6
CONTINUOUS
 10
174.2199131775
 20
72.0464440272
  0
VERTEX
  8
0
 62
9
  6
CONTINUOUS
 10
174.1281203318
 20
72.3504887203
  0
VERTEX
  8
0
 62
9
  6
CONTINUOUS
 10
174.0230736475
 20
72.6706537364
  0
SEQEND
  0
LINE
  8
0
 62
7
  6
CONTINUOUS
 10
124.5286518872
 20
226.1475755802
 11
124.6798293738
 21
225.6375964099
  0
LINE
  8
0
 62
7
  6
CONTINUOUS
 10
125.7078364309
 20
222.1697375518
 11
125.9497204306
 21
221.3537708079
  0
LINE
  8
0
 62
9
  6
CONTINUOUS
 10
125.9765933037
 20
251.689054332
 11
126.3940432891
 21
249.7331055832
  0
LINE
  8
0
 62
7
  6
CONTINUOUS
 10
130.1625615921
 20
225.650277763
 11
130.3537761438
 21
224.7121193714
  0
LINE
  8
0
 62
7
  6
CONTINUOUS
 10
130.8428724925
 20
224.9203766976
 11
130.6941500634
 21
225.6500554467
  0
LINE
  8
0
 62
7
  6
CONTINUOUS
 10
133.347921718
 20
226.1909446633
 11
133.4966441472
 21
225.4612659143
  0
LINE
  8
0
 62
9
  6
CONTINUOUS
 10
155.2462614354
 20
85.6925176383
 11
154.9695622271
 21
87.6732845474
  0
LINE
  8
0
 62
7
  6
CONTINUOUS
 10
134.8317255372
 20
227.2050455008
 11
134.8817084609
 21
226.7824593265
  0
LINE
  8
0
 62
7
  6
CONTINUOUS
 10
135.3864398721
 20
226.9492827999
 11
135.3614484102
 21
227.1605758871
  0
LINE
  8
0
 62
7
  6
CONTINUOUS
 10
137.9475864884
 20
227.4664608165
 11
137.9725779502
 21
227.2551677293
  0
LINE
  8
0
 62
7
  6
CONTINUOUS
 10
138.1884882716
 20
226.316584615
 11
138.2134797334
 21
226.1052915279
  0
POLYLINE
  8
0
 62
9
  6
CONTINUOUS
 66
1
 70
0
  0
VERTEX
  8
0
 62
9
  6
CONTINUOUS
 10
148.0625265524
 20
271.9987852212
  0
VERTEX
  8
0
 62
9
  6
CONTINUOUS
 10
148.06309309
 20
271.9682490157
  0
VERTEX
  8
0
 62
9
  6
CONTINUOUS
 10
148.0573468257
 20
271.8800440733
  0
VERTEX
  8
0
 62
9
  6
CONTINUOUS
 10
148.0518949171
 20
271.7341702509
  0
VERTEX
  8
0
 62
9
  6
CONTINUOUS
 10
148.0422353018
 20
271.533620925
  0
SEQEND
  0
LINE
  8
0
 62
7
  6
CONTINUOUS
 10
153.5630714095
 20
227.2050252377
 11
153.5158937925
 21
226.8893822719
  0
LINE
  8
0
 62
7
  6
CONTINUOUS
 10
154.1183015726
 20
226.6917786235
 11
154.1812050473
 21
227.112635813
  0
LINE
  8
0
 62
7
  6
CONTINUOUS
 10
159.9643681472
 20
223.9735165952
 11
159.826364142
 21
223.2343583459
  0
LINE
  8
0
 62
7
  6
CONTINUOUS
 10
162.9245039485
 20
222.6442464013
 11
162.8230336681
 21
222.3416578996
  0
LINE
  8
0
 62
7
  6
CONTINUOUS
 10
163.2830194315
 20
222.0752006803
 11
163.4521366128
 21
222.5795149911
  0
LINE
  8
0
 62
9
  6
CONTINUOUS
 10
206.2129981734
 20
250.8337444262
 11
205.2068444225
 21
249.5226060015
  0
POLYLINE
  8
0
 62
9
  6
CONTINUOUS
 66
1
 70
0
  0
VERTEX
  8
0
 62
9
  6
CONTINUOUS
 10
213.0823225878
 20
245.0696968407
  0
VERTEX
  8
0
 62
9
  6
CONTINUOUS
 10
213.0631282862
 20
245.0459405869
  0
VERTEX
  8
0
 62
9
  6
CONTINUOUS
 10
213.0020293484
 20
244.9820653083
  0
VERTEX
  8
0
 62
9
  6
CONTINUOUS
 10
212.9040870585
 20
244.8738238966
  0
VERTEX
  8
0
 62
9
  6
CONTINUOUS
 10
212.767776742
 20
244.726403281
  0
SEQEND
  0
POLYLINE
  8
0
 62
9
  6
CONTINUOUS
 66
1
 70
0
  0
VERTEX
  8
0
 62
9
  6
CONTINUOUS
 10
212.767776742
 20
244.726403281
  0
VERTEX
  8
0
 62
9
  6
CONTINUOUS
 10
212.4079817302
 20
244.3337249513
  0
VERTEX
  8
0
 62
9
  6
CONTINUOUS
 10
212.1905677249
 20
244.1022076685
  0
VERTEX
  8
0
 62
9
  6
CONTINUOUS
 10
211.9658200297
 20
243.8511520632
  0
SEQEND
  0
LINE
  8
0
 62
9
  6
CONTINUOUS
 10
80.954577541
 20
112.7324792252
 11
82.4397538532
 21
114.0719758917
  0
LINE
  8
0
 62
9
  6
CONTINUOUS
 10
210.0769611922
 20
221.0790237344
 11
208.4999163341
 21
219.8490117363
  0
LINE
  8
0
 62
9
  6
CONTINUOUS
 10
56.8065011036
 20
113.9387127368
 11
58.2004121097
 21
114.8266549897
  0
POLYLINE
  8
0
 62
9
  6
CONTINUOUS
 66
1
 70
0
  0
VERTEX
  8
0
 62
9
  6
CONTINUOUS
 10
52.7358577452
 20
121.9196024499
  0
VERTEX
  8
0
 62
9
  6
CONTINUOUS
 10
53.2082583614
 20
122.1655422371
  0
VERTEX
  8
0
 62
9
  6
CONTINUOUS
 10
53.4917442721
 20
122.3087373501
  0
VERTEX
  8
0
 62
9
  6
CONTINUOUS
 10
53.7888040969
 20
122.4677842109
  0
SEQEND
  0
LINE
  8
0
 62
9
  6
CONTINUOUS
 10
221.7443291803
 20
200.8705495907
 11
219.8905851172
 21
200.1197946728
  0
LINE
  8
0
 62
9
  6
CONTINUOUS
 10
63.3522774031
 20
143.2205573906
 11
65.2549036988
 21
143.8370094804
  0
POLYLINE
  8
0
 62
9
  6
CONTINUOUS
 66
1
 70
0
  0
VERTEX
  8
0
 62
9
  6
CONTINUOUS
 10
43.1342446431
 20
191.4779323461
  0
VERTEX
  8
0
 62
9
  6
CONTINUOUS
 10
43.1644153132
 20
191.4731877202
  0
VERTEX
  8
0
 62
9
  6
CONTINUOUS
 10
43.250282396
 20
191.4522121272
  0
VERTEX
  8
0
 62
9
  6
CONTINUOUS
 10
43.3929933533
 20
191.4215123219
  0
VERTEX
  8
0
 62
9
  6
CONTINUOUS
 10
43.5888185097
 20
191.3771744329
  0
SEQEND
  0
LINE
  8
0
 62
7
  6
CONTINUOUS
 10
108.0016450557
 20
213.8144900932
 11
108.403020792
 21
213.4502351343
  0
LINE
  8
0
 62
7
  6
CONTINUOUS
 10
108.820636526
 20
213.7614663566
 11
108.3556897352
 21
214.2110211191
  0
LINE
  8
0
 62
7
  6
CONTINUOUS
 10
109.6173489984
 20
216.8760778831
 11
110.082296178
 21
216.4265235962
  0
LINE
  8
0
 62
7
  6
CONTINUOUS
 10
111.8375102616
 20
216.621057327
 11
112.2071736783
 21
216.2246571313
  0
LINE
  8
0
 62
7
  6
CONTINUOUS
 10
112.6492461243
 20
216.5000472682
 11
112.2233328569
 21
216.9867430328
  0
LINE
  8
0
 62
7
  6
CONTINUOUS
 10
113.7024450045
 20
219.5375348523
 11
114.128358193
 21
219.0508392142
  0
POLYLINE
  8
0
 62
9
  6
CONTINUOUS
 66
1
 70
0
  0
VERTEX
  8
0
 62
9
  6
CONTINUOUS
 10
80.9447887556
 20
250.8337444575
  0
VERTEX
  8
0
 62
9
  6
CONTINUOUS
 10
80.9648510431
 20
250.8107165303
  0
VERTEX
  8
0
 62
9
  6
CONTINUOUS
 10
81.0171461934
 20
250.7394539968
  0
VERTEX
  8
0
 62
9
  6
CONTINUOUS
 10
81.1067356748
 20
250.6242037464
  0
VERTEX
  8
0
 62
9
  6
CONTINUOUS
 10
81.228246602
 20
250.4643649688
  0
SEQEND
  0
LINE
  8
0
 62
7
  6
CONTINUOUS
 10
130.3537761438
 20
224.7121193714
 11
130.5620754294
 21
224.2117237151
  0
LINE
  8
0
 62
7
  6
CONTINUOUS
 10
131.0724155032
 20
224.315740744
 11
130.8428724925
 21
224.9203766976
  0
LINE
  8
0
 62
7
  6
CONTINUOUS
 10
133.1183764009
 20
226.7955799948
 11
133.347921718
 21
226.1909446633
  0
LINE
  8
0
 62
7
  6
CONTINUOUS
 10
129.9445585028
 20
222.5379948199
 11
129.7631454977
 21
223.1499698957
  0
LINE
  8
0
 62
7
  6
CONTINUOUS
 10
128.7351384406
 20
226.6178287538
 11
128.5234899594
 21
227.3317995922
  0
LINE
  8
0
 62
7
  6
CONTINUOUS
 10
138.6432343915
 20
226.9059939828
 11
138.4523202673
 21
227.63328457
  0
LINE
  8
0
 62
7
  6
CONTINUOUS
 10
134.0282302823
 20
225.4610431218
 11
133.8370157306
 21
226.3992015134
  0
LINE
  8
0
 62
7
  6
CONTINUOUS
 10
138.7307045078
 20
226.1664681777
 11
138.6432343915
 21
226.9059939828
  0
LINE
  8
0
 62
9
  6
CONTINUOUS
 10
149.1745565316
 20
264.8011263597
 11
149.2664981291
 21
263.9268939859
  0
LINE
  8
0
 62
7
  6
CONTINUOUS
 10
158.487372102
 20
222.1958907858
 11
158.0382664196
 21
227.4471836329
  0
LINE
  8
0
 62
7
  6
CONTINUOUS
 10
157.7737145732
 20
223.680968478
 11
157.8797600938
 21
222.3422897184
  0
LINE
  8
0
 62
7
  6
CONTINUOUS
 10
157.5335174356
 20
227.1310893161
 11
157.7721233075
 21
224.1190611607
  0
LINE
  8
0
 62
7
  6
CONTINUOUS
 10
159.826364142
 20
223.2343583459
 11
159.8547715647
 21
222.6638060483
  0
LINE
  8
0
 62
7
  6
CONTINUOUS
 10
160.3512865083
 20
222.833920022
 11
160.353996759
 21
223.1696267944
  0
LINE
  8
0
 62
7
  6
CONTINUOUS
 10
162.9272142465
 20
222.979953315
 11
162.9245039485
 21
222.6442464013
  0
LINE
  8
0
 62
7
  6
CONTINUOUS
 10
163.8634338094
 20
224.4612843414
 11
163.8661440601
 21
224.7969911138
  0
LINE
  8
0
 62
9
  6
CONTINUOUS
 10
116.5297863241
 20
78.2677757313
 11
116.1443844675
 21
77.4777120345
  0
LINE
  8
0
 62
9
  6
CONTINUOUS
 10
209.307621039
 20
238.8411711742
 11
208.816106651
 21
238.1123714026
  0
LINE
  8
0
 62
9
  6
CONTINUOUS
 10
64.3989496474
 20
116.9319882794
 11
63.5958715416
 21
116.5744959129
  0
LINE
  8
0
 62
9
  6
CONTINUOUS
 10
238.6854834114
 20
180.3019029628
 11
237.8404980826
 21
180.0595493062
  0
LINE
  8
0
 62
9
  6
CONTINUOUS
 10
235.8652138558
 20
191.2619436966
 11
236.7421300161
 21
191.3232077465
  0
LINE
  8
0
 62
9
  6
CONTINUOUS
 10
50.4156568728
 20
191.3232077464
 11
51.2925731833
 21
191.2619436858
  0
LINE
  8
0
 62
7
  6
CONTINUOUS
 10
102.382710892
 20
211.2537026597
 11
102.0033089997
 21
211.4727511596
  0
LINE
  8
0
 62
7
  6
CONTINUOUS
 10
108.403020792
 20
213.4502351343
 11
108.677255764
 21
213.2565809706
  0
LINE
  8
0
 62
7
  6
CONTINUOUS
 10
110.0349647324
 20
217.1873091054
 11
109.7607300601
 21
217.3809638642
  0
LINE
  8
0
 62
9
  6
CONTINUOUS
 10
228.4464419102
 20
126.78320854
 11
229.157578434
 21
126.2664686824
  0
LINE
  8
0
 62
7
  6
CONTINUOUS
 10
112.2071736783
 20
216.2246571313
 11
112.4643383266
 21
216.0088488302
  0
LINE
  8
0
 62
7
  6
CONTINUOUS
 10
114.1445174505
 20
219.8129249892
 11
113.8873526446
 21
220.0287335433
  0
LINE
  8
0
 62
7
  6
CONTINUOUS
 10
110.4363403796
 20
216.8230542659
 11
110.0349647324
 21
217.1873091054
  0
LINE
  8
0
 62
9
  6
CONTINUOUS
 10
86.4232190767
 20
246.0348169754
 11
87.0555961644
 21
245.4242150431
  0
LINE
  8
0
 62
7
  6
CONTINUOUS
 10
114.5141807884
 20
219.41652492
 11
114.1445174505
 21
219.8129249892
  0
LINE
  8
0
 62
7
  6
CONTINUOUS
 10
130.5620754294
 20
224.2117237151
 11
130.7278825625
 21
223.9198078475
  0
LINE
  8
0
 62
7
  6
CONTINUOUS
 10
133.6287188109
 20
226.8995974998
 11
133.4629116183
 21
227.1915136595
  0
LINE
  8
0
 62
7
  6
CONTINUOUS
 10
134.8817084609
 20
226.7824593265
 11
135.1510774987
 21
226.2786973244
  0
LINE
  8
0
 62
7
  6
CONTINUOUS
 10
135.326017749
 20
224.7996455662
 11
135.466951326
 21
224.4949413594
  0
LINE
  8
0
 62
7
  6
CONTINUOUS
 10
135.5273734403
 20
226.6445786671
 11
135.3864398721
 21
226.9492827999
  0
LINE
  8
0
 62
7
  6
CONTINUOUS
 10
137.8066552528
 20
227.7711655253
 11
137.9475864884
 21
227.4664608165
  0
LINE
  8
0
 62
7
  6
CONTINUOUS
 10
133.8370157306
 20
226.3992015134
 11
133.6287188109
 21
226.8995974998
  0
LINE
  8
0
 62
9
  6
CONTINUOUS
 10
181.3172008396
 20
82.1583264597
 11
181.5298090441
 21
81.3053710169
  0
LINE
  8
0
 62
7
  6
CONTINUOUS
 10
153.5072282815
 20
227.5360659112
 11
153.5630714095
 21
227.2050252377
  0
LINE
  8
0
 62
7
  6
CONTINUOUS
 10
154.1812050473
 20
227.112635813
 11
154.1253619193
 21
227.4436764865
  0
LINE
  8
0
 62
7
  6
CONTINUOUS
 10
163.4521366128
 20
222.5795149911
 11
163.4237291665
 21
223.150067218
  0
LINE
  8
0
 62
9
  6
CONTINUOUS
 10
211.9658200297
 20
243.8511520632
 11
209.3076210413
 21
238.841171172
  0
LINE
  8
0
 62
9
  6
CONTINUOUS
 10
208.8160258063
 20
238.1124437165
 11
207.1779640408
 21
235.0316976022
  0
LINE
  8
0
 62
7
  6
CONTINUOUS
 10
213.4970952595
 20
242.6561459869
 11
208.9438592265
 21
234.0927544766
  0
LINE
  8
0
 62
9
  6
CONTINUOUS
 10
118.378656857
 20
81.226785883
 11
116.5296832603
 21
78.2678095929
  0
LINE
  8
0
 62
7
  6
CONTINUOUS
 10
120.0747530493
 20
80.1669473545
 11
114.9352564754
 21
71.9420335253
  0
LINE
  8
0
 62
9
  6
CONTINUOUS
 10
116.1443844704
 20
77.4777120337
 11
113.1347132407
 21
72.6706537364
  0
LINE
  8
0
 62
9
  6
CONTINUOUS
 10
243.9421356171
 20
182.4311136077
 11
238.6854834117
 21
180.3019029597
  0
LINE
  8
0
 62
9
  6
CONTINUOUS
 10
237.8404826345
 20
180.0596566679
 11
234.6053890906
 21
178.7525940331
  0
LINE
  8
0
 62
7
  6
CONTINUOUS
 10
244.3470253985
 20
180.5314010987
 11
235.3546022774
 21
176.898226324
  0
LINE
  8
0
 62
9
  6
CONTINUOUS
 10
67.7172817076
 20
118.0102904927
 11
64.3988924618
 21
116.932080467
  0
LINE
  8
0
 62
7
  6
CONTINUOUS
 10
68.3353156964
 20
116.1081774601
 11
59.1113602053
 21
113.1111326439
  0
LINE
  8
0
 62
9
  6
CONTINUOUS
 10
63.5958715433
 20
116.5744959104
 11
58.2004121097
 21
114.8266549897
  0
LINE
  8
0
 62
9
  6
CONTINUOUS
 10
44.7477866551
 20
191.1202851561
 11
50.4156568736
 21
191.3232077494
  0
LINE
  8
0
 62
9
  6
CONTINUOUS
 10
51.29255098
 20
191.2618375153
 11
54.7795862604
 21
191.3836074706
  0
LINE
  8
0
 62
7
  6
CONTINUOUS
 10
45.01705466
 20
193.0439114435
 11
54.709787267
 21
193.3823891246
  0
LINE
  8
0
 62
9
  6
CONTINUOUS
 10
232.3782006279
 20
191.3836074706
 11
235.8652360626
 21
191.2618375099
  0
LINE
  8
0
 62
7
  6
CONTINUOUS
 10
232.4479996213
 20
193.3823891246
 11
242.1407322283
 21
193.0439114435
  0
LINE
  8
0
 62
9
  6
CONTINUOUS
 10
236.7421300154
 20
191.3232077494
 11
242.4100002331
 21
191.1202851561
  0
LINE
  8
0
 62
7
  6
CONTINUOUS
 10
109.5361525215
 20
213.4986502447
 11
108.820636526
 21
213.7614663566
  0
LINE
  8
0
 62
7
  6
CONTINUOUS
 10
113.3404026175
 20
216.178585523
 11
112.6492461243
 21
216.5000472682
  0
LINE
  8
0
 62
7
  6
CONTINUOUS
 10
108.677255764
 20
213.2565809706
 11
109.0985841217
 21
213.0398725469
  0
LINE
  8
0
 62
7
  6
CONTINUOUS
 10
109.7607300601
 20
217.3809638642
 11
109.3394012691
 21
217.5976718719
  0
LINE
  8
0
 62
7
  6
CONTINUOUS
 10
112.4643383266
 20
216.0088488302
 11
112.8661659377
 21
215.7578220419
  0
LINE
  8
0
 62
7
  6
CONTINUOUS
 10
113.8873526446
 20
220.0287335433
 11
113.4855250729
 21
220.2797602684
  0
LINE
  8
0
 62
9
  6
CONTINUOUS
 10
81.9509424653
 20
249.522606002
 11
86.4232190792
 21
246.0348169773
  0
LINE
  8
0
 62
9
  6
CONTINUOUS
 10
87.0555109104
 20
245.4241479839
 11
89.8050071285
 21
243.2760061086
  0
LINE
  8
0
 62
7
  6
CONTINUOUS
 10
83.3936968673
 20
250.8231070929
 11
91.0363300791
 21
244.8520276158
  0
LINE
  8
0
 62
9
  6
CONTINUOUS
 10
225.8534387703
 20
129.1178172957
 11
228.4463906661
 21
126.783112922
  0
LINE
  8
0
 62
7
  6
CONTINUOUS
 10
227.191699983
 20
130.6041069466
 11
234.3991946757
 21
124.1144495761
  0
LINE
  8
0
 62
9
  6
CONTINUOUS
 10
229.1575784354
 20
126.2664686851
 11
233.3689827913
 21
122.4677842109
  0
LINE
  8
0
 62
7
  6
CONTINUOUS
 10
131.6081653467
 20
223.773515652
 11
131.0724155032
 21
224.315740744
  0
LINE
  8
0
 62
7
  6
CONTINUOUS
 10
136.0876248436
 20
224.5683537873
 11
135.8432448911
 21
224.8608224961
  0
LINE
  8
0
 62
7
  6
CONTINUOUS
 10
135.7717510163
 20
226.3521097523
 11
135.5273734403
 21
226.6445786671
  0
LINE
  8
0
 62
7
  6
CONTINUOUS
 10
130.7278825625
 20
223.9198078475
 11
131.017002385
 21
223.5444552056
  0
LINE
  8
0
 62
7
  6
CONTINUOUS
 10
133.4629116183
 20
227.1915136595
 11
133.1737918107
 21
227.5668662283
  0
LINE
  8
0
 62
7
  6
CONTINUOUS
 10
138.4523202673
 20
227.63328457
 11
138.1829488267
 21
228.1370465879
  0
LINE
  8
0
 62
7
  6
CONTINUOUS
 10
160.4473407845
 20
222.4650933923
 11
160.3512865083
 21
222.833920022
  0
LINE
  8
0
 62
9
  6
CONTINUOUS
 10
147.9905014569
 20
270.3476517552
 11
149.1745565347
 21
264.8011263596
  0
LINE
  8
0
 62
9
  6
CONTINUOUS
 10
149.2663897159
 20
263.926897416
 11
149.9918270338
 21
260.5139831673
  0
LINE
  8
0
 62
7
  6
CONTINUOUS
 10
149.9316614369
 20
270.4165087357
 11
151.9481222353
 21
260.929806549
  0
LINE
  8
0
 62
9
  6
CONTINUOUS
 10
180.8315027749
 20
85.613490814
 11
181.3171001223
 21
82.1582861511
  0
LINE
  8
0
 62
7
  6
CONTINUOUS
 10
182.8120389124
 20
85.8918370159
 11
184.1618288217
 21
76.2875827642
  0
LINE
  8
0
 62
9
  6
CONTINUOUS
 10
181.5298090469
 20
81.3053710181
 11
182.3141846383
 21
75.6883713461
  0
LINE
  8
0
 62
7
  6
CONTINUOUS
 10
109.0985841217
 20
213.0398725469
 11
109.5398651228
 21
212.9707106286
  0
LINE
  8
0
 62
7
  6
CONTINUOUS
 10
101.5758742837
 20
210.8725001983
 11
101.950474973
 21
210.8022637267
  0
LINE
  8
0
 62
7
  6
CONTINUOUS
 10
112.8661659377
 20
215.7578220419
 11
113.3001587747
 21
215.6521692597
  0
LINE
  8
0
 62
7
  6
CONTINUOUS
 10
108.9018333472
 20
217.1388945303
 11
109.6173489984
 21
216.8760778831
  0
LINE
  8
0
 62
7
  6
CONTINUOUS
 10
113.0112883931
 20
219.8589967873
 11
113.7024450045
 21
219.5375348523
  0
LINE
  8
0
 62
7
  6
CONTINUOUS
 10
131.017002385
 20
223.5444552056
 11
131.3869450879
 21
223.2941460178
  0
LINE
  8
0
 62
7
  6
CONTINUOUS
 10
132.5826288489
 20
227.3378057819
 11
133.1183764009
 21
226.7955799948
  0
LINE
  8
0
 62
7
  6
CONTINUOUS
 10
135.466951326
 20
224.4949413594
 11
135.8272710128
 21
224.109061362
  0
LINE
  8
0
 62
7
  6
CONTINUOUS
 10
135.1510774987
 20
226.2786973244
 11
135.5113971812
 21
225.892817364
  0
LINE
  8
0
 62
7
  6
CONTINUOUS
 10
138.1829488267
 20
228.1370465879
 11
137.8226291443
 21
228.5229265484
  0
LINE
  8
0
 62
7
  6
CONTINUOUS
 10
137.5622753091
 20
228.0636341601
 11
137.8066552528
 21
227.7711655253
  0
LINE
  8
0
 62
7
  6
CONTINUOUS
 10
154.1253619193
 20
227.4436764865
 11
153.879198531
 21
227.9107280936
  0
LINE
  8
0
 62
7
  6
CONTINUOUS
 10
159.8547715647
 20
222.6638060483
 11
160.0157624556
 21
222.1609983494
  0
LINE
  8
0
 62
7
  6
CONTINUOUS
 10
163.8661440601
 20
224.7969911138
 11
163.7051531573
 21
225.2997987775
  0
LINE
  8
0
 62
7
  6
CONTINUOUS
 10
163.2735748403
 20
224.9957037698
 11
163.3696291402
 21
224.6268772107
  0
LINE
  8
0
 62
7
  6
CONTINUOUS
 10
162.3238084738
 20
221.8358371535
 11
161.9598770103
 21
221.7334678137
  0
LINE
  8
0
 62
7
  6
CONTINUOUS
 10
160.9208688306
 20
223.877173279
 11
161.2848002941
 21
223.9795426188
  0
LINE
  8
0
 62
7
  6
CONTINUOUS
 10
161.3551573984
 20
224.516975059
 11
160.6272944714
 21
224.3122363794
  0
LINE
  8
0
 62
7
  6
CONTINUOUS
 10
161.4958671807
 20
225.591841738
 11
161.8597986442
 21
225.6942110778
  0
LINE
  8
0
 62
7
  6
CONTINUOUS
 10
161.8895244062
 20
221.1960337956
 11
162.4847993647
 21
221.3330294545
  0
LINE
  8
0
 62
7
  6
CONTINUOUS
 10
101.2060750036
 20
210.7939248569
 11
101.5758742837
 21
210.8725001983
  0
LINE
  8
0
 62
7
  6
CONTINUOUS
 10
109.5398651228
 20
212.9707106286
 11
110.1481921253
 21
213.026040993
  0
LINE
  8
0
 62
7
  6
CONTINUOUS
 10
109.9138629239
 20
213.514788516
 11
109.5361525215
 21
213.4986502447
  0
LINE
  8
0
 62
7
  6
CONTINUOUS
 10
108.5241229448
 20
217.122756259
 11
108.9018333472
 21
217.1388945303
  0
LINE
  8
0
 62
7
  6
CONTINUOUS
 10
102.0033089997
 20
211.4727511596
 11
101.4077889418
 21
211.4660799776
  0
LINE
  8
0
 62
7
  6
CONTINUOUS
 10
113.3001587747
 20
215.6521692597
 11
113.9109807876
 21
215.6566726662
  0
LINE
  8
0
 62
7
  6
CONTINUOUS
 10
113.7181455841
 20
216.1632283413
 11
113.3404026175
 21
216.178585523
  0
LINE
  8
0
 62
7
  6
CONTINUOUS
 10
112.6335454265
 20
219.874353969
 11
113.0112883931
 21
219.8589967873
  0
LINE
  8
0
 62
7
  6
CONTINUOUS
 10
109.3394012691
 20
217.5976718719
 11
108.8981202902
 21
217.6668337604
  0
LINE
  8
0
 62
7
  6
CONTINUOUS
 10
113.4855250729
 20
220.2797602684
 11
113.0515322556
 21
220.385413019
  0
LINE
  8
0
 62
7
  6
CONTINUOUS
 10
131.3869450879
 20
223.2941460178
 11
131.9610233512
 21
223.0854435554
  0
LINE
  8
0
 62
7
  6
CONTINUOUS
 10
131.9568619809
 20
223.627446322
 11
131.6081653467
 21
223.773515652
  0
LINE
  8
0
 62
7
  6
CONTINUOUS
 10
132.2339322148
 20
227.483875112
 11
132.5826288489
 21
227.3378057819
  0
LINE
  8
0
 62
7
  6
CONTINUOUS
 10
135.8272710128
 20
224.109061362
 11
136.3819853509
 21
223.8532986333
  0
LINE
  8
0
 62
7
  6
CONTINUOUS
 10
135.5113971812
 20
225.892817364
 11
136.066111516
 21
225.6370546631
  0
LINE
  8
0
 62
7
  6
CONTINUOUS
 10
136.4229530642
 20
224.393766914
 11
136.0876248436
 21
224.5683537873
  0
LINE
  8
0
 62
7
  6
CONTINUOUS
 10
136.1070792369
 20
226.1775228791
 11
135.7717510163
 21
226.3521097523
  0
LINE
  8
0
 62
7
  6
CONTINUOUS
 10
137.2269470885
 20
228.2382210333
 11
137.5622753091
 21
228.0636341601
  0
LINE
  8
0
 62
7
  6
CONTINUOUS
 10
133.1737918107
 20
227.5668662283
 11
132.8038491152
 21
227.8171753796
  0
LINE
  8
0
 62
7
  6
CONTINUOUS
 10
153.879198531
 20
227.9107280936
 11
153.5142885841
 21
228.2879634795
  0
LINE
  8
0
 62
7
  6
CONTINUOUS
 10
160.0157624556
 20
222.1609983494
 11
160.4081013566
 21
221.6928154358
  0
LINE
  8
0
 62
7
  6
CONTINUOUS
 10
163.2289148369
 20
223.5520120478
 11
162.836580448
 21
224.0201934188
  0
LINE
  8
0
 62
7
  6
CONTINUOUS
 10
160.6759785409
 20
222.1640113965
 11
160.4473407845
 21
222.4650933923
  0
LINE
  8
0
 62
7
  6
CONTINUOUS
 10
162.5686987635
 20
223.548999036
 11
162.7973365198
 21
223.2479170402
  0
LINE
  8
0
 62
7
  6
CONTINUOUS
 10
163.0449370839
 20
225.2967857657
 11
163.2735748403
 21
224.9957037698
  0
LINE
  8
0
 62
7
  6
CONTINUOUS
 10
153.3326338789
 20
227.7772910685
 11
153.5072282815
 21
227.5360659112
  0
LINE
  8
0
 62
7
  6
CONTINUOUS
 10
162.7973365198
 20
223.2479170402
 11
162.9272142465
 21
222.979953315
  0
LINE
  8
0
 62
7
  6
CONTINUOUS
 10
163.4237291665
 20
223.150067218
 11
163.2289148369
 21
223.5520120478
  0
LINE
  8
0
 62
7
  6
CONTINUOUS
 10
161.9301557485
 20
226.231643518
 11
161.3348762779
 21
226.0946494017
  0
LINE
  8
0
 62
7
  6
CONTINUOUS
 10
153.1281976853
 20
226.4095058659
 11
152.8034050088
 21
226.3504863545
  0
LINE
  8
0
 62
7
  6
CONTINUOUS
 10
136.911708225
 20
223.8088290104
 11
137.3254913593
 21
223.8577707223
  0
LINE
  8
0
 62
7
  6
CONTINUOUS
 10
137.3664567038
 20
224.3982387322
 11
136.7457855539
 21
224.3248265844
  0
LINE
  8
0
 62
7
  6
CONTINUOUS
 10
135.8432448911
 20
224.8608224961
 11
135.326017749
 21
224.7996455662
  0
LINE
  8
0
 62
7
  6
CONTINUOUS
 10
136.5958367742
 20
225.5925851815
 11
137.1130639163
 21
225.6537621113
  0
LINE
  8
0
 62
7
  6
CONTINUOUS
 10
137.1540292521
 20
226.1942301952
 11
136.4299117267
 21
226.1085825494
  0
LINE
  8
0
 62
7
  6
CONTINUOUS
 10
136.1799970734
 20
228.2215137172
 11
136.9041145988
 21
228.307161363
  0
LINE
  8
0
 62
7
  6
CONTINUOUS
 10
136.7381919364
 20
228.823158863
 11
136.2209647943
 21
228.7619819331
  0
LINE
  8
0
 62
7
  6
CONTINUOUS
 10
108.8981202902
 20
217.6668337604
 11
108.2897928265
 21
217.6115030174
  0
LINE
  8
0
 62
7
  6
CONTINUOUS
 10
152.6060291619
 20
225.7345990149
 11
153.1368679564
 21
225.7628218164
  0
LINE
  8
0
 62
7
  6
CONTINUOUS
 10
131.9610233512
 20
223.0854435554
 11
132.5946784375
 21
223.10602435
  0
LINE
  8
0
 62
7
  6
CONTINUOUS
 10
132.2297685213
 20
228.0258773385
 11
131.5961134369
 21
228.0052965347
  0
LINE
  8
0
 62
7
  6
CONTINUOUS
 10
113.0515322556
 20
220.385413019
 11
112.4407102575
 21
220.3809095887
  0
LINE
  8
0
 62
7
  6
CONTINUOUS
 10
161.9598770103
 20
221.7334678137
 11
161.6297689736
 21
221.7319613078
  0
LINE
  8
0
 62
7
  6
CONTINUOUS
 10
161.2848002941
 20
223.9795426188
 11
161.6149083308
 21
223.9810491246
  0
LINE
  8
0
 62
7
  6
CONTINUOUS
 10
161.8597986442
 20
225.6942110778
 11
162.1899066809
 21
225.6957175837
  0
LINE
  8
0
 62
7
  6
CONTINUOUS
 10
132.4884481161
 20
223.6272235295
 11
131.9568619809
 21
223.627446322
  0
LINE
  8
0
 62
7
  6
CONTINUOUS
 10
131.7023437434
 20
227.4840974283
 11
132.2339322148
 21
227.483875112
  0
LINE
  8
0
 62
7
  6
CONTINUOUS
 10
136.3819853509
 20
223.8532986333
 11
136.911708225
 21
223.8088290104
  0
LINE
  8
0
 62
7
  6
CONTINUOUS
 10
136.066111516
 20
225.6370546631
 11
136.5958367742
 21
225.5925851815
  0
LINE
  8
0
 62
7
  6
CONTINUOUS
 10
137.2679171771
 20
228.7786895293
 11
136.7381919364
 21
228.823158863
  0
LINE
  8
0
 62
7
  6
CONTINUOUS
 10
161.3618917863
 20
221.2607653383
 11
161.8895244062
 21
221.1960337956
  0
LINE
  8
0
 62
7
  6
CONTINUOUS
 10
161.8827854944
 20
224.4522450235
 11
161.3551573984
 21
224.516975059
  0
LINE
  8
0
 62
7
  6
CONTINUOUS
 10
162.4577838445
 20
226.1669134826
 11
161.9301557485
 21
226.231643518
  0
LINE
  8
0
 62
7
  6
CONTINUOUS
 10
149.8032515558
 20
223.8946577218
 11
150.4213851937
 21
223.8022682971
  0
LINE
  8
0
 62
7
  6
CONTINUOUS
 10
150.7516282484
 20
226.0117672891
 11
152.6060291619
 21
225.7345990149
  0
LINE
  8
0
 62
7
  6
CONTINUOUS
 10
152.8034050088
 20
226.3504863545
 11
150.8459833943
 21
226.6430526312
  0
LINE
  8
0
 62
7
  6
CONTINUOUS
 10
151.0818713032
 20
228.2212662812
 11
153.0392929176
 21
227.9287000045
  0
LINE
  8
0
 62
7
  6
CONTINUOUS
 10
153.0149015049
 20
228.4701691254
 11
150.5423669536
 21
228.8397268243
  0
LINE
  8
0
 62
7
  6
CONTINUOUS
 10
136.7457855539
 20
224.3248265844
 11
136.4229530642
 21
224.393766914
  0
LINE
  8
0
 62
7
  6
CONTINUOUS
 10
136.4299117267
 20
226.1085825494
 11
136.1070792369
 21
226.1775228791
  0
LINE
  8
0
 62
7
  6
CONTINUOUS
 10
136.9041145988
 20
228.307161363
 11
137.2269470885
 21
228.2382210333
  0
LINE
  8
0
 62
7
  6
CONTINUOUS
 10
154.4366269258
 20
223.1718832976
 11
155.0442389341
 21
223.025484365
  0
LINE
  8
0
 62
7
  6
CONTINUOUS
 10
157.8797600938
 20
222.3422897184
 11
158.487372102
 21
222.1958907858
  0
LINE
  8
0
 62
7
  6
CONTINUOUS
 10
155.7483396673
 20
224.1689652924
 11
157.7737145732
 21
223.680968478
  0
LINE
  8
0
 62
7
  6
CONTINUOUS
 10
157.7721233075
 20
224.1190611607
 11
155.9492872829
 21
224.5582579585
  0
LINE
  8
0
 62
7
  6
CONTINUOUS
 10
158.0382664196
 20
227.4471836329
 11
157.2281155301
 21
227.642382582
  0
LINE
  8
0
 62
7
  6
CONTINUOUS
 10
160.8680825961
 20
221.4263597237
 11
161.3618917863
 21
221.2607653383
  0
LINE
  8
0
 62
7
  6
CONTINUOUS
 10
161.6297689736
 20
221.7319613078
 11
160.9384397241
 21
221.9637922345
  0
LINE
  8
0
 62
7
  6
CONTINUOUS
 10
161.6149083308
 20
223.9810491246
 11
162.3062375803
 21
223.7492181979
  0
LINE
  8
0
 62
7
  6
CONTINUOUS
 10
162.3765946846
 20
224.2866506381
 11
161.8827854944
 21
224.4522450235
  0
LINE
  8
0
 62
7
  6
CONTINUOUS
 10
163.3696291402
 20
224.6268772107
 11
163.8634338094
 21
224.4612843414
  0
LINE
  8
0
 62
7
  6
CONTINUOUS
 10
162.1899066809
 20
225.6957175837
 11
162.7824759008
 21
225.4970049276
  0
LINE
  8
0
 62
7
  6
CONTINUOUS
 10
162.852833005
 20
226.0344373678
 11
162.4577838445
 21
226.1669134826
  0
LINE
  8
0
 62
7
  6
CONTINUOUS
 10
132.8038491152
 20
227.8171753796
 11
132.2297685213
 21
228.0258773385
  0
LINE
  8
0
 62
7
  6
CONTINUOUS
 10
153.5142885841
 20
228.2879634795
 11
153.0149015049
 21
228.4701691254
  0
LINE
  8
0
 62
7
  6
CONTINUOUS
 10
137.8226291443
 20
228.5229265484
 11
137.2679171771
 21
228.7786895293
  0
LINE
  8
0
 62
7
  6
CONTINUOUS
 10
153.0392929176
 20
227.9287000045
 11
153.3326338789
 21
227.7772910685
  0
LINE
  8
0
 62
7
  6
CONTINUOUS
 10
160.4081013566
 20
221.6928154358
 11
160.8680825961
 21
221.4263597237
  0
LINE
  8
0
 62
7
  6
CONTINUOUS
 10
162.836580448
 20
224.0201934188
 11
162.3765946846
 21
224.2866506381
  0
LINE
  8
0
 62
7
  6
CONTINUOUS
 10
163.3128142475
 20
225.7679816646
 11
162.852833005
 21
226.0344373678
  0
LINE
  8
0
 62
7
  6
CONTINUOUS
 10
160.9384397241
 20
221.9637922345
 11
160.6759785409
 21
222.1640113965
  0
LINE
  8
0
 62
7
  6
CONTINUOUS
 10
162.3062375803
 20
223.7492181979
 11
162.5686987635
 21
223.548999036
  0
LINE
  8
0
 62
7
  6
CONTINUOUS
 10
162.7824759008
 20
225.4970049276
 11
163.0449370839
 21
225.2967857657
  0
LINE
  8
0
 62
7
  6
CONTINUOUS
 10
163.7051531573
 20
225.2997987775
 11
163.3128142475
 21
225.7679816646
  0
POLYLINE
  8
0
 62
9
  6
CONTINUOUS
 66
1
 70
0
  0
VERTEX
  8
0
 62
9
  6
CONTINUOUS
 10
203.7640900393
 20
250.8231071072
  0
VERTEX
  8
0
 62
9
  6
CONTINUOUS
 10
203.8407467427
 20
250.836410592
  0
VERTEX
  8
0
 62
9
  6
CONTINUOUS
 10
203.9515993513
 20
250.7868101398
  0
VERTEX
  8
0
 62
9
  6
CONTINUOUS
 10
204.1039752179
 20
250.6844615604
  0
VERTEX
  8
0
 62
9
  6
CONTINUOUS
 10
204.2894517651
 20
250.528735499
  0
VERTEX
  8
0
 62
9
  6
CONTINUOUS
 10
204.4998618079
 20
250.327049106
  0
VERTEX
  8
0
 62
9
  6
CONTINUOUS
 10
204.7289678454
 20
250.0860794447
  0
VERTEX
  8
0
 62
9
  6
CONTINUOUS
 10
204.9646262685
 20
249.8105021239
  0
VERTEX
  8
0
 62
9
  6
CONTINUOUS
 10
205.2068444229
 20
249.522606002
  0
SEQEND
  0
POLYLINE
  8
0
 62
9
  6
CONTINUOUS
 66
1
 70
0
  0
VERTEX
  8
0
 62
9
  6
CONTINUOUS
 10
199.2959362266
 20
247.3322027564
  0
VERTEX
  8
0
 62
9
  6
CONTINUOUS
 10
199.368285484
 20
247.3427655105
  0
VERTEX
  8
0
 62
9
  6
CONTINUOUS
 10
199.4826117115
 20
247.2958636297
  0
VERTEX
  8
0
 62
9
  6
CONTINUOUS
 10
199.6347741175
 20
247.1931958574
  0
VERTEX
  8
0
 62
9
  6
CONTINUOUS
 10
199.8192615185
 20
247.0384807266
  0
VERTEX
  8
0
 62
9
  6
CONTINUOUS
 10
200.0293919489
 20
246.8373218782
  0
VERTEX
  8
0
 62
9
  6
CONTINUOUS
 10
200.2575546763
 20
246.5970051023
  0
VERTEX
  8
0
 62
9
  6
CONTINUOUS
 10
200.4954858547
 20
246.3262344533
  0
VERTEX
  8
0
 62
9
  6
CONTINUOUS
 10
200.734567834
 20
246.0348169972
  0
SEQEND
  0
POLYLINE
  8
0
 62
9
  6
CONTINUOUS
 66
1
 70
0
  0
VERTEX
  8
0
 62
9
  6
CONTINUOUS
 10
87.8618506616
 20
247.3322027564
  0
VERTEX
  8
0
 62
9
  6
CONTINUOUS
 10
87.7895010023
 20
247.3427648207
  0
VERTEX
  8
0
 62
9
  6
CONTINUOUS
 10
87.6751745403
 20
247.295862417
  0
VERTEX
  8
0
 62
9
  6
CONTINUOUS
 10
87.5230120645
 20
247.193194302
  0
VERTEX
  8
0
 62
9
  6
CONTINUOUS
 10
87.3385247454
 20
247.0384790102
  0
VERTEX
  8
0
 62
9
  6
CONTINUOUS
 10
87.1283945266
 20
246.8373201717
  0
VERTEX
  8
0
 62
9
  6
CONTINUOUS
 10
86.9002321109
 20
246.5970035552
  0
VERTEX
  8
0
 62
9
  6
CONTINUOUS
 10
86.6623013089
 20
246.3262331841
  0
VERTEX
  8
0
 62
9
  6
CONTINUOUS
 10
86.4232197321
 20
246.0348160862
  0
SEQEND
  0
POLYLINE
  8
0
 62
9
  6
CONTINUOUS
 66
1
 70
0
  0
VERTEX
  8
0
 62
9
  6
CONTINUOUS
 10
83.3936968403
 20
250.823107114
  0
VERTEX
  8
0
 62
9
  6
CONTINUOUS
 10
83.3170470748
 20
250.836410672
  0
VERTEX
  8
0
 62
9
  6
CONTINUOUS
 10
83.2062016193
 20
250.7868180354
  0
VERTEX
  8
0
 62
9
  6
CONTINUOUS
 10
83.0538342484
 20
250.6844791303
  0
VERTEX
  8
0
 62
9
  6
CONTINUOUS
 10
82.8683641402
 20
250.5287616491
  0
VERTEX
  8
0
 62
9
  6
CONTINUOUS
 10
82.6579541842
 20
250.3270790925
  0
VERTEX
  8
0
 62
9
  6
CONTINUOUS
 10
82.4288430498
 20
250.0861057636
  0
VERTEX
  8
0
 62
9
  6
CONTINUOUS
 10
82.1931749078
 20
249.8105183282
  0
VERTEX
  8
0
 62
9
  6
CONTINUOUS
 10
81.9509424653
 20
249.522606002
  0
SEQEND
  0
POLYLINE
  8
0
 62
9
  6
CONTINUOUS
 66
1
 70
0
  0
VERTEX
  8
0
 62
9
  6
CONTINUOUS
 10
242.1407322516
 20
193.0439114427
  0
VERTEX
  8
0
 62
9
  6
CONTINUOUS
 10
242.2080060084
 20
193.0048285241
  0
VERTEX
  8
0
 62
9
  6
CONTINUOUS
 10
242.2610414771
 20
192.89557769
  0
VERTEX
  8
0
 62
9
  6
CONTINUOUS
 10
242.3119797643
 20
192.7192288104
  0
VERTEX
  8
0
 62
9
  6
CONTINUOUS
 10
242.3539642598
 20
192.4807137001
  0
VERTEX
  8
0
 62
9
  6
CONTINUOUS
 10
242.3855061894
 20
192.1909639909
  0
VERTEX
  8
0
 62
9
  6
CONTINUOUS
 10
242.4061192837
 20
191.8591039987
  0
VERTEX
  8
0
 62
9
  6
CONTINUOUS
 10
242.4095064219
 20
191.496521209
  0
VERTEX
  8
0
 62
9
  6
CONTINUOUS
 10
242.4100002331
 20
191.1202851561
  0
SEQEND
  0
POLYLINE
  8
0
 62
9
  6
CONTINUOUS
 66
1
 70
0
  0
VERTEX
  8
0
 62
9
  6
CONTINUOUS
 10
236.4740177891
 20
193.2417974722
  0
VERTEX
  8
0
 62
9
  6
CONTINUOUS
 10
236.5362301431
 20
193.2033838052
  0
VERTEX
  8
0
 62
9
  6
CONTINUOUS
 10
236.5936611666
 20
193.0939673976
  0
VERTEX
  8
0
 62
9
  6
CONTINUOUS
 10
236.6442307602
 20
192.9175112119
  0
VERTEX
  8
0
 62
9
  6
CONTINUOUS
 10
236.6861073394
 20
192.6804063302
  0
VERTEX
  8
0
 62
9
  6
CONTINUOUS
 10
236.7177741727
 20
192.3912404751
  0
VERTEX
  8
0
 62
9
  6
CONTINUOUS
 10
236.7380843162
 20
192.0604869702
  0
VERTEX
  8
0
 62
9
  6
CONTINUOUS
 10
236.7463021551
 20
191.7001254056
  0
VERTEX
  8
0
 62
9
  6
CONTINUOUS
 10
236.7421300467
 20
191.3232077488
  0
SEQEND
  0
POLYLINE
  8
0
 62
9
  6
CONTINUOUS
 66
1
 70
0
  0
VERTEX
  8
0
 62
9
  6
CONTINUOUS
 10
151.1105557679
 20
264.8702469701
  0
VERTEX
  8
0
 62
9
  6
CONTINUOUS
 10
151.0619218775
 20
264.9248434454
  0
VERTEX
  8
0
 62
9
  6
CONTINUOUS
 10
150.9441944426
 20
264.9624017529
  0
VERTEX
  8
0
 62
9
  6
CONTINUOUS
 10
150.7616374314
 20
264.9815615681
  0
VERTEX
  8
0
 62
9
  6
CONTINUOUS
 10
150.5208628732
 20
264.9816289413
  0
VERTEX
  8
0
 62
9
  6
CONTINUOUS
 10
150.2305913778
 20
264.962601432
  0
VERTEX
  8
0
 62
9
  6
CONTINUOUS
 10
149.9013362836
 20
264.9251681971
  0
VERTEX
  8
0
 62
9
  6
CONTINUOUS
 10
149.5450228753
 20
264.8706850305
  0
VERTEX
  8
0
 62
9
  6
CONTINUOUS
 10
149.1745564621
 20
264.8011252572
  0
SEQEND
  0
POLYLINE
  8
0
 62
9
  6
CONTINUOUS
 66
1
 70
0
  0
VERTEX
  8
0
 62
9
  6
CONTINUOUS
 10
210.8351123678
 20
237.6496843122
  0
VERTEX
  8
0
 62
9
  6
CONTINUOUS
 10
210.8329505842
 20
237.7227689008
  0
VERTEX
  8
0
 62
9
  6
CONTINUOUS
 10
210.7669081516
 20
237.82721397
  0
VERTEX
  8
0
 62
9
  6
CONTINUOUS
 10
210.6393770593
 20
237.9592366249
  0
VERTEX
  8
0
 62
9
  6
CONTINUOUS
 10
210.4549763537
 20
238.1140551385
  0
VERTEX
  8
0
 62
9
  6
CONTINUOUS
 10
210.2203848404
 20
238.2860621414
  0
VERTEX
  8
0
 62
9
  6
CONTINUOUS
 10
209.9440991856
 20
238.4690277148
  0
VERTEX
  8
0
 62
9
  6
CONTINUOUS
 10
209.6361261747
 20
238.6563250318
  0
VERTEX
  8
0
 62
9
  6
CONTINUOUS
 10
209.3076202771
 20
238.8411703743
  0
SEQEND
  0
POLYLINE
  8
0
 62
9
  6
CONTINUOUS
 66
1
 70
0
  0
VERTEX
  8
0
 62
9
  6
CONTINUOUS
 10
213.4970952756
 20
242.6561460172
  0
VERTEX
  8
0
 62
9
  6
CONTINUOUS
 10
213.4968866306
 20
242.7339414391
  0
VERTEX
  8
0
 62
9
  6
CONTINUOUS
 10
213.4287993062
 20
242.8344912322
  0
VERTEX
  8
0
 62
9
  6
CONTINUOUS
 10
213.3015568427
 20
242.9667728359
  0
VERTEX
  8
0
 62
9
  6
CONTINUOUS
 10
213.1159985138
 20
243.1223851795
  0
VERTEX
  8
0
 62
9
  6
CONTINUOUS
 10
212.8808426629
 20
243.2945767271
  0
VERTEX
  8
0
 62
9
  6
CONTINUOUS
 10
212.6037455294
 20
243.4783625691
  0
VERTEX
  8
0
 62
9
  6
CONTINUOUS
 10
212.2914215429
 20
243.6625951266
  0
VERTEX
  8
0
 62
9
  6
CONTINUOUS
 10
211.9658200297
 20
243.8511520632
  0
SEQEND
  0
POLYLINE
  8
0
 62
9
  6
CONTINUOUS
 66
1
 70
0
  0
VERTEX
  8
0
 62
9
  6
CONTINUOUS
 10
184.1618288249
 20
76.2875827411
  0
VERTEX
  8
0
 62
9
  6
CONTINUOUS
 10
184.135021629
 20
76.2145443462
  0
VERTEX
  8
0
 62
9
  6
CONTINUOUS
 10
184.036640073
 20
76.1433433972
  0
VERTEX
  8
0
 62
9
  6
CONTINUOUS
 10
183.8718156699
 20
76.0625563155
  0
VERTEX
  8
0
 62
9
  6
CONTINUOUS
 10
183.6442146712
 20
75.9797919445
  0
VERTEX
  8
0
 62
9
  6
CONTINUOUS
 10
183.3643441098
 20
75.8984146987
  0
VERTEX
  8
0
 62
9
  6
CONTINUOUS
 10
183.0411052428
 20
75.8204878807
  0
VERTEX
  8
0
 62
9
  6
CONTINUOUS
 10
182.6846190707
 20
75.7541903601
  0
VERTEX
  8
0
 62
9
  6
CONTINUOUS
 10
182.3141846383
 20
75.6883713461
  0
SEQEND
  0
POLYLINE
  8
0
 62
9
  6
CONTINUOUS
 66
1
 70
0
  0
VERTEX
  8
0
 62
9
  6
CONTINUOUS
 10
183.3726938812
 20
81.9025696263
  0
VERTEX
  8
0
 62
9
  6
CONTINUOUS
 10
183.345666866
 20
81.8346319544
  0
VERTEX
  8
0
 62
9
  6
CONTINUOUS
 10
183.2478855321
 20
81.7590734774
  0
VERTEX
  8
0
 62
9
  6
CONTINUOUS
 10
183.0828914301
 20
81.6786308544
  0
VERTEX
  8
0
 62
9
  6
CONTINUOUS
 10
182.856660496
 20
81.596217644
  0
VERTEX
  8
0
 62
9
  6
CONTINUOUS
 10
182.5773866079
 20
81.5148187773
  0
VERTEX
  8
0
 62
9
  6
CONTINUOUS
 10
182.2551848113
 20
81.4373824471
  0
VERTEX
  8
0
 62
9
  6
CONTINUOUS
 10
181.9017249614
 20
81.3667133267
  0
VERTEX
  8
0
 62
9
  6
CONTINUOUS
 10
181.5298090517
 20
81.3053709871
  0
SEQEND
  0
POLYLINE
  8
0
 62
9
  6
CONTINUOUS
 66
1
 70
0
  0
VERTEX
  8
0
 62
9
  6
CONTINUOUS
 10
239.0897366637
 20
178.4073185731
  0
VERTEX
  8
0
 62
9
  6
CONTINUOUS
 10
239.1350585094
 20
178.4646941838
  0
VERTEX
  8
0
 62
9
  6
CONTINUOUS
 10
239.1516030673
 20
178.5871550061
  0
VERTEX
  8
0
 62
9
  6
CONTINUOUS
 10
239.1387711095
 20
178.7702656332
  0
VERTEX
  8
0
 62
9
  6
CONTINUOUS
 10
239.0970273959
 20
179.007393984
  0
VERTEX
  8
0
 62
9
  6
CONTINUOUS
 10
239.027883841
 20
179.2899515109
  0
VERTEX
  8
0
 62
9
  6
CONTINUOUS
 10
238.933844754
 20
179.6077042673
  0
VERTEX
  8
0
 62
9
  6
CONTINUOUS
 10
238.818316135
 20
179.9491435717
  0
VERTEX
  8
0
 62
9
  6
CONTINUOUS
 10
238.6854823135
 20
180.3019028398
  0
SEQEND
  0
POLYLINE
  8
0
 62
9
  6
CONTINUOUS
 66
1
 70
0
  0
VERTEX
  8
0
 62
9
  6
CONTINUOUS
 10
244.3470254302
 20
180.5314011115
  0
VERTEX
  8
0
 62
9
  6
CONTINUOUS
 10
244.3968715322
 20
180.5911299766
  0
VERTEX
  8
0
 62
9
  6
CONTINUOUS
 10
244.4093457768
 20
180.7119212754
  0
VERTEX
  8
0
 62
9
  6
CONTINUOUS
 10
244.3969013706
 20
180.8950447418
  0
VERTEX
  8
0
 62
9
  6
CONTINUOUS
 10
244.3547811302
 20
181.1335253076
  0
VERTEX
  8
0
 62
9
  6
CONTINUOUS
 10
244.2853238907
 20
181.4165869531
  0
VERTEX
  8
0
 62
9
  6
CONTINUOUS
 10
244.1911904335
 20
181.7354896802
  0
VERTEX
  8
0
 62
9
  6
CONTINUOUS
 10
244.0703587844
 20
182.0773779958
  0
VERTEX
  8
0
 62
9
  6
CONTINUOUS
 10
243.9421356171
 20
182.4311136077
  0
SEQEND
  0
POLYLINE
  8
0
 62
9
  6
CONTINUOUS
 66
1
 70
0
  0
VERTEX
  8
0
 62
9
  6
CONTINUOUS
 10
114.935256463
 20
71.9420335056
  0
VERTEX
  8
0
 62
9
  6
CONTINUOUS
 10
114.8677727843
 20
71.9033141824
  0
VERTEX
  8
0
 62
9
  6
CONTINUOUS
 10
114.7466410522
 20
71.9120095363
  0
VERTEX
  8
0
 62
9
  6
CONTINUOUS
 10
114.568449299
 20
71.9560701253
  0
VERTEX
  8
0
 62
9
  6
CONTINUOUS
 10
114.3408969064
 20
72.0389680408
  0
VERTEX
  8
0
 62
9
  6
CONTINUOUS
 10
114.0741953328
 20
72.1565267831
  0
VERTEX
  8
0
 62
9
  6
CONTINUOUS
 10
113.7764896019
 20
72.3046053159
  0
VERTEX
  8
0
 62
9
  6
CONTINUOUS
 10
113.4607901259
 20
72.482963363
  0
VERTEX
  8
0
 62
9
  6
CONTINUOUS
 10
113.1347132407
 20
72.6706537364
  0
SEQEND
  0
POLYLINE
  8
0
 62
9
  6
CONTINUOUS
 66
1
 70
0
  0
VERTEX
  8
0
 62
9
  6
CONTINUOUS
 10
117.9399880229
 20
76.7506091713
  0
VERTEX
  8
0
 62
9
  6
CONTINUOUS
 10
117.8756146344
 20
76.7159385258
  0
VERTEX
  8
0
 62
9
  6
CONTINUOUS
 10
117.7521417341
 20
76.7209100043
  0
VERTEX
  8
0
 62
9
  6
CONTINUOUS
 10
117.5740413978
 20
76.7653435444
  0
VERTEX
  8
0
 62
9
  6
CONTINUOUS
 10
117.3477642573
 20
76.8476298038
  0
VERTEX
  8
0
 62
9
  6
CONTINUOUS
 10
117.0815058642
 20
76.9647884493
  0
VERTEX
  8
0
 62
9
  6
CONTINUOUS
 10
116.7849098548
 20
77.1125761015
  0
VERTEX
  8
0
 62
9
  6
CONTINUOUS
 10
116.4687186659
 20
77.2856400266
  0
VERTEX
  8
0
 62
9
  6
CONTINUOUS
 10
116.1443844541
 20
77.4777120069
  0
SEQEND
  0
POLYLINE
  8
0
 62
9
  6
CONTINUOUS
 66
1
 70
0
  0
VERTEX
  8
0
 62
9
  6
CONTINUOUS
 10
149.9316614298
 20
270.4165087693
  0
VERTEX
  8
0
 62
9
  6
CONTINUOUS
 10
149.8814956651
 20
270.4759694054
  0
VERTEX
  8
0
 62
9
  6
CONTINUOUS
 10
149.7647055875
 20
270.5092293272
  0
VERTEX
  8
0
 62
9
  6
CONTINUOUS
 10
149.5822032296
 20
270.5287730357
  0
VERTEX
  8
0
 62
9
  6
CONTINUOUS
 10
149.3400316164
 20
270.5287044121
  0
VERTEX
  8
0
 62
9
  6
CONTINUOUS
 10
149.0492091902
 20
270.509455523
  0
VERTEX
  8
0
 62
9
  6
CONTINUOUS
 10
148.7188052089
 20
270.4721290419
  0
VERTEX
  8
0
 62
9
  6
CONTINUOUS
 10
148.3611287493
 20
270.4125013801
  0
VERTEX
  8
0
 62
9
  6
CONTINUOUS
 10
147.9905014569
 20
270.3476517552
  0
SEQEND
  0
POLYLINE
  8
0
 62
9
  6
CONTINUOUS
 66
1
 70
0
  0
VERTEX
  8
0
 62
9
  6
CONTINUOUS
 10
234.399194693
 20
124.1144495605
  0
VERTEX
  8
0
 62
9
  6
CONTINUOUS
 10
234.4256073648
 20
124.0412675706
  0
VERTEX
  8
0
 62
9
  6
CONTINUOUS
 10
234.3960098084
 20
123.923486034
  0
VERTEX
  8
0
 62
9
  6
CONTINUOUS
 10
234.3216759255
 20
123.755652455
  0
VERTEX
  8
0
 62
9
  6
CONTINUOUS
 10
234.2005233573
 20
123.5459521665
  0
VERTEX
  8
0
 62
9
  6
CONTINUOUS
 10
234.0384383542
 20
123.3037162504
  0
VERTEX
  8
0
 62
9
  6
CONTINUOUS
 10
233.8409134095
 20
123.0362469059
  0
VERTEX
  8
0
 62
9
  6
CONTINUOUS
 10
233.6104443831
 20
122.7563151642
  0
VERTEX
  8
0
 62
9
  6
CONTINUOUS
 10
233.3689827913
 20
122.4677842109
  0
SEQEND
  0
POLYLINE
  8
0
 62
9
  6
CONTINUOUS
 66
1
 70
0
  0
VERTEX
  8
0
 62
9
  6
CONTINUOUS
 10
230.1854382562
 20
127.9085328979
  0
VERTEX
  8
0
 62
9
  6
CONTINUOUS
 10
230.2084038551
 20
127.8391169914
  0
VERTEX
  8
0
 62
9
  6
CONTINUOUS
 10
230.1820670604
 20
127.7183832101
  0
VERTEX
  8
0
 62
9
  6
CONTINUOUS
 10
230.1073817668
 20
127.5507044214
  0
VERTEX
  8
0
 62
9
  6
CONTINUOUS
 10
229.9870530074
 20
127.3421537981
  0
VERTEX
  8
0
 62
9
  6
CONTINUOUS
 10
229.8254389803
 20
127.1002848536
  0
VERTEX
  8
0
 62
9
  6
CONTINUOUS
 10
229.628393198
 20
126.8338578605
  0
VERTEX
  8
0
 62
9
  6
CONTINUOUS
 10
229.4030524791
 20
126.5525225615
  0
VERTEX
  8
0
 62
9
  6
CONTINUOUS
 10
229.157578459
 20
126.2664686645
  0
SEQEND
  0
LINE
  8
0
 62
9
  6
CONTINUOUS
 10
151.9481222353
 20
260.929806549
 11
149.9918270342
 21
260.513983168
  0
LINE
  8
0
 62
9
  6
CONTINUOUS
 10
135.2096646529
 20
260.929806549
 11
137.1659598544
 21
260.5139831673
  0
LINE
  8
0
 62
9
  6
CONTINUOUS
 10
208.9438592265
 20
234.0927544766
 11
207.1779640414
 21
235.0316976024
  0
LINE
  8
0
 62
9
  6
CONTINUOUS
 10
196.1214568091
 20
244.8520276158
 11
197.3527797598
 21
243.2760061086
  0
LINE
  8
0
 62
9
  6
CONTINUOUS
 10
235.3546022774
 20
176.898226324
 11
234.6053890913
 21
178.7525940329
  0
LINE
  8
0
 62
9
  6
CONTINUOUS
 10
232.4479996213
 20
193.3823891246
 11
232.3782006279
 21
191.3836074706
  0
LINE
  8
0
 62
9
  6
CONTINUOUS
 10
235.9340186776
 20
193.2606546567
 11
235.8642196841
 21
191.2618730026
  0
LINE
  8
0
 62
9
  6
CONTINUOUS
 10
218.8224711918
 20
116.1081774601
 11
219.440505181
 21
118.0102904921
  0
LINE
  8
0
 62
9
  6
CONTINUOUS
 10
222.1398932151
 20
115.030281704
 11
222.7579272039
 21
116.9323947366
  0
POLYLINE
  8
0
 62
9
  6
CONTINUOUS
 66
1
 70
0
  0
VERTEX
  8
0
 62
9
  6
CONTINUOUS
 10
222.7588942796
 20
116.9320805147
  0
VERTEX
  8
0
 62
9
  6
CONTINUOUS
 10
224.2909490234
 20
119.3312278545
  0
VERTEX
  8
0
 62
9
  6
CONTINUOUS
 10
225.7495500025
 20
121.7727823689
  0
VERTEX
  8
0
 62
9
  6
CONTINUOUS
 10
227.1346972167
 20
124.2567440581
  0
VERTEX
  8
0
 62
9
  6
CONTINUOUS
 10
228.4463906661
 20
126.783112922
  0
SEQEND
  0
LINE
  8
0
 62
9
  6
CONTINUOUS
 10
227.191699983
 20
130.6041069466
 11
225.8534387703
 21
129.1178172957
  0
LINE
  8
0
 62
9
  6
CONTINUOUS
 10
229.7838961021
 20
128.2700830775
 11
228.4456348893
 21
126.7837934265
  0
LINE
  8
0
 62
9
  6
CONTINUOUS
 10
167.0830338389
 20
80.1669473545
 11
168.7791300311
 21
81.2267858823
  0
LINE
  8
0
 62
9
  6
CONTINUOUS
 10
168.9314685088
 20
77.2088335277
 11
170.6275647011
 21
78.2686720561
  0
LINE
  8
0
 62
9
  6
CONTINUOUS
 10
151.2228963311
 20
264.3417261742
 11
149.2666011296
 21
263.9259027926
  0
POLYLINE
  8
0
 62
9
  6
CONTINUOUS
 66
1
 70
0
  0
VERTEX
  8
0
 62
9
  6
CONTINUOUS
 10
149.2663897159
 20
263.926897416
  0
VERTEX
  8
0
 62
9
  6
CONTINUOUS
 10
146.4230364364
 20
264.054122073
  0
VERTEX
  8
0
 62
9
  6
CONTINUOUS
 10
143.5794199247
 20
264.0965303171
  0
VERTEX
  8
0
 62
9
  6
CONTINUOUS
 10
140.7355401806
 20
264.0541221483
  0
VERTEX
  8
0
 62
9
  6
CONTINUOUS
 10
137.8913972043
 20
263.9268975665
  0
SEQEND
  0
LINE
  8
0
 62
9
  6
CONTINUOUS
 10
135.9348905572
 20
264.3417261742
 11
137.8911857586
 21
263.9259027926
  0
LINE
  8
0
 62
9
  6
CONTINUOUS
 10
210.5814436129
 20
237.1726027714
 11
208.8155484272
 21
238.1115458969
  0
POLYLINE
  8
0
 62
9
  6
CONTINUOUS
 66
1
 70
0
  0
VERTEX
  8
0
 62
9
  6
CONTINUOUS
 10
208.8160258063
 20
238.1124437165
  0
VERTEX
  8
0
 62
9
  6
CONTINUOUS
 10
206.7193605824
 20
240.0378347289
  0
VERTEX
  8
0
 62
9
  6
CONTINUOUS
 10
204.5681805566
 20
241.8982491268
  0
VERTEX
  8
0
 62
9
  6
CONTINUOUS
 10
202.3624857289
 20
243.6936869101
  0
VERTEX
  8
0
 62
9
  6
CONTINUOUS
 10
200.1022760994
 20
245.4241480789
  0
SEQEND
  0
LINE
  8
0
 62
9
  6
CONTINUOUS
 10
198.8701517434
 20
246.9995434597
 11
200.1014746941
 21
245.4235219524
  0
LINE
  8
0
 62
9
  6
CONTINUOUS
 10
238.5887530204
 20
178.2049080424
 11
237.8395398335
 21
180.0592757516
  0
POLYLINE
  8
0
 62
9
  6
CONTINUOUS
 66
1
 70
0
  0
VERTEX
  8
0
 62
9
  6
CONTINUOUS
 10
237.8404826345
 20
180.0596566679
  0
VERTEX
  8
0
 62
9
  6
CONTINUOUS
 10
237.4719623769
 20
182.882296512
  0
VERTEX
  8
0
 62
9
  6
CONTINUOUS
 10
237.019914529
 20
185.6902066003
  0
VERTEX
  8
0
 62
9
  6
CONTINUOUS
 10
236.4843390909
 20
188.483386933
  0
VERTEX
  8
0
 62
9
  6
CONTINUOUS
 10
235.8652360626
 20
191.2618375099
  0
SEQEND
  0
POLYLINE
  8
0
 62
9
  6
CONTINUOUS
 66
1
 70
0
  0
VERTEX
  8
0
 62
9
  6
CONTINUOUS
 10
170.6281035461
 20
78.2678097239
  0
VERTEX
  8
0
 62
9
  6
CONTINUOUS
 10
173.3438674173
 20
79.1208772828
  0
VERTEX
  8
0
 62
9
  6
CONTINUOUS
 10
176.0306214704
 20
80.0536458737
  0
VERTEX
  8
0
 62
9
  6
CONTINUOUS
 10
178.6883657054
 20
81.0661154964
  0
VERTEX
  8
0
 62
9
  6
CONTINUOUS
 10
181.3171001223
 20
82.1582861511
  0
SEQEND
  0
POLYLINE
  8
0
 62
9
  6
CONTINUOUS
 66
1
 70
0
  0
VERTEX
  8
0
 62
9
  6
CONTINUOUS
 10
332.1450802514
 20
74.1614474456
  0
VERTEX
  8
0
 62
9
  6
CONTINUOUS
 10
332.4929268165
 20
74.1903358598
  0
VERTEX
  8
0
 62
9
  6
CONTINUOUS
 10
332.82426357
 20
74.2712560551
  0
VERTEX
  8
0
 62
9
  6
CONTINUOUS
 10
333.1396522514
 20
74.4064679471
  0
VERTEX
  8
0
 62
9
  6
CONTINUOUS
 10
333.4279041093
 20
74.5916188857
  0
VERTEX
  8
0
 62
9
  6
CONTINUOUS
 10
333.6748986607
 20
74.8190232911
  0
VERTEX
  8
0
 62
9
  6
CONTINUOUS
 10
333.8760867997
 20
75.083672956
  0
VERTEX
  8
0
 62
9
  6
CONTINUOUS
 10
334.0243918575
 20
75.3755880075
  0
VERTEX
  8
0
 62
9
  6
CONTINUOUS
 10
334.1146957525
 20
75.6883713461
  0
SEQEND
  0
POLYLINE
  8
0
 62
9
  6
CONTINUOUS
 66
1
 70
0
  0
VERTEX
  8
0
 62
9
  6
CONTINUOUS
 10
332.1450802465
 20
71.0944617842
  0
VERTEX
  8
0
 62
9
  6
CONTINUOUS
 10
332.4890064736
 20
71.1228757324
  0
VERTEX
  8
0
 62
9
  6
CONTINUOUS
 10
332.8242696455
 20
71.2078156122
  0
SEQEND
  0
LINE
  8
0
 62
7
  6
CONTINUOUS
 10
322.2703099982
 20
71.0018720538
 11
332.1450802465
 21
71.0018720538
  0
LINE
  8
0
 62
9
  6
CONTINUOUS
 10
322.2703099982
 20
71.0944617841
 11
332.1450802465
 21
71.0944617841
  0
LINE
  8
0
 62
9
  6
CONTINUOUS
 10
322.2703099982
 20
74.1614474262
 11
332.1450802465
 21
74.1614474262
  0
LINE
  8
0
 62
9
  6
CONTINUOUS
 10
332.1450802465
 20
76.2875827642
 11
322.2703099982
 21
76.2875827642
  0
POLYLINE
  8
0
 62
9
  6
CONTINUOUS
 66
1
 70
0
  0
VERTEX
  8
0
 62
9
  6
CONTINUOUS
 10
322.2703099982
 20
74.1614474264
  0
VERTEX
  8
0
 62
9
  6
CONTINUOUS
 10
321.9302022094
 20
74.1883609122
  0
VERTEX
  8
0
 62
9
  6
CONTINUOUS
 10
321.5984798036
 20
74.2688182593
  0
VERTEX
  8
0
 62
9
  6
CONTINUOUS
 10
321.2847500663
 20
74.4013755378
  0
VERTEX
  8
0
 62
9
  6
CONTINUOUS
 10
320.9997287188
 20
74.5822386437
  0
VERTEX
  8
0
 62
9
  6
CONTINUOUS
 10
320.7529938466
 20
74.8054222561
  0
VERTEX
  8
0
 62
9
  6
CONTINUOUS
 10
320.5514578603
 20
75.0645358083
  0
VERTEX
  8
0
 62
9
  6
CONTINUOUS
 10
320.401110881
 20
75.3519749144
  0
VERTEX
  8
0
 62
9
  6
CONTINUOUS
 10
320.3065319766
 20
75.6591599
  0
SEQEND
  0
POLYLINE
  8
0
 62
9
  6
CONTINUOUS
 66
1
 70
0
  0
VERTEX
  8
0
 62
9
  6
CONTINUOUS
 10
322.2703099936
 20
71.0944617611
  0
VERTEX
  8
0
 62
9
  6
CONTINUOUS
 10
321.9263763817
 20
71.1223302248
  0
VERTEX
  8
0
 62
9
  6
CONTINUOUS
 10
321.5984853035
 20
71.2052951953
  0
SEQEND
  0
POLYLINE
  8
0
 62
7
  6
CONTINUOUS
 66
1
 70
0
  0
VERTEX
  8
0
 62
7
  6
CONTINUOUS
 10
321.5818266434
 20
71.1241099096
  0
VERTEX
  8
0
 62
7
  6
CONTINUOUS
 10
321.9200012941
 20
71.032790187
  0
VERTEX
  8
0
 62
7
  6
CONTINUOUS
 10
322.270309998
 20
71.0018720538
  0
SEQEND
  0
POLYLINE
  8
0
 62
9
  6
CONTINUOUS
 66
1
 70
0
  0
VERTEX
  8
0
 62
9
  6
CONTINUOUS
 10
321.5395235743
 20
76.1324506327
  0
VERTEX
  8
0
 62
9
  6
CONTINUOUS
 10
321.2083051469
 20
76.046810766
  0
VERTEX
  8
0
 62
9
  6
CONTINUOUS
 10
320.9134779475
 20
75.959666107
  0
VERTEX
  8
0
 62
9
  6
CONTINUOUS
 10
320.6688309069
 20
75.8746869759
  0
VERTEX
  8
0
 62
9
  6
CONTINUOUS
 10
320.4818745639
 20
75.7939905766
  0
VERTEX
  8
0
 62
9
  6
CONTINUOUS
 10
320.3584166664
 20
75.7257979312
  0
VERTEX
  8
0
 62
9
  6
CONTINUOUS
 10
320.3065319767
 20
75.6591598992
  0
SEQEND
  0
LINE
  8
0
 62
9
  6
CONTINUOUS
 10
322.2703100035
 20
76.2875827332
 11
321.5395235743
 21
76.1324506327
  0
POLYLINE
  8
0
 62
9
  6
CONTINUOUS
 66
1
 70
0
  0
VERTEX
  8
0
 62
9
  6
CONTINUOUS
 10
321.1567622951
 20
82.497130801
  0
VERTEX
  8
0
 62
9
  6
CONTINUOUS
 10
320.7665823736
 20
82.4917824751
  0
VERTEX
  8
0
 62
9
  6
CONTINUOUS
 10
320.3913965715
 20
82.4759430208
  0
VERTEX
  8
0
 62
9
  6
CONTINUOUS
 10
320.045623064
 20
82.4502211188
  0
VERTEX
  8
0
 62
9
  6
CONTINUOUS
 10
319.7425498058
 20
82.4156052314
  0
VERTEX
  8
0
 62
9
  6
CONTINUOUS
 10
319.4938238178
 20
82.3734256153
  0
VERTEX
  8
0
 62
9
  6
CONTINUOUS
 10
319.309003617
 20
82.3253032061
  0
VERTEX
  8
0
 62
9
  6
CONTINUOUS
 10
319.1951918452
 20
82.2730873251
  0
VERTEX
  8
0
 62
9
  6
CONTINUOUS
 10
319.1567622951
 20
82.218784599
  0
SEQEND
  0
POLYLINE
  8
0
 62
9
  6
CONTINUOUS
 66
1
 70
0
  0
VERTEX
  8
0
 62
9
  6
CONTINUOUS
 10
333.1567622951
 20
82.4376394536
  0
VERTEX
  8
0
 62
9
  6
CONTINUOUS
 10
333.5469429391
 20
82.4322911094
  0
VERTEX
  8
0
 62
9
  6
CONTINUOUS
 10
333.9221291598
 20
82.4164516106
  0
VERTEX
  8
0
 62
9
  6
CONTINUOUS
 10
334.2679027611
 20
82.3907296603
  0
VERTEX
  8
0
 62
9
  6
CONTINUOUS
 10
334.5709758575
 20
82.3561137386
  0
VERTEX
  8
0
 62
9
  6
CONTINUOUS
 10
334.8197015197
 20
82.313934116
  0
VERTEX
  8
0
 62
9
  6
CONTINUOUS
 10
335.0045213601
 20
82.2658117316
  0
VERTEX
  8
0
 62
9
  6
CONTINUOUS
 10
335.1183328559
 20
82.2135959019
  0
VERTEX
  8
0
 62
9
  6
CONTINUOUS
 10
335.1567622951
 20
82.1592932517
  0
SEQEND
  0
POLYLINE
  8
0
 62
9
  6
CONTINUOUS
 66
1
 70
0
  0
VERTEX
  8
0
 62
9
  6
CONTINUOUS
 10
332.1450802411
 20
76.2875827303
  0
VERTEX
  8
0
 62
9
  6
CONTINUOUS
 10
332.8796874276
 20
76.143351645
  0
VERTEX
  8
0
 62
9
  6
CONTINUOUS
 10
333.2124125635
 20
76.0625670837
  0
VERTEX
  8
0
 62
9
  6
CONTINUOUS
 10
333.5084893093
 20
75.9798039989
  0
VERTEX
  8
0
 62
9
  6
CONTINUOUS
 10
333.7538108714
 20
75.8984249101
  0
VERTEX
  8
0
 62
9
  6
CONTINUOUS
 10
333.9409196998
 20
75.8204955119
  0
VERTEX
  8
0
 62
9
  6
CONTINUOUS
 10
334.0638284956
 20
75.7541946318
  0
VERTEX
  8
0
 62
9
  6
CONTINUOUS
 10
334.1146957525
 20
75.6883713461
  0
SEQEND
  0
POLYLINE
  8
0
 62
9
  6
CONTINUOUS
 66
1
 70
0
  0
VERTEX
  8
0
 62
9
  6
CONTINUOUS
 10
321.5984853035
 20
71.2052951953
  0
VERTEX
  8
0
 62
9
  6
CONTINUOUS
 10
321.2859841528
 20
71.3412007637
  0
VERTEX
  8
0
 62
9
  6
CONTINUOUS
 10
320.9997307438
 20
71.5288287465
  0
VERTEX
  8
0
 62
9
  6
CONTINUOUS
 10
320.7534164506
 20
71.7587291448
  0
VERTEX
  8
0
 62
9
  6
CONTINUOUS
 10
320.5514567847
 20
72.0266911208
  0
SEQEND
  0
POLYLINE
  8
0
 62
9
  6
CONTINUOUS
 66
1
 70
0
  0
VERTEX
  8
0
 62
9
  6
CONTINUOUS
 10
321.2110952628
 20
81.9133324733
  0
VERTEX
  8
0
 62
9
  6
CONTINUOUS
 10
320.8396020147
 20
81.8398695756
  0
VERTEX
  8
0
 62
9
  6
CONTINUOUS
 10
320.4814901984
 20
81.7590266461
  0
VERTEX
  8
0
 62
9
  6
CONTINUOUS
 10
320.1496592379
 20
81.6737157005
  0
VERTEX
  8
0
 62
9
  6
CONTINUOUS
 10
319.8560619032
 20
81.5870096952
  0
VERTEX
  8
0
 62
9
  6
CONTINUOUS
 10
319.6112737641
 20
81.5020318379
  0
VERTEX
  8
0
 62
9
  6
CONTINUOUS
 10
319.4241122509
 20
81.4218430869
  0
VERTEX
  8
0
 62
9
  6
CONTINUOUS
 10
319.3013190447
 20
81.3493318941
  0
VERTEX
  8
0
 62
9
  6
CONTINUOUS
 10
319.247317238
 20
81.2871101604
  0
SEQEND
  0
POLYLINE
  8
0
 62
9
  6
CONTINUOUS
 66
1
 70
0
  0
VERTEX
  8
0
 62
9
  6
CONTINUOUS
 10
321.1567622951
 20
85.8918370159
  0
VERTEX
  8
0
 62
9
  6
CONTINUOUS
 10
320.8438933651
 20
85.8884101123
  0
VERTEX
  8
0
 62
9
  6
CONTINUOUS
 10
320.5387283064
 20
85.8782137831
  0
VERTEX
  8
0
 62
9
  6
CONTINUOUS
 10
320.2487812957
 20
85.8614990959
  0
VERTEX
  8
0
 62
9
  6
CONTINUOUS
 10
319.9811917905
 20
85.8386776217
  0
VERTEX
  8
0
 62
9
  6
CONTINUOUS
 10
319.7425487327
 20
85.8103113009
  0
VERTEX
  8
0
 62
9
  6
CONTINUOUS
 10
319.5387283063
 20
85.7770986065
  0
VERTEX
  8
0
 62
9
  6
CONTINUOUS
 10
319.3747492467
 20
85.7398573453
  0
VERTEX
  8
0
 62
9
  6
CONTINUOUS
 10
319.2546492625
 20
85.6995045207
  0
VERTEX
  8
0
 62
9
  6
CONTINUOUS
 10
319.1813856139
 20
85.6570337532
  0
VERTEX
  8
0
 62
9
  6
CONTINUOUS
 10
319.1567622951
 20
85.613490814
  0
SEQEND
  0
LINE
  8
0
 62
9
  6
CONTINUOUS
 10
333.1567622951
 20
85.8918370159
 11
321.1567622951
 21
85.8918370159
  0
POLYLINE
  8
0
 62
9
  6
CONTINUOUS
 66
1
 70
0
  0
VERTEX
  8
0
 62
9
  6
CONTINUOUS
 10
333.1567622951
 20
85.8918370159
  0
VERTEX
  8
0
 62
9
  6
CONTINUOUS
 10
333.4696311184
 20
85.8884101146
  0
VERTEX
  8
0
 62
9
  6
CONTINUOUS
 10
333.7747961276
 20
85.8782137902
  0
VERTEX
  8
0
 62
9
  6
CONTINUOUS
 10
334.0647431505
 20
85.8614991061
  0
VERTEX
  8
0
 62
9
  6
CONTINUOUS
 10
334.3323327022
 20
85.8386776315
  0
VERTEX
  8
0
 62
9
  6
CONTINUOUS
 10
334.5709758211
 20
85.8103113059
  0
VERTEX
  8
0
 62
9
  6
CONTINUOUS
 10
334.7747962985
 20
85.7770986037
  0
VERTEX
  8
0
 62
9
  6
CONTINUOUS
 10
334.9387753855
 20
85.7398573338
  0
VERTEX
  8
0
 62
9
  6
CONTINUOUS
 10
335.0588753667
 20
85.699504504
  0
VERTEX
  8
0
 62
9
  6
CONTINUOUS
 10
335.1321389906
 20
85.6570337404
  0
VERTEX
  8
0
 62
9
  6
CONTINUOUS
 10
335.1567622951
 20
85.6134908135
  0
SEQEND
  0
POLYLINE
  8
0
 62
9
  6
CONTINUOUS
 66
1
 70
0
  0
VERTEX
  8
0
 62
9
  6
CONTINUOUS
 10
333.1111855541
 20
81.9025696263
  0
VERTEX
  8
0
 62
9
  6
CONTINUOUS
 10
333.4847222201
 20
81.8346319512
  0
VERTEX
  8
0
 62
9
  6
CONTINUOUS
 10
333.8447296011
 20
81.7590735326
  0
VERTEX
  8
0
 62
9
  6
CONTINUOUS
 10
334.1781685962
 20
81.6786310205
  0
VERTEX
  8
0
 62
9
  6
CONTINUOUS
 10
334.472962384
 20
81.5962179615
  0
VERTEX
  8
0
 62
9
  6
CONTINUOUS
 10
334.7184338334
 20
81.5148192732
  0
SEQEND
  0
POLYLINE
  8
0
 62
9
  6
CONTINUOUS
 66
1
 70
0
  0
VERTEX
  8
0
 62
9
  6
CONTINUOUS
 10
334.7184338334
 20
81.5148192732
  0
VERTEX
  8
0
 62
9
  6
CONTINUOUS
 10
334.9056922181
 20
81.4373831332
  0
VERTEX
  8
0
 62
9
  6
CONTINUOUS
 10
335.0279552299
 20
81.3667141999
  0
VERTEX
  8
0
 62
9
  6
CONTINUOUS
 10
335.0807946268
 20
81.3053720298
  0
SEQEND
  0
POLYLINE
  8
0
 62
9
  6
CONTINUOUS
 66
1
 70
0
  0
VERTEX
  8
0
 62
9
  6
CONTINUOUS
 10
333.1567622951
 20
97.7332000665
  0
VERTEX
  8
0
 62
9
  6
CONTINUOUS
 10
333.4696312252
 20
97.7540709677
  0
VERTEX
  8
0
 62
9
  6
CONTINUOUS
 10
333.7747962838
 20
97.8161697603
  0
VERTEX
  8
0
 62
9
  6
CONTINUOUS
 10
334.0647432945
 20
97.917967366
  0
VERTEX
  8
0
 62
9
  6
CONTINUOUS
 10
334.3323327996
 20
98.0569571899
  0
VERTEX
  8
0
 62
9
  6
CONTINUOUS
 10
334.5709758574
 20
98.2297168413
  0
VERTEX
  8
0
 62
9
  6
CONTINUOUS
 10
334.7747962838
 20
98.4319924041
  0
VERTEX
  8
0
 62
9
  6
CONTINUOUS
 10
334.9387753434
 20
98.6588031827
  0
VERTEX
  8
0
 62
9
  6
CONTINUOUS
 10
335.0588753276
 20
98.9045643431
  0
VERTEX
  8
0
 62
9
  6
CONTINUOUS
 10
335.1321389763
 20
99.1632244298
  0
VERTEX
  8
0
 62
9
  6
CONTINUOUS
 10
335.1567622951
 20
99.428414373
  0
SEQEND
  0
LINE
  8
0
 62
9
  6
CONTINUOUS
 10
333.1567622951
 20
97.7332000665
 11
321.1567622951
 21
97.7332000665
  0
POLYLINE
  8
0
 62
9
  6
CONTINUOUS
 66
1
 70
0
  0
VERTEX
  8
0
 62
9
  6
CONTINUOUS
 10
321.1567622951
 20
97.7332000704
  0
VERTEX
  8
0
 62
9
  6
CONTINUOUS
 10
320.8438934437
 20
97.7540709586
  0
VERTEX
  8
0
 62
9
  6
CONTINUOUS
 10
320.5387284115
 20
97.8161697313
  0
VERTEX
  8
0
 62
9
  6
CONTINUOUS
 10
320.2487813695
 20
97.9179673339
  0
VERTEX
  8
0
 62
9
  6
CONTINUOUS
 10
319.9811918113
 20
98.0569571771
  0
VERTEX
  8
0
 62
9
  6
CONTINUOUS
 10
319.7425487048
 20
98.229716865
  0
VERTEX
  8
0
 62
9
  6
CONTINUOUS
 10
319.538728248
 20
98.4319924722
  0
VERTEX
  8
0
 62
9
  6
CONTINUOUS
 10
319.3747491851
 20
98.6588032853
  0
VERTEX
  8
0
 62
9
  6
CONTINUOUS
 10
319.2546492195
 20
98.9045644554
  0
VERTEX
  8
0
 62
9
  6
CONTINUOUS
 10
319.1813855995
 20
99.1632245069
  0
VERTEX
  8
0
 62
9
  6
CONTINUOUS
 10
319.1567622951
 20
99.428414373
  0
SEQEND
  0
POLYLINE
  8
0
 62
9
  6
CONTINUOUS
 66
1
 70
0
  0
VERTEX
  8
0
 62
9
  6
CONTINUOUS
 10
320.9997285792
 20
250.4724195002
  0
VERTEX
  8
0
 62
9
  6
CONTINUOUS
 10
320.75299374
 20
250.2807762773
  0
VERTEX
  8
0
 62
9
  6
CONTINUOUS
 10
320.5514577976
 20
250.05828077
  0
VERTEX
  8
0
 62
9
  6
CONTINUOUS
 10
320.4011108564
 20
249.811462705
  0
SEQEND
  0
POLYLINE
  8
0
 62
7
  6
CONTINUOUS
 66
1
 70
0
  0
VERTEX
  8
0
 62
7
  6
CONTINUOUS
 10
320.527299799
 20
72.0210991721
  0
VERTEX
  8
0
 62
7
  6
CONTINUOUS
 10
320.726985158
 20
71.7298074311
  0
VERTEX
  8
0
 62
7
  6
CONTINUOUS
 10
320.9747259408
 20
71.4782375996
  0
VERTEX
  8
0
 62
7
  6
CONTINUOUS
 10
321.2631036515
 20
71.2740018967
  0
VERTEX
  8
0
 62
7
  6
CONTINUOUS
 10
321.5818266434
 20
71.1241099096
  0
SEQEND
  0
POLYLINE
  8
0
 62
9
  6
CONTINUOUS
 66
1
 70
0
  0
VERTEX
  8
0
 62
9
  6
CONTINUOUS
 10
333.1567622951
 20
112.7324792252
  0
VERTEX
  8
0
 62
9
  6
CONTINUOUS
 10
333.4696311335
 20
112.748970646
  0
VERTEX
  8
0
 62
9
  6
CONTINUOUS
 10
333.7747961614
 20
112.7980388377
  0
VERTEX
  8
0
 62
9
  6
CONTINUOUS
 10
334.0647432086
 20
112.8784755993
  0
VERTEX
  8
0
 62
9
  6
CONTINUOUS
 10
334.3323327755
 20
112.9883003179
  0
VERTEX
  8
0
 62
9
  6
CONTINUOUS
 10
334.57097589
 20
113.1248087418
  0
VERTEX
  8
0
 62
9
  6
CONTINUOUS
 10
334.7747963517
 20
113.2846395721
  0
VERTEX
  8
0
 62
9
  6
CONTINUOUS
 10
334.9387754152
 20
113.4638572282
  0
VERTEX
  8
0
 62
9
  6
CONTINUOUS
 10
335.0588753777
 20
113.6580487635
  0
VERTEX
  8
0
 62
9
  6
CONTINUOUS
 10
335.132138993
 20
113.8624325194
  0
VERTEX
  8
0
 62
9
  6
CONTINUOUS
 10
335.1567622951
 20
114.0719758917
  0
SEQEND
  0
POLYLINE
  8
0
 62
9
  6
CONTINUOUS
 66
1
 70
0
  0
VERTEX
  8
0
 62
9
  6
CONTINUOUS
 10
332.1450802465
 20
113.9387127368
  0
VERTEX
  8
0
 62
9
  6
CONTINUOUS
 10
332.4890064806
 20
113.9547196364
  0
VERTEX
  8
0
 62
9
  6
CONTINUOUS
 10
332.8242696575
 20
114.0025702239
  0
VERTEX
  8
0
 62
9
  6
CONTINUOUS
 10
333.1409300847
 20
114.0813890678
  0
VERTEX
  8
0
 62
9
  6
CONTINUOUS
 10
333.4279064477
 20
114.1888686311
  0
SEQEND
  0
LINE
  8
0
 62
9
  6
CONTINUOUS
 10
333.1567622951
 20
112.7324792313
 11
321.1567622951
 21
112.7324792313
  0
LINE
  8
0
 62
7
  6
CONTINUOUS
 10
322.2703099982
 20
113.0132456765
 11
332.1450802465
 21
113.0132456765
  0
LINE
  8
0
 62
9
  6
CONTINUOUS
 10
322.2703099982
 20
113.9387127368
 11
332.1450802465
 21
113.9387127368
  0
POLYLINE
  8
0
 62
9
  6
CONTINUOUS
 66
1
 70
0
  0
VERTEX
  8
0
 62
9
  6
CONTINUOUS
 10
322.2703099936
 20
113.9387126722
  0
VERTEX
  8
0
 62
9
  6
CONTINUOUS
 10
321.9263763817
 20
113.9531852445
  0
VERTEX
  8
0
 62
9
  6
CONTINUOUS
 10
321.5984853035
 20
114.0011503535
  0
VERTEX
  8
0
 62
9
  6
CONTINUOUS
 10
321.2859841528
 20
114.0771185342
  0
VERTEX
  8
0
 62
9
  6
CONTINUOUS
 10
320.9997307438
 20
114.1834118539
  0
SEQEND
  0
POLYLINE
  8
0
 62
9
  6
CONTINUOUS
 66
1
 70
0
  0
VERTEX
  8
0
 62
9
  6
CONTINUOUS
 10
321.1567622951
 20
112.7324792314
  0
VERTEX
  8
0
 62
9
  6
CONTINUOUS
 10
320.8438933651
 20
112.748970658
  0
VERTEX
  8
0
 62
9
  6
CONTINUOUS
 10
320.5387283064
 20
112.7980388643
  0
VERTEX
  8
0
 62
9
  6
CONTINUOUS
 10
320.2487812957
 20
112.8784756282
  0
VERTEX
  8
0
 62
9
  6
CONTINUOUS
 10
319.9811917906
 20
112.9883003296
  0
VERTEX
  8
0
 62
9
  6
CONTINUOUS
 10
319.7425487328
 20
113.1248087199
  0
VERTEX
  8
0
 62
9
  6
CONTINUOUS
 10
319.5387283064
 20
113.2846395095
  0
VERTEX
  8
0
 62
9
  6
CONTINUOUS
 10
319.3747492468
 20
113.4638571338
  0
VERTEX
  8
0
 62
9
  6
CONTINUOUS
 10
319.2546492625
 20
113.6580486602
  0
VERTEX
  8
0
 62
9
  6
CONTINUOUS
 10
319.1813856139
 20
113.8624324488
  0
VERTEX
  8
0
 62
9
  6
CONTINUOUS
 10
319.1567622951
 20
114.0719758925
  0
SEQEND
  0
POLYLINE
  8
0
 62
7
  6
CONTINUOUS
 66
1
 70
0
  0
VERTEX
  8
0
 62
7
  6
CONTINUOUS
 10
320.5211683303
 20
250.2168811444
  0
VERTEX
  8
0
 62
7
  6
CONTINUOUS
 10
320.7197920601
 20
250.5103726171
  0
VERTEX
  8
0
 62
7
  6
CONTINUOUS
 10
320.9670976377
 20
250.7642004605
  0
VERTEX
  8
0
 62
7
  6
CONTINUOUS
 10
321.2553204358
 20
250.9703952468
  0
VERTEX
  8
0
 62
7
  6
CONTINUOUS
 10
321.5754108884
 20
251.1224829375
  0
SEQEND
  0
POLYLINE
  8
0
 62
9
  6
CONTINUOUS
 66
1
 70
0
  0
VERTEX
  8
0
 62
9
  6
CONTINUOUS
 10
332.1450802514
 20
121.7045930403
  0
VERTEX
  8
0
 62
9
  6
CONTINUOUS
 10
332.4929268166
 20
121.7203517789
  0
VERTEX
  8
0
 62
9
  6
CONTINUOUS
 10
332.82426357
 20
121.7594778393
  0
VERTEX
  8
0
 62
9
  6
CONTINUOUS
 10
333.1396522515
 20
121.8276932592
  0
VERTEX
  8
0
 62
9
  6
CONTINUOUS
 10
333.4279041093
 20
121.9196024499
  0
VERTEX
  8
0
 62
9
  6
CONTINUOUS
 10
333.6748986607
 20
122.033297295
  0
VERTEX
  8
0
 62
9
  6
CONTINUOUS
 10
333.8760867997
 20
122.1655422371
  0
VERTEX
  8
0
 62
9
  6
CONTINUOUS
 10
334.0243918575
 20
122.3087373501
  0
VERTEX
  8
0
 62
9
  6
CONTINUOUS
 10
334.1146957525
 20
122.4677842109
  0
SEQEND
  0
LINE
  8
0
 62
9
  6
CONTINUOUS
 10
322.2703099982
 20
121.7045929954
 11
332.1450802465
 21
121.7045929954
  0
LINE
  8
0
 62
9
  6
CONTINUOUS
 10
332.1450802465
 20
124.1144495761
 11
322.2703099982
 21
124.1144495761
  0
POLYLINE
  8
0
 62
9
  6
CONTINUOUS
 66
1
 70
0
  0
VERTEX
  8
0
 62
9
  6
CONTINUOUS
 10
322.2703099982
 20
121.7045929964
  0
VERTEX
  8
0
 62
9
  6
CONTINUOUS
 10
321.9302022013
 20
121.7180449673
  0
VERTEX
  8
0
 62
9
  6
CONTINUOUS
 10
321.5984797897
 20
121.758259376
  0
VERTEX
  8
0
 62
9
  6
CONTINUOUS
 10
321.2847500487
 20
121.8245145132
  0
VERTEX
  8
0
 62
9
  6
CONTINUOUS
 10
320.9997287012
 20
121.9149139988
  0
VERTEX
  8
0
 62
9
  6
CONTINUOUS
 10
320.7529938331
 20
122.026466232
  0
VERTEX
  8
0
 62
9
  6
CONTINUOUS
 10
320.5514578524
 20
122.1559770627
  0
VERTEX
  8
0
 62
9
  6
CONTINUOUS
 10
320.401110878
 20
122.2996456465
  0
VERTEX
  8
0
 62
9
  6
CONTINUOUS
 10
320.3065319766
 20
122.4531836673
  0
SEQEND
  0
LINE
  8
0
 62
9
  6
CONTINUOUS
 10
320.9997307438
 20
114.1834118539
 11
320.7534164506
 21
114.3128875565
  0
POLYLINE
  8
0
 62
9
  6
CONTINUOUS
 66
1
 70
0
  0
VERTEX
  8
0
 62
9
  6
CONTINUOUS
 10
320.7534164506
 20
114.3128875565
  0
VERTEX
  8
0
 62
9
  6
CONTINUOUS
 10
320.5514567848
 20
114.4638808905
  0
VERTEX
  8
0
 62
9
  6
CONTINUOUS
 10
320.4008078111
 20
114.6346454174
  0
SEQEND
  0
LINE
  8
0
 62
9
  6
CONTINUOUS
 10
320.5514567847
 20
72.0266911208
 11
320.4008078111
 21
72.3253062483
  0
LINE
  8
0
 62
9
  6
CONTINUOUS
 10
319.1951917343
 20
263.948262712
 11
319.1567622951
 21
263.8671395945
  0
POLYLINE
  8
0
 62
9
  6
CONTINUOUS
 66
1
 70
0
  0
VERTEX
  8
0
 62
9
  6
CONTINUOUS
 10
322.2703100035
 20
124.1144495552
  0
VERTEX
  8
0
 62
9
  6
CONTINUOUS
 10
321.8974057702
 20
124.037619333
  0
VERTEX
  8
0
 62
9
  6
CONTINUOUS
 10
321.5395235743
 20
123.9166055145
  0
VERTEX
  8
0
 62
9
  6
CONTINUOUS
 10
321.2083051469
 20
123.7460339202
  0
VERTEX
  8
0
 62
9
  6
CONTINUOUS
 10
320.9134779475
 20
123.5341329
  0
VERTEX
  8
0
 62
9
  6
CONTINUOUS
 10
320.6688309069
 20
123.2902927526
  0
VERTEX
  8
0
 62
9
  6
CONTINUOUS
 10
320.4818745639
 20
123.0218569049
  0
VERTEX
  8
0
 62
9
  6
CONTINUOUS
 10
320.3584166664
 20
122.7415077136
  0
VERTEX
  8
0
 62
9
  6
CONTINUOUS
 10
320.3065319767
 20
122.4531836671
  0
SEQEND
  0
POLYLINE
  8
0
 62
9
  6
CONTINUOUS
 66
1
 70
0
  0
VERTEX
  8
0
 62
9
  6
CONTINUOUS
 10
321.2110952628
 20
127.915805424
  0
VERTEX
  8
0
 62
9
  6
CONTINUOUS
 10
320.8396020147
 20
127.8427848865
  0
VERTEX
  8
0
 62
9
  6
CONTINUOUS
 10
320.4814901984
 20
127.7188574629
  0
VERTEX
  8
0
 62
9
  6
CONTINUOUS
 10
320.1496592379
 20
127.5484871009
  0
VERTEX
  8
0
 62
9
  6
CONTINUOUS
 10
319.8560619032
 20
127.3378106534
  0
VERTEX
  8
0
 62
9
  6
CONTINUOUS
 10
319.6112737641
 20
127.0944168249
  0
VERTEX
  8
0
 62
9
  6
CONTINUOUS
 10
319.4241122509
 20
126.8270728217
  0
VERTEX
  8
0
 62
9
  6
CONTINUOUS
 10
319.3013190447
 20
126.5454085514
  0
VERTEX
  8
0
 62
9
  6
CONTINUOUS
 10
319.247317238
 20
126.2595697467
  0
SEQEND
  0
POLYLINE
  8
0
 62
9
  6
CONTINUOUS
 66
1
 70
0
  0
VERTEX
  8
0
 62
9
  6
CONTINUOUS
 10
321.1567622951
 20
128.3102817697
  0
VERTEX
  8
0
 62
9
  6
CONTINUOUS
 10
320.7665823736
 20
128.2817232365
  0
VERTEX
  8
0
 62
9
  6
CONTINUOUS
 10
320.3913965715
 20
128.1971450559
  0
VERTEX
  8
0
 62
9
  6
CONTINUOUS
 10
320.045623064
 20
128.0597974093
  0
VERTEX
  8
0
 62
9
  6
CONTINUOUS
 10
319.7425498058
 20
127.8749584045
  0
VERTEX
  8
0
 62
9
  6
CONTINUOUS
 10
319.4938238178
 20
127.6497312351
  0
VERTEX
  8
0
 62
9
  6
CONTINUOUS
 10
319.309003617
 20
127.392771236
  0
VERTEX
  8
0
 62
9
  6
CONTINUOUS
 10
319.1951918452
 20
127.1139532586
  0
VERTEX
  8
0
 62
9
  6
CONTINUOUS
 10
319.1567622951
 20
126.8239921187
  0
SEQEND
  0
POLYLINE
  8
0
 62
9
  6
CONTINUOUS
 66
1
 70
0
  0
VERTEX
  8
0
 62
9
  6
CONTINUOUS
 10
321.1567622951
 20
130.6041069466
  0
VERTEX
  8
0
 62
9
  6
CONTINUOUS
 10
320.8438933651
 20
130.5858082547
  0
VERTEX
  8
0
 62
9
  6
CONTINUOUS
 10
320.5387283064
 20
130.5313627534
  0
VERTEX
  8
0
 62
9
  6
CONTINUOUS
 10
320.2487812957
 20
130.4421110716
  0
VERTEX
  8
0
 62
9
  6
CONTINUOUS
 10
319.9811917905
 20
130.3202508819
  0
VERTEX
  8
0
 62
9
  6
CONTINUOUS
 10
319.7425487327
 20
130.1687827867
  0
VERTEX
  8
0
 62
9
  6
CONTINUOUS
 10
319.5387283063
 20
129.9914364332
  0
VERTEX
  8
0
 62
9
  6
CONTINUOUS
 10
319.3747492467
 20
129.7925786771
  0
VERTEX
  8
0
 62
9
  6
CONTINUOUS
 10
319.2546492625
 20
129.5771060565
  0
VERTEX
  8
0
 62
9
  6
CONTINUOUS
 10
319.1813856139
 20
129.3503242222
  0
VERTEX
  8
0
 62
9
  6
CONTINUOUS
 10
319.1567622951
 20
129.1178172957
  0
SEQEND
  0
LINE
  8
0
 62
9
  6
CONTINUOUS
 10
333.1567622951
 20
130.6041069466
 11
321.1567622951
 21
130.6041069466
  0
POLYLINE
  8
0
 62
9
  6
CONTINUOUS
 66
1
 70
0
  0
VERTEX
  8
0
 62
9
  6
CONTINUOUS
 10
333.1567622951
 20
130.6041069466
  0
VERTEX
  8
0
 62
9
  6
CONTINUOUS
 10
333.4696311183
 20
130.5858082673
  0
VERTEX
  8
0
 62
9
  6
CONTINUOUS
 10
333.7747961276
 20
130.5313627911
  0
VERTEX
  8
0
 62
9
  6
CONTINUOUS
 10
334.0647431504
 20
130.4421111261
  0
VERTEX
  8
0
 62
9
  6
CONTINUOUS
 10
334.3323327022
 20
130.3202509345
  0
VERTEX
  8
0
 62
9
  6
CONTINUOUS
 10
334.5709758211
 20
130.1687828137
  0
VERTEX
  8
0
 62
9
  6
CONTINUOUS
 10
334.7747962985
 20
129.9914364182
  0
VERTEX
  8
0
 62
9
  6
CONTINUOUS
 10
334.9387753855
 20
129.7925786157
  0
VERTEX
  8
0
 62
9
  6
CONTINUOUS
 10
335.0588753667
 20
129.577105967
  0
VERTEX
  8
0
 62
9
  6
CONTINUOUS
 10
335.1321389906
 20
129.3503241548
  0
VERTEX
  8
0
 62
9
  6
CONTINUOUS
 10
335.1567622951
 20
129.1178172957
  0
SEQEND
  0
POLYLINE
  8
0
 62
9
  6
CONTINUOUS
 66
1
 70
0
  0
VERTEX
  8
0
 62
9
  6
CONTINUOUS
 10
333.1567622951
 20
128.2700830775
  0
VERTEX
  8
0
 62
9
  6
CONTINUOUS
 10
333.5469429391
 20
128.2415244386
  0
VERTEX
  8
0
 62
9
  6
CONTINUOUS
 10
333.9221291598
 20
128.1569460144
  0
VERTEX
  8
0
 62
9
  6
CONTINUOUS
 10
334.2679027611
 20
128.0195981063
  0
VERTEX
  8
0
 62
9
  6
CONTINUOUS
 10
334.5709758575
 20
127.8347589175
  0
VERTEX
  8
0
 62
9
  6
CONTINUOUS
 10
334.8197015197
 20
127.6095317142
  0
VERTEX
  8
0
 62
9
  6
CONTINUOUS
 10
335.0045213601
 20
127.3525718516
  0
VERTEX
  8
0
 62
9
  6
CONTINUOUS
 10
335.1183328559
 20
127.0737541531
  0
VERTEX
  8
0
 62
9
  6
CONTINUOUS
 10
335.1567622951
 20
126.7837934265
  0
SEQEND
  0
POLYLINE
  8
0
 62
9
  6
CONTINUOUS
 66
1
 70
0
  0
VERTEX
  8
0
 62
9
  6
CONTINUOUS
 10
333.1111855541
 20
127.9085328979
  0
VERTEX
  8
0
 62
9
  6
CONTINUOUS
 10
333.4847222201
 20
127.8391164758
  0
VERTEX
  8
0
 62
9
  6
CONTINUOUS
 10
333.8447296011
 20
127.7183823727
  0
VERTEX
  8
0
 62
9
  6
CONTINUOUS
 10
334.1781685962
 20
127.5507034557
  0
VERTEX
  8
0
 62
9
  6
CONTINUOUS
 10
334.472962384
 20
127.3421528851
  0
VERTEX
  8
0
 62
9
  6
CONTINUOUS
 10
334.7184338334
 20
127.1002841507
  0
VERTEX
  8
0
 62
9
  6
CONTINUOUS
 10
334.9056922181
 20
126.8338574923
  0
VERTEX
  8
0
 62
9
  6
CONTINUOUS
 10
335.0279552299
 20
126.5525226123
  0
VERTEX
  8
0
 62
9
  6
CONTINUOUS
 10
335.0807946268
 20
126.2664691739
  0
SEQEND
  0
POLYLINE
  8
0
 62
9
  6
CONTINUOUS
 66
1
 70
0
  0
VERTEX
  8
0
 62
9
  6
CONTINUOUS
 10
332.1450802411
 20
124.1144495532
  0
VERTEX
  8
0
 62
9
  6
CONTINUOUS
 10
332.520281083
 20
124.0412744085
  0
VERTEX
  8
0
 62
9
  6
CONTINUOUS
 10
332.8796874276
 20
123.9235012735
  0
VERTEX
  8
0
 62
9
  6
CONTINUOUS
 10
333.2124125635
 20
123.755677741
  0
VERTEX
  8
0
 62
9
  6
CONTINUOUS
 10
333.5084893093
 20
123.5459852837
  0
VERTEX
  8
0
 62
9
  6
CONTINUOUS
 10
333.7538108714
 20
123.3037501192
  0
VERTEX
  8
0
 62
9
  6
CONTINUOUS
 10
333.9409196998
 20
123.0362751184
  0
VERTEX
  8
0
 62
9
  6
CONTINUOUS
 10
334.0638284956
 20
122.756332049
  0
VERTEX
  8
0
 62
9
  6
CONTINUOUS
 10
334.1146957525
 20
122.4677842109
  0
SEQEND
  0
LINE
  8
1_AXIS
 62
7
  6
CONTINUOUS
 10
308.0067622951
 20
131.7140303186
 11
314.1567622951
 21
131.7140303186
  0
LINE
  8
1_AXIS
 62
7
  6
CONTINUOUS
 10
340.1567622951
 20
131.7140303186
 11
346.3067622951
 21
131.7140303186
  0
POLYLINE
  8
0
 62
7
  6
CONTINUOUS
 66
1
 70
0
  0
VERTEX
  8
0
 62
7
  6
CONTINUOUS
 10
320.5599563496
 20
113.9765729796
  0
VERTEX
  8
0
 62
7
  6
CONTINUOUS
 10
320.7266064283
 20
113.741640684
  0
VERTEX
  8
0
 62
7
  6
CONTINUOUS
 10
320.9743215385
 20
113.489955188
  0
VERTEX
  8
0
 62
7
  6
CONTINUOUS
 10
321.2626931351
 20
113.28561488
  0
VERTEX
  8
0
 62
7
  6
CONTINUOUS
 10
321.5814924059
 20
113.1356061146
  0
VERTEX
  8
0
 62
7
  6
CONTINUOUS
 10
321.9198589091
 20
113.0441891401
  0
VERTEX
  8
0
 62
7
  6
CONTINUOUS
 10
322.2703099982
 20
113.0132456765
  0
SEQEND
  0
LINE
  8
0
 62
9
  6
CONTINUOUS
 10
320.3065319767
 20
114.8096678448
 11
319.2473023917
 21
116.5604878436
  0
LINE
  8
0
 62
7
  6
CONTINUOUS
 10
319.4977171924
 20
115.7371162897
 11
320.558748011
 21
113.9785691206
  0
LINE
  8
0
 62
9
  6
CONTINUOUS
 10
320.4008078111
 20
72.3253062483
 11
320.3065319767
 21
72.6404997472
  0
POLYLINE
  8
0
 62
7
  6
CONTINUOUS
 66
1
 70
0
  0
VERTEX
  8
0
 62
7
  6
CONTINUOUS
 10
320.3161407951
 20
72.5761711352
  0
VERTEX
  8
0
 62
7
  6
CONTINUOUS
 10
320.3824503511
 20
72.3415824059
  0
VERTEX
  8
0
 62
7
  6
CONTINUOUS
 10
320.527299799
 20
72.0210991721
  0
SEQEND
  0
POLYLINE
  8
0
 62
7
  6
CONTINUOUS
 66
1
 70
0
  0
VERTEX
  8
0
 62
7
  6
CONTINUOUS
 10
319.296432574
 20
246.3274748007
  0
VERTEX
  8
0
 62
7
  6
CONTINUOUS
 10
319.2471567204
 20
246.1457962661
  0
VERTEX
  8
0
 62
7
  6
CONTINUOUS
 10
319.1864227758
 20
245.8230777428
  0
SEQEND
  0
LINE
  8
0
 62
7
  6
CONTINUOUS
 10
320.3552142987
 20
249.8236277235
 11
319.2966176289
 21
246.3280876484
  0
LINE
  8
0
 62
9
  6
CONTINUOUS
 10
319.2473023828
 20
246.0534499619
 11
320.3065319767
 21
249.5476892755
  0
POLYLINE
  8
0
 62
7
  6
CONTINUOUS
 66
1
 70
0
  0
VERTEX
  8
0
 62
7
  6
CONTINUOUS
 10
320.3542264197
 20
249.8203427006
  0
VERTEX
  8
0
 62
7
  6
CONTINUOUS
 10
320.3774627492
 20
249.8929410582
  0
VERTEX
  8
0
 62
7
  6
CONTINUOUS
 10
320.5211683303
 20
250.2168811444
  0
SEQEND
  0
LINE
  8
0
 62
9
  6
CONTINUOUS
 10
320.4011108564
 20
249.811462705
 11
320.3065319767
 21
249.5476892755
  0
POLYLINE
  8
0
 62
9
  6
CONTINUOUS
 66
1
 70
0
  0
VERTEX
  8
0
 62
9
  6
CONTINUOUS
 10
333.1567622951
 20
143.2205573906
  0
VERTEX
  8
0
 62
9
  6
CONTINUOUS
 10
333.4696312252
 20
143.2281469388
  0
VERTEX
  8
0
 62
9
  6
CONTINUOUS
 10
333.7747962838
 20
143.2507287035
  0
VERTEX
  8
0
 62
9
  6
CONTINUOUS
 10
334.0647432945
 20
143.2877466466
  0
VERTEX
  8
0
 62
9
  6
CONTINUOUS
 10
334.3323327996
 20
143.3382892636
  0
VERTEX
  8
0
 62
9
  6
CONTINUOUS
 10
334.5709758574
 20
143.4011120274
  0
VERTEX
  8
0
 62
9
  6
CONTINUOUS
 10
334.7747962838
 20
143.4746680333
  0
VERTEX
  8
0
 62
9
  6
CONTINUOUS
 10
334.9387753434
 20
143.5571460881
  0
VERTEX
  8
0
 62
9
  6
CONTINUOUS
 10
335.0588753276
 20
143.6465153084
  0
VERTEX
  8
0
 62
9
  6
CONTINUOUS
 10
335.1321389763
 20
143.7405751275
  0
VERTEX
  8
0
 62
9
  6
CONTINUOUS
 10
335.1567622951
 20
143.8370094804
  0
SEQEND
  0
LINE
  8
0
 62
9
  6
CONTINUOUS
 10
333.1567622951
 20
143.2205573907
 11
321.1567622951
 21
143.2205573907
  0
POLYLINE
  8
0
 62
9
  6
CONTINUOUS
 66
1
 70
0
  0
VERTEX
  8
0
 62
9
  6
CONTINUOUS
 10
321.1567622951
 20
143.2205573977
  0
VERTEX
  8
0
 62
9
  6
CONTINUOUS
 10
320.8438934437
 20
143.2281469376
  0
VERTEX
  8
0
 62
9
  6
CONTINUOUS
 10
320.5387284115
 20
143.2507286929
  0
VERTEX
  8
0
 62
9
  6
CONTINUOUS
 10
320.2487813695
 20
143.2877466345
  0
VERTEX
  8
0
 62
9
  6
CONTINUOUS
 10
319.9811918113
 20
143.3382892589
  0
VERTEX
  8
0
 62
9
  6
CONTINUOUS
 10
319.7425487048
 20
143.4011120361
  0
VERTEX
  8
0
 62
9
  6
CONTINUOUS
 10
319.538728248
 20
143.474668058
  0
VERTEX
  8
0
 62
9
  6
CONTINUOUS
 10
319.3747491851
 20
143.5571461253
  0
VERTEX
  8
0
 62
9
  6
CONTINUOUS
 10
319.2546492195
 20
143.6465153492
  0
VERTEX
  8
0
 62
9
  6
CONTINUOUS
 10
319.1813855995
 20
143.7405751556
  0
VERTEX
  8
0
 62
9
  6
CONTINUOUS
 10
319.1567622951
 20
143.8370094807
  0
SEQEND
  0
POLYLINE
  8
0
 62
9
  6
CONTINUOUS
 66
1
 70
0
  0
VERTEX
  8
0
 62
9
  6
CONTINUOUS
 10
320.5592031934
 20
113.9778169249
  0
VERTEX
  8
0
 62
9
  6
CONTINUOUS
 10
320.4818883808
 20
114.1200382926
  0
VERTEX
  8
0
 62
9
  6
CONTINUOUS
 10
320.3584210366
 20
114.4576935484
  0
VERTEX
  8
0
 62
9
  6
CONTINUOUS
 10
320.3065319767
 20
114.8096678448
  0
SEQEND
  0
POLYLINE
  8
0
 62
9
  6
CONTINUOUS
 66
1
 70
0
  0
VERTEX
  8
0
 62
9
  6
CONTINUOUS
 10
319.4942338148
 20
115.7429268545
  0
VERTEX
  8
0
 62
9
  6
CONTINUOUS
 10
319.4241122362
 20
115.8725229336
  0
VERTEX
  8
0
 62
9
  6
CONTINUOUS
 10
319.3013190289
 20
116.2063635667
  0
VERTEX
  8
0
 62
9
  6
CONTINUOUS
 10
319.2473172216
 20
116.5604629086
  0
SEQEND
  0
LINE
  8
0
 62
9
  6
CONTINUOUS
 10
320.4008078111
 20
114.6346454174
 11
320.3065319767
 21
114.8096678448
  0
LINE
  8
0
 62
7
  6
CONTINUOUS
 10
319.38303061
 20
115.9509549977
 11
319.4942338148
 21
115.7429268545
  0
POLYLINE
  8
0
 62
9
  6
CONTINUOUS
 66
1
 70
0
  0
VERTEX
  8
0
 62
9
  6
CONTINUOUS
 10
319.2473023923
 20
116.5604944761
  0
VERTEX
  8
0
 62
9
  6
CONTINUOUS
 10
319.2077810622
 20
116.657129079
  0
VERTEX
  8
0
 62
9
  6
CONTINUOUS
 10
319.1794687708
 20
116.7546123198
  0
VERTEX
  8
0
 62
9
  6
CONTINUOUS
 10
319.1624446417
 20
116.8526535432
  0
VERTEX
  8
0
 62
9
  6
CONTINUOUS
 10
319.1567622951
 20
116.9509592425
  0
SEQEND
  0
LINE
  8
0
 62
7
  6
CONTINUOUS
 10
319.2426377859
 20
116.3264610984
 11
319.38303061
 21
115.9509549977
  0
LINE
  8
0
 62
9
  6
CONTINUOUS
 10
319.2575630244
 20
77.3910486589
 11
319.2473023917
 21
77.4567014898
  0
LINE
  8
0
 62
7
  6
CONTINUOUS
 10
319.2575630244
 20
77.3910486589
 11
320.3171356423
 21
72.571627997
  0
LINE
  8
0
 62
7
  6
CONTINUOUS
 10
319.232084215
 20
77.5158597906
 11
319.2575509631
 21
77.3911035677
  0
LINE
  8
1_AXIS
 62
7
  6
CONTINUOUS
 10
306.0067622951
 20
204.7140303186
 11
306.0067622951
 21
133.7140303186
  0
POLYLINE
  8
0
 62
9
  6
CONTINUOUS
 66
1
 70
0
  0
VERTEX
  8
0
 62
9
  6
CONTINUOUS
 10
321.2110952628
 20
264.8596158559
  0
VERTEX
  8
0
 62
9
  6
CONTINUOUS
 10
321.1873319808
 20
264.7163096261
  0
VERTEX
  8
0
 62
9
  6
CONTINUOUS
 10
321.1703553922
 20
264.5724320696
  0
VERTEX
  8
0
 62
9
  6
CONTINUOUS
 10
321.1601654969
 20
264.4279831863
  0
VERTEX
  8
0
 62
9
  6
CONTINUOUS
 10
321.1567622951
 20
264.2829629762
  0
SEQEND
  0
POLYLINE
  8
0
 62
7
  6
CONTINUOUS
 66
1
 70
0
  0
VERTEX
  8
0
 62
7
  6
CONTINUOUS
 10
319.2473023923
 20
264.821980717
  0
VERTEX
  8
0
 62
7
  6
CONTINUOUS
 10
319.2077810622
 20
264.5853456265
  0
VERTEX
  8
0
 62
7
  6
CONTINUOUS
 10
319.1794687708
 20
264.3469705656
  0
VERTEX
  8
0
 62
7
  6
CONTINUOUS
 10
319.1624446417
 20
264.1073893452
  0
SEQEND
  0
POLYLINE
  8
0
 62
9
  6
CONTINUOUS
 66
1
 70
0
  0
VERTEX
  8
0
 62
9
  6
CONTINUOUS
 10
319.179468859
 20
245.7217701966
  0
VERTEX
  8
0
 62
9
  6
CONTINUOUS
 10
319.2077811588
 20
245.8882663955
  0
VERTEX
  8
0
 62
9
  6
CONTINUOUS
 10
319.2473023835
 20
246.0534452195
  0
SEQEND
  0
LINE
  8
0
 62
9
  6
CONTINUOUS
 10
320.3542264197
 20
249.8203427006
 11
320.3065319767
 21
249.5476892755
  0
LINE
  8
0
 62
9
  6
CONTINUOUS
 10
319.2964325895
 20
246.327474796
 11
319.247317238
 21
246.0534993202
  0
LINE
  8
0
 62
9
  6
CONTINUOUS
 10
320.3065319767
 20
270.3792394439
 11
319.2473023917
 21
264.8219802527
  0
LINE
  8
0
 62
9
  6
CONTINUOUS
 10
322.2703099982
 20
270.4165087357
 11
321.2110952628
 21
264.8596158559
  0
LINE
  8
1_AXIS
 62
7
  6
CONTINUOUS
 10
319.2473172413
 20
264.98590809
 11
320.3065319767
 21
270.4754444016
  0
POLYLINE
  8
0
 62
9
  6
CONTINUOUS
 66
1
 70
0
  0
VERTEX
  8
0
 62
9
  6
CONTINUOUS
 10
319.2473023923
 20
238.8544936268
  0
VERTEX
  8
0
 62
9
  6
CONTINUOUS
 10
319.2077810622
 20
238.6571269612
  0
VERTEX
  8
0
 62
9
  6
CONTINUOUS
 10
319.1794687708
 20
238.4584115562
  0
VERTEX
  8
0
 62
9
  6
CONTINUOUS
 10
319.1624446417
 20
238.2587387071
  0
VERTEX
  8
0
 62
9
  6
CONTINUOUS
 10
319.1567622951
 20
238.0585019348
  0
SEQEND
  0
LINE
  8
0
 62
9
  6
CONTINUOUS
 10
320.3065319767
 20
243.8744639365
 11
319.2473023917
 21
238.854488176
  0
LINE
  8
0
 62
9
  6
CONTINUOUS
 10
319.2077811588
 20
191.3144592888
 11
319.2473023835
 21
191.3308935612
  0
LINE
  8
0
 62
9
  6
CONTINUOUS
 10
319.2077811588
 20
126.399615848
 11
320.3065319767
 21
122.453183667
  0
LINE
  8
0
 62
9
  6
CONTINUOUS
 10
319.2473023828
 20
81.2871891111
 11
320.3065319767
 21
75.6591598992
  0
LINE
  8
0
 62
9
  6
CONTINUOUS
 10
321.2110952628
 20
81.9133324733
 11
322.2703099982
 21
76.2875827642
  0
LINE
  8
0
 62
9
  6
CONTINUOUS
 10
319.2473023923
 20
77.4567037646
 11
319.2077810622
 21
77.6705047502
  0
LINE
  8
0
 62
9
  6
CONTINUOUS
 10
319.2575509631
 20
77.3911035677
 11
319.2473172216
 21
77.456633712
  0
LINE
  8
0
 62
9
  6
CONTINUOUS
 10
320.3161407951
 20
72.5761711352
 11
320.3065319767
 21
72.6404997472
  0
LINE
  8
0
 62
9
  6
CONTINUOUS
 10
319.2077810622
 20
77.6705047502
 11
319.1794687708
 21
77.8859323426
  0
POLYLINE
  8
0
 62
7
  6
CONTINUOUS
 66
1
 70
0
  0
VERTEX
  8
0
 62
7
  6
CONTINUOUS
 10
319.1599062564
 20
78.1548906645
  0
VERTEX
  8
0
 62
7
  6
CONTINUOUS
 10
319.1840817519
 20
77.8343267356
  0
VERTEX
  8
0
 62
7
  6
CONTINUOUS
 10
319.232084215
 20
77.5158597906
  0
SEQEND
  0
LINE
  8
1_AXIS
 62
9
  6
CONTINUOUS
 10
308.0067622951
 20
131.7140303186
 11
308.0067622951
 21
206.7140303186
  0
LINE
  8
1_AXIS
 62
9
  6
CONTINUOUS
 10
314.1567622951
 20
131.7140303186
 11
314.1567622951
 21
206.7140303186
  0
LINE
  8
0
 62
7
  6
CONTINUOUS
 10
319.1864227758
 20
245.8230777428
 11
319.1587030681
 21
245.4982274595
  0
LINE
  8
0
 62
9
  6
CONTINUOUS
 10
319.1624446751
 20
245.5543831649
 11
319.179468859
 21
245.7217701966
  0
POLYLINE
  8
0
 62
9
  6
CONTINUOUS
 66
1
 70
0
  0
VERTEX
  8
0
 62
9
  6
CONTINUOUS
 10
321.2110952628
 20
237.6400878906
  0
VERTEX
  8
0
 62
9
  6
CONTINUOUS
 10
321.1873319808
 20
237.5107292023
  0
VERTEX
  8
0
 62
9
  6
CONTINUOUS
 10
321.1703553922
 20
237.3808547927
  0
VERTEX
  8
0
 62
9
  6
CONTINUOUS
 10
321.1601654969
 20
237.2504646617
  0
VERTEX
  8
0
 62
9
  6
CONTINUOUS
 10
321.1567622951
 20
237.1195588092
  0
SEQEND
  0
LINE
  8
0
 62
9
  6
CONTINUOUS
 10
322.2703099982
 20
242.6561459869
 11
321.2110952628
 21
237.6400878906
  0
POLYLINE
  8
0
 62
9
  6
CONTINUOUS
 66
1
 70
0
  0
VERTEX
  8
0
 62
9
  6
CONTINUOUS
 10
319.1567622951
 20
191.2639696249
  0
VERTEX
  8
0
 62
9
  6
CONTINUOUS
 10
319.1624446751
 20
191.2808767536
  0
VERTEX
  8
0
 62
9
  6
CONTINUOUS
 10
319.179468859
 20
191.2977471198
  0
VERTEX
  8
0
 62
9
  6
CONTINUOUS
 10
319.2077811588
 20
191.3144592888
  0
SEQEND
  0
LINE
  8
0
 62
7
  6
CONTINUOUS
 10
335.4765575607
 20
222.1698557553
 11
336.6567622951
 21
224.2140303186
  0
LINE
  8
0
 62
9
  6
CONTINUOUS
 10
321.2110952628
 20
127.915805424
 11
322.2703099982
 21
124.1144495761
  0
POLYLINE
  8
0
 62
7
  6
CONTINUOUS
 66
1
 70
0
  0
VERTEX
  8
0
 62
7
  6
CONTINUOUS
 10
319.1567799394
 20
116.9448482799
  0
VERTEX
  8
0
 62
7
  6
CONTINUOUS
 10
319.1687767715
 20
116.7157537436
  0
VERTEX
  8
0
 62
7
  6
CONTINUOUS
 10
319.2426377859
 20
116.3264610984
  0
SEQEND
  0
POLYLINE
  8
0
 62
9
  6
CONTINUOUS
 66
1
 70
0
  0
VERTEX
  8
0
 62
9
  6
CONTINUOUS
 10
319.1567622951
 20
126.8239921187
  0
VERTEX
  8
0
 62
9
  6
CONTINUOUS
 10
319.1624446751
 20
126.6820476496
  0
VERTEX
  8
0
 62
9
  6
CONTINUOUS
 10
319.179468859
 20
126.5405075186
  0
VERTEX
  8
0
 62
9
  6
CONTINUOUS
 10
319.2077811588
 20
126.399615848
  0
SEQEND
  0
POLYLINE
  8
0
 62
9
  6
CONTINUOUS
 66
1
 70
0
  0
VERTEX
  8
0
 62
9
  6
CONTINUOUS
 10
321.1567622951
 20
128.3102817697
  0
VERTEX
  8
0
 62
9
  6
CONTINUOUS
 10
321.1601655346
 20
128.2110761507
  0
VERTEX
  8
0
 62
9
  6
CONTINUOUS
 10
321.1703554424
 20
128.1122615534
  0
VERTEX
  8
0
 62
9
  6
CONTINUOUS
 10
321.1873320185
 20
128.0138379779
  0
VERTEX
  8
0
 62
9
  6
CONTINUOUS
 10
321.2110952628
 20
127.915805424
  0
SEQEND
  0
LINE
  8
0
 62
9
  6
CONTINUOUS
 10
319.1624446417
 20
78.1024755438
 11
319.1567622951
 21
78.319619396
  0
POLYLINE
  8
0
 62
9
  6
CONTINUOUS
 66
1
 70
0
  0
VERTEX
  8
0
 62
9
  6
CONTINUOUS
 10
319.1567622951
 20
82.218784599
  0
VERTEX
  8
0
 62
9
  6
CONTINUOUS
 10
319.1624446751
 20
81.9844059268
  0
VERTEX
  8
0
 62
9
  6
CONTINUOUS
 10
319.179468859
 20
81.7506834988
  0
VERTEX
  8
0
 62
9
  6
CONTINUOUS
 10
319.2077811588
 20
81.5181127672
  0
VERTEX
  8
0
 62
9
  6
CONTINUOUS
 10
319.2473023835
 20
81.2871859619
  0
SEQEND
  0
POLYLINE
  8
0
 62
9
  6
CONTINUOUS
 66
1
 70
0
  0
VERTEX
  8
0
 62
9
  6
CONTINUOUS
 10
321.1567622951
 20
82.497130801
  0
VERTEX
  8
0
 62
9
  6
CONTINUOUS
 10
321.1601655346
 20
82.3503131905
  0
VERTEX
  8
0
 62
9
  6
CONTINUOUS
 10
321.1703554424
 20
82.2040742657
  0
VERTEX
  8
0
 62
9
  6
CONTINUOUS
 10
321.1873320185
 20
82.0584140266
  0
VERTEX
  8
0
 62
9
  6
CONTINUOUS
 10
321.2110952628
 20
81.9133324733
  0
SEQEND
  0
LINE
  8
0
 62
7
  6
CONTINUOUS
 10
319.1567696303
 20
78.3198814653
 11
319.1599062564
 21
78.1548906645
  0
LINE
  8
1_AXIS
 62
7
  6
CONTINUOUS
 10
319.1567622951
 20
264.0362522604
 11
319.1567622951
 21
263.8671395945
  0
LINE
  8
1_AXIS
 62
7
  6
CONTINUOUS
 10
319.1567622951
 20
245.3865354719
 11
319.1567622951
 21
238.0585019348
  0
LINE
  8
1_AXIS
 62
7
  6
CONTINUOUS
 10
319.1567622951
 20
191.2639696249
 11
319.1567622951
 21
180.0367708848
  0
LINE
  8
1_AXIS
 62
7
  6
CONTINUOUS
 10
319.1567622951
 20
82.218784599
 11
319.1567622951
 21
78.319619396
  0
LINE
  8
0
 62
7
  6
CONTINUOUS
 10
319.1567622951
 20
78.319619396
 11
319.1567622951
 21
191.2639696249
  0
LINE
  8
0
 62
7
  6
CONTINUOUS
 10
319.1567622951
 20
191.3308935612
 11
319.1567622951
 21
264.03862288
  0
LINE
  8
0
 62
9
  6
CONTINUOUS
 10
319.2473023828
 20
191.3309012914
 11
319.2473023917
 21
180.3014519003
  0
LINE
  8
0
 62
9
  6
CONTINUOUS
 10
319.2473023828
 20
126.2596228911
 11
319.2473023917
 21
116.5604878436
  0
LINE
  8
0
 62
9
  6
CONTINUOUS
 10
319.2473023917
 20
238.854488176
 11
319.2473023828
 21
246.0534499619
  0
LINE
  8
0
 62
9
  6
CONTINUOUS
 10
319.2473023828
 20
81.2871891111
 11
319.2473023917
 21
77.4567014898
  0
LINE
  8
0
 62
9
  6
CONTINUOUS
 10
320.3065319767
 20
270.4754444016
 11
320.3065319767
 21
270.3792394439
  0
LINE
  8
0
 62
9
  6
CONTINUOUS
 10
320.3065319767
 20
249.5476892755
 11
320.3065319767
 21
243.8744639365
  0
LINE
  8
0
 62
9
  6
CONTINUOUS
 10
320.3065319767
 20
191.127127272
 11
320.3065319767
 21
182.435241781
  0
LINE
  8
0
 62
9
  6
CONTINUOUS
 10
320.3065319767
 20
122.453183667
 11
320.3065319767
 21
114.8096678448
  0
LINE
  8
0
 62
9
  6
CONTINUOUS
 10
320.3065319767
 20
75.6591598992
 11
320.3065319767
 21
72.6404997472
  0
LINE
  8
0
 62
9
  6
CONTINUOUS
 10
321.1567622951
 20
264.2829629762
 11
321.1567622951
 21
250.8998866857
  0
LINE
  8
0
 62
9
  6
CONTINUOUS
 10
321.1567622951
 20
237.1195588092
 11
321.1567622951
 21
193.2627512789
  0
LINE
  8
0
 62
9
  6
CONTINUOUS
 10
321.1567622951
 20
178.1824031757
 11
321.1567622951
 21
128.3102817697
  0
LINE
  8
0
 62
9
  6
CONTINUOUS
 10
321.1567622951
 20
113.3606775448
 11
321.1567622951
 21
82.497130801
  0
LINE
  8
0
 62
9
  6
CONTINUOUS
 10
319.2473172413
 20
264.9859080904
 11
319.2473023917
 21
264.8219802527
  0
LINE
  8
0
 62
7
  6
CONTINUOUS
 10
319.1587030681
 20
245.4982274595
 11
319.1567697659
 21
245.3857227201
  0
LINE
  8
0
 62
7
  6
CONTINUOUS
 10
319.1624446417
 20
264.1073893452
 11
319.1567622951
 21
263.8671395945
  0
LINE
  8
0
 62
9
  6
CONTINUOUS
 10
319.1567622951
 20
245.3865354719
 11
319.1624446751
 21
245.5543831649
  0
LINE
  8
0
 62
9
  6
CONTINUOUS
 10
319.1951918452
 20
191.6539131387
 11
319.1567622951
 21
191.2639696249
  0
LINE
  8
0
 62
9
  6
CONTINUOUS
 10
335.0279614483
 20
238.6563255235
 11
335.0808010673
 21
238.8411712001
  0
POLYLINE
  8
0
 62
9
  6
CONTINUOUS
 66
1
 70
0
  0
VERTEX
  8
0
 62
9
  6
CONTINUOUS
 10
321.2110952628
 20
178.4032471165
  0
VERTEX
  8
0
 62
9
  6
CONTINUOUS
 10
321.1873319808
 20
178.3483643376
  0
VERTEX
  8
0
 62
9
  6
CONTINUOUS
 10
321.1703553922
 20
178.2932627544
  0
VERTEX
  8
0
 62
9
  6
CONTINUOUS
 10
321.1601654969
 20
178.2379423671
  0
VERTEX
  8
0
 62
9
  6
CONTINUOUS
 10
321.1567622951
 20
178.1824031757
  0
SEQEND
  0
LINE
  8
0
 62
9
  6
CONTINUOUS
 10
320.3065319767
 20
182.435241781
 11
319.2473023917
 21
180.3014519003
  0
LINE
  8
0
 62
9
  6
CONTINUOUS
 10
322.2703099982
 20
180.5314010987
 11
321.2110952628
 21
178.4032471165
  0
POLYLINE
  8
0
 62
9
  6
CONTINUOUS
 66
1
 70
0
  0
VERTEX
  8
0
 62
9
  6
CONTINUOUS
 10
319.2473023923
 20
180.3014597871
  0
VERTEX
  8
0
 62
9
  6
CONTINUOUS
 10
319.2077810622
 20
180.2357116027
  0
VERTEX
  8
0
 62
9
  6
CONTINUOUS
 10
319.1794687708
 20
180.1696370002
  0
VERTEX
  8
0
 62
9
  6
CONTINUOUS
 10
319.1624446417
 20
180.1033016676
  0
VERTEX
  8
0
 62
9
  6
CONTINUOUS
 10
319.1567622951
 20
180.0367708848
  0
SEQEND
  0
LINE
  8
0
 62
9
  6
CONTINUOUS
 10
322.2703099982
 20
272.0965303186
 11
322.2703099982
 21
270.4165087357
  0
LINE
  8
0
 62
9
  6
CONTINUOUS
 10
322.2703099982
 20
251.2470855857
 11
322.2703099982
 21
242.6561459869
  0
LINE
  8
0
 62
9
  6
CONTINUOUS
 10
322.2703099982
 20
193.0439114435
 11
322.2703099982
 21
180.5314010987
  0
LINE
  8
0
 62
9
  6
CONTINUOUS
 10
322.2703099982
 20
124.1144495761
 11
322.2703099982
 21
113.0132456765
  0
LINE
  8
0
 62
9
  6
CONTINUOUS
 10
322.2703099982
 20
76.2875827642
 11
322.2703099982
 21
71.0018720538
  0
POLYLINE
  8
0
 62
9
  6
CONTINUOUS
 66
1
 70
0
  0
VERTEX
  8
0
 62
9
  6
CONTINUOUS
 10
333.4696311335
 20
166.201666101
  0
VERTEX
  8
0
 62
9
  6
CONTINUOUS
 10
333.7747961614
 20
166.2042838514
  0
VERTEX
  8
0
 62
9
  6
CONTINUOUS
 10
334.0647432086
 20
166.2085750866
  0
VERTEX
  8
0
 62
9
  6
CONTINUOUS
 10
334.3323327755
 20
166.214434144
  0
VERTEX
  8
0
 62
9
  6
CONTINUOUS
 10
334.57097589
 20
166.2217167554
  0
VERTEX
  8
0
 62
9
  6
CONTINUOUS
 10
334.7747963517
 20
166.230243598
  0
VERTEX
  8
0
 62
9
  6
CONTINUOUS
 10
334.9387754152
 20
166.2398047117
  0
VERTEX
  8
0
 62
9
  6
CONTINUOUS
 10
335.0588753777
 20
166.2501646694
  0
VERTEX
  8
0
 62
9
  6
CONTINUOUS
 10
335.132138993
 20
166.2610683735
  0
VERTEX
  8
0
 62
9
  6
CONTINUOUS
 10
335.1567622951
 20
166.2722473387
  0
SEQEND
  0
LINE
  8
0
 62
9
  6
CONTINUOUS
 10
333.4696311335
 20
166.201666101
 11
321.1567622951
 21
166.2007863007
  0
LINE
  8
1_AXIS
 62
2
  6
CENTER
 10
304.0067622951
 20
169.2140303186
 11
350.3067622951
 21
169.2140303186
  0
POLYLINE
  8
0
 62
9
  6
CONTINUOUS
 66
1
 70
0
  0
VERTEX
  8
0
 62
9
  6
CONTINUOUS
 10
321.1567622951
 20
166.2007863007
  0
VERTEX
  8
0
 62
9
  6
CONTINUOUS
 10
320.8438933651
 20
166.2016661046
  0
VERTEX
  8
0
 62
9
  6
CONTINUOUS
 10
320.5387283064
 20
166.2042838528
  0
VERTEX
  8
0
 62
9
  6
CONTINUOUS
 10
320.2487812957
 20
166.2085750876
  0
VERTEX
  8
0
 62
9
  6
CONTINUOUS
 10
319.9811917906
 20
166.2144341446
  0
VERTEX
  8
0
 62
9
  6
CONTINUOUS
 10
319.7425487328
 20
166.2217167543
  0
VERTEX
  8
0
 62
9
  6
CONTINUOUS
 10
319.5387283064
 20
166.2302435946
  0
VERTEX
  8
0
 62
9
  6
CONTINUOUS
 10
319.3747492468
 20
166.2398047066
  0
VERTEX
  8
0
 62
9
  6
CONTINUOUS
 10
319.2546492625
 20
166.2501646639
  0
VERTEX
  8
0
 62
9
  6
CONTINUOUS
 10
319.1813856139
 20
166.2610683699
  0
VERTEX
  8
0
 62
9
  6
CONTINUOUS
 10
319.1567622951
 20
166.2722473392
  0
SEQEND
  0
POLYLINE
  8
0
 62
9
  6
CONTINUOUS
 66
1
 70
0
  0
VERTEX
  8
0
 62
9
  6
CONTINUOUS
 10
333.1567622951
 20
178.2049080424
  0
VERTEX
  8
0
 62
9
  6
CONTINUOUS
 10
333.1539074947
 20
178.255768961
  0
VERTEX
  8
0
 62
9
  6
CONTINUOUS
 10
333.145359771
 20
178.3064576889
  0
VERTEX
  8
0
 62
9
  6
CONTINUOUS
 10
333.1311191242
 20
178.3569742263
  0
VERTEX
  8
0
 62
9
  6
CONTINUOUS
 10
333.1111855541
 20
178.4073185731
  0
SEQEND
  0
POLYLINE
  8
0
 62
9
  6
CONTINUOUS
 66
1
 70
0
  0
VERTEX
  8
0
 62
9
  6
CONTINUOUS
 10
333.1567622951
 20
237.1726027714
  0
VERTEX
  8
0
 62
9
  6
CONTINUOUS
 10
333.1539074947
 20
237.2924819362
  0
VERTEX
  8
0
 62
9
  6
CONTINUOUS
 10
333.145359771
 20
237.411955248
  0
VERTEX
  8
0
 62
9
  6
CONTINUOUS
 10
333.1311191242
 20
237.5310227067
  0
VERTEX
  8
0
 62
9
  6
CONTINUOUS
 10
333.1111855541
 20
237.6496843122
  0
SEQEND
  0
LINE
  8
0
 62
9
  6
CONTINUOUS
 10
332.1450802465
 20
71.0018720538
 11
332.1450802465
 21
76.2875827642
  0
LINE
  8
0
 62
9
  6
CONTINUOUS
 10
332.1450802465
 20
113.0132456765
 11
332.1450802465
 21
124.1144495761
  0
LINE
  8
0
 62
9
  6
CONTINUOUS
 10
332.1450802465
 20
180.5314010987
 11
332.1450802465
 21
193.0439114435
  0
LINE
  8
0
 62
9
  6
CONTINUOUS
 10
332.1450802465
 20
242.6561459869
 11
332.1450802465
 21
251.2470855857
  0
LINE
  8
0
 62
9
  6
CONTINUOUS
 10
332.1450802465
 20
270.4165087357
 11
332.1450802465
 21
272.0965303186
  0
LINE
  8
0
 62
9
  6
CONTINUOUS
 10
333.1567622951
 20
82.4376394536
 11
333.1567622951
 21
113.2885297305
  0
LINE
  8
0
 62
9
  6
CONTINUOUS
 10
333.1567622951
 20
128.2700830775
 11
333.1567622951
 21
178.2049080424
  0
LINE
  8
0
 62
9
  6
CONTINUOUS
 10
333.1567622951
 20
193.2606546567
 11
333.1567622951
 21
237.1726027714
  0
LINE
  8
0
 62
9
  6
CONTINUOUS
 10
333.1567622951
 20
250.9710516318
 11
333.1567622951
 21
264.3417261742
  0
LINE
  8
0
 62
9
  6
CONTINUOUS
 10
334.1146957525
 20
72.6706537364
 11
334.1146957525
 21
75.6883713461
  0
LINE
  8
0
 62
9
  6
CONTINUOUS
 10
334.1146957525
 20
114.8266549897
 11
334.1146957525
 21
122.4677842109
  0
LINE
  8
0
 62
9
  6
CONTINUOUS
 10
334.1146957525
 20
182.4311136077
 11
334.1146957525
 21
191.1202851561
  0
LINE
  8
0
 62
9
  6
CONTINUOUS
 10
334.1146957525
 20
243.8511520632
 11
334.1146957525
 21
249.522606002
  0
LINE
  8
0
 62
9
  6
CONTINUOUS
 10
334.1146957525
 20
270.3476517552
 11
334.1146957525
 21
270.4438266739
  0
POLYLINE
  8
0
 62
9
  6
CONTINUOUS
 66
1
 70
0
  0
VERTEX
  8
0
 62
9
  6
CONTINUOUS
 10
333.1111855541
 20
178.4073185731
  0
VERTEX
  8
0
 62
9
  6
CONTINUOUS
 10
333.4847231896
 20
178.4646934908
  0
VERTEX
  8
0
 62
9
  6
CONTINUOUS
 10
333.8447316328
 20
178.5871538485
  0
VERTEX
  8
0
 62
9
  6
CONTINUOUS
 10
334.1781717063
 20
178.7702642437
  0
VERTEX
  8
0
 62
9
  6
CONTINUOUS
 10
334.4729665148
 20
179.007392585
  0
VERTEX
  8
0
 62
9
  6
CONTINUOUS
 10
334.7184388591
 20
179.2899503001
  0
VERTEX
  8
0
 62
9
  6
CONTINUOUS
 10
334.9056979548
 20
179.6077034062
  0
VERTEX
  8
0
 62
9
  6
CONTINUOUS
 10
335.0279614483
 20
179.9491431756
  0
VERTEX
  8
0
 62
9
  6
CONTINUOUS
 10
335.0808010673
 20
180.3019029713
  0
SEQEND
  0
POLYLINE
  8
0
 62
9
  6
CONTINUOUS
 66
1
 70
0
  0
VERTEX
  8
0
 62
9
  6
CONTINUOUS
 10
333.1567622951
 20
178.2049080424
  0
VERTEX
  8
0
 62
9
  6
CONTINUOUS
 10
333.54694301
 20
178.2405392127
  0
VERTEX
  8
0
 62
9
  6
CONTINUOUS
 10
333.9221292722
 20
178.3460634253
  0
VERTEX
  8
0
 62
9
  6
CONTINUOUS
 10
334.2679028835
 20
178.5174254308
  0
VERTEX
  8
0
 62
9
  6
CONTINUOUS
 10
334.5709759646
 20
178.7480398727
  0
VERTEX
  8
0
 62
9
  6
CONTINUOUS
 10
334.8197015949
 20
179.0290443592
  0
VERTEX
  8
0
 62
9
  6
CONTINUOUS
 10
335.0045213994
 20
179.3496400425
  0
VERTEX
  8
0
 62
9
  6
CONTINUOUS
 10
335.1183328672
 20
179.6975066125
  0
VERTEX
  8
0
 62
9
  6
CONTINUOUS
 10
335.1567622951
 20
180.0592757516
  0
SEQEND
  0
POLYLINE
  8
0
 62
9
  6
CONTINUOUS
 66
1
 70
0
  0
VERTEX
  8
0
 62
9
  6
CONTINUOUS
 10
333.1567622951
 20
176.898226324
  0
VERTEX
  8
0
 62
9
  6
CONTINUOUS
 10
333.4696312251
 20
176.9210566676
  0
VERTEX
  8
0
 62
9
  6
CONTINUOUS
 10
333.7747962837
 20
176.9889855397
  0
VERTEX
  8
0
 62
9
  6
CONTINUOUS
 10
334.0647432945
 20
177.100340306
  0
VERTEX
  8
0
 62
9
  6
CONTINUOUS
 10
334.3323327996
 20
177.2523790426
  0
VERTEX
  8
0
 62
9
  6
CONTINUOUS
 10
334.5709758574
 20
177.4413580512
  0
VERTEX
  8
0
 62
9
  6
CONTINUOUS
 10
334.7747962838
 20
177.6626240414
  0
VERTEX
  8
0
 62
9
  6
CONTINUOUS
 10
334.9387753434
 20
177.9107287101
  0
VERTEX
  8
0
 62
9
  6
CONTINUOUS
 10
335.0588753277
 20
178.1795628971
  0
VERTEX
  8
0
 62
9
  6
CONTINUOUS
 10
335.1321389763
 20
178.4625070125
  0
VERTEX
  8
0
 62
9
  6
CONTINUOUS
 10
335.1567622951
 20
178.7525940331
  0
SEQEND
  0
LINE
  8
0
 62
9
  6
CONTINUOUS
 10
333.1567622951
 20
176.898226324
 11
321.1567622951
 21
176.898226324
  0
POLYLINE
  8
0
 62
9
  6
CONTINUOUS
 66
1
 70
0
  0
VERTEX
  8
0
 62
9
  6
CONTINUOUS
 10
321.1567622951
 20
176.898226324
  0
VERTEX
  8
0
 62
9
  6
CONTINUOUS
 10
320.8438934568
 20
176.9210566542
  0
VERTEX
  8
0
 62
9
  6
CONTINUOUS
 10
320.5387284406
 20
176.9889854993
  0
VERTEX
  8
0
 62
9
  6
CONTINUOUS
 10
320.2487814195
 20
177.1003402475
  0
VERTEX
  8
0
 62
9
  6
CONTINUOUS
 10
319.9811918743
 20
177.2523789862
  0
VERTEX
  8
0
 62
9
  6
CONTINUOUS
 10
319.742548764
 20
177.4413580222
  0
VERTEX
  8
0
 62
9
  6
CONTINUOUS
 10
319.5387282938
 20
177.6626240574
  0
VERTEX
  8
0
 62
9
  6
CONTINUOUS
 10
319.3747492106
 20
177.9107287759
  0
VERTEX
  8
0
 62
9
  6
CONTINUOUS
 10
319.2546492289
 20
178.179562993
  0
VERTEX
  8
0
 62
9
  6
CONTINUOUS
 10
319.1813856016
 20
178.4625070847
  0
VERTEX
  8
0
 62
9
  6
CONTINUOUS
 10
319.1567622951
 20
178.7525940329
  0
SEQEND
  0
POLYLINE
  8
0
 62
9
  6
CONTINUOUS
 66
1
 70
0
  0
VERTEX
  8
0
 62
9
  6
CONTINUOUS
 10
321.1567622951
 20
178.1824031757
  0
VERTEX
  8
0
 62
9
  6
CONTINUOUS
 10
320.766581651
 20
178.2180343312
  0
VERTEX
  8
0
 62
9
  6
CONTINUOUS
 10
320.3913954304
 20
178.3235585126
  0
VERTEX
  8
0
 62
9
  6
CONTINUOUS
 10
320.045621829
 20
178.4949204846
  0
VERTEX
  8
0
 62
9
  6
CONTINUOUS
 10
319.7425487327
 20
178.7255349029
  0
VERTEX
  8
0
 62
9
  6
CONTINUOUS
 10
319.4938230705
 20
179.0065393845
  0
VERTEX
  8
0
 62
9
  6
CONTINUOUS
 10
319.3090032301
 20
179.327135085
  0
VERTEX
  8
0
 62
9
  6
CONTINUOUS
 10
319.1951917343
 20
179.6750016913
  0
VERTEX
  8
0
 62
9
  6
CONTINUOUS
 10
319.1567622951
 20
180.0367708848
  0
SEQEND
  0
POLYLINE
  8
0
 62
9
  6
CONTINUOUS
 66
1
 70
0
  0
VERTEX
  8
0
 62
9
  6
CONTINUOUS
 10
321.2110952628
 20
178.4032471165
  0
VERTEX
  8
0
 62
9
  6
CONTINUOUS
 10
320.8396020121
 20
178.4625386278
  0
VERTEX
  8
0
 62
9
  6
CONTINUOUS
 10
320.4814901931
 20
178.5864899687
  0
VERTEX
  8
0
 62
9
  6
CONTINUOUS
 10
320.1496592298
 20
178.77063633
  0
VERTEX
  8
0
 62
9
  6
CONTINUOUS
 10
319.8560618925
 20
179.0083446382
  0
VERTEX
  8
0
 62
9
  6
CONTINUOUS
 10
319.6112737512
 20
179.2910524831
  0
VERTEX
  8
0
 62
9
  6
CONTINUOUS
 10
319.4241122362
 20
179.6085765417
  0
VERTEX
  8
0
 62
9
  6
CONTINUOUS
 10
319.3013190289
 20
179.9494793876
  0
VERTEX
  8
0
 62
9
  6
CONTINUOUS
 10
319.2473172216
 20
180.3014814755
  0
SEQEND
  0
POLYLINE
  8
0
 62
9
  6
CONTINUOUS
 66
1
 70
0
  0
VERTEX
  8
0
 62
9
  6
CONTINUOUS
 10
321.1567622951
 20
193.2627512789
  0
VERTEX
  8
0
 62
9
  6
CONTINUOUS
 10
321.1601655346
 20
193.2575770631
  0
VERTEX
  8
0
 62
9
  6
CONTINUOUS
 10
321.1703554424
 20
193.2524232416
  0
VERTEX
  8
0
 62
9
  6
CONTINUOUS
 10
321.1873320185
 20
193.2472898144
  0
VERTEX
  8
0
 62
9
  6
CONTINUOUS
 10
321.2110952628
 20
193.2421767815
  0
SEQEND
  0
POLYLINE
  8
0
 62
9
  6
CONTINUOUS
 66
1
 70
0
  0
VERTEX
  8
0
 62
9
  6
CONTINUOUS
 10
335.1567621984
 20
180.0595493478
  0
VERTEX
  8
0
 62
9
  6
CONTINUOUS
 10
335.1520107274
 20
180.1201182963
  0
VERTEX
  8
0
 62
9
  6
CONTINUOUS
 10
335.1377981095
 20
180.1807329478
  0
VERTEX
  8
0
 62
9
  6
CONTINUOUS
 10
335.1140726654
 20
180.2413445117
  0
VERTEX
  8
0
 62
9
  6
CONTINUOUS
 10
335.0808010653
 20
180.301902963
  0
SEQEND
  0
POLYLINE
  8
0
 62
9
  6
CONTINUOUS
 66
1
 70
0
  0
VERTEX
  8
0
 62
9
  6
CONTINUOUS
 10
335.1567621984
 20
238.1123715279
  0
VERTEX
  8
0
 62
9
  6
CONTINUOUS
 10
335.1520107274
 20
238.2946561179
  0
VERTEX
  8
0
 62
9
  6
CONTINUOUS
 10
335.1377981095
 20
238.4770870717
  0
VERTEX
  8
0
 62
9
  6
CONTINUOUS
 10
335.1140726654
 20
238.6593612358
  0
VERTEX
  8
0
 62
9
  6
CONTINUOUS
 10
335.0808010653
 20
238.8411711747
  0
SEQEND
  0
POLYLINE
  8
0
 62
7
  6
CONTINUOUS
 66
1
 70
0
  0
VERTEX
  8
0
 62
7
  6
CONTINUOUS
 10
335.1567621984
 20
263.9268941364
  0
VERTEX
  8
0
 62
7
  6
CONTINUOUS
 10
335.1520107274
 20
264.1456013823
  0
VERTEX
  8
0
 62
7
  6
CONTINUOUS
 10
335.1377981095
 20
264.3644871678
  0
SEQEND
  0
POLYLINE
  8
0
 62
9
  6
CONTINUOUS
 66
1
 70
0
  0
VERTEX
  8
0
 62
9
  6
CONTINUOUS
 10
333.1567622951
 20
264.3417261742
  0
VERTEX
  8
0
 62
9
  6
CONTINUOUS
 10
333.1539074947
 20
264.4745307919
  0
VERTEX
  8
0
 62
9
  6
CONTINUOUS
 10
333.145359771
 20
264.6068857971
  0
VERTEX
  8
0
 62
9
  6
CONTINUOUS
 10
333.1311191242
 20
264.7387911899
  0
VERTEX
  8
0
 62
9
  6
CONTINUOUS
 10
333.1111855541
 20
264.8702469701
  0
SEQEND
  0
POLYLINE
  8
0
 62
7
  6
CONTINUOUS
 66
1
 70
0
  0
VERTEX
  8
0
 62
7
  6
CONTINUOUS
 10
335.1567628652
 20
245.4227817601
  0
VERTEX
  8
0
 62
7
  6
CONTINUOUS
 10
335.1540812895
 20
245.555040246
  0
VERTEX
  8
0
 62
7
  6
CONTINUOUS
 10
335.126164
 20
245.8668773216
  0
VERTEX
  8
0
 62
7
  6
CONTINUOUS
 10
335.0678899724
 20
246.1763870508
  0
SEQEND
  0
LINE
  8
0
 62
9
  6
CONTINUOUS
 10
335.0808010653
 20
116.5744959104
 11
335.0808010654
 21
126.2664686855
  0
LINE
  8
0
 62
9
  6
CONTINUOUS
 10
335.0808010653
 20
180.30190296
 11
335.0808010654
 21
191.3232077494
  0
LINE
  8
0
 62
9
  6
CONTINUOUS
 10
335.0808010653
 20
238.8411711727
 11
335.0808010654
 21
246.0348169773
  0
LINE
  8
0
 62
9
  6
CONTINUOUS
 10
335.0808010653
 20
77.4777120337
 11
335.0808010654
 21
81.3053710188
  0
LINE
  8
0
 62
9
  6
CONTINUOUS
 10
335.0808010653
 20
264.8011263602
 11
335.0808010601
 21
264.9647712069
  0
LINE
  8
1_AXIS
 62
7
  6
CONTINUOUS
 10
335.1567622951
 20
264.0940738872
 11
335.1567622951
 21
263.9259125188
  0
LINE
  8
0
 62
7
  6
CONTINUOUS
 10
335.1567622951
 20
78.2678095929
 11
335.1567622951
 21
264.0965303157
  0
LINE
  8
0
 62
7
  6
CONTINUOUS
 10
335.4767622951
 20
228.823158863
 11
335.4767622951
 21
228.0258773385
  0
LINE
  8
0
 62
7
  6
CONTINUOUS
 10
335.4767622951
 20
228.0052965347
 11
335.4767622951
 21
227.3594995956
  0
LINE
  8
0
 62
7
  6
CONTINUOUS
 10
335.4767622951
 20
227.3317995922
 11
335.4767622951
 21
221.1960337956
  0
LINE
  8
0
 62
7
  6
CONTINUOUS
 10
335.4767622951
 20
220.3809095887
 11
335.4767622951
 21
205.8964743971
  0
LINE
  8
1_AXIS
 62
9
  6
CONTINUOUS
 10
340.1567622951
 20
131.7140303186
 11
340.1567622951
 21
206.7140303186
  0
LINE
  8
0
 62
7
  6
CONTINUOUS
 10
335.15566798
 20
78.171316623
 11
335.1567626511
 21
78.2667788844
  0
POLYLINE
  8
0
 62
9
  6
CONTINUOUS
 66
1
 70
0
  0
VERTEX
  8
0
 62
9
  6
CONTINUOUS
 10
335.1567619262
 20
78.2669218409
  0
VERTEX
  8
0
 62
9
  6
CONTINUOUS
 10
335.1520107274
 20
78.0701038604
  0
VERTEX
  8
0
 62
9
  6
CONTINUOUS
 10
335.1377981095
 20
77.8722693226
  0
VERTEX
  8
0
 62
9
  6
CONTINUOUS
 10
335.1140726654
 20
77.6746708407
  0
VERTEX
  8
0
 62
9
  6
CONTINUOUS
 10
335.0808010653
 20
77.4777120345
  0
SEQEND
  0
LINE
  8
0
 62
7
  6
CONTINUOUS
 10
335.1481310009
 20
116.732910348
 11
335.156756739
 21
116.9276252086
  0
POLYLINE
  8
0
 62
9
  6
CONTINUOUS
 66
1
 70
0
  0
VERTEX
  8
0
 62
9
  6
CONTINUOUS
 10
335.1567621984
 20
116.9319882794
  0
VERTEX
  8
0
 62
9
  6
CONTINUOUS
 10
335.1520107274
 20
116.8425007023
  0
VERTEX
  8
0
 62
9
  6
CONTINUOUS
 10
335.1377981095
 20
116.7529367823
  0
VERTEX
  8
0
 62
9
  6
CONTINUOUS
 10
335.1140726654
 20
116.6635249217
  0
VERTEX
  8
0
 62
9
  6
CONTINUOUS
 10
335.0808010653
 20
116.5744959129
  0
SEQEND
  0
POLYLINE
  8
0
 62
9
  6
CONTINUOUS
 66
1
 70
0
  0
VERTEX
  8
0
 62
9
  6
CONTINUOUS
 10
332.1450802431
 20
180.5314011074
  0
VERTEX
  8
0
 62
9
  6
CONTINUOUS
 10
332.5203027459
 20
180.5911360175
  0
VERTEX
  8
0
 62
9
  6
CONTINUOUS
 10
332.8797239857
 20
180.7119374188
  0
VERTEX
  8
0
 62
9
  6
CONTINUOUS
 10
333.2124550816
 20
180.8950730799
  0
VERTEX
  8
0
 62
9
  6
CONTINUOUS
 10
333.508528916
 20
181.1335635122
  0
VERTEX
  8
0
 62
9
  6
CONTINUOUS
 10
333.7538399672
 20
181.416627151
  0
VERTEX
  8
0
 62
9
  6
CONTINUOUS
 10
333.9409355578
 20
181.7355236304
  0
VERTEX
  8
0
 62
9
  6
CONTINUOUS
 10
334.0638334832
 20
182.0773984717
  0
VERTEX
  8
0
 62
9
  6
CONTINUOUS
 10
334.1146957525
 20
182.4311136077
  0
SEQEND
  0
POLYLINE
  8
0
 62
9
  6
CONTINUOUS
 66
1
 70
0
  0
VERTEX
  8
0
 62
9
  6
CONTINUOUS
 10
322.2703099936
 20
182.6468990267
  0
VERTEX
  8
0
 62
9
  6
CONTINUOUS
 10
321.9263763818
 20
182.6412038303
  0
VERTEX
  8
0
 62
9
  6
CONTINUOUS
 10
321.5984853036
 20
182.6317256701
  0
VERTEX
  8
0
 62
9
  6
CONTINUOUS
 10
321.2859841529
 20
182.612210107
  0
VERTEX
  8
0
 62
9
  6
CONTINUOUS
 10
320.9997307438
 20
182.5874329382
  0
VERTEX
  8
0
 62
9
  6
CONTINUOUS
 10
320.7534164507
 20
182.5559008248
  0
VERTEX
  8
0
 62
9
  6
CONTINUOUS
 10
320.5514567847
 20
182.5192740577
  0
VERTEX
  8
0
 62
9
  6
CONTINUOUS
 10
320.4008078111
 20
182.4822853641
  0
VERTEX
  8
0
 62
9
  6
CONTINUOUS
 10
320.3065319767
 20
182.435241781
  0
SEQEND
  0
LINE
  8
0
 62
9
  6
CONTINUOUS
 10
332.1450802465
 20
180.5314010987
 11
322.2703099982
 21
180.5314010987
  0
LINE
  8
0
 62
9
  6
CONTINUOUS
 10
322.2703099982
 20
182.6468991028
 11
332.1450802465
 21
182.6468991028
  0
POLYLINE
  8
0
 62
9
  6
CONTINUOUS
 66
1
 70
0
  0
VERTEX
  8
0
 62
9
  6
CONTINUOUS
 10
332.1450802465
 20
182.6468991014
  0
VERTEX
  8
0
 62
9
  6
CONTINUOUS
 10
332.4890064518
 20
182.6430091464
  0
VERTEX
  8
0
 62
9
  6
CONTINUOUS
 10
332.8242696095
 20
182.631380619
  0
VERTEX
  8
0
 62
9
  6
CONTINUOUS
 10
333.1409300273
 20
182.6122262637
  0
VERTEX
  8
0
 62
9
  6
CONTINUOUS
 10
333.4279063926
 20
182.5861068519
  0
VERTEX
  8
0
 62
9
  6
CONTINUOUS
 10
333.6753230126
 20
182.5539069668
  0
VERTEX
  8
0
 62
9
  6
CONTINUOUS
 10
333.8760856786
 20
182.5165700774
  0
VERTEX
  8
0
 62
9
  6
CONTINUOUS
 10
334.0240826786
 20
182.4752178326
  0
VERTEX
  8
0
 62
9
  6
CONTINUOUS
 10
334.1146957525
 20
182.4311136076
  0
SEQEND
  0
POLYLINE
  8
0
 62
9
  6
CONTINUOUS
 66
1
 70
0
  0
VERTEX
  8
0
 62
9
  6
CONTINUOUS
 10
322.2703100016
 20
180.5314011067
  0
VERTEX
  8
0
 62
9
  6
CONTINUOUS
 10
321.8974245269
 20
180.5930535841
  0
VERTEX
  8
0
 62
9
  6
CONTINUOUS
 10
321.5395552989
 20
180.7153973919
  0
VERTEX
  8
0
 62
9
  6
CONTINUOUS
 10
321.2083420544
 20
180.899629254
  0
VERTEX
  8
0
 62
9
  6
CONTINUOUS
 10
320.913512323
 20
181.1387454973
  0
VERTEX
  8
0
 62
9
  6
CONTINUOUS
 10
320.6688561937
 20
181.4220523169
  0
VERTEX
  8
0
 62
9
  6
CONTINUOUS
 10
320.4818883808
 20
181.7407827836
  0
VERTEX
  8
0
 62
9
  6
CONTINUOUS
 10
320.3584210366
 20
182.0822234144
  0
VERTEX
  8
0
 62
9
  6
CONTINUOUS
 10
320.3065319767
 20
182.435241781
  0
SEQEND
  0
LINE
  8
0
 62
9
  6
CONTINUOUS
 10
333.1111855541
 20
178.4073185731
 11
332.1450802465
 21
180.5314010987
  0
LINE
  8
0
 62
9
  6
CONTINUOUS
 10
335.0808010653
 20
180.30190296
 11
334.1146957525
 21
182.4311136077
  0
LINE
  8
0
 62
9
  6
CONTINUOUS
 10
335.1520107382
 20
191.2773309589
 11
335.1567621984
 21
191.2619436858
  0
LINE
  8
0
 62
9
  6
CONTINUOUS
 10
319.3013190289
 20
238.6693592779
 11
319.2473172216
 21
238.8545584228
  0
POLYLINE
  8
0
 62
7
  6
CONTINUOUS
 66
1
 70
0
  0
VERTEX
  8
0
 62
7
  6
CONTINUOUS
 10
335.1377981095
 20
264.3644871678
  0
VERTEX
  8
0
 62
7
  6
CONTINUOUS
 10
335.1140726654
 20
264.5831358248
  0
VERTEX
  8
0
 62
7
  6
CONTINUOUS
 10
335.0808010653
 20
264.8011263604
  0
SEQEND
  0
LINE
  8
1_AXIS
 62
9
  6
CONTINUOUS
 10
346.3067622951
 20
131.7140303186
 11
346.3067622951
 21
206.7140303186
  0
LINE
  8
1_AXIS
 62
7
  6
CONTINUOUS
 10
348.3067622951
 20
133.7140303186
 11
348.3067622951
 21
204.7140303186
  0
POLYLINE
  8
0
 62
7
  6
CONTINUOUS
 66
1
 70
0
  0
VERTEX
  8
0
 62
7
  6
CONTINUOUS
 10
335.0978091929
 20
77.557039528
  0
VERTEX
  8
0
 62
7
  6
CONTINUOUS
 10
335.1377107342
 20
77.8632415985
  0
VERTEX
  8
0
 62
7
  6
CONTINUOUS
 10
335.15566798
 20
78.171316623
  0
SEQEND
  0
LINE
  8
0
 62
9
  6
CONTINUOUS
 10
334.1066148968
 20
72.6115126405
 11
334.1146957525
 21
72.6706537364
  0
LINE
  8
0
 62
9
  6
CONTINUOUS
 10
335.0721654988
 20
77.4173094542
 11
335.0808010673
 21
77.4777120069
  0
POLYLINE
  8
0
 62
9
  6
CONTINUOUS
 66
1
 70
0
  0
VERTEX
  8
0
 62
9
  6
CONTINUOUS
 10
333.1111855541
 20
81.9025696263
  0
VERTEX
  8
0
 62
9
  6
CONTINUOUS
 10
333.1311191336
 20
82.0356544231
  0
VERTEX
  8
0
 62
9
  6
CONTINUOUS
 10
333.1453597836
 20
82.1691943266
  0
VERTEX
  8
0
 62
9
  6
CONTINUOUS
 10
333.1539075041
 20
82.3031893367
  0
VERTEX
  8
0
 62
9
  6
CONTINUOUS
 10
333.1567622951
 20
82.4376394536
  0
SEQEND
  0
LINE
  8
0
 62
9
  6
CONTINUOUS
 10
332.1450802465
 20
76.2875827642
 11
333.1111855541
 21
81.9025696263
  0
POLYLINE
  8
0
 62
9
  6
CONTINUOUS
 66
1
 70
0
  0
VERTEX
  8
0
 62
9
  6
CONTINUOUS
 10
333.1111855541
 20
127.9085328979
  0
VERTEX
  8
0
 62
9
  6
CONTINUOUS
 10
333.1311191336
 20
127.998459165
  0
VERTEX
  8
0
 62
9
  6
CONTINUOUS
 10
333.1453597836
 20
128.0886929506
  0
VERTEX
  8
0
 62
9
  6
CONTINUOUS
 10
333.1539075041
 20
128.1792342547
  0
VERTEX
  8
0
 62
9
  6
CONTINUOUS
 10
333.1567622951
 20
128.2700830775
  0
SEQEND
  0
LINE
  8
0
 62
9
  6
CONTINUOUS
 10
332.1450802465
 20
124.1144495761
 11
333.1111855541
 21
127.9085328979
  0
POLYLINE
  8
0
 62
9
  6
CONTINUOUS
 66
1
 70
0
  0
VERTEX
  8
0
 62
9
  6
CONTINUOUS
 10
334.1146957525
 20
122.4677842109
  0
VERTEX
  8
0
 62
9
  6
CONTINUOUS
 10
335.114072688
 20
126.3954303109
  0
VERTEX
  8
0
 62
9
  6
CONTINUOUS
 10
335.1377981317
 20
126.5246671562
  0
VERTEX
  8
0
 62
9
  6
CONTINUOUS
 10
335.1520107382
 20
126.6539890174
  0
VERTEX
  8
0
 62
9
  6
CONTINUOUS
 10
335.1567621984
 20
126.7832086287
  0
SEQEND
  0
POLYLINE
  8
0
 62
9
  6
CONTINUOUS
 66
1
 70
0
  0
VERTEX
  8
0
 62
9
  6
CONTINUOUS
 10
333.1111855541
 20
193.2417974722
  0
VERTEX
  8
0
 62
9
  6
CONTINUOUS
 10
333.1311191336
 20
193.2464877097
  0
VERTEX
  8
0
 62
9
  6
CONTINUOUS
 10
333.1453597836
 20
193.2511939863
  0
VERTEX
  8
0
 62
9
  6
CONTINUOUS
 10
333.1539075041
 20
193.2559163019
  0
VERTEX
  8
0
 62
9
  6
CONTINUOUS
 10
333.1567622951
 20
193.2606546567
  0
SEQEND
  0
LINE
  8
0
 62
9
  6
CONTINUOUS
 10
334.1146957525
 20
191.1202851561
 11
335.0808010654
 21
191.3232077494
  0
LINE
  8
0
 62
9
  6
CONTINUOUS
 10
332.1450802465
 20
193.0439114435
 11
333.1111855541
 21
193.2417974722
  0
POLYLINE
  8
0
 62
9
  6
CONTINUOUS
 66
1
 70
0
  0
VERTEX
  8
0
 62
9
  6
CONTINUOUS
 10
322.2703099981
 20
191.4779323026
  0
VERTEX
  8
0
 62
9
  6
CONTINUOUS
 10
321.9302022721
 20
191.4716284304
  0
VERTEX
  8
0
 62
9
  6
CONTINUOUS
 10
321.5984799025
 20
191.4527831329
  0
VERTEX
  8
0
 62
9
  6
CONTINUOUS
 10
321.2847501738
 20
191.4217346156
  0
VERTEX
  8
0
 62
9
  6
CONTINUOUS
 10
320.9997288125
 20
191.3793715575
  0
VERTEX
  8
0
 62
9
  6
CONTINUOUS
 10
320.7529939092
 20
191.3270958802
  0
VERTEX
  8
0
 62
9
  6
CONTINUOUS
 10
320.5514578916
 20
191.2664044295
  0
VERTEX
  8
0
 62
9
  6
CONTINUOUS
 10
320.4011108918
 20
191.1990783624
  0
VERTEX
  8
0
 62
9
  6
CONTINUOUS
 10
320.3065319763
 20
191.1271272718
  0
SEQEND
  0
LINE
  8
0
 62
9
  6
CONTINUOUS
 10
322.2703099982
 20
191.4779322967
 11
332.1450802465
 21
191.4779322967
  0
POLYLINE
  8
0
 62
9
  6
CONTINUOUS
 66
1
 70
0
  0
VERTEX
  8
0
 62
9
  6
CONTINUOUS
 10
332.1450802514
 20
191.4779323461
  0
VERTEX
  8
0
 62
9
  6
CONTINUOUS
 10
332.4929268166
 20
191.4731877202
  0
VERTEX
  8
0
 62
9
  6
CONTINUOUS
 10
332.82426357
 20
191.4522121272
  0
VERTEX
  8
0
 62
9
  6
CONTINUOUS
 10
333.1396522515
 20
191.4215123219
  0
VERTEX
  8
0
 62
9
  6
CONTINUOUS
 10
333.4279041093
 20
191.3771744329
  0
VERTEX
  8
0
 62
9
  6
CONTINUOUS
 10
333.6748986608
 20
191.3239606361
  0
VERTEX
  8
0
 62
9
  6
CONTINUOUS
 10
333.8760867998
 20
191.2619219772
  0
VERTEX
  8
0
 62
9
  6
CONTINUOUS
 10
334.0243918576
 20
191.1893945669
  0
VERTEX
  8
0
 62
9
  6
CONTINUOUS
 10
334.1146957525
 20
191.1202851561
  0
SEQEND
  0
LINE
  8
0
 62
9
  6
CONTINUOUS
 10
321.2110952628
 20
193.2421767815
 11
322.2703099982
 21
193.0439114435
  0
LINE
  8
0
 62
9
  6
CONTINUOUS
 10
319.2473023828
 20
191.3309012914
 11
320.3065319767
 21
191.127127272
  0
POLYLINE
  8
0
 62
9
  6
CONTINUOUS
 66
1
 70
0
  0
VERTEX
  8
0
 62
9
  6
CONTINUOUS
 10
335.0808010654
 20
191.3232077464
  0
VERTEX
  8
0
 62
9
  6
CONTINUOUS
 10
335.114072688
 20
191.3080588666
  0
VERTEX
  8
0
 62
9
  6
CONTINUOUS
 10
335.1377981317
 20
191.2927345424
  0
VERTEX
  8
0
 62
9
  6
CONTINUOUS
 10
335.1520107382
 20
191.2773309589
  0
SEQEND
  0
LINE
  8
0
 62
9
  6
CONTINUOUS
 10
333.1111855541
 20
237.6496843122
 11
332.1450802465
 21
242.6561459869
  0
LINE
  8
0
 62
9
  6
CONTINUOUS
 10
335.0808010653
 20
238.8411711727
 11
334.1146957525
 21
243.8511520632
  0
LINE
  8
0
 62
9
  6
CONTINUOUS
 10
335.0390919399
 20
246.2883010388
 11
335.0807946268
 21
246.0348160862
  0
LINE
  8
0
 62
9
  6
CONTINUOUS
 10
334.0744716369
 20
249.7738197331
 11
334.1146957525
 21
249.522606002
  0
POLYLINE
  8
0
 62
9
  6
CONTINUOUS
 66
1
 70
0
  0
VERTEX
  8
0
 62
9
  6
CONTINUOUS
 10
335.0808010654
 20
81.3053710175
  0
VERTEX
  8
0
 62
9
  6
CONTINUOUS
 10
335.114072688
 20
81.5181005746
  0
VERTEX
  8
0
 62
9
  6
CONTINUOUS
 10
335.1377981317
 20
81.7314272331
  0
VERTEX
  8
0
 62
9
  6
CONTINUOUS
 10
335.1520107382
 20
81.9449634029
  0
VERTEX
  8
0
 62
9
  6
CONTINUOUS
 10
335.1567621984
 20
82.1583266064
  0
SEQEND
  0
LINE
  8
0
 62
9
  6
CONTINUOUS
 10
334.1146957525
 20
75.6883713461
 11
335.0808010654
 21
81.3053710188
  0
LINE
  8
0
 62
7
  6
CONTINUOUS
 10
335.072159124
 20
77.4173107441
 11
335.0978091929
 21
77.557039528
  0
LINE
  8
0
 62
9
  6
CONTINUOUS
 10
335.0808010653
 20
77.4777120337
 11
335.0688081485
 21
77.4179379654
  0
LINE
  8
0
 62
7
  6
CONTINUOUS
 10
334.1063954655
 20
72.6104106386
 11
335.0721568078
 21
77.417266099
  0
POLYLINE
  8
0
 62
7
  6
CONTINUOUS
 66
1
 70
0
  0
VERTEX
  8
0
 62
7
  6
CONTINUOUS
 10
334.9627610636
 20
116.0035424905
  0
VERTEX
  8
0
 62
7
  6
CONTINUOUS
 10
335.085458384
 20
116.3625448503
  0
VERTEX
  8
0
 62
7
  6
CONTINUOUS
 10
335.1481310009
 20
116.732910348
  0
SEQEND
  0
POLYLINE
  8
0
 62
9
  6
CONTINUOUS
 66
1
 70
0
  0
VERTEX
  8
0
 62
9
  6
CONTINUOUS
 10
322.2703100035
 20
193.0439114424
  0
VERTEX
  8
0
 62
9
  6
CONTINUOUS
 10
321.8974057702
 20
193.0048628441
  0
VERTEX
  8
0
 62
9
  6
CONTINUOUS
 10
321.5395235743
 20
192.8959288869
  0
VERTEX
  8
0
 62
9
  6
CONTINUOUS
 10
321.2083051469
 20
192.7202379096
  0
VERTEX
  8
0
 62
9
  6
CONTINUOUS
 10
320.9134779475
 20
192.4827313707
  0
VERTEX
  8
0
 62
9
  6
CONTINUOUS
 10
320.6688309069
 20
192.1941257218
  0
VERTEX
  8
0
 62
9
  6
CONTINUOUS
 10
320.4818745639
 20
191.8635545424
  0
VERTEX
  8
0
 62
9
  6
CONTINUOUS
 10
320.3584166664
 20
191.5022273075
  0
VERTEX
  8
0
 62
9
  6
CONTINUOUS
 10
320.3065319767
 20
191.1271272721
  0
SEQEND
  0
POLYLINE
  8
0
 62
9
  6
CONTINUOUS
 66
1
 70
0
  0
VERTEX
  8
0
 62
9
  6
CONTINUOUS
 10
321.2110952628
 20
193.2421767815
  0
VERTEX
  8
0
 62
9
  6
CONTINUOUS
 10
320.8396020147
 20
193.2037657252
  0
VERTEX
  8
0
 62
9
  6
CONTINUOUS
 10
320.4814901984
 20
193.0947408264
  0
VERTEX
  8
0
 62
9
  6
CONTINUOUS
 10
320.1496592379
 20
192.9190292339
  0
VERTEX
  8
0
 62
9
  6
CONTINUOUS
 10
319.8560619032
 20
192.6829601952
  0
VERTEX
  8
0
 62
9
  6
CONTINUOUS
 10
319.6112737641
 20
192.3950370729
  0
VERTEX
  8
0
 62
9
  6
CONTINUOUS
 10
319.4241122509
 20
192.0656310479
  0
VERTEX
  8
0
 62
9
  6
CONTINUOUS
 10
319.3013190447
 20
191.7066075425
  0
VERTEX
  8
0
 62
9
  6
CONTINUOUS
 10
319.247317238
 20
191.3308988202
  0
SEQEND
  0
POLYLINE
  8
0
 62
9
  6
CONTINUOUS
 66
1
 70
0
  0
VERTEX
  8
0
 62
9
  6
CONTINUOUS
 10
321.1567622951
 20
193.2627512789
  0
VERTEX
  8
0
 62
9
  6
CONTINUOUS
 10
320.7665823736
 20
193.2243453935
  0
VERTEX
  8
0
 62
9
  6
CONTINUOUS
 10
320.3913965715
 20
193.1106035573
  0
VERTEX
  8
0
 62
9
  6
CONTINUOUS
 10
320.045623064
 20
192.9258966564
  0
VERTEX
  8
0
 62
9
  6
CONTINUOUS
 10
319.7425498058
 20
192.6773227588
  0
VERTEX
  8
0
 62
9
  6
CONTINUOUS
 10
319.4938238178
 20
192.3744343318
  0
VERTEX
  8
0
 62
9
  6
CONTINUOUS
 10
319.309003617
 20
192.0288711822
  0
VERTEX
  8
0
 62
9
  6
CONTINUOUS
 10
319.1951918452
 20
191.6539131387
  0
SEQEND
  0
POLYLINE
  8
0
 62
9
  6
CONTINUOUS
 66
1
 70
0
  0
VERTEX
  8
0
 62
9
  6
CONTINUOUS
 10
321.1567622951
 20
193.3823891246
  0
VERTEX
  8
0
 62
9
  6
CONTINUOUS
 10
320.8438933651
 20
193.3577808057
  0
VERTEX
  8
0
 62
9
  6
CONTINUOUS
 10
320.5387283064
 20
193.2845617873
  0
VERTEX
  8
0
 62
9
  6
CONTINUOUS
 10
320.2487812957
 20
193.1645349648
  0
VERTEX
  8
0
 62
9
  6
CONTINUOUS
 10
319.9811917905
 20
193.0006557968
  0
VERTEX
  8
0
 62
9
  6
CONTINUOUS
 10
319.7425487327
 20
192.7969595323
  0
VERTEX
  8
0
 62
9
  6
CONTINUOUS
 10
319.5387283063
 20
192.5584618494
  0
VERTEX
  8
0
 62
9
  6
CONTINUOUS
 10
319.3747492467
 20
192.2910353526
  0
VERTEX
  8
0
 62
9
  6
CONTINUOUS
 10
319.2546492625
 20
192.0012649698
  0
VERTEX
  8
0
 62
9
  6
CONTINUOUS
 10
319.1813856139
 20
191.6962858094
  0
VERTEX
  8
0
 62
9
  6
CONTINUOUS
 10
319.1567622951
 20
191.3836074706
  0
SEQEND
  0
LINE
  8
0
 62
9
  6
CONTINUOUS
 10
332.1450802465
 20
193.0439114435
 11
322.2703099982
 21
193.0439114435
  0
LINE
  8
0
 62
9
  6
CONTINUOUS
 10
333.1567622951
 20
193.3823891246
 11
321.1567622951
 21
193.3823891246
  0
POLYLINE
  8
0
 62
9
  6
CONTINUOUS
 66
1
 70
0
  0
VERTEX
  8
0
 62
9
  6
CONTINUOUS
 10
333.1567622951
 20
193.3823891246
  0
VERTEX
  8
0
 62
9
  6
CONTINUOUS
 10
333.4696311183
 20
193.3577808226
  0
VERTEX
  8
0
 62
9
  6
CONTINUOUS
 10
333.7747961276
 20
193.284561838
  0
VERTEX
  8
0
 62
9
  6
CONTINUOUS
 10
334.0647431504
 20
193.1645350381
  0
VERTEX
  8
0
 62
9
  6
CONTINUOUS
 10
334.3323327022
 20
193.0006558675
  0
VERTEX
  8
0
 62
9
  6
CONTINUOUS
 10
334.5709758211
 20
192.7969595686
  0
VERTEX
  8
0
 62
9
  6
CONTINUOUS
 10
334.7747962985
 20
192.5584618292
  0
VERTEX
  8
0
 62
9
  6
CONTINUOUS
 10
334.9387753855
 20
192.29103527
  0
VERTEX
  8
0
 62
9
  6
CONTINUOUS
 10
335.0588753667
 20
192.0012648495
  0
VERTEX
  8
0
 62
9
  6
CONTINUOUS
 10
335.1321389906
 20
191.696285719
  0
VERTEX
  8
0
 62
9
  6
CONTINUOUS
 10
335.1567622951
 20
191.383607471
  0
SEQEND
  0
POLYLINE
  8
0
 62
9
  6
CONTINUOUS
 66
1
 70
0
  0
VERTEX
  8
0
 62
9
  6
CONTINUOUS
 10
333.1567622951
 20
193.2606546567
  0
VERTEX
  8
0
 62
9
  6
CONTINUOUS
 10
333.5469429391
 20
193.2222486277
  0
VERTEX
  8
0
 62
9
  6
CONTINUOUS
 10
333.9221291598
 20
193.1085064628
  0
VERTEX
  8
0
 62
9
  6
CONTINUOUS
 10
334.2679027611
 20
192.9237992096
  0
VERTEX
  8
0
 62
9
  6
CONTINUOUS
 10
334.5709758575
 20
192.6752250643
  0
VERTEX
  8
0
 62
9
  6
CONTINUOUS
 10
334.8197015197
 20
192.3723365919
  0
VERTEX
  8
0
 62
9
  6
CONTINUOUS
 10
335.0045213601
 20
192.0267736266
  0
VERTEX
  8
0
 62
9
  6
CONTINUOUS
 10
335.1183328559
 20
191.6518159592
  0
VERTEX
  8
0
 62
9
  6
CONTINUOUS
 10
335.1567622951
 20
191.2618730026
  0
SEQEND
  0
POLYLINE
  8
0
 62
9
  6
CONTINUOUS
 66
1
 70
0
  0
VERTEX
  8
0
 62
9
  6
CONTINUOUS
 10
333.1111855541
 20
193.2417974722
  0
VERTEX
  8
0
 62
9
  6
CONTINUOUS
 10
333.4847222201
 20
193.2033830183
  0
VERTEX
  8
0
 62
9
  6
CONTINUOUS
 10
333.8447296011
 20
193.0939660593
  0
VERTEX
  8
0
 62
9
  6
CONTINUOUS
 10
334.1781685962
 20
192.9175095663
  0
VERTEX
  8
0
 62
9
  6
CONTINUOUS
 10
334.472962384
 20
192.6804046139
  0
VERTEX
  8
0
 62
9
  6
CONTINUOUS
 10
334.7184338334
 20
192.3912389024
  0
VERTEX
  8
0
 62
9
  6
CONTINUOUS
 10
334.9056922181
 20
192.0604857199
  0
VERTEX
  8
0
 62
9
  6
CONTINUOUS
 10
335.0279552299
 20
191.7001246103
  0
VERTEX
  8
0
 62
9
  6
CONTINUOUS
 10
335.0807946268
 20
191.3232074865
  0
SEQEND
  0
POLYLINE
  8
0
 62
9
  6
CONTINUOUS
 66
1
 70
0
  0
VERTEX
  8
0
 62
9
  6
CONTINUOUS
 10
332.1450802411
 20
193.0439114423
  0
VERTEX
  8
0
 62
9
  6
CONTINUOUS
 10
332.520281083
 20
193.0048330394
  0
VERTEX
  8
0
 62
9
  6
CONTINUOUS
 10
332.8796874276
 20
192.8955927903
  0
VERTEX
  8
0
 62
9
  6
CONTINUOUS
 10
333.2124125635
 20
192.7192567826
  0
VERTEX
  8
0
 62
9
  6
CONTINUOUS
 10
333.5084893093
 20
192.480752384
  0
VERTEX
  8
0
 62
9
  6
CONTINUOUS
 10
333.7538108714
 20
192.1910056695
  0
VERTEX
  8
0
 62
9
  6
CONTINUOUS
 10
333.9409196998
 20
191.8591395916
  0
VERTEX
  8
0
 62
9
  6
CONTINUOUS
 10
334.0638284956
 20
191.4965428064
  0
VERTEX
  8
0
 62
9
  6
CONTINUOUS
 10
334.1146957525
 20
191.1202851561
  0
SEQEND
  0
LINE
  8
0
 62
9
  6
CONTINUOUS
 10
334.1146957525
 20
249.522606002
 11
335.0808010654
 21
246.0348169773
  0
LINE
  8
0
 62
7
  6
CONTINUOUS
 10
335.0390109895
 20
246.2886182121
 11
334.0723619195
 21
249.7814874643
  0
LINE
  8
0
 62
7
  6
CONTINUOUS
 10
335.0678899724
 20
246.1763870508
 11
335.0390919399
 21
246.2883010388
  0
POLYLINE
  8
0
 62
9
  6
CONTINUOUS
 66
1
 70
0
  0
VERTEX
  8
0
 62
9
  6
CONTINUOUS
 10
335.0808010654
 20
246.0348169754
  0
VERTEX
  8
0
 62
9
  6
CONTINUOUS
 10
335.114072688
 20
245.8826459169
  0
VERTEX
  8
0
 62
9
  6
CONTINUOUS
 10
335.1377981317
 20
245.7299308448
  0
VERTEX
  8
0
 62
9
  6
CONTINUOUS
 10
335.1520107382
 20
245.5770093246
  0
VERTEX
  8
0
 62
9
  6
CONTINUOUS
 10
335.1567621984
 20
245.4242150431
  0
SEQEND
  0
LINE
  8
1_AXIS
 62
7
  6
CONTINUOUS
 10
334.1146957525
 20
270.4438266739
 11
335.0808010601
 21
264.9647712069
  0
LINE
  8
0
 62
9
  6
CONTINUOUS
 10
333.1111855541
 20
264.8702469701
 11
332.1450802465
 21
270.4165087357
  0
LINE
  8
0
 62
9
  6
CONTINUOUS
 10
335.0808010653
 20
264.8011263602
 11
334.1146957525
 21
270.3476517552
  0
LINE
  8
0
 62
7
  6
CONTINUOUS
 10
334.1066148968
 20
72.6115126405
 11
334.0407326602
 21
72.3642999731
  0
LINE
  8
0
 62
9
  6
CONTINUOUS
 10
334.0240826847
 20
72.3484971385
 11
334.1146957525
 21
72.6706537364
  0
LINE
  8
0
 62
7
  6
CONTINUOUS
 10
334.8660993747
 20
115.8061271618
 11
334.9627610636
 21
116.0035424905
  0
LINE
  8
0
 62
9
  6
CONTINUOUS
 10
334.0240826871
 20
114.6451691947
 11
334.1146957525
 21
114.8266549897
  0
POLYLINE
  8
0
 62
9
  6
CONTINUOUS
 66
1
 70
0
  0
VERTEX
  8
0
 62
9
  6
CONTINUOUS
 10
334.8661043367
 20
115.8061244575
  0
VERTEX
  8
0
 62
9
  6
CONTINUOUS
 10
334.9056979548
 20
115.8830637778
  0
VERTEX
  8
0
 62
9
  6
CONTINUOUS
 10
335.0279614483
 20
116.2188822144
  0
VERTEX
  8
0
 62
9
  6
CONTINUOUS
 10
335.0808010673
 20
116.5744959003
  0
SEQEND
  0
POLYLINE
  8
0
 62
9
  6
CONTINUOUS
 66
1
 70
0
  0
VERTEX
  8
0
 62
9
  6
CONTINUOUS
 10
333.895338509
 20
114.0454671605
  0
VERTEX
  8
0
 62
9
  6
CONTINUOUS
 10
333.9409355578
 20
114.1337197381
  0
VERTEX
  8
0
 62
9
  6
CONTINUOUS
 10
334.0638334832
 20
114.4732776405
  0
VERTEX
  8
0
 62
9
  6
CONTINUOUS
 10
334.1146957525
 20
114.8266549897
  0
SEQEND
  0
LINE
  8
0
 62
7
  6
CONTINUOUS
 10
333.895707844
 20
114.0461350176
 11
334.8634323388
 21
115.8012502607
  0
LINE
  8
0
 62
9
  6
CONTINUOUS
 10
335.0808010653
 20
116.5744959104
 11
334.1146957525
 21
114.8266549897
  0
POLYLINE
  8
0
 62
9
  6
CONTINUOUS
 66
1
 70
0
  0
VERTEX
  8
0
 62
9
  6
CONTINUOUS
 10
321.1567622951
 20
200.8705495899
  0
VERTEX
  8
0
 62
9
  6
CONTINUOUS
 10
320.8438934437
 20
200.8613065515
  0
VERTEX
  8
0
 62
9
  6
CONTINUOUS
 10
320.5387284115
 20
200.8338050351
  0
VERTEX
  8
0
 62
9
  6
CONTINUOUS
 10
320.2487813695
 20
200.7887222095
  0
VERTEX
  8
0
 62
9
  6
CONTINUOUS
 10
319.9811918113
 20
200.7271681593
  0
VERTEX
  8
0
 62
9
  6
CONTINUOUS
 10
319.7425487048
 20
200.6506585501
  0
VERTEX
  8
0
 62
9
  6
CONTINUOUS
 10
319.538728248
 20
200.5610773067
  0
VERTEX
  8
0
 62
9
  6
CONTINUOUS
 10
319.3747491851
 20
200.4606302239
  0
VERTEX
  8
0
 62
9
  6
CONTINUOUS
 10
319.2546492195
 20
200.3517906485
  0
VERTEX
  8
0
 62
9
  6
CONTINUOUS
 10
319.1813855995
 20
200.237238581
  0
VERTEX
  8
0
 62
9
  6
CONTINUOUS
 10
319.1567622951
 20
200.1197946727
  0
SEQEND
  0
LINE
  8
0
 62
9
  6
CONTINUOUS
 10
333.1567622951
 20
200.870549583
 11
321.1567622951
 21
200.870549583
  0
LINE
  8
0
 62
7
  6
CONTINUOUS
 10
335.1567622951
 20
205.8964743971
 11
335.4767622951
 21
205.8964743971
  0
LINE
  8
0
 62
7
  6
CONTINUOUS
 10
335.1567622951
 20
206.2643347614
 11
335.4767622951
 21
206.2643347614
  0
POLYLINE
  8
0
 62
9
  6
CONTINUOUS
 66
1
 70
0
  0
VERTEX
  8
0
 62
9
  6
CONTINUOUS
 10
333.1567622951
 20
200.870549583
  0
VERTEX
  8
0
 62
9
  6
CONTINUOUS
 10
333.4696312252
 20
200.8613065443
  0
VERTEX
  8
0
 62
9
  6
CONTINUOUS
 10
333.7747962838
 20
200.8338050223
  0
VERTEX
  8
0
 62
9
  6
CONTINUOUS
 10
334.0647432945
 20
200.7887221958
  0
VERTEX
  8
0
 62
9
  6
CONTINUOUS
 10
334.3323327996
 20
200.7271681537
  0
VERTEX
  8
0
 62
9
  6
CONTINUOUS
 10
334.5709758574
 20
200.6506585606
  0
VERTEX
  8
0
 62
9
  6
CONTINUOUS
 10
334.7747962838
 20
200.5610773369
  0
VERTEX
  8
0
 62
9
  6
CONTINUOUS
 10
334.9387753434
 20
200.4606302693
  0
VERTEX
  8
0
 62
9
  6
CONTINUOUS
 10
335.0588753276
 20
200.3517906982
  0
VERTEX
  8
0
 62
9
  6
CONTINUOUS
 10
335.1321389763
 20
200.237238615
  0
VERTEX
  8
0
 62
9
  6
CONTINUOUS
 10
335.1567622951
 20
200.1197946721
  0
SEQEND
  0
LINE
  8
0
 62
7
  6
CONTINUOUS
 10
335.5043105962
 20
226.2101352143
 11
336.6567622951
 21
224.2140303186
  0
LINE
  8
0
 62
9
  6
CONTINUOUS
 10
334.0243918575
 20
249.7875346231
 11
334.1146957525
 21
249.522606002
  0
POLYLINE
  8
0
 62
7
  6
CONTINUOUS
 66
1
 70
0
  0
VERTEX
  8
0
 62
7
  6
CONTINUOUS
 10
334.0744716369
 20
249.7738197331
  0
VERTEX
  8
0
 62
7
  6
CONTINUOUS
 10
334.045080653
 20
249.8715841484
  0
VERTEX
  8
0
 62
7
  6
CONTINUOUS
 10
333.9035014888
 20
250.1999521737
  0
SEQEND
  0
POLYLINE
  8
0
 62
7
  6
CONTINUOUS
 66
1
 70
0
  0
VERTEX
  8
0
 62
7
  6
CONTINUOUS
 10
333.8942637596
 20
114.0435255961
  0
VERTEX
  8
0
 62
7
  6
CONTINUOUS
 10
333.6996175717
 20
113.7549080142
  0
VERTEX
  8
0
 62
7
  6
CONTINUOUS
 10
333.4514806811
 20
113.4988752118
  0
VERTEX
  8
0
 62
7
  6
CONTINUOUS
 10
333.1615400662
 20
113.2908028355
  0
VERTEX
  8
0
 62
7
  6
CONTINUOUS
 10
332.8402971548
 20
113.1379661106
  0
VERTEX
  8
0
 62
7
  6
CONTINUOUS
 10
332.4989059406
 20
113.0447927418
  0
VERTEX
  8
0
 62
7
  6
CONTINUOUS
 10
332.1450802465
 20
113.0132456765
  0
SEQEND
  0
LINE
  8
1_AXIS
 62
7
  6
CONTINUOUS
 10
308.0067622951
 20
206.7140303186
 11
314.1567622951
 21
206.7140303186
  0
LINE
  8
1_AXIS
 62
7
  6
CONTINUOUS
 10
340.1567622951
 20
206.7140303186
 11
346.3067622951
 21
206.7140303186
  0
LINE
  8
0
 62
7
  6
CONTINUOUS
 10
335.1567622951
 20
208.6203088859
 11
335.4767622951
 21
208.6203088859
  0
LINE
  8
0
 62
7
  6
CONTINUOUS
 10
335.1567622951
 20
208.9898369605
 11
335.4767622951
 21
208.9898369605
  0
LINE
  8
0
 62
7
  6
CONTINUOUS
 10
335.1567622951
 20
209.585084495
 11
335.4767622951
 21
209.585084495
  0
LINE
  8
0
 62
7
  6
CONTINUOUS
 10
335.1567622951
 20
210.0331878909
 11
335.4767622951
 21
210.0331878909
  0
LINE
  8
0
 62
7
  6
CONTINUOUS
 10
335.1567622951
 20
210.6334386907
 11
335.4767622951
 21
210.6334386907
  0
LINE
  8
0
 62
7
  6
CONTINUOUS
 10
335.1567622951
 20
210.9343980153
 11
335.4767622951
 21
210.9343980153
  0
LINE
  8
0
 62
7
  6
CONTINUOUS
 10
335.1567622951
 20
211.3122648858
 11
335.4767622951
 21
211.3122648858
  0
LINE
  8
0
 62
7
  6
CONTINUOUS
 10
335.1567622951
 20
211.4660799776
 11
335.4767622951
 21
211.4660799776
  0
LINE
  8
0
 62
7
  6
CONTINUOUS
 10
335.1567622951
 20
212.5317695228
 11
335.4767622951
 21
212.5317695228
  0
LINE
  8
0
 62
7
  6
CONTINUOUS
 10
335.1567622951
 20
212.9303331795
 11
335.4767622951
 21
212.9303331795
  0
POLYLINE
  8
0
 62
7
  6
CONTINUOUS
 66
1
 70
0
  0
VERTEX
  8
0
 62
7
  6
CONTINUOUS
 10
334.0407326598
 20
72.3642999722
  0
VERTEX
  8
0
 62
7
  6
CONTINUOUS
 10
333.8981039091
 20
72.0391114198
  0
VERTEX
  8
0
 62
7
  6
CONTINUOUS
 10
333.699277692
 20
71.7431146244
  0
VERTEX
  8
0
 62
7
  6
CONTINUOUS
 10
333.4511123064
 20
71.4871838818
  0
VERTEX
  8
0
 62
7
  6
CONTINUOUS
 10
333.1611579436
 20
71.2792037714
  0
VERTEX
  8
0
 62
7
  6
CONTINUOUS
 10
332.8399823043
 20
71.1264757943
  0
VERTEX
  8
0
 62
7
  6
CONTINUOUS
 10
332.4987744378
 20
71.0333954926
  0
VERTEX
  8
0
 62
7
  6
CONTINUOUS
 10
332.1450802467
 20
71.0018720538
  0
SEQEND
  0
LINE
  8
0
 62
7
  6
CONTINUOUS
 10
335.1567622951
 20
215.4136991368
 11
335.4767622951
 21
215.4136991368
  0
LINE
  8
0
 62
7
  6
CONTINUOUS
 10
335.1567622951
 20
215.8547782381
 11
335.4767622951
 21
215.8547782381
  0
LINE
  8
0
 62
7
  6
CONTINUOUS
 10
335.1567622951
 20
216.2974173083
 11
335.4767622951
 21
216.2974173083
  0
LINE
  8
0
 62
7
  6
CONTINUOUS
 10
335.1567622951
 20
216.8645486538
 11
335.4767622951
 21
216.8645486538
  0
LINE
  8
0
 62
7
  6
CONTINUOUS
 10
335.1567622951
 20
217.3233259954
 11
335.4767622951
 21
217.3233259954
  0
LINE
  8
0
 62
7
  6
CONTINUOUS
 10
335.1567622951
 20
217.6115030174
 11
335.4767622951
 21
217.6115030174
  0
LINE
  8
0
 62
7
  6
CONTINUOUS
 10
335.1567622951
 20
217.6668337604
 11
335.4767622951
 21
217.6668337604
  0
LINE
  8
0
 62
7
  6
CONTINUOUS
 10
335.1567622951
 20
217.9402730668
 11
335.4767622951
 21
217.9402730668
  0
LINE
  8
0
 62
7
  6
CONTINUOUS
 10
335.1567622951
 20
218.266238432
 11
335.4767622951
 21
218.266238432
  0
LINE
  8
0
 62
7
  6
CONTINUOUS
 10
335.1567622951
 20
218.7375762581
 11
335.4767622951
 21
218.7375762581
  0
LINE
  8
0
 62
7
  6
CONTINUOUS
 10
335.1567622951
 20
219.1736969208
 11
335.4767622951
 21
219.1736969208
  0
LINE
  8
0
 62
7
  6
CONTINUOUS
 10
335.1567622951
 20
219.7199737644
 11
335.4767622951
 21
219.7199737644
  0
LINE
  8
0
 62
7
  6
CONTINUOUS
 10
335.1567622951
 20
220.1407372455
 11
335.4767622951
 21
220.1407372455
  0
LINE
  8
0
 62
7
  6
CONTINUOUS
 10
335.1567622951
 20
220.3809095887
 11
335.4767622951
 21
220.3809095887
  0
LINE
  8
0
 62
9
  6
CONTINUOUS
 10
335.1183328672
 20
264.0070259024
 11
335.1567622951
 21
263.9259027926
  0
LINE
  8
0
 62
9
  6
CONTINUOUS
 10
333.8760856948
 20
72.0464422064
 11
334.0240826847
 21
72.3484971385
  0
POLYLINE
  8
0
 62
9
  6
CONTINUOUS
 66
1
 70
0
  0
VERTEX
  8
0
 62
9
  6
CONTINUOUS
 10
333.6753230528
 20
114.3213689122
  0
VERTEX
  8
0
 62
9
  6
CONTINUOUS
 10
333.8760857012
 20
114.4750076018
  0
VERTEX
  8
0
 62
9
  6
CONTINUOUS
 10
334.0240826871
 20
114.6451691947
  0
SEQEND
  0
LINE
  8
0
 62
9
  6
CONTINUOUS
 10
333.4279064477
 20
114.1888686311
 11
333.6753230528
 21
114.3213689122
  0
POLYLINE
  8
0
 62
9
  6
CONTINUOUS
 66
1
 70
0
  0
VERTEX
  8
0
 62
9
  6
CONTINUOUS
 10
321.1567622951
 20
221.0790237344
  0
VERTEX
  8
0
 62
9
  6
CONTINUOUS
 10
320.8438933651
 20
221.0638802457
  0
VERTEX
  8
0
 62
9
  6
CONTINUOUS
 10
320.5387283064
 20
221.0188226623
  0
VERTEX
  8
0
 62
9
  6
CONTINUOUS
 10
320.2487812957
 20
220.9449604515
  0
VERTEX
  8
0
 62
9
  6
CONTINUOUS
 10
319.9811917906
 20
220.8441123461
  0
VERTEX
  8
0
 62
9
  6
CONTINUOUS
 10
319.7425487328
 20
220.7187615612
  0
VERTEX
  8
0
 62
9
  6
CONTINUOUS
 10
319.5387283064
 20
220.571994649
  0
VERTEX
  8
0
 62
9
  6
CONTINUOUS
 10
319.3747492468
 20
220.4074254981
  0
VERTEX
  8
0
 62
9
  6
CONTINUOUS
 10
319.2546492625
 20
220.2291063471
  0
VERTEX
  8
0
 62
9
  6
CONTINUOUS
 10
319.1813856139
 20
220.0414280053
  0
VERTEX
  8
0
 62
9
  6
CONTINUOUS
 10
319.1567622951
 20
219.8490117363
  0
SEQEND
  0
LINE
  8
0
 62
9
  6
CONTINUOUS
 10
333.1567622951
 20
221.0790237344
 11
321.1567622951
 21
221.0790237344
  0
LINE
  8
0
 62
7
  6
CONTINUOUS
 10
335.1567622951
 20
221.1960337956
 11
335.4767622951
 21
221.1960337956
  0
LINE
  8
0
 62
7
  6
CONTINUOUS
 10
335.1567622951
 20
221.2607653383
 11
335.4767622951
 21
221.2607653383
  0
LINE
  8
0
 62
7
  6
CONTINUOUS
 10
335.1567622951
 20
221.3537708079
 11
335.4767622951
 21
221.3537708079
  0
LINE
  8
0
 62
7
  6
CONTINUOUS
 10
335.1567622951
 20
222.1697375518
 11
335.4767622951
 21
222.1697375518
  0
LINE
  8
0
 62
7
  6
CONTINUOUS
 10
335.1567622951
 20
225.6375964099
 11
335.4767622951
 21
225.6375964099
  0
LINE
  8
0
 62
7
  6
CONTINUOUS
 10
335.1567622951
 20
226.1475755802
 11
335.4767622951
 21
226.1475755802
  0
POLYLINE
  8
0
 62
9
  6
CONTINUOUS
 66
1
 70
0
  0
VERTEX
  8
0
 62
9
  6
CONTINUOUS
 10
333.1567622951
 20
221.0790237279
  0
VERTEX
  8
0
 62
9
  6
CONTINUOUS
 10
333.4696311335
 20
221.0638802521
  0
VERTEX
  8
0
 62
9
  6
CONTINUOUS
 10
333.7747961614
 20
221.0188226867
  0
VERTEX
  8
0
 62
9
  6
CONTINUOUS
 10
334.0647432086
 20
220.9449604788
  0
VERTEX
  8
0
 62
9
  6
CONTINUOUS
 10
334.3323327755
 20
220.8441123569
  0
VERTEX
  8
0
 62
9
  6
CONTINUOUS
 10
334.57097589
 20
220.7187615411
  0
VERTEX
  8
0
 62
9
  6
CONTINUOUS
 10
334.7747963517
 20
220.5719945915
  0
VERTEX
  8
0
 62
9
  6
CONTINUOUS
 10
334.9387754152
 20
220.4074254115
  0
VERTEX
  8
0
 62
9
  6
CONTINUOUS
 10
335.0588753777
 20
220.2291062522
  0
VERTEX
  8
0
 62
9
  6
CONTINUOUS
 10
335.132138993
 20
220.0414279401
  0
VERTEX
  8
0
 62
9
  6
CONTINUOUS
 10
335.1567622951
 20
219.8490117362
  0
SEQEND
  0
POLYLINE
  8
0
 62
7
  6
CONTINUOUS
 66
1
 70
0
  0
VERTEX
  8
0
 62
7
  6
CONTINUOUS
 10
333.9035014888
 20
250.1999521737
  0
VERTEX
  8
0
 62
7
  6
CONTINUOUS
 10
333.7057097565
 20
250.4978595591
  0
VERTEX
  8
0
 62
7
  6
CONTINUOUS
 10
333.4580284603
 20
250.7557827016
  0
VERTEX
  8
0
 62
7
  6
CONTINUOUS
 10
333.1683753053
 20
250.9654764674
  0
VERTEX
  8
0
 62
7
  6
CONTINUOUS
 10
332.8460100025
 20
251.1202373353
  0
SEQEND
  0
POLYLINE
  8
0
 62
9
  6
CONTINUOUS
 66
1
 70
0
  0
VERTEX
  8
0
 62
9
  6
CONTINUOUS
 10
333.1567622951
 20
234.0927544766
  0
VERTEX
  8
0
 62
9
  6
CONTINUOUS
 10
333.4696312251
 20
234.1043144246
  0
VERTEX
  8
0
 62
9
  6
CONTINUOUS
 10
333.7747962837
 20
234.1387096242
  0
VERTEX
  8
0
 62
9
  6
CONTINUOUS
 10
334.0647432945
 20
234.1950931514
  0
VERTEX
  8
0
 62
9
  6
CONTINUOUS
 10
334.3323327996
 20
234.2720766568
  0
VERTEX
  8
0
 62
9
  6
CONTINUOUS
 10
334.5709758574
 20
234.3677645509
  0
VERTEX
  8
0
 62
9
  6
CONTINUOUS
 10
334.7747962838
 20
234.4798006802
  0
VERTEX
  8
0
 62
9
  6
CONTINUOUS
 10
334.9387753434
 20
234.6054263433
  0
VERTEX
  8
0
 62
9
  6
CONTINUOUS
 10
335.0588753277
 20
234.7415482196
  0
VERTEX
  8
0
 62
9
  6
CONTINUOUS
 10
335.1321389763
 20
234.8848145366
  0
VERTEX
  8
0
 62
9
  6
CONTINUOUS
 10
335.1567622951
 20
235.0316976022
  0
SEQEND
  0
LINE
  8
0
 62
7
  6
CONTINUOUS
 10
335.1567622951
 20
227.3317995922
 11
335.4767622951
 21
227.3317995922
  0
LINE
  8
0
 62
7
  6
CONTINUOUS
 10
335.1567622951
 20
227.3594995956
 11
335.4767622951
 21
227.3594995956
  0
LINE
  8
0
 62
7
  6
CONTINUOUS
 10
335.1567622951
 20
227.7762360884
 11
335.4767622951
 21
227.7762360884
  0
LINE
  8
0
 62
7
  6
CONTINUOUS
 10
335.1567622951
 20
228.0052965347
 11
335.4767622951
 21
228.0052965347
  0
LINE
  8
0
 62
7
  6
CONTINUOUS
 10
335.1567622951
 20
228.0258773385
 11
335.4767622951
 21
228.0258773385
  0
LINE
  8
0
 62
7
  6
CONTINUOUS
 10
335.1567622951
 20
228.217041619
 11
335.4767622951
 21
228.217041619
  0
LINE
  8
0
 62
7
  6
CONTINUOUS
 10
335.1567622951
 20
228.5951581796
 11
335.4767622951
 21
228.5951581796
  0
LINE
  8
0
 62
7
  6
CONTINUOUS
 10
335.1567622951
 20
228.7619819331
 11
335.4767622951
 21
228.7619819331
  0
LINE
  8
0
 62
7
  6
CONTINUOUS
 10
335.1567622951
 20
228.823158863
 11
335.4767622951
 21
228.823158863
  0
LINE
  8
0
 62
7
  6
CONTINUOUS
 10
335.1567622951
 20
228.8397268243
 11
335.4767622951
 21
228.8397268243
  0
LINE
  8
0
 62
9
  6
CONTINUOUS
 10
333.1567622951
 20
234.0927544766
 11
321.1567622951
 21
234.0927544766
  0
POLYLINE
  8
0
 62
9
  6
CONTINUOUS
 66
1
 70
0
  0
VERTEX
  8
0
 62
9
  6
CONTINUOUS
 10
321.1567622951
 20
234.0927544766
  0
VERTEX
  8
0
 62
9
  6
CONTINUOUS
 10
320.8438934568
 20
234.1043144177
  0
VERTEX
  8
0
 62
9
  6
CONTINUOUS
 10
320.5387284406
 20
234.1387096037
  0
VERTEX
  8
0
 62
9
  6
CONTINUOUS
 10
320.2487814195
 20
234.1950931218
  0
VERTEX
  8
0
 62
9
  6
CONTINUOUS
 10
319.9811918743
 20
234.2720766282
  0
VERTEX
  8
0
 62
9
  6
CONTINUOUS
 10
319.742548764
 20
234.3677645362
  0
VERTEX
  8
0
 62
9
  6
CONTINUOUS
 10
319.5387282938
 20
234.4798006883
  0
VERTEX
  8
0
 62
9
  6
CONTINUOUS
 10
319.3747492106
 20
234.6054263766
  0
VERTEX
  8
0
 62
9
  6
CONTINUOUS
 10
319.2546492289
 20
234.7415482681
  0
VERTEX
  8
0
 62
9
  6
CONTINUOUS
 10
319.1813856016
 20
234.8848145732
  0
VERTEX
  8
0
 62
9
  6
CONTINUOUS
 10
319.1567622951
 20
235.0316976024
  0
SEQEND
  0
POLYLINE
  8
0
 62
9
  6
CONTINUOUS
 66
1
 70
0
  0
VERTEX
  8
0
 62
9
  6
CONTINUOUS
 10
332.1450802431
 20
242.6561460075
  0
VERTEX
  8
0
 62
9
  6
CONTINUOUS
 10
332.5203027459
 20
242.7339482492
  0
VERTEX
  8
0
 62
9
  6
CONTINUOUS
 10
332.8797239857
 20
242.8345037295
  0
VERTEX
  8
0
 62
9
  6
CONTINUOUS
 10
333.2124550816
 20
242.96679202
  0
VERTEX
  8
0
 62
9
  6
CONTINUOUS
 10
333.508528916
 20
243.1224092149
  0
VERTEX
  8
0
 62
9
  6
CONTINUOUS
 10
333.7538399672
 20
243.2946001817
  0
VERTEX
  8
0
 62
9
  6
CONTINUOUS
 10
333.9409355578
 20
243.4783816412
  0
VERTEX
  8
0
 62
9
  6
CONTINUOUS
 10
334.0638334832
 20
243.6626063837
  0
VERTEX
  8
0
 62
9
  6
CONTINUOUS
 10
334.1146957525
 20
243.8511520632
  0
SEQEND
  0
POLYLINE
  8
0
 62
9
  6
CONTINUOUS
 66
1
 70
0
  0
VERTEX
  8
0
 62
9
  6
CONTINUOUS
 10
333.1111855541
 20
237.6496843122
  0
VERTEX
  8
0
 62
9
  6
CONTINUOUS
 10
333.4847231896
 20
237.7227686248
  0
VERTEX
  8
0
 62
9
  6
CONTINUOUS
 10
333.8447316328
 20
237.8272135539
  0
VERTEX
  8
0
 62
9
  6
CONTINUOUS
 10
334.1781717063
 20
237.9592361995
  0
VERTEX
  8
0
 62
9
  6
CONTINUOUS
 10
334.4729665148
 20
238.1140548217
  0
VERTEX
  8
0
 62
9
  6
CONTINUOUS
 10
334.7184388591
 20
238.2860620313
  0
VERTEX
  8
0
 62
9
  6
CONTINUOUS
 10
334.9056979548
 20
238.469027884
  0
VERTEX
  8
0
 62
9
  6
CONTINUOUS
 10
335.0279614483
 20
238.6563255235
  0
SEQEND
  0
POLYLINE
  8
0
 62
9
  6
CONTINUOUS
 66
1
 70
0
  0
VERTEX
  8
0
 62
9
  6
CONTINUOUS
 10
333.1567622951
 20
237.1726027714
  0
VERTEX
  8
0
 62
9
  6
CONTINUOUS
 10
333.54694301
 20
237.1906443107
  0
VERTEX
  8
0
 62
9
  6
CONTINUOUS
 10
333.9221292722
 20
237.2440755895
  0
VERTEX
  8
0
 62
9
  6
CONTINUOUS
 10
334.2679028835
 20
237.3308432671
  0
VERTEX
  8
0
 62
9
  6
CONTINUOUS
 10
334.5709759646
 20
237.4476129049
  0
VERTEX
  8
0
 62
9
  6
CONTINUOUS
 10
334.8197015949
 20
237.589897107
  0
VERTEX
  8
0
 62
9
  6
CONTINUOUS
 10
335.0045213994
 20
237.7522279699
  0
VERTEX
  8
0
 62
9
  6
CONTINUOUS
 10
335.1183328672
 20
237.9283672108
  0
VERTEX
  8
0
 62
9
  6
CONTINUOUS
 10
335.1567622951
 20
238.1115458969
  0
SEQEND
  0
POLYLINE
  8
0
 62
9
  6
CONTINUOUS
 66
1
 70
0
  0
VERTEX
  8
0
 62
9
  6
CONTINUOUS
 10
321.1567622951
 20
237.1195588092
  0
VERTEX
  8
0
 62
9
  6
CONTINUOUS
 10
320.766581651
 20
237.1376003381
  0
VERTEX
  8
0
 62
9
  6
CONTINUOUS
 10
320.3913954304
 20
237.1910315989
  0
VERTEX
  8
0
 62
9
  6
CONTINUOUS
 10
320.045621829
 20
237.2777992582
  0
VERTEX
  8
0
 62
9
  6
CONTINUOUS
 10
319.7425487327
 20
237.3945688836
  0
VERTEX
  8
0
 62
9
  6
CONTINUOUS
 10
319.4938230705
 20
237.5368530838
  0
VERTEX
  8
0
 62
9
  6
CONTINUOUS
 10
319.3090032301
 20
237.6991839567
  0
VERTEX
  8
0
 62
9
  6
CONTINUOUS
 10
319.1951917343
 20
237.8753232181
  0
VERTEX
  8
0
 62
9
  6
CONTINUOUS
 10
319.1567622951
 20
238.0585019348
  0
SEQEND
  0
POLYLINE
  8
0
 62
9
  6
CONTINUOUS
 66
1
 70
0
  0
VERTEX
  8
0
 62
9
  6
CONTINUOUS
 10
321.2110952628
 20
237.6400878906
  0
VERTEX
  8
0
 62
9
  6
CONTINUOUS
 10
320.8396020121
 20
237.7180300981
  0
VERTEX
  8
0
 62
9
  6
CONTINUOUS
 10
320.4814901931
 20
237.826986127
  0
VERTEX
  8
0
 62
9
  6
CONTINUOUS
 10
320.1496592298
 20
237.9630313093
  0
VERTEX
  8
0
 62
9
  6
CONTINUOUS
 10
319.8560618925
 20
238.1212652077
  0
VERTEX
  8
0
 62
9
  6
CONTINUOUS
 10
319.6112737512
 20
238.2959881328
  0
VERTEX
  8
0
 62
9
  6
CONTINUOUS
 10
319.4241122362
 20
238.4809064495
  0
VERTEX
  8
0
 62
9
  6
CONTINUOUS
 10
319.3013190289
 20
238.6693592779
  0
SEQEND
  0
POLYLINE
  8
0
 62
9
  6
CONTINUOUS
 66
1
 70
0
  0
VERTEX
  8
0
 62
9
  6
CONTINUOUS
 10
322.2703100016
 20
242.6561460057
  0
VERTEX
  8
0
 62
9
  6
CONTINUOUS
 10
321.8974245269
 20
242.738875575
  0
VERTEX
  8
0
 62
9
  6
CONTINUOUS
 10
321.5395552989
 20
242.8439493853
  0
VERTEX
  8
0
 62
9
  6
CONTINUOUS
 10
321.2083420544
 20
242.9802707942
  0
VERTEX
  8
0
 62
9
  6
CONTINUOUS
 10
320.913512323
 20
243.1393855084
  0
VERTEX
  8
0
 62
9
  6
CONTINUOUS
 10
320.6688561937
 20
243.3143472222
  0
VERTEX
  8
0
 62
9
  6
CONTINUOUS
 10
320.4818883808
 20
243.5001205769
  0
VERTEX
  8
0
 62
9
  6
CONTINUOUS
 10
320.3584210366
 20
243.6855827168
  0
VERTEX
  8
0
 62
9
  6
CONTINUOUS
 10
320.3065319767
 20
243.8744639365
  0
SEQEND
  0
POLYLINE
  8
0
 62
9
  6
CONTINUOUS
 66
1
 70
0
  0
VERTEX
  8
0
 62
9
  6
CONTINUOUS
 10
333.4279041094
 20
250.4643649688
  0
VERTEX
  8
0
 62
9
  6
CONTINUOUS
 10
333.6748986607
 20
250.2691418571
  0
VERTEX
  8
0
 62
9
  6
CONTINUOUS
 10
333.8760867996
 20
250.0418481754
  0
VERTEX
  8
0
 62
9
  6
CONTINUOUS
 10
334.0243918575
 20
249.7875346231
  0
SEQEND
  0
POLYLINE
  8
0
 62
9
  6
CONTINUOUS
 66
1
 70
0
  0
VERTEX
  8
0
 62
9
  6
CONTINUOUS
 10
322.2703099936
 20
245.069696823
  0
VERTEX
  8
0
 62
9
  6
CONTINUOUS
 10
321.9263763817
 20
245.0464987035
  0
VERTEX
  8
0
 62
9
  6
CONTINUOUS
 10
321.5984853035
 20
244.9840122106
  0
VERTEX
  8
0
 62
9
  6
CONTINUOUS
 10
321.2859841528
 20
244.8781444526
  0
VERTEX
  8
0
 62
9
  6
CONTINUOUS
 10
320.9997307438
 20
244.7338903079
  0
VERTEX
  8
0
 62
9
  6
CONTINUOUS
 10
320.7534164506
 20
244.5561046049
  0
VERTEX
  8
0
 62
9
  6
CONTINUOUS
 10
320.5514567848
 20
244.3489958081
  0
VERTEX
  8
0
 62
9
  6
CONTINUOUS
 10
320.4008078111
 20
244.1215613147
  0
VERTEX
  8
0
 62
9
  6
CONTINUOUS
 10
320.3065319767
 20
243.8744639365
  0
SEQEND
  0
LINE
  8
0
 62
9
  6
CONTINUOUS
 10
332.1450802465
 20
242.6561459869
 11
322.2703099982
 21
242.6561459869
  0
LINE
  8
0
 62
9
  6
CONTINUOUS
 10
322.2703099982
 20
245.0696968749
 11
332.1450802465
 21
245.0696968749
  0
POLYLINE
  8
0
 62
9
  6
CONTINUOUS
 66
1
 70
0
  0
VERTEX
  8
0
 62
9
  6
CONTINUOUS
 10
332.1450802465
 20
245.0696968749
  0
VERTEX
  8
0
 62
9
  6
CONTINUOUS
 10
332.4890064804
 20
245.0477302162
  0
VERTEX
  8
0
 62
9
  6
CONTINUOUS
 10
332.8242696571
 20
244.982063688
  0
VERTEX
  8
0
 62
9
  6
CONTINUOUS
 10
333.1409300843
 20
244.873898666
  0
VERTEX
  8
0
 62
9
  6
CONTINUOUS
 10
333.4279064472
 20
244.7264018399
  0
VERTEX
  8
0
 62
9
  6
CONTINUOUS
 10
333.6753230525
 20
244.5445684722
  0
VERTEX
  8
0
 62
9
  6
CONTINUOUS
 10
333.876085701
 20
244.333726351
  0
VERTEX
  8
0
 62
9
  6
CONTINUOUS
 10
334.0240826871
 20
244.1002094465
  0
VERTEX
  8
0
 62
9
  6
CONTINUOUS
 10
334.1146957525
 20
243.8511520632
  0
SEQEND
  0
LINE
  8
0
 62
7
  6
CONTINUOUS
 10
321.5754108884
 20
251.1224829375
 11
321.9173188931
 21
251.2156884607
  0
LINE
  8
0
 62
7
  6
CONTINUOUS
 10
321.9173188931
 20
251.2156884607
 11
322.2703099982
 21
251.2470855857
  0
POLYLINE
  8
0
 62
9
  6
CONTINUOUS
 66
1
 70
0
  0
VERTEX
  8
0
 62
9
  6
CONTINUOUS
 10
321.1567622951
 20
251.6890543337
  0
VERTEX
  8
0
 62
9
  6
CONTINUOUS
 10
320.8438933651
 20
251.6649733589
  0
VERTEX
  8
0
 62
9
  6
CONTINUOUS
 10
320.5387283064
 20
251.593323388
  0
VERTEX
  8
0
 62
9
  6
CONTINUOUS
 10
320.2487812957
 20
251.4758686809
  0
VERTEX
  8
0
 62
9
  6
CONTINUOUS
 10
319.9811917906
 20
251.3155013625
  0
VERTEX
  8
0
 62
9
  6
CONTINUOUS
 10
319.7425487328
 20
251.1161702084
  0
VERTEX
  8
0
 62
9
  6
CONTINUOUS
 10
319.5387283064
 20
250.882783413
  0
VERTEX
  8
0
 62
9
  6
CONTINUOUS
 10
319.3747492468
 20
250.6210877339
  0
VERTEX
  8
0
 62
9
  6
CONTINUOUS
 10
319.2546492625
 20
250.3375269872
  0
VERTEX
  8
0
 62
9
  6
CONTINUOUS
 10
319.1813856139
 20
250.0390833795
  0
VERTEX
  8
0
 62
9
  6
CONTINUOUS
 10
319.1567622951
 20
249.7331055829
  0
SEQEND
  0
POLYLINE
  8
0
 62
9
  6
CONTINUOUS
 66
1
 70
0
  0
VERTEX
  8
0
 62
9
  6
CONTINUOUS
 10
322.2703099982
 20
250.8337444267
  0
VERTEX
  8
0
 62
9
  6
CONTINUOUS
 10
321.9302021459
 20
250.8106343567
  0
VERTEX
  8
0
 62
9
  6
CONTINUOUS
 10
321.5984796943
 20
250.7415472515
  0
VERTEX
  8
0
 62
9
  6
CONTINUOUS
 10
321.2847499277
 20
250.6277229889
  0
VERTEX
  8
0
 62
9
  6
CONTINUOUS
 10
320.9997285792
 20
250.4724195002
  0
SEQEND
  0
LINE
  8
0
 62
9
  6
CONTINUOUS
 10
322.2703099982
 20
250.8337444267
 11
332.1450802465
 21
250.8337444267
  0
LINE
  8
0
 62
7
  6
CONTINUOUS
 10
322.2703099982
 20
251.2470855857
 11
332.1450802465
 21
251.2470855857
  0
LINE
  8
0
 62
9
  6
CONTINUOUS
 10
333.1567622951
 20
251.6890543337
 11
321.1567622951
 21
251.6890543337
  0
POLYLINE
  8
0
 62
9
  6
CONTINUOUS
 66
1
 70
0
  0
VERTEX
  8
0
 62
9
  6
CONTINUOUS
 10
332.1450802514
 20
250.8337444575
  0
VERTEX
  8
0
 62
9
  6
CONTINUOUS
 10
332.4929268168
 20
250.8107165303
  0
VERTEX
  8
0
 62
9
  6
CONTINUOUS
 10
332.8242635703
 20
250.7394539968
  0
VERTEX
  8
0
 62
9
  6
CONTINUOUS
 10
333.1396522517
 20
250.6242037464
  0
VERTEX
  8
0
 62
9
  6
CONTINUOUS
 10
333.4279041094
 20
250.4643649688
  0
SEQEND
  0
POLYLINE
  8
0
 62
9
  6
CONTINUOUS
 66
1
 70
0
  0
VERTEX
  8
0
 62
9
  6
CONTINUOUS
 10
333.1567622951
 20
251.689054332
  0
VERTEX
  8
0
 62
9
  6
CONTINUOUS
 10
333.4696311335
 20
251.6649733724
  0
VERTEX
  8
0
 62
9
  6
CONTINUOUS
 10
333.7747961614
 20
251.5933234268
  0
VERTEX
  8
0
 62
9
  6
CONTINUOUS
 10
334.0647432086
 20
251.4758687238
  0
VERTEX
  8
0
 62
9
  6
CONTINUOUS
 10
334.3323327755
 20
251.3155013796
  0
VERTEX
  8
0
 62
9
  6
CONTINUOUS
 10
334.57097589
 20
251.1161701764
  0
VERTEX
  8
0
 62
9
  6
CONTINUOUS
 10
334.7747963517
 20
250.8827833215
  0
VERTEX
  8
0
 62
9
  6
CONTINUOUS
 10
334.9387754152
 20
250.6210875961
  0
VERTEX
  8
0
 62
9
  6
CONTINUOUS
 10
335.0588753777
 20
250.3375268363
  0
VERTEX
  8
0
 62
9
  6
CONTINUOUS
 10
335.132138993
 20
250.0390832761
  0
VERTEX
  8
0
 62
9
  6
CONTINUOUS
 10
335.1567622951
 20
249.7331055832
  0
SEQEND
  0
POLYLINE
  8
0
 62
7
  6
CONTINUOUS
 66
1
 70
0
  0
VERTEX
  8
0
 62
7
  6
CONTINUOUS
 10
332.8460100025
 20
251.1202373353
  0
VERTEX
  8
0
 62
7
  6
CONTINUOUS
 10
332.5012379716
 20
251.2151180231
  0
VERTEX
  8
0
 62
7
  6
CONTINUOUS
 10
332.1450802465
 20
251.2470855857
  0
SEQEND
  0
POLYLINE
  8
0
 62
9
  6
CONTINUOUS
 66
1
 70
0
  0
VERTEX
  8
0
 62
9
  6
CONTINUOUS
 10
321.1567622951
 20
260.929806549
  0
VERTEX
  8
0
 62
9
  6
CONTINUOUS
 10
320.8438934568
 20
260.9246870761
  0
VERTEX
  8
0
 62
9
  6
CONTINUOUS
 10
320.5387284406
 20
260.9094547131
  0
VERTEX
  8
0
 62
9
  6
CONTINUOUS
 10
320.2487814195
 20
260.8844845264
  0
VERTEX
  8
0
 62
9
  6
CONTINUOUS
 10
319.9811918743
 20
260.8503913624
  0
VERTEX
  8
0
 62
9
  6
CONTINUOUS
 10
319.742548764
 20
260.8080147068
  0
VERTEX
  8
0
 62
9
  6
CONTINUOUS
 10
319.5387282938
 20
260.758398015
  0
VERTEX
  8
0
 62
9
  6
CONTINUOUS
 10
319.3747492106
 20
260.7027630174
  0
VERTEX
  8
0
 62
9
  6
CONTINUOUS
 10
319.2546492289
 20
260.6424796374
  0
VERTEX
  8
0
 62
9
  6
CONTINUOUS
 10
319.1813856016
 20
260.5790322596
  0
VERTEX
  8
0
 62
9
  6
CONTINUOUS
 10
319.1567622951
 20
260.5139831679
  0
SEQEND
  0
LINE
  8
0
 62
9
  6
CONTINUOUS
 10
333.1567622951
 20
260.929806549
 11
321.1567622951
 21
260.929806549
  0
POLYLINE
  8
0
 62
9
  6
CONTINUOUS
 66
1
 70
0
  0
VERTEX
  8
0
 62
9
  6
CONTINUOUS
 10
333.1567622951
 20
260.929806549
  0
VERTEX
  8
0
 62
9
  6
CONTINUOUS
 10
333.4696312251
 20
260.9246870731
  0
VERTEX
  8
0
 62
9
  6
CONTINUOUS
 10
333.7747962837
 20
260.9094547041
  0
VERTEX
  8
0
 62
9
  6
CONTINUOUS
 10
334.0647432945
 20
260.8844845133
  0
VERTEX
  8
0
 62
9
  6
CONTINUOUS
 10
334.3323327996
 20
260.8503913497
  0
VERTEX
  8
0
 62
9
  6
CONTINUOUS
 10
334.5709758574
 20
260.8080147003
  0
VERTEX
  8
0
 62
9
  6
CONTINUOUS
 10
334.7747962838
 20
260.7583980186
  0
VERTEX
  8
0
 62
9
  6
CONTINUOUS
 10
334.9387753434
 20
260.7027630322
  0
VERTEX
  8
0
 62
9
  6
CONTINUOUS
 10
335.0588753277
 20
260.6424796589
  0
VERTEX
  8
0
 62
9
  6
CONTINUOUS
 10
335.1321389763
 20
260.5790322756
  0
VERTEX
  8
0
 62
9
  6
CONTINUOUS
 10
335.1567622951
 20
260.5139831673
  0
SEQEND
  0
POLYLINE
  8
0
 62
9
  6
CONTINUOUS
 66
1
 70
0
  0
VERTEX
  8
0
 62
9
  6
CONTINUOUS
 10
332.8242696455
 20
71.2078156122
  0
VERTEX
  8
0
 62
9
  6
CONTINUOUS
 10
333.1409300699
 20
71.3477274405
  0
VERTEX
  8
0
 62
9
  6
CONTINUOUS
 10
333.4279064329
 20
71.5385150946
  0
VERTEX
  8
0
 62
9
  6
CONTINUOUS
 10
333.6753230417
 20
71.7737171873
  0
VERTEX
  8
0
 62
9
  6
CONTINUOUS
 10
333.8760856948
 20
72.0464422064
  0
SEQEND
  0
POLYLINE
  8
0
 62
9
  6
CONTINUOUS
 66
1
 70
0
  0
VERTEX
  8
0
 62
9
  6
CONTINUOUS
 10
332.1450802431
 20
270.4165087585
  0
VERTEX
  8
0
 62
9
  6
CONTINUOUS
 10
332.5203027459
 20
270.4759737982
  0
VERTEX
  8
0
 62
9
  6
CONTINUOUS
 10
332.8797239857
 20
270.5092323307
  0
VERTEX
  8
0
 62
9
  6
CONTINUOUS
 10
333.2124550816
 20
270.5287740893
  0
VERTEX
  8
0
 62
9
  6
CONTINUOUS
 10
333.508528916
 20
270.5287030318
  0
VERTEX
  8
0
 62
9
  6
CONTINUOUS
 10
333.7538399672
 20
270.5094512596
  0
VERTEX
  8
0
 62
9
  6
CONTINUOUS
 10
333.9409355578
 20
270.4721243118
  0
VERTEX
  8
0
 62
9
  6
CONTINUOUS
 10
334.0638334832
 20
270.412498151
  0
VERTEX
  8
0
 62
9
  6
CONTINUOUS
 10
334.1146957525
 20
270.3476517552
  0
SEQEND
  0
POLYLINE
  8
0
 62
9
  6
CONTINUOUS
 66
1
 70
0
  0
VERTEX
  8
0
 62
9
  6
CONTINUOUS
 10
333.1111855541
 20
264.8702469701
  0
VERTEX
  8
0
 62
9
  6
CONTINUOUS
 10
333.4847231896
 20
264.9248437155
  0
VERTEX
  8
0
 62
9
  6
CONTINUOUS
 10
333.8447316328
 20
264.9624022729
  0
VERTEX
  8
0
 62
9
  6
CONTINUOUS
 10
334.1781717063
 20
264.9815623057
  0
VERTEX
  8
0
 62
9
  6
CONTINUOUS
 10
334.4729665148
 20
264.9816298549
  0
VERTEX
  8
0
 62
9
  6
CONTINUOUS
 10
334.7184388591
 20
264.9626024741
  0
VERTEX
  8
0
 62
9
  6
CONTINUOUS
 10
334.9056979548
 20
264.9251693175
  0
VERTEX
  8
0
 62
9
  6
CONTINUOUS
 10
335.0279614483
 20
264.8706861799
  0
VERTEX
  8
0
 62
9
  6
CONTINUOUS
 10
335.0808010673
 20
264.801126391
  0
SEQEND
  0
POLYLINE
  8
0
 62
9
  6
CONTINUOUS
 66
1
 70
0
  0
VERTEX
  8
0
 62
9
  6
CONTINUOUS
 10
322.2703099936
 20
271.9987852201
  0
VERTEX
  8
0
 62
9
  6
CONTINUOUS
 10
321.9263763817
 20
271.9689388354
  0
VERTEX
  8
0
 62
9
  6
CONTINUOUS
 10
321.5984853035
 20
271.8826821344
  0
VERTEX
  8
0
 62
9
  6
CONTINUOUS
 10
321.2859841528
 20
271.739998882
  0
VERTEX
  8
0
 62
9
  6
CONTINUOUS
 10
320.9997307438
 20
271.5437658789
  0
VERTEX
  8
0
 62
9
  6
CONTINUOUS
 10
320.7534164506
 20
271.3029144925
  0
VERTEX
  8
0
 62
9
  6
CONTINUOUS
 10
320.5514567848
 20
271.0222321738
  0
VERTEX
  8
0
 62
9
  6
CONTINUOUS
 10
320.4008078111
 20
270.7107710078
  0
VERTEX
  8
0
 62
9
  6
CONTINUOUS
 10
320.3065319767
 20
270.3792394439
  0
SEQEND
  0
POLYLINE
  8
0
 62
9
  6
CONTINUOUS
 66
1
 70
0
  0
VERTEX
  8
0
 62
9
  6
CONTINUOUS
 10
321.1567622951
 20
264.2829629762
  0
VERTEX
  8
0
 62
9
  6
CONTINUOUS
 10
320.766581651
 20
264.2749730465
  0
VERTEX
  8
0
 62
9
  6
CONTINUOUS
 10
320.3913954304
 20
264.251310306
  0
VERTEX
  8
0
 62
9
  6
CONTINUOUS
 10
320.045621829
 20
264.2128841004
  0
VERTEX
  8
0
 62
9
  6
CONTINUOUS
 10
319.7425487327
 20
264.1611711275
  0
VERTEX
  8
0
 62
9
  6
CONTINUOUS
 10
319.4938230705
 20
264.0981586876
  0
VERTEX
  8
0
 62
9
  6
CONTINUOUS
 10
319.3090032301
 20
264.0262683135
  0
VERTEX
  8
0
 62
9
  6
CONTINUOUS
 10
319.1951917343
 20
263.948262712
  0
SEQEND
  0
LINE
  8
0
 62
9
  6
CONTINUOUS
 10
332.1450802465
 20
270.4165087357
 11
322.2703099982
 21
270.4165087357
  0
LINE
  8
0
 62
9
  6
CONTINUOUS
 10
322.2703099982
 20
271.9987852234
 11
332.1450802465
 21
271.9987852234
  0
LINE
  8
1_AXIS
 62
7
  6
CONTINUOUS
 10
322.2703099982
 20
272.0965303186
 11
332.1450802465
 21
272.0965303186
  0
POLYLINE
  8
0
 62
9
  6
CONTINUOUS
 66
1
 70
0
  0
VERTEX
  8
0
 62
9
  6
CONTINUOUS
 10
333.1567622951
 20
264.3417261742
  0
VERTEX
  8
0
 62
9
  6
CONTINUOUS
 10
333.54694301
 20
264.3337362459
  0
VERTEX
  8
0
 62
9
  6
CONTINUOUS
 10
333.9221292722
 20
264.3100735017
  0
VERTEX
  8
0
 62
9
  6
CONTINUOUS
 10
334.2679028835
 20
264.2716472907
  0
VERTEX
  8
0
 62
9
  6
CONTINUOUS
 10
334.5709759646
 20
264.2199343131
  0
VERTEX
  8
0
 62
9
  6
CONTINUOUS
 10
334.8197015949
 20
264.1569218714
  0
VERTEX
  8
0
 62
9
  6
CONTINUOUS
 10
335.0045213994
 20
264.0850314991
  0
VERTEX
  8
0
 62
9
  6
CONTINUOUS
 10
335.1183328672
 20
264.0070259024
  0
SEQEND
  0
POLYLINE
  8
0
 62
9
  6
CONTINUOUS
 66
1
 70
0
  0
VERTEX
  8
0
 62
9
  6
CONTINUOUS
 10
332.1450802465
 20
271.9987852234
  0
VERTEX
  8
0
 62
9
  6
CONTINUOUS
 10
332.4890064765
 20
271.969020307
  0
VERTEX
  8
0
 62
9
  6
CONTINUOUS
 10
332.824269651
 20
271.8800418799
  0
VERTEX
  8
0
 62
9
  6
CONTINUOUS
 10
333.1409300779
 20
271.7334778107
  0
VERTEX
  8
0
 62
9
  6
CONTINUOUS
 10
333.4279064418
 20
271.5336189769
  0
VERTEX
  8
0
 62
9
  6
CONTINUOUS
 10
333.675323049
 20
271.2872339802
  0
VERTEX
  8
0
 62
9
  6
CONTINUOUS
 10
333.8760856993
 20
271.0015419966
  0
VERTEX
  8
0
 62
9
  6
CONTINUOUS
 10
334.0240826865
 20
270.6851255838
  0
VERTEX
  8
0
 62
9
  6
CONTINUOUS
 10
334.1146957525
 20
270.3476517552
  0
SEQEND
  0
POLYLINE
  8
0
 62
9
  6
CONTINUOUS
 66
1
 70
0
  0
VERTEX
  8
0
 62
9
  6
CONTINUOUS
 10
321.2110952628
 20
264.8596158559
  0
VERTEX
  8
0
 62
9
  6
CONTINUOUS
 10
320.8396020121
 20
264.9197387343
  0
VERTEX
  8
0
 62
9
  6
CONTINUOUS
 10
320.4814901931
 20
264.9627177144
  0
VERTEX
  8
0
 62
9
  6
CONTINUOUS
 10
320.1496592298
 20
264.987004665
  0
VERTEX
  8
0
 62
9
  6
CONTINUOUS
 10
319.8560618925
 20
264.991724754
  0
VERTEX
  8
0
 62
9
  6
CONTINUOUS
 10
319.6112737512
 20
264.9767079608
  0
VERTEX
  8
0
 62
9
  6
CONTINUOUS
 10
319.4241122362
 20
264.9424952
  0
VERTEX
  8
0
 62
9
  6
CONTINUOUS
 10
319.3013190289
 20
264.8903188381
  0
VERTEX
  8
0
 62
9
  6
CONTINUOUS
 10
319.2473172216
 20
264.8220583019
  0
SEQEND
  0
POLYLINE
  8
0
 62
9
  6
CONTINUOUS
 66
1
 70
0
  0
VERTEX
  8
0
 62
9
  6
CONTINUOUS
 10
322.2703100016
 20
270.4165087565
  0
VERTEX
  8
0
 62
9
  6
CONTINUOUS
 10
321.8974245269
 20
270.4816053327
  0
VERTEX
  8
0
 62
9
  6
CONTINUOUS
 10
321.5395552989
 20
270.520243942
  0
VERTEX
  8
0
 62
9
  6
CONTINUOUS
 10
321.2083420544
 20
270.5448685954
  0
VERTEX
  8
0
 62
9
  6
CONTINUOUS
 10
320.913512323
 20
270.5495302374
  0
VERTEX
  8
0
 62
9
  6
CONTINUOUS
 10
320.6688561937
 20
270.5342803151
  0
VERTEX
  8
0
 62
9
  6
CONTINUOUS
 10
320.4818883808
 20
270.5001711404
  0
VERTEX
  8
0
 62
9
  6
CONTINUOUS
 10
320.3584210366
 20
270.442874993
  0
VERTEX
  8
0
 62
9
  6
CONTINUOUS
 10
320.3065319767
 20
270.3792394439
  0
SEQEND
  0
ARC
  8
0
 62
9
  6
CONTINUOUS
 10
130.2513302032
 20
73.8079161837
 40
14.0
 50
82.047643807
 51
148.0
  0
ARC
  8
0
 62
9
  6
CONTINUOUS
 10
92.4625311509
 20
87.5619142274
 40
14.0
 50
352.0
 51
57.952356193
  0
ARC
  8
0
 62
9
  6
CONTINUOUS
 10
72.0435196289
 20
104.6954992646
 40
14.0
 50
42.047643807
 51
108.0
  0
ARC
  8
0
 62
9
  6
CONTINUOUS
 10
51.9365196289
 20
139.5218448524
 40
14.0
 50
312.0
 51
17.952356193
  0
ARC
  8
0
 62
9
  6
CONTINUOUS
 10
47.3079054898
 20
165.7720200692
 40
14.0
 50
2.047643807
 51
68.0
  0
ARC
  8
0
 62
7
  6
CONTINUOUS
 10
47.3079054898
 20
165.7720200692
 40
12.0
 50
2.047643807
 51
68.0
  0
ARC
  8
0
 62
7
  6
CONTINUOUS
 10
51.9365196289
 20
139.5218448524
 40
12.0
 50
312.0
 51
17.952356193
  0
ARC
  8
0
 62
7
  6
CONTINUOUS
 10
72.0435196289
 20
104.6954992646
 40
12.0
 50
42.047643807
 51
108.0
  0
ARC
  8
0
 62
7
  6
CONTINUOUS
 10
92.4625311509
 20
87.5619142274
 40
12.0
 50
352.0
 51
57.952356193
  0
ARC
  8
0
 62
7
  6
CONTINUOUS
 10
130.2513302032
 20
73.8079161837
 40
12.0
 50
82.047643807
 51
148.0
  0
ARC
  8
0
 62
7
  6
CONTINUOUS
 10
54.0968534253
 20
122.6281599252
 40
2.0
 50
132.0
 51
207.5022512366
  0
ARC
  8
0
 62
7
  6
CONTINUOUS
 10
58.4933262166
 20
115.0132456765
 40
2.0
 50
212.4977487634
 51
288.0
  0
ARC
  8
0
 62
7
  6
CONTINUOUS
 10
104.9764942041
 20
76.0092365622
 40
2.0
 50
172.0
 51
247.5022512366
  0
ARC
  8
0
 62
7
  6
CONTINUOUS
 10
113.2391602831
 20
73.0018720538
 40
2.0
 50
252.4977487634
 51
328.0
  0
ARC
  8
0
 62
9
  6
CONTINUOUS
 10
54.2909933065
 20
205.3750790488
 40
14.0
 50
272.0
 51
337.952356193
  0
ARC
  8
0
 62
9
  6
CONTINUOUS
 10
67.6185565474
 20
228.4590957232
 40
14.0
 50
322.047643807
 51
28.0
  0
ARC
  8
0
 62
9
  6
CONTINUOUS
 10
98.424267783
 20
254.3081566591
 40
14.0
 50
232.0
 51
297.952356193
  0
ARC
  8
0
 62
9
  6
CONTINUOUS
 10
123.4718934441
 20
263.4247468388
 40
14.0
 50
282.047643807
 51
348.0
  0
ARC
  8
0
 62
7
  6
CONTINUOUS
 10
98.424267783
 20
254.3081566591
 40
12.0
 50
232.0
 51
297.952356193
  0
ARC
  8
0
 62
7
  6
CONTINUOUS
 10
67.6185565474
 20
228.4590957232
 40
12.0
 50
322.047643807
 51
28.0
  0
ARC
  8
0
 62
7
  6
CONTINUOUS
 10
54.2909933065
 20
205.3750790488
 40
12.0
 50
272.0
 51
337.952356193
  0
ARC
  8
0
 62
7
  6
CONTINUOUS
 10
123.4718934441
 20
263.4247468388
 40
12.0
 50
282.047643807
 51
348.0
  0
ARC
  8
0
 62
7
  6
CONTINUOUS
 10
82.1623739167
 20
249.2470855857
 40
2.0
 50
52.0
 51
127.5022512366
  0
ARC
  8
0
 62
7
  6
CONTINUOUS
 10
75.4265868144
 20
243.5950891125
 40
2.0
 50
132.4977487634
 51
208.0
  0
ARC
  8
0
 62
7
  6
CONTINUOUS
 10
45.0868536534
 20
191.0451297894
 40
2.0
 50
92.0
 51
167.5022512366
  0
ARC
  8
0
 62
7
  6
CONTINUOUS
 10
43.5599746766
 20
182.3857688078
 40
2.0
 50
172.4977487634
 51
248.0
  0
ARC
  8
0
 62
7
  6
CONTINUOUS
 10
139.1824206528
 20
270.0006853541
 40
2.0
 50
92.4977487634
 51
168.0
  0
ARC
  8
0
 62
9
  6
CONTINUOUS
 10
156.906456685
 20
73.8079161837
 40
14.0
 50
32.0
 51
97.952356193
  0
ARC
  8
0
 62
7
  6
CONTINUOUS
 10
156.906456685
 20
73.8079161837
 40
12.0
 50
32.0
 51
97.952356193
  0
ARC
  8
0
 62
7
  6
CONTINUOUS
 10
173.9186266052
 20
73.0018720538
 40
2.0
 50
212.0
 51
287.5022512366
  0
ARC
  8
0
 62
7
  6
CONTINUOUS
 10
182.1812926842
 20
76.0092365622
 40
2.0
 50
292.4977487634
 51
8.0
  0
ARC
  8
0
 62
7
  6
CONTINUOUS
 10
143.5788934441
 20
169.2140303186
 40
102.8825
 50
87.5022512366
 51
92.4977487634
  0
ARC
  8
0
 62
7
  6
CONTINUOUS
 10
143.5788934441
 20
169.2140303186
 40
102.8825
 50
127.5022512366
 51
132.4977487634
  0
ARC
  8
0
 62
7
  6
CONTINUOUS
 10
143.5788934441
 20
169.2140303186
 40
102.8825
 50
167.5022512366
 51
172.4977487634
  0
ARC
  8
0
 62
7
  6
CONTINUOUS
 10
143.5788934441
 20
169.2140303186
 40
102.8825
 50
207.5022512366
 51
212.4977487634
  0
ARC
  8
0
 62
7
  6
CONTINUOUS
 10
143.5788934441
 20
169.2140303186
 40
102.8825
 50
247.5022512366
 51
252.4977487634
  0
ARC
  8
0
 62
7
  6
CONTINUOUS
 10
143.5788934441
 20
169.2140303186
 40
102.8825
 50
47.5022512366
 51
52.4977487634
  0
ARC
  8
0
 62
7
  6
CONTINUOUS
 10
143.5788934441
 20
169.2140303186
 40
102.8825
 50
7.5022512366
 51
12.4977487634
  0
ARC
  8
0
 62
7
  6
CONTINUOUS
 10
143.5788934441
 20
169.2140303186
 40
102.8825
 50
327.5022512366
 51
332.4977487634
  0
ARC
  8
0
 62
7
  6
CONTINUOUS
 10
143.5788934441
 20
169.2140303186
 40
102.8825
 50
287.5022512366
 51
292.4977487634
  0
ARC
  8
0
 62
9
  6
CONTINUOUS
 10
143.5788934441
 20
169.2140303186
 40
101.2297963553
 50
247.5022512366
 51
252.4977487634
  0
ARC
  8
0
 62
9
  6
CONTINUOUS
 10
143.5788934441
 20
169.2140303186
 40
101.2297963553
 50
87.5022512366
 51
92.4977487634
  0
ARC
  8
0
 62
9
  6
CONTINUOUS
 10
143.5788934441
 20
169.2140303186
 40
101.2297963553
 50
207.5022512366
 51
212.4977487634
  0
ARC
  8
0
 62
9
  6
CONTINUOUS
 10
143.5788934441
 20
169.2140303186
 40
101.2297963553
 50
47.5022512366
 51
52.4977487634
  0
ARC
  8
0
 62
9
  6
CONTINUOUS
 10
143.5788934441
 20
169.2140303186
 40
101.2297963553
 50
167.5022512366
 51
172.4977487634
  0
ARC
  8
0
 62
9
  6
CONTINUOUS
 10
143.5788934441
 20
169.2140303186
 40
101.2297963553
 50
7.5022512366
 51
12.4977487634
  0
ARC
  8
0
 62
9
  6
CONTINUOUS
 10
143.5788934441
 20
169.2140303186
 40
101.2297963553
 50
127.5022512366
 51
132.4977487634
  0
ARC
  8
0
 62
9
  6
CONTINUOUS
 10
143.5788934441
 20
169.2140303186
 40
101.2297963553
 50
327.5022512366
 51
332.4977487634
  0
ARC
  8
0
 62
9
  6
CONTINUOUS
 10
143.5788934441
 20
169.2140303186
 40
101.2297963553
 50
287.5022512366
 51
292.4977487634
  0
ARC
  8
0
 62
9
  6
CONTINUOUS
 10
143.5788934441
 20
169.2140303186
 40
95.7507408883
 50
86.649731919
 51
93.3502680809
  0
ARC
  8
0
 62
9
  6
CONTINUOUS
 10
143.5788934441
 20
169.2140303186
 40
95.7507408883
 50
46.649731919
 51
53.3502680804
  0
ARC
  8
0
 62
9
  6
CONTINUOUS
 10
143.5788934441
 20
169.2140303186
 40
95.7507408883
 50
6.649731919
 51
13.3502680809
  0
ARC
  8
0
 62
9
  6
CONTINUOUS
 10
143.5788934441
 20
169.2140303186
 40
95.7507408883
 50
326.649731919
 51
333.3502680809
  0
ARC
  8
0
 62
9
  6
CONTINUOUS
 10
143.5788934441
 20
169.2140303186
 40
95.7507408883
 50
126.649731919
 51
133.3502680809
  0
ARC
  8
0
 62
9
  6
CONTINUOUS
 10
143.5788934441
 20
169.2140303186
 40
95.7507408883
 50
246.649731919
 51
253.3502680809
  0
ARC
  8
0
 62
9
  6
CONTINUOUS
 10
143.5788934441
 20
169.2140303186
 40
95.7507408883
 50
206.649731919
 51
213.3502680809
  0
ARC
  8
0
 62
9
  6
CONTINUOUS
 10
143.5788934441
 20
169.2140303186
 40
95.7507408883
 50
166.649731919
 51
173.3502680809
  0
ARC
  8
0
 62
9
  6
CONTINUOUS
 10
143.5788934441
 20
169.2140303186
 40
95.7507408883
 50
286.649731919
 51
293.3502680809
  0
ARC
  8
0
 62
7
  6
CONTINUOUS
 10
143.5788934441
 20
169.2140303186
 40
84.3325
 50
102.047643807
 51
117.952356193
  0
ARC
  8
0
 62
7
  6
CONTINUOUS
 10
143.5788934441
 20
169.2140303186
 40
84.3325
 50
142.047643807
 51
157.952356193
  0
ARC
  8
0
 62
7
  6
CONTINUOUS
 10
143.5788934441
 20
169.2140303186
 40
84.3325
 50
182.047643807
 51
197.952356193
  0
ARC
  8
0
 62
7
  6
CONTINUOUS
 10
143.5788934441
 20
169.2140303186
 40
84.3325
 50
222.047643807
 51
237.952356193
  0
ARC
  8
0
 62
7
  6
CONTINUOUS
 10
143.5788934441
 20
169.2140303186
 40
84.3325
 50
262.047643807
 51
277.952356193
  0
ARC
  8
0
 62
7
  6
CONTINUOUS
 10
143.5788934441
 20
169.2140303186
 40
84.3325
 50
302.047643807
 51
317.952356193
  0
ARC
  8
0
 62
7
  6
CONTINUOUS
 10
143.5788934441
 20
169.2140303186
 40
84.3325
 50
342.047643807
 51
357.952356193
  0
ARC
  8
0
 62
7
  6
CONTINUOUS
 10
143.5788934441
 20
169.2140303186
 40
84.3325
 50
62.047643807
 51
77.952356193
  0
ARC
  8
0
 62
7
  6
CONTINUOUS
 10
143.5788934441
 20
169.2140303186
 40
84.3325
 50
22.047643807
 51
37.952356193
  0
ARC
  8
0
 62
9
  6
CONTINUOUS
 10
143.5788934441
 20
169.2140303186
 40
82.3325
 50
222.047643807
 51
237.952356193
  0
ARC
  8
0
 62
9
  6
CONTINUOUS
 10
143.5788934441
 20
169.2140303186
 40
82.3325
 50
182.047643807
 51
197.952356193
  0
ARC
  8
0
 62
9
  6
CONTINUOUS
 10
143.5788934441
 20
169.2140303186
 40
82.3325
 50
142.047643807
 51
157.952356193
  0
ARC
  8
0
 62
9
  6
CONTINUOUS
 10
143.5788934441
 20
169.2140303186
 40
82.3325
 50
102.047643807
 51
117.952356193
  0
ARC
  8
0
 62
9
  6
CONTINUOUS
 10
143.5788934441
 20
169.2140303186
 40
82.3325
 50
62.047643807
 51
77.952356193
  0
ARC
  8
0
 62
9
  6
CONTINUOUS
 10
143.5788934441
 20
169.2140303186
 40
82.3325
 50
22.047643807
 51
37.952356193
  0
ARC
  8
0
 62
9
  6
CONTINUOUS
 10
143.5788934441
 20
169.2140303186
 40
82.3325
 50
342.047643807
 51
357.952356193
  0
ARC
  8
0
 62
9
  6
CONTINUOUS
 10
143.5788934441
 20
169.2140303186
 40
82.3325
 50
302.047643807
 51
317.952356193
  0
ARC
  8
0
 62
9
  6
CONTINUOUS
 10
143.5788934441
 20
169.2140303186
 40
82.3325
 50
262.047643807
 51
277.952356193
  0
CIRCLE
  8
1_AXIS
 62
9
  6
CONTINUOUS
 10
143.5788934441
 20
169.2140303186
 40
42.5
  0
CIRCLE
  8
1_AXIS
 62
7
  6
CONTINUOUS
 10
143.5788934441
 20
169.2140303186
 40
37.5
  0
CIRCLE
  8
1_AXIS
 62
9
  6
CONTINUOUS
 10
143.5788934441
 20
169.2140303186
 40
35.5
  0
ARC
  8
0
 62
9
  6
CONTINUOUS
 10
215.1142672593
 20
104.6954992646
 40
14.0
 50
72.0
 51
137.952356193
  0
ARC
  8
0
 62
9
  6
CONTINUOUS
 10
194.6952557373
 20
87.5619142274
 40
14.0
 50
122.047643807
 51
188.0
  0
ARC
  8
0
 62
7
  6
CONTINUOUS
 10
194.6952557373
 20
87.5619142274
 40
12.0
 50
122.047643807
 51
188.0
  0
ARC
  8
0
 62
7
  6
CONTINUOUS
 10
215.1142672593
 20
104.6954992646
 40
12.0
 50
72.0
 51
137.952356193
  0
ARC
  8
0
 62
7
  6
CONTINUOUS
 10
228.6644606717
 20
115.0132456765
 40
2.0
 50
252.0
 51
327.5022512366
  0
ARC
  8
0
 62
9
  6
CONTINUOUS
 10
239.8498813984
 20
165.7720200692
 40
14.0
 50
112.0
 51
177.952356193
  0
ARC
  8
0
 62
9
  6
CONTINUOUS
 10
235.2212672593
 20
139.5218448524
 40
14.0
 50
162.047643807
 51
228.0
  0
ARC
  8
0
 62
7
  6
CONTINUOUS
 10
235.2212672593
 20
139.5218448524
 40
12.0
 50
162.047643807
 51
228.0
  0
ARC
  8
0
 62
7
  6
CONTINUOUS
 10
239.8498813984
 20
165.7720200692
 40
12.0
 50
112.0
 51
177.952356193
  0
ARC
  8
0
 62
7
  6
CONTINUOUS
 10
233.060933463
 20
122.6281599252
 40
2.0
 50
332.4977487634
 51
48.0
  0
ARC
  8
0
 62
9
  6
CONTINUOUS
 10
163.6858934441
 20
263.4247468388
 40
14.0
 50
192.0
 51
257.952356193
  0
ARC
  8
0
 62
9
  6
CONTINUOUS
 10
188.7335191052
 20
254.3081566591
 40
14.0
 50
242.047643807
 51
308.0
  0
ARC
  8
0
 62
9
  6
CONTINUOUS
 10
219.5392303408
 20
228.4590957232
 40
14.0
 50
152.0
 51
217.952356193
  0
ARC
  8
0
 62
9
  6
CONTINUOUS
 10
232.8667935817
 20
205.3750790488
 40
14.0
 50
202.047643807
 51
268.0
  0
ARC
  8
0
 62
7
  6
CONTINUOUS
 10
163.6858934441
 20
263.4247468388
 40
12.0
 50
192.0
 51
257.952356193
  0
ARC
  8
0
 62
7
  6
CONTINUOUS
 10
188.7335191052
 20
254.3081566591
 40
12.0
 50
242.047643807
 51
308.0
  0
ARC
  8
0
 62
7
  6
CONTINUOUS
 10
219.5392303408
 20
228.4590957232
 40
12.0
 50
152.0
 51
217.952356193
  0
ARC
  8
0
 62
7
  6
CONTINUOUS
 10
232.8667935817
 20
205.3750790488
 40
12.0
 50
202.047643807
 51
268.0
  0
CIRCLE
  8
0
 62
7
  6
CONTINUOUS
 10
143.5788934441
 20
224.2140303186
 40
2.5980762114
  0
ARC
  8
0
 62
7
  6
CONTINUOUS
 10
147.9753662354
 20
270.0006853541
 40
2.0
 50
12.0
 51
87.5022512366
  0
ARC
  8
0
 62
7
  6
CONTINUOUS
 10
204.9954129716
 20
249.2470855857
 40
2.0
 50
52.4977487634
 51
128.0
  0
ARC
  8
0
 62
7
  6
CONTINUOUS
 10
243.5978122116
 20
182.3857688078
 40
2.0
 50
292.0
 51
7.5022512366
  0
ARC
  8
0
 62
7
  6
CONTINUOUS
 10
242.0709332349
 20
191.0451297894
 40
2.0
 50
12.4977487634
 51
88.0
  0
ARC
  8
0
 62
7
  6
CONTINUOUS
 10
211.7312000738
 20
243.5950891125
 40
2.0
 50
332.0
 51
47.5022512366
  0
ARC
  8
1_AXIS
 62
7
  6
CONTINUOUS
 10
314.1567622951
 20
211.7140303186
 40
5.0
 50
270.0
 51
360.0
  0
ARC
  8
1_AXIS
 62
7
  6
CONTINUOUS
 10
314.1567622951
 20
126.7140303186
 40
5.0
 50
0.0
 51
90.0
  0
ARC
  8
1_AXIS
 62
7
  6
CONTINUOUS
 10
324.1567622951
 20
264.0386228829
 40
5.0
 50
169.0789005403
 51
180.0
  0
ARC
  8
1_AXIS
 62
7
  6
CONTINUOUS
 10
330.1567622951
 20
264.0965303186
 40
5.0
 50
0.0000010424
 51
10.0
  0
ARC
  8
1_AXIS
 62
7
  6
CONTINUOUS
 10
340.1567622951
 20
211.7140303186
 40
5.0
 50
201.4834367199
 51
270.0
  0
ARC
  8
1_AXIS
 62
7
  6
CONTINUOUS
 10
340.1567622951
 20
126.7140303186
 40
5.0
 50
90.0
 51
172.5
  0
ARC
  8
0
 62
7
  6
CONTINUOUS
 10
332.1450802465
 20
270.0965303186
 40
2.0
 50
10.0
 51
90.0
  0
ARC
  8
0
 62
7
  6
CONTINUOUS
 10
322.2703099982
 20
270.0965303186
 40
2.0
 50
90.0
 51
169.0789005353
  0
ARC
  8
1_AXIS
 62
7
  6
CONTINUOUS
 10
308.0067622951
 20
204.7140303186
 40
2.0
 50
90.0
 51
180.0
  0
ARC
  8
1_AXIS
 62
7
  6
CONTINUOUS
 10
308.0067622951
 20
133.7140303186
 40
2.0
 50
180.0
 51
270.0
  0
ARC
  8
1_AXIS
 62
7
  6
CONTINUOUS
 10
346.3067622951
 20
204.7140303186
 40
2.0
 50
0.0
 51
90.0
  0
ARC
  8
1_AXIS
 62
7
  6
CONTINUOUS
 10
346.3067622951
 20
133.7140303186
 40
2.0
 50
270.0
 51
360.0
  0
ENDSEC
  0
EOF
