  0
SECTION
  2
HEADER
  9
$EXTMAX
 10
420.0
 20
297.0
 30
0.0
  9
$EXTMIN
 10
0.0
 20
0.0
 30
0.0
  9
$LIMMIN
 10
0.0
 20
0.0
  9
$LIMMAX
 10
420.0
 20
297.0
  9
$VIEWCTR
 10
210.0
 20
148.5
  9
$VIEWSIZE
 40
297.0
  9
$CLAYER
  8
0
  9
$LTSCALE
 40
23.1
  9
$CELTYPE
  6
BYLAYER
  9
$DIMSCALE
 40
1.0
  9
$DIMASZ
 40
3.5
  9
$DIMEXO
 40
1.0
  9
$DIMDLI
 40
15.96
  9
$DIMEXE
 40
2.0
  9
$DIMCEN
 40
3.78
  9
$DIMLFAC
 40
1.0
  9
$DIMBLK
  1
_FILLED
  9
$DIMTXT
 40
3.5
  9
$PDMODE
 70
3
  9
$PDSIZE
 40
0.3125
  9
$TILEMODE
 70
1
  0
ENDSEC
  0
SECTION
  2
TABLES
  0
TABLE
  2
LTYPE
 70
6
  0
LTYPE
  2
BYBLOCK
 70
0
  3

 72
65
 73
0
 40
0.0
  0
LTYPE
  2
BYLAYER
 70
0
  3

 72
65
 73
0
 40
0.0
  0
LTYPE
  2
CONTINUOUS
 70
64
  3
Solid line
 72
65
 73
0
 40
0.0
  0
LTYPE
  2
CENTER
 70
64
  3
____ _ ____ _ ____ _ ____ _ ____ _ ____ _ ____
 72
65
 73
4
 40
0.6
 49
0.375
 49
-0.075
 49
0.075
 49
-0.075
  0
LTYPE
  2
HIDDEN
 70
64
  3
- - - - - - - - - - - - - - - - - - - -
 72
65
 73
2
 40
0.2
 49
0.1
 49
-0.1
  0
LTYPE
  2
PHANTOM
 70
64
  3
_____ _ _ _____ _ _ _____ _ _ _____
 72
65
 73
6
 40
0.8
 49
0.45
 49
-0.05
 49
0.1
 49
-0.05
 49
0.1
 49
-0.05
  0
LTYPE
  2
DOT
 70
64
  3
. . . . . . . . . . . . . . . . . . . .
 72
65
 73
2
 40
0.2
 49
0.1
 49
-0.1
  0
LTYPE
  2
DASHED
 70
64
  3
- - - - - - - - - - - - - - - - - - - -
 72
65
 73
2
 40
0.2
 49
0.1
 49
-0.1
  0
ENDTAB
  0
TABLE
  2
LAYER
 70
36
  0
LAYER
  2
0
 70
0
 62
7
  6
CONTINUOUS
  0
LAYER
  2
DEFAULT_1
 70
0
 62
7
  6
CENTER
  0
LAYER
  2
DEFAULT_2
 70
0
 62
8
  6
HIDDEN
  0
LAYER
  2
DEFAULT_3
 70
0
 62
7
  6
PHANTOM
  0
LAYER
  2
10-PART-SURF
 70
0
 62
7
  6
CONTINUOUS
  0
LAYER
  2
CENTERPLANER
 70
0
 62
7
  6
CONTINUOUS
  0
LAYER
  2
CENTER_AXER
 70
0
 62
7
  6
CONTINUOUS
  0
LAYER
  2
CURVE_RUNDING
 70
0
 62
7
  6
CONTINUOUS
  0
LAYER
  2
HELP_GEOMETRI
 70
0
 62
7
  6
CONTINUOUS
  0
LAYER
  2
LUKKEFLADE1
 70
0
 62
7
  6
CONTINUOUS
  0
LAYER
  2
LUKKEFLADE2
 70
0
 62
7
  6
CONTINUOUS
  0
LAYER
  2
LUKKEFLADE3
 70
0
 62
7
  6
CONTINUOUS
  0
LAYER
  2
NOTES
 70
0
 62
7
  6
CONTINUOUS
  0
LAYER
  2
PLANER_GLIDE
 70
0
 62
7
  6
CONTINUOUS
  0
LAYER
  2
PLANES
 70
0
 62
7
  6
CONTINUOUS
  0
LAYER
  2
PLAN_CHAMF
 70
0
 62
7
  6
CONTINUOUS
  0
LAYER
  2
PLAN_SIDESTYR
 70
0
 62
7
  6
CONTINUOUS
  0
LAYER
  2
QUILT
 70
0
 62
7
  6
CONTINUOUS
  0
LAYER
  2
ROUND_SPLIT
 70
0
 62
7
  6
CONTINUOUS
  0
LAYER
  2
SIDE_KERNER
 70
0
 62
7
  6
CONTINUOUS
  0
LAYER
  2
TRAKHUL
 70
0
 62
7
  6
CONTINUOUS
  0
LAYER
  2
VARIABLE
 70
0
 62
7
  6
CONTINUOUS
  0
ENDTAB
  0
TABLE
  2
STYLE
 70
1
  0
STYLE
  2
STANDARD
 70
0
 40
0.0
 41
0.8
 50
0.0
 71
0
 42
0.2
  3
txt
  4

  0
STYLE
  2
TEXTSTYLE_1
 70
0
 40
0.0
 41
0.8
 50
0.0
 71
0
 42
0.2
  3
gdt
  4

  0
STYLE
  2
TEXTSTYLE_2
 70
0
 40
0.0
 41
0.6
 50
0.0
 71
0
 42
0.2
  3
txt
  4

  0
STYLE
  2
TEXTSTYLE_3
 70
0
 40
0.0
 41
1.0
 50
0.0
 71
0
 42
0.2
  3
ftb_____.ttf
  4

  0
STYLE
  2
TEXTSTYLE_4
 70
0
 40
0.0
 41
1.0
 50
0.0
 71
0
 42
0.2
  3
fti_____.ttf
  4

  0
STYLE
  2
TEXTSTYLE_5
 70
0
 40
0.0
 41
1.0
 50
0.0
 71
0
 42
0.2
  3
frutiger light.ttf
  4

  0
STYLE
  2
TEXTSTYLE_6
 70
0
 40
0.0
 41
0.7
 50
0.0
 71
0
 42
0.2
  3
txt
  4

  0
STYLE
  2
TEXTSTYLE_7
 70
0
 40
0.0
 41
0.8
 50
0.0
 71
0
 42
0.2
  3
txt
  4

  0
ENDTAB
  0
ENDSEC
  0
SECTION
  2
BLOCKS
  0
BLOCK
  8
0
 62
2
  6
CONTINUOUS
  2
SYMBOL_5_BL1
 70
64
 10
382.3920721743
 20
35.81661148
  0
TEXT
  8
0
 62
7
  6
CONTINUOUS
 10
373.4503571828
 20
30.9093678571
  7
TEXTSTYLE_4
 40
1.0655737705
  1
The brand for plastic modular belts and chains
 41
1.0
 72
0
  0
LINE
  8
0
 62
7
  6
CONTINUOUS
 10
358.3701405634
 20
36.3903819718
 11
358.3701405634
 21
34.2592344308
  0
LINE
  8
0
 62
7
  6
CONTINUOUS
 10
358.6592030565
 20
31.2683031351
 11
358.6592030565
 21
31.3650941944
  0
LINE
  8
0
 62
7
  6
CONTINUOUS
 10
358.3701405634
 20
31.332830508
 11
358.4279530651
 21
31.1392483894
  0
LINE
  8
0
 62
7
  6
CONTINUOUS
 10
359.7635831863
 20
34.1772672177
 11
359.7635831863
 21
36.3903819718
  0
LINE
  8
0
 62
7
  6
CONTINUOUS
 10
360.6826405082
 20
32.3330049227
 11
360.6826405082
 21
30.81661148
  0
LINE
  8
0
 62
7
  6
CONTINUOUS
 10
360.9717030634
 20
30.81661148
 11
360.9717030634
 21
31.5586763581
  0
LINE
  8
0
 62
7
  6
CONTINUOUS
 10
360.9717030634
 20
31.6877311038
 11
360.9717030634
 21
32.3330049227
  0
LINE
  8
0
 62
7
  6
CONTINUOUS
 10
358.4279530651
 20
31.5264126717
 11
358.3701405634
 21
31.332830508
  0
LINE
  8
0
 62
7
  6
CONTINUOUS
 10
358.7748280496
 20
31.106984703
 11
358.6592030565
 21
31.2683031351
  0
LINE
  8
0
 62
7
  6
CONTINUOUS
 10
359.8732656185
 20
31.623203731
 11
359.9310780634
 21
31.5264126717
  0
LINE
  8
0
 62
7
  6
CONTINUOUS
 10
360.2201406185
 20
31.5264126717
 11
360.1623280082
 21
31.6554674174
  0
LINE
  8
0
 62
7
  6
CONTINUOUS
 10
361.648829088
 20
36.3903819718
 11
361.648829088
 21
34.5871032833
  0
LINE
  8
0
 62
7
  6
CONTINUOUS
 10
361.648829088
 20
33.2756278735
 11
361.648829088
 21
32.6198901686
  0
LINE
  8
0
 62
7
  6
CONTINUOUS
 10
362.0123280634
 20
31.4618852989
 11
362.0123280634
 21
30.81661148
  0
LINE
  8
0
 62
7
  6
CONTINUOUS
 10
362.3013904531
 20
30.81661148
 11
362.3013904531
 21
31.4618852989
  0
LINE
  8
0
 62
7
  6
CONTINUOUS
 10
358.6592030565
 20
31.3650941944
 11
358.7170155634
 21
31.4941489853
  0
LINE
  8
0
 62
7
  6
CONTINUOUS
 10
358.4279530651
 20
31.1392483894
 11
358.5435780634
 21
31.0101936212
  0
LINE
  8
0
 62
7
  6
CONTINUOUS
 10
361.9545154531
 20
31.5909400446
 11
362.0123280634
 21
31.4618852989
  0
LINE
  8
0
 62
7
  6
CONTINUOUS
 10
362.7638906736
 20
31.106984703
 11
362.8217029531
 21
30.9779299347
  0
LINE
  8
0
 62
7
  6
CONTINUOUS
 10
362.3013904531
 20
31.4618852989
 11
362.2435781736
 21
31.623203731
  0
LINE
  8
0
 62
7
  6
CONTINUOUS
 10
362.7638906736
 20
31.6554674174
 11
362.7638906736
 21
31.5909400446
  0
LINE
  8
0
 62
7
  6
CONTINUOUS
 10
362.7638906736
 20
31.2037757623
 11
362.7638906736
 21
31.106984703
  0
LINE
  8
0
 62
7
  6
CONTINUOUS
 10
363.0422717109
 20
32.6198901686
 11
363.0422717109
 21
36.3903819718
  0
LINE
  8
0
 62
7
  6
CONTINUOUS
 10
363.0529530634
 20
31.074720994
 11
363.0529530634
 21
31.1392483894
  0
LINE
  8
0
 62
7
  6
CONTINUOUS
 10
363.3701405634
 20
36.3903819718
 11
363.3701405634
 21
32.6198901686
  0
LINE
  8
0
 62
7
  6
CONTINUOUS
 10
360.1623280082
 20
31.0101936212
 11
360.2201406185
 21
31.1392483894
  0
LINE
  8
0
 62
7
  6
CONTINUOUS
 10
364.5560782839
 20
30.9134025506
 11
364.4982653428
 21
31.074720994
  0
LINE
  8
0
 62
7
  6
CONTINUOUS
 10
364.2092032839
 20
31.5909400446
 11
364.2092032839
 21
31.4941489853
  0
LINE
  8
0
 62
7
  6
CONTINUOUS
 10
364.2092032839
 20
31.3650941944
 11
364.2092032839
 21
31.1715120759
  0
LINE
  8
0
 62
7
  6
CONTINUOUS
 10
364.4982653428
 20
31.074720994
 11
364.4982653428
 21
31.5909400446
  0
LINE
  8
0
 62
7
  6
CONTINUOUS
 10
364.7635831863
 20
32.6198901686
 11
364.7635831863
 21
34.4231688571
  0
LINE
  8
0
 62
7
  6
CONTINUOUS
 10
364.7635831863
 20
35.7346442669
 11
364.7635831863
 21
36.3903819718
  0
LINE
  8
0
 62
7
  6
CONTINUOUS
 10
365.0763907839
 20
32.3330049227
 11
365.0763907839
 21
32.1716864905
  0
LINE
  8
0
 62
7
  6
CONTINUOUS
 10
365.0763907839
 20
31.8490495359
 11
365.0763907839
 21
30.81661148
  0
LINE
  8
0
 62
7
  6
CONTINUOUS
 10
365.3654528428
 20
30.81661148
 11
365.3654528428
 21
31.8490495359
  0
LINE
  8
0
 62
7
  6
CONTINUOUS
 10
365.3654528428
 20
32.1716864905
 11
365.3654528428
 21
32.3330049227
  0
LINE
  8
0
 62
7
  6
CONTINUOUS
 10
359.9310780634
 20
31.1392483894
 11
359.8732656185
 21
31.0424573076
  0
LINE
  8
0
 62
7
  6
CONTINUOUS
 10
362.2435781736
 20
31.623203731
 11
362.1857655634
 21
31.6877311038
  0
LINE
  8
0
 62
7
  6
CONTINUOUS
 10
363.1107656736
 20
31.0101936212
 11
363.0529530634
 21
31.074720994
  0
LINE
  8
0
 62
7
  6
CONTINUOUS
 10
364.2670155634
 20
30.8811388585
 11
364.3248278428
 21
30.81661148
  0
LINE
  8
0
 62
7
  6
CONTINUOUS
 10
364.2092032839
 20
30.9779299347
 11
364.2670155634
 21
30.8811388585
  0
LINE
  8
0
 62
7
  6
CONTINUOUS
 10
364.6138905634
 20
30.81661148
 11
364.5560782839
 21
30.9134025506
  0
LINE
  8
0
 62
7
  6
CONTINUOUS
 10
364.4982653428
 20
31.5909400446
 11
364.4404530634
 21
31.6877311038
  0
LINE
  8
0
 62
7
  6
CONTINUOUS
 10
365.8279530634
 20
31.8490495359
 11
365.8279530634
 21
30.81661148
  0
LINE
  8
0
 62
7
  6
CONTINUOUS
 10
366.1170157839
 20
30.81661148
 11
366.1170157839
 21
31.5586763581
  0
LINE
  8
0
 62
7
  6
CONTINUOUS
 10
366.1170157839
 20
31.6877311038
 11
366.1170157839
 21
31.8490495359
  0
LINE
  8
0
 62
7
  6
CONTINUOUS
 10
366.648829088
 20
34.8330049227
 11
366.648829088
 21
32.6198901686
  0
LINE
  8
0
 62
7
  6
CONTINUOUS
 10
358.5435780634
 20
31.6554674174
 11
358.4279530651
 21
31.5264126717
  0
LINE
  8
0
 62
7
  6
CONTINUOUS
 10
358.7170155634
 20
31.4941489853
 11
358.7748280496
 21
31.5586763581
  0
LINE
  8
0
 62
7
  6
CONTINUOUS
 10
358.5435780634
 20
31.0101936212
 11
358.6592030565
 21
30.945666237
  0
LINE
  8
0
 62
7
  6
CONTINUOUS
 10
358.9482655496
 20
31.0101936212
 11
358.7748280496
 21
31.106984703
  0
LINE
  8
0
 62
7
  6
CONTINUOUS
 10
364.1513903428
 20
31.6554674174
 11
364.2092032839
 21
31.5909400446
  0
LINE
  8
0
 62
7
  6
CONTINUOUS
 10
367.0998278428
 20
31.5909400446
 11
367.1576407839
 21
31.4296216124
  0
LINE
  8
0
 62
7
  6
CONTINUOUS
 10
367.4467028428
 20
31.4296216124
 11
367.3888905634
 21
31.5909400446
  0
LINE
  8
0
 62
7
  6
CONTINUOUS
 10
367.1576407839
 20
31.4296216124
 11
367.1576407839
 21
30.81661148
  0
LINE
  8
0
 62
7
  6
CONTINUOUS
 10
367.4467028428
 20
30.81661148
 11
367.4467028428
 21
31.4296216124
  0
LINE
  8
0
 62
7
  6
CONTINUOUS
 10
367.9092030634
 20
31.6554674174
 11
367.9092030634
 21
31.5909400446
  0
LINE
  8
0
 62
7
  6
CONTINUOUS
 10
368.0422717109
 20
32.6198901686
 11
368.0422717109
 21
34.7510377095
  0
LINE
  8
0
 62
7
  6
CONTINUOUS
 10
368.3701405634
 20
36.3903819718
 11
368.3701405634
 21
32.6198901686
  0
LINE
  8
0
 62
7
  6
CONTINUOUS
 10
363.0529530634
 20
31.1392483894
 11
363.1107656736
 21
31.2360394487
  0
LINE
  8
0
 62
7
  6
CONTINUOUS
 10
358.6592030565
 20
30.945666237
 11
358.8326405772
 21
30.8811388585
  0
LINE
  8
0
 62
7
  6
CONTINUOUS
 10
360.1623280082
 20
31.6554674174
 11
359.9888905082
 21
31.7522584767
  0
LINE
  8
0
 62
7
  6
CONTINUOUS
 10
362.8217029531
 20
30.9779299347
 11
362.9951404531
 21
30.8811388585
  0
LINE
  8
0
 62
7
  6
CONTINUOUS
 10
361.8388905634
 20
31.6554674174
 11
361.9545154531
 21
31.5909400446
  0
LINE
  8
0
 62
7
  6
CONTINUOUS
 10
362.1857655634
 20
31.6877311038
 11
362.0701406736
 21
31.7522584767
  0
LINE
  8
0
 62
7
  6
CONTINUOUS
 10
367.9092030634
 20
31.074720994
 11
368.0248282839
 21
30.945666237
  0
LINE
  8
0
 62
7
  6
CONTINUOUS
 10
368.2560780634
 20
31.0101936212
 11
368.1982657839
 21
31.074720994
  0
LINE
  8
0
 62
7
  6
CONTINUOUS
 10
367.9092030634
 20
31.5909400446
 11
368.0248282839
 21
31.4618852989
  0
LINE
  8
0
 62
7
  6
CONTINUOUS
 10
367.3888905634
 20
31.5909400446
 11
367.3310782839
 21
31.6877311038
  0
LINE
  8
0
 62
7
  6
CONTINUOUS
 10
369.7592026223
 20
31.0101936212
 11
369.7592026223
 21
31.074720994
  0
LINE
  8
0
 62
7
  6
CONTINUOUS
 10
369.7635831863
 20
32.6198901686
 11
369.7635831863
 21
36.3903819718
  0
LINE
  8
0
 62
7
  6
CONTINUOUS
 10
362.8217029531
 20
31.7199947902
 11
362.7638906736
 21
31.6554674174
  0
LINE
  8
0
 62
7
  6
CONTINUOUS
 10
359.6998280358
 20
31.6877311038
 11
359.8732656185
 21
31.623203731
  0
LINE
  8
0
 62
7
  6
CONTINUOUS
 10
364.4404530634
 20
31.6877311038
 11
364.3248278428
 21
31.7522584767
  0
LINE
  8
0
 62
7
  6
CONTINUOUS
 10
368.2560780634
 20
31.5264126717
 11
368.1982657839
 21
31.5909400446
  0
LINE
  8
0
 62
7
  6
CONTINUOUS
 10
369.4123282839
 20
31.1392483894
 11
369.4701405634
 21
31.074720994
  0
LINE
  8
0
 62
7
  6
CONTINUOUS
 10
369.7592026223
 20
31.074720994
 11
369.6435780634
 21
31.2037757623
  0
LINE
  8
0
 62
7
  6
CONTINUOUS
 10
369.4123282839
 20
31.6554674174
 11
369.4701405634
 21
31.5909400446
  0
LINE
  8
0
 62
7
  6
CONTINUOUS
 10
369.7592026223
 20
31.5909400446
 11
369.6435780634
 21
31.7199947902
  0
LINE
  8
0
 62
7
  6
CONTINUOUS
 10
363.0529530634
 20
31.5909400446
 11
363.1107656736
 21
31.6554674174
  0
LINE
  8
0
 62
7
  6
CONTINUOUS
 10
362.8795155634
 20
31.332830508
 11
362.7638906736
 21
31.2037757623
  0
LINE
  8
0
 62
7
  6
CONTINUOUS
 10
364.2092032839
 20
31.1715120759
 11
364.1513903428
 21
31.106984703
  0
LINE
  8
0
 62
7
  6
CONTINUOUS
 10
364.1513903428
 20
30.9134025506
 11
364.2092032839
 21
30.9779299347
  0
LINE
  8
0
 62
7
  6
CONTINUOUS
 10
362.9951404531
 20
30.8811388585
 11
363.1107656736
 21
30.8488751693
  0
LINE
  8
0
 62
7
  6
CONTINUOUS
 10
359.9888905082
 20
31.7522584767
 11
359.7576405634
 21
31.8167858495
  0
LINE
  8
0
 62
7
  6
CONTINUOUS
 10
363.3420154531
 20
30.945666237
 11
363.1107656736
 21
31.0101936212
  0
LINE
  8
0
 62
7
  6
CONTINUOUS
 10
362.0701406736
 20
31.7522584767
 11
361.8967031736
 21
31.8167858495
  0
LINE
  8
0
 62
7
  6
CONTINUOUS
 10
364.3248278428
 20
31.7522584767
 11
364.1513903428
 21
31.8167858495
  0
LINE
  8
0
 62
7
  6
CONTINUOUS
 10
366.9842032839
 20
31.6554674174
 11
367.0998278428
 21
31.5909400446
  0
LINE
  8
0
 62
7
  6
CONTINUOUS
 10
367.3310782839
 20
31.6877311038
 11
367.2154530634
 21
31.7522584767
  0
LINE
  8
0
 62
7
  6
CONTINUOUS
 10
358.8326405772
 20
30.8811388585
 11
359.0060780772
 21
30.8488751693
  0
LINE
  8
0
 62
7
  6
CONTINUOUS
 10
359.2951405909
 20
30.945666237
 11
358.9482655496
 21
31.0101936212
  0
LINE
  8
0
 62
7
  6
CONTINUOUS
 10
361.7232656736
 20
31.6877311038
 11
361.8388905634
 21
31.6554674174
  0
LINE
  8
0
 62
7
  6
CONTINUOUS
 10
364.0357657839
 20
31.6877311038
 11
364.1513903428
 21
31.6554674174
  0
LINE
  8
0
 62
7
  6
CONTINUOUS
 10
368.3717032839
 20
30.9779299347
 11
368.2560780634
 21
31.0101936212
  0
LINE
  8
0
 62
7
  6
CONTINUOUS
 10
366.8685780634
 20
31.6877311038
 11
366.9842032839
 21
31.6554674174
  0
LINE
  8
0
 62
7
  6
CONTINUOUS
 10
368.0248282839
 20
30.945666237
 11
368.1982657839
 21
30.8811388585
  0
LINE
  8
0
 62
7
  6
CONTINUOUS
 10
367.2154530634
 20
31.7522584767
 11
367.0420155634
 21
31.8167858495
  0
LINE
  8
0
 62
7
  6
CONTINUOUS
 10
368.4295155634
 20
31.4618852989
 11
368.2560780634
 21
31.5264126717
  0
LINE
  8
0
 62
7
  6
CONTINUOUS
 10
369.2388907839
 20
31.2037757623
 11
369.4123282839
 21
31.1392483894
  0
LINE
  8
0
 62
7
  6
CONTINUOUS
 10
369.6435780634
 20
31.7199947902
 11
369.4701405634
 21
31.7845221631
  0
LINE
  8
0
 62
7
  6
CONTINUOUS
 10
368.0248282839
 20
31.4618852989
 11
368.2560780634
 21
31.3650941944
  0
LINE
  8
0
 62
7
  6
CONTINUOUS
 10
369.6435780634
 20
31.2037757623
 11
369.4123282839
 21
31.3005668216
  0
LINE
  8
0
 62
7
  6
CONTINUOUS
 10
368.1982657839
 20
31.5909400446
 11
368.2560780634
 21
31.6554674174
  0
LINE
  8
0
 62
7
  6
CONTINUOUS
 10
358.6592030565
 20
31.7199947902
 11
358.5435780634
 21
31.6554674174
  0
LINE
  8
0
 62
7
  6
CONTINUOUS
 10
358.7748280496
 20
31.5586763581
 11
358.9482655496
 21
31.6554674174
  0
LINE
  8
0
 62
7
  6
CONTINUOUS
 10
361.0873281185
 20
31.7522584767
 11
360.9717030634
 21
31.6877311038
  0
LINE
  8
0
 62
7
  6
CONTINUOUS
 10
360.9717030634
 20
31.5586763581
 11
361.0873281185
 21
31.623203731
  0
LINE
  8
0
 62
7
  6
CONTINUOUS
 10
359.9888905082
 20
30.9134025506
 11
360.1623280082
 21
31.0101936212
  0
LINE
  8
0
 62
7
  6
CONTINUOUS
 10
359.0060780772
 20
30.8488751693
 11
359.3529530358
 21
30.81661148
  0
LINE
  8
0
 62
7
  6
CONTINUOUS
 10
363.1107656736
 20
30.8488751693
 11
363.3420154531
 21
30.81661148
  0
LINE
  8
0
 62
7
  6
CONTINUOUS
 10
361.4920155634
 20
31.7199947902
 11
361.7232656736
 21
31.6877311038
  0
LINE
  8
0
 62
7
  6
CONTINUOUS
 10
363.8045156736
 20
31.7199947902
 11
364.0357657839
 21
31.6877311038
  0
LINE
  8
0
 62
7
  6
CONTINUOUS
 10
368.2560780634
 20
31.3650941944
 11
369.2388907839
 21
31.2037757623
  0
LINE
  8
0
 62
7
  6
CONTINUOUS
 10
369.4123282839
 20
31.3005668216
 11
368.4295155634
 21
31.4618852989
  0
LINE
  8
0
 62
7
  6
CONTINUOUS
 10
361.8967031736
 20
31.8167858495
 11
361.7232656736
 21
31.8490495359
  0
LINE
  8
0
 62
7
  6
CONTINUOUS
 10
368.1982657839
 20
30.8811388585
 11
368.3717032839
 21
30.8488751693
  0
LINE
  8
0
 62
7
  6
CONTINUOUS
 10
367.0420155634
 20
31.8167858495
 11
366.8685780634
 21
31.8490495359
  0
LINE
  8
0
 62
7
  6
CONTINUOUS
 10
369.2967030634
 20
31.6877311038
 11
369.4123282839
 21
31.6554674174
  0
LINE
  8
0
 62
7
  6
CONTINUOUS
 10
369.4701405634
 20
31.074720994
 11
369.4123282839
 21
31.0101936212
  0
LINE
  8
0
 62
7
  6
CONTINUOUS
 10
368.0248282839
 20
31.7522584767
 11
367.9092030634
 21
31.6554674174
  0
LINE
  8
0
 62
7
  6
CONTINUOUS
 10
362.9373281736
 20
31.7845221631
 11
362.8217029531
 21
31.7199947902
  0
LINE
  8
0
 62
7
  6
CONTINUOUS
 10
362.9951404531
 20
31.397357926
 11
362.8795155634
 21
31.332830508
  0
LINE
  8
0
 62
7
  6
CONTINUOUS
 10
363.1107656736
 20
31.2360394487
 11
363.2263905634
 21
31.3005668216
  0
LINE
  8
0
 62
7
  6
CONTINUOUS
 10
360.6826405082
 20
30.81661148
 11
360.9717030634
 21
30.81661148
  0
LINE
  8
0
 62
7
  6
CONTINUOUS
 10
362.0123280634
 20
30.81661148
 11
362.3013904531
 21
30.81661148
  0
LINE
  8
0
 62
7
  6
CONTINUOUS
 10
363.3420154531
 20
30.81661148
 11
363.6888904531
 21
30.81661148
  0
LINE
  8
0
 62
7
  6
CONTINUOUS
 10
364.3248278428
 20
30.81661148
 11
364.6138905634
 21
30.81661148
  0
LINE
  8
0
 62
7
  6
CONTINUOUS
 10
365.0763907839
 20
30.81661148
 11
365.3654528428
 21
30.81661148
  0
LINE
  8
0
 62
7
  6
CONTINUOUS
 10
365.8279530634
 20
30.81661148
 11
366.1170157839
 21
30.81661148
  0
LINE
  8
0
 62
7
  6
CONTINUOUS
 10
367.1576407839
 20
30.81661148
 11
367.4467028428
 21
30.81661148
  0
LINE
  8
0
 62
7
  6
CONTINUOUS
 10
368.7185782839
 20
30.81661148
 11
369.0654532839
 21
30.81661148
  0
LINE
  8
0
 62
7
  6
CONTINUOUS
 10
369.0654532839
 20
30.945666237
 11
368.7185782839
 21
30.945666237
  0
LINE
  8
0
 62
7
  6
CONTINUOUS
 10
363.6888904531
 20
30.945666237
 11
363.3420154531
 21
30.945666237
  0
LINE
  8
0
 62
7
  6
CONTINUOUS
 10
368.1982657839
 20
31.074720994
 11
367.9092030634
 21
31.074720994
  0
LINE
  8
0
 62
7
  6
CONTINUOUS
 10
360.2201406185
 20
31.1392483894
 11
359.9310780634
 21
31.1392483894
  0
LINE
  8
0
 62
7
  6
CONTINUOUS
 10
359.2951405909
 20
31.7199947902
 11
359.6998280358
 21
31.6877311038
  0
LINE
  8
0
 62
7
  6
CONTINUOUS
 10
359.7576405634
 20
31.8167858495
 11
359.3529530358
 21
31.8490495359
  0
LINE
  8
0
 62
7
  6
CONTINUOUS
 10
368.3717032839
 20
30.8488751693
 11
368.7185782839
 21
30.81661148
  0
LINE
  8
0
 62
7
  6
CONTINUOUS
 10
368.7185782839
 20
30.945666237
 11
368.3717032839
 21
30.9779299347
  0
LINE
  8
0
 62
7
  6
CONTINUOUS
 10
364.1513903428
 20
31.8167858495
 11
363.8045156736
 21
31.8490495359
  0
LINE
  8
0
 62
7
  6
CONTINUOUS
 10
368.9498280634
 20
31.7199947902
 11
369.2967030634
 21
31.6877311038
  0
LINE
  8
0
 62
7
  6
CONTINUOUS
 10
369.2967030634
 20
31.8167858495
 11
368.9498280634
 21
31.8490495359
  0
LINE
  8
0
 62
7
  6
CONTINUOUS
 10
366.6373282839
 20
31.7199947902
 11
366.8685780634
 21
31.6877311038
  0
LINE
  8
0
 62
7
  6
CONTINUOUS
 10
369.4701405634
 20
31.7845221631
 11
369.2967030634
 21
31.8167858495
  0
LINE
  8
0
 62
7
  6
CONTINUOUS
 10
369.6435780634
 20
30.9134025506
 11
369.7592026223
 21
31.0101936212
  0
LINE
  8
0
 62
7
  6
CONTINUOUS
 10
364.1513903428
 20
31.106984703
 11
363.9779528428
 21
31.0101936212
  0
LINE
  8
0
 62
7
  6
CONTINUOUS
 10
366.2326403428
 20
31.7522584767
 11
366.1170157839
 21
31.6877311038
  0
LINE
  8
0
 62
7
  6
CONTINUOUS
 10
366.1170157839
 20
31.5586763581
 11
366.2326403428
 21
31.623203731
  0
LINE
  8
0
 62
7
  6
CONTINUOUS
 10
358.8326405772
 20
31.7845221631
 11
358.6592030565
 21
31.7199947902
  0
LINE
  8
0
 62
7
  6
CONTINUOUS
 10
361.2607654531
 20
31.8167858495
 11
361.0873281185
 21
31.7522584767
  0
LINE
  8
0
 62
7
  6
CONTINUOUS
 10
361.0873281185
 20
31.623203731
 11
361.2607654531
 21
31.6877311038
  0
LINE
  8
0
 62
7
  6
CONTINUOUS
 10
359.8732656185
 20
31.0424573076
 11
359.6998280358
 21
30.9779299347
  0
LINE
  8
0
 62
7
  6
CONTINUOUS
 10
369.2967030634
 20
30.9779299347
 11
369.0654532839
 21
30.945666237
  0
LINE
  8
0
 62
7
  6
CONTINUOUS
 10
363.6888904531
 20
30.81661148
 11
363.9779528428
 21
30.8488751693
  0
LINE
  8
0
 62
7
  6
CONTINUOUS
 10
369.0654532839
 20
30.81661148
 11
369.4123282839
 21
30.8488751693
  0
LINE
  8
0
 62
7
  6
CONTINUOUS
 10
359.3529530358
 20
30.81661148
 11
359.7576405634
 21
30.8488751693
  0
LINE
  8
0
 62
7
  6
CONTINUOUS
 10
359.6998280358
 20
30.9779299347
 11
359.2951405909
 21
30.945666237
  0
LINE
  8
0
 62
7
  6
CONTINUOUS
 10
363.5732655634
 20
31.3650941944
 11
364.2092032839
 21
31.3650941944
  0
LINE
  8
0
 62
7
  6
CONTINUOUS
 10
364.2092032839
 20
31.4941489853
 11
363.5732655634
 21
31.4941489853
  0
LINE
  8
0
 62
7
  6
CONTINUOUS
 10
359.9310780634
 20
31.5264126717
 11
360.2201406185
 21
31.5264126717
  0
LINE
  8
0
 62
7
  6
CONTINUOUS
 10
362.7638906736
 20
31.5909400446
 11
363.0529530634
 21
31.5909400446
  0
LINE
  8
0
 62
7
  6
CONTINUOUS
 10
369.4701405634
 20
31.5909400446
 11
369.7592026223
 21
31.5909400446
  0
LINE
  8
0
 62
7
  6
CONTINUOUS
 10
363.4576406736
 20
31.7199947902
 11
363.8045156736
 21
31.7199947902
  0
LINE
  8
0
 62
7
  6
CONTINUOUS
 10
368.6029530634
 20
31.7199947902
 11
368.9498280634
 21
31.7199947902
  0
LINE
  8
0
 62
7
  6
CONTINUOUS
 10
368.9498280634
 20
31.8490495359
 11
368.6029530634
 21
31.8490495359
  0
LINE
  8
0
 62
7
  6
CONTINUOUS
 10
366.8685780634
 20
31.8490495359
 11
366.6373282839
 21
31.8490495359
  0
LINE
  8
0
 62
7
  6
CONTINUOUS
 10
366.1170157839
 20
31.8490495359
 11
365.8279530634
 21
31.8490495359
  0
LINE
  8
0
 62
7
  6
CONTINUOUS
 10
365.3654528428
 20
31.8490495359
 11
365.0763907839
 21
31.8490495359
  0
LINE
  8
0
 62
7
  6
CONTINUOUS
 10
363.8045156736
 20
31.8490495359
 11
363.4576406736
 21
31.8490495359
  0
LINE
  8
0
 62
7
  6
CONTINUOUS
 10
361.7232656736
 20
31.8490495359
 11
361.4920155634
 21
31.8490495359
  0
LINE
  8
0
 62
7
  6
CONTINUOUS
 10
365.0763907839
 20
32.1716864905
 11
365.3654528428
 21
32.1716864905
  0
LINE
  8
0
 62
7
  6
CONTINUOUS
 10
365.3654528428
 20
32.3330049227
 11
365.0763907839
 21
32.3330049227
  0
LINE
  8
0
 62
7
  6
CONTINUOUS
 10
360.9717030634
 20
32.3330049227
 11
360.6826405082
 21
32.3330049227
  0
LINE
  8
0
 62
7
  6
CONTINUOUS
 10
360.0094848257
 20
32.6198901686
 11
360.4220561743
 21
32.6198901686
  0
LINE
  8
0
 62
7
  6
CONTINUOUS
 10
361.648829088
 20
32.6198901686
 11
363.0422717109
 21
32.6198901686
  0
LINE
  8
0
 62
7
  6
CONTINUOUS
 10
363.3701405634
 20
32.6198901686
 11
364.7635831863
 21
32.6198901686
  0
LINE
  8
0
 62
7
  6
CONTINUOUS
 10
366.648829088
 20
32.6198901686
 11
368.0422717109
 21
32.6198901686
  0
LINE
  8
0
 62
7
  6
CONTINUOUS
 10
368.3701405634
 20
32.6198901686
 11
369.7635831863
 21
32.6198901686
  0
LINE
  8
0
 62
7
  6
CONTINUOUS
 10
366.4060778428
 20
31.8167858495
 11
366.2326403428
 21
31.7522584767
  0
LINE
  8
0
 62
7
  6
CONTINUOUS
 10
363.9779528428
 20
30.8488751693
 11
364.1513903428
 21
30.9134025506
  0
LINE
  8
0
 62
7
  6
CONTINUOUS
 10
369.4123282839
 20
30.8488751693
 11
369.6435780634
 21
30.9134025506
  0
LINE
  8
0
 62
7
  6
CONTINUOUS
 10
369.4123282839
 20
31.0101936212
 11
369.2967030634
 21
30.9779299347
  0
LINE
  8
0
 62
7
  6
CONTINUOUS
 10
368.3717032839
 20
31.6877311038
 11
368.6029530634
 21
31.7199947902
  0
LINE
  8
0
 62
7
  6
CONTINUOUS
 10
366.4060778428
 20
31.6877311038
 11
366.6373282839
 21
31.7199947902
  0
LINE
  8
0
 62
7
  6
CONTINUOUS
 10
363.3420154531
 20
31.332830508
 11
363.5732655634
 21
31.3650941944
  0
LINE
  8
0
 62
7
  6
CONTINUOUS
 10
366.6373282839
 20
31.8490495359
 11
366.4060778428
 21
31.8167858495
  0
LINE
  8
0
 62
7
  6
CONTINUOUS
 10
363.2263905634
 20
31.6877311038
 11
363.4576406736
 21
31.7199947902
  0
LINE
  8
0
 62
7
  6
CONTINUOUS
 10
368.6029530634
 20
31.8490495359
 11
368.2560780634
 21
31.8167858495
  0
LINE
  8
0
 62
7
  6
CONTINUOUS
 10
363.5732655634
 20
31.4941489853
 11
363.2263905634
 21
31.4618852989
  0
LINE
  8
0
 62
7
  6
CONTINUOUS
 10
359.3529530358
 20
31.8490495359
 11
359.0060780772
 21
31.8167858495
  0
LINE
  8
0
 62
7
  6
CONTINUOUS
 10
363.4576406736
 20
31.8490495359
 11
363.0529530634
 21
31.8167858495
  0
LINE
  8
0
 62
7
  6
CONTINUOUS
 10
360.8291569568
 20
33.7674311522
 11
360.1734192519
 21
33.7674311522
  0
LINE
  8
0
 62
7
  6
CONTINUOUS
 10
366.2326403428
 20
31.623203731
 11
366.4060778428
 21
31.6877311038
  0
LINE
  8
0
 62
7
  6
CONTINUOUS
 10
368.2560780634
 20
31.6554674174
 11
368.3717032839
 21
31.6877311038
  0
LINE
  8
0
 62
7
  6
CONTINUOUS
 10
368.2560780634
 20
31.8167858495
 11
368.0248282839
 21
31.7522584767
  0
LINE
  8
0
 62
7
  6
CONTINUOUS
 10
363.9779528428
 20
31.0101936212
 11
363.6888904531
 21
30.945666237
  0
LINE
  8
0
 62
7
  6
CONTINUOUS
 10
361.2607654531
 20
31.6877311038
 11
361.4920155634
 21
31.7199947902
  0
LINE
  8
0
 62
7
  6
CONTINUOUS
 10
361.4920155634
 20
31.8490495359
 11
361.2607654531
 21
31.8167858495
  0
LINE
  8
0
 62
7
  6
CONTINUOUS
 10
359.0638905634
 20
31.6877311038
 11
359.2951405909
 21
31.7199947902
  0
LINE
  8
0
 62
7
  6
CONTINUOUS
 10
365.5832553175
 20
35.2428409882
 11
366.2389930224
 21
35.2428409882
  0
LINE
  8
0
 62
7
  6
CONTINUOUS
 10
363.2263905634
 20
31.3005668216
 11
363.3420154531
 21
31.332830508
  0
LINE
  8
0
 62
7
  6
CONTINUOUS
 10
363.2263905634
 20
31.4618852989
 11
362.9951404531
 21
31.397357926
  0
LINE
  8
0
 62
7
  6
CONTINUOUS
 10
363.1107656736
 20
31.6554674174
 11
363.2263905634
 21
31.6877311038
  0
LINE
  8
0
 62
7
  6
CONTINUOUS
 10
359.7576405634
 20
30.8488751693
 11
359.9888905082
 21
30.9134025506
  0
LINE
  8
0
 62
7
  6
CONTINUOUS
 10
363.0529530634
 20
31.8167858495
 11
362.9373281736
 21
31.7845221631
  0
LINE
  8
0
 62
7
  6
CONTINUOUS
 10
359.0060780772
 20
31.8167858495
 11
358.8326405772
 21
31.7845221631
  0
LINE
  8
0
 62
7
  6
CONTINUOUS
 10
369.7635831863
 20
36.3903819718
 11
368.3701405634
 21
36.3903819718
  0
LINE
  8
0
 62
7
  6
CONTINUOUS
 10
366.4029274486
 20
36.3903819718
 11
365.9903561
 21
36.3903819718
  0
LINE
  8
0
 62
7
  6
CONTINUOUS
 10
364.7635831863
 20
36.3903819718
 11
363.3701405634
 21
36.3903819718
  0
LINE
  8
0
 62
7
  6
CONTINUOUS
 10
363.0422717109
 20
36.3903819718
 11
361.648829088
 21
36.3903819718
  0
LINE
  8
0
 62
7
  6
CONTINUOUS
 10
359.7635831863
 20
36.3903819718
 11
358.3701405634
 21
36.3903819718
  0
LINE
  8
0
 62
7
  6
CONTINUOUS
 10
358.9482655496
 20
31.6554674174
 11
359.0638905634
 21
31.6877311038
  0
CIRCLE
  8
0
 62
7
  6
CONTINUOUS
 10
369.0668618749
 20
38.7264475456
 40
2.0901639344
  0
ARC
  8
0
 62
7
  6
CONTINUOUS
 10
360.0094848257
 20
34.2592344308
 40
1.6393442623
 50
180.0
 51
270.0
  0
ARC
  8
0
 62
7
  6
CONTINUOUS
 10
366.4029274486
 20
34.7510377095
 40
1.6393442623
 50
0.0
 51
90.0
  0
ARC
  8
0
 62
7
  6
CONTINUOUS
 10
360.4220561743
 20
34.0953000046
 40
1.4754098361
 50
270.0
 51
326.2510114041
  0
ARC
  8
0
 62
7
  6
CONTINUOUS
 10
365.9903561
 20
34.9149721358
 40
1.4754098361
 50
90.0
 51
146.2510114041
  0
ARC
  8
0
 62
7
  6
CONTINUOUS
 10
360.8291569568
 20
34.5871032833
 40
0.8196721311
 50
270.0
 51
360.0
  0
ARC
  8
0
 62
7
  6
CONTINUOUS
 10
365.5832553175
 20
34.4231688571
 40
0.8196721311
 50
90.0
 51
180.0
  0
ARC
  8
0
 62
7
  6
CONTINUOUS
 10
360.1734192519
 20
34.1772672177
 40
0.4098360656
 50
180.0
 51
270.0
  0
ARC
  8
0
 62
7
  6
CONTINUOUS
 10
366.2389930224
 20
34.8330049227
 40
0.4098360656
 50
0.0
 51
90.0
  0
SOLID
  8
0
 62
7
  6
CONTINUOUS
 10
365.0763907839
 20
32.1716868508
 11
365.0763907839
 21
32.3330053344
 12
365.3654528428
 22
32.1716868508
 13
365.3654528428
 23
32.3330053344
  0
SOLID
  8
0
 62
7
  6
CONTINUOUS
 10
359.3529530358
 20
31.8490498836
 11
359.7576405634
 21
31.8167854792
 12
359.0060780772
 22
31.8167854792
 13
359.0060780772
 23
31.8167854792
  0
SOLID
  8
0
 62
7
  6
CONTINUOUS
 10
358.8326405772
 20
31.7845227934
 11
359.0060780772
 21
31.8167854792
 12
359.7576405634
 22
31.8167854792
 13
359.7576405634
 23
31.8167854792
  0
SOLID
  8
0
 62
7
  6
CONTINUOUS
 10
359.7576405634
 20
31.8167854792
 11
359.9888905082
 21
31.7522584901
 12
358.8326405772
 22
31.7845227934
 13
358.8326405772
 23
31.7845227934
  0
SOLID
  8
0
 62
7
  6
CONTINUOUS
 10
358.6592030565
 20
31.7199940664
 11
358.8326405772
 21
31.7845227934
 12
359.9888905082
 22
31.7522584901
 13
359.9888905082
 23
31.7522584901
  0
SOLID
  8
0
 62
7
  6
CONTINUOUS
 10
358.6592030565
 20
31.7199940664
 11
359.9888905082
 21
31.7522584901
 12
359.2951405909
 22
31.7199940664
 13
359.2951405909
 23
31.7199940664
  0
SOLID
  8
0
 62
7
  6
CONTINUOUS
 10
359.2951405909
 20
31.7199940664
 11
359.9888905082
 21
31.7522584901
 12
359.6998280358
 22
31.6877314
 13
359.6998280358
 23
31.6877314
  0
SOLID
  8
0
 62
7
  6
CONTINUOUS
 10
359.9888905082
 20
31.7522584901
 11
360.1623280082
 21
31.6554670967
 12
359.6998280358
 22
31.6877314
 13
359.6998280358
 23
31.6877314
  0
SOLID
  8
0
 62
7
  6
CONTINUOUS
 10
359.8732656185
 20
31.6232043098
 11
359.6998280358
 21
31.6877314
 12
360.1623280082
 22
31.6554670967
 13
360.1623280082
 23
31.6554670967
  0
SOLID
  8
0
 62
7
  6
CONTINUOUS
 10
359.8732656185
 20
31.6232043098
 11
360.1623280082
 21
31.6554670967
 12
359.9310780634
 22
31.5264128539
 13
359.9310780634
 23
31.5264128539
  0
SOLID
  8
0
 62
7
  6
CONTINUOUS
 10
360.1623280082
 20
31.6554670967
 11
360.2201406185
 21
31.5264128539
 12
359.9310780634
 22
31.5264128539
 13
359.9310780634
 23
31.5264128539
  0
SOLID
  8
0
 62
7
  6
CONTINUOUS
 10
361.2607654531
 20
31.8167852459
 11
361.4920155634
 21
31.8490495492
 12
361.7232656736
 22
31.8490495492
 13
361.7232656736
 23
31.8490495492
  0
SOLID
  8
0
 62
7
  6
CONTINUOUS
 10
361.7232656736
 20
31.8490495492
 11
361.8967031736
 21
31.8167852459
 12
361.2607654531
 22
31.8167852459
 13
361.2607654531
 23
31.8167852459
  0
SOLID
  8
0
 62
7
  6
CONTINUOUS
 10
361.0873281185
 20
31.7522581557
 11
361.2607654531
 21
31.8167852459
 12
361.8967031736
 22
31.8167852459
 13
361.8967031736
 23
31.8167852459
  0
SOLID
  8
0
 62
7
  6
CONTINUOUS
 10
361.8967031736
 20
31.8167852459
 11
362.0701406736
 21
31.7522581557
 12
361.0873281185
 22
31.7522581557
 13
361.0873281185
 23
31.7522581557
  0
SOLID
  8
0
 62
7
  6
CONTINUOUS
 10
362.0701406736
 20
31.7522581557
 11
361.4920155634
 21
31.7199941869
 12
361.0873281185
 22
31.7522581557
 13
361.0873281185
 23
31.7522581557
  0
SOLID
  8
0
 62
7
  6
CONTINUOUS
 10
360.9717030634
 20
31.6877310656
 11
361.0873281185
 21
31.7522581557
 12
361.4920155634
 22
31.7199941869
 13
361.4920155634
 23
31.7199941869
  0
SOLID
  8
0
 62
7
  6
CONTINUOUS
 10
361.4920155634
 20
31.7199941869
 11
361.2607654531
 21
31.6877310656
 12
360.9717030634
 22
31.6877310656
 13
360.9717030634
 23
31.6877310656
  0
SOLID
  8
0
 62
7
  6
CONTINUOUS
 10
361.4920155634
 20
31.7199941869
 11
362.0701406736
 21
31.7522581557
 12
361.7232656736
 22
31.6877310656
 13
361.7232656736
 23
31.6877310656
  0
SOLID
  8
0
 62
7
  6
CONTINUOUS
 10
362.0701406736
 20
31.7522581557
 11
362.1857655634
 21
31.6877310656
 12
361.7232656736
 22
31.6877310656
 13
361.7232656736
 23
31.6877310656
  0
SOLID
  8
0
 62
7
  6
CONTINUOUS
 10
361.8388905634
 20
31.6554670967
 11
361.7232656736
 21
31.6877310656
 12
362.1857655634
 22
31.6877310656
 13
362.1857655634
 23
31.6877310656
  0
SOLID
  8
0
 62
7
  6
CONTINUOUS
 10
362.1857655634
 20
31.6877310656
 11
362.2435781736
 21
31.6232039754
 12
361.8388905634
 22
31.6554670967
 13
361.8388905634
 23
31.6554670967
  0
SOLID
  8
0
 62
7
  6
CONTINUOUS
 10
361.9545154531
 20
31.5909400065
 11
361.8388905634
 21
31.6554670967
 12
362.2435781736
 22
31.6232039754
 13
362.2435781736
 23
31.6232039754
  0
SOLID
  8
0
 62
7
  6
CONTINUOUS
 10
361.9545154531
 20
31.5909400065
 11
362.2435781736
 21
31.6232039754
 12
362.0123280634
 22
31.4618854918
 13
362.0123280634
 23
31.4618854918
  0
SOLID
  8
0
 62
7
  6
CONTINUOUS
 10
362.2435781736
 20
31.6232039754
 11
362.3013904531
 21
31.4618854918
 12
362.0123280634
 22
31.4618854918
 13
362.0123280634
 23
31.4618854918
  0
SOLID
  8
0
 62
7
  6
CONTINUOUS
 10
361.2607654531
 20
31.6877310656
 11
361.0873281185
 21
31.6232039754
 12
360.9717030634
 22
31.6877310656
 13
360.9717030634
 23
31.6877310656
  0
SOLID
  8
0
 62
7
  6
CONTINUOUS
 10
361.0873281185
 20
31.6232039754
 11
360.9717030634
 21
31.5586757033
 12
360.9717030634
 22
31.6877310656
 13
360.9717030634
 23
31.6877310656
  0
SOLID
  8
0
 62
7
  6
CONTINUOUS
 10
360.9717030634
 20
31.5586757033
 11
360.6826405082
 21
30.8166115574
 12
360.9717030634
 22
31.6877310656
 13
360.9717030634
 23
31.6877310656
  0
SOLID
  8
0
 62
7
  6
CONTINUOUS
 10
360.9717030634
 20
31.6877310656
 11
360.6826405082
 21
30.8166115574
 12
360.9717030634
 22
32.333005
 13
360.9717030634
 23
32.333005
  0
SOLID
  8
0
 62
7
  6
CONTINUOUS
 10
360.6826405082
 20
30.8166115574
 11
360.6826405082
 21
32.333005
 12
360.9717030634
 22
32.333005
 13
360.9717030634
 23
32.333005
  0
SOLID
  8
0
 62
7
  6
CONTINUOUS
 10
360.9717030634
 20
31.5586757033
 11
360.9717030634
 21
30.8166115574
 12
360.6826405082
 22
30.8166115574
 13
360.6826405082
 23
30.8166115574
  0
SOLID
  8
0
 62
7
  6
CONTINUOUS
 10
362.0123280634
 20
30.8166115574
 11
362.0123280634
 21
31.4618854918
 12
362.3013904531
 22
31.4618854918
 13
362.3013904531
 23
31.4618854918
  0
SOLID
  8
0
 62
7
  6
CONTINUOUS
 10
362.3013904531
 20
31.4618854918
 11
362.3013904531
 21
30.8166115574
 12
362.0123280634
 22
30.8166115574
 13
362.0123280634
 23
30.8166115574
  0
SOLID
  8
0
 62
7
  6
CONTINUOUS
 10
363.0529530634
 20
31.8167856315
 11
363.4576406736
 21
31.8490496243
 12
363.8045156736
 22
31.8490496243
 13
363.8045156736
 23
31.8490496243
  0
SOLID
  8
0
 62
7
  6
CONTINUOUS
 10
363.8045156736
 20
31.8490496243
 11
364.1513903428
 21
31.8167856315
 12
363.0529530634
 22
31.8167856315
 13
363.0529530634
 23
31.8167856315
  0
SOLID
  8
0
 62
7
  6
CONTINUOUS
 10
362.9373281736
 20
31.7845227934
 11
363.0529530634
 21
31.8167856315
 12
364.1513903428
 22
31.8167856315
 13
364.1513903428
 23
31.8167856315
  0
SOLID
  8
0
 62
7
  6
CONTINUOUS
 10
364.1513903428
 20
31.8167856315
 11
364.3248278428
 21
31.7522584901
 12
362.9373281736
 22
31.7845227934
 13
362.9373281736
 23
31.7845227934
  0
SOLID
  8
0
 62
7
  6
CONTINUOUS
 10
362.8217029531
 20
31.7199944276
 11
362.9373281736
 21
31.7845227934
 12
364.3248278428
 22
31.7522584901
 13
364.3248278428
 23
31.7522584901
  0
SOLID
  8
0
 62
7
  6
CONTINUOUS
 10
362.8217029531
 20
31.7199944276
 11
364.3248278428
 21
31.7522584901
 12
363.4576406736
 22
31.7199944276
 13
363.4576406736
 23
31.7199944276
  0
SOLID
  8
0
 62
7
  6
CONTINUOUS
 10
363.4576406736
 20
31.7199944276
 11
364.3248278428
 21
31.7522584901
 12
363.8045156736
 22
31.7199944276
 13
363.8045156736
 23
31.7199944276
  0
SOLID
  8
0
 62
7
  6
CONTINUOUS
 10
363.8045156736
 20
31.7199944276
 11
364.3248278428
 21
31.7522584901
 12
364.0357657839
 22
31.6877312092
 13
364.0357657839
 23
31.6877312092
  0
SOLID
  8
0
 62
7
  6
CONTINUOUS
 10
364.3248278428
 20
31.7522584901
 11
364.4404530634
 21
31.6877312092
 12
364.0357657839
 22
31.6877312092
 13
364.0357657839
 23
31.6877312092
  0
SOLID
  8
0
 62
7
  6
CONTINUOUS
 10
362.7638906736
 20
31.6554672165
 11
362.8217029531
 21
31.7199944276
 12
363.4576406736
 22
31.7199944276
 13
363.4576406736
 23
31.7199944276
  0
SOLID
  8
0
 62
7
  6
CONTINUOUS
 10
364.1513903428
 20
31.6554672165
 11
364.0357657839
 21
31.6877312092
 12
364.4404530634
 22
31.6877312092
 13
364.4404530634
 23
31.6877312092
  0
SOLID
  8
0
 62
7
  6
CONTINUOUS
 10
364.1513903428
 20
31.6554672165
 11
364.4404530634
 21
31.6877312092
 12
364.2092032839
 22
31.5909400053
 13
364.2092032839
 23
31.5909400053
  0
SOLID
  8
0
 62
7
  6
CONTINUOUS
 10
364.4404530634
 20
31.6877312092
 11
364.4982653428
 21
31.5909400053
 12
364.2092032839
 22
31.5909400053
 13
364.2092032839
 23
31.5909400053
  0
SOLID
  8
0
 62
7
  6
CONTINUOUS
 10
364.2092032839
 20
31.4941486131
 11
364.2092032839
 21
31.5909400053
 12
364.4982653428
 22
31.5909400053
 13
364.4982653428
 23
31.5909400053
  0
SOLID
  8
0
 62
7
  6
CONTINUOUS
 10
364.2092032839
 20
31.4941486131
 11
364.4982653428
 21
31.5909400053
 12
364.2092032839
 22
31.3650944328
 13
364.2092032839
 23
31.3650944328
  0
SOLID
  8
0
 62
7
  6
CONTINUOUS
 10
364.2092032839
 20
31.3650944328
 11
364.4982653428
 21
31.5909400053
 12
364.2092032839
 22
31.1715120759
 13
364.2092032839
 23
31.1715120759
  0
SOLID
  8
0
 62
7
  6
CONTINUOUS
 10
364.4982653428
 20
31.5909400053
 11
364.4982653428
 21
31.0747202524
 12
364.2092032839
 22
31.1715120759
 13
364.2092032839
 23
31.1715120759
  0
SOLID
  8
0
 62
7
  6
CONTINUOUS
 10
366.4060778428
 20
31.8167851023
 11
366.6373282839
 21
31.849049822
 12
366.8685780634
 22
31.849049822
 13
366.8685780634
 23
31.849049822
  0
SOLID
  8
0
 62
7
  6
CONTINUOUS
 10
366.8685780634
 20
31.849049822
 11
367.0420155634
 21
31.8167851023
 12
366.4060778428
 22
31.8167851023
 13
366.4060778428
 23
31.8167851023
  0
SOLID
  8
0
 62
7
  6
CONTINUOUS
 10
366.2326403428
 20
31.7522587602
 11
366.4060778428
 21
31.8167851023
 12
367.0420155634
 22
31.8167851023
 13
367.0420155634
 23
31.8167851023
  0
SOLID
  8
0
 62
7
  6
CONTINUOUS
 10
367.0420155634
 20
31.8167851023
 11
367.2154530634
 21
31.7522587602
 12
366.2326403428
 22
31.7522587602
 13
366.2326403428
 23
31.7522587602
  0
SOLID
  8
0
 62
7
  6
CONTINUOUS
 10
367.2154530634
 20
31.7522587602
 11
366.6373282839
 21
31.7199941869
 12
366.2326403428
 22
31.7522587602
 13
366.2326403428
 23
31.7522587602
  0
SOLID
  8
0
 62
7
  6
CONTINUOUS
 10
366.1170157839
 20
31.6877313857
 11
366.2326403428
 21
31.7522587602
 12
366.6373282839
 22
31.7199941869
 13
366.6373282839
 23
31.7199941869
  0
SOLID
  8
0
 62
7
  6
CONTINUOUS
 10
366.6373282839
 20
31.7199941869
 11
366.4060778428
 21
31.6877313857
 12
366.1170157839
 22
31.6877313857
 13
366.1170157839
 23
31.6877313857
  0
SOLID
  8
0
 62
7
  6
CONTINUOUS
 10
366.6373282839
 20
31.7199941869
 11
367.2154530634
 21
31.7522587602
 12
366.8685780634
 22
31.6877313857
 13
366.8685780634
 23
31.6877313857
  0
SOLID
  8
0
 62
7
  6
CONTINUOUS
 10
367.2154530634
 20
31.7522587602
 11
367.3310782839
 21
31.6877313857
 12
366.8685780634
 22
31.6877313857
 13
366.8685780634
 23
31.6877313857
  0
SOLID
  8
0
 62
7
  6
CONTINUOUS
 10
366.9842032839
 20
31.6554670967
 11
366.8685780634
 21
31.6877313857
 12
367.3310782839
 22
31.6877313857
 13
367.3310782839
 23
31.6877313857
  0
SOLID
  8
0
 62
7
  6
CONTINUOUS
 10
366.9842032839
 20
31.6554670967
 11
367.3310782839
 21
31.6877313857
 12
367.0998278428
 22
31.590940324
 13
367.0998278428
 23
31.590940324
  0
SOLID
  8
0
 62
7
  6
CONTINUOUS
 10
367.3310782839
 20
31.6877313857
 11
367.3888905634
 21
31.590940324
 12
367.0998278428
 22
31.590940324
 13
367.0998278428
 23
31.590940324
  0
SOLID
  8
0
 62
7
  6
CONTINUOUS
 10
367.1576407839
 20
31.4296218878
 11
367.0998278428
 21
31.590940324
 12
367.3888905634
 22
31.590940324
 13
367.3888905634
 23
31.590940324
  0
SOLID
  8
0
 62
7
  6
CONTINUOUS
 10
367.3888905634
 20
31.590940324
 11
367.4467028428
 21
31.4296218878
 12
367.1576407839
 22
31.4296218878
 13
367.1576407839
 23
31.4296218878
  0
SOLID
  8
0
 62
7
  6
CONTINUOUS
 10
366.4060778428
 20
31.6877313857
 11
366.2326403428
 21
31.6232043098
 12
366.1170157839
 22
31.6877313857
 13
366.1170157839
 23
31.6877313857
  0
SOLID
  8
0
 62
7
  6
CONTINUOUS
 10
366.2326403428
 20
31.6232043098
 11
366.1170157839
 21
31.5586757033
 12
366.1170157839
 22
31.6877313857
 13
366.1170157839
 23
31.6877313857
  0
SOLID
  8
0
 62
7
  6
CONTINUOUS
 10
366.1170157839
 20
31.5586757033
 11
365.8279530634
 21
30.8166118302
 12
366.1170157839
 22
31.6877313857
 13
366.1170157839
 23
31.6877313857
  0
SOLID
  8
0
 62
7
  6
CONTINUOUS
 10
366.1170157839
 20
31.6877313857
 11
365.8279530634
 21
30.8166118302
 12
366.1170157839
 22
31.849049822
 13
366.1170157839
 23
31.849049822
  0
SOLID
  8
0
 62
7
  6
CONTINUOUS
 10
365.8279530634
 20
30.8166118302
 11
365.8279530634
 21
31.849049822
 12
366.1170157839
 22
31.849049822
 13
366.1170157839
 23
31.849049822
  0
SOLID
  8
0
 62
7
  6
CONTINUOUS
 10
366.1170157839
 20
31.5586757033
 11
366.1170157839
 21
30.8166118302
 12
365.8279530634
 22
30.8166118302
 13
365.8279530634
 23
30.8166118302
  0
SOLID
  8
0
 62
7
  6
CONTINUOUS
 10
367.1576407839
 20
30.8166118302
 11
367.1576407839
 21
31.4296218878
 12
367.4467028428
 22
31.4296218878
 13
367.4467028428
 23
31.4296218878
  0
SOLID
  8
0
 62
7
  6
CONTINUOUS
 10
367.4467028428
 20
31.4296218878
 11
367.4467028428
 21
30.8166118302
 12
367.1576407839
 22
30.8166118302
 13
367.1576407839
 23
30.8166118302
  0
SOLID
  8
0
 62
7
  6
CONTINUOUS
 10
368.2560780634
 20
31.8167856056
 11
368.6029530634
 21
31.8490498552
 12
368.9498280634
 22
31.8490498552
 13
368.9498280634
 23
31.8490498552
  0
SOLID
  8
0
 62
7
  6
CONTINUOUS
 10
368.9498280634
 20
31.8490498552
 11
369.2967030634
 21
31.8167856056
 12
368.2560780634
 22
31.8167856056
 13
368.2560780634
 23
31.8167856056
  0
SOLID
  8
0
 62
7
  6
CONTINUOUS
 10
368.0248282839
 20
31.7522584901
 11
368.2560780634
 21
31.8167856056
 12
369.2967030634
 22
31.8167856056
 13
369.2967030634
 23
31.8167856056
  0
SOLID
  8
0
 62
7
  6
CONTINUOUS
 10
368.0248282839
 20
31.7522584901
 11
369.2967030634
 21
31.8167855803
 12
369.4701405634
 22
31.7845227934
 13
369.4701405634
 23
31.7845227934
  0
SOLID
  8
0
 62
7
  6
CONTINUOUS
 10
368.0248282839
 20
31.7522584901
 11
369.4701405634
 21
31.7845227934
 12
368.6029530634
 22
31.7199941235
 13
368.6029530634
 23
31.7199941235
  0
SOLID
  8
0
 62
7
  6
CONTINUOUS
 10
368.6029530634
 20
31.7199941235
 11
369.4701405634
 21
31.7845227934
 12
368.9498280634
 22
31.7199941235
 13
368.9498280634
 23
31.7199941235
  0
SOLID
  8
0
 62
7
  6
CONTINUOUS
 10
369.4701405634
 20
31.7845227934
 11
369.6435780634
 21
31.7199941235
 12
368.9498280634
 22
31.7199941235
 13
368.9498280634
 23
31.7199941235
  0
SOLID
  8
0
 62
7
  6
CONTINUOUS
 10
369.2967030634
 20
31.6877314
 11
368.9498280634
 21
31.7199941235
 12
369.6435780634
 22
31.7199941235
 13
369.6435780634
 23
31.7199941235
  0
SOLID
  8
0
 62
7
  6
CONTINUOUS
 10
367.9092030634
 20
31.6554671071
 11
368.0248282839
 21
31.7522584901
 12
368.6029530634
 22
31.7199941235
 13
368.6029530634
 23
31.7199941235
  0
SOLID
  8
0
 62
7
  6
CONTINUOUS
 10
369.2967030634
 20
31.6877314
 11
369.6435780634
 21
31.7199941235
 12
369.4123282839
 22
31.6554671071
 13
369.4123282839
 23
31.6554671071
  0
SOLID
  8
0
 62
7
  6
CONTINUOUS
 10
369.4123282839
 20
31.6554671071
 11
369.6435780634
 21
31.7199941235
 12
369.4701405634
 22
31.5909400907
 13
369.4701405634
 23
31.5909400907
  0
SOLID
  8
0
 62
7
  6
CONTINUOUS
 10
369.6435780634
 20
31.7199941235
 11
369.7592026223
 21
31.5909400907
 12
369.4701405634
 22
31.5909400907
 13
369.4701405634
 23
31.5909400907
  0
SOLID
  8
0
 62
7
  6
CONTINUOUS
 10
359.0638905634
 20
31.6877314
 11
358.5435780634
 21
31.6554670789
 12
359.2951405909
 22
31.7199941045
 13
359.2951405909
 23
31.7199941045
  0
SOLID
  8
0
 62
7
  6
CONTINUOUS
 10
358.5435780634
 20
31.6554670789
 11
358.6592030565
 21
31.7199941045
 12
359.2951405909
 22
31.7199941045
 13
359.2951405909
 23
31.7199941045
  0
SOLID
  8
0
 62
7
  6
CONTINUOUS
 10
359.0638905634
 20
31.6877314
 11
358.9482655496
 21
31.6554670789
 12
358.5435780634
 22
31.6554670789
 13
358.5435780634
 23
31.6554670789
  0
SOLID
  8
0
 62
7
  6
CONTINUOUS
 10
358.4279530651
 20
31.5264129164
 11
358.5435780634
 21
31.6554670789
 12
358.9482655496
 22
31.6554670789
 13
358.9482655496
 23
31.6554670789
  0
SOLID
  8
0
 62
7
  6
CONTINUOUS
 10
362.7638906736
 20
31.6554670789
 11
363.4576406736
 21
31.7199941869
 12
363.2263905634
 22
31.6877314
 13
363.2263905634
 23
31.6877314
  0
SOLID
  8
0
 62
7
  6
CONTINUOUS
 10
363.2263905634
 20
31.6877314
 11
363.1107656736
 21
31.6554670789
 12
362.7638906736
 22
31.6554670789
 13
362.7638906736
 23
31.6554670789
  0
SOLID
  8
0
 62
7
  6
CONTINUOUS
 10
362.7638906736
 20
31.5909399887
 11
362.7638906736
 21
31.6554670789
 12
363.1107656736
 22
31.6554670789
 13
363.1107656736
 23
31.6554670789
  0
SOLID
  8
0
 62
7
  6
CONTINUOUS
 10
363.1107656736
 20
31.6554670789
 11
363.0529530634
 21
31.5909399887
 12
362.7638906736
 22
31.5909399887
 13
362.7638906736
 23
31.5909399887
  0
SOLID
  8
0
 62
7
  6
CONTINUOUS
 10
367.9092030634
 20
31.6554670789
 11
368.6029530634
 21
31.7199941869
 12
368.3717032839
 22
31.6877314
 13
368.3717032839
 23
31.6877314
  0
SOLID
  8
0
 62
7
  6
CONTINUOUS
 10
368.3717032839
 20
31.6877314
 11
368.2560780634
 21
31.6554670789
 12
367.9092030634
 22
31.6554670789
 13
367.9092030634
 23
31.6554670789
  0
SOLID
  8
0
 62
7
  6
CONTINUOUS
 10
367.9092030634
 20
31.5909399887
 11
367.9092030634
 21
31.6554670789
 12
368.2560780634
 22
31.6554670789
 13
368.2560780634
 23
31.6554670789
  0
SOLID
  8
0
 62
7
  6
CONTINUOUS
 10
368.2560780634
 20
31.6554670789
 11
368.1982657839
 21
31.5909399887
 12
367.9092030634
 22
31.5909399887
 13
367.9092030634
 23
31.5909399887
  0
SOLID
  8
0
 62
7
  6
CONTINUOUS
 10
368.0248282839
 20
31.4618858262
 11
367.9092030634
 21
31.5909399887
 12
368.1982657839
 22
31.5909399887
 13
368.1982657839
 23
31.5909399887
  0
SOLID
  8
0
 62
7
  6
CONTINUOUS
 10
358.4279530651
 20
31.5264129164
 11
358.9482655496
 21
31.6554670967
 12
358.7748280496
 22
31.5586757033
 13
358.7748280496
 23
31.5586757033
  0
SOLID
  8
0
 62
7
  6
CONTINUOUS
 10
358.7748280496
 20
31.5586757033
 11
358.7170155634
 21
31.4941486131
 12
358.4279530651
 22
31.5264129164
 13
358.4279530651
 23
31.5264129164
  0
SOLID
  8
0
 62
7
  6
CONTINUOUS
 10
358.3701405634
 20
31.3328301295
 11
358.4279530651
 21
31.5264129164
 12
358.7170155634
 22
31.4941486131
 13
358.7170155634
 23
31.4941486131
  0
SOLID
  8
0
 62
7
  6
CONTINUOUS
 10
363.2263905634
 20
31.4618858262
 11
363.5732655634
 21
31.4941485791
 12
364.2092032839
 22
31.4941485791
 13
364.2092032839
 23
31.4941485791
  0
SOLID
  8
0
 62
7
  6
CONTINUOUS
 10
363.2263905634
 20
31.4618858262
 11
364.2092032839
 21
31.4941485791
 12
362.9951404531
 22
31.397357926
 13
362.9951404531
 23
31.397357926
  0
SOLID
  8
0
 62
7
  6
CONTINUOUS
 10
362.9951404531
 20
31.397357926
 11
364.2092032839
 21
31.4941485791
 12
363.5732655634
 22
31.3650943988
 13
363.5732655634
 23
31.3650943988
  0
SOLID
  8
0
 62
7
  6
CONTINUOUS
 10
364.2092032839
 20
31.4941485791
 11
364.2092032839
 21
31.3650943988
 12
363.5732655634
 22
31.3650943988
 13
363.5732655634
 23
31.3650943988
  0
SOLID
  8
0
 62
7
  6
CONTINUOUS
 10
368.0248282839
 20
31.4618859165
 11
368.1982657839
 21
31.5909400065
 12
368.2560780634
 22
31.5264129164
 13
368.2560780634
 23
31.5264129164
  0
SOLID
  8
0
 62
7
  6
CONTINUOUS
 10
368.2560780634
 20
31.5264129164
 11
368.4295155634
 21
31.4618859165
 12
368.0248282839
 22
31.4618859165
 13
368.0248282839
 23
31.4618859165
  0
SOLID
  8
0
 62
7
  6
CONTINUOUS
 10
368.2560780634
 20
31.3650944328
 11
368.0248282839
 21
31.4618859165
 12
368.4295155634
 22
31.4618859165
 13
368.4295155634
 23
31.4618859165
  0
SOLID
  8
0
 62
7
  6
CONTINUOUS
 10
368.4295155634
 20
31.4618859165
 11
369.4123282839
 21
31.3005673426
 12
368.2560780634
 22
31.3650944328
 13
368.2560780634
 23
31.3650944328
  0
SOLID
  8
0
 62
7
  6
CONTINUOUS
 10
369.2388907839
 20
31.2037760287
 11
368.2560780634
 21
31.3650944328
 12
369.4123282839
 22
31.3005673426
 13
369.4123282839
 23
31.3005673426
  0
SOLID
  8
0
 62
7
  6
CONTINUOUS
 10
369.4123282839
 20
31.3005673426
 11
369.6435780634
 21
31.2037760287
 12
369.2388907839
 22
31.2037760287
 13
369.2388907839
 23
31.2037760287
  0
SOLID
  8
0
 62
7
  6
CONTINUOUS
 10
369.4123282839
 20
31.139248859
 11
369.2388907839
 21
31.2037760287
 12
369.6435780634
 22
31.2037760287
 13
369.6435780634
 23
31.2037760287
  0
SOLID
  8
0
 62
7
  6
CONTINUOUS
 10
369.4123282839
 20
31.139248859
 11
369.6435780634
 21
31.2037760287
 12
369.4701405634
 22
31.0747203105
 13
369.4701405634
 23
31.0747203105
  0
SOLID
  8
0
 62
7
  6
CONTINUOUS
 10
369.6435780634
 20
31.2037760287
 11
369.7592026223
 21
31.0747203105
 12
369.4701405634
 22
31.0747203105
 13
369.4701405634
 23
31.0747203105
  0
SOLID
  8
0
 62
7
  6
CONTINUOUS
 10
369.4123282839
 20
31.0101932257
 11
369.4701405634
 21
31.0747203105
 12
369.7592026223
 22
31.0747203105
 13
369.7592026223
 23
31.0747203105
  0
SOLID
  8
0
 62
7
  6
CONTINUOUS
 10
369.7592026223
 20
31.0747203105
 11
369.7592026223
 21
31.0101932257
 12
369.4123282839
 22
31.0101932257
 13
369.4123282839
 23
31.0101932257
  0
SOLID
  8
0
 62
7
  6
CONTINUOUS
 10
369.2967030634
 20
30.9779303754
 11
369.4123282839
 21
31.0101932257
 12
369.7592026223
 22
31.0101932257
 13
369.7592026223
 23
31.0101932257
  0
SOLID
  8
0
 62
7
  6
CONTINUOUS
 10
369.2967030634
 20
30.9779303754
 11
369.7592026223
 21
31.0101932257
 12
369.0654532839
 22
30.9456661409
 13
369.0654532839
 23
30.9456661409
  0
SOLID
  8
0
 62
7
  6
CONTINUOUS
 10
369.7592026223
 20
31.0101932257
 11
369.6435780634
 21
30.9134032852
 12
369.0654532839
 22
30.9456661409
 13
369.0654532839
 23
30.9456661409
  0
SOLID
  8
0
 62
7
  6
CONTINUOUS
 10
369.6435780634
 20
30.9134032852
 11
368.1982657839
 21
30.8811389819
 12
369.0654532839
 22
30.9456661409
 13
369.0654532839
 23
30.9456661409
  0
SOLID
  8
0
 62
7
  6
CONTINUOUS
 10
369.0654532839
 20
30.9456661409
 11
368.1982657839
 21
30.8811389819
 12
368.7185782839
 22
30.9456661409
 13
368.7185782839
 23
30.9456661409
  0
SOLID
  8
0
 62
7
  6
CONTINUOUS
 10
368.1982657839
 20
30.8811389819
 11
368.0248282839
 21
30.9456661409
 12
368.7185782839
 22
30.9456661409
 13
368.7185782839
 23
30.9456661409
  0
SOLID
  8
0
 62
7
  6
CONTINUOUS
 10
368.1982657839
 20
30.8811389819
 11
369.6435780634
 21
30.9134032852
 12
368.3717032839
 22
30.8488743522
 13
368.3717032839
 23
30.8488743522
  0
SOLID
  8
0
 62
7
  6
CONTINUOUS
 10
369.6435780634
 20
30.9134032852
 11
369.4123282839
 21
30.8488743522
 12
368.3717032839
 22
30.8488743522
 13
368.3717032839
 23
30.8488743522
  0
SOLID
  8
0
 62
7
  6
CONTINUOUS
 10
368.7185782839
 20
30.8166119713
 11
368.3717032839
 21
30.8488743522
 12
369.4123282839
 22
30.8488743522
 13
369.4123282839
 23
30.8488743522
  0
SOLID
  8
0
 62
7
  6
CONTINUOUS
 10
369.4123282839
 20
30.8488743522
 11
369.0654532839
 21
30.8166119713
 12
368.7185782839
 22
30.8166119713
 13
368.7185782839
 23
30.8166119713
  0
SOLID
  8
0
 62
7
  6
CONTINUOUS
 10
358.3701405634
 20
31.3328301295
 11
358.7170155634
 21
31.4941486131
 12
358.6592030565
 22
31.3650944328
 13
358.6592030565
 23
31.3650944328
  0
SOLID
  8
0
 62
7
  6
CONTINUOUS
 10
358.6592030565
 20
31.3650944328
 11
358.6592030565
 21
31.2683031351
 12
358.3701405634
 22
31.3328301295
 13
358.3701405634
 23
31.3328301295
  0
SOLID
  8
0
 62
7
  6
CONTINUOUS
 10
358.4279530651
 20
31.139248859
 11
358.3701405634
 21
31.3328301295
 12
358.6592030565
 22
31.2683031351
 13
358.6592030565
 23
31.2683031351
  0
SOLID
  8
0
 62
7
  6
CONTINUOUS
 10
358.6592030565
 20
31.2683031351
 11
358.7748280496
 21
31.1069845557
 12
358.4279530651
 22
31.139248859
 13
358.4279530651
 23
31.139248859
  0
SOLID
  8
0
 62
7
  6
CONTINUOUS
 10
358.5435780634
 20
31.0101931569
 11
358.4279530651
 21
31.139248859
 12
358.7748280496
 22
31.1069845557
 13
358.7748280496
 23
31.1069845557
  0
SOLID
  8
0
 62
7
  6
CONTINUOUS
 10
358.7748280496
 20
31.1069845557
 11
358.9482655496
 21
31.0101931569
 12
358.5435780634
 22
31.0101931569
 13
358.5435780634
 23
31.0101931569
  0
SOLID
  8
0
 62
7
  6
CONTINUOUS
 10
358.6592030565
 20
30.9456659241
 11
358.5435780634
 21
31.0101931569
 12
358.9482655496
 22
31.0101931569
 13
358.9482655496
 23
31.0101931569
  0
SOLID
  8
0
 62
7
  6
CONTINUOUS
 10
358.9482655496
 20
31.0101931569
 11
359.2951405909
 21
30.9456659241
 12
358.6592030565
 22
30.9456659241
 13
358.6592030565
 23
30.9456659241
  0
SOLID
  8
0
 62
7
  6
CONTINUOUS
 10
358.8326405772
 20
30.8811389819
 11
358.6592030565
 21
30.9456659241
 12
359.2951405909
 22
30.9456659241
 13
359.2951405909
 23
30.9456659241
  0
SOLID
  8
0
 62
7
  6
CONTINUOUS
 10
362.8795155634
 20
31.3328301325
 11
362.9951404531
 21
31.397357926
 12
363.5732655634
 22
31.3650944328
 13
363.5732655634
 23
31.3650944328
  0
SOLID
  8
0
 62
7
  6
CONTINUOUS
 10
363.5732655634
 20
31.3650944328
 11
363.3420154531
 21
31.3328301325
 12
362.8795155634
 22
31.3328301325
 13
362.8795155634
 23
31.3328301325
  0
SOLID
  8
0
 62
7
  6
CONTINUOUS
 10
362.7638906736
 20
31.2037759492
 11
362.8795155634
 21
31.3328301325
 12
363.3420154531
 22
31.3328301325
 13
363.3420154531
 23
31.3328301325
  0
SOLID
  8
0
 62
7
  6
CONTINUOUS
 10
363.1107656736
 20
31.2360394487
 11
362.7638906736
 21
31.2037759492
 12
363.2263905634
 22
31.3005673426
 13
363.2263905634
 23
31.3005673426
  0
SOLID
  8
0
 62
7
  6
CONTINUOUS
 10
362.7638906736
 20
31.2037759492
 11
363.3420154531
 21
31.3328301295
 12
363.2263905634
 22
31.3005673426
 13
363.2263905634
 23
31.3005673426
  0
SOLID
  8
0
 62
7
  6
CONTINUOUS
 10
363.1107656736
 20
31.2360394487
 11
363.0529530634
 21
31.139248859
 12
362.7638906736
 22
31.2037759492
 13
362.7638906736
 23
31.2037759492
  0
SOLID
  8
0
 62
7
  6
CONTINUOUS
 10
362.7638906736
 20
31.1069845557
 11
362.7638906736
 21
31.2037759492
 12
363.0529530634
 22
31.139248859
 13
363.0529530634
 23
31.139248859
  0
SOLID
  8
0
 62
7
  6
CONTINUOUS
 10
363.0529530634
 20
31.139248859
 11
363.0529530634
 21
31.0747202524
 12
362.7638906736
 22
31.1069845557
 13
362.7638906736
 23
31.1069845557
  0
SOLID
  8
0
 62
7
  6
CONTINUOUS
 10
362.8217029531
 20
30.9779303754
 11
362.7638906736
 21
31.1069845557
 12
363.0529530634
 22
31.0747202524
 13
363.0529530634
 23
31.0747202524
  0
SOLID
  8
0
 62
7
  6
CONTINUOUS
 10
364.2092032839
 20
31.1715120759
 11
364.4982653428
 21
31.0747202524
 12
364.1513903428
 22
31.1069845557
 13
364.1513903428
 23
31.1069845557
  0
SOLID
  8
0
 62
7
  6
CONTINUOUS
 10
363.9779528428
 20
31.0101931623
 11
364.1513903428
 21
31.1069845557
 12
364.4982653428
 22
31.0747202524
 13
364.4982653428
 23
31.0747202524
  0
SOLID
  8
0
 62
7
  6
CONTINUOUS
 10
363.9779528428
 20
31.0101931623
 11
364.4982653428
 21
31.0747202524
 12
364.2092032839
 22
30.9779303754
 13
364.2092032839
 23
30.9779303754
  0
SOLID
  8
0
 62
7
  6
CONTINUOUS
 10
364.4982653428
 20
31.0747202524
 11
364.5560782839
 21
30.9134032852
 12
364.2092032839
 22
30.9779303754
 13
364.2092032839
 23
30.9779303754
  0
SOLID
  8
0
 62
7
  6
CONTINUOUS
 10
364.2670155634
 20
30.8811389819
 11
364.2092032839
 21
30.9779303754
 12
364.5560782839
 22
30.9134032852
 13
364.5560782839
 23
30.9134032852
  0
SOLID
  8
0
 62
7
  6
CONTINUOUS
 10
364.2670155634
 20
30.8811389819
 11
364.5560782839
 21
30.9134032852
 12
364.3248278428
 22
30.816611867
 13
364.3248278428
 23
30.816611867
  0
SOLID
  8
0
 62
7
  6
CONTINUOUS
 10
364.5560782839
 20
30.9134032852
 11
364.6138905634
 21
30.816611867
 12
364.3248278428
 22
30.816611867
 13
364.3248278428
 23
30.816611867
  0
SOLID
  8
0
 62
7
  6
CONTINUOUS
 10
359.8732656185
 20
31.0424573076
 11
359.9310780634
 21
31.1392488159
 12
360.2201406185
 22
31.1392488159
 13
360.2201406185
 23
31.1392488159
  0
SOLID
  8
0
 62
7
  6
CONTINUOUS
 10
360.2201406185
 20
31.1392488159
 11
360.1623280082
 21
31.0101931623
 12
359.8732656185
 22
31.0424573076
 13
359.8732656185
 23
31.0424573076
  0
SOLID
  8
0
 62
7
  6
CONTINUOUS
 10
359.6998280358
 20
30.9779303754
 11
359.8732656185
 21
31.0424573076
 12
360.1623280082
 22
31.0101931623
 13
360.1623280082
 23
31.0101931623
  0
SOLID
  8
0
 62
7
  6
CONTINUOUS
 10
359.6998280358
 20
30.9779303754
 11
360.1623280082
 21
31.0101931623
 12
359.2951405909
 22
30.9456660721
 13
359.2951405909
 23
30.9456660721
  0
SOLID
  8
0
 62
7
  6
CONTINUOUS
 10
360.1623280082
 20
31.0101931623
 11
359.9888905082
 21
30.9134032852
 12
359.2951405909
 22
30.9456660721
 13
359.2951405909
 23
30.9456660721
  0
SOLID
  8
0
 62
7
  6
CONTINUOUS
 10
358.8326405772
 20
30.8811389819
 11
359.2951405909
 21
30.9456660721
 12
359.9888905082
 22
30.9134032852
 13
359.9888905082
 23
30.9134032852
  0
SOLID
  8
0
 62
7
  6
CONTINUOUS
 10
358.8326405772
 20
30.8811389819
 11
359.9888905082
 21
30.9134032852
 12
359.0060780772
 22
30.8488745775
 13
359.0060780772
 23
30.8488745775
  0
SOLID
  8
0
 62
7
  6
CONTINUOUS
 10
359.9888905082
 20
30.9134032852
 11
359.7576405634
 21
30.8488745775
 12
359.0060780772
 22
30.8488745775
 13
359.0060780772
 23
30.8488745775
  0
SOLID
  8
0
 62
7
  6
CONTINUOUS
 10
359.3529530358
 20
30.8166118918
 11
359.0060780772
 21
30.8488745775
 12
359.7576405634
 22
30.8488745775
 13
359.7576405634
 23
30.8488745775
  0
SOLID
  8
0
 62
7
  6
CONTINUOUS
 10
362.8217029531
 20
30.9779303754
 11
363.0529530634
 21
31.0747202524
 12
363.1107656736
 22
31.0101931623
 13
363.1107656736
 23
31.0101931623
  0
SOLID
  8
0
 62
7
  6
CONTINUOUS
 10
363.1107656736
 20
31.0101931623
 11
363.3420154531
 21
30.9456660721
 12
362.8217029531
 22
30.9779303754
 13
362.8217029531
 23
30.9779303754
  0
SOLID
  8
0
 62
7
  6
CONTINUOUS
 10
362.9951404531
 20
30.8811389819
 11
362.8217029531
 21
30.9779303754
 12
363.3420154531
 22
30.9456660721
 13
363.3420154531
 23
30.9456660721
  0
SOLID
  8
0
 62
7
  6
CONTINUOUS
 10
363.6888904531
 20
30.9456661188
 11
363.9779528428
 21
31.0101931623
 12
364.2092032839
 22
30.9779303754
 13
364.2092032839
 23
30.9779303754
  0
SOLID
  8
0
 62
7
  6
CONTINUOUS
 10
364.2092032839
 20
30.9779303754
 11
364.1513903428
 21
30.9134032852
 12
363.6888904531
 22
30.9456661188
 13
363.6888904531
 23
30.9456661188
  0
SOLID
  8
0
 62
7
  6
CONTINUOUS
 10
364.1513903428
 20
30.9134032852
 11
362.9951404531
 21
30.8811389819
 12
363.6888904531
 22
30.9456661188
 13
363.6888904531
 23
30.9456661188
  0
SOLID
  8
0
 62
7
  6
CONTINUOUS
 10
362.9951404531
 20
30.8811389819
 11
363.3420154531
 21
30.9456661188
 12
363.6888904531
 22
30.9456661188
 13
363.6888904531
 23
30.9456661188
  0
SOLID
  8
0
 62
7
  6
CONTINUOUS
 10
362.9951404531
 20
30.8811389819
 11
364.1513903428
 21
30.9134032852
 12
363.1107656736
 22
30.8488747093
 13
363.1107656736
 23
30.8488747093
  0
SOLID
  8
0
 62
7
  6
CONTINUOUS
 10
364.1513903428
 20
30.9134032852
 11
363.9779528428
 21
30.8488747093
 12
363.1107656736
 22
30.8488747093
 13
363.1107656736
 23
30.8488747093
  0
SOLID
  8
0
 62
7
  6
CONTINUOUS
 10
363.3420154531
 20
30.816611874
 11
363.1107656736
 21
30.8488747093
 12
363.9779528428
 22
30.8488747093
 13
363.9779528428
 23
30.8488747093
  0
SOLID
  8
0
 62
7
  6
CONTINUOUS
 10
363.9779528428
 20
30.8488747093
 11
363.6888904531
 21
30.816611874
 12
363.3420154531
 22
30.816611874
 13
363.3420154531
 23
30.816611874
  0
SOLID
  8
0
 62
7
  6
CONTINUOUS
 10
368.3717032839
 20
30.9779303754
 11
368.0248282839
 21
30.9456661188
 12
368.2560780634
 22
31.0101931623
 13
368.2560780634
 23
31.0101931623
  0
SOLID
  8
0
 62
7
  6
CONTINUOUS
 10
368.2560780634
 20
31.0101931623
 11
368.0248282839
 21
30.9456661188
 12
368.1982657839
 22
31.0747202992
 13
368.1982657839
 23
31.0747202992
  0
SOLID
  8
0
 62
7
  6
CONTINUOUS
 10
368.0248282839
 20
30.9456661188
 11
367.9092030634
 21
31.0747202992
 12
368.1982657839
 22
31.0747202992
 13
368.1982657839
 23
31.0747202992
  0
SOLID
  8
0
 62
7
  6
CONTINUOUS
 10
368.3717032839
 20
30.9779303754
 11
368.7185782839
 21
30.9456661188
 12
368.0248282839
 22
30.9456661188
 13
368.0248282839
 23
30.9456661188
  0
SOLID
  8
0
 62
7
  6
CONTINUOUS
 10
365.0763907839
 20
30.8166118918
 11
365.0763907839
 21
31.8490498836
 12
365.3654528428
 22
30.8166118918
 13
365.3654528428
 23
31.8490498836
  0
ENDBLK
  8
0
  6
BYBLOCK
 62
0
  0
BLOCK
  8
0
 62
2
  6
CONTINUOUS
  2
SYMBOL_0_BL0
 70
64
 10
241.0459637928
 20
19.6790146053
  0
TEXT
  8
0
 62
7
  6
CONTINUOUS
 10
227.3106676351
 20
19.0524287129
  7
TEXTSTYLE_3
 40
2.7338706658
  1
Ammeraal Beltech
 41
1.0
 51
15.0
 72
0
  0
TEXT
  8
0
 62
7
  6
CONTINUOUS
 10
238.1114684608
 20
16.7788920401
  7
TEXTSTYLE_4
 40
1.0935482663
  1
Innovation & Service in Belting
 41
1.0
 72
0
  0
LINE
  8
0
 62
7
  6
CONTINUOUS
 10
221.2861269837
 20
19.8190220215
 11
222.0642789771
 21
23.4799393191
  0
LINE
  8
0
 62
7
  6
CONTINUOUS
 10
232.1594472669
 20
27.1433332308
 11
222.5520967201
 21
24.0217158095
  0
LINE
  8
0
 62
7
  6
CONTINUOUS
 10
221.511410316
 20
19.1256712184
 11
229.0184855772
 21
12.3662702925
  0
LINE
  8
0
 62
7
  6
CONTINUOUS
 10
221.7739447268
 20
20.3607985118
 11
232.5822140919
 21
23.8726181108
  0
LINE
  8
0
 62
7
  6
CONTINUOUS
 10
232.5780089548
 20
13.522829547
 11
224.132549286
 21
21.1271555887
  0
LINE
  8
0
 62
7
  6
CONTINUOUS
 10
233.0978316746
 20
26.298408115
 11
232.1212721373
 21
21.7040567125
  0
LINE
  8
0
 62
7
  6
CONTINUOUS
 10
231.4214701896
 20
18.4117473987
 11
230.7350219782
 21
15.1822624744
  0
LINE
  8
0
 62
7
  6
CONTINUOUS
 10
233.7789277731
 20
13.9130317247
 11
234.7351593087
 21
18.4117473987
  0
LINE
  8
0
 62
7
  6
CONTINUOUS
 10
235.4349612564
 20
21.7040567125
 11
235.8792030588
 21
23.7940500719
  0
LINE
  8
0
 62
7
  6
CONTINUOUS
 10
229.7315866525
 20
12.2146959798
 11
233.2911100301
 21
13.3712552343
  0
LINE
  8
0
 62
7
  6
CONTINUOUS
 10
232.8725483422
 20
26.9917589181
 11
235.6539197265
 21
24.487400875
  0
ARC
  8
0
 62
7
  6
CONTINUOUS
 10
222.7773800524
 20
23.3283650064
 40
0.7290321776
 50
108.0
 51
168.0
  0
ARC
  8
0
 62
7
  6
CONTINUOUS
 10
232.3847305992
 20
26.4499824277
 40
0.7290321776
 50
348.0
 51
108.0
  0
ARC
  8
0
 62
7
  6
CONTINUOUS
 10
235.1661019835
 20
23.9456243846
 40
0.7290321776
 50
348.0
 51
48.0
  0
ARC
  8
0
 62
7
  6
CONTINUOUS
 10
229.5063033202
 20
12.9080467828
 40
0.7290321776
 50
228.0
 51
288.0
  0
ARC
  8
0
 62
7
  6
CONTINUOUS
 10
221.9992280591
 20
19.6674477088
 40
0.7290321776
 50
108.0
 51
228.0
  0
ARC
  8
0
 62
7
  6
CONTINUOUS
 10
233.0658266978
 20
14.0646060374
 40
0.7290321776
 50
228.0
 51
348.0
  0
ENDBLK
  8
0
  6
BYBLOCK
 62
0
  0
ENDSEC
  0
SECTION
  2
ENTITIES
  0
TEXT
  8
0
 62
5
  6
CONTINUOUS
 10
304.937007874
 20
25.636
  7
TEXTSTYLE_2
 40
2.8
  1
Scale :
 41
0.6
 51
0.000019
 72
0
  0
TEXT
  8
0
 62
5
  6
CONTINUOUS
 10
324.937007874
 20
25.636
  7
TEXTSTYLE_2
 40
2.8
  1
Chain type:
 41
0.6
 51
0.000019
 72
0
  0
INSERT
  8
0
 62
2
  6
CONTINUOUS
  2
SYMBOL_0_BL0
 10
241.0459637928
 20
19.6790146053
  0
INSERT
  8
0
 62
2
  6
CONTINUOUS
  2
SYMBOL_5_BL1
 10
382.3920721743
 20
35.81661148
  0
LINE
  8
0
 62
2
  6
CONTINUOUS
 10
218.937007874
 20
30.0
 11
408.937007874
 21
30.0
  0
LINE
  8
0
 62
2
  6
CONTINUOUS
 10
218.937007874
 20
30.0
 11
218.937007874
 21
10.0
  0
LINE
  8
0
 62
2
  6
CONTINUOUS
 10
218.937007874
 20
10.0
 11
408.937007874
 21
10.0
  0
LINE
  8
0
 62
2
  6
CONTINUOUS
 10
303.937007874
 20
30.0
 11
303.937007874
 21
10.0
  0
LINE
  8
0
 62
2
  6
CONTINUOUS
 10
323.937007874
 20
30.0
 11
323.937007874
 21
10.0
  0
LINE
  8
0
 62
2
  6
CONTINUOUS
 10
408.937007874
 20
30.0
 11
408.937007874
 21
10.0
  0
TEXT
  8
0
 62
5
  6
CONTINUOUS
 10
221.937007874
 20
23.303
  7
TEXTSTYLE_5
 40
1.52
  1
                                                                     Ammeraal Beltech Modular A/S
 41
1.0
 72
0
  0
TEXT
  8
0
 62
5
  6
CONTINUOUS
 10
221.937007874
 20
20.595
  7
TEXTSTYLE_5
 40
1.5
  1
                                                                      Hjulmagervej 21, 7100 Vejle,  DK
 41
1.0
 72
0
  0
TEXT
  8
0
 62
5
  6
CONTINUOUS
 10
221.937007874
 20
17.881
  7
TEXTSTYLE_5
 40
1.495
  1
                                                                      tel: 
 41
1.0
 72
0
  0
TEXT
  8
0
 62
5
  6
CONTINUOUS
 10
266.9239544389
 20
17.881
  7
TEXTSTYLE_5
 40
1.51
  1
+45 75723100     fax: +45 75723348
 41
1.0
 72
0
  0
TEXT
  8
0
 62
5
  6
CONTINUOUS
 10
221.937007874
 20
15.177
  7
TEXTSTYLE_5
 40
1.5
  1
                                                                      admin@unichains.dk  www.unichains.com
 41
1.0
 72
0
  0
TEXT
  8
0
 62
5
  6
CONTINUOUS
 10
308.687007874
 20
13.75
  7
TEXTSTYLE_6
 40
5.0
  1
1:1
 41
0.7
 72
1
 11
313.937007874
 21
13.75
  0
TEXT
  8
0
 62
5
  6
CONTINUOUS
 10
326.937007874
 20
13.75
  7
TEXTSTYLE_7
 40
7.5
  1
uni 2700-R
 41
0.635
 72
0
  0
LINE
  8
0
 62
7
  6
CONTINUOUS
 10
0.0
 20
0.0
 11
0.0
 21
297.0
  0
LINE
  8
0
 62
7
  6
CONTINUOUS
 10
8.937007874
 20
10.0
 11
8.937007874
 21
287.0
  0
LINE
  8
0
 62
7
  6
CONTINUOUS
 10
0.0
 20
0.0
 11
420.0
 21
0.0
  0
LINE
  8
0
 62
7
  6
CONTINUOUS
 10
408.937007874
 20
10.0
 11
8.937007874
 21
10.0
  0
LINE
  8
0
 62
7
  6
CONTINUOUS
 10
218.937007874
 20
30.0
 11
408.937007874
 21
30.0
  0
LINE
  8
0
 62
7
  6
CONTINUOUS
 10
210.0
 20
297.0
 11
210.0
 21
292.0
  0
LINE
  8
0
 62
7
  6
CONTINUOUS
 10
210.0
 20
0.0
 11
210.0
 21
5.0
  0
LINE
  8
0
 62
7
  6
CONTINUOUS
 10
8.937007874
 20
287.0
 11
408.937007874
 21
287.0
  0
LINE
  8
0
 62
7
  6
CONTINUOUS
 10
0.0
 20
297.0
 11
420.0
 21
297.0
  0
LINE
  8
0
 62
7
  6
CONTINUOUS
 10
408.937007874
 20
287.0
 11
408.937007874
 21
10.0
  0
LINE
  8
0
 62
7
  6
CONTINUOUS
 10
420.0
 20
0.0
 11
420.0
 21
297.0
  0
POLYLINE
  8
0
 62
7
  6
CONTINUOUS
 66
1
 70
0
  0
VERTEX
  8
0
 62
7
  6
CONTINUOUS
 10
71.742750986
 20
199.1082892943
  0
VERTEX
  8
0
 62
7
  6
CONTINUOUS
 10
71.7586989177
 20
198.7961833927
  0
VERTEX
  8
0
 62
7
  6
CONTINUOUS
 10
71.9481888296
 20
198.0056169798
  0
VERTEX
  8
0
 62
7
  6
CONTINUOUS
 10
72.1178867141
 20
197.639757901
  0
SEQEND
  0
POLYLINE
  8
0
 62
7
  6
CONTINUOUS
 66
1
 70
0
  0
VERTEX
  8
0
 62
7
  6
CONTINUOUS
 10
73.8967794656
 20
196.6805940823
  0
VERTEX
  8
0
 62
7
  6
CONTINUOUS
 10
73.9219526129
 20
195.9613488406
  0
VERTEX
  8
0
 62
7
  6
CONTINUOUS
 10
73.9953902686
 20
195.6147418382
  0
VERTEX
  8
0
 62
7
  6
CONTINUOUS
 10
74.2583398045
 20
194.9727212716
  0
SEQEND
  0
LINE
  8
0
 62
7
  6
CONTINUOUS
 10
74.2583398045
 20
194.9727212716
 11
74.2622091328
 21
194.7959396998
  0
LINE
  8
0
 62
7
  6
CONTINUOUS
 10
71.7427459016
 20
218.6785785836
 11
71.7427459016
 21
199.0959822176
  0
LINE
  8
0
 62
7
  6
CONTINUOUS
 10
71.7753333583
 20
219.4959450602
 11
71.7427459212
 21
218.6788578714
  0
LINE
  8
0
 62
7
  6
CONTINUOUS
 10
71.8810547804
 20
219.9967711583
 11
71.7753331625
 21
219.4959450762
  0
POLYLINE
  8
0
 62
7
  6
CONTINUOUS
 66
1
 70
0
  0
VERTEX
  8
0
 62
7
  6
CONTINUOUS
 10
72.354096737
 20
220.750211587
  0
VERTEX
  8
0
 62
7
  6
CONTINUOUS
 10
72.0005050081
 20
220.2707422555
  0
VERTEX
  8
0
 62
7
  6
CONTINUOUS
 10
71.8810547804
 20
219.9967711583
  0
SEQEND
  0
LINE
  8
0
 62
7
  6
CONTINUOUS
 10
85.428999953
 20
210.4608606557
 11
85.428999953
 21
209.9908606557
  0
LINE
  8
0
 62
7
  6
CONTINUOUS
 10
79.9310363514
 20
228.3271511055
 11
72.3548045599
 21
220.750919314
  0
POLYLINE
  8
0
 62
7
  6
CONTINUOUS
 66
1
 70
0
  0
VERTEX
  8
0
 62
7
  6
CONTINUOUS
 10
74.2583398045
 20
194.9727212716
  0
VERTEX
  8
0
 62
7
  6
CONTINUOUS
 10
74.5197362779
 20
194.785891558
  0
VERTEX
  8
0
 62
7
  6
CONTINUOUS
 10
74.7533493263
 20
194.6319111301
  0
VERTEX
  8
0
 62
7
  6
CONTINUOUS
 10
74.9725938238
 20
194.481233324
  0
SEQEND
  0
LINE
  8
0
 62
7
  6
CONTINUOUS
 10
87.6817130248
 20
209.9908606557
 11
87.6820706774
 21
210.4608606557
  0
LINE
  8
CENTER_AXER
 62
2
  6
CENTER
 10
100.0727459016
 20
173.6608606557
 11
100.0727459016
 21
247.6608606557
  0
POLYLINE
  8
0
 62
7
  6
CONTINUOUS
 66
1
 70
0
  0
VERTEX
  8
0
 62
7
  6
CONTINUOUS
 10
162.1487669423
 20
185.8568606557
  0
VERTEX
  8
0
 62
7
  6
CONTINUOUS
 10
162.7831221651
 20
185.8666442524
  0
VERTEX
  8
0
 62
7
  6
CONTINUOUS
 10
163.52186918
 20
185.8757614044
  0
VERTEX
  8
0
 62
7
  6
CONTINUOUS
 10
164.314635013
 20
185.883590034
  0
SEQEND
  0
LINE
  8
0
 62
7
  6
CONTINUOUS
 10
178.1170097601
 20
182.7938606557
 11
155.45928979
 21
182.7938606557
  0
LINE
  8
0
 62
7
  6
CONTINUOUS
 10
155.0169237642
 20
182.8259731493
 11
155.4592932263
 21
182.7938605132
  0
LINE
  8
0
 62
7
  6
CONTINUOUS
 10
112.4634211258
 20
210.4608606557
 11
112.4637787785
 21
209.9908606557
  0
LINE
  8
0
 62
7
  6
CONTINUOUS
 10
114.7331523937
 20
209.9908606557
 11
114.7331523937
 21
210.4608606557
  0
LINE
  8
CURVE_RUNDING
 62
7
  6
CONTINUOUS
 10
112.353655383
 20
191.2638606557
 11
82.8688459013
 21
191.2638606557
  0
LINE
  8
0
 62
7
  6
CONTINUOUS
 10
112.353655383
 20
191.2638606557
 11
151.6112673066
 21
191.2638606557
  0
LINE
  8
0
 62
7
  6
CONTINUOUS
 10
82.6095952939
 20
191.2666038161
 11
82.8688459016
 21
191.2638606557
  0
LINE
  8
0
 62
7
  6
CONTINUOUS
 10
154.1670919666
 20
183.0797784534
 11
155.0167324714
 21
182.8260302796
  0
LINE
  8
0
 62
7
  6
CONTINUOUS
 10
117.6892387165
 20
199.6608606557
 11
120.0727459016
 21
197.6608606557
  0
LINE
  8
0
 62
7
  6
CONTINUOUS
 10
120.0727459016
 20
197.6608606557
 11
120.0727459016
 21
198.6608606557
  0
LINE
  8
0
 62
7
  6
CONTINUOUS
 10
120.0727459016
 20
200.6608606557
 11
120.0727459016
 21
201.6608606557
  0
POLYLINE
  8
0
 62
7
  6
CONTINUOUS
 66
1
 70
0
  0
VERTEX
  8
0
 62
7
  6
CONTINUOUS
 10
113.8418675505
 20
206.6710660474
  0
VERTEX
  8
0
 62
7
  6
CONTINUOUS
 10
114.3912973388
 20
207.8928520556
  0
VERTEX
  8
0
 62
7
  6
CONTINUOUS
 10
114.5783586296
 20
208.569760781
  0
VERTEX
  8
0
 62
7
  6
CONTINUOUS
 10
114.7331523937
 20
209.9908606557
  0
SEQEND
  0
LINE
  8
0
 62
7
  6
CONTINUOUS
 10
120.0727459016
 20
198.6608606557
 11
131.0727459016
 21
198.6608606557
  0
POLYLINE
  8
0
 62
7
  6
CONTINUOUS
 66
1
 70
0
  0
VERTEX
  8
0
 62
7
  6
CONTINUOUS
 10
93.3453689476
 20
203.7118606557
  0
VERTEX
  8
0
 62
7
  6
CONTINUOUS
 10
92.0365010044
 20
203.8698095206
  0
VERTEX
  8
0
 62
7
  6
CONTINUOUS
 10
90.7575480915
 20
204.3668985754
  0
VERTEX
  8
0
 62
7
  6
CONTINUOUS
 10
89.6338582155
 20
205.1843007508
  0
VERTEX
  8
0
 62
7
  6
CONTINUOUS
 10
88.7528984332
 20
206.2423810555
  0
VERTEX
  8
0
 62
7
  6
CONTINUOUS
 10
88.1372846074
 20
207.4592600221
  0
VERTEX
  8
0
 62
7
  6
CONTINUOUS
 10
87.7873505711
 20
208.7454104769
  0
VERTEX
  8
0
 62
7
  6
CONTINUOUS
 10
87.6817130248
 20
209.9908606557
  0
SEQEND
  0
POLYLINE
  8
0
 62
7
  6
CONTINUOUS
 66
1
 70
0
  0
VERTEX
  8
0
 62
7
  6
CONTINUOUS
 10
91.3296080252
 20
203.7118606557
  0
VERTEX
  8
0
 62
7
  6
CONTINUOUS
 10
89.8898300759
 20
203.8952743186
  0
VERTEX
  8
0
 62
7
  6
CONTINUOUS
 10
88.5310458295
 20
204.4441051348
  0
VERTEX
  8
0
 62
7
  6
CONTINUOUS
 10
87.346595405
 20
205.3293243703
  0
VERTEX
  8
0
 62
7
  6
CONTINUOUS
 10
86.8485471746
 20
205.8747738703
  0
VERTEX
  8
0
 62
7
  6
CONTINUOUS
 10
86.0614994942
 20
207.134540589
  0
VERTEX
  8
0
 62
7
  6
CONTINUOUS
 10
85.5859036334
 20
208.5360865742
  0
VERTEX
  8
0
 62
7
  6
CONTINUOUS
 10
85.428999953
 20
209.9908606557
  0
SEQEND
  0
POLYLINE
  8
0
 62
7
  6
CONTINUOUS
 66
1
 70
0
  0
VERTEX
  8
0
 62
7
  6
CONTINUOUS
 10
151.3717041815
 20
191.2638606911
  0
VERTEX
  8
0
 62
7
  6
CONTINUOUS
 10
151.7370203147
 20
191.1962487235
  0
VERTEX
  8
0
 62
7
  6
CONTINUOUS
 10
152.0539595796
 20
191.0024004499
  0
VERTEX
  8
0
 62
7
  6
CONTINUOUS
 10
152.1807621086
 20
190.8655851331
  0
VERTEX
  8
0
 62
7
  6
CONTINUOUS
 10
152.350010488
 20
190.5348545401
  0
VERTEX
  8
0
 62
7
  6
CONTINUOUS
 10
152.3926540808
 20
190.2437073427
  0
SEQEND
  0
POLYLINE
  8
0
 62
7
  6
CONTINUOUS
 66
1
 70
0
  0
VERTEX
  8
0
 62
7
  6
CONTINUOUS
 10
113.8418675505
 20
213.780655264
  0
VERTEX
  8
0
 62
7
  6
CONTINUOUS
 10
114.3912973388
 20
212.5588692559
  0
VERTEX
  8
0
 62
7
  6
CONTINUOUS
 10
114.5783586296
 20
211.8819605305
  0
VERTEX
  8
0
 62
7
  6
CONTINUOUS
 10
114.7331523937
 20
210.4608606557
  0
SEQEND
  0
LINE
  8
0
 62
7
  6
CONTINUOUS
 10
131.0727459016
 20
200.6608606557
 11
120.0727459016
 21
200.6608606557
  0
LINE
  8
0
 62
7
  6
CONTINUOUS
 10
108.8158837781
 20
203.7118606557
 11
91.3296080252
 21
203.7118606557
  0
LINE
  8
0
 62
7
  6
CONTINUOUS
 10
153.4256017444
 20
183.566430887
 11
154.1670919666
 21
183.0797784534
  0
LINE
  8
0
 62
7
  6
CONTINUOUS
 10
131.0727459016
 20
198.6608606557
 11
131.0727459016
 21
200.6608606557
  0
LINE
  8
0
 62
7
  6
CONTINUOUS
 10
120.0727459016
 20
201.6608606557
 11
117.6892387165
 21
199.6608606557
  0
POLYLINE
  8
0
 62
7
  6
CONTINUOUS
 66
1
 70
0
  0
VERTEX
  8
0
 62
7
  6
CONTINUOUS
 10
106.8001228557
 20
203.7118606557
  0
VERTEX
  8
0
 62
7
  6
CONTINUOUS
 10
108.1089907989
 20
203.8698095206
  0
VERTEX
  8
0
 62
7
  6
CONTINUOUS
 10
109.3879437117
 20
204.3668985754
  0
VERTEX
  8
0
 62
7
  6
CONTINUOUS
 10
110.5116335878
 20
205.1843007508
  0
VERTEX
  8
0
 62
7
  6
CONTINUOUS
 10
111.3925933701
 20
206.2423810555
  0
VERTEX
  8
0
 62
7
  6
CONTINUOUS
 10
112.0082071959
 20
207.4592600221
  0
VERTEX
  8
0
 62
7
  6
CONTINUOUS
 10
112.3581412321
 20
208.7454104769
  0
VERTEX
  8
0
 62
7
  6
CONTINUOUS
 10
112.4637787785
 20
209.9908606557
  0
SEQEND
  0
POLYLINE
  8
0
 62
7
  6
CONTINUOUS
 66
1
 70
0
  0
VERTEX
  8
0
 62
7
  6
CONTINUOUS
 10
108.8158837781
 20
203.7118606557
  0
VERTEX
  8
0
 62
7
  6
CONTINUOUS
 10
110.1441572083
 20
203.8674930426
  0
VERTEX
  8
0
 62
7
  6
CONTINUOUS
 10
111.407898635
 20
204.3332350709
  0
VERTEX
  8
0
 62
7
  6
CONTINUOUS
 10
111.9931696832
 20
204.6773839171
  0
VERTEX
  8
0
 62
7
  6
CONTINUOUS
 10
113.0310362279
 20
205.5668361792
  0
VERTEX
  8
0
 62
7
  6
CONTINUOUS
 10
113.8418675505
 20
206.6710660474
  0
SEQEND
  0
LINE
  8
CENTER_AXER
 62
2
  6
CENTER
 10
49.5727459016
 20
210.6608606557
 11
213.5727459016
 21
210.6608606557
  0
LINE
  8
0
 62
7
  6
CONTINUOUS
 10
153.1154190836
 20
183.8850027629
 11
153.4256017444
 21
183.566430887
  0
LINE
  8
CENTER_AXER
 62
2
  6
CENTER
 10
135.5227459016
 20
173.6608606557
 11
135.5227459016
 21
247.6608606557
  0
LINE
  8
0
 62
7
  6
CONTINUOUS
 10
108.8158837781
 20
216.7398606557
 11
91.3296080252
 21
216.7398606557
  0
POLYLINE
  8
0
 62
7
  6
CONTINUOUS
 66
1
 70
0
  0
VERTEX
  8
0
 62
7
  6
CONTINUOUS
 10
108.8158837781
 20
216.7398606557
  0
VERTEX
  8
0
 62
7
  6
CONTINUOUS
 10
110.1441572083
 20
216.5842282688
  0
VERTEX
  8
0
 62
7
  6
CONTINUOUS
 10
111.407898635
 20
216.1184862405
  0
VERTEX
  8
0
 62
7
  6
CONTINUOUS
 10
111.9931696832
 20
215.7743373944
  0
VERTEX
  8
0
 62
7
  6
CONTINUOUS
 10
113.0310362279
 20
214.8848851323
  0
VERTEX
  8
0
 62
7
  6
CONTINUOUS
 10
113.8418675505
 20
213.780655264
  0
SEQEND
  0
POLYLINE
  8
0
 62
7
  6
CONTINUOUS
 66
1
 70
0
  0
VERTEX
  8
0
 62
7
  6
CONTINUOUS
 10
106.7920029132
 20
216.7398606557
  0
VERTEX
  8
0
 62
7
  6
CONTINUOUS
 10
108.1034454606
 20
216.5812760397
  0
VERTEX
  8
0
 62
7
  6
CONTINUOUS
 10
109.3839496224
 20
216.0827747138
  0
VERTEX
  8
0
 62
7
  6
CONTINUOUS
 10
110.5081328458
 20
215.2641848822
  0
VERTEX
  8
0
 62
7
  6
CONTINUOUS
 10
111.38874609
 20
214.2065002648
  0
VERTEX
  8
0
 62
7
  6
CONTINUOUS
 10
112.0044361365
 20
212.9916178561
  0
VERTEX
  8
0
 62
7
  6
CONTINUOUS
 10
112.3557265795
 20
211.7073290203
  0
VERTEX
  8
0
 62
7
  6
CONTINUOUS
 10
112.4634211258
 20
210.4608606557
  0
SEQEND
  0
LINE
  8
0
 62
7
  6
CONTINUOUS
 10
152.6487229196
 20
184.6392137128
 11
153.1154190836
 21
183.8850027629
  0
POLYLINE
  8
0
 62
7
  6
CONTINUOUS
 66
1
 70
0
  0
VERTEX
  8
0
 62
7
  6
CONTINUOUS
 10
91.3296080252
 20
216.7398606557
  0
VERTEX
  8
0
 62
7
  6
CONTINUOUS
 10
89.8898300759
 20
216.5564469929
  0
VERTEX
  8
0
 62
7
  6
CONTINUOUS
 10
88.5310458295
 20
216.0076161767
  0
VERTEX
  8
0
 62
7
  6
CONTINUOUS
 10
87.346595405
 20
215.1223969412
  0
VERTEX
  8
0
 62
7
  6
CONTINUOUS
 10
86.8485471746
 20
214.5769474411
  0
VERTEX
  8
0
 62
7
  6
CONTINUOUS
 10
86.0614994942
 20
213.3171807225
  0
VERTEX
  8
0
 62
7
  6
CONTINUOUS
 10
85.5859036334
 20
211.9156347373
  0
VERTEX
  8
0
 62
7
  6
CONTINUOUS
 10
85.428999953
 20
210.4608606557
  0
SEQEND
  0
POLYLINE
  8
0
 62
7
  6
CONTINUOUS
 66
1
 70
0
  0
VERTEX
  8
0
 62
7
  6
CONTINUOUS
 10
93.3534888901
 20
216.7398606557
  0
VERTEX
  8
0
 62
7
  6
CONTINUOUS
 10
92.0420463427
 20
216.5812760397
  0
VERTEX
  8
0
 62
7
  6
CONTINUOUS
 10
90.7615421809
 20
216.0827747138
  0
VERTEX
  8
0
 62
7
  6
CONTINUOUS
 10
89.6373589575
 20
215.2641848822
  0
VERTEX
  8
0
 62
7
  6
CONTINUOUS
 10
88.7567457133
 20
214.2065002648
  0
VERTEX
  8
0
 62
7
  6
CONTINUOUS
 10
88.1410556668
 20
212.9916178561
  0
VERTEX
  8
0
 62
7
  6
CONTINUOUS
 10
87.7897652238
 20
211.7073290203
  0
VERTEX
  8
0
 62
7
  6
CONTINUOUS
 10
87.6820706774
 20
210.4608606557
  0
SEQEND
  0
LINE
  8
0
 62
7
  6
CONTINUOUS
 10
160.0565407118
 20
218.919244917
 11
189.991159684
 21
218.9196622752
  0
LINE
  8
0
 62
7
  6
CONTINUOUS
 10
125.0461073955
 20
222.6065606557
 11
157.7705485995
 21
222.6065606557
  0
POLYLINE
  8
0
 62
7
  6
CONTINUOUS
 66
1
 70
0
  0
VERTEX
  8
0
 62
7
  6
CONTINUOUS
 10
190.1757459016
 20
218.9105231857
  0
VERTEX
  8
0
 62
7
  6
CONTINUOUS
 10
190.1550884986
 20
218.9136223976
  0
VERTEX
  8
0
 62
7
  6
CONTINUOUS
 10
190.0931697514
 20
218.9166881027
  0
VERTEX
  8
0
 62
7
  6
CONTINUOUS
 10
189.991159684
 20
218.9196622752
  0
SEQEND
  0
LINE
  8
0
 62
7
  6
CONTINUOUS
 10
186.8334477517
 20
220.356523987
 11
187.2835609571
 21
220.2867037812
  0
POLYLINE
  8
0
 62
7
  6
CONTINUOUS
 66
1
 70
0
  0
VERTEX
  8
0
 62
7
  6
CONTINUOUS
 10
160.0565459018
 20
218.8461692118
  0
VERTEX
  8
0
 62
7
  6
CONTINUOUS
 10
159.4030866838
 20
218.9515514536
  0
VERTEX
  8
0
 62
7
  6
CONTINUOUS
 10
158.8111086276
 20
219.2657422256
  0
VERTEX
  8
0
 62
7
  6
CONTINUOUS
 10
158.3633482857
 20
219.7406237236
  0
VERTEX
  8
0
 62
7
  6
CONTINUOUS
 10
158.0996013287
 20
220.297615429
  0
VERTEX
  8
0
 62
7
  6
CONTINUOUS
 10
158.0145459017
 20
220.8804418902
  0
SEQEND
  0
LINE
  8
0
 62
7
  6
CONTINUOUS
 10
152.4176815036
 20
185.4955191952
 11
152.6487229196
 21
184.6392137128
  0
LINE
  8
0
 62
7
  6
CONTINUOUS
 10
152.3962941942
 20
185.8543205986
 11
152.4176815036
 21
185.4955191952
  0
LINE
  8
0
 62
7
  6
CONTINUOUS
 10
152.3926543535
 20
190.2436996612
 11
152.396294496
 21
185.8543185806
  0
LINE
  8
0
 62
7
  6
CONTINUOUS
 10
81.9090329739
 20
228.9384232716
 11
81.1856686331
 21
228.9062647395
  0
LINE
  8
0
 62
7
  6
CONTINUOUS
 10
170.4119839908
 20
228.9388593519
 11
81.9090329739
 21
228.9384232716
  0
POLYLINE
  8
0
 62
7
  6
CONTINUOUS
 66
1
 70
0
  0
VERTEX
  8
0
 62
7
  6
CONTINUOUS
 10
183.4099707316
 20
220.9614931351
  0
VERTEX
  8
0
 62
7
  6
CONTINUOUS
 10
184.2404925473
 20
220.7968632211
  0
VERTEX
  8
0
 62
7
  6
CONTINUOUS
 10
185.1134606025
 20
220.6384989883
  0
VERTEX
  8
0
 62
7
  6
CONTINUOUS
 10
186.8334477517
 20
220.356523987
  0
SEQEND
  0
LINE
  8
0
 62
7
  6
CONTINUOUS
 10
160.0556218202
 20
219.0237076657
 11
160.0565407118
 21
218.9193927512
  0
LINE
  8
0
 62
7
  6
CONTINUOUS
 10
160.0535715374
 20
220.9613149982
 11
160.0556218202
 21
219.0237076657
  0
LINE
  8
0
 62
7
  6
CONTINUOUS
 10
158.0145459016
 20
221.5855606557
 11
158.0145459016
 21
220.8804418902
  0
POLYLINE
  8
0
 62
7
  6
CONTINUOUS
 66
1
 70
0
  0
VERTEX
  8
0
 62
7
  6
CONTINUOUS
 10
81.1856673557
 20
228.906278457
  0
VERTEX
  8
0
 62
7
  6
CONTINUOUS
 10
80.6843723973
 20
228.8003934556
  0
VERTEX
  8
0
 62
7
  6
CONTINUOUS
 10
80.4101870563
 20
228.6807467003
  0
VERTEX
  8
0
 62
7
  6
CONTINUOUS
 10
79.9311398229
 20
228.3272564332
  0
SEQEND
  0
POLYLINE
  8
0
 62
7
  6
CONTINUOUS
 66
1
 70
0
  0
VERTEX
  8
0
 62
7
  6
CONTINUOUS
 10
187.2835609571
 20
220.2867037812
  0
VERTEX
  8
0
 62
7
  6
CONTINUOUS
 10
187.9519239437
 20
220.0915692876
  0
VERTEX
  8
0
 62
7
  6
CONTINUOUS
 10
188.319136923
 20
219.9120633957
  0
VERTEX
  8
0
 62
7
  6
CONTINUOUS
 10
188.9192446423
 20
219.5236687611
  0
SEQEND
  0
POLYLINE
  8
0
 62
7
  6
CONTINUOUS
 66
1
 70
0
  0
VERTEX
  8
0
 62
7
  6
CONTINUOUS
 10
160.0535715827
 20
221.5855606557
  0
VERTEX
  8
0
 62
7
  6
CONTINUOUS
 10
159.186807504
 20
222.1591419603
  0
VERTEX
  8
0
 62
7
  6
CONTINUOUS
 10
158.4194371523
 20
222.5032039408
  0
VERTEX
  8
0
 62
7
  6
CONTINUOUS
 10
157.7705485995
 20
222.6065606557
  0
SEQEND
  0
LINE
  8
CENTER_AXER
 62
2
  6
CENTER
 10
170.9727459016
 20
173.6608606557
 11
170.9727459016
 21
247.6608606557
  0
LINE
  8
0
 62
7
  6
CONTINUOUS
 10
181.9683827239
 20
225.3475174274
 11
190.1757459016
 21
219.706752995
  0
POLYLINE
  8
0
 62
7
  6
CONTINUOUS
 66
1
 70
0
  0
VERTEX
  8
0
 62
7
  6
CONTINUOUS
 10
188.9192445328
 20
219.5236688352
  0
VERTEX
  8
0
 62
7
  6
CONTINUOUS
 10
189.4122113297
 20
219.1806604894
  0
VERTEX
  8
0
 62
7
  6
CONTINUOUS
 10
189.7619357757
 20
218.9849250566
  0
VERTEX
  8
0
 62
7
  6
CONTINUOUS
 10
189.991159684
 20
218.9196622752
  0
SEQEND
  0
LINE
  8
0
 62
7
  6
CONTINUOUS
 10
190.1757459016
 20
194.8525967973
 11
190.1757459016
 21
219.706752995
  0
LINE
  8
0
 62
7
  6
CONTINUOUS
 10
180.2828778309
 20
183.690992585
 11
189.2786139724
 21
192.6867287265
  0
LINE
  8
0
 62
7
  6
CONTINUOUS
 10
265.2007818613
 20
222.6065606557
 11
265.2007818613
 21
225.8788606557
  0
POLYLINE
  8
0
 62
7
  6
CONTINUOUS
 66
1
 70
0
  0
VERTEX
  8
0
 62
7
  6
CONTINUOUS
 10
265.1785062939
 20
220.9588768556
  0
VERTEX
  8
0
 62
7
  6
CONTINUOUS
 10
265.1797685968
 20
222.1590620432
  0
VERTEX
  8
0
 62
7
  6
CONTINUOUS
 10
265.1808863362
 20
222.5031633853
  0
VERTEX
  8
0
 62
7
  6
CONTINUOUS
 10
265.1818316836
 20
222.6065606557
  0
SEQEND
  0
LINE
  8
0
 62
7
  6
CONTINUOUS
 10
265.1562528121
 20
225.1712062229
 11
265.1444370507
 21
220.9508326697
  0
LINE
  8
0
 62
7
  6
CONTINUOUS
 10
265.1444370238
 20
220.950838882
 11
265.1444784934
 21
220.9590550263
  0
LINE
  8
0
 62
7
  6
CONTINUOUS
 10
265.2625093498
 20
196.3013647276
 11
265.1715948073
 21
185.883590034
  0
LINE
  8
0
 62
7
  6
CONTINUOUS
 10
265.1599119785
 20
225.7249572224
 11
265.1562528121
 21
225.1712062229
  0
LINE
  8
0
 62
7
  6
CONTINUOUS
 10
265.1611665473
 20
225.8318713316
 11
265.1599119785
 21
225.7249572224
  0
POLYLINE
  8
0
 62
7
  6
CONTINUOUS
 66
1
 70
0
  0
VERTEX
  8
0
 62
7
  6
CONTINUOUS
 10
265.16452173
 20
225.9782479928
  0
VERTEX
  8
0
 62
7
  6
CONTINUOUS
 10
265.1631937395
 20
225.9364421416
  0
VERTEX
  8
0
 62
7
  6
CONTINUOUS
 10
265.1623590945
 20
225.9014255981
  0
VERTEX
  8
0
 62
7
  6
CONTINUOUS
 10
265.1611665473
 20
225.8318713316
  0
SEQEND
  0
POLYLINE
  8
0
 62
7
  6
CONTINUOUS
 66
1
 70
0
  0
VERTEX
  8
0
 62
7
  6
CONTINUOUS
 10
265.2042683801
 20
226.3777601355
  0
VERTEX
  8
0
 62
7
  6
CONTINUOUS
 10
265.176487827
 20
226.1633000247
  0
VERTEX
  8
0
 62
7
  6
CONTINUOUS
 10
265.1674062454
 20
226.0412239614
  0
VERTEX
  8
0
 62
7
  6
CONTINUOUS
 10
265.16452173
 20
225.9782479928
  0
SEQEND
  0
POLYLINE
  8
0
 62
7
  6
CONTINUOUS
 66
1
 70
0
  0
VERTEX
  8
0
 62
7
  6
CONTINUOUS
 10
265.4399648102
 20
227.1500305955
  0
VERTEX
  8
0
 62
7
  6
CONTINUOUS
 10
265.1945853641
 20
226.3143440609
  0
VERTEX
  8
0
 62
7
  6
CONTINUOUS
 10
265.1634390093
 20
225.8788606557
  0
SEQEND
  0
POLYLINE
  8
0
 62
7
  6
CONTINUOUS
 66
1
 70
0
  0
VERTEX
  8
0
 62
7
  6
CONTINUOUS
 10
265.4651548426
 20
227.2038881274
  0
VERTEX
  8
0
 62
7
  6
CONTINUOUS
 10
265.3460093641
 20
226.9201627747
  0
VERTEX
  8
0
 62
7
  6
CONTINUOUS
 10
265.2599881651
 20
226.6417513245
  0
VERTEX
  8
0
 62
7
  6
CONTINUOUS
 10
265.2042683801
 20
226.3777601355
  0
SEQEND
  0
LINE
  8
0
 62
7
  6
CONTINUOUS
 10
265.9108445189
 20
227.8827345016
 11
265.4399648102
 21
227.1500305955
  0
POLYLINE
  8
0
 62
7
  6
CONTINUOUS
 66
1
 70
0
  0
VERTEX
  8
0
 62
7
  6
CONTINUOUS
 10
266.0350396608
 20
228.0176932699
  0
VERTEX
  8
0
 62
7
  6
CONTINUOUS
 10
265.8087943216
 20
227.7585470474
  0
VERTEX
  8
0
 62
7
  6
CONTINUOUS
 10
265.6191168117
 20
227.4854963498
  0
VERTEX
  8
0
 62
7
  6
CONTINUOUS
 10
265.4651548426
 20
227.2038881274
  0
SEQEND
  0
LINE
  8
0
 62
7
  6
CONTINUOUS
 10
266.2195640431
 20
228.1914543533
 11
265.9108445189
 21
227.8827345016
  0
LINE
  8
0
 62
7
  6
CONTINUOUS
 10
266.2979936318
 20
228.2571646732
 11
266.0350396608
 21
228.0176932699
  0
POLYLINE
  8
0
 62
7
  6
CONTINUOUS
 66
1
 70
0
  0
VERTEX
  8
0
 62
7
  6
CONTINUOUS
 10
265.2531768178
 20
220.2857316781
  0
VERTEX
  8
0
 62
7
  6
CONTINUOUS
 10
265.2308386212
 20
220.3554926541
  0
VERTEX
  8
0
 62
7
  6
CONTINUOUS
 10
265.2115332923
 20
220.4239977238
  0
VERTEX
  8
0
 62
7
  6
CONTINUOUS
 10
265.1961047434
 20
220.4867485465
  0
SEQEND
  0
POLYLINE
  8
0
 62
7
  6
CONTINUOUS
 66
1
 70
0
  0
VERTEX
  8
0
 62
7
  6
CONTINUOUS
 10
265.1961047434
 20
220.4867485465
  0
VERTEX
  8
0
 62
7
  6
CONTINUOUS
 10
265.1675914778
 20
220.6369664246
  0
VERTEX
  8
0
 62
7
  6
CONTINUOUS
 10
265.1498889849
 20
220.7948741448
  0
VERTEX
  8
0
 62
7
  6
CONTINUOUS
 10
265.1444370238
 20
220.950838882
  0
SEQEND
  0
LINE
  8
0
 62
7
  6
CONTINUOUS
 10
276.1846311475
 20
214.126381894
 11
276.1959983385
 21
212.0850835793
  0
LINE
  8
0
 62
7
  6
CONTINUOUS
 10
276.1959983385
 20
212.0850835793
 11
276.2008265536
 21
210.6608606557
  0
LINE
  8
0
 62
7
  6
CONTINUOUS
 10
276.1846311475
 20
217.8287319097
 11
276.1846311475
 21
214.126381894
  0
LINE
  8
0
 62
7
  6
CONTINUOUS
 10
276.1846311475
 20
207.1953394175
 11
276.1846311475
 21
199.4841945614
  0
LINE
  8
0
 62
7
  6
CONTINUOUS
 10
276.1846311475
 20
207.2358256275
 11
276.1846311475
 21
214.1204195872
  0
POLYLINE
  8
0
 62
7
  6
CONTINUOUS
 66
1
 70
0
  0
VERTEX
  8
0
 62
7
  6
CONTINUOUS
 10
276.2008265536
 20
210.6608606557
  0
VERTEX
  8
0
 62
7
  6
CONTINUOUS
 10
276.1959998185
 20
209.2368753375
  0
VERTEX
  8
0
 62
7
  6
CONTINUOUS
 10
276.1846311475
 20
207.1953394175
  0
SEQEND
  0
LINE
  8
0
 62
7
  6
CONTINUOUS
 10
266.9522671719
 20
228.6623345615
 11
266.2195640431
 21
228.1914543533
  0
POLYLINE
  8
0
 62
7
  6
CONTINUOUS
 66
1
 70
0
  0
VERTEX
  8
0
 62
7
  6
CONTINUOUS
 10
267.294392938
 20
228.7944206928
  0
VERTEX
  8
0
 62
7
  6
CONTINUOUS
 10
266.9300133056
 20
228.6520682858
  0
VERTEX
  8
0
 62
7
  6
CONTINUOUS
 10
266.5969095714
 20
228.470780819
  0
VERTEX
  8
0
 62
7
  6
CONTINUOUS
 10
266.2979936318
 20
228.2571646732
  0
SEQEND
  0
POLYLINE
  8
0
 62
7
  6
CONTINUOUS
 66
1
 70
0
  0
VERTEX
  8
0
 62
7
  6
CONTINUOUS
 10
265.7267279617
 20
219.5238754256
  0
VERTEX
  8
0
 62
7
  6
CONTINUOUS
 10
265.4272963017
 20
219.910778776
  0
VERTEX
  8
0
 62
7
  6
CONTINUOUS
 10
265.3326214935
 20
220.08922136
  0
VERTEX
  8
0
 62
7
  6
CONTINUOUS
 10
265.2531768178
 20
220.2857316781
  0
SEQEND
  0
LINE
  8
0
 62
7
  6
CONTINUOUS
 10
267.7879528201
 20
228.9077142679
 11
266.9522671719
 21
228.6623345615
  0
POLYLINE
  8
CURVE_RUNDING
 62
7
  6
CONTINUOUS
 66
1
 70
0
  0
VERTEX
  8
CURVE_RUNDING
 62
7
  6
CONTINUOUS
 10
293.5088699753
 20
194.2031067817
  0
VERTEX
  8
CURVE_RUNDING
 62
7
  6
CONTINUOUS
 10
293.8761223656
 20
193.2394125067
  0
VERTEX
  8
CURVE_RUNDING
 62
7
  6
CONTINUOUS
 10
294.3957206485
 20
192.4085734084
  0
VERTEX
  8
CURVE_RUNDING
 62
7
  6
CONTINUOUS
 10
294.7042262498
 20
192.063623739
  0
VERTEX
  8
CURVE_RUNDING
 62
7
  6
CONTINUOUS
 10
295.3895549404
 20
191.5491728641
  0
VERTEX
  8
CURVE_RUNDING
 62
7
  6
CONTINUOUS
 10
296.1143005002
 20
191.2941459191
  0
VERTEX
  8
CURVE_RUNDING
 62
7
  6
CONTINUOUS
 10
296.4667218641
 20
191.2638607104
  0
SEQEND
  0
POLYLINE
  8
0
 62
7
  6
CONTINUOUS
 66
1
 70
0
  0
VERTEX
  8
0
 62
7
  6
CONTINUOUS
 10
293.4046364447
 20
195.0053715695
  0
VERTEX
  8
0
 62
7
  6
CONTINUOUS
 10
293.4204169346
 20
194.6923901642
  0
VERTEX
  8
0
 62
7
  6
CONTINUOUS
 10
293.4857722151
 20
194.299363178
  0
SEQEND
  0
LINE
  8
0
 62
7
  6
CONTINUOUS
 10
293.4046311475
 20
223.0847834755
 11
293.4046311475
 21
216.7398606557
  0
LINE
  8
0
 62
7
  6
CONTINUOUS
 10
293.4046311475
 20
203.7118606557
 11
293.4046311475
 21
195.0047351349
  0
LINE
  8
0
 62
7
  6
CONTINUOUS
 10
291.7089682873
 20
185.8408228985
 11
291.7344882106
 21
190.7147246883
  0
LINE
  8
0
 62
7
  6
CONTINUOUS
 10
375.2347841174
 20
182.7938606557
 11
354.8232520209
 21
182.7938606557
  0
LINE
  8
0
 62
7
  6
CONTINUOUS
 10
288.6460102742
 20
182.7938606557
 11
268.2344781777
 21
182.7938606557
  0
LINE
  8
CURVE_RUNDING
 62
7
  6
CONTINUOUS
 10
293.5388463871
 20
194.1012198474
 11
293.5088699753
 21
194.2031067817
  0
LINE
  8
0
 62
7
  6
CONTINUOUS
 10
293.4857722151
 20
194.299363178
 11
293.5388431192
 21
194.1012118277
  0
LINE
  8
0
 62
7
  6
CONTINUOUS
 10
297.3883486056
 20
209.9908606557
 11
297.3883486056
 21
210.4608606557
  0
LINE
  8
0
 62
7
  6
CONTINUOUS
 10
297.4828352431
 20
210.4608606557
 11
297.4828352431
 21
209.9908606557
  0
POLYLINE
  8
0
 62
7
  6
CONTINUOUS
 66
1
 70
0
  0
VERTEX
  8
0
 62
7
  6
CONTINUOUS
 10
291.7344885623
 20
190.7147934031
  0
VERTEX
  8
0
 62
7
  6
CONTINUOUS
 10
291.7730684187
 20
190.9536876655
  0
VERTEX
  8
0
 62
7
  6
CONTINUOUS
 10
291.8797836822
 20
191.1498971591
  0
VERTEX
  8
0
 62
7
  6
CONTINUOUS
 10
291.9367441073
 20
191.2074231284
  0
VERTEX
  8
0
 62
7
  6
CONTINUOUS
 10
292.0269324864
 20
191.2600998043
  0
SEQEND
  0
POLYLINE
  8
0
 62
7
  6
CONTINUOUS
 66
1
 70
0
  0
VERTEX
  8
0
 62
7
  6
CONTINUOUS
 10
297.0181369558
 20
206.8605024479
  0
VERTEX
  8
0
 62
7
  6
CONTINUOUS
 10
297.2489073997
 20
207.8928520556
  0
VERTEX
  8
0
 62
7
  6
CONTINUOUS
 10
297.3279530277
 20
208.569760781
  0
VERTEX
  8
0
 62
7
  6
CONTINUOUS
 10
297.3883486056
 20
209.9908606557
  0
SEQEND
  0
POLYLINE
  8
0
 62
7
  6
CONTINUOUS
 66
1
 70
0
  0
VERTEX
  8
0
 62
7
  6
CONTINUOUS
 10
377.4006521882
 20
185.8568606557
  0
VERTEX
  8
0
 62
7
  6
CONTINUOUS
 10
377.8873944691
 20
185.8666442524
  0
VERTEX
  8
0
 62
7
  6
CONTINUOUS
 10
378.1933537204
 20
185.8757614044
  0
VERTEX
  8
0
 62
7
  6
CONTINUOUS
 10
378.2976674877
 20
185.883590034
  0
SEQEND
  0
POLYLINE
  8
0
 62
7
  6
CONTINUOUS
 66
1
 70
0
  0
VERTEX
  8
0
 62
7
  6
CONTINUOUS
 10
266.0686101069
 20
185.8568606557
  0
VERTEX
  8
0
 62
7
  6
CONTINUOUS
 10
265.5818926324
 20
185.8666440262
  0
VERTEX
  8
0
 62
7
  6
CONTINUOUS
 10
265.2758955127
 20
185.8757616167
  0
VERTEX
  8
0
 62
7
  6
CONTINUOUS
 10
265.1715948073
 20
185.883590034
  0
SEQEND
  0
POLYLINE
  8
0
 62
7
  6
CONTINUOUS
 66
1
 70
0
  0
VERTEX
  8
0
 62
7
  6
CONTINUOUS
 10
297.0181369558
 20
213.5912188636
  0
VERTEX
  8
0
 62
7
  6
CONTINUOUS
 10
297.2489073997
 20
212.5588692559
  0
VERTEX
  8
0
 62
7
  6
CONTINUOUS
 10
297.3279530277
 20
211.8819605305
  0
VERTEX
  8
0
 62
7
  6
CONTINUOUS
 10
297.3883486056
 20
210.4608606557
  0
SEQEND
  0
POLYLINE
  8
CURVE_RUNDING
 62
7
  6
CONTINUOUS
 66
1
 70
0
  0
VERTEX
  8
CURVE_RUNDING
 62
7
  6
CONTINUOUS
 10
347.002540431
 20
191.2638607104
  0
VERTEX
  8
CURVE_RUNDING
 62
7
  6
CONTINUOUS
 10
347.3549617978
 20
191.2941459195
  0
VERTEX
  8
CURVE_RUNDING
 62
7
  6
CONTINUOUS
 10
348.0797073536
 20
191.5491728635
  0
VERTEX
  8
CURVE_RUNDING
 62
7
  6
CONTINUOUS
 10
348.7650360442
 20
192.0636237379
  0
VERTEX
  8
CURVE_RUNDING
 62
7
  6
CONTINUOUS
 10
349.0735416456
 20
192.4085734071
  0
VERTEX
  8
CURVE_RUNDING
 62
7
  6
CONTINUOUS
 10
349.5931399288
 20
193.2394125054
  0
SEQEND
  0
POLYLINE
  8
0
 62
7
  6
CONTINUOUS
 66
1
 70
0
  0
VERTEX
  8
0
 62
7
  6
CONTINUOUS
 10
318.7989001308
 20
191.2638503608
  0
VERTEX
  8
0
 62
7
  6
CONTINUOUS
 10
321.7310413221
 20
191.2664767471
  0
VERTEX
  8
0
 62
7
  6
CONTINUOUS
 10
324.6692300251
 20
191.2638503917
  0
SEQEND
  0
LINE
  8
0
 62
7
  6
CONTINUOUS
 10
358.1846610729
 20
191.2638606557
 11
347.0025119913
 21
191.2638606557
  0
LINE
  8
CURVE_RUNDING
 62
7
  6
CONTINUOUS
 10
347.0025119913
 20
191.2638606557
 11
332.3871993257
 21
191.2638606557
  0
LINE
  8
0
 62
7
  6
CONTINUOUS
 10
332.3871993257
 20
191.2638606557
 11
324.6703615808
 21
191.2638606557
  0
LINE
  8
0
 62
7
  6
CONTINUOUS
 10
318.7989007143
 20
191.2638606557
 11
311.0820629694
 21
191.2638606557
  0
LINE
  8
0
 62
7
  6
CONTINUOUS
 10
296.4667503038
 20
191.2638606557
 11
285.2846012222
 21
191.2638606557
  0
LINE
  8
CURVE_RUNDING
 62
7
  6
CONTINUOUS
 10
296.4667503038
 20
191.2638606557
 11
311.0820629694
 21
191.2638606557
  0
LINE
  8
0
 62
7
  6
CONTINUOUS
 10
332.0444570197
 20
194.9727212716
 11
330.6057287419
 21
194.7959396998
  0
POLYLINE
  8
0
 62
7
  6
CONTINUOUS
 66
1
 70
0
  0
VERTEX
  8
0
 62
7
  6
CONTINUOUS
 10
311.4247998993
 20
194.9727287511
  0
VERTEX
  8
0
 62
7
  6
CONTINUOUS
 10
311.9032657492
 20
194.9004122664
  0
VERTEX
  8
0
 62
7
  6
CONTINUOUS
 10
312.3821580219
 20
194.8411697757
  0
VERTEX
  8
0
 62
7
  6
CONTINUOUS
 10
312.8633086773
 20
194.7958395423
  0
SEQEND
  0
POLYLINE
  8
0
 62
7
  6
CONTINUOUS
 66
1
 70
0
  0
VERTEX
  8
0
 62
7
  6
CONTINUOUS
 10
310.8992288524
 20
196.6806033183
  0
VERTEX
  8
0
 62
7
  6
CONTINUOUS
 10
311.0681774465
 20
195.9613334054
  0
VERTEX
  8
0
 62
7
  6
CONTINUOUS
 10
311.1748596701
 20
195.6147372332
  0
VERTEX
  8
0
 62
7
  6
CONTINUOUS
 10
311.4247998993
 20
194.9727287511
  0
SEQEND
  0
LINE
  8
0
 62
7
  6
CONTINUOUS
 10
267.2687937827
 20
198.3252341356
 11
276.8884876765
 21
198.4931465172
  0
LINE
  8
0
 62
7
  6
CONTINUOUS
 10
366.5807746188
 20
198.4931465171
 11
376.2004685124
 21
198.3252341356
  0
LINE
  8
0
 62
7
  6
CONTINUOUS
 10
351.4320601242
 20
191.2638606557
 11
351.4576695608
 21
191.2551950946
  0
LINE
  8
0
 62
7
  6
CONTINUOUS
 10
350.0646155133
 20
203.7118606557
 11
348.6817356316
 21
203.7118606557
  0
LINE
  8
0
 62
7
  6
CONTINUOUS
 10
294.7875266635
 20
203.7118606557
 11
293.4046467817
 21
203.7118606557
  0
LINE
  8
0
 62
7
  6
CONTINUOUS
 10
332.0444570197
 20
194.9727212716
 11
332.6465599069
 21
194.6319111301
  0
LINE
  8
0
 62
7
  6
CONTINUOUS
 10
332.6465599069
 20
194.6319111301
 11
332.8391746514
 21
194.481233324
  0
LINE
  8
CENTER_AXER
 62
2
  6
CENTER
 10
321.7346311475
 20
173.6608606557
 11
321.7346311475
 21
247.6608606557
  0
POLYLINE
  8
0
 62
7
  6
CONTINUOUS
 66
1
 70
0
  0
VERTEX
  8
0
 62
7
  6
CONTINUOUS
 10
294.7875266635
 20
203.7118606557
  0
VERTEX
  8
0
 62
7
  6
CONTINUOUS
 10
295.2979686258
 20
203.8952743186
  0
VERTEX
  8
0
 62
7
  6
CONTINUOUS
 10
295.8622895557
 20
204.4441051348
  0
VERTEX
  8
0
 62
7
  6
CONTINUOUS
 10
296.4238825704
 20
205.3293243703
  0
VERTEX
  8
0
 62
7
  6
CONTINUOUS
 10
296.6805003898
 20
205.8747738703
  0
VERTEX
  8
0
 62
7
  6
CONTINUOUS
 10
297.1120018381
 20
207.134540589
  0
VERTEX
  8
0
 62
7
  6
CONTINUOUS
 10
297.3887834298
 20
208.5360865742
  0
VERTEX
  8
0
 62
7
  6
CONTINUOUS
 10
297.4828352431
 20
209.9908606557
  0
SEQEND
  0
LINE
  8
CENTER_AXER
 62
2
  6
CENTER
 10
259.7346311475
 20
210.6608606557
 11
383.7346311475
 21
210.6608606557
  0
POLYLINE
  8
0
 62
7
  6
CONTINUOUS
 66
1
 70
0
  0
VERTEX
  8
0
 62
7
  6
CONTINUOUS
 10
267.1138178214
 20
218.9200204444
  0
VERTEX
  8
0
 62
7
  6
CONTINUOUS
 10
266.6369056559
 20
218.9914205304
  0
VERTEX
  8
0
 62
7
  6
CONTINUOUS
 10
266.1643426828
 20
219.1874829396
  0
VERTEX
  8
0
 62
7
  6
CONTINUOUS
 10
265.7267278604
 20
219.523875505
  0
SEQEND
  0
POLYLINE
  8
0
 62
7
  6
CONTINUOUS
 66
1
 70
0
  0
VERTEX
  8
0
 62
7
  6
CONTINUOUS
 10
267.2007020038
 20
218.9189545325
  0
VERTEX
  8
0
 62
7
  6
CONTINUOUS
 10
266.5745883129
 20
219.0231672771
  0
VERTEX
  8
0
 62
7
  6
CONTINUOUS
 10
266.0108005896
 20
219.3147816295
  0
VERTEX
  8
0
 62
7
  6
CONTINUOUS
 10
265.563934265
 20
219.7655651609
  0
VERTEX
  8
0
 62
7
  6
CONTINUOUS
 10
265.2772512002
 20
220.3318767791
  0
VERTEX
  8
0
 62
7
  6
CONTINUOUS
 10
265.1785062939
 20
220.9588768556
  0
SEQEND
  0
POLYLINE
  8
0
 62
7
  6
CONTINUOUS
 66
1
 70
0
  0
VERTEX
  8
0
 62
7
  6
CONTINUOUS
 10
294.7875266635
 20
216.7398606557
  0
VERTEX
  8
0
 62
7
  6
CONTINUOUS
 10
295.2979686258
 20
216.5564469929
  0
VERTEX
  8
0
 62
7
  6
CONTINUOUS
 10
295.8622895557
 20
216.0076161767
  0
VERTEX
  8
0
 62
7
  6
CONTINUOUS
 10
296.4238825704
 20
215.1223969412
  0
VERTEX
  8
0
 62
7
  6
CONTINUOUS
 10
296.6805003898
 20
214.5769474411
  0
VERTEX
  8
0
 62
7
  6
CONTINUOUS
 10
297.1120018381
 20
213.3171807225
  0
VERTEX
  8
0
 62
7
  6
CONTINUOUS
 10
297.3887834298
 20
211.9156347373
  0
VERTEX
  8
0
 62
7
  6
CONTINUOUS
 10
297.4828352431
 20
210.4608606557
  0
SEQEND
  0
POLYLINE
  8
0
 62
7
  6
CONTINUOUS
 66
1
 70
0
  0
VERTEX
  8
0
 62
7
  6
CONTINUOUS
 10
348.6817356316
 20
216.7398606557
  0
VERTEX
  8
0
 62
7
  6
CONTINUOUS
 10
348.1712936692
 20
216.5564469929
  0
VERTEX
  8
0
 62
7
  6
CONTINUOUS
 10
347.6069727394
 20
216.0076161767
  0
VERTEX
  8
0
 62
7
  6
CONTINUOUS
 10
347.0453797247
 20
215.1223969412
  0
VERTEX
  8
0
 62
7
  6
CONTINUOUS
 10
346.7887619053
 20
214.5769474411
  0
VERTEX
  8
0
 62
7
  6
CONTINUOUS
 10
346.357260457
 20
213.3171807225
  0
VERTEX
  8
0
 62
7
  6
CONTINUOUS
 10
346.0804788653
 20
211.9156347373
  0
VERTEX
  8
0
 62
7
  6
CONTINUOUS
 10
345.986427052
 20
210.4608606557
  0
SEQEND
  0
POLYLINE
  8
0
 62
7
  6
CONTINUOUS
 66
1
 70
0
  0
VERTEX
  8
0
 62
7
  6
CONTINUOUS
 10
348.6817356316
 20
203.7118606557
  0
VERTEX
  8
0
 62
7
  6
CONTINUOUS
 10
348.1712936692
 20
203.8952743186
  0
VERTEX
  8
0
 62
7
  6
CONTINUOUS
 10
347.6069727394
 20
204.4441051348
  0
VERTEX
  8
0
 62
7
  6
CONTINUOUS
 10
347.0453797247
 20
205.3293243703
  0
VERTEX
  8
0
 62
7
  6
CONTINUOUS
 10
346.7887619053
 20
205.8747738703
  0
VERTEX
  8
0
 62
7
  6
CONTINUOUS
 10
346.357260457
 20
207.134540589
  0
VERTEX
  8
0
 62
7
  6
CONTINUOUS
 10
346.0804788653
 20
208.5360865742
  0
VERTEX
  8
0
 62
7
  6
CONTINUOUS
 10
345.986427052
 20
209.9908606557
  0
SEQEND
  0
POLYLINE
  8
0
 62
7
  6
CONTINUOUS
 66
1
 70
0
  0
VERTEX
  8
0
 62
7
  6
CONTINUOUS
 10
351.4576695608
 20
191.2551950946
  0
VERTEX
  8
0
 62
7
  6
CONTINUOUS
 10
351.5760751131
 20
191.1653462334
  0
VERTEX
  8
0
 62
7
  6
CONTINUOUS
 10
351.6902436846
 20
190.9707331664
  0
VERTEX
  8
0
 62
7
  6
CONTINUOUS
 10
351.73477398
 20
190.7147447682
  0
SEQEND
  0
POLYLINE
  8
0
 62
7
  6
CONTINUOUS
 66
1
 70
0
  0
VERTEX
  8
0
 62
7
  6
CONTINUOUS
 10
311.4247998993
 20
194.9727287511
  0
VERTEX
  8
0
 62
7
  6
CONTINUOUS
 10
310.8520195133
 20
194.6491671783
  0
VERTEX
  8
0
 62
7
  6
CONTINUOUS
 10
310.6365868194
 20
194.4813316469
  0
SEQEND
  0
LINE
  8
0
 62
7
  6
CONTINUOUS
 10
367.8929314254
 20
218.8461692118
 11
376.3144023473
 21
218.9196622752
  0
LINE
  8
0
 62
7
  6
CONTINUOUS
 10
350.0646155133
 20
216.7398606557
 11
348.6817356316
 21
216.7398606557
  0
LINE
  8
0
 62
7
  6
CONTINUOUS
 10
294.7875266635
 20
216.7398606557
 11
293.4046467817
 21
216.7398606557
  0
LINE
  8
0
 62
7
  6
CONTINUOUS
 10
267.1138178214
 20
218.9200204444
 11
275.5763308697
 21
218.8461692118
  0
POLYLINE
  8
0
 62
7
  6
CONTINUOUS
 66
1
 70
0
  0
VERTEX
  8
0
 62
7
  6
CONTINUOUS
 10
332.5701136528
 20
196.6805940823
  0
VERTEX
  8
0
 62
7
  6
CONTINUOUS
 10
332.4010995618
 20
195.9613488406
  0
VERTEX
  8
0
 62
7
  6
CONTINUOUS
 10
332.2944200819
 20
195.6147418382
  0
VERTEX
  8
0
 62
7
  6
CONTINUOUS
 10
332.0444570197
 20
194.9727212716
  0
SEQEND
  0
LINE
  8
0
 62
7
  6
CONTINUOUS
 10
265.1818316836
 20
222.6065606557
 11
293.4046311475
 21
222.6065606557
  0
LINE
  8
0
 62
7
  6
CONTINUOUS
 10
350.0646311475
 20
222.6065606557
 11
378.2874306115
 21
222.6065606557
  0
LINE
  8
0
 62
7
  6
CONTINUOUS
 10
268.2234357632
 20
228.9388606557
 11
375.2458265318
 21
228.9388606557
  0
POLYLINE
  8
0
 62
7
  6
CONTINUOUS
 66
1
 70
0
  0
VERTEX
  8
0
 62
7
  6
CONTINUOUS
 10
346.4511253393
 20
213.5912188636
  0
VERTEX
  8
0
 62
7
  6
CONTINUOUS
 10
346.2203548954
 20
212.5588692559
  0
VERTEX
  8
0
 62
7
  6
CONTINUOUS
 10
346.1413092674
 20
211.8819605305
  0
VERTEX
  8
0
 62
7
  6
CONTINUOUS
 10
346.0809136895
 20
210.4608606557
  0
SEQEND
  0
POLYLINE
  8
0
 62
7
  6
CONTINUOUS
 66
1
 70
0
  0
VERTEX
  8
0
 62
7
  6
CONTINUOUS
 10
298.093176042
 20
228.9388603117
  0
VERTEX
  8
0
 62
7
  6
CONTINUOUS
 10
296.9600434873
 20
228.7749357612
  0
VERTEX
  8
0
 62
7
  6
CONTINUOUS
 10
295.8809558578
 20
228.2879087203
  0
VERTEX
  8
0
 62
7
  6
CONTINUOUS
 10
294.9357598382
 20
227.5004365634
  0
VERTEX
  8
0
 62
7
  6
CONTINUOUS
 10
294.5345447475
 20
227.0067525812
  0
VERTEX
  8
0
 62
7
  6
CONTINUOUS
 10
293.9060952575
 20
225.8551795954
  0
VERTEX
  8
0
 62
7
  6
CONTINUOUS
 10
293.526718134
 20
224.5213883261
  0
VERTEX
  8
0
 62
7
  6
CONTINUOUS
 10
293.4046311479
 20
223.0848301609
  0
SEQEND
  0
LINE
  8
0
 62
7
  6
CONTINUOUS
 10
268.098872222
 20
228.9363243289
 11
267.7339454362
 21
228.8994569779
  0
POLYLINE
  8
0
 62
7
  6
CONTINUOUS
 66
1
 70
0
  0
VERTEX
  8
0
 62
7
  6
CONTINUOUS
 10
268.2607786152
 20
228.9388606557
  0
VERTEX
  8
0
 62
7
  6
CONTINUOUS
 10
267.8252956834
 20
228.9077142679
  0
VERTEX
  8
0
 62
7
  6
CONTINUOUS
 10
266.9896100497
 20
228.6623345616
  0
VERTEX
  8
0
 62
7
  6
CONTINUOUS
 10
266.2569069253
 20
228.1914543534
  0
VERTEX
  8
0
 62
7
  6
CONTINUOUS
 10
265.9481873999
 20
227.8827345018
  0
VERTEX
  8
0
 62
7
  6
CONTINUOUS
 10
265.4773076833
 20
227.1500305956
  0
VERTEX
  8
0
 62
7
  6
CONTINUOUS
 10
265.231928224
 20
226.3143440609
  0
VERTEX
  8
0
 62
7
  6
CONTINUOUS
 10
265.2007818613
 20
225.8788606557
  0
SEQEND
  0
LINE
  8
0
 62
7
  6
CONTINUOUS
 10
268.2234357632
 20
228.9388606557
 11
267.7879528201
 21
228.9077142679
  0
LINE
  8
0
 62
7
  6
CONTINUOUS
 10
268.2233901213
 20
228.9388606554
 11
267.9400289325
 21
228.9257084595
  0
LINE
  8
0
 62
7
  6
CONTINUOUS
 10
268.2233899732
 20
228.9388606557
 11
268.098872222
 21
228.9363243289
  0
LINE
  8
0
 62
7
  6
CONTINUOUS
 10
375.3842497692
 20
228.9357282092
 11
375.2458265318
 21
228.9388606557
  0
LINE
  8
0
 62
7
  6
CONTINUOUS
 10
375.4561052176
 20
228.9316270701
 11
375.3767191342
 21
228.9360599771
  0
POLYLINE
  8
0
 62
7
  6
CONTINUOUS
 66
1
 70
0
  0
VERTEX
  8
0
 62
7
  6
CONTINUOUS
 10
375.2084836799
 20
228.9388606557
  0
VERTEX
  8
0
 62
7
  6
CONTINUOUS
 10
375.6439666181
 20
228.9077142681
  0
VERTEX
  8
0
 62
7
  6
CONTINUOUS
 10
376.4796522674
 20
228.6623345627
  0
VERTEX
  8
0
 62
7
  6
CONTINUOUS
 10
377.2123554
 20
228.1914543547
  0
VERTEX
  8
0
 62
7
  6
CONTINUOUS
 10
377.5210749248
 20
227.8827345028
  0
VERTEX
  8
0
 62
7
  6
CONTINUOUS
 10
377.9919546317
 20
227.1500305958
  0
VERTEX
  8
0
 62
7
  6
CONTINUOUS
 10
378.2373340767
 20
226.3143440606
  0
VERTEX
  8
0
 62
7
  6
CONTINUOUS
 10
378.2684804338
 20
225.8788606557
  0
SEQEND
  0
LINE
  8
0
 62
7
  6
CONTINUOUS
 10
375.5294565146
 20
228.9256875919
 11
375.4561052176
 21
228.9316270701
  0
LINE
  8
0
 62
7
  6
CONTINUOUS
 10
375.7353088107
 20
228.899458282
 11
375.3842497692
 21
228.9357282092
  0
POLYLINE
  8
0
 62
7
  6
CONTINUOUS
 66
1
 70
0
  0
VERTEX
  8
0
 62
7
  6
CONTINUOUS
 10
346.4511253393
 20
206.8605024479
  0
VERTEX
  8
0
 62
7
  6
CONTINUOUS
 10
346.2203548954
 20
207.8928520556
  0
VERTEX
  8
0
 62
7
  6
CONTINUOUS
 10
346.1413092674
 20
208.569760781
  0
VERTEX
  8
0
 62
7
  6
CONTINUOUS
 10
346.0809136895
 20
209.9908606557
  0
SEQEND
  0
LINE
  8
0
 62
7
  6
CONTINUOUS
 10
345.986427052
 20
210.4608606557
 11
345.986427052
 21
209.9908606557
  0
LINE
  8
0
 62
7
  6
CONTINUOUS
 10
346.0809136895
 20
209.9908606557
 11
346.0809136895
 21
210.4608606557
  0
LINE
  8
0
 62
7
  6
CONTINUOUS
 10
350.0646311475
 20
223.084773341
 11
350.0646311475
 21
216.7398606557
  0
LINE
  8
0
 62
7
  6
CONTINUOUS
 10
350.0646311475
 20
203.7118606557
 11
350.0646311475
 21
195.0052899814
  0
POLYLINE
  8
0
 62
7
  6
CONTINUOUS
 66
1
 70
0
  0
VERTEX
  8
0
 62
7
  6
CONTINUOUS
 10
377.7407330093
 20
219.5236688352
  0
VERTEX
  8
0
 62
7
  6
CONTINUOUS
 10
377.2906356502
 20
219.1806604894
  0
VERTEX
  8
0
 62
7
  6
CONTINUOUS
 10
376.8046195075
 20
218.9849250566
  0
VERTEX
  8
0
 62
7
  6
CONTINUOUS
 10
376.3144023473
 20
218.9196622752
  0
SEQEND
  0
POLYLINE
  8
0
 62
7
  6
CONTINUOUS
 66
1
 70
0
  0
VERTEX
  8
0
 62
7
  6
CONTINUOUS
 10
267.7339454362
 20
228.8994569779
  0
VERTEX
  8
0
 62
7
  6
CONTINUOUS
 10
267.6858628109
 20
228.89127146
  0
VERTEX
  8
0
 62
7
  6
CONTINUOUS
 10
267.294392938
 20
228.7944206928
  0
SEQEND
  0
LINE
  8
0
 62
7
  6
CONTINUOUS
 10
267.9400289325
 20
228.9257084595
 11
267.734019786
 21
228.8994690252
  0
LINE
  8
0
 62
7
  6
CONTINUOUS
 10
375.6051086345
 20
228.9176956698
 11
375.5294565146
 21
228.9256875919
  0
LINE
  8
0
 62
7
  6
CONTINUOUS
 10
375.4561052176
 20
228.9316270701
 11
375.681309475
 21
228.9077142679
  0
POLYLINE
  8
0
 62
7
  6
CONTINUOUS
 66
1
 70
0
  0
VERTEX
  8
0
 62
7
  6
CONTINUOUS
 10
350.0646311472
 20
223.0848199969
  0
VERTEX
  8
0
 62
7
  6
CONTINUOUS
 10
349.9425737425
 20
224.5212143023
  0
VERTEX
  8
0
 62
7
  6
CONTINUOUS
 10
349.5633151205
 20
225.854808399
  0
VERTEX
  8
0
 62
7
  6
CONTINUOUS
 10
348.9350018
 20
227.006350367
  0
VERTEX
  8
0
 62
7
  6
CONTINUOUS
 10
348.5338052954
 20
227.500105559
  0
VERTEX
  8
0
 62
7
  6
CONTINUOUS
 10
347.5885152238
 20
228.2877756159
  0
VERTEX
  8
0
 62
7
  6
CONTINUOUS
 10
346.5092502978
 20
228.7749255459
  0
VERTEX
  8
0
 62
7
  6
CONTINUOUS
 10
345.3760682477
 20
228.9388603178
  0
SEQEND
  0
LINE
  8
0
 62
7
  6
CONTINUOUS
 10
351.7347740845
 20
190.7147246884
 11
351.7602940078
 21
185.8408228985
  0
POLYLINE
  8
0
 62
7
  6
CONTINUOUS
 66
1
 70
0
  0
VERTEX
  8
0
 62
7
  6
CONTINUOUS
 10
349.9304288928
 20
194.1012606813
  0
VERTEX
  8
0
 62
7
  6
CONTINUOUS
 10
350.0048271275
 20
194.3982433421
  0
VERTEX
  8
0
 62
7
  6
CONTINUOUS
 10
350.0571342471
 20
194.7895418436
  0
VERTEX
  8
0
 62
7
  6
CONTINUOUS
 10
350.0646309435
 20
195.0054069212
  0
SEQEND
  0
POLYLINE
  8
CURVE_RUNDING
 62
7
  6
CONTINUOUS
 66
1
 70
0
  0
VERTEX
  8
CURVE_RUNDING
 62
7
  6
CONTINUOUS
 10
349.5931399288
 20
193.2394125054
  0
VERTEX
  8
CURVE_RUNDING
 62
7
  6
CONTINUOUS
 10
349.9603923194
 20
194.2031067804
  0
VERTEX
  8
CURVE_RUNDING
 62
7
  6
CONTINUOUS
 10
349.9304312307
 20
194.1012703499
  0
SEQEND
  0
LINE
  8
0
 62
7
  6
CONTINUOUS
 10
375.681309475
 20
228.9077142679
 11
376.5169951232
 21
228.6623345615
  0
POLYLINE
  8
0
 62
7
  6
CONTINUOUS
 66
1
 70
0
  0
VERTEX
  8
0
 62
7
  6
CONTINUOUS
 10
376.6171665824
 20
228.6143773858
  0
VERTEX
  8
0
 62
7
  6
CONTINUOUS
 10
376.2358277511
 20
228.7742898209
  0
VERTEX
  8
0
 62
7
  6
CONTINUOUS
 10
375.8227555709
 20
228.8839824441
  0
VERTEX
  8
0
 62
7
  6
CONTINUOUS
 10
375.7353088107
 20
228.899458282
  0
SEQEND
  0
LINE
  8
0
 62
7
  6
CONTINUOUS
 10
367.2846311475
 20
207.1953394175
 11
367.2732622649
 21
209.2369093317
  0
LINE
  8
0
 62
7
  6
CONTINUOUS
 10
367.2732622649
 20
209.2369093317
 11
367.2684357414
 21
210.6608606557
  0
LINE
  8
0
 62
7
  6
CONTINUOUS
 10
367.2846311475
 20
217.8287319097
 11
367.2846311475
 21
214.126381894
  0
LINE
  8
0
 62
7
  6
CONTINUOUS
 10
367.2846311475
 20
207.1953394175
 11
367.2846311475
 21
199.4841945614
  0
LINE
  8
0
 62
7
  6
CONTINUOUS
 10
367.2846311475
 20
207.2358256275
 11
367.2846311475
 21
214.1203793475
  0
POLYLINE
  8
0
 62
7
  6
CONTINUOUS
 66
1
 70
0
  0
VERTEX
  8
0
 62
7
  6
CONTINUOUS
 10
367.2684357414
 20
210.6608606557
  0
VERTEX
  8
0
 62
7
  6
CONTINUOUS
 10
367.2732637457
 20
212.0850497148
  0
VERTEX
  8
0
 62
7
  6
CONTINUOUS
 10
367.2846311475
 20
214.126381894
  0
SEQEND
  0
LINE
  8
0
 62
7
  6
CONTINUOUS
 10
376.5169951232
 20
228.6623345615
 11
377.249698252
 21
228.1914543533
  0
POLYLINE
  8
0
 62
7
  6
CONTINUOUS
 66
1
 70
0
  0
VERTEX
  8
0
 62
7
  6
CONTINUOUS
 10
378.2156919364
 20
220.2867037812
  0
VERTEX
  8
0
 62
7
  6
CONTINUOUS
 10
378.1368052091
 20
220.0915692876
  0
VERTEX
  8
0
 62
7
  6
CONTINUOUS
 10
378.0416065554
 20
219.9120633957
  0
VERTEX
  8
0
 62
7
  6
CONTINUOUS
 10
377.7407329144
 20
219.5236687611
  0
SEQEND
  0
POLYLINE
  8
0
 62
7
  6
CONTINUOUS
 66
1
 70
0
  0
VERTEX
  8
0
 62
7
  6
CONTINUOUS
 10
377.267931653
 20
228.1755444473
  0
VERTEX
  8
0
 62
7
  6
CONTINUOUS
 10
376.9622028484
 20
228.4121776831
  0
VERTEX
  8
0
 62
7
  6
CONTINUOUS
 10
376.6171665824
 20
228.6143773858
  0
SEQEND
  0
POLYLINE
  8
0
 62
7
  6
CONTINUOUS
 66
1
 70
0
  0
VERTEX
  8
0
 62
7
  6
CONTINUOUS
 10
378.2907548007
 20
220.9613149982
  0
VERTEX
  8
0
 62
7
  6
CONTINUOUS
 10
378.1919130855
 20
220.3337002162
  0
VERTEX
  8
0
 62
7
  6
CONTINUOUS
 10
377.9049489586
 20
219.7668333907
  0
VERTEX
  8
0
 62
7
  6
CONTINUOUS
 10
377.4576445294
 20
219.3156079147
  0
VERTEX
  8
0
 62
7
  6
CONTINUOUS
 10
376.8933040723
 20
219.0237076657
  0
VERTEX
  8
0
 62
7
  6
CONTINUOUS
 10
376.2665765435
 20
218.9193927512
  0
SEQEND
  0
POLYLINE
  8
0
 62
7
  6
CONTINUOUS
 66
1
 70
0
  0
VERTEX
  8
0
 62
7
  6
CONTINUOUS
 10
378.2728916799
 20
220.4878335086
  0
VERTEX
  8
0
 62
7
  6
CONTINUOUS
 10
378.2574295363
 20
220.4250664176
  0
VERTEX
  8
0
 62
7
  6
CONTINUOUS
 10
378.2380818743
 20
220.356523987
  0
VERTEX
  8
0
 62
7
  6
CONTINUOUS
 10
378.2156919364
 20
220.2867037812
  0
SEQEND
  0
LINE
  8
0
 62
7
  6
CONTINUOUS
 10
377.249698252
 20
228.1914543533
 11
377.5584177762
 21
227.8827345016
  0
POLYLINE
  8
0
 62
7
  6
CONTINUOUS
 66
1
 70
0
  0
VERTEX
  8
0
 62
7
  6
CONTINUOUS
 10
377.7561218183
 20
227.6287607051
  0
VERTEX
  8
0
 62
7
  6
CONTINUOUS
 10
377.5327173526
 20
227.9120416843
  0
VERTEX
  8
0
 62
7
  6
CONTINUOUS
 10
377.267931653
 20
228.1755444473
  0
SEQEND
  0
POLYLINE
  8
0
 62
7
  6
CONTINUOUS
 66
1
 70
0
  0
VERTEX
  8
0
 62
7
  6
CONTINUOUS
 10
378.304145364
 20
225.9935198569
  0
VERTEX
  8
0
 62
7
  6
CONTINUOUS
 10
378.2999864646
 20
226.0724103581
  0
VERTEX
  8
0
 62
7
  6
CONTINUOUS
 10
378.2863168983
 20
226.2252694597
  0
SEQEND
  0
POLYLINE
  8
0
 62
7
  6
CONTINUOUS
 66
1
 70
0
  0
VERTEX
  8
0
 62
7
  6
CONTINUOUS
 10
378.3067485132
 20
225.9086148297
  0
VERTEX
  8
0
 62
7
  6
CONTINUOUS
 10
378.3058013054
 20
225.9459743328
  0
VERTEX
  8
0
 62
7
  6
CONTINUOUS
 10
378.304145364
 20
225.9935198569
  0
SEQEND
  0
LINE
  8
0
 62
7
  6
CONTINUOUS
 10
378.3080240109
 20
225.8368623402
 11
378.3067485132
 21
225.9086148297
  0
LINE
  8
0
 62
7
  6
CONTINUOUS
 10
378.3098520275
 20
225.6710758038
 11
378.3080240109
 21
225.8368623402
  0
LINE
  8
0
 62
7
  6
CONTINUOUS
 10
378.2883757651
 20
222.5032039408
 11
378.2874306115
 21
222.6065606557
  0
LINE
  8
0
 62
7
  6
CONTINUOUS
 10
378.2976674877
 20
185.883590034
 11
378.2067529453
 21
196.3013647276
  0
LINE
  8
0
 62
7
  6
CONTINUOUS
 10
378.3145902316
 20
224.8089070779
 11
378.3098520275
 21
225.6710758038
  0
LINE
  8
0
 62
7
  6
CONTINUOUS
 10
378.2907560012
 20
221.5855606557
 11
378.2883757651
 21
222.5032039408
  0
LINE
  8
0
 62
7
  6
CONTINUOUS
 10
378.3248175093
 20
220.9532974202
 11
378.3199663681
 21
222.91424432
  0
LINE
  8
0
 62
7
  6
CONTINUOUS
 10
378.3199663681
 20
222.91424432
 11
378.3145902316
 21
224.8089070779
  0
LINE
  8
0
 62
7
  6
CONTINUOUS
 10
378.3201418689
 20
222.8321763954
 11
378.3201454948
 21
222.8256912902
  0
LINE
  8
0
 62
7
  6
CONTINUOUS
 10
378.2684804338
 20
225.8788606557
 11
378.2684804338
 21
222.6065606557
  0
LINE
  8
0
 62
7
  6
CONTINUOUS
 10
378.2907560012
 20
221.5855606557
 11
378.2907560011
 21
220.9613149982
  0
POLYLINE
  8
0
 62
7
  6
CONTINUOUS
 66
1
 70
0
  0
VERTEX
  8
0
 62
7
  6
CONTINUOUS
 10
378.3248175093
 20
220.9532974202
  0
VERTEX
  8
0
 62
7
  6
CONTINUOUS
 10
378.3193381639
 20
220.7968632211
  0
VERTEX
  8
0
 62
7
  6
CONTINUOUS
 10
378.3015486895
 20
220.6384989883
  0
VERTEX
  8
0
 62
7
  6
CONTINUOUS
 10
378.2728916799
 20
220.4878335086
  0
SEQEND
  0
LINE
  8
0
 62
7
  6
CONTINUOUS
 10
377.5584177762
 20
227.8827345016
 11
378.0292974849
 21
227.1500305955
  0
POLYLINE
  8
0
 62
7
  6
CONTINUOUS
 66
1
 70
0
  0
VERTEX
  8
0
 62
7
  6
CONTINUOUS
 10
378.0811224213
 20
227.0299272869
  0
VERTEX
  8
0
 62
7
  6
CONTINUOUS
 10
377.938698635
 20
227.3322097439
  0
VERTEX
  8
0
 62
7
  6
CONTINUOUS
 10
377.7561218183
 20
227.6287607051
  0
SEQEND
  0
POLYLINE
  8
0
 62
7
  6
CONTINUOUS
 66
1
 70
0
  0
VERTEX
  8
0
 62
7
  6
CONTINUOUS
 10
378.0292974849
 20
227.1500305955
  0
VERTEX
  8
0
 62
7
  6
CONTINUOUS
 10
378.274676931
 20
226.3143440609
  0
VERTEX
  8
0
 62
7
  6
CONTINUOUS
 10
378.3058232858
 20
225.8788606557
  0
SEQEND
  0
POLYLINE
  8
0
 62
7
  6
CONTINUOUS
 66
1
 70
0
  0
VERTEX
  8
0
 62
7
  6
CONTINUOUS
 10
378.2863168983
 20
226.2252694597
  0
VERTEX
  8
0
 62
7
  6
CONTINUOUS
 10
378.2508555906
 20
226.456766817
  0
VERTEX
  8
0
 62
7
  6
CONTINUOUS
 10
378.1841240433
 20
226.7334832074
  0
VERTEX
  8
0
 62
7
  6
CONTINUOUS
 10
378.0811224213
 20
227.0299272869
  0
SEQEND
  0
POLYLINE
  8
0
 62
7
  6
CONTINUOUS
 66
1
 70
0
  0
VERTEX
  8
0
 62
7
  6
CONTINUOUS
 10
187.2835609571
 20
43.0261113422
  0
VERTEX
  8
0
 62
7
  6
CONTINUOUS
 10
187.9519239437
 20
43.1049980696
  0
VERTEX
  8
0
 62
7
  6
CONTINUOUS
 10
188.319136923
 20
43.2001967233
  0
VERTEX
  8
0
 62
7
  6
CONTINUOUS
 10
188.9192446423
 20
43.5010703643
  0
SEQEND
  0
POLYLINE
  8
0
 62
7
  6
CONTINUOUS
 66
1
 70
0
  0
VERTEX
  8
0
 62
7
  6
CONTINUOUS
 10
186.0287829732
 20
42.9689115988
  0
VERTEX
  8
0
 62
7
  6
CONTINUOUS
 10
186.4155054032
 20
42.9843737424
  0
VERTEX
  8
0
 62
7
  6
CONTINUOUS
 10
186.8334477517
 20
43.0037214043
  0
VERTEX
  8
0
 62
7
  6
CONTINUOUS
 10
187.2835609571
 20
43.0261113422
  0
SEQEND
  0
POLYLINE
  8
0
 62
7
  6
CONTINUOUS
 66
1
 70
0
  0
VERTEX
  8
0
 62
7
  6
CONTINUOUS
 10
183.4099707316
 20
42.9170271408
  0
VERTEX
  8
0
 62
7
  6
CONTINUOUS
 10
184.2404925473
 20
42.9224651148
  0
VERTEX
  8
0
 62
7
  6
CONTINUOUS
 10
185.1134606025
 20
42.9402545892
  0
VERTEX
  8
0
 62
7
  6
CONTINUOUS
 10
186.0287829732
 20
42.9689115988
  0
SEQEND
  0
LINE
  8
0
 62
7
  6
CONTINUOUS
 10
144.7604368539
 20
42.9733228449
 11
183.410024918
 21
42.9170268978
  0
LINE
  8
CENTER_AXER
 62
2
  6
CENTER
 10
100.0727459016
 20
37.5071721311
 11
100.0727459016
 21
161.5071721311
  0
POLYLINE
  8
0
 62
7
  6
CONTINUOUS
 66
1
 70
0
  0
VERTEX
  8
0
 62
7
  6
CONTINUOUS
 10
179.9713879327
 20
69.6838719033
  0
VERTEX
  8
0
 62
7
  6
CONTINUOUS
 10
177.3820130787
 20
69.6906179533
  0
VERTEX
  8
0
 62
7
  6
CONTINUOUS
 10
174.6189358559
 20
69.6951911936
  0
SEQEND
  0
POLYLINE
  8
0
 62
7
  6
CONTINUOUS
 66
1
 70
0
  0
VERTEX
  8
0
 62
7
  6
CONTINUOUS
 10
174.6189438112
 20
69.6951911836
  0
VERTEX
  8
0
 62
7
  6
CONTINUOUS
 10
172.798596828
 20
69.7529901376
  0
VERTEX
  8
0
 62
7
  6
CONTINUOUS
 10
170.6716603536
 20
69.9634834778
  0
SEQEND
  0
LINE
  8
0
 62
7
  6
CONTINUOUS
 10
117.0690813785
 20
75.5853416827
 11
125.0461073955
 21
75.5853416827
  0
POLYLINE
  8
0
 62
7
  6
CONTINUOUS
 66
1
 70
0
  0
VERTEX
  8
0
 62
7
  6
CONTINUOUS
 10
181.1656099014
 20
69.609817351
  0
VERTEX
  8
0
 62
7
  6
CONTINUOUS
 10
180.7907892671
 20
69.648264129
  0
VERTEX
  8
0
 62
7
  6
CONTINUOUS
 10
180.3450015815
 20
69.6758412197
  0
VERTEX
  8
0
 62
7
  6
CONTINUOUS
 10
179.9713871995
 20
69.6838719056
  0
SEQEND
  0
POLYLINE
  8
0
 62
7
  6
CONTINUOUS
 66
1
 70
0
  0
VERTEX
  8
0
 62
7
  6
CONTINUOUS
 10
170.6716603537
 20
69.963483478
  0
VERTEX
  8
0
 62
7
  6
CONTINUOUS
 10
165.9109916887
 20
71.01991868
  0
VERTEX
  8
0
 62
7
  6
CONTINUOUS
 10
161.3152578555
 20
72.8900073191
  0
VERTEX
  8
0
 62
7
  6
CONTINUOUS
 10
157.0999774197
 20
75.5094671203
  0
VERTEX
  8
0
 62
7
  6
CONTINUOUS
 10
153.3869813861
 20
78.8030668993
  0
VERTEX
  8
0
 62
7
  6
CONTINUOUS
 10
151.7528870675
 20
80.6737889013
  0
VERTEX
  8
0
 62
7
  6
CONTINUOUS
 10
148.9882483337
 20
84.7958334938
  0
SEQEND
  0
POLYLINE
  8
0
 62
7
  6
CONTINUOUS
 66
1
 70
0
  0
VERTEX
  8
0
 62
7
  6
CONTINUOUS
 10
170.6716567292
 20
69.9634568046
  0
VERTEX
  8
0
 62
7
  6
CONTINUOUS
 10
165.8472621998
 20
71.0398037474
  0
VERTEX
  8
0
 62
7
  6
CONTINUOUS
 10
161.2722459112
 20
72.9119426853
  0
VERTEX
  8
0
 62
7
  6
CONTINUOUS
 10
157.0770798348
 20
75.526539755
  0
VERTEX
  8
0
 62
7
  6
CONTINUOUS
 10
153.3811305193
 20
78.8092009256
  0
SEQEND
  0
LINE
  8
0
 62
7
  6
CONTINUOUS
 10
141.8906822763
 20
154.1023051455
 11
131.1655208357
 21
127.556599063
  0
LINE
  8
0
 62
7
  6
CONTINUOUS
 10
131.1655208357
 20
71.4577451993
 11
141.8906822763
 21
44.9120391168
  0
POLYLINE
  8
0
 62
7
  6
CONTINUOUS
 66
1
 70
0
  0
VERTEX
  8
0
 62
7
  6
CONTINUOUS
 10
153.3811293782
 20
120.2051421363
  0
VERTEX
  8
0
 62
7
  6
CONTINUOUS
 10
157.0770785066
 20
123.4878035147
  0
VERTEX
  8
0
 62
7
  6
CONTINUOUS
 10
161.2722444227
 20
126.1024008154
  0
VERTEX
  8
0
 62
7
  6
CONTINUOUS
 10
165.8472605785
 20
127.9745400063
  0
VERTEX
  8
0
 62
7
  6
CONTINUOUS
 10
170.6716567292
 20
129.0508874577
  0
SEQEND
  0
LINE
  8
CENTER_AXER
 62
2
  6
CENTER
 10
49.5727459016
 20
99.5071721311
 11
213.5727459016
 21
99.5071721311
  0
LINE
  8
CENTER_AXER
 62
2
  6
CENTER
 10
135.5227459016
 20
125.6415998791
 11
135.5227459016
 21
101.5072721311
  0
LINE
  8
CENTER_AXER
 62
2
  6
CONTINUOUS
 10
135.5227459016
 20
100.5571721311
 11
135.5227459016
 21
98.4571721311
  0
LINE
  8
CENTER_AXER
 62
2
  6
CENTER
 10
135.5227459016
 20
81.0252064365
 11
135.5227459016
 21
97.5070721311
  0
POLYLINE
  8
0
 62
7
  6
CONTINUOUS
 66
1
 70
0
  0
VERTEX
  8
0
 62
7
  6
CONTINUOUS
 10
148.3830296577
 20
113.0666445147
  0
VERTEX
  8
0
 62
7
  6
CONTINUOUS
 10
151.7485608707
 20
118.3351556603
  0
VERTEX
  8
0
 62
7
  6
CONTINUOUS
 10
153.3822133918
 20
120.2062634922
  0
VERTEX
  8
0
 62
7
  6
CONTINUOUS
 10
157.0944268186
 20
123.5007364373
  0
VERTEX
  8
0
 62
7
  6
CONTINUOUS
 10
161.3090701759
 20
126.1211833209
  0
VERTEX
  8
0
 62
7
  6
CONTINUOUS
 10
165.9043508488
 20
127.9923581859
  0
VERTEX
  8
0
 62
7
  6
CONTINUOUS
 10
170.6716603537
 20
129.0508607843
  0
SEQEND
  0
POLYLINE
  8
0
 62
7
  6
CONTINUOUS
 66
1
 70
0
  0
VERTEX
  8
0
 62
7
  6
CONTINUOUS
 10
151.7538801321
 20
80.6725326404
  0
VERTEX
  8
0
 62
7
  6
CONTINUOUS
 10
148.9987555764
 20
84.7768741274
  0
VERTEX
  8
0
 62
7
  6
CONTINUOUS
 10
148.3830189126
 20
85.9477004135
  0
SEQEND
  0
LINE
  8
0
 62
7
  6
CONTINUOUS
 10
145.3167459016
 20
100.0172425597
 11
145.3167459016
 21
98.9971017026
  0
POLYLINE
  8
0
 62
7
  6
CONTINUOUS
 66
1
 70
0
  0
VERTEX
  8
0
 62
7
  6
CONTINUOUS
 10
145.3167459016
 20
100.0172425597
  0
VERTEX
  8
0
 62
7
  6
CONTINUOUS
 10
145.7337111777
 20
104.9427944129
  0
VERTEX
  8
0
 62
7
  6
CONTINUOUS
 10
146.9728119753
 20
109.728362755
  0
VERTEX
  8
0
 62
7
  6
CONTINUOUS
 10
148.3830206387
 20
113.0666473189
  0
SEQEND
  0
POLYLINE
  8
0
 62
7
  6
CONTINUOUS
 66
1
 70
0
  0
VERTEX
  8
0
 62
7
  6
CONTINUOUS
 10
148.3830206387
 20
113.0666473189
  0
VERTEX
  8
0
 62
7
  6
CONTINUOUS
 10
148.9987547719
 20
114.2374686854
  0
VERTEX
  8
0
 62
7
  6
CONTINUOUS
 10
151.7538790964
 20
118.3418103296
  0
SEQEND
  0
POLYLINE
  8
0
 62
7
  6
CONTINUOUS
 66
1
 70
0
  0
VERTEX
  8
0
 62
7
  6
CONTINUOUS
 10
148.3830189126
 20
85.9477004135
  0
VERTEX
  8
0
 62
7
  6
CONTINUOUS
 10
146.9728125292
 20
89.2859799304
  0
VERTEX
  8
0
 62
7
  6
CONTINUOUS
 10
145.7337114632
 20
94.0715481751
  0
VERTEX
  8
0
 62
7
  6
CONTINUOUS
 10
145.3167459016
 20
98.9971017026
  0
SEQEND
  0
POLYLINE
  8
0
 62
7
  6
CONTINUOUS
 66
1
 70
0
  0
VERTEX
  8
0
 62
7
  6
CONTINUOUS
 10
181.1656363119
 20
129.4045301156
  0
VERTEX
  8
0
 62
7
  6
CONTINUOUS
 10
182.7664390562
 20
129.730035986
  0
VERTEX
  8
0
 62
7
  6
CONTINUOUS
 10
184.2503870498
 20
130.2850223636
  0
VERTEX
  8
0
 62
7
  6
CONTINUOUS
 10
185.5408355865
 20
131.0024220095
  0
VERTEX
  8
0
 62
7
  6
CONTINUOUS
 10
186.6461328782
 20
131.8376183724
  0
VERTEX
  8
0
 62
7
  6
CONTINUOUS
 10
187.5786705992
 20
132.7576508694
  0
VERTEX
  8
0
 62
7
  6
CONTINUOUS
 10
188.3487495087
 20
133.7346897471
  0
VERTEX
  8
0
 62
7
  6
CONTINUOUS
 10
188.6738410812
 20
134.2333728925
  0
VERTEX
  8
0
 62
7
  6
CONTINUOUS
 10
189.2088325935
 20
135.2279734602
  0
VERTEX
  8
0
 62
7
  6
CONTINUOUS
 10
189.6053438305
 20
136.2008755187
  0
VERTEX
  8
0
 62
7
  6
CONTINUOUS
 10
189.8177221173
 20
136.886012542
  0
SEQEND
  0
LINE
  8
0
 62
7
  6
CONTINUOUS
 10
180.7907646531
 20
129.3660780691
 11
181.1656113683
 21
129.4045270893
  0
POLYLINE
  8
0
 62
7
  6
CONTINUOUS
 66
1
 70
0
  0
VERTEX
  8
0
 62
7
  6
CONTINUOUS
 10
170.6716603537
 20
129.0508607843
  0
VERTEX
  8
0
 62
7
  6
CONTINUOUS
 10
172.7985917837
 20
129.2613541592
  0
VERTEX
  8
0
 62
7
  6
CONTINUOUS
 10
174.6189342251
 20
129.3191530667
  0
SEQEND
  0
LINE
  8
0
 62
7
  6
CONTINUOUS
 10
125.0461073955
 20
123.4290025796
 11
117.0690813785
 21
123.4290025796
  0
POLYLINE
  8
0
 62
7
  6
CONTINUOUS
 66
1
 70
0
  0
VERTEX
  8
0
 62
7
  6
CONTINUOUS
 10
179.9713866752
 20
129.330472355
  0
VERTEX
  8
0
 62
7
  6
CONTINUOUS
 10
180.345087966
 20
129.3385064849
  0
VERTEX
  8
0
 62
7
  6
CONTINUOUS
 10
180.7907646531
 20
129.3660780691
  0
SEQEND
  0
POLYLINE
  8
0
 62
7
  6
CONTINUOUS
 66
1
 70
0
  0
VERTEX
  8
0
 62
7
  6
CONTINUOUS
 10
174.6189358922
 20
129.3191530687
  0
VERTEX
  8
0
 62
7
  6
CONTINUOUS
 10
177.3820836719
 20
129.3237264583
  0
VERTEX
  8
0
 62
7
  6
CONTINUOUS
 10
179.9713876908
 20
129.3304723582
  0
SEQEND
  0
LINE
  8
CENTER_AXER
 62
2
  6
CENTER
 10
170.9727459016
 20
37.5071721311
 11
170.9727459016
 21
161.5071721311
  0
POLYLINE
  8
0
 62
7
  6
CONTINUOUS
 66
1
 70
0
  0
VERTEX
  8
0
 62
7
  6
CONTINUOUS
 10
189.8177079723
 20
136.8859595456
  0
VERTEX
  8
0
 62
7
  6
CONTINUOUS
 10
189.764484731
 20
136.6973964913
  0
VERTEX
  8
0
 62
7
  6
CONTINUOUS
 10
189.3111986888
 20
135.453410822
  0
VERTEX
  8
0
 62
7
  6
CONTINUOUS
 10
188.9671129024
 20
134.7457834147
  0
VERTEX
  8
0
 62
7
  6
CONTINUOUS
 10
187.9264924845
 20
133.168994618
  0
VERTEX
  8
0
 62
7
  6
CONTINUOUS
 10
186.3859665542
 20
131.6193238353
  0
VERTEX
  8
0
 62
7
  6
CONTINUOUS
 10
184.4875797407
 20
130.3990786789
  0
VERTEX
  8
0
 62
7
  6
CONTINUOUS
 10
182.3132273582
 20
129.6106762786
  0
VERTEX
  8
0
 62
7
  6
CONTINUOUS
 10
181.1655412327
 20
129.4049182951
  0
SEQEND
  0
POLYLINE
  8
0
 62
7
  6
CONTINUOUS
 66
1
 70
0
  0
VERTEX
  8
0
 62
7
  6
CONTINUOUS
 10
189.8199779409
 20
62.1200209484
  0
VERTEX
  8
0
 62
7
  6
CONTINUOUS
 10
189.634714151
 20
62.7280679061
  0
VERTEX
  8
0
 62
7
  6
CONTINUOUS
 10
189.2594265529
 20
63.6767603618
  0
VERTEX
  8
0
 62
7
  6
CONTINUOUS
 10
188.7546153323
 20
64.6465247058
  0
VERTEX
  8
0
 62
7
  6
CONTINUOUS
 10
188.1033968372
 20
65.6181772255
  0
VERTEX
  8
0
 62
7
  6
CONTINUOUS
 10
187.2960472474
 20
66.5610016045
  0
VERTEX
  8
0
 62
7
  6
CONTINUOUS
 10
186.3294907917
 20
67.44052697
  0
VERTEX
  8
0
 62
7
  6
CONTINUOUS
 10
185.2092133722
 20
68.2200059992
  0
VERTEX
  8
0
 62
7
  6
CONTINUOUS
 10
183.9482559515
 20
68.8639368297
  0
VERTEX
  8
0
 62
7
  6
CONTINUOUS
 10
182.5673890866
 20
69.3394798765
  0
VERTEX
  8
0
 62
7
  6
CONTINUOUS
 10
181.1656364364
 20
69.6098141315
  0
SEQEND
  0
POLYLINE
  8
0
 62
7
  6
CONTINUOUS
 66
1
 70
0
  0
VERTEX
  8
0
 62
7
  6
CONTINUOUS
 10
189.8199644992
 20
62.1200730996
  0
VERTEX
  8
0
 62
7
  6
CONTINUOUS
 10
189.764948539
 20
62.3153623262
  0
VERTEX
  8
0
 62
7
  6
CONTINUOUS
 10
189.3121566341
 20
63.5587535371
  0
VERTEX
  8
0
 62
7
  6
CONTINUOUS
 10
188.9684405444
 20
64.2660770307
  0
VERTEX
  8
0
 62
7
  6
CONTINUOUS
 10
187.9288749544
 20
65.8423760004
  0
VERTEX
  8
0
 62
7
  6
CONTINUOUS
 10
186.3882769493
 20
67.393145495
  0
VERTEX
  8
0
 62
7
  6
CONTINUOUS
 10
184.4892173916
 20
68.6144520538
  0
VERTEX
  8
0
 62
7
  6
CONTINUOUS
 10
182.3138847486
 20
69.4035107823
  0
VERTEX
  8
0
 62
7
  6
CONTINUOUS
 10
181.1655397305
 20
69.6094260228
  0
SEQEND
  0
POLYLINE
  8
0
 62
7
  6
CONTINUOUS
 66
1
 70
0
  0
VERTEX
  8
0
 62
7
  6
CONTINUOUS
 10
190.1757459016
 20
59.4486925286
  0
VERTEX
  8
0
 62
7
  6
CONTINUOUS
 10
190.1714789741
 20
59.7436919565
  0
VERTEX
  8
0
 62
7
  6
CONTINUOUS
 10
190.1277413943
 20
60.4371359113
  0
VERTEX
  8
0
 62
7
  6
CONTINUOUS
 10
190.0092221763
 20
61.2846069926
  0
VERTEX
  8
0
 62
7
  6
CONTINUOUS
 10
189.8199644992
 20
62.1200730996
  0
SEQEND
  0
LINE
  8
0
 62
7
  6
CONTINUOUS
 10
190.1757459016
 20
153.0397073988
 11
190.1757459016
 21
139.5656517336
  0
LINE
  8
0
 62
7
  6
CONTINUOUS
 10
190.1757459016
 20
59.4486925286
 11
190.1757459016
 21
45.9746368635
  0
POLYLINE
  8
0
 62
7
  6
CONTINUOUS
 66
1
 70
0
  0
VERTEX
  8
0
 62
7
  6
CONTINUOUS
 10
190.1757459016
 20
139.5656517336
  0
VERTEX
  8
0
 62
7
  6
CONTINUOUS
 10
190.1714723881
 20
139.2704247806
  0
VERTEX
  8
0
 62
7
  6
CONTINUOUS
 10
190.1276849502
 20
138.576628643
  0
VERTEX
  8
0
 62
7
  6
CONTINUOUS
 10
190.0090302314
 20
137.7286878424
  0
VERTEX
  8
0
 62
7
  6
CONTINUOUS
 10
189.8177079723
 20
136.8859595456
  0
SEQEND
  0
LINE
  8
0
 62
7
  6
CONTINUOUS
 10
183.4151720897
 20
156.0973248617
 11
144.7604368539
 21
156.0410214174
  0
POLYLINE
  8
0
 62
7
  6
CONTINUOUS
 66
1
 70
0
  0
VERTEX
  8
0
 62
7
  6
CONTINUOUS
 10
186.0283832948
 20
156.0456985352
  0
VERTEX
  8
0
 62
7
  6
CONTINUOUS
 10
185.1152162993
 20
156.0742118009
  0
VERTEX
  8
0
 62
7
  6
CONTINUOUS
 10
184.2440964235
 20
156.0919142938
  0
VERTEX
  8
0
 62
7
  6
CONTINUOUS
 10
183.4151195638
 20
156.0973247852
  0
SEQEND
  0
LINE
  8
0
 62
7
  6
CONTINUOUS
 10
186.4152117447
 20
156.0302699864
 11
186.0283832948
 21
156.0456985352
  0
LINE
  8
0
 62
7
  6
CONTINUOUS
 10
187.2831957283
 20
155.9886264609
 11
186.4152117447
 21
156.0302699864
  0
POLYLINE
  8
0
 62
7
  6
CONTINUOUS
 66
1
 70
0
  0
VERTEX
  8
0
 62
7
  6
CONTINUOUS
 10
188.9167754444
 20
155.515075317
  0
VERTEX
  8
0
 62
7
  6
CONTINUOUS
 10
188.3190477774
 20
155.814506977
  0
VERTEX
  8
0
 62
7
  6
CONTINUOUS
 10
187.9546733468
 20
155.9091817852
  0
VERTEX
  8
0
 62
7
  6
CONTINUOUS
 10
187.2831957283
 20
155.9886264609
  0
SEQEND
  0
POLYLINE
  8
0
 62
7
  6
CONTINUOUS
 66
1
 70
0
  0
VERTEX
  8
0
 62
7
  6
CONTINUOUS
 10
189.9473347466
 20
154.0238489627
  0
VERTEX
  8
0
 62
7
  6
CONTINUOUS
 10
190.0325706206
 20
153.8543433859
  0
VERTEX
  8
0
 62
7
  6
CONTINUOUS
 10
190.0720764854
 20
153.5989670269
  0
SEQEND
  0
ARC
  8
0
 62
7
  6
CONTINUOUS
 10
82.8688459016
 20
203.5158606557
 40
12.252
 50
208.6594874385
 51
270.0
  0
ARC
  8
0
 62
7
  6
CONTINUOUS
 10
187.1127459016
 20
194.8525967973
 40
3.063
 50
315.0
 51
360.0
  0
ARC
  8
0
 62
7
  6
CONTINUOUS
 10
178.1170097601
 20
185.8568606557
 40
3.063
 50
270.0
 51
315.0
  0
ARC
  8
0
 62
7
  6
CONTINUOUS
 10
155.4592933453
 20
185.8568606557
 40
3.063
 50
180.047513539
 51
270.0000000001
  0
ARC
  8
0
 62
7
  6
CONTINUOUS
 10
151.3716543714
 20
190.2428606557
 40
1.021
 50
78.0348294896
 51
86.6056455685
  0
ARC
  8
0
 62
7
  6
CONTINUOUS
 10
151.3716543714
 20
190.2428606557
 40
1.021
 50
0.0475138567
 51
71.0860047848
  0
ARC
  8
0
 62
7
  6
CONTINUOUS
 10
170.4023673659
 20
208.5188606557
 40
20.42
 50
55.5
 51
90.0
  0
CIRCLE
  8
0
 62
7
  6
CONTINUOUS
 10
171.3927459016
 20
210.6608606557
 40
8.17
  0
CIRCLE
  8
0
 62
7
  6
CONTINUOUS
 10
171.3927459016
 20
210.6608606557
 40
6.15
  0
ARC
  8
0
 62
7
  6
CONTINUOUS
 10
156.9935459016
 20
221.5855606557
 40
1.021
 50
0.0
 51
90.0
  0
ARC
  8
0
 62
7
  6
CONTINUOUS
 10
268.2344781777
 20
185.8568606557
 40
3.063
 50
179.5
 51
270.0
  0
ARC
  8
0
 62
7
  6
CONTINUOUS
 10
288.6460102742
 20
185.8568606557
 40
3.063
 50
270.0
 51
359.7
  0
ARC
  8
0
 62
7
  6
CONTINUOUS
 10
267.3044315967
 20
196.2835451421
 40
2.042
 50
91.0
 51
179.5
  0
ARC
  8
0
 62
7
  6
CONTINUOUS
 10
275.1636311475
 20
199.4841945614
 40
1.021
 50
271.0
 51
360.0
  0
ARC
  8
0
 62
7
  6
CONTINUOUS
 10
275.0048710938
 20
217.6713512886
 40
1.1797600538
 50
6.8097452826
 51
83.0883860735
  0
ARC
  8
0
 62
7
  6
CONTINUOUS
 10
275.1579322754
 20
217.8230825539
 40
1.0266988721
 50
45.0531724619
 51
89.47658792
  0
ARC
  8
0
 62
7
  6
CONTINUOUS
 10
275.1636311475
 20
217.8287319097
 40
1.021
 50
0.0
 51
89.5
  0
ARC
  8
0
 62
7
  6
CONTINUOUS
 10
375.2347841174
 20
185.8568606557
 40
3.063
 50
270.0
 51
0.5
  0
ARC
  8
0
 62
7
  6
CONTINUOUS
 10
354.8232520209
 20
185.8568606557
 40
3.063
 50
180.2999999998
 51
270.0
  0
ARC
  8
0
 62
7
  6
CONTINUOUS
 10
376.1648306984
 20
196.2835451421
 40
2.042
 50
0.5
 51
89.0
  0
ARC
  8
0
 62
7
  6
CONTINUOUS
 10
368.3056311475
 20
199.4841945614
 40
1.021
 50
180.0
 51
269.0
  0
ARC
  8
0
 62
7
  6
CONTINUOUS
 10
368.4644193458
 20
217.6713233887
 40
1.1797881982
 50
96.9181438544
 51
173.1892099875
  0
ARC
  8
0
 62
7
  6
CONTINUOUS
 10
368.3112941167
 20
217.8231181449
 40
1.0266629691
 50
90.5232855194
 51
134.946821479
  0
ARC
  8
0
 62
7
  6
CONTINUOUS
 10
368.3056311475
 20
217.8287319097
 40
1.021
 50
90.5
 51
180.0
  0
ARC
  8
0
 62
7
  6
CONTINUOUS
 10
117.0690813785
 20
68.9453416827
 40
6.64
 50
90.0
 51
119.0797267564
  0
ARC
  8
0
 62
7
  6
CONTINUOUS
 10
125.0461073955
 20
68.9853416827
 40
6.6
 50
22.0
 51
90.0
  0
ARC
  8
0
 62
7
  6
CONTINUOUS
 10
100.0727459016
 20
99.5071721311
 40
28.33
 50
60.9202732436
 51
299.0797267564
  0
ARC
  8
0
 62
7
  6
CONTINUOUS
 10
117.0690813785
 20
130.0690025796
 40
6.64
 50
240.9202732436
 51
270.0
  0
ARC
  8
0
 62
7
  6
CONTINUOUS
 10
125.0461073955
 20
130.0290025796
 40
6.6
 50
270.0
 51
338.0
  0
ARC
  8
0
 62
7
  6
CONTINUOUS
 10
144.7649522255
 20
46.0733195564
 40
3.1
 50
202.0
 51
269.9165445726
  0
ARC
  8
0
 62
7
  6
CONTINUOUS
 10
187.1127459016
 20
45.9746368635
 40
3.063
 50
306.1414555928
 51
360.0
  0
ARC
  8
0
 62
7
  6
CONTINUOUS
 10
144.7649522255
 20
152.9410247059
 40
3.1
 50
90.0834554274
 51
158.0
  0
ARC
  8
0
 62
7
  6
CONTINUOUS
 10
187.1127459016
 20
153.0397073988
 40
3.063
 50
0.0
 51
53.9157183518
  0
ENDSEC
  0
EOF
