  0
SECTION
  2
HEADER
  9
$EXTMAX
 10
420.0
 20
297.0
 30
0.0
  9
$EXTMIN
 10
0.0
 20
0.0
 30
0.0
  9
$LIMMIN
 10
0.0
 20
0.0
  9
$LIMMAX
 10
420.0
 20
297.0
  9
$VIEWCTR
 10
210.0
 20
148.5
  9
$VIEWSIZE
 40
297.0
  9
$CLAYER
  8
0
  9
$LTSCALE
 40
23.1
  9
$CELTYPE
  6
BYLAYER
  9
$DIMSCALE
 40
1.0
  9
$DIMASZ
 40
3.5
  9
$DIMEXO
 40
1.0
  9
$DIMDLI
 40
15.96
  9
$DIMEXE
 40
2.0
  9
$DIMCEN
 40
3.78
  9
$DIMLFAC
 40
1.0
  9
$DIMBLK
  1
_FILLED
  9
$DIMTXT
 40
3.5
  9
$PDMODE
 70
3
  9
$PDSIZE
 40
0.3125
  9
$TILEMODE
 70
1
  0
ENDSEC
  0
SECTION
  2
TABLES
  0
TABLE
  2
LTYPE
 70
6
  0
LTYPE
  2
BYBLOCK
 70
0
  3

 72
65
 73
0
 40
0.0
  0
LTYPE
  2
BYLAYER
 70
0
  3

 72
65
 73
0
 40
0.0
  0
LTYPE
  2
CONTINUOUS
 70
64
  3
Solid line
 72
65
 73
0
 40
0.0
  0
LTYPE
  2
CENTER
 70
64
  3
____ _ ____ _ ____ _ ____ _ ____ _ ____ _ ____
 72
65
 73
4
 40
0.6
 49
0.375
 49
-0.075
 49
0.075
 49
-0.075
  0
LTYPE
  2
HIDDEN
 70
64
  3
- - - - - - - - - - - - - - - - - - - -
 72
65
 73
2
 40
0.2
 49
0.1
 49
-0.1
  0
LTYPE
  2
PHANTOM
 70
64
  3
_____ _ _ _____ _ _ _____ _ _ _____
 72
65
 73
6
 40
0.8
 49
0.45
 49
-0.05
 49
0.1
 49
-0.05
 49
0.1
 49
-0.05
  0
LTYPE
  2
DOT
 70
64
  3
. . . . . . . . . . . . . . . . . . . .
 72
65
 73
2
 40
0.2
 49
0.1
 49
-0.1
  0
LTYPE
  2
DASHED
 70
64
  3
- - - - - - - - - - - - - - - - - - - -
 72
65
 73
2
 40
0.2
 49
0.1
 49
-0.1
  0
ENDTAB
  0
TABLE
  2
LAYER
 70
36
  0
LAYER
  2
0
 70
0
 62
7
  6
CONTINUOUS
  0
LAYER
  2
DEFAULT_1
 70
0
 62
7
  6
CENTER
  0
LAYER
  2
DEFAULT_2
 70
0
 62
8
  6
HIDDEN
  0
LAYER
  2
DEFAULT_3
 70
0
 62
7
  6
PHANTOM
  0
LAYER
  2
10-PART-SURF
 70
0
 62
7
  6
CONTINUOUS
  0
LAYER
  2
CENTERPLANER
 70
0
 62
7
  6
CONTINUOUS
  0
LAYER
  2
CENTER_AXER
 70
0
 62
7
  6
CONTINUOUS
  0
LAYER
  2
CURVE_RUNDING
 70
0
 62
7
  6
CONTINUOUS
  0
LAYER
  2
HELP_GEOMETRI
 70
0
 62
7
  6
CONTINUOUS
  0
LAYER
  2
LUKKEFLADE1
 70
0
 62
7
  6
CONTINUOUS
  0
LAYER
  2
LUKKEFLADE2
 70
0
 62
7
  6
CONTINUOUS
  0
LAYER
  2
LUKKEFLADE3
 70
0
 62
7
  6
CONTINUOUS
  0
LAYER
  2
NOTES
 70
0
 62
7
  6
CONTINUOUS
  0
LAYER
  2
PLANER_GLIDE
 70
0
 62
7
  6
CONTINUOUS
  0
LAYER
  2
PLANES
 70
0
 62
7
  6
CONTINUOUS
  0
LAYER
  2
PLAN_CHAMF
 70
0
 62
7
  6
CONTINUOUS
  0
LAYER
  2
PLAN_SIDESTYR
 70
0
 62
7
  6
CONTINUOUS
  0
LAYER
  2
QUILT
 70
0
 62
7
  6
CONTINUOUS
  0
LAYER
  2
ROUND_SPLIT
 70
0
 62
7
  6
CONTINUOUS
  0
LAYER
  2
SIDE_KERNER
 70
0
 62
7
  6
CONTINUOUS
  0
LAYER
  2
TRAKHUL
 70
0
 62
7
  6
CONTINUOUS
  0
LAYER
  2
VARIABLE
 70
0
 62
7
  6
CONTINUOUS
  0
ENDTAB
  0
TABLE
  2
STYLE
 70
1
  0
STYLE
  2
STANDARD
 70
0
 40
0.0
 41
0.8
 50
0.0
 71
0
 42
0.2
  3
txt
  4

  0
STYLE
  2
TEXTSTYLE_1
 70
0
 40
0.0
 41
0.8
 50
0.0
 71
0
 42
0.2
  3
gdt
  4

  0
STYLE
  2
TEXTSTYLE_2
 70
0
 40
0.0
 41
0.6
 50
0.0
 71
0
 42
0.2
  3
txt
  4

  0
STYLE
  2
TEXTSTYLE_3
 70
0
 40
0.0
 41
1.0
 50
0.0
 71
0
 42
0.2
  3
ftb_____.ttf
  4

  0
STYLE
  2
TEXTSTYLE_4
 70
0
 40
0.0
 41
1.0
 50
0.0
 71
0
 42
0.2
  3
fti_____.ttf
  4

  0
STYLE
  2
TEXTSTYLE_5
 70
0
 40
0.0
 41
1.0
 50
0.0
 71
0
 42
0.2
  3
frutiger light.ttf
  4

  0
STYLE
  2
TEXTSTYLE_6
 70
0
 40
0.0
 41
0.7
 50
0.0
 71
0
 42
0.2
  3
txt
  4

  0
STYLE
  2
TEXTSTYLE_7
 70
0
 40
0.0
 41
0.8
 50
0.0
 71
0
 42
0.2
  3
txt
  4

  0
ENDTAB
  0
ENDSEC
  0
SECTION
  2
BLOCKS
  0
BLOCK
  8
0
 62
2
  6
CONTINUOUS
  2
SYMBOL_5_BL1
 70
64
 10
382.3920721743
 20
35.81661148
  0
TEXT
  8
0
 62
7
  6
CONTINUOUS
 10
373.4503571828
 20
30.9093678571
  7
TEXTSTYLE_4
 40
1.0655737705
  1
The brand for plastic modular belts and chains
 41
1.0
 72
0
  0
LINE
  8
0
 62
7
  6
CONTINUOUS
 10
358.3701405634
 20
36.3903819718
 11
358.3701405634
 21
34.2592344308
  0
LINE
  8
0
 62
7
  6
CONTINUOUS
 10
358.6592030565
 20
31.2683031351
 11
358.6592030565
 21
31.3650941944
  0
LINE
  8
0
 62
7
  6
CONTINUOUS
 10
358.3701405634
 20
31.332830508
 11
358.4279530651
 21
31.1392483894
  0
LINE
  8
0
 62
7
  6
CONTINUOUS
 10
359.7635831863
 20
34.1772672177
 11
359.7635831863
 21
36.3903819718
  0
LINE
  8
0
 62
7
  6
CONTINUOUS
 10
360.6826405082
 20
32.3330049227
 11
360.6826405082
 21
30.81661148
  0
LINE
  8
0
 62
7
  6
CONTINUOUS
 10
360.9717030634
 20
30.81661148
 11
360.9717030634
 21
31.5586763581
  0
LINE
  8
0
 62
7
  6
CONTINUOUS
 10
360.9717030634
 20
31.6877311038
 11
360.9717030634
 21
32.3330049227
  0
LINE
  8
0
 62
7
  6
CONTINUOUS
 10
358.4279530651
 20
31.5264126717
 11
358.3701405634
 21
31.332830508
  0
LINE
  8
0
 62
7
  6
CONTINUOUS
 10
358.7748280496
 20
31.106984703
 11
358.6592030565
 21
31.2683031351
  0
LINE
  8
0
 62
7
  6
CONTINUOUS
 10
359.8732656185
 20
31.623203731
 11
359.9310780634
 21
31.5264126717
  0
LINE
  8
0
 62
7
  6
CONTINUOUS
 10
360.2201406185
 20
31.5264126717
 11
360.1623280082
 21
31.6554674174
  0
LINE
  8
0
 62
7
  6
CONTINUOUS
 10
361.648829088
 20
36.3903819718
 11
361.648829088
 21
34.5871032833
  0
LINE
  8
0
 62
7
  6
CONTINUOUS
 10
361.648829088
 20
33.2756278735
 11
361.648829088
 21
32.6198901686
  0
LINE
  8
0
 62
7
  6
CONTINUOUS
 10
362.0123280634
 20
31.4618852989
 11
362.0123280634
 21
30.81661148
  0
LINE
  8
0
 62
7
  6
CONTINUOUS
 10
362.3013904531
 20
30.81661148
 11
362.3013904531
 21
31.4618852989
  0
LINE
  8
0
 62
7
  6
CONTINUOUS
 10
358.6592030565
 20
31.3650941944
 11
358.7170155634
 21
31.4941489853
  0
LINE
  8
0
 62
7
  6
CONTINUOUS
 10
358.4279530651
 20
31.1392483894
 11
358.5435780634
 21
31.0101936212
  0
LINE
  8
0
 62
7
  6
CONTINUOUS
 10
361.9545154531
 20
31.5909400446
 11
362.0123280634
 21
31.4618852989
  0
LINE
  8
0
 62
7
  6
CONTINUOUS
 10
362.7638906736
 20
31.106984703
 11
362.8217029531
 21
30.9779299347
  0
LINE
  8
0
 62
7
  6
CONTINUOUS
 10
362.3013904531
 20
31.4618852989
 11
362.2435781736
 21
31.623203731
  0
LINE
  8
0
 62
7
  6
CONTINUOUS
 10
362.7638906736
 20
31.6554674174
 11
362.7638906736
 21
31.5909400446
  0
LINE
  8
0
 62
7
  6
CONTINUOUS
 10
362.7638906736
 20
31.2037757623
 11
362.7638906736
 21
31.106984703
  0
LINE
  8
0
 62
7
  6
CONTINUOUS
 10
363.0422717109
 20
32.6198901686
 11
363.0422717109
 21
36.3903819718
  0
LINE
  8
0
 62
7
  6
CONTINUOUS
 10
363.0529530634
 20
31.074720994
 11
363.0529530634
 21
31.1392483894
  0
LINE
  8
0
 62
7
  6
CONTINUOUS
 10
363.3701405634
 20
36.3903819718
 11
363.3701405634
 21
32.6198901686
  0
LINE
  8
0
 62
7
  6
CONTINUOUS
 10
360.1623280082
 20
31.0101936212
 11
360.2201406185
 21
31.1392483894
  0
LINE
  8
0
 62
7
  6
CONTINUOUS
 10
364.5560782839
 20
30.9134025506
 11
364.4982653428
 21
31.074720994
  0
LINE
  8
0
 62
7
  6
CONTINUOUS
 10
364.2092032839
 20
31.5909400446
 11
364.2092032839
 21
31.4941489853
  0
LINE
  8
0
 62
7
  6
CONTINUOUS
 10
364.2092032839
 20
31.3650941944
 11
364.2092032839
 21
31.1715120759
  0
LINE
  8
0
 62
7
  6
CONTINUOUS
 10
364.4982653428
 20
31.074720994
 11
364.4982653428
 21
31.5909400446
  0
LINE
  8
0
 62
7
  6
CONTINUOUS
 10
364.7635831863
 20
32.6198901686
 11
364.7635831863
 21
34.4231688571
  0
LINE
  8
0
 62
7
  6
CONTINUOUS
 10
364.7635831863
 20
35.7346442669
 11
364.7635831863
 21
36.3903819718
  0
LINE
  8
0
 62
7
  6
CONTINUOUS
 10
365.0763907839
 20
32.3330049227
 11
365.0763907839
 21
32.1716864905
  0
LINE
  8
0
 62
7
  6
CONTINUOUS
 10
365.0763907839
 20
31.8490495359
 11
365.0763907839
 21
30.81661148
  0
LINE
  8
0
 62
7
  6
CONTINUOUS
 10
365.3654528428
 20
30.81661148
 11
365.3654528428
 21
31.8490495359
  0
LINE
  8
0
 62
7
  6
CONTINUOUS
 10
365.3654528428
 20
32.1716864905
 11
365.3654528428
 21
32.3330049227
  0
LINE
  8
0
 62
7
  6
CONTINUOUS
 10
359.9310780634
 20
31.1392483894
 11
359.8732656185
 21
31.0424573076
  0
LINE
  8
0
 62
7
  6
CONTINUOUS
 10
362.2435781736
 20
31.623203731
 11
362.1857655634
 21
31.6877311038
  0
LINE
  8
0
 62
7
  6
CONTINUOUS
 10
363.1107656736
 20
31.0101936212
 11
363.0529530634
 21
31.074720994
  0
LINE
  8
0
 62
7
  6
CONTINUOUS
 10
364.2670155634
 20
30.8811388585
 11
364.3248278428
 21
30.81661148
  0
LINE
  8
0
 62
7
  6
CONTINUOUS
 10
364.2092032839
 20
30.9779299347
 11
364.2670155634
 21
30.8811388585
  0
LINE
  8
0
 62
7
  6
CONTINUOUS
 10
364.6138905634
 20
30.81661148
 11
364.5560782839
 21
30.9134025506
  0
LINE
  8
0
 62
7
  6
CONTINUOUS
 10
364.4982653428
 20
31.5909400446
 11
364.4404530634
 21
31.6877311038
  0
LINE
  8
0
 62
7
  6
CONTINUOUS
 10
365.8279530634
 20
31.8490495359
 11
365.8279530634
 21
30.81661148
  0
LINE
  8
0
 62
7
  6
CONTINUOUS
 10
366.1170157839
 20
30.81661148
 11
366.1170157839
 21
31.5586763581
  0
LINE
  8
0
 62
7
  6
CONTINUOUS
 10
366.1170157839
 20
31.6877311038
 11
366.1170157839
 21
31.8490495359
  0
LINE
  8
0
 62
7
  6
CONTINUOUS
 10
366.648829088
 20
34.8330049227
 11
366.648829088
 21
32.6198901686
  0
LINE
  8
0
 62
7
  6
CONTINUOUS
 10
358.5435780634
 20
31.6554674174
 11
358.4279530651
 21
31.5264126717
  0
LINE
  8
0
 62
7
  6
CONTINUOUS
 10
358.7170155634
 20
31.4941489853
 11
358.7748280496
 21
31.5586763581
  0
LINE
  8
0
 62
7
  6
CONTINUOUS
 10
358.5435780634
 20
31.0101936212
 11
358.6592030565
 21
30.945666237
  0
LINE
  8
0
 62
7
  6
CONTINUOUS
 10
358.9482655496
 20
31.0101936212
 11
358.7748280496
 21
31.106984703
  0
LINE
  8
0
 62
7
  6
CONTINUOUS
 10
364.1513903428
 20
31.6554674174
 11
364.2092032839
 21
31.5909400446
  0
LINE
  8
0
 62
7
  6
CONTINUOUS
 10
367.0998278428
 20
31.5909400446
 11
367.1576407839
 21
31.4296216124
  0
LINE
  8
0
 62
7
  6
CONTINUOUS
 10
367.4467028428
 20
31.4296216124
 11
367.3888905634
 21
31.5909400446
  0
LINE
  8
0
 62
7
  6
CONTINUOUS
 10
367.1576407839
 20
31.4296216124
 11
367.1576407839
 21
30.81661148
  0
LINE
  8
0
 62
7
  6
CONTINUOUS
 10
367.4467028428
 20
30.81661148
 11
367.4467028428
 21
31.4296216124
  0
LINE
  8
0
 62
7
  6
CONTINUOUS
 10
367.9092030634
 20
31.6554674174
 11
367.9092030634
 21
31.5909400446
  0
LINE
  8
0
 62
7
  6
CONTINUOUS
 10
368.0422717109
 20
32.6198901686
 11
368.0422717109
 21
34.7510377095
  0
LINE
  8
0
 62
7
  6
CONTINUOUS
 10
368.3701405634
 20
36.3903819718
 11
368.3701405634
 21
32.6198901686
  0
LINE
  8
0
 62
7
  6
CONTINUOUS
 10
363.0529530634
 20
31.1392483894
 11
363.1107656736
 21
31.2360394487
  0
LINE
  8
0
 62
7
  6
CONTINUOUS
 10
358.6592030565
 20
30.945666237
 11
358.8326405772
 21
30.8811388585
  0
LINE
  8
0
 62
7
  6
CONTINUOUS
 10
360.1623280082
 20
31.6554674174
 11
359.9888905082
 21
31.7522584767
  0
LINE
  8
0
 62
7
  6
CONTINUOUS
 10
362.8217029531
 20
30.9779299347
 11
362.9951404531
 21
30.8811388585
  0
LINE
  8
0
 62
7
  6
CONTINUOUS
 10
361.8388905634
 20
31.6554674174
 11
361.9545154531
 21
31.5909400446
  0
LINE
  8
0
 62
7
  6
CONTINUOUS
 10
362.1857655634
 20
31.6877311038
 11
362.0701406736
 21
31.7522584767
  0
LINE
  8
0
 62
7
  6
CONTINUOUS
 10
367.9092030634
 20
31.074720994
 11
368.0248282839
 21
30.945666237
  0
LINE
  8
0
 62
7
  6
CONTINUOUS
 10
368.2560780634
 20
31.0101936212
 11
368.1982657839
 21
31.074720994
  0
LINE
  8
0
 62
7
  6
CONTINUOUS
 10
367.9092030634
 20
31.5909400446
 11
368.0248282839
 21
31.4618852989
  0
LINE
  8
0
 62
7
  6
CONTINUOUS
 10
367.3888905634
 20
31.5909400446
 11
367.3310782839
 21
31.6877311038
  0
LINE
  8
0
 62
7
  6
CONTINUOUS
 10
369.7592026223
 20
31.0101936212
 11
369.7592026223
 21
31.074720994
  0
LINE
  8
0
 62
7
  6
CONTINUOUS
 10
369.7635831863
 20
32.6198901686
 11
369.7635831863
 21
36.3903819718
  0
LINE
  8
0
 62
7
  6
CONTINUOUS
 10
362.8217029531
 20
31.7199947902
 11
362.7638906736
 21
31.6554674174
  0
LINE
  8
0
 62
7
  6
CONTINUOUS
 10
359.6998280358
 20
31.6877311038
 11
359.8732656185
 21
31.623203731
  0
LINE
  8
0
 62
7
  6
CONTINUOUS
 10
364.4404530634
 20
31.6877311038
 11
364.3248278428
 21
31.7522584767
  0
LINE
  8
0
 62
7
  6
CONTINUOUS
 10
368.2560780634
 20
31.5264126717
 11
368.1982657839
 21
31.5909400446
  0
LINE
  8
0
 62
7
  6
CONTINUOUS
 10
369.4123282839
 20
31.1392483894
 11
369.4701405634
 21
31.074720994
  0
LINE
  8
0
 62
7
  6
CONTINUOUS
 10
369.7592026223
 20
31.074720994
 11
369.6435780634
 21
31.2037757623
  0
LINE
  8
0
 62
7
  6
CONTINUOUS
 10
369.4123282839
 20
31.6554674174
 11
369.4701405634
 21
31.5909400446
  0
LINE
  8
0
 62
7
  6
CONTINUOUS
 10
369.7592026223
 20
31.5909400446
 11
369.6435780634
 21
31.7199947902
  0
LINE
  8
0
 62
7
  6
CONTINUOUS
 10
363.0529530634
 20
31.5909400446
 11
363.1107656736
 21
31.6554674174
  0
LINE
  8
0
 62
7
  6
CONTINUOUS
 10
362.8795155634
 20
31.332830508
 11
362.7638906736
 21
31.2037757623
  0
LINE
  8
0
 62
7
  6
CONTINUOUS
 10
364.2092032839
 20
31.1715120759
 11
364.1513903428
 21
31.106984703
  0
LINE
  8
0
 62
7
  6
CONTINUOUS
 10
364.1513903428
 20
30.9134025506
 11
364.2092032839
 21
30.9779299347
  0
LINE
  8
0
 62
7
  6
CONTINUOUS
 10
362.9951404531
 20
30.8811388585
 11
363.1107656736
 21
30.8488751693
  0
LINE
  8
0
 62
7
  6
CONTINUOUS
 10
359.9888905082
 20
31.7522584767
 11
359.7576405634
 21
31.8167858495
  0
LINE
  8
0
 62
7
  6
CONTINUOUS
 10
363.3420154531
 20
30.945666237
 11
363.1107656736
 21
31.0101936212
  0
LINE
  8
0
 62
7
  6
CONTINUOUS
 10
362.0701406736
 20
31.7522584767
 11
361.8967031736
 21
31.8167858495
  0
LINE
  8
0
 62
7
  6
CONTINUOUS
 10
364.3248278428
 20
31.7522584767
 11
364.1513903428
 21
31.8167858495
  0
LINE
  8
0
 62
7
  6
CONTINUOUS
 10
366.9842032839
 20
31.6554674174
 11
367.0998278428
 21
31.5909400446
  0
LINE
  8
0
 62
7
  6
CONTINUOUS
 10
367.3310782839
 20
31.6877311038
 11
367.2154530634
 21
31.7522584767
  0
LINE
  8
0
 62
7
  6
CONTINUOUS
 10
358.8326405772
 20
30.8811388585
 11
359.0060780772
 21
30.8488751693
  0
LINE
  8
0
 62
7
  6
CONTINUOUS
 10
359.2951405909
 20
30.945666237
 11
358.9482655496
 21
31.0101936212
  0
LINE
  8
0
 62
7
  6
CONTINUOUS
 10
361.7232656736
 20
31.6877311038
 11
361.8388905634
 21
31.6554674174
  0
LINE
  8
0
 62
7
  6
CONTINUOUS
 10
364.0357657839
 20
31.6877311038
 11
364.1513903428
 21
31.6554674174
  0
LINE
  8
0
 62
7
  6
CONTINUOUS
 10
368.3717032839
 20
30.9779299347
 11
368.2560780634
 21
31.0101936212
  0
LINE
  8
0
 62
7
  6
CONTINUOUS
 10
366.8685780634
 20
31.6877311038
 11
366.9842032839
 21
31.6554674174
  0
LINE
  8
0
 62
7
  6
CONTINUOUS
 10
368.0248282839
 20
30.945666237
 11
368.1982657839
 21
30.8811388585
  0
LINE
  8
0
 62
7
  6
CONTINUOUS
 10
367.2154530634
 20
31.7522584767
 11
367.0420155634
 21
31.8167858495
  0
LINE
  8
0
 62
7
  6
CONTINUOUS
 10
368.4295155634
 20
31.4618852989
 11
368.2560780634
 21
31.5264126717
  0
LINE
  8
0
 62
7
  6
CONTINUOUS
 10
369.2388907839
 20
31.2037757623
 11
369.4123282839
 21
31.1392483894
  0
LINE
  8
0
 62
7
  6
CONTINUOUS
 10
369.6435780634
 20
31.7199947902
 11
369.4701405634
 21
31.7845221631
  0
LINE
  8
0
 62
7
  6
CONTINUOUS
 10
368.0248282839
 20
31.4618852989
 11
368.2560780634
 21
31.3650941944
  0
LINE
  8
0
 62
7
  6
CONTINUOUS
 10
369.6435780634
 20
31.2037757623
 11
369.4123282839
 21
31.3005668216
  0
LINE
  8
0
 62
7
  6
CONTINUOUS
 10
368.1982657839
 20
31.5909400446
 11
368.2560780634
 21
31.6554674174
  0
LINE
  8
0
 62
7
  6
CONTINUOUS
 10
358.6592030565
 20
31.7199947902
 11
358.5435780634
 21
31.6554674174
  0
LINE
  8
0
 62
7
  6
CONTINUOUS
 10
358.7748280496
 20
31.5586763581
 11
358.9482655496
 21
31.6554674174
  0
LINE
  8
0
 62
7
  6
CONTINUOUS
 10
361.0873281185
 20
31.7522584767
 11
360.9717030634
 21
31.6877311038
  0
LINE
  8
0
 62
7
  6
CONTINUOUS
 10
360.9717030634
 20
31.5586763581
 11
361.0873281185
 21
31.623203731
  0
LINE
  8
0
 62
7
  6
CONTINUOUS
 10
359.9888905082
 20
30.9134025506
 11
360.1623280082
 21
31.0101936212
  0
LINE
  8
0
 62
7
  6
CONTINUOUS
 10
359.0060780772
 20
30.8488751693
 11
359.3529530358
 21
30.81661148
  0
LINE
  8
0
 62
7
  6
CONTINUOUS
 10
363.1107656736
 20
30.8488751693
 11
363.3420154531
 21
30.81661148
  0
LINE
  8
0
 62
7
  6
CONTINUOUS
 10
361.4920155634
 20
31.7199947902
 11
361.7232656736
 21
31.6877311038
  0
LINE
  8
0
 62
7
  6
CONTINUOUS
 10
363.8045156736
 20
31.7199947902
 11
364.0357657839
 21
31.6877311038
  0
LINE
  8
0
 62
7
  6
CONTINUOUS
 10
368.2560780634
 20
31.3650941944
 11
369.2388907839
 21
31.2037757623
  0
LINE
  8
0
 62
7
  6
CONTINUOUS
 10
369.4123282839
 20
31.3005668216
 11
368.4295155634
 21
31.4618852989
  0
LINE
  8
0
 62
7
  6
CONTINUOUS
 10
361.8967031736
 20
31.8167858495
 11
361.7232656736
 21
31.8490495359
  0
LINE
  8
0
 62
7
  6
CONTINUOUS
 10
368.1982657839
 20
30.8811388585
 11
368.3717032839
 21
30.8488751693
  0
LINE
  8
0
 62
7
  6
CONTINUOUS
 10
367.0420155634
 20
31.8167858495
 11
366.8685780634
 21
31.8490495359
  0
LINE
  8
0
 62
7
  6
CONTINUOUS
 10
369.2967030634
 20
31.6877311038
 11
369.4123282839
 21
31.6554674174
  0
LINE
  8
0
 62
7
  6
CONTINUOUS
 10
369.4701405634
 20
31.074720994
 11
369.4123282839
 21
31.0101936212
  0
LINE
  8
0
 62
7
  6
CONTINUOUS
 10
368.0248282839
 20
31.7522584767
 11
367.9092030634
 21
31.6554674174
  0
LINE
  8
0
 62
7
  6
CONTINUOUS
 10
362.9373281736
 20
31.7845221631
 11
362.8217029531
 21
31.7199947902
  0
LINE
  8
0
 62
7
  6
CONTINUOUS
 10
362.9951404531
 20
31.397357926
 11
362.8795155634
 21
31.332830508
  0
LINE
  8
0
 62
7
  6
CONTINUOUS
 10
363.1107656736
 20
31.2360394487
 11
363.2263905634
 21
31.3005668216
  0
LINE
  8
0
 62
7
  6
CONTINUOUS
 10
360.6826405082
 20
30.81661148
 11
360.9717030634
 21
30.81661148
  0
LINE
  8
0
 62
7
  6
CONTINUOUS
 10
362.0123280634
 20
30.81661148
 11
362.3013904531
 21
30.81661148
  0
LINE
  8
0
 62
7
  6
CONTINUOUS
 10
363.3420154531
 20
30.81661148
 11
363.6888904531
 21
30.81661148
  0
LINE
  8
0
 62
7
  6
CONTINUOUS
 10
364.3248278428
 20
30.81661148
 11
364.6138905634
 21
30.81661148
  0
LINE
  8
0
 62
7
  6
CONTINUOUS
 10
365.0763907839
 20
30.81661148
 11
365.3654528428
 21
30.81661148
  0
LINE
  8
0
 62
7
  6
CONTINUOUS
 10
365.8279530634
 20
30.81661148
 11
366.1170157839
 21
30.81661148
  0
LINE
  8
0
 62
7
  6
CONTINUOUS
 10
367.1576407839
 20
30.81661148
 11
367.4467028428
 21
30.81661148
  0
LINE
  8
0
 62
7
  6
CONTINUOUS
 10
368.7185782839
 20
30.81661148
 11
369.0654532839
 21
30.81661148
  0
LINE
  8
0
 62
7
  6
CONTINUOUS
 10
369.0654532839
 20
30.945666237
 11
368.7185782839
 21
30.945666237
  0
LINE
  8
0
 62
7
  6
CONTINUOUS
 10
363.6888904531
 20
30.945666237
 11
363.3420154531
 21
30.945666237
  0
LINE
  8
0
 62
7
  6
CONTINUOUS
 10
368.1982657839
 20
31.074720994
 11
367.9092030634
 21
31.074720994
  0
LINE
  8
0
 62
7
  6
CONTINUOUS
 10
360.2201406185
 20
31.1392483894
 11
359.9310780634
 21
31.1392483894
  0
LINE
  8
0
 62
7
  6
CONTINUOUS
 10
359.2951405909
 20
31.7199947902
 11
359.6998280358
 21
31.6877311038
  0
LINE
  8
0
 62
7
  6
CONTINUOUS
 10
359.7576405634
 20
31.8167858495
 11
359.3529530358
 21
31.8490495359
  0
LINE
  8
0
 62
7
  6
CONTINUOUS
 10
368.3717032839
 20
30.8488751693
 11
368.7185782839
 21
30.81661148
  0
LINE
  8
0
 62
7
  6
CONTINUOUS
 10
368.7185782839
 20
30.945666237
 11
368.3717032839
 21
30.9779299347
  0
LINE
  8
0
 62
7
  6
CONTINUOUS
 10
364.1513903428
 20
31.8167858495
 11
363.8045156736
 21
31.8490495359
  0
LINE
  8
0
 62
7
  6
CONTINUOUS
 10
368.9498280634
 20
31.7199947902
 11
369.2967030634
 21
31.6877311038
  0
LINE
  8
0
 62
7
  6
CONTINUOUS
 10
369.2967030634
 20
31.8167858495
 11
368.9498280634
 21
31.8490495359
  0
LINE
  8
0
 62
7
  6
CONTINUOUS
 10
366.6373282839
 20
31.7199947902
 11
366.8685780634
 21
31.6877311038
  0
LINE
  8
0
 62
7
  6
CONTINUOUS
 10
369.4701405634
 20
31.7845221631
 11
369.2967030634
 21
31.8167858495
  0
LINE
  8
0
 62
7
  6
CONTINUOUS
 10
369.6435780634
 20
30.9134025506
 11
369.7592026223
 21
31.0101936212
  0
LINE
  8
0
 62
7
  6
CONTINUOUS
 10
364.1513903428
 20
31.106984703
 11
363.9779528428
 21
31.0101936212
  0
LINE
  8
0
 62
7
  6
CONTINUOUS
 10
366.2326403428
 20
31.7522584767
 11
366.1170157839
 21
31.6877311038
  0
LINE
  8
0
 62
7
  6
CONTINUOUS
 10
366.1170157839
 20
31.5586763581
 11
366.2326403428
 21
31.623203731
  0
LINE
  8
0
 62
7
  6
CONTINUOUS
 10
358.8326405772
 20
31.7845221631
 11
358.6592030565
 21
31.7199947902
  0
LINE
  8
0
 62
7
  6
CONTINUOUS
 10
361.2607654531
 20
31.8167858495
 11
361.0873281185
 21
31.7522584767
  0
LINE
  8
0
 62
7
  6
CONTINUOUS
 10
361.0873281185
 20
31.623203731
 11
361.2607654531
 21
31.6877311038
  0
LINE
  8
0
 62
7
  6
CONTINUOUS
 10
359.8732656185
 20
31.0424573076
 11
359.6998280358
 21
30.9779299347
  0
LINE
  8
0
 62
7
  6
CONTINUOUS
 10
369.2967030634
 20
30.9779299347
 11
369.0654532839
 21
30.945666237
  0
LINE
  8
0
 62
7
  6
CONTINUOUS
 10
363.6888904531
 20
30.81661148
 11
363.9779528428
 21
30.8488751693
  0
LINE
  8
0
 62
7
  6
CONTINUOUS
 10
369.0654532839
 20
30.81661148
 11
369.4123282839
 21
30.8488751693
  0
LINE
  8
0
 62
7
  6
CONTINUOUS
 10
359.3529530358
 20
30.81661148
 11
359.7576405634
 21
30.8488751693
  0
LINE
  8
0
 62
7
  6
CONTINUOUS
 10
359.6998280358
 20
30.9779299347
 11
359.2951405909
 21
30.945666237
  0
LINE
  8
0
 62
7
  6
CONTINUOUS
 10
363.5732655634
 20
31.3650941944
 11
364.2092032839
 21
31.3650941944
  0
LINE
  8
0
 62
7
  6
CONTINUOUS
 10
364.2092032839
 20
31.4941489853
 11
363.5732655634
 21
31.4941489853
  0
LINE
  8
0
 62
7
  6
CONTINUOUS
 10
359.9310780634
 20
31.5264126717
 11
360.2201406185
 21
31.5264126717
  0
LINE
  8
0
 62
7
  6
CONTINUOUS
 10
362.7638906736
 20
31.5909400446
 11
363.0529530634
 21
31.5909400446
  0
LINE
  8
0
 62
7
  6
CONTINUOUS
 10
369.4701405634
 20
31.5909400446
 11
369.7592026223
 21
31.5909400446
  0
LINE
  8
0
 62
7
  6
CONTINUOUS
 10
363.4576406736
 20
31.7199947902
 11
363.8045156736
 21
31.7199947902
  0
LINE
  8
0
 62
7
  6
CONTINUOUS
 10
368.6029530634
 20
31.7199947902
 11
368.9498280634
 21
31.7199947902
  0
LINE
  8
0
 62
7
  6
CONTINUOUS
 10
368.9498280634
 20
31.8490495359
 11
368.6029530634
 21
31.8490495359
  0
LINE
  8
0
 62
7
  6
CONTINUOUS
 10
366.8685780634
 20
31.8490495359
 11
366.6373282839
 21
31.8490495359
  0
LINE
  8
0
 62
7
  6
CONTINUOUS
 10
366.1170157839
 20
31.8490495359
 11
365.8279530634
 21
31.8490495359
  0
LINE
  8
0
 62
7
  6
CONTINUOUS
 10
365.3654528428
 20
31.8490495359
 11
365.0763907839
 21
31.8490495359
  0
LINE
  8
0
 62
7
  6
CONTINUOUS
 10
363.8045156736
 20
31.8490495359
 11
363.4576406736
 21
31.8490495359
  0
LINE
  8
0
 62
7
  6
CONTINUOUS
 10
361.7232656736
 20
31.8490495359
 11
361.4920155634
 21
31.8490495359
  0
LINE
  8
0
 62
7
  6
CONTINUOUS
 10
365.0763907839
 20
32.1716864905
 11
365.3654528428
 21
32.1716864905
  0
LINE
  8
0
 62
7
  6
CONTINUOUS
 10
365.3654528428
 20
32.3330049227
 11
365.0763907839
 21
32.3330049227
  0
LINE
  8
0
 62
7
  6
CONTINUOUS
 10
360.9717030634
 20
32.3330049227
 11
360.6826405082
 21
32.3330049227
  0
LINE
  8
0
 62
7
  6
CONTINUOUS
 10
360.0094848257
 20
32.6198901686
 11
360.4220561743
 21
32.6198901686
  0
LINE
  8
0
 62
7
  6
CONTINUOUS
 10
361.648829088
 20
32.6198901686
 11
363.0422717109
 21
32.6198901686
  0
LINE
  8
0
 62
7
  6
CONTINUOUS
 10
363.3701405634
 20
32.6198901686
 11
364.7635831863
 21
32.6198901686
  0
LINE
  8
0
 62
7
  6
CONTINUOUS
 10
366.648829088
 20
32.6198901686
 11
368.0422717109
 21
32.6198901686
  0
LINE
  8
0
 62
7
  6
CONTINUOUS
 10
368.3701405634
 20
32.6198901686
 11
369.7635831863
 21
32.6198901686
  0
LINE
  8
0
 62
7
  6
CONTINUOUS
 10
366.4060778428
 20
31.8167858495
 11
366.2326403428
 21
31.7522584767
  0
LINE
  8
0
 62
7
  6
CONTINUOUS
 10
363.9779528428
 20
30.8488751693
 11
364.1513903428
 21
30.9134025506
  0
LINE
  8
0
 62
7
  6
CONTINUOUS
 10
369.4123282839
 20
30.8488751693
 11
369.6435780634
 21
30.9134025506
  0
LINE
  8
0
 62
7
  6
CONTINUOUS
 10
369.4123282839
 20
31.0101936212
 11
369.2967030634
 21
30.9779299347
  0
LINE
  8
0
 62
7
  6
CONTINUOUS
 10
368.3717032839
 20
31.6877311038
 11
368.6029530634
 21
31.7199947902
  0
LINE
  8
0
 62
7
  6
CONTINUOUS
 10
366.4060778428
 20
31.6877311038
 11
366.6373282839
 21
31.7199947902
  0
LINE
  8
0
 62
7
  6
CONTINUOUS
 10
363.3420154531
 20
31.332830508
 11
363.5732655634
 21
31.3650941944
  0
LINE
  8
0
 62
7
  6
CONTINUOUS
 10
366.6373282839
 20
31.8490495359
 11
366.4060778428
 21
31.8167858495
  0
LINE
  8
0
 62
7
  6
CONTINUOUS
 10
363.2263905634
 20
31.6877311038
 11
363.4576406736
 21
31.7199947902
  0
LINE
  8
0
 62
7
  6
CONTINUOUS
 10
368.6029530634
 20
31.8490495359
 11
368.2560780634
 21
31.8167858495
  0
LINE
  8
0
 62
7
  6
CONTINUOUS
 10
363.5732655634
 20
31.4941489853
 11
363.2263905634
 21
31.4618852989
  0
LINE
  8
0
 62
7
  6
CONTINUOUS
 10
359.3529530358
 20
31.8490495359
 11
359.0060780772
 21
31.8167858495
  0
LINE
  8
0
 62
7
  6
CONTINUOUS
 10
363.4576406736
 20
31.8490495359
 11
363.0529530634
 21
31.8167858495
  0
LINE
  8
0
 62
7
  6
CONTINUOUS
 10
360.8291569568
 20
33.7674311522
 11
360.1734192519
 21
33.7674311522
  0
LINE
  8
0
 62
7
  6
CONTINUOUS
 10
366.2326403428
 20
31.623203731
 11
366.4060778428
 21
31.6877311038
  0
LINE
  8
0
 62
7
  6
CONTINUOUS
 10
368.2560780634
 20
31.6554674174
 11
368.3717032839
 21
31.6877311038
  0
LINE
  8
0
 62
7
  6
CONTINUOUS
 10
368.2560780634
 20
31.8167858495
 11
368.0248282839
 21
31.7522584767
  0
LINE
  8
0
 62
7
  6
CONTINUOUS
 10
363.9779528428
 20
31.0101936212
 11
363.6888904531
 21
30.945666237
  0
LINE
  8
0
 62
7
  6
CONTINUOUS
 10
361.2607654531
 20
31.6877311038
 11
361.4920155634
 21
31.7199947902
  0
LINE
  8
0
 62
7
  6
CONTINUOUS
 10
361.4920155634
 20
31.8490495359
 11
361.2607654531
 21
31.8167858495
  0
LINE
  8
0
 62
7
  6
CONTINUOUS
 10
359.0638905634
 20
31.6877311038
 11
359.2951405909
 21
31.7199947902
  0
LINE
  8
0
 62
7
  6
CONTINUOUS
 10
365.5832553175
 20
35.2428409882
 11
366.2389930224
 21
35.2428409882
  0
LINE
  8
0
 62
7
  6
CONTINUOUS
 10
363.2263905634
 20
31.3005668216
 11
363.3420154531
 21
31.332830508
  0
LINE
  8
0
 62
7
  6
CONTINUOUS
 10
363.2263905634
 20
31.4618852989
 11
362.9951404531
 21
31.397357926
  0
LINE
  8
0
 62
7
  6
CONTINUOUS
 10
363.1107656736
 20
31.6554674174
 11
363.2263905634
 21
31.6877311038
  0
LINE
  8
0
 62
7
  6
CONTINUOUS
 10
359.7576405634
 20
30.8488751693
 11
359.9888905082
 21
30.9134025506
  0
LINE
  8
0
 62
7
  6
CONTINUOUS
 10
363.0529530634
 20
31.8167858495
 11
362.9373281736
 21
31.7845221631
  0
LINE
  8
0
 62
7
  6
CONTINUOUS
 10
359.0060780772
 20
31.8167858495
 11
358.8326405772
 21
31.7845221631
  0
LINE
  8
0
 62
7
  6
CONTINUOUS
 10
369.7635831863
 20
36.3903819718
 11
368.3701405634
 21
36.3903819718
  0
LINE
  8
0
 62
7
  6
CONTINUOUS
 10
366.4029274486
 20
36.3903819718
 11
365.9903561
 21
36.3903819718
  0
LINE
  8
0
 62
7
  6
CONTINUOUS
 10
364.7635831863
 20
36.3903819718
 11
363.3701405634
 21
36.3903819718
  0
LINE
  8
0
 62
7
  6
CONTINUOUS
 10
363.0422717109
 20
36.3903819718
 11
361.648829088
 21
36.3903819718
  0
LINE
  8
0
 62
7
  6
CONTINUOUS
 10
359.7635831863
 20
36.3903819718
 11
358.3701405634
 21
36.3903819718
  0
LINE
  8
0
 62
7
  6
CONTINUOUS
 10
358.9482655496
 20
31.6554674174
 11
359.0638905634
 21
31.6877311038
  0
CIRCLE
  8
0
 62
7
  6
CONTINUOUS
 10
369.0668618749
 20
38.7264475456
 40
2.0901639344
  0
ARC
  8
0
 62
7
  6
CONTINUOUS
 10
360.0094848257
 20
34.2592344308
 40
1.6393442623
 50
180.0
 51
270.0
  0
ARC
  8
0
 62
7
  6
CONTINUOUS
 10
366.4029274486
 20
34.7510377095
 40
1.6393442623
 50
0.0
 51
90.0
  0
ARC
  8
0
 62
7
  6
CONTINUOUS
 10
360.4220561743
 20
34.0953000046
 40
1.4754098361
 50
270.0
 51
326.2510114041
  0
ARC
  8
0
 62
7
  6
CONTINUOUS
 10
365.9903561
 20
34.9149721358
 40
1.4754098361
 50
90.0
 51
146.2510114041
  0
ARC
  8
0
 62
7
  6
CONTINUOUS
 10
360.8291569568
 20
34.5871032833
 40
0.8196721311
 50
270.0
 51
360.0
  0
ARC
  8
0
 62
7
  6
CONTINUOUS
 10
365.5832553175
 20
34.4231688571
 40
0.8196721311
 50
90.0
 51
180.0
  0
ARC
  8
0
 62
7
  6
CONTINUOUS
 10
360.1734192519
 20
34.1772672177
 40
0.4098360656
 50
180.0
 51
270.0
  0
ARC
  8
0
 62
7
  6
CONTINUOUS
 10
366.2389930224
 20
34.8330049227
 40
0.4098360656
 50
0.0
 51
90.0
  0
SOLID
  8
0
 62
7
  6
CONTINUOUS
 10
365.0763907839
 20
32.1716868508
 11
365.0763907839
 21
32.3330053344
 12
365.3654528428
 22
32.1716868508
 13
365.3654528428
 23
32.3330053344
  0
SOLID
  8
0
 62
7
  6
CONTINUOUS
 10
359.3529530358
 20
31.8490498836
 11
359.7576405634
 21
31.8167854792
 12
359.0060780772
 22
31.8167854792
 13
359.0060780772
 23
31.8167854792
  0
SOLID
  8
0
 62
7
  6
CONTINUOUS
 10
358.8326405772
 20
31.7845227934
 11
359.0060780772
 21
31.8167854792
 12
359.7576405634
 22
31.8167854792
 13
359.7576405634
 23
31.8167854792
  0
SOLID
  8
0
 62
7
  6
CONTINUOUS
 10
359.7576405634
 20
31.8167854792
 11
359.9888905082
 21
31.7522584901
 12
358.8326405772
 22
31.7845227934
 13
358.8326405772
 23
31.7845227934
  0
SOLID
  8
0
 62
7
  6
CONTINUOUS
 10
358.6592030565
 20
31.7199940664
 11
358.8326405772
 21
31.7845227934
 12
359.9888905082
 22
31.7522584901
 13
359.9888905082
 23
31.7522584901
  0
SOLID
  8
0
 62
7
  6
CONTINUOUS
 10
358.6592030565
 20
31.7199940664
 11
359.9888905082
 21
31.7522584901
 12
359.2951405909
 22
31.7199940664
 13
359.2951405909
 23
31.7199940664
  0
SOLID
  8
0
 62
7
  6
CONTINUOUS
 10
359.2951405909
 20
31.7199940664
 11
359.9888905082
 21
31.7522584901
 12
359.6998280358
 22
31.6877314
 13
359.6998280358
 23
31.6877314
  0
SOLID
  8
0
 62
7
  6
CONTINUOUS
 10
359.9888905082
 20
31.7522584901
 11
360.1623280082
 21
31.6554670967
 12
359.6998280358
 22
31.6877314
 13
359.6998280358
 23
31.6877314
  0
SOLID
  8
0
 62
7
  6
CONTINUOUS
 10
359.8732656185
 20
31.6232043098
 11
359.6998280358
 21
31.6877314
 12
360.1623280082
 22
31.6554670967
 13
360.1623280082
 23
31.6554670967
  0
SOLID
  8
0
 62
7
  6
CONTINUOUS
 10
359.8732656185
 20
31.6232043098
 11
360.1623280082
 21
31.6554670967
 12
359.9310780634
 22
31.5264128539
 13
359.9310780634
 23
31.5264128539
  0
SOLID
  8
0
 62
7
  6
CONTINUOUS
 10
360.1623280082
 20
31.6554670967
 11
360.2201406185
 21
31.5264128539
 12
359.9310780634
 22
31.5264128539
 13
359.9310780634
 23
31.5264128539
  0
SOLID
  8
0
 62
7
  6
CONTINUOUS
 10
361.2607654531
 20
31.8167852459
 11
361.4920155634
 21
31.8490495492
 12
361.7232656736
 22
31.8490495492
 13
361.7232656736
 23
31.8490495492
  0
SOLID
  8
0
 62
7
  6
CONTINUOUS
 10
361.7232656736
 20
31.8490495492
 11
361.8967031736
 21
31.8167852459
 12
361.2607654531
 22
31.8167852459
 13
361.2607654531
 23
31.8167852459
  0
SOLID
  8
0
 62
7
  6
CONTINUOUS
 10
361.0873281185
 20
31.7522581557
 11
361.2607654531
 21
31.8167852459
 12
361.8967031736
 22
31.8167852459
 13
361.8967031736
 23
31.8167852459
  0
SOLID
  8
0
 62
7
  6
CONTINUOUS
 10
361.8967031736
 20
31.8167852459
 11
362.0701406736
 21
31.7522581557
 12
361.0873281185
 22
31.7522581557
 13
361.0873281185
 23
31.7522581557
  0
SOLID
  8
0
 62
7
  6
CONTINUOUS
 10
362.0701406736
 20
31.7522581557
 11
361.4920155634
 21
31.7199941869
 12
361.0873281185
 22
31.7522581557
 13
361.0873281185
 23
31.7522581557
  0
SOLID
  8
0
 62
7
  6
CONTINUOUS
 10
360.9717030634
 20
31.6877310656
 11
361.0873281185
 21
31.7522581557
 12
361.4920155634
 22
31.7199941869
 13
361.4920155634
 23
31.7199941869
  0
SOLID
  8
0
 62
7
  6
CONTINUOUS
 10
361.4920155634
 20
31.7199941869
 11
361.2607654531
 21
31.6877310656
 12
360.9717030634
 22
31.6877310656
 13
360.9717030634
 23
31.6877310656
  0
SOLID
  8
0
 62
7
  6
CONTINUOUS
 10
361.4920155634
 20
31.7199941869
 11
362.0701406736
 21
31.7522581557
 12
361.7232656736
 22
31.6877310656
 13
361.7232656736
 23
31.6877310656
  0
SOLID
  8
0
 62
7
  6
CONTINUOUS
 10
362.0701406736
 20
31.7522581557
 11
362.1857655634
 21
31.6877310656
 12
361.7232656736
 22
31.6877310656
 13
361.7232656736
 23
31.6877310656
  0
SOLID
  8
0
 62
7
  6
CONTINUOUS
 10
361.8388905634
 20
31.6554670967
 11
361.7232656736
 21
31.6877310656
 12
362.1857655634
 22
31.6877310656
 13
362.1857655634
 23
31.6877310656
  0
SOLID
  8
0
 62
7
  6
CONTINUOUS
 10
362.1857655634
 20
31.6877310656
 11
362.2435781736
 21
31.6232039754
 12
361.8388905634
 22
31.6554670967
 13
361.8388905634
 23
31.6554670967
  0
SOLID
  8
0
 62
7
  6
CONTINUOUS
 10
361.9545154531
 20
31.5909400065
 11
361.8388905634
 21
31.6554670967
 12
362.2435781736
 22
31.6232039754
 13
362.2435781736
 23
31.6232039754
  0
SOLID
  8
0
 62
7
  6
CONTINUOUS
 10
361.9545154531
 20
31.5909400065
 11
362.2435781736
 21
31.6232039754
 12
362.0123280634
 22
31.4618854918
 13
362.0123280634
 23
31.4618854918
  0
SOLID
  8
0
 62
7
  6
CONTINUOUS
 10
362.2435781736
 20
31.6232039754
 11
362.3013904531
 21
31.4618854918
 12
362.0123280634
 22
31.4618854918
 13
362.0123280634
 23
31.4618854918
  0
SOLID
  8
0
 62
7
  6
CONTINUOUS
 10
361.2607654531
 20
31.6877310656
 11
361.0873281185
 21
31.6232039754
 12
360.9717030634
 22
31.6877310656
 13
360.9717030634
 23
31.6877310656
  0
SOLID
  8
0
 62
7
  6
CONTINUOUS
 10
361.0873281185
 20
31.6232039754
 11
360.9717030634
 21
31.5586757033
 12
360.9717030634
 22
31.6877310656
 13
360.9717030634
 23
31.6877310656
  0
SOLID
  8
0
 62
7
  6
CONTINUOUS
 10
360.9717030634
 20
31.5586757033
 11
360.6826405082
 21
30.8166115574
 12
360.9717030634
 22
31.6877310656
 13
360.9717030634
 23
31.6877310656
  0
SOLID
  8
0
 62
7
  6
CONTINUOUS
 10
360.9717030634
 20
31.6877310656
 11
360.6826405082
 21
30.8166115574
 12
360.9717030634
 22
32.333005
 13
360.9717030634
 23
32.333005
  0
SOLID
  8
0
 62
7
  6
CONTINUOUS
 10
360.6826405082
 20
30.8166115574
 11
360.6826405082
 21
32.333005
 12
360.9717030634
 22
32.333005
 13
360.9717030634
 23
32.333005
  0
SOLID
  8
0
 62
7
  6
CONTINUOUS
 10
360.9717030634
 20
31.5586757033
 11
360.9717030634
 21
30.8166115574
 12
360.6826405082
 22
30.8166115574
 13
360.6826405082
 23
30.8166115574
  0
SOLID
  8
0
 62
7
  6
CONTINUOUS
 10
362.0123280634
 20
30.8166115574
 11
362.0123280634
 21
31.4618854918
 12
362.3013904531
 22
31.4618854918
 13
362.3013904531
 23
31.4618854918
  0
SOLID
  8
0
 62
7
  6
CONTINUOUS
 10
362.3013904531
 20
31.4618854918
 11
362.3013904531
 21
30.8166115574
 12
362.0123280634
 22
30.8166115574
 13
362.0123280634
 23
30.8166115574
  0
SOLID
  8
0
 62
7
  6
CONTINUOUS
 10
363.0529530634
 20
31.8167856315
 11
363.4576406736
 21
31.8490496243
 12
363.8045156736
 22
31.8490496243
 13
363.8045156736
 23
31.8490496243
  0
SOLID
  8
0
 62
7
  6
CONTINUOUS
 10
363.8045156736
 20
31.8490496243
 11
364.1513903428
 21
31.8167856315
 12
363.0529530634
 22
31.8167856315
 13
363.0529530634
 23
31.8167856315
  0
SOLID
  8
0
 62
7
  6
CONTINUOUS
 10
362.9373281736
 20
31.7845227934
 11
363.0529530634
 21
31.8167856315
 12
364.1513903428
 22
31.8167856315
 13
364.1513903428
 23
31.8167856315
  0
SOLID
  8
0
 62
7
  6
CONTINUOUS
 10
364.1513903428
 20
31.8167856315
 11
364.3248278428
 21
31.7522584901
 12
362.9373281736
 22
31.7845227934
 13
362.9373281736
 23
31.7845227934
  0
SOLID
  8
0
 62
7
  6
CONTINUOUS
 10
362.8217029531
 20
31.7199944276
 11
362.9373281736
 21
31.7845227934
 12
364.3248278428
 22
31.7522584901
 13
364.3248278428
 23
31.7522584901
  0
SOLID
  8
0
 62
7
  6
CONTINUOUS
 10
362.8217029531
 20
31.7199944276
 11
364.3248278428
 21
31.7522584901
 12
363.4576406736
 22
31.7199944276
 13
363.4576406736
 23
31.7199944276
  0
SOLID
  8
0
 62
7
  6
CONTINUOUS
 10
363.4576406736
 20
31.7199944276
 11
364.3248278428
 21
31.7522584901
 12
363.8045156736
 22
31.7199944276
 13
363.8045156736
 23
31.7199944276
  0
SOLID
  8
0
 62
7
  6
CONTINUOUS
 10
363.8045156736
 20
31.7199944276
 11
364.3248278428
 21
31.7522584901
 12
364.0357657839
 22
31.6877312092
 13
364.0357657839
 23
31.6877312092
  0
SOLID
  8
0
 62
7
  6
CONTINUOUS
 10
364.3248278428
 20
31.7522584901
 11
364.4404530634
 21
31.6877312092
 12
364.0357657839
 22
31.6877312092
 13
364.0357657839
 23
31.6877312092
  0
SOLID
  8
0
 62
7
  6
CONTINUOUS
 10
362.7638906736
 20
31.6554672165
 11
362.8217029531
 21
31.7199944276
 12
363.4576406736
 22
31.7199944276
 13
363.4576406736
 23
31.7199944276
  0
SOLID
  8
0
 62
7
  6
CONTINUOUS
 10
364.1513903428
 20
31.6554672165
 11
364.0357657839
 21
31.6877312092
 12
364.4404530634
 22
31.6877312092
 13
364.4404530634
 23
31.6877312092
  0
SOLID
  8
0
 62
7
  6
CONTINUOUS
 10
364.1513903428
 20
31.6554672165
 11
364.4404530634
 21
31.6877312092
 12
364.2092032839
 22
31.5909400053
 13
364.2092032839
 23
31.5909400053
  0
SOLID
  8
0
 62
7
  6
CONTINUOUS
 10
364.4404530634
 20
31.6877312092
 11
364.4982653428
 21
31.5909400053
 12
364.2092032839
 22
31.5909400053
 13
364.2092032839
 23
31.5909400053
  0
SOLID
  8
0
 62
7
  6
CONTINUOUS
 10
364.2092032839
 20
31.4941486131
 11
364.2092032839
 21
31.5909400053
 12
364.4982653428
 22
31.5909400053
 13
364.4982653428
 23
31.5909400053
  0
SOLID
  8
0
 62
7
  6
CONTINUOUS
 10
364.2092032839
 20
31.4941486131
 11
364.4982653428
 21
31.5909400053
 12
364.2092032839
 22
31.3650944328
 13
364.2092032839
 23
31.3650944328
  0
SOLID
  8
0
 62
7
  6
CONTINUOUS
 10
364.2092032839
 20
31.3650944328
 11
364.4982653428
 21
31.5909400053
 12
364.2092032839
 22
31.1715120759
 13
364.2092032839
 23
31.1715120759
  0
SOLID
  8
0
 62
7
  6
CONTINUOUS
 10
364.4982653428
 20
31.5909400053
 11
364.4982653428
 21
31.0747202524
 12
364.2092032839
 22
31.1715120759
 13
364.2092032839
 23
31.1715120759
  0
SOLID
  8
0
 62
7
  6
CONTINUOUS
 10
366.4060778428
 20
31.8167851023
 11
366.6373282839
 21
31.849049822
 12
366.8685780634
 22
31.849049822
 13
366.8685780634
 23
31.849049822
  0
SOLID
  8
0
 62
7
  6
CONTINUOUS
 10
366.8685780634
 20
31.849049822
 11
367.0420155634
 21
31.8167851023
 12
366.4060778428
 22
31.8167851023
 13
366.4060778428
 23
31.8167851023
  0
SOLID
  8
0
 62
7
  6
CONTINUOUS
 10
366.2326403428
 20
31.7522587602
 11
366.4060778428
 21
31.8167851023
 12
367.0420155634
 22
31.8167851023
 13
367.0420155634
 23
31.8167851023
  0
SOLID
  8
0
 62
7
  6
CONTINUOUS
 10
367.0420155634
 20
31.8167851023
 11
367.2154530634
 21
31.7522587602
 12
366.2326403428
 22
31.7522587602
 13
366.2326403428
 23
31.7522587602
  0
SOLID
  8
0
 62
7
  6
CONTINUOUS
 10
367.2154530634
 20
31.7522587602
 11
366.6373282839
 21
31.7199941869
 12
366.2326403428
 22
31.7522587602
 13
366.2326403428
 23
31.7522587602
  0
SOLID
  8
0
 62
7
  6
CONTINUOUS
 10
366.1170157839
 20
31.6877313857
 11
366.2326403428
 21
31.7522587602
 12
366.6373282839
 22
31.7199941869
 13
366.6373282839
 23
31.7199941869
  0
SOLID
  8
0
 62
7
  6
CONTINUOUS
 10
366.6373282839
 20
31.7199941869
 11
366.4060778428
 21
31.6877313857
 12
366.1170157839
 22
31.6877313857
 13
366.1170157839
 23
31.6877313857
  0
SOLID
  8
0
 62
7
  6
CONTINUOUS
 10
366.6373282839
 20
31.7199941869
 11
367.2154530634
 21
31.7522587602
 12
366.8685780634
 22
31.6877313857
 13
366.8685780634
 23
31.6877313857
  0
SOLID
  8
0
 62
7
  6
CONTINUOUS
 10
367.2154530634
 20
31.7522587602
 11
367.3310782839
 21
31.6877313857
 12
366.8685780634
 22
31.6877313857
 13
366.8685780634
 23
31.6877313857
  0
SOLID
  8
0
 62
7
  6
CONTINUOUS
 10
366.9842032839
 20
31.6554670967
 11
366.8685780634
 21
31.6877313857
 12
367.3310782839
 22
31.6877313857
 13
367.3310782839
 23
31.6877313857
  0
SOLID
  8
0
 62
7
  6
CONTINUOUS
 10
366.9842032839
 20
31.6554670967
 11
367.3310782839
 21
31.6877313857
 12
367.0998278428
 22
31.590940324
 13
367.0998278428
 23
31.590940324
  0
SOLID
  8
0
 62
7
  6
CONTINUOUS
 10
367.3310782839
 20
31.6877313857
 11
367.3888905634
 21
31.590940324
 12
367.0998278428
 22
31.590940324
 13
367.0998278428
 23
31.590940324
  0
SOLID
  8
0
 62
7
  6
CONTINUOUS
 10
367.1576407839
 20
31.4296218878
 11
367.0998278428
 21
31.590940324
 12
367.3888905634
 22
31.590940324
 13
367.3888905634
 23
31.590940324
  0
SOLID
  8
0
 62
7
  6
CONTINUOUS
 10
367.3888905634
 20
31.590940324
 11
367.4467028428
 21
31.4296218878
 12
367.1576407839
 22
31.4296218878
 13
367.1576407839
 23
31.4296218878
  0
SOLID
  8
0
 62
7
  6
CONTINUOUS
 10
366.4060778428
 20
31.6877313857
 11
366.2326403428
 21
31.6232043098
 12
366.1170157839
 22
31.6877313857
 13
366.1170157839
 23
31.6877313857
  0
SOLID
  8
0
 62
7
  6
CONTINUOUS
 10
366.2326403428
 20
31.6232043098
 11
366.1170157839
 21
31.5586757033
 12
366.1170157839
 22
31.6877313857
 13
366.1170157839
 23
31.6877313857
  0
SOLID
  8
0
 62
7
  6
CONTINUOUS
 10
366.1170157839
 20
31.5586757033
 11
365.8279530634
 21
30.8166118302
 12
366.1170157839
 22
31.6877313857
 13
366.1170157839
 23
31.6877313857
  0
SOLID
  8
0
 62
7
  6
CONTINUOUS
 10
366.1170157839
 20
31.6877313857
 11
365.8279530634
 21
30.8166118302
 12
366.1170157839
 22
31.849049822
 13
366.1170157839
 23
31.849049822
  0
SOLID
  8
0
 62
7
  6
CONTINUOUS
 10
365.8279530634
 20
30.8166118302
 11
365.8279530634
 21
31.849049822
 12
366.1170157839
 22
31.849049822
 13
366.1170157839
 23
31.849049822
  0
SOLID
  8
0
 62
7
  6
CONTINUOUS
 10
366.1170157839
 20
31.5586757033
 11
366.1170157839
 21
30.8166118302
 12
365.8279530634
 22
30.8166118302
 13
365.8279530634
 23
30.8166118302
  0
SOLID
  8
0
 62
7
  6
CONTINUOUS
 10
367.1576407839
 20
30.8166118302
 11
367.1576407839
 21
31.4296218878
 12
367.4467028428
 22
31.4296218878
 13
367.4467028428
 23
31.4296218878
  0
SOLID
  8
0
 62
7
  6
CONTINUOUS
 10
367.4467028428
 20
31.4296218878
 11
367.4467028428
 21
30.8166118302
 12
367.1576407839
 22
30.8166118302
 13
367.1576407839
 23
30.8166118302
  0
SOLID
  8
0
 62
7
  6
CONTINUOUS
 10
368.2560780634
 20
31.8167856056
 11
368.6029530634
 21
31.8490498552
 12
368.9498280634
 22
31.8490498552
 13
368.9498280634
 23
31.8490498552
  0
SOLID
  8
0
 62
7
  6
CONTINUOUS
 10
368.9498280634
 20
31.8490498552
 11
369.2967030634
 21
31.8167856056
 12
368.2560780634
 22
31.8167856056
 13
368.2560780634
 23
31.8167856056
  0
SOLID
  8
0
 62
7
  6
CONTINUOUS
 10
368.0248282839
 20
31.7522584901
 11
368.2560780634
 21
31.8167856056
 12
369.2967030634
 22
31.8167856056
 13
369.2967030634
 23
31.8167856056
  0
SOLID
  8
0
 62
7
  6
CONTINUOUS
 10
368.0248282839
 20
31.7522584901
 11
369.2967030634
 21
31.8167855803
 12
369.4701405634
 22
31.7845227934
 13
369.4701405634
 23
31.7845227934
  0
SOLID
  8
0
 62
7
  6
CONTINUOUS
 10
368.0248282839
 20
31.7522584901
 11
369.4701405634
 21
31.7845227934
 12
368.6029530634
 22
31.7199941235
 13
368.6029530634
 23
31.7199941235
  0
SOLID
  8
0
 62
7
  6
CONTINUOUS
 10
368.6029530634
 20
31.7199941235
 11
369.4701405634
 21
31.7845227934
 12
368.9498280634
 22
31.7199941235
 13
368.9498280634
 23
31.7199941235
  0
SOLID
  8
0
 62
7
  6
CONTINUOUS
 10
369.4701405634
 20
31.7845227934
 11
369.6435780634
 21
31.7199941235
 12
368.9498280634
 22
31.7199941235
 13
368.9498280634
 23
31.7199941235
  0
SOLID
  8
0
 62
7
  6
CONTINUOUS
 10
369.2967030634
 20
31.6877314
 11
368.9498280634
 21
31.7199941235
 12
369.6435780634
 22
31.7199941235
 13
369.6435780634
 23
31.7199941235
  0
SOLID
  8
0
 62
7
  6
CONTINUOUS
 10
367.9092030634
 20
31.6554671071
 11
368.0248282839
 21
31.7522584901
 12
368.6029530634
 22
31.7199941235
 13
368.6029530634
 23
31.7199941235
  0
SOLID
  8
0
 62
7
  6
CONTINUOUS
 10
369.2967030634
 20
31.6877314
 11
369.6435780634
 21
31.7199941235
 12
369.4123282839
 22
31.6554671071
 13
369.4123282839
 23
31.6554671071
  0
SOLID
  8
0
 62
7
  6
CONTINUOUS
 10
369.4123282839
 20
31.6554671071
 11
369.6435780634
 21
31.7199941235
 12
369.4701405634
 22
31.5909400907
 13
369.4701405634
 23
31.5909400907
  0
SOLID
  8
0
 62
7
  6
CONTINUOUS
 10
369.6435780634
 20
31.7199941235
 11
369.7592026223
 21
31.5909400907
 12
369.4701405634
 22
31.5909400907
 13
369.4701405634
 23
31.5909400907
  0
SOLID
  8
0
 62
7
  6
CONTINUOUS
 10
359.0638905634
 20
31.6877314
 11
358.5435780634
 21
31.6554670789
 12
359.2951405909
 22
31.7199941045
 13
359.2951405909
 23
31.7199941045
  0
SOLID
  8
0
 62
7
  6
CONTINUOUS
 10
358.5435780634
 20
31.6554670789
 11
358.6592030565
 21
31.7199941045
 12
359.2951405909
 22
31.7199941045
 13
359.2951405909
 23
31.7199941045
  0
SOLID
  8
0
 62
7
  6
CONTINUOUS
 10
359.0638905634
 20
31.6877314
 11
358.9482655496
 21
31.6554670789
 12
358.5435780634
 22
31.6554670789
 13
358.5435780634
 23
31.6554670789
  0
SOLID
  8
0
 62
7
  6
CONTINUOUS
 10
358.4279530651
 20
31.5264129164
 11
358.5435780634
 21
31.6554670789
 12
358.9482655496
 22
31.6554670789
 13
358.9482655496
 23
31.6554670789
  0
SOLID
  8
0
 62
7
  6
CONTINUOUS
 10
362.7638906736
 20
31.6554670789
 11
363.4576406736
 21
31.7199941869
 12
363.2263905634
 22
31.6877314
 13
363.2263905634
 23
31.6877314
  0
SOLID
  8
0
 62
7
  6
CONTINUOUS
 10
363.2263905634
 20
31.6877314
 11
363.1107656736
 21
31.6554670789
 12
362.7638906736
 22
31.6554670789
 13
362.7638906736
 23
31.6554670789
  0
SOLID
  8
0
 62
7
  6
CONTINUOUS
 10
362.7638906736
 20
31.5909399887
 11
362.7638906736
 21
31.6554670789
 12
363.1107656736
 22
31.6554670789
 13
363.1107656736
 23
31.6554670789
  0
SOLID
  8
0
 62
7
  6
CONTINUOUS
 10
363.1107656736
 20
31.6554670789
 11
363.0529530634
 21
31.5909399887
 12
362.7638906736
 22
31.5909399887
 13
362.7638906736
 23
31.5909399887
  0
SOLID
  8
0
 62
7
  6
CONTINUOUS
 10
367.9092030634
 20
31.6554670789
 11
368.6029530634
 21
31.7199941869
 12
368.3717032839
 22
31.6877314
 13
368.3717032839
 23
31.6877314
  0
SOLID
  8
0
 62
7
  6
CONTINUOUS
 10
368.3717032839
 20
31.6877314
 11
368.2560780634
 21
31.6554670789
 12
367.9092030634
 22
31.6554670789
 13
367.9092030634
 23
31.6554670789
  0
SOLID
  8
0
 62
7
  6
CONTINUOUS
 10
367.9092030634
 20
31.5909399887
 11
367.9092030634
 21
31.6554670789
 12
368.2560780634
 22
31.6554670789
 13
368.2560780634
 23
31.6554670789
  0
SOLID
  8
0
 62
7
  6
CONTINUOUS
 10
368.2560780634
 20
31.6554670789
 11
368.1982657839
 21
31.5909399887
 12
367.9092030634
 22
31.5909399887
 13
367.9092030634
 23
31.5909399887
  0
SOLID
  8
0
 62
7
  6
CONTINUOUS
 10
368.0248282839
 20
31.4618858262
 11
367.9092030634
 21
31.5909399887
 12
368.1982657839
 22
31.5909399887
 13
368.1982657839
 23
31.5909399887
  0
SOLID
  8
0
 62
7
  6
CONTINUOUS
 10
358.4279530651
 20
31.5264129164
 11
358.9482655496
 21
31.6554670967
 12
358.7748280496
 22
31.5586757033
 13
358.7748280496
 23
31.5586757033
  0
SOLID
  8
0
 62
7
  6
CONTINUOUS
 10
358.7748280496
 20
31.5586757033
 11
358.7170155634
 21
31.4941486131
 12
358.4279530651
 22
31.5264129164
 13
358.4279530651
 23
31.5264129164
  0
SOLID
  8
0
 62
7
  6
CONTINUOUS
 10
358.3701405634
 20
31.3328301295
 11
358.4279530651
 21
31.5264129164
 12
358.7170155634
 22
31.4941486131
 13
358.7170155634
 23
31.4941486131
  0
SOLID
  8
0
 62
7
  6
CONTINUOUS
 10
363.2263905634
 20
31.4618858262
 11
363.5732655634
 21
31.4941485791
 12
364.2092032839
 22
31.4941485791
 13
364.2092032839
 23
31.4941485791
  0
SOLID
  8
0
 62
7
  6
CONTINUOUS
 10
363.2263905634
 20
31.4618858262
 11
364.2092032839
 21
31.4941485791
 12
362.9951404531
 22
31.397357926
 13
362.9951404531
 23
31.397357926
  0
SOLID
  8
0
 62
7
  6
CONTINUOUS
 10
362.9951404531
 20
31.397357926
 11
364.2092032839
 21
31.4941485791
 12
363.5732655634
 22
31.3650943988
 13
363.5732655634
 23
31.3650943988
  0
SOLID
  8
0
 62
7
  6
CONTINUOUS
 10
364.2092032839
 20
31.4941485791
 11
364.2092032839
 21
31.3650943988
 12
363.5732655634
 22
31.3650943988
 13
363.5732655634
 23
31.3650943988
  0
SOLID
  8
0
 62
7
  6
CONTINUOUS
 10
368.0248282839
 20
31.4618859165
 11
368.1982657839
 21
31.5909400065
 12
368.2560780634
 22
31.5264129164
 13
368.2560780634
 23
31.5264129164
  0
SOLID
  8
0
 62
7
  6
CONTINUOUS
 10
368.2560780634
 20
31.5264129164
 11
368.4295155634
 21
31.4618859165
 12
368.0248282839
 22
31.4618859165
 13
368.0248282839
 23
31.4618859165
  0
SOLID
  8
0
 62
7
  6
CONTINUOUS
 10
368.2560780634
 20
31.3650944328
 11
368.0248282839
 21
31.4618859165
 12
368.4295155634
 22
31.4618859165
 13
368.4295155634
 23
31.4618859165
  0
SOLID
  8
0
 62
7
  6
CONTINUOUS
 10
368.4295155634
 20
31.4618859165
 11
369.4123282839
 21
31.3005673426
 12
368.2560780634
 22
31.3650944328
 13
368.2560780634
 23
31.3650944328
  0
SOLID
  8
0
 62
7
  6
CONTINUOUS
 10
369.2388907839
 20
31.2037760287
 11
368.2560780634
 21
31.3650944328
 12
369.4123282839
 22
31.3005673426
 13
369.4123282839
 23
31.3005673426
  0
SOLID
  8
0
 62
7
  6
CONTINUOUS
 10
369.4123282839
 20
31.3005673426
 11
369.6435780634
 21
31.2037760287
 12
369.2388907839
 22
31.2037760287
 13
369.2388907839
 23
31.2037760287
  0
SOLID
  8
0
 62
7
  6
CONTINUOUS
 10
369.4123282839
 20
31.139248859
 11
369.2388907839
 21
31.2037760287
 12
369.6435780634
 22
31.2037760287
 13
369.6435780634
 23
31.2037760287
  0
SOLID
  8
0
 62
7
  6
CONTINUOUS
 10
369.4123282839
 20
31.139248859
 11
369.6435780634
 21
31.2037760287
 12
369.4701405634
 22
31.0747203105
 13
369.4701405634
 23
31.0747203105
  0
SOLID
  8
0
 62
7
  6
CONTINUOUS
 10
369.6435780634
 20
31.2037760287
 11
369.7592026223
 21
31.0747203105
 12
369.4701405634
 22
31.0747203105
 13
369.4701405634
 23
31.0747203105
  0
SOLID
  8
0
 62
7
  6
CONTINUOUS
 10
369.4123282839
 20
31.0101932257
 11
369.4701405634
 21
31.0747203105
 12
369.7592026223
 22
31.0747203105
 13
369.7592026223
 23
31.0747203105
  0
SOLID
  8
0
 62
7
  6
CONTINUOUS
 10
369.7592026223
 20
31.0747203105
 11
369.7592026223
 21
31.0101932257
 12
369.4123282839
 22
31.0101932257
 13
369.4123282839
 23
31.0101932257
  0
SOLID
  8
0
 62
7
  6
CONTINUOUS
 10
369.2967030634
 20
30.9779303754
 11
369.4123282839
 21
31.0101932257
 12
369.7592026223
 22
31.0101932257
 13
369.7592026223
 23
31.0101932257
  0
SOLID
  8
0
 62
7
  6
CONTINUOUS
 10
369.2967030634
 20
30.9779303754
 11
369.7592026223
 21
31.0101932257
 12
369.0654532839
 22
30.9456661409
 13
369.0654532839
 23
30.9456661409
  0
SOLID
  8
0
 62
7
  6
CONTINUOUS
 10
369.7592026223
 20
31.0101932257
 11
369.6435780634
 21
30.9134032852
 12
369.0654532839
 22
30.9456661409
 13
369.0654532839
 23
30.9456661409
  0
SOLID
  8
0
 62
7
  6
CONTINUOUS
 10
369.6435780634
 20
30.9134032852
 11
368.1982657839
 21
30.8811389819
 12
369.0654532839
 22
30.9456661409
 13
369.0654532839
 23
30.9456661409
  0
SOLID
  8
0
 62
7
  6
CONTINUOUS
 10
369.0654532839
 20
30.9456661409
 11
368.1982657839
 21
30.8811389819
 12
368.7185782839
 22
30.9456661409
 13
368.7185782839
 23
30.9456661409
  0
SOLID
  8
0
 62
7
  6
CONTINUOUS
 10
368.1982657839
 20
30.8811389819
 11
368.0248282839
 21
30.9456661409
 12
368.7185782839
 22
30.9456661409
 13
368.7185782839
 23
30.9456661409
  0
SOLID
  8
0
 62
7
  6
CONTINUOUS
 10
368.1982657839
 20
30.8811389819
 11
369.6435780634
 21
30.9134032852
 12
368.3717032839
 22
30.8488743522
 13
368.3717032839
 23
30.8488743522
  0
SOLID
  8
0
 62
7
  6
CONTINUOUS
 10
369.6435780634
 20
30.9134032852
 11
369.4123282839
 21
30.8488743522
 12
368.3717032839
 22
30.8488743522
 13
368.3717032839
 23
30.8488743522
  0
SOLID
  8
0
 62
7
  6
CONTINUOUS
 10
368.7185782839
 20
30.8166119713
 11
368.3717032839
 21
30.8488743522
 12
369.4123282839
 22
30.8488743522
 13
369.4123282839
 23
30.8488743522
  0
SOLID
  8
0
 62
7
  6
CONTINUOUS
 10
369.4123282839
 20
30.8488743522
 11
369.0654532839
 21
30.8166119713
 12
368.7185782839
 22
30.8166119713
 13
368.7185782839
 23
30.8166119713
  0
SOLID
  8
0
 62
7
  6
CONTINUOUS
 10
358.3701405634
 20
31.3328301295
 11
358.7170155634
 21
31.4941486131
 12
358.6592030565
 22
31.3650944328
 13
358.6592030565
 23
31.3650944328
  0
SOLID
  8
0
 62
7
  6
CONTINUOUS
 10
358.6592030565
 20
31.3650944328
 11
358.6592030565
 21
31.2683031351
 12
358.3701405634
 22
31.3328301295
 13
358.3701405634
 23
31.3328301295
  0
SOLID
  8
0
 62
7
  6
CONTINUOUS
 10
358.4279530651
 20
31.139248859
 11
358.3701405634
 21
31.3328301295
 12
358.6592030565
 22
31.2683031351
 13
358.6592030565
 23
31.2683031351
  0
SOLID
  8
0
 62
7
  6
CONTINUOUS
 10
358.6592030565
 20
31.2683031351
 11
358.7748280496
 21
31.1069845557
 12
358.4279530651
 22
31.139248859
 13
358.4279530651
 23
31.139248859
  0
SOLID
  8
0
 62
7
  6
CONTINUOUS
 10
358.5435780634
 20
31.0101931569
 11
358.4279530651
 21
31.139248859
 12
358.7748280496
 22
31.1069845557
 13
358.7748280496
 23
31.1069845557
  0
SOLID
  8
0
 62
7
  6
CONTINUOUS
 10
358.7748280496
 20
31.1069845557
 11
358.9482655496
 21
31.0101931569
 12
358.5435780634
 22
31.0101931569
 13
358.5435780634
 23
31.0101931569
  0
SOLID
  8
0
 62
7
  6
CONTINUOUS
 10
358.6592030565
 20
30.9456659241
 11
358.5435780634
 21
31.0101931569
 12
358.9482655496
 22
31.0101931569
 13
358.9482655496
 23
31.0101931569
  0
SOLID
  8
0
 62
7
  6
CONTINUOUS
 10
358.9482655496
 20
31.0101931569
 11
359.2951405909
 21
30.9456659241
 12
358.6592030565
 22
30.9456659241
 13
358.6592030565
 23
30.9456659241
  0
SOLID
  8
0
 62
7
  6
CONTINUOUS
 10
358.8326405772
 20
30.8811389819
 11
358.6592030565
 21
30.9456659241
 12
359.2951405909
 22
30.9456659241
 13
359.2951405909
 23
30.9456659241
  0
SOLID
  8
0
 62
7
  6
CONTINUOUS
 10
362.8795155634
 20
31.3328301325
 11
362.9951404531
 21
31.397357926
 12
363.5732655634
 22
31.3650944328
 13
363.5732655634
 23
31.3650944328
  0
SOLID
  8
0
 62
7
  6
CONTINUOUS
 10
363.5732655634
 20
31.3650944328
 11
363.3420154531
 21
31.3328301325
 12
362.8795155634
 22
31.3328301325
 13
362.8795155634
 23
31.3328301325
  0
SOLID
  8
0
 62
7
  6
CONTINUOUS
 10
362.7638906736
 20
31.2037759492
 11
362.8795155634
 21
31.3328301325
 12
363.3420154531
 22
31.3328301325
 13
363.3420154531
 23
31.3328301325
  0
SOLID
  8
0
 62
7
  6
CONTINUOUS
 10
363.1107656736
 20
31.2360394487
 11
362.7638906736
 21
31.2037759492
 12
363.2263905634
 22
31.3005673426
 13
363.2263905634
 23
31.3005673426
  0
SOLID
  8
0
 62
7
  6
CONTINUOUS
 10
362.7638906736
 20
31.2037759492
 11
363.3420154531
 21
31.3328301295
 12
363.2263905634
 22
31.3005673426
 13
363.2263905634
 23
31.3005673426
  0
SOLID
  8
0
 62
7
  6
CONTINUOUS
 10
363.1107656736
 20
31.2360394487
 11
363.0529530634
 21
31.139248859
 12
362.7638906736
 22
31.2037759492
 13
362.7638906736
 23
31.2037759492
  0
SOLID
  8
0
 62
7
  6
CONTINUOUS
 10
362.7638906736
 20
31.1069845557
 11
362.7638906736
 21
31.2037759492
 12
363.0529530634
 22
31.139248859
 13
363.0529530634
 23
31.139248859
  0
SOLID
  8
0
 62
7
  6
CONTINUOUS
 10
363.0529530634
 20
31.139248859
 11
363.0529530634
 21
31.0747202524
 12
362.7638906736
 22
31.1069845557
 13
362.7638906736
 23
31.1069845557
  0
SOLID
  8
0
 62
7
  6
CONTINUOUS
 10
362.8217029531
 20
30.9779303754
 11
362.7638906736
 21
31.1069845557
 12
363.0529530634
 22
31.0747202524
 13
363.0529530634
 23
31.0747202524
  0
SOLID
  8
0
 62
7
  6
CONTINUOUS
 10
364.2092032839
 20
31.1715120759
 11
364.4982653428
 21
31.0747202524
 12
364.1513903428
 22
31.1069845557
 13
364.1513903428
 23
31.1069845557
  0
SOLID
  8
0
 62
7
  6
CONTINUOUS
 10
363.9779528428
 20
31.0101931623
 11
364.1513903428
 21
31.1069845557
 12
364.4982653428
 22
31.0747202524
 13
364.4982653428
 23
31.0747202524
  0
SOLID
  8
0
 62
7
  6
CONTINUOUS
 10
363.9779528428
 20
31.0101931623
 11
364.4982653428
 21
31.0747202524
 12
364.2092032839
 22
30.9779303754
 13
364.2092032839
 23
30.9779303754
  0
SOLID
  8
0
 62
7
  6
CONTINUOUS
 10
364.4982653428
 20
31.0747202524
 11
364.5560782839
 21
30.9134032852
 12
364.2092032839
 22
30.9779303754
 13
364.2092032839
 23
30.9779303754
  0
SOLID
  8
0
 62
7
  6
CONTINUOUS
 10
364.2670155634
 20
30.8811389819
 11
364.2092032839
 21
30.9779303754
 12
364.5560782839
 22
30.9134032852
 13
364.5560782839
 23
30.9134032852
  0
SOLID
  8
0
 62
7
  6
CONTINUOUS
 10
364.2670155634
 20
30.8811389819
 11
364.5560782839
 21
30.9134032852
 12
364.3248278428
 22
30.816611867
 13
364.3248278428
 23
30.816611867
  0
SOLID
  8
0
 62
7
  6
CONTINUOUS
 10
364.5560782839
 20
30.9134032852
 11
364.6138905634
 21
30.816611867
 12
364.3248278428
 22
30.816611867
 13
364.3248278428
 23
30.816611867
  0
SOLID
  8
0
 62
7
  6
CONTINUOUS
 10
359.8732656185
 20
31.0424573076
 11
359.9310780634
 21
31.1392488159
 12
360.2201406185
 22
31.1392488159
 13
360.2201406185
 23
31.1392488159
  0
SOLID
  8
0
 62
7
  6
CONTINUOUS
 10
360.2201406185
 20
31.1392488159
 11
360.1623280082
 21
31.0101931623
 12
359.8732656185
 22
31.0424573076
 13
359.8732656185
 23
31.0424573076
  0
SOLID
  8
0
 62
7
  6
CONTINUOUS
 10
359.6998280358
 20
30.9779303754
 11
359.8732656185
 21
31.0424573076
 12
360.1623280082
 22
31.0101931623
 13
360.1623280082
 23
31.0101931623
  0
SOLID
  8
0
 62
7
  6
CONTINUOUS
 10
359.6998280358
 20
30.9779303754
 11
360.1623280082
 21
31.0101931623
 12
359.2951405909
 22
30.9456660721
 13
359.2951405909
 23
30.9456660721
  0
SOLID
  8
0
 62
7
  6
CONTINUOUS
 10
360.1623280082
 20
31.0101931623
 11
359.9888905082
 21
30.9134032852
 12
359.2951405909
 22
30.9456660721
 13
359.2951405909
 23
30.9456660721
  0
SOLID
  8
0
 62
7
  6
CONTINUOUS
 10
358.8326405772
 20
30.8811389819
 11
359.2951405909
 21
30.9456660721
 12
359.9888905082
 22
30.9134032852
 13
359.9888905082
 23
30.9134032852
  0
SOLID
  8
0
 62
7
  6
CONTINUOUS
 10
358.8326405772
 20
30.8811389819
 11
359.9888905082
 21
30.9134032852
 12
359.0060780772
 22
30.8488745775
 13
359.0060780772
 23
30.8488745775
  0
SOLID
  8
0
 62
7
  6
CONTINUOUS
 10
359.9888905082
 20
30.9134032852
 11
359.7576405634
 21
30.8488745775
 12
359.0060780772
 22
30.8488745775
 13
359.0060780772
 23
30.8488745775
  0
SOLID
  8
0
 62
7
  6
CONTINUOUS
 10
359.3529530358
 20
30.8166118918
 11
359.0060780772
 21
30.8488745775
 12
359.7576405634
 22
30.8488745775
 13
359.7576405634
 23
30.8488745775
  0
SOLID
  8
0
 62
7
  6
CONTINUOUS
 10
362.8217029531
 20
30.9779303754
 11
363.0529530634
 21
31.0747202524
 12
363.1107656736
 22
31.0101931623
 13
363.1107656736
 23
31.0101931623
  0
SOLID
  8
0
 62
7
  6
CONTINUOUS
 10
363.1107656736
 20
31.0101931623
 11
363.3420154531
 21
30.9456660721
 12
362.8217029531
 22
30.9779303754
 13
362.8217029531
 23
30.9779303754
  0
SOLID
  8
0
 62
7
  6
CONTINUOUS
 10
362.9951404531
 20
30.8811389819
 11
362.8217029531
 21
30.9779303754
 12
363.3420154531
 22
30.9456660721
 13
363.3420154531
 23
30.9456660721
  0
SOLID
  8
0
 62
7
  6
CONTINUOUS
 10
363.6888904531
 20
30.9456661188
 11
363.9779528428
 21
31.0101931623
 12
364.2092032839
 22
30.9779303754
 13
364.2092032839
 23
30.9779303754
  0
SOLID
  8
0
 62
7
  6
CONTINUOUS
 10
364.2092032839
 20
30.9779303754
 11
364.1513903428
 21
30.9134032852
 12
363.6888904531
 22
30.9456661188
 13
363.6888904531
 23
30.9456661188
  0
SOLID
  8
0
 62
7
  6
CONTINUOUS
 10
364.1513903428
 20
30.9134032852
 11
362.9951404531
 21
30.8811389819
 12
363.6888904531
 22
30.9456661188
 13
363.6888904531
 23
30.9456661188
  0
SOLID
  8
0
 62
7
  6
CONTINUOUS
 10
362.9951404531
 20
30.8811389819
 11
363.3420154531
 21
30.9456661188
 12
363.6888904531
 22
30.9456661188
 13
363.6888904531
 23
30.9456661188
  0
SOLID
  8
0
 62
7
  6
CONTINUOUS
 10
362.9951404531
 20
30.8811389819
 11
364.1513903428
 21
30.9134032852
 12
363.1107656736
 22
30.8488747093
 13
363.1107656736
 23
30.8488747093
  0
SOLID
  8
0
 62
7
  6
CONTINUOUS
 10
364.1513903428
 20
30.9134032852
 11
363.9779528428
 21
30.8488747093
 12
363.1107656736
 22
30.8488747093
 13
363.1107656736
 23
30.8488747093
  0
SOLID
  8
0
 62
7
  6
CONTINUOUS
 10
363.3420154531
 20
30.816611874
 11
363.1107656736
 21
30.8488747093
 12
363.9779528428
 22
30.8488747093
 13
363.9779528428
 23
30.8488747093
  0
SOLID
  8
0
 62
7
  6
CONTINUOUS
 10
363.9779528428
 20
30.8488747093
 11
363.6888904531
 21
30.816611874
 12
363.3420154531
 22
30.816611874
 13
363.3420154531
 23
30.816611874
  0
SOLID
  8
0
 62
7
  6
CONTINUOUS
 10
368.3717032839
 20
30.9779303754
 11
368.0248282839
 21
30.9456661188
 12
368.2560780634
 22
31.0101931623
 13
368.2560780634
 23
31.0101931623
  0
SOLID
  8
0
 62
7
  6
CONTINUOUS
 10
368.2560780634
 20
31.0101931623
 11
368.0248282839
 21
30.9456661188
 12
368.1982657839
 22
31.0747202992
 13
368.1982657839
 23
31.0747202992
  0
SOLID
  8
0
 62
7
  6
CONTINUOUS
 10
368.0248282839
 20
30.9456661188
 11
367.9092030634
 21
31.0747202992
 12
368.1982657839
 22
31.0747202992
 13
368.1982657839
 23
31.0747202992
  0
SOLID
  8
0
 62
7
  6
CONTINUOUS
 10
368.3717032839
 20
30.9779303754
 11
368.7185782839
 21
30.9456661188
 12
368.0248282839
 22
30.9456661188
 13
368.0248282839
 23
30.9456661188
  0
SOLID
  8
0
 62
7
  6
CONTINUOUS
 10
365.0763907839
 20
30.8166118918
 11
365.0763907839
 21
31.8490498836
 12
365.3654528428
 22
30.8166118918
 13
365.3654528428
 23
31.8490498836
  0
ENDBLK
  8
0
  6
BYBLOCK
 62
0
  0
BLOCK
  8
0
 62
2
  6
CONTINUOUS
  2
SYMBOL_0_BL0
 70
64
 10
241.0459637928
 20
19.6790146053
  0
TEXT
  8
0
 62
7
  6
CONTINUOUS
 10
227.3106676351
 20
19.0524287129
  7
TEXTSTYLE_3
 40
2.7338706658
  1
Ammeraal Beltech
 41
1.0
 51
15.0
 72
0
  0
TEXT
  8
0
 62
7
  6
CONTINUOUS
 10
238.1114684608
 20
16.7788920401
  7
TEXTSTYLE_4
 40
1.0935482663
  1
Innovation & Service in Belting
 41
1.0
 72
0
  0
LINE
  8
0
 62
7
  6
CONTINUOUS
 10
221.2861269837
 20
19.8190220215
 11
222.0642789771
 21
23.4799393191
  0
LINE
  8
0
 62
7
  6
CONTINUOUS
 10
232.1594472669
 20
27.1433332308
 11
222.5520967201
 21
24.0217158095
  0
LINE
  8
0
 62
7
  6
CONTINUOUS
 10
221.511410316
 20
19.1256712184
 11
229.0184855772
 21
12.3662702925
  0
LINE
  8
0
 62
7
  6
CONTINUOUS
 10
221.7739447268
 20
20.3607985118
 11
232.5822140919
 21
23.8726181108
  0
LINE
  8
0
 62
7
  6
CONTINUOUS
 10
232.5780089548
 20
13.522829547
 11
224.132549286
 21
21.1271555887
  0
LINE
  8
0
 62
7
  6
CONTINUOUS
 10
233.0978316746
 20
26.298408115
 11
232.1212721373
 21
21.7040567125
  0
LINE
  8
0
 62
7
  6
CONTINUOUS
 10
231.4214701896
 20
18.4117473987
 11
230.7350219782
 21
15.1822624744
  0
LINE
  8
0
 62
7
  6
CONTINUOUS
 10
233.7789277731
 20
13.9130317247
 11
234.7351593087
 21
18.4117473987
  0
LINE
  8
0
 62
7
  6
CONTINUOUS
 10
235.4349612564
 20
21.7040567125
 11
235.8792030588
 21
23.7940500719
  0
LINE
  8
0
 62
7
  6
CONTINUOUS
 10
229.7315866525
 20
12.2146959798
 11
233.2911100301
 21
13.3712552343
  0
LINE
  8
0
 62
7
  6
CONTINUOUS
 10
232.8725483422
 20
26.9917589181
 11
235.6539197265
 21
24.487400875
  0
ARC
  8
0
 62
7
  6
CONTINUOUS
 10
222.7773800524
 20
23.3283650064
 40
0.7290321776
 50
108.0
 51
168.0
  0
ARC
  8
0
 62
7
  6
CONTINUOUS
 10
232.3847305992
 20
26.4499824277
 40
0.7290321776
 50
348.0
 51
108.0
  0
ARC
  8
0
 62
7
  6
CONTINUOUS
 10
235.1661019835
 20
23.9456243846
 40
0.7290321776
 50
348.0
 51
48.0
  0
ARC
  8
0
 62
7
  6
CONTINUOUS
 10
229.5063033202
 20
12.9080467828
 40
0.7290321776
 50
228.0
 51
288.0
  0
ARC
  8
0
 62
7
  6
CONTINUOUS
 10
221.9992280591
 20
19.6674477088
 40
0.7290321776
 50
108.0
 51
228.0
  0
ARC
  8
0
 62
7
  6
CONTINUOUS
 10
233.0658266978
 20
14.0646060374
 40
0.7290321776
 50
228.0
 51
348.0
  0
ENDBLK
  8
0
  6
BYBLOCK
 62
0
  0
ENDSEC
  0
SECTION
  2
ENTITIES
  0
TEXT
  8
0
 62
5
  6
CONTINUOUS
 10
304.937007874
 20
25.636
  7
TEXTSTYLE_2
 40
2.8
  1
Scale :
 41
0.6
 51
0.000019
 72
0
  0
TEXT
  8
0
 62
5
  6
CONTINUOUS
 10
324.937007874
 20
25.636
  7
TEXTSTYLE_2
 40
2.8
  1
Chain type:
 41
0.6
 51
0.000019
 72
0
  0
INSERT
  8
0
 62
2
  6
CONTINUOUS
  2
SYMBOL_0_BL0
 10
241.0459637928
 20
19.6790146053
  0
INSERT
  8
0
 62
2
  6
CONTINUOUS
  2
SYMBOL_5_BL1
 10
382.3920721743
 20
35.81661148
  0
LINE
  8
0
 62
2
  6
CONTINUOUS
 10
218.937007874
 20
30.0
 11
408.937007874
 21
30.0
  0
LINE
  8
0
 62
2
  6
CONTINUOUS
 10
218.937007874
 20
30.0
 11
218.937007874
 21
10.0
  0
LINE
  8
0
 62
2
  6
CONTINUOUS
 10
218.937007874
 20
10.0
 11
408.937007874
 21
10.0
  0
LINE
  8
0
 62
2
  6
CONTINUOUS
 10
303.937007874
 20
30.0
 11
303.937007874
 21
10.0
  0
LINE
  8
0
 62
2
  6
CONTINUOUS
 10
323.937007874
 20
30.0
 11
323.937007874
 21
10.0
  0
LINE
  8
0
 62
2
  6
CONTINUOUS
 10
408.937007874
 20
30.0
 11
408.937007874
 21
10.0
  0
TEXT
  8
0
 62
5
  6
CONTINUOUS
 10
221.937007874
 20
23.303
  7
TEXTSTYLE_5
 40
1.52
  1
                                                                     Ammeraal Beltech Modular A/S
 41
1.0
 72
0
  0
TEXT
  8
0
 62
5
  6
CONTINUOUS
 10
221.937007874
 20
20.595
  7
TEXTSTYLE_5
 40
1.5
  1
                                                                      Hjulmagervej 21, 7100 Vejle,  DK
 41
1.0
 72
0
  0
TEXT
  8
0
 62
5
  6
CONTINUOUS
 10
221.937007874
 20
17.881
  7
TEXTSTYLE_5
 40
1.495
  1
                                                                      tel: 
 41
1.0
 72
0
  0
TEXT
  8
0
 62
5
  6
CONTINUOUS
 10
266.9239544389
 20
17.881
  7
TEXTSTYLE_5
 40
1.51
  1
+45 75723100     fax: +45 75723348
 41
1.0
 72
0
  0
TEXT
  8
0
 62
5
  6
CONTINUOUS
 10
221.937007874
 20
15.177
  7
TEXTSTYLE_5
 40
1.5
  1
                                                                      admin@unichains.dk  www.unichains.com
 41
1.0
 72
0
  0
TEXT
  8
0
 62
5
  6
CONTINUOUS
 10
308.687007874
 20
13.75
  7
TEXTSTYLE_6
 40
5.0
  1
1:1
 41
0.7
 72
1
 11
313.937007874
 21
13.75
  0
TEXT
  8
0
 62
5
  6
CONTINUOUS
 10
326.937007874
 20
13.75
  7
TEXTSTYLE_7
 40
7.5
  1
uni 2700-LH
 41
0.646969697
 72
0
  0
LINE
  8
0
 62
7
  6
CONTINUOUS
 10
0.0
 20
0.0
 11
0.0
 21
297.0
  0
LINE
  8
0
 62
7
  6
CONTINUOUS
 10
8.937007874
 20
10.0
 11
8.937007874
 21
287.0
  0
LINE
  8
0
 62
7
  6
CONTINUOUS
 10
0.0
 20
0.0
 11
420.0
 21
0.0
  0
LINE
  8
0
 62
7
  6
CONTINUOUS
 10
408.937007874
 20
10.0
 11
8.937007874
 21
10.0
  0
LINE
  8
0
 62
7
  6
CONTINUOUS
 10
218.937007874
 20
30.0
 11
408.937007874
 21
30.0
  0
LINE
  8
0
 62
7
  6
CONTINUOUS
 10
210.0
 20
297.0
 11
210.0
 21
292.0
  0
LINE
  8
0
 62
7
  6
CONTINUOUS
 10
210.0
 20
0.0
 11
210.0
 21
5.0
  0
LINE
  8
0
 62
7
  6
CONTINUOUS
 10
8.937007874
 20
287.0
 11
408.937007874
 21
287.0
  0
LINE
  8
0
 62
7
  6
CONTINUOUS
 10
0.0
 20
297.0
 11
420.0
 21
297.0
  0
LINE
  8
0
 62
7
  6
CONTINUOUS
 10
408.937007874
 20
287.0
 11
408.937007874
 21
10.0
  0
LINE
  8
0
 62
7
  6
CONTINUOUS
 10
420.0
 20
0.0
 11
420.0
 21
297.0
  0
POLYLINE
  8
0
 62
7
  6
CONTINUOUS
 66
1
 70
0
  0
VERTEX
  8
0
 62
7
  6
CONTINUOUS
 10
64.7714397286
 20
202.9654291965
  0
VERTEX
  8
0
 62
7
  6
CONTINUOUS
 10
64.7869266486
 20
202.6609937151
  0
VERTEX
  8
0
 62
7
  6
CONTINUOUS
 10
64.9714270962
 20
201.8884339735
  0
VERTEX
  8
0
 62
7
  6
CONTINUOUS
 10
65.1365165948
 20
201.5311489219
  0
SEQEND
  0
POLYLINE
  8
0
 62
7
  6
CONTINUOUS
 66
1
 70
0
  0
VERTEX
  8
0
 62
7
  6
CONTINUOUS
 10
66.9166497222
 20
200.5288215487
  0
VERTEX
  8
0
 62
7
  6
CONTINUOUS
 10
66.940217297
 20
199.8318713765
  0
VERTEX
  8
0
 62
7
  6
CONTINUOUS
 10
67.0103023419
 20
199.4957406957
  0
VERTEX
  8
0
 62
7
  6
CONTINUOUS
 10
67.2618353898
 20
198.8720020113
  0
SEQEND
  0
LINE
  8
0
 62
7
  6
CONTINUOUS
 10
64.7714344262
 20
222.551810746
 11
64.7714344262
 21
202.9531163463
  0
LINE
  8
0
 62
7
  6
CONTINUOUS
 10
64.8040216957
 20
223.3688970514
 11
64.7714344262
 21
222.5518114754
  0
LINE
  8
0
 62
7
  6
CONTINUOUS
 10
67.2618353898
 20
198.8720020113
 11
67.2564569555
 21
198.7030229623
  0
POLYLINE
  8
0
 62
7
  6
CONTINUOUS
 66
1
 70
0
  0
VERTEX
  8
0
 62
7
  6
CONTINUOUS
 10
65.383457625
 20
224.6238370731
  0
VERTEX
  8
0
 62
7
  6
CONTINUOUS
 10
65.0294824869
 20
224.1442406671
  0
VERTEX
  8
0
 62
7
  6
CONTINUOUS
 10
64.9098539773
 20
223.8700380834
  0
VERTEX
  8
0
 62
7
  6
CONTINUOUS
 10
64.8040224578
 20
223.3688969907
  0
SEQEND
  0
LINE
  8
0
 62
7
  6
CONTINUOUS
 10
78.4576884776
 20
213.9238114754
 11
78.4576884776
 21
213.4538114754
  0
LINE
  8
0
 62
7
  6
CONTINUOUS
 10
72.9583640405
 20
232.1987410897
 11
65.3835226424
 21
224.6238996915
  0
LINE
  8
0
 62
7
  6
CONTINUOUS
 10
72.9757850784
 20
232.2159747518
 11
72.9583809804
 21
232.1987615969
  0
POLYLINE
  8
0
 62
7
  6
CONTINUOUS
 66
1
 70
0
  0
VERTEX
  8
0
 62
7
  6
CONTINUOUS
 10
67.2618353898
 20
198.8720020113
  0
VERTEX
  8
0
 62
7
  6
CONTINUOUS
 10
67.5232438457
 20
198.6852250983
  0
VERTEX
  8
0
 62
7
  6
CONTINUOUS
 10
67.7572044498
 20
198.5312309227
  0
VERTEX
  8
0
 62
7
  6
CONTINUOUS
 10
67.9770662244
 20
198.3803864985
  0
SEQEND
  0
LINE
  8
0
 62
7
  6
CONTINUOUS
 10
80.7100895709
 20
213.4538114754
 11
80.7104472061
 21
213.9238114754
  0
LINE
  8
0
 62
7
  6
CONTINUOUS
 10
73.4500701375
 20
232.5595674155
 11
72.9737498914
 21
232.213983052
  0
LINE
  8
0
 62
7
  6
CONTINUOUS
 10
73.7211100887
 20
232.6761379553
 11
73.4511377363
 21
232.5600265749
  0
LINE
  8
CENTER_AXER
 62
2
  6
CENTER
 10
93.1014344262
 20
177.5338114754
 11
93.1014344262
 21
251.5338114754
  0
POLYLINE
  8
0
 62
7
  6
CONTINUOUS
 66
1
 70
0
  0
VERTEX
  8
0
 62
7
  6
CONTINUOUS
 10
155.1774554669
 20
189.7298114754
  0
VERTEX
  8
0
 62
7
  6
CONTINUOUS
 10
155.8118106897
 20
189.7395950721
  0
VERTEX
  8
0
 62
7
  6
CONTINUOUS
 10
156.5505577046
 20
189.7487122241
  0
VERTEX
  8
0
 62
7
  6
CONTINUOUS
 10
157.3433235376
 20
189.7565408536
  0
SEQEND
  0
LINE
  8
0
 62
7
  6
CONTINUOUS
 10
171.1456982847
 20
186.6668114754
 11
148.4879783145
 21
186.6668114754
  0
LINE
  8
0
 62
7
  6
CONTINUOUS
 10
148.0456122888
 20
186.698923969
 11
148.4879817509
 21
186.6668113328
  0
LINE
  8
0
 62
7
  6
CONTINUOUS
 10
105.4924216464
 20
213.9238114754
 11
105.4927792816
 21
213.4538114754
  0
LINE
  8
0
 62
7
  6
CONTINUOUS
 10
107.7618409183
 20
213.4538114754
 11
107.7618409183
 21
213.9238114754
  0
LINE
  8
CURVE_RUNDING
 62
7
  6
CONTINUOUS
 10
105.3823439076
 20
195.1368114754
 11
75.8975344259
 21
195.1368114754
  0
LINE
  8
0
 62
7
  6
CONTINUOUS
 10
105.3823439076
 20
195.1368114754
 11
144.6399558312
 21
195.1368114754
  0
LINE
  8
0
 62
7
  6
CONTINUOUS
 10
75.6382838377
 20
195.1395546354
 11
75.8975344262
 21
195.1368114754
  0
LINE
  8
0
 62
7
  6
CONTINUOUS
 10
147.1957804912
 20
186.9527292731
 11
148.045420996
 21
186.6989810992
  0
LINE
  8
0
 62
7
  6
CONTINUOUS
 10
110.717927241
 20
203.5338114754
 11
113.1014344262
 21
201.5338114754
  0
LINE
  8
0
 62
7
  6
CONTINUOUS
 10
113.1014344262
 20
201.5338114754
 11
113.1014344262
 21
202.5338114754
  0
LINE
  8
0
 62
7
  6
CONTINUOUS
 10
113.1014344262
 20
204.5338114754
 11
113.1014344262
 21
205.5338114754
  0
POLYLINE
  8
0
 62
7
  6
CONTINUOUS
 66
1
 70
0
  0
VERTEX
  8
0
 62
7
  6
CONTINUOUS
 10
106.8705560751
 20
210.1340168671
  0
VERTEX
  8
0
 62
7
  6
CONTINUOUS
 10
107.4199858634
 20
211.3558028753
  0
VERTEX
  8
0
 62
7
  6
CONTINUOUS
 10
107.6070471542
 20
212.0327116006
  0
VERTEX
  8
0
 62
7
  6
CONTINUOUS
 10
107.7618409183
 20
213.4538114754
  0
SEQEND
  0
LINE
  8
0
 62
7
  6
CONTINUOUS
 10
113.1014344262
 20
202.5338114754
 11
124.1014344262
 21
202.5338114754
  0
POLYLINE
  8
0
 62
7
  6
CONTINUOUS
 66
1
 70
0
  0
VERTEX
  8
0
 62
7
  6
CONTINUOUS
 10
86.3738019524
 20
207.1748114754
  0
VERTEX
  8
0
 62
7
  6
CONTINUOUS
 10
85.0649276308
 20
207.3327603471
  0
VERTEX
  8
0
 62
7
  6
CONTINUOUS
 10
83.7859786549
 20
207.8298423563
  0
VERTEX
  8
0
 62
7
  6
CONTINUOUS
 10
82.6622874002
 20
208.647230382
  0
VERTEX
  8
0
 62
7
  6
CONTINUOUS
 10
81.7813163416
 20
209.7052972058
  0
VERTEX
  8
0
 62
7
  6
CONTINUOUS
 10
81.1656850897
 20
210.9221710552
  0
VERTEX
  8
0
 62
7
  6
CONTINUOUS
 10
80.8157349499
 20
212.2083286437
  0
VERTEX
  8
0
 62
7
  6
CONTINUOUS
 10
80.7100895709
 20
213.4538114754
  0
SEQEND
  0
POLYLINE
  8
0
 62
7
  6
CONTINUOUS
 66
1
 70
0
  0
VERTEX
  8
0
 62
7
  6
CONTINUOUS
 10
84.3582965498
 20
207.1748114754
  0
VERTEX
  8
0
 62
7
  6
CONTINUOUS
 10
82.9185186005
 20
207.3582251382
  0
VERTEX
  8
0
 62
7
  6
CONTINUOUS
 10
81.5597343541
 20
207.9070559544
  0
VERTEX
  8
0
 62
7
  6
CONTINUOUS
 10
80.3752839296
 20
208.79227519
  0
VERTEX
  8
0
 62
7
  6
CONTINUOUS
 10
79.8772356992
 20
209.33772469
  0
VERTEX
  8
0
 62
7
  6
CONTINUOUS
 10
79.0901880188
 20
210.5974914086
  0
VERTEX
  8
0
 62
7
  6
CONTINUOUS
 10
78.614592158
 20
211.9990373938
  0
VERTEX
  8
0
 62
7
  6
CONTINUOUS
 10
78.4576884776
 20
213.4538114754
  0
SEQEND
  0
POLYLINE
  8
0
 62
7
  6
CONTINUOUS
 66
1
 70
0
  0
VERTEX
  8
0
 62
7
  6
CONTINUOUS
 10
144.4003927061
 20
195.1368115108
  0
VERTEX
  8
0
 62
7
  6
CONTINUOUS
 10
144.7657088393
 20
195.0691995431
  0
VERTEX
  8
0
 62
7
  6
CONTINUOUS
 10
145.0826481042
 20
194.8753512696
  0
VERTEX
  8
0
 62
7
  6
CONTINUOUS
 10
145.2094506332
 20
194.7385359528
  0
VERTEX
  8
0
 62
7
  6
CONTINUOUS
 10
145.3786990126
 20
194.4078053598
  0
VERTEX
  8
0
 62
7
  6
CONTINUOUS
 10
145.4213426054
 20
194.1166581624
  0
SEQEND
  0
POLYLINE
  8
0
 62
7
  6
CONTINUOUS
 66
1
 70
0
  0
VERTEX
  8
0
 62
7
  6
CONTINUOUS
 10
106.8705560751
 20
217.2436060837
  0
VERTEX
  8
0
 62
7
  6
CONTINUOUS
 10
107.4199858634
 20
216.0218200755
  0
VERTEX
  8
0
 62
7
  6
CONTINUOUS
 10
107.6070471542
 20
215.3449113502
  0
VERTEX
  8
0
 62
7
  6
CONTINUOUS
 10
107.7618409183
 20
213.9238114754
  0
SEQEND
  0
LINE
  8
0
 62
7
  6
CONTINUOUS
 10
124.1014344262
 20
204.5338114754
 11
113.1014344262
 21
204.5338114754
  0
LINE
  8
0
 62
7
  6
CONTINUOUS
 10
101.8445723027
 20
207.1748114754
 11
84.3582965498
 21
207.1748114754
  0
LINE
  8
0
 62
7
  6
CONTINUOUS
 10
146.454290269
 20
187.4393817067
 11
147.1957804912
 21
186.9527292731
  0
LINE
  8
0
 62
7
  6
CONTINUOUS
 10
124.1014344262
 20
202.5338114754
 11
124.1014344262
 21
204.5338114754
  0
LINE
  8
0
 62
7
  6
CONTINUOUS
 10
113.1014344262
 20
205.5338114754
 11
110.717927241
 21
203.5338114754
  0
POLYLINE
  8
0
 62
7
  6
CONTINUOUS
 66
1
 70
0
  0
VERTEX
  8
0
 62
7
  6
CONTINUOUS
 10
99.8290669001
 20
207.1748114754
  0
VERTEX
  8
0
 62
7
  6
CONTINUOUS
 10
101.1379412217
 20
207.3327603471
  0
VERTEX
  8
0
 62
7
  6
CONTINUOUS
 10
102.4168901976
 20
207.8298423563
  0
VERTEX
  8
0
 62
7
  6
CONTINUOUS
 10
103.5405814523
 20
208.647230382
  0
VERTEX
  8
0
 62
7
  6
CONTINUOUS
 10
104.4215525109
 20
209.7052972058
  0
VERTEX
  8
0
 62
7
  6
CONTINUOUS
 10
105.0371837627
 20
210.9221710552
  0
VERTEX
  8
0
 62
7
  6
CONTINUOUS
 10
105.3871339025
 20
212.2083286437
  0
VERTEX
  8
0
 62
7
  6
CONTINUOUS
 10
105.4927792816
 20
213.4538114754
  0
SEQEND
  0
POLYLINE
  8
0
 62
7
  6
CONTINUOUS
 66
1
 70
0
  0
VERTEX
  8
0
 62
7
  6
CONTINUOUS
 10
101.8445723027
 20
207.1748114754
  0
VERTEX
  8
0
 62
7
  6
CONTINUOUS
 10
103.1728457329
 20
207.3304438623
  0
VERTEX
  8
0
 62
7
  6
CONTINUOUS
 10
104.4365871596
 20
207.7961858906
  0
VERTEX
  8
0
 62
7
  6
CONTINUOUS
 10
105.0218582078
 20
208.1403347368
  0
VERTEX
  8
0
 62
7
  6
CONTINUOUS
 10
106.0597247525
 20
209.0297869989
  0
VERTEX
  8
0
 62
7
  6
CONTINUOUS
 10
106.8705560751
 20
210.1340168671
  0
SEQEND
  0
LINE
  8
CENTER_AXER
 62
2
  6
CENTER
 10
42.6014344262
 20
214.5338114754
 11
206.6014344262
 21
214.5338114754
  0
LINE
  8
0
 62
7
  6
CONTINUOUS
 10
146.1441076082
 20
187.7579535825
 11
146.454290269
 21
187.4393817067
  0
LINE
  8
CENTER_AXER
 62
2
  6
CENTER
 10
128.5514344262
 20
177.5338114754
 11
128.5514344262
 21
251.5338114754
  0
LINE
  8
0
 62
7
  6
CONTINUOUS
 10
101.8445723027
 20
220.2028114754
 11
84.3582965498
 21
220.2028114754
  0
POLYLINE
  8
0
 62
7
  6
CONTINUOUS
 66
1
 70
0
  0
VERTEX
  8
0
 62
7
  6
CONTINUOUS
 10
101.8445723027
 20
220.2028114754
  0
VERTEX
  8
0
 62
7
  6
CONTINUOUS
 10
103.1728457329
 20
220.0471790885
  0
VERTEX
  8
0
 62
7
  6
CONTINUOUS
 10
104.4365871596
 20
219.5814370602
  0
VERTEX
  8
0
 62
7
  6
CONTINUOUS
 10
105.0218582078
 20
219.237288214
  0
VERTEX
  8
0
 62
7
  6
CONTINUOUS
 10
106.0597247525
 20
218.3478359519
  0
VERTEX
  8
0
 62
7
  6
CONTINUOUS
 10
106.8705560751
 20
217.2436060837
  0
SEQEND
  0
POLYLINE
  8
0
 62
7
  6
CONTINUOUS
 66
1
 70
0
  0
VERTEX
  8
0
 62
7
  6
CONTINUOUS
 10
99.820946997
 20
220.2028114754
  0
VERTEX
  8
0
 62
7
  6
CONTINUOUS
 10
101.1323957454
 20
220.0442269092
  0
VERTEX
  8
0
 62
7
  6
CONTINUOUS
 10
102.4128957741
 20
219.5457328497
  0
VERTEX
  8
0
 62
7
  6
CONTINUOUS
 10
103.5370803892
 20
218.7271574033
  0
VERTEX
  8
0
 62
7
  6
CONTINUOUS
 10
104.4177051419
 20
217.6694861988
  0
VERTEX
  8
0
 62
7
  6
CONTINUOUS
 10
105.0334128066
 20
216.4546085224
  0
VERTEX
  8
0
 62
7
  6
CONTINUOUS
 10
105.384719345
 20
215.1703122232
  0
VERTEX
  8
0
 62
7
  6
CONTINUOUS
 10
105.4924216464
 20
213.9238114754
  0
SEQEND
  0
LINE
  8
0
 62
7
  6
CONTINUOUS
 10
145.6774114442
 20
188.5121645325
 11
146.1441076082
 21
187.7579535825
  0
POLYLINE
  8
0
 62
7
  6
CONTINUOUS
 66
1
 70
0
  0
VERTEX
  8
0
 62
7
  6
CONTINUOUS
 10
84.3582965498
 20
220.2028114754
  0
VERTEX
  8
0
 62
7
  6
CONTINUOUS
 10
82.9185186005
 20
220.0193978126
  0
VERTEX
  8
0
 62
7
  6
CONTINUOUS
 10
81.5597343541
 20
219.4705669964
  0
VERTEX
  8
0
 62
7
  6
CONTINUOUS
 10
80.3752839296
 20
218.5853477608
  0
VERTEX
  8
0
 62
7
  6
CONTINUOUS
 10
79.8772356992
 20
218.0398982608
  0
VERTEX
  8
0
 62
7
  6
CONTINUOUS
 10
79.0901880188
 20
216.7801315422
  0
VERTEX
  8
0
 62
7
  6
CONTINUOUS
 10
78.614592158
 20
215.378585557
  0
VERTEX
  8
0
 62
7
  6
CONTINUOUS
 10
78.4576884776
 20
213.9238114754
  0
SEQEND
  0
POLYLINE
  8
0
 62
7
  6
CONTINUOUS
 66
1
 70
0
  0
VERTEX
  8
0
 62
7
  6
CONTINUOUS
 10
86.3819218555
 20
220.2028114754
  0
VERTEX
  8
0
 62
7
  6
CONTINUOUS
 10
85.0704731071
 20
220.0442269092
  0
VERTEX
  8
0
 62
7
  6
CONTINUOUS
 10
83.7899730783
 20
219.5457328497
  0
VERTEX
  8
0
 62
7
  6
CONTINUOUS
 10
82.6657884633
 20
218.7271574033
  0
VERTEX
  8
0
 62
7
  6
CONTINUOUS
 10
81.7851637106
 20
217.6694861988
  0
VERTEX
  8
0
 62
7
  6
CONTINUOUS
 10
81.1694560459
 20
216.4546085224
  0
VERTEX
  8
0
 62
7
  6
CONTINUOUS
 10
80.8181495074
 20
215.1703122232
  0
VERTEX
  8
0
 62
7
  6
CONTINUOUS
 10
80.7104472061
 20
213.9238114754
  0
SEQEND
  0
LINE
  8
0
 62
7
  6
CONTINUOUS
 10
153.0852292364
 20
222.7921957366
 11
183.0198482086
 21
222.7926130949
  0
LINE
  8
0
 62
7
  6
CONTINUOUS
 10
110.0977699042
 20
226.4795114754
 11
150.7992371241
 21
226.4795114754
  0
POLYLINE
  8
0
 62
7
  6
CONTINUOUS
 66
1
 70
0
  0
VERTEX
  8
0
 62
7
  6
CONTINUOUS
 10
183.2044344262
 20
222.7834740053
  0
VERTEX
  8
0
 62
7
  6
CONTINUOUS
 10
183.1837770232
 20
222.7865732173
  0
VERTEX
  8
0
 62
7
  6
CONTINUOUS
 10
183.121858276
 20
222.7896389224
  0
VERTEX
  8
0
 62
7
  6
CONTINUOUS
 10
183.0198482086
 20
222.7926130949
  0
SEQEND
  0
POLYLINE
  8
0
 62
7
  6
CONTINUOUS
 66
1
 70
0
  0
VERTEX
  8
0
 62
7
  6
CONTINUOUS
 10
153.0852344263
 20
222.7191200315
  0
VERTEX
  8
0
 62
7
  6
CONTINUOUS
 10
152.4317752084
 20
222.8245022733
  0
VERTEX
  8
0
 62
7
  6
CONTINUOUS
 10
151.8397971522
 20
223.1386930453
  0
VERTEX
  8
0
 62
7
  6
CONTINUOUS
 10
151.3920368103
 20
223.6135745433
  0
VERTEX
  8
0
 62
7
  6
CONTINUOUS
 10
151.1282898533
 20
224.1705662487
  0
VERTEX
  8
0
 62
7
  6
CONTINUOUS
 10
151.0432344263
 20
224.7533927099
  0
SEQEND
  0
LINE
  8
0
 62
7
  6
CONTINUOUS
 10
145.4463700281
 20
189.3684700149
 11
145.6774114442
 21
188.5121645325
  0
LINE
  8
0
 62
7
  6
CONTINUOUS
 10
145.4249827187
 20
189.7272714182
 11
145.4463700281
 21
189.3684700149
  0
LINE
  8
0
 62
7
  6
CONTINUOUS
 10
145.4213428781
 20
194.1166504809
 11
145.4249830206
 21
189.7272694002
  0
LINE
  8
0
 62
7
  6
CONTINUOUS
 10
75.0314344262
 20
232.8118114754
 11
74.2143512584
 21
232.7792243984
  0
LINE
  8
0
 62
7
  6
CONTINUOUS
 10
75.03119949
 20
232.8118114754
 11
163.4310558905
 21
232.8118114754
  0
POLYLINE
  8
0
 62
7
  6
CONTINUOUS
 66
1
 70
0
  0
VERTEX
  8
0
 62
7
  6
CONTINUOUS
 10
178.3889050258
 20
224.8344588291
  0
VERTEX
  8
0
 62
7
  6
CONTINUOUS
 10
179.0578737565
 20
224.6976031813
  0
VERTEX
  8
0
 62
7
  6
CONTINUOUS
 10
179.7219702808
 20
224.5275575725
  0
VERTEX
  8
0
 62
7
  6
CONTINUOUS
 10
180.3777345938
 20
224.3218613879
  0
SEQEND
  0
LINE
  8
0
 62
7
  6
CONTINUOUS
 10
153.0843103448
 20
222.8966584853
 11
153.0852292364
 21
222.7923435709
  0
LINE
  8
0
 62
7
  6
CONTINUOUS
 10
153.082260062
 20
224.8342658178
 11
153.0843103448
 21
222.8966584853
  0
LINE
  8
0
 62
7
  6
CONTINUOUS
 10
151.0432344262
 20
225.4585114754
 11
151.0432344262
 21
224.7533927099
  0
LINE
  8
0
 62
7
  6
CONTINUOUS
 10
74.2143512498
 20
232.7792243969
 11
73.7215292772
 21
232.6762255649
  0
POLYLINE
  8
0
 62
7
  6
CONTINUOUS
 66
1
 70
0
  0
VERTEX
  8
0
 62
7
  6
CONTINUOUS
 10
153.0822601073
 20
225.4585114754
  0
VERTEX
  8
0
 62
7
  6
CONTINUOUS
 10
152.2157121757
 20
226.0319684055
  0
VERTEX
  8
0
 62
7
  6
CONTINUOUS
 10
151.448332748
 20
226.3760916386
  0
VERTEX
  8
0
 62
7
  6
CONTINUOUS
 10
150.7992371241
 20
226.4795114754
  0
SEQEND
  0
POLYLINE
  8
0
 62
7
  6
CONTINUOUS
 66
1
 70
0
  0
VERTEX
  8
0
 62
7
  6
CONTINUOUS
 10
180.3777345938
 20
224.3218613879
  0
VERTEX
  8
0
 62
7
  6
CONTINUOUS
 10
180.9279224152
 20
224.0733706995
  0
VERTEX
  8
0
 62
7
  6
CONTINUOUS
 10
181.2500588429
 20
223.8847594431
  0
VERTEX
  8
0
 62
7
  6
CONTINUOUS
 10
181.8386289337
 20
223.4779882725
  0
SEQEND
  0
LINE
  8
CENTER_AXER
 62
2
  6
CENTER
 10
164.0014344262
 20
177.5338114754
 11
164.0014344262
 21
251.5338114754
  0
LINE
  8
0
 62
7
  6
CONTINUOUS
 10
174.9970712485
 20
229.2204682471
 11
183.2044344262
 21
223.5797038147
  0
POLYLINE
  8
0
 62
7
  6
CONTINUOUS
 66
1
 70
0
  0
VERTEX
  8
0
 62
7
  6
CONTINUOUS
 10
181.8386289697
 20
223.477988248
  0
VERTEX
  8
0
 62
7
  6
CONTINUOUS
 10
182.3888666507
 20
223.0872439748
  0
VERTEX
  8
0
 62
7
  6
CONTINUOUS
 10
182.772983016
 20
222.8659076523
  0
VERTEX
  8
0
 62
7
  6
CONTINUOUS
 10
183.0198482086
 20
222.7926130949
  0
SEQEND
  0
LINE
  8
0
 62
7
  6
CONTINUOUS
 10
183.2044344262
 20
198.725547617
 11
183.2044344262
 21
223.5797038147
  0
LINE
  8
0
 62
7
  6
CONTINUOUS
 10
173.3115663555
 20
187.5639434046
 11
182.307302497
 21
196.5596795462
  0
POLYLINE
  8
0
 62
7
  6
CONTINUOUS
 66
1
 70
0
  0
VERTEX
  8
0
 62
7
  6
CONTINUOUS
 10
180.3777345938
 20
37.5545470163
  0
VERTEX
  8
0
 62
7
  6
CONTINUOUS
 10
180.9279224152
 20
37.6355009779
  0
VERTEX
  8
0
 62
7
  6
CONTINUOUS
 10
181.2500588429
 20
37.7221839065
  0
VERTEX
  8
0
 62
7
  6
CONTINUOUS
 10
181.8386289337
 20
38.0027018347
  0
SEQEND
  0
POLYLINE
  8
0
 62
7
  6
CONTINUOUS
 66
1
 70
0
  0
VERTEX
  8
0
 62
7
  6
CONTINUOUS
 10
178.3889050258
 20
37.4920552314
  0
VERTEX
  8
0
 62
7
  6
CONTINUOUS
 10
179.0578737565
 20
37.4956723687
  0
VERTEX
  8
0
 62
7
  6
CONTINUOUS
 10
179.7219702808
 20
37.5133095425
  0
VERTEX
  8
0
 62
7
  6
CONTINUOUS
 10
180.3777345938
 20
37.5545470163
  0
SEQEND
  0
LINE
  8
0
 62
7
  6
CONTINUOUS
 10
123.9819253891
 20
37.5713028923
 11
178.3889050257
 21
37.4920551538
  0
LINE
  8
CENTER_AXER
 62
2
  6
CENTER
 10
93.1014344262
 20
32.0850409836
 11
93.1014344262
 21
156.0850409836
  0
POLYLINE
  8
0
 62
7
  6
CONTINUOUS
 66
1
 70
0
  0
VERTEX
  8
0
 62
7
  6
CONTINUOUS
 10
173.0000764573
 20
64.2617407558
  0
VERTEX
  8
0
 62
7
  6
CONTINUOUS
 10
170.4107016032
 20
64.2684868058
  0
VERTEX
  8
0
 62
7
  6
CONTINUOUS
 10
167.6476243805
 20
64.2730600461
  0
SEQEND
  0
POLYLINE
  8
0
 62
7
  6
CONTINUOUS
 66
1
 70
0
  0
VERTEX
  8
0
 62
7
  6
CONTINUOUS
 10
167.6476323358
 20
64.2730600361
  0
VERTEX
  8
0
 62
7
  6
CONTINUOUS
 10
165.8272853526
 20
64.33085899
  0
VERTEX
  8
0
 62
7
  6
CONTINUOUS
 10
163.7003488783
 20
64.5413523303
  0
SEQEND
  0
LINE
  8
0
 62
7
  6
CONTINUOUS
 10
104.8550886017
 20
106.1536358134
 11
104.8550886017
 21
82.0164461538
  0
POLYLINE
  8
0
 62
7
  6
CONTINUOUS
 66
1
 70
0
  0
VERTEX
  8
0
 62
7
  6
CONTINUOUS
 10
174.194298426
 20
64.1876862034
  0
VERTEX
  8
0
 62
7
  6
CONTINUOUS
 10
173.8194777917
 20
64.2261329814
  0
VERTEX
  8
0
 62
7
  6
CONTINUOUS
 10
173.3736901061
 20
64.2537100721
  0
VERTEX
  8
0
 62
7
  6
CONTINUOUS
 10
173.0000757241
 20
64.2617407581
  0
SEQEND
  0
POLYLINE
  8
0
 62
7
  6
CONTINUOUS
 66
1
 70
0
  0
VERTEX
  8
0
 62
7
  6
CONTINUOUS
 10
163.7003488784
 20
64.5413523304
  0
VERTEX
  8
0
 62
7
  6
CONTINUOUS
 10
158.9396802133
 20
65.5977875324
  0
VERTEX
  8
0
 62
7
  6
CONTINUOUS
 10
154.3439463801
 20
67.4678761716
  0
VERTEX
  8
0
 62
7
  6
CONTINUOUS
 10
150.1286659443
 20
70.0873359727
  0
VERTEX
  8
0
 62
7
  6
CONTINUOUS
 10
146.4156699107
 20
73.3809357517
  0
VERTEX
  8
0
 62
7
  6
CONTINUOUS
 10
144.7815755921
 20
75.2516577537
  0
VERTEX
  8
0
 62
7
  6
CONTINUOUS
 10
142.0169368582
 20
79.3737023463
  0
SEQEND
  0
POLYLINE
  8
0
 62
7
  6
CONTINUOUS
 66
1
 70
0
  0
VERTEX
  8
0
 62
7
  6
CONTINUOUS
 10
163.7003452538
 20
64.5413256571
  0
VERTEX
  8
0
 62
7
  6
CONTINUOUS
 10
158.8759507244
 20
65.6176725999
  0
VERTEX
  8
0
 62
7
  6
CONTINUOUS
 10
154.3009344358
 20
67.4898115378
  0
VERTEX
  8
0
 62
7
  6
CONTINUOUS
 10
150.1057683594
 20
70.1044086074
  0
VERTEX
  8
0
 62
7
  6
CONTINUOUS
 10
146.4098190439
 20
73.3870697781
  0
SEQEND
  0
LINE
  8
0
 62
7
  6
CONTINUOUS
 10
120.9699207201
 20
148.0676666923
 11
116.6368933831
 21
123.4938475323
  0
LINE
  8
0
 62
7
  6
CONTINUOUS
 10
116.6368933831
 20
64.6762344349
 11
120.9699207201
 21
40.1024152749
  0
POLYLINE
  8
0
 62
7
  6
CONTINUOUS
 66
1
 70
0
  0
VERTEX
  8
0
 62
7
  6
CONTINUOUS
 10
146.4098179028
 20
114.7830109888
  0
VERTEX
  8
0
 62
7
  6
CONTINUOUS
 10
150.1057670312
 20
118.0656723672
  0
VERTEX
  8
0
 62
7
  6
CONTINUOUS
 10
154.3009329473
 20
120.6802696679
  0
VERTEX
  8
0
 62
7
  6
CONTINUOUS
 10
158.875949103
 20
122.5524088587
  0
VERTEX
  8
0
 62
7
  6
CONTINUOUS
 10
163.7003452538
 20
123.6287563101
  0
SEQEND
  0
LINE
  8
CENTER_AXER
 62
2
  6
CENTER
 10
42.6014344262
 20
94.0850409836
 11
206.6014344262
 21
94.0850409836
  0
LINE
  8
CENTER_AXER
 62
2
  6
CENTER
 10
128.5514344262
 20
99.3350409836
 11
128.5514344262
 21
96.0851409836
  0
LINE
  8
CENTER_AXER
 62
2
  6
CONTINUOUS
 10
128.5514344262
 20
95.1350409836
 11
128.5514344262
 21
93.0350409836
  0
LINE
  8
CENTER_AXER
 62
2
  6
CENTER
 10
128.5514344262
 20
88.8350409836
 11
128.5514344262
 21
92.0849409836
  0
POLYLINE
  8
0
 62
7
  6
CONTINUOUS
 66
1
 70
0
  0
VERTEX
  8
0
 62
7
  6
CONTINUOUS
 10
141.4117181825
 20
107.6445133676
  0
VERTEX
  8
0
 62
7
  6
CONTINUOUS
 10
144.7772493953
 20
112.9130245128
  0
VERTEX
  8
0
 62
7
  6
CONTINUOUS
 10
146.4109019163
 20
114.7841323447
  0
VERTEX
  8
0
 62
7
  6
CONTINUOUS
 10
150.1231153432
 20
118.0786052898
  0
VERTEX
  8
0
 62
7
  6
CONTINUOUS
 10
154.3377587005
 20
120.6990521733
  0
VERTEX
  8
0
 62
7
  6
CONTINUOUS
 10
158.9330393734
 20
122.5702270383
  0
VERTEX
  8
0
 62
7
  6
CONTINUOUS
 10
163.7003488783
 20
123.6287296368
  0
SEQEND
  0
POLYLINE
  8
0
 62
7
  6
CONTINUOUS
 66
1
 70
0
  0
VERTEX
  8
0
 62
7
  6
CONTINUOUS
 10
144.7825686567
 20
75.2504014929
  0
VERTEX
  8
0
 62
7
  6
CONTINUOUS
 10
142.027444101
 20
79.3547429799
  0
VERTEX
  8
0
 62
7
  6
CONTINUOUS
 10
141.411707437
 20
80.5255692664
  0
SEQEND
  0
LINE
  8
0
 62
7
  6
CONTINUOUS
 10
138.3454344262
 20
94.5951114122
 11
138.3454344262
 21
93.5749705551
  0
POLYLINE
  8
0
 62
7
  6
CONTINUOUS
 66
1
 70
0
  0
VERTEX
  8
0
 62
7
  6
CONTINUOUS
 10
138.3454344262
 20
94.5951114122
  0
VERTEX
  8
0
 62
7
  6
CONTINUOUS
 10
138.7623997023
 20
99.5206632654
  0
VERTEX
  8
0
 62
7
  6
CONTINUOUS
 10
140.0015004998
 20
104.3062316074
  0
VERTEX
  8
0
 62
7
  6
CONTINUOUS
 10
141.4117091635
 20
107.6445161718
  0
SEQEND
  0
POLYLINE
  8
0
 62
7
  6
CONTINUOUS
 66
1
 70
0
  0
VERTEX
  8
0
 62
7
  6
CONTINUOUS
 10
141.4117091635
 20
107.6445161718
  0
VERTEX
  8
0
 62
7
  6
CONTINUOUS
 10
142.0274432965
 20
108.8153375379
  0
VERTEX
  8
0
 62
7
  6
CONTINUOUS
 10
144.782567621
 20
112.919679182
  0
SEQEND
  0
POLYLINE
  8
0
 62
7
  6
CONTINUOUS
 66
1
 70
0
  0
VERTEX
  8
0
 62
7
  6
CONTINUOUS
 10
141.411707437
 20
80.5255692664
  0
VERTEX
  8
0
 62
7
  6
CONTINUOUS
 10
140.0015010538
 20
83.8638487828
  0
VERTEX
  8
0
 62
7
  6
CONTINUOUS
 10
138.7623999878
 20
88.6494170276
  0
VERTEX
  8
0
 62
7
  6
CONTINUOUS
 10
138.3454344262
 20
93.5749705551
  0
SEQEND
  0
POLYLINE
  8
0
 62
7
  6
CONTINUOUS
 66
1
 70
0
  0
VERTEX
  8
0
 62
7
  6
CONTINUOUS
 10
174.1943248365
 20
123.9823989681
  0
VERTEX
  8
0
 62
7
  6
CONTINUOUS
 10
175.7951275807
 20
124.3079048384
  0
VERTEX
  8
0
 62
7
  6
CONTINUOUS
 10
177.2790755744
 20
124.862891216
  0
VERTEX
  8
0
 62
7
  6
CONTINUOUS
 10
178.5695241111
 20
125.580290862
  0
VERTEX
  8
0
 62
7
  6
CONTINUOUS
 10
179.6748214028
 20
126.4154872249
  0
VERTEX
  8
0
 62
7
  6
CONTINUOUS
 10
180.6073591238
 20
127.3355197219
  0
VERTEX
  8
0
 62
7
  6
CONTINUOUS
 10
181.3774380333
 20
128.3125585996
  0
VERTEX
  8
0
 62
7
  6
CONTINUOUS
 10
181.7025296058
 20
128.8112417449
  0
VERTEX
  8
0
 62
7
  6
CONTINUOUS
 10
182.2375211181
 20
129.8058423126
  0
VERTEX
  8
0
 62
7
  6
CONTINUOUS
 10
182.6340323551
 20
130.7787443711
  0
VERTEX
  8
0
 62
7
  6
CONTINUOUS
 10
182.846410642
 20
131.4638813949
  0
SEQEND
  0
LINE
  8
0
 62
7
  6
CONTINUOUS
 10
173.8194531777
 20
123.9439469216
 11
174.1942998929
 21
123.9823959417
  0
POLYLINE
  8
0
 62
7
  6
CONTINUOUS
 66
1
 70
0
  0
VERTEX
  8
0
 62
7
  6
CONTINUOUS
 10
163.7003488783
 20
123.6287296368
  0
VERTEX
  8
0
 62
7
  6
CONTINUOUS
 10
165.8272803083
 20
123.8392230116
  0
VERTEX
  8
0
 62
7
  6
CONTINUOUS
 10
167.6476227497
 20
123.8970219192
  0
SEQEND
  0
POLYLINE
  8
0
 62
7
  6
CONTINUOUS
 66
1
 70
0
  0
VERTEX
  8
0
 62
7
  6
CONTINUOUS
 10
173.0000751998
 20
123.9083412075
  0
VERTEX
  8
0
 62
7
  6
CONTINUOUS
 10
173.3737764906
 20
123.9163753374
  0
VERTEX
  8
0
 62
7
  6
CONTINUOUS
 10
173.8194531777
 20
123.9439469216
  0
SEQEND
  0
POLYLINE
  8
0
 62
7
  6
CONTINUOUS
 66
1
 70
0
  0
VERTEX
  8
0
 62
7
  6
CONTINUOUS
 10
167.6476244168
 20
123.8970219212
  0
VERTEX
  8
0
 62
7
  6
CONTINUOUS
 10
170.4107721965
 20
123.9015953108
  0
VERTEX
  8
0
 62
7
  6
CONTINUOUS
 10
173.0000762154
 20
123.9083412107
  0
SEQEND
  0
LINE
  8
CENTER_AXER
 62
2
  6
CENTER
 10
164.0014344262
 20
32.0850409836
 11
164.0014344262
 21
156.0850409836
  0
POLYLINE
  8
0
 62
7
  6
CONTINUOUS
 66
1
 70
0
  0
VERTEX
  8
0
 62
7
  6
CONTINUOUS
 10
182.846396497
 20
131.4638283986
  0
VERTEX
  8
0
 62
7
  6
CONTINUOUS
 10
182.7931732556
 20
131.2752653438
  0
VERTEX
  8
0
 62
7
  6
CONTINUOUS
 10
182.3398872133
 20
130.0312796744
  0
VERTEX
  8
0
 62
7
  6
CONTINUOUS
 10
181.995801427
 20
129.3236522671
  0
VERTEX
  8
0
 62
7
  6
CONTINUOUS
 10
180.9551810091
 20
127.7468634704
  0
VERTEX
  8
0
 62
7
  6
CONTINUOUS
 10
179.4146550788
 20
126.1971926878
  0
VERTEX
  8
0
 62
7
  6
CONTINUOUS
 10
177.5162682653
 20
124.9769475313
  0
VERTEX
  8
0
 62
7
  6
CONTINUOUS
 10
175.3419158828
 20
124.1885451311
  0
VERTEX
  8
0
 62
7
  6
CONTINUOUS
 10
174.1942297572
 20
123.9827871475
  0
SEQEND
  0
POLYLINE
  8
0
 62
7
  6
CONTINUOUS
 66
1
 70
0
  0
VERTEX
  8
0
 62
7
  6
CONTINUOUS
 10
182.8486664657
 20
56.6978898
  0
VERTEX
  8
0
 62
7
  6
CONTINUOUS
 10
182.6634026756
 20
57.3059367585
  0
VERTEX
  8
0
 62
7
  6
CONTINUOUS
 10
182.2881150775
 20
58.2546292142
  0
VERTEX
  8
0
 62
7
  6
CONTINUOUS
 10
181.7833038569
 20
59.2243935583
  0
VERTEX
  8
0
 62
7
  6
CONTINUOUS
 10
181.1320853618
 20
60.1960460779
  0
VERTEX
  8
0
 62
7
  6
CONTINUOUS
 10
180.324735772
 20
61.1388704569
  0
VERTEX
  8
0
 62
7
  6
CONTINUOUS
 10
179.3581793163
 20
62.0183958224
  0
VERTEX
  8
0
 62
7
  6
CONTINUOUS
 10
178.2379018968
 20
62.7978748516
  0
VERTEX
  8
0
 62
7
  6
CONTINUOUS
 10
176.9769444761
 20
63.4418056822
  0
VERTEX
  8
0
 62
7
  6
CONTINUOUS
 10
175.5960776112
 20
63.917348729
  0
VERTEX
  8
0
 62
7
  6
CONTINUOUS
 10
174.194324961
 20
64.187682984
  0
SEQEND
  0
POLYLINE
  8
0
 62
7
  6
CONTINUOUS
 66
1
 70
0
  0
VERTEX
  8
0
 62
7
  6
CONTINUOUS
 10
182.848653024
 20
56.6979419512
  0
VERTEX
  8
0
 62
7
  6
CONTINUOUS
 10
182.7936370636
 20
56.8932311786
  0
VERTEX
  8
0
 62
7
  6
CONTINUOUS
 10
182.3408451587
 20
58.1366223895
  0
VERTEX
  8
0
 62
7
  6
CONTINUOUS
 10
181.997129069
 20
58.8439458832
  0
VERTEX
  8
0
 62
7
  6
CONTINUOUS
 10
180.957563479
 20
60.4202448529
  0
VERTEX
  8
0
 62
7
  6
CONTINUOUS
 10
179.4169654739
 20
61.9710143475
  0
VERTEX
  8
0
 62
7
  6
CONTINUOUS
 10
177.5179059162
 20
63.1923209062
  0
VERTEX
  8
0
 62
7
  6
CONTINUOUS
 10
175.3425732732
 20
63.9813796348
  0
VERTEX
  8
0
 62
7
  6
CONTINUOUS
 10
174.1942282551
 20
64.1872948752
  0
SEQEND
  0
POLYLINE
  8
0
 62
7
  6
CONTINUOUS
 66
1
 70
0
  0
VERTEX
  8
0
 62
7
  6
CONTINUOUS
 10
183.2044344262
 20
54.0265613811
  0
VERTEX
  8
0
 62
7
  6
CONTINUOUS
 10
183.2001674987
 20
54.321560809
  0
VERTEX
  8
0
 62
7
  6
CONTINUOUS
 10
183.1564299189
 20
55.0150047638
  0
VERTEX
  8
0
 62
7
  6
CONTINUOUS
 10
183.0379107009
 20
55.8624758451
  0
VERTEX
  8
0
 62
7
  6
CONTINUOUS
 10
182.848653024
 20
56.6979419512
  0
SEQEND
  0
LINE
  8
0
 62
7
  6
CONTINUOUS
 10
183.2044344262
 20
147.6175762512
 11
183.2044344262
 21
134.1435205861
  0
LINE
  8
0
 62
7
  6
CONTINUOUS
 10
183.2044344262
 20
54.0265613811
 11
183.2044344262
 21
40.552505716
  0
POLYLINE
  8
0
 62
7
  6
CONTINUOUS
 66
1
 70
0
  0
VERTEX
  8
0
 62
7
  6
CONTINUOUS
 10
183.2044344262
 20
134.1435205861
  0
VERTEX
  8
0
 62
7
  6
CONTINUOUS
 10
183.2001609127
 20
133.848293633
  0
VERTEX
  8
0
 62
7
  6
CONTINUOUS
 10
183.1563734748
 20
133.1544974955
  0
VERTEX
  8
0
 62
7
  6
CONTINUOUS
 10
183.037718756
 20
132.3065566949
  0
VERTEX
  8
0
 62
7
  6
CONTINUOUS
 10
182.846396497
 20
131.4638283986
  0
SEQEND
  0
LINE
  8
0
 62
7
  6
CONTINUOUS
 10
123.9819253891
 20
150.5987790749
 11
178.3957742689
 21
150.678036819
  0
POLYLINE
  8
0
 62
7
  6
CONTINUOUS
 66
1
 70
0
  0
VERTEX
  8
0
 62
7
  6
CONTINUOUS
 10
180.3771277308
 20
150.6158710933
  0
VERTEX
  8
0
 62
7
  6
CONTINUOUS
 10
179.7240114306
 20
150.6568636115
  0
VERTEX
  8
0
 62
7
  6
CONTINUOUS
 10
179.0624286029
 20
150.6744289163
  0
VERTEX
  8
0
 62
7
  6
CONTINUOUS
 10
178.3957742689
 20
150.678036819
  0
SEQEND
  0
POLYLINE
  8
0
 62
7
  6
CONTINUOUS
 66
1
 70
0
  0
VERTEX
  8
0
 62
7
  6
CONTINUOUS
 10
181.8353845217
 20
150.1695364474
  0
VERTEX
  8
0
 62
7
  6
CONTINUOUS
 10
181.3426723528
 20
150.4160351474
  0
VERTEX
  8
0
 62
7
  6
CONTINUOUS
 10
180.8308909651
 20
150.5545487795
  0
VERTEX
  8
0
 62
7
  6
CONTINUOUS
 10
180.3771277308
 20
150.6158710933
  0
SEQEND
  0
LINE
  8
0
 62
7
  6
CONTINUOUS
 10
257.0876963349
 20
229.7488114754
 11
257.0876963349
 21
226.4795114754
  0
POLYLINE
  8
0
 62
7
  6
CONTINUOUS
 66
1
 70
0
  0
VERTEX
  8
0
 62
7
  6
CONTINUOUS
 10
257.0453095726
 20
224.8318276752
  0
VERTEX
  8
0
 62
7
  6
CONTINUOUS
 10
257.0465715848
 20
226.0318980332
  0
VERTEX
  8
0
 62
7
  6
CONTINUOUS
 10
257.0476893364
 20
226.3760559096
  0
VERTEX
  8
0
 62
7
  6
CONTINUOUS
 10
257.0486349623
 20
226.4795114754
  0
SEQEND
  0
LINE
  8
0
 62
7
  6
CONTINUOUS
 10
257.0084282944
 20
224.8319996518
 11
257.008392541
 21
224.8243321536
  0
LINE
  8
0
 62
7
  6
CONTINUOUS
 10
257.0122159047
 20
225.5855407482
 11
257.0115396657
 21
225.4586915043
  0
LINE
  8
0
 62
7
  6
CONTINUOUS
 10
257.0247196009
 20
229.3398554677
 11
257.0122159047
 21
225.5855407482
  0
LINE
  8
0
 62
7
  6
CONTINUOUS
 10
257.1293126284
 20
200.1743155473
 11
257.038398086
 21
189.7565408536
  0
LINE
  8
0
 62
7
  6
CONTINUOUS
 10
257.0272127483
 20
229.6418871881
 11
257.0247196009
 21
229.3398554677
  0
LINE
  8
0
 62
7
  6
CONTINUOUS
 10
257.0614191848
 20
230.184721825
 11
257.0302422943
 21
229.7488114754
  0
POLYLINE
  8
0
 62
7
  6
CONTINUOUS
 66
1
 70
0
  0
VERTEX
  8
0
 62
7
  6
CONTINUOUS
 10
257.0706043165
 20
224.3209791091
  0
VERTEX
  8
0
 62
7
  6
CONTINUOUS
 10
257.0296117983
 20
224.5258510383
  0
VERTEX
  8
0
 62
7
  6
CONTINUOUS
 10
257.0120464935
 20
224.6954203209
  0
VERTEX
  8
0
 62
7
  6
CONTINUOUS
 10
257.0083918288
 20
224.8245106239
  0
SEQEND
  0
LINE
  8
0
 62
7
  6
CONTINUOUS
 10
268.0514344262
 20
217.9993327137
 11
268.0628015903
 21
215.9580387123
  0
LINE
  8
0
 62
7
  6
CONTINUOUS
 10
268.0628015903
 20
215.9580387123
 11
268.0676298323
 21
214.5338114754
  0
LINE
  8
0
 62
7
  6
CONTINUOUS
 10
268.0514344262
 20
221.7016827294
 11
268.0514344262
 21
217.9993327137
  0
LINE
  8
0
 62
7
  6
CONTINUOUS
 10
268.0514344262
 20
211.0682902372
 11
268.0514344262
 21
203.3571453811
  0
LINE
  8
0
 62
7
  6
CONTINUOUS
 10
268.0514344262
 20
211.1087745837
 11
268.0514344262
 21
217.9933721764
  0
POLYLINE
  8
0
 62
7
  6
CONTINUOUS
 66
1
 70
0
  0
VERTEX
  8
0
 62
7
  6
CONTINUOUS
 10
268.0676298323
 20
214.5338114754
  0
VERTEX
  8
0
 62
7
  6
CONTINUOUS
 10
268.0628030764
 20
213.1098228193
  0
VERTEX
  8
0
 62
7
  6
CONTINUOUS
 10
268.0514344262
 20
211.0682902372
  0
SEQEND
  0
POLYLINE
  8
0
 62
7
  6
CONTINUOUS
 66
1
 70
0
  0
VERTEX
  8
0
 62
7
  6
CONTINUOUS
 10
257.5169389624
 20
223.478744376
  0
VERTEX
  8
0
 62
7
  6
CONTINUOUS
 10
257.2704402625
 20
223.8242901703
  0
VERTEX
  8
0
 62
7
  6
CONTINUOUS
 10
257.1319266304
 20
224.1234038129
  0
VERTEX
  8
0
 62
7
  6
CONTINUOUS
 10
257.0706043165
 20
224.3209791091
  0
SEQEND
  0
POLYLINE
  8
CURVE_RUNDING
 62
7
  6
CONTINUOUS
 66
1
 70
0
  0
VERTEX
  8
CURVE_RUNDING
 62
7
  6
CONTINUOUS
 10
285.375673254
 20
198.0760576016
  0
VERTEX
  8
CURVE_RUNDING
 62
7
  6
CONTINUOUS
 10
285.7429256442
 20
197.1123633265
  0
VERTEX
  8
CURVE_RUNDING
 62
7
  6
CONTINUOUS
 10
286.2625239272
 20
196.2815242281
  0
VERTEX
  8
CURVE_RUNDING
 62
7
  6
CONTINUOUS
 10
286.5710295285
 20
195.9365745587
  0
VERTEX
  8
CURVE_RUNDING
 62
7
  6
CONTINUOUS
 10
287.2563582191
 20
195.4221236838
  0
VERTEX
  8
CURVE_RUNDING
 62
7
  6
CONTINUOUS
 10
287.9811037784
 20
195.1670967388
  0
VERTEX
  8
CURVE_RUNDING
 62
7
  6
CONTINUOUS
 10
288.3335251428
 20
195.1368115301
  0
SEQEND
  0
POLYLINE
  8
0
 62
7
  6
CONTINUOUS
 66
1
 70
0
  0
VERTEX
  8
0
 62
7
  6
CONTINUOUS
 10
285.2714395437
 20
198.8690669899
  0
VERTEX
  8
0
 62
7
  6
CONTINUOUS
 10
285.2866720507
 20
198.5646691454
  0
VERTEX
  8
0
 62
7
  6
CONTINUOUS
 10
285.3502988124
 20
198.180034098
  0
SEQEND
  0
LINE
  8
0
 62
7
  6
CONTINUOUS
 10
285.2714344262
 20
227.3368249999
 11
285.2714344262
 21
220.2028114754
  0
LINE
  8
0
 62
7
  6
CONTINUOUS
 10
285.2714344262
 20
207.1748114754
 11
285.2714344262
 21
198.8684457045
  0
LINE
  8
0
 62
7
  6
CONTINUOUS
 10
285.271434429
 20
227.3391471256
 11
285.2714345457
 21
227.3397401177
  0
LINE
  8
0
 62
7
  6
CONTINUOUS
 10
283.575771566
 20
189.7137737182
 11
283.6012914893
 21
194.587675508
  0
LINE
  8
0
 62
7
  6
CONTINUOUS
 10
367.1015873961
 20
186.6668114754
 11
346.6900552996
 21
186.6668114754
  0
LINE
  8
0
 62
7
  6
CONTINUOUS
 10
280.5128135528
 20
186.6668114754
 11
260.1012814564
 21
186.6668114754
  0
LINE
  8
CURVE_RUNDING
 62
7
  6
CONTINUOUS
 10
285.4003807304
 20
197.9916278358
 11
285.375673254
 21
198.0760576016
  0
LINE
  8
0
 62
7
  6
CONTINUOUS
 10
285.3502988124
 20
198.180034098
 11
285.4003750292
 21
197.9916162975
  0
LINE
  8
0
 62
7
  6
CONTINUOUS
 10
289.2551518843
 20
213.4538114754
 11
289.2551518843
 21
213.9238114754
  0
LINE
  8
0
 62
7
  6
CONTINUOUS
 10
289.3496385217
 20
213.9238114754
 11
289.3496385217
 21
213.4538114754
  0
POLYLINE
  8
0
 62
7
  6
CONTINUOUS
 66
1
 70
0
  0
VERTEX
  8
0
 62
7
  6
CONTINUOUS
 10
283.6012918409
 20
194.587744221
  0
VERTEX
  8
0
 62
7
  6
CONTINUOUS
 10
283.6398716897
 20
194.8266384617
  0
VERTEX
  8
0
 62
7
  6
CONTINUOUS
 10
283.7465869518
 20
195.0228479678
  0
VERTEX
  8
0
 62
7
  6
CONTINUOUS
 10
283.8035473812
 20
195.0803739444
  0
VERTEX
  8
0
 62
7
  6
CONTINUOUS
 10
283.8937357652
 20
195.1330506237
  0
SEQEND
  0
POLYLINE
  8
0
 62
7
  6
CONTINUOUS
 66
1
 70
0
  0
VERTEX
  8
0
 62
7
  6
CONTINUOUS
 10
288.8849402345
 20
210.3234532676
  0
VERTEX
  8
0
 62
7
  6
CONTINUOUS
 10
289.1157106784
 20
211.3558028753
  0
VERTEX
  8
0
 62
7
  6
CONTINUOUS
 10
289.1947563064
 20
212.0327116006
  0
VERTEX
  8
0
 62
7
  6
CONTINUOUS
 10
289.2551518843
 20
213.4538114754
  0
SEQEND
  0
POLYLINE
  8
0
 62
7
  6
CONTINUOUS
 66
1
 70
0
  0
VERTEX
  8
0
 62
7
  6
CONTINUOUS
 10
369.2674554669
 20
189.7298114754
  0
VERTEX
  8
0
 62
7
  6
CONTINUOUS
 10
369.7541977478
 20
189.7395950721
  0
VERTEX
  8
0
 62
7
  6
CONTINUOUS
 10
370.0601569991
 20
189.7487122241
  0
VERTEX
  8
0
 62
7
  6
CONTINUOUS
 10
370.1644707664
 20
189.7565408536
  0
SEQEND
  0
POLYLINE
  8
0
 62
7
  6
CONTINUOUS
 66
1
 70
0
  0
VERTEX
  8
0
 62
7
  6
CONTINUOUS
 10
257.9354133856
 20
189.7298114754
  0
VERTEX
  8
0
 62
7
  6
CONTINUOUS
 10
257.4486959111
 20
189.7395948459
  0
VERTEX
  8
0
 62
7
  6
CONTINUOUS
 10
257.1426987914
 20
189.7487124364
  0
VERTEX
  8
0
 62
7
  6
CONTINUOUS
 10
257.038398086
 20
189.7565408536
  0
SEQEND
  0
POLYLINE
  8
0
 62
7
  6
CONTINUOUS
 66
1
 70
0
  0
VERTEX
  8
0
 62
7
  6
CONTINUOUS
 10
288.8849402345
 20
217.0541696832
  0
VERTEX
  8
0
 62
7
  6
CONTINUOUS
 10
289.1157106784
 20
216.0218200755
  0
VERTEX
  8
0
 62
7
  6
CONTINUOUS
 10
289.1947563064
 20
215.3449113502
  0
VERTEX
  8
0
 62
7
  6
CONTINUOUS
 10
289.2551518843
 20
213.9238114754
  0
SEQEND
  0
POLYLINE
  8
CURVE_RUNDING
 62
7
  6
CONTINUOUS
 66
1
 70
0
  0
VERTEX
  8
CURVE_RUNDING
 62
7
  6
CONTINUOUS
 10
338.8693437097
 20
195.1368115301
  0
VERTEX
  8
CURVE_RUNDING
 62
7
  6
CONTINUOUS
 10
339.221765074
 20
195.1670967388
  0
VERTEX
  8
CURVE_RUNDING
 62
7
  6
CONTINUOUS
 10
339.9465106335
 20
195.4221236838
  0
VERTEX
  8
CURVE_RUNDING
 62
7
  6
CONTINUOUS
 10
340.6318393241
 20
195.9365745589
  0
VERTEX
  8
CURVE_RUNDING
 62
7
  6
CONTINUOUS
 10
340.9403449255
 20
196.2815242283
  0
VERTEX
  8
CURVE_RUNDING
 62
7
  6
CONTINUOUS
 10
341.4599432084
 20
197.1123633269
  0
SEQEND
  0
POLYLINE
  8
0
 62
7
  6
CONTINUOUS
 66
1
 70
0
  0
VERTEX
  8
0
 62
7
  6
CONTINUOUS
 10
310.6657034185
 20
195.1368012115
  0
VERTEX
  8
0
 62
7
  6
CONTINUOUS
 10
313.5978446144
 20
195.1394274997
  0
VERTEX
  8
0
 62
7
  6
CONTINUOUS
 10
316.5360321182
 20
195.1368012428
  0
SEQEND
  0
LINE
  8
0
 62
7
  6
CONTINUOUS
 10
350.0514643516
 20
195.1368114754
 11
338.86931527
 21
195.1368114754
  0
LINE
  8
CURVE_RUNDING
 62
7
  6
CONTINUOUS
 10
338.86931527
 20
195.1368114754
 11
324.2540026044
 21
195.1368114754
  0
LINE
  8
0
 62
7
  6
CONTINUOUS
 10
324.2540026044
 20
195.1368114754
 11
316.5371648595
 21
195.1368114754
  0
LINE
  8
0
 62
7
  6
CONTINUOUS
 10
310.6657039929
 20
195.1368114754
 11
302.9488662481
 21
195.1368114754
  0
LINE
  8
0
 62
7
  6
CONTINUOUS
 10
288.3335535825
 20
195.1368114754
 11
277.1514045009
 21
195.1368114754
  0
LINE
  8
CURVE_RUNDING
 62
7
  6
CONTINUOUS
 10
288.3335535825
 20
195.1368114754
 11
302.9488662481
 21
195.1368114754
  0
LINE
  8
0
 62
7
  6
CONTINUOUS
 10
323.9079957832
 20
198.8720020113
 11
322.4635507829
 21
198.7030229623
  0
POLYLINE
  8
0
 62
7
  6
CONTINUOUS
 66
1
 70
0
  0
VERTEX
  8
0
 62
7
  6
CONTINUOUS
 10
303.294853688
 20
198.8720146669
  0
VERTEX
  8
0
 62
7
  6
CONTINUOUS
 10
303.7750530666
 20
198.8024046364
  0
VERTEX
  8
0
 62
7
  6
CONTINUOUS
 10
304.2557231124
 20
198.745727059
  0
VERTEX
  8
0
 62
7
  6
CONTINUOUS
 10
304.7390009487
 20
198.7028712583
  0
SEQEND
  0
POLYLINE
  8
0
 62
7
  6
CONTINUOUS
 66
1
 70
0
  0
VERTEX
  8
0
 62
7
  6
CONTINUOUS
 10
302.787330828
 20
200.528828405
  0
VERTEX
  8
0
 62
7
  6
CONTINUOUS
 10
302.9507879507
 20
199.8318713014
  0
VERTEX
  8
0
 62
7
  6
CONTINUOUS
 10
303.0537727631
 20
199.495746559
  0
VERTEX
  8
0
 62
7
  6
CONTINUOUS
 10
303.294853688
 20
198.8720146669
  0
SEQEND
  0
LINE
  8
0
 62
7
  6
CONTINUOUS
 10
259.1355970614
 20
202.1981849553
 11
268.7552909701
 21
202.3660973371
  0
LINE
  8
0
 62
7
  6
CONTINUOUS
 10
358.4475778975
 20
202.3660973368
 11
368.0672717911
 21
202.1981849553
  0
LINE
  8
0
 62
7
  6
CONTINUOUS
 10
343.298863402
 20
195.1368114754
 11
343.3244728329
 21
195.128145917
  0
LINE
  8
0
 62
7
  6
CONTINUOUS
 10
323.9079957832
 20
198.8720020113
 11
324.5182089468
 21
198.5312309227
  0
LINE
  8
0
 62
7
  6
CONTINUOUS
 10
341.9314187922
 20
207.1748114754
 11
340.5485389103
 21
207.1748114754
  0
LINE
  8
0
 62
7
  6
CONTINUOUS
 10
286.6543299422
 20
207.1748114754
 11
285.2714500603
 21
207.1748114754
  0
LINE
  8
0
 62
7
  6
CONTINUOUS
 10
324.5182089468
 20
198.5312309227
 11
324.7144784214
 21
198.3803864985
  0
LINE
  8
CENTER_AXER
 62
2
  6
CENTER
 10
313.6014344262
 20
177.5338114754
 11
313.6014344262
 21
251.5338114754
  0
POLYLINE
  8
0
 62
7
  6
CONTINUOUS
 66
1
 70
0
  0
VERTEX
  8
0
 62
7
  6
CONTINUOUS
 10
286.6543299422
 20
207.1748114754
  0
VERTEX
  8
0
 62
7
  6
CONTINUOUS
 10
287.1647719045
 20
207.3582251382
  0
VERTEX
  8
0
 62
7
  6
CONTINUOUS
 10
287.7290928344
 20
207.9070559544
  0
VERTEX
  8
0
 62
7
  6
CONTINUOUS
 10
288.2906858491
 20
208.79227519
  0
VERTEX
  8
0
 62
7
  6
CONTINUOUS
 10
288.5473036685
 20
209.33772469
  0
VERTEX
  8
0
 62
7
  6
CONTINUOUS
 10
288.9788051168
 20
210.5974914086
  0
VERTEX
  8
0
 62
7
  6
CONTINUOUS
 10
289.2555867085
 20
211.9990373938
  0
VERTEX
  8
0
 62
7
  6
CONTINUOUS
 10
289.3496385217
 20
213.4538114754
  0
SEQEND
  0
LINE
  8
CENTER_AXER
 62
2
  6
CENTER
 10
251.6014344262
 20
214.5338114754
 11
375.6014344262
 21
214.5338114754
  0
POLYLINE
  8
0
 62
7
  6
CONTINUOUS
 66
1
 70
0
  0
VERTEX
  8
0
 62
7
  6
CONTINUOUS
 10
258.9806211001
 20
222.7929712641
  0
VERTEX
  8
0
 62
7
  6
CONTINUOUS
 10
258.4736196103
 20
222.8728595679
  0
VERTEX
  8
0
 62
7
  6
CONTINUOUS
 10
257.9732712169
 20
223.0947992844
  0
VERTEX
  8
0
 62
7
  6
CONTINUOUS
 10
257.5169376519
 20
223.4787454799
  0
SEQEND
  0
POLYLINE
  8
0
 62
7
  6
CONTINUOUS
 66
1
 70
0
  0
VERTEX
  8
0
 62
7
  6
CONTINUOUS
 10
259.0675052825
 20
222.7919053521
  0
VERTEX
  8
0
 62
7
  6
CONTINUOUS
 10
258.4413915916
 20
222.8961180968
  0
VERTEX
  8
0
 62
7
  6
CONTINUOUS
 10
257.8776038683
 20
223.1877324491
  0
VERTEX
  8
0
 62
7
  6
CONTINUOUS
 10
257.4307375437
 20
223.6385159806
  0
VERTEX
  8
0
 62
7
  6
CONTINUOUS
 10
257.1440544789
 20
224.2048275988
  0
VERTEX
  8
0
 62
7
  6
CONTINUOUS
 10
257.0453095726
 20
224.8318276752
  0
SEQEND
  0
POLYLINE
  8
0
 62
7
  6
CONTINUOUS
 66
1
 70
0
  0
VERTEX
  8
0
 62
7
  6
CONTINUOUS
 10
286.6543299422
 20
220.2028114754
  0
VERTEX
  8
0
 62
7
  6
CONTINUOUS
 10
287.1647719045
 20
220.0193978126
  0
VERTEX
  8
0
 62
7
  6
CONTINUOUS
 10
287.7290928344
 20
219.4705669964
  0
VERTEX
  8
0
 62
7
  6
CONTINUOUS
 10
288.2906858491
 20
218.5853477608
  0
VERTEX
  8
0
 62
7
  6
CONTINUOUS
 10
288.5473036685
 20
218.0398982608
  0
VERTEX
  8
0
 62
7
  6
CONTINUOUS
 10
288.9788051168
 20
216.7801315422
  0
VERTEX
  8
0
 62
7
  6
CONTINUOUS
 10
289.2555867085
 20
215.378585557
  0
VERTEX
  8
0
 62
7
  6
CONTINUOUS
 10
289.3496385217
 20
213.9238114754
  0
SEQEND
  0
POLYLINE
  8
0
 62
7
  6
CONTINUOUS
 66
1
 70
0
  0
VERTEX
  8
0
 62
7
  6
CONTINUOUS
 10
340.5485389103
 20
220.2028114754
  0
VERTEX
  8
0
 62
7
  6
CONTINUOUS
 10
340.0380969479
 20
220.0193978126
  0
VERTEX
  8
0
 62
7
  6
CONTINUOUS
 10
339.4737760181
 20
219.4705669964
  0
VERTEX
  8
0
 62
7
  6
CONTINUOUS
 10
338.9121830034
 20
218.5853477608
  0
VERTEX
  8
0
 62
7
  6
CONTINUOUS
 10
338.655565184
 20
218.0398982608
  0
VERTEX
  8
0
 62
7
  6
CONTINUOUS
 10
338.2240637357
 20
216.7801315422
  0
VERTEX
  8
0
 62
7
  6
CONTINUOUS
 10
337.947282144
 20
215.378585557
  0
VERTEX
  8
0
 62
7
  6
CONTINUOUS
 10
337.8532303307
 20
213.9238114754
  0
SEQEND
  0
POLYLINE
  8
0
 62
7
  6
CONTINUOUS
 66
1
 70
0
  0
VERTEX
  8
0
 62
7
  6
CONTINUOUS
 10
340.5485389103
 20
207.1748114754
  0
VERTEX
  8
0
 62
7
  6
CONTINUOUS
 10
340.0380969479
 20
207.3582251382
  0
VERTEX
  8
0
 62
7
  6
CONTINUOUS
 10
339.4737760181
 20
207.9070559544
  0
VERTEX
  8
0
 62
7
  6
CONTINUOUS
 10
338.9121830034
 20
208.79227519
  0
VERTEX
  8
0
 62
7
  6
CONTINUOUS
 10
338.655565184
 20
209.33772469
  0
VERTEX
  8
0
 62
7
  6
CONTINUOUS
 10
338.2240637357
 20
210.5974914086
  0
VERTEX
  8
0
 62
7
  6
CONTINUOUS
 10
337.947282144
 20
211.9990373938
  0
VERTEX
  8
0
 62
7
  6
CONTINUOUS
 10
337.8532303307
 20
213.4538114754
  0
SEQEND
  0
POLYLINE
  8
0
 62
7
  6
CONTINUOUS
 66
1
 70
0
  0
VERTEX
  8
0
 62
7
  6
CONTINUOUS
 10
343.3244728329
 20
195.128145917
  0
VERTEX
  8
0
 62
7
  6
CONTINUOUS
 10
343.442878388
 20
195.0382970573
  0
VERTEX
  8
0
 62
7
  6
CONTINUOUS
 10
343.5570469646
 20
194.8436839827
  0
VERTEX
  8
0
 62
7
  6
CONTINUOUS
 10
343.6015772587
 20
194.5876955889
  0
SEQEND
  0
POLYLINE
  8
0
 62
7
  6
CONTINUOUS
 66
1
 70
0
  0
VERTEX
  8
0
 62
7
  6
CONTINUOUS
 10
303.294853688
 20
198.8720146669
  0
VERTEX
  8
0
 62
7
  6
CONTINUOUS
 10
302.7139560975
 20
198.5483522612
  0
VERTEX
  8
0
 62
7
  6
CONTINUOUS
 10
302.4946459327
 20
198.3804765384
  0
SEQEND
  0
LINE
  8
0
 62
7
  6
CONTINUOUS
 10
359.7597347041
 20
222.7191200315
 11
368.1812056259
 21
222.7926130949
  0
LINE
  8
0
 62
7
  6
CONTINUOUS
 10
341.9314187922
 20
220.2028114754
 11
340.5485389103
 21
220.2028114754
  0
LINE
  8
0
 62
7
  6
CONTINUOUS
 10
286.6543299422
 20
220.2028114754
 11
285.2714500603
 21
220.2028114754
  0
LINE
  8
0
 62
7
  6
CONTINUOUS
 10
258.9806211001
 20
222.7929712641
 11
267.4431341484
 21
222.7191200315
  0
POLYLINE
  8
0
 62
7
  6
CONTINUOUS
 66
1
 70
0
  0
VERTEX
  8
0
 62
7
  6
CONTINUOUS
 10
324.4155895017
 20
200.5288215487
  0
VERTEX
  8
0
 62
7
  6
CONTINUOUS
 10
324.2520929571
 20
199.8318713765
  0
VERTEX
  8
0
 62
7
  6
CONTINUOUS
 10
324.149102293
 20
199.4957406957
  0
VERTEX
  8
0
 62
7
  6
CONTINUOUS
 10
323.9079957832
 20
198.8720020113
  0
SEQEND
  0
LINE
  8
0
 62
7
  6
CONTINUOUS
 10
257.0486349623
 20
226.4795114754
 11
285.2714344262
 21
226.4795114754
  0
LINE
  8
0
 62
7
  6
CONTINUOUS
 10
341.9314344262
 20
226.4795114754
 11
370.1542338902
 21
226.4795114754
  0
LINE
  8
0
 62
7
  6
CONTINUOUS
 10
260.0846623978
 20
232.8117994677
 11
367.1096298074
 21
232.8118114754
  0
LINE
  8
0
 62
7
  6
CONTINUOUS
 10
367.1096298074
 20
232.8118114754
 11
367.1164628095
 21
232.8118038538
  0
POLYLINE
  8
0
 62
7
  6
CONTINUOUS
 66
1
 70
0
  0
VERTEX
  8
0
 62
7
  6
CONTINUOUS
 10
338.317928618
 20
217.0541696832
  0
VERTEX
  8
0
 62
7
  6
CONTINUOUS
 10
338.0871581741
 20
216.0218200755
  0
VERTEX
  8
0
 62
7
  6
CONTINUOUS
 10
338.0081125461
 20
215.3449113502
  0
VERTEX
  8
0
 62
7
  6
CONTINUOUS
 10
337.9477169681
 20
213.9238114754
  0
SEQEND
  0
POLYLINE
  8
0
 62
7
  6
CONTINUOUS
 66
1
 70
0
  0
VERTEX
  8
0
 62
7
  6
CONTINUOUS
 10
289.8233631523
 20
232.811812167
  0
VERTEX
  8
0
 62
7
  6
CONTINUOUS
 10
288.6924111121
 20
232.6410359179
  0
VERTEX
  8
0
 62
7
  6
CONTINUOUS
 10
287.6094194261
 20
232.1325996366
  0
VERTEX
  8
0
 62
7
  6
CONTINUOUS
 10
286.6786389361
 20
231.3297114452
  0
VERTEX
  8
0
 62
7
  6
CONTINUOUS
 10
286.293340023
 20
230.8404289096
  0
VERTEX
  8
0
 62
7
  6
CONTINUOUS
 10
285.7072390289
 20
229.738578033
  0
VERTEX
  8
0
 62
7
  6
CONTINUOUS
 10
285.3715667482
 20
228.5332217632
  0
VERTEX
  8
0
 62
7
  6
CONTINUOUS
 10
285.2714310517
 20
227.3396376509
  0
SEQEND
  0
POLYLINE
  8
0
 62
7
  6
CONTINUOUS
 66
1
 70
0
  0
VERTEX
  8
0
 62
7
  6
CONTINUOUS
 10
260.0846623978
 20
232.8117994677
  0
VERTEX
  8
0
 62
7
  6
CONTINUOUS
 10
259.6573291579
 20
232.7806345519
  0
VERTEX
  8
0
 62
7
  6
CONTINUOUS
 10
258.8208242101
 20
232.5350142772
  0
VERTEX
  8
0
 62
7
  6
CONTINUOUS
 10
258.0874027448
 20
232.0636724217
  0
VERTEX
  8
0
 62
7
  6
CONTINUOUS
 10
257.7783805545
 20
231.7546499035
  0
VERTEX
  8
0
 62
7
  6
CONTINUOUS
 10
257.3070391989
 20
231.0212276602
  0
VERTEX
  8
0
 62
7
  6
CONTINUOUS
 10
257.0614191848
 20
230.184721825
  0
SEQEND
  0
POLYLINE
  8
0
 62
7
  6
CONTINUOUS
 66
1
 70
0
  0
VERTEX
  8
0
 62
7
  6
CONTINUOUS
 10
260.1506930857
 20
232.8118114754
  0
VERTEX
  8
0
 62
7
  6
CONTINUOUS
 10
259.7147831985
 20
232.7806345519
  0
VERTEX
  8
0
 62
7
  6
CONTINUOUS
 10
258.8782782507
 20
232.5350142772
  0
VERTEX
  8
0
 62
7
  6
CONTINUOUS
 10
258.1448567854
 20
232.0636724217
  0
VERTEX
  8
0
 62
7
  6
CONTINUOUS
 10
257.8358345951
 20
231.7546499035
  0
VERTEX
  8
0
 62
7
  6
CONTINUOUS
 10
257.3644932395
 20
231.0212276602
  0
VERTEX
  8
0
 62
7
  6
CONTINUOUS
 10
257.1188732254
 20
230.184721825
  0
VERTEX
  8
0
 62
7
  6
CONTINUOUS
 10
257.0876963349
 20
229.7488114754
  0
SEQEND
  0
POLYLINE
  8
0
 62
7
  6
CONTINUOUS
 66
1
 70
0
  0
VERTEX
  8
0
 62
7
  6
CONTINUOUS
 10
260.0846623978
 20
232.8117994677
  0
VERTEX
  8
0
 62
7
  6
CONTINUOUS
 10
259.9660839052
 20
232.8091710516
  0
VERTEX
  8
0
 62
7
  6
CONTINUOUS
 10
259.5529725671
 20
232.7637881861
  0
VERTEX
  8
0
 62
7
  6
CONTINUOUS
 10
259.1614355396
 20
232.666639769
  0
VERTEX
  8
0
 62
7
  6
CONTINUOUS
 10
258.7970121887
 20
232.5240208183
  0
VERTEX
  8
0
 62
7
  6
CONTINUOUS
 10
258.4638788393
 20
232.3424944895
  0
VERTEX
  8
0
 62
7
  6
CONTINUOUS
 10
258.1649401928
 20
232.1286622138
  0
VERTEX
  8
0
 62
7
  6
CONTINUOUS
 10
257.9019652997
 20
231.888991457
  0
VERTEX
  8
0
 62
7
  6
CONTINUOUS
 10
257.6756978976
 20
231.6296563594
  0
VERTEX
  8
0
 62
7
  6
CONTINUOUS
 10
257.4859962245
 20
231.3564210997
  0
VERTEX
  8
0
 62
7
  6
CONTINUOUS
 10
257.3320078115
 20
231.0746251081
  0
VERTEX
  8
0
 62
7
  6
CONTINUOUS
 10
257.212834652
 20
230.7906998825
  0
VERTEX
  8
0
 62
7
  6
CONTINUOUS
 10
257.1267935043
 20
230.5120889989
  0
VERTEX
  8
0
 62
7
  6
CONTINUOUS
 10
257.0710489204
 20
230.2478171512
  0
VERTEX
  8
0
 62
7
  6
CONTINUOUS
 10
257.0432525735
 20
230.0329720418
  0
VERTEX
  8
0
 62
7
  6
CONTINUOUS
 10
257.0341981
 20
229.9110215857
  0
VERTEX
  8
0
 62
7
  6
CONTINUOUS
 10
257.0313295146
 20
229.8483208133
  0
VERTEX
  8
0
 62
7
  6
CONTINUOUS
 10
257.0300074337
 20
229.8067469209
  0
VERTEX
  8
0
 62
7
  6
CONTINUOUS
 10
257.0291724065
 20
229.7718309626
  0
VERTEX
  8
0
 62
7
  6
CONTINUOUS
 10
257.0285288192
 20
229.7378357988
  0
VERTEX
  8
0
 62
7
  6
CONTINUOUS
 10
257.0272127483
 20
229.6418871881
  0
SEQEND
  0
LINE
  8
0
 62
7
  6
CONTINUOUS
 10
367.488085654
 20
232.7806345519
 11
367.0521757668
 21
232.8118114754
  0
POLYLINE
  8
0
 62
7
  6
CONTINUOUS
 66
1
 70
0
  0
VERTEX
  8
0
 62
7
  6
CONTINUOUS
 10
367.1164628095
 20
232.8118038538
  0
VERTEX
  8
0
 62
7
  6
CONTINUOUS
 10
367.5455396946
 20
232.7806345519
  0
VERTEX
  8
0
 62
7
  6
CONTINUOUS
 10
368.3820446424
 20
232.5350142772
  0
VERTEX
  8
0
 62
7
  6
CONTINUOUS
 10
369.1154661076
 20
232.0636724217
  0
VERTEX
  8
0
 62
7
  6
CONTINUOUS
 10
369.424488298
 20
231.7546499035
  0
VERTEX
  8
0
 62
7
  6
CONTINUOUS
 10
369.8958296535
 20
231.0212276602
  0
VERTEX
  8
0
 62
7
  6
CONTINUOUS
 10
370.1414496677
 20
230.184721825
  0
SEQEND
  0
POLYLINE
  8
0
 62
7
  6
CONTINUOUS
 66
1
 70
0
  0
VERTEX
  8
0
 62
7
  6
CONTINUOUS
 10
338.317928618
 20
210.3234532676
  0
VERTEX
  8
0
 62
7
  6
CONTINUOUS
 10
338.0871581741
 20
211.3558028753
  0
VERTEX
  8
0
 62
7
  6
CONTINUOUS
 10
338.0081125461
 20
212.0327116006
  0
VERTEX
  8
0
 62
7
  6
CONTINUOUS
 10
337.9477169681
 20
213.4538114754
  0
SEQEND
  0
LINE
  8
0
 62
7
  6
CONTINUOUS
 10
341.9314343058
 20
227.3397429518
 11
341.9314344235
 21
227.3391471272
  0
LINE
  8
0
 62
7
  6
CONTINUOUS
 10
337.8532303307
 20
213.9238114754
 11
337.8532303307
 21
213.4538114754
  0
LINE
  8
0
 62
7
  6
CONTINUOUS
 10
337.9477169681
 20
213.4538114754
 11
337.9477169681
 21
213.9238114754
  0
LINE
  8
0
 62
7
  6
CONTINUOUS
 10
341.9314344262
 20
227.3368159491
 11
341.9314344262
 21
220.2028114754
  0
LINE
  8
0
 62
7
  6
CONTINUOUS
 10
341.9314344262
 20
207.1748114754
 11
341.9314344262
 21
198.8686705658
  0
POLYLINE
  8
0
 62
7
  6
CONTINUOUS
 66
1
 70
0
  0
VERTEX
  8
0
 62
7
  6
CONTINUOUS
 10
341.9314378007
 20
227.3396379966
  0
VERTEX
  8
0
 62
7
  6
CONTINUOUS
 10
341.8313215759
 20
228.5331095276
  0
VERTEX
  8
0
 62
7
  6
CONTINUOUS
 10
341.4957108765
 20
229.7383729743
  0
VERTEX
  8
0
 62
7
  6
CONTINUOUS
 10
340.9097134038
 20
230.8401625308
  0
VERTEX
  8
0
 62
7
  6
CONTINUOUS
 10
340.5244798901
 20
231.3294318973
  0
VERTEX
  8
0
 62
7
  6
CONTINUOUS
 10
339.5938475812
 20
232.1323400265
  0
VERTEX
  8
0
 62
7
  6
CONTINUOUS
 10
338.5109725111
 20
232.6408791719
  0
VERTEX
  8
0
 62
7
  6
CONTINUOUS
 10
337.3800760177
 20
232.8118121019
  0
SEQEND
  0
LINE
  8
0
 62
7
  6
CONTINUOUS
 10
343.6015773632
 20
194.5876755081
 11
343.6270972865
 21
189.7137737182
  0
LINE
  8
0
 62
7
  6
CONTINUOUS
 10
341.9314208433
 20
198.8679673512
 11
341.9314344245
 21
198.8690662443
  0
POLYLINE
  8
0
 62
7
  6
CONTINUOUS
 66
1
 70
0
  0
VERTEX
  8
0
 62
7
  6
CONTINUOUS
 10
341.8025101459
 20
197.9916994603
  0
VERTEX
  8
0
 62
7
  6
CONTINUOUS
 10
341.8740599939
 20
198.2803623965
  0
VERTEX
  8
0
 62
7
  6
CONTINUOUS
 10
341.9244868502
 20
198.6633948991
  0
VERTEX
  8
0
 62
7
  6
CONTINUOUS
 10
341.9314342075
 20
198.8691041663
  0
SEQEND
  0
POLYLINE
  8
CURVE_RUNDING
 62
7
  6
CONTINUOUS
 66
1
 70
0
  0
VERTEX
  8
CURVE_RUNDING
 62
7
  6
CONTINUOUS
 10
341.4599432084
 20
197.1123633269
  0
VERTEX
  8
CURVE_RUNDING
 62
7
  6
CONTINUOUS
 10
341.8271955986
 20
198.0760576021
  0
VERTEX
  8
CURVE_RUNDING
 62
7
  6
CONTINUOUS
 10
341.8025125153
 20
197.9917090852
  0
SEQEND
  0
POLYLINE
  8
0
 62
7
  6
CONTINUOUS
 66
1
 70
0
  0
VERTEX
  8
0
 62
7
  6
CONTINUOUS
 10
369.6837735454
 20
223.477988248
  0
VERTEX
  8
0
 62
7
  6
CONTINUOUS
 10
369.2150793489
 20
223.0872439748
  0
VERTEX
  8
0
 62
7
  6
CONTINUOUS
 10
368.7014265576
 20
222.8659076523
  0
VERTEX
  8
0
 62
7
  6
CONTINUOUS
 10
368.1812056259
 20
222.7926130949
  0
SEQEND
  0
LINE
  8
0
 62
7
  6
CONTINUOUS
 10
359.1514344262
 20
211.0682902372
 11
359.1400655639
 21
213.1098568918
  0
LINE
  8
0
 62
7
  6
CONTINUOUS
 10
359.1400655639
 20
213.1098568918
 11
359.1352390201
 21
214.5338114754
  0
LINE
  8
0
 62
7
  6
CONTINUOUS
 10
359.1514344262
 20
221.7016827294
 11
359.1514344262
 21
217.9993327137
  0
LINE
  8
0
 62
7
  6
CONTINUOUS
 10
359.1514344262
 20
211.0682902372
 11
359.1514344262
 21
203.3571453811
  0
LINE
  8
0
 62
7
  6
CONTINUOUS
 10
359.1514344262
 20
211.1087745837
 11
359.1514344262
 21
217.9933320008
  0
POLYLINE
  8
0
 62
7
  6
CONTINUOUS
 66
1
 70
0
  0
VERTEX
  8
0
 62
7
  6
CONTINUOUS
 10
359.1352390201
 20
214.5338114754
  0
VERTEX
  8
0
 62
7
  6
CONTINUOUS
 10
359.1400670507
 20
215.9580047664
  0
VERTEX
  8
0
 62
7
  6
CONTINUOUS
 10
359.1514344262
 20
217.9993327137
  0
SEQEND
  0
POLYLINE
  8
0
 62
7
  6
CONTINUOUS
 66
1
 70
0
  0
VERTEX
  8
0
 62
7
  6
CONTINUOUS
 10
370.1319283935
 20
224.3218613879
  0
VERTEX
  8
0
 62
7
  6
CONTINUOUS
 10
370.0509744319
 20
224.0733706995
  0
VERTEX
  8
0
 62
7
  6
CONTINUOUS
 10
369.9642915034
 20
223.8847594431
  0
VERTEX
  8
0
 62
7
  6
CONTINUOUS
 10
369.6837735751
 20
223.4779882725
  0
SEQEND
  0
POLYLINE
  8
0
 62
7
  6
CONTINUOUS
 66
1
 70
0
  0
VERTEX
  8
0
 62
7
  6
CONTINUOUS
 10
370.1575580794
 20
224.8342658178
  0
VERTEX
  8
0
 62
7
  6
CONTINUOUS
 10
370.0587163642
 20
224.2066510358
  0
VERTEX
  8
0
 62
7
  6
CONTINUOUS
 10
369.7717522373
 20
223.6397842103
  0
VERTEX
  8
0
 62
7
  6
CONTINUOUS
 10
369.3244478081
 20
223.1885587344
  0
VERTEX
  8
0
 62
7
  6
CONTINUOUS
 10
368.760107351
 20
222.8966584853
  0
VERTEX
  8
0
 62
7
  6
CONTINUOUS
 10
368.1333798222
 20
222.7923435709
  0
SEQEND
  0
POLYLINE
  8
0
 62
7
  6
CONTINUOUS
 66
1
 70
0
  0
VERTEX
  8
0
 62
7
  6
CONTINUOUS
 10
370.1151725175
 20
229.7488114754
  0
VERTEX
  8
0
 62
7
  6
CONTINUOUS
 10
370.0839956271
 20
230.184721825
  0
VERTEX
  8
0
 62
7
  6
CONTINUOUS
 10
369.8383756129
 20
231.0212276602
  0
VERTEX
  8
0
 62
7
  6
CONTINUOUS
 10
369.3670342574
 20
231.7546499035
  0
VERTEX
  8
0
 62
7
  6
CONTINUOUS
 10
369.058012067
 20
232.0636724217
  0
VERTEX
  8
0
 62
7
  6
CONTINUOUS
 10
368.3245906018
 20
232.5350142772
  0
VERTEX
  8
0
 62
7
  6
CONTINUOUS
 10
367.488085654
 20
232.7806345519
  0
SEQEND
  0
LINE
  8
0
 62
7
  6
CONTINUOUS
 10
370.1414496677
 20
230.184721825
 11
370.1726265581
 21
229.7488114754
  0
POLYLINE
  8
0
 62
7
  6
CONTINUOUS
 66
1
 70
0
  0
VERTEX
  8
0
 62
7
  6
CONTINUOUS
 10
370.1709806788
 20
229.862742376
  0
VERTEX
  8
0
 62
7
  6
CONTINUOUS
 10
370.1669820634
 20
229.9394636739
  0
VERTEX
  8
0
 62
7
  6
CONTINUOUS
 10
370.1532241094
 20
230.0944791726
  0
VERTEX
  8
0
 62
7
  6
CONTINUOUS
 10
370.1161580457
 20
230.3347498002
  0
VERTEX
  8
0
 62
7
  6
CONTINUOUS
 10
370.0489620827
 20
230.6105904462
  0
VERTEX
  8
0
 62
7
  6
CONTINUOUS
 10
369.9503132678
 20
230.8945623278
  0
VERTEX
  8
0
 62
7
  6
CONTINUOUS
 10
369.8172209674
 20
231.1809800731
  0
VERTEX
  8
0
 62
7
  6
CONTINUOUS
 10
369.6480881871
 20
231.4629689506
  0
VERTEX
  8
0
 62
7
  6
CONTINUOUS
 10
369.4417040356
 20
231.734636012
  0
VERTEX
  8
0
 62
7
  6
CONTINUOUS
 10
369.1973944618
 20
231.9900787255
  0
VERTEX
  8
0
 62
7
  6
CONTINUOUS
 10
368.9153907828
 20
232.2229263546
  0
VERTEX
  8
0
 62
7
  6
CONTINUOUS
 10
368.5969835557
 20
232.426455577
  0
VERTEX
  8
0
 62
7
  6
CONTINUOUS
 10
368.2446457015
 20
232.5937586386
  0
VERTEX
  8
0
 62
7
  6
CONTINUOUS
 10
367.8621453979
 20
232.7179352787
  0
VERTEX
  8
0
 62
7
  6
CONTINUOUS
 10
367.4546532566
 20
232.7923175446
  0
VERTEX
  8
0
 62
7
  6
CONTINUOUS
 10
367.1164628095
 20
232.8118038538
  0
SEQEND
  0
POLYLINE
  8
0
 62
7
  6
CONTINUOUS
 66
1
 70
0
  0
VERTEX
  8
0
 62
7
  6
CONTINUOUS
 10
370.1735608452
 20
229.7781774439
  0
VERTEX
  8
0
 62
7
  6
CONTINUOUS
 10
370.1726147734
 20
229.815608025
  0
VERTEX
  8
0
 62
7
  6
CONTINUOUS
 10
370.1709806788
 20
229.862742376
  0
SEQEND
  0
LINE
  8
0
 62
7
  6
CONTINUOUS
 10
370.1748360352
 20
229.7062177292
 11
370.1735608452
 21
229.7781774439
  0
LINE
  8
0
 62
7
  6
CONTINUOUS
 10
370.1764061326
 20
229.5685919448
 11
370.1748360352
 21
229.7062177292
  0
LINE
  8
0
 62
7
  6
CONTINUOUS
 10
370.1551793454
 20
226.3760916386
 11
370.1542338902
 21
226.4795114754
  0
LINE
  8
0
 62
7
  6
CONTINUOUS
 10
370.1644707664
 20
189.7565408536
 11
370.073556224
 21
200.1743155473
  0
LINE
  8
0
 62
7
  6
CONTINUOUS
 10
370.1944201785
 20
224.8344588291
 11
370.1944671207
 21
224.8269399253
  0
LINE
  8
0
 62
7
  6
CONTINUOUS
 10
370.180589813
 20
228.872757887
 11
370.1764061326
 21
229.5685919448
  0
LINE
  8
0
 62
7
  6
CONTINUOUS
 10
370.1575592799
 20
225.4585114754
 11
370.1551793454
 21
226.3760916386
  0
LINE
  8
0
 62
7
  6
CONTINUOUS
 10
370.1913291868
 20
225.4586915043
 11
370.180589813
 21
228.872757887
  0
LINE
  8
0
 62
7
  6
CONTINUOUS
 10
370.1151725175
 20
229.7488114754
 11
370.1151725175
 21
226.4795114754
  0
LINE
  8
0
 62
7
  6
CONTINUOUS
 10
370.1575592799
 20
225.4585114754
 11
370.1575592798
 21
224.8342658178
  0
POLYLINE
  8
0
 62
7
  6
CONTINUOUS
 66
1
 70
0
  0
VERTEX
  8
0
 62
7
  6
CONTINUOUS
 10
370.1944671207
 20
224.8269399253
  0
VERTEX
  8
0
 62
7
  6
CONTINUOUS
 10
370.1908030411
 20
224.6976031813
  0
VERTEX
  8
0
 62
7
  6
CONTINUOUS
 10
370.1731658673
 20
224.5275575725
  0
VERTEX
  8
0
 62
7
  6
CONTINUOUS
 10
370.1319283935
 20
224.3218613879
  0
SEQEND
  0
ARC
  8
0
 62
7
  6
CONTINUOUS
 10
75.8975344262
 20
207.3888114754
 40
12.252
 50
208.5612598067
 51
270.0
  0
ARC
  8
0
 62
7
  6
CONTINUOUS
 10
180.1414344262
 20
198.725547617
 40
3.063
 50
315.0
 51
360.0
  0
ARC
  8
0
 62
7
  6
CONTINUOUS
 10
171.1456982847
 20
189.7298114754
 40
3.063
 50
270.0
 51
315.0
  0
ARC
  8
0
 62
7
  6
CONTINUOUS
 10
148.4879818699
 20
189.7298114754
 40
3.063
 50
180.047513539
 51
270.0000000001
  0
ARC
  8
0
 62
7
  6
CONTINUOUS
 10
144.400342896
 20
194.1158114754
 40
1.021
 50
78.0348294896
 51
86.6056455685
  0
ARC
  8
0
 62
7
  6
CONTINUOUS
 10
144.400342896
 20
194.1158114754
 40
1.021
 50
0.0475138567
 51
71.0860047848
  0
ARC
  8
0
 62
7
  6
CONTINUOUS
 10
163.4310558905
 20
212.3918114754
 40
20.42
 50
55.5
 51
90.0
  0
CIRCLE
  8
0
 62
7
  6
CONTINUOUS
 10
164.4214344262
 20
214.5338114754
 40
8.17
  0
CIRCLE
  8
0
 62
7
  6
CONTINUOUS
 10
164.4214344262
 20
214.5338114754
 40
6.15
  0
ARC
  8
0
 62
7
  6
CONTINUOUS
 10
150.0222344262
 20
225.4585114754
 40
1.021
 50
0.0
 51
90.0
  0
ARC
  8
0
 62
7
  6
CONTINUOUS
 10
110.0977699031
 20
63.5232105352
 40
6.64
 50
10.0
 51
119.0797267564
  0
ARC
  8
0
 62
7
  6
CONTINUOUS
 10
123.9863868675
 20
40.6342996431
 40
3.063
 50
190.0
 51
269.9165445726
  0
ARC
  8
0
 62
7
  6
CONTINUOUS
 10
93.1014344262
 20
94.0850409836
 40
28.33
 50
60.9202732436
 51
299.0797267564
  0
ARC
  8
0
 62
7
  6
CONTINUOUS
 10
93.1014344262
 20
94.0850409836
 40
16.8463458246
 50
45.7574313873
 51
314.2425686127
  0
ARC
  8
0
 62
7
  6
CONTINUOUS
 10
110.0977699031
 20
124.646871432
 40
6.64
 50
240.9202732436
 51
350.0
  0
ARC
  8
0
 62
7
  6
CONTINUOUS
 10
123.9863868675
 20
147.5357823241
 40
3.063
 50
90.0834554274
 51
170.0
  0
ARC
  8
0
 62
7
  6
CONTINUOUS
 10
180.1414344262
 20
40.552505716
 40
3.063
 50
303.6484382506
 51
360.0
  0
ARC
  8
0
 62
7
  6
CONTINUOUS
 10
180.1414344262
 20
147.6175762512
 40
3.063
 50
0.0
 51
56.4244719839
  0
ARC
  8
0
 62
7
  6
CONTINUOUS
 10
260.1012814564
 20
189.7298114754
 40
3.063
 50
179.5
 51
270.0
  0
ARC
  8
0
 62
7
  6
CONTINUOUS
 10
280.5128135528
 20
189.7298114754
 40
3.063
 50
270.0
 51
359.7
  0
ARC
  8
0
 62
7
  6
CONTINUOUS
 10
259.1712348753
 20
200.1564959618
 40
2.042
 50
91.0
 51
179.5
  0
ARC
  8
0
 62
7
  6
CONTINUOUS
 10
267.0304344262
 20
203.3571453811
 40
1.021
 50
271.0
 51
360.0
  0
ARC
  8
0
 62
7
  6
CONTINUOUS
 10
266.8716747324
 20
221.5443024652
 40
1.1797596938
 50
6.8097319195
 51
83.0885053235
  0
ARC
  8
0
 62
7
  6
CONTINUOUS
 10
267.0247351874
 20
221.6960330101
 40
1.0266992388
 50
45.0531722708
 51
89.4765839278
  0
ARC
  8
0
 62
7
  6
CONTINUOUS
 10
267.0304344262
 20
221.7016827294
 40
1.021
 50
0.0
 51
89.5
  0
ARC
  8
0
 62
7
  6
CONTINUOUS
 10
367.1015873961
 20
189.7298114754
 40
3.063
 50
270.0
 51
0.5
  0
ARC
  8
0
 62
7
  6
CONTINUOUS
 10
346.6900552996
 20
189.7298114754
 40
3.063
 50
180.2999999998
 51
270.0
  0
ARC
  8
0
 62
7
  6
CONTINUOUS
 10
368.0316339771
 20
200.1564959618
 40
2.042
 50
0.5
 51
89.0
  0
ARC
  8
0
 62
7
  6
CONTINUOUS
 10
360.1724344262
 20
203.3571453811
 40
1.021
 50
180.0
 51
269.0
  0
ARC
  8
0
 62
7
  6
CONTINUOUS
 10
360.331222159
 20
221.5442746698
 40
1.1797877328
 50
96.9180111944
 51
173.189227265
  0
ARC
  8
0
 62
7
  6
CONTINUOUS
 10
360.1780978453
 20
221.6960685185
 40
1.0266634191
 50
90.5232906482
 51
134.9468217245
  0
ARC
  8
0
 62
7
  6
CONTINUOUS
 10
360.1724344262
 20
221.7016827294
 40
1.021
 50
90.5
 51
180.0
  0
ENDSEC
  0
EOF
