  0
SECTION
  2
HEADER
  9
$EXTMAX
 10
420.0
 20
297.0
 30
0.0
  9
$EXTMIN
 10
0.0
 20
0.0
 30
0.0
  9
$LIMMIN
 10
0.0
 20
0.0
  9
$LIMMAX
 10
420.0
 20
297.0
  9
$VIEWCTR
 10
210.0
 20
148.5
  9
$VIEWSIZE
 40
297.0
  9
$CLAYER
  8
0
  9
$LTSCALE
 40
23.1
  9
$CELTYPE
  6
BYLAYER
  9
$DIMSCALE
 40
1.0
  9
$DIMASZ
 40
3.5
  9
$DIMEXO
 40
1.0
  9
$DIMDLI
 40
15.96
  9
$DIMEXE
 40
2.0
  9
$DIMCEN
 40
3.78
  9
$DIMLFAC
 40
1.0
  9
$DIMBLK
  1
_FILLED
  9
$DIMTXT
 40
3.5
  9
$PDMODE
 70
3
  9
$PDSIZE
 40
0.3125
  9
$TILEMODE
 70
1
  0
ENDSEC
  0
SECTION
  2
TABLES
  0
TABLE
  2
LTYPE
 70
6
  0
LTYPE
  2
BYBLOCK
 70
0
  3

 72
65
 73
0
 40
0.0
  0
LTYPE
  2
BYLAYER
 70
0
  3

 72
65
 73
0
 40
0.0
  0
LTYPE
  2
CONTINUOUS
 70
64
  3
Solid line
 72
65
 73
0
 40
0.0
  0
LTYPE
  2
CENTER
 70
64
  3
____ _ ____ _ ____ _ ____ _ ____ _ ____ _ ____
 72
65
 73
4
 40
0.6
 49
0.375
 49
-0.075
 49
0.075
 49
-0.075
  0
LTYPE
  2
HIDDEN
 70
64
  3
- - - - - - - - - - - - - - - - - - - -
 72
65
 73
2
 40
0.2
 49
0.1
 49
-0.1
  0
LTYPE
  2
PHANTOM
 70
64
  3
_____ _ _ _____ _ _ _____ _ _ _____
 72
65
 73
6
 40
0.8
 49
0.45
 49
-0.05
 49
0.1
 49
-0.05
 49
0.1
 49
-0.05
  0
LTYPE
  2
DOT
 70
64
  3
. . . . . . . . . . . . . . . . . . . .
 72
65
 73
2
 40
0.2
 49
0.1
 49
-0.1
  0
LTYPE
  2
DASHED
 70
64
  3
- - - - - - - - - - - - - - - - - - - -
 72
65
 73
2
 40
0.2
 49
0.1
 49
-0.1
  0
ENDTAB
  0
TABLE
  2
LAYER
 70
36
  0
LAYER
  2
0
 70
0
 62
7
  6
CONTINUOUS
  0
LAYER
  2
DEFAULT_1
 70
0
 62
7
  6
CENTER
  0
LAYER
  2
DEFAULT_2
 70
0
 62
8
  6
HIDDEN
  0
LAYER
  2
DEFAULT_3
 70
0
 62
7
  6
PHANTOM
  0
LAYER
  2
10-PART-SURF
 70
0
 62
7
  6
CONTINUOUS
  0
LAYER
  2
CENTERPLANER
 70
0
 62
7
  6
CONTINUOUS
  0
LAYER
  2
CENTER_AXER
 70
0
 62
7
  6
CONTINUOUS
  0
LAYER
  2
CURVE_RUNDING
 70
0
 62
7
  6
CONTINUOUS
  0
LAYER
  2
HELP_GEOMETRI
 70
0
 62
7
  6
CONTINUOUS
  0
LAYER
  2
LUKKEFLADE1
 70
0
 62
7
  6
CONTINUOUS
  0
LAYER
  2
LUKKEFLADE2
 70
0
 62
7
  6
CONTINUOUS
  0
LAYER
  2
LUKKEFLADE3
 70
0
 62
7
  6
CONTINUOUS
  0
LAYER
  2
NOTES
 70
0
 62
7
  6
CONTINUOUS
  0
LAYER
  2
PLANER_GLIDE
 70
0
 62
7
  6
CONTINUOUS
  0
LAYER
  2
PLANES
 70
0
 62
7
  6
CONTINUOUS
  0
LAYER
  2
PLAN_CHAMF
 70
0
 62
7
  6
CONTINUOUS
  0
LAYER
  2
PLAN_SIDESTYR
 70
0
 62
7
  6
CONTINUOUS
  0
LAYER
  2
QUILT
 70
0
 62
7
  6
CONTINUOUS
  0
LAYER
  2
ROUND_SPLIT
 70
0
 62
7
  6
CONTINUOUS
  0
LAYER
  2
SIDE_KERNER
 70
0
 62
7
  6
CONTINUOUS
  0
LAYER
  2
TRAKHUL
 70
0
 62
7
  6
CONTINUOUS
  0
LAYER
  2
VARIABLE
 70
0
 62
7
  6
CONTINUOUS
  0
ENDTAB
  0
TABLE
  2
STYLE
 70
1
  0
STYLE
  2
STANDARD
 70
0
 40
0.0
 41
0.8
 50
0.0
 71
0
 42
0.2
  3
txt
  4

  0
STYLE
  2
TEXTSTYLE_1
 70
0
 40
0.0
 41
0.8
 50
0.0
 71
0
 42
0.2
  3
gdt
  4

  0
STYLE
  2
TEXTSTYLE_2
 70
0
 40
0.0
 41
0.6
 50
0.0
 71
0
 42
0.2
  3
txt
  4

  0
STYLE
  2
TEXTSTYLE_3
 70
0
 40
0.0
 41
1.0
 50
0.0
 71
0
 42
0.2
  3
ftb_____.ttf
  4

  0
STYLE
  2
TEXTSTYLE_4
 70
0
 40
0.0
 41
1.0
 50
0.0
 71
0
 42
0.2
  3
fti_____.ttf
  4

  0
STYLE
  2
TEXTSTYLE_5
 70
0
 40
0.0
 41
1.0
 50
0.0
 71
0
 42
0.2
  3
frutiger light.ttf
  4

  0
STYLE
  2
TEXTSTYLE_6
 70
0
 40
0.0
 41
0.7
 50
0.0
 71
0
 42
0.2
  3
txt
  4

  0
STYLE
  2
TEXTSTYLE_7
 70
0
 40
0.0
 41
0.8
 50
0.0
 71
0
 42
0.2
  3
txt
  4

  0
ENDTAB
  0
ENDSEC
  0
SECTION
  2
BLOCKS
  0
BLOCK
  8
0
 62
2
  6
CONTINUOUS
  2
SYMBOL_5_BL1
 70
64
 10
382.3920721743
 20
35.81661148
  0
TEXT
  8
0
 62
7
  6
CONTINUOUS
 10
373.4503571828
 20
30.9093678571
  7
TEXTSTYLE_4
 40
1.0655737705
  1
The brand for plastic modular belts and chains
 41
1.0
 72
0
  0
LINE
  8
0
 62
7
  6
CONTINUOUS
 10
358.3701405634
 20
36.3903819718
 11
358.3701405634
 21
34.2592344308
  0
LINE
  8
0
 62
7
  6
CONTINUOUS
 10
358.6592030565
 20
31.2683031351
 11
358.6592030565
 21
31.3650941944
  0
LINE
  8
0
 62
7
  6
CONTINUOUS
 10
358.3701405634
 20
31.332830508
 11
358.4279530651
 21
31.1392483894
  0
LINE
  8
0
 62
7
  6
CONTINUOUS
 10
359.7635831863
 20
34.1772672177
 11
359.7635831863
 21
36.3903819718
  0
LINE
  8
0
 62
7
  6
CONTINUOUS
 10
360.6826405082
 20
32.3330049227
 11
360.6826405082
 21
30.81661148
  0
LINE
  8
0
 62
7
  6
CONTINUOUS
 10
360.9717030634
 20
30.81661148
 11
360.9717030634
 21
31.5586763581
  0
LINE
  8
0
 62
7
  6
CONTINUOUS
 10
360.9717030634
 20
31.6877311038
 11
360.9717030634
 21
32.3330049227
  0
LINE
  8
0
 62
7
  6
CONTINUOUS
 10
358.4279530651
 20
31.5264126717
 11
358.3701405634
 21
31.332830508
  0
LINE
  8
0
 62
7
  6
CONTINUOUS
 10
358.7748280496
 20
31.106984703
 11
358.6592030565
 21
31.2683031351
  0
LINE
  8
0
 62
7
  6
CONTINUOUS
 10
359.8732656185
 20
31.623203731
 11
359.9310780634
 21
31.5264126717
  0
LINE
  8
0
 62
7
  6
CONTINUOUS
 10
360.2201406185
 20
31.5264126717
 11
360.1623280082
 21
31.6554674174
  0
LINE
  8
0
 62
7
  6
CONTINUOUS
 10
361.648829088
 20
36.3903819718
 11
361.648829088
 21
34.5871032833
  0
LINE
  8
0
 62
7
  6
CONTINUOUS
 10
361.648829088
 20
33.2756278735
 11
361.648829088
 21
32.6198901686
  0
LINE
  8
0
 62
7
  6
CONTINUOUS
 10
362.0123280634
 20
31.4618852989
 11
362.0123280634
 21
30.81661148
  0
LINE
  8
0
 62
7
  6
CONTINUOUS
 10
362.3013904531
 20
30.81661148
 11
362.3013904531
 21
31.4618852989
  0
LINE
  8
0
 62
7
  6
CONTINUOUS
 10
358.6592030565
 20
31.3650941944
 11
358.7170155634
 21
31.4941489853
  0
LINE
  8
0
 62
7
  6
CONTINUOUS
 10
358.4279530651
 20
31.1392483894
 11
358.5435780634
 21
31.0101936212
  0
LINE
  8
0
 62
7
  6
CONTINUOUS
 10
361.9545154531
 20
31.5909400446
 11
362.0123280634
 21
31.4618852989
  0
LINE
  8
0
 62
7
  6
CONTINUOUS
 10
362.7638906736
 20
31.106984703
 11
362.8217029531
 21
30.9779299347
  0
LINE
  8
0
 62
7
  6
CONTINUOUS
 10
362.3013904531
 20
31.4618852989
 11
362.2435781736
 21
31.623203731
  0
LINE
  8
0
 62
7
  6
CONTINUOUS
 10
362.7638906736
 20
31.6554674174
 11
362.7638906736
 21
31.5909400446
  0
LINE
  8
0
 62
7
  6
CONTINUOUS
 10
362.7638906736
 20
31.2037757623
 11
362.7638906736
 21
31.106984703
  0
LINE
  8
0
 62
7
  6
CONTINUOUS
 10
363.0422717109
 20
32.6198901686
 11
363.0422717109
 21
36.3903819718
  0
LINE
  8
0
 62
7
  6
CONTINUOUS
 10
363.0529530634
 20
31.074720994
 11
363.0529530634
 21
31.1392483894
  0
LINE
  8
0
 62
7
  6
CONTINUOUS
 10
363.3701405634
 20
36.3903819718
 11
363.3701405634
 21
32.6198901686
  0
LINE
  8
0
 62
7
  6
CONTINUOUS
 10
360.1623280082
 20
31.0101936212
 11
360.2201406185
 21
31.1392483894
  0
LINE
  8
0
 62
7
  6
CONTINUOUS
 10
364.5560782839
 20
30.9134025506
 11
364.4982653428
 21
31.074720994
  0
LINE
  8
0
 62
7
  6
CONTINUOUS
 10
364.2092032839
 20
31.5909400446
 11
364.2092032839
 21
31.4941489853
  0
LINE
  8
0
 62
7
  6
CONTINUOUS
 10
364.2092032839
 20
31.3650941944
 11
364.2092032839
 21
31.1715120759
  0
LINE
  8
0
 62
7
  6
CONTINUOUS
 10
364.4982653428
 20
31.074720994
 11
364.4982653428
 21
31.5909400446
  0
LINE
  8
0
 62
7
  6
CONTINUOUS
 10
364.7635831863
 20
32.6198901686
 11
364.7635831863
 21
34.4231688571
  0
LINE
  8
0
 62
7
  6
CONTINUOUS
 10
364.7635831863
 20
35.7346442669
 11
364.7635831863
 21
36.3903819718
  0
LINE
  8
0
 62
7
  6
CONTINUOUS
 10
365.0763907839
 20
32.3330049227
 11
365.0763907839
 21
32.1716864905
  0
LINE
  8
0
 62
7
  6
CONTINUOUS
 10
365.0763907839
 20
31.8490495359
 11
365.0763907839
 21
30.81661148
  0
LINE
  8
0
 62
7
  6
CONTINUOUS
 10
365.3654528428
 20
30.81661148
 11
365.3654528428
 21
31.8490495359
  0
LINE
  8
0
 62
7
  6
CONTINUOUS
 10
365.3654528428
 20
32.1716864905
 11
365.3654528428
 21
32.3330049227
  0
LINE
  8
0
 62
7
  6
CONTINUOUS
 10
359.9310780634
 20
31.1392483894
 11
359.8732656185
 21
31.0424573076
  0
LINE
  8
0
 62
7
  6
CONTINUOUS
 10
362.2435781736
 20
31.623203731
 11
362.1857655634
 21
31.6877311038
  0
LINE
  8
0
 62
7
  6
CONTINUOUS
 10
363.1107656736
 20
31.0101936212
 11
363.0529530634
 21
31.074720994
  0
LINE
  8
0
 62
7
  6
CONTINUOUS
 10
364.2670155634
 20
30.8811388585
 11
364.3248278428
 21
30.81661148
  0
LINE
  8
0
 62
7
  6
CONTINUOUS
 10
364.2092032839
 20
30.9779299347
 11
364.2670155634
 21
30.8811388585
  0
LINE
  8
0
 62
7
  6
CONTINUOUS
 10
364.6138905634
 20
30.81661148
 11
364.5560782839
 21
30.9134025506
  0
LINE
  8
0
 62
7
  6
CONTINUOUS
 10
364.4982653428
 20
31.5909400446
 11
364.4404530634
 21
31.6877311038
  0
LINE
  8
0
 62
7
  6
CONTINUOUS
 10
365.8279530634
 20
31.8490495359
 11
365.8279530634
 21
30.81661148
  0
LINE
  8
0
 62
7
  6
CONTINUOUS
 10
366.1170157839
 20
30.81661148
 11
366.1170157839
 21
31.5586763581
  0
LINE
  8
0
 62
7
  6
CONTINUOUS
 10
366.1170157839
 20
31.6877311038
 11
366.1170157839
 21
31.8490495359
  0
LINE
  8
0
 62
7
  6
CONTINUOUS
 10
366.648829088
 20
34.8330049227
 11
366.648829088
 21
32.6198901686
  0
LINE
  8
0
 62
7
  6
CONTINUOUS
 10
358.5435780634
 20
31.6554674174
 11
358.4279530651
 21
31.5264126717
  0
LINE
  8
0
 62
7
  6
CONTINUOUS
 10
358.7170155634
 20
31.4941489853
 11
358.7748280496
 21
31.5586763581
  0
LINE
  8
0
 62
7
  6
CONTINUOUS
 10
358.5435780634
 20
31.0101936212
 11
358.6592030565
 21
30.945666237
  0
LINE
  8
0
 62
7
  6
CONTINUOUS
 10
358.9482655496
 20
31.0101936212
 11
358.7748280496
 21
31.106984703
  0
LINE
  8
0
 62
7
  6
CONTINUOUS
 10
364.1513903428
 20
31.6554674174
 11
364.2092032839
 21
31.5909400446
  0
LINE
  8
0
 62
7
  6
CONTINUOUS
 10
367.0998278428
 20
31.5909400446
 11
367.1576407839
 21
31.4296216124
  0
LINE
  8
0
 62
7
  6
CONTINUOUS
 10
367.4467028428
 20
31.4296216124
 11
367.3888905634
 21
31.5909400446
  0
LINE
  8
0
 62
7
  6
CONTINUOUS
 10
367.1576407839
 20
31.4296216124
 11
367.1576407839
 21
30.81661148
  0
LINE
  8
0
 62
7
  6
CONTINUOUS
 10
367.4467028428
 20
30.81661148
 11
367.4467028428
 21
31.4296216124
  0
LINE
  8
0
 62
7
  6
CONTINUOUS
 10
367.9092030634
 20
31.6554674174
 11
367.9092030634
 21
31.5909400446
  0
LINE
  8
0
 62
7
  6
CONTINUOUS
 10
368.0422717109
 20
32.6198901686
 11
368.0422717109
 21
34.7510377095
  0
LINE
  8
0
 62
7
  6
CONTINUOUS
 10
368.3701405634
 20
36.3903819718
 11
368.3701405634
 21
32.6198901686
  0
LINE
  8
0
 62
7
  6
CONTINUOUS
 10
363.0529530634
 20
31.1392483894
 11
363.1107656736
 21
31.2360394487
  0
LINE
  8
0
 62
7
  6
CONTINUOUS
 10
358.6592030565
 20
30.945666237
 11
358.8326405772
 21
30.8811388585
  0
LINE
  8
0
 62
7
  6
CONTINUOUS
 10
360.1623280082
 20
31.6554674174
 11
359.9888905082
 21
31.7522584767
  0
LINE
  8
0
 62
7
  6
CONTINUOUS
 10
362.8217029531
 20
30.9779299347
 11
362.9951404531
 21
30.8811388585
  0
LINE
  8
0
 62
7
  6
CONTINUOUS
 10
361.8388905634
 20
31.6554674174
 11
361.9545154531
 21
31.5909400446
  0
LINE
  8
0
 62
7
  6
CONTINUOUS
 10
362.1857655634
 20
31.6877311038
 11
362.0701406736
 21
31.7522584767
  0
LINE
  8
0
 62
7
  6
CONTINUOUS
 10
367.9092030634
 20
31.074720994
 11
368.0248282839
 21
30.945666237
  0
LINE
  8
0
 62
7
  6
CONTINUOUS
 10
368.2560780634
 20
31.0101936212
 11
368.1982657839
 21
31.074720994
  0
LINE
  8
0
 62
7
  6
CONTINUOUS
 10
367.9092030634
 20
31.5909400446
 11
368.0248282839
 21
31.4618852989
  0
LINE
  8
0
 62
7
  6
CONTINUOUS
 10
367.3888905634
 20
31.5909400446
 11
367.3310782839
 21
31.6877311038
  0
LINE
  8
0
 62
7
  6
CONTINUOUS
 10
369.7592026223
 20
31.0101936212
 11
369.7592026223
 21
31.074720994
  0
LINE
  8
0
 62
7
  6
CONTINUOUS
 10
369.7635831863
 20
32.6198901686
 11
369.7635831863
 21
36.3903819718
  0
LINE
  8
0
 62
7
  6
CONTINUOUS
 10
362.8217029531
 20
31.7199947902
 11
362.7638906736
 21
31.6554674174
  0
LINE
  8
0
 62
7
  6
CONTINUOUS
 10
359.6998280358
 20
31.6877311038
 11
359.8732656185
 21
31.623203731
  0
LINE
  8
0
 62
7
  6
CONTINUOUS
 10
364.4404530634
 20
31.6877311038
 11
364.3248278428
 21
31.7522584767
  0
LINE
  8
0
 62
7
  6
CONTINUOUS
 10
368.2560780634
 20
31.5264126717
 11
368.1982657839
 21
31.5909400446
  0
LINE
  8
0
 62
7
  6
CONTINUOUS
 10
369.4123282839
 20
31.1392483894
 11
369.4701405634
 21
31.074720994
  0
LINE
  8
0
 62
7
  6
CONTINUOUS
 10
369.7592026223
 20
31.074720994
 11
369.6435780634
 21
31.2037757623
  0
LINE
  8
0
 62
7
  6
CONTINUOUS
 10
369.4123282839
 20
31.6554674174
 11
369.4701405634
 21
31.5909400446
  0
LINE
  8
0
 62
7
  6
CONTINUOUS
 10
369.7592026223
 20
31.5909400446
 11
369.6435780634
 21
31.7199947902
  0
LINE
  8
0
 62
7
  6
CONTINUOUS
 10
363.0529530634
 20
31.5909400446
 11
363.1107656736
 21
31.6554674174
  0
LINE
  8
0
 62
7
  6
CONTINUOUS
 10
362.8795155634
 20
31.332830508
 11
362.7638906736
 21
31.2037757623
  0
LINE
  8
0
 62
7
  6
CONTINUOUS
 10
364.2092032839
 20
31.1715120759
 11
364.1513903428
 21
31.106984703
  0
LINE
  8
0
 62
7
  6
CONTINUOUS
 10
364.1513903428
 20
30.9134025506
 11
364.2092032839
 21
30.9779299347
  0
LINE
  8
0
 62
7
  6
CONTINUOUS
 10
362.9951404531
 20
30.8811388585
 11
363.1107656736
 21
30.8488751693
  0
LINE
  8
0
 62
7
  6
CONTINUOUS
 10
359.9888905082
 20
31.7522584767
 11
359.7576405634
 21
31.8167858495
  0
LINE
  8
0
 62
7
  6
CONTINUOUS
 10
363.3420154531
 20
30.945666237
 11
363.1107656736
 21
31.0101936212
  0
LINE
  8
0
 62
7
  6
CONTINUOUS
 10
362.0701406736
 20
31.7522584767
 11
361.8967031736
 21
31.8167858495
  0
LINE
  8
0
 62
7
  6
CONTINUOUS
 10
364.3248278428
 20
31.7522584767
 11
364.1513903428
 21
31.8167858495
  0
LINE
  8
0
 62
7
  6
CONTINUOUS
 10
366.9842032839
 20
31.6554674174
 11
367.0998278428
 21
31.5909400446
  0
LINE
  8
0
 62
7
  6
CONTINUOUS
 10
367.3310782839
 20
31.6877311038
 11
367.2154530634
 21
31.7522584767
  0
LINE
  8
0
 62
7
  6
CONTINUOUS
 10
358.8326405772
 20
30.8811388585
 11
359.0060780772
 21
30.8488751693
  0
LINE
  8
0
 62
7
  6
CONTINUOUS
 10
359.2951405909
 20
30.945666237
 11
358.9482655496
 21
31.0101936212
  0
LINE
  8
0
 62
7
  6
CONTINUOUS
 10
361.7232656736
 20
31.6877311038
 11
361.8388905634
 21
31.6554674174
  0
LINE
  8
0
 62
7
  6
CONTINUOUS
 10
364.0357657839
 20
31.6877311038
 11
364.1513903428
 21
31.6554674174
  0
LINE
  8
0
 62
7
  6
CONTINUOUS
 10
368.3717032839
 20
30.9779299347
 11
368.2560780634
 21
31.0101936212
  0
LINE
  8
0
 62
7
  6
CONTINUOUS
 10
366.8685780634
 20
31.6877311038
 11
366.9842032839
 21
31.6554674174
  0
LINE
  8
0
 62
7
  6
CONTINUOUS
 10
368.0248282839
 20
30.945666237
 11
368.1982657839
 21
30.8811388585
  0
LINE
  8
0
 62
7
  6
CONTINUOUS
 10
367.2154530634
 20
31.7522584767
 11
367.0420155634
 21
31.8167858495
  0
LINE
  8
0
 62
7
  6
CONTINUOUS
 10
368.4295155634
 20
31.4618852989
 11
368.2560780634
 21
31.5264126717
  0
LINE
  8
0
 62
7
  6
CONTINUOUS
 10
369.2388907839
 20
31.2037757623
 11
369.4123282839
 21
31.1392483894
  0
LINE
  8
0
 62
7
  6
CONTINUOUS
 10
369.6435780634
 20
31.7199947902
 11
369.4701405634
 21
31.7845221631
  0
LINE
  8
0
 62
7
  6
CONTINUOUS
 10
368.0248282839
 20
31.4618852989
 11
368.2560780634
 21
31.3650941944
  0
LINE
  8
0
 62
7
  6
CONTINUOUS
 10
369.6435780634
 20
31.2037757623
 11
369.4123282839
 21
31.3005668216
  0
LINE
  8
0
 62
7
  6
CONTINUOUS
 10
368.1982657839
 20
31.5909400446
 11
368.2560780634
 21
31.6554674174
  0
LINE
  8
0
 62
7
  6
CONTINUOUS
 10
358.6592030565
 20
31.7199947902
 11
358.5435780634
 21
31.6554674174
  0
LINE
  8
0
 62
7
  6
CONTINUOUS
 10
358.7748280496
 20
31.5586763581
 11
358.9482655496
 21
31.6554674174
  0
LINE
  8
0
 62
7
  6
CONTINUOUS
 10
361.0873281185
 20
31.7522584767
 11
360.9717030634
 21
31.6877311038
  0
LINE
  8
0
 62
7
  6
CONTINUOUS
 10
360.9717030634
 20
31.5586763581
 11
361.0873281185
 21
31.623203731
  0
LINE
  8
0
 62
7
  6
CONTINUOUS
 10
359.9888905082
 20
30.9134025506
 11
360.1623280082
 21
31.0101936212
  0
LINE
  8
0
 62
7
  6
CONTINUOUS
 10
359.0060780772
 20
30.8488751693
 11
359.3529530358
 21
30.81661148
  0
LINE
  8
0
 62
7
  6
CONTINUOUS
 10
363.1107656736
 20
30.8488751693
 11
363.3420154531
 21
30.81661148
  0
LINE
  8
0
 62
7
  6
CONTINUOUS
 10
361.4920155634
 20
31.7199947902
 11
361.7232656736
 21
31.6877311038
  0
LINE
  8
0
 62
7
  6
CONTINUOUS
 10
363.8045156736
 20
31.7199947902
 11
364.0357657839
 21
31.6877311038
  0
LINE
  8
0
 62
7
  6
CONTINUOUS
 10
368.2560780634
 20
31.3650941944
 11
369.2388907839
 21
31.2037757623
  0
LINE
  8
0
 62
7
  6
CONTINUOUS
 10
369.4123282839
 20
31.3005668216
 11
368.4295155634
 21
31.4618852989
  0
LINE
  8
0
 62
7
  6
CONTINUOUS
 10
361.8967031736
 20
31.8167858495
 11
361.7232656736
 21
31.8490495359
  0
LINE
  8
0
 62
7
  6
CONTINUOUS
 10
368.1982657839
 20
30.8811388585
 11
368.3717032839
 21
30.8488751693
  0
LINE
  8
0
 62
7
  6
CONTINUOUS
 10
367.0420155634
 20
31.8167858495
 11
366.8685780634
 21
31.8490495359
  0
LINE
  8
0
 62
7
  6
CONTINUOUS
 10
369.2967030634
 20
31.6877311038
 11
369.4123282839
 21
31.6554674174
  0
LINE
  8
0
 62
7
  6
CONTINUOUS
 10
369.4701405634
 20
31.074720994
 11
369.4123282839
 21
31.0101936212
  0
LINE
  8
0
 62
7
  6
CONTINUOUS
 10
368.0248282839
 20
31.7522584767
 11
367.9092030634
 21
31.6554674174
  0
LINE
  8
0
 62
7
  6
CONTINUOUS
 10
362.9373281736
 20
31.7845221631
 11
362.8217029531
 21
31.7199947902
  0
LINE
  8
0
 62
7
  6
CONTINUOUS
 10
362.9951404531
 20
31.397357926
 11
362.8795155634
 21
31.332830508
  0
LINE
  8
0
 62
7
  6
CONTINUOUS
 10
363.1107656736
 20
31.2360394487
 11
363.2263905634
 21
31.3005668216
  0
LINE
  8
0
 62
7
  6
CONTINUOUS
 10
360.6826405082
 20
30.81661148
 11
360.9717030634
 21
30.81661148
  0
LINE
  8
0
 62
7
  6
CONTINUOUS
 10
362.0123280634
 20
30.81661148
 11
362.3013904531
 21
30.81661148
  0
LINE
  8
0
 62
7
  6
CONTINUOUS
 10
363.3420154531
 20
30.81661148
 11
363.6888904531
 21
30.81661148
  0
LINE
  8
0
 62
7
  6
CONTINUOUS
 10
364.3248278428
 20
30.81661148
 11
364.6138905634
 21
30.81661148
  0
LINE
  8
0
 62
7
  6
CONTINUOUS
 10
365.0763907839
 20
30.81661148
 11
365.3654528428
 21
30.81661148
  0
LINE
  8
0
 62
7
  6
CONTINUOUS
 10
365.8279530634
 20
30.81661148
 11
366.1170157839
 21
30.81661148
  0
LINE
  8
0
 62
7
  6
CONTINUOUS
 10
367.1576407839
 20
30.81661148
 11
367.4467028428
 21
30.81661148
  0
LINE
  8
0
 62
7
  6
CONTINUOUS
 10
368.7185782839
 20
30.81661148
 11
369.0654532839
 21
30.81661148
  0
LINE
  8
0
 62
7
  6
CONTINUOUS
 10
369.0654532839
 20
30.945666237
 11
368.7185782839
 21
30.945666237
  0
LINE
  8
0
 62
7
  6
CONTINUOUS
 10
363.6888904531
 20
30.945666237
 11
363.3420154531
 21
30.945666237
  0
LINE
  8
0
 62
7
  6
CONTINUOUS
 10
368.1982657839
 20
31.074720994
 11
367.9092030634
 21
31.074720994
  0
LINE
  8
0
 62
7
  6
CONTINUOUS
 10
360.2201406185
 20
31.1392483894
 11
359.9310780634
 21
31.1392483894
  0
LINE
  8
0
 62
7
  6
CONTINUOUS
 10
359.2951405909
 20
31.7199947902
 11
359.6998280358
 21
31.6877311038
  0
LINE
  8
0
 62
7
  6
CONTINUOUS
 10
359.7576405634
 20
31.8167858495
 11
359.3529530358
 21
31.8490495359
  0
LINE
  8
0
 62
7
  6
CONTINUOUS
 10
368.3717032839
 20
30.8488751693
 11
368.7185782839
 21
30.81661148
  0
LINE
  8
0
 62
7
  6
CONTINUOUS
 10
368.7185782839
 20
30.945666237
 11
368.3717032839
 21
30.9779299347
  0
LINE
  8
0
 62
7
  6
CONTINUOUS
 10
364.1513903428
 20
31.8167858495
 11
363.8045156736
 21
31.8490495359
  0
LINE
  8
0
 62
7
  6
CONTINUOUS
 10
368.9498280634
 20
31.7199947902
 11
369.2967030634
 21
31.6877311038
  0
LINE
  8
0
 62
7
  6
CONTINUOUS
 10
369.2967030634
 20
31.8167858495
 11
368.9498280634
 21
31.8490495359
  0
LINE
  8
0
 62
7
  6
CONTINUOUS
 10
366.6373282839
 20
31.7199947902
 11
366.8685780634
 21
31.6877311038
  0
LINE
  8
0
 62
7
  6
CONTINUOUS
 10
369.4701405634
 20
31.7845221631
 11
369.2967030634
 21
31.8167858495
  0
LINE
  8
0
 62
7
  6
CONTINUOUS
 10
369.6435780634
 20
30.9134025506
 11
369.7592026223
 21
31.0101936212
  0
LINE
  8
0
 62
7
  6
CONTINUOUS
 10
364.1513903428
 20
31.106984703
 11
363.9779528428
 21
31.0101936212
  0
LINE
  8
0
 62
7
  6
CONTINUOUS
 10
366.2326403428
 20
31.7522584767
 11
366.1170157839
 21
31.6877311038
  0
LINE
  8
0
 62
7
  6
CONTINUOUS
 10
366.1170157839
 20
31.5586763581
 11
366.2326403428
 21
31.623203731
  0
LINE
  8
0
 62
7
  6
CONTINUOUS
 10
358.8326405772
 20
31.7845221631
 11
358.6592030565
 21
31.7199947902
  0
LINE
  8
0
 62
7
  6
CONTINUOUS
 10
361.2607654531
 20
31.8167858495
 11
361.0873281185
 21
31.7522584767
  0
LINE
  8
0
 62
7
  6
CONTINUOUS
 10
361.0873281185
 20
31.623203731
 11
361.2607654531
 21
31.6877311038
  0
LINE
  8
0
 62
7
  6
CONTINUOUS
 10
359.8732656185
 20
31.0424573076
 11
359.6998280358
 21
30.9779299347
  0
LINE
  8
0
 62
7
  6
CONTINUOUS
 10
369.2967030634
 20
30.9779299347
 11
369.0654532839
 21
30.945666237
  0
LINE
  8
0
 62
7
  6
CONTINUOUS
 10
363.6888904531
 20
30.81661148
 11
363.9779528428
 21
30.8488751693
  0
LINE
  8
0
 62
7
  6
CONTINUOUS
 10
369.0654532839
 20
30.81661148
 11
369.4123282839
 21
30.8488751693
  0
LINE
  8
0
 62
7
  6
CONTINUOUS
 10
359.3529530358
 20
30.81661148
 11
359.7576405634
 21
30.8488751693
  0
LINE
  8
0
 62
7
  6
CONTINUOUS
 10
359.6998280358
 20
30.9779299347
 11
359.2951405909
 21
30.945666237
  0
LINE
  8
0
 62
7
  6
CONTINUOUS
 10
363.5732655634
 20
31.3650941944
 11
364.2092032839
 21
31.3650941944
  0
LINE
  8
0
 62
7
  6
CONTINUOUS
 10
364.2092032839
 20
31.4941489853
 11
363.5732655634
 21
31.4941489853
  0
LINE
  8
0
 62
7
  6
CONTINUOUS
 10
359.9310780634
 20
31.5264126717
 11
360.2201406185
 21
31.5264126717
  0
LINE
  8
0
 62
7
  6
CONTINUOUS
 10
362.7638906736
 20
31.5909400446
 11
363.0529530634
 21
31.5909400446
  0
LINE
  8
0
 62
7
  6
CONTINUOUS
 10
369.4701405634
 20
31.5909400446
 11
369.7592026223
 21
31.5909400446
  0
LINE
  8
0
 62
7
  6
CONTINUOUS
 10
363.4576406736
 20
31.7199947902
 11
363.8045156736
 21
31.7199947902
  0
LINE
  8
0
 62
7
  6
CONTINUOUS
 10
368.6029530634
 20
31.7199947902
 11
368.9498280634
 21
31.7199947902
  0
LINE
  8
0
 62
7
  6
CONTINUOUS
 10
368.9498280634
 20
31.8490495359
 11
368.6029530634
 21
31.8490495359
  0
LINE
  8
0
 62
7
  6
CONTINUOUS
 10
366.8685780634
 20
31.8490495359
 11
366.6373282839
 21
31.8490495359
  0
LINE
  8
0
 62
7
  6
CONTINUOUS
 10
366.1170157839
 20
31.8490495359
 11
365.8279530634
 21
31.8490495359
  0
LINE
  8
0
 62
7
  6
CONTINUOUS
 10
365.3654528428
 20
31.8490495359
 11
365.0763907839
 21
31.8490495359
  0
LINE
  8
0
 62
7
  6
CONTINUOUS
 10
363.8045156736
 20
31.8490495359
 11
363.4576406736
 21
31.8490495359
  0
LINE
  8
0
 62
7
  6
CONTINUOUS
 10
361.7232656736
 20
31.8490495359
 11
361.4920155634
 21
31.8490495359
  0
LINE
  8
0
 62
7
  6
CONTINUOUS
 10
365.0763907839
 20
32.1716864905
 11
365.3654528428
 21
32.1716864905
  0
LINE
  8
0
 62
7
  6
CONTINUOUS
 10
365.3654528428
 20
32.3330049227
 11
365.0763907839
 21
32.3330049227
  0
LINE
  8
0
 62
7
  6
CONTINUOUS
 10
360.9717030634
 20
32.3330049227
 11
360.6826405082
 21
32.3330049227
  0
LINE
  8
0
 62
7
  6
CONTINUOUS
 10
360.0094848257
 20
32.6198901686
 11
360.4220561743
 21
32.6198901686
  0
LINE
  8
0
 62
7
  6
CONTINUOUS
 10
361.648829088
 20
32.6198901686
 11
363.0422717109
 21
32.6198901686
  0
LINE
  8
0
 62
7
  6
CONTINUOUS
 10
363.3701405634
 20
32.6198901686
 11
364.7635831863
 21
32.6198901686
  0
LINE
  8
0
 62
7
  6
CONTINUOUS
 10
366.648829088
 20
32.6198901686
 11
368.0422717109
 21
32.6198901686
  0
LINE
  8
0
 62
7
  6
CONTINUOUS
 10
368.3701405634
 20
32.6198901686
 11
369.7635831863
 21
32.6198901686
  0
LINE
  8
0
 62
7
  6
CONTINUOUS
 10
366.4060778428
 20
31.8167858495
 11
366.2326403428
 21
31.7522584767
  0
LINE
  8
0
 62
7
  6
CONTINUOUS
 10
363.9779528428
 20
30.8488751693
 11
364.1513903428
 21
30.9134025506
  0
LINE
  8
0
 62
7
  6
CONTINUOUS
 10
369.4123282839
 20
30.8488751693
 11
369.6435780634
 21
30.9134025506
  0
LINE
  8
0
 62
7
  6
CONTINUOUS
 10
369.4123282839
 20
31.0101936212
 11
369.2967030634
 21
30.9779299347
  0
LINE
  8
0
 62
7
  6
CONTINUOUS
 10
368.3717032839
 20
31.6877311038
 11
368.6029530634
 21
31.7199947902
  0
LINE
  8
0
 62
7
  6
CONTINUOUS
 10
366.4060778428
 20
31.6877311038
 11
366.6373282839
 21
31.7199947902
  0
LINE
  8
0
 62
7
  6
CONTINUOUS
 10
363.3420154531
 20
31.332830508
 11
363.5732655634
 21
31.3650941944
  0
LINE
  8
0
 62
7
  6
CONTINUOUS
 10
366.6373282839
 20
31.8490495359
 11
366.4060778428
 21
31.8167858495
  0
LINE
  8
0
 62
7
  6
CONTINUOUS
 10
363.2263905634
 20
31.6877311038
 11
363.4576406736
 21
31.7199947902
  0
LINE
  8
0
 62
7
  6
CONTINUOUS
 10
368.6029530634
 20
31.8490495359
 11
368.2560780634
 21
31.8167858495
  0
LINE
  8
0
 62
7
  6
CONTINUOUS
 10
363.5732655634
 20
31.4941489853
 11
363.2263905634
 21
31.4618852989
  0
LINE
  8
0
 62
7
  6
CONTINUOUS
 10
359.3529530358
 20
31.8490495359
 11
359.0060780772
 21
31.8167858495
  0
LINE
  8
0
 62
7
  6
CONTINUOUS
 10
363.4576406736
 20
31.8490495359
 11
363.0529530634
 21
31.8167858495
  0
LINE
  8
0
 62
7
  6
CONTINUOUS
 10
360.8291569568
 20
33.7674311522
 11
360.1734192519
 21
33.7674311522
  0
LINE
  8
0
 62
7
  6
CONTINUOUS
 10
366.2326403428
 20
31.623203731
 11
366.4060778428
 21
31.6877311038
  0
LINE
  8
0
 62
7
  6
CONTINUOUS
 10
368.2560780634
 20
31.6554674174
 11
368.3717032839
 21
31.6877311038
  0
LINE
  8
0
 62
7
  6
CONTINUOUS
 10
368.2560780634
 20
31.8167858495
 11
368.0248282839
 21
31.7522584767
  0
LINE
  8
0
 62
7
  6
CONTINUOUS
 10
363.9779528428
 20
31.0101936212
 11
363.6888904531
 21
30.945666237
  0
LINE
  8
0
 62
7
  6
CONTINUOUS
 10
361.2607654531
 20
31.6877311038
 11
361.4920155634
 21
31.7199947902
  0
LINE
  8
0
 62
7
  6
CONTINUOUS
 10
361.4920155634
 20
31.8490495359
 11
361.2607654531
 21
31.8167858495
  0
LINE
  8
0
 62
7
  6
CONTINUOUS
 10
359.0638905634
 20
31.6877311038
 11
359.2951405909
 21
31.7199947902
  0
LINE
  8
0
 62
7
  6
CONTINUOUS
 10
365.5832553175
 20
35.2428409882
 11
366.2389930224
 21
35.2428409882
  0
LINE
  8
0
 62
7
  6
CONTINUOUS
 10
363.2263905634
 20
31.3005668216
 11
363.3420154531
 21
31.332830508
  0
LINE
  8
0
 62
7
  6
CONTINUOUS
 10
363.2263905634
 20
31.4618852989
 11
362.9951404531
 21
31.397357926
  0
LINE
  8
0
 62
7
  6
CONTINUOUS
 10
363.1107656736
 20
31.6554674174
 11
363.2263905634
 21
31.6877311038
  0
LINE
  8
0
 62
7
  6
CONTINUOUS
 10
359.7576405634
 20
30.8488751693
 11
359.9888905082
 21
30.9134025506
  0
LINE
  8
0
 62
7
  6
CONTINUOUS
 10
363.0529530634
 20
31.8167858495
 11
362.9373281736
 21
31.7845221631
  0
LINE
  8
0
 62
7
  6
CONTINUOUS
 10
359.0060780772
 20
31.8167858495
 11
358.8326405772
 21
31.7845221631
  0
LINE
  8
0
 62
7
  6
CONTINUOUS
 10
369.7635831863
 20
36.3903819718
 11
368.3701405634
 21
36.3903819718
  0
LINE
  8
0
 62
7
  6
CONTINUOUS
 10
366.4029274486
 20
36.3903819718
 11
365.9903561
 21
36.3903819718
  0
LINE
  8
0
 62
7
  6
CONTINUOUS
 10
364.7635831863
 20
36.3903819718
 11
363.3701405634
 21
36.3903819718
  0
LINE
  8
0
 62
7
  6
CONTINUOUS
 10
363.0422717109
 20
36.3903819718
 11
361.648829088
 21
36.3903819718
  0
LINE
  8
0
 62
7
  6
CONTINUOUS
 10
359.7635831863
 20
36.3903819718
 11
358.3701405634
 21
36.3903819718
  0
LINE
  8
0
 62
7
  6
CONTINUOUS
 10
358.9482655496
 20
31.6554674174
 11
359.0638905634
 21
31.6877311038
  0
CIRCLE
  8
0
 62
7
  6
CONTINUOUS
 10
369.0668618749
 20
38.7264475456
 40
2.0901639344
  0
ARC
  8
0
 62
7
  6
CONTINUOUS
 10
360.0094848257
 20
34.2592344308
 40
1.6393442623
 50
180.0
 51
270.0
  0
ARC
  8
0
 62
7
  6
CONTINUOUS
 10
366.4029274486
 20
34.7510377095
 40
1.6393442623
 50
0.0
 51
90.0
  0
ARC
  8
0
 62
7
  6
CONTINUOUS
 10
360.4220561743
 20
34.0953000046
 40
1.4754098361
 50
270.0
 51
326.2510114041
  0
ARC
  8
0
 62
7
  6
CONTINUOUS
 10
365.9903561
 20
34.9149721358
 40
1.4754098361
 50
90.0
 51
146.2510114041
  0
ARC
  8
0
 62
7
  6
CONTINUOUS
 10
360.8291569568
 20
34.5871032833
 40
0.8196721311
 50
270.0
 51
360.0
  0
ARC
  8
0
 62
7
  6
CONTINUOUS
 10
365.5832553175
 20
34.4231688571
 40
0.8196721311
 50
90.0
 51
180.0
  0
ARC
  8
0
 62
7
  6
CONTINUOUS
 10
360.1734192519
 20
34.1772672177
 40
0.4098360656
 50
180.0
 51
270.0
  0
ARC
  8
0
 62
7
  6
CONTINUOUS
 10
366.2389930224
 20
34.8330049227
 40
0.4098360656
 50
0.0
 51
90.0
  0
SOLID
  8
0
 62
7
  6
CONTINUOUS
 10
365.0763907839
 20
32.1716868508
 11
365.0763907839
 21
32.3330053344
 12
365.3654528428
 22
32.1716868508
 13
365.3654528428
 23
32.3330053344
  0
SOLID
  8
0
 62
7
  6
CONTINUOUS
 10
359.3529530358
 20
31.8490498836
 11
359.7576405634
 21
31.8167854792
 12
359.0060780772
 22
31.8167854792
 13
359.0060780772
 23
31.8167854792
  0
SOLID
  8
0
 62
7
  6
CONTINUOUS
 10
358.8326405772
 20
31.7845227934
 11
359.0060780772
 21
31.8167854792
 12
359.7576405634
 22
31.8167854792
 13
359.7576405634
 23
31.8167854792
  0
SOLID
  8
0
 62
7
  6
CONTINUOUS
 10
359.7576405634
 20
31.8167854792
 11
359.9888905082
 21
31.7522584901
 12
358.8326405772
 22
31.7845227934
 13
358.8326405772
 23
31.7845227934
  0
SOLID
  8
0
 62
7
  6
CONTINUOUS
 10
358.6592030565
 20
31.7199940664
 11
358.8326405772
 21
31.7845227934
 12
359.9888905082
 22
31.7522584901
 13
359.9888905082
 23
31.7522584901
  0
SOLID
  8
0
 62
7
  6
CONTINUOUS
 10
358.6592030565
 20
31.7199940664
 11
359.9888905082
 21
31.7522584901
 12
359.2951405909
 22
31.7199940664
 13
359.2951405909
 23
31.7199940664
  0
SOLID
  8
0
 62
7
  6
CONTINUOUS
 10
359.2951405909
 20
31.7199940664
 11
359.9888905082
 21
31.7522584901
 12
359.6998280358
 22
31.6877314
 13
359.6998280358
 23
31.6877314
  0
SOLID
  8
0
 62
7
  6
CONTINUOUS
 10
359.9888905082
 20
31.7522584901
 11
360.1623280082
 21
31.6554670967
 12
359.6998280358
 22
31.6877314
 13
359.6998280358
 23
31.6877314
  0
SOLID
  8
0
 62
7
  6
CONTINUOUS
 10
359.8732656185
 20
31.6232043098
 11
359.6998280358
 21
31.6877314
 12
360.1623280082
 22
31.6554670967
 13
360.1623280082
 23
31.6554670967
  0
SOLID
  8
0
 62
7
  6
CONTINUOUS
 10
359.8732656185
 20
31.6232043098
 11
360.1623280082
 21
31.6554670967
 12
359.9310780634
 22
31.5264128539
 13
359.9310780634
 23
31.5264128539
  0
SOLID
  8
0
 62
7
  6
CONTINUOUS
 10
360.1623280082
 20
31.6554670967
 11
360.2201406185
 21
31.5264128539
 12
359.9310780634
 22
31.5264128539
 13
359.9310780634
 23
31.5264128539
  0
SOLID
  8
0
 62
7
  6
CONTINUOUS
 10
361.2607654531
 20
31.8167852459
 11
361.4920155634
 21
31.8490495492
 12
361.7232656736
 22
31.8490495492
 13
361.7232656736
 23
31.8490495492
  0
SOLID
  8
0
 62
7
  6
CONTINUOUS
 10
361.7232656736
 20
31.8490495492
 11
361.8967031736
 21
31.8167852459
 12
361.2607654531
 22
31.8167852459
 13
361.2607654531
 23
31.8167852459
  0
SOLID
  8
0
 62
7
  6
CONTINUOUS
 10
361.0873281185
 20
31.7522581557
 11
361.2607654531
 21
31.8167852459
 12
361.8967031736
 22
31.8167852459
 13
361.8967031736
 23
31.8167852459
  0
SOLID
  8
0
 62
7
  6
CONTINUOUS
 10
361.8967031736
 20
31.8167852459
 11
362.0701406736
 21
31.7522581557
 12
361.0873281185
 22
31.7522581557
 13
361.0873281185
 23
31.7522581557
  0
SOLID
  8
0
 62
7
  6
CONTINUOUS
 10
362.0701406736
 20
31.7522581557
 11
361.4920155634
 21
31.7199941869
 12
361.0873281185
 22
31.7522581557
 13
361.0873281185
 23
31.7522581557
  0
SOLID
  8
0
 62
7
  6
CONTINUOUS
 10
360.9717030634
 20
31.6877310656
 11
361.0873281185
 21
31.7522581557
 12
361.4920155634
 22
31.7199941869
 13
361.4920155634
 23
31.7199941869
  0
SOLID
  8
0
 62
7
  6
CONTINUOUS
 10
361.4920155634
 20
31.7199941869
 11
361.2607654531
 21
31.6877310656
 12
360.9717030634
 22
31.6877310656
 13
360.9717030634
 23
31.6877310656
  0
SOLID
  8
0
 62
7
  6
CONTINUOUS
 10
361.4920155634
 20
31.7199941869
 11
362.0701406736
 21
31.7522581557
 12
361.7232656736
 22
31.6877310656
 13
361.7232656736
 23
31.6877310656
  0
SOLID
  8
0
 62
7
  6
CONTINUOUS
 10
362.0701406736
 20
31.7522581557
 11
362.1857655634
 21
31.6877310656
 12
361.7232656736
 22
31.6877310656
 13
361.7232656736
 23
31.6877310656
  0
SOLID
  8
0
 62
7
  6
CONTINUOUS
 10
361.8388905634
 20
31.6554670967
 11
361.7232656736
 21
31.6877310656
 12
362.1857655634
 22
31.6877310656
 13
362.1857655634
 23
31.6877310656
  0
SOLID
  8
0
 62
7
  6
CONTINUOUS
 10
362.1857655634
 20
31.6877310656
 11
362.2435781736
 21
31.6232039754
 12
361.8388905634
 22
31.6554670967
 13
361.8388905634
 23
31.6554670967
  0
SOLID
  8
0
 62
7
  6
CONTINUOUS
 10
361.9545154531
 20
31.5909400065
 11
361.8388905634
 21
31.6554670967
 12
362.2435781736
 22
31.6232039754
 13
362.2435781736
 23
31.6232039754
  0
SOLID
  8
0
 62
7
  6
CONTINUOUS
 10
361.9545154531
 20
31.5909400065
 11
362.2435781736
 21
31.6232039754
 12
362.0123280634
 22
31.4618854918
 13
362.0123280634
 23
31.4618854918
  0
SOLID
  8
0
 62
7
  6
CONTINUOUS
 10
362.2435781736
 20
31.6232039754
 11
362.3013904531
 21
31.4618854918
 12
362.0123280634
 22
31.4618854918
 13
362.0123280634
 23
31.4618854918
  0
SOLID
  8
0
 62
7
  6
CONTINUOUS
 10
361.2607654531
 20
31.6877310656
 11
361.0873281185
 21
31.6232039754
 12
360.9717030634
 22
31.6877310656
 13
360.9717030634
 23
31.6877310656
  0
SOLID
  8
0
 62
7
  6
CONTINUOUS
 10
361.0873281185
 20
31.6232039754
 11
360.9717030634
 21
31.5586757033
 12
360.9717030634
 22
31.6877310656
 13
360.9717030634
 23
31.6877310656
  0
SOLID
  8
0
 62
7
  6
CONTINUOUS
 10
360.9717030634
 20
31.5586757033
 11
360.6826405082
 21
30.8166115574
 12
360.9717030634
 22
31.6877310656
 13
360.9717030634
 23
31.6877310656
  0
SOLID
  8
0
 62
7
  6
CONTINUOUS
 10
360.9717030634
 20
31.6877310656
 11
360.6826405082
 21
30.8166115574
 12
360.9717030634
 22
32.333005
 13
360.9717030634
 23
32.333005
  0
SOLID
  8
0
 62
7
  6
CONTINUOUS
 10
360.6826405082
 20
30.8166115574
 11
360.6826405082
 21
32.333005
 12
360.9717030634
 22
32.333005
 13
360.9717030634
 23
32.333005
  0
SOLID
  8
0
 62
7
  6
CONTINUOUS
 10
360.9717030634
 20
31.5586757033
 11
360.9717030634
 21
30.8166115574
 12
360.6826405082
 22
30.8166115574
 13
360.6826405082
 23
30.8166115574
  0
SOLID
  8
0
 62
7
  6
CONTINUOUS
 10
362.0123280634
 20
30.8166115574
 11
362.0123280634
 21
31.4618854918
 12
362.3013904531
 22
31.4618854918
 13
362.3013904531
 23
31.4618854918
  0
SOLID
  8
0
 62
7
  6
CONTINUOUS
 10
362.3013904531
 20
31.4618854918
 11
362.3013904531
 21
30.8166115574
 12
362.0123280634
 22
30.8166115574
 13
362.0123280634
 23
30.8166115574
  0
SOLID
  8
0
 62
7
  6
CONTINUOUS
 10
363.0529530634
 20
31.8167856315
 11
363.4576406736
 21
31.8490496243
 12
363.8045156736
 22
31.8490496243
 13
363.8045156736
 23
31.8490496243
  0
SOLID
  8
0
 62
7
  6
CONTINUOUS
 10
363.8045156736
 20
31.8490496243
 11
364.1513903428
 21
31.8167856315
 12
363.0529530634
 22
31.8167856315
 13
363.0529530634
 23
31.8167856315
  0
SOLID
  8
0
 62
7
  6
CONTINUOUS
 10
362.9373281736
 20
31.7845227934
 11
363.0529530634
 21
31.8167856315
 12
364.1513903428
 22
31.8167856315
 13
364.1513903428
 23
31.8167856315
  0
SOLID
  8
0
 62
7
  6
CONTINUOUS
 10
364.1513903428
 20
31.8167856315
 11
364.3248278428
 21
31.7522584901
 12
362.9373281736
 22
31.7845227934
 13
362.9373281736
 23
31.7845227934
  0
SOLID
  8
0
 62
7
  6
CONTINUOUS
 10
362.8217029531
 20
31.7199944276
 11
362.9373281736
 21
31.7845227934
 12
364.3248278428
 22
31.7522584901
 13
364.3248278428
 23
31.7522584901
  0
SOLID
  8
0
 62
7
  6
CONTINUOUS
 10
362.8217029531
 20
31.7199944276
 11
364.3248278428
 21
31.7522584901
 12
363.4576406736
 22
31.7199944276
 13
363.4576406736
 23
31.7199944276
  0
SOLID
  8
0
 62
7
  6
CONTINUOUS
 10
363.4576406736
 20
31.7199944276
 11
364.3248278428
 21
31.7522584901
 12
363.8045156736
 22
31.7199944276
 13
363.8045156736
 23
31.7199944276
  0
SOLID
  8
0
 62
7
  6
CONTINUOUS
 10
363.8045156736
 20
31.7199944276
 11
364.3248278428
 21
31.7522584901
 12
364.0357657839
 22
31.6877312092
 13
364.0357657839
 23
31.6877312092
  0
SOLID
  8
0
 62
7
  6
CONTINUOUS
 10
364.3248278428
 20
31.7522584901
 11
364.4404530634
 21
31.6877312092
 12
364.0357657839
 22
31.6877312092
 13
364.0357657839
 23
31.6877312092
  0
SOLID
  8
0
 62
7
  6
CONTINUOUS
 10
362.7638906736
 20
31.6554672165
 11
362.8217029531
 21
31.7199944276
 12
363.4576406736
 22
31.7199944276
 13
363.4576406736
 23
31.7199944276
  0
SOLID
  8
0
 62
7
  6
CONTINUOUS
 10
364.1513903428
 20
31.6554672165
 11
364.0357657839
 21
31.6877312092
 12
364.4404530634
 22
31.6877312092
 13
364.4404530634
 23
31.6877312092
  0
SOLID
  8
0
 62
7
  6
CONTINUOUS
 10
364.1513903428
 20
31.6554672165
 11
364.4404530634
 21
31.6877312092
 12
364.2092032839
 22
31.5909400053
 13
364.2092032839
 23
31.5909400053
  0
SOLID
  8
0
 62
7
  6
CONTINUOUS
 10
364.4404530634
 20
31.6877312092
 11
364.4982653428
 21
31.5909400053
 12
364.2092032839
 22
31.5909400053
 13
364.2092032839
 23
31.5909400053
  0
SOLID
  8
0
 62
7
  6
CONTINUOUS
 10
364.2092032839
 20
31.4941486131
 11
364.2092032839
 21
31.5909400053
 12
364.4982653428
 22
31.5909400053
 13
364.4982653428
 23
31.5909400053
  0
SOLID
  8
0
 62
7
  6
CONTINUOUS
 10
364.2092032839
 20
31.4941486131
 11
364.4982653428
 21
31.5909400053
 12
364.2092032839
 22
31.3650944328
 13
364.2092032839
 23
31.3650944328
  0
SOLID
  8
0
 62
7
  6
CONTINUOUS
 10
364.2092032839
 20
31.3650944328
 11
364.4982653428
 21
31.5909400053
 12
364.2092032839
 22
31.1715120759
 13
364.2092032839
 23
31.1715120759
  0
SOLID
  8
0
 62
7
  6
CONTINUOUS
 10
364.4982653428
 20
31.5909400053
 11
364.4982653428
 21
31.0747202524
 12
364.2092032839
 22
31.1715120759
 13
364.2092032839
 23
31.1715120759
  0
SOLID
  8
0
 62
7
  6
CONTINUOUS
 10
366.4060778428
 20
31.8167851023
 11
366.6373282839
 21
31.849049822
 12
366.8685780634
 22
31.849049822
 13
366.8685780634
 23
31.849049822
  0
SOLID
  8
0
 62
7
  6
CONTINUOUS
 10
366.8685780634
 20
31.849049822
 11
367.0420155634
 21
31.8167851023
 12
366.4060778428
 22
31.8167851023
 13
366.4060778428
 23
31.8167851023
  0
SOLID
  8
0
 62
7
  6
CONTINUOUS
 10
366.2326403428
 20
31.7522587602
 11
366.4060778428
 21
31.8167851023
 12
367.0420155634
 22
31.8167851023
 13
367.0420155634
 23
31.8167851023
  0
SOLID
  8
0
 62
7
  6
CONTINUOUS
 10
367.0420155634
 20
31.8167851023
 11
367.2154530634
 21
31.7522587602
 12
366.2326403428
 22
31.7522587602
 13
366.2326403428
 23
31.7522587602
  0
SOLID
  8
0
 62
7
  6
CONTINUOUS
 10
367.2154530634
 20
31.7522587602
 11
366.6373282839
 21
31.7199941869
 12
366.2326403428
 22
31.7522587602
 13
366.2326403428
 23
31.7522587602
  0
SOLID
  8
0
 62
7
  6
CONTINUOUS
 10
366.1170157839
 20
31.6877313857
 11
366.2326403428
 21
31.7522587602
 12
366.6373282839
 22
31.7199941869
 13
366.6373282839
 23
31.7199941869
  0
SOLID
  8
0
 62
7
  6
CONTINUOUS
 10
366.6373282839
 20
31.7199941869
 11
366.4060778428
 21
31.6877313857
 12
366.1170157839
 22
31.6877313857
 13
366.1170157839
 23
31.6877313857
  0
SOLID
  8
0
 62
7
  6
CONTINUOUS
 10
366.6373282839
 20
31.7199941869
 11
367.2154530634
 21
31.7522587602
 12
366.8685780634
 22
31.6877313857
 13
366.8685780634
 23
31.6877313857
  0
SOLID
  8
0
 62
7
  6
CONTINUOUS
 10
367.2154530634
 20
31.7522587602
 11
367.3310782839
 21
31.6877313857
 12
366.8685780634
 22
31.6877313857
 13
366.8685780634
 23
31.6877313857
  0
SOLID
  8
0
 62
7
  6
CONTINUOUS
 10
366.9842032839
 20
31.6554670967
 11
366.8685780634
 21
31.6877313857
 12
367.3310782839
 22
31.6877313857
 13
367.3310782839
 23
31.6877313857
  0
SOLID
  8
0
 62
7
  6
CONTINUOUS
 10
366.9842032839
 20
31.6554670967
 11
367.3310782839
 21
31.6877313857
 12
367.0998278428
 22
31.590940324
 13
367.0998278428
 23
31.590940324
  0
SOLID
  8
0
 62
7
  6
CONTINUOUS
 10
367.3310782839
 20
31.6877313857
 11
367.3888905634
 21
31.590940324
 12
367.0998278428
 22
31.590940324
 13
367.0998278428
 23
31.590940324
  0
SOLID
  8
0
 62
7
  6
CONTINUOUS
 10
367.1576407839
 20
31.4296218878
 11
367.0998278428
 21
31.590940324
 12
367.3888905634
 22
31.590940324
 13
367.3888905634
 23
31.590940324
  0
SOLID
  8
0
 62
7
  6
CONTINUOUS
 10
367.3888905634
 20
31.590940324
 11
367.4467028428
 21
31.4296218878
 12
367.1576407839
 22
31.4296218878
 13
367.1576407839
 23
31.4296218878
  0
SOLID
  8
0
 62
7
  6
CONTINUOUS
 10
366.4060778428
 20
31.6877313857
 11
366.2326403428
 21
31.6232043098
 12
366.1170157839
 22
31.6877313857
 13
366.1170157839
 23
31.6877313857
  0
SOLID
  8
0
 62
7
  6
CONTINUOUS
 10
366.2326403428
 20
31.6232043098
 11
366.1170157839
 21
31.5586757033
 12
366.1170157839
 22
31.6877313857
 13
366.1170157839
 23
31.6877313857
  0
SOLID
  8
0
 62
7
  6
CONTINUOUS
 10
366.1170157839
 20
31.5586757033
 11
365.8279530634
 21
30.8166118302
 12
366.1170157839
 22
31.6877313857
 13
366.1170157839
 23
31.6877313857
  0
SOLID
  8
0
 62
7
  6
CONTINUOUS
 10
366.1170157839
 20
31.6877313857
 11
365.8279530634
 21
30.8166118302
 12
366.1170157839
 22
31.849049822
 13
366.1170157839
 23
31.849049822
  0
SOLID
  8
0
 62
7
  6
CONTINUOUS
 10
365.8279530634
 20
30.8166118302
 11
365.8279530634
 21
31.849049822
 12
366.1170157839
 22
31.849049822
 13
366.1170157839
 23
31.849049822
  0
SOLID
  8
0
 62
7
  6
CONTINUOUS
 10
366.1170157839
 20
31.5586757033
 11
366.1170157839
 21
30.8166118302
 12
365.8279530634
 22
30.8166118302
 13
365.8279530634
 23
30.8166118302
  0
SOLID
  8
0
 62
7
  6
CONTINUOUS
 10
367.1576407839
 20
30.8166118302
 11
367.1576407839
 21
31.4296218878
 12
367.4467028428
 22
31.4296218878
 13
367.4467028428
 23
31.4296218878
  0
SOLID
  8
0
 62
7
  6
CONTINUOUS
 10
367.4467028428
 20
31.4296218878
 11
367.4467028428
 21
30.8166118302
 12
367.1576407839
 22
30.8166118302
 13
367.1576407839
 23
30.8166118302
  0
SOLID
  8
0
 62
7
  6
CONTINUOUS
 10
368.2560780634
 20
31.8167856056
 11
368.6029530634
 21
31.8490498552
 12
368.9498280634
 22
31.8490498552
 13
368.9498280634
 23
31.8490498552
  0
SOLID
  8
0
 62
7
  6
CONTINUOUS
 10
368.9498280634
 20
31.8490498552
 11
369.2967030634
 21
31.8167856056
 12
368.2560780634
 22
31.8167856056
 13
368.2560780634
 23
31.8167856056
  0
SOLID
  8
0
 62
7
  6
CONTINUOUS
 10
368.0248282839
 20
31.7522584901
 11
368.2560780634
 21
31.8167856056
 12
369.2967030634
 22
31.8167856056
 13
369.2967030634
 23
31.8167856056
  0
SOLID
  8
0
 62
7
  6
CONTINUOUS
 10
368.0248282839
 20
31.7522584901
 11
369.2967030634
 21
31.8167855803
 12
369.4701405634
 22
31.7845227934
 13
369.4701405634
 23
31.7845227934
  0
SOLID
  8
0
 62
7
  6
CONTINUOUS
 10
368.0248282839
 20
31.7522584901
 11
369.4701405634
 21
31.7845227934
 12
368.6029530634
 22
31.7199941235
 13
368.6029530634
 23
31.7199941235
  0
SOLID
  8
0
 62
7
  6
CONTINUOUS
 10
368.6029530634
 20
31.7199941235
 11
369.4701405634
 21
31.7845227934
 12
368.9498280634
 22
31.7199941235
 13
368.9498280634
 23
31.7199941235
  0
SOLID
  8
0
 62
7
  6
CONTINUOUS
 10
369.4701405634
 20
31.7845227934
 11
369.6435780634
 21
31.7199941235
 12
368.9498280634
 22
31.7199941235
 13
368.9498280634
 23
31.7199941235
  0
SOLID
  8
0
 62
7
  6
CONTINUOUS
 10
369.2967030634
 20
31.6877314
 11
368.9498280634
 21
31.7199941235
 12
369.6435780634
 22
31.7199941235
 13
369.6435780634
 23
31.7199941235
  0
SOLID
  8
0
 62
7
  6
CONTINUOUS
 10
367.9092030634
 20
31.6554671071
 11
368.0248282839
 21
31.7522584901
 12
368.6029530634
 22
31.7199941235
 13
368.6029530634
 23
31.7199941235
  0
SOLID
  8
0
 62
7
  6
CONTINUOUS
 10
369.2967030634
 20
31.6877314
 11
369.6435780634
 21
31.7199941235
 12
369.4123282839
 22
31.6554671071
 13
369.4123282839
 23
31.6554671071
  0
SOLID
  8
0
 62
7
  6
CONTINUOUS
 10
369.4123282839
 20
31.6554671071
 11
369.6435780634
 21
31.7199941235
 12
369.4701405634
 22
31.5909400907
 13
369.4701405634
 23
31.5909400907
  0
SOLID
  8
0
 62
7
  6
CONTINUOUS
 10
369.6435780634
 20
31.7199941235
 11
369.7592026223
 21
31.5909400907
 12
369.4701405634
 22
31.5909400907
 13
369.4701405634
 23
31.5909400907
  0
SOLID
  8
0
 62
7
  6
CONTINUOUS
 10
359.0638905634
 20
31.6877314
 11
358.5435780634
 21
31.6554670789
 12
359.2951405909
 22
31.7199941045
 13
359.2951405909
 23
31.7199941045
  0
SOLID
  8
0
 62
7
  6
CONTINUOUS
 10
358.5435780634
 20
31.6554670789
 11
358.6592030565
 21
31.7199941045
 12
359.2951405909
 22
31.7199941045
 13
359.2951405909
 23
31.7199941045
  0
SOLID
  8
0
 62
7
  6
CONTINUOUS
 10
359.0638905634
 20
31.6877314
 11
358.9482655496
 21
31.6554670789
 12
358.5435780634
 22
31.6554670789
 13
358.5435780634
 23
31.6554670789
  0
SOLID
  8
0
 62
7
  6
CONTINUOUS
 10
358.4279530651
 20
31.5264129164
 11
358.5435780634
 21
31.6554670789
 12
358.9482655496
 22
31.6554670789
 13
358.9482655496
 23
31.6554670789
  0
SOLID
  8
0
 62
7
  6
CONTINUOUS
 10
362.7638906736
 20
31.6554670789
 11
363.4576406736
 21
31.7199941869
 12
363.2263905634
 22
31.6877314
 13
363.2263905634
 23
31.6877314
  0
SOLID
  8
0
 62
7
  6
CONTINUOUS
 10
363.2263905634
 20
31.6877314
 11
363.1107656736
 21
31.6554670789
 12
362.7638906736
 22
31.6554670789
 13
362.7638906736
 23
31.6554670789
  0
SOLID
  8
0
 62
7
  6
CONTINUOUS
 10
362.7638906736
 20
31.5909399887
 11
362.7638906736
 21
31.6554670789
 12
363.1107656736
 22
31.6554670789
 13
363.1107656736
 23
31.6554670789
  0
SOLID
  8
0
 62
7
  6
CONTINUOUS
 10
363.1107656736
 20
31.6554670789
 11
363.0529530634
 21
31.5909399887
 12
362.7638906736
 22
31.5909399887
 13
362.7638906736
 23
31.5909399887
  0
SOLID
  8
0
 62
7
  6
CONTINUOUS
 10
367.9092030634
 20
31.6554670789
 11
368.6029530634
 21
31.7199941869
 12
368.3717032839
 22
31.6877314
 13
368.3717032839
 23
31.6877314
  0
SOLID
  8
0
 62
7
  6
CONTINUOUS
 10
368.3717032839
 20
31.6877314
 11
368.2560780634
 21
31.6554670789
 12
367.9092030634
 22
31.6554670789
 13
367.9092030634
 23
31.6554670789
  0
SOLID
  8
0
 62
7
  6
CONTINUOUS
 10
367.9092030634
 20
31.5909399887
 11
367.9092030634
 21
31.6554670789
 12
368.2560780634
 22
31.6554670789
 13
368.2560780634
 23
31.6554670789
  0
SOLID
  8
0
 62
7
  6
CONTINUOUS
 10
368.2560780634
 20
31.6554670789
 11
368.1982657839
 21
31.5909399887
 12
367.9092030634
 22
31.5909399887
 13
367.9092030634
 23
31.5909399887
  0
SOLID
  8
0
 62
7
  6
CONTINUOUS
 10
368.0248282839
 20
31.4618858262
 11
367.9092030634
 21
31.5909399887
 12
368.1982657839
 22
31.5909399887
 13
368.1982657839
 23
31.5909399887
  0
SOLID
  8
0
 62
7
  6
CONTINUOUS
 10
358.4279530651
 20
31.5264129164
 11
358.9482655496
 21
31.6554670967
 12
358.7748280496
 22
31.5586757033
 13
358.7748280496
 23
31.5586757033
  0
SOLID
  8
0
 62
7
  6
CONTINUOUS
 10
358.7748280496
 20
31.5586757033
 11
358.7170155634
 21
31.4941486131
 12
358.4279530651
 22
31.5264129164
 13
358.4279530651
 23
31.5264129164
  0
SOLID
  8
0
 62
7
  6
CONTINUOUS
 10
358.3701405634
 20
31.3328301295
 11
358.4279530651
 21
31.5264129164
 12
358.7170155634
 22
31.4941486131
 13
358.7170155634
 23
31.4941486131
  0
SOLID
  8
0
 62
7
  6
CONTINUOUS
 10
363.2263905634
 20
31.4618858262
 11
363.5732655634
 21
31.4941485791
 12
364.2092032839
 22
31.4941485791
 13
364.2092032839
 23
31.4941485791
  0
SOLID
  8
0
 62
7
  6
CONTINUOUS
 10
363.2263905634
 20
31.4618858262
 11
364.2092032839
 21
31.4941485791
 12
362.9951404531
 22
31.397357926
 13
362.9951404531
 23
31.397357926
  0
SOLID
  8
0
 62
7
  6
CONTINUOUS
 10
362.9951404531
 20
31.397357926
 11
364.2092032839
 21
31.4941485791
 12
363.5732655634
 22
31.3650943988
 13
363.5732655634
 23
31.3650943988
  0
SOLID
  8
0
 62
7
  6
CONTINUOUS
 10
364.2092032839
 20
31.4941485791
 11
364.2092032839
 21
31.3650943988
 12
363.5732655634
 22
31.3650943988
 13
363.5732655634
 23
31.3650943988
  0
SOLID
  8
0
 62
7
  6
CONTINUOUS
 10
368.0248282839
 20
31.4618859165
 11
368.1982657839
 21
31.5909400065
 12
368.2560780634
 22
31.5264129164
 13
368.2560780634
 23
31.5264129164
  0
SOLID
  8
0
 62
7
  6
CONTINUOUS
 10
368.2560780634
 20
31.5264129164
 11
368.4295155634
 21
31.4618859165
 12
368.0248282839
 22
31.4618859165
 13
368.0248282839
 23
31.4618859165
  0
SOLID
  8
0
 62
7
  6
CONTINUOUS
 10
368.2560780634
 20
31.3650944328
 11
368.0248282839
 21
31.4618859165
 12
368.4295155634
 22
31.4618859165
 13
368.4295155634
 23
31.4618859165
  0
SOLID
  8
0
 62
7
  6
CONTINUOUS
 10
368.4295155634
 20
31.4618859165
 11
369.4123282839
 21
31.3005673426
 12
368.2560780634
 22
31.3650944328
 13
368.2560780634
 23
31.3650944328
  0
SOLID
  8
0
 62
7
  6
CONTINUOUS
 10
369.2388907839
 20
31.2037760287
 11
368.2560780634
 21
31.3650944328
 12
369.4123282839
 22
31.3005673426
 13
369.4123282839
 23
31.3005673426
  0
SOLID
  8
0
 62
7
  6
CONTINUOUS
 10
369.4123282839
 20
31.3005673426
 11
369.6435780634
 21
31.2037760287
 12
369.2388907839
 22
31.2037760287
 13
369.2388907839
 23
31.2037760287
  0
SOLID
  8
0
 62
7
  6
CONTINUOUS
 10
369.4123282839
 20
31.139248859
 11
369.2388907839
 21
31.2037760287
 12
369.6435780634
 22
31.2037760287
 13
369.6435780634
 23
31.2037760287
  0
SOLID
  8
0
 62
7
  6
CONTINUOUS
 10
369.4123282839
 20
31.139248859
 11
369.6435780634
 21
31.2037760287
 12
369.4701405634
 22
31.0747203105
 13
369.4701405634
 23
31.0747203105
  0
SOLID
  8
0
 62
7
  6
CONTINUOUS
 10
369.6435780634
 20
31.2037760287
 11
369.7592026223
 21
31.0747203105
 12
369.4701405634
 22
31.0747203105
 13
369.4701405634
 23
31.0747203105
  0
SOLID
  8
0
 62
7
  6
CONTINUOUS
 10
369.4123282839
 20
31.0101932257
 11
369.4701405634
 21
31.0747203105
 12
369.7592026223
 22
31.0747203105
 13
369.7592026223
 23
31.0747203105
  0
SOLID
  8
0
 62
7
  6
CONTINUOUS
 10
369.7592026223
 20
31.0747203105
 11
369.7592026223
 21
31.0101932257
 12
369.4123282839
 22
31.0101932257
 13
369.4123282839
 23
31.0101932257
  0
SOLID
  8
0
 62
7
  6
CONTINUOUS
 10
369.2967030634
 20
30.9779303754
 11
369.4123282839
 21
31.0101932257
 12
369.7592026223
 22
31.0101932257
 13
369.7592026223
 23
31.0101932257
  0
SOLID
  8
0
 62
7
  6
CONTINUOUS
 10
369.2967030634
 20
30.9779303754
 11
369.7592026223
 21
31.0101932257
 12
369.0654532839
 22
30.9456661409
 13
369.0654532839
 23
30.9456661409
  0
SOLID
  8
0
 62
7
  6
CONTINUOUS
 10
369.7592026223
 20
31.0101932257
 11
369.6435780634
 21
30.9134032852
 12
369.0654532839
 22
30.9456661409
 13
369.0654532839
 23
30.9456661409
  0
SOLID
  8
0
 62
7
  6
CONTINUOUS
 10
369.6435780634
 20
30.9134032852
 11
368.1982657839
 21
30.8811389819
 12
369.0654532839
 22
30.9456661409
 13
369.0654532839
 23
30.9456661409
  0
SOLID
  8
0
 62
7
  6
CONTINUOUS
 10
369.0654532839
 20
30.9456661409
 11
368.1982657839
 21
30.8811389819
 12
368.7185782839
 22
30.9456661409
 13
368.7185782839
 23
30.9456661409
  0
SOLID
  8
0
 62
7
  6
CONTINUOUS
 10
368.1982657839
 20
30.8811389819
 11
368.0248282839
 21
30.9456661409
 12
368.7185782839
 22
30.9456661409
 13
368.7185782839
 23
30.9456661409
  0
SOLID
  8
0
 62
7
  6
CONTINUOUS
 10
368.1982657839
 20
30.8811389819
 11
369.6435780634
 21
30.9134032852
 12
368.3717032839
 22
30.8488743522
 13
368.3717032839
 23
30.8488743522
  0
SOLID
  8
0
 62
7
  6
CONTINUOUS
 10
369.6435780634
 20
30.9134032852
 11
369.4123282839
 21
30.8488743522
 12
368.3717032839
 22
30.8488743522
 13
368.3717032839
 23
30.8488743522
  0
SOLID
  8
0
 62
7
  6
CONTINUOUS
 10
368.7185782839
 20
30.8166119713
 11
368.3717032839
 21
30.8488743522
 12
369.4123282839
 22
30.8488743522
 13
369.4123282839
 23
30.8488743522
  0
SOLID
  8
0
 62
7
  6
CONTINUOUS
 10
369.4123282839
 20
30.8488743522
 11
369.0654532839
 21
30.8166119713
 12
368.7185782839
 22
30.8166119713
 13
368.7185782839
 23
30.8166119713
  0
SOLID
  8
0
 62
7
  6
CONTINUOUS
 10
358.3701405634
 20
31.3328301295
 11
358.7170155634
 21
31.4941486131
 12
358.6592030565
 22
31.3650944328
 13
358.6592030565
 23
31.3650944328
  0
SOLID
  8
0
 62
7
  6
CONTINUOUS
 10
358.6592030565
 20
31.3650944328
 11
358.6592030565
 21
31.2683031351
 12
358.3701405634
 22
31.3328301295
 13
358.3701405634
 23
31.3328301295
  0
SOLID
  8
0
 62
7
  6
CONTINUOUS
 10
358.4279530651
 20
31.139248859
 11
358.3701405634
 21
31.3328301295
 12
358.6592030565
 22
31.2683031351
 13
358.6592030565
 23
31.2683031351
  0
SOLID
  8
0
 62
7
  6
CONTINUOUS
 10
358.6592030565
 20
31.2683031351
 11
358.7748280496
 21
31.1069845557
 12
358.4279530651
 22
31.139248859
 13
358.4279530651
 23
31.139248859
  0
SOLID
  8
0
 62
7
  6
CONTINUOUS
 10
358.5435780634
 20
31.0101931569
 11
358.4279530651
 21
31.139248859
 12
358.7748280496
 22
31.1069845557
 13
358.7748280496
 23
31.1069845557
  0
SOLID
  8
0
 62
7
  6
CONTINUOUS
 10
358.7748280496
 20
31.1069845557
 11
358.9482655496
 21
31.0101931569
 12
358.5435780634
 22
31.0101931569
 13
358.5435780634
 23
31.0101931569
  0
SOLID
  8
0
 62
7
  6
CONTINUOUS
 10
358.6592030565
 20
30.9456659241
 11
358.5435780634
 21
31.0101931569
 12
358.9482655496
 22
31.0101931569
 13
358.9482655496
 23
31.0101931569
  0
SOLID
  8
0
 62
7
  6
CONTINUOUS
 10
358.9482655496
 20
31.0101931569
 11
359.2951405909
 21
30.9456659241
 12
358.6592030565
 22
30.9456659241
 13
358.6592030565
 23
30.9456659241
  0
SOLID
  8
0
 62
7
  6
CONTINUOUS
 10
358.8326405772
 20
30.8811389819
 11
358.6592030565
 21
30.9456659241
 12
359.2951405909
 22
30.9456659241
 13
359.2951405909
 23
30.9456659241
  0
SOLID
  8
0
 62
7
  6
CONTINUOUS
 10
362.8795155634
 20
31.3328301325
 11
362.9951404531
 21
31.397357926
 12
363.5732655634
 22
31.3650944328
 13
363.5732655634
 23
31.3650944328
  0
SOLID
  8
0
 62
7
  6
CONTINUOUS
 10
363.5732655634
 20
31.3650944328
 11
363.3420154531
 21
31.3328301325
 12
362.8795155634
 22
31.3328301325
 13
362.8795155634
 23
31.3328301325
  0
SOLID
  8
0
 62
7
  6
CONTINUOUS
 10
362.7638906736
 20
31.2037759492
 11
362.8795155634
 21
31.3328301325
 12
363.3420154531
 22
31.3328301325
 13
363.3420154531
 23
31.3328301325
  0
SOLID
  8
0
 62
7
  6
CONTINUOUS
 10
363.1107656736
 20
31.2360394487
 11
362.7638906736
 21
31.2037759492
 12
363.2263905634
 22
31.3005673426
 13
363.2263905634
 23
31.3005673426
  0
SOLID
  8
0
 62
7
  6
CONTINUOUS
 10
362.7638906736
 20
31.2037759492
 11
363.3420154531
 21
31.3328301295
 12
363.2263905634
 22
31.3005673426
 13
363.2263905634
 23
31.3005673426
  0
SOLID
  8
0
 62
7
  6
CONTINUOUS
 10
363.1107656736
 20
31.2360394487
 11
363.0529530634
 21
31.139248859
 12
362.7638906736
 22
31.2037759492
 13
362.7638906736
 23
31.2037759492
  0
SOLID
  8
0
 62
7
  6
CONTINUOUS
 10
362.7638906736
 20
31.1069845557
 11
362.7638906736
 21
31.2037759492
 12
363.0529530634
 22
31.139248859
 13
363.0529530634
 23
31.139248859
  0
SOLID
  8
0
 62
7
  6
CONTINUOUS
 10
363.0529530634
 20
31.139248859
 11
363.0529530634
 21
31.0747202524
 12
362.7638906736
 22
31.1069845557
 13
362.7638906736
 23
31.1069845557
  0
SOLID
  8
0
 62
7
  6
CONTINUOUS
 10
362.8217029531
 20
30.9779303754
 11
362.7638906736
 21
31.1069845557
 12
363.0529530634
 22
31.0747202524
 13
363.0529530634
 23
31.0747202524
  0
SOLID
  8
0
 62
7
  6
CONTINUOUS
 10
364.2092032839
 20
31.1715120759
 11
364.4982653428
 21
31.0747202524
 12
364.1513903428
 22
31.1069845557
 13
364.1513903428
 23
31.1069845557
  0
SOLID
  8
0
 62
7
  6
CONTINUOUS
 10
363.9779528428
 20
31.0101931623
 11
364.1513903428
 21
31.1069845557
 12
364.4982653428
 22
31.0747202524
 13
364.4982653428
 23
31.0747202524
  0
SOLID
  8
0
 62
7
  6
CONTINUOUS
 10
363.9779528428
 20
31.0101931623
 11
364.4982653428
 21
31.0747202524
 12
364.2092032839
 22
30.9779303754
 13
364.2092032839
 23
30.9779303754
  0
SOLID
  8
0
 62
7
  6
CONTINUOUS
 10
364.4982653428
 20
31.0747202524
 11
364.5560782839
 21
30.9134032852
 12
364.2092032839
 22
30.9779303754
 13
364.2092032839
 23
30.9779303754
  0
SOLID
  8
0
 62
7
  6
CONTINUOUS
 10
364.2670155634
 20
30.8811389819
 11
364.2092032839
 21
30.9779303754
 12
364.5560782839
 22
30.9134032852
 13
364.5560782839
 23
30.9134032852
  0
SOLID
  8
0
 62
7
  6
CONTINUOUS
 10
364.2670155634
 20
30.8811389819
 11
364.5560782839
 21
30.9134032852
 12
364.3248278428
 22
30.816611867
 13
364.3248278428
 23
30.816611867
  0
SOLID
  8
0
 62
7
  6
CONTINUOUS
 10
364.5560782839
 20
30.9134032852
 11
364.6138905634
 21
30.816611867
 12
364.3248278428
 22
30.816611867
 13
364.3248278428
 23
30.816611867
  0
SOLID
  8
0
 62
7
  6
CONTINUOUS
 10
359.8732656185
 20
31.0424573076
 11
359.9310780634
 21
31.1392488159
 12
360.2201406185
 22
31.1392488159
 13
360.2201406185
 23
31.1392488159
  0
SOLID
  8
0
 62
7
  6
CONTINUOUS
 10
360.2201406185
 20
31.1392488159
 11
360.1623280082
 21
31.0101931623
 12
359.8732656185
 22
31.0424573076
 13
359.8732656185
 23
31.0424573076
  0
SOLID
  8
0
 62
7
  6
CONTINUOUS
 10
359.6998280358
 20
30.9779303754
 11
359.8732656185
 21
31.0424573076
 12
360.1623280082
 22
31.0101931623
 13
360.1623280082
 23
31.0101931623
  0
SOLID
  8
0
 62
7
  6
CONTINUOUS
 10
359.6998280358
 20
30.9779303754
 11
360.1623280082
 21
31.0101931623
 12
359.2951405909
 22
30.9456660721
 13
359.2951405909
 23
30.9456660721
  0
SOLID
  8
0
 62
7
  6
CONTINUOUS
 10
360.1623280082
 20
31.0101931623
 11
359.9888905082
 21
30.9134032852
 12
359.2951405909
 22
30.9456660721
 13
359.2951405909
 23
30.9456660721
  0
SOLID
  8
0
 62
7
  6
CONTINUOUS
 10
358.8326405772
 20
30.8811389819
 11
359.2951405909
 21
30.9456660721
 12
359.9888905082
 22
30.9134032852
 13
359.9888905082
 23
30.9134032852
  0
SOLID
  8
0
 62
7
  6
CONTINUOUS
 10
358.8326405772
 20
30.8811389819
 11
359.9888905082
 21
30.9134032852
 12
359.0060780772
 22
30.8488745775
 13
359.0060780772
 23
30.8488745775
  0
SOLID
  8
0
 62
7
  6
CONTINUOUS
 10
359.9888905082
 20
30.9134032852
 11
359.7576405634
 21
30.8488745775
 12
359.0060780772
 22
30.8488745775
 13
359.0060780772
 23
30.8488745775
  0
SOLID
  8
0
 62
7
  6
CONTINUOUS
 10
359.3529530358
 20
30.8166118918
 11
359.0060780772
 21
30.8488745775
 12
359.7576405634
 22
30.8488745775
 13
359.7576405634
 23
30.8488745775
  0
SOLID
  8
0
 62
7
  6
CONTINUOUS
 10
362.8217029531
 20
30.9779303754
 11
363.0529530634
 21
31.0747202524
 12
363.1107656736
 22
31.0101931623
 13
363.1107656736
 23
31.0101931623
  0
SOLID
  8
0
 62
7
  6
CONTINUOUS
 10
363.1107656736
 20
31.0101931623
 11
363.3420154531
 21
30.9456660721
 12
362.8217029531
 22
30.9779303754
 13
362.8217029531
 23
30.9779303754
  0
SOLID
  8
0
 62
7
  6
CONTINUOUS
 10
362.9951404531
 20
30.8811389819
 11
362.8217029531
 21
30.9779303754
 12
363.3420154531
 22
30.9456660721
 13
363.3420154531
 23
30.9456660721
  0
SOLID
  8
0
 62
7
  6
CONTINUOUS
 10
363.6888904531
 20
30.9456661188
 11
363.9779528428
 21
31.0101931623
 12
364.2092032839
 22
30.9779303754
 13
364.2092032839
 23
30.9779303754
  0
SOLID
  8
0
 62
7
  6
CONTINUOUS
 10
364.2092032839
 20
30.9779303754
 11
364.1513903428
 21
30.9134032852
 12
363.6888904531
 22
30.9456661188
 13
363.6888904531
 23
30.9456661188
  0
SOLID
  8
0
 62
7
  6
CONTINUOUS
 10
364.1513903428
 20
30.9134032852
 11
362.9951404531
 21
30.8811389819
 12
363.6888904531
 22
30.9456661188
 13
363.6888904531
 23
30.9456661188
  0
SOLID
  8
0
 62
7
  6
CONTINUOUS
 10
362.9951404531
 20
30.8811389819
 11
363.3420154531
 21
30.9456661188
 12
363.6888904531
 22
30.9456661188
 13
363.6888904531
 23
30.9456661188
  0
SOLID
  8
0
 62
7
  6
CONTINUOUS
 10
362.9951404531
 20
30.8811389819
 11
364.1513903428
 21
30.9134032852
 12
363.1107656736
 22
30.8488747093
 13
363.1107656736
 23
30.8488747093
  0
SOLID
  8
0
 62
7
  6
CONTINUOUS
 10
364.1513903428
 20
30.9134032852
 11
363.9779528428
 21
30.8488747093
 12
363.1107656736
 22
30.8488747093
 13
363.1107656736
 23
30.8488747093
  0
SOLID
  8
0
 62
7
  6
CONTINUOUS
 10
363.3420154531
 20
30.816611874
 11
363.1107656736
 21
30.8488747093
 12
363.9779528428
 22
30.8488747093
 13
363.9779528428
 23
30.8488747093
  0
SOLID
  8
0
 62
7
  6
CONTINUOUS
 10
363.9779528428
 20
30.8488747093
 11
363.6888904531
 21
30.816611874
 12
363.3420154531
 22
30.816611874
 13
363.3420154531
 23
30.816611874
  0
SOLID
  8
0
 62
7
  6
CONTINUOUS
 10
368.3717032839
 20
30.9779303754
 11
368.0248282839
 21
30.9456661188
 12
368.2560780634
 22
31.0101931623
 13
368.2560780634
 23
31.0101931623
  0
SOLID
  8
0
 62
7
  6
CONTINUOUS
 10
368.2560780634
 20
31.0101931623
 11
368.0248282839
 21
30.9456661188
 12
368.1982657839
 22
31.0747202992
 13
368.1982657839
 23
31.0747202992
  0
SOLID
  8
0
 62
7
  6
CONTINUOUS
 10
368.0248282839
 20
30.9456661188
 11
367.9092030634
 21
31.0747202992
 12
368.1982657839
 22
31.0747202992
 13
368.1982657839
 23
31.0747202992
  0
SOLID
  8
0
 62
7
  6
CONTINUOUS
 10
368.3717032839
 20
30.9779303754
 11
368.7185782839
 21
30.9456661188
 12
368.0248282839
 22
30.9456661188
 13
368.0248282839
 23
30.9456661188
  0
SOLID
  8
0
 62
7
  6
CONTINUOUS
 10
365.0763907839
 20
30.8166118918
 11
365.0763907839
 21
31.8490498836
 12
365.3654528428
 22
30.8166118918
 13
365.3654528428
 23
31.8490498836
  0
ENDBLK
  8
0
  6
BYBLOCK
 62
0
  0
BLOCK
  8
0
 62
2
  6
CONTINUOUS
  2
SYMBOL_0_BL0
 70
64
 10
241.0459637928
 20
19.6790146053
  0
TEXT
  8
0
 62
7
  6
CONTINUOUS
 10
227.3106676351
 20
19.0524287129
  7
TEXTSTYLE_3
 40
2.7338706658
  1
Ammeraal Beltech
 41
1.0
 51
15.0
 72
0
  0
TEXT
  8
0
 62
7
  6
CONTINUOUS
 10
238.1114684608
 20
16.7788920401
  7
TEXTSTYLE_4
 40
1.0935482663
  1
Innovation & Service in Belting
 41
1.0
 72
0
  0
LINE
  8
0
 62
7
  6
CONTINUOUS
 10
221.2861269837
 20
19.8190220215
 11
222.0642789771
 21
23.4799393191
  0
LINE
  8
0
 62
7
  6
CONTINUOUS
 10
232.1594472669
 20
27.1433332308
 11
222.5520967201
 21
24.0217158095
  0
LINE
  8
0
 62
7
  6
CONTINUOUS
 10
221.511410316
 20
19.1256712184
 11
229.0184855772
 21
12.3662702925
  0
LINE
  8
0
 62
7
  6
CONTINUOUS
 10
221.7739447268
 20
20.3607985118
 11
232.5822140919
 21
23.8726181108
  0
LINE
  8
0
 62
7
  6
CONTINUOUS
 10
232.5780089548
 20
13.522829547
 11
224.132549286
 21
21.1271555887
  0
LINE
  8
0
 62
7
  6
CONTINUOUS
 10
233.0978316746
 20
26.298408115
 11
232.1212721373
 21
21.7040567125
  0
LINE
  8
0
 62
7
  6
CONTINUOUS
 10
231.4214701896
 20
18.4117473987
 11
230.7350219782
 21
15.1822624744
  0
LINE
  8
0
 62
7
  6
CONTINUOUS
 10
233.7789277731
 20
13.9130317247
 11
234.7351593087
 21
18.4117473987
  0
LINE
  8
0
 62
7
  6
CONTINUOUS
 10
235.4349612564
 20
21.7040567125
 11
235.8792030588
 21
23.7940500719
  0
LINE
  8
0
 62
7
  6
CONTINUOUS
 10
229.7315866525
 20
12.2146959798
 11
233.2911100301
 21
13.3712552343
  0
LINE
  8
0
 62
7
  6
CONTINUOUS
 10
232.8725483422
 20
26.9917589181
 11
235.6539197265
 21
24.487400875
  0
ARC
  8
0
 62
7
  6
CONTINUOUS
 10
222.7773800524
 20
23.3283650064
 40
0.7290321776
 50
108.0
 51
168.0
  0
ARC
  8
0
 62
7
  6
CONTINUOUS
 10
232.3847305992
 20
26.4499824277
 40
0.7290321776
 50
348.0
 51
108.0
  0
ARC
  8
0
 62
7
  6
CONTINUOUS
 10
235.1661019835
 20
23.9456243846
 40
0.7290321776
 50
348.0
 51
48.0
  0
ARC
  8
0
 62
7
  6
CONTINUOUS
 10
229.5063033202
 20
12.9080467828
 40
0.7290321776
 50
228.0
 51
288.0
  0
ARC
  8
0
 62
7
  6
CONTINUOUS
 10
221.9992280591
 20
19.6674477088
 40
0.7290321776
 50
108.0
 51
228.0
  0
ARC
  8
0
 62
7
  6
CONTINUOUS
 10
233.0658266978
 20
14.0646060374
 40
0.7290321776
 50
228.0
 51
348.0
  0
ENDBLK
  8
0
  6
BYBLOCK
 62
0
  0
ENDSEC
  0
SECTION
  2
ENTITIES
  0
TEXT
  8
0
 62
5
  6
CONTINUOUS
 10
304.937007874
 20
25.636
  7
TEXTSTYLE_2
 40
2.8
  1
Scale :
 41
0.6
 51
0.000019
 72
0
  0
TEXT
  8
0
 62
5
  6
CONTINUOUS
 10
324.937007874
 20
25.636
  7
TEXTSTYLE_2
 40
2.8
  1
Chain type:
 41
0.6
 51
0.000019
 72
0
  0
INSERT
  8
0
 62
2
  6
CONTINUOUS
  2
SYMBOL_0_BL0
 10
241.0459637928
 20
19.6790146053
  0
INSERT
  8
0
 62
2
  6
CONTINUOUS
  2
SYMBOL_5_BL1
 10
382.3920721743
 20
35.81661148
  0
LINE
  8
0
 62
2
  6
CONTINUOUS
 10
218.937007874
 20
30.0
 11
408.937007874
 21
30.0
  0
LINE
  8
0
 62
2
  6
CONTINUOUS
 10
218.937007874
 20
30.0
 11
218.937007874
 21
10.0
  0
LINE
  8
0
 62
2
  6
CONTINUOUS
 10
218.937007874
 20
10.0
 11
408.937007874
 21
10.0
  0
LINE
  8
0
 62
2
  6
CONTINUOUS
 10
303.937007874
 20
30.0
 11
303.937007874
 21
10.0
  0
LINE
  8
0
 62
2
  6
CONTINUOUS
 10
323.937007874
 20
30.0
 11
323.937007874
 21
10.0
  0
LINE
  8
0
 62
2
  6
CONTINUOUS
 10
408.937007874
 20
30.0
 11
408.937007874
 21
10.0
  0
TEXT
  8
0
 62
5
  6
CONTINUOUS
 10
221.937007874
 20
23.303
  7
TEXTSTYLE_5
 40
1.52
  1
                                                                     Ammeraal Beltech Modular A/S
 41
1.0
 72
0
  0
TEXT
  8
0
 62
5
  6
CONTINUOUS
 10
221.937007874
 20
20.595
  7
TEXTSTYLE_5
 40
1.5
  1
                                                                      Hjulmagervej 21, 7100 Vejle,  DK
 41
1.0
 72
0
  0
TEXT
  8
0
 62
5
  6
CONTINUOUS
 10
221.937007874
 20
17.881
  7
TEXTSTYLE_5
 40
1.495
  1
                                                                      tel: 
 41
1.0
 72
0
  0
TEXT
  8
0
 62
5
  6
CONTINUOUS
 10
266.9239544389
 20
17.881
  7
TEXTSTYLE_5
 40
1.51
  1
+45 75723100     fax: +45 75723348
 41
1.0
 72
0
  0
TEXT
  8
0
 62
5
  6
CONTINUOUS
 10
221.937007874
 20
15.177
  7
TEXTSTYLE_5
 40
1.5
  1
                                                                      admin@unichains.dk  www.unichains.com
 41
1.0
 72
0
  0
TEXT
  8
0
 62
5
  6
CONTINUOUS
 10
308.687007874
 20
13.75
  7
TEXTSTYLE_6
 40
5.0
  1
1:1
 41
0.7
 72
1
 11
313.937007874
 21
13.75
  0
TEXT
  8
0
 62
5
  6
CONTINUOUS
 10
326.937007874
 20
13.75
  7
TEXTSTYLE_7
 40
7.5
  1
uni 2700-HH
 41
0.653030303
 72
0
  0
LINE
  8
0
 62
7
  6
CONTINUOUS
 10
0.0
 20
0.0
 11
0.0
 21
297.0
  0
LINE
  8
0
 62
7
  6
CONTINUOUS
 10
8.937007874
 20
10.0
 11
8.937007874
 21
287.0
  0
LINE
  8
0
 62
7
  6
CONTINUOUS
 10
0.0
 20
0.0
 11
420.0
 21
0.0
  0
LINE
  8
0
 62
7
  6
CONTINUOUS
 10
408.937007874
 20
10.0
 11
8.937007874
 21
10.0
  0
LINE
  8
0
 62
7
  6
CONTINUOUS
 10
218.937007874
 20
30.0
 11
408.937007874
 21
30.0
  0
LINE
  8
0
 62
7
  6
CONTINUOUS
 10
210.0
 20
297.0
 11
210.0
 21
292.0
  0
LINE
  8
0
 62
7
  6
CONTINUOUS
 10
210.0
 20
0.0
 11
210.0
 21
5.0
  0
LINE
  8
0
 62
7
  6
CONTINUOUS
 10
8.937007874
 20
287.0
 11
408.937007874
 21
287.0
  0
LINE
  8
0
 62
7
  6
CONTINUOUS
 10
0.0
 20
297.0
 11
420.0
 21
297.0
  0
LINE
  8
0
 62
7
  6
CONTINUOUS
 10
408.937007874
 20
287.0
 11
408.937007874
 21
10.0
  0
LINE
  8
0
 62
7
  6
CONTINUOUS
 10
420.0
 20
0.0
 11
420.0
 21
297.0
  0
POLYLINE
  8
0
 62
7
  6
CONTINUOUS
 66
1
 70
0
  0
VERTEX
  8
0
 62
7
  6
CONTINUOUS
 10
67.4825050843
 20
216.9238630648
  0
VERTEX
  8
0
 62
7
  6
CONTINUOUS
 10
67.498453016
 20
216.6117571632
  0
VERTEX
  8
0
 62
7
  6
CONTINUOUS
 10
67.687942928
 20
215.8211907503
  0
VERTEX
  8
0
 62
7
  6
CONTINUOUS
 10
67.8576408124
 20
215.4553316715
  0
SEQEND
  0
POLYLINE
  8
0
 62
7
  6
CONTINUOUS
 66
1
 70
0
  0
VERTEX
  8
0
 62
7
  6
CONTINUOUS
 10
69.636533564
 20
214.4961678528
  0
VERTEX
  8
0
 62
7
  6
CONTINUOUS
 10
69.6617067113
 20
213.7769226111
  0
VERTEX
  8
0
 62
7
  6
CONTINUOUS
 10
69.735144367
 20
213.4303156087
  0
VERTEX
  8
0
 62
7
  6
CONTINUOUS
 10
69.9980939028
 20
212.7882950421
  0
SEQEND
  0
LINE
  8
0
 62
7
  6
CONTINUOUS
 10
69.9980939028
 20
212.7882950421
 11
70.0019632311
 21
212.6115134703
  0
LINE
  8
0
 62
7
  6
CONTINUOUS
 10
67.4825
 20
236.494152354
 11
67.4825
 21
216.9115559881
  0
LINE
  8
0
 62
7
  6
CONTINUOUS
 10
67.5150874567
 20
237.3115188307
 11
67.4825000196
 21
236.4944316418
  0
LINE
  8
0
 62
7
  6
CONTINUOUS
 10
67.6208088788
 20
237.8123449288
 11
67.5150872609
 21
237.3115188467
  0
POLYLINE
  8
0
 62
7
  6
CONTINUOUS
 66
1
 70
0
  0
VERTEX
  8
0
 62
7
  6
CONTINUOUS
 10
68.0938508354
 20
238.5657853575
  0
VERTEX
  8
0
 62
7
  6
CONTINUOUS
 10
67.7402591064
 20
238.086316026
  0
VERTEX
  8
0
 62
7
  6
CONTINUOUS
 10
67.6208088788
 20
237.8123449288
  0
SEQEND
  0
LINE
  8
0
 62
7
  6
CONTINUOUS
 10
81.1687540514
 20
228.2764344262
 11
81.1687540514
 21
227.8064344262
  0
LINE
  8
0
 62
7
  6
CONTINUOUS
 10
75.6707904498
 20
246.142724876
 11
68.0945586582
 21
238.5664930845
  0
POLYLINE
  8
0
 62
7
  6
CONTINUOUS
 66
1
 70
0
  0
VERTEX
  8
0
 62
7
  6
CONTINUOUS
 10
69.9980939028
 20
212.7882950421
  0
VERTEX
  8
0
 62
7
  6
CONTINUOUS
 10
70.2594903763
 20
212.6014653285
  0
VERTEX
  8
0
 62
7
  6
CONTINUOUS
 10
70.4931034247
 20
212.4474849006
  0
VERTEX
  8
0
 62
7
  6
CONTINUOUS
 10
70.7123479222
 20
212.2968070945
  0
SEQEND
  0
LINE
  8
0
 62
7
  6
CONTINUOUS
 10
83.4214671232
 20
227.8064344262
 11
83.4218247758
 21
228.2764344262
  0
LINE
  8
CENTER_AXER
 62
2
  6
CENTER
 10
95.8125
 20
191.4764344262
 11
95.8125
 21
265.4764344262
  0
POLYLINE
  8
0
 62
7
  6
CONTINUOUS
 66
1
 70
0
  0
VERTEX
  8
0
 62
7
  6
CONTINUOUS
 10
157.8885210406
 20
203.6724344262
  0
VERTEX
  8
0
 62
7
  6
CONTINUOUS
 10
158.5228762634
 20
203.6822180229
  0
VERTEX
  8
0
 62
7
  6
CONTINUOUS
 10
159.2616232784
 20
203.6913351749
  0
VERTEX
  8
0
 62
7
  6
CONTINUOUS
 10
160.0543891114
 20
203.6991638045
  0
SEQEND
  0
LINE
  8
0
 62
7
  6
CONTINUOUS
 10
173.8567638585
 20
200.6094344262
 11
151.1990438883
 21
200.6094344262
  0
LINE
  8
0
 62
7
  6
CONTINUOUS
 10
150.7566778626
 20
200.6415469198
 11
151.1990473246
 21
200.6094342837
  0
LINE
  8
0
 62
7
  6
CONTINUOUS
 10
108.2031752242
 20
228.2764344262
 11
108.2035328768
 21
227.8064344262
  0
LINE
  8
0
 62
7
  6
CONTINUOUS
 10
110.4729064921
 20
227.8064344262
 11
110.4729064921
 21
228.2764344262
  0
LINE
  8
CURVE_RUNDING
 62
7
  6
CONTINUOUS
 10
108.0934094814
 20
209.0794344262
 11
78.6085999997
 21
209.0794344262
  0
LINE
  8
0
 62
7
  6
CONTINUOUS
 10
108.0934094814
 20
209.0794344262
 11
147.3510214049
 21
209.0794344262
  0
LINE
  8
0
 62
7
  6
CONTINUOUS
 10
78.3493493923
 20
209.0821775866
 11
78.6086
 21
209.0794344262
  0
LINE
  8
0
 62
7
  6
CONTINUOUS
 10
149.9068460649
 20
200.8953522239
 11
150.7564865698
 21
200.6416040501
  0
LINE
  8
0
 62
7
  6
CONTINUOUS
 10
113.4289928148
 20
217.4764344262
 11
115.8125
 21
215.4764344262
  0
LINE
  8
0
 62
7
  6
CONTINUOUS
 10
115.8125
 20
215.4764344262
 11
115.8125
 21
216.4764344262
  0
LINE
  8
0
 62
7
  6
CONTINUOUS
 10
115.8125
 20
218.4764344262
 11
115.8125
 21
219.4764344262
  0
POLYLINE
  8
0
 62
7
  6
CONTINUOUS
 66
1
 70
0
  0
VERTEX
  8
0
 62
7
  6
CONTINUOUS
 10
109.5816216488
 20
224.4866398179
  0
VERTEX
  8
0
 62
7
  6
CONTINUOUS
 10
110.1310514371
 20
225.7084258261
  0
VERTEX
  8
0
 62
7
  6
CONTINUOUS
 10
110.318112728
 20
226.3853345515
  0
VERTEX
  8
0
 62
7
  6
CONTINUOUS
 10
110.4729064921
 20
227.8064344262
  0
SEQEND
  0
LINE
  8
0
 62
7
  6
CONTINUOUS
 10
115.8125
 20
216.4764344262
 11
126.8125
 21
216.4764344262
  0
POLYLINE
  8
0
 62
7
  6
CONTINUOUS
 66
1
 70
0
  0
VERTEX
  8
0
 62
7
  6
CONTINUOUS
 10
89.085123046
 20
221.5274344262
  0
VERTEX
  8
0
 62
7
  6
CONTINUOUS
 10
87.7762551028
 20
221.6853832911
  0
VERTEX
  8
0
 62
7
  6
CONTINUOUS
 10
86.4973021899
 20
222.1824723459
  0
VERTEX
  8
0
 62
7
  6
CONTINUOUS
 10
85.3736123138
 20
222.9998745213
  0
VERTEX
  8
0
 62
7
  6
CONTINUOUS
 10
84.4926525315
 20
224.057954826
  0
VERTEX
  8
0
 62
7
  6
CONTINUOUS
 10
83.8770387058
 20
225.2748337926
  0
VERTEX
  8
0
 62
7
  6
CONTINUOUS
 10
83.5271046695
 20
226.5609842474
  0
VERTEX
  8
0
 62
7
  6
CONTINUOUS
 10
83.4214671232
 20
227.8064344262
  0
SEQEND
  0
POLYLINE
  8
0
 62
7
  6
CONTINUOUS
 66
1
 70
0
  0
VERTEX
  8
0
 62
7
  6
CONTINUOUS
 10
87.0693621235
 20
221.5274344262
  0
VERTEX
  8
0
 62
7
  6
CONTINUOUS
 10
85.6295841743
 20
221.710848089
  0
VERTEX
  8
0
 62
7
  6
CONTINUOUS
 10
84.2707999278
 20
222.2596789053
  0
VERTEX
  8
0
 62
7
  6
CONTINUOUS
 10
83.0863495033
 20
223.1448981408
  0
VERTEX
  8
0
 62
7
  6
CONTINUOUS
 10
82.5883012729
 20
223.6903476408
  0
VERTEX
  8
0
 62
7
  6
CONTINUOUS
 10
81.8012535925
 20
224.9501143594
  0
VERTEX
  8
0
 62
7
  6
CONTINUOUS
 10
81.3256577318
 20
226.3516603447
  0
VERTEX
  8
0
 62
7
  6
CONTINUOUS
 10
81.1687540514
 20
227.8064344262
  0
SEQEND
  0
POLYLINE
  8
0
 62
7
  6
CONTINUOUS
 66
1
 70
0
  0
VERTEX
  8
0
 62
7
  6
CONTINUOUS
 10
147.1114582798
 20
209.0794344616
  0
VERTEX
  8
0
 62
7
  6
CONTINUOUS
 10
147.4767744131
 20
209.011822494
  0
VERTEX
  8
0
 62
7
  6
CONTINUOUS
 10
147.793713678
 20
208.8179742204
  0
VERTEX
  8
0
 62
7
  6
CONTINUOUS
 10
147.9205162069
 20
208.6811589036
  0
VERTEX
  8
0
 62
7
  6
CONTINUOUS
 10
148.0897645864
 20
208.3504283106
  0
VERTEX
  8
0
 62
7
  6
CONTINUOUS
 10
148.1324081791
 20
208.0592811132
  0
SEQEND
  0
POLYLINE
  8
0
 62
7
  6
CONTINUOUS
 66
1
 70
0
  0
VERTEX
  8
0
 62
7
  6
CONTINUOUS
 10
109.5816216488
 20
231.5962290345
  0
VERTEX
  8
0
 62
7
  6
CONTINUOUS
 10
110.1310514371
 20
230.3744430264
  0
VERTEX
  8
0
 62
7
  6
CONTINUOUS
 10
110.318112728
 20
229.697534301
  0
VERTEX
  8
0
 62
7
  6
CONTINUOUS
 10
110.4729064921
 20
228.2764344262
  0
SEQEND
  0
LINE
  8
0
 62
7
  6
CONTINUOUS
 10
126.8125
 20
218.4764344262
 11
115.8125
 21
218.4764344262
  0
LINE
  8
0
 62
7
  6
CONTINUOUS
 10
104.5556378765
 20
221.5274344262
 11
87.0693621235
 21
221.5274344262
  0
LINE
  8
0
 62
7
  6
CONTINUOUS
 10
149.1653558428
 20
201.3820046575
 11
149.9068460649
 21
200.8953522239
  0
LINE
  8
0
 62
7
  6
CONTINUOUS
 10
126.8125
 20
216.4764344262
 11
126.8125
 21
218.4764344262
  0
LINE
  8
0
 62
7
  6
CONTINUOUS
 10
115.8125
 20
219.4764344262
 11
113.4289928148
 21
217.4764344262
  0
POLYLINE
  8
0
 62
7
  6
CONTINUOUS
 66
1
 70
0
  0
VERTEX
  8
0
 62
7
  6
CONTINUOUS
 10
102.539876954
 20
221.5274344262
  0
VERTEX
  8
0
 62
7
  6
CONTINUOUS
 10
103.8487448972
 20
221.6853832911
  0
VERTEX
  8
0
 62
7
  6
CONTINUOUS
 10
105.1276978101
 20
222.1824723459
  0
VERTEX
  8
0
 62
7
  6
CONTINUOUS
 10
106.2513876862
 20
222.9998745213
  0
VERTEX
  8
0
 62
7
  6
CONTINUOUS
 10
107.1323474685
 20
224.057954826
  0
VERTEX
  8
0
 62
7
  6
CONTINUOUS
 10
107.7479612942
 20
225.2748337926
  0
VERTEX
  8
0
 62
7
  6
CONTINUOUS
 10
108.0978953305
 20
226.5609842474
  0
VERTEX
  8
0
 62
7
  6
CONTINUOUS
 10
108.2035328768
 20
227.8064344262
  0
SEQEND
  0
POLYLINE
  8
0
 62
7
  6
CONTINUOUS
 66
1
 70
0
  0
VERTEX
  8
0
 62
7
  6
CONTINUOUS
 10
104.5556378765
 20
221.5274344262
  0
VERTEX
  8
0
 62
7
  6
CONTINUOUS
 10
105.8839113067
 20
221.6830668131
  0
VERTEX
  8
0
 62
7
  6
CONTINUOUS
 10
107.1476527333
 20
222.1488088414
  0
VERTEX
  8
0
 62
7
  6
CONTINUOUS
 10
107.7329237816
 20
222.4929576876
  0
VERTEX
  8
0
 62
7
  6
CONTINUOUS
 10
108.7707903262
 20
223.3824099497
  0
VERTEX
  8
0
 62
7
  6
CONTINUOUS
 10
109.5816216488
 20
224.4866398179
  0
SEQEND
  0
LINE
  8
CENTER_AXER
 62
2
  6
CENTER
 10
45.3125
 20
228.4764344262
 11
209.3125
 21
228.4764344262
  0
LINE
  8
0
 62
7
  6
CONTINUOUS
 10
148.855173182
 20
201.7005765334
 11
149.1653558428
 21
201.3820046575
  0
LINE
  8
CENTER_AXER
 62
2
  6
CENTER
 10
131.2625
 20
191.4764344262
 11
131.2625
 21
265.4764344262
  0
LINE
  8
0
 62
7
  6
CONTINUOUS
 10
104.5556378765
 20
234.5554344262
 11
87.0693621235
 21
234.5554344262
  0
POLYLINE
  8
0
 62
7
  6
CONTINUOUS
 66
1
 70
0
  0
VERTEX
  8
0
 62
7
  6
CONTINUOUS
 10
104.5556378765
 20
234.5554344262
  0
VERTEX
  8
0
 62
7
  6
CONTINUOUS
 10
105.8839113067
 20
234.3998020393
  0
VERTEX
  8
0
 62
7
  6
CONTINUOUS
 10
107.1476527333
 20
233.934060011
  0
VERTEX
  8
0
 62
7
  6
CONTINUOUS
 10
107.7329237816
 20
233.5899111649
  0
VERTEX
  8
0
 62
7
  6
CONTINUOUS
 10
108.7707903262
 20
232.7004589027
  0
VERTEX
  8
0
 62
7
  6
CONTINUOUS
 10
109.5816216488
 20
231.5962290345
  0
SEQEND
  0
POLYLINE
  8
0
 62
7
  6
CONTINUOUS
 66
1
 70
0
  0
VERTEX
  8
0
 62
7
  6
CONTINUOUS
 10
102.5317570116
 20
234.5554344262
  0
VERTEX
  8
0
 62
7
  6
CONTINUOUS
 10
103.843199559
 20
234.3968498102
  0
VERTEX
  8
0
 62
7
  6
CONTINUOUS
 10
105.1237037208
 20
233.8983484843
  0
VERTEX
  8
0
 62
7
  6
CONTINUOUS
 10
106.2478869441
 20
233.0797586527
  0
VERTEX
  8
0
 62
7
  6
CONTINUOUS
 10
107.1285001884
 20
232.0220740353
  0
VERTEX
  8
0
 62
7
  6
CONTINUOUS
 10
107.7441902349
 20
230.8071916266
  0
VERTEX
  8
0
 62
7
  6
CONTINUOUS
 10
108.0954806778
 20
229.5229027908
  0
VERTEX
  8
0
 62
7
  6
CONTINUOUS
 10
108.2031752242
 20
228.2764344262
  0
SEQEND
  0
LINE
  8
0
 62
7
  6
CONTINUOUS
 10
148.3884770179
 20
202.4547874833
 11
148.855173182
 21
201.7005765334
  0
POLYLINE
  8
0
 62
7
  6
CONTINUOUS
 66
1
 70
0
  0
VERTEX
  8
0
 62
7
  6
CONTINUOUS
 10
87.0693621235
 20
234.5554344262
  0
VERTEX
  8
0
 62
7
  6
CONTINUOUS
 10
85.6295841743
 20
234.3720207634
  0
VERTEX
  8
0
 62
7
  6
CONTINUOUS
 10
84.2707999278
 20
233.8231899472
  0
VERTEX
  8
0
 62
7
  6
CONTINUOUS
 10
83.0863495033
 20
232.9379707117
  0
VERTEX
  8
0
 62
7
  6
CONTINUOUS
 10
82.5883012729
 20
232.3925212116
  0
VERTEX
  8
0
 62
7
  6
CONTINUOUS
 10
81.8012535925
 20
231.132754493
  0
VERTEX
  8
0
 62
7
  6
CONTINUOUS
 10
81.3256577318
 20
229.7312085078
  0
VERTEX
  8
0
 62
7
  6
CONTINUOUS
 10
81.1687540514
 20
228.2764344262
  0
SEQEND
  0
POLYLINE
  8
0
 62
7
  6
CONTINUOUS
 66
1
 70
0
  0
VERTEX
  8
0
 62
7
  6
CONTINUOUS
 10
89.0932429884
 20
234.5554344262
  0
VERTEX
  8
0
 62
7
  6
CONTINUOUS
 10
87.781800441
 20
234.3968498102
  0
VERTEX
  8
0
 62
7
  6
CONTINUOUS
 10
86.5012962792
 20
233.8983484843
  0
VERTEX
  8
0
 62
7
  6
CONTINUOUS
 10
85.3771130559
 20
233.0797586527
  0
VERTEX
  8
0
 62
7
  6
CONTINUOUS
 10
84.4964998116
 20
232.0220740353
  0
VERTEX
  8
0
 62
7
  6
CONTINUOUS
 10
83.8808097651
 20
230.8071916266
  0
VERTEX
  8
0
 62
7
  6
CONTINUOUS
 10
83.5295193222
 20
229.5229027908
  0
VERTEX
  8
0
 62
7
  6
CONTINUOUS
 10
83.4218247758
 20
228.2764344262
  0
SEQEND
  0
LINE
  8
0
 62
7
  6
CONTINUOUS
 10
155.7962948101
 20
236.7348186875
 11
185.7309137824
 21
236.7352360457
  0
LINE
  8
0
 62
7
  6
CONTINUOUS
 10
120.7858614939
 20
240.4221344262
 11
153.5103026979
 21
240.4221344262
  0
POLYLINE
  8
0
 62
7
  6
CONTINUOUS
 66
1
 70
0
  0
VERTEX
  8
0
 62
7
  6
CONTINUOUS
 10
185.9155
 20
236.7260969561
  0
VERTEX
  8
0
 62
7
  6
CONTINUOUS
 10
185.894842597
 20
236.7291961681
  0
VERTEX
  8
0
 62
7
  6
CONTINUOUS
 10
185.8329238498
 20
236.7322618732
  0
VERTEX
  8
0
 62
7
  6
CONTINUOUS
 10
185.7309137824
 20
236.7352360457
  0
SEQEND
  0
LINE
  8
0
 62
7
  6
CONTINUOUS
 10
182.5732018501
 20
238.1720977575
 11
183.0233150555
 21
238.1022775517
  0
POLYLINE
  8
0
 62
7
  6
CONTINUOUS
 66
1
 70
0
  0
VERTEX
  8
0
 62
7
  6
CONTINUOUS
 10
155.7963000001
 20
236.6617429823
  0
VERTEX
  8
0
 62
7
  6
CONTINUOUS
 10
155.1428407822
 20
236.7671252241
  0
VERTEX
  8
0
 62
7
  6
CONTINUOUS
 10
154.550862726
 20
237.0813159961
  0
VERTEX
  8
0
 62
7
  6
CONTINUOUS
 10
154.103102384
 20
237.5561974941
  0
VERTEX
  8
0
 62
7
  6
CONTINUOUS
 10
153.8393554271
 20
238.1131891995
  0
VERTEX
  8
0
 62
7
  6
CONTINUOUS
 10
153.7543000001
 20
238.6960156607
  0
SEQEND
  0
LINE
  8
0
 62
7
  6
CONTINUOUS
 10
148.1574356019
 20
203.3110929657
 11
148.3884770179
 21
202.4547874833
  0
LINE
  8
0
 62
7
  6
CONTINUOUS
 10
148.1360482925
 20
203.6698943691
 11
148.1574356019
 21
203.3110929657
  0
LINE
  8
0
 62
7
  6
CONTINUOUS
 10
148.1324084518
 20
208.0592734317
 11
148.1360485944
 21
203.669892351
  0
LINE
  8
0
 62
7
  6
CONTINUOUS
 10
77.6487870722
 20
246.7539970421
 11
76.9254227314
 21
246.72183851
  0
LINE
  8
0
 62
7
  6
CONTINUOUS
 10
77.6487870722
 20
246.7539970421
 11
166.1421214643
 21
246.7544344262
  0
LINE
  8
0
 62
7
  6
CONTINUOUS
 10
166.1517380891
 20
246.7544331224
 11
166.142121466
 21
246.7544344262
  0
POLYLINE
  8
0
 62
7
  6
CONTINUOUS
 66
1
 70
0
  0
VERTEX
  8
0
 62
7
  6
CONTINUOUS
 10
179.14972483
 20
238.7770669056
  0
VERTEX
  8
0
 62
7
  6
CONTINUOUS
 10
179.9802466457
 20
238.6124369916
  0
VERTEX
  8
0
 62
7
  6
CONTINUOUS
 10
180.8532147009
 20
238.4540727587
  0
VERTEX
  8
0
 62
7
  6
CONTINUOUS
 10
182.5732018501
 20
238.1720977575
  0
SEQEND
  0
LINE
  8
0
 62
7
  6
CONTINUOUS
 10
155.7953759185
 20
236.8392814361
 11
155.7962948101
 21
236.7349665217
  0
LINE
  8
0
 62
7
  6
CONTINUOUS
 10
155.7933256358
 20
238.7768887687
 11
155.7953759185
 21
236.8392814361
  0
LINE
  8
0
 62
7
  6
CONTINUOUS
 10
153.7543
 20
239.4011344262
 11
153.7543
 21
238.6960156607
  0
POLYLINE
  8
0
 62
7
  6
CONTINUOUS
 66
1
 70
0
  0
VERTEX
  8
0
 62
7
  6
CONTINUOUS
 10
76.9254214541
 20
246.7218522275
  0
VERTEX
  8
0
 62
7
  6
CONTINUOUS
 10
76.4241264957
 20
246.6159672261
  0
VERTEX
  8
0
 62
7
  6
CONTINUOUS
 10
76.1499411547
 20
246.4963204708
  0
VERTEX
  8
0
 62
7
  6
CONTINUOUS
 10
75.6708939212
 20
246.1428302037
  0
SEQEND
  0
POLYLINE
  8
0
 62
7
  6
CONTINUOUS
 66
1
 70
0
  0
VERTEX
  8
0
 62
7
  6
CONTINUOUS
 10
183.0233150555
 20
238.1022775517
  0
VERTEX
  8
0
 62
7
  6
CONTINUOUS
 10
183.6916780421
 20
237.9071430581
  0
VERTEX
  8
0
 62
7
  6
CONTINUOUS
 10
184.0588910213
 20
237.7276371662
  0
VERTEX
  8
0
 62
7
  6
CONTINUOUS
 10
184.6589987406
 20
237.3392425316
  0
SEQEND
  0
POLYLINE
  8
0
 62
7
  6
CONTINUOUS
 66
1
 70
0
  0
VERTEX
  8
0
 62
7
  6
CONTINUOUS
 10
155.7933256811
 20
239.4011344262
  0
VERTEX
  8
0
 62
7
  6
CONTINUOUS
 10
154.9265616024
 20
239.9747157308
  0
VERTEX
  8
0
 62
7
  6
CONTINUOUS
 10
154.1591912507
 20
240.3187777113
  0
VERTEX
  8
0
 62
7
  6
CONTINUOUS
 10
153.5103026979
 20
240.4221344262
  0
SEQEND
  0
LINE
  8
CENTER_AXER
 62
2
  6
CENTER
 10
166.7125
 20
191.4764344262
 11
166.7125
 21
265.4764344262
  0
LINE
  8
0
 62
7
  6
CONTINUOUS
 10
177.7081368223
 20
243.1630911979
 11
185.9155
 21
237.5223267655
  0
POLYLINE
  8
0
 62
7
  6
CONTINUOUS
 66
1
 70
0
  0
VERTEX
  8
0
 62
7
  6
CONTINUOUS
 10
184.6589986312
 20
237.3392426057
  0
VERTEX
  8
0
 62
7
  6
CONTINUOUS
 10
185.151965428
 20
236.9962342599
  0
VERTEX
  8
0
 62
7
  6
CONTINUOUS
 10
185.501689874
 20
236.8004988271
  0
VERTEX
  8
0
 62
7
  6
CONTINUOUS
 10
185.7309137824
 20
236.7352360457
  0
SEQEND
  0
LINE
  8
0
 62
7
  6
CONTINUOUS
 10
185.9155
 20
212.6681705678
 11
185.9155
 21
237.5223267655
  0
LINE
  8
0
 62
7
  6
CONTINUOUS
 10
176.0226319292
 20
201.5065663555
 11
185.0183680708
 21
210.502302497
  0
POLYLINE
  8
0
 62
7
  6
CONTINUOUS
 66
1
 70
0
  0
VERTEX
  8
0
 62
7
  6
CONTINUOUS
 10
183.0233150555
 20
56.5814392111
  0
VERTEX
  8
0
 62
7
  6
CONTINUOUS
 10
183.6916780421
 20
56.6603259384
  0
VERTEX
  8
0
 62
7
  6
CONTINUOUS
 10
184.0588910213
 20
56.7555245922
  0
VERTEX
  8
0
 62
7
  6
CONTINUOUS
 10
184.6589987406
 20
57.0563982332
  0
SEQEND
  0
POLYLINE
  8
0
 62
7
  6
CONTINUOUS
 66
1
 70
0
  0
VERTEX
  8
0
 62
7
  6
CONTINUOUS
 10
181.7685370715
 20
56.5242394677
  0
VERTEX
  8
0
 62
7
  6
CONTINUOUS
 10
182.1552595016
 20
56.5397016112
  0
VERTEX
  8
0
 62
7
  6
CONTINUOUS
 10
182.5732018501
 20
56.5590492732
  0
VERTEX
  8
0
 62
7
  6
CONTINUOUS
 10
183.0233150555
 20
56.5814392111
  0
SEQEND
  0
POLYLINE
  8
0
 62
7
  6
CONTINUOUS
 66
1
 70
0
  0
VERTEX
  8
0
 62
7
  6
CONTINUOUS
 10
179.14972483
 20
56.4723550097
  0
VERTEX
  8
0
 62
7
  6
CONTINUOUS
 10
179.9802466457
 20
56.4777929837
  0
VERTEX
  8
0
 62
7
  6
CONTINUOUS
 10
180.8532147009
 20
56.4955824581
  0
VERTEX
  8
0
 62
7
  6
CONTINUOUS
 10
181.7685370715
 20
56.5242394677
  0
SEQEND
  0
LINE
  8
0
 62
7
  6
CONTINUOUS
 10
140.5001909523
 20
56.5286507137
 11
179.1497790163
 21
56.4723547666
  0
LINE
  8
CENTER_AXER
 62
2
  6
CENTER
 10
95.8125
 20
51.0625
 11
95.8125
 21
175.0625
  0
POLYLINE
  8
0
 62
7
  6
CONTINUOUS
 66
1
 70
0
  0
VERTEX
  8
0
 62
7
  6
CONTINUOUS
 10
175.7111420311
 20
83.2391997722
  0
VERTEX
  8
0
 62
7
  6
CONTINUOUS
 10
173.121767177
 20
83.2459458222
  0
VERTEX
  8
0
 62
7
  6
CONTINUOUS
 10
170.3586899542
 20
83.2505190625
  0
SEQEND
  0
POLYLINE
  8
0
 62
7
  6
CONTINUOUS
 66
1
 70
0
  0
VERTEX
  8
0
 62
7
  6
CONTINUOUS
 10
170.3586979095
 20
83.2505190525
  0
VERTEX
  8
0
 62
7
  6
CONTINUOUS
 10
168.5383509263
 20
83.3083180064
  0
VERTEX
  8
0
 62
7
  6
CONTINUOUS
 10
166.411414452
 20
83.5188113467
  0
SEQEND
  0
LINE
  8
0
 62
7
  6
CONTINUOUS
 10
107.5661541754
 20
125.1310948298
 11
107.5661541754
 21
100.9939051702
  0
LINE
  8
0
 62
7
  6
CONTINUOUS
 10
112.8088354769
 20
89.1406695516
 11
120.7858614939
 21
89.1406695516
  0
POLYLINE
  8
0
 62
7
  6
CONTINUOUS
 66
1
 70
0
  0
VERTEX
  8
0
 62
7
  6
CONTINUOUS
 10
176.9053639998
 20
83.1651452198
  0
VERTEX
  8
0
 62
7
  6
CONTINUOUS
 10
176.5305433655
 20
83.2035919978
  0
VERTEX
  8
0
 62
7
  6
CONTINUOUS
 10
176.0847556798
 20
83.2311690885
  0
VERTEX
  8
0
 62
7
  6
CONTINUOUS
 10
175.7111412979
 20
83.2391997745
  0
SEQEND
  0
POLYLINE
  8
0
 62
7
  6
CONTINUOUS
 66
1
 70
0
  0
VERTEX
  8
0
 62
7
  6
CONTINUOUS
 10
166.4114144521
 20
83.5188113468
  0
VERTEX
  8
0
 62
7
  6
CONTINUOUS
 10
161.6507457871
 20
84.5752465488
  0
VERTEX
  8
0
 62
7
  6
CONTINUOUS
 10
157.0550119538
 20
86.445335188
  0
VERTEX
  8
0
 62
7
  6
CONTINUOUS
 10
152.839731518
 20
89.0647949891
  0
VERTEX
  8
0
 62
7
  6
CONTINUOUS
 10
149.1267354845
 20
92.3583947681
  0
VERTEX
  8
0
 62
7
  6
CONTINUOUS
 10
147.4926411659
 20
94.2291167701
  0
VERTEX
  8
0
 62
7
  6
CONTINUOUS
 10
144.728002432
 20
98.3511613627
  0
SEQEND
  0
POLYLINE
  8
0
 62
7
  6
CONTINUOUS
 66
1
 70
0
  0
VERTEX
  8
0
 62
7
  6
CONTINUOUS
 10
166.4114108276
 20
83.5187846735
  0
VERTEX
  8
0
 62
7
  6
CONTINUOUS
 10
161.5870162982
 20
84.5951316163
  0
VERTEX
  8
0
 62
7
  6
CONTINUOUS
 10
157.0120000096
 20
86.4672705542
  0
VERTEX
  8
0
 62
7
  6
CONTINUOUS
 10
152.8168339332
 20
89.0818676238
  0
VERTEX
  8
0
 62
7
  6
CONTINUOUS
 10
149.1208846176
 20
92.3645287945
  0
SEQEND
  0
LINE
  8
0
 62
7
  6
CONTINUOUS
 10
137.6304363747
 20
167.6576330143
 11
126.905274934
 21
141.1119269319
  0
LINE
  8
0
 62
7
  6
CONTINUOUS
 10
126.905274934
 20
85.0130730681
 11
137.6304363747
 21
58.4673669857
  0
POLYLINE
  8
0
 62
7
  6
CONTINUOUS
 66
1
 70
0
  0
VERTEX
  8
0
 62
7
  6
CONTINUOUS
 10
149.1208834766
 20
133.7604700052
  0
VERTEX
  8
0
 62
7
  6
CONTINUOUS
 10
152.816832605
 20
137.0431313836
  0
VERTEX
  8
0
 62
7
  6
CONTINUOUS
 10
157.0119985211
 20
139.6577286843
  0
VERTEX
  8
0
 62
7
  6
CONTINUOUS
 10
161.5870146768
 20
141.5298678751
  0
VERTEX
  8
0
 62
7
  6
CONTINUOUS
 10
166.4114108276
 20
142.6062153265
  0
SEQEND
  0
LINE
  8
CENTER_AXER
 62
2
  6
CENTER
 10
45.3125
 20
113.0625
 11
209.3125
 21
113.0625
  0
LINE
  8
CENTER_AXER
 62
2
  6
CENTER
 10
131.2625
 20
118.3125
 11
131.2625
 21
115.0626
  0
LINE
  8
CENTER_AXER
 62
2
  6
CONTINUOUS
 10
131.2625
 20
114.1125
 11
131.2625
 21
112.0125
  0
LINE
  8
CENTER_AXER
 62
2
  6
CENTER
 10
131.2625
 20
107.8125
 11
131.2625
 21
111.0624
  0
POLYLINE
  8
0
 62
7
  6
CONTINUOUS
 66
1
 70
0
  0
VERTEX
  8
0
 62
7
  6
CONTINUOUS
 10
144.1227837561
 20
126.6219723835
  0
VERTEX
  8
0
 62
7
  6
CONTINUOUS
 10
147.4883149691
 20
131.8904835292
  0
VERTEX
  8
0
 62
7
  6
CONTINUOUS
 10
149.1219674901
 20
133.761591361
  0
VERTEX
  8
0
 62
7
  6
CONTINUOUS
 10
152.834180917
 20
137.0560643062
  0
VERTEX
  8
0
 62
7
  6
CONTINUOUS
 10
157.0488242742
 20
139.6765111897
  0
VERTEX
  8
0
 62
7
  6
CONTINUOUS
 10
161.6441049472
 20
141.5476860547
  0
VERTEX
  8
0
 62
7
  6
CONTINUOUS
 10
166.4114144521
 20
142.6061886532
  0
SEQEND
  0
POLYLINE
  8
0
 62
7
  6
CONTINUOUS
 66
1
 70
0
  0
VERTEX
  8
0
 62
7
  6
CONTINUOUS
 10
147.4936342305
 20
94.2278605093
  0
VERTEX
  8
0
 62
7
  6
CONTINUOUS
 10
144.7385096748
 20
98.3322019963
  0
VERTEX
  8
0
 62
7
  6
CONTINUOUS
 10
144.122773011
 20
99.5030282824
  0
SEQEND
  0
LINE
  8
0
 62
7
  6
CONTINUOUS
 10
141.0565
 20
113.5725704286
 11
141.0565
 21
112.5524295714
  0
POLYLINE
  8
0
 62
7
  6
CONTINUOUS
 66
1
 70
0
  0
VERTEX
  8
0
 62
7
  6
CONTINUOUS
 10
141.0565
 20
113.5725704286
  0
VERTEX
  8
0
 62
7
  6
CONTINUOUS
 10
141.4734652761
 20
118.4981222818
  0
VERTEX
  8
0
 62
7
  6
CONTINUOUS
 10
142.7125660736
 20
123.2836906238
  0
VERTEX
  8
0
 62
7
  6
CONTINUOUS
 10
144.1227747371
 20
126.6219751878
  0
SEQEND
  0
POLYLINE
  8
0
 62
7
  6
CONTINUOUS
 66
1
 70
0
  0
VERTEX
  8
0
 62
7
  6
CONTINUOUS
 10
144.1227747371
 20
126.6219751878
  0
VERTEX
  8
0
 62
7
  6
CONTINUOUS
 10
144.7385088702
 20
127.7927965543
  0
VERTEX
  8
0
 62
7
  6
CONTINUOUS
 10
147.4936331947
 20
131.8971381984
  0
SEQEND
  0
POLYLINE
  8
0
 62
7
  6
CONTINUOUS
 66
1
 70
0
  0
VERTEX
  8
0
 62
7
  6
CONTINUOUS
 10
144.122773011
 20
99.5030282824
  0
VERTEX
  8
0
 62
7
  6
CONTINUOUS
 10
142.7125666276
 20
102.8413077992
  0
VERTEX
  8
0
 62
7
  6
CONTINUOUS
 10
141.4734655616
 20
107.626876044
  0
VERTEX
  8
0
 62
7
  6
CONTINUOUS
 10
141.0565
 20
112.5524295714
  0
SEQEND
  0
POLYLINE
  8
0
 62
7
  6
CONTINUOUS
 66
1
 70
0
  0
VERTEX
  8
0
 62
7
  6
CONTINUOUS
 10
176.9053904103
 20
142.9598579845
  0
VERTEX
  8
0
 62
7
  6
CONTINUOUS
 10
178.5061931545
 20
143.2853638548
  0
VERTEX
  8
0
 62
7
  6
CONTINUOUS
 10
179.9901411481
 20
143.8403502324
  0
VERTEX
  8
0
 62
7
  6
CONTINUOUS
 10
181.2805896848
 20
144.5577498784
  0
VERTEX
  8
0
 62
7
  6
CONTINUOUS
 10
182.3858869765
 20
145.3929462413
  0
VERTEX
  8
0
 62
7
  6
CONTINUOUS
 10
183.3184246975
 20
146.3129787383
  0
VERTEX
  8
0
 62
7
  6
CONTINUOUS
 10
184.0885036071
 20
147.290017616
  0
VERTEX
  8
0
 62
7
  6
CONTINUOUS
 10
184.4135951796
 20
147.7887007613
  0
VERTEX
  8
0
 62
7
  6
CONTINUOUS
 10
184.9485866918
 20
148.783301329
  0
VERTEX
  8
0
 62
7
  6
CONTINUOUS
 10
185.3450979289
 20
149.7562033875
  0
VERTEX
  8
0
 62
7
  6
CONTINUOUS
 10
185.5574762157
 20
150.4413404108
  0
SEQEND
  0
LINE
  8
0
 62
7
  6
CONTINUOUS
 10
176.5305187515
 20
142.921405938
 11
176.9053654667
 21
142.9598549581
  0
POLYLINE
  8
0
 62
7
  6
CONTINUOUS
 66
1
 70
0
  0
VERTEX
  8
0
 62
7
  6
CONTINUOUS
 10
166.4114144521
 20
142.6061886532
  0
VERTEX
  8
0
 62
7
  6
CONTINUOUS
 10
168.5383458821
 20
142.816682028
  0
VERTEX
  8
0
 62
7
  6
CONTINUOUS
 10
170.3586883234
 20
142.8744809355
  0
SEQEND
  0
LINE
  8
0
 62
7
  6
CONTINUOUS
 10
120.7858614939
 20
136.9843304484
 11
112.8088354769
 21
136.9843304484
  0
POLYLINE
  8
0
 62
7
  6
CONTINUOUS
 66
1
 70
0
  0
VERTEX
  8
0
 62
7
  6
CONTINUOUS
 10
175.7111407736
 20
142.8858002239
  0
VERTEX
  8
0
 62
7
  6
CONTINUOUS
 10
176.0848420644
 20
142.8938343538
  0
VERTEX
  8
0
 62
7
  6
CONTINUOUS
 10
176.5305187515
 20
142.921405938
  0
SEQEND
  0
POLYLINE
  8
0
 62
7
  6
CONTINUOUS
 66
1
 70
0
  0
VERTEX
  8
0
 62
7
  6
CONTINUOUS
 10
170.3586899906
 20
142.8744809376
  0
VERTEX
  8
0
 62
7
  6
CONTINUOUS
 10
173.1218377702
 20
142.8790543272
  0
VERTEX
  8
0
 62
7
  6
CONTINUOUS
 10
175.7111417892
 20
142.8858002271
  0
SEQEND
  0
LINE
  8
CENTER_AXER
 62
2
  6
CENTER
 10
166.7125
 20
51.0625
 11
166.7125
 21
182.657848812
  0
POLYLINE
  8
0
 62
7
  6
CONTINUOUS
 66
1
 70
0
  0
VERTEX
  8
0
 62
7
  6
CONTINUOUS
 10
185.5574620707
 20
150.4412874145
  0
VERTEX
  8
0
 62
7
  6
CONTINUOUS
 10
185.5042388293
 20
150.2527243601
  0
VERTEX
  8
0
 62
7
  6
CONTINUOUS
 10
185.0509527871
 20
149.0087386908
  0
VERTEX
  8
0
 62
7
  6
CONTINUOUS
 10
184.7068670007
 20
148.3011112835
  0
VERTEX
  8
0
 62
7
  6
CONTINUOUS
 10
183.6662465828
 20
146.7243224868
  0
VERTEX
  8
0
 62
7
  6
CONTINUOUS
 10
182.1257206526
 20
145.1746517042
  0
VERTEX
  8
0
 62
7
  6
CONTINUOUS
 10
180.2273338391
 20
143.9544065477
  0
VERTEX
  8
0
 62
7
  6
CONTINUOUS
 10
178.0529814566
 20
143.1660041475
  0
VERTEX
  8
0
 62
7
  6
CONTINUOUS
 10
176.905295331
 20
142.9602461639
  0
SEQEND
  0
POLYLINE
  8
0
 62
7
  6
CONTINUOUS
 66
1
 70
0
  0
VERTEX
  8
0
 62
7
  6
CONTINUOUS
 10
185.5597320393
 20
75.6753488173
  0
VERTEX
  8
0
 62
7
  6
CONTINUOUS
 10
185.3744682493
 20
76.2833957749
  0
VERTEX
  8
0
 62
7
  6
CONTINUOUS
 10
184.9991806513
 20
77.2320882306
  0
VERTEX
  8
0
 62
7
  6
CONTINUOUS
 10
184.4943694307
 20
78.2018525746
  0
VERTEX
  8
0
 62
7
  6
CONTINUOUS
 10
183.8431509356
 20
79.1735050943
  0
VERTEX
  8
0
 62
7
  6
CONTINUOUS
 10
183.0358013458
 20
80.1163294733
  0
VERTEX
  8
0
 62
7
  6
CONTINUOUS
 10
182.0692448901
 20
80.9958548388
  0
VERTEX
  8
0
 62
7
  6
CONTINUOUS
 10
180.9489674706
 20
81.775333868
  0
VERTEX
  8
0
 62
7
  6
CONTINUOUS
 10
179.6880100498
 20
82.4192646985
  0
VERTEX
  8
0
 62
7
  6
CONTINUOUS
 10
178.307143185
 20
82.8948077453
  0
VERTEX
  8
0
 62
7
  6
CONTINUOUS
 10
176.9053905348
 20
83.1651420004
  0
SEQEND
  0
POLYLINE
  8
0
 62
7
  6
CONTINUOUS
 66
1
 70
0
  0
VERTEX
  8
0
 62
7
  6
CONTINUOUS
 10
185.5597185975
 20
75.6754009685
  0
VERTEX
  8
0
 62
7
  6
CONTINUOUS
 10
185.5047026374
 20
75.870690195
  0
VERTEX
  8
0
 62
7
  6
CONTINUOUS
 10
185.0519107325
 20
77.1140814059
  0
VERTEX
  8
0
 62
7
  6
CONTINUOUS
 10
184.7081946428
 20
77.8214048996
  0
VERTEX
  8
0
 62
7
  6
CONTINUOUS
 10
183.6686290528
 20
79.3977038693
  0
VERTEX
  8
0
 62
7
  6
CONTINUOUS
 10
182.1280310477
 20
80.9484733639
  0
VERTEX
  8
0
 62
7
  6
CONTINUOUS
 10
180.22897149
 20
82.1697799226
  0
VERTEX
  8
0
 62
7
  6
CONTINUOUS
 10
178.053638847
 20
82.9588386512
  0
VERTEX
  8
0
 62
7
  6
CONTINUOUS
 10
176.9052938289
 20
83.1647538916
  0
SEQEND
  0
POLYLINE
  8
0
 62
7
  6
CONTINUOUS
 66
1
 70
0
  0
VERTEX
  8
0
 62
7
  6
CONTINUOUS
 10
185.9155
 20
73.0040203975
  0
VERTEX
  8
0
 62
7
  6
CONTINUOUS
 10
185.9112330725
 20
73.2990198254
  0
VERTEX
  8
0
 62
7
  6
CONTINUOUS
 10
185.8674954927
 20
73.9924637802
  0
VERTEX
  8
0
 62
7
  6
CONTINUOUS
 10
185.7489762746
 20
74.8399348615
  0
VERTEX
  8
0
 62
7
  6
CONTINUOUS
 10
185.5597185975
 20
75.6754009685
  0
SEQEND
  0
LINE
  8
0
 62
7
  6
CONTINUOUS
 10
185.9155
 20
166.5950352676
 11
185.9155
 21
153.1209796025
  0
LINE
  8
0
 62
7
  6
CONTINUOUS
 10
185.9155
 20
73.0040203975
 11
185.9155
 21
59.5299647324
  0
POLYLINE
  8
0
 62
7
  6
CONTINUOUS
 66
1
 70
0
  0
VERTEX
  8
0
 62
7
  6
CONTINUOUS
 10
185.9155
 20
153.1209796025
  0
VERTEX
  8
0
 62
7
  6
CONTINUOUS
 10
185.9112264865
 20
152.8257526494
  0
VERTEX
  8
0
 62
7
  6
CONTINUOUS
 10
185.8674390486
 20
152.1319565119
  0
VERTEX
  8
0
 62
7
  6
CONTINUOUS
 10
185.7487843297
 20
151.2840157112
  0
VERTEX
  8
0
 62
7
  6
CONTINUOUS
 10
185.5574620707
 20
150.4412874145
  0
SEQEND
  0
LINE
  8
0
 62
7
  6
CONTINUOUS
 10
179.1549261881
 20
169.6526527306
 11
140.5001909523
 21
169.5963492863
  0
POLYLINE
  8
0
 62
7
  6
CONTINUOUS
 66
1
 70
0
  0
VERTEX
  8
0
 62
7
  6
CONTINUOUS
 10
181.7681373931
 20
169.6010264041
  0
VERTEX
  8
0
 62
7
  6
CONTINUOUS
 10
180.8549703977
 20
169.6295396698
  0
VERTEX
  8
0
 62
7
  6
CONTINUOUS
 10
179.9838505219
 20
169.6472421626
  0
VERTEX
  8
0
 62
7
  6
CONTINUOUS
 10
179.1548736621
 20
169.6526526541
  0
SEQEND
  0
LINE
  8
0
 62
7
  6
CONTINUOUS
 10
182.1549658431
 20
169.5855978552
 11
181.7681373931
 21
169.6010264041
  0
LINE
  8
0
 62
7
  6
CONTINUOUS
 10
183.0229498267
 20
169.5439543297
 11
182.1549658431
 21
169.5855978552
  0
POLYLINE
  8
0
 62
7
  6
CONTINUOUS
 66
1
 70
0
  0
VERTEX
  8
0
 62
7
  6
CONTINUOUS
 10
184.6565295428
 20
169.0704031858
  0
VERTEX
  8
0
 62
7
  6
CONTINUOUS
 10
184.0588018757
 20
169.3698348459
  0
VERTEX
  8
0
 62
7
  6
CONTINUOUS
 10
183.6944274452
 20
169.464509654
  0
VERTEX
  8
0
 62
7
  6
CONTINUOUS
 10
183.0229498267
 20
169.5439543297
  0
SEQEND
  0
POLYLINE
  8
0
 62
7
  6
CONTINUOUS
 66
1
 70
0
  0
VERTEX
  8
0
 62
7
  6
CONTINUOUS
 10
185.687088845
 20
167.5791768316
  0
VERTEX
  8
0
 62
7
  6
CONTINUOUS
 10
185.772324719
 20
167.4096712547
  0
VERTEX
  8
0
 62
7
  6
CONTINUOUS
 10
185.8118305838
 20
167.1542948957
  0
SEQEND
  0
LINE
  8
0
 62
7
  6
CONTINUOUS
 10
265.2007818613
 20
240.4221344262
 11
265.2007818613
 21
243.6944344262
  0
POLYLINE
  8
0
 62
7
  6
CONTINUOUS
 66
1
 70
0
  0
VERTEX
  8
0
 62
7
  6
CONTINUOUS
 10
265.1785062939
 20
238.7744506261
  0
VERTEX
  8
0
 62
7
  6
CONTINUOUS
 10
265.1797685968
 20
239.9746358137
  0
VERTEX
  8
0
 62
7
  6
CONTINUOUS
 10
265.1808863362
 20
240.3187371558
  0
VERTEX
  8
0
 62
7
  6
CONTINUOUS
 10
265.1818316836
 20
240.4221344262
  0
SEQEND
  0
LINE
  8
0
 62
7
  6
CONTINUOUS
 10
265.1562528121
 20
242.9867799934
 11
265.1444370507
 21
238.7664064401
  0
LINE
  8
0
 62
7
  6
CONTINUOUS
 10
265.1444370238
 20
238.7664126525
 11
265.1444784934
 21
238.7746287968
  0
LINE
  8
0
 62
7
  6
CONTINUOUS
 10
265.2625093498
 20
214.1169384981
 11
265.1715948073
 21
203.6991638045
  0
LINE
  8
0
 62
7
  6
CONTINUOUS
 10
265.1599119785
 20
243.5405309929
 11
265.1562528121
 21
242.9867799934
  0
LINE
  8
0
 62
7
  6
CONTINUOUS
 10
265.1611665473
 20
243.6474451021
 11
265.1599119785
 21
243.5405309929
  0
POLYLINE
  8
0
 62
7
  6
CONTINUOUS
 66
1
 70
0
  0
VERTEX
  8
0
 62
7
  6
CONTINUOUS
 10
265.16452173
 20
243.7938217633
  0
VERTEX
  8
0
 62
7
  6
CONTINUOUS
 10
265.1631937395
 20
243.7520159121
  0
VERTEX
  8
0
 62
7
  6
CONTINUOUS
 10
265.1623590945
 20
243.7169993686
  0
VERTEX
  8
0
 62
7
  6
CONTINUOUS
 10
265.1611665473
 20
243.6474451021
  0
SEQEND
  0
POLYLINE
  8
0
 62
7
  6
CONTINUOUS
 66
1
 70
0
  0
VERTEX
  8
0
 62
7
  6
CONTINUOUS
 10
265.2042683801
 20
244.193333906
  0
VERTEX
  8
0
 62
7
  6
CONTINUOUS
 10
265.176487827
 20
243.9788737952
  0
VERTEX
  8
0
 62
7
  6
CONTINUOUS
 10
265.1674062454
 20
243.8567977319
  0
VERTEX
  8
0
 62
7
  6
CONTINUOUS
 10
265.16452173
 20
243.7938217633
  0
SEQEND
  0
POLYLINE
  8
0
 62
7
  6
CONTINUOUS
 66
1
 70
0
  0
VERTEX
  8
0
 62
7
  6
CONTINUOUS
 10
265.4399648102
 20
244.965604366
  0
VERTEX
  8
0
 62
7
  6
CONTINUOUS
 10
265.1945853641
 20
244.1299178313
  0
VERTEX
  8
0
 62
7
  6
CONTINUOUS
 10
265.1634390093
 20
243.6944344262
  0
SEQEND
  0
POLYLINE
  8
0
 62
7
  6
CONTINUOUS
 66
1
 70
0
  0
VERTEX
  8
0
 62
7
  6
CONTINUOUS
 10
265.4651548426
 20
245.0194618979
  0
VERTEX
  8
0
 62
7
  6
CONTINUOUS
 10
265.3460093641
 20
244.7357365452
  0
VERTEX
  8
0
 62
7
  6
CONTINUOUS
 10
265.2599881651
 20
244.457325095
  0
VERTEX
  8
0
 62
7
  6
CONTINUOUS
 10
265.2042683801
 20
244.193333906
  0
SEQEND
  0
LINE
  8
0
 62
7
  6
CONTINUOUS
 10
265.9108445189
 20
245.6983082721
 11
265.4399648102
 21
244.965604366
  0
POLYLINE
  8
0
 62
7
  6
CONTINUOUS
 66
1
 70
0
  0
VERTEX
  8
0
 62
7
  6
CONTINUOUS
 10
266.0350396608
 20
245.8332670404
  0
VERTEX
  8
0
 62
7
  6
CONTINUOUS
 10
265.8087943216
 20
245.5741208179
  0
VERTEX
  8
0
 62
7
  6
CONTINUOUS
 10
265.6191168117
 20
245.3010701203
  0
VERTEX
  8
0
 62
7
  6
CONTINUOUS
 10
265.4651548426
 20
245.0194618979
  0
SEQEND
  0
LINE
  8
0
 62
7
  6
CONTINUOUS
 10
266.2195640431
 20
246.0070281238
 11
265.9108445189
 21
245.6983082721
  0
LINE
  8
0
 62
7
  6
CONTINUOUS
 10
266.2979936318
 20
246.0727384437
 11
266.0350396608
 21
245.8332670404
  0
POLYLINE
  8
0
 62
7
  6
CONTINUOUS
 66
1
 70
0
  0
VERTEX
  8
0
 62
7
  6
CONTINUOUS
 10
265.2531768178
 20
238.1013054486
  0
VERTEX
  8
0
 62
7
  6
CONTINUOUS
 10
265.2308386212
 20
238.1710664246
  0
VERTEX
  8
0
 62
7
  6
CONTINUOUS
 10
265.2115332923
 20
238.2395714942
  0
VERTEX
  8
0
 62
7
  6
CONTINUOUS
 10
265.1961047434
 20
238.3023223169
  0
SEQEND
  0
POLYLINE
  8
0
 62
7
  6
CONTINUOUS
 66
1
 70
0
  0
VERTEX
  8
0
 62
7
  6
CONTINUOUS
 10
265.1961047434
 20
238.3023223169
  0
VERTEX
  8
0
 62
7
  6
CONTINUOUS
 10
265.1675914778
 20
238.4525401951
  0
VERTEX
  8
0
 62
7
  6
CONTINUOUS
 10
265.1498889849
 20
238.6104479153
  0
VERTEX
  8
0
 62
7
  6
CONTINUOUS
 10
265.1444370238
 20
238.7664126525
  0
SEQEND
  0
LINE
  8
0
 62
7
  6
CONTINUOUS
 10
276.1846311475
 20
231.9419556645
 11
276.1959983385
 21
229.9006573498
  0
LINE
  8
0
 62
7
  6
CONTINUOUS
 10
276.1959983385
 20
229.9006573498
 11
276.2008265536
 21
228.4764344262
  0
LINE
  8
0
 62
7
  6
CONTINUOUS
 10
276.1846311475
 20
235.6443056802
 11
276.1846311475
 21
231.9419556645
  0
LINE
  8
0
 62
7
  6
CONTINUOUS
 10
276.1846311475
 20
225.010913188
 11
276.1846311475
 21
217.2997683319
  0
LINE
  8
0
 62
7
  6
CONTINUOUS
 10
276.1846311475
 20
225.051399398
 11
276.1846311475
 21
231.9359933577
  0
POLYLINE
  8
0
 62
7
  6
CONTINUOUS
 66
1
 70
0
  0
VERTEX
  8
0
 62
7
  6
CONTINUOUS
 10
276.2008265536
 20
228.4764344262
  0
VERTEX
  8
0
 62
7
  6
CONTINUOUS
 10
276.1959998185
 20
227.052449108
  0
VERTEX
  8
0
 62
7
  6
CONTINUOUS
 10
276.1846311475
 20
225.010913188
  0
SEQEND
  0
LINE
  8
0
 62
7
  6
CONTINUOUS
 10
266.9522671719
 20
246.477908332
 11
266.2195640431
 21
246.0070281238
  0
POLYLINE
  8
0
 62
7
  6
CONTINUOUS
 66
1
 70
0
  0
VERTEX
  8
0
 62
7
  6
CONTINUOUS
 10
267.294392938
 20
246.6099944633
  0
VERTEX
  8
0
 62
7
  6
CONTINUOUS
 10
266.9300133056
 20
246.4676420563
  0
VERTEX
  8
0
 62
7
  6
CONTINUOUS
 10
266.5969095714
 20
246.2863545895
  0
VERTEX
  8
0
 62
7
  6
CONTINUOUS
 10
266.2979936318
 20
246.0727384437
  0
SEQEND
  0
POLYLINE
  8
0
 62
7
  6
CONTINUOUS
 66
1
 70
0
  0
VERTEX
  8
0
 62
7
  6
CONTINUOUS
 10
265.7267279617
 20
237.3394491961
  0
VERTEX
  8
0
 62
7
  6
CONTINUOUS
 10
265.4272963017
 20
237.7263525465
  0
VERTEX
  8
0
 62
7
  6
CONTINUOUS
 10
265.3326214935
 20
237.9047951305
  0
VERTEX
  8
0
 62
7
  6
CONTINUOUS
 10
265.2531768178
 20
238.1013054486
  0
SEQEND
  0
LINE
  8
0
 62
7
  6
CONTINUOUS
 10
267.7879528201
 20
246.7232880384
 11
266.9522671719
 21
246.477908332
  0
POLYLINE
  8
CURVE_RUNDING
 62
7
  6
CONTINUOUS
 66
1
 70
0
  0
VERTEX
  8
CURVE_RUNDING
 62
7
  6
CONTINUOUS
 10
293.5088699753
 20
212.0186805522
  0
VERTEX
  8
CURVE_RUNDING
 62
7
  6
CONTINUOUS
 10
293.8761223656
 20
211.0549862772
  0
VERTEX
  8
CURVE_RUNDING
 62
7
  6
CONTINUOUS
 10
294.3957206485
 20
210.2241471789
  0
VERTEX
  8
CURVE_RUNDING
 62
7
  6
CONTINUOUS
 10
294.7042262498
 20
209.8791975095
  0
VERTEX
  8
CURVE_RUNDING
 62
7
  6
CONTINUOUS
 10
295.3895549404
 20
209.3647466346
  0
VERTEX
  8
CURVE_RUNDING
 62
7
  6
CONTINUOUS
 10
296.1143005002
 20
209.1097196895
  0
VERTEX
  8
CURVE_RUNDING
 62
7
  6
CONTINUOUS
 10
296.4667218641
 20
209.0794344809
  0
SEQEND
  0
POLYLINE
  8
0
 62
7
  6
CONTINUOUS
 66
1
 70
0
  0
VERTEX
  8
0
 62
7
  6
CONTINUOUS
 10
293.4046364447
 20
212.82094534
  0
VERTEX
  8
0
 62
7
  6
CONTINUOUS
 10
293.4204169346
 20
212.5079639347
  0
VERTEX
  8
0
 62
7
  6
CONTINUOUS
 10
293.4857722151
 20
212.1149369485
  0
SEQEND
  0
LINE
  8
0
 62
7
  6
CONTINUOUS
 10
293.4046311475
 20
240.900357246
 11
293.4046311475
 21
234.5554344262
  0
LINE
  8
0
 62
7
  6
CONTINUOUS
 10
293.4046311475
 20
221.5274344262
 11
293.4046311475
 21
212.8203089054
  0
LINE
  8
0
 62
7
  6
CONTINUOUS
 10
291.7089682873
 20
203.656396669
 11
291.7344882106
 21
208.5302984588
  0
LINE
  8
0
 62
7
  6
CONTINUOUS
 10
375.2347841174
 20
200.6094344262
 11
354.8232520209
 21
200.6094344262
  0
LINE
  8
0
 62
7
  6
CONTINUOUS
 10
288.6460102742
 20
200.6094344262
 11
268.2344781777
 21
200.6094344262
  0
LINE
  8
CURVE_RUNDING
 62
7
  6
CONTINUOUS
 10
293.5388463871
 20
211.9167936178
 11
293.5088699753
 21
212.0186805522
  0
LINE
  8
0
 62
7
  6
CONTINUOUS
 10
293.4857722151
 20
212.1149369485
 11
293.5388431192
 21
211.9167855982
  0
LINE
  8
0
 62
7
  6
CONTINUOUS
 10
297.3883486056
 20
227.8064344262
 11
297.3883486056
 21
228.2764344262
  0
LINE
  8
0
 62
7
  6
CONTINUOUS
 10
297.4828352431
 20
228.2764344262
 11
297.4828352431
 21
227.8064344262
  0
POLYLINE
  8
0
 62
7
  6
CONTINUOUS
 66
1
 70
0
  0
VERTEX
  8
0
 62
7
  6
CONTINUOUS
 10
291.7344885623
 20
208.5303671736
  0
VERTEX
  8
0
 62
7
  6
CONTINUOUS
 10
291.7730684187
 20
208.769261436
  0
VERTEX
  8
0
 62
7
  6
CONTINUOUS
 10
291.8797836822
 20
208.9654709296
  0
VERTEX
  8
0
 62
7
  6
CONTINUOUS
 10
291.9367441073
 20
209.0229968989
  0
VERTEX
  8
0
 62
7
  6
CONTINUOUS
 10
292.0269324864
 20
209.0756735748
  0
SEQEND
  0
POLYLINE
  8
0
 62
7
  6
CONTINUOUS
 66
1
 70
0
  0
VERTEX
  8
0
 62
7
  6
CONTINUOUS
 10
297.0181369558
 20
224.6760762184
  0
VERTEX
  8
0
 62
7
  6
CONTINUOUS
 10
297.2489073997
 20
225.7084258261
  0
VERTEX
  8
0
 62
7
  6
CONTINUOUS
 10
297.3279530277
 20
226.3853345515
  0
VERTEX
  8
0
 62
7
  6
CONTINUOUS
 10
297.3883486056
 20
227.8064344262
  0
SEQEND
  0
POLYLINE
  8
0
 62
7
  6
CONTINUOUS
 66
1
 70
0
  0
VERTEX
  8
0
 62
7
  6
CONTINUOUS
 10
377.4006521882
 20
203.6724344262
  0
VERTEX
  8
0
 62
7
  6
CONTINUOUS
 10
377.8873944691
 20
203.6822180229
  0
VERTEX
  8
0
 62
7
  6
CONTINUOUS
 10
378.1933537204
 20
203.6913351749
  0
VERTEX
  8
0
 62
7
  6
CONTINUOUS
 10
378.2976674877
 20
203.6991638045
  0
SEQEND
  0
POLYLINE
  8
0
 62
7
  6
CONTINUOUS
 66
1
 70
0
  0
VERTEX
  8
0
 62
7
  6
CONTINUOUS
 10
266.0686101069
 20
203.6724344262
  0
VERTEX
  8
0
 62
7
  6
CONTINUOUS
 10
265.5818926324
 20
203.6822177967
  0
VERTEX
  8
0
 62
7
  6
CONTINUOUS
 10
265.2758955127
 20
203.6913353872
  0
VERTEX
  8
0
 62
7
  6
CONTINUOUS
 10
265.1715948073
 20
203.6991638045
  0
SEQEND
  0
POLYLINE
  8
0
 62
7
  6
CONTINUOUS
 66
1
 70
0
  0
VERTEX
  8
0
 62
7
  6
CONTINUOUS
 10
297.0181369558
 20
231.4067926341
  0
VERTEX
  8
0
 62
7
  6
CONTINUOUS
 10
297.2489073997
 20
230.3744430264
  0
VERTEX
  8
0
 62
7
  6
CONTINUOUS
 10
297.3279530277
 20
229.697534301
  0
VERTEX
  8
0
 62
7
  6
CONTINUOUS
 10
297.3883486056
 20
228.2764344262
  0
SEQEND
  0
POLYLINE
  8
CURVE_RUNDING
 62
7
  6
CONTINUOUS
 66
1
 70
0
  0
VERTEX
  8
CURVE_RUNDING
 62
7
  6
CONTINUOUS
 10
347.002540431
 20
209.0794344809
  0
VERTEX
  8
CURVE_RUNDING
 62
7
  6
CONTINUOUS
 10
347.3549617978
 20
209.10971969
  0
VERTEX
  8
CURVE_RUNDING
 62
7
  6
CONTINUOUS
 10
348.0797073536
 20
209.364746634
  0
VERTEX
  8
CURVE_RUNDING
 62
7
  6
CONTINUOUS
 10
348.7650360442
 20
209.8791975084
  0
VERTEX
  8
CURVE_RUNDING
 62
7
  6
CONTINUOUS
 10
349.0735416456
 20
210.2241471776
  0
VERTEX
  8
CURVE_RUNDING
 62
7
  6
CONTINUOUS
 10
349.5931399288
 20
211.0549862758
  0
SEQEND
  0
POLYLINE
  8
0
 62
7
  6
CONTINUOUS
 66
1
 70
0
  0
VERTEX
  8
0
 62
7
  6
CONTINUOUS
 10
318.7989001308
 20
209.0794241312
  0
VERTEX
  8
0
 62
7
  6
CONTINUOUS
 10
321.7310413221
 20
209.0820505176
  0
VERTEX
  8
0
 62
7
  6
CONTINUOUS
 10
324.6692300251
 20
209.0794241622
  0
SEQEND
  0
LINE
  8
0
 62
7
  6
CONTINUOUS
 10
358.1846610729
 20
209.0794344262
 11
347.0025119913
 21
209.0794344262
  0
LINE
  8
CURVE_RUNDING
 62
7
  6
CONTINUOUS
 10
347.0025119913
 20
209.0794344262
 11
332.3871993257
 21
209.0794344262
  0
LINE
  8
0
 62
7
  6
CONTINUOUS
 10
332.3871993257
 20
209.0794344262
 11
324.6703615808
 21
209.0794344262
  0
LINE
  8
0
 62
7
  6
CONTINUOUS
 10
318.7989007143
 20
209.0794344262
 11
311.0820629694
 21
209.0794344262
  0
LINE
  8
0
 62
7
  6
CONTINUOUS
 10
296.4667503038
 20
209.0794344262
 11
285.2846012222
 21
209.0794344262
  0
LINE
  8
CURVE_RUNDING
 62
7
  6
CONTINUOUS
 10
296.4667503038
 20
209.0794344262
 11
311.0820629694
 21
209.0794344262
  0
LINE
  8
0
 62
7
  6
CONTINUOUS
 10
332.0444570197
 20
212.7882950421
 11
330.6057287419
 21
212.6115134703
  0
POLYLINE
  8
0
 62
7
  6
CONTINUOUS
 66
1
 70
0
  0
VERTEX
  8
0
 62
7
  6
CONTINUOUS
 10
311.4247998993
 20
212.7883025216
  0
VERTEX
  8
0
 62
7
  6
CONTINUOUS
 10
311.9032657492
 20
212.7159860369
  0
VERTEX
  8
0
 62
7
  6
CONTINUOUS
 10
312.3821580219
 20
212.6567435462
  0
VERTEX
  8
0
 62
7
  6
CONTINUOUS
 10
312.8633086773
 20
212.6114133128
  0
SEQEND
  0
POLYLINE
  8
0
 62
7
  6
CONTINUOUS
 66
1
 70
0
  0
VERTEX
  8
0
 62
7
  6
CONTINUOUS
 10
310.8992288524
 20
214.4961770888
  0
VERTEX
  8
0
 62
7
  6
CONTINUOUS
 10
311.0681774465
 20
213.7769071759
  0
VERTEX
  8
0
 62
7
  6
CONTINUOUS
 10
311.1748596701
 20
213.4303110037
  0
VERTEX
  8
0
 62
7
  6
CONTINUOUS
 10
311.4247998993
 20
212.7883025216
  0
SEQEND
  0
LINE
  8
0
 62
7
  6
CONTINUOUS
 10
267.2687937827
 20
216.1408079061
 11
276.8884876914
 21
216.3087202879
  0
LINE
  8
0
 62
7
  6
CONTINUOUS
 10
366.5807746188
 20
216.3087202876
 11
376.2004685124
 21
216.1408079061
  0
LINE
  8
0
 62
7
  6
CONTINUOUS
 10
351.4320601242
 20
209.0794344262
 11
351.4576695608
 21
209.070768865
  0
LINE
  8
0
 62
7
  6
CONTINUOUS
 10
350.0646155133
 20
221.5274344262
 11
348.6817356316
 21
221.5274344262
  0
LINE
  8
0
 62
7
  6
CONTINUOUS
 10
294.7875266635
 20
221.5274344262
 11
293.4046467817
 21
221.5274344262
  0
LINE
  8
0
 62
7
  6
CONTINUOUS
 10
332.0444570197
 20
212.7882950421
 11
332.6465599069
 21
212.4474849006
  0
LINE
  8
0
 62
7
  6
CONTINUOUS
 10
332.6465599069
 20
212.4474849006
 11
332.8391746514
 21
212.2968070945
  0
LINE
  8
CENTER_AXER
 62
2
  6
CENTER
 10
321.7346311475
 20
191.4764344262
 11
321.7346311475
 21
265.4764344262
  0
POLYLINE
  8
0
 62
7
  6
CONTINUOUS
 66
1
 70
0
  0
VERTEX
  8
0
 62
7
  6
CONTINUOUS
 10
294.7875266635
 20
221.5274344262
  0
VERTEX
  8
0
 62
7
  6
CONTINUOUS
 10
295.2979686258
 20
221.710848089
  0
VERTEX
  8
0
 62
7
  6
CONTINUOUS
 10
295.8622895557
 20
222.2596789053
  0
VERTEX
  8
0
 62
7
  6
CONTINUOUS
 10
296.4238825704
 20
223.1448981408
  0
VERTEX
  8
0
 62
7
  6
CONTINUOUS
 10
296.6805003898
 20
223.6903476408
  0
VERTEX
  8
0
 62
7
  6
CONTINUOUS
 10
297.1120018381
 20
224.9501143594
  0
VERTEX
  8
0
 62
7
  6
CONTINUOUS
 10
297.3887834298
 20
226.3516603447
  0
VERTEX
  8
0
 62
7
  6
CONTINUOUS
 10
297.4828352431
 20
227.8064344262
  0
SEQEND
  0
LINE
  8
CENTER_AXER
 62
2
  6
CENTER
 10
259.7346311475
 20
228.4764344262
 11
383.7346311475
 21
228.4764344262
  0
POLYLINE
  8
0
 62
7
  6
CONTINUOUS
 66
1
 70
0
  0
VERTEX
  8
0
 62
7
  6
CONTINUOUS
 10
267.1138178214
 20
236.7355942149
  0
VERTEX
  8
0
 62
7
  6
CONTINUOUS
 10
266.6369056559
 20
236.8069943009
  0
VERTEX
  8
0
 62
7
  6
CONTINUOUS
 10
266.1643426828
 20
237.0030567101
  0
VERTEX
  8
0
 62
7
  6
CONTINUOUS
 10
265.7267278604
 20
237.3394492755
  0
SEQEND
  0
POLYLINE
  8
0
 62
7
  6
CONTINUOUS
 66
1
 70
0
  0
VERTEX
  8
0
 62
7
  6
CONTINUOUS
 10
267.2007020038
 20
236.7345283029
  0
VERTEX
  8
0
 62
7
  6
CONTINUOUS
 10
266.5745883129
 20
236.8387410476
  0
VERTEX
  8
0
 62
7
  6
CONTINUOUS
 10
266.0108005896
 20
237.1303554
  0
VERTEX
  8
0
 62
7
  6
CONTINUOUS
 10
265.563934265
 20
237.5811389314
  0
VERTEX
  8
0
 62
7
  6
CONTINUOUS
 10
265.2772512002
 20
238.1474505496
  0
VERTEX
  8
0
 62
7
  6
CONTINUOUS
 10
265.1785062939
 20
238.7744506261
  0
SEQEND
  0
POLYLINE
  8
0
 62
7
  6
CONTINUOUS
 66
1
 70
0
  0
VERTEX
  8
0
 62
7
  6
CONTINUOUS
 10
294.7875266635
 20
234.5554344262
  0
VERTEX
  8
0
 62
7
  6
CONTINUOUS
 10
295.2979686258
 20
234.3720207634
  0
VERTEX
  8
0
 62
7
  6
CONTINUOUS
 10
295.8622895557
 20
233.8231899472
  0
VERTEX
  8
0
 62
7
  6
CONTINUOUS
 10
296.4238825704
 20
232.9379707117
  0
VERTEX
  8
0
 62
7
  6
CONTINUOUS
 10
296.6805003898
 20
232.3925212116
  0
VERTEX
  8
0
 62
7
  6
CONTINUOUS
 10
297.1120018381
 20
231.132754493
  0
VERTEX
  8
0
 62
7
  6
CONTINUOUS
 10
297.3887834298
 20
229.7312085078
  0
VERTEX
  8
0
 62
7
  6
CONTINUOUS
 10
297.4828352431
 20
228.2764344262
  0
SEQEND
  0
POLYLINE
  8
0
 62
7
  6
CONTINUOUS
 66
1
 70
0
  0
VERTEX
  8
0
 62
7
  6
CONTINUOUS
 10
348.6817356316
 20
234.5554344262
  0
VERTEX
  8
0
 62
7
  6
CONTINUOUS
 10
348.1712936692
 20
234.3720207634
  0
VERTEX
  8
0
 62
7
  6
CONTINUOUS
 10
347.6069727394
 20
233.8231899472
  0
VERTEX
  8
0
 62
7
  6
CONTINUOUS
 10
347.0453797247
 20
232.9379707117
  0
VERTEX
  8
0
 62
7
  6
CONTINUOUS
 10
346.7887619053
 20
232.3925212116
  0
VERTEX
  8
0
 62
7
  6
CONTINUOUS
 10
346.357260457
 20
231.132754493
  0
VERTEX
  8
0
 62
7
  6
CONTINUOUS
 10
346.0804788653
 20
229.7312085078
  0
VERTEX
  8
0
 62
7
  6
CONTINUOUS
 10
345.986427052
 20
228.2764344262
  0
SEQEND
  0
POLYLINE
  8
0
 62
7
  6
CONTINUOUS
 66
1
 70
0
  0
VERTEX
  8
0
 62
7
  6
CONTINUOUS
 10
348.6817356316
 20
221.5274344262
  0
VERTEX
  8
0
 62
7
  6
CONTINUOUS
 10
348.1712936692
 20
221.710848089
  0
VERTEX
  8
0
 62
7
  6
CONTINUOUS
 10
347.6069727394
 20
222.2596789053
  0
VERTEX
  8
0
 62
7
  6
CONTINUOUS
 10
347.0453797247
 20
223.1448981408
  0
VERTEX
  8
0
 62
7
  6
CONTINUOUS
 10
346.7887619053
 20
223.6903476408
  0
VERTEX
  8
0
 62
7
  6
CONTINUOUS
 10
346.357260457
 20
224.9501143594
  0
VERTEX
  8
0
 62
7
  6
CONTINUOUS
 10
346.0804788653
 20
226.3516603447
  0
VERTEX
  8
0
 62
7
  6
CONTINUOUS
 10
345.986427052
 20
227.8064344262
  0
SEQEND
  0
POLYLINE
  8
0
 62
7
  6
CONTINUOUS
 66
1
 70
0
  0
VERTEX
  8
0
 62
7
  6
CONTINUOUS
 10
351.4576695608
 20
209.070768865
  0
VERTEX
  8
0
 62
7
  6
CONTINUOUS
 10
351.5760751131
 20
208.9809200038
  0
VERTEX
  8
0
 62
7
  6
CONTINUOUS
 10
351.6902436846
 20
208.7863069369
  0
VERTEX
  8
0
 62
7
  6
CONTINUOUS
 10
351.73477398
 20
208.5303185387
  0
SEQEND
  0
POLYLINE
  8
0
 62
7
  6
CONTINUOUS
 66
1
 70
0
  0
VERTEX
  8
0
 62
7
  6
CONTINUOUS
 10
311.4247998993
 20
212.7883025216
  0
VERTEX
  8
0
 62
7
  6
CONTINUOUS
 10
310.8520195133
 20
212.4647409488
  0
VERTEX
  8
0
 62
7
  6
CONTINUOUS
 10
310.6365868194
 20
212.2969054174
  0
SEQEND
  0
LINE
  8
0
 62
7
  6
CONTINUOUS
 10
367.8929314254
 20
236.6617429823
 11
376.3144023473
 21
236.7352360457
  0
LINE
  8
0
 62
7
  6
CONTINUOUS
 10
350.0646155133
 20
234.5554344262
 11
348.6817356316
 21
234.5554344262
  0
LINE
  8
0
 62
7
  6
CONTINUOUS
 10
294.7875266635
 20
234.5554344262
 11
293.4046467817
 21
234.5554344262
  0
LINE
  8
0
 62
7
  6
CONTINUOUS
 10
267.1138178214
 20
236.7355942149
 11
275.5763308697
 21
236.6617429823
  0
POLYLINE
  8
0
 62
7
  6
CONTINUOUS
 66
1
 70
0
  0
VERTEX
  8
0
 62
7
  6
CONTINUOUS
 10
332.5701136528
 20
214.4961678528
  0
VERTEX
  8
0
 62
7
  6
CONTINUOUS
 10
332.4010995618
 20
213.7769226111
  0
VERTEX
  8
0
 62
7
  6
CONTINUOUS
 10
332.2944200819
 20
213.4303156087
  0
VERTEX
  8
0
 62
7
  6
CONTINUOUS
 10
332.0444570197
 20
212.7882950421
  0
SEQEND
  0
LINE
  8
0
 62
7
  6
CONTINUOUS
 10
265.1818316836
 20
240.4221344262
 11
293.4046311475
 21
240.4221344262
  0
LINE
  8
0
 62
7
  6
CONTINUOUS
 10
350.0646311475
 20
240.4221344262
 11
378.2874306115
 21
240.4221344262
  0
LINE
  8
0
 62
7
  6
CONTINUOUS
 10
268.2234357632
 20
246.7544344262
 11
375.2458265318
 21
246.7544344262
  0
POLYLINE
  8
0
 62
7
  6
CONTINUOUS
 66
1
 70
0
  0
VERTEX
  8
0
 62
7
  6
CONTINUOUS
 10
346.4511253393
 20
231.4067926341
  0
VERTEX
  8
0
 62
7
  6
CONTINUOUS
 10
346.2203548954
 20
230.3744430264
  0
VERTEX
  8
0
 62
7
  6
CONTINUOUS
 10
346.1413092674
 20
229.697534301
  0
VERTEX
  8
0
 62
7
  6
CONTINUOUS
 10
346.0809136895
 20
228.2764344262
  0
SEQEND
  0
POLYLINE
  8
0
 62
7
  6
CONTINUOUS
 66
1
 70
0
  0
VERTEX
  8
0
 62
7
  6
CONTINUOUS
 10
298.093176042
 20
246.7544340822
  0
VERTEX
  8
0
 62
7
  6
CONTINUOUS
 10
296.9600434873
 20
246.5905095317
  0
VERTEX
  8
0
 62
7
  6
CONTINUOUS
 10
295.8809558578
 20
246.1034824908
  0
VERTEX
  8
0
 62
7
  6
CONTINUOUS
 10
294.9357598382
 20
245.3160103339
  0
VERTEX
  8
0
 62
7
  6
CONTINUOUS
 10
294.5345447475
 20
244.8223263516
  0
VERTEX
  8
0
 62
7
  6
CONTINUOUS
 10
293.9060952575
 20
243.6707533659
  0
VERTEX
  8
0
 62
7
  6
CONTINUOUS
 10
293.526718134
 20
242.3369620966
  0
VERTEX
  8
0
 62
7
  6
CONTINUOUS
 10
293.4046311479
 20
240.9004039314
  0
SEQEND
  0
LINE
  8
0
 62
7
  6
CONTINUOUS
 10
268.098872222
 20
246.7518980994
 11
267.7339454362
 21
246.7150307484
  0
POLYLINE
  8
0
 62
7
  6
CONTINUOUS
 66
1
 70
0
  0
VERTEX
  8
0
 62
7
  6
CONTINUOUS
 10
268.2607786152
 20
246.7544344262
  0
VERTEX
  8
0
 62
7
  6
CONTINUOUS
 10
267.8252956834
 20
246.7232880384
  0
VERTEX
  8
0
 62
7
  6
CONTINUOUS
 10
266.9896100497
 20
246.4779083321
  0
VERTEX
  8
0
 62
7
  6
CONTINUOUS
 10
266.2569069253
 20
246.0070281239
  0
VERTEX
  8
0
 62
7
  6
CONTINUOUS
 10
265.9481873999
 20
245.6983082723
  0
VERTEX
  8
0
 62
7
  6
CONTINUOUS
 10
265.4773076833
 20
244.9656043661
  0
VERTEX
  8
0
 62
7
  6
CONTINUOUS
 10
265.231928224
 20
244.1299178314
  0
VERTEX
  8
0
 62
7
  6
CONTINUOUS
 10
265.2007818613
 20
243.6944344262
  0
SEQEND
  0
LINE
  8
0
 62
7
  6
CONTINUOUS
 10
268.2234357632
 20
246.7544344262
 11
267.7879528201
 21
246.7232880384
  0
LINE
  8
0
 62
7
  6
CONTINUOUS
 10
268.2233901213
 20
246.7544344259
 11
267.9400289325
 21
246.74128223
  0
LINE
  8
0
 62
7
  6
CONTINUOUS
 10
268.2233899732
 20
246.7544344262
 11
268.098872222
 21
246.7518980994
  0
LINE
  8
0
 62
7
  6
CONTINUOUS
 10
375.3842497692
 20
246.7513019797
 11
375.2458265318
 21
246.7544344262
  0
LINE
  8
0
 62
7
  6
CONTINUOUS
 10
375.4561052176
 20
246.7472008406
 11
375.3767191342
 21
246.7516337476
  0
POLYLINE
  8
0
 62
7
  6
CONTINUOUS
 66
1
 70
0
  0
VERTEX
  8
0
 62
7
  6
CONTINUOUS
 10
375.2084836799
 20
246.7544344262
  0
VERTEX
  8
0
 62
7
  6
CONTINUOUS
 10
375.6439666181
 20
246.7232880386
  0
VERTEX
  8
0
 62
7
  6
CONTINUOUS
 10
376.4796522674
 20
246.4779083332
  0
VERTEX
  8
0
 62
7
  6
CONTINUOUS
 10
377.2123554
 20
246.0070281252
  0
VERTEX
  8
0
 62
7
  6
CONTINUOUS
 10
377.5210749248
 20
245.6983082733
  0
VERTEX
  8
0
 62
7
  6
CONTINUOUS
 10
377.9919546317
 20
244.9656043663
  0
VERTEX
  8
0
 62
7
  6
CONTINUOUS
 10
378.2373340767
 20
244.129917831
  0
VERTEX
  8
0
 62
7
  6
CONTINUOUS
 10
378.2684804338
 20
243.6944344262
  0
SEQEND
  0
LINE
  8
0
 62
7
  6
CONTINUOUS
 10
375.5294565146
 20
246.7412613624
 11
375.4561052176
 21
246.7472008406
  0
LINE
  8
0
 62
7
  6
CONTINUOUS
 10
375.7353088107
 20
246.7150320525
 11
375.3842497692
 21
246.7513019797
  0
POLYLINE
  8
0
 62
7
  6
CONTINUOUS
 66
1
 70
0
  0
VERTEX
  8
0
 62
7
  6
CONTINUOUS
 10
346.4511253393
 20
224.6760762184
  0
VERTEX
  8
0
 62
7
  6
CONTINUOUS
 10
346.2203548954
 20
225.7084258261
  0
VERTEX
  8
0
 62
7
  6
CONTINUOUS
 10
346.1413092674
 20
226.3853345515
  0
VERTEX
  8
0
 62
7
  6
CONTINUOUS
 10
346.0809136895
 20
227.8064344262
  0
SEQEND
  0
LINE
  8
0
 62
7
  6
CONTINUOUS
 10
345.986427052
 20
228.2764344262
 11
345.986427052
 21
227.8064344262
  0
LINE
  8
0
 62
7
  6
CONTINUOUS
 10
346.0809136895
 20
227.8064344262
 11
346.0809136895
 21
228.2764344262
  0
LINE
  8
0
 62
7
  6
CONTINUOUS
 10
350.0646311475
 20
240.9003471115
 11
350.0646311475
 21
234.5554344262
  0
LINE
  8
0
 62
7
  6
CONTINUOUS
 10
350.0646311475
 20
221.5274344262
 11
350.0646311475
 21
212.8208637519
  0
POLYLINE
  8
0
 62
7
  6
CONTINUOUS
 66
1
 70
0
  0
VERTEX
  8
0
 62
7
  6
CONTINUOUS
 10
377.7407330093
 20
237.3392426057
  0
VERTEX
  8
0
 62
7
  6
CONTINUOUS
 10
377.2906356502
 20
236.9962342599
  0
VERTEX
  8
0
 62
7
  6
CONTINUOUS
 10
376.8046195075
 20
236.8004988271
  0
VERTEX
  8
0
 62
7
  6
CONTINUOUS
 10
376.3144023473
 20
236.7352360457
  0
SEQEND
  0
POLYLINE
  8
0
 62
7
  6
CONTINUOUS
 66
1
 70
0
  0
VERTEX
  8
0
 62
7
  6
CONTINUOUS
 10
267.7339454362
 20
246.7150307484
  0
VERTEX
  8
0
 62
7
  6
CONTINUOUS
 10
267.6858628109
 20
246.7068452305
  0
VERTEX
  8
0
 62
7
  6
CONTINUOUS
 10
267.294392938
 20
246.6099944633
  0
SEQEND
  0
LINE
  8
0
 62
7
  6
CONTINUOUS
 10
267.9400289325
 20
246.74128223
 11
267.734019786
 21
246.7150427957
  0
LINE
  8
0
 62
7
  6
CONTINUOUS
 10
375.6051086345
 20
246.7332694403
 11
375.5294565146
 21
246.7412613624
  0
LINE
  8
0
 62
7
  6
CONTINUOUS
 10
375.4561052176
 20
246.7472008406
 11
375.681309475
 21
246.7232880384
  0
POLYLINE
  8
0
 62
7
  6
CONTINUOUS
 66
1
 70
0
  0
VERTEX
  8
0
 62
7
  6
CONTINUOUS
 10
350.0646311472
 20
240.9003937674
  0
VERTEX
  8
0
 62
7
  6
CONTINUOUS
 10
349.9425737425
 20
242.3367880728
  0
VERTEX
  8
0
 62
7
  6
CONTINUOUS
 10
349.5633151205
 20
243.6703821695
  0
VERTEX
  8
0
 62
7
  6
CONTINUOUS
 10
348.9350018
 20
244.8219241375
  0
VERTEX
  8
0
 62
7
  6
CONTINUOUS
 10
348.5338052954
 20
245.3156793295
  0
VERTEX
  8
0
 62
7
  6
CONTINUOUS
 10
347.5885152238
 20
246.1033493864
  0
VERTEX
  8
0
 62
7
  6
CONTINUOUS
 10
346.5092502978
 20
246.5904993164
  0
VERTEX
  8
0
 62
7
  6
CONTINUOUS
 10
345.3760682477
 20
246.7544340883
  0
SEQEND
  0
LINE
  8
0
 62
7
  6
CONTINUOUS
 10
351.7347740845
 20
208.5302984589
 11
351.7602940078
 21
203.656396669
  0
POLYLINE
  8
0
 62
7
  6
CONTINUOUS
 66
1
 70
0
  0
VERTEX
  8
0
 62
7
  6
CONTINUOUS
 10
349.9304288928
 20
211.9168344518
  0
VERTEX
  8
0
 62
7
  6
CONTINUOUS
 10
350.0048271275
 20
212.2138171126
  0
VERTEX
  8
0
 62
7
  6
CONTINUOUS
 10
350.0571342471
 20
212.6051156141
  0
VERTEX
  8
0
 62
7
  6
CONTINUOUS
 10
350.0646309435
 20
212.8209806917
  0
SEQEND
  0
POLYLINE
  8
CURVE_RUNDING
 62
7
  6
CONTINUOUS
 66
1
 70
0
  0
VERTEX
  8
CURVE_RUNDING
 62
7
  6
CONTINUOUS
 10
349.5931399288
 20
211.0549862758
  0
VERTEX
  8
CURVE_RUNDING
 62
7
  6
CONTINUOUS
 10
349.9603923194
 20
212.0186805509
  0
VERTEX
  8
CURVE_RUNDING
 62
7
  6
CONTINUOUS
 10
349.9304312307
 20
211.9168441203
  0
SEQEND
  0
LINE
  8
0
 62
7
  6
CONTINUOUS
 10
375.681309475
 20
246.7232880384
 11
376.5169951232
 21
246.477908332
  0
POLYLINE
  8
0
 62
7
  6
CONTINUOUS
 66
1
 70
0
  0
VERTEX
  8
0
 62
7
  6
CONTINUOUS
 10
376.6171665824
 20
246.4299511563
  0
VERTEX
  8
0
 62
7
  6
CONTINUOUS
 10
376.2358277511
 20
246.5898635914
  0
VERTEX
  8
0
 62
7
  6
CONTINUOUS
 10
375.8227555709
 20
246.6995562146
  0
VERTEX
  8
0
 62
7
  6
CONTINUOUS
 10
375.7353088107
 20
246.7150320525
  0
SEQEND
  0
LINE
  8
0
 62
7
  6
CONTINUOUS
 10
367.2846311475
 20
225.010913188
 11
367.2732622649
 21
227.0524831021
  0
LINE
  8
0
 62
7
  6
CONTINUOUS
 10
367.2732622649
 20
227.0524831021
 11
367.2684357414
 21
228.4764344262
  0
LINE
  8
0
 62
7
  6
CONTINUOUS
 10
367.2846311475
 20
235.6443056802
 11
367.2846311475
 21
231.9419556645
  0
LINE
  8
0
 62
7
  6
CONTINUOUS
 10
367.2846311475
 20
225.010913188
 11
367.2846311475
 21
217.2997683319
  0
LINE
  8
0
 62
7
  6
CONTINUOUS
 10
367.2846311475
 20
225.051399398
 11
367.2846311475
 21
231.935953118
  0
POLYLINE
  8
0
 62
7
  6
CONTINUOUS
 66
1
 70
0
  0
VERTEX
  8
0
 62
7
  6
CONTINUOUS
 10
367.2684357414
 20
228.4764344262
  0
VERTEX
  8
0
 62
7
  6
CONTINUOUS
 10
367.2732637457
 20
229.9006234853
  0
VERTEX
  8
0
 62
7
  6
CONTINUOUS
 10
367.2846311475
 20
231.9419556645
  0
SEQEND
  0
LINE
  8
0
 62
7
  6
CONTINUOUS
 10
376.5169951232
 20
246.477908332
 11
377.249698252
 21
246.0070281238
  0
POLYLINE
  8
0
 62
7
  6
CONTINUOUS
 66
1
 70
0
  0
VERTEX
  8
0
 62
7
  6
CONTINUOUS
 10
378.2156919364
 20
238.1022775517
  0
VERTEX
  8
0
 62
7
  6
CONTINUOUS
 10
378.1368052091
 20
237.9071430581
  0
VERTEX
  8
0
 62
7
  6
CONTINUOUS
 10
378.0416065554
 20
237.7276371662
  0
VERTEX
  8
0
 62
7
  6
CONTINUOUS
 10
377.7407329144
 20
237.3392425316
  0
SEQEND
  0
POLYLINE
  8
0
 62
7
  6
CONTINUOUS
 66
1
 70
0
  0
VERTEX
  8
0
 62
7
  6
CONTINUOUS
 10
377.267931653
 20
245.9911182178
  0
VERTEX
  8
0
 62
7
  6
CONTINUOUS
 10
376.9622028484
 20
246.2277514536
  0
VERTEX
  8
0
 62
7
  6
CONTINUOUS
 10
376.6171665824
 20
246.4299511563
  0
SEQEND
  0
POLYLINE
  8
0
 62
7
  6
CONTINUOUS
 66
1
 70
0
  0
VERTEX
  8
0
 62
7
  6
CONTINUOUS
 10
378.2907548007
 20
238.7768887687
  0
VERTEX
  8
0
 62
7
  6
CONTINUOUS
 10
378.1919130855
 20
238.1492739866
  0
VERTEX
  8
0
 62
7
  6
CONTINUOUS
 10
377.9049489586
 20
237.5824071611
  0
VERTEX
  8
0
 62
7
  6
CONTINUOUS
 10
377.4576445294
 20
237.1311816852
  0
VERTEX
  8
0
 62
7
  6
CONTINUOUS
 10
376.8933040723
 20
236.8392814361
  0
VERTEX
  8
0
 62
7
  6
CONTINUOUS
 10
376.2665765435
 20
236.7349665217
  0
SEQEND
  0
POLYLINE
  8
0
 62
7
  6
CONTINUOUS
 66
1
 70
0
  0
VERTEX
  8
0
 62
7
  6
CONTINUOUS
 10
378.2728916799
 20
238.3034072791
  0
VERTEX
  8
0
 62
7
  6
CONTINUOUS
 10
378.2574295363
 20
238.2406401881
  0
VERTEX
  8
0
 62
7
  6
CONTINUOUS
 10
378.2380818743
 20
238.1720977575
  0
VERTEX
  8
0
 62
7
  6
CONTINUOUS
 10
378.2156919364
 20
238.1022775517
  0
SEQEND
  0
LINE
  8
0
 62
7
  6
CONTINUOUS
 10
377.249698252
 20
246.0070281238
 11
377.5584177762
 21
245.6983082721
  0
POLYLINE
  8
0
 62
7
  6
CONTINUOUS
 66
1
 70
0
  0
VERTEX
  8
0
 62
7
  6
CONTINUOUS
 10
377.7561218183
 20
245.4443344756
  0
VERTEX
  8
0
 62
7
  6
CONTINUOUS
 10
377.5327173526
 20
245.7276154548
  0
VERTEX
  8
0
 62
7
  6
CONTINUOUS
 10
377.267931653
 20
245.9911182178
  0
SEQEND
  0
POLYLINE
  8
0
 62
7
  6
CONTINUOUS
 66
1
 70
0
  0
VERTEX
  8
0
 62
7
  6
CONTINUOUS
 10
378.304145364
 20
243.8090936274
  0
VERTEX
  8
0
 62
7
  6
CONTINUOUS
 10
378.2999864646
 20
243.8879841286
  0
VERTEX
  8
0
 62
7
  6
CONTINUOUS
 10
378.2863168983
 20
244.0408432302
  0
SEQEND
  0
POLYLINE
  8
0
 62
7
  6
CONTINUOUS
 66
1
 70
0
  0
VERTEX
  8
0
 62
7
  6
CONTINUOUS
 10
378.3067485132
 20
243.7241886002
  0
VERTEX
  8
0
 62
7
  6
CONTINUOUS
 10
378.3058013054
 20
243.7615481033
  0
VERTEX
  8
0
 62
7
  6
CONTINUOUS
 10
378.304145364
 20
243.8090936274
  0
SEQEND
  0
LINE
  8
0
 62
7
  6
CONTINUOUS
 10
378.3080240109
 20
243.6524361107
 11
378.3067485132
 21
243.7241886002
  0
LINE
  8
0
 62
7
  6
CONTINUOUS
 10
378.3098520275
 20
243.4866495743
 11
378.3080240109
 21
243.6524361107
  0
LINE
  8
0
 62
7
  6
CONTINUOUS
 10
378.2883757651
 20
240.3187777113
 11
378.2874306115
 21
240.4221344262
  0
LINE
  8
0
 62
7
  6
CONTINUOUS
 10
378.2976674877
 20
203.6991638045
 11
378.2067529453
 21
214.1169384981
  0
LINE
  8
0
 62
7
  6
CONTINUOUS
 10
378.3145902316
 20
242.6244808484
 11
378.3098520275
 21
243.4866495743
  0
LINE
  8
0
 62
7
  6
CONTINUOUS
 10
378.2907560012
 20
239.4011344262
 11
378.2883757651
 21
240.3187777113
  0
LINE
  8
0
 62
7
  6
CONTINUOUS
 10
378.3248175093
 20
238.7688711907
 11
378.3199663681
 21
240.7298180905
  0
LINE
  8
0
 62
7
  6
CONTINUOUS
 10
378.3199663681
 20
240.7298180905
 11
378.3145902316
 21
242.6244808484
  0
LINE
  8
0
 62
7
  6
CONTINUOUS
 10
378.3201418689
 20
240.6477501659
 11
378.3201454948
 21
240.6412650607
  0
LINE
  8
0
 62
7
  6
CONTINUOUS
 10
378.2684804338
 20
243.6944344262
 11
378.2684804338
 21
240.4221344262
  0
LINE
  8
0
 62
7
  6
CONTINUOUS
 10
378.2907560012
 20
239.4011344262
 11
378.2907560011
 21
238.7768887687
  0
POLYLINE
  8
0
 62
7
  6
CONTINUOUS
 66
1
 70
0
  0
VERTEX
  8
0
 62
7
  6
CONTINUOUS
 10
378.3248175093
 20
238.7688711907
  0
VERTEX
  8
0
 62
7
  6
CONTINUOUS
 10
378.3193381639
 20
238.6124369916
  0
VERTEX
  8
0
 62
7
  6
CONTINUOUS
 10
378.3015486895
 20
238.4540727587
  0
VERTEX
  8
0
 62
7
  6
CONTINUOUS
 10
378.2728916799
 20
238.3034072791
  0
SEQEND
  0
LINE
  8
0
 62
7
  6
CONTINUOUS
 10
377.5584177762
 20
245.6983082721
 11
378.0292974849
 21
244.965604366
  0
POLYLINE
  8
0
 62
7
  6
CONTINUOUS
 66
1
 70
0
  0
VERTEX
  8
0
 62
7
  6
CONTINUOUS
 10
378.0811224213
 20
244.8455010574
  0
VERTEX
  8
0
 62
7
  6
CONTINUOUS
 10
377.938698635
 20
245.1477835144
  0
VERTEX
  8
0
 62
7
  6
CONTINUOUS
 10
377.7561218183
 20
245.4443344756
  0
SEQEND
  0
POLYLINE
  8
0
 62
7
  6
CONTINUOUS
 66
1
 70
0
  0
VERTEX
  8
0
 62
7
  6
CONTINUOUS
 10
378.0292974849
 20
244.965604366
  0
VERTEX
  8
0
 62
7
  6
CONTINUOUS
 10
378.274676931
 20
244.1299178313
  0
VERTEX
  8
0
 62
7
  6
CONTINUOUS
 10
378.3058232858
 20
243.6944344262
  0
SEQEND
  0
POLYLINE
  8
0
 62
7
  6
CONTINUOUS
 66
1
 70
0
  0
VERTEX
  8
0
 62
7
  6
CONTINUOUS
 10
378.2863168983
 20
244.0408432302
  0
VERTEX
  8
0
 62
7
  6
CONTINUOUS
 10
378.2508555906
 20
244.2723405875
  0
VERTEX
  8
0
 62
7
  6
CONTINUOUS
 10
378.1841240433
 20
244.5490569779
  0
VERTEX
  8
0
 62
7
  6
CONTINUOUS
 10
378.0811224213
 20
244.8455010574
  0
SEQEND
  0
ARC
  8
0
 62
7
  6
CONTINUOUS
 10
78.6086
 20
221.3314344262
 40
12.252
 50
208.6594874385
 51
270.0
  0
ARC
  8
0
 62
7
  6
CONTINUOUS
 10
182.8525
 20
212.6681705678
 40
3.063
 50
315.0
 51
360.0
  0
ARC
  8
0
 62
7
  6
CONTINUOUS
 10
173.8567638585
 20
203.6724344262
 40
3.063
 50
270.0
 51
315.0
  0
ARC
  8
0
 62
7
  6
CONTINUOUS
 10
151.1990474437
 20
203.6724344262
 40
3.063
 50
180.047513539
 51
270.0000000001
  0
ARC
  8
0
 62
7
  6
CONTINUOUS
 10
147.1114084698
 20
208.0584344262
 40
1.021
 50
78.0348294896
 51
86.6056455685
  0
ARC
  8
0
 62
7
  6
CONTINUOUS
 10
147.1114084698
 20
208.0584344262
 40
1.021
 50
0.0475138567
 51
71.0860047848
  0
ARC
  8
0
 62
7
  6
CONTINUOUS
 10
166.1421214643
 20
226.3344344262
 40
20.42
 50
55.5
 51
90.0
  0
CIRCLE
  8
0
 62
7
  6
CONTINUOUS
 10
167.1325
 20
228.4764344262
 40
8.17
  0
CIRCLE
  8
0
 62
7
  6
CONTINUOUS
 10
167.1325
 20
228.4764344262
 40
6.15
  0
ARC
  8
0
 62
7
  6
CONTINUOUS
 10
152.7333
 20
239.4011344262
 40
1.021
 50
0.0
 51
90.0
  0
ARC
  8
0
 62
7
  6
CONTINUOUS
 10
112.8088354769
 20
82.5006695516
 40
6.64
 50
90.0
 51
119.0797267564
  0
ARC
  8
0
 62
7
  6
CONTINUOUS
 10
120.7858614939
 20
82.5406695516
 40
6.6
 50
22.0
 51
90.0
  0
ARC
  8
0
 62
7
  6
CONTINUOUS
 10
95.8125
 20
113.0625
 40
28.33
 50
60.9202732436
 51
299.0797267564
  0
ARC
  8
0
 62
7
  6
CONTINUOUS
 10
95.8125
 20
113.0625
 40
16.8463458246
 50
45.7574313873
 51
314.2425686127
  0
ARC
  8
0
 62
7
  6
CONTINUOUS
 10
112.8088354769
 20
143.6243304484
 40
6.64
 50
240.9202732436
 51
270.0
  0
ARC
  8
0
 62
7
  6
CONTINUOUS
 10
120.7858614939
 20
143.5843304484
 40
6.6
 50
270.0
 51
338.0
  0
ARC
  8
0
 62
7
  6
CONTINUOUS
 10
140.5047063238
 20
59.6286474253
 40
3.1
 50
202.0
 51
269.9165445726
  0
ARC
  8
0
 62
7
  6
CONTINUOUS
 10
182.8525
 20
59.5299647324
 40
3.063
 50
306.1414555928
 51
360.0
  0
ARC
  8
0
 62
7
  6
CONTINUOUS
 10
140.5047063238
 20
166.4963525747
 40
3.1
 50
90.0834554274
 51
158.0
  0
ARC
  8
0
 62
7
  6
CONTINUOUS
 10
182.8525
 20
166.5950352676
 40
3.063
 50
0.0
 51
53.9157183518
  0
ARC
  8
0
 62
7
  6
CONTINUOUS
 10
268.2344781777
 20
203.6724344262
 40
3.063
 50
179.5
 51
270.0
  0
ARC
  8
0
 62
7
  6
CONTINUOUS
 10
288.6460102742
 20
203.6724344262
 40
3.063
 50
270.0
 51
359.7
  0
ARC
  8
0
 62
7
  6
CONTINUOUS
 10
267.3044315967
 20
214.0991189126
 40
2.042
 50
91.0
 51
179.5
  0
ARC
  8
0
 62
7
  6
CONTINUOUS
 10
275.1636311475
 20
217.2997683319
 40
1.021
 50
271.0
 51
360.0
  0
ARC
  8
0
 62
7
  6
CONTINUOUS
 10
275.0048710938
 20
235.4869250591
 40
1.1797600538
 50
6.8097452826
 51
83.0883860735
  0
ARC
  8
0
 62
7
  6
CONTINUOUS
 10
275.1579322754
 20
235.6386563244
 40
1.0266988721
 50
45.0531724619
 51
89.47658792
  0
ARC
  8
0
 62
7
  6
CONTINUOUS
 10
275.1636311475
 20
235.6443056802
 40
1.021
 50
0.0
 51
89.5
  0
ARC
  8
0
 62
7
  6
CONTINUOUS
 10
375.2347841174
 20
203.6724344262
 40
3.063
 50
270.0
 51
0.5
  0
ARC
  8
0
 62
7
  6
CONTINUOUS
 10
354.8232520209
 20
203.6724344262
 40
3.063
 50
180.2999999998
 51
270.0
  0
ARC
  8
0
 62
7
  6
CONTINUOUS
 10
376.1648306984
 20
214.0991189126
 40
2.042
 50
0.5
 51
89.0
  0
ARC
  8
0
 62
7
  6
CONTINUOUS
 10
368.3056311475
 20
217.2997683319
 40
1.021
 50
180.0
 51
269.0
  0
ARC
  8
0
 62
7
  6
CONTINUOUS
 10
368.4644193458
 20
235.4868971592
 40
1.1797881982
 50
96.9181438544
 51
173.1892099875
  0
ARC
  8
0
 62
7
  6
CONTINUOUS
 10
368.3112941167
 20
235.6386919154
 40
1.0266629691
 50
90.5232855194
 51
134.946821479
  0
ARC
  8
0
 62
7
  6
CONTINUOUS
 10
368.3056311475
 20
235.6443056802
 40
1.021
 50
90.5
 51
180.0
  0
ENDSEC
  0
EOF
