  0
SECTION
  2
HEADER
  9
$EXTMAX
 10
420.0
 20
297.0
 30
0.0
  9
$EXTMIN
 10
0.0
 20
0.0
 30
0.0
  9
$LIMMIN
 10
0.0
 20
0.0
  9
$LIMMAX
 10
420.0
 20
297.0
  9
$VIEWCTR
 10
210.0
 20
148.5
  9
$VIEWSIZE
 40
297.0
  9
$CLAYER
  8
0
  9
$LTSCALE
 40
23.1
  9
$CELTYPE
  6
BYLAYER
  9
$DIMSCALE
 40
1.0
  9
$DIMASZ
 40
3.5
  9
$DIMEXO
 40
1.0
  9
$DIMDLI
 40
15.96
  9
$DIMEXE
 40
2.0
  9
$DIMCEN
 40
3.78
  9
$DIMLFAC
 40
1.0
  9
$DIMBLK
  1
_FILLED
  9
$DIMTXT
 40
3.5
  9
$PDMODE
 70
3
  9
$PDSIZE
 40
0.3125
  9
$TILEMODE
 70
1
  0
ENDSEC
  0
SECTION
  2
TABLES
  0
TABLE
  2
LTYPE
 70
6
  0
LTYPE
  2
BYBLOCK
 70
0
  3

 72
65
 73
0
 40
0.0
  0
LTYPE
  2
BYLAYER
 70
0
  3

 72
65
 73
0
 40
0.0
  0
LTYPE
  2
CONTINUOUS
 70
64
  3
Solid line
 72
65
 73
0
 40
0.0
  0
LTYPE
  2
CENTER
 70
64
  3
____ _ ____ _ ____ _ ____ _ ____ _ ____ _ ____
 72
65
 73
4
 40
0.6
 49
0.375
 49
-0.075
 49
0.075
 49
-0.075
  0
LTYPE
  2
HIDDEN
 70
64
  3
- - - - - - - - - - - - - - - - - - - -
 72
65
 73
2
 40
0.2
 49
0.1
 49
-0.1
  0
LTYPE
  2
PHANTOM
 70
64
  3
_____ _ _ _____ _ _ _____ _ _ _____
 72
65
 73
6
 40
0.8
 49
0.45
 49
-0.05
 49
0.1
 49
-0.05
 49
0.1
 49
-0.05
  0
LTYPE
  2
DOT
 70
64
  3
. . . . . . . . . . . . . . . . . . . .
 72
65
 73
2
 40
0.2
 49
0.1
 49
-0.1
  0
LTYPE
  2
DASHED
 70
64
  3
- - - - - - - - - - - - - - - - - - - -
 72
65
 73
2
 40
0.2
 49
0.1
 49
-0.1
  0
ENDTAB
  0
TABLE
  2
LAYER
 70
36
  0
LAYER
  2
0
 70
0
 62
7
  6
CONTINUOUS
  0
LAYER
  2
DEFAULT_1
 70
0
 62
7
  6
CENTER
  0
LAYER
  2
DEFAULT_2
 70
0
 62
8
  6
HIDDEN
  0
LAYER
  2
DEFAULT_3
 70
0
 62
7
  6
PHANTOM
  0
LAYER
  2
10-PART-SURF
 70
0
 62
7
  6
CONTINUOUS
  0
LAYER
  2
CENTERPLANER
 70
0
 62
7
  6
CONTINUOUS
  0
LAYER
  2
CENTER_AXER
 70
0
 62
7
  6
CONTINUOUS
  0
LAYER
  2
CURVE_RUNDING
 70
0
 62
7
  6
CONTINUOUS
  0
LAYER
  2
HELP_GEOMETRI
 70
0
 62
7
  6
CONTINUOUS
  0
LAYER
  2
LUKKEFLADE1
 70
0
 62
7
  6
CONTINUOUS
  0
LAYER
  2
LUKKEFLADE2
 70
0
 62
7
  6
CONTINUOUS
  0
LAYER
  2
LUKKEFLADE3
 70
0
 62
7
  6
CONTINUOUS
  0
LAYER
  2
NOTES
 70
0
 62
7
  6
CONTINUOUS
  0
LAYER
  2
PLANER_GLIDE
 70
0
 62
7
  6
CONTINUOUS
  0
LAYER
  2
PLANES
 70
0
 62
7
  6
CONTINUOUS
  0
LAYER
  2
PLAN_CHAMF
 70
0
 62
7
  6
CONTINUOUS
  0
LAYER
  2
PLAN_SIDESTYR
 70
0
 62
7
  6
CONTINUOUS
  0
LAYER
  2
QUILT
 70
0
 62
7
  6
CONTINUOUS
  0
LAYER
  2
ROUND_SPLIT
 70
0
 62
7
  6
CONTINUOUS
  0
LAYER
  2
SIDE_KERNER
 70
0
 62
7
  6
CONTINUOUS
  0
LAYER
  2
TRAKHUL
 70
0
 62
7
  6
CONTINUOUS
  0
LAYER
  2
VARIABLE
 70
0
 62
7
  6
CONTINUOUS
  0
ENDTAB
  0
TABLE
  2
STYLE
 70
1
  0
STYLE
  2
STANDARD
 70
0
 40
0.0
 41
0.8
 50
0.0
 71
0
 42
0.2
  3
txt
  4

  0
STYLE
  2
TEXTSTYLE_1
 70
0
 40
0.0
 41
0.8
 50
0.0
 71
0
 42
0.2
  3
gdt
  4

  0
STYLE
  2
TEXTSTYLE_2
 70
0
 40
0.0
 41
0.6
 50
0.0
 71
0
 42
0.2
  3
txt
  4

  0
STYLE
  2
TEXTSTYLE_3
 70
0
 40
0.0
 41
1.0
 50
0.0
 71
0
 42
0.2
  3
ftb_____.ttf
  4

  0
STYLE
  2
TEXTSTYLE_4
 70
0
 40
0.0
 41
1.0
 50
0.0
 71
0
 42
0.2
  3
fti_____.ttf
  4

  0
STYLE
  2
TEXTSTYLE_5
 70
0
 40
0.0
 41
1.0
 50
0.0
 71
0
 42
0.2
  3
frutiger light.ttf
  4

  0
STYLE
  2
TEXTSTYLE_6
 70
0
 40
0.0
 41
0.7
 50
0.0
 71
0
 42
0.2
  3
txt
  4

  0
STYLE
  2
TEXTSTYLE_7
 70
0
 40
0.0
 41
0.8
 50
0.0
 71
0
 42
0.2
  3
txt
  4

  0
ENDTAB
  0
ENDSEC
  0
SECTION
  2
BLOCKS
  0
BLOCK
  8
0
 62
2
  6
CONTINUOUS
  2
SYMBOL_5_BL1
 70
64
 10
382.3920721743
 20
35.81661148
  0
TEXT
  8
0
 62
7
  6
CONTINUOUS
 10
373.4503571828
 20
30.9093678571
  7
TEXTSTYLE_4
 40
1.0655737705
  1
The brand for plastic modular belts and chains
 41
1.0
 72
0
  0
LINE
  8
0
 62
7
  6
CONTINUOUS
 10
358.3701405634
 20
36.3903819718
 11
358.3701405634
 21
34.2592344308
  0
LINE
  8
0
 62
7
  6
CONTINUOUS
 10
358.6592030565
 20
31.2683031351
 11
358.6592030565
 21
31.3650941944
  0
LINE
  8
0
 62
7
  6
CONTINUOUS
 10
358.3701405634
 20
31.332830508
 11
358.4279530651
 21
31.1392483894
  0
LINE
  8
0
 62
7
  6
CONTINUOUS
 10
359.7635831863
 20
34.1772672177
 11
359.7635831863
 21
36.3903819718
  0
LINE
  8
0
 62
7
  6
CONTINUOUS
 10
360.6826405082
 20
32.3330049227
 11
360.6826405082
 21
30.81661148
  0
LINE
  8
0
 62
7
  6
CONTINUOUS
 10
360.9717030634
 20
30.81661148
 11
360.9717030634
 21
31.5586763581
  0
LINE
  8
0
 62
7
  6
CONTINUOUS
 10
360.9717030634
 20
31.6877311038
 11
360.9717030634
 21
32.3330049227
  0
LINE
  8
0
 62
7
  6
CONTINUOUS
 10
358.4279530651
 20
31.5264126717
 11
358.3701405634
 21
31.332830508
  0
LINE
  8
0
 62
7
  6
CONTINUOUS
 10
358.7748280496
 20
31.106984703
 11
358.6592030565
 21
31.2683031351
  0
LINE
  8
0
 62
7
  6
CONTINUOUS
 10
359.8732656185
 20
31.623203731
 11
359.9310780634
 21
31.5264126717
  0
LINE
  8
0
 62
7
  6
CONTINUOUS
 10
360.2201406185
 20
31.5264126717
 11
360.1623280082
 21
31.6554674174
  0
LINE
  8
0
 62
7
  6
CONTINUOUS
 10
361.648829088
 20
36.3903819718
 11
361.648829088
 21
34.5871032833
  0
LINE
  8
0
 62
7
  6
CONTINUOUS
 10
361.648829088
 20
33.2756278735
 11
361.648829088
 21
32.6198901686
  0
LINE
  8
0
 62
7
  6
CONTINUOUS
 10
362.0123280634
 20
31.4618852989
 11
362.0123280634
 21
30.81661148
  0
LINE
  8
0
 62
7
  6
CONTINUOUS
 10
362.3013904531
 20
30.81661148
 11
362.3013904531
 21
31.4618852989
  0
LINE
  8
0
 62
7
  6
CONTINUOUS
 10
358.6592030565
 20
31.3650941944
 11
358.7170155634
 21
31.4941489853
  0
LINE
  8
0
 62
7
  6
CONTINUOUS
 10
358.4279530651
 20
31.1392483894
 11
358.5435780634
 21
31.0101936212
  0
LINE
  8
0
 62
7
  6
CONTINUOUS
 10
361.9545154531
 20
31.5909400446
 11
362.0123280634
 21
31.4618852989
  0
LINE
  8
0
 62
7
  6
CONTINUOUS
 10
362.7638906736
 20
31.106984703
 11
362.8217029531
 21
30.9779299347
  0
LINE
  8
0
 62
7
  6
CONTINUOUS
 10
362.3013904531
 20
31.4618852989
 11
362.2435781736
 21
31.623203731
  0
LINE
  8
0
 62
7
  6
CONTINUOUS
 10
362.7638906736
 20
31.6554674174
 11
362.7638906736
 21
31.5909400446
  0
LINE
  8
0
 62
7
  6
CONTINUOUS
 10
362.7638906736
 20
31.2037757623
 11
362.7638906736
 21
31.106984703
  0
LINE
  8
0
 62
7
  6
CONTINUOUS
 10
363.0422717109
 20
32.6198901686
 11
363.0422717109
 21
36.3903819718
  0
LINE
  8
0
 62
7
  6
CONTINUOUS
 10
363.0529530634
 20
31.074720994
 11
363.0529530634
 21
31.1392483894
  0
LINE
  8
0
 62
7
  6
CONTINUOUS
 10
363.3701405634
 20
36.3903819718
 11
363.3701405634
 21
32.6198901686
  0
LINE
  8
0
 62
7
  6
CONTINUOUS
 10
360.1623280082
 20
31.0101936212
 11
360.2201406185
 21
31.1392483894
  0
LINE
  8
0
 62
7
  6
CONTINUOUS
 10
364.5560782839
 20
30.9134025506
 11
364.4982653428
 21
31.074720994
  0
LINE
  8
0
 62
7
  6
CONTINUOUS
 10
364.2092032839
 20
31.5909400446
 11
364.2092032839
 21
31.4941489853
  0
LINE
  8
0
 62
7
  6
CONTINUOUS
 10
364.2092032839
 20
31.3650941944
 11
364.2092032839
 21
31.1715120759
  0
LINE
  8
0
 62
7
  6
CONTINUOUS
 10
364.4982653428
 20
31.074720994
 11
364.4982653428
 21
31.5909400446
  0
LINE
  8
0
 62
7
  6
CONTINUOUS
 10
364.7635831863
 20
32.6198901686
 11
364.7635831863
 21
34.4231688571
  0
LINE
  8
0
 62
7
  6
CONTINUOUS
 10
364.7635831863
 20
35.7346442669
 11
364.7635831863
 21
36.3903819718
  0
LINE
  8
0
 62
7
  6
CONTINUOUS
 10
365.0763907839
 20
32.3330049227
 11
365.0763907839
 21
32.1716864905
  0
LINE
  8
0
 62
7
  6
CONTINUOUS
 10
365.0763907839
 20
31.8490495359
 11
365.0763907839
 21
30.81661148
  0
LINE
  8
0
 62
7
  6
CONTINUOUS
 10
365.3654528428
 20
30.81661148
 11
365.3654528428
 21
31.8490495359
  0
LINE
  8
0
 62
7
  6
CONTINUOUS
 10
365.3654528428
 20
32.1716864905
 11
365.3654528428
 21
32.3330049227
  0
LINE
  8
0
 62
7
  6
CONTINUOUS
 10
359.9310780634
 20
31.1392483894
 11
359.8732656185
 21
31.0424573076
  0
LINE
  8
0
 62
7
  6
CONTINUOUS
 10
362.2435781736
 20
31.623203731
 11
362.1857655634
 21
31.6877311038
  0
LINE
  8
0
 62
7
  6
CONTINUOUS
 10
363.1107656736
 20
31.0101936212
 11
363.0529530634
 21
31.074720994
  0
LINE
  8
0
 62
7
  6
CONTINUOUS
 10
364.2670155634
 20
30.8811388585
 11
364.3248278428
 21
30.81661148
  0
LINE
  8
0
 62
7
  6
CONTINUOUS
 10
364.2092032839
 20
30.9779299347
 11
364.2670155634
 21
30.8811388585
  0
LINE
  8
0
 62
7
  6
CONTINUOUS
 10
364.6138905634
 20
30.81661148
 11
364.5560782839
 21
30.9134025506
  0
LINE
  8
0
 62
7
  6
CONTINUOUS
 10
364.4982653428
 20
31.5909400446
 11
364.4404530634
 21
31.6877311038
  0
LINE
  8
0
 62
7
  6
CONTINUOUS
 10
365.8279530634
 20
31.8490495359
 11
365.8279530634
 21
30.81661148
  0
LINE
  8
0
 62
7
  6
CONTINUOUS
 10
366.1170157839
 20
30.81661148
 11
366.1170157839
 21
31.5586763581
  0
LINE
  8
0
 62
7
  6
CONTINUOUS
 10
366.1170157839
 20
31.6877311038
 11
366.1170157839
 21
31.8490495359
  0
LINE
  8
0
 62
7
  6
CONTINUOUS
 10
366.648829088
 20
34.8330049227
 11
366.648829088
 21
32.6198901686
  0
LINE
  8
0
 62
7
  6
CONTINUOUS
 10
358.5435780634
 20
31.6554674174
 11
358.4279530651
 21
31.5264126717
  0
LINE
  8
0
 62
7
  6
CONTINUOUS
 10
358.7170155634
 20
31.4941489853
 11
358.7748280496
 21
31.5586763581
  0
LINE
  8
0
 62
7
  6
CONTINUOUS
 10
358.5435780634
 20
31.0101936212
 11
358.6592030565
 21
30.945666237
  0
LINE
  8
0
 62
7
  6
CONTINUOUS
 10
358.9482655496
 20
31.0101936212
 11
358.7748280496
 21
31.106984703
  0
LINE
  8
0
 62
7
  6
CONTINUOUS
 10
364.1513903428
 20
31.6554674174
 11
364.2092032839
 21
31.5909400446
  0
LINE
  8
0
 62
7
  6
CONTINUOUS
 10
367.0998278428
 20
31.5909400446
 11
367.1576407839
 21
31.4296216124
  0
LINE
  8
0
 62
7
  6
CONTINUOUS
 10
367.4467028428
 20
31.4296216124
 11
367.3888905634
 21
31.5909400446
  0
LINE
  8
0
 62
7
  6
CONTINUOUS
 10
367.1576407839
 20
31.4296216124
 11
367.1576407839
 21
30.81661148
  0
LINE
  8
0
 62
7
  6
CONTINUOUS
 10
367.4467028428
 20
30.81661148
 11
367.4467028428
 21
31.4296216124
  0
LINE
  8
0
 62
7
  6
CONTINUOUS
 10
367.9092030634
 20
31.6554674174
 11
367.9092030634
 21
31.5909400446
  0
LINE
  8
0
 62
7
  6
CONTINUOUS
 10
368.0422717109
 20
32.6198901686
 11
368.0422717109
 21
34.7510377095
  0
LINE
  8
0
 62
7
  6
CONTINUOUS
 10
368.3701405634
 20
36.3903819718
 11
368.3701405634
 21
32.6198901686
  0
LINE
  8
0
 62
7
  6
CONTINUOUS
 10
363.0529530634
 20
31.1392483894
 11
363.1107656736
 21
31.2360394487
  0
LINE
  8
0
 62
7
  6
CONTINUOUS
 10
358.6592030565
 20
30.945666237
 11
358.8326405772
 21
30.8811388585
  0
LINE
  8
0
 62
7
  6
CONTINUOUS
 10
360.1623280082
 20
31.6554674174
 11
359.9888905082
 21
31.7522584767
  0
LINE
  8
0
 62
7
  6
CONTINUOUS
 10
362.8217029531
 20
30.9779299347
 11
362.9951404531
 21
30.8811388585
  0
LINE
  8
0
 62
7
  6
CONTINUOUS
 10
361.8388905634
 20
31.6554674174
 11
361.9545154531
 21
31.5909400446
  0
LINE
  8
0
 62
7
  6
CONTINUOUS
 10
362.1857655634
 20
31.6877311038
 11
362.0701406736
 21
31.7522584767
  0
LINE
  8
0
 62
7
  6
CONTINUOUS
 10
367.9092030634
 20
31.074720994
 11
368.0248282839
 21
30.945666237
  0
LINE
  8
0
 62
7
  6
CONTINUOUS
 10
368.2560780634
 20
31.0101936212
 11
368.1982657839
 21
31.074720994
  0
LINE
  8
0
 62
7
  6
CONTINUOUS
 10
367.9092030634
 20
31.5909400446
 11
368.0248282839
 21
31.4618852989
  0
LINE
  8
0
 62
7
  6
CONTINUOUS
 10
367.3888905634
 20
31.5909400446
 11
367.3310782839
 21
31.6877311038
  0
LINE
  8
0
 62
7
  6
CONTINUOUS
 10
369.7592026223
 20
31.0101936212
 11
369.7592026223
 21
31.074720994
  0
LINE
  8
0
 62
7
  6
CONTINUOUS
 10
369.7635831863
 20
32.6198901686
 11
369.7635831863
 21
36.3903819718
  0
LINE
  8
0
 62
7
  6
CONTINUOUS
 10
362.8217029531
 20
31.7199947902
 11
362.7638906736
 21
31.6554674174
  0
LINE
  8
0
 62
7
  6
CONTINUOUS
 10
359.6998280358
 20
31.6877311038
 11
359.8732656185
 21
31.623203731
  0
LINE
  8
0
 62
7
  6
CONTINUOUS
 10
364.4404530634
 20
31.6877311038
 11
364.3248278428
 21
31.7522584767
  0
LINE
  8
0
 62
7
  6
CONTINUOUS
 10
368.2560780634
 20
31.5264126717
 11
368.1982657839
 21
31.5909400446
  0
LINE
  8
0
 62
7
  6
CONTINUOUS
 10
369.4123282839
 20
31.1392483894
 11
369.4701405634
 21
31.074720994
  0
LINE
  8
0
 62
7
  6
CONTINUOUS
 10
369.7592026223
 20
31.074720994
 11
369.6435780634
 21
31.2037757623
  0
LINE
  8
0
 62
7
  6
CONTINUOUS
 10
369.4123282839
 20
31.6554674174
 11
369.4701405634
 21
31.5909400446
  0
LINE
  8
0
 62
7
  6
CONTINUOUS
 10
369.7592026223
 20
31.5909400446
 11
369.6435780634
 21
31.7199947902
  0
LINE
  8
0
 62
7
  6
CONTINUOUS
 10
363.0529530634
 20
31.5909400446
 11
363.1107656736
 21
31.6554674174
  0
LINE
  8
0
 62
7
  6
CONTINUOUS
 10
362.8795155634
 20
31.332830508
 11
362.7638906736
 21
31.2037757623
  0
LINE
  8
0
 62
7
  6
CONTINUOUS
 10
364.2092032839
 20
31.1715120759
 11
364.1513903428
 21
31.106984703
  0
LINE
  8
0
 62
7
  6
CONTINUOUS
 10
364.1513903428
 20
30.9134025506
 11
364.2092032839
 21
30.9779299347
  0
LINE
  8
0
 62
7
  6
CONTINUOUS
 10
362.9951404531
 20
30.8811388585
 11
363.1107656736
 21
30.8488751693
  0
LINE
  8
0
 62
7
  6
CONTINUOUS
 10
359.9888905082
 20
31.7522584767
 11
359.7576405634
 21
31.8167858495
  0
LINE
  8
0
 62
7
  6
CONTINUOUS
 10
363.3420154531
 20
30.945666237
 11
363.1107656736
 21
31.0101936212
  0
LINE
  8
0
 62
7
  6
CONTINUOUS
 10
362.0701406736
 20
31.7522584767
 11
361.8967031736
 21
31.8167858495
  0
LINE
  8
0
 62
7
  6
CONTINUOUS
 10
364.3248278428
 20
31.7522584767
 11
364.1513903428
 21
31.8167858495
  0
LINE
  8
0
 62
7
  6
CONTINUOUS
 10
366.9842032839
 20
31.6554674174
 11
367.0998278428
 21
31.5909400446
  0
LINE
  8
0
 62
7
  6
CONTINUOUS
 10
367.3310782839
 20
31.6877311038
 11
367.2154530634
 21
31.7522584767
  0
LINE
  8
0
 62
7
  6
CONTINUOUS
 10
358.8326405772
 20
30.8811388585
 11
359.0060780772
 21
30.8488751693
  0
LINE
  8
0
 62
7
  6
CONTINUOUS
 10
359.2951405909
 20
30.945666237
 11
358.9482655496
 21
31.0101936212
  0
LINE
  8
0
 62
7
  6
CONTINUOUS
 10
361.7232656736
 20
31.6877311038
 11
361.8388905634
 21
31.6554674174
  0
LINE
  8
0
 62
7
  6
CONTINUOUS
 10
364.0357657839
 20
31.6877311038
 11
364.1513903428
 21
31.6554674174
  0
LINE
  8
0
 62
7
  6
CONTINUOUS
 10
368.3717032839
 20
30.9779299347
 11
368.2560780634
 21
31.0101936212
  0
LINE
  8
0
 62
7
  6
CONTINUOUS
 10
366.8685780634
 20
31.6877311038
 11
366.9842032839
 21
31.6554674174
  0
LINE
  8
0
 62
7
  6
CONTINUOUS
 10
368.0248282839
 20
30.945666237
 11
368.1982657839
 21
30.8811388585
  0
LINE
  8
0
 62
7
  6
CONTINUOUS
 10
367.2154530634
 20
31.7522584767
 11
367.0420155634
 21
31.8167858495
  0
LINE
  8
0
 62
7
  6
CONTINUOUS
 10
368.4295155634
 20
31.4618852989
 11
368.2560780634
 21
31.5264126717
  0
LINE
  8
0
 62
7
  6
CONTINUOUS
 10
369.2388907839
 20
31.2037757623
 11
369.4123282839
 21
31.1392483894
  0
LINE
  8
0
 62
7
  6
CONTINUOUS
 10
369.6435780634
 20
31.7199947902
 11
369.4701405634
 21
31.7845221631
  0
LINE
  8
0
 62
7
  6
CONTINUOUS
 10
368.0248282839
 20
31.4618852989
 11
368.2560780634
 21
31.3650941944
  0
LINE
  8
0
 62
7
  6
CONTINUOUS
 10
369.6435780634
 20
31.2037757623
 11
369.4123282839
 21
31.3005668216
  0
LINE
  8
0
 62
7
  6
CONTINUOUS
 10
368.1982657839
 20
31.5909400446
 11
368.2560780634
 21
31.6554674174
  0
LINE
  8
0
 62
7
  6
CONTINUOUS
 10
358.6592030565
 20
31.7199947902
 11
358.5435780634
 21
31.6554674174
  0
LINE
  8
0
 62
7
  6
CONTINUOUS
 10
358.7748280496
 20
31.5586763581
 11
358.9482655496
 21
31.6554674174
  0
LINE
  8
0
 62
7
  6
CONTINUOUS
 10
361.0873281185
 20
31.7522584767
 11
360.9717030634
 21
31.6877311038
  0
LINE
  8
0
 62
7
  6
CONTINUOUS
 10
360.9717030634
 20
31.5586763581
 11
361.0873281185
 21
31.623203731
  0
LINE
  8
0
 62
7
  6
CONTINUOUS
 10
359.9888905082
 20
30.9134025506
 11
360.1623280082
 21
31.0101936212
  0
LINE
  8
0
 62
7
  6
CONTINUOUS
 10
359.0060780772
 20
30.8488751693
 11
359.3529530358
 21
30.81661148
  0
LINE
  8
0
 62
7
  6
CONTINUOUS
 10
363.1107656736
 20
30.8488751693
 11
363.3420154531
 21
30.81661148
  0
LINE
  8
0
 62
7
  6
CONTINUOUS
 10
361.4920155634
 20
31.7199947902
 11
361.7232656736
 21
31.6877311038
  0
LINE
  8
0
 62
7
  6
CONTINUOUS
 10
363.8045156736
 20
31.7199947902
 11
364.0357657839
 21
31.6877311038
  0
LINE
  8
0
 62
7
  6
CONTINUOUS
 10
368.2560780634
 20
31.3650941944
 11
369.2388907839
 21
31.2037757623
  0
LINE
  8
0
 62
7
  6
CONTINUOUS
 10
369.4123282839
 20
31.3005668216
 11
368.4295155634
 21
31.4618852989
  0
LINE
  8
0
 62
7
  6
CONTINUOUS
 10
361.8967031736
 20
31.8167858495
 11
361.7232656736
 21
31.8490495359
  0
LINE
  8
0
 62
7
  6
CONTINUOUS
 10
368.1982657839
 20
30.8811388585
 11
368.3717032839
 21
30.8488751693
  0
LINE
  8
0
 62
7
  6
CONTINUOUS
 10
367.0420155634
 20
31.8167858495
 11
366.8685780634
 21
31.8490495359
  0
LINE
  8
0
 62
7
  6
CONTINUOUS
 10
369.2967030634
 20
31.6877311038
 11
369.4123282839
 21
31.6554674174
  0
LINE
  8
0
 62
7
  6
CONTINUOUS
 10
369.4701405634
 20
31.074720994
 11
369.4123282839
 21
31.0101936212
  0
LINE
  8
0
 62
7
  6
CONTINUOUS
 10
368.0248282839
 20
31.7522584767
 11
367.9092030634
 21
31.6554674174
  0
LINE
  8
0
 62
7
  6
CONTINUOUS
 10
362.9373281736
 20
31.7845221631
 11
362.8217029531
 21
31.7199947902
  0
LINE
  8
0
 62
7
  6
CONTINUOUS
 10
362.9951404531
 20
31.397357926
 11
362.8795155634
 21
31.332830508
  0
LINE
  8
0
 62
7
  6
CONTINUOUS
 10
363.1107656736
 20
31.2360394487
 11
363.2263905634
 21
31.3005668216
  0
LINE
  8
0
 62
7
  6
CONTINUOUS
 10
360.6826405082
 20
30.81661148
 11
360.9717030634
 21
30.81661148
  0
LINE
  8
0
 62
7
  6
CONTINUOUS
 10
362.0123280634
 20
30.81661148
 11
362.3013904531
 21
30.81661148
  0
LINE
  8
0
 62
7
  6
CONTINUOUS
 10
363.3420154531
 20
30.81661148
 11
363.6888904531
 21
30.81661148
  0
LINE
  8
0
 62
7
  6
CONTINUOUS
 10
364.3248278428
 20
30.81661148
 11
364.6138905634
 21
30.81661148
  0
LINE
  8
0
 62
7
  6
CONTINUOUS
 10
365.0763907839
 20
30.81661148
 11
365.3654528428
 21
30.81661148
  0
LINE
  8
0
 62
7
  6
CONTINUOUS
 10
365.8279530634
 20
30.81661148
 11
366.1170157839
 21
30.81661148
  0
LINE
  8
0
 62
7
  6
CONTINUOUS
 10
367.1576407839
 20
30.81661148
 11
367.4467028428
 21
30.81661148
  0
LINE
  8
0
 62
7
  6
CONTINUOUS
 10
368.7185782839
 20
30.81661148
 11
369.0654532839
 21
30.81661148
  0
LINE
  8
0
 62
7
  6
CONTINUOUS
 10
369.0654532839
 20
30.945666237
 11
368.7185782839
 21
30.945666237
  0
LINE
  8
0
 62
7
  6
CONTINUOUS
 10
363.6888904531
 20
30.945666237
 11
363.3420154531
 21
30.945666237
  0
LINE
  8
0
 62
7
  6
CONTINUOUS
 10
368.1982657839
 20
31.074720994
 11
367.9092030634
 21
31.074720994
  0
LINE
  8
0
 62
7
  6
CONTINUOUS
 10
360.2201406185
 20
31.1392483894
 11
359.9310780634
 21
31.1392483894
  0
LINE
  8
0
 62
7
  6
CONTINUOUS
 10
359.2951405909
 20
31.7199947902
 11
359.6998280358
 21
31.6877311038
  0
LINE
  8
0
 62
7
  6
CONTINUOUS
 10
359.7576405634
 20
31.8167858495
 11
359.3529530358
 21
31.8490495359
  0
LINE
  8
0
 62
7
  6
CONTINUOUS
 10
368.3717032839
 20
30.8488751693
 11
368.7185782839
 21
30.81661148
  0
LINE
  8
0
 62
7
  6
CONTINUOUS
 10
368.7185782839
 20
30.945666237
 11
368.3717032839
 21
30.9779299347
  0
LINE
  8
0
 62
7
  6
CONTINUOUS
 10
364.1513903428
 20
31.8167858495
 11
363.8045156736
 21
31.8490495359
  0
LINE
  8
0
 62
7
  6
CONTINUOUS
 10
368.9498280634
 20
31.7199947902
 11
369.2967030634
 21
31.6877311038
  0
LINE
  8
0
 62
7
  6
CONTINUOUS
 10
369.2967030634
 20
31.8167858495
 11
368.9498280634
 21
31.8490495359
  0
LINE
  8
0
 62
7
  6
CONTINUOUS
 10
366.6373282839
 20
31.7199947902
 11
366.8685780634
 21
31.6877311038
  0
LINE
  8
0
 62
7
  6
CONTINUOUS
 10
369.4701405634
 20
31.7845221631
 11
369.2967030634
 21
31.8167858495
  0
LINE
  8
0
 62
7
  6
CONTINUOUS
 10
369.6435780634
 20
30.9134025506
 11
369.7592026223
 21
31.0101936212
  0
LINE
  8
0
 62
7
  6
CONTINUOUS
 10
364.1513903428
 20
31.106984703
 11
363.9779528428
 21
31.0101936212
  0
LINE
  8
0
 62
7
  6
CONTINUOUS
 10
366.2326403428
 20
31.7522584767
 11
366.1170157839
 21
31.6877311038
  0
LINE
  8
0
 62
7
  6
CONTINUOUS
 10
366.1170157839
 20
31.5586763581
 11
366.2326403428
 21
31.623203731
  0
LINE
  8
0
 62
7
  6
CONTINUOUS
 10
358.8326405772
 20
31.7845221631
 11
358.6592030565
 21
31.7199947902
  0
LINE
  8
0
 62
7
  6
CONTINUOUS
 10
361.2607654531
 20
31.8167858495
 11
361.0873281185
 21
31.7522584767
  0
LINE
  8
0
 62
7
  6
CONTINUOUS
 10
361.0873281185
 20
31.623203731
 11
361.2607654531
 21
31.6877311038
  0
LINE
  8
0
 62
7
  6
CONTINUOUS
 10
359.8732656185
 20
31.0424573076
 11
359.6998280358
 21
30.9779299347
  0
LINE
  8
0
 62
7
  6
CONTINUOUS
 10
369.2967030634
 20
30.9779299347
 11
369.0654532839
 21
30.945666237
  0
LINE
  8
0
 62
7
  6
CONTINUOUS
 10
363.6888904531
 20
30.81661148
 11
363.9779528428
 21
30.8488751693
  0
LINE
  8
0
 62
7
  6
CONTINUOUS
 10
369.0654532839
 20
30.81661148
 11
369.4123282839
 21
30.8488751693
  0
LINE
  8
0
 62
7
  6
CONTINUOUS
 10
359.3529530358
 20
30.81661148
 11
359.7576405634
 21
30.8488751693
  0
LINE
  8
0
 62
7
  6
CONTINUOUS
 10
359.6998280358
 20
30.9779299347
 11
359.2951405909
 21
30.945666237
  0
LINE
  8
0
 62
7
  6
CONTINUOUS
 10
363.5732655634
 20
31.3650941944
 11
364.2092032839
 21
31.3650941944
  0
LINE
  8
0
 62
7
  6
CONTINUOUS
 10
364.2092032839
 20
31.4941489853
 11
363.5732655634
 21
31.4941489853
  0
LINE
  8
0
 62
7
  6
CONTINUOUS
 10
359.9310780634
 20
31.5264126717
 11
360.2201406185
 21
31.5264126717
  0
LINE
  8
0
 62
7
  6
CONTINUOUS
 10
362.7638906736
 20
31.5909400446
 11
363.0529530634
 21
31.5909400446
  0
LINE
  8
0
 62
7
  6
CONTINUOUS
 10
369.4701405634
 20
31.5909400446
 11
369.7592026223
 21
31.5909400446
  0
LINE
  8
0
 62
7
  6
CONTINUOUS
 10
363.4576406736
 20
31.7199947902
 11
363.8045156736
 21
31.7199947902
  0
LINE
  8
0
 62
7
  6
CONTINUOUS
 10
368.6029530634
 20
31.7199947902
 11
368.9498280634
 21
31.7199947902
  0
LINE
  8
0
 62
7
  6
CONTINUOUS
 10
368.9498280634
 20
31.8490495359
 11
368.6029530634
 21
31.8490495359
  0
LINE
  8
0
 62
7
  6
CONTINUOUS
 10
366.8685780634
 20
31.8490495359
 11
366.6373282839
 21
31.8490495359
  0
LINE
  8
0
 62
7
  6
CONTINUOUS
 10
366.1170157839
 20
31.8490495359
 11
365.8279530634
 21
31.8490495359
  0
LINE
  8
0
 62
7
  6
CONTINUOUS
 10
365.3654528428
 20
31.8490495359
 11
365.0763907839
 21
31.8490495359
  0
LINE
  8
0
 62
7
  6
CONTINUOUS
 10
363.8045156736
 20
31.8490495359
 11
363.4576406736
 21
31.8490495359
  0
LINE
  8
0
 62
7
  6
CONTINUOUS
 10
361.7232656736
 20
31.8490495359
 11
361.4920155634
 21
31.8490495359
  0
LINE
  8
0
 62
7
  6
CONTINUOUS
 10
365.0763907839
 20
32.1716864905
 11
365.3654528428
 21
32.1716864905
  0
LINE
  8
0
 62
7
  6
CONTINUOUS
 10
365.3654528428
 20
32.3330049227
 11
365.0763907839
 21
32.3330049227
  0
LINE
  8
0
 62
7
  6
CONTINUOUS
 10
360.9717030634
 20
32.3330049227
 11
360.6826405082
 21
32.3330049227
  0
LINE
  8
0
 62
7
  6
CONTINUOUS
 10
360.0094848257
 20
32.6198901686
 11
360.4220561743
 21
32.6198901686
  0
LINE
  8
0
 62
7
  6
CONTINUOUS
 10
361.648829088
 20
32.6198901686
 11
363.0422717109
 21
32.6198901686
  0
LINE
  8
0
 62
7
  6
CONTINUOUS
 10
363.3701405634
 20
32.6198901686
 11
364.7635831863
 21
32.6198901686
  0
LINE
  8
0
 62
7
  6
CONTINUOUS
 10
366.648829088
 20
32.6198901686
 11
368.0422717109
 21
32.6198901686
  0
LINE
  8
0
 62
7
  6
CONTINUOUS
 10
368.3701405634
 20
32.6198901686
 11
369.7635831863
 21
32.6198901686
  0
LINE
  8
0
 62
7
  6
CONTINUOUS
 10
366.4060778428
 20
31.8167858495
 11
366.2326403428
 21
31.7522584767
  0
LINE
  8
0
 62
7
  6
CONTINUOUS
 10
363.9779528428
 20
30.8488751693
 11
364.1513903428
 21
30.9134025506
  0
LINE
  8
0
 62
7
  6
CONTINUOUS
 10
369.4123282839
 20
30.8488751693
 11
369.6435780634
 21
30.9134025506
  0
LINE
  8
0
 62
7
  6
CONTINUOUS
 10
369.4123282839
 20
31.0101936212
 11
369.2967030634
 21
30.9779299347
  0
LINE
  8
0
 62
7
  6
CONTINUOUS
 10
368.3717032839
 20
31.6877311038
 11
368.6029530634
 21
31.7199947902
  0
LINE
  8
0
 62
7
  6
CONTINUOUS
 10
366.4060778428
 20
31.6877311038
 11
366.6373282839
 21
31.7199947902
  0
LINE
  8
0
 62
7
  6
CONTINUOUS
 10
363.3420154531
 20
31.332830508
 11
363.5732655634
 21
31.3650941944
  0
LINE
  8
0
 62
7
  6
CONTINUOUS
 10
366.6373282839
 20
31.8490495359
 11
366.4060778428
 21
31.8167858495
  0
LINE
  8
0
 62
7
  6
CONTINUOUS
 10
363.2263905634
 20
31.6877311038
 11
363.4576406736
 21
31.7199947902
  0
LINE
  8
0
 62
7
  6
CONTINUOUS
 10
368.6029530634
 20
31.8490495359
 11
368.2560780634
 21
31.8167858495
  0
LINE
  8
0
 62
7
  6
CONTINUOUS
 10
363.5732655634
 20
31.4941489853
 11
363.2263905634
 21
31.4618852989
  0
LINE
  8
0
 62
7
  6
CONTINUOUS
 10
359.3529530358
 20
31.8490495359
 11
359.0060780772
 21
31.8167858495
  0
LINE
  8
0
 62
7
  6
CONTINUOUS
 10
363.4576406736
 20
31.8490495359
 11
363.0529530634
 21
31.8167858495
  0
LINE
  8
0
 62
7
  6
CONTINUOUS
 10
360.8291569568
 20
33.7674311522
 11
360.1734192519
 21
33.7674311522
  0
LINE
  8
0
 62
7
  6
CONTINUOUS
 10
366.2326403428
 20
31.623203731
 11
366.4060778428
 21
31.6877311038
  0
LINE
  8
0
 62
7
  6
CONTINUOUS
 10
368.2560780634
 20
31.6554674174
 11
368.3717032839
 21
31.6877311038
  0
LINE
  8
0
 62
7
  6
CONTINUOUS
 10
368.2560780634
 20
31.8167858495
 11
368.0248282839
 21
31.7522584767
  0
LINE
  8
0
 62
7
  6
CONTINUOUS
 10
363.9779528428
 20
31.0101936212
 11
363.6888904531
 21
30.945666237
  0
LINE
  8
0
 62
7
  6
CONTINUOUS
 10
361.2607654531
 20
31.6877311038
 11
361.4920155634
 21
31.7199947902
  0
LINE
  8
0
 62
7
  6
CONTINUOUS
 10
361.4920155634
 20
31.8490495359
 11
361.2607654531
 21
31.8167858495
  0
LINE
  8
0
 62
7
  6
CONTINUOUS
 10
359.0638905634
 20
31.6877311038
 11
359.2951405909
 21
31.7199947902
  0
LINE
  8
0
 62
7
  6
CONTINUOUS
 10
365.5832553175
 20
35.2428409882
 11
366.2389930224
 21
35.2428409882
  0
LINE
  8
0
 62
7
  6
CONTINUOUS
 10
363.2263905634
 20
31.3005668216
 11
363.3420154531
 21
31.332830508
  0
LINE
  8
0
 62
7
  6
CONTINUOUS
 10
363.2263905634
 20
31.4618852989
 11
362.9951404531
 21
31.397357926
  0
LINE
  8
0
 62
7
  6
CONTINUOUS
 10
363.1107656736
 20
31.6554674174
 11
363.2263905634
 21
31.6877311038
  0
LINE
  8
0
 62
7
  6
CONTINUOUS
 10
359.7576405634
 20
30.8488751693
 11
359.9888905082
 21
30.9134025506
  0
LINE
  8
0
 62
7
  6
CONTINUOUS
 10
363.0529530634
 20
31.8167858495
 11
362.9373281736
 21
31.7845221631
  0
LINE
  8
0
 62
7
  6
CONTINUOUS
 10
359.0060780772
 20
31.8167858495
 11
358.8326405772
 21
31.7845221631
  0
LINE
  8
0
 62
7
  6
CONTINUOUS
 10
369.7635831863
 20
36.3903819718
 11
368.3701405634
 21
36.3903819718
  0
LINE
  8
0
 62
7
  6
CONTINUOUS
 10
366.4029274486
 20
36.3903819718
 11
365.9903561
 21
36.3903819718
  0
LINE
  8
0
 62
7
  6
CONTINUOUS
 10
364.7635831863
 20
36.3903819718
 11
363.3701405634
 21
36.3903819718
  0
LINE
  8
0
 62
7
  6
CONTINUOUS
 10
363.0422717109
 20
36.3903819718
 11
361.648829088
 21
36.3903819718
  0
LINE
  8
0
 62
7
  6
CONTINUOUS
 10
359.7635831863
 20
36.3903819718
 11
358.3701405634
 21
36.3903819718
  0
LINE
  8
0
 62
7
  6
CONTINUOUS
 10
358.9482655496
 20
31.6554674174
 11
359.0638905634
 21
31.6877311038
  0
CIRCLE
  8
0
 62
7
  6
CONTINUOUS
 10
369.0668618749
 20
38.7264475456
 40
2.0901639344
  0
ARC
  8
0
 62
7
  6
CONTINUOUS
 10
360.0094848257
 20
34.2592344308
 40
1.6393442623
 50
180.0
 51
270.0
  0
ARC
  8
0
 62
7
  6
CONTINUOUS
 10
366.4029274486
 20
34.7510377095
 40
1.6393442623
 50
0.0
 51
90.0
  0
ARC
  8
0
 62
7
  6
CONTINUOUS
 10
360.4220561743
 20
34.0953000046
 40
1.4754098361
 50
270.0
 51
326.2510114041
  0
ARC
  8
0
 62
7
  6
CONTINUOUS
 10
365.9903561
 20
34.9149721358
 40
1.4754098361
 50
90.0
 51
146.2510114041
  0
ARC
  8
0
 62
7
  6
CONTINUOUS
 10
360.8291569568
 20
34.5871032833
 40
0.8196721311
 50
270.0
 51
360.0
  0
ARC
  8
0
 62
7
  6
CONTINUOUS
 10
365.5832553175
 20
34.4231688571
 40
0.8196721311
 50
90.0
 51
180.0
  0
ARC
  8
0
 62
7
  6
CONTINUOUS
 10
360.1734192519
 20
34.1772672177
 40
0.4098360656
 50
180.0
 51
270.0
  0
ARC
  8
0
 62
7
  6
CONTINUOUS
 10
366.2389930224
 20
34.8330049227
 40
0.4098360656
 50
0.0
 51
90.0
  0
SOLID
  8
0
 62
7
  6
CONTINUOUS
 10
365.0763907839
 20
32.1716868508
 11
365.0763907839
 21
32.3330053344
 12
365.3654528428
 22
32.1716868508
 13
365.3654528428
 23
32.3330053344
  0
SOLID
  8
0
 62
7
  6
CONTINUOUS
 10
359.3529530358
 20
31.8490498836
 11
359.7576405634
 21
31.8167854792
 12
359.0060780772
 22
31.8167854792
 13
359.0060780772
 23
31.8167854792
  0
SOLID
  8
0
 62
7
  6
CONTINUOUS
 10
358.8326405772
 20
31.7845227934
 11
359.0060780772
 21
31.8167854792
 12
359.7576405634
 22
31.8167854792
 13
359.7576405634
 23
31.8167854792
  0
SOLID
  8
0
 62
7
  6
CONTINUOUS
 10
359.7576405634
 20
31.8167854792
 11
359.9888905082
 21
31.7522584901
 12
358.8326405772
 22
31.7845227934
 13
358.8326405772
 23
31.7845227934
  0
SOLID
  8
0
 62
7
  6
CONTINUOUS
 10
358.6592030565
 20
31.7199940664
 11
358.8326405772
 21
31.7845227934
 12
359.9888905082
 22
31.7522584901
 13
359.9888905082
 23
31.7522584901
  0
SOLID
  8
0
 62
7
  6
CONTINUOUS
 10
358.6592030565
 20
31.7199940664
 11
359.9888905082
 21
31.7522584901
 12
359.2951405909
 22
31.7199940664
 13
359.2951405909
 23
31.7199940664
  0
SOLID
  8
0
 62
7
  6
CONTINUOUS
 10
359.2951405909
 20
31.7199940664
 11
359.9888905082
 21
31.7522584901
 12
359.6998280358
 22
31.6877314
 13
359.6998280358
 23
31.6877314
  0
SOLID
  8
0
 62
7
  6
CONTINUOUS
 10
359.9888905082
 20
31.7522584901
 11
360.1623280082
 21
31.6554670967
 12
359.6998280358
 22
31.6877314
 13
359.6998280358
 23
31.6877314
  0
SOLID
  8
0
 62
7
  6
CONTINUOUS
 10
359.8732656185
 20
31.6232043098
 11
359.6998280358
 21
31.6877314
 12
360.1623280082
 22
31.6554670967
 13
360.1623280082
 23
31.6554670967
  0
SOLID
  8
0
 62
7
  6
CONTINUOUS
 10
359.8732656185
 20
31.6232043098
 11
360.1623280082
 21
31.6554670967
 12
359.9310780634
 22
31.5264128539
 13
359.9310780634
 23
31.5264128539
  0
SOLID
  8
0
 62
7
  6
CONTINUOUS
 10
360.1623280082
 20
31.6554670967
 11
360.2201406185
 21
31.5264128539
 12
359.9310780634
 22
31.5264128539
 13
359.9310780634
 23
31.5264128539
  0
SOLID
  8
0
 62
7
  6
CONTINUOUS
 10
361.2607654531
 20
31.8167852459
 11
361.4920155634
 21
31.8490495492
 12
361.7232656736
 22
31.8490495492
 13
361.7232656736
 23
31.8490495492
  0
SOLID
  8
0
 62
7
  6
CONTINUOUS
 10
361.7232656736
 20
31.8490495492
 11
361.8967031736
 21
31.8167852459
 12
361.2607654531
 22
31.8167852459
 13
361.2607654531
 23
31.8167852459
  0
SOLID
  8
0
 62
7
  6
CONTINUOUS
 10
361.0873281185
 20
31.7522581557
 11
361.2607654531
 21
31.8167852459
 12
361.8967031736
 22
31.8167852459
 13
361.8967031736
 23
31.8167852459
  0
SOLID
  8
0
 62
7
  6
CONTINUOUS
 10
361.8967031736
 20
31.8167852459
 11
362.0701406736
 21
31.7522581557
 12
361.0873281185
 22
31.7522581557
 13
361.0873281185
 23
31.7522581557
  0
SOLID
  8
0
 62
7
  6
CONTINUOUS
 10
362.0701406736
 20
31.7522581557
 11
361.4920155634
 21
31.7199941869
 12
361.0873281185
 22
31.7522581557
 13
361.0873281185
 23
31.7522581557
  0
SOLID
  8
0
 62
7
  6
CONTINUOUS
 10
360.9717030634
 20
31.6877310656
 11
361.0873281185
 21
31.7522581557
 12
361.4920155634
 22
31.7199941869
 13
361.4920155634
 23
31.7199941869
  0
SOLID
  8
0
 62
7
  6
CONTINUOUS
 10
361.4920155634
 20
31.7199941869
 11
361.2607654531
 21
31.6877310656
 12
360.9717030634
 22
31.6877310656
 13
360.9717030634
 23
31.6877310656
  0
SOLID
  8
0
 62
7
  6
CONTINUOUS
 10
361.4920155634
 20
31.7199941869
 11
362.0701406736
 21
31.7522581557
 12
361.7232656736
 22
31.6877310656
 13
361.7232656736
 23
31.6877310656
  0
SOLID
  8
0
 62
7
  6
CONTINUOUS
 10
362.0701406736
 20
31.7522581557
 11
362.1857655634
 21
31.6877310656
 12
361.7232656736
 22
31.6877310656
 13
361.7232656736
 23
31.6877310656
  0
SOLID
  8
0
 62
7
  6
CONTINUOUS
 10
361.8388905634
 20
31.6554670967
 11
361.7232656736
 21
31.6877310656
 12
362.1857655634
 22
31.6877310656
 13
362.1857655634
 23
31.6877310656
  0
SOLID
  8
0
 62
7
  6
CONTINUOUS
 10
362.1857655634
 20
31.6877310656
 11
362.2435781736
 21
31.6232039754
 12
361.8388905634
 22
31.6554670967
 13
361.8388905634
 23
31.6554670967
  0
SOLID
  8
0
 62
7
  6
CONTINUOUS
 10
361.9545154531
 20
31.5909400065
 11
361.8388905634
 21
31.6554670967
 12
362.2435781736
 22
31.6232039754
 13
362.2435781736
 23
31.6232039754
  0
SOLID
  8
0
 62
7
  6
CONTINUOUS
 10
361.9545154531
 20
31.5909400065
 11
362.2435781736
 21
31.6232039754
 12
362.0123280634
 22
31.4618854918
 13
362.0123280634
 23
31.4618854918
  0
SOLID
  8
0
 62
7
  6
CONTINUOUS
 10
362.2435781736
 20
31.6232039754
 11
362.3013904531
 21
31.4618854918
 12
362.0123280634
 22
31.4618854918
 13
362.0123280634
 23
31.4618854918
  0
SOLID
  8
0
 62
7
  6
CONTINUOUS
 10
361.2607654531
 20
31.6877310656
 11
361.0873281185
 21
31.6232039754
 12
360.9717030634
 22
31.6877310656
 13
360.9717030634
 23
31.6877310656
  0
SOLID
  8
0
 62
7
  6
CONTINUOUS
 10
361.0873281185
 20
31.6232039754
 11
360.9717030634
 21
31.5586757033
 12
360.9717030634
 22
31.6877310656
 13
360.9717030634
 23
31.6877310656
  0
SOLID
  8
0
 62
7
  6
CONTINUOUS
 10
360.9717030634
 20
31.5586757033
 11
360.6826405082
 21
30.8166115574
 12
360.9717030634
 22
31.6877310656
 13
360.9717030634
 23
31.6877310656
  0
SOLID
  8
0
 62
7
  6
CONTINUOUS
 10
360.9717030634
 20
31.6877310656
 11
360.6826405082
 21
30.8166115574
 12
360.9717030634
 22
32.333005
 13
360.9717030634
 23
32.333005
  0
SOLID
  8
0
 62
7
  6
CONTINUOUS
 10
360.6826405082
 20
30.8166115574
 11
360.6826405082
 21
32.333005
 12
360.9717030634
 22
32.333005
 13
360.9717030634
 23
32.333005
  0
SOLID
  8
0
 62
7
  6
CONTINUOUS
 10
360.9717030634
 20
31.5586757033
 11
360.9717030634
 21
30.8166115574
 12
360.6826405082
 22
30.8166115574
 13
360.6826405082
 23
30.8166115574
  0
SOLID
  8
0
 62
7
  6
CONTINUOUS
 10
362.0123280634
 20
30.8166115574
 11
362.0123280634
 21
31.4618854918
 12
362.3013904531
 22
31.4618854918
 13
362.3013904531
 23
31.4618854918
  0
SOLID
  8
0
 62
7
  6
CONTINUOUS
 10
362.3013904531
 20
31.4618854918
 11
362.3013904531
 21
30.8166115574
 12
362.0123280634
 22
30.8166115574
 13
362.0123280634
 23
30.8166115574
  0
SOLID
  8
0
 62
7
  6
CONTINUOUS
 10
363.0529530634
 20
31.8167856315
 11
363.4576406736
 21
31.8490496243
 12
363.8045156736
 22
31.8490496243
 13
363.8045156736
 23
31.8490496243
  0
SOLID
  8
0
 62
7
  6
CONTINUOUS
 10
363.8045156736
 20
31.8490496243
 11
364.1513903428
 21
31.8167856315
 12
363.0529530634
 22
31.8167856315
 13
363.0529530634
 23
31.8167856315
  0
SOLID
  8
0
 62
7
  6
CONTINUOUS
 10
362.9373281736
 20
31.7845227934
 11
363.0529530634
 21
31.8167856315
 12
364.1513903428
 22
31.8167856315
 13
364.1513903428
 23
31.8167856315
  0
SOLID
  8
0
 62
7
  6
CONTINUOUS
 10
364.1513903428
 20
31.8167856315
 11
364.3248278428
 21
31.7522584901
 12
362.9373281736
 22
31.7845227934
 13
362.9373281736
 23
31.7845227934
  0
SOLID
  8
0
 62
7
  6
CONTINUOUS
 10
362.8217029531
 20
31.7199944276
 11
362.9373281736
 21
31.7845227934
 12
364.3248278428
 22
31.7522584901
 13
364.3248278428
 23
31.7522584901
  0
SOLID
  8
0
 62
7
  6
CONTINUOUS
 10
362.8217029531
 20
31.7199944276
 11
364.3248278428
 21
31.7522584901
 12
363.4576406736
 22
31.7199944276
 13
363.4576406736
 23
31.7199944276
  0
SOLID
  8
0
 62
7
  6
CONTINUOUS
 10
363.4576406736
 20
31.7199944276
 11
364.3248278428
 21
31.7522584901
 12
363.8045156736
 22
31.7199944276
 13
363.8045156736
 23
31.7199944276
  0
SOLID
  8
0
 62
7
  6
CONTINUOUS
 10
363.8045156736
 20
31.7199944276
 11
364.3248278428
 21
31.7522584901
 12
364.0357657839
 22
31.6877312092
 13
364.0357657839
 23
31.6877312092
  0
SOLID
  8
0
 62
7
  6
CONTINUOUS
 10
364.3248278428
 20
31.7522584901
 11
364.4404530634
 21
31.6877312092
 12
364.0357657839
 22
31.6877312092
 13
364.0357657839
 23
31.6877312092
  0
SOLID
  8
0
 62
7
  6
CONTINUOUS
 10
362.7638906736
 20
31.6554672165
 11
362.8217029531
 21
31.7199944276
 12
363.4576406736
 22
31.7199944276
 13
363.4576406736
 23
31.7199944276
  0
SOLID
  8
0
 62
7
  6
CONTINUOUS
 10
364.1513903428
 20
31.6554672165
 11
364.0357657839
 21
31.6877312092
 12
364.4404530634
 22
31.6877312092
 13
364.4404530634
 23
31.6877312092
  0
SOLID
  8
0
 62
7
  6
CONTINUOUS
 10
364.1513903428
 20
31.6554672165
 11
364.4404530634
 21
31.6877312092
 12
364.2092032839
 22
31.5909400053
 13
364.2092032839
 23
31.5909400053
  0
SOLID
  8
0
 62
7
  6
CONTINUOUS
 10
364.4404530634
 20
31.6877312092
 11
364.4982653428
 21
31.5909400053
 12
364.2092032839
 22
31.5909400053
 13
364.2092032839
 23
31.5909400053
  0
SOLID
  8
0
 62
7
  6
CONTINUOUS
 10
364.2092032839
 20
31.4941486131
 11
364.2092032839
 21
31.5909400053
 12
364.4982653428
 22
31.5909400053
 13
364.4982653428
 23
31.5909400053
  0
SOLID
  8
0
 62
7
  6
CONTINUOUS
 10
364.2092032839
 20
31.4941486131
 11
364.4982653428
 21
31.5909400053
 12
364.2092032839
 22
31.3650944328
 13
364.2092032839
 23
31.3650944328
  0
SOLID
  8
0
 62
7
  6
CONTINUOUS
 10
364.2092032839
 20
31.3650944328
 11
364.4982653428
 21
31.5909400053
 12
364.2092032839
 22
31.1715120759
 13
364.2092032839
 23
31.1715120759
  0
SOLID
  8
0
 62
7
  6
CONTINUOUS
 10
364.4982653428
 20
31.5909400053
 11
364.4982653428
 21
31.0747202524
 12
364.2092032839
 22
31.1715120759
 13
364.2092032839
 23
31.1715120759
  0
SOLID
  8
0
 62
7
  6
CONTINUOUS
 10
366.4060778428
 20
31.8167851023
 11
366.6373282839
 21
31.849049822
 12
366.8685780634
 22
31.849049822
 13
366.8685780634
 23
31.849049822
  0
SOLID
  8
0
 62
7
  6
CONTINUOUS
 10
366.8685780634
 20
31.849049822
 11
367.0420155634
 21
31.8167851023
 12
366.4060778428
 22
31.8167851023
 13
366.4060778428
 23
31.8167851023
  0
SOLID
  8
0
 62
7
  6
CONTINUOUS
 10
366.2326403428
 20
31.7522587602
 11
366.4060778428
 21
31.8167851023
 12
367.0420155634
 22
31.8167851023
 13
367.0420155634
 23
31.8167851023
  0
SOLID
  8
0
 62
7
  6
CONTINUOUS
 10
367.0420155634
 20
31.8167851023
 11
367.2154530634
 21
31.7522587602
 12
366.2326403428
 22
31.7522587602
 13
366.2326403428
 23
31.7522587602
  0
SOLID
  8
0
 62
7
  6
CONTINUOUS
 10
367.2154530634
 20
31.7522587602
 11
366.6373282839
 21
31.7199941869
 12
366.2326403428
 22
31.7522587602
 13
366.2326403428
 23
31.7522587602
  0
SOLID
  8
0
 62
7
  6
CONTINUOUS
 10
366.1170157839
 20
31.6877313857
 11
366.2326403428
 21
31.7522587602
 12
366.6373282839
 22
31.7199941869
 13
366.6373282839
 23
31.7199941869
  0
SOLID
  8
0
 62
7
  6
CONTINUOUS
 10
366.6373282839
 20
31.7199941869
 11
366.4060778428
 21
31.6877313857
 12
366.1170157839
 22
31.6877313857
 13
366.1170157839
 23
31.6877313857
  0
SOLID
  8
0
 62
7
  6
CONTINUOUS
 10
366.6373282839
 20
31.7199941869
 11
367.2154530634
 21
31.7522587602
 12
366.8685780634
 22
31.6877313857
 13
366.8685780634
 23
31.6877313857
  0
SOLID
  8
0
 62
7
  6
CONTINUOUS
 10
367.2154530634
 20
31.7522587602
 11
367.3310782839
 21
31.6877313857
 12
366.8685780634
 22
31.6877313857
 13
366.8685780634
 23
31.6877313857
  0
SOLID
  8
0
 62
7
  6
CONTINUOUS
 10
366.9842032839
 20
31.6554670967
 11
366.8685780634
 21
31.6877313857
 12
367.3310782839
 22
31.6877313857
 13
367.3310782839
 23
31.6877313857
  0
SOLID
  8
0
 62
7
  6
CONTINUOUS
 10
366.9842032839
 20
31.6554670967
 11
367.3310782839
 21
31.6877313857
 12
367.0998278428
 22
31.590940324
 13
367.0998278428
 23
31.590940324
  0
SOLID
  8
0
 62
7
  6
CONTINUOUS
 10
367.3310782839
 20
31.6877313857
 11
367.3888905634
 21
31.590940324
 12
367.0998278428
 22
31.590940324
 13
367.0998278428
 23
31.590940324
  0
SOLID
  8
0
 62
7
  6
CONTINUOUS
 10
367.1576407839
 20
31.4296218878
 11
367.0998278428
 21
31.590940324
 12
367.3888905634
 22
31.590940324
 13
367.3888905634
 23
31.590940324
  0
SOLID
  8
0
 62
7
  6
CONTINUOUS
 10
367.3888905634
 20
31.590940324
 11
367.4467028428
 21
31.4296218878
 12
367.1576407839
 22
31.4296218878
 13
367.1576407839
 23
31.4296218878
  0
SOLID
  8
0
 62
7
  6
CONTINUOUS
 10
366.4060778428
 20
31.6877313857
 11
366.2326403428
 21
31.6232043098
 12
366.1170157839
 22
31.6877313857
 13
366.1170157839
 23
31.6877313857
  0
SOLID
  8
0
 62
7
  6
CONTINUOUS
 10
366.2326403428
 20
31.6232043098
 11
366.1170157839
 21
31.5586757033
 12
366.1170157839
 22
31.6877313857
 13
366.1170157839
 23
31.6877313857
  0
SOLID
  8
0
 62
7
  6
CONTINUOUS
 10
366.1170157839
 20
31.5586757033
 11
365.8279530634
 21
30.8166118302
 12
366.1170157839
 22
31.6877313857
 13
366.1170157839
 23
31.6877313857
  0
SOLID
  8
0
 62
7
  6
CONTINUOUS
 10
366.1170157839
 20
31.6877313857
 11
365.8279530634
 21
30.8166118302
 12
366.1170157839
 22
31.849049822
 13
366.1170157839
 23
31.849049822
  0
SOLID
  8
0
 62
7
  6
CONTINUOUS
 10
365.8279530634
 20
30.8166118302
 11
365.8279530634
 21
31.849049822
 12
366.1170157839
 22
31.849049822
 13
366.1170157839
 23
31.849049822
  0
SOLID
  8
0
 62
7
  6
CONTINUOUS
 10
366.1170157839
 20
31.5586757033
 11
366.1170157839
 21
30.8166118302
 12
365.8279530634
 22
30.8166118302
 13
365.8279530634
 23
30.8166118302
  0
SOLID
  8
0
 62
7
  6
CONTINUOUS
 10
367.1576407839
 20
30.8166118302
 11
367.1576407839
 21
31.4296218878
 12
367.4467028428
 22
31.4296218878
 13
367.4467028428
 23
31.4296218878
  0
SOLID
  8
0
 62
7
  6
CONTINUOUS
 10
367.4467028428
 20
31.4296218878
 11
367.4467028428
 21
30.8166118302
 12
367.1576407839
 22
30.8166118302
 13
367.1576407839
 23
30.8166118302
  0
SOLID
  8
0
 62
7
  6
CONTINUOUS
 10
368.2560780634
 20
31.8167856056
 11
368.6029530634
 21
31.8490498552
 12
368.9498280634
 22
31.8490498552
 13
368.9498280634
 23
31.8490498552
  0
SOLID
  8
0
 62
7
  6
CONTINUOUS
 10
368.9498280634
 20
31.8490498552
 11
369.2967030634
 21
31.8167856056
 12
368.2560780634
 22
31.8167856056
 13
368.2560780634
 23
31.8167856056
  0
SOLID
  8
0
 62
7
  6
CONTINUOUS
 10
368.0248282839
 20
31.7522584901
 11
368.2560780634
 21
31.8167856056
 12
369.2967030634
 22
31.8167856056
 13
369.2967030634
 23
31.8167856056
  0
SOLID
  8
0
 62
7
  6
CONTINUOUS
 10
368.0248282839
 20
31.7522584901
 11
369.2967030634
 21
31.8167855803
 12
369.4701405634
 22
31.7845227934
 13
369.4701405634
 23
31.7845227934
  0
SOLID
  8
0
 62
7
  6
CONTINUOUS
 10
368.0248282839
 20
31.7522584901
 11
369.4701405634
 21
31.7845227934
 12
368.6029530634
 22
31.7199941235
 13
368.6029530634
 23
31.7199941235
  0
SOLID
  8
0
 62
7
  6
CONTINUOUS
 10
368.6029530634
 20
31.7199941235
 11
369.4701405634
 21
31.7845227934
 12
368.9498280634
 22
31.7199941235
 13
368.9498280634
 23
31.7199941235
  0
SOLID
  8
0
 62
7
  6
CONTINUOUS
 10
369.4701405634
 20
31.7845227934
 11
369.6435780634
 21
31.7199941235
 12
368.9498280634
 22
31.7199941235
 13
368.9498280634
 23
31.7199941235
  0
SOLID
  8
0
 62
7
  6
CONTINUOUS
 10
369.2967030634
 20
31.6877314
 11
368.9498280634
 21
31.7199941235
 12
369.6435780634
 22
31.7199941235
 13
369.6435780634
 23
31.7199941235
  0
SOLID
  8
0
 62
7
  6
CONTINUOUS
 10
367.9092030634
 20
31.6554671071
 11
368.0248282839
 21
31.7522584901
 12
368.6029530634
 22
31.7199941235
 13
368.6029530634
 23
31.7199941235
  0
SOLID
  8
0
 62
7
  6
CONTINUOUS
 10
369.2967030634
 20
31.6877314
 11
369.6435780634
 21
31.7199941235
 12
369.4123282839
 22
31.6554671071
 13
369.4123282839
 23
31.6554671071
  0
SOLID
  8
0
 62
7
  6
CONTINUOUS
 10
369.4123282839
 20
31.6554671071
 11
369.6435780634
 21
31.7199941235
 12
369.4701405634
 22
31.5909400907
 13
369.4701405634
 23
31.5909400907
  0
SOLID
  8
0
 62
7
  6
CONTINUOUS
 10
369.6435780634
 20
31.7199941235
 11
369.7592026223
 21
31.5909400907
 12
369.4701405634
 22
31.5909400907
 13
369.4701405634
 23
31.5909400907
  0
SOLID
  8
0
 62
7
  6
CONTINUOUS
 10
359.0638905634
 20
31.6877314
 11
358.5435780634
 21
31.6554670789
 12
359.2951405909
 22
31.7199941045
 13
359.2951405909
 23
31.7199941045
  0
SOLID
  8
0
 62
7
  6
CONTINUOUS
 10
358.5435780634
 20
31.6554670789
 11
358.6592030565
 21
31.7199941045
 12
359.2951405909
 22
31.7199941045
 13
359.2951405909
 23
31.7199941045
  0
SOLID
  8
0
 62
7
  6
CONTINUOUS
 10
359.0638905634
 20
31.6877314
 11
358.9482655496
 21
31.6554670789
 12
358.5435780634
 22
31.6554670789
 13
358.5435780634
 23
31.6554670789
  0
SOLID
  8
0
 62
7
  6
CONTINUOUS
 10
358.4279530651
 20
31.5264129164
 11
358.5435780634
 21
31.6554670789
 12
358.9482655496
 22
31.6554670789
 13
358.9482655496
 23
31.6554670789
  0
SOLID
  8
0
 62
7
  6
CONTINUOUS
 10
362.7638906736
 20
31.6554670789
 11
363.4576406736
 21
31.7199941869
 12
363.2263905634
 22
31.6877314
 13
363.2263905634
 23
31.6877314
  0
SOLID
  8
0
 62
7
  6
CONTINUOUS
 10
363.2263905634
 20
31.6877314
 11
363.1107656736
 21
31.6554670789
 12
362.7638906736
 22
31.6554670789
 13
362.7638906736
 23
31.6554670789
  0
SOLID
  8
0
 62
7
  6
CONTINUOUS
 10
362.7638906736
 20
31.5909399887
 11
362.7638906736
 21
31.6554670789
 12
363.1107656736
 22
31.6554670789
 13
363.1107656736
 23
31.6554670789
  0
SOLID
  8
0
 62
7
  6
CONTINUOUS
 10
363.1107656736
 20
31.6554670789
 11
363.0529530634
 21
31.5909399887
 12
362.7638906736
 22
31.5909399887
 13
362.7638906736
 23
31.5909399887
  0
SOLID
  8
0
 62
7
  6
CONTINUOUS
 10
367.9092030634
 20
31.6554670789
 11
368.6029530634
 21
31.7199941869
 12
368.3717032839
 22
31.6877314
 13
368.3717032839
 23
31.6877314
  0
SOLID
  8
0
 62
7
  6
CONTINUOUS
 10
368.3717032839
 20
31.6877314
 11
368.2560780634
 21
31.6554670789
 12
367.9092030634
 22
31.6554670789
 13
367.9092030634
 23
31.6554670789
  0
SOLID
  8
0
 62
7
  6
CONTINUOUS
 10
367.9092030634
 20
31.5909399887
 11
367.9092030634
 21
31.6554670789
 12
368.2560780634
 22
31.6554670789
 13
368.2560780634
 23
31.6554670789
  0
SOLID
  8
0
 62
7
  6
CONTINUOUS
 10
368.2560780634
 20
31.6554670789
 11
368.1982657839
 21
31.5909399887
 12
367.9092030634
 22
31.5909399887
 13
367.9092030634
 23
31.5909399887
  0
SOLID
  8
0
 62
7
  6
CONTINUOUS
 10
368.0248282839
 20
31.4618858262
 11
367.9092030634
 21
31.5909399887
 12
368.1982657839
 22
31.5909399887
 13
368.1982657839
 23
31.5909399887
  0
SOLID
  8
0
 62
7
  6
CONTINUOUS
 10
358.4279530651
 20
31.5264129164
 11
358.9482655496
 21
31.6554670967
 12
358.7748280496
 22
31.5586757033
 13
358.7748280496
 23
31.5586757033
  0
SOLID
  8
0
 62
7
  6
CONTINUOUS
 10
358.7748280496
 20
31.5586757033
 11
358.7170155634
 21
31.4941486131
 12
358.4279530651
 22
31.5264129164
 13
358.4279530651
 23
31.5264129164
  0
SOLID
  8
0
 62
7
  6
CONTINUOUS
 10
358.3701405634
 20
31.3328301295
 11
358.4279530651
 21
31.5264129164
 12
358.7170155634
 22
31.4941486131
 13
358.7170155634
 23
31.4941486131
  0
SOLID
  8
0
 62
7
  6
CONTINUOUS
 10
363.2263905634
 20
31.4618858262
 11
363.5732655634
 21
31.4941485791
 12
364.2092032839
 22
31.4941485791
 13
364.2092032839
 23
31.4941485791
  0
SOLID
  8
0
 62
7
  6
CONTINUOUS
 10
363.2263905634
 20
31.4618858262
 11
364.2092032839
 21
31.4941485791
 12
362.9951404531
 22
31.397357926
 13
362.9951404531
 23
31.397357926
  0
SOLID
  8
0
 62
7
  6
CONTINUOUS
 10
362.9951404531
 20
31.397357926
 11
364.2092032839
 21
31.4941485791
 12
363.5732655634
 22
31.3650943988
 13
363.5732655634
 23
31.3650943988
  0
SOLID
  8
0
 62
7
  6
CONTINUOUS
 10
364.2092032839
 20
31.4941485791
 11
364.2092032839
 21
31.3650943988
 12
363.5732655634
 22
31.3650943988
 13
363.5732655634
 23
31.3650943988
  0
SOLID
  8
0
 62
7
  6
CONTINUOUS
 10
368.0248282839
 20
31.4618859165
 11
368.1982657839
 21
31.5909400065
 12
368.2560780634
 22
31.5264129164
 13
368.2560780634
 23
31.5264129164
  0
SOLID
  8
0
 62
7
  6
CONTINUOUS
 10
368.2560780634
 20
31.5264129164
 11
368.4295155634
 21
31.4618859165
 12
368.0248282839
 22
31.4618859165
 13
368.0248282839
 23
31.4618859165
  0
SOLID
  8
0
 62
7
  6
CONTINUOUS
 10
368.2560780634
 20
31.3650944328
 11
368.0248282839
 21
31.4618859165
 12
368.4295155634
 22
31.4618859165
 13
368.4295155634
 23
31.4618859165
  0
SOLID
  8
0
 62
7
  6
CONTINUOUS
 10
368.4295155634
 20
31.4618859165
 11
369.4123282839
 21
31.3005673426
 12
368.2560780634
 22
31.3650944328
 13
368.2560780634
 23
31.3650944328
  0
SOLID
  8
0
 62
7
  6
CONTINUOUS
 10
369.2388907839
 20
31.2037760287
 11
368.2560780634
 21
31.3650944328
 12
369.4123282839
 22
31.3005673426
 13
369.4123282839
 23
31.3005673426
  0
SOLID
  8
0
 62
7
  6
CONTINUOUS
 10
369.4123282839
 20
31.3005673426
 11
369.6435780634
 21
31.2037760287
 12
369.2388907839
 22
31.2037760287
 13
369.2388907839
 23
31.2037760287
  0
SOLID
  8
0
 62
7
  6
CONTINUOUS
 10
369.4123282839
 20
31.139248859
 11
369.2388907839
 21
31.2037760287
 12
369.6435780634
 22
31.2037760287
 13
369.6435780634
 23
31.2037760287
  0
SOLID
  8
0
 62
7
  6
CONTINUOUS
 10
369.4123282839
 20
31.139248859
 11
369.6435780634
 21
31.2037760287
 12
369.4701405634
 22
31.0747203105
 13
369.4701405634
 23
31.0747203105
  0
SOLID
  8
0
 62
7
  6
CONTINUOUS
 10
369.6435780634
 20
31.2037760287
 11
369.7592026223
 21
31.0747203105
 12
369.4701405634
 22
31.0747203105
 13
369.4701405634
 23
31.0747203105
  0
SOLID
  8
0
 62
7
  6
CONTINUOUS
 10
369.4123282839
 20
31.0101932257
 11
369.4701405634
 21
31.0747203105
 12
369.7592026223
 22
31.0747203105
 13
369.7592026223
 23
31.0747203105
  0
SOLID
  8
0
 62
7
  6
CONTINUOUS
 10
369.7592026223
 20
31.0747203105
 11
369.7592026223
 21
31.0101932257
 12
369.4123282839
 22
31.0101932257
 13
369.4123282839
 23
31.0101932257
  0
SOLID
  8
0
 62
7
  6
CONTINUOUS
 10
369.2967030634
 20
30.9779303754
 11
369.4123282839
 21
31.0101932257
 12
369.7592026223
 22
31.0101932257
 13
369.7592026223
 23
31.0101932257
  0
SOLID
  8
0
 62
7
  6
CONTINUOUS
 10
369.2967030634
 20
30.9779303754
 11
369.7592026223
 21
31.0101932257
 12
369.0654532839
 22
30.9456661409
 13
369.0654532839
 23
30.9456661409
  0
SOLID
  8
0
 62
7
  6
CONTINUOUS
 10
369.7592026223
 20
31.0101932257
 11
369.6435780634
 21
30.9134032852
 12
369.0654532839
 22
30.9456661409
 13
369.0654532839
 23
30.9456661409
  0
SOLID
  8
0
 62
7
  6
CONTINUOUS
 10
369.6435780634
 20
30.9134032852
 11
368.1982657839
 21
30.8811389819
 12
369.0654532839
 22
30.9456661409
 13
369.0654532839
 23
30.9456661409
  0
SOLID
  8
0
 62
7
  6
CONTINUOUS
 10
369.0654532839
 20
30.9456661409
 11
368.1982657839
 21
30.8811389819
 12
368.7185782839
 22
30.9456661409
 13
368.7185782839
 23
30.9456661409
  0
SOLID
  8
0
 62
7
  6
CONTINUOUS
 10
368.1982657839
 20
30.8811389819
 11
368.0248282839
 21
30.9456661409
 12
368.7185782839
 22
30.9456661409
 13
368.7185782839
 23
30.9456661409
  0
SOLID
  8
0
 62
7
  6
CONTINUOUS
 10
368.1982657839
 20
30.8811389819
 11
369.6435780634
 21
30.9134032852
 12
368.3717032839
 22
30.8488743522
 13
368.3717032839
 23
30.8488743522
  0
SOLID
  8
0
 62
7
  6
CONTINUOUS
 10
369.6435780634
 20
30.9134032852
 11
369.4123282839
 21
30.8488743522
 12
368.3717032839
 22
30.8488743522
 13
368.3717032839
 23
30.8488743522
  0
SOLID
  8
0
 62
7
  6
CONTINUOUS
 10
368.7185782839
 20
30.8166119713
 11
368.3717032839
 21
30.8488743522
 12
369.4123282839
 22
30.8488743522
 13
369.4123282839
 23
30.8488743522
  0
SOLID
  8
0
 62
7
  6
CONTINUOUS
 10
369.4123282839
 20
30.8488743522
 11
369.0654532839
 21
30.8166119713
 12
368.7185782839
 22
30.8166119713
 13
368.7185782839
 23
30.8166119713
  0
SOLID
  8
0
 62
7
  6
CONTINUOUS
 10
358.3701405634
 20
31.3328301295
 11
358.7170155634
 21
31.4941486131
 12
358.6592030565
 22
31.3650944328
 13
358.6592030565
 23
31.3650944328
  0
SOLID
  8
0
 62
7
  6
CONTINUOUS
 10
358.6592030565
 20
31.3650944328
 11
358.6592030565
 21
31.2683031351
 12
358.3701405634
 22
31.3328301295
 13
358.3701405634
 23
31.3328301295
  0
SOLID
  8
0
 62
7
  6
CONTINUOUS
 10
358.4279530651
 20
31.139248859
 11
358.3701405634
 21
31.3328301295
 12
358.6592030565
 22
31.2683031351
 13
358.6592030565
 23
31.2683031351
  0
SOLID
  8
0
 62
7
  6
CONTINUOUS
 10
358.6592030565
 20
31.2683031351
 11
358.7748280496
 21
31.1069845557
 12
358.4279530651
 22
31.139248859
 13
358.4279530651
 23
31.139248859
  0
SOLID
  8
0
 62
7
  6
CONTINUOUS
 10
358.5435780634
 20
31.0101931569
 11
358.4279530651
 21
31.139248859
 12
358.7748280496
 22
31.1069845557
 13
358.7748280496
 23
31.1069845557
  0
SOLID
  8
0
 62
7
  6
CONTINUOUS
 10
358.7748280496
 20
31.1069845557
 11
358.9482655496
 21
31.0101931569
 12
358.5435780634
 22
31.0101931569
 13
358.5435780634
 23
31.0101931569
  0
SOLID
  8
0
 62
7
  6
CONTINUOUS
 10
358.6592030565
 20
30.9456659241
 11
358.5435780634
 21
31.0101931569
 12
358.9482655496
 22
31.0101931569
 13
358.9482655496
 23
31.0101931569
  0
SOLID
  8
0
 62
7
  6
CONTINUOUS
 10
358.9482655496
 20
31.0101931569
 11
359.2951405909
 21
30.9456659241
 12
358.6592030565
 22
30.9456659241
 13
358.6592030565
 23
30.9456659241
  0
SOLID
  8
0
 62
7
  6
CONTINUOUS
 10
358.8326405772
 20
30.8811389819
 11
358.6592030565
 21
30.9456659241
 12
359.2951405909
 22
30.9456659241
 13
359.2951405909
 23
30.9456659241
  0
SOLID
  8
0
 62
7
  6
CONTINUOUS
 10
362.8795155634
 20
31.3328301325
 11
362.9951404531
 21
31.397357926
 12
363.5732655634
 22
31.3650944328
 13
363.5732655634
 23
31.3650944328
  0
SOLID
  8
0
 62
7
  6
CONTINUOUS
 10
363.5732655634
 20
31.3650944328
 11
363.3420154531
 21
31.3328301325
 12
362.8795155634
 22
31.3328301325
 13
362.8795155634
 23
31.3328301325
  0
SOLID
  8
0
 62
7
  6
CONTINUOUS
 10
362.7638906736
 20
31.2037759492
 11
362.8795155634
 21
31.3328301325
 12
363.3420154531
 22
31.3328301325
 13
363.3420154531
 23
31.3328301325
  0
SOLID
  8
0
 62
7
  6
CONTINUOUS
 10
363.1107656736
 20
31.2360394487
 11
362.7638906736
 21
31.2037759492
 12
363.2263905634
 22
31.3005673426
 13
363.2263905634
 23
31.3005673426
  0
SOLID
  8
0
 62
7
  6
CONTINUOUS
 10
362.7638906736
 20
31.2037759492
 11
363.3420154531
 21
31.3328301295
 12
363.2263905634
 22
31.3005673426
 13
363.2263905634
 23
31.3005673426
  0
SOLID
  8
0
 62
7
  6
CONTINUOUS
 10
363.1107656736
 20
31.2360394487
 11
363.0529530634
 21
31.139248859
 12
362.7638906736
 22
31.2037759492
 13
362.7638906736
 23
31.2037759492
  0
SOLID
  8
0
 62
7
  6
CONTINUOUS
 10
362.7638906736
 20
31.1069845557
 11
362.7638906736
 21
31.2037759492
 12
363.0529530634
 22
31.139248859
 13
363.0529530634
 23
31.139248859
  0
SOLID
  8
0
 62
7
  6
CONTINUOUS
 10
363.0529530634
 20
31.139248859
 11
363.0529530634
 21
31.0747202524
 12
362.7638906736
 22
31.1069845557
 13
362.7638906736
 23
31.1069845557
  0
SOLID
  8
0
 62
7
  6
CONTINUOUS
 10
362.8217029531
 20
30.9779303754
 11
362.7638906736
 21
31.1069845557
 12
363.0529530634
 22
31.0747202524
 13
363.0529530634
 23
31.0747202524
  0
SOLID
  8
0
 62
7
  6
CONTINUOUS
 10
364.2092032839
 20
31.1715120759
 11
364.4982653428
 21
31.0747202524
 12
364.1513903428
 22
31.1069845557
 13
364.1513903428
 23
31.1069845557
  0
SOLID
  8
0
 62
7
  6
CONTINUOUS
 10
363.9779528428
 20
31.0101931623
 11
364.1513903428
 21
31.1069845557
 12
364.4982653428
 22
31.0747202524
 13
364.4982653428
 23
31.0747202524
  0
SOLID
  8
0
 62
7
  6
CONTINUOUS
 10
363.9779528428
 20
31.0101931623
 11
364.4982653428
 21
31.0747202524
 12
364.2092032839
 22
30.9779303754
 13
364.2092032839
 23
30.9779303754
  0
SOLID
  8
0
 62
7
  6
CONTINUOUS
 10
364.4982653428
 20
31.0747202524
 11
364.5560782839
 21
30.9134032852
 12
364.2092032839
 22
30.9779303754
 13
364.2092032839
 23
30.9779303754
  0
SOLID
  8
0
 62
7
  6
CONTINUOUS
 10
364.2670155634
 20
30.8811389819
 11
364.2092032839
 21
30.9779303754
 12
364.5560782839
 22
30.9134032852
 13
364.5560782839
 23
30.9134032852
  0
SOLID
  8
0
 62
7
  6
CONTINUOUS
 10
364.2670155634
 20
30.8811389819
 11
364.5560782839
 21
30.9134032852
 12
364.3248278428
 22
30.816611867
 13
364.3248278428
 23
30.816611867
  0
SOLID
  8
0
 62
7
  6
CONTINUOUS
 10
364.5560782839
 20
30.9134032852
 11
364.6138905634
 21
30.816611867
 12
364.3248278428
 22
30.816611867
 13
364.3248278428
 23
30.816611867
  0
SOLID
  8
0
 62
7
  6
CONTINUOUS
 10
359.8732656185
 20
31.0424573076
 11
359.9310780634
 21
31.1392488159
 12
360.2201406185
 22
31.1392488159
 13
360.2201406185
 23
31.1392488159
  0
SOLID
  8
0
 62
7
  6
CONTINUOUS
 10
360.2201406185
 20
31.1392488159
 11
360.1623280082
 21
31.0101931623
 12
359.8732656185
 22
31.0424573076
 13
359.8732656185
 23
31.0424573076
  0
SOLID
  8
0
 62
7
  6
CONTINUOUS
 10
359.6998280358
 20
30.9779303754
 11
359.8732656185
 21
31.0424573076
 12
360.1623280082
 22
31.0101931623
 13
360.1623280082
 23
31.0101931623
  0
SOLID
  8
0
 62
7
  6
CONTINUOUS
 10
359.6998280358
 20
30.9779303754
 11
360.1623280082
 21
31.0101931623
 12
359.2951405909
 22
30.9456660721
 13
359.2951405909
 23
30.9456660721
  0
SOLID
  8
0
 62
7
  6
CONTINUOUS
 10
360.1623280082
 20
31.0101931623
 11
359.9888905082
 21
30.9134032852
 12
359.2951405909
 22
30.9456660721
 13
359.2951405909
 23
30.9456660721
  0
SOLID
  8
0
 62
7
  6
CONTINUOUS
 10
358.8326405772
 20
30.8811389819
 11
359.2951405909
 21
30.9456660721
 12
359.9888905082
 22
30.9134032852
 13
359.9888905082
 23
30.9134032852
  0
SOLID
  8
0
 62
7
  6
CONTINUOUS
 10
358.8326405772
 20
30.8811389819
 11
359.9888905082
 21
30.9134032852
 12
359.0060780772
 22
30.8488745775
 13
359.0060780772
 23
30.8488745775
  0
SOLID
  8
0
 62
7
  6
CONTINUOUS
 10
359.9888905082
 20
30.9134032852
 11
359.7576405634
 21
30.8488745775
 12
359.0060780772
 22
30.8488745775
 13
359.0060780772
 23
30.8488745775
  0
SOLID
  8
0
 62
7
  6
CONTINUOUS
 10
359.3529530358
 20
30.8166118918
 11
359.0060780772
 21
30.8488745775
 12
359.7576405634
 22
30.8488745775
 13
359.7576405634
 23
30.8488745775
  0
SOLID
  8
0
 62
7
  6
CONTINUOUS
 10
362.8217029531
 20
30.9779303754
 11
363.0529530634
 21
31.0747202524
 12
363.1107656736
 22
31.0101931623
 13
363.1107656736
 23
31.0101931623
  0
SOLID
  8
0
 62
7
  6
CONTINUOUS
 10
363.1107656736
 20
31.0101931623
 11
363.3420154531
 21
30.9456660721
 12
362.8217029531
 22
30.9779303754
 13
362.8217029531
 23
30.9779303754
  0
SOLID
  8
0
 62
7
  6
CONTINUOUS
 10
362.9951404531
 20
30.8811389819
 11
362.8217029531
 21
30.9779303754
 12
363.3420154531
 22
30.9456660721
 13
363.3420154531
 23
30.9456660721
  0
SOLID
  8
0
 62
7
  6
CONTINUOUS
 10
363.6888904531
 20
30.9456661188
 11
363.9779528428
 21
31.0101931623
 12
364.2092032839
 22
30.9779303754
 13
364.2092032839
 23
30.9779303754
  0
SOLID
  8
0
 62
7
  6
CONTINUOUS
 10
364.2092032839
 20
30.9779303754
 11
364.1513903428
 21
30.9134032852
 12
363.6888904531
 22
30.9456661188
 13
363.6888904531
 23
30.9456661188
  0
SOLID
  8
0
 62
7
  6
CONTINUOUS
 10
364.1513903428
 20
30.9134032852
 11
362.9951404531
 21
30.8811389819
 12
363.6888904531
 22
30.9456661188
 13
363.6888904531
 23
30.9456661188
  0
SOLID
  8
0
 62
7
  6
CONTINUOUS
 10
362.9951404531
 20
30.8811389819
 11
363.3420154531
 21
30.9456661188
 12
363.6888904531
 22
30.9456661188
 13
363.6888904531
 23
30.9456661188
  0
SOLID
  8
0
 62
7
  6
CONTINUOUS
 10
362.9951404531
 20
30.8811389819
 11
364.1513903428
 21
30.9134032852
 12
363.1107656736
 22
30.8488747093
 13
363.1107656736
 23
30.8488747093
  0
SOLID
  8
0
 62
7
  6
CONTINUOUS
 10
364.1513903428
 20
30.9134032852
 11
363.9779528428
 21
30.8488747093
 12
363.1107656736
 22
30.8488747093
 13
363.1107656736
 23
30.8488747093
  0
SOLID
  8
0
 62
7
  6
CONTINUOUS
 10
363.3420154531
 20
30.816611874
 11
363.1107656736
 21
30.8488747093
 12
363.9779528428
 22
30.8488747093
 13
363.9779528428
 23
30.8488747093
  0
SOLID
  8
0
 62
7
  6
CONTINUOUS
 10
363.9779528428
 20
30.8488747093
 11
363.6888904531
 21
30.816611874
 12
363.3420154531
 22
30.816611874
 13
363.3420154531
 23
30.816611874
  0
SOLID
  8
0
 62
7
  6
CONTINUOUS
 10
368.3717032839
 20
30.9779303754
 11
368.0248282839
 21
30.9456661188
 12
368.2560780634
 22
31.0101931623
 13
368.2560780634
 23
31.0101931623
  0
SOLID
  8
0
 62
7
  6
CONTINUOUS
 10
368.2560780634
 20
31.0101931623
 11
368.0248282839
 21
30.9456661188
 12
368.1982657839
 22
31.0747202992
 13
368.1982657839
 23
31.0747202992
  0
SOLID
  8
0
 62
7
  6
CONTINUOUS
 10
368.0248282839
 20
30.9456661188
 11
367.9092030634
 21
31.0747202992
 12
368.1982657839
 22
31.0747202992
 13
368.1982657839
 23
31.0747202992
  0
SOLID
  8
0
 62
7
  6
CONTINUOUS
 10
368.3717032839
 20
30.9779303754
 11
368.7185782839
 21
30.9456661188
 12
368.0248282839
 22
30.9456661188
 13
368.0248282839
 23
30.9456661188
  0
SOLID
  8
0
 62
7
  6
CONTINUOUS
 10
365.0763907839
 20
30.8166118918
 11
365.0763907839
 21
31.8490498836
 12
365.3654528428
 22
30.8166118918
 13
365.3654528428
 23
31.8490498836
  0
ENDBLK
  8
0
  6
BYBLOCK
 62
0
  0
BLOCK
  8
0
 62
2
  6
CONTINUOUS
  2
SYMBOL_0_BL0
 70
64
 10
241.0459637928
 20
19.6790146053
  0
TEXT
  8
0
 62
7
  6
CONTINUOUS
 10
227.3106676351
 20
19.0524287129
  7
TEXTSTYLE_3
 40
2.7338706658
  1
Ammeraal Beltech
 41
1.0
 51
15.0
 72
0
  0
TEXT
  8
0
 62
7
  6
CONTINUOUS
 10
238.1114684608
 20
16.7788920401
  7
TEXTSTYLE_4
 40
1.0935482663
  1
Innovation & Service in Belting
 41
1.0
 72
0
  0
LINE
  8
0
 62
7
  6
CONTINUOUS
 10
221.2861269837
 20
19.8190220215
 11
222.0642789771
 21
23.4799393191
  0
LINE
  8
0
 62
7
  6
CONTINUOUS
 10
232.1594472669
 20
27.1433332308
 11
222.5520967201
 21
24.0217158095
  0
LINE
  8
0
 62
7
  6
CONTINUOUS
 10
221.511410316
 20
19.1256712184
 11
229.0184855772
 21
12.3662702925
  0
LINE
  8
0
 62
7
  6
CONTINUOUS
 10
221.7739447268
 20
20.3607985118
 11
232.5822140919
 21
23.8726181108
  0
LINE
  8
0
 62
7
  6
CONTINUOUS
 10
232.5780089548
 20
13.522829547
 11
224.132549286
 21
21.1271555887
  0
LINE
  8
0
 62
7
  6
CONTINUOUS
 10
233.0978316746
 20
26.298408115
 11
232.1212721373
 21
21.7040567125
  0
LINE
  8
0
 62
7
  6
CONTINUOUS
 10
231.4214701896
 20
18.4117473987
 11
230.7350219782
 21
15.1822624744
  0
LINE
  8
0
 62
7
  6
CONTINUOUS
 10
233.7789277731
 20
13.9130317247
 11
234.7351593087
 21
18.4117473987
  0
LINE
  8
0
 62
7
  6
CONTINUOUS
 10
235.4349612564
 20
21.7040567125
 11
235.8792030588
 21
23.7940500719
  0
LINE
  8
0
 62
7
  6
CONTINUOUS
 10
229.7315866525
 20
12.2146959798
 11
233.2911100301
 21
13.3712552343
  0
LINE
  8
0
 62
7
  6
CONTINUOUS
 10
232.8725483422
 20
26.9917589181
 11
235.6539197265
 21
24.487400875
  0
ARC
  8
0
 62
7
  6
CONTINUOUS
 10
222.7773800524
 20
23.3283650064
 40
0.7290321776
 50
108.0
 51
168.0
  0
ARC
  8
0
 62
7
  6
CONTINUOUS
 10
232.3847305992
 20
26.4499824277
 40
0.7290321776
 50
348.0
 51
108.0
  0
ARC
  8
0
 62
7
  6
CONTINUOUS
 10
235.1661019835
 20
23.9456243846
 40
0.7290321776
 50
348.0
 51
48.0
  0
ARC
  8
0
 62
7
  6
CONTINUOUS
 10
229.5063033202
 20
12.9080467828
 40
0.7290321776
 50
228.0
 51
288.0
  0
ARC
  8
0
 62
7
  6
CONTINUOUS
 10
221.9992280591
 20
19.6674477088
 40
0.7290321776
 50
108.0
 51
228.0
  0
ARC
  8
0
 62
7
  6
CONTINUOUS
 10
233.0658266978
 20
14.0646060374
 40
0.7290321776
 50
228.0
 51
348.0
  0
ENDBLK
  8
0
  6
BYBLOCK
 62
0
  0
ENDSEC
  0
SECTION
  2
ENTITIES
  0
TEXT
  8
0
 62
5
  6
CONTINUOUS
 10
304.937007874
 20
25.636
  7
TEXTSTYLE_2
 40
2.8
  1
Scale :
 41
0.6
 51
0.000019
 72
0
  0
TEXT
  8
0
 62
5
  6
CONTINUOUS
 10
324.937007874
 20
25.636
  7
TEXTSTYLE_2
 40
2.8
  1
Chain type:
 41
0.6
 51
0.000019
 72
0
  0
INSERT
  8
0
 62
2
  6
CONTINUOUS
  2
SYMBOL_0_BL0
 10
241.0459637928
 20
19.6790146053
  0
INSERT
  8
0
 62
2
  6
CONTINUOUS
  2
SYMBOL_5_BL1
 10
382.3920721743
 20
35.81661148
  0
LINE
  8
0
 62
2
  6
CONTINUOUS
 10
218.937007874
 20
30.0
 11
408.937007874
 21
30.0
  0
LINE
  8
0
 62
2
  6
CONTINUOUS
 10
218.937007874
 20
30.0
 11
218.937007874
 21
10.0
  0
LINE
  8
0
 62
2
  6
CONTINUOUS
 10
218.937007874
 20
10.0
 11
408.937007874
 21
10.0
  0
LINE
  8
0
 62
2
  6
CONTINUOUS
 10
303.937007874
 20
30.0
 11
303.937007874
 21
10.0
  0
LINE
  8
0
 62
2
  6
CONTINUOUS
 10
323.937007874
 20
30.0
 11
323.937007874
 21
10.0
  0
LINE
  8
0
 62
2
  6
CONTINUOUS
 10
408.937007874
 20
30.0
 11
408.937007874
 21
10.0
  0
TEXT
  8
0
 62
5
  6
CONTINUOUS
 10
221.937007874
 20
23.303
  7
TEXTSTYLE_5
 40
1.52
  1
                                                                     Ammeraal Beltech Modular A/S
 41
1.0
 72
0
  0
TEXT
  8
0
 62
5
  6
CONTINUOUS
 10
221.937007874
 20
20.595
  7
TEXTSTYLE_5
 40
1.5
  1
                                                                      Hjulmagervej 21, 7100 Vejle,  DK
 41
1.0
 72
0
  0
TEXT
  8
0
 62
5
  6
CONTINUOUS
 10
221.937007874
 20
17.881
  7
TEXTSTYLE_5
 40
1.495
  1
                                                                      tel: 
 41
1.0
 72
0
  0
TEXT
  8
0
 62
5
  6
CONTINUOUS
 10
266.9239544389
 20
17.881
  7
TEXTSTYLE_5
 40
1.51
  1
+45 75723100     fax: +45 75723348
 41
1.0
 72
0
  0
TEXT
  8
0
 62
5
  6
CONTINUOUS
 10
221.937007874
 20
15.177
  7
TEXTSTYLE_5
 40
1.5
  1
                                                                      admin@unichains.dk  www.unichains.com
 41
1.0
 72
0
  0
TEXT
  8
0
 62
5
  6
CONTINUOUS
 10
308.687007874
 20
13.75
  7
TEXTSTYLE_6
 40
5.0
  1
1:1
 41
0.7
 72
1
 11
313.937007874
 21
13.75
  0
TEXT
  8
0
 62
5
  6
CONTINUOUS
 10
326.937007874
 20
13.75
  7
TEXTSTYLE_7
 40
7.5
  1
uni 2700-H
 41
0.6383333333
 72
0
  0
LINE
  8
0
 62
7
  6
CONTINUOUS
 10
0.0
 20
0.0
 11
0.0
 21
297.0
  0
LINE
  8
0
 62
7
  6
CONTINUOUS
 10
8.937007874
 20
10.0
 11
8.937007874
 21
287.0
  0
LINE
  8
0
 62
7
  6
CONTINUOUS
 10
0.0
 20
0.0
 11
420.0
 21
0.0
  0
LINE
  8
0
 62
7
  6
CONTINUOUS
 10
408.937007874
 20
10.0
 11
8.937007874
 21
10.0
  0
LINE
  8
0
 62
7
  6
CONTINUOUS
 10
218.937007874
 20
30.0
 11
408.937007874
 21
30.0
  0
LINE
  8
0
 62
7
  6
CONTINUOUS
 10
210.0
 20
297.0
 11
210.0
 21
292.0
  0
LINE
  8
0
 62
7
  6
CONTINUOUS
 10
210.0
 20
0.0
 11
210.0
 21
5.0
  0
LINE
  8
0
 62
7
  6
CONTINUOUS
 10
8.937007874
 20
287.0
 11
408.937007874
 21
287.0
  0
LINE
  8
0
 62
7
  6
CONTINUOUS
 10
0.0
 20
297.0
 11
420.0
 21
297.0
  0
LINE
  8
0
 62
7
  6
CONTINUOUS
 10
408.937007874
 20
287.0
 11
408.937007874
 21
10.0
  0
LINE
  8
0
 62
7
  6
CONTINUOUS
 10
420.0
 20
0.0
 11
420.0
 21
297.0
  0
POLYLINE
  8
0
 62
7
  6
CONTINUOUS
 66
1
 70
0
  0
VERTEX
  8
0
 62
7
  6
CONTINUOUS
 10
65.9333249745
 20
210.3240357539
  0
VERTEX
  8
0
 62
7
  6
CONTINUOUS
 10
65.9488118945
 20
210.0196002725
  0
VERTEX
  8
0
 62
7
  6
CONTINUOUS
 10
66.1333123421
 20
209.2470405309
  0
VERTEX
  8
0
 62
7
  6
CONTINUOUS
 10
66.2984018407
 20
208.8897554792
  0
SEQEND
  0
POLYLINE
  8
0
 62
7
  6
CONTINUOUS
 66
1
 70
0
  0
VERTEX
  8
0
 62
7
  6
CONTINUOUS
 10
68.0785349681
 20
207.8874281061
  0
VERTEX
  8
0
 62
7
  6
CONTINUOUS
 10
68.1021025429
 20
207.1904779339
  0
VERTEX
  8
0
 62
7
  6
CONTINUOUS
 10
68.1721875878
 20
206.8543472531
  0
VERTEX
  8
0
 62
7
  6
CONTINUOUS
 10
68.4237206357
 20
206.2306085687
  0
SEQEND
  0
LINE
  8
0
 62
7
  6
CONTINUOUS
 10
65.9333196721
 20
229.9104173034
 11
65.9333196721
 21
210.3117229037
  0
LINE
  8
0
 62
7
  6
CONTINUOUS
 10
65.9659069416
 20
230.7275036088
 11
65.9333196721
 21
229.9104180328
  0
LINE
  8
0
 62
7
  6
CONTINUOUS
 10
68.4237206357
 20
206.2306085687
 11
68.4183422014
 21
206.0616295197
  0
POLYLINE
  8
0
 62
7
  6
CONTINUOUS
 66
1
 70
0
  0
VERTEX
  8
0
 62
7
  6
CONTINUOUS
 10
66.5453428709
 20
231.9824436305
  0
VERTEX
  8
0
 62
7
  6
CONTINUOUS
 10
66.1913677328
 20
231.5028472244
  0
VERTEX
  8
0
 62
7
  6
CONTINUOUS
 10
66.0717392232
 20
231.2286446408
  0
VERTEX
  8
0
 62
7
  6
CONTINUOUS
 10
65.9659077037
 20
230.727503548
  0
SEQEND
  0
LINE
  8
0
 62
7
  6
CONTINUOUS
 10
79.6195737235
 20
221.2824180328
 11
79.6195737235
 21
220.8124180328
  0
LINE
  8
0
 62
7
  6
CONTINUOUS
 10
74.1202492864
 20
239.557347647
 11
66.5454078883
 21
231.9825062489
  0
LINE
  8
0
 62
7
  6
CONTINUOUS
 10
74.1376703243
 20
239.5745813092
 11
74.1202662263
 21
239.5573681543
  0
POLYLINE
  8
0
 62
7
  6
CONTINUOUS
 66
1
 70
0
  0
VERTEX
  8
0
 62
7
  6
CONTINUOUS
 10
68.4237206357
 20
206.2306085687
  0
VERTEX
  8
0
 62
7
  6
CONTINUOUS
 10
68.6851290916
 20
206.0438316557
  0
VERTEX
  8
0
 62
7
  6
CONTINUOUS
 10
68.9190896957
 20
205.8898374801
  0
VERTEX
  8
0
 62
7
  6
CONTINUOUS
 10
69.1389514703
 20
205.7389930559
  0
SEQEND
  0
LINE
  8
0
 62
7
  6
CONTINUOUS
 10
81.8719748168
 20
220.8124180328
 11
81.872332452
 21
221.2824180328
  0
LINE
  8
0
 62
7
  6
CONTINUOUS
 10
74.6119553834
 20
239.9181739729
 11
74.1356351373
 21
239.5725896094
  0
LINE
  8
0
 62
7
  6
CONTINUOUS
 10
74.8829953346
 20
240.0347445127
 11
74.6130229822
 21
239.9186331323
  0
LINE
  8
CENTER_AXER
 62
2
  6
CENTER
 10
94.2633196721
 20
184.8924180328
 11
94.2633196721
 21
258.8924180328
  0
POLYLINE
  8
0
 62
7
  6
CONTINUOUS
 66
1
 70
0
  0
VERTEX
  8
0
 62
7
  6
CONTINUOUS
 10
156.3393407128
 20
197.0884180328
  0
VERTEX
  8
0
 62
7
  6
CONTINUOUS
 10
156.9736959356
 20
197.0982016294
  0
VERTEX
  8
0
 62
7
  6
CONTINUOUS
 10
157.7124429505
 20
197.1073187814
  0
VERTEX
  8
0
 62
7
  6
CONTINUOUS
 10
158.5052087835
 20
197.115147411
  0
SEQEND
  0
LINE
  8
0
 62
7
  6
CONTINUOUS
 10
172.3075835306
 20
194.0254180328
 11
149.6498635604
 21
194.0254180328
  0
LINE
  8
0
 62
7
  6
CONTINUOUS
 10
149.2074975347
 20
194.0575305263
 11
149.6498669968
 21
194.0254178902
  0
LINE
  8
0
 62
7
  6
CONTINUOUS
 10
106.6543068923
 20
221.2824180328
 11
106.6546645275
 21
220.8124180328
  0
LINE
  8
0
 62
7
  6
CONTINUOUS
 10
108.9237261642
 20
220.8124180328
 11
108.9237261642
 21
221.2824180328
  0
LINE
  8
CURVE_RUNDING
 62
7
  6
CONTINUOUS
 10
106.5442291535
 20
202.4954180328
 11
77.0594196718
 21
202.4954180328
  0
LINE
  8
0
 62
7
  6
CONTINUOUS
 10
106.5442291535
 20
202.4954180328
 11
145.8018410771
 21
202.4954180328
  0
LINE
  8
0
 62
7
  6
CONTINUOUS
 10
76.8001690836
 20
202.4981611928
 11
77.0594196721
 21
202.4954180328
  0
LINE
  8
0
 62
7
  6
CONTINUOUS
 10
148.3576657371
 20
194.3113358305
 11
149.2073062419
 21
194.0575876566
  0
LINE
  8
0
 62
7
  6
CONTINUOUS
 10
111.8798124869
 20
210.8924180328
 11
114.2633196721
 21
208.8924180328
  0
LINE
  8
0
 62
7
  6
CONTINUOUS
 10
114.2633196721
 20
208.8924180328
 11
114.2633196721
 21
209.8924180328
  0
LINE
  8
0
 62
7
  6
CONTINUOUS
 10
114.2633196721
 20
211.8924180328
 11
114.2633196721
 21
212.8924180328
  0
POLYLINE
  8
0
 62
7
  6
CONTINUOUS
 66
1
 70
0
  0
VERTEX
  8
0
 62
7
  6
CONTINUOUS
 10
108.032441321
 20
217.4926234245
  0
VERTEX
  8
0
 62
7
  6
CONTINUOUS
 10
108.5818711093
 20
218.7144094327
  0
VERTEX
  8
0
 62
7
  6
CONTINUOUS
 10
108.7689324001
 20
219.391318158
  0
VERTEX
  8
0
 62
7
  6
CONTINUOUS
 10
108.9237261642
 20
220.8124180328
  0
SEQEND
  0
LINE
  8
0
 62
7
  6
CONTINUOUS
 10
114.2633196721
 20
209.8924180328
 11
125.2633196721
 21
209.8924180328
  0
POLYLINE
  8
0
 62
7
  6
CONTINUOUS
 66
1
 70
0
  0
VERTEX
  8
0
 62
7
  6
CONTINUOUS
 10
87.5356871983
 20
214.5334180328
  0
VERTEX
  8
0
 62
7
  6
CONTINUOUS
 10
86.2268128767
 20
214.6913669045
  0
VERTEX
  8
0
 62
7
  6
CONTINUOUS
 10
84.9478639008
 20
215.1884489137
  0
VERTEX
  8
0
 62
7
  6
CONTINUOUS
 10
83.8241726461
 20
216.0058369394
  0
VERTEX
  8
0
 62
7
  6
CONTINUOUS
 10
82.9432015875
 20
217.0639037632
  0
VERTEX
  8
0
 62
7
  6
CONTINUOUS
 10
82.3275703356
 20
218.2807776126
  0
VERTEX
  8
0
 62
7
  6
CONTINUOUS
 10
81.9776201958
 20
219.5669352011
  0
VERTEX
  8
0
 62
7
  6
CONTINUOUS
 10
81.8719748168
 20
220.8124180328
  0
SEQEND
  0
POLYLINE
  8
0
 62
7
  6
CONTINUOUS
 66
1
 70
0
  0
VERTEX
  8
0
 62
7
  6
CONTINUOUS
 10
85.5201817957
 20
214.5334180328
  0
VERTEX
  8
0
 62
7
  6
CONTINUOUS
 10
84.0804038464
 20
214.7168316956
  0
VERTEX
  8
0
 62
7
  6
CONTINUOUS
 10
82.7216196
 20
215.2656625118
  0
VERTEX
  8
0
 62
7
  6
CONTINUOUS
 10
81.5371691755
 20
216.1508817474
  0
VERTEX
  8
0
 62
7
  6
CONTINUOUS
 10
81.0391209451
 20
216.6963312474
  0
VERTEX
  8
0
 62
7
  6
CONTINUOUS
 10
80.2520732647
 20
217.956097966
  0
VERTEX
  8
0
 62
7
  6
CONTINUOUS
 10
79.7764774039
 20
219.3576439512
  0
VERTEX
  8
0
 62
7
  6
CONTINUOUS
 10
79.6195737235
 20
220.8124180328
  0
SEQEND
  0
POLYLINE
  8
0
 62
7
  6
CONTINUOUS
 66
1
 70
0
  0
VERTEX
  8
0
 62
7
  6
CONTINUOUS
 10
145.562277952
 20
202.4954180681
  0
VERTEX
  8
0
 62
7
  6
CONTINUOUS
 10
145.9275940852
 20
202.4278061005
  0
VERTEX
  8
0
 62
7
  6
CONTINUOUS
 10
146.2445333501
 20
202.233957827
  0
VERTEX
  8
0
 62
7
  6
CONTINUOUS
 10
146.3713358791
 20
202.0971425102
  0
VERTEX
  8
0
 62
7
  6
CONTINUOUS
 10
146.5405842585
 20
201.7664119172
  0
VERTEX
  8
0
 62
7
  6
CONTINUOUS
 10
146.5832278513
 20
201.4752647198
  0
SEQEND
  0
POLYLINE
  8
0
 62
7
  6
CONTINUOUS
 66
1
 70
0
  0
VERTEX
  8
0
 62
7
  6
CONTINUOUS
 10
108.032441321
 20
224.6022126411
  0
VERTEX
  8
0
 62
7
  6
CONTINUOUS
 10
108.5818711093
 20
223.3804266329
  0
VERTEX
  8
0
 62
7
  6
CONTINUOUS
 10
108.7689324001
 20
222.7035179076
  0
VERTEX
  8
0
 62
7
  6
CONTINUOUS
 10
108.9237261642
 20
221.2824180328
  0
SEQEND
  0
LINE
  8
0
 62
7
  6
CONTINUOUS
 10
125.2633196721
 20
211.8924180328
 11
114.2633196721
 21
211.8924180328
  0
LINE
  8
0
 62
7
  6
CONTINUOUS
 10
103.0064575486
 20
214.5334180328
 11
85.5201817957
 21
214.5334180328
  0
LINE
  8
0
 62
7
  6
CONTINUOUS
 10
147.6161755149
 20
194.797988264
 11
148.3576657371
 21
194.3113358305
  0
LINE
  8
0
 62
7
  6
CONTINUOUS
 10
125.2633196721
 20
209.8924180328
 11
125.2633196721
 21
211.8924180328
  0
LINE
  8
0
 62
7
  6
CONTINUOUS
 10
114.2633196721
 20
212.8924180328
 11
111.8798124869
 21
210.8924180328
  0
POLYLINE
  8
0
 62
7
  6
CONTINUOUS
 66
1
 70
0
  0
VERTEX
  8
0
 62
7
  6
CONTINUOUS
 10
100.990952146
 20
214.5334180328
  0
VERTEX
  8
0
 62
7
  6
CONTINUOUS
 10
102.2998264676
 20
214.6913669045
  0
VERTEX
  8
0
 62
7
  6
CONTINUOUS
 10
103.5787754435
 20
215.1884489137
  0
VERTEX
  8
0
 62
7
  6
CONTINUOUS
 10
104.7024666982
 20
216.0058369394
  0
VERTEX
  8
0
 62
7
  6
CONTINUOUS
 10
105.5834377568
 20
217.0639037632
  0
VERTEX
  8
0
 62
7
  6
CONTINUOUS
 10
106.1990690086
 20
218.2807776126
  0
VERTEX
  8
0
 62
7
  6
CONTINUOUS
 10
106.5490191484
 20
219.5669352011
  0
VERTEX
  8
0
 62
7
  6
CONTINUOUS
 10
106.6546645275
 20
220.8124180328
  0
SEQEND
  0
POLYLINE
  8
0
 62
7
  6
CONTINUOUS
 66
1
 70
0
  0
VERTEX
  8
0
 62
7
  6
CONTINUOUS
 10
103.0064575486
 20
214.5334180328
  0
VERTEX
  8
0
 62
7
  6
CONTINUOUS
 10
104.3347309788
 20
214.6890504197
  0
VERTEX
  8
0
 62
7
  6
CONTINUOUS
 10
105.5984724055
 20
215.154792448
  0
VERTEX
  8
0
 62
7
  6
CONTINUOUS
 10
106.1837434537
 20
215.4989412942
  0
VERTEX
  8
0
 62
7
  6
CONTINUOUS
 10
107.2216099984
 20
216.3883935563
  0
VERTEX
  8
0
 62
7
  6
CONTINUOUS
 10
108.032441321
 20
217.4926234245
  0
SEQEND
  0
LINE
  8
CENTER_AXER
 62
2
  6
CENTER
 10
43.7633196721
 20
221.8924180328
 11
207.7633196721
 21
221.8924180328
  0
LINE
  8
0
 62
7
  6
CONTINUOUS
 10
147.3059928541
 20
195.1165601399
 11
147.6161755149
 21
194.797988264
  0
LINE
  8
CENTER_AXER
 62
2
  6
CENTER
 10
129.7133196721
 20
184.8924180328
 11
129.7133196721
 21
258.8924180328
  0
LINE
  8
0
 62
7
  6
CONTINUOUS
 10
103.0064575486
 20
227.5614180328
 11
85.5201817957
 21
227.5614180328
  0
POLYLINE
  8
0
 62
7
  6
CONTINUOUS
 66
1
 70
0
  0
VERTEX
  8
0
 62
7
  6
CONTINUOUS
 10
103.0064575486
 20
227.5614180328
  0
VERTEX
  8
0
 62
7
  6
CONTINUOUS
 10
104.3347309788
 20
227.4057856459
  0
VERTEX
  8
0
 62
7
  6
CONTINUOUS
 10
105.5984724055
 20
226.9400436176
  0
VERTEX
  8
0
 62
7
  6
CONTINUOUS
 10
106.1837434537
 20
226.5958947714
  0
VERTEX
  8
0
 62
7
  6
CONTINUOUS
 10
107.2216099984
 20
225.7064425093
  0
VERTEX
  8
0
 62
7
  6
CONTINUOUS
 10
108.032441321
 20
224.6022126411
  0
SEQEND
  0
POLYLINE
  8
0
 62
7
  6
CONTINUOUS
 66
1
 70
0
  0
VERTEX
  8
0
 62
7
  6
CONTINUOUS
 10
100.9828322429
 20
227.5614180328
  0
VERTEX
  8
0
 62
7
  6
CONTINUOUS
 10
102.2942809913
 20
227.4028334666
  0
VERTEX
  8
0
 62
7
  6
CONTINUOUS
 10
103.57478102
 20
226.904339407
  0
VERTEX
  8
0
 62
7
  6
CONTINUOUS
 10
104.6989656351
 20
226.0857639607
  0
VERTEX
  8
0
 62
7
  6
CONTINUOUS
 10
105.5795903878
 20
225.0280927562
  0
VERTEX
  8
0
 62
7
  6
CONTINUOUS
 10
106.1952980525
 20
223.8132150798
  0
VERTEX
  8
0
 62
7
  6
CONTINUOUS
 10
106.5466045909
 20
222.5289187805
  0
VERTEX
  8
0
 62
7
  6
CONTINUOUS
 10
106.6543068923
 20
221.2824180328
  0
SEQEND
  0
LINE
  8
0
 62
7
  6
CONTINUOUS
 10
146.8392966901
 20
195.8707710898
 11
147.3059928541
 21
195.1165601399
  0
POLYLINE
  8
0
 62
7
  6
CONTINUOUS
 66
1
 70
0
  0
VERTEX
  8
0
 62
7
  6
CONTINUOUS
 10
85.5201817957
 20
227.5614180328
  0
VERTEX
  8
0
 62
7
  6
CONTINUOUS
 10
84.0804038464
 20
227.37800437
  0
VERTEX
  8
0
 62
7
  6
CONTINUOUS
 10
82.7216196
 20
226.8291735538
  0
VERTEX
  8
0
 62
7
  6
CONTINUOUS
 10
81.5371691755
 20
225.9439543182
  0
VERTEX
  8
0
 62
7
  6
CONTINUOUS
 10
81.0391209451
 20
225.3985048182
  0
VERTEX
  8
0
 62
7
  6
CONTINUOUS
 10
80.2520732647
 20
224.1387380996
  0
VERTEX
  8
0
 62
7
  6
CONTINUOUS
 10
79.7764774039
 20
222.7371921144
  0
VERTEX
  8
0
 62
7
  6
CONTINUOUS
 10
79.6195737235
 20
221.2824180328
  0
SEQEND
  0
POLYLINE
  8
0
 62
7
  6
CONTINUOUS
 66
1
 70
0
  0
VERTEX
  8
0
 62
7
  6
CONTINUOUS
 10
87.5438071014
 20
227.5614180328
  0
VERTEX
  8
0
 62
7
  6
CONTINUOUS
 10
86.232358353
 20
227.4028334666
  0
VERTEX
  8
0
 62
7
  6
CONTINUOUS
 10
84.9518583242
 20
226.904339407
  0
VERTEX
  8
0
 62
7
  6
CONTINUOUS
 10
83.8276737092
 20
226.0857639607
  0
VERTEX
  8
0
 62
7
  6
CONTINUOUS
 10
82.9470489565
 20
225.0280927562
  0
VERTEX
  8
0
 62
7
  6
CONTINUOUS
 10
82.3313412918
 20
223.8132150798
  0
VERTEX
  8
0
 62
7
  6
CONTINUOUS
 10
81.9800347533
 20
222.5289187805
  0
VERTEX
  8
0
 62
7
  6
CONTINUOUS
 10
81.872332452
 20
221.2824180328
  0
SEQEND
  0
LINE
  8
0
 62
7
  6
CONTINUOUS
 10
154.2471144823
 20
230.150802294
 11
184.1817334545
 21
230.1512196522
  0
LINE
  8
0
 62
7
  6
CONTINUOUS
 10
111.2596551501
 20
233.8381180328
 11
151.96112237
 21
233.8381180328
  0
POLYLINE
  8
0
 62
7
  6
CONTINUOUS
 66
1
 70
0
  0
VERTEX
  8
0
 62
7
  6
CONTINUOUS
 10
184.3663196721
 20
230.1420805627
  0
VERTEX
  8
0
 62
7
  6
CONTINUOUS
 10
184.3456622691
 20
230.1451797747
  0
VERTEX
  8
0
 62
7
  6
CONTINUOUS
 10
184.2837435219
 20
230.1482454798
  0
VERTEX
  8
0
 62
7
  6
CONTINUOUS
 10
184.1817334545
 20
230.1512196522
  0
SEQEND
  0
POLYLINE
  8
0
 62
7
  6
CONTINUOUS
 66
1
 70
0
  0
VERTEX
  8
0
 62
7
  6
CONTINUOUS
 10
154.2471196723
 20
230.0777265889
  0
VERTEX
  8
0
 62
7
  6
CONTINUOUS
 10
153.5936604543
 20
230.1831088307
  0
VERTEX
  8
0
 62
7
  6
CONTINUOUS
 10
153.0016823981
 20
230.4972996027
  0
VERTEX
  8
0
 62
7
  6
CONTINUOUS
 10
152.5539220562
 20
230.9721811006
  0
VERTEX
  8
0
 62
7
  6
CONTINUOUS
 10
152.2901750992
 20
231.529172806
  0
VERTEX
  8
0
 62
7
  6
CONTINUOUS
 10
152.2051196722
 20
232.1119992673
  0
SEQEND
  0
LINE
  8
0
 62
7
  6
CONTINUOUS
 10
146.6082552741
 20
196.7270765723
 11
146.8392966901
 21
195.8707710898
  0
LINE
  8
0
 62
7
  6
CONTINUOUS
 10
146.5868679646
 20
197.0858779756
 11
146.6082552741
 21
196.7270765723
  0
LINE
  8
0
 62
7
  6
CONTINUOUS
 10
146.583228124
 20
201.4752570383
 11
146.5868682665
 21
197.0858759576
  0
LINE
  8
0
 62
7
  6
CONTINUOUS
 10
76.1933196721
 20
240.1704180328
 11
75.3762365043
 21
240.1378309558
  0
LINE
  8
0
 62
7
  6
CONTINUOUS
 10
76.1930847359
 20
240.1704180328
 11
164.5929411364
 21
240.1704180328
  0
POLYLINE
  8
0
 62
7
  6
CONTINUOUS
 66
1
 70
0
  0
VERTEX
  8
0
 62
7
  6
CONTINUOUS
 10
179.5507902717
 20
232.1930653865
  0
VERTEX
  8
0
 62
7
  6
CONTINUOUS
 10
180.2197590024
 20
232.0562097387
  0
VERTEX
  8
0
 62
7
  6
CONTINUOUS
 10
180.8838555267
 20
231.8861641298
  0
VERTEX
  8
0
 62
7
  6
CONTINUOUS
 10
181.5396198397
 20
231.6804679452
  0
SEQEND
  0
LINE
  8
0
 62
7
  6
CONTINUOUS
 10
154.2461955907
 20
230.2552650427
 11
154.2471144823
 21
230.1509501282
  0
LINE
  8
0
 62
7
  6
CONTINUOUS
 10
154.2441453079
 20
232.1928723752
 11
154.2461955907
 21
230.2552650427
  0
LINE
  8
0
 62
7
  6
CONTINUOUS
 10
152.2051196721
 20
232.8171180328
 11
152.2051196721
 21
232.1119992673
  0
LINE
  8
0
 62
7
  6
CONTINUOUS
 10
75.3762364957
 20
240.1378309542
 11
74.8834145231
 21
240.0348321223
  0
POLYLINE
  8
0
 62
7
  6
CONTINUOUS
 66
1
 70
0
  0
VERTEX
  8
0
 62
7
  6
CONTINUOUS
 10
154.2441453532
 20
232.8171180328
  0
VERTEX
  8
0
 62
7
  6
CONTINUOUS
 10
153.3775974216
 20
233.3905749629
  0
VERTEX
  8
0
 62
7
  6
CONTINUOUS
 10
152.6102179939
 20
233.734698196
  0
VERTEX
  8
0
 62
7
  6
CONTINUOUS
 10
151.96112237
 20
233.8381180328
  0
SEQEND
  0
POLYLINE
  8
0
 62
7
  6
CONTINUOUS
 66
1
 70
0
  0
VERTEX
  8
0
 62
7
  6
CONTINUOUS
 10
181.5396198397
 20
231.6804679452
  0
VERTEX
  8
0
 62
7
  6
CONTINUOUS
 10
182.0898076611
 20
231.4319772569
  0
VERTEX
  8
0
 62
7
  6
CONTINUOUS
 10
182.4119440888
 20
231.2433660005
  0
VERTEX
  8
0
 62
7
  6
CONTINUOUS
 10
183.0005141796
 20
230.8365948299
  0
SEQEND
  0
LINE
  8
CENTER_AXER
 62
2
  6
CENTER
 10
165.1633196721
 20
184.8924180328
 11
165.1633196721
 21
258.8924180328
  0
LINE
  8
0
 62
7
  6
CONTINUOUS
 10
176.1589564944
 20
236.5790748044
 11
184.3663196721
 21
230.9383103721
  0
POLYLINE
  8
0
 62
7
  6
CONTINUOUS
 66
1
 70
0
  0
VERTEX
  8
0
 62
7
  6
CONTINUOUS
 10
183.0005142156
 20
230.8365948054
  0
VERTEX
  8
0
 62
7
  6
CONTINUOUS
 10
183.5507518966
 20
230.4458505322
  0
VERTEX
  8
0
 62
7
  6
CONTINUOUS
 10
183.9348682619
 20
230.2245142097
  0
VERTEX
  8
0
 62
7
  6
CONTINUOUS
 10
184.1817334545
 20
230.1512196522
  0
SEQEND
  0
LINE
  8
0
 62
7
  6
CONTINUOUS
 10
184.3663196721
 20
206.0841541743
 11
184.3663196721
 21
230.9383103721
  0
LINE
  8
0
 62
7
  6
CONTINUOUS
 10
174.4734516014
 20
194.922549962
 11
183.4691877429
 21
203.9182861036
  0
POLYLINE
  8
0
 62
7
  6
CONTINUOUS
 66
1
 70
0
  0
VERTEX
  8
0
 62
7
  6
CONTINUOUS
 10
181.5396198397
 20
42.9766781639
  0
VERTEX
  8
0
 62
7
  6
CONTINUOUS
 10
182.0898076611
 20
43.0576321255
  0
VERTEX
  8
0
 62
7
  6
CONTINUOUS
 10
182.4119440888
 20
43.144315054
  0
VERTEX
  8
0
 62
7
  6
CONTINUOUS
 10
183.0005141796
 20
43.4248329823
  0
SEQEND
  0
POLYLINE
  8
0
 62
7
  6
CONTINUOUS
 66
1
 70
0
  0
VERTEX
  8
0
 62
7
  6
CONTINUOUS
 10
179.5507902717
 20
42.9141863789
  0
VERTEX
  8
0
 62
7
  6
CONTINUOUS
 10
180.2197590024
 20
42.9178035163
  0
VERTEX
  8
0
 62
7
  6
CONTINUOUS
 10
180.8838555267
 20
42.9354406901
  0
VERTEX
  8
0
 62
7
  6
CONTINUOUS
 10
181.5396198397
 20
42.9766781639
  0
SEQEND
  0
LINE
  8
0
 62
7
  6
CONTINUOUS
 10
125.143810635
 20
42.9934340398
 11
179.5507902716
 21
42.9141863013
  0
LINE
  8
CENTER_AXER
 62
2
  6
CENTER
 10
94.2633196721
 20
37.5071721311
 11
94.2633196721
 21
161.5071721311
  0
POLYLINE
  8
0
 62
7
  6
CONTINUOUS
 66
1
 70
0
  0
VERTEX
  8
0
 62
7
  6
CONTINUOUS
 10
174.1619617032
 20
69.6838719033
  0
VERTEX
  8
0
 62
7
  6
CONTINUOUS
 10
171.5725868491
 20
69.6906179533
  0
VERTEX
  8
0
 62
7
  6
CONTINUOUS
 10
168.8095096264
 20
69.6951911936
  0
SEQEND
  0
POLYLINE
  8
0
 62
7
  6
CONTINUOUS
 66
1
 70
0
  0
VERTEX
  8
0
 62
7
  6
CONTINUOUS
 10
168.8095175817
 20
69.6951911836
  0
VERTEX
  8
0
 62
7
  6
CONTINUOUS
 10
166.9891705985
 20
69.7529901376
  0
VERTEX
  8
0
 62
7
  6
CONTINUOUS
 10
164.8622341242
 20
69.9634834778
  0
SEQEND
  0
POLYLINE
  8
0
 62
7
  6
CONTINUOUS
 66
1
 70
0
  0
VERTEX
  8
0
 62
7
  6
CONTINUOUS
 10
175.3561836719
 20
69.609817351
  0
VERTEX
  8
0
 62
7
  6
CONTINUOUS
 10
174.9813630376
 20
69.648264129
  0
VERTEX
  8
0
 62
7
  6
CONTINUOUS
 10
174.535575352
 20
69.6758412197
  0
VERTEX
  8
0
 62
7
  6
CONTINUOUS
 10
174.16196097
 20
69.6838719056
  0
SEQEND
  0
POLYLINE
  8
0
 62
7
  6
CONTINUOUS
 66
1
 70
0
  0
VERTEX
  8
0
 62
7
  6
CONTINUOUS
 10
164.8622341243
 20
69.963483478
  0
VERTEX
  8
0
 62
7
  6
CONTINUOUS
 10
160.1015654592
 20
71.01991868
  0
VERTEX
  8
0
 62
7
  6
CONTINUOUS
 10
155.505831626
 20
72.8900073191
  0
VERTEX
  8
0
 62
7
  6
CONTINUOUS
 10
151.2905511902
 20
75.5094671203
  0
VERTEX
  8
0
 62
7
  6
CONTINUOUS
 10
147.5775551566
 20
78.8030668993
  0
VERTEX
  8
0
 62
7
  6
CONTINUOUS
 10
145.943460838
 20
80.6737889013
  0
VERTEX
  8
0
 62
7
  6
CONTINUOUS
 10
143.1788221041
 20
84.7958334938
  0
SEQEND
  0
POLYLINE
  8
0
 62
7
  6
CONTINUOUS
 66
1
 70
0
  0
VERTEX
  8
0
 62
7
  6
CONTINUOUS
 10
164.8622304997
 20
69.9634568046
  0
VERTEX
  8
0
 62
7
  6
CONTINUOUS
 10
160.0378359703
 20
71.0398037474
  0
VERTEX
  8
0
 62
7
  6
CONTINUOUS
 10
155.4628196817
 20
72.9119426853
  0
VERTEX
  8
0
 62
7
  6
CONTINUOUS
 10
151.2676536053
 20
75.526539755
  0
VERTEX
  8
0
 62
7
  6
CONTINUOUS
 10
147.5717042898
 20
78.8092009256
  0
SEQEND
  0
LINE
  8
0
 62
7
  6
CONTINUOUS
 10
122.131805966
 20
153.4897978399
 11
117.798778629
 21
128.9159786799
  0
LINE
  8
0
 62
7
  6
CONTINUOUS
 10
117.798778629
 20
70.0983655824
 11
122.131805966
 21
45.5245464224
  0
POLYLINE
  8
0
 62
7
  6
CONTINUOUS
 66
1
 70
0
  0
VERTEX
  8
0
 62
7
  6
CONTINUOUS
 10
147.5717031487
 20
120.2051421363
  0
VERTEX
  8
0
 62
7
  6
CONTINUOUS
 10
151.2676522771
 20
123.4878035147
  0
VERTEX
  8
0
 62
7
  6
CONTINUOUS
 10
155.4628181932
 20
126.1024008154
  0
VERTEX
  8
0
 62
7
  6
CONTINUOUS
 10
160.0378343489
 20
127.9745400063
  0
VERTEX
  8
0
 62
7
  6
CONTINUOUS
 10
164.8622304997
 20
129.0508874577
  0
SEQEND
  0
LINE
  8
CENTER_AXER
 62
2
  6
CENTER
 10
43.7633196721
 20
99.5071721311
 11
207.7633196721
 21
99.5071721311
  0
LINE
  8
CENTER_AXER
 62
2
  6
CENTER
 10
129.7133196721
 20
104.7571721311
 11
129.7133196721
 21
101.5072721311
  0
LINE
  8
CENTER_AXER
 62
2
  6
CONTINUOUS
 10
129.7133196721
 20
100.5571721311
 11
129.7133196721
 21
98.4571721311
  0
LINE
  8
CENTER_AXER
 62
2
  6
CENTER
 10
129.7133196721
 20
94.2571721311
 11
129.7133196721
 21
97.5070721311
  0
POLYLINE
  8
0
 62
7
  6
CONTINUOUS
 66
1
 70
0
  0
VERTEX
  8
0
 62
7
  6
CONTINUOUS
 10
142.5736034284
 20
113.0666445151
  0
VERTEX
  8
0
 62
7
  6
CONTINUOUS
 10
145.9391346412
 20
118.3351556603
  0
VERTEX
  8
0
 62
7
  6
CONTINUOUS
 10
147.5727871622
 20
120.2062634922
  0
VERTEX
  8
0
 62
7
  6
CONTINUOUS
 10
151.2850005891
 20
123.5007364373
  0
VERTEX
  8
0
 62
7
  6
CONTINUOUS
 10
155.4996439464
 20
126.1211833209
  0
VERTEX
  8
0
 62
7
  6
CONTINUOUS
 10
160.0949246193
 20
127.9923581859
  0
VERTEX
  8
0
 62
7
  6
CONTINUOUS
 10
164.8622341242
 20
129.0508607843
  0
SEQEND
  0
POLYLINE
  8
0
 62
7
  6
CONTINUOUS
 66
1
 70
0
  0
VERTEX
  8
0
 62
7
  6
CONTINUOUS
 10
145.9444539026
 20
80.6725326404
  0
VERTEX
  8
0
 62
7
  6
CONTINUOUS
 10
143.1893293469
 20
84.7768741274
  0
VERTEX
  8
0
 62
7
  6
CONTINUOUS
 10
142.5735926829
 20
85.947700414
  0
SEQEND
  0
LINE
  8
0
 62
7
  6
CONTINUOUS
 10
139.5073196721
 20
100.0172425597
 11
139.5073196721
 21
98.9971017026
  0
POLYLINE
  8
0
 62
7
  6
CONTINUOUS
 66
1
 70
0
  0
VERTEX
  8
0
 62
7
  6
CONTINUOUS
 10
139.5073196721
 20
100.0172425597
  0
VERTEX
  8
0
 62
7
  6
CONTINUOUS
 10
139.9242849482
 20
104.9427944129
  0
VERTEX
  8
0
 62
7
  6
CONTINUOUS
 10
141.1633857458
 20
109.728362755
  0
VERTEX
  8
0
 62
7
  6
CONTINUOUS
 10
142.5735944094
 20
113.0666473194
  0
SEQEND
  0
POLYLINE
  8
0
 62
7
  6
CONTINUOUS
 66
1
 70
0
  0
VERTEX
  8
0
 62
7
  6
CONTINUOUS
 10
142.5735944094
 20
113.0666473194
  0
VERTEX
  8
0
 62
7
  6
CONTINUOUS
 10
143.1893285424
 20
114.2374686854
  0
VERTEX
  8
0
 62
7
  6
CONTINUOUS
 10
145.9444528669
 20
118.3418103296
  0
SEQEND
  0
POLYLINE
  8
0
 62
7
  6
CONTINUOUS
 66
1
 70
0
  0
VERTEX
  8
0
 62
7
  6
CONTINUOUS
 10
142.5735926829
 20
85.947700414
  0
VERTEX
  8
0
 62
7
  6
CONTINUOUS
 10
141.1633862997
 20
89.2859799304
  0
VERTEX
  8
0
 62
7
  6
CONTINUOUS
 10
139.9242852337
 20
94.0715481751
  0
VERTEX
  8
0
 62
7
  6
CONTINUOUS
 10
139.5073196721
 20
98.9971017026
  0
SEQEND
  0
POLYLINE
  8
0
 62
7
  6
CONTINUOUS
 66
1
 70
0
  0
VERTEX
  8
0
 62
7
  6
CONTINUOUS
 10
175.3562100824
 20
129.4045301156
  0
VERTEX
  8
0
 62
7
  6
CONTINUOUS
 10
176.9570128266
 20
129.730035986
  0
VERTEX
  8
0
 62
7
  6
CONTINUOUS
 10
178.4409608203
 20
130.2850223636
  0
VERTEX
  8
0
 62
7
  6
CONTINUOUS
 10
179.731409357
 20
131.0024220095
  0
VERTEX
  8
0
 62
7
  6
CONTINUOUS
 10
180.8367066487
 20
131.8376183724
  0
VERTEX
  8
0
 62
7
  6
CONTINUOUS
 10
181.7692443697
 20
132.7576508694
  0
VERTEX
  8
0
 62
7
  6
CONTINUOUS
 10
182.5393232792
 20
133.7346897471
  0
VERTEX
  8
0
 62
7
  6
CONTINUOUS
 10
182.8644148517
 20
134.2333728925
  0
VERTEX
  8
0
 62
7
  6
CONTINUOUS
 10
183.399406364
 20
135.2279734602
  0
VERTEX
  8
0
 62
7
  6
CONTINUOUS
 10
183.795917601
 20
136.2008755187
  0
VERTEX
  8
0
 62
7
  6
CONTINUOUS
 10
184.0082958879
 20
136.8860125425
  0
SEQEND
  0
LINE
  8
0
 62
7
  6
CONTINUOUS
 10
174.9813384236
 20
129.3660780691
 11
175.3561851388
 21
129.4045270893
  0
POLYLINE
  8
0
 62
7
  6
CONTINUOUS
 66
1
 70
0
  0
VERTEX
  8
0
 62
7
  6
CONTINUOUS
 10
164.8622341242
 20
129.0508607843
  0
VERTEX
  8
0
 62
7
  6
CONTINUOUS
 10
166.9891655542
 20
129.2613541592
  0
VERTEX
  8
0
 62
7
  6
CONTINUOUS
 10
168.8095079956
 20
129.3191530667
  0
SEQEND
  0
POLYLINE
  8
0
 62
7
  6
CONTINUOUS
 66
1
 70
0
  0
VERTEX
  8
0
 62
7
  6
CONTINUOUS
 10
174.1619604457
 20
129.330472355
  0
VERTEX
  8
0
 62
7
  6
CONTINUOUS
 10
174.5356617365
 20
129.3385064849
  0
VERTEX
  8
0
 62
7
  6
CONTINUOUS
 10
174.9813384236
 20
129.3660780691
  0
SEQEND
  0
POLYLINE
  8
0
 62
7
  6
CONTINUOUS
 66
1
 70
0
  0
VERTEX
  8
0
 62
7
  6
CONTINUOUS
 10
168.8095096627
 20
129.3191530687
  0
VERTEX
  8
0
 62
7
  6
CONTINUOUS
 10
171.5726574424
 20
129.3237264583
  0
VERTEX
  8
0
 62
7
  6
CONTINUOUS
 10
174.1619614613
 20
129.3304723582
  0
SEQEND
  0
LINE
  8
CENTER_AXER
 62
2
  6
CENTER
 10
165.1633196721
 20
37.5071721311
 11
165.1633196721
 21
161.5071721311
  0
POLYLINE
  8
0
 62
7
  6
CONTINUOUS
 66
1
 70
0
  0
VERTEX
  8
0
 62
7
  6
CONTINUOUS
 10
184.0082817429
 20
136.8859595461
  0
VERTEX
  8
0
 62
7
  6
CONTINUOUS
 10
183.9550585015
 20
136.6973964913
  0
VERTEX
  8
0
 62
7
  6
CONTINUOUS
 10
183.5017724593
 20
135.453410822
  0
VERTEX
  8
0
 62
7
  6
CONTINUOUS
 10
183.1576866729
 20
134.7457834147
  0
VERTEX
  8
0
 62
7
  6
CONTINUOUS
 10
182.117066255
 20
133.168994618
  0
VERTEX
  8
0
 62
7
  6
CONTINUOUS
 10
180.5765403247
 20
131.6193238353
  0
VERTEX
  8
0
 62
7
  6
CONTINUOUS
 10
178.6781535112
 20
130.3990786789
  0
VERTEX
  8
0
 62
7
  6
CONTINUOUS
 10
176.5038011287
 20
129.6106762786
  0
VERTEX
  8
0
 62
7
  6
CONTINUOUS
 10
175.3561150031
 20
129.4049182951
  0
SEQEND
  0
POLYLINE
  8
0
 62
7
  6
CONTINUOUS
 66
1
 70
0
  0
VERTEX
  8
0
 62
7
  6
CONTINUOUS
 10
184.0105517116
 20
62.1200209476
  0
VERTEX
  8
0
 62
7
  6
CONTINUOUS
 10
183.8252879215
 20
62.7280679061
  0
VERTEX
  8
0
 62
7
  6
CONTINUOUS
 10
183.4500003234
 20
63.6767603618
  0
VERTEX
  8
0
 62
7
  6
CONTINUOUS
 10
182.9451891028
 20
64.6465247058
  0
VERTEX
  8
0
 62
7
  6
CONTINUOUS
 10
182.2939706077
 20
65.6181772255
  0
VERTEX
  8
0
 62
7
  6
CONTINUOUS
 10
181.4866210179
 20
66.5610016045
  0
VERTEX
  8
0
 62
7
  6
CONTINUOUS
 10
180.5200645622
 20
67.44052697
  0
VERTEX
  8
0
 62
7
  6
CONTINUOUS
 10
179.3997871427
 20
68.2200059992
  0
VERTEX
  8
0
 62
7
  6
CONTINUOUS
 10
178.138829722
 20
68.8639368297
  0
VERTEX
  8
0
 62
7
  6
CONTINUOUS
 10
176.7579628571
 20
69.3394798765
  0
VERTEX
  8
0
 62
7
  6
CONTINUOUS
 10
175.3562102069
 20
69.6098141315
  0
SEQEND
  0
POLYLINE
  8
0
 62
7
  6
CONTINUOUS
 66
1
 70
0
  0
VERTEX
  8
0
 62
7
  6
CONTINUOUS
 10
184.0105382699
 20
62.1200730988
  0
VERTEX
  8
0
 62
7
  6
CONTINUOUS
 10
183.9555223095
 20
62.3153623262
  0
VERTEX
  8
0
 62
7
  6
CONTINUOUS
 10
183.5027304046
 20
63.5587535371
  0
VERTEX
  8
0
 62
7
  6
CONTINUOUS
 10
183.1590143149
 20
64.2660770307
  0
VERTEX
  8
0
 62
7
  6
CONTINUOUS
 10
182.1194487249
 20
65.8423760004
  0
VERTEX
  8
0
 62
7
  6
CONTINUOUS
 10
180.5788507198
 20
67.393145495
  0
VERTEX
  8
0
 62
7
  6
CONTINUOUS
 10
178.6797911621
 20
68.6144520538
  0
VERTEX
  8
0
 62
7
  6
CONTINUOUS
 10
176.5044585191
 20
69.4035107823
  0
VERTEX
  8
0
 62
7
  6
CONTINUOUS
 10
175.356113501
 20
69.6094260228
  0
SEQEND
  0
POLYLINE
  8
0
 62
7
  6
CONTINUOUS
 66
1
 70
0
  0
VERTEX
  8
0
 62
7
  6
CONTINUOUS
 10
184.3663196721
 20
59.4486925286
  0
VERTEX
  8
0
 62
7
  6
CONTINUOUS
 10
184.3620527446
 20
59.7436919565
  0
VERTEX
  8
0
 62
7
  6
CONTINUOUS
 10
184.3183151648
 20
60.4371359113
  0
VERTEX
  8
0
 62
7
  6
CONTINUOUS
 10
184.1997959468
 20
61.2846069926
  0
VERTEX
  8
0
 62
7
  6
CONTINUOUS
 10
184.0105382699
 20
62.1200730988
  0
SEQEND
  0
LINE
  8
0
 62
7
  6
CONTINUOUS
 10
184.3663196721
 20
153.0397073988
 11
184.3663196721
 21
139.5656517336
  0
LINE
  8
0
 62
7
  6
CONTINUOUS
 10
184.3663196721
 20
59.4486925286
 11
184.3663196721
 21
45.9746368635
  0
POLYLINE
  8
0
 62
7
  6
CONTINUOUS
 66
1
 70
0
  0
VERTEX
  8
0
 62
7
  6
CONTINUOUS
 10
184.3663196721
 20
139.5656517336
  0
VERTEX
  8
0
 62
7
  6
CONTINUOUS
 10
184.3620461586
 20
139.2704247806
  0
VERTEX
  8
0
 62
7
  6
CONTINUOUS
 10
184.3182587207
 20
138.576628643
  0
VERTEX
  8
0
 62
7
  6
CONTINUOUS
 10
184.1996040019
 20
137.7286878424
  0
VERTEX
  8
0
 62
7
  6
CONTINUOUS
 10
184.0082817429
 20
136.8859595461
  0
SEQEND
  0
LINE
  8
0
 62
7
  6
CONTINUOUS
 10
125.143810635
 20
156.0209102224
 11
179.5576595148
 21
156.1001679665
  0
POLYLINE
  8
0
 62
7
  6
CONTINUOUS
 66
1
 70
0
  0
VERTEX
  8
0
 62
7
  6
CONTINUOUS
 10
181.5390129767
 20
156.0380022409
  0
VERTEX
  8
0
 62
7
  6
CONTINUOUS
 10
180.8858966765
 20
156.0789947591
  0
VERTEX
  8
0
 62
7
  6
CONTINUOUS
 10
180.2243138488
 20
156.0965600639
  0
VERTEX
  8
0
 62
7
  6
CONTINUOUS
 10
179.5576595148
 20
156.1001679665
  0
SEQEND
  0
POLYLINE
  8
0
 62
7
  6
CONTINUOUS
 66
1
 70
0
  0
VERTEX
  8
0
 62
7
  6
CONTINUOUS
 10
182.9972697676
 20
155.5916675949
  0
VERTEX
  8
0
 62
7
  6
CONTINUOUS
 10
182.5045575987
 20
155.8381662949
  0
VERTEX
  8
0
 62
7
  6
CONTINUOUS
 10
181.992776211
 20
155.976679927
  0
VERTEX
  8
0
 62
7
  6
CONTINUOUS
 10
181.5390129767
 20
156.0380022409
  0
SEQEND
  0
LINE
  8
0
 62
7
  6
CONTINUOUS
 10
265.6081881382
 20
237.1074180328
 11
265.6081881382
 21
233.8381180328
  0
POLYLINE
  8
0
 62
7
  6
CONTINUOUS
 66
1
 70
0
  0
VERTEX
  8
0
 62
7
  6
CONTINUOUS
 10
265.5658013759
 20
232.1904342326
  0
VERTEX
  8
0
 62
7
  6
CONTINUOUS
 10
265.5670633881
 20
233.3905045906
  0
VERTEX
  8
0
 62
7
  6
CONTINUOUS
 10
265.5681811397
 20
233.734662467
  0
VERTEX
  8
0
 62
7
  6
CONTINUOUS
 10
265.5691267655
 20
233.8381180328
  0
SEQEND
  0
LINE
  8
0
 62
7
  6
CONTINUOUS
 10
265.5289200976
 20
232.1906062092
 11
265.5288843443
 21
232.182938711
  0
LINE
  8
0
 62
7
  6
CONTINUOUS
 10
265.532707708
 20
232.9441473056
 11
265.532031469
 21
232.8172980617
  0
LINE
  8
0
 62
7
  6
CONTINUOUS
 10
265.5452114042
 20
236.6984620251
 11
265.532707708
 21
232.9441473056
  0
LINE
  8
0
 62
7
  6
CONTINUOUS
 10
265.6498044317
 20
207.5329221047
 11
265.5588898893
 21
197.115147411
  0
LINE
  8
0
 62
7
  6
CONTINUOUS
 10
265.5477045516
 20
237.0004937455
 11
265.5452114042
 21
236.6984620251
  0
LINE
  8
0
 62
7
  6
CONTINUOUS
 10
265.5819109881
 20
237.5433283824
 11
265.5507340976
 21
237.1074180328
  0
POLYLINE
  8
0
 62
7
  6
CONTINUOUS
 66
1
 70
0
  0
VERTEX
  8
0
 62
7
  6
CONTINUOUS
 10
265.5910961198
 20
231.6795856665
  0
VERTEX
  8
0
 62
7
  6
CONTINUOUS
 10
265.5501036016
 20
231.8844575957
  0
VERTEX
  8
0
 62
7
  6
CONTINUOUS
 10
265.5325382968
 20
232.0540268783
  0
VERTEX
  8
0
 62
7
  6
CONTINUOUS
 10
265.5288836321
 20
232.1831171813
  0
SEQEND
  0
LINE
  8
0
 62
7
  6
CONTINUOUS
 10
276.5719262295
 20
225.357939271
 11
276.5832933936
 21
223.3166452697
  0
LINE
  8
0
 62
7
  6
CONTINUOUS
 10
276.5832933936
 20
223.3166452697
 11
276.5881216356
 21
221.8924180328
  0
LINE
  8
0
 62
7
  6
CONTINUOUS
 10
276.5719262295
 20
229.0602892868
 11
276.5719262295
 21
225.357939271
  0
LINE
  8
0
 62
7
  6
CONTINUOUS
 10
276.5719262295
 20
218.4268967945
 11
276.5719262295
 21
210.7157519384
  0
LINE
  8
0
 62
7
  6
CONTINUOUS
 10
276.5719262295
 20
218.4673811411
 11
276.5719262295
 21
225.3519787337
  0
POLYLINE
  8
0
 62
7
  6
CONTINUOUS
 66
1
 70
0
  0
VERTEX
  8
0
 62
7
  6
CONTINUOUS
 10
276.5881216356
 20
221.8924180328
  0
VERTEX
  8
0
 62
7
  6
CONTINUOUS
 10
276.5832948797
 20
220.4684293767
  0
VERTEX
  8
0
 62
7
  6
CONTINUOUS
 10
276.5719262295
 20
218.4268967945
  0
SEQEND
  0
POLYLINE
  8
0
 62
7
  6
CONTINUOUS
 66
1
 70
0
  0
VERTEX
  8
0
 62
7
  6
CONTINUOUS
 10
266.0374307657
 20
230.8373509334
  0
VERTEX
  8
0
 62
7
  6
CONTINUOUS
 10
265.7909320657
 20
231.1828967277
  0
VERTEX
  8
0
 62
7
  6
CONTINUOUS
 10
265.6524184336
 20
231.4820103703
  0
VERTEX
  8
0
 62
7
  6
CONTINUOUS
 10
265.5910961198
 20
231.6795856665
  0
SEQEND
  0
POLYLINE
  8
CURVE_RUNDING
 62
7
  6
CONTINUOUS
 66
1
 70
0
  0
VERTEX
  8
CURVE_RUNDING
 62
7
  6
CONTINUOUS
 10
293.8961650572
 20
205.434664159
  0
VERTEX
  8
CURVE_RUNDING
 62
7
  6
CONTINUOUS
 10
294.2634174475
 20
204.4709698839
  0
VERTEX
  8
CURVE_RUNDING
 62
7
  6
CONTINUOUS
 10
294.7830157304
 20
203.6401307855
  0
VERTEX
  8
CURVE_RUNDING
 62
7
  6
CONTINUOUS
 10
295.0915213318
 20
203.2951811161
  0
VERTEX
  8
CURVE_RUNDING
 62
7
  6
CONTINUOUS
 10
295.7768500224
 20
202.7807302411
  0
VERTEX
  8
CURVE_RUNDING
 62
7
  6
CONTINUOUS
 10
296.5015955817
 20
202.5257032962
  0
VERTEX
  8
CURVE_RUNDING
 62
7
  6
CONTINUOUS
 10
296.8540169461
 20
202.4954180874
  0
SEQEND
  0
POLYLINE
  8
0
 62
7
  6
CONTINUOUS
 66
1
 70
0
  0
VERTEX
  8
0
 62
7
  6
CONTINUOUS
 10
293.791931347
 20
206.2276735473
  0
VERTEX
  8
0
 62
7
  6
CONTINUOUS
 10
293.807163854
 20
205.9232757027
  0
VERTEX
  8
0
 62
7
  6
CONTINUOUS
 10
293.8707906157
 20
205.5386406553
  0
SEQEND
  0
LINE
  8
0
 62
7
  6
CONTINUOUS
 10
293.7919262295
 20
234.6954315573
 11
293.7919262295
 21
227.5614180328
  0
LINE
  8
0
 62
7
  6
CONTINUOUS
 10
293.7919262295
 20
214.5334180328
 11
293.7919262295
 21
206.2270522618
  0
LINE
  8
0
 62
7
  6
CONTINUOUS
 10
293.7919262323
 20
234.6977536829
 11
293.7919263489
 21
234.6983466751
  0
LINE
  8
0
 62
7
  6
CONTINUOUS
 10
292.0962633693
 20
197.0723802756
 11
292.1217832926
 21
201.9462820654
  0
LINE
  8
0
 62
7
  6
CONTINUOUS
 10
375.6220791994
 20
194.0254180328
 11
355.2105471029
 21
194.0254180328
  0
LINE
  8
0
 62
7
  6
CONTINUOUS
 10
289.0333053561
 20
194.0254180328
 11
268.6217732596
 21
194.0254180328
  0
LINE
  8
CURVE_RUNDING
 62
7
  6
CONTINUOUS
 10
293.9208725337
 20
205.3502343932
 11
293.8961650572
 21
205.434664159
  0
LINE
  8
0
 62
7
  6
CONTINUOUS
 10
293.8707906157
 20
205.5386406553
 11
293.9208668324
 21
205.3502228549
  0
LINE
  8
0
 62
7
  6
CONTINUOUS
 10
297.7756436876
 20
220.8124180328
 11
297.7756436876
 21
221.2824180328
  0
LINE
  8
0
 62
7
  6
CONTINUOUS
 10
297.870130325
 20
221.2824180328
 11
297.870130325
 21
220.8124180328
  0
POLYLINE
  8
0
 62
7
  6
CONTINUOUS
 66
1
 70
0
  0
VERTEX
  8
0
 62
7
  6
CONTINUOUS
 10
292.1217836442
 20
201.9463507783
  0
VERTEX
  8
0
 62
7
  6
CONTINUOUS
 10
292.1603634929
 20
202.1852450191
  0
VERTEX
  8
0
 62
7
  6
CONTINUOUS
 10
292.2670787551
 20
202.3814545252
  0
VERTEX
  8
0
 62
7
  6
CONTINUOUS
 10
292.3240391844
 20
202.4389805018
  0
VERTEX
  8
0
 62
7
  6
CONTINUOUS
 10
292.4142275685
 20
202.4916571811
  0
SEQEND
  0
POLYLINE
  8
0
 62
7
  6
CONTINUOUS
 66
1
 70
0
  0
VERTEX
  8
0
 62
7
  6
CONTINUOUS
 10
297.4054320378
 20
217.682059825
  0
VERTEX
  8
0
 62
7
  6
CONTINUOUS
 10
297.6362024817
 20
218.7144094327
  0
VERTEX
  8
0
 62
7
  6
CONTINUOUS
 10
297.7152481097
 20
219.391318158
  0
VERTEX
  8
0
 62
7
  6
CONTINUOUS
 10
297.7756436876
 20
220.8124180328
  0
SEQEND
  0
POLYLINE
  8
0
 62
7
  6
CONTINUOUS
 66
1
 70
0
  0
VERTEX
  8
0
 62
7
  6
CONTINUOUS
 10
377.7879472701
 20
197.0884180328
  0
VERTEX
  8
0
 62
7
  6
CONTINUOUS
 10
378.274689551
 20
197.0982016294
  0
VERTEX
  8
0
 62
7
  6
CONTINUOUS
 10
378.5806488024
 20
197.1073187814
  0
VERTEX
  8
0
 62
7
  6
CONTINUOUS
 10
378.6849625697
 20
197.115147411
  0
SEQEND
  0
POLYLINE
  8
0
 62
7
  6
CONTINUOUS
 66
1
 70
0
  0
VERTEX
  8
0
 62
7
  6
CONTINUOUS
 10
266.4559051889
 20
197.0884180328
  0
VERTEX
  8
0
 62
7
  6
CONTINUOUS
 10
265.9691877144
 20
197.0982014032
  0
VERTEX
  8
0
 62
7
  6
CONTINUOUS
 10
265.6631905946
 20
197.1073189937
  0
VERTEX
  8
0
 62
7
  6
CONTINUOUS
 10
265.5588898893
 20
197.115147411
  0
SEQEND
  0
POLYLINE
  8
0
 62
7
  6
CONTINUOUS
 66
1
 70
0
  0
VERTEX
  8
0
 62
7
  6
CONTINUOUS
 10
297.4054320378
 20
224.4127762406
  0
VERTEX
  8
0
 62
7
  6
CONTINUOUS
 10
297.6362024817
 20
223.3804266329
  0
VERTEX
  8
0
 62
7
  6
CONTINUOUS
 10
297.7152481097
 20
222.7035179076
  0
VERTEX
  8
0
 62
7
  6
CONTINUOUS
 10
297.7756436876
 20
221.2824180328
  0
SEQEND
  0
POLYLINE
  8
CURVE_RUNDING
 62
7
  6
CONTINUOUS
 66
1
 70
0
  0
VERTEX
  8
CURVE_RUNDING
 62
7
  6
CONTINUOUS
 10
347.389835513
 20
202.4954180874
  0
VERTEX
  8
CURVE_RUNDING
 62
7
  6
CONTINUOUS
 10
347.7422568773
 20
202.5257032962
  0
VERTEX
  8
CURVE_RUNDING
 62
7
  6
CONTINUOUS
 10
348.4670024368
 20
202.7807302412
  0
VERTEX
  8
CURVE_RUNDING
 62
7
  6
CONTINUOUS
 10
349.1523311274
 20
203.2951811162
  0
VERTEX
  8
CURVE_RUNDING
 62
7
  6
CONTINUOUS
 10
349.4608367288
 20
203.6401307857
  0
VERTEX
  8
CURVE_RUNDING
 62
7
  6
CONTINUOUS
 10
349.9804350117
 20
204.4709698843
  0
SEQEND
  0
POLYLINE
  8
0
 62
7
  6
CONTINUOUS
 66
1
 70
0
  0
VERTEX
  8
0
 62
7
  6
CONTINUOUS
 10
319.1861952218
 20
202.4954077689
  0
VERTEX
  8
0
 62
7
  6
CONTINUOUS
 10
322.1183364177
 20
202.498034057
  0
VERTEX
  8
0
 62
7
  6
CONTINUOUS
 10
325.0565239215
 20
202.4954078001
  0
SEQEND
  0
LINE
  8
0
 62
7
  6
CONTINUOUS
 10
358.5719561549
 20
202.4954180328
 11
347.3898070732
 21
202.4954180328
  0
LINE
  8
CURVE_RUNDING
 62
7
  6
CONTINUOUS
 10
347.3898070732
 20
202.4954180328
 11
332.7744944077
 21
202.4954180328
  0
LINE
  8
0
 62
7
  6
CONTINUOUS
 10
332.7744944077
 20
202.4954180328
 11
325.0576566628
 21
202.4954180328
  0
LINE
  8
0
 62
7
  6
CONTINUOUS
 10
319.1861957962
 20
202.4954180328
 11
311.4693580514
 21
202.4954180328
  0
LINE
  8
0
 62
7
  6
CONTINUOUS
 10
296.8540453858
 20
202.4954180328
 11
285.6718963041
 21
202.4954180328
  0
LINE
  8
CURVE_RUNDING
 62
7
  6
CONTINUOUS
 10
296.8540453858
 20
202.4954180328
 11
311.4693580514
 21
202.4954180328
  0
LINE
  8
0
 62
7
  6
CONTINUOUS
 10
332.4284875864
 20
206.2306085687
 11
330.9840425861
 21
206.0616295197
  0
POLYLINE
  8
0
 62
7
  6
CONTINUOUS
 66
1
 70
0
  0
VERTEX
  8
0
 62
7
  6
CONTINUOUS
 10
311.8153454913
 20
206.2306212242
  0
VERTEX
  8
0
 62
7
  6
CONTINUOUS
 10
312.2955448698
 20
206.1610111938
  0
VERTEX
  8
0
 62
7
  6
CONTINUOUS
 10
312.7762149156
 20
206.1043336164
  0
VERTEX
  8
0
 62
7
  6
CONTINUOUS
 10
313.259492752
 20
206.0614778157
  0
SEQEND
  0
POLYLINE
  8
0
 62
7
  6
CONTINUOUS
 66
1
 70
0
  0
VERTEX
  8
0
 62
7
  6
CONTINUOUS
 10
311.3078226313
 20
207.8874349624
  0
VERTEX
  8
0
 62
7
  6
CONTINUOUS
 10
311.471279754
 20
207.1904778587
  0
VERTEX
  8
0
 62
7
  6
CONTINUOUS
 10
311.5742645663
 20
206.8543531164
  0
VERTEX
  8
0
 62
7
  6
CONTINUOUS
 10
311.8153454913
 20
206.2306212242
  0
SEQEND
  0
LINE
  8
0
 62
7
  6
CONTINUOUS
 10
267.6560888647
 20
209.5567915127
 11
277.2757827585
 21
209.7247038942
  0
LINE
  8
0
 62
7
  6
CONTINUOUS
 10
366.9680697008
 20
209.7247038942
 11
376.5877635943
 21
209.5567915127
  0
LINE
  8
0
 62
7
  6
CONTINUOUS
 10
351.8193552052
 20
202.4954180328
 11
351.8449646362
 21
202.4867524744
  0
LINE
  8
0
 62
7
  6
CONTINUOUS
 10
332.4284875864
 20
206.2306085687
 11
333.0387007501
 21
205.8898374801
  0
LINE
  8
0
 62
7
  6
CONTINUOUS
 10
350.4519105954
 20
214.5334180328
 11
349.0690307135
 21
214.5334180328
  0
LINE
  8
0
 62
7
  6
CONTINUOUS
 10
295.1748217455
 20
214.5334180328
 11
293.7919418636
 21
214.5334180328
  0
LINE
  8
0
 62
7
  6
CONTINUOUS
 10
333.0387007501
 20
205.8898374801
 11
333.2349702247
 21
205.7389930559
  0
LINE
  8
CENTER_AXER
 62
2
  6
CENTER
 10
322.1219262295
 20
184.8924180328
 11
322.1219262295
 21
258.8924180328
  0
POLYLINE
  8
0
 62
7
  6
CONTINUOUS
 66
1
 70
0
  0
VERTEX
  8
0
 62
7
  6
CONTINUOUS
 10
295.1748217455
 20
214.5334180328
  0
VERTEX
  8
0
 62
7
  6
CONTINUOUS
 10
295.6852637078
 20
214.7168316956
  0
VERTEX
  8
0
 62
7
  6
CONTINUOUS
 10
296.2495846377
 20
215.2656625118
  0
VERTEX
  8
0
 62
7
  6
CONTINUOUS
 10
296.8111776523
 20
216.1508817474
  0
VERTEX
  8
0
 62
7
  6
CONTINUOUS
 10
297.0677954717
 20
216.6963312474
  0
VERTEX
  8
0
 62
7
  6
CONTINUOUS
 10
297.4992969201
 20
217.956097966
  0
VERTEX
  8
0
 62
7
  6
CONTINUOUS
 10
297.7760785118
 20
219.3576439512
  0
VERTEX
  8
0
 62
7
  6
CONTINUOUS
 10
297.870130325
 20
220.8124180328
  0
SEQEND
  0
LINE
  8
CENTER_AXER
 62
2
  6
CENTER
 10
260.1219262295
 20
221.8924180328
 11
384.1219262295
 21
221.8924180328
  0
POLYLINE
  8
0
 62
7
  6
CONTINUOUS
 66
1
 70
0
  0
VERTEX
  8
0
 62
7
  6
CONTINUOUS
 10
267.5011129034
 20
230.1515778214
  0
VERTEX
  8
0
 62
7
  6
CONTINUOUS
 10
266.9941114136
 20
230.2314661253
  0
VERTEX
  8
0
 62
7
  6
CONTINUOUS
 10
266.4937630202
 20
230.4534058418
  0
VERTEX
  8
0
 62
7
  6
CONTINUOUS
 10
266.0374294552
 20
230.8373520373
  0
SEQEND
  0
POLYLINE
  8
0
 62
7
  6
CONTINUOUS
 66
1
 70
0
  0
VERTEX
  8
0
 62
7
  6
CONTINUOUS
 10
267.5879970858
 20
230.1505119095
  0
VERTEX
  8
0
 62
7
  6
CONTINUOUS
 10
266.9618833949
 20
230.2547246542
  0
VERTEX
  8
0
 62
7
  6
CONTINUOUS
 10
266.3980956715
 20
230.5463390065
  0
VERTEX
  8
0
 62
7
  6
CONTINUOUS
 10
265.9512293469
 20
230.997122538
  0
VERTEX
  8
0
 62
7
  6
CONTINUOUS
 10
265.6645462822
 20
231.5634341562
  0
VERTEX
  8
0
 62
7
  6
CONTINUOUS
 10
265.5658013759
 20
232.1904342326
  0
SEQEND
  0
POLYLINE
  8
0
 62
7
  6
CONTINUOUS
 66
1
 70
0
  0
VERTEX
  8
0
 62
7
  6
CONTINUOUS
 10
295.1748217455
 20
227.5614180328
  0
VERTEX
  8
0
 62
7
  6
CONTINUOUS
 10
295.6852637078
 20
227.37800437
  0
VERTEX
  8
0
 62
7
  6
CONTINUOUS
 10
296.2495846377
 20
226.8291735538
  0
VERTEX
  8
0
 62
7
  6
CONTINUOUS
 10
296.8111776523
 20
225.9439543182
  0
VERTEX
  8
0
 62
7
  6
CONTINUOUS
 10
297.0677954717
 20
225.3985048182
  0
VERTEX
  8
0
 62
7
  6
CONTINUOUS
 10
297.4992969201
 20
224.1387380996
  0
VERTEX
  8
0
 62
7
  6
CONTINUOUS
 10
297.7760785118
 20
222.7371921144
  0
VERTEX
  8
0
 62
7
  6
CONTINUOUS
 10
297.870130325
 20
221.2824180328
  0
SEQEND
  0
POLYLINE
  8
0
 62
7
  6
CONTINUOUS
 66
1
 70
0
  0
VERTEX
  8
0
 62
7
  6
CONTINUOUS
 10
349.0690307135
 20
227.5614180328
  0
VERTEX
  8
0
 62
7
  6
CONTINUOUS
 10
348.5585887512
 20
227.37800437
  0
VERTEX
  8
0
 62
7
  6
CONTINUOUS
 10
347.9942678213
 20
226.8291735538
  0
VERTEX
  8
0
 62
7
  6
CONTINUOUS
 10
347.4326748067
 20
225.9439543182
  0
VERTEX
  8
0
 62
7
  6
CONTINUOUS
 10
347.1760569873
 20
225.3985048182
  0
VERTEX
  8
0
 62
7
  6
CONTINUOUS
 10
346.7445555389
 20
224.1387380996
  0
VERTEX
  8
0
 62
7
  6
CONTINUOUS
 10
346.4677739473
 20
222.7371921144
  0
VERTEX
  8
0
 62
7
  6
CONTINUOUS
 10
346.373722134
 20
221.2824180328
  0
SEQEND
  0
POLYLINE
  8
0
 62
7
  6
CONTINUOUS
 66
1
 70
0
  0
VERTEX
  8
0
 62
7
  6
CONTINUOUS
 10
349.0690307135
 20
214.5334180328
  0
VERTEX
  8
0
 62
7
  6
CONTINUOUS
 10
348.5585887512
 20
214.7168316956
  0
VERTEX
  8
0
 62
7
  6
CONTINUOUS
 10
347.9942678213
 20
215.2656625118
  0
VERTEX
  8
0
 62
7
  6
CONTINUOUS
 10
347.4326748067
 20
216.1508817474
  0
VERTEX
  8
0
 62
7
  6
CONTINUOUS
 10
347.1760569873
 20
216.6963312474
  0
VERTEX
  8
0
 62
7
  6
CONTINUOUS
 10
346.7445555389
 20
217.956097966
  0
VERTEX
  8
0
 62
7
  6
CONTINUOUS
 10
346.4677739473
 20
219.3576439512
  0
VERTEX
  8
0
 62
7
  6
CONTINUOUS
 10
346.373722134
 20
220.8124180328
  0
SEQEND
  0
POLYLINE
  8
0
 62
7
  6
CONTINUOUS
 66
1
 70
0
  0
VERTEX
  8
0
 62
7
  6
CONTINUOUS
 10
351.8449646362
 20
202.4867524744
  0
VERTEX
  8
0
 62
7
  6
CONTINUOUS
 10
351.9633701913
 20
202.3969036147
  0
VERTEX
  8
0
 62
7
  6
CONTINUOUS
 10
352.0775387679
 20
202.2022905401
  0
VERTEX
  8
0
 62
7
  6
CONTINUOUS
 10
352.122069062
 20
201.9463021463
  0
SEQEND
  0
POLYLINE
  8
0
 62
7
  6
CONTINUOUS
 66
1
 70
0
  0
VERTEX
  8
0
 62
7
  6
CONTINUOUS
 10
311.8153454913
 20
206.2306212242
  0
VERTEX
  8
0
 62
7
  6
CONTINUOUS
 10
311.2344479008
 20
205.9069588186
  0
VERTEX
  8
0
 62
7
  6
CONTINUOUS
 10
311.015137736
 20
205.7390830958
  0
SEQEND
  0
LINE
  8
0
 62
7
  6
CONTINUOUS
 10
368.2802265074
 20
230.0777265889
 11
376.7016974292
 21
230.1512196522
  0
LINE
  8
0
 62
7
  6
CONTINUOUS
 10
350.4519105954
 20
227.5614180328
 11
349.0690307135
 21
227.5614180328
  0
LINE
  8
0
 62
7
  6
CONTINUOUS
 10
295.1748217455
 20
227.5614180328
 11
293.7919418636
 21
227.5614180328
  0
LINE
  8
0
 62
7
  6
CONTINUOUS
 10
267.5011129034
 20
230.1515778214
 11
275.9636259517
 21
230.0777265889
  0
POLYLINE
  8
0
 62
7
  6
CONTINUOUS
 66
1
 70
0
  0
VERTEX
  8
0
 62
7
  6
CONTINUOUS
 10
332.936081305
 20
207.8874281061
  0
VERTEX
  8
0
 62
7
  6
CONTINUOUS
 10
332.7725847604
 20
207.1904779339
  0
VERTEX
  8
0
 62
7
  6
CONTINUOUS
 10
332.6695940963
 20
206.8543472531
  0
VERTEX
  8
0
 62
7
  6
CONTINUOUS
 10
332.4284875864
 20
206.2306085687
  0
SEQEND
  0
LINE
  8
0
 62
7
  6
CONTINUOUS
 10
265.5691267655
 20
233.8381180328
 11
293.7919262295
 21
233.8381180328
  0
LINE
  8
0
 62
7
  6
CONTINUOUS
 10
350.4519262295
 20
233.8381180328
 11
378.6747256935
 21
233.8381180328
  0
LINE
  8
0
 62
7
  6
CONTINUOUS
 10
268.605154201
 20
240.1704060251
 11
375.6301216106
 21
240.1704180328
  0
LINE
  8
0
 62
7
  6
CONTINUOUS
 10
375.6301216106
 20
240.1704180328
 11
375.6369546127
 21
240.1704104112
  0
POLYLINE
  8
0
 62
7
  6
CONTINUOUS
 66
1
 70
0
  0
VERTEX
  8
0
 62
7
  6
CONTINUOUS
 10
346.8384204212
 20
224.4127762406
  0
VERTEX
  8
0
 62
7
  6
CONTINUOUS
 10
346.6076499774
 20
223.3804266329
  0
VERTEX
  8
0
 62
7
  6
CONTINUOUS
 10
346.5286043493
 20
222.7035179076
  0
VERTEX
  8
0
 62
7
  6
CONTINUOUS
 10
346.4682087714
 20
221.2824180328
  0
SEQEND
  0
POLYLINE
  8
0
 62
7
  6
CONTINUOUS
 66
1
 70
0
  0
VERTEX
  8
0
 62
7
  6
CONTINUOUS
 10
298.3438549555
 20
240.1704187244
  0
VERTEX
  8
0
 62
7
  6
CONTINUOUS
 10
297.2129029154
 20
239.9996424753
  0
VERTEX
  8
0
 62
7
  6
CONTINUOUS
 10
296.1299112294
 20
239.491206194
  0
VERTEX
  8
0
 62
7
  6
CONTINUOUS
 10
295.1991307393
 20
238.6883180026
  0
VERTEX
  8
0
 62
7
  6
CONTINUOUS
 10
294.8138318263
 20
238.1990354669
  0
VERTEX
  8
0
 62
7
  6
CONTINUOUS
 10
294.2277308322
 20
237.0971845904
  0
VERTEX
  8
0
 62
7
  6
CONTINUOUS
 10
293.8920585515
 20
235.8918283205
  0
VERTEX
  8
0
 62
7
  6
CONTINUOUS
 10
293.791922855
 20
234.6982442082
  0
SEQEND
  0
POLYLINE
  8
0
 62
7
  6
CONTINUOUS
 66
1
 70
0
  0
VERTEX
  8
0
 62
7
  6
CONTINUOUS
 10
268.605154201
 20
240.1704060251
  0
VERTEX
  8
0
 62
7
  6
CONTINUOUS
 10
268.1778209612
 20
240.1392411093
  0
VERTEX
  8
0
 62
7
  6
CONTINUOUS
 10
267.3413160133
 20
239.8936208346
  0
VERTEX
  8
0
 62
7
  6
CONTINUOUS
 10
266.6078945481
 20
239.422278979
  0
VERTEX
  8
0
 62
7
  6
CONTINUOUS
 10
266.2988723577
 20
239.1132564609
  0
VERTEX
  8
0
 62
7
  6
CONTINUOUS
 10
265.8275310022
 20
238.3798342176
  0
VERTEX
  8
0
 62
7
  6
CONTINUOUS
 10
265.5819109881
 20
237.5433283824
  0
SEQEND
  0
POLYLINE
  8
0
 62
7
  6
CONTINUOUS
 66
1
 70
0
  0
VERTEX
  8
0
 62
7
  6
CONTINUOUS
 10
268.671184889
 20
240.1704180328
  0
VERTEX
  8
0
 62
7
  6
CONTINUOUS
 10
268.2352750018
 20
240.1392411093
  0
VERTEX
  8
0
 62
7
  6
CONTINUOUS
 10
267.3987700539
 20
239.8936208346
  0
VERTEX
  8
0
 62
7
  6
CONTINUOUS
 10
266.6653485887
 20
239.422278979
  0
VERTEX
  8
0
 62
7
  6
CONTINUOUS
 10
266.3563263983
 20
239.1132564609
  0
VERTEX
  8
0
 62
7
  6
CONTINUOUS
 10
265.8849850428
 20
238.3798342176
  0
VERTEX
  8
0
 62
7
  6
CONTINUOUS
 10
265.6393650287
 20
237.5433283824
  0
VERTEX
  8
0
 62
7
  6
CONTINUOUS
 10
265.6081881382
 20
237.1074180328
  0
SEQEND
  0
POLYLINE
  8
0
 62
7
  6
CONTINUOUS
 66
1
 70
0
  0
VERTEX
  8
0
 62
7
  6
CONTINUOUS
 10
268.605154201
 20
240.1704060251
  0
VERTEX
  8
0
 62
7
  6
CONTINUOUS
 10
268.4865757085
 20
240.1677776089
  0
VERTEX
  8
0
 62
7
  6
CONTINUOUS
 10
268.0734643704
 20
240.1223947435
  0
VERTEX
  8
0
 62
7
  6
CONTINUOUS
 10
267.6819273429
 20
240.0252463264
  0
VERTEX
  8
0
 62
7
  6
CONTINUOUS
 10
267.317503992
 20
239.8826273757
  0
VERTEX
  8
0
 62
7
  6
CONTINUOUS
 10
266.9843706426
 20
239.7011010469
  0
VERTEX
  8
0
 62
7
  6
CONTINUOUS
 10
266.6854319961
 20
239.4872687712
  0
VERTEX
  8
0
 62
7
  6
CONTINUOUS
 10
266.422457103
 20
239.2475980144
  0
VERTEX
  8
0
 62
7
  6
CONTINUOUS
 10
266.1961897008
 20
238.9882629168
  0
VERTEX
  8
0
 62
7
  6
CONTINUOUS
 10
266.0064880278
 20
238.715027657
  0
VERTEX
  8
0
 62
7
  6
CONTINUOUS
 10
265.8524996148
 20
238.4332316655
  0
VERTEX
  8
0
 62
7
  6
CONTINUOUS
 10
265.7333264553
 20
238.1493064399
  0
VERTEX
  8
0
 62
7
  6
CONTINUOUS
 10
265.6472853076
 20
237.8706955563
  0
VERTEX
  8
0
 62
7
  6
CONTINUOUS
 10
265.5915407237
 20
237.6064237086
  0
VERTEX
  8
0
 62
7
  6
CONTINUOUS
 10
265.5637443768
 20
237.3915785992
  0
VERTEX
  8
0
 62
7
  6
CONTINUOUS
 10
265.5546899033
 20
237.2696281431
  0
VERTEX
  8
0
 62
7
  6
CONTINUOUS
 10
265.5518213178
 20
237.2069273707
  0
VERTEX
  8
0
 62
7
  6
CONTINUOUS
 10
265.550499237
 20
237.1653534783
  0
VERTEX
  8
0
 62
7
  6
CONTINUOUS
 10
265.5496642098
 20
237.1304375199
  0
VERTEX
  8
0
 62
7
  6
CONTINUOUS
 10
265.5490206225
 20
237.0964423562
  0
VERTEX
  8
0
 62
7
  6
CONTINUOUS
 10
265.5477045516
 20
237.0004937455
  0
SEQEND
  0
LINE
  8
0
 62
7
  6
CONTINUOUS
 10
376.0085774573
 20
240.1392411093
 11
375.57266757
 21
240.1704180328
  0
POLYLINE
  8
0
 62
7
  6
CONTINUOUS
 66
1
 70
0
  0
VERTEX
  8
0
 62
7
  6
CONTINUOUS
 10
375.6369546127
 20
240.1704104112
  0
VERTEX
  8
0
 62
7
  6
CONTINUOUS
 10
376.0660314978
 20
240.1392411093
  0
VERTEX
  8
0
 62
7
  6
CONTINUOUS
 10
376.9025364457
 20
239.8936208346
  0
VERTEX
  8
0
 62
7
  6
CONTINUOUS
 10
377.6359579109
 20
239.422278979
  0
VERTEX
  8
0
 62
7
  6
CONTINUOUS
 10
377.9449801013
 20
239.1132564609
  0
VERTEX
  8
0
 62
7
  6
CONTINUOUS
 10
378.4163214568
 20
238.3798342176
  0
VERTEX
  8
0
 62
7
  6
CONTINUOUS
 10
378.661941471
 20
237.5433283824
  0
SEQEND
  0
POLYLINE
  8
0
 62
7
  6
CONTINUOUS
 66
1
 70
0
  0
VERTEX
  8
0
 62
7
  6
CONTINUOUS
 10
346.8384204212
 20
217.682059825
  0
VERTEX
  8
0
 62
7
  6
CONTINUOUS
 10
346.6076499774
 20
218.7144094327
  0
VERTEX
  8
0
 62
7
  6
CONTINUOUS
 10
346.5286043493
 20
219.391318158
  0
VERTEX
  8
0
 62
7
  6
CONTINUOUS
 10
346.4682087714
 20
220.8124180328
  0
SEQEND
  0
LINE
  8
0
 62
7
  6
CONTINUOUS
 10
350.4519261091
 20
234.6983495092
 11
350.4519262267
 21
234.6977536846
  0
LINE
  8
0
 62
7
  6
CONTINUOUS
 10
346.373722134
 20
221.2824180328
 11
346.373722134
 21
220.8124180328
  0
LINE
  8
0
 62
7
  6
CONTINUOUS
 10
346.4682087714
 20
220.8124180328
 11
346.4682087714
 21
221.2824180328
  0
LINE
  8
0
 62
7
  6
CONTINUOUS
 10
350.4519262295
 20
234.6954225065
 11
350.4519262295
 21
227.5614180328
  0
LINE
  8
0
 62
7
  6
CONTINUOUS
 10
350.4519262295
 20
214.5334180328
 11
350.4519262295
 21
206.2272771232
  0
POLYLINE
  8
0
 62
7
  6
CONTINUOUS
 66
1
 70
0
  0
VERTEX
  8
0
 62
7
  6
CONTINUOUS
 10
350.451929604
 20
234.698244554
  0
VERTEX
  8
0
 62
7
  6
CONTINUOUS
 10
350.3518133792
 20
235.891716085
  0
VERTEX
  8
0
 62
7
  6
CONTINUOUS
 10
350.0162026798
 20
237.0969795317
  0
VERTEX
  8
0
 62
7
  6
CONTINUOUS
 10
349.4302052071
 20
238.1987690882
  0
VERTEX
  8
0
 62
7
  6
CONTINUOUS
 10
349.0449716934
 20
238.6880384547
  0
VERTEX
  8
0
 62
7
  6
CONTINUOUS
 10
348.1143393845
 20
239.4909465839
  0
VERTEX
  8
0
 62
7
  6
CONTINUOUS
 10
347.0314643144
 20
239.9994857293
  0
VERTEX
  8
0
 62
7
  6
CONTINUOUS
 10
345.900567821
 20
240.1704186593
  0
SEQEND
  0
LINE
  8
0
 62
7
  6
CONTINUOUS
 10
352.1220691664
 20
201.9462820654
 11
352.1475890897
 21
197.0723802756
  0
LINE
  8
0
 62
7
  6
CONTINUOUS
 10
350.4519126466
 20
206.2265739086
 11
350.4519262278
 21
206.2276728017
  0
POLYLINE
  8
0
 62
7
  6
CONTINUOUS
 66
1
 70
0
  0
VERTEX
  8
0
 62
7
  6
CONTINUOUS
 10
350.3230019492
 20
205.3503060176
  0
VERTEX
  8
0
 62
7
  6
CONTINUOUS
 10
350.3945517972
 20
205.6389689538
  0
VERTEX
  8
0
 62
7
  6
CONTINUOUS
 10
350.4449786535
 20
206.0220014565
  0
VERTEX
  8
0
 62
7
  6
CONTINUOUS
 10
350.4519260107
 20
206.2277107236
  0
SEQEND
  0
POLYLINE
  8
CURVE_RUNDING
 62
7
  6
CONTINUOUS
 66
1
 70
0
  0
VERTEX
  8
CURVE_RUNDING
 62
7
  6
CONTINUOUS
 10
349.9804350117
 20
204.4709698843
  0
VERTEX
  8
CURVE_RUNDING
 62
7
  6
CONTINUOUS
 10
350.3476874019
 20
205.4346641595
  0
VERTEX
  8
CURVE_RUNDING
 62
7
  6
CONTINUOUS
 10
350.3230043186
 20
205.3503156426
  0
SEQEND
  0
POLYLINE
  8
0
 62
7
  6
CONTINUOUS
 66
1
 70
0
  0
VERTEX
  8
0
 62
7
  6
CONTINUOUS
 10
378.2042653487
 20
230.8365948054
  0
VERTEX
  8
0
 62
7
  6
CONTINUOUS
 10
377.7355711522
 20
230.4458505322
  0
VERTEX
  8
0
 62
7
  6
CONTINUOUS
 10
377.2219183609
 20
230.2245142097
  0
VERTEX
  8
0
 62
7
  6
CONTINUOUS
 10
376.7016974292
 20
230.1512196522
  0
SEQEND
  0
LINE
  8
0
 62
7
  6
CONTINUOUS
 10
367.6719262295
 20
218.4268967945
 11
367.6605573671
 21
220.4684634491
  0
LINE
  8
0
 62
7
  6
CONTINUOUS
 10
367.6605573671
 20
220.4684634491
 11
367.6557308234
 21
221.8924180328
  0
LINE
  8
0
 62
7
  6
CONTINUOUS
 10
367.6719262295
 20
229.0602892868
 11
367.6719262295
 21
225.357939271
  0
LINE
  8
0
 62
7
  6
CONTINUOUS
 10
367.6719262295
 20
218.4268967945
 11
367.6719262295
 21
210.7157519384
  0
LINE
  8
0
 62
7
  6
CONTINUOUS
 10
367.6719262295
 20
218.4673811411
 11
367.6719262295
 21
225.3519385582
  0
POLYLINE
  8
0
 62
7
  6
CONTINUOUS
 66
1
 70
0
  0
VERTEX
  8
0
 62
7
  6
CONTINUOUS
 10
367.6557308234
 20
221.8924180328
  0
VERTEX
  8
0
 62
7
  6
CONTINUOUS
 10
367.660558854
 20
223.3166113238
  0
VERTEX
  8
0
 62
7
  6
CONTINUOUS
 10
367.6719262295
 20
225.357939271
  0
SEQEND
  0
POLYLINE
  8
0
 62
7
  6
CONTINUOUS
 66
1
 70
0
  0
VERTEX
  8
0
 62
7
  6
CONTINUOUS
 10
378.6524201968
 20
231.6804679452
  0
VERTEX
  8
0
 62
7
  6
CONTINUOUS
 10
378.5714662352
 20
231.4319772569
  0
VERTEX
  8
0
 62
7
  6
CONTINUOUS
 10
378.4847833067
 20
231.2433660005
  0
VERTEX
  8
0
 62
7
  6
CONTINUOUS
 10
378.2042653784
 20
230.8365948299
  0
SEQEND
  0
POLYLINE
  8
0
 62
7
  6
CONTINUOUS
 66
1
 70
0
  0
VERTEX
  8
0
 62
7
  6
CONTINUOUS
 10
378.6780498827
 20
232.1928723752
  0
VERTEX
  8
0
 62
7
  6
CONTINUOUS
 10
378.5792081674
 20
231.5652575932
  0
VERTEX
  8
0
 62
7
  6
CONTINUOUS
 10
378.2922440406
 20
230.9983907677
  0
VERTEX
  8
0
 62
7
  6
CONTINUOUS
 10
377.8449396113
 20
230.5471652917
  0
VERTEX
  8
0
 62
7
  6
CONTINUOUS
 10
377.2805991542
 20
230.2552650427
  0
VERTEX
  8
0
 62
7
  6
CONTINUOUS
 10
376.6538716254
 20
230.1509501282
  0
SEQEND
  0
POLYLINE
  8
0
 62
7
  6
CONTINUOUS
 66
1
 70
0
  0
VERTEX
  8
0
 62
7
  6
CONTINUOUS
 10
378.6356643208
 20
237.1074180328
  0
VERTEX
  8
0
 62
7
  6
CONTINUOUS
 10
378.6044874304
 20
237.5433283824
  0
VERTEX
  8
0
 62
7
  6
CONTINUOUS
 10
378.3588674162
 20
238.3798342176
  0
VERTEX
  8
0
 62
7
  6
CONTINUOUS
 10
377.8875260607
 20
239.1132564609
  0
VERTEX
  8
0
 62
7
  6
CONTINUOUS
 10
377.5785038703
 20
239.422278979
  0
VERTEX
  8
0
 62
7
  6
CONTINUOUS
 10
376.8450824051
 20
239.8936208346
  0
VERTEX
  8
0
 62
7
  6
CONTINUOUS
 10
376.0085774573
 20
240.1392411093
  0
SEQEND
  0
LINE
  8
0
 62
7
  6
CONTINUOUS
 10
378.661941471
 20
237.5433283824
 11
378.6931183614
 21
237.1074180328
  0
POLYLINE
  8
0
 62
7
  6
CONTINUOUS
 66
1
 70
0
  0
VERTEX
  8
0
 62
7
  6
CONTINUOUS
 10
378.6914724821
 20
237.2213489334
  0
VERTEX
  8
0
 62
7
  6
CONTINUOUS
 10
378.6874738667
 20
237.2980702313
  0
VERTEX
  8
0
 62
7
  6
CONTINUOUS
 10
378.6737159127
 20
237.4530857299
  0
VERTEX
  8
0
 62
7
  6
CONTINUOUS
 10
378.636649849
 20
237.6933563575
  0
VERTEX
  8
0
 62
7
  6
CONTINUOUS
 10
378.569453886
 20
237.9691970036
  0
VERTEX
  8
0
 62
7
  6
CONTINUOUS
 10
378.4708050711
 20
238.2531688852
  0
VERTEX
  8
0
 62
7
  6
CONTINUOUS
 10
378.3377127707
 20
238.5395866305
  0
VERTEX
  8
0
 62
7
  6
CONTINUOUS
 10
378.1685799904
 20
238.821575508
  0
VERTEX
  8
0
 62
7
  6
CONTINUOUS
 10
377.9621958389
 20
239.0932425694
  0
VERTEX
  8
0
 62
7
  6
CONTINUOUS
 10
377.7178862651
 20
239.3486852829
  0
VERTEX
  8
0
 62
7
  6
CONTINUOUS
 10
377.435882586
 20
239.581532912
  0
VERTEX
  8
0
 62
7
  6
CONTINUOUS
 10
377.117475359
 20
239.7850621344
  0
VERTEX
  8
0
 62
7
  6
CONTINUOUS
 10
376.7651375048
 20
239.952365196
  0
VERTEX
  8
0
 62
7
  6
CONTINUOUS
 10
376.3826372011
 20
240.0765418361
  0
VERTEX
  8
0
 62
7
  6
CONTINUOUS
 10
375.9751450598
 20
240.150924102
  0
VERTEX
  8
0
 62
7
  6
CONTINUOUS
 10
375.6369546127
 20
240.1704104112
  0
SEQEND
  0
POLYLINE
  8
0
 62
7
  6
CONTINUOUS
 66
1
 70
0
  0
VERTEX
  8
0
 62
7
  6
CONTINUOUS
 10
378.6940526485
 20
237.1367840013
  0
VERTEX
  8
0
 62
7
  6
CONTINUOUS
 10
378.6931065766
 20
237.1742145824
  0
VERTEX
  8
0
 62
7
  6
CONTINUOUS
 10
378.6914724821
 20
237.2213489334
  0
SEQEND
  0
LINE
  8
0
 62
7
  6
CONTINUOUS
 10
378.6953278385
 20
237.0648242865
 11
378.6940526485
 21
237.1367840013
  0
LINE
  8
0
 62
7
  6
CONTINUOUS
 10
378.6968979359
 20
236.9271985022
 11
378.6953278385
 21
237.0648242865
  0
LINE
  8
0
 62
7
  6
CONTINUOUS
 10
378.6756711487
 20
233.734698196
 11
378.6747256935
 21
233.8381180328
  0
LINE
  8
0
 62
7
  6
CONTINUOUS
 10
378.6849625697
 20
197.115147411
 11
378.5940480273
 21
207.5329221047
  0
LINE
  8
0
 62
7
  6
CONTINUOUS
 10
378.7149119818
 20
232.1930653865
 11
378.714958924
 21
232.1855464827
  0
LINE
  8
0
 62
7
  6
CONTINUOUS
 10
378.7010816163
 20
236.2313644443
 11
378.6968979359
 21
236.9271985022
  0
LINE
  8
0
 62
7
  6
CONTINUOUS
 10
378.6780510832
 20
232.8171180328
 11
378.6756711487
 21
233.734698196
  0
LINE
  8
0
 62
7
  6
CONTINUOUS
 10
378.7118209901
 20
232.8172980617
 11
378.7010816163
 21
236.2313644443
  0
LINE
  8
0
 62
7
  6
CONTINUOUS
 10
378.6356643208
 20
237.1074180328
 11
378.6356643208
 21
233.8381180328
  0
LINE
  8
0
 62
7
  6
CONTINUOUS
 10
378.6780510832
 20
232.8171180328
 11
378.6780510831
 21
232.1928723752
  0
POLYLINE
  8
0
 62
7
  6
CONTINUOUS
 66
1
 70
0
  0
VERTEX
  8
0
 62
7
  6
CONTINUOUS
 10
378.714958924
 20
232.1855464827
  0
VERTEX
  8
0
 62
7
  6
CONTINUOUS
 10
378.7112948444
 20
232.0562097387
  0
VERTEX
  8
0
 62
7
  6
CONTINUOUS
 10
378.6936576706
 20
231.8861641298
  0
VERTEX
  8
0
 62
7
  6
CONTINUOUS
 10
378.6524201968
 20
231.6804679452
  0
SEQEND
  0
ARC
  8
0
 62
7
  6
CONTINUOUS
 10
77.0594196721
 20
214.7474180328
 40
12.252
 50
208.5612598067
 51
270.0
  0
ARC
  8
0
 62
7
  6
CONTINUOUS
 10
181.3033196721
 20
206.0841541743
 40
3.063
 50
315.0
 51
360.0
  0
ARC
  8
0
 62
7
  6
CONTINUOUS
 10
172.3075835306
 20
197.0884180328
 40
3.063
 50
270.0
 51
315.0
  0
ARC
  8
0
 62
7
  6
CONTINUOUS
 10
149.6498671158
 20
197.0884180328
 40
3.063
 50
180.047513539
 51
270.0000000001
  0
ARC
  8
0
 62
7
  6
CONTINUOUS
 10
145.5622281419
 20
201.4744180328
 40
1.021
 50
78.0348294896
 51
86.6056455685
  0
ARC
  8
0
 62
7
  6
CONTINUOUS
 10
145.5622281419
 20
201.4744180328
 40
1.021
 50
0.0475138567
 51
71.0860047848
  0
ARC
  8
0
 62
7
  6
CONTINUOUS
 10
164.5929411364
 20
219.7504180328
 40
20.42
 50
55.5
 51
90.0
  0
CIRCLE
  8
0
 62
7
  6
CONTINUOUS
 10
165.5833196721
 20
221.8924180328
 40
8.17
  0
CIRCLE
  8
0
 62
7
  6
CONTINUOUS
 10
165.5833196721
 20
221.8924180328
 40
6.15
  0
ARC
  8
0
 62
7
  6
CONTINUOUS
 10
151.1841196721
 20
232.8171180328
 40
1.021
 50
0.0
 51
90.0
  0
ARC
  8
0
 62
7
  6
CONTINUOUS
 10
111.259655149
 20
68.9453416827
 40
6.64
 50
10.0
 51
119.0797267564
  0
ARC
  8
0
 62
7
  6
CONTINUOUS
 10
125.1482721134
 20
46.0564307906
 40
3.063
 50
190.0
 51
269.9165445726
  0
ARC
  8
0
 62
7
  6
CONTINUOUS
 10
94.2633196721
 20
99.5071721311
 40
28.33
 50
60.9202732436
 51
299.0797267564
  0
CIRCLE
  8
0
 62
7
  6
CONTINUOUS
 10
94.2633196721
 20
99.5071721311
 40
16.8463458246
  0
ARC
  8
0
 62
7
  6
CONTINUOUS
 10
111.259655149
 20
130.0690025796
 40
6.64
 50
240.9202732436
 51
350.0
  0
ARC
  8
0
 62
7
  6
CONTINUOUS
 10
125.1482721134
 20
152.9579134717
 40
3.063
 50
90.0834554274
 51
170.0
  0
ARC
  8
0
 62
7
  6
CONTINUOUS
 10
181.3033196721
 20
45.9746368635
 40
3.063
 50
303.6484382506
 51
360.0
  0
ARC
  8
0
 62
7
  6
CONTINUOUS
 10
181.3033196721
 20
153.0397073988
 40
3.063
 50
0.0
 51
56.4244719839
  0
ARC
  8
0
 62
7
  6
CONTINUOUS
 10
268.6217732596
 20
197.0884180328
 40
3.063
 50
179.5
 51
270.0
  0
ARC
  8
0
 62
7
  6
CONTINUOUS
 10
289.0333053561
 20
197.0884180328
 40
3.063
 50
270.0
 51
359.7
  0
ARC
  8
0
 62
7
  6
CONTINUOUS
 10
267.6917266786
 20
207.5151025192
 40
2.042
 50
91.0
 51
179.5
  0
ARC
  8
0
 62
7
  6
CONTINUOUS
 10
275.5509262295
 20
210.7157519384
 40
1.021
 50
271.0
 51
360.0
  0
ARC
  8
0
 62
7
  6
CONTINUOUS
 10
275.3921665357
 20
228.9029090225
 40
1.1797596938
 50
6.8097319195
 51
83.0885053235
  0
ARC
  8
0
 62
7
  6
CONTINUOUS
 10
275.5452269907
 20
229.0546395674
 40
1.0266992388
 50
45.0531722708
 51
89.4765839278
  0
ARC
  8
0
 62
7
  6
CONTINUOUS
 10
275.5509262295
 20
229.0602892868
 40
1.021
 50
0.0
 51
89.5
  0
ARC
  8
0
 62
7
  6
CONTINUOUS
 10
375.6220791994
 20
197.0884180328
 40
3.063
 50
270.0
 51
0.5
  0
ARC
  8
0
 62
7
  6
CONTINUOUS
 10
355.2105471029
 20
197.0884180328
 40
3.063
 50
180.2999999998
 51
270.0
  0
ARC
  8
0
 62
7
  6
CONTINUOUS
 10
376.5521257804
 20
207.5151025192
 40
2.042
 50
0.5
 51
89.0
  0
ARC
  8
0
 62
7
  6
CONTINUOUS
 10
368.6929262295
 20
210.7157519384
 40
1.021
 50
180.0
 51
269.0
  0
ARC
  8
0
 62
7
  6
CONTINUOUS
 10
368.8517139623
 20
228.9028812272
 40
1.1797877328
 50
96.9180111944
 51
173.189227265
  0
ARC
  8
0
 62
7
  6
CONTINUOUS
 10
368.6985896486
 20
229.0546750759
 40
1.0266634191
 50
90.5232906482
 51
134.9468217245
  0
ARC
  8
0
 62
7
  6
CONTINUOUS
 10
368.6929262295
 20
229.0602892868
 40
1.021
 50
90.5
 51
180.0
  0
ENDSEC
  0
EOF
