  0
SECTION
  2
HEADER
  9
$EXTMAX
 10
420.0
 20
297.0
 30
0.0
  9
$EXTMIN
 10
0.0
 20
0.0
 30
0.0
  9
$LIMMIN
 10
0.0
 20
0.0
  9
$LIMMAX
 10
420.0
 20
297.0
  9
$VIEWCTR
 10
210.0
 20
148.5
  9
$VIEWSIZE
 40
297.0
  9
$CLAYER
  8
0
  9
$LTSCALE
 40
23.1
  9
$CELTYPE
  6
BYLAYER
  9
$DIMSCALE
 40
1.0
  9
$DIMASZ
 40
3.5
  9
$DIMEXO
 40
1.0
  9
$DIMDLI
 40
15.96
  9
$DIMEXE
 40
2.0
  9
$DIMCEN
 40
3.78
  9
$DIMLFAC
 40
1.0
  9
$DIMBLK
  1
_FILLED
  9
$DIMTXT
 40
3.5
  9
$PDMODE
 70
3
  9
$PDSIZE
 40
0.3125
  9
$TILEMODE
 70
1
  0
ENDSEC
  0
SECTION
  2
TABLES
  0
TABLE
  2
LTYPE
 70
6
  0
LTYPE
  2
BYBLOCK
 70
0
  3

 72
65
 73
0
 40
0.0
  0
LTYPE
  2
BYLAYER
 70
0
  3

 72
65
 73
0
 40
0.0
  0
LTYPE
  2
CONTINUOUS
 70
64
  3
Solid line
 72
65
 73
0
 40
0.0
  0
LTYPE
  2
CENTER
 70
64
  3
____ _ ____ _ ____ _ ____ _ ____ _ ____ _ ____
 72
65
 73
4
 40
0.6
 49
0.375
 49
-0.075
 49
0.075
 49
-0.075
  0
LTYPE
  2
HIDDEN
 70
64
  3
- - - - - - - - - - - - - - - - - - - -
 72
65
 73
2
 40
0.2
 49
0.1
 49
-0.1
  0
LTYPE
  2
PHANTOM
 70
64
  3
_____ _ _ _____ _ _ _____ _ _ _____
 72
65
 73
6
 40
0.8
 49
0.45
 49
-0.05
 49
0.1
 49
-0.05
 49
0.1
 49
-0.05
  0
LTYPE
  2
DOT
 70
64
  3
. . . . . . . . . . . . . . . . . . . .
 72
65
 73
2
 40
0.2
 49
0.1
 49
-0.1
  0
LTYPE
  2
DASHED
 70
64
  3
- - - - - - - - - - - - - - - - - - - -
 72
65
 73
2
 40
0.2
 49
0.1
 49
-0.1
  0
ENDTAB
  0
TABLE
  2
LAYER
 70
36
  0
LAYER
  2
0
 70
0
 62
7
  6
CONTINUOUS
  0
LAYER
  2
DEFAULT_1
 70
0
 62
7
  6
CENTER
  0
LAYER
  2
DEFAULT_2
 70
0
 62
8
  6
HIDDEN
  0
LAYER
  2
DEFAULT_3
 70
0
 62
7
  6
PHANTOM
  0
LAYER
  2
10-PART-SURF
 70
0
 62
7
  6
CONTINUOUS
  0
LAYER
  2
CENTERPLANER
 70
0
 62
7
  6
CONTINUOUS
  0
LAYER
  2
CENTER_AXER
 70
0
 62
7
  6
CONTINUOUS
  0
LAYER
  2
CURVE_RUNDING
 70
0
 62
7
  6
CONTINUOUS
  0
LAYER
  2
HELP_GEOMETRI
 70
0
 62
7
  6
CONTINUOUS
  0
LAYER
  2
LUKKEFLADE1
 70
0
 62
7
  6
CONTINUOUS
  0
LAYER
  2
LUKKEFLADE2
 70
0
 62
7
  6
CONTINUOUS
  0
LAYER
  2
LUKKEFLADE3
 70
0
 62
7
  6
CONTINUOUS
  0
LAYER
  2
NOTES
 70
0
 62
7
  6
CONTINUOUS
  0
LAYER
  2
PLANER_GLIDE
 70
0
 62
7
  6
CONTINUOUS
  0
LAYER
  2
PLANES
 70
0
 62
7
  6
CONTINUOUS
  0
LAYER
  2
PLAN_CHAMF
 70
0
 62
7
  6
CONTINUOUS
  0
LAYER
  2
PLAN_SIDESTYR
 70
0
 62
7
  6
CONTINUOUS
  0
LAYER
  2
QUILT
 70
0
 62
7
  6
CONTINUOUS
  0
LAYER
  2
ROUND_SPLIT
 70
0
 62
7
  6
CONTINUOUS
  0
LAYER
  2
SIDE_KERNER
 70
0
 62
7
  6
CONTINUOUS
  0
LAYER
  2
TRAKHUL
 70
0
 62
7
  6
CONTINUOUS
  0
LAYER
  2
VARIABLE
 70
0
 62
7
  6
CONTINUOUS
  0
ENDTAB
  0
TABLE
  2
STYLE
 70
1
  0
STYLE
  2
STANDARD
 70
0
 40
0.0
 41
0.8
 50
0.0
 71
0
 42
0.2
  3
txt
  4

  0
STYLE
  2
TEXTSTYLE_1
 70
0
 40
0.0
 41
0.8
 50
0.0
 71
0
 42
0.2
  3
gdt
  4

  0
STYLE
  2
TEXTSTYLE_2
 70
0
 40
0.0
 41
0.6
 50
0.0
 71
0
 42
0.2
  3
txt
  4

  0
STYLE
  2
TEXTSTYLE_3
 70
0
 40
0.0
 41
1.0
 50
0.0
 71
0
 42
0.2
  3
ftb_____.ttf
  4

  0
STYLE
  2
TEXTSTYLE_4
 70
0
 40
0.0
 41
1.0
 50
0.0
 71
0
 42
0.2
  3
fti_____.ttf
  4

  0
STYLE
  2
TEXTSTYLE_5
 70
0
 40
0.0
 41
1.0
 50
0.0
 71
0
 42
0.2
  3
frutiger light.ttf
  4

  0
STYLE
  2
TEXTSTYLE_6
 70
0
 40
0.0
 41
0.7
 50
0.0
 71
0
 42
0.2
  3
txt
  4

  0
STYLE
  2
TEXTSTYLE_7
 70
0
 40
0.0
 41
0.8
 50
0.0
 71
0
 42
0.2
  3
txt
  4

  0
ENDTAB
  0
ENDSEC
  0
SECTION
  2
BLOCKS
  0
BLOCK
  8
0
 62
2
  6
CONTINUOUS
  2
SYMBOL_5_BL1
 70
64
 10
382.3920721743
 20
35.81661148
  0
TEXT
  8
0
 62
7
  6
CONTINUOUS
 10
373.4503571828
 20
30.9093678571
  7
TEXTSTYLE_4
 40
1.0655737705
  1
The brand for plastic modular belts and chains
 41
1.0
 72
0
  0
LINE
  8
0
 62
7
  6
CONTINUOUS
 10
358.3701405634
 20
36.3903819718
 11
358.3701405634
 21
34.2592344308
  0
LINE
  8
0
 62
7
  6
CONTINUOUS
 10
358.6592030565
 20
31.2683031351
 11
358.6592030565
 21
31.3650941944
  0
LINE
  8
0
 62
7
  6
CONTINUOUS
 10
358.3701405634
 20
31.332830508
 11
358.4279530651
 21
31.1392483894
  0
LINE
  8
0
 62
7
  6
CONTINUOUS
 10
359.7635831863
 20
34.1772672177
 11
359.7635831863
 21
36.3903819718
  0
LINE
  8
0
 62
7
  6
CONTINUOUS
 10
360.6826405082
 20
32.3330049227
 11
360.6826405082
 21
30.81661148
  0
LINE
  8
0
 62
7
  6
CONTINUOUS
 10
360.9717030634
 20
30.81661148
 11
360.9717030634
 21
31.5586763581
  0
LINE
  8
0
 62
7
  6
CONTINUOUS
 10
360.9717030634
 20
31.6877311038
 11
360.9717030634
 21
32.3330049227
  0
LINE
  8
0
 62
7
  6
CONTINUOUS
 10
358.4279530651
 20
31.5264126717
 11
358.3701405634
 21
31.332830508
  0
LINE
  8
0
 62
7
  6
CONTINUOUS
 10
358.7748280496
 20
31.106984703
 11
358.6592030565
 21
31.2683031351
  0
LINE
  8
0
 62
7
  6
CONTINUOUS
 10
359.8732656185
 20
31.623203731
 11
359.9310780634
 21
31.5264126717
  0
LINE
  8
0
 62
7
  6
CONTINUOUS
 10
360.2201406185
 20
31.5264126717
 11
360.1623280082
 21
31.6554674174
  0
LINE
  8
0
 62
7
  6
CONTINUOUS
 10
361.648829088
 20
36.3903819718
 11
361.648829088
 21
34.5871032833
  0
LINE
  8
0
 62
7
  6
CONTINUOUS
 10
361.648829088
 20
33.2756278735
 11
361.648829088
 21
32.6198901686
  0
LINE
  8
0
 62
7
  6
CONTINUOUS
 10
362.0123280634
 20
31.4618852989
 11
362.0123280634
 21
30.81661148
  0
LINE
  8
0
 62
7
  6
CONTINUOUS
 10
362.3013904531
 20
30.81661148
 11
362.3013904531
 21
31.4618852989
  0
LINE
  8
0
 62
7
  6
CONTINUOUS
 10
358.6592030565
 20
31.3650941944
 11
358.7170155634
 21
31.4941489853
  0
LINE
  8
0
 62
7
  6
CONTINUOUS
 10
358.4279530651
 20
31.1392483894
 11
358.5435780634
 21
31.0101936212
  0
LINE
  8
0
 62
7
  6
CONTINUOUS
 10
361.9545154531
 20
31.5909400446
 11
362.0123280634
 21
31.4618852989
  0
LINE
  8
0
 62
7
  6
CONTINUOUS
 10
362.7638906736
 20
31.106984703
 11
362.8217029531
 21
30.9779299347
  0
LINE
  8
0
 62
7
  6
CONTINUOUS
 10
362.3013904531
 20
31.4618852989
 11
362.2435781736
 21
31.623203731
  0
LINE
  8
0
 62
7
  6
CONTINUOUS
 10
362.7638906736
 20
31.6554674174
 11
362.7638906736
 21
31.5909400446
  0
LINE
  8
0
 62
7
  6
CONTINUOUS
 10
362.7638906736
 20
31.2037757623
 11
362.7638906736
 21
31.106984703
  0
LINE
  8
0
 62
7
  6
CONTINUOUS
 10
363.0422717109
 20
32.6198901686
 11
363.0422717109
 21
36.3903819718
  0
LINE
  8
0
 62
7
  6
CONTINUOUS
 10
363.0529530634
 20
31.074720994
 11
363.0529530634
 21
31.1392483894
  0
LINE
  8
0
 62
7
  6
CONTINUOUS
 10
363.3701405634
 20
36.3903819718
 11
363.3701405634
 21
32.6198901686
  0
LINE
  8
0
 62
7
  6
CONTINUOUS
 10
360.1623280082
 20
31.0101936212
 11
360.2201406185
 21
31.1392483894
  0
LINE
  8
0
 62
7
  6
CONTINUOUS
 10
364.5560782839
 20
30.9134025506
 11
364.4982653428
 21
31.074720994
  0
LINE
  8
0
 62
7
  6
CONTINUOUS
 10
364.2092032839
 20
31.5909400446
 11
364.2092032839
 21
31.4941489853
  0
LINE
  8
0
 62
7
  6
CONTINUOUS
 10
364.2092032839
 20
31.3650941944
 11
364.2092032839
 21
31.1715120759
  0
LINE
  8
0
 62
7
  6
CONTINUOUS
 10
364.4982653428
 20
31.074720994
 11
364.4982653428
 21
31.5909400446
  0
LINE
  8
0
 62
7
  6
CONTINUOUS
 10
364.7635831863
 20
32.6198901686
 11
364.7635831863
 21
34.4231688571
  0
LINE
  8
0
 62
7
  6
CONTINUOUS
 10
364.7635831863
 20
35.7346442669
 11
364.7635831863
 21
36.3903819718
  0
LINE
  8
0
 62
7
  6
CONTINUOUS
 10
365.0763907839
 20
32.3330049227
 11
365.0763907839
 21
32.1716864905
  0
LINE
  8
0
 62
7
  6
CONTINUOUS
 10
365.0763907839
 20
31.8490495359
 11
365.0763907839
 21
30.81661148
  0
LINE
  8
0
 62
7
  6
CONTINUOUS
 10
365.3654528428
 20
30.81661148
 11
365.3654528428
 21
31.8490495359
  0
LINE
  8
0
 62
7
  6
CONTINUOUS
 10
365.3654528428
 20
32.1716864905
 11
365.3654528428
 21
32.3330049227
  0
LINE
  8
0
 62
7
  6
CONTINUOUS
 10
359.9310780634
 20
31.1392483894
 11
359.8732656185
 21
31.0424573076
  0
LINE
  8
0
 62
7
  6
CONTINUOUS
 10
362.2435781736
 20
31.623203731
 11
362.1857655634
 21
31.6877311038
  0
LINE
  8
0
 62
7
  6
CONTINUOUS
 10
363.1107656736
 20
31.0101936212
 11
363.0529530634
 21
31.074720994
  0
LINE
  8
0
 62
7
  6
CONTINUOUS
 10
364.2670155634
 20
30.8811388585
 11
364.3248278428
 21
30.81661148
  0
LINE
  8
0
 62
7
  6
CONTINUOUS
 10
364.2092032839
 20
30.9779299347
 11
364.2670155634
 21
30.8811388585
  0
LINE
  8
0
 62
7
  6
CONTINUOUS
 10
364.6138905634
 20
30.81661148
 11
364.5560782839
 21
30.9134025506
  0
LINE
  8
0
 62
7
  6
CONTINUOUS
 10
364.4982653428
 20
31.5909400446
 11
364.4404530634
 21
31.6877311038
  0
LINE
  8
0
 62
7
  6
CONTINUOUS
 10
365.8279530634
 20
31.8490495359
 11
365.8279530634
 21
30.81661148
  0
LINE
  8
0
 62
7
  6
CONTINUOUS
 10
366.1170157839
 20
30.81661148
 11
366.1170157839
 21
31.5586763581
  0
LINE
  8
0
 62
7
  6
CONTINUOUS
 10
366.1170157839
 20
31.6877311038
 11
366.1170157839
 21
31.8490495359
  0
LINE
  8
0
 62
7
  6
CONTINUOUS
 10
366.648829088
 20
34.8330049227
 11
366.648829088
 21
32.6198901686
  0
LINE
  8
0
 62
7
  6
CONTINUOUS
 10
358.5435780634
 20
31.6554674174
 11
358.4279530651
 21
31.5264126717
  0
LINE
  8
0
 62
7
  6
CONTINUOUS
 10
358.7170155634
 20
31.4941489853
 11
358.7748280496
 21
31.5586763581
  0
LINE
  8
0
 62
7
  6
CONTINUOUS
 10
358.5435780634
 20
31.0101936212
 11
358.6592030565
 21
30.945666237
  0
LINE
  8
0
 62
7
  6
CONTINUOUS
 10
358.9482655496
 20
31.0101936212
 11
358.7748280496
 21
31.106984703
  0
LINE
  8
0
 62
7
  6
CONTINUOUS
 10
364.1513903428
 20
31.6554674174
 11
364.2092032839
 21
31.5909400446
  0
LINE
  8
0
 62
7
  6
CONTINUOUS
 10
367.0998278428
 20
31.5909400446
 11
367.1576407839
 21
31.4296216124
  0
LINE
  8
0
 62
7
  6
CONTINUOUS
 10
367.4467028428
 20
31.4296216124
 11
367.3888905634
 21
31.5909400446
  0
LINE
  8
0
 62
7
  6
CONTINUOUS
 10
367.1576407839
 20
31.4296216124
 11
367.1576407839
 21
30.81661148
  0
LINE
  8
0
 62
7
  6
CONTINUOUS
 10
367.4467028428
 20
30.81661148
 11
367.4467028428
 21
31.4296216124
  0
LINE
  8
0
 62
7
  6
CONTINUOUS
 10
367.9092030634
 20
31.6554674174
 11
367.9092030634
 21
31.5909400446
  0
LINE
  8
0
 62
7
  6
CONTINUOUS
 10
368.0422717109
 20
32.6198901686
 11
368.0422717109
 21
34.7510377095
  0
LINE
  8
0
 62
7
  6
CONTINUOUS
 10
368.3701405634
 20
36.3903819718
 11
368.3701405634
 21
32.6198901686
  0
LINE
  8
0
 62
7
  6
CONTINUOUS
 10
363.0529530634
 20
31.1392483894
 11
363.1107656736
 21
31.2360394487
  0
LINE
  8
0
 62
7
  6
CONTINUOUS
 10
358.6592030565
 20
30.945666237
 11
358.8326405772
 21
30.8811388585
  0
LINE
  8
0
 62
7
  6
CONTINUOUS
 10
360.1623280082
 20
31.6554674174
 11
359.9888905082
 21
31.7522584767
  0
LINE
  8
0
 62
7
  6
CONTINUOUS
 10
362.8217029531
 20
30.9779299347
 11
362.9951404531
 21
30.8811388585
  0
LINE
  8
0
 62
7
  6
CONTINUOUS
 10
361.8388905634
 20
31.6554674174
 11
361.9545154531
 21
31.5909400446
  0
LINE
  8
0
 62
7
  6
CONTINUOUS
 10
362.1857655634
 20
31.6877311038
 11
362.0701406736
 21
31.7522584767
  0
LINE
  8
0
 62
7
  6
CONTINUOUS
 10
367.9092030634
 20
31.074720994
 11
368.0248282839
 21
30.945666237
  0
LINE
  8
0
 62
7
  6
CONTINUOUS
 10
368.2560780634
 20
31.0101936212
 11
368.1982657839
 21
31.074720994
  0
LINE
  8
0
 62
7
  6
CONTINUOUS
 10
367.9092030634
 20
31.5909400446
 11
368.0248282839
 21
31.4618852989
  0
LINE
  8
0
 62
7
  6
CONTINUOUS
 10
367.3888905634
 20
31.5909400446
 11
367.3310782839
 21
31.6877311038
  0
LINE
  8
0
 62
7
  6
CONTINUOUS
 10
369.7592026223
 20
31.0101936212
 11
369.7592026223
 21
31.074720994
  0
LINE
  8
0
 62
7
  6
CONTINUOUS
 10
369.7635831863
 20
32.6198901686
 11
369.7635831863
 21
36.3903819718
  0
LINE
  8
0
 62
7
  6
CONTINUOUS
 10
362.8217029531
 20
31.7199947902
 11
362.7638906736
 21
31.6554674174
  0
LINE
  8
0
 62
7
  6
CONTINUOUS
 10
359.6998280358
 20
31.6877311038
 11
359.8732656185
 21
31.623203731
  0
LINE
  8
0
 62
7
  6
CONTINUOUS
 10
364.4404530634
 20
31.6877311038
 11
364.3248278428
 21
31.7522584767
  0
LINE
  8
0
 62
7
  6
CONTINUOUS
 10
368.2560780634
 20
31.5264126717
 11
368.1982657839
 21
31.5909400446
  0
LINE
  8
0
 62
7
  6
CONTINUOUS
 10
369.4123282839
 20
31.1392483894
 11
369.4701405634
 21
31.074720994
  0
LINE
  8
0
 62
7
  6
CONTINUOUS
 10
369.7592026223
 20
31.074720994
 11
369.6435780634
 21
31.2037757623
  0
LINE
  8
0
 62
7
  6
CONTINUOUS
 10
369.4123282839
 20
31.6554674174
 11
369.4701405634
 21
31.5909400446
  0
LINE
  8
0
 62
7
  6
CONTINUOUS
 10
369.7592026223
 20
31.5909400446
 11
369.6435780634
 21
31.7199947902
  0
LINE
  8
0
 62
7
  6
CONTINUOUS
 10
363.0529530634
 20
31.5909400446
 11
363.1107656736
 21
31.6554674174
  0
LINE
  8
0
 62
7
  6
CONTINUOUS
 10
362.8795155634
 20
31.332830508
 11
362.7638906736
 21
31.2037757623
  0
LINE
  8
0
 62
7
  6
CONTINUOUS
 10
364.2092032839
 20
31.1715120759
 11
364.1513903428
 21
31.106984703
  0
LINE
  8
0
 62
7
  6
CONTINUOUS
 10
364.1513903428
 20
30.9134025506
 11
364.2092032839
 21
30.9779299347
  0
LINE
  8
0
 62
7
  6
CONTINUOUS
 10
362.9951404531
 20
30.8811388585
 11
363.1107656736
 21
30.8488751693
  0
LINE
  8
0
 62
7
  6
CONTINUOUS
 10
359.9888905082
 20
31.7522584767
 11
359.7576405634
 21
31.8167858495
  0
LINE
  8
0
 62
7
  6
CONTINUOUS
 10
363.3420154531
 20
30.945666237
 11
363.1107656736
 21
31.0101936212
  0
LINE
  8
0
 62
7
  6
CONTINUOUS
 10
362.0701406736
 20
31.7522584767
 11
361.8967031736
 21
31.8167858495
  0
LINE
  8
0
 62
7
  6
CONTINUOUS
 10
364.3248278428
 20
31.7522584767
 11
364.1513903428
 21
31.8167858495
  0
LINE
  8
0
 62
7
  6
CONTINUOUS
 10
366.9842032839
 20
31.6554674174
 11
367.0998278428
 21
31.5909400446
  0
LINE
  8
0
 62
7
  6
CONTINUOUS
 10
367.3310782839
 20
31.6877311038
 11
367.2154530634
 21
31.7522584767
  0
LINE
  8
0
 62
7
  6
CONTINUOUS
 10
358.8326405772
 20
30.8811388585
 11
359.0060780772
 21
30.8488751693
  0
LINE
  8
0
 62
7
  6
CONTINUOUS
 10
359.2951405909
 20
30.945666237
 11
358.9482655496
 21
31.0101936212
  0
LINE
  8
0
 62
7
  6
CONTINUOUS
 10
361.7232656736
 20
31.6877311038
 11
361.8388905634
 21
31.6554674174
  0
LINE
  8
0
 62
7
  6
CONTINUOUS
 10
364.0357657839
 20
31.6877311038
 11
364.1513903428
 21
31.6554674174
  0
LINE
  8
0
 62
7
  6
CONTINUOUS
 10
368.3717032839
 20
30.9779299347
 11
368.2560780634
 21
31.0101936212
  0
LINE
  8
0
 62
7
  6
CONTINUOUS
 10
366.8685780634
 20
31.6877311038
 11
366.9842032839
 21
31.6554674174
  0
LINE
  8
0
 62
7
  6
CONTINUOUS
 10
368.0248282839
 20
30.945666237
 11
368.1982657839
 21
30.8811388585
  0
LINE
  8
0
 62
7
  6
CONTINUOUS
 10
367.2154530634
 20
31.7522584767
 11
367.0420155634
 21
31.8167858495
  0
LINE
  8
0
 62
7
  6
CONTINUOUS
 10
368.4295155634
 20
31.4618852989
 11
368.2560780634
 21
31.5264126717
  0
LINE
  8
0
 62
7
  6
CONTINUOUS
 10
369.2388907839
 20
31.2037757623
 11
369.4123282839
 21
31.1392483894
  0
LINE
  8
0
 62
7
  6
CONTINUOUS
 10
369.6435780634
 20
31.7199947902
 11
369.4701405634
 21
31.7845221631
  0
LINE
  8
0
 62
7
  6
CONTINUOUS
 10
368.0248282839
 20
31.4618852989
 11
368.2560780634
 21
31.3650941944
  0
LINE
  8
0
 62
7
  6
CONTINUOUS
 10
369.6435780634
 20
31.2037757623
 11
369.4123282839
 21
31.3005668216
  0
LINE
  8
0
 62
7
  6
CONTINUOUS
 10
368.1982657839
 20
31.5909400446
 11
368.2560780634
 21
31.6554674174
  0
LINE
  8
0
 62
7
  6
CONTINUOUS
 10
358.6592030565
 20
31.7199947902
 11
358.5435780634
 21
31.6554674174
  0
LINE
  8
0
 62
7
  6
CONTINUOUS
 10
358.7748280496
 20
31.5586763581
 11
358.9482655496
 21
31.6554674174
  0
LINE
  8
0
 62
7
  6
CONTINUOUS
 10
361.0873281185
 20
31.7522584767
 11
360.9717030634
 21
31.6877311038
  0
LINE
  8
0
 62
7
  6
CONTINUOUS
 10
360.9717030634
 20
31.5586763581
 11
361.0873281185
 21
31.623203731
  0
LINE
  8
0
 62
7
  6
CONTINUOUS
 10
359.9888905082
 20
30.9134025506
 11
360.1623280082
 21
31.0101936212
  0
LINE
  8
0
 62
7
  6
CONTINUOUS
 10
359.0060780772
 20
30.8488751693
 11
359.3529530358
 21
30.81661148
  0
LINE
  8
0
 62
7
  6
CONTINUOUS
 10
363.1107656736
 20
30.8488751693
 11
363.3420154531
 21
30.81661148
  0
LINE
  8
0
 62
7
  6
CONTINUOUS
 10
361.4920155634
 20
31.7199947902
 11
361.7232656736
 21
31.6877311038
  0
LINE
  8
0
 62
7
  6
CONTINUOUS
 10
363.8045156736
 20
31.7199947902
 11
364.0357657839
 21
31.6877311038
  0
LINE
  8
0
 62
7
  6
CONTINUOUS
 10
368.2560780634
 20
31.3650941944
 11
369.2388907839
 21
31.2037757623
  0
LINE
  8
0
 62
7
  6
CONTINUOUS
 10
369.4123282839
 20
31.3005668216
 11
368.4295155634
 21
31.4618852989
  0
LINE
  8
0
 62
7
  6
CONTINUOUS
 10
361.8967031736
 20
31.8167858495
 11
361.7232656736
 21
31.8490495359
  0
LINE
  8
0
 62
7
  6
CONTINUOUS
 10
368.1982657839
 20
30.8811388585
 11
368.3717032839
 21
30.8488751693
  0
LINE
  8
0
 62
7
  6
CONTINUOUS
 10
367.0420155634
 20
31.8167858495
 11
366.8685780634
 21
31.8490495359
  0
LINE
  8
0
 62
7
  6
CONTINUOUS
 10
369.2967030634
 20
31.6877311038
 11
369.4123282839
 21
31.6554674174
  0
LINE
  8
0
 62
7
  6
CONTINUOUS
 10
369.4701405634
 20
31.074720994
 11
369.4123282839
 21
31.0101936212
  0
LINE
  8
0
 62
7
  6
CONTINUOUS
 10
368.0248282839
 20
31.7522584767
 11
367.9092030634
 21
31.6554674174
  0
LINE
  8
0
 62
7
  6
CONTINUOUS
 10
362.9373281736
 20
31.7845221631
 11
362.8217029531
 21
31.7199947902
  0
LINE
  8
0
 62
7
  6
CONTINUOUS
 10
362.9951404531
 20
31.397357926
 11
362.8795155634
 21
31.332830508
  0
LINE
  8
0
 62
7
  6
CONTINUOUS
 10
363.1107656736
 20
31.2360394487
 11
363.2263905634
 21
31.3005668216
  0
LINE
  8
0
 62
7
  6
CONTINUOUS
 10
360.6826405082
 20
30.81661148
 11
360.9717030634
 21
30.81661148
  0
LINE
  8
0
 62
7
  6
CONTINUOUS
 10
362.0123280634
 20
30.81661148
 11
362.3013904531
 21
30.81661148
  0
LINE
  8
0
 62
7
  6
CONTINUOUS
 10
363.3420154531
 20
30.81661148
 11
363.6888904531
 21
30.81661148
  0
LINE
  8
0
 62
7
  6
CONTINUOUS
 10
364.3248278428
 20
30.81661148
 11
364.6138905634
 21
30.81661148
  0
LINE
  8
0
 62
7
  6
CONTINUOUS
 10
365.0763907839
 20
30.81661148
 11
365.3654528428
 21
30.81661148
  0
LINE
  8
0
 62
7
  6
CONTINUOUS
 10
365.8279530634
 20
30.81661148
 11
366.1170157839
 21
30.81661148
  0
LINE
  8
0
 62
7
  6
CONTINUOUS
 10
367.1576407839
 20
30.81661148
 11
367.4467028428
 21
30.81661148
  0
LINE
  8
0
 62
7
  6
CONTINUOUS
 10
368.7185782839
 20
30.81661148
 11
369.0654532839
 21
30.81661148
  0
LINE
  8
0
 62
7
  6
CONTINUOUS
 10
369.0654532839
 20
30.945666237
 11
368.7185782839
 21
30.945666237
  0
LINE
  8
0
 62
7
  6
CONTINUOUS
 10
363.6888904531
 20
30.945666237
 11
363.3420154531
 21
30.945666237
  0
LINE
  8
0
 62
7
  6
CONTINUOUS
 10
368.1982657839
 20
31.074720994
 11
367.9092030634
 21
31.074720994
  0
LINE
  8
0
 62
7
  6
CONTINUOUS
 10
360.2201406185
 20
31.1392483894
 11
359.9310780634
 21
31.1392483894
  0
LINE
  8
0
 62
7
  6
CONTINUOUS
 10
359.2951405909
 20
31.7199947902
 11
359.6998280358
 21
31.6877311038
  0
LINE
  8
0
 62
7
  6
CONTINUOUS
 10
359.7576405634
 20
31.8167858495
 11
359.3529530358
 21
31.8490495359
  0
LINE
  8
0
 62
7
  6
CONTINUOUS
 10
368.3717032839
 20
30.8488751693
 11
368.7185782839
 21
30.81661148
  0
LINE
  8
0
 62
7
  6
CONTINUOUS
 10
368.7185782839
 20
30.945666237
 11
368.3717032839
 21
30.9779299347
  0
LINE
  8
0
 62
7
  6
CONTINUOUS
 10
364.1513903428
 20
31.8167858495
 11
363.8045156736
 21
31.8490495359
  0
LINE
  8
0
 62
7
  6
CONTINUOUS
 10
368.9498280634
 20
31.7199947902
 11
369.2967030634
 21
31.6877311038
  0
LINE
  8
0
 62
7
  6
CONTINUOUS
 10
369.2967030634
 20
31.8167858495
 11
368.9498280634
 21
31.8490495359
  0
LINE
  8
0
 62
7
  6
CONTINUOUS
 10
366.6373282839
 20
31.7199947902
 11
366.8685780634
 21
31.6877311038
  0
LINE
  8
0
 62
7
  6
CONTINUOUS
 10
369.4701405634
 20
31.7845221631
 11
369.2967030634
 21
31.8167858495
  0
LINE
  8
0
 62
7
  6
CONTINUOUS
 10
369.6435780634
 20
30.9134025506
 11
369.7592026223
 21
31.0101936212
  0
LINE
  8
0
 62
7
  6
CONTINUOUS
 10
364.1513903428
 20
31.106984703
 11
363.9779528428
 21
31.0101936212
  0
LINE
  8
0
 62
7
  6
CONTINUOUS
 10
366.2326403428
 20
31.7522584767
 11
366.1170157839
 21
31.6877311038
  0
LINE
  8
0
 62
7
  6
CONTINUOUS
 10
366.1170157839
 20
31.5586763581
 11
366.2326403428
 21
31.623203731
  0
LINE
  8
0
 62
7
  6
CONTINUOUS
 10
358.8326405772
 20
31.7845221631
 11
358.6592030565
 21
31.7199947902
  0
LINE
  8
0
 62
7
  6
CONTINUOUS
 10
361.2607654531
 20
31.8167858495
 11
361.0873281185
 21
31.7522584767
  0
LINE
  8
0
 62
7
  6
CONTINUOUS
 10
361.0873281185
 20
31.623203731
 11
361.2607654531
 21
31.6877311038
  0
LINE
  8
0
 62
7
  6
CONTINUOUS
 10
359.8732656185
 20
31.0424573076
 11
359.6998280358
 21
30.9779299347
  0
LINE
  8
0
 62
7
  6
CONTINUOUS
 10
369.2967030634
 20
30.9779299347
 11
369.0654532839
 21
30.945666237
  0
LINE
  8
0
 62
7
  6
CONTINUOUS
 10
363.6888904531
 20
30.81661148
 11
363.9779528428
 21
30.8488751693
  0
LINE
  8
0
 62
7
  6
CONTINUOUS
 10
369.0654532839
 20
30.81661148
 11
369.4123282839
 21
30.8488751693
  0
LINE
  8
0
 62
7
  6
CONTINUOUS
 10
359.3529530358
 20
30.81661148
 11
359.7576405634
 21
30.8488751693
  0
LINE
  8
0
 62
7
  6
CONTINUOUS
 10
359.6998280358
 20
30.9779299347
 11
359.2951405909
 21
30.945666237
  0
LINE
  8
0
 62
7
  6
CONTINUOUS
 10
363.5732655634
 20
31.3650941944
 11
364.2092032839
 21
31.3650941944
  0
LINE
  8
0
 62
7
  6
CONTINUOUS
 10
364.2092032839
 20
31.4941489853
 11
363.5732655634
 21
31.4941489853
  0
LINE
  8
0
 62
7
  6
CONTINUOUS
 10
359.9310780634
 20
31.5264126717
 11
360.2201406185
 21
31.5264126717
  0
LINE
  8
0
 62
7
  6
CONTINUOUS
 10
362.7638906736
 20
31.5909400446
 11
363.0529530634
 21
31.5909400446
  0
LINE
  8
0
 62
7
  6
CONTINUOUS
 10
369.4701405634
 20
31.5909400446
 11
369.7592026223
 21
31.5909400446
  0
LINE
  8
0
 62
7
  6
CONTINUOUS
 10
363.4576406736
 20
31.7199947902
 11
363.8045156736
 21
31.7199947902
  0
LINE
  8
0
 62
7
  6
CONTINUOUS
 10
368.6029530634
 20
31.7199947902
 11
368.9498280634
 21
31.7199947902
  0
LINE
  8
0
 62
7
  6
CONTINUOUS
 10
368.9498280634
 20
31.8490495359
 11
368.6029530634
 21
31.8490495359
  0
LINE
  8
0
 62
7
  6
CONTINUOUS
 10
366.8685780634
 20
31.8490495359
 11
366.6373282839
 21
31.8490495359
  0
LINE
  8
0
 62
7
  6
CONTINUOUS
 10
366.1170157839
 20
31.8490495359
 11
365.8279530634
 21
31.8490495359
  0
LINE
  8
0
 62
7
  6
CONTINUOUS
 10
365.3654528428
 20
31.8490495359
 11
365.0763907839
 21
31.8490495359
  0
LINE
  8
0
 62
7
  6
CONTINUOUS
 10
363.8045156736
 20
31.8490495359
 11
363.4576406736
 21
31.8490495359
  0
LINE
  8
0
 62
7
  6
CONTINUOUS
 10
361.7232656736
 20
31.8490495359
 11
361.4920155634
 21
31.8490495359
  0
LINE
  8
0
 62
7
  6
CONTINUOUS
 10
365.0763907839
 20
32.1716864905
 11
365.3654528428
 21
32.1716864905
  0
LINE
  8
0
 62
7
  6
CONTINUOUS
 10
365.3654528428
 20
32.3330049227
 11
365.0763907839
 21
32.3330049227
  0
LINE
  8
0
 62
7
  6
CONTINUOUS
 10
360.9717030634
 20
32.3330049227
 11
360.6826405082
 21
32.3330049227
  0
LINE
  8
0
 62
7
  6
CONTINUOUS
 10
360.0094848257
 20
32.6198901686
 11
360.4220561743
 21
32.6198901686
  0
LINE
  8
0
 62
7
  6
CONTINUOUS
 10
361.648829088
 20
32.6198901686
 11
363.0422717109
 21
32.6198901686
  0
LINE
  8
0
 62
7
  6
CONTINUOUS
 10
363.3701405634
 20
32.6198901686
 11
364.7635831863
 21
32.6198901686
  0
LINE
  8
0
 62
7
  6
CONTINUOUS
 10
366.648829088
 20
32.6198901686
 11
368.0422717109
 21
32.6198901686
  0
LINE
  8
0
 62
7
  6
CONTINUOUS
 10
368.3701405634
 20
32.6198901686
 11
369.7635831863
 21
32.6198901686
  0
LINE
  8
0
 62
7
  6
CONTINUOUS
 10
366.4060778428
 20
31.8167858495
 11
366.2326403428
 21
31.7522584767
  0
LINE
  8
0
 62
7
  6
CONTINUOUS
 10
363.9779528428
 20
30.8488751693
 11
364.1513903428
 21
30.9134025506
  0
LINE
  8
0
 62
7
  6
CONTINUOUS
 10
369.4123282839
 20
30.8488751693
 11
369.6435780634
 21
30.9134025506
  0
LINE
  8
0
 62
7
  6
CONTINUOUS
 10
369.4123282839
 20
31.0101936212
 11
369.2967030634
 21
30.9779299347
  0
LINE
  8
0
 62
7
  6
CONTINUOUS
 10
368.3717032839
 20
31.6877311038
 11
368.6029530634
 21
31.7199947902
  0
LINE
  8
0
 62
7
  6
CONTINUOUS
 10
366.4060778428
 20
31.6877311038
 11
366.6373282839
 21
31.7199947902
  0
LINE
  8
0
 62
7
  6
CONTINUOUS
 10
363.3420154531
 20
31.332830508
 11
363.5732655634
 21
31.3650941944
  0
LINE
  8
0
 62
7
  6
CONTINUOUS
 10
366.6373282839
 20
31.8490495359
 11
366.4060778428
 21
31.8167858495
  0
LINE
  8
0
 62
7
  6
CONTINUOUS
 10
363.2263905634
 20
31.6877311038
 11
363.4576406736
 21
31.7199947902
  0
LINE
  8
0
 62
7
  6
CONTINUOUS
 10
368.6029530634
 20
31.8490495359
 11
368.2560780634
 21
31.8167858495
  0
LINE
  8
0
 62
7
  6
CONTINUOUS
 10
363.5732655634
 20
31.4941489853
 11
363.2263905634
 21
31.4618852989
  0
LINE
  8
0
 62
7
  6
CONTINUOUS
 10
359.3529530358
 20
31.8490495359
 11
359.0060780772
 21
31.8167858495
  0
LINE
  8
0
 62
7
  6
CONTINUOUS
 10
363.4576406736
 20
31.8490495359
 11
363.0529530634
 21
31.8167858495
  0
LINE
  8
0
 62
7
  6
CONTINUOUS
 10
360.8291569568
 20
33.7674311522
 11
360.1734192519
 21
33.7674311522
  0
LINE
  8
0
 62
7
  6
CONTINUOUS
 10
366.2326403428
 20
31.623203731
 11
366.4060778428
 21
31.6877311038
  0
LINE
  8
0
 62
7
  6
CONTINUOUS
 10
368.2560780634
 20
31.6554674174
 11
368.3717032839
 21
31.6877311038
  0
LINE
  8
0
 62
7
  6
CONTINUOUS
 10
368.2560780634
 20
31.8167858495
 11
368.0248282839
 21
31.7522584767
  0
LINE
  8
0
 62
7
  6
CONTINUOUS
 10
363.9779528428
 20
31.0101936212
 11
363.6888904531
 21
30.945666237
  0
LINE
  8
0
 62
7
  6
CONTINUOUS
 10
361.2607654531
 20
31.6877311038
 11
361.4920155634
 21
31.7199947902
  0
LINE
  8
0
 62
7
  6
CONTINUOUS
 10
361.4920155634
 20
31.8490495359
 11
361.2607654531
 21
31.8167858495
  0
LINE
  8
0
 62
7
  6
CONTINUOUS
 10
359.0638905634
 20
31.6877311038
 11
359.2951405909
 21
31.7199947902
  0
LINE
  8
0
 62
7
  6
CONTINUOUS
 10
365.5832553175
 20
35.2428409882
 11
366.2389930224
 21
35.2428409882
  0
LINE
  8
0
 62
7
  6
CONTINUOUS
 10
363.2263905634
 20
31.3005668216
 11
363.3420154531
 21
31.332830508
  0
LINE
  8
0
 62
7
  6
CONTINUOUS
 10
363.2263905634
 20
31.4618852989
 11
362.9951404531
 21
31.397357926
  0
LINE
  8
0
 62
7
  6
CONTINUOUS
 10
363.1107656736
 20
31.6554674174
 11
363.2263905634
 21
31.6877311038
  0
LINE
  8
0
 62
7
  6
CONTINUOUS
 10
359.7576405634
 20
30.8488751693
 11
359.9888905082
 21
30.9134025506
  0
LINE
  8
0
 62
7
  6
CONTINUOUS
 10
363.0529530634
 20
31.8167858495
 11
362.9373281736
 21
31.7845221631
  0
LINE
  8
0
 62
7
  6
CONTINUOUS
 10
359.0060780772
 20
31.8167858495
 11
358.8326405772
 21
31.7845221631
  0
LINE
  8
0
 62
7
  6
CONTINUOUS
 10
369.7635831863
 20
36.3903819718
 11
368.3701405634
 21
36.3903819718
  0
LINE
  8
0
 62
7
  6
CONTINUOUS
 10
366.4029274486
 20
36.3903819718
 11
365.9903561
 21
36.3903819718
  0
LINE
  8
0
 62
7
  6
CONTINUOUS
 10
364.7635831863
 20
36.3903819718
 11
363.3701405634
 21
36.3903819718
  0
LINE
  8
0
 62
7
  6
CONTINUOUS
 10
363.0422717109
 20
36.3903819718
 11
361.648829088
 21
36.3903819718
  0
LINE
  8
0
 62
7
  6
CONTINUOUS
 10
359.7635831863
 20
36.3903819718
 11
358.3701405634
 21
36.3903819718
  0
LINE
  8
0
 62
7
  6
CONTINUOUS
 10
358.9482655496
 20
31.6554674174
 11
359.0638905634
 21
31.6877311038
  0
CIRCLE
  8
0
 62
7
  6
CONTINUOUS
 10
369.0668618749
 20
38.7264475456
 40
2.0901639344
  0
ARC
  8
0
 62
7
  6
CONTINUOUS
 10
360.0094848257
 20
34.2592344308
 40
1.6393442623
 50
180.0
 51
270.0
  0
ARC
  8
0
 62
7
  6
CONTINUOUS
 10
366.4029274486
 20
34.7510377095
 40
1.6393442623
 50
0.0
 51
90.0
  0
ARC
  8
0
 62
7
  6
CONTINUOUS
 10
360.4220561743
 20
34.0953000046
 40
1.4754098361
 50
270.0
 51
326.2510114041
  0
ARC
  8
0
 62
7
  6
CONTINUOUS
 10
365.9903561
 20
34.9149721358
 40
1.4754098361
 50
90.0
 51
146.2510114041
  0
ARC
  8
0
 62
7
  6
CONTINUOUS
 10
360.8291569568
 20
34.5871032833
 40
0.8196721311
 50
270.0
 51
360.0
  0
ARC
  8
0
 62
7
  6
CONTINUOUS
 10
365.5832553175
 20
34.4231688571
 40
0.8196721311
 50
90.0
 51
180.0
  0
ARC
  8
0
 62
7
  6
CONTINUOUS
 10
360.1734192519
 20
34.1772672177
 40
0.4098360656
 50
180.0
 51
270.0
  0
ARC
  8
0
 62
7
  6
CONTINUOUS
 10
366.2389930224
 20
34.8330049227
 40
0.4098360656
 50
0.0
 51
90.0
  0
SOLID
  8
0
 62
7
  6
CONTINUOUS
 10
365.0763907839
 20
32.1716868508
 11
365.0763907839
 21
32.3330053344
 12
365.3654528428
 22
32.1716868508
 13
365.3654528428
 23
32.3330053344
  0
SOLID
  8
0
 62
7
  6
CONTINUOUS
 10
359.3529530358
 20
31.8490498836
 11
359.7576405634
 21
31.8167854792
 12
359.0060780772
 22
31.8167854792
 13
359.0060780772
 23
31.8167854792
  0
SOLID
  8
0
 62
7
  6
CONTINUOUS
 10
358.8326405772
 20
31.7845227934
 11
359.0060780772
 21
31.8167854792
 12
359.7576405634
 22
31.8167854792
 13
359.7576405634
 23
31.8167854792
  0
SOLID
  8
0
 62
7
  6
CONTINUOUS
 10
359.7576405634
 20
31.8167854792
 11
359.9888905082
 21
31.7522584901
 12
358.8326405772
 22
31.7845227934
 13
358.8326405772
 23
31.7845227934
  0
SOLID
  8
0
 62
7
  6
CONTINUOUS
 10
358.6592030565
 20
31.7199940664
 11
358.8326405772
 21
31.7845227934
 12
359.9888905082
 22
31.7522584901
 13
359.9888905082
 23
31.7522584901
  0
SOLID
  8
0
 62
7
  6
CONTINUOUS
 10
358.6592030565
 20
31.7199940664
 11
359.9888905082
 21
31.7522584901
 12
359.2951405909
 22
31.7199940664
 13
359.2951405909
 23
31.7199940664
  0
SOLID
  8
0
 62
7
  6
CONTINUOUS
 10
359.2951405909
 20
31.7199940664
 11
359.9888905082
 21
31.7522584901
 12
359.6998280358
 22
31.6877314
 13
359.6998280358
 23
31.6877314
  0
SOLID
  8
0
 62
7
  6
CONTINUOUS
 10
359.9888905082
 20
31.7522584901
 11
360.1623280082
 21
31.6554670967
 12
359.6998280358
 22
31.6877314
 13
359.6998280358
 23
31.6877314
  0
SOLID
  8
0
 62
7
  6
CONTINUOUS
 10
359.8732656185
 20
31.6232043098
 11
359.6998280358
 21
31.6877314
 12
360.1623280082
 22
31.6554670967
 13
360.1623280082
 23
31.6554670967
  0
SOLID
  8
0
 62
7
  6
CONTINUOUS
 10
359.8732656185
 20
31.6232043098
 11
360.1623280082
 21
31.6554670967
 12
359.9310780634
 22
31.5264128539
 13
359.9310780634
 23
31.5264128539
  0
SOLID
  8
0
 62
7
  6
CONTINUOUS
 10
360.1623280082
 20
31.6554670967
 11
360.2201406185
 21
31.5264128539
 12
359.9310780634
 22
31.5264128539
 13
359.9310780634
 23
31.5264128539
  0
SOLID
  8
0
 62
7
  6
CONTINUOUS
 10
361.2607654531
 20
31.8167852459
 11
361.4920155634
 21
31.8490495492
 12
361.7232656736
 22
31.8490495492
 13
361.7232656736
 23
31.8490495492
  0
SOLID
  8
0
 62
7
  6
CONTINUOUS
 10
361.7232656736
 20
31.8490495492
 11
361.8967031736
 21
31.8167852459
 12
361.2607654531
 22
31.8167852459
 13
361.2607654531
 23
31.8167852459
  0
SOLID
  8
0
 62
7
  6
CONTINUOUS
 10
361.0873281185
 20
31.7522581557
 11
361.2607654531
 21
31.8167852459
 12
361.8967031736
 22
31.8167852459
 13
361.8967031736
 23
31.8167852459
  0
SOLID
  8
0
 62
7
  6
CONTINUOUS
 10
361.8967031736
 20
31.8167852459
 11
362.0701406736
 21
31.7522581557
 12
361.0873281185
 22
31.7522581557
 13
361.0873281185
 23
31.7522581557
  0
SOLID
  8
0
 62
7
  6
CONTINUOUS
 10
362.0701406736
 20
31.7522581557
 11
361.4920155634
 21
31.7199941869
 12
361.0873281185
 22
31.7522581557
 13
361.0873281185
 23
31.7522581557
  0
SOLID
  8
0
 62
7
  6
CONTINUOUS
 10
360.9717030634
 20
31.6877310656
 11
361.0873281185
 21
31.7522581557
 12
361.4920155634
 22
31.7199941869
 13
361.4920155634
 23
31.7199941869
  0
SOLID
  8
0
 62
7
  6
CONTINUOUS
 10
361.4920155634
 20
31.7199941869
 11
361.2607654531
 21
31.6877310656
 12
360.9717030634
 22
31.6877310656
 13
360.9717030634
 23
31.6877310656
  0
SOLID
  8
0
 62
7
  6
CONTINUOUS
 10
361.4920155634
 20
31.7199941869
 11
362.0701406736
 21
31.7522581557
 12
361.7232656736
 22
31.6877310656
 13
361.7232656736
 23
31.6877310656
  0
SOLID
  8
0
 62
7
  6
CONTINUOUS
 10
362.0701406736
 20
31.7522581557
 11
362.1857655634
 21
31.6877310656
 12
361.7232656736
 22
31.6877310656
 13
361.7232656736
 23
31.6877310656
  0
SOLID
  8
0
 62
7
  6
CONTINUOUS
 10
361.8388905634
 20
31.6554670967
 11
361.7232656736
 21
31.6877310656
 12
362.1857655634
 22
31.6877310656
 13
362.1857655634
 23
31.6877310656
  0
SOLID
  8
0
 62
7
  6
CONTINUOUS
 10
362.1857655634
 20
31.6877310656
 11
362.2435781736
 21
31.6232039754
 12
361.8388905634
 22
31.6554670967
 13
361.8388905634
 23
31.6554670967
  0
SOLID
  8
0
 62
7
  6
CONTINUOUS
 10
361.9545154531
 20
31.5909400065
 11
361.8388905634
 21
31.6554670967
 12
362.2435781736
 22
31.6232039754
 13
362.2435781736
 23
31.6232039754
  0
SOLID
  8
0
 62
7
  6
CONTINUOUS
 10
361.9545154531
 20
31.5909400065
 11
362.2435781736
 21
31.6232039754
 12
362.0123280634
 22
31.4618854918
 13
362.0123280634
 23
31.4618854918
  0
SOLID
  8
0
 62
7
  6
CONTINUOUS
 10
362.2435781736
 20
31.6232039754
 11
362.3013904531
 21
31.4618854918
 12
362.0123280634
 22
31.4618854918
 13
362.0123280634
 23
31.4618854918
  0
SOLID
  8
0
 62
7
  6
CONTINUOUS
 10
361.2607654531
 20
31.6877310656
 11
361.0873281185
 21
31.6232039754
 12
360.9717030634
 22
31.6877310656
 13
360.9717030634
 23
31.6877310656
  0
SOLID
  8
0
 62
7
  6
CONTINUOUS
 10
361.0873281185
 20
31.6232039754
 11
360.9717030634
 21
31.5586757033
 12
360.9717030634
 22
31.6877310656
 13
360.9717030634
 23
31.6877310656
  0
SOLID
  8
0
 62
7
  6
CONTINUOUS
 10
360.9717030634
 20
31.5586757033
 11
360.6826405082
 21
30.8166115574
 12
360.9717030634
 22
31.6877310656
 13
360.9717030634
 23
31.6877310656
  0
SOLID
  8
0
 62
7
  6
CONTINUOUS
 10
360.9717030634
 20
31.6877310656
 11
360.6826405082
 21
30.8166115574
 12
360.9717030634
 22
32.333005
 13
360.9717030634
 23
32.333005
  0
SOLID
  8
0
 62
7
  6
CONTINUOUS
 10
360.6826405082
 20
30.8166115574
 11
360.6826405082
 21
32.333005
 12
360.9717030634
 22
32.333005
 13
360.9717030634
 23
32.333005
  0
SOLID
  8
0
 62
7
  6
CONTINUOUS
 10
360.9717030634
 20
31.5586757033
 11
360.9717030634
 21
30.8166115574
 12
360.6826405082
 22
30.8166115574
 13
360.6826405082
 23
30.8166115574
  0
SOLID
  8
0
 62
7
  6
CONTINUOUS
 10
362.0123280634
 20
30.8166115574
 11
362.0123280634
 21
31.4618854918
 12
362.3013904531
 22
31.4618854918
 13
362.3013904531
 23
31.4618854918
  0
SOLID
  8
0
 62
7
  6
CONTINUOUS
 10
362.3013904531
 20
31.4618854918
 11
362.3013904531
 21
30.8166115574
 12
362.0123280634
 22
30.8166115574
 13
362.0123280634
 23
30.8166115574
  0
SOLID
  8
0
 62
7
  6
CONTINUOUS
 10
363.0529530634
 20
31.8167856315
 11
363.4576406736
 21
31.8490496243
 12
363.8045156736
 22
31.8490496243
 13
363.8045156736
 23
31.8490496243
  0
SOLID
  8
0
 62
7
  6
CONTINUOUS
 10
363.8045156736
 20
31.8490496243
 11
364.1513903428
 21
31.8167856315
 12
363.0529530634
 22
31.8167856315
 13
363.0529530634
 23
31.8167856315
  0
SOLID
  8
0
 62
7
  6
CONTINUOUS
 10
362.9373281736
 20
31.7845227934
 11
363.0529530634
 21
31.8167856315
 12
364.1513903428
 22
31.8167856315
 13
364.1513903428
 23
31.8167856315
  0
SOLID
  8
0
 62
7
  6
CONTINUOUS
 10
364.1513903428
 20
31.8167856315
 11
364.3248278428
 21
31.7522584901
 12
362.9373281736
 22
31.7845227934
 13
362.9373281736
 23
31.7845227934
  0
SOLID
  8
0
 62
7
  6
CONTINUOUS
 10
362.8217029531
 20
31.7199944276
 11
362.9373281736
 21
31.7845227934
 12
364.3248278428
 22
31.7522584901
 13
364.3248278428
 23
31.7522584901
  0
SOLID
  8
0
 62
7
  6
CONTINUOUS
 10
362.8217029531
 20
31.7199944276
 11
364.3248278428
 21
31.7522584901
 12
363.4576406736
 22
31.7199944276
 13
363.4576406736
 23
31.7199944276
  0
SOLID
  8
0
 62
7
  6
CONTINUOUS
 10
363.4576406736
 20
31.7199944276
 11
364.3248278428
 21
31.7522584901
 12
363.8045156736
 22
31.7199944276
 13
363.8045156736
 23
31.7199944276
  0
SOLID
  8
0
 62
7
  6
CONTINUOUS
 10
363.8045156736
 20
31.7199944276
 11
364.3248278428
 21
31.7522584901
 12
364.0357657839
 22
31.6877312092
 13
364.0357657839
 23
31.6877312092
  0
SOLID
  8
0
 62
7
  6
CONTINUOUS
 10
364.3248278428
 20
31.7522584901
 11
364.4404530634
 21
31.6877312092
 12
364.0357657839
 22
31.6877312092
 13
364.0357657839
 23
31.6877312092
  0
SOLID
  8
0
 62
7
  6
CONTINUOUS
 10
362.7638906736
 20
31.6554672165
 11
362.8217029531
 21
31.7199944276
 12
363.4576406736
 22
31.7199944276
 13
363.4576406736
 23
31.7199944276
  0
SOLID
  8
0
 62
7
  6
CONTINUOUS
 10
364.1513903428
 20
31.6554672165
 11
364.0357657839
 21
31.6877312092
 12
364.4404530634
 22
31.6877312092
 13
364.4404530634
 23
31.6877312092
  0
SOLID
  8
0
 62
7
  6
CONTINUOUS
 10
364.1513903428
 20
31.6554672165
 11
364.4404530634
 21
31.6877312092
 12
364.2092032839
 22
31.5909400053
 13
364.2092032839
 23
31.5909400053
  0
SOLID
  8
0
 62
7
  6
CONTINUOUS
 10
364.4404530634
 20
31.6877312092
 11
364.4982653428
 21
31.5909400053
 12
364.2092032839
 22
31.5909400053
 13
364.2092032839
 23
31.5909400053
  0
SOLID
  8
0
 62
7
  6
CONTINUOUS
 10
364.2092032839
 20
31.4941486131
 11
364.2092032839
 21
31.5909400053
 12
364.4982653428
 22
31.5909400053
 13
364.4982653428
 23
31.5909400053
  0
SOLID
  8
0
 62
7
  6
CONTINUOUS
 10
364.2092032839
 20
31.4941486131
 11
364.4982653428
 21
31.5909400053
 12
364.2092032839
 22
31.3650944328
 13
364.2092032839
 23
31.3650944328
  0
SOLID
  8
0
 62
7
  6
CONTINUOUS
 10
364.2092032839
 20
31.3650944328
 11
364.4982653428
 21
31.5909400053
 12
364.2092032839
 22
31.1715120759
 13
364.2092032839
 23
31.1715120759
  0
SOLID
  8
0
 62
7
  6
CONTINUOUS
 10
364.4982653428
 20
31.5909400053
 11
364.4982653428
 21
31.0747202524
 12
364.2092032839
 22
31.1715120759
 13
364.2092032839
 23
31.1715120759
  0
SOLID
  8
0
 62
7
  6
CONTINUOUS
 10
366.4060778428
 20
31.8167851023
 11
366.6373282839
 21
31.849049822
 12
366.8685780634
 22
31.849049822
 13
366.8685780634
 23
31.849049822
  0
SOLID
  8
0
 62
7
  6
CONTINUOUS
 10
366.8685780634
 20
31.849049822
 11
367.0420155634
 21
31.8167851023
 12
366.4060778428
 22
31.8167851023
 13
366.4060778428
 23
31.8167851023
  0
SOLID
  8
0
 62
7
  6
CONTINUOUS
 10
366.2326403428
 20
31.7522587602
 11
366.4060778428
 21
31.8167851023
 12
367.0420155634
 22
31.8167851023
 13
367.0420155634
 23
31.8167851023
  0
SOLID
  8
0
 62
7
  6
CONTINUOUS
 10
367.0420155634
 20
31.8167851023
 11
367.2154530634
 21
31.7522587602
 12
366.2326403428
 22
31.7522587602
 13
366.2326403428
 23
31.7522587602
  0
SOLID
  8
0
 62
7
  6
CONTINUOUS
 10
367.2154530634
 20
31.7522587602
 11
366.6373282839
 21
31.7199941869
 12
366.2326403428
 22
31.7522587602
 13
366.2326403428
 23
31.7522587602
  0
SOLID
  8
0
 62
7
  6
CONTINUOUS
 10
366.1170157839
 20
31.6877313857
 11
366.2326403428
 21
31.7522587602
 12
366.6373282839
 22
31.7199941869
 13
366.6373282839
 23
31.7199941869
  0
SOLID
  8
0
 62
7
  6
CONTINUOUS
 10
366.6373282839
 20
31.7199941869
 11
366.4060778428
 21
31.6877313857
 12
366.1170157839
 22
31.6877313857
 13
366.1170157839
 23
31.6877313857
  0
SOLID
  8
0
 62
7
  6
CONTINUOUS
 10
366.6373282839
 20
31.7199941869
 11
367.2154530634
 21
31.7522587602
 12
366.8685780634
 22
31.6877313857
 13
366.8685780634
 23
31.6877313857
  0
SOLID
  8
0
 62
7
  6
CONTINUOUS
 10
367.2154530634
 20
31.7522587602
 11
367.3310782839
 21
31.6877313857
 12
366.8685780634
 22
31.6877313857
 13
366.8685780634
 23
31.6877313857
  0
SOLID
  8
0
 62
7
  6
CONTINUOUS
 10
366.9842032839
 20
31.6554670967
 11
366.8685780634
 21
31.6877313857
 12
367.3310782839
 22
31.6877313857
 13
367.3310782839
 23
31.6877313857
  0
SOLID
  8
0
 62
7
  6
CONTINUOUS
 10
366.9842032839
 20
31.6554670967
 11
367.3310782839
 21
31.6877313857
 12
367.0998278428
 22
31.590940324
 13
367.0998278428
 23
31.590940324
  0
SOLID
  8
0
 62
7
  6
CONTINUOUS
 10
367.3310782839
 20
31.6877313857
 11
367.3888905634
 21
31.590940324
 12
367.0998278428
 22
31.590940324
 13
367.0998278428
 23
31.590940324
  0
SOLID
  8
0
 62
7
  6
CONTINUOUS
 10
367.1576407839
 20
31.4296218878
 11
367.0998278428
 21
31.590940324
 12
367.3888905634
 22
31.590940324
 13
367.3888905634
 23
31.590940324
  0
SOLID
  8
0
 62
7
  6
CONTINUOUS
 10
367.3888905634
 20
31.590940324
 11
367.4467028428
 21
31.4296218878
 12
367.1576407839
 22
31.4296218878
 13
367.1576407839
 23
31.4296218878
  0
SOLID
  8
0
 62
7
  6
CONTINUOUS
 10
366.4060778428
 20
31.6877313857
 11
366.2326403428
 21
31.6232043098
 12
366.1170157839
 22
31.6877313857
 13
366.1170157839
 23
31.6877313857
  0
SOLID
  8
0
 62
7
  6
CONTINUOUS
 10
366.2326403428
 20
31.6232043098
 11
366.1170157839
 21
31.5586757033
 12
366.1170157839
 22
31.6877313857
 13
366.1170157839
 23
31.6877313857
  0
SOLID
  8
0
 62
7
  6
CONTINUOUS
 10
366.1170157839
 20
31.5586757033
 11
365.8279530634
 21
30.8166118302
 12
366.1170157839
 22
31.6877313857
 13
366.1170157839
 23
31.6877313857
  0
SOLID
  8
0
 62
7
  6
CONTINUOUS
 10
366.1170157839
 20
31.6877313857
 11
365.8279530634
 21
30.8166118302
 12
366.1170157839
 22
31.849049822
 13
366.1170157839
 23
31.849049822
  0
SOLID
  8
0
 62
7
  6
CONTINUOUS
 10
365.8279530634
 20
30.8166118302
 11
365.8279530634
 21
31.849049822
 12
366.1170157839
 22
31.849049822
 13
366.1170157839
 23
31.849049822
  0
SOLID
  8
0
 62
7
  6
CONTINUOUS
 10
366.1170157839
 20
31.5586757033
 11
366.1170157839
 21
30.8166118302
 12
365.8279530634
 22
30.8166118302
 13
365.8279530634
 23
30.8166118302
  0
SOLID
  8
0
 62
7
  6
CONTINUOUS
 10
367.1576407839
 20
30.8166118302
 11
367.1576407839
 21
31.4296218878
 12
367.4467028428
 22
31.4296218878
 13
367.4467028428
 23
31.4296218878
  0
SOLID
  8
0
 62
7
  6
CONTINUOUS
 10
367.4467028428
 20
31.4296218878
 11
367.4467028428
 21
30.8166118302
 12
367.1576407839
 22
30.8166118302
 13
367.1576407839
 23
30.8166118302
  0
SOLID
  8
0
 62
7
  6
CONTINUOUS
 10
368.2560780634
 20
31.8167856056
 11
368.6029530634
 21
31.8490498552
 12
368.9498280634
 22
31.8490498552
 13
368.9498280634
 23
31.8490498552
  0
SOLID
  8
0
 62
7
  6
CONTINUOUS
 10
368.9498280634
 20
31.8490498552
 11
369.2967030634
 21
31.8167856056
 12
368.2560780634
 22
31.8167856056
 13
368.2560780634
 23
31.8167856056
  0
SOLID
  8
0
 62
7
  6
CONTINUOUS
 10
368.0248282839
 20
31.7522584901
 11
368.2560780634
 21
31.8167856056
 12
369.2967030634
 22
31.8167856056
 13
369.2967030634
 23
31.8167856056
  0
SOLID
  8
0
 62
7
  6
CONTINUOUS
 10
368.0248282839
 20
31.7522584901
 11
369.2967030634
 21
31.8167855803
 12
369.4701405634
 22
31.7845227934
 13
369.4701405634
 23
31.7845227934
  0
SOLID
  8
0
 62
7
  6
CONTINUOUS
 10
368.0248282839
 20
31.7522584901
 11
369.4701405634
 21
31.7845227934
 12
368.6029530634
 22
31.7199941235
 13
368.6029530634
 23
31.7199941235
  0
SOLID
  8
0
 62
7
  6
CONTINUOUS
 10
368.6029530634
 20
31.7199941235
 11
369.4701405634
 21
31.7845227934
 12
368.9498280634
 22
31.7199941235
 13
368.9498280634
 23
31.7199941235
  0
SOLID
  8
0
 62
7
  6
CONTINUOUS
 10
369.4701405634
 20
31.7845227934
 11
369.6435780634
 21
31.7199941235
 12
368.9498280634
 22
31.7199941235
 13
368.9498280634
 23
31.7199941235
  0
SOLID
  8
0
 62
7
  6
CONTINUOUS
 10
369.2967030634
 20
31.6877314
 11
368.9498280634
 21
31.7199941235
 12
369.6435780634
 22
31.7199941235
 13
369.6435780634
 23
31.7199941235
  0
SOLID
  8
0
 62
7
  6
CONTINUOUS
 10
367.9092030634
 20
31.6554671071
 11
368.0248282839
 21
31.7522584901
 12
368.6029530634
 22
31.7199941235
 13
368.6029530634
 23
31.7199941235
  0
SOLID
  8
0
 62
7
  6
CONTINUOUS
 10
369.2967030634
 20
31.6877314
 11
369.6435780634
 21
31.7199941235
 12
369.4123282839
 22
31.6554671071
 13
369.4123282839
 23
31.6554671071
  0
SOLID
  8
0
 62
7
  6
CONTINUOUS
 10
369.4123282839
 20
31.6554671071
 11
369.6435780634
 21
31.7199941235
 12
369.4701405634
 22
31.5909400907
 13
369.4701405634
 23
31.5909400907
  0
SOLID
  8
0
 62
7
  6
CONTINUOUS
 10
369.6435780634
 20
31.7199941235
 11
369.7592026223
 21
31.5909400907
 12
369.4701405634
 22
31.5909400907
 13
369.4701405634
 23
31.5909400907
  0
SOLID
  8
0
 62
7
  6
CONTINUOUS
 10
359.0638905634
 20
31.6877314
 11
358.5435780634
 21
31.6554670789
 12
359.2951405909
 22
31.7199941045
 13
359.2951405909
 23
31.7199941045
  0
SOLID
  8
0
 62
7
  6
CONTINUOUS
 10
358.5435780634
 20
31.6554670789
 11
358.6592030565
 21
31.7199941045
 12
359.2951405909
 22
31.7199941045
 13
359.2951405909
 23
31.7199941045
  0
SOLID
  8
0
 62
7
  6
CONTINUOUS
 10
359.0638905634
 20
31.6877314
 11
358.9482655496
 21
31.6554670789
 12
358.5435780634
 22
31.6554670789
 13
358.5435780634
 23
31.6554670789
  0
SOLID
  8
0
 62
7
  6
CONTINUOUS
 10
358.4279530651
 20
31.5264129164
 11
358.5435780634
 21
31.6554670789
 12
358.9482655496
 22
31.6554670789
 13
358.9482655496
 23
31.6554670789
  0
SOLID
  8
0
 62
7
  6
CONTINUOUS
 10
362.7638906736
 20
31.6554670789
 11
363.4576406736
 21
31.7199941869
 12
363.2263905634
 22
31.6877314
 13
363.2263905634
 23
31.6877314
  0
SOLID
  8
0
 62
7
  6
CONTINUOUS
 10
363.2263905634
 20
31.6877314
 11
363.1107656736
 21
31.6554670789
 12
362.7638906736
 22
31.6554670789
 13
362.7638906736
 23
31.6554670789
  0
SOLID
  8
0
 62
7
  6
CONTINUOUS
 10
362.7638906736
 20
31.5909399887
 11
362.7638906736
 21
31.6554670789
 12
363.1107656736
 22
31.6554670789
 13
363.1107656736
 23
31.6554670789
  0
SOLID
  8
0
 62
7
  6
CONTINUOUS
 10
363.1107656736
 20
31.6554670789
 11
363.0529530634
 21
31.5909399887
 12
362.7638906736
 22
31.5909399887
 13
362.7638906736
 23
31.5909399887
  0
SOLID
  8
0
 62
7
  6
CONTINUOUS
 10
367.9092030634
 20
31.6554670789
 11
368.6029530634
 21
31.7199941869
 12
368.3717032839
 22
31.6877314
 13
368.3717032839
 23
31.6877314
  0
SOLID
  8
0
 62
7
  6
CONTINUOUS
 10
368.3717032839
 20
31.6877314
 11
368.2560780634
 21
31.6554670789
 12
367.9092030634
 22
31.6554670789
 13
367.9092030634
 23
31.6554670789
  0
SOLID
  8
0
 62
7
  6
CONTINUOUS
 10
367.9092030634
 20
31.5909399887
 11
367.9092030634
 21
31.6554670789
 12
368.2560780634
 22
31.6554670789
 13
368.2560780634
 23
31.6554670789
  0
SOLID
  8
0
 62
7
  6
CONTINUOUS
 10
368.2560780634
 20
31.6554670789
 11
368.1982657839
 21
31.5909399887
 12
367.9092030634
 22
31.5909399887
 13
367.9092030634
 23
31.5909399887
  0
SOLID
  8
0
 62
7
  6
CONTINUOUS
 10
368.0248282839
 20
31.4618858262
 11
367.9092030634
 21
31.5909399887
 12
368.1982657839
 22
31.5909399887
 13
368.1982657839
 23
31.5909399887
  0
SOLID
  8
0
 62
7
  6
CONTINUOUS
 10
358.4279530651
 20
31.5264129164
 11
358.9482655496
 21
31.6554670967
 12
358.7748280496
 22
31.5586757033
 13
358.7748280496
 23
31.5586757033
  0
SOLID
  8
0
 62
7
  6
CONTINUOUS
 10
358.7748280496
 20
31.5586757033
 11
358.7170155634
 21
31.4941486131
 12
358.4279530651
 22
31.5264129164
 13
358.4279530651
 23
31.5264129164
  0
SOLID
  8
0
 62
7
  6
CONTINUOUS
 10
358.3701405634
 20
31.3328301295
 11
358.4279530651
 21
31.5264129164
 12
358.7170155634
 22
31.4941486131
 13
358.7170155634
 23
31.4941486131
  0
SOLID
  8
0
 62
7
  6
CONTINUOUS
 10
363.2263905634
 20
31.4618858262
 11
363.5732655634
 21
31.4941485791
 12
364.2092032839
 22
31.4941485791
 13
364.2092032839
 23
31.4941485791
  0
SOLID
  8
0
 62
7
  6
CONTINUOUS
 10
363.2263905634
 20
31.4618858262
 11
364.2092032839
 21
31.4941485791
 12
362.9951404531
 22
31.397357926
 13
362.9951404531
 23
31.397357926
  0
SOLID
  8
0
 62
7
  6
CONTINUOUS
 10
362.9951404531
 20
31.397357926
 11
364.2092032839
 21
31.4941485791
 12
363.5732655634
 22
31.3650943988
 13
363.5732655634
 23
31.3650943988
  0
SOLID
  8
0
 62
7
  6
CONTINUOUS
 10
364.2092032839
 20
31.4941485791
 11
364.2092032839
 21
31.3650943988
 12
363.5732655634
 22
31.3650943988
 13
363.5732655634
 23
31.3650943988
  0
SOLID
  8
0
 62
7
  6
CONTINUOUS
 10
368.0248282839
 20
31.4618859165
 11
368.1982657839
 21
31.5909400065
 12
368.2560780634
 22
31.5264129164
 13
368.2560780634
 23
31.5264129164
  0
SOLID
  8
0
 62
7
  6
CONTINUOUS
 10
368.2560780634
 20
31.5264129164
 11
368.4295155634
 21
31.4618859165
 12
368.0248282839
 22
31.4618859165
 13
368.0248282839
 23
31.4618859165
  0
SOLID
  8
0
 62
7
  6
CONTINUOUS
 10
368.2560780634
 20
31.3650944328
 11
368.0248282839
 21
31.4618859165
 12
368.4295155634
 22
31.4618859165
 13
368.4295155634
 23
31.4618859165
  0
SOLID
  8
0
 62
7
  6
CONTINUOUS
 10
368.4295155634
 20
31.4618859165
 11
369.4123282839
 21
31.3005673426
 12
368.2560780634
 22
31.3650944328
 13
368.2560780634
 23
31.3650944328
  0
SOLID
  8
0
 62
7
  6
CONTINUOUS
 10
369.2388907839
 20
31.2037760287
 11
368.2560780634
 21
31.3650944328
 12
369.4123282839
 22
31.3005673426
 13
369.4123282839
 23
31.3005673426
  0
SOLID
  8
0
 62
7
  6
CONTINUOUS
 10
369.4123282839
 20
31.3005673426
 11
369.6435780634
 21
31.2037760287
 12
369.2388907839
 22
31.2037760287
 13
369.2388907839
 23
31.2037760287
  0
SOLID
  8
0
 62
7
  6
CONTINUOUS
 10
369.4123282839
 20
31.139248859
 11
369.2388907839
 21
31.2037760287
 12
369.6435780634
 22
31.2037760287
 13
369.6435780634
 23
31.2037760287
  0
SOLID
  8
0
 62
7
  6
CONTINUOUS
 10
369.4123282839
 20
31.139248859
 11
369.6435780634
 21
31.2037760287
 12
369.4701405634
 22
31.0747203105
 13
369.4701405634
 23
31.0747203105
  0
SOLID
  8
0
 62
7
  6
CONTINUOUS
 10
369.6435780634
 20
31.2037760287
 11
369.7592026223
 21
31.0747203105
 12
369.4701405634
 22
31.0747203105
 13
369.4701405634
 23
31.0747203105
  0
SOLID
  8
0
 62
7
  6
CONTINUOUS
 10
369.4123282839
 20
31.0101932257
 11
369.4701405634
 21
31.0747203105
 12
369.7592026223
 22
31.0747203105
 13
369.7592026223
 23
31.0747203105
  0
SOLID
  8
0
 62
7
  6
CONTINUOUS
 10
369.7592026223
 20
31.0747203105
 11
369.7592026223
 21
31.0101932257
 12
369.4123282839
 22
31.0101932257
 13
369.4123282839
 23
31.0101932257
  0
SOLID
  8
0
 62
7
  6
CONTINUOUS
 10
369.2967030634
 20
30.9779303754
 11
369.4123282839
 21
31.0101932257
 12
369.7592026223
 22
31.0101932257
 13
369.7592026223
 23
31.0101932257
  0
SOLID
  8
0
 62
7
  6
CONTINUOUS
 10
369.2967030634
 20
30.9779303754
 11
369.7592026223
 21
31.0101932257
 12
369.0654532839
 22
30.9456661409
 13
369.0654532839
 23
30.9456661409
  0
SOLID
  8
0
 62
7
  6
CONTINUOUS
 10
369.7592026223
 20
31.0101932257
 11
369.6435780634
 21
30.9134032852
 12
369.0654532839
 22
30.9456661409
 13
369.0654532839
 23
30.9456661409
  0
SOLID
  8
0
 62
7
  6
CONTINUOUS
 10
369.6435780634
 20
30.9134032852
 11
368.1982657839
 21
30.8811389819
 12
369.0654532839
 22
30.9456661409
 13
369.0654532839
 23
30.9456661409
  0
SOLID
  8
0
 62
7
  6
CONTINUOUS
 10
369.0654532839
 20
30.9456661409
 11
368.1982657839
 21
30.8811389819
 12
368.7185782839
 22
30.9456661409
 13
368.7185782839
 23
30.9456661409
  0
SOLID
  8
0
 62
7
  6
CONTINUOUS
 10
368.1982657839
 20
30.8811389819
 11
368.0248282839
 21
30.9456661409
 12
368.7185782839
 22
30.9456661409
 13
368.7185782839
 23
30.9456661409
  0
SOLID
  8
0
 62
7
  6
CONTINUOUS
 10
368.1982657839
 20
30.8811389819
 11
369.6435780634
 21
30.9134032852
 12
368.3717032839
 22
30.8488743522
 13
368.3717032839
 23
30.8488743522
  0
SOLID
  8
0
 62
7
  6
CONTINUOUS
 10
369.6435780634
 20
30.9134032852
 11
369.4123282839
 21
30.8488743522
 12
368.3717032839
 22
30.8488743522
 13
368.3717032839
 23
30.8488743522
  0
SOLID
  8
0
 62
7
  6
CONTINUOUS
 10
368.7185782839
 20
30.8166119713
 11
368.3717032839
 21
30.8488743522
 12
369.4123282839
 22
30.8488743522
 13
369.4123282839
 23
30.8488743522
  0
SOLID
  8
0
 62
7
  6
CONTINUOUS
 10
369.4123282839
 20
30.8488743522
 11
369.0654532839
 21
30.8166119713
 12
368.7185782839
 22
30.8166119713
 13
368.7185782839
 23
30.8166119713
  0
SOLID
  8
0
 62
7
  6
CONTINUOUS
 10
358.3701405634
 20
31.3328301295
 11
358.7170155634
 21
31.4941486131
 12
358.6592030565
 22
31.3650944328
 13
358.6592030565
 23
31.3650944328
  0
SOLID
  8
0
 62
7
  6
CONTINUOUS
 10
358.6592030565
 20
31.3650944328
 11
358.6592030565
 21
31.2683031351
 12
358.3701405634
 22
31.3328301295
 13
358.3701405634
 23
31.3328301295
  0
SOLID
  8
0
 62
7
  6
CONTINUOUS
 10
358.4279530651
 20
31.139248859
 11
358.3701405634
 21
31.3328301295
 12
358.6592030565
 22
31.2683031351
 13
358.6592030565
 23
31.2683031351
  0
SOLID
  8
0
 62
7
  6
CONTINUOUS
 10
358.6592030565
 20
31.2683031351
 11
358.7748280496
 21
31.1069845557
 12
358.4279530651
 22
31.139248859
 13
358.4279530651
 23
31.139248859
  0
SOLID
  8
0
 62
7
  6
CONTINUOUS
 10
358.5435780634
 20
31.0101931569
 11
358.4279530651
 21
31.139248859
 12
358.7748280496
 22
31.1069845557
 13
358.7748280496
 23
31.1069845557
  0
SOLID
  8
0
 62
7
  6
CONTINUOUS
 10
358.7748280496
 20
31.1069845557
 11
358.9482655496
 21
31.0101931569
 12
358.5435780634
 22
31.0101931569
 13
358.5435780634
 23
31.0101931569
  0
SOLID
  8
0
 62
7
  6
CONTINUOUS
 10
358.6592030565
 20
30.9456659241
 11
358.5435780634
 21
31.0101931569
 12
358.9482655496
 22
31.0101931569
 13
358.9482655496
 23
31.0101931569
  0
SOLID
  8
0
 62
7
  6
CONTINUOUS
 10
358.9482655496
 20
31.0101931569
 11
359.2951405909
 21
30.9456659241
 12
358.6592030565
 22
30.9456659241
 13
358.6592030565
 23
30.9456659241
  0
SOLID
  8
0
 62
7
  6
CONTINUOUS
 10
358.8326405772
 20
30.8811389819
 11
358.6592030565
 21
30.9456659241
 12
359.2951405909
 22
30.9456659241
 13
359.2951405909
 23
30.9456659241
  0
SOLID
  8
0
 62
7
  6
CONTINUOUS
 10
362.8795155634
 20
31.3328301325
 11
362.9951404531
 21
31.397357926
 12
363.5732655634
 22
31.3650944328
 13
363.5732655634
 23
31.3650944328
  0
SOLID
  8
0
 62
7
  6
CONTINUOUS
 10
363.5732655634
 20
31.3650944328
 11
363.3420154531
 21
31.3328301325
 12
362.8795155634
 22
31.3328301325
 13
362.8795155634
 23
31.3328301325
  0
SOLID
  8
0
 62
7
  6
CONTINUOUS
 10
362.7638906736
 20
31.2037759492
 11
362.8795155634
 21
31.3328301325
 12
363.3420154531
 22
31.3328301325
 13
363.3420154531
 23
31.3328301325
  0
SOLID
  8
0
 62
7
  6
CONTINUOUS
 10
363.1107656736
 20
31.2360394487
 11
362.7638906736
 21
31.2037759492
 12
363.2263905634
 22
31.3005673426
 13
363.2263905634
 23
31.3005673426
  0
SOLID
  8
0
 62
7
  6
CONTINUOUS
 10
362.7638906736
 20
31.2037759492
 11
363.3420154531
 21
31.3328301295
 12
363.2263905634
 22
31.3005673426
 13
363.2263905634
 23
31.3005673426
  0
SOLID
  8
0
 62
7
  6
CONTINUOUS
 10
363.1107656736
 20
31.2360394487
 11
363.0529530634
 21
31.139248859
 12
362.7638906736
 22
31.2037759492
 13
362.7638906736
 23
31.2037759492
  0
SOLID
  8
0
 62
7
  6
CONTINUOUS
 10
362.7638906736
 20
31.1069845557
 11
362.7638906736
 21
31.2037759492
 12
363.0529530634
 22
31.139248859
 13
363.0529530634
 23
31.139248859
  0
SOLID
  8
0
 62
7
  6
CONTINUOUS
 10
363.0529530634
 20
31.139248859
 11
363.0529530634
 21
31.0747202524
 12
362.7638906736
 22
31.1069845557
 13
362.7638906736
 23
31.1069845557
  0
SOLID
  8
0
 62
7
  6
CONTINUOUS
 10
362.8217029531
 20
30.9779303754
 11
362.7638906736
 21
31.1069845557
 12
363.0529530634
 22
31.0747202524
 13
363.0529530634
 23
31.0747202524
  0
SOLID
  8
0
 62
7
  6
CONTINUOUS
 10
364.2092032839
 20
31.1715120759
 11
364.4982653428
 21
31.0747202524
 12
364.1513903428
 22
31.1069845557
 13
364.1513903428
 23
31.1069845557
  0
SOLID
  8
0
 62
7
  6
CONTINUOUS
 10
363.9779528428
 20
31.0101931623
 11
364.1513903428
 21
31.1069845557
 12
364.4982653428
 22
31.0747202524
 13
364.4982653428
 23
31.0747202524
  0
SOLID
  8
0
 62
7
  6
CONTINUOUS
 10
363.9779528428
 20
31.0101931623
 11
364.4982653428
 21
31.0747202524
 12
364.2092032839
 22
30.9779303754
 13
364.2092032839
 23
30.9779303754
  0
SOLID
  8
0
 62
7
  6
CONTINUOUS
 10
364.4982653428
 20
31.0747202524
 11
364.5560782839
 21
30.9134032852
 12
364.2092032839
 22
30.9779303754
 13
364.2092032839
 23
30.9779303754
  0
SOLID
  8
0
 62
7
  6
CONTINUOUS
 10
364.2670155634
 20
30.8811389819
 11
364.2092032839
 21
30.9779303754
 12
364.5560782839
 22
30.9134032852
 13
364.5560782839
 23
30.9134032852
  0
SOLID
  8
0
 62
7
  6
CONTINUOUS
 10
364.2670155634
 20
30.8811389819
 11
364.5560782839
 21
30.9134032852
 12
364.3248278428
 22
30.816611867
 13
364.3248278428
 23
30.816611867
  0
SOLID
  8
0
 62
7
  6
CONTINUOUS
 10
364.5560782839
 20
30.9134032852
 11
364.6138905634
 21
30.816611867
 12
364.3248278428
 22
30.816611867
 13
364.3248278428
 23
30.816611867
  0
SOLID
  8
0
 62
7
  6
CONTINUOUS
 10
359.8732656185
 20
31.0424573076
 11
359.9310780634
 21
31.1392488159
 12
360.2201406185
 22
31.1392488159
 13
360.2201406185
 23
31.1392488159
  0
SOLID
  8
0
 62
7
  6
CONTINUOUS
 10
360.2201406185
 20
31.1392488159
 11
360.1623280082
 21
31.0101931623
 12
359.8732656185
 22
31.0424573076
 13
359.8732656185
 23
31.0424573076
  0
SOLID
  8
0
 62
7
  6
CONTINUOUS
 10
359.6998280358
 20
30.9779303754
 11
359.8732656185
 21
31.0424573076
 12
360.1623280082
 22
31.0101931623
 13
360.1623280082
 23
31.0101931623
  0
SOLID
  8
0
 62
7
  6
CONTINUOUS
 10
359.6998280358
 20
30.9779303754
 11
360.1623280082
 21
31.0101931623
 12
359.2951405909
 22
30.9456660721
 13
359.2951405909
 23
30.9456660721
  0
SOLID
  8
0
 62
7
  6
CONTINUOUS
 10
360.1623280082
 20
31.0101931623
 11
359.9888905082
 21
30.9134032852
 12
359.2951405909
 22
30.9456660721
 13
359.2951405909
 23
30.9456660721
  0
SOLID
  8
0
 62
7
  6
CONTINUOUS
 10
358.8326405772
 20
30.8811389819
 11
359.2951405909
 21
30.9456660721
 12
359.9888905082
 22
30.9134032852
 13
359.9888905082
 23
30.9134032852
  0
SOLID
  8
0
 62
7
  6
CONTINUOUS
 10
358.8326405772
 20
30.8811389819
 11
359.9888905082
 21
30.9134032852
 12
359.0060780772
 22
30.8488745775
 13
359.0060780772
 23
30.8488745775
  0
SOLID
  8
0
 62
7
  6
CONTINUOUS
 10
359.9888905082
 20
30.9134032852
 11
359.7576405634
 21
30.8488745775
 12
359.0060780772
 22
30.8488745775
 13
359.0060780772
 23
30.8488745775
  0
SOLID
  8
0
 62
7
  6
CONTINUOUS
 10
359.3529530358
 20
30.8166118918
 11
359.0060780772
 21
30.8488745775
 12
359.7576405634
 22
30.8488745775
 13
359.7576405634
 23
30.8488745775
  0
SOLID
  8
0
 62
7
  6
CONTINUOUS
 10
362.8217029531
 20
30.9779303754
 11
363.0529530634
 21
31.0747202524
 12
363.1107656736
 22
31.0101931623
 13
363.1107656736
 23
31.0101931623
  0
SOLID
  8
0
 62
7
  6
CONTINUOUS
 10
363.1107656736
 20
31.0101931623
 11
363.3420154531
 21
30.9456660721
 12
362.8217029531
 22
30.9779303754
 13
362.8217029531
 23
30.9779303754
  0
SOLID
  8
0
 62
7
  6
CONTINUOUS
 10
362.9951404531
 20
30.8811389819
 11
362.8217029531
 21
30.9779303754
 12
363.3420154531
 22
30.9456660721
 13
363.3420154531
 23
30.9456660721
  0
SOLID
  8
0
 62
7
  6
CONTINUOUS
 10
363.6888904531
 20
30.9456661188
 11
363.9779528428
 21
31.0101931623
 12
364.2092032839
 22
30.9779303754
 13
364.2092032839
 23
30.9779303754
  0
SOLID
  8
0
 62
7
  6
CONTINUOUS
 10
364.2092032839
 20
30.9779303754
 11
364.1513903428
 21
30.9134032852
 12
363.6888904531
 22
30.9456661188
 13
363.6888904531
 23
30.9456661188
  0
SOLID
  8
0
 62
7
  6
CONTINUOUS
 10
364.1513903428
 20
30.9134032852
 11
362.9951404531
 21
30.8811389819
 12
363.6888904531
 22
30.9456661188
 13
363.6888904531
 23
30.9456661188
  0
SOLID
  8
0
 62
7
  6
CONTINUOUS
 10
362.9951404531
 20
30.8811389819
 11
363.3420154531
 21
30.9456661188
 12
363.6888904531
 22
30.9456661188
 13
363.6888904531
 23
30.9456661188
  0
SOLID
  8
0
 62
7
  6
CONTINUOUS
 10
362.9951404531
 20
30.8811389819
 11
364.1513903428
 21
30.9134032852
 12
363.1107656736
 22
30.8488747093
 13
363.1107656736
 23
30.8488747093
  0
SOLID
  8
0
 62
7
  6
CONTINUOUS
 10
364.1513903428
 20
30.9134032852
 11
363.9779528428
 21
30.8488747093
 12
363.1107656736
 22
30.8488747093
 13
363.1107656736
 23
30.8488747093
  0
SOLID
  8
0
 62
7
  6
CONTINUOUS
 10
363.3420154531
 20
30.816611874
 11
363.1107656736
 21
30.8488747093
 12
363.9779528428
 22
30.8488747093
 13
363.9779528428
 23
30.8488747093
  0
SOLID
  8
0
 62
7
  6
CONTINUOUS
 10
363.9779528428
 20
30.8488747093
 11
363.6888904531
 21
30.816611874
 12
363.3420154531
 22
30.816611874
 13
363.3420154531
 23
30.816611874
  0
SOLID
  8
0
 62
7
  6
CONTINUOUS
 10
368.3717032839
 20
30.9779303754
 11
368.0248282839
 21
30.9456661188
 12
368.2560780634
 22
31.0101931623
 13
368.2560780634
 23
31.0101931623
  0
SOLID
  8
0
 62
7
  6
CONTINUOUS
 10
368.2560780634
 20
31.0101931623
 11
368.0248282839
 21
30.9456661188
 12
368.1982657839
 22
31.0747202992
 13
368.1982657839
 23
31.0747202992
  0
SOLID
  8
0
 62
7
  6
CONTINUOUS
 10
368.0248282839
 20
30.9456661188
 11
367.9092030634
 21
31.0747202992
 12
368.1982657839
 22
31.0747202992
 13
368.1982657839
 23
31.0747202992
  0
SOLID
  8
0
 62
7
  6
CONTINUOUS
 10
368.3717032839
 20
30.9779303754
 11
368.7185782839
 21
30.9456661188
 12
368.0248282839
 22
30.9456661188
 13
368.0248282839
 23
30.9456661188
  0
SOLID
  8
0
 62
7
  6
CONTINUOUS
 10
365.0763907839
 20
30.8166118918
 11
365.0763907839
 21
31.8490498836
 12
365.3654528428
 22
30.8166118918
 13
365.3654528428
 23
31.8490498836
  0
ENDBLK
  8
0
  6
BYBLOCK
 62
0
  0
BLOCK
  8
0
 62
2
  6
CONTINUOUS
  2
SYMBOL_0_BL0
 70
64
 10
241.0459637928
 20
19.6790146053
  0
TEXT
  8
0
 62
7
  6
CONTINUOUS
 10
227.3106676351
 20
19.0524287129
  7
TEXTSTYLE_3
 40
2.7338706658
  1
Ammeraal Beltech
 41
1.0
 51
15.0
 72
0
  0
TEXT
  8
0
 62
7
  6
CONTINUOUS
 10
238.1114684608
 20
16.7788920401
  7
TEXTSTYLE_4
 40
1.0935482663
  1
Innovation & Service in Belting
 41
1.0
 72
0
  0
LINE
  8
0
 62
7
  6
CONTINUOUS
 10
221.2861269837
 20
19.8190220215
 11
222.0642789771
 21
23.4799393191
  0
LINE
  8
0
 62
7
  6
CONTINUOUS
 10
232.1594472669
 20
27.1433332308
 11
222.5520967201
 21
24.0217158095
  0
LINE
  8
0
 62
7
  6
CONTINUOUS
 10
221.511410316
 20
19.1256712184
 11
229.0184855772
 21
12.3662702925
  0
LINE
  8
0
 62
7
  6
CONTINUOUS
 10
221.7739447268
 20
20.3607985118
 11
232.5822140919
 21
23.8726181108
  0
LINE
  8
0
 62
7
  6
CONTINUOUS
 10
232.5780089548
 20
13.522829547
 11
224.132549286
 21
21.1271555887
  0
LINE
  8
0
 62
7
  6
CONTINUOUS
 10
233.0978316746
 20
26.298408115
 11
232.1212721373
 21
21.7040567125
  0
LINE
  8
0
 62
7
  6
CONTINUOUS
 10
231.4214701896
 20
18.4117473987
 11
230.7350219782
 21
15.1822624744
  0
LINE
  8
0
 62
7
  6
CONTINUOUS
 10
233.7789277731
 20
13.9130317247
 11
234.7351593087
 21
18.4117473987
  0
LINE
  8
0
 62
7
  6
CONTINUOUS
 10
235.4349612564
 20
21.7040567125
 11
235.8792030588
 21
23.7940500719
  0
LINE
  8
0
 62
7
  6
CONTINUOUS
 10
229.7315866525
 20
12.2146959798
 11
233.2911100301
 21
13.3712552343
  0
LINE
  8
0
 62
7
  6
CONTINUOUS
 10
232.8725483422
 20
26.9917589181
 11
235.6539197265
 21
24.487400875
  0
ARC
  8
0
 62
7
  6
CONTINUOUS
 10
222.7773800524
 20
23.3283650064
 40
0.7290321776
 50
108.0
 51
168.0
  0
ARC
  8
0
 62
7
  6
CONTINUOUS
 10
232.3847305992
 20
26.4499824277
 40
0.7290321776
 50
348.0
 51
108.0
  0
ARC
  8
0
 62
7
  6
CONTINUOUS
 10
235.1661019835
 20
23.9456243846
 40
0.7290321776
 50
348.0
 51
48.0
  0
ARC
  8
0
 62
7
  6
CONTINUOUS
 10
229.5063033202
 20
12.9080467828
 40
0.7290321776
 50
228.0
 51
288.0
  0
ARC
  8
0
 62
7
  6
CONTINUOUS
 10
221.9992280591
 20
19.6674477088
 40
0.7290321776
 50
108.0
 51
228.0
  0
ARC
  8
0
 62
7
  6
CONTINUOUS
 10
233.0658266978
 20
14.0646060374
 40
0.7290321776
 50
228.0
 51
348.0
  0
ENDBLK
  8
0
  6
BYBLOCK
 62
0
  0
ENDSEC
  0
SECTION
  2
ENTITIES
  0
TEXT
  8
0
 62
5
  6
CONTINUOUS
 10
304.937007874
 20
25.636
  7
TEXTSTYLE_2
 40
2.8
  1
Scale :
 41
0.6
 51
0.000019
 72
0
  0
TEXT
  8
0
 62
5
  6
CONTINUOUS
 10
324.937007874
 20
25.636
  7
TEXTSTYLE_2
 40
2.8
  1
Chain type:
 41
0.6
 51
0.000019
 72
0
  0
INSERT
  8
0
 62
2
  6
CONTINUOUS
  2
SYMBOL_0_BL0
 10
241.0459637928
 20
19.6790146053
  0
INSERT
  8
0
 62
2
  6
CONTINUOUS
  2
SYMBOL_5_BL1
 10
382.3920721743
 20
35.81661148
  0
LINE
  8
0
 62
2
  6
CONTINUOUS
 10
218.937007874
 20
30.0
 11
408.937007874
 21
30.0
  0
LINE
  8
0
 62
2
  6
CONTINUOUS
 10
218.937007874
 20
30.0
 11
218.937007874
 21
10.0
  0
LINE
  8
0
 62
2
  6
CONTINUOUS
 10
218.937007874
 20
10.0
 11
408.937007874
 21
10.0
  0
LINE
  8
0
 62
2
  6
CONTINUOUS
 10
303.937007874
 20
30.0
 11
303.937007874
 21
10.0
  0
LINE
  8
0
 62
2
  6
CONTINUOUS
 10
323.937007874
 20
30.0
 11
323.937007874
 21
10.0
  0
LINE
  8
0
 62
2
  6
CONTINUOUS
 10
408.937007874
 20
30.0
 11
408.937007874
 21
10.0
  0
TEXT
  8
0
 62
5
  6
CONTINUOUS
 10
221.937007874
 20
23.303
  7
TEXTSTYLE_5
 40
1.52
  1
                                                                     Ammeraal Beltech Modular A/S
 41
1.0
 72
0
  0
TEXT
  8
0
 62
5
  6
CONTINUOUS
 10
221.937007874
 20
20.595
  7
TEXTSTYLE_5
 40
1.5
  1
                                                                      Hjulmagervej 21, 7100 Vejle,  DK
 41
1.0
 72
0
  0
TEXT
  8
0
 62
5
  6
CONTINUOUS
 10
221.937007874
 20
17.881
  7
TEXTSTYLE_5
 40
1.495
  1
                                                                      tel: 
 41
1.0
 72
0
  0
TEXT
  8
0
 62
5
  6
CONTINUOUS
 10
266.9239544389
 20
17.881
  7
TEXTSTYLE_5
 40
1.51
  1
+45 75723100     fax: +45 75723348
 41
1.0
 72
0
  0
TEXT
  8
0
 62
5
  6
CONTINUOUS
 10
221.937007874
 20
15.177
  7
TEXTSTYLE_5
 40
1.5
  1
                                                                      admin@unichains.dk  www.unichains.com
 41
1.0
 72
0
  0
TEXT
  8
0
 62
5
  6
CONTINUOUS
 10
308.687007874
 20
13.75
  7
TEXTSTYLE_6
 40
5.0
  1
1:1
 41
0.7
 72
1
 11
313.937007874
 21
13.75
  0
TEXT
  8
0
 62
5
  6
CONTINUOUS
 10
326.937007874
 20
13.75
  7
TEXTSTYLE_7
 40
7.5
  1
uni 2700
 41
0.6520833333
 72
0
  0
LINE
  8
0
 62
7
  6
CONTINUOUS
 10
0.0
 20
0.0
 11
0.0
 21
297.0
  0
LINE
  8
0
 62
7
  6
CONTINUOUS
 10
8.937007874
 20
10.0
 11
8.937007874
 21
287.0
  0
LINE
  8
0
 62
7
  6
CONTINUOUS
 10
0.0
 20
0.0
 11
420.0
 21
0.0
  0
LINE
  8
0
 62
7
  6
CONTINUOUS
 10
408.937007874
 20
10.0
 11
8.937007874
 21
10.0
  0
LINE
  8
0
 62
7
  6
CONTINUOUS
 10
218.937007874
 20
30.0
 11
408.937007874
 21
30.0
  0
LINE
  8
0
 62
7
  6
CONTINUOUS
 10
210.0
 20
297.0
 11
210.0
 21
292.0
  0
LINE
  8
0
 62
7
  6
CONTINUOUS
 10
210.0
 20
0.0
 11
210.0
 21
5.0
  0
LINE
  8
0
 62
7
  6
CONTINUOUS
 10
8.937007874
 20
287.0
 11
408.937007874
 21
287.0
  0
LINE
  8
0
 62
7
  6
CONTINUOUS
 10
0.0
 20
297.0
 11
420.0
 21
297.0
  0
LINE
  8
0
 62
7
  6
CONTINUOUS
 10
408.937007874
 20
287.0
 11
408.937007874
 21
10.0
  0
LINE
  8
0
 62
7
  6
CONTINUOUS
 10
420.0
 20
0.0
 11
420.0
 21
297.0
  0
POLYLINE
  8
0
 62
7
  6
CONTINUOUS
 66
1
 70
0
  0
VERTEX
  8
0
 62
7
  6
CONTINUOUS
 10
59.736603663
 20
204.9019046063
  0
VERTEX
  8
0
 62
7
  6
CONTINUOUS
 10
59.7520905831
 20
204.5974691249
  0
VERTEX
  8
0
 62
7
  6
CONTINUOUS
 10
59.9365910306
 20
203.8249093834
  0
VERTEX
  8
0
 62
7
  6
CONTINUOUS
 10
60.1016805292
 20
203.4676243317
  0
SEQEND
  0
POLYLINE
  8
0
 62
7
  6
CONTINUOUS
 66
1
 70
0
  0
VERTEX
  8
0
 62
7
  6
CONTINUOUS
 10
61.8818136566
 20
202.4652969585
  0
VERTEX
  8
0
 62
7
  6
CONTINUOUS
 10
61.9053812315
 20
201.7683467863
  0
VERTEX
  8
0
 62
7
  6
CONTINUOUS
 10
61.9754662763
 20
201.4322161055
  0
VERTEX
  8
0
 62
7
  6
CONTINUOUS
 10
62.2269993242
 20
200.8084774212
  0
SEQEND
  0
LINE
  8
0
 62
7
  6
CONTINUOUS
 10
59.7365983607
 20
224.4882861559
 11
59.7365983607
 21
204.8895917562
  0
LINE
  8
0
 62
7
  6
CONTINUOUS
 10
59.7691856301
 20
225.3053724613
 11
59.7365983607
 21
224.4882868852
  0
LINE
  8
0
 62
7
  6
CONTINUOUS
 10
62.2269993242
 20
200.8084774212
 11
62.22162089
 21
200.6394983722
  0
POLYLINE
  8
0
 62
7
  6
CONTINUOUS
 66
1
 70
0
  0
VERTEX
  8
0
 62
7
  6
CONTINUOUS
 10
60.3486215594
 20
226.5603124829
  0
VERTEX
  8
0
 62
7
  6
CONTINUOUS
 10
59.9946464213
 20
226.0807160769
  0
VERTEX
  8
0
 62
7
  6
CONTINUOUS
 10
59.8750179117
 20
225.8065134933
  0
VERTEX
  8
0
 62
7
  6
CONTINUOUS
 10
59.7691863922
 20
225.3053724005
  0
SEQEND
  0
LINE
  8
0
 62
7
  6
CONTINUOUS
 10
73.4228524121
 20
215.8602868852
 11
73.4228524121
 21
215.3902868852
  0
LINE
  8
0
 62
7
  6
CONTINUOUS
 10
67.9235279749
 20
234.1352164995
 11
60.3486865768
 21
226.5603751014
  0
LINE
  8
0
 62
7
  6
CONTINUOUS
 10
67.9409490129
 20
234.1524501617
 11
67.9235449149
 21
234.1352370067
  0
POLYLINE
  8
0
 62
7
  6
CONTINUOUS
 66
1
 70
0
  0
VERTEX
  8
0
 62
7
  6
CONTINUOUS
 10
62.2269993242
 20
200.8084774212
  0
VERTEX
  8
0
 62
7
  6
CONTINUOUS
 10
62.4884077801
 20
200.6217005081
  0
VERTEX
  8
0
 62
7
  6
CONTINUOUS
 10
62.7223683842
 20
200.4677063326
  0
VERTEX
  8
0
 62
7
  6
CONTINUOUS
 10
62.9422301588
 20
200.3168619083
  0
SEQEND
  0
LINE
  8
0
 62
7
  6
CONTINUOUS
 10
75.6752535053
 20
215.3902868852
 11
75.6756111405
 21
215.8602868852
  0
LINE
  8
0
 62
7
  6
CONTINUOUS
 10
68.415234072
 20
234.4960428253
 11
67.9389138258
 21
234.1504584619
  0
LINE
  8
0
 62
7
  6
CONTINUOUS
 10
68.6862740231
 20
234.6126133652
 11
68.4163016707
 21
234.4965019848
  0
LINE
  8
CENTER_AXER
 62
2
  6
CENTER
 10
88.0665983607
 20
179.4702868852
 11
88.0665983607
 21
253.4702868852
  0
POLYLINE
  8
0
 62
7
  6
CONTINUOUS
 66
1
 70
0
  0
VERTEX
  8
0
 62
7
  6
CONTINUOUS
 10
150.1426194013
 20
191.6662868852
  0
VERTEX
  8
0
 62
7
  6
CONTINUOUS
 10
150.7769746241
 20
191.6760704819
  0
VERTEX
  8
0
 62
7
  6
CONTINUOUS
 10
151.5157216391
 20
191.6851876339
  0
VERTEX
  8
0
 62
7
  6
CONTINUOUS
 10
152.3084874721
 20
191.6930162635
  0
SEQEND
  0
LINE
  8
0
 62
7
  6
CONTINUOUS
 10
166.1108622191
 20
188.6032868852
 11
143.453142249
 21
188.6032868852
  0
LINE
  8
0
 62
7
  6
CONTINUOUS
 10
143.0107762232
 20
188.6353993788
 11
143.4531456853
 21
188.6032867427
  0
LINE
  8
0
 62
7
  6
CONTINUOUS
 10
100.4575855808
 20
215.8602868852
 11
100.457943216
 21
215.3902868852
  0
LINE
  8
0
 62
7
  6
CONTINUOUS
 10
102.7270048527
 20
215.3902868852
 11
102.7270048527
 21
215.8602868852
  0
LINE
  8
CURVE_RUNDING
 62
7
  6
CONTINUOUS
 10
100.3475078421
 20
197.0732868852
 11
70.8626983603
 21
197.0732868852
  0
LINE
  8
0
 62
7
  6
CONTINUOUS
 10
100.3475078421
 20
197.0732868852
 11
139.6051197656
 21
197.0732868852
  0
LINE
  8
0
 62
7
  6
CONTINUOUS
 10
70.6034477721
 20
197.0760300452
 11
70.8626983607
 21
197.0732868852
  0
LINE
  8
0
 62
7
  6
CONTINUOUS
 10
142.1609444256
 20
188.8892046829
 11
143.0105849304
 21
188.6354565091
  0
LINE
  8
0
 62
7
  6
CONTINUOUS
 10
105.6830911755
 20
205.4702868852
 11
108.0665983607
 21
203.4702868852
  0
LINE
  8
0
 62
7
  6
CONTINUOUS
 10
108.0665983607
 20
203.4702868852
 11
108.0665983607
 21
204.4702868852
  0
LINE
  8
0
 62
7
  6
CONTINUOUS
 10
108.0665983607
 20
206.4702868852
 11
108.0665983607
 21
207.4702868852
  0
POLYLINE
  8
0
 62
7
  6
CONTINUOUS
 66
1
 70
0
  0
VERTEX
  8
0
 62
7
  6
CONTINUOUS
 10
101.8357200095
 20
212.0704922769
  0
VERTEX
  8
0
 62
7
  6
CONTINUOUS
 10
102.3851497978
 20
213.2922782851
  0
VERTEX
  8
0
 62
7
  6
CONTINUOUS
 10
102.5722110886
 20
213.9691870105
  0
VERTEX
  8
0
 62
7
  6
CONTINUOUS
 10
102.7270048527
 20
215.3902868852
  0
SEQEND
  0
LINE
  8
0
 62
7
  6
CONTINUOUS
 10
108.0665983607
 20
204.4702868852
 11
119.0665983607
 21
204.4702868852
  0
POLYLINE
  8
0
 62
7
  6
CONTINUOUS
 66
1
 70
0
  0
VERTEX
  8
0
 62
7
  6
CONTINUOUS
 10
81.3389658868
 20
209.1112868852
  0
VERTEX
  8
0
 62
7
  6
CONTINUOUS
 10
80.0300915652
 20
209.2692357569
  0
VERTEX
  8
0
 62
7
  6
CONTINUOUS
 10
78.7511425893
 20
209.7663177661
  0
VERTEX
  8
0
 62
7
  6
CONTINUOUS
 10
77.6274513346
 20
210.5837057918
  0
VERTEX
  8
0
 62
7
  6
CONTINUOUS
 10
76.746480276
 20
211.6417726157
  0
VERTEX
  8
0
 62
7
  6
CONTINUOUS
 10
76.1308490241
 20
212.858646465
  0
VERTEX
  8
0
 62
7
  6
CONTINUOUS
 10
75.7808988843
 20
214.1448040536
  0
VERTEX
  8
0
 62
7
  6
CONTINUOUS
 10
75.6752535053
 20
215.3902868852
  0
SEQEND
  0
POLYLINE
  8
0
 62
7
  6
CONTINUOUS
 66
1
 70
0
  0
VERTEX
  8
0
 62
7
  6
CONTINUOUS
 10
79.3234604842
 20
209.1112868852
  0
VERTEX
  8
0
 62
7
  6
CONTINUOUS
 10
77.8836825349
 20
209.2947005481
  0
VERTEX
  8
0
 62
7
  6
CONTINUOUS
 10
76.5248982885
 20
209.8435313643
  0
VERTEX
  8
0
 62
7
  6
CONTINUOUS
 10
75.340447864
 20
210.7287505998
  0
VERTEX
  8
0
 62
7
  6
CONTINUOUS
 10
74.8423996336
 20
211.2742000998
  0
VERTEX
  8
0
 62
7
  6
CONTINUOUS
 10
74.0553519532
 20
212.5339668185
  0
VERTEX
  8
0
 62
7
  6
CONTINUOUS
 10
73.5797560924
 20
213.9355128037
  0
VERTEX
  8
0
 62
7
  6
CONTINUOUS
 10
73.4228524121
 20
215.3902868852
  0
SEQEND
  0
POLYLINE
  8
0
 62
7
  6
CONTINUOUS
 66
1
 70
0
  0
VERTEX
  8
0
 62
7
  6
CONTINUOUS
 10
139.3655566405
 20
197.0732869206
  0
VERTEX
  8
0
 62
7
  6
CONTINUOUS
 10
139.7308727737
 20
197.005674953
  0
VERTEX
  8
0
 62
7
  6
CONTINUOUS
 10
140.0478120386
 20
196.8118266794
  0
VERTEX
  8
0
 62
7
  6
CONTINUOUS
 10
140.1746145676
 20
196.6750113626
  0
VERTEX
  8
0
 62
7
  6
CONTINUOUS
 10
140.343862947
 20
196.3442807696
  0
VERTEX
  8
0
 62
7
  6
CONTINUOUS
 10
140.3865065398
 20
196.0531335722
  0
SEQEND
  0
POLYLINE
  8
0
 62
7
  6
CONTINUOUS
 66
1
 70
0
  0
VERTEX
  8
0
 62
7
  6
CONTINUOUS
 10
101.8357200095
 20
219.1800814936
  0
VERTEX
  8
0
 62
7
  6
CONTINUOUS
 10
102.3851497978
 20
217.9582954854
  0
VERTEX
  8
0
 62
7
  6
CONTINUOUS
 10
102.5722110886
 20
217.28138676
  0
VERTEX
  8
0
 62
7
  6
CONTINUOUS
 10
102.7270048527
 20
215.8602868852
  0
SEQEND
  0
LINE
  8
0
 62
7
  6
CONTINUOUS
 10
119.0665983607
 20
206.4702868852
 11
108.0665983607
 21
206.4702868852
  0
LINE
  8
0
 62
7
  6
CONTINUOUS
 10
96.8097362371
 20
209.1112868852
 11
79.3234604842
 21
209.1112868852
  0
LINE
  8
0
 62
7
  6
CONTINUOUS
 10
141.4194542034
 20
189.3758571165
 11
142.1609444256
 21
188.8892046829
  0
LINE
  8
0
 62
7
  6
CONTINUOUS
 10
119.0665983607
 20
204.4702868852
 11
119.0665983607
 21
206.4702868852
  0
LINE
  8
0
 62
7
  6
CONTINUOUS
 10
108.0665983607
 20
207.4702868852
 11
105.6830911755
 21
205.4702868852
  0
POLYLINE
  8
0
 62
7
  6
CONTINUOUS
 66
1
 70
0
  0
VERTEX
  8
0
 62
7
  6
CONTINUOUS
 10
94.7942308345
 20
209.1112868852
  0
VERTEX
  8
0
 62
7
  6
CONTINUOUS
 10
96.1031051561
 20
209.2692357569
  0
VERTEX
  8
0
 62
7
  6
CONTINUOUS
 10
97.382054132
 20
209.7663177661
  0
VERTEX
  8
0
 62
7
  6
CONTINUOUS
 10
98.5057453867
 20
210.5837057918
  0
VERTEX
  8
0
 62
7
  6
CONTINUOUS
 10
99.3867164453
 20
211.6417726157
  0
VERTEX
  8
0
 62
7
  6
CONTINUOUS
 10
100.0023476972
 20
212.858646465
  0
VERTEX
  8
0
 62
7
  6
CONTINUOUS
 10
100.352297837
 20
214.1448040536
  0
VERTEX
  8
0
 62
7
  6
CONTINUOUS
 10
100.457943216
 20
215.3902868852
  0
SEQEND
  0
POLYLINE
  8
0
 62
7
  6
CONTINUOUS
 66
1
 70
0
  0
VERTEX
  8
0
 62
7
  6
CONTINUOUS
 10
96.8097362371
 20
209.1112868852
  0
VERTEX
  8
0
 62
7
  6
CONTINUOUS
 10
98.1380096674
 20
209.2669192722
  0
VERTEX
  8
0
 62
7
  6
CONTINUOUS
 10
99.401751094
 20
209.7326613005
  0
VERTEX
  8
0
 62
7
  6
CONTINUOUS
 10
99.9870221422
 20
210.0768101466
  0
VERTEX
  8
0
 62
7
  6
CONTINUOUS
 10
101.0248886869
 20
210.9662624087
  0
VERTEX
  8
0
 62
7
  6
CONTINUOUS
 10
101.8357200095
 20
212.0704922769
  0
SEQEND
  0
LINE
  8
CENTER_AXER
 62
2
  6
CENTER
 10
37.5665983607
 20
216.4702868852
 11
201.5665983607
 21
216.4702868852
  0
LINE
  8
0
 62
7
  6
CONTINUOUS
 10
141.1092715426
 20
189.6944289924
 11
141.4194542034
 21
189.3758571165
  0
LINE
  8
CENTER_AXER
 62
2
  6
CENTER
 10
123.5165983607
 20
179.4702868852
 11
123.5165983607
 21
253.4702868852
  0
LINE
  8
0
 62
7
  6
CONTINUOUS
 10
96.8097362371
 20
222.1392868852
 11
79.3234604842
 21
222.1392868852
  0
POLYLINE
  8
0
 62
7
  6
CONTINUOUS
 66
1
 70
0
  0
VERTEX
  8
0
 62
7
  6
CONTINUOUS
 10
96.8097362371
 20
222.1392868852
  0
VERTEX
  8
0
 62
7
  6
CONTINUOUS
 10
98.1380096674
 20
221.9836544983
  0
VERTEX
  8
0
 62
7
  6
CONTINUOUS
 10
99.401751094
 20
221.51791247
  0
VERTEX
  8
0
 62
7
  6
CONTINUOUS
 10
99.9870221422
 20
221.1737636239
  0
VERTEX
  8
0
 62
7
  6
CONTINUOUS
 10
101.0248886869
 20
220.2843113618
  0
VERTEX
  8
0
 62
7
  6
CONTINUOUS
 10
101.8357200095
 20
219.1800814936
  0
SEQEND
  0
POLYLINE
  8
0
 62
7
  6
CONTINUOUS
 66
1
 70
0
  0
VERTEX
  8
0
 62
7
  6
CONTINUOUS
 10
94.7861109314
 20
222.1392868852
  0
VERTEX
  8
0
 62
7
  6
CONTINUOUS
 10
96.0975596798
 20
221.9807023191
  0
VERTEX
  8
0
 62
7
  6
CONTINUOUS
 10
97.3780597086
 20
221.4822082595
  0
VERTEX
  8
0
 62
7
  6
CONTINUOUS
 10
98.5022443236
 20
220.6636328132
  0
VERTEX
  8
0
 62
7
  6
CONTINUOUS
 10
99.3828690763
 20
219.6059616087
  0
VERTEX
  8
0
 62
7
  6
CONTINUOUS
 10
99.998576741
 20
218.3910839322
  0
VERTEX
  8
0
 62
7
  6
CONTINUOUS
 10
100.3498832794
 20
217.106787633
  0
VERTEX
  8
0
 62
7
  6
CONTINUOUS
 10
100.4575855808
 20
215.8602868852
  0
SEQEND
  0
LINE
  8
0
 62
7
  6
CONTINUOUS
 10
140.6425753786
 20
190.4486399423
 11
141.1092715426
 21
189.6944289924
  0
POLYLINE
  8
0
 62
7
  6
CONTINUOUS
 66
1
 70
0
  0
VERTEX
  8
0
 62
7
  6
CONTINUOUS
 10
79.3234604842
 20
222.1392868852
  0
VERTEX
  8
0
 62
7
  6
CONTINUOUS
 10
77.8836825349
 20
221.9558732224
  0
VERTEX
  8
0
 62
7
  6
CONTINUOUS
 10
76.5248982885
 20
221.4070424062
  0
VERTEX
  8
0
 62
7
  6
CONTINUOUS
 10
75.340447864
 20
220.5218231707
  0
VERTEX
  8
0
 62
7
  6
CONTINUOUS
 10
74.8423996336
 20
219.9763736706
  0
VERTEX
  8
0
 62
7
  6
CONTINUOUS
 10
74.0553519532
 20
218.716606952
  0
VERTEX
  8
0
 62
7
  6
CONTINUOUS
 10
73.5797560924
 20
217.3150609668
  0
VERTEX
  8
0
 62
7
  6
CONTINUOUS
 10
73.4228524121
 20
215.8602868852
  0
SEQEND
  0
POLYLINE
  8
0
 62
7
  6
CONTINUOUS
 66
1
 70
0
  0
VERTEX
  8
0
 62
7
  6
CONTINUOUS
 10
81.3470857899
 20
222.1392868852
  0
VERTEX
  8
0
 62
7
  6
CONTINUOUS
 10
80.0356370415
 20
221.9807023191
  0
VERTEX
  8
0
 62
7
  6
CONTINUOUS
 10
78.7551370128
 20
221.4822082595
  0
VERTEX
  8
0
 62
7
  6
CONTINUOUS
 10
77.6309523977
 20
220.6636328132
  0
VERTEX
  8
0
 62
7
  6
CONTINUOUS
 10
76.750327645
 20
219.6059616087
  0
VERTEX
  8
0
 62
7
  6
CONTINUOUS
 10
76.1346199803
 20
218.3910839322
  0
VERTEX
  8
0
 62
7
  6
CONTINUOUS
 10
75.7833134419
 20
217.106787633
  0
VERTEX
  8
0
 62
7
  6
CONTINUOUS
 10
75.6756111405
 20
215.8602868852
  0
SEQEND
  0
LINE
  8
0
 62
7
  6
CONTINUOUS
 10
148.0503931708
 20
224.7286711465
 11
177.985012143
 21
224.7290885047
  0
LINE
  8
0
 62
7
  6
CONTINUOUS
 10
105.0629338387
 20
228.4159868852
 11
145.7644010585
 21
228.4159868852
  0
POLYLINE
  8
0
 62
7
  6
CONTINUOUS
 66
1
 70
0
  0
VERTEX
  8
0
 62
7
  6
CONTINUOUS
 10
178.1695983607
 20
224.7199494152
  0
VERTEX
  8
0
 62
7
  6
CONTINUOUS
 10
178.1489409576
 20
224.7230486271
  0
VERTEX
  8
0
 62
7
  6
CONTINUOUS
 10
178.0870222104
 20
224.7261143322
  0
VERTEX
  8
0
 62
7
  6
CONTINUOUS
 10
177.985012143
 20
224.7290885047
  0
SEQEND
  0
POLYLINE
  8
0
 62
7
  6
CONTINUOUS
 66
1
 70
0
  0
VERTEX
  8
0
 62
7
  6
CONTINUOUS
 10
148.0503983608
 20
224.6555954413
  0
VERTEX
  8
0
 62
7
  6
CONTINUOUS
 10
147.3969391428
 20
224.7609776831
  0
VERTEX
  8
0
 62
7
  6
CONTINUOUS
 10
146.8049610866
 20
225.0751684551
  0
VERTEX
  8
0
 62
7
  6
CONTINUOUS
 10
146.3572007447
 20
225.5500499531
  0
VERTEX
  8
0
 62
7
  6
CONTINUOUS
 10
146.0934537877
 20
226.1070416585
  0
VERTEX
  8
0
 62
7
  6
CONTINUOUS
 10
146.0083983607
 20
226.6898681198
  0
SEQEND
  0
LINE
  8
0
 62
7
  6
CONTINUOUS
 10
140.4115339626
 20
191.3049454247
 11
140.6425753786
 21
190.4486399423
  0
LINE
  8
0
 62
7
  6
CONTINUOUS
 10
140.3901466532
 20
191.6637468281
 11
140.4115339626
 21
191.3049454247
  0
LINE
  8
0
 62
7
  6
CONTINUOUS
 10
140.3865068125
 20
196.0531258907
 11
140.390146955
 21
191.6637448101
  0
LINE
  8
0
 62
7
  6
CONTINUOUS
 10
69.9965983607
 20
234.7482868852
 11
69.1795151928
 21
234.7156998082
  0
LINE
  8
0
 62
7
  6
CONTINUOUS
 10
69.9963634244
 20
234.7482868852
 11
158.3962198249
 21
234.7482868852
  0
POLYLINE
  8
0
 62
7
  6
CONTINUOUS
 66
1
 70
0
  0
VERTEX
  8
0
 62
7
  6
CONTINUOUS
 10
173.3540689602
 20
226.7709342389
  0
VERTEX
  8
0
 62
7
  6
CONTINUOUS
 10
174.0230376909
 20
226.6340785911
  0
VERTEX
  8
0
 62
7
  6
CONTINUOUS
 10
174.6871342152
 20
226.4640329823
  0
VERTEX
  8
0
 62
7
  6
CONTINUOUS
 10
175.3428985282
 20
226.2583367977
  0
SEQEND
  0
LINE
  8
0
 62
7
  6
CONTINUOUS
 10
148.0494742792
 20
224.8331338952
 11
148.0503931708
 21
224.7288189807
  0
LINE
  8
0
 62
7
  6
CONTINUOUS
 10
148.0474239964
 20
226.7707412277
 11
148.0494742792
 21
224.8331338952
  0
LINE
  8
0
 62
7
  6
CONTINUOUS
 10
146.0083983607
 20
227.3949868852
 11
146.0083983607
 21
226.6898681198
  0
LINE
  8
0
 62
7
  6
CONTINUOUS
 10
69.1795151842
 20
234.7156998067
 11
68.6866932117
 21
234.6127009748
  0
POLYLINE
  8
0
 62
7
  6
CONTINUOUS
 66
1
 70
0
  0
VERTEX
  8
0
 62
7
  6
CONTINUOUS
 10
148.0474240417
 20
227.3949868852
  0
VERTEX
  8
0
 62
7
  6
CONTINUOUS
 10
147.1808761102
 20
227.9684438154
  0
VERTEX
  8
0
 62
7
  6
CONTINUOUS
 10
146.4134966824
 20
228.3125670484
  0
VERTEX
  8
0
 62
7
  6
CONTINUOUS
 10
145.7644010585
 20
228.4159868852
  0
SEQEND
  0
POLYLINE
  8
0
 62
7
  6
CONTINUOUS
 66
1
 70
0
  0
VERTEX
  8
0
 62
7
  6
CONTINUOUS
 10
175.3428985282
 20
226.2583367977
  0
VERTEX
  8
0
 62
7
  6
CONTINUOUS
 10
175.8930863497
 20
226.0098461094
  0
VERTEX
  8
0
 62
7
  6
CONTINUOUS
 10
176.2152227774
 20
225.8212348529
  0
VERTEX
  8
0
 62
7
  6
CONTINUOUS
 10
176.8037928681
 20
225.4144636824
  0
SEQEND
  0
LINE
  8
CENTER_AXER
 62
2
  6
CENTER
 10
158.9665983607
 20
179.4702868852
 11
158.9665983607
 21
253.4702868852
  0
LINE
  8
0
 62
7
  6
CONTINUOUS
 10
169.9622351829
 20
231.1569436569
 11
178.1695983607
 21
225.5161792245
  0
POLYLINE
  8
0
 62
7
  6
CONTINUOUS
 66
1
 70
0
  0
VERTEX
  8
0
 62
7
  6
CONTINUOUS
 10
176.8037929042
 20
225.4144636578
  0
VERTEX
  8
0
 62
7
  6
CONTINUOUS
 10
177.3540305852
 20
225.0237193847
  0
VERTEX
  8
0
 62
7
  6
CONTINUOUS
 10
177.7381469504
 20
224.8023830621
  0
VERTEX
  8
0
 62
7
  6
CONTINUOUS
 10
177.985012143
 20
224.7290885047
  0
SEQEND
  0
LINE
  8
0
 62
7
  6
CONTINUOUS
 10
178.1695983607
 20
200.6620230268
 11
178.1695983607
 21
225.5161792245
  0
LINE
  8
0
 62
7
  6
CONTINUOUS
 10
168.2767302899
 20
189.5004188145
 11
177.2724664314
 21
198.496154956
  0
POLYLINE
  8
0
 62
7
  6
CONTINUOUS
 66
1
 70
0
  0
VERTEX
  8
0
 62
7
  6
CONTINUOUS
 10
175.3428985282
 20
35.2307765245
  0
VERTEX
  8
0
 62
7
  6
CONTINUOUS
 10
175.8930863497
 20
35.3117304861
  0
VERTEX
  8
0
 62
7
  6
CONTINUOUS
 10
176.2152227774
 20
35.3984134147
  0
VERTEX
  8
0
 62
7
  6
CONTINUOUS
 10
176.8037928681
 20
35.6789313429
  0
SEQEND
  0
POLYLINE
  8
0
 62
7
  6
CONTINUOUS
 66
1
 70
0
  0
VERTEX
  8
0
 62
7
  6
CONTINUOUS
 10
173.3540689602
 20
35.1682847396
  0
VERTEX
  8
0
 62
7
  6
CONTINUOUS
 10
174.0230376909
 20
35.1719018769
  0
VERTEX
  8
0
 62
7
  6
CONTINUOUS
 10
174.6871342152
 20
35.1895390507
  0
VERTEX
  8
0
 62
7
  6
CONTINUOUS
 10
175.3428985282
 20
35.2307765245
  0
SEQEND
  0
LINE
  8
0
 62
7
  6
CONTINUOUS
 10
118.9470893235
 20
35.2475324005
 11
173.3540689601
 21
35.168284662
  0
LINE
  8
CENTER_AXER
 62
2
  6
CENTER
 10
88.0665983607
 20
29.7612704918
 11
88.0665983607
 21
153.7612704918
  0
POLYLINE
  8
0
 62
7
  6
CONTINUOUS
 66
1
 70
0
  0
VERTEX
  8
0
 62
7
  6
CONTINUOUS
 10
167.9652403917
 20
61.937970264
  0
VERTEX
  8
0
 62
7
  6
CONTINUOUS
 10
165.3758655377
 20
61.944716314
  0
VERTEX
  8
0
 62
7
  6
CONTINUOUS
 10
162.6127883149
 20
61.9492895543
  0
SEQEND
  0
POLYLINE
  8
0
 62
7
  6
CONTINUOUS
 66
1
 70
0
  0
VERTEX
  8
0
 62
7
  6
CONTINUOUS
 10
162.6127962702
 20
61.9492895443
  0
VERTEX
  8
0
 62
7
  6
CONTINUOUS
 10
160.792449287
 20
62.0070884982
  0
VERTEX
  8
0
 62
7
  6
CONTINUOUS
 10
158.6655128127
 20
62.2175818385
  0
SEQEND
  0
POLYLINE
  8
0
 62
7
  6
CONTINUOUS
 66
1
 70
0
  0
VERTEX
  8
0
 62
7
  6
CONTINUOUS
 10
169.1594623605
 20
61.8639157116
  0
VERTEX
  8
0
 62
7
  6
CONTINUOUS
 10
168.7846417261
 20
61.9023624896
  0
VERTEX
  8
0
 62
7
  6
CONTINUOUS
 10
168.3388540405
 20
61.9299395803
  0
VERTEX
  8
0
 62
7
  6
CONTINUOUS
 10
167.9652396585
 20
61.9379702663
  0
SEQEND
  0
POLYLINE
  8
0
 62
7
  6
CONTINUOUS
 66
1
 70
0
  0
VERTEX
  8
0
 62
7
  6
CONTINUOUS
 10
158.6655128128
 20
62.2175818386
  0
VERTEX
  8
0
 62
7
  6
CONTINUOUS
 10
153.9048441477
 20
63.2740170406
  0
VERTEX
  8
0
 62
7
  6
CONTINUOUS
 10
149.3091103145
 20
65.1441056798
  0
VERTEX
  8
0
 62
7
  6
CONTINUOUS
 10
145.0938298787
 20
67.7635654809
  0
VERTEX
  8
0
 62
7
  6
CONTINUOUS
 10
141.3808338452
 20
71.0571652599
  0
VERTEX
  8
0
 62
7
  6
CONTINUOUS
 10
139.7467395265
 20
72.9278872619
  0
VERTEX
  8
0
 62
7
  6
CONTINUOUS
 10
136.9821007927
 20
77.0499318545
  0
SEQEND
  0
POLYLINE
  8
0
 62
7
  6
CONTINUOUS
 66
1
 70
0
  0
VERTEX
  8
0
 62
7
  6
CONTINUOUS
 10
158.6655091882
 20
62.2175551653
  0
VERTEX
  8
0
 62
7
  6
CONTINUOUS
 10
153.8411146588
 20
63.2939021081
  0
VERTEX
  8
0
 62
7
  6
CONTINUOUS
 10
149.2660983703
 20
65.166041046
  0
VERTEX
  8
0
 62
7
  6
CONTINUOUS
 10
145.0709322938
 20
67.7806381156
  0
VERTEX
  8
0
 62
7
  6
CONTINUOUS
 10
141.3749829783
 20
71.0632992863
  0
SEQEND
  0
LINE
  8
0
 62
7
  6
CONTINUOUS
 10
115.9350846545
 20
145.7438962005
 11
111.6020573175
 21
121.1700770405
  0
LINE
  8
0
 62
7
  6
CONTINUOUS
 10
111.6020573175
 20
62.3524639431
 11
115.9350846545
 21
37.7786447831
  0
POLYLINE
  8
0
 62
7
  6
CONTINUOUS
 66
1
 70
0
  0
VERTEX
  8
0
 62
7
  6
CONTINUOUS
 10
141.3749818372
 20
112.459240497
  0
VERTEX
  8
0
 62
7
  6
CONTINUOUS
 10
145.0709309656
 20
115.7419018754
  0
VERTEX
  8
0
 62
7
  6
CONTINUOUS
 10
149.2660968818
 20
118.3564991761
  0
VERTEX
  8
0
 62
7
  6
CONTINUOUS
 10
153.8411130375
 20
120.2286383669
  0
VERTEX
  8
0
 62
7
  6
CONTINUOUS
 10
158.6655091882
 20
121.3049858183
  0
SEQEND
  0
LINE
  8
CENTER_AXER
 62
2
  6
CENTER
 10
37.5665983607
 20
91.7612704918
 11
201.5665983607
 21
91.7612704918
  0
LINE
  8
CENTER_AXER
 62
2
  6
CENTER
 10
123.5165983607
 20
97.0112704918
 11
123.5165983607
 21
93.7613704918
  0
LINE
  8
CENTER_AXER
 62
2
  6
CONTINUOUS
 10
123.5165983607
 20
92.8112704918
 11
123.5165983607
 21
90.7112704918
  0
LINE
  8
CENTER_AXER
 62
2
  6
CENTER
 10
123.5165983607
 20
86.5112704918
 11
123.5165983607
 21
89.7611704918
  0
POLYLINE
  8
0
 62
7
  6
CONTINUOUS
 66
1
 70
0
  0
VERTEX
  8
0
 62
7
  6
CONTINUOUS
 10
136.3768821169
 20
105.3207428758
  0
VERTEX
  8
0
 62
7
  6
CONTINUOUS
 10
139.7424133298
 20
110.589254021
  0
VERTEX
  8
0
 62
7
  6
CONTINUOUS
 10
141.3760658508
 20
112.4603618529
  0
VERTEX
  8
0
 62
7
  6
CONTINUOUS
 10
145.0882792776
 20
115.754834798
  0
VERTEX
  8
0
 62
7
  6
CONTINUOUS
 10
149.3029226349
 20
118.3752816815
  0
VERTEX
  8
0
 62
7
  6
CONTINUOUS
 10
153.8982033078
 20
120.2464565465
  0
VERTEX
  8
0
 62
7
  6
CONTINUOUS
 10
158.6655128127
 20
121.304959145
  0
SEQEND
  0
POLYLINE
  8
0
 62
7
  6
CONTINUOUS
 66
1
 70
0
  0
VERTEX
  8
0
 62
7
  6
CONTINUOUS
 10
139.7477325911
 20
72.9266310011
  0
VERTEX
  8
0
 62
7
  6
CONTINUOUS
 10
136.9926080354
 20
77.0309724881
  0
VERTEX
  8
0
 62
7
  6
CONTINUOUS
 10
136.3768713714
 20
78.2017987746
  0
SEQEND
  0
LINE
  8
0
 62
7
  6
CONTINUOUS
 10
133.3105983607
 20
92.2713409204
 11
133.3105983607
 21
91.2512000632
  0
POLYLINE
  8
0
 62
7
  6
CONTINUOUS
 66
1
 70
0
  0
VERTEX
  8
0
 62
7
  6
CONTINUOUS
 10
133.3105983607
 20
92.2713409204
  0
VERTEX
  8
0
 62
7
  6
CONTINUOUS
 10
133.7275636367
 20
97.1968927736
  0
VERTEX
  8
0
 62
7
  6
CONTINUOUS
 10
134.9666644343
 20
101.9824611156
  0
VERTEX
  8
0
 62
7
  6
CONTINUOUS
 10
136.376873098
 20
105.32074568
  0
SEQEND
  0
POLYLINE
  8
0
 62
7
  6
CONTINUOUS
 66
1
 70
0
  0
VERTEX
  8
0
 62
7
  6
CONTINUOUS
 10
136.376873098
 20
105.32074568
  0
VERTEX
  8
0
 62
7
  6
CONTINUOUS
 10
136.9926072309
 20
106.4915670461
  0
VERTEX
  8
0
 62
7
  6
CONTINUOUS
 10
139.7477315554
 20
110.5959086902
  0
SEQEND
  0
POLYLINE
  8
0
 62
7
  6
CONTINUOUS
 66
1
 70
0
  0
VERTEX
  8
0
 62
7
  6
CONTINUOUS
 10
136.3768713714
 20
78.2017987746
  0
VERTEX
  8
0
 62
7
  6
CONTINUOUS
 10
134.9666649882
 20
81.540078291
  0
VERTEX
  8
0
 62
7
  6
CONTINUOUS
 10
133.7275639222
 20
86.3256465358
  0
VERTEX
  8
0
 62
7
  6
CONTINUOUS
 10
133.3105983607
 20
91.2512000632
  0
SEQEND
  0
POLYLINE
  8
0
 62
7
  6
CONTINUOUS
 66
1
 70
0
  0
VERTEX
  8
0
 62
7
  6
CONTINUOUS
 10
169.1594887709
 20
121.6586284763
  0
VERTEX
  8
0
 62
7
  6
CONTINUOUS
 10
170.7602915152
 20
121.9841343466
  0
VERTEX
  8
0
 62
7
  6
CONTINUOUS
 10
172.2442395088
 20
122.5391207242
  0
VERTEX
  8
0
 62
7
  6
CONTINUOUS
 10
173.5346880455
 20
123.2565203702
  0
VERTEX
  8
0
 62
7
  6
CONTINUOUS
 10
174.6399853372
 20
124.0917167331
  0
VERTEX
  8
0
 62
7
  6
CONTINUOUS
 10
175.5725230582
 20
125.0117492301
  0
VERTEX
  8
0
 62
7
  6
CONTINUOUS
 10
176.3426019677
 20
125.9887881078
  0
VERTEX
  8
0
 62
7
  6
CONTINUOUS
 10
176.6676935402
 20
126.4874712531
  0
VERTEX
  8
0
 62
7
  6
CONTINUOUS
 10
177.2026850525
 20
127.4820718208
  0
VERTEX
  8
0
 62
7
  6
CONTINUOUS
 10
177.5991962896
 20
128.4549738793
  0
VERTEX
  8
0
 62
7
  6
CONTINUOUS
 10
177.8115745765
 20
129.1401109031
  0
SEQEND
  0
LINE
  8
0
 62
7
  6
CONTINUOUS
 10
168.7846171121
 20
121.6201764298
 11
169.1594638273
 21
121.6586254499
  0
POLYLINE
  8
0
 62
7
  6
CONTINUOUS
 66
1
 70
0
  0
VERTEX
  8
0
 62
7
  6
CONTINUOUS
 10
158.6655128127
 20
121.304959145
  0
VERTEX
  8
0
 62
7
  6
CONTINUOUS
 10
160.7924442427
 20
121.5154525198
  0
VERTEX
  8
0
 62
7
  6
CONTINUOUS
 10
162.6127866841
 20
121.5732514274
  0
SEQEND
  0
POLYLINE
  8
0
 62
7
  6
CONTINUOUS
 66
1
 70
0
  0
VERTEX
  8
0
 62
7
  6
CONTINUOUS
 10
167.9652391342
 20
121.5845707157
  0
VERTEX
  8
0
 62
7
  6
CONTINUOUS
 10
168.338940425
 20
121.5926048456
  0
VERTEX
  8
0
 62
7
  6
CONTINUOUS
 10
168.7846171121
 20
121.6201764298
  0
SEQEND
  0
POLYLINE
  8
0
 62
7
  6
CONTINUOUS
 66
1
 70
0
  0
VERTEX
  8
0
 62
7
  6
CONTINUOUS
 10
162.6127883512
 20
121.5732514294
  0
VERTEX
  8
0
 62
7
  6
CONTINUOUS
 10
165.3759361309
 20
121.577824819
  0
VERTEX
  8
0
 62
7
  6
CONTINUOUS
 10
167.9652401498
 20
121.5845707189
  0
SEQEND
  0
LINE
  8
CENTER_AXER
 62
2
  6
CENTER
 10
158.9665983607
 20
29.7612704918
 11
158.9665983607
 21
153.7612704918
  0
POLYLINE
  8
0
 62
7
  6
CONTINUOUS
 66
1
 70
0
  0
VERTEX
  8
0
 62
7
  6
CONTINUOUS
 10
177.8115604315
 20
129.1400579068
  0
VERTEX
  8
0
 62
7
  6
CONTINUOUS
 10
177.75833719
 20
128.951494852
  0
VERTEX
  8
0
 62
7
  6
CONTINUOUS
 10
177.3050511478
 20
127.7075091826
  0
VERTEX
  8
0
 62
7
  6
CONTINUOUS
 10
176.9609653614
 20
126.9998817753
  0
VERTEX
  8
0
 62
7
  6
CONTINUOUS
 10
175.9203449435
 20
125.4230929786
  0
VERTEX
  8
0
 62
7
  6
CONTINUOUS
 10
174.3798190132
 20
123.873422196
  0
VERTEX
  8
0
 62
7
  6
CONTINUOUS
 10
172.4814321997
 20
122.6531770395
  0
VERTEX
  8
0
 62
7
  6
CONTINUOUS
 10
170.3070798172
 20
121.8647746393
  0
VERTEX
  8
0
 62
7
  6
CONTINUOUS
 10
169.1593936917
 20
121.6590166557
  0
SEQEND
  0
POLYLINE
  8
0
 62
7
  6
CONTINUOUS
 66
1
 70
0
  0
VERTEX
  8
0
 62
7
  6
CONTINUOUS
 10
177.8138304002
 20
54.3741193082
  0
VERTEX
  8
0
 62
7
  6
CONTINUOUS
 10
177.62856661
 20
54.9821662667
  0
VERTEX
  8
0
 62
7
  6
CONTINUOUS
 10
177.2532790119
 20
55.9308587224
  0
VERTEX
  8
0
 62
7
  6
CONTINUOUS
 10
176.7484677914
 20
56.9006230665
  0
VERTEX
  8
0
 62
7
  6
CONTINUOUS
 10
176.0972492962
 20
57.8722755861
  0
VERTEX
  8
0
 62
7
  6
CONTINUOUS
 10
175.2898997064
 20
58.8150999651
  0
VERTEX
  8
0
 62
7
  6
CONTINUOUS
 10
174.3233432507
 20
59.6946253306
  0
VERTEX
  8
0
 62
7
  6
CONTINUOUS
 10
173.2030658313
 20
60.4741043598
  0
VERTEX
  8
0
 62
7
  6
CONTINUOUS
 10
171.9421084105
 20
61.1180351904
  0
VERTEX
  8
0
 62
7
  6
CONTINUOUS
 10
170.5612415457
 20
61.5935782372
  0
VERTEX
  8
0
 62
7
  6
CONTINUOUS
 10
169.1594888954
 20
61.8639124922
  0
SEQEND
  0
POLYLINE
  8
0
 62
7
  6
CONTINUOUS
 66
1
 70
0
  0
VERTEX
  8
0
 62
7
  6
CONTINUOUS
 10
177.8138169584
 20
54.3741714594
  0
VERTEX
  8
0
 62
7
  6
CONTINUOUS
 10
177.758800998
 20
54.5694606868
  0
VERTEX
  8
0
 62
7
  6
CONTINUOUS
 10
177.3060090931
 20
55.8128518977
  0
VERTEX
  8
0
 62
7
  6
CONTINUOUS
 10
176.9622930034
 20
56.5201753914
  0
VERTEX
  8
0
 62
7
  6
CONTINUOUS
 10
175.9227274134
 20
58.0964743611
  0
VERTEX
  8
0
 62
7
  6
CONTINUOUS
 10
174.3821294084
 20
59.6472438557
  0
VERTEX
  8
0
 62
7
  6
CONTINUOUS
 10
172.4830698507
 20
60.8685504144
  0
VERTEX
  8
0
 62
7
  6
CONTINUOUS
 10
170.3077372076
 20
61.657609143
  0
VERTEX
  8
0
 62
7
  6
CONTINUOUS
 10
169.1593921895
 20
61.8635243834
  0
SEQEND
  0
POLYLINE
  8
0
 62
7
  6
CONTINUOUS
 66
1
 70
0
  0
VERTEX
  8
0
 62
7
  6
CONTINUOUS
 10
178.1695983607
 20
51.7027908893
  0
VERTEX
  8
0
 62
7
  6
CONTINUOUS
 10
178.1653314331
 20
51.9977903172
  0
VERTEX
  8
0
 62
7
  6
CONTINUOUS
 10
178.1215938533
 20
52.691234272
  0
VERTEX
  8
0
 62
7
  6
CONTINUOUS
 10
178.0030746353
 20
53.5387053533
  0
VERTEX
  8
0
 62
7
  6
CONTINUOUS
 10
177.8138169584
 20
54.3741714594
  0
SEQEND
  0
LINE
  8
0
 62
7
  6
CONTINUOUS
 10
178.1695983607
 20
145.2938057594
 11
178.1695983607
 21
131.8197500943
  0
LINE
  8
0
 62
7
  6
CONTINUOUS
 10
178.1695983607
 20
51.7027908893
 11
178.1695983607
 21
38.2287352242
  0
POLYLINE
  8
0
 62
7
  6
CONTINUOUS
 66
1
 70
0
  0
VERTEX
  8
0
 62
7
  6
CONTINUOUS
 10
178.1695983607
 20
131.8197500943
  0
VERTEX
  8
0
 62
7
  6
CONTINUOUS
 10
178.1653248472
 20
131.5245231412
  0
VERTEX
  8
0
 62
7
  6
CONTINUOUS
 10
178.1215374092
 20
130.8307270037
  0
VERTEX
  8
0
 62
7
  6
CONTINUOUS
 10
178.0028826904
 20
129.9827862031
  0
VERTEX
  8
0
 62
7
  6
CONTINUOUS
 10
177.8115604315
 20
129.1400579068
  0
SEQEND
  0
LINE
  8
0
 62
7
  6
CONTINUOUS
 10
118.9470893235
 20
148.2750085831
 11
173.3609382033
 21
148.3542663272
  0
POLYLINE
  8
0
 62
7
  6
CONTINUOUS
 66
1
 70
0
  0
VERTEX
  8
0
 62
7
  6
CONTINUOUS
 10
175.3422916652
 20
148.2921006015
  0
VERTEX
  8
0
 62
7
  6
CONTINUOUS
 10
174.689175365
 20
148.3330931197
  0
VERTEX
  8
0
 62
7
  6
CONTINUOUS
 10
174.0275925373
 20
148.3506584245
  0
VERTEX
  8
0
 62
7
  6
CONTINUOUS
 10
173.3609382033
 20
148.3542663272
  0
SEQEND
  0
POLYLINE
  8
0
 62
7
  6
CONTINUOUS
 66
1
 70
0
  0
VERTEX
  8
0
 62
7
  6
CONTINUOUS
 10
176.8005484561
 20
147.8457659556
  0
VERTEX
  8
0
 62
7
  6
CONTINUOUS
 10
176.3078362872
 20
148.0922646556
  0
VERTEX
  8
0
 62
7
  6
CONTINUOUS
 10
175.7960548995
 20
148.2307782877
  0
VERTEX
  8
0
 62
7
  6
CONTINUOUS
 10
175.3422916652
 20
148.2921006015
  0
SEQEND
  0
LINE
  8
0
 62
7
  6
CONTINUOUS
 10
273.7413848595
 20
231.6852868852
 11
273.7413848595
 21
228.4159868852
  0
POLYLINE
  8
0
 62
7
  6
CONTINUOUS
 66
1
 70
0
  0
VERTEX
  8
0
 62
7
  6
CONTINUOUS
 10
273.6989980972
 20
226.7683030851
  0
VERTEX
  8
0
 62
7
  6
CONTINUOUS
 10
273.7002601094
 20
227.9683734431
  0
VERTEX
  8
0
 62
7
  6
CONTINUOUS
 10
273.701377861
 20
228.3125313194
  0
VERTEX
  8
0
 62
7
  6
CONTINUOUS
 10
273.7023234868
 20
228.4159868852
  0
SEQEND
  0
LINE
  8
0
 62
7
  6
CONTINUOUS
 10
273.662116819
 20
226.7684750617
 11
273.6620810656
 21
226.7608075634
  0
LINE
  8
0
 62
7
  6
CONTINUOUS
 10
273.6659044293
 20
227.522016158
 11
273.6652281903
 21
227.3951669141
  0
LINE
  8
0
 62
7
  6
CONTINUOUS
 10
273.6784081255
 20
231.2763308775
 11
273.6659044293
 21
227.522016158
  0
LINE
  8
0
 62
7
  6
CONTINUOUS
 10
273.783001153
 20
202.1107909571
 11
273.6920866106
 21
191.6930162635
  0
LINE
  8
0
 62
7
  6
CONTINUOUS
 10
273.6809012729
 20
231.5783625979
 11
273.6784081255
 21
231.2763308775
  0
LINE
  8
0
 62
7
  6
CONTINUOUS
 10
273.7151077094
 20
232.1211972349
 11
273.6839308189
 21
231.6852868852
  0
POLYLINE
  8
0
 62
7
  6
CONTINUOUS
 66
1
 70
0
  0
VERTEX
  8
0
 62
7
  6
CONTINUOUS
 10
273.7242928411
 20
226.2574545189
  0
VERTEX
  8
0
 62
7
  6
CONTINUOUS
 10
273.6833003229
 20
226.4623264482
  0
VERTEX
  8
0
 62
7
  6
CONTINUOUS
 10
273.6657350181
 20
226.6318957308
  0
VERTEX
  8
0
 62
7
  6
CONTINUOUS
 10
273.6620803534
 20
226.7609860338
  0
SEQEND
  0
LINE
  8
0
 62
7
  6
CONTINUOUS
 10
284.7051229508
 20
219.9358081235
 11
284.7164901149
 21
217.8945141221
  0
LINE
  8
0
 62
7
  6
CONTINUOUS
 10
284.7164901149
 20
217.8945141221
 11
284.7213183569
 21
216.4702868852
  0
LINE
  8
0
 62
7
  6
CONTINUOUS
 10
284.7051229508
 20
223.6381581392
 11
284.7051229508
 21
219.9358081235
  0
LINE
  8
0
 62
7
  6
CONTINUOUS
 10
284.7051229508
 20
213.004765647
 11
284.7051229508
 21
205.2936207909
  0
LINE
  8
0
 62
7
  6
CONTINUOUS
 10
284.7051229508
 20
213.0452499935
 11
284.7051229508
 21
219.9298475862
  0
POLYLINE
  8
0
 62
7
  6
CONTINUOUS
 66
1
 70
0
  0
VERTEX
  8
0
 62
7
  6
CONTINUOUS
 10
284.7213183569
 20
216.4702868852
  0
VERTEX
  8
0
 62
7
  6
CONTINUOUS
 10
284.716491601
 20
215.0462982292
  0
VERTEX
  8
0
 62
7
  6
CONTINUOUS
 10
284.7051229508
 20
213.004765647
  0
SEQEND
  0
POLYLINE
  8
0
 62
7
  6
CONTINUOUS
 66
1
 70
0
  0
VERTEX
  8
0
 62
7
  6
CONTINUOUS
 10
274.170627487
 20
225.4152197858
  0
VERTEX
  8
0
 62
7
  6
CONTINUOUS
 10
273.9241287871
 20
225.7607655802
  0
VERTEX
  8
0
 62
7
  6
CONTINUOUS
 10
273.785615155
 20
226.0598792227
  0
VERTEX
  8
0
 62
7
  6
CONTINUOUS
 10
273.7242928411
 20
226.2574545189
  0
SEQEND
  0
POLYLINE
  8
CURVE_RUNDING
 62
7
  6
CONTINUOUS
 66
1
 70
0
  0
VERTEX
  8
CURVE_RUNDING
 62
7
  6
CONTINUOUS
 10
302.0293617786
 20
200.0125330115
  0
VERTEX
  8
CURVE_RUNDING
 62
7
  6
CONTINUOUS
 10
302.3966141688
 20
199.0488387364
  0
VERTEX
  8
CURVE_RUNDING
 62
7
  6
CONTINUOUS
 10
302.9162124518
 20
198.2179996379
  0
VERTEX
  8
CURVE_RUNDING
 62
7
  6
CONTINUOUS
 10
303.2247180531
 20
197.8730499685
  0
VERTEX
  8
CURVE_RUNDING
 62
7
  6
CONTINUOUS
 10
303.9100467437
 20
197.3585990936
  0
VERTEX
  8
CURVE_RUNDING
 62
7
  6
CONTINUOUS
 10
304.634792303
 20
197.1035721486
  0
VERTEX
  8
CURVE_RUNDING
 62
7
  6
CONTINUOUS
 10
304.9872136674
 20
197.0732869399
  0
SEQEND
  0
POLYLINE
  8
0
 62
7
  6
CONTINUOUS
 66
1
 70
0
  0
VERTEX
  8
0
 62
7
  6
CONTINUOUS
 10
301.9251280683
 20
200.8055423997
  0
VERTEX
  8
0
 62
7
  6
CONTINUOUS
 10
301.9403605753
 20
200.5011445552
  0
VERTEX
  8
0
 62
7
  6
CONTINUOUS
 10
302.003987337
 20
200.1165095078
  0
SEQEND
  0
LINE
  8
0
 62
7
  6
CONTINUOUS
 10
301.9251229508
 20
229.2733004098
 11
301.9251229508
 21
222.1392868852
  0
LINE
  8
0
 62
7
  6
CONTINUOUS
 10
301.9251229508
 20
209.1112868852
 11
301.9251229508
 21
200.8049211143
  0
LINE
  8
0
 62
7
  6
CONTINUOUS
 10
301.9251229536
 20
229.2756225354
 11
301.9251230702
 21
229.2762155275
  0
LINE
  8
0
 62
7
  6
CONTINUOUS
 10
300.2294600906
 20
191.650249128
 11
300.2549800139
 21
196.5241509178
  0
LINE
  8
0
 62
7
  6
CONTINUOUS
 10
383.7552759207
 20
188.6032868852
 11
363.3437438242
 21
188.6032868852
  0
LINE
  8
0
 62
7
  6
CONTINUOUS
 10
297.1665020774
 20
188.6032868852
 11
276.754969981
 21
188.6032868852
  0
LINE
  8
CURVE_RUNDING
 62
7
  6
CONTINUOUS
 10
302.054069255
 20
199.9281032457
 11
302.0293617786
 21
200.0125330115
  0
LINE
  8
0
 62
7
  6
CONTINUOUS
 10
302.003987337
 20
200.1165095078
 11
302.0540635537
 21
199.9280917074
  0
LINE
  8
0
 62
7
  6
CONTINUOUS
 10
305.9088404089
 20
215.3902868852
 11
305.9088404089
 21
215.8602868852
  0
LINE
  8
0
 62
7
  6
CONTINUOUS
 10
306.0033270463
 20
215.8602868852
 11
306.0033270463
 21
215.3902868852
  0
POLYLINE
  8
0
 62
7
  6
CONTINUOUS
 66
1
 70
0
  0
VERTEX
  8
0
 62
7
  6
CONTINUOUS
 10
300.2549803655
 20
196.5242196308
  0
VERTEX
  8
0
 62
7
  6
CONTINUOUS
 10
300.2935602142
 20
196.7631138716
  0
VERTEX
  8
0
 62
7
  6
CONTINUOUS
 10
300.4002754764
 20
196.9593233777
  0
VERTEX
  8
0
 62
7
  6
CONTINUOUS
 10
300.4572359057
 20
197.0168493543
  0
VERTEX
  8
0
 62
7
  6
CONTINUOUS
 10
300.5474242898
 20
197.0695260336
  0
SEQEND
  0
POLYLINE
  8
0
 62
7
  6
CONTINUOUS
 66
1
 70
0
  0
VERTEX
  8
0
 62
7
  6
CONTINUOUS
 10
305.5386287591
 20
212.2599286774
  0
VERTEX
  8
0
 62
7
  6
CONTINUOUS
 10
305.769399203
 20
213.2922782851
  0
VERTEX
  8
0
 62
7
  6
CONTINUOUS
 10
305.848444831
 20
213.9691870105
  0
VERTEX
  8
0
 62
7
  6
CONTINUOUS
 10
305.9088404089
 20
215.3902868852
  0
SEQEND
  0
POLYLINE
  8
0
 62
7
  6
CONTINUOUS
 66
1
 70
0
  0
VERTEX
  8
0
 62
7
  6
CONTINUOUS
 10
385.9211439915
 20
191.6662868852
  0
VERTEX
  8
0
 62
7
  6
CONTINUOUS
 10
386.4078862723
 20
191.6760704819
  0
VERTEX
  8
0
 62
7
  6
CONTINUOUS
 10
386.7138455237
 20
191.6851876339
  0
VERTEX
  8
0
 62
7
  6
CONTINUOUS
 10
386.818159291
 20
191.6930162635
  0
SEQEND
  0
POLYLINE
  8
0
 62
7
  6
CONTINUOUS
 66
1
 70
0
  0
VERTEX
  8
0
 62
7
  6
CONTINUOUS
 10
274.5891019102
 20
191.6662868852
  0
VERTEX
  8
0
 62
7
  6
CONTINUOUS
 10
274.1023844357
 20
191.6760702557
  0
VERTEX
  8
0
 62
7
  6
CONTINUOUS
 10
273.796387316
 20
191.6851878462
  0
VERTEX
  8
0
 62
7
  6
CONTINUOUS
 10
273.6920866106
 20
191.6930162635
  0
SEQEND
  0
POLYLINE
  8
0
 62
7
  6
CONTINUOUS
 66
1
 70
0
  0
VERTEX
  8
0
 62
7
  6
CONTINUOUS
 10
305.5386287591
 20
218.9906450931
  0
VERTEX
  8
0
 62
7
  6
CONTINUOUS
 10
305.769399203
 20
217.9582954854
  0
VERTEX
  8
0
 62
7
  6
CONTINUOUS
 10
305.848444831
 20
217.28138676
  0
VERTEX
  8
0
 62
7
  6
CONTINUOUS
 10
305.9088404089
 20
215.8602868852
  0
SEQEND
  0
POLYLINE
  8
CURVE_RUNDING
 62
7
  6
CONTINUOUS
 66
1
 70
0
  0
VERTEX
  8
CURVE_RUNDING
 62
7
  6
CONTINUOUS
 10
355.5230322343
 20
197.0732869399
  0
VERTEX
  8
CURVE_RUNDING
 62
7
  6
CONTINUOUS
 10
355.8754535986
 20
197.1035721486
  0
VERTEX
  8
CURVE_RUNDING
 62
7
  6
CONTINUOUS
 10
356.6001991581
 20
197.3585990937
  0
VERTEX
  8
CURVE_RUNDING
 62
7
  6
CONTINUOUS
 10
357.2855278487
 20
197.8730499687
  0
VERTEX
  8
CURVE_RUNDING
 62
7
  6
CONTINUOUS
 10
357.5940334501
 20
198.2179996381
  0
VERTEX
  8
CURVE_RUNDING
 62
7
  6
CONTINUOUS
 10
358.113631733
 20
199.0488387367
  0
SEQEND
  0
POLYLINE
  8
0
 62
7
  6
CONTINUOUS
 66
1
 70
0
  0
VERTEX
  8
0
 62
7
  6
CONTINUOUS
 10
327.3193919431
 20
197.0732766213
  0
VERTEX
  8
0
 62
7
  6
CONTINUOUS
 10
330.251533139
 20
197.0759029095
  0
VERTEX
  8
0
 62
7
  6
CONTINUOUS
 10
333.1897206428
 20
197.0732766526
  0
SEQEND
  0
LINE
  8
0
 62
7
  6
CONTINUOUS
 10
366.7051528762
 20
197.0732868852
 11
355.5230037946
 21
197.0732868852
  0
LINE
  8
CURVE_RUNDING
 62
7
  6
CONTINUOUS
 10
355.5230037946
 20
197.0732868852
 11
340.907691129
 21
197.0732868852
  0
LINE
  8
0
 62
7
  6
CONTINUOUS
 10
340.907691129
 20
197.0732868852
 11
333.1908533841
 21
197.0732868852
  0
LINE
  8
0
 62
7
  6
CONTINUOUS
 10
327.3193925175
 20
197.0732868852
 11
319.6025547727
 21
197.0732868852
  0
LINE
  8
0
 62
7
  6
CONTINUOUS
 10
304.9872421071
 20
197.0732868852
 11
293.8050930255
 21
197.0732868852
  0
LINE
  8
CURVE_RUNDING
 62
7
  6
CONTINUOUS
 10
304.9872421071
 20
197.0732868852
 11
319.6025547727
 21
197.0732868852
  0
LINE
  8
0
 62
7
  6
CONTINUOUS
 10
340.5616843078
 20
200.8084774212
 11
339.1172393075
 21
200.6394983722
  0
POLYLINE
  8
0
 62
7
  6
CONTINUOUS
 66
1
 70
0
  0
VERTEX
  8
0
 62
7
  6
CONTINUOUS
 10
319.9485422126
 20
200.8084900767
  0
VERTEX
  8
0
 62
7
  6
CONTINUOUS
 10
320.4287415912
 20
200.7388800463
  0
VERTEX
  8
0
 62
7
  6
CONTINUOUS
 10
320.9094116369
 20
200.6822024689
  0
VERTEX
  8
0
 62
7
  6
CONTINUOUS
 10
321.3926894733
 20
200.6393466682
  0
SEQEND
  0
POLYLINE
  8
0
 62
7
  6
CONTINUOUS
 66
1
 70
0
  0
VERTEX
  8
0
 62
7
  6
CONTINUOUS
 10
319.4410193526
 20
202.4653038148
  0
VERTEX
  8
0
 62
7
  6
CONTINUOUS
 10
319.6044764753
 20
201.7683467112
  0
VERTEX
  8
0
 62
7
  6
CONTINUOUS
 10
319.7074612877
 20
201.4322219689
  0
VERTEX
  8
0
 62
7
  6
CONTINUOUS
 10
319.9485422126
 20
200.8084900767
  0
SEQEND
  0
LINE
  8
0
 62
7
  6
CONTINUOUS
 10
275.789285586
 20
204.1346603652
 11
285.4089794947
 21
204.3025727469
  0
LINE
  8
0
 62
7
  6
CONTINUOUS
 10
375.1012664221
 20
204.3025727467
 11
384.7209603156
 21
204.1346603652
  0
LINE
  8
0
 62
7
  6
CONTINUOUS
 10
359.9525519266
 20
197.0732868852
 11
359.9781613575
 21
197.0646213268
  0
LINE
  8
0
 62
7
  6
CONTINUOUS
 10
340.5616843078
 20
200.8084774212
 11
341.1718974714
 21
200.4677063326
  0
LINE
  8
0
 62
7
  6
CONTINUOUS
 10
358.5851073168
 20
209.1112868852
 11
357.2022274348
 21
209.1112868852
  0
LINE
  8
0
 62
7
  6
CONTINUOUS
 10
303.3080184668
 20
209.1112868852
 11
301.9251385849
 21
209.1112868852
  0
LINE
  8
0
 62
7
  6
CONTINUOUS
 10
341.1718974714
 20
200.4677063326
 11
341.368166946
 21
200.3168619083
  0
LINE
  8
CENTER_AXER
 62
2
  6
CENTER
 10
330.2551229508
 20
179.4702868852
 11
330.2551229508
 21
253.4702868852
  0
POLYLINE
  8
0
 62
7
  6
CONTINUOUS
 66
1
 70
0
  0
VERTEX
  8
0
 62
7
  6
CONTINUOUS
 10
303.3080184668
 20
209.1112868852
  0
VERTEX
  8
0
 62
7
  6
CONTINUOUS
 10
303.8184604291
 20
209.2947005481
  0
VERTEX
  8
0
 62
7
  6
CONTINUOUS
 10
304.382781359
 20
209.8435313643
  0
VERTEX
  8
0
 62
7
  6
CONTINUOUS
 10
304.9443743737
 20
210.7287505998
  0
VERTEX
  8
0
 62
7
  6
CONTINUOUS
 10
305.2009921931
 20
211.2742000998
  0
VERTEX
  8
0
 62
7
  6
CONTINUOUS
 10
305.6324936414
 20
212.5339668185
  0
VERTEX
  8
0
 62
7
  6
CONTINUOUS
 10
305.9092752331
 20
213.9355128037
  0
VERTEX
  8
0
 62
7
  6
CONTINUOUS
 10
306.0033270463
 20
215.3902868852
  0
SEQEND
  0
LINE
  8
CENTER_AXER
 62
2
  6
CENTER
 10
268.2551229508
 20
216.4702868852
 11
392.2551229508
 21
216.4702868852
  0
POLYLINE
  8
0
 62
7
  6
CONTINUOUS
 66
1
 70
0
  0
VERTEX
  8
0
 62
7
  6
CONTINUOUS
 10
275.6343096247
 20
224.7294466739
  0
VERTEX
  8
0
 62
7
  6
CONTINUOUS
 10
275.1273081349
 20
224.8093349778
  0
VERTEX
  8
0
 62
7
  6
CONTINUOUS
 10
274.6269597415
 20
225.0312746943
  0
VERTEX
  8
0
 62
7
  6
CONTINUOUS
 10
274.1706261765
 20
225.4152208897
  0
SEQEND
  0
POLYLINE
  8
0
 62
7
  6
CONTINUOUS
 66
1
 70
0
  0
VERTEX
  8
0
 62
7
  6
CONTINUOUS
 10
275.7211938071
 20
224.728380762
  0
VERTEX
  8
0
 62
7
  6
CONTINUOUS
 10
275.0950801162
 20
224.8325935066
  0
VERTEX
  8
0
 62
7
  6
CONTINUOUS
 10
274.5312923928
 20
225.124207859
  0
VERTEX
  8
0
 62
7
  6
CONTINUOUS
 10
274.0844260683
 20
225.5749913904
  0
VERTEX
  8
0
 62
7
  6
CONTINUOUS
 10
273.7977430035
 20
226.1413030086
  0
VERTEX
  8
0
 62
7
  6
CONTINUOUS
 10
273.6989980972
 20
226.7683030851
  0
SEQEND
  0
POLYLINE
  8
0
 62
7
  6
CONTINUOUS
 66
1
 70
0
  0
VERTEX
  8
0
 62
7
  6
CONTINUOUS
 10
303.3080184668
 20
222.1392868852
  0
VERTEX
  8
0
 62
7
  6
CONTINUOUS
 10
303.8184604291
 20
221.9558732224
  0
VERTEX
  8
0
 62
7
  6
CONTINUOUS
 10
304.382781359
 20
221.4070424062
  0
VERTEX
  8
0
 62
7
  6
CONTINUOUS
 10
304.9443743737
 20
220.5218231707
  0
VERTEX
  8
0
 62
7
  6
CONTINUOUS
 10
305.2009921931
 20
219.9763736706
  0
VERTEX
  8
0
 62
7
  6
CONTINUOUS
 10
305.6324936414
 20
218.716606952
  0
VERTEX
  8
0
 62
7
  6
CONTINUOUS
 10
305.9092752331
 20
217.3150609668
  0
VERTEX
  8
0
 62
7
  6
CONTINUOUS
 10
306.0033270463
 20
215.8602868852
  0
SEQEND
  0
POLYLINE
  8
0
 62
7
  6
CONTINUOUS
 66
1
 70
0
  0
VERTEX
  8
0
 62
7
  6
CONTINUOUS
 10
357.2022274348
 20
222.1392868852
  0
VERTEX
  8
0
 62
7
  6
CONTINUOUS
 10
356.6917854725
 20
221.9558732224
  0
VERTEX
  8
0
 62
7
  6
CONTINUOUS
 10
356.1274645426
 20
221.4070424062
  0
VERTEX
  8
0
 62
7
  6
CONTINUOUS
 10
355.565871528
 20
220.5218231707
  0
VERTEX
  8
0
 62
7
  6
CONTINUOUS
 10
355.3092537086
 20
219.9763736706
  0
VERTEX
  8
0
 62
7
  6
CONTINUOUS
 10
354.8777522603
 20
218.716606952
  0
VERTEX
  8
0
 62
7
  6
CONTINUOUS
 10
354.6009706686
 20
217.3150609668
  0
VERTEX
  8
0
 62
7
  6
CONTINUOUS
 10
354.5069188553
 20
215.8602868852
  0
SEQEND
  0
POLYLINE
  8
0
 62
7
  6
CONTINUOUS
 66
1
 70
0
  0
VERTEX
  8
0
 62
7
  6
CONTINUOUS
 10
357.2022274348
 20
209.1112868852
  0
VERTEX
  8
0
 62
7
  6
CONTINUOUS
 10
356.6917854725
 20
209.2947005481
  0
VERTEX
  8
0
 62
7
  6
CONTINUOUS
 10
356.1274645426
 20
209.8435313643
  0
VERTEX
  8
0
 62
7
  6
CONTINUOUS
 10
355.565871528
 20
210.7287505998
  0
VERTEX
  8
0
 62
7
  6
CONTINUOUS
 10
355.3092537086
 20
211.2742000998
  0
VERTEX
  8
0
 62
7
  6
CONTINUOUS
 10
354.8777522603
 20
212.5339668185
  0
VERTEX
  8
0
 62
7
  6
CONTINUOUS
 10
354.6009706686
 20
213.9355128037
  0
VERTEX
  8
0
 62
7
  6
CONTINUOUS
 10
354.5069188553
 20
215.3902868852
  0
SEQEND
  0
POLYLINE
  8
0
 62
7
  6
CONTINUOUS
 66
1
 70
0
  0
VERTEX
  8
0
 62
7
  6
CONTINUOUS
 10
359.9781613575
 20
197.0646213268
  0
VERTEX
  8
0
 62
7
  6
CONTINUOUS
 10
360.0965669126
 20
196.9747724671
  0
VERTEX
  8
0
 62
7
  6
CONTINUOUS
 10
360.2107354892
 20
196.7801593925
  0
VERTEX
  8
0
 62
7
  6
CONTINUOUS
 10
360.2552657833
 20
196.5241709988
  0
SEQEND
  0
POLYLINE
  8
0
 62
7
  6
CONTINUOUS
 66
1
 70
0
  0
VERTEX
  8
0
 62
7
  6
CONTINUOUS
 10
319.9485422126
 20
200.8084900767
  0
VERTEX
  8
0
 62
7
  6
CONTINUOUS
 10
319.3676446221
 20
200.484827671
  0
VERTEX
  8
0
 62
7
  6
CONTINUOUS
 10
319.1483344573
 20
200.3169519482
  0
SEQEND
  0
LINE
  8
0
 62
7
  6
CONTINUOUS
 10
376.4134232287
 20
224.6555954413
 11
384.8348941505
 21
224.7290885047
  0
LINE
  8
0
 62
7
  6
CONTINUOUS
 10
358.5851073168
 20
222.1392868852
 11
357.2022274348
 21
222.1392868852
  0
LINE
  8
0
 62
7
  6
CONTINUOUS
 10
303.3080184668
 20
222.1392868852
 11
301.9251385849
 21
222.1392868852
  0
LINE
  8
0
 62
7
  6
CONTINUOUS
 10
275.6343096247
 20
224.7294466739
 11
284.096822673
 21
224.6555954413
  0
POLYLINE
  8
0
 62
7
  6
CONTINUOUS
 66
1
 70
0
  0
VERTEX
  8
0
 62
7
  6
CONTINUOUS
 10
341.0692780263
 20
202.4652969585
  0
VERTEX
  8
0
 62
7
  6
CONTINUOUS
 10
340.9057814817
 20
201.7683467863
  0
VERTEX
  8
0
 62
7
  6
CONTINUOUS
 10
340.8027908176
 20
201.4322161055
  0
VERTEX
  8
0
 62
7
  6
CONTINUOUS
 10
340.5616843078
 20
200.8084774212
  0
SEQEND
  0
LINE
  8
0
 62
7
  6
CONTINUOUS
 10
273.7023234868
 20
228.4159868852
 11
301.9251229508
 21
228.4159868852
  0
LINE
  8
0
 62
7
  6
CONTINUOUS
 10
358.5851229508
 20
228.4159868852
 11
386.8079224148
 21
228.4159868852
  0
LINE
  8
0
 62
7
  6
CONTINUOUS
 10
276.7383509223
 20
234.7482748775
 11
383.7633183319
 21
234.7482868852
  0
LINE
  8
0
 62
7
  6
CONTINUOUS
 10
383.7633183319
 20
234.7482868852
 11
383.7701513341
 21
234.7482792636
  0
POLYLINE
  8
0
 62
7
  6
CONTINUOUS
 66
1
 70
0
  0
VERTEX
  8
0
 62
7
  6
CONTINUOUS
 10
354.9716171425
 20
218.9906450931
  0
VERTEX
  8
0
 62
7
  6
CONTINUOUS
 10
354.7408466987
 20
217.9582954854
  0
VERTEX
  8
0
 62
7
  6
CONTINUOUS
 10
354.6618010707
 20
217.28138676
  0
VERTEX
  8
0
 62
7
  6
CONTINUOUS
 10
354.6014054927
 20
215.8602868852
  0
SEQEND
  0
POLYLINE
  8
0
 62
7
  6
CONTINUOUS
 66
1
 70
0
  0
VERTEX
  8
0
 62
7
  6
CONTINUOUS
 10
306.4770516769
 20
234.7482875768
  0
VERTEX
  8
0
 62
7
  6
CONTINUOUS
 10
305.3460996367
 20
234.5775113277
  0
VERTEX
  8
0
 62
7
  6
CONTINUOUS
 10
304.2631079507
 20
234.0690750464
  0
VERTEX
  8
0
 62
7
  6
CONTINUOUS
 10
303.3323274607
 20
233.266186855
  0
VERTEX
  8
0
 62
7
  6
CONTINUOUS
 10
302.9470285476
 20
232.7769043194
  0
VERTEX
  8
0
 62
7
  6
CONTINUOUS
 10
302.3609275535
 20
231.6750534428
  0
VERTEX
  8
0
 62
7
  6
CONTINUOUS
 10
302.0252552728
 20
230.469697173
  0
VERTEX
  8
0
 62
7
  6
CONTINUOUS
 10
301.9251195763
 20
229.2761130607
  0
SEQEND
  0
POLYLINE
  8
0
 62
7
  6
CONTINUOUS
 66
1
 70
0
  0
VERTEX
  8
0
 62
7
  6
CONTINUOUS
 10
276.7383509223
 20
234.7482748775
  0
VERTEX
  8
0
 62
7
  6
CONTINUOUS
 10
276.3110176825
 20
234.7171099617
  0
VERTEX
  8
0
 62
7
  6
CONTINUOUS
 10
275.4745127347
 20
234.471489687
  0
VERTEX
  8
0
 62
7
  6
CONTINUOUS
 10
274.7410912694
 20
234.0001478315
  0
VERTEX
  8
0
 62
7
  6
CONTINUOUS
 10
274.4320690791
 20
233.6911253133
  0
VERTEX
  8
0
 62
7
  6
CONTINUOUS
 10
273.9607277235
 20
232.9577030701
  0
VERTEX
  8
0
 62
7
  6
CONTINUOUS
 10
273.7151077094
 20
232.1211972349
  0
SEQEND
  0
POLYLINE
  8
0
 62
7
  6
CONTINUOUS
 66
1
 70
0
  0
VERTEX
  8
0
 62
7
  6
CONTINUOUS
 10
276.8043816103
 20
234.7482868852
  0
VERTEX
  8
0
 62
7
  6
CONTINUOUS
 10
276.3684717231
 20
234.7171099617
  0
VERTEX
  8
0
 62
7
  6
CONTINUOUS
 10
275.5319667752
 20
234.471489687
  0
VERTEX
  8
0
 62
7
  6
CONTINUOUS
 10
274.79854531
 20
234.0001478315
  0
VERTEX
  8
0
 62
7
  6
CONTINUOUS
 10
274.4895231196
 20
233.6911253133
  0
VERTEX
  8
0
 62
7
  6
CONTINUOUS
 10
274.0181817641
 20
232.9577030701
  0
VERTEX
  8
0
 62
7
  6
CONTINUOUS
 10
273.77256175
 20
232.1211972349
  0
VERTEX
  8
0
 62
7
  6
CONTINUOUS
 10
273.7413848595
 20
231.6852868852
  0
SEQEND
  0
POLYLINE
  8
0
 62
7
  6
CONTINUOUS
 66
1
 70
0
  0
VERTEX
  8
0
 62
7
  6
CONTINUOUS
 10
276.7383509223
 20
234.7482748775
  0
VERTEX
  8
0
 62
7
  6
CONTINUOUS
 10
276.6197724298
 20
234.7456464614
  0
VERTEX
  8
0
 62
7
  6
CONTINUOUS
 10
276.2066610917
 20
234.7002635959
  0
VERTEX
  8
0
 62
7
  6
CONTINUOUS
 10
275.8151240642
 20
234.6031151789
  0
VERTEX
  8
0
 62
7
  6
CONTINUOUS
 10
275.4507007133
 20
234.4604962281
  0
VERTEX
  8
0
 62
7
  6
CONTINUOUS
 10
275.1175673639
 20
234.2789698993
  0
VERTEX
  8
0
 62
7
  6
CONTINUOUS
 10
274.8186287174
 20
234.0651376237
  0
VERTEX
  8
0
 62
7
  6
CONTINUOUS
 10
274.5556538243
 20
233.8254668668
  0
VERTEX
  8
0
 62
7
  6
CONTINUOUS
 10
274.3293864221
 20
233.5661317693
  0
VERTEX
  8
0
 62
7
  6
CONTINUOUS
 10
274.1396847491
 20
233.2928965095
  0
VERTEX
  8
0
 62
7
  6
CONTINUOUS
 10
273.9856963361
 20
233.0111005179
  0
VERTEX
  8
0
 62
7
  6
CONTINUOUS
 10
273.8665231766
 20
232.7271752924
  0
VERTEX
  8
0
 62
7
  6
CONTINUOUS
 10
273.7804820289
 20
232.4485644088
  0
VERTEX
  8
0
 62
7
  6
CONTINUOUS
 10
273.724737445
 20
232.184292561
  0
VERTEX
  8
0
 62
7
  6
CONTINUOUS
 10
273.6969410981
 20
231.9694474517
  0
VERTEX
  8
0
 62
7
  6
CONTINUOUS
 10
273.6878866246
 20
231.8474969955
  0
VERTEX
  8
0
 62
7
  6
CONTINUOUS
 10
273.6850180392
 20
231.7847962231
  0
VERTEX
  8
0
 62
7
  6
CONTINUOUS
 10
273.6836959583
 20
231.7432223307
  0
VERTEX
  8
0
 62
7
  6
CONTINUOUS
 10
273.6828609311
 20
231.7083063724
  0
VERTEX
  8
0
 62
7
  6
CONTINUOUS
 10
273.6822173438
 20
231.6743112087
  0
VERTEX
  8
0
 62
7
  6
CONTINUOUS
 10
273.6809012729
 20
231.5783625979
  0
SEQEND
  0
LINE
  8
0
 62
7
  6
CONTINUOUS
 10
384.1417741786
 20
234.7171099617
 11
383.7058642914
 21
234.7482868852
  0
POLYLINE
  8
0
 62
7
  6
CONTINUOUS
 66
1
 70
0
  0
VERTEX
  8
0
 62
7
  6
CONTINUOUS
 10
383.7701513341
 20
234.7482792636
  0
VERTEX
  8
0
 62
7
  6
CONTINUOUS
 10
384.1992282192
 20
234.7171099617
  0
VERTEX
  8
0
 62
7
  6
CONTINUOUS
 10
385.035733167
 20
234.471489687
  0
VERTEX
  8
0
 62
7
  6
CONTINUOUS
 10
385.7691546322
 20
234.0001478315
  0
VERTEX
  8
0
 62
7
  6
CONTINUOUS
 10
386.0781768226
 20
233.6911253133
  0
VERTEX
  8
0
 62
7
  6
CONTINUOUS
 10
386.5495181781
 20
232.9577030701
  0
VERTEX
  8
0
 62
7
  6
CONTINUOUS
 10
386.7951381923
 20
232.1211972349
  0
SEQEND
  0
POLYLINE
  8
0
 62
7
  6
CONTINUOUS
 66
1
 70
0
  0
VERTEX
  8
0
 62
7
  6
CONTINUOUS
 10
354.9716171425
 20
212.2599286774
  0
VERTEX
  8
0
 62
7
  6
CONTINUOUS
 10
354.7408466987
 20
213.2922782851
  0
VERTEX
  8
0
 62
7
  6
CONTINUOUS
 10
354.6618010707
 20
213.9691870105
  0
VERTEX
  8
0
 62
7
  6
CONTINUOUS
 10
354.6014054927
 20
215.3902868852
  0
SEQEND
  0
LINE
  8
0
 62
7
  6
CONTINUOUS
 10
358.5851228304
 20
229.2762183617
 11
358.585122948
 21
229.2756225371
  0
LINE
  8
0
 62
7
  6
CONTINUOUS
 10
354.5069188553
 20
215.8602868852
 11
354.5069188553
 21
215.3902868852
  0
LINE
  8
0
 62
7
  6
CONTINUOUS
 10
354.6014054927
 20
215.3902868852
 11
354.6014054927
 21
215.8602868852
  0
LINE
  8
0
 62
7
  6
CONTINUOUS
 10
358.5851229508
 20
229.273291359
 11
358.5851229508
 21
222.1392868852
  0
LINE
  8
0
 62
7
  6
CONTINUOUS
 10
358.5851229508
 20
209.1112868852
 11
358.5851229508
 21
200.8051459756
  0
POLYLINE
  8
0
 62
7
  6
CONTINUOUS
 66
1
 70
0
  0
VERTEX
  8
0
 62
7
  6
CONTINUOUS
 10
358.5851263253
 20
229.2761134065
  0
VERTEX
  8
0
 62
7
  6
CONTINUOUS
 10
358.4850101005
 20
230.4695849375
  0
VERTEX
  8
0
 62
7
  6
CONTINUOUS
 10
358.1493994011
 20
231.6748483842
  0
VERTEX
  8
0
 62
7
  6
CONTINUOUS
 10
357.5634019284
 20
232.7766379406
  0
VERTEX
  8
0
 62
7
  6
CONTINUOUS
 10
357.1781684147
 20
233.2659073071
  0
VERTEX
  8
0
 62
7
  6
CONTINUOUS
 10
356.2475361058
 20
234.0688154364
  0
VERTEX
  8
0
 62
7
  6
CONTINUOUS
 10
355.1646610357
 20
234.5773545818
  0
VERTEX
  8
0
 62
7
  6
CONTINUOUS
 10
354.0337645423
 20
234.7482875117
  0
SEQEND
  0
LINE
  8
0
 62
7
  6
CONTINUOUS
 10
360.2552658877
 20
196.5241509179
 11
360.2807858111
 21
191.650249128
  0
LINE
  8
0
 62
7
  6
CONTINUOUS
 10
358.5851093679
 20
200.804442761
 11
358.5851229491
 21
200.8055416542
  0
POLYLINE
  8
0
 62
7
  6
CONTINUOUS
 66
1
 70
0
  0
VERTEX
  8
0
 62
7
  6
CONTINUOUS
 10
358.4561986705
 20
199.9281748701
  0
VERTEX
  8
0
 62
7
  6
CONTINUOUS
 10
358.5277485185
 20
200.2168378063
  0
VERTEX
  8
0
 62
7
  6
CONTINUOUS
 10
358.5781753748
 20
200.599870309
  0
VERTEX
  8
0
 62
7
  6
CONTINUOUS
 10
358.585122732
 20
200.8055795761
  0
SEQEND
  0
POLYLINE
  8
CURVE_RUNDING
 62
7
  6
CONTINUOUS
 66
1
 70
0
  0
VERTEX
  8
CURVE_RUNDING
 62
7
  6
CONTINUOUS
 10
358.113631733
 20
199.0488387367
  0
VERTEX
  8
CURVE_RUNDING
 62
7
  6
CONTINUOUS
 10
358.4808841232
 20
200.0125330119
  0
VERTEX
  8
CURVE_RUNDING
 62
7
  6
CONTINUOUS
 10
358.4562010399
 20
199.9281844951
  0
SEQEND
  0
POLYLINE
  8
0
 62
7
  6
CONTINUOUS
 66
1
 70
0
  0
VERTEX
  8
0
 62
7
  6
CONTINUOUS
 10
386.33746207
 20
225.4144636578
  0
VERTEX
  8
0
 62
7
  6
CONTINUOUS
 10
385.8687678735
 20
225.0237193847
  0
VERTEX
  8
0
 62
7
  6
CONTINUOUS
 10
385.3551150822
 20
224.8023830621
  0
VERTEX
  8
0
 62
7
  6
CONTINUOUS
 10
384.8348941505
 20
224.7290885047
  0
SEQEND
  0
LINE
  8
0
 62
7
  6
CONTINUOUS
 10
375.8051229508
 20
213.004765647
 11
375.7937540885
 21
215.0463323016
  0
LINE
  8
0
 62
7
  6
CONTINUOUS
 10
375.7937540885
 20
215.0463323016
 11
375.7889275447
 21
216.4702868852
  0
LINE
  8
0
 62
7
  6
CONTINUOUS
 10
375.8051229508
 20
223.6381581392
 11
375.8051229508
 21
219.9358081235
  0
LINE
  8
0
 62
7
  6
CONTINUOUS
 10
375.8051229508
 20
213.004765647
 11
375.8051229508
 21
205.2936207909
  0
LINE
  8
0
 62
7
  6
CONTINUOUS
 10
375.8051229508
 20
213.0452499935
 11
375.8051229508
 21
219.9298074106
  0
POLYLINE
  8
0
 62
7
  6
CONTINUOUS
 66
1
 70
0
  0
VERTEX
  8
0
 62
7
  6
CONTINUOUS
 10
375.7889275447
 20
216.4702868852
  0
VERTEX
  8
0
 62
7
  6
CONTINUOUS
 10
375.7937555753
 20
217.8944801763
  0
VERTEX
  8
0
 62
7
  6
CONTINUOUS
 10
375.8051229508
 20
219.9358081235
  0
SEQEND
  0
POLYLINE
  8
0
 62
7
  6
CONTINUOUS
 66
1
 70
0
  0
VERTEX
  8
0
 62
7
  6
CONTINUOUS
 10
386.7856169181
 20
226.2583367977
  0
VERTEX
  8
0
 62
7
  6
CONTINUOUS
 10
386.7046629565
 20
226.0098461094
  0
VERTEX
  8
0
 62
7
  6
CONTINUOUS
 10
386.617980028
 20
225.8212348529
  0
VERTEX
  8
0
 62
7
  6
CONTINUOUS
 10
386.3374620997
 20
225.4144636824
  0
SEQEND
  0
POLYLINE
  8
0
 62
7
  6
CONTINUOUS
 66
1
 70
0
  0
VERTEX
  8
0
 62
7
  6
CONTINUOUS
 10
386.811246604
 20
226.7707412277
  0
VERTEX
  8
0
 62
7
  6
CONTINUOUS
 10
386.7124048887
 20
226.1431264457
  0
VERTEX
  8
0
 62
7
  6
CONTINUOUS
 10
386.4254407619
 20
225.5762596202
  0
VERTEX
  8
0
 62
7
  6
CONTINUOUS
 10
385.9781363327
 20
225.1250341442
  0
VERTEX
  8
0
 62
7
  6
CONTINUOUS
 10
385.4137958756
 20
224.8331338952
  0
VERTEX
  8
0
 62
7
  6
CONTINUOUS
 10
384.7870683467
 20
224.7288189807
  0
SEQEND
  0
POLYLINE
  8
0
 62
7
  6
CONTINUOUS
 66
1
 70
0
  0
VERTEX
  8
0
 62
7
  6
CONTINUOUS
 10
386.7688610421
 20
231.6852868852
  0
VERTEX
  8
0
 62
7
  6
CONTINUOUS
 10
386.7376841517
 20
232.1211972349
  0
VERTEX
  8
0
 62
7
  6
CONTINUOUS
 10
386.4920641375
 20
232.9577030701
  0
VERTEX
  8
0
 62
7
  6
CONTINUOUS
 10
386.020722782
 20
233.6911253133
  0
VERTEX
  8
0
 62
7
  6
CONTINUOUS
 10
385.7117005916
 20
234.0001478315
  0
VERTEX
  8
0
 62
7
  6
CONTINUOUS
 10
384.9782791264
 20
234.471489687
  0
VERTEX
  8
0
 62
7
  6
CONTINUOUS
 10
384.1417741786
 20
234.7171099617
  0
SEQEND
  0
LINE
  8
0
 62
7
  6
CONTINUOUS
 10
386.7951381923
 20
232.1211972349
 11
386.8263150827
 21
231.6852868852
  0
POLYLINE
  8
0
 62
7
  6
CONTINUOUS
 66
1
 70
0
  0
VERTEX
  8
0
 62
7
  6
CONTINUOUS
 10
386.8246692034
 20
231.7992177859
  0
VERTEX
  8
0
 62
7
  6
CONTINUOUS
 10
386.820670588
 20
231.8759390837
  0
VERTEX
  8
0
 62
7
  6
CONTINUOUS
 10
386.806912634
 20
232.0309545824
  0
VERTEX
  8
0
 62
7
  6
CONTINUOUS
 10
386.7698465703
 20
232.27122521
  0
VERTEX
  8
0
 62
7
  6
CONTINUOUS
 10
386.7026506073
 20
232.5470658561
  0
VERTEX
  8
0
 62
7
  6
CONTINUOUS
 10
386.6040017924
 20
232.8310377377
  0
VERTEX
  8
0
 62
7
  6
CONTINUOUS
 10
386.470909492
 20
233.1174554829
  0
VERTEX
  8
0
 62
7
  6
CONTINUOUS
 10
386.3017767117
 20
233.3994443604
  0
VERTEX
  8
0
 62
7
  6
CONTINUOUS
 10
386.0953925602
 20
233.6711114219
  0
VERTEX
  8
0
 62
7
  6
CONTINUOUS
 10
385.8510829864
 20
233.9265541353
  0
VERTEX
  8
0
 62
7
  6
CONTINUOUS
 10
385.5690793074
 20
234.1594017644
  0
VERTEX
  8
0
 62
7
  6
CONTINUOUS
 10
385.2506720803
 20
234.3629309868
  0
VERTEX
  8
0
 62
7
  6
CONTINUOUS
 10
384.8983342261
 20
234.5302340485
  0
VERTEX
  8
0
 62
7
  6
CONTINUOUS
 10
384.5158339224
 20
234.6544106886
  0
VERTEX
  8
0
 62
7
  6
CONTINUOUS
 10
384.1083417811
 20
234.7287929545
  0
VERTEX
  8
0
 62
7
  6
CONTINUOUS
 10
383.7701513341
 20
234.7482792636
  0
SEQEND
  0
POLYLINE
  8
0
 62
7
  6
CONTINUOUS
 66
1
 70
0
  0
VERTEX
  8
0
 62
7
  6
CONTINUOUS
 10
386.8272493698
 20
231.7146528537
  0
VERTEX
  8
0
 62
7
  6
CONTINUOUS
 10
386.8263032979
 20
231.7520834348
  0
VERTEX
  8
0
 62
7
  6
CONTINUOUS
 10
386.8246692034
 20
231.7992177859
  0
SEQEND
  0
LINE
  8
0
 62
7
  6
CONTINUOUS
 10
386.8285245598
 20
231.642693139
 11
386.8272493698
 21
231.7146528537
  0
LINE
  8
0
 62
7
  6
CONTINUOUS
 10
386.8300946572
 20
231.5050673546
 11
386.8285245598
 21
231.642693139
  0
LINE
  8
0
 62
7
  6
CONTINUOUS
 10
386.80886787
 20
228.3125670484
 11
386.8079224148
 21
228.4159868852
  0
LINE
  8
0
 62
7
  6
CONTINUOUS
 10
386.818159291
 20
191.6930162635
 11
386.7272447486
 21
202.1107909571
  0
LINE
  8
0
 62
7
  6
CONTINUOUS
 10
386.8481087031
 20
226.7709342389
 11
386.8481556453
 21
226.7634153352
  0
LINE
  8
0
 62
7
  6
CONTINUOUS
 10
386.8342783376
 20
230.8092332968
 11
386.8300946572
 21
231.5050673546
  0
LINE
  8
0
 62
7
  6
CONTINUOUS
 10
386.8112478045
 20
227.3949868852
 11
386.80886787
 21
228.3125670484
  0
LINE
  8
0
 62
7
  6
CONTINUOUS
 10
386.8450177114
 20
227.3951669141
 11
386.8342783376
 21
230.8092332968
  0
LINE
  8
0
 62
7
  6
CONTINUOUS
 10
386.7688610421
 20
231.6852868852
 11
386.7688610421
 21
228.4159868852
  0
LINE
  8
0
 62
7
  6
CONTINUOUS
 10
386.8112478045
 20
227.3949868852
 11
386.8112478044
 21
226.7707412277
  0
POLYLINE
  8
0
 62
7
  6
CONTINUOUS
 66
1
 70
0
  0
VERTEX
  8
0
 62
7
  6
CONTINUOUS
 10
386.8481556453
 20
226.7634153352
  0
VERTEX
  8
0
 62
7
  6
CONTINUOUS
 10
386.8444915657
 20
226.6340785911
  0
VERTEX
  8
0
 62
7
  6
CONTINUOUS
 10
386.8268543919
 20
226.4640329823
  0
VERTEX
  8
0
 62
7
  6
CONTINUOUS
 10
386.7856169181
 20
226.2583367977
  0
SEQEND
  0
ARC
  8
0
 62
7
  6
CONTINUOUS
 10
70.8626983607
 20
209.3252868852
 40
12.252
 50
208.5612598067
 51
270.0
  0
ARC
  8
0
 62
7
  6
CONTINUOUS
 10
175.1065983607
 20
200.6620230268
 40
3.063
 50
315.0
 51
360.0
  0
ARC
  8
0
 62
7
  6
CONTINUOUS
 10
166.1108622191
 20
191.6662868852
 40
3.063
 50
270.0
 51
315.0
  0
ARC
  8
0
 62
7
  6
CONTINUOUS
 10
143.4531458043
 20
191.6662868852
 40
3.063
 50
180.047513539
 51
270.0000000001
  0
ARC
  8
0
 62
7
  6
CONTINUOUS
 10
139.3655068304
 20
196.0522868852
 40
1.021
 50
78.0348294896
 51
86.6056455685
  0
ARC
  8
0
 62
7
  6
CONTINUOUS
 10
139.3655068304
 20
196.0522868852
 40
1.021
 50
0.0475138567
 51
71.0860047848
  0
ARC
  8
0
 62
7
  6
CONTINUOUS
 10
158.3962198249
 20
214.3282868852
 40
20.42
 50
55.5
 51
90.0
  0
CIRCLE
  8
0
 62
7
  6
CONTINUOUS
 10
159.3865983607
 20
216.4702868852
 40
8.17
  0
CIRCLE
  8
0
 62
7
  6
CONTINUOUS
 10
159.3865983607
 20
216.4702868852
 40
6.15
  0
ARC
  8
0
 62
7
  6
CONTINUOUS
 10
144.9873983607
 20
227.3949868852
 40
1.021
 50
0.0
 51
90.0
  0
ARC
  8
0
 62
7
  6
CONTINUOUS
 10
105.0629338375
 20
61.1994400434
 40
6.64
 50
10.0
 51
119.0797267564
  0
ARC
  8
0
 62
7
  6
CONTINUOUS
 10
118.951550802
 20
38.3105291513
 40
3.063
 50
190.0
 51
269.9165445726
  0
ARC
  8
0
 62
7
  6
CONTINUOUS
 10
88.0665983607
 20
91.7612704918
 40
28.33
 50
60.9202732436
 51
299.0797267564
  0
ARC
  8
0
 62
7
  6
CONTINUOUS
 10
105.0629338375
 20
122.3231009402
 40
6.64
 50
240.9202732436
 51
350.0
  0
ARC
  8
0
 62
7
  6
CONTINUOUS
 10
118.951550802
 20
145.2120118323
 40
3.063
 50
90.0834554274
 51
170.0
  0
ARC
  8
0
 62
7
  6
CONTINUOUS
 10
175.1065983607
 20
38.2287352242
 40
3.063
 50
303.6484382506
 51
360.0
  0
ARC
  8
0
 62
7
  6
CONTINUOUS
 10
175.1065983607
 20
145.2938057594
 40
3.063
 50
0.0
 51
56.4244719839
  0
ARC
  8
0
 62
7
  6
CONTINUOUS
 10
276.754969981
 20
191.6662868852
 40
3.063
 50
179.5
 51
270.0
  0
ARC
  8
0
 62
7
  6
CONTINUOUS
 10
297.1665020774
 20
191.6662868852
 40
3.063
 50
270.0
 51
359.7
  0
ARC
  8
0
 62
7
  6
CONTINUOUS
 10
275.8249233999
 20
202.0929713716
 40
2.042
 50
91.0
 51
179.5
  0
ARC
  8
0
 62
7
  6
CONTINUOUS
 10
283.6841229508
 20
205.2936207909
 40
1.021
 50
271.0
 51
360.0
  0
ARC
  8
0
 62
7
  6
CONTINUOUS
 10
283.525363257
 20
223.480777875
 40
1.1797596938
 50
6.8097319195
 51
83.0885053235
  0
ARC
  8
0
 62
7
  6
CONTINUOUS
 10
283.678423712
 20
223.6325084199
 40
1.0266992388
 50
45.0531722708
 51
89.4765839278
  0
ARC
  8
0
 62
7
  6
CONTINUOUS
 10
283.6841229508
 20
223.6381581392
 40
1.021
 50
0.0
 51
89.5
  0
ARC
  8
0
 62
7
  6
CONTINUOUS
 10
383.7552759207
 20
191.6662868852
 40
3.063
 50
270.0
 51
0.5
  0
ARC
  8
0
 62
7
  6
CONTINUOUS
 10
363.3437438242
 20
191.6662868852
 40
3.063
 50
180.2999999998
 51
270.0
  0
ARC
  8
0
 62
7
  6
CONTINUOUS
 10
384.6853225017
 20
202.0929713716
 40
2.042
 50
0.5
 51
89.0
  0
ARC
  8
0
 62
7
  6
CONTINUOUS
 10
376.8261229508
 20
205.2936207909
 40
1.021
 50
180.0
 51
269.0
  0
ARC
  8
0
 62
7
  6
CONTINUOUS
 10
376.9849106836
 20
223.4807500796
 40
1.1797877328
 50
96.9180111944
 51
173.189227265
  0
ARC
  8
0
 62
7
  6
CONTINUOUS
 10
376.8317863699
 20
223.6325439284
 40
1.0266634191
 50
90.5232906482
 51
134.9468217245
  0
ARC
  8
0
 62
7
  6
CONTINUOUS
 10
376.8261229508
 20
223.6381581392
 40
1.021
 50
90.5
 51
180.0
  0
ENDSEC
  0
EOF
