  0
SECTION
  2
HEADER
  9
$EXTMAX
 10
420.0
 20
297.0
 30
0.0
  9
$EXTMIN
 10
0.0
 20
0.0
 30
0.0
  9
$LIMMIN
 10
0.0
 20
0.0
  9
$LIMMAX
 10
420.0
 20
297.0
  9
$VIEWCTR
 10
210.0
 20
148.5
  9
$VIEWSIZE
 40
297.0
  9
$CLAYER
  8
0
  9
$LTSCALE
 40
23.1
  9
$CELTYPE
  6
BYLAYER
  9
$DIMSCALE
 40
1.0
  9
$DIMASZ
 40
3.5
  9
$DIMEXO
 40
1.0
  9
$DIMDLI
 40
15.96
  9
$DIMEXE
 40
2.0
  9
$DIMCEN
 40
3.78
  9
$DIMLFAC
 40
1.0
  9
$DIMBLK
  1
_FILLED
  9
$DIMTXT
 40
3.5
  9
$PDMODE
 70
3
  9
$PDSIZE
 40
0.3125
  9
$TILEMODE
 70
1
  0
ENDSEC
  0
SECTION
  2
TABLES
  0
TABLE
  2
LTYPE
 70
6
  0
LTYPE
  2
BYBLOCK
 70
0
  3

 72
65
 73
0
 40
0.0
  0
LTYPE
  2
BYLAYER
 70
0
  3

 72
65
 73
0
 40
0.0
  0
LTYPE
  2
CONTINUOUS
 70
64
  3
Solid line
 72
65
 73
0
 40
0.0
  0
LTYPE
  2
CENTER
 70
64
  3
____ _ ____ _ ____ _ ____ _ ____ _ ____ _ ____
 72
65
 73
4
 40
0.6
 49
0.375
 49
-0.075
 49
0.075
 49
-0.075
  0
LTYPE
  2
HIDDEN
 70
64
  3
- - - - - - - - - - - - - - - - - - - -
 72
65
 73
2
 40
0.2
 49
0.1
 49
-0.1
  0
LTYPE
  2
PHANTOM
 70
64
  3
_____ _ _ _____ _ _ _____ _ _ _____
 72
65
 73
6
 40
0.8
 49
0.45
 49
-0.05
 49
0.1
 49
-0.05
 49
0.1
 49
-0.05
  0
LTYPE
  2
DOT
 70
64
  3
. . . . . . . . . . . . . . . . . . . .
 72
65
 73
2
 40
0.2
 49
0.1
 49
-0.1
  0
LTYPE
  2
DASHED
 70
64
  3
- - - - - - - - - - - - - - - - - - - -
 72
65
 73
2
 40
0.2
 49
0.1
 49
-0.1
  0
ENDTAB
  0
TABLE
  2
LAYER
 70
36
  0
LAYER
  2
0
 70
0
 62
7
  6
CONTINUOUS
  0
LAYER
  2
DEFAULT_1
 70
0
 62
7
  6
CENTER
  0
LAYER
  2
DEFAULT_2
 70
0
 62
8
  6
HIDDEN
  0
LAYER
  2
DEFAULT_3
 70
0
 62
7
  6
PHANTOM
  0
LAYER
  2
10-PART-SURF
 70
0
 62
7
  6
CONTINUOUS
  0
LAYER
  2
CENTERPLANER
 70
0
 62
7
  6
CONTINUOUS
  0
LAYER
  2
CENTER_AXER
 70
0
 62
7
  6
CONTINUOUS
  0
LAYER
  2
CURVE_RUNDING
 70
0
 62
7
  6
CONTINUOUS
  0
LAYER
  2
HELP_GEOMETRI
 70
0
 62
7
  6
CONTINUOUS
  0
LAYER
  2
LUKKEFLADE1
 70
0
 62
7
  6
CONTINUOUS
  0
LAYER
  2
LUKKEFLADE2
 70
0
 62
7
  6
CONTINUOUS
  0
LAYER
  2
LUKKEFLADE3
 70
0
 62
7
  6
CONTINUOUS
  0
LAYER
  2
NOTES
 70
0
 62
7
  6
CONTINUOUS
  0
LAYER
  2
PLANER_GLIDE
 70
0
 62
7
  6
CONTINUOUS
  0
LAYER
  2
PLANES
 70
0
 62
7
  6
CONTINUOUS
  0
LAYER
  2
PLAN_CHAMF
 70
0
 62
7
  6
CONTINUOUS
  0
LAYER
  2
PLAN_SIDESTYR
 70
0
 62
7
  6
CONTINUOUS
  0
LAYER
  2
QUILT
 70
0
 62
7
  6
CONTINUOUS
  0
LAYER
  2
ROUND_SPLIT
 70
0
 62
7
  6
CONTINUOUS
  0
LAYER
  2
SIDE_KERNER
 70
0
 62
7
  6
CONTINUOUS
  0
LAYER
  2
TRAKHUL
 70
0
 62
7
  6
CONTINUOUS
  0
LAYER
  2
VARIABLE
 70
0
 62
7
  6
CONTINUOUS
  0
ENDTAB
  0
TABLE
  2
STYLE
 70
1
  0
STYLE
  2
STANDARD
 70
0
 40
0.0
 41
0.8
 50
0.0
 71
0
 42
0.2
  3
txt
  4

  0
STYLE
  2
TEXTSTYLE_1
 70
0
 40
0.0
 41
0.8
 50
0.0
 71
0
 42
0.2
  3
gdt
  4

  0
STYLE
  2
TEXTSTYLE_2
 70
0
 40
0.0
 41
0.6
 50
0.0
 71
0
 42
0.2
  3
txt
  4

  0
STYLE
  2
TEXTSTYLE_3
 70
0
 40
0.0
 41
1.0
 50
0.0
 71
0
 42
0.2
  3
ftb_____.ttf
  4

  0
STYLE
  2
TEXTSTYLE_4
 70
0
 40
0.0
 41
1.0
 50
0.0
 71
0
 42
0.2
  3
fti_____.ttf
  4

  0
STYLE
  2
TEXTSTYLE_5
 70
0
 40
0.0
 41
1.0
 50
0.0
 71
0
 42
0.2
  3
frutiger light.ttf
  4

  0
STYLE
  2
TEXTSTYLE_6
 70
0
 40
0.0
 41
0.7
 50
0.0
 71
0
 42
0.2
  3
txt
  4

  0
STYLE
  2
TEXTSTYLE_7
 70
0
 40
0.0
 41
0.8
 50
0.0
 71
0
 42
0.2
  3
txt
  4

  0
ENDTAB
  0
ENDSEC
  0
SECTION
  2
BLOCKS
  0
BLOCK
  8
0
 62
2
  6
CONTINUOUS
  2
SYMBOL_5_BL1
 70
64
 10
382.3920721743
 20
35.81661148
  0
TEXT
  8
0
 62
7
  6
CONTINUOUS
 10
373.4503571828
 20
30.9093678571
  7
TEXTSTYLE_4
 40
1.0655737705
  1
The brand for plastic modular belts and chains
 41
1.0
 72
0
  0
LINE
  8
0
 62
7
  6
CONTINUOUS
 10
358.3701405634
 20
36.3903819718
 11
358.3701405634
 21
34.2592344308
  0
LINE
  8
0
 62
7
  6
CONTINUOUS
 10
358.6592030565
 20
31.2683031351
 11
358.6592030565
 21
31.3650941944
  0
LINE
  8
0
 62
7
  6
CONTINUOUS
 10
358.3701405634
 20
31.332830508
 11
358.4279530651
 21
31.1392483894
  0
LINE
  8
0
 62
7
  6
CONTINUOUS
 10
359.7635831863
 20
34.1772672177
 11
359.7635831863
 21
36.3903819718
  0
LINE
  8
0
 62
7
  6
CONTINUOUS
 10
360.6826405082
 20
32.3330049227
 11
360.6826405082
 21
30.81661148
  0
LINE
  8
0
 62
7
  6
CONTINUOUS
 10
360.9717030634
 20
30.81661148
 11
360.9717030634
 21
31.5586763581
  0
LINE
  8
0
 62
7
  6
CONTINUOUS
 10
360.9717030634
 20
31.6877311038
 11
360.9717030634
 21
32.3330049227
  0
LINE
  8
0
 62
7
  6
CONTINUOUS
 10
358.4279530651
 20
31.5264126717
 11
358.3701405634
 21
31.332830508
  0
LINE
  8
0
 62
7
  6
CONTINUOUS
 10
358.7748280496
 20
31.106984703
 11
358.6592030565
 21
31.2683031351
  0
LINE
  8
0
 62
7
  6
CONTINUOUS
 10
359.8732656185
 20
31.623203731
 11
359.9310780634
 21
31.5264126717
  0
LINE
  8
0
 62
7
  6
CONTINUOUS
 10
360.2201406185
 20
31.5264126717
 11
360.1623280082
 21
31.6554674174
  0
LINE
  8
0
 62
7
  6
CONTINUOUS
 10
361.648829088
 20
36.3903819718
 11
361.648829088
 21
34.5871032833
  0
LINE
  8
0
 62
7
  6
CONTINUOUS
 10
361.648829088
 20
33.2756278735
 11
361.648829088
 21
32.6198901686
  0
LINE
  8
0
 62
7
  6
CONTINUOUS
 10
362.0123280634
 20
31.4618852989
 11
362.0123280634
 21
30.81661148
  0
LINE
  8
0
 62
7
  6
CONTINUOUS
 10
362.3013904531
 20
30.81661148
 11
362.3013904531
 21
31.4618852989
  0
LINE
  8
0
 62
7
  6
CONTINUOUS
 10
358.6592030565
 20
31.3650941944
 11
358.7170155634
 21
31.4941489853
  0
LINE
  8
0
 62
7
  6
CONTINUOUS
 10
358.4279530651
 20
31.1392483894
 11
358.5435780634
 21
31.0101936212
  0
LINE
  8
0
 62
7
  6
CONTINUOUS
 10
361.9545154531
 20
31.5909400446
 11
362.0123280634
 21
31.4618852989
  0
LINE
  8
0
 62
7
  6
CONTINUOUS
 10
362.7638906736
 20
31.106984703
 11
362.8217029531
 21
30.9779299347
  0
LINE
  8
0
 62
7
  6
CONTINUOUS
 10
362.3013904531
 20
31.4618852989
 11
362.2435781736
 21
31.623203731
  0
LINE
  8
0
 62
7
  6
CONTINUOUS
 10
362.7638906736
 20
31.6554674174
 11
362.7638906736
 21
31.5909400446
  0
LINE
  8
0
 62
7
  6
CONTINUOUS
 10
362.7638906736
 20
31.2037757623
 11
362.7638906736
 21
31.106984703
  0
LINE
  8
0
 62
7
  6
CONTINUOUS
 10
363.0422717109
 20
32.6198901686
 11
363.0422717109
 21
36.3903819718
  0
LINE
  8
0
 62
7
  6
CONTINUOUS
 10
363.0529530634
 20
31.074720994
 11
363.0529530634
 21
31.1392483894
  0
LINE
  8
0
 62
7
  6
CONTINUOUS
 10
363.3701405634
 20
36.3903819718
 11
363.3701405634
 21
32.6198901686
  0
LINE
  8
0
 62
7
  6
CONTINUOUS
 10
360.1623280082
 20
31.0101936212
 11
360.2201406185
 21
31.1392483894
  0
LINE
  8
0
 62
7
  6
CONTINUOUS
 10
364.5560782839
 20
30.9134025506
 11
364.4982653428
 21
31.074720994
  0
LINE
  8
0
 62
7
  6
CONTINUOUS
 10
364.2092032839
 20
31.5909400446
 11
364.2092032839
 21
31.4941489853
  0
LINE
  8
0
 62
7
  6
CONTINUOUS
 10
364.2092032839
 20
31.3650941944
 11
364.2092032839
 21
31.1715120759
  0
LINE
  8
0
 62
7
  6
CONTINUOUS
 10
364.4982653428
 20
31.074720994
 11
364.4982653428
 21
31.5909400446
  0
LINE
  8
0
 62
7
  6
CONTINUOUS
 10
364.7635831863
 20
32.6198901686
 11
364.7635831863
 21
34.4231688571
  0
LINE
  8
0
 62
7
  6
CONTINUOUS
 10
364.7635831863
 20
35.7346442669
 11
364.7635831863
 21
36.3903819718
  0
LINE
  8
0
 62
7
  6
CONTINUOUS
 10
365.0763907839
 20
32.3330049227
 11
365.0763907839
 21
32.1716864905
  0
LINE
  8
0
 62
7
  6
CONTINUOUS
 10
365.0763907839
 20
31.8490495359
 11
365.0763907839
 21
30.81661148
  0
LINE
  8
0
 62
7
  6
CONTINUOUS
 10
365.3654528428
 20
30.81661148
 11
365.3654528428
 21
31.8490495359
  0
LINE
  8
0
 62
7
  6
CONTINUOUS
 10
365.3654528428
 20
32.1716864905
 11
365.3654528428
 21
32.3330049227
  0
LINE
  8
0
 62
7
  6
CONTINUOUS
 10
359.9310780634
 20
31.1392483894
 11
359.8732656185
 21
31.0424573076
  0
LINE
  8
0
 62
7
  6
CONTINUOUS
 10
362.2435781736
 20
31.623203731
 11
362.1857655634
 21
31.6877311038
  0
LINE
  8
0
 62
7
  6
CONTINUOUS
 10
363.1107656736
 20
31.0101936212
 11
363.0529530634
 21
31.074720994
  0
LINE
  8
0
 62
7
  6
CONTINUOUS
 10
364.2670155634
 20
30.8811388585
 11
364.3248278428
 21
30.81661148
  0
LINE
  8
0
 62
7
  6
CONTINUOUS
 10
364.2092032839
 20
30.9779299347
 11
364.2670155634
 21
30.8811388585
  0
LINE
  8
0
 62
7
  6
CONTINUOUS
 10
364.6138905634
 20
30.81661148
 11
364.5560782839
 21
30.9134025506
  0
LINE
  8
0
 62
7
  6
CONTINUOUS
 10
364.4982653428
 20
31.5909400446
 11
364.4404530634
 21
31.6877311038
  0
LINE
  8
0
 62
7
  6
CONTINUOUS
 10
365.8279530634
 20
31.8490495359
 11
365.8279530634
 21
30.81661148
  0
LINE
  8
0
 62
7
  6
CONTINUOUS
 10
366.1170157839
 20
30.81661148
 11
366.1170157839
 21
31.5586763581
  0
LINE
  8
0
 62
7
  6
CONTINUOUS
 10
366.1170157839
 20
31.6877311038
 11
366.1170157839
 21
31.8490495359
  0
LINE
  8
0
 62
7
  6
CONTINUOUS
 10
366.648829088
 20
34.8330049227
 11
366.648829088
 21
32.6198901686
  0
LINE
  8
0
 62
7
  6
CONTINUOUS
 10
358.5435780634
 20
31.6554674174
 11
358.4279530651
 21
31.5264126717
  0
LINE
  8
0
 62
7
  6
CONTINUOUS
 10
358.7170155634
 20
31.4941489853
 11
358.7748280496
 21
31.5586763581
  0
LINE
  8
0
 62
7
  6
CONTINUOUS
 10
358.5435780634
 20
31.0101936212
 11
358.6592030565
 21
30.945666237
  0
LINE
  8
0
 62
7
  6
CONTINUOUS
 10
358.9482655496
 20
31.0101936212
 11
358.7748280496
 21
31.106984703
  0
LINE
  8
0
 62
7
  6
CONTINUOUS
 10
364.1513903428
 20
31.6554674174
 11
364.2092032839
 21
31.5909400446
  0
LINE
  8
0
 62
7
  6
CONTINUOUS
 10
367.0998278428
 20
31.5909400446
 11
367.1576407839
 21
31.4296216124
  0
LINE
  8
0
 62
7
  6
CONTINUOUS
 10
367.4467028428
 20
31.4296216124
 11
367.3888905634
 21
31.5909400446
  0
LINE
  8
0
 62
7
  6
CONTINUOUS
 10
367.1576407839
 20
31.4296216124
 11
367.1576407839
 21
30.81661148
  0
LINE
  8
0
 62
7
  6
CONTINUOUS
 10
367.4467028428
 20
30.81661148
 11
367.4467028428
 21
31.4296216124
  0
LINE
  8
0
 62
7
  6
CONTINUOUS
 10
367.9092030634
 20
31.6554674174
 11
367.9092030634
 21
31.5909400446
  0
LINE
  8
0
 62
7
  6
CONTINUOUS
 10
368.0422717109
 20
32.6198901686
 11
368.0422717109
 21
34.7510377095
  0
LINE
  8
0
 62
7
  6
CONTINUOUS
 10
368.3701405634
 20
36.3903819718
 11
368.3701405634
 21
32.6198901686
  0
LINE
  8
0
 62
7
  6
CONTINUOUS
 10
363.0529530634
 20
31.1392483894
 11
363.1107656736
 21
31.2360394487
  0
LINE
  8
0
 62
7
  6
CONTINUOUS
 10
358.6592030565
 20
30.945666237
 11
358.8326405772
 21
30.8811388585
  0
LINE
  8
0
 62
7
  6
CONTINUOUS
 10
360.1623280082
 20
31.6554674174
 11
359.9888905082
 21
31.7522584767
  0
LINE
  8
0
 62
7
  6
CONTINUOUS
 10
362.8217029531
 20
30.9779299347
 11
362.9951404531
 21
30.8811388585
  0
LINE
  8
0
 62
7
  6
CONTINUOUS
 10
361.8388905634
 20
31.6554674174
 11
361.9545154531
 21
31.5909400446
  0
LINE
  8
0
 62
7
  6
CONTINUOUS
 10
362.1857655634
 20
31.6877311038
 11
362.0701406736
 21
31.7522584767
  0
LINE
  8
0
 62
7
  6
CONTINUOUS
 10
367.9092030634
 20
31.074720994
 11
368.0248282839
 21
30.945666237
  0
LINE
  8
0
 62
7
  6
CONTINUOUS
 10
368.2560780634
 20
31.0101936212
 11
368.1982657839
 21
31.074720994
  0
LINE
  8
0
 62
7
  6
CONTINUOUS
 10
367.9092030634
 20
31.5909400446
 11
368.0248282839
 21
31.4618852989
  0
LINE
  8
0
 62
7
  6
CONTINUOUS
 10
367.3888905634
 20
31.5909400446
 11
367.3310782839
 21
31.6877311038
  0
LINE
  8
0
 62
7
  6
CONTINUOUS
 10
369.7592026223
 20
31.0101936212
 11
369.7592026223
 21
31.074720994
  0
LINE
  8
0
 62
7
  6
CONTINUOUS
 10
369.7635831863
 20
32.6198901686
 11
369.7635831863
 21
36.3903819718
  0
LINE
  8
0
 62
7
  6
CONTINUOUS
 10
362.8217029531
 20
31.7199947902
 11
362.7638906736
 21
31.6554674174
  0
LINE
  8
0
 62
7
  6
CONTINUOUS
 10
359.6998280358
 20
31.6877311038
 11
359.8732656185
 21
31.623203731
  0
LINE
  8
0
 62
7
  6
CONTINUOUS
 10
364.4404530634
 20
31.6877311038
 11
364.3248278428
 21
31.7522584767
  0
LINE
  8
0
 62
7
  6
CONTINUOUS
 10
368.2560780634
 20
31.5264126717
 11
368.1982657839
 21
31.5909400446
  0
LINE
  8
0
 62
7
  6
CONTINUOUS
 10
369.4123282839
 20
31.1392483894
 11
369.4701405634
 21
31.074720994
  0
LINE
  8
0
 62
7
  6
CONTINUOUS
 10
369.7592026223
 20
31.074720994
 11
369.6435780634
 21
31.2037757623
  0
LINE
  8
0
 62
7
  6
CONTINUOUS
 10
369.4123282839
 20
31.6554674174
 11
369.4701405634
 21
31.5909400446
  0
LINE
  8
0
 62
7
  6
CONTINUOUS
 10
369.7592026223
 20
31.5909400446
 11
369.6435780634
 21
31.7199947902
  0
LINE
  8
0
 62
7
  6
CONTINUOUS
 10
363.0529530634
 20
31.5909400446
 11
363.1107656736
 21
31.6554674174
  0
LINE
  8
0
 62
7
  6
CONTINUOUS
 10
362.8795155634
 20
31.332830508
 11
362.7638906736
 21
31.2037757623
  0
LINE
  8
0
 62
7
  6
CONTINUOUS
 10
364.2092032839
 20
31.1715120759
 11
364.1513903428
 21
31.106984703
  0
LINE
  8
0
 62
7
  6
CONTINUOUS
 10
364.1513903428
 20
30.9134025506
 11
364.2092032839
 21
30.9779299347
  0
LINE
  8
0
 62
7
  6
CONTINUOUS
 10
362.9951404531
 20
30.8811388585
 11
363.1107656736
 21
30.8488751693
  0
LINE
  8
0
 62
7
  6
CONTINUOUS
 10
359.9888905082
 20
31.7522584767
 11
359.7576405634
 21
31.8167858495
  0
LINE
  8
0
 62
7
  6
CONTINUOUS
 10
363.3420154531
 20
30.945666237
 11
363.1107656736
 21
31.0101936212
  0
LINE
  8
0
 62
7
  6
CONTINUOUS
 10
362.0701406736
 20
31.7522584767
 11
361.8967031736
 21
31.8167858495
  0
LINE
  8
0
 62
7
  6
CONTINUOUS
 10
364.3248278428
 20
31.7522584767
 11
364.1513903428
 21
31.8167858495
  0
LINE
  8
0
 62
7
  6
CONTINUOUS
 10
366.9842032839
 20
31.6554674174
 11
367.0998278428
 21
31.5909400446
  0
LINE
  8
0
 62
7
  6
CONTINUOUS
 10
367.3310782839
 20
31.6877311038
 11
367.2154530634
 21
31.7522584767
  0
LINE
  8
0
 62
7
  6
CONTINUOUS
 10
358.8326405772
 20
30.8811388585
 11
359.0060780772
 21
30.8488751693
  0
LINE
  8
0
 62
7
  6
CONTINUOUS
 10
359.2951405909
 20
30.945666237
 11
358.9482655496
 21
31.0101936212
  0
LINE
  8
0
 62
7
  6
CONTINUOUS
 10
361.7232656736
 20
31.6877311038
 11
361.8388905634
 21
31.6554674174
  0
LINE
  8
0
 62
7
  6
CONTINUOUS
 10
364.0357657839
 20
31.6877311038
 11
364.1513903428
 21
31.6554674174
  0
LINE
  8
0
 62
7
  6
CONTINUOUS
 10
368.3717032839
 20
30.9779299347
 11
368.2560780634
 21
31.0101936212
  0
LINE
  8
0
 62
7
  6
CONTINUOUS
 10
366.8685780634
 20
31.6877311038
 11
366.9842032839
 21
31.6554674174
  0
LINE
  8
0
 62
7
  6
CONTINUOUS
 10
368.0248282839
 20
30.945666237
 11
368.1982657839
 21
30.8811388585
  0
LINE
  8
0
 62
7
  6
CONTINUOUS
 10
367.2154530634
 20
31.7522584767
 11
367.0420155634
 21
31.8167858495
  0
LINE
  8
0
 62
7
  6
CONTINUOUS
 10
368.4295155634
 20
31.4618852989
 11
368.2560780634
 21
31.5264126717
  0
LINE
  8
0
 62
7
  6
CONTINUOUS
 10
369.2388907839
 20
31.2037757623
 11
369.4123282839
 21
31.1392483894
  0
LINE
  8
0
 62
7
  6
CONTINUOUS
 10
369.6435780634
 20
31.7199947902
 11
369.4701405634
 21
31.7845221631
  0
LINE
  8
0
 62
7
  6
CONTINUOUS
 10
368.0248282839
 20
31.4618852989
 11
368.2560780634
 21
31.3650941944
  0
LINE
  8
0
 62
7
  6
CONTINUOUS
 10
369.6435780634
 20
31.2037757623
 11
369.4123282839
 21
31.3005668216
  0
LINE
  8
0
 62
7
  6
CONTINUOUS
 10
368.1982657839
 20
31.5909400446
 11
368.2560780634
 21
31.6554674174
  0
LINE
  8
0
 62
7
  6
CONTINUOUS
 10
358.6592030565
 20
31.7199947902
 11
358.5435780634
 21
31.6554674174
  0
LINE
  8
0
 62
7
  6
CONTINUOUS
 10
358.7748280496
 20
31.5586763581
 11
358.9482655496
 21
31.6554674174
  0
LINE
  8
0
 62
7
  6
CONTINUOUS
 10
361.0873281185
 20
31.7522584767
 11
360.9717030634
 21
31.6877311038
  0
LINE
  8
0
 62
7
  6
CONTINUOUS
 10
360.9717030634
 20
31.5586763581
 11
361.0873281185
 21
31.623203731
  0
LINE
  8
0
 62
7
  6
CONTINUOUS
 10
359.9888905082
 20
30.9134025506
 11
360.1623280082
 21
31.0101936212
  0
LINE
  8
0
 62
7
  6
CONTINUOUS
 10
359.0060780772
 20
30.8488751693
 11
359.3529530358
 21
30.81661148
  0
LINE
  8
0
 62
7
  6
CONTINUOUS
 10
363.1107656736
 20
30.8488751693
 11
363.3420154531
 21
30.81661148
  0
LINE
  8
0
 62
7
  6
CONTINUOUS
 10
361.4920155634
 20
31.7199947902
 11
361.7232656736
 21
31.6877311038
  0
LINE
  8
0
 62
7
  6
CONTINUOUS
 10
363.8045156736
 20
31.7199947902
 11
364.0357657839
 21
31.6877311038
  0
LINE
  8
0
 62
7
  6
CONTINUOUS
 10
368.2560780634
 20
31.3650941944
 11
369.2388907839
 21
31.2037757623
  0
LINE
  8
0
 62
7
  6
CONTINUOUS
 10
369.4123282839
 20
31.3005668216
 11
368.4295155634
 21
31.4618852989
  0
LINE
  8
0
 62
7
  6
CONTINUOUS
 10
361.8967031736
 20
31.8167858495
 11
361.7232656736
 21
31.8490495359
  0
LINE
  8
0
 62
7
  6
CONTINUOUS
 10
368.1982657839
 20
30.8811388585
 11
368.3717032839
 21
30.8488751693
  0
LINE
  8
0
 62
7
  6
CONTINUOUS
 10
367.0420155634
 20
31.8167858495
 11
366.8685780634
 21
31.8490495359
  0
LINE
  8
0
 62
7
  6
CONTINUOUS
 10
369.2967030634
 20
31.6877311038
 11
369.4123282839
 21
31.6554674174
  0
LINE
  8
0
 62
7
  6
CONTINUOUS
 10
369.4701405634
 20
31.074720994
 11
369.4123282839
 21
31.0101936212
  0
LINE
  8
0
 62
7
  6
CONTINUOUS
 10
368.0248282839
 20
31.7522584767
 11
367.9092030634
 21
31.6554674174
  0
LINE
  8
0
 62
7
  6
CONTINUOUS
 10
362.9373281736
 20
31.7845221631
 11
362.8217029531
 21
31.7199947902
  0
LINE
  8
0
 62
7
  6
CONTINUOUS
 10
362.9951404531
 20
31.397357926
 11
362.8795155634
 21
31.332830508
  0
LINE
  8
0
 62
7
  6
CONTINUOUS
 10
363.1107656736
 20
31.2360394487
 11
363.2263905634
 21
31.3005668216
  0
LINE
  8
0
 62
7
  6
CONTINUOUS
 10
360.6826405082
 20
30.81661148
 11
360.9717030634
 21
30.81661148
  0
LINE
  8
0
 62
7
  6
CONTINUOUS
 10
362.0123280634
 20
30.81661148
 11
362.3013904531
 21
30.81661148
  0
LINE
  8
0
 62
7
  6
CONTINUOUS
 10
363.3420154531
 20
30.81661148
 11
363.6888904531
 21
30.81661148
  0
LINE
  8
0
 62
7
  6
CONTINUOUS
 10
364.3248278428
 20
30.81661148
 11
364.6138905634
 21
30.81661148
  0
LINE
  8
0
 62
7
  6
CONTINUOUS
 10
365.0763907839
 20
30.81661148
 11
365.3654528428
 21
30.81661148
  0
LINE
  8
0
 62
7
  6
CONTINUOUS
 10
365.8279530634
 20
30.81661148
 11
366.1170157839
 21
30.81661148
  0
LINE
  8
0
 62
7
  6
CONTINUOUS
 10
367.1576407839
 20
30.81661148
 11
367.4467028428
 21
30.81661148
  0
LINE
  8
0
 62
7
  6
CONTINUOUS
 10
368.7185782839
 20
30.81661148
 11
369.0654532839
 21
30.81661148
  0
LINE
  8
0
 62
7
  6
CONTINUOUS
 10
369.0654532839
 20
30.945666237
 11
368.7185782839
 21
30.945666237
  0
LINE
  8
0
 62
7
  6
CONTINUOUS
 10
363.6888904531
 20
30.945666237
 11
363.3420154531
 21
30.945666237
  0
LINE
  8
0
 62
7
  6
CONTINUOUS
 10
368.1982657839
 20
31.074720994
 11
367.9092030634
 21
31.074720994
  0
LINE
  8
0
 62
7
  6
CONTINUOUS
 10
360.2201406185
 20
31.1392483894
 11
359.9310780634
 21
31.1392483894
  0
LINE
  8
0
 62
7
  6
CONTINUOUS
 10
359.2951405909
 20
31.7199947902
 11
359.6998280358
 21
31.6877311038
  0
LINE
  8
0
 62
7
  6
CONTINUOUS
 10
359.7576405634
 20
31.8167858495
 11
359.3529530358
 21
31.8490495359
  0
LINE
  8
0
 62
7
  6
CONTINUOUS
 10
368.3717032839
 20
30.8488751693
 11
368.7185782839
 21
30.81661148
  0
LINE
  8
0
 62
7
  6
CONTINUOUS
 10
368.7185782839
 20
30.945666237
 11
368.3717032839
 21
30.9779299347
  0
LINE
  8
0
 62
7
  6
CONTINUOUS
 10
364.1513903428
 20
31.8167858495
 11
363.8045156736
 21
31.8490495359
  0
LINE
  8
0
 62
7
  6
CONTINUOUS
 10
368.9498280634
 20
31.7199947902
 11
369.2967030634
 21
31.6877311038
  0
LINE
  8
0
 62
7
  6
CONTINUOUS
 10
369.2967030634
 20
31.8167858495
 11
368.9498280634
 21
31.8490495359
  0
LINE
  8
0
 62
7
  6
CONTINUOUS
 10
366.6373282839
 20
31.7199947902
 11
366.8685780634
 21
31.6877311038
  0
LINE
  8
0
 62
7
  6
CONTINUOUS
 10
369.4701405634
 20
31.7845221631
 11
369.2967030634
 21
31.8167858495
  0
LINE
  8
0
 62
7
  6
CONTINUOUS
 10
369.6435780634
 20
30.9134025506
 11
369.7592026223
 21
31.0101936212
  0
LINE
  8
0
 62
7
  6
CONTINUOUS
 10
364.1513903428
 20
31.106984703
 11
363.9779528428
 21
31.0101936212
  0
LINE
  8
0
 62
7
  6
CONTINUOUS
 10
366.2326403428
 20
31.7522584767
 11
366.1170157839
 21
31.6877311038
  0
LINE
  8
0
 62
7
  6
CONTINUOUS
 10
366.1170157839
 20
31.5586763581
 11
366.2326403428
 21
31.623203731
  0
LINE
  8
0
 62
7
  6
CONTINUOUS
 10
358.8326405772
 20
31.7845221631
 11
358.6592030565
 21
31.7199947902
  0
LINE
  8
0
 62
7
  6
CONTINUOUS
 10
361.2607654531
 20
31.8167858495
 11
361.0873281185
 21
31.7522584767
  0
LINE
  8
0
 62
7
  6
CONTINUOUS
 10
361.0873281185
 20
31.623203731
 11
361.2607654531
 21
31.6877311038
  0
LINE
  8
0
 62
7
  6
CONTINUOUS
 10
359.8732656185
 20
31.0424573076
 11
359.6998280358
 21
30.9779299347
  0
LINE
  8
0
 62
7
  6
CONTINUOUS
 10
369.2967030634
 20
30.9779299347
 11
369.0654532839
 21
30.945666237
  0
LINE
  8
0
 62
7
  6
CONTINUOUS
 10
363.6888904531
 20
30.81661148
 11
363.9779528428
 21
30.8488751693
  0
LINE
  8
0
 62
7
  6
CONTINUOUS
 10
369.0654532839
 20
30.81661148
 11
369.4123282839
 21
30.8488751693
  0
LINE
  8
0
 62
7
  6
CONTINUOUS
 10
359.3529530358
 20
30.81661148
 11
359.7576405634
 21
30.8488751693
  0
LINE
  8
0
 62
7
  6
CONTINUOUS
 10
359.6998280358
 20
30.9779299347
 11
359.2951405909
 21
30.945666237
  0
LINE
  8
0
 62
7
  6
CONTINUOUS
 10
363.5732655634
 20
31.3650941944
 11
364.2092032839
 21
31.3650941944
  0
LINE
  8
0
 62
7
  6
CONTINUOUS
 10
364.2092032839
 20
31.4941489853
 11
363.5732655634
 21
31.4941489853
  0
LINE
  8
0
 62
7
  6
CONTINUOUS
 10
359.9310780634
 20
31.5264126717
 11
360.2201406185
 21
31.5264126717
  0
LINE
  8
0
 62
7
  6
CONTINUOUS
 10
362.7638906736
 20
31.5909400446
 11
363.0529530634
 21
31.5909400446
  0
LINE
  8
0
 62
7
  6
CONTINUOUS
 10
369.4701405634
 20
31.5909400446
 11
369.7592026223
 21
31.5909400446
  0
LINE
  8
0
 62
7
  6
CONTINUOUS
 10
363.4576406736
 20
31.7199947902
 11
363.8045156736
 21
31.7199947902
  0
LINE
  8
0
 62
7
  6
CONTINUOUS
 10
368.6029530634
 20
31.7199947902
 11
368.9498280634
 21
31.7199947902
  0
LINE
  8
0
 62
7
  6
CONTINUOUS
 10
368.9498280634
 20
31.8490495359
 11
368.6029530634
 21
31.8490495359
  0
LINE
  8
0
 62
7
  6
CONTINUOUS
 10
366.8685780634
 20
31.8490495359
 11
366.6373282839
 21
31.8490495359
  0
LINE
  8
0
 62
7
  6
CONTINUOUS
 10
366.1170157839
 20
31.8490495359
 11
365.8279530634
 21
31.8490495359
  0
LINE
  8
0
 62
7
  6
CONTINUOUS
 10
365.3654528428
 20
31.8490495359
 11
365.0763907839
 21
31.8490495359
  0
LINE
  8
0
 62
7
  6
CONTINUOUS
 10
363.8045156736
 20
31.8490495359
 11
363.4576406736
 21
31.8490495359
  0
LINE
  8
0
 62
7
  6
CONTINUOUS
 10
361.7232656736
 20
31.8490495359
 11
361.4920155634
 21
31.8490495359
  0
LINE
  8
0
 62
7
  6
CONTINUOUS
 10
365.0763907839
 20
32.1716864905
 11
365.3654528428
 21
32.1716864905
  0
LINE
  8
0
 62
7
  6
CONTINUOUS
 10
365.3654528428
 20
32.3330049227
 11
365.0763907839
 21
32.3330049227
  0
LINE
  8
0
 62
7
  6
CONTINUOUS
 10
360.9717030634
 20
32.3330049227
 11
360.6826405082
 21
32.3330049227
  0
LINE
  8
0
 62
7
  6
CONTINUOUS
 10
360.0094848257
 20
32.6198901686
 11
360.4220561743
 21
32.6198901686
  0
LINE
  8
0
 62
7
  6
CONTINUOUS
 10
361.648829088
 20
32.6198901686
 11
363.0422717109
 21
32.6198901686
  0
LINE
  8
0
 62
7
  6
CONTINUOUS
 10
363.3701405634
 20
32.6198901686
 11
364.7635831863
 21
32.6198901686
  0
LINE
  8
0
 62
7
  6
CONTINUOUS
 10
366.648829088
 20
32.6198901686
 11
368.0422717109
 21
32.6198901686
  0
LINE
  8
0
 62
7
  6
CONTINUOUS
 10
368.3701405634
 20
32.6198901686
 11
369.7635831863
 21
32.6198901686
  0
LINE
  8
0
 62
7
  6
CONTINUOUS
 10
366.4060778428
 20
31.8167858495
 11
366.2326403428
 21
31.7522584767
  0
LINE
  8
0
 62
7
  6
CONTINUOUS
 10
363.9779528428
 20
30.8488751693
 11
364.1513903428
 21
30.9134025506
  0
LINE
  8
0
 62
7
  6
CONTINUOUS
 10
369.4123282839
 20
30.8488751693
 11
369.6435780634
 21
30.9134025506
  0
LINE
  8
0
 62
7
  6
CONTINUOUS
 10
369.4123282839
 20
31.0101936212
 11
369.2967030634
 21
30.9779299347
  0
LINE
  8
0
 62
7
  6
CONTINUOUS
 10
368.3717032839
 20
31.6877311038
 11
368.6029530634
 21
31.7199947902
  0
LINE
  8
0
 62
7
  6
CONTINUOUS
 10
366.4060778428
 20
31.6877311038
 11
366.6373282839
 21
31.7199947902
  0
LINE
  8
0
 62
7
  6
CONTINUOUS
 10
363.3420154531
 20
31.332830508
 11
363.5732655634
 21
31.3650941944
  0
LINE
  8
0
 62
7
  6
CONTINUOUS
 10
366.6373282839
 20
31.8490495359
 11
366.4060778428
 21
31.8167858495
  0
LINE
  8
0
 62
7
  6
CONTINUOUS
 10
363.2263905634
 20
31.6877311038
 11
363.4576406736
 21
31.7199947902
  0
LINE
  8
0
 62
7
  6
CONTINUOUS
 10
368.6029530634
 20
31.8490495359
 11
368.2560780634
 21
31.8167858495
  0
LINE
  8
0
 62
7
  6
CONTINUOUS
 10
363.5732655634
 20
31.4941489853
 11
363.2263905634
 21
31.4618852989
  0
LINE
  8
0
 62
7
  6
CONTINUOUS
 10
359.3529530358
 20
31.8490495359
 11
359.0060780772
 21
31.8167858495
  0
LINE
  8
0
 62
7
  6
CONTINUOUS
 10
363.4576406736
 20
31.8490495359
 11
363.0529530634
 21
31.8167858495
  0
LINE
  8
0
 62
7
  6
CONTINUOUS
 10
360.8291569568
 20
33.7674311522
 11
360.1734192519
 21
33.7674311522
  0
LINE
  8
0
 62
7
  6
CONTINUOUS
 10
366.2326403428
 20
31.623203731
 11
366.4060778428
 21
31.6877311038
  0
LINE
  8
0
 62
7
  6
CONTINUOUS
 10
368.2560780634
 20
31.6554674174
 11
368.3717032839
 21
31.6877311038
  0
LINE
  8
0
 62
7
  6
CONTINUOUS
 10
368.2560780634
 20
31.8167858495
 11
368.0248282839
 21
31.7522584767
  0
LINE
  8
0
 62
7
  6
CONTINUOUS
 10
363.9779528428
 20
31.0101936212
 11
363.6888904531
 21
30.945666237
  0
LINE
  8
0
 62
7
  6
CONTINUOUS
 10
361.2607654531
 20
31.6877311038
 11
361.4920155634
 21
31.7199947902
  0
LINE
  8
0
 62
7
  6
CONTINUOUS
 10
361.4920155634
 20
31.8490495359
 11
361.2607654531
 21
31.8167858495
  0
LINE
  8
0
 62
7
  6
CONTINUOUS
 10
359.0638905634
 20
31.6877311038
 11
359.2951405909
 21
31.7199947902
  0
LINE
  8
0
 62
7
  6
CONTINUOUS
 10
365.5832553175
 20
35.2428409882
 11
366.2389930224
 21
35.2428409882
  0
LINE
  8
0
 62
7
  6
CONTINUOUS
 10
363.2263905634
 20
31.3005668216
 11
363.3420154531
 21
31.332830508
  0
LINE
  8
0
 62
7
  6
CONTINUOUS
 10
363.2263905634
 20
31.4618852989
 11
362.9951404531
 21
31.397357926
  0
LINE
  8
0
 62
7
  6
CONTINUOUS
 10
363.1107656736
 20
31.6554674174
 11
363.2263905634
 21
31.6877311038
  0
LINE
  8
0
 62
7
  6
CONTINUOUS
 10
359.7576405634
 20
30.8488751693
 11
359.9888905082
 21
30.9134025506
  0
LINE
  8
0
 62
7
  6
CONTINUOUS
 10
363.0529530634
 20
31.8167858495
 11
362.9373281736
 21
31.7845221631
  0
LINE
  8
0
 62
7
  6
CONTINUOUS
 10
359.0060780772
 20
31.8167858495
 11
358.8326405772
 21
31.7845221631
  0
LINE
  8
0
 62
7
  6
CONTINUOUS
 10
369.7635831863
 20
36.3903819718
 11
368.3701405634
 21
36.3903819718
  0
LINE
  8
0
 62
7
  6
CONTINUOUS
 10
366.4029274486
 20
36.3903819718
 11
365.9903561
 21
36.3903819718
  0
LINE
  8
0
 62
7
  6
CONTINUOUS
 10
364.7635831863
 20
36.3903819718
 11
363.3701405634
 21
36.3903819718
  0
LINE
  8
0
 62
7
  6
CONTINUOUS
 10
363.0422717109
 20
36.3903819718
 11
361.648829088
 21
36.3903819718
  0
LINE
  8
0
 62
7
  6
CONTINUOUS
 10
359.7635831863
 20
36.3903819718
 11
358.3701405634
 21
36.3903819718
  0
LINE
  8
0
 62
7
  6
CONTINUOUS
 10
358.9482655496
 20
31.6554674174
 11
359.0638905634
 21
31.6877311038
  0
CIRCLE
  8
0
 62
7
  6
CONTINUOUS
 10
369.0668618749
 20
38.7264475456
 40
2.0901639344
  0
ARC
  8
0
 62
7
  6
CONTINUOUS
 10
360.0094848257
 20
34.2592344308
 40
1.6393442623
 50
180.0
 51
270.0
  0
ARC
  8
0
 62
7
  6
CONTINUOUS
 10
366.4029274486
 20
34.7510377095
 40
1.6393442623
 50
0.0
 51
90.0
  0
ARC
  8
0
 62
7
  6
CONTINUOUS
 10
360.4220561743
 20
34.0953000046
 40
1.4754098361
 50
270.0
 51
326.2510114041
  0
ARC
  8
0
 62
7
  6
CONTINUOUS
 10
365.9903561
 20
34.9149721358
 40
1.4754098361
 50
90.0
 51
146.2510114041
  0
ARC
  8
0
 62
7
  6
CONTINUOUS
 10
360.8291569568
 20
34.5871032833
 40
0.8196721311
 50
270.0
 51
360.0
  0
ARC
  8
0
 62
7
  6
CONTINUOUS
 10
365.5832553175
 20
34.4231688571
 40
0.8196721311
 50
90.0
 51
180.0
  0
ARC
  8
0
 62
7
  6
CONTINUOUS
 10
360.1734192519
 20
34.1772672177
 40
0.4098360656
 50
180.0
 51
270.0
  0
ARC
  8
0
 62
7
  6
CONTINUOUS
 10
366.2389930224
 20
34.8330049227
 40
0.4098360656
 50
0.0
 51
90.0
  0
SOLID
  8
0
 62
7
  6
CONTINUOUS
 10
365.0763907839
 20
32.1716868508
 11
365.0763907839
 21
32.3330053344
 12
365.3654528428
 22
32.1716868508
 13
365.3654528428
 23
32.3330053344
  0
SOLID
  8
0
 62
7
  6
CONTINUOUS
 10
359.3529530358
 20
31.8490498836
 11
359.7576405634
 21
31.8167854792
 12
359.0060780772
 22
31.8167854792
 13
359.0060780772
 23
31.8167854792
  0
SOLID
  8
0
 62
7
  6
CONTINUOUS
 10
358.8326405772
 20
31.7845227934
 11
359.0060780772
 21
31.8167854792
 12
359.7576405634
 22
31.8167854792
 13
359.7576405634
 23
31.8167854792
  0
SOLID
  8
0
 62
7
  6
CONTINUOUS
 10
359.7576405634
 20
31.8167854792
 11
359.9888905082
 21
31.7522584901
 12
358.8326405772
 22
31.7845227934
 13
358.8326405772
 23
31.7845227934
  0
SOLID
  8
0
 62
7
  6
CONTINUOUS
 10
358.6592030565
 20
31.7199940664
 11
358.8326405772
 21
31.7845227934
 12
359.9888905082
 22
31.7522584901
 13
359.9888905082
 23
31.7522584901
  0
SOLID
  8
0
 62
7
  6
CONTINUOUS
 10
358.6592030565
 20
31.7199940664
 11
359.9888905082
 21
31.7522584901
 12
359.2951405909
 22
31.7199940664
 13
359.2951405909
 23
31.7199940664
  0
SOLID
  8
0
 62
7
  6
CONTINUOUS
 10
359.2951405909
 20
31.7199940664
 11
359.9888905082
 21
31.7522584901
 12
359.6998280358
 22
31.6877314
 13
359.6998280358
 23
31.6877314
  0
SOLID
  8
0
 62
7
  6
CONTINUOUS
 10
359.9888905082
 20
31.7522584901
 11
360.1623280082
 21
31.6554670967
 12
359.6998280358
 22
31.6877314
 13
359.6998280358
 23
31.6877314
  0
SOLID
  8
0
 62
7
  6
CONTINUOUS
 10
359.8732656185
 20
31.6232043098
 11
359.6998280358
 21
31.6877314
 12
360.1623280082
 22
31.6554670967
 13
360.1623280082
 23
31.6554670967
  0
SOLID
  8
0
 62
7
  6
CONTINUOUS
 10
359.8732656185
 20
31.6232043098
 11
360.1623280082
 21
31.6554670967
 12
359.9310780634
 22
31.5264128539
 13
359.9310780634
 23
31.5264128539
  0
SOLID
  8
0
 62
7
  6
CONTINUOUS
 10
360.1623280082
 20
31.6554670967
 11
360.2201406185
 21
31.5264128539
 12
359.9310780634
 22
31.5264128539
 13
359.9310780634
 23
31.5264128539
  0
SOLID
  8
0
 62
7
  6
CONTINUOUS
 10
361.2607654531
 20
31.8167852459
 11
361.4920155634
 21
31.8490495492
 12
361.7232656736
 22
31.8490495492
 13
361.7232656736
 23
31.8490495492
  0
SOLID
  8
0
 62
7
  6
CONTINUOUS
 10
361.7232656736
 20
31.8490495492
 11
361.8967031736
 21
31.8167852459
 12
361.2607654531
 22
31.8167852459
 13
361.2607654531
 23
31.8167852459
  0
SOLID
  8
0
 62
7
  6
CONTINUOUS
 10
361.0873281185
 20
31.7522581557
 11
361.2607654531
 21
31.8167852459
 12
361.8967031736
 22
31.8167852459
 13
361.8967031736
 23
31.8167852459
  0
SOLID
  8
0
 62
7
  6
CONTINUOUS
 10
361.8967031736
 20
31.8167852459
 11
362.0701406736
 21
31.7522581557
 12
361.0873281185
 22
31.7522581557
 13
361.0873281185
 23
31.7522581557
  0
SOLID
  8
0
 62
7
  6
CONTINUOUS
 10
362.0701406736
 20
31.7522581557
 11
361.4920155634
 21
31.7199941869
 12
361.0873281185
 22
31.7522581557
 13
361.0873281185
 23
31.7522581557
  0
SOLID
  8
0
 62
7
  6
CONTINUOUS
 10
360.9717030634
 20
31.6877310656
 11
361.0873281185
 21
31.7522581557
 12
361.4920155634
 22
31.7199941869
 13
361.4920155634
 23
31.7199941869
  0
SOLID
  8
0
 62
7
  6
CONTINUOUS
 10
361.4920155634
 20
31.7199941869
 11
361.2607654531
 21
31.6877310656
 12
360.9717030634
 22
31.6877310656
 13
360.9717030634
 23
31.6877310656
  0
SOLID
  8
0
 62
7
  6
CONTINUOUS
 10
361.4920155634
 20
31.7199941869
 11
362.0701406736
 21
31.7522581557
 12
361.7232656736
 22
31.6877310656
 13
361.7232656736
 23
31.6877310656
  0
SOLID
  8
0
 62
7
  6
CONTINUOUS
 10
362.0701406736
 20
31.7522581557
 11
362.1857655634
 21
31.6877310656
 12
361.7232656736
 22
31.6877310656
 13
361.7232656736
 23
31.6877310656
  0
SOLID
  8
0
 62
7
  6
CONTINUOUS
 10
361.8388905634
 20
31.6554670967
 11
361.7232656736
 21
31.6877310656
 12
362.1857655634
 22
31.6877310656
 13
362.1857655634
 23
31.6877310656
  0
SOLID
  8
0
 62
7
  6
CONTINUOUS
 10
362.1857655634
 20
31.6877310656
 11
362.2435781736
 21
31.6232039754
 12
361.8388905634
 22
31.6554670967
 13
361.8388905634
 23
31.6554670967
  0
SOLID
  8
0
 62
7
  6
CONTINUOUS
 10
361.9545154531
 20
31.5909400065
 11
361.8388905634
 21
31.6554670967
 12
362.2435781736
 22
31.6232039754
 13
362.2435781736
 23
31.6232039754
  0
SOLID
  8
0
 62
7
  6
CONTINUOUS
 10
361.9545154531
 20
31.5909400065
 11
362.2435781736
 21
31.6232039754
 12
362.0123280634
 22
31.4618854918
 13
362.0123280634
 23
31.4618854918
  0
SOLID
  8
0
 62
7
  6
CONTINUOUS
 10
362.2435781736
 20
31.6232039754
 11
362.3013904531
 21
31.4618854918
 12
362.0123280634
 22
31.4618854918
 13
362.0123280634
 23
31.4618854918
  0
SOLID
  8
0
 62
7
  6
CONTINUOUS
 10
361.2607654531
 20
31.6877310656
 11
361.0873281185
 21
31.6232039754
 12
360.9717030634
 22
31.6877310656
 13
360.9717030634
 23
31.6877310656
  0
SOLID
  8
0
 62
7
  6
CONTINUOUS
 10
361.0873281185
 20
31.6232039754
 11
360.9717030634
 21
31.5586757033
 12
360.9717030634
 22
31.6877310656
 13
360.9717030634
 23
31.6877310656
  0
SOLID
  8
0
 62
7
  6
CONTINUOUS
 10
360.9717030634
 20
31.5586757033
 11
360.6826405082
 21
30.8166115574
 12
360.9717030634
 22
31.6877310656
 13
360.9717030634
 23
31.6877310656
  0
SOLID
  8
0
 62
7
  6
CONTINUOUS
 10
360.9717030634
 20
31.6877310656
 11
360.6826405082
 21
30.8166115574
 12
360.9717030634
 22
32.333005
 13
360.9717030634
 23
32.333005
  0
SOLID
  8
0
 62
7
  6
CONTINUOUS
 10
360.6826405082
 20
30.8166115574
 11
360.6826405082
 21
32.333005
 12
360.9717030634
 22
32.333005
 13
360.9717030634
 23
32.333005
  0
SOLID
  8
0
 62
7
  6
CONTINUOUS
 10
360.9717030634
 20
31.5586757033
 11
360.9717030634
 21
30.8166115574
 12
360.6826405082
 22
30.8166115574
 13
360.6826405082
 23
30.8166115574
  0
SOLID
  8
0
 62
7
  6
CONTINUOUS
 10
362.0123280634
 20
30.8166115574
 11
362.0123280634
 21
31.4618854918
 12
362.3013904531
 22
31.4618854918
 13
362.3013904531
 23
31.4618854918
  0
SOLID
  8
0
 62
7
  6
CONTINUOUS
 10
362.3013904531
 20
31.4618854918
 11
362.3013904531
 21
30.8166115574
 12
362.0123280634
 22
30.8166115574
 13
362.0123280634
 23
30.8166115574
  0
SOLID
  8
0
 62
7
  6
CONTINUOUS
 10
363.0529530634
 20
31.8167856315
 11
363.4576406736
 21
31.8490496243
 12
363.8045156736
 22
31.8490496243
 13
363.8045156736
 23
31.8490496243
  0
SOLID
  8
0
 62
7
  6
CONTINUOUS
 10
363.8045156736
 20
31.8490496243
 11
364.1513903428
 21
31.8167856315
 12
363.0529530634
 22
31.8167856315
 13
363.0529530634
 23
31.8167856315
  0
SOLID
  8
0
 62
7
  6
CONTINUOUS
 10
362.9373281736
 20
31.7845227934
 11
363.0529530634
 21
31.8167856315
 12
364.1513903428
 22
31.8167856315
 13
364.1513903428
 23
31.8167856315
  0
SOLID
  8
0
 62
7
  6
CONTINUOUS
 10
364.1513903428
 20
31.8167856315
 11
364.3248278428
 21
31.7522584901
 12
362.9373281736
 22
31.7845227934
 13
362.9373281736
 23
31.7845227934
  0
SOLID
  8
0
 62
7
  6
CONTINUOUS
 10
362.8217029531
 20
31.7199944276
 11
362.9373281736
 21
31.7845227934
 12
364.3248278428
 22
31.7522584901
 13
364.3248278428
 23
31.7522584901
  0
SOLID
  8
0
 62
7
  6
CONTINUOUS
 10
362.8217029531
 20
31.7199944276
 11
364.3248278428
 21
31.7522584901
 12
363.4576406736
 22
31.7199944276
 13
363.4576406736
 23
31.7199944276
  0
SOLID
  8
0
 62
7
  6
CONTINUOUS
 10
363.4576406736
 20
31.7199944276
 11
364.3248278428
 21
31.7522584901
 12
363.8045156736
 22
31.7199944276
 13
363.8045156736
 23
31.7199944276
  0
SOLID
  8
0
 62
7
  6
CONTINUOUS
 10
363.8045156736
 20
31.7199944276
 11
364.3248278428
 21
31.7522584901
 12
364.0357657839
 22
31.6877312092
 13
364.0357657839
 23
31.6877312092
  0
SOLID
  8
0
 62
7
  6
CONTINUOUS
 10
364.3248278428
 20
31.7522584901
 11
364.4404530634
 21
31.6877312092
 12
364.0357657839
 22
31.6877312092
 13
364.0357657839
 23
31.6877312092
  0
SOLID
  8
0
 62
7
  6
CONTINUOUS
 10
362.7638906736
 20
31.6554672165
 11
362.8217029531
 21
31.7199944276
 12
363.4576406736
 22
31.7199944276
 13
363.4576406736
 23
31.7199944276
  0
SOLID
  8
0
 62
7
  6
CONTINUOUS
 10
364.1513903428
 20
31.6554672165
 11
364.0357657839
 21
31.6877312092
 12
364.4404530634
 22
31.6877312092
 13
364.4404530634
 23
31.6877312092
  0
SOLID
  8
0
 62
7
  6
CONTINUOUS
 10
364.1513903428
 20
31.6554672165
 11
364.4404530634
 21
31.6877312092
 12
364.2092032839
 22
31.5909400053
 13
364.2092032839
 23
31.5909400053
  0
SOLID
  8
0
 62
7
  6
CONTINUOUS
 10
364.4404530634
 20
31.6877312092
 11
364.4982653428
 21
31.5909400053
 12
364.2092032839
 22
31.5909400053
 13
364.2092032839
 23
31.5909400053
  0
SOLID
  8
0
 62
7
  6
CONTINUOUS
 10
364.2092032839
 20
31.4941486131
 11
364.2092032839
 21
31.5909400053
 12
364.4982653428
 22
31.5909400053
 13
364.4982653428
 23
31.5909400053
  0
SOLID
  8
0
 62
7
  6
CONTINUOUS
 10
364.2092032839
 20
31.4941486131
 11
364.4982653428
 21
31.5909400053
 12
364.2092032839
 22
31.3650944328
 13
364.2092032839
 23
31.3650944328
  0
SOLID
  8
0
 62
7
  6
CONTINUOUS
 10
364.2092032839
 20
31.3650944328
 11
364.4982653428
 21
31.5909400053
 12
364.2092032839
 22
31.1715120759
 13
364.2092032839
 23
31.1715120759
  0
SOLID
  8
0
 62
7
  6
CONTINUOUS
 10
364.4982653428
 20
31.5909400053
 11
364.4982653428
 21
31.0747202524
 12
364.2092032839
 22
31.1715120759
 13
364.2092032839
 23
31.1715120759
  0
SOLID
  8
0
 62
7
  6
CONTINUOUS
 10
366.4060778428
 20
31.8167851023
 11
366.6373282839
 21
31.849049822
 12
366.8685780634
 22
31.849049822
 13
366.8685780634
 23
31.849049822
  0
SOLID
  8
0
 62
7
  6
CONTINUOUS
 10
366.8685780634
 20
31.849049822
 11
367.0420155634
 21
31.8167851023
 12
366.4060778428
 22
31.8167851023
 13
366.4060778428
 23
31.8167851023
  0
SOLID
  8
0
 62
7
  6
CONTINUOUS
 10
366.2326403428
 20
31.7522587602
 11
366.4060778428
 21
31.8167851023
 12
367.0420155634
 22
31.8167851023
 13
367.0420155634
 23
31.8167851023
  0
SOLID
  8
0
 62
7
  6
CONTINUOUS
 10
367.0420155634
 20
31.8167851023
 11
367.2154530634
 21
31.7522587602
 12
366.2326403428
 22
31.7522587602
 13
366.2326403428
 23
31.7522587602
  0
SOLID
  8
0
 62
7
  6
CONTINUOUS
 10
367.2154530634
 20
31.7522587602
 11
366.6373282839
 21
31.7199941869
 12
366.2326403428
 22
31.7522587602
 13
366.2326403428
 23
31.7522587602
  0
SOLID
  8
0
 62
7
  6
CONTINUOUS
 10
366.1170157839
 20
31.6877313857
 11
366.2326403428
 21
31.7522587602
 12
366.6373282839
 22
31.7199941869
 13
366.6373282839
 23
31.7199941869
  0
SOLID
  8
0
 62
7
  6
CONTINUOUS
 10
366.6373282839
 20
31.7199941869
 11
366.4060778428
 21
31.6877313857
 12
366.1170157839
 22
31.6877313857
 13
366.1170157839
 23
31.6877313857
  0
SOLID
  8
0
 62
7
  6
CONTINUOUS
 10
366.6373282839
 20
31.7199941869
 11
367.2154530634
 21
31.7522587602
 12
366.8685780634
 22
31.6877313857
 13
366.8685780634
 23
31.6877313857
  0
SOLID
  8
0
 62
7
  6
CONTINUOUS
 10
367.2154530634
 20
31.7522587602
 11
367.3310782839
 21
31.6877313857
 12
366.8685780634
 22
31.6877313857
 13
366.8685780634
 23
31.6877313857
  0
SOLID
  8
0
 62
7
  6
CONTINUOUS
 10
366.9842032839
 20
31.6554670967
 11
366.8685780634
 21
31.6877313857
 12
367.3310782839
 22
31.6877313857
 13
367.3310782839
 23
31.6877313857
  0
SOLID
  8
0
 62
7
  6
CONTINUOUS
 10
366.9842032839
 20
31.6554670967
 11
367.3310782839
 21
31.6877313857
 12
367.0998278428
 22
31.590940324
 13
367.0998278428
 23
31.590940324
  0
SOLID
  8
0
 62
7
  6
CONTINUOUS
 10
367.3310782839
 20
31.6877313857
 11
367.3888905634
 21
31.590940324
 12
367.0998278428
 22
31.590940324
 13
367.0998278428
 23
31.590940324
  0
SOLID
  8
0
 62
7
  6
CONTINUOUS
 10
367.1576407839
 20
31.4296218878
 11
367.0998278428
 21
31.590940324
 12
367.3888905634
 22
31.590940324
 13
367.3888905634
 23
31.590940324
  0
SOLID
  8
0
 62
7
  6
CONTINUOUS
 10
367.3888905634
 20
31.590940324
 11
367.4467028428
 21
31.4296218878
 12
367.1576407839
 22
31.4296218878
 13
367.1576407839
 23
31.4296218878
  0
SOLID
  8
0
 62
7
  6
CONTINUOUS
 10
366.4060778428
 20
31.6877313857
 11
366.2326403428
 21
31.6232043098
 12
366.1170157839
 22
31.6877313857
 13
366.1170157839
 23
31.6877313857
  0
SOLID
  8
0
 62
7
  6
CONTINUOUS
 10
366.2326403428
 20
31.6232043098
 11
366.1170157839
 21
31.5586757033
 12
366.1170157839
 22
31.6877313857
 13
366.1170157839
 23
31.6877313857
  0
SOLID
  8
0
 62
7
  6
CONTINUOUS
 10
366.1170157839
 20
31.5586757033
 11
365.8279530634
 21
30.8166118302
 12
366.1170157839
 22
31.6877313857
 13
366.1170157839
 23
31.6877313857
  0
SOLID
  8
0
 62
7
  6
CONTINUOUS
 10
366.1170157839
 20
31.6877313857
 11
365.8279530634
 21
30.8166118302
 12
366.1170157839
 22
31.849049822
 13
366.1170157839
 23
31.849049822
  0
SOLID
  8
0
 62
7
  6
CONTINUOUS
 10
365.8279530634
 20
30.8166118302
 11
365.8279530634
 21
31.849049822
 12
366.1170157839
 22
31.849049822
 13
366.1170157839
 23
31.849049822
  0
SOLID
  8
0
 62
7
  6
CONTINUOUS
 10
366.1170157839
 20
31.5586757033
 11
366.1170157839
 21
30.8166118302
 12
365.8279530634
 22
30.8166118302
 13
365.8279530634
 23
30.8166118302
  0
SOLID
  8
0
 62
7
  6
CONTINUOUS
 10
367.1576407839
 20
30.8166118302
 11
367.1576407839
 21
31.4296218878
 12
367.4467028428
 22
31.4296218878
 13
367.4467028428
 23
31.4296218878
  0
SOLID
  8
0
 62
7
  6
CONTINUOUS
 10
367.4467028428
 20
31.4296218878
 11
367.4467028428
 21
30.8166118302
 12
367.1576407839
 22
30.8166118302
 13
367.1576407839
 23
30.8166118302
  0
SOLID
  8
0
 62
7
  6
CONTINUOUS
 10
368.2560780634
 20
31.8167856056
 11
368.6029530634
 21
31.8490498552
 12
368.9498280634
 22
31.8490498552
 13
368.9498280634
 23
31.8490498552
  0
SOLID
  8
0
 62
7
  6
CONTINUOUS
 10
368.9498280634
 20
31.8490498552
 11
369.2967030634
 21
31.8167856056
 12
368.2560780634
 22
31.8167856056
 13
368.2560780634
 23
31.8167856056
  0
SOLID
  8
0
 62
7
  6
CONTINUOUS
 10
368.0248282839
 20
31.7522584901
 11
368.2560780634
 21
31.8167856056
 12
369.2967030634
 22
31.8167856056
 13
369.2967030634
 23
31.8167856056
  0
SOLID
  8
0
 62
7
  6
CONTINUOUS
 10
368.0248282839
 20
31.7522584901
 11
369.2967030634
 21
31.8167855803
 12
369.4701405634
 22
31.7845227934
 13
369.4701405634
 23
31.7845227934
  0
SOLID
  8
0
 62
7
  6
CONTINUOUS
 10
368.0248282839
 20
31.7522584901
 11
369.4701405634
 21
31.7845227934
 12
368.6029530634
 22
31.7199941235
 13
368.6029530634
 23
31.7199941235
  0
SOLID
  8
0
 62
7
  6
CONTINUOUS
 10
368.6029530634
 20
31.7199941235
 11
369.4701405634
 21
31.7845227934
 12
368.9498280634
 22
31.7199941235
 13
368.9498280634
 23
31.7199941235
  0
SOLID
  8
0
 62
7
  6
CONTINUOUS
 10
369.4701405634
 20
31.7845227934
 11
369.6435780634
 21
31.7199941235
 12
368.9498280634
 22
31.7199941235
 13
368.9498280634
 23
31.7199941235
  0
SOLID
  8
0
 62
7
  6
CONTINUOUS
 10
369.2967030634
 20
31.6877314
 11
368.9498280634
 21
31.7199941235
 12
369.6435780634
 22
31.7199941235
 13
369.6435780634
 23
31.7199941235
  0
SOLID
  8
0
 62
7
  6
CONTINUOUS
 10
367.9092030634
 20
31.6554671071
 11
368.0248282839
 21
31.7522584901
 12
368.6029530634
 22
31.7199941235
 13
368.6029530634
 23
31.7199941235
  0
SOLID
  8
0
 62
7
  6
CONTINUOUS
 10
369.2967030634
 20
31.6877314
 11
369.6435780634
 21
31.7199941235
 12
369.4123282839
 22
31.6554671071
 13
369.4123282839
 23
31.6554671071
  0
SOLID
  8
0
 62
7
  6
CONTINUOUS
 10
369.4123282839
 20
31.6554671071
 11
369.6435780634
 21
31.7199941235
 12
369.4701405634
 22
31.5909400907
 13
369.4701405634
 23
31.5909400907
  0
SOLID
  8
0
 62
7
  6
CONTINUOUS
 10
369.6435780634
 20
31.7199941235
 11
369.7592026223
 21
31.5909400907
 12
369.4701405634
 22
31.5909400907
 13
369.4701405634
 23
31.5909400907
  0
SOLID
  8
0
 62
7
  6
CONTINUOUS
 10
359.0638905634
 20
31.6877314
 11
358.5435780634
 21
31.6554670789
 12
359.2951405909
 22
31.7199941045
 13
359.2951405909
 23
31.7199941045
  0
SOLID
  8
0
 62
7
  6
CONTINUOUS
 10
358.5435780634
 20
31.6554670789
 11
358.6592030565
 21
31.7199941045
 12
359.2951405909
 22
31.7199941045
 13
359.2951405909
 23
31.7199941045
  0
SOLID
  8
0
 62
7
  6
CONTINUOUS
 10
359.0638905634
 20
31.6877314
 11
358.9482655496
 21
31.6554670789
 12
358.5435780634
 22
31.6554670789
 13
358.5435780634
 23
31.6554670789
  0
SOLID
  8
0
 62
7
  6
CONTINUOUS
 10
358.4279530651
 20
31.5264129164
 11
358.5435780634
 21
31.6554670789
 12
358.9482655496
 22
31.6554670789
 13
358.9482655496
 23
31.6554670789
  0
SOLID
  8
0
 62
7
  6
CONTINUOUS
 10
362.7638906736
 20
31.6554670789
 11
363.4576406736
 21
31.7199941869
 12
363.2263905634
 22
31.6877314
 13
363.2263905634
 23
31.6877314
  0
SOLID
  8
0
 62
7
  6
CONTINUOUS
 10
363.2263905634
 20
31.6877314
 11
363.1107656736
 21
31.6554670789
 12
362.7638906736
 22
31.6554670789
 13
362.7638906736
 23
31.6554670789
  0
SOLID
  8
0
 62
7
  6
CONTINUOUS
 10
362.7638906736
 20
31.5909399887
 11
362.7638906736
 21
31.6554670789
 12
363.1107656736
 22
31.6554670789
 13
363.1107656736
 23
31.6554670789
  0
SOLID
  8
0
 62
7
  6
CONTINUOUS
 10
363.1107656736
 20
31.6554670789
 11
363.0529530634
 21
31.5909399887
 12
362.7638906736
 22
31.5909399887
 13
362.7638906736
 23
31.5909399887
  0
SOLID
  8
0
 62
7
  6
CONTINUOUS
 10
367.9092030634
 20
31.6554670789
 11
368.6029530634
 21
31.7199941869
 12
368.3717032839
 22
31.6877314
 13
368.3717032839
 23
31.6877314
  0
SOLID
  8
0
 62
7
  6
CONTINUOUS
 10
368.3717032839
 20
31.6877314
 11
368.2560780634
 21
31.6554670789
 12
367.9092030634
 22
31.6554670789
 13
367.9092030634
 23
31.6554670789
  0
SOLID
  8
0
 62
7
  6
CONTINUOUS
 10
367.9092030634
 20
31.5909399887
 11
367.9092030634
 21
31.6554670789
 12
368.2560780634
 22
31.6554670789
 13
368.2560780634
 23
31.6554670789
  0
SOLID
  8
0
 62
7
  6
CONTINUOUS
 10
368.2560780634
 20
31.6554670789
 11
368.1982657839
 21
31.5909399887
 12
367.9092030634
 22
31.5909399887
 13
367.9092030634
 23
31.5909399887
  0
SOLID
  8
0
 62
7
  6
CONTINUOUS
 10
368.0248282839
 20
31.4618858262
 11
367.9092030634
 21
31.5909399887
 12
368.1982657839
 22
31.5909399887
 13
368.1982657839
 23
31.5909399887
  0
SOLID
  8
0
 62
7
  6
CONTINUOUS
 10
358.4279530651
 20
31.5264129164
 11
358.9482655496
 21
31.6554670967
 12
358.7748280496
 22
31.5586757033
 13
358.7748280496
 23
31.5586757033
  0
SOLID
  8
0
 62
7
  6
CONTINUOUS
 10
358.7748280496
 20
31.5586757033
 11
358.7170155634
 21
31.4941486131
 12
358.4279530651
 22
31.5264129164
 13
358.4279530651
 23
31.5264129164
  0
SOLID
  8
0
 62
7
  6
CONTINUOUS
 10
358.3701405634
 20
31.3328301295
 11
358.4279530651
 21
31.5264129164
 12
358.7170155634
 22
31.4941486131
 13
358.7170155634
 23
31.4941486131
  0
SOLID
  8
0
 62
7
  6
CONTINUOUS
 10
363.2263905634
 20
31.4618858262
 11
363.5732655634
 21
31.4941485791
 12
364.2092032839
 22
31.4941485791
 13
364.2092032839
 23
31.4941485791
  0
SOLID
  8
0
 62
7
  6
CONTINUOUS
 10
363.2263905634
 20
31.4618858262
 11
364.2092032839
 21
31.4941485791
 12
362.9951404531
 22
31.397357926
 13
362.9951404531
 23
31.397357926
  0
SOLID
  8
0
 62
7
  6
CONTINUOUS
 10
362.9951404531
 20
31.397357926
 11
364.2092032839
 21
31.4941485791
 12
363.5732655634
 22
31.3650943988
 13
363.5732655634
 23
31.3650943988
  0
SOLID
  8
0
 62
7
  6
CONTINUOUS
 10
364.2092032839
 20
31.4941485791
 11
364.2092032839
 21
31.3650943988
 12
363.5732655634
 22
31.3650943988
 13
363.5732655634
 23
31.3650943988
  0
SOLID
  8
0
 62
7
  6
CONTINUOUS
 10
368.0248282839
 20
31.4618859165
 11
368.1982657839
 21
31.5909400065
 12
368.2560780634
 22
31.5264129164
 13
368.2560780634
 23
31.5264129164
  0
SOLID
  8
0
 62
7
  6
CONTINUOUS
 10
368.2560780634
 20
31.5264129164
 11
368.4295155634
 21
31.4618859165
 12
368.0248282839
 22
31.4618859165
 13
368.0248282839
 23
31.4618859165
  0
SOLID
  8
0
 62
7
  6
CONTINUOUS
 10
368.2560780634
 20
31.3650944328
 11
368.0248282839
 21
31.4618859165
 12
368.4295155634
 22
31.4618859165
 13
368.4295155634
 23
31.4618859165
  0
SOLID
  8
0
 62
7
  6
CONTINUOUS
 10
368.4295155634
 20
31.4618859165
 11
369.4123282839
 21
31.3005673426
 12
368.2560780634
 22
31.3650944328
 13
368.2560780634
 23
31.3650944328
  0
SOLID
  8
0
 62
7
  6
CONTINUOUS
 10
369.2388907839
 20
31.2037760287
 11
368.2560780634
 21
31.3650944328
 12
369.4123282839
 22
31.3005673426
 13
369.4123282839
 23
31.3005673426
  0
SOLID
  8
0
 62
7
  6
CONTINUOUS
 10
369.4123282839
 20
31.3005673426
 11
369.6435780634
 21
31.2037760287
 12
369.2388907839
 22
31.2037760287
 13
369.2388907839
 23
31.2037760287
  0
SOLID
  8
0
 62
7
  6
CONTINUOUS
 10
369.4123282839
 20
31.139248859
 11
369.2388907839
 21
31.2037760287
 12
369.6435780634
 22
31.2037760287
 13
369.6435780634
 23
31.2037760287
  0
SOLID
  8
0
 62
7
  6
CONTINUOUS
 10
369.4123282839
 20
31.139248859
 11
369.6435780634
 21
31.2037760287
 12
369.4701405634
 22
31.0747203105
 13
369.4701405634
 23
31.0747203105
  0
SOLID
  8
0
 62
7
  6
CONTINUOUS
 10
369.6435780634
 20
31.2037760287
 11
369.7592026223
 21
31.0747203105
 12
369.4701405634
 22
31.0747203105
 13
369.4701405634
 23
31.0747203105
  0
SOLID
  8
0
 62
7
  6
CONTINUOUS
 10
369.4123282839
 20
31.0101932257
 11
369.4701405634
 21
31.0747203105
 12
369.7592026223
 22
31.0747203105
 13
369.7592026223
 23
31.0747203105
  0
SOLID
  8
0
 62
7
  6
CONTINUOUS
 10
369.7592026223
 20
31.0747203105
 11
369.7592026223
 21
31.0101932257
 12
369.4123282839
 22
31.0101932257
 13
369.4123282839
 23
31.0101932257
  0
SOLID
  8
0
 62
7
  6
CONTINUOUS
 10
369.2967030634
 20
30.9779303754
 11
369.4123282839
 21
31.0101932257
 12
369.7592026223
 22
31.0101932257
 13
369.7592026223
 23
31.0101932257
  0
SOLID
  8
0
 62
7
  6
CONTINUOUS
 10
369.2967030634
 20
30.9779303754
 11
369.7592026223
 21
31.0101932257
 12
369.0654532839
 22
30.9456661409
 13
369.0654532839
 23
30.9456661409
  0
SOLID
  8
0
 62
7
  6
CONTINUOUS
 10
369.7592026223
 20
31.0101932257
 11
369.6435780634
 21
30.9134032852
 12
369.0654532839
 22
30.9456661409
 13
369.0654532839
 23
30.9456661409
  0
SOLID
  8
0
 62
7
  6
CONTINUOUS
 10
369.6435780634
 20
30.9134032852
 11
368.1982657839
 21
30.8811389819
 12
369.0654532839
 22
30.9456661409
 13
369.0654532839
 23
30.9456661409
  0
SOLID
  8
0
 62
7
  6
CONTINUOUS
 10
369.0654532839
 20
30.9456661409
 11
368.1982657839
 21
30.8811389819
 12
368.7185782839
 22
30.9456661409
 13
368.7185782839
 23
30.9456661409
  0
SOLID
  8
0
 62
7
  6
CONTINUOUS
 10
368.1982657839
 20
30.8811389819
 11
368.0248282839
 21
30.9456661409
 12
368.7185782839
 22
30.9456661409
 13
368.7185782839
 23
30.9456661409
  0
SOLID
  8
0
 62
7
  6
CONTINUOUS
 10
368.1982657839
 20
30.8811389819
 11
369.6435780634
 21
30.9134032852
 12
368.3717032839
 22
30.8488743522
 13
368.3717032839
 23
30.8488743522
  0
SOLID
  8
0
 62
7
  6
CONTINUOUS
 10
369.6435780634
 20
30.9134032852
 11
369.4123282839
 21
30.8488743522
 12
368.3717032839
 22
30.8488743522
 13
368.3717032839
 23
30.8488743522
  0
SOLID
  8
0
 62
7
  6
CONTINUOUS
 10
368.7185782839
 20
30.8166119713
 11
368.3717032839
 21
30.8488743522
 12
369.4123282839
 22
30.8488743522
 13
369.4123282839
 23
30.8488743522
  0
SOLID
  8
0
 62
7
  6
CONTINUOUS
 10
369.4123282839
 20
30.8488743522
 11
369.0654532839
 21
30.8166119713
 12
368.7185782839
 22
30.8166119713
 13
368.7185782839
 23
30.8166119713
  0
SOLID
  8
0
 62
7
  6
CONTINUOUS
 10
358.3701405634
 20
31.3328301295
 11
358.7170155634
 21
31.4941486131
 12
358.6592030565
 22
31.3650944328
 13
358.6592030565
 23
31.3650944328
  0
SOLID
  8
0
 62
7
  6
CONTINUOUS
 10
358.6592030565
 20
31.3650944328
 11
358.6592030565
 21
31.2683031351
 12
358.3701405634
 22
31.3328301295
 13
358.3701405634
 23
31.3328301295
  0
SOLID
  8
0
 62
7
  6
CONTINUOUS
 10
358.4279530651
 20
31.139248859
 11
358.3701405634
 21
31.3328301295
 12
358.6592030565
 22
31.2683031351
 13
358.6592030565
 23
31.2683031351
  0
SOLID
  8
0
 62
7
  6
CONTINUOUS
 10
358.6592030565
 20
31.2683031351
 11
358.7748280496
 21
31.1069845557
 12
358.4279530651
 22
31.139248859
 13
358.4279530651
 23
31.139248859
  0
SOLID
  8
0
 62
7
  6
CONTINUOUS
 10
358.5435780634
 20
31.0101931569
 11
358.4279530651
 21
31.139248859
 12
358.7748280496
 22
31.1069845557
 13
358.7748280496
 23
31.1069845557
  0
SOLID
  8
0
 62
7
  6
CONTINUOUS
 10
358.7748280496
 20
31.1069845557
 11
358.9482655496
 21
31.0101931569
 12
358.5435780634
 22
31.0101931569
 13
358.5435780634
 23
31.0101931569
  0
SOLID
  8
0
 62
7
  6
CONTINUOUS
 10
358.6592030565
 20
30.9456659241
 11
358.5435780634
 21
31.0101931569
 12
358.9482655496
 22
31.0101931569
 13
358.9482655496
 23
31.0101931569
  0
SOLID
  8
0
 62
7
  6
CONTINUOUS
 10
358.9482655496
 20
31.0101931569
 11
359.2951405909
 21
30.9456659241
 12
358.6592030565
 22
30.9456659241
 13
358.6592030565
 23
30.9456659241
  0
SOLID
  8
0
 62
7
  6
CONTINUOUS
 10
358.8326405772
 20
30.8811389819
 11
358.6592030565
 21
30.9456659241
 12
359.2951405909
 22
30.9456659241
 13
359.2951405909
 23
30.9456659241
  0
SOLID
  8
0
 62
7
  6
CONTINUOUS
 10
362.8795155634
 20
31.3328301325
 11
362.9951404531
 21
31.397357926
 12
363.5732655634
 22
31.3650944328
 13
363.5732655634
 23
31.3650944328
  0
SOLID
  8
0
 62
7
  6
CONTINUOUS
 10
363.5732655634
 20
31.3650944328
 11
363.3420154531
 21
31.3328301325
 12
362.8795155634
 22
31.3328301325
 13
362.8795155634
 23
31.3328301325
  0
SOLID
  8
0
 62
7
  6
CONTINUOUS
 10
362.7638906736
 20
31.2037759492
 11
362.8795155634
 21
31.3328301325
 12
363.3420154531
 22
31.3328301325
 13
363.3420154531
 23
31.3328301325
  0
SOLID
  8
0
 62
7
  6
CONTINUOUS
 10
363.1107656736
 20
31.2360394487
 11
362.7638906736
 21
31.2037759492
 12
363.2263905634
 22
31.3005673426
 13
363.2263905634
 23
31.3005673426
  0
SOLID
  8
0
 62
7
  6
CONTINUOUS
 10
362.7638906736
 20
31.2037759492
 11
363.3420154531
 21
31.3328301295
 12
363.2263905634
 22
31.3005673426
 13
363.2263905634
 23
31.3005673426
  0
SOLID
  8
0
 62
7
  6
CONTINUOUS
 10
363.1107656736
 20
31.2360394487
 11
363.0529530634
 21
31.139248859
 12
362.7638906736
 22
31.2037759492
 13
362.7638906736
 23
31.2037759492
  0
SOLID
  8
0
 62
7
  6
CONTINUOUS
 10
362.7638906736
 20
31.1069845557
 11
362.7638906736
 21
31.2037759492
 12
363.0529530634
 22
31.139248859
 13
363.0529530634
 23
31.139248859
  0
SOLID
  8
0
 62
7
  6
CONTINUOUS
 10
363.0529530634
 20
31.139248859
 11
363.0529530634
 21
31.0747202524
 12
362.7638906736
 22
31.1069845557
 13
362.7638906736
 23
31.1069845557
  0
SOLID
  8
0
 62
7
  6
CONTINUOUS
 10
362.8217029531
 20
30.9779303754
 11
362.7638906736
 21
31.1069845557
 12
363.0529530634
 22
31.0747202524
 13
363.0529530634
 23
31.0747202524
  0
SOLID
  8
0
 62
7
  6
CONTINUOUS
 10
364.2092032839
 20
31.1715120759
 11
364.4982653428
 21
31.0747202524
 12
364.1513903428
 22
31.1069845557
 13
364.1513903428
 23
31.1069845557
  0
SOLID
  8
0
 62
7
  6
CONTINUOUS
 10
363.9779528428
 20
31.0101931623
 11
364.1513903428
 21
31.1069845557
 12
364.4982653428
 22
31.0747202524
 13
364.4982653428
 23
31.0747202524
  0
SOLID
  8
0
 62
7
  6
CONTINUOUS
 10
363.9779528428
 20
31.0101931623
 11
364.4982653428
 21
31.0747202524
 12
364.2092032839
 22
30.9779303754
 13
364.2092032839
 23
30.9779303754
  0
SOLID
  8
0
 62
7
  6
CONTINUOUS
 10
364.4982653428
 20
31.0747202524
 11
364.5560782839
 21
30.9134032852
 12
364.2092032839
 22
30.9779303754
 13
364.2092032839
 23
30.9779303754
  0
SOLID
  8
0
 62
7
  6
CONTINUOUS
 10
364.2670155634
 20
30.8811389819
 11
364.2092032839
 21
30.9779303754
 12
364.5560782839
 22
30.9134032852
 13
364.5560782839
 23
30.9134032852
  0
SOLID
  8
0
 62
7
  6
CONTINUOUS
 10
364.2670155634
 20
30.8811389819
 11
364.5560782839
 21
30.9134032852
 12
364.3248278428
 22
30.816611867
 13
364.3248278428
 23
30.816611867
  0
SOLID
  8
0
 62
7
  6
CONTINUOUS
 10
364.5560782839
 20
30.9134032852
 11
364.6138905634
 21
30.816611867
 12
364.3248278428
 22
30.816611867
 13
364.3248278428
 23
30.816611867
  0
SOLID
  8
0
 62
7
  6
CONTINUOUS
 10
359.8732656185
 20
31.0424573076
 11
359.9310780634
 21
31.1392488159
 12
360.2201406185
 22
31.1392488159
 13
360.2201406185
 23
31.1392488159
  0
SOLID
  8
0
 62
7
  6
CONTINUOUS
 10
360.2201406185
 20
31.1392488159
 11
360.1623280082
 21
31.0101931623
 12
359.8732656185
 22
31.0424573076
 13
359.8732656185
 23
31.0424573076
  0
SOLID
  8
0
 62
7
  6
CONTINUOUS
 10
359.6998280358
 20
30.9779303754
 11
359.8732656185
 21
31.0424573076
 12
360.1623280082
 22
31.0101931623
 13
360.1623280082
 23
31.0101931623
  0
SOLID
  8
0
 62
7
  6
CONTINUOUS
 10
359.6998280358
 20
30.9779303754
 11
360.1623280082
 21
31.0101931623
 12
359.2951405909
 22
30.9456660721
 13
359.2951405909
 23
30.9456660721
  0
SOLID
  8
0
 62
7
  6
CONTINUOUS
 10
360.1623280082
 20
31.0101931623
 11
359.9888905082
 21
30.9134032852
 12
359.2951405909
 22
30.9456660721
 13
359.2951405909
 23
30.9456660721
  0
SOLID
  8
0
 62
7
  6
CONTINUOUS
 10
358.8326405772
 20
30.8811389819
 11
359.2951405909
 21
30.9456660721
 12
359.9888905082
 22
30.9134032852
 13
359.9888905082
 23
30.9134032852
  0
SOLID
  8
0
 62
7
  6
CONTINUOUS
 10
358.8326405772
 20
30.8811389819
 11
359.9888905082
 21
30.9134032852
 12
359.0060780772
 22
30.8488745775
 13
359.0060780772
 23
30.8488745775
  0
SOLID
  8
0
 62
7
  6
CONTINUOUS
 10
359.9888905082
 20
30.9134032852
 11
359.7576405634
 21
30.8488745775
 12
359.0060780772
 22
30.8488745775
 13
359.0060780772
 23
30.8488745775
  0
SOLID
  8
0
 62
7
  6
CONTINUOUS
 10
359.3529530358
 20
30.8166118918
 11
359.0060780772
 21
30.8488745775
 12
359.7576405634
 22
30.8488745775
 13
359.7576405634
 23
30.8488745775
  0
SOLID
  8
0
 62
7
  6
CONTINUOUS
 10
362.8217029531
 20
30.9779303754
 11
363.0529530634
 21
31.0747202524
 12
363.1107656736
 22
31.0101931623
 13
363.1107656736
 23
31.0101931623
  0
SOLID
  8
0
 62
7
  6
CONTINUOUS
 10
363.1107656736
 20
31.0101931623
 11
363.3420154531
 21
30.9456660721
 12
362.8217029531
 22
30.9779303754
 13
362.8217029531
 23
30.9779303754
  0
SOLID
  8
0
 62
7
  6
CONTINUOUS
 10
362.9951404531
 20
30.8811389819
 11
362.8217029531
 21
30.9779303754
 12
363.3420154531
 22
30.9456660721
 13
363.3420154531
 23
30.9456660721
  0
SOLID
  8
0
 62
7
  6
CONTINUOUS
 10
363.6888904531
 20
30.9456661188
 11
363.9779528428
 21
31.0101931623
 12
364.2092032839
 22
30.9779303754
 13
364.2092032839
 23
30.9779303754
  0
SOLID
  8
0
 62
7
  6
CONTINUOUS
 10
364.2092032839
 20
30.9779303754
 11
364.1513903428
 21
30.9134032852
 12
363.6888904531
 22
30.9456661188
 13
363.6888904531
 23
30.9456661188
  0
SOLID
  8
0
 62
7
  6
CONTINUOUS
 10
364.1513903428
 20
30.9134032852
 11
362.9951404531
 21
30.8811389819
 12
363.6888904531
 22
30.9456661188
 13
363.6888904531
 23
30.9456661188
  0
SOLID
  8
0
 62
7
  6
CONTINUOUS
 10
362.9951404531
 20
30.8811389819
 11
363.3420154531
 21
30.9456661188
 12
363.6888904531
 22
30.9456661188
 13
363.6888904531
 23
30.9456661188
  0
SOLID
  8
0
 62
7
  6
CONTINUOUS
 10
362.9951404531
 20
30.8811389819
 11
364.1513903428
 21
30.9134032852
 12
363.1107656736
 22
30.8488747093
 13
363.1107656736
 23
30.8488747093
  0
SOLID
  8
0
 62
7
  6
CONTINUOUS
 10
364.1513903428
 20
30.9134032852
 11
363.9779528428
 21
30.8488747093
 12
363.1107656736
 22
30.8488747093
 13
363.1107656736
 23
30.8488747093
  0
SOLID
  8
0
 62
7
  6
CONTINUOUS
 10
363.3420154531
 20
30.816611874
 11
363.1107656736
 21
30.8488747093
 12
363.9779528428
 22
30.8488747093
 13
363.9779528428
 23
30.8488747093
  0
SOLID
  8
0
 62
7
  6
CONTINUOUS
 10
363.9779528428
 20
30.8488747093
 11
363.6888904531
 21
30.816611874
 12
363.3420154531
 22
30.816611874
 13
363.3420154531
 23
30.816611874
  0
SOLID
  8
0
 62
7
  6
CONTINUOUS
 10
368.3717032839
 20
30.9779303754
 11
368.0248282839
 21
30.9456661188
 12
368.2560780634
 22
31.0101931623
 13
368.2560780634
 23
31.0101931623
  0
SOLID
  8
0
 62
7
  6
CONTINUOUS
 10
368.2560780634
 20
31.0101931623
 11
368.0248282839
 21
30.9456661188
 12
368.1982657839
 22
31.0747202992
 13
368.1982657839
 23
31.0747202992
  0
SOLID
  8
0
 62
7
  6
CONTINUOUS
 10
368.0248282839
 20
30.9456661188
 11
367.9092030634
 21
31.0747202992
 12
368.1982657839
 22
31.0747202992
 13
368.1982657839
 23
31.0747202992
  0
SOLID
  8
0
 62
7
  6
CONTINUOUS
 10
368.3717032839
 20
30.9779303754
 11
368.7185782839
 21
30.9456661188
 12
368.0248282839
 22
30.9456661188
 13
368.0248282839
 23
30.9456661188
  0
SOLID
  8
0
 62
7
  6
CONTINUOUS
 10
365.0763907839
 20
30.8166118918
 11
365.0763907839
 21
31.8490498836
 12
365.3654528428
 22
30.8166118918
 13
365.3654528428
 23
31.8490498836
  0
ENDBLK
  8
0
  6
BYBLOCK
 62
0
  0
BLOCK
  8
0
 62
2
  6
CONTINUOUS
  2
SYMBOL_0_BL0
 70
64
 10
241.0459637928
 20
19.6790146053
  0
TEXT
  8
0
 62
7
  6
CONTINUOUS
 10
227.3106676351
 20
19.0524287129
  7
TEXTSTYLE_3
 40
2.7338706658
  1
Ammeraal Beltech
 41
1.0
 51
15.0
 72
0
  0
TEXT
  8
0
 62
7
  6
CONTINUOUS
 10
238.1114684608
 20
16.7788920401
  7
TEXTSTYLE_4
 40
1.0935482663
  1
Innovation & Service in Belting
 41
1.0
 72
0
  0
LINE
  8
0
 62
7
  6
CONTINUOUS
 10
221.2861269837
 20
19.8190220215
 11
222.0642789771
 21
23.4799393191
  0
LINE
  8
0
 62
7
  6
CONTINUOUS
 10
232.1594472669
 20
27.1433332308
 11
222.5520967201
 21
24.0217158095
  0
LINE
  8
0
 62
7
  6
CONTINUOUS
 10
221.511410316
 20
19.1256712184
 11
229.0184855772
 21
12.3662702925
  0
LINE
  8
0
 62
7
  6
CONTINUOUS
 10
221.7739447268
 20
20.3607985118
 11
232.5822140919
 21
23.8726181108
  0
LINE
  8
0
 62
7
  6
CONTINUOUS
 10
232.5780089548
 20
13.522829547
 11
224.132549286
 21
21.1271555887
  0
LINE
  8
0
 62
7
  6
CONTINUOUS
 10
233.0978316746
 20
26.298408115
 11
232.1212721373
 21
21.7040567125
  0
LINE
  8
0
 62
7
  6
CONTINUOUS
 10
231.4214701896
 20
18.4117473987
 11
230.7350219782
 21
15.1822624744
  0
LINE
  8
0
 62
7
  6
CONTINUOUS
 10
233.7789277731
 20
13.9130317247
 11
234.7351593087
 21
18.4117473987
  0
LINE
  8
0
 62
7
  6
CONTINUOUS
 10
235.4349612564
 20
21.7040567125
 11
235.8792030588
 21
23.7940500719
  0
LINE
  8
0
 62
7
  6
CONTINUOUS
 10
229.7315866525
 20
12.2146959798
 11
233.2911100301
 21
13.3712552343
  0
LINE
  8
0
 62
7
  6
CONTINUOUS
 10
232.8725483422
 20
26.9917589181
 11
235.6539197265
 21
24.487400875
  0
ARC
  8
0
 62
7
  6
CONTINUOUS
 10
222.7773800524
 20
23.3283650064
 40
0.7290321776
 50
108.0
 51
168.0
  0
ARC
  8
0
 62
7
  6
CONTINUOUS
 10
232.3847305992
 20
26.4499824277
 40
0.7290321776
 50
348.0
 51
108.0
  0
ARC
  8
0
 62
7
  6
CONTINUOUS
 10
235.1661019835
 20
23.9456243846
 40
0.7290321776
 50
348.0
 51
48.0
  0
ARC
  8
0
 62
7
  6
CONTINUOUS
 10
229.5063033202
 20
12.9080467828
 40
0.7290321776
 50
228.0
 51
288.0
  0
ARC
  8
0
 62
7
  6
CONTINUOUS
 10
221.9992280591
 20
19.6674477088
 40
0.7290321776
 50
108.0
 51
228.0
  0
ARC
  8
0
 62
7
  6
CONTINUOUS
 10
233.0658266978
 20
14.0646060374
 40
0.7290321776
 50
228.0
 51
348.0
  0
ENDBLK
  8
0
  6
BYBLOCK
 62
0
  0
ENDSEC
  0
SECTION
  2
ENTITIES
  0
TEXT
  8
0
 62
5
  6
CONTINUOUS
 10
304.937007874
 20
25.636
  7
TEXTSTYLE_2
 40
2.8
  1
Scale :
 41
0.6
 51
0.000019
 72
0
  0
TEXT
  8
0
 62
5
  6
CONTINUOUS
 10
324.937007874
 20
25.636
  7
TEXTSTYLE_2
 40
2.8
  1
Chain type:
 41
0.6
 51
0.000019
 72
0
  0
INSERT
  8
0
 62
2
  6
CONTINUOUS
  2
SYMBOL_0_BL0
 10
241.0459637928
 20
19.6790146053
  0
INSERT
  8
0
 62
2
  6
CONTINUOUS
  2
SYMBOL_5_BL1
 10
382.3920721743
 20
35.81661148
  0
LINE
  8
0
 62
2
  6
CONTINUOUS
 10
218.937007874
 20
30.0
 11
408.937007874
 21
30.0
  0
LINE
  8
0
 62
2
  6
CONTINUOUS
 10
218.937007874
 20
30.0
 11
218.937007874
 21
10.0
  0
LINE
  8
0
 62
2
  6
CONTINUOUS
 10
218.937007874
 20
10.0
 11
408.937007874
 21
10.0
  0
LINE
  8
0
 62
2
  6
CONTINUOUS
 10
303.937007874
 20
30.0
 11
303.937007874
 21
10.0
  0
LINE
  8
0
 62
2
  6
CONTINUOUS
 10
323.937007874
 20
30.0
 11
323.937007874
 21
10.0
  0
LINE
  8
0
 62
2
  6
CONTINUOUS
 10
408.937007874
 20
30.0
 11
408.937007874
 21
10.0
  0
TEXT
  8
0
 62
5
  6
CONTINUOUS
 10
221.937007874
 20
23.303
  7
TEXTSTYLE_5
 40
1.52
  1
                                                                     Ammeraal Beltech Modular A/S
 41
1.0
 72
0
  0
TEXT
  8
0
 62
5
  6
CONTINUOUS
 10
221.937007874
 20
20.595
  7
TEXTSTYLE_5
 40
1.5
  1
                                                                      Hjulmagervej 21, 7100 Vejle,  DK
 41
1.0
 72
0
  0
TEXT
  8
0
 62
5
  6
CONTINUOUS
 10
221.937007874
 20
17.881
  7
TEXTSTYLE_5
 40
1.495
  1
                                                                      tel: 
 41
1.0
 72
0
  0
TEXT
  8
0
 62
5
  6
CONTINUOUS
 10
266.9239544389
 20
17.881
  7
TEXTSTYLE_5
 40
1.51
  1
+45 75723100     fax: +45 75723348
 41
1.0
 72
0
  0
TEXT
  8
0
 62
5
  6
CONTINUOUS
 10
221.937007874
 20
15.177
  7
TEXTSTYLE_5
 40
1.5
  1
                                                                      admin@unichains.dk  www.unichains.com
 41
1.0
 72
0
  0
TEXT
  8
0
 62
5
  6
CONTINUOUS
 10
308.687007874
 20
13.75
  7
TEXTSTYLE_6
 40
5.0
  1
1:1
 41
0.7
 72
1
 11
313.937007874
 21
13.75
  0
TEXT
  8
0
 62
5
  6
CONTINUOUS
 10
326.937007874
 20
13.75
  7
TEXTSTYLE_7
 40
7.5
  1
uni 2700-H-R
 41
0.6263888889
 72
0
  0
LINE
  8
0
 62
7
  6
CONTINUOUS
 10
0.0
 20
0.0
 11
0.0
 21
297.0
  0
LINE
  8
0
 62
7
  6
CONTINUOUS
 10
8.937007874
 20
10.0
 11
8.937007874
 21
287.0
  0
LINE
  8
0
 62
7
  6
CONTINUOUS
 10
0.0
 20
0.0
 11
420.0
 21
0.0
  0
LINE
  8
0
 62
7
  6
CONTINUOUS
 10
408.937007874
 20
10.0
 11
8.937007874
 21
10.0
  0
LINE
  8
0
 62
7
  6
CONTINUOUS
 10
218.937007874
 20
30.0
 11
408.937007874
 21
30.0
  0
LINE
  8
0
 62
7
  6
CONTINUOUS
 10
210.0
 20
297.0
 11
210.0
 21
292.0
  0
LINE
  8
0
 62
7
  6
CONTINUOUS
 10
210.0
 20
0.0
 11
210.0
 21
5.0
  0
LINE
  8
0
 62
7
  6
CONTINUOUS
 10
8.937007874
 20
287.0
 11
408.937007874
 21
287.0
  0
LINE
  8
0
 62
7
  6
CONTINUOUS
 10
0.0
 20
297.0
 11
420.0
 21
297.0
  0
LINE
  8
0
 62
7
  6
CONTINUOUS
 10
408.937007874
 20
287.0
 11
408.937007874
 21
10.0
  0
LINE
  8
0
 62
7
  6
CONTINUOUS
 10
420.0
 20
0.0
 11
420.0
 21
297.0
  0
POLYLINE
  8
0
 62
7
  6
CONTINUOUS
 66
1
 70
0
  0
VERTEX
  8
0
 62
7
  6
CONTINUOUS
 10
74.4538165597
 20
211.5017319172
  0
VERTEX
  8
0
 62
7
  6
CONTINUOUS
 10
74.4697644915
 20
211.1896260157
  0
VERTEX
  8
0
 62
7
  6
CONTINUOUS
 10
74.6592544034
 20
210.3990596028
  0
VERTEX
  8
0
 62
7
  6
CONTINUOUS
 10
74.8289522878
 20
210.0332005239
  0
SEQEND
  0
POLYLINE
  8
0
 62
7
  6
CONTINUOUS
 66
1
 70
0
  0
VERTEX
  8
0
 62
7
  6
CONTINUOUS
 10
76.6078450394
 20
209.0740367053
  0
VERTEX
  8
0
 62
7
  6
CONTINUOUS
 10
76.6330181867
 20
208.3547914635
  0
VERTEX
  8
0
 62
7
  6
CONTINUOUS
 10
76.7064558424
 20
208.0081844611
  0
VERTEX
  8
0
 62
7
  6
CONTINUOUS
 10
76.9694053783
 20
207.3661638946
  0
SEQEND
  0
LINE
  8
0
 62
7
  6
CONTINUOUS
 10
76.9694053783
 20
207.3661638946
 11
76.9732747066
 21
207.1893823228
  0
LINE
  8
0
 62
7
  6
CONTINUOUS
 10
74.4538114754
 20
231.0720212065
 11
74.4538114754
 21
211.4894248405
  0
LINE
  8
0
 62
7
  6
CONTINUOUS
 10
74.4863989321
 20
231.8893876831
 11
74.453811495
 21
231.0723004943
  0
LINE
  8
0
 62
7
  6
CONTINUOUS
 10
74.5921203542
 20
232.3902137813
 11
74.4863987363
 21
231.8893876992
  0
POLYLINE
  8
0
 62
7
  6
CONTINUOUS
 66
1
 70
0
  0
VERTEX
  8
0
 62
7
  6
CONTINUOUS
 10
75.0651623108
 20
233.1436542099
  0
VERTEX
  8
0
 62
7
  6
CONTINUOUS
 10
74.7115705819
 20
232.6641848784
  0
VERTEX
  8
0
 62
7
  6
CONTINUOUS
 10
74.5921203542
 20
232.3902137813
  0
SEQEND
  0
LINE
  8
0
 62
7
  6
CONTINUOUS
 10
88.1400655268
 20
222.8543032787
 11
88.1400655268
 21
222.3843032787
  0
LINE
  8
0
 62
7
  6
CONTINUOUS
 10
82.6421019252
 20
240.7205937285
 11
75.0658701336
 21
233.1443619369
  0
POLYLINE
  8
0
 62
7
  6
CONTINUOUS
 66
1
 70
0
  0
VERTEX
  8
0
 62
7
  6
CONTINUOUS
 10
76.9694053783
 20
207.3661638946
  0
VERTEX
  8
0
 62
7
  6
CONTINUOUS
 10
77.2308018517
 20
207.1793341809
  0
VERTEX
  8
0
 62
7
  6
CONTINUOUS
 10
77.4644149001
 20
207.025353753
  0
VERTEX
  8
0
 62
7
  6
CONTINUOUS
 10
77.6836593976
 20
206.874675947
  0
SEQEND
  0
LINE
  8
0
 62
7
  6
CONTINUOUS
 10
90.3927785986
 20
222.3843032787
 11
90.3931362512
 21
222.8543032787
  0
LINE
  8
CENTER_AXER
 62
2
  6
CENTER
 10
102.7838114754
 20
186.0543032787
 11
102.7838114754
 21
260.0543032787
  0
POLYLINE
  8
0
 62
7
  6
CONTINUOUS
 66
1
 70
0
  0
VERTEX
  8
0
 62
7
  6
CONTINUOUS
 10
164.859832516
 20
198.2503032787
  0
VERTEX
  8
0
 62
7
  6
CONTINUOUS
 10
165.4941877389
 20
198.2600868753
  0
VERTEX
  8
0
 62
7
  6
CONTINUOUS
 10
166.2329347538
 20
198.2692040273
  0
VERTEX
  8
0
 62
7
  6
CONTINUOUS
 10
167.0257005868
 20
198.2770326569
  0
SEQEND
  0
LINE
  8
0
 62
7
  6
CONTINUOUS
 10
180.8280753339
 20
195.1873032787
 11
158.1703553637
 21
195.1873032787
  0
LINE
  8
0
 62
7
  6
CONTINUOUS
 10
157.727989338
 20
195.2194157722
 11
158.1703588
 21
195.1873031361
  0
LINE
  8
0
 62
7
  6
CONTINUOUS
 10
115.1744866996
 20
222.8543032787
 11
115.1748443523
 21
222.3843032787
  0
LINE
  8
0
 62
7
  6
CONTINUOUS
 10
117.4442179675
 20
222.3843032787
 11
117.4442179675
 21
222.8543032787
  0
LINE
  8
CURVE_RUNDING
 62
7
  6
CONTINUOUS
 10
115.0647209568
 20
203.6573032787
 11
85.5799114751
 21
203.6573032787
  0
LINE
  8
0
 62
7
  6
CONTINUOUS
 10
115.0647209568
 20
203.6573032787
 11
154.3223328803
 21
203.6573032787
  0
LINE
  8
0
 62
7
  6
CONTINUOUS
 10
85.3206608677
 20
203.6600464391
 11
85.5799114754
 21
203.6573032787
  0
LINE
  8
0
 62
7
  6
CONTINUOUS
 10
156.8781575403
 20
195.4732210764
 11
157.7277980452
 21
195.2194729025
  0
LINE
  8
0
 62
7
  6
CONTINUOUS
 10
120.4003042902
 20
212.0543032787
 11
122.7838114754
 21
210.0543032787
  0
LINE
  8
0
 62
7
  6
CONTINUOUS
 10
122.7838114754
 20
210.0543032787
 11
122.7838114754
 21
211.0543032787
  0
LINE
  8
0
 62
7
  6
CONTINUOUS
 10
122.7838114754
 20
213.0543032787
 11
122.7838114754
 21
214.0543032787
  0
POLYLINE
  8
0
 62
7
  6
CONTINUOUS
 66
1
 70
0
  0
VERTEX
  8
0
 62
7
  6
CONTINUOUS
 10
116.5529331242
 20
219.0645086704
  0
VERTEX
  8
0
 62
7
  6
CONTINUOUS
 10
117.1023629126
 20
220.2862946786
  0
VERTEX
  8
0
 62
7
  6
CONTINUOUS
 10
117.2894242034
 20
220.9632034039
  0
VERTEX
  8
0
 62
7
  6
CONTINUOUS
 10
117.4442179675
 20
222.3843032787
  0
SEQEND
  0
LINE
  8
0
 62
7
  6
CONTINUOUS
 10
122.7838114754
 20
211.0543032787
 11
133.7838114754
 21
211.0543032787
  0
POLYLINE
  8
0
 62
7
  6
CONTINUOUS
 66
1
 70
0
  0
VERTEX
  8
0
 62
7
  6
CONTINUOUS
 10
96.0564345214
 20
216.1053032787
  0
VERTEX
  8
0
 62
7
  6
CONTINUOUS
 10
94.7475665782
 20
216.2632521435
  0
VERTEX
  8
0
 62
7
  6
CONTINUOUS
 10
93.4686136653
 20
216.7603411984
  0
VERTEX
  8
0
 62
7
  6
CONTINUOUS
 10
92.3449237893
 20
217.5777433738
  0
VERTEX
  8
0
 62
7
  6
CONTINUOUS
 10
91.463964007
 20
218.6358236784
  0
VERTEX
  8
0
 62
7
  6
CONTINUOUS
 10
90.8483501812
 20
219.852702645
  0
VERTEX
  8
0
 62
7
  6
CONTINUOUS
 10
90.4984161449
 20
221.1388530998
  0
VERTEX
  8
0
 62
7
  6
CONTINUOUS
 10
90.3927785986
 20
222.3843032787
  0
SEQEND
  0
POLYLINE
  8
0
 62
7
  6
CONTINUOUS
 66
1
 70
0
  0
VERTEX
  8
0
 62
7
  6
CONTINUOUS
 10
94.0406735989
 20
216.1053032787
  0
VERTEX
  8
0
 62
7
  6
CONTINUOUS
 10
92.6008956497
 20
216.2887169415
  0
VERTEX
  8
0
 62
7
  6
CONTINUOUS
 10
91.2421114032
 20
216.8375477577
  0
VERTEX
  8
0
 62
7
  6
CONTINUOUS
 10
90.0576609788
 20
217.7227669933
  0
VERTEX
  8
0
 62
7
  6
CONTINUOUS
 10
89.5596127483
 20
218.2682164933
  0
VERTEX
  8
0
 62
7
  6
CONTINUOUS
 10
88.772565068
 20
219.5279832119
  0
VERTEX
  8
0
 62
7
  6
CONTINUOUS
 10
88.2969692072
 20
220.9295291971
  0
VERTEX
  8
0
 62
7
  6
CONTINUOUS
 10
88.1400655268
 20
222.3843032787
  0
SEQEND
  0
POLYLINE
  8
0
 62
7
  6
CONTINUOUS
 66
1
 70
0
  0
VERTEX
  8
0
 62
7
  6
CONTINUOUS
 10
154.0827697552
 20
203.657303314
  0
VERTEX
  8
0
 62
7
  6
CONTINUOUS
 10
154.4480858885
 20
203.5896913464
  0
VERTEX
  8
0
 62
7
  6
CONTINUOUS
 10
154.7650251534
 20
203.3958430729
  0
VERTEX
  8
0
 62
7
  6
CONTINUOUS
 10
154.8918276823
 20
203.2590277561
  0
VERTEX
  8
0
 62
7
  6
CONTINUOUS
 10
155.0610760618
 20
202.9282971631
  0
VERTEX
  8
0
 62
7
  6
CONTINUOUS
 10
155.1037196546
 20
202.6371499657
  0
SEQEND
  0
POLYLINE
  8
0
 62
7
  6
CONTINUOUS
 66
1
 70
0
  0
VERTEX
  8
0
 62
7
  6
CONTINUOUS
 10
116.5529331242
 20
226.174097887
  0
VERTEX
  8
0
 62
7
  6
CONTINUOUS
 10
117.1023629126
 20
224.9523118788
  0
VERTEX
  8
0
 62
7
  6
CONTINUOUS
 10
117.2894242034
 20
224.2754031535
  0
VERTEX
  8
0
 62
7
  6
CONTINUOUS
 10
117.4442179675
 20
222.8543032787
  0
SEQEND
  0
LINE
  8
0
 62
7
  6
CONTINUOUS
 10
133.7838114754
 20
213.0543032787
 11
122.7838114754
 21
213.0543032787
  0
LINE
  8
0
 62
7
  6
CONTINUOUS
 10
111.5269493519
 20
216.1053032787
 11
94.0406735989
 21
216.1053032787
  0
LINE
  8
0
 62
7
  6
CONTINUOUS
 10
156.1366673182
 20
195.9598735099
 11
156.8781575403
 21
195.4732210764
  0
LINE
  8
0
 62
7
  6
CONTINUOUS
 10
133.7838114754
 20
211.0543032787
 11
133.7838114754
 21
213.0543032787
  0
LINE
  8
0
 62
7
  6
CONTINUOUS
 10
122.7838114754
 20
214.0543032787
 11
120.4003042902
 21
212.0543032787
  0
POLYLINE
  8
0
 62
7
  6
CONTINUOUS
 66
1
 70
0
  0
VERTEX
  8
0
 62
7
  6
CONTINUOUS
 10
109.5111884295
 20
216.1053032787
  0
VERTEX
  8
0
 62
7
  6
CONTINUOUS
 10
110.8200563727
 20
216.2632521435
  0
VERTEX
  8
0
 62
7
  6
CONTINUOUS
 10
112.0990092855
 20
216.7603411984
  0
VERTEX
  8
0
 62
7
  6
CONTINUOUS
 10
113.2226991616
 20
217.5777433738
  0
VERTEX
  8
0
 62
7
  6
CONTINUOUS
 10
114.1036589439
 20
218.6358236784
  0
VERTEX
  8
0
 62
7
  6
CONTINUOUS
 10
114.7192727696
 20
219.852702645
  0
VERTEX
  8
0
 62
7
  6
CONTINUOUS
 10
115.0692068059
 20
221.1388530998
  0
VERTEX
  8
0
 62
7
  6
CONTINUOUS
 10
115.1748443523
 20
222.3843032787
  0
SEQEND
  0
POLYLINE
  8
0
 62
7
  6
CONTINUOUS
 66
1
 70
0
  0
VERTEX
  8
0
 62
7
  6
CONTINUOUS
 10
111.5269493519
 20
216.1053032787
  0
VERTEX
  8
0
 62
7
  6
CONTINUOUS
 10
112.8552227821
 20
216.2609356656
  0
VERTEX
  8
0
 62
7
  6
CONTINUOUS
 10
114.1189642088
 20
216.7266776939
  0
VERTEX
  8
0
 62
7
  6
CONTINUOUS
 10
114.704235257
 20
217.0708265401
  0
VERTEX
  8
0
 62
7
  6
CONTINUOUS
 10
115.7421018016
 20
217.9602788022
  0
VERTEX
  8
0
 62
7
  6
CONTINUOUS
 10
116.5529331242
 20
219.0645086704
  0
SEQEND
  0
LINE
  8
CENTER_AXER
 62
2
  6
CENTER
 10
52.2838114754
 20
223.0543032787
 11
216.2838114754
 21
223.0543032787
  0
LINE
  8
0
 62
7
  6
CONTINUOUS
 10
155.8264846574
 20
196.2784453858
 11
156.1366673182
 21
195.9598735099
  0
LINE
  8
CENTER_AXER
 62
2
  6
CENTER
 10
138.2338114754
 20
186.0543032787
 11
138.2338114754
 21
260.0543032787
  0
LINE
  8
0
 62
7
  6
CONTINUOUS
 10
111.5269493519
 20
229.1333032787
 11
94.0406735989
 21
229.1333032787
  0
POLYLINE
  8
0
 62
7
  6
CONTINUOUS
 66
1
 70
0
  0
VERTEX
  8
0
 62
7
  6
CONTINUOUS
 10
111.5269493519
 20
229.1333032787
  0
VERTEX
  8
0
 62
7
  6
CONTINUOUS
 10
112.8552227821
 20
228.9776708918
  0
VERTEX
  8
0
 62
7
  6
CONTINUOUS
 10
114.1189642088
 20
228.5119288635
  0
VERTEX
  8
0
 62
7
  6
CONTINUOUS
 10
114.704235257
 20
228.1677800173
  0
VERTEX
  8
0
 62
7
  6
CONTINUOUS
 10
115.7421018016
 20
227.2783277552
  0
VERTEX
  8
0
 62
7
  6
CONTINUOUS
 10
116.5529331242
 20
226.174097887
  0
SEQEND
  0
POLYLINE
  8
0
 62
7
  6
CONTINUOUS
 66
1
 70
0
  0
VERTEX
  8
0
 62
7
  6
CONTINUOUS
 10
109.503068487
 20
229.1333032787
  0
VERTEX
  8
0
 62
7
  6
CONTINUOUS
 10
110.8145110344
 20
228.9747186627
  0
VERTEX
  8
0
 62
7
  6
CONTINUOUS
 10
112.0950151962
 20
228.4762173367
  0
VERTEX
  8
0
 62
7
  6
CONTINUOUS
 10
113.2191984195
 20
227.6576275052
  0
VERTEX
  8
0
 62
7
  6
CONTINUOUS
 10
114.0998116638
 20
226.5999428877
  0
VERTEX
  8
0
 62
7
  6
CONTINUOUS
 10
114.7155017103
 20
225.3850604791
  0
VERTEX
  8
0
 62
7
  6
CONTINUOUS
 10
115.0667921532
 20
224.1007716433
  0
VERTEX
  8
0
 62
7
  6
CONTINUOUS
 10
115.1744866996
 20
222.8543032787
  0
SEQEND
  0
LINE
  8
0
 62
7
  6
CONTINUOUS
 10
155.3597884933
 20
197.0326563358
 11
155.8264846574
 21
196.2784453858
  0
POLYLINE
  8
0
 62
7
  6
CONTINUOUS
 66
1
 70
0
  0
VERTEX
  8
0
 62
7
  6
CONTINUOUS
 10
94.0406735989
 20
229.1333032787
  0
VERTEX
  8
0
 62
7
  6
CONTINUOUS
 10
92.6008956497
 20
228.9498896159
  0
VERTEX
  8
0
 62
7
  6
CONTINUOUS
 10
91.2421114032
 20
228.4010587997
  0
VERTEX
  8
0
 62
7
  6
CONTINUOUS
 10
90.0576609788
 20
227.5158395641
  0
VERTEX
  8
0
 62
7
  6
CONTINUOUS
 10
89.5596127483
 20
226.9703900641
  0
VERTEX
  8
0
 62
7
  6
CONTINUOUS
 10
88.772565068
 20
225.7106233455
  0
VERTEX
  8
0
 62
7
  6
CONTINUOUS
 10
88.2969692072
 20
224.3090773603
  0
VERTEX
  8
0
 62
7
  6
CONTINUOUS
 10
88.1400655268
 20
222.8543032787
  0
SEQEND
  0
POLYLINE
  8
0
 62
7
  6
CONTINUOUS
 66
1
 70
0
  0
VERTEX
  8
0
 62
7
  6
CONTINUOUS
 10
96.0645544638
 20
229.1333032787
  0
VERTEX
  8
0
 62
7
  6
CONTINUOUS
 10
94.7531119164
 20
228.9747186627
  0
VERTEX
  8
0
 62
7
  6
CONTINUOUS
 10
93.4726077546
 20
228.4762173367
  0
VERTEX
  8
0
 62
7
  6
CONTINUOUS
 10
92.3484245313
 20
227.6576275052
  0
VERTEX
  8
0
 62
7
  6
CONTINUOUS
 10
91.467811287
 20
226.5999428877
  0
VERTEX
  8
0
 62
7
  6
CONTINUOUS
 10
90.8521212405
 20
225.3850604791
  0
VERTEX
  8
0
 62
7
  6
CONTINUOUS
 10
90.5008307976
 20
224.1007716433
  0
VERTEX
  8
0
 62
7
  6
CONTINUOUS
 10
90.3931362512
 20
222.8543032787
  0
SEQEND
  0
LINE
  8
0
 62
7
  6
CONTINUOUS
 10
162.7676062855
 20
231.3126875399
 11
192.7022252578
 21
231.3131048981
  0
LINE
  8
0
 62
7
  6
CONTINUOUS
 10
127.7571729693
 20
235.0000032787
 11
160.4816141733
 21
235.0000032787
  0
POLYLINE
  8
0
 62
7
  6
CONTINUOUS
 66
1
 70
0
  0
VERTEX
  8
0
 62
7
  6
CONTINUOUS
 10
192.8868114754
 20
231.3039658086
  0
VERTEX
  8
0
 62
7
  6
CONTINUOUS
 10
192.8661540724
 20
231.3070650206
  0
VERTEX
  8
0
 62
7
  6
CONTINUOUS
 10
192.8042353252
 20
231.3101307257
  0
VERTEX
  8
0
 62
7
  6
CONTINUOUS
 10
192.7022252578
 20
231.3131048981
  0
SEQEND
  0
LINE
  8
0
 62
7
  6
CONTINUOUS
 10
189.5445133255
 20
232.74996661
 11
189.9946265309
 21
232.6801464042
  0
POLYLINE
  8
0
 62
7
  6
CONTINUOUS
 66
1
 70
0
  0
VERTEX
  8
0
 62
7
  6
CONTINUOUS
 10
162.7676114755
 20
231.2396118348
  0
VERTEX
  8
0
 62
7
  6
CONTINUOUS
 10
162.1141522576
 20
231.3449940766
  0
VERTEX
  8
0
 62
7
  6
CONTINUOUS
 10
161.5221742014
 20
231.6591848486
  0
VERTEX
  8
0
 62
7
  6
CONTINUOUS
 10
161.0744138594
 20
232.1340663465
  0
VERTEX
  8
0
 62
7
  6
CONTINUOUS
 10
160.8106669025
 20
232.6910580519
  0
VERTEX
  8
0
 62
7
  6
CONTINUOUS
 10
160.7256114755
 20
233.2738845132
  0
SEQEND
  0
LINE
  8
0
 62
7
  6
CONTINUOUS
 10
155.1287470773
 20
197.8889618182
 11
155.3597884933
 21
197.0326563358
  0
LINE
  8
0
 62
7
  6
CONTINUOUS
 10
155.1073597679
 20
198.2477632215
 11
155.1287470773
 21
197.8889618182
  0
LINE
  8
0
 62
7
  6
CONTINUOUS
 10
155.1037199272
 20
202.6371422842
 11
155.1073600698
 21
198.2477612035
  0
LINE
  8
0
 62
7
  6
CONTINUOUS
 10
84.6200985477
 20
241.3318658945
 11
83.8967342068
 21
241.2997073625
  0
LINE
  8
0
 62
7
  6
CONTINUOUS
 10
84.6200985477
 20
241.3318658945
 11
173.1134329397
 21
241.3323032787
  0
LINE
  8
0
 62
7
  6
CONTINUOUS
 10
173.1230495646
 20
241.3323019748
 11
173.1134329414
 21
241.3323032787
  0
POLYLINE
  8
0
 62
7
  6
CONTINUOUS
 66
1
 70
0
  0
VERTEX
  8
0
 62
7
  6
CONTINUOUS
 10
186.1210363054
 20
233.3549357581
  0
VERTEX
  8
0
 62
7
  6
CONTINUOUS
 10
186.9515581211
 20
233.1903058441
  0
VERTEX
  8
0
 62
7
  6
CONTINUOUS
 10
187.8245261763
 20
233.0319416112
  0
VERTEX
  8
0
 62
7
  6
CONTINUOUS
 10
189.5445133255
 20
232.74996661
  0
SEQEND
  0
LINE
  8
0
 62
7
  6
CONTINUOUS
 10
162.766687394
 20
231.4171502886
 11
162.7676062855
 21
231.3128353741
  0
LINE
  8
0
 62
7
  6
CONTINUOUS
 10
162.7646371112
 20
233.3547576211
 11
162.766687394
 21
231.4171502886
  0
LINE
  8
0
 62
7
  6
CONTINUOUS
 10
160.7256114754
 20
233.9790032787
 11
160.7256114754
 21
233.2738845132
  0
POLYLINE
  8
0
 62
7
  6
CONTINUOUS
 66
1
 70
0
  0
VERTEX
  8
0
 62
7
  6
CONTINUOUS
 10
83.8967329295
 20
241.2997210799
  0
VERTEX
  8
0
 62
7
  6
CONTINUOUS
 10
83.3954379711
 20
241.1938360785
  0
VERTEX
  8
0
 62
7
  6
CONTINUOUS
 10
83.1212526301
 20
241.0741893233
  0
VERTEX
  8
0
 62
7
  6
CONTINUOUS
 10
82.6422053966
 20
240.7206990562
  0
SEQEND
  0
POLYLINE
  8
0
 62
7
  6
CONTINUOUS
 66
1
 70
0
  0
VERTEX
  8
0
 62
7
  6
CONTINUOUS
 10
189.9946265309
 20
232.6801464042
  0
VERTEX
  8
0
 62
7
  6
CONTINUOUS
 10
190.6629895175
 20
232.4850119106
  0
VERTEX
  8
0
 62
7
  6
CONTINUOUS
 10
191.0302024967
 20
232.3055060186
  0
VERTEX
  8
0
 62
7
  6
CONTINUOUS
 10
191.630310216
 20
231.917111384
  0
SEQEND
  0
POLYLINE
  8
0
 62
7
  6
CONTINUOUS
 66
1
 70
0
  0
VERTEX
  8
0
 62
7
  6
CONTINUOUS
 10
162.7646371565
 20
233.9790032787
  0
VERTEX
  8
0
 62
7
  6
CONTINUOUS
 10
161.8978730778
 20
234.5525845832
  0
VERTEX
  8
0
 62
7
  6
CONTINUOUS
 10
161.1305027261
 20
234.8966465638
  0
VERTEX
  8
0
 62
7
  6
CONTINUOUS
 10
160.4816141733
 20
235.0000032787
  0
SEQEND
  0
LINE
  8
CENTER_AXER
 62
2
  6
CENTER
 10
173.6838114754
 20
177.1129882457
 11
173.6838114754
 21
260.0543032787
  0
LINE
  8
0
 62
7
  6
CONTINUOUS
 10
184.6794482977
 20
237.7409600503
 11
192.8868114754
 21
232.100195618
  0
POLYLINE
  8
0
 62
7
  6
CONTINUOUS
 66
1
 70
0
  0
VERTEX
  8
0
 62
7
  6
CONTINUOUS
 10
191.6303101066
 20
231.9171114582
  0
VERTEX
  8
0
 62
7
  6
CONTINUOUS
 10
192.1232769035
 20
231.5741031124
  0
VERTEX
  8
0
 62
7
  6
CONTINUOUS
 10
192.4730013494
 20
231.3783676796
  0
VERTEX
  8
0
 62
7
  6
CONTINUOUS
 10
192.7022252578
 20
231.3131048981
  0
SEQEND
  0
LINE
  8
0
 62
7
  6
CONTINUOUS
 10
192.8868114754
 20
207.2460394202
 11
192.8868114754
 21
232.100195618
  0
LINE
  8
0
 62
7
  6
CONTINUOUS
 10
182.9939434046
 20
196.0844352079
 11
191.9896795462
 21
205.0801713495
  0
POLYLINE
  8
0
 62
7
  6
CONTINUOUS
 66
1
 70
0
  0
VERTEX
  8
0
 62
7
  6
CONTINUOUS
 10
189.9946265309
 20
47.2863572439
  0
VERTEX
  8
0
 62
7
  6
CONTINUOUS
 10
190.6629895175
 20
47.3652439712
  0
VERTEX
  8
0
 62
7
  6
CONTINUOUS
 10
191.0302024967
 20
47.4604426249
  0
VERTEX
  8
0
 62
7
  6
CONTINUOUS
 10
191.630310216
 20
47.7613162659
  0
SEQEND
  0
POLYLINE
  8
0
 62
7
  6
CONTINUOUS
 66
1
 70
0
  0
VERTEX
  8
0
 62
7
  6
CONTINUOUS
 10
188.7398485469
 20
47.2291575005
  0
VERTEX
  8
0
 62
7
  6
CONTINUOUS
 10
189.126570977
 20
47.244619644
  0
VERTEX
  8
0
 62
7
  6
CONTINUOUS
 10
189.5445133255
 20
47.263967306
  0
VERTEX
  8
0
 62
7
  6
CONTINUOUS
 10
189.9946265309
 20
47.2863572439
  0
SEQEND
  0
POLYLINE
  8
0
 62
7
  6
CONTINUOUS
 66
1
 70
0
  0
VERTEX
  8
0
 62
7
  6
CONTINUOUS
 10
186.1210363054
 20
47.1772730424
  0
VERTEX
  8
0
 62
7
  6
CONTINUOUS
 10
186.9515581211
 20
47.1827110165
  0
VERTEX
  8
0
 62
7
  6
CONTINUOUS
 10
187.8245261763
 20
47.2005004909
  0
VERTEX
  8
0
 62
7
  6
CONTINUOUS
 10
188.7398485469
 20
47.2291575005
  0
SEQEND
  0
LINE
  8
0
 62
7
  6
CONTINUOUS
 10
147.4715024277
 20
47.2335687465
 11
186.1210904918
 21
47.1772727994
  0
LINE
  8
CENTER_AXER
 62
2
  6
CENTER
 10
102.7838114754
 20
41.7674180328
 11
102.7838114754
 21
165.7674180328
  0
POLYLINE
  8
0
 62
7
  6
CONTINUOUS
 66
1
 70
0
  0
VERTEX
  8
0
 62
7
  6
CONTINUOUS
 10
182.6824535065
 20
73.944117805
  0
VERTEX
  8
0
 62
7
  6
CONTINUOUS
 10
180.0930786524
 20
73.950863855
  0
VERTEX
  8
0
 62
7
  6
CONTINUOUS
 10
177.3300014296
 20
73.9554370953
  0
SEQEND
  0
POLYLINE
  8
0
 62
7
  6
CONTINUOUS
 66
1
 70
0
  0
VERTEX
  8
0
 62
7
  6
CONTINUOUS
 10
177.3300093849
 20
73.9554370853
  0
VERTEX
  8
0
 62
7
  6
CONTINUOUS
 10
175.5096624017
 20
74.0132360392
  0
VERTEX
  8
0
 62
7
  6
CONTINUOUS
 10
173.3827259274
 20
74.2237293794
  0
SEQEND
  0
LINE
  8
0
 62
7
  6
CONTINUOUS
 10
119.7801469523
 20
79.8455875844
 11
127.7571729693
 21
79.8455875844
  0
POLYLINE
  8
0
 62
7
  6
CONTINUOUS
 66
1
 70
0
  0
VERTEX
  8
0
 62
7
  6
CONTINUOUS
 10
183.8766754752
 20
73.8700632526
  0
VERTEX
  8
0
 62
7
  6
CONTINUOUS
 10
183.5018548409
 20
73.9085100306
  0
VERTEX
  8
0
 62
7
  6
CONTINUOUS
 10
183.0560671553
 20
73.9360871213
  0
VERTEX
  8
0
 62
7
  6
CONTINUOUS
 10
182.6824527733
 20
73.9441178073
  0
SEQEND
  0
POLYLINE
  8
0
 62
7
  6
CONTINUOUS
 66
1
 70
0
  0
VERTEX
  8
0
 62
7
  6
CONTINUOUS
 10
173.3827259275
 20
74.2237293796
  0
VERTEX
  8
0
 62
7
  6
CONTINUOUS
 10
168.6220572625
 20
75.2801645816
  0
VERTEX
  8
0
 62
7
  6
CONTINUOUS
 10
164.0263234293
 20
77.1502532208
  0
VERTEX
  8
0
 62
7
  6
CONTINUOUS
 10
159.8110429934
 20
79.7697130219
  0
VERTEX
  8
0
 62
7
  6
CONTINUOUS
 10
156.0980469599
 20
83.0633128009
  0
VERTEX
  8
0
 62
7
  6
CONTINUOUS
 10
154.4639526413
 20
84.9340348029
  0
VERTEX
  8
0
 62
7
  6
CONTINUOUS
 10
151.6993139074
 20
89.0560793955
  0
SEQEND
  0
POLYLINE
  8
0
 62
7
  6
CONTINUOUS
 66
1
 70
0
  0
VERTEX
  8
0
 62
7
  6
CONTINUOUS
 10
173.382722303
 20
74.2237027063
  0
VERTEX
  8
0
 62
7
  6
CONTINUOUS
 10
168.5583277736
 20
75.3000496491
  0
VERTEX
  8
0
 62
7
  6
CONTINUOUS
 10
163.983311485
 20
77.172188587
  0
VERTEX
  8
0
 62
7
  6
CONTINUOUS
 10
159.7881454086
 20
79.7867856566
  0
VERTEX
  8
0
 62
7
  6
CONTINUOUS
 10
156.0921960931
 20
83.0694468273
  0
SEQEND
  0
LINE
  8
0
 62
7
  6
CONTINUOUS
 10
144.6017478501
 20
158.3625510471
 11
133.8765864094
 21
131.8168449647
  0
LINE
  8
0
 62
7
  6
CONTINUOUS
 10
133.8765864094
 20
75.7179911009
 11
144.6017478501
 21
49.1722850185
  0
POLYLINE
  8
0
 62
7
  6
CONTINUOUS
 66
1
 70
0
  0
VERTEX
  8
0
 62
7
  6
CONTINUOUS
 10
156.092194952
 20
124.465388038
  0
VERTEX
  8
0
 62
7
  6
CONTINUOUS
 10
159.7881440804
 20
127.7480494164
  0
VERTEX
  8
0
 62
7
  6
CONTINUOUS
 10
163.9833099965
 20
130.3626467171
  0
VERTEX
  8
0
 62
7
  6
CONTINUOUS
 10
168.5583261522
 20
132.2347859079
  0
VERTEX
  8
0
 62
7
  6
CONTINUOUS
 10
173.382722303
 20
133.3111333593
  0
SEQEND
  0
LINE
  8
CENTER_AXER
 62
2
  6
CENTER
 10
52.2838114754
 20
103.7674180328
 11
216.2838114754
 21
103.7674180328
  0
LINE
  8
CENTER_AXER
 62
2
  6
CENTER
 10
138.2338114754
 20
109.0174180328
 11
138.2338114754
 21
105.7675180328
  0
LINE
  8
CENTER_AXER
 62
2
  6
CONTINUOUS
 10
138.2338114754
 20
104.8174180328
 11
138.2338114754
 21
102.7174180328
  0
LINE
  8
CENTER_AXER
 62
2
  6
CENTER
 10
138.2338114754
 20
98.5174180328
 11
138.2338114754
 21
101.7673180328
  0
POLYLINE
  8
0
 62
7
  6
CONTINUOUS
 66
1
 70
0
  0
VERTEX
  8
0
 62
7
  6
CONTINUOUS
 10
151.0940952315
 20
117.3268904163
  0
VERTEX
  8
0
 62
7
  6
CONTINUOUS
 10
154.4596264445
 20
122.595401562
  0
VERTEX
  8
0
 62
7
  6
CONTINUOUS
 10
156.0932789655
 20
124.4665093938
  0
VERTEX
  8
0
 62
7
  6
CONTINUOUS
 10
159.8054923924
 20
127.760982339
  0
VERTEX
  8
0
 62
7
  6
CONTINUOUS
 10
164.0201357496
 20
130.3814292225
  0
VERTEX
  8
0
 62
7
  6
CONTINUOUS
 10
168.6154164226
 20
132.2526040875
  0
VERTEX
  8
0
 62
7
  6
CONTINUOUS
 10
173.3827259275
 20
133.3111066859
  0
SEQEND
  0
POLYLINE
  8
0
 62
7
  6
CONTINUOUS
 66
1
 70
0
  0
VERTEX
  8
0
 62
7
  6
CONTINUOUS
 10
154.4649457059
 20
84.9327785421
  0
VERTEX
  8
0
 62
7
  6
CONTINUOUS
 10
151.7098211502
 20
89.037120029
  0
VERTEX
  8
0
 62
7
  6
CONTINUOUS
 10
151.0940844864
 20
90.2079463152
  0
SEQEND
  0
LINE
  8
0
 62
7
  6
CONTINUOUS
 10
148.0278114754
 20
104.2774884613
 11
148.0278114754
 21
103.2573476042
  0
POLYLINE
  8
0
 62
7
  6
CONTINUOUS
 66
1
 70
0
  0
VERTEX
  8
0
 62
7
  6
CONTINUOUS
 10
148.0278114754
 20
104.2774884613
  0
VERTEX
  8
0
 62
7
  6
CONTINUOUS
 10
148.4447767515
 20
109.2030403146
  0
VERTEX
  8
0
 62
7
  6
CONTINUOUS
 10
149.683877549
 20
113.9886086566
  0
VERTEX
  8
0
 62
7
  6
CONTINUOUS
 10
151.0940862125
 20
117.3268932206
  0
SEQEND
  0
POLYLINE
  8
0
 62
7
  6
CONTINUOUS
 66
1
 70
0
  0
VERTEX
  8
0
 62
7
  6
CONTINUOUS
 10
151.0940862125
 20
117.3268932206
  0
VERTEX
  8
0
 62
7
  6
CONTINUOUS
 10
151.7098203456
 20
118.497714587
  0
VERTEX
  8
0
 62
7
  6
CONTINUOUS
 10
154.4649446702
 20
122.6020562312
  0
SEQEND
  0
POLYLINE
  8
0
 62
7
  6
CONTINUOUS
 66
1
 70
0
  0
VERTEX
  8
0
 62
7
  6
CONTINUOUS
 10
151.0940844864
 20
90.2079463152
  0
VERTEX
  8
0
 62
7
  6
CONTINUOUS
 10
149.683878103
 20
93.546225832
  0
VERTEX
  8
0
 62
7
  6
CONTINUOUS
 10
148.444777037
 20
98.3317940768
  0
VERTEX
  8
0
 62
7
  6
CONTINUOUS
 10
148.0278114754
 20
103.2573476042
  0
SEQEND
  0
POLYLINE
  8
0
 62
7
  6
CONTINUOUS
 66
1
 70
0
  0
VERTEX
  8
0
 62
7
  6
CONTINUOUS
 10
183.8767018857
 20
133.6647760173
  0
VERTEX
  8
0
 62
7
  6
CONTINUOUS
 10
185.4775046299
 20
133.9902818876
  0
VERTEX
  8
0
 62
7
  6
CONTINUOUS
 10
186.9614526236
 20
134.5452682652
  0
VERTEX
  8
0
 62
7
  6
CONTINUOUS
 10
188.2519011602
 20
135.2626679111
  0
VERTEX
  8
0
 62
7
  6
CONTINUOUS
 10
189.3571984519
 20
136.0978642741
  0
VERTEX
  8
0
 62
7
  6
CONTINUOUS
 10
190.2897361729
 20
137.0178967711
  0
VERTEX
  8
0
 62
7
  6
CONTINUOUS
 10
191.0598150825
 20
137.9949356488
  0
VERTEX
  8
0
 62
7
  6
CONTINUOUS
 10
191.384906655
 20
138.4936187941
  0
VERTEX
  8
0
 62
7
  6
CONTINUOUS
 10
191.9198981673
 20
139.4882193618
  0
VERTEX
  8
0
 62
7
  6
CONTINUOUS
 10
192.3164094043
 20
140.4611214203
  0
VERTEX
  8
0
 62
7
  6
CONTINUOUS
 10
192.5287876911
 20
141.1462584436
  0
SEQEND
  0
LINE
  8
0
 62
7
  6
CONTINUOUS
 10
183.5018302269
 20
133.6263239708
 11
183.8766769421
 21
133.6647729909
  0
POLYLINE
  8
0
 62
7
  6
CONTINUOUS
 66
1
 70
0
  0
VERTEX
  8
0
 62
7
  6
CONTINUOUS
 10
173.3827259275
 20
133.3111066859
  0
VERTEX
  8
0
 62
7
  6
CONTINUOUS
 10
175.5096573575
 20
133.5216000608
  0
VERTEX
  8
0
 62
7
  6
CONTINUOUS
 10
177.3299997988
 20
133.5793989683
  0
SEQEND
  0
LINE
  8
0
 62
7
  6
CONTINUOUS
 10
127.7571729693
 20
127.6892484812
 11
119.7801469523
 21
127.6892484812
  0
POLYLINE
  8
0
 62
7
  6
CONTINUOUS
 66
1
 70
0
  0
VERTEX
  8
0
 62
7
  6
CONTINUOUS
 10
182.682452249
 20
133.5907182567
  0
VERTEX
  8
0
 62
7
  6
CONTINUOUS
 10
183.0561535398
 20
133.5987523866
  0
VERTEX
  8
0
 62
7
  6
CONTINUOUS
 10
183.5018302269
 20
133.6263239708
  0
SEQEND
  0
POLYLINE
  8
0
 62
7
  6
CONTINUOUS
 66
1
 70
0
  0
VERTEX
  8
0
 62
7
  6
CONTINUOUS
 10
177.330001466
 20
133.5793989703
  0
VERTEX
  8
0
 62
7
  6
CONTINUOUS
 10
180.0931492456
 20
133.5839723599
  0
VERTEX
  8
0
 62
7
  6
CONTINUOUS
 10
182.6824532646
 20
133.5907182599
  0
SEQEND
  0
LINE
  8
CENTER_AXER
 62
2
  6
CENTER
 10
173.6838114754
 20
41.7674180328
 11
173.6838114754
 21
165.7674180328
  0
POLYLINE
  8
0
 62
7
  6
CONTINUOUS
 66
1
 70
0
  0
VERTEX
  8
0
 62
7
  6
CONTINUOUS
 10
192.5287735461
 20
141.1462054473
  0
VERTEX
  8
0
 62
7
  6
CONTINUOUS
 10
192.4755503048
 20
140.9576423929
  0
VERTEX
  8
0
 62
7
  6
CONTINUOUS
 10
192.0222642625
 20
139.7136567236
  0
VERTEX
  8
0
 62
7
  6
CONTINUOUS
 10
191.6781784761
 20
139.0060293163
  0
VERTEX
  8
0
 62
7
  6
CONTINUOUS
 10
190.6375580583
 20
137.4292405196
  0
VERTEX
  8
0
 62
7
  6
CONTINUOUS
 10
189.097032128
 20
135.879569737
  0
VERTEX
  8
0
 62
7
  6
CONTINUOUS
 10
187.1986453145
 20
134.6593245805
  0
VERTEX
  8
0
 62
7
  6
CONTINUOUS
 10
185.024292932
 20
133.8709221803
  0
VERTEX
  8
0
 62
7
  6
CONTINUOUS
 10
183.8766068064
 20
133.6651641967
  0
SEQEND
  0
POLYLINE
  8
0
 62
7
  6
CONTINUOUS
 66
1
 70
0
  0
VERTEX
  8
0
 62
7
  6
CONTINUOUS
 10
192.5310435147
 20
66.38026685
  0
VERTEX
  8
0
 62
7
  6
CONTINUOUS
 10
192.3457797247
 20
66.9883138077
  0
VERTEX
  8
0
 62
7
  6
CONTINUOUS
 10
191.9704921267
 20
67.9370062634
  0
VERTEX
  8
0
 62
7
  6
CONTINUOUS
 10
191.4656809061
 20
68.9067706074
  0
VERTEX
  8
0
 62
7
  6
CONTINUOUS
 10
190.814462411
 20
69.8784231271
  0
VERTEX
  8
0
 62
7
  6
CONTINUOUS
 10
190.0071128212
 20
70.8212475061
  0
VERTEX
  8
0
 62
7
  6
CONTINUOUS
 10
189.0405563655
 20
71.7007728716
  0
VERTEX
  8
0
 62
7
  6
CONTINUOUS
 10
187.920278946
 20
72.4802519008
  0
VERTEX
  8
0
 62
7
  6
CONTINUOUS
 10
186.6593215252
 20
73.1241827313
  0
VERTEX
  8
0
 62
7
  6
CONTINUOUS
 10
185.2784546604
 20
73.5997257781
  0
VERTEX
  8
0
 62
7
  6
CONTINUOUS
 10
183.8767020102
 20
73.8700600332
  0
SEQEND
  0
POLYLINE
  8
0
 62
7
  6
CONTINUOUS
 66
1
 70
0
  0
VERTEX
  8
0
 62
7
  6
CONTINUOUS
 10
192.5310300729
 20
66.3803190013
  0
VERTEX
  8
0
 62
7
  6
CONTINUOUS
 10
192.4760141128
 20
66.5756082278
  0
VERTEX
  8
0
 62
7
  6
CONTINUOUS
 10
192.0232222079
 20
67.8189994387
  0
VERTEX
  8
0
 62
7
  6
CONTINUOUS
 10
191.6795061182
 20
68.5263229324
  0
VERTEX
  8
0
 62
7
  6
CONTINUOUS
 10
190.6399405282
 20
70.1026219021
  0
VERTEX
  8
0
 62
7
  6
CONTINUOUS
 10
189.0993425231
 20
71.6533913967
  0
VERTEX
  8
0
 62
7
  6
CONTINUOUS
 10
187.2002829654
 20
72.8746979554
  0
VERTEX
  8
0
 62
7
  6
CONTINUOUS
 10
185.0249503224
 20
73.663756684
  0
VERTEX
  8
0
 62
7
  6
CONTINUOUS
 10
183.8766053043
 20
73.8696719244
  0
SEQEND
  0
POLYLINE
  8
0
 62
7
  6
CONTINUOUS
 66
1
 70
0
  0
VERTEX
  8
0
 62
7
  6
CONTINUOUS
 10
192.8868114754
 20
63.7089384303
  0
VERTEX
  8
0
 62
7
  6
CONTINUOUS
 10
192.8825445479
 20
64.0039378581
  0
VERTEX
  8
0
 62
7
  6
CONTINUOUS
 10
192.8388069681
 20
64.697381813
  0
VERTEX
  8
0
 62
7
  6
CONTINUOUS
 10
192.7202877501
 20
65.5448528942
  0
VERTEX
  8
0
 62
7
  6
CONTINUOUS
 10
192.5310300729
 20
66.3803190013
  0
SEQEND
  0
LINE
  8
0
 62
7
  6
CONTINUOUS
 10
192.8868114754
 20
157.2999533004
 11
192.8868114754
 21
143.8258976353
  0
LINE
  8
0
 62
7
  6
CONTINUOUS
 10
192.8868114754
 20
63.7089384303
 11
192.8868114754
 21
50.2348827652
  0
POLYLINE
  8
0
 62
7
  6
CONTINUOUS
 66
1
 70
0
  0
VERTEX
  8
0
 62
7
  6
CONTINUOUS
 10
192.8868114754
 20
143.8258976353
  0
VERTEX
  8
0
 62
7
  6
CONTINUOUS
 10
192.8825379619
 20
143.5306706822
  0
VERTEX
  8
0
 62
7
  6
CONTINUOUS
 10
192.838750524
 20
142.8368745447
  0
VERTEX
  8
0
 62
7
  6
CONTINUOUS
 10
192.7200958051
 20
141.988933744
  0
VERTEX
  8
0
 62
7
  6
CONTINUOUS
 10
192.5287735461
 20
141.1462054473
  0
SEQEND
  0
LINE
  8
0
 62
7
  6
CONTINUOUS
 10
186.1262376635
 20
160.3575707634
 11
147.4715024277
 21
160.301267319
  0
POLYLINE
  8
0
 62
7
  6
CONTINUOUS
 66
1
 70
0
  0
VERTEX
  8
0
 62
7
  6
CONTINUOUS
 10
188.7394488685
 20
160.3059444369
  0
VERTEX
  8
0
 62
7
  6
CONTINUOUS
 10
187.8262818731
 20
160.3344577026
  0
VERTEX
  8
0
 62
7
  6
CONTINUOUS
 10
186.9551619973
 20
160.3521601954
  0
VERTEX
  8
0
 62
7
  6
CONTINUOUS
 10
186.1261851375
 20
160.3575706869
  0
SEQEND
  0
LINE
  8
0
 62
7
  6
CONTINUOUS
 10
189.1262773185
 20
160.290515888
 11
188.7394488685
 21
160.3059444369
  0
LINE
  8
0
 62
7
  6
CONTINUOUS
 10
189.9942613021
 20
160.2488723625
 11
189.1262773185
 21
160.290515888
  0
POLYLINE
  8
0
 62
7
  6
CONTINUOUS
 66
1
 70
0
  0
VERTEX
  8
0
 62
7
  6
CONTINUOUS
 10
191.6278410182
 20
159.7753212186
  0
VERTEX
  8
0
 62
7
  6
CONTINUOUS
 10
191.0301133511
 20
160.0747528787
  0
VERTEX
  8
0
 62
7
  6
CONTINUOUS
 10
190.6657389206
 20
160.1694276868
  0
VERTEX
  8
0
 62
7
  6
CONTINUOUS
 10
189.9942613021
 20
160.2488723625
  0
SEQEND
  0
POLYLINE
  8
0
 62
7
  6
CONTINUOUS
 66
1
 70
0
  0
VERTEX
  8
0
 62
7
  6
CONTINUOUS
 10
192.6584003204
 20
158.2840948644
  0
VERTEX
  8
0
 62
7
  6
CONTINUOUS
 10
192.7436361944
 20
158.1145892875
  0
VERTEX
  8
0
 62
7
  6
CONTINUOUS
 10
192.7831420592
 20
157.8592129285
  0
SEQEND
  0
LINE
  8
0
 62
7
  6
CONTINUOUS
 10
263.6516015334
 20
235.0000032787
 11
263.6516015334
 21
238.2723032787
  0
POLYLINE
  8
0
 62
7
  6
CONTINUOUS
 66
1
 70
0
  0
VERTEX
  8
0
 62
7
  6
CONTINUOUS
 10
263.629325966
 20
233.3523194785
  0
VERTEX
  8
0
 62
7
  6
CONTINUOUS
 10
263.6305882689
 20
234.5525046662
  0
VERTEX
  8
0
 62
7
  6
CONTINUOUS
 10
263.6317060083
 20
234.8966060083
  0
VERTEX
  8
0
 62
7
  6
CONTINUOUS
 10
263.6326513557
 20
235.0000032787
  0
SEQEND
  0
LINE
  8
0
 62
7
  6
CONTINUOUS
 10
263.6070724843
 20
237.5646488458
 11
263.5952567228
 21
233.3442752926
  0
LINE
  8
0
 62
7
  6
CONTINUOUS
 10
263.5952566959
 20
233.344281505
 11
263.5952981656
 21
233.3524976493
  0
LINE
  8
0
 62
7
  6
CONTINUOUS
 10
263.7133290219
 20
208.6948073506
 11
263.6224144795
 21
198.2770326569
  0
LINE
  8
0
 62
7
  6
CONTINUOUS
 10
263.6107316506
 20
238.1183998453
 11
263.6070724843
 21
237.5646488458
  0
LINE
  8
0
 62
7
  6
CONTINUOUS
 10
263.6119862195
 20
238.2253139546
 11
263.6107316506
 21
238.1183998453
  0
POLYLINE
  8
0
 62
7
  6
CONTINUOUS
 66
1
 70
0
  0
VERTEX
  8
0
 62
7
  6
CONTINUOUS
 10
263.6153414021
 20
238.3716906157
  0
VERTEX
  8
0
 62
7
  6
CONTINUOUS
 10
263.6140134116
 20
238.3298847646
  0
VERTEX
  8
0
 62
7
  6
CONTINUOUS
 10
263.6131787666
 20
238.294868221
  0
VERTEX
  8
0
 62
7
  6
CONTINUOUS
 10
263.6119862195
 20
238.2253139546
  0
SEQEND
  0
POLYLINE
  8
0
 62
7
  6
CONTINUOUS
 66
1
 70
0
  0
VERTEX
  8
0
 62
7
  6
CONTINUOUS
 10
263.6550880523
 20
238.7712027585
  0
VERTEX
  8
0
 62
7
  6
CONTINUOUS
 10
263.6273074991
 20
238.5567426477
  0
VERTEX
  8
0
 62
7
  6
CONTINUOUS
 10
263.6182259176
 20
238.4346665844
  0
VERTEX
  8
0
 62
7
  6
CONTINUOUS
 10
263.6153414021
 20
238.3716906157
  0
SEQEND
  0
POLYLINE
  8
0
 62
7
  6
CONTINUOUS
 66
1
 70
0
  0
VERTEX
  8
0
 62
7
  6
CONTINUOUS
 10
263.8907844823
 20
239.5434732185
  0
VERTEX
  8
0
 62
7
  6
CONTINUOUS
 10
263.6454050362
 20
238.7077866838
  0
VERTEX
  8
0
 62
7
  6
CONTINUOUS
 10
263.6142586814
 20
238.2723032787
  0
SEQEND
  0
POLYLINE
  8
0
 62
7
  6
CONTINUOUS
 66
1
 70
0
  0
VERTEX
  8
0
 62
7
  6
CONTINUOUS
 10
263.9159745147
 20
239.5973307504
  0
VERTEX
  8
0
 62
7
  6
CONTINUOUS
 10
263.7968290363
 20
239.3136053977
  0
VERTEX
  8
0
 62
7
  6
CONTINUOUS
 10
263.7108078372
 20
239.0351939474
  0
VERTEX
  8
0
 62
7
  6
CONTINUOUS
 10
263.6550880523
 20
238.7712027585
  0
SEQEND
  0
LINE
  8
0
 62
7
  6
CONTINUOUS
 10
264.361664191
 20
240.2761771246
 11
263.8907844823
 21
239.5434732185
  0
POLYLINE
  8
0
 62
7
  6
CONTINUOUS
 66
1
 70
0
  0
VERTEX
  8
0
 62
7
  6
CONTINUOUS
 10
264.4858593329
 20
240.4111358929
  0
VERTEX
  8
0
 62
7
  6
CONTINUOUS
 10
264.2596139937
 20
240.1519896703
  0
VERTEX
  8
0
 62
7
  6
CONTINUOUS
 10
264.0699364838
 20
239.8789389728
  0
VERTEX
  8
0
 62
7
  6
CONTINUOUS
 10
263.9159745147
 20
239.5973307504
  0
SEQEND
  0
LINE
  8
0
 62
7
  6
CONTINUOUS
 10
264.6703837152
 20
240.5848969762
 11
264.361664191
 21
240.2761771246
  0
LINE
  8
0
 62
7
  6
CONTINUOUS
 10
264.7488133039
 20
240.6506072962
 11
264.4858593329
 21
240.4111358929
  0
POLYLINE
  8
0
 62
7
  6
CONTINUOUS
 66
1
 70
0
  0
VERTEX
  8
0
 62
7
  6
CONTINUOUS
 10
263.7039964899
 20
232.6791743011
  0
VERTEX
  8
0
 62
7
  6
CONTINUOUS
 10
263.6816582934
 20
232.7489352771
  0
VERTEX
  8
0
 62
7
  6
CONTINUOUS
 10
263.6623529645
 20
232.8174403467
  0
VERTEX
  8
0
 62
7
  6
CONTINUOUS
 10
263.6469244156
 20
232.8801911694
  0
SEQEND
  0
POLYLINE
  8
0
 62
7
  6
CONTINUOUS
 66
1
 70
0
  0
VERTEX
  8
0
 62
7
  6
CONTINUOUS
 10
263.6469244156
 20
232.8801911694
  0
VERTEX
  8
0
 62
7
  6
CONTINUOUS
 10
263.6184111499
 20
233.0304090476
  0
VERTEX
  8
0
 62
7
  6
CONTINUOUS
 10
263.6007086571
 20
233.1883167678
  0
VERTEX
  8
0
 62
7
  6
CONTINUOUS
 10
263.5952566959
 20
233.344281505
  0
SEQEND
  0
LINE
  8
0
 62
7
  6
CONTINUOUS
 10
274.6354508197
 20
226.5198245169
 11
274.6468180106
 21
224.4785262022
  0
LINE
  8
0
 62
7
  6
CONTINUOUS
 10
274.6468180106
 20
224.4785262022
 11
274.6516462258
 21
223.0543032787
  0
LINE
  8
0
 62
7
  6
CONTINUOUS
 10
274.6354508197
 20
230.2221745327
 11
274.6354508197
 21
226.5198245169
  0
LINE
  8
0
 62
7
  6
CONTINUOUS
 10
274.6354508197
 20
219.5887820404
 11
274.6354508197
 21
211.8776371843
  0
LINE
  8
0
 62
7
  6
CONTINUOUS
 10
274.6354508197
 20
219.6292682504
 11
274.6354508197
 21
226.5138622102
  0
POLYLINE
  8
0
 62
7
  6
CONTINUOUS
 66
1
 70
0
  0
VERTEX
  8
0
 62
7
  6
CONTINUOUS
 10
274.6516462258
 20
223.0543032787
  0
VERTEX
  8
0
 62
7
  6
CONTINUOUS
 10
274.6468194906
 20
221.6303179605
  0
VERTEX
  8
0
 62
7
  6
CONTINUOUS
 10
274.6354508197
 20
219.5887820404
  0
SEQEND
  0
LINE
  8
0
 62
7
  6
CONTINUOUS
 10
265.403086844
 20
241.0557771845
 11
264.6703837152
 21
240.5848969762
  0
POLYLINE
  8
0
 62
7
  6
CONTINUOUS
 66
1
 70
0
  0
VERTEX
  8
0
 62
7
  6
CONTINUOUS
 10
265.7452126101
 20
241.1878633158
  0
VERTEX
  8
0
 62
7
  6
CONTINUOUS
 10
265.3808329778
 20
241.0455109088
  0
VERTEX
  8
0
 62
7
  6
CONTINUOUS
 10
265.0477292435
 20
240.864223442
  0
VERTEX
  8
0
 62
7
  6
CONTINUOUS
 10
264.7488133039
 20
240.6506072962
  0
SEQEND
  0
POLYLINE
  8
0
 62
7
  6
CONTINUOUS
 66
1
 70
0
  0
VERTEX
  8
0
 62
7
  6
CONTINUOUS
 10
264.1775476339
 20
231.9173180486
  0
VERTEX
  8
0
 62
7
  6
CONTINUOUS
 10
263.8781159738
 20
232.304221399
  0
VERTEX
  8
0
 62
7
  6
CONTINUOUS
 10
263.7834411656
 20
232.482663983
  0
VERTEX
  8
0
 62
7
  6
CONTINUOUS
 10
263.7039964899
 20
232.6791743011
  0
SEQEND
  0
LINE
  8
0
 62
7
  6
CONTINUOUS
 10
266.2387724922
 20
241.3011568908
 11
265.403086844
 21
241.0557771845
  0
POLYLINE
  8
CURVE_RUNDING
 62
7
  6
CONTINUOUS
 66
1
 70
0
  0
VERTEX
  8
CURVE_RUNDING
 62
7
  6
CONTINUOUS
 10
291.9596896475
 20
206.5965494047
  0
VERTEX
  8
CURVE_RUNDING
 62
7
  6
CONTINUOUS
 10
292.3269420377
 20
205.6328551297
  0
VERTEX
  8
CURVE_RUNDING
 62
7
  6
CONTINUOUS
 10
292.8465403206
 20
204.8020160313
  0
VERTEX
  8
CURVE_RUNDING
 62
7
  6
CONTINUOUS
 10
293.1550459219
 20
204.457066362
  0
VERTEX
  8
CURVE_RUNDING
 62
7
  6
CONTINUOUS
 10
293.8403746125
 20
203.9426154871
  0
VERTEX
  8
CURVE_RUNDING
 62
7
  6
CONTINUOUS
 10
294.5651201723
 20
203.687588542
  0
VERTEX
  8
CURVE_RUNDING
 62
7
  6
CONTINUOUS
 10
294.9175415362
 20
203.6573033333
  0
SEQEND
  0
POLYLINE
  8
0
 62
7
  6
CONTINUOUS
 66
1
 70
0
  0
VERTEX
  8
0
 62
7
  6
CONTINUOUS
 10
291.8554561168
 20
207.3988141925
  0
VERTEX
  8
0
 62
7
  6
CONTINUOUS
 10
291.8712366067
 20
207.0858327871
  0
VERTEX
  8
0
 62
7
  6
CONTINUOUS
 10
291.9365918872
 20
206.6928058009
  0
SEQEND
  0
LINE
  8
0
 62
7
  6
CONTINUOUS
 10
291.8554508197
 20
235.4782260984
 11
291.8554508197
 21
229.1333032787
  0
LINE
  8
0
 62
7
  6
CONTINUOUS
 10
291.8554508197
 20
216.1053032787
 11
291.8554508197
 21
207.3981777578
  0
LINE
  8
0
 62
7
  6
CONTINUOUS
 10
290.1597879594
 20
198.2342655215
 11
290.1853078827
 21
203.1081673113
  0
LINE
  8
0
 62
7
  6
CONTINUOUS
 10
373.6856037895
 20
195.1873032787
 11
353.2740716931
 21
195.1873032787
  0
LINE
  8
0
 62
7
  6
CONTINUOUS
 10
287.0968299463
 20
195.1873032787
 11
266.6852978498
 21
195.1873032787
  0
LINE
  8
CURVE_RUNDING
 62
7
  6
CONTINUOUS
 10
291.9896660593
 20
206.4946624703
 11
291.9596896475
 21
206.5965494047
  0
LINE
  8
0
 62
7
  6
CONTINUOUS
 10
291.9365918872
 20
206.6928058009
 11
291.9896627913
 21
206.4946544506
  0
LINE
  8
0
 62
7
  6
CONTINUOUS
 10
295.8391682778
 20
222.3843032787
 11
295.8391682778
 21
222.8543032787
  0
LINE
  8
0
 62
7
  6
CONTINUOUS
 10
295.9336549152
 20
222.8543032787
 11
295.9336549152
 21
222.3843032787
  0
POLYLINE
  8
0
 62
7
  6
CONTINUOUS
 66
1
 70
0
  0
VERTEX
  8
0
 62
7
  6
CONTINUOUS
 10
290.1853082344
 20
203.108236026
  0
VERTEX
  8
0
 62
7
  6
CONTINUOUS
 10
290.2238880909
 20
203.3471302884
  0
VERTEX
  8
0
 62
7
  6
CONTINUOUS
 10
290.3306033544
 20
203.5433397821
  0
VERTEX
  8
0
 62
7
  6
CONTINUOUS
 10
290.3875637795
 20
203.6008657514
  0
VERTEX
  8
0
 62
7
  6
CONTINUOUS
 10
290.4777521585
 20
203.6535424273
  0
SEQEND
  0
POLYLINE
  8
0
 62
7
  6
CONTINUOUS
 66
1
 70
0
  0
VERTEX
  8
0
 62
7
  6
CONTINUOUS
 10
295.4689566279
 20
219.2539450709
  0
VERTEX
  8
0
 62
7
  6
CONTINUOUS
 10
295.6997270718
 20
220.2862946786
  0
VERTEX
  8
0
 62
7
  6
CONTINUOUS
 10
295.7787726998
 20
220.9632034039
  0
VERTEX
  8
0
 62
7
  6
CONTINUOUS
 10
295.8391682778
 20
222.3843032787
  0
SEQEND
  0
POLYLINE
  8
0
 62
7
  6
CONTINUOUS
 66
1
 70
0
  0
VERTEX
  8
0
 62
7
  6
CONTINUOUS
 10
375.8514718603
 20
198.2503032787
  0
VERTEX
  8
0
 62
7
  6
CONTINUOUS
 10
376.3382141412
 20
198.2600868753
  0
VERTEX
  8
0
 62
7
  6
CONTINUOUS
 10
376.6441733925
 20
198.2692040273
  0
VERTEX
  8
0
 62
7
  6
CONTINUOUS
 10
376.7484871599
 20
198.2770326569
  0
SEQEND
  0
POLYLINE
  8
0
 62
7
  6
CONTINUOUS
 66
1
 70
0
  0
VERTEX
  8
0
 62
7
  6
CONTINUOUS
 10
264.519429779
 20
198.2503032787
  0
VERTEX
  8
0
 62
7
  6
CONTINUOUS
 10
264.0327123046
 20
198.2600866491
  0
VERTEX
  8
0
 62
7
  6
CONTINUOUS
 10
263.7267151848
 20
198.2692042396
  0
VERTEX
  8
0
 62
7
  6
CONTINUOUS
 10
263.6224144795
 20
198.2770326569
  0
SEQEND
  0
POLYLINE
  8
0
 62
7
  6
CONTINUOUS
 66
1
 70
0
  0
VERTEX
  8
0
 62
7
  6
CONTINUOUS
 10
295.4689566279
 20
225.9846614865
  0
VERTEX
  8
0
 62
7
  6
CONTINUOUS
 10
295.6997270718
 20
224.9523118788
  0
VERTEX
  8
0
 62
7
  6
CONTINUOUS
 10
295.7787726998
 20
224.2754031535
  0
VERTEX
  8
0
 62
7
  6
CONTINUOUS
 10
295.8391682778
 20
222.8543032787
  0
SEQEND
  0
POLYLINE
  8
CURVE_RUNDING
 62
7
  6
CONTINUOUS
 66
1
 70
0
  0
VERTEX
  8
CURVE_RUNDING
 62
7
  6
CONTINUOUS
 10
345.4533601031
 20
203.6573033333
  0
VERTEX
  8
CURVE_RUNDING
 62
7
  6
CONTINUOUS
 10
345.8057814699
 20
203.6875885425
  0
VERTEX
  8
CURVE_RUNDING
 62
7
  6
CONTINUOUS
 10
346.5305270257
 20
203.9426154864
  0
VERTEX
  8
CURVE_RUNDING
 62
7
  6
CONTINUOUS
 10
347.2158557163
 20
204.4570663609
  0
VERTEX
  8
CURVE_RUNDING
 62
7
  6
CONTINUOUS
 10
347.5243613177
 20
204.8020160301
  0
VERTEX
  8
CURVE_RUNDING
 62
7
  6
CONTINUOUS
 10
348.0439596009
 20
205.6328551283
  0
SEQEND
  0
POLYLINE
  8
0
 62
7
  6
CONTINUOUS
 66
1
 70
0
  0
VERTEX
  8
0
 62
7
  6
CONTINUOUS
 10
317.2497198029
 20
203.6572929837
  0
VERTEX
  8
0
 62
7
  6
CONTINUOUS
 10
320.1818609942
 20
203.6599193701
  0
VERTEX
  8
0
 62
7
  6
CONTINUOUS
 10
323.1200496972
 20
203.6572930147
  0
SEQEND
  0
LINE
  8
0
 62
7
  6
CONTINUOUS
 10
356.635480745
 20
203.6573032787
 11
345.4533316634
 21
203.6573032787
  0
LINE
  8
CURVE_RUNDING
 62
7
  6
CONTINUOUS
 10
345.4533316634
 20
203.6573032787
 11
330.8380189978
 21
203.6573032787
  0
LINE
  8
0
 62
7
  6
CONTINUOUS
 10
330.8380189978
 20
203.6573032787
 11
323.121181253
 21
203.6573032787
  0
LINE
  8
0
 62
7
  6
CONTINUOUS
 10
317.2497203864
 20
203.6573032787
 11
309.5328826415
 21
203.6573032787
  0
LINE
  8
0
 62
7
  6
CONTINUOUS
 10
294.9175699759
 20
203.6573032787
 11
283.7354208943
 21
203.6573032787
  0
LINE
  8
CURVE_RUNDING
 62
7
  6
CONTINUOUS
 10
294.9175699759
 20
203.6573032787
 11
309.5328826415
 21
203.6573032787
  0
LINE
  8
0
 62
7
  6
CONTINUOUS
 10
330.4952766918
 20
207.3661638946
 11
329.056548414
 21
207.1893823228
  0
POLYLINE
  8
0
 62
7
  6
CONTINUOUS
 66
1
 70
0
  0
VERTEX
  8
0
 62
7
  6
CONTINUOUS
 10
309.8756195715
 20
207.366171374
  0
VERTEX
  8
0
 62
7
  6
CONTINUOUS
 10
310.3540854213
 20
207.2938548893
  0
VERTEX
  8
0
 62
7
  6
CONTINUOUS
 10
310.832977694
 20
207.2346123987
  0
VERTEX
  8
0
 62
7
  6
CONTINUOUS
 10
311.3141283495
 20
207.1892821653
  0
SEQEND
  0
POLYLINE
  8
0
 62
7
  6
CONTINUOUS
 66
1
 70
0
  0
VERTEX
  8
0
 62
7
  6
CONTINUOUS
 10
309.3500485245
 20
209.0740459413
  0
VERTEX
  8
0
 62
7
  6
CONTINUOUS
 10
309.5189971186
 20
208.3547760283
  0
VERTEX
  8
0
 62
7
  6
CONTINUOUS
 10
309.6256793422
 20
208.0081798561
  0
VERTEX
  8
0
 62
7
  6
CONTINUOUS
 10
309.8756195715
 20
207.366171374
  0
SEQEND
  0
LINE
  8
0
 62
7
  6
CONTINUOUS
 10
265.7196134548
 20
210.7186767586
 11
275.3393073635
 21
210.8865891404
  0
LINE
  8
0
 62
7
  6
CONTINUOUS
 10
365.031594291
 20
210.8865891401
 11
374.6512881845
 21
210.7186767586
  0
LINE
  8
0
 62
7
  6
CONTINUOUS
 10
349.8828797963
 20
203.6573032787
 11
349.908489233
 21
203.6486377175
  0
LINE
  8
0
 62
7
  6
CONTINUOUS
 10
348.5154351855
 20
216.1053032787
 11
347.1325553037
 21
216.1053032787
  0
LINE
  8
0
 62
7
  6
CONTINUOUS
 10
293.2383463356
 20
216.1053032787
 11
291.8554664539
 21
216.1053032787
  0
LINE
  8
0
 62
7
  6
CONTINUOUS
 10
330.4952766918
 20
207.3661638946
 11
331.097379579
 21
207.025353753
  0
LINE
  8
0
 62
7
  6
CONTINUOUS
 10
331.097379579
 20
207.025353753
 11
331.2899943235
 21
206.874675947
  0
LINE
  8
CENTER_AXER
 62
2
  6
CENTER
 10
320.1854508197
 20
186.0543032787
 11
320.1854508197
 21
260.0543032787
  0
POLYLINE
  8
0
 62
7
  6
CONTINUOUS
 66
1
 70
0
  0
VERTEX
  8
0
 62
7
  6
CONTINUOUS
 10
293.2383463356
 20
216.1053032787
  0
VERTEX
  8
0
 62
7
  6
CONTINUOUS
 10
293.748788298
 20
216.2887169415
  0
VERTEX
  8
0
 62
7
  6
CONTINUOUS
 10
294.3131092278
 20
216.8375477577
  0
VERTEX
  8
0
 62
7
  6
CONTINUOUS
 10
294.8747022425
 20
217.7227669933
  0
VERTEX
  8
0
 62
7
  6
CONTINUOUS
 10
295.1313200619
 20
218.2682164933
  0
VERTEX
  8
0
 62
7
  6
CONTINUOUS
 10
295.5628215102
 20
219.5279832119
  0
VERTEX
  8
0
 62
7
  6
CONTINUOUS
 10
295.8396031019
 20
220.9295291971
  0
VERTEX
  8
0
 62
7
  6
CONTINUOUS
 10
295.9336549152
 20
222.3843032787
  0
SEQEND
  0
LINE
  8
CENTER_AXER
 62
2
  6
CENTER
 10
258.1854508197
 20
223.0543032787
 11
382.1854508197
 21
223.0543032787
  0
POLYLINE
  8
0
 62
7
  6
CONTINUOUS
 66
1
 70
0
  0
VERTEX
  8
0
 62
7
  6
CONTINUOUS
 10
265.5646374936
 20
231.3134630673
  0
VERTEX
  8
0
 62
7
  6
CONTINUOUS
 10
265.087725328
 20
231.3848631534
  0
VERTEX
  8
0
 62
7
  6
CONTINUOUS
 10
264.6151623549
 20
231.5809255626
  0
VERTEX
  8
0
 62
7
  6
CONTINUOUS
 10
264.1775475325
 20
231.9173181279
  0
SEQEND
  0
POLYLINE
  8
0
 62
7
  6
CONTINUOUS
 66
1
 70
0
  0
VERTEX
  8
0
 62
7
  6
CONTINUOUS
 10
265.6515216759
 20
231.3123971554
  0
VERTEX
  8
0
 62
7
  6
CONTINUOUS
 10
265.025407985
 20
231.4166099001
  0
VERTEX
  8
0
 62
7
  6
CONTINUOUS
 10
264.4616202617
 20
231.7082242524
  0
VERTEX
  8
0
 62
7
  6
CONTINUOUS
 10
264.0147539371
 20
232.1590077839
  0
VERTEX
  8
0
 62
7
  6
CONTINUOUS
 10
263.7280708724
 20
232.7253194021
  0
VERTEX
  8
0
 62
7
  6
CONTINUOUS
 10
263.629325966
 20
233.3523194785
  0
SEQEND
  0
POLYLINE
  8
0
 62
7
  6
CONTINUOUS
 66
1
 70
0
  0
VERTEX
  8
0
 62
7
  6
CONTINUOUS
 10
293.2383463356
 20
229.1333032787
  0
VERTEX
  8
0
 62
7
  6
CONTINUOUS
 10
293.748788298
 20
228.9498896159
  0
VERTEX
  8
0
 62
7
  6
CONTINUOUS
 10
294.3131092278
 20
228.4010587997
  0
VERTEX
  8
0
 62
7
  6
CONTINUOUS
 10
294.8747022425
 20
227.5158395641
  0
VERTEX
  8
0
 62
7
  6
CONTINUOUS
 10
295.1313200619
 20
226.9703900641
  0
VERTEX
  8
0
 62
7
  6
CONTINUOUS
 10
295.5628215102
 20
225.7106233455
  0
VERTEX
  8
0
 62
7
  6
CONTINUOUS
 10
295.8396031019
 20
224.3090773603
  0
VERTEX
  8
0
 62
7
  6
CONTINUOUS
 10
295.9336549152
 20
222.8543032787
  0
SEQEND
  0
POLYLINE
  8
0
 62
7
  6
CONTINUOUS
 66
1
 70
0
  0
VERTEX
  8
0
 62
7
  6
CONTINUOUS
 10
347.1325553037
 20
229.1333032787
  0
VERTEX
  8
0
 62
7
  6
CONTINUOUS
 10
346.6221133414
 20
228.9498896159
  0
VERTEX
  8
0
 62
7
  6
CONTINUOUS
 10
346.0577924115
 20
228.4010587997
  0
VERTEX
  8
0
 62
7
  6
CONTINUOUS
 10
345.4961993968
 20
227.5158395641
  0
VERTEX
  8
0
 62
7
  6
CONTINUOUS
 10
345.2395815774
 20
226.9703900641
  0
VERTEX
  8
0
 62
7
  6
CONTINUOUS
 10
344.8080801291
 20
225.7106233455
  0
VERTEX
  8
0
 62
7
  6
CONTINUOUS
 10
344.5312985374
 20
224.3090773603
  0
VERTEX
  8
0
 62
7
  6
CONTINUOUS
 10
344.4372467242
 20
222.8543032787
  0
SEQEND
  0
POLYLINE
  8
0
 62
7
  6
CONTINUOUS
 66
1
 70
0
  0
VERTEX
  8
0
 62
7
  6
CONTINUOUS
 10
347.1325553037
 20
216.1053032787
  0
VERTEX
  8
0
 62
7
  6
CONTINUOUS
 10
346.6221133414
 20
216.2887169415
  0
VERTEX
  8
0
 62
7
  6
CONTINUOUS
 10
346.0577924115
 20
216.8375477577
  0
VERTEX
  8
0
 62
7
  6
CONTINUOUS
 10
345.4961993968
 20
217.7227669933
  0
VERTEX
  8
0
 62
7
  6
CONTINUOUS
 10
345.2395815774
 20
218.2682164933
  0
VERTEX
  8
0
 62
7
  6
CONTINUOUS
 10
344.8080801291
 20
219.5279832119
  0
VERTEX
  8
0
 62
7
  6
CONTINUOUS
 10
344.5312985374
 20
220.9295291971
  0
VERTEX
  8
0
 62
7
  6
CONTINUOUS
 10
344.4372467242
 20
222.3843032787
  0
SEQEND
  0
POLYLINE
  8
0
 62
7
  6
CONTINUOUS
 66
1
 70
0
  0
VERTEX
  8
0
 62
7
  6
CONTINUOUS
 10
349.908489233
 20
203.6486377175
  0
VERTEX
  8
0
 62
7
  6
CONTINUOUS
 10
350.0268947852
 20
203.5587888563
  0
VERTEX
  8
0
 62
7
  6
CONTINUOUS
 10
350.1410633567
 20
203.3641757894
  0
VERTEX
  8
0
 62
7
  6
CONTINUOUS
 10
350.1855936521
 20
203.1081873911
  0
SEQEND
  0
POLYLINE
  8
0
 62
7
  6
CONTINUOUS
 66
1
 70
0
  0
VERTEX
  8
0
 62
7
  6
CONTINUOUS
 10
309.8756195715
 20
207.366171374
  0
VERTEX
  8
0
 62
7
  6
CONTINUOUS
 10
309.3028391855
 20
207.0426098012
  0
VERTEX
  8
0
 62
7
  6
CONTINUOUS
 10
309.0874064916
 20
206.8747742698
  0
SEQEND
  0
LINE
  8
0
 62
7
  6
CONTINUOUS
 10
366.3437510975
 20
231.2396118348
 11
374.7652220194
 21
231.3131048981
  0
LINE
  8
0
 62
7
  6
CONTINUOUS
 10
348.5154351855
 20
229.1333032787
 11
347.1325553037
 21
229.1333032787
  0
LINE
  8
0
 62
7
  6
CONTINUOUS
 10
293.2383463356
 20
229.1333032787
 11
291.8554664539
 21
229.1333032787
  0
LINE
  8
0
 62
7
  6
CONTINUOUS
 10
265.5646374936
 20
231.3134630673
 11
274.0271505419
 21
231.2396118348
  0
POLYLINE
  8
0
 62
7
  6
CONTINUOUS
 66
1
 70
0
  0
VERTEX
  8
0
 62
7
  6
CONTINUOUS
 10
331.0209333249
 20
209.0740367053
  0
VERTEX
  8
0
 62
7
  6
CONTINUOUS
 10
330.851919234
 20
208.3547914635
  0
VERTEX
  8
0
 62
7
  6
CONTINUOUS
 10
330.745239754
 20
208.0081844611
  0
VERTEX
  8
0
 62
7
  6
CONTINUOUS
 10
330.4952766918
 20
207.3661638946
  0
SEQEND
  0
LINE
  8
0
 62
7
  6
CONTINUOUS
 10
263.6326513557
 20
235.0000032787
 11
291.8554508197
 21
235.0000032787
  0
LINE
  8
0
 62
7
  6
CONTINUOUS
 10
348.5154508197
 20
235.0000032787
 11
376.7382502837
 21
235.0000032787
  0
LINE
  8
0
 62
7
  6
CONTINUOUS
 10
266.6742554354
 20
241.3323032787
 11
373.696646204
 21
241.3323032787
  0
POLYLINE
  8
0
 62
7
  6
CONTINUOUS
 66
1
 70
0
  0
VERTEX
  8
0
 62
7
  6
CONTINUOUS
 10
344.9019450114
 20
225.9846614865
  0
VERTEX
  8
0
 62
7
  6
CONTINUOUS
 10
344.6711745675
 20
224.9523118788
  0
VERTEX
  8
0
 62
7
  6
CONTINUOUS
 10
344.5921289395
 20
224.2754031535
  0
VERTEX
  8
0
 62
7
  6
CONTINUOUS
 10
344.5317333616
 20
222.8543032787
  0
SEQEND
  0
POLYLINE
  8
0
 62
7
  6
CONTINUOUS
 66
1
 70
0
  0
VERTEX
  8
0
 62
7
  6
CONTINUOUS
 10
296.5439957141
 20
241.3323029346
  0
VERTEX
  8
0
 62
7
  6
CONTINUOUS
 10
295.4108631594
 20
241.1683783841
  0
VERTEX
  8
0
 62
7
  6
CONTINUOUS
 10
294.33177553
 20
240.6813513433
  0
VERTEX
  8
0
 62
7
  6
CONTINUOUS
 10
293.3865795104
 20
239.8938791863
  0
VERTEX
  8
0
 62
7
  6
CONTINUOUS
 10
292.9853644196
 20
239.4001952041
  0
VERTEX
  8
0
 62
7
  6
CONTINUOUS
 10
292.3569149296
 20
238.2486222184
  0
VERTEX
  8
0
 62
7
  6
CONTINUOUS
 10
291.9775378062
 20
236.914830949
  0
VERTEX
  8
0
 62
7
  6
CONTINUOUS
 10
291.85545082
 20
235.4782727838
  0
SEQEND
  0
LINE
  8
0
 62
7
  6
CONTINUOUS
 10
266.5496918941
 20
241.3297669518
 11
266.1847651083
 21
241.2928996008
  0
POLYLINE
  8
0
 62
7
  6
CONTINUOUS
 66
1
 70
0
  0
VERTEX
  8
0
 62
7
  6
CONTINUOUS
 10
266.7115982874
 20
241.3323032787
  0
VERTEX
  8
0
 62
7
  6
CONTINUOUS
 10
266.2761153555
 20
241.3011568909
  0
VERTEX
  8
0
 62
7
  6
CONTINUOUS
 10
265.4404297218
 20
241.0557771846
  0
VERTEX
  8
0
 62
7
  6
CONTINUOUS
 10
264.7077265974
 20
240.5848969764
  0
VERTEX
  8
0
 62
7
  6
CONTINUOUS
 10
264.3990070721
 20
240.2761771247
  0
VERTEX
  8
0
 62
7
  6
CONTINUOUS
 10
263.9281273555
 20
239.5434732186
  0
VERTEX
  8
0
 62
7
  6
CONTINUOUS
 10
263.6827478961
 20
238.7077866839
  0
VERTEX
  8
0
 62
7
  6
CONTINUOUS
 10
263.6516015334
 20
238.2723032787
  0
SEQEND
  0
LINE
  8
0
 62
7
  6
CONTINUOUS
 10
266.6742554354
 20
241.3323032787
 11
266.2387724922
 21
241.3011568908
  0
LINE
  8
0
 62
7
  6
CONTINUOUS
 10
266.6742097934
 20
241.3323032783
 11
266.3908486046
 21
241.3191510824
  0
LINE
  8
0
 62
7
  6
CONTINUOUS
 10
266.6742096453
 20
241.3323032786
 11
266.5496918941
 21
241.3297669518
  0
LINE
  8
0
 62
7
  6
CONTINUOUS
 10
373.8350694413
 20
241.3291708322
 11
373.696646204
 21
241.3323032787
  0
LINE
  8
0
 62
7
  6
CONTINUOUS
 10
373.9069248898
 20
241.325069693
 11
373.8275388063
 21
241.3295026001
  0
POLYLINE
  8
0
 62
7
  6
CONTINUOUS
 66
1
 70
0
  0
VERTEX
  8
0
 62
7
  6
CONTINUOUS
 10
373.659303352
 20
241.3323032787
  0
VERTEX
  8
0
 62
7
  6
CONTINUOUS
 10
374.0947862903
 20
241.3011568911
  0
VERTEX
  8
0
 62
7
  6
CONTINUOUS
 10
374.9304719395
 20
241.0557771856
  0
VERTEX
  8
0
 62
7
  6
CONTINUOUS
 10
375.6631750722
 20
240.5848969776
  0
VERTEX
  8
0
 62
7
  6
CONTINUOUS
 10
375.9718945969
 20
240.2761771257
  0
VERTEX
  8
0
 62
7
  6
CONTINUOUS
 10
376.4427743039
 20
239.5434732187
  0
VERTEX
  8
0
 62
7
  6
CONTINUOUS
 10
376.6881537489
 20
238.7077866835
  0
VERTEX
  8
0
 62
7
  6
CONTINUOUS
 10
376.7193001059
 20
238.2723032787
  0
SEQEND
  0
LINE
  8
0
 62
7
  6
CONTINUOUS
 10
373.9802761867
 20
241.3191302149
 11
373.9069248898
 21
241.325069693
  0
LINE
  8
0
 62
7
  6
CONTINUOUS
 10
374.1861284828
 20
241.292900905
 11
373.8350694413
 21
241.3291708322
  0
POLYLINE
  8
0
 62
7
  6
CONTINUOUS
 66
1
 70
0
  0
VERTEX
  8
0
 62
7
  6
CONTINUOUS
 10
344.9019450114
 20
219.2539450709
  0
VERTEX
  8
0
 62
7
  6
CONTINUOUS
 10
344.6711745675
 20
220.2862946786
  0
VERTEX
  8
0
 62
7
  6
CONTINUOUS
 10
344.5921289395
 20
220.9632034039
  0
VERTEX
  8
0
 62
7
  6
CONTINUOUS
 10
344.5317333616
 20
222.3843032787
  0
SEQEND
  0
LINE
  8
0
 62
7
  6
CONTINUOUS
 10
344.4372467242
 20
222.8543032787
 11
344.4372467242
 21
222.3843032787
  0
LINE
  8
0
 62
7
  6
CONTINUOUS
 10
344.5317333616
 20
222.3843032787
 11
344.5317333616
 21
222.8543032787
  0
LINE
  8
0
 62
7
  6
CONTINUOUS
 10
348.5154508197
 20
235.4782159639
 11
348.5154508197
 21
229.1333032787
  0
LINE
  8
0
 62
7
  6
CONTINUOUS
 10
348.5154508197
 20
216.1053032787
 11
348.5154508197
 21
207.3987326044
  0
POLYLINE
  8
0
 62
7
  6
CONTINUOUS
 66
1
 70
0
  0
VERTEX
  8
0
 62
7
  6
CONTINUOUS
 10
376.1915526814
 20
231.9171114582
  0
VERTEX
  8
0
 62
7
  6
CONTINUOUS
 10
375.7414553223
 20
231.5741031124
  0
VERTEX
  8
0
 62
7
  6
CONTINUOUS
 10
375.2554391797
 20
231.3783676796
  0
VERTEX
  8
0
 62
7
  6
CONTINUOUS
 10
374.7652220194
 20
231.3131048981
  0
SEQEND
  0
POLYLINE
  8
0
 62
7
  6
CONTINUOUS
 66
1
 70
0
  0
VERTEX
  8
0
 62
7
  6
CONTINUOUS
 10
266.1847651083
 20
241.2928996008
  0
VERTEX
  8
0
 62
7
  6
CONTINUOUS
 10
266.136682483
 20
241.284714083
  0
VERTEX
  8
0
 62
7
  6
CONTINUOUS
 10
265.7452126101
 20
241.1878633158
  0
SEQEND
  0
LINE
  8
0
 62
7
  6
CONTINUOUS
 10
266.3908486046
 20
241.3191510824
 11
266.1848394582
 21
241.2929116482
  0
LINE
  8
0
 62
7
  6
CONTINUOUS
 10
374.0559283066
 20
241.3111382927
 11
373.9802761867
 21
241.3191302149
  0
LINE
  8
0
 62
7
  6
CONTINUOUS
 10
373.9069248898
 20
241.325069693
 11
374.1321291471
 21
241.3011568908
  0
POLYLINE
  8
0
 62
7
  6
CONTINUOUS
 66
1
 70
0
  0
VERTEX
  8
0
 62
7
  6
CONTINUOUS
 10
348.5154508194
 20
235.4782626198
  0
VERTEX
  8
0
 62
7
  6
CONTINUOUS
 10
348.3933934147
 20
236.9146569252
  0
VERTEX
  8
0
 62
7
  6
CONTINUOUS
 10
348.0141347926
 20
238.2482510219
  0
VERTEX
  8
0
 62
7
  6
CONTINUOUS
 10
347.3858214722
 20
239.39979299
  0
VERTEX
  8
0
 62
7
  6
CONTINUOUS
 10
346.9846249675
 20
239.8935481819
  0
VERTEX
  8
0
 62
7
  6
CONTINUOUS
 10
346.039334896
 20
240.6812182388
  0
VERTEX
  8
0
 62
7
  6
CONTINUOUS
 10
344.9600699699
 20
241.1683681688
  0
VERTEX
  8
0
 62
7
  6
CONTINUOUS
 10
343.8268879198
 20
241.3323029408
  0
SEQEND
  0
LINE
  8
0
 62
7
  6
CONTINUOUS
 10
350.1855937566
 20
203.1081673113
 11
350.2111136799
 21
198.2342655215
  0
POLYLINE
  8
0
 62
7
  6
CONTINUOUS
 66
1
 70
0
  0
VERTEX
  8
0
 62
7
  6
CONTINUOUS
 10
348.3812485649
 20
206.4947033042
  0
VERTEX
  8
0
 62
7
  6
CONTINUOUS
 10
348.4556467997
 20
206.7916859651
  0
VERTEX
  8
0
 62
7
  6
CONTINUOUS
 10
348.5079539192
 20
207.1829844665
  0
VERTEX
  8
0
 62
7
  6
CONTINUOUS
 10
348.5154506157
 20
207.3988495442
  0
SEQEND
  0
POLYLINE
  8
CURVE_RUNDING
 62
7
  6
CONTINUOUS
 66
1
 70
0
  0
VERTEX
  8
CURVE_RUNDING
 62
7
  6
CONTINUOUS
 10
348.0439596009
 20
205.6328551283
  0
VERTEX
  8
CURVE_RUNDING
 62
7
  6
CONTINUOUS
 10
348.4112119915
 20
206.5965494033
  0
VERTEX
  8
CURVE_RUNDING
 62
7
  6
CONTINUOUS
 10
348.3812509028
 20
206.4947129728
  0
SEQEND
  0
LINE
  8
0
 62
7
  6
CONTINUOUS
 10
374.1321291471
 20
241.3011568908
 11
374.9678147953
 21
241.0557771845
  0
POLYLINE
  8
0
 62
7
  6
CONTINUOUS
 66
1
 70
0
  0
VERTEX
  8
0
 62
7
  6
CONTINUOUS
 10
375.0679862545
 20
241.0078200087
  0
VERTEX
  8
0
 62
7
  6
CONTINUOUS
 10
374.6866474233
 20
241.1677324438
  0
VERTEX
  8
0
 62
7
  6
CONTINUOUS
 10
374.273575243
 20
241.2774250671
  0
VERTEX
  8
0
 62
7
  6
CONTINUOUS
 10
374.1861284828
 20
241.292900905
  0
SEQEND
  0
LINE
  8
0
 62
7
  6
CONTINUOUS
 10
365.7354508197
 20
219.5887820404
 11
365.724081937
 21
221.6303519546
  0
LINE
  8
0
 62
7
  6
CONTINUOUS
 10
365.724081937
 20
221.6303519546
 11
365.7192554136
 21
223.0543032787
  0
LINE
  8
0
 62
7
  6
CONTINUOUS
 10
365.7354508197
 20
230.2221745327
 11
365.7354508197
 21
226.5198245169
  0
LINE
  8
0
 62
7
  6
CONTINUOUS
 10
365.7354508197
 20
219.5887820404
 11
365.7354508197
 21
211.8776371843
  0
LINE
  8
0
 62
7
  6
CONTINUOUS
 10
365.7354508197
 20
219.6292682504
 11
365.7354508197
 21
226.5138219705
  0
POLYLINE
  8
0
 62
7
  6
CONTINUOUS
 66
1
 70
0
  0
VERTEX
  8
0
 62
7
  6
CONTINUOUS
 10
365.7192554136
 20
223.0543032787
  0
VERTEX
  8
0
 62
7
  6
CONTINUOUS
 10
365.7240834178
 20
224.4784923378
  0
VERTEX
  8
0
 62
7
  6
CONTINUOUS
 10
365.7354508197
 20
226.5198245169
  0
SEQEND
  0
LINE
  8
0
 62
7
  6
CONTINUOUS
 10
374.9678147953
 20
241.0557771845
 11
375.7005179241
 21
240.5848969762
  0
POLYLINE
  8
0
 62
7
  6
CONTINUOUS
 66
1
 70
0
  0
VERTEX
  8
0
 62
7
  6
CONTINUOUS
 10
376.6665116086
 20
232.6801464042
  0
VERTEX
  8
0
 62
7
  6
CONTINUOUS
 10
376.5876248812
 20
232.4850119106
  0
VERTEX
  8
0
 62
7
  6
CONTINUOUS
 10
376.4924262275
 20
232.3055060186
  0
VERTEX
  8
0
 62
7
  6
CONTINUOUS
 10
376.1915525865
 20
231.917111384
  0
SEQEND
  0
POLYLINE
  8
0
 62
7
  6
CONTINUOUS
 66
1
 70
0
  0
VERTEX
  8
0
 62
7
  6
CONTINUOUS
 10
375.7187513251
 20
240.5689870703
  0
VERTEX
  8
0
 62
7
  6
CONTINUOUS
 10
375.4130225205
 20
240.8056203061
  0
VERTEX
  8
0
 62
7
  6
CONTINUOUS
 10
375.0679862545
 20
241.0078200087
  0
SEQEND
  0
POLYLINE
  8
0
 62
7
  6
CONTINUOUS
 66
1
 70
0
  0
VERTEX
  8
0
 62
7
  6
CONTINUOUS
 10
376.7415744728
 20
233.3547576211
  0
VERTEX
  8
0
 62
7
  6
CONTINUOUS
 10
376.6427327576
 20
232.7271428391
  0
VERTEX
  8
0
 62
7
  6
CONTINUOUS
 10
376.3557686307
 20
232.1602760136
  0
VERTEX
  8
0
 62
7
  6
CONTINUOUS
 10
375.9084642015
 20
231.7090505376
  0
VERTEX
  8
0
 62
7
  6
CONTINUOUS
 10
375.3441237444
 20
231.4171502886
  0
VERTEX
  8
0
 62
7
  6
CONTINUOUS
 10
374.7173962156
 20
231.3128353741
  0
SEQEND
  0
POLYLINE
  8
0
 62
7
  6
CONTINUOUS
 66
1
 70
0
  0
VERTEX
  8
0
 62
7
  6
CONTINUOUS
 10
376.723711352
 20
232.8812761316
  0
VERTEX
  8
0
 62
7
  6
CONTINUOUS
 10
376.7082492084
 20
232.8185090405
  0
VERTEX
  8
0
 62
7
  6
CONTINUOUS
 10
376.6889015465
 20
232.74996661
  0
VERTEX
  8
0
 62
7
  6
CONTINUOUS
 10
376.6665116086
 20
232.6801464042
  0
SEQEND
  0
LINE
  8
0
 62
7
  6
CONTINUOUS
 10
375.7005179241
 20
240.5848969762
 11
376.0092374483
 21
240.2761771246
  0
POLYLINE
  8
0
 62
7
  6
CONTINUOUS
 66
1
 70
0
  0
VERTEX
  8
0
 62
7
  6
CONTINUOUS
 10
376.2069414904
 20
240.0222033281
  0
VERTEX
  8
0
 62
7
  6
CONTINUOUS
 10
375.9835370247
 20
240.3054843073
  0
VERTEX
  8
0
 62
7
  6
CONTINUOUS
 10
375.7187513251
 20
240.5689870703
  0
SEQEND
  0
POLYLINE
  8
0
 62
7
  6
CONTINUOUS
 66
1
 70
0
  0
VERTEX
  8
0
 62
7
  6
CONTINUOUS
 10
376.7549650361
 20
238.3869624798
  0
VERTEX
  8
0
 62
7
  6
CONTINUOUS
 10
376.7508061367
 20
238.4658529811
  0
VERTEX
  8
0
 62
7
  6
CONTINUOUS
 10
376.7371365704
 20
238.6187120826
  0
SEQEND
  0
POLYLINE
  8
0
 62
7
  6
CONTINUOUS
 66
1
 70
0
  0
VERTEX
  8
0
 62
7
  6
CONTINUOUS
 10
376.7575681853
 20
238.3020574527
  0
VERTEX
  8
0
 62
7
  6
CONTINUOUS
 10
376.7566209775
 20
238.3394169558
  0
VERTEX
  8
0
 62
7
  6
CONTINUOUS
 10
376.7549650361
 20
238.3869624798
  0
SEQEND
  0
LINE
  8
0
 62
7
  6
CONTINUOUS
 10
376.758843683
 20
238.2303049632
 11
376.7575681853
 21
238.3020574527
  0
LINE
  8
0
 62
7
  6
CONTINUOUS
 10
376.7606716996
 20
238.0645184267
 11
376.758843683
 21
238.2303049632
  0
LINE
  8
0
 62
7
  6
CONTINUOUS
 10
376.7391954372
 20
234.8966465638
 11
376.7382502837
 21
235.0000032787
  0
LINE
  8
0
 62
7
  6
CONTINUOUS
 10
376.7484871599
 20
198.2770326569
 11
376.6575726175
 21
208.6948073506
  0
LINE
  8
0
 62
7
  6
CONTINUOUS
 10
376.7654099038
 20
237.2023497008
 11
376.7606716996
 21
238.0645184267
  0
LINE
  8
0
 62
7
  6
CONTINUOUS
 10
376.7415756733
 20
233.9790032787
 11
376.7391954372
 21
234.8966465638
  0
LINE
  8
0
 62
7
  6
CONTINUOUS
 10
376.7756371815
 20
233.3467400431
 11
376.7707860403
 21
235.307686943
  0
LINE
  8
0
 62
7
  6
CONTINUOUS
 10
376.7707860403
 20
235.307686943
 11
376.7654099038
 21
237.2023497008
  0
LINE
  8
0
 62
7
  6
CONTINUOUS
 10
376.770961541
 20
235.2256190183
 11
376.770965167
 21
235.2191339132
  0
LINE
  8
0
 62
7
  6
CONTINUOUS
 10
376.7193001059
 20
238.2723032787
 11
376.7193001059
 21
235.0000032787
  0
LINE
  8
0
 62
7
  6
CONTINUOUS
 10
376.7415756733
 20
233.9790032787
 11
376.7415756733
 21
233.3547576211
  0
POLYLINE
  8
0
 62
7
  6
CONTINUOUS
 66
1
 70
0
  0
VERTEX
  8
0
 62
7
  6
CONTINUOUS
 10
376.7756371815
 20
233.3467400431
  0
VERTEX
  8
0
 62
7
  6
CONTINUOUS
 10
376.770157836
 20
233.1903058441
  0
VERTEX
  8
0
 62
7
  6
CONTINUOUS
 10
376.7523683616
 20
233.0319416112
  0
VERTEX
  8
0
 62
7
  6
CONTINUOUS
 10
376.723711352
 20
232.8812761316
  0
SEQEND
  0
LINE
  8
0
 62
7
  6
CONTINUOUS
 10
376.0092374483
 20
240.2761771246
 11
376.480117157
 21
239.5434732185
  0
POLYLINE
  8
0
 62
7
  6
CONTINUOUS
 66
1
 70
0
  0
VERTEX
  8
0
 62
7
  6
CONTINUOUS
 10
376.5319420935
 20
239.4233699098
  0
VERTEX
  8
0
 62
7
  6
CONTINUOUS
 10
376.3895183071
 20
239.7256523668
  0
VERTEX
  8
0
 62
7
  6
CONTINUOUS
 10
376.2069414904
 20
240.0222033281
  0
SEQEND
  0
POLYLINE
  8
0
 62
7
  6
CONTINUOUS
 66
1
 70
0
  0
VERTEX
  8
0
 62
7
  6
CONTINUOUS
 10
376.480117157
 20
239.5434732185
  0
VERTEX
  8
0
 62
7
  6
CONTINUOUS
 10
376.7254966031
 20
238.7077866838
  0
VERTEX
  8
0
 62
7
  6
CONTINUOUS
 10
376.7566429579
 20
238.2723032787
  0
SEQEND
  0
POLYLINE
  8
0
 62
7
  6
CONTINUOUS
 66
1
 70
0
  0
VERTEX
  8
0
 62
7
  6
CONTINUOUS
 10
376.7371365704
 20
238.6187120826
  0
VERTEX
  8
0
 62
7
  6
CONTINUOUS
 10
376.7016752628
 20
238.85020944
  0
VERTEX
  8
0
 62
7
  6
CONTINUOUS
 10
376.6349437155
 20
239.1269258304
  0
VERTEX
  8
0
 62
7
  6
CONTINUOUS
 10
376.5319420935
 20
239.4233699098
  0
SEQEND
  0
ARC
  8
0
 62
7
  6
CONTINUOUS
 10
85.5799114754
 20
215.9093032787
 40
12.252
 50
208.6594874385
 51
270.0
  0
ARC
  8
0
 62
7
  6
CONTINUOUS
 10
189.8238114754
 20
207.2460394202
 40
3.063
 50
315.0
 51
360.0
  0
ARC
  8
0
 62
7
  6
CONTINUOUS
 10
180.8280753339
 20
198.2503032787
 40
3.063
 50
270.0
 51
315.0
  0
ARC
  8
0
 62
7
  6
CONTINUOUS
 10
158.1703589191
 20
198.2503032787
 40
3.063
 50
180.047513539
 51
270.0000000001
  0
ARC
  8
0
 62
7
  6
CONTINUOUS
 10
154.0827199452
 20
202.6363032787
 40
1.021
 50
78.0348294896
 51
86.6056455685
  0
ARC
  8
0
 62
7
  6
CONTINUOUS
 10
154.0827199452
 20
202.6363032787
 40
1.021
 50
0.0475138567
 51
71.0860047848
  0
ARC
  8
0
 62
7
  6
CONTINUOUS
 10
173.1134329397
 20
220.9123032787
 40
20.42
 50
55.5
 51
90.0
  0
CIRCLE
  8
0
 62
7
  6
CONTINUOUS
 10
174.1038114754
 20
223.0543032787
 40
8.17
  0
CIRCLE
  8
0
 62
7
  6
CONTINUOUS
 10
174.1038114754
 20
223.0543032787
 40
6.15
  0
ARC
  8
0
 62
7
  6
CONTINUOUS
 10
159.7046114754
 20
233.9790032787
 40
1.021
 50
0.0
 51
90.0
  0
ARC
  8
0
 62
7
  6
CONTINUOUS
 10
119.7801469523
 20
73.2055875844
 40
6.64
 50
90.0
 51
119.0797267564
  0
ARC
  8
0
 62
7
  6
CONTINUOUS
 10
127.7571729693
 20
73.2455875844
 40
6.6
 50
22.0
 51
90.0
  0
ARC
  8
0
 62
7
  6
CONTINUOUS
 10
102.7838114754
 20
103.7674180328
 40
28.33
 50
60.9202732436
 51
299.0797267564
  0
CIRCLE
  8
0
 62
7
  6
CONTINUOUS
 10
102.7838114754
 20
103.7674180328
 40
16.8463458246
  0
ARC
  8
0
 62
7
  6
CONTINUOUS
 10
119.7801469523
 20
134.3292484812
 40
6.64
 50
240.9202732436
 51
270.0
  0
ARC
  8
0
 62
7
  6
CONTINUOUS
 10
127.7571729693
 20
134.2892484812
 40
6.6
 50
270.0
 51
338.0
  0
ARC
  8
0
 62
7
  6
CONTINUOUS
 10
147.4760177992
 20
50.3335654581
 40
3.1
 50
202.0
 51
269.9165445726
  0
ARC
  8
0
 62
7
  6
CONTINUOUS
 10
189.8238114754
 20
50.2348827652
 40
3.063
 50
306.1414555928
 51
360.0
  0
ARC
  8
0
 62
7
  6
CONTINUOUS
 10
147.4760177992
 20
157.2012706075
 40
3.1
 50
90.0834554274
 51
158.0
  0
ARC
  8
0
 62
7
  6
CONTINUOUS
 10
189.8238114754
 20
157.2999533004
 40
3.063
 50
0.0
 51
53.9157183518
  0
ARC
  8
0
 62
7
  6
CONTINUOUS
 10
266.6852978498
 20
198.2503032787
 40
3.063
 50
179.5
 51
270.0
  0
ARC
  8
0
 62
7
  6
CONTINUOUS
 10
287.0968299463
 20
198.2503032787
 40
3.063
 50
270.0
 51
359.7
  0
ARC
  8
0
 62
7
  6
CONTINUOUS
 10
265.7552512688
 20
208.6769877651
 40
2.042
 50
91.0
 51
179.5
  0
ARC
  8
0
 62
7
  6
CONTINUOUS
 10
273.6144508197
 20
211.8776371843
 40
1.021
 50
271.0
 51
360.0
  0
ARC
  8
0
 62
7
  6
CONTINUOUS
 10
273.4556907659
 20
230.0647939116
 40
1.1797600538
 50
6.8097452826
 51
83.0883860735
  0
ARC
  8
0
 62
7
  6
CONTINUOUS
 10
273.6087519476
 20
230.2165251769
 40
1.0266988721
 50
45.0531724619
 51
89.47658792
  0
ARC
  8
0
 62
7
  6
CONTINUOUS
 10
273.6144508197
 20
230.2221745327
 40
1.021
 50
0.0
 51
89.5
  0
ARC
  8
0
 62
7
  6
CONTINUOUS
 10
373.6856037895
 20
198.2503032787
 40
3.063
 50
270.0
 51
0.5
  0
ARC
  8
0
 62
7
  6
CONTINUOUS
 10
353.2740716931
 20
198.2503032787
 40
3.063
 50
180.2999999998
 51
270.0
  0
ARC
  8
0
 62
7
  6
CONTINUOUS
 10
374.6156503706
 20
208.6769877651
 40
2.042
 50
0.5
 51
89.0
  0
ARC
  8
0
 62
7
  6
CONTINUOUS
 10
366.7564508197
 20
211.8776371843
 40
1.021
 50
180.0
 51
269.0
  0
ARC
  8
0
 62
7
  6
CONTINUOUS
 10
366.9152390179
 20
230.0647660117
 40
1.1797881982
 50
96.9181438544
 51
173.1892099875
  0
ARC
  8
0
 62
7
  6
CONTINUOUS
 10
366.7621137888
 20
230.2165607679
 40
1.0266629691
 50
90.5232855194
 51
134.946821479
  0
ARC
  8
0
 62
7
  6
CONTINUOUS
 10
366.7564508197
 20
230.2221745327
 40
1.021
 50
90.5
 51
180.0
  0
ENDSEC
  0
EOF
