  0
SECTION
  2
HEADER
  9
$EXTMAX
 10
210.0
 20
297.0
 30
0.0
  9
$EXTMIN
 10
0.0
 20
0.0
 30
0.0
  9
$LIMMIN
 10
0.0
 20
0.0
  9
$LIMMAX
 10
210.0
 20
297.0
  9
$VIEWCTR
 10
105.0
 20
148.5
  9
$VIEWSIZE
 40
297.0
  9
$CLAYER
  8
0
  9
$LTSCALE
 40
19.36
  9
$CELTYPE
  6
BYLAYER
  9
$DIMSCALE
 40
1.0
  9
$DIMASZ
 40
3.5
  9
$DIMEXO
 40
1.0
  9
$DIMDLI
 40
13.376
  9
$DIMEXE
 40
2.0
  9
$DIMCEN
 40
3.168
  9
$DIMLFAC
 40
1.0
  9
$DIMBLK
  1
_FILLED
  9
$DIMTXT
 40
3.5
  9
$PDMODE
 70
3
  9
$PDSIZE
 40
0.3125
  9
$TILEMODE
 70
1
  0
ENDSEC
  0
SECTION
  2
TABLES
  0
TABLE
  2
LTYPE
 70
6
  0
LTYPE
  2
BYBLOCK
 70
0
  3

 72
65
 73
0
 40
0.0
  0
LTYPE
  2
BYLAYER
 70
0
  3

 72
65
 73
0
 40
0.0
  0
LTYPE
  2
CONTINUOUS
 70
64
  3
Solid line
 72
65
 73
0
 40
0.0
  0
LTYPE
  2
CENTER
 70
64
  3
____ _ ____ _ ____ _ ____ _ ____ _ ____ _ ____
 72
65
 73
4
 40
0.6
 49
0.375
 49
-0.075
 49
0.075
 49
-0.075
  0
LTYPE
  2
HIDDEN
 70
64
  3
- - - - - - - - - - - - - - - - - - - -
 72
65
 73
2
 40
0.2
 49
0.1
 49
-0.1
  0
LTYPE
  2
PHANTOM
 70
64
  3
_____ _ _ _____ _ _ _____ _ _ _____
 72
65
 73
6
 40
0.8
 49
0.45
 49
-0.05
 49
0.1
 49
-0.05
 49
0.1
 49
-0.05
  0
LTYPE
  2
DOT
 70
64
  3
. . . . . . . . . . . . . . . . . . . .
 72
65
 73
2
 40
0.2
 49
0.1
 49
-0.1
  0
LTYPE
  2
DASHED
 70
64
  3
- - - - - - - - - - - - - - - - - - - -
 72
65
 73
2
 40
0.2
 49
0.1
 49
-0.1
  0
ENDTAB
  0
TABLE
  2
LAYER
 70
36
  0
LAYER
  2
0
 70
0
 62
7
  6
CONTINUOUS
  0
LAYER
  2
DEFAULT_1
 70
0
 62
7
  6
CENTER
  0
LAYER
  2
DEFAULT_2
 70
0
 62
8
  6
HIDDEN
  0
LAYER
  2
DEFAULT_3
 70
0
 62
7
  6
PHANTOM
  0
LAYER
  2
6_DIM
 70
0
 62
7
  6
CONTINUOUS
  0
LAYER
  2
6_NOTE
 70
0
 62
7
  6
CONTINUOUS
  0
LAYER
  2
AXES
 70
0
 62
7
  6
CONTINUOUS
  0
LAYER
  2
CSYS
 70
0
 62
7
  6
CONTINUOUS
  0
LAYER
  2
LAY0001
 70
0
 62
7
  6
CONTINUOUS
  0
LAYER
  2
NOTES
 70
0
 62
7
  6
CONTINUOUS
  0
LAYER
  2
PLANES
 70
0
 62
7
  6
CONTINUOUS
  0
LAYER
  2
QUILTS
 70
0
 62
7
  6
CONTINUOUS
  0
LAYER
  2
SURFACE
 70
0
 62
7
  6
CONTINUOUS
  0
ENDTAB
  0
TABLE
  2
STYLE
 70
1
  0
STYLE
  2
STANDARD
 70
0
 40
0.0
 41
0.8
 50
0.0
 71
0
 42
0.2
  3
txt
  4

  0
STYLE
  2
TEXTSTYLE_1
 70
0
 40
0.0
 41
0.8
 50
0.0
 71
0
 42
0.2
  3
gdt
  4

  0
STYLE
  2
TEXTSTYLE_2
 70
0
 40
0.0
 41
0.6
 50
0.0
 71
0
 42
0.2
  3
txt
  4

  0
STYLE
  2
TEXTSTYLE_3
 70
0
 40
0.0
 41
1.0
 50
0.0
 71
0
 42
0.2
  3
ftb_____.ttf
  4

  0
STYLE
  2
TEXTSTYLE_4
 70
0
 40
0.0
 41
1.0
 50
0.0
 71
0
 42
0.2
  3
fti_____.ttf
  4

  0
STYLE
  2
TEXTSTYLE_5
 70
0
 40
0.0
 41
1.0
 50
0.0
 71
0
 42
0.2
  3
frutiger light.ttf
  4

  0
STYLE
  2
TEXTSTYLE_6
 70
0
 40
0.0
 41
0.7
 50
0.0
 71
0
 42
0.2
  3
txt
  4

  0
STYLE
  2
TEXTSTYLE_7
 70
0
 40
0.0
 41
0.8
 50
0.0
 71
0
 42
0.2
  3
txt
  4

  0
ENDTAB
  0
ENDSEC
  0
SECTION
  2
BLOCKS
  0
BLOCK
  8
0
 62
2
  6
CONTINUOUS
  2
SYMBOL_11_BL1
 70
64
 10
173.3924355793
 20
35.4326167403
  0
TEXT
  8
0
 62
7
  6
CONTINUOUS
 10
164.4507205878
 20
30.5765230696
  7
TEXTSTYLE_4
 40
1.0655737705
  1
The brand for plastic modular belts and chains
 41
1.0
 72
0
  0
LINE
  8
0
 62
7
  6
CONTINUOUS
 10
149.3705039683
 20
36.0575371843
 11
149.3705039683
 21
33.9263896433
  0
LINE
  8
0
 62
7
  6
CONTINUOUS
 10
149.6595664615
 20
30.9354583476
 11
149.6595664615
 21
31.0322494069
  0
LINE
  8
0
 62
7
  6
CONTINUOUS
 10
149.3705039683
 20
30.9999857205
 11
149.4283164701
 21
30.8064036019
  0
LINE
  8
0
 62
7
  6
CONTINUOUS
 10
150.7639465913
 20
33.8444224302
 11
150.7639465913
 21
36.0575371843
  0
LINE
  8
0
 62
7
  6
CONTINUOUS
 10
151.6830039132
 20
32.0001601351
 11
151.6830039132
 21
30.4837666925
  0
LINE
  8
0
 62
7
  6
CONTINUOUS
 10
151.9720664683
 20
30.4837666925
 11
151.9720664683
 21
31.2258315706
  0
LINE
  8
0
 62
7
  6
CONTINUOUS
 10
151.9720664683
 20
31.3548863163
 11
151.9720664683
 21
32.0001601351
  0
LINE
  8
0
 62
7
  6
CONTINUOUS
 10
149.4283164701
 20
31.1935678842
 11
149.3705039683
 21
30.9999857205
  0
LINE
  8
0
 62
7
  6
CONTINUOUS
 10
149.7751914546
 20
30.7741399155
 11
149.6595664615
 21
30.9354583476
  0
LINE
  8
0
 62
7
  6
CONTINUOUS
 10
150.8736290235
 20
31.2903589434
 11
150.9314414683
 21
31.1935678842
  0
LINE
  8
0
 62
7
  6
CONTINUOUS
 10
151.2205040235
 20
31.1935678842
 11
151.1626914132
 21
31.3226226299
  0
LINE
  8
0
 62
7
  6
CONTINUOUS
 10
152.6491924929
 20
36.0575371843
 11
152.6491924929
 21
34.2542584958
  0
LINE
  8
0
 62
7
  6
CONTINUOUS
 10
152.6491924929
 20
32.9427830859
 11
152.6491924929
 21
32.287045381
  0
LINE
  8
0
 62
7
  6
CONTINUOUS
 10
153.0126914683
 20
31.1290405113
 11
153.0126914683
 21
30.4837666925
  0
LINE
  8
0
 62
7
  6
CONTINUOUS
 10
153.3017538581
 20
30.4837666925
 11
153.3017538581
 21
31.1290405113
  0
LINE
  8
0
 62
7
  6
CONTINUOUS
 10
149.6595664615
 20
31.0322494069
 11
149.7173789683
 21
31.1613041978
  0
LINE
  8
0
 62
7
  6
CONTINUOUS
 10
149.4283164701
 20
30.8064036019
 11
149.5439414683
 21
30.6773488336
  0
LINE
  8
0
 62
7
  6
CONTINUOUS
 10
152.9548788581
 20
31.258095257
 11
153.0126914683
 21
31.1290405113
  0
LINE
  8
0
 62
7
  6
CONTINUOUS
 10
153.7642540786
 20
30.7741399155
 11
153.8220663581
 21
30.6450851472
  0
LINE
  8
0
 62
7
  6
CONTINUOUS
 10
153.3017538581
 20
31.1290405113
 11
153.2439415786
 21
31.2903589434
  0
LINE
  8
0
 62
7
  6
CONTINUOUS
 10
153.7642540786
 20
31.3226226299
 11
153.7642540786
 21
31.258095257
  0
LINE
  8
0
 62
7
  6
CONTINUOUS
 10
153.7642540786
 20
30.8709309748
 11
153.7642540786
 21
30.7741399155
  0
LINE
  8
0
 62
7
  6
CONTINUOUS
 10
154.0426351159
 20
32.287045381
 11
154.0426351159
 21
36.0575371843
  0
LINE
  8
0
 62
7
  6
CONTINUOUS
 10
154.0533164683
 20
30.7418762065
 11
154.0533164683
 21
30.8064036019
  0
LINE
  8
0
 62
7
  6
CONTINUOUS
 10
154.3705039683
 20
36.0575371843
 11
154.3705039683
 21
32.287045381
  0
LINE
  8
0
 62
7
  6
CONTINUOUS
 10
151.1626914132
 20
30.6773488336
 11
151.2205040235
 21
30.8064036019
  0
LINE
  8
0
 62
7
  6
CONTINUOUS
 10
155.5564416889
 20
30.5805577631
 11
155.4986287478
 21
30.7418762065
  0
LINE
  8
0
 62
7
  6
CONTINUOUS
 10
155.2095666889
 20
31.258095257
 11
155.2095666889
 21
31.1613041978
  0
LINE
  8
0
 62
7
  6
CONTINUOUS
 10
155.2095666889
 20
31.0322494069
 11
155.2095666889
 21
30.8386672883
  0
LINE
  8
0
 62
7
  6
CONTINUOUS
 10
155.4986287478
 20
30.7418762065
 11
155.4986287478
 21
31.258095257
  0
LINE
  8
0
 62
7
  6
CONTINUOUS
 10
155.7639465913
 20
32.287045381
 11
155.7639465913
 21
34.0903240696
  0
LINE
  8
0
 62
7
  6
CONTINUOUS
 10
155.7639465913
 20
35.4017994794
 11
155.7639465913
 21
36.0575371843
  0
LINE
  8
0
 62
7
  6
CONTINUOUS
 10
156.0767541889
 20
32.0001601351
 11
156.0767541889
 21
31.838841703
  0
LINE
  8
0
 62
7
  6
CONTINUOUS
 10
156.0767541889
 20
31.5162047484
 11
156.0767541889
 21
30.4837666925
  0
LINE
  8
0
 62
7
  6
CONTINUOUS
 10
156.3658162478
 20
30.4837666925
 11
156.3658162478
 21
31.5162047484
  0
LINE
  8
0
 62
7
  6
CONTINUOUS
 10
156.3658162478
 20
31.838841703
 11
156.3658162478
 21
32.0001601351
  0
LINE
  8
0
 62
7
  6
CONTINUOUS
 10
150.9314414683
 20
30.8064036019
 11
150.8736290235
 21
30.7096125201
  0
LINE
  8
0
 62
7
  6
CONTINUOUS
 10
153.2439415786
 20
31.2903589434
 11
153.1861289683
 21
31.3548863163
  0
LINE
  8
0
 62
7
  6
CONTINUOUS
 10
154.1111290786
 20
30.6773488336
 11
154.0533164683
 21
30.7418762065
  0
LINE
  8
0
 62
7
  6
CONTINUOUS
 10
155.2673789683
 20
30.548294071
 11
155.3251912478
 21
30.4837666925
  0
LINE
  8
0
 62
7
  6
CONTINUOUS
 10
155.2095666889
 20
30.6450851472
 11
155.2673789683
 21
30.548294071
  0
LINE
  8
0
 62
7
  6
CONTINUOUS
 10
155.6142539683
 20
30.4837666925
 11
155.5564416889
 21
30.5805577631
  0
LINE
  8
0
 62
7
  6
CONTINUOUS
 10
155.4986287478
 20
31.258095257
 11
155.4408164683
 21
31.3548863163
  0
LINE
  8
0
 62
7
  6
CONTINUOUS
 10
156.8283164683
 20
31.5162047484
 11
156.8283164683
 21
30.4837666925
  0
LINE
  8
0
 62
7
  6
CONTINUOUS
 10
157.1173791889
 20
30.4837666925
 11
157.1173791889
 21
31.2258315706
  0
LINE
  8
0
 62
7
  6
CONTINUOUS
 10
157.1173791889
 20
31.3548863163
 11
157.1173791889
 21
31.5162047484
  0
LINE
  8
0
 62
7
  6
CONTINUOUS
 10
157.6491924929
 20
34.5001601351
 11
157.6491924929
 21
32.287045381
  0
LINE
  8
0
 62
7
  6
CONTINUOUS
 10
149.5439414683
 20
31.3226226299
 11
149.4283164701
 21
31.1935678842
  0
LINE
  8
0
 62
7
  6
CONTINUOUS
 10
149.7173789683
 20
31.1613041978
 11
149.7751914546
 21
31.2258315706
  0
LINE
  8
0
 62
7
  6
CONTINUOUS
 10
149.5439414683
 20
30.6773488336
 11
149.6595664615
 21
30.6128214495
  0
LINE
  8
0
 62
7
  6
CONTINUOUS
 10
149.9486289546
 20
30.6773488336
 11
149.7751914546
 21
30.7741399155
  0
LINE
  8
0
 62
7
  6
CONTINUOUS
 10
155.1517537478
 20
31.3226226299
 11
155.2095666889
 21
31.258095257
  0
LINE
  8
0
 62
7
  6
CONTINUOUS
 10
158.1001912478
 20
31.258095257
 11
158.1580041889
 21
31.0967768249
  0
LINE
  8
0
 62
7
  6
CONTINUOUS
 10
158.4470662478
 20
31.0967768249
 11
158.3892539683
 21
31.258095257
  0
LINE
  8
0
 62
7
  6
CONTINUOUS
 10
158.1580041889
 20
31.0967768249
 11
158.1580041889
 21
30.4837666925
  0
LINE
  8
0
 62
7
  6
CONTINUOUS
 10
158.4470662478
 20
30.4837666925
 11
158.4470662478
 21
31.0967768249
  0
LINE
  8
0
 62
7
  6
CONTINUOUS
 10
158.9095664683
 20
31.3226226299
 11
158.9095664683
 21
31.258095257
  0
LINE
  8
0
 62
7
  6
CONTINUOUS
 10
159.0426351159
 20
32.287045381
 11
159.0426351159
 21
34.418192922
  0
LINE
  8
0
 62
7
  6
CONTINUOUS
 10
159.3705039683
 20
36.0575371843
 11
159.3705039683
 21
32.287045381
  0
LINE
  8
0
 62
7
  6
CONTINUOUS
 10
154.0533164683
 20
30.8064036019
 11
154.1111290786
 21
30.9031946612
  0
LINE
  8
0
 62
7
  6
CONTINUOUS
 10
149.6595664615
 20
30.6128214495
 11
149.8330039821
 21
30.548294071
  0
LINE
  8
0
 62
7
  6
CONTINUOUS
 10
151.1626914132
 20
31.3226226299
 11
150.9892539132
 21
31.4194136891
  0
LINE
  8
0
 62
7
  6
CONTINUOUS
 10
153.8220663581
 20
30.6450851472
 11
153.9955038581
 21
30.548294071
  0
LINE
  8
0
 62
7
  6
CONTINUOUS
 10
152.8392539683
 20
31.3226226299
 11
152.9548788581
 21
31.258095257
  0
LINE
  8
0
 62
7
  6
CONTINUOUS
 10
153.1861289683
 20
31.3548863163
 11
153.0705040786
 21
31.4194136891
  0
LINE
  8
0
 62
7
  6
CONTINUOUS
 10
158.9095664683
 20
30.7418762065
 11
159.0251916889
 21
30.6128214495
  0
LINE
  8
0
 62
7
  6
CONTINUOUS
 10
159.2564414683
 20
30.6773488336
 11
159.1986291889
 21
30.7418762065
  0
LINE
  8
0
 62
7
  6
CONTINUOUS
 10
158.9095664683
 20
31.258095257
 11
159.0251916889
 21
31.1290405113
  0
LINE
  8
0
 62
7
  6
CONTINUOUS
 10
158.3892539683
 20
31.258095257
 11
158.3314416889
 21
31.3548863163
  0
LINE
  8
0
 62
7
  6
CONTINUOUS
 10
160.7595660273
 20
30.6773488336
 11
160.7595660273
 21
30.7418762065
  0
LINE
  8
0
 62
7
  6
CONTINUOUS
 10
160.7639465913
 20
32.287045381
 11
160.7639465913
 21
36.0575371843
  0
LINE
  8
0
 62
7
  6
CONTINUOUS
 10
153.8220663581
 20
31.3871500027
 11
153.7642540786
 21
31.3226226299
  0
LINE
  8
0
 62
7
  6
CONTINUOUS
 10
150.7001914408
 20
31.3548863163
 11
150.8736290235
 21
31.2903589434
  0
LINE
  8
0
 62
7
  6
CONTINUOUS
 10
155.4408164683
 20
31.3548863163
 11
155.3251912478
 21
31.4194136891
  0
LINE
  8
0
 62
7
  6
CONTINUOUS
 10
159.2564414683
 20
31.1935678842
 11
159.1986291889
 21
31.258095257
  0
LINE
  8
0
 62
7
  6
CONTINUOUS
 10
160.4126916889
 20
30.8064036019
 11
160.4705039683
 21
30.7418762065
  0
LINE
  8
0
 62
7
  6
CONTINUOUS
 10
160.7595660273
 20
30.7418762065
 11
160.6439414683
 21
30.8709309748
  0
LINE
  8
0
 62
7
  6
CONTINUOUS
 10
160.4126916889
 20
31.3226226299
 11
160.4705039683
 21
31.258095257
  0
LINE
  8
0
 62
7
  6
CONTINUOUS
 10
160.7595660273
 20
31.258095257
 11
160.6439414683
 21
31.3871500027
  0
LINE
  8
0
 62
7
  6
CONTINUOUS
 10
154.0533164683
 20
31.258095257
 11
154.1111290786
 21
31.3226226299
  0
LINE
  8
0
 62
7
  6
CONTINUOUS
 10
153.8798789683
 20
30.9999857205
 11
153.7642540786
 21
30.8709309748
  0
LINE
  8
0
 62
7
  6
CONTINUOUS
 10
155.2095666889
 20
30.8386672883
 11
155.1517537478
 21
30.7741399155
  0
LINE
  8
0
 62
7
  6
CONTINUOUS
 10
155.1517537478
 20
30.5805577631
 11
155.2095666889
 21
30.6450851472
  0
LINE
  8
0
 62
7
  6
CONTINUOUS
 10
153.9955038581
 20
30.548294071
 11
154.1111290786
 21
30.5160303817
  0
LINE
  8
0
 62
7
  6
CONTINUOUS
 10
150.9892539132
 20
31.4194136891
 11
150.7580039683
 21
31.483941062
  0
LINE
  8
0
 62
7
  6
CONTINUOUS
 10
154.3423788581
 20
30.6128214495
 11
154.1111290786
 21
30.6773488336
  0
LINE
  8
0
 62
7
  6
CONTINUOUS
 10
153.0705040786
 20
31.4194136891
 11
152.8970665786
 21
31.483941062
  0
LINE
  8
0
 62
7
  6
CONTINUOUS
 10
155.3251912478
 20
31.4194136891
 11
155.1517537478
 21
31.483941062
  0
LINE
  8
0
 62
7
  6
CONTINUOUS
 10
157.9845666889
 20
31.3226226299
 11
158.1001912478
 21
31.258095257
  0
LINE
  8
0
 62
7
  6
CONTINUOUS
 10
158.3314416889
 20
31.3548863163
 11
158.2158164683
 21
31.4194136891
  0
LINE
  8
0
 62
7
  6
CONTINUOUS
 10
149.8330039821
 20
30.548294071
 11
150.0064414821
 21
30.5160303817
  0
LINE
  8
0
 62
7
  6
CONTINUOUS
 10
150.2955039959
 20
30.6128214495
 11
149.9486289546
 21
30.6773488336
  0
LINE
  8
0
 62
7
  6
CONTINUOUS
 10
152.7236290786
 20
31.3548863163
 11
152.8392539683
 21
31.3226226299
  0
LINE
  8
0
 62
7
  6
CONTINUOUS
 10
155.0361291889
 20
31.3548863163
 11
155.1517537478
 21
31.3226226299
  0
LINE
  8
0
 62
7
  6
CONTINUOUS
 10
159.3720666889
 20
30.6450851472
 11
159.2564414683
 21
30.6773488336
  0
LINE
  8
0
 62
7
  6
CONTINUOUS
 10
157.8689414683
 20
31.3548863163
 11
157.9845666889
 21
31.3226226299
  0
LINE
  8
0
 62
7
  6
CONTINUOUS
 10
159.0251916889
 20
30.6128214495
 11
159.1986291889
 21
30.548294071
  0
LINE
  8
0
 62
7
  6
CONTINUOUS
 10
158.2158164683
 20
31.4194136891
 11
158.0423789683
 21
31.483941062
  0
LINE
  8
0
 62
7
  6
CONTINUOUS
 10
159.4298789683
 20
31.1290405113
 11
159.2564414683
 21
31.1935678842
  0
LINE
  8
0
 62
7
  6
CONTINUOUS
 10
160.2392541889
 20
30.8709309748
 11
160.4126916889
 21
30.8064036019
  0
LINE
  8
0
 62
7
  6
CONTINUOUS
 10
160.6439414683
 20
31.3871500027
 11
160.4705039683
 21
31.4516773756
  0
LINE
  8
0
 62
7
  6
CONTINUOUS
 10
159.0251916889
 20
31.1290405113
 11
159.2564414683
 21
31.0322494069
  0
LINE
  8
0
 62
7
  6
CONTINUOUS
 10
160.6439414683
 20
30.8709309748
 11
160.4126916889
 21
30.967722034
  0
LINE
  8
0
 62
7
  6
CONTINUOUS
 10
159.1986291889
 20
31.258095257
 11
159.2564414683
 21
31.3226226299
  0
LINE
  8
0
 62
7
  6
CONTINUOUS
 10
149.6595664615
 20
31.3871500027
 11
149.5439414683
 21
31.3226226299
  0
LINE
  8
0
 62
7
  6
CONTINUOUS
 10
149.7751914546
 20
31.2258315706
 11
149.9486289546
 21
31.3226226299
  0
LINE
  8
0
 62
7
  6
CONTINUOUS
 10
152.0876915235
 20
31.4194136891
 11
151.9720664683
 21
31.3548863163
  0
LINE
  8
0
 62
7
  6
CONTINUOUS
 10
151.9720664683
 20
31.2258315706
 11
152.0876915235
 21
31.2903589434
  0
LINE
  8
0
 62
7
  6
CONTINUOUS
 10
150.9892539132
 20
30.5805577631
 11
151.1626914132
 21
30.6773488336
  0
LINE
  8
0
 62
7
  6
CONTINUOUS
 10
150.0064414821
 20
30.5160303817
 11
150.3533164408
 21
30.4837666925
  0
LINE
  8
0
 62
7
  6
CONTINUOUS
 10
154.1111290786
 20
30.5160303817
 11
154.3423788581
 21
30.4837666925
  0
LINE
  8
0
 62
7
  6
CONTINUOUS
 10
152.4923789683
 20
31.3871500027
 11
152.7236290786
 21
31.3548863163
  0
LINE
  8
0
 62
7
  6
CONTINUOUS
 10
154.8048790786
 20
31.3871500027
 11
155.0361291889
 21
31.3548863163
  0
LINE
  8
0
 62
7
  6
CONTINUOUS
 10
159.2564414683
 20
31.0322494069
 11
160.2392541889
 21
30.8709309748
  0
LINE
  8
0
 62
7
  6
CONTINUOUS
 10
160.4126916889
 20
30.967722034
 11
159.4298789683
 21
31.1290405113
  0
LINE
  8
0
 62
7
  6
CONTINUOUS
 10
152.8970665786
 20
31.483941062
 11
152.7236290786
 21
31.5162047484
  0
LINE
  8
0
 62
7
  6
CONTINUOUS
 10
159.1986291889
 20
30.548294071
 11
159.3720666889
 21
30.5160303817
  0
LINE
  8
0
 62
7
  6
CONTINUOUS
 10
158.0423789683
 20
31.483941062
 11
157.8689414683
 21
31.5162047484
  0
LINE
  8
0
 62
7
  6
CONTINUOUS
 10
160.2970664683
 20
31.3548863163
 11
160.4126916889
 21
31.3226226299
  0
LINE
  8
0
 62
7
  6
CONTINUOUS
 10
160.4705039683
 20
30.7418762065
 11
160.4126916889
 21
30.6773488336
  0
LINE
  8
0
 62
7
  6
CONTINUOUS
 10
159.0251916889
 20
31.4194136891
 11
158.9095664683
 21
31.3226226299
  0
LINE
  8
0
 62
7
  6
CONTINUOUS
 10
153.9376915786
 20
31.4516773756
 11
153.8220663581
 21
31.3871500027
  0
LINE
  8
0
 62
7
  6
CONTINUOUS
 10
153.9955038581
 20
31.0645131385
 11
153.8798789683
 21
30.9999857205
  0
LINE
  8
0
 62
7
  6
CONTINUOUS
 10
154.1111290786
 20
30.9031946612
 11
154.2267539683
 21
30.967722034
  0
LINE
  8
0
 62
7
  6
CONTINUOUS
 10
151.6830039132
 20
30.4837666925
 11
151.9720664683
 21
30.4837666925
  0
LINE
  8
0
 62
7
  6
CONTINUOUS
 10
153.0126914683
 20
30.4837666925
 11
153.3017538581
 21
30.4837666925
  0
LINE
  8
0
 62
7
  6
CONTINUOUS
 10
154.3423788581
 20
30.4837666925
 11
154.6892538581
 21
30.4837666925
  0
LINE
  8
0
 62
7
  6
CONTINUOUS
 10
155.3251912478
 20
30.4837666925
 11
155.6142539683
 21
30.4837666925
  0
LINE
  8
0
 62
7
  6
CONTINUOUS
 10
156.0767541889
 20
30.4837666925
 11
156.3658162478
 21
30.4837666925
  0
LINE
  8
0
 62
7
  6
CONTINUOUS
 10
156.8283164683
 20
30.4837666925
 11
157.1173791889
 21
30.4837666925
  0
LINE
  8
0
 62
7
  6
CONTINUOUS
 10
158.1580041889
 20
30.4837666925
 11
158.4470662478
 21
30.4837666925
  0
LINE
  8
0
 62
7
  6
CONTINUOUS
 10
159.7189416889
 20
30.4837666925
 11
160.0658166889
 21
30.4837666925
  0
LINE
  8
0
 62
7
  6
CONTINUOUS
 10
160.0658166889
 20
30.6128214495
 11
159.7189416889
 21
30.6128214495
  0
LINE
  8
0
 62
7
  6
CONTINUOUS
 10
154.6892538581
 20
30.6128214495
 11
154.3423788581
 21
30.6128214495
  0
LINE
  8
0
 62
7
  6
CONTINUOUS
 10
159.1986291889
 20
30.7418762065
 11
158.9095664683
 21
30.7418762065
  0
LINE
  8
0
 62
7
  6
CONTINUOUS
 10
151.2205040235
 20
30.8064036019
 11
150.9314414683
 21
30.8064036019
  0
LINE
  8
0
 62
7
  6
CONTINUOUS
 10
150.2955039959
 20
31.3871500027
 11
150.7001914408
 21
31.3548863163
  0
LINE
  8
0
 62
7
  6
CONTINUOUS
 10
150.7580039683
 20
31.483941062
 11
150.3533164408
 21
31.5162047484
  0
LINE
  8
0
 62
7
  6
CONTINUOUS
 10
159.3720666889
 20
30.5160303817
 11
159.7189416889
 21
30.4837666925
  0
LINE
  8
0
 62
7
  6
CONTINUOUS
 10
159.7189416889
 20
30.6128214495
 11
159.3720666889
 21
30.6450851472
  0
LINE
  8
0
 62
7
  6
CONTINUOUS
 10
155.1517537478
 20
31.483941062
 11
154.8048790786
 21
31.5162047484
  0
LINE
  8
0
 62
7
  6
CONTINUOUS
 10
159.9501914683
 20
31.3871500027
 11
160.2970664683
 21
31.3548863163
  0
LINE
  8
0
 62
7
  6
CONTINUOUS
 10
160.2970664683
 20
31.483941062
 11
159.9501914683
 21
31.5162047484
  0
LINE
  8
0
 62
7
  6
CONTINUOUS
 10
157.6376916889
 20
31.3871500027
 11
157.8689414683
 21
31.3548863163
  0
LINE
  8
0
 62
7
  6
CONTINUOUS
 10
160.4705039683
 20
31.4516773756
 11
160.2970664683
 21
31.483941062
  0
LINE
  8
0
 62
7
  6
CONTINUOUS
 10
160.6439414683
 20
30.5805577631
 11
160.7595660273
 21
30.6773488336
  0
LINE
  8
0
 62
7
  6
CONTINUOUS
 10
155.1517537478
 20
30.7741399155
 11
154.9783162478
 21
30.6773488336
  0
LINE
  8
0
 62
7
  6
CONTINUOUS
 10
157.2330037478
 20
31.4194136891
 11
157.1173791889
 21
31.3548863163
  0
LINE
  8
0
 62
7
  6
CONTINUOUS
 10
157.1173791889
 20
31.2258315706
 11
157.2330037478
 21
31.2903589434
  0
LINE
  8
0
 62
7
  6
CONTINUOUS
 10
149.8330039821
 20
31.4516773756
 11
149.6595664615
 21
31.3871500027
  0
LINE
  8
0
 62
7
  6
CONTINUOUS
 10
152.2611288581
 20
31.483941062
 11
152.0876915235
 21
31.4194136891
  0
LINE
  8
0
 62
7
  6
CONTINUOUS
 10
152.0876915235
 20
31.2903589434
 11
152.2611288581
 21
31.3548863163
  0
LINE
  8
0
 62
7
  6
CONTINUOUS
 10
150.8736290235
 20
30.7096125201
 11
150.7001914408
 21
30.6450851472
  0
LINE
  8
0
 62
7
  6
CONTINUOUS
 10
160.2970664683
 20
30.6450851472
 11
160.0658166889
 21
30.6128214495
  0
LINE
  8
0
 62
7
  6
CONTINUOUS
 10
154.6892538581
 20
30.4837666925
 11
154.9783162478
 21
30.5160303817
  0
LINE
  8
0
 62
7
  6
CONTINUOUS
 10
160.0658166889
 20
30.4837666925
 11
160.4126916889
 21
30.5160303817
  0
LINE
  8
0
 62
7
  6
CONTINUOUS
 10
150.3533164408
 20
30.4837666925
 11
150.7580039683
 21
30.5160303817
  0
LINE
  8
0
 62
7
  6
CONTINUOUS
 10
150.7001914408
 20
30.6450851472
 11
150.2955039959
 21
30.6128214495
  0
LINE
  8
0
 62
7
  6
CONTINUOUS
 10
154.5736289683
 20
31.0322494069
 11
155.2095666889
 21
31.0322494069
  0
LINE
  8
0
 62
7
  6
CONTINUOUS
 10
155.2095666889
 20
31.1613041978
 11
154.5736289683
 21
31.1613041978
  0
LINE
  8
0
 62
7
  6
CONTINUOUS
 10
150.9314414683
 20
31.1935678842
 11
151.2205040235
 21
31.1935678842
  0
LINE
  8
0
 62
7
  6
CONTINUOUS
 10
153.7642540786
 20
31.258095257
 11
154.0533164683
 21
31.258095257
  0
LINE
  8
0
 62
7
  6
CONTINUOUS
 10
160.4705039683
 20
31.258095257
 11
160.7595660273
 21
31.258095257
  0
LINE
  8
0
 62
7
  6
CONTINUOUS
 10
154.4580040786
 20
31.3871500027
 11
154.8048790786
 21
31.3871500027
  0
LINE
  8
0
 62
7
  6
CONTINUOUS
 10
159.6033164683
 20
31.3871500027
 11
159.9501914683
 21
31.3871500027
  0
LINE
  8
0
 62
7
  6
CONTINUOUS
 10
159.9501914683
 20
31.5162047484
 11
159.6033164683
 21
31.5162047484
  0
LINE
  8
0
 62
7
  6
CONTINUOUS
 10
157.8689414683
 20
31.5162047484
 11
157.6376916889
 21
31.5162047484
  0
LINE
  8
0
 62
7
  6
CONTINUOUS
 10
157.1173791889
 20
31.5162047484
 11
156.8283164683
 21
31.5162047484
  0
LINE
  8
0
 62
7
  6
CONTINUOUS
 10
156.3658162478
 20
31.5162047484
 11
156.0767541889
 21
31.5162047484
  0
LINE
  8
0
 62
7
  6
CONTINUOUS
 10
154.8048790786
 20
31.5162047484
 11
154.4580040786
 21
31.5162047484
  0
LINE
  8
0
 62
7
  6
CONTINUOUS
 10
152.7236290786
 20
31.5162047484
 11
152.4923789683
 21
31.5162047484
  0
LINE
  8
0
 62
7
  6
CONTINUOUS
 10
156.0767541889
 20
31.838841703
 11
156.3658162478
 21
31.838841703
  0
LINE
  8
0
 62
7
  6
CONTINUOUS
 10
156.3658162478
 20
32.0001601351
 11
156.0767541889
 21
32.0001601351
  0
LINE
  8
0
 62
7
  6
CONTINUOUS
 10
151.9720664683
 20
32.0001601351
 11
151.6830039132
 21
32.0001601351
  0
LINE
  8
0
 62
7
  6
CONTINUOUS
 10
151.0098482306
 20
32.287045381
 11
151.4224195792
 21
32.287045381
  0
LINE
  8
0
 62
7
  6
CONTINUOUS
 10
152.6491924929
 20
32.287045381
 11
154.0426351159
 21
32.287045381
  0
LINE
  8
0
 62
7
  6
CONTINUOUS
 10
154.3705039683
 20
32.287045381
 11
155.7639465913
 21
32.287045381
  0
LINE
  8
0
 62
7
  6
CONTINUOUS
 10
157.6491924929
 20
32.287045381
 11
159.0426351159
 21
32.287045381
  0
LINE
  8
0
 62
7
  6
CONTINUOUS
 10
159.3705039683
 20
32.287045381
 11
160.7639465913
 21
32.287045381
  0
LINE
  8
0
 62
7
  6
CONTINUOUS
 10
157.4064412478
 20
31.483941062
 11
157.2330037478
 21
31.4194136891
  0
LINE
  8
0
 62
7
  6
CONTINUOUS
 10
154.9783162478
 20
30.5160303817
 11
155.1517537478
 21
30.5805577631
  0
LINE
  8
0
 62
7
  6
CONTINUOUS
 10
160.4126916889
 20
30.5160303817
 11
160.6439414683
 21
30.5805577631
  0
LINE
  8
0
 62
7
  6
CONTINUOUS
 10
160.4126916889
 20
30.6773488336
 11
160.2970664683
 21
30.6450851472
  0
LINE
  8
0
 62
7
  6
CONTINUOUS
 10
159.3720666889
 20
31.3548863163
 11
159.6033164683
 21
31.3871500027
  0
LINE
  8
0
 62
7
  6
CONTINUOUS
 10
157.4064412478
 20
31.3548863163
 11
157.6376916889
 21
31.3871500027
  0
LINE
  8
0
 62
7
  6
CONTINUOUS
 10
154.3423788581
 20
30.9999857205
 11
154.5736289683
 21
31.0322494069
  0
LINE
  8
0
 62
7
  6
CONTINUOUS
 10
157.6376916889
 20
31.5162047484
 11
157.4064412478
 21
31.483941062
  0
LINE
  8
0
 62
7
  6
CONTINUOUS
 10
154.2267539683
 20
31.3548863163
 11
154.4580040786
 21
31.3871500027
  0
LINE
  8
0
 62
7
  6
CONTINUOUS
 10
159.6033164683
 20
31.5162047484
 11
159.2564414683
 21
31.483941062
  0
LINE
  8
0
 62
7
  6
CONTINUOUS
 10
154.5736289683
 20
31.1613041978
 11
154.2267539683
 21
31.1290405113
  0
LINE
  8
0
 62
7
  6
CONTINUOUS
 10
150.3533164408
 20
31.5162047484
 11
150.0064414821
 21
31.483941062
  0
LINE
  8
0
 62
7
  6
CONTINUOUS
 10
154.4580040786
 20
31.5162047484
 11
154.0533164683
 21
31.483941062
  0
LINE
  8
0
 62
7
  6
CONTINUOUS
 10
151.8295203618
 20
33.4345863646
 11
151.1737826569
 21
33.4345863646
  0
LINE
  8
0
 62
7
  6
CONTINUOUS
 10
157.2330037478
 20
31.2903589434
 11
157.4064412478
 21
31.3548863163
  0
LINE
  8
0
 62
7
  6
CONTINUOUS
 10
159.2564414683
 20
31.3226226299
 11
159.3720666889
 21
31.3548863163
  0
LINE
  8
0
 62
7
  6
CONTINUOUS
 10
159.2564414683
 20
31.483941062
 11
159.0251916889
 21
31.4194136891
  0
LINE
  8
0
 62
7
  6
CONTINUOUS
 10
154.9783162478
 20
30.6773488336
 11
154.6892538581
 21
30.6128214495
  0
LINE
  8
0
 62
7
  6
CONTINUOUS
 10
152.2611288581
 20
31.3548863163
 11
152.4923789683
 21
31.3871500027
  0
LINE
  8
0
 62
7
  6
CONTINUOUS
 10
152.4923789683
 20
31.5162047484
 11
152.2611288581
 21
31.483941062
  0
LINE
  8
0
 62
7
  6
CONTINUOUS
 10
150.0642539683
 20
31.3548863163
 11
150.2955039959
 21
31.3871500027
  0
LINE
  8
0
 62
7
  6
CONTINUOUS
 10
156.5836187224
 20
34.9099962007
 11
157.2393564274
 21
34.9099962007
  0
LINE
  8
0
 62
7
  6
CONTINUOUS
 10
154.2267539683
 20
30.967722034
 11
154.3423788581
 21
30.9999857205
  0
LINE
  8
0
 62
7
  6
CONTINUOUS
 10
154.2267539683
 20
31.1290405113
 11
153.9955038581
 21
31.0645131385
  0
LINE
  8
0
 62
7
  6
CONTINUOUS
 10
154.1111290786
 20
31.3226226299
 11
154.2267539683
 21
31.3548863163
  0
LINE
  8
0
 62
7
  6
CONTINUOUS
 10
150.7580039683
 20
30.5160303817
 11
150.9892539132
 21
30.5805577631
  0
LINE
  8
0
 62
7
  6
CONTINUOUS
 10
154.0533164683
 20
31.483941062
 11
153.9376915786
 21
31.4516773756
  0
LINE
  8
0
 62
7
  6
CONTINUOUS
 10
150.0064414821
 20
31.483941062
 11
149.8330039821
 21
31.4516773756
  0
LINE
  8
0
 62
7
  6
CONTINUOUS
 10
160.7639465913
 20
36.0575371843
 11
159.3705039683
 21
36.0575371843
  0
LINE
  8
0
 62
7
  6
CONTINUOUS
 10
157.4032908536
 20
36.0575371843
 11
156.990719505
 21
36.0575371843
  0
LINE
  8
0
 62
7
  6
CONTINUOUS
 10
155.7639465913
 20
36.0575371843
 11
154.3705039683
 21
36.0575371843
  0
LINE
  8
0
 62
7
  6
CONTINUOUS
 10
154.0426351159
 20
36.0575371843
 11
152.6491924929
 21
36.0575371843
  0
LINE
  8
0
 62
7
  6
CONTINUOUS
 10
150.7639465913
 20
36.0575371843
 11
149.3705039683
 21
36.0575371843
  0
LINE
  8
0
 62
7
  6
CONTINUOUS
 10
149.9486289546
 20
31.3226226299
 11
150.0642539683
 21
31.3548863163
  0
CIRCLE
  8
0
 62
7
  6
CONTINUOUS
 10
160.0672252798
 20
38.3936027581
 40
2.0901639344
  0
ARC
  8
0
 62
7
  6
CONTINUOUS
 10
151.0098482306
 20
33.9263896433
 40
1.6393442623
 50
180.0
 51
270.0
  0
ARC
  8
0
 62
7
  6
CONTINUOUS
 10
157.4032908536
 20
34.418192922
 40
1.6393442623
 50
0.0
 51
90.0
  0
ARC
  8
0
 62
7
  6
CONTINUOUS
 10
151.4224195792
 20
33.7624552171
 40
1.4754098361
 50
270.0
 51
326.2510114041
  0
ARC
  8
0
 62
7
  6
CONTINUOUS
 10
156.990719505
 20
34.5821273482
 40
1.4754098361
 50
90.0
 51
146.2510114041
  0
ARC
  8
0
 62
7
  6
CONTINUOUS
 10
151.8295203618
 20
34.2542584958
 40
0.8196721311
 50
270.0
 51
360.0
  0
ARC
  8
0
 62
7
  6
CONTINUOUS
 10
156.5836187224
 20
34.0903240696
 40
0.8196721311
 50
90.0
 51
180.0
  0
ARC
  8
0
 62
7
  6
CONTINUOUS
 10
151.1737826569
 20
33.8444224302
 40
0.4098360656
 50
180.0
 51
270.0
  0
ARC
  8
0
 62
7
  6
CONTINUOUS
 10
157.2393564274
 20
34.5001601351
 40
0.4098360656
 50
0.0
 51
90.0
  0
SOLID
  8
0
 62
7
  6
CONTINUOUS
 10
156.0767541889
 20
31.8388420633
 11
156.0767541889
 21
32.0001605469
 12
156.3658162478
 22
31.8388420633
 13
156.3658162478
 23
32.0001605469
  0
SOLID
  8
0
 62
7
  6
CONTINUOUS
 10
150.3533164408
 20
31.5162050961
 11
150.7580039683
 21
31.4839409236
 12
150.0064414821
 22
31.4839409236
 13
150.0064414821
 23
31.4839409236
  0
SOLID
  8
0
 62
7
  6
CONTINUOUS
 10
149.8330039821
 20
31.4516780059
 11
150.0064414821
 21
31.4839409236
 12
150.7580039683
 22
31.4839409236
 13
150.7580039683
 23
31.4839409236
  0
SOLID
  8
0
 62
7
  6
CONTINUOUS
 10
150.7580039683
 20
31.4839409236
 11
150.9892539132
 21
31.4194137026
 12
149.8330039821
 22
31.4516780059
 13
149.8330039821
 23
31.4516780059
  0
SOLID
  8
0
 62
7
  6
CONTINUOUS
 10
149.6595664615
 20
31.3871495108
 11
149.8330039821
 21
31.4516780059
 12
150.9892539132
 22
31.4194137026
 13
150.9892539132
 23
31.4194137026
  0
SOLID
  8
0
 62
7
  6
CONTINUOUS
 10
149.6595664615
 20
31.3871495108
 11
150.9892539132
 21
31.4194137026
 12
150.2955039959
 22
31.3871495108
 13
150.2955039959
 23
31.3871495108
  0
SOLID
  8
0
 62
7
  6
CONTINUOUS
 10
150.2955039959
 20
31.3871495108
 11
150.9892539132
 21
31.4194137026
 12
150.7001914408
 22
31.3548866125
 13
150.7001914408
 23
31.3548866125
  0
SOLID
  8
0
 62
7
  6
CONTINUOUS
 10
150.9892539132
 20
31.4194137026
 11
151.1626914132
 21
31.3226223092
 12
150.7001914408
 22
31.3548866125
 13
150.7001914408
 23
31.3548866125
  0
SOLID
  8
0
 62
7
  6
CONTINUOUS
 10
150.8736290235
 20
31.2903595223
 11
150.7001914408
 21
31.3548866125
 12
151.1626914132
 22
31.3226223092
 13
151.1626914132
 23
31.3226223092
  0
SOLID
  8
0
 62
7
  6
CONTINUOUS
 10
150.8736290235
 20
31.2903595223
 11
151.1626914132
 21
31.3226223092
 12
150.9314414683
 22
31.1935679757
 13
150.9314414683
 23
31.1935679757
  0
SOLID
  8
0
 62
7
  6
CONTINUOUS
 10
151.1626914132
 20
31.3226223092
 11
151.2205040235
 21
31.1935679757
 12
150.9314414683
 22
31.1935679757
 13
150.9314414683
 23
31.1935679757
  0
SOLID
  8
0
 62
7
  6
CONTINUOUS
 10
152.2611288581
 20
31.4839414344
 11
152.4923789683
 21
31.5162057377
 12
152.7236290786
 22
31.5162057377
 13
152.7236290786
 23
31.5162057377
  0
SOLID
  8
0
 62
7
  6
CONTINUOUS
 10
152.7236290786
 20
31.5162057377
 11
152.8970665786
 21
31.4839414344
 12
152.2611288581
 22
31.4839414344
 13
152.2611288581
 23
31.4839414344
  0
SOLID
  8
0
 62
7
  6
CONTINUOUS
 10
152.0876915235
 20
31.4194143443
 11
152.2611288581
 21
31.4839414344
 12
152.8970665786
 22
31.4839414344
 13
152.8970665786
 23
31.4839414344
  0
SOLID
  8
0
 62
7
  6
CONTINUOUS
 10
152.8970665786
 20
31.4839414344
 11
153.0705040786
 21
31.4194143443
 12
152.0876915235
 22
31.4194143443
 13
152.0876915235
 23
31.4194143443
  0
SOLID
  8
0
 62
7
  6
CONTINUOUS
 10
153.0705040786
 20
31.4194143443
 11
152.4923789683
 21
31.3871493993
 12
152.0876915235
 22
31.4194143443
 13
152.0876915235
 23
31.4194143443
  0
SOLID
  8
0
 62
7
  6
CONTINUOUS
 10
151.9720664683
 20
31.3548872541
 11
152.0876915235
 21
31.4194143443
 12
152.4923789683
 22
31.3871493993
 13
152.4923789683
 23
31.3871493993
  0
SOLID
  8
0
 62
7
  6
CONTINUOUS
 10
152.4923789683
 20
31.3871493993
 11
152.2611288581
 21
31.3548872541
 12
151.9720664683
 22
31.3548872541
 13
151.9720664683
 23
31.3548872541
  0
SOLID
  8
0
 62
7
  6
CONTINUOUS
 10
152.4923789683
 20
31.3871493993
 11
153.0705040786
 21
31.4194143443
 12
152.7236290786
 22
31.3548872541
 13
152.7236290786
 23
31.3548872541
  0
SOLID
  8
0
 62
7
  6
CONTINUOUS
 10
153.0705040786
 20
31.4194143443
 11
153.1861289683
 21
31.3548872541
 12
152.7236290786
 22
31.3548872541
 13
152.7236290786
 23
31.3548872541
  0
SOLID
  8
0
 62
7
  6
CONTINUOUS
 10
152.8392539683
 20
31.3226223092
 11
152.7236290786
 21
31.3548872541
 12
153.1861289683
 22
31.3548872541
 13
153.1861289683
 23
31.3548872541
  0
SOLID
  8
0
 62
7
  6
CONTINUOUS
 10
153.1861289683
 20
31.3548872541
 11
153.2439415786
 21
31.2903601639
 12
152.8392539683
 22
31.3226223092
 13
152.8392539683
 23
31.3226223092
  0
SOLID
  8
0
 62
7
  6
CONTINUOUS
 10
152.9548788581
 20
31.258095219
 11
152.8392539683
 21
31.3226223092
 12
153.2439415786
 22
31.2903601639
 13
153.2439415786
 23
31.2903601639
  0
SOLID
  8
0
 62
7
  6
CONTINUOUS
 10
152.9548788581
 20
31.258095219
 11
153.2439415786
 21
31.2903601639
 12
153.0126914683
 22
31.1290416803
 13
153.0126914683
 23
31.1290416803
  0
SOLID
  8
0
 62
7
  6
CONTINUOUS
 10
153.2439415786
 20
31.2903601639
 11
153.3017538581
 21
31.1290416803
 12
153.0126914683
 22
31.1290416803
 13
153.0126914683
 23
31.1290416803
  0
SOLID
  8
0
 62
7
  6
CONTINUOUS
 10
152.2611288581
 20
31.3548872541
 11
152.0876915235
 21
31.2903601639
 12
151.9720664683
 22
31.3548872541
 13
151.9720664683
 23
31.3548872541
  0
SOLID
  8
0
 62
7
  6
CONTINUOUS
 10
152.0876915235
 20
31.2903601639
 11
151.9720664683
 21
31.2258309157
 12
151.9720664683
 22
31.3548872541
 13
151.9720664683
 23
31.3548872541
  0
SOLID
  8
0
 62
7
  6
CONTINUOUS
 10
151.9720664683
 20
31.2258309157
 11
151.6830039132
 21
30.4837677459
 12
151.9720664683
 22
31.3548872541
 13
151.9720664683
 23
31.3548872541
  0
SOLID
  8
0
 62
7
  6
CONTINUOUS
 10
151.9720664683
 20
31.3548872541
 11
151.6830039132
 21
30.4837677459
 12
151.9720664683
 22
32.0001611885
 13
151.9720664683
 23
32.0001611885
  0
SOLID
  8
0
 62
7
  6
CONTINUOUS
 10
151.6830039132
 20
30.4837677459
 11
151.6830039132
 21
32.0001611885
 12
151.9720664683
 22
32.0001611885
 13
151.9720664683
 23
32.0001611885
  0
SOLID
  8
0
 62
7
  6
CONTINUOUS
 10
151.9720664683
 20
31.2258309157
 11
151.9720664683
 21
30.4837677459
 12
151.6830039132
 22
30.4837677459
 13
151.6830039132
 23
30.4837677459
  0
SOLID
  8
0
 62
7
  6
CONTINUOUS
 10
153.0126914683
 20
30.4837677459
 11
153.0126914683
 21
31.1290416803
 12
153.3017538581
 22
31.1290416803
 13
153.3017538581
 23
31.1290416803
  0
SOLID
  8
0
 62
7
  6
CONTINUOUS
 10
153.3017538581
 20
31.1290416803
 11
153.3017538581
 21
30.4837677459
 12
153.0126914683
 22
30.4837677459
 13
153.0126914683
 23
30.4837677459
  0
SOLID
  8
0
 62
7
  6
CONTINUOUS
 10
154.0533164683
 20
31.4839408139
 11
154.4580040786
 21
31.5162048066
 12
154.8048790786
 22
31.5162048066
 13
154.8048790786
 23
31.5162048066
  0
SOLID
  8
0
 62
7
  6
CONTINUOUS
 10
154.8048790786
 20
31.5162048066
 11
155.1517537478
 21
31.4839408139
 12
154.0533164683
 22
31.4839408139
 13
154.0533164683
 23
31.4839408139
  0
SOLID
  8
0
 62
7
  6
CONTINUOUS
 10
153.9376915786
 20
31.4516780059
 11
154.0533164683
 21
31.4839408139
 12
155.1517537478
 22
31.4839408139
 13
155.1517537478
 23
31.4839408139
  0
SOLID
  8
0
 62
7
  6
CONTINUOUS
 10
155.1517537478
 20
31.4839408139
 11
155.3251912478
 21
31.4194137026
 12
153.9376915786
 22
31.4516780059
 13
153.9376915786
 23
31.4516780059
  0
SOLID
  8
0
 62
7
  6
CONTINUOUS
 10
153.8220663581
 20
31.38714961
 11
153.9376915786
 21
31.4516780059
 12
155.3251912478
 22
31.4194137026
 13
155.3251912478
 23
31.4194137026
  0
SOLID
  8
0
 62
7
  6
CONTINUOUS
 10
153.8220663581
 20
31.38714961
 11
155.3251912478
 21
31.4194137026
 12
154.4580040786
 22
31.38714961
 13
154.4580040786
 23
31.38714961
  0
SOLID
  8
0
 62
7
  6
CONTINUOUS
 10
154.4580040786
 20
31.38714961
 11
155.3251912478
 21
31.4194137026
 12
154.8048790786
 22
31.38714961
 13
154.8048790786
 23
31.38714961
  0
SOLID
  8
0
 62
7
  6
CONTINUOUS
 10
154.8048790786
 20
31.38714961
 11
155.3251912478
 21
31.4194137026
 12
155.0361291889
 22
31.3548863916
 13
155.0361291889
 23
31.3548863916
  0
SOLID
  8
0
 62
7
  6
CONTINUOUS
 10
155.3251912478
 20
31.4194137026
 11
155.4408164683
 21
31.3548863916
 12
155.0361291889
 22
31.3548863916
 13
155.0361291889
 23
31.3548863916
  0
SOLID
  8
0
 62
7
  6
CONTINUOUS
 10
153.7642540786
 20
31.3226223989
 11
153.8220663581
 21
31.38714961
 12
154.4580040786
 22
31.38714961
 13
154.4580040786
 23
31.38714961
  0
SOLID
  8
0
 62
7
  6
CONTINUOUS
 10
155.1517537478
 20
31.3226223989
 11
155.0361291889
 21
31.3548863916
 12
155.4408164683
 22
31.3548863916
 13
155.4408164683
 23
31.3548863916
  0
SOLID
  8
0
 62
7
  6
CONTINUOUS
 10
155.1517537478
 20
31.3226223989
 11
155.4408164683
 21
31.3548863916
 12
155.2095666889
 22
31.2580951877
 13
155.2095666889
 23
31.2580951877
  0
SOLID
  8
0
 62
7
  6
CONTINUOUS
 10
155.4408164683
 20
31.3548863916
 11
155.4986287478
 21
31.2580951877
 12
155.2095666889
 22
31.2580951877
 13
155.2095666889
 23
31.2580951877
  0
SOLID
  8
0
 62
7
  6
CONTINUOUS
 10
155.2095666889
 20
31.1613038256
 11
155.2095666889
 21
31.2580951877
 12
155.4986287478
 22
31.2580951877
 13
155.4986287478
 23
31.2580951877
  0
SOLID
  8
0
 62
7
  6
CONTINUOUS
 10
155.2095666889
 20
31.1613038256
 11
155.4986287478
 21
31.2580951877
 12
155.2095666889
 22
31.0322496452
 13
155.2095666889
 23
31.0322496452
  0
SOLID
  8
0
 62
7
  6
CONTINUOUS
 10
155.2095666889
 20
31.0322496452
 11
155.4986287478
 21
31.2580951877
 12
155.2095666889
 22
30.8386672883
 13
155.2095666889
 23
30.8386672883
  0
SOLID
  8
0
 62
7
  6
CONTINUOUS
 10
155.4986287478
 20
31.2580951877
 11
155.4986287478
 21
30.7418754649
 12
155.2095666889
 22
30.8386672883
 13
155.2095666889
 23
30.8386672883
  0
SOLID
  8
0
 62
7
  6
CONTINUOUS
 10
157.4064412478
 20
31.4839405154
 11
157.6376916889
 21
31.5162052351
 12
157.8689414683
 22
31.5162052351
 13
157.8689414683
 23
31.5162052351
  0
SOLID
  8
0
 62
7
  6
CONTINUOUS
 10
157.8689414683
 20
31.5162052351
 11
158.0423789683
 21
31.4839405154
 12
157.4064412478
 22
31.4839405154
 13
157.4064412478
 23
31.4839405154
  0
SOLID
  8
0
 62
7
  6
CONTINUOUS
 10
157.2330037478
 20
31.4194141734
 11
157.4064412478
 21
31.4839405154
 12
158.0423789683
 22
31.4839405154
 13
158.0423789683
 23
31.4839405154
  0
SOLID
  8
0
 62
7
  6
CONTINUOUS
 10
158.0423789683
 20
31.4839405154
 11
158.2158164683
 21
31.4194141734
 12
157.2330037478
 22
31.4194141734
 13
157.2330037478
 23
31.4194141734
  0
SOLID
  8
0
 62
7
  6
CONTINUOUS
 10
158.2158164683
 20
31.4194141734
 11
157.6376916889
 21
31.3871493993
 12
157.2330037478
 22
31.4194141734
 13
157.2330037478
 23
31.4194141734
  0
SOLID
  8
0
 62
7
  6
CONTINUOUS
 10
157.1173791889
 20
31.3548867989
 11
157.2330037478
 21
31.4194141734
 12
157.6376916889
 22
31.3871493993
 13
157.6376916889
 23
31.3871493993
  0
SOLID
  8
0
 62
7
  6
CONTINUOUS
 10
157.6376916889
 20
31.3871493993
 11
157.4064412478
 21
31.3548867989
 12
157.1173791889
 22
31.3548867989
 13
157.1173791889
 23
31.3548867989
  0
SOLID
  8
0
 62
7
  6
CONTINUOUS
 10
157.6376916889
 20
31.3871493993
 11
158.2158164683
 21
31.4194141734
 12
157.8689414683
 22
31.3548867989
 13
157.8689414683
 23
31.3548867989
  0
SOLID
  8
0
 62
7
  6
CONTINUOUS
 10
158.2158164683
 20
31.4194141734
 11
158.3314416889
 21
31.3548867989
 12
157.8689414683
 22
31.3548867989
 13
157.8689414683
 23
31.3548867989
  0
SOLID
  8
0
 62
7
  6
CONTINUOUS
 10
157.9845666889
 20
31.3226223092
 11
157.8689414683
 21
31.3548867989
 12
158.3314416889
 22
31.3548867989
 13
158.3314416889
 23
31.3548867989
  0
SOLID
  8
0
 62
7
  6
CONTINUOUS
 10
157.9845666889
 20
31.3226223092
 11
158.3314416889
 21
31.3548867989
 12
158.1001912478
 22
31.2580947047
 13
158.1001912478
 23
31.2580947047
  0
SOLID
  8
0
 62
7
  6
CONTINUOUS
 10
158.3314416889
 20
31.3548867989
 11
158.3892539683
 21
31.2580947047
 12
158.1001912478
 22
31.2580947047
 13
158.1001912478
 23
31.2580947047
  0
SOLID
  8
0
 62
7
  6
CONTINUOUS
 10
158.1580041889
 20
31.0967762685
 11
158.1001912478
 21
31.2580947047
 12
158.3892539683
 22
31.2580947047
 13
158.3892539683
 23
31.2580947047
  0
SOLID
  8
0
 62
7
  6
CONTINUOUS
 10
158.3892539683
 20
31.2580947047
 11
158.4470662478
 21
31.0967762685
 12
158.1580041889
 22
31.0967762685
 13
158.1580041889
 23
31.0967762685
  0
SOLID
  8
0
 62
7
  6
CONTINUOUS
 10
157.4064412478
 20
31.3548867989
 11
157.2330037478
 21
31.2903595223
 12
157.1173791889
 22
31.3548867989
 13
157.1173791889
 23
31.3548867989
  0
SOLID
  8
0
 62
7
  6
CONTINUOUS
 10
157.2330037478
 20
31.2903595223
 11
157.1173791889
 21
31.2258309157
 12
157.1173791889
 22
31.3548867989
 13
157.1173791889
 23
31.3548867989
  0
SOLID
  8
0
 62
7
  6
CONTINUOUS
 10
157.1173791889
 20
31.2258309157
 11
156.8283164683
 21
30.4837672433
 12
157.1173791889
 22
31.3548867989
 13
157.1173791889
 23
31.3548867989
  0
SOLID
  8
0
 62
7
  6
CONTINUOUS
 10
157.1173791889
 20
31.3548867989
 11
156.8283164683
 21
30.4837672433
 12
157.1173791889
 22
31.5162052351
 13
157.1173791889
 23
31.5162052351
  0
SOLID
  8
0
 62
7
  6
CONTINUOUS
 10
156.8283164683
 20
30.4837672433
 11
156.8283164683
 21
31.5162052351
 12
157.1173791889
 22
31.5162052351
 13
157.1173791889
 23
31.5162052351
  0
SOLID
  8
0
 62
7
  6
CONTINUOUS
 10
157.1173791889
 20
31.2258309157
 11
157.1173791889
 21
30.4837672433
 12
156.8283164683
 22
30.4837672433
 13
156.8283164683
 23
30.4837672433
  0
SOLID
  8
0
 62
7
  6
CONTINUOUS
 10
158.1580041889
 20
30.4837672433
 11
158.1580041889
 21
31.0967762685
 12
158.4470662478
 22
31.0967762685
 13
158.4470662478
 23
31.0967762685
  0
SOLID
  8
0
 62
7
  6
CONTINUOUS
 10
158.4470662478
 20
31.0967762685
 11
158.4470662478
 21
30.4837672433
 12
158.1580041889
 22
30.4837672433
 13
158.1580041889
 23
30.4837672433
  0
SOLID
  8
0
 62
7
  6
CONTINUOUS
 10
159.2564414683
 20
31.4839408138
 11
159.6033164683
 21
31.5162050633
 12
159.9501914683
 22
31.5162050633
 13
159.9501914683
 23
31.5162050633
  0
SOLID
  8
0
 62
7
  6
CONTINUOUS
 10
159.9501914683
 20
31.5162050633
 11
160.2970664683
 21
31.4839408138
 12
159.2564414683
 22
31.4839408138
 13
159.2564414683
 23
31.4839408138
  0
SOLID
  8
0
 62
7
  6
CONTINUOUS
 10
159.0251916889
 20
31.4194137026
 11
159.2564414683
 21
31.4839408138
 12
160.2970664683
 22
31.4839408138
 13
160.2970664683
 23
31.4839408138
  0
SOLID
  8
0
 62
7
  6
CONTINUOUS
 10
159.0251916889
 20
31.4194137026
 11
160.2970664683
 21
31.4839407928
 12
160.4705039683
 22
31.4516780059
 13
160.4705039683
 23
31.4516780059
  0
SOLID
  8
0
 62
7
  6
CONTINUOUS
 10
159.0251916889
 20
31.4194137026
 11
160.4705039683
 21
31.4516780059
 12
159.6033164683
 22
31.3871494664
 13
159.6033164683
 23
31.3871494664
  0
SOLID
  8
0
 62
7
  6
CONTINUOUS
 10
159.6033164683
 20
31.3871494664
 11
160.4705039683
 21
31.4516780059
 12
159.9501914683
 22
31.3871494664
 13
159.9501914683
 23
31.3871494664
  0
SOLID
  8
0
 62
7
  6
CONTINUOUS
 10
160.4705039683
 20
31.4516780059
 11
160.6439414683
 21
31.3871494664
 12
159.9501914683
 22
31.3871494664
 13
159.9501914683
 23
31.3871494664
  0
SOLID
  8
0
 62
7
  6
CONTINUOUS
 10
160.2970664683
 20
31.3548866125
 11
159.9501914683
 21
31.3871494664
 12
160.6439414683
 22
31.3871494664
 13
160.6439414683
 23
31.3871494664
  0
SOLID
  8
0
 62
7
  6
CONTINUOUS
 10
158.9095664683
 20
31.3226222241
 11
159.0251916889
 21
31.4194137026
 12
159.6033164683
 22
31.3871494664
 13
159.6033164683
 23
31.3871494664
  0
SOLID
  8
0
 62
7
  6
CONTINUOUS
 10
160.2970664683
 20
31.3548866125
 11
160.6439414683
 21
31.3871494664
 12
160.4126916889
 22
31.3226222241
 13
160.4126916889
 23
31.3226222241
  0
SOLID
  8
0
 62
7
  6
CONTINUOUS
 10
160.4126916889
 20
31.3226222241
 11
160.6439414683
 21
31.3871494664
 12
160.4705039683
 22
31.2580952077
 13
160.4705039683
 23
31.2580952077
  0
SOLID
  8
0
 62
7
  6
CONTINUOUS
 10
160.6439414683
 20
31.3871494664
 11
160.7595660273
 21
31.2580952077
 12
160.4705039683
 22
31.2580952077
 13
160.4705039683
 23
31.2580952077
  0
SOLID
  8
0
 62
7
  6
CONTINUOUS
 10
150.0642539683
 20
31.3548866125
 11
149.5439414683
 21
31.3226222809
 12
150.2955039959
 22
31.3871493065
 13
150.2955039959
 23
31.3871493065
  0
SOLID
  8
0
 62
7
  6
CONTINUOUS
 10
149.5439414683
 20
31.3226222809
 11
149.6595664615
 21
31.3871493065
 12
150.2955039959
 22
31.3871493065
 13
150.2955039959
 23
31.3871493065
  0
SOLID
  8
0
 62
7
  6
CONTINUOUS
 10
150.0642539683
 20
31.3548866125
 11
149.9486289546
 21
31.3226222809
 12
149.5439414683
 22
31.3226222809
 13
149.5439414683
 23
31.3226222809
  0
SOLID
  8
0
 62
7
  6
CONTINUOUS
 10
149.4283164701
 20
31.1935681288
 11
149.5439414683
 21
31.3226222809
 12
149.9486289546
 22
31.3226222809
 13
149.9486289546
 23
31.3226222809
  0
SOLID
  8
0
 62
7
  6
CONTINUOUS
 10
153.7642540786
 20
31.3226222809
 11
154.4580040786
 21
31.3871493993
 12
154.2267539683
 22
31.3548866125
 13
154.2267539683
 23
31.3548866125
  0
SOLID
  8
0
 62
7
  6
CONTINUOUS
 10
154.2267539683
 20
31.3548866125
 11
154.1111290786
 21
31.3226222809
 12
153.7642540786
 22
31.3226222809
 13
153.7642540786
 23
31.3226222809
  0
SOLID
  8
0
 62
7
  6
CONTINUOUS
 10
153.7642540786
 20
31.2580951907
 11
153.7642540786
 21
31.3226222809
 12
154.1111290786
 22
31.3226222809
 13
154.1111290786
 23
31.3226222809
  0
SOLID
  8
0
 62
7
  6
CONTINUOUS
 10
154.1111290786
 20
31.3226222809
 11
154.0533164683
 21
31.2580951907
 12
153.7642540786
 22
31.2580951907
 13
153.7642540786
 23
31.2580951907
  0
SOLID
  8
0
 62
7
  6
CONTINUOUS
 10
158.9095664683
 20
31.32262241
 11
159.6033164683
 21
31.3871493993
 12
159.3720666889
 22
31.3548866125
 13
159.3720666889
 23
31.3548866125
  0
SOLID
  8
0
 62
7
  6
CONTINUOUS
 10
159.3720666889
 20
31.3548866125
 11
159.2564414683
 21
31.32262241
 12
158.9095664683
 22
31.32262241
 13
158.9095664683
 23
31.32262241
  0
SOLID
  8
0
 62
7
  6
CONTINUOUS
 10
158.9095664683
 20
31.2580953198
 11
158.9095664683
 21
31.32262241
 12
159.2564414683
 22
31.32262241
 13
159.2564414683
 23
31.32262241
  0
SOLID
  8
0
 62
7
  6
CONTINUOUS
 10
159.2564414683
 20
31.32262241
 11
159.1986291889
 21
31.2580953198
 12
158.9095664683
 22
31.2580953198
 13
158.9095664683
 23
31.2580953198
  0
SOLID
  8
0
 62
7
  6
CONTINUOUS
 10
159.0251916889
 20
31.1290410387
 11
158.9095664683
 21
31.2580953198
 12
159.1986291889
 22
31.2580953198
 13
159.1986291889
 23
31.2580953198
  0
SOLID
  8
0
 62
7
  6
CONTINUOUS
 10
149.4283164701
 20
31.1935681288
 11
149.9486289546
 21
31.3226223092
 12
149.7751914546
 22
31.2258309157
 13
149.7751914546
 23
31.2258309157
  0
SOLID
  8
0
 62
7
  6
CONTINUOUS
 10
149.7751914546
 20
31.2258309157
 11
149.7173789683
 21
31.1613038256
 12
149.4283164701
 22
31.1935681288
 13
149.4283164701
 23
31.1935681288
  0
SOLID
  8
0
 62
7
  6
CONTINUOUS
 10
149.3705039683
 20
30.999985342
 11
149.4283164701
 21
31.1935681288
 12
149.7173789683
 22
31.1613038256
 13
149.7173789683
 23
31.1613038256
  0
SOLID
  8
0
 62
7
  6
CONTINUOUS
 10
154.2267539683
 20
31.1290410387
 11
154.5736289683
 21
31.1613037812
 12
155.2095666889
 22
31.1613037812
 13
155.2095666889
 23
31.1613037812
  0
SOLID
  8
0
 62
7
  6
CONTINUOUS
 10
154.2267539683
 20
31.1290410387
 11
155.2095666889
 21
31.1613037812
 12
153.9955038581
 22
31.0645131385
 13
153.9955038581
 23
31.0645131385
  0
SOLID
  8
0
 62
7
  6
CONTINUOUS
 10
153.9955038581
 20
31.0645131385
 11
155.2095666889
 21
31.1613037812
 12
154.5736289683
 22
31.0322496008
 13
154.5736289683
 23
31.0322496008
  0
SOLID
  8
0
 62
7
  6
CONTINUOUS
 10
155.2095666889
 20
31.1613037812
 11
155.2095666889
 21
31.0322496008
 12
154.5736289683
 22
31.0322496008
 13
154.5736289683
 23
31.0322496008
  0
SOLID
  8
0
 62
7
  6
CONTINUOUS
 10
159.0251916889
 20
31.1290409764
 11
159.1986291889
 21
31.258095219
 12
159.2564414683
 22
31.1935681288
 13
159.2564414683
 23
31.1935681288
  0
SOLID
  8
0
 62
7
  6
CONTINUOUS
 10
159.2564414683
 20
31.1935681288
 11
159.4298789683
 21
31.1290409764
 12
159.0251916889
 22
31.1290409764
 13
159.0251916889
 23
31.1290409764
  0
SOLID
  8
0
 62
7
  6
CONTINUOUS
 10
159.2564414683
 20
31.0322496452
 11
159.0251916889
 21
31.1290409764
 12
159.4298789683
 22
31.1290409764
 13
159.4298789683
 23
31.1290409764
  0
SOLID
  8
0
 62
7
  6
CONTINUOUS
 10
159.4298789683
 20
31.1290409764
 11
160.4126916889
 21
30.9677225551
 12
159.2564414683
 22
31.0322496452
 13
159.2564414683
 23
31.0322496452
  0
SOLID
  8
0
 62
7
  6
CONTINUOUS
 10
160.2392541889
 20
30.8709310886
 11
159.2564414683
 21
31.0322496452
 12
160.4126916889
 22
30.9677225551
 13
160.4126916889
 23
30.9677225551
  0
SOLID
  8
0
 62
7
  6
CONTINUOUS
 10
160.4126916889
 20
30.9677225551
 11
160.6439414683
 21
30.8709310886
 12
160.2392541889
 22
30.8709310886
 13
160.2392541889
 23
30.8709310886
  0
SOLID
  8
0
 62
7
  6
CONTINUOUS
 10
160.4126916889
 20
30.8064040715
 11
160.2392541889
 21
30.8709310886
 12
160.6439414683
 22
30.8709310886
 13
160.6439414683
 23
30.8709310886
  0
SOLID
  8
0
 62
7
  6
CONTINUOUS
 10
160.4126916889
 20
30.8064040715
 11
160.6439414683
 21
30.8709310886
 12
160.4705039683
 22
30.7418753703
 13
160.4705039683
 23
30.7418753703
  0
SOLID
  8
0
 62
7
  6
CONTINUOUS
 10
160.6439414683
 20
30.8709310886
 11
160.7595660273
 21
30.7418753703
 12
160.4705039683
 22
30.7418753703
 13
160.4705039683
 23
30.7418753703
  0
SOLID
  8
0
 62
7
  6
CONTINUOUS
 10
160.4126916889
 20
30.6773482855
 11
160.4705039683
 21
30.7418753703
 12
160.7595660273
 22
30.7418753703
 13
160.7595660273
 23
30.7418753703
  0
SOLID
  8
0
 62
7
  6
CONTINUOUS
 10
160.7595660273
 20
30.7418753703
 11
160.7595660273
 21
30.6773482855
 12
160.4126916889
 22
30.6773482855
 13
160.4126916889
 23
30.6773482855
  0
SOLID
  8
0
 62
7
  6
CONTINUOUS
 10
160.2970664683
 20
30.6450855879
 11
160.4126916889
 21
30.6773482855
 12
160.7595660273
 22
30.6773482855
 13
160.7595660273
 23
30.6773482855
  0
SOLID
  8
0
 62
7
  6
CONTINUOUS
 10
160.2970664683
 20
30.6450855879
 11
160.7595660273
 21
30.6773482855
 12
160.0658166889
 22
30.6128212008
 13
160.0658166889
 23
30.6128212008
  0
SOLID
  8
0
 62
7
  6
CONTINUOUS
 10
160.7595660273
 20
30.6773482855
 11
160.6439414683
 21
30.5805584977
 12
160.0658166889
 22
30.6128212008
 13
160.0658166889
 23
30.6128212008
  0
SOLID
  8
0
 62
7
  6
CONTINUOUS
 10
160.6439414683
 20
30.5805584977
 11
159.1986291889
 21
30.5482941944
 12
160.0658166889
 22
30.6128212008
 13
160.0658166889
 23
30.6128212008
  0
SOLID
  8
0
 62
7
  6
CONTINUOUS
 10
160.0658166889
 20
30.6128212008
 11
159.1986291889
 21
30.5482941944
 12
159.7189416889
 22
30.6128212008
 13
159.7189416889
 23
30.6128212008
  0
SOLID
  8
0
 62
7
  6
CONTINUOUS
 10
159.1986291889
 20
30.5482941944
 11
159.0251916889
 21
30.6128212008
 12
159.7189416889
 22
30.6128212008
 13
159.7189416889
 23
30.6128212008
  0
SOLID
  8
0
 62
7
  6
CONTINUOUS
 10
159.1986291889
 20
30.5482941944
 11
160.6439414683
 21
30.5805584977
 12
159.3720666889
 22
30.5160301864
 13
159.3720666889
 23
30.5160301864
  0
SOLID
  8
0
 62
7
  6
CONTINUOUS
 10
160.6439414683
 20
30.5805584977
 11
160.4126916889
 21
30.5160301864
 12
159.3720666889
 22
30.5160301864
 13
159.3720666889
 23
30.5160301864
  0
SOLID
  8
0
 62
7
  6
CONTINUOUS
 10
159.7189416889
 20
30.4837670312
 11
159.3720666889
 21
30.5160301864
 12
160.4126916889
 22
30.5160301864
 13
160.4126916889
 23
30.5160301864
  0
SOLID
  8
0
 62
7
  6
CONTINUOUS
 10
160.4126916889
 20
30.5160301864
 11
160.0658166889
 21
30.4837670312
 12
159.7189416889
 22
30.4837670312
 13
159.7189416889
 23
30.4837670312
  0
SOLID
  8
0
 62
7
  6
CONTINUOUS
 10
149.3705039683
 20
30.999985342
 11
149.7173789683
 21
31.1613038256
 12
149.6595664615
 22
31.0322496452
 13
149.6595664615
 23
31.0322496452
  0
SOLID
  8
0
 62
7
  6
CONTINUOUS
 10
149.6595664615
 20
31.0322496452
 11
149.6595664615
 21
30.9354583476
 12
149.3705039683
 22
30.999985342
 13
149.3705039683
 23
30.999985342
  0
SOLID
  8
0
 62
7
  6
CONTINUOUS
 10
149.4283164701
 20
30.8064040715
 11
149.3705039683
 21
30.999985342
 12
149.6595664615
 22
30.9354583476
 13
149.6595664615
 23
30.9354583476
  0
SOLID
  8
0
 62
7
  6
CONTINUOUS
 10
149.6595664615
 20
30.9354583476
 11
149.7751914546
 21
30.7741397682
 12
149.4283164701
 22
30.8064040715
 13
149.4283164701
 23
30.8064040715
  0
SOLID
  8
0
 62
7
  6
CONTINUOUS
 10
149.5439414683
 20
30.6773485435
 11
149.4283164701
 21
30.8064040715
 12
149.7751914546
 22
30.7741397682
 13
149.7751914546
 23
30.7741397682
  0
SOLID
  8
0
 62
7
  6
CONTINUOUS
 10
149.7751914546
 20
30.7741397682
 11
149.9486289546
 21
30.6773485435
 12
149.5439414683
 22
30.6773485435
 13
149.5439414683
 23
30.6773485435
  0
SOLID
  8
0
 62
7
  6
CONTINUOUS
 10
149.6595664615
 20
30.6128213107
 11
149.5439414683
 21
30.6773485435
 12
149.9486289546
 22
30.6773485435
 13
149.9486289546
 23
30.6773485435
  0
SOLID
  8
0
 62
7
  6
CONTINUOUS
 10
149.9486289546
 20
30.6773485435
 11
150.2955039959
 21
30.6128213107
 12
149.6595664615
 22
30.6128213107
 13
149.6595664615
 23
30.6128213107
  0
SOLID
  8
0
 62
7
  6
CONTINUOUS
 10
149.8330039821
 20
30.5482941944
 11
149.6595664615
 21
30.6128213107
 12
150.2955039959
 22
30.6128213107
 13
150.2955039959
 23
30.6128213107
  0
SOLID
  8
0
 62
7
  6
CONTINUOUS
 10
153.8798789683
 20
30.9999852815
 11
153.9955038581
 21
31.0645131385
 12
154.5736289683
 22
31.0322496452
 13
154.5736289683
 23
31.0322496452
  0
SOLID
  8
0
 62
7
  6
CONTINUOUS
 10
154.5736289683
 20
31.0322496452
 11
154.3423788581
 21
30.9999852815
 12
153.8798789683
 22
30.9999852815
 13
153.8798789683
 23
30.9999852815
  0
SOLID
  8
0
 62
7
  6
CONTINUOUS
 10
153.7642540786
 20
30.8709311616
 11
153.8798789683
 21
30.9999852815
 12
154.3423788581
 22
30.9999852815
 13
154.3423788581
 23
30.9999852815
  0
SOLID
  8
0
 62
7
  6
CONTINUOUS
 10
154.1111290786
 20
30.9031946612
 11
153.7642540786
 21
30.8709311616
 12
154.2267539683
 22
30.9677225551
 13
154.2267539683
 23
30.9677225551
  0
SOLID
  8
0
 62
7
  6
CONTINUOUS
 10
153.7642540786
 20
30.8709311616
 11
154.3423788581
 21
30.999985342
 12
154.2267539683
 22
30.9677225551
 13
154.2267539683
 23
30.9677225551
  0
SOLID
  8
0
 62
7
  6
CONTINUOUS
 10
154.1111290786
 20
30.9031946612
 11
154.0533164683
 21
30.8064040715
 12
153.7642540786
 22
30.8709311616
 13
153.7642540786
 23
30.8709311616
  0
SOLID
  8
0
 62
7
  6
CONTINUOUS
 10
153.7642540786
 20
30.7741397682
 11
153.7642540786
 21
30.8709311616
 12
154.0533164683
 22
30.8064040715
 13
154.0533164683
 23
30.8064040715
  0
SOLID
  8
0
 62
7
  6
CONTINUOUS
 10
154.0533164683
 20
30.8064040715
 11
154.0533164683
 21
30.7418754649
 12
153.7642540786
 22
30.7741397682
 13
153.7642540786
 23
30.7741397682
  0
SOLID
  8
0
 62
7
  6
CONTINUOUS
 10
153.8220663581
 20
30.6450855879
 11
153.7642540786
 21
30.7741397682
 12
154.0533164683
 22
30.7418754649
 13
154.0533164683
 23
30.7418754649
  0
SOLID
  8
0
 62
7
  6
CONTINUOUS
 10
155.2095666889
 20
30.8386672883
 11
155.4986287478
 21
30.7418754649
 12
155.1517537478
 22
30.7741397682
 13
155.1517537478
 23
30.7741397682
  0
SOLID
  8
0
 62
7
  6
CONTINUOUS
 10
154.9783162478
 20
30.6773483748
 11
155.1517537478
 21
30.7741397682
 12
155.4986287478
 22
30.7418754649
 13
155.4986287478
 23
30.7418754649
  0
SOLID
  8
0
 62
7
  6
CONTINUOUS
 10
154.9783162478
 20
30.6773483748
 11
155.4986287478
 21
30.7418754649
 12
155.2095666889
 22
30.6450855879
 13
155.2095666889
 23
30.6450855879
  0
SOLID
  8
0
 62
7
  6
CONTINUOUS
 10
155.4986287478
 20
30.7418754649
 11
155.5564416889
 21
30.5805584977
 12
155.2095666889
 22
30.6450855879
 13
155.2095666889
 23
30.6450855879
  0
SOLID
  8
0
 62
7
  6
CONTINUOUS
 10
155.2673789683
 20
30.5482941944
 11
155.2095666889
 21
30.6450855879
 12
155.5564416889
 22
30.5805584977
 13
155.5564416889
 23
30.5805584977
  0
SOLID
  8
0
 62
7
  6
CONTINUOUS
 10
155.2673789683
 20
30.5482941944
 11
155.5564416889
 21
30.5805584977
 12
155.3251912478
 22
30.4837669548
 13
155.3251912478
 23
30.4837669548
  0
SOLID
  8
0
 62
7
  6
CONTINUOUS
 10
155.5564416889
 20
30.5805584977
 11
155.6142539683
 21
30.4837669548
 12
155.3251912478
 22
30.4837669548
 13
155.3251912478
 23
30.4837669548
  0
SOLID
  8
0
 62
7
  6
CONTINUOUS
 10
150.8736290235
 20
30.7096125201
 11
150.9314414683
 21
30.8064039377
 12
151.2205040235
 22
30.8064039377
 13
151.2205040235
 23
30.8064039377
  0
SOLID
  8
0
 62
7
  6
CONTINUOUS
 10
151.2205040235
 20
30.8064039377
 11
151.1626914132
 21
30.6773483748
 12
150.8736290235
 22
30.7096125201
 13
150.8736290235
 23
30.7096125201
  0
SOLID
  8
0
 62
7
  6
CONTINUOUS
 10
150.7001914408
 20
30.6450855879
 11
150.8736290235
 21
30.7096125201
 12
151.1626914132
 22
30.6773483748
 13
151.1626914132
 23
30.6773483748
  0
SOLID
  8
0
 62
7
  6
CONTINUOUS
 10
150.7001914408
 20
30.6450855879
 11
151.1626914132
 21
30.6773483748
 12
150.2955039959
 22
30.6128212846
 13
150.2955039959
 23
30.6128212846
  0
SOLID
  8
0
 62
7
  6
CONTINUOUS
 10
151.1626914132
 20
30.6773483748
 11
150.9892539132
 21
30.5805584977
 12
150.2955039959
 22
30.6128212846
 13
150.2955039959
 23
30.6128212846
  0
SOLID
  8
0
 62
7
  6
CONTINUOUS
 10
149.8330039821
 20
30.5482941944
 11
150.2955039959
 21
30.6128212846
 12
150.9892539132
 22
30.5805584977
 13
150.9892539132
 23
30.5805584977
  0
SOLID
  8
0
 62
7
  6
CONTINUOUS
 10
149.8330039821
 20
30.5482941944
 11
150.9892539132
 21
30.5805584977
 12
150.0064414821
 22
30.5160300219
 13
150.0064414821
 23
30.5160300219
  0
SOLID
  8
0
 62
7
  6
CONTINUOUS
 10
150.9892539132
 20
30.5805584977
 11
150.7580039683
 21
30.5160300219
 12
150.0064414821
 22
30.5160300219
 13
150.0064414821
 23
30.5160300219
  0
SOLID
  8
0
 62
7
  6
CONTINUOUS
 10
150.3533164408
 20
30.4837671043
 11
150.0064414821
 21
30.5160300219
 12
150.7580039683
 22
30.5160300219
 13
150.7580039683
 23
30.5160300219
  0
SOLID
  8
0
 62
7
  6
CONTINUOUS
 10
153.8220663581
 20
30.6450855879
 11
154.0533164683
 21
30.7418754649
 12
154.1111290786
 22
30.6773483748
 13
154.1111290786
 23
30.6773483748
  0
SOLID
  8
0
 62
7
  6
CONTINUOUS
 10
154.1111290786
 20
30.6773483748
 11
154.3423788581
 21
30.6128212846
 12
153.8220663581
 22
30.6450855879
 13
153.8220663581
 23
30.6450855879
  0
SOLID
  8
0
 62
7
  6
CONTINUOUS
 10
153.9955038581
 20
30.5482941944
 11
153.8220663581
 21
30.6450855879
 12
154.3423788581
 22
30.6128212846
 13
154.3423788581
 23
30.6128212846
  0
SOLID
  8
0
 62
7
  6
CONTINUOUS
 10
154.6892538581
 20
30.6128213209
 11
154.9783162478
 21
30.6773483748
 12
155.2095666889
 22
30.6450855879
 13
155.2095666889
 23
30.6450855879
  0
SOLID
  8
0
 62
7
  6
CONTINUOUS
 10
155.2095666889
 20
30.6450855879
 11
155.1517537478
 21
30.5805584977
 12
154.6892538581
 22
30.6128213209
 13
154.6892538581
 23
30.6128213209
  0
SOLID
  8
0
 62
7
  6
CONTINUOUS
 10
155.1517537478
 20
30.5805584977
 11
153.9955038581
 21
30.5482941944
 12
154.6892538581
 22
30.6128213209
 13
154.6892538581
 23
30.6128213209
  0
SOLID
  8
0
 62
7
  6
CONTINUOUS
 10
153.9955038581
 20
30.5482941944
 11
154.3423788581
 21
30.6128213209
 12
154.6892538581
 22
30.6128213209
 13
154.6892538581
 23
30.6128213209
  0
SOLID
  8
0
 62
7
  6
CONTINUOUS
 10
153.9955038581
 20
30.5482941944
 11
155.1517537478
 21
30.5805584977
 12
154.1111290786
 22
30.5160299113
 13
154.1111290786
 23
30.5160299113
  0
SOLID
  8
0
 62
7
  6
CONTINUOUS
 10
155.1517537478
 20
30.5805584977
 11
154.9783162478
 21
30.5160299113
 12
154.1111290786
 22
30.5160299113
 13
154.1111290786
 23
30.5160299113
  0
SOLID
  8
0
 62
7
  6
CONTINUOUS
 10
154.3423788581
 20
30.483767076
 11
154.1111290786
 21
30.5160299113
 12
154.9783162478
 22
30.5160299113
 13
154.9783162478
 23
30.5160299113
  0
SOLID
  8
0
 62
7
  6
CONTINUOUS
 10
154.9783162478
 20
30.5160299113
 11
154.6892538581
 21
30.483767076
 12
154.3423788581
 22
30.483767076
 13
154.3423788581
 23
30.483767076
  0
SOLID
  8
0
 62
7
  6
CONTINUOUS
 10
159.3720666889
 20
30.6450855879
 11
159.0251916889
 21
30.6128213209
 12
159.2564414683
 22
30.6773483748
 13
159.2564414683
 23
30.6773483748
  0
SOLID
  8
0
 62
7
  6
CONTINUOUS
 10
159.2564414683
 20
30.6773483748
 11
159.0251916889
 21
30.6128213209
 12
159.1986291889
 22
30.7418755012
 13
159.1986291889
 23
30.7418755012
  0
SOLID
  8
0
 62
7
  6
CONTINUOUS
 10
159.0251916889
 20
30.6128213209
 11
158.9095664683
 21
30.7418755012
 12
159.1986291889
 22
30.7418755012
 13
159.1986291889
 23
30.7418755012
  0
SOLID
  8
0
 62
7
  6
CONTINUOUS
 10
159.3720666889
 20
30.6450855879
 11
159.7189416889
 21
30.6128213209
 12
159.0251916889
 22
30.6128213209
 13
159.0251916889
 23
30.6128213209
  0
SOLID
  8
0
 62
7
  6
CONTINUOUS
 10
156.0767541889
 20
30.4837671043
 11
156.0767541889
 21
31.5162050961
 12
156.3658162478
 22
30.4837671043
 13
156.3658162478
 23
31.5162050961
  0
ENDBLK
  8
0
  6
BYBLOCK
 62
0
  0
BLOCK
  8
0
 62
2
  6
CONTINUOUS
  2
SYMBOL_3_BL0
 70
64
 10
31.7661185167
 20
19.8972369706
  0
TEXT
  8
0
 62
7
  6
CONTINUOUS
 10
18.0387879101
 20
19.2884917655
  7
TEXTSTYLE_3
 40
2.7338706658
  1
Ammeraal Beltech
 41
1.0
 51
15.0
 72
0
  0
TEXT
  8
0
 62
7
  6
CONTINUOUS
 10
28.8395887358
 20
17.0149550926
  7
TEXTSTYLE_4
 40
1.0935482663
  1
Innovation & Service in Belting
 41
1.0
 72
0
  0
LINE
  8
0
 62
7
  6
CONTINUOUS
 10
12.0142472588
 20
20.055085074
 11
12.7923992521
 21
23.7160023717
  0
LINE
  8
0
 62
7
  6
CONTINUOUS
 10
22.8875675419
 20
27.3793962833
 11
13.2802169951
 21
24.257778862
  0
LINE
  8
0
 62
7
  6
CONTINUOUS
 10
12.2395305911
 20
19.361734271
 11
19.7466058522
 21
12.602333345
  0
LINE
  8
0
 62
7
  6
CONTINUOUS
 10
12.5020650018
 20
20.5968615644
 11
23.310334367
 21
24.1086811633
  0
LINE
  8
0
 62
7
  6
CONTINUOUS
 10
23.3061292298
 20
13.7588925996
 11
14.860669561
 21
21.3632186413
  0
LINE
  8
0
 62
7
  6
CONTINUOUS
 10
23.8259519496
 20
26.5344711676
 11
22.8493924124
 21
21.9401197651
  0
LINE
  8
0
 62
7
  6
CONTINUOUS
 10
22.1495904647
 20
18.6478104513
 11
21.4631422532
 21
15.4183255269
  0
LINE
  8
0
 62
7
  6
CONTINUOUS
 10
24.5070480481
 20
14.1490947773
 11
25.4632795838
 21
18.6478104513
  0
LINE
  8
0
 62
7
  6
CONTINUOUS
 10
26.1630815315
 20
21.9401197651
 11
26.6073233338
 21
24.0301131245
  0
LINE
  8
0
 62
7
  6
CONTINUOUS
 10
20.4597069275
 20
12.4507590323
 11
24.0192303051
 21
13.6073182869
  0
LINE
  8
0
 62
7
  6
CONTINUOUS
 10
23.6006686173
 20
27.2278219706
 11
26.3820400015
 21
24.7234639276
  0
ARC
  8
0
 62
7
  6
CONTINUOUS
 10
13.5055003274
 20
23.564428059
 40
0.7290321776
 50
108.0
 51
168.0
  0
ARC
  8
0
 62
7
  6
CONTINUOUS
 10
23.1128508743
 20
26.6860454803
 40
0.7290321776
 50
348.0
 51
108.0
  0
ARC
  8
0
 62
7
  6
CONTINUOUS
 10
25.8942222585
 20
24.1816874372
 40
0.7290321776
 50
348.0
 51
48.0
  0
ARC
  8
0
 62
7
  6
CONTINUOUS
 10
20.2344235952
 20
13.1441098354
 40
0.7290321776
 50
228.0
 51
288.0
  0
ARC
  8
0
 62
7
  6
CONTINUOUS
 10
12.7273483341
 20
19.9035107613
 40
0.7290321776
 50
108.0
 51
228.0
  0
ARC
  8
0
 62
7
  6
CONTINUOUS
 10
23.7939469728
 20
14.30066909
 40
0.7290321776
 50
228.0
 51
348.0
  0
ENDBLK
  8
0
  6
BYBLOCK
 62
0
  0
ENDSEC
  0
SECTION
  2
ENTITIES
  0
TEXT
  8
0
 62
5
  6
CONTINUOUS
 10
96.0
 20
25.636
  7
TEXTSTYLE_2
 40
2.8
  1
Scale :
 41
0.6
 51
0.000019
 72
0
  0
TEXT
  8
0
 62
5
  6
CONTINUOUS
 10
116.0
 20
25.636
  7
TEXTSTYLE_2
 40
2.8
  1
Chain type:
 41
0.6
 51
0.000019
 72
0
  0
INSERT
  8
0
 62
2
  6
CONTINUOUS
  2
SYMBOL_3_BL0
 10
31.7661185167
 20
19.8972369706
  0
INSERT
  8
0
 62
2
  6
CONTINUOUS
  2
SYMBOL_11_BL1
 10
173.3924355793
 20
35.4326167403
  0
LINE
  8
0
 62
2
  6
CONTINUOUS
 10
10.0
 20
30.0
 11
200.0
 21
30.0
  0
LINE
  8
0
 62
2
  6
CONTINUOUS
 10
10.0
 20
30.0
 11
10.0
 21
10.0
  0
LINE
  8
0
 62
2
  6
CONTINUOUS
 10
10.0
 20
10.0
 11
200.0
 21
10.0
  0
LINE
  8
0
 62
2
  6
CONTINUOUS
 10
95.0
 20
30.0
 11
95.0
 21
10.0
  0
LINE
  8
0
 62
2
  6
CONTINUOUS
 10
115.0
 20
30.0
 11
115.0
 21
10.0
  0
LINE
  8
0
 62
2
  6
CONTINUOUS
 10
200.0
 20
30.0
 11
200.0
 21
10.0
  0
TEXT
  8
0
 62
5
  6
CONTINUOUS
 10
13.0
 20
23.303
  7
TEXTSTYLE_5
 40
1.52
  1
                                                                     Ammeraal Beltech Modular A/S
 41
1.0
 72
0
  0
TEXT
  8
0
 62
5
  6
CONTINUOUS
 10
13.0
 20
20.595
  7
TEXTSTYLE_5
 40
1.5
  1
                                                                      Hjulmagervej 21,  7100 Vejle,  DK
 41
1.0
 72
0
  0
TEXT
  8
0
 62
5
  6
CONTINUOUS
 10
13.0
 20
17.881
  7
TEXTSTYLE_5
 40
1.495
  1
                                                                      tel: 
 41
1.0
 72
0
  0
TEXT
  8
0
 62
5
  6
CONTINUOUS
 10
57.9869465649
 20
17.881
  7
TEXTSTYLE_5
 40
1.51
  1
+45 75723100     fax: +45 75723348
 41
1.0
 72
0
  0
TEXT
  8
0
 62
5
  6
CONTINUOUS
 10
13.0
 20
15.177
  7
TEXTSTYLE_5
 40
1.5
  1
                                                                      admin@unichains.dk  www.unichains.com
 41
1.0
 72
0
  0
TEXT
  8
0
 62
5
  6
CONTINUOUS
 10
99.75
 20
13.75
  7
TEXTSTYLE_6
 40
5.0
  1
1:1
 41
0.7
 72
1
 11
105.0
 21
13.75
  0
TEXT
  8
0
 62
5
  6
CONTINUOUS
 10
118.0
 20
13.75
  7
TEXTSTYLE_7
 40
7.5
  1
STUD 2700/3000
 41
0.7404761905
 72
0
  0
LINE
  8
0
 62
7
  6
CONTINUOUS
 10
210.0
 20
0.0
 11
0.0
 21
0.0
  0
LINE
  8
0
 62
7
  6
CONTINUOUS
 10
10.0
 20
10.0
 11
200.0
 21
10.0
  0
LINE
  8
0
 62
7
  6
CONTINUOUS
 10
10.0
 20
30.0
 11
200.0
 21
30.0
  0
LINE
  8
0
 62
7
  6
CONTINUOUS
 10
0.0
 20
0.0
 11
0.0
 21
297.0
  0
LINE
  8
0
 62
7
  6
CONTINUOUS
 10
10.0
 20
10.0
 11
10.0
 21
287.0
  0
LINE
  8
0
 62
7
  6
CONTINUOUS
 10
200.0
 20
287.0
 11
200.0
 21
10.0
  0
LINE
  8
0
 62
7
  6
CONTINUOUS
 10
210.0
 20
0.0
 11
210.0
 21
297.0
  0
LINE
  8
0
 62
7
  6
CONTINUOUS
 10
10.0
 20
287.0
 11
200.0
 21
287.0
  0
LINE
  8
0
 62
7
  6
CONTINUOUS
 10
0.0
 20
297.0
 11
210.0
 21
297.0
  0
LINE
  8
0
 62
7
  6
CONTINUOUS
 10
42.2375
 20
206.3909836066
 11
42.2375
 21
221.5909836066
  0
LINE
  8
0
 62
7
  6
CONTINUOUS
 10
70.2374947583
 20
205.3909836066
 11
43.2375
 21
205.3909836066
  0
POLYLINE
  8
0
 62
7
  6
CONTINUOUS
 66
1
 70
0
  0
VERTEX
  8
0
 62
7
  6
CONTINUOUS
 10
55.3375
 20
210.2409836068
  0
VERTEX
  8
0
 62
7
  6
CONTINUOUS
 10
54.4123165218
 20
210.3066333035
  0
VERTEX
  8
0
 62
7
  6
CONTINUOUS
 10
53.4959623356
 20
210.5053055737
  0
VERTEX
  8
0
 62
7
  6
CONTINUOUS
 10
52.6044077095
 20
210.8395457523
  0
VERTEX
  8
0
 62
7
  6
CONTINUOUS
 10
51.7586503799
 20
211.3095086836
  0
VERTEX
  8
0
 62
7
  6
CONTINUOUS
 10
50.9853597243
 20
211.9085349616
  0
VERTEX
  8
0
 62
7
  6
CONTINUOUS
 10
50.6346362614
 20
212.2518617123
  0
VERTEX
  8
0
 62
7
  6
CONTINUOUS
 10
50.0218026099
 20
213.010341516
  0
VERTEX
  8
0
 62
7
  6
CONTINUOUS
 10
49.5426366531
 20
213.8381180455
  0
VERTEX
  8
0
 62
7
  6
CONTINUOUS
 10
49.2045665955
 20
214.7043471383
  0
VERTEX
  8
0
 62
7
  6
CONTINUOUS
 10
49.0040728157
 20
215.5918563547
  0
VERTEX
  8
0
 62
7
  6
CONTINUOUS
 10
48.9375
 20
216.490983607
  0
SEQEND
  0
POLYLINE
  8
0
 62
7
  6
CONTINUOUS
 66
1
 70
0
  0
VERTEX
  8
0
 62
7
  6
CONTINUOUS
 10
48.9375
 20
216.490983607
  0
VERTEX
  8
0
 62
7
  6
CONTINUOUS
 10
49.0040709048
 20
217.3900980213
  0
VERTEX
  8
0
 62
7
  6
CONTINUOUS
 10
49.2045658011
 20
218.2776174744
  0
VERTEX
  8
0
 62
7
  6
CONTINUOUS
 10
49.5426506178
 20
219.1438782585
  0
VERTEX
  8
0
 62
7
  6
CONTINUOUS
 10
50.0218385239
 20
219.9716780042
  0
VERTEX
  8
0
 62
7
  6
CONTINUOUS
 10
50.6346844761
 20
220.7301565115
  0
VERTEX
  8
0
 62
7
  6
CONTINUOUS
 10
50.9854056971
 20
221.0734738907
  0
VERTEX
  8
0
 62
7
  6
CONTINUOUS
 10
51.7586972527
 20
221.6724894045
  0
VERTEX
  8
0
 62
7
  6
CONTINUOUS
 10
52.6044596433
 20
222.1424454127
  0
VERTEX
  8
0
 62
7
  6
CONTINUOUS
 10
53.4960186578
 20
222.4766781644
  0
VERTEX
  8
0
 62
7
  6
CONTINUOUS
 10
54.4123336278
 20
222.6753363501
  0
VERTEX
  8
0
 62
7
  6
CONTINUOUS
 10
55.3375
 20
222.7409836052
  0
SEQEND
  0
LINE
  8
0
 62
2
  6
CONTINUOUS
 10
56.2175
 20
216.4909836066
 11
54.4575
 21
216.4909836066
  0
LINE
  8
DEFAULT_1
 62
2
  6
CENTER
 10
50.9375
 20
216.4909836066
 11
47.0875
 21
216.4909836066
  0
LINE
  8
DEFAULT_1
 62
2
  6
CENTER
 10
59.7375
 20
216.4909836066
 11
63.5875
 21
216.4909836066
  0
LINE
  8
0
 62
2
  6
CONTINUOUS
 10
55.3375
 20
217.3709836066
 11
55.3375
 21
215.6109836066
  0
LINE
  8
DEFAULT_1
 62
2
  6
CENTER
 10
55.3375
 20
212.0909836066
 11
55.3375
 21
208.2409836066
  0
LINE
  8
DEFAULT_1
 62
2
  6
CENTER
 10
55.3375
 20
220.8909836066
 11
55.3375
 21
224.7409836066
  0
POLYLINE
  8
0
 62
7
  6
CONTINUOUS
 66
1
 70
0
  0
VERTEX
  8
0
 62
7
  6
CONTINUOUS
 10
55.3375
 20
222.7409836052
  0
VERTEX
  8
0
 62
7
  6
CONTINUOUS
 10
56.2627223096
 20
222.6753283694
  0
VERTEX
  8
0
 62
7
  6
CONTINUOUS
 10
57.1790770198
 20
222.4766500922
  0
VERTEX
  8
0
 62
7
  6
CONTINUOUS
 10
58.0706292965
 20
222.1424043933
  0
VERTEX
  8
0
 62
7
  6
CONTINUOUS
 10
58.9163811336
 20
221.6724377714
  0
VERTEX
  8
0
 62
7
  6
CONTINUOUS
 10
59.6896655211
 20
221.0734093855
  0
VERTEX
  8
0
 62
7
  6
CONTINUOUS
 10
60.0403856851
 20
220.7300822813
  0
VERTEX
  8
0
 62
7
  6
CONTINUOUS
 10
60.6532128142
 20
219.9716032324
  0
VERTEX
  8
0
 62
7
  6
CONTINUOUS
 10
61.1323721297
 20
219.1438308713
  0
VERTEX
  8
0
 62
7
  6
CONTINUOUS
 10
61.4704373655
 20
218.2776071081
  0
VERTEX
  8
0
 62
7
  6
CONTINUOUS
 10
61.670927824
 20
217.3901065609
  0
VERTEX
  8
0
 62
7
  6
CONTINUOUS
 10
61.7375
 20
216.4909836062
  0
SEQEND
  0
POLYLINE
  8
0
 62
7
  6
CONTINUOUS
 66
1
 70
0
  0
VERTEX
  8
0
 62
7
  6
CONTINUOUS
 10
61.7375
 20
216.4909836062
  0
VERTEX
  8
0
 62
7
  6
CONTINUOUS
 10
61.6709290387
 20
215.5918688123
  0
VERTEX
  8
0
 62
7
  6
CONTINUOUS
 10
61.4704354119
 20
214.7043537097
  0
VERTEX
  8
0
 62
7
  6
CONTINUOUS
 10
61.1323518994
 20
213.8380941984
  0
VERTEX
  8
0
 62
7
  6
CONTINUOUS
 10
60.6531657568
 20
213.0102954435
  0
VERTEX
  8
0
 62
7
  6
CONTINUOUS
 10
60.0403204916
 20
212.2518159574
  0
VERTEX
  8
0
 62
7
  6
CONTINUOUS
 10
59.6895994511
 20
211.9084979854
  0
VERTEX
  8
0
 62
7
  6
CONTINUOUS
 10
58.9163078242
 20
211.3094811527
  0
VERTEX
  8
0
 62
7
  6
CONTINUOUS
 10
58.070544811
 20
210.8395238547
  0
VERTEX
  8
0
 62
7
  6
CONTINUOUS
 10
57.1789828371
 20
210.5052894873
  0
VERTEX
  8
0
 62
7
  6
CONTINUOUS
 10
56.2626639046
 20
210.306630511
  0
VERTEX
  8
0
 62
7
  6
CONTINUOUS
 10
55.3375
 20
210.2409836068
  0
SEQEND
  0
LINE
  8
0
 62
7
  6
CONTINUOUS
 10
71.2375
 20
206.3909836066
 11
71.2375
 21
233.5909836066
  0
LINE
  8
0
 62
7
  6
CONTINUOUS
 10
55.2375
 20
234.5909836066
 11
70.2374949043
 21
234.5909836066
  0
LINE
  8
0
 62
7
  6
CONTINUOUS
 10
119.4832622951
 20
206.3909836066
 11
119.4832622951
 21
209.9410461392
  0
LINE
  8
0
 62
7
  6
CONTINUOUS
 10
119.4832622951
 20
223.0409244503
 11
119.4832622951
 21
233.5909836066
  0
LINE
  8
0
 62
7
  6
CONTINUOUS
 10
120.8081411103
 20
218.2943343409
 11
120.8961602885
 21
217.3849176629
  0
LINE
  8
0
 62
7
  6
CONTINUOUS
 10
120.8960355238
 20
217.3868541775
 11
120.9249608062
 21
216.4909836061
  0
LINE
  8
0
 62
7
  6
CONTINUOUS
 10
120.9249607817
 20
216.4909836061
 11
120.8960345278
 21
215.5950976699
  0
LINE
  8
0
 62
7
  6
CONTINUOUS
 10
150.2832595094
 20
205.3909836066
 11
120.4832650808
 21
205.3909836066
  0
LINE
  8
0
 62
7
  6
CONTINUOUS
 10
120.1535468647
 20
221.1813165751
 11
120.2651589277
 21
220.8199561869
  0
LINE
  8
0
 62
7
  6
CONTINUOUS
 10
120.2640592667
 20
220.8236490198
 11
120.4795242544
 21
220.0339299128
  0
LINE
  8
0
 62
7
  6
CONTINUOUS
 10
120.4786565423
 20
220.037435747
 11
120.666424613
 21
219.1808488945
  0
LINE
  8
0
 62
7
  6
CONTINUOUS
 10
120.66583743
 20
219.1839311462
 11
120.808467863
 21
218.2917994701
  0
LINE
  8
0
 62
7
  6
CONTINUOUS
 10
120.8961610123
 20
215.5970607018
 11
120.8081364582
 21
214.6875968236
  0
LINE
  8
0
 62
7
  6
CONTINUOUS
 10
120.8084714128
 20
214.6901952758
 11
120.665827371
 21
213.7979832991
  0
LINE
  8
0
 62
7
  6
CONTINUOUS
 10
120.6664323045
 20
213.8011587067
 11
120.4786417033
 21
212.944471535
  0
LINE
  8
0
 62
7
  6
CONTINUOUS
 10
119.5067084474
 20
222.924716807
 11
119.535772538
 21
222.8551858455
  0
LINE
  8
0
 62
7
  6
CONTINUOUS
 10
119.5353792684
 20
222.8561308312
 11
119.6218492174
 21
222.645480756
  0
LINE
  8
0
 62
7
  6
CONTINUOUS
 10
119.6209476355
 20
222.647707856
 11
119.7603516718
 21
222.2949133373
  0
LINE
  8
0
 62
7
  6
CONTINUOUS
 10
119.7592420151
 20
222.2977926337
 11
119.9428056249
 21
221.80353504
  0
LINE
  8
0
 62
7
  6
CONTINUOUS
 10
119.9415991532
 20
221.8069122778
 11
120.154725962
 21
221.1776303691
  0
LINE
  8
0
 62
7
  6
CONTINUOUS
 10
120.4795353009
 20
212.9480819565
 11
120.2640415697
 21
212.15825878
  0
LINE
  8
0
 62
7
  6
CONTINUOUS
 10
120.2651716213
 20
212.1620536772
 11
120.1535285661
 21
211.8005934432
  0
LINE
  8
0
 62
7
  6
CONTINUOUS
 10
120.1547388213
 20
211.8043770685
 11
119.9415809609
 21
211.1750040163
  0
LINE
  8
0
 62
7
  6
CONTINUOUS
 10
119.9428181086
 20
211.1784671364
 11
119.7592254899
 21
210.6841317018
  0
POLYLINE
  8
0
 62
7
  6
CONTINUOUS
 66
1
 70
0
  0
VERTEX
  8
0
 62
7
  6
CONTINUOUS
 10
119.7603628156
 20
210.6870828052
  0
VERTEX
  8
0
 62
7
  6
CONTINUOUS
 10
119.6209356174
 20
210.334229668
  0
VERTEX
  8
0
 62
7
  6
CONTINUOUS
 10
119.5354722968
 20
210.1260631259
  0
SEQEND
  0
POLYLINE
  8
0
 62
7
  6
CONTINUOUS
 66
1
 70
0
  0
VERTEX
  8
0
 62
7
  6
CONTINUOUS
 10
119.6218568473
 20
210.3365053131
  0
VERTEX
  8
0
 62
7
  6
CONTINUOUS
 10
119.5357753699
 20
210.1267881781
  0
VERTEX
  8
0
 62
7
  6
CONTINUOUS
 10
119.5067109643
 20
210.0572563951
  0
SEQEND
  0
LINE
  8
DEFAULT_1
 62
2
  6
CENTER
 10
117.7832622406
 20
216.4909836066
 11
152.9832623507
 21
216.4909836066
  0
LINE
  8
DEFAULT_1
 62
2
  6
CENTER
 10
135.3832622951
 20
203.3909836066
 11
135.3832622951
 21
236.5909836066
  0
LINE
  8
0
 62
7
  6
CONTINUOUS
 10
151.2598136095
 20
210.057256434
 11
151.2307575361
 21
210.1267681946
  0
POLYLINE
  8
0
 62
7
  6
CONTINUOUS
 66
1
 70
0
  0
VERTEX
  8
0
 62
7
  6
CONTINUOUS
 10
151.2310479852
 20
210.126073344
  0
VERTEX
  8
0
 62
7
  6
CONTINUOUS
 10
151.144700947
 20
210.3364232792
  0
VERTEX
  8
0
 62
7
  6
CONTINUOUS
 10
151.0062327662
 20
210.6868985604
  0
SEQEND
  0
LINE
  8
0
 62
7
  6
CONTINUOUS
 10
151.1455557669
 20
210.3343116821
 11
151.0072282391
 21
210.6843155339
  0
LINE
  8
0
 62
7
  6
CONTINUOUS
 10
151.0072282391
 20
210.6843155339
 11
150.8238214879
 21
211.1781451184
  0
LINE
  8
0
 62
7
  6
CONTINUOUS
 10
150.8248286402
 20
211.1753258208
 11
150.6119427349
 21
211.8038861901
  0
LINE
  8
0
 62
7
  6
CONTINUOUS
 10
150.6128389636
 20
211.8010843088
 11
150.501525967
 21
212.1614725246
  0
POLYLINE
  8
0
 62
7
  6
CONTINUOUS
 66
1
 70
0
  0
VERTEX
  8
0
 62
7
  6
CONTINUOUS
 10
150.5023098691
 20
212.1588400554
  0
VERTEX
  8
0
 62
7
  6
CONTINUOUS
 10
150.2871771268
 20
212.9473227458
  0
VERTEX
  8
0
 62
7
  6
CONTINUOUS
 10
150.1002687087
 20
213.8002322573
  0
SEQEND
  0
LINE
  8
0
 62
7
  6
CONTINUOUS
 10
150.2876948029
 20
212.9452311691
 11
150.1005205362
 21
213.7989103673
  0
LINE
  8
0
 62
7
  6
CONTINUOUS
 10
149.9582493212
 20
214.6886732104
 11
149.8704340101
 21
215.5960798365
  0
LINE
  8
0
 62
7
  6
CONTINUOUS
 10
149.8704340101
 20
215.5960798365
 11
149.8415637834
 21
216.4909836063
  0
LINE
  8
0
 62
7
  6
CONTINUOUS
 10
149.8415637837
 20
216.4909836069
 11
149.8704421202
 21
217.3861258084
  0
LINE
  8
0
 62
7
  6
CONTINUOUS
 10
150.100277299
 20
219.1817800484
 11
150.2876784259
 21
220.0366698878
  0
LINE
  8
0
 62
7
  6
CONTINUOUS
 10
150.2871896196
 20
220.034694959
 11
150.5022901658
 21
220.8230610014
  0
LINE
  8
0
 62
7
  6
CONTINUOUS
 10
150.5015405875
 20
220.8205438071
 11
150.6128184937
 21
221.180818918
  0
LINE
  8
0
 62
7
  6
CONTINUOUS
 10
150.6119577006
 20
221.1781278309
 11
150.8248081839
 21
221.8065841345
  0
LINE
  8
0
 62
7
  6
CONTINUOUS
 10
150.8238361977
 20
221.8038632891
 11
151.0072095918
 21
222.297603295
  0
LINE
  8
0
 62
7
  6
CONTINUOUS
 10
151.0062460078
 20
222.2951030262
 11
151.1455420265
 21
222.6476215879
  0
LINE
  8
0
 62
7
  6
CONTINUOUS
 10
151.1447103026
 20
222.6455670535
 11
151.2311361742
 21
222.8561088518
  0
LINE
  8
0
 62
7
  6
CONTINUOUS
 10
151.2307611248
 20
222.855207648
 11
151.2598161587
 21
222.9247168449
  0
LINE
  8
0
 62
7
  6
CONTINUOUS
 10
150.1005205362
 20
213.7989103673
 11
149.9581917913
 21
214.6891195245
  0
LINE
  8
0
 62
7
  6
CONTINUOUS
 10
151.2832622951
 20
206.3909836066
 11
151.2832622951
 21
209.941046867
  0
LINE
  8
0
 62
7
  6
CONTINUOUS
 10
151.2832622951
 20
223.0409237061
 11
151.2832622951
 21
233.5909836066
  0
LINE
  8
0
 62
7
  6
CONTINUOUS
 10
149.8704111469
 20
217.3856454279
 11
149.9582442062
 21
218.2932543401
  0
LINE
  8
0
 62
7
  6
CONTINUOUS
 10
149.9581957622
 20
218.2928784697
 11
150.1005095013
 21
219.1829989374
  0
LINE
  8
0
 62
7
  6
CONTINUOUS
 10
120.4835978693
 20
234.5909836066
 11
150.2829267208
 21
234.5909836066
  0
LINE
  8
0
 62
7
  6
CONTINUOUS
 10
42.2375
 20
135.6095801461
 11
42.2375
 21
118.2199280506
  0
LINE
  8
DEFAULT_1
 62
2
  6
CENTER
 10
55.3375
 20
109.3147540428
 11
55.3375
 21
144.5147541529
  0
LINE
  8
DEFAULT_1
 62
2
  6
CENTER
 10
59.7375
 20
126.9147540984
 11
57.3376
 21
126.9147540984
  0
LINE
  8
0
 62
2
  6
CONTINUOUS
 10
56.2175
 20
126.9147540984
 11
54.4575
 21
126.9147540984
  0
LINE
  8
DEFAULT_1
 62
2
  6
CENTER
 10
50.9375
 20
126.9147540984
 11
53.3374
 21
126.9147540984
  0
ARC
  8
0
 62
7
  6
CONTINUOUS
 10
55.2375
 20
221.5909836066
 40
13.0
 50
90.0
 51
180.0
  0
ARC
  8
0
 62
7
  6
CONTINUOUS
 10
70.2375
 20
206.3909836066
 40
1.0
 50
270.0
 51
360.0
  0
ARC
  8
0
 62
7
  6
CONTINUOUS
 10
70.2375
 20
233.5909836066
 40
1.0
 50
0.0
 51
90.0000000001
  0
ARC
  8
0
 62
7
  6
CONTINUOUS
 10
43.2375
 20
206.3909836066
 40
1.0
 50
180.0
 51
270.0
  0
ARC
  8
0
 62
7
  6
CONTINUOUS
 10
150.2832622951
 20
233.5909836066
 40
1.0
 50
0.0
 51
89.9999997935
  0
ARC
  8
0
 62
7
  6
CONTINUOUS
 10
120.4832622951
 20
233.5909836066
 40
1.0
 50
90.0000002065
 51
180.0
  0
ARC
  8
0
 62
7
  6
CONTINUOUS
 10
150.2832622951
 20
206.3909836066
 40
1.0
 50
270.0
 51
360.0
  0
ARC
  8
0
 62
7
  6
CONTINUOUS
 10
120.4832622951
 20
206.3909836066
 40
1.0
 50
180.0
 51
270.0
  0
ARC
  8
0
 62
7
  6
CONTINUOUS
 10
119.7832622966
 20
223.0409836051
 40
0.2999999999
 50
180.0000000021
 51
202.8025114427
  0
ARC
  8
0
 62
7
  6
CONTINUOUS
 10
119.7832622953
 20
209.9409836068
 40
0.3
 50
157.1962475346
 51
179.9999999997
  0
ARC
  8
0
 62
7
  6
CONTINUOUS
 10
150.9832622936
 20
223.0409836051
 40
0.2999999999
 50
337.1974964207
 51
359.999999998
  0
ARC
  8
0
 62
7
  6
CONTINUOUS
 10
150.9832622949
 20
209.9409836068
 40
0.3
 50
0.0000000003
 51
22.8037605171
  0
ARC
  8
0
 62
7
  6
CONTINUOUS
 10
43.2375
 20
118.2199280506
 40
1.0
 50
180.0
 51
215.7002935741
  0
ARC
  8
0
 62
7
  6
CONTINUOUS
 10
43.2375
 20
135.6095801461
 40
1.0
 50
144.2997064259
 51
180.0
  0
ARC
  8
0
 62
7
  6
CONTINUOUS
 10
55.3375
 20
126.9147540984
 40
15.9
 50
215.7002935741
 51
144.2997064259
  0
ENDSEC
  0
EOF
