  0
SECTION
  2
HEADER
  9
$EXTMAX
 10
420.0
 20
297.0
 30
0.0
  9
$EXTMIN
 10
0.0
 20
0.0
 30
0.0
  9
$LIMMIN
 10
0.0
 20
0.0
  9
$LIMMAX
 10
420.0
 20
297.0
  9
$VIEWCTR
 10
210.0
 20
148.5
  9
$VIEWSIZE
 40
297.0
  9
$CLAYER
  8
0
  9
$LTSCALE
 40
23.1
  9
$CELTYPE
  6
BYLAYER
  9
$DIMSCALE
 40
1.0
  9
$DIMASZ
 40
3.5
  9
$DIMEXO
 40
1.0
  9
$DIMDLI
 40
15.96
  9
$DIMEXE
 40
2.0
  9
$DIMCEN
 40
3.78
  9
$DIMLFAC
 40
1.0
  9
$DIMBLK
  1
_FILLED
  9
$DIMALT
 70
0
  9
$DIMALTF
 40
0.0393700787
  9
$DIMTXT
 40
3.5
  9
$AUNITS
 70
0
  9
$PDMODE
 70
3
  9
$PDSIZE
 40
0.3125
  9
$TILEMODE
 70
1
  0
ENDSEC
  0
SECTION
  2
TABLES
  0
TABLE
  2
LTYPE
 70
6
  0
LTYPE
  2
BYBLOCK
 70
0
  3

 72
65
 73
0
 40
0.0
  0
LTYPE
  2
BYLAYER
 70
0
  3

 72
65
 73
0
 40
0.0
  0
LTYPE
  2
CONTINUOUS
 70
64
  3
Solid line
 72
65
 73
0
 40
0.0
  0
LTYPE
  2
CENTER
 70
64
  3
____ _ ____ _ ____ _ ____ _ ____ _ ____ _ ____
 72
65
 73
4
 40
0.6
 49
0.375
 49
-0.075
 49
0.075
 49
-0.075
  0
LTYPE
  2
HIDDEN
 70
64
  3
- - - - - - - - - - - - - - - - - - - -
 72
65
 73
2
 40
0.2
 49
0.1
 49
-0.1
  0
LTYPE
  2
PHANTOM
 70
64
  3
_____ _ _ _____ _ _ _____ _ _ _____
 72
65
 73
6
 40
0.8
 49
0.45
 49
-0.05
 49
0.1
 49
-0.05
 49
0.1
 49
-0.05
  0
LTYPE
  2
DOT
 70
64
  3
. . . . . . . . . . . . . . . . . . . .
 72
65
 73
2
 40
0.2
 49
0.1
 49
-0.1
  0
LTYPE
  2
DASHED
 70
64
  3
- - - - - - - - - - - - - - - - - - - -
 72
65
 73
2
 40
0.2
 49
0.1
 49
-0.1
  0
ENDTAB
  0
TABLE
  2
LAYER
 70
36
  0
LAYER
  2
0
 70
0
 62
7
  6
CONTINUOUS
  0
LAYER
  2
DEFAULT_1
 70
0
 62
7
  6
CENTER
  0
LAYER
  2
DEFAULT_2
 70
0
 62
8
  6
HIDDEN
  0
LAYER
  2
DEFAULT_3
 70
0
 62
7
  6
PHANTOM
  0
LAYER
  2
1_AXIS
 70
0
 62
7
  6
CONTINUOUS
  0
LAYER
  2
1_DATUM_PLANE
 70
0
 62
7
  6
CONTINUOUS
  0
LAYER
  2
2_FEATURE
 70
0
 62
7
  6
CONTINUOUS
  0
LAYER
  2
4_QUILT
 70
0
 62
7
  6
CONTINUOUS
  0
LAYER
  2
6_DIM
 70
0
 62
7
  6
CONTINUOUS
  0
LAYER
  2
AXES
 70
0
 62
7
  6
CONTINUOUS
  0
LAYER
  2
BLANK_COM
 70
0
 62
7
  6
CONTINUOUS
  0
LAYER
  2
CSYS
 70
0
 62
7
  6
CONTINUOUS
  0
LAYER
  2
CURVES
 70
0
 62
7
  6
CONTINUOUS
  0
LAYER
  2
NOTES
 70
0
 62
7
  6
CONTINUOUS
  0
LAYER
  2
PLANES
 70
0
 62
7
  6
CONTINUOUS
  0
LAYER
  2
QUILTS
 70
0
 62
7
  6
CONTINUOUS
  0
ENDTAB
  0
TABLE
  2
STYLE
 70
1
  0
STYLE
  2
STANDARD
 70
0
 40
0.0
 41
0.8
 50
0.0
 71
0
 42
0.2
  3
txt
  4

  0
STYLE
  2
TEXTSTYLE_1
 70
0
 40
0.0
 41
0.8
 50
0.0
 71
0
 42
0.2
  3
gdt
  4

  0
STYLE
  2
TEXTSTYLE_2
 70
0
 40
0.0
 41
0.6
 50
0.0
 71
0
 42
0.2
  3
txt
  4

  0
STYLE
  2
TEXTSTYLE_3
 70
0
 40
0.0
 41
1.0
 50
0.0
 71
0
 42
0.2
  3
ftb_____.ttf
  4

  0
STYLE
  2
TEXTSTYLE_4
 70
0
 40
0.0
 41
1.0
 50
0.0
 71
0
 42
0.2
  3
fti_____.ttf
  4

  0
STYLE
  2
TEXTSTYLE_5
 70
0
 40
0.0
 41
1.0
 50
0.0
 71
0
 42
0.2
  3
frutiger light.ttf
  4

  0
STYLE
  2
TEXTSTYLE_6
 70
0
 40
0.0
 41
0.7
 50
0.0
 71
0
 42
0.2
  3
txt
  4

  0
STYLE
  2
TEXTSTYLE_7
 70
0
 40
0.0
 41
0.8
 50
0.0
 71
0
 42
0.2
  3
txt
  4

  0
ENDTAB
  0
ENDSEC
  0
SECTION
  2
BLOCKS
  0
BLOCK
  8
0
 62
2
  6
CONTINUOUS
  2
UNI_LOGO2_BL1
 70
64
 10
382.7840918555
 20
35.5067593403
  0
TEXT
  8
0
 62
7
  6
CONTINUOUS
 10
373.842376864
 20
30.5995157174
  7
TEXTSTYLE_4
 40
1.0655737705
  1
The brand for plastic modular belts and chains
 41
1.0
 72
0
  0
LINE
  8
0
 62
7
  6
CONTINUOUS
 10
358.7621602445
 20
36.0805298321
 11
358.7621602445
 21
33.9493822911
  0
LINE
  8
0
 62
7
  6
CONTINUOUS
 10
359.0512227376
 20
30.9584509954
 11
359.0512227376
 21
31.0552420547
  0
LINE
  8
0
 62
7
  6
CONTINUOUS
 10
358.7621602445
 20
31.0229783683
 11
358.8199727462
 21
30.8293962497
  0
LINE
  8
0
 62
7
  6
CONTINUOUS
 10
360.1556028675
 20
33.867415078
 11
360.1556028675
 21
36.0805298321
  0
LINE
  8
0
 62
7
  6
CONTINUOUS
 10
361.0746601894
 20
32.0231527829
 11
361.0746601894
 21
30.5067593403
  0
LINE
  8
0
 62
7
  6
CONTINUOUS
 10
361.3637227445
 20
30.5067593403
 11
361.3637227445
 21
31.2488242184
  0
LINE
  8
0
 62
7
  6
CONTINUOUS
 10
361.3637227445
 20
31.3778789641
 11
361.3637227445
 21
32.0231527829
  0
LINE
  8
0
 62
7
  6
CONTINUOUS
 10
358.8199727462
 20
31.216560532
 11
358.7621602445
 21
31.0229783683
  0
LINE
  8
0
 62
7
  6
CONTINUOUS
 10
359.1668477307
 20
30.7971325633
 11
359.0512227376
 21
30.9584509954
  0
LINE
  8
0
 62
7
  6
CONTINUOUS
 10
360.2652852997
 20
31.3133515913
 11
360.3230977445
 21
31.216560532
  0
LINE
  8
0
 62
7
  6
CONTINUOUS
 10
360.6121602997
 20
31.216560532
 11
360.5543476894
 21
31.3456152777
  0
LINE
  8
0
 62
7
  6
CONTINUOUS
 10
362.0408487691
 20
36.0805298321
 11
362.0408487691
 21
34.2772511436
  0
LINE
  8
0
 62
7
  6
CONTINUOUS
 10
362.0408487691
 20
32.9657757338
 11
362.0408487691
 21
32.3100380288
  0
LINE
  8
0
 62
7
  6
CONTINUOUS
 10
362.4043477445
 20
31.1520331591
 11
362.4043477445
 21
30.5067593403
  0
LINE
  8
0
 62
7
  6
CONTINUOUS
 10
362.6934101343
 20
30.5067593403
 11
362.6934101343
 21
31.1520331591
  0
LINE
  8
0
 62
7
  6
CONTINUOUS
 10
359.0512227376
 20
31.0552420547
 11
359.1090352445
 21
31.1842968456
  0
LINE
  8
0
 62
7
  6
CONTINUOUS
 10
358.8199727462
 20
30.8293962497
 11
358.9355977445
 21
30.7003414814
  0
LINE
  8
0
 62
7
  6
CONTINUOUS
 10
362.3465351343
 20
31.2810879048
 11
362.4043477445
 21
31.1520331591
  0
LINE
  8
0
 62
7
  6
CONTINUOUS
 10
363.1559103548
 20
30.7971325633
 11
363.2137226343
 21
30.668077795
  0
LINE
  8
0
 62
7
  6
CONTINUOUS
 10
362.6934101343
 20
31.1520331591
 11
362.6355978548
 21
31.3133515913
  0
LINE
  8
0
 62
7
  6
CONTINUOUS
 10
363.1559103548
 20
31.3456152777
 11
363.1559103548
 21
31.2810879048
  0
LINE
  8
0
 62
7
  6
CONTINUOUS
 10
363.1559103548
 20
30.8939236226
 11
363.1559103548
 21
30.7971325633
  0
LINE
  8
0
 62
7
  6
CONTINUOUS
 10
363.4342913921
 20
32.3100380288
 11
363.4342913921
 21
36.0805298321
  0
LINE
  8
0
 62
7
  6
CONTINUOUS
 10
363.4449727445
 20
30.7648688543
 11
363.4449727445
 21
30.8293962497
  0
LINE
  8
0
 62
7
  6
CONTINUOUS
 10
363.7621602445
 20
36.0805298321
 11
363.7621602445
 21
32.3100380288
  0
LINE
  8
0
 62
7
  6
CONTINUOUS
 10
360.5543476894
 20
30.7003414814
 11
360.6121602997
 21
30.8293962497
  0
LINE
  8
0
 62
7
  6
CONTINUOUS
 10
364.9480979651
 20
30.6035504109
 11
364.890285024
 21
30.7648688543
  0
LINE
  8
0
 62
7
  6
CONTINUOUS
 10
364.6012229651
 20
31.2810879048
 11
364.6012229651
 21
31.1842968456
  0
LINE
  8
0
 62
7
  6
CONTINUOUS
 10
364.6012229651
 20
31.0552420547
 11
364.6012229651
 21
30.8616599362
  0
LINE
  8
0
 62
7
  6
CONTINUOUS
 10
364.890285024
 20
30.7648688543
 11
364.890285024
 21
31.2810879048
  0
LINE
  8
0
 62
7
  6
CONTINUOUS
 10
365.1556028675
 20
32.3100380288
 11
365.1556028675
 21
34.1133167174
  0
LINE
  8
0
 62
7
  6
CONTINUOUS
 10
365.1556028675
 20
35.4247921272
 11
365.1556028675
 21
36.0805298321
  0
LINE
  8
0
 62
7
  6
CONTINUOUS
 10
365.4684104651
 20
32.0231527829
 11
365.4684104651
 21
31.8618343508
  0
LINE
  8
0
 62
7
  6
CONTINUOUS
 10
365.4684104651
 20
31.5391973962
 11
365.4684104651
 21
30.5067593403
  0
LINE
  8
0
 62
7
  6
CONTINUOUS
 10
365.757472524
 20
30.5067593403
 11
365.757472524
 21
31.5391973962
  0
LINE
  8
0
 62
7
  6
CONTINUOUS
 10
365.757472524
 20
31.8618343508
 11
365.757472524
 21
32.0231527829
  0
LINE
  8
0
 62
7
  6
CONTINUOUS
 10
360.3230977445
 20
30.8293962497
 11
360.2652852997
 21
30.7326051679
  0
LINE
  8
0
 62
7
  6
CONTINUOUS
 10
362.6355978548
 20
31.3133515913
 11
362.5777852445
 21
31.3778789641
  0
LINE
  8
0
 62
7
  6
CONTINUOUS
 10
363.5027853548
 20
30.7003414814
 11
363.4449727445
 21
30.7648688543
  0
LINE
  8
0
 62
7
  6
CONTINUOUS
 10
364.6590352445
 20
30.5712867188
 11
364.716847524
 21
30.5067593403
  0
LINE
  8
0
 62
7
  6
CONTINUOUS
 10
364.6012229651
 20
30.668077795
 11
364.6590352445
 21
30.5712867188
  0
LINE
  8
0
 62
7
  6
CONTINUOUS
 10
365.0059102445
 20
30.5067593403
 11
364.9480979651
 21
30.6035504109
  0
LINE
  8
0
 62
7
  6
CONTINUOUS
 10
364.890285024
 20
31.2810879048
 11
364.8324727445
 21
31.3778789641
  0
LINE
  8
0
 62
7
  6
CONTINUOUS
 10
366.2199727445
 20
31.5391973962
 11
366.2199727445
 21
30.5067593403
  0
LINE
  8
0
 62
7
  6
CONTINUOUS
 10
366.5090354651
 20
30.5067593403
 11
366.5090354651
 21
31.2488242184
  0
LINE
  8
0
 62
7
  6
CONTINUOUS
 10
366.5090354651
 20
31.3778789641
 11
366.5090354651
 21
31.5391973962
  0
LINE
  8
0
 62
7
  6
CONTINUOUS
 10
367.0408487691
 20
34.5231527829
 11
367.0408487691
 21
32.3100380288
  0
LINE
  8
0
 62
7
  6
CONTINUOUS
 10
358.9355977445
 20
31.3456152777
 11
358.8199727462
 21
31.216560532
  0
LINE
  8
0
 62
7
  6
CONTINUOUS
 10
359.1090352445
 20
31.1842968456
 11
359.1668477307
 21
31.2488242184
  0
LINE
  8
0
 62
7
  6
CONTINUOUS
 10
358.9355977445
 20
30.7003414814
 11
359.0512227376
 21
30.6358140973
  0
LINE
  8
0
 62
7
  6
CONTINUOUS
 10
359.3402852307
 20
30.7003414814
 11
359.1668477307
 21
30.7971325633
  0
LINE
  8
0
 62
7
  6
CONTINUOUS
 10
364.543410024
 20
31.3456152777
 11
364.6012229651
 21
31.2810879048
  0
LINE
  8
0
 62
7
  6
CONTINUOUS
 10
367.491847524
 20
31.2810879048
 11
367.5496604651
 21
31.1197694727
  0
LINE
  8
0
 62
7
  6
CONTINUOUS
 10
367.838722524
 20
31.1197694727
 11
367.7809102445
 21
31.2810879048
  0
LINE
  8
0
 62
7
  6
CONTINUOUS
 10
367.5496604651
 20
31.1197694727
 11
367.5496604651
 21
30.5067593403
  0
LINE
  8
0
 62
7
  6
CONTINUOUS
 10
367.838722524
 20
30.5067593403
 11
367.838722524
 21
31.1197694727
  0
LINE
  8
0
 62
7
  6
CONTINUOUS
 10
368.3012227445
 20
31.3456152777
 11
368.3012227445
 21
31.2810879048
  0
LINE
  8
0
 62
7
  6
CONTINUOUS
 10
368.4342913921
 20
32.3100380288
 11
368.4342913921
 21
34.4411855698
  0
LINE
  8
0
 62
7
  6
CONTINUOUS
 10
368.7621602445
 20
36.0805298321
 11
368.7621602445
 21
32.3100380288
  0
LINE
  8
0
 62
7
  6
CONTINUOUS
 10
363.4449727445
 20
30.8293962497
 11
363.5027853548
 21
30.926187309
  0
LINE
  8
0
 62
7
  6
CONTINUOUS
 10
359.0512227376
 20
30.6358140973
 11
359.2246602583
 21
30.5712867188
  0
LINE
  8
0
 62
7
  6
CONTINUOUS
 10
360.5543476894
 20
31.3456152777
 11
360.3809101894
 21
31.4424063369
  0
LINE
  8
0
 62
7
  6
CONTINUOUS
 10
363.2137226343
 20
30.668077795
 11
363.3871601343
 21
30.5712867188
  0
LINE
  8
0
 62
7
  6
CONTINUOUS
 10
362.2309102445
 20
31.3456152777
 11
362.3465351343
 21
31.2810879048
  0
LINE
  8
0
 62
7
  6
CONTINUOUS
 10
362.5777852445
 20
31.3778789641
 11
362.4621603548
 21
31.4424063369
  0
LINE
  8
0
 62
7
  6
CONTINUOUS
 10
368.3012227445
 20
30.7648688543
 11
368.4168479651
 21
30.6358140973
  0
LINE
  8
0
 62
7
  6
CONTINUOUS
 10
368.6480977445
 20
30.7003414814
 11
368.5902854651
 21
30.7648688543
  0
LINE
  8
0
 62
7
  6
CONTINUOUS
 10
368.3012227445
 20
31.2810879048
 11
368.4168479651
 21
31.1520331591
  0
LINE
  8
0
 62
7
  6
CONTINUOUS
 10
367.7809102445
 20
31.2810879048
 11
367.7230979651
 21
31.3778789641
  0
LINE
  8
0
 62
7
  6
CONTINUOUS
 10
370.1512223035
 20
30.7003414814
 11
370.1512223035
 21
30.7648688543
  0
LINE
  8
0
 62
7
  6
CONTINUOUS
 10
370.1556028675
 20
32.3100380288
 11
370.1556028675
 21
36.0805298321
  0
LINE
  8
0
 62
7
  6
CONTINUOUS
 10
363.2137226343
 20
31.4101426505
 11
363.1559103548
 21
31.3456152777
  0
LINE
  8
0
 62
7
  6
CONTINUOUS
 10
360.091847717
 20
31.3778789641
 11
360.2652852997
 21
31.3133515913
  0
LINE
  8
0
 62
7
  6
CONTINUOUS
 10
364.8324727445
 20
31.3778789641
 11
364.716847524
 21
31.4424063369
  0
LINE
  8
0
 62
7
  6
CONTINUOUS
 10
368.6480977445
 20
31.216560532
 11
368.5902854651
 21
31.2810879048
  0
LINE
  8
0
 62
7
  6
CONTINUOUS
 10
369.8043479651
 20
30.8293962497
 11
369.8621602445
 21
30.7648688543
  0
LINE
  8
0
 62
7
  6
CONTINUOUS
 10
370.1512223035
 20
30.7648688543
 11
370.0355977445
 21
30.8939236226
  0
LINE
  8
0
 62
7
  6
CONTINUOUS
 10
369.8043479651
 20
31.3456152777
 11
369.8621602445
 21
31.2810879048
  0
LINE
  8
0
 62
7
  6
CONTINUOUS
 10
370.1512223035
 20
31.2810879048
 11
370.0355977445
 21
31.4101426505
  0
LINE
  8
0
 62
7
  6
CONTINUOUS
 10
363.4449727445
 20
31.2810879048
 11
363.5027853548
 21
31.3456152777
  0
LINE
  8
0
 62
7
  6
CONTINUOUS
 10
363.2715352445
 20
31.0229783683
 11
363.1559103548
 21
30.8939236226
  0
LINE
  8
0
 62
7
  6
CONTINUOUS
 10
364.6012229651
 20
30.8616599362
 11
364.543410024
 21
30.7971325633
  0
LINE
  8
0
 62
7
  6
CONTINUOUS
 10
364.543410024
 20
30.6035504109
 11
364.6012229651
 21
30.668077795
  0
LINE
  8
0
 62
7
  6
CONTINUOUS
 10
363.3871601343
 20
30.5712867188
 11
363.5027853548
 21
30.5390230296
  0
LINE
  8
0
 62
7
  6
CONTINUOUS
 10
360.3809101894
 20
31.4424063369
 11
360.1496602445
 21
31.5069337098
  0
LINE
  8
0
 62
7
  6
CONTINUOUS
 10
363.7340351343
 20
30.6358140973
 11
363.5027853548
 21
30.7003414814
  0
LINE
  8
0
 62
7
  6
CONTINUOUS
 10
362.4621603548
 20
31.4424063369
 11
362.2887228548
 21
31.5069337098
  0
LINE
  8
0
 62
7
  6
CONTINUOUS
 10
364.716847524
 20
31.4424063369
 11
364.543410024
 21
31.5069337098
  0
LINE
  8
0
 62
7
  6
CONTINUOUS
 10
367.3762229651
 20
31.3456152777
 11
367.491847524
 21
31.2810879048
  0
LINE
  8
0
 62
7
  6
CONTINUOUS
 10
367.7230979651
 20
31.3778789641
 11
367.6074727445
 21
31.4424063369
  0
LINE
  8
0
 62
7
  6
CONTINUOUS
 10
359.2246602583
 20
30.5712867188
 11
359.3980977583
 21
30.5390230296
  0
LINE
  8
0
 62
7
  6
CONTINUOUS
 10
359.6871602721
 20
30.6358140973
 11
359.3402852307
 21
30.7003414814
  0
LINE
  8
0
 62
7
  6
CONTINUOUS
 10
362.1152853548
 20
31.3778789641
 11
362.2309102445
 21
31.3456152777
  0
LINE
  8
0
 62
7
  6
CONTINUOUS
 10
364.4277854651
 20
31.3778789641
 11
364.543410024
 21
31.3456152777
  0
LINE
  8
0
 62
7
  6
CONTINUOUS
 10
368.7637229651
 20
30.668077795
 11
368.6480977445
 21
30.7003414814
  0
LINE
  8
0
 62
7
  6
CONTINUOUS
 10
367.2605977445
 20
31.3778789641
 11
367.3762229651
 21
31.3456152777
  0
LINE
  8
0
 62
7
  6
CONTINUOUS
 10
368.4168479651
 20
30.6358140973
 11
368.5902854651
 21
30.5712867188
  0
LINE
  8
0
 62
7
  6
CONTINUOUS
 10
367.6074727445
 20
31.4424063369
 11
367.4340352445
 21
31.5069337098
  0
LINE
  8
0
 62
7
  6
CONTINUOUS
 10
368.8215352445
 20
31.1520331591
 11
368.6480977445
 21
31.216560532
  0
LINE
  8
0
 62
7
  6
CONTINUOUS
 10
369.6309104651
 20
30.8939236226
 11
369.8043479651
 21
30.8293962497
  0
LINE
  8
0
 62
7
  6
CONTINUOUS
 10
370.0355977445
 20
31.4101426505
 11
369.8621602445
 21
31.4746700234
  0
LINE
  8
0
 62
7
  6
CONTINUOUS
 10
368.4168479651
 20
31.1520331591
 11
368.6480977445
 21
31.0552420547
  0
LINE
  8
0
 62
7
  6
CONTINUOUS
 10
370.0355977445
 20
30.8939236226
 11
369.8043479651
 21
30.9907146818
  0
LINE
  8
0
 62
7
  6
CONTINUOUS
 10
368.5902854651
 20
31.2810879048
 11
368.6480977445
 21
31.3456152777
  0
LINE
  8
0
 62
7
  6
CONTINUOUS
 10
359.0512227376
 20
31.4101426505
 11
358.9355977445
 21
31.3456152777
  0
LINE
  8
0
 62
7
  6
CONTINUOUS
 10
359.1668477307
 20
31.2488242184
 11
359.3402852307
 21
31.3456152777
  0
LINE
  8
0
 62
7
  6
CONTINUOUS
 10
361.4793477997
 20
31.4424063369
 11
361.3637227445
 21
31.3778789641
  0
LINE
  8
0
 62
7
  6
CONTINUOUS
 10
361.3637227445
 20
31.2488242184
 11
361.4793477997
 21
31.3133515913
  0
LINE
  8
0
 62
7
  6
CONTINUOUS
 10
360.3809101894
 20
30.6035504109
 11
360.5543476894
 21
30.7003414814
  0
LINE
  8
0
 62
7
  6
CONTINUOUS
 10
359.3980977583
 20
30.5390230296
 11
359.744972717
 21
30.5067593403
  0
LINE
  8
0
 62
7
  6
CONTINUOUS
 10
363.5027853548
 20
30.5390230296
 11
363.7340351343
 21
30.5067593403
  0
LINE
  8
0
 62
7
  6
CONTINUOUS
 10
361.8840352445
 20
31.4101426505
 11
362.1152853548
 21
31.3778789641
  0
LINE
  8
0
 62
7
  6
CONTINUOUS
 10
364.1965353548
 20
31.4101426505
 11
364.4277854651
 21
31.3778789641
  0
LINE
  8
0
 62
7
  6
CONTINUOUS
 10
368.6480977445
 20
31.0552420547
 11
369.6309104651
 21
30.8939236226
  0
LINE
  8
0
 62
7
  6
CONTINUOUS
 10
369.8043479651
 20
30.9907146818
 11
368.8215352445
 21
31.1520331591
  0
LINE
  8
0
 62
7
  6
CONTINUOUS
 10
362.2887228548
 20
31.5069337098
 11
362.1152853548
 21
31.5391973962
  0
LINE
  8
0
 62
7
  6
CONTINUOUS
 10
368.5902854651
 20
30.5712867188
 11
368.7637229651
 21
30.5390230296
  0
LINE
  8
0
 62
7
  6
CONTINUOUS
 10
367.4340352445
 20
31.5069337098
 11
367.2605977445
 21
31.5391973962
  0
LINE
  8
0
 62
7
  6
CONTINUOUS
 10
369.6887227445
 20
31.3778789641
 11
369.8043479651
 21
31.3456152777
  0
LINE
  8
0
 62
7
  6
CONTINUOUS
 10
369.8621602445
 20
30.7648688543
 11
369.8043479651
 21
30.7003414814
  0
LINE
  8
0
 62
7
  6
CONTINUOUS
 10
368.4168479651
 20
31.4424063369
 11
368.3012227445
 21
31.3456152777
  0
LINE
  8
0
 62
7
  6
CONTINUOUS
 10
363.3293478548
 20
31.4746700234
 11
363.2137226343
 21
31.4101426505
  0
LINE
  8
0
 62
7
  6
CONTINUOUS
 10
363.3871601343
 20
31.0875057863
 11
363.2715352445
 21
31.0229783683
  0
LINE
  8
0
 62
7
  6
CONTINUOUS
 10
363.5027853548
 20
30.926187309
 11
363.6184102445
 21
30.9907146818
  0
LINE
  8
0
 62
7
  6
CONTINUOUS
 10
361.0746601894
 20
30.5067593403
 11
361.3637227445
 21
30.5067593403
  0
LINE
  8
0
 62
7
  6
CONTINUOUS
 10
362.4043477445
 20
30.5067593403
 11
362.6934101343
 21
30.5067593403
  0
LINE
  8
0
 62
7
  6
CONTINUOUS
 10
363.7340351343
 20
30.5067593403
 11
364.0809101343
 21
30.5067593403
  0
LINE
  8
0
 62
7
  6
CONTINUOUS
 10
364.716847524
 20
30.5067593403
 11
365.0059102445
 21
30.5067593403
  0
LINE
  8
0
 62
7
  6
CONTINUOUS
 10
365.4684104651
 20
30.5067593403
 11
365.757472524
 21
30.5067593403
  0
LINE
  8
0
 62
7
  6
CONTINUOUS
 10
366.2199727445
 20
30.5067593403
 11
366.5090354651
 21
30.5067593403
  0
LINE
  8
0
 62
7
  6
CONTINUOUS
 10
367.5496604651
 20
30.5067593403
 11
367.838722524
 21
30.5067593403
  0
LINE
  8
0
 62
7
  6
CONTINUOUS
 10
369.1105979651
 20
30.5067593403
 11
369.4574729651
 21
30.5067593403
  0
LINE
  8
0
 62
7
  6
CONTINUOUS
 10
369.4574729651
 20
30.6358140973
 11
369.1105979651
 21
30.6358140973
  0
LINE
  8
0
 62
7
  6
CONTINUOUS
 10
364.0809101343
 20
30.6358140973
 11
363.7340351343
 21
30.6358140973
  0
LINE
  8
0
 62
7
  6
CONTINUOUS
 10
368.5902854651
 20
30.7648688543
 11
368.3012227445
 21
30.7648688543
  0
LINE
  8
0
 62
7
  6
CONTINUOUS
 10
360.6121602997
 20
30.8293962497
 11
360.3230977445
 21
30.8293962497
  0
LINE
  8
0
 62
7
  6
CONTINUOUS
 10
359.6871602721
 20
31.4101426505
 11
360.091847717
 21
31.3778789641
  0
LINE
  8
0
 62
7
  6
CONTINUOUS
 10
360.1496602445
 20
31.5069337098
 11
359.744972717
 21
31.5391973962
  0
LINE
  8
0
 62
7
  6
CONTINUOUS
 10
368.7637229651
 20
30.5390230296
 11
369.1105979651
 21
30.5067593403
  0
LINE
  8
0
 62
7
  6
CONTINUOUS
 10
369.1105979651
 20
30.6358140973
 11
368.7637229651
 21
30.668077795
  0
LINE
  8
0
 62
7
  6
CONTINUOUS
 10
364.543410024
 20
31.5069337098
 11
364.1965353548
 21
31.5391973962
  0
LINE
  8
0
 62
7
  6
CONTINUOUS
 10
369.3418477445
 20
31.4101426505
 11
369.6887227445
 21
31.3778789641
  0
LINE
  8
0
 62
7
  6
CONTINUOUS
 10
369.6887227445
 20
31.5069337098
 11
369.3418477445
 21
31.5391973962
  0
LINE
  8
0
 62
7
  6
CONTINUOUS
 10
367.0293479651
 20
31.4101426505
 11
367.2605977445
 21
31.3778789641
  0
LINE
  8
0
 62
7
  6
CONTINUOUS
 10
369.8621602445
 20
31.4746700234
 11
369.6887227445
 21
31.5069337098
  0
LINE
  8
0
 62
7
  6
CONTINUOUS
 10
370.0355977445
 20
30.6035504109
 11
370.1512223035
 21
30.7003414814
  0
LINE
  8
0
 62
7
  6
CONTINUOUS
 10
364.543410024
 20
30.7971325633
 11
364.369972524
 21
30.7003414814
  0
LINE
  8
0
 62
7
  6
CONTINUOUS
 10
366.624660024
 20
31.4424063369
 11
366.5090354651
 21
31.3778789641
  0
LINE
  8
0
 62
7
  6
CONTINUOUS
 10
366.5090354651
 20
31.2488242184
 11
366.624660024
 21
31.3133515913
  0
LINE
  8
0
 62
7
  6
CONTINUOUS
 10
359.2246602583
 20
31.4746700234
 11
359.0512227376
 21
31.4101426505
  0
LINE
  8
0
 62
7
  6
CONTINUOUS
 10
361.6527851343
 20
31.5069337098
 11
361.4793477997
 21
31.4424063369
  0
LINE
  8
0
 62
7
  6
CONTINUOUS
 10
361.4793477997
 20
31.3133515913
 11
361.6527851343
 21
31.3778789641
  0
LINE
  8
0
 62
7
  6
CONTINUOUS
 10
360.2652852997
 20
30.7326051679
 11
360.091847717
 21
30.668077795
  0
LINE
  8
0
 62
7
  6
CONTINUOUS
 10
369.6887227445
 20
30.668077795
 11
369.4574729651
 21
30.6358140973
  0
LINE
  8
0
 62
7
  6
CONTINUOUS
 10
364.0809101343
 20
30.5067593403
 11
364.369972524
 21
30.5390230296
  0
LINE
  8
0
 62
7
  6
CONTINUOUS
 10
369.4574729651
 20
30.5067593403
 11
369.8043479651
 21
30.5390230296
  0
LINE
  8
0
 62
7
  6
CONTINUOUS
 10
359.744972717
 20
30.5067593403
 11
360.1496602445
 21
30.5390230296
  0
LINE
  8
0
 62
7
  6
CONTINUOUS
 10
360.091847717
 20
30.668077795
 11
359.6871602721
 21
30.6358140973
  0
LINE
  8
0
 62
7
  6
CONTINUOUS
 10
363.9652852445
 20
31.0552420547
 11
364.6012229651
 21
31.0552420547
  0
LINE
  8
0
 62
7
  6
CONTINUOUS
 10
364.6012229651
 20
31.1842968456
 11
363.9652852445
 21
31.1842968456
  0
LINE
  8
0
 62
7
  6
CONTINUOUS
 10
360.3230977445
 20
31.216560532
 11
360.6121602997
 21
31.216560532
  0
LINE
  8
0
 62
7
  6
CONTINUOUS
 10
363.1559103548
 20
31.2810879048
 11
363.4449727445
 21
31.2810879048
  0
LINE
  8
0
 62
7
  6
CONTINUOUS
 10
369.8621602445
 20
31.2810879048
 11
370.1512223035
 21
31.2810879048
  0
LINE
  8
0
 62
7
  6
CONTINUOUS
 10
363.8496603548
 20
31.4101426505
 11
364.1965353548
 21
31.4101426505
  0
LINE
  8
0
 62
7
  6
CONTINUOUS
 10
368.9949727445
 20
31.4101426505
 11
369.3418477445
 21
31.4101426505
  0
LINE
  8
0
 62
7
  6
CONTINUOUS
 10
369.3418477445
 20
31.5391973962
 11
368.9949727445
 21
31.5391973962
  0
LINE
  8
0
 62
7
  6
CONTINUOUS
 10
367.2605977445
 20
31.5391973962
 11
367.0293479651
 21
31.5391973962
  0
LINE
  8
0
 62
7
  6
CONTINUOUS
 10
366.5090354651
 20
31.5391973962
 11
366.2199727445
 21
31.5391973962
  0
LINE
  8
0
 62
7
  6
CONTINUOUS
 10
365.757472524
 20
31.5391973962
 11
365.4684104651
 21
31.5391973962
  0
LINE
  8
0
 62
7
  6
CONTINUOUS
 10
364.1965353548
 20
31.5391973962
 11
363.8496603548
 21
31.5391973962
  0
LINE
  8
0
 62
7
  6
CONTINUOUS
 10
362.1152853548
 20
31.5391973962
 11
361.8840352445
 21
31.5391973962
  0
LINE
  8
0
 62
7
  6
CONTINUOUS
 10
365.4684104651
 20
31.8618343508
 11
365.757472524
 21
31.8618343508
  0
LINE
  8
0
 62
7
  6
CONTINUOUS
 10
365.757472524
 20
32.0231527829
 11
365.4684104651
 21
32.0231527829
  0
LINE
  8
0
 62
7
  6
CONTINUOUS
 10
361.3637227445
 20
32.0231527829
 11
361.0746601894
 21
32.0231527829
  0
LINE
  8
0
 62
7
  6
CONTINUOUS
 10
360.4015045068
 20
32.3100380288
 11
360.8140758554
 21
32.3100380288
  0
LINE
  8
0
 62
7
  6
CONTINUOUS
 10
362.0408487691
 20
32.3100380288
 11
363.4342913921
 21
32.3100380288
  0
LINE
  8
0
 62
7
  6
CONTINUOUS
 10
363.7621602445
 20
32.3100380288
 11
365.1556028675
 21
32.3100380288
  0
LINE
  8
0
 62
7
  6
CONTINUOUS
 10
367.0408487691
 20
32.3100380288
 11
368.4342913921
 21
32.3100380288
  0
LINE
  8
0
 62
7
  6
CONTINUOUS
 10
368.7621602445
 20
32.3100380288
 11
370.1556028675
 21
32.3100380288
  0
LINE
  8
0
 62
7
  6
CONTINUOUS
 10
366.798097524
 20
31.5069337098
 11
366.624660024
 21
31.4424063369
  0
LINE
  8
0
 62
7
  6
CONTINUOUS
 10
364.369972524
 20
30.5390230296
 11
364.543410024
 21
30.6035504109
  0
LINE
  8
0
 62
7
  6
CONTINUOUS
 10
369.8043479651
 20
30.5390230296
 11
370.0355977445
 21
30.6035504109
  0
LINE
  8
0
 62
7
  6
CONTINUOUS
 10
369.8043479651
 20
30.7003414814
 11
369.6887227445
 21
30.668077795
  0
LINE
  8
0
 62
7
  6
CONTINUOUS
 10
368.7637229651
 20
31.3778789641
 11
368.9949727445
 21
31.4101426505
  0
LINE
  8
0
 62
7
  6
CONTINUOUS
 10
366.798097524
 20
31.3778789641
 11
367.0293479651
 21
31.4101426505
  0
LINE
  8
0
 62
7
  6
CONTINUOUS
 10
363.7340351343
 20
31.0229783683
 11
363.9652852445
 21
31.0552420547
  0
LINE
  8
0
 62
7
  6
CONTINUOUS
 10
367.0293479651
 20
31.5391973962
 11
366.798097524
 21
31.5069337098
  0
LINE
  8
0
 62
7
  6
CONTINUOUS
 10
363.6184102445
 20
31.3778789641
 11
363.8496603548
 21
31.4101426505
  0
LINE
  8
0
 62
7
  6
CONTINUOUS
 10
368.9949727445
 20
31.5391973962
 11
368.6480977445
 21
31.5069337098
  0
LINE
  8
0
 62
7
  6
CONTINUOUS
 10
363.9652852445
 20
31.1842968456
 11
363.6184102445
 21
31.1520331591
  0
LINE
  8
0
 62
7
  6
CONTINUOUS
 10
359.744972717
 20
31.5391973962
 11
359.3980977583
 21
31.5069337098
  0
LINE
  8
0
 62
7
  6
CONTINUOUS
 10
363.8496603548
 20
31.5391973962
 11
363.4449727445
 21
31.5069337098
  0
LINE
  8
0
 62
7
  6
CONTINUOUS
 10
361.221176638
 20
33.4575790124
 11
360.565438933
 21
33.4575790124
  0
LINE
  8
0
 62
7
  6
CONTINUOUS
 10
366.624660024
 20
31.3133515913
 11
366.798097524
 21
31.3778789641
  0
LINE
  8
0
 62
7
  6
CONTINUOUS
 10
368.6480977445
 20
31.3456152777
 11
368.7637229651
 21
31.3778789641
  0
LINE
  8
0
 62
7
  6
CONTINUOUS
 10
368.6480977445
 20
31.5069337098
 11
368.4168479651
 21
31.4424063369
  0
LINE
  8
0
 62
7
  6
CONTINUOUS
 10
364.369972524
 20
30.7003414814
 11
364.0809101343
 21
30.6358140973
  0
LINE
  8
0
 62
7
  6
CONTINUOUS
 10
361.6527851343
 20
31.3778789641
 11
361.8840352445
 21
31.4101426505
  0
LINE
  8
0
 62
7
  6
CONTINUOUS
 10
361.8840352445
 20
31.5391973962
 11
361.6527851343
 21
31.5069337098
  0
LINE
  8
0
 62
7
  6
CONTINUOUS
 10
359.4559102445
 20
31.3778789641
 11
359.6871602721
 21
31.4101426505
  0
LINE
  8
0
 62
7
  6
CONTINUOUS
 10
365.9752749986
 20
34.9329888485
 11
366.6310127035
 21
34.9329888485
  0
LINE
  8
0
 62
7
  6
CONTINUOUS
 10
363.6184102445
 20
30.9907146818
 11
363.7340351343
 21
31.0229783683
  0
LINE
  8
0
 62
7
  6
CONTINUOUS
 10
363.6184102445
 20
31.1520331591
 11
363.3871601343
 21
31.0875057863
  0
LINE
  8
0
 62
7
  6
CONTINUOUS
 10
363.5027853548
 20
31.3456152777
 11
363.6184102445
 21
31.3778789641
  0
LINE
  8
0
 62
7
  6
CONTINUOUS
 10
360.1496602445
 20
30.5390230296
 11
360.3809101894
 21
30.6035504109
  0
LINE
  8
0
 62
7
  6
CONTINUOUS
 10
363.4449727445
 20
31.5069337098
 11
363.3293478548
 21
31.4746700234
  0
LINE
  8
0
 62
7
  6
CONTINUOUS
 10
359.3980977583
 20
31.5069337098
 11
359.2246602583
 21
31.4746700234
  0
LINE
  8
0
 62
7
  6
CONTINUOUS
 10
370.1556028675
 20
36.0805298321
 11
368.7621602445
 21
36.0805298321
  0
LINE
  8
0
 62
7
  6
CONTINUOUS
 10
366.7949471298
 20
36.0805298321
 11
366.3823757812
 21
36.0805298321
  0
LINE
  8
0
 62
7
  6
CONTINUOUS
 10
365.1556028675
 20
36.0805298321
 11
363.7621602445
 21
36.0805298321
  0
LINE
  8
0
 62
7
  6
CONTINUOUS
 10
363.4342913921
 20
36.0805298321
 11
362.0408487691
 21
36.0805298321
  0
LINE
  8
0
 62
7
  6
CONTINUOUS
 10
360.1556028675
 20
36.0805298321
 11
358.7621602445
 21
36.0805298321
  0
LINE
  8
0
 62
7
  6
CONTINUOUS
 10
359.3402852307
 20
31.3456152777
 11
359.4559102445
 21
31.3778789641
  0
CIRCLE
  8
0
 62
7
  6
CONTINUOUS
 10
369.458881556
 20
38.4165954059
 40
2.0901639344
  0
ARC
  8
0
 62
7
  6
CONTINUOUS
 10
360.4015045068
 20
33.9493822911
 40
1.6393442623
 50
180.0
 51
270.0
  0
ARC
  8
0
 62
7
  6
CONTINUOUS
 10
366.7949471298
 20
34.4411855698
 40
1.6393442623
 50
0.0
 51
90.0
  0
ARC
  8
0
 62
7
  6
CONTINUOUS
 10
360.8140758554
 20
33.7854478649
 40
1.4754098361
 50
270.0
 51
326.2510114041
  0
ARC
  8
0
 62
7
  6
CONTINUOUS
 10
366.3823757812
 20
34.6051199961
 40
1.4754098361
 50
90.0
 51
146.2510114041
  0
ARC
  8
0
 62
7
  6
CONTINUOUS
 10
361.221176638
 20
34.2772511436
 40
0.8196721311
 50
270.0
 51
360.0
  0
ARC
  8
0
 62
7
  6
CONTINUOUS
 10
365.9752749986
 20
34.1133167174
 40
0.8196721311
 50
90.0
 51
180.0
  0
ARC
  8
0
 62
7
  6
CONTINUOUS
 10
360.565438933
 20
33.867415078
 40
0.4098360656
 50
180.0
 51
270.0
  0
ARC
  8
0
 62
7
  6
CONTINUOUS
 10
366.6310127035
 20
34.5231527829
 40
0.4098360656
 50
0.0
 51
90.0
  0
SOLID
  8
0
 62
7
  6
CONTINUOUS
 10
365.4684104651
 20
31.8618347111
 11
365.4684104651
 21
32.0231531947
 12
365.757472524
 22
31.8618347111
 13
365.757472524
 23
32.0231531947
  0
SOLID
  8
0
 62
7
  6
CONTINUOUS
 10
359.744972717
 20
31.5391977439
 11
360.1496602445
 21
31.5069333244
 12
359.3980977583
 22
31.5069333244
 13
359.3980977583
 23
31.5069333244
  0
SOLID
  8
0
 62
7
  6
CONTINUOUS
 10
359.2246602583
 20
31.4746706537
 11
359.3980977583
 21
31.5069333244
 12
360.1496602445
 22
31.5069333244
 13
360.1496602445
 23
31.5069333244
  0
SOLID
  8
0
 62
7
  6
CONTINUOUS
 10
360.1496602445
 20
31.5069333244
 11
360.3809101894
 21
31.4424063504
 12
359.2246602583
 22
31.4746706537
 13
359.2246602583
 23
31.4746706537
  0
SOLID
  8
0
 62
7
  6
CONTINUOUS
 10
359.0512227376
 20
31.4101419116
 11
359.2246602583
 21
31.4746706537
 12
360.3809101894
 22
31.4424063504
 13
360.3809101894
 23
31.4424063504
  0
SOLID
  8
0
 62
7
  6
CONTINUOUS
 10
359.0512227376
 20
31.4101419116
 11
360.3809101894
 21
31.4424063504
 12
359.6871602721
 22
31.4101419116
 13
359.6871602721
 23
31.4101419116
  0
SOLID
  8
0
 62
7
  6
CONTINUOUS
 10
359.6871602721
 20
31.4101419116
 11
360.3809101894
 21
31.4424063504
 12
360.091847717
 22
31.3778792603
 13
360.091847717
 23
31.3778792603
  0
SOLID
  8
0
 62
7
  6
CONTINUOUS
 10
360.3809101894
 20
31.4424063504
 11
360.5543476894
 21
31.345614957
 12
360.091847717
 22
31.3778792603
 13
360.091847717
 23
31.3778792603
  0
SOLID
  8
0
 62
7
  6
CONTINUOUS
 10
360.2652852997
 20
31.3133521701
 11
360.091847717
 21
31.3778792603
 12
360.5543476894
 22
31.345614957
 13
360.5543476894
 23
31.345614957
  0
SOLID
  8
0
 62
7
  6
CONTINUOUS
 10
360.2652852997
 20
31.3133521701
 11
360.5543476894
 21
31.345614957
 12
360.3230977445
 22
31.2165606992
 13
360.3230977445
 23
31.2165606992
  0
SOLID
  8
0
 62
7
  6
CONTINUOUS
 10
360.5543476894
 20
31.345614957
 11
360.6121602997
 21
31.2165606992
 12
360.3230977445
 22
31.2165606992
 13
360.3230977445
 23
31.2165606992
  0
SOLID
  8
0
 62
7
  6
CONTINUOUS
 10
361.6527851343
 20
31.5069329918
 11
361.8840352445
 21
31.5391972951
 12
362.1152853548
 22
31.5391972951
 13
362.1152853548
 23
31.5391972951
  0
SOLID
  8
0
 62
7
  6
CONTINUOUS
 10
362.1152853548
 20
31.5391972951
 11
362.2887228548
 21
31.5069329918
 12
361.6527851343
 22
31.5069329918
 13
361.6527851343
 23
31.5069329918
  0
SOLID
  8
0
 62
7
  6
CONTINUOUS
 10
361.4793477997
 20
31.4424059016
 11
361.6527851343
 21
31.5069329918
 12
362.2887228548
 22
31.5069329918
 13
362.2887228548
 23
31.5069329918
  0
SOLID
  8
0
 62
7
  6
CONTINUOUS
 10
362.2887228548
 20
31.5069329918
 11
362.4621603548
 21
31.4424059016
 12
361.4793477997
 22
31.4424059016
 13
361.4793477997
 23
31.4424059016
  0
SOLID
  8
0
 62
7
  6
CONTINUOUS
 10
362.4621603548
 20
31.4424059016
 11
361.8840352445
 21
31.4101420472
 12
361.4793477997
 22
31.4424059016
 13
361.4793477997
 23
31.4424059016
  0
SOLID
  8
0
 62
7
  6
CONTINUOUS
 10
361.3637227445
 20
31.3778788115
 11
361.4793477997
 21
31.4424059016
 12
361.8840352445
 22
31.4101420472
 13
361.8840352445
 23
31.4101420472
  0
SOLID
  8
0
 62
7
  6
CONTINUOUS
 10
361.8840352445
 20
31.4101420472
 11
361.6527851343
 21
31.3778788115
 12
361.3637227445
 22
31.3778788115
 13
361.3637227445
 23
31.3778788115
  0
SOLID
  8
0
 62
7
  6
CONTINUOUS
 10
361.8840352445
 20
31.4101420472
 11
362.4621603548
 21
31.4424059016
 12
362.1152853548
 22
31.3778788115
 13
362.1152853548
 23
31.3778788115
  0
SOLID
  8
0
 62
7
  6
CONTINUOUS
 10
362.4621603548
 20
31.4424059016
 11
362.5777852445
 21
31.3778788115
 12
362.1152853548
 22
31.3778788115
 13
362.1152853548
 23
31.3778788115
  0
SOLID
  8
0
 62
7
  6
CONTINUOUS
 10
362.2309102445
 20
31.345614957
 11
362.1152853548
 21
31.3778788115
 12
362.5777852445
 22
31.3778788115
 13
362.5777852445
 23
31.3778788115
  0
SOLID
  8
0
 62
7
  6
CONTINUOUS
 10
362.5777852445
 20
31.3778788115
 11
362.6355978548
 21
31.3133517213
 12
362.2309102445
 22
31.345614957
 13
362.2309102445
 23
31.345614957
  0
SOLID
  8
0
 62
7
  6
CONTINUOUS
 10
362.3465351343
 20
31.2810878668
 11
362.2309102445
 21
31.345614957
 12
362.6355978548
 22
31.3133517213
 13
362.6355978548
 23
31.3133517213
  0
SOLID
  8
0
 62
7
  6
CONTINUOUS
 10
362.3465351343
 20
31.2810878668
 11
362.6355978548
 21
31.3133517213
 12
362.4043477445
 22
31.1520332377
 13
362.4043477445
 23
31.1520332377
  0
SOLID
  8
0
 62
7
  6
CONTINUOUS
 10
362.6355978548
 20
31.3133517213
 11
362.6934101343
 21
31.1520332377
 12
362.4043477445
 22
31.1520332377
 13
362.4043477445
 23
31.1520332377
  0
SOLID
  8
0
 62
7
  6
CONTINUOUS
 10
361.6527851343
 20
31.3778788115
 11
361.4793477997
 21
31.3133517213
 12
361.3637227445
 22
31.3778788115
 13
361.3637227445
 23
31.3778788115
  0
SOLID
  8
0
 62
7
  6
CONTINUOUS
 10
361.4793477997
 20
31.3133517213
 11
361.3637227445
 21
31.2488235635
 12
361.3637227445
 22
31.3778788115
 13
361.3637227445
 23
31.3778788115
  0
SOLID
  8
0
 62
7
  6
CONTINUOUS
 10
361.3637227445
 20
31.2488235635
 11
361.0746601894
 21
30.5067593033
 12
361.3637227445
 22
31.3778788115
 13
361.3637227445
 23
31.3778788115
  0
SOLID
  8
0
 62
7
  6
CONTINUOUS
 10
361.3637227445
 20
31.3778788115
 11
361.0746601894
 21
30.5067593033
 12
361.3637227445
 22
32.0231527459
 13
361.3637227445
 23
32.0231527459
  0
SOLID
  8
0
 62
7
  6
CONTINUOUS
 10
361.0746601894
 20
30.5067593033
 11
361.0746601894
 21
32.0231527459
 12
361.3637227445
 22
32.0231527459
 13
361.3637227445
 23
32.0231527459
  0
SOLID
  8
0
 62
7
  6
CONTINUOUS
 10
361.3637227445
 20
31.2488235635
 11
361.3637227445
 21
30.5067593033
 12
361.0746601894
 22
30.5067593033
 13
361.0746601894
 23
30.5067593033
  0
SOLID
  8
0
 62
7
  6
CONTINUOUS
 10
362.4043477445
 20
30.5067593033
 11
362.4043477445
 21
31.1520332377
 12
362.6934101343
 22
31.1520332377
 13
362.6934101343
 23
31.1520332377
  0
SOLID
  8
0
 62
7
  6
CONTINUOUS
 10
362.6934101343
 20
31.1520332377
 11
362.6934101343
 21
30.5067593033
 12
362.4043477445
 22
30.5067593033
 13
362.4043477445
 23
30.5067593033
  0
SOLID
  8
0
 62
7
  6
CONTINUOUS
 10
363.4449727445
 20
31.506933758
 11
363.8496603548
 21
31.5391977507
 12
364.1965353548
 22
31.5391977507
 13
364.1965353548
 23
31.5391977507
  0
SOLID
  8
0
 62
7
  6
CONTINUOUS
 10
364.1965353548
 20
31.5391977507
 11
364.543410024
 21
31.506933758
 12
363.4449727445
 22
31.506933758
 13
363.4449727445
 23
31.506933758
  0
SOLID
  8
0
 62
7
  6
CONTINUOUS
 10
363.3293478548
 20
31.4746706537
 11
363.4449727445
 21
31.506933758
 12
364.543410024
 22
31.506933758
 13
364.543410024
 23
31.506933758
  0
SOLID
  8
0
 62
7
  6
CONTINUOUS
 10
364.543410024
 20
31.506933758
 11
364.716847524
 21
31.4424063504
 12
363.3293478548
 22
31.4746706537
 13
363.3293478548
 23
31.4746706537
  0
SOLID
  8
0
 62
7
  6
CONTINUOUS
 10
363.2137226343
 20
31.4101417797
 11
363.3293478548
 21
31.4746706537
 12
364.716847524
 22
31.4424063504
 13
364.716847524
 23
31.4424063504
  0
SOLID
  8
0
 62
7
  6
CONTINUOUS
 10
363.2137226343
 20
31.4101417797
 11
364.716847524
 21
31.4424063504
 12
363.8496603548
 22
31.4101417797
 13
363.8496603548
 23
31.4101417797
  0
SOLID
  8
0
 62
7
  6
CONTINUOUS
 10
363.8496603548
 20
31.4101417797
 11
364.716847524
 21
31.4424063504
 12
364.1965353548
 22
31.4101417797
 13
364.1965353548
 23
31.4101417797
  0
SOLID
  8
0
 62
7
  6
CONTINUOUS
 10
364.1965353548
 20
31.4101417797
 11
364.716847524
 21
31.4424063504
 12
364.4277854651
 22
31.3778793357
 13
364.4277854651
 23
31.3778793357
  0
SOLID
  8
0
 62
7
  6
CONTINUOUS
 10
364.716847524
 20
31.4424063504
 11
364.8324727445
 21
31.3778793357
 12
364.4277854651
 22
31.3778793357
 13
364.4277854651
 23
31.3778793357
  0
SOLID
  8
0
 62
7
  6
CONTINUOUS
 10
363.1559103548
 20
31.3456153429
 11
363.2137226343
 21
31.4101417797
 12
363.8496603548
 22
31.4101417797
 13
363.8496603548
 23
31.4101417797
  0
SOLID
  8
0
 62
7
  6
CONTINUOUS
 10
364.543410024
 20
31.3456153429
 11
364.4277854651
 21
31.3778793357
 12
364.8324727445
 22
31.3778793357
 13
364.8324727445
 23
31.3778793357
  0
SOLID
  8
0
 62
7
  6
CONTINUOUS
 10
364.543410024
 20
31.3456153429
 11
364.8324727445
 21
31.3778793357
 12
364.6012229651
 22
31.2810881318
 13
364.6012229651
 23
31.2810881318
  0
SOLID
  8
0
 62
7
  6
CONTINUOUS
 10
364.8324727445
 20
31.3778793357
 11
364.890285024
 21
31.2810881318
 12
364.6012229651
 22
31.2810881318
 13
364.6012229651
 23
31.2810881318
  0
SOLID
  8
0
 62
7
  6
CONTINUOUS
 10
364.6012229651
 20
31.1842964734
 11
364.6012229651
 21
31.2810881318
 12
364.890285024
 22
31.2810881318
 13
364.890285024
 23
31.2810881318
  0
SOLID
  8
0
 62
7
  6
CONTINUOUS
 10
364.6012229651
 20
31.1842964734
 11
364.890285024
 21
31.2810881318
 12
364.6012229651
 22
31.0552422931
 13
364.6012229651
 23
31.0552422931
  0
SOLID
  8
0
 62
7
  6
CONTINUOUS
 10
364.6012229651
 20
31.0552422931
 11
364.890285024
 21
31.2810881318
 12
364.6012229651
 22
30.8616599362
 13
364.6012229651
 23
30.8616599362
  0
SOLID
  8
0
 62
7
  6
CONTINUOUS
 10
364.890285024
 20
31.2810881318
 11
364.890285024
 21
30.7648681127
 12
364.6012229651
 22
30.8616599362
 13
364.6012229651
 23
30.8616599362
  0
SOLID
  8
0
 62
7
  6
CONTINUOUS
 10
366.798097524
 20
31.5069339419
 11
367.0293479651
 21
31.5391976292
 12
367.2605977445
 22
31.5391976292
 13
367.2605977445
 23
31.5391976292
  0
SOLID
  8
0
 62
7
  6
CONTINUOUS
 10
367.2605977445
 20
31.5391976292
 11
367.4340352445
 21
31.5069339419
 12
366.798097524
 22
31.5069339419
 13
366.798097524
 23
31.5069339419
  0
SOLID
  8
0
 62
7
  6
CONTINUOUS
 10
366.624660024
 20
31.4424065674
 11
366.798097524
 21
31.5069339419
 12
367.4340352445
 22
31.5069339419
 13
367.4340352445
 23
31.5069339419
  0
SOLID
  8
0
 62
7
  6
CONTINUOUS
 10
367.4340352445
 20
31.5069339419
 11
367.6074727445
 21
31.4424065674
 12
366.624660024
 22
31.4424065674
 13
366.624660024
 23
31.4424065674
  0
SOLID
  8
0
 62
7
  6
CONTINUOUS
 10
367.6074727445
 20
31.4424065674
 11
367.0293479651
 21
31.4101420472
 12
366.624660024
 22
31.4424065674
 13
366.624660024
 23
31.4424065674
  0
SOLID
  8
0
 62
7
  6
CONTINUOUS
 10
366.5090354651
 20
31.377879193
 11
366.624660024
 21
31.4424065674
 12
367.0293479651
 22
31.4101420472
 13
367.0293479651
 23
31.4101420472
  0
SOLID
  8
0
 62
7
  6
CONTINUOUS
 10
367.0293479651
 20
31.4101420472
 11
366.798097524
 21
31.377879193
 12
366.5090354651
 22
31.377879193
 13
366.5090354651
 23
31.377879193
  0
SOLID
  8
0
 62
7
  6
CONTINUOUS
 10
367.0293479651
 20
31.4101420472
 11
367.6074727445
 21
31.4424065674
 12
367.2605977445
 22
31.377879193
 13
367.2605977445
 23
31.377879193
  0
SOLID
  8
0
 62
7
  6
CONTINUOUS
 10
367.6074727445
 20
31.4424065674
 11
367.7230979651
 21
31.377879193
 12
367.2605977445
 22
31.377879193
 13
367.2605977445
 23
31.377879193
  0
SOLID
  8
0
 62
7
  6
CONTINUOUS
 10
367.3762229651
 20
31.345614957
 11
367.2605977445
 21
31.377879193
 12
367.7230979651
 22
31.377879193
 13
367.7230979651
 23
31.377879193
  0
SOLID
  8
0
 62
7
  6
CONTINUOUS
 10
367.3762229651
 20
31.345614957
 11
367.7230979651
 21
31.377879193
 12
367.491847524
 22
31.2810881312
 13
367.491847524
 23
31.2810881312
  0
SOLID
  8
0
 62
7
  6
CONTINUOUS
 10
367.7230979651
 20
31.377879193
 11
367.7809102445
 21
31.2810881312
 12
367.491847524
 22
31.2810881312
 13
367.491847524
 23
31.2810881312
  0
SOLID
  8
0
 62
7
  6
CONTINUOUS
 10
367.5496604651
 20
31.119769695
 11
367.491847524
 21
31.2810881312
 12
367.7809102445
 22
31.2810881312
 13
367.7809102445
 23
31.2810881312
  0
SOLID
  8
0
 62
7
  6
CONTINUOUS
 10
367.7809102445
 20
31.2810881312
 11
367.838722524
 21
31.119769695
 12
367.5496604651
 22
31.119769695
 13
367.5496604651
 23
31.119769695
  0
SOLID
  8
0
 62
7
  6
CONTINUOUS
 10
366.798097524
 20
31.377879193
 11
366.624660024
 21
31.3133521701
 12
366.5090354651
 22
31.377879193
 13
366.5090354651
 23
31.377879193
  0
SOLID
  8
0
 62
7
  6
CONTINUOUS
 10
366.624660024
 20
31.3133521701
 11
366.5090354651
 21
31.2488235635
 12
366.5090354651
 22
31.377879193
 13
366.5090354651
 23
31.377879193
  0
SOLID
  8
0
 62
7
  6
CONTINUOUS
 10
366.5090354651
 20
31.2488235635
 11
366.2199727445
 21
30.5067596374
 12
366.5090354651
 22
31.377879193
 13
366.5090354651
 23
31.377879193
  0
SOLID
  8
0
 62
7
  6
CONTINUOUS
 10
366.5090354651
 20
31.377879193
 11
366.2199727445
 21
30.5067596374
 12
366.5090354651
 22
31.5391976292
 13
366.5090354651
 23
31.5391976292
  0
SOLID
  8
0
 62
7
  6
CONTINUOUS
 10
366.2199727445
 20
30.5067596374
 11
366.2199727445
 21
31.5391976292
 12
366.5090354651
 22
31.5391976292
 13
366.5090354651
 23
31.5391976292
  0
SOLID
  8
0
 62
7
  6
CONTINUOUS
 10
366.5090354651
 20
31.2488235635
 11
366.5090354651
 21
30.5067596374
 12
366.2199727445
 22
30.5067596374
 13
366.2199727445
 23
30.5067596374
  0
SOLID
  8
0
 62
7
  6
CONTINUOUS
 10
367.5496604651
 20
30.5067596374
 11
367.5496604651
 21
31.119769695
 12
367.838722524
 22
31.119769695
 13
367.838722524
 23
31.119769695
  0
SOLID
  8
0
 62
7
  6
CONTINUOUS
 10
367.838722524
 20
31.119769695
 11
367.838722524
 21
30.5067596374
 12
367.5496604651
 22
30.5067596374
 13
367.5496604651
 23
30.5067596374
  0
SOLID
  8
0
 62
7
  6
CONTINUOUS
 10
368.6480977445
 20
31.5069334157
 11
368.9949727445
 21
31.539197762
 12
369.3418477445
 22
31.539197762
 13
369.3418477445
 23
31.539197762
  0
SOLID
  8
0
 62
7
  6
CONTINUOUS
 10
369.3418477445
 20
31.539197762
 11
369.6887227445
 21
31.5069334157
 12
368.6480977445
 22
31.5069334157
 13
368.6480977445
 23
31.5069334157
  0
SOLID
  8
0
 62
7
  6
CONTINUOUS
 10
368.4168479651
 20
31.4424063504
 11
368.6480977445
 21
31.5069334157
 12
369.6887227445
 22
31.5069334157
 13
369.6887227445
 23
31.5069334157
  0
SOLID
  8
0
 62
7
  6
CONTINUOUS
 10
368.4168479651
 20
31.4424063504
 11
369.6887227445
 21
31.5069334406
 12
369.8621602445
 22
31.4746706537
 13
369.8621602445
 23
31.4746706537
  0
SOLID
  8
0
 62
7
  6
CONTINUOUS
 10
368.4168479651
 20
31.4424063504
 11
369.8621602445
 21
31.4746706537
 12
368.9949727445
 22
31.4101421267
 13
368.9949727445
 23
31.4101421267
  0
SOLID
  8
0
 62
7
  6
CONTINUOUS
 10
368.9949727445
 20
31.4101421267
 11
369.8621602445
 21
31.4746706537
 12
369.3418477445
 22
31.4101421267
 13
369.3418477445
 23
31.4101421267
  0
SOLID
  8
0
 62
7
  6
CONTINUOUS
 10
369.8621602445
 20
31.4746706537
 11
370.0355977445
 21
31.4101421267
 12
369.3418477445
 22
31.4101421267
 13
369.3418477445
 23
31.4101421267
  0
SOLID
  8
0
 62
7
  6
CONTINUOUS
 10
369.6887227445
 20
31.3778792603
 11
369.3418477445
 21
31.4101421267
 12
370.0355977445
 22
31.4101421267
 13
370.0355977445
 23
31.4101421267
  0
SOLID
  8
0
 62
7
  6
CONTINUOUS
 10
368.3012227445
 20
31.3456148845
 11
368.4168479651
 21
31.4424063504
 12
368.9949727445
 22
31.4101421267
 13
368.9949727445
 23
31.4101421267
  0
SOLID
  8
0
 62
7
  6
CONTINUOUS
 10
369.6887227445
 20
31.3778792603
 11
370.0355977445
 21
31.4101421267
 12
369.8043479651
 22
31.3456148845
 13
369.8043479651
 23
31.3456148845
  0
SOLID
  8
0
 62
7
  6
CONTINUOUS
 10
369.8043479651
 20
31.3456148845
 11
370.0355977445
 21
31.4101421267
 12
369.8621602445
 22
31.281087868
 13
369.8621602445
 23
31.281087868
  0
SOLID
  8
0
 62
7
  6
CONTINUOUS
 10
370.0355977445
 20
31.4101421267
 11
370.1512223035
 21
31.281087868
 12
369.8621602445
 22
31.281087868
 13
369.8621602445
 23
31.281087868
  0
SOLID
  8
0
 62
7
  6
CONTINUOUS
 10
359.4559102445
 20
31.3778792603
 11
358.9355977445
 21
31.3456148963
 12
359.6871602721
 22
31.4101421155
 13
359.6871602721
 23
31.4101421155
  0
SOLID
  8
0
 62
7
  6
CONTINUOUS
 10
358.9355977445
 20
31.3456148963
 11
359.0512227376
 21
31.4101421155
 12
359.6871602721
 22
31.4101421155
 13
359.6871602721
 23
31.4101421155
  0
SOLID
  8
0
 62
7
  6
CONTINUOUS
 10
359.4559102445
 20
31.3778792603
 11
359.3402852307
 21
31.3456148963
 12
358.9355977445
 22
31.3456148963
 13
358.9355977445
 23
31.3456148963
  0
SOLID
  8
0
 62
7
  6
CONTINUOUS
 10
358.8199727462
 20
31.2165607767
 11
358.9355977445
 21
31.3456148963
 12
359.3402852307
 22
31.3456148963
 13
359.3402852307
 23
31.3456148963
  0
SOLID
  8
0
 62
7
  6
CONTINUOUS
 10
363.1559103548
 20
31.3456149608
 11
363.8496603548
 21
31.4101420472
 12
363.6184102445
 22
31.3778792603
 13
363.6184102445
 23
31.3778792603
  0
SOLID
  8
0
 62
7
  6
CONTINUOUS
 10
363.6184102445
 20
31.3778792603
 11
363.5027853548
 21
31.3456149608
 12
363.1559103548
 22
31.3456149608
 13
363.1559103548
 23
31.3456149608
  0
SOLID
  8
0
 62
7
  6
CONTINUOUS
 10
363.1559103548
 20
31.2810878707
 11
363.1559103548
 21
31.3456149608
 12
363.5027853548
 22
31.3456149608
 13
363.5027853548
 23
31.3456149608
  0
SOLID
  8
0
 62
7
  6
CONTINUOUS
 10
363.5027853548
 20
31.3456149608
 11
363.4449727445
 21
31.2810878707
 12
363.1559103548
 22
31.2810878707
 13
363.1559103548
 23
31.2810878707
  0
SOLID
  8
0
 62
7
  6
CONTINUOUS
 10
368.3012227445
 20
31.3456149608
 11
368.9949727445
 21
31.4101420472
 12
368.7637229651
 22
31.3778792603
 13
368.7637229651
 23
31.3778792603
  0
SOLID
  8
0
 62
7
  6
CONTINUOUS
 10
368.7637229651
 20
31.3778792603
 11
368.6480977445
 21
31.3456149608
 12
368.3012227445
 22
31.3456149608
 13
368.3012227445
 23
31.3456149608
  0
SOLID
  8
0
 62
7
  6
CONTINUOUS
 10
368.3012227445
 20
31.2810878707
 11
368.3012227445
 21
31.3456149608
 12
368.6480977445
 22
31.3456149608
 13
368.6480977445
 23
31.3456149608
  0
SOLID
  8
0
 62
7
  6
CONTINUOUS
 10
368.6480977445
 20
31.3456149608
 11
368.5902854651
 21
31.2810878707
 12
368.3012227445
 22
31.2810878707
 13
368.3012227445
 23
31.2810878707
  0
SOLID
  8
0
 62
7
  6
CONTINUOUS
 10
368.4168479651
 20
31.1520336865
 11
368.3012227445
 21
31.2810878707
 12
368.5902854651
 22
31.2810878707
 13
368.5902854651
 23
31.2810878707
  0
SOLID
  8
0
 62
7
  6
CONTINUOUS
 10
358.8199727462
 20
31.2165607767
 11
359.3402852307
 21
31.345614957
 12
359.1668477307
 22
31.2488235635
 13
359.1668477307
 23
31.2488235635
  0
SOLID
  8
0
 62
7
  6
CONTINUOUS
 10
359.1668477307
 20
31.2488235635
 11
359.1090352445
 21
31.1842964734
 12
358.8199727462
 22
31.2165607767
 13
358.8199727462
 23
31.2165607767
  0
SOLID
  8
0
 62
7
  6
CONTINUOUS
 10
358.7621602445
 20
31.0229779898
 11
358.8199727462
 21
31.2165607767
 12
359.1090352445
 22
31.1842964734
 13
359.1090352445
 23
31.1842964734
  0
SOLID
  8
0
 62
7
  6
CONTINUOUS
 10
363.6184102445
 20
31.1520336865
 11
363.9652852445
 21
31.1842964611
 12
364.6012229651
 22
31.1842964611
 13
364.6012229651
 23
31.1842964611
  0
SOLID
  8
0
 62
7
  6
CONTINUOUS
 10
363.6184102445
 20
31.1520336865
 11
364.6012229651
 21
31.1842964611
 12
363.3871601343
 22
31.0875057863
 13
363.3871601343
 23
31.0875057863
  0
SOLID
  8
0
 62
7
  6
CONTINUOUS
 10
363.3871601343
 20
31.0875057863
 11
364.6012229651
 21
31.1842964611
 12
363.9652852445
 22
31.0552422808
 13
363.9652852445
 23
31.0552422808
  0
SOLID
  8
0
 62
7
  6
CONTINUOUS
 10
364.6012229651
 20
31.1842964611
 11
364.6012229651
 21
31.0552422808
 12
363.9652852445
 22
31.0552422808
 13
363.9652852445
 23
31.0552422808
  0
SOLID
  8
0
 62
7
  6
CONTINUOUS
 10
368.4168479651
 20
31.1520338754
 11
368.5902854651
 21
31.2810878668
 12
368.6480977445
 22
31.2165607767
 13
368.6480977445
 23
31.2165607767
  0
SOLID
  8
0
 62
7
  6
CONTINUOUS
 10
368.6480977445
 20
31.2165607767
 11
368.8215352445
 21
31.1520338754
 12
368.4168479651
 22
31.1520338754
 13
368.4168479651
 23
31.1520338754
  0
SOLID
  8
0
 62
7
  6
CONTINUOUS
 10
368.6480977445
 20
31.0552422931
 11
368.4168479651
 21
31.1520338754
 12
368.8215352445
 22
31.1520338754
 13
368.8215352445
 23
31.1520338754
  0
SOLID
  8
0
 62
7
  6
CONTINUOUS
 10
368.8215352445
 20
31.1520338754
 11
369.8043479651
 21
30.9907152029
 12
368.6480977445
 22
31.0552422931
 13
368.6480977445
 23
31.0552422931
  0
SOLID
  8
0
 62
7
  6
CONTINUOUS
 10
369.6309104651
 20
30.8939239876
 11
368.6480977445
 21
31.0552422931
 12
369.8043479651
 22
30.9907152029
 13
369.8043479651
 23
30.9907152029
  0
SOLID
  8
0
 62
7
  6
CONTINUOUS
 10
369.8043479651
 20
30.9907152029
 11
370.0355977445
 21
30.8939239876
 12
369.6309104651
 22
30.8939239876
 13
369.6309104651
 23
30.8939239876
  0
SOLID
  8
0
 62
7
  6
CONTINUOUS
 10
369.8043479651
 20
30.8293967193
 11
369.6309104651
 21
30.8939239876
 12
370.0355977445
 22
30.8939239876
 13
370.0355977445
 23
30.8939239876
  0
SOLID
  8
0
 62
7
  6
CONTINUOUS
 10
369.8043479651
 20
30.8293967193
 11
370.0355977445
 21
30.8939239876
 12
369.8621602445
 22
30.7648682694
 13
369.8621602445
 23
30.7648682694
  0
SOLID
  8
0
 62
7
  6
CONTINUOUS
 10
370.0355977445
 20
30.8939239876
 11
370.1512223035
 21
30.7648682694
 12
369.8621602445
 22
30.7648682694
 13
369.8621602445
 23
30.7648682694
  0
SOLID
  8
0
 62
7
  6
CONTINUOUS
 10
369.8043479651
 20
30.7003411846
 11
369.8621602445
 21
30.7648682694
 12
370.1512223035
 22
30.7648682694
 13
370.1512223035
 23
30.7648682694
  0
SOLID
  8
0
 62
7
  6
CONTINUOUS
 10
370.1512223035
 20
30.7648682694
 11
370.1512223035
 21
30.7003411846
 12
369.8043479651
 22
30.7003411846
 13
369.8043479651
 23
30.7003411846
  0
SOLID
  8
0
 62
7
  6
CONTINUOUS
 10
369.6887227445
 20
30.6680782357
 11
369.8043479651
 21
30.7003411846
 12
370.1512223035
 22
30.7003411846
 13
370.1512223035
 23
30.7003411846
  0
SOLID
  8
0
 62
7
  6
CONTINUOUS
 10
369.6887227445
 20
30.6680782357
 11
370.1512223035
 21
30.7003411846
 12
369.4574729651
 22
30.6358140998
 13
369.4574729651
 23
30.6358140998
  0
SOLID
  8
0
 62
7
  6
CONTINUOUS
 10
370.1512223035
 20
30.7003411846
 11
370.0355977445
 21
30.6035511455
 12
369.4574729651
 22
30.6358140998
 13
369.4574729651
 23
30.6358140998
  0
SOLID
  8
0
 62
7
  6
CONTINUOUS
 10
370.0355977445
 20
30.6035511455
 11
368.5902854651
 21
30.5712868422
 12
369.4574729651
 22
30.6358140998
 13
369.4574729651
 23
30.6358140998
  0
SOLID
  8
0
 62
7
  6
CONTINUOUS
 10
369.4574729651
 20
30.6358140998
 11
368.5902854651
 21
30.5712868422
 12
369.1105979651
 22
30.6358140998
 13
369.1105979651
 23
30.6358140998
  0
SOLID
  8
0
 62
7
  6
CONTINUOUS
 10
368.5902854651
 20
30.5712868422
 11
368.4168479651
 21
30.6358140998
 12
369.1105979651
 22
30.6358140998
 13
369.1105979651
 23
30.6358140998
  0
SOLID
  8
0
 62
7
  6
CONTINUOUS
 10
368.5902854651
 20
30.5712868422
 11
370.0355977445
 21
30.6035511455
 12
368.7637229651
 22
30.5390223111
 13
368.7637229651
 23
30.5390223111
  0
SOLID
  8
0
 62
7
  6
CONTINUOUS
 10
370.0355977445
 20
30.6035511455
 11
369.8043479651
 21
30.5390223111
 12
368.7637229651
 22
30.5390223111
 13
368.7637229651
 23
30.5390223111
  0
SOLID
  8
0
 62
7
  6
CONTINUOUS
 10
369.1105979651
 20
30.5067599302
 11
368.7637229651
 21
30.5390223111
 12
369.8043479651
 22
30.5390223111
 13
369.8043479651
 23
30.5390223111
  0
SOLID
  8
0
 62
7
  6
CONTINUOUS
 10
369.8043479651
 20
30.5390223111
 11
369.4574729651
 21
30.5067599302
 12
369.1105979651
 22
30.5067599302
 13
369.1105979651
 23
30.5067599302
  0
SOLID
  8
0
 62
7
  6
CONTINUOUS
 10
358.7621602445
 20
31.0229779898
 11
359.1090352445
 21
31.1842964734
 12
359.0512227376
 22
31.0552422931
 13
359.0512227376
 23
31.0552422931
  0
SOLID
  8
0
 62
7
  6
CONTINUOUS
 10
359.0512227376
 20
31.0552422931
 11
359.0512227376
 21
30.9584509954
 12
358.7621602445
 22
31.0229779898
 13
358.7621602445
 23
31.0229779898
  0
SOLID
  8
0
 62
7
  6
CONTINUOUS
 10
358.8199727462
 20
30.8293967193
 11
358.7621602445
 21
31.0229779898
 12
359.0512227376
 22
30.9584509954
 13
359.0512227376
 23
30.9584509954
  0
SOLID
  8
0
 62
7
  6
CONTINUOUS
 10
359.0512227376
 20
30.9584509954
 11
359.1668477307
 21
30.797132416
 12
358.8199727462
 22
30.8293967193
 13
358.8199727462
 23
30.8293967193
  0
SOLID
  8
0
 62
7
  6
CONTINUOUS
 10
358.9355977445
 20
30.7003413087
 11
358.8199727462
 21
30.8293967193
 12
359.1668477307
 22
30.797132416
 13
359.1668477307
 23
30.797132416
  0
SOLID
  8
0
 62
7
  6
CONTINUOUS
 10
359.1668477307
 20
30.797132416
 11
359.3402852307
 21
30.7003413087
 12
358.9355977445
 22
30.7003413087
 13
358.9355977445
 23
30.7003413087
  0
SOLID
  8
0
 62
7
  6
CONTINUOUS
 10
359.0512227376
 20
30.6358140759
 11
358.9355977445
 21
30.7003413087
 12
359.3402852307
 22
30.7003413087
 13
359.3402852307
 23
30.7003413087
  0
SOLID
  8
0
 62
7
  6
CONTINUOUS
 10
359.3402852307
 20
30.7003413087
 11
359.6871602721
 21
30.6358140759
 12
359.0512227376
 22
30.6358140759
 13
359.0512227376
 23
30.6358140759
  0
SOLID
  8
0
 62
7
  6
CONTINUOUS
 10
359.2246602583
 20
30.5712868422
 11
359.0512227376
 21
30.6358140759
 12
359.6871602721
 22
30.6358140759
 13
359.6871602721
 23
30.6358140759
  0
SOLID
  8
0
 62
7
  6
CONTINUOUS
 10
363.2715352445
 20
31.0229779808
 11
363.3871601343
 21
31.0875057863
 12
363.9652852445
 22
31.0552422931
 13
363.9652852445
 23
31.0552422931
  0
SOLID
  8
0
 62
7
  6
CONTINUOUS
 10
363.9652852445
 20
31.0552422931
 11
363.7340351343
 21
31.0229779808
 12
363.2715352445
 22
31.0229779808
 13
363.2715352445
 23
31.0229779808
  0
SOLID
  8
0
 62
7
  6
CONTINUOUS
 10
363.1559103548
 20
30.8939238094
 11
363.2715352445
 21
31.0229779808
 12
363.7340351343
 22
31.0229779808
 13
363.7340351343
 23
31.0229779808
  0
SOLID
  8
0
 62
7
  6
CONTINUOUS
 10
363.5027853548
 20
30.926187309
 11
363.1559103548
 21
30.8939238094
 12
363.6184102445
 22
30.9907152029
 13
363.6184102445
 23
30.9907152029
  0
SOLID
  8
0
 62
7
  6
CONTINUOUS
 10
363.1559103548
 20
30.8939238094
 11
363.7340351343
 21
31.0229779898
 12
363.6184102445
 22
30.9907152029
 13
363.6184102445
 23
30.9907152029
  0
SOLID
  8
0
 62
7
  6
CONTINUOUS
 10
363.5027853548
 20
30.926187309
 11
363.4449727445
 21
30.8293967193
 12
363.1559103548
 22
30.8939238094
 13
363.1559103548
 23
30.8939238094
  0
SOLID
  8
0
 62
7
  6
CONTINUOUS
 10
363.1559103548
 20
30.797132416
 11
363.1559103548
 21
30.8939238094
 12
363.4449727445
 22
30.8293967193
 13
363.4449727445
 23
30.8293967193
  0
SOLID
  8
0
 62
7
  6
CONTINUOUS
 10
363.4449727445
 20
30.8293967193
 11
363.4449727445
 21
30.7648681127
 12
363.1559103548
 22
30.797132416
 13
363.1559103548
 23
30.797132416
  0
SOLID
  8
0
 62
7
  6
CONTINUOUS
 10
363.2137226343
 20
30.6680782357
 11
363.1559103548
 21
30.797132416
 12
363.4449727445
 22
30.7648681127
 13
363.4449727445
 23
30.7648681127
  0
SOLID
  8
0
 62
7
  6
CONTINUOUS
 10
364.6012229651
 20
30.8616599362
 11
364.890285024
 21
30.7648681127
 12
364.543410024
 22
30.797132416
 13
364.543410024
 23
30.797132416
  0
SOLID
  8
0
 62
7
  6
CONTINUOUS
 10
364.369972524
 20
30.7003410226
 11
364.543410024
 21
30.797132416
 12
364.890285024
 22
30.7648681127
 13
364.890285024
 23
30.7648681127
  0
SOLID
  8
0
 62
7
  6
CONTINUOUS
 10
364.369972524
 20
30.7003410226
 11
364.890285024
 21
30.7648681127
 12
364.6012229651
 22
30.6680782357
 13
364.6012229651
 23
30.6680782357
  0
SOLID
  8
0
 62
7
  6
CONTINUOUS
 10
364.890285024
 20
30.7648681127
 11
364.9480979651
 21
30.6035511455
 12
364.6012229651
 22
30.6680782357
 13
364.6012229651
 23
30.6680782357
  0
SOLID
  8
0
 62
7
  6
CONTINUOUS
 10
364.6590352445
 20
30.5712868422
 11
364.6012229651
 21
30.6680782357
 12
364.9480979651
 22
30.6035511455
 13
364.9480979651
 23
30.6035511455
  0
SOLID
  8
0
 62
7
  6
CONTINUOUS
 10
364.6590352445
 20
30.5712868422
 11
364.9480979651
 21
30.6035511455
 12
364.716847524
 22
30.5067598731
 13
364.716847524
 23
30.5067598731
  0
SOLID
  8
0
 62
7
  6
CONTINUOUS
 10
364.9480979651
 20
30.6035511455
 11
365.0059102445
 21
30.5067598731
 12
364.716847524
 22
30.5067598731
 13
364.716847524
 23
30.5067598731
  0
SOLID
  8
0
 62
7
  6
CONTINUOUS
 10
360.2652852997
 20
30.7326051679
 11
360.3230977445
 21
30.8293966612
 12
360.6121602997
 22
30.8293966612
 13
360.6121602997
 23
30.8293966612
  0
SOLID
  8
0
 62
7
  6
CONTINUOUS
 10
360.6121602997
 20
30.8293966612
 11
360.5543476894
 21
30.7003410226
 12
360.2652852997
 22
30.7326051679
 13
360.2652852997
 23
30.7326051679
  0
SOLID
  8
0
 62
7
  6
CONTINUOUS
 10
360.091847717
 20
30.6680782357
 11
360.2652852997
 21
30.7326051679
 12
360.5543476894
 22
30.7003410226
 13
360.5543476894
 23
30.7003410226
  0
SOLID
  8
0
 62
7
  6
CONTINUOUS
 10
360.091847717
 20
30.6680782357
 11
360.5543476894
 21
30.7003410226
 12
359.6871602721
 22
30.6358139324
 13
359.6871602721
 23
30.6358139324
  0
SOLID
  8
0
 62
7
  6
CONTINUOUS
 10
360.5543476894
 20
30.7003410226
 11
360.3809101894
 21
30.6035511455
 12
359.6871602721
 22
30.6358139324
 13
359.6871602721
 23
30.6358139324
  0
SOLID
  8
0
 62
7
  6
CONTINUOUS
 10
359.2246602583
 20
30.5712868422
 11
359.6871602721
 21
30.6358139324
 12
360.3809101894
 22
30.6035511455
 13
360.3809101894
 23
30.6035511455
  0
SOLID
  8
0
 62
7
  6
CONTINUOUS
 10
359.2246602583
 20
30.5712868422
 11
360.3809101894
 21
30.6035511455
 12
359.3980977583
 22
30.5390224228
 13
359.3980977583
 23
30.5390224228
  0
SOLID
  8
0
 62
7
  6
CONTINUOUS
 10
360.3809101894
 20
30.6035511455
 11
360.1496602445
 21
30.5390224228
 12
359.3980977583
 22
30.5390224228
 13
359.3980977583
 23
30.5390224228
  0
SOLID
  8
0
 62
7
  6
CONTINUOUS
 10
359.744972717
 20
30.5067597521
 11
359.3980977583
 21
30.5390224228
 12
360.1496602445
 22
30.5390224228
 13
360.1496602445
 23
30.5390224228
  0
SOLID
  8
0
 62
7
  6
CONTINUOUS
 10
363.2137226343
 20
30.6680782357
 11
363.4449727445
 21
30.7648681127
 12
363.5027853548
 22
30.7003410226
 13
363.5027853548
 23
30.7003410226
  0
SOLID
  8
0
 62
7
  6
CONTINUOUS
 10
363.5027853548
 20
30.7003410226
 11
363.7340351343
 21
30.6358139324
 12
363.2137226343
 22
30.6680782357
 13
363.2137226343
 23
30.6680782357
  0
SOLID
  8
0
 62
7
  6
CONTINUOUS
 10
363.3871601343
 20
30.5712868422
 11
363.2137226343
 21
30.6680782357
 12
363.7340351343
 22
30.6358139324
 13
363.7340351343
 23
30.6358139324
  0
SOLID
  8
0
 62
7
  6
CONTINUOUS
 10
364.0809101343
 20
30.6358139363
 11
364.369972524
 21
30.7003410226
 12
364.6012229651
 22
30.6680782357
 13
364.6012229651
 23
30.6680782357
  0
SOLID
  8
0
 62
7
  6
CONTINUOUS
 10
364.6012229651
 20
30.6680782357
 11
364.543410024
 21
30.6035511455
 12
364.0809101343
 22
30.6358139363
 13
364.0809101343
 23
30.6358139363
  0
SOLID
  8
0
 62
7
  6
CONTINUOUS
 10
364.543410024
 20
30.6035511455
 11
363.3871601343
 21
30.5712868422
 12
364.0809101343
 22
30.6358139363
 13
364.0809101343
 23
30.6358139363
  0
SOLID
  8
0
 62
7
  6
CONTINUOUS
 10
363.3871601343
 20
30.5712868422
 11
363.7340351343
 21
30.6358139363
 12
364.0809101343
 22
30.6358139363
 13
364.0809101343
 23
30.6358139363
  0
SOLID
  8
0
 62
7
  6
CONTINUOUS
 10
363.3871601343
 20
30.5712868422
 11
364.543410024
 21
30.6035511455
 12
363.5027853548
 22
30.5390225267
 13
363.5027853548
 23
30.5390225267
  0
SOLID
  8
0
 62
7
  6
CONTINUOUS
 10
364.543410024
 20
30.6035511455
 11
364.369972524
 21
30.5390225267
 12
363.5027853548
 22
30.5390225267
 13
363.5027853548
 23
30.5390225267
  0
SOLID
  8
0
 62
7
  6
CONTINUOUS
 10
363.7340351343
 20
30.5067596914
 11
363.5027853548
 21
30.5390225267
 12
364.369972524
 22
30.5390225267
 13
364.369972524
 23
30.5390225267
  0
SOLID
  8
0
 62
7
  6
CONTINUOUS
 10
364.369972524
 20
30.5390225267
 11
364.0809101343
 21
30.5067596914
 12
363.7340351343
 22
30.5067596914
 13
363.7340351343
 23
30.5067596914
  0
SOLID
  8
0
 62
7
  6
CONTINUOUS
 10
368.7637229651
 20
30.6680782357
 11
368.4168479651
 21
30.6358138717
 12
368.6480977445
 22
30.7003410226
 13
368.6480977445
 23
30.7003410226
  0
SOLID
  8
0
 62
7
  6
CONTINUOUS
 10
368.6480977445
 20
30.7003410226
 11
368.4168479651
 21
30.6358138717
 12
368.5902854651
 22
30.7648680521
 13
368.5902854651
 23
30.7648680521
  0
SOLID
  8
0
 62
7
  6
CONTINUOUS
 10
368.4168479651
 20
30.6358138717
 11
368.3012227445
 21
30.7648680521
 12
368.5902854651
 22
30.7648680521
 13
368.5902854651
 23
30.7648680521
  0
SOLID
  8
0
 62
7
  6
CONTINUOUS
 10
368.7637229651
 20
30.6680782357
 11
369.1105979651
 21
30.6358138717
 12
368.4168479651
 22
30.6358138717
 13
368.4168479651
 23
30.6358138717
  0
SOLID
  8
0
 62
7
  6
CONTINUOUS
 10
365.4684104651
 20
30.5067597521
 11
365.4684104651
 21
31.5391977439
 12
365.757472524
 22
30.5067597521
 13
365.757472524
 23
31.5391977439
  0
ENDBLK
  8
0
  6
BYBLOCK
 62
0
  0
BLOCK
  8
0
 62
2
  6
CONTINUOUS
  2
AMMEAAL_LOGO_BL0
 70
64
 10
240.8592468615
 20
19.762288695
  0
TEXT
  8
0
 62
7
  6
CONTINUOUS
 10
227.1239507038
 20
19.1357028027
  7
TEXTSTYLE_3
 40
2.7338706658
  1
Ammeraal Beltech
 41
1.0
 51
15.0
 72
0
  0
TEXT
  8
0
 62
7
  6
CONTINUOUS
 10
237.9247515296
 20
16.8621661299
  7
TEXTSTYLE_4
 40
1.0935482663
  1
Innovation & Service in Belting
 41
1.0
 72
0
  0
LINE
  8
0
 62
7
  6
CONTINUOUS
 10
221.0994100525
 20
19.9022961113
 11
221.8775620458
 21
23.5632134089
  0
LINE
  8
0
 62
7
  6
CONTINUOUS
 10
231.9727303357
 20
27.2266073205
 11
222.3653797889
 21
24.1049898993
  0
LINE
  8
0
 62
7
  6
CONTINUOUS
 10
221.3246933848
 20
19.2089453082
 11
228.8317686459
 21
12.4495443822
  0
LINE
  8
0
 62
7
  6
CONTINUOUS
 10
221.5872277955
 20
20.4440726016
 11
232.3954971607
 21
23.9558922005
  0
LINE
  8
0
 62
7
  6
CONTINUOUS
 10
232.3912920235
 20
13.6061036368
 11
223.9458323548
 21
21.2104296785
  0
LINE
  8
0
 62
7
  6
CONTINUOUS
 10
232.9111147433
 20
26.3816822048
 11
231.9345552061
 21
21.7873308023
  0
LINE
  8
0
 62
7
  6
CONTINUOUS
 10
231.2347532584
 20
18.4950214885
 11
230.5483050469
 21
15.2655365641
  0
LINE
  8
0
 62
7
  6
CONTINUOUS
 10
233.5922108419
 20
13.9963058145
 11
234.5484423775
 21
18.4950214885
  0
LINE
  8
0
 62
7
  6
CONTINUOUS
 10
235.2482443252
 20
21.7873308023
 11
235.6924861276
 21
23.8773241617
  0
LINE
  8
0
 62
7
  6
CONTINUOUS
 10
229.5448697213
 20
12.2979700695
 11
233.1043930989
 21
13.4545293241
  0
LINE
  8
0
 62
7
  6
CONTINUOUS
 10
232.685831411
 20
27.0750330078
 11
235.4672027953
 21
24.5706749648
  0
ARC
  8
0
 62
7
  6
CONTINUOUS
 10
222.5906631212
 20
23.4116390962
 40
0.7290321776
 50
108.0
 51
168.0
  0
ARC
  8
0
 62
7
  6
CONTINUOUS
 10
232.198013668
 20
26.5332565175
 40
0.7290321776
 50
348.0
 51
108.0
  0
ARC
  8
0
 62
7
  6
CONTINUOUS
 10
234.9793850522
 20
24.0288984744
 40
0.7290321776
 50
348.0
 51
48.0
  0
ARC
  8
0
 62
7
  6
CONTINUOUS
 10
229.319586389
 20
12.9913208726
 40
0.7290321776
 50
228.0
 51
288.0
  0
ARC
  8
0
 62
7
  6
CONTINUOUS
 10
221.8125111278
 20
19.7507217986
 40
0.7290321776
 50
108.0
 51
228.0
  0
ARC
  8
0
 62
7
  6
CONTINUOUS
 10
232.8791097665
 20
14.1478801272
 40
0.7290321776
 50
228.0
 51
348.0
  0
ENDBLK
  8
0
  6
BYBLOCK
 62
0
  0
ENDSEC
  0
SECTION
  2
ENTITIES
  0
TEXT
  8
0
 62
5
  6
CONTINUOUS
 10
304.937007874
 20
25.636
  7
TEXTSTYLE_2
 40
2.8
  1
Scale :
 41
0.6
 51
0.000019
 72
0
  0
TEXT
  8
0
 62
5
  6
CONTINUOUS
 10
324.937007874
 20
25.636
  7
TEXTSTYLE_2
 40
2.8
  1
Belt type:
 41
0.6
 51
0.000019
 72
0
  0
INSERT
  8
0
 62
2
  6
CONTINUOUS
  2
AMMEAAL_LOGO_BL0
 10
240.8592468615
 20
19.762288695
  0
INSERT
  8
0
 62
2
  6
CONTINUOUS
  2
UNI_LOGO2_BL1
 10
382.7840918555
 20
35.5067593403
  0
LINE
  8
0
 62
2
  6
CONTINUOUS
 10
218.937007874
 20
30.0
 11
408.937007874
 21
30.0
  0
LINE
  8
0
 62
2
  6
CONTINUOUS
 10
218.937007874
 20
30.0
 11
218.937007874
 21
10.0
  0
LINE
  8
0
 62
2
  6
CONTINUOUS
 10
218.937007874
 20
10.0
 11
408.937007874
 21
10.0
  0
LINE
  8
0
 62
2
  6
CONTINUOUS
 10
303.937007874
 20
30.0
 11
303.937007874
 21
10.0
  0
LINE
  8
0
 62
2
  6
CONTINUOUS
 10
323.937007874
 20
30.0
 11
323.937007874
 21
10.0
  0
LINE
  8
0
 62
2
  6
CONTINUOUS
 10
408.937007874
 20
30.0
 11
408.937007874
 21
10.0
  0
TEXT
  8
0
 62
5
  6
CONTINUOUS
 10
221.937007874
 20
23.303
  7
TEXTSTYLE_5
 40
1.52
  1
                                                                     Ammeraal Beltech Modular A/S
 41
1.0
 72
0
  0
TEXT
  8
0
 62
5
  6
CONTINUOUS
 10
221.937007874
 20
20.595
  7
TEXTSTYLE_5
 40
1.5
  1
                                                                      Hjulmagervej 21, 7100 Vejle,  DK
 41
1.0
 72
0
  0
TEXT
  8
0
 62
5
  6
CONTINUOUS
 10
221.937007874
 20
17.881
  7
TEXTSTYLE_5
 40
1.495
  1
                                                                      tel: 
 41
1.0
 72
0
  0
TEXT
  8
0
 62
5
  6
CONTINUOUS
 10
266.9239544389
 20
17.881
  7
TEXTSTYLE_5
 40
1.51
  1
+45 75723100     fax: +45 75723348
 41
1.0
 72
0
  0
TEXT
  8
0
 62
5
  6
CONTINUOUS
 10
221.937007874
 20
15.177
  7
TEXTSTYLE_5
 40
1.5
  1
                                                                      admin@unichains.dk  www.unichains.com
 41
1.0
 72
0
  0
TEXT
  8
0
 62
5
  6
CONTINUOUS
 10
308.687007874
 20
13.75
  7
TEXTSTYLE_6
 40
5.0
  1
1:1
 41
0.7
 72
1
 11
313.937007874
 21
13.75
  0
TEXT
  8
0
 62
5
  6
CONTINUOUS
 10
326.937007874
 20
13.75
  7
TEXTSTYLE_7
 40
7.5
  1
Sprocket Z11
 41
0.6027777778
 72
0
  0
LINE
  8
0
 62
7
  6
CONTINUOUS
 10
0.0
 20
0.0
 11
0.0
 21
297.0
  0
LINE
  8
0
 62
7
  6
CONTINUOUS
 10
8.937007874
 20
10.0
 11
8.937007874
 21
287.0
  0
LINE
  8
0
 62
7
  6
CONTINUOUS
 10
0.0
 20
0.0
 11
420.0
 21
0.0
  0
LINE
  8
0
 62
7
  6
CONTINUOUS
 10
408.937007874
 20
10.0
 11
8.937007874
 21
10.0
  0
LINE
  8
0
 62
7
  6
CONTINUOUS
 10
218.937007874
 20
30.0
 11
408.937007874
 21
30.0
  0
LINE
  8
0
 62
7
  6
CONTINUOUS
 10
210.0
 20
297.0
 11
210.0
 21
292.0
  0
LINE
  8
0
 62
7
  6
CONTINUOUS
 10
210.0
 20
0.0
 11
210.0
 21
5.0
  0
LINE
  8
0
 62
7
  6
CONTINUOUS
 10
8.937007874
 20
287.0
 11
408.937007874
 21
287.0
  0
LINE
  8
0
 62
7
  6
CONTINUOUS
 10
0.0
 20
297.0
 11
420.0
 21
297.0
  0
LINE
  8
0
 62
7
  6
CONTINUOUS
 10
408.937007874
 20
287.0
 11
408.937007874
 21
10.0
  0
LINE
  8
0
 62
7
  6
CONTINUOUS
 10
420.0
 20
0.0
 11
420.0
 21
297.0
  0
LINE
  8
0
 62
7
  6
CONTINUOUS
 10
37.2954199372
 20
213.2326594276
 11
29.3144267374
 21
195.7567220106
  0
LINE
  8
0
 62
7
  6
CONTINUOUS
 10
83.9290748687
 20
258.7853858764
 11
67.766831053
 21
248.3985424726
  0
LINE
  8
0
 62
7
  6
CONTINUOUS
 10
96.4819797607
 20
48.6802963463
 11
114.9158510894
 21
43.2676233567
  0
LINE
  8
0
 62
7
  6
CONTINUOUS
 10
44.7562533258
 20
88.3564590133
 11
57.3375007552
 21
73.8369254747
  0
LINE
  8
0
 62
7
  6
CONTINUOUS
 10
22.6923562419
 20
149.6992100493
 11
25.426522608
 21
130.6826652701
  0
LINE
  8
0
 62
7
  6
CONTINUOUS
 10
47.9375198192
 20
211.6216694872
 11
37.5010250385
 21
188.7689336094
  0
LINE
  8
0
 62
7
  6
CONTINUOUS
 10
92.0108120729
 20
251.6765813181
 11
70.8759521622
 21
238.0940315956
  0
LINE
  8
0
 62
7
  6
CONTINUOUS
 10
96.5620434227
 20
59.4433427689
 11
120.6674394671
 21
52.3653598675
  0
LINE
  8
0
 62
7
  6
CONTINUOUS
 10
50.6425493805
 20
97.3676241566
 11
67.0946525014
 21
78.3808850129
  0
LINE
  8
0
 62
7
  6
CONTINUOUS
 10
32.5160272826
 20
154.0975126502
 11
36.0914109841
 21
129.2301727885
  0
LINE
  8
0
 62
7
  6
CONTINUOUS
 10
77.348153784
 20
223.6478050299
 11
77.1127081064
 21
223.2879526927
  0
LINE
  8
0
 62
7
  6
CONTINUOUS
 10
77.4000902568
 20
222.9741232824
 11
77.6355359533
 21
223.333975599
  0
LINE
  8
0
 62
7
  6
CONTINUOUS
 10
78.1907458159
 20
228.1916185458
 11
77.9397058327
 21
227.8424659445
  0
LINE
  8
0
 62
7
  6
CONTINUOUS
 10
78.2130118199
 20
227.5163046275
 11
78.4640518031
 21
227.8654572288
  0
LINE
  8
0
 62
7
  6
CONTINUOUS
 10
89.9691049003
 20
237.7169821234
 11
90.1850441206
 21
237.9666696053
  0
LINE
  8
0
 62
7
  6
CONTINUOUS
 10
90.8827915339
 20
236.1562490384
 11
91.0987307542
 21
236.4059365203
  0
LINE
  8
0
 62
7
  6
CONTINUOUS
 10
85.8152960298
 20
235.1004869035
 11
86.1924449981
 21
235.4751117375
  0
LINE
  8
0
 62
7
  6
CONTINUOUS
 10
76.1765525928
 20
226.4696411403
 11
75.7924383854
 21
226.1178972843
  0
LINE
  8
0
 62
7
  6
CONTINUOUS
 10
74.2559819129
 20
224.7109221873
 11
73.8718677879
 21
224.3591784067
  0
LINE
  8
0
 62
7
  6
CONTINUOUS
 10
77.1127081064
 20
223.2879526927
 11
76.8054167625
 21
223.006557628
  0
LINE
  8
0
 62
7
  6
CONTINUOUS
 10
77.0927989129
 20
222.6927282177
 11
77.4000902568
 21
222.9741232824
  0
LINE
  8
0
 62
7
  6
CONTINUOUS
 10
78.2451413153
 20
223.7479595845
 11
78.6292555227
 21
224.0997034405
  0
LINE
  8
0
 62
7
  6
CONTINUOUS
 10
90.0062065917
 20
238.4783344254
 11
89.6104777346
 21
238.1233942327
  0
LINE
  8
0
 62
7
  6
CONTINUOUS
 10
90.9198932253
 20
236.9176013404
 11
90.5241643682
 21
236.5626611478
  0
LINE
  8
0
 62
7
  6
CONTINUOUS
 10
92.9817584655
 20
234.426500265
 11
93.3774873179
 21
234.7814404657
  0
LINE
  8
0
 62
7
  6
CONTINUOUS
 10
85.9877945768
 20
235.9770103361
 11
85.436446834
 21
235.4881172494
  0
LINE
  8
0
 62
7
  6
CONTINUOUS
 10
78.5101122959
 20
228.4592308179
 11
78.1907458159
 21
228.1916185458
  0
LINE
  8
0
 62
7
  6
CONTINUOUS
 10
77.4721715785
 20
227.5894912209
 11
77.0729635927
 21
227.2549759766
  0
LINE
  8
0
 62
7
  6
CONTINUOUS
 10
79.2594116821
 20
224.6456852116
 11
79.6586196679
 21
224.9802004559
  0
LINE
  8
0
 62
7
  6
CONTINUOUS
 10
81.0957681426
 20
226.1844551058
 11
81.4949758999
 21
226.5189701587
  0
LINE
  8
0
 62
7
  6
CONTINUOUS
 10
94.2532797657
 20
240.1139952174
 11
94.6665634274
 21
240.4483311019
  0
LINE
  8
0
 62
7
  6
CONTINUOUS
 10
96.8929660102
 20
237.288953184
 11
96.4796823485
 21
236.9546172995
  0
LINE
  8
0
 62
7
  6
CONTINUOUS
 10
79.4591587793
 20
231.2769365923
 11
79.050627111
 21
230.9538746319
  0
LINE
  8
0
 62
7
  6
CONTINUOUS
 10
79.3805628166
 20
230.5366506911
 11
79.7890944848
 21
230.8597126514
  0
LINE
  8
0
 62
7
  6
CONTINUOUS
 10
80.4489660808
 20
230.0252645361
 11
80.0404344126
 21
229.7022025758
  0
LINE
  8
0
 62
7
  6
CONTINUOUS
 10
82.1520231131
 20
227.0319691208
 11
82.5605547814
 21
227.3550310811
  0
LINE
  8
0
 62
7
  6
CONTINUOUS
 10
94.4215473894
 20
240.9204545262
 11
93.9158055074
 21
240.5381359624
  0
LINE
  8
0
 62
7
  6
CONTINUOUS
 10
96.7246984208
 20
236.4824938091
 11
97.2304402985
 21
236.8648123811
  0
LINE
  8
0
 62
7
  6
CONTINUOUS
 10
98.5614595261
 20
242.2418367795
 11
98.9912263916
 21
242.5547014629
  0
LINE
  8
0
 62
7
  6
CONTINUOUS
 10
101.053920055
 20
239.2860879
 11
100.6241510202
 21
238.9732222276
  0
LINE
  8
0
 62
7
  6
CONTINUOUS
 10
98.7705609304
 20
243.0386850792
 11
98.2460132057
 21
242.6826064082
  0
LINE
  8
0
 62
7
  6
CONTINUOUS
 10
100.8448165122
 20
238.4892385435
 11
101.3693642331
 21
238.8453172229
  0
LINE
  8
0
 62
7
  6
CONTINUOUS
 10
86.3361941194
 20
236.2055481493
 11
85.9877945768
 21
235.9770103361
  0
LINE
  8
0
 62
7
  6
CONTINUOUS
 10
86.1924449981
 20
235.4751117375
 11
86.5408435439
 21
235.7036488969
  0
LINE
  8
0
 62
7
  6
CONTINUOUS
 10
85.2360489753
 20
234.0843792059
 11
85.6715479053
 21
234.3700511455
  0
LINE
  8
0
 62
7
  6
CONTINUOUS
 10
90.0933885906
 20
233.3265413111
 11
87.6545957791
 21
231.7267792341
  0
LINE
  8
0
 62
7
  6
CONTINUOUS
 10
87.2495485368
 20
230.8249403809
 11
90.38513844
 21
232.8817767765
  0
LINE
  8
0
 62
7
  6
CONTINUOUS
 10
90.3657879229
 20
238.6888410515
 11
90.0062065917
 21
238.4783344254
  0
LINE
  8
0
 62
7
  6
CONTINUOUS
 10
90.1850441206
 20
237.9666696053
 11
90.7244150886
 21
238.2824289422
  0
LINE
  8
0
 62
7
  6
CONTINUOUS
 10
91.7660532757
 20
238.1525941095
 11
92.2155283966
 21
238.4157264888
  0
LINE
  8
0
 62
7
  6
CONTINUOUS
 10
91.3693704037
 20
237.1807349242
 11
90.9198932253
 21
236.9176013404
  0
LINE
  8
0
 62
7
  6
CONTINUOUS
 10
91.0987307542
 20
236.4059365203
 11
91.7279955119
 21
236.7743216104
  0
LINE
  8
0
 62
7
  6
CONTINUOUS
 10
92.802920899
 20
234.9381651495
 11
92.1736561413
 21
234.5697800594
  0
LINE
  8
0
 62
7
  6
CONTINUOUS
 10
92.5322812871
 20
234.1633666812
 11
92.9817584655
 21
234.426500265
  0
LINE
  8
0
 62
7
  6
CONTINUOUS
 10
76.7136620863
 20
222.4897905559
 11
77.0927989129
 21
222.6927282177
  0
LINE
  8
0
 62
7
  6
CONTINUOUS
 10
78.4640518031
 20
227.8654572288
 11
78.8517447799
 21
228.0515291715
  0
LINE
  8
0
 62
7
  6
CONTINUOUS
 10
86.9171423983
 20
236.4594013208
 11
86.3361941194
 21
236.2055481493
  0
LINE
  8
0
 62
7
  6
CONTINUOUS
 10
86.5408435439
 20
235.7036488969
 11
87.0346924356
 21
235.900367942
  0
LINE
  8
0
 62
7
  6
CONTINUOUS
 10
78.8179635384
 20
228.5783995969
 11
78.5101122959
 21
228.4592308179
  0
LINE
  8
0
 62
7
  6
CONTINUOUS
 10
90.8690093075
 20
238.8601656174
 11
90.3657879229
 21
238.6888410515
  0
LINE
  8
0
 62
7
  6
CONTINUOUS
 10
91.8725917882
 20
237.3520594901
 11
91.3693704037
 21
237.1807349242
  0
LINE
  8
0
 62
7
  6
CONTINUOUS
 10
92.0290598979
 20
233.9920421234
 11
92.5322812871
 21
234.1633666812
  0
LINE
  8
0
 62
7
  6
CONTINUOUS
 10
110.3675727858
 20
247.460250588
 11
106.4110933299
 21
246.1535799911
  0
LINE
  8
0
 62
7
  6
CONTINUOUS
 10
106.5779022906
 20
245.648497664
 11
110.0398203995
 21
246.7918339689
  0
LINE
  8
0
 62
7
  6
CONTINUOUS
 10
111.7354064268
 20
243.3185750099
 11
108.3723987761
 21
242.2079049651
  0
LINE
  8
0
 62
7
  6
CONTINUOUS
 10
107.9790977471
 20
241.4058055496
 11
111.935577203
 21
242.7124761465
  0
LINE
  8
0
 62
7
  6
CONTINUOUS
 10
95.0252956867
 20
241.1139237203
 11
94.4215473894
 21
240.9204545262
  0
LINE
  8
0
 62
7
  6
CONTINUOUS
 10
96.1209501192
 20
236.2890246233
 11
96.7246984208
 21
236.4824938091
  0
LINE
  8
0
 62
7
  6
CONTINUOUS
 10
112.5620426226
 20
248.0816488471
 11
111.9613192851
 21
247.9091482044
  0
LINE
  8
0
 62
7
  6
CONTINUOUS
 10
113.3413244272
 20
243.1033615042
 11
113.9420477647
 21
243.2758621469
  0
LINE
  8
0
 62
7
  6
CONTINUOUS
 10
94.6665634274
 20
240.4483311019
 11
95.1778535043
 21
240.5938176168
  0
LINE
  8
0
 62
7
  6
CONTINUOUS
 10
96.4796823485
 20
236.9546172995
 11
95.9683922716
 21
236.8091307846
  0
LINE
  8
0
 62
7
  6
CONTINUOUS
 10
77.9397058327
 20
227.8424659445
 11
77.836834309
 21
227.4786763691
  0
LINE
  8
0
 62
7
  6
CONTINUOUS
 10
78.1101402962
 20
227.152515052
 11
78.2130118199
 21
227.5163046275
  0
LINE
  8
0
 62
7
  6
CONTINUOUS
 10
77.6355359533
 20
223.333975599
 11
77.7173361426
 21
223.5531305343
  0
LINE
  8
0
 62
7
  6
CONTINUOUS
 10
85.6706967947
 20
234.7511780816
 11
85.8152960298
 21
235.1004869035
  0
LINE
  8
0
 62
7
  6
CONTINUOUS
 10
89.8069109149
 20
237.3754862259
 11
89.9691049003
 21
237.7169821234
  0
LINE
  8
0
 62
7
  6
CONTINUOUS
 10
90.5241643682
 20
236.5626611478
 11
90.199778455
 21
235.8796705572
  0
LINE
  8
0
 62
7
  6
CONTINUOUS
 10
90.7205975486
 20
235.8147531409
 11
90.8827915339
 21
236.1562490384
  0
LINE
  8
0
 62
7
  6
CONTINUOUS
 10
89.6104777346
 20
238.1233942327
 11
89.3222403761
 21
237.584837811
  0
LINE
  8
0
 62
7
  6
CONTINUOUS
 10
93.3774873179
 20
234.7814404657
 11
93.6657236335
 21
235.3199963093
  0
LINE
  8
0
 62
7
  6
CONTINUOUS
 10
94.073913636
 20
239.7811989082
 11
94.2532797657
 21
240.1139952174
  0
LINE
  8
0
 62
7
  6
CONTINUOUS
 10
85.436446834
 20
235.4881172494
 11
85.2047482115
 21
235.0816743011
  0
LINE
  8
0
 62
7
  6
CONTINUOUS
 10
93.9158055074
 20
240.5381359624
 11
93.6005282608
 21
240.0149507082
  0
LINE
  8
0
 62
7
  6
CONTINUOUS
 10
97.2304402985
 20
236.8648123811
 11
97.5457175322
 21
237.3879976602
  0
LINE
  8
0
 62
7
  6
CONTINUOUS
 10
98.3653853021
 20
241.9186023591
 11
98.5614595261
 21
242.2418367795
  0
LINE
  8
0
 62
7
  6
CONTINUOUS
 10
98.2460132057
 20
242.6826064082
 11
97.9045125247
 21
242.1761482783
  0
LINE
  8
0
 62
7
  6
CONTINUOUS
 10
101.3693642331
 20
238.8453172229
 11
101.7108670719
 21
239.3517763673
  0
LINE
  8
0
 62
7
  6
CONTINUOUS
 10
93.0188601193
 20
235.1878526313
 11
92.802920899
 21
234.9381651495
  0
LINE
  8
0
 62
7
  6
CONTINUOUS
 10
163.0341201789
 20
247.413540359
 11
163.3929028617
 21
247.5327065388
  0
LINE
  8
0
 62
7
  6
CONTINUOUS
 10
162.9435026077
 20
246.333295913
 11
162.2259372422
 21
246.0949635534
  0
LINE
  8
0
 62
7
  6
CONTINUOUS
 10
162.5394020071
 20
245.6740102623
 11
162.8981846899
 21
245.7931764421
  0
LINE
  8
0
 62
7
  6
CONTINUOUS
 10
77.836834309
 20
227.4786763691
 11
77.8138040626
 21
227.1817895746
  0
LINE
  8
0
 62
7
  6
CONTINUOUS
 10
78.0871100498
 20
226.8556282575
 11
78.1101402962
 21
227.152515052
  0
LINE
  8
0
 62
7
  6
CONTINUOUS
 10
85.2047482115
 20
235.0816743011
 11
85.0897485157
 21
234.4973249101
  0
LINE
  8
0
 62
7
  6
CONTINUOUS
 10
77.4349312019
 20
224.0157659947
 11
77.348153784
 21
223.6478050299
  0
LINE
  8
0
 62
7
  6
CONTINUOUS
 10
90.6483004391
 20
235.5258848033
 11
90.7205975486
 21
235.8147531409
  0
LINE
  8
0
 62
7
  6
CONTINUOUS
 10
87.9378413365
 20
235.0932888868
 11
86.9577986873
 21
231.2697049154
  0
LINE
  8
0
 62
7
  6
CONTINUOUS
 10
87.6545957791
 20
231.7267792341
 11
88.5483901516
 21
235.112102143
  0
LINE
  8
0
 62
7
  6
CONTINUOUS
 10
93.6005282608
 20
240.0149507082
 11
93.4701653388
 21
239.5877297142
  0
LINE
  8
0
 62
7
  6
CONTINUOUS
 10
97.9045125247
 20
242.1761482783
 11
97.7525713929
 21
241.7561171347
  0
LINE
  8
0
 62
7
  6
CONTINUOUS
 10
93.1810530759
 20
235.5293479266
 11
93.0188601193
 21
235.1878526313
  0
LINE
  8
0
 62
7
  6
CONTINUOUS
 10
108.3723987761
 20
242.2079049651
 11
110.6011053307
 21
246.75313533
  0
LINE
  8
0
 62
7
  6
CONTINUOUS
 10
110.0398203995
 20
246.7918339689
 11
107.7122033867
 21
242.2139373439
  0
LINE
  8
0
 62
7
  6
CONTINUOUS
 10
97.0723321398
 20
237.6217494932
 11
96.8929660102
 21
237.288953184
  0
LINE
  8
0
 62
7
  6
CONTINUOUS
 10
101.2499942791
 20
239.6093223204
 11
101.053920055
 21
239.2860879
  0
LINE
  8
0
 62
7
  6
CONTINUOUS
 10
162.2808159002
 20
245.5263484175
 11
162.5394020071
 21
245.6740102623
  0
LINE
  8
0
 62
7
  6
CONTINUOUS
 10
154.8837504218
 20
247.4231104628
 11
155.3484041432
 21
247.6671570799
  0
LINE
  8
0
 62
7
  6
CONTINUOUS
 10
164.0356669508
 20
243.7000541046
 11
163.6768842681
 21
243.5808879248
  0
LINE
  8
0
 62
7
  6
CONTINUOUS
 10
77.7173361426
 20
223.5531305343
 11
77.7322678816
 21
223.9995487853
  0
LINE
  8
0
 62
7
  6
CONTINUOUS
 10
89.3222403761
 20
237.584837811
 11
89.2675399469
 21
237.059726889
  0
LINE
  8
0
 62
7
  6
CONTINUOUS
 10
97.5457175322
 20
237.3879976602
 11
97.6760804371
 21
237.8152186872
  0
LINE
  8
0
 62
7
  6
CONTINUOUS
 10
101.7108670719
 20
239.3517763673
 11
101.8628081883
 21
239.7718075449
  0
LINE
  8
0
 62
7
  6
CONTINUOUS
 10
111.9613192851
 20
247.9091482044
 11
111.5661286038
 21
247.0208921809
  0
LINE
  8
0
 62
7
  6
CONTINUOUS
 10
111.8010231503
 20
246.2028857452
 11
112.1962137494
 21
247.091142055
  0
LINE
  8
0
 62
7
  6
CONTINUOUS
 10
114.0818128706
 20
248.4915786124
 11
113.6661684021
 21
247.6127076813
  0
LINE
  8
0
 62
7
  6
CONTINUOUS
 10
113.8820663612
 20
246.7894835027
 11
114.2977107541
 21
247.6683547221
  0
LINE
  8
0
 62
7
  6
CONTINUOUS
 10
155.3484041432
 20
247.6671570799
 11
155.7283998346
 21
248.0336770547
  0
LINE
  8
0
 62
7
  6
CONTINUOUS
 10
162.849943881
 20
247.9083258769
 11
162.43295907
 21
247.5845091312
  0
LINE
  8
0
 62
7
  6
CONTINUOUS
 10
155.1304120555
 20
248.2442784591
 11
154.8890849946
 21
248.0698306309
  0
LINE
  8
0
 62
7
  6
CONTINUOUS
 10
93.4701653388
 20
239.5877297142
 11
93.4812617285
 21
239.1140656163
  0
LINE
  8
0
 62
7
  6
CONTINUOUS
 10
85.6715479053
 20
234.3700511455
 11
85.6706967947
 21
234.7511780816
  0
LINE
  8
0
 62
7
  6
CONTINUOUS
 10
88.5483901516
 20
235.112102143
 11
88.547539041
 21
235.4932290791
  0
LINE
  8
0
 62
7
  6
CONTINUOUS
 10
97.7525713929
 20
241.7561171347
 11
97.7395442126
 21
241.2825032554
  0
LINE
  8
0
 62
7
  6
CONTINUOUS
 10
89.7883600692
 20
236.9948100749
 11
89.8069109149
 21
237.3754862259
  0
LINE
  8
0
 62
7
  6
CONTINUOUS
 10
93.1996059415
 20
235.9100253464
 11
93.1810530759
 21
235.5293479266
  0
LINE
  8
0
 62
7
  6
CONTINUOUS
 10
93.9981022537
 20
239.0227209159
 11
94.073913636
 21
239.7811989082
  0
LINE
  8
0
 62
7
  6
CONTINUOUS
 10
97.1481436251
 20
238.3802272871
 11
97.0723321398
 21
237.6217494932
  0
LINE
  8
0
 62
7
  6
CONTINUOUS
 10
93.6657236335
 20
235.3199963093
 11
93.7204240439
 21
235.8451072635
  0
LINE
  8
0
 62
7
  6
CONTINUOUS
 10
98.2510627113
 20
241.1649667869
 11
98.3653853021
 21
241.9186023591
  0
LINE
  8
0
 62
7
  6
CONTINUOUS
 10
101.3643147932
 20
240.3629567002
 11
101.2499942791
 21
239.6093223204
  0
LINE
  8
0
 62
7
  6
CONTINUOUS
 10
162.7464330079
 20
247.1635532313
 11
163.0341201789
 21
247.413540359
  0
LINE
  8
0
 62
7
  6
CONTINUOUS
 10
164.3233541423
 20
243.9500413039
 11
164.0356669508
 21
243.7000541046
  0
LINE
  8
0
 62
7
  6
CONTINUOUS
 10
164.2198432386
 20
243.2052685509
 11
164.6368280598
 21
243.5290853324
  0
LINE
  8
0
 62
7
  6
CONTINUOUS
 10
77.3730401747
 20
224.3918355688
 11
77.4349312019
 21
224.0157659947
  0
LINE
  8
0
 62
7
  6
CONTINUOUS
 10
97.6760804371
 20
237.8152186872
 11
97.6649840131
 21
238.2888828512
  0
LINE
  8
0
 62
7
  6
CONTINUOUS
 10
101.8628081883
 20
239.7718075449
 11
101.8758353377
 21
240.2454214919
  0
LINE
  8
0
 62
7
  6
CONTINUOUS
 10
96.5213926407
 20
57.635101159
 11
95.8460060318
 21
49.6978688797
  0
LINE
  8
0
 62
7
  6
CONTINUOUS
 10
127.6784732403
 20
271.0975414173
 11
126.0903252017
 21
263.2915444192
  0
LINE
  8
0
 62
7
  6
CONTINUOUS
 10
162.43295907
 20
247.5845091312
 11
162.0870696891
 21
247.1298711509
  0
LINE
  8
0
 62
7
  6
CONTINUOUS
 10
49.6307425444
 20
95.8684119861
 11
44.7713794259
 21
89.5563288586
  0
LINE
  8
0
 62
7
  6
CONTINUOUS
 10
191.2482548689
 20
258.5996544552
 11
185.6919791227
 21
252.8914495571
  0
LINE
  8
0
 62
7
  6
CONTINUOUS
 10
30.8543063289
 20
153.3833193387
 11
23.3537797411
 21
150.7004270085
  0
LINE
  8
0
 62
7
  6
CONTINUOUS
 10
242.0670445124
 20
129.4472753851
 11
250.0196047476
 21
129.9083491662
  0
LINE
  8
0
 62
7
  6
CONTINUOUS
 10
26.3432292219
 20
129.9083491662
 11
34.2957894571
 21
129.4472753851
  0
LINE
  8
0
 62
7
  6
CONTINUOUS
 10
210.8961289466
 20
77.5927370491
 11
217.8355236454
 21
73.6811383299
  0
LINE
  8
0
 62
7
  6
CONTINUOUS
 10
29.6669825236
 20
194.6097168396
 11
36.1078266106
 21
189.922358226
  0
LINE
  8
0
 62
7
  6
CONTINUOUS
 10
156.6388061105
 20
50.8221927529
 11
160.3618264875
 21
43.7798264888
  0
LINE
  8
0
 62
7
  6
CONTINUOUS
 10
67.4433020403
 20
247.2430142719
 11
70.3275074903
 21
239.8175740662
  0
LINE
  8
0
 62
7
  6
CONTINUOUS
 10
89.2675399469
 20
237.059726889
 11
89.3564817792
 21
236.495434854
  0
LINE
  8
0
 62
7
  6
CONTINUOUS
 10
93.7204240439
 20
235.8451072635
 11
93.6314843821
 21
236.4094003101
  0
LINE
  8
0
 62
7
  6
CONTINUOUS
 10
87.878641261
 20
235.5633693712
 11
87.9378413365
 21
235.0932888868
  0
LINE
  8
0
 62
7
  6
CONTINUOUS
 10
155.2870810864
 20
248.541199645
 11
155.1304120555
 21
248.2442784591
  0
LINE
  8
0
 62
7
  6
CONTINUOUS
 10
155.7283998346
 20
248.0336770547
 11
155.8850688655
 21
248.3305982407
  0
LINE
  8
0
 62
7
  6
CONTINUOUS
 10
157.6230382059
 20
246.2216449032
 11
159.1747418723
 21
248.8142231764
  0
LINE
  8
0
 62
7
  6
CONTINUOUS
 10
156.7373599056
 20
244.6775962258
 11
157.4270090682
 21
245.829852482
  0
LINE
  8
0
 62
7
  6
CONTINUOUS
 10
158.8629252328
 20
249.3216298289
 11
156.127952412
 21
244.8163316097
  0
LINE
  8
0
 62
7
  6
CONTINUOUS
 10
162.5589331581
 20
246.8850727608
 11
162.7464330079
 21
247.1635532313
  0
LINE
  8
0
 62
7
  6
CONTINUOUS
 10
162.0933160912
 20
245.2478680903
 11
162.2808159002
 21
245.5263484175
  0
LINE
  8
0
 62
7
  6
CONTINUOUS
 10
164.5108539105
 20
244.2285214878
 11
164.3233541423
 21
243.9500413039
  0
LINE
  8
0
 62
7
  6
CONTINUOUS
 10
164.6368280598
 20
243.5290853324
 11
164.9827173795
 21
243.9837230976
  0
LINE
  8
0
 62
7
  6
CONTINUOUS
 10
85.0897485157
 20
234.4973249101
 11
85.2360489753
 21
234.0843792059
  0
LINE
  8
0
 62
7
  6
CONTINUOUS
 10
88.547539041
 20
235.4932290791
 11
88.4012395782
 21
235.9061754371
  0
LINE
  8
0
 62
7
  6
CONTINUOUS
 10
89.8597031638
 20
236.6667594198
 11
89.7883600692
 21
236.9948100749
  0
LINE
  8
0
 62
7
  6
CONTINUOUS
 10
90.7196434584
 20
235.1978342768
 11
90.6483004391
 21
235.5258848033
  0
LINE
  8
0
 62
7
  6
CONTINUOUS
 10
93.12826094
 20
236.2380745398
 11
93.1996059415
 21
235.9100253464
  0
LINE
  8
0
 62
7
  6
CONTINUOUS
 10
93.4812617285
 20
239.1140656163
 11
93.5358153844
 21
238.7828097162
  0
LINE
  8
0
 62
7
  6
CONTINUOUS
 10
97.6649840131
 20
238.2888828512
 11
97.6104304944
 21
238.6201384868
  0
LINE
  8
0
 62
7
  6
CONTINUOUS
 10
97.7395442126
 20
241.2825032554
 11
97.7771627536
 21
240.9488988268
  0
LINE
  8
0
 62
7
  6
CONTINUOUS
 10
101.8758353377
 20
240.2454214919
 11
101.8382169203
 21
240.5790256494
  0
LINE
  8
0
 62
7
  6
CONTINUOUS
 10
162.0870696891
 20
247.1298711509
 11
161.7831656643
 21
246.4420898353
  0
LINE
  8
0
 62
7
  6
CONTINUOUS
 10
162.2841393705
 20
246.2996141193
 11
162.5589331581
 21
246.8850727608
  0
LINE
  8
0
 62
7
  6
CONTINUOUS
 10
89.3564817792
 20
236.495434854
 11
89.642809778
 21
235.8001532025
  0
LINE
  8
0
 62
7
  6
CONTINUOUS
 10
90.0922859276
 20
236.063286184
 11
89.8597031638
 21
236.6667594198
  0
LINE
  8
0
 62
7
  6
CONTINUOUS
 10
94.1996632789
 20
238.4081901276
 11
93.9981022537
 21
239.0227209159
  0
LINE
  8
0
 62
7
  6
CONTINUOUS
 10
96.9465825313
 20
238.9947582077
 11
97.1481436251
 21
238.3802272871
  0
LINE
  8
0
 62
7
  6
CONTINUOUS
 10
93.5358153844
 20
238.7828097162
 11
93.688373202
 21
238.2627036127
  0
LINE
  8
0
 62
7
  6
CONTINUOUS
 10
97.6104304944
 20
238.6201384868
 11
97.4578726082
 21
239.1402447226
  0
LINE
  8
0
 62
7
  6
CONTINUOUS
 10
98.4210825747
 20
240.5409734487
 11
98.2510627113
 21
241.1649667869
  0
LINE
  8
0
 62
7
  6
CONTINUOUS
 10
101.1942970373
 20
240.986951163
 11
101.3643147932
 21
240.3629567002
  0
LINE
  8
0
 62
7
  6
CONTINUOUS
 10
97.7771627536
 20
240.9488988268
 11
97.9030473554
 21
240.4217012228
  0
LINE
  8
0
 62
7
  6
CONTINUOUS
 10
101.8382169203
 20
240.5790256494
 11
101.7123300873
 21
241.1062223998
  0
LINE
  8
1_AXIS
 62
2
  6
CONTINUOUS
 10
138.1814169847
 20
157.6492009006
 11
138.1814169847
 21
155.5492009006
  0
LINE
  8
1_AXIS
 62
2
  6
CENTER
 10
138.1814169847
 20
151.3492009006
 11
138.1814169847
 21
38.9042009006
  0
LINE
  8
1_AXIS
 62
2
  6
CENTER
 10
138.1814169847
 20
161.8492009006
 11
138.1814169847
 21
274.2942009006
  0
LINE
  8
0
 62
7
  6
CONTINUOUS
 10
152.3564780154
 20
250.5554742466
 11
151.5104590952
 21
245.6275688106
  0
LINE
  8
0
 62
7
  6
CONTINUOUS
 10
152.1264472747
 20
245.5218164455
 11
152.5044557338
 21
247.7236465652
  0
LINE
  8
0
 62
7
  6
CONTINUOUS
 10
152.6124581362
 20
248.3527408012
 11
152.8824641928
 21
249.9254766849
  0
LINE
  8
0
 62
7
  6
CONTINUOUS
 10
161.7831656643
 20
246.4420898353
 11
161.5794582154
 21
245.7258128547
  0
LINE
  8
0
 62
7
  6
CONTINUOUS
 10
162.2259372422
 20
246.0949635534
 11
162.2841393705
 21
246.2996141193
  0
LINE
  8
0
 62
7
  6
CONTINUOUS
 10
162.0060128988
 20
244.9408922415
 11
162.0933160912
 21
245.2478680903
  0
LINE
  8
1_AXIS
 62
2
  6
CONTINUOUS
 10
139.2314169847
 20
156.5992009006
 11
137.1314169847
 21
156.5992009006
  0
LINE
  8
1_AXIS
 62
2
  6
CENTER
 10
132.9314169847
 20
156.5992009006
 11
20.4864169847
 21
156.5992009006
  0
LINE
  8
1_AXIS
 62
2
  6
CENTER
 10
143.4314169847
 20
156.5992009006
 11
255.8764169847
 21
156.5992009006
  0
LINE
  8
0
 62
7
  6
CONTINUOUS
 10
73.8718677879
 20
224.3591784067
 11
75.3087785146
 21
222.7900313826
  0
LINE
  8
0
 62
7
  6
CONTINUOUS
 10
75.6928926396
 20
223.1417751632
 11
74.2559819129
 21
224.7109221873
  0
LINE
  8
0
 62
7
  6
CONTINUOUS
 10
75.7924383854
 20
226.1178972843
 11
77.3730401747
 21
224.3918355688
  0
LINE
  8
0
 62
7
  6
CONTINUOUS
 10
78.0445365577
 20
224.4297499871
 11
76.1765525928
 21
226.4696411403
  0
LINE
  8
0
 62
7
  6
CONTINUOUS
 10
77.0729635927
 20
227.2549759766
 11
79.2594116821
 21
224.6456852116
  0
LINE
  8
0
 62
7
  6
CONTINUOUS
 10
79.6586196679
 20
224.9802004559
 11
78.0871100498
 21
226.8556282575
  0
LINE
  8
0
 62
7
  6
CONTINUOUS
 10
77.8138040626
 20
227.1817895746
 11
77.4721715785
 21
227.5894912209
  0
LINE
  8
0
 62
7
  6
CONTINUOUS
 10
79.7975645118
 20
227.7337215903
 11
81.0957681426
 21
226.1844551058
  0
LINE
  8
0
 62
7
  6
CONTINUOUS
 10
81.4949758999
 20
226.5189701587
 11
80.1967722691
 21
228.0682366432
  0
LINE
  8
0
 62
7
  6
CONTINUOUS
 10
79.050627111
 20
230.9538746319
 11
79.3805628166
 21
230.5366506911
  0
LINE
  8
0
 62
7
  6
CONTINUOUS
 10
80.0404344126
 20
229.7022025758
 11
82.1520231131
 21
227.0319691208
  0
LINE
  8
0
 62
7
  6
CONTINUOUS
 10
82.5605547814
 20
227.3550310811
 11
80.4489660808
 21
230.0252645361
  0
LINE
  8
0
 62
7
  6
CONTINUOUS
 10
79.7890944848
 20
230.8597126514
 11
79.4591587793
 21
231.2769365923
  0
LINE
  8
0
 62
7
  6
CONTINUOUS
 10
86.9577986873
 20
231.2697049154
 11
87.2495485368
 21
230.8249403809
  0
LINE
  8
0
 62
7
  6
CONTINUOUS
 10
87.7619411741
 20
235.7412754093
 11
87.878641261
 21
235.5633693712
  0
LINE
  8
0
 62
7
  6
CONTINUOUS
 10
90.38513844
 20
232.8817767765
 11
90.0933885906
 21
233.3265413111
  0
LINE
  8
0
 62
7
  6
CONTINUOUS
 10
88.4012395782
 20
235.9061754371
 11
88.2845394913
 21
236.0840814752
  0
LINE
  8
0
 62
7
  6
CONTINUOUS
 10
89.642809778
 20
235.8001532025
 11
90.0190336239
 21
235.1574985087
  0
LINE
  8
0
 62
7
  6
CONTINUOUS
 10
90.199778455
 20
235.8796705572
 11
90.0922859276
 21
236.063286184
  0
LINE
  8
0
 62
7
  6
CONTINUOUS
 10
90.8808822495
 20
234.9224108366
 11
90.7196434584
 21
235.1978342768
  0
LINE
  8
0
 62
7
  6
CONTINUOUS
 10
92.9670221489
 20
236.51349798
 11
93.12826094
 21
236.2380745398
  0
LINE
  8
0
 62
7
  6
CONTINUOUS
 10
93.6314843821
 20
236.4094003101
 11
93.3627529882
 21
236.8684395057
  0
LINE
  8
0
 62
7
  6
CONTINUOUS
 10
93.688373202
 20
238.2627036127
 11
94.1294020703
 21
237.4128814491
  0
LINE
  8
0
 62
7
  6
CONTINUOUS
 10
94.542685732
 20
237.7472173336
 11
94.1996632789
 21
238.4081901276
  0
LINE
  8
0
 62
7
  6
CONTINUOUS
 10
96.6035600782
 20
239.6557310017
 11
96.9465825313
 21
238.9947582077
  0
LINE
  8
0
 62
7
  6
CONTINUOUS
 10
97.4578726082
 20
239.1402447226
 11
97.0168437399
 21
239.9900668862
  0
LINE
  8
0
 62
7
  6
CONTINUOUS
 10
97.9030473554
 20
240.4217012228
 11
98.3002451855
 21
239.5505307135
  0
LINE
  8
0
 62
7
  6
CONTINUOUS
 10
98.7300142203
 20
239.8633963859
 11
98.4210825747
 21
240.5409734487
  0
LINE
  8
0
 62
7
  6
CONTINUOUS
 10
100.8853653918
 20
241.6645282259
 11
101.1942970373
 21
240.986951163
  0
LINE
  8
0
 62
7
  6
CONTINUOUS
 10
101.7123300873
 20
241.1062223998
 11
101.3151322572
 21
241.9773929092
  0
LINE
  8
0
 62
7
  6
CONTINUOUS
 10
106.4110933299
 20
246.1535799911
 11
106.5779022906
 21
245.648497664
  0
LINE
  8
0
 62
7
  6
CONTINUOUS
 10
107.7122033867
 20
242.2139373439
 11
107.9790977471
 21
241.4058055496
  0
LINE
  8
0
 62
7
  6
CONTINUOUS
 10
111.5661286038
 20
247.0208921809
 11
111.8010231503
 21
246.2028857452
  0
LINE
  8
0
 62
7
  6
CONTINUOUS
 10
112.1962137494
 20
247.091142055
 11
113.3413244272
 21
243.1033615042
  0
LINE
  8
0
 62
7
  6
CONTINUOUS
 10
113.9420477647
 20
243.2758621469
 11
112.5620426226
 21
248.0816488471
  0
LINE
  8
0
 62
7
  6
CONTINUOUS
 10
113.6661684021
 20
247.6127076813
 11
113.8820663612
 21
246.7894835027
  0
LINE
  8
0
 62
7
  6
CONTINUOUS
 10
114.2977107541
 20
247.6683547221
 11
115.3502130872
 21
243.6551376802
  0
LINE
  8
0
 62
7
  6
CONTINUOUS
 10
115.9547682037
 20
243.8136877073
 11
114.6863679872
 21
248.6501286395
  0
LINE
  8
0
 62
7
  6
CONTINUOUS
 10
161.5794582154
 20
245.7258128547
 11
161.4759473015
 21
244.9810400657
  0
LINE
  8
0
 62
7
  6
CONTINUOUS
 10
155.3410823381
 20
248.8557470568
 11
155.2870810864
 21
248.541199645
  0
LINE
  8
0
 62
7
  6
CONTINUOUS
 10
155.8850688655
 20
248.3305982407
 11
155.9570705176
 21
248.7499946917
  0
LINE
  8
0
 62
7
  6
CONTINUOUS
 10
164.5981571029
 20
244.5354973367
 11
164.5108539105
 21
244.2285214878
  0
LINE
  8
0
 62
7
  6
CONTINUOUS
 10
164.9827173795
 20
243.9837230976
 11
165.128222741
 21
244.4953496557
  0
LINE
  8
0
 62
7
  6
CONTINUOUS
 10
90.0190336239
 20
235.1574985087
 11
90.4851533924
 21
234.567470644
  0
LINE
  8
0
 62
7
  6
CONTINUOUS
 10
111.935577203
 20
242.7124761465
 11
111.7354064268
 21
243.3185750099
  0
LINE
  8
0
 62
7
  6
CONTINUOUS
 10
110.6011053307
 20
246.75313533
 11
110.3675727858
 21
247.460250588
  0
LINE
  8
0
 62
7
  6
CONTINUOUS
 10
75.3087785146
 20
222.7900313826
 11
75.6729835193
 21
222.5465507047
  0
LINE
  8
0
 62
7
  6
CONTINUOUS
 10
78.4087414742
 20
224.1862692537
 11
78.0445365577
 21
224.4297499871
  0
LINE
  8
0
 62
7
  6
CONTINUOUS
 10
79.3760902935
 20
228.0745200729
 11
79.7975645118
 21
227.7337215903
  0
LINE
  8
0
 62
7
  6
CONTINUOUS
 10
80.1967722691
 20
228.0682366432
 11
79.7752985077
 21
228.4090355086
  0
LINE
  8
0
 62
7
  6
CONTINUOUS
 10
94.1294020703
 20
237.4128814491
 11
94.4668763973
 21
236.9887405718
  0
LINE
  8
0
 62
7
  6
CONTINUOUS
 10
97.0168437399
 20
239.9900668862
 11
96.6793694816
 21
240.4142076313
  0
LINE
  8
0
 62
7
  6
CONTINUOUS
 10
94.9291632666
 20
237.2286517714
 11
94.542685732
 21
237.7472173336
  0
LINE
  8
0
 62
7
  6
CONTINUOUS
 10
96.2170826123
 20
240.1742964316
 11
96.6035600782
 21
239.6557310017
  0
LINE
  8
0
 62
7
  6
CONTINUOUS
 10
98.3002451855
 20
239.5505307135
 11
98.6156915677
 21
239.1097609492
  0
LINE
  8
0
 62
7
  6
CONTINUOUS
 10
101.3151322572
 20
241.9773929092
 11
100.9996881062
 21
242.4181635269
  0
LINE
  8
0
 62
7
  6
CONTINUOUS
 10
99.0895915254
 20
239.3258289093
 11
98.7300142203
 21
239.8633963859
  0
LINE
  8
0
 62
7
  6
CONTINUOUS
 10
100.5257859791
 20
242.2020945778
 11
100.8853653918
 21
241.6645282259
  0
LINE
  8
0
 62
7
  6
CONTINUOUS
 10
160.1906721356
 20
243.8914283444
 11
159.675465458
 21
249.1366500226
  0
LINE
  8
0
 62
7
  6
CONTINUOUS
 10
161.4759473015
 20
244.9810400657
 11
161.5308259391
 21
244.4124248582
  0
LINE
  8
0
 62
7
  6
CONTINUOUS
 10
159.4583642805
 20
245.3674019078
 11
159.581264642
 21
244.0301637283
  0
LINE
  8
0
 62
7
  6
CONTINUOUS
 10
159.1747418723
 20
248.8142231764
 11
159.4512606866
 21
245.8054387514
  0
LINE
  8
0
 62
7
  6
CONTINUOUS
 10
180.5168279377
 20
49.6978688797
 11
179.8414413288
 21
57.635101159
  0
LINE
  8
0
 62
7
  6
CONTINUOUS
 10
162.0189062822
 20
244.6054207277
 11
162.0060128988
 21
244.9408922415
  0
LINE
  8
0
 62
7
  6
CONTINUOUS
 10
164.5852637603
 20
244.8709689938
 11
164.5981571029
 21
244.5354973367
  0
LINE
  8
0
 62
7
  6
CONTINUOUS
 10
165.4516579983
 20
246.3941937565
 11
165.4387646148
 21
246.7296652703
  0
LINE
  8
0
 62
7
  6
CONTINUOUS
 10
206.0353264791
 20
239.8175740662
 11
208.9195319291
 21
247.2430142719
  0
LINE
  8
0
 62
7
  6
CONTINUOUS
 10
116.0010074819
 20
43.7798264888
 11
119.7240278589
 21
50.8221927529
  0
LINE
  8
0
 62
7
  6
CONTINUOUS
 10
237.9696904216
 20
213.7173441904
 11
230.2093656186
 21
211.9192461986
  0
LINE
  8
0
 62
7
  6
CONTINUOUS
 10
46.1534687111
 20
211.9192461151
 11
38.3931435479
 21
213.7173441904
  0
LINE
  8
0
 62
7
  6
CONTINUOUS
 10
253.0090542283
 20
150.7004270085
 11
245.5085280557
 21
153.3833191903
  0
LINE
  8
0
 62
7
  6
CONTINUOUS
 10
77.7322678816
 20
223.9995487853
 11
78.2451413153
 21
223.7479595845
  0
LINE
  8
0
 62
7
  6
CONTINUOUS
 10
75.9852520695
 20
222.9767518922
 11
75.6928926396
 21
223.1417751632
  0
LINE
  8
0
 62
7
  6
CONTINUOUS
 10
79.7752985077
 20
228.4090355086
 11
79.490477283
 21
228.5867533327
  0
LINE
  8
0
 62
7
  6
CONTINUOUS
 10
90.4851533924
 20
234.567470644
 11
90.9336743854
 21
234.2136842235
  0
LINE
  8
0
 62
7
  6
CONTINUOUS
 10
91.1320168878
 20
234.6996143541
 11
90.8808822495
 21
234.9224108366
  0
LINE
  8
0
 62
7
  6
CONTINUOUS
 10
92.7158894928
 20
236.7362957956
 11
92.9670221489
 21
236.51349798
  0
LINE
  8
0
 62
7
  6
CONTINUOUS
 10
92.2155283966
 20
238.4157264888
 11
91.9643958158
 21
238.6385241759
  0
LINE
  8
0
 62
7
  6
CONTINUOUS
 10
88.2845394913
 20
236.0840814752
 11
87.9640392604
 21
236.3827582728
  0
LINE
  8
0
 62
7
  6
CONTINUOUS
 10
94.4668763973
 20
236.9887405718
 11
94.7063421242
 21
236.7534480982
  0
LINE
  8
0
 62
7
  6
CONTINUOUS
 10
96.6793694816
 20
240.4142076313
 11
96.4399036174
 21
240.6495003693
  0
LINE
  8
0
 62
7
  6
CONTINUOUS
 10
90.6708548468
 20
252.8914495571
 11
85.1145791006
 21
258.5996544552
  0
LINE
  8
0
 62
7
  6
CONTINUOUS
 10
98.6156915677
 20
239.1097609492
 11
98.8428717036
 21
238.8625847671
  0
LINE
  8
0
 62
7
  6
CONTINUOUS
 10
100.9996881062
 20
242.4181635269
 11
100.7725078466
 21
242.6653399803
  0
LINE
  8
0
 62
7
  6
CONTINUOUS
 10
231.5914545436
 20
89.5563288586
 11
226.732091425
 21
95.8684119861
  0
LINE
  8
0
 62
7
  6
CONTINUOUS
 10
150.2725087677
 20
263.2915444192
 11
148.6843607292
 21
271.0975414173
  0
LINE
  8
0
 62
7
  6
CONTINUOUS
 10
155.2924157096
 20
249.1879201068
 11
155.3410823381
 21
248.8557470568
  0
LINE
  8
0
 62
7
  6
CONTINUOUS
 10
155.9570705176
 20
248.7499946917
 11
155.9084038891
 21
249.0821677418
  0
LINE
  8
0
 62
7
  6
CONTINUOUS
 10
165.128222741
 20
244.4953496557
 11
165.073344083
 21
245.0639647916
  0
LINE
  8
0
 62
7
  6
CONTINUOUS
 10
240.2550073589
 20
189.922358226
 11
246.6958514459
 21
194.6097168396
  0
LINE
  8
0
 62
7
  6
CONTINUOUS
 10
58.527310324
 20
73.6811383299
 11
65.4667050229
 21
77.5927370491
  0
LINE
  8
0
 62
7
  6
CONTINUOUS
 10
75.6729835193
 20
222.5465507047
 11
75.893497411
 21
222.4599847732
  0
LINE
  8
0
 62
7
  6
CONTINUOUS
 10
78.6292555227
 20
224.0997034405
 11
78.4087414742
 21
224.1862692537
  0
LINE
  8
0
 62
7
  6
CONTINUOUS
 10
94.7063421242
 20
236.7534480982
 11
95.0872714295
 21
236.4717146511
  0
LINE
  8
0
 62
7
  6
CONTINUOUS
 10
96.4399036174
 20
240.6495003693
 11
96.0589743463
 21
240.9312337503
  0
LINE
  8
0
 62
7
  6
CONTINUOUS
 10
93.3627529882
 20
236.8684395057
 11
92.9142299753
 21
237.2222246574
  0
LINE
  8
0
 62
7
  6
CONTINUOUS
 10
98.8428717036
 20
238.8625847671
 11
99.2089636526
 21
238.5618247924
  0
LINE
  8
0
 62
7
  6
CONTINUOUS
 10
100.7725078466
 20
242.6653399803
 11
100.4064159285
 21
242.9660998871
  0
LINE
  8
0
 62
7
  6
CONTINUOUS
 10
76.3544343857
 20
222.8820773325
 11
75.9852520695
 21
222.9767518922
  0
LINE
  8
0
 62
7
  6
CONTINUOUS
 10
90.9336743854
 20
234.2136842235
 11
91.418344943
 21
234.0043326062
  0
LINE
  8
0
 62
7
  6
CONTINUOUS
 10
87.4126915176
 20
235.893865186
 11
87.7619411741
 21
235.7412754093
  0
LINE
  8
0
 62
7
  6
CONTINUOUS
 10
91.4730453534
 20
234.5294435604
 11
91.1320168878
 21
234.6996143541
  0
LINE
  8
0
 62
7
  6
CONTINUOUS
 10
91.4250248478
 20
238.3227648389
 11
91.7660532757
 21
238.1525941095
  0
LINE
  8
0
 62
7
  6
CONTINUOUS
 10
95.5930133116
 20
236.8540332149
 11
94.9291632666
 21
237.2286517714
  0
LINE
  8
0
 62
7
  6
CONTINUOUS
 10
95.5532324643
 20
240.5489151865
 11
96.2170826123
 21
240.1742964316
  0
LINE
  8
0
 62
7
  6
CONTINUOUS
 10
99.7335113774
 20
238.9179034634
 11
99.0895915254
 21
239.3258289093
  0
LINE
  8
0
 62
7
  6
CONTINUOUS
 10
99.8818682038
 20
242.6100212161
 11
100.5257859791
 21
242.2020945778
  0
LINE
  8
0
 62
7
  6
CONTINUOUS
 10
161.5308259391
 20
244.4124248582
 11
161.7150022269
 21
243.9176393045
  0
LINE
  8
0
 62
7
  6
CONTINUOUS
 10
162.1319870481
 20
244.241456086
 11
162.0189062822
 21
244.6054207277
  0
LINE
  8
0
 62
7
  6
CONTINUOUS
 10
164.8376035059
 20
246.9006340425
 11
164.9506934651
 21
246.5366668637
  0
LINE
  8
0
 62
7
  6
CONTINUOUS
 10
75.893497411
 20
222.4599847732
 11
76.3395024968
 21
222.4356589694
  0
LINE
  8
0
 62
7
  6
CONTINUOUS
 10
79.0797542883
 20
228.1037947868
 11
79.3760902935
 21
228.0745200729
  0
LINE
  8
0
 62
7
  6
CONTINUOUS
 10
79.490477283
 20
228.5867533327
 11
79.1941412779
 21
228.6160280467
  0
LINE
  8
0
 62
7
  6
CONTINUOUS
 10
87.9640392604
 20
236.3827582728
 11
87.3822408676
 21
236.5100326913
  0
LINE
  8
0
 62
7
  6
CONTINUOUS
 10
92.428605271
 20
236.8146575071
 11
92.7158894928
 21
236.7362957956
  0
LINE
  8
0
 62
7
  6
CONTINUOUS
 10
92.9142299753
 20
237.2222246574
 11
92.4833057002
 21
237.3397684291
  0
LINE
  8
0
 62
7
  6
CONTINUOUS
 10
95.0872714295
 20
236.4717146511
 11
95.5116536143
 21
236.3323875029
  0
LINE
  8
0
 62
7
  6
CONTINUOUS
 10
96.0589743463
 20
240.9312337503
 11
95.6345921787
 21
241.0705608654
  0
LINE
  8
0
 62
7
  6
CONTINUOUS
 10
99.2089636526
 20
238.5618247924
 11
99.6257033532
 21
238.4010755626
  0
LINE
  8
0
 62
7
  6
CONTINUOUS
 10
100.4064159285
 20
242.9660998871
 11
99.9896762433
 21
243.126849083
  0
LINE
  8
0
 62
7
  6
CONTINUOUS
 10
91.9643958158
 20
238.6385241759
 11
91.479725277
 21
238.847875761
  0
LINE
  8
0
 62
7
  6
CONTINUOUS
 10
155.1230902504
 20
249.4328684359
 11
155.2924157096
 21
249.1879201068
  0
LINE
  8
0
 62
7
  6
CONTINUOUS
 10
164.4430819099
 20
245.1326082808
 11
164.5852637603
 21
244.8709689938
  0
LINE
  8
0
 62
7
  6
CONTINUOUS
 10
165.073344083
 20
245.0639647916
 11
164.8600667209
 21
245.4564250265
  0
LINE
  8
0
 62
7
  6
CONTINUOUS
 10
155.9084038891
 20
249.0821677418
 11
155.672411401
 21
249.5544400816
  0
LINE
  8
0
 62
7
  6
CONTINUOUS
 10
165.4387646148
 20
246.7296652703
 11
165.2545883169
 21
247.2244507882
  0
LINE
  8
0
 62
7
  6
CONTINUOUS
 10
163.6315755054
 20
243.0407657824
 11
164.2198432386
 21
243.2052685509
  0
LINE
  8
0
 62
7
  6
CONTINUOUS
 10
76.3395024968
 20
222.4356589694
 11
76.7136620863
 21
222.4897905559
  0
LINE
  8
0
 62
7
  6
CONTINUOUS
 10
79.1941412779
 20
228.6160280467
 11
78.8179635384
 21
228.5783995969
  0
LINE
  8
0
 62
7
  6
CONTINUOUS
 10
87.0346924356
 20
235.900367942
 11
87.4126915176
 21
235.893865186
  0
LINE
  8
0
 62
7
  6
CONTINUOUS
 10
91.418344943
 20
234.0043326062
 11
92.0290598979
 21
233.9920421234
  0
LINE
  8
0
 62
7
  6
CONTINUOUS
 10
91.8502243936
 20
234.5037082043
 11
91.4730453534
 21
234.5294435604
  0
LINE
  8
0
 62
7
  6
CONTINUOUS
 10
92.0514272596
 20
236.8403934654
 11
92.428605271
 21
236.8146575071
  0
LINE
  8
0
 62
7
  6
CONTINUOUS
 10
91.0478468364
 20
238.3485007973
 11
91.4250248478
 21
238.3227648389
  0
LINE
  8
0
 62
7
  6
CONTINUOUS
 10
95.5116536143
 20
236.3323875029
 11
96.1209501192
 21
236.2890246233
  0
LINE
  8
0
 62
7
  6
CONTINUOUS
 10
95.9683922716
 20
236.8091307846
 11
95.5930133116
 21
236.8540332149
  0
LINE
  8
0
 62
7
  6
CONTINUOUS
 10
95.1778535043
 20
240.5938176168
 11
95.5532324643
 21
240.5489151865
  0
LINE
  8
0
 62
7
  6
CONTINUOUS
 10
99.6257033532
 20
238.4010755626
 11
100.2320025992
 21
238.3267533275
  0
LINE
  8
0
 62
7
  6
CONTINUOUS
 10
100.1061179703
 20
238.8539509908
 11
99.7335113774
 21
238.9179034634
  0
LINE
  8
0
 62
7
  6
CONTINUOUS
 10
99.5092616108
 20
242.6739736888
 11
99.8818682038
 21
242.6100212161
  0
LINE
  8
0
 62
7
  6
CONTINUOUS
 10
155.672411401
 20
249.5544400816
 11
155.3157600821
 21
249.9394877005
  0
LINE
  8
0
 62
7
  6
CONTINUOUS
 10
161.7150022269
 20
243.9176393045
 11
162.128672733
 21
243.4681877128
  0
LINE
  8
0
 62
7
  6
CONTINUOUS
 10
162.3743654743
 20
243.9513211341
 11
162.1319870481
 21
244.241456086
  0
LINE
  8
0
 62
7
  6
CONTINUOUS
 10
164.2007034836
 20
245.4227432328
 11
164.4430819099
 21
245.1326082808
  0
LINE
  8
0
 62
7
  6
CONTINUOUS
 10
163.4382207795
 20
248.0728260097
 11
162.849943881
 21
247.9083258769
  0
LINE
  8
0
 62
7
  6
CONTINUOUS
 10
76.8054167625
 20
223.006557628
 11
76.3544343857
 21
222.8820773325
  0
LINE
  8
0
 62
7
  6
CONTINUOUS
 10
100.2320025992
 20
238.3267533275
 11
100.8448165122
 21
238.4892385435
  0
LINE
  8
0
 62
7
  6
CONTINUOUS
 10
100.6241510202
 20
238.9732222276
 11
100.1061179703
 21
238.8539509908
  0
LINE
  8
0
 62
7
  6
CONTINUOUS
 10
78.8517447799
 20
228.0515291715
 11
79.0797542883
 21
228.1037947868
  0
LINE
  8
0
 62
7
  6
CONTINUOUS
 10
92.1736561413
 20
234.5697800594
 11
91.8502243936
 21
234.5037082043
  0
LINE
  8
0
 62
7
  6
CONTINUOUS
 10
91.7279955119
 20
236.7743216104
 11
92.0514272596
 21
236.8403934654
  0
LINE
  8
0
 62
7
  6
CONTINUOUS
 10
154.8890849946
 20
248.0698306309
 11
154.5630905044
 21
248.0178577741
  0
LINE
  8
0
 62
7
  6
CONTINUOUS
 10
87.3822408676
 20
236.5100326913
 11
86.9171423983
 21
236.4594013208
  0
LINE
  8
0
 62
7
  6
CONTINUOUS
 10
163.6768842681
 20
243.5808879248
 11
163.3472026494
 21
243.5640470279
  0
LINE
  8
0
 62
7
  6
CONTINUOUS
 10
162.8981846899
 20
245.7931764421
 11
163.2278663085
 21
245.8100173389
  0
LINE
  8
0
 62
7
  6
CONTINUOUS
 10
92.4833057002
 20
237.3397684291
 11
91.8725917882
 21
237.3520594901
  0
LINE
  8
0
 62
7
  6
CONTINUOUS
 10
91.479725277
 20
238.847875761
 11
90.8690093075
 21
238.8601656174
  0
LINE
  8
0
 62
7
  6
CONTINUOUS
 10
95.6345921787
 20
241.0705608654
 11
95.0252956867
 21
241.1139237203
  0
LINE
  8
0
 62
7
  6
CONTINUOUS
 10
163.1015007326
 20
243.0809162065
 11
163.6315755054
 21
243.0407657824
  0
LINE
  8
0
 62
7
  6
CONTINUOUS
 10
99.9896762433
 20
243.126849083
 11
99.3833748396
 21
243.2011703037
  0
LINE
  8
0
 62
7
  6
CONTINUOUS
 10
162.128672733
 20
243.4681877128
 11
162.6005361994
 21
243.2233893137
  0
LINE
  8
0
 62
7
  6
CONTINUOUS
 10
162.6458449646
 20
243.763511465
 11
162.3743654743
 21
243.9513211341
  0
LINE
  8
0
 62
7
  6
CONTINUOUS
 10
163.9292239933
 20
245.6105529018
 11
164.2007034836
 21
245.4227432328
  0
LINE
  8
0
 62
7
  6
CONTINUOUS
 10
164.8600667209
 20
245.4564250265
 11
164.4464053801
 21
245.9058739826
  0
LINE
  8
0
 62
7
  6
CONTINUOUS
 10
165.2545883169
 20
247.2244507882
 11
164.8409269761
 21
247.6738997442
  0
LINE
  8
0
 62
7
  6
CONTINUOUS
 10
164.5952250796
 20
247.1907689945
 11
164.8376035059
 21
246.9006340425
  0
LINE
  8
0
 62
7
  6
CONTINUOUS
 10
99.3833748396
 20
243.2011703037
 11
98.7705609304
 21
243.0386850792
  0
LINE
  8
0
 62
7
  6
CONTINUOUS
 10
115.3502130872
 20
243.6551376802
 11
115.9547682037
 21
243.8136877073
  0
LINE
  8
0
 62
7
  6
CONTINUOUS
 10
114.6863679872
 20
248.6501286395
 11
114.0818128706
 21
248.4915786124
  0
LINE
  8
0
 62
7
  6
CONTINUOUS
 10
98.9912263916
 20
242.5547014629
 11
99.5092616108
 21
242.6739736888
  0
LINE
  8
0
 62
7
  6
CONTINUOUS
 10
90.7244150886
 20
238.2824289422
 11
91.0478468364
 21
238.3485007973
  0
LINE
  8
0
 62
7
  6
CONTINUOUS
 10
163.3929028617
 20
247.5327065388
 11
163.7225844803
 21
247.5495474357
  0
LINE
  8
0
 62
7
  6
CONTINUOUS
 10
154.3524202723
 20
247.4063894701
 11
154.8837504218
 21
247.4231104628
  0
LINE
  8
0
 62
7
  6
CONTINUOUS
 10
163.473568205
 20
246.2931480887
 11
162.9435026077
 21
246.333295913
  0
LINE
  8
0
 62
7
  6
CONTINUOUS
 10
163.9682863768
 20
248.0326781855
 11
163.4382207795
 21
248.0728260097
  0
LINE
  8
0
 62
7
  6
CONTINUOUS
 10
151.5104590952
 20
245.6275688106
 11
152.1264472747
 21
245.5218164455
  0
LINE
  8
0
 62
7
  6
CONTINUOUS
 10
152.5044557338
 20
247.7236465652
 11
154.3524202723
 21
247.4063894701
  0
LINE
  8
0
 62
7
  6
CONTINUOUS
 10
154.5630905044
 20
248.0178577741
 11
152.6124581362
 21
248.3527408012
  0
LINE
  8
0
 62
7
  6
CONTINUOUS
 10
152.8824641928
 20
249.9254766849
 11
154.833096561
 21
249.5905936578
  0
LINE
  8
0
 62
7
  6
CONTINUOUS
 10
154.8204307334
 20
250.1324647865
 11
152.3564780154
 21
250.5554742466
  0
LINE
  8
0
 62
7
  6
CONTINUOUS
 10
156.127952412
 20
244.8163316097
 11
156.7373599056
 21
244.6775962258
  0
LINE
  8
0
 62
7
  6
CONTINUOUS
 10
159.581264642
 20
244.0301637283
 11
160.1906721356
 21
243.8914283444
  0
LINE
  8
0
 62
7
  6
CONTINUOUS
 10
157.4270090682
 20
245.829852482
 11
159.4583642805
 21
245.3674019078
  0
LINE
  8
0
 62
7
  6
CONTINUOUS
 10
159.4512606866
 20
245.8054387514
 11
157.6230382059
 21
246.2216449032
  0
LINE
  8
0
 62
7
  6
CONTINUOUS
 10
159.675465458
 20
249.1366500226
 11
158.8629252328
 21
249.3216298289
  0
LINE
  8
0
 62
7
  6
CONTINUOUS
 10
162.6005361994
 20
243.2233893137
 11
163.1015007326
 21
243.0809162065
  0
LINE
  8
0
 62
7
  6
CONTINUOUS
 10
163.3472026494
 20
243.5640470279
 11
162.6458449646
 21
243.763511465
  0
LINE
  8
0
 62
7
  6
CONTINUOUS
 10
163.2278663085
 20
245.8100173389
 11
163.9292239933
 21
245.6105529018
  0
LINE
  8
0
 62
7
  6
CONTINUOUS
 10
163.9745327381
 20
246.1506749815
 11
163.473568205
 21
246.2931480887
  0
LINE
  8
0
 62
7
  6
CONTINUOUS
 10
164.9506934651
 20
246.5366668637
 11
165.4516579983
 21
246.3941937565
  0
LINE
  8
0
 62
7
  6
CONTINUOUS
 10
163.7225844803
 20
247.5495474357
 11
164.3237455893
 21
247.3785786635
  0
LINE
  8
0
 62
7
  6
CONTINUOUS
 10
164.3690635071
 20
247.9186981344
 11
163.9682863768
 21
248.0326781855
  0
LINE
  8
0
 62
7
  6
CONTINUOUS
 10
155.3157600821
 20
249.9394877005
 11
154.8204307334
 21
250.1324647865
  0
LINE
  8
0
 62
7
  6
CONTINUOUS
 10
164.4464053801
 20
245.9058739826
 11
163.9745327381
 21
246.1506749815
  0
LINE
  8
0
 62
7
  6
CONTINUOUS
 10
164.8409269761
 20
247.6738997442
 11
164.3690635071
 21
247.9186981344
  0
LINE
  8
0
 62
7
  6
CONTINUOUS
 10
154.833096561
 20
249.5905936578
 11
155.1230902504
 21
249.4328684359
  0
LINE
  8
0
 62
7
  6
CONTINUOUS
 10
164.3237455893
 20
247.3785786635
 11
164.5952250796
 21
247.1907689945
  0
LINE
  8
0
 62
7
  6
CONTINUOUS
 10
240.2714229853
 20
129.2301727885
 11
243.8468066868
 21
154.0975126502
  0
LINE
  8
0
 62
7
  6
CONTINUOUS
 10
209.268181468
 20
78.3808850129
 11
225.7202845889
 21
97.3676241566
  0
LINE
  8
0
 62
7
  6
CONTINUOUS
 10
155.6953945024
 20
52.3653598675
 11
179.8007905468
 21
59.4433427689
  0
LINE
  8
0
 62
7
  6
CONTINUOUS
 10
238.8618089309
 20
188.7689336094
 11
228.4253141503
 21
211.6216694872
  0
LINE
  8
0
 62
7
  6
CONTINUOUS
 10
250.9363113615
 20
130.6826652701
 11
253.6704777275
 21
149.6992100493
  0
LINE
  8
0
 62
7
  6
CONTINUOUS
 10
219.0253332143
 20
73.8369254747
 11
231.6065806437
 21
88.3564590133
  0
LINE
  8
0
 62
7
  6
CONTINUOUS
 10
161.44698288
 20
43.2676233567
 11
179.8808542088
 21
48.6802963463
  0
LINE
  8
0
 62
7
  6
CONTINUOUS
 10
208.5960029165
 20
248.3985424726
 11
192.4337591007
 21
258.7853858764
  0
LINE
  8
0
 62
7
  6
CONTINUOUS
 10
247.0484072321
 20
195.7567220106
 11
239.0674140322
 21
213.2326594276
  0
LINE
  8
0
 62
7
  6
CONTINUOUS
 10
316.5249121892
 20
43.2471953136
 11
324.5375878108
 21
43.2471953136
  0
LINE
  8
0
 62
9
  6
CONTINUOUS
 10
316.53125
 20
43.2676233567
 11
324.53125
 21
43.2676233567
  0
LINE
  8
0
 62
9
  6
CONTINUOUS
 10
316.53125
 20
48.6802963463
 11
324.53125
 21
48.6802963463
  0
LINE
  8
0
 62
9
  6
CONTINUOUS
 10
324.6386425851
 20
49.6978688797
 11
316.4238574149
 21
49.6978688797
  0
LINE
  8
0
 62
9
  6
CONTINUOUS
 10
325.7792080622
 20
57.635101159
 11
315.2832919378
 21
57.635101159
  0
POLYLINE
  8
0
 62
7
  6
CONTINUOUS
 66
1
 70
0
  0
VERTEX
  8
0
 62
7
  6
CONTINUOUS
 10
324.5485645815
 20
258.9021481753
  0
VERTEX
  8
0
 62
7
  6
CONTINUOUS
 10
324.5446062897
 20
258.9002831584
  0
VERTEX
  8
0
 62
7
  6
CONTINUOUS
 10
324.53125
 20
258.7853858764
  0
SEQEND
  0
LINE
  8
0
 62
9
  6
CONTINUOUS
 10
326.03125
 20
71.4396003364
 11
315.03125
 21
71.4396003364
  0
LINE
  8
0
 62
7
  6
CONTINUOUS
 10
316.53125
 20
73.5522742402
 11
324.53125
 21
73.5522742402
  0
LINE
  8
0
 62
9
  6
CONTINUOUS
 10
316.53125
 20
73.8369254747
 11
324.53125
 21
73.8369254747
  0
LINE
  8
0
 62
9
  6
CONTINUOUS
 10
326.03125
 20
76.7519407455
 11
325.5346004165
 21
76.7519407455
  0
LINE
  8
0
 62
9
  6
CONTINUOUS
 10
315.5278995835
 20
76.7519407455
 11
315.03125
 21
76.7519407455
  0
POLYLINE
  8
0
 62
7
  6
CONTINUOUS
 66
1
 70
0
  0
VERTEX
  8
0
 62
7
  6
CONTINUOUS
 10
316.4887294882
 20
73.5522742542
  0
VERTEX
  8
0
 62
7
  6
CONTINUOUS
 10
316.4799452528
 20
73.5556576229
  0
VERTEX
  8
0
 62
7
  6
CONTINUOUS
 10
316.4238574149
 20
73.6811383299
  0
SEQEND
  0
LINE
  8
0
 62
9
  6
CONTINUOUS
 10
316.53125
 20
88.3564590133
 11
324.53125
 21
88.3564590133
  0
LINE
  8
0
 62
9
  6
CONTINUOUS
 10
324.6386425851
 20
89.5563288586
 11
316.4238574149
 21
89.5563288586
  0
LINE
  8
0
 62
9
  6
CONTINUOUS
 10
325.7792080622
 20
95.8684119861
 11
315.2832919378
 21
95.8684119861
  0
LINE
  8
0
 62
7
  6
CONTINUOUS
 10
316.4799435246
 20
258.8352334984
 11
316.5139354185
 21
258.9021481753
  0
LINE
  8
0
 62
7
  6
CONTINUOUS
 10
316.4238574149
 20
213.7173441904
 11
316.4557469104
 21
213.7431528617
  0
LINE
  8
0
 62
9
  6
CONTINUOUS
 10
326.03125
 20
111.3895877508
 11
315.03125
 21
111.3895877508
  0
POLYLINE
  8
0
 62
7
  6
CONTINUOUS
 66
1
 70
0
  0
VERTEX
  8
0
 62
7
  6
CONTINUOUS
 10
316.5279731137
 20
43.2471953281
  0
VERTEX
  8
0
 62
7
  6
CONTINUOUS
 10
316.5178749026
 20
43.2723612367
  0
VERTEX
  8
0
 62
7
  6
CONTINUOUS
 10
316.4799452528
 20
43.4532237332
  0
VERTEX
  8
0
 62
7
  6
CONTINUOUS
 10
316.4238574149
 20
43.7798264888
  0
SEQEND
  0
LINE
  8
0
 62
7
  6
CONTINUOUS
 10
326.03125
 20
244.867150093
 11
327.03125
 21
246.5992009006
  0
POLYLINE
  8
0
 62
7
  6
CONTINUOUS
 66
1
 70
0
  0
VERTEX
  8
0
 62
7
  6
CONTINUOUS
 10
324.6067530896
 20
213.7431528617
  0
VERTEX
  8
0
 62
7
  6
CONTINUOUS
 10
324.5825564754
 20
213.7225584405
  0
VERTEX
  8
0
 62
7
  6
CONTINUOUS
 10
324.5446062897
 20
213.5498337022
  0
SEQEND
  0
LINE
  8
1_AXIS
 62
7
  6
CONTINUOUS
 10
301.38125
 20
119.8492009006
 11
310.03125
 21
119.8492009006
  0
LINE
  8
1_AXIS
 62
7
  6
CONTINUOUS
 10
331.03125
 20
119.8492009006
 11
339.68125
 21
119.8492009006
  0
LINE
  8
0
 62
7
  6
CONTINUOUS
 10
315.2832919378
 20
211.9192461151
 11
316.4238574149
 21
213.7173441904
  0
POLYLINE
  8
0
 62
7
  6
CONTINUOUS
 66
1
 70
0
  0
VERTEX
  8
0
 62
7
  6
CONTINUOUS
 10
315.2832919378
 20
211.9192461151
  0
VERTEX
  8
0
 62
7
  6
CONTINUOUS
 10
315.1978085463
 20
211.7952868157
  0
VERTEX
  8
0
 62
7
  6
CONTINUOUS
 10
315.113735953
 20
211.6960443984
  0
VERTEX
  8
0
 62
7
  6
CONTINUOUS
 10
315.03125
 20
211.6216694872
  0
SEQEND
  0
LINE
  8
0
 62
9
  6
CONTINUOUS
 10
326.03125
 20
120.3276380243
 11
315.03125
 21
120.3276380243
  0
LINE
  8
0
 62
7
  6
CONTINUOUS
 10
324.5446250974
 20
73.6116656771
 11
324.5737705118
 21
73.5522742542
  0
POLYLINE
  8
0
 62
7
  6
CONTINUOUS
 66
1
 70
0
  0
VERTEX
  8
0
 62
7
  6
CONTINUOUS
 10
315.03125
 20
78.3808850129
  0
VERTEX
  8
0
 62
7
  6
CONTINUOUS
 10
315.1137368913
 20
78.1409389544
  0
VERTEX
  8
0
 62
7
  6
CONTINUOUS
 10
315.1978058278
 20
77.8780831135
  0
VERTEX
  8
0
 62
7
  6
CONTINUOUS
 10
315.2832919378
 20
77.5927370491
  0
SEQEND
  0
POLYLINE
  8
0
 62
7
  6
CONTINUOUS
 66
1
 70
0
  0
VERTEX
  8
0
 62
7
  6
CONTINUOUS
 10
316.4238574149
 20
258.5996544552
  0
VERTEX
  8
0
 62
7
  6
CONTINUOUS
 10
315.1978085463
 20
252.467850635
  0
VERTEX
  8
0
 62
7
  6
CONTINUOUS
 10
315.113735953
 20
252.062654086
  0
VERTEX
  8
0
 62
7
  6
CONTINUOUS
 10
315.03125
 20
251.6765813181
  0
SEQEND
  0
LINE
  8
0
 62
7
  6
CONTINUOUS
 10
316.4238574149
 20
258.5996544552
 11
316.4799435246
 21
258.8352334984
  0
LINE
  8
0
 62
9
  6
CONTINUOUS
 10
325.7792080622
 20
129.4472753851
 11
315.2832919378
 21
129.4472753851
  0
LINE
  8
0
 62
9
  6
CONTINUOUS
 10
324.6386425851
 20
129.9083491662
 11
316.4238574149
 21
129.9083491662
  0
LINE
  8
0
 62
9
  6
CONTINUOUS
 10
316.53125
 20
130.6826652701
 11
324.53125
 21
130.6826652701
  0
LINE
  8
0
 62
7
  6
CONTINUOUS
 10
324.6386425851
 20
129.9083491662
 11
325.7792080622
 21
129.4472753851
  0
LINE
  8
0
 62
7
  6
CONTINUOUS
 10
316.4238574149
 20
73.6811383299
 11
315.2832919378
 21
77.5927370491
  0
LINE
  8
0
 62
7
  6
CONTINUOUS
 10
315.03125
 20
52.3653598675
 11
315.2832919378
 21
50.8221927529
  0
POLYLINE
  8
0
 62
7
  6
CONTINUOUS
 66
1
 70
0
  0
VERTEX
  8
0
 62
7
  6
CONTINUOUS
 10
316.4238574149
 20
43.7798264888
  0
VERTEX
  8
0
 62
7
  6
CONTINUOUS
 10
315.6560489033
 20
48.5153879506
  0
VERTEX
  8
0
 62
7
  6
CONTINUOUS
 10
315.2832919378
 20
50.8221927529
  0
SEQEND
  0
LINE
  8
1_AXIS
 62
7
  6
CONTINUOUS
 10
299.38125
 20
191.3492009006
 11
299.38125
 21
121.8492009006
  0
LINE
  8
1_AXIS
 62
9
  6
CONTINUOUS
 10
301.38125
 20
119.8492009006
 11
301.38125
 21
193.3492009006
  0
POLYLINE
  8
0
 62
7
  6
CONTINUOUS
 66
1
 70
0
  0
VERTEX
  8
0
 62
7
  6
CONTINUOUS
 10
316.53125
 20
271.8947206085
  0
VERTEX
  8
0
 62
7
  6
CONTINUOUS
 10
316.5178749026
 20
271.7707128249
  0
VERTEX
  8
0
 62
7
  6
CONTINUOUS
 10
316.4799452528
 20
271.4887029541
  0
SEQEND
  0
LINE
  8
0
 62
7
  6
CONTINUOUS
 10
315.03125
 20
238.0940315956
 11
315.1978058278
 21
239.2505805309
  0
LINE
  8
0
 62
7
  6
CONTINUOUS
 10
316.4799452528
 20
271.4887029541
 11
315.03125
 21
261.5450966512
  0
LINE
  8
1_AXIS
 62
7
  6
CONTINUOUS
 10
315.03125
 20
262.2942009006
 11
316.4726465342
 21
271.9035111284
  0
LINE
  8
0
 62
7
  6
CONTINUOUS
 10
316.4238574149
 20
247.2430142719
 11
315.1978058278
 21
239.2505805309
  0
LINE
  8
0
 62
7
  6
CONTINUOUS
 10
315.2832919378
 20
95.8684119861
 11
316.4238574149
 21
89.5563288586
  0
POLYLINE
  8
0
 62
7
  6
CONTINUOUS
 66
1
 70
0
  0
VERTEX
  8
0
 62
7
  6
CONTINUOUS
 10
315.2832919378
 20
95.8684119861
  0
VERTEX
  8
0
 62
7
  6
CONTINUOUS
 10
315.1978085463
 20
96.3541717582
  0
VERTEX
  8
0
 62
7
  6
CONTINUOUS
 10
315.113735953
 20
96.8542218173
  0
VERTEX
  8
0
 62
7
  6
CONTINUOUS
 10
315.03125
 20
97.3676241566
  0
SEQEND
  0
LINE
  8
0
 62
7
  6
CONTINUOUS
 10
316.4238574149
 20
49.6978688797
 11
315.1978085463
 21
58.2373588828
  0
LINE
  8
0
 62
7
  6
CONTINUOUS
 10
315.1978085463
 20
58.2373588828
 11
315.03125
 21
59.4433427689
  0
POLYLINE
  8
0
 62
7
  6
CONTINUOUS
 66
1
 70
0
  0
VERTEX
  8
0
 62
7
  6
CONTINUOUS
 10
316.4238574149
 20
49.6978688797
  0
VERTEX
  8
0
 62
7
  6
CONTINUOUS
 10
316.4799435246
 20
49.2738525763
  0
VERTEX
  8
0
 62
7
  6
CONTINUOUS
 10
316.5178937103
 20
48.9133096994
  0
VERTEX
  8
0
 62
7
  6
CONTINUOUS
 10
316.53125
 20
48.6802963463
  0
SEQEND
  0
LINE
  8
0
 62
9
  6
CONTINUOUS
 10
310.03125
 20
119.8492009006
 11
310.03125
 21
193.3492009006
  0
POLYLINE
  8
0
 62
7
  6
CONTINUOUS
 66
1
 70
0
  0
VERTEX
  8
0
 62
7
  6
CONTINUOUS
 10
316.53125
 20
248.3985424726
  0
VERTEX
  8
0
 62
7
  6
CONTINUOUS
 10
316.5178749026
 20
248.0749826419
  0
VERTEX
  8
0
 62
7
  6
CONTINUOUS
 10
316.4799452528
 20
247.6655617601
  0
VERTEX
  8
0
 62
7
  6
CONTINUOUS
 10
316.4238574149
 20
247.2430142719
  0
SEQEND
  0
POLYLINE
  8
0
 62
7
  6
CONTINUOUS
 66
1
 70
0
  0
VERTEX
  8
0
 62
7
  6
CONTINUOUS
 10
315.03125
 20
188.7689336094
  0
VERTEX
  8
0
 62
7
  6
CONTINUOUS
 10
315.1137368913
 20
189.1724526221
  0
VERTEX
  8
0
 62
7
  6
CONTINUOUS
 10
315.1978058278
 20
189.557155255
  0
VERTEX
  8
0
 62
7
  6
CONTINUOUS
 10
315.2832919378
 20
189.922358226
  0
SEQEND
  0
LINE
  8
0
 62
7
  6
CONTINUOUS
 10
316.4238574149
 20
194.6097168396
 11
315.2832919378
 21
189.922358226
  0
LINE
  8
0
 62
9
  6
CONTINUOUS
 10
316.53125
 20
149.6992100493
 11
324.53125
 21
149.6992100493
  0
LINE
  8
0
 62
9
  6
CONTINUOUS
 10
324.6386425851
 20
150.7004270085
 11
316.4238574149
 21
150.7004270085
  0
POLYLINE
  8
0
 62
7
  6
CONTINUOUS
 66
1
 70
0
  0
VERTEX
  8
0
 62
7
  6
CONTINUOUS
 10
326.03125
 20
129.2301727885
  0
VERTEX
  8
0
 62
7
  6
CONTINUOUS
 10
325.9487631087
 20
129.327392561
  0
VERTEX
  8
0
 62
7
  6
CONTINUOUS
 10
325.8646941722
 20
129.3998123413
  0
VERTEX
  8
0
 62
7
  6
CONTINUOUS
 10
325.7792080622
 20
129.4472753851
  0
SEQEND
  0
LINE
  8
0
 62
7
  6
CONTINUOUS
 10
324.53125
 20
43.2676233567
 11
324.5345268863
 21
43.2471953281
  0
POLYLINE
  8
0
 62
7
  6
CONTINUOUS
 66
1
 70
0
  0
VERTEX
  8
0
 62
7
  6
CONTINUOUS
 10
316.4238574149
 20
89.5563288586
  0
VERTEX
  8
0
 62
7
  6
CONTINUOUS
 10
316.4799435246
 20
89.1695118595
  0
VERTEX
  8
0
 62
7
  6
CONTINUOUS
 10
316.5178937103
 20
88.7438357099
  0
VERTEX
  8
0
 62
7
  6
CONTINUOUS
 10
316.53125
 20
88.3564590133
  0
SEQEND
  0
LINE
  8
0
 62
7
  6
CONTINUOUS
 10
324.53125
 20
73.8369254747
 11
324.5446250974
 21
73.6116656771
  0
LINE
  8
0
 62
7
  6
CONTINUOUS
 10
316.5178937103
 20
213.5498337022
 11
316.53125
 21
213.2326594276
  0
LINE
  8
0
 62
7
  6
CONTINUOUS
 10
315.03125
 20
52.3653598675
 11
315.03125
 21
262.2940992651
  0
LINE
  8
0
 62
7
  6
CONTINUOUS
 10
316.53125
 20
272.2942009006
 11
316.53125
 21
271.8947206085
  0
LINE
  8
0
 62
7
  6
CONTINUOUS
 10
316.53125
 20
258.7853858764
 11
316.53125
 21
248.3985424726
  0
LINE
  8
0
 62
7
  6
CONTINUOUS
 10
316.53125
 20
213.2326594276
 11
316.53125
 21
195.7567220106
  0
LINE
  8
0
 62
7
  6
CONTINUOUS
 10
316.53125
 20
149.6992100493
 11
316.53125
 21
130.6826652701
  0
LINE
  8
0
 62
7
  6
CONTINUOUS
 10
316.53125
 20
88.3564590133
 11
316.53125
 21
73.8369254747
  0
LINE
  8
0
 62
7
  6
CONTINUOUS
 10
316.53125
 20
48.6802963463
 11
316.53125
 21
43.2676233567
  0
POLYLINE
  8
0
 62
7
  6
CONTINUOUS
 66
1
 70
0
  0
VERTEX
  8
0
 62
7
  6
CONTINUOUS
 10
316.53125
 20
195.7567220106
  0
VERTEX
  8
0
 62
7
  6
CONTINUOUS
 10
316.5178749026
 20
195.336338093
  0
VERTEX
  8
0
 62
7
  6
CONTINUOUS
 10
316.4799452528
 20
194.9294944373
  0
VERTEX
  8
0
 62
7
  6
CONTINUOUS
 10
316.4238574149
 20
194.6097168396
  0
SEQEND
  0
POLYLINE
  8
0
 62
7
  6
CONTINUOUS
 66
1
 70
0
  0
VERTEX
  8
0
 62
7
  6
CONTINUOUS
 10
316.53125
 20
130.6826652701
  0
VERTEX
  8
0
 62
7
  6
CONTINUOUS
 10
316.5178749026
 20
130.2989261891
  0
VERTEX
  8
0
 62
7
  6
CONTINUOUS
 10
316.4799452528
 20
130.0238297455
  0
VERTEX
  8
0
 62
7
  6
CONTINUOUS
 10
316.4238574149
 20
129.9083491662
  0
SEQEND
  0
LINE
  8
0
 62
7
  6
CONTINUOUS
 10
316.53125
 20
73.8369254747
 11
316.5178749026
 21
73.6116656771
  0
LINE
  8
0
 62
9
  6
CONTINUOUS
 10
325.7792081251
 20
153.3833193387
 11
315.2832919036
 21
153.3833192708
  0
LINE
  8
1_AXIS
 62
2
  6
CENTER
 10
297.38125
 20
156.5992009006
 11
343.68125
 21
156.5992009006
  0
LINE
  8
0
 62
7
  6
CONTINUOUS
 10
315.2832919036
 20
153.3833192708
 11
316.4238574149
 21
150.7004270085
  0
POLYLINE
  8
0
 62
7
  6
CONTINUOUS
 66
1
 70
0
  0
VERTEX
  8
0
 62
7
  6
CONTINUOUS
 10
315.2832919034
 20
153.3833192708
  0
VERTEX
  8
0
 62
7
  6
CONTINUOUS
 10
315.1978085015
 20
153.598355835
  0
VERTEX
  8
0
 62
7
  6
CONTINUOUS
 10
315.113735931
 20
153.8365762618
  0
VERTEX
  8
0
 62
7
  6
CONTINUOUS
 10
315.03125
 20
154.0975126502
  0
SEQEND
  0
POLYLINE
  8
0
 62
7
  6
CONTINUOUS
 66
1
 70
0
  0
VERTEX
  8
0
 62
7
  6
CONTINUOUS
 10
316.4238574149
 20
150.7004270085
  0
VERTEX
  8
0
 62
7
  6
CONTINUOUS
 10
316.4799435246
 20
150.4736209779
  0
VERTEX
  8
0
 62
7
  6
CONTINUOUS
 10
316.5178937103
 20
150.1179607253
  0
VERTEX
  8
0
 62
7
  6
CONTINUOUS
 10
316.53125
 20
149.6992100493
  0
SEQEND
  0
POLYLINE
  8
0
 62
7
  6
CONTINUOUS
 66
1
 70
0
  0
VERTEX
  8
0
 62
7
  6
CONTINUOUS
 10
324.53125
 20
248.3985424726
  0
VERTEX
  8
0
 62
7
  6
CONTINUOUS
 10
324.5446250974
 20
248.0749826419
  0
VERTEX
  8
0
 62
7
  6
CONTINUOUS
 10
324.5825547472
 20
247.6655617601
  0
VERTEX
  8
0
 62
7
  6
CONTINUOUS
 10
324.6386425851
 20
247.2430142719
  0
SEQEND
  0
POLYLINE
  8
0
 62
7
  6
CONTINUOUS
 66
1
 70
0
  0
VERTEX
  8
0
 62
7
  6
CONTINUOUS
 10
324.53125
 20
130.6826652701
  0
VERTEX
  8
0
 62
7
  6
CONTINUOUS
 10
324.5446250974
 20
130.2989261891
  0
VERTEX
  8
0
 62
7
  6
CONTINUOUS
 10
324.5825547472
 20
130.0238297455
  0
VERTEX
  8
0
 62
7
  6
CONTINUOUS
 10
324.6386425851
 20
129.9083491662
  0
SEQEND
  0
POLYLINE
  8
0
 62
7
  6
CONTINUOUS
 66
1
 70
0
  0
VERTEX
  8
0
 62
7
  6
CONTINUOUS
 10
324.53125
 20
195.7567220106
  0
VERTEX
  8
0
 62
7
  6
CONTINUOUS
 10
324.5446250974
 20
195.336338093
  0
VERTEX
  8
0
 62
7
  6
CONTINUOUS
 10
324.5825547472
 20
194.9294944373
  0
VERTEX
  8
0
 62
7
  6
CONTINUOUS
 10
324.6386425851
 20
194.6097168396
  0
SEQEND
  0
LINE
  8
0
 62
7
  6
CONTINUOUS
 10
324.53125
 20
272.2942009006
 11
324.53125
 21
271.8947206085
  0
LINE
  8
0
 62
7
  6
CONTINUOUS
 10
324.53125
 20
258.7853858764
 11
324.53125
 21
248.3985424726
  0
LINE
  8
0
 62
7
  6
CONTINUOUS
 10
324.53125
 20
213.2326594276
 11
324.53125
 21
195.7567220106
  0
LINE
  8
0
 62
7
  6
CONTINUOUS
 10
324.53125
 20
149.6992100493
 11
324.53125
 21
130.6826652701
  0
LINE
  8
0
 62
7
  6
CONTINUOUS
 10
324.53125
 20
88.3564590133
 11
324.53125
 21
73.8369254747
  0
LINE
  8
0
 62
7
  6
CONTINUOUS
 10
324.53125
 20
48.6802963463
 11
324.53125
 21
43.2676233567
  0
LINE
  8
0
 62
7
  6
CONTINUOUS
 10
326.03125
 20
52.3653598675
 11
326.03125
 21
238.1525941095
  0
LINE
  8
0
 62
7
  6
CONTINUOUS
 10
326.03125
 20
238.2824289422
 11
326.03125
 21
262.2940992651
  0
LINE
  8
0
 62
7
  6
CONTINUOUS
 10
324.5446062897
 20
213.5498337022
 11
324.53125
 21
213.2326594276
  0
POLYLINE
  8
0
 62
7
  6
CONTINUOUS
 66
1
 70
0
  0
VERTEX
  8
0
 62
7
  6
CONTINUOUS
 10
324.6386425851
 20
150.7004270085
  0
VERTEX
  8
0
 62
7
  6
CONTINUOUS
 10
324.5825564754
 20
150.4736209779
  0
VERTEX
  8
0
 62
7
  6
CONTINUOUS
 10
324.5446062897
 20
150.1179607253
  0
VERTEX
  8
0
 62
7
  6
CONTINUOUS
 10
324.53125
 20
149.6992100493
  0
SEQEND
  0
POLYLINE
  8
0
 62
7
  6
CONTINUOUS
 66
1
 70
0
  0
VERTEX
  8
0
 62
7
  6
CONTINUOUS
 10
325.7792081252
 20
153.3833193387
  0
VERTEX
  8
0
 62
7
  6
CONTINUOUS
 10
325.8646914985
 20
153.598355835
  0
VERTEX
  8
0
 62
7
  6
CONTINUOUS
 10
325.948764069
 20
153.8365762618
  0
VERTEX
  8
0
 62
7
  6
CONTINUOUS
 10
326.03125
 20
154.0975126502
  0
SEQEND
  0
LINE
  8
0
 62
7
  6
CONTINUOUS
 10
325.7792081251
 20
153.3833193387
 11
324.6386425851
 21
150.7004270085
  0
LINE
  8
0
 62
9
  6
CONTINUOUS
 10
326.03125
 20
165.6933079044
 11
315.03125
 21
165.6933079044
  0
POLYLINE
  8
0
 62
7
  6
CONTINUOUS
 66
1
 70
0
  0
VERTEX
  8
0
 62
7
  6
CONTINUOUS
 10
324.53125
 20
271.8947206085
  0
VERTEX
  8
0
 62
7
  6
CONTINUOUS
 10
324.5446250974
 20
271.7707128249
  0
VERTEX
  8
0
 62
7
  6
CONTINUOUS
 10
324.5825547472
 20
271.4887029541
  0
SEQEND
  0
LINE
  8
0
 62
9
  6
CONTINUOUS
 10
331.03125
 20
119.8492009006
 11
331.03125
 21
193.3492009006
  0
POLYLINE
  8
0
 62
7
  6
CONTINUOUS
 66
1
 70
0
  0
VERTEX
  8
0
 62
7
  6
CONTINUOUS
 10
324.6386425851
 20
89.5563288586
  0
VERTEX
  8
0
 62
7
  6
CONTINUOUS
 10
324.5825564754
 20
89.1695118595
  0
VERTEX
  8
0
 62
7
  6
CONTINUOUS
 10
324.5446062897
 20
88.7438357099
  0
VERTEX
  8
0
 62
7
  6
CONTINUOUS
 10
324.53125
 20
88.3564590133
  0
SEQEND
  0
LINE
  8
0
 62
7
  6
CONTINUOUS
 10
316.53125
 20
43.2676233567
 11
316.5279731137
 21
43.2471953281
  0
POLYLINE
  8
0
 62
7
  6
CONTINUOUS
 66
1
 70
0
  0
VERTEX
  8
0
 62
7
  6
CONTINUOUS
 10
325.8646914537
 20
96.3541717582
  0
VERTEX
  8
0
 62
7
  6
CONTINUOUS
 10
325.948764047
 20
96.8542218173
  0
VERTEX
  8
0
 62
7
  6
CONTINUOUS
 10
326.03125
 20
97.3676241566
  0
SEQEND
  0
LINE
  8
0
 62
7
  6
CONTINUOUS
 10
325.8646914537
 20
96.3541717582
 11
325.4065388355
 21
93.8013055879
  0
LINE
  8
0
 62
7
  6
CONTINUOUS
 10
325.4065388355
 20
93.8013055879
 11
324.6386425851
 21
89.5563288586
  0
POLYLINE
  8
0
 62
7
  6
CONTINUOUS
 66
1
 70
0
  0
VERTEX
  8
0
 62
7
  6
CONTINUOUS
 10
315.03125
 20
129.2301727885
  0
VERTEX
  8
0
 62
7
  6
CONTINUOUS
 10
315.1137368913
 20
129.327392561
  0
VERTEX
  8
0
 62
7
  6
CONTINUOUS
 10
315.1978058278
 20
129.3998123413
  0
VERTEX
  8
0
 62
7
  6
CONTINUOUS
 10
315.2832919378
 20
129.4472753851
  0
SEQEND
  0
LINE
  8
0
 62
7
  6
CONTINUOUS
 10
324.6386425851
 20
194.6097168396
 11
325.7792080622
 21
189.922358226
  0
POLYLINE
  8
0
 62
7
  6
CONTINUOUS
 66
1
 70
0
  0
VERTEX
  8
0
 62
7
  6
CONTINUOUS
 10
326.03125
 20
188.7689336094
  0
VERTEX
  8
0
 62
7
  6
CONTINUOUS
 10
325.9487631087
 20
189.1724526221
  0
VERTEX
  8
0
 62
7
  6
CONTINUOUS
 10
325.8646941722
 20
189.557155255
  0
VERTEX
  8
0
 62
7
  6
CONTINUOUS
 10
325.7792080622
 20
189.922358226
  0
SEQEND
  0
LINE
  8
1_AXIS
 62
9
  6
CONTINUOUS
 10
339.68125
 20
119.8492009006
 11
339.68125
 21
193.3492009006
  0
LINE
  8
1_AXIS
 62
7
  6
CONTINUOUS
 10
341.68125
 20
121.8492009006
 11
341.68125
 21
191.3492009006
  0
POLYLINE
  8
0
 62
7
  6
CONTINUOUS
 66
1
 70
0
  0
VERTEX
  8
0
 62
7
  6
CONTINUOUS
 10
324.6386425851
 20
49.6978688797
  0
VERTEX
  8
0
 62
7
  6
CONTINUOUS
 10
324.5825564754
 20
49.2738525763
  0
VERTEX
  8
0
 62
7
  6
CONTINUOUS
 10
324.5446062897
 20
48.9133096994
  0
VERTEX
  8
0
 62
7
  6
CONTINUOUS
 10
324.53125
 20
48.6802963463
  0
SEQEND
  0
LINE
  8
0
 62
7
  6
CONTINUOUS
 10
325.8646914537
 20
58.2373588828
 11
326.03125
 21
59.4433427689
  0
LINE
  8
0
 62
7
  6
CONTINUOUS
 10
325.8646914537
 20
58.2373588828
 11
324.6386425851
 21
49.6978688797
  0
LINE
  8
0
 62
7
  6
CONTINUOUS
 10
326.03125
 20
52.3653598675
 11
324.6386425851
 21
43.7798264888
  0
LINE
  8
0
 62
7
  6
CONTINUOUS
 10
316.4238574149
 20
129.9083491662
 11
315.2832919378
 21
129.4472753851
  0
LINE
  8
0
 62
9
  6
CONTINUOUS
 10
326.03125
 20
175.4193002338
 11
315.03125
 21
175.4193002338
  0
LINE
  8
0
 62
7
  6
CONTINUOUS
 10
325.8646914537
 20
252.467850635
 11
324.6386425851
 21
258.5996544552
  0
LINE
  8
0
 62
7
  6
CONTINUOUS
 10
325.8646941722
 20
239.2505805309
 11
324.6386425851
 21
247.2430142719
  0
LINE
  8
1_AXIS
 62
7
  6
CONTINUOUS
 10
324.53125
 20
272.2942009006
 11
326.03125
 21
262.2942009006
  0
LINE
  8
0
 62
7
  6
CONTINUOUS
 10
326.03125
 20
261.5450966512
 11
324.5825547472
 21
271.4887029541
  0
LINE
  8
0
 62
7
  6
CONTINUOUS
 10
326.03125
 20
238.0940315956
 11
325.8646941722
 21
239.2505805309
  0
LINE
  8
0
 62
7
  6
CONTINUOUS
 10
324.6386425851
 20
73.6811383299
 11
325.7792080622
 21
77.5927370491
  0
POLYLINE
  8
0
 62
7
  6
CONTINUOUS
 66
1
 70
0
  0
VERTEX
  8
0
 62
7
  6
CONTINUOUS
 10
326.03125
 20
78.3808850129
  0
VERTEX
  8
0
 62
7
  6
CONTINUOUS
 10
325.9487631087
 20
78.1409389544
  0
VERTEX
  8
0
 62
7
  6
CONTINUOUS
 10
325.8646941722
 20
77.8780831135
  0
VERTEX
  8
0
 62
7
  6
CONTINUOUS
 10
325.7792080622
 20
77.5927370491
  0
SEQEND
  0
LINE
  8
0
 62
7
  6
CONTINUOUS
 10
324.6386425851
 20
258.5996544552
 11
324.5825564754
 21
258.8352334984
  0
POLYLINE
  8
0
 62
7
  6
CONTINUOUS
 66
1
 70
0
  0
VERTEX
  8
0
 62
7
  6
CONTINUOUS
 10
325.8646914537
 20
252.467850635
  0
VERTEX
  8
0
 62
7
  6
CONTINUOUS
 10
325.948764047
 20
252.062654086
  0
VERTEX
  8
0
 62
7
  6
CONTINUOUS
 10
326.03125
 20
251.6765813181
  0
SEQEND
  0
LINE
  8
0
 62
7
  6
CONTINUOUS
 10
316.5178749026
 20
73.6116656771
 11
316.4887294882
 21
73.5522742542
  0
LINE
  8
0
 62
9
  6
CONTINUOUS
 10
325.7792080622
 20
189.922358226
 11
315.2832919378
 21
189.922358226
  0
LINE
  8
1_AXIS
 62
7
  6
CONTINUOUS
 10
301.38125
 20
193.3492009006
 11
310.03125
 21
193.3492009006
  0
LINE
  8
1_AXIS
 62
7
  6
CONTINUOUS
 10
331.03125
 20
193.3492009006
 11
339.68125
 21
193.3492009006
  0
LINE
  8
0
 62
9
  6
CONTINUOUS
 10
324.6386425851
 20
194.6097168396
 11
316.4238574149
 21
194.6097168396
  0
LINE
  8
0
 62
9
  6
CONTINUOUS
 10
316.53125
 20
195.7567220106
 11
324.53125
 21
195.7567220106
  0
POLYLINE
  8
0
 62
7
  6
CONTINUOUS
 66
1
 70
0
  0
VERTEX
  8
0
 62
7
  6
CONTINUOUS
 10
325.7792080622
 20
211.9192461151
  0
VERTEX
  8
0
 62
7
  6
CONTINUOUS
 10
325.8646914537
 20
211.7952868157
  0
VERTEX
  8
0
 62
7
  6
CONTINUOUS
 10
325.948764047
 20
211.6960443984
  0
VERTEX
  8
0
 62
7
  6
CONTINUOUS
 10
326.03125
 20
211.6216694872
  0
SEQEND
  0
LINE
  8
0
 62
7
  6
CONTINUOUS
 10
325.7792080622
 20
211.9192461151
 11
324.6386425851
 21
213.7173441904
  0
POLYLINE
  8
0
 62
7
  6
CONTINUOUS
 66
1
 70
0
  0
VERTEX
  8
0
 62
7
  6
CONTINUOUS
 10
324.5345268863
 20
43.2471953281
  0
VERTEX
  8
0
 62
7
  6
CONTINUOUS
 10
324.5446250974
 20
43.2723612367
  0
VERTEX
  8
0
 62
7
  6
CONTINUOUS
 10
324.5825547472
 20
43.4532237332
  0
VERTEX
  8
0
 62
7
  6
CONTINUOUS
 10
324.6386425851
 20
43.7798264888
  0
SEQEND
  0
LINE
  8
0
 62
7
  6
CONTINUOUS
 10
324.6386425851
 20
213.7173441904
 11
324.6067530896
 21
213.7431528617
  0
POLYLINE
  8
0
 62
7
  6
CONTINUOUS
 66
1
 70
0
  0
VERTEX
  8
0
 62
7
  6
CONTINUOUS
 10
316.4557469104
 20
213.7431528617
  0
VERTEX
  8
0
 62
7
  6
CONTINUOUS
 10
316.4799435246
 20
213.7225584405
  0
VERTEX
  8
0
 62
7
  6
CONTINUOUS
 10
316.5178937103
 20
213.5498337022
  0
SEQEND
  0
LINE
  8
0
 62
7
  6
CONTINUOUS
 10
326.03125
 20
248.3312517081
 11
327.03125
 21
246.5992009006
  0
LINE
  8
0
 62
7
  6
CONTINUOUS
 10
324.5825564754
 20
258.8352334984
 11
324.5485645815
 21
258.9021481753
  0
LINE
  8
0
 62
9
  6
CONTINUOUS
 10
316.53125
 20
213.2326594276
 11
324.53125
 21
213.2326594276
  0
LINE
  8
0
 62
7
  6
CONTINUOUS
 10
316.4534871775
 20
213.7431528929
 11
324.6090128225
 21
213.7431528929
  0
LINE
  8
0
 62
9
  6
CONTINUOUS
 10
326.03125
 20
217.1097133402
 11
315.03125
 21
217.1097133402
  0
LINE
  8
0
 62
9
  6
CONTINUOUS
 10
326.03125
 20
224.5357138814
 11
315.03125
 21
224.5357138814
  0
POLYLINE
  8
0
 62
7
  6
CONTINUOUS
 66
1
 70
0
  0
VERTEX
  8
0
 62
7
  6
CONTINUOUS
 10
324.5737705118
 20
73.5522742542
  0
VERTEX
  8
0
 62
7
  6
CONTINUOUS
 10
324.5825547472
 20
73.5556576229
  0
VERTEX
  8
0
 62
7
  6
CONTINUOUS
 10
324.6386425851
 20
73.6811383299
  0
SEQEND
  0
LINE
  8
0
 62
9
  6
CONTINUOUS
 10
325.7792080622
 20
239.8175740662
 11
315.2832919378
 21
239.8175740662
  0
LINE
  8
0
 62
9
  6
CONTINUOUS
 10
324.6386425851
 20
247.2430142719
 11
316.4238574149
 21
247.2430142719
  0
LINE
  8
0
 62
9
  6
CONTINUOUS
 10
316.53125
 20
248.3985424726
 11
324.53125
 21
248.3985424726
  0
POLYLINE
  8
0
 62
7
  6
CONTINUOUS
 66
1
 70
0
  0
VERTEX
  8
0
 62
7
  6
CONTINUOUS
 10
316.5139354185
 20
258.9021481753
  0
VERTEX
  8
0
 62
7
  6
CONTINUOUS
 10
316.5178937103
 20
258.9002831584
  0
VERTEX
  8
0
 62
7
  6
CONTINUOUS
 10
316.53125
 20
258.7853858764
  0
SEQEND
  0
LINE
  8
0
 62
9
  6
CONTINUOUS
 10
315.1179086175
 20
252.0827646741
 11
315.03125
 21
252.0827646741
  0
LINE
  8
0
 62
9
  6
CONTINUOUS
 10
316.53125
 20
258.7853858764
 11
324.53125
 21
258.7853858764
  0
LINE
  8
0
 62
7
  6
CONTINUOUS
 10
316.5124899043
 20
258.9021481827
 11
324.5500100957
 21
258.9021481827
  0
LINE
  8
0
 62
9
  6
CONTINUOUS
 10
325.7792080622
 20
263.2915444192
 11
315.2832919378
 21
263.2915444192
  0
LINE
  8
0
 62
9
  6
CONTINUOUS
 10
324.6386425851
 20
271.0975414173
 11
316.4238574149
 21
271.0975414173
  0
LINE
  8
0
 62
9
  6
CONTINUOUS
 10
316.53125
 20
271.8947206085
 11
324.53125
 21
271.8947206085
  0
LINE
  8
1_AXIS
 62
7
  6
CONTINUOUS
 10
316.53125
 20
272.2942009006
 11
324.53125
 21
272.2942009006
  0
ARC
  8
0
 62
7
  6
CONTINUOUS
 10
33.4565174155
 20
114.9715846438
 40
14.5
 50
21.6775698256
 51
86.6818181818
  0
ARC
  8
0
 62
7
  6
CONTINUOUS
 10
38.141139123
 20
104.7136939612
 40
14.5
 50
322.4090909091
 51
27.4133392653
  0
ARC
  8
0
 62
7
  6
CONTINUOUS
 10
72.5868137286
 20
64.9612663501
 40
14.5
 50
54.4048425529
 51
119.4090909091
  0
ARC
  8
0
 62
7
  6
CONTINUOUS
 10
82.073602694
 20
58.8644772834
 40
14.5
 50
355.1363636364
 51
60.1406119926
  0
ARC
  8
0
 62
7
  6
CONTINUOUS
 10
132.5429331061
 20
44.0453447936
 40
14.5
 50
87.1321152801
 51
152.1363636364
  0
ARC
  8
0
 62
7
  6
CONTINUOUS
 10
26.4011100523
 20
130.9066726656
 40
1.0
 50
192.9445163267
 51
266.6818181818
  0
ARC
  8
0
 62
7
  6
CONTINUOUS
 10
23.6905762233
 20
149.7588495398
 40
1.0
 50
109.6818181818
 51
183.4191200369
  0
ARC
  8
0
 62
7
  6
CONTINUOUS
 10
58.0362683443
 20
74.5522742402
 40
1.0
 50
225.671789054
 51
299.4090909091
  0
ARC
  8
0
 62
7
  6
CONTINUOUS
 10
45.5637658687
 20
88.946309412
 40
1.0
 50
142.4090909091
 51
216.1463927642
  0
ARC
  8
0
 62
7
  6
CONTINUOUS
 10
115.1169450511
 20
44.2471953136
 40
1.0
 50
258.3990617813
 51
332.1363636364
  0
ARC
  8
0
 62
7
  6
CONTINUOUS
 10
96.8424053385
 20
49.6130843194
 40
1.0
 50
175.1363636364
 51
248.8736654914
  0
ARC
  8
0
 62
7
  6
CONTINUOUS
 10
111.8814169847
 20
266.1823794683
 40
14.5
 50
283.4957516438
 51
348.5
  0
ARC
  8
0
 62
7
  6
CONTINUOUS
 10
101.061245658
 20
263.0052905086
 40
14.5
 50
224.2272727273
 51
289.2315210835
  0
ARC
  8
0
 62
7
  6
CONTINUOUS
 10
56.811309831
 20
234.5675835104
 40
14.5
 50
316.223024371
 51
21.2272727273
  0
ARC
  8
0
 62
7
  6
CONTINUOUS
 10
49.4264664489
 20
226.0450199279
 40
14.5
 50
256.9545454545
 51
321.9587938108
  0
ARC
  8
0
 62
7
  6
CONTINUOUS
 10
27.575636765
 20
178.1983769722
 40
14.5
 50
348.9502970983
 51
53.9545454545
  0
ARC
  8
0
 62
7
  6
CONTINUOUS
 10
25.9707569224
 20
167.0361924867
 40
14.5
 50
289.6818199239
 51
354.686066538
  0
ARC
  8
0
 62
7
  6
CONTINUOUS
 10
128.6583979449
 20
270.8981734828
 40
1.0
 50
94.7626981449
 51
168.5
  0
ARC
  8
0
 62
7
  6
CONTINUOUS
 10
68.375453603
 20
247.605082586
 40
1.0
 50
127.4899708722
 51
201.2272727273
  0
ARC
  8
0
 62
7
  6
CONTINUOUS
 10
84.398000424
 20
257.9021481827
 40
1.0
 50
44.2272727273
 51
117.9645745823
  0
ARC
  8
0
 62
7
  6
CONTINUOUS
 10
30.2554094095
 20
195.4182672709
 40
1.0
 50
160.2172435995
 51
233.9545454545
  0
ARC
  8
0
 62
7
  6
CONTINUOUS
 10
38.167419566
 20
212.7431528929
 40
1.0
 50
76.9545454545
 51
150.6918473096
  0
ARC
  8
0
 62
7
  6
CONTINUOUS
 10
138.1814169847
 20
156.5992009006
 40
115.695
 50
85.2373018551
 51
94.7626981449
  0
ARC
  8
0
 62
7
  6
CONTINUOUS
 10
138.1814169847
 20
156.5992009006
 40
105.695
 50
50.4471659152
 51
64.0982886303
  0
ARC
  8
0
 62
7
  6
CONTINUOUS
 10
138.1814169847
 20
156.5992009006
 40
105.695
 50
83.1744386425
 51
96.8255613575
  0
ARC
  8
0
 62
7
  6
CONTINUOUS
 10
138.1814169847
 20
156.5992009006
 40
98.195
 50
38.0412061892
 51
43.776975629
  0
ARC
  8
0
 62
7
  6
CONTINUOUS
 10
138.1814169847
 20
156.5992009006
 40
98.195
 50
5.313933462
 51
11.0497029017
  0
ARC
  8
0
 62
7
  6
CONTINUOUS
 10
138.1814169847
 20
156.5992009006
 40
98.195
 50
332.5866607347
 51
338.3224301744
  0
ARC
  8
0
 62
7
  6
CONTINUOUS
 10
138.1814169847
 20
156.5992009006
 40
98.195
 50
299.8593880074
 51
305.5951574471
  0
ARC
  8
0
 62
7
  6
CONTINUOUS
 10
138.1814169847
 20
156.5992009006
 40
98.195
 50
267.1321152801
 51
272.8678847199
  0
ARC
  8
0
 62
7
  6
CONTINUOUS
 10
138.1814169847
 20
156.5992009006
 40
98.195
 50
234.4048425529
 51
240.1406119926
  0
ARC
  8
0
 62
7
  6
CONTINUOUS
 10
138.1814169847
 20
156.5992009006
 40
98.195
 50
201.6775698256
 51
207.4133392653
  0
ARC
  8
0
 62
7
  6
CONTINUOUS
 10
138.1814169847
 20
156.5992009006
 40
98.195
 50
168.9502970983
 51
174.686066538
  0
ARC
  8
0
 62
7
  6
CONTINUOUS
 10
138.1814169847
 20
156.5992009006
 40
98.195
 50
136.223024371
 51
141.9587938108
  0
ARC
  8
0
 62
7
  6
CONTINUOUS
 10
138.1814169847
 20
156.5992009006
 40
98.195
 50
103.4957516438
 51
109.2315210835
  0
ARC
  8
0
 62
7
  6
CONTINUOUS
 10
138.1814169847
 20
156.5992009006
 40
98.195
 50
70.7684789165
 51
76.5042483562
  0
CIRCLE
  8
0
 62
9
  6
CONTINUOUS
 10
138.1814169847
 20
156.5992009006
 40
41.75
  0
CIRCLE
  8
1_AXIS
 62
7
  6
CONTINUOUS
 10
138.1814169847
 20
156.5992009006
 40
36.75
  0
ARC
  8
0
 62
7
  6
CONTINUOUS
 10
138.1814169847
 20
156.5992009006
 40
36.75
 50
108.3243370998
 51
288.3243370998
  0
CIRCLE
  8
1_AXIS
 62
9
  6
CONTINUOUS
 10
138.1814169847
 20
156.5992009006
 40
34.75
  0
ARC
  8
0
 62
7
  6
CONTINUOUS
 10
143.8199008634
 20
44.0453447936
 40
14.5
 50
27.8636363636
 51
92.8678847199
  0
ARC
  8
0
 62
7
  6
CONTINUOUS
 10
194.2892312755
 20
58.8644772834
 40
14.5
 50
119.8593880074
 51
184.8636363636
  0
ARC
  8
0
 62
7
  6
CONTINUOUS
 10
203.7760202409
 20
64.9612663501
 40
14.5
 50
60.5909090909
 51
125.5951574471
  0
ARC
  8
0
 62
7
  6
CONTINUOUS
 10
238.2216948464
 20
104.7136939612
 40
14.5
 50
152.5866607347
 51
217.5909090909
  0
ARC
  8
0
 62
7
  6
CONTINUOUS
 10
242.9063165539
 20
114.9715846438
 40
14.5
 50
93.3181818182
 51
158.3224301744
  0
ARC
  8
0
 62
7
  6
CONTINUOUS
 10
179.520428631
 20
49.6130843194
 40
1.0
 50
291.1263345086
 51
4.8636363636
  0
ARC
  8
0
 62
7
  6
CONTINUOUS
 10
161.2458889184
 20
44.2471953136
 40
1.0
 50
207.8636363636
 51
281.6009382187
  0
ARC
  8
0
 62
7
  6
CONTINUOUS
 10
230.7990681007
 20
88.946309412
 40
1.0
 50
323.8536072358
 51
37.5909090909
  0
ARC
  8
0
 62
7
  6
CONTINUOUS
 10
218.3265656251
 20
74.5522742402
 40
1.0
 50
240.5909090909
 51
314.328210946
  0
ARC
  8
0
 62
7
  6
CONTINUOUS
 10
252.6722577462
 20
149.7588495398
 40
1.0
 50
356.5808799631
 51
70.3181818182
  0
ARC
  8
0
 62
7
  6
CONTINUOUS
 10
249.9617239171
 20
130.9066726656
 40
1.0
 50
273.3181818182
 51
347.0554836733
  0
ARC
  8
0
 62
7
  6
CONTINUOUS
 10
164.4814169847
 20
266.1823794683
 40
14.5
 50
191.5
 51
256.5042483562
  0
ARC
  8
0
 62
7
  6
CONTINUOUS
 10
250.3920770471
 20
167.0361924867
 40
14.5
 50
185.313933462
 51
250.3181818182
  0
ARC
  8
0
 62
7
  6
CONTINUOUS
 10
248.7871972045
 20
178.1983769722
 40
14.5
 50
126.0454545455
 51
191.0497029017
  0
ARC
  8
0
 62
7
  6
CONTINUOUS
 10
226.9363675206
 20
226.0450199279
 40
14.5
 50
218.0412061892
 51
283.0454560064
  0
ARC
  8
0
 62
7
  6
CONTINUOUS
 10
219.5515241384
 20
234.5675835104
 40
14.5
 50
158.7727272727
 51
223.776975629
  0
ARC
  8
0
 62
7
  6
CONTINUOUS
 10
175.3015883115
 20
263.0052905086
 40
14.5
 50
250.7684789165
 51
315.7727272727
  0
CIRCLE
  8
0
 62
7
  6
CONTINUOUS
 10
138.1814169847
 20
246.5992009006
 40
1.7320508076
  0
ARC
  8
0
 62
7
  6
CONTINUOUS
 10
147.7044360246
 20
270.8981734828
 40
1.0
 50
11.5
 51
85.2373018551
  0
ARC
  8
0
 62
7
  6
CONTINUOUS
 10
238.1954144035
 20
212.7431528929
 40
1.0
 50
29.3081526904
 51
103.0454545455
  0
ARC
  8
0
 62
7
  6
CONTINUOUS
 10
246.10742456
 20
195.4182672709
 40
1.0
 50
306.0454545455
 51
19.7827564005
  0
ARC
  8
0
 62
7
  6
CONTINUOUS
 10
191.9648335455
 20
257.9021481827
 40
1.0
 50
62.0354254177
 51
135.7727272727
  0
ARC
  8
0
 62
7
  6
CONTINUOUS
 10
207.9873803664
 20
247.605082586
 40
1.0
 50
338.7727272727
 51
52.5100291278
  0
ARC
  8
0
 62
7
  6
CONTINUOUS
 10
310.03125
 20
114.8492009006
 40
5.0
 50
0.0
 51
90.0
  0
ARC
  8
0
 62
7
  6
CONTINUOUS
 10
310.03125
 20
198.3492009006
 40
5.0
 50
270.0
 51
360.0
  0
ARC
  8
0
 62
7
  6
CONTINUOUS
 10
331.03125
 20
114.8492009006
 40
5.0
 50
90.0
 51
180.0
  0
ARC
  8
0
 62
7
  6
CONTINUOUS
 10
331.03125
 20
198.3492009006
 40
5.0
 50
180.0
 51
270.0
  0
ARC
  8
1_AXIS
 62
7
  6
CONTINUOUS
 10
301.38125
 20
191.3492009006
 40
2.0
 50
90.0
 51
180.0
  0
ARC
  8
1_AXIS
 62
7
  6
CONTINUOUS
 10
301.38125
 20
121.8492009006
 40
2.0
 50
180.0
 51
270.0
  0
ARC
  8
1_AXIS
 62
7
  6
CONTINUOUS
 10
339.68125
 20
191.3492009006
 40
2.0
 50
0.0
 51
90.0
  0
ARC
  8
1_AXIS
 62
7
  6
CONTINUOUS
 10
339.68125
 20
121.8492009006
 40
2.0
 50
270.0
 51
360.0
  0
ENDSEC
  0
EOF
