  0
SECTION
  2
HEADER
  9
$EXTMAX
 10
420.0
 20
297.0
 30
0.0
  9
$EXTMIN
 10
0.0
 20
0.0
 30
0.0
  9
$LIMMIN
 10
0.0
 20
0.0
  9
$LIMMAX
 10
420.0
 20
297.0
  9
$VIEWCTR
 10
210.0
 20
148.5
  9
$VIEWSIZE
 40
297.0
  9
$CLAYER
  8
0
  9
$LTSCALE
 40
23.1
  9
$CELTYPE
  6
BYLAYER
  9
$DIMSCALE
 40
1.0
  9
$DIMASZ
 40
3.5
  9
$DIMEXO
 40
1.0
  9
$DIMDLI
 40
15.96
  9
$DIMEXE
 40
2.0
  9
$DIMCEN
 40
3.78
  9
$DIMLFAC
 40
1.0
  9
$DIMBLK
  1
_FILLED
  9
$DIMALT
 70
0
  9
$DIMALTF
 40
0.0393700787
  9
$DIMTXT
 40
3.5
  9
$AUNITS
 70
0
  9
$PDMODE
 70
3
  9
$PDSIZE
 40
0.3125
  9
$TILEMODE
 70
1
  0
ENDSEC
  0
SECTION
  2
TABLES
  0
TABLE
  2
LTYPE
 70
6
  0
LTYPE
  2
BYBLOCK
 70
0
  3

 72
65
 73
0
 40
0.0
  0
LTYPE
  2
BYLAYER
 70
0
  3

 72
65
 73
0
 40
0.0
  0
LTYPE
  2
CONTINUOUS
 70
64
  3
Solid line
 72
65
 73
0
 40
0.0
  0
LTYPE
  2
CENTER
 70
64
  3
____ _ ____ _ ____ _ ____ _ ____ _ ____ _ ____
 72
65
 73
4
 40
0.6
 49
0.375
 49
-0.075
 49
0.075
 49
-0.075
  0
LTYPE
  2
HIDDEN
 70
64
  3
- - - - - - - - - - - - - - - - - - - -
 72
65
 73
2
 40
0.2
 49
0.1
 49
-0.1
  0
LTYPE
  2
PHANTOM
 70
64
  3
_____ _ _ _____ _ _ _____ _ _ _____
 72
65
 73
6
 40
0.8
 49
0.45
 49
-0.05
 49
0.1
 49
-0.05
 49
0.1
 49
-0.05
  0
LTYPE
  2
DOT
 70
64
  3
. . . . . . . . . . . . . . . . . . . .
 72
65
 73
2
 40
0.2
 49
0.1
 49
-0.1
  0
LTYPE
  2
DASHED
 70
64
  3
- - - - - - - - - - - - - - - - - - - -
 72
65
 73
2
 40
0.2
 49
0.1
 49
-0.1
  0
ENDTAB
  0
TABLE
  2
LAYER
 70
36
  0
LAYER
  2
0
 70
0
 62
7
  6
CONTINUOUS
  0
LAYER
  2
DEFAULT_1
 70
0
 62
7
  6
CENTER
  0
LAYER
  2
DEFAULT_2
 70
0
 62
8
  6
HIDDEN
  0
LAYER
  2
DEFAULT_3
 70
0
 62
7
  6
PHANTOM
  0
LAYER
  2
1_AXIS
 70
0
 62
7
  6
CONTINUOUS
  0
LAYER
  2
1_DATUM_PLANE
 70
0
 62
7
  6
CONTINUOUS
  0
LAYER
  2
2_FEATURE
 70
0
 62
7
  6
CONTINUOUS
  0
LAYER
  2
4_QUILT
 70
0
 62
7
  6
CONTINUOUS
  0
LAYER
  2
6_DIM
 70
0
 62
7
  6
CONTINUOUS
  0
LAYER
  2
AXES
 70
0
 62
7
  6
CONTINUOUS
  0
LAYER
  2
BLANK_COM
 70
0
 62
7
  6
CONTINUOUS
  0
LAYER
  2
CSYS
 70
0
 62
7
  6
CONTINUOUS
  0
LAYER
  2
CURVES
 70
0
 62
7
  6
CONTINUOUS
  0
LAYER
  2
NOTES
 70
0
 62
7
  6
CONTINUOUS
  0
LAYER
  2
PLANES
 70
0
 62
7
  6
CONTINUOUS
  0
LAYER
  2
QUILTS
 70
0
 62
7
  6
CONTINUOUS
  0
ENDTAB
  0
TABLE
  2
STYLE
 70
1
  0
STYLE
  2
STANDARD
 70
0
 40
0.0
 41
0.8
 50
0.0
 71
0
 42
0.2
  3
txt
  4

  0
STYLE
  2
TEXTSTYLE_1
 70
0
 40
0.0
 41
0.8
 50
0.0
 71
0
 42
0.2
  3
gdt
  4

  0
STYLE
  2
TEXTSTYLE_2
 70
0
 40
0.0
 41
0.6
 50
0.0
 71
0
 42
0.2
  3
txt
  4

  0
STYLE
  2
TEXTSTYLE_3
 70
0
 40
0.0
 41
1.0
 50
0.0
 71
0
 42
0.2
  3
ftb_____.ttf
  4

  0
STYLE
  2
TEXTSTYLE_4
 70
0
 40
0.0
 41
1.0
 50
0.0
 71
0
 42
0.2
  3
fti_____.ttf
  4

  0
STYLE
  2
TEXTSTYLE_5
 70
0
 40
0.0
 41
1.0
 50
0.0
 71
0
 42
0.2
  3
frutiger light.ttf
  4

  0
STYLE
  2
TEXTSTYLE_6
 70
0
 40
0.0
 41
0.7
 50
0.0
 71
0
 42
0.2
  3
txt
  4

  0
STYLE
  2
TEXTSTYLE_7
 70
0
 40
0.0
 41
0.8
 50
0.0
 71
0
 42
0.2
  3
txt
  4

  0
ENDTAB
  0
ENDSEC
  0
SECTION
  2
BLOCKS
  0
BLOCK
  8
0
 62
2
  6
CONTINUOUS
  2
UNI_LOGO2_BL1
 70
64
 10
382.7840918555
 20
35.5067593403
  0
TEXT
  8
0
 62
7
  6
CONTINUOUS
 10
373.842376864
 20
30.5995157174
  7
TEXTSTYLE_4
 40
1.0655737705
  1
The brand for plastic modular belts and chains
 41
1.0
 72
0
  0
LINE
  8
0
 62
7
  6
CONTINUOUS
 10
358.7621602445
 20
36.0805298321
 11
358.7621602445
 21
33.9493822911
  0
LINE
  8
0
 62
7
  6
CONTINUOUS
 10
359.0512227376
 20
30.9584509954
 11
359.0512227376
 21
31.0552420547
  0
LINE
  8
0
 62
7
  6
CONTINUOUS
 10
358.7621602445
 20
31.0229783683
 11
358.8199727462
 21
30.8293962497
  0
LINE
  8
0
 62
7
  6
CONTINUOUS
 10
360.1556028675
 20
33.867415078
 11
360.1556028675
 21
36.0805298321
  0
LINE
  8
0
 62
7
  6
CONTINUOUS
 10
361.0746601894
 20
32.0231527829
 11
361.0746601894
 21
30.5067593403
  0
LINE
  8
0
 62
7
  6
CONTINUOUS
 10
361.3637227445
 20
30.5067593403
 11
361.3637227445
 21
31.2488242184
  0
LINE
  8
0
 62
7
  6
CONTINUOUS
 10
361.3637227445
 20
31.3778789641
 11
361.3637227445
 21
32.0231527829
  0
LINE
  8
0
 62
7
  6
CONTINUOUS
 10
358.8199727462
 20
31.216560532
 11
358.7621602445
 21
31.0229783683
  0
LINE
  8
0
 62
7
  6
CONTINUOUS
 10
359.1668477307
 20
30.7971325633
 11
359.0512227376
 21
30.9584509954
  0
LINE
  8
0
 62
7
  6
CONTINUOUS
 10
360.2652852997
 20
31.3133515913
 11
360.3230977445
 21
31.216560532
  0
LINE
  8
0
 62
7
  6
CONTINUOUS
 10
360.6121602997
 20
31.216560532
 11
360.5543476894
 21
31.3456152777
  0
LINE
  8
0
 62
7
  6
CONTINUOUS
 10
362.0408487691
 20
36.0805298321
 11
362.0408487691
 21
34.2772511436
  0
LINE
  8
0
 62
7
  6
CONTINUOUS
 10
362.0408487691
 20
32.9657757338
 11
362.0408487691
 21
32.3100380288
  0
LINE
  8
0
 62
7
  6
CONTINUOUS
 10
362.4043477445
 20
31.1520331591
 11
362.4043477445
 21
30.5067593403
  0
LINE
  8
0
 62
7
  6
CONTINUOUS
 10
362.6934101343
 20
30.5067593403
 11
362.6934101343
 21
31.1520331591
  0
LINE
  8
0
 62
7
  6
CONTINUOUS
 10
359.0512227376
 20
31.0552420547
 11
359.1090352445
 21
31.1842968456
  0
LINE
  8
0
 62
7
  6
CONTINUOUS
 10
358.8199727462
 20
30.8293962497
 11
358.9355977445
 21
30.7003414814
  0
LINE
  8
0
 62
7
  6
CONTINUOUS
 10
362.3465351343
 20
31.2810879048
 11
362.4043477445
 21
31.1520331591
  0
LINE
  8
0
 62
7
  6
CONTINUOUS
 10
363.1559103548
 20
30.7971325633
 11
363.2137226343
 21
30.668077795
  0
LINE
  8
0
 62
7
  6
CONTINUOUS
 10
362.6934101343
 20
31.1520331591
 11
362.6355978548
 21
31.3133515913
  0
LINE
  8
0
 62
7
  6
CONTINUOUS
 10
363.1559103548
 20
31.3456152777
 11
363.1559103548
 21
31.2810879048
  0
LINE
  8
0
 62
7
  6
CONTINUOUS
 10
363.1559103548
 20
30.8939236226
 11
363.1559103548
 21
30.7971325633
  0
LINE
  8
0
 62
7
  6
CONTINUOUS
 10
363.4342913921
 20
32.3100380288
 11
363.4342913921
 21
36.0805298321
  0
LINE
  8
0
 62
7
  6
CONTINUOUS
 10
363.4449727445
 20
30.7648688543
 11
363.4449727445
 21
30.8293962497
  0
LINE
  8
0
 62
7
  6
CONTINUOUS
 10
363.7621602445
 20
36.0805298321
 11
363.7621602445
 21
32.3100380288
  0
LINE
  8
0
 62
7
  6
CONTINUOUS
 10
360.5543476894
 20
30.7003414814
 11
360.6121602997
 21
30.8293962497
  0
LINE
  8
0
 62
7
  6
CONTINUOUS
 10
364.9480979651
 20
30.6035504109
 11
364.890285024
 21
30.7648688543
  0
LINE
  8
0
 62
7
  6
CONTINUOUS
 10
364.6012229651
 20
31.2810879048
 11
364.6012229651
 21
31.1842968456
  0
LINE
  8
0
 62
7
  6
CONTINUOUS
 10
364.6012229651
 20
31.0552420547
 11
364.6012229651
 21
30.8616599362
  0
LINE
  8
0
 62
7
  6
CONTINUOUS
 10
364.890285024
 20
30.7648688543
 11
364.890285024
 21
31.2810879048
  0
LINE
  8
0
 62
7
  6
CONTINUOUS
 10
365.1556028675
 20
32.3100380288
 11
365.1556028675
 21
34.1133167174
  0
LINE
  8
0
 62
7
  6
CONTINUOUS
 10
365.1556028675
 20
35.4247921272
 11
365.1556028675
 21
36.0805298321
  0
LINE
  8
0
 62
7
  6
CONTINUOUS
 10
365.4684104651
 20
32.0231527829
 11
365.4684104651
 21
31.8618343508
  0
LINE
  8
0
 62
7
  6
CONTINUOUS
 10
365.4684104651
 20
31.5391973962
 11
365.4684104651
 21
30.5067593403
  0
LINE
  8
0
 62
7
  6
CONTINUOUS
 10
365.757472524
 20
30.5067593403
 11
365.757472524
 21
31.5391973962
  0
LINE
  8
0
 62
7
  6
CONTINUOUS
 10
365.757472524
 20
31.8618343508
 11
365.757472524
 21
32.0231527829
  0
LINE
  8
0
 62
7
  6
CONTINUOUS
 10
360.3230977445
 20
30.8293962497
 11
360.2652852997
 21
30.7326051679
  0
LINE
  8
0
 62
7
  6
CONTINUOUS
 10
362.6355978548
 20
31.3133515913
 11
362.5777852445
 21
31.3778789641
  0
LINE
  8
0
 62
7
  6
CONTINUOUS
 10
363.5027853548
 20
30.7003414814
 11
363.4449727445
 21
30.7648688543
  0
LINE
  8
0
 62
7
  6
CONTINUOUS
 10
364.6590352445
 20
30.5712867188
 11
364.716847524
 21
30.5067593403
  0
LINE
  8
0
 62
7
  6
CONTINUOUS
 10
364.6012229651
 20
30.668077795
 11
364.6590352445
 21
30.5712867188
  0
LINE
  8
0
 62
7
  6
CONTINUOUS
 10
365.0059102445
 20
30.5067593403
 11
364.9480979651
 21
30.6035504109
  0
LINE
  8
0
 62
7
  6
CONTINUOUS
 10
364.890285024
 20
31.2810879048
 11
364.8324727445
 21
31.3778789641
  0
LINE
  8
0
 62
7
  6
CONTINUOUS
 10
366.2199727445
 20
31.5391973962
 11
366.2199727445
 21
30.5067593403
  0
LINE
  8
0
 62
7
  6
CONTINUOUS
 10
366.5090354651
 20
30.5067593403
 11
366.5090354651
 21
31.2488242184
  0
LINE
  8
0
 62
7
  6
CONTINUOUS
 10
366.5090354651
 20
31.3778789641
 11
366.5090354651
 21
31.5391973962
  0
LINE
  8
0
 62
7
  6
CONTINUOUS
 10
367.0408487691
 20
34.5231527829
 11
367.0408487691
 21
32.3100380288
  0
LINE
  8
0
 62
7
  6
CONTINUOUS
 10
358.9355977445
 20
31.3456152777
 11
358.8199727462
 21
31.216560532
  0
LINE
  8
0
 62
7
  6
CONTINUOUS
 10
359.1090352445
 20
31.1842968456
 11
359.1668477307
 21
31.2488242184
  0
LINE
  8
0
 62
7
  6
CONTINUOUS
 10
358.9355977445
 20
30.7003414814
 11
359.0512227376
 21
30.6358140973
  0
LINE
  8
0
 62
7
  6
CONTINUOUS
 10
359.3402852307
 20
30.7003414814
 11
359.1668477307
 21
30.7971325633
  0
LINE
  8
0
 62
7
  6
CONTINUOUS
 10
364.543410024
 20
31.3456152777
 11
364.6012229651
 21
31.2810879048
  0
LINE
  8
0
 62
7
  6
CONTINUOUS
 10
367.491847524
 20
31.2810879048
 11
367.5496604651
 21
31.1197694727
  0
LINE
  8
0
 62
7
  6
CONTINUOUS
 10
367.838722524
 20
31.1197694727
 11
367.7809102445
 21
31.2810879048
  0
LINE
  8
0
 62
7
  6
CONTINUOUS
 10
367.5496604651
 20
31.1197694727
 11
367.5496604651
 21
30.5067593403
  0
LINE
  8
0
 62
7
  6
CONTINUOUS
 10
367.838722524
 20
30.5067593403
 11
367.838722524
 21
31.1197694727
  0
LINE
  8
0
 62
7
  6
CONTINUOUS
 10
368.3012227445
 20
31.3456152777
 11
368.3012227445
 21
31.2810879048
  0
LINE
  8
0
 62
7
  6
CONTINUOUS
 10
368.4342913921
 20
32.3100380288
 11
368.4342913921
 21
34.4411855698
  0
LINE
  8
0
 62
7
  6
CONTINUOUS
 10
368.7621602445
 20
36.0805298321
 11
368.7621602445
 21
32.3100380288
  0
LINE
  8
0
 62
7
  6
CONTINUOUS
 10
363.4449727445
 20
30.8293962497
 11
363.5027853548
 21
30.926187309
  0
LINE
  8
0
 62
7
  6
CONTINUOUS
 10
359.0512227376
 20
30.6358140973
 11
359.2246602583
 21
30.5712867188
  0
LINE
  8
0
 62
7
  6
CONTINUOUS
 10
360.5543476894
 20
31.3456152777
 11
360.3809101894
 21
31.4424063369
  0
LINE
  8
0
 62
7
  6
CONTINUOUS
 10
363.2137226343
 20
30.668077795
 11
363.3871601343
 21
30.5712867188
  0
LINE
  8
0
 62
7
  6
CONTINUOUS
 10
362.2309102445
 20
31.3456152777
 11
362.3465351343
 21
31.2810879048
  0
LINE
  8
0
 62
7
  6
CONTINUOUS
 10
362.5777852445
 20
31.3778789641
 11
362.4621603548
 21
31.4424063369
  0
LINE
  8
0
 62
7
  6
CONTINUOUS
 10
368.3012227445
 20
30.7648688543
 11
368.4168479651
 21
30.6358140973
  0
LINE
  8
0
 62
7
  6
CONTINUOUS
 10
368.6480977445
 20
30.7003414814
 11
368.5902854651
 21
30.7648688543
  0
LINE
  8
0
 62
7
  6
CONTINUOUS
 10
368.3012227445
 20
31.2810879048
 11
368.4168479651
 21
31.1520331591
  0
LINE
  8
0
 62
7
  6
CONTINUOUS
 10
367.7809102445
 20
31.2810879048
 11
367.7230979651
 21
31.3778789641
  0
LINE
  8
0
 62
7
  6
CONTINUOUS
 10
370.1512223035
 20
30.7003414814
 11
370.1512223035
 21
30.7648688543
  0
LINE
  8
0
 62
7
  6
CONTINUOUS
 10
370.1556028675
 20
32.3100380288
 11
370.1556028675
 21
36.0805298321
  0
LINE
  8
0
 62
7
  6
CONTINUOUS
 10
363.2137226343
 20
31.4101426505
 11
363.1559103548
 21
31.3456152777
  0
LINE
  8
0
 62
7
  6
CONTINUOUS
 10
360.091847717
 20
31.3778789641
 11
360.2652852997
 21
31.3133515913
  0
LINE
  8
0
 62
7
  6
CONTINUOUS
 10
364.8324727445
 20
31.3778789641
 11
364.716847524
 21
31.4424063369
  0
LINE
  8
0
 62
7
  6
CONTINUOUS
 10
368.6480977445
 20
31.216560532
 11
368.5902854651
 21
31.2810879048
  0
LINE
  8
0
 62
7
  6
CONTINUOUS
 10
369.8043479651
 20
30.8293962497
 11
369.8621602445
 21
30.7648688543
  0
LINE
  8
0
 62
7
  6
CONTINUOUS
 10
370.1512223035
 20
30.7648688543
 11
370.0355977445
 21
30.8939236226
  0
LINE
  8
0
 62
7
  6
CONTINUOUS
 10
369.8043479651
 20
31.3456152777
 11
369.8621602445
 21
31.2810879048
  0
LINE
  8
0
 62
7
  6
CONTINUOUS
 10
370.1512223035
 20
31.2810879048
 11
370.0355977445
 21
31.4101426505
  0
LINE
  8
0
 62
7
  6
CONTINUOUS
 10
363.4449727445
 20
31.2810879048
 11
363.5027853548
 21
31.3456152777
  0
LINE
  8
0
 62
7
  6
CONTINUOUS
 10
363.2715352445
 20
31.0229783683
 11
363.1559103548
 21
30.8939236226
  0
LINE
  8
0
 62
7
  6
CONTINUOUS
 10
364.6012229651
 20
30.8616599362
 11
364.543410024
 21
30.7971325633
  0
LINE
  8
0
 62
7
  6
CONTINUOUS
 10
364.543410024
 20
30.6035504109
 11
364.6012229651
 21
30.668077795
  0
LINE
  8
0
 62
7
  6
CONTINUOUS
 10
363.3871601343
 20
30.5712867188
 11
363.5027853548
 21
30.5390230296
  0
LINE
  8
0
 62
7
  6
CONTINUOUS
 10
360.3809101894
 20
31.4424063369
 11
360.1496602445
 21
31.5069337098
  0
LINE
  8
0
 62
7
  6
CONTINUOUS
 10
363.7340351343
 20
30.6358140973
 11
363.5027853548
 21
30.7003414814
  0
LINE
  8
0
 62
7
  6
CONTINUOUS
 10
362.4621603548
 20
31.4424063369
 11
362.2887228548
 21
31.5069337098
  0
LINE
  8
0
 62
7
  6
CONTINUOUS
 10
364.716847524
 20
31.4424063369
 11
364.543410024
 21
31.5069337098
  0
LINE
  8
0
 62
7
  6
CONTINUOUS
 10
367.3762229651
 20
31.3456152777
 11
367.491847524
 21
31.2810879048
  0
LINE
  8
0
 62
7
  6
CONTINUOUS
 10
367.7230979651
 20
31.3778789641
 11
367.6074727445
 21
31.4424063369
  0
LINE
  8
0
 62
7
  6
CONTINUOUS
 10
359.2246602583
 20
30.5712867188
 11
359.3980977583
 21
30.5390230296
  0
LINE
  8
0
 62
7
  6
CONTINUOUS
 10
359.6871602721
 20
30.6358140973
 11
359.3402852307
 21
30.7003414814
  0
LINE
  8
0
 62
7
  6
CONTINUOUS
 10
362.1152853548
 20
31.3778789641
 11
362.2309102445
 21
31.3456152777
  0
LINE
  8
0
 62
7
  6
CONTINUOUS
 10
364.4277854651
 20
31.3778789641
 11
364.543410024
 21
31.3456152777
  0
LINE
  8
0
 62
7
  6
CONTINUOUS
 10
368.7637229651
 20
30.668077795
 11
368.6480977445
 21
30.7003414814
  0
LINE
  8
0
 62
7
  6
CONTINUOUS
 10
367.2605977445
 20
31.3778789641
 11
367.3762229651
 21
31.3456152777
  0
LINE
  8
0
 62
7
  6
CONTINUOUS
 10
368.4168479651
 20
30.6358140973
 11
368.5902854651
 21
30.5712867188
  0
LINE
  8
0
 62
7
  6
CONTINUOUS
 10
367.6074727445
 20
31.4424063369
 11
367.4340352445
 21
31.5069337098
  0
LINE
  8
0
 62
7
  6
CONTINUOUS
 10
368.8215352445
 20
31.1520331591
 11
368.6480977445
 21
31.216560532
  0
LINE
  8
0
 62
7
  6
CONTINUOUS
 10
369.6309104651
 20
30.8939236226
 11
369.8043479651
 21
30.8293962497
  0
LINE
  8
0
 62
7
  6
CONTINUOUS
 10
370.0355977445
 20
31.4101426505
 11
369.8621602445
 21
31.4746700234
  0
LINE
  8
0
 62
7
  6
CONTINUOUS
 10
368.4168479651
 20
31.1520331591
 11
368.6480977445
 21
31.0552420547
  0
LINE
  8
0
 62
7
  6
CONTINUOUS
 10
370.0355977445
 20
30.8939236226
 11
369.8043479651
 21
30.9907146818
  0
LINE
  8
0
 62
7
  6
CONTINUOUS
 10
368.5902854651
 20
31.2810879048
 11
368.6480977445
 21
31.3456152777
  0
LINE
  8
0
 62
7
  6
CONTINUOUS
 10
359.0512227376
 20
31.4101426505
 11
358.9355977445
 21
31.3456152777
  0
LINE
  8
0
 62
7
  6
CONTINUOUS
 10
359.1668477307
 20
31.2488242184
 11
359.3402852307
 21
31.3456152777
  0
LINE
  8
0
 62
7
  6
CONTINUOUS
 10
361.4793477997
 20
31.4424063369
 11
361.3637227445
 21
31.3778789641
  0
LINE
  8
0
 62
7
  6
CONTINUOUS
 10
361.3637227445
 20
31.2488242184
 11
361.4793477997
 21
31.3133515913
  0
LINE
  8
0
 62
7
  6
CONTINUOUS
 10
360.3809101894
 20
30.6035504109
 11
360.5543476894
 21
30.7003414814
  0
LINE
  8
0
 62
7
  6
CONTINUOUS
 10
359.3980977583
 20
30.5390230296
 11
359.744972717
 21
30.5067593403
  0
LINE
  8
0
 62
7
  6
CONTINUOUS
 10
363.5027853548
 20
30.5390230296
 11
363.7340351343
 21
30.5067593403
  0
LINE
  8
0
 62
7
  6
CONTINUOUS
 10
361.8840352445
 20
31.4101426505
 11
362.1152853548
 21
31.3778789641
  0
LINE
  8
0
 62
7
  6
CONTINUOUS
 10
364.1965353548
 20
31.4101426505
 11
364.4277854651
 21
31.3778789641
  0
LINE
  8
0
 62
7
  6
CONTINUOUS
 10
368.6480977445
 20
31.0552420547
 11
369.6309104651
 21
30.8939236226
  0
LINE
  8
0
 62
7
  6
CONTINUOUS
 10
369.8043479651
 20
30.9907146818
 11
368.8215352445
 21
31.1520331591
  0
LINE
  8
0
 62
7
  6
CONTINUOUS
 10
362.2887228548
 20
31.5069337098
 11
362.1152853548
 21
31.5391973962
  0
LINE
  8
0
 62
7
  6
CONTINUOUS
 10
368.5902854651
 20
30.5712867188
 11
368.7637229651
 21
30.5390230296
  0
LINE
  8
0
 62
7
  6
CONTINUOUS
 10
367.4340352445
 20
31.5069337098
 11
367.2605977445
 21
31.5391973962
  0
LINE
  8
0
 62
7
  6
CONTINUOUS
 10
369.6887227445
 20
31.3778789641
 11
369.8043479651
 21
31.3456152777
  0
LINE
  8
0
 62
7
  6
CONTINUOUS
 10
369.8621602445
 20
30.7648688543
 11
369.8043479651
 21
30.7003414814
  0
LINE
  8
0
 62
7
  6
CONTINUOUS
 10
368.4168479651
 20
31.4424063369
 11
368.3012227445
 21
31.3456152777
  0
LINE
  8
0
 62
7
  6
CONTINUOUS
 10
363.3293478548
 20
31.4746700234
 11
363.2137226343
 21
31.4101426505
  0
LINE
  8
0
 62
7
  6
CONTINUOUS
 10
363.3871601343
 20
31.0875057863
 11
363.2715352445
 21
31.0229783683
  0
LINE
  8
0
 62
7
  6
CONTINUOUS
 10
363.5027853548
 20
30.926187309
 11
363.6184102445
 21
30.9907146818
  0
LINE
  8
0
 62
7
  6
CONTINUOUS
 10
361.0746601894
 20
30.5067593403
 11
361.3637227445
 21
30.5067593403
  0
LINE
  8
0
 62
7
  6
CONTINUOUS
 10
362.4043477445
 20
30.5067593403
 11
362.6934101343
 21
30.5067593403
  0
LINE
  8
0
 62
7
  6
CONTINUOUS
 10
363.7340351343
 20
30.5067593403
 11
364.0809101343
 21
30.5067593403
  0
LINE
  8
0
 62
7
  6
CONTINUOUS
 10
364.716847524
 20
30.5067593403
 11
365.0059102445
 21
30.5067593403
  0
LINE
  8
0
 62
7
  6
CONTINUOUS
 10
365.4684104651
 20
30.5067593403
 11
365.757472524
 21
30.5067593403
  0
LINE
  8
0
 62
7
  6
CONTINUOUS
 10
366.2199727445
 20
30.5067593403
 11
366.5090354651
 21
30.5067593403
  0
LINE
  8
0
 62
7
  6
CONTINUOUS
 10
367.5496604651
 20
30.5067593403
 11
367.838722524
 21
30.5067593403
  0
LINE
  8
0
 62
7
  6
CONTINUOUS
 10
369.1105979651
 20
30.5067593403
 11
369.4574729651
 21
30.5067593403
  0
LINE
  8
0
 62
7
  6
CONTINUOUS
 10
369.4574729651
 20
30.6358140973
 11
369.1105979651
 21
30.6358140973
  0
LINE
  8
0
 62
7
  6
CONTINUOUS
 10
364.0809101343
 20
30.6358140973
 11
363.7340351343
 21
30.6358140973
  0
LINE
  8
0
 62
7
  6
CONTINUOUS
 10
368.5902854651
 20
30.7648688543
 11
368.3012227445
 21
30.7648688543
  0
LINE
  8
0
 62
7
  6
CONTINUOUS
 10
360.6121602997
 20
30.8293962497
 11
360.3230977445
 21
30.8293962497
  0
LINE
  8
0
 62
7
  6
CONTINUOUS
 10
359.6871602721
 20
31.4101426505
 11
360.091847717
 21
31.3778789641
  0
LINE
  8
0
 62
7
  6
CONTINUOUS
 10
360.1496602445
 20
31.5069337098
 11
359.744972717
 21
31.5391973962
  0
LINE
  8
0
 62
7
  6
CONTINUOUS
 10
368.7637229651
 20
30.5390230296
 11
369.1105979651
 21
30.5067593403
  0
LINE
  8
0
 62
7
  6
CONTINUOUS
 10
369.1105979651
 20
30.6358140973
 11
368.7637229651
 21
30.668077795
  0
LINE
  8
0
 62
7
  6
CONTINUOUS
 10
364.543410024
 20
31.5069337098
 11
364.1965353548
 21
31.5391973962
  0
LINE
  8
0
 62
7
  6
CONTINUOUS
 10
369.3418477445
 20
31.4101426505
 11
369.6887227445
 21
31.3778789641
  0
LINE
  8
0
 62
7
  6
CONTINUOUS
 10
369.6887227445
 20
31.5069337098
 11
369.3418477445
 21
31.5391973962
  0
LINE
  8
0
 62
7
  6
CONTINUOUS
 10
367.0293479651
 20
31.4101426505
 11
367.2605977445
 21
31.3778789641
  0
LINE
  8
0
 62
7
  6
CONTINUOUS
 10
369.8621602445
 20
31.4746700234
 11
369.6887227445
 21
31.5069337098
  0
LINE
  8
0
 62
7
  6
CONTINUOUS
 10
370.0355977445
 20
30.6035504109
 11
370.1512223035
 21
30.7003414814
  0
LINE
  8
0
 62
7
  6
CONTINUOUS
 10
364.543410024
 20
30.7971325633
 11
364.369972524
 21
30.7003414814
  0
LINE
  8
0
 62
7
  6
CONTINUOUS
 10
366.624660024
 20
31.4424063369
 11
366.5090354651
 21
31.3778789641
  0
LINE
  8
0
 62
7
  6
CONTINUOUS
 10
366.5090354651
 20
31.2488242184
 11
366.624660024
 21
31.3133515913
  0
LINE
  8
0
 62
7
  6
CONTINUOUS
 10
359.2246602583
 20
31.4746700234
 11
359.0512227376
 21
31.4101426505
  0
LINE
  8
0
 62
7
  6
CONTINUOUS
 10
361.6527851343
 20
31.5069337098
 11
361.4793477997
 21
31.4424063369
  0
LINE
  8
0
 62
7
  6
CONTINUOUS
 10
361.4793477997
 20
31.3133515913
 11
361.6527851343
 21
31.3778789641
  0
LINE
  8
0
 62
7
  6
CONTINUOUS
 10
360.2652852997
 20
30.7326051679
 11
360.091847717
 21
30.668077795
  0
LINE
  8
0
 62
7
  6
CONTINUOUS
 10
369.6887227445
 20
30.668077795
 11
369.4574729651
 21
30.6358140973
  0
LINE
  8
0
 62
7
  6
CONTINUOUS
 10
364.0809101343
 20
30.5067593403
 11
364.369972524
 21
30.5390230296
  0
LINE
  8
0
 62
7
  6
CONTINUOUS
 10
369.4574729651
 20
30.5067593403
 11
369.8043479651
 21
30.5390230296
  0
LINE
  8
0
 62
7
  6
CONTINUOUS
 10
359.744972717
 20
30.5067593403
 11
360.1496602445
 21
30.5390230296
  0
LINE
  8
0
 62
7
  6
CONTINUOUS
 10
360.091847717
 20
30.668077795
 11
359.6871602721
 21
30.6358140973
  0
LINE
  8
0
 62
7
  6
CONTINUOUS
 10
363.9652852445
 20
31.0552420547
 11
364.6012229651
 21
31.0552420547
  0
LINE
  8
0
 62
7
  6
CONTINUOUS
 10
364.6012229651
 20
31.1842968456
 11
363.9652852445
 21
31.1842968456
  0
LINE
  8
0
 62
7
  6
CONTINUOUS
 10
360.3230977445
 20
31.216560532
 11
360.6121602997
 21
31.216560532
  0
LINE
  8
0
 62
7
  6
CONTINUOUS
 10
363.1559103548
 20
31.2810879048
 11
363.4449727445
 21
31.2810879048
  0
LINE
  8
0
 62
7
  6
CONTINUOUS
 10
369.8621602445
 20
31.2810879048
 11
370.1512223035
 21
31.2810879048
  0
LINE
  8
0
 62
7
  6
CONTINUOUS
 10
363.8496603548
 20
31.4101426505
 11
364.1965353548
 21
31.4101426505
  0
LINE
  8
0
 62
7
  6
CONTINUOUS
 10
368.9949727445
 20
31.4101426505
 11
369.3418477445
 21
31.4101426505
  0
LINE
  8
0
 62
7
  6
CONTINUOUS
 10
369.3418477445
 20
31.5391973962
 11
368.9949727445
 21
31.5391973962
  0
LINE
  8
0
 62
7
  6
CONTINUOUS
 10
367.2605977445
 20
31.5391973962
 11
367.0293479651
 21
31.5391973962
  0
LINE
  8
0
 62
7
  6
CONTINUOUS
 10
366.5090354651
 20
31.5391973962
 11
366.2199727445
 21
31.5391973962
  0
LINE
  8
0
 62
7
  6
CONTINUOUS
 10
365.757472524
 20
31.5391973962
 11
365.4684104651
 21
31.5391973962
  0
LINE
  8
0
 62
7
  6
CONTINUOUS
 10
364.1965353548
 20
31.5391973962
 11
363.8496603548
 21
31.5391973962
  0
LINE
  8
0
 62
7
  6
CONTINUOUS
 10
362.1152853548
 20
31.5391973962
 11
361.8840352445
 21
31.5391973962
  0
LINE
  8
0
 62
7
  6
CONTINUOUS
 10
365.4684104651
 20
31.8618343508
 11
365.757472524
 21
31.8618343508
  0
LINE
  8
0
 62
7
  6
CONTINUOUS
 10
365.757472524
 20
32.0231527829
 11
365.4684104651
 21
32.0231527829
  0
LINE
  8
0
 62
7
  6
CONTINUOUS
 10
361.3637227445
 20
32.0231527829
 11
361.0746601894
 21
32.0231527829
  0
LINE
  8
0
 62
7
  6
CONTINUOUS
 10
360.4015045068
 20
32.3100380288
 11
360.8140758554
 21
32.3100380288
  0
LINE
  8
0
 62
7
  6
CONTINUOUS
 10
362.0408487691
 20
32.3100380288
 11
363.4342913921
 21
32.3100380288
  0
LINE
  8
0
 62
7
  6
CONTINUOUS
 10
363.7621602445
 20
32.3100380288
 11
365.1556028675
 21
32.3100380288
  0
LINE
  8
0
 62
7
  6
CONTINUOUS
 10
367.0408487691
 20
32.3100380288
 11
368.4342913921
 21
32.3100380288
  0
LINE
  8
0
 62
7
  6
CONTINUOUS
 10
368.7621602445
 20
32.3100380288
 11
370.1556028675
 21
32.3100380288
  0
LINE
  8
0
 62
7
  6
CONTINUOUS
 10
366.798097524
 20
31.5069337098
 11
366.624660024
 21
31.4424063369
  0
LINE
  8
0
 62
7
  6
CONTINUOUS
 10
364.369972524
 20
30.5390230296
 11
364.543410024
 21
30.6035504109
  0
LINE
  8
0
 62
7
  6
CONTINUOUS
 10
369.8043479651
 20
30.5390230296
 11
370.0355977445
 21
30.6035504109
  0
LINE
  8
0
 62
7
  6
CONTINUOUS
 10
369.8043479651
 20
30.7003414814
 11
369.6887227445
 21
30.668077795
  0
LINE
  8
0
 62
7
  6
CONTINUOUS
 10
368.7637229651
 20
31.3778789641
 11
368.9949727445
 21
31.4101426505
  0
LINE
  8
0
 62
7
  6
CONTINUOUS
 10
366.798097524
 20
31.3778789641
 11
367.0293479651
 21
31.4101426505
  0
LINE
  8
0
 62
7
  6
CONTINUOUS
 10
363.7340351343
 20
31.0229783683
 11
363.9652852445
 21
31.0552420547
  0
LINE
  8
0
 62
7
  6
CONTINUOUS
 10
367.0293479651
 20
31.5391973962
 11
366.798097524
 21
31.5069337098
  0
LINE
  8
0
 62
7
  6
CONTINUOUS
 10
363.6184102445
 20
31.3778789641
 11
363.8496603548
 21
31.4101426505
  0
LINE
  8
0
 62
7
  6
CONTINUOUS
 10
368.9949727445
 20
31.5391973962
 11
368.6480977445
 21
31.5069337098
  0
LINE
  8
0
 62
7
  6
CONTINUOUS
 10
363.9652852445
 20
31.1842968456
 11
363.6184102445
 21
31.1520331591
  0
LINE
  8
0
 62
7
  6
CONTINUOUS
 10
359.744972717
 20
31.5391973962
 11
359.3980977583
 21
31.5069337098
  0
LINE
  8
0
 62
7
  6
CONTINUOUS
 10
363.8496603548
 20
31.5391973962
 11
363.4449727445
 21
31.5069337098
  0
LINE
  8
0
 62
7
  6
CONTINUOUS
 10
361.221176638
 20
33.4575790124
 11
360.565438933
 21
33.4575790124
  0
LINE
  8
0
 62
7
  6
CONTINUOUS
 10
366.624660024
 20
31.3133515913
 11
366.798097524
 21
31.3778789641
  0
LINE
  8
0
 62
7
  6
CONTINUOUS
 10
368.6480977445
 20
31.3456152777
 11
368.7637229651
 21
31.3778789641
  0
LINE
  8
0
 62
7
  6
CONTINUOUS
 10
368.6480977445
 20
31.5069337098
 11
368.4168479651
 21
31.4424063369
  0
LINE
  8
0
 62
7
  6
CONTINUOUS
 10
364.369972524
 20
30.7003414814
 11
364.0809101343
 21
30.6358140973
  0
LINE
  8
0
 62
7
  6
CONTINUOUS
 10
361.6527851343
 20
31.3778789641
 11
361.8840352445
 21
31.4101426505
  0
LINE
  8
0
 62
7
  6
CONTINUOUS
 10
361.8840352445
 20
31.5391973962
 11
361.6527851343
 21
31.5069337098
  0
LINE
  8
0
 62
7
  6
CONTINUOUS
 10
359.4559102445
 20
31.3778789641
 11
359.6871602721
 21
31.4101426505
  0
LINE
  8
0
 62
7
  6
CONTINUOUS
 10
365.9752749986
 20
34.9329888485
 11
366.6310127035
 21
34.9329888485
  0
LINE
  8
0
 62
7
  6
CONTINUOUS
 10
363.6184102445
 20
30.9907146818
 11
363.7340351343
 21
31.0229783683
  0
LINE
  8
0
 62
7
  6
CONTINUOUS
 10
363.6184102445
 20
31.1520331591
 11
363.3871601343
 21
31.0875057863
  0
LINE
  8
0
 62
7
  6
CONTINUOUS
 10
363.5027853548
 20
31.3456152777
 11
363.6184102445
 21
31.3778789641
  0
LINE
  8
0
 62
7
  6
CONTINUOUS
 10
360.1496602445
 20
30.5390230296
 11
360.3809101894
 21
30.6035504109
  0
LINE
  8
0
 62
7
  6
CONTINUOUS
 10
363.4449727445
 20
31.5069337098
 11
363.3293478548
 21
31.4746700234
  0
LINE
  8
0
 62
7
  6
CONTINUOUS
 10
359.3980977583
 20
31.5069337098
 11
359.2246602583
 21
31.4746700234
  0
LINE
  8
0
 62
7
  6
CONTINUOUS
 10
370.1556028675
 20
36.0805298321
 11
368.7621602445
 21
36.0805298321
  0
LINE
  8
0
 62
7
  6
CONTINUOUS
 10
366.7949471298
 20
36.0805298321
 11
366.3823757812
 21
36.0805298321
  0
LINE
  8
0
 62
7
  6
CONTINUOUS
 10
365.1556028675
 20
36.0805298321
 11
363.7621602445
 21
36.0805298321
  0
LINE
  8
0
 62
7
  6
CONTINUOUS
 10
363.4342913921
 20
36.0805298321
 11
362.0408487691
 21
36.0805298321
  0
LINE
  8
0
 62
7
  6
CONTINUOUS
 10
360.1556028675
 20
36.0805298321
 11
358.7621602445
 21
36.0805298321
  0
LINE
  8
0
 62
7
  6
CONTINUOUS
 10
359.3402852307
 20
31.3456152777
 11
359.4559102445
 21
31.3778789641
  0
CIRCLE
  8
0
 62
7
  6
CONTINUOUS
 10
369.458881556
 20
38.4165954059
 40
2.0901639344
  0
ARC
  8
0
 62
7
  6
CONTINUOUS
 10
360.4015045068
 20
33.9493822911
 40
1.6393442623
 50
180.0
 51
270.0
  0
ARC
  8
0
 62
7
  6
CONTINUOUS
 10
366.7949471298
 20
34.4411855698
 40
1.6393442623
 50
0.0
 51
90.0
  0
ARC
  8
0
 62
7
  6
CONTINUOUS
 10
360.8140758554
 20
33.7854478649
 40
1.4754098361
 50
270.0
 51
326.2510114041
  0
ARC
  8
0
 62
7
  6
CONTINUOUS
 10
366.3823757812
 20
34.6051199961
 40
1.4754098361
 50
90.0
 51
146.2510114041
  0
ARC
  8
0
 62
7
  6
CONTINUOUS
 10
361.221176638
 20
34.2772511436
 40
0.8196721311
 50
270.0
 51
360.0
  0
ARC
  8
0
 62
7
  6
CONTINUOUS
 10
365.9752749986
 20
34.1133167174
 40
0.8196721311
 50
90.0
 51
180.0
  0
ARC
  8
0
 62
7
  6
CONTINUOUS
 10
360.565438933
 20
33.867415078
 40
0.4098360656
 50
180.0
 51
270.0
  0
ARC
  8
0
 62
7
  6
CONTINUOUS
 10
366.6310127035
 20
34.5231527829
 40
0.4098360656
 50
0.0
 51
90.0
  0
SOLID
  8
0
 62
7
  6
CONTINUOUS
 10
365.4684104651
 20
31.8618347111
 11
365.4684104651
 21
32.0231531947
 12
365.757472524
 22
31.8618347111
 13
365.757472524
 23
32.0231531947
  0
SOLID
  8
0
 62
7
  6
CONTINUOUS
 10
359.744972717
 20
31.5391977439
 11
360.1496602445
 21
31.5069333244
 12
359.3980977583
 22
31.5069333244
 13
359.3980977583
 23
31.5069333244
  0
SOLID
  8
0
 62
7
  6
CONTINUOUS
 10
359.2246602583
 20
31.4746706537
 11
359.3980977583
 21
31.5069333244
 12
360.1496602445
 22
31.5069333244
 13
360.1496602445
 23
31.5069333244
  0
SOLID
  8
0
 62
7
  6
CONTINUOUS
 10
360.1496602445
 20
31.5069333244
 11
360.3809101894
 21
31.4424063504
 12
359.2246602583
 22
31.4746706537
 13
359.2246602583
 23
31.4746706537
  0
SOLID
  8
0
 62
7
  6
CONTINUOUS
 10
359.0512227376
 20
31.4101419116
 11
359.2246602583
 21
31.4746706537
 12
360.3809101894
 22
31.4424063504
 13
360.3809101894
 23
31.4424063504
  0
SOLID
  8
0
 62
7
  6
CONTINUOUS
 10
359.0512227376
 20
31.4101419116
 11
360.3809101894
 21
31.4424063504
 12
359.6871602721
 22
31.4101419116
 13
359.6871602721
 23
31.4101419116
  0
SOLID
  8
0
 62
7
  6
CONTINUOUS
 10
359.6871602721
 20
31.4101419116
 11
360.3809101894
 21
31.4424063504
 12
360.091847717
 22
31.3778792603
 13
360.091847717
 23
31.3778792603
  0
SOLID
  8
0
 62
7
  6
CONTINUOUS
 10
360.3809101894
 20
31.4424063504
 11
360.5543476894
 21
31.345614957
 12
360.091847717
 22
31.3778792603
 13
360.091847717
 23
31.3778792603
  0
SOLID
  8
0
 62
7
  6
CONTINUOUS
 10
360.2652852997
 20
31.3133521701
 11
360.091847717
 21
31.3778792603
 12
360.5543476894
 22
31.345614957
 13
360.5543476894
 23
31.345614957
  0
SOLID
  8
0
 62
7
  6
CONTINUOUS
 10
360.2652852997
 20
31.3133521701
 11
360.5543476894
 21
31.345614957
 12
360.3230977445
 22
31.2165606992
 13
360.3230977445
 23
31.2165606992
  0
SOLID
  8
0
 62
7
  6
CONTINUOUS
 10
360.5543476894
 20
31.345614957
 11
360.6121602997
 21
31.2165606992
 12
360.3230977445
 22
31.2165606992
 13
360.3230977445
 23
31.2165606992
  0
SOLID
  8
0
 62
7
  6
CONTINUOUS
 10
361.6527851343
 20
31.5069329918
 11
361.8840352445
 21
31.5391972951
 12
362.1152853548
 22
31.5391972951
 13
362.1152853548
 23
31.5391972951
  0
SOLID
  8
0
 62
7
  6
CONTINUOUS
 10
362.1152853548
 20
31.5391972951
 11
362.2887228548
 21
31.5069329918
 12
361.6527851343
 22
31.5069329918
 13
361.6527851343
 23
31.5069329918
  0
SOLID
  8
0
 62
7
  6
CONTINUOUS
 10
361.4793477997
 20
31.4424059016
 11
361.6527851343
 21
31.5069329918
 12
362.2887228548
 22
31.5069329918
 13
362.2887228548
 23
31.5069329918
  0
SOLID
  8
0
 62
7
  6
CONTINUOUS
 10
362.2887228548
 20
31.5069329918
 11
362.4621603548
 21
31.4424059016
 12
361.4793477997
 22
31.4424059016
 13
361.4793477997
 23
31.4424059016
  0
SOLID
  8
0
 62
7
  6
CONTINUOUS
 10
362.4621603548
 20
31.4424059016
 11
361.8840352445
 21
31.4101420472
 12
361.4793477997
 22
31.4424059016
 13
361.4793477997
 23
31.4424059016
  0
SOLID
  8
0
 62
7
  6
CONTINUOUS
 10
361.3637227445
 20
31.3778788115
 11
361.4793477997
 21
31.4424059016
 12
361.8840352445
 22
31.4101420472
 13
361.8840352445
 23
31.4101420472
  0
SOLID
  8
0
 62
7
  6
CONTINUOUS
 10
361.8840352445
 20
31.4101420472
 11
361.6527851343
 21
31.3778788115
 12
361.3637227445
 22
31.3778788115
 13
361.3637227445
 23
31.3778788115
  0
SOLID
  8
0
 62
7
  6
CONTINUOUS
 10
361.8840352445
 20
31.4101420472
 11
362.4621603548
 21
31.4424059016
 12
362.1152853548
 22
31.3778788115
 13
362.1152853548
 23
31.3778788115
  0
SOLID
  8
0
 62
7
  6
CONTINUOUS
 10
362.4621603548
 20
31.4424059016
 11
362.5777852445
 21
31.3778788115
 12
362.1152853548
 22
31.3778788115
 13
362.1152853548
 23
31.3778788115
  0
SOLID
  8
0
 62
7
  6
CONTINUOUS
 10
362.2309102445
 20
31.345614957
 11
362.1152853548
 21
31.3778788115
 12
362.5777852445
 22
31.3778788115
 13
362.5777852445
 23
31.3778788115
  0
SOLID
  8
0
 62
7
  6
CONTINUOUS
 10
362.5777852445
 20
31.3778788115
 11
362.6355978548
 21
31.3133517213
 12
362.2309102445
 22
31.345614957
 13
362.2309102445
 23
31.345614957
  0
SOLID
  8
0
 62
7
  6
CONTINUOUS
 10
362.3465351343
 20
31.2810878668
 11
362.2309102445
 21
31.345614957
 12
362.6355978548
 22
31.3133517213
 13
362.6355978548
 23
31.3133517213
  0
SOLID
  8
0
 62
7
  6
CONTINUOUS
 10
362.3465351343
 20
31.2810878668
 11
362.6355978548
 21
31.3133517213
 12
362.4043477445
 22
31.1520332377
 13
362.4043477445
 23
31.1520332377
  0
SOLID
  8
0
 62
7
  6
CONTINUOUS
 10
362.6355978548
 20
31.3133517213
 11
362.6934101343
 21
31.1520332377
 12
362.4043477445
 22
31.1520332377
 13
362.4043477445
 23
31.1520332377
  0
SOLID
  8
0
 62
7
  6
CONTINUOUS
 10
361.6527851343
 20
31.3778788115
 11
361.4793477997
 21
31.3133517213
 12
361.3637227445
 22
31.3778788115
 13
361.3637227445
 23
31.3778788115
  0
SOLID
  8
0
 62
7
  6
CONTINUOUS
 10
361.4793477997
 20
31.3133517213
 11
361.3637227445
 21
31.2488235635
 12
361.3637227445
 22
31.3778788115
 13
361.3637227445
 23
31.3778788115
  0
SOLID
  8
0
 62
7
  6
CONTINUOUS
 10
361.3637227445
 20
31.2488235635
 11
361.0746601894
 21
30.5067593033
 12
361.3637227445
 22
31.3778788115
 13
361.3637227445
 23
31.3778788115
  0
SOLID
  8
0
 62
7
  6
CONTINUOUS
 10
361.3637227445
 20
31.3778788115
 11
361.0746601894
 21
30.5067593033
 12
361.3637227445
 22
32.0231527459
 13
361.3637227445
 23
32.0231527459
  0
SOLID
  8
0
 62
7
  6
CONTINUOUS
 10
361.0746601894
 20
30.5067593033
 11
361.0746601894
 21
32.0231527459
 12
361.3637227445
 22
32.0231527459
 13
361.3637227445
 23
32.0231527459
  0
SOLID
  8
0
 62
7
  6
CONTINUOUS
 10
361.3637227445
 20
31.2488235635
 11
361.3637227445
 21
30.5067593033
 12
361.0746601894
 22
30.5067593033
 13
361.0746601894
 23
30.5067593033
  0
SOLID
  8
0
 62
7
  6
CONTINUOUS
 10
362.4043477445
 20
30.5067593033
 11
362.4043477445
 21
31.1520332377
 12
362.6934101343
 22
31.1520332377
 13
362.6934101343
 23
31.1520332377
  0
SOLID
  8
0
 62
7
  6
CONTINUOUS
 10
362.6934101343
 20
31.1520332377
 11
362.6934101343
 21
30.5067593033
 12
362.4043477445
 22
30.5067593033
 13
362.4043477445
 23
30.5067593033
  0
SOLID
  8
0
 62
7
  6
CONTINUOUS
 10
363.4449727445
 20
31.506933758
 11
363.8496603548
 21
31.5391977507
 12
364.1965353548
 22
31.5391977507
 13
364.1965353548
 23
31.5391977507
  0
SOLID
  8
0
 62
7
  6
CONTINUOUS
 10
364.1965353548
 20
31.5391977507
 11
364.543410024
 21
31.506933758
 12
363.4449727445
 22
31.506933758
 13
363.4449727445
 23
31.506933758
  0
SOLID
  8
0
 62
7
  6
CONTINUOUS
 10
363.3293478548
 20
31.4746706537
 11
363.4449727445
 21
31.506933758
 12
364.543410024
 22
31.506933758
 13
364.543410024
 23
31.506933758
  0
SOLID
  8
0
 62
7
  6
CONTINUOUS
 10
364.543410024
 20
31.506933758
 11
364.716847524
 21
31.4424063504
 12
363.3293478548
 22
31.4746706537
 13
363.3293478548
 23
31.4746706537
  0
SOLID
  8
0
 62
7
  6
CONTINUOUS
 10
363.2137226343
 20
31.4101417797
 11
363.3293478548
 21
31.4746706537
 12
364.716847524
 22
31.4424063504
 13
364.716847524
 23
31.4424063504
  0
SOLID
  8
0
 62
7
  6
CONTINUOUS
 10
363.2137226343
 20
31.4101417797
 11
364.716847524
 21
31.4424063504
 12
363.8496603548
 22
31.4101417797
 13
363.8496603548
 23
31.4101417797
  0
SOLID
  8
0
 62
7
  6
CONTINUOUS
 10
363.8496603548
 20
31.4101417797
 11
364.716847524
 21
31.4424063504
 12
364.1965353548
 22
31.4101417797
 13
364.1965353548
 23
31.4101417797
  0
SOLID
  8
0
 62
7
  6
CONTINUOUS
 10
364.1965353548
 20
31.4101417797
 11
364.716847524
 21
31.4424063504
 12
364.4277854651
 22
31.3778793357
 13
364.4277854651
 23
31.3778793357
  0
SOLID
  8
0
 62
7
  6
CONTINUOUS
 10
364.716847524
 20
31.4424063504
 11
364.8324727445
 21
31.3778793357
 12
364.4277854651
 22
31.3778793357
 13
364.4277854651
 23
31.3778793357
  0
SOLID
  8
0
 62
7
  6
CONTINUOUS
 10
363.1559103548
 20
31.3456153429
 11
363.2137226343
 21
31.4101417797
 12
363.8496603548
 22
31.4101417797
 13
363.8496603548
 23
31.4101417797
  0
SOLID
  8
0
 62
7
  6
CONTINUOUS
 10
364.543410024
 20
31.3456153429
 11
364.4277854651
 21
31.3778793357
 12
364.8324727445
 22
31.3778793357
 13
364.8324727445
 23
31.3778793357
  0
SOLID
  8
0
 62
7
  6
CONTINUOUS
 10
364.543410024
 20
31.3456153429
 11
364.8324727445
 21
31.3778793357
 12
364.6012229651
 22
31.2810881318
 13
364.6012229651
 23
31.2810881318
  0
SOLID
  8
0
 62
7
  6
CONTINUOUS
 10
364.8324727445
 20
31.3778793357
 11
364.890285024
 21
31.2810881318
 12
364.6012229651
 22
31.2810881318
 13
364.6012229651
 23
31.2810881318
  0
SOLID
  8
0
 62
7
  6
CONTINUOUS
 10
364.6012229651
 20
31.1842964734
 11
364.6012229651
 21
31.2810881318
 12
364.890285024
 22
31.2810881318
 13
364.890285024
 23
31.2810881318
  0
SOLID
  8
0
 62
7
  6
CONTINUOUS
 10
364.6012229651
 20
31.1842964734
 11
364.890285024
 21
31.2810881318
 12
364.6012229651
 22
31.0552422931
 13
364.6012229651
 23
31.0552422931
  0
SOLID
  8
0
 62
7
  6
CONTINUOUS
 10
364.6012229651
 20
31.0552422931
 11
364.890285024
 21
31.2810881318
 12
364.6012229651
 22
30.8616599362
 13
364.6012229651
 23
30.8616599362
  0
SOLID
  8
0
 62
7
  6
CONTINUOUS
 10
364.890285024
 20
31.2810881318
 11
364.890285024
 21
30.7648681127
 12
364.6012229651
 22
30.8616599362
 13
364.6012229651
 23
30.8616599362
  0
SOLID
  8
0
 62
7
  6
CONTINUOUS
 10
366.798097524
 20
31.5069339419
 11
367.0293479651
 21
31.5391976292
 12
367.2605977445
 22
31.5391976292
 13
367.2605977445
 23
31.5391976292
  0
SOLID
  8
0
 62
7
  6
CONTINUOUS
 10
367.2605977445
 20
31.5391976292
 11
367.4340352445
 21
31.5069339419
 12
366.798097524
 22
31.5069339419
 13
366.798097524
 23
31.5069339419
  0
SOLID
  8
0
 62
7
  6
CONTINUOUS
 10
366.624660024
 20
31.4424065674
 11
366.798097524
 21
31.5069339419
 12
367.4340352445
 22
31.5069339419
 13
367.4340352445
 23
31.5069339419
  0
SOLID
  8
0
 62
7
  6
CONTINUOUS
 10
367.4340352445
 20
31.5069339419
 11
367.6074727445
 21
31.4424065674
 12
366.624660024
 22
31.4424065674
 13
366.624660024
 23
31.4424065674
  0
SOLID
  8
0
 62
7
  6
CONTINUOUS
 10
367.6074727445
 20
31.4424065674
 11
367.0293479651
 21
31.4101420472
 12
366.624660024
 22
31.4424065674
 13
366.624660024
 23
31.4424065674
  0
SOLID
  8
0
 62
7
  6
CONTINUOUS
 10
366.5090354651
 20
31.377879193
 11
366.624660024
 21
31.4424065674
 12
367.0293479651
 22
31.4101420472
 13
367.0293479651
 23
31.4101420472
  0
SOLID
  8
0
 62
7
  6
CONTINUOUS
 10
367.0293479651
 20
31.4101420472
 11
366.798097524
 21
31.377879193
 12
366.5090354651
 22
31.377879193
 13
366.5090354651
 23
31.377879193
  0
SOLID
  8
0
 62
7
  6
CONTINUOUS
 10
367.0293479651
 20
31.4101420472
 11
367.6074727445
 21
31.4424065674
 12
367.2605977445
 22
31.377879193
 13
367.2605977445
 23
31.377879193
  0
SOLID
  8
0
 62
7
  6
CONTINUOUS
 10
367.6074727445
 20
31.4424065674
 11
367.7230979651
 21
31.377879193
 12
367.2605977445
 22
31.377879193
 13
367.2605977445
 23
31.377879193
  0
SOLID
  8
0
 62
7
  6
CONTINUOUS
 10
367.3762229651
 20
31.345614957
 11
367.2605977445
 21
31.377879193
 12
367.7230979651
 22
31.377879193
 13
367.7230979651
 23
31.377879193
  0
SOLID
  8
0
 62
7
  6
CONTINUOUS
 10
367.3762229651
 20
31.345614957
 11
367.7230979651
 21
31.377879193
 12
367.491847524
 22
31.2810881312
 13
367.491847524
 23
31.2810881312
  0
SOLID
  8
0
 62
7
  6
CONTINUOUS
 10
367.7230979651
 20
31.377879193
 11
367.7809102445
 21
31.2810881312
 12
367.491847524
 22
31.2810881312
 13
367.491847524
 23
31.2810881312
  0
SOLID
  8
0
 62
7
  6
CONTINUOUS
 10
367.5496604651
 20
31.119769695
 11
367.491847524
 21
31.2810881312
 12
367.7809102445
 22
31.2810881312
 13
367.7809102445
 23
31.2810881312
  0
SOLID
  8
0
 62
7
  6
CONTINUOUS
 10
367.7809102445
 20
31.2810881312
 11
367.838722524
 21
31.119769695
 12
367.5496604651
 22
31.119769695
 13
367.5496604651
 23
31.119769695
  0
SOLID
  8
0
 62
7
  6
CONTINUOUS
 10
366.798097524
 20
31.377879193
 11
366.624660024
 21
31.3133521701
 12
366.5090354651
 22
31.377879193
 13
366.5090354651
 23
31.377879193
  0
SOLID
  8
0
 62
7
  6
CONTINUOUS
 10
366.624660024
 20
31.3133521701
 11
366.5090354651
 21
31.2488235635
 12
366.5090354651
 22
31.377879193
 13
366.5090354651
 23
31.377879193
  0
SOLID
  8
0
 62
7
  6
CONTINUOUS
 10
366.5090354651
 20
31.2488235635
 11
366.2199727445
 21
30.5067596374
 12
366.5090354651
 22
31.377879193
 13
366.5090354651
 23
31.377879193
  0
SOLID
  8
0
 62
7
  6
CONTINUOUS
 10
366.5090354651
 20
31.377879193
 11
366.2199727445
 21
30.5067596374
 12
366.5090354651
 22
31.5391976292
 13
366.5090354651
 23
31.5391976292
  0
SOLID
  8
0
 62
7
  6
CONTINUOUS
 10
366.2199727445
 20
30.5067596374
 11
366.2199727445
 21
31.5391976292
 12
366.5090354651
 22
31.5391976292
 13
366.5090354651
 23
31.5391976292
  0
SOLID
  8
0
 62
7
  6
CONTINUOUS
 10
366.5090354651
 20
31.2488235635
 11
366.5090354651
 21
30.5067596374
 12
366.2199727445
 22
30.5067596374
 13
366.2199727445
 23
30.5067596374
  0
SOLID
  8
0
 62
7
  6
CONTINUOUS
 10
367.5496604651
 20
30.5067596374
 11
367.5496604651
 21
31.119769695
 12
367.838722524
 22
31.119769695
 13
367.838722524
 23
31.119769695
  0
SOLID
  8
0
 62
7
  6
CONTINUOUS
 10
367.838722524
 20
31.119769695
 11
367.838722524
 21
30.5067596374
 12
367.5496604651
 22
30.5067596374
 13
367.5496604651
 23
30.5067596374
  0
SOLID
  8
0
 62
7
  6
CONTINUOUS
 10
368.6480977445
 20
31.5069334157
 11
368.9949727445
 21
31.539197762
 12
369.3418477445
 22
31.539197762
 13
369.3418477445
 23
31.539197762
  0
SOLID
  8
0
 62
7
  6
CONTINUOUS
 10
369.3418477445
 20
31.539197762
 11
369.6887227445
 21
31.5069334157
 12
368.6480977445
 22
31.5069334157
 13
368.6480977445
 23
31.5069334157
  0
SOLID
  8
0
 62
7
  6
CONTINUOUS
 10
368.4168479651
 20
31.4424063504
 11
368.6480977445
 21
31.5069334157
 12
369.6887227445
 22
31.5069334157
 13
369.6887227445
 23
31.5069334157
  0
SOLID
  8
0
 62
7
  6
CONTINUOUS
 10
368.4168479651
 20
31.4424063504
 11
369.6887227445
 21
31.5069334406
 12
369.8621602445
 22
31.4746706537
 13
369.8621602445
 23
31.4746706537
  0
SOLID
  8
0
 62
7
  6
CONTINUOUS
 10
368.4168479651
 20
31.4424063504
 11
369.8621602445
 21
31.4746706537
 12
368.9949727445
 22
31.4101421267
 13
368.9949727445
 23
31.4101421267
  0
SOLID
  8
0
 62
7
  6
CONTINUOUS
 10
368.9949727445
 20
31.4101421267
 11
369.8621602445
 21
31.4746706537
 12
369.3418477445
 22
31.4101421267
 13
369.3418477445
 23
31.4101421267
  0
SOLID
  8
0
 62
7
  6
CONTINUOUS
 10
369.8621602445
 20
31.4746706537
 11
370.0355977445
 21
31.4101421267
 12
369.3418477445
 22
31.4101421267
 13
369.3418477445
 23
31.4101421267
  0
SOLID
  8
0
 62
7
  6
CONTINUOUS
 10
369.6887227445
 20
31.3778792603
 11
369.3418477445
 21
31.4101421267
 12
370.0355977445
 22
31.4101421267
 13
370.0355977445
 23
31.4101421267
  0
SOLID
  8
0
 62
7
  6
CONTINUOUS
 10
368.3012227445
 20
31.3456148845
 11
368.4168479651
 21
31.4424063504
 12
368.9949727445
 22
31.4101421267
 13
368.9949727445
 23
31.4101421267
  0
SOLID
  8
0
 62
7
  6
CONTINUOUS
 10
369.6887227445
 20
31.3778792603
 11
370.0355977445
 21
31.4101421267
 12
369.8043479651
 22
31.3456148845
 13
369.8043479651
 23
31.3456148845
  0
SOLID
  8
0
 62
7
  6
CONTINUOUS
 10
369.8043479651
 20
31.3456148845
 11
370.0355977445
 21
31.4101421267
 12
369.8621602445
 22
31.281087868
 13
369.8621602445
 23
31.281087868
  0
SOLID
  8
0
 62
7
  6
CONTINUOUS
 10
370.0355977445
 20
31.4101421267
 11
370.1512223035
 21
31.281087868
 12
369.8621602445
 22
31.281087868
 13
369.8621602445
 23
31.281087868
  0
SOLID
  8
0
 62
7
  6
CONTINUOUS
 10
359.4559102445
 20
31.3778792603
 11
358.9355977445
 21
31.3456148963
 12
359.6871602721
 22
31.4101421155
 13
359.6871602721
 23
31.4101421155
  0
SOLID
  8
0
 62
7
  6
CONTINUOUS
 10
358.9355977445
 20
31.3456148963
 11
359.0512227376
 21
31.4101421155
 12
359.6871602721
 22
31.4101421155
 13
359.6871602721
 23
31.4101421155
  0
SOLID
  8
0
 62
7
  6
CONTINUOUS
 10
359.4559102445
 20
31.3778792603
 11
359.3402852307
 21
31.3456148963
 12
358.9355977445
 22
31.3456148963
 13
358.9355977445
 23
31.3456148963
  0
SOLID
  8
0
 62
7
  6
CONTINUOUS
 10
358.8199727462
 20
31.2165607767
 11
358.9355977445
 21
31.3456148963
 12
359.3402852307
 22
31.3456148963
 13
359.3402852307
 23
31.3456148963
  0
SOLID
  8
0
 62
7
  6
CONTINUOUS
 10
363.1559103548
 20
31.3456149608
 11
363.8496603548
 21
31.4101420472
 12
363.6184102445
 22
31.3778792603
 13
363.6184102445
 23
31.3778792603
  0
SOLID
  8
0
 62
7
  6
CONTINUOUS
 10
363.6184102445
 20
31.3778792603
 11
363.5027853548
 21
31.3456149608
 12
363.1559103548
 22
31.3456149608
 13
363.1559103548
 23
31.3456149608
  0
SOLID
  8
0
 62
7
  6
CONTINUOUS
 10
363.1559103548
 20
31.2810878707
 11
363.1559103548
 21
31.3456149608
 12
363.5027853548
 22
31.3456149608
 13
363.5027853548
 23
31.3456149608
  0
SOLID
  8
0
 62
7
  6
CONTINUOUS
 10
363.5027853548
 20
31.3456149608
 11
363.4449727445
 21
31.2810878707
 12
363.1559103548
 22
31.2810878707
 13
363.1559103548
 23
31.2810878707
  0
SOLID
  8
0
 62
7
  6
CONTINUOUS
 10
368.3012227445
 20
31.3456149608
 11
368.9949727445
 21
31.4101420472
 12
368.7637229651
 22
31.3778792603
 13
368.7637229651
 23
31.3778792603
  0
SOLID
  8
0
 62
7
  6
CONTINUOUS
 10
368.7637229651
 20
31.3778792603
 11
368.6480977445
 21
31.3456149608
 12
368.3012227445
 22
31.3456149608
 13
368.3012227445
 23
31.3456149608
  0
SOLID
  8
0
 62
7
  6
CONTINUOUS
 10
368.3012227445
 20
31.2810878707
 11
368.3012227445
 21
31.3456149608
 12
368.6480977445
 22
31.3456149608
 13
368.6480977445
 23
31.3456149608
  0
SOLID
  8
0
 62
7
  6
CONTINUOUS
 10
368.6480977445
 20
31.3456149608
 11
368.5902854651
 21
31.2810878707
 12
368.3012227445
 22
31.2810878707
 13
368.3012227445
 23
31.2810878707
  0
SOLID
  8
0
 62
7
  6
CONTINUOUS
 10
368.4168479651
 20
31.1520336865
 11
368.3012227445
 21
31.2810878707
 12
368.5902854651
 22
31.2810878707
 13
368.5902854651
 23
31.2810878707
  0
SOLID
  8
0
 62
7
  6
CONTINUOUS
 10
358.8199727462
 20
31.2165607767
 11
359.3402852307
 21
31.345614957
 12
359.1668477307
 22
31.2488235635
 13
359.1668477307
 23
31.2488235635
  0
SOLID
  8
0
 62
7
  6
CONTINUOUS
 10
359.1668477307
 20
31.2488235635
 11
359.1090352445
 21
31.1842964734
 12
358.8199727462
 22
31.2165607767
 13
358.8199727462
 23
31.2165607767
  0
SOLID
  8
0
 62
7
  6
CONTINUOUS
 10
358.7621602445
 20
31.0229779898
 11
358.8199727462
 21
31.2165607767
 12
359.1090352445
 22
31.1842964734
 13
359.1090352445
 23
31.1842964734
  0
SOLID
  8
0
 62
7
  6
CONTINUOUS
 10
363.6184102445
 20
31.1520336865
 11
363.9652852445
 21
31.1842964611
 12
364.6012229651
 22
31.1842964611
 13
364.6012229651
 23
31.1842964611
  0
SOLID
  8
0
 62
7
  6
CONTINUOUS
 10
363.6184102445
 20
31.1520336865
 11
364.6012229651
 21
31.1842964611
 12
363.3871601343
 22
31.0875057863
 13
363.3871601343
 23
31.0875057863
  0
SOLID
  8
0
 62
7
  6
CONTINUOUS
 10
363.3871601343
 20
31.0875057863
 11
364.6012229651
 21
31.1842964611
 12
363.9652852445
 22
31.0552422808
 13
363.9652852445
 23
31.0552422808
  0
SOLID
  8
0
 62
7
  6
CONTINUOUS
 10
364.6012229651
 20
31.1842964611
 11
364.6012229651
 21
31.0552422808
 12
363.9652852445
 22
31.0552422808
 13
363.9652852445
 23
31.0552422808
  0
SOLID
  8
0
 62
7
  6
CONTINUOUS
 10
368.4168479651
 20
31.1520338754
 11
368.5902854651
 21
31.2810878668
 12
368.6480977445
 22
31.2165607767
 13
368.6480977445
 23
31.2165607767
  0
SOLID
  8
0
 62
7
  6
CONTINUOUS
 10
368.6480977445
 20
31.2165607767
 11
368.8215352445
 21
31.1520338754
 12
368.4168479651
 22
31.1520338754
 13
368.4168479651
 23
31.1520338754
  0
SOLID
  8
0
 62
7
  6
CONTINUOUS
 10
368.6480977445
 20
31.0552422931
 11
368.4168479651
 21
31.1520338754
 12
368.8215352445
 22
31.1520338754
 13
368.8215352445
 23
31.1520338754
  0
SOLID
  8
0
 62
7
  6
CONTINUOUS
 10
368.8215352445
 20
31.1520338754
 11
369.8043479651
 21
30.9907152029
 12
368.6480977445
 22
31.0552422931
 13
368.6480977445
 23
31.0552422931
  0
SOLID
  8
0
 62
7
  6
CONTINUOUS
 10
369.6309104651
 20
30.8939239876
 11
368.6480977445
 21
31.0552422931
 12
369.8043479651
 22
30.9907152029
 13
369.8043479651
 23
30.9907152029
  0
SOLID
  8
0
 62
7
  6
CONTINUOUS
 10
369.8043479651
 20
30.9907152029
 11
370.0355977445
 21
30.8939239876
 12
369.6309104651
 22
30.8939239876
 13
369.6309104651
 23
30.8939239876
  0
SOLID
  8
0
 62
7
  6
CONTINUOUS
 10
369.8043479651
 20
30.8293967193
 11
369.6309104651
 21
30.8939239876
 12
370.0355977445
 22
30.8939239876
 13
370.0355977445
 23
30.8939239876
  0
SOLID
  8
0
 62
7
  6
CONTINUOUS
 10
369.8043479651
 20
30.8293967193
 11
370.0355977445
 21
30.8939239876
 12
369.8621602445
 22
30.7648682694
 13
369.8621602445
 23
30.7648682694
  0
SOLID
  8
0
 62
7
  6
CONTINUOUS
 10
370.0355977445
 20
30.8939239876
 11
370.1512223035
 21
30.7648682694
 12
369.8621602445
 22
30.7648682694
 13
369.8621602445
 23
30.7648682694
  0
SOLID
  8
0
 62
7
  6
CONTINUOUS
 10
369.8043479651
 20
30.7003411846
 11
369.8621602445
 21
30.7648682694
 12
370.1512223035
 22
30.7648682694
 13
370.1512223035
 23
30.7648682694
  0
SOLID
  8
0
 62
7
  6
CONTINUOUS
 10
370.1512223035
 20
30.7648682694
 11
370.1512223035
 21
30.7003411846
 12
369.8043479651
 22
30.7003411846
 13
369.8043479651
 23
30.7003411846
  0
SOLID
  8
0
 62
7
  6
CONTINUOUS
 10
369.6887227445
 20
30.6680782357
 11
369.8043479651
 21
30.7003411846
 12
370.1512223035
 22
30.7003411846
 13
370.1512223035
 23
30.7003411846
  0
SOLID
  8
0
 62
7
  6
CONTINUOUS
 10
369.6887227445
 20
30.6680782357
 11
370.1512223035
 21
30.7003411846
 12
369.4574729651
 22
30.6358140998
 13
369.4574729651
 23
30.6358140998
  0
SOLID
  8
0
 62
7
  6
CONTINUOUS
 10
370.1512223035
 20
30.7003411846
 11
370.0355977445
 21
30.6035511455
 12
369.4574729651
 22
30.6358140998
 13
369.4574729651
 23
30.6358140998
  0
SOLID
  8
0
 62
7
  6
CONTINUOUS
 10
370.0355977445
 20
30.6035511455
 11
368.5902854651
 21
30.5712868422
 12
369.4574729651
 22
30.6358140998
 13
369.4574729651
 23
30.6358140998
  0
SOLID
  8
0
 62
7
  6
CONTINUOUS
 10
369.4574729651
 20
30.6358140998
 11
368.5902854651
 21
30.5712868422
 12
369.1105979651
 22
30.6358140998
 13
369.1105979651
 23
30.6358140998
  0
SOLID
  8
0
 62
7
  6
CONTINUOUS
 10
368.5902854651
 20
30.5712868422
 11
368.4168479651
 21
30.6358140998
 12
369.1105979651
 22
30.6358140998
 13
369.1105979651
 23
30.6358140998
  0
SOLID
  8
0
 62
7
  6
CONTINUOUS
 10
368.5902854651
 20
30.5712868422
 11
370.0355977445
 21
30.6035511455
 12
368.7637229651
 22
30.5390223111
 13
368.7637229651
 23
30.5390223111
  0
SOLID
  8
0
 62
7
  6
CONTINUOUS
 10
370.0355977445
 20
30.6035511455
 11
369.8043479651
 21
30.5390223111
 12
368.7637229651
 22
30.5390223111
 13
368.7637229651
 23
30.5390223111
  0
SOLID
  8
0
 62
7
  6
CONTINUOUS
 10
369.1105979651
 20
30.5067599302
 11
368.7637229651
 21
30.5390223111
 12
369.8043479651
 22
30.5390223111
 13
369.8043479651
 23
30.5390223111
  0
SOLID
  8
0
 62
7
  6
CONTINUOUS
 10
369.8043479651
 20
30.5390223111
 11
369.4574729651
 21
30.5067599302
 12
369.1105979651
 22
30.5067599302
 13
369.1105979651
 23
30.5067599302
  0
SOLID
  8
0
 62
7
  6
CONTINUOUS
 10
358.7621602445
 20
31.0229779898
 11
359.1090352445
 21
31.1842964734
 12
359.0512227376
 22
31.0552422931
 13
359.0512227376
 23
31.0552422931
  0
SOLID
  8
0
 62
7
  6
CONTINUOUS
 10
359.0512227376
 20
31.0552422931
 11
359.0512227376
 21
30.9584509954
 12
358.7621602445
 22
31.0229779898
 13
358.7621602445
 23
31.0229779898
  0
SOLID
  8
0
 62
7
  6
CONTINUOUS
 10
358.8199727462
 20
30.8293967193
 11
358.7621602445
 21
31.0229779898
 12
359.0512227376
 22
30.9584509954
 13
359.0512227376
 23
30.9584509954
  0
SOLID
  8
0
 62
7
  6
CONTINUOUS
 10
359.0512227376
 20
30.9584509954
 11
359.1668477307
 21
30.797132416
 12
358.8199727462
 22
30.8293967193
 13
358.8199727462
 23
30.8293967193
  0
SOLID
  8
0
 62
7
  6
CONTINUOUS
 10
358.9355977445
 20
30.7003413087
 11
358.8199727462
 21
30.8293967193
 12
359.1668477307
 22
30.797132416
 13
359.1668477307
 23
30.797132416
  0
SOLID
  8
0
 62
7
  6
CONTINUOUS
 10
359.1668477307
 20
30.797132416
 11
359.3402852307
 21
30.7003413087
 12
358.9355977445
 22
30.7003413087
 13
358.9355977445
 23
30.7003413087
  0
SOLID
  8
0
 62
7
  6
CONTINUOUS
 10
359.0512227376
 20
30.6358140759
 11
358.9355977445
 21
30.7003413087
 12
359.3402852307
 22
30.7003413087
 13
359.3402852307
 23
30.7003413087
  0
SOLID
  8
0
 62
7
  6
CONTINUOUS
 10
359.3402852307
 20
30.7003413087
 11
359.6871602721
 21
30.6358140759
 12
359.0512227376
 22
30.6358140759
 13
359.0512227376
 23
30.6358140759
  0
SOLID
  8
0
 62
7
  6
CONTINUOUS
 10
359.2246602583
 20
30.5712868422
 11
359.0512227376
 21
30.6358140759
 12
359.6871602721
 22
30.6358140759
 13
359.6871602721
 23
30.6358140759
  0
SOLID
  8
0
 62
7
  6
CONTINUOUS
 10
363.2715352445
 20
31.0229779808
 11
363.3871601343
 21
31.0875057863
 12
363.9652852445
 22
31.0552422931
 13
363.9652852445
 23
31.0552422931
  0
SOLID
  8
0
 62
7
  6
CONTINUOUS
 10
363.9652852445
 20
31.0552422931
 11
363.7340351343
 21
31.0229779808
 12
363.2715352445
 22
31.0229779808
 13
363.2715352445
 23
31.0229779808
  0
SOLID
  8
0
 62
7
  6
CONTINUOUS
 10
363.1559103548
 20
30.8939238094
 11
363.2715352445
 21
31.0229779808
 12
363.7340351343
 22
31.0229779808
 13
363.7340351343
 23
31.0229779808
  0
SOLID
  8
0
 62
7
  6
CONTINUOUS
 10
363.5027853548
 20
30.926187309
 11
363.1559103548
 21
30.8939238094
 12
363.6184102445
 22
30.9907152029
 13
363.6184102445
 23
30.9907152029
  0
SOLID
  8
0
 62
7
  6
CONTINUOUS
 10
363.1559103548
 20
30.8939238094
 11
363.7340351343
 21
31.0229779898
 12
363.6184102445
 22
30.9907152029
 13
363.6184102445
 23
30.9907152029
  0
SOLID
  8
0
 62
7
  6
CONTINUOUS
 10
363.5027853548
 20
30.926187309
 11
363.4449727445
 21
30.8293967193
 12
363.1559103548
 22
30.8939238094
 13
363.1559103548
 23
30.8939238094
  0
SOLID
  8
0
 62
7
  6
CONTINUOUS
 10
363.1559103548
 20
30.797132416
 11
363.1559103548
 21
30.8939238094
 12
363.4449727445
 22
30.8293967193
 13
363.4449727445
 23
30.8293967193
  0
SOLID
  8
0
 62
7
  6
CONTINUOUS
 10
363.4449727445
 20
30.8293967193
 11
363.4449727445
 21
30.7648681127
 12
363.1559103548
 22
30.797132416
 13
363.1559103548
 23
30.797132416
  0
SOLID
  8
0
 62
7
  6
CONTINUOUS
 10
363.2137226343
 20
30.6680782357
 11
363.1559103548
 21
30.797132416
 12
363.4449727445
 22
30.7648681127
 13
363.4449727445
 23
30.7648681127
  0
SOLID
  8
0
 62
7
  6
CONTINUOUS
 10
364.6012229651
 20
30.8616599362
 11
364.890285024
 21
30.7648681127
 12
364.543410024
 22
30.797132416
 13
364.543410024
 23
30.797132416
  0
SOLID
  8
0
 62
7
  6
CONTINUOUS
 10
364.369972524
 20
30.7003410226
 11
364.543410024
 21
30.797132416
 12
364.890285024
 22
30.7648681127
 13
364.890285024
 23
30.7648681127
  0
SOLID
  8
0
 62
7
  6
CONTINUOUS
 10
364.369972524
 20
30.7003410226
 11
364.890285024
 21
30.7648681127
 12
364.6012229651
 22
30.6680782357
 13
364.6012229651
 23
30.6680782357
  0
SOLID
  8
0
 62
7
  6
CONTINUOUS
 10
364.890285024
 20
30.7648681127
 11
364.9480979651
 21
30.6035511455
 12
364.6012229651
 22
30.6680782357
 13
364.6012229651
 23
30.6680782357
  0
SOLID
  8
0
 62
7
  6
CONTINUOUS
 10
364.6590352445
 20
30.5712868422
 11
364.6012229651
 21
30.6680782357
 12
364.9480979651
 22
30.6035511455
 13
364.9480979651
 23
30.6035511455
  0
SOLID
  8
0
 62
7
  6
CONTINUOUS
 10
364.6590352445
 20
30.5712868422
 11
364.9480979651
 21
30.6035511455
 12
364.716847524
 22
30.5067598731
 13
364.716847524
 23
30.5067598731
  0
SOLID
  8
0
 62
7
  6
CONTINUOUS
 10
364.9480979651
 20
30.6035511455
 11
365.0059102445
 21
30.5067598731
 12
364.716847524
 22
30.5067598731
 13
364.716847524
 23
30.5067598731
  0
SOLID
  8
0
 62
7
  6
CONTINUOUS
 10
360.2652852997
 20
30.7326051679
 11
360.3230977445
 21
30.8293966612
 12
360.6121602997
 22
30.8293966612
 13
360.6121602997
 23
30.8293966612
  0
SOLID
  8
0
 62
7
  6
CONTINUOUS
 10
360.6121602997
 20
30.8293966612
 11
360.5543476894
 21
30.7003410226
 12
360.2652852997
 22
30.7326051679
 13
360.2652852997
 23
30.7326051679
  0
SOLID
  8
0
 62
7
  6
CONTINUOUS
 10
360.091847717
 20
30.6680782357
 11
360.2652852997
 21
30.7326051679
 12
360.5543476894
 22
30.7003410226
 13
360.5543476894
 23
30.7003410226
  0
SOLID
  8
0
 62
7
  6
CONTINUOUS
 10
360.091847717
 20
30.6680782357
 11
360.5543476894
 21
30.7003410226
 12
359.6871602721
 22
30.6358139324
 13
359.6871602721
 23
30.6358139324
  0
SOLID
  8
0
 62
7
  6
CONTINUOUS
 10
360.5543476894
 20
30.7003410226
 11
360.3809101894
 21
30.6035511455
 12
359.6871602721
 22
30.6358139324
 13
359.6871602721
 23
30.6358139324
  0
SOLID
  8
0
 62
7
  6
CONTINUOUS
 10
359.2246602583
 20
30.5712868422
 11
359.6871602721
 21
30.6358139324
 12
360.3809101894
 22
30.6035511455
 13
360.3809101894
 23
30.6035511455
  0
SOLID
  8
0
 62
7
  6
CONTINUOUS
 10
359.2246602583
 20
30.5712868422
 11
360.3809101894
 21
30.6035511455
 12
359.3980977583
 22
30.5390224228
 13
359.3980977583
 23
30.5390224228
  0
SOLID
  8
0
 62
7
  6
CONTINUOUS
 10
360.3809101894
 20
30.6035511455
 11
360.1496602445
 21
30.5390224228
 12
359.3980977583
 22
30.5390224228
 13
359.3980977583
 23
30.5390224228
  0
SOLID
  8
0
 62
7
  6
CONTINUOUS
 10
359.744972717
 20
30.5067597521
 11
359.3980977583
 21
30.5390224228
 12
360.1496602445
 22
30.5390224228
 13
360.1496602445
 23
30.5390224228
  0
SOLID
  8
0
 62
7
  6
CONTINUOUS
 10
363.2137226343
 20
30.6680782357
 11
363.4449727445
 21
30.7648681127
 12
363.5027853548
 22
30.7003410226
 13
363.5027853548
 23
30.7003410226
  0
SOLID
  8
0
 62
7
  6
CONTINUOUS
 10
363.5027853548
 20
30.7003410226
 11
363.7340351343
 21
30.6358139324
 12
363.2137226343
 22
30.6680782357
 13
363.2137226343
 23
30.6680782357
  0
SOLID
  8
0
 62
7
  6
CONTINUOUS
 10
363.3871601343
 20
30.5712868422
 11
363.2137226343
 21
30.6680782357
 12
363.7340351343
 22
30.6358139324
 13
363.7340351343
 23
30.6358139324
  0
SOLID
  8
0
 62
7
  6
CONTINUOUS
 10
364.0809101343
 20
30.6358139363
 11
364.369972524
 21
30.7003410226
 12
364.6012229651
 22
30.6680782357
 13
364.6012229651
 23
30.6680782357
  0
SOLID
  8
0
 62
7
  6
CONTINUOUS
 10
364.6012229651
 20
30.6680782357
 11
364.543410024
 21
30.6035511455
 12
364.0809101343
 22
30.6358139363
 13
364.0809101343
 23
30.6358139363
  0
SOLID
  8
0
 62
7
  6
CONTINUOUS
 10
364.543410024
 20
30.6035511455
 11
363.3871601343
 21
30.5712868422
 12
364.0809101343
 22
30.6358139363
 13
364.0809101343
 23
30.6358139363
  0
SOLID
  8
0
 62
7
  6
CONTINUOUS
 10
363.3871601343
 20
30.5712868422
 11
363.7340351343
 21
30.6358139363
 12
364.0809101343
 22
30.6358139363
 13
364.0809101343
 23
30.6358139363
  0
SOLID
  8
0
 62
7
  6
CONTINUOUS
 10
363.3871601343
 20
30.5712868422
 11
364.543410024
 21
30.6035511455
 12
363.5027853548
 22
30.5390225267
 13
363.5027853548
 23
30.5390225267
  0
SOLID
  8
0
 62
7
  6
CONTINUOUS
 10
364.543410024
 20
30.6035511455
 11
364.369972524
 21
30.5390225267
 12
363.5027853548
 22
30.5390225267
 13
363.5027853548
 23
30.5390225267
  0
SOLID
  8
0
 62
7
  6
CONTINUOUS
 10
363.7340351343
 20
30.5067596914
 11
363.5027853548
 21
30.5390225267
 12
364.369972524
 22
30.5390225267
 13
364.369972524
 23
30.5390225267
  0
SOLID
  8
0
 62
7
  6
CONTINUOUS
 10
364.369972524
 20
30.5390225267
 11
364.0809101343
 21
30.5067596914
 12
363.7340351343
 22
30.5067596914
 13
363.7340351343
 23
30.5067596914
  0
SOLID
  8
0
 62
7
  6
CONTINUOUS
 10
368.7637229651
 20
30.6680782357
 11
368.4168479651
 21
30.6358138717
 12
368.6480977445
 22
30.7003410226
 13
368.6480977445
 23
30.7003410226
  0
SOLID
  8
0
 62
7
  6
CONTINUOUS
 10
368.6480977445
 20
30.7003410226
 11
368.4168479651
 21
30.6358138717
 12
368.5902854651
 22
30.7648680521
 13
368.5902854651
 23
30.7648680521
  0
SOLID
  8
0
 62
7
  6
CONTINUOUS
 10
368.4168479651
 20
30.6358138717
 11
368.3012227445
 21
30.7648680521
 12
368.5902854651
 22
30.7648680521
 13
368.5902854651
 23
30.7648680521
  0
SOLID
  8
0
 62
7
  6
CONTINUOUS
 10
368.7637229651
 20
30.6680782357
 11
369.1105979651
 21
30.6358138717
 12
368.4168479651
 22
30.6358138717
 13
368.4168479651
 23
30.6358138717
  0
SOLID
  8
0
 62
7
  6
CONTINUOUS
 10
365.4684104651
 20
30.5067597521
 11
365.4684104651
 21
31.5391977439
 12
365.757472524
 22
30.5067597521
 13
365.757472524
 23
31.5391977439
  0
ENDBLK
  8
0
  6
BYBLOCK
 62
0
  0
BLOCK
  8
0
 62
2
  6
CONTINUOUS
  2
AMMEAAL_LOGO_BL0
 70
64
 10
240.8592468615
 20
19.762288695
  0
TEXT
  8
0
 62
7
  6
CONTINUOUS
 10
227.1239507038
 20
19.1357028027
  7
TEXTSTYLE_3
 40
2.7338706658
  1
Ammeraal Beltech
 41
1.0
 51
15.0
 72
0
  0
TEXT
  8
0
 62
7
  6
CONTINUOUS
 10
237.9247515296
 20
16.8621661299
  7
TEXTSTYLE_4
 40
1.0935482663
  1
Innovation & Service in Belting
 41
1.0
 72
0
  0
LINE
  8
0
 62
7
  6
CONTINUOUS
 10
221.0994100525
 20
19.9022961113
 11
221.8775620458
 21
23.5632134089
  0
LINE
  8
0
 62
7
  6
CONTINUOUS
 10
231.9727303357
 20
27.2266073205
 11
222.3653797889
 21
24.1049898993
  0
LINE
  8
0
 62
7
  6
CONTINUOUS
 10
221.3246933848
 20
19.2089453082
 11
228.8317686459
 21
12.4495443822
  0
LINE
  8
0
 62
7
  6
CONTINUOUS
 10
221.5872277955
 20
20.4440726016
 11
232.3954971607
 21
23.9558922005
  0
LINE
  8
0
 62
7
  6
CONTINUOUS
 10
232.3912920235
 20
13.6061036368
 11
223.9458323548
 21
21.2104296785
  0
LINE
  8
0
 62
7
  6
CONTINUOUS
 10
232.9111147433
 20
26.3816822048
 11
231.9345552061
 21
21.7873308023
  0
LINE
  8
0
 62
7
  6
CONTINUOUS
 10
231.2347532584
 20
18.4950214885
 11
230.5483050469
 21
15.2655365641
  0
LINE
  8
0
 62
7
  6
CONTINUOUS
 10
233.5922108419
 20
13.9963058145
 11
234.5484423775
 21
18.4950214885
  0
LINE
  8
0
 62
7
  6
CONTINUOUS
 10
235.2482443252
 20
21.7873308023
 11
235.6924861276
 21
23.8773241617
  0
LINE
  8
0
 62
7
  6
CONTINUOUS
 10
229.5448697213
 20
12.2979700695
 11
233.1043930989
 21
13.4545293241
  0
LINE
  8
0
 62
7
  6
CONTINUOUS
 10
232.685831411
 20
27.0750330078
 11
235.4672027953
 21
24.5706749648
  0
ARC
  8
0
 62
7
  6
CONTINUOUS
 10
222.5906631212
 20
23.4116390962
 40
0.7290321776
 50
108.0
 51
168.0
  0
ARC
  8
0
 62
7
  6
CONTINUOUS
 10
232.198013668
 20
26.5332565175
 40
0.7290321776
 50
348.0
 51
108.0
  0
ARC
  8
0
 62
7
  6
CONTINUOUS
 10
234.9793850522
 20
24.0288984744
 40
0.7290321776
 50
348.0
 51
48.0
  0
ARC
  8
0
 62
7
  6
CONTINUOUS
 10
229.319586389
 20
12.9913208726
 40
0.7290321776
 50
228.0
 51
288.0
  0
ARC
  8
0
 62
7
  6
CONTINUOUS
 10
221.8125111278
 20
19.7507217986
 40
0.7290321776
 50
108.0
 51
228.0
  0
ARC
  8
0
 62
7
  6
CONTINUOUS
 10
232.8791097665
 20
14.1478801272
 40
0.7290321776
 50
228.0
 51
348.0
  0
ENDBLK
  8
0
  6
BYBLOCK
 62
0
  0
ENDSEC
  0
SECTION
  2
ENTITIES
  0
TEXT
  8
0
 62
5
  6
CONTINUOUS
 10
304.937007874
 20
25.636
  7
TEXTSTYLE_2
 40
2.8
  1
Scale :
 41
0.6
 51
0.000019
 72
0
  0
TEXT
  8
0
 62
5
  6
CONTINUOUS
 10
324.937007874
 20
25.636
  7
TEXTSTYLE_2
 40
2.8
  1
Belt type:
 41
0.6
 51
0.000019
 72
0
  0
INSERT
  8
0
 62
2
  6
CONTINUOUS
  2
AMMEAAL_LOGO_BL0
 10
240.8592468615
 20
19.762288695
  0
INSERT
  8
0
 62
2
  6
CONTINUOUS
  2
UNI_LOGO2_BL1
 10
382.7840918555
 20
35.5067593403
  0
LINE
  8
0
 62
2
  6
CONTINUOUS
 10
218.937007874
 20
30.0
 11
408.937007874
 21
30.0
  0
LINE
  8
0
 62
2
  6
CONTINUOUS
 10
218.937007874
 20
30.0
 11
218.937007874
 21
10.0
  0
LINE
  8
0
 62
2
  6
CONTINUOUS
 10
218.937007874
 20
10.0
 11
408.937007874
 21
10.0
  0
LINE
  8
0
 62
2
  6
CONTINUOUS
 10
303.937007874
 20
30.0
 11
303.937007874
 21
10.0
  0
LINE
  8
0
 62
2
  6
CONTINUOUS
 10
323.937007874
 20
30.0
 11
323.937007874
 21
10.0
  0
LINE
  8
0
 62
2
  6
CONTINUOUS
 10
408.937007874
 20
30.0
 11
408.937007874
 21
10.0
  0
TEXT
  8
0
 62
5
  6
CONTINUOUS
 10
221.937007874
 20
23.303
  7
TEXTSTYLE_5
 40
1.52
  1
                                                                     Ammeraal Beltech Modular A/S
 41
1.0
 72
0
  0
TEXT
  8
0
 62
5
  6
CONTINUOUS
 10
221.937007874
 20
20.595
  7
TEXTSTYLE_5
 40
1.5
  1
                                                                      Hjulmagervej 21, 7100 Vejle,  DK
 41
1.0
 72
0
  0
TEXT
  8
0
 62
5
  6
CONTINUOUS
 10
221.937007874
 20
17.881
  7
TEXTSTYLE_5
 40
1.495
  1
                                                                      tel: 
 41
1.0
 72
0
  0
TEXT
  8
0
 62
5
  6
CONTINUOUS
 10
266.9239544389
 20
17.881
  7
TEXTSTYLE_5
 40
1.51
  1
+45 75723100     fax: +45 75723348
 41
1.0
 72
0
  0
TEXT
  8
0
 62
5
  6
CONTINUOUS
 10
221.937007874
 20
15.177
  7
TEXTSTYLE_5
 40
1.5
  1
                                                                      admin@unichains.dk  www.unichains.com
 41
1.0
 72
0
  0
TEXT
  8
0
 62
5
  6
CONTINUOUS
 10
308.687007874
 20
13.75
  7
TEXTSTYLE_6
 40
5.0
  1
1:1
 41
0.7
 72
1
 11
313.937007874
 21
13.75
  0
TEXT
  8
0
 62
5
  6
CONTINUOUS
 10
326.937007874
 20
13.75
  7
TEXTSTYLE_7
 40
7.5
  1
Sprocket Z10
 41
0.6361111111
 72
0
  0
LINE
  8
0
 62
7
  6
CONTINUOUS
 10
0.0
 20
0.0
 11
0.0
 21
297.0
  0
LINE
  8
0
 62
7
  6
CONTINUOUS
 10
8.937007874
 20
10.0
 11
8.937007874
 21
287.0
  0
LINE
  8
0
 62
7
  6
CONTINUOUS
 10
0.0
 20
0.0
 11
420.0
 21
0.0
  0
LINE
  8
0
 62
7
  6
CONTINUOUS
 10
408.937007874
 20
10.0
 11
8.937007874
 21
10.0
  0
LINE
  8
0
 62
7
  6
CONTINUOUS
 10
218.937007874
 20
30.0
 11
408.937007874
 21
30.0
  0
LINE
  8
0
 62
7
  6
CONTINUOUS
 10
210.0
 20
297.0
 11
210.0
 21
292.0
  0
LINE
  8
0
 62
7
  6
CONTINUOUS
 10
210.0
 20
0.0
 11
210.0
 21
5.0
  0
LINE
  8
0
 62
7
  6
CONTINUOUS
 10
8.937007874
 20
287.0
 11
408.937007874
 21
287.0
  0
LINE
  8
0
 62
7
  6
CONTINUOUS
 10
0.0
 20
297.0
 11
420.0
 21
297.0
  0
LINE
  8
0
 62
7
  6
CONTINUOUS
 10
408.937007874
 20
287.0
 11
408.937007874
 21
10.0
  0
LINE
  8
0
 62
7
  6
CONTINUOUS
 10
420.0
 20
0.0
 11
420.0
 21
297.0
  0
LINE
  8
0
 62
7
  6
CONTINUOUS
 10
32.6318398639
 20
220.4532071941
 11
26.6602406219
 21
202.0745145165
  0
LINE
  8
0
 62
7
  6
CONTINUOUS
 10
75.5358099369
 20
269.3459644744
 11
59.9019601543
 21
257.9873077308
  0
LINE
  8
0
 62
7
  6
CONTINUOUS
 10
119.659791444
 20
74.0716141529
 11
138.9842925254
 21
74.0716141529
  0
LINE
  8
0
 62
7
  6
CONTINUOUS
 10
59.9019601543
 20
99.7670215644
 11
75.5358099369
 21
88.4083648208
  0
LINE
  8
0
 62
7
  6
CONTINUOUS
 10
26.6602406219
 20
155.6798147787
 11
32.6318398639
 21
137.3011221011
  0
LINE
  8
0
 62
7
  6
CONTINUOUS
 10
43.4502562415
 20
220.0912267293
 11
35.6252901025
 21
196.0084572641
  0
LINE
  8
0
 62
7
  6
CONTINUOUS
 10
84.0753258599
 20
262.6942105268
 11
63.5892985469
 21
247.8102404541
  0
LINE
  8
0
 62
7
  6
CONTINUOUS
 10
63.5892985469
 20
109.9440888411
 11
84.0753258599
 21
95.0601187684
  0
LINE
  8
0
 62
7
  6
CONTINUOUS
 10
35.6252901025
 20
161.7458720311
 11
43.4502562415
 21
137.6631025659
  0
LINE
  8
0
 62
7
  6
CONTINUOUS
 10
76.9180778195
 20
238.4811578161
 11
77.2428659193
 21
238.9019877114
  0
LINE
  8
0
 62
7
  6
CONTINUOUS
 10
68.5601362237
 20
228.4487772853
 11
68.2384548222
 21
228.03915729
  0
LINE
  8
0
 62
7
  6
CONTINUOUS
 10
66.9517295153
 20
226.4006776899
 11
66.6300481828
 21
225.9910577825
  0
LINE
  8
0
 62
7
  6
CONTINUOUS
 10
76.9741913597
 20
239.3727296569
 11
76.4916860904
 21
238.8157831165
  0
LINE
  8
0
 62
7
  6
CONTINUOUS
 10
80.6836912299
 20
242.3937312978
 11
80.3338089841
 21
241.9935234982
  0
LINE
  8
0
 62
7
  6
CONTINUOUS
 10
70.5741233479
 20
230.8009829055
 11
70.2998494441
 21
230.4873189095
  0
LINE
  8
0
 62
7
  6
CONTINUOUS
 10
69.6827334549
 20
229.7815752551
 11
69.3398911732
 21
229.3894953722
  0
LINE
  8
0
 62
7
  6
CONTINUOUS
 10
71.1030138646
 20
233.7462140428
 11
70.7470312204
 21
233.3660252592
  0
LINE
  8
0
 62
7
  6
CONTINUOUS
 10
71.135309229
 20
233.0024684209
 11
71.4912918731
 21
233.3826572045
  0
LINE
  8
0
 62
7
  6
CONTINUOUS
 10
72.2678481077
 20
232.6555433241
 11
71.9118654635
 21
232.2753545405
  0
LINE
  8
0
 62
7
  6
CONTINUOUS
 10
84.7489491397
 20
244.5413895912
 11
85.1226201816
 21
244.919481936
  0
LINE
  8
0
 62
7
  6
CONTINUOUS
 10
84.8267740203
 20
245.3615321995
 11
84.3665341311
 21
244.9255028658
  0
LINE
  8
0
 62
7
  6
CONTINUOUS
 10
88.8424696633
 20
247.1410296706
 11
89.238534433
 21
247.4955949918
  0
LINE
  8
0
 62
7
  6
CONTINUOUS
 10
77.2896275036
 20
239.644964505
 11
76.9741913597
 21
239.3727296569
  0
LINE
  8
0
 62
7
  6
CONTINUOUS
 10
77.2428659193
 20
238.9019877114
 11
77.5583011607
 21
239.1742217806
  0
LINE
  8
0
 62
7
  6
CONTINUOUS
 10
76.477022409
 20
237.3978886307
 11
76.8713171377
 21
237.7381818014
  0
LINE
  8
0
 62
7
  6
CONTINUOUS
 10
88.9702378952
 20
247.9548883125
 11
88.4842274866
 21
247.5477811789
  0
LINE
  8
0
 62
7
  6
CONTINUOUS
 10
81.0151647684
 20
242.6461933081
 11
80.6836912299
 21
242.3937312978
  0
LINE
  8
0
 62
7
  6
CONTINUOUS
 10
80.9231155426
 20
241.9074600275
 11
81.4203249021
 21
242.2861523205
  0
LINE
  8
0
 62
7
  6
CONTINUOUS
 10
82.4700196123
 20
242.2832866749
 11
82.884360113
 21
242.5988631042
  0
LINE
  8
0
 62
7
  6
CONTINUOUS
 10
82.1938241422
 20
241.2705756404
 11
81.7794817448
 21
240.9549977665
  0
LINE
  8
0
 62
7
  6
CONTINUOUS
 10
82.0189060575
 20
240.4687264961
 11
82.5989823791
 21
240.9105332083
  0
LINE
  8
0
 62
7
  6
CONTINUOUS
 10
77.8322874458
 20
239.9727792737
 11
77.2896275036
 21
239.644964505
  0
LINE
  8
0
 62
7
  6
CONTINUOUS
 10
77.5583011607
 20
239.1742217806
 11
78.0221025182
 21
239.4339782267
  0
LINE
  8
0
 62
7
  6
CONTINUOUS
 10
104.8830592278
 20
254.3840329941
 11
105.3475324712
 21
254.6425885172
  0
LINE
  8
0
 62
7
  6
CONTINUOUS
 10
105.1870605392
 20
255.1497198075
 11
104.6232755884
 21
254.8597390069
  0
LINE
  8
0
 62
7
  6
CONTINUOUS
 10
81.4939635241
 20
242.8771383672
 11
81.0151647684
 21
242.6461933081
  0
LINE
  8
0
 62
7
  6
CONTINUOUS
 10
85.4053523741
 20
245.6207414277
 11
84.8267740203
 21
245.3615321995
  0
LINE
  8
0
 62
7
  6
CONTINUOUS
 10
100.2269200888
 20
253.4279135459
 11
96.3861353427
 21
251.8125218696
  0
LINE
  8
0
 62
7
  6
CONTINUOUS
 10
96.5923554928
 20
251.3222090752
 11
99.9530407721
 21
252.7356762143
  0
LINE
  8
0
 62
7
  6
CONTINUOUS
 10
85.1226201816
 20
244.919481936
 11
85.614629688
 21
245.1207541754
  0
LINE
  8
0
 62
7
  6
CONTINUOUS
 10
89.5635669189
 20
248.1782781178
 11
88.9702378952
 21
247.9548883125
  0
LINE
  8
0
 62
7
  6
CONTINUOUS
 10
102.4090300687
 20
254.2169311365
 11
101.8221166052
 21
254.0020879695
  0
LINE
  8
0
 62
7
  6
CONTINUOUS
 10
89.238534433
 20
247.4955949918
 11
89.7419198764
 21
247.6664441872
  0
LINE
  8
0
 62
7
  6
CONTINUOUS
 10
80.3338089841
 20
241.9935234982
 11
80.1128423
 21
241.4240522358
  0
LINE
  8
0
 62
7
  6
CONTINUOUS
 10
76.4916860904
 20
238.8157831165
 11
76.3152641068
 21
238.3824755981
  0
LINE
  8
0
 62
7
  6
CONTINUOUS
 10
70.1757836856
 20
225.8554991159
 11
70.0021057411
 21
225.4620981203
  0
LINE
  8
0
 62
7
  6
CONTINUOUS
 10
70.3367739181
 20
225.1992776295
 11
70.5104518846
 21
225.5926786077
  0
LINE
  8
0
 62
7
  6
CONTINUOUS
 10
84.3665341311
 20
244.9255028658
 11
84.1112015537
 21
244.3705904156
  0
LINE
  8
0
 62
7
  6
CONTINUOUS
 10
70.2998494441
 20
230.4873189095
 11
70.1056599171
 21
230.1036275756
  0
LINE
  8
0
 62
7
  6
CONTINUOUS
 10
70.4259974242
 20
229.8235182238
 11
70.6201869512
 21
230.2072095577
  0
LINE
  8
0
 62
7
  6
CONTINUOUS
 10
88.4842274866
 20
247.5477811789
 11
88.1954813321
 21
247.0094985295
  0
LINE
  8
0
 62
7
  6
CONTINUOUS
 10
80.7389691178
 20
241.6334825107
 11
80.9231155426
 21
241.9074600275
  0
LINE
  8
0
 62
7
  6
CONTINUOUS
 10
81.8347596327
 20
240.1947489793
 11
82.0189060575
 21
240.4687264961
  0
LINE
  8
0
 62
7
  6
CONTINUOUS
 10
84.0722940386
 20
239.4918831422
 11
83.8881476139
 21
239.2179056254
  0
LINE
  8
0
 62
7
  6
CONTINUOUS
 10
70.0021057411
 20
225.4620981203
 11
69.7447606383
 21
225.1344021476
  0
LINE
  8
0
 62
7
  6
CONTINUOUS
 10
70.0794288153
 20
224.8715816567
 11
70.3367739181
 21
225.1992776295
  0
LINE
  8
0
 62
7
  6
CONTINUOUS
 10
71.0444728357
 20
226.1004414081
 11
71.3661542372
 21
226.5100614033
  0
LINE
  8
0
 62
7
  6
CONTINUOUS
 10
104.6232755884
 20
254.8597390069
 11
104.2229911179
 21
254.3983309677
  0
LINE
  8
0
 62
7
  6
CONTINUOUS
 10
81.7794817448
 20
240.9549977665
 11
81.4295994991
 21
240.5547899669
  0
LINE
  8
0
 62
7
  6
CONTINUOUS
 10
84.1275719717
 20
238.7316342958
 11
84.4774542118
 21
239.1318421028
  0
LINE
  8
0
 62
7
  6
CONTINUOUS
 10
71.9025914544
 20
227.1486203617
 11
72.245433736
 21
227.5407002445
  0
LINE
  8
0
 62
7
  6
CONTINUOUS
 10
73.4796657145
 20
228.9521875535
 11
73.8225078
 21
229.3442672119
  0
LINE
  8
0
 62
7
  6
CONTINUOUS
 10
74.3968449356
 20
229.9485905715
 11
74.7528275797
 21
230.3287793551
  0
LINE
  8
0
 62
7
  6
CONTINUOUS
 10
87.6855531072
 20
242.0264018977
 11
87.3118820653
 21
241.6483095529
  0
LINE
  8
0
 62
7
  6
CONTINUOUS
 10
87.6077282681
 20
241.2062592275
 11
88.0679681521
 21
241.6422885689
  0
LINE
  8
0
 62
7
  6
CONTINUOUS
 10
91.6199959038
 20
244.4513904922
 11
91.2239290755
 21
244.0968239684
  0
LINE
  8
0
 62
7
  6
CONTINUOUS
 10
81.3917895401
 20
237.2833004106
 11
79.1837401427
 21
235.3776595894
  0
LINE
  8
0
 62
7
  6
CONTINUOUS
 10
78.9004028529
 20
234.4305077716
 11
81.7393227331
 21
236.8806167312
  0
LINE
  8
0
 62
7
  6
CONTINUOUS
 10
91.4922256508
 20
243.6375305834
 11
91.9782360547
 21
244.044637725
  0
LINE
  8
0
 62
7
  6
CONTINUOUS
 10
69.7384167142
 20
224.6095908652
 11
70.0794288153
 21
224.8715816567
  0
LINE
  8
0
 62
7
  6
CONTINUOUS
 10
83.8881476139
 20
239.2179056254
 11
83.3080712922
 21
238.7760989132
  0
LINE
  8
0
 62
7
  6
CONTINUOUS
 10
83.7132295743
 20
238.4160564218
 11
84.1275719717
 21
238.7316342958
  0
LINE
  8
0
 62
7
  6
CONTINUOUS
 10
70.6201869512
 20
230.2072095577
 11
70.9745452318
 21
230.4508462158
  0
LINE
  8
0
 62
7
  6
CONTINUOUS
 10
70.8599130544
 20
230.9662034524
 11
70.5741233479
 21
230.8009829055
  0
LINE
  8
0
 62
7
  6
CONTINUOUS
 10
106.9994981684
 20
251.1483719944
 11
106.5350249251
 21
250.8898164714
  0
LINE
  8
0
 62
7
  6
CONTINUOUS
 10
106.6954968795
 20
250.38268511
 11
107.2592818275
 21
250.6726659195
  0
LINE
  8
0
 62
7
  6
CONTINUOUS
 10
82.6726228979
 20
241.5015206995
 11
82.1938241422
 21
241.2705756404
  0
LINE
  8
0
 62
7
  6
CONTINUOUS
 10
83.234430813
 20
238.1851113701
 11
83.7132295743
 21
238.4160564218
  0
LINE
  8
0
 62
7
  6
CONTINUOUS
 10
87.0291499091
 20
240.9470500069
 11
87.6077282681
 21
241.2062592275
  0
LINE
  8
0
 62
7
  6
CONTINUOUS
 10
101.9179255217
 20
249.4073481515
 11
98.6532583776
 21
248.0342651804
  0
LINE
  8
0
 62
7
  6
CONTINUOUS
 10
98.3246049845
 20
247.2035810533
 11
102.1653897306
 21
248.8189727296
  0
LINE
  8
0
 62
7
  6
CONTINUOUS
 10
87.3118820653
 20
241.6483095529
 11
86.8198725589
 21
241.4470373134
  0
LINE
  8
0
 62
7
  6
CONTINUOUS
 10
70.9745452318
 20
230.4508462158
 11
71.1917663642
 21
230.5376506515
  0
LINE
  8
0
 62
7
  6
CONTINUOUS
 10
90.8988966224
 20
243.4141407861
 11
91.4922256508
 21
243.6375305834
  0
LINE
  8
0
 62
7
  6
CONTINUOUS
 10
103.5408619414
 20
249.3067802619
 11
104.1277754049
 21
249.5216234289
  0
LINE
  8
0
 62
7
  6
CONTINUOUS
 10
91.2239290755
 20
244.0968239684
 11
90.7205456907
 21
243.9259759755
  0
LINE
  8
0
 62
7
  6
CONTINUOUS
 10
81.4203249021
 20
242.2861523205
 11
81.7333878368
 21
242.3908670968
  0
LINE
  8
0
 62
7
  6
CONTINUOUS
 10
82.5989823791
 20
240.9105332083
 11
82.9120453139
 21
241.0152479845
  0
LINE
  8
0
 62
7
  6
CONTINUOUS
 10
83.3080712922
 20
238.7760989132
 11
82.9950083575
 21
238.671384137
  0
LINE
  8
0
 62
7
  6
CONTINUOUS
 10
70.2014584158
 20
226.2326813001
 11
70.1757836856
 21
225.8554991159
  0
LINE
  8
0
 62
7
  6
CONTINUOUS
 10
70.1056599171
 20
230.1036275756
 11
70.0601235371
 21
229.7283252392
  0
LINE
  8
0
 62
7
  6
CONTINUOUS
 10
70.3804610442
 20
229.4482158874
 11
70.4259974242
 21
229.8235182238
  0
LINE
  8
0
 62
7
  6
CONTINUOUS
 10
70.5104518846
 20
225.5926786077
 11
70.5554574378
 21
225.8222317754
  0
LINE
  8
0
 62
7
  6
CONTINUOUS
 10
76.8205144206
 20
238.1159086203
 11
76.9180778195
 21
238.4811578161
  0
LINE
  8
0
 62
7
  6
CONTINUOUS
 10
80.6192799996
 20
241.2748729014
 11
80.7389691178
 21
241.6334825107
  0
LINE
  8
0
 62
7
  6
CONTINUOUS
 10
81.4295994991
 20
240.5547899669
 11
81.1902231594
 21
239.8375721928
  0
LINE
  8
0
 62
7
  6
CONTINUOUS
 10
81.7150705146
 20
239.83613937
 11
81.8347596327
 21
240.1947489793
  0
LINE
  8
0
 62
7
  6
CONTINUOUS
 10
84.1919822085
 20
239.8504920292
 11
84.0722940386
 21
239.4918831422
  0
LINE
  8
0
 62
7
  6
CONTINUOUS
 10
84.4774542118
 20
239.1318421028
 11
84.6984199306
 21
239.7013126651
  0
LINE
  8
0
 62
7
  6
CONTINUOUS
 10
84.6075830435
 20
244.1907598453
 11
84.7489491397
 21
244.5413895912
  0
LINE
  8
0
 62
7
  6
CONTINUOUS
 10
87.8269192034
 20
242.3770316436
 11
87.6855531072
 21
242.0264018977
  0
LINE
  8
0
 62
7
  6
CONTINUOUS
 10
88.0679681521
 20
241.6422885689
 11
88.3233007139
 21
242.1972010423
  0
LINE
  8
0
 62
7
  6
CONTINUOUS
 10
88.6799534203
 20
246.7996881076
 11
88.8424696633
 21
247.1410296706
  0
LINE
  8
0
 62
7
  6
CONTINUOUS
 10
91.7825121468
 20
244.7927320551
 11
91.6199959038
 21
244.4513904922
  0
LINE
  8
0
 62
7
  6
CONTINUOUS
 10
91.9782360547
 20
244.044637725
 11
92.2669842538
 21
244.5829216012
  0
LINE
  8
0
 62
7
  6
CONTINUOUS
 10
104.649308332
 20
254.0869032067
 11
104.8830592278
 21
254.3840329941
  0
LINE
  8
0
 62
7
  6
CONTINUOUS
 10
107.2332490642
 20
251.4455017818
 11
106.9994981684
 21
251.1483719944
  0
LINE
  8
0
 62
7
  6
CONTINUOUS
 10
107.2592818275
 20
250.6726659195
 11
107.6595662896
 21
251.1340739853
  0
LINE
  8
0
 62
7
  6
CONTINUOUS
 10
69.7447606383
 20
225.1344021476
 11
69.3200814783
 21
224.9381164903
  0
LINE
  8
0
 62
7
  6
CONTINUOUS
 10
147.4186214737
 20
254.0785711151
 11
147.8953293204
 21
254.2981421993
  0
LINE
  8
0
 62
7
  6
CONTINUOUS
 10
69.3780737913
 20
224.4952291368
 11
69.7384167142
 21
224.6095908652
  0
LINE
  8
0
 62
7
  6
CONTINUOUS
 10
70.0601235371
 20
229.7283252392
 11
70.0831553387
 21
229.4314385653
  0
LINE
  8
0
 62
7
  6
CONTINUOUS
 10
70.4034928458
 20
229.1513292135
 11
70.3804610442
 21
229.4482158874
  0
LINE
  8
0
 62
7
  6
CONTINUOUS
 10
80.1128423
 20
241.4240522358
 11
80.1220706401
 21
240.8961806083
  0
LINE
  8
0
 62
7
  6
CONTINUOUS
 10
76.3152641068
 20
238.3824755981
 11
76.2778544783
 21
237.7880938516
  0
LINE
  8
0
 62
7
  6
CONTINUOUS
 10
79.0232522871
 20
238.7522497772
 11
78.5528696599
 21
234.833191451
  0
LINE
  8
0
 62
7
  6
CONTINUOUS
 10
81.6782512036
 20
239.5406463467
 11
81.7150705146
 21
239.83613937
  0
LINE
  8
0
 62
7
  6
CONTINUOUS
 10
79.1837401427
 20
235.3776595894
 11
79.6260669023
 21
238.8509327741
  0
LINE
  8
0
 62
7
  6
CONTINUOUS
 10
84.1112015537
 20
244.3705904156
 11
84.0290046898
 21
243.931550617
  0
LINE
  8
0
 62
7
  6
CONTINUOUS
 10
88.3233007139
 20
242.1972010423
 11
88.4054975572
 21
242.6362408718
  0
LINE
  8
0
 62
7
  6
CONTINUOUS
 10
88.1954813321
 20
247.0094985295
 11
88.0866243967
 21
246.5762983023
  0
LINE
  8
0
 62
7
  6
CONTINUOUS
 10
92.2669842538
 20
244.5829216012
 11
92.3758411705
 21
245.0161218605
  0
LINE
  8
0
 62
7
  6
CONTINUOUS
 10
101.8221166052
 20
254.0020879695
 11
101.4911864592
 21
253.0879437379
  0
LINE
  8
0
 62
7
  6
CONTINUOUS
 10
101.7837389244
 20
252.2887422414
 11
102.114668968
 21
253.2028867528
  0
LINE
  8
0
 62
7
  6
CONTINUOUS
 10
98.6532583776
 20
248.0342651804
 11
100.5156282989
 21
252.7414756338
  0
LINE
  8
0
 62
7
  6
CONTINUOUS
 10
99.9530407721
 20
252.7356762143
 11
97.9946527155
 21
247.988081593
  0
LINE
  8
0
 62
7
  6
CONTINUOUS
 10
104.2229911179
 20
254.3983309677
 11
104.0213346085
 21
253.9997749222
  0
LINE
  8
0
 62
7
  6
CONTINUOUS
 10
107.6595662896
 20
251.1340739853
 11
107.8612227878
 21
251.5326300663
  0
LINE
  8
0
 62
7
  6
CONTINUOUS
 10
155.470008739
 20
254.0432628151
 11
155.0303997004
 21
253.7508974432
  0
LINE
  8
0
 62
7
  6
CONTINUOUS
 10
147.7076219622
 20
254.885811821
 11
147.4575557507
 21
254.7241402868
  0
LINE
  8
0
 62
7
  6
CONTINUOUS
 10
154.7277315752
 20
251.7094359389
 11
154.9964501479
 21
251.8377368501
  0
LINE
  8
0
 62
7
  6
CONTINUOUS
 10
70.5554574378
 20
225.8222317754
 11
70.4974649951
 21
226.2651189939
  0
LINE
  8
0
 62
7
  6
CONTINUOUS
 10
80.6469189436
 20
240.8947485078
 11
80.6192799996
 21
241.2748729014
  0
LINE
  8
0
 62
7
  6
CONTINUOUS
 10
84.1643451161
 20
240.2306179267
 11
84.1919822085
 21
239.8504920292
  0
LINE
  8
0
 62
7
  6
CONTINUOUS
 10
84.6984199306
 20
239.7013126651
 11
84.689191568
 21
240.2291843223
  0
LINE
  8
0
 62
7
  6
CONTINUOUS
 10
84.6163251947
 20
243.4285526521
 11
84.6075830435
 21
244.1907598453
  0
LINE
  8
0
 62
7
  6
CONTINUOUS
 10
87.8181771765
 20
243.139238651
 11
87.8269192034
 21
242.3770316436
  0
LINE
  8
0
 62
7
  6
CONTINUOUS
 10
88.642128919
 20
246.0383698183
 11
88.6799534203
 21
246.7996881076
  0
LINE
  8
0
 62
7
  6
CONTINUOUS
 10
91.8203347022
 20
245.5540489489
 11
91.7825121468
 21
244.7927320551
  0
LINE
  8
0
 62
7
  6
CONTINUOUS
 10
104.4446233643
 20
253.3526428253
 11
104.649308332
 21
254.0869032067
  0
LINE
  8
0
 62
7
  6
CONTINUOUS
 10
107.4379340994
 20
252.1797619501
 11
107.2332490642
 21
251.4455017818
  0
LINE
  8
0
 62
7
  6
CONTINUOUS
 10
147.8953293204
 20
254.2981421993
 11
148.2938578653
 21
254.6444204348
  0
LINE
  8
0
 62
7
  6
CONTINUOUS
 10
155.312158895
 20
253.3080864952
 11
155.6174041688
 21
253.5363030487
  0
LINE
  8
0
 62
7
  6
CONTINUOUS
 10
156.6491720239
 20
249.9875842644
 11
156.3439267246
 21
249.759367641
  0
LINE
  8
0
 62
7
  6
CONTINUOUS
 10
156.4913221416
 20
249.2524078396
 11
156.9309311929
 21
249.5447732465
  0
POLYLINE
  8
0
 62
7
  6
CONTINUOUS
 66
1
 70
0
  0
VERTEX
  8
0
 62
7
  6
CONTINUOUS
 10
129.3220419847
 20
220.6091593032
  0
VERTEX
  8
0
 62
7
  6
CONTINUOUS
 10
128.337503884
 20
220.2781372548
  0
VERTEX
  8
0
 62
7
  6
CONTINUOUS
 10
127.9408205568
 20
219.5662201551
  0
VERTEX
  8
0
 62
7
  6
CONTINUOUS
 10
128.0919228285
 20
218.9328481132
  0
VERTEX
  8
0
 62
7
  6
CONTINUOUS
 10
128.4453383832
 20
218.531503225
  0
VERTEX
  8
0
 62
7
  6
CONTINUOUS
 10
128.8565461492
 20
218.3012718376
  0
VERTEX
  8
0
 62
7
  6
CONTINUOUS
 10
129.3220419847
 20
218.217337691
  0
SEQEND
  0
LINE
  8
0
 62
7
  6
CONTINUOUS
 10
70.0791297518
 20
226.5936446248
 11
70.2014584158
 21
226.2326813001
  0
LINE
  8
0
 62
7
  6
CONTINUOUS
 10
76.8713171377
 20
237.7381818014
 11
76.8205144206
 21
238.1159086203
  0
LINE
  8
0
 62
7
  6
CONTINUOUS
 10
79.6260669023
 20
238.8509327741
 11
79.5752641852
 21
239.2286595931
  0
LINE
  8
0
 62
7
  6
CONTINUOUS
 10
88.0866243967
 20
246.5762983023
 11
88.1213724077
 21
246.1037812235
  0
LINE
  8
0
 62
7
  6
CONTINUOUS
 10
92.3758411705
 20
245.0161218605
 11
92.3410931218
 21
245.4886390036
  0
LINE
  8
0
 62
7
  6
CONTINUOUS
 10
104.0213346085
 20
253.9997749222
 11
103.9510887391
 21
253.5312193348
  0
LINE
  8
0
 62
7
  6
CONTINUOUS
 10
107.8612227878
 20
251.5326300663
 11
107.9314686347
 21
252.0011857248
  0
LINE
  8
0
 62
7
  6
CONTINUOUS
 10
118.7716695949
 20
282.8863058748
 11
117.2309502017
 21
275.3134281165
  0
LINE
  8
0
 62
7
  6
CONTINUOUS
 10
62.8563297985
 20
107.9655540614
 11
59.6515721074
 21
100.9333551213
  0
LINE
  8
0
 62
7
  6
CONTINUOUS
 10
155.0303997004
 20
253.7508974432
 11
154.6521009222
 21
253.3228493253
  0
LINE
  8
0
 62
7
  6
CONTINUOUS
 10
181.9216507414
 20
269.2236807677
 11
176.223956705
 21
264.0027061021
  0
LINE
  8
0
 62
7
  6
CONTINUOUS
 10
33.869352364
 20
160.576031991
 11
27.1432261009
 21
156.7705728487
  0
LINE
  8
0
 62
7
  6
CONTINUOUS
 10
33.6637148318
 20
136.7025720274
 11
41.3420580469
 21
137.5774087323
  0
LINE
  8
0
 62
7
  6
CONTINUOUS
 10
217.3020259225
 20
137.5774087323
 11
224.9803691377
 21
136.7025720274
  0
LINE
  8
0
 62
7
  6
CONTINUOUS
 10
27.1432261009
 20
200.9837564465
 11
33.869352104
 21
197.1782974512
  0
LINE
  8
0
 62
7
  6
CONTINUOUS
 10
176.223956705
 20
93.751623193
 11
181.9216507414
 21
88.5306485275
  0
LINE
  8
0
 62
7
  6
CONTINUOUS
 10
59.6515721074
 20
256.8209741738
 11
62.8563294504
 21
249.7887759977
  0
LINE
  8
0
 62
7
  6
CONTINUOUS
 10
80.1220706401
 20
240.8961806083
 11
80.2786262746
 21
240.3467932371
  0
LINE
  8
0
 62
7
  6
CONTINUOUS
 10
78.9029438436
 20
239.2105140996
 11
79.0232522871
 21
238.7522497772
  0
LINE
  8
0
 62
7
  6
CONTINUOUS
 10
117.2309502017
 20
82.4409011787
 11
118.7716695949
 21
74.8680234204
  0
LINE
  8
0
 62
7
  6
CONTINUOUS
 10
84.0290046898
 20
243.931550617
 11
84.092543924
 21
243.4620364285
  0
LINE
  8
0
 62
7
  6
CONTINUOUS
 10
88.4054975572
 20
242.6362408718
 11
88.3419582814
 21
243.1057551222
  0
LINE
  8
0
 62
7
  6
CONTINUOUS
 10
103.9510887391
 20
253.5312193348
 11
103.9480557345
 21
253.1955135604
  0
LINE
  8
0
 62
7
  6
CONTINUOUS
 10
107.9314686347
 20
252.0011857248
 11
107.9345017292
 21
252.3368912151
  0
LINE
  8
0
 62
7
  6
CONTINUOUS
 10
147.8795088719
 20
255.1741905064
 11
147.7076219622
 21
254.885811821
  0
LINE
  8
0
 62
7
  6
CONTINUOUS
 10
148.2938578653
 20
254.6444204348
 11
148.465744775
 21
254.9327991202
  0
LINE
  8
0
 62
7
  6
CONTINUOUS
 10
150.1054377468
 20
252.7158112843
 11
151.8166711125
 21
255.2059772907
  0
LINE
  8
0
 62
7
  6
CONTINUOUS
 10
149.1246734493
 20
251.2303437611
 11
149.885224647
 21
252.337083262
  0
LINE
  8
0
 62
7
  6
CONTINUOUS
 10
151.5372883388
 20
255.7319396405
 11
148.5251657195
 21
251.4070227974
  0
LINE
  8
0
 62
7
  6
CONTINUOUS
 10
155.1047416257
 20
253.0441061124
 11
155.312158895
 21
253.3080864952
  0
LINE
  8
0
 62
7
  6
CONTINUOUS
 10
154.5203143571
 20
251.4454556961
 11
154.7277315752
 21
251.7094359389
  0
LINE
  8
0
 62
7
  6
CONTINUOUS
 10
156.8565891909
 20
250.2515643673
 11
156.6491720239
 21
249.9875842644
  0
LINE
  8
0
 62
7
  6
CONTINUOUS
 10
156.9309311929
 20
249.5447732465
 11
157.3092298944
 21
249.9728211545
  0
LINE
  8
0
 62
7
  6
CONTINUOUS
 10
76.2778544783
 20
237.7880938516
 11
76.477022409
 21
237.3978886307
  0
LINE
  8
0
 62
7
  6
CONTINUOUS
 10
80.7574250302
 20
240.5777382962
 11
80.6469189436
 21
240.8947485078
  0
LINE
  8
0
 62
7
  6
CONTINUOUS
 10
81.7887571999
 20
239.2236362536
 11
81.6782512036
 21
239.5406463467
  0
LINE
  8
0
 62
7
  6
CONTINUOUS
 10
84.0538373133
 20
240.5476264565
 11
84.1643451161
 21
240.2306179267
  0
LINE
  8
0
 62
7
  6
CONTINUOUS
 10
84.689191568
 20
240.2291843223
 11
84.5326379656
 21
240.7785729602
  0
LINE
  8
0
 62
7
  6
CONTINUOUS
 10
84.092543924
 20
243.4620364285
 11
84.1834849206
 21
243.13887036
  0
LINE
  8
0
 62
7
  6
CONTINUOUS
 10
88.3419582814
 20
243.1057551222
 11
88.2510174507
 21
243.4289209431
  0
LINE
  8
0
 62
7
  6
CONTINUOUS
 10
88.1213724077
 20
246.1037812235
 11
88.1924048418
 21
245.7756631613
  0
LINE
  8
0
 62
7
  6
CONTINUOUS
 10
92.3410931218
 20
245.4886390036
 11
92.2700608381
 21
245.8167568085
  0
LINE
  8
0
 62
7
  6
CONTINUOUS
 10
154.6521009222
 20
253.3228493253
 11
154.2985769508
 21
252.6592066532
  0
LINE
  8
0
 62
7
  6
CONTINUOUS
 10
154.7877533124
 20
252.4803758082
 11
155.1047416257
 21
253.0441061124
  0
LINE
  8
0
 62
7
  6
CONTINUOUS
 10
80.2786262746
 20
240.3467932371
 11
80.6469652005
 21
239.6912577817
  0
LINE
  8
0
 62
7
  6
CONTINUOUS
 10
81.0613066495
 20
240.0068349333
 11
80.7574250302
 21
240.5777382962
  0
LINE
  8
0
 62
7
  6
CONTINUOUS
 10
79.5752641852
 20
239.2286595931
 11
79.376097157
 21
239.6188655929
  0
LINE
  8
0
 62
7
  6
CONTINUOUS
 10
84.8847717409
 20
242.8401553471
 11
84.6163251947
 21
243.4285526521
  0
LINE
  8
0
 62
7
  6
CONTINUOUS
 10
87.5497305475
 20
243.7276360798
 11
87.8181771765
 21
243.139238651
  0
LINE
  8
0
 62
7
  6
CONTINUOUS
 10
84.1834849206
 20
243.13887036
 11
84.3927622345
 21
242.6388831077
  0
LINE
  8
0
 62
7
  6
CONTINUOUS
 10
88.2510174507
 20
243.4289209431
 11
88.0417400539
 21
243.9289083193
  0
LINE
  8
0
 62
7
  6
CONTINUOUS
 10
88.8741411841
 20
245.4346772237
 11
88.642128919
 21
246.0383698183
  0
LINE
  8
0
 62
7
  6
CONTINUOUS
 10
91.5883244206
 20
246.1577428748
 11
91.8203347022
 21
245.5540489489
  0
LINE
  8
0
 62
7
  6
CONTINUOUS
 10
88.1924048418
 20
245.7756631613
 11
88.3707557406
 21
245.2638280282
  0
LINE
  8
0
 62
7
  6
CONTINUOUS
 10
92.2700608381
 20
245.8167568085
 11
92.0917078054
 21
246.3285908677
  0
LINE
  8
0
 62
7
  6
CONTINUOUS
 10
104.5378779752
 20
252.7126599993
 11
104.4446233643
 21
253.3526428253
  0
LINE
  8
0
 62
7
  6
CONTINUOUS
 10
107.3446794436
 20
252.8197449182
 11
107.4379340994
 21
252.1797619501
  0
LINE
  8
0
 62
7
  6
CONTINUOUS
 10
103.9480557345
 20
253.1955135604
 11
104.009215959
 21
252.6569569924
  0
LINE
  8
0
 62
7
  6
CONTINUOUS
 10
107.9345017292
 20
252.3368912151
 11
107.8733414597
 21
252.8754479251
  0
LINE
  8
1_AXIS
 62
2
  6
CONTINUOUS
 10
129.3220419847
 20
179.9271646476
 11
129.3220419847
 21
177.8271646476
  0
LINE
  8
1_AXIS
 62
2
  6
CENTER
 10
129.3220419847
 20
173.6271646476
 11
129.3220419847
 21
71.6271646476
  0
LINE
  8
1_AXIS
 62
2
  6
CENTER
 10
129.3220419847
 20
184.1271646476
 11
129.3220419847
 21
286.1271646476
  0
LINE
  8
0
 62
7
  6
CONTINUOUS
 10
145.0575374277
 20
257.3380328525
 11
143.9565822107
 21
252.4607490172
  0
LINE
  8
0
 62
7
  6
CONTINUOUS
 10
144.5662426902
 20
252.323129615
 11
145.0581588579
 21
254.5023415724
  0
LINE
  8
0
 62
7
  6
CONTINUOUS
 10
145.1987063157
 20
255.1249734771
 11
145.5500750257
 21
256.6815535297
  0
LINE
  8
0
 62
7
  6
CONTINUOUS
 10
147.9497826664
 20
255.4855067495
 11
147.8795088719
 21
255.1741905064
  0
LINE
  8
0
 62
7
  6
CONTINUOUS
 10
154.2985769508
 20
252.6592066532
 11
154.0428900432
 21
251.9597971573
  0
LINE
  8
0
 62
7
  6
CONTINUOUS
 10
154.7146999102
 20
252.2805445236
 11
154.7877533124
 21
252.4803758082
  0
LINE
  8
0
 62
7
  6
CONTINUOUS
 10
154.4107342538
 20
251.1457087692
 11
154.5203143571
 21
251.4454556961
  0
LINE
  8
1_AXIS
 62
2
  6
CONTINUOUS
 10
130.3720419847
 20
178.8771646476
 11
128.2720419847
 21
178.8771646476
  0
LINE
  8
1_AXIS
 62
2
  6
CENTER
 10
124.0720419847
 20
178.8771646476
 11
22.0720419847
 21
178.8771646476
  0
LINE
  8
1_AXIS
 62
2
  6
CENTER
 10
134.5720419847
 20
178.8771646476
 11
236.5720419847
 21
178.8771646476
  0
LINE
  8
0
 62
7
  6
CONTINUOUS
 10
66.6300481828
 20
225.9910577825
 11
68.3033890386
 21
224.6769553512
  0
LINE
  8
0
 62
7
  6
CONTINUOUS
 10
68.6250703711
 20
225.0865752585
 11
66.9517295153
 21
226.4006776899
  0
LINE
  8
0
 62
7
  6
CONTINUOUS
 10
68.2384548222
 20
228.03915729
 11
70.0791297518
 21
226.5936446248
  0
LINE
  8
0
 62
7
  6
CONTINUOUS
 10
69.3398911732
 20
229.3894953722
 11
71.9025914544
 21
227.1486203617
  0
LINE
  8
0
 62
7
  6
CONTINUOUS
 10
72.245433736
 20
227.5407002445
 11
70.4034928458
 21
229.1513292135
  0
LINE
  8
0
 62
7
  6
CONTINUOUS
 10
70.0831553387
 20
229.4314385653
 11
69.6827334549
 21
229.7815752551
  0
LINE
  8
0
 62
7
  6
CONTINUOUS
 10
71.9580623314
 20
230.2827071707
 11
73.4796657145
 21
228.9521875535
  0
LINE
  8
0
 62
7
  6
CONTINUOUS
 10
70.7470312204
 20
233.3660252592
 11
71.135309229
 21
233.0024684209
  0
LINE
  8
0
 62
7
  6
CONTINUOUS
 10
71.9118654635
 20
232.2753545405
 11
74.3968449356
 21
229.9485905715
  0
LINE
  8
0
 62
7
  6
CONTINUOUS
 10
74.7528275797
 20
230.3287793551
 11
72.2678481077
 21
232.6555433241
  0
LINE
  8
0
 62
7
  6
CONTINUOUS
 10
71.4912918731
 20
233.3826572045
 11
71.1030138646
 21
233.7462140428
  0
LINE
  8
0
 62
7
  6
CONTINUOUS
 10
78.5528696599
 20
234.833191451
 11
78.9004028529
 21
234.4305077716
  0
LINE
  8
0
 62
7
  6
CONTINUOUS
 10
78.7639303911
 20
239.3715877744
 11
78.9029438436
 21
239.2105140996
  0
LINE
  8
0
 62
7
  6
CONTINUOUS
 10
80.6469652005
 20
239.6912577817
 11
81.0981729852
 21
239.0988381899
  0
LINE
  8
0
 62
7
  6
CONTINUOUS
 10
81.1902231594
 20
239.8375721928
 11
81.0613066495
 21
240.0068349333
  0
LINE
  8
0
 62
7
  6
CONTINUOUS
 10
81.9821319648
 20
238.9697421429
 11
81.7887571999
 21
239.2236362536
  0
LINE
  8
0
 62
7
  6
CONTINUOUS
 10
84.3927622345
 20
242.6388831077
 11
84.9252853249
 21
241.8431926334
  0
LINE
  8
0
 62
7
  6
CONTINUOUS
 10
85.2989563667
 20
242.2212849782
 11
84.8847717409
 21
242.8401553471
  0
LINE
  8
0
 62
7
  6
CONTINUOUS
 10
88.3707557406
 20
245.2638280282
 11
88.8536895086
 21
244.437100051
  0
LINE
  8
0
 62
7
  6
CONTINUOUS
 10
89.2497563369
 20
244.7916665747
 11
88.8741411841
 21
245.4346772237
  0
LINE
  8
0
 62
7
  6
CONTINUOUS
 10
96.3861353427
 20
251.8125218696
 11
96.5923554928
 21
251.3222090752
  0
LINE
  8
0
 62
7
  6
CONTINUOUS
 10
97.9946527155
 20
247.988081593
 11
98.3246049845
 21
247.2035810533
  0
LINE
  8
0
 62
7
  6
CONTINUOUS
 10
101.4911864592
 20
253.0879437379
 11
101.7837389244
 21
252.2887422414
  0
LINE
  8
0
 62
7
  6
CONTINUOUS
 10
102.114668968
 20
253.2028867528
 11
103.5408619414
 21
249.3067802619
  0
LINE
  8
0
 62
7
  6
CONTINUOUS
 10
104.1277754049
 20
249.5216234289
 11
102.4090300687
 21
254.2169311365
  0
LINE
  8
0
 62
7
  6
CONTINUOUS
 10
104.009215959
 20
252.6569569924
 11
104.2980654366
 21
251.7441206698
  0
LINE
  8
0
 62
7
  6
CONTINUOUS
 10
104.7625386799
 20
252.0026761929
 11
104.5378779752
 21
252.7126599993
  0
LINE
  8
0
 62
7
  6
CONTINUOUS
 10
154.0428900432
 20
251.9597971573
 11
153.8850401481
 21
251.2246206975
  0
LINE
  8
0
 62
7
  6
CONTINUOUS
 10
148.465744775
 20
254.9327991202
 11
148.5594431458
 21
255.3478873474
  0
LINE
  8
0
 62
7
  6
CONTINUOUS
 10
156.9661692942
 20
250.5513112942
 11
156.8565891909
 21
250.2515643673
  0
LINE
  8
0
 62
7
  6
CONTINUOUS
 10
157.3092298944
 20
249.9728211545
 11
157.491863451
 21
250.4723995058
  0
LINE
  8
0
 62
7
  6
CONTINUOUS
 10
70.7354793597
 20
226.7404441062
 11
68.5601362237
 21
228.4487772853
  0
LINE
  8
0
 62
7
  6
CONTINUOUS
 10
73.8225078
 20
229.3442672119
 11
72.3009044169
 21
230.6747868291
  0
LINE
  8
0
 62
7
  6
CONTINUOUS
 10
81.0981729852
 20
239.0988381899
 11
81.6322497191
 21
238.5695343433
  0
LINE
  8
0
 62
7
  6
CONTINUOUS
 10
85.7405406905
 20
241.7487615271
 11
85.2989563667
 21
242.2212849782
  0
LINE
  8
0
 62
7
  6
CONTINUOUS
 10
81.7393227331
 20
236.8806167312
 11
81.3917895401
 21
237.2833004106
  0
LINE
  8
0
 62
7
  6
CONTINUOUS
 10
79.376097157
 20
239.6188655929
 11
79.2370837045
 21
239.7799392677
  0
LINE
  8
0
 62
7
  6
CONTINUOUS
 10
89.6616558377
 20
244.2930550711
 11
89.2497563369
 21
244.7916665747
  0
LINE
  8
0
 62
7
  6
CONTINUOUS
 10
83.8604625484
 20
240.8015205673
 11
84.0538373133
 21
240.5476264565
  0
LINE
  8
0
 62
7
  6
CONTINUOUS
 10
84.5326379656
 20
240.7785729602
 11
84.2103466005
 21
241.20172993
  0
LINE
  8
0
 62
7
  6
CONTINUOUS
 10
87.1355459216
 20
244.3465064487
 11
87.5497305475
 21
243.7276360798
  0
LINE
  8
0
 62
7
  6
CONTINUOUS
 10
88.0417400539
 20
243.9289083193
 11
87.5092169635
 21
244.7245987935
  0
LINE
  8
0
 62
7
  6
CONTINUOUS
 10
91.2127092678
 20
246.8007535237
 11
91.5883244206
 21
246.1577428748
  0
LINE
  8
0
 62
7
  6
CONTINUOUS
 10
92.0917078054
 20
246.3285908677
 11
91.6087740374
 21
247.1553188449
  0
LINE
  8
0
 62
7
  6
CONTINUOUS
 10
105.0544167507
 20
251.42554378
 11
104.7625386799
 21
252.0026761929
  0
LINE
  8
0
 62
7
  6
CONTINUOUS
 10
102.1653897306
 20
248.8189727296
 11
101.9179255217
 21
249.4073481515
  0
LINE
  8
0
 62
7
  6
CONTINUOUS
 10
100.5156282989
 20
252.7414756338
 11
100.2269200888
 21
253.4279135459
  0
LINE
  8
0
 62
7
  6
CONTINUOUS
 10
107.1200187388
 20
253.5297287247
 11
107.3446794436
 21
252.8197449182
  0
LINE
  8
0
 62
7
  6
CONTINUOUS
 10
107.8733414597
 20
252.8754479251
 11
107.5844919822
 21
253.7882842477
  0
LINE
  8
0
 62
7
  6
CONTINUOUS
 10
68.3033890386
 20
224.6769553512
 11
68.7023935148
 21
224.4960588232
  0
LINE
  8
0
 62
7
  6
CONTINUOUS
 10
71.134483758
 20
226.5595475091
 11
70.7354793597
 21
226.7404441062
  0
LINE
  8
0
 62
7
  6
CONTINUOUS
 10
71.4890718735
 20
230.5544277492
 11
71.9580623314
 21
230.2827071707
  0
LINE
  8
0
 62
7
  6
CONTINUOUS
 10
72.3009044169
 20
230.6747868291
 11
71.8319143513
 21
230.9465078564
  0
LINE
  8
0
 62
7
  6
CONTINUOUS
 10
79.2370837045
 20
239.7799392677
 11
78.8801977018
 21
240.0340270646
  0
LINE
  8
0
 62
7
  6
CONTINUOUS
 10
84.9252853249
 20
241.8431926334
 11
85.3077004164
 21
241.459079235
  0
LINE
  8
0
 62
7
  6
CONTINUOUS
 10
87.5092169635
 20
244.7245987935
 11
87.1268019548
 21
245.1087120681
  0
LINE
  8
0
 62
7
  6
CONTINUOUS
 10
86.6939616807
 20
244.819029776
 11
87.1355459216
 21
244.3465064487
  0
LINE
  8
0
 62
7
  6
CONTINUOUS
 10
88.8536895086
 20
244.437100051
 11
89.2119317604
 21
244.0303484141
  0
LINE
  8
0
 62
7
  6
CONTINUOUS
 10
91.6087740374
 20
247.1553188449
 11
91.2505339194
 21
247.5620715557
  0
LINE
  8
0
 62
7
  6
CONTINUOUS
 10
90.8008077835
 20
247.2993636961
 11
91.2127092678
 21
246.8007535237
  0
LINE
  8
0
 62
7
  6
CONTINUOUS
 10
104.2980654366
 20
251.7441206698
 11
104.557849121
 21
251.268414515
  0
LINE
  8
0
 62
7
  6
CONTINUOUS
 10
107.5844919822
 20
253.7882842477
 11
107.3247083427
 21
254.2639902605
  0
LINE
  8
0
 62
7
  6
CONTINUOUS
 10
106.828140713
 20
254.1068609955
 11
107.1200187388
 21
253.5297287247
  0
LINE
  8
0
 62
7
  6
CONTINUOUS
 10
147.9184432144
 20
255.8197599689
 11
147.9497826664
 21
255.4855067495
  0
LINE
  8
0
 62
7
  6
CONTINUOUS
 10
148.5594431458
 20
255.3478873474
 11
148.5281036939
 21
255.6821405667
  0
LINE
  8
0
 62
7
  6
CONTINUOUS
 10
152.5218869676
 20
250.2291616566
 11
152.3366289294
 21
255.4963684907
  0
LINE
  8
0
 62
7
  6
CONTINUOUS
 10
151.8835806972
 20
251.7481540396
 11
151.9223792377
 21
250.4058406929
  0
LINE
  8
0
 62
7
  6
CONTINUOUS
 10
151.8166711125
 20
255.2059772907
 11
151.9039609363
 21
252.1857741754
  0
LINE
  8
0
 62
7
  6
CONTINUOUS
 10
153.8850401481
 20
251.2246206975
 11
153.8980717875
 21
250.6535120428
  0
LINE
  8
0
 62
7
  6
CONTINUOUS
 10
157.491863451
 20
250.4723995058
 11
157.478831786
 21
251.0435080905
  0
LINE
  8
0
 62
7
  6
CONTINUOUS
 10
154.3989912143
 20
250.8101950185
 11
154.4107342538
 21
251.1457087692
  0
LINE
  8
0
 62
7
  6
CONTINUOUS
 10
156.9779123849
 20
250.8868251849
 11
156.9661692942
 21
250.5513112942
  0
LINE
  8
0
 62
7
  6
CONTINUOUS
 10
157.9536790026
 20
252.34241172
 11
157.9654220421
 21
252.6779254707
  0
LINE
  8
0
 62
7
  6
CONTINUOUS
 10
70.4974649951
 20
226.2651189939
 11
71.0444728357
 21
226.1004414081
  0
LINE
  8
0
 62
7
  6
CONTINUOUS
 10
68.9404077575
 20
224.9713839008
 11
68.6250703711
 21
225.0865752585
  0
LINE
  8
0
 62
7
  6
CONTINUOUS
 10
71.8319143513
 20
230.9465078564
 11
71.523092647
 21
231.0781737591
  0
LINE
  8
0
 62
7
  6
CONTINUOUS
 10
81.6322497191
 20
238.5695343433
 11
82.12027686
 21
238.2726077156
  0
LINE
  8
0
 62
7
  6
CONTINUOUS
 10
84.2103466005
 20
241.20172993
 11
83.7223176081
 21
241.4986550539
  0
LINE
  8
0
 62
7
  6
CONTINUOUS
 10
82.2583755885
 20
238.7789638958
 11
81.9821319648
 21
238.9697421429
  0
LINE
  8
0
 62
7
  6
CONTINUOUS
 10
83.5842207311
 20
240.9923003775
 11
83.8604625484
 21
240.8015205673
  0
LINE
  8
0
 62
7
  6
CONTINUOUS
 10
82.884360113
 20
242.5988631042
 11
82.608118386
 21
242.7896427959
  0
LINE
  8
0
 62
7
  6
CONTINUOUS
 10
85.3077004164
 20
241.459079235
 11
85.5717749792
 21
241.2517847397
  0
LINE
  8
0
 62
7
  6
CONTINUOUS
 10
87.1268019548
 20
245.1087120681
 11
86.8627272263
 21
245.3160068111
  0
LINE
  8
0
 62
7
  6
CONTINUOUS
 10
89.2119317604
 20
244.0303484141
 11
89.462855322
 21
243.8073142341
  0
LINE
  8
0
 62
7
  6
CONTINUOUS
 10
91.2505339194
 20
247.5620715557
 11
90.9996102075
 21
247.785105993
  0
LINE
  8
0
 62
7
  6
CONTINUOUS
 10
104.557849121
 20
251.268414515
 11
104.7534485338
 21
250.9955624569
  0
LINE
  8
0
 62
7
  6
CONTINUOUS
 10
107.3247083427
 20
254.2639902605
 11
107.12910884
 21
254.5368426027
  0
LINE
  8
0
 62
7
  6
CONTINUOUS
 10
139.8724143746
 20
74.8680234204
 11
141.4131337677
 21
82.4409011787
  0
LINE
  8
0
 62
7
  6
CONTINUOUS
 10
195.787754171
 20
249.7887752338
 11
198.992511862
 21
256.8209741738
  0
LINE
  8
0
 62
7
  6
CONTINUOUS
 10
76.7224332281
 20
88.5306485275
 11
82.4201267655
 21
93.7516227358
  0
LINE
  8
0
 62
7
  6
CONTINUOUS
 10
224.7747316055
 20
197.1782973042
 11
231.5008578686
 21
200.9837564465
  0
LINE
  8
0
 62
7
  6
CONTINUOUS
 10
224.9803691377
 20
221.0517572678
 11
217.3020259225
 21
220.1769205628
  0
POLYLINE
  8
0
 62
7
  6
CONTINUOUS
 66
1
 70
0
  0
VERTEX
  8
0
 62
7
  6
CONTINUOUS
 10
129.3220419847
 20
218.217337691
  0
VERTEX
  8
0
 62
7
  6
CONTINUOUS
 10
129.599212347
 20
218.246811041
  0
VERTEX
  8
0
 62
7
  6
CONTINUOUS
 10
130.0949499346
 20
218.4567348782
  0
VERTEX
  8
0
 62
7
  6
CONTINUOUS
 10
130.4896910337
 20
218.8357279514
  0
VERTEX
  8
0
 62
7
  6
CONTINUOUS
 10
130.6391388971
 20
219.1154157324
  0
VERTEX
  8
0
 62
7
  6
CONTINUOUS
 10
130.6188696488
 20
219.8821282111
  0
VERTEX
  8
0
 62
7
  6
CONTINUOUS
 10
129.8860826255
 20
220.5125536018
  0
VERTEX
  8
0
 62
7
  6
CONTINUOUS
 10
129.3220419847
 20
220.6091593032
  0
SEQEND
  0
LINE
  8
0
 62
7
  6
CONTINUOUS
 10
41.3420580469
 20
220.1769205628
 11
33.6637148318
 21
221.0517572678
  0
LINE
  8
0
 62
7
  6
CONTINUOUS
 10
68.7023935148
 20
224.4960588232
 11
68.9340638586
 21
224.4465725751
  0
LINE
  8
0
 62
7
  6
CONTINUOUS
 10
71.3661542372
 20
226.5100614033
 11
71.134483758
 21
226.5595475091
  0
LINE
  8
0
 62
7
  6
CONTINUOUS
 10
231.5008578686
 20
156.7705728487
 11
224.7747316055
 21
160.576031991
  0
LINE
  8
0
 62
7
  6
CONTINUOUS
 10
85.5717749792
 20
241.2517847397
 11
85.9815896444
 21
241.0140184447
  0
LINE
  8
0
 62
7
  6
CONTINUOUS
 10
86.8627272263
 20
245.3160068111
 11
86.4529126025
 21
245.5537730442
  0
LINE
  8
0
 62
7
  6
CONTINUOUS
 10
89.462855322
 20
243.8073142341
 11
89.8573818089
 21
243.5449619355
  0
LINE
  8
0
 62
7
  6
CONTINUOUS
 10
90.9996102075
 20
247.785105993
 11
90.6050837582
 21
248.0474582273
  0
LINE
  8
0
 62
7
  6
CONTINUOUS
 10
82.4201272645
 20
264.0027061021
 11
76.7224332281
 21
269.2236807677
  0
LINE
  8
0
 62
7
  6
CONTINUOUS
 10
104.7534485338
 20
250.9955624569
 11
105.0804495168
 21
250.6527079087
  0
LINE
  8
0
 62
7
  6
CONTINUOUS
 10
107.12910884
 20
254.5368426027
 11
106.8021078795
 21
254.8796970798
  0
LINE
  8
0
 62
7
  6
CONTINUOUS
 10
198.992511862
 20
100.9333551213
 11
195.787754171
 21
107.9655540614
  0
LINE
  8
0
 62
7
  6
CONTINUOUS
 10
141.4131337677
 20
275.3134281165
 11
139.8724143746
 21
282.8863058748
  0
LINE
  8
0
 62
7
  6
CONTINUOUS
 10
69.3200814783
 20
224.9381164903
 11
68.9404077575
 21
224.9713839008
  0
LINE
  8
0
 62
7
  6
CONTINUOUS
 10
78.3976924326
 20
239.4770805241
 11
78.7639303911
 21
239.3715877744
  0
LINE
  8
0
 62
7
  6
CONTINUOUS
 10
82.12027686
 20
238.2726077156
 11
82.6267145822
 21
238.1234283515
  0
LINE
  8
0
 62
7
  6
CONTINUOUS
 10
82.608118386
 20
242.7896427959
 11
82.1016806864
 21
242.9388221304
  0
LINE
  8
0
 62
7
  6
CONTINUOUS
 10
82.6174862195
 20
238.6513000086
 11
82.2583755885
 21
238.7789638958
  0
LINE
  8
0
 62
7
  6
CONTINUOUS
 10
82.1109090265
 20
242.4109505028
 11
82.4700196123
 21
242.2832866749
  0
LINE
  8
0
 62
7
  6
CONTINUOUS
 10
86.4418295337
 20
241.4500477783
 11
85.7405406905
 21
241.7487615271
  0
LINE
  8
0
 62
7
  6
CONTINUOUS
 10
85.9926727133
 20
245.1177437105
 11
86.6939616807
 21
244.819029776
  0
LINE
  8
0
 62
7
  6
CONTINUOUS
 10
90.3433922175
 20
243.9520690691
 11
89.6616558377
 21
244.2930550711
  0
LINE
  8
0
 62
7
  6
CONTINUOUS
 10
90.1190733496
 20
247.6403510937
 11
90.8008077835
 21
247.2993636961
  0
LINE
  8
0
 62
7
  6
CONTINUOUS
 10
105.6442344676
 20
250.9426887094
 11
105.0544167507
 21
251.42554378
  0
LINE
  8
0
 62
7
  6
CONTINUOUS
 10
106.2383229287
 20
254.5897162792
 11
106.828140713
 21
254.1068609955
  0
LINE
  8
0
 62
7
  6
CONTINUOUS
 10
148.5281036939
 20
255.6821405667
 11
148.3169717593
 21
256.1660382043
  0
LINE
  8
0
 62
7
  6
CONTINUOUS
 10
153.8980717875
 20
250.6535120428
 11
154.0454672045
 21
250.1465522415
  0
LINE
  8
0
 62
7
  6
CONTINUOUS
 10
157.9654220421
 20
252.6779254707
 11
157.8180266123
 21
253.1848852371
  0
LINE
  8
0
 62
7
  6
CONTINUOUS
 10
154.4850762558
 20
250.4389176484
 11
154.3989912143
 21
250.8101950185
  0
LINE
  8
0
 62
7
  6
CONTINUOUS
 10
157.3784175738
 20
252.8925198652
 11
157.4645115979
 21
252.5212392906
  0
LINE
  8
0
 62
7
  6
CONTINUOUS
 10
68.9340638586
 20
224.4465725751
 11
69.3780737913
 21
224.4952291368
  0
LINE
  8
0
 62
7
  6
CONTINUOUS
 10
71.1917663642
 20
230.5376506515
 11
71.4890718735
 21
230.5544277492
  0
LINE
  8
0
 62
7
  6
CONTINUOUS
 10
71.523092647
 20
231.0781737591
 11
71.2257871377
 21
231.0613966613
  0
LINE
  8
0
 62
7
  6
CONTINUOUS
 10
78.8801977018
 20
240.0340270646
 11
78.286735945
 21
240.0839398937
  0
LINE
  8
0
 62
7
  6
CONTINUOUS
 10
83.2895665035
 20
241.0353313906
 11
83.5842207311
 21
240.9923003775
  0
LINE
  8
0
 62
7
  6
CONTINUOUS
 10
83.7223176081
 20
241.4986550539
 11
83.2803381634
 21
241.5632030181
  0
LINE
  8
0
 62
7
  6
CONTINUOUS
 10
85.9815896444
 20
241.0140184447
 11
86.4188019227
 21
240.9225978961
  0
LINE
  8
0
 62
7
  6
CONTINUOUS
 10
86.4529126025
 20
245.5537730442
 11
86.015700345
 21
245.6451935618
  0
LINE
  8
0
 62
7
  6
CONTINUOUS
 10
89.8573818089
 20
243.5449619355
 11
90.2881946085
 21
243.4270101457
  0
LINE
  8
0
 62
7
  6
CONTINUOUS
 10
90.6050837582
 20
248.0474582273
 11
90.1742709775
 21
248.165409985
  0
LINE
  8
0
 62
7
  6
CONTINUOUS
 10
105.0804495168
 20
250.6527079087
 11
105.4746723558
 21
250.4427063703
  0
LINE
  8
0
 62
7
  6
CONTINUOUS
 10
106.8021078795
 20
254.8796970798
 11
106.4078850517
 21
255.0896985828
  0
LINE
  8
0
 62
7
  6
CONTINUOUS
 10
147.7620753081
 20
256.0731763712
 11
147.9184432144
 21
255.8197599689
  0
LINE
  8
0
 62
7
  6
CONTINUOUS
 10
156.8553006166
 20
251.1581868427
 11
156.9779123849
 21
250.8868251849
  0
LINE
  8
0
 62
7
  6
CONTINUOUS
 10
157.478831786
 20
251.0435080905
 11
157.2949096551
 21
251.4505522146
  0
LINE
  8
0
 62
7
  6
CONTINUOUS
 10
71.2257871377
 20
231.0613966613
 11
70.8599130544
 21
230.9662034524
  0
LINE
  8
0
 62
7
  6
CONTINUOUS
 10
156.3439267246
 20
249.759367641
 11
155.9773710882
 21
249.6668335537
  0
LINE
  8
0
 62
7
  6
CONTINUOUS
 10
154.9964501479
 20
251.8377368501
 11
155.3630057842
 21
251.9302709374
  0
LINE
  8
0
 62
7
  6
CONTINUOUS
 10
155.4478111829
 20
252.4656126983
 11
154.7146999102
 21
252.2805445236
  0
LINE
  8
0
 62
7
  6
CONTINUOUS
 10
155.6174041688
 20
253.5363030487
 11
155.9839598051
 21
253.628837136
  0
LINE
  8
0
 62
7
  6
CONTINUOUS
 10
155.8925746241
 20
249.1314884572
 11
156.4913221416
 21
249.2524078396
  0
LINE
  8
0
 62
7
  6
CONTINUOUS
 10
156.0687652038
 20
254.1641788968
 11
155.470008739
 21
254.0432628151
  0
LINE
  8
0
 62
7
  6
CONTINUOUS
 10
78.0221025182
 20
239.4339782267
 11
78.3976924326
 21
239.4770805241
  0
LINE
  8
0
 62
7
  6
CONTINUOUS
 10
82.6267145822
 20
238.1234283515
 11
83.234430813
 21
238.1851113701
  0
LINE
  8
0
 62
7
  6
CONTINUOUS
 10
83.2803381634
 20
241.5632030181
 11
82.6726228979
 21
241.5015206995
  0
LINE
  8
0
 62
7
  6
CONTINUOUS
 10
82.1016806864
 20
242.9388221304
 11
81.4939635241
 21
242.8771383672
  0
LINE
  8
0
 62
7
  6
CONTINUOUS
 10
82.9950083575
 20
238.671384137
 11
82.6174862195
 21
238.6513000086
  0
LINE
  8
0
 62
7
  6
CONTINUOUS
 10
82.9120453139
 20
241.0152479845
 11
83.2895665035
 21
241.0353313906
  0
LINE
  8
0
 62
7
  6
CONTINUOUS
 10
81.7333878368
 20
242.3908670968
 11
82.1109090265
 21
242.4109505028
  0
LINE
  8
0
 62
7
  6
CONTINUOUS
 10
86.4188019227
 20
240.9225978961
 11
87.0291499091
 21
240.9470500069
  0
LINE
  8
0
 62
7
  6
CONTINUOUS
 10
86.015700345
 20
245.6451935618
 11
85.4053523741
 21
245.6207414277
  0
LINE
  8
0
 62
7
  6
CONTINUOUS
 10
86.8198725589
 20
241.4470373134
 11
86.4418295337
 21
241.4500477783
  0
LINE
  8
0
 62
7
  6
CONTINUOUS
 10
85.614629688
 20
245.1207541754
 11
85.9926727133
 21
245.1177437105
  0
LINE
  8
0
 62
7
  6
CONTINUOUS
 10
90.2881946085
 20
243.4270101457
 11
90.8988966224
 21
243.4141407861
  0
LINE
  8
0
 62
7
  6
CONTINUOUS
 10
90.1742709775
 20
248.165409985
 11
89.5635669189
 21
248.1782781178
  0
LINE
  8
0
 62
7
  6
CONTINUOUS
 10
90.7205456907
 20
243.9259759755
 11
90.3433922175
 21
243.9520690691
  0
LINE
  8
0
 62
7
  6
CONTINUOUS
 10
89.7419198764
 20
247.6664441872
 11
90.1190733496
 21
247.6403510937
  0
LINE
  8
0
 62
7
  6
CONTINUOUS
 10
105.4746723558
 20
250.4427063703
 11
106.0675231532
 21
250.2955568344
  0
LINE
  8
0
 62
7
  6
CONTINUOUS
 10
106.4078850517
 20
255.0896985828
 11
105.8150342628
 21
255.236848092
  0
LINE
  8
0
 62
7
  6
CONTINUOUS
 10
106.006362909
 20
250.8341134645
 11
105.6442344676
 21
250.9426887094
  0
LINE
  8
0
 62
7
  6
CONTINUOUS
 10
105.8761944873
 20
254.6982915241
 11
106.2383229287
 21
254.5897162792
  0
LINE
  8
0
 62
7
  6
CONTINUOUS
 10
148.3169717593
 20
256.1660382043
 11
147.9808113704
 21
256.5690990248
  0
LINE
  8
0
 62
7
  6
CONTINUOUS
 10
154.0454672045
 20
250.1465522415
 11
154.4250634533
 21
249.6679744434
  0
LINE
  8
0
 62
7
  6
CONTINUOUS
 10
157.2949096551
 20
251.4505522146
 11
156.9153223538
 21
251.929126712
  0
LINE
  8
0
 62
7
  6
CONTINUOUS
 10
157.8180266123
 20
253.1848852371
 11
157.438439311
 21
253.6634597345
  0
LINE
  8
0
 62
7
  6
CONTINUOUS
 10
154.7055250878
 20
250.1317891666
 11
154.4850762558
 21
250.4389176484
  0
LINE
  8
0
 62
7
  6
CONTINUOUS
 10
156.6348517846
 20
251.4653153245
 11
156.8553006166
 21
251.1581868427
  0
LINE
  8
0
 62
7
  6
CONTINUOUS
 10
157.1579687418
 20
253.199648347
 11
157.3784175738
 21
252.8925198652
  0
LINE
  8
0
 62
7
  6
CONTINUOUS
 10
78.286735945
 20
240.0839398937
 11
77.8322874458
 21
239.9727792737
  0
LINE
  8
0
 62
7
  6
CONTINUOUS
 10
106.0675231532
 20
250.2955568344
 11
106.6954968795
 21
250.38268511
  0
LINE
  8
0
 62
7
  6
CONTINUOUS
 10
105.8150342628
 20
255.236848092
 11
105.1870605392
 21
255.1497198075
  0
LINE
  8
0
 62
7
  6
CONTINUOUS
 10
147.4575557507
 20
254.7241402868
 11
147.1293009347
 21
254.6891780038
  0
LINE
  8
0
 62
7
  6
CONTINUOUS
 10
106.5350249251
 20
250.8898164714
 11
106.006362909
 21
250.8341134645
  0
LINE
  8
0
 62
7
  6
CONTINUOUS
 10
105.3475324712
 20
254.6425885172
 11
105.8761944873
 21
254.6982915241
  0
LINE
  8
0
 62
7
  6
CONTINUOUS
 10
146.8871402962
 20
254.089483366
 11
147.4186214737
 21
254.0785711151
  0
LINE
  8
0
 62
7
  6
CONTINUOUS
 10
155.9773710882
 20
249.6668335537
 11
155.647342153
 21
249.6742151086
  0
LINE
  8
0
 62
7
  6
CONTINUOUS
 10
155.3630057842
 20
251.9302709374
 11
155.6930347195
 21
251.9228893825
  0
LINE
  8
0
 62
7
  6
CONTINUOUS
 10
155.9839598051
 20
253.628837136
 11
156.3139887404
 21
253.621455581
  0
LINE
  8
0
 62
7
  6
CONTINUOUS
 10
155.3668715582
 20
249.2104036512
 11
155.8925746241
 21
249.1314884572
  0
LINE
  8
0
 62
7
  6
CONTINUOUS
 10
155.9735052887
 20
252.3867007699
 11
155.4478111829
 21
252.4656126983
  0
LINE
  8
0
 62
7
  6
CONTINUOUS
 10
156.5944593095
 20
254.0852669685
 11
156.0687652038
 21
254.1641788968
  0
LINE
  8
0
 62
7
  6
CONTINUOUS
 10
143.9565822107
 20
252.4607490172
 11
144.5662426902
 21
252.323129615
  0
LINE
  8
0
 62
7
  6
CONTINUOUS
 10
145.0581588579
 20
254.5023415724
 11
146.8871402962
 21
254.089483366
  0
LINE
  8
0
 62
7
  6
CONTINUOUS
 10
147.1293009347
 20
254.6891780038
 11
145.1987063157
 21
255.1249734771
  0
LINE
  8
0
 62
7
  6
CONTINUOUS
 10
145.5500750257
 20
256.6815535297
 11
147.4806696447
 21
256.2457580564
  0
LINE
  8
0
 62
7
  6
CONTINUOUS
 10
148.5251657195
 20
251.4070227974
 11
149.1246734493
 21
251.2303437611
  0
LINE
  8
0
 62
7
  6
CONTINUOUS
 10
151.9223792377
 20
250.4058406929
 11
152.5218869676
 21
250.2291616566
  0
LINE
  8
0
 62
7
  6
CONTINUOUS
 10
149.885224647
 20
252.337083262
 11
151.8835806972
 21
251.7481540396
  0
LINE
  8
0
 62
7
  6
CONTINUOUS
 10
151.9039609363
 20
252.1857741754
 11
150.1054377468
 21
252.7158112843
  0
LINE
  8
0
 62
7
  6
CONTINUOUS
 10
154.8777041536
 20
249.3892312218
 11
155.3668715582
 21
249.2104036512
  0
LINE
  8
0
 62
7
  6
CONTINUOUS
 10
155.647342153
 20
249.6742151086
 11
154.9625006209
 21
249.924576327
  0
LINE
  8
0
 62
7
  6
CONTINUOUS
 10
155.6930347195
 20
251.9228893825
 11
156.3778762515
 21
251.6725281641
  0
LINE
  8
0
 62
7
  6
CONTINUOUS
 10
156.4626726933
 20
252.2078731993
 11
155.9735052887
 21
252.3867007699
  0
LINE
  8
0
 62
7
  6
CONTINUOUS
 10
157.4645115979
 20
252.5212392906
 11
157.9536790026
 21
252.34241172
  0
LINE
  8
0
 62
7
  6
CONTINUOUS
 10
156.3139887404
 20
253.621455581
 11
156.9009932087
 21
253.4068611865
  0
LINE
  8
0
 62
7
  6
CONTINUOUS
 10
147.9808113704
 20
256.5690990248
 11
147.4961793454
 21
256.787555244
  0
LINE
  8
0
 62
7
  6
CONTINUOUS
 10
147.4806696447
 20
256.2457580564
 11
147.7620753081
 21
256.0731763712
  0
LINE
  8
0
 62
7
  6
CONTINUOUS
 10
154.4250634533
 20
249.6679744434
 11
154.8777041536
 21
249.3892312218
  0
LINE
  8
0
 62
7
  6
CONTINUOUS
 10
156.9153223538
 20
251.929126712
 11
156.4626726933
 21
252.2078731993
  0
LINE
  8
0
 62
7
  6
CONTINUOUS
 10
157.438439311
 20
253.6634597345
 11
156.9857986074
 21
253.9422029474
  0
LINE
  8
0
 62
7
  6
CONTINUOUS
 10
154.9625006209
 20
249.924576327
 11
154.7055250878
 21
250.1317891666
  0
LINE
  8
0
 62
7
  6
CONTINUOUS
 10
156.3778762515
 20
251.6725281641
 11
156.6348517846
 21
251.4653153245
  0
LINE
  8
0
 62
7
  6
CONTINUOUS
 10
156.9009932087
 20
253.4068611865
 11
157.1579687418
 21
253.199648347
  0
LINE
  8
0
 62
7
  6
CONTINUOUS
 10
147.4961793454
 20
256.787555244
 11
145.0575374277
 21
257.3380328525
  0
LINE
  8
0
 62
7
  6
CONTINUOUS
 10
152.3366289294
 20
255.4963684907
 11
151.5372883388
 21
255.7319396405
  0
LINE
  8
0
 62
7
  6
CONTINUOUS
 10
156.9857986074
 20
253.9422029474
 11
156.5944593095
 21
254.0852669685
  0
LINE
  8
0
 62
7
  6
CONTINUOUS
 10
226.0122441056
 20
137.3011221011
 11
231.9838433476
 21
155.6798147787
  0
LINE
  8
0
 62
7
  6
CONTINUOUS
 10
183.1082740326
 20
88.4083648208
 11
198.7421238152
 21
99.7670215644
  0
LINE
  8
0
 62
7
  6
CONTINUOUS
 10
198.7421238152
 20
257.9873077308
 11
183.1082740326
 21
269.3459644744
  0
LINE
  8
0
 62
7
  6
CONTINUOUS
 10
231.9838433476
 20
202.0745145165
 11
226.0122441056
 21
220.4532071941
  0
LINE
  8
0
 62
7
  6
CONTINUOUS
 10
26.635649661
 20
45.1413271791
 11
26.635649661
 21
37.1275182407
  0
LINE
  8
0
 62
9
  6
CONTINUOUS
 10
26.6602406219
 20
45.1344227099
 11
26.6602406219
 21
37.1344227099
  0
LINE
  8
0
 62
9
  6
CONTINUOUS
 10
32.6318398639
 20
45.1344227099
 11
32.6318398639
 21
37.1344227099
  0
LINE
  8
0
 62
9
  6
CONTINUOUS
 10
33.6637148318
 20
37.0283533165
 11
33.6637148318
 21
45.2404921034
  0
LINE
  8
0
 62
9
  6
CONTINUOUS
 10
41.3420580469
 20
35.9256166424
 11
41.3420580469
 21
46.3432287774
  0
LINE
  8
0
 62
9
  6
CONTINUOUS
 10
55.1675318135
 20
35.6344227099
 11
55.1675318135
 21
46.6344227099
  0
LINE
  8
0
 62
7
  6
CONTINUOUS
 10
59.5615333783
 20
45.1850903594
 11
59.5615333783
 21
37.0837550604
  0
LINE
  8
0
 62
9
  6
CONTINUOUS
 10
59.9019601543
 20
45.1344227099
 11
59.9019601543
 21
37.1344227099
  0
LINE
  8
0
 62
9
  6
CONTINUOUS
 10
60.9034698029
 20
35.6344227099
 11
60.9034698029
 21
36.5966467962
  0
LINE
  8
0
 62
9
  6
CONTINUOUS
 10
60.9034698029
 20
45.6721986237
 11
60.9034698029
 21
46.6344227099
  0
LINE
  8
0
 62
9
  6
CONTINUOUS
 10
75.5358099369
 20
45.1344227099
 11
75.5358099369
 21
37.1344227099
  0
LINE
  8
0
 62
9
  6
CONTINUOUS
 10
76.7224332281
 20
37.0283533165
 11
76.7224332281
 21
45.2404921034
  0
LINE
  8
0
 62
9
  6
CONTINUOUS
 10
82.4201272645
 20
35.9256166424
 11
82.4201272645
 21
46.3432287774
  0
POLYLINE
  8
0
 62
7
  6
CONTINUOUS
 66
1
 70
0
  0
VERTEX
  8
0
 62
7
  6
CONTINUOUS
 10
26.6356496749
 20
45.1383038259
  0
VERTEX
  8
0
 62
7
  6
CONTINUOUS
 10
26.6560150763
 20
45.1476082686
  0
VERTEX
  8
0
 62
7
  6
CONTINUOUS
 10
26.826380846
 20
45.1850348354
  0
VERTEX
  8
0
 62
7
  6
CONTINUOUS
 10
27.1432261009
 20
45.2404921034
  0
SEQEND
  0
POLYLINE
  8
0
 62
7
  6
CONTINUOUS
 66
1
 70
0
  0
VERTEX
  8
0
 62
7
  6
CONTINUOUS
 10
26.6356496749
 20
37.130541594
  0
VERTEX
  8
0
 62
7
  6
CONTINUOUS
 10
26.6560150763
 20
37.1212371513
  0
VERTEX
  8
0
 62
7
  6
CONTINUOUS
 10
26.826380846
 20
37.0838105844
  0
VERTEX
  8
0
 62
7
  6
CONTINUOUS
 10
27.1432261009
 20
37.0283533165
  0
SEQEND
  0
LINE
  8
1_AXIS
 62
7
  6
CONTINUOUS
 10
92.5720419847
 20
60.2844227099
 11
92.5720419847
 21
51.6344227099
  0
LINE
  8
1_AXIS
 62
7
  6
CONTINUOUS
 10
92.5720419847
 20
30.6344227099
 11
92.5720419847
 21
21.9844227099
  0
LINE
  8
0
 62
7
  6
CONTINUOUS
 10
59.5615333783
 20
45.1850813423
 11
59.6515721074
 21
45.2404921034
  0
LINE
  8
0
 62
7
  6
CONTINUOUS
 10
59.5615333783
 20
37.0837640776
 11
59.6515721074
 21
37.0283533165
  0
LINE
  8
0
 62
9
  6
CONTINUOUS
 10
97.4525348836
 20
35.6344227099
 11
97.4525348836
 21
46.6344227099
  0
POLYLINE
  8
0
 62
7
  6
CONTINUOUS
 66
1
 70
0
  0
VERTEX
  8
0
 62
7
  6
CONTINUOUS
 10
63.5892985469
 20
46.6344227099
  0
VERTEX
  8
0
 62
7
  6
CONTINUOUS
 10
63.3772272488
 20
46.539580816
  0
VERTEX
  8
0
 62
7
  6
CONTINUOUS
 10
63.1327315687
 20
46.442427372
  0
VERTEX
  8
0
 62
7
  6
CONTINUOUS
 10
62.8563294504
 20
46.3432286581
  0
SEQEND
  0
POLYLINE
  8
0
 62
7
  6
CONTINUOUS
 66
1
 70
0
  0
VERTEX
  8
0
 62
7
  6
CONTINUOUS
 10
63.5892985469
 20
35.6344227099
  0
VERTEX
  8
0
 62
7
  6
CONTINUOUS
 10
63.3772272488
 20
35.7292646038
  0
VERTEX
  8
0
 62
7
  6
CONTINUOUS
 10
63.1327315687
 20
35.8264180479
  0
VERTEX
  8
0
 62
7
  6
CONTINUOUS
 10
62.8563294504
 20
35.9256167618
  0
SEQEND
  0
LINE
  8
0
 62
9
  6
CONTINUOUS
 10
106.7334775078
 20
35.6344227099
 11
106.7334775078
 21
46.6344227099
  0
LINE
  8
0
 62
7
  6
CONTINUOUS
 10
59.6509717459
 20
37.1212371513
 11
59.5615333783
 21
37.0837640776
  0
LINE
  8
0
 62
7
  6
CONTINUOUS
 10
59.6515721074
 20
45.2404921034
 11
62.8563294504
 21
46.3432286581
  0
POLYLINE
  8
0
 62
7
  6
CONTINUOUS
 66
1
 70
0
  0
VERTEX
  8
0
 62
7
  6
CONTINUOUS
 10
231.5008578686
 20
37.0283533165
  0
VERTEX
  8
0
 62
7
  6
CONTINUOUS
 10
231.8176970357
 20
37.0838094238
  0
VERTEX
  8
0
 62
7
  6
CONTINUOUS
 10
231.9881297989
 20
37.1212557315
  0
VERTEX
  8
0
 62
7
  6
CONTINUOUS
 10
232.0084342788
 20
37.1305509507
  0
SEQEND
  0
LINE
  8
0
 62
7
  6
CONTINUOUS
 10
223.018793867
 20
35.6344227099
 11
231.5008578686
 21
37.0283533165
  0
LINE
  8
1_AXIS
 62
7
  6
CONTINUOUS
 10
94.5724491572
 20
19.9844227099
 11
164.0716348122
 21
19.9844227099
  0
LINE
  8
0
 62
7
  6
CONTINUOUS
 10
35.6252901025
 20
35.6344227099
 11
27.1432261009
 21
37.0283533165
  0
LINE
  8
0
 62
7
  6
CONTINUOUS
 10
59.6515721074
 20
37.0283533165
 11
62.8563294504
 21
35.9256167618
  0
LINE
  8
0
 62
7
  6
CONTINUOUS
 10
59.6509717459
 20
45.1476082686
 11
59.5615333783
 21
45.1850813423
  0
LINE
  8
0
 62
7
  6
CONTINUOUS
 10
181.9216507414
 20
37.0283533165
 11
176.223956705
 21
35.9256166424
  0
LINE
  8
0
 62
7
  6
CONTINUOUS
 10
216.6005660968
 20
35.8264180479
 11
224.9803691377
 21
37.0283533165
  0
LINE
  8
0
 62
7
  6
CONTINUOUS
 10
215.1938277279
 20
35.6344227099
 11
216.6005660968
 21
35.8264180479
  0
LINE
  8
1_AXIS
 62
9
  6
CONTINUOUS
 10
92.5720419847
 20
21.9844227099
 11
166.0720419847
 21
21.9844227099
  0
POLYLINE
  8
0
 62
7
  6
CONTINUOUS
 66
1
 70
0
  0
VERTEX
  8
0
 62
7
  6
CONTINUOUS
 10
33.6637148318
 20
37.0283533165
  0
VERTEX
  8
0
 62
7
  6
CONTINUOUS
 10
33.2410969321
 20
37.0838094238
  0
VERTEX
  8
0
 62
7
  6
CONTINUOUS
 10
32.8757671237
 20
37.1212557315
  0
VERTEX
  8
0
 62
7
  6
CONTINUOUS
 10
32.6318398639
 20
37.1344227099
  0
SEQEND
  0
LINE
  8
0
 62
7
  6
CONTINUOUS
 10
42.0434893166
 20
35.8264220397
 11
43.4502562415
 21
35.6344227099
  0
LINE
  8
0
 62
7
  6
CONTINUOUS
 10
42.0434893166
 20
35.8264220397
 11
33.6637148318
 21
37.0283533165
  0
POLYLINE
  8
0
 62
7
  6
CONTINUOUS
 66
1
 70
0
  0
VERTEX
  8
0
 62
7
  6
CONTINUOUS
 10
82.4201272645
 20
35.9256166424
  0
VERTEX
  8
0
 62
7
  6
CONTINUOUS
 10
82.9507393897
 20
35.8264220397
  0
VERTEX
  8
0
 62
7
  6
CONTINUOUS
 10
83.5029433447
 20
35.7292633698
  0
VERTEX
  8
0
 62
7
  6
CONTINUOUS
 10
84.0753258599
 20
35.6344227099
  0
SEQEND
  0
LINE
  8
0
 62
7
  6
CONTINUOUS
 10
82.4201272645
 20
35.9256166424
 11
76.7224332281
 21
37.0283533165
  0
LINE
  8
0
 62
9
  6
CONTINUOUS
 10
117.2309502017
 20
35.9256166424
 11
117.2309502017
 21
46.3432287774
  0
LINE
  8
0
 62
9
  6
CONTINUOUS
 10
118.7716695949
 20
37.0283533165
 11
118.7716695949
 21
45.2404921034
  0
LINE
  8
0
 62
9
  6
CONTINUOUS
 10
119.659791444
 20
45.1344227099
 11
119.659791444
 21
37.1344227099
  0
POLYLINE
  8
0
 62
7
  6
CONTINUOUS
 66
1
 70
0
  0
VERTEX
  8
0
 62
7
  6
CONTINUOUS
 10
174.5687581096
 20
35.6344227099
  0
VERTEX
  8
0
 62
7
  6
CONTINUOUS
 10
175.1411478525
 20
35.7292646038
  0
VERTEX
  8
0
 62
7
  6
CONTINUOUS
 10
175.6933225678
 20
35.8264180479
  0
VERTEX
  8
0
 62
7
  6
CONTINUOUS
 10
176.223956705
 20
35.9256166424
  0
SEQEND
  0
LINE
  8
0
 62
7
  6
CONTINUOUS
 10
232.0084342788
 20
45.1382944691
 11
231.9838433476
 21
45.1344227099
  0
POLYLINE
  8
0
 62
7
  6
CONTINUOUS
 66
1
 70
0
  0
VERTEX
  8
0
 62
7
  6
CONTINUOUS
 10
226.0122441056
 20
37.1344227099
  0
VERTEX
  8
0
 62
7
  6
CONTINUOUS
 10
225.7680927737
 20
37.1212371513
  0
VERTEX
  8
0
 62
7
  6
CONTINUOUS
 10
225.402996892
 20
37.0838105844
  0
VERTEX
  8
0
 62
7
  6
CONTINUOUS
 10
224.9803691377
 20
37.0283533165
  0
SEQEND
  0
LINE
  8
0
 62
9
  6
CONTINUOUS
 10
92.5720419847
 20
30.6344227099
 11
166.0720419847
 21
30.6344227099
  0
POLYLINE
  8
0
 62
7
  6
CONTINUOUS
 66
1
 70
0
  0
VERTEX
  8
0
 62
7
  6
CONTINUOUS
 10
76.7224332281
 20
37.0283533165
  0
VERTEX
  8
0
 62
7
  6
CONTINUOUS
 10
76.3554622693
 20
37.0838094238
  0
VERTEX
  8
0
 62
7
  6
CONTINUOUS
 10
75.9347789855
 20
37.1212557315
  0
VERTEX
  8
0
 62
7
  6
CONTINUOUS
 10
75.5358099369
 20
37.1344227099
  0
SEQEND
  0
LINE
  8
0
 62
7
  6
CONTINUOUS
 10
26.6602406219
 20
45.1344227099
 11
26.6356496749
 21
45.1383038259
  0
LINE
  8
1_AXIS
 62
2
  6
CENTER
 10
129.3220419847
 20
17.9844227099
 11
129.3220419847
 21
64.2844227099
  0
LINE
  8
0
 62
7
  6
CONTINUOUS
 10
118.7716695949
 20
37.0283533165
 11
117.2309502017
 21
35.9256166424
  0
POLYLINE
  8
0
 62
7
  6
CONTINUOUS
 66
1
 70
0
  0
VERTEX
  8
0
 62
7
  6
CONTINUOUS
 10
116.6609808109
 20
35.6344227099
  0
VERTEX
  8
0
 62
7
  6
CONTINUOUS
 10
116.8836698566
 20
35.7292646038
  0
VERTEX
  8
0
 62
7
  6
CONTINUOUS
 10
117.0738259579
 20
35.8264180479
  0
VERTEX
  8
0
 62
7
  6
CONTINUOUS
 10
117.2309502017
 20
35.9256166424
  0
SEQEND
  0
POLYLINE
  8
0
 62
7
  6
CONTINUOUS
 66
1
 70
0
  0
VERTEX
  8
0
 62
7
  6
CONTINUOUS
 10
139.8724143746
 20
45.2404921034
  0
VERTEX
  8
0
 62
7
  6
CONTINUOUS
 10
139.70126079
 20
45.185035996
  0
VERTEX
  8
0
 62
7
  6
CONTINUOUS
 10
139.3859107466
 20
45.1475896883
  0
VERTEX
  8
0
 62
7
  6
CONTINUOUS
 10
138.9842925254
 20
45.1344227099
  0
SEQEND
  0
LINE
  8
0
 62
7
  6
CONTINUOUS
 10
59.9019601543
 20
37.1344227099
 11
59.6509717459
 21
37.1212371513
  0
LINE
  8
0
 62
7
  6
CONTINUOUS
 10
198.9929866991
 20
45.1475896883
 11
198.7421238152
 21
45.1344227099
  0
POLYLINE
  8
0
 62
7
  6
CONTINUOUS
 66
1
 70
0
  0
VERTEX
  8
0
 62
7
  6
CONTINUOUS
 10
183.1082740326
 20
37.1344227099
  0
VERTEX
  8
0
 62
7
  6
CONTINUOUS
 10
182.7090033336
 20
37.1212371513
  0
VERTEX
  8
0
 62
7
  6
CONTINUOUS
 10
182.2886315575
 20
37.0838105844
  0
VERTEX
  8
0
 62
7
  6
CONTINUOUS
 10
181.9216507414
 20
37.0283533165
  0
SEQEND
  0
POLYLINE
  8
0
 62
7
  6
CONTINUOUS
 66
1
 70
0
  0
VERTEX
  8
0
 62
7
  6
CONTINUOUS
 10
119.659791444
 20
37.1344227099
  0
VERTEX
  8
0
 62
7
  6
CONTINUOUS
 10
119.2579092142
 20
37.1212371513
  0
VERTEX
  8
0
 62
7
  6
CONTINUOUS
 10
118.9428292744
 20
37.0838105844
  0
VERTEX
  8
0
 62
7
  6
CONTINUOUS
 10
118.7716695949
 20
37.0283533165
  0
SEQEND
  0
LINE
  8
0
 62
7
  6
CONTINUOUS
 10
35.6252901025
 20
35.6344227099
 11
223.018793867
 21
35.6344227099
  0
LINE
  8
0
 62
7
  6
CONTINUOUS
 10
231.9838433476
 20
37.1344227099
 11
226.0122441056
 21
37.1344227099
  0
LINE
  8
0
 62
7
  6
CONTINUOUS
 10
198.7421238152
 20
37.1344227099
 11
183.1082740326
 21
37.1344227099
  0
LINE
  8
0
 62
7
  6
CONTINUOUS
 10
138.9842925254
 20
37.1344227099
 11
119.659791444
 21
37.1344227099
  0
LINE
  8
0
 62
7
  6
CONTINUOUS
 10
75.5358099369
 20
37.1344227099
 11
59.9019601543
 21
37.1344227099
  0
LINE
  8
0
 62
7
  6
CONTINUOUS
 10
32.6318398639
 20
37.1344227099
 11
26.6602406219
 21
37.1344227099
  0
LINE
  8
0
 62
7
  6
CONTINUOUS
 10
198.9929866991
 20
37.1212557315
 11
198.7421238152
 21
37.1344227099
  0
LINE
  8
0
 62
7
  6
CONTINUOUS
 10
59.9019601543
 20
45.1344227099
 11
59.6509717459
 21
45.1476082686
  0
POLYLINE
  8
0
 62
7
  6
CONTINUOUS
 66
1
 70
0
  0
VERTEX
  8
0
 62
7
  6
CONTINUOUS
 10
139.8724143746
 20
37.0283533165
  0
VERTEX
  8
0
 62
7
  6
CONTINUOUS
 10
139.70126079
 20
37.0838094238
  0
VERTEX
  8
0
 62
7
  6
CONTINUOUS
 10
139.3859107466
 20
37.1212557315
  0
VERTEX
  8
0
 62
7
  6
CONTINUOUS
 10
138.9842925254
 20
37.1344227099
  0
SEQEND
  0
POLYLINE
  8
0
 62
7
  6
CONTINUOUS
 66
1
 70
0
  0
VERTEX
  8
0
 62
7
  6
CONTINUOUS
 10
116.6609808109
 20
46.6344227099
  0
VERTEX
  8
0
 62
7
  6
CONTINUOUS
 10
116.8836698566
 20
46.539580816
  0
VERTEX
  8
0
 62
7
  6
CONTINUOUS
 10
117.0738259579
 20
46.442427372
  0
VERTEX
  8
0
 62
7
  6
CONTINUOUS
 10
117.2309502017
 20
46.3432287774
  0
SEQEND
  0
LINE
  8
0
 62
7
  6
CONTINUOUS
 10
128.1246788585
 20
35.3257206332
 11
129.3220419847
 21
34.6344227099
  0
LINE
  8
0
 62
7
  6
CONTINUOUS
 10
118.7716695949
 20
45.2404921034
 11
117.2309502017
 21
46.3432287774
  0
LINE
  8
0
 62
7
  6
CONTINUOUS
 10
141.4131337677
 20
46.3432287774
 11
139.8724143746
 21
45.2404921034
  0
POLYLINE
  8
0
 62
7
  6
CONTINUOUS
 66
1
 70
0
  0
VERTEX
  8
0
 62
7
  6
CONTINUOUS
 10
130.5176455428
 20
35.3247047495
  0
VERTEX
  8
0
 62
7
  6
CONTINUOUS
 10
130.6391388971
 20
35.4071900005
  0
VERTEX
  8
0
 62
7
  6
CONTINUOUS
 10
130.6188696488
 20
35.5816491444
  0
VERTEX
  8
0
 62
7
  6
CONTINUOUS
 10
129.8860826255
 20
35.6331951024
  0
SEQEND
  0
POLYLINE
  8
0
 62
7
  6
CONTINUOUS
 66
1
 70
0
  0
VERTEX
  8
0
 62
7
  6
CONTINUOUS
 10
141.4131337677
 20
46.3432287774
  0
VERTEX
  8
0
 62
7
  6
CONTINUOUS
 10
141.5702509516
 20
46.4424233802
  0
VERTEX
  8
0
 62
7
  6
CONTINUOUS
 10
141.7604167664
 20
46.5395820501
  0
VERTEX
  8
0
 62
7
  6
CONTINUOUS
 10
141.9831031586
 20
46.6344227099
  0
SEQEND
  0
LINE
  8
0
 62
7
  6
CONTINUOUS
 10
130.5185633457
 20
35.3252346398
 11
129.3220419847
 21
34.6344227099
  0
LINE
  8
0
 62
7
  6
CONTINUOUS
 10
231.9838433476
 20
45.1344227099
 11
226.0122441056
 21
45.1344227099
  0
LINE
  8
0
 62
7
  6
CONTINUOUS
 10
198.7421238152
 20
45.1344227099
 11
183.1082740326
 21
45.1344227099
  0
LINE
  8
0
 62
7
  6
CONTINUOUS
 10
138.9842925254
 20
45.1344227099
 11
119.659791444
 21
45.1344227099
  0
LINE
  8
0
 62
7
  6
CONTINUOUS
 10
75.5358099369
 20
45.1344227099
 11
59.9019601543
 21
45.1344227099
  0
LINE
  8
0
 62
7
  6
CONTINUOUS
 10
32.6318398639
 20
45.1344227099
 11
26.6602406219
 21
45.1344227099
  0
LINE
  8
0
 62
7
  6
CONTINUOUS
 10
35.6252901025
 20
46.6344227099
 11
195.0547854225
 21
46.6344227099
  0
LINE
  8
0
 62
7
  6
CONTINUOUS
 10
195.1170391155
 20
46.6344227099
 11
223.018793867
 21
46.6344227099
  0
POLYLINE
  8
0
 62
7
  6
CONTINUOUS
 66
1
 70
0
  0
VERTEX
  8
0
 62
7
  6
CONTINUOUS
 10
119.659791444
 20
45.1344227099
  0
VERTEX
  8
0
 62
7
  6
CONTINUOUS
 10
119.2579092142
 20
45.1476082686
  0
VERTEX
  8
0
 62
7
  6
CONTINUOUS
 10
118.9428292744
 20
45.1850348354
  0
VERTEX
  8
0
 62
7
  6
CONTINUOUS
 10
118.7716695949
 20
45.2404921034
  0
SEQEND
  0
POLYLINE
  8
0
 62
7
  6
CONTINUOUS
 66
1
 70
0
  0
VERTEX
  8
0
 62
7
  6
CONTINUOUS
 10
183.1082740326
 20
45.1344227099
  0
VERTEX
  8
0
 62
7
  6
CONTINUOUS
 10
182.7090033336
 20
45.1476082686
  0
VERTEX
  8
0
 62
7
  6
CONTINUOUS
 10
182.2886315575
 20
45.1850348354
  0
VERTEX
  8
0
 62
7
  6
CONTINUOUS
 10
181.9216507414
 20
45.2404921034
  0
SEQEND
  0
POLYLINE
  8
0
 62
7
  6
CONTINUOUS
 66
1
 70
0
  0
VERTEX
  8
0
 62
7
  6
CONTINUOUS
 10
141.4131337677
 20
35.9256166424
  0
VERTEX
  8
0
 62
7
  6
CONTINUOUS
 10
141.5702509516
 20
35.8264220397
  0
VERTEX
  8
0
 62
7
  6
CONTINUOUS
 10
141.7604167664
 20
35.7292633698
  0
VERTEX
  8
0
 62
7
  6
CONTINUOUS
 10
141.9831031586
 20
35.6344227099
  0
SEQEND
  0
LINE
  8
0
 62
7
  6
CONTINUOUS
 10
141.4131337677
 20
35.9256166424
 11
139.8724143746
 21
37.0283533165
  0
LINE
  8
0
 62
9
  6
CONTINUOUS
 10
138.9842925254
 20
45.1344227099
 11
138.9842925254
 21
37.1344227099
  0
LINE
  8
0
 62
9
  6
CONTINUOUS
 10
139.8724143746
 20
37.0283533165
 11
139.8724143746
 21
45.2404921034
  0
LINE
  8
0
 62
9
  6
CONTINUOUS
 10
141.4131337677
 20
35.9256166424
 11
141.4131337677
 21
46.3432287774
  0
LINE
  8
0
 62
7
  6
CONTINUOUS
 10
82.4201272645
 20
46.3432287774
 11
76.7224332281
 21
45.2404921034
  0
POLYLINE
  8
0
 62
7
  6
CONTINUOUS
 66
1
 70
0
  0
VERTEX
  8
0
 62
7
  6
CONTINUOUS
 10
82.4201272645
 20
46.3432287774
  0
VERTEX
  8
0
 62
7
  6
CONTINUOUS
 10
82.9507393897
 20
46.4424233802
  0
VERTEX
  8
0
 62
7
  6
CONTINUOUS
 10
83.5029433447
 20
46.5395820501
  0
VERTEX
  8
0
 62
7
  6
CONTINUOUS
 10
84.0753258599
 20
46.6344227099
  0
SEQEND
  0
LINE
  8
0
 62
7
  6
CONTINUOUS
 10
26.6602406219
 20
37.1344227099
 11
26.6356496749
 21
37.130541594
  0
POLYLINE
  8
0
 62
7
  6
CONTINUOUS
 66
1
 70
0
  0
VERTEX
  8
0
 62
7
  6
CONTINUOUS
 10
76.7224332281
 20
45.2404921034
  0
VERTEX
  8
0
 62
7
  6
CONTINUOUS
 10
76.3554622693
 20
45.185035996
  0
VERTEX
  8
0
 62
7
  6
CONTINUOUS
 10
75.9347789855
 20
45.1475896883
  0
VERTEX
  8
0
 62
7
  6
CONTINUOUS
 10
75.5358099369
 20
45.1344227099
  0
SEQEND
  0
LINE
  8
0
 62
9
  6
CONTINUOUS
 10
92.5720419847
 20
51.6344227099
 11
166.0720419847
 21
51.6344227099
  0
POLYLINE
  8
0
 62
7
  6
CONTINUOUS
 66
1
 70
0
  0
VERTEX
  8
0
 62
7
  6
CONTINUOUS
 10
226.0122441056
 20
45.1344227099
  0
VERTEX
  8
0
 62
7
  6
CONTINUOUS
 10
225.7680927737
 20
45.1476082686
  0
VERTEX
  8
0
 62
7
  6
CONTINUOUS
 10
225.402996892
 20
45.1850348354
  0
VERTEX
  8
0
 62
7
  6
CONTINUOUS
 10
224.9803691377
 20
45.2404921034
  0
SEQEND
  0
LINE
  8
0
 62
7
  6
CONTINUOUS
 10
232.0084342788
 20
37.1305509507
 11
231.9838433476
 21
37.1344227099
  0
POLYLINE
  8
0
 62
7
  6
CONTINUOUS
 66
1
 70
0
  0
VERTEX
  8
0
 62
7
  6
CONTINUOUS
 10
174.5687581096
 20
46.6344227099
  0
VERTEX
  8
0
 62
7
  6
CONTINUOUS
 10
175.1411478525
 20
46.539580816
  0
VERTEX
  8
0
 62
7
  6
CONTINUOUS
 10
175.6933225678
 20
46.442427372
  0
VERTEX
  8
0
 62
7
  6
CONTINUOUS
 10
176.223956705
 20
46.3432287774
  0
SEQEND
  0
LINE
  8
0
 62
7
  6
CONTINUOUS
 10
181.9216507414
 20
45.2404921034
 11
176.223956705
 21
46.3432287774
  0
LINE
  8
0
 62
7
  6
CONTINUOUS
 10
27.1432261009
 20
45.2404921034
 11
35.6252901025
 21
46.6344227099
  0
LINE
  8
0
 62
7
  6
CONTINUOUS
 10
33.6637148318
 20
45.2404921034
 11
42.0434893166
 21
46.4424233802
  0
LINE
  8
0
 62
7
  6
CONTINUOUS
 10
42.0434893166
 20
46.4424233802
 11
43.4502562415
 21
46.6344227099
  0
POLYLINE
  8
0
 62
7
  6
CONTINUOUS
 66
1
 70
0
  0
VERTEX
  8
0
 62
7
  6
CONTINUOUS
 10
33.6637148318
 20
45.2404921034
  0
VERTEX
  8
0
 62
7
  6
CONTINUOUS
 10
33.2410969321
 20
45.185035996
  0
VERTEX
  8
0
 62
7
  6
CONTINUOUS
 10
32.8757671237
 20
45.1475896883
  0
VERTEX
  8
0
 62
7
  6
CONTINUOUS
 10
32.6318398639
 20
45.1344227099
  0
SEQEND
  0
LINE
  8
1_AXIS
 62
9
  6
CONTINUOUS
 10
92.5720419847
 20
60.2844227099
 11
166.0720419847
 21
60.2844227099
  0
LINE
  8
1_AXIS
 62
7
  6
CONTINUOUS
 10
94.5724491572
 20
62.2844227099
 11
164.0716348122
 21
62.2844227099
  0
LINE
  8
0
 62
7
  6
CONTINUOUS
 10
215.1938277279
 20
46.6344227099
 11
216.6005660968
 21
46.442427372
  0
LINE
  8
0
 62
7
  6
CONTINUOUS
 10
224.9803691377
 20
45.2404921034
 11
216.6005660968
 21
46.442427372
  0
LINE
  8
0
 62
7
  6
CONTINUOUS
 10
231.5008578686
 20
45.2404921034
 11
223.018793867
 21
46.6344227099
  0
POLYLINE
  8
0
 62
7
  6
CONTINUOUS
 66
1
 70
0
  0
VERTEX
  8
0
 62
7
  6
CONTINUOUS
 10
231.5008578686
 20
45.2404921034
  0
VERTEX
  8
0
 62
7
  6
CONTINUOUS
 10
231.8176970357
 20
45.185035996
  0
VERTEX
  8
0
 62
7
  6
CONTINUOUS
 10
231.9881297989
 20
45.1475896883
  0
VERTEX
  8
0
 62
7
  6
CONTINUOUS
 10
232.0084342788
 20
45.1382944691
  0
SEQEND
  0
LINE
  8
0
 62
9
  6
CONTINUOUS
 10
151.9106064616
 20
35.6344227099
 11
151.9106064616
 21
46.6344227099
  0
LINE
  8
0
 62
7
  6
CONTINUOUS
 10
199.0825505912
 20
45.1850813882
 11
198.9929866991
 21
45.1475896883
  0
POLYLINE
  8
0
 62
7
  6
CONTINUOUS
 66
1
 70
0
  0
VERTEX
  8
0
 62
7
  6
CONTINUOUS
 10
195.787754171
 20
35.9256166424
  0
VERTEX
  8
0
 62
7
  6
CONTINUOUS
 10
195.5113629894
 20
35.8264220397
  0
VERTEX
  8
0
 62
7
  6
CONTINUOUS
 10
195.2668537864
 20
35.7292633698
  0
VERTEX
  8
0
 62
7
  6
CONTINUOUS
 10
195.0547854225
 20
35.6344227099
  0
SEQEND
  0
LINE
  8
0
 62
7
  6
CONTINUOUS
 10
195.787754171
 20
35.9256166424
 11
198.992511862
 21
37.0283533165
  0
LINE
  8
0
 62
7
  6
CONTINUOUS
 10
195.787754171
 20
46.3432287774
 11
198.992511862
 21
45.2404921034
  0
POLYLINE
  8
0
 62
7
  6
CONTINUOUS
 66
1
 70
0
  0
VERTEX
  8
0
 62
7
  6
CONTINUOUS
 10
195.787754171
 20
46.3432287774
  0
VERTEX
  8
0
 62
7
  6
CONTINUOUS
 10
195.5113629894
 20
46.4424233802
  0
VERTEX
  8
0
 62
7
  6
CONTINUOUS
 10
195.2668537864
 20
46.5395820501
  0
VERTEX
  8
0
 62
7
  6
CONTINUOUS
 10
195.0547854225
 20
46.6344227099
  0
SEQEND
  0
LINE
  8
0
 62
7
  6
CONTINUOUS
 10
199.0825505912
 20
37.0837640317
 11
198.9929866991
 21
37.1212557315
  0
LINE
  8
0
 62
9
  6
CONTINUOUS
 10
161.1915490859
 20
35.6344227099
 11
161.1915490859
 21
46.6344227099
  0
LINE
  8
1_AXIS
 62
7
  6
CONTINUOUS
 10
166.0720419847
 20
60.2844227099
 11
166.0720419847
 21
51.6344227099
  0
LINE
  8
1_AXIS
 62
7
  6
CONTINUOUS
 10
166.0720419847
 20
30.6344227099
 11
166.0720419847
 21
21.9844227099
  0
LINE
  8
0
 62
7
  6
CONTINUOUS
 10
198.992511862
 20
37.0283533165
 11
199.0825505912
 21
37.0837640317
  0
LINE
  8
0
 62
7
  6
CONTINUOUS
 10
198.992511862
 20
45.2404921034
 11
199.0825505912
 21
45.1850813882
  0
LINE
  8
0
 62
9
  6
CONTINUOUS
 10
176.223956705
 20
35.9256166424
 11
176.223956705
 21
46.3432287774
  0
LINE
  8
0
 62
9
  6
CONTINUOUS
 10
181.9216507414
 20
37.0283533165
 11
181.9216507414
 21
45.2404921034
  0
LINE
  8
0
 62
9
  6
CONTINUOUS
 10
183.1082740326
 20
45.1344227099
 11
183.1082740326
 21
37.1344227099
  0
LINE
  8
0
 62
9
  6
CONTINUOUS
 10
197.7406141665
 20
35.6344227099
 11
197.7406141665
 21
36.5966467063
  0
LINE
  8
0
 62
9
  6
CONTINUOUS
 10
197.7406141665
 20
45.6721987136
 11
197.7406141665
 21
46.6344227099
  0
LINE
  8
0
 62
9
  6
CONTINUOUS
 10
198.7421238152
 20
45.1344227099
 11
198.7421238152
 21
37.1344227099
  0
LINE
  8
0
 62
7
  6
CONTINUOUS
 10
199.0825505912
 20
45.1850901775
 11
199.0825505912
 21
37.0837552423
  0
LINE
  8
0
 62
9
  6
CONTINUOUS
 10
203.4765521559
 20
35.6344227099
 11
203.4765521559
 21
46.6344227099
  0
LINE
  8
0
 62
9
  6
CONTINUOUS
 10
217.3020259225
 20
35.9256166424
 11
217.3020259225
 21
46.3432287774
  0
LINE
  8
0
 62
9
  6
CONTINUOUS
 10
224.9803691377
 20
37.0283533165
 11
224.9803691377
 21
45.2404921034
  0
LINE
  8
0
 62
9
  6
CONTINUOUS
 10
226.0122441056
 20
45.1344227099
 11
226.0122441056
 21
37.1344227099
  0
LINE
  8
0
 62
9
  6
CONTINUOUS
 10
231.9838433476
 20
45.1344227099
 11
231.9838433476
 21
37.1344227099
  0
LINE
  8
0
 62
7
  6
CONTINUOUS
 10
232.0084343085
 20
45.141322385
 11
232.0084343085
 21
37.1275230349
  0
LINE
  8
1_AXIS
 62
7
  6
CONTINUOUS
 10
286.15625
 20
73.6271646476
 11
294.15625
 21
73.6271646476
  0
LINE
  8
0
 62
9
  6
CONTINUOUS
 10
286.15625
 20
74.0716141529
 11
294.15625
 21
74.0716141529
  0
LINE
  8
0
 62
9
  6
CONTINUOUS
 10
294.2623193934
 20
74.8680234204
 11
286.0501806066
 21
74.8680234204
  0
LINE
  8
0
 62
9
  6
CONTINUOUS
 10
295.3650560675
 20
82.4409011787
 11
284.9474439325
 21
82.4409011787
  0
LINE
  8
0
 62
7
  6
CONTINUOUS
 10
286.133218604
 20
88.2679258643
 11
294.179281396
 21
88.2679258643
  0
LINE
  8
0
 62
9
  6
CONTINUOUS
 10
286.15625
 20
88.4083648208
 11
294.15625
 21
88.4083648208
  0
LINE
  8
0
 62
9
  6
CONTINUOUS
 10
295.65625
 20
93.5670289375
 11
295.3261691035
 21
93.5670289375
  0
LINE
  8
0
 62
9
  6
CONTINUOUS
 10
284.9863308966
 20
93.5670289375
 11
284.65625
 21
93.5670289375
  0
LINE
  8
0
 62
9
  6
CONTINUOUS
 10
286.15625
 20
99.7670215644
 11
294.15625
 21
99.7670215644
  0
LINE
  8
0
 62
9
  6
CONTINUOUS
 10
294.2623193934
 20
100.9333551213
 11
286.0501806066
 21
100.9333551213
  0
LINE
  8
0
 62
9
  6
CONTINUOUS
 10
295.3650560675
 20
107.9655540614
 11
284.9474439325
 21
107.9655540614
  0
POLYLINE
  8
0
 62
7
  6
CONTINUOUS
 66
1
 70
0
  0
VERTEX
  8
0
 62
7
  6
CONTINUOUS
 10
294.1770913915
 20
269.4864034127
  0
VERTEX
  8
0
 62
7
  6
CONTINUOUS
 10
294.1694169784
 20
269.4801044181
  0
VERTEX
  8
0
 62
7
  6
CONTINUOUS
 10
294.15625
 20
269.3459644744
  0
SEQEND
  0
LINE
  8
0
 62
7
  6
CONTINUOUS
 10
286.1056367139
 20
269.4375890906
 11
286.1354086085
 21
269.4864034127
  0
LINE
  8
0
 62
9
  6
CONTINUOUS
 10
295.65625
 20
123.1370401357
 11
284.65625
 21
123.1370401357
  0
LINE
  8
0
 62
7
  6
CONTINUOUS
 10
286.1354099771
 20
88.2679258762
 11
286.1056378745
 21
88.3167370063
  0
LINE
  8
0
 62
9
  6
CONTINUOUS
 10
295.65625
 20
131.0318814812
 11
284.65625
 21
131.0318814812
  0
LINE
  8
0
 62
7
  6
CONTINUOUS
 10
286.0648790284
 20
136.696143883
 11
294.2476209716
 21
136.696143883
  0
LINE
  8
0
 62
7
  6
CONTINUOUS
 10
284.9474439325
 20
220.1769205628
 11
286.0501806066
 21
221.0517572678
  0
POLYLINE
  8
0
 62
7
  6
CONTINUOUS
 66
1
 70
0
  0
VERTEX
  8
0
 62
7
  6
CONTINUOUS
 10
284.9474439325
 20
220.1769205628
  0
VERTEX
  8
0
 62
7
  6
CONTINUOUS
 10
284.8482493297
 20
220.1142145114
  0
VERTEX
  8
0
 62
7
  6
CONTINUOUS
 10
284.7510906598
 20
220.0856445015
  0
VERTEX
  8
0
 62
7
  6
CONTINUOUS
 10
284.7189226147
 20
220.0837124702
  0
SEQEND
  0
LINE
  8
0
 62
7
  6
CONTINUOUS
 10
286.0501806066
 20
221.0517572678
 11
286.0666332046
 21
221.0581853935
  0
LINE
  8
0
 62
7
  6
CONTINUOUS
 10
284.65625
 20
137.6631025659
 11
284.7189233426
 21
137.670616825
  0
POLYLINE
  8
0
 62
7
  6
CONTINUOUS
 66
1
 70
0
  0
VERTEX
  8
0
 62
7
  6
CONTINUOUS
 10
295.5935766574
 20
137.670616825
  0
VERTEX
  8
0
 62
7
  6
CONTINUOUS
 10
295.5614081061
 20
137.6686846461
  0
VERTEX
  8
0
 62
7
  6
CONTINUOUS
 10
295.464254662
 20
137.6401166389
  0
SEQEND
  0
LINE
  8
0
 62
9
  6
CONTINUOUS
 10
286.15625
 20
137.3011221011
 11
294.15625
 21
137.3011221011
  0
LINE
  8
1_AXIS
 62
7
  6
CONTINUOUS
 10
271.00625
 20
142.1271646476
 11
279.65625
 21
142.1271646476
  0
LINE
  8
1_AXIS
 62
7
  6
CONTINUOUS
 10
300.65625
 20
142.1271646476
 11
309.30625
 21
142.1271646476
  0
POLYLINE
  8
0
 62
7
  6
CONTINUOUS
 66
1
 70
0
  0
VERTEX
  8
0
 62
7
  6
CONTINUOUS
 10
284.7189233426
 20
137.670616825
  0
VERTEX
  8
0
 62
7
  6
CONTINUOUS
 10
284.7510918939
 20
137.6686846461
  0
VERTEX
  8
0
 62
7
  6
CONTINUOUS
 10
284.848245338
 20
137.6401166389
  0
SEQEND
  0
LINE
  8
0
 62
7
  6
CONTINUOUS
 10
295.65625
 20
137.6631025659
 11
295.5935766574
 21
137.670616825
  0
LINE
  8
0
 62
7
  6
CONTINUOUS
 10
286.0666351649
 20
136.6961439083
 11
286.0501806066
 21
136.7025720274
  0
LINE
  8
0
 62
7
  6
CONTINUOUS
 10
284.848245338
 20
137.6401166389
 11
284.9474439325
 21
137.5774087323
  0
LINE
  8
0
 62
7
  6
CONTINUOUS
 10
286.0501806066
 20
136.7025720274
 11
284.9474439325
 21
137.5774087323
  0
LINE
  8
1_AXIS
 62
7
  6
CONTINUOUS
 10
269.00625
 20
213.6271646476
 11
269.00625
 21
144.1271646476
  0
POLYLINE
  8
0
 62
7
  6
CONTINUOUS
 66
1
 70
0
  0
VERTEX
  8
0
 62
7
  6
CONTINUOUS
 10
286.0501806066
 20
269.2236807677
  0
VERTEX
  8
0
 62
7
  6
CONTINUOUS
 10
284.8482493297
 20
263.539684885
  0
VERTEX
  8
0
 62
7
  6
CONTINUOUS
 10
284.7510906598
 20
263.1031707533
  0
VERTEX
  8
0
 62
7
  6
CONTINUOUS
 10
284.65625
 20
262.6942105268
  0
SEQEND
  0
LINE
  8
0
 62
7
  6
CONTINUOUS
 10
286.0501806066
 20
269.2236807677
 11
286.1056367139
 21
269.4375890906
  0
POLYLINE
  8
0
 62
7
  6
CONTINUOUS
 66
1
 70
0
  0
VERTEX
  8
0
 62
7
  6
CONTINUOUS
 10
294.2458667954
 20
221.0581853935
  0
VERTEX
  8
0
 62
7
  6
CONTINUOUS
 10
294.2068632861
 20
221.0091126187
  0
VERTEX
  8
0
 62
7
  6
CONTINUOUS
 10
294.1694169784
 20
220.7962368111
  0
VERTEX
  8
0
 62
7
  6
CONTINUOUS
 10
294.15625
 20
220.4532071941
  0
SEQEND
  0
LINE
  8
0
 62
9
  6
CONTINUOUS
 10
286.15625
 20
155.6798147787
 11
294.15625
 21
155.6798147787
  0
LINE
  8
0
 62
9
  6
CONTINUOUS
 10
294.2623193934
 20
156.7705728487
 11
286.0501806066
 21
156.7705728487
  0
LINE
  8
0
 62
7
  6
CONTINUOUS
 10
286.1056378745
 20
88.3167370063
 11
286.0501806066
 21
88.5306485275
  0
POLYLINE
  8
0
 62
7
  6
CONTINUOUS
 66
1
 70
0
  0
VERTEX
  8
0
 62
7
  6
CONTINUOUS
 10
284.65625
 20
95.0601187684
  0
VERTEX
  8
0
 62
7
  6
CONTINUOUS
 10
284.7510918939
 20
94.6511531082
  0
VERTEX
  8
0
 62
7
  6
CONTINUOUS
 10
284.848245338
 20
94.2146626958
  0
SEQEND
  0
LINE
  8
0
 62
7
  6
CONTINUOUS
 10
286.0501806066
 20
88.5306485275
 11
284.848245338
 21
94.2146626958
  0
LINE
  8
1_AXIS
 62
9
  6
CONTINUOUS
 10
271.00625
 20
142.1271646476
 11
271.00625
 21
215.6271646476
  0
POLYLINE
  8
0
 62
7
  6
CONTINUOUS
 66
1
 70
0
  0
VERTEX
  8
0
 62
7
  6
CONTINUOUS
 10
286.15625
 20
283.6827151422
  0
VERTEX
  8
0
 62
7
  6
CONTINUOUS
 10
286.1430644413
 20
283.5565786918
  0
VERTEX
  8
0
 62
7
  6
CONTINUOUS
 10
286.1056378745
 20
283.2750698423
  0
SEQEND
  0
POLYLINE
  8
0
 62
7
  6
CONTINUOUS
 66
1
 70
0
  0
VERTEX
  8
0
 62
7
  6
CONTINUOUS
 10
284.65625
 20
247.8102404541
  0
VERTEX
  8
0
 62
7
  6
CONTINUOUS
 10
284.7510918939
 20
248.4809927881
  0
VERTEX
  8
0
 62
7
  6
CONTINUOUS
 10
284.848245338
 20
249.1410251044
  0
SEQEND
  0
LINE
  8
0
 62
7
  6
CONTINUOUS
 10
286.1056378745
 20
283.2750698423
 11
284.65625
 21
273.281931635
  0
LINE
  8
1_AXIS
 62
7
  6
CONTINUOUS
 10
284.65625
 20
274.1271646476
 11
286.0910495836
 21
283.6924952047
  0
LINE
  8
0
 62
7
  6
CONTINUOUS
 10
286.0501806066
 20
256.8209741738
 11
284.848245338
 21
249.1410251044
  0
LINE
  8
0
 62
7
  6
CONTINUOUS
 10
296.275298729
 20
218.217337691
 11
296.65625
 21
218.8771646476
  0
LINE
  8
0
 62
9
  6
CONTINUOUS
 10
295.3650560675
 20
160.576031991
 11
284.9474439078
 21
160.5760320768
  0
POLYLINE
  8
0
 62
7
  6
CONTINUOUS
 66
1
 70
0
  0
VERTEX
  8
0
 62
7
  6
CONTINUOUS
 10
286.0501806066
 20
100.9333551213
  0
VERTEX
  8
0
 62
7
  6
CONTINUOUS
 10
284.8482493297
 20
108.6132776055
  0
VERTEX
  8
0
 62
7
  6
CONTINUOUS
 10
284.7510906598
 20
109.2733450602
  0
VERTEX
  8
0
 62
7
  6
CONTINUOUS
 10
284.65625
 20
109.9440888411
  0
SEQEND
  0
LINE
  8
1_AXIS
 62
7
  6
CONTINUOUS
 10
284.65625
 20
83.6271646476
 11
286.15625
 21
73.6271646476
  0
LINE
  8
0
 62
7
  6
CONTINUOUS
 10
286.1056367139
 20
74.4792678343
 11
284.65625
 21
84.4723976602
  0
POLYLINE
  8
0
 62
7
  6
CONTINUOUS
 66
1
 70
0
  0
VERTEX
  8
0
 62
7
  6
CONTINUOUS
 10
286.0501806066
 20
100.9333551213
  0
VERTEX
  8
0
 62
7
  6
CONTINUOUS
 10
286.1056367139
 20
100.5182436927
  0
VERTEX
  8
0
 62
7
  6
CONTINUOUS
 10
286.1430830216
 20
100.1050121556
  0
VERTEX
  8
0
 62
7
  6
CONTINUOUS
 10
286.15625
 20
99.7670215644
  0
SEQEND
  0
POLYLINE
  8
0
 62
7
  6
CONTINUOUS
 66
1
 70
0
  0
VERTEX
  8
0
 62
7
  6
CONTINUOUS
 10
286.1056367139
 20
74.4792678343
  0
VERTEX
  8
0
 62
7
  6
CONTINUOUS
 10
286.1430830216
 20
74.1976007817
  0
VERTEX
  8
0
 62
7
  6
CONTINUOUS
 10
286.15625
 20
74.0716141529
  0
SEQEND
  0
LINE
  8
0
 62
9
  6
CONTINUOUS
 10
279.65625
 20
142.1271646476
 11
279.65625
 21
215.6271646476
  0
POLYLINE
  8
0
 62
7
  6
CONTINUOUS
 66
1
 70
0
  0
VERTEX
  8
0
 62
7
  6
CONTINUOUS
 10
286.15625
 20
257.9873077308
  0
VERTEX
  8
0
 62
7
  6
CONTINUOUS
 10
286.1430644413
 20
257.649040751
  0
VERTEX
  8
0
 62
7
  6
CONTINUOUS
 10
286.1056378745
 20
257.2360959657
  0
VERTEX
  8
0
 62
7
  6
CONTINUOUS
 10
286.0501806066
 20
256.8209741738
  0
SEQEND
  0
POLYLINE
  8
0
 62
7
  6
CONTINUOUS
 66
1
 70
0
  0
VERTEX
  8
0
 62
7
  6
CONTINUOUS
 10
284.65625
 20
196.0084572641
  0
VERTEX
  8
0
 62
7
  6
CONTINUOUS
 10
284.7510918939
 20
196.4264549199
  0
VERTEX
  8
0
 62
7
  6
CONTINUOUS
 10
284.848245338
 20
196.8167213256
  0
VERTEX
  8
0
 62
7
  6
CONTINUOUS
 10
284.9474439325
 20
197.1782973042
  0
SEQEND
  0
LINE
  8
0
 62
7
  6
CONTINUOUS
 10
286.0501806066
 20
200.9837564465
 11
284.9474439325
 21
197.1782973042
  0
LINE
  8
0
 62
7
  6
CONTINUOUS
 10
284.9474439078
 20
160.5760320768
 11
286.0501806066
 21
156.7705728487
  0
POLYLINE
  8
0
 62
7
  6
CONTINUOUS
 66
1
 70
0
  0
VERTEX
  8
0
 62
7
  6
CONTINUOUS
 10
284.947443908
 20
160.5760320768
  0
VERTEX
  8
0
 62
7
  6
CONTINUOUS
 10
284.8482493297
 20
160.9375926855
  0
VERTEX
  8
0
 62
7
  6
CONTINUOUS
 10
284.7510906598
 20
161.3278795702
  0
VERTEX
  8
0
 62
7
  6
CONTINUOUS
 10
284.65625
 20
161.7458720311
  0
SEQEND
  0
POLYLINE
  8
0
 62
7
  6
CONTINUOUS
 66
1
 70
0
  0
VERTEX
  8
0
 62
7
  6
CONTINUOUS
 10
286.0501806066
 20
156.7705728487
  0
VERTEX
  8
0
 62
7
  6
CONTINUOUS
 10
286.1056367139
 20
156.4876640341
  0
VERTEX
  8
0
 62
7
  6
CONTINUOUS
 10
286.1430830216
 20
156.1007084144
  0
VERTEX
  8
0
 62
7
  6
CONTINUOUS
 10
286.15625
 20
155.6798147787
  0
SEQEND
  0
POLYLINE
  8
0
 62
7
  6
CONTINUOUS
 66
1
 70
0
  0
VERTEX
  8
0
 62
7
  6
CONTINUOUS
 10
294.15625
 20
88.4083648208
  0
VERTEX
  8
0
 62
7
  6
CONTINUOUS
 10
294.1694355587
 20
88.274190905
  0
VERTEX
  8
0
 62
7
  6
CONTINUOUS
 10
294.1770900229
 20
88.2679258762
  0
SEQEND
  0
LINE
  8
0
 62
7
  6
CONTINUOUS
 10
284.65625
 20
83.6274243572
 11
284.65625
 21
137.5774087323
  0
LINE
  8
0
 62
7
  6
CONTINUOUS
 10
284.65625
 20
137.6631025659
 11
284.65625
 21
220.0912267293
  0
LINE
  8
0
 62
7
  6
CONTINUOUS
 10
284.65625
 20
220.1769205628
 11
284.65625
 21
274.1270210064
  0
LINE
  8
0
 62
7
  6
CONTINUOUS
 10
286.15625
 20
284.1271646476
 11
286.15625
 21
283.6827151422
  0
LINE
  8
0
 62
7
  6
CONTINUOUS
 10
286.15625
 20
269.3459644744
 11
286.15625
 21
257.9873077308
  0
LINE
  8
0
 62
7
  6
CONTINUOUS
 10
286.15625
 20
220.4532071941
 11
286.15625
 21
202.0745145165
  0
LINE
  8
0
 62
7
  6
CONTINUOUS
 10
286.15625
 20
155.6798147787
 11
286.15625
 21
137.3011221011
  0
LINE
  8
0
 62
7
  6
CONTINUOUS
 10
286.15625
 20
99.7670215644
 11
286.15625
 21
88.4083648208
  0
LINE
  8
0
 62
7
  6
CONTINUOUS
 10
286.15625
 20
74.0716141529
 11
286.15625
 21
73.6271646476
  0
POLYLINE
  8
0
 62
7
  6
CONTINUOUS
 66
1
 70
0
  0
VERTEX
  8
0
 62
7
  6
CONTINUOUS
 10
286.15625
 20
202.0745145165
  0
VERTEX
  8
0
 62
7
  6
CONTINUOUS
 10
286.1430644413
 20
201.6533234962
  0
VERTEX
  8
0
 62
7
  6
CONTINUOUS
 10
286.1056378745
 20
201.2666736477
  0
VERTEX
  8
0
 62
7
  6
CONTINUOUS
 10
286.0501806066
 20
200.9837564465
  0
SEQEND
  0
POLYLINE
  8
0
 62
7
  6
CONTINUOUS
 66
1
 70
0
  0
VERTEX
  8
0
 62
7
  6
CONTINUOUS
 10
286.15625
 20
137.3011221011
  0
VERTEX
  8
0
 62
7
  6
CONTINUOUS
 10
286.1430644413
 20
136.9578876945
  0
VERTEX
  8
0
 62
7
  6
CONTINUOUS
 10
286.1056378745
 20
136.7452198831
  0
VERTEX
  8
0
 62
7
  6
CONTINUOUS
 10
286.0666351649
 20
136.6961439083
  0
SEQEND
  0
LINE
  8
0
 62
9
  6
CONTINUOUS
 10
295.65625
 20
173.9978843602
 11
284.65625
 21
173.9978843602
  0
LINE
  8
1_AXIS
 62
2
  6
CENTER
 10
267.00625
 20
178.8771646476
 11
313.30625
 21
178.8771646476
  0
POLYLINE
  8
0
 62
7
  6
CONTINUOUS
 66
1
 70
0
  0
VERTEX
  8
0
 62
7
  6
CONTINUOUS
 10
294.15625
 20
257.9873077308
  0
VERTEX
  8
0
 62
7
  6
CONTINUOUS
 10
294.1694355587
 20
257.649040751
  0
VERTEX
  8
0
 62
7
  6
CONTINUOUS
 10
294.2068621255
 20
257.2360959657
  0
VERTEX
  8
0
 62
7
  6
CONTINUOUS
 10
294.2623193934
 20
256.8209741738
  0
SEQEND
  0
POLYLINE
  8
0
 62
7
  6
CONTINUOUS
 66
1
 70
0
  0
VERTEX
  8
0
 62
7
  6
CONTINUOUS
 10
294.15625
 20
137.3011221011
  0
VERTEX
  8
0
 62
7
  6
CONTINUOUS
 10
294.1694355587
 20
136.9578876945
  0
VERTEX
  8
0
 62
7
  6
CONTINUOUS
 10
294.2068621255
 20
136.7452198831
  0
VERTEX
  8
0
 62
7
  6
CONTINUOUS
 10
294.2458648351
 20
136.6961439083
  0
SEQEND
  0
POLYLINE
  8
0
 62
7
  6
CONTINUOUS
 66
1
 70
0
  0
VERTEX
  8
0
 62
7
  6
CONTINUOUS
 10
294.15625
 20
202.0745145165
  0
VERTEX
  8
0
 62
7
  6
CONTINUOUS
 10
294.1694355587
 20
201.6533234962
  0
VERTEX
  8
0
 62
7
  6
CONTINUOUS
 10
294.2068621255
 20
201.2666736477
  0
VERTEX
  8
0
 62
7
  6
CONTINUOUS
 10
294.2623193934
 20
200.9837564465
  0
SEQEND
  0
LINE
  8
0
 62
7
  6
CONTINUOUS
 10
294.15625
 20
284.1271646476
 11
294.15625
 21
283.6827151422
  0
LINE
  8
0
 62
7
  6
CONTINUOUS
 10
294.15625
 20
269.3459644744
 11
294.15625
 21
257.9873077308
  0
LINE
  8
0
 62
7
  6
CONTINUOUS
 10
294.15625
 20
220.4532071941
 11
294.15625
 21
202.0745145165
  0
LINE
  8
0
 62
7
  6
CONTINUOUS
 10
294.15625
 20
155.6798147787
 11
294.15625
 21
137.3011221011
  0
LINE
  8
0
 62
7
  6
CONTINUOUS
 10
294.15625
 20
99.7670215644
 11
294.15625
 21
88.4083648208
  0
LINE
  8
0
 62
7
  6
CONTINUOUS
 10
294.15625
 20
74.0716141529
 11
294.15625
 21
73.6271646476
  0
LINE
  8
0
 62
7
  6
CONTINUOUS
 10
295.65625
 20
83.6274243572
 11
295.65625
 21
137.5774087323
  0
LINE
  8
0
 62
7
  6
CONTINUOUS
 10
295.65625
 20
137.6631025659
 11
295.65625
 21
220.0912267293
  0
LINE
  8
0
 62
7
  6
CONTINUOUS
 10
295.65625
 20
220.1769205628
 11
295.65625
 21
274.1270210064
  0
POLYLINE
  8
0
 62
7
  6
CONTINUOUS
 66
1
 70
0
  0
VERTEX
  8
0
 62
7
  6
CONTINUOUS
 10
286.15625
 20
88.4083648208
  0
VERTEX
  8
0
 62
7
  6
CONTINUOUS
 10
286.1430644413
 20
88.274190905
  0
VERTEX
  8
0
 62
7
  6
CONTINUOUS
 10
286.1354099771
 20
88.2679258762
  0
SEQEND
  0
LINE
  8
0
 62
9
  6
CONTINUOUS
 10
295.65625
 20
183.7564449349
 11
284.65625
 21
183.7564449349
  0
POLYLINE
  8
0
 62
7
  6
CONTINUOUS
 66
1
 70
0
  0
VERTEX
  8
0
 62
7
  6
CONTINUOUS
 10
294.15625
 20
283.6827151422
  0
VERTEX
  8
0
 62
7
  6
CONTINUOUS
 10
294.1694355587
 20
283.5565786918
  0
VERTEX
  8
0
 62
7
  6
CONTINUOUS
 10
294.2068621255
 20
283.2750698423
  0
SEQEND
  0
LINE
  8
0
 62
9
  6
CONTINUOUS
 10
300.65625
 20
142.1271646476
 11
300.65625
 21
215.6271646476
  0
POLYLINE
  8
0
 62
7
  6
CONTINUOUS
 66
1
 70
0
  0
VERTEX
  8
0
 62
7
  6
CONTINUOUS
 10
294.2623193934
 20
100.9333551213
  0
VERTEX
  8
0
 62
7
  6
CONTINUOUS
 10
294.2068632861
 20
100.5182436927
  0
VERTEX
  8
0
 62
7
  6
CONTINUOUS
 10
294.1694169784
 20
100.1050121556
  0
VERTEX
  8
0
 62
7
  6
CONTINUOUS
 10
294.15625
 20
99.7670215644
  0
SEQEND
  0
POLYLINE
  8
0
 62
7
  6
CONTINUOUS
 66
1
 70
0
  0
VERTEX
  8
0
 62
7
  6
CONTINUOUS
 10
294.2623193934
 20
156.7705728487
  0
VERTEX
  8
0
 62
7
  6
CONTINUOUS
 10
294.2068632861
 20
156.4876640341
  0
VERTEX
  8
0
 62
7
  6
CONTINUOUS
 10
294.1694169784
 20
156.1007084144
  0
VERTEX
  8
0
 62
7
  6
CONTINUOUS
 10
294.15625
 20
155.6798147787
  0
SEQEND
  0
POLYLINE
  8
0
 62
7
  6
CONTINUOUS
 66
1
 70
0
  0
VERTEX
  8
0
 62
7
  6
CONTINUOUS
 10
295.3650560675
 20
160.576031991
  0
VERTEX
  8
0
 62
7
  6
CONTINUOUS
 10
295.4642506703
 20
160.9375926855
  0
VERTEX
  8
0
 62
7
  6
CONTINUOUS
 10
295.5614093402
 20
161.3278795702
  0
VERTEX
  8
0
 62
7
  6
CONTINUOUS
 10
295.65625
 20
161.7458720311
  0
SEQEND
  0
LINE
  8
0
 62
7
  6
CONTINUOUS
 10
295.3650560675
 20
160.576031991
 11
294.2623193934
 21
156.7705728487
  0
LINE
  8
0
 62
7
  6
CONTINUOUS
 10
294.2623193934
 20
200.9837564465
 11
295.3650560251
 21
197.1782974512
  0
POLYLINE
  8
0
 62
7
  6
CONTINUOUS
 66
1
 70
0
  0
VERTEX
  8
0
 62
7
  6
CONTINUOUS
 10
295.65625
 20
196.0084572641
  0
VERTEX
  8
0
 62
7
  6
CONTINUOUS
 10
295.5614081061
 20
196.4264549199
  0
VERTEX
  8
0
 62
7
  6
CONTINUOUS
 10
295.464254662
 20
196.8167213256
  0
VERTEX
  8
0
 62
7
  6
CONTINUOUS
 10
295.3650560254
 20
197.1782974512
  0
SEQEND
  0
POLYLINE
  8
0
 62
7
  6
CONTINUOUS
 66
1
 70
0
  0
VERTEX
  8
0
 62
7
  6
CONTINUOUS
 10
295.65625
 20
247.8102404541
  0
VERTEX
  8
0
 62
7
  6
CONTINUOUS
 10
295.5614081061
 20
248.4809927881
  0
VERTEX
  8
0
 62
7
  6
CONTINUOUS
 10
295.464254662
 20
249.1410251044
  0
VERTEX
  8
0
 62
7
  6
CONTINUOUS
 10
294.2623193934
 20
256.8209741738
  0
SEQEND
  0
LINE
  8
0
 62
7
  6
CONTINUOUS
 10
295.6925429099
 20
220.0961938783
 11
295.7650765928
 21
219.5662201551
  0
LINE
  8
1_AXIS
 62
9
  6
CONTINUOUS
 10
309.30625
 20
142.1271646476
 11
309.30625
 21
215.6271646476
  0
LINE
  8
1_AXIS
 62
7
  6
CONTINUOUS
 10
311.30625
 20
144.1271646476
 11
311.30625
 21
213.6271646476
  0
POLYLINE
  8
0
 62
7
  6
CONTINUOUS
 66
1
 70
0
  0
VERTEX
  8
0
 62
7
  6
CONTINUOUS
 10
294.2068632861
 20
74.4792678343
  0
VERTEX
  8
0
 62
7
  6
CONTINUOUS
 10
294.1694169784
 20
74.1976007817
  0
VERTEX
  8
0
 62
7
  6
CONTINUOUS
 10
294.15625
 20
74.0716141529
  0
SEQEND
  0
POLYLINE
  8
0
 62
7
  6
CONTINUOUS
 66
1
 70
0
  0
VERTEX
  8
0
 62
7
  6
CONTINUOUS
 10
295.65625
 20
84.4723976602
  0
VERTEX
  8
0
 62
7
  6
CONTINUOUS
 10
294.6378539612
 20
77.4405236256
  0
VERTEX
  8
0
 62
7
  6
CONTINUOUS
 10
294.2068632861
 20
74.4792678343
  0
SEQEND
  0
POLYLINE
  8
0
 62
7
  6
CONTINUOUS
 66
1
 70
0
  0
VERTEX
  8
0
 62
7
  6
CONTINUOUS
 10
295.4642506703
 20
108.6132776055
  0
VERTEX
  8
0
 62
7
  6
CONTINUOUS
 10
295.5614093402
 20
109.2733450602
  0
VERTEX
  8
0
 62
7
  6
CONTINUOUS
 10
295.65625
 20
109.9440888411
  0
SEQEND
  0
LINE
  8
1_AXIS
 62
7
  6
CONTINUOUS
 10
294.15625
 20
73.6271646476
 11
295.65625
 21
83.6271646476
  0
LINE
  8
0
 62
7
  6
CONTINUOUS
 10
295.4642506703
 20
108.6132776055
 11
294.2623193934
 21
100.9333551213
  0
LINE
  8
0
 62
9
  6
CONTINUOUS
 10
295.3650560251
 20
197.1782974512
 11
284.9474439325
 21
197.1782973042
  0
LINE
  8
0
 62
9
  6
CONTINUOUS
 10
294.2623193934
 20
200.9837564465
 11
286.0501806066
 21
200.9837564465
  0
POLYLINE
  8
0
 62
7
  6
CONTINUOUS
 66
1
 70
0
  0
VERTEX
  8
0
 62
7
  6
CONTINUOUS
 10
295.7650765928
 20
219.5662201551
  0
VERTEX
  8
0
 62
7
  6
CONTINUOUS
 10
295.9453131095
 20
218.9328481132
  0
VERTEX
  8
0
 62
7
  6
CONTINUOUS
 10
296.1121632961
 20
218.531503225
  0
VERTEX
  8
0
 62
7
  6
CONTINUOUS
 10
296.2287226513
 20
218.3012718376
  0
VERTEX
  8
0
 62
7
  6
CONTINUOUS
 10
296.275298729
 20
218.217337691
  0
SEQEND
  0
LINE
  8
1_AXIS
 62
7
  6
CONTINUOUS
 10
294.15625
 20
284.1271646476
 11
295.65625
 21
274.1271646476
  0
LINE
  8
0
 62
7
  6
CONTINUOUS
 10
295.65625
 20
273.281931635
 11
294.2068621255
 21
283.2750698423
  0
POLYLINE
  8
0
 62
7
  6
CONTINUOUS
 66
1
 70
0
  0
VERTEX
  8
0
 62
7
  6
CONTINUOUS
 10
295.65625
 20
95.0601187684
  0
VERTEX
  8
0
 62
7
  6
CONTINUOUS
 10
295.5614081061
 20
94.6511531082
  0
VERTEX
  8
0
 62
7
  6
CONTINUOUS
 10
295.464254662
 20
94.2146626958
  0
VERTEX
  8
0
 62
7
  6
CONTINUOUS
 10
294.2623193934
 20
88.5306485275
  0
SEQEND
  0
LINE
  8
0
 62
7
  6
CONTINUOUS
 10
294.2068621255
 20
88.3167370063
 11
294.2623193934
 21
88.5306485275
  0
LINE
  8
0
 62
9
  6
CONTINUOUS
 10
286.15625
 20
202.0745145165
 11
294.15625
 21
202.0745145165
  0
POLYLINE
  8
0
 62
7
  6
CONTINUOUS
 66
1
 70
0
  0
VERTEX
  8
0
 62
7
  6
CONTINUOUS
 10
286.0666332046
 20
221.0581853935
  0
VERTEX
  8
0
 62
7
  6
CONTINUOUS
 10
286.1056367139
 20
221.0091126187
  0
VERTEX
  8
0
 62
7
  6
CONTINUOUS
 10
286.1430830216
 20
220.7962368111
  0
VERTEX
  8
0
 62
7
  6
CONTINUOUS
 10
286.15625
 20
220.4532071941
  0
SEQEND
  0
LINE
  8
0
 62
7
  6
CONTINUOUS
 10
295.6562824193
 20
220.6091593032
 11
296.65625
 21
218.8771646476
  0
LINE
  8
0
 62
7
  6
CONTINUOUS
 10
294.2623193934
 20
269.2236807677
 11
294.2068632861
 21
269.4375890906
  0
POLYLINE
  8
0
 62
7
  6
CONTINUOUS
 66
1
 70
0
  0
VERTEX
  8
0
 62
7
  6
CONTINUOUS
 10
295.4642506703
 20
263.539684885
  0
VERTEX
  8
0
 62
7
  6
CONTINUOUS
 10
295.5614093402
 20
263.1031707533
  0
VERTEX
  8
0
 62
7
  6
CONTINUOUS
 10
295.65625
 20
262.6942105268
  0
SEQEND
  0
LINE
  8
0
 62
7
  6
CONTINUOUS
 10
295.4642506703
 20
263.539684885
 11
294.2623193934
 21
269.2236807677
  0
LINE
  8
0
 62
7
  6
CONTINUOUS
 10
294.2623193934
 20
136.7025720274
 11
295.3650560675
 21
137.5774087323
  0
LINE
  8
0
 62
7
  6
CONTINUOUS
 10
295.3650560675
 20
220.1769205628
 11
294.2623193934
 21
221.0517572678
  0
LINE
  8
0
 62
7
  6
CONTINUOUS
 10
295.464254662
 20
137.6401166389
 11
295.3650560675
 21
137.5774087323
  0
LINE
  8
0
 62
7
  6
CONTINUOUS
 10
294.2458648351
 20
136.6961439083
 11
294.2623193934
 21
136.7025720274
  0
LINE
  8
0
 62
7
  6
CONTINUOUS
 10
295.5935773853
 20
220.0837124702
 11
295.65625
 21
220.0912267293
  0
LINE
  8
1_AXIS
 62
7
  6
CONTINUOUS
 10
271.00625
 20
215.6271646476
 11
279.65625
 21
215.6271646476
  0
LINE
  8
1_AXIS
 62
7
  6
CONTINUOUS
 10
300.65625
 20
215.6271646476
 11
309.30625
 21
215.6271646476
  0
LINE
  8
0
 62
9
  6
CONTINUOUS
 10
286.15625
 20
220.4532071941
 11
294.15625
 21
220.4532071941
  0
LINE
  8
0
 62
7
  6
CONTINUOUS
 10
286.0648790767
 20
221.0581854121
 11
294.2476209233
 21
221.0581854121
  0
LINE
  8
0
 62
7
  6
CONTINUOUS
 10
284.7189226147
 20
220.0837124702
 11
284.65625
 21
220.0912267293
  0
LINE
  8
0
 62
7
  6
CONTINUOUS
 10
294.2623193934
 20
221.0517572678
 11
294.2458667954
 21
221.0581853935
  0
POLYLINE
  8
0
 62
7
  6
CONTINUOUS
 66
1
 70
0
  0
VERTEX
  8
0
 62
7
  6
CONTINUOUS
 10
295.3650560675
 20
220.1769205628
  0
VERTEX
  8
0
 62
7
  6
CONTINUOUS
 10
295.4642506703
 20
220.1142145114
  0
VERTEX
  8
0
 62
7
  6
CONTINUOUS
 10
295.5614093402
 20
220.0856445015
  0
VERTEX
  8
0
 62
7
  6
CONTINUOUS
 10
295.5935773853
 20
220.0837124702
  0
SEQEND
  0
LINE
  8
0
 62
7
  6
CONTINUOUS
 10
294.1770900229
 20
88.2679258762
 11
294.2068621255
 21
88.3167370063
  0
LINE
  8
0
 62
9
  6
CONTINUOUS
 10
295.65625
 20
226.7224478139
 11
284.65625
 21
226.7224478139
  0
LINE
  8
0
 62
7
  6
CONTINUOUS
 10
294.2068632861
 20
269.4375890906
 11
294.1770913915
 21
269.4864034127
  0
LINE
  8
0
 62
9
  6
CONTINUOUS
 10
295.65625
 20
234.6172891595
 11
284.65625
 21
234.6172891595
  0
LINE
  8
0
 62
9
  6
CONTINUOUS
 10
295.3650559482
 20
249.7887759977
 11
284.9474440518
 21
249.7887759977
  0
POLYLINE
  8
0
 62
7
  6
CONTINUOUS
 66
1
 70
0
  0
VERTEX
  8
0
 62
7
  6
CONTINUOUS
 10
286.1354086085
 20
269.4864034127
  0
VERTEX
  8
0
 62
7
  6
CONTINUOUS
 10
286.1430830216
 20
269.4801044181
  0
VERTEX
  8
0
 62
7
  6
CONTINUOUS
 10
286.15625
 20
269.3459644744
  0
SEQEND
  0
LINE
  8
0
 62
9
  6
CONTINUOUS
 10
294.2623193934
 20
256.8209741738
 11
286.0501806066
 21
256.8209741738
  0
LINE
  8
0
 62
9
  6
CONTINUOUS
 10
286.15625
 20
257.9873077308
 11
294.15625
 21
257.9873077308
  0
LINE
  8
0
 62
9
  6
CONTINUOUS
 10
295.65625
 20
264.1873003577
 11
295.3261691179
 21
264.1873003577
  0
LINE
  8
0
 62
9
  6
CONTINUOUS
 10
284.9863308821
 20
264.1873003577
 11
284.65625
 21
264.1873003577
  0
LINE
  8
0
 62
9
  6
CONTINUOUS
 10
286.15625
 20
269.3459644744
 11
294.15625
 21
269.3459644744
  0
LINE
  8
0
 62
7
  6
CONTINUOUS
 10
286.1332125688
 20
269.4864034309
 11
294.1792874312
 21
269.4864034309
  0
LINE
  8
0
 62
9
  6
CONTINUOUS
 10
295.3650560675
 20
275.3134281165
 11
284.9474439325
 21
275.3134281165
  0
LINE
  8
0
 62
9
  6
CONTINUOUS
 10
294.2623193934
 20
282.8863058748
 11
286.0501806066
 21
282.8863058748
  0
LINE
  8
0
 62
9
  6
CONTINUOUS
 10
286.15625
 20
283.6827151422
 11
294.15625
 21
283.6827151422
  0
LINE
  8
1_AXIS
 62
7
  6
CONTINUOUS
 10
286.15625
 20
284.1271646476
 11
294.15625
 21
284.1271646476
  0
ARC
  8
0
 62
7
  6
CONTINUOUS
 10
26.7292107425
 20
173.1961895821
 40
14.5
 50
299.5
 51
3.1694594489
  0
ARC
  8
0
 62
7
  6
CONTINUOUS
 10
42.9835046466
 20
123.170616825
 40
14.5
 50
32.8305405511
 51
96.5
  0
ARC
  8
0
 62
7
  6
CONTINUOUS
 10
49.6618913708
 20
113.9786060799
 40
14.5
 50
335.5
 51
39.1694594489
  0
ARC
  8
0
 62
7
  6
CONTINUOUS
 10
92.2161852749
 20
83.0611018093
 40
14.5
 50
68.8305405511
 51
132.5000026746
  0
ARC
  8
0
 62
7
  6
CONTINUOUS
 10
103.0220419847
 20
79.5500661296
 40
14.5
 50
11.5
 51
75.1694594489
  0
ARC
  8
0
 62
7
  6
CONTINUOUS
 10
33.550511618
 20
137.696143883
 40
1.0
 50
203.2673325504
 51
276.5
  0
ARC
  8
0
 62
7
  6
CONTINUOUS
 10
27.635649661
 20
155.9002171528
 40
1.0
 50
119.5
 51
192.7326674495
  0
ARC
  8
0
 62
7
  6
CONTINUOUS
 10
76.0468430205
 20
89.2679258643
 40
1.0
 50
239.2673325504
 51
312.5
  0
ARC
  8
0
 62
7
  6
CONTINUOUS
 10
60.5615333783
 20
100.5186618787
 40
1.0
 50
155.5
 51
228.7326674496
  0
ARC
  8
0
 62
7
  6
CONTINUOUS
 10
119.7515942995
 20
75.0673913548
 40
1.0
 50
191.5
 51
264.7326674495
  0
ARC
  8
0
 62
7
  6
CONTINUOUS
 10
103.0220419847
 20
278.2042631656
 40
14.5
 50
284.8305405511
 51
348.5
  0
ARC
  8
0
 62
7
  6
CONTINUOUS
 10
92.2161852749
 20
274.6932274859
 40
14.5
 50
227.5
 51
291.1694594489
  0
ARC
  8
0
 62
7
  6
CONTINUOUS
 10
49.6618913708
 20
243.7757232153
 40
14.5
 50
320.8305405511
 51
24.5000033173
  0
ARC
  8
0
 62
7
  6
CONTINUOUS
 10
42.9835046466
 20
234.5837124702
 40
14.5
 50
263.5
 51
327.1694594489
  0
ARC
  8
0
 62
7
  6
CONTINUOUS
 10
26.7292107425
 20
184.558139713
 40
14.5
 50
356.8305405511
 51
60.5000011802
  0
ARC
  8
0
 62
7
  6
CONTINUOUS
 10
119.7515942995
 20
282.6869379404
 40
1.0
 50
95.2673325504
 51
168.5
  0
ARC
  8
0
 62
7
  6
CONTINUOUS
 10
60.5615333783
 20
257.2356674165
 40
1.0
 50
131.2673325505
 51
204.5
  0
ARC
  8
0
 62
7
  6
CONTINUOUS
 10
76.0468430205
 20
268.4864034309
 40
1.0
 50
47.5
 51
120.7326674495
  0
ARC
  8
0
 62
7
  6
CONTINUOUS
 10
27.635649661
 20
201.8541121424
 40
1.0
 50
167.2673325504
 51
240.5
  0
ARC
  8
0
 62
7
  6
CONTINUOUS
 10
33.550511618
 20
220.0581854121
 40
1.0
 50
83.5
 51
156.7326674495
  0
ARC
  8
0
 62
7
  6
CONTINUOUS
 10
155.6220419847
 20
79.5500661296
 40
14.5
 50
104.8305405511
 51
168.5
  0
ARC
  8
0
 62
7
  6
CONTINUOUS
 10
166.4278986945
 20
83.0611018093
 40
14.5
 50
47.5
 51
111.1694594489
  0
ARC
  8
0
 62
7
  6
CONTINUOUS
 10
208.9821925987
 20
113.9786060799
 40
14.5
 50
140.8305405511
 51
204.5
  0
ARC
  8
0
 62
7
  6
CONTINUOUS
 10
215.6605793229
 20
123.170616825
 40
14.5
 50
83.5
 51
147.1694594489
  0
ARC
  8
0
 62
7
  6
CONTINUOUS
 10
231.914873227
 20
173.1961895821
 40
14.5
 50
176.8305405511
 51
240.5
  0
ARC
  8
0
 62
7
  6
CONTINUOUS
 10
138.8924896699
 20
75.0673913548
 40
1.0
 50
275.2673325504
 51
348.5
  0
ARC
  8
0
 62
7
  6
CONTINUOUS
 10
198.0825505912
 20
100.5186618787
 40
1.0
 50
311.2673325504
 51
24.5
  0
ARC
  8
0
 62
7
  6
CONTINUOUS
 10
182.597240949
 20
89.2679258643
 40
1.0
 50
227.5
 51
300.7326674496
  0
ARC
  8
0
 62
7
  6
CONTINUOUS
 10
231.0084343085
 20
155.9002171528
 40
1.0
 50
347.2673325504
 51
60.5
  0
ARC
  8
0
 62
7
  6
CONTINUOUS
 10
225.0935723515
 20
137.696143883
 40
1.0
 50
263.5
 51
336.7326674496
  0
ARC
  8
0
 62
7
  6
CONTINUOUS
 10
129.3220419847
 20
178.8771646476
 40
105.25
 50
84.7326674496
 51
95.2673325504
  0
ARC
  8
0
 62
7
  6
CONTINUOUS
 10
129.3220419847
 20
178.8771646476
 40
95.25
 50
46.3613775968
 51
61.6386224032
  0
ARC
  8
0
 62
7
  6
CONTINUOUS
 10
129.3220419847
 20
178.8771646476
 40
95.25
 50
334.3613775968
 51
349.6386224032
  0
ARC
  8
0
 62
7
  6
CONTINUOUS
 10
129.3220419847
 20
178.8771646476
 40
95.25
 50
82.3613775968
 51
97.6386224032
  0
ARC
  8
0
 62
7
  6
CONTINUOUS
 10
129.3220419847
 20
178.8771646476
 40
95.25
 50
262.3613775968
 51
277.6386224032
  0
ARC
  8
0
 62
7
  6
CONTINUOUS
 10
129.3220419847
 20
178.8771646476
 40
95.25
 50
10.3613775968
 51
25.6386224032
  0
ARC
  8
0
 62
7
  6
CONTINUOUS
 10
129.3220419847
 20
178.8771646476
 40
95.25
 50
298.3613775968
 51
313.6386224032
  0
ARC
  8
0
 62
7
  6
CONTINUOUS
 10
129.3220419847
 20
178.8771646476
 40
88.25
 50
32.8305405511
 51
39.1694594489
  0
ARC
  8
0
 62
7
  6
CONTINUOUS
 10
129.3220419847
 20
178.8771646476
 40
88.25
 50
356.8305405511
 51
3.1694594489
  0
ARC
  8
0
 62
7
  6
CONTINUOUS
 10
129.3220419847
 20
178.8771646476
 40
88.25
 50
320.8305405511
 51
327.1694594489
  0
ARC
  8
0
 62
7
  6
CONTINUOUS
 10
129.3220419847
 20
178.8771646476
 40
88.25
 50
284.8305405511
 51
291.1694594489
  0
ARC
  8
0
 62
7
  6
CONTINUOUS
 10
129.3220419847
 20
178.8771646476
 40
88.25
 50
248.8305405511
 51
255.1694594489
  0
ARC
  8
0
 62
7
  6
CONTINUOUS
 10
129.3220419847
 20
178.8771646476
 40
88.25
 50
212.8305405511
 51
219.1694594489
  0
ARC
  8
0
 62
7
  6
CONTINUOUS
 10
129.3220419847
 20
178.8771646476
 40
88.25
 50
176.8305405511
 51
183.1694594489
  0
ARC
  8
0
 62
7
  6
CONTINUOUS
 10
129.3220419847
 20
178.8771646476
 40
88.25
 50
140.8305405511
 51
147.1694594489
  0
ARC
  8
0
 62
7
  6
CONTINUOUS
 10
129.3220419847
 20
178.8771646476
 40
88.25
 50
104.8305405511
 51
111.1694594489
  0
ARC
  8
0
 62
7
  6
CONTINUOUS
 10
129.3220419847
 20
178.8771646476
 40
88.25
 50
68.8305405511
 51
75.1694594489
  0
CIRCLE
  8
0
 62
9
  6
CONTINUOUS
 10
129.3220419847
 20
178.8771646476
 40
41.75
  0
CIRCLE
  8
1_AXIS
 62
7
  6
CONTINUOUS
 10
129.3220419847
 20
178.8771646476
 40
36.75
  0
CIRCLE
  8
1_AXIS
 62
9
  6
CONTINUOUS
 10
129.3220419847
 20
178.8771646476
 40
34.75
  0
ARC
  8
0
 62
7
  6
CONTINUOUS
 10
155.6220419847
 20
278.2042631656
 40
14.5
 50
191.5
 51
255.1694594489
  0
ARC
  8
0
 62
7
  6
CONTINUOUS
 10
166.4278986945
 20
274.6932274859
 40
14.5
 50
248.8305405511
 51
312.5
  0
CIRCLE
  8
0
 62
7
  6
CONTINUOUS
 10
129.3220419847
 20
258.8771646476
 40
1.7320508076
  0
ARC
  8
0
 62
7
  6
CONTINUOUS
 10
138.8924896699
 20
282.6869379404
 40
1.0
 50
11.5
 51
84.7326674496
  0
ARC
  8
0
 62
7
  6
CONTINUOUS
 10
231.914873227
 20
184.558139713
 40
14.5
 50
119.5
 51
183.1694594489
  0
ARC
  8
0
 62
7
  6
CONTINUOUS
 10
225.0935723515
 20
220.0581854121
 40
1.0
 50
23.2673325504
 51
96.5
  0
ARC
  8
0
 62
7
  6
CONTINUOUS
 10
231.0084343085
 20
201.8541121424
 40
1.0
 50
299.5
 51
12.7326674495
  0
ARC
  8
0
 62
7
  6
CONTINUOUS
 10
215.6605793229
 20
234.5837124702
 40
14.5
 50
212.8305405511
 51
276.5
  0
ARC
  8
0
 62
7
  6
CONTINUOUS
 10
208.9821925987
 20
243.7757232153
 40
14.5
 50
155.5
 51
219.1694594489
  0
ARC
  8
0
 62
7
  6
CONTINUOUS
 10
182.597240949
 20
268.4864034309
 40
1.0
 50
59.2673325505
 51
132.5
  0
ARC
  8
0
 62
7
  6
CONTINUOUS
 10
198.0825505912
 20
257.2356674165
 40
1.0
 50
335.5
 51
48.7326674495
  0
ARC
  8
0
 62
7
  6
CONTINUOUS
 10
171.0720419847
 20
51.6344227099
 40
5.0
 50
180.0
 51
270.0
  0
ARC
  8
0
 62
7
  6
CONTINUOUS
 10
171.0720419847
 20
30.6344227099
 40
5.0
 50
90.0
 51
180.0
  0
ARC
  8
0
 62
7
  6
CONTINUOUS
 10
87.5720419847
 20
51.6344227099
 40
5.0
 50
270.0
 51
360.0
  0
ARC
  8
0
 62
7
  6
CONTINUOUS
 10
87.5720419847
 20
30.6344227099
 40
5.0
 50
0.0
 51
83.8495649601
  0
ARC
  8
1_AXIS
 62
7
  6
CONTINUOUS
 10
94.5720419847
 20
60.2844227099
 40
2.0
 50
90.0
 51
180.0
  0
ARC
  8
1_AXIS
 62
7
  6
CONTINUOUS
 10
94.5720419847
 20
21.9844227099
 40
2.0
 50
180.0
 51
270.0
  0
ARC
  8
1_AXIS
 62
7
  6
CONTINUOUS
 10
164.0720419847
 20
60.2844227099
 40
2.0
 50
0.0
 51
90.0
  0
ARC
  8
1_AXIS
 62
7
  6
CONTINUOUS
 10
164.0720419847
 20
21.9844227099
 40
2.0
 50
270.0
 51
360.0
  0
ARC
  8
0
 62
7
  6
CONTINUOUS
 10
279.65625
 20
137.1271646476
 40
5.0
 50
5.8965533846
 51
90.0
  0
ARC
  8
0
 62
7
  6
CONTINUOUS
 10
279.65625
 20
220.6271646476
 40
5.0
 50
270.0
 51
353.9995573779
  0
ARC
  8
0
 62
7
  6
CONTINUOUS
 10
300.65625
 20
137.1271646476
 40
5.0
 50
90.0
 51
173.9995106518
  0
ARC
  8
0
 62
7
  6
CONTINUOUS
 10
300.65625
 20
220.6271646476
 40
5.0
 50
208.8138436799
 51
270.0
  0
ARC
  8
1_AXIS
 62
7
  6
CONTINUOUS
 10
271.00625
 20
213.6271646476
 40
2.0
 50
90.0
 51
180.0
  0
ARC
  8
1_AXIS
 62
7
  6
CONTINUOUS
 10
271.00625
 20
144.1271646476
 40
2.0
 50
180.0
 51
270.0
  0
ARC
  8
1_AXIS
 62
7
  6
CONTINUOUS
 10
309.30625
 20
213.6271646476
 40
2.0
 50
0.0
 51
90.0
  0
ARC
  8
1_AXIS
 62
7
  6
CONTINUOUS
 10
309.30625
 20
144.1271646476
 40
2.0
 50
270.0
 51
360.0
  0
ENDSEC
  0
EOF
