  0
SECTION
  2
HEADER
  9
$EXTMAX
 10
420.0
 20
297.0
 30
0.0
  9
$EXTMIN
 10
0.0
 20
0.0
 30
0.0
  9
$LIMMIN
 10
0.0
 20
0.0
  9
$LIMMAX
 10
420.0
 20
297.0
  9
$VIEWCTR
 10
210.0
 20
148.5
  9
$VIEWSIZE
 40
297.0
  9
$CLAYER
  8
0
  9
$LTSCALE
 40
23.1
  9
$CELTYPE
  6
BYLAYER
  9
$DIMSCALE
 40
1.0
  9
$DIMASZ
 40
3.5
  9
$DIMEXO
 40
1.0
  9
$DIMDLI
 40
15.96
  9
$DIMEXE
 40
2.0
  9
$DIMCEN
 40
3.78
  9
$DIMLFAC
 40
1.0
  9
$DIMBLK
  1
_FILLED
  9
$DIMALT
 70
0
  9
$DIMALTF
 40
0.0393700787
  9
$DIMTXT
 40
3.5
  9
$AUNITS
 70
0
  9
$PDMODE
 70
3
  9
$PDSIZE
 40
0.3125
  9
$TILEMODE
 70
1
  0
ENDSEC
  0
SECTION
  2
TABLES
  0
TABLE
  2
LTYPE
 70
6
  0
LTYPE
  2
BYBLOCK
 70
0
  3

 72
65
 73
0
 40
0.0
  0
LTYPE
  2
BYLAYER
 70
0
  3

 72
65
 73
0
 40
0.0
  0
LTYPE
  2
CONTINUOUS
 70
64
  3
Solid line
 72
65
 73
0
 40
0.0
  0
LTYPE
  2
CENTER
 70
64
  3
____ _ ____ _ ____ _ ____ _ ____ _ ____ _ ____
 72
65
 73
4
 40
0.6
 49
0.375
 49
-0.075
 49
0.075
 49
-0.075
  0
LTYPE
  2
HIDDEN
 70
64
  3
- - - - - - - - - - - - - - - - - - - -
 72
65
 73
2
 40
0.2
 49
0.1
 49
-0.1
  0
LTYPE
  2
PHANTOM
 70
64
  3
_____ _ _ _____ _ _ _____ _ _ _____
 72
65
 73
6
 40
0.8
 49
0.45
 49
-0.05
 49
0.1
 49
-0.05
 49
0.1
 49
-0.05
  0
LTYPE
  2
DOT
 70
64
  3
. . . . . . . . . . . . . . . . . . . .
 72
65
 73
2
 40
0.2
 49
0.1
 49
-0.1
  0
LTYPE
  2
DASHED
 70
64
  3
- - - - - - - - - - - - - - - - - - - -
 72
65
 73
2
 40
0.2
 49
0.1
 49
-0.1
  0
ENDTAB
  0
TABLE
  2
LAYER
 70
36
  0
LAYER
  2
0
 70
0
 62
7
  6
CONTINUOUS
  0
LAYER
  2
DEFAULT_1
 70
0
 62
7
  6
CENTER
  0
LAYER
  2
DEFAULT_2
 70
0
 62
8
  6
HIDDEN
  0
LAYER
  2
DEFAULT_3
 70
0
 62
7
  6
PHANTOM
  0
LAYER
  2
1_AXIS
 70
0
 62
7
  6
CONTINUOUS
  0
LAYER
  2
1_DATUM_PLANE
 70
0
 62
7
  6
CONTINUOUS
  0
LAYER
  2
2_FEATURE
 70
0
 62
7
  6
CONTINUOUS
  0
LAYER
  2
4_QUILT
 70
0
 62
7
  6
CONTINUOUS
  0
LAYER
  2
6_DIM
 70
0
 62
7
  6
CONTINUOUS
  0
LAYER
  2
AXES
 70
0
 62
7
  6
CONTINUOUS
  0
LAYER
  2
BLANK_COM
 70
0
 62
7
  6
CONTINUOUS
  0
LAYER
  2
CSYS
 70
0
 62
7
  6
CONTINUOUS
  0
LAYER
  2
CURVES
 70
0
 62
7
  6
CONTINUOUS
  0
LAYER
  2
NOTES
 70
0
 62
7
  6
CONTINUOUS
  0
LAYER
  2
PLANES
 70
0
 62
7
  6
CONTINUOUS
  0
LAYER
  2
QUILTS
 70
0
 62
7
  6
CONTINUOUS
  0
ENDTAB
  0
TABLE
  2
STYLE
 70
1
  0
STYLE
  2
STANDARD
 70
0
 40
0.0
 41
0.8
 50
0.0
 71
0
 42
0.2
  3
txt
  4

  0
STYLE
  2
TEXTSTYLE_1
 70
0
 40
0.0
 41
0.8
 50
0.0
 71
0
 42
0.2
  3
gdt
  4

  0
STYLE
  2
TEXTSTYLE_2
 70
0
 40
0.0
 41
0.6
 50
0.0
 71
0
 42
0.2
  3
txt
  4

  0
STYLE
  2
TEXTSTYLE_3
 70
0
 40
0.0
 41
1.0
 50
0.0
 71
0
 42
0.2
  3
ftb_____.ttf
  4

  0
STYLE
  2
TEXTSTYLE_4
 70
0
 40
0.0
 41
1.0
 50
0.0
 71
0
 42
0.2
  3
fti_____.ttf
  4

  0
STYLE
  2
TEXTSTYLE_5
 70
0
 40
0.0
 41
1.0
 50
0.0
 71
0
 42
0.2
  3
frutiger light.ttf
  4

  0
STYLE
  2
TEXTSTYLE_6
 70
0
 40
0.0
 41
0.7
 50
0.0
 71
0
 42
0.2
  3
txt
  4

  0
STYLE
  2
TEXTSTYLE_7
 70
0
 40
0.0
 41
0.8
 50
0.0
 71
0
 42
0.2
  3
txt
  4

  0
ENDTAB
  0
ENDSEC
  0
SECTION
  2
BLOCKS
  0
BLOCK
  8
0
 62
2
  6
CONTINUOUS
  2
UNI_LOGO2_BL1
 70
64
 10
382.7840918555
 20
35.5067593403
  0
TEXT
  8
0
 62
7
  6
CONTINUOUS
 10
373.842376864
 20
30.5995157174
  7
TEXTSTYLE_4
 40
1.0655737705
  1
The brand for plastic modular belts and chains
 41
1.0
 72
0
  0
LINE
  8
0
 62
7
  6
CONTINUOUS
 10
358.7621602445
 20
36.0805298321
 11
358.7621602445
 21
33.9493822911
  0
LINE
  8
0
 62
7
  6
CONTINUOUS
 10
359.0512227376
 20
30.9584509954
 11
359.0512227376
 21
31.0552420547
  0
LINE
  8
0
 62
7
  6
CONTINUOUS
 10
358.7621602445
 20
31.0229783683
 11
358.8199727462
 21
30.8293962497
  0
LINE
  8
0
 62
7
  6
CONTINUOUS
 10
360.1556028675
 20
33.867415078
 11
360.1556028675
 21
36.0805298321
  0
LINE
  8
0
 62
7
  6
CONTINUOUS
 10
361.0746601894
 20
32.0231527829
 11
361.0746601894
 21
30.5067593403
  0
LINE
  8
0
 62
7
  6
CONTINUOUS
 10
361.3637227445
 20
30.5067593403
 11
361.3637227445
 21
31.2488242184
  0
LINE
  8
0
 62
7
  6
CONTINUOUS
 10
361.3637227445
 20
31.3778789641
 11
361.3637227445
 21
32.0231527829
  0
LINE
  8
0
 62
7
  6
CONTINUOUS
 10
358.8199727462
 20
31.216560532
 11
358.7621602445
 21
31.0229783683
  0
LINE
  8
0
 62
7
  6
CONTINUOUS
 10
359.1668477307
 20
30.7971325633
 11
359.0512227376
 21
30.9584509954
  0
LINE
  8
0
 62
7
  6
CONTINUOUS
 10
360.2652852997
 20
31.3133515913
 11
360.3230977445
 21
31.216560532
  0
LINE
  8
0
 62
7
  6
CONTINUOUS
 10
360.6121602997
 20
31.216560532
 11
360.5543476894
 21
31.3456152777
  0
LINE
  8
0
 62
7
  6
CONTINUOUS
 10
362.0408487691
 20
36.0805298321
 11
362.0408487691
 21
34.2772511436
  0
LINE
  8
0
 62
7
  6
CONTINUOUS
 10
362.0408487691
 20
32.9657757338
 11
362.0408487691
 21
32.3100380288
  0
LINE
  8
0
 62
7
  6
CONTINUOUS
 10
362.4043477445
 20
31.1520331591
 11
362.4043477445
 21
30.5067593403
  0
LINE
  8
0
 62
7
  6
CONTINUOUS
 10
362.6934101343
 20
30.5067593403
 11
362.6934101343
 21
31.1520331591
  0
LINE
  8
0
 62
7
  6
CONTINUOUS
 10
359.0512227376
 20
31.0552420547
 11
359.1090352445
 21
31.1842968456
  0
LINE
  8
0
 62
7
  6
CONTINUOUS
 10
358.8199727462
 20
30.8293962497
 11
358.9355977445
 21
30.7003414814
  0
LINE
  8
0
 62
7
  6
CONTINUOUS
 10
362.3465351343
 20
31.2810879048
 11
362.4043477445
 21
31.1520331591
  0
LINE
  8
0
 62
7
  6
CONTINUOUS
 10
363.1559103548
 20
30.7971325633
 11
363.2137226343
 21
30.668077795
  0
LINE
  8
0
 62
7
  6
CONTINUOUS
 10
362.6934101343
 20
31.1520331591
 11
362.6355978548
 21
31.3133515913
  0
LINE
  8
0
 62
7
  6
CONTINUOUS
 10
363.1559103548
 20
31.3456152777
 11
363.1559103548
 21
31.2810879048
  0
LINE
  8
0
 62
7
  6
CONTINUOUS
 10
363.1559103548
 20
30.8939236226
 11
363.1559103548
 21
30.7971325633
  0
LINE
  8
0
 62
7
  6
CONTINUOUS
 10
363.4342913921
 20
32.3100380288
 11
363.4342913921
 21
36.0805298321
  0
LINE
  8
0
 62
7
  6
CONTINUOUS
 10
363.4449727445
 20
30.7648688543
 11
363.4449727445
 21
30.8293962497
  0
LINE
  8
0
 62
7
  6
CONTINUOUS
 10
363.7621602445
 20
36.0805298321
 11
363.7621602445
 21
32.3100380288
  0
LINE
  8
0
 62
7
  6
CONTINUOUS
 10
360.5543476894
 20
30.7003414814
 11
360.6121602997
 21
30.8293962497
  0
LINE
  8
0
 62
7
  6
CONTINUOUS
 10
364.9480979651
 20
30.6035504109
 11
364.890285024
 21
30.7648688543
  0
LINE
  8
0
 62
7
  6
CONTINUOUS
 10
364.6012229651
 20
31.2810879048
 11
364.6012229651
 21
31.1842968456
  0
LINE
  8
0
 62
7
  6
CONTINUOUS
 10
364.6012229651
 20
31.0552420547
 11
364.6012229651
 21
30.8616599362
  0
LINE
  8
0
 62
7
  6
CONTINUOUS
 10
364.890285024
 20
30.7648688543
 11
364.890285024
 21
31.2810879048
  0
LINE
  8
0
 62
7
  6
CONTINUOUS
 10
365.1556028675
 20
32.3100380288
 11
365.1556028675
 21
34.1133167174
  0
LINE
  8
0
 62
7
  6
CONTINUOUS
 10
365.1556028675
 20
35.4247921272
 11
365.1556028675
 21
36.0805298321
  0
LINE
  8
0
 62
7
  6
CONTINUOUS
 10
365.4684104651
 20
32.0231527829
 11
365.4684104651
 21
31.8618343508
  0
LINE
  8
0
 62
7
  6
CONTINUOUS
 10
365.4684104651
 20
31.5391973962
 11
365.4684104651
 21
30.5067593403
  0
LINE
  8
0
 62
7
  6
CONTINUOUS
 10
365.757472524
 20
30.5067593403
 11
365.757472524
 21
31.5391973962
  0
LINE
  8
0
 62
7
  6
CONTINUOUS
 10
365.757472524
 20
31.8618343508
 11
365.757472524
 21
32.0231527829
  0
LINE
  8
0
 62
7
  6
CONTINUOUS
 10
360.3230977445
 20
30.8293962497
 11
360.2652852997
 21
30.7326051679
  0
LINE
  8
0
 62
7
  6
CONTINUOUS
 10
362.6355978548
 20
31.3133515913
 11
362.5777852445
 21
31.3778789641
  0
LINE
  8
0
 62
7
  6
CONTINUOUS
 10
363.5027853548
 20
30.7003414814
 11
363.4449727445
 21
30.7648688543
  0
LINE
  8
0
 62
7
  6
CONTINUOUS
 10
364.6590352445
 20
30.5712867188
 11
364.716847524
 21
30.5067593403
  0
LINE
  8
0
 62
7
  6
CONTINUOUS
 10
364.6012229651
 20
30.668077795
 11
364.6590352445
 21
30.5712867188
  0
LINE
  8
0
 62
7
  6
CONTINUOUS
 10
365.0059102445
 20
30.5067593403
 11
364.9480979651
 21
30.6035504109
  0
LINE
  8
0
 62
7
  6
CONTINUOUS
 10
364.890285024
 20
31.2810879048
 11
364.8324727445
 21
31.3778789641
  0
LINE
  8
0
 62
7
  6
CONTINUOUS
 10
366.2199727445
 20
31.5391973962
 11
366.2199727445
 21
30.5067593403
  0
LINE
  8
0
 62
7
  6
CONTINUOUS
 10
366.5090354651
 20
30.5067593403
 11
366.5090354651
 21
31.2488242184
  0
LINE
  8
0
 62
7
  6
CONTINUOUS
 10
366.5090354651
 20
31.3778789641
 11
366.5090354651
 21
31.5391973962
  0
LINE
  8
0
 62
7
  6
CONTINUOUS
 10
367.0408487691
 20
34.5231527829
 11
367.0408487691
 21
32.3100380288
  0
LINE
  8
0
 62
7
  6
CONTINUOUS
 10
358.9355977445
 20
31.3456152777
 11
358.8199727462
 21
31.216560532
  0
LINE
  8
0
 62
7
  6
CONTINUOUS
 10
359.1090352445
 20
31.1842968456
 11
359.1668477307
 21
31.2488242184
  0
LINE
  8
0
 62
7
  6
CONTINUOUS
 10
358.9355977445
 20
30.7003414814
 11
359.0512227376
 21
30.6358140973
  0
LINE
  8
0
 62
7
  6
CONTINUOUS
 10
359.3402852307
 20
30.7003414814
 11
359.1668477307
 21
30.7971325633
  0
LINE
  8
0
 62
7
  6
CONTINUOUS
 10
364.543410024
 20
31.3456152777
 11
364.6012229651
 21
31.2810879048
  0
LINE
  8
0
 62
7
  6
CONTINUOUS
 10
367.491847524
 20
31.2810879048
 11
367.5496604651
 21
31.1197694727
  0
LINE
  8
0
 62
7
  6
CONTINUOUS
 10
367.838722524
 20
31.1197694727
 11
367.7809102445
 21
31.2810879048
  0
LINE
  8
0
 62
7
  6
CONTINUOUS
 10
367.5496604651
 20
31.1197694727
 11
367.5496604651
 21
30.5067593403
  0
LINE
  8
0
 62
7
  6
CONTINUOUS
 10
367.838722524
 20
30.5067593403
 11
367.838722524
 21
31.1197694727
  0
LINE
  8
0
 62
7
  6
CONTINUOUS
 10
368.3012227445
 20
31.3456152777
 11
368.3012227445
 21
31.2810879048
  0
LINE
  8
0
 62
7
  6
CONTINUOUS
 10
368.4342913921
 20
32.3100380288
 11
368.4342913921
 21
34.4411855698
  0
LINE
  8
0
 62
7
  6
CONTINUOUS
 10
368.7621602445
 20
36.0805298321
 11
368.7621602445
 21
32.3100380288
  0
LINE
  8
0
 62
7
  6
CONTINUOUS
 10
363.4449727445
 20
30.8293962497
 11
363.5027853548
 21
30.926187309
  0
LINE
  8
0
 62
7
  6
CONTINUOUS
 10
359.0512227376
 20
30.6358140973
 11
359.2246602583
 21
30.5712867188
  0
LINE
  8
0
 62
7
  6
CONTINUOUS
 10
360.5543476894
 20
31.3456152777
 11
360.3809101894
 21
31.4424063369
  0
LINE
  8
0
 62
7
  6
CONTINUOUS
 10
363.2137226343
 20
30.668077795
 11
363.3871601343
 21
30.5712867188
  0
LINE
  8
0
 62
7
  6
CONTINUOUS
 10
362.2309102445
 20
31.3456152777
 11
362.3465351343
 21
31.2810879048
  0
LINE
  8
0
 62
7
  6
CONTINUOUS
 10
362.5777852445
 20
31.3778789641
 11
362.4621603548
 21
31.4424063369
  0
LINE
  8
0
 62
7
  6
CONTINUOUS
 10
368.3012227445
 20
30.7648688543
 11
368.4168479651
 21
30.6358140973
  0
LINE
  8
0
 62
7
  6
CONTINUOUS
 10
368.6480977445
 20
30.7003414814
 11
368.5902854651
 21
30.7648688543
  0
LINE
  8
0
 62
7
  6
CONTINUOUS
 10
368.3012227445
 20
31.2810879048
 11
368.4168479651
 21
31.1520331591
  0
LINE
  8
0
 62
7
  6
CONTINUOUS
 10
367.7809102445
 20
31.2810879048
 11
367.7230979651
 21
31.3778789641
  0
LINE
  8
0
 62
7
  6
CONTINUOUS
 10
370.1512223035
 20
30.7003414814
 11
370.1512223035
 21
30.7648688543
  0
LINE
  8
0
 62
7
  6
CONTINUOUS
 10
370.1556028675
 20
32.3100380288
 11
370.1556028675
 21
36.0805298321
  0
LINE
  8
0
 62
7
  6
CONTINUOUS
 10
363.2137226343
 20
31.4101426505
 11
363.1559103548
 21
31.3456152777
  0
LINE
  8
0
 62
7
  6
CONTINUOUS
 10
360.091847717
 20
31.3778789641
 11
360.2652852997
 21
31.3133515913
  0
LINE
  8
0
 62
7
  6
CONTINUOUS
 10
364.8324727445
 20
31.3778789641
 11
364.716847524
 21
31.4424063369
  0
LINE
  8
0
 62
7
  6
CONTINUOUS
 10
368.6480977445
 20
31.216560532
 11
368.5902854651
 21
31.2810879048
  0
LINE
  8
0
 62
7
  6
CONTINUOUS
 10
369.8043479651
 20
30.8293962497
 11
369.8621602445
 21
30.7648688543
  0
LINE
  8
0
 62
7
  6
CONTINUOUS
 10
370.1512223035
 20
30.7648688543
 11
370.0355977445
 21
30.8939236226
  0
LINE
  8
0
 62
7
  6
CONTINUOUS
 10
369.8043479651
 20
31.3456152777
 11
369.8621602445
 21
31.2810879048
  0
LINE
  8
0
 62
7
  6
CONTINUOUS
 10
370.1512223035
 20
31.2810879048
 11
370.0355977445
 21
31.4101426505
  0
LINE
  8
0
 62
7
  6
CONTINUOUS
 10
363.4449727445
 20
31.2810879048
 11
363.5027853548
 21
31.3456152777
  0
LINE
  8
0
 62
7
  6
CONTINUOUS
 10
363.2715352445
 20
31.0229783683
 11
363.1559103548
 21
30.8939236226
  0
LINE
  8
0
 62
7
  6
CONTINUOUS
 10
364.6012229651
 20
30.8616599362
 11
364.543410024
 21
30.7971325633
  0
LINE
  8
0
 62
7
  6
CONTINUOUS
 10
364.543410024
 20
30.6035504109
 11
364.6012229651
 21
30.668077795
  0
LINE
  8
0
 62
7
  6
CONTINUOUS
 10
363.3871601343
 20
30.5712867188
 11
363.5027853548
 21
30.5390230296
  0
LINE
  8
0
 62
7
  6
CONTINUOUS
 10
360.3809101894
 20
31.4424063369
 11
360.1496602445
 21
31.5069337098
  0
LINE
  8
0
 62
7
  6
CONTINUOUS
 10
363.7340351343
 20
30.6358140973
 11
363.5027853548
 21
30.7003414814
  0
LINE
  8
0
 62
7
  6
CONTINUOUS
 10
362.4621603548
 20
31.4424063369
 11
362.2887228548
 21
31.5069337098
  0
LINE
  8
0
 62
7
  6
CONTINUOUS
 10
364.716847524
 20
31.4424063369
 11
364.543410024
 21
31.5069337098
  0
LINE
  8
0
 62
7
  6
CONTINUOUS
 10
367.3762229651
 20
31.3456152777
 11
367.491847524
 21
31.2810879048
  0
LINE
  8
0
 62
7
  6
CONTINUOUS
 10
367.7230979651
 20
31.3778789641
 11
367.6074727445
 21
31.4424063369
  0
LINE
  8
0
 62
7
  6
CONTINUOUS
 10
359.2246602583
 20
30.5712867188
 11
359.3980977583
 21
30.5390230296
  0
LINE
  8
0
 62
7
  6
CONTINUOUS
 10
359.6871602721
 20
30.6358140973
 11
359.3402852307
 21
30.7003414814
  0
LINE
  8
0
 62
7
  6
CONTINUOUS
 10
362.1152853548
 20
31.3778789641
 11
362.2309102445
 21
31.3456152777
  0
LINE
  8
0
 62
7
  6
CONTINUOUS
 10
364.4277854651
 20
31.3778789641
 11
364.543410024
 21
31.3456152777
  0
LINE
  8
0
 62
7
  6
CONTINUOUS
 10
368.7637229651
 20
30.668077795
 11
368.6480977445
 21
30.7003414814
  0
LINE
  8
0
 62
7
  6
CONTINUOUS
 10
367.2605977445
 20
31.3778789641
 11
367.3762229651
 21
31.3456152777
  0
LINE
  8
0
 62
7
  6
CONTINUOUS
 10
368.4168479651
 20
30.6358140973
 11
368.5902854651
 21
30.5712867188
  0
LINE
  8
0
 62
7
  6
CONTINUOUS
 10
367.6074727445
 20
31.4424063369
 11
367.4340352445
 21
31.5069337098
  0
LINE
  8
0
 62
7
  6
CONTINUOUS
 10
368.8215352445
 20
31.1520331591
 11
368.6480977445
 21
31.216560532
  0
LINE
  8
0
 62
7
  6
CONTINUOUS
 10
369.6309104651
 20
30.8939236226
 11
369.8043479651
 21
30.8293962497
  0
LINE
  8
0
 62
7
  6
CONTINUOUS
 10
370.0355977445
 20
31.4101426505
 11
369.8621602445
 21
31.4746700234
  0
LINE
  8
0
 62
7
  6
CONTINUOUS
 10
368.4168479651
 20
31.1520331591
 11
368.6480977445
 21
31.0552420547
  0
LINE
  8
0
 62
7
  6
CONTINUOUS
 10
370.0355977445
 20
30.8939236226
 11
369.8043479651
 21
30.9907146818
  0
LINE
  8
0
 62
7
  6
CONTINUOUS
 10
368.5902854651
 20
31.2810879048
 11
368.6480977445
 21
31.3456152777
  0
LINE
  8
0
 62
7
  6
CONTINUOUS
 10
359.0512227376
 20
31.4101426505
 11
358.9355977445
 21
31.3456152777
  0
LINE
  8
0
 62
7
  6
CONTINUOUS
 10
359.1668477307
 20
31.2488242184
 11
359.3402852307
 21
31.3456152777
  0
LINE
  8
0
 62
7
  6
CONTINUOUS
 10
361.4793477997
 20
31.4424063369
 11
361.3637227445
 21
31.3778789641
  0
LINE
  8
0
 62
7
  6
CONTINUOUS
 10
361.3637227445
 20
31.2488242184
 11
361.4793477997
 21
31.3133515913
  0
LINE
  8
0
 62
7
  6
CONTINUOUS
 10
360.3809101894
 20
30.6035504109
 11
360.5543476894
 21
30.7003414814
  0
LINE
  8
0
 62
7
  6
CONTINUOUS
 10
359.3980977583
 20
30.5390230296
 11
359.744972717
 21
30.5067593403
  0
LINE
  8
0
 62
7
  6
CONTINUOUS
 10
363.5027853548
 20
30.5390230296
 11
363.7340351343
 21
30.5067593403
  0
LINE
  8
0
 62
7
  6
CONTINUOUS
 10
361.8840352445
 20
31.4101426505
 11
362.1152853548
 21
31.3778789641
  0
LINE
  8
0
 62
7
  6
CONTINUOUS
 10
364.1965353548
 20
31.4101426505
 11
364.4277854651
 21
31.3778789641
  0
LINE
  8
0
 62
7
  6
CONTINUOUS
 10
368.6480977445
 20
31.0552420547
 11
369.6309104651
 21
30.8939236226
  0
LINE
  8
0
 62
7
  6
CONTINUOUS
 10
369.8043479651
 20
30.9907146818
 11
368.8215352445
 21
31.1520331591
  0
LINE
  8
0
 62
7
  6
CONTINUOUS
 10
362.2887228548
 20
31.5069337098
 11
362.1152853548
 21
31.5391973962
  0
LINE
  8
0
 62
7
  6
CONTINUOUS
 10
368.5902854651
 20
30.5712867188
 11
368.7637229651
 21
30.5390230296
  0
LINE
  8
0
 62
7
  6
CONTINUOUS
 10
367.4340352445
 20
31.5069337098
 11
367.2605977445
 21
31.5391973962
  0
LINE
  8
0
 62
7
  6
CONTINUOUS
 10
369.6887227445
 20
31.3778789641
 11
369.8043479651
 21
31.3456152777
  0
LINE
  8
0
 62
7
  6
CONTINUOUS
 10
369.8621602445
 20
30.7648688543
 11
369.8043479651
 21
30.7003414814
  0
LINE
  8
0
 62
7
  6
CONTINUOUS
 10
368.4168479651
 20
31.4424063369
 11
368.3012227445
 21
31.3456152777
  0
LINE
  8
0
 62
7
  6
CONTINUOUS
 10
363.3293478548
 20
31.4746700234
 11
363.2137226343
 21
31.4101426505
  0
LINE
  8
0
 62
7
  6
CONTINUOUS
 10
363.3871601343
 20
31.0875057863
 11
363.2715352445
 21
31.0229783683
  0
LINE
  8
0
 62
7
  6
CONTINUOUS
 10
363.5027853548
 20
30.926187309
 11
363.6184102445
 21
30.9907146818
  0
LINE
  8
0
 62
7
  6
CONTINUOUS
 10
361.0746601894
 20
30.5067593403
 11
361.3637227445
 21
30.5067593403
  0
LINE
  8
0
 62
7
  6
CONTINUOUS
 10
362.4043477445
 20
30.5067593403
 11
362.6934101343
 21
30.5067593403
  0
LINE
  8
0
 62
7
  6
CONTINUOUS
 10
363.7340351343
 20
30.5067593403
 11
364.0809101343
 21
30.5067593403
  0
LINE
  8
0
 62
7
  6
CONTINUOUS
 10
364.716847524
 20
30.5067593403
 11
365.0059102445
 21
30.5067593403
  0
LINE
  8
0
 62
7
  6
CONTINUOUS
 10
365.4684104651
 20
30.5067593403
 11
365.757472524
 21
30.5067593403
  0
LINE
  8
0
 62
7
  6
CONTINUOUS
 10
366.2199727445
 20
30.5067593403
 11
366.5090354651
 21
30.5067593403
  0
LINE
  8
0
 62
7
  6
CONTINUOUS
 10
367.5496604651
 20
30.5067593403
 11
367.838722524
 21
30.5067593403
  0
LINE
  8
0
 62
7
  6
CONTINUOUS
 10
369.1105979651
 20
30.5067593403
 11
369.4574729651
 21
30.5067593403
  0
LINE
  8
0
 62
7
  6
CONTINUOUS
 10
369.4574729651
 20
30.6358140973
 11
369.1105979651
 21
30.6358140973
  0
LINE
  8
0
 62
7
  6
CONTINUOUS
 10
364.0809101343
 20
30.6358140973
 11
363.7340351343
 21
30.6358140973
  0
LINE
  8
0
 62
7
  6
CONTINUOUS
 10
368.5902854651
 20
30.7648688543
 11
368.3012227445
 21
30.7648688543
  0
LINE
  8
0
 62
7
  6
CONTINUOUS
 10
360.6121602997
 20
30.8293962497
 11
360.3230977445
 21
30.8293962497
  0
LINE
  8
0
 62
7
  6
CONTINUOUS
 10
359.6871602721
 20
31.4101426505
 11
360.091847717
 21
31.3778789641
  0
LINE
  8
0
 62
7
  6
CONTINUOUS
 10
360.1496602445
 20
31.5069337098
 11
359.744972717
 21
31.5391973962
  0
LINE
  8
0
 62
7
  6
CONTINUOUS
 10
368.7637229651
 20
30.5390230296
 11
369.1105979651
 21
30.5067593403
  0
LINE
  8
0
 62
7
  6
CONTINUOUS
 10
369.1105979651
 20
30.6358140973
 11
368.7637229651
 21
30.668077795
  0
LINE
  8
0
 62
7
  6
CONTINUOUS
 10
364.543410024
 20
31.5069337098
 11
364.1965353548
 21
31.5391973962
  0
LINE
  8
0
 62
7
  6
CONTINUOUS
 10
369.3418477445
 20
31.4101426505
 11
369.6887227445
 21
31.3778789641
  0
LINE
  8
0
 62
7
  6
CONTINUOUS
 10
369.6887227445
 20
31.5069337098
 11
369.3418477445
 21
31.5391973962
  0
LINE
  8
0
 62
7
  6
CONTINUOUS
 10
367.0293479651
 20
31.4101426505
 11
367.2605977445
 21
31.3778789641
  0
LINE
  8
0
 62
7
  6
CONTINUOUS
 10
369.8621602445
 20
31.4746700234
 11
369.6887227445
 21
31.5069337098
  0
LINE
  8
0
 62
7
  6
CONTINUOUS
 10
370.0355977445
 20
30.6035504109
 11
370.1512223035
 21
30.7003414814
  0
LINE
  8
0
 62
7
  6
CONTINUOUS
 10
364.543410024
 20
30.7971325633
 11
364.369972524
 21
30.7003414814
  0
LINE
  8
0
 62
7
  6
CONTINUOUS
 10
366.624660024
 20
31.4424063369
 11
366.5090354651
 21
31.3778789641
  0
LINE
  8
0
 62
7
  6
CONTINUOUS
 10
366.5090354651
 20
31.2488242184
 11
366.624660024
 21
31.3133515913
  0
LINE
  8
0
 62
7
  6
CONTINUOUS
 10
359.2246602583
 20
31.4746700234
 11
359.0512227376
 21
31.4101426505
  0
LINE
  8
0
 62
7
  6
CONTINUOUS
 10
361.6527851343
 20
31.5069337098
 11
361.4793477997
 21
31.4424063369
  0
LINE
  8
0
 62
7
  6
CONTINUOUS
 10
361.4793477997
 20
31.3133515913
 11
361.6527851343
 21
31.3778789641
  0
LINE
  8
0
 62
7
  6
CONTINUOUS
 10
360.2652852997
 20
30.7326051679
 11
360.091847717
 21
30.668077795
  0
LINE
  8
0
 62
7
  6
CONTINUOUS
 10
369.6887227445
 20
30.668077795
 11
369.4574729651
 21
30.6358140973
  0
LINE
  8
0
 62
7
  6
CONTINUOUS
 10
364.0809101343
 20
30.5067593403
 11
364.369972524
 21
30.5390230296
  0
LINE
  8
0
 62
7
  6
CONTINUOUS
 10
369.4574729651
 20
30.5067593403
 11
369.8043479651
 21
30.5390230296
  0
LINE
  8
0
 62
7
  6
CONTINUOUS
 10
359.744972717
 20
30.5067593403
 11
360.1496602445
 21
30.5390230296
  0
LINE
  8
0
 62
7
  6
CONTINUOUS
 10
360.091847717
 20
30.668077795
 11
359.6871602721
 21
30.6358140973
  0
LINE
  8
0
 62
7
  6
CONTINUOUS
 10
363.9652852445
 20
31.0552420547
 11
364.6012229651
 21
31.0552420547
  0
LINE
  8
0
 62
7
  6
CONTINUOUS
 10
364.6012229651
 20
31.1842968456
 11
363.9652852445
 21
31.1842968456
  0
LINE
  8
0
 62
7
  6
CONTINUOUS
 10
360.3230977445
 20
31.216560532
 11
360.6121602997
 21
31.216560532
  0
LINE
  8
0
 62
7
  6
CONTINUOUS
 10
363.1559103548
 20
31.2810879048
 11
363.4449727445
 21
31.2810879048
  0
LINE
  8
0
 62
7
  6
CONTINUOUS
 10
369.8621602445
 20
31.2810879048
 11
370.1512223035
 21
31.2810879048
  0
LINE
  8
0
 62
7
  6
CONTINUOUS
 10
363.8496603548
 20
31.4101426505
 11
364.1965353548
 21
31.4101426505
  0
LINE
  8
0
 62
7
  6
CONTINUOUS
 10
368.9949727445
 20
31.4101426505
 11
369.3418477445
 21
31.4101426505
  0
LINE
  8
0
 62
7
  6
CONTINUOUS
 10
369.3418477445
 20
31.5391973962
 11
368.9949727445
 21
31.5391973962
  0
LINE
  8
0
 62
7
  6
CONTINUOUS
 10
367.2605977445
 20
31.5391973962
 11
367.0293479651
 21
31.5391973962
  0
LINE
  8
0
 62
7
  6
CONTINUOUS
 10
366.5090354651
 20
31.5391973962
 11
366.2199727445
 21
31.5391973962
  0
LINE
  8
0
 62
7
  6
CONTINUOUS
 10
365.757472524
 20
31.5391973962
 11
365.4684104651
 21
31.5391973962
  0
LINE
  8
0
 62
7
  6
CONTINUOUS
 10
364.1965353548
 20
31.5391973962
 11
363.8496603548
 21
31.5391973962
  0
LINE
  8
0
 62
7
  6
CONTINUOUS
 10
362.1152853548
 20
31.5391973962
 11
361.8840352445
 21
31.5391973962
  0
LINE
  8
0
 62
7
  6
CONTINUOUS
 10
365.4684104651
 20
31.8618343508
 11
365.757472524
 21
31.8618343508
  0
LINE
  8
0
 62
7
  6
CONTINUOUS
 10
365.757472524
 20
32.0231527829
 11
365.4684104651
 21
32.0231527829
  0
LINE
  8
0
 62
7
  6
CONTINUOUS
 10
361.3637227445
 20
32.0231527829
 11
361.0746601894
 21
32.0231527829
  0
LINE
  8
0
 62
7
  6
CONTINUOUS
 10
360.4015045068
 20
32.3100380288
 11
360.8140758554
 21
32.3100380288
  0
LINE
  8
0
 62
7
  6
CONTINUOUS
 10
362.0408487691
 20
32.3100380288
 11
363.4342913921
 21
32.3100380288
  0
LINE
  8
0
 62
7
  6
CONTINUOUS
 10
363.7621602445
 20
32.3100380288
 11
365.1556028675
 21
32.3100380288
  0
LINE
  8
0
 62
7
  6
CONTINUOUS
 10
367.0408487691
 20
32.3100380288
 11
368.4342913921
 21
32.3100380288
  0
LINE
  8
0
 62
7
  6
CONTINUOUS
 10
368.7621602445
 20
32.3100380288
 11
370.1556028675
 21
32.3100380288
  0
LINE
  8
0
 62
7
  6
CONTINUOUS
 10
366.798097524
 20
31.5069337098
 11
366.624660024
 21
31.4424063369
  0
LINE
  8
0
 62
7
  6
CONTINUOUS
 10
364.369972524
 20
30.5390230296
 11
364.543410024
 21
30.6035504109
  0
LINE
  8
0
 62
7
  6
CONTINUOUS
 10
369.8043479651
 20
30.5390230296
 11
370.0355977445
 21
30.6035504109
  0
LINE
  8
0
 62
7
  6
CONTINUOUS
 10
369.8043479651
 20
30.7003414814
 11
369.6887227445
 21
30.668077795
  0
LINE
  8
0
 62
7
  6
CONTINUOUS
 10
368.7637229651
 20
31.3778789641
 11
368.9949727445
 21
31.4101426505
  0
LINE
  8
0
 62
7
  6
CONTINUOUS
 10
366.798097524
 20
31.3778789641
 11
367.0293479651
 21
31.4101426505
  0
LINE
  8
0
 62
7
  6
CONTINUOUS
 10
363.7340351343
 20
31.0229783683
 11
363.9652852445
 21
31.0552420547
  0
LINE
  8
0
 62
7
  6
CONTINUOUS
 10
367.0293479651
 20
31.5391973962
 11
366.798097524
 21
31.5069337098
  0
LINE
  8
0
 62
7
  6
CONTINUOUS
 10
363.6184102445
 20
31.3778789641
 11
363.8496603548
 21
31.4101426505
  0
LINE
  8
0
 62
7
  6
CONTINUOUS
 10
368.9949727445
 20
31.5391973962
 11
368.6480977445
 21
31.5069337098
  0
LINE
  8
0
 62
7
  6
CONTINUOUS
 10
363.9652852445
 20
31.1842968456
 11
363.6184102445
 21
31.1520331591
  0
LINE
  8
0
 62
7
  6
CONTINUOUS
 10
359.744972717
 20
31.5391973962
 11
359.3980977583
 21
31.5069337098
  0
LINE
  8
0
 62
7
  6
CONTINUOUS
 10
363.8496603548
 20
31.5391973962
 11
363.4449727445
 21
31.5069337098
  0
LINE
  8
0
 62
7
  6
CONTINUOUS
 10
361.221176638
 20
33.4575790124
 11
360.565438933
 21
33.4575790124
  0
LINE
  8
0
 62
7
  6
CONTINUOUS
 10
366.624660024
 20
31.3133515913
 11
366.798097524
 21
31.3778789641
  0
LINE
  8
0
 62
7
  6
CONTINUOUS
 10
368.6480977445
 20
31.3456152777
 11
368.7637229651
 21
31.3778789641
  0
LINE
  8
0
 62
7
  6
CONTINUOUS
 10
368.6480977445
 20
31.5069337098
 11
368.4168479651
 21
31.4424063369
  0
LINE
  8
0
 62
7
  6
CONTINUOUS
 10
364.369972524
 20
30.7003414814
 11
364.0809101343
 21
30.6358140973
  0
LINE
  8
0
 62
7
  6
CONTINUOUS
 10
361.6527851343
 20
31.3778789641
 11
361.8840352445
 21
31.4101426505
  0
LINE
  8
0
 62
7
  6
CONTINUOUS
 10
361.8840352445
 20
31.5391973962
 11
361.6527851343
 21
31.5069337098
  0
LINE
  8
0
 62
7
  6
CONTINUOUS
 10
359.4559102445
 20
31.3778789641
 11
359.6871602721
 21
31.4101426505
  0
LINE
  8
0
 62
7
  6
CONTINUOUS
 10
365.9752749986
 20
34.9329888485
 11
366.6310127035
 21
34.9329888485
  0
LINE
  8
0
 62
7
  6
CONTINUOUS
 10
363.6184102445
 20
30.9907146818
 11
363.7340351343
 21
31.0229783683
  0
LINE
  8
0
 62
7
  6
CONTINUOUS
 10
363.6184102445
 20
31.1520331591
 11
363.3871601343
 21
31.0875057863
  0
LINE
  8
0
 62
7
  6
CONTINUOUS
 10
363.5027853548
 20
31.3456152777
 11
363.6184102445
 21
31.3778789641
  0
LINE
  8
0
 62
7
  6
CONTINUOUS
 10
360.1496602445
 20
30.5390230296
 11
360.3809101894
 21
30.6035504109
  0
LINE
  8
0
 62
7
  6
CONTINUOUS
 10
363.4449727445
 20
31.5069337098
 11
363.3293478548
 21
31.4746700234
  0
LINE
  8
0
 62
7
  6
CONTINUOUS
 10
359.3980977583
 20
31.5069337098
 11
359.2246602583
 21
31.4746700234
  0
LINE
  8
0
 62
7
  6
CONTINUOUS
 10
370.1556028675
 20
36.0805298321
 11
368.7621602445
 21
36.0805298321
  0
LINE
  8
0
 62
7
  6
CONTINUOUS
 10
366.7949471298
 20
36.0805298321
 11
366.3823757812
 21
36.0805298321
  0
LINE
  8
0
 62
7
  6
CONTINUOUS
 10
365.1556028675
 20
36.0805298321
 11
363.7621602445
 21
36.0805298321
  0
LINE
  8
0
 62
7
  6
CONTINUOUS
 10
363.4342913921
 20
36.0805298321
 11
362.0408487691
 21
36.0805298321
  0
LINE
  8
0
 62
7
  6
CONTINUOUS
 10
360.1556028675
 20
36.0805298321
 11
358.7621602445
 21
36.0805298321
  0
LINE
  8
0
 62
7
  6
CONTINUOUS
 10
359.3402852307
 20
31.3456152777
 11
359.4559102445
 21
31.3778789641
  0
CIRCLE
  8
0
 62
7
  6
CONTINUOUS
 10
369.458881556
 20
38.4165954059
 40
2.0901639344
  0
ARC
  8
0
 62
7
  6
CONTINUOUS
 10
360.4015045068
 20
33.9493822911
 40
1.6393442623
 50
180.0
 51
270.0
  0
ARC
  8
0
 62
7
  6
CONTINUOUS
 10
366.7949471298
 20
34.4411855698
 40
1.6393442623
 50
0.0
 51
90.0
  0
ARC
  8
0
 62
7
  6
CONTINUOUS
 10
360.8140758554
 20
33.7854478649
 40
1.4754098361
 50
270.0
 51
326.2510114041
  0
ARC
  8
0
 62
7
  6
CONTINUOUS
 10
366.3823757812
 20
34.6051199961
 40
1.4754098361
 50
90.0
 51
146.2510114041
  0
ARC
  8
0
 62
7
  6
CONTINUOUS
 10
361.221176638
 20
34.2772511436
 40
0.8196721311
 50
270.0
 51
360.0
  0
ARC
  8
0
 62
7
  6
CONTINUOUS
 10
365.9752749986
 20
34.1133167174
 40
0.8196721311
 50
90.0
 51
180.0
  0
ARC
  8
0
 62
7
  6
CONTINUOUS
 10
360.565438933
 20
33.867415078
 40
0.4098360656
 50
180.0
 51
270.0
  0
ARC
  8
0
 62
7
  6
CONTINUOUS
 10
366.6310127035
 20
34.5231527829
 40
0.4098360656
 50
0.0
 51
90.0
  0
SOLID
  8
0
 62
7
  6
CONTINUOUS
 10
365.4684104651
 20
31.8618347111
 11
365.4684104651
 21
32.0231531947
 12
365.757472524
 22
31.8618347111
 13
365.757472524
 23
32.0231531947
  0
SOLID
  8
0
 62
7
  6
CONTINUOUS
 10
359.744972717
 20
31.5391977439
 11
360.1496602445
 21
31.5069333244
 12
359.3980977583
 22
31.5069333244
 13
359.3980977583
 23
31.5069333244
  0
SOLID
  8
0
 62
7
  6
CONTINUOUS
 10
359.2246602583
 20
31.4746706537
 11
359.3980977583
 21
31.5069333244
 12
360.1496602445
 22
31.5069333244
 13
360.1496602445
 23
31.5069333244
  0
SOLID
  8
0
 62
7
  6
CONTINUOUS
 10
360.1496602445
 20
31.5069333244
 11
360.3809101894
 21
31.4424063504
 12
359.2246602583
 22
31.4746706537
 13
359.2246602583
 23
31.4746706537
  0
SOLID
  8
0
 62
7
  6
CONTINUOUS
 10
359.0512227376
 20
31.4101419116
 11
359.2246602583
 21
31.4746706537
 12
360.3809101894
 22
31.4424063504
 13
360.3809101894
 23
31.4424063504
  0
SOLID
  8
0
 62
7
  6
CONTINUOUS
 10
359.0512227376
 20
31.4101419116
 11
360.3809101894
 21
31.4424063504
 12
359.6871602721
 22
31.4101419116
 13
359.6871602721
 23
31.4101419116
  0
SOLID
  8
0
 62
7
  6
CONTINUOUS
 10
359.6871602721
 20
31.4101419116
 11
360.3809101894
 21
31.4424063504
 12
360.091847717
 22
31.3778792603
 13
360.091847717
 23
31.3778792603
  0
SOLID
  8
0
 62
7
  6
CONTINUOUS
 10
360.3809101894
 20
31.4424063504
 11
360.5543476894
 21
31.345614957
 12
360.091847717
 22
31.3778792603
 13
360.091847717
 23
31.3778792603
  0
SOLID
  8
0
 62
7
  6
CONTINUOUS
 10
360.2652852997
 20
31.3133521701
 11
360.091847717
 21
31.3778792603
 12
360.5543476894
 22
31.345614957
 13
360.5543476894
 23
31.345614957
  0
SOLID
  8
0
 62
7
  6
CONTINUOUS
 10
360.2652852997
 20
31.3133521701
 11
360.5543476894
 21
31.345614957
 12
360.3230977445
 22
31.2165606992
 13
360.3230977445
 23
31.2165606992
  0
SOLID
  8
0
 62
7
  6
CONTINUOUS
 10
360.5543476894
 20
31.345614957
 11
360.6121602997
 21
31.2165606992
 12
360.3230977445
 22
31.2165606992
 13
360.3230977445
 23
31.2165606992
  0
SOLID
  8
0
 62
7
  6
CONTINUOUS
 10
361.6527851343
 20
31.5069329918
 11
361.8840352445
 21
31.5391972951
 12
362.1152853548
 22
31.5391972951
 13
362.1152853548
 23
31.5391972951
  0
SOLID
  8
0
 62
7
  6
CONTINUOUS
 10
362.1152853548
 20
31.5391972951
 11
362.2887228548
 21
31.5069329918
 12
361.6527851343
 22
31.5069329918
 13
361.6527851343
 23
31.5069329918
  0
SOLID
  8
0
 62
7
  6
CONTINUOUS
 10
361.4793477997
 20
31.4424059016
 11
361.6527851343
 21
31.5069329918
 12
362.2887228548
 22
31.5069329918
 13
362.2887228548
 23
31.5069329918
  0
SOLID
  8
0
 62
7
  6
CONTINUOUS
 10
362.2887228548
 20
31.5069329918
 11
362.4621603548
 21
31.4424059016
 12
361.4793477997
 22
31.4424059016
 13
361.4793477997
 23
31.4424059016
  0
SOLID
  8
0
 62
7
  6
CONTINUOUS
 10
362.4621603548
 20
31.4424059016
 11
361.8840352445
 21
31.4101420472
 12
361.4793477997
 22
31.4424059016
 13
361.4793477997
 23
31.4424059016
  0
SOLID
  8
0
 62
7
  6
CONTINUOUS
 10
361.3637227445
 20
31.3778788115
 11
361.4793477997
 21
31.4424059016
 12
361.8840352445
 22
31.4101420472
 13
361.8840352445
 23
31.4101420472
  0
SOLID
  8
0
 62
7
  6
CONTINUOUS
 10
361.8840352445
 20
31.4101420472
 11
361.6527851343
 21
31.3778788115
 12
361.3637227445
 22
31.3778788115
 13
361.3637227445
 23
31.3778788115
  0
SOLID
  8
0
 62
7
  6
CONTINUOUS
 10
361.8840352445
 20
31.4101420472
 11
362.4621603548
 21
31.4424059016
 12
362.1152853548
 22
31.3778788115
 13
362.1152853548
 23
31.3778788115
  0
SOLID
  8
0
 62
7
  6
CONTINUOUS
 10
362.4621603548
 20
31.4424059016
 11
362.5777852445
 21
31.3778788115
 12
362.1152853548
 22
31.3778788115
 13
362.1152853548
 23
31.3778788115
  0
SOLID
  8
0
 62
7
  6
CONTINUOUS
 10
362.2309102445
 20
31.345614957
 11
362.1152853548
 21
31.3778788115
 12
362.5777852445
 22
31.3778788115
 13
362.5777852445
 23
31.3778788115
  0
SOLID
  8
0
 62
7
  6
CONTINUOUS
 10
362.5777852445
 20
31.3778788115
 11
362.6355978548
 21
31.3133517213
 12
362.2309102445
 22
31.345614957
 13
362.2309102445
 23
31.345614957
  0
SOLID
  8
0
 62
7
  6
CONTINUOUS
 10
362.3465351343
 20
31.2810878668
 11
362.2309102445
 21
31.345614957
 12
362.6355978548
 22
31.3133517213
 13
362.6355978548
 23
31.3133517213
  0
SOLID
  8
0
 62
7
  6
CONTINUOUS
 10
362.3465351343
 20
31.2810878668
 11
362.6355978548
 21
31.3133517213
 12
362.4043477445
 22
31.1520332377
 13
362.4043477445
 23
31.1520332377
  0
SOLID
  8
0
 62
7
  6
CONTINUOUS
 10
362.6355978548
 20
31.3133517213
 11
362.6934101343
 21
31.1520332377
 12
362.4043477445
 22
31.1520332377
 13
362.4043477445
 23
31.1520332377
  0
SOLID
  8
0
 62
7
  6
CONTINUOUS
 10
361.6527851343
 20
31.3778788115
 11
361.4793477997
 21
31.3133517213
 12
361.3637227445
 22
31.3778788115
 13
361.3637227445
 23
31.3778788115
  0
SOLID
  8
0
 62
7
  6
CONTINUOUS
 10
361.4793477997
 20
31.3133517213
 11
361.3637227445
 21
31.2488235635
 12
361.3637227445
 22
31.3778788115
 13
361.3637227445
 23
31.3778788115
  0
SOLID
  8
0
 62
7
  6
CONTINUOUS
 10
361.3637227445
 20
31.2488235635
 11
361.0746601894
 21
30.5067593033
 12
361.3637227445
 22
31.3778788115
 13
361.3637227445
 23
31.3778788115
  0
SOLID
  8
0
 62
7
  6
CONTINUOUS
 10
361.3637227445
 20
31.3778788115
 11
361.0746601894
 21
30.5067593033
 12
361.3637227445
 22
32.0231527459
 13
361.3637227445
 23
32.0231527459
  0
SOLID
  8
0
 62
7
  6
CONTINUOUS
 10
361.0746601894
 20
30.5067593033
 11
361.0746601894
 21
32.0231527459
 12
361.3637227445
 22
32.0231527459
 13
361.3637227445
 23
32.0231527459
  0
SOLID
  8
0
 62
7
  6
CONTINUOUS
 10
361.3637227445
 20
31.2488235635
 11
361.3637227445
 21
30.5067593033
 12
361.0746601894
 22
30.5067593033
 13
361.0746601894
 23
30.5067593033
  0
SOLID
  8
0
 62
7
  6
CONTINUOUS
 10
362.4043477445
 20
30.5067593033
 11
362.4043477445
 21
31.1520332377
 12
362.6934101343
 22
31.1520332377
 13
362.6934101343
 23
31.1520332377
  0
SOLID
  8
0
 62
7
  6
CONTINUOUS
 10
362.6934101343
 20
31.1520332377
 11
362.6934101343
 21
30.5067593033
 12
362.4043477445
 22
30.5067593033
 13
362.4043477445
 23
30.5067593033
  0
SOLID
  8
0
 62
7
  6
CONTINUOUS
 10
363.4449727445
 20
31.506933758
 11
363.8496603548
 21
31.5391977507
 12
364.1965353548
 22
31.5391977507
 13
364.1965353548
 23
31.5391977507
  0
SOLID
  8
0
 62
7
  6
CONTINUOUS
 10
364.1965353548
 20
31.5391977507
 11
364.543410024
 21
31.506933758
 12
363.4449727445
 22
31.506933758
 13
363.4449727445
 23
31.506933758
  0
SOLID
  8
0
 62
7
  6
CONTINUOUS
 10
363.3293478548
 20
31.4746706537
 11
363.4449727445
 21
31.506933758
 12
364.543410024
 22
31.506933758
 13
364.543410024
 23
31.506933758
  0
SOLID
  8
0
 62
7
  6
CONTINUOUS
 10
364.543410024
 20
31.506933758
 11
364.716847524
 21
31.4424063504
 12
363.3293478548
 22
31.4746706537
 13
363.3293478548
 23
31.4746706537
  0
SOLID
  8
0
 62
7
  6
CONTINUOUS
 10
363.2137226343
 20
31.4101417797
 11
363.3293478548
 21
31.4746706537
 12
364.716847524
 22
31.4424063504
 13
364.716847524
 23
31.4424063504
  0
SOLID
  8
0
 62
7
  6
CONTINUOUS
 10
363.2137226343
 20
31.4101417797
 11
364.716847524
 21
31.4424063504
 12
363.8496603548
 22
31.4101417797
 13
363.8496603548
 23
31.4101417797
  0
SOLID
  8
0
 62
7
  6
CONTINUOUS
 10
363.8496603548
 20
31.4101417797
 11
364.716847524
 21
31.4424063504
 12
364.1965353548
 22
31.4101417797
 13
364.1965353548
 23
31.4101417797
  0
SOLID
  8
0
 62
7
  6
CONTINUOUS
 10
364.1965353548
 20
31.4101417797
 11
364.716847524
 21
31.4424063504
 12
364.4277854651
 22
31.3778793357
 13
364.4277854651
 23
31.3778793357
  0
SOLID
  8
0
 62
7
  6
CONTINUOUS
 10
364.716847524
 20
31.4424063504
 11
364.8324727445
 21
31.3778793357
 12
364.4277854651
 22
31.3778793357
 13
364.4277854651
 23
31.3778793357
  0
SOLID
  8
0
 62
7
  6
CONTINUOUS
 10
363.1559103548
 20
31.3456153429
 11
363.2137226343
 21
31.4101417797
 12
363.8496603548
 22
31.4101417797
 13
363.8496603548
 23
31.4101417797
  0
SOLID
  8
0
 62
7
  6
CONTINUOUS
 10
364.543410024
 20
31.3456153429
 11
364.4277854651
 21
31.3778793357
 12
364.8324727445
 22
31.3778793357
 13
364.8324727445
 23
31.3778793357
  0
SOLID
  8
0
 62
7
  6
CONTINUOUS
 10
364.543410024
 20
31.3456153429
 11
364.8324727445
 21
31.3778793357
 12
364.6012229651
 22
31.2810881318
 13
364.6012229651
 23
31.2810881318
  0
SOLID
  8
0
 62
7
  6
CONTINUOUS
 10
364.8324727445
 20
31.3778793357
 11
364.890285024
 21
31.2810881318
 12
364.6012229651
 22
31.2810881318
 13
364.6012229651
 23
31.2810881318
  0
SOLID
  8
0
 62
7
  6
CONTINUOUS
 10
364.6012229651
 20
31.1842964734
 11
364.6012229651
 21
31.2810881318
 12
364.890285024
 22
31.2810881318
 13
364.890285024
 23
31.2810881318
  0
SOLID
  8
0
 62
7
  6
CONTINUOUS
 10
364.6012229651
 20
31.1842964734
 11
364.890285024
 21
31.2810881318
 12
364.6012229651
 22
31.0552422931
 13
364.6012229651
 23
31.0552422931
  0
SOLID
  8
0
 62
7
  6
CONTINUOUS
 10
364.6012229651
 20
31.0552422931
 11
364.890285024
 21
31.2810881318
 12
364.6012229651
 22
30.8616599362
 13
364.6012229651
 23
30.8616599362
  0
SOLID
  8
0
 62
7
  6
CONTINUOUS
 10
364.890285024
 20
31.2810881318
 11
364.890285024
 21
30.7648681127
 12
364.6012229651
 22
30.8616599362
 13
364.6012229651
 23
30.8616599362
  0
SOLID
  8
0
 62
7
  6
CONTINUOUS
 10
366.798097524
 20
31.5069339419
 11
367.0293479651
 21
31.5391976292
 12
367.2605977445
 22
31.5391976292
 13
367.2605977445
 23
31.5391976292
  0
SOLID
  8
0
 62
7
  6
CONTINUOUS
 10
367.2605977445
 20
31.5391976292
 11
367.4340352445
 21
31.5069339419
 12
366.798097524
 22
31.5069339419
 13
366.798097524
 23
31.5069339419
  0
SOLID
  8
0
 62
7
  6
CONTINUOUS
 10
366.624660024
 20
31.4424065674
 11
366.798097524
 21
31.5069339419
 12
367.4340352445
 22
31.5069339419
 13
367.4340352445
 23
31.5069339419
  0
SOLID
  8
0
 62
7
  6
CONTINUOUS
 10
367.4340352445
 20
31.5069339419
 11
367.6074727445
 21
31.4424065674
 12
366.624660024
 22
31.4424065674
 13
366.624660024
 23
31.4424065674
  0
SOLID
  8
0
 62
7
  6
CONTINUOUS
 10
367.6074727445
 20
31.4424065674
 11
367.0293479651
 21
31.4101420472
 12
366.624660024
 22
31.4424065674
 13
366.624660024
 23
31.4424065674
  0
SOLID
  8
0
 62
7
  6
CONTINUOUS
 10
366.5090354651
 20
31.377879193
 11
366.624660024
 21
31.4424065674
 12
367.0293479651
 22
31.4101420472
 13
367.0293479651
 23
31.4101420472
  0
SOLID
  8
0
 62
7
  6
CONTINUOUS
 10
367.0293479651
 20
31.4101420472
 11
366.798097524
 21
31.377879193
 12
366.5090354651
 22
31.377879193
 13
366.5090354651
 23
31.377879193
  0
SOLID
  8
0
 62
7
  6
CONTINUOUS
 10
367.0293479651
 20
31.4101420472
 11
367.6074727445
 21
31.4424065674
 12
367.2605977445
 22
31.377879193
 13
367.2605977445
 23
31.377879193
  0
SOLID
  8
0
 62
7
  6
CONTINUOUS
 10
367.6074727445
 20
31.4424065674
 11
367.7230979651
 21
31.377879193
 12
367.2605977445
 22
31.377879193
 13
367.2605977445
 23
31.377879193
  0
SOLID
  8
0
 62
7
  6
CONTINUOUS
 10
367.3762229651
 20
31.345614957
 11
367.2605977445
 21
31.377879193
 12
367.7230979651
 22
31.377879193
 13
367.7230979651
 23
31.377879193
  0
SOLID
  8
0
 62
7
  6
CONTINUOUS
 10
367.3762229651
 20
31.345614957
 11
367.7230979651
 21
31.377879193
 12
367.491847524
 22
31.2810881312
 13
367.491847524
 23
31.2810881312
  0
SOLID
  8
0
 62
7
  6
CONTINUOUS
 10
367.7230979651
 20
31.377879193
 11
367.7809102445
 21
31.2810881312
 12
367.491847524
 22
31.2810881312
 13
367.491847524
 23
31.2810881312
  0
SOLID
  8
0
 62
7
  6
CONTINUOUS
 10
367.5496604651
 20
31.119769695
 11
367.491847524
 21
31.2810881312
 12
367.7809102445
 22
31.2810881312
 13
367.7809102445
 23
31.2810881312
  0
SOLID
  8
0
 62
7
  6
CONTINUOUS
 10
367.7809102445
 20
31.2810881312
 11
367.838722524
 21
31.119769695
 12
367.5496604651
 22
31.119769695
 13
367.5496604651
 23
31.119769695
  0
SOLID
  8
0
 62
7
  6
CONTINUOUS
 10
366.798097524
 20
31.377879193
 11
366.624660024
 21
31.3133521701
 12
366.5090354651
 22
31.377879193
 13
366.5090354651
 23
31.377879193
  0
SOLID
  8
0
 62
7
  6
CONTINUOUS
 10
366.624660024
 20
31.3133521701
 11
366.5090354651
 21
31.2488235635
 12
366.5090354651
 22
31.377879193
 13
366.5090354651
 23
31.377879193
  0
SOLID
  8
0
 62
7
  6
CONTINUOUS
 10
366.5090354651
 20
31.2488235635
 11
366.2199727445
 21
30.5067596374
 12
366.5090354651
 22
31.377879193
 13
366.5090354651
 23
31.377879193
  0
SOLID
  8
0
 62
7
  6
CONTINUOUS
 10
366.5090354651
 20
31.377879193
 11
366.2199727445
 21
30.5067596374
 12
366.5090354651
 22
31.5391976292
 13
366.5090354651
 23
31.5391976292
  0
SOLID
  8
0
 62
7
  6
CONTINUOUS
 10
366.2199727445
 20
30.5067596374
 11
366.2199727445
 21
31.5391976292
 12
366.5090354651
 22
31.5391976292
 13
366.5090354651
 23
31.5391976292
  0
SOLID
  8
0
 62
7
  6
CONTINUOUS
 10
366.5090354651
 20
31.2488235635
 11
366.5090354651
 21
30.5067596374
 12
366.2199727445
 22
30.5067596374
 13
366.2199727445
 23
30.5067596374
  0
SOLID
  8
0
 62
7
  6
CONTINUOUS
 10
367.5496604651
 20
30.5067596374
 11
367.5496604651
 21
31.119769695
 12
367.838722524
 22
31.119769695
 13
367.838722524
 23
31.119769695
  0
SOLID
  8
0
 62
7
  6
CONTINUOUS
 10
367.838722524
 20
31.119769695
 11
367.838722524
 21
30.5067596374
 12
367.5496604651
 22
30.5067596374
 13
367.5496604651
 23
30.5067596374
  0
SOLID
  8
0
 62
7
  6
CONTINUOUS
 10
368.6480977445
 20
31.5069334157
 11
368.9949727445
 21
31.539197762
 12
369.3418477445
 22
31.539197762
 13
369.3418477445
 23
31.539197762
  0
SOLID
  8
0
 62
7
  6
CONTINUOUS
 10
369.3418477445
 20
31.539197762
 11
369.6887227445
 21
31.5069334157
 12
368.6480977445
 22
31.5069334157
 13
368.6480977445
 23
31.5069334157
  0
SOLID
  8
0
 62
7
  6
CONTINUOUS
 10
368.4168479651
 20
31.4424063504
 11
368.6480977445
 21
31.5069334157
 12
369.6887227445
 22
31.5069334157
 13
369.6887227445
 23
31.5069334157
  0
SOLID
  8
0
 62
7
  6
CONTINUOUS
 10
368.4168479651
 20
31.4424063504
 11
369.6887227445
 21
31.5069334406
 12
369.8621602445
 22
31.4746706537
 13
369.8621602445
 23
31.4746706537
  0
SOLID
  8
0
 62
7
  6
CONTINUOUS
 10
368.4168479651
 20
31.4424063504
 11
369.8621602445
 21
31.4746706537
 12
368.9949727445
 22
31.4101421267
 13
368.9949727445
 23
31.4101421267
  0
SOLID
  8
0
 62
7
  6
CONTINUOUS
 10
368.9949727445
 20
31.4101421267
 11
369.8621602445
 21
31.4746706537
 12
369.3418477445
 22
31.4101421267
 13
369.3418477445
 23
31.4101421267
  0
SOLID
  8
0
 62
7
  6
CONTINUOUS
 10
369.8621602445
 20
31.4746706537
 11
370.0355977445
 21
31.4101421267
 12
369.3418477445
 22
31.4101421267
 13
369.3418477445
 23
31.4101421267
  0
SOLID
  8
0
 62
7
  6
CONTINUOUS
 10
369.6887227445
 20
31.3778792603
 11
369.3418477445
 21
31.4101421267
 12
370.0355977445
 22
31.4101421267
 13
370.0355977445
 23
31.4101421267
  0
SOLID
  8
0
 62
7
  6
CONTINUOUS
 10
368.3012227445
 20
31.3456148845
 11
368.4168479651
 21
31.4424063504
 12
368.9949727445
 22
31.4101421267
 13
368.9949727445
 23
31.4101421267
  0
SOLID
  8
0
 62
7
  6
CONTINUOUS
 10
369.6887227445
 20
31.3778792603
 11
370.0355977445
 21
31.4101421267
 12
369.8043479651
 22
31.3456148845
 13
369.8043479651
 23
31.3456148845
  0
SOLID
  8
0
 62
7
  6
CONTINUOUS
 10
369.8043479651
 20
31.3456148845
 11
370.0355977445
 21
31.4101421267
 12
369.8621602445
 22
31.281087868
 13
369.8621602445
 23
31.281087868
  0
SOLID
  8
0
 62
7
  6
CONTINUOUS
 10
370.0355977445
 20
31.4101421267
 11
370.1512223035
 21
31.281087868
 12
369.8621602445
 22
31.281087868
 13
369.8621602445
 23
31.281087868
  0
SOLID
  8
0
 62
7
  6
CONTINUOUS
 10
359.4559102445
 20
31.3778792603
 11
358.9355977445
 21
31.3456148963
 12
359.6871602721
 22
31.4101421155
 13
359.6871602721
 23
31.4101421155
  0
SOLID
  8
0
 62
7
  6
CONTINUOUS
 10
358.9355977445
 20
31.3456148963
 11
359.0512227376
 21
31.4101421155
 12
359.6871602721
 22
31.4101421155
 13
359.6871602721
 23
31.4101421155
  0
SOLID
  8
0
 62
7
  6
CONTINUOUS
 10
359.4559102445
 20
31.3778792603
 11
359.3402852307
 21
31.3456148963
 12
358.9355977445
 22
31.3456148963
 13
358.9355977445
 23
31.3456148963
  0
SOLID
  8
0
 62
7
  6
CONTINUOUS
 10
358.8199727462
 20
31.2165607767
 11
358.9355977445
 21
31.3456148963
 12
359.3402852307
 22
31.3456148963
 13
359.3402852307
 23
31.3456148963
  0
SOLID
  8
0
 62
7
  6
CONTINUOUS
 10
363.1559103548
 20
31.3456149608
 11
363.8496603548
 21
31.4101420472
 12
363.6184102445
 22
31.3778792603
 13
363.6184102445
 23
31.3778792603
  0
SOLID
  8
0
 62
7
  6
CONTINUOUS
 10
363.6184102445
 20
31.3778792603
 11
363.5027853548
 21
31.3456149608
 12
363.1559103548
 22
31.3456149608
 13
363.1559103548
 23
31.3456149608
  0
SOLID
  8
0
 62
7
  6
CONTINUOUS
 10
363.1559103548
 20
31.2810878707
 11
363.1559103548
 21
31.3456149608
 12
363.5027853548
 22
31.3456149608
 13
363.5027853548
 23
31.3456149608
  0
SOLID
  8
0
 62
7
  6
CONTINUOUS
 10
363.5027853548
 20
31.3456149608
 11
363.4449727445
 21
31.2810878707
 12
363.1559103548
 22
31.2810878707
 13
363.1559103548
 23
31.2810878707
  0
SOLID
  8
0
 62
7
  6
CONTINUOUS
 10
368.3012227445
 20
31.3456149608
 11
368.9949727445
 21
31.4101420472
 12
368.7637229651
 22
31.3778792603
 13
368.7637229651
 23
31.3778792603
  0
SOLID
  8
0
 62
7
  6
CONTINUOUS
 10
368.7637229651
 20
31.3778792603
 11
368.6480977445
 21
31.3456149608
 12
368.3012227445
 22
31.3456149608
 13
368.3012227445
 23
31.3456149608
  0
SOLID
  8
0
 62
7
  6
CONTINUOUS
 10
368.3012227445
 20
31.2810878707
 11
368.3012227445
 21
31.3456149608
 12
368.6480977445
 22
31.3456149608
 13
368.6480977445
 23
31.3456149608
  0
SOLID
  8
0
 62
7
  6
CONTINUOUS
 10
368.6480977445
 20
31.3456149608
 11
368.5902854651
 21
31.2810878707
 12
368.3012227445
 22
31.2810878707
 13
368.3012227445
 23
31.2810878707
  0
SOLID
  8
0
 62
7
  6
CONTINUOUS
 10
368.4168479651
 20
31.1520336865
 11
368.3012227445
 21
31.2810878707
 12
368.5902854651
 22
31.2810878707
 13
368.5902854651
 23
31.2810878707
  0
SOLID
  8
0
 62
7
  6
CONTINUOUS
 10
358.8199727462
 20
31.2165607767
 11
359.3402852307
 21
31.345614957
 12
359.1668477307
 22
31.2488235635
 13
359.1668477307
 23
31.2488235635
  0
SOLID
  8
0
 62
7
  6
CONTINUOUS
 10
359.1668477307
 20
31.2488235635
 11
359.1090352445
 21
31.1842964734
 12
358.8199727462
 22
31.2165607767
 13
358.8199727462
 23
31.2165607767
  0
SOLID
  8
0
 62
7
  6
CONTINUOUS
 10
358.7621602445
 20
31.0229779898
 11
358.8199727462
 21
31.2165607767
 12
359.1090352445
 22
31.1842964734
 13
359.1090352445
 23
31.1842964734
  0
SOLID
  8
0
 62
7
  6
CONTINUOUS
 10
363.6184102445
 20
31.1520336865
 11
363.9652852445
 21
31.1842964611
 12
364.6012229651
 22
31.1842964611
 13
364.6012229651
 23
31.1842964611
  0
SOLID
  8
0
 62
7
  6
CONTINUOUS
 10
363.6184102445
 20
31.1520336865
 11
364.6012229651
 21
31.1842964611
 12
363.3871601343
 22
31.0875057863
 13
363.3871601343
 23
31.0875057863
  0
SOLID
  8
0
 62
7
  6
CONTINUOUS
 10
363.3871601343
 20
31.0875057863
 11
364.6012229651
 21
31.1842964611
 12
363.9652852445
 22
31.0552422808
 13
363.9652852445
 23
31.0552422808
  0
SOLID
  8
0
 62
7
  6
CONTINUOUS
 10
364.6012229651
 20
31.1842964611
 11
364.6012229651
 21
31.0552422808
 12
363.9652852445
 22
31.0552422808
 13
363.9652852445
 23
31.0552422808
  0
SOLID
  8
0
 62
7
  6
CONTINUOUS
 10
368.4168479651
 20
31.1520338754
 11
368.5902854651
 21
31.2810878668
 12
368.6480977445
 22
31.2165607767
 13
368.6480977445
 23
31.2165607767
  0
SOLID
  8
0
 62
7
  6
CONTINUOUS
 10
368.6480977445
 20
31.2165607767
 11
368.8215352445
 21
31.1520338754
 12
368.4168479651
 22
31.1520338754
 13
368.4168479651
 23
31.1520338754
  0
SOLID
  8
0
 62
7
  6
CONTINUOUS
 10
368.6480977445
 20
31.0552422931
 11
368.4168479651
 21
31.1520338754
 12
368.8215352445
 22
31.1520338754
 13
368.8215352445
 23
31.1520338754
  0
SOLID
  8
0
 62
7
  6
CONTINUOUS
 10
368.8215352445
 20
31.1520338754
 11
369.8043479651
 21
30.9907152029
 12
368.6480977445
 22
31.0552422931
 13
368.6480977445
 23
31.0552422931
  0
SOLID
  8
0
 62
7
  6
CONTINUOUS
 10
369.6309104651
 20
30.8939239876
 11
368.6480977445
 21
31.0552422931
 12
369.8043479651
 22
30.9907152029
 13
369.8043479651
 23
30.9907152029
  0
SOLID
  8
0
 62
7
  6
CONTINUOUS
 10
369.8043479651
 20
30.9907152029
 11
370.0355977445
 21
30.8939239876
 12
369.6309104651
 22
30.8939239876
 13
369.6309104651
 23
30.8939239876
  0
SOLID
  8
0
 62
7
  6
CONTINUOUS
 10
369.8043479651
 20
30.8293967193
 11
369.6309104651
 21
30.8939239876
 12
370.0355977445
 22
30.8939239876
 13
370.0355977445
 23
30.8939239876
  0
SOLID
  8
0
 62
7
  6
CONTINUOUS
 10
369.8043479651
 20
30.8293967193
 11
370.0355977445
 21
30.8939239876
 12
369.8621602445
 22
30.7648682694
 13
369.8621602445
 23
30.7648682694
  0
SOLID
  8
0
 62
7
  6
CONTINUOUS
 10
370.0355977445
 20
30.8939239876
 11
370.1512223035
 21
30.7648682694
 12
369.8621602445
 22
30.7648682694
 13
369.8621602445
 23
30.7648682694
  0
SOLID
  8
0
 62
7
  6
CONTINUOUS
 10
369.8043479651
 20
30.7003411846
 11
369.8621602445
 21
30.7648682694
 12
370.1512223035
 22
30.7648682694
 13
370.1512223035
 23
30.7648682694
  0
SOLID
  8
0
 62
7
  6
CONTINUOUS
 10
370.1512223035
 20
30.7648682694
 11
370.1512223035
 21
30.7003411846
 12
369.8043479651
 22
30.7003411846
 13
369.8043479651
 23
30.7003411846
  0
SOLID
  8
0
 62
7
  6
CONTINUOUS
 10
369.6887227445
 20
30.6680782357
 11
369.8043479651
 21
30.7003411846
 12
370.1512223035
 22
30.7003411846
 13
370.1512223035
 23
30.7003411846
  0
SOLID
  8
0
 62
7
  6
CONTINUOUS
 10
369.6887227445
 20
30.6680782357
 11
370.1512223035
 21
30.7003411846
 12
369.4574729651
 22
30.6358140998
 13
369.4574729651
 23
30.6358140998
  0
SOLID
  8
0
 62
7
  6
CONTINUOUS
 10
370.1512223035
 20
30.7003411846
 11
370.0355977445
 21
30.6035511455
 12
369.4574729651
 22
30.6358140998
 13
369.4574729651
 23
30.6358140998
  0
SOLID
  8
0
 62
7
  6
CONTINUOUS
 10
370.0355977445
 20
30.6035511455
 11
368.5902854651
 21
30.5712868422
 12
369.4574729651
 22
30.6358140998
 13
369.4574729651
 23
30.6358140998
  0
SOLID
  8
0
 62
7
  6
CONTINUOUS
 10
369.4574729651
 20
30.6358140998
 11
368.5902854651
 21
30.5712868422
 12
369.1105979651
 22
30.6358140998
 13
369.1105979651
 23
30.6358140998
  0
SOLID
  8
0
 62
7
  6
CONTINUOUS
 10
368.5902854651
 20
30.5712868422
 11
368.4168479651
 21
30.6358140998
 12
369.1105979651
 22
30.6358140998
 13
369.1105979651
 23
30.6358140998
  0
SOLID
  8
0
 62
7
  6
CONTINUOUS
 10
368.5902854651
 20
30.5712868422
 11
370.0355977445
 21
30.6035511455
 12
368.7637229651
 22
30.5390223111
 13
368.7637229651
 23
30.5390223111
  0
SOLID
  8
0
 62
7
  6
CONTINUOUS
 10
370.0355977445
 20
30.6035511455
 11
369.8043479651
 21
30.5390223111
 12
368.7637229651
 22
30.5390223111
 13
368.7637229651
 23
30.5390223111
  0
SOLID
  8
0
 62
7
  6
CONTINUOUS
 10
369.1105979651
 20
30.5067599302
 11
368.7637229651
 21
30.5390223111
 12
369.8043479651
 22
30.5390223111
 13
369.8043479651
 23
30.5390223111
  0
SOLID
  8
0
 62
7
  6
CONTINUOUS
 10
369.8043479651
 20
30.5390223111
 11
369.4574729651
 21
30.5067599302
 12
369.1105979651
 22
30.5067599302
 13
369.1105979651
 23
30.5067599302
  0
SOLID
  8
0
 62
7
  6
CONTINUOUS
 10
358.7621602445
 20
31.0229779898
 11
359.1090352445
 21
31.1842964734
 12
359.0512227376
 22
31.0552422931
 13
359.0512227376
 23
31.0552422931
  0
SOLID
  8
0
 62
7
  6
CONTINUOUS
 10
359.0512227376
 20
31.0552422931
 11
359.0512227376
 21
30.9584509954
 12
358.7621602445
 22
31.0229779898
 13
358.7621602445
 23
31.0229779898
  0
SOLID
  8
0
 62
7
  6
CONTINUOUS
 10
358.8199727462
 20
30.8293967193
 11
358.7621602445
 21
31.0229779898
 12
359.0512227376
 22
30.9584509954
 13
359.0512227376
 23
30.9584509954
  0
SOLID
  8
0
 62
7
  6
CONTINUOUS
 10
359.0512227376
 20
30.9584509954
 11
359.1668477307
 21
30.797132416
 12
358.8199727462
 22
30.8293967193
 13
358.8199727462
 23
30.8293967193
  0
SOLID
  8
0
 62
7
  6
CONTINUOUS
 10
358.9355977445
 20
30.7003413087
 11
358.8199727462
 21
30.8293967193
 12
359.1668477307
 22
30.797132416
 13
359.1668477307
 23
30.797132416
  0
SOLID
  8
0
 62
7
  6
CONTINUOUS
 10
359.1668477307
 20
30.797132416
 11
359.3402852307
 21
30.7003413087
 12
358.9355977445
 22
30.7003413087
 13
358.9355977445
 23
30.7003413087
  0
SOLID
  8
0
 62
7
  6
CONTINUOUS
 10
359.0512227376
 20
30.6358140759
 11
358.9355977445
 21
30.7003413087
 12
359.3402852307
 22
30.7003413087
 13
359.3402852307
 23
30.7003413087
  0
SOLID
  8
0
 62
7
  6
CONTINUOUS
 10
359.3402852307
 20
30.7003413087
 11
359.6871602721
 21
30.6358140759
 12
359.0512227376
 22
30.6358140759
 13
359.0512227376
 23
30.6358140759
  0
SOLID
  8
0
 62
7
  6
CONTINUOUS
 10
359.2246602583
 20
30.5712868422
 11
359.0512227376
 21
30.6358140759
 12
359.6871602721
 22
30.6358140759
 13
359.6871602721
 23
30.6358140759
  0
SOLID
  8
0
 62
7
  6
CONTINUOUS
 10
363.2715352445
 20
31.0229779808
 11
363.3871601343
 21
31.0875057863
 12
363.9652852445
 22
31.0552422931
 13
363.9652852445
 23
31.0552422931
  0
SOLID
  8
0
 62
7
  6
CONTINUOUS
 10
363.9652852445
 20
31.0552422931
 11
363.7340351343
 21
31.0229779808
 12
363.2715352445
 22
31.0229779808
 13
363.2715352445
 23
31.0229779808
  0
SOLID
  8
0
 62
7
  6
CONTINUOUS
 10
363.1559103548
 20
30.8939238094
 11
363.2715352445
 21
31.0229779808
 12
363.7340351343
 22
31.0229779808
 13
363.7340351343
 23
31.0229779808
  0
SOLID
  8
0
 62
7
  6
CONTINUOUS
 10
363.5027853548
 20
30.926187309
 11
363.1559103548
 21
30.8939238094
 12
363.6184102445
 22
30.9907152029
 13
363.6184102445
 23
30.9907152029
  0
SOLID
  8
0
 62
7
  6
CONTINUOUS
 10
363.1559103548
 20
30.8939238094
 11
363.7340351343
 21
31.0229779898
 12
363.6184102445
 22
30.9907152029
 13
363.6184102445
 23
30.9907152029
  0
SOLID
  8
0
 62
7
  6
CONTINUOUS
 10
363.5027853548
 20
30.926187309
 11
363.4449727445
 21
30.8293967193
 12
363.1559103548
 22
30.8939238094
 13
363.1559103548
 23
30.8939238094
  0
SOLID
  8
0
 62
7
  6
CONTINUOUS
 10
363.1559103548
 20
30.797132416
 11
363.1559103548
 21
30.8939238094
 12
363.4449727445
 22
30.8293967193
 13
363.4449727445
 23
30.8293967193
  0
SOLID
  8
0
 62
7
  6
CONTINUOUS
 10
363.4449727445
 20
30.8293967193
 11
363.4449727445
 21
30.7648681127
 12
363.1559103548
 22
30.797132416
 13
363.1559103548
 23
30.797132416
  0
SOLID
  8
0
 62
7
  6
CONTINUOUS
 10
363.2137226343
 20
30.6680782357
 11
363.1559103548
 21
30.797132416
 12
363.4449727445
 22
30.7648681127
 13
363.4449727445
 23
30.7648681127
  0
SOLID
  8
0
 62
7
  6
CONTINUOUS
 10
364.6012229651
 20
30.8616599362
 11
364.890285024
 21
30.7648681127
 12
364.543410024
 22
30.797132416
 13
364.543410024
 23
30.797132416
  0
SOLID
  8
0
 62
7
  6
CONTINUOUS
 10
364.369972524
 20
30.7003410226
 11
364.543410024
 21
30.797132416
 12
364.890285024
 22
30.7648681127
 13
364.890285024
 23
30.7648681127
  0
SOLID
  8
0
 62
7
  6
CONTINUOUS
 10
364.369972524
 20
30.7003410226
 11
364.890285024
 21
30.7648681127
 12
364.6012229651
 22
30.6680782357
 13
364.6012229651
 23
30.6680782357
  0
SOLID
  8
0
 62
7
  6
CONTINUOUS
 10
364.890285024
 20
30.7648681127
 11
364.9480979651
 21
30.6035511455
 12
364.6012229651
 22
30.6680782357
 13
364.6012229651
 23
30.6680782357
  0
SOLID
  8
0
 62
7
  6
CONTINUOUS
 10
364.6590352445
 20
30.5712868422
 11
364.6012229651
 21
30.6680782357
 12
364.9480979651
 22
30.6035511455
 13
364.9480979651
 23
30.6035511455
  0
SOLID
  8
0
 62
7
  6
CONTINUOUS
 10
364.6590352445
 20
30.5712868422
 11
364.9480979651
 21
30.6035511455
 12
364.716847524
 22
30.5067598731
 13
364.716847524
 23
30.5067598731
  0
SOLID
  8
0
 62
7
  6
CONTINUOUS
 10
364.9480979651
 20
30.6035511455
 11
365.0059102445
 21
30.5067598731
 12
364.716847524
 22
30.5067598731
 13
364.716847524
 23
30.5067598731
  0
SOLID
  8
0
 62
7
  6
CONTINUOUS
 10
360.2652852997
 20
30.7326051679
 11
360.3230977445
 21
30.8293966612
 12
360.6121602997
 22
30.8293966612
 13
360.6121602997
 23
30.8293966612
  0
SOLID
  8
0
 62
7
  6
CONTINUOUS
 10
360.6121602997
 20
30.8293966612
 11
360.5543476894
 21
30.7003410226
 12
360.2652852997
 22
30.7326051679
 13
360.2652852997
 23
30.7326051679
  0
SOLID
  8
0
 62
7
  6
CONTINUOUS
 10
360.091847717
 20
30.6680782357
 11
360.2652852997
 21
30.7326051679
 12
360.5543476894
 22
30.7003410226
 13
360.5543476894
 23
30.7003410226
  0
SOLID
  8
0
 62
7
  6
CONTINUOUS
 10
360.091847717
 20
30.6680782357
 11
360.5543476894
 21
30.7003410226
 12
359.6871602721
 22
30.6358139324
 13
359.6871602721
 23
30.6358139324
  0
SOLID
  8
0
 62
7
  6
CONTINUOUS
 10
360.5543476894
 20
30.7003410226
 11
360.3809101894
 21
30.6035511455
 12
359.6871602721
 22
30.6358139324
 13
359.6871602721
 23
30.6358139324
  0
SOLID
  8
0
 62
7
  6
CONTINUOUS
 10
359.2246602583
 20
30.5712868422
 11
359.6871602721
 21
30.6358139324
 12
360.3809101894
 22
30.6035511455
 13
360.3809101894
 23
30.6035511455
  0
SOLID
  8
0
 62
7
  6
CONTINUOUS
 10
359.2246602583
 20
30.5712868422
 11
360.3809101894
 21
30.6035511455
 12
359.3980977583
 22
30.5390224228
 13
359.3980977583
 23
30.5390224228
  0
SOLID
  8
0
 62
7
  6
CONTINUOUS
 10
360.3809101894
 20
30.6035511455
 11
360.1496602445
 21
30.5390224228
 12
359.3980977583
 22
30.5390224228
 13
359.3980977583
 23
30.5390224228
  0
SOLID
  8
0
 62
7
  6
CONTINUOUS
 10
359.744972717
 20
30.5067597521
 11
359.3980977583
 21
30.5390224228
 12
360.1496602445
 22
30.5390224228
 13
360.1496602445
 23
30.5390224228
  0
SOLID
  8
0
 62
7
  6
CONTINUOUS
 10
363.2137226343
 20
30.6680782357
 11
363.4449727445
 21
30.7648681127
 12
363.5027853548
 22
30.7003410226
 13
363.5027853548
 23
30.7003410226
  0
SOLID
  8
0
 62
7
  6
CONTINUOUS
 10
363.5027853548
 20
30.7003410226
 11
363.7340351343
 21
30.6358139324
 12
363.2137226343
 22
30.6680782357
 13
363.2137226343
 23
30.6680782357
  0
SOLID
  8
0
 62
7
  6
CONTINUOUS
 10
363.3871601343
 20
30.5712868422
 11
363.2137226343
 21
30.6680782357
 12
363.7340351343
 22
30.6358139324
 13
363.7340351343
 23
30.6358139324
  0
SOLID
  8
0
 62
7
  6
CONTINUOUS
 10
364.0809101343
 20
30.6358139363
 11
364.369972524
 21
30.7003410226
 12
364.6012229651
 22
30.6680782357
 13
364.6012229651
 23
30.6680782357
  0
SOLID
  8
0
 62
7
  6
CONTINUOUS
 10
364.6012229651
 20
30.6680782357
 11
364.543410024
 21
30.6035511455
 12
364.0809101343
 22
30.6358139363
 13
364.0809101343
 23
30.6358139363
  0
SOLID
  8
0
 62
7
  6
CONTINUOUS
 10
364.543410024
 20
30.6035511455
 11
363.3871601343
 21
30.5712868422
 12
364.0809101343
 22
30.6358139363
 13
364.0809101343
 23
30.6358139363
  0
SOLID
  8
0
 62
7
  6
CONTINUOUS
 10
363.3871601343
 20
30.5712868422
 11
363.7340351343
 21
30.6358139363
 12
364.0809101343
 22
30.6358139363
 13
364.0809101343
 23
30.6358139363
  0
SOLID
  8
0
 62
7
  6
CONTINUOUS
 10
363.3871601343
 20
30.5712868422
 11
364.543410024
 21
30.6035511455
 12
363.5027853548
 22
30.5390225267
 13
363.5027853548
 23
30.5390225267
  0
SOLID
  8
0
 62
7
  6
CONTINUOUS
 10
364.543410024
 20
30.6035511455
 11
364.369972524
 21
30.5390225267
 12
363.5027853548
 22
30.5390225267
 13
363.5027853548
 23
30.5390225267
  0
SOLID
  8
0
 62
7
  6
CONTINUOUS
 10
363.7340351343
 20
30.5067596914
 11
363.5027853548
 21
30.5390225267
 12
364.369972524
 22
30.5390225267
 13
364.369972524
 23
30.5390225267
  0
SOLID
  8
0
 62
7
  6
CONTINUOUS
 10
364.369972524
 20
30.5390225267
 11
364.0809101343
 21
30.5067596914
 12
363.7340351343
 22
30.5067596914
 13
363.7340351343
 23
30.5067596914
  0
SOLID
  8
0
 62
7
  6
CONTINUOUS
 10
368.7637229651
 20
30.6680782357
 11
368.4168479651
 21
30.6358138717
 12
368.6480977445
 22
30.7003410226
 13
368.6480977445
 23
30.7003410226
  0
SOLID
  8
0
 62
7
  6
CONTINUOUS
 10
368.6480977445
 20
30.7003410226
 11
368.4168479651
 21
30.6358138717
 12
368.5902854651
 22
30.7648680521
 13
368.5902854651
 23
30.7648680521
  0
SOLID
  8
0
 62
7
  6
CONTINUOUS
 10
368.4168479651
 20
30.6358138717
 11
368.3012227445
 21
30.7648680521
 12
368.5902854651
 22
30.7648680521
 13
368.5902854651
 23
30.7648680521
  0
SOLID
  8
0
 62
7
  6
CONTINUOUS
 10
368.7637229651
 20
30.6680782357
 11
369.1105979651
 21
30.6358138717
 12
368.4168479651
 22
30.6358138717
 13
368.4168479651
 23
30.6358138717
  0
SOLID
  8
0
 62
7
  6
CONTINUOUS
 10
365.4684104651
 20
30.5067597521
 11
365.4684104651
 21
31.5391977439
 12
365.757472524
 22
30.5067597521
 13
365.757472524
 23
31.5391977439
  0
ENDBLK
  8
0
  6
BYBLOCK
 62
0
  0
BLOCK
  8
0
 62
2
  6
CONTINUOUS
  2
AMMEAAL_LOGO_BL0
 70
64
 10
240.8592468615
 20
19.762288695
  0
TEXT
  8
0
 62
7
  6
CONTINUOUS
 10
227.1239507038
 20
19.1357028027
  7
TEXTSTYLE_3
 40
2.7338706658
  1
Ammeraal Beltech
 41
1.0
 51
15.0
 72
0
  0
TEXT
  8
0
 62
7
  6
CONTINUOUS
 10
237.9247515296
 20
16.8621661299
  7
TEXTSTYLE_4
 40
1.0935482663
  1
Innovation & Service in Belting
 41
1.0
 72
0
  0
LINE
  8
0
 62
7
  6
CONTINUOUS
 10
221.0994100525
 20
19.9022961113
 11
221.8775620458
 21
23.5632134089
  0
LINE
  8
0
 62
7
  6
CONTINUOUS
 10
231.9727303357
 20
27.2266073205
 11
222.3653797889
 21
24.1049898993
  0
LINE
  8
0
 62
7
  6
CONTINUOUS
 10
221.3246933848
 20
19.2089453082
 11
228.8317686459
 21
12.4495443822
  0
LINE
  8
0
 62
7
  6
CONTINUOUS
 10
221.5872277955
 20
20.4440726016
 11
232.3954971607
 21
23.9558922005
  0
LINE
  8
0
 62
7
  6
CONTINUOUS
 10
232.3912920235
 20
13.6061036368
 11
223.9458323548
 21
21.2104296785
  0
LINE
  8
0
 62
7
  6
CONTINUOUS
 10
232.9111147433
 20
26.3816822048
 11
231.9345552061
 21
21.7873308023
  0
LINE
  8
0
 62
7
  6
CONTINUOUS
 10
231.2347532584
 20
18.4950214885
 11
230.5483050469
 21
15.2655365641
  0
LINE
  8
0
 62
7
  6
CONTINUOUS
 10
233.5922108419
 20
13.9963058145
 11
234.5484423775
 21
18.4950214885
  0
LINE
  8
0
 62
7
  6
CONTINUOUS
 10
235.2482443252
 20
21.7873308023
 11
235.6924861276
 21
23.8773241617
  0
LINE
  8
0
 62
7
  6
CONTINUOUS
 10
229.5448697213
 20
12.2979700695
 11
233.1043930989
 21
13.4545293241
  0
LINE
  8
0
 62
7
  6
CONTINUOUS
 10
232.685831411
 20
27.0750330078
 11
235.4672027953
 21
24.5706749648
  0
ARC
  8
0
 62
7
  6
CONTINUOUS
 10
222.5906631212
 20
23.4116390962
 40
0.7290321776
 50
108.0
 51
168.0
  0
ARC
  8
0
 62
7
  6
CONTINUOUS
 10
232.198013668
 20
26.5332565175
 40
0.7290321776
 50
348.0
 51
108.0
  0
ARC
  8
0
 62
7
  6
CONTINUOUS
 10
234.9793850522
 20
24.0288984744
 40
0.7290321776
 50
348.0
 51
48.0
  0
ARC
  8
0
 62
7
  6
CONTINUOUS
 10
229.319586389
 20
12.9913208726
 40
0.7290321776
 50
228.0
 51
288.0
  0
ARC
  8
0
 62
7
  6
CONTINUOUS
 10
221.8125111278
 20
19.7507217986
 40
0.7290321776
 50
108.0
 51
228.0
  0
ARC
  8
0
 62
7
  6
CONTINUOUS
 10
232.8791097665
 20
14.1478801272
 40
0.7290321776
 50
228.0
 51
348.0
  0
ENDBLK
  8
0
  6
BYBLOCK
 62
0
  0
ENDSEC
  0
SECTION
  2
ENTITIES
  0
TEXT
  8
0
 62
5
  6
CONTINUOUS
 10
304.937007874
 20
25.636
  7
TEXTSTYLE_2
 40
2.8
  1
Scale :
 41
0.6
 51
0.000019
 72
0
  0
TEXT
  8
0
 62
5
  6
CONTINUOUS
 10
324.937007874
 20
25.636
  7
TEXTSTYLE_2
 40
2.8
  1
Belt type:
 41
0.6
 51
0.000019
 72
0
  0
INSERT
  8
0
 62
2
  6
CONTINUOUS
  2
AMMEAAL_LOGO_BL0
 10
240.8592468615
 20
19.762288695
  0
INSERT
  8
0
 62
2
  6
CONTINUOUS
  2
UNI_LOGO2_BL1
 10
382.7840918555
 20
35.5067593403
  0
LINE
  8
0
 62
2
  6
CONTINUOUS
 10
218.937007874
 20
30.0
 11
408.937007874
 21
30.0
  0
LINE
  8
0
 62
2
  6
CONTINUOUS
 10
218.937007874
 20
30.0
 11
218.937007874
 21
10.0
  0
LINE
  8
0
 62
2
  6
CONTINUOUS
 10
218.937007874
 20
10.0
 11
408.937007874
 21
10.0
  0
LINE
  8
0
 62
2
  6
CONTINUOUS
 10
303.937007874
 20
30.0
 11
303.937007874
 21
10.0
  0
LINE
  8
0
 62
2
  6
CONTINUOUS
 10
323.937007874
 20
30.0
 11
323.937007874
 21
10.0
  0
LINE
  8
0
 62
2
  6
CONTINUOUS
 10
408.937007874
 20
30.0
 11
408.937007874
 21
10.0
  0
TEXT
  8
0
 62
5
  6
CONTINUOUS
 10
221.937007874
 20
23.303
  7
TEXTSTYLE_5
 40
1.52
  1
                                                                     Ammeraal Beltech Modular A/S
 41
1.0
 72
0
  0
TEXT
  8
0
 62
5
  6
CONTINUOUS
 10
221.937007874
 20
20.595
  7
TEXTSTYLE_5
 40
1.5
  1
                                                                      Hjulmagervej 21, 7100 Vejle,  DK
 41
1.0
 72
0
  0
TEXT
  8
0
 62
5
  6
CONTINUOUS
 10
221.937007874
 20
17.881
  7
TEXTSTYLE_5
 40
1.495
  1
                                                                      tel: 
 41
1.0
 72
0
  0
TEXT
  8
0
 62
5
  6
CONTINUOUS
 10
266.9239544389
 20
17.881
  7
TEXTSTYLE_5
 40
1.51
  1
+45 75723100     fax: +45 75723348
 41
1.0
 72
0
  0
TEXT
  8
0
 62
5
  6
CONTINUOUS
 10
221.937007874
 20
15.177
  7
TEXTSTYLE_5
 40
1.5
  1
                                                                      admin@unichains.dk  www.unichains.com
 41
1.0
 72
0
  0
TEXT
  8
0
 62
5
  6
CONTINUOUS
 10
308.687007874
 20
13.75
  7
TEXTSTYLE_6
 40
5.0
  1
1:1
 41
0.7
 72
1
 11
313.937007874
 21
13.75
  0
TEXT
  8
0
 62
5
  6
CONTINUOUS
 10
326.937007874
 20
13.75
  7
TEXTSTYLE_7
 40
7.5
  1
Sprocket Z06
 41
0.6694444444
 72
0
  0
LINE
  8
0
 62
7
  6
CONTINUOUS
 10
0.0
 20
0.0
 11
0.0
 21
297.0
  0
LINE
  8
0
 62
7
  6
CONTINUOUS
 10
8.937007874
 20
10.0
 11
8.937007874
 21
287.0
  0
LINE
  8
0
 62
7
  6
CONTINUOUS
 10
0.0
 20
0.0
 11
420.0
 21
0.0
  0
LINE
  8
0
 62
7
  6
CONTINUOUS
 10
408.937007874
 20
10.0
 11
8.937007874
 21
10.0
  0
LINE
  8
0
 62
7
  6
CONTINUOUS
 10
218.937007874
 20
30.0
 11
408.937007874
 21
30.0
  0
LINE
  8
0
 62
7
  6
CONTINUOUS
 10
210.0
 20
297.0
 11
210.0
 21
292.0
  0
LINE
  8
0
 62
7
  6
CONTINUOUS
 10
210.0
 20
0.0
 11
210.0
 21
5.0
  0
LINE
  8
0
 62
7
  6
CONTINUOUS
 10
8.937007874
 20
287.0
 11
408.937007874
 21
287.0
  0
LINE
  8
0
 62
7
  6
CONTINUOUS
 10
0.0
 20
297.0
 11
420.0
 21
297.0
  0
LINE
  8
0
 62
7
  6
CONTINUOUS
 10
408.937007874
 20
287.0
 11
408.937007874
 21
10.0
  0
LINE
  8
0
 62
7
  6
CONTINUOUS
 10
420.0
 20
0.0
 11
420.0
 21
297.0
  0
LINE
  8
0
 62
7
  6
CONTINUOUS
 10
69.0979725268
 20
206.3619283579
 11
68.9947842845
 21
205.8514194542
  0
LINE
  8
0
 62
7
  6
CONTINUOUS
 10
71.7754102938
 20
214.9319147855
 11
71.6155345406
 21
214.5471401542
  0
LINE
  8
0
 62
7
  6
CONTINUOUS
 10
73.9905417038
 20
219.4542211783
 11
73.7887399791
 21
219.0896833376
  0
LINE
  8
0
 62
7
  6
CONTINUOUS
 10
89.7706041319
 20
236.0665901127
 11
86.3383261119
 21
233.7042638593
  0
LINE
  8
0
 62
7
  6
CONTINUOUS
 10
97.5163172309
 20
239.8868840688
 11
97.1284731791
 21
239.7345989687
  0
LINE
  8
0
 62
7
  6
CONTINUOUS
 10
71.4339927909
 20
213.8329669421
 11
71.4705977597
 21
213.3665548946
  0
LINE
  8
0
 62
7
  6
CONTINUOUS
 10
69.8262352698
 20
200.2547673987
 11
69.805069009
 21
199.7343642338
  0
LINE
  8
0
 62
7
  6
CONTINUOUS
 10
69.7204039851
 20
197.6527520583
 11
69.6992377288
 21
197.1323490051
  0
LINE
  8
0
 62
7
  6
CONTINUOUS
 10
72.7432322974
 20
198.6765858932
 11
72.7262992899
 21
198.2602633911
  0
LINE
  8
0
 62
7
  6
CONTINUOUS
 10
73.1514796535
 20
198.2429701094
 11
73.168412661
 21
198.6592926115
  0
LINE
  8
0
 62
7
  6
CONTINUOUS
 10
73.214978424
 20
199.8041793062
 11
73.2361446849
 21
200.3245824711
  0
LINE
  8
0
 62
7
  6
CONTINUOUS
 10
70.204516768
 20
203.4787904423
 11
70.1475312697
 21
203.0660387861
  0
LINE
  8
0
 62
7
  6
CONTINUOUS
 10
70.0193139597
 20
202.1373480026
 11
69.9480821073
 21
201.62140858
  0
LINE
  8
0
 62
7
  6
CONTINUOUS
 10
73.3203492428
 20
201.1558251712
 11
73.3915810953
 21
201.6717645938
  0
LINE
  8
0
 62
7
  6
CONTINUOUS
 10
73.6480157153
 20
203.5291461609
 11
73.719247527
 21
204.0450852882
  0
LINE
  8
0
 62
7
  6
CONTINUOUS
 10
74.145379225
 20
218.4160051417
 11
74.2036569272
 21
218.740931741
  0
LINE
  8
0
 62
7
  6
CONTINUOUS
 10
75.7276256304
 20
217.5401014144
 11
75.7859033326
 21
217.8650280137
  0
LINE
  8
0
 62
7
  6
CONTINUOUS
 10
71.9651621621
 20
213.7250637569
 11
72.0667664926
 21
214.2468507542
  0
LINE
  8
0
 62
7
  6
CONTINUOUS
 10
69.5161552166
 20
205.7460356897
 11
69.6193434589
 21
206.2565445935
  0
LINE
  8
0
 62
7
  6
CONTINUOUS
 10
70.6620856151
 20
206.0457770056
 11
70.5588973728
 21
205.5352681019
  0
LINE
  8
0
 62
7
  6
CONTINUOUS
 10
73.8956716301
 20
204.8608119505
 11
73.9988598724
 21
205.3713208543
  0
LINE
  8
0
 62
7
  6
CONTINUOUS
 10
71.6155345406
 20
214.5471401542
 11
71.4339927909
 21
213.8329669421
  0
LINE
  8
0
 62
7
  6
CONTINUOUS
 10
73.7887399791
 20
219.0896833376
 11
73.629561992
 21
218.5824888609
  0
LINE
  8
0
 62
7
  6
CONTINUOUS
 10
75.3709863846
 20
218.2137796103
 11
75.2118083974
 21
217.7065851337
  0
LINE
  8
0
 62
7
  6
CONTINUOUS
 10
78.4154381687
 20
217.1237400831
 11
78.5746161477
 21
217.6309345643
  0
LINE
  8
0
 62
7
  6
CONTINUOUS
 10
70.5690646248
 20
203.0078408651
 11
70.7314334618
 21
203.406043041
  0
LINE
  8
0
 62
7
  6
CONTINUOUS
 10
72.0667664926
 20
214.2468507542
 11
72.2266417884
 21
214.6316242847
  0
LINE
  8
0
 62
7
  6
CONTINUOUS
 10
72.0566743554
 20
212.5590330876
 11
72.2565188182
 21
213.0400008264
  0
LINE
  8
0
 62
7
  6
CONTINUOUS
 10
76.5010292637
 20
214.6604078428
 11
75.3819008208
 21
211.9669898269
  0
LINE
  8
0
 62
7
  6
CONTINUOUS
 10
75.5533509596
 20
210.9933464447
 11
76.9922299941
 21
214.4563115216
  0
LINE
  8
0
 62
7
  6
CONTINUOUS
 10
76.8451411393
 20
222.8282523378
 11
77.0599061126
 21
223.3145237383
  0
LINE
  8
0
 62
7
  6
CONTINUOUS
 10
80.4842207901
 20
221.5221492577
 11
80.2694558168
 21
221.0358778572
  0
LINE
  8
0
 62
7
  6
CONTINUOUS
 10
76.6261832371
 20
223.6224488166
 11
76.3511158021
 21
223.0512393615
  0
LINE
  8
0
 62
7
  6
CONTINUOUS
 10
80.7031787531
 20
220.7279527358
 11
80.9782461805
 21
221.2991621963
  0
LINE
  8
0
 62
7
  6
CONTINUOUS
 10
70.3526392101
 20
203.7738045565
 11
70.204516768
 21
203.4787904423
  0
LINE
  8
0
 62
7
  6
CONTINUOUS
 10
74.2036569272
 20
218.740931741
 11
74.5063589368
 21
219.2877374591
  0
LINE
  8
0
 62
7
  6
CONTINUOUS
 10
75.4684010471
 20
219.7076686136
 11
75.7206523369
 21
220.1633393501
  0
LINE
  8
0
 62
7
  6
CONTINUOUS
 10
75.623238829
 20
218.6694524327
 11
75.3709863846
 21
218.2137796103
  0
LINE
  8
0
 62
7
  6
CONTINUOUS
 10
75.7859033326
 20
217.8650280137
 11
76.1390549073
 21
218.5029666276
  0
LINE
  8
0
 62
7
  6
CONTINUOUS
 10
78.0005211555
 20
217.4724917159
 11
77.6473695807
 21
216.834553102
  0
LINE
  8
0
 62
7
  6
CONTINUOUS
 10
78.1631857242
 20
216.6680672608
 11
78.4154381687
 21
217.1237400831
  0
LINE
  8
0
 62
7
  6
CONTINUOUS
 10
79.9599613407
 20
226.8268464719
 11
80.227632235
 21
227.2861243411
  0
LINE
  8
0
 62
7
  6
CONTINUOUS
 10
83.4306245017
 20
225.122936806
 11
83.1629520189
 21
224.6636571589
  0
LINE
  8
0
 62
7
  6
CONTINUOUS
 10
79.8309674519
 20
227.6405117511
 11
79.493895152
 21
227.1035530934
  0
LINE
  8
0
 62
7
  6
CONTINUOUS
 10
83.5596168576
 20
224.3092696991
 11
83.8966891505
 21
224.8462283631
  0
LINE
  8
0
 62
7
  6
CONTINUOUS
 10
72.1134635985
 20
215.4682563732
 11
71.7754102938
 21
214.9319147855
  0
LINE
  8
0
 62
7
  6
CONTINUOUS
 10
72.2266417884
 20
214.6316242847
 11
72.5247263835
 21
215.0717727649
  0
LINE
  8
0
 62
7
  6
CONTINUOUS
 10
74.3358662962
 20
219.8583681746
 11
73.9905417038
 21
219.4542211783
  0
LINE
  8
0
 62
7
  6
CONTINUOUS
 10
75.9685634214
 20
219.073599429
 11
75.623238829
 21
218.6694524327
  0
LINE
  8
0
 62
7
  6
CONTINUOUS
 10
77.8178611237
 20
216.263920269
 11
78.1631857242
 21
216.6680672608
  0
LINE
  8
0
 62
7
  6
CONTINUOUS
 10
77.0747398223
 20
224.0704882405
 11
76.6261832371
 21
223.6224488166
  0
LINE
  8
0
 62
7
  6
CONTINUOUS
 10
80.2546221603
 20
220.2799133173
 11
80.7031787531
 21
220.7279527358
  0
LINE
  8
0
 62
7
  6
CONTINUOUS
 10
77.0599061126
 20
223.3145237383
 11
77.448160236
 21
223.6776251076
  0
LINE
  8
0
 62
7
  6
CONTINUOUS
 10
80.2694558168
 20
221.0358778572
 11
79.8812016934
 21
220.6727764879
  0
LINE
  8
0
 62
7
  6
CONTINUOUS
 10
74.5063589368
 20
219.2877374591
 11
74.7507832442
 21
219.509616578
  0
LINE
  8
0
 62
7
  6
CONTINUOUS
 10
76.1390549073
 20
218.5029666276
 11
76.3834792148
 21
218.7248457465
  0
LINE
  8
0
 62
7
  6
CONTINUOUS
 10
72.469819159
 20
215.7713913866
 11
72.1134635985
 21
215.4682563732
  0
LINE
  8
0
 62
7
  6
CONTINUOUS
 10
96.973919571
 20
238.9881761358
 11
97.2259193898
 21
239.2014123354
  0
LINE
  8
0
 62
7
  6
CONTINUOUS
 10
97.6348966947
 20
237.3047806776
 11
97.8868965134
 21
237.5180168772
  0
LINE
  8
0
 62
7
  6
CONTINUOUS
 10
92.4883412273
 20
236.8603306221
 11
92.8991935521
 21
237.1976461308
  0
LINE
  8
0
 62
7
  6
CONTINUOUS
 10
95.1483933347
 20
234.0544566502
 11
94.7375367935
 21
233.7171389145
  0
LINE
  8
0
 62
7
  6
CONTINUOUS
 10
80.326705665
 20
228.0357154448
 11
79.8309674519
 21
227.6405117511
  0
LINE
  8
0
 62
7
  6
CONTINUOUS
 10
83.0638786375
 20
223.9140660117
 11
83.5596168576
 21
224.3092696991
  0
LINE
  8
0
 62
7
  6
CONTINUOUS
 10
92.6507688227
 20
237.6679848815
 11
92.1478056706
 21
237.2820180395
  0
LINE
  8
0
 62
7
  6
CONTINUOUS
 10
94.9859615577
 20
233.2468000979
 11
95.4889247054
 21
233.6327669482
  0
LINE
  8
0
 62
7
  6
CONTINUOUS
 10
80.227632235
 20
227.2861243411
 11
80.653970631
 21
227.6036490241
  0
LINE
  8
0
 62
7
  6
CONTINUOUS
 10
83.1629520189
 20
224.6636571589
 11
82.7366152114
 21
224.3461342538
  0
LINE
  8
0
 62
7
  6
CONTINUOUS
 10
86.6398995827
 20
233.2661008437
 11
89.6431416227
 21
235.3331354705
  0
LINE
  8
0
 62
7
  6
CONTINUOUS
 10
92.2435068881
 20
232.4736529545
 11
89.3260704729
 21
230.4656755716
  0
LINE
  8
0
 62
7
  6
CONTINUOUS
 10
89.1731170753
 20
229.5855310209
 11
92.6053950953
 21
231.9478572743
  0
LINE
  8
0
 62
7
  6
CONTINUOUS
 10
97.1284731791
 20
239.7345989687
 11
96.682555773
 21
239.4452219619
  0
LINE
  8
0
 62
7
  6
CONTINUOUS
 10
97.7894503028
 20
238.0512035105
 11
97.3435328967
 21
237.7618265036
  0
LINE
  8
0
 62
7
  6
CONTINUOUS
 10
99.4406832833
 20
235.2708613587
 11
99.8866051245
 21
235.560240117
  0
LINE
  8
0
 62
7
  6
CONTINUOUS
 10
97.2259193898
 20
239.2014123354
 11
97.807681029
 21
239.4298382428
  0
LINE
  8
0
 62
7
  6
CONTINUOUS
 10
98.8166506993
 20
239.1402672245
 11
99.3014491063
 21
239.3306209855
  0
LINE
  8
0
 62
7
  6
CONTINUOUS
 10
98.2742531483
 20
238.2415590142
 11
97.7894503028
 21
238.0512035105
  0
LINE
  8
0
 62
7
  6
CONTINUOUS
 10
97.8868965134
 20
237.5180168772
 11
98.5656169464
 21
237.7845131881
  0
LINE
  8
0
 62
7
  6
CONTINUOUS
 10
99.3432370454
 20
235.8040480614
 11
98.6645166125
 21
235.5375517504
  0
LINE
  8
0
 62
7
  6
CONTINUOUS
 10
98.9558804378
 20
235.080505855
 11
99.4406832833
 21
235.2708613587
  0
LINE
  8
0
 62
7
  6
CONTINUOUS
 10
93.2531018665
 20
237.8658162232
 11
92.6507688227
 21
237.6679848815
  0
LINE
  8
0
 62
7
  6
CONTINUOUS
 10
94.3836285095
 20
233.0489687644
 11
94.9859615577
 21
233.2468000979
  0
LINE
  8
0
 62
7
  6
CONTINUOUS
 10
92.8991935521
 20
237.1976461308
 11
93.4094199851
 21
237.3468283662
  0
LINE
  8
0
 62
7
  6
CONTINUOUS
 10
94.7375367935
 20
233.7171389145
 11
94.2273145769
 21
233.5679589061
  0
LINE
  8
0
 62
7
  6
CONTINUOUS
 10
72.6538701801
 20
199.0972315679
 11
72.7432322974
 21
198.6765858932
  0
LINE
  8
0
 62
7
  6
CONTINUOUS
 10
70.1475312697
 20
203.0660387861
 11
70.1959291102
 21
202.6387376497
  0
LINE
  8
0
 62
7
  6
CONTINUOUS
 10
70.6174624653
 20
202.5805397287
 11
70.5690646248
 21
203.0078408651
  0
LINE
  8
0
 62
7
  6
CONTINUOUS
 10
74.1801742481
 20
218.0395537594
 11
74.145379225
 21
218.4160051417
  0
LINE
  8
0
 62
7
  6
CONTINUOUS
 10
75.2118083974
 20
217.7065851337
 11
75.2813995984
 21
216.9536844548
  0
LINE
  8
0
 62
7
  6
CONTINUOUS
 10
75.7624206535
 20
217.1636500321
 11
75.7276256304
 21
217.5401014144
  0
LINE
  8
0
 62
7
  6
CONTINUOUS
 10
73.629561992
 20
218.5824888609
 11
73.6565300328
 21
217.972245861
  0
LINE
  8
0
 62
7
  6
CONTINUOUS
 10
78.5746161477
 20
217.6309345643
 11
78.5476475051
 21
218.2411765348
  0
LINE
  8
0
 62
7
  6
CONTINUOUS
 10
76.8377242845
 20
222.4502700867
 11
76.8451411393
 21
222.8282523378
  0
LINE
  8
0
 62
7
  6
CONTINUOUS
 10
76.3511158021
 20
223.0512393615
 11
76.309839979
 21
222.4417979296
  0
LINE
  8
0
 62
7
  6
CONTINUOUS
 10
80.9782461805
 20
221.2991621963
 11
81.0195219808
 21
221.9086036444
  0
LINE
  8
0
 62
7
  6
CONTINUOUS
 10
79.9104246257
 20
226.45205092
 11
79.9599613407
 21
226.8268464719
  0
LINE
  8
0
 62
7
  6
CONTINUOUS
 10
78.0587988576
 20
217.7974183151
 11
78.0005211555
 21
217.4724917159
  0
LINE
  8
0
 62
7
  6
CONTINUOUS
 10
79.493895152
 20
227.1035530934
 11
79.3848901709
 21
226.5025202602
  0
LINE
  8
0
 62
7
  6
CONTINUOUS
 10
83.8966891505
 20
224.8462283631
 11
84.0056956992
 21
225.4472629928
  0
LINE
  8
0
 62
7
  6
CONTINUOUS
 10
73.0282515581
 20
197.8309710022
 11
73.1514796535
 21
198.2429701094
  0
LINE
  8
0
 62
7
  6
CONTINUOUS
 10
92.3113870701
 20
236.5262455759
 11
92.4883412273
 21
236.8603306221
  0
LINE
  8
0
 62
7
  6
CONTINUOUS
 10
72.7262992899
 20
198.2602633911
 11
72.4967760851
 21
197.852587605
  0
LINE
  8
0
 62
7
  6
CONTINUOUS
 10
92.1478056706
 20
237.2820180395
 11
91.8363232376
 21
236.7565670305
  0
LINE
  8
0
 62
7
  6
CONTINUOUS
 10
95.4889247054
 20
233.6327669482
 11
95.8004113418
 21
234.1582202089
  0
LINE
  8
0
 62
7
  6
CONTINUOUS
 10
96.7608007531
 20
238.6759166903
 11
96.973919571
 21
238.9881761358
  0
LINE
  8
0
 62
7
  6
CONTINUOUS
 10
97.3435328967
 20
237.7618265036
 11
96.9172952609
 21
237.1373076125
  0
LINE
  8
0
 62
7
  6
CONTINUOUS
 10
97.4217778768
 20
236.992521232
 11
97.6348966947
 21
237.3047806776
  0
LINE
  8
0
 62
7
  6
CONTINUOUS
 10
70.7314334618
 20
203.406043041
 11
70.865309509
 21
203.5978690936
  0
LINE
  8
0
 62
7
  6
CONTINUOUS
 10
96.682555773
 20
239.4452219619
 11
96.3143959301
 21
238.9577967204
  0
LINE
  8
0
 62
7
  6
CONTINUOUS
 10
99.8866051245
 20
235.560240117
 11
100.2547605187
 21
236.0476636418
  0
LINE
  8
0
 62
7
  6
CONTINUOUS
 10
70.606144991
 20
204.0542691905
 11
70.3526392101
 21
203.7738045565
  0
LINE
  8
0
 62
7
  6
CONTINUOUS
 10
77.6473695807
 20
216.834553102
 11
77.4029452733
 21
216.6126739831
  0
LINE
  8
0
 62
7
  6
CONTINUOUS
 10
99.5952368642
 20
236.017284261
 11
99.3432370454
 21
235.8040480614
  0
LINE
  8
0
 62
7
  6
CONTINUOUS
 10
72.5247263835
 20
215.0717727649
 11
72.8411132343
 21
215.2787146709
  0
LINE
  8
0
 62
7
  6
CONTINUOUS
 10
74.8673386485
 20
220.1594697765
 11
74.3358662962
 21
219.8583681746
  0
LINE
  8
0
 62
7
  6
CONTINUOUS
 10
76.5000346191
 20
219.3746989449
 11
75.9685634214
 21
219.073599429
  0
LINE
  8
0
 62
7
  6
CONTINUOUS
 10
77.2863893242
 20
215.9628197236
 11
77.8178611237
 21
216.263920269
  0
LINE
  8
0
 62
7
  6
CONTINUOUS
 10
74.7507832442
 20
219.509616578
 11
75.0882808542
 21
219.6799719567
  0
LINE
  8
0
 62
7
  6
CONTINUOUS
 10
76.3834792148
 20
218.7248457465
 11
76.7209768248
 21
218.8952011252
  0
LINE
  8
0
 62
7
  6
CONTINUOUS
 10
77.6364830959
 20
224.3104195784
 11
77.0747398223
 21
224.0704882405
  0
LINE
  8
0
 62
7
  6
CONTINUOUS
 10
79.6928788638
 20
220.0399819955
 11
80.2546221603
 21
220.2799133173
  0
LINE
  8
0
 62
7
  6
CONTINUOUS
 10
77.448160236
 20
223.6776251076
 11
77.8025553913
 21
223.809267296
  0
LINE
  8
0
 62
7
  6
CONTINUOUS
 10
80.9117099742
 20
228.2114851639
 11
80.326705665
 21
228.0357154448
  0
LINE
  8
0
 62
7
  6
CONTINUOUS
 10
82.4788758959
 20
223.7382980892
 11
83.0638786375
 21
223.9140660117
  0
LINE
  8
0
 62
7
  6
CONTINUOUS
 10
70.1959291102
 20
202.6387376497
 11
70.3639567252
 21
202.3000753899
  0
LINE
  8
0
 62
7
  6
CONTINUOUS
 10
70.7854900802
 20
202.2418774689
 11
70.6174624653
 21
202.5805397287
  0
LINE
  8
0
 62
7
  6
CONTINUOUS
 10
73.0790505715
 20
199.0799382852
 11
72.9812219874
 21
199.2924229311
  0
LINE
  8
0
 62
7
  6
CONTINUOUS
 10
73.168412661
 20
198.6592926115
 11
73.0790505715
 21
199.0799382852
  0
LINE
  8
0
 62
7
  6
CONTINUOUS
 10
72.0417358405
 20
213.3548448168
 11
71.9651621621
 21
213.7250637569
  0
LINE
  8
0
 62
7
  6
CONTINUOUS
 10
78.0240032572
 20
218.1738686545
 11
78.0587988576
 21
217.7974183151
  0
LINE
  8
0
 62
7
  6
CONTINUOUS
 10
79.3848901709
 20
226.5025202602
 11
79.4146864125
 21
226.0568472263
  0
LINE
  8
0
 62
7
  6
CONTINUOUS
 10
80.4916376449
 20
221.9001315088
 11
80.4842207901
 21
221.5221492577
  0
LINE
  8
0
 62
7
  6
CONTINUOUS
 10
83.4801612167
 20
225.4977323579
 11
83.4306245017
 21
225.122936806
  0
LINE
  8
0
 62
7
  6
CONTINUOUS
 10
89.3260704729
 20
230.4656755716
 11
90.192806991
 21
235.4531618908
  0
LINE
  8
0
 62
7
  6
CONTINUOUS
 10
89.6431416227
 20
235.3331354705
 11
88.6905994798
 21
230.2865919074
  0
LINE
  8
0
 62
7
  6
CONTINUOUS
 10
91.8363232376
 20
236.7565670305
 11
91.7090540263
 21
236.3284142342
  0
LINE
  8
0
 62
7
  6
CONTINUOUS
 10
97.3056178527
 20
236.7183321901
 11
97.4217778768
 21
236.992521232
  0
LINE
  8
0
 62
7
  6
CONTINUOUS
 10
95.3253474919
 20
234.3885416964
 11
95.1483933347
 21
234.0544566502
  0
LINE
  8
0
 62
7
  6
CONTINUOUS
 10
99.808355682
 20
236.3295437065
 11
99.5952368642
 21
236.017284261
  0
LINE
  8
0
 62
7
  6
CONTINUOUS
 10
72.8029616114
 20
197.5273757668
 11
73.0282515581
 21
197.8309710022
  0
LINE
  8
0
 62
7
  6
CONTINUOUS
 10
70.8454043769
 20
204.2315457629
 11
70.606144991
 21
204.0542691905
  0
LINE
  8
0
 62
7
  6
CONTINUOUS
 10
70.865309509
 20
203.5978690936
 11
71.1045688949
 21
203.775145666
  0
LINE
  8
0
 62
7
  6
CONTINUOUS
 10
77.4029452733
 20
216.6126739831
 11
77.0654470859
 21
216.4423175614
  0
LINE
  8
0
 62
7
  6
CONTINUOUS
 10
73.022654984
 20
215.992887883
 11
72.469819159
 21
215.7713913866
  0
LINE
  8
0
 62
7
  6
CONTINUOUS
 10
79.8812016934
 20
220.6727764879
 11
79.5268065381
 21
220.5411342995
  0
LINE
  8
0
 62
7
  6
CONTINUOUS
 10
72.9812219874
 20
199.2924229311
 11
72.6750364349
 21
199.6176345839
  0
LINE
  8
0
 62
7
  6
CONTINUOUS
 10
70.3639567252
 20
202.3000753899
 11
70.5462306535
 21
202.0646006013
  0
LINE
  8
0
 62
7
  6
CONTINUOUS
 10
70.9677640086
 20
202.0064026803
 11
70.7854900802
 21
202.2418774689
  0
LINE
  8
0
 62
7
  6
CONTINUOUS
 10
72.453979771
 20
199.4181200474
 11
72.6538701801
 21
199.0972315679
  0
LINE
  8
0
 62
7
  6
CONTINUOUS
 10
71.4705977597
 20
213.3665548946
 11
71.7036825358
 21
212.8185032291
  0
LINE
  8
0
 62
7
  6
CONTINUOUS
 10
73.7252747004
 20
214.9113412299
 11
75.0621502292
 21
211.1974427659
  0
LINE
  8
0
 62
7
  6
CONTINUOUS
 10
75.3819008208
 20
211.9669898269
 11
74.2198395602
 21
215.269851193
  0
LINE
  8
0
 62
7
  6
CONTINUOUS
 10
75.8476669738
 20
216.8783346743
 11
75.7624206535
 21
217.1636500321
  0
LINE
  8
0
 62
7
  6
CONTINUOUS
 10
76.309839979
 20
222.4417979296
 11
76.3891676993
 21
222.0022306629
  0
LINE
  8
0
 62
7
  6
CONTINUOUS
 10
84.0056956992
 20
225.4472629928
 11
83.9758994298
 21
225.8929360516
  0
LINE
  8
0
 62
7
  6
CONTINUOUS
 10
92.2410620084
 20
235.7672379323
 11
92.3113870701
 21
236.5262455759
  0
LINE
  8
0
 62
7
  6
CONTINUOUS
 10
103.5817695096
 20
259.4609085899
 11
102.0434502017
 21
251.8998276276
  0
LINE
  8
0
 62
7
  6
CONTINUOUS
 10
96.6835217298
 20
238.3027044025
 11
96.7608007531
 21
238.6759166903
  0
LINE
  8
0
 62
7
  6
CONTINUOUS
 10
96.3143959301
 20
238.9577967204
 11
96.1790391139
 21
238.447490783
  0
LINE
  8
0
 62
7
  6
CONTINUOUS
 10
100.2547605187
 20
236.0476636418
 11
100.3901173212
 21
236.5579696139
  0
LINE
  8
0
 62
7
  6
CONTINUOUS
 10
95.8004113418
 20
234.1582202089
 11
95.9276805357
 21
234.5863730382
  0
LINE
  8
0
 62
7
  6
CONTINUOUS
 10
72.4713765761
 20
197.2281039077
 11
72.8029616114
 21
197.5273757668
  0
LINE
  8
0
 62
7
  6
CONTINUOUS
 10
60.5383620285
 20
180.0109061389
 11
54.759433489
 21
174.898142058
  0
LINE
  8
0
 62
7
  6
CONTINUOUS
 10
139.7709944731
 20
232.3655614413
 11
140.2678725879
 21
232.5440152349
  0
LINE
  8
0
 62
7
  6
CONTINUOUS
 10
162.9568780053
 20
237.3659657751
 11
155.639630158
 21
234.9176488937
  0
LINE
  8
0
 62
7
  6
CONTINUOUS
 10
155.639629791
 20
159.0685209745
 11
162.9568780053
 21
156.6202039704
  0
LINE
  8
0
 62
7
  6
CONTINUOUS
 10
54.759433489
 20
219.0880276875
 11
60.5383620285
 21
213.9752636066
  0
LINE
  8
0
 62
7
  6
CONTINUOUS
 10
72.2565188182
 20
213.0400008264
 11
72.0417358405
 21
213.3548448168
  0
LINE
  8
0
 62
7
  6
CONTINUOUS
 10
74.2198395602
 20
215.269851193
 11
74.0050565824
 21
215.5846951834
  0
LINE
  8
0
 62
7
  6
CONTINUOUS
 10
74.358493871
 20
217.7027146614
 11
74.1801742481
 21
218.0395537594
  0
LINE
  8
0
 62
7
  6
CONTINUOUS
 10
73.6565300328
 20
217.972245861
 11
73.8774722385
 21
217.4927480412
  0
LINE
  8
0
 62
7
  6
CONTINUOUS
 10
78.5476475051
 20
218.2411765348
 11
78.3267052668
 21
218.7206743726
  0
LINE
  8
0
 62
7
  6
CONTINUOUS
 10
77.1169835113
 20
221.7410095459
 11
76.8377242845
 21
222.4502700867
  0
LINE
  8
0
 62
7
  6
CONTINUOUS
 10
80.1088185538
 20
225.7160644529
 11
79.9104246257
 21
226.45205092
  0
LINE
  8
0
 62
7
  6
CONTINUOUS
 10
102.0434502017
 20
142.0863421179
 11
103.5817695096
 21
134.5252611556
  0
LINE
  8
0
 62
7
  6
CONTINUOUS
 10
81.0195219808
 20
221.9086036444
 11
80.9401942301
 21
222.3481709326
  0
LINE
  8
0
 62
7
  6
CONTINUOUS
 10
91.7090540263
 20
236.3284142342
 11
91.7235763717
 21
235.854842794
  0
LINE
  8
0
 62
7
  6
CONTINUOUS
 10
95.9276805357
 20
234.5863730382
 11
95.9131581555
 21
235.0599445442
  0
LINE
  8
0
 62
7
  6
CONTINUOUS
 10
96.1790391139
 20
238.447490783
 11
96.1795222013
 21
237.8762317259
  0
LINE
  8
0
 62
7
  6
CONTINUOUS
 10
95.3956684416
 20
235.1475469154
 11
95.3253474919
 21
234.3885416964
  0
LINE
  8
0
 62
7
  6
CONTINUOUS
 10
99.8856346781
 20
236.7027560637
 11
99.808355682
 21
236.3295437065
  0
LINE
  8
0
 62
7
  6
CONTINUOUS
 10
72.4967760851
 20
197.852587605
 11
72.1694242622
 21
197.6573963171
  0
LINE
  8
0
 62
7
  6
CONTINUOUS
 10
73.2361446849
 20
200.3245824711
 11
73.0193212437
 21
200.2291483003
  0
LINE
  8
0
 62
7
  6
CONTINUOUS
 10
72.2545531615
 20
197.1326699315
 11
72.4713765761
 21
197.2281039077
  0
LINE
  8
0
 62
7
  6
CONTINUOUS
 10
146.32016641
 20
228.6940853785
 11
145.7875513281
 21
228.4875512861
  0
LINE
  8
0
 62
7
  6
CONTINUOUS
 10
72.1435609526
 20
199.6392511871
 11
72.453979771
 21
199.4181200474
  0
LINE
  8
0
 62
7
  6
CONTINUOUS
 10
73.4122520477
 20
215.2670055796
 11
73.7252747004
 21
214.9113412299
  0
LINE
  8
0
 62
7
  6
CONTINUOUS
 10
73.8774722385
 20
217.4927480412
 11
74.2419387274
 21
217.0528613186
  0
LINE
  8
0
 62
7
  6
CONTINUOUS
 10
76.3891676993
 20
222.0022306629
 11
76.6155410762
 21
221.586014491
  0
LINE
  8
0
 62
7
  6
CONTINUOUS
 10
80.9401942301
 20
222.3481709326
 11
80.7138207924
 21
222.7643871476
  0
LINE
  8
0
 62
7
  6
CONTINUOUS
 10
77.8456847238
 20
218.5107098744
 11
78.0240032572
 21
218.1738686545
  0
LINE
  8
0
 62
7
  6
CONTINUOUS
 10
79.4146864125
 20
226.0568472263
 11
79.5932170163
 21
225.617977499
  0
LINE
  8
0
 62
7
  6
CONTINUOUS
 10
83.9758994298
 20
225.8929360516
 11
83.7973687704
 21
226.3318058285
  0
LINE
  8
0
 62
7
  6
CONTINUOUS
 10
80.2123786003
 20
222.6093919202
 11
80.4916376449
 21
221.9001315088
  0
LINE
  8
0
 62
7
  6
CONTINUOUS
 10
83.2817658668
 20
226.2337168981
 11
83.4801612167
 21
225.4977323579
  0
LINE
  8
0
 62
7
  6
CONTINUOUS
 10
96.7032060477
 20
237.9675639836
 11
96.6835217298
 21
238.3027044025
  0
LINE
  8
0
 62
7
  6
CONTINUOUS
 10
97.325302116
 20
236.38319191
 11
97.3056178527
 21
236.7183321901
  0
LINE
  8
0
 62
7
  6
CONTINUOUS
 10
99.8659504692
 20
237.0378962052
 11
99.8856346781
 21
236.7027560637
  0
LINE
  8
0
 62
7
  6
CONTINUOUS
 10
100.3901173212
 20
236.5579696139
 11
100.3896343156
 21
237.1292284629
  0
LINE
  8
0
 62
7
  6
CONTINUOUS
 10
140.0734954148
 20
233.1878777449
 11
139.8088432425
 21
232.9813187857
  0
LINE
  8
0
 62
7
  6
CONTINUOUS
 10
140.2678725879
 20
232.5440152349
 11
140.5325247601
 21
232.7505741941
  0
LINE
  8
0
 62
7
  6
CONTINUOUS
 10
141.2816137878
 20
229.9686378155
 11
143.865975051
 21
231.5339886491
  0
LINE
  8
0
 62
7
  6
CONTINUOUS
 10
139.7764516892
 20
229.0183749956
 11
140.925059072
 21
229.7140843658
  0
LINE
  8
0
 62
7
  6
CONTINUOUS
 10
143.8277851651
 20
232.1283224444
 11
139.3027639494
 21
229.4261064332
  0
LINE
  8
0
 62
7
  6
CONTINUOUS
 10
146.0616477884
 20
228.0320817309
 11
146.3671232554
 21
228.1713379882
  0
LINE
  8
0
 62
7
  6
CONTINUOUS
 10
144.8083808074
 20
226.8803177532
 11
145.1138561647
 21
227.0195739096
  0
LINE
  8
0
 62
7
  6
CONTINUOUS
 10
146.3355343741
 20
224.7469264184
 11
146.0300591265
 21
224.6076703628
  0
LINE
  8
0
 62
7
  6
CONTINUOUS
 10
146.077015917
 20
224.0849229221
 11
146.6096308344
 21
224.2914568632
  0
LINE
  8
0
 62
7
  6
CONTINUOUS
 10
72.6750364349
 20
199.6176345839
 11
73.214978424
 21
199.8041793062
  0
LINE
  8
0
 62
7
  6
CONTINUOUS
 10
71.7036825358
 20
212.8185032291
 11
72.0566743554
 21
212.5590330876
  0
LINE
  8
0
 62
7
  6
CONTINUOUS
 10
74.5872633198
 20
217.4570083149
 11
74.358493871
 21
217.7027146614
  0
LINE
  8
0
 62
7
  6
CONTINUOUS
 10
76.0764362922
 20
216.6326284
 11
75.8476669738
 21
216.8783346743
  0
LINE
  8
0
 62
7
  6
CONTINUOUS
 10
77.616914381
 20
218.7564139907
 11
77.8456847238
 21
218.5107098744
  0
LINE
  8
0
 62
7
  6
CONTINUOUS
 10
78.3267052668
 20
218.7206743726
 11
77.9622401281
 21
219.1605630729
  0
LINE
  8
0
 62
7
  6
CONTINUOUS
 10
76.6155410762
 20
221.586014491
 11
76.815473963
 21
221.316323161
  0
LINE
  8
0
 62
7
  6
CONTINUOUS
 10
80.7138207924
 20
222.7643871476
 11
80.5138881487
 21
223.0340783051
  0
LINE
  8
0
 62
7
  6
CONTINUOUS
 10
79.5932170163
 20
225.617977499
 11
79.7618147029
 21
225.3276640658
  0
LINE
  8
0
 62
7
  6
CONTINUOUS
 10
83.7973687704
 20
226.3318058285
 11
83.6287713062
 21
226.6221190632
  0
LINE
  8
0
 62
7
  6
CONTINUOUS
 10
91.7235763717
 20
235.854842794
 11
91.7805247377
 21
235.5239901737
  0
LINE
  8
0
 62
7
  6
CONTINUOUS
 10
95.9131581555
 20
235.0599445442
 11
95.8562099287
 21
235.390796901
  0
LINE
  8
0
 62
7
  6
CONTINUOUS
 10
145.7875513281
 20
228.4875512861
 11
145.1687593627
 21
228.0603542612
  0
LINE
  8
0
 62
7
  6
CONTINUOUS
 10
145.5211914556
 20
227.6768629266
 11
146.0616477884
 21
228.0320817309
  0
LINE
  8
0
 62
7
  6
CONTINUOUS
 10
74.0050565824
 20
215.5846951834
 11
73.6520652202
 21
215.8441664258
  0
LINE
  8
0
 62
7
  6
CONTINUOUS
 10
74.2419387274
 20
217.0528613186
 11
74.843001126
 21
216.6010601557
  0
LINE
  8
0
 62
7
  6
CONTINUOUS
 10
75.0952529931
 20
217.0567319352
 11
74.5872633198
 21
217.4570083149
  0
LINE
  8
0
 62
7
  6
CONTINUOUS
 10
77.5771485002
 20
221.2865613974
 11
77.1169835113
 21
221.7410095459
  0
LINE
  8
0
 62
7
  6
CONTINUOUS
 10
79.7522134899
 20
223.063840155
 11
80.2123786003
 21
222.6093919202
  0
LINE
  8
0
 62
7
  6
CONTINUOUS
 10
76.815473963
 20
221.316323161
 11
77.1888943768
 21
220.9234600281
  0
LINE
  8
0
 62
7
  6
CONTINUOUS
 10
80.5138881487
 20
223.0340783051
 11
80.1404676134
 21
223.4269415243
  0
LINE
  8
0
 62
7
  6
CONTINUOUS
 10
80.5154164764
 20
225.2131205501
 11
80.1088185538
 21
225.7160644529
  0
LINE
  8
0
 62
7
  6
CONTINUOUS
 10
82.8751694215
 20
226.7366626781
 11
83.2817658668
 21
226.2337168981
  0
LINE
  8
0
 62
7
  6
CONTINUOUS
 10
79.7618147029
 20
225.3276640658
 11
80.0890780804
 21
224.8955958671
  0
LINE
  8
0
 62
7
  6
CONTINUOUS
 10
83.6287713062
 20
226.6221190632
 11
83.301506229
 21
227.0541855832
  0
LINE
  8
0
 62
7
  6
CONTINUOUS
 10
92.4470650728
 20
235.1541823251
 11
92.2410620084
 21
235.7672379323
  0
LINE
  8
0
 62
7
  6
CONTINUOUS
 10
95.1896695239
 20
235.7606048813
 11
95.3956684416
 21
235.1475469154
  0
LINE
  8
0
 62
7
  6
CONTINUOUS
 10
91.7805247377
 20
235.5239901737
 11
91.9368386399
 21
235.0050000897
  0
LINE
  8
0
 62
7
  6
CONTINUOUS
 10
95.8562099287
 20
235.390796901
 11
95.6998917405
 21
235.9097848897
  0
LINE
  8
0
 62
7
  6
CONTINUOUS
 10
96.1795222013
 20
237.8762317259
 11
96.3547304137
 21
237.1449986007
  0
LINE
  8
0
 62
7
  6
CONTINUOUS
 10
96.8395332592
 20
237.3353541044
 11
96.7032060477
 21
237.9675639836
  0
LINE
  8
1_AXIS
 62
2
  6
CONTINUOUS
 10
114.1345419847
 20
198.0430848727
 11
114.1345419847
 21
195.9430848727
  0
LINE
  8
1_AXIS
 62
2
  6
CENTER
 10
114.1345419847
 20
191.7430848727
 11
114.1345419847
 21
130.9930848727
  0
LINE
  8
1_AXIS
 62
2
  6
CENTER
 10
114.1345419847
 20
202.2430848727
 11
114.1345419847
 21
262.9930848727
  0
LINE
  8
0
 62
7
  6
CONTINUOUS
 10
138.2266658612
 20
236.2267849712
 11
135.4342029106
 21
232.0792374225
  0
LINE
  8
0
 62
7
  6
CONTINUOUS
 10
135.9526463542
 20
231.7301795536
 11
137.2003425839
 21
233.583339123
  0
LINE
  8
0
 62
7
  6
CONTINUOUS
 10
137.5568271734
 20
234.1128132151
 11
138.4480388136
 21
235.4364986924
  0
LINE
  8
0
 62
7
  6
CONTINUOUS
 10
145.1687593627
 20
228.0603542612
 11
144.6204551065
 21
227.5564575651
  0
LINE
  8
0
 62
7
  6
CONTINUOUS
 10
145.3645330967
 20
227.5328924419
 11
145.5211914556
 21
227.6768629266
  0
LINE
  8
0
 62
7
  6
CONTINUOUS
 10
144.573393269
 20
226.6643620263
 11
144.8083808074
 21
226.8803177532
  0
LINE
  8
1_AXIS
 62
2
  6
CONTINUOUS
 10
115.1845419847
 20
196.9930848727
 11
113.0845419847
 21
196.9930848727
  0
LINE
  8
1_AXIS
 62
2
  6
CENTER
 10
108.8845419847
 20
196.9930848727
 11
48.1345419847
 21
196.9930848727
  0
LINE
  8
1_AXIS
 62
2
  6
CENTER
 10
119.3845419847
 20
196.9930848727
 11
180.1345419847
 21
196.9930848727
  0
LINE
  8
0
 62
7
  6
CONTINUOUS
 10
69.6992377288
 20
197.1323490051
 11
71.8251395092
 21
197.0458825984
  0
LINE
  8
0
 62
7
  6
CONTINUOUS
 10
71.8463057656
 20
197.5662856516
 11
69.7204039851
 21
197.6527520583
  0
LINE
  8
0
 62
7
  6
CONTINUOUS
 10
69.9480821073
 20
201.62140858
 11
73.3203492428
 21
201.1558251712
  0
LINE
  8
0
 62
7
  6
CONTINUOUS
 10
73.3915810953
 20
201.6717645938
 11
70.9677640086
 21
202.0064026803
  0
LINE
  8
0
 62
7
  6
CONTINUOUS
 10
70.5462306535
 20
202.0646006013
 11
70.0193139597
 21
202.1373480026
  0
LINE
  8
0
 62
7
  6
CONTINUOUS
 10
68.9947842845
 20
205.8514194542
 11
69.5161552166
 21
205.7460356897
  0
LINE
  8
0
 62
7
  6
CONTINUOUS
 10
70.5588973728
 20
205.5352681019
 11
73.8956716301
 21
204.8608119505
  0
LINE
  8
0
 62
7
  6
CONTINUOUS
 10
73.9988598724
 20
205.3713208543
 11
70.6620856151
 21
206.0457770056
  0
LINE
  8
0
 62
7
  6
CONTINUOUS
 10
69.6193434589
 20
206.2565445935
 11
69.0979725268
 21
206.3619283579
  0
LINE
  8
0
 62
7
  6
CONTINUOUS
 10
75.0621502292
 20
211.1974427659
 11
75.5533509596
 21
210.9933464447
  0
LINE
  8
0
 62
7
  6
CONTINUOUS
 10
74.843001126
 20
216.6010601557
 11
75.4945142444
 21
216.2403939745
  0
LINE
  8
0
 62
7
  6
CONTINUOUS
 10
75.2813995984
 20
216.9536844548
 11
75.0952529931
 21
217.0567319352
  0
LINE
  8
0
 62
7
  6
CONTINUOUS
 10
76.3556562001
 20
216.4780571795
 11
76.0764362922
 21
216.6326284
  0
LINE
  8
0
 62
7
  6
CONTINUOUS
 10
77.1888943768
 20
220.9234600281
 11
77.9695955527
 21
220.3691948872
  0
LINE
  8
0
 62
7
  6
CONTINUOUS
 10
78.184360526
 20
220.8554662878
 11
77.5771485002
 21
221.2865613974
  0
LINE
  8
0
 62
7
  6
CONTINUOUS
 10
80.0890780804
 20
224.8955958671
 11
80.80307469
 21
224.2576985289
  0
LINE
  8
0
 62
7
  6
CONTINUOUS
 10
81.0707471728
 20
224.716978176
 11
80.5154164764
 21
225.2131205501
  0
LINE
  8
0
 62
7
  6
CONTINUOUS
 10
86.3383261119
 20
233.7042638593
 11
86.6398995827
 21
233.2661008437
  0
LINE
  8
0
 62
7
  6
CONTINUOUS
 10
88.6905994798
 20
230.2865919074
 11
89.1731170753
 21
229.5855310209
  0
LINE
  8
0
 62
7
  6
CONTINUOUS
 10
91.9368386399
 20
235.0050000897
 11
92.3840031528
 21
234.1583903385
  0
LINE
  8
0
 62
7
  6
CONTINUOUS
 10
92.794859694
 20
234.4957080742
 11
92.4470650728
 21
235.1541823251
  0
LINE
  8
0
 62
7
  6
CONTINUOUS
 10
96.3547304137
 20
237.1449986007
 11
96.6268974198
 21
236.4518358792
  0
LINE
  8
0
 62
7
  6
CONTINUOUS
 10
96.9172952609
 20
237.1373076125
 11
96.8395332592
 21
237.3353541044
  0
LINE
  8
0
 62
7
  6
CONTINUOUS
 10
97.4419451186
 20
236.0861221722
 11
97.325302116
 21
236.38319191
  0
LINE
  8
0
 62
7
  6
CONTINUOUS
 10
140.251737876
 20
233.4526150381
 11
140.0734954148
 21
233.1878777449
  0
LINE
  8
0
 62
7
  6
CONTINUOUS
 10
140.5325247601
 20
232.7505741941
 11
140.7701813196
 21
233.1035571693
  0
LINE
  8
0
 62
7
  6
CONTINUOUS
 10
144.6204551065
 20
227.5564575651
 11
144.1426384498
 21
226.9758610968
  0
LINE
  8
0
 62
7
  6
CONTINUOUS
 10
146.5705219125
 20
224.9628821453
 11
146.3355343741
 21
224.7469264184
  0
LINE
  8
0
 62
7
  6
CONTINUOUS
 10
146.6096308344
 20
224.2914568632
 11
147.0012768414
 21
224.6513831756
  0
LINE
  8
0
 62
7
  6
CONTINUOUS
 10
69.805069009
 20
199.7343642338
 11
72.1435609526
 21
199.6392511871
  0
LINE
  8
0
 62
7
  6
CONTINUOUS
 10
72.5899076142
 20
200.1423610688
 11
69.8262352698
 21
200.2547673987
  0
LINE
  8
0
 62
7
  6
CONTINUOUS
 10
71.6457319836
 20
203.8055863264
 11
73.6480157153
 21
203.5291461609
  0
LINE
  8
0
 62
7
  6
CONTINUOUS
 10
73.719247527
 20
204.0450852882
 11
71.7169637953
 21
204.3215254538
  0
LINE
  8
0
 62
7
  6
CONTINUOUS
 10
75.4945142444
 20
216.2403939745
 11
76.196478213
 21
215.9708627028
  0
LINE
  8
0
 62
7
  6
CONTINUOUS
 10
73.2157715079
 20
215.348644211
 11
73.4122520477
 21
215.2670055796
  0
LINE
  8
0
 62
7
  6
CONTINUOUS
 10
76.9922299941
 20
214.4563115216
 11
76.5010292637
 21
214.6604078428
  0
LINE
  8
0
 62
7
  6
CONTINUOUS
 10
73.6520652202
 20
215.8441664258
 11
73.4555846803
 21
215.9258050572
  0
LINE
  8
0
 62
7
  6
CONTINUOUS
 10
77.9695955527
 20
220.3691948872
 11
78.4636210115
 21
220.1462077773
  0
LINE
  8
0
 62
7
  6
CONTINUOUS
 10
78.7651305599
 20
220.5708941622
 11
78.184360526
 21
220.8554662878
  0
LINE
  8
0
 62
7
  6
CONTINUOUS
 10
77.3376944731
 20
218.9109852112
 11
77.616914381
 21
218.7564139907
  0
LINE
  8
0
 62
7
  6
CONTINUOUS
 10
77.9622401281
 20
219.1605630729
 11
77.4968734846
 21
219.4181818459
  0
LINE
  8
0
 62
7
  6
CONTINUOUS
 10
80.80307469
 20
224.2576985289
 11
81.2691409898
 21
223.9809918081
  0
LINE
  8
0
 62
7
  6
CONTINUOUS
 10
81.6161448408
 20
224.3693921953
 11
81.0707471728
 21
224.716978176
  0
LINE
  8
0
 62
7
  6
CONTINUOUS
 10
79.1450014642
 20
223.4949352646
 11
79.7522134899
 21
223.063840155
  0
LINE
  8
0
 62
7
  6
CONTINUOUS
 10
80.1404676134
 20
223.4269415243
 11
79.3597664374
 21
223.9812066652
  0
LINE
  8
0
 62
7
  6
CONTINUOUS
 10
82.3198387251
 20
227.2328050523
 11
82.8751694215
 21
226.7366626781
  0
LINE
  8
0
 62
7
  6
CONTINUOUS
 10
83.301506229
 20
227.0541855832
 11
82.5875096194
 21
227.6920829214
  0
LINE
  8
0
 62
7
  6
CONTINUOUS
 10
92.3840031528
 20
234.1583903385
 11
92.7245387791
 21
233.7367027893
  0
LINE
  8
0
 62
7
  6
CONTINUOUS
 10
93.1850760498
 20
233.9799505479
 11
92.794859694
 21
234.4957080742
  0
LINE
  8
0
 62
7
  6
CONTINUOUS
 10
92.6053950953
 20
231.9478572743
 11
92.2435068881
 21
232.4736529545
  0
LINE
  8
0
 62
7
  6
CONTINUOUS
 10
90.192806991
 20
235.4531618908
 11
89.7706041319
 21
236.0665901127
  0
LINE
  8
0
 62
7
  6
CONTINUOUS
 10
96.6268974198
 20
236.4518358792
 11
96.996023274
 21
235.7967434226
  0
LINE
  8
0
 62
7
  6
CONTINUOUS
 10
94.8418749027
 20
236.4190791323
 11
95.1896695239
 21
235.7606048813
  0
LINE
  8
0
 62
7
  6
CONTINUOUS
 10
95.6998917405
 20
235.9097848897
 11
95.2527272275
 21
236.756394641
  0
LINE
  8
0
 62
7
  6
CONTINUOUS
 10
99.7493074666
 20
237.334965943
 11
99.8659504692
 21
237.0378962052
  0
LINE
  8
0
 62
7
  6
CONTINUOUS
 10
100.3896343156
 20
237.1292284629
 11
100.1952292568
 21
237.6243448313
  0
LINE
  8
0
 62
7
  6
CONTINUOUS
 10
144.4088934399
 20
226.3717066281
 11
144.573393269
 21
226.6643620263
  0
LINE
  8
0
 62
7
  6
CONTINUOUS
 10
72.1694242622
 20
197.6573963171
 11
71.8463057656
 21
197.5662856516
  0
LINE
  8
0
 62
7
  6
CONTINUOUS
 10
71.8251395092
 20
197.0458825984
 11
72.2545531615
 21
197.1326699315
  0
LINE
  8
0
 62
7
  6
CONTINUOUS
 10
73.0193212437
 20
200.2291483003
 11
72.5899076142
 21
200.1423610688
  0
LINE
  8
0
 62
7
  6
CONTINUOUS
 10
71.1045688949
 20
203.775145666
 11
71.6457319836
 21
203.8055863264
  0
LINE
  8
0
 62
7
  6
CONTINUOUS
 10
71.7169637953
 20
204.3215254538
 11
71.1758007881
 21
204.2910853838
  0
LINE
  8
0
 62
7
  6
CONTINUOUS
 10
76.6853268279
 20
216.4146209406
 11
76.3556562001
 21
216.4780571795
  0
LINE
  8
0
 62
7
  6
CONTINUOUS
 10
78.4636210115
 20
220.1462077773
 11
78.7841558184
 21
220.0463888409
  0
LINE
  8
0
 62
7
  6
CONTINUOUS
 10
81.2691409898
 20
223.9809918081
 11
81.5765412653
 21
223.8460401507
  0
LINE
  8
0
 62
7
  6
CONTINUOUS
 10
79.3597664374
 20
223.9812066652
 11
78.8657411001
 21
224.2041936888
  0
LINE
  8
0
 62
7
  6
CONTINUOUS
 10
78.5642315518
 20
223.7795073039
 11
79.1450014642
 21
223.4949352646
  0
LINE
  8
0
 62
7
  6
CONTINUOUS
 10
82.5875096194
 20
227.6920829214
 11
82.1214450192
 21
227.9687913208
  0
LINE
  8
0
 62
7
  6
CONTINUOUS
 10
81.7744395798
 20
227.5803891558
 11
82.3198387251
 21
227.2328050523
  0
LINE
  8
0
 62
7
  6
CONTINUOUS
 10
92.7245387791
 20
233.7367027893
 11
92.9657002276
 21
233.5031486452
  0
LINE
  8
0
 62
7
  6
CONTINUOUS
 10
97.6555469149
 20
235.827122838
 11
97.4419451186
 21
236.0861221722
  0
LINE
  8
0
 62
7
  6
CONTINUOUS
 10
95.2527272275
 20
236.756394641
 11
94.9121958873
 21
237.1780842854
  0
LINE
  8
0
 62
7
  6
CONTINUOUS
 10
94.4516544002
 20
236.9348342998
 11
94.8418749027
 21
236.4190791323
  0
LINE
  8
0
 62
7
  6
CONTINUOUS
 10
140.3435702932
 20
233.775530171
 11
140.251737876
 21
233.4526150381
  0
LINE
  8
0
 62
7
  6
CONTINUOUS
 10
140.7701813196
 20
233.1035571693
 11
140.8620137368
 21
233.4264723022
  0
LINE
  8
0
 62
7
  6
CONTINUOUS
 10
142.4606846241
 20
226.7078947758
 11
144.4593664089
 21
231.5846826015
  0
LINE
  8
0
 62
7
  6
CONTINUOUS
 10
142.5040157954
 20
228.3549816478
 11
141.9869968843
 21
227.1156262133
  0
LINE
  8
0
 62
7
  6
CONTINUOUS
 10
143.865975051
 20
231.5339886491
 11
142.7026770073
 21
228.7454435029
  0
LINE
  8
0
 62
7
  6
CONTINUOUS
 10
144.1426384498
 20
226.9758610968
 11
143.891961463
 21
226.4625425141
  0
LINE
  8
0
 62
7
  6
CONTINUOUS
 10
147.0012768414
 20
224.6513831756
 11
147.2519537734
 21
225.1647017079
  0
LINE
  8
0
 62
7
  6
CONTINUOUS
 10
146.7350218513
 20
225.2555376444
 11
146.5705219125
 21
224.9628821453
  0
LINE
  8
0
 62
7
  6
CONTINUOUS
 10
148.2702333257
 20
226.1005100595
 11
148.4347331549
 21
226.3931654578
  0
LINE
  8
0
 62
7
  6
CONTINUOUS
 10
71.1758007881
 20
204.2910853838
 11
70.8454043769
 21
204.2315457629
  0
LINE
  8
0
 62
7
  6
CONTINUOUS
 10
76.196478213
 20
215.9708627028
 11
76.7627450763
 21
215.8955118433
  0
LINE
  8
0
 62
7
  6
CONTINUOUS
 10
77.4968734846
 20
219.4181818459
 11
76.9306055318
 21
219.4935305835
  0
LINE
  8
0
 62
7
  6
CONTINUOUS
 10
73.4555846803
 20
215.9258050572
 11
73.022654984
 21
215.992887883
  0
LINE
  8
0
 62
7
  6
CONTINUOUS
 10
78.7841558184
 20
220.0463888409
 11
79.2517391031
 21
219.9699248443
  0
LINE
  8
0
 62
7
  6
CONTINUOUS
 10
77.0080248697
 20
218.9744236081
 11
77.3376944731
 21
218.9109852112
  0
LINE
  8
0
 62
7
  6
CONTINUOUS
 10
75.7206523369
 20
220.1633393501
 11
75.3909828638
 21
220.2267776748
  0
LINE
  8
0
 62
7
  6
CONTINUOUS
 10
81.5765412653
 20
223.8460401507
 11
82.03267437
 21
223.7178899722
  0
LINE
  8
0
 62
7
  6
CONTINUOUS
 10
78.8657411001
 20
224.2041936888
 11
78.5452060502
 21
224.3040127978
  0
LINE
  8
0
 62
7
  6
CONTINUOUS
 10
82.1214450192
 20
227.9687913208
 11
81.8140445215
 21
228.1037431768
  0
LINE
  8
0
 62
7
  6
CONTINUOUS
 10
92.9657002276
 20
233.5031486452
 11
93.3486574841
 21
233.2241780184
  0
LINE
  8
0
 62
7
  6
CONTINUOUS
 10
94.9121958873
 20
237.1780842854
 11
94.6710342995
 21
237.411638693
  0
LINE
  8
0
 62
7
  6
CONTINUOUS
 10
96.996023274
 20
235.7967434226
 11
97.3843503315
 21
235.3777696736
  0
LINE
  8
0
 62
7
  6
CONTINUOUS
 10
100.1952292568
 20
237.6243448313
 11
99.8069022265
 21
238.0433185109
  0
LINE
  8
0
 62
7
  6
CONTINUOUS
 10
99.5357056158
 20
237.5939654158
 11
99.7493074666
 21
237.334965943
  0
LINE
  8
0
 62
7
  6
CONTINUOUS
 10
99.3014491063
 20
239.3306209855
 11
99.08784731
 21
239.5896203196
  0
LINE
  8
0
 62
7
  6
CONTINUOUS
 10
143.891961463
 20
226.4625425141
 11
143.7901013922
 21
225.9445095276
  0
LINE
  8
0
 62
7
  6
CONTINUOUS
 10
124.6873144598
 20
134.5252611556
 11
126.2256337677
 21
142.0863421179
  0
LINE
  8
0
 62
7
  6
CONTINUOUS
 10
144.3148748119
 20
226.00235853
 11
144.4088934399
 21
226.3717066281
  0
LINE
  8
0
 62
7
  6
CONTINUOUS
 10
167.730721941
 20
213.9752636066
 11
173.5096504804
 21
219.0880276875
  0
LINE
  8
0
 62
7
  6
CONTINUOUS
 10
65.3122059641
 20
156.6202039704
 11
72.6294536073
 21
159.0685207834
  0
LINE
  8
0
 62
7
  6
CONTINUOUS
 10
146.0300591265
 20
224.6076703628
 11
145.654102568
 21
224.5451069062
  0
LINE
  8
0
 62
7
  6
CONTINUOUS
 10
76.7627450763
 20
215.8955118433
 11
77.2863893242
 21
215.9628197236
  0
LINE
  8
0
 62
7
  6
CONTINUOUS
 10
145.5522424973
 20
224.0270739197
 11
146.077015917
 21
224.0849229221
  0
LINE
  8
0
 62
7
  6
CONTINUOUS
 10
77.0654470859
 20
216.4423175614
 11
76.6853268279
 21
216.4146209406
  0
LINE
  8
0
 62
7
  6
CONTINUOUS
 10
79.5268065381
 20
220.5411342995
 11
78.7651305599
 21
220.5708941622
  0
LINE
  8
0
 62
7
  6
CONTINUOUS
 10
82.3697466699
 20
224.25484863
 11
81.6161448408
 21
224.3693921953
  0
LINE
  8
0
 62
7
  6
CONTINUOUS
 10
78.5452060502
 20
224.3040127978
 11
78.0776228263
 21
224.3804767512
  0
LINE
  8
0
 62
7
  6
CONTINUOUS
 10
81.8140445215
 20
228.1037431768
 11
81.3579114723
 21
228.2318933057
  0
LINE
  8
0
 62
7
  6
CONTINUOUS
 10
72.6294538115
 20
234.9176488937
 11
65.3122059641
 21
237.3659657751
  0
LINE
  8
0
 62
7
  6
CONTINUOUS
 10
93.8516206361
 20
233.6101448604
 11
93.1850760498
 21
233.9799505479
  0
LINE
  8
0
 62
7
  6
CONTINUOUS
 10
97.3843503315
 20
235.3777696736
 11
97.8307551682
 21
235.0958896088
  0
LINE
  8
0
 62
7
  6
CONTINUOUS
 10
97.9661119707
 20
235.6061955809
 11
97.6555469149
 21
235.827122838
  0
LINE
  8
0
 62
7
  6
CONTINUOUS
 10
94.6710342995
 20
237.411638693
 11
94.2880770779
 21
237.6906092539
  0
LINE
  8
0
 62
7
  6
CONTINUOUS
 10
173.5096504804
 20
174.898142058
 11
167.730721941
 21
180.0109061389
  0
LINE
  8
0
 62
7
  6
CONTINUOUS
 10
126.2256337677
 20
251.8998276276
 11
124.6873144598
 21
259.4609085899
  0
LINE
  8
0
 62
7
  6
CONTINUOUS
 10
140.8620137368
 20
233.4264723022
 11
140.840448408
 21
233.9539839646
  0
LINE
  8
0
 62
7
  6
CONTINUOUS
 10
148.4347331549
 20
226.3931654578
 11
148.5365931982
 21
226.9111984191
  0
LINE
  8
0
 62
7
  6
CONTINUOUS
 10
148.0118198059
 20
226.8533494419
 11
147.917807686
 21
226.4839943724
  0
LINE
  8
0
 62
7
  6
CONTINUOUS
 10
72.8411132343
 20
215.2787146709
 11
73.2157715079
 21
215.348644211
  0
LINE
  8
0
 62
7
  6
CONTINUOUS
 10
146.3671232554
 20
228.1713379882
 11
146.743079759
 21
228.2339013944
  0
LINE
  8
0
 62
7
  6
CONTINUOUS
 10
79.2517391031
 20
219.9699248443
 11
79.6928788638
 21
220.0399819955
  0
LINE
  8
0
 62
7
  6
CONTINUOUS
 10
75.3909828638
 20
220.2267776748
 11
74.8673386485
 21
220.1594697765
  0
LINE
  8
0
 62
7
  6
CONTINUOUS
 10
146.8449398023
 20
228.7519343557
 11
146.32016641
 21
228.6940853785
  0
LINE
  8
0
 62
7
  6
CONTINUOUS
 10
75.0882808542
 20
219.6799719567
 11
75.4684010471
 21
219.7076686136
  0
LINE
  8
0
 62
7
  6
CONTINUOUS
 10
82.03267437
 20
223.7178899722
 11
82.4788758959
 21
223.7382980892
  0
LINE
  8
0
 62
7
  6
CONTINUOUS
 10
77.8025553913
 20
223.809267296
 11
78.5642315518
 21
223.7795073039
  0
LINE
  8
0
 62
7
  6
CONTINUOUS
 10
81.0208391725
 20
227.6949346479
 11
81.7744395798
 21
227.5803891558
  0
LINE
  8
0
 62
7
  6
CONTINUOUS
 10
93.3486574841
 20
233.2241780184
 11
93.7740363881
 21
233.087924281
  0
LINE
  8
0
 62
7
  6
CONTINUOUS
 10
93.7851139258
 20
237.3046424119
 11
94.4516544002
 21
236.9348342998
  0
LINE
  8
0
 62
7
  6
CONTINUOUS
 10
99.08784731
 20
239.5896203196
 11
98.6414424869
 21
239.8715003497
  0
LINE
  8
0
 62
7
  6
CONTINUOUS
 10
98.5060856708
 20
239.3611944123
 11
98.8166506993
 21
239.1402672245
  0
LINE
  8
0
 62
7
  6
CONTINUOUS
 10
146.750711245
 20
225.5529004497
 11
146.7350218513
 21
225.2555376444
  0
LINE
  8
0
 62
7
  6
CONTINUOUS
 10
147.2519537734
 20
225.1647017079
 11
147.2754846373
 21
225.6107494269
  0
LINE
  8
0
 62
7
  6
CONTINUOUS
 10
76.7209768248
 20
218.8952011252
 11
77.0080248697
 21
218.9744236081
  0
LINE
  8
0
 62
7
  6
CONTINUOUS
 10
76.9306055318
 20
219.4935305835
 11
76.5000346191
 21
219.3746989449
  0
LINE
  8
0
 62
7
  6
CONTINUOUS
 10
82.7366152114
 20
224.3461342538
 11
82.3697466699
 21
224.25484863
  0
LINE
  8
0
 62
7
  6
CONTINUOUS
 10
139.8088432425
 20
232.9813187857
 11
139.5172032018
 21
232.9211782693
  0
LINE
  8
0
 62
7
  6
CONTINUOUS
 10
78.0776228263
 20
224.3804767512
 11
77.6364830959
 21
224.3104195784
  0
LINE
  8
0
 62
7
  6
CONTINUOUS
 10
139.2471284898
 20
232.3335260904
 11
139.7709944731
 21
232.3655614413
  0
LINE
  8
0
 62
7
  6
CONTINUOUS
 10
81.3579114723
 20
228.2318933057
 11
80.9117099742
 21
228.2114851639
  0
LINE
  8
0
 62
7
  6
CONTINUOUS
 10
145.1138561647
 20
227.0195739096
 11
145.4114834889
 21
227.0101520735
  0
LINE
  8
0
 62
7
  6
CONTINUOUS
 10
93.7740363881
 20
233.087924281
 11
94.3836285095
 21
233.0489687644
  0
LINE
  8
0
 62
7
  6
CONTINUOUS
 10
94.2273145769
 20
233.5679589061
 11
93.8516206361
 21
233.6101448604
  0
LINE
  8
0
 62
7
  6
CONTINUOUS
 10
97.8307551682
 20
235.0958896088
 11
98.4322010265
 21
234.9891753487
  0
LINE
  8
0
 62
7
  6
CONTINUOUS
 10
98.334754792
 20
235.5223620427
 11
97.9661119707
 21
235.6061955809
  0
LINE
  8
0
 62
7
  6
CONTINUOUS
 10
145.654102568
 20
224.5451069062
 11
145.2859875346
 21
224.6312284137
  0
LINE
  8
0
 62
7
  6
CONTINUOUS
 10
144.9648292986
 20
224.1946024867
 11
145.5522424973
 21
224.0270739197
  0
LINE
  8
0
 62
7
  6
CONTINUOUS
 10
94.2880770779
 20
237.6906092539
 11
93.8626981913
 21
237.8268629584
  0
LINE
  8
0
 62
7
  6
CONTINUOUS
 10
99.2640215882
 20
237.7158693577
 11
99.5357056158
 21
237.5939654158
  0
LINE
  8
0
 62
7
  6
CONTINUOUS
 10
99.8069022265
 20
238.0433185109
 11
99.3993784043
 21
238.2261752951
  0
LINE
  8
0
 62
7
  6
CONTINUOUS
 10
143.7901013922
 20
225.9445095276
 11
143.9075459262
 21
225.3450624471
  0
LINE
  8
0
 62
7
  6
CONTINUOUS
 10
140.2895866455
 20
234.0683723826
 11
140.3435702932
 21
233.775530171
  0
LINE
  8
0
 62
7
  6
CONTINUOUS
 10
144.3696731275
 20
225.6282960533
 11
144.3148748119
 21
226.00235853
  0
LINE
  8
0
 62
7
  6
CONTINUOUS
 10
80.653970631
 20
227.6036490241
 11
81.0208391725
 21
227.6949346479
  0
LINE
  8
0
 62
7
  6
CONTINUOUS
 10
98.4322010265
 20
234.9891753487
 11
98.9558804378
 21
235.080505855
  0
LINE
  8
0
 62
7
  6
CONTINUOUS
 10
98.6645166125
 20
235.5375517504
 11
98.334754792
 21
235.5223620427
  0
LINE
  8
0
 62
7
  6
CONTINUOUS
 10
98.5656169464
 20
237.7845131881
 11
98.8953787668
 21
237.7997028959
  0
LINE
  8
0
 62
7
  6
CONTINUOUS
 10
93.8626981913
 20
237.8268629584
 11
93.2531018665
 21
237.8658162232
  0
LINE
  8
0
 62
7
  6
CONTINUOUS
 10
93.4094199851
 20
237.3468283662
 11
93.7851139258
 21
237.3046424119
  0
LINE
  8
0
 62
7
  6
CONTINUOUS
 10
99.3993784043
 20
238.2261752951
 11
98.7979369947
 21
238.3328912719
  0
LINE
  8
0
 62
7
  6
CONTINUOUS
 10
98.6414424869
 20
239.8715003497
 11
98.0399966388
 21
239.9782145838
  0
LINE
  8
0
 62
7
  6
CONTINUOUS
 10
98.8953787668
 20
237.7997028959
 11
99.2640215882
 21
237.7158693577
  0
LINE
  8
0
 62
7
  6
CONTINUOUS
 10
98.1374428494
 20
239.4450279505
 11
98.5060856708
 21
239.3611944123
  0
LINE
  8
0
 62
7
  6
CONTINUOUS
 10
145.4114834889
 20
227.0101520735
 11
145.7795985222
 21
226.924030566
  0
LINE
  8
0
 62
7
  6
CONTINUOUS
 10
146.1007631634
 20
227.360649427
 11
145.3645330967
 21
227.5328924419
  0
LINE
  8
0
 62
7
  6
CONTINUOUS
 10
146.743079759
 20
228.2339013944
 11
147.1111947924
 21
228.1477798869
  0
LINE
  8
0
 62
7
  6
CONTINUOUS
 10
139.5172032018
 20
232.9211782693
 11
139.1985673817
 21
233.0074615217
  0
LINE
  8
0
 62
7
  6
CONTINUOUS
 10
147.4323594336
 20
228.5843987479
 11
146.8449398023
 21
228.7519343557
  0
LINE
  8
0
 62
7
  6
CONTINUOUS
 10
145.2859875346
 20
224.6312284137
 11
144.9962016807
 21
224.7893351634
  0
LINE
  8
0
 62
7
  6
CONTINUOUS
 10
145.7795985222
 20
226.924030566
 11
146.0693843762
 21
226.7659238163
  0
LINE
  8
0
 62
7
  6
CONTINUOUS
 10
135.4342029106
 20
232.0792374225
 11
135.9526463542
 21
231.7301795536
  0
LINE
  8
0
 62
7
  6
CONTINUOUS
 10
144.5340680194
 20
224.5061085728
 11
144.9648292986
 21
224.1946024867
  0
LINE
  8
0
 62
7
  6
CONTINUOUS
 10
139.3027639494
 20
229.4261064332
 11
139.7764516892
 21
229.0183749956
  0
LINE
  8
0
 62
7
  6
CONTINUOUS
 10
141.9869968843
 20
227.1156262133
 11
142.4606846241
 21
226.7078947758
  0
LINE
  8
0
 62
7
  6
CONTINUOUS
 10
144.1816423796
 20
224.8895928856
 11
144.5340680194
 21
224.5061085728
  0
LINE
  8
0
 62
7
  6
CONTINUOUS
 10
144.9962016807
 20
224.7893351634
 11
144.5028006225
 21
225.3262188189
  0
LINE
  8
0
 62
7
  6
CONTINUOUS
 10
143.9075459262
 20
225.3450624471
 11
144.1816423796
 21
224.8895928856
  0
LINE
  8
0
 62
7
  6
CONTINUOUS
 10
144.5028006225
 20
225.3262188189
 11
144.3696731275
 21
225.6282960533
  0
LINE
  8
0
 62
7
  6
CONTINUOUS
 10
146.5627854344
 20
226.2290401608
 11
146.6959129294
 21
225.9269629264
  0
LINE
  8
0
 62
7
  6
CONTINUOUS
 10
140.840448408
 20
233.9539839646
 11
140.6730670142
 21
234.4514227057
  0
LINE
  8
0
 62
7
  6
CONTINUOUS
 10
147.2754846373
 20
225.6107494269
 11
147.1580465359
 21
226.2101894667
  0
LINE
  8
0
 62
7
  6
CONTINUOUS
 10
148.5365931982
 20
226.9111984191
 11
148.4191550968
 21
227.5106384588
  0
LINE
  8
0
 62
7
  6
CONTINUOUS
 10
146.6959129294
 20
225.9269629264
 11
146.750711245
 21
225.5529004497
  0
LINE
  8
0
 62
7
  6
CONTINUOUS
 10
147.9570214903
 20
227.2274119186
 11
148.0118198059
 21
226.8533494419
  0
LINE
  8
0
 62
7
  6
CONTINUOUS
 10
98.7979369947
 20
238.3328912719
 11
98.2742531483
 21
238.2415590142
  0
LINE
  8
0
 62
7
  6
CONTINUOUS
 10
98.0399966388
 20
239.9782145838
 11
97.5163172309
 21
239.8868840688
  0
LINE
  8
0
 62
7
  6
CONTINUOUS
 10
97.807681029
 20
239.4298382428
 11
98.1374428494
 21
239.4450279505
  0
LINE
  8
0
 62
7
  6
CONTINUOUS
 10
138.7556729147
 20
232.5361655165
 11
139.2471284898
 21
232.3335260904
  0
LINE
  8
0
 62
7
  6
CONTINUOUS
 10
147.1111947924
 20
228.1477798869
 11
147.4009806463
 21
227.9896731371
  0
LINE
  8
0
 62
7
  6
CONTINUOUS
 10
137.2003425839
 20
233.583339123
 11
138.7556729147
 21
232.5361655165
  0
LINE
  8
0
 62
7
  6
CONTINUOUS
 10
139.1985673817
 20
233.0074615217
 11
137.5568271734
 21
234.1128132151
  0
LINE
  8
0
 62
7
  6
CONTINUOUS
 10
138.4480388136
 20
235.4364986924
 11
140.0897790219
 21
234.331146999
  0
LINE
  8
0
 62
7
  6
CONTINUOUS
 10
140.3004396356
 20
234.8305534959
 11
138.2266658612
 21
236.2267849712
  0
LINE
  8
0
 62
7
  6
CONTINUOUS
 10
146.5315179827
 20
227.0491503565
 11
146.1007631634
 21
227.360649427
  0
LINE
  8
0
 62
7
  6
CONTINUOUS
 10
147.8631142528
 20
228.2728996774
 11
147.4323594336
 21
228.5843987479
  0
LINE
  8
0
 62
7
  6
CONTINUOUS
 10
140.925059072
 20
229.7140843658
 11
142.5040157954
 21
228.3549816478
  0
LINE
  8
0
 62
7
  6
CONTINUOUS
 10
142.7026770073
 20
228.7454435029
 11
141.2816137878
 21
229.9686378155
  0
LINE
  8
0
 62
7
  6
CONTINUOUS
 10
144.4593664089
 20
231.5846826015
 11
143.8277851651
 21
232.1283224444
  0
LINE
  8
0
 62
7
  6
CONTINUOUS
 10
140.6730670142
 20
234.4514227057
 11
140.3004396356
 21
234.8305534959
  0
LINE
  8
0
 62
7
  6
CONTINUOUS
 10
146.0693843762
 20
226.7659238163
 11
146.5627854344
 21
226.2290401608
  0
LINE
  8
0
 62
7
  6
CONTINUOUS
 10
146.8839436224
 20
226.6656660436
 11
146.5315179827
 21
227.0491503565
  0
LINE
  8
0
 62
7
  6
CONTINUOUS
 10
147.917807686
 20
226.4839943724
 11
148.2702333257
 21
226.1005100595
  0
LINE
  8
0
 62
7
  6
CONTINUOUS
 10
147.4009806463
 20
227.9896731371
 11
147.8238939953
 21
227.529489153
  0
LINE
  8
0
 62
7
  6
CONTINUOUS
 10
148.1450586365
 20
227.966108014
 11
147.8631142528
 21
228.2728996774
  0
LINE
  8
0
 62
7
  6
CONTINUOUS
 10
140.0897790219
 20
234.331146999
 11
140.2895866455
 21
234.0683723826
  0
LINE
  8
0
 62
7
  6
CONTINUOUS
 10
147.1580465359
 20
226.2101894667
 11
146.8839436224
 21
226.6656660436
  0
LINE
  8
0
 62
7
  6
CONTINUOUS
 10
148.4191550968
 20
227.5106384588
 11
148.1450586365
 21
227.966108014
  0
LINE
  8
0
 62
7
  6
CONTINUOUS
 10
147.8238939953
 20
227.529489153
 11
147.9570214903
 21
227.2274119186
  0
LINE
  8
0
 62
7
  6
CONTINUOUS
 10
54.4220535372
 20
57.3799290895
 11
54.4220535372
 21
49.3576663304
  0
LINE
  8
0
 62
9
  6
CONTINUOUS
 10
54.4901092762
 20
57.3687977099
 11
54.4901092762
 21
49.3687977099
  0
LINE
  8
0
 62
9
  6
CONTINUOUS
 10
64.2149070113
 20
57.3687977099
 11
64.2149070113
 21
49.3687977099
  0
LINE
  8
0
 62
9
  6
CONTINUOUS
 10
65.3122059641
 20
49.271732791
 11
65.3122059641
 21
57.4658626289
  0
LINE
  8
0
 62
9
  6
CONTINUOUS
 10
72.6294538115
 20
48.2021398861
 11
72.6294538115
 21
58.5354555338
  0
LINE
  8
0
 62
7
  6
CONTINUOUS
 10
54.4220535385
 20
57.3788390883
 11
54.4497412372
 21
57.3952045143
  0
LINE
  8
0
 62
7
  6
CONTINUOUS
 10
54.4220535385
 20
49.3587563316
 11
54.4497412372
 21
49.3423909055
  0
LINE
  8
1_AXIS
 62
7
  6
CONTINUOUS
 10
81.6345419847
 20
72.5187977099
 11
81.6345419847
 21
63.8687977099
  0
LINE
  8
1_AXIS
 62
7
  6
CONTINUOUS
 10
81.6345419847
 20
42.8687977099
 11
81.6345419847
 21
34.2187977099
  0
LINE
  8
0
 62
9
  6
CONTINUOUS
 10
85.6573079357
 20
47.8687977099
 11
85.6573079357
 21
58.8687977099
  0
LINE
  8
1_AXIS
 62
7
  6
CONTINUOUS
 10
144.6345419847
 20
32.2187977099
 11
83.6345419847
 21
32.2187977099
  0
LINE
  8
0
 62
9
  6
CONTINUOUS
 10
93.8400537958
 20
47.8687977099
 11
93.8400537958
 21
58.8687977099
  0
LINE
  8
0
 62
7
  6
CONTINUOUS
 10
173.5096504804
 20
49.271732791
 11
173.819389213
 21
49.3424077069
  0
LINE
  8
1_AXIS
 62
9
  6
CONTINUOUS
 10
81.6345419847
 20
34.2187977099
 11
146.6345419847
 21
34.2187977099
  0
LINE
  8
0
 62
7
  6
CONTINUOUS
 10
54.4497412372
 20
49.3423909055
 11
54.759433489
 21
49.271732791
  0
LINE
  8
0
 62
7
  6
CONTINUOUS
 10
166.5214384608
 20
47.9755106828
 11
165.9727963491
 21
47.8687977099
  0
LINE
  8
0
 62
7
  6
CONTINUOUS
 10
167.730721941
 20
48.2021398861
 11
166.5214384608
 21
47.9755106828
  0
LINE
  8
0
 62
7
  6
CONTINUOUS
 10
167.730721941
 20
48.2021398861
 11
173.5096504804
 21
49.271732791
  0
LINE
  8
0
 62
7
  6
CONTINUOUS
 10
54.759433489
 20
49.271732791
 11
56.7532110922
 21
48.9002953023
  0
POLYLINE
  8
0
 62
7
  6
CONTINUOUS
 66
1
 70
0
  0
VERTEX
  8
0
 62
7
  6
CONTINUOUS
 10
62.2962876204
 20
47.8687977099
  0
VERTEX
  8
0
 62
7
  6
CONTINUOUS
 10
61.747632831
 20
47.975513118
  0
VERTEX
  8
0
 62
7
  6
CONTINUOUS
 10
61.1610181516
 20
48.0868076223
  0
VERTEX
  8
0
 62
7
  6
CONTINUOUS
 10
56.7532110922
 20
48.9002953023
  0
SEQEND
  0
LINE
  8
0
 62
9
  6
CONTINUOUS
 10
102.0434502017
 20
48.2021398861
 11
102.0434502017
 21
58.5354555338
  0
LINE
  8
0
 62
9
  6
CONTINUOUS
 10
103.5817695096
 20
49.271732791
 11
103.5817695096
 21
57.4658626289
  0
LINE
  8
0
 62
9
  6
CONTINUOUS
 10
104.4097442496
 20
57.3687977099
 11
104.4097442496
 21
49.3687977099
  0
LINE
  8
0
 62
7
  6
CONTINUOUS
 10
162.9568780053
 20
49.271732791
 11
157.9939766761
 21
48.543853512
  0
POLYLINE
  8
0
 62
7
  6
CONTINUOUS
 66
1
 70
0
  0
VERTEX
  8
0
 62
7
  6
CONTINUOUS
 10
153.1531553531
 20
47.8687977099
  0
VERTEX
  8
0
 62
7
  6
CONTINUOUS
 10
153.9923567115
 20
47.975513118
  0
VERTEX
  8
0
 62
7
  6
CONTINUOUS
 10
154.8221475244
 20
48.0868076223
  0
VERTEX
  8
0
 62
7
  6
CONTINUOUS
 10
157.9939766761
 20
48.543853512
  0
SEQEND
  0
LINE
  8
0
 62
9
  6
CONTINUOUS
 10
81.6345419847
 20
42.8687977099
 11
146.6345419847
 21
42.8687977099
  0
POLYLINE
  8
0
 62
7
  6
CONTINUOUS
 66
1
 70
0
  0
VERTEX
  8
0
 62
7
  6
CONTINUOUS
 10
65.3122059641
 20
49.271732791
  0
VERTEX
  8
0
 62
7
  6
CONTINUOUS
 10
64.7109317121
 20
49.3424077069
  0
VERTEX
  8
0
 62
7
  6
CONTINUOUS
 10
64.2149070113
 20
49.3687977099
  0
SEQEND
  0
POLYLINE
  8
0
 62
7
  6
CONTINUOUS
 66
1
 70
0
  0
VERTEX
  8
0
 62
7
  6
CONTINUOUS
 10
73.4468866044
 20
48.0868144807
  0
VERTEX
  8
0
 62
7
  6
CONTINUOUS
 10
74.2767458964
 20
47.9755106828
  0
VERTEX
  8
0
 62
7
  6
CONTINUOUS
 10
75.1159286163
 20
47.8687977099
  0
SEQEND
  0
LINE
  8
0
 62
7
  6
CONTINUOUS
 10
73.4468866044
 20
48.0868144807
 11
70.2774202547
 21
48.5435165798
  0
LINE
  8
0
 62
7
  6
CONTINUOUS
 10
70.2774202547
 20
48.5435165798
 11
65.3122059641
 21
49.271732791
  0
LINE
  8
0
 62
7
  6
CONTINUOUS
 10
173.8470304292
 20
57.3788387275
 11
173.7789746933
 21
57.3687977099
  0
POLYLINE
  8
0
 62
7
  6
CONTINUOUS
 66
1
 70
0
  0
VERTEX
  8
0
 62
7
  6
CONTINUOUS
 10
164.0541769582
 20
49.3687977099
  0
VERTEX
  8
0
 62
7
  6
CONTINUOUS
 10
163.5579614254
 20
49.3423909027
  0
VERTEX
  8
0
 62
7
  6
CONTINUOUS
 10
162.9568780053
 20
49.271732791
  0
SEQEND
  0
LINE
  8
0
 62
7
  6
CONTINUOUS
 10
75.0621502292
 20
47.8687977099
 11
62.2962876204
 21
47.8687977099
  0
LINE
  8
0
 62
7
  6
CONTINUOUS
 10
75.0882808542
 20
47.8687977099
 11
165.9727963491
 21
47.8687977099
  0
LINE
  8
0
 62
7
  6
CONTINUOUS
 10
173.7789746933
 20
49.3687977099
 11
164.0541769582
 21
49.3687977099
  0
LINE
  8
0
 62
7
  6
CONTINUOUS
 10
123.8593397198
 20
49.3687977099
 11
104.4097442496
 21
49.3687977099
  0
LINE
  8
0
 62
7
  6
CONTINUOUS
 10
64.2149070113
 20
49.3687977099
 11
54.4901092762
 21
49.3687977099
  0
LINE
  8
0
 62
7
  6
CONTINUOUS
 10
54.4901092762
 20
57.3687977099
 11
54.4220535385
 21
57.3788390883
  0
LINE
  8
0
 62
7
  6
CONTINUOUS
 10
112.4024911772
 20
47.8687977099
 11
114.1345419847
 21
46.8687977099
  0
LINE
  8
1_AXIS
 62
2
  6
CENTER
 10
114.1345419847
 20
30.2187977099
 11
114.1345419847
 21
76.5187977099
  0
POLYLINE
  8
0
 62
7
  6
CONTINUOUS
 66
1
 70
0
  0
VERTEX
  8
0
 62
7
  6
CONTINUOUS
 10
103.5817695096
 20
49.271732791
  0
VERTEX
  8
0
 62
7
  6
CONTINUOUS
 10
102.5384087875
 20
48.5438533169
  0
VERTEX
  8
0
 62
7
  6
CONTINUOUS
 10
102.0434502017
 20
48.2021398861
  0
SEQEND
  0
POLYLINE
  8
0
 62
7
  6
CONTINUOUS
 66
1
 70
0
  0
VERTEX
  8
0
 62
7
  6
CONTINUOUS
 10
104.4097442496
 20
49.3687977099
  0
VERTEX
  8
0
 62
7
  6
CONTINUOUS
 10
103.8731607102
 20
49.3423909055
  0
VERTEX
  8
0
 62
7
  6
CONTINUOUS
 10
103.5817695096
 20
49.271732791
  0
SEQEND
  0
POLYLINE
  8
0
 62
7
  6
CONTINUOUS
 66
1
 70
0
  0
VERTEX
  8
0
 62
7
  6
CONTINUOUS
 10
124.6873144598
 20
49.271732791
  0
VERTEX
  8
0
 62
7
  6
CONTINUOUS
 10
124.3957789403
 20
49.3424077069
  0
VERTEX
  8
0
 62
7
  6
CONTINUOUS
 10
123.8593397198
 20
49.3687977099
  0
SEQEND
  0
POLYLINE
  8
0
 62
7
  6
CONTINUOUS
 66
1
 70
0
  0
VERTEX
  8
0
 62
7
  6
CONTINUOUS
 10
103.5817695096
 20
57.4658626289
  0
VERTEX
  8
0
 62
7
  6
CONTINUOUS
 10
103.0510356734
 20
57.8373008818
  0
VERTEX
  8
0
 62
7
  6
CONTINUOUS
 10
102.0434502017
 20
58.5354555338
  0
SEQEND
  0
POLYLINE
  8
0
 62
7
  6
CONTINUOUS
 66
1
 70
0
  0
VERTEX
  8
0
 62
7
  6
CONTINUOUS
 10
126.2256337677
 20
58.5354555338
  0
VERTEX
  8
0
 62
7
  6
CONTINUOUS
 10
125.7311622487
 20
58.1940795953
  0
VERTEX
  8
0
 62
7
  6
CONTINUOUS
 10
124.6873144598
 20
57.4658626289
  0
SEQEND
  0
POLYLINE
  8
0
 62
7
  6
CONTINUOUS
 66
1
 70
0
  0
VERTEX
  8
0
 62
7
  6
CONTINUOUS
 10
126.2256337677
 20
58.5354555338
  0
VERTEX
  8
0
 62
7
  6
CONTINUOUS
 10
126.4204470246
 20
58.6507809392
  0
VERTEX
  8
0
 62
7
  6
CONTINUOUS
 10
126.6636423725
 20
58.7620847371
  0
VERTEX
  8
0
 62
7
  6
CONTINUOUS
 10
126.9541829807
 20
58.8687977099
  0
SEQEND
  0
POLYLINE
  8
0
 62
7
  6
CONTINUOUS
 66
1
 70
0
  0
VERTEX
  8
0
 62
7
  6
CONTINUOUS
 10
101.3149009888
 20
47.8687977099
  0
VERTEX
  8
0
 62
7
  6
CONTINUOUS
 10
101.6054475578
 20
47.975513118
  0
VERTEX
  8
0
 62
7
  6
CONTINUOUS
 10
101.8486236912
 20
48.0868076223
  0
VERTEX
  8
0
 62
7
  6
CONTINUOUS
 10
102.0434502017
 20
48.2021398861
  0
SEQEND
  0
POLYLINE
  8
0
 62
7
  6
CONTINUOUS
 66
1
 70
0
  0
VERTEX
  8
0
 62
7
  6
CONTINUOUS
 10
124.6873144598
 20
57.4658626289
  0
VERTEX
  8
0
 62
7
  6
CONTINUOUS
 10
124.3957789403
 20
57.395187713
  0
VERTEX
  8
0
 62
7
  6
CONTINUOUS
 10
123.8593397198
 20
57.3687977099
  0
SEQEND
  0
LINE
  8
0
 62
7
  6
CONTINUOUS
 10
54.4901092762
 20
49.3687977099
 11
54.4220535385
 21
49.3587563316
  0
LINE
  8
0
 62
7
  6
CONTINUOUS
 10
173.7789746933
 20
57.3687977099
 11
164.0541769582
 21
57.3687977099
  0
LINE
  8
0
 62
7
  6
CONTINUOUS
 10
123.8593397198
 20
57.3687977099
 11
104.4097442496
 21
57.3687977099
  0
LINE
  8
0
 62
7
  6
CONTINUOUS
 10
64.2149070113
 20
57.3687977099
 11
54.4901092762
 21
57.3687977099
  0
POLYLINE
  8
0
 62
7
  6
CONTINUOUS
 66
1
 70
0
  0
VERTEX
  8
0
 62
7
  6
CONTINUOUS
 10
104.4097442496
 20
57.3687977099
  0
VERTEX
  8
0
 62
7
  6
CONTINUOUS
 10
103.8731607102
 20
57.3952045143
  0
VERTEX
  8
0
 62
7
  6
CONTINUOUS
 10
103.5817695096
 20
57.4658626289
  0
SEQEND
  0
LINE
  8
0
 62
7
  6
CONTINUOUS
 10
173.8470304292
 20
49.3587566924
 11
173.7789746933
 21
49.3687977099
  0
POLYLINE
  8
0
 62
7
  6
CONTINUOUS
 66
1
 70
0
  0
VERTEX
  8
0
 62
7
  6
CONTINUOUS
 10
101.3149009888
 20
58.8687977099
  0
VERTEX
  8
0
 62
7
  6
CONTINUOUS
 10
101.6054475578
 20
58.7620823018
  0
VERTEX
  8
0
 62
7
  6
CONTINUOUS
 10
101.8486236912
 20
58.6507877975
  0
VERTEX
  8
0
 62
7
  6
CONTINUOUS
 10
102.0434502017
 20
58.5354555338
  0
SEQEND
  0
POLYLINE
  8
0
 62
7
  6
CONTINUOUS
 66
1
 70
0
  0
VERTEX
  8
0
 62
7
  6
CONTINUOUS
 10
126.2256337677
 20
48.2021398861
  0
VERTEX
  8
0
 62
7
  6
CONTINUOUS
 10
126.4204470246
 20
48.0868144807
  0
VERTEX
  8
0
 62
7
  6
CONTINUOUS
 10
126.6636423725
 20
47.9755106828
  0
VERTEX
  8
0
 62
7
  6
CONTINUOUS
 10
126.9541829807
 20
47.8687977099
  0
SEQEND
  0
POLYLINE
  8
0
 62
7
  6
CONTINUOUS
 66
1
 70
0
  0
VERTEX
  8
0
 62
7
  6
CONTINUOUS
 10
126.2256337677
 20
48.2021398861
  0
VERTEX
  8
0
 62
7
  6
CONTINUOUS
 10
125.2185423543
 20
48.8999498636
  0
VERTEX
  8
0
 62
7
  6
CONTINUOUS
 10
124.6873144598
 20
49.271732791
  0
SEQEND
  0
LINE
  8
0
 62
7
  6
CONTINUOUS
 10
115.8665927923
 20
47.8687977099
 11
114.1345419847
 21
46.8687977099
  0
LINE
  8
0
 62
7
  6
CONTINUOUS
 10
62.2962876204
 20
58.8687977099
 11
165.9727963491
 21
58.8687977099
  0
POLYLINE
  8
0
 62
7
  6
CONTINUOUS
 66
1
 70
0
  0
VERTEX
  8
0
 62
7
  6
CONTINUOUS
 10
164.0541769582
 20
57.3687977099
  0
VERTEX
  8
0
 62
7
  6
CONTINUOUS
 10
163.5579614577
 20
57.3952045143
  0
VERTEX
  8
0
 62
7
  6
CONTINUOUS
 10
162.9568780053
 20
57.4658626289
  0
SEQEND
  0
LINE
  8
0
 62
9
  6
CONTINUOUS
 10
123.8593397198
 20
57.3687977099
 11
123.8593397198
 21
49.3687977099
  0
LINE
  8
0
 62
9
  6
CONTINUOUS
 10
124.6873144598
 20
49.271732791
 11
124.6873144598
 21
57.4658626289
  0
LINE
  8
0
 62
9
  6
CONTINUOUS
 10
126.2256337677
 20
48.2021398861
 11
126.2256337677
 21
58.5354555338
  0
LINE
  8
0
 62
7
  6
CONTINUOUS
 10
72.6294538115
 20
58.5354555338
 11
65.3122059641
 21
57.4658626289
  0
POLYLINE
  8
0
 62
7
  6
CONTINUOUS
 66
1
 70
0
  0
VERTEX
  8
0
 62
7
  6
CONTINUOUS
 10
72.6294538115
 20
58.5354555338
  0
VERTEX
  8
0
 62
7
  6
CONTINUOUS
 10
73.4468866044
 20
58.6507809392
  0
VERTEX
  8
0
 62
7
  6
CONTINUOUS
 10
74.2767458964
 20
58.7620847371
  0
VERTEX
  8
0
 62
7
  6
CONTINUOUS
 10
75.1159286163
 20
58.8687977099
  0
SEQEND
  0
POLYLINE
  8
0
 62
7
  6
CONTINUOUS
 66
1
 70
0
  0
VERTEX
  8
0
 62
7
  6
CONTINUOUS
 10
65.3122059641
 20
57.4658626289
  0
VERTEX
  8
0
 62
7
  6
CONTINUOUS
 10
64.7109317121
 20
57.395187713
  0
VERTEX
  8
0
 62
7
  6
CONTINUOUS
 10
64.2149070113
 20
57.3687977099
  0
SEQEND
  0
LINE
  8
0
 62
9
  6
CONTINUOUS
 10
81.6345419847
 20
63.8687977099
 11
146.6345419847
 21
63.8687977099
  0
POLYLINE
  8
0
 62
7
  6
CONTINUOUS
 66
1
 70
0
  0
VERTEX
  8
0
 62
7
  6
CONTINUOUS
 10
153.1531553531
 20
58.8687977099
  0
VERTEX
  8
0
 62
7
  6
CONTINUOUS
 10
153.9923567115
 20
58.7620823018
  0
VERTEX
  8
0
 62
7
  6
CONTINUOUS
 10
154.8221475244
 20
58.6507877975
  0
SEQEND
  0
LINE
  8
0
 62
7
  6
CONTINUOUS
 10
157.9939766761
 20
58.1937419078
 11
154.8221475244
 21
58.6507877975
  0
LINE
  8
0
 62
7
  6
CONTINUOUS
 10
162.9568780053
 20
57.4658626289
 11
157.9939766761
 21
58.1937419078
  0
LINE
  8
0
 62
7
  6
CONTINUOUS
 10
54.4497412372
 20
57.3952045143
 11
54.759433489
 21
57.4658626289
  0
LINE
  8
0
 62
7
  6
CONTINUOUS
 10
62.2962876204
 20
58.8687977099
 11
61.747632831
 21
58.7620823018
  0
LINE
  8
0
 62
7
  6
CONTINUOUS
 10
61.747632831
 20
58.7620823018
 11
60.5383620285
 21
58.5354555338
  0
POLYLINE
  8
0
 62
7
  6
CONTINUOUS
 66
1
 70
0
  0
VERTEX
  8
0
 62
7
  6
CONTINUOUS
 10
54.759433489
 20
57.4658626289
  0
VERTEX
  8
0
 62
7
  6
CONTINUOUS
 10
58.678973985
 20
58.1937418354
  0
VERTEX
  8
0
 62
7
  6
CONTINUOUS
 10
60.5383620285
 20
58.5354555338
  0
SEQEND
  0
LINE
  8
0
 62
7
  6
CONTINUOUS
 10
167.1081024049
 20
58.6507809392
 11
173.5096504804
 21
57.4658626289
  0
POLYLINE
  8
0
 62
7
  6
CONTINUOUS
 66
1
 70
0
  0
VERTEX
  8
0
 62
7
  6
CONTINUOUS
 10
167.1081024049
 20
58.6507809392
  0
VERTEX
  8
0
 62
7
  6
CONTINUOUS
 10
166.5214384608
 20
58.7620847371
  0
VERTEX
  8
0
 62
7
  6
CONTINUOUS
 10
165.9727963491
 20
58.8687977099
  0
SEQEND
  0
LINE
  8
0
 62
7
  6
CONTINUOUS
 10
173.5096504804
 20
57.4658626289
 11
173.819389213
 21
57.395187713
  0
LINE
  8
0
 62
9
  6
CONTINUOUS
 10
134.4290301737
 20
47.8687977099
 11
134.4290301737
 21
58.8687977099
  0
LINE
  8
1_AXIS
 62
9
  6
CONTINUOUS
 10
81.6345419847
 20
72.5187977099
 11
146.6345419847
 21
72.5187977099
  0
LINE
  8
1_AXIS
 62
7
  6
CONTINUOUS
 10
144.6345419847
 20
74.5187977099
 11
83.6345419847
 21
74.5187977099
  0
LINE
  8
0
 62
9
  6
CONTINUOUS
 10
142.6117760338
 20
47.8687977099
 11
142.6117760338
 21
58.8687977099
  0
LINE
  8
1_AXIS
 62
7
  6
CONTINUOUS
 10
146.6345419847
 20
72.5187977099
 11
146.6345419847
 21
63.8687977099
  0
LINE
  8
1_AXIS
 62
7
  6
CONTINUOUS
 10
146.6345419847
 20
42.8687977099
 11
146.6345419847
 21
34.2187977099
  0
LINE
  8
0
 62
7
  6
CONTINUOUS
 10
173.819389213
 20
49.3424077069
 11
173.8470304292
 21
49.3587566924
  0
LINE
  8
0
 62
7
  6
CONTINUOUS
 10
173.819389213
 20
57.395187713
 11
173.8470304292
 21
57.3788387275
  0
LINE
  8
0
 62
9
  6
CONTINUOUS
 10
155.639630158
 20
48.2021398861
 11
155.639630158
 21
58.5354555338
  0
LINE
  8
0
 62
9
  6
CONTINUOUS
 10
162.9568780053
 20
49.271732791
 11
162.9568780053
 21
57.4658626289
  0
LINE
  8
0
 62
9
  6
CONTINUOUS
 10
164.0541769582
 20
57.3687977099
 11
164.0541769582
 21
49.3687977099
  0
LINE
  8
0
 62
9
  6
CONTINUOUS
 10
173.7789746933
 20
57.3687977099
 11
173.7789746933
 21
49.3687977099
  0
LINE
  8
0
 62
7
  6
CONTINUOUS
 10
173.8470304322
 20
57.3799328022
 11
173.8470304322
 21
49.3576626176
  0
LINE
  8
1_AXIS
 62
7
  6
CONTINUOUS
 10
286.15625
 20
132.9930848727
 11
294.15625
 21
132.9930848727
  0
LINE
  8
0
 62
9
  6
CONTINUOUS
 10
286.15625
 20
133.736240903
 11
294.15625
 21
133.736240903
  0
LINE
  8
0
 62
9
  6
CONTINUOUS
 10
294.253314919
 20
134.5252611556
 11
286.059185081
 21
134.5252611556
  0
LINE
  8
0
 62
9
  6
CONTINUOUS
 10
295.3229078238
 20
142.0863421179
 11
284.9895921762
 21
142.0863421179
  0
LINE
  8
0
 62
9
  6
CONTINUOUS
 10
295.65625
 20
152.3933791658
 11
284.65625
 21
152.3933791658
  0
LINE
  8
0
 62
7
  6
CONTINUOUS
 10
286.1005815622
 20
156.5685276256
 11
294.2119184378
 21
156.5685276256
  0
LINE
  8
0
 62
9
  6
CONTINUOUS
 10
286.15625
 20
156.9427410026
 11
294.15625
 21
156.9427410026
  0
LINE
  8
0
 62
9
  6
CONTINUOUS
 10
295.65625
 20
157.1176896908
 11
294.4720756356
 21
157.1176896908
  0
LINE
  8
0
 62
9
  6
CONTINUOUS
 10
285.8404243644
 20
157.1176896908
 11
284.65625
 21
157.1176896908
  0
LINE
  8
1_AXIS
 62
7
  6
CONTINUOUS
 10
271.00625
 20
164.4930848727
 11
279.65625
 21
164.4930848727
  0
LINE
  8
1_AXIS
 62
7
  6
CONTINUOUS
 10
300.65625
 20
164.4930848727
 11
309.30625
 21
164.4930848727
  0
LINE
  8
0
 62
7
  6
CONTINUOUS
 10
286.059185081
 20
237.3659657751
 11
286.1008124715
 21
237.4176421196
  0
LINE
  8
0
 62
7
  6
CONTINUOUS
 10
286.1008137895
 20
156.5685276261
 11
286.059185081
 21
156.6202039704
  0
LINE
  8
0
 62
9
  6
CONTINUOUS
 10
286.15625
 20
173.7865847731
 11
294.15625
 21
173.7865847731
  0
LINE
  8
0
 62
9
  6
CONTINUOUS
 10
294.253314919
 20
174.898142058
 11
286.059185081
 21
174.898142058
  0
POLYLINE
  8
0
 62
7
  6
CONTINUOUS
 66
1
 70
0
  0
VERTEX
  8
0
 62
7
  6
CONTINUOUS
 10
284.65625
 20
159.6628315812
  0
VERTEX
  8
0
 62
7
  6
CONTINUOUS
 10
284.7629654081
 20
159.5138127308
  0
VERTEX
  8
0
 62
7
  6
CONTINUOUS
 10
284.8742599124
 20
159.3155283937
  0
VERTEX
  8
0
 62
7
  6
CONTINUOUS
 10
284.9895922061
 20
159.0685207834
  0
SEQEND
  0
LINE
  8
1_AXIS
 62
7
  6
CONTINUOUS
 10
269.00625
 20
227.4930848727
 11
269.00625
 21
166.4930848727
  0
LINE
  8
1_AXIS
 62
9
  6
CONTINUOUS
 10
271.00625
 20
164.4930848727
 11
271.00625
 21
229.4930848727
  0
LINE
  8
0
 62
7
  6
CONTINUOUS
 10
284.9895921762
 20
234.9176488937
 11
285.687402837
 21
236.5204899255
  0
LINE
  8
0
 62
7
  6
CONTINUOUS
 10
285.687402837
 20
236.5204899255
 11
286.059185081
 21
237.3659657751
  0
POLYLINE
  8
0
 62
7
  6
CONTINUOUS
 66
1
 70
0
  0
VERTEX
  8
0
 62
7
  6
CONTINUOUS
 10
284.9895921762
 20
234.9176488937
  0
VERTEX
  8
0
 62
7
  6
CONTINUOUS
 10
284.8742667708
 20
234.6706548233
  0
VERTEX
  8
0
 62
7
  6
CONTINUOUS
 10
284.7629629729
 20
234.4723531368
  0
VERTEX
  8
0
 62
7
  6
CONTINUOUS
 10
284.65625
 20
234.3233381642
  0
SEQEND
  0
LINE
  8
0
 62
7
  6
CONTINUOUS
 10
294.2116875285
 20
237.4176421196
 11
294.1826400031
 21
237.3764754051
  0
LINE
  8
0
 62
7
  6
CONTINUOUS
 10
294.1826568044
 20
156.6096378535
 11
294.2116862105
 21
156.5685276261
  0
POLYLINE
  8
0
 62
7
  6
CONTINUOUS
 66
1
 70
0
  0
VERTEX
  8
0
 62
7
  6
CONTINUOUS
 10
286.059185081
 20
156.6202039704
  0
VERTEX
  8
0
 62
7
  6
CONTINUOUS
 10
285.3313058021
 20
158.2807675263
  0
VERTEX
  8
0
 62
7
  6
CONTINUOUS
 10
284.9895922058
 20
159.0685207834
  0
SEQEND
  0
LINE
  8
1_AXIS
 62
7
  6
CONTINUOUS
 10
284.65625
 20
250.9930848727
 11
286.15625
 21
260.9930848727
  0
LINE
  8
0
 62
7
  6
CONTINUOUS
 10
295.65625
 20
235.2610340652
 11
296.65625
 21
236.9930848727
  0
LINE
  8
0
 62
9
  6
CONTINUOUS
 10
295.3229078238
 20
180.0109061389
 11
284.9895921762
 21
180.0109061389
  0
LINE
  8
1_AXIS
 62
7
  6
CONTINUOUS
 10
284.65625
 20
142.9930848727
 11
286.15625
 21
132.9930848727
  0
LINE
  8
0
 62
9
  6
CONTINUOUS
 10
279.65625
 20
164.4930848727
 11
279.65625
 21
229.4930848727
  0
POLYLINE
  8
0
 62
7
  6
CONTINUOUS
 66
1
 70
0
  0
VERTEX
  8
0
 62
7
  6
CONTINUOUS
 10
286.15625
 20
260.2499288425
  0
VERTEX
  8
0
 62
7
  6
CONTINUOUS
 10
286.1298431956
 20
259.9867451879
  0
VERTEX
  8
0
 62
7
  6
CONTINUOUS
 10
286.059185081
 20
259.4609085899
  0
SEQEND
  0
LINE
  8
0
 62
7
  6
CONTINUOUS
 10
284.65625
 20
249.449321916
 11
284.8742599124
 21
251.0683631287
  0
POLYLINE
  8
0
 62
7
  6
CONTINUOUS
 66
1
 70
0
  0
VERTEX
  8
0
 62
7
  6
CONTINUOUS
 10
286.059185081
 20
259.4609085899
  0
VERTEX
  8
0
 62
7
  6
CONTINUOUS
 10
285.6877468281
 20
256.852268443
  0
VERTEX
  8
0
 62
7
  6
CONTINUOUS
 10
284.8742599124
 20
251.0683631287
  0
SEQEND
  0
LINE
  8
0
 62
7
  6
CONTINUOUS
 10
286.059185081
 20
219.0880276875
 11
284.9895921762
 21
213.9752636066
  0
LINE
  8
0
 62
7
  6
CONTINUOUS
 10
284.9895921762
 20
180.0109061389
 11
286.059185081
 21
174.898142058
  0
LINE
  8
0
 62
7
  6
CONTINUOUS
 10
286.059185081
 20
134.5252611556
 11
284.8742667708
 21
142.9177567177
  0
POLYLINE
  8
0
 62
7
  6
CONTINUOUS
 66
1
 70
0
  0
VERTEX
  8
0
 62
7
  6
CONTINUOUS
 10
286.059185081
 20
134.5252611556
  0
VERTEX
  8
0
 62
7
  6
CONTINUOUS
 10
286.1298599969
 20
133.9992875637
  0
VERTEX
  8
0
 62
7
  6
CONTINUOUS
 10
286.15625
 20
133.736240903
  0
SEQEND
  0
LINE
  8
0
 62
7
  6
CONTINUOUS
 10
284.8742667708
 20
142.9177567177
 11
284.65625
 21
144.5368478295
  0
LINE
  8
0
 62
7
  6
CONTINUOUS
 10
284.65625
 20
142.9930849004
 11
284.65625
 21
159.6320477423
  0
LINE
  8
0
 62
7
  6
CONTINUOUS
 10
284.65625
 20
159.6628315812
 11
284.65625
 21
234.3233381642
  0
LINE
  8
0
 62
7
  6
CONTINUOUS
 10
284.65625
 20
234.3541220032
 11
284.65625
 21
250.9930848727
  0
LINE
  8
0
 62
7
  6
CONTINUOUS
 10
286.15625
 20
260.9930848727
 11
286.15625
 21
260.2499288425
  0
LINE
  8
0
 62
7
  6
CONTINUOUS
 10
286.15625
 20
237.0434287429
 11
286.15625
 21
220.1995849724
  0
LINE
  8
0
 62
7
  6
CONTINUOUS
 10
286.15625
 20
173.7865847731
 11
286.15625
 21
156.9427410026
  0
LINE
  8
0
 62
7
  6
CONTINUOUS
 10
286.15625
 20
133.736240903
 11
286.15625
 21
132.9930848727
  0
POLYLINE
  8
0
 62
7
  6
CONTINUOUS
 66
1
 70
0
  0
VERTEX
  8
0
 62
7
  6
CONTINUOUS
 10
286.15625
 20
220.1995849724
  0
VERTEX
  8
0
 62
7
  6
CONTINUOUS
 10
286.1298431956
 20
219.6032981686
  0
VERTEX
  8
0
 62
7
  6
CONTINUOUS
 10
286.059185081
 20
219.0880276875
  0
SEQEND
  0
POLYLINE
  8
0
 62
7
  6
CONTINUOUS
 66
1
 70
0
  0
VERTEX
  8
0
 62
7
  6
CONTINUOUS
 10
284.65625
 20
212.1190686245
  0
VERTEX
  8
0
 62
7
  6
CONTINUOUS
 10
284.7629654081
 20
212.7713288945
  0
VERTEX
  8
0
 62
7
  6
CONTINUOUS
 10
284.8742599124
 20
213.3908066497
  0
VERTEX
  8
0
 62
7
  6
CONTINUOUS
 10
284.9895921762
 20
213.9752636066
  0
SEQEND
  0
LINE
  8
0
 62
9
  6
CONTINUOUS
 10
295.65625
 20
192.2687743477
 11
284.65625
 21
192.2687743477
  0
POLYLINE
  8
0
 62
7
  6
CONTINUOUS
 66
1
 70
0
  0
VERTEX
  8
0
 62
7
  6
CONTINUOUS
 10
284.9895921762
 20
180.0109061389
  0
VERTEX
  8
0
 62
7
  6
CONTINUOUS
 10
284.8742667708
 20
180.5953266682
  0
VERTEX
  8
0
 62
7
  6
CONTINUOUS
 10
284.7629629729
 20
181.2148550534
  0
VERTEX
  8
0
 62
7
  6
CONTINUOUS
 10
284.65625
 20
181.867101121
  0
SEQEND
  0
POLYLINE
  8
0
 62
7
  6
CONTINUOUS
 66
1
 70
0
  0
VERTEX
  8
0
 62
7
  6
CONTINUOUS
 10
286.059185081
 20
174.898142058
  0
VERTEX
  8
0
 62
7
  6
CONTINUOUS
 10
286.1298599969
 20
174.382678096
  0
VERTEX
  8
0
 62
7
  6
CONTINUOUS
 10
286.15625
 20
173.7865847731
  0
SEQEND
  0
LINE
  8
0
 62
7
  6
CONTINUOUS
 10
286.1298599969
 20
237.3764754051
 11
286.15625
 21
237.0434287429
  0
LINE
  8
0
 62
7
  6
CONTINUOUS
 10
286.15625
 20
156.9427410026
 11
286.1298431956
 21
156.6096378535
  0
LINE
  8
1_AXIS
 62
2
  6
CENTER
 10
267.00625
 20
196.9930848727
 11
313.30625
 21
196.9930848727
  0
LINE
  8
0
 62
7
  6
CONTINUOUS
 10
294.15625
 20
156.9427410026
 11
294.1826568044
 21
156.6096378535
  0
POLYLINE
  8
0
 62
7
  6
CONTINUOUS
 66
1
 70
0
  0
VERTEX
  8
0
 62
7
  6
CONTINUOUS
 10
294.15625
 20
220.1995849724
  0
VERTEX
  8
0
 62
7
  6
CONTINUOUS
 10
294.1826568044
 20
219.6032981686
  0
VERTEX
  8
0
 62
7
  6
CONTINUOUS
 10
294.253314919
 20
219.0880276875
  0
SEQEND
  0
LINE
  8
0
 62
7
  6
CONTINUOUS
 10
294.15625
 20
260.9930848727
 11
294.15625
 21
260.2499288425
  0
LINE
  8
0
 62
7
  6
CONTINUOUS
 10
294.15625
 20
237.0434287429
 11
294.15625
 21
220.1995849724
  0
LINE
  8
0
 62
7
  6
CONTINUOUS
 10
294.15625
 20
173.7865847731
 11
294.15625
 21
156.9427410026
  0
LINE
  8
0
 62
7
  6
CONTINUOUS
 10
294.15625
 20
133.736240903
 11
294.15625
 21
132.9930848727
  0
LINE
  8
0
 62
7
  6
CONTINUOUS
 10
294.1826400031
 20
237.3764754051
 11
294.15625
 21
237.0434287429
  0
LINE
  8
0
 62
9
  6
CONTINUOUS
 10
295.65625
 20
201.7173953978
 11
284.65625
 21
201.7173953978
  0
LINE
  8
0
 62
7
  6
CONTINUOUS
 10
295.65625
 20
142.9930849004
 11
295.65625
 21
159.6320477423
  0
LINE
  8
0
 62
7
  6
CONTINUOUS
 10
295.65625
 20
159.6628315812
 11
295.65625
 21
234.3233381642
  0
LINE
  8
0
 62
7
  6
CONTINUOUS
 10
295.65625
 20
234.3541220032
 11
295.65625
 21
250.9930848727
  0
POLYLINE
  8
0
 62
7
  6
CONTINUOUS
 66
1
 70
0
  0
VERTEX
  8
0
 62
7
  6
CONTINUOUS
 10
294.253314919
 20
174.898142058
  0
VERTEX
  8
0
 62
7
  6
CONTINUOUS
 10
294.1826400031
 20
174.382678096
  0
VERTEX
  8
0
 62
7
  6
CONTINUOUS
 10
294.15625
 20
173.7865847731
  0
SEQEND
  0
POLYLINE
  8
0
 62
7
  6
CONTINUOUS
 66
1
 70
0
  0
VERTEX
  8
0
 62
7
  6
CONTINUOUS
 10
295.3229078238
 20
180.0109061389
  0
VERTEX
  8
0
 62
7
  6
CONTINUOUS
 10
295.4382332292
 20
180.5953266682
  0
VERTEX
  8
0
 62
7
  6
CONTINUOUS
 10
295.5495370271
 20
181.2148550534
  0
VERTEX
  8
0
 62
7
  6
CONTINUOUS
 10
295.65625
 20
181.867101121
  0
SEQEND
  0
POLYLINE
  8
0
 62
7
  6
CONTINUOUS
 66
1
 70
0
  0
VERTEX
  8
0
 62
7
  6
CONTINUOUS
 10
295.3229078238
 20
180.0109061389
  0
VERTEX
  8
0
 62
7
  6
CONTINUOUS
 10
294.6250973398
 20
176.6637307571
  0
VERTEX
  8
0
 62
7
  6
CONTINUOUS
 10
294.253314919
 20
174.898142058
  0
SEQEND
  0
POLYLINE
  8
0
 62
7
  6
CONTINUOUS
 66
1
 70
0
  0
VERTEX
  8
0
 62
7
  6
CONTINUOUS
 10
294.253314919
 20
219.0880276875
  0
VERTEX
  8
0
 62
7
  6
CONTINUOUS
 10
294.9811941255
 20
215.6203111853
  0
VERTEX
  8
0
 62
7
  6
CONTINUOUS
 10
295.3229078238
 20
213.9752636066
  0
SEQEND
  0
POLYLINE
  8
0
 62
7
  6
CONTINUOUS
 66
1
 70
0
  0
VERTEX
  8
0
 62
7
  6
CONTINUOUS
 10
295.65625
 20
212.1190686245
  0
VERTEX
  8
0
 62
7
  6
CONTINUOUS
 10
295.5495345919
 20
212.7713288945
  0
VERTEX
  8
0
 62
7
  6
CONTINUOUS
 10
295.4382400876
 20
213.3908066497
  0
VERTEX
  8
0
 62
7
  6
CONTINUOUS
 10
295.3229078238
 20
213.9752636066
  0
SEQEND
  0
POLYLINE
  8
0
 62
7
  6
CONTINUOUS
 66
1
 70
0
  0
VERTEX
  8
0
 62
7
  6
CONTINUOUS
 10
294.15625
 20
260.2499288425
  0
VERTEX
  8
0
 62
7
  6
CONTINUOUS
 10
294.1826568044
 20
259.9867451879
  0
VERTEX
  8
0
 62
7
  6
CONTINUOUS
 10
294.253314919
 20
259.4609085899
  0
SEQEND
  0
LINE
  8
0
 62
9
  6
CONTINUOUS
 10
300.65625
 20
164.4930848727
 11
300.65625
 21
229.4930848727
  0
POLYLINE
  8
0
 62
7
  6
CONTINUOUS
 66
1
 70
0
  0
VERTEX
  8
0
 62
7
  6
CONTINUOUS
 10
294.253314919
 20
134.5252611556
  0
VERTEX
  8
0
 62
7
  6
CONTINUOUS
 10
294.1826400031
 20
133.9992875637
  0
VERTEX
  8
0
 62
7
  6
CONTINUOUS
 10
294.15625
 20
133.736240903
  0
SEQEND
  0
LINE
  8
0
 62
7
  6
CONTINUOUS
 10
295.4382332292
 20
142.9177567177
 11
295.65625
 21
144.5368478295
  0
POLYLINE
  8
0
 62
7
  6
CONTINUOUS
 66
1
 70
0
  0
VERTEX
  8
0
 62
7
  6
CONTINUOUS
 10
295.4382332292
 20
142.9177567177
  0
VERTEX
  8
0
 62
7
  6
CONTINUOUS
 10
294.6250973398
 20
137.1363261078
  0
VERTEX
  8
0
 62
7
  6
CONTINUOUS
 10
294.253314919
 20
134.5252611556
  0
SEQEND
  0
LINE
  8
1_AXIS
 62
7
  6
CONTINUOUS
 10
294.15625
 20
132.9930848727
 11
295.65625
 21
142.9930848727
  0
LINE
  8
1_AXIS
 62
7
  6
CONTINUOUS
 10
294.15625
 20
260.9930848727
 11
295.65625
 21
250.9930848727
  0
LINE
  8
0
 62
7
  6
CONTINUOUS
 10
294.253314919
 20
259.4609085899
 11
294.981194393
 21
254.3326268005
  0
POLYLINE
  8
0
 62
7
  6
CONTINUOUS
 66
1
 70
0
  0
VERTEX
  8
0
 62
7
  6
CONTINUOUS
 10
295.65625
 20
249.449321916
  0
VERTEX
  8
0
 62
7
  6
CONTINUOUS
 10
295.5495345919
 20
250.2506010365
  0
VERTEX
  8
0
 62
7
  6
CONTINUOUS
 10
294.981194393
 20
254.3326268005
  0
SEQEND
  0
LINE
  8
0
 62
9
  6
CONTINUOUS
 10
295.3229078238
 20
213.9752636066
 11
284.9895921762
 21
213.9752636066
  0
LINE
  8
1_AXIS
 62
9
  6
CONTINUOUS
 10
309.30625
 20
164.4930848727
 11
309.30625
 21
229.4930848727
  0
LINE
  8
1_AXIS
 62
7
  6
CONTINUOUS
 10
311.30625
 20
227.4930848727
 11
311.30625
 21
166.4930848727
  0
POLYLINE
  8
0
 62
7
  6
CONTINUOUS
 66
1
 70
0
  0
VERTEX
  8
0
 62
7
  6
CONTINUOUS
 10
294.253314919
 20
156.6202039704
  0
VERTEX
  8
0
 62
7
  6
CONTINUOUS
 10
294.6247525364
 20
157.4648936091
  0
VERTEX
  8
0
 62
7
  6
CONTINUOUS
 10
295.3229077942
 20
159.0685207834
  0
SEQEND
  0
LINE
  8
0
 62
7
  6
CONTINUOUS
 10
286.1298431956
 20
156.6096378535
 11
286.1008137895
 21
156.5685276261
  0
LINE
  8
0
 62
9
  6
CONTINUOUS
 10
294.253314919
 20
219.0880276875
 11
286.059185081
 21
219.0880276875
  0
LINE
  8
0
 62
7
  6
CONTINUOUS
 10
286.1008124715
 20
237.4176421196
 11
286.1298599969
 21
237.3764754051
  0
POLYLINE
  8
0
 62
7
  6
CONTINUOUS
 66
1
 70
0
  0
VERTEX
  8
0
 62
7
  6
CONTINUOUS
 10
295.3229078238
 20
234.9176488937
  0
VERTEX
  8
0
 62
7
  6
CONTINUOUS
 10
295.4382332292
 20
234.6706548233
  0
VERTEX
  8
0
 62
7
  6
CONTINUOUS
 10
295.5495370271
 20
234.4723531368
  0
VERTEX
  8
0
 62
7
  6
CONTINUOUS
 10
295.65625
 20
234.3233381642
  0
SEQEND
  0
POLYLINE
  8
0
 62
7
  6
CONTINUOUS
 66
1
 70
0
  0
VERTEX
  8
0
 62
7
  6
CONTINUOUS
 10
295.3229078238
 20
234.9176488937
  0
VERTEX
  8
0
 62
7
  6
CONTINUOUS
 10
294.9815311302
 20
235.7046283132
  0
VERTEX
  8
0
 62
7
  6
CONTINUOUS
 10
294.253314919
 20
237.3659657751
  0
SEQEND
  0
POLYLINE
  8
0
 62
7
  6
CONTINUOUS
 66
1
 70
0
  0
VERTEX
  8
0
 62
7
  6
CONTINUOUS
 10
295.65625
 20
159.6628315812
  0
VERTEX
  8
0
 62
7
  6
CONTINUOUS
 10
295.5495345919
 20
159.5138127308
  0
VERTEX
  8
0
 62
7
  6
CONTINUOUS
 10
295.4382400876
 20
159.3155283937
  0
VERTEX
  8
0
 62
7
  6
CONTINUOUS
 10
295.3229077939
 20
159.0685207834
  0
SEQEND
  0
LINE
  8
0
 62
9
  6
CONTINUOUS
 10
286.15625
 20
220.1995849724
 11
294.15625
 21
220.1995849724
  0
LINE
  8
0
 62
7
  6
CONTINUOUS
 10
295.6775624478
 20
238.6882214378
 11
296.65625
 21
236.9930848727
  0
LINE
  8
0
 62
7
  6
CONTINUOUS
 10
294.2116862105
 20
156.5685276261
 11
294.253314919
 21
156.6202039704
  0
LINE
  8
0
 62
7
  6
CONTINUOUS
 10
294.253314919
 20
237.3659657751
 11
294.2116875285
 21
237.4176421196
  0
LINE
  8
1_AXIS
 62
7
  6
CONTINUOUS
 10
271.00625
 20
229.4930848727
 11
279.65625
 21
229.4930848727
  0
LINE
  8
1_AXIS
 62
7
  6
CONTINUOUS
 10
300.65625
 20
229.4930848727
 11
309.30625
 21
229.4930848727
  0
LINE
  8
0
 62
9
  6
CONTINUOUS
 10
295.65625
 20
236.8684800547
 11
294.4720749907
 21
236.8684800547
  0
LINE
  8
0
 62
9
  6
CONTINUOUS
 10
285.8404250093
 20
236.8684800547
 11
284.65625
 21
236.8684800547
  0
LINE
  8
0
 62
9
  6
CONTINUOUS
 10
286.15625
 20
237.0434287429
 11
294.15625
 21
237.0434287429
  0
LINE
  8
0
 62
7
  6
CONTINUOUS
 10
286.1005802917
 20
237.4176421199
 11
294.2119197083
 21
237.4176421199
  0
LINE
  8
0
 62
9
  6
CONTINUOUS
 10
295.65625
 20
241.5927905797
 11
284.65625
 21
241.5927905797
  0
LINE
  8
0
 62
9
  6
CONTINUOUS
 10
295.3229078238
 20
251.8998276276
 11
284.9895921762
 21
251.8998276276
  0
LINE
  8
0
 62
9
  6
CONTINUOUS
 10
294.253314919
 20
259.4609085899
 11
286.059185081
 21
259.4609085899
  0
LINE
  8
0
 62
9
  6
CONTINUOUS
 10
286.15625
 20
260.2499288425
 11
294.15625
 21
260.2499288425
  0
LINE
  8
1_AXIS
 62
7
  6
CONTINUOUS
 10
286.15625
 20
260.9930848727
 11
294.15625
 21
260.9930848727
  0
ARC
  8
0
 62
7
  6
CONTINUOUS
 10
50.9303713293
 20
190.8707640903
 40
14.5
 50
311.5
 51
5.5327384792
  0
ARC
  8
0
 62
7
  6
CONTINUOUS
 10
77.2303713293
 20
145.3178278513
 40
14.5
 50
54.4672615208
 51
108.5000008506
  0
ARC
  8
0
 62
7
  6
CONTINUOUS
 10
87.8345419847
 20
139.1955070688
 40
14.5
 50
11.5
 51
65.5327384792
  0
ARC
  8
0
 62
7
  6
CONTINUOUS
 10
64.9949013077
 20
157.5685276256
 40
1.0
 50
218.7399468056
 51
288.5
  0
ARC
  8
0
 62
7
  6
CONTINUOUS
 10
55.4220535372
 20
174.1491863372
 40
1.0
 50
131.5
 51
201.2600531944
  0
ARC
  8
0
 62
7
  6
CONTINUOUS
 10
104.5616942143
 20
134.72462909
 40
1.0
 50
191.5
 51
261.2600531944
  0
ARC
  8
0
 62
7
  6
CONTINUOUS
 10
87.8345419847
 20
254.7906626767
 40
14.5
 50
294.4672615208
 51
348.5
  0
ARC
  8
0
 62
7
  6
CONTINUOUS
 10
77.2303713293
 20
248.6683418942
 40
14.5
 50
251.5
 51
305.5327384792
  0
ARC
  8
0
 62
7
  6
CONTINUOUS
 10
50.9303713293
 20
203.1154056552
 40
14.5
 50
354.4672615208
 51
48.5
  0
ARC
  8
0
 62
7
  6
CONTINUOUS
 10
104.5616942143
 20
259.2615406555
 40
1.0
 50
98.7399468056
 51
168.5
  0
ARC
  8
0
 62
7
  6
CONTINUOUS
 10
55.4220535372
 20
219.8369834083
 40
1.0
 50
158.7399468056
 51
228.5
  0
ARC
  8
0
 62
7
  6
CONTINUOUS
 10
64.9949013077
 20
236.4176421199
 40
1.0
 50
71.5
 51
141.2600531944
  0
ARC
  8
0
 62
7
  6
CONTINUOUS
 10
140.4345419847
 20
139.1955070688
 40
14.5
 50
114.4672615208
 51
168.5
  0
ARC
  8
0
 62
7
  6
CONTINUOUS
 10
151.0387126401
 20
145.3178278513
 40
14.5
 50
71.5000015292
 51
125.5327384792
  0
ARC
  8
0
 62
7
  6
CONTINUOUS
 10
177.3387126401
 20
190.8707640903
 40
14.5
 50
174.4672615208
 51
228.5
  0
ARC
  8
0
 62
7
  6
CONTINUOUS
 10
123.7073897552
 20
134.72462909
 40
1.0
 50
278.7399468056
 51
348.5
  0
ARC
  8
0
 62
7
  6
CONTINUOUS
 10
172.8470304322
 20
174.1491863372
 40
1.0
 50
338.7399468056
 51
48.5
  0
ARC
  8
0
 62
7
  6
CONTINUOUS
 10
163.2741826617
 20
157.5685276256
 40
1.0
 50
251.5
 51
321.2600531944
  0
ARC
  8
0
 62
7
  6
CONTINUOUS
 10
114.1345419847
 20
196.9930848727
 40
64.0
 50
81.2600531944
 51
98.7399468056
  0
ARC
  8
0
 62
7
  6
CONTINUOUS
 10
114.1345419847
 20
196.9930848727
 40
64.0
 50
141.2600531944
 51
158.7399468056
  0
ARC
  8
0
 62
7
  6
CONTINUOUS
 10
114.1345419847
 20
196.9930848727
 40
64.0
 50
201.2600531944
 51
218.7399468056
  0
ARC
  8
0
 62
7
  6
CONTINUOUS
 10
114.1345419847
 20
196.9930848727
 40
64.0
 50
261.2600531944
 51
278.7399468056
  0
ARC
  8
0
 62
7
  6
CONTINUOUS
 10
114.1345419847
 20
196.9930848727
 40
64.0
 50
321.2600531944
 51
338.7399468056
  0
ARC
  8
0
 62
7
  6
CONTINUOUS
 10
114.1345419847
 20
196.9930848727
 40
64.0
 50
21.2600531944
 51
38.7399468056
  0
ARC
  8
0
 62
7
  6
CONTINUOUS
 10
114.1345419847
 20
196.9930848727
 40
54.0
 50
136.2668183173
 51
163.7331816827
  0
ARC
  8
0
 62
7
  6
CONTINUOUS
 10
114.1345419847
 20
196.9930848727
 40
54.0
 50
76.2668183173
 51
103.7331816827
  0
ARC
  8
0
 62
7
  6
CONTINUOUS
 10
114.1345419847
 20
196.9930848727
 40
54.0
 50
16.2668183173
 51
43.7331816827
  0
ARC
  8
0
 62
7
  6
CONTINUOUS
 10
114.1345419847
 20
196.9930848727
 40
54.0
 50
256.2668183173
 51
283.7331816827
  0
ARC
  8
0
 62
7
  6
CONTINUOUS
 10
114.1345419847
 20
196.9930848727
 40
54.0
 50
316.2668183173
 51
343.7331816827
  0
ARC
  8
0
 62
7
  6
CONTINUOUS
 10
114.1345419847
 20
196.9930848727
 40
54.0
 50
196.2668183173
 51
223.7331816827
  0
ARC
  8
DEFAULT_3
 62
8
  6
PHANTOM
 10
114.1345419847
 20
196.9930848727
 40
50.0
 50
229.1626277223
 51
250.8373722777
  0
ARC
  8
DEFAULT_3
 62
8
  6
PHANTOM
 10
114.1345419847
 20
196.9930848727
 40
50.0
 50
289.1626277223
 51
310.8373722777
  0
ARC
  8
DEFAULT_3
 62
8
  6
PHANTOM
 10
114.1345419847
 20
196.9930848727
 40
50.0
 50
349.1626277223
 51
10.8373722777
  0
ARC
  8
DEFAULT_3
 62
8
  6
PHANTOM
 10
114.1345419847
 20
196.9930848727
 40
50.0
 50
49.1626277223
 51
70.8373722777
  0
ARC
  8
DEFAULT_3
 62
8
  6
PHANTOM
 10
114.1345419847
 20
196.9930848727
 40
50.0
 50
109.1626277223
 51
130.8373722777
  0
ARC
  8
DEFAULT_3
 62
8
  6
PHANTOM
 10
114.1345419847
 20
196.9930848727
 40
50.0
 50
169.1626277223
 51
190.8373722777
  0
ARC
  8
0
 62
7
  6
CONTINUOUS
 10
114.1345419847
 20
196.9930848727
 40
49.0
 50
354.4672615208
 51
5.5327384792
  0
ARC
  8
0
 62
7
  6
CONTINUOUS
 10
114.1345419847
 20
196.9930848727
 40
49.0
 50
294.4672615208
 51
305.5327384792
  0
ARC
  8
0
 62
7
  6
CONTINUOUS
 10
114.1345419847
 20
196.9930848727
 40
49.0
 50
234.4672615208
 51
245.5327384792
  0
ARC
  8
0
 62
7
  6
CONTINUOUS
 10
114.1345419847
 20
196.9930848727
 40
49.0
 50
174.4672615208
 51
185.5327384792
  0
ARC
  8
0
 62
7
  6
CONTINUOUS
 10
114.1345419847
 20
196.9930848727
 40
49.0
 50
114.4672615208
 51
125.5327384792
  0
ARC
  8
0
 62
7
  6
CONTINUOUS
 10
114.1345419847
 20
196.9930848727
 40
49.0
 50
54.4672615208
 51
65.5327384792
  0
CIRCLE
  8
0
 62
9
  6
CONTINUOUS
 10
114.1345419847
 20
196.9930848727
 40
37.5
  0
CIRCLE
  8
1_AXIS
 62
7
  6
CONTINUOUS
 10
114.1345419847
 20
196.9930848727
 40
32.5
  0
ARC
  8
0
 62
7
  6
CONTINUOUS
 10
114.1345419847
 20
196.9930848727
 40
32.5
 50
104.5294500409
 51
284.5294500409
  0
CIRCLE
  8
1_AXIS
 62
9
  6
CONTINUOUS
 10
114.1345419847
 20
196.9930848727
 40
30.5
  0
ARC
  8
0
 62
7
  6
CONTINUOUS
 10
140.4345419847
 20
254.7906626767
 40
14.5
 50
191.5
 51
245.5327384792
  0
CIRCLE
  8
0
 62
7
  6
CONTINUOUS
 10
114.1345419847
 20
236.9930848727
 40
1.7320508076
  0
ARC
  8
0
 62
7
  6
CONTINUOUS
 10
123.7073897552
 20
259.2615406555
 40
1.0
 50
11.5
 51
81.2600531944
  0
ARC
  8
0
 62
7
  6
CONTINUOUS
 10
177.3387126401
 20
203.1154056552
 40
14.5
 50
131.5
 51
185.5327384792
  0
ARC
  8
0
 62
7
  6
CONTINUOUS
 10
172.8470304322
 20
219.8369834083
 40
1.0
 50
311.5
 51
21.2600531944
  0
ARC
  8
0
 62
7
  6
CONTINUOUS
 10
151.0387126401
 20
248.6683418942
 40
14.5
 50
234.4672615208
 51
288.5
  0
ARC
  8
0
 62
7
  6
CONTINUOUS
 10
163.2741826617
 20
236.4176421199
 40
1.0
 50
38.7399468056
 51
108.5
  0
ARC
  8
0
 62
7
  6
CONTINUOUS
 10
151.6345419847
 20
63.8687977099
 40
5.0
 50
180.0
 51
270.0
  0
ARC
  8
0
 62
7
  6
CONTINUOUS
 10
151.6345419847
 20
42.8687977099
 40
5.0
 50
90.0
 51
180.0
  0
ARC
  8
0
 62
7
  6
CONTINUOUS
 10
76.6345419847
 20
63.8687977099
 40
5.0
 50
270.0
 51
360.0
  0
ARC
  8
0
 62
7
  6
CONTINUOUS
 10
76.6345419847
 20
42.8687977099
 40
5.0
 50
0.0
 51
85.2375583894
  0
ARC
  8
1_AXIS
 62
7
  6
CONTINUOUS
 10
83.6345419847
 20
72.5187977099
 40
2.0
 50
90.0
 51
180.0
  0
ARC
  8
1_AXIS
 62
7
  6
CONTINUOUS
 10
83.6345419847
 20
34.2187977099
 40
2.0
 50
180.0
 51
270.0
  0
ARC
  8
1_AXIS
 62
7
  6
CONTINUOUS
 10
144.6345419847
 20
72.5187977099
 40
2.0
 50
0.0
 51
90.0
  0
ARC
  8
1_AXIS
 62
7
  6
CONTINUOUS
 10
144.6345419847
 20
34.2187977099
 40
2.0
 50
270.0
 51
360.0
  0
ARC
  8
0
 62
7
  6
CONTINUOUS
 10
279.65625
 20
159.4930848727
 40
5.0
 50
3.6357896864
 51
90.0
  0
ARC
  8
0
 62
7
  6
CONTINUOUS
 10
279.65625
 20
234.4930848727
 40
5.0
 50
270.0
 51
356.3642103136
  0
ARC
  8
0
 62
7
  6
CONTINUOUS
 10
300.65625
 20
159.4930848727
 40
5.0
 50
90.0
 51
176.3642103136
  0
ARC
  8
0
 62
7
  6
CONTINUOUS
 10
300.65625
 20
234.4930848727
 40
5.0
 50
185.7451301144
 51
270.0
  0
ARC
  8
1_AXIS
 62
7
  6
CONTINUOUS
 10
271.00625
 20
227.4930848727
 40
2.0
 50
90.0
 51
180.0
  0
ARC
  8
1_AXIS
 62
7
  6
CONTINUOUS
 10
271.00625
 20
166.4930848727
 40
2.0
 50
180.0
 51
270.0
  0
ARC
  8
1_AXIS
 62
7
  6
CONTINUOUS
 10
309.30625
 20
227.4930848727
 40
2.0
 50
0.0
 51
90.0
  0
ARC
  8
1_AXIS
 62
7
  6
CONTINUOUS
 10
309.30625
 20
166.4930848727
 40
2.0
 50
270.0
 51
360.0
  0
ENDSEC
  0
EOF
