  0
SECTION
  2
HEADER
  9
$EXTMAX
 10
420.0
 20
297.0
 30
0.0
  9
$EXTMIN
 10
0.0
 20
0.0
 30
0.0
  9
$LIMMIN
 10
0.0
 20
0.0
  9
$LIMMAX
 10
420.0
 20
297.0
  9
$VIEWCTR
 10
210.0
 20
148.5
  9
$VIEWSIZE
 40
297.0
  9
$CLAYER
  8
0
  9
$LTSCALE
 40
23.1
  9
$CELTYPE
  6
BYLAYER
  9
$DIMSCALE
 40
1.0
  9
$DIMASZ
 40
3.5
  9
$DIMEXO
 40
1.0
  9
$DIMDLI
 40
15.96
  9
$DIMEXE
 40
2.0
  9
$DIMCEN
 40
3.78
  9
$DIMLFAC
 40
1.0
  9
$DIMBLK
  1
_FILLED
  9
$DIMALT
 70
0
  9
$DIMALTF
 40
0.0393700787
  9
$DIMTXT
 40
3.5
  9
$AUNITS
 70
0
  9
$PDMODE
 70
3
  9
$PDSIZE
 40
0.3125
  9
$TILEMODE
 70
1
  0
ENDSEC
  0
SECTION
  2
TABLES
  0
TABLE
  2
LTYPE
 70
6
  0
LTYPE
  2
BYBLOCK
 70
0
  3

 72
65
 73
0
 40
0.0
  0
LTYPE
  2
BYLAYER
 70
0
  3

 72
65
 73
0
 40
0.0
  0
LTYPE
  2
CONTINUOUS
 70
64
  3
Solid line
 72
65
 73
0
 40
0.0
  0
LTYPE
  2
CENTER
 70
64
  3
____ _ ____ _ ____ _ ____ _ ____ _ ____ _ ____
 72
65
 73
4
 40
0.6
 49
0.375
 49
-0.075
 49
0.075
 49
-0.075
  0
LTYPE
  2
HIDDEN
 70
64
  3
- - - - - - - - - - - - - - - - - - - -
 72
65
 73
2
 40
0.2
 49
0.1
 49
-0.1
  0
LTYPE
  2
PHANTOM
 70
64
  3
_____ _ _ _____ _ _ _____ _ _ _____
 72
65
 73
6
 40
0.8
 49
0.45
 49
-0.05
 49
0.1
 49
-0.05
 49
0.1
 49
-0.05
  0
LTYPE
  2
DOT
 70
64
  3
. . . . . . . . . . . . . . . . . . . .
 72
65
 73
2
 40
0.2
 49
0.1
 49
-0.1
  0
LTYPE
  2
DASHED
 70
64
  3
- - - - - - - - - - - - - - - - - - - -
 72
65
 73
2
 40
0.2
 49
0.1
 49
-0.1
  0
ENDTAB
  0
TABLE
  2
LAYER
 70
36
  0
LAYER
  2
0
 70
0
 62
7
  6
CONTINUOUS
  0
LAYER
  2
DEFAULT_1
 70
0
 62
7
  6
CENTER
  0
LAYER
  2
DEFAULT_2
 70
0
 62
8
  6
HIDDEN
  0
LAYER
  2
DEFAULT_3
 70
0
 62
7
  6
PHANTOM
  0
LAYER
  2
00_CURVE
 70
0
 62
7
  6
CONTINUOUS
  0
LAYER
  2
1_AXIS
 70
0
 62
7
  6
CONTINUOUS
  0
LAYER
  2
1_DATUMPLANE
 70
0
 62
7
  6
CONTINUOUS
  0
LAYER
  2
1_DATUM_PLANES
 70
0
 62
7
  6
CONTINUOUS
  0
LAYER
  2
2_FEATURE
 70
0
 62
7
  6
CONTINUOUS
  0
LAYER
  2
6_DIM
 70
0
 62
7
  6
CONTINUOUS
  0
LAYER
  2
6_NOTE
 70
0
 62
7
  6
CONTINUOUS
  0
LAYER
  2
AXES
 70
0
 62
7
  6
CONTINUOUS
  0
LAYER
  2
CSYS
 70
0
 62
7
  6
CONTINUOUS
  0
LAYER
  2
NOTES
 70
0
 62
7
  6
CONTINUOUS
  0
LAYER
  2
PLANES
 70
0
 62
7
  6
CONTINUOUS
  0
LAYER
  2
QUILT
 70
0
 62
7
  6
CONTINUOUS
  0
LAYER
  2
XSEC_DATUMS
 70
0
 62
7
  6
CONTINUOUS
  0
ENDTAB
  0
TABLE
  2
STYLE
 70
1
  0
STYLE
  2
STANDARD
 70
0
 40
0.0
 41
0.8
 50
0.0
 71
0
 42
0.2
  3
txt
  4

  0
STYLE
  2
TEXTSTYLE_1
 70
0
 40
0.0
 41
0.8
 50
0.0
 71
0
 42
0.2
  3
gdt
  4

  0
STYLE
  2
TEXTSTYLE_2
 70
0
 40
0.0
 41
0.6
 50
0.0
 71
0
 42
0.2
  3
txt
  4

  0
STYLE
  2
TEXTSTYLE_3
 70
0
 40
0.0
 41
1.0
 50
0.0
 71
0
 42
0.2
  3
ftb_____.ttf
  4

  0
STYLE
  2
TEXTSTYLE_4
 70
0
 40
0.0
 41
1.0
 50
0.0
 71
0
 42
0.2
  3
fti_____.ttf
  4

  0
STYLE
  2
TEXTSTYLE_5
 70
0
 40
0.0
 41
1.0
 50
0.0
 71
0
 42
0.2
  3
frutiger light.ttf
  4

  0
STYLE
  2
TEXTSTYLE_6
 70
0
 40
0.0
 41
0.7
 50
0.0
 71
0
 42
0.2
  3
txt
  4

  0
STYLE
  2
TEXTSTYLE_7
 70
0
 40
0.0
 41
0.8
 50
0.0
 71
0
 42
0.2
  3
txt
  4

  0
ENDTAB
  0
ENDSEC
  0
SECTION
  2
BLOCKS
  0
BLOCK
  8
0
 62
2
  6
CONTINUOUS
  2
UNI_LOGO2_BL1
 70
64
 10
382.3920721743
 20
35.7654615278
  0
TEXT
  8
0
 62
7
  6
CONTINUOUS
 10
373.4503571828
 20
30.9093678571
  7
TEXTSTYLE_4
 40
1.0655737705
  1
The brand for plastic modular belts and chains
 41
1.0
 72
0
  0
LINE
  8
0
 62
7
  6
CONTINUOUS
 10
358.3701405634
 20
36.3903819718
 11
358.3701405634
 21
34.2592344308
  0
LINE
  8
0
 62
7
  6
CONTINUOUS
 10
358.6592030565
 20
31.2683031351
 11
358.6592030565
 21
31.3650941944
  0
LINE
  8
0
 62
7
  6
CONTINUOUS
 10
358.3701405634
 20
31.332830508
 11
358.4279530651
 21
31.1392483894
  0
LINE
  8
0
 62
7
  6
CONTINUOUS
 10
359.7635831863
 20
34.1772672177
 11
359.7635831863
 21
36.3903819718
  0
LINE
  8
0
 62
7
  6
CONTINUOUS
 10
360.6826405082
 20
32.3330049227
 11
360.6826405082
 21
30.81661148
  0
LINE
  8
0
 62
7
  6
CONTINUOUS
 10
360.9717030634
 20
30.81661148
 11
360.9717030634
 21
31.5586763581
  0
LINE
  8
0
 62
7
  6
CONTINUOUS
 10
360.9717030634
 20
31.6877311038
 11
360.9717030634
 21
32.3330049227
  0
LINE
  8
0
 62
7
  6
CONTINUOUS
 10
358.4279530651
 20
31.5264126717
 11
358.3701405634
 21
31.332830508
  0
LINE
  8
0
 62
7
  6
CONTINUOUS
 10
358.7748280496
 20
31.106984703
 11
358.6592030565
 21
31.2683031351
  0
LINE
  8
0
 62
7
  6
CONTINUOUS
 10
359.8732656185
 20
31.623203731
 11
359.9310780634
 21
31.5264126717
  0
LINE
  8
0
 62
7
  6
CONTINUOUS
 10
360.2201406185
 20
31.5264126717
 11
360.1623280082
 21
31.6554674174
  0
LINE
  8
0
 62
7
  6
CONTINUOUS
 10
361.648829088
 20
36.3903819718
 11
361.648829088
 21
34.5871032833
  0
LINE
  8
0
 62
7
  6
CONTINUOUS
 10
361.648829088
 20
33.2756278735
 11
361.648829088
 21
32.6198901686
  0
LINE
  8
0
 62
7
  6
CONTINUOUS
 10
362.0123280634
 20
31.4618852989
 11
362.0123280634
 21
30.81661148
  0
LINE
  8
0
 62
7
  6
CONTINUOUS
 10
362.3013904531
 20
30.81661148
 11
362.3013904531
 21
31.4618852989
  0
LINE
  8
0
 62
7
  6
CONTINUOUS
 10
358.6592030565
 20
31.3650941944
 11
358.7170155634
 21
31.4941489853
  0
LINE
  8
0
 62
7
  6
CONTINUOUS
 10
358.4279530651
 20
31.1392483894
 11
358.5435780634
 21
31.0101936212
  0
LINE
  8
0
 62
7
  6
CONTINUOUS
 10
361.9545154531
 20
31.5909400446
 11
362.0123280634
 21
31.4618852989
  0
LINE
  8
0
 62
7
  6
CONTINUOUS
 10
362.7638906736
 20
31.106984703
 11
362.8217029531
 21
30.9779299347
  0
LINE
  8
0
 62
7
  6
CONTINUOUS
 10
362.3013904531
 20
31.4618852989
 11
362.2435781736
 21
31.623203731
  0
LINE
  8
0
 62
7
  6
CONTINUOUS
 10
362.7638906736
 20
31.6554674174
 11
362.7638906736
 21
31.5909400446
  0
LINE
  8
0
 62
7
  6
CONTINUOUS
 10
362.7638906736
 20
31.2037757623
 11
362.7638906736
 21
31.106984703
  0
LINE
  8
0
 62
7
  6
CONTINUOUS
 10
363.0422717109
 20
32.6198901686
 11
363.0422717109
 21
36.3903819718
  0
LINE
  8
0
 62
7
  6
CONTINUOUS
 10
363.0529530634
 20
31.074720994
 11
363.0529530634
 21
31.1392483894
  0
LINE
  8
0
 62
7
  6
CONTINUOUS
 10
363.3701405634
 20
36.3903819718
 11
363.3701405634
 21
32.6198901686
  0
LINE
  8
0
 62
7
  6
CONTINUOUS
 10
360.1623280082
 20
31.0101936212
 11
360.2201406185
 21
31.1392483894
  0
LINE
  8
0
 62
7
  6
CONTINUOUS
 10
364.5560782839
 20
30.9134025506
 11
364.4982653428
 21
31.074720994
  0
LINE
  8
0
 62
7
  6
CONTINUOUS
 10
364.2092032839
 20
31.5909400446
 11
364.2092032839
 21
31.4941489853
  0
LINE
  8
0
 62
7
  6
CONTINUOUS
 10
364.2092032839
 20
31.3650941944
 11
364.2092032839
 21
31.1715120759
  0
LINE
  8
0
 62
7
  6
CONTINUOUS
 10
364.4982653428
 20
31.074720994
 11
364.4982653428
 21
31.5909400446
  0
LINE
  8
0
 62
7
  6
CONTINUOUS
 10
364.7635831863
 20
32.6198901686
 11
364.7635831863
 21
34.4231688571
  0
LINE
  8
0
 62
7
  6
CONTINUOUS
 10
364.7635831863
 20
35.7346442669
 11
364.7635831863
 21
36.3903819718
  0
LINE
  8
0
 62
7
  6
CONTINUOUS
 10
365.0763907839
 20
32.3330049227
 11
365.0763907839
 21
32.1716864905
  0
LINE
  8
0
 62
7
  6
CONTINUOUS
 10
365.0763907839
 20
31.8490495359
 11
365.0763907839
 21
30.81661148
  0
LINE
  8
0
 62
7
  6
CONTINUOUS
 10
365.3654528428
 20
30.81661148
 11
365.3654528428
 21
31.8490495359
  0
LINE
  8
0
 62
7
  6
CONTINUOUS
 10
365.3654528428
 20
32.1716864905
 11
365.3654528428
 21
32.3330049227
  0
LINE
  8
0
 62
7
  6
CONTINUOUS
 10
359.9310780634
 20
31.1392483894
 11
359.8732656185
 21
31.0424573076
  0
LINE
  8
0
 62
7
  6
CONTINUOUS
 10
362.2435781736
 20
31.623203731
 11
362.1857655634
 21
31.6877311038
  0
LINE
  8
0
 62
7
  6
CONTINUOUS
 10
363.1107656736
 20
31.0101936212
 11
363.0529530634
 21
31.074720994
  0
LINE
  8
0
 62
7
  6
CONTINUOUS
 10
364.2670155634
 20
30.8811388585
 11
364.3248278428
 21
30.81661148
  0
LINE
  8
0
 62
7
  6
CONTINUOUS
 10
364.2092032839
 20
30.9779299347
 11
364.2670155634
 21
30.8811388585
  0
LINE
  8
0
 62
7
  6
CONTINUOUS
 10
364.6138905634
 20
30.81661148
 11
364.5560782839
 21
30.9134025506
  0
LINE
  8
0
 62
7
  6
CONTINUOUS
 10
364.4982653428
 20
31.5909400446
 11
364.4404530634
 21
31.6877311038
  0
LINE
  8
0
 62
7
  6
CONTINUOUS
 10
365.8279530634
 20
31.8490495359
 11
365.8279530634
 21
30.81661148
  0
LINE
  8
0
 62
7
  6
CONTINUOUS
 10
366.1170157839
 20
30.81661148
 11
366.1170157839
 21
31.5586763581
  0
LINE
  8
0
 62
7
  6
CONTINUOUS
 10
366.1170157839
 20
31.6877311038
 11
366.1170157839
 21
31.8490495359
  0
LINE
  8
0
 62
7
  6
CONTINUOUS
 10
366.648829088
 20
34.8330049227
 11
366.648829088
 21
32.6198901686
  0
LINE
  8
0
 62
7
  6
CONTINUOUS
 10
358.5435780634
 20
31.6554674174
 11
358.4279530651
 21
31.5264126717
  0
LINE
  8
0
 62
7
  6
CONTINUOUS
 10
358.7170155634
 20
31.4941489853
 11
358.7748280496
 21
31.5586763581
  0
LINE
  8
0
 62
7
  6
CONTINUOUS
 10
358.5435780634
 20
31.0101936212
 11
358.6592030565
 21
30.945666237
  0
LINE
  8
0
 62
7
  6
CONTINUOUS
 10
358.9482655496
 20
31.0101936212
 11
358.7748280496
 21
31.106984703
  0
LINE
  8
0
 62
7
  6
CONTINUOUS
 10
364.1513903428
 20
31.6554674174
 11
364.2092032839
 21
31.5909400446
  0
LINE
  8
0
 62
7
  6
CONTINUOUS
 10
367.0998278428
 20
31.5909400446
 11
367.1576407839
 21
31.4296216124
  0
LINE
  8
0
 62
7
  6
CONTINUOUS
 10
367.4467028428
 20
31.4296216124
 11
367.3888905634
 21
31.5909400446
  0
LINE
  8
0
 62
7
  6
CONTINUOUS
 10
367.1576407839
 20
31.4296216124
 11
367.1576407839
 21
30.81661148
  0
LINE
  8
0
 62
7
  6
CONTINUOUS
 10
367.4467028428
 20
30.81661148
 11
367.4467028428
 21
31.4296216124
  0
LINE
  8
0
 62
7
  6
CONTINUOUS
 10
367.9092030634
 20
31.6554674174
 11
367.9092030634
 21
31.5909400446
  0
LINE
  8
0
 62
7
  6
CONTINUOUS
 10
368.0422717109
 20
32.6198901686
 11
368.0422717109
 21
34.7510377095
  0
LINE
  8
0
 62
7
  6
CONTINUOUS
 10
368.3701405634
 20
36.3903819718
 11
368.3701405634
 21
32.6198901686
  0
LINE
  8
0
 62
7
  6
CONTINUOUS
 10
363.0529530634
 20
31.1392483894
 11
363.1107656736
 21
31.2360394487
  0
LINE
  8
0
 62
7
  6
CONTINUOUS
 10
358.6592030565
 20
30.945666237
 11
358.8326405772
 21
30.8811388585
  0
LINE
  8
0
 62
7
  6
CONTINUOUS
 10
360.1623280082
 20
31.6554674174
 11
359.9888905082
 21
31.7522584767
  0
LINE
  8
0
 62
7
  6
CONTINUOUS
 10
362.8217029531
 20
30.9779299347
 11
362.9951404531
 21
30.8811388585
  0
LINE
  8
0
 62
7
  6
CONTINUOUS
 10
361.8388905634
 20
31.6554674174
 11
361.9545154531
 21
31.5909400446
  0
LINE
  8
0
 62
7
  6
CONTINUOUS
 10
362.1857655634
 20
31.6877311038
 11
362.0701406736
 21
31.7522584767
  0
LINE
  8
0
 62
7
  6
CONTINUOUS
 10
367.9092030634
 20
31.074720994
 11
368.0248282839
 21
30.945666237
  0
LINE
  8
0
 62
7
  6
CONTINUOUS
 10
368.2560780634
 20
31.0101936212
 11
368.1982657839
 21
31.074720994
  0
LINE
  8
0
 62
7
  6
CONTINUOUS
 10
367.9092030634
 20
31.5909400446
 11
368.0248282839
 21
31.4618852989
  0
LINE
  8
0
 62
7
  6
CONTINUOUS
 10
367.3888905634
 20
31.5909400446
 11
367.3310782839
 21
31.6877311038
  0
LINE
  8
0
 62
7
  6
CONTINUOUS
 10
369.7592026223
 20
31.0101936212
 11
369.7592026223
 21
31.074720994
  0
LINE
  8
0
 62
7
  6
CONTINUOUS
 10
369.7635831863
 20
32.6198901686
 11
369.7635831863
 21
36.3903819718
  0
LINE
  8
0
 62
7
  6
CONTINUOUS
 10
362.8217029531
 20
31.7199947902
 11
362.7638906736
 21
31.6554674174
  0
LINE
  8
0
 62
7
  6
CONTINUOUS
 10
359.6998280358
 20
31.6877311038
 11
359.8732656185
 21
31.623203731
  0
LINE
  8
0
 62
7
  6
CONTINUOUS
 10
364.4404530634
 20
31.6877311038
 11
364.3248278428
 21
31.7522584767
  0
LINE
  8
0
 62
7
  6
CONTINUOUS
 10
368.2560780634
 20
31.5264126717
 11
368.1982657839
 21
31.5909400446
  0
LINE
  8
0
 62
7
  6
CONTINUOUS
 10
369.4123282839
 20
31.1392483894
 11
369.4701405634
 21
31.074720994
  0
LINE
  8
0
 62
7
  6
CONTINUOUS
 10
369.7592026223
 20
31.074720994
 11
369.6435780634
 21
31.2037757623
  0
LINE
  8
0
 62
7
  6
CONTINUOUS
 10
369.4123282839
 20
31.6554674174
 11
369.4701405634
 21
31.5909400446
  0
LINE
  8
0
 62
7
  6
CONTINUOUS
 10
369.7592026223
 20
31.5909400446
 11
369.6435780634
 21
31.7199947902
  0
LINE
  8
0
 62
7
  6
CONTINUOUS
 10
363.0529530634
 20
31.5909400446
 11
363.1107656736
 21
31.6554674174
  0
LINE
  8
0
 62
7
  6
CONTINUOUS
 10
362.8795155634
 20
31.332830508
 11
362.7638906736
 21
31.2037757623
  0
LINE
  8
0
 62
7
  6
CONTINUOUS
 10
364.2092032839
 20
31.1715120759
 11
364.1513903428
 21
31.106984703
  0
LINE
  8
0
 62
7
  6
CONTINUOUS
 10
364.1513903428
 20
30.9134025506
 11
364.2092032839
 21
30.9779299347
  0
LINE
  8
0
 62
7
  6
CONTINUOUS
 10
362.9951404531
 20
30.8811388585
 11
363.1107656736
 21
30.8488751693
  0
LINE
  8
0
 62
7
  6
CONTINUOUS
 10
359.9888905082
 20
31.7522584767
 11
359.7576405634
 21
31.8167858495
  0
LINE
  8
0
 62
7
  6
CONTINUOUS
 10
363.3420154531
 20
30.945666237
 11
363.1107656736
 21
31.0101936212
  0
LINE
  8
0
 62
7
  6
CONTINUOUS
 10
362.0701406736
 20
31.7522584767
 11
361.8967031736
 21
31.8167858495
  0
LINE
  8
0
 62
7
  6
CONTINUOUS
 10
364.3248278428
 20
31.7522584767
 11
364.1513903428
 21
31.8167858495
  0
LINE
  8
0
 62
7
  6
CONTINUOUS
 10
366.9842032839
 20
31.6554674174
 11
367.0998278428
 21
31.5909400446
  0
LINE
  8
0
 62
7
  6
CONTINUOUS
 10
367.3310782839
 20
31.6877311038
 11
367.2154530634
 21
31.7522584767
  0
LINE
  8
0
 62
7
  6
CONTINUOUS
 10
358.8326405772
 20
30.8811388585
 11
359.0060780772
 21
30.8488751693
  0
LINE
  8
0
 62
7
  6
CONTINUOUS
 10
359.2951405909
 20
30.945666237
 11
358.9482655496
 21
31.0101936212
  0
LINE
  8
0
 62
7
  6
CONTINUOUS
 10
361.7232656736
 20
31.6877311038
 11
361.8388905634
 21
31.6554674174
  0
LINE
  8
0
 62
7
  6
CONTINUOUS
 10
364.0357657839
 20
31.6877311038
 11
364.1513903428
 21
31.6554674174
  0
LINE
  8
0
 62
7
  6
CONTINUOUS
 10
368.3717032839
 20
30.9779299347
 11
368.2560780634
 21
31.0101936212
  0
LINE
  8
0
 62
7
  6
CONTINUOUS
 10
366.8685780634
 20
31.6877311038
 11
366.9842032839
 21
31.6554674174
  0
LINE
  8
0
 62
7
  6
CONTINUOUS
 10
368.0248282839
 20
30.945666237
 11
368.1982657839
 21
30.8811388585
  0
LINE
  8
0
 62
7
  6
CONTINUOUS
 10
367.2154530634
 20
31.7522584767
 11
367.0420155634
 21
31.8167858495
  0
LINE
  8
0
 62
7
  6
CONTINUOUS
 10
368.4295155634
 20
31.4618852989
 11
368.2560780634
 21
31.5264126717
  0
LINE
  8
0
 62
7
  6
CONTINUOUS
 10
369.2388907839
 20
31.2037757623
 11
369.4123282839
 21
31.1392483894
  0
LINE
  8
0
 62
7
  6
CONTINUOUS
 10
369.6435780634
 20
31.7199947902
 11
369.4701405634
 21
31.7845221631
  0
LINE
  8
0
 62
7
  6
CONTINUOUS
 10
368.0248282839
 20
31.4618852989
 11
368.2560780634
 21
31.3650941944
  0
LINE
  8
0
 62
7
  6
CONTINUOUS
 10
369.6435780634
 20
31.2037757623
 11
369.4123282839
 21
31.3005668216
  0
LINE
  8
0
 62
7
  6
CONTINUOUS
 10
368.1982657839
 20
31.5909400446
 11
368.2560780634
 21
31.6554674174
  0
LINE
  8
0
 62
7
  6
CONTINUOUS
 10
358.6592030565
 20
31.7199947902
 11
358.5435780634
 21
31.6554674174
  0
LINE
  8
0
 62
7
  6
CONTINUOUS
 10
358.7748280496
 20
31.5586763581
 11
358.9482655496
 21
31.6554674174
  0
LINE
  8
0
 62
7
  6
CONTINUOUS
 10
361.0873281185
 20
31.7522584767
 11
360.9717030634
 21
31.6877311038
  0
LINE
  8
0
 62
7
  6
CONTINUOUS
 10
360.9717030634
 20
31.5586763581
 11
361.0873281185
 21
31.623203731
  0
LINE
  8
0
 62
7
  6
CONTINUOUS
 10
359.9888905082
 20
30.9134025506
 11
360.1623280082
 21
31.0101936212
  0
LINE
  8
0
 62
7
  6
CONTINUOUS
 10
359.0060780772
 20
30.8488751693
 11
359.3529530358
 21
30.81661148
  0
LINE
  8
0
 62
7
  6
CONTINUOUS
 10
363.1107656736
 20
30.8488751693
 11
363.3420154531
 21
30.81661148
  0
LINE
  8
0
 62
7
  6
CONTINUOUS
 10
361.4920155634
 20
31.7199947902
 11
361.7232656736
 21
31.6877311038
  0
LINE
  8
0
 62
7
  6
CONTINUOUS
 10
363.8045156736
 20
31.7199947902
 11
364.0357657839
 21
31.6877311038
  0
LINE
  8
0
 62
7
  6
CONTINUOUS
 10
368.2560780634
 20
31.3650941944
 11
369.2388907839
 21
31.2037757623
  0
LINE
  8
0
 62
7
  6
CONTINUOUS
 10
369.4123282839
 20
31.3005668216
 11
368.4295155634
 21
31.4618852989
  0
LINE
  8
0
 62
7
  6
CONTINUOUS
 10
361.8967031736
 20
31.8167858495
 11
361.7232656736
 21
31.8490495359
  0
LINE
  8
0
 62
7
  6
CONTINUOUS
 10
368.1982657839
 20
30.8811388585
 11
368.3717032839
 21
30.8488751693
  0
LINE
  8
0
 62
7
  6
CONTINUOUS
 10
367.0420155634
 20
31.8167858495
 11
366.8685780634
 21
31.8490495359
  0
LINE
  8
0
 62
7
  6
CONTINUOUS
 10
369.2967030634
 20
31.6877311038
 11
369.4123282839
 21
31.6554674174
  0
LINE
  8
0
 62
7
  6
CONTINUOUS
 10
369.4701405634
 20
31.074720994
 11
369.4123282839
 21
31.0101936212
  0
LINE
  8
0
 62
7
  6
CONTINUOUS
 10
368.0248282839
 20
31.7522584767
 11
367.9092030634
 21
31.6554674174
  0
LINE
  8
0
 62
7
  6
CONTINUOUS
 10
362.9373281736
 20
31.7845221631
 11
362.8217029531
 21
31.7199947902
  0
LINE
  8
0
 62
7
  6
CONTINUOUS
 10
362.9951404531
 20
31.397357926
 11
362.8795155634
 21
31.332830508
  0
LINE
  8
0
 62
7
  6
CONTINUOUS
 10
363.1107656736
 20
31.2360394487
 11
363.2263905634
 21
31.3005668216
  0
LINE
  8
0
 62
7
  6
CONTINUOUS
 10
360.6826405082
 20
30.81661148
 11
360.9717030634
 21
30.81661148
  0
LINE
  8
0
 62
7
  6
CONTINUOUS
 10
362.0123280634
 20
30.81661148
 11
362.3013904531
 21
30.81661148
  0
LINE
  8
0
 62
7
  6
CONTINUOUS
 10
363.3420154531
 20
30.81661148
 11
363.6888904531
 21
30.81661148
  0
LINE
  8
0
 62
7
  6
CONTINUOUS
 10
364.3248278428
 20
30.81661148
 11
364.6138905634
 21
30.81661148
  0
LINE
  8
0
 62
7
  6
CONTINUOUS
 10
365.0763907839
 20
30.81661148
 11
365.3654528428
 21
30.81661148
  0
LINE
  8
0
 62
7
  6
CONTINUOUS
 10
365.8279530634
 20
30.81661148
 11
366.1170157839
 21
30.81661148
  0
LINE
  8
0
 62
7
  6
CONTINUOUS
 10
367.1576407839
 20
30.81661148
 11
367.4467028428
 21
30.81661148
  0
LINE
  8
0
 62
7
  6
CONTINUOUS
 10
368.7185782839
 20
30.81661148
 11
369.0654532839
 21
30.81661148
  0
LINE
  8
0
 62
7
  6
CONTINUOUS
 10
369.0654532839
 20
30.945666237
 11
368.7185782839
 21
30.945666237
  0
LINE
  8
0
 62
7
  6
CONTINUOUS
 10
363.6888904531
 20
30.945666237
 11
363.3420154531
 21
30.945666237
  0
LINE
  8
0
 62
7
  6
CONTINUOUS
 10
368.1982657839
 20
31.074720994
 11
367.9092030634
 21
31.074720994
  0
LINE
  8
0
 62
7
  6
CONTINUOUS
 10
360.2201406185
 20
31.1392483894
 11
359.9310780634
 21
31.1392483894
  0
LINE
  8
0
 62
7
  6
CONTINUOUS
 10
359.2951405909
 20
31.7199947902
 11
359.6998280358
 21
31.6877311038
  0
LINE
  8
0
 62
7
  6
CONTINUOUS
 10
359.7576405634
 20
31.8167858495
 11
359.3529530358
 21
31.8490495359
  0
LINE
  8
0
 62
7
  6
CONTINUOUS
 10
368.3717032839
 20
30.8488751693
 11
368.7185782839
 21
30.81661148
  0
LINE
  8
0
 62
7
  6
CONTINUOUS
 10
368.7185782839
 20
30.945666237
 11
368.3717032839
 21
30.9779299347
  0
LINE
  8
0
 62
7
  6
CONTINUOUS
 10
364.1513903428
 20
31.8167858495
 11
363.8045156736
 21
31.8490495359
  0
LINE
  8
0
 62
7
  6
CONTINUOUS
 10
368.9498280634
 20
31.7199947902
 11
369.2967030634
 21
31.6877311038
  0
LINE
  8
0
 62
7
  6
CONTINUOUS
 10
369.2967030634
 20
31.8167858495
 11
368.9498280634
 21
31.8490495359
  0
LINE
  8
0
 62
7
  6
CONTINUOUS
 10
366.6373282839
 20
31.7199947902
 11
366.8685780634
 21
31.6877311038
  0
LINE
  8
0
 62
7
  6
CONTINUOUS
 10
369.4701405634
 20
31.7845221631
 11
369.2967030634
 21
31.8167858495
  0
LINE
  8
0
 62
7
  6
CONTINUOUS
 10
369.6435780634
 20
30.9134025506
 11
369.7592026223
 21
31.0101936212
  0
LINE
  8
0
 62
7
  6
CONTINUOUS
 10
364.1513903428
 20
31.106984703
 11
363.9779528428
 21
31.0101936212
  0
LINE
  8
0
 62
7
  6
CONTINUOUS
 10
366.2326403428
 20
31.7522584767
 11
366.1170157839
 21
31.6877311038
  0
LINE
  8
0
 62
7
  6
CONTINUOUS
 10
366.1170157839
 20
31.5586763581
 11
366.2326403428
 21
31.623203731
  0
LINE
  8
0
 62
7
  6
CONTINUOUS
 10
358.8326405772
 20
31.7845221631
 11
358.6592030565
 21
31.7199947902
  0
LINE
  8
0
 62
7
  6
CONTINUOUS
 10
361.2607654531
 20
31.8167858495
 11
361.0873281185
 21
31.7522584767
  0
LINE
  8
0
 62
7
  6
CONTINUOUS
 10
361.0873281185
 20
31.623203731
 11
361.2607654531
 21
31.6877311038
  0
LINE
  8
0
 62
7
  6
CONTINUOUS
 10
359.8732656185
 20
31.0424573076
 11
359.6998280358
 21
30.9779299347
  0
LINE
  8
0
 62
7
  6
CONTINUOUS
 10
369.2967030634
 20
30.9779299347
 11
369.0654532839
 21
30.945666237
  0
LINE
  8
0
 62
7
  6
CONTINUOUS
 10
363.6888904531
 20
30.81661148
 11
363.9779528428
 21
30.8488751693
  0
LINE
  8
0
 62
7
  6
CONTINUOUS
 10
369.0654532839
 20
30.81661148
 11
369.4123282839
 21
30.8488751693
  0
LINE
  8
0
 62
7
  6
CONTINUOUS
 10
359.3529530358
 20
30.81661148
 11
359.7576405634
 21
30.8488751693
  0
LINE
  8
0
 62
7
  6
CONTINUOUS
 10
359.6998280358
 20
30.9779299347
 11
359.2951405909
 21
30.945666237
  0
LINE
  8
0
 62
7
  6
CONTINUOUS
 10
363.5732655634
 20
31.3650941944
 11
364.2092032839
 21
31.3650941944
  0
LINE
  8
0
 62
7
  6
CONTINUOUS
 10
364.2092032839
 20
31.4941489853
 11
363.5732655634
 21
31.4941489853
  0
LINE
  8
0
 62
7
  6
CONTINUOUS
 10
359.9310780634
 20
31.5264126717
 11
360.2201406185
 21
31.5264126717
  0
LINE
  8
0
 62
7
  6
CONTINUOUS
 10
362.7638906736
 20
31.5909400446
 11
363.0529530634
 21
31.5909400446
  0
LINE
  8
0
 62
7
  6
CONTINUOUS
 10
369.4701405634
 20
31.5909400446
 11
369.7592026223
 21
31.5909400446
  0
LINE
  8
0
 62
7
  6
CONTINUOUS
 10
363.4576406736
 20
31.7199947902
 11
363.8045156736
 21
31.7199947902
  0
LINE
  8
0
 62
7
  6
CONTINUOUS
 10
368.6029530634
 20
31.7199947902
 11
368.9498280634
 21
31.7199947902
  0
LINE
  8
0
 62
7
  6
CONTINUOUS
 10
368.9498280634
 20
31.8490495359
 11
368.6029530634
 21
31.8490495359
  0
LINE
  8
0
 62
7
  6
CONTINUOUS
 10
366.8685780634
 20
31.8490495359
 11
366.6373282839
 21
31.8490495359
  0
LINE
  8
0
 62
7
  6
CONTINUOUS
 10
366.1170157839
 20
31.8490495359
 11
365.8279530634
 21
31.8490495359
  0
LINE
  8
0
 62
7
  6
CONTINUOUS
 10
365.3654528428
 20
31.8490495359
 11
365.0763907839
 21
31.8490495359
  0
LINE
  8
0
 62
7
  6
CONTINUOUS
 10
363.8045156736
 20
31.8490495359
 11
363.4576406736
 21
31.8490495359
  0
LINE
  8
0
 62
7
  6
CONTINUOUS
 10
361.7232656736
 20
31.8490495359
 11
361.4920155634
 21
31.8490495359
  0
LINE
  8
0
 62
7
  6
CONTINUOUS
 10
365.0763907839
 20
32.1716864905
 11
365.3654528428
 21
32.1716864905
  0
LINE
  8
0
 62
7
  6
CONTINUOUS
 10
365.3654528428
 20
32.3330049227
 11
365.0763907839
 21
32.3330049227
  0
LINE
  8
0
 62
7
  6
CONTINUOUS
 10
360.9717030634
 20
32.3330049227
 11
360.6826405082
 21
32.3330049227
  0
LINE
  8
0
 62
7
  6
CONTINUOUS
 10
360.0094848257
 20
32.6198901686
 11
360.4220561743
 21
32.6198901686
  0
LINE
  8
0
 62
7
  6
CONTINUOUS
 10
361.648829088
 20
32.6198901686
 11
363.0422717109
 21
32.6198901686
  0
LINE
  8
0
 62
7
  6
CONTINUOUS
 10
363.3701405634
 20
32.6198901686
 11
364.7635831863
 21
32.6198901686
  0
LINE
  8
0
 62
7
  6
CONTINUOUS
 10
366.648829088
 20
32.6198901686
 11
368.0422717109
 21
32.6198901686
  0
LINE
  8
0
 62
7
  6
CONTINUOUS
 10
368.3701405634
 20
32.6198901686
 11
369.7635831863
 21
32.6198901686
  0
LINE
  8
0
 62
7
  6
CONTINUOUS
 10
366.4060778428
 20
31.8167858495
 11
366.2326403428
 21
31.7522584767
  0
LINE
  8
0
 62
7
  6
CONTINUOUS
 10
363.9779528428
 20
30.8488751693
 11
364.1513903428
 21
30.9134025506
  0
LINE
  8
0
 62
7
  6
CONTINUOUS
 10
369.4123282839
 20
30.8488751693
 11
369.6435780634
 21
30.9134025506
  0
LINE
  8
0
 62
7
  6
CONTINUOUS
 10
369.4123282839
 20
31.0101936212
 11
369.2967030634
 21
30.9779299347
  0
LINE
  8
0
 62
7
  6
CONTINUOUS
 10
368.3717032839
 20
31.6877311038
 11
368.6029530634
 21
31.7199947902
  0
LINE
  8
0
 62
7
  6
CONTINUOUS
 10
366.4060778428
 20
31.6877311038
 11
366.6373282839
 21
31.7199947902
  0
LINE
  8
0
 62
7
  6
CONTINUOUS
 10
363.3420154531
 20
31.332830508
 11
363.5732655634
 21
31.3650941944
  0
LINE
  8
0
 62
7
  6
CONTINUOUS
 10
366.6373282839
 20
31.8490495359
 11
366.4060778428
 21
31.8167858495
  0
LINE
  8
0
 62
7
  6
CONTINUOUS
 10
363.2263905634
 20
31.6877311038
 11
363.4576406736
 21
31.7199947902
  0
LINE
  8
0
 62
7
  6
CONTINUOUS
 10
368.6029530634
 20
31.8490495359
 11
368.2560780634
 21
31.8167858495
  0
LINE
  8
0
 62
7
  6
CONTINUOUS
 10
363.5732655634
 20
31.4941489853
 11
363.2263905634
 21
31.4618852989
  0
LINE
  8
0
 62
7
  6
CONTINUOUS
 10
359.3529530358
 20
31.8490495359
 11
359.0060780772
 21
31.8167858495
  0
LINE
  8
0
 62
7
  6
CONTINUOUS
 10
363.4576406736
 20
31.8490495359
 11
363.0529530634
 21
31.8167858495
  0
LINE
  8
0
 62
7
  6
CONTINUOUS
 10
360.8291569568
 20
33.7674311522
 11
360.1734192519
 21
33.7674311522
  0
LINE
  8
0
 62
7
  6
CONTINUOUS
 10
366.2326403428
 20
31.623203731
 11
366.4060778428
 21
31.6877311038
  0
LINE
  8
0
 62
7
  6
CONTINUOUS
 10
368.2560780634
 20
31.6554674174
 11
368.3717032839
 21
31.6877311038
  0
LINE
  8
0
 62
7
  6
CONTINUOUS
 10
368.2560780634
 20
31.8167858495
 11
368.0248282839
 21
31.7522584767
  0
LINE
  8
0
 62
7
  6
CONTINUOUS
 10
363.9779528428
 20
31.0101936212
 11
363.6888904531
 21
30.945666237
  0
LINE
  8
0
 62
7
  6
CONTINUOUS
 10
361.2607654531
 20
31.6877311038
 11
361.4920155634
 21
31.7199947902
  0
LINE
  8
0
 62
7
  6
CONTINUOUS
 10
361.4920155634
 20
31.8490495359
 11
361.2607654531
 21
31.8167858495
  0
LINE
  8
0
 62
7
  6
CONTINUOUS
 10
359.0638905634
 20
31.6877311038
 11
359.2951405909
 21
31.7199947902
  0
LINE
  8
0
 62
7
  6
CONTINUOUS
 10
365.5832553175
 20
35.2428409882
 11
366.2389930224
 21
35.2428409882
  0
LINE
  8
0
 62
7
  6
CONTINUOUS
 10
363.2263905634
 20
31.3005668216
 11
363.3420154531
 21
31.332830508
  0
LINE
  8
0
 62
7
  6
CONTINUOUS
 10
363.2263905634
 20
31.4618852989
 11
362.9951404531
 21
31.397357926
  0
LINE
  8
0
 62
7
  6
CONTINUOUS
 10
363.1107656736
 20
31.6554674174
 11
363.2263905634
 21
31.6877311038
  0
LINE
  8
0
 62
7
  6
CONTINUOUS
 10
359.7576405634
 20
30.8488751693
 11
359.9888905082
 21
30.9134025506
  0
LINE
  8
0
 62
7
  6
CONTINUOUS
 10
363.0529530634
 20
31.8167858495
 11
362.9373281736
 21
31.7845221631
  0
LINE
  8
0
 62
7
  6
CONTINUOUS
 10
359.0060780772
 20
31.8167858495
 11
358.8326405772
 21
31.7845221631
  0
LINE
  8
0
 62
7
  6
CONTINUOUS
 10
369.7635831863
 20
36.3903819718
 11
368.3701405634
 21
36.3903819718
  0
LINE
  8
0
 62
7
  6
CONTINUOUS
 10
366.4029274486
 20
36.3903819718
 11
365.9903561
 21
36.3903819718
  0
LINE
  8
0
 62
7
  6
CONTINUOUS
 10
364.7635831863
 20
36.3903819718
 11
363.3701405634
 21
36.3903819718
  0
LINE
  8
0
 62
7
  6
CONTINUOUS
 10
363.0422717109
 20
36.3903819718
 11
361.648829088
 21
36.3903819718
  0
LINE
  8
0
 62
7
  6
CONTINUOUS
 10
359.7635831863
 20
36.3903819718
 11
358.3701405634
 21
36.3903819718
  0
LINE
  8
0
 62
7
  6
CONTINUOUS
 10
358.9482655496
 20
31.6554674174
 11
359.0638905634
 21
31.6877311038
  0
CIRCLE
  8
0
 62
7
  6
CONTINUOUS
 10
369.0668618749
 20
38.7264475456
 40
2.0901639344
  0
ARC
  8
0
 62
7
  6
CONTINUOUS
 10
360.0094848257
 20
34.2592344308
 40
1.6393442623
 50
180.0
 51
270.0
  0
ARC
  8
0
 62
7
  6
CONTINUOUS
 10
366.4029274486
 20
34.7510377095
 40
1.6393442623
 50
0.0
 51
90.0
  0
ARC
  8
0
 62
7
  6
CONTINUOUS
 10
360.4220561743
 20
34.0953000046
 40
1.4754098361
 50
270.0
 51
326.2510114041
  0
ARC
  8
0
 62
7
  6
CONTINUOUS
 10
365.9903561
 20
34.9149721358
 40
1.4754098361
 50
90.0
 51
146.2510114041
  0
ARC
  8
0
 62
7
  6
CONTINUOUS
 10
360.8291569568
 20
34.5871032833
 40
0.8196721311
 50
270.0
 51
360.0
  0
ARC
  8
0
 62
7
  6
CONTINUOUS
 10
365.5832553175
 20
34.4231688571
 40
0.8196721311
 50
90.0
 51
180.0
  0
ARC
  8
0
 62
7
  6
CONTINUOUS
 10
360.1734192519
 20
34.1772672177
 40
0.4098360656
 50
180.0
 51
270.0
  0
ARC
  8
0
 62
7
  6
CONTINUOUS
 10
366.2389930224
 20
34.8330049227
 40
0.4098360656
 50
0.0
 51
90.0
  0
SOLID
  8
0
 62
7
  6
CONTINUOUS
 10
365.0763907839
 20
32.1716868508
 11
365.0763907839
 21
32.3330053344
 12
365.3654528428
 22
32.1716868508
 13
365.3654528428
 23
32.3330053344
  0
SOLID
  8
0
 62
7
  6
CONTINUOUS
 10
359.3529530358
 20
31.8490498836
 11
359.7576405634
 21
31.8167854792
 12
359.0060780772
 22
31.8167854792
 13
359.0060780772
 23
31.8167854792
  0
SOLID
  8
0
 62
7
  6
CONTINUOUS
 10
358.8326405772
 20
31.7845227934
 11
359.0060780772
 21
31.8167854792
 12
359.7576405634
 22
31.8167854792
 13
359.7576405634
 23
31.8167854792
  0
SOLID
  8
0
 62
7
  6
CONTINUOUS
 10
359.7576405634
 20
31.8167854792
 11
359.9888905082
 21
31.7522584901
 12
358.8326405772
 22
31.7845227934
 13
358.8326405772
 23
31.7845227934
  0
SOLID
  8
0
 62
7
  6
CONTINUOUS
 10
358.6592030565
 20
31.7199940664
 11
358.8326405772
 21
31.7845227934
 12
359.9888905082
 22
31.7522584901
 13
359.9888905082
 23
31.7522584901
  0
SOLID
  8
0
 62
7
  6
CONTINUOUS
 10
358.6592030565
 20
31.7199940664
 11
359.9888905082
 21
31.7522584901
 12
359.2951405909
 22
31.7199940664
 13
359.2951405909
 23
31.7199940664
  0
SOLID
  8
0
 62
7
  6
CONTINUOUS
 10
359.2951405909
 20
31.7199940664
 11
359.9888905082
 21
31.7522584901
 12
359.6998280358
 22
31.6877314
 13
359.6998280358
 23
31.6877314
  0
SOLID
  8
0
 62
7
  6
CONTINUOUS
 10
359.9888905082
 20
31.7522584901
 11
360.1623280082
 21
31.6554670967
 12
359.6998280358
 22
31.6877314
 13
359.6998280358
 23
31.6877314
  0
SOLID
  8
0
 62
7
  6
CONTINUOUS
 10
359.8732656185
 20
31.6232043098
 11
359.6998280358
 21
31.6877314
 12
360.1623280082
 22
31.6554670967
 13
360.1623280082
 23
31.6554670967
  0
SOLID
  8
0
 62
7
  6
CONTINUOUS
 10
359.8732656185
 20
31.6232043098
 11
360.1623280082
 21
31.6554670967
 12
359.9310780634
 22
31.5264128539
 13
359.9310780634
 23
31.5264128539
  0
SOLID
  8
0
 62
7
  6
CONTINUOUS
 10
360.1623280082
 20
31.6554670967
 11
360.2201406185
 21
31.5264128539
 12
359.9310780634
 22
31.5264128539
 13
359.9310780634
 23
31.5264128539
  0
SOLID
  8
0
 62
7
  6
CONTINUOUS
 10
361.2607654531
 20
31.8167852459
 11
361.4920155634
 21
31.8490495492
 12
361.7232656736
 22
31.8490495492
 13
361.7232656736
 23
31.8490495492
  0
SOLID
  8
0
 62
7
  6
CONTINUOUS
 10
361.7232656736
 20
31.8490495492
 11
361.8967031736
 21
31.8167852459
 12
361.2607654531
 22
31.8167852459
 13
361.2607654531
 23
31.8167852459
  0
SOLID
  8
0
 62
7
  6
CONTINUOUS
 10
361.0873281185
 20
31.7522581557
 11
361.2607654531
 21
31.8167852459
 12
361.8967031736
 22
31.8167852459
 13
361.8967031736
 23
31.8167852459
  0
SOLID
  8
0
 62
7
  6
CONTINUOUS
 10
361.8967031736
 20
31.8167852459
 11
362.0701406736
 21
31.7522581557
 12
361.0873281185
 22
31.7522581557
 13
361.0873281185
 23
31.7522581557
  0
SOLID
  8
0
 62
7
  6
CONTINUOUS
 10
362.0701406736
 20
31.7522581557
 11
361.4920155634
 21
31.7199941869
 12
361.0873281185
 22
31.7522581557
 13
361.0873281185
 23
31.7522581557
  0
SOLID
  8
0
 62
7
  6
CONTINUOUS
 10
360.9717030634
 20
31.6877310656
 11
361.0873281185
 21
31.7522581557
 12
361.4920155634
 22
31.7199941869
 13
361.4920155634
 23
31.7199941869
  0
SOLID
  8
0
 62
7
  6
CONTINUOUS
 10
361.4920155634
 20
31.7199941869
 11
361.2607654531
 21
31.6877310656
 12
360.9717030634
 22
31.6877310656
 13
360.9717030634
 23
31.6877310656
  0
SOLID
  8
0
 62
7
  6
CONTINUOUS
 10
361.4920155634
 20
31.7199941869
 11
362.0701406736
 21
31.7522581557
 12
361.7232656736
 22
31.6877310656
 13
361.7232656736
 23
31.6877310656
  0
SOLID
  8
0
 62
7
  6
CONTINUOUS
 10
362.0701406736
 20
31.7522581557
 11
362.1857655634
 21
31.6877310656
 12
361.7232656736
 22
31.6877310656
 13
361.7232656736
 23
31.6877310656
  0
SOLID
  8
0
 62
7
  6
CONTINUOUS
 10
361.8388905634
 20
31.6554670967
 11
361.7232656736
 21
31.6877310656
 12
362.1857655634
 22
31.6877310656
 13
362.1857655634
 23
31.6877310656
  0
SOLID
  8
0
 62
7
  6
CONTINUOUS
 10
362.1857655634
 20
31.6877310656
 11
362.2435781736
 21
31.6232039754
 12
361.8388905634
 22
31.6554670967
 13
361.8388905634
 23
31.6554670967
  0
SOLID
  8
0
 62
7
  6
CONTINUOUS
 10
361.9545154531
 20
31.5909400065
 11
361.8388905634
 21
31.6554670967
 12
362.2435781736
 22
31.6232039754
 13
362.2435781736
 23
31.6232039754
  0
SOLID
  8
0
 62
7
  6
CONTINUOUS
 10
361.9545154531
 20
31.5909400065
 11
362.2435781736
 21
31.6232039754
 12
362.0123280634
 22
31.4618854918
 13
362.0123280634
 23
31.4618854918
  0
SOLID
  8
0
 62
7
  6
CONTINUOUS
 10
362.2435781736
 20
31.6232039754
 11
362.3013904531
 21
31.4618854918
 12
362.0123280634
 22
31.4618854918
 13
362.0123280634
 23
31.4618854918
  0
SOLID
  8
0
 62
7
  6
CONTINUOUS
 10
361.2607654531
 20
31.6877310656
 11
361.0873281185
 21
31.6232039754
 12
360.9717030634
 22
31.6877310656
 13
360.9717030634
 23
31.6877310656
  0
SOLID
  8
0
 62
7
  6
CONTINUOUS
 10
361.0873281185
 20
31.6232039754
 11
360.9717030634
 21
31.5586757033
 12
360.9717030634
 22
31.6877310656
 13
360.9717030634
 23
31.6877310656
  0
SOLID
  8
0
 62
7
  6
CONTINUOUS
 10
360.9717030634
 20
31.5586757033
 11
360.6826405082
 21
30.8166115574
 12
360.9717030634
 22
31.6877310656
 13
360.9717030634
 23
31.6877310656
  0
SOLID
  8
0
 62
7
  6
CONTINUOUS
 10
360.9717030634
 20
31.6877310656
 11
360.6826405082
 21
30.8166115574
 12
360.9717030634
 22
32.333005
 13
360.9717030634
 23
32.333005
  0
SOLID
  8
0
 62
7
  6
CONTINUOUS
 10
360.6826405082
 20
30.8166115574
 11
360.6826405082
 21
32.333005
 12
360.9717030634
 22
32.333005
 13
360.9717030634
 23
32.333005
  0
SOLID
  8
0
 62
7
  6
CONTINUOUS
 10
360.9717030634
 20
31.5586757033
 11
360.9717030634
 21
30.8166115574
 12
360.6826405082
 22
30.8166115574
 13
360.6826405082
 23
30.8166115574
  0
SOLID
  8
0
 62
7
  6
CONTINUOUS
 10
362.0123280634
 20
30.8166115574
 11
362.0123280634
 21
31.4618854918
 12
362.3013904531
 22
31.4618854918
 13
362.3013904531
 23
31.4618854918
  0
SOLID
  8
0
 62
7
  6
CONTINUOUS
 10
362.3013904531
 20
31.4618854918
 11
362.3013904531
 21
30.8166115574
 12
362.0123280634
 22
30.8166115574
 13
362.0123280634
 23
30.8166115574
  0
SOLID
  8
0
 62
7
  6
CONTINUOUS
 10
363.0529530634
 20
31.8167856315
 11
363.4576406736
 21
31.8490496243
 12
363.8045156736
 22
31.8490496243
 13
363.8045156736
 23
31.8490496243
  0
SOLID
  8
0
 62
7
  6
CONTINUOUS
 10
363.8045156736
 20
31.8490496243
 11
364.1513903428
 21
31.8167856315
 12
363.0529530634
 22
31.8167856315
 13
363.0529530634
 23
31.8167856315
  0
SOLID
  8
0
 62
7
  6
CONTINUOUS
 10
362.9373281736
 20
31.7845227934
 11
363.0529530634
 21
31.8167856315
 12
364.1513903428
 22
31.8167856315
 13
364.1513903428
 23
31.8167856315
  0
SOLID
  8
0
 62
7
  6
CONTINUOUS
 10
364.1513903428
 20
31.8167856315
 11
364.3248278428
 21
31.7522584901
 12
362.9373281736
 22
31.7845227934
 13
362.9373281736
 23
31.7845227934
  0
SOLID
  8
0
 62
7
  6
CONTINUOUS
 10
362.8217029531
 20
31.7199944276
 11
362.9373281736
 21
31.7845227934
 12
364.3248278428
 22
31.7522584901
 13
364.3248278428
 23
31.7522584901
  0
SOLID
  8
0
 62
7
  6
CONTINUOUS
 10
362.8217029531
 20
31.7199944276
 11
364.3248278428
 21
31.7522584901
 12
363.4576406736
 22
31.7199944276
 13
363.4576406736
 23
31.7199944276
  0
SOLID
  8
0
 62
7
  6
CONTINUOUS
 10
363.4576406736
 20
31.7199944276
 11
364.3248278428
 21
31.7522584901
 12
363.8045156736
 22
31.7199944276
 13
363.8045156736
 23
31.7199944276
  0
SOLID
  8
0
 62
7
  6
CONTINUOUS
 10
363.8045156736
 20
31.7199944276
 11
364.3248278428
 21
31.7522584901
 12
364.0357657839
 22
31.6877312092
 13
364.0357657839
 23
31.6877312092
  0
SOLID
  8
0
 62
7
  6
CONTINUOUS
 10
364.3248278428
 20
31.7522584901
 11
364.4404530634
 21
31.6877312092
 12
364.0357657839
 22
31.6877312092
 13
364.0357657839
 23
31.6877312092
  0
SOLID
  8
0
 62
7
  6
CONTINUOUS
 10
362.7638906736
 20
31.6554672165
 11
362.8217029531
 21
31.7199944276
 12
363.4576406736
 22
31.7199944276
 13
363.4576406736
 23
31.7199944276
  0
SOLID
  8
0
 62
7
  6
CONTINUOUS
 10
364.1513903428
 20
31.6554672165
 11
364.0357657839
 21
31.6877312092
 12
364.4404530634
 22
31.6877312092
 13
364.4404530634
 23
31.6877312092
  0
SOLID
  8
0
 62
7
  6
CONTINUOUS
 10
364.1513903428
 20
31.6554672165
 11
364.4404530634
 21
31.6877312092
 12
364.2092032839
 22
31.5909400053
 13
364.2092032839
 23
31.5909400053
  0
SOLID
  8
0
 62
7
  6
CONTINUOUS
 10
364.4404530634
 20
31.6877312092
 11
364.4982653428
 21
31.5909400053
 12
364.2092032839
 22
31.5909400053
 13
364.2092032839
 23
31.5909400053
  0
SOLID
  8
0
 62
7
  6
CONTINUOUS
 10
364.2092032839
 20
31.4941486131
 11
364.2092032839
 21
31.5909400053
 12
364.4982653428
 22
31.5909400053
 13
364.4982653428
 23
31.5909400053
  0
SOLID
  8
0
 62
7
  6
CONTINUOUS
 10
364.2092032839
 20
31.4941486131
 11
364.4982653428
 21
31.5909400053
 12
364.2092032839
 22
31.3650944328
 13
364.2092032839
 23
31.3650944328
  0
SOLID
  8
0
 62
7
  6
CONTINUOUS
 10
364.2092032839
 20
31.3650944328
 11
364.4982653428
 21
31.5909400053
 12
364.2092032839
 22
31.1715120759
 13
364.2092032839
 23
31.1715120759
  0
SOLID
  8
0
 62
7
  6
CONTINUOUS
 10
364.4982653428
 20
31.5909400053
 11
364.4982653428
 21
31.0747202524
 12
364.2092032839
 22
31.1715120759
 13
364.2092032839
 23
31.1715120759
  0
SOLID
  8
0
 62
7
  6
CONTINUOUS
 10
366.4060778428
 20
31.8167851023
 11
366.6373282839
 21
31.849049822
 12
366.8685780634
 22
31.849049822
 13
366.8685780634
 23
31.849049822
  0
SOLID
  8
0
 62
7
  6
CONTINUOUS
 10
366.8685780634
 20
31.849049822
 11
367.0420155634
 21
31.8167851023
 12
366.4060778428
 22
31.8167851023
 13
366.4060778428
 23
31.8167851023
  0
SOLID
  8
0
 62
7
  6
CONTINUOUS
 10
366.2326403428
 20
31.7522587602
 11
366.4060778428
 21
31.8167851023
 12
367.0420155634
 22
31.8167851023
 13
367.0420155634
 23
31.8167851023
  0
SOLID
  8
0
 62
7
  6
CONTINUOUS
 10
367.0420155634
 20
31.8167851023
 11
367.2154530634
 21
31.7522587602
 12
366.2326403428
 22
31.7522587602
 13
366.2326403428
 23
31.7522587602
  0
SOLID
  8
0
 62
7
  6
CONTINUOUS
 10
367.2154530634
 20
31.7522587602
 11
366.6373282839
 21
31.7199941869
 12
366.2326403428
 22
31.7522587602
 13
366.2326403428
 23
31.7522587602
  0
SOLID
  8
0
 62
7
  6
CONTINUOUS
 10
366.1170157839
 20
31.6877313857
 11
366.2326403428
 21
31.7522587602
 12
366.6373282839
 22
31.7199941869
 13
366.6373282839
 23
31.7199941869
  0
SOLID
  8
0
 62
7
  6
CONTINUOUS
 10
366.6373282839
 20
31.7199941869
 11
366.4060778428
 21
31.6877313857
 12
366.1170157839
 22
31.6877313857
 13
366.1170157839
 23
31.6877313857
  0
SOLID
  8
0
 62
7
  6
CONTINUOUS
 10
366.6373282839
 20
31.7199941869
 11
367.2154530634
 21
31.7522587602
 12
366.8685780634
 22
31.6877313857
 13
366.8685780634
 23
31.6877313857
  0
SOLID
  8
0
 62
7
  6
CONTINUOUS
 10
367.2154530634
 20
31.7522587602
 11
367.3310782839
 21
31.6877313857
 12
366.8685780634
 22
31.6877313857
 13
366.8685780634
 23
31.6877313857
  0
SOLID
  8
0
 62
7
  6
CONTINUOUS
 10
366.9842032839
 20
31.6554670967
 11
366.8685780634
 21
31.6877313857
 12
367.3310782839
 22
31.6877313857
 13
367.3310782839
 23
31.6877313857
  0
SOLID
  8
0
 62
7
  6
CONTINUOUS
 10
366.9842032839
 20
31.6554670967
 11
367.3310782839
 21
31.6877313857
 12
367.0998278428
 22
31.590940324
 13
367.0998278428
 23
31.590940324
  0
SOLID
  8
0
 62
7
  6
CONTINUOUS
 10
367.3310782839
 20
31.6877313857
 11
367.3888905634
 21
31.590940324
 12
367.0998278428
 22
31.590940324
 13
367.0998278428
 23
31.590940324
  0
SOLID
  8
0
 62
7
  6
CONTINUOUS
 10
367.1576407839
 20
31.4296218878
 11
367.0998278428
 21
31.590940324
 12
367.3888905634
 22
31.590940324
 13
367.3888905634
 23
31.590940324
  0
SOLID
  8
0
 62
7
  6
CONTINUOUS
 10
367.3888905634
 20
31.590940324
 11
367.4467028428
 21
31.4296218878
 12
367.1576407839
 22
31.4296218878
 13
367.1576407839
 23
31.4296218878
  0
SOLID
  8
0
 62
7
  6
CONTINUOUS
 10
366.4060778428
 20
31.6877313857
 11
366.2326403428
 21
31.6232043098
 12
366.1170157839
 22
31.6877313857
 13
366.1170157839
 23
31.6877313857
  0
SOLID
  8
0
 62
7
  6
CONTINUOUS
 10
366.2326403428
 20
31.6232043098
 11
366.1170157839
 21
31.5586757033
 12
366.1170157839
 22
31.6877313857
 13
366.1170157839
 23
31.6877313857
  0
SOLID
  8
0
 62
7
  6
CONTINUOUS
 10
366.1170157839
 20
31.5586757033
 11
365.8279530634
 21
30.8166118302
 12
366.1170157839
 22
31.6877313857
 13
366.1170157839
 23
31.6877313857
  0
SOLID
  8
0
 62
7
  6
CONTINUOUS
 10
366.1170157839
 20
31.6877313857
 11
365.8279530634
 21
30.8166118302
 12
366.1170157839
 22
31.849049822
 13
366.1170157839
 23
31.849049822
  0
SOLID
  8
0
 62
7
  6
CONTINUOUS
 10
365.8279530634
 20
30.8166118302
 11
365.8279530634
 21
31.849049822
 12
366.1170157839
 22
31.849049822
 13
366.1170157839
 23
31.849049822
  0
SOLID
  8
0
 62
7
  6
CONTINUOUS
 10
366.1170157839
 20
31.5586757033
 11
366.1170157839
 21
30.8166118302
 12
365.8279530634
 22
30.8166118302
 13
365.8279530634
 23
30.8166118302
  0
SOLID
  8
0
 62
7
  6
CONTINUOUS
 10
367.1576407839
 20
30.8166118302
 11
367.1576407839
 21
31.4296218878
 12
367.4467028428
 22
31.4296218878
 13
367.4467028428
 23
31.4296218878
  0
SOLID
  8
0
 62
7
  6
CONTINUOUS
 10
367.4467028428
 20
31.4296218878
 11
367.4467028428
 21
30.8166118302
 12
367.1576407839
 22
30.8166118302
 13
367.1576407839
 23
30.8166118302
  0
SOLID
  8
0
 62
7
  6
CONTINUOUS
 10
368.2560780634
 20
31.8167856056
 11
368.6029530634
 21
31.8490498552
 12
368.9498280634
 22
31.8490498552
 13
368.9498280634
 23
31.8490498552
  0
SOLID
  8
0
 62
7
  6
CONTINUOUS
 10
368.9498280634
 20
31.8490498552
 11
369.2967030634
 21
31.8167856056
 12
368.2560780634
 22
31.8167856056
 13
368.2560780634
 23
31.8167856056
  0
SOLID
  8
0
 62
7
  6
CONTINUOUS
 10
368.0248282839
 20
31.7522584901
 11
368.2560780634
 21
31.8167856056
 12
369.2967030634
 22
31.8167856056
 13
369.2967030634
 23
31.8167856056
  0
SOLID
  8
0
 62
7
  6
CONTINUOUS
 10
368.0248282839
 20
31.7522584901
 11
369.2967030634
 21
31.8167855803
 12
369.4701405634
 22
31.7845227934
 13
369.4701405634
 23
31.7845227934
  0
SOLID
  8
0
 62
7
  6
CONTINUOUS
 10
368.0248282839
 20
31.7522584901
 11
369.4701405634
 21
31.7845227934
 12
368.6029530634
 22
31.7199941235
 13
368.6029530634
 23
31.7199941235
  0
SOLID
  8
0
 62
7
  6
CONTINUOUS
 10
368.6029530634
 20
31.7199941235
 11
369.4701405634
 21
31.7845227934
 12
368.9498280634
 22
31.7199941235
 13
368.9498280634
 23
31.7199941235
  0
SOLID
  8
0
 62
7
  6
CONTINUOUS
 10
369.4701405634
 20
31.7845227934
 11
369.6435780634
 21
31.7199941235
 12
368.9498280634
 22
31.7199941235
 13
368.9498280634
 23
31.7199941235
  0
SOLID
  8
0
 62
7
  6
CONTINUOUS
 10
369.2967030634
 20
31.6877314
 11
368.9498280634
 21
31.7199941235
 12
369.6435780634
 22
31.7199941235
 13
369.6435780634
 23
31.7199941235
  0
SOLID
  8
0
 62
7
  6
CONTINUOUS
 10
367.9092030634
 20
31.6554671071
 11
368.0248282839
 21
31.7522584901
 12
368.6029530634
 22
31.7199941235
 13
368.6029530634
 23
31.7199941235
  0
SOLID
  8
0
 62
7
  6
CONTINUOUS
 10
369.2967030634
 20
31.6877314
 11
369.6435780634
 21
31.7199941235
 12
369.4123282839
 22
31.6554671071
 13
369.4123282839
 23
31.6554671071
  0
SOLID
  8
0
 62
7
  6
CONTINUOUS
 10
369.4123282839
 20
31.6554671071
 11
369.6435780634
 21
31.7199941235
 12
369.4701405634
 22
31.5909400907
 13
369.4701405634
 23
31.5909400907
  0
SOLID
  8
0
 62
7
  6
CONTINUOUS
 10
369.6435780634
 20
31.7199941235
 11
369.7592026223
 21
31.5909400907
 12
369.4701405634
 22
31.5909400907
 13
369.4701405634
 23
31.5909400907
  0
SOLID
  8
0
 62
7
  6
CONTINUOUS
 10
359.0638905634
 20
31.6877314
 11
358.5435780634
 21
31.6554670789
 12
359.2951405909
 22
31.7199941045
 13
359.2951405909
 23
31.7199941045
  0
SOLID
  8
0
 62
7
  6
CONTINUOUS
 10
358.5435780634
 20
31.6554670789
 11
358.6592030565
 21
31.7199941045
 12
359.2951405909
 22
31.7199941045
 13
359.2951405909
 23
31.7199941045
  0
SOLID
  8
0
 62
7
  6
CONTINUOUS
 10
359.0638905634
 20
31.6877314
 11
358.9482655496
 21
31.6554670789
 12
358.5435780634
 22
31.6554670789
 13
358.5435780634
 23
31.6554670789
  0
SOLID
  8
0
 62
7
  6
CONTINUOUS
 10
358.4279530651
 20
31.5264129164
 11
358.5435780634
 21
31.6554670789
 12
358.9482655496
 22
31.6554670789
 13
358.9482655496
 23
31.6554670789
  0
SOLID
  8
0
 62
7
  6
CONTINUOUS
 10
362.7638906736
 20
31.6554670789
 11
363.4576406736
 21
31.7199941869
 12
363.2263905634
 22
31.6877314
 13
363.2263905634
 23
31.6877314
  0
SOLID
  8
0
 62
7
  6
CONTINUOUS
 10
363.2263905634
 20
31.6877314
 11
363.1107656736
 21
31.6554670789
 12
362.7638906736
 22
31.6554670789
 13
362.7638906736
 23
31.6554670789
  0
SOLID
  8
0
 62
7
  6
CONTINUOUS
 10
362.7638906736
 20
31.5909399887
 11
362.7638906736
 21
31.6554670789
 12
363.1107656736
 22
31.6554670789
 13
363.1107656736
 23
31.6554670789
  0
SOLID
  8
0
 62
7
  6
CONTINUOUS
 10
363.1107656736
 20
31.6554670789
 11
363.0529530634
 21
31.5909399887
 12
362.7638906736
 22
31.5909399887
 13
362.7638906736
 23
31.5909399887
  0
SOLID
  8
0
 62
7
  6
CONTINUOUS
 10
367.9092030634
 20
31.6554670789
 11
368.6029530634
 21
31.7199941869
 12
368.3717032839
 22
31.6877314
 13
368.3717032839
 23
31.6877314
  0
SOLID
  8
0
 62
7
  6
CONTINUOUS
 10
368.3717032839
 20
31.6877314
 11
368.2560780634
 21
31.6554670789
 12
367.9092030634
 22
31.6554670789
 13
367.9092030634
 23
31.6554670789
  0
SOLID
  8
0
 62
7
  6
CONTINUOUS
 10
367.9092030634
 20
31.5909399887
 11
367.9092030634
 21
31.6554670789
 12
368.2560780634
 22
31.6554670789
 13
368.2560780634
 23
31.6554670789
  0
SOLID
  8
0
 62
7
  6
CONTINUOUS
 10
368.2560780634
 20
31.6554670789
 11
368.1982657839
 21
31.5909399887
 12
367.9092030634
 22
31.5909399887
 13
367.9092030634
 23
31.5909399887
  0
SOLID
  8
0
 62
7
  6
CONTINUOUS
 10
368.0248282839
 20
31.4618858262
 11
367.9092030634
 21
31.5909399887
 12
368.1982657839
 22
31.5909399887
 13
368.1982657839
 23
31.5909399887
  0
SOLID
  8
0
 62
7
  6
CONTINUOUS
 10
358.4279530651
 20
31.5264129164
 11
358.9482655496
 21
31.6554670967
 12
358.7748280496
 22
31.5586757033
 13
358.7748280496
 23
31.5586757033
  0
SOLID
  8
0
 62
7
  6
CONTINUOUS
 10
358.7748280496
 20
31.5586757033
 11
358.7170155634
 21
31.4941486131
 12
358.4279530651
 22
31.5264129164
 13
358.4279530651
 23
31.5264129164
  0
SOLID
  8
0
 62
7
  6
CONTINUOUS
 10
358.3701405634
 20
31.3328301295
 11
358.4279530651
 21
31.5264129164
 12
358.7170155634
 22
31.4941486131
 13
358.7170155634
 23
31.4941486131
  0
SOLID
  8
0
 62
7
  6
CONTINUOUS
 10
363.2263905634
 20
31.4618858262
 11
363.5732655634
 21
31.4941485791
 12
364.2092032839
 22
31.4941485791
 13
364.2092032839
 23
31.4941485791
  0
SOLID
  8
0
 62
7
  6
CONTINUOUS
 10
363.2263905634
 20
31.4618858262
 11
364.2092032839
 21
31.4941485791
 12
362.9951404531
 22
31.397357926
 13
362.9951404531
 23
31.397357926
  0
SOLID
  8
0
 62
7
  6
CONTINUOUS
 10
362.9951404531
 20
31.397357926
 11
364.2092032839
 21
31.4941485791
 12
363.5732655634
 22
31.3650943988
 13
363.5732655634
 23
31.3650943988
  0
SOLID
  8
0
 62
7
  6
CONTINUOUS
 10
364.2092032839
 20
31.4941485791
 11
364.2092032839
 21
31.3650943988
 12
363.5732655634
 22
31.3650943988
 13
363.5732655634
 23
31.3650943988
  0
SOLID
  8
0
 62
7
  6
CONTINUOUS
 10
368.0248282839
 20
31.4618859165
 11
368.1982657839
 21
31.5909400065
 12
368.2560780634
 22
31.5264129164
 13
368.2560780634
 23
31.5264129164
  0
SOLID
  8
0
 62
7
  6
CONTINUOUS
 10
368.2560780634
 20
31.5264129164
 11
368.4295155634
 21
31.4618859165
 12
368.0248282839
 22
31.4618859165
 13
368.0248282839
 23
31.4618859165
  0
SOLID
  8
0
 62
7
  6
CONTINUOUS
 10
368.2560780634
 20
31.3650944328
 11
368.0248282839
 21
31.4618859165
 12
368.4295155634
 22
31.4618859165
 13
368.4295155634
 23
31.4618859165
  0
SOLID
  8
0
 62
7
  6
CONTINUOUS
 10
368.4295155634
 20
31.4618859165
 11
369.4123282839
 21
31.3005673426
 12
368.2560780634
 22
31.3650944328
 13
368.2560780634
 23
31.3650944328
  0
SOLID
  8
0
 62
7
  6
CONTINUOUS
 10
369.2388907839
 20
31.2037760287
 11
368.2560780634
 21
31.3650944328
 12
369.4123282839
 22
31.3005673426
 13
369.4123282839
 23
31.3005673426
  0
SOLID
  8
0
 62
7
  6
CONTINUOUS
 10
369.4123282839
 20
31.3005673426
 11
369.6435780634
 21
31.2037760287
 12
369.2388907839
 22
31.2037760287
 13
369.2388907839
 23
31.2037760287
  0
SOLID
  8
0
 62
7
  6
CONTINUOUS
 10
369.4123282839
 20
31.139248859
 11
369.2388907839
 21
31.2037760287
 12
369.6435780634
 22
31.2037760287
 13
369.6435780634
 23
31.2037760287
  0
SOLID
  8
0
 62
7
  6
CONTINUOUS
 10
369.4123282839
 20
31.139248859
 11
369.6435780634
 21
31.2037760287
 12
369.4701405634
 22
31.0747203105
 13
369.4701405634
 23
31.0747203105
  0
SOLID
  8
0
 62
7
  6
CONTINUOUS
 10
369.6435780634
 20
31.2037760287
 11
369.7592026223
 21
31.0747203105
 12
369.4701405634
 22
31.0747203105
 13
369.4701405634
 23
31.0747203105
  0
SOLID
  8
0
 62
7
  6
CONTINUOUS
 10
369.4123282839
 20
31.0101932257
 11
369.4701405634
 21
31.0747203105
 12
369.7592026223
 22
31.0747203105
 13
369.7592026223
 23
31.0747203105
  0
SOLID
  8
0
 62
7
  6
CONTINUOUS
 10
369.7592026223
 20
31.0747203105
 11
369.7592026223
 21
31.0101932257
 12
369.4123282839
 22
31.0101932257
 13
369.4123282839
 23
31.0101932257
  0
SOLID
  8
0
 62
7
  6
CONTINUOUS
 10
369.2967030634
 20
30.9779303754
 11
369.4123282839
 21
31.0101932257
 12
369.7592026223
 22
31.0101932257
 13
369.7592026223
 23
31.0101932257
  0
SOLID
  8
0
 62
7
  6
CONTINUOUS
 10
369.2967030634
 20
30.9779303754
 11
369.7592026223
 21
31.0101932257
 12
369.0654532839
 22
30.9456661409
 13
369.0654532839
 23
30.9456661409
  0
SOLID
  8
0
 62
7
  6
CONTINUOUS
 10
369.7592026223
 20
31.0101932257
 11
369.6435780634
 21
30.9134032852
 12
369.0654532839
 22
30.9456661409
 13
369.0654532839
 23
30.9456661409
  0
SOLID
  8
0
 62
7
  6
CONTINUOUS
 10
369.6435780634
 20
30.9134032852
 11
368.1982657839
 21
30.8811389819
 12
369.0654532839
 22
30.9456661409
 13
369.0654532839
 23
30.9456661409
  0
SOLID
  8
0
 62
7
  6
CONTINUOUS
 10
369.0654532839
 20
30.9456661409
 11
368.1982657839
 21
30.8811389819
 12
368.7185782839
 22
30.9456661409
 13
368.7185782839
 23
30.9456661409
  0
SOLID
  8
0
 62
7
  6
CONTINUOUS
 10
368.1982657839
 20
30.8811389819
 11
368.0248282839
 21
30.9456661409
 12
368.7185782839
 22
30.9456661409
 13
368.7185782839
 23
30.9456661409
  0
SOLID
  8
0
 62
7
  6
CONTINUOUS
 10
368.1982657839
 20
30.8811389819
 11
369.6435780634
 21
30.9134032852
 12
368.3717032839
 22
30.8488743522
 13
368.3717032839
 23
30.8488743522
  0
SOLID
  8
0
 62
7
  6
CONTINUOUS
 10
369.6435780634
 20
30.9134032852
 11
369.4123282839
 21
30.8488743522
 12
368.3717032839
 22
30.8488743522
 13
368.3717032839
 23
30.8488743522
  0
SOLID
  8
0
 62
7
  6
CONTINUOUS
 10
368.7185782839
 20
30.8166119713
 11
368.3717032839
 21
30.8488743522
 12
369.4123282839
 22
30.8488743522
 13
369.4123282839
 23
30.8488743522
  0
SOLID
  8
0
 62
7
  6
CONTINUOUS
 10
369.4123282839
 20
30.8488743522
 11
369.0654532839
 21
30.8166119713
 12
368.7185782839
 22
30.8166119713
 13
368.7185782839
 23
30.8166119713
  0
SOLID
  8
0
 62
7
  6
CONTINUOUS
 10
358.3701405634
 20
31.3328301295
 11
358.7170155634
 21
31.4941486131
 12
358.6592030565
 22
31.3650944328
 13
358.6592030565
 23
31.3650944328
  0
SOLID
  8
0
 62
7
  6
CONTINUOUS
 10
358.6592030565
 20
31.3650944328
 11
358.6592030565
 21
31.2683031351
 12
358.3701405634
 22
31.3328301295
 13
358.3701405634
 23
31.3328301295
  0
SOLID
  8
0
 62
7
  6
CONTINUOUS
 10
358.4279530651
 20
31.139248859
 11
358.3701405634
 21
31.3328301295
 12
358.6592030565
 22
31.2683031351
 13
358.6592030565
 23
31.2683031351
  0
SOLID
  8
0
 62
7
  6
CONTINUOUS
 10
358.6592030565
 20
31.2683031351
 11
358.7748280496
 21
31.1069845557
 12
358.4279530651
 22
31.139248859
 13
358.4279530651
 23
31.139248859
  0
SOLID
  8
0
 62
7
  6
CONTINUOUS
 10
358.5435780634
 20
31.0101931569
 11
358.4279530651
 21
31.139248859
 12
358.7748280496
 22
31.1069845557
 13
358.7748280496
 23
31.1069845557
  0
SOLID
  8
0
 62
7
  6
CONTINUOUS
 10
358.7748280496
 20
31.1069845557
 11
358.9482655496
 21
31.0101931569
 12
358.5435780634
 22
31.0101931569
 13
358.5435780634
 23
31.0101931569
  0
SOLID
  8
0
 62
7
  6
CONTINUOUS
 10
358.6592030565
 20
30.9456659241
 11
358.5435780634
 21
31.0101931569
 12
358.9482655496
 22
31.0101931569
 13
358.9482655496
 23
31.0101931569
  0
SOLID
  8
0
 62
7
  6
CONTINUOUS
 10
358.9482655496
 20
31.0101931569
 11
359.2951405909
 21
30.9456659241
 12
358.6592030565
 22
30.9456659241
 13
358.6592030565
 23
30.9456659241
  0
SOLID
  8
0
 62
7
  6
CONTINUOUS
 10
358.8326405772
 20
30.8811389819
 11
358.6592030565
 21
30.9456659241
 12
359.2951405909
 22
30.9456659241
 13
359.2951405909
 23
30.9456659241
  0
SOLID
  8
0
 62
7
  6
CONTINUOUS
 10
362.8795155634
 20
31.3328301325
 11
362.9951404531
 21
31.397357926
 12
363.5732655634
 22
31.3650944328
 13
363.5732655634
 23
31.3650944328
  0
SOLID
  8
0
 62
7
  6
CONTINUOUS
 10
363.5732655634
 20
31.3650944328
 11
363.3420154531
 21
31.3328301325
 12
362.8795155634
 22
31.3328301325
 13
362.8795155634
 23
31.3328301325
  0
SOLID
  8
0
 62
7
  6
CONTINUOUS
 10
362.7638906736
 20
31.2037759492
 11
362.8795155634
 21
31.3328301325
 12
363.3420154531
 22
31.3328301325
 13
363.3420154531
 23
31.3328301325
  0
SOLID
  8
0
 62
7
  6
CONTINUOUS
 10
363.1107656736
 20
31.2360394487
 11
362.7638906736
 21
31.2037759492
 12
363.2263905634
 22
31.3005673426
 13
363.2263905634
 23
31.3005673426
  0
SOLID
  8
0
 62
7
  6
CONTINUOUS
 10
362.7638906736
 20
31.2037759492
 11
363.3420154531
 21
31.3328301295
 12
363.2263905634
 22
31.3005673426
 13
363.2263905634
 23
31.3005673426
  0
SOLID
  8
0
 62
7
  6
CONTINUOUS
 10
363.1107656736
 20
31.2360394487
 11
363.0529530634
 21
31.139248859
 12
362.7638906736
 22
31.2037759492
 13
362.7638906736
 23
31.2037759492
  0
SOLID
  8
0
 62
7
  6
CONTINUOUS
 10
362.7638906736
 20
31.1069845557
 11
362.7638906736
 21
31.2037759492
 12
363.0529530634
 22
31.139248859
 13
363.0529530634
 23
31.139248859
  0
SOLID
  8
0
 62
7
  6
CONTINUOUS
 10
363.0529530634
 20
31.139248859
 11
363.0529530634
 21
31.0747202524
 12
362.7638906736
 22
31.1069845557
 13
362.7638906736
 23
31.1069845557
  0
SOLID
  8
0
 62
7
  6
CONTINUOUS
 10
362.8217029531
 20
30.9779303754
 11
362.7638906736
 21
31.1069845557
 12
363.0529530634
 22
31.0747202524
 13
363.0529530634
 23
31.0747202524
  0
SOLID
  8
0
 62
7
  6
CONTINUOUS
 10
364.2092032839
 20
31.1715120759
 11
364.4982653428
 21
31.0747202524
 12
364.1513903428
 22
31.1069845557
 13
364.1513903428
 23
31.1069845557
  0
SOLID
  8
0
 62
7
  6
CONTINUOUS
 10
363.9779528428
 20
31.0101931623
 11
364.1513903428
 21
31.1069845557
 12
364.4982653428
 22
31.0747202524
 13
364.4982653428
 23
31.0747202524
  0
SOLID
  8
0
 62
7
  6
CONTINUOUS
 10
363.9779528428
 20
31.0101931623
 11
364.4982653428
 21
31.0747202524
 12
364.2092032839
 22
30.9779303754
 13
364.2092032839
 23
30.9779303754
  0
SOLID
  8
0
 62
7
  6
CONTINUOUS
 10
364.4982653428
 20
31.0747202524
 11
364.5560782839
 21
30.9134032852
 12
364.2092032839
 22
30.9779303754
 13
364.2092032839
 23
30.9779303754
  0
SOLID
  8
0
 62
7
  6
CONTINUOUS
 10
364.2670155634
 20
30.8811389819
 11
364.2092032839
 21
30.9779303754
 12
364.5560782839
 22
30.9134032852
 13
364.5560782839
 23
30.9134032852
  0
SOLID
  8
0
 62
7
  6
CONTINUOUS
 10
364.2670155634
 20
30.8811389819
 11
364.5560782839
 21
30.9134032852
 12
364.3248278428
 22
30.816611867
 13
364.3248278428
 23
30.816611867
  0
SOLID
  8
0
 62
7
  6
CONTINUOUS
 10
364.5560782839
 20
30.9134032852
 11
364.6138905634
 21
30.816611867
 12
364.3248278428
 22
30.816611867
 13
364.3248278428
 23
30.816611867
  0
SOLID
  8
0
 62
7
  6
CONTINUOUS
 10
359.8732656185
 20
31.0424573076
 11
359.9310780634
 21
31.1392488159
 12
360.2201406185
 22
31.1392488159
 13
360.2201406185
 23
31.1392488159
  0
SOLID
  8
0
 62
7
  6
CONTINUOUS
 10
360.2201406185
 20
31.1392488159
 11
360.1623280082
 21
31.0101931623
 12
359.8732656185
 22
31.0424573076
 13
359.8732656185
 23
31.0424573076
  0
SOLID
  8
0
 62
7
  6
CONTINUOUS
 10
359.6998280358
 20
30.9779303754
 11
359.8732656185
 21
31.0424573076
 12
360.1623280082
 22
31.0101931623
 13
360.1623280082
 23
31.0101931623
  0
SOLID
  8
0
 62
7
  6
CONTINUOUS
 10
359.6998280358
 20
30.9779303754
 11
360.1623280082
 21
31.0101931623
 12
359.2951405909
 22
30.9456660721
 13
359.2951405909
 23
30.9456660721
  0
SOLID
  8
0
 62
7
  6
CONTINUOUS
 10
360.1623280082
 20
31.0101931623
 11
359.9888905082
 21
30.9134032852
 12
359.2951405909
 22
30.9456660721
 13
359.2951405909
 23
30.9456660721
  0
SOLID
  8
0
 62
7
  6
CONTINUOUS
 10
358.8326405772
 20
30.8811389819
 11
359.2951405909
 21
30.9456660721
 12
359.9888905082
 22
30.9134032852
 13
359.9888905082
 23
30.9134032852
  0
SOLID
  8
0
 62
7
  6
CONTINUOUS
 10
358.8326405772
 20
30.8811389819
 11
359.9888905082
 21
30.9134032852
 12
359.0060780772
 22
30.8488745775
 13
359.0060780772
 23
30.8488745775
  0
SOLID
  8
0
 62
7
  6
CONTINUOUS
 10
359.9888905082
 20
30.9134032852
 11
359.7576405634
 21
30.8488745775
 12
359.0060780772
 22
30.8488745775
 13
359.0060780772
 23
30.8488745775
  0
SOLID
  8
0
 62
7
  6
CONTINUOUS
 10
359.3529530358
 20
30.8166118918
 11
359.0060780772
 21
30.8488745775
 12
359.7576405634
 22
30.8488745775
 13
359.7576405634
 23
30.8488745775
  0
SOLID
  8
0
 62
7
  6
CONTINUOUS
 10
362.8217029531
 20
30.9779303754
 11
363.0529530634
 21
31.0747202524
 12
363.1107656736
 22
31.0101931623
 13
363.1107656736
 23
31.0101931623
  0
SOLID
  8
0
 62
7
  6
CONTINUOUS
 10
363.1107656736
 20
31.0101931623
 11
363.3420154531
 21
30.9456660721
 12
362.8217029531
 22
30.9779303754
 13
362.8217029531
 23
30.9779303754
  0
SOLID
  8
0
 62
7
  6
CONTINUOUS
 10
362.9951404531
 20
30.8811389819
 11
362.8217029531
 21
30.9779303754
 12
363.3420154531
 22
30.9456660721
 13
363.3420154531
 23
30.9456660721
  0
SOLID
  8
0
 62
7
  6
CONTINUOUS
 10
363.6888904531
 20
30.9456661188
 11
363.9779528428
 21
31.0101931623
 12
364.2092032839
 22
30.9779303754
 13
364.2092032839
 23
30.9779303754
  0
SOLID
  8
0
 62
7
  6
CONTINUOUS
 10
364.2092032839
 20
30.9779303754
 11
364.1513903428
 21
30.9134032852
 12
363.6888904531
 22
30.9456661188
 13
363.6888904531
 23
30.9456661188
  0
SOLID
  8
0
 62
7
  6
CONTINUOUS
 10
364.1513903428
 20
30.9134032852
 11
362.9951404531
 21
30.8811389819
 12
363.6888904531
 22
30.9456661188
 13
363.6888904531
 23
30.9456661188
  0
SOLID
  8
0
 62
7
  6
CONTINUOUS
 10
362.9951404531
 20
30.8811389819
 11
363.3420154531
 21
30.9456661188
 12
363.6888904531
 22
30.9456661188
 13
363.6888904531
 23
30.9456661188
  0
SOLID
  8
0
 62
7
  6
CONTINUOUS
 10
362.9951404531
 20
30.8811389819
 11
364.1513903428
 21
30.9134032852
 12
363.1107656736
 22
30.8488747093
 13
363.1107656736
 23
30.8488747093
  0
SOLID
  8
0
 62
7
  6
CONTINUOUS
 10
364.1513903428
 20
30.9134032852
 11
363.9779528428
 21
30.8488747093
 12
363.1107656736
 22
30.8488747093
 13
363.1107656736
 23
30.8488747093
  0
SOLID
  8
0
 62
7
  6
CONTINUOUS
 10
363.3420154531
 20
30.816611874
 11
363.1107656736
 21
30.8488747093
 12
363.9779528428
 22
30.8488747093
 13
363.9779528428
 23
30.8488747093
  0
SOLID
  8
0
 62
7
  6
CONTINUOUS
 10
363.9779528428
 20
30.8488747093
 11
363.6888904531
 21
30.816611874
 12
363.3420154531
 22
30.816611874
 13
363.3420154531
 23
30.816611874
  0
SOLID
  8
0
 62
7
  6
CONTINUOUS
 10
368.3717032839
 20
30.9779303754
 11
368.0248282839
 21
30.9456661188
 12
368.2560780634
 22
31.0101931623
 13
368.2560780634
 23
31.0101931623
  0
SOLID
  8
0
 62
7
  6
CONTINUOUS
 10
368.2560780634
 20
31.0101931623
 11
368.0248282839
 21
30.9456661188
 12
368.1982657839
 22
31.0747202992
 13
368.1982657839
 23
31.0747202992
  0
SOLID
  8
0
 62
7
  6
CONTINUOUS
 10
368.0248282839
 20
30.9456661188
 11
367.9092030634
 21
31.0747202992
 12
368.1982657839
 22
31.0747202992
 13
368.1982657839
 23
31.0747202992
  0
SOLID
  8
0
 62
7
  6
CONTINUOUS
 10
368.3717032839
 20
30.9779303754
 11
368.7185782839
 21
30.9456661188
 12
368.0248282839
 22
30.9456661188
 13
368.0248282839
 23
30.9456661188
  0
SOLID
  8
0
 62
7
  6
CONTINUOUS
 10
365.0763907839
 20
30.8166118918
 11
365.0763907839
 21
31.8490498836
 12
365.3654528428
 22
30.8166118918
 13
365.3654528428
 23
31.8490498836
  0
ENDBLK
  8
0
  6
BYBLOCK
 62
0
  0
BLOCK
  8
0
 62
2
  6
CONTINUOUS
  2
AMMEAAL_LOGO_BL0
 70
64
 10
241.0379982417
 20
19.661173918
  0
TEXT
  8
0
 62
7
  6
CONTINUOUS
 10
227.3106676351
 20
19.0524287129
  7
TEXTSTYLE_3
 40
2.7338706658
  1
Ammeraal Beltech
 41
1.0
 51
15.0
 72
0
  0
TEXT
  8
0
 62
7
  6
CONTINUOUS
 10
238.1114684608
 20
16.7788920401
  7
TEXTSTYLE_4
 40
1.0935482663
  1
Innovation & Service in Belting
 41
1.0
 72
0
  0
LINE
  8
0
 62
7
  6
CONTINUOUS
 10
221.2861269837
 20
19.8190220215
 11
222.0642789771
 21
23.4799393191
  0
LINE
  8
0
 62
7
  6
CONTINUOUS
 10
232.1594472669
 20
27.1433332308
 11
222.5520967201
 21
24.0217158095
  0
LINE
  8
0
 62
7
  6
CONTINUOUS
 10
221.511410316
 20
19.1256712184
 11
229.0184855772
 21
12.3662702925
  0
LINE
  8
0
 62
7
  6
CONTINUOUS
 10
221.7739447268
 20
20.3607985118
 11
232.5822140919
 21
23.8726181108
  0
LINE
  8
0
 62
7
  6
CONTINUOUS
 10
232.5780089548
 20
13.522829547
 11
224.132549286
 21
21.1271555887
  0
LINE
  8
0
 62
7
  6
CONTINUOUS
 10
233.0978316746
 20
26.298408115
 11
232.1212721373
 21
21.7040567125
  0
LINE
  8
0
 62
7
  6
CONTINUOUS
 10
231.4214701896
 20
18.4117473987
 11
230.7350219782
 21
15.1822624744
  0
LINE
  8
0
 62
7
  6
CONTINUOUS
 10
233.7789277731
 20
13.9130317247
 11
234.7351593087
 21
18.4117473987
  0
LINE
  8
0
 62
7
  6
CONTINUOUS
 10
235.4349612564
 20
21.7040567125
 11
235.8792030588
 21
23.7940500719
  0
LINE
  8
0
 62
7
  6
CONTINUOUS
 10
229.7315866525
 20
12.2146959798
 11
233.2911100301
 21
13.3712552343
  0
LINE
  8
0
 62
7
  6
CONTINUOUS
 10
232.8725483422
 20
26.9917589181
 11
235.6539197265
 21
24.487400875
  0
ARC
  8
0
 62
7
  6
CONTINUOUS
 10
222.7773800524
 20
23.3283650064
 40
0.7290321776
 50
108.0
 51
168.0
  0
ARC
  8
0
 62
7
  6
CONTINUOUS
 10
232.3847305992
 20
26.4499824277
 40
0.7290321776
 50
348.0
 51
108.0
  0
ARC
  8
0
 62
7
  6
CONTINUOUS
 10
235.1661019835
 20
23.9456243846
 40
0.7290321776
 50
348.0
 51
48.0
  0
ARC
  8
0
 62
7
  6
CONTINUOUS
 10
229.5063033202
 20
12.9080467828
 40
0.7290321776
 50
228.0
 51
288.0
  0
ARC
  8
0
 62
7
  6
CONTINUOUS
 10
221.9992280591
 20
19.6674477088
 40
0.7290321776
 50
108.0
 51
228.0
  0
ARC
  8
0
 62
7
  6
CONTINUOUS
 10
233.0658266978
 20
14.0646060374
 40
0.7290321776
 50
228.0
 51
348.0
  0
ENDBLK
  8
0
  6
BYBLOCK
 62
0
  0
ENDSEC
  0
SECTION
  2
ENTITIES
  0
TEXT
  8
0
 62
5
  6
CONTINUOUS
 10
304.937007874
 20
25.636
  7
TEXTSTYLE_2
 40
2.8
  1
Scale :
 41
0.6
 51
0.000019
 72
0
  0
TEXT
  8
0
 62
5
  6
CONTINUOUS
 10
324.937007874
 20
25.636
  7
TEXTSTYLE_2
 40
2.8
  1
Chain type:
 41
0.6
 51
0.000019
 72
0
  0
INSERT
  8
0
 62
2
  6
CONTINUOUS
  2
AMMEAAL_LOGO_BL0
 10
241.0379982417
 20
19.661173918
  0
INSERT
  8
0
 62
2
  6
CONTINUOUS
  2
UNI_LOGO2_BL1
 10
382.3920721743
 20
35.7654615278
  0
LINE
  8
0
 62
2
  6
CONTINUOUS
 10
218.937007874
 20
30.0
 11
408.937007874
 21
30.0
  0
LINE
  8
0
 62
2
  6
CONTINUOUS
 10
218.937007874
 20
30.0
 11
218.937007874
 21
10.0
  0
LINE
  8
0
 62
2
  6
CONTINUOUS
 10
218.937007874
 20
10.0
 11
408.937007874
 21
10.0
  0
LINE
  8
0
 62
2
  6
CONTINUOUS
 10
303.937007874
 20
30.0
 11
303.937007874
 21
10.0
  0
LINE
  8
0
 62
2
  6
CONTINUOUS
 10
323.937007874
 20
30.0
 11
323.937007874
 21
10.0
  0
LINE
  8
0
 62
2
  6
CONTINUOUS
 10
408.937007874
 20
30.0
 11
408.937007874
 21
10.0
  0
TEXT
  8
0
 62
5
  6
CONTINUOUS
 10
221.937007874
 20
23.303
  7
TEXTSTYLE_5
 40
1.52
  1
                                                                     Ammeraal Beltech Modular A/S
 41
1.0
 72
0
  0
TEXT
  8
0
 62
5
  6
CONTINUOUS
 10
221.937007874
 20
20.595
  7
TEXTSTYLE_5
 40
1.5
  1
                                                                      Hjulmagervej 21, 7100 Vejle,  DK
 41
1.0
 72
0
  0
TEXT
  8
0
 62
5
  6
CONTINUOUS
 10
221.937007874
 20
17.881
  7
TEXTSTYLE_5
 40
1.495
  1
                                                                      tel: 
 41
1.0
 72
0
  0
TEXT
  8
0
 62
5
  6
CONTINUOUS
 10
266.9239544389
 20
17.881
  7
TEXTSTYLE_5
 40
1.51
  1
+45 75723100     fax: +45 75723348
 41
1.0
 72
0
  0
TEXT
  8
0
 62
5
  6
CONTINUOUS
 10
221.937007874
 20
15.177
  7
TEXTSTYLE_5
 40
1.5
  1
                                                                      admin@unichains.dk  www.unichains.com
 41
1.0
 72
0
  0
TEXT
  8
0
 62
5
  6
CONTINUOUS
 10
308.687007874
 20
13.75
  7
TEXTSTYLE_6
 40
5.0
  1
1:1
 41
0.7
 72
1
 11
313.937007874
 21
13.75
  0
TEXT
  8
0
 62
5
  6
CONTINUOUS
 10
326.937007874
 20
13.75
  7
TEXTSTYLE_7
 40
7.5
  1
2600 TAB O
 41
0.7633333333
 72
0
  0
LINE
  8
0
 62
7
  6
CONTINUOUS
 10
0.0
 20
0.0
 11
0.0
 21
297.0
  0
LINE
  8
0
 62
7
  6
CONTINUOUS
 10
8.937007874
 20
10.0
 11
8.937007874
 21
287.0
  0
LINE
  8
0
 62
7
  6
CONTINUOUS
 10
0.0
 20
0.0
 11
420.0
 21
0.0
  0
LINE
  8
0
 62
7
  6
CONTINUOUS
 10
408.937007874
 20
10.0
 11
8.937007874
 21
10.0
  0
LINE
  8
0
 62
7
  6
CONTINUOUS
 10
218.937007874
 20
30.0
 11
408.937007874
 21
30.0
  0
LINE
  8
0
 62
7
  6
CONTINUOUS
 10
210.0
 20
297.0
 11
210.0
 21
292.0
  0
LINE
  8
0
 62
7
  6
CONTINUOUS
 10
210.0
 20
0.0
 11
210.0
 21
5.0
  0
LINE
  8
0
 62
7
  6
CONTINUOUS
 10
8.937007874
 20
287.0
 11
408.937007874
 21
287.0
  0
LINE
  8
0
 62
7
  6
CONTINUOUS
 10
0.0
 20
297.0
 11
420.0
 21
297.0
  0
LINE
  8
0
 62
7
  6
CONTINUOUS
 10
408.937007874
 20
287.0
 11
408.937007874
 21
10.0
  0
LINE
  8
0
 62
7
  6
CONTINUOUS
 10
420.0
 20
0.0
 11
420.0
 21
297.0
  0
LINE
  8
0
 62
7
  6
CONTINUOUS
 10
109.7249150632
 20
133.778153094
 11
109.7249150632
 21
119.5323286068
  0
LINE
  8
DEFAULT_1
 62
2
  6
CENTER
 10
123.9249150632
 20
131.9052408504
 11
123.9249150632
 21
128.6553408504
  0
LINE
  8
0
 62
2
  6
CONTINUOUS
 10
123.9249150632
 20
127.7052408504
 11
123.9249150632
 21
125.6052408504
  0
LINE
  8
AXES
 62
9
  6
CONTINUOUS
 10
123.9249150632
 20
121.6552408504
 11
123.9249150632
 21
117.9729648237
  0
LINE
  8
DEFAULT_1
 62
2
  6
CENTER
 10
123.9249150632
 20
121.4052408504
 11
123.9249150632
 21
124.6551408504
  0
LINE
  8
0
 62
9
  6
CONTINUOUS
 10
123.9249150632
 20
131.9052408504
 11
123.9249150632
 21
135.337516877
  0
LINE
  8
AXES
 62
9
  6
CONTINUOUS
 10
123.9249150632
 20
117.9729648237
 11
123.7421110481
 21
116.4841455963
  0
LINE
  8
0
 62
9
  6
CONTINUOUS
 10
123.9249150632
 20
135.337516877
 11
123.7421110481
 21
136.8263361045
  0
LINE
  8
AXES
 62
9
  6
CONTINUOUS
 10
154.8912136083
 20
100.9552408504
 11
153.5961605008
 21
100.8419383848
  0
LINE
  8
0
 62
7
  6
CONTINUOUS
 10
167.1124152421
 20
99.5552408504
 11
163.6436650632
 21
99.5552408504
  0
LINE
  8
0
 62
7
  6
CONTINUOUS
 10
162.8936649738
 20
99.5552408504
 11
159.4249150632
 21
99.5552408504
  0
LINE
  8
AXES
 62
7
  6
CONTINUOUS
 10
169.1587525559
 20
99.6552408504
 11
154.8912136083
 21
99.6552408504
  0
LINE
  8
AXES
 62
9
  6
CONTINUOUS
 10
169.1587525559
 20
100.9552408504
 11
154.8912136083
 21
100.9552408504
  0
LINE
  8
AXES
 62
9
  6
CONTINUOUS
 10
132.2765616075
 20
120.6552408504
 11
132.2765616077
 21
119.1552408504
  0
LINE
  8
2_FEATURE
 62
9
  6
CONTINUOUS
 10
132.2765616075
 20
132.6552408504
 11
132.2765616077
 21
134.1552408504
  0
POLYLINE
  8
AXES
 62
7
  6
CONTINUOUS
 66
1
 70
0
  0
VERTEX
  8
AXES
 62
7
  6
CONTINUOUS
 10
171.1303486709
 20
105.6548216049
  0
VERTEX
  8
AXES
 62
7
  6
CONTINUOUS
 10
170.7880752939
 20
105.6474498267
  0
VERTEX
  8
AXES
 62
7
  6
CONTINUOUS
 10
170.4876435552
 20
105.628328869
  0
VERTEX
  8
AXES
 62
7
  6
CONTINUOUS
 10
170.2382354218
 20
105.6018095186
  0
VERTEX
  8
AXES
 62
7
  6
CONTINUOUS
 10
170.0345957124
 20
105.5703784618
  0
VERTEX
  8
AXES
 62
7
  6
CONTINUOUS
 10
169.8709014164
 20
105.5354676762
  0
VERTEX
  8
AXES
 62
7
  6
CONTINUOUS
 10
169.7426293208
 20
105.4981881087
  0
VERTEX
  8
AXES
 62
7
  6
CONTINUOUS
 10
169.6493300222
 20
105.4591583094
  0
VERTEX
  8
AXES
 62
7
  6
CONTINUOUS
 10
169.5868716745
 20
105.4192369762
  0
VERTEX
  8
AXES
 62
7
  6
CONTINUOUS
 10
169.5559028985
 20
105.3813875732
  0
SEQEND
  0
LINE
  8
AXES
 62
9
  6
CONTINUOUS
 10
169.5437026754
 20
105.3552408504
 11
155.3408891047
 21
105.3552408504
  0
LINE
  8
AXES
 62
7
  6
CONTINUOUS
 10
200.8749048425
 20
105.6552408504
 11
155.3408891047
 21
105.6552408504
  0
LINE
  8
AXES
 62
9
  6
CONTINUOUS
 10
169.1587525559
 20
100.9552408504
 11
170.4538056634
 21
100.8419383848
  0
LINE
  8
2_FEATURE
 62
7
  6
CONTINUOUS
 10
138.1249150632
 20
121.6552408504
 11
138.1249150632
 21
131.6552408504
  0
LINE
  8
0
 62
7
  6
CONTINUOUS
 10
154.1672101977
 20
147.3626098325
 11
137.9460267222
 21
138.7376535859
  0
LINE
  8
0
 62
9
  6
CONTINUOUS
 10
154.8714175419
 20
146.0381884432
 11
138.6502340664
 21
137.4132321966
  0
LINE
  8
AXES
 62
9
  6
CONTINUOUS
 10
154.4948121904
 20
105.4861297895
 11
153.1997590829
 21
105.3728273241
  0
LINE
  8
AXES
 62
9
  6
CONTINUOUS
 10
202.3749150632
 20
107.1552408504
 11
155.3408891047
 21
107.1552408504
  0
POLYLINE
  8
AXES
 62
9
  6
CONTINUOUS
 66
1
 70
0
  0
VERTEX
  8
AXES
 62
9
  6
CONTINUOUS
 10
169.5559028985
 20
105.3813875708
  0
VERTEX
  8
AXES
 62
9
  6
CONTINUOUS
 10
169.7393281708
 20
105.3666039512
  0
VERTEX
  8
AXES
 62
9
  6
CONTINUOUS
 10
170.0914611574
 20
105.3450298431
  0
VERTEX
  8
AXES
 62
9
  6
CONTINUOUS
 10
170.4006221727
 20
105.3354640861
  0
VERTEX
  8
AXES
 62
9
  6
CONTINUOUS
 10
170.531144463
 20
105.3354640878
  0
VERTEX
  8
AXES
 62
9
  6
CONTINUOUS
 10
170.7309683432
 20
105.3450298528
  0
VERTEX
  8
AXES
 62
9
  6
CONTINUOUS
 10
170.8365076998
 20
105.3666039642
  0
VERTEX
  8
AXES
 62
9
  6
CONTINUOUS
 10
170.850955805
 20
105.3813875908
  0
SEQEND
  0
LINE
  8
AXES
 62
9
  6
CONTINUOUS
 10
169.5437026754
 20
105.3552408504
 11
170.8387557829
 21
105.2419383848
  0
POLYLINE
  8
AXES
 62
9
  6
CONTINUOUS
 66
1
 70
0
  0
VERTEX
  8
AXES
 62
9
  6
CONTINUOUS
 10
154.0990186217
 20
105.8196221665
  0
VERTEX
  8
AXES
 62
9
  6
CONTINUOUS
 10
153.7573592291
 20
105.8592154289
  0
VERTEX
  8
AXES
 62
9
  6
CONTINUOUS
 10
153.4689515178
 20
105.9436253097
  0
VERTEX
  8
AXES
 62
9
  6
CONTINUOUS
 10
153.3522517055
 20
106.0006254257
  0
VERTEX
  8
AXES
 62
9
  6
CONTINUOUS
 10
153.1857052901
 20
106.1384304524
  0
VERTEX
  8
AXES
 62
9
  6
CONTINUOUS
 10
153.1187817137
 20
106.2984028632
  0
SEQEND
  0
POLYLINE
  8
AXES
 62
9
  6
CONTINUOUS
 66
1
 70
0
  0
VERTEX
  8
AXES
 62
9
  6
CONTINUOUS
 10
154.0766446978
 20
105.8413098678
  0
VERTEX
  8
AXES
 62
9
  6
CONTINUOUS
 10
153.7409696973
 20
105.8870586509
  0
VERTEX
  8
AXES
 62
9
  6
CONTINUOUS
 10
153.4581222424
 20
105.9786240098
  0
VERTEX
  8
AXES
 62
9
  6
CONTINUOUS
 10
153.3437125249
 20
106.0394527086
  0
VERTEX
  8
AXES
 62
9
  6
CONTINUOUS
 10
153.18024078
 20
106.1851832878
  0
SEQEND
  0
LINE
  8
AXES
 62
7
  6
CONTINUOUS
 10
154.1672101977
 20
105.9478718682
 11
137.9460267222
 21
114.5728281149
  0
LINE
  8
AXES
 62
9
  6
CONTINUOUS
 10
154.8714175419
 20
107.2722932575
 11
138.6502340664
 21
115.8972495042
  0
LINE
  8
AXES
 62
9
  6
CONTINUOUS
 10
137.2598251889
 20
116.3356437393
 11
137.0770211738
 21
114.8468245118
  0
LINE
  8
2_FEATURE
 62
9
  6
CONTINUOUS
 10
154.0990186216
 20
147.4908595344
 11
154.0766438992
 21
147.4691733348
  0
LINE
  8
2_FEATURE
 62
9
  6
CONTINUOUS
 10
154.4948121904
 20
147.8243519112
 11
154.3646433481
 21
147.7118562749
  0
LINE
  8
2_FEATURE
 62
9
  6
CONTINUOUS
 10
154.3646433481
 20
147.7118562749
 11
154.0990186216
 21
147.4908595344
  0
POLYLINE
  8
2_FEATURE
 62
9
  6
CONTINUOUS
 66
1
 70
0
  0
VERTEX
  8
2_FEATURE
 62
9
  6
CONTINUOUS
 10
154.0766438992
 20
147.4691733348
  0
VERTEX
  8
2_FEATURE
 62
9
  6
CONTINUOUS
 10
153.804614458
 20
147.2436466124
  0
VERTEX
  8
2_FEATURE
 62
9
  6
CONTINUOUS
 10
153.4308767781
 20
146.9916061396
  0
VERTEX
  8
2_FEATURE
 62
9
  6
CONTINUOUS
 10
152.9559743213
 20
146.7185842931
  0
SEQEND
  0
LINE
  8
AXES
 62
7
  6
CONTINUOUS
 10
137.0770211738
 20
114.8468245118
 11
111.0421118974
 21
118.0435094155
  0
POLYLINE
  8
AXES
 62
9
  6
CONTINUOUS
 66
1
 70
0
  0
VERTEX
  8
AXES
 62
9
  6
CONTINUOUS
 10
154.0766438992
 20
105.841308366
  0
VERTEX
  8
AXES
 62
9
  6
CONTINUOUS
 10
153.804614458
 20
106.0668350884
  0
VERTEX
  8
AXES
 62
9
  6
CONTINUOUS
 10
153.4308767781
 20
106.3188755611
  0
VERTEX
  8
AXES
 62
9
  6
CONTINUOUS
 10
152.9559743213
 20
106.5918974077
  0
SEQEND
  0
POLYLINE
  8
AXES
 62
9
  6
CONTINUOUS
 66
1
 70
0
  0
VERTEX
  8
AXES
 62
9
  6
CONTINUOUS
 10
154.4948121904
 20
105.4861297895
  0
VERTEX
  8
AXES
 62
9
  6
CONTINUOUS
 10
154.3646433481
 20
105.5986254258
  0
VERTEX
  8
AXES
 62
9
  6
CONTINUOUS
 10
154.0990186216
 20
105.8196221664
  0
SEQEND
  0
LINE
  8
AXES
 62
9
  6
CONTINUOUS
 10
154.0990186216
 20
105.8196221664
 11
154.0766438992
 21
105.841308366
  0
LINE
  8
0
 62
9
  6
CONTINUOUS
 10
137.2598251889
 20
136.9748379615
 11
137.0770211738
 21
138.4636571889
  0
LINE
  8
AXES
 62
9
  6
CONTINUOUS
 10
142.8172362641
 20
120.6552408504
 11
142.8172362641
 21
119.1552408504
  0
LINE
  8
2_FEATURE
 62
9
  6
CONTINUOUS
 10
142.8172362641
 20
132.6552408504
 11
142.8172362641
 21
134.1552408504
  0
LINE
  8
AXES
 62
9
  6
CONTINUOUS
 10
138.6502340664
 20
115.8972495042
 11
137.9460267222
 21
114.5728281149
  0
LINE
  8
2_FEATURE
 62
9
  6
CONTINUOUS
 10
143.2867078268
 20
134.2722932575
 11
153.4703488192
 21
139.6870312218
  0
LINE
  8
2_FEATURE
 62
7
  6
CONTINUOUS
 10
154.1745561634
 20
138.3626098325
 11
143.990915171
 21
132.9478718682
  0
LINE
  8
AXES
 62
9
  6
CONTINUOUS
 10
155.3482350703
 20
113.1552408504
 11
193.5785970957
 21
113.1552408504
  0
LINE
  8
AXES
 62
7
  6
CONTINUOUS
 10
155.3482350703
 20
114.6552408504
 11
193.0077856134
 21
114.6552408504
  0
LINE
  8
AXES
 62
9
  6
CONTINUOUS
 10
123.9249150632
 20
117.9729648237
 11
109.7249150632
 21
119.5323286151
  0
LINE
  8
AXES
 62
9
  6
CONTINUOUS
 10
137.2598251889
 20
116.3356437393
 11
123.9249150632
 21
117.9729648237
  0
LINE
  8
AXES
 62
9
  6
CONTINUOUS
 10
143.2867078268
 20
119.0381884432
 11
153.4703488192
 21
113.6234504789
  0
LINE
  8
AXES
 62
7
  6
CONTINUOUS
 10
143.990915171
 20
120.3626098325
 11
154.1745561634
 21
114.9478718682
  0
LINE
  8
0
 62
9
  6
CONTINUOUS
 10
138.6502340664
 20
137.4132321966
 11
137.9460267222
 21
138.7376535859
  0
LINE
  8
2_FEATURE
 62
9
  6
CONTINUOUS
 10
153.18024078
 20
147.125298413
 11
153.1139350261
 21
146.957326704
  0
LINE
  8
AXES
 62
9
  6
CONTINUOUS
 10
143.990915171
 20
120.3626098325
 11
143.2867078268
 21
119.0381884432
  0
LINE
  8
AXES
 62
9
  6
CONTINUOUS
 10
142.8172362641
 20
119.1552408504
 11
132.2765616075
 21
119.1552408504
  0
POLYLINE
  8
AXES
 62
9
  6
CONTINUOUS
 66
1
 70
0
  0
VERTEX
  8
AXES
 62
9
  6
CONTINUOUS
 10
132.2765616075
 20
120.6552408504
  0
VERTEX
  8
AXES
 62
9
  6
CONTINUOUS
 10
130.9464936187
 20
120.7072642307
  0
VERTEX
  8
AXES
 62
9
  6
CONTINUOUS
 10
129.1561864407
 20
120.8841260167
  0
VERTEX
  8
AXES
 62
9
  6
CONTINUOUS
 10
126.7691733207
 20
121.212163584
  0
VERTEX
  8
AXES
 62
9
  6
CONTINUOUS
 10
123.9249152644
 20
121.6552408504
  0
SEQEND
  0
POLYLINE
  8
AXES
 62
9
  6
CONTINUOUS
 66
1
 70
0
  0
VERTEX
  8
AXES
 62
9
  6
CONTINUOUS
 10
132.2765616075
 20
119.1552408504
  0
VERTEX
  8
AXES
 62
9
  6
CONTINUOUS
 10
130.7219473834
 20
119.2851786844
  0
VERTEX
  8
AXES
 62
9
  6
CONTINUOUS
 10
128.8136942407
 20
119.7272875266
  0
VERTEX
  8
AXES
 62
9
  6
CONTINUOUS
 10
126.502013873
 20
120.5474571152
  0
VERTEX
  8
AXES
 62
9
  6
CONTINUOUS
 10
123.9249150632
 20
121.6552408504
  0
SEQEND
  0
LINE
  8
2_FEATURE
 62
9
  6
CONTINUOUS
 10
143.990915171
 20
132.9478718682
 11
143.2867078268
 21
134.2722932575
  0
LINE
  8
AXES
 62
9
  6
CONTINUOUS
 10
153.18024078
 20
106.1851832878
 11
153.1139350261
 21
106.3531549968
  0
LINE
  8
AXES
 62
7
  6
CONTINUOUS
 10
153.5961605008
 20
100.8419383848
 11
153.1139910923
 21
106.3531599428
  0
LINE
  8
AXES
 62
9
  6
CONTINUOUS
 10
154.8912136083
 20
100.9552408504
 11
154.4948121621
 21
105.4861301137
  0
LINE
  8
2_FEATURE
 62
7
  6
CONTINUOUS
 10
153.5961605008
 20
152.4685433159
 11
153.1139910923
 21
146.9573217579
  0
LINE
  8
0
 62
7
  6
CONTINUOUS
 10
153.118781716
 20
147.0120788374
 11
153.1997590829
 21
147.9376543768
  0
LINE
  8
2_FEATURE
 62
9
  6
CONTINUOUS
 10
154.8912136083
 20
152.3552408504
 11
154.4948121621
 21
147.824351587
  0
LINE
  8
AXES
 62
7
  6
CONTINUOUS
 10
142.8172362641
 20
120.6552408504
 11
132.2765611995
 21
120.6552408504
  0
LINE
  8
AXES
 62
9
  6
CONTINUOUS
 10
123.9249150632
 20
121.6552408504
 11
138.1249150632
 21
121.6552408504
  0
LINE
  8
AXES
 62
9
  6
CONTINUOUS
 10
154.8912136083
 20
100.9552408504
 11
154.8912136083
 21
99.6552408504
  0
LINE
  8
2_FEATURE
 62
9
  6
CONTINUOUS
 10
154.8912136083
 20
152.3552408504
 11
154.8912136083
 21
153.6552408504
  0
LINE
  8
2_FEATURE
 62
9
  6
CONTINUOUS
 10
155.3408891047
 20
147.9552408504
 11
155.3408891047
 21
147.6552408504
  0
LINE
  8
AXES
 62
9
  6
CONTINUOUS
 10
155.3408891047
 20
105.3552408504
 11
155.3408891047
 21
107.1552408504
  0
LINE
  8
0
 62
9
  6
CONTINUOUS
 10
155.3408891047
 20
146.1552408504
 11
155.3408891047
 21
147.6552408504
  0
LINE
  8
AXES
 62
9
  6
CONTINUOUS
 10
155.3482350703
 20
114.6552408504
 11
155.3482350704
 21
113.1552408504
  0
LINE
  8
2_FEATURE
 62
9
  6
CONTINUOUS
 10
155.3482350703
 20
138.6552408504
 11
155.3482350704
 21
140.1552408504
  0
LINE
  8
DEFAULT_1
 62
2
  6
CENTER
 10
129.1749150632
 20
126.6552408504
 11
125.9250150632
 21
126.6552408504
  0
LINE
  8
0
 62
2
  6
CONTINUOUS
 10
124.9749150632
 20
126.6552408504
 11
122.8749150632
 21
126.6552408504
  0
LINE
  8
DEFAULT_1
 62
2
  6
CENTER
 10
118.6749150632
 20
126.6552408504
 11
121.9248150632
 21
126.6552408504
  0
LINE
  8
0
 62
7
  6
CONTINUOUS
 10
158.5949150632
 20
153.6552408504
 11
158.5949150632
 21
153.7552408504
  0
LINE
  8
0
 62
7
  6
CONTINUOUS
 10
158.6449148725
 20
153.6552408504
 11
158.6449148725
 21
153.7552408504
  0
LINE
  8
0
 62
7
  6
CONTINUOUS
 10
158.694915254
 20
153.6552408504
 11
158.694915254
 21
153.7552408504
  0
LINE
  8
0
 62
7
  6
CONTINUOUS
 10
158.7949148725
 20
153.6552408504
 11
158.7949148725
 21
153.7552408504
  0
LINE
  8
0
 62
7
  6
CONTINUOUS
 10
158.9449148725
 20
153.6552408504
 11
158.9449148725
 21
153.7552408504
  0
LINE
  8
0
 62
7
  6
CONTINUOUS
 10
159.1949150632
 20
153.6552408504
 11
159.1949150632
 21
153.7552408504
  0
LINE
  8
0
 62
7
  6
CONTINUOUS
 10
159.4249150632
 20
99.6552408504
 11
159.4249150632
 21
99.5552408504
  0
LINE
  8
0
 62
7
  6
CONTINUOUS
 10
159.4949150632
 20
153.6552408504
 11
159.4949150632
 21
153.7552408504
  0
LINE
  8
0
 62
7
  6
CONTINUOUS
 10
159.7949150632
 20
153.6552408504
 11
159.7949150632
 21
153.7552408504
  0
LINE
  8
0
 62
7
  6
CONTINUOUS
 10
159.9149150632
 20
153.6552408504
 11
159.9149150632
 21
153.7552408504
  0
LINE
  8
AXES
 62
9
  6
CONTINUOUS
 10
154.1745561634
 20
114.9478718682
 11
153.4703488192
 21
113.6234504789
  0
POLYLINE
  8
2_FEATURE
 62
9
  6
CONTINUOUS
 66
1
 70
0
  0
VERTEX
  8
2_FEATURE
 62
9
  6
CONTINUOUS
 10
194.4171797729
 20
140.3562027447
  0
VERTEX
  8
2_FEATURE
 62
9
  6
CONTINUOUS
 10
194.0967667911
 20
140.2286262706
  0
VERTEX
  8
2_FEATURE
 62
9
  6
CONTINUOUS
 10
193.9270142872
 20
140.1879652514
  0
VERTEX
  8
2_FEATURE
 62
9
  6
CONTINUOUS
 10
193.5785970957
 20
140.1552408504
  0
SEQEND
  0
POLYLINE
  8
2_FEATURE
 62
9
  6
CONTINUOUS
 66
1
 70
0
  0
VERTEX
  8
2_FEATURE
 62
9
  6
CONTINUOUS
 10
193.0077856134
 20
138.6552408504
  0
VERTEX
  8
2_FEATURE
 62
9
  6
CONTINUOUS
 10
193.1555224922
 20
138.7063521081
  0
VERTEX
  8
2_FEATURE
 62
9
  6
CONTINUOUS
 10
193.2931913491
 20
138.8562027365
  0
VERTEX
  8
2_FEATURE
 62
9
  6
CONTINUOUS
 10
193.4114102787
 20
139.0945806665
  0
VERTEX
  8
2_FEATURE
 62
9
  6
CONTINUOUS
 10
193.5021228552
 20
139.4052408384
  0
VERTEX
  8
2_FEATURE
 62
9
  6
CONTINUOUS
 10
193.5591471654
 20
139.7670122753
  0
VERTEX
  8
2_FEATURE
 62
9
  6
CONTINUOUS
 10
193.5785970957
 20
140.1552408504
  0
SEQEND
  0
POLYLINE
  8
AXES
 62
9
  6
CONTINUOUS
 66
1
 70
0
  0
VERTEX
  8
AXES
 62
9
  6
CONTINUOUS
 10
193.0077856134
 20
114.6552408504
  0
VERTEX
  8
AXES
 62
9
  6
CONTINUOUS
 10
193.1555224922
 20
114.6041295926
  0
VERTEX
  8
AXES
 62
9
  6
CONTINUOUS
 10
193.2931913491
 20
114.4542789643
  0
VERTEX
  8
AXES
 62
9
  6
CONTINUOUS
 10
193.4114102787
 20
114.2159010343
  0
VERTEX
  8
AXES
 62
9
  6
CONTINUOUS
 10
193.5021228552
 20
113.9052408623
  0
VERTEX
  8
AXES
 62
9
  6
CONTINUOUS
 10
193.5591471654
 20
113.5434694254
  0
VERTEX
  8
AXES
 62
9
  6
CONTINUOUS
 10
193.5785970957
 20
113.1552408504
  0
SEQEND
  0
POLYLINE
  8
AXES
 62
9
  6
CONTINUOUS
 66
1
 70
0
  0
VERTEX
  8
AXES
 62
9
  6
CONTINUOUS
 10
194.4171797729
 20
112.9542789561
  0
VERTEX
  8
AXES
 62
9
  6
CONTINUOUS
 10
194.0967667911
 20
113.0818554301
  0
VERTEX
  8
AXES
 62
9
  6
CONTINUOUS
 10
193.9270142872
 20
113.1225164494
  0
VERTEX
  8
AXES
 62
9
  6
CONTINUOUS
 10
193.5785970957
 20
113.1552408504
  0
SEQEND
  0
LINE
  8
2_FEATURE
 62
9
  6
CONTINUOUS
 10
154.1745561634
 20
138.3626098325
 11
153.4703488192
 21
139.6870312218
  0
LINE
  8
0
 62
7
  6
CONTINUOUS
 10
161.4449150632
 20
153.6552408504
 11
161.4449150632
 21
153.7552408504
  0
LINE
  8
0
 62
7
  6
CONTINUOUS
 10
161.6749150632
 20
99.6552408504
 11
161.6749150632
 21
99.5552408504
  0
LINE
  8
0
 62
9
  6
CONTINUOUS
 10
161.8549150632
 20
153.6552408504
 11
161.8549150632
 21
153.7552408504
  0
LINE
  8
0
 62
9
  6
CONTINUOUS
 10
162.0059161768
 20
153.6552408504
 11
162.0059161768
 21
153.7552408504
  0
LINE
  8
0
 62
7
  6
CONTINUOUS
 10
162.1436651526
 20
99.6552408504
 11
162.1436651526
 21
99.5552408504
  0
LINE
  8
0
 62
7
  6
CONTINUOUS
 10
162.4549150632
 20
153.6552408504
 11
162.4549150632
 21
153.7552408504
  0
LINE
  8
0
 62
7
  6
CONTINUOUS
 10
162.5186650632
 20
99.6552408504
 11
162.5186650632
 21
99.5552408504
  0
LINE
  8
0
 62
7
  6
CONTINUOUS
 10
162.7999150632
 20
99.6552408504
 11
162.7999150632
 21
99.5552408504
  0
LINE
  8
0
 62
7
  6
CONTINUOUS
 10
162.8936649738
 20
99.6552408504
 11
162.8936649738
 21
99.5552408504
  0
LINE
  8
0
 62
7
  6
CONTINUOUS
 10
162.9649150632
 20
153.6552408504
 11
162.9649150632
 21
153.7552408504
  0
LINE
  8
0
 62
7
  6
CONTINUOUS
 10
162.9949151586
 20
153.6552408504
 11
162.9949151586
 21
153.7552408504
  0
LINE
  8
0
 62
7
  6
CONTINUOUS
 10
163.0949150632
 20
153.6552408504
 11
163.0949150632
 21
153.7552408504
  0
LINE
  8
0
 62
7
  6
CONTINUOUS
 10
163.1449151586
 20
153.6552408504
 11
163.1449151586
 21
153.7552408504
  0
LINE
  8
0
 62
7
  6
CONTINUOUS
 10
163.2849150632
 20
153.6552408504
 11
163.2849150632
 21
153.7552408504
  0
LINE
  8
0
 62
7
  6
CONTINUOUS
 10
163.6436650632
 20
99.6552408504
 11
163.6436650632
 21
99.5552408504
  0
LINE
  8
2_FEATURE
 62
9
  6
CONTINUOUS
 10
202.3749150632
 20
144.4652793484
 11
194.4171797729
 21
140.3562027447
  0
POLYLINE
  8
2_FEATURE
 62
9
  6
CONTINUOUS
 66
1
 70
0
  0
VERTEX
  8
2_FEATURE
 62
9
  6
CONTINUOUS
 10
132.2765616075
 20
132.6552408504
  0
VERTEX
  8
2_FEATURE
 62
9
  6
CONTINUOUS
 10
130.9464936187
 20
132.60321747
  0
VERTEX
  8
2_FEATURE
 62
9
  6
CONTINUOUS
 10
129.1561864407
 20
132.4263556841
  0
VERTEX
  8
2_FEATURE
 62
9
  6
CONTINUOUS
 10
126.7691733207
 20
132.0983181168
  0
VERTEX
  8
2_FEATURE
 62
9
  6
CONTINUOUS
 10
123.9249152644
 20
131.6552408504
  0
SEQEND
  0
LINE
  8
2_FEATURE
 62
9
  6
CONTINUOUS
 10
123.9249150632
 20
131.6552408504
 11
138.1249150632
 21
131.6552408504
  0
LINE
  8
2_FEATURE
 62
7
  6
CONTINUOUS
 10
142.8172362641
 20
132.6552408504
 11
132.2765611995
 21
132.6552408504
  0
LINE
  8
2_FEATURE
 62
9
  6
CONTINUOUS
 10
142.8172362641
 20
134.1552408504
 11
132.2765616075
 21
134.1552408504
  0
LINE
  8
AXES
 62
9
  6
CONTINUOUS
 10
202.3749150632
 20
108.8452023524
 11
194.4171797729
 21
112.9542789561
  0
LINE
  8
0
 62
7
  6
CONTINUOUS
 10
163.7949150632
 20
153.6552408504
 11
163.7949150632
 21
153.7552408504
  0
LINE
  8
0
 62
9
  6
CONTINUOUS
 10
164.0949150632
 20
153.6552408504
 11
164.0949150632
 21
153.7552408504
  0
LINE
  8
0
 62
9
  6
CONTINUOUS
 10
164.3349150632
 20
153.6552408504
 11
164.3349150632
 21
153.7552408504
  0
LINE
  8
0
 62
7
  6
CONTINUOUS
 10
164.4849150632
 20
153.6552408504
 11
164.4849150632
 21
153.7552408504
  0
LINE
  8
0
 62
7
  6
CONTINUOUS
 10
164.9949150632
 20
153.6552408504
 11
164.9949150632
 21
153.7552408504
  0
LINE
  8
0
 62
7
  6
CONTINUOUS
 10
165.1949150632
 20
153.6552408504
 11
165.1949150632
 21
153.7552408504
  0
LINE
  8
0
 62
7
  6
CONTINUOUS
 10
165.2449150156
 20
153.6552408504
 11
165.2449150156
 21
153.7552408504
  0
LINE
  8
0
 62
7
  6
CONTINUOUS
 10
165.4449151109
 20
153.6552408504
 11
165.4449151109
 21
153.7552408504
  0
LINE
  8
0
 62
7
  6
CONTINUOUS
 10
165.6449150632
 20
153.6552408504
 11
165.6449150632
 21
153.7552408504
  0
LINE
  8
0
 62
7
  6
CONTINUOUS
 10
165.8936650632
 20
99.6552408504
 11
165.8936650632
 21
99.5552408504
  0
LINE
  8
0
 62
7
  6
CONTINUOUS
 10
165.9449150632
 20
153.6552408504
 11
165.9449150632
 21
153.7552408504
  0
LINE
  8
0
 62
7
  6
CONTINUOUS
 10
166.1449150871
 20
153.6552408504
 11
166.1449150871
 21
153.7552408504
  0
LINE
  8
0
 62
7
  6
CONTINUOUS
 10
166.3624148844
 20
99.6552408504
 11
166.3624148844
 21
99.5552408504
  0
LINE
  8
0
 62
7
  6
CONTINUOUS
 10
166.4949150752
 20
153.6552408504
 11
166.4949150752
 21
153.7552408504
  0
LINE
  8
0
 62
7
  6
CONTINUOUS
 10
166.6949150632
 20
153.6552408504
 11
166.6949150632
 21
153.7552408504
  0
LINE
  8
0
 62
7
  6
CONTINUOUS
 10
166.7374150632
 20
99.6552408504
 11
166.7374150632
 21
99.5552408504
  0
LINE
  8
0
 62
7
  6
CONTINUOUS
 10
166.8949150603
 20
153.6552408504
 11
166.8949150603
 21
153.7552408504
  0
LINE
  8
0
 62
7
  6
CONTINUOUS
 10
166.9449150618
 20
153.6552408504
 11
166.9449150618
 21
153.7552408504
  0
LINE
  8
0
 62
7
  6
CONTINUOUS
 10
166.9949150632
 20
153.6552408504
 11
166.9949150632
 21
153.7552408504
  0
LINE
  8
0
 62
7
  6
CONTINUOUS
 10
167.0186650632
 20
99.6552408504
 11
167.0186650632
 21
99.5552408504
  0
LINE
  8
0
 62
7
  6
CONTINUOUS
 10
167.1124152421
 20
99.6552408504
 11
167.1124152421
 21
99.5552408504
  0
LINE
  8
AXES
 62
9
  6
CONTINUOUS
 10
154.0990186216
 20
105.8196221664
 11
154.8714175419
 21
107.2722932575
  0
LINE
  8
2_FEATURE
 62
7
  6
CONTINUOUS
 10
201.6249150632
 20
143.1662412427
 11
194.5077856134
 21
139.057164639
  0
POLYLINE
  8
2_FEATURE
 62
9
  6
CONTINUOUS
 66
1
 70
0
  0
VERTEX
  8
2_FEATURE
 62
9
  6
CONTINUOUS
 10
132.2765616075
 20
134.1552408504
  0
VERTEX
  8
2_FEATURE
 62
9
  6
CONTINUOUS
 10
130.7219473834
 20
134.0253030164
  0
VERTEX
  8
2_FEATURE
 62
9
  6
CONTINUOUS
 10
128.8136942407
 20
133.5831941741
  0
VERTEX
  8
2_FEATURE
 62
9
  6
CONTINUOUS
 10
126.502013873
 20
132.7630245855
  0
VERTEX
  8
2_FEATURE
 62
9
  6
CONTINUOUS
 10
123.9249150632
 20
131.6552408504
  0
SEQEND
  0
LINE
  8
AXES
 62
7
  6
CONTINUOUS
 10
201.6249150632
 20
110.144240458
 11
194.5077856134
 21
114.2533170617
  0
LINE
  8
2_FEATURE
 62
9
  6
CONTINUOUS
 10
154.0990186216
 20
147.4908595344
 11
154.1672101977
 21
147.3626098325
  0
LINE
  8
0
 62
9
  6
CONTINUOUS
 10
154.8714175419
 20
146.0381884432
 11
154.1672101977
 21
147.3626098325
  0
LINE
  8
AXES
 62
9
  6
CONTINUOUS
 10
169.1587525559
 20
100.9552408504
 11
169.1587525559
 21
99.6552408504
  0
LINE
  8
2_FEATURE
 62
9
  6
CONTINUOUS
 10
169.1587525559
 20
152.3552408504
 11
169.1587525559
 21
153.6552408504
  0
LINE
  8
0
 62
9
  6
CONTINUOUS
 10
137.2598251889
 20
136.9748379615
 11
123.9249150632
 21
135.337516877
  0
LINE
  8
0
 62
7
  6
CONTINUOUS
 10
137.0770211738
 20
138.4636571889
 11
111.0421118974
 21
135.2669722853
  0
LINE
  8
0
 62
9
  6
CONTINUOUS
 10
123.9249150632
 20
135.337516877
 11
109.7249150632
 21
133.7781530857
  0
LINE
  8
2_FEATURE
 62
7
  6
CONTINUOUS
 10
193.0077856134
 20
138.6552408504
 11
155.3482350703
 21
138.6552408504
  0
LINE
  8
2_FEATURE
 62
9
  6
CONTINUOUS
 10
155.3482350703
 20
140.1552408504
 11
193.5785970957
 21
140.1552408504
  0
LINE
  8
2_FEATURE
 62
9
  6
CONTINUOUS
 10
169.5437026754
 20
147.9552408504
 11
169.1587525559
 21
152.3552408504
  0
LINE
  8
0
 62
7
  6
CONTINUOUS
 10
170.8387557829
 20
148.0685433159
 11
170.850956006
 21
147.9290941276
  0
LINE
  8
2_FEATURE
 62
7
  6
CONTINUOUS
 10
170.850956006
 20
147.9290941276
 11
170.4538056634
 21
152.4685433159
  0
LINE
  8
AXES
 62
9
  6
CONTINUOUS
 10
169.5437026754
 20
105.3552408504
 11
169.1587525559
 21
100.9552408504
  0
LINE
  8
AXES
 62
7
  6
CONTINUOUS
 10
170.850956006
 20
105.3813875732
 11
170.4538056634
 21
100.8419383848
  0
LINE
  8
AXES
 62
9
  6
CONTINUOUS
 10
169.5559028985
 20
105.3813875732
 11
169.5437026754
 21
105.3552408504
  0
POLYLINE
  8
2_FEATURE
 62
9
  6
CONTINUOUS
 66
1
 70
0
  0
VERTEX
  8
2_FEATURE
 62
9
  6
CONTINUOUS
 10
194.5077855849
 20
139.0571646885
  0
VERTEX
  8
2_FEATURE
 62
9
  6
CONTINUOUS
 10
194.6157844795
 20
139.18219361
  0
VERTEX
  8
2_FEATURE
 62
9
  6
CONTINUOUS
 10
194.6616885505
 20
139.3921875535
  0
VERTEX
  8
2_FEATURE
 62
9
  6
CONTINUOUS
 10
194.642175643
 20
139.6719489046
  0
VERTEX
  8
2_FEATURE
 62
9
  6
CONTINUOUS
 10
194.5586579391
 20
140.0012308644
  0
VERTEX
  8
2_FEATURE
 62
9
  6
CONTINUOUS
 10
194.4171797551
 20
140.3562027447
  0
SEQEND
  0
POLYLINE
  8
2_FEATURE
 62
9
  6
CONTINUOUS
 66
1
 70
0
  0
VERTEX
  8
2_FEATURE
 62
9
  6
CONTINUOUS
 10
154.0766446978
 20
147.469171833
  0
VERTEX
  8
2_FEATURE
 62
9
  6
CONTINUOUS
 10
153.7409696973
 20
147.4234230498
  0
VERTEX
  8
2_FEATURE
 62
9
  6
CONTINUOUS
 10
153.4581222424
 20
147.331857691
  0
VERTEX
  8
2_FEATURE
 62
9
  6
CONTINUOUS
 10
153.3437125249
 20
147.2710289921
  0
VERTEX
  8
2_FEATURE
 62
9
  6
CONTINUOUS
 10
153.18024078
 20
147.125298413
  0
SEQEND
  0
POLYLINE
  8
2_FEATURE
 62
9
  6
CONTINUOUS
 66
1
 70
0
  0
VERTEX
  8
2_FEATURE
 62
9
  6
CONTINUOUS
 10
154.0990186217
 20
147.4908595343
  0
VERTEX
  8
2_FEATURE
 62
9
  6
CONTINUOUS
 10
153.7573592291
 20
147.4512662718
  0
VERTEX
  8
2_FEATURE
 62
9
  6
CONTINUOUS
 10
153.4689515178
 20
147.3668563911
  0
VERTEX
  8
2_FEATURE
 62
9
  6
CONTINUOUS
 10
153.3522517055
 20
147.3098562751
  0
VERTEX
  8
2_FEATURE
 62
9
  6
CONTINUOUS
 10
153.1857052901
 20
147.1720512484
  0
VERTEX
  8
2_FEATURE
 62
9
  6
CONTINUOUS
 10
153.1187817137
 20
147.0120788376
  0
SEQEND
  0
LINE
  8
2_FEATURE
 62
9
  6
CONTINUOUS
 10
169.5437026754
 20
147.9552408504
 11
170.8387557829
 21
148.0685433159
  0
POLYLINE
  8
2_FEATURE
 62
9
  6
CONTINUOUS
 66
1
 70
0
  0
VERTEX
  8
2_FEATURE
 62
9
  6
CONTINUOUS
 10
169.5559028985
 20
147.9290941299
  0
VERTEX
  8
2_FEATURE
 62
9
  6
CONTINUOUS
 10
169.7393281708
 20
147.9438777496
  0
VERTEX
  8
2_FEATURE
 62
9
  6
CONTINUOUS
 10
170.0914611574
 20
147.9654518576
  0
VERTEX
  8
2_FEATURE
 62
9
  6
CONTINUOUS
 10
170.4006221727
 20
147.9750176147
  0
VERTEX
  8
2_FEATURE
 62
9
  6
CONTINUOUS
 10
170.531144463
 20
147.975017613
  0
VERTEX
  8
2_FEATURE
 62
9
  6
CONTINUOUS
 10
170.7309683432
 20
147.965451848
  0
VERTEX
  8
2_FEATURE
 62
9
  6
CONTINUOUS
 10
170.8365076998
 20
147.9438777365
  0
VERTEX
  8
2_FEATURE
 62
9
  6
CONTINUOUS
 10
170.850955805
 20
147.92909411
  0
SEQEND
  0
LINE
  8
0
 62
9
  6
CONTINUOUS
 10
202.3749150632
 20
146.1552408504
 11
155.3408891047
 21
146.1552408504
  0
LINE
  8
0
 62
7
  6
CONTINUOUS
 10
200.8749048425
 20
147.6552408504
 11
155.3408891047
 21
147.6552408504
  0
LINE
  8
2_FEATURE
 62
9
  6
CONTINUOUS
 10
169.5437026754
 20
147.9552408504
 11
155.3408891047
 21
147.9552408504
  0
POLYLINE
  8
2_FEATURE
 62
7
  6
CONTINUOUS
 66
1
 70
0
  0
VERTEX
  8
2_FEATURE
 62
7
  6
CONTINUOUS
 10
171.13034867
 20
147.6556600959
  0
VERTEX
  8
2_FEATURE
 62
7
  6
CONTINUOUS
 10
170.7880752939
 20
147.6630318741
  0
VERTEX
  8
2_FEATURE
 62
7
  6
CONTINUOUS
 10
170.4876435552
 20
147.6821528318
  0
VERTEX
  8
2_FEATURE
 62
7
  6
CONTINUOUS
 10
170.2382354218
 20
147.7086721821
  0
VERTEX
  8
2_FEATURE
 62
7
  6
CONTINUOUS
 10
170.0345957124
 20
147.7401032389
  0
VERTEX
  8
2_FEATURE
 62
7
  6
CONTINUOUS
 10
169.8709014164
 20
147.7750140246
  0
VERTEX
  8
2_FEATURE
 62
7
  6
CONTINUOUS
 10
169.7426293208
 20
147.8122935921
  0
VERTEX
  8
2_FEATURE
 62
7
  6
CONTINUOUS
 10
169.6493300222
 20
147.8513233914
  0
VERTEX
  8
2_FEATURE
 62
7
  6
CONTINUOUS
 10
169.5868716745
 20
147.8912447246
  0
VERTEX
  8
2_FEATURE
 62
7
  6
CONTINUOUS
 10
169.5559028985
 20
147.9290941276
  0
SEQEND
  0
LINE
  8
2_FEATURE
 62
9
  6
CONTINUOUS
 10
154.4948121904
 20
147.8243519112
 11
153.1997590829
 21
147.9376543767
  0
POLYLINE
  8
AXES
 62
9
  6
CONTINUOUS
 66
1
 70
0
  0
VERTEX
  8
AXES
 62
9
  6
CONTINUOUS
 10
194.5077855849
 20
114.2533170123
  0
VERTEX
  8
AXES
 62
9
  6
CONTINUOUS
 10
194.6157844795
 20
114.1282880907
  0
VERTEX
  8
AXES
 62
9
  6
CONTINUOUS
 10
194.6616885505
 20
113.9182941472
  0
VERTEX
  8
AXES
 62
9
  6
CONTINUOUS
 10
194.642175643
 20
113.6385327962
  0
VERTEX
  8
AXES
 62
9
  6
CONTINUOUS
 10
194.5586579391
 20
113.3092508363
  0
VERTEX
  8
AXES
 62
9
  6
CONTINUOUS
 10
194.4171797551
 20
112.9542789561
  0
SEQEND
  0
LINE
  8
2_FEATURE
 62
9
  6
CONTINUOUS
 10
169.5559028985
 20
147.9290941276
 11
169.5437026754
 21
147.9552408504
  0
LINE
  8
2_FEATURE
 62
9
  6
CONTINUOUS
 10
169.1587525559
 20
152.3552408504
 11
170.4538056634
 21
152.4685433159
  0
LINE
  8
2_FEATURE
 62
9
  6
CONTINUOUS
 10
154.8912136083
 20
152.3552408504
 11
153.5961605008
 21
152.4685433159
  0
LINE
  8
2_FEATURE
 62
9
  6
CONTINUOUS
 10
169.1587525559
 20
152.3552408504
 11
154.8912136083
 21
152.3552408504
  0
LINE
  8
2_FEATURE
 62
7
  6
CONTINUOUS
 10
169.1587525559
 20
153.6552408504
 11
154.8912136083
 21
153.6552408504
  0
LINE
  8
0
 62
7
  6
CONTINUOUS
 10
158.5949150632
 20
153.7552408504
 11
162.9649150632
 21
153.7552408504
  0
LINE
  8
0
 62
7
  6
CONTINUOUS
 10
162.9949151586
 20
153.7552408504
 11
164.9949150632
 21
153.7552408504
  0
LINE
  8
0
 62
7
  6
CONTINUOUS
 10
165.1949150632
 20
153.7552408504
 11
166.9949150632
 21
153.7552408504
  0
LINE
  8
AXES
 62
9
  6
CONTINUOUS
 10
188.1749150632
 20
114.6552408504
 11
188.1749150632
 21
105.6552408504
  0
LINE
  8
1_AXIS
 62
2
  6
CENTER
 10
188.1749150632
 20
105.7052408504
 11
188.1749150632
 21
116.6552408504
  0
LINE
  8
2_FEATURE
 62
9
  6
CONTINUOUS
 10
188.1749150632
 20
138.6552408504
 11
188.1749150632
 21
140.1552408504
  0
LINE
  8
0
 62
9
  6
CONTINUOUS
 10
188.1749150632
 20
147.6052408504
 11
188.1749150632
 21
147.6552408504
  0
LINE
  8
DEFAULT_1
 62
2
  6
CENTER
 10
188.1749150632
 20
136.6552408504
 11
188.1749150632
 21
147.6052408504
  0
LINE
  8
AXES
 62
7
  6
CONTINUOUS
 10
202.3749150632
 20
107.1552408504
 11
202.3749150632
 21
108.8452024005
  0
LINE
  8
2_FEATURE
 62
7
  6
CONTINUOUS
 10
202.3749150632
 20
144.4652793002
 11
202.3749150632
 21
146.1552408504
  0
LINE
  8
AXES
 62
7
  6
CONTINUOUS
 10
119.3667005833
 20
213.5417574895
 11
119.3667005833
 21
219.0721975251
  0
LINE
  8
AXES
 62
7
  6
CONTINUOUS
 10
119.3667005833
 20
228.0113174539
 11
119.3667005833
 21
233.5417574895
  0
POLYLINE
  8
AXES
 62
9
  6
CONTINUOUS
 66
1
 70
0
  0
VERTEX
  8
AXES
 62
9
  6
CONTINUOUS
 10
123.9249150632
 20
237.7417574895
  0
VERTEX
  8
AXES
 62
9
  6
CONTINUOUS
 10
123.8776019015
 20
237.6906462265
  0
VERTEX
  8
AXES
 62
9
  6
CONTINUOUS
 10
123.8335130538
 20
237.5407955867
  0
VERTEX
  8
AXES
 62
9
  6
CONTINUOUS
 10
123.7956531026
 20
237.3024176464
  0
VERTEX
  8
AXES
 62
9
  6
CONTINUOUS
 10
123.7666021409
 20
236.9917574719
  0
VERTEX
  8
AXES
 62
9
  6
CONTINUOUS
 10
123.7483399434
 20
236.6299860441
  0
VERTEX
  8
AXES
 62
9
  6
CONTINUOUS
 10
123.7421110481
 20
236.2417574895
  0
SEQEND
  0
POLYLINE
  8
AXES
 62
9
  6
CONTINUOUS
 66
1
 70
0
  0
VERTEX
  8
AXES
 62
9
  6
CONTINUOUS
 10
123.9249150632
 20
209.3417574895
  0
VERTEX
  8
AXES
 62
9
  6
CONTINUOUS
 10
123.8776019026
 20
209.3928687501
  0
VERTEX
  8
AXES
 62
9
  6
CONTINUOUS
 10
123.8335130557
 20
209.5427193838
  0
VERTEX
  8
AXES
 62
9
  6
CONTINUOUS
 10
123.7956531045
 20
209.7810973177
  0
VERTEX
  8
AXES
 62
9
  6
CONTINUOUS
 10
123.7666021422
 20
210.0917574895
  0
VERTEX
  8
AXES
 62
9
  6
CONTINUOUS
 10
123.7483399439
 20
210.4535289218
  0
VERTEX
  8
AXES
 62
9
  6
CONTINUOUS
 10
123.7421110481
 20
210.8417574895
  0
SEQEND
  0
LINE
  8
AXES
 62
7
  6
CONTINUOUS
 10
127.2266983164
 20
213.5417574895
 11
127.2266983164
 21
217.5417574895
  0
LINE
  8
AXES
 62
7
  6
CONTINUOUS
 10
127.2266983164
 20
229.5417574895
 11
127.2266983164
 21
233.5417574895
  0
POLYLINE
  8
AXES
 62
9
  6
CONTINUOUS
 66
1
 70
0
  0
VERTEX
  8
AXES
 62
9
  6
CONTINUOUS
 10
137.2598251889
 20
237.7417574895
  0
VERTEX
  8
AXES
 62
9
  6
CONTINUOUS
 10
137.2125120282
 20
237.6906462289
  0
VERTEX
  8
AXES
 62
9
  6
CONTINUOUS
 10
137.1684231813
 20
237.5407955952
  0
VERTEX
  8
AXES
 62
9
  6
CONTINUOUS
 10
137.1305632301
 20
237.3024176613
  0
VERTEX
  8
AXES
 62
9
  6
CONTINUOUS
 10
137.1015122679
 20
236.9917574895
  0
VERTEX
  8
AXES
 62
9
  6
CONTINUOUS
 10
137.0832500695
 20
236.6299860571
  0
VERTEX
  8
AXES
 62
9
  6
CONTINUOUS
 10
137.0770211738
 20
236.2417574895
  0
SEQEND
  0
POLYLINE
  8
AXES
 62
9
  6
CONTINUOUS
 66
1
 70
0
  0
VERTEX
  8
AXES
 62
9
  6
CONTINUOUS
 10
137.2598251889
 20
209.3417574895
  0
VERTEX
  8
AXES
 62
9
  6
CONTINUOUS
 10
137.2125120169
 20
209.3928687749
  0
VERTEX
  8
AXES
 62
9
  6
CONTINUOUS
 10
137.1684231659
 20
209.5427194566
  0
VERTEX
  8
AXES
 62
9
  6
CONTINUOUS
 10
137.130563217
 20
209.7810974258
  0
VERTEX
  8
AXES
 62
9
  6
CONTINUOUS
 10
137.1015122603
 20
210.0917575974
  0
VERTEX
  8
AXES
 62
9
  6
CONTINUOUS
 10
137.0832500673
 20
210.4535289895
  0
VERTEX
  8
AXES
 62
9
  6
CONTINUOUS
 10
137.0770211737
 20
210.8417574895
  0
SEQEND
  0
LINE
  8
AXES
 62
9
  6
CONTINUOUS
 10
137.0770211738
 20
210.8417574895
 11
137.0770211738
 21
236.2417574895
  0
LINE
  8
AXES
 62
9
  6
CONTINUOUS
 10
137.9460267222
 20
210.8417574895
 11
137.9460267222
 21
236.2417574895
  0
POLYLINE
  8
AXES
 62
9
  6
CONTINUOUS
 66
1
 70
0
  0
VERTEX
  8
AXES
 62
9
  6
CONTINUOUS
 10
169.3566639589
 20
209.3417574895
  0
VERTEX
  8
AXES
 62
9
  6
CONTINUOUS
 10
169.74341543
 20
209.392868812
  0
VERTEX
  8
AXES
 62
9
  6
CONTINUOUS
 10
170.1038103194
 20
209.5427195791
  0
VERTEX
  8
AXES
 62
9
  6
CONTINUOUS
 10
170.4132883032
 20
209.7810976236
  0
VERTEX
  8
AXES
 62
9
  6
CONTINUOUS
 10
170.6507590139
 20
210.0917578052
  0
VERTEX
  8
AXES
 62
9
  6
CONTINUOUS
 10
170.8000392927
 20
210.453529122
  0
VERTEX
  8
AXES
 62
9
  6
CONTINUOUS
 10
170.850956006
 20
210.8417574895
  0
SEQEND
  0
POLYLINE
  8
AXES
 62
9
  6
CONTINUOUS
 66
1
 70
0
  0
VERTEX
  8
AXES
 62
9
  6
CONTINUOUS
 10
168.9754863211
 20
209.3417574895
  0
VERTEX
  8
AXES
 62
9
  6
CONTINUOUS
 10
169.3620408864
 20
209.3928158641
  0
VERTEX
  8
AXES
 62
9
  6
CONTINUOUS
 10
169.7224803805
 20
209.5426313241
  0
VERTEX
  8
AXES
 62
9
  6
CONTINUOUS
 10
170.0320148504
 20
209.7810014513
  0
VERTEX
  8
AXES
 62
9
  6
CONTINUOUS
 10
170.2695356584
 20
210.0916783228
  0
VERTEX
  8
AXES
 62
9
  6
CONTINUOUS
 10
170.4188497997
 20
210.4534847116
  0
VERTEX
  8
AXES
 62
9
  6
CONTINUOUS
 10
170.4697783682
 20
210.8417574895
  0
SEQEND
  0
POLYLINE
  8
AXES
 62
9
  6
CONTINUOUS
 66
1
 70
0
  0
VERTEX
  8
AXES
 62
9
  6
CONTINUOUS
 10
138.6502340664
 20
209.3417574895
  0
VERTEX
  8
AXES
 62
9
  6
CONTINUOUS
 10
138.467971794
 20
209.3928687501
  0
VERTEX
  8
AXES
 62
9
  6
CONTINUOUS
 10
138.2981303943
 20
209.5427193838
  0
VERTEX
  8
AXES
 62
9
  6
CONTINUOUS
 10
138.152284278
 20
209.7810973177
  0
VERTEX
  8
AXES
 62
9
  6
CONTINUOUS
 10
138.0403726168
 20
210.0917574895
  0
VERTEX
  8
AXES
 62
9
  6
CONTINUOUS
 10
137.9700220056
 20
210.4535289218
  0
VERTEX
  8
AXES
 62
9
  6
CONTINUOUS
 10
137.9460267222
 20
210.8417574895
  0
SEQEND
  0
POLYLINE
  8
AXES
 62
9
  6
CONTINUOUS
 66
1
 70
0
  0
VERTEX
  8
AXES
 62
9
  6
CONTINUOUS
 10
168.9754863211
 20
210.8417574895
  0
VERTEX
  8
AXES
 62
9
  6
CONTINUOUS
 10
169.0338034963
 20
210.8556945599
  0
VERTEX
  8
AXES
 62
9
  6
CONTINUOUS
 10
169.0878171682
 20
210.8903304342
  0
VERTEX
  8
AXES
 62
9
  6
CONTINUOUS
 10
169.1110544302
 20
210.9133888199
  0
VERTEX
  8
AXES
 62
9
  6
CONTINUOUS
 10
169.1456782857
 20
210.9669432821
  0
VERTEX
  8
AXES
 62
9
  6
CONTINUOUS
 10
169.1587525559
 20
211.0250237243
  0
SEQEND
  0
LINE
  8
AXES
 62
7
  6
CONTINUOUS
 10
123.9249150632
 20
209.3417574895
 11
188.1749150632
 21
209.3417574895
  0
LINE
  8
AXES
 62
9
  6
CONTINUOUS
 10
123.7421110481
 20
210.8417574895
 11
153.580187796
 21
210.8417574895
  0
LINE
  8
AXES
 62
9
  6
CONTINUOUS
 10
155.0744798431
 20
210.8417574895
 11
168.9754863211
 21
210.8417574895
  0
LINE
  8
AXES
 62
9
  6
CONTINUOUS
 10
170.4697783682
 20
210.8417574895
 11
188.1749150632
 21
210.8417574895
  0
LINE
  8
AXES
 62
9
  6
CONTINUOUS
 10
170.4538056634
 20
211.0250237243
 11
169.1587525559
 21
211.0250237243
  0
LINE
  8
AXES
 62
9
  6
CONTINUOUS
 10
154.8912136083
 20
211.0250237243
 11
153.5961605008
 21
211.0250237243
  0
POLYLINE
  8
AXES
 62
9
  6
CONTINUOUS
 66
1
 70
0
  0
VERTEX
  8
AXES
 62
9
  6
CONTINUOUS
 10
154.6082831394
 20
209.3417574895
  0
VERTEX
  8
AXES
 62
9
  6
CONTINUOUS
 10
154.2215318987
 20
209.3928687501
  0
VERTEX
  8
AXES
 62
9
  6
CONTINUOUS
 10
153.8611371158
 20
209.5427193838
  0
VERTEX
  8
AXES
 62
9
  6
CONTINUOUS
 10
153.5516590998
 20
209.7810973177
  0
VERTEX
  8
AXES
 62
9
  6
CONTINUOUS
 10
153.3141882659
 20
210.0917574895
  0
VERTEX
  8
AXES
 62
9
  6
CONTINUOUS
 10
153.1649078591
 20
210.4535289218
  0
VERTEX
  8
AXES
 62
9
  6
CONTINUOUS
 10
153.1139910923
 20
210.8417574895
  0
SEQEND
  0
POLYLINE
  8
AXES
 62
9
  6
CONTINUOUS
 66
1
 70
0
  0
VERTEX
  8
AXES
 62
9
  6
CONTINUOUS
 10
155.0744798431
 20
209.3417574895
  0
VERTEX
  8
AXES
 62
9
  6
CONTINUOUS
 10
154.6879252778
 20
209.3928158641
  0
VERTEX
  8
AXES
 62
9
  6
CONTINUOUS
 10
154.3274857837
 20
209.5426313241
  0
VERTEX
  8
AXES
 62
9
  6
CONTINUOUS
 10
154.0179513138
 20
209.7810014513
  0
VERTEX
  8
AXES
 62
9
  6
CONTINUOUS
 10
153.7804305058
 20
210.0916783228
  0
VERTEX
  8
AXES
 62
9
  6
CONTINUOUS
 10
153.6311163645
 20
210.4534847116
  0
VERTEX
  8
AXES
 62
9
  6
CONTINUOUS
 10
153.580187796
 20
210.8417574895
  0
SEQEND
  0
POLYLINE
  8
AXES
 62
9
  6
CONTINUOUS
 66
1
 70
0
  0
VERTEX
  8
AXES
 62
9
  6
CONTINUOUS
 10
155.0744798431
 20
210.8417574895
  0
VERTEX
  8
AXES
 62
9
  6
CONTINUOUS
 10
155.0161626678
 20
210.8556945599
  0
VERTEX
  8
AXES
 62
9
  6
CONTINUOUS
 10
154.9621489959
 20
210.8903304342
  0
VERTEX
  8
AXES
 62
9
  6
CONTINUOUS
 10
154.938911734
 20
210.9133888199
  0
VERTEX
  8
AXES
 62
9
  6
CONTINUOUS
 10
154.9042878785
 20
210.9669432821
  0
VERTEX
  8
AXES
 62
9
  6
CONTINUOUS
 10
154.8912136083
 20
211.0250237243
  0
SEQEND
  0
POLYLINE
  8
AXES
 62
9
  6
CONTINUOUS
 66
1
 70
0
  0
VERTEX
  8
AXES
 62
9
  6
CONTINUOUS
 10
153.6601814959
 20
209.3417574895
  0
VERTEX
  8
AXES
 62
9
  6
CONTINUOUS
 10
153.4779192372
 20
209.3928687422
  0
VERTEX
  8
AXES
 62
9
  6
CONTINUOUS
 10
153.3080778426
 20
209.5427193607
  0
VERTEX
  8
AXES
 62
9
  6
CONTINUOUS
 10
153.1622317237
 20
209.7810972832
  0
VERTEX
  8
AXES
 62
9
  6
CONTINUOUS
 10
153.0503200557
 20
210.0917574547
  0
VERTEX
  8
AXES
 62
9
  6
CONTINUOUS
 10
152.9799694378
 20
210.4535288999
  0
VERTEX
  8
AXES
 62
9
  6
CONTINUOUS
 10
152.9559741517
 20
210.8417574895
  0
SEQEND
  0
LINE
  8
0
 62
7
  6
CONTINUOUS
 10
165.8936650632
 20
216.0523958159
 11
166.3624148844
 21
216.1481404853
  0
LINE
  8
AXES
 62
7
  6
CONTINUOUS
 10
127.2266983164
 20
213.5417574895
 11
119.3667005833
 21
213.5417574895
  0
LINE
  8
0
 62
7
  6
CONTINUOUS
 10
159.4249150632
 20
214.0417574895
 11
159.9874150632
 21
214.0417574895
  0
LINE
  8
0
 62
7
  6
CONTINUOUS
 10
163.6436650632
 20
214.0417574895
 11
164.2061650632
 21
214.0417574895
  0
LINE
  8
0
 62
7
  6
CONTINUOUS
 10
161.6749150632
 20
216.0523958159
 11
162.1436651526
 21
216.1481404853
  0
LINE
  8
0
 62
7
  6
CONTINUOUS
 10
159.9874150632
 20
216.0523958159
 11
161.6749150632
 21
216.0523958159
  0
LINE
  8
0
 62
7
  6
CONTINUOUS
 10
164.2061650632
 20
216.0523958159
 11
165.8936650632
 21
216.0523958159
  0
LINE
  8
0
 62
7
  6
CONTINUOUS
 10
165.9874152421
 20
216.6268638325
 11
164.2061650632
 21
216.6268638325
  0
LINE
  8
0
 62
7
  6
CONTINUOUS
 10
161.7686649738
 20
216.6268638325
 11
159.9874150632
 21
216.6268638325
  0
POLYLINE
  8
AXES
 62
9
  6
CONTINUOUS
 66
1
 70
0
  0
VERTEX
  8
AXES
 62
9
  6
CONTINUOUS
 10
153.1139910923
 20
222.5498845808
  0
VERTEX
  8
AXES
 62
9
  6
CONTINUOUS
 10
153.0902100098
 20
222.8959368323
  0
VERTEX
  8
AXES
 62
9
  6
CONTINUOUS
 10
153.0381090126
 20
223.3442663045
  0
VERTEX
  8
AXES
 62
9
  6
CONTINUOUS
 10
152.9559741517
 20
223.8917572976
  0
SEQEND
  0
LINE
  8
AXES
 62
9
  6
CONTINUOUS
 10
152.9559741517
 20
223.8917574895
 11
152.9559741517
 21
210.8417574895
  0
LINE
  8
AXES
 62
9
  6
CONTINUOUS
 10
153.1139910923
 20
210.8417574895
 11
153.1139910923
 21
222.5498845808
  0
LINE
  8
AXES
 62
7
  6
CONTINUOUS
 10
121.4689888125
 20
217.5417574895
 11
127.380841314
 21
217.5417574895
  0
LINE
  8
0
 62
7
  6
CONTINUOUS
 10
159.9874150632
 20
218.0630341423
 11
161.7686649738
 21
218.0630341423
  0
LINE
  8
0
 62
7
  6
CONTINUOUS
 10
164.2061650632
 20
218.0630341423
 11
165.9874152421
 21
218.0630341423
  0
LINE
  8
0
 62
7
  6
CONTINUOUS
 10
165.8936650632
 20
218.5417574895
 11
163.6436650632
 21
218.5417574895
  0
LINE
  8
0
 62
7
  6
CONTINUOUS
 10
161.6749150632
 20
218.5417574895
 11
159.4249150632
 21
218.5417574895
  0
LINE
  8
0
 62
7
  6
CONTINUOUS
 10
162.1436651526
 20
218.4460128201
 11
161.6749150632
 21
218.5417574895
  0
LINE
  8
0
 62
7
  6
CONTINUOUS
 10
166.3624148844
 20
218.4460128201
 11
165.8936650632
 21
218.5417574895
  0
LINE
  8
0
 62
7
  6
CONTINUOUS
 10
161.7686649738
 20
218.0630341423
 11
162.0499149738
 21
217.9672894729
  0
POLYLINE
  8
AXES
 62
9
  6
CONTINUOUS
 66
1
 70
0
  0
VERTEX
  8
AXES
 62
9
  6
CONTINUOUS
 10
153.1997590829
 20
222.2917574895
  0
VERTEX
  8
AXES
 62
9
  6
CONTINUOUS
 10
153.1675005122
 20
222.3277876568
  0
VERTEX
  8
AXES
 62
9
  6
CONTINUOUS
 10
153.1510944005
 20
222.3737052174
  0
VERTEX
  8
AXES
 62
9
  6
CONTINUOUS
 10
153.118781716
 20
222.521049467
  0
SEQEND
  0
LINE
  8
AXES
 62
9
  6
CONTINUOUS
 10
153.118781716
 20
222.521049467
 11
153.1139910923
 21
222.5498845808
  0
LINE
  8
AXES
 62
9
  6
CONTINUOUS
 10
153.5961605008
 20
222.2917574895
 11
153.5961605008
 21
211.0250237243
  0
LINE
  8
AXES
 62
9
  6
CONTINUOUS
 10
154.1672101977
 20
236.2417574895
 11
154.1672101977
 21
223.8917574895
  0
LINE
  8
AXES
 62
9
  6
CONTINUOUS
 10
154.8912136083
 20
223.5917574895
 11
154.8912136083
 21
211.0250237243
  0
LINE
  8
AXES
 62
9
  6
CONTINUOUS
 10
155.0744798431
 20
209.3417574895
 11
155.0744798431
 21
210.8417574895
  0
LINE
  8
AXES
 62
9
  6
CONTINUOUS
 10
155.3408891047
 20
223.5917574895
 11
155.3408891047
 21
237.7417574895
  0
POLYLINE
  8
AXES
 62
9
  6
CONTINUOUS
 66
1
 70
0
  0
VERTEX
  8
AXES
 62
9
  6
CONTINUOUS
 10
154.0990186216
 20
223.6347497353
  0
VERTEX
  8
AXES
 62
9
  6
CONTINUOUS
 10
154.1353600884
 20
223.7017499101
  0
VERTEX
  8
AXES
 62
9
  6
CONTINUOUS
 10
154.1590088859
 20
223.7908794931
  0
VERTEX
  8
AXES
 62
9
  6
CONTINUOUS
 10
154.1672101977
 20
223.8917574895
  0
SEQEND
  0
POLYLINE
  8
AXES
 62
9
  6
CONTINUOUS
 66
1
 70
0
  0
VERTEX
  8
AXES
 62
9
  6
CONTINUOUS
 10
154.0766446978
 20
223.6401536998
  0
VERTEX
  8
AXES
 62
9
  6
CONTINUOUS
 10
153.7409696973
 20
223.5027568629
  0
VERTEX
  8
AXES
 62
9
  6
CONTINUOUS
 10
153.4581222424
 20
223.290013696
  0
VERTEX
  8
AXES
 62
9
  6
CONTINUOUS
 10
153.3437125249
 20
223.1604448644
  0
VERTEX
  8
AXES
 62
9
  6
CONTINUOUS
 10
153.18024078
 20
222.8677318888
  0
VERTEX
  8
AXES
 62
9
  6
CONTINUOUS
 10
153.1139350261
 20
222.549884561
  0
SEQEND
  0
POLYLINE
  8
AXES
 62
9
  6
CONTINUOUS
 66
1
 70
0
  0
VERTEX
  8
AXES
 62
9
  6
CONTINUOUS
 10
154.0990186217
 20
223.6347497351
  0
VERTEX
  8
AXES
 62
9
  6
CONTINUOUS
 10
153.7573592291
 20
223.4976736037
  0
VERTEX
  8
AXES
 62
9
  6
CONTINUOUS
 10
153.4689515178
 20
223.2813761308
  0
VERTEX
  8
AXES
 62
9
  6
CONTINUOUS
 10
153.3522517055
 20
223.1487871502
  0
VERTEX
  8
AXES
 62
9
  6
CONTINUOUS
 10
153.1857052901
 20
222.8481865868
  0
VERTEX
  8
AXES
 62
9
  6
CONTINUOUS
 10
153.1187817137
 20
222.521049467
  0
SEQEND
  0
LINE
  8
AXES
 62
9
  6
CONTINUOUS
 10
171.1498143352
 20
223.8917574895
 11
169.5868716745
 21
223.5986628019
  0
LINE
  8
AXES
 62
9
  6
CONTINUOUS
 10
169.5868716745
 20
223.5986628019
 11
169.5559028985
 21
223.5928990801
  0
POLYLINE
  8
AXES
 62
9
  6
CONTINUOUS
 66
1
 70
0
  0
VERTEX
  8
AXES
 62
9
  6
CONTINUOUS
 10
154.8912136083
 20
223.5917574895
  0
VERTEX
  8
AXES
 62
9
  6
CONTINUOUS
 10
154.556005115
 20
223.5474545853
  0
VERTEX
  8
AXES
 62
9
  6
CONTINUOUS
 10
154.2436442283
 20
223.4175656931
  0
VERTEX
  8
AXES
 62
9
  6
CONTINUOUS
 10
153.9754215055
 20
223.2109448379
  0
VERTEX
  8
AXES
 62
9
  6
CONTINUOUS
 10
153.7696180829
 20
222.9416763999
  0
VERTEX
  8
AXES
 62
9
  6
CONTINUOUS
 10
153.6402596196
 20
222.6281145392
  0
VERTEX
  8
AXES
 62
9
  6
CONTINUOUS
 10
153.5961605008
 20
222.2917574895
  0
SEQEND
  0
LINE
  8
AXES
 62
9
  6
CONTINUOUS
 10
169.5559028985
 20
223.5928990801
 11
169.5437026754
 21
223.5917574895
  0
POLYLINE
  8
AXES
 62
9
  6
CONTINUOUS
 66
1
 70
0
  0
VERTEX
  8
AXES
 62
9
  6
CONTINUOUS
 10
154.4948121904
 20
223.5917574895
  0
VERTEX
  8
AXES
 62
9
  6
CONTINUOUS
 10
154.3105071686
 20
223.5785254003
  0
VERTEX
  8
AXES
 62
9
  6
CONTINUOUS
 10
153.9568283153
 20
223.4742793715
  0
VERTEX
  8
AXES
 62
9
  6
CONTINUOUS
 10
153.6467334632
 20
223.2742325459
  0
VERTEX
  8
AXES
 62
9
  6
CONTINUOUS
 10
153.5160769746
 20
223.1430771601
  0
VERTEX
  8
AXES
 62
9
  6
CONTINUOUS
 10
153.3167907637
 20
222.8317976985
  0
VERTEX
  8
AXES
 62
9
  6
CONTINUOUS
 10
153.2129408999
 20
222.4767670814
  0
VERTEX
  8
AXES
 62
9
  6
CONTINUOUS
 10
153.1997590829
 20
222.2917574895
  0
SEQEND
  0
LINE
  8
AXES
 62
9
  6
CONTINUOUS
 10
153.1997590829
 20
222.2917574895
 11
170.8387557829
 21
222.2917574895
  0
LINE
  8
0
 62
2
  6
CONTINUOUS
 10
189.2249150632
 20
223.5417574895
 11
187.1249150632
 21
223.5417574895
  0
LINE
  8
DEFAULT_1
 62
2
  6
CENTER
 10
182.9249150632
 20
223.5417574895
 11
106.0886007072
 21
223.5417574895
  0
LINE
  8
DEFAULT_1
 62
2
  6
CENTER
 10
193.4249150632
 20
223.5417574895
 11
207.350055461
 21
223.5417574895
  0
LINE
  8
AXES
 62
7
  6
CONTINUOUS
 10
169.5437026754
 20
223.5917574895
 11
154.4948121621
 21
223.5917574895
  0
LINE
  8
AXES
 62
9
  6
CONTINUOUS
 10
171.1498144154
 20
223.8917574895
 11
152.9559741517
 21
223.8917574895
  0
POLYLINE
  8
AXES
 62
9
  6
CONTINUOUS
 66
1
 70
0
  0
VERTEX
  8
AXES
 62
9
  6
CONTINUOUS
 10
154.4948121904
 20
223.5917574895
  0
VERTEX
  8
AXES
 62
9
  6
CONTINUOUS
 10
154.3646433481
 20
223.5985191146
  0
VERTEX
  8
AXES
 62
9
  6
CONTINUOUS
 10
154.285953382
 20
223.607129202
  0
VERTEX
  8
AXES
 62
9
  6
CONTINUOUS
 10
154.0990186216
 20
223.6347497353
  0
SEQEND
  0
POLYLINE
  8
AXES
 62
9
  6
CONTINUOUS
 66
1
 70
0
  0
VERTEX
  8
AXES
 62
9
  6
CONTINUOUS
 10
153.804614458
 20
223.7050376172
  0
VERTEX
  8
AXES
 62
9
  6
CONTINUOUS
 10
153.4308767781
 20
223.7891004405
  0
VERTEX
  8
AXES
 62
9
  6
CONTINUOUS
 10
152.9559743213
 20
223.8917574895
  0
SEQEND
  0
LINE
  8
AXES
 62
9
  6
CONTINUOUS
 10
154.0990186216
 20
223.6347497353
 11
153.804614458
 21
223.7050376172
  0
LINE
  8
0
 62
7
  6
CONTINUOUS
 10
165.9874152421
 20
218.0630341423
 11
166.2686652421
 21
217.9672894729
  0
LINE
  8
0
 62
7
  6
CONTINUOUS
 10
162.5186650632
 20
218.1587788117
 11
162.1436651526
 21
218.4460128201
  0
LINE
  8
0
 62
7
  6
CONTINUOUS
 10
162.0499149738
 20
217.9672894729
 11
162.2374150632
 21
217.775800134
  0
LINE
  8
0
 62
7
  6
CONTINUOUS
 10
159.4249150632
 20
218.5417574895
 11
159.4249150632
 21
214.0417574895
  0
POLYLINE
  8
AXES
 62
9
  6
CONTINUOUS
 66
1
 70
0
  0
VERTEX
  8
AXES
 62
9
  6
CONTINUOUS
 10
155.0744798431
 20
210.8417574895
  0
VERTEX
  8
AXES
 62
9
  6
CONTINUOUS
 10
155.0366563695
 20
210.5460217895
  0
VERTEX
  8
AXES
 62
9
  6
CONTINUOUS
 10
154.9343468501
 20
210.2784633422
  0
VERTEX
  8
AXES
 62
9
  6
CONTINUOUS
 10
154.7848969645
 20
210.0581604686
  0
VERTEX
  8
AXES
 62
9
  6
CONTINUOUS
 10
154.5909649109
 20
209.9101081111
  0
VERTEX
  8
AXES
 62
9
  6
CONTINUOUS
 10
154.3748617376
 20
209.8440448242
  0
VERTEX
  8
AXES
 62
9
  6
CONTINUOUS
 10
154.2640854136
 20
209.8440382028
  0
VERTEX
  8
AXES
 62
9
  6
CONTINUOUS
 10
154.0491225995
 20
209.9101489902
  0
VERTEX
  8
AXES
 62
9
  6
CONTINUOUS
 10
153.8586329116
 20
210.0580912421
  0
VERTEX
  8
AXES
 62
9
  6
CONTINUOUS
 10
153.7088199821
 20
210.2785795005
  0
VERTEX
  8
AXES
 62
9
  6
CONTINUOUS
 10
153.6132990892
 20
210.5460217895
  0
VERTEX
  8
AXES
 62
9
  6
CONTINUOUS
 10
153.580187796
 20
210.8417574895
  0
SEQEND
  0
POLYLINE
  8
AXES
 62
9
  6
CONTINUOUS
 66
1
 70
0
  0
VERTEX
  8
AXES
 62
9
  6
CONTINUOUS
 10
153.580187796
 20
210.8417574895
  0
VERTEX
  8
AXES
 62
9
  6
CONTINUOUS
 10
153.5852710343
 20
210.8553729407
  0
VERTEX
  8
AXES
 62
9
  6
CONTINUOUS
 10
153.5899786474
 20
210.8900022514
  0
VERTEX
  8
AXES
 62
9
  6
CONTINUOUS
 10
153.5920037936
 20
210.9131262736
  0
VERTEX
  8
AXES
 62
9
  6
CONTINUOUS
 10
153.5950211635
 20
210.9668513909
  0
VERTEX
  8
AXES
 62
9
  6
CONTINUOUS
 10
153.5961605008
 20
211.0250237243
  0
SEQEND
  0
POLYLINE
  8
AXES
 62
9
  6
CONTINUOUS
 66
1
 70
0
  0
VERTEX
  8
AXES
 62
9
  6
CONTINUOUS
 10
169.5437026754
 20
223.5917574895
  0
VERTEX
  8
AXES
 62
9
  6
CONTINUOUS
 10
169.7280079489
 20
223.5785253639
  0
VERTEX
  8
AXES
 62
9
  6
CONTINUOUS
 10
170.0816871789
 20
223.4742790834
  0
VERTEX
  8
AXES
 62
9
  6
CONTINUOUS
 10
170.3917821039
 20
223.2742319361
  0
VERTEX
  8
AXES
 62
9
  6
CONTINUOUS
 10
170.5224385101
 20
223.1430764436
  0
VERTEX
  8
AXES
 62
9
  6
CONTINUOUS
 10
170.7217244177
 20
222.8317970064
  0
VERTEX
  8
AXES
 62
9
  6
CONTINUOUS
 10
170.8255740096
 20
222.4767667792
  0
VERTEX
  8
AXES
 62
9
  6
CONTINUOUS
 10
170.8387557829
 20
222.2917574895
  0
SEQEND
  0
POLYLINE
  8
AXES
 62
9
  6
CONTINUOUS
 66
1
 70
0
  0
VERTEX
  8
AXES
 62
9
  6
CONTINUOUS
 10
169.5559028985
 20
223.5928991073
  0
VERTEX
  8
AXES
 62
9
  6
CONTINUOUS
 10
169.7393281708
 20
223.5784509804
  0
VERTEX
  8
AXES
 62
9
  6
CONTINUOUS
 10
170.0914611574
 20
223.4729115776
  0
VERTEX
  8
AXES
 62
9
  6
CONTINUOUS
 10
170.4006221727
 20
223.2730876499
  0
VERTEX
  8
AXES
 62
9
  6
CONTINUOUS
 10
170.531144463
 20
223.1425653365
  0
VERTEX
  8
AXES
 62
9
  6
CONTINUOUS
 10
170.7309683432
 20
222.8334042792
  0
VERTEX
  8
AXES
 62
9
  6
CONTINUOUS
 10
170.8365076998
 20
222.4812712549
  0
VERTEX
  8
AXES
 62
9
  6
CONTINUOUS
 10
170.850955805
 20
222.2978459725
  0
SEQEND
  0
POLYLINE
  8
AXES
 62
9
  6
CONTINUOUS
 66
1
 70
0
  0
VERTEX
  8
AXES
 62
9
  6
CONTINUOUS
 10
169.1587525559
 20
223.5917574895
  0
VERTEX
  8
AXES
 62
9
  6
CONTINUOUS
 10
169.4939369645
 20
223.5474610637
  0
VERTEX
  8
AXES
 62
9
  6
CONTINUOUS
 10
169.8062791096
 20
223.4175905144
  0
VERTEX
  8
AXES
 62
9
  6
CONTINUOUS
 10
170.0744933902
 20
223.210996305
  0
VERTEX
  8
AXES
 62
9
  6
CONTINUOUS
 10
170.2803014462
 20
222.9417574895
  0
VERTEX
  8
AXES
 62
9
  6
CONTINUOUS
 10
170.4096777988
 20
222.6282222481
  0
VERTEX
  8
AXES
 62
9
  6
CONTINUOUS
 10
170.4538056634
 20
222.2917574895
  0
SEQEND
  0
LINE
  8
0
 62
7
  6
CONTINUOUS
 10
166.7374150632
 20
218.1587788117
 11
166.3624148844
 21
218.4460128201
  0
LINE
  8
0
 62
7
  6
CONTINUOUS
 10
166.2686652421
 20
217.9672894729
 11
166.4561650632
 21
217.775800134
  0
LINE
  8
0
 62
7
  6
CONTINUOUS
 10
162.7999150632
 20
217.775800134
 11
162.5186650632
 21
218.1587788117
  0
LINE
  8
0
 62
7
  6
CONTINUOUS
 10
159.9874150632
 20
214.0417574895
 11
159.9874150632
 21
216.0523958159
  0
LINE
  8
0
 62
7
  6
CONTINUOUS
 10
159.9874150632
 20
216.6268638325
 11
159.9874150632
 21
218.0630341423
  0
LINE
  8
0
 62
7
  6
CONTINUOUS
 10
162.3311649738
 20
217.4885661257
 11
162.3311649738
 21
217.2013318491
  0
LINE
  8
0
 62
7
  6
CONTINUOUS
 10
162.8936649738
 20
217.1055871797
 11
162.8936649738
 21
217.4885661257
  0
LINE
  8
AXES
 62
7
  6
CONTINUOUS
 10
127.380841314
 20
229.5417574895
 11
121.4689888125
 21
229.5417574895
  0
LINE
  8
0
 62
7
  6
CONTINUOUS
 10
167.0186650632
 20
217.775800134
 11
166.7374150632
 21
218.1587788117
  0
LINE
  8
0
 62
7
  6
CONTINUOUS
 10
162.2374150632
 20
217.775800134
 11
162.3311649738
 21
217.4885661257
  0
LINE
  8
0
 62
7
  6
CONTINUOUS
 10
162.8936649738
 20
217.4885661257
 11
162.7999150632
 21
217.775800134
  0
LINE
  8
0
 62
7
  6
CONTINUOUS
 10
163.6436650632
 20
218.5417574895
 11
163.6436650632
 21
214.0417574895
  0
LINE
  8
0
 62
7
  6
CONTINUOUS
 10
164.2061650632
 20
214.0417574895
 11
164.2061650632
 21
216.0523958159
  0
LINE
  8
0
 62
7
  6
CONTINUOUS
 10
164.2061650632
 20
216.6268638325
 11
164.2061650632
 21
218.0630341423
  0
LINE
  8
0
 62
7
  6
CONTINUOUS
 10
162.3311649738
 20
217.2013318491
 11
162.2374150632
 21
216.9140978408
  0
LINE
  8
0
 62
7
  6
CONTINUOUS
 10
162.7999150632
 20
216.8183531714
 11
162.8936649738
 21
217.1055871797
  0
LINE
  8
0
 62
7
  6
CONTINUOUS
 10
162.5186650632
 20
216.4353744936
 11
162.7999150632
 21
216.8183531714
  0
LINE
  8
0
 62
7
  6
CONTINUOUS
 10
162.2374150632
 20
216.9140978408
 11
162.0499149738
 21
216.722608502
  0
LINE
  8
0
 62
7
  6
CONTINUOUS
 10
162.1436651526
 20
216.1481404853
 11
162.5186650632
 21
216.4353744936
  0
LINE
  8
AXES
 62
9
  6
CONTINUOUS
 10
170.850956006
 20
222.2978459725
 11
170.8387557829
 21
222.2917574895
  0
LINE
  8
0
 62
7
  6
CONTINUOUS
 10
162.0499149738
 20
216.722608502
 11
161.7686649738
 21
216.6268638325
  0
LINE
  8
0
 62
7
  6
CONTINUOUS
 10
166.2686652421
 20
216.722608502
 11
165.9874152421
 21
216.6268638325
  0
LINE
  8
AXES
 62
7
  6
CONTINUOUS
 10
127.2266983164
 20
233.5417574895
 11
119.3667005833
 21
233.5417574895
  0
POLYLINE
  8
AXES
 62
9
  6
CONTINUOUS
 66
1
 70
0
  0
VERTEX
  8
AXES
 62
9
  6
CONTINUOUS
 10
170.4697783682
 20
210.8417574895
  0
VERTEX
  8
AXES
 62
9
  6
CONTINUOUS
 10
170.4646951299
 20
210.8553729407
  0
VERTEX
  8
AXES
 62
9
  6
CONTINUOUS
 10
170.4599875167
 20
210.8900022514
  0
VERTEX
  8
AXES
 62
9
  6
CONTINUOUS
 10
170.4579623705
 20
210.9131262736
  0
VERTEX
  8
AXES
 62
9
  6
CONTINUOUS
 10
170.4549450007
 20
210.9668513909
  0
VERTEX
  8
AXES
 62
9
  6
CONTINUOUS
 10
170.4538056634
 20
211.0250237243
  0
SEQEND
  0
LINE
  8
0
 62
7
  6
CONTINUOUS
 10
166.4561650632
 20
217.775800134
 11
166.5499152421
 21
217.4885661257
  0
LINE
  8
0
 62
7
  6
CONTINUOUS
 10
167.1124152421
 20
217.4885661257
 11
167.0186650632
 21
217.775800134
  0
LINE
  8
0
 62
7
  6
CONTINUOUS
 10
166.5499152421
 20
217.4885661257
 11
166.5499152421
 21
217.2013318491
  0
LINE
  8
0
 62
7
  6
CONTINUOUS
 10
167.1124152421
 20
217.1055871797
 11
167.1124152421
 21
217.4885661257
  0
LINE
  8
AXES
 62
9
  6
CONTINUOUS
 10
168.9754863211
 20
209.3417574895
 11
168.9754863211
 21
210.8417574895
  0
LINE
  8
AXES
 62
9
  6
CONTINUOUS
 10
169.1587525559
 20
223.5917574895
 11
169.1587525559
 21
211.0250237243
  0
LINE
  8
0
 62
7
  6
CONTINUOUS
 10
166.5499152421
 20
217.2013318491
 11
166.4561650632
 21
216.9140978408
  0
LINE
  8
0
 62
7
  6
CONTINUOUS
 10
167.0186650632
 20
216.8183531714
 11
167.1124152421
 21
217.1055871797
  0
LINE
  8
0
 62
7
  6
CONTINUOUS
 10
166.7374150632
 20
216.4353744936
 11
167.0186650632
 21
216.8183531714
  0
LINE
  8
0
 62
7
  6
CONTINUOUS
 10
166.4561650632
 20
216.9140978408
 11
166.2686652421
 21
216.722608502
  0
LINE
  8
0
 62
7
  6
CONTINUOUS
 10
166.3624148844
 20
216.1481404853
 11
166.7374150632
 21
216.4353744936
  0
LINE
  8
AXES
 62
9
  6
CONTINUOUS
 10
188.1749150632
 20
236.2417574895
 11
123.7421110481
 21
236.2417574895
  0
LINE
  8
AXES
 62
9
  6
CONTINUOUS
 10
170.4538056634
 20
222.2917574895
 11
170.4538056634
 21
211.0250237243
  0
LINE
  8
AXES
 62
9
  6
CONTINUOUS
 10
170.850956006
 20
210.8417574895
 11
170.850956006
 21
222.2978459725
  0
LINE
  8
AXES
 62
9
  6
CONTINUOUS
 10
171.1498144154
 20
209.3417574895
 11
171.1498144154
 21
223.8917574895
  0
POLYLINE
  8
AXES
 62
9
  6
CONTINUOUS
 66
1
 70
0
  0
VERTEX
  8
AXES
 62
9
  6
CONTINUOUS
 10
170.4697783682
 20
210.8417574895
  0
VERTEX
  8
AXES
 62
9
  6
CONTINUOUS
 10
170.436667075
 20
210.5460217895
  0
VERTEX
  8
AXES
 62
9
  6
CONTINUOUS
 10
170.341146182
 20
210.2785795005
  0
VERTEX
  8
AXES
 62
9
  6
CONTINUOUS
 10
170.1913332526
 20
210.0580912421
  0
VERTEX
  8
AXES
 62
9
  6
CONTINUOUS
 10
170.0008435647
 20
209.9101489902
  0
VERTEX
  8
AXES
 62
9
  6
CONTINUOUS
 10
169.7858807505
 20
209.8440382028
  0
VERTEX
  8
AXES
 62
9
  6
CONTINUOUS
 10
169.6751044266
 20
209.8440448242
  0
VERTEX
  8
AXES
 62
9
  6
CONTINUOUS
 10
169.4590012532
 20
209.9101081111
  0
VERTEX
  8
AXES
 62
9
  6
CONTINUOUS
 10
169.2650691996
 20
210.0581604686
  0
VERTEX
  8
AXES
 62
9
  6
CONTINUOUS
 10
169.1156193141
 20
210.2784633422
  0
VERTEX
  8
AXES
 62
9
  6
CONTINUOUS
 10
169.0133097947
 20
210.5460217895
  0
VERTEX
  8
AXES
 62
9
  6
CONTINUOUS
 10
168.9754863211
 20
210.8417574895
  0
SEQEND
  0
LINE
  8
AXES
 62
9
  6
CONTINUOUS
 10
171.1498144154
 20
223.8917574093
 11
170.850956006
 21
222.2978459725
  0
POLYLINE
  8
AXES
 62
9
  6
CONTINUOUS
 66
1
 70
0
  0
VERTEX
  8
AXES
 62
9
  6
CONTINUOUS
 10
154.8714175419
 20
237.7417574895
  0
VERTEX
  8
AXES
 62
9
  6
CONTINUOUS
 10
154.6891552695
 20
237.6906462289
  0
VERTEX
  8
AXES
 62
9
  6
CONTINUOUS
 10
154.5193138698
 20
237.5407955952
  0
VERTEX
  8
AXES
 62
9
  6
CONTINUOUS
 10
154.3734677535
 20
237.3024176613
  0
VERTEX
  8
AXES
 62
9
  6
CONTINUOUS
 10
154.2615560923
 20
236.9917574895
  0
VERTEX
  8
AXES
 62
9
  6
CONTINUOUS
 10
154.1912054811
 20
236.6299860571
  0
VERTEX
  8
AXES
 62
9
  6
CONTINUOUS
 10
154.1672101977
 20
236.2417574895
  0
SEQEND
  0
POLYLINE
  8
AXES
 62
9
  6
CONTINUOUS
 66
1
 70
0
  0
VERTEX
  8
AXES
 62
9
  6
CONTINUOUS
 10
123.7421110481
 20
236.2417574895
  0
VERTEX
  8
AXES
 62
9
  6
CONTINUOUS
 10
121.8424720036
 20
236.0988818277
  0
VERTEX
  8
AXES
 62
9
  6
CONTINUOUS
 10
119.9860943232
 20
235.67363031
  0
VERTEX
  8
AXES
 62
9
  6
CONTINUOUS
 10
118.2152486252
 20
234.9760825723
  0
VERTEX
  8
AXES
 62
9
  6
CONTINUOUS
 10
116.569881679
 20
234.0226506928
  0
VERTEX
  8
AXES
 62
9
  6
CONTINUOUS
 10
115.0867502759
 20
232.8355577908
  0
VERTEX
  8
AXES
 62
9
  6
CONTINUOUS
 10
113.7985774083
 20
231.4421454676
  0
VERTEX
  8
AXES
 62
9
  6
CONTINUOUS
 10
112.7334191795
 20
229.8741102806
  0
VERTEX
  8
AXES
 62
9
  6
CONTINUOUS
 10
111.9141742573
 20
228.1666787621
  0
VERTEX
  8
AXES
 62
9
  6
CONTINUOUS
 10
111.3582518753
 20
226.357785634
  0
VERTEX
  8
AXES
 62
9
  6
CONTINUOUS
 10
111.0773571721
 20
224.4872673955
  0
VERTEX
  8
AXES
 62
9
  6
CONTINUOUS
 10
111.0773693409
 20
222.5960859165
  0
VERTEX
  8
AXES
 62
9
  6
CONTINUOUS
 10
111.3582872703
 20
220.7255750027
  0
VERTEX
  8
AXES
 62
9
  6
CONTINUOUS
 10
111.9142295683
 20
218.9166960547
  0
VERTEX
  8
AXES
 62
9
  6
CONTINUOUS
 10
112.7334889286
 20
217.2092847061
  0
VERTEX
  8
AXES
 62
9
  6
CONTINUOUS
 10
113.7986543008
 20
215.6412739651
  0
VERTEX
  8
AXES
 62
9
  6
CONTINUOUS
 10
115.0868248584
 20
214.2478889208
  0
VERTEX
  8
AXES
 62
9
  6
CONTINUOUS
 10
116.5699449417
 20
213.0608221401
  0
VERTEX
  8
AXES
 62
9
  6
CONTINUOUS
 10
118.2152873321
 20
212.1074147912
  0
VERTEX
  8
AXES
 62
9
  6
CONTINUOUS
 10
119.9861029466
 20
211.4098830383
  0
VERTEX
  8
AXES
 62
9
  6
CONTINUOUS
 10
121.8424393031
 20
210.9846390559
  0
VERTEX
  8
AXES
 62
9
  6
CONTINUOUS
 10
123.7421110481
 20
210.8417574895
  0
SEQEND
  0
LINE
  8
AXES
 62
7
  6
CONTINUOUS
 10
188.1749150632
 20
237.7417574895
 11
123.9249150632
 21
237.7417574895
  0
POLYLINE
  8
AXES
 62
9
  6
CONTINUOUS
 66
1
 70
0
  0
VERTEX
  8
AXES
 62
9
  6
CONTINUOUS
 10
138.6502340664
 20
237.7417574895
  0
VERTEX
  8
AXES
 62
9
  6
CONTINUOUS
 10
138.4679717255
 20
237.6906461898
  0
VERTEX
  8
AXES
 62
9
  6
CONTINUOUS
 10
138.2981303008
 20
237.5407954802
  0
VERTEX
  8
AXES
 62
9
  6
CONTINUOUS
 10
138.1522841976
 20
237.3024174902
  0
VERTEX
  8
AXES
 62
9
  6
CONTINUOUS
 10
138.0403725704
 20
236.9917573182
  0
VERTEX
  8
AXES
 62
9
  6
CONTINUOUS
 10
137.970021992
 20
236.6299859495
  0
VERTEX
  8
AXES
 62
9
  6
CONTINUOUS
 10
137.9460267222
 20
236.2417574895
  0
SEQEND
  0
LINE
  8
AXES
 62
9
  6
CONTINUOUS
 10
188.1749150632
 20
237.7417574895
 11
188.1749150632
 21
236.2417574895
  0
LINE
  8
0
 62
2
  6
CONTINUOUS
 10
188.1749150632
 20
224.5917574895
 11
188.1749150632
 21
222.4917574895
  0
LINE
  8
DEFAULT_1
 62
2
  6
CENTER
 10
188.1749150632
 20
218.2917574895
 11
188.1749150632
 21
204.3666170917
  0
LINE
  8
AXES
 62
9
  6
CONTINUOUS
 10
188.1749150632
 20
209.3417574895
 11
188.1749150632
 21
210.8417574895
  0
LINE
  8
DEFAULT_1
 62
2
  6
CENTER
 10
188.1749150632
 20
228.7917574895
 11
188.1749150632
 21
242.7168978872
  0
POLYLINE
  8
0
 62
9
  6
CONTINUOUS
 66
1
 70
0
  0
VERTEX
  8
0
 62
9
  6
CONTINUOUS
 10
257.0280467727
 20
152.1552408504
  0
VERTEX
  8
0
 62
9
  6
CONTINUOUS
 10
257.0791051474
 20
152.1890599927
  0
VERTEX
  8
0
 62
9
  6
CONTINUOUS
 10
257.2289206073
 20
152.2205943623
  0
VERTEX
  8
0
 62
9
  6
CONTINUOUS
 10
257.4672907345
 20
152.2476751194
  0
VERTEX
  8
0
 62
9
  6
CONTINUOUS
 10
257.777967606
 20
152.2684554974
  0
VERTEX
  8
0
 62
9
  6
CONTINUOUS
 10
258.1397739949
 20
152.2815187921
  0
VERTEX
  8
0
 62
9
  6
CONTINUOUS
 10
258.5280467727
 20
152.2859744645
  0
SEQEND
  0
POLYLINE
  8
AXES
 62
9
  6
CONTINUOUS
 66
1
 70
0
  0
VERTEX
  8
AXES
 62
9
  6
CONTINUOUS
 10
257.0280467727
 20
101.1552408504
  0
VERTEX
  8
AXES
 62
9
  6
CONTINUOUS
 10
257.0791051474
 20
101.1214217081
  0
VERTEX
  8
AXES
 62
9
  6
CONTINUOUS
 10
257.2289206073
 20
101.0898873385
  0
VERTEX
  8
AXES
 62
9
  6
CONTINUOUS
 10
257.4672907345
 20
101.0628065814
  0
VERTEX
  8
AXES
 62
9
  6
CONTINUOUS
 10
257.777967606
 20
101.0420262033
  0
VERTEX
  8
AXES
 62
9
  6
CONTINUOUS
 10
258.1397739949
 20
101.0289629087
  0
VERTEX
  8
AXES
 62
9
  6
CONTINUOUS
 10
258.5280467727
 20
101.0245072363
  0
SEQEND
  0
LINE
  8
0
 62
7
  6
CONTINUOUS
 10
266.2280467727
 20
99.5552408504
 11
261.7280467727
 21
99.5552408504
  0
LINE
  8
AXES
 62
7
  6
CONTINUOUS
 10
258.5280467727
 20
99.6552408504
 11
269.9780467727
 21
99.6552408504
  0
POLYLINE
  8
AXES
 62
9
  6
CONTINUOUS
 66
1
 70
0
  0
VERTEX
  8
AXES
 62
9
  6
CONTINUOUS
 10
258.5280467727
 20
99.6552408504
  0
VERTEX
  8
AXES
 62
9
  6
CONTINUOUS
 10
258.2323110727
 20
99.6851694982
  0
VERTEX
  8
AXES
 62
9
  6
CONTINUOUS
 10
257.9647526254
 20
99.7721058433
  0
VERTEX
  8
AXES
 62
9
  6
CONTINUOUS
 10
257.7444497518
 20
99.9094007863
  0
VERTEX
  8
AXES
 62
9
  6
CONTINUOUS
 10
257.5963973943
 20
100.083679958
  0
VERTEX
  8
AXES
 62
9
  6
CONTINUOUS
 10
257.5303341074
 20
100.2805386474
  0
VERTEX
  8
AXES
 62
9
  6
CONTINUOUS
 10
257.5303274861
 20
100.382054525
  0
VERTEX
  8
AXES
 62
9
  6
CONTINUOUS
 10
257.5964382735
 20
100.5801337933
  0
VERTEX
  8
AXES
 62
9
  6
CONTINUOUS
 10
257.7443805253
 20
100.7582730282
  0
VERTEX
  8
AXES
 62
9
  6
CONTINUOUS
 10
257.9648687838
 20
100.8948494204
  0
VERTEX
  8
AXES
 62
9
  6
CONTINUOUS
 10
258.2323110727
 20
100.9894361459
  0
VERTEX
  8
AXES
 62
9
  6
CONTINUOUS
 10
258.5280467727
 20
101.0245072363
  0
SEQEND
  0
POLYLINE
  8
0
 62
9
  6
CONTINUOUS
 66
1
 70
0
  0
VERTEX
  8
0
 62
9
  6
CONTINUOUS
 10
257.0280467727
 20
146.8265881438
  0
VERTEX
  8
0
 62
9
  6
CONTINUOUS
 10
257.0791580333
 20
146.8604244929
  0
VERTEX
  8
0
 62
9
  6
CONTINUOUS
 10
257.2290086671
 20
146.8919549508
  0
VERTEX
  8
0
 62
9
  6
CONTINUOUS
 10
257.467386601
 20
146.9190307689
  0
VERTEX
  8
0
 62
9
  6
CONTINUOUS
 10
257.7780467727
 20
146.9398067747
  0
VERTEX
  8
0
 62
9
  6
CONTINUOUS
 10
258.1398182051
 20
146.952867118
  0
VERTEX
  8
0
 62
9
  6
CONTINUOUS
 10
258.5280467727
 20
146.9573217579
  0
SEQEND
  0
LINE
  8
AXES
 62
9
  6
CONTINUOUS
 10
269.9780467727
 20
100.8419383848
 11
258.7113130075
 21
100.8419383848
  0
POLYLINE
  8
AXES
 62
9
  6
CONTINUOUS
 66
1
 70
0
  0
VERTEX
  8
AXES
 62
9
  6
CONTINUOUS
 10
257.0280467727
 20
106.483893557
  0
VERTEX
  8
AXES
 62
9
  6
CONTINUOUS
 10
257.0791580333
 20
106.4500572078
  0
VERTEX
  8
AXES
 62
9
  6
CONTINUOUS
 10
257.2290086671
 20
106.4185267499
  0
VERTEX
  8
AXES
 62
9
  6
CONTINUOUS
 10
257.467386601
 20
106.3914509319
  0
VERTEX
  8
AXES
 62
9
  6
CONTINUOUS
 10
257.7780467727
 20
106.370674926
  0
VERTEX
  8
AXES
 62
9
  6
CONTINUOUS
 10
258.1398182051
 20
106.3576145827
  0
VERTEX
  8
AXES
 62
9
  6
CONTINUOUS
 10
258.5280467727
 20
106.3531599428
  0
SEQEND
  0
LINE
  8
AXES
 62
7
  6
CONTINUOUS
 10
271.5586989631
 20
105.6546167083
 11
271.5582919249
 21
105.6545879176
  0
POLYLINE
  8
AXES
 62
7
  6
CONTINUOUS
 66
1
 70
0
  0
VERTEX
  8
AXES
 62
7
  6
CONTINUOUS
 10
271.5582919249
 20
105.6545879176
  0
VERTEX
  8
AXES
 62
7
  6
CONTINUOUS
 10
271.5602100622
 20
105.6547043838
  0
VERTEX
  8
AXES
 62
7
  6
CONTINUOUS
 10
271.5661325012
 20
105.6549775288
  0
VERTEX
  8
AXES
 62
7
  6
CONTINUOUS
 10
271.5776451857
 20
105.6552364835
  0
SEQEND
  0
LINE
  8
AXES
 62
7
  6
CONTINUOUS
 10
283.9280467727
 20
105.6552408504
 11
271.5780467727
 21
105.6552408504
  0
LINE
  8
AXES
 62
9
  6
CONTINUOUS
 10
283.9280467727
 20
105.9478718682
 11
271.5780467727
 21
105.9478718682
  0
LINE
  8
AXES
 62
9
  6
CONTINUOUS
 10
258.5280467727
 20
106.3531599428
 11
270.236173864
 21
106.3531599428
  0
POLYLINE
  8
0
 62
9
  6
CONTINUOUS
 66
1
 70
0
  0
VERTEX
  8
0
 62
9
  6
CONTINUOUS
 10
258.5280467727
 20
152.2859744645
  0
VERTEX
  8
0
 62
9
  6
CONTINUOUS
 10
258.541662224
 20
152.3440761441
  0
VERTEX
  8
0
 62
9
  6
CONTINUOUS
 10
258.5762915347
 20
152.3978844086
  0
VERTEX
  8
0
 62
9
  6
CONTINUOUS
 10
258.5994155569
 20
152.4210319358
  0
VERTEX
  8
0
 62
9
  6
CONTINUOUS
 10
258.6531406742
 20
152.4555206312
  0
VERTEX
  8
0
 62
9
  6
CONTINUOUS
 10
258.7113130075
 20
152.4685433159
  0
SEQEND
  0
POLYLINE
  8
2_FEATURE
 62
9
  6
CONTINUOUS
 66
1
 70
0
  0
VERTEX
  8
2_FEATURE
 62
9
  6
CONTINUOUS
 10
271.326442983
 20
147.469171833
  0
VERTEX
  8
2_FEATURE
 62
9
  6
CONTINUOUS
 10
271.1890461461
 20
147.4234230498
  0
VERTEX
  8
2_FEATURE
 62
9
  6
CONTINUOUS
 10
270.9763029793
 20
147.331857691
  0
VERTEX
  8
2_FEATURE
 62
9
  6
CONTINUOUS
 10
270.8467341476
 20
147.2710289921
  0
VERTEX
  8
2_FEATURE
 62
9
  6
CONTINUOUS
 10
270.5540211721
 20
147.125298413
  0
VERTEX
  8
2_FEATURE
 62
9
  6
CONTINUOUS
 10
270.2361738443
 20
146.957326704
  0
SEQEND
  0
POLYLINE
  8
2_FEATURE
 62
9
  6
CONTINUOUS
 66
1
 70
0
  0
VERTEX
  8
2_FEATURE
 62
9
  6
CONTINUOUS
 10
271.3210390183
 20
147.4908595343
  0
VERTEX
  8
2_FEATURE
 62
9
  6
CONTINUOUS
 10
271.183962887
 20
147.4512662718
  0
VERTEX
  8
2_FEATURE
 62
9
  6
CONTINUOUS
 10
270.967665414
 20
147.3668563911
  0
VERTEX
  8
2_FEATURE
 62
9
  6
CONTINUOUS
 10
270.8350764335
 20
147.3098562751
  0
VERTEX
  8
2_FEATURE
 62
9
  6
CONTINUOUS
 10
270.5344758701
 20
147.1720512484
  0
VERTEX
  8
2_FEATURE
 62
9
  6
CONTINUOUS
 10
270.2073387502
 20
147.0120788376
  0
SEQEND
  0
POLYLINE
  8
AXES
 62
9
  6
CONTINUOUS
 66
1
 70
0
  0
VERTEX
  8
AXES
 62
9
  6
CONTINUOUS
 10
270.236173864
 20
106.3531599428
  0
VERTEX
  8
AXES
 62
9
  6
CONTINUOUS
 10
270.5822261156
 20
106.4467314902
  0
VERTEX
  8
AXES
 62
9
  6
CONTINUOUS
 10
271.0305555878
 20
106.5277158766
  0
VERTEX
  8
AXES
 62
9
  6
CONTINUOUS
 10
271.5780465809
 20
106.5918974979
  0
SEQEND
  0
LINE
  8
AXES
 62
9
  6
CONTINUOUS
 10
271.5780467727
 20
106.5918974979
 11
258.5280467727
 21
106.5918974979
  0
POLYLINE
  8
AXES
 62
9
  6
CONTINUOUS
 66
1
 70
0
  0
VERTEX
  8
AXES
 62
9
  6
CONTINUOUS
 10
271.3210390183
 20
105.8196221665
  0
VERTEX
  8
AXES
 62
9
  6
CONTINUOUS
 10
271.183962887
 20
105.8592154289
  0
VERTEX
  8
AXES
 62
9
  6
CONTINUOUS
 10
270.967665414
 20
105.9436253097
  0
VERTEX
  8
AXES
 62
9
  6
CONTINUOUS
 10
270.8350764335
 20
106.0006254257
  0
VERTEX
  8
AXES
 62
9
  6
CONTINUOUS
 10
270.5344758701
 20
106.1384304524
  0
VERTEX
  8
AXES
 62
9
  6
CONTINUOUS
 10
270.2073387502
 20
106.2984028632
  0
SEQEND
  0
POLYLINE
  8
AXES
 62
9
  6
CONTINUOUS
 66
1
 70
0
  0
VERTEX
  8
AXES
 62
9
  6
CONTINUOUS
 10
271.326442983
 20
105.8413098678
  0
VERTEX
  8
AXES
 62
9
  6
CONTINUOUS
 10
271.1890461461
 20
105.8870586509
  0
VERTEX
  8
AXES
 62
9
  6
CONTINUOUS
 10
270.9763029793
 20
105.9786240098
  0
VERTEX
  8
AXES
 62
9
  6
CONTINUOUS
 10
270.8467341476
 20
106.0394527086
  0
VERTEX
  8
AXES
 62
9
  6
CONTINUOUS
 10
270.5540211721
 20
106.1851832878
  0
VERTEX
  8
AXES
 62
9
  6
CONTINUOUS
 10
270.2361738443
 20
106.3531549968
  0
SEQEND
  0
POLYLINE
  8
AXES
 62
9
  6
CONTINUOUS
 66
1
 70
0
  0
VERTEX
  8
AXES
 62
9
  6
CONTINUOUS
 10
258.5280467727
 20
101.0245072363
  0
VERTEX
  8
AXES
 62
9
  6
CONTINUOUS
 10
258.541662224
 20
100.9664055567
  0
VERTEX
  8
AXES
 62
9
  6
CONTINUOUS
 10
258.5762915347
 20
100.9125972921
  0
VERTEX
  8
AXES
 62
9
  6
CONTINUOUS
 10
258.5994155569
 20
100.8894497649
  0
VERTEX
  8
AXES
 62
9
  6
CONTINUOUS
 10
258.6531406742
 20
100.8549610695
  0
VERTEX
  8
AXES
 62
9
  6
CONTINUOUS
 10
258.7113130075
 20
100.8419383848
  0
SEQEND
  0
POLYLINE
  8
0
 62
9
  6
CONTINUOUS
 66
1
 70
0
  0
VERTEX
  8
0
 62
9
  6
CONTINUOUS
 10
257.0280467727
 20
145.3941628136
  0
VERTEX
  8
0
 62
9
  6
CONTINUOUS
 10
257.0791580255
 20
145.7369482671
  0
VERTEX
  8
0
 62
9
  6
CONTINUOUS
 10
257.229008644
 20
146.0563734729
  0
VERTEX
  8
0
 62
9
  6
CONTINUOUS
 10
257.4673865664
 20
146.3306701286
  0
VERTEX
  8
0
 62
9
  6
CONTINUOUS
 10
257.778046738
 20
146.5411453643
  0
VERTEX
  8
0
 62
9
  6
CONTINUOUS
 10
258.1398181831
 20
146.6734556332
  0
VERTEX
  8
0
 62
9
  6
CONTINUOUS
 10
258.5280467727
 20
146.7185842029
  0
SEQEND
  0
POLYLINE
  8
AXES
 62
9
  6
CONTINUOUS
 66
1
 70
0
  0
VERTEX
  8
AXES
 62
9
  6
CONTINUOUS
 10
257.0280467727
 20
107.9163188872
  0
VERTEX
  8
AXES
 62
9
  6
CONTINUOUS
 10
257.0791580255
 20
107.5735334337
  0
VERTEX
  8
AXES
 62
9
  6
CONTINUOUS
 10
257.229008644
 20
107.2541082279
  0
VERTEX
  8
AXES
 62
9
  6
CONTINUOUS
 10
257.4673865664
 20
106.9798115722
  0
VERTEX
  8
AXES
 62
9
  6
CONTINUOUS
 10
257.778046738
 20
106.7693363364
  0
VERTEX
  8
AXES
 62
9
  6
CONTINUOUS
 10
258.1398181831
 20
106.6370260676
  0
VERTEX
  8
AXES
 62
9
  6
CONTINUOUS
 10
258.5280467727
 20
106.5918974979
  0
SEQEND
  0
LINE
  8
AXES
 62
7
  6
CONTINUOUS
 10
257.0280467727
 20
101.1552408504
 11
257.0280467727
 21
121.6552408504
  0
LINE
  8
0
 62
7
  6
CONTINUOUS
 10
257.0280467727
 20
121.6552408504
 11
257.0280467727
 21
152.1552408504
  0
POLYLINE
  8
0
 62
9
  6
CONTINUOUS
 66
1
 70
0
  0
VERTEX
  8
0
 62
9
  6
CONTINUOUS
 10
257.0280467727
 20
136.9748379615
  0
VERTEX
  8
0
 62
9
  6
CONTINUOUS
 10
257.0791580581
 20
137.3601728242
  0
VERTEX
  8
0
 62
9
  6
CONTINUOUS
 10
257.2290087399
 20
137.7192477003
  0
VERTEX
  8
0
 62
9
  6
CONTINUOUS
 10
257.4673867091
 20
138.0275922405
  0
VERTEX
  8
0
 62
9
  6
CONTINUOUS
 10
257.7780468807
 20
138.264193296
  0
VERTEX
  8
0
 62
9
  6
CONTINUOUS
 10
258.1398182727
 20
138.4129269219
  0
VERTEX
  8
0
 62
9
  6
CONTINUOUS
 10
258.5280467727
 20
138.4636571889
  0
SEQEND
  0
POLYLINE
  8
0
 62
9
  6
CONTINUOUS
 66
1
 70
0
  0
VERTEX
  8
0
 62
9
  6
CONTINUOUS
 10
257.0280467727
 20
135.337516877
  0
VERTEX
  8
0
 62
9
  6
CONTINUOUS
 10
257.0791580333
 20
135.7228516478
  0
VERTEX
  8
0
 62
9
  6
CONTINUOUS
 10
257.2290086671
 20
136.0819264907
  0
VERTEX
  8
0
 62
9
  6
CONTINUOUS
 10
257.467386601
 20
136.3902710487
  0
VERTEX
  8
0
 62
9
  6
CONTINUOUS
 10
257.7780467727
 20
136.6268721496
  0
VERTEX
  8
0
 62
9
  6
CONTINUOUS
 10
258.1398182051
 20
136.7756058195
  0
VERTEX
  8
0
 62
9
  6
CONTINUOUS
 10
258.5280467727
 20
136.8263361045
  0
SEQEND
  0
POLYLINE
  8
0
 62
9
  6
CONTINUOUS
 66
1
 70
0
  0
VERTEX
  8
0
 62
9
  6
CONTINUOUS
 10
257.0280467727
 20
137.4132321966
  0
VERTEX
  8
0
 62
9
  6
CONTINUOUS
 10
257.0791580333
 20
137.7560176759
  0
VERTEX
  8
0
 62
9
  6
CONTINUOUS
 10
257.2290086671
 20
138.0754428912
  0
VERTEX
  8
0
 62
9
  6
CONTINUOUS
 10
257.467386601
 20
138.3497395421
  0
VERTEX
  8
0
 62
9
  6
CONTINUOUS
 10
257.7780467727
 20
138.560214765
  0
VERTEX
  8
0
 62
9
  6
CONTINUOUS
 10
258.1398182051
 20
138.6925250214
  0
VERTEX
  8
0
 62
9
  6
CONTINUOUS
 10
258.5280467727
 20
138.7376535859
  0
SEQEND
  0
POLYLINE
  8
AXES
 62
9
  6
CONTINUOUS
 66
1
 70
0
  0
VERTEX
  8
AXES
 62
9
  6
CONTINUOUS
 10
257.0280467727
 20
115.8972495042
  0
VERTEX
  8
AXES
 62
9
  6
CONTINUOUS
 10
257.0791580333
 20
115.5544640249
  0
VERTEX
  8
AXES
 62
9
  6
CONTINUOUS
 10
257.2290086671
 20
115.2350388095
  0
VERTEX
  8
AXES
 62
9
  6
CONTINUOUS
 10
257.467386601
 20
114.9607421586
  0
VERTEX
  8
AXES
 62
9
  6
CONTINUOUS
 10
257.7780467727
 20
114.7502669357
  0
VERTEX
  8
AXES
 62
9
  6
CONTINUOUS
 10
258.1398182051
 20
114.6179566794
  0
VERTEX
  8
AXES
 62
9
  6
CONTINUOUS
 10
258.5280467727
 20
114.5728281149
  0
SEQEND
  0
POLYLINE
  8
AXES
 62
9
  6
CONTINUOUS
 66
1
 70
0
  0
VERTEX
  8
AXES
 62
9
  6
CONTINUOUS
 10
257.0280467727
 20
116.3356437393
  0
VERTEX
  8
AXES
 62
9
  6
CONTINUOUS
 10
257.0791580581
 20
115.9503088766
  0
VERTEX
  8
AXES
 62
9
  6
CONTINUOUS
 10
257.2290087399
 20
115.5912340004
  0
VERTEX
  8
AXES
 62
9
  6
CONTINUOUS
 10
257.4673867091
 20
115.2828894603
  0
VERTEX
  8
AXES
 62
9
  6
CONTINUOUS
 10
257.7780468807
 20
115.0462884048
  0
VERTEX
  8
AXES
 62
9
  6
CONTINUOUS
 10
258.1398182727
 20
114.8975547788
  0
VERTEX
  8
AXES
 62
9
  6
CONTINUOUS
 10
258.5280467727
 20
114.8468245118
  0
SEQEND
  0
POLYLINE
  8
AXES
 62
9
  6
CONTINUOUS
 66
1
 70
0
  0
VERTEX
  8
AXES
 62
9
  6
CONTINUOUS
 10
257.0280467727
 20
117.9729648237
  0
VERTEX
  8
AXES
 62
9
  6
CONTINUOUS
 10
257.0791580333
 20
117.587630053
  0
VERTEX
  8
AXES
 62
9
  6
CONTINUOUS
 10
257.2290086671
 20
117.22855521
  0
VERTEX
  8
AXES
 62
9
  6
CONTINUOUS
 10
257.467386601
 20
116.920210652
  0
VERTEX
  8
AXES
 62
9
  6
CONTINUOUS
 10
257.7780467727
 20
116.6836095511
  0
VERTEX
  8
AXES
 62
9
  6
CONTINUOUS
 10
258.1398182051
 20
116.5348758813
  0
VERTEX
  8
AXES
 62
9
  6
CONTINUOUS
 10
258.5280467727
 20
116.4841455963
  0
SEQEND
  0
LINE
  8
AXES
 62
9
  6
CONTINUOUS
 10
258.5280467727
 20
116.4841455963
 11
258.5280467727
 21
101.0245072363
  0
LINE
  8
0
 62
9
  6
CONTINUOUS
 10
258.5280467727
 20
136.8263361045
 11
258.5280467727
 21
152.2859744645
  0
LINE
  8
0
 62
9
  6
CONTINUOUS
 10
258.7113130075
 20
153.6552408504
 11
258.7113130075
 21
152.4685433159
  0
LINE
  8
AXES
 62
9
  6
CONTINUOUS
 10
258.7113130075
 20
99.6552408504
 11
258.7113130075
 21
100.8419383848
  0
LINE
  8
AXES
 62
9
  6
CONTINUOUS
 10
258.5280467727
 20
114.5728281149
 11
283.9280467727
 21
114.5728281149
  0
LINE
  8
0
 62
7
  6
CONTINUOUS
 10
260.4280467727
 20
153.6552408504
 11
260.4280467727
 21
153.7552408504
  0
LINE
  8
0
 62
7
  6
CONTINUOUS
 10
260.491876558
 20
153.6552408504
 11
260.491876558
 21
153.7552408504
  0
LINE
  8
0
 62
7
  6
CONTINUOUS
 10
260.6833659136
 20
153.6552408504
 11
260.6833659136
 21
153.7552408504
  0
LINE
  8
0
 62
7
  6
CONTINUOUS
 10
260.8748552748
 20
153.6552408504
 11
260.8748552748
 21
153.7552408504
  0
LINE
  8
0
 62
7
  6
CONTINUOUS
 10
261.130174438
 20
153.6552408504
 11
261.130174438
 21
153.7552408504
  0
LINE
  8
2_FEATURE
 62
7
  6
CONTINUOUS
 10
261.2280467727
 20
138.1552303103
 11
261.2280467727
 21
136.2891032518
  0
LINE
  8
AXES
 62
7
  6
CONTINUOUS
 10
261.2280467727
 20
115.1552513905
 11
261.2280467727
 21
117.021378449
  0
LINE
  8
AXES
 62
9
  6
CONTINUOUS
 10
258.5280467727
 20
114.8468245118
 11
283.9280467727
 21
114.8468245118
  0
LINE
  8
AXES
 62
7
  6
CONTINUOUS
 10
281.2280467727
 20
115.1552408504
 11
277.2280467727
 21
115.1552408504
  0
LINE
  8
AXES
 62
7
  6
CONTINUOUS
 10
265.2280467727
 20
115.1552408504
 11
261.2280467727
 21
115.1552408504
  0
POLYLINE
  8
AXES
 62
7
  6
CONTINUOUS
 66
1
 70
0
  0
VERTEX
  8
AXES
 62
7
  6
CONTINUOUS
 10
265.5379302284
 20
115.960230356
  0
VERTEX
  8
AXES
 62
7
  6
CONTINUOUS
 10
265.9649746277
 20
115.8813694717
  0
VERTEX
  8
AXES
 62
7
  6
CONTINUOUS
 10
266.803243924
 20
115.7744241827
  0
VERTEX
  8
AXES
 62
7
  6
CONTINUOUS
 10
267.7817309724
 20
115.6876768822
  0
VERTEX
  8
AXES
 62
7
  6
CONTINUOUS
 10
268.8687507699
 20
115.6237867274
  0
VERTEX
  8
AXES
 62
7
  6
CONTINUOUS
 10
270.029690654
 20
115.5846777515
  0
VERTEX
  8
AXES
 62
7
  6
CONTINUOUS
 10
271.2280504338
 20
115.571512019
  0
VERTEX
  8
AXES
 62
7
  6
CONTINUOUS
 10
272.4264097555
 20
115.5846779035
  0
VERTEX
  8
AXES
 62
7
  6
CONTINUOUS
 10
273.5873483705
 20
115.6237869837
  0
VERTEX
  8
AXES
 62
7
  6
CONTINUOUS
 10
274.6743664221
 20
115.6876771628
  0
VERTEX
  8
AXES
 62
7
  6
CONTINUOUS
 10
275.6528515969
 20
115.7744243932
  0
VERTEX
  8
AXES
 62
7
  6
CONTINUOUS
 10
276.4911194322
 20
115.8813695504
  0
VERTEX
  8
AXES
 62
7
  6
CONTINUOUS
 10
276.918263186
 20
115.9602487926
  0
SEQEND
  0
LINE
  8
0
 62
7
  6
CONTINUOUS
 10
261.3216637769
 20
153.6552408504
 11
261.3216637769
 21
153.7552408504
  0
LINE
  8
0
 62
7
  6
CONTINUOUS
 10
261.6408127644
 20
153.6552408504
 11
261.6408127644
 21
153.7552408504
  0
LINE
  8
0
 62
7
  6
CONTINUOUS
 10
261.7280467727
 20
99.6552408504
 11
261.7280467727
 21
99.5552408504
  0
LINE
  8
0
 62
7
  6
CONTINUOUS
 10
262.2152807811
 20
153.6552408504
 11
262.2152807811
 21
153.7552408504
  0
LINE
  8
0
 62
7
  6
CONTINUOUS
 10
262.5344296792
 20
153.6552408504
 11
262.5344296792
 21
153.7552408504
  0
LINE
  8
0
 62
7
  6
CONTINUOUS
 10
262.7259191969
 20
153.6552408504
 11
262.7259191969
 21
153.7552408504
  0
LINE
  8
0
 62
7
  6
CONTINUOUS
 10
262.9812383154
 20
153.6552408504
 11
262.9812383154
 21
153.7552408504
  0
LINE
  8
0
 62
7
  6
CONTINUOUS
 10
263.1727276542
 20
153.6552408504
 11
263.1727276542
 21
153.7552408504
  0
LINE
  8
AXES
 62
7
  6
CONTINUOUS
 10
261.2280467727
 20
117.021378449
 11
266.7584868084
 21
117.021378449
  0
LINE
  8
AXES
 62
7
  6
CONTINUOUS
 10
275.6976067371
 20
117.021378449
 11
281.2280467727
 21
117.021378449
  0
POLYLINE
  8
AXES
 62
7
  6
CONTINUOUS
 66
1
 70
0
  0
VERTEX
  8
AXES
 62
7
  6
CONTINUOUS
 10
275.6976067371
 20
117.021378449
  0
VERTEX
  8
AXES
 62
7
  6
CONTINUOUS
 10
274.7739586337
 20
117.1055339372
  0
VERTEX
  8
AXES
 62
7
  6
CONTINUOUS
 10
273.7488849297
 20
117.1691379689
  0
VERTEX
  8
AXES
 62
7
  6
CONTINUOUS
 10
272.6520732857
 20
117.2104500565
  0
VERTEX
  8
AXES
 62
7
  6
CONTINUOUS
 10
271.5148808356
 20
117.2283549605
  0
VERTEX
  8
AXES
 62
7
  6
CONTINUOUS
 10
270.941207926
 20
117.2283549355
  0
VERTEX
  8
AXES
 62
7
  6
CONTINUOUS
 10
269.8040160418
 20
117.2104499448
  0
VERTEX
  8
AXES
 62
7
  6
CONTINUOUS
 10
268.707205586
 20
117.1691378192
  0
VERTEX
  8
AXES
 62
7
  6
CONTINUOUS
 10
267.682133385
 20
117.1055338214
  0
VERTEX
  8
AXES
 62
7
  6
CONTINUOUS
 10
266.7584868084
 20
117.021378449
  0
SEQEND
  0
LINE
  8
0
 62
7
  6
CONTINUOUS
 10
263.3642169931
 20
153.6552408504
 11
263.3642169931
 21
153.7552408504
  0
LINE
  8
0
 62
7
  6
CONTINUOUS
 10
263.4280467727
 20
153.6552408504
 11
263.4280467727
 21
153.7552408504
  0
LINE
  8
0
 62
7
  6
CONTINUOUS
 10
264.4280467727
 20
153.6552408504
 11
264.4280467727
 21
153.7552408504
  0
LINE
  8
2_FEATURE
 62
7
  6
CONTINUOUS
 10
265.2280467727
 20
138.1552344022
 11
265.2280467727
 21
137.6734155114
  0
LINE
  8
AXES
 62
7
  6
CONTINUOUS
 10
265.2280467727
 20
115.1552472985
 11
265.2280467727
 21
115.6370661893
  0
LINE
  8
0
 62
7
  6
CONTINUOUS
 10
265.8080467727
 20
153.6552408504
 11
265.8080467727
 21
153.7552408504
  0
LINE
  8
0
 62
7
  6
CONTINUOUS
 10
266.1280467727
 20
153.6552408504
 11
266.1280467727
 21
153.7552408504
  0
LINE
  8
0
 62
7
  6
CONTINUOUS
 10
266.2280467727
 20
99.6552408504
 11
266.2280467727
 21
99.5552408504
  0
POLYLINE
  8
2_FEATURE
 62
7
  6
CONTINUOUS
 66
1
 70
0
  0
VERTEX
  8
2_FEATURE
 62
7
  6
CONTINUOUS
 10
277.1615145147
 20
137.559619307
  0
VERTEX
  8
2_FEATURE
 62
7
  6
CONTINUOUS
 10
276.6555183765
 20
137.1240668693
  0
VERTEX
  8
2_FEATURE
 62
7
  6
CONTINUOUS
 10
275.6976067371
 20
136.2891032518
  0
SEQEND
  0
LINE
  8
AXES
 62
7
  6
CONTINUOUS
 10
277.1615145147
 20
115.7508623937
 11
276.6555183765
 21
116.1864148315
  0
LINE
  8
AXES
 62
7
  6
CONTINUOUS
 10
276.6555183765
 20
116.1864148315
 11
275.6976067371
 21
117.021378449
  0
LINE
  8
0
 62
7
  6
CONTINUOUS
 10
267.6580467727
 20
153.6552408504
 11
267.6580467727
 21
153.7552408504
  0
LINE
  8
AXES
 62
9
  6
CONTINUOUS
 10
269.9780467727
 20
99.6552408504
 11
269.9780467727
 21
105.3728273239
  0
LINE
  8
2_FEATURE
 62
9
  6
CONTINUOUS
 10
269.9780467727
 20
147.9376543768
 11
269.9780467727
 21
153.6552408504
  0
LINE
  8
1_AXIS
 62
2
  6
CENTER
 10
271.2280467727
 20
105.7052408504
 11
271.2280467727
 21
136.3315334444
  0
LINE
  8
DEFAULT_1
 62
2
  6
CENTER
 10
271.2280467727
 20
136.6552408504
 11
271.2280467727
 21
147.6052408504
  0
LINE
  8
2_FEATURE
 62
7
  6
CONTINUOUS
 10
271.2780467727
 20
152.3552408504
 11
271.2780467727
 21
147.824351587
  0
LINE
  8
AXES
 62
7
  6
CONTINUOUS
 10
271.2780467727
 20
105.4861297895
 11
271.2780467727
 21
100.9552408504
  0
LINE
  8
DEFAULT_1
 62
2
  6
CENTER
 10
254.0280467727
 20
126.6552408504
 11
288.4280467727
 21
126.6552408504
  0
POLYLINE
  8
2_FEATURE
 62
9
  6
CONTINUOUS
 66
1
 70
0
  0
VERTEX
  8
2_FEATURE
 62
9
  6
CONTINUOUS
 10
269.9780467727
 20
147.9376543768
  0
VERTEX
  8
2_FEATURE
 62
9
  6
CONTINUOUS
 10
270.0140769401
 20
147.5689372266
  0
VERTEX
  8
2_FEATURE
 62
9
  6
CONTINUOUS
 10
270.0599945007
 20
147.3814145119
  0
VERTEX
  8
2_FEATURE
 62
9
  6
CONTINUOUS
 10
270.2073387502
 20
147.0120788374
  0
SEQEND
  0
POLYLINE
  8
2_FEATURE
 62
9
  6
CONTINUOUS
 66
1
 70
0
  0
VERTEX
  8
2_FEATURE
 62
9
  6
CONTINUOUS
 10
271.2780467727
 20
147.8243519112
  0
VERTEX
  8
2_FEATURE
 62
9
  6
CONTINUOUS
 10
271.2848083978
 20
147.7118562749
  0
VERTEX
  8
2_FEATURE
 62
9
  6
CONTINUOUS
 10
271.2934184852
 20
147.6462700112
  0
VERTEX
  8
2_FEATURE
 62
9
  6
CONTINUOUS
 10
271.3210390185
 20
147.4908595344
  0
SEQEND
  0
LINE
  8
2_FEATURE
 62
9
  6
CONTINUOUS
 10
271.5780467727
 20
147.6552408504
 11
271.5780467727
 21
146.7185842029
  0
LINE
  8
AXES
 62
9
  6
CONTINUOUS
 10
271.5780467727
 20
105.6552408504
 11
271.5780467727
 21
106.5918974979
  0
POLYLINE
  8
AXES
 62
9
  6
CONTINUOUS
 66
1
 70
0
  0
VERTEX
  8
AXES
 62
9
  6
CONTINUOUS
 10
271.2780467727
 20
105.4861297895
  0
VERTEX
  8
AXES
 62
9
  6
CONTINUOUS
 10
271.2848083978
 20
105.5986254258
  0
VERTEX
  8
AXES
 62
9
  6
CONTINUOUS
 10
271.2934184852
 20
105.6642116895
  0
VERTEX
  8
AXES
 62
9
  6
CONTINUOUS
 10
271.3210390185
 20
105.8196221664
  0
SEQEND
  0
POLYLINE
  8
AXES
 62
9
  6
CONTINUOUS
 66
1
 70
0
  0
VERTEX
  8
AXES
 62
9
  6
CONTINUOUS
 10
269.9780467727
 20
105.3728273239
  0
VERTEX
  8
AXES
 62
9
  6
CONTINUOUS
 10
270.0140769401
 20
105.7415444741
  0
VERTEX
  8
AXES
 62
9
  6
CONTINUOUS
 10
270.0599945007
 20
105.9290671889
  0
VERTEX
  8
AXES
 62
9
  6
CONTINUOUS
 10
270.2073387502
 20
106.2984028634
  0
SEQEND
  0
POLYLINE
  8
2_FEATURE
 62
7
  6
CONTINUOUS
 66
1
 70
0
  0
VERTEX
  8
2_FEATURE
 62
7
  6
CONTINUOUS
 10
277.2280467727
 20
137.6734155114
  0
VERTEX
  8
2_FEATURE
 62
7
  6
CONTINUOUS
 10
277.2110951272
 20
137.6163250851
  0
VERTEX
  8
2_FEATURE
 62
7
  6
CONTINUOUS
 10
277.1615145147
 20
137.559619307
  0
SEQEND
  0
POLYLINE
  8
AXES
 62
7
  6
CONTINUOUS
 66
1
 70
0
  0
VERTEX
  8
AXES
 62
7
  6
CONTINUOUS
 10
265.2945790308
 20
115.7508623937
  0
VERTEX
  8
AXES
 62
7
  6
CONTINUOUS
 10
265.244947663
 20
115.6940697493
  0
VERTEX
  8
AXES
 62
7
  6
CONTINUOUS
 10
265.2280467727
 20
115.6370661893
  0
SEQEND
  0
POLYLINE
  8
AXES
 62
7
  6
CONTINUOUS
 66
1
 70
0
  0
VERTEX
  8
AXES
 62
7
  6
CONTINUOUS
 10
266.7584868084
 20
117.021378449
  0
VERTEX
  8
AXES
 62
7
  6
CONTINUOUS
 10
265.7739988963
 20
116.1633327712
  0
VERTEX
  8
AXES
 62
7
  6
CONTINUOUS
 10
265.2945790308
 20
115.7508623937
  0
SEQEND
  0
LINE
  8
2_FEATURE
 62
7
  6
CONTINUOUS
 10
266.7584868084
 20
136.2891032518
 11
265.7739988963
 21
137.1471489296
  0
POLYLINE
  8
2_FEATURE
 62
7
  6
CONTINUOUS
 66
1
 70
0
  0
VERTEX
  8
2_FEATURE
 62
7
  6
CONTINUOUS
 10
265.2945790308
 20
137.559619307
  0
VERTEX
  8
2_FEATURE
 62
7
  6
CONTINUOUS
 10
265.244947663
 20
137.6164119514
  0
VERTEX
  8
2_FEATURE
 62
7
  6
CONTINUOUS
 10
265.2280467727
 20
137.6734155114
  0
SEQEND
  0
POLYLINE
  8
AXES
 62
7
  6
CONTINUOUS
 66
1
 70
0
  0
VERTEX
  8
AXES
 62
7
  6
CONTINUOUS
 10
277.2280467727
 20
115.6370661893
  0
VERTEX
  8
AXES
 62
7
  6
CONTINUOUS
 10
277.2110951272
 20
115.6941566157
  0
VERTEX
  8
AXES
 62
7
  6
CONTINUOUS
 10
277.1615145147
 20
115.7508623937
  0
SEQEND
  0
LINE
  8
2_FEATURE
 62
7
  6
CONTINUOUS
 10
277.2280467727
 20
138.1552344022
 11
277.2280467727
 21
137.6734155114
  0
LINE
  8
AXES
 62
7
  6
CONTINUOUS
 10
277.2280467727
 20
115.1552472985
 11
277.2280467727
 21
115.6370661893
  0
LINE
  8
AXES
 62
9
  6
CONTINUOUS
 10
271.3210390185
 20
105.8196221664
 11
271.3264456024
 21
105.841308366
  0
POLYLINE
  8
AXES
 62
9
  6
CONTINUOUS
 66
1
 70
0
  0
VERTEX
  8
AXES
 62
9
  6
CONTINUOUS
 10
271.3264456024
 20
105.841308366
  0
VERTEX
  8
AXES
 62
9
  6
CONTINUOUS
 10
271.3913269004
 20
106.0668350884
  0
VERTEX
  8
AXES
 62
9
  6
CONTINUOUS
 10
271.4753897237
 20
106.3188755611
  0
VERTEX
  8
AXES
 62
9
  6
CONTINUOUS
 10
271.5780467727
 20
106.5918974077
  0
SEQEND
  0
POLYLINE
  8
0
 62
9
  6
CONTINUOUS
 66
1
 70
0
  0
VERTEX
  8
0
 62
9
  6
CONTINUOUS
 10
283.9280467727
 20
136.8263361045
  0
VERTEX
  8
0
 62
9
  6
CONTINUOUS
 10
283.785171111
 20
136.5930897585
  0
VERTEX
  8
0
 62
9
  6
CONTINUOUS
 10
283.3599195932
 20
136.3651552402
  0
VERTEX
  8
0
 62
9
  6
CONTINUOUS
 10
282.6623718555
 20
136.1477227287
  0
VERTEX
  8
0
 62
9
  6
CONTINUOUS
 10
281.7089399761
 20
135.9456970707
  0
VERTEX
  8
0
 62
9
  6
CONTINUOUS
 10
280.521847074
 20
135.7635914326
  0
VERTEX
  8
0
 62
9
  6
CONTINUOUS
 10
279.1284347509
 20
135.6054236927
  0
VERTEX
  8
0
 62
9
  6
CONTINUOUS
 10
277.5603995638
 20
135.4746387073
  0
VERTEX
  8
0
 62
9
  6
CONTINUOUS
 10
275.8529680453
 20
135.3740480792
  0
VERTEX
  8
0
 62
9
  6
CONTINUOUS
 10
274.0440749173
 20
135.3057893937
  0
VERTEX
  8
0
 62
9
  6
CONTINUOUS
 10
272.1735566787
 20
135.2712998609
  0
VERTEX
  8
0
 62
9
  6
CONTINUOUS
 10
270.2823751998
 20
135.271301355
  0
VERTEX
  8
0
 62
9
  6
CONTINUOUS
 10
268.4118642859
 20
135.3057937396
  0
VERTEX
  8
0
 62
9
  6
CONTINUOUS
 10
266.6029853379
 20
135.3740548706
  0
VERTEX
  8
0
 62
9
  6
CONTINUOUS
 10
264.8955739893
 20
135.4746472714
  0
VERTEX
  8
0
 62
9
  6
CONTINUOUS
 10
263.3275632483
 20
135.6054331339
  0
VERTEX
  8
0
 62
9
  6
CONTINUOUS
 10
261.934178204
 20
135.7636005902
  0
VERTEX
  8
0
 62
9
  6
CONTINUOUS
 10
260.7471114233
 20
135.9457048384
  0
VERTEX
  8
0
 62
9
  6
CONTINUOUS
 10
259.7937040745
 20
136.1477274813
  0
VERTEX
  8
0
 62
9
  6
CONTINUOUS
 10
259.0961723215
 20
136.365156299
  0
VERTEX
  8
0
 62
9
  6
CONTINUOUS
 10
258.6709283391
 20
136.5930857434
  0
VERTEX
  8
0
 62
9
  6
CONTINUOUS
 10
258.5280467727
 20
136.8263361045
  0
SEQEND
  0
LINE
  8
2_FEATURE
 62
7
  6
CONTINUOUS
 10
265.7739988963
 20
137.1471489296
 11
265.2945790308
 21
137.559619307
  0
POLYLINE
  8
AXES
 62
9
  6
CONTINUOUS
 66
1
 70
0
  0
VERTEX
  8
AXES
 62
9
  6
CONTINUOUS
 10
283.9280467727
 20
116.4841455963
  0
VERTEX
  8
AXES
 62
9
  6
CONTINUOUS
 10
283.785171111
 20
116.7173919422
  0
VERTEX
  8
AXES
 62
9
  6
CONTINUOUS
 10
283.3599195932
 20
116.9453264606
  0
VERTEX
  8
AXES
 62
9
  6
CONTINUOUS
 10
282.6623718555
 20
117.162758972
  0
VERTEX
  8
AXES
 62
9
  6
CONTINUOUS
 10
281.7089399761
 20
117.3647846301
  0
VERTEX
  8
AXES
 62
9
  6
CONTINUOUS
 10
280.521847074
 20
117.5468902682
  0
VERTEX
  8
AXES
 62
9
  6
CONTINUOUS
 10
279.1284347509
 20
117.7050580081
  0
VERTEX
  8
AXES
 62
9
  6
CONTINUOUS
 10
277.5603995638
 20
117.8358429935
  0
VERTEX
  8
AXES
 62
9
  6
CONTINUOUS
 10
275.8529680453
 20
117.9364336215
  0
VERTEX
  8
AXES
 62
9
  6
CONTINUOUS
 10
274.0440749173
 20
118.0046923071
  0
VERTEX
  8
AXES
 62
9
  6
CONTINUOUS
 10
272.1735566787
 20
118.0391818399
  0
VERTEX
  8
AXES
 62
9
  6
CONTINUOUS
 10
270.2823751998
 20
118.0391803457
  0
VERTEX
  8
AXES
 62
9
  6
CONTINUOUS
 10
268.4118642859
 20
118.0046879611
  0
VERTEX
  8
AXES
 62
9
  6
CONTINUOUS
 10
266.6029853379
 20
117.9364268302
  0
VERTEX
  8
AXES
 62
9
  6
CONTINUOUS
 10
264.8955739893
 20
117.8358344294
  0
VERTEX
  8
AXES
 62
9
  6
CONTINUOUS
 10
263.3275632483
 20
117.7050485669
  0
VERTEX
  8
AXES
 62
9
  6
CONTINUOUS
 10
261.934178204
 20
117.5468811106
  0
VERTEX
  8
AXES
 62
9
  6
CONTINUOUS
 10
260.7471114233
 20
117.3647768624
  0
VERTEX
  8
AXES
 62
9
  6
CONTINUOUS
 10
259.7937040745
 20
117.1627542194
  0
VERTEX
  8
AXES
 62
9
  6
CONTINUOUS
 10
259.0961723215
 20
116.9453254018
  0
VERTEX
  8
AXES
 62
9
  6
CONTINUOUS
 10
258.6709283391
 20
116.7173959574
  0
VERTEX
  8
AXES
 62
9
  6
CONTINUOUS
 10
258.5280467727
 20
116.4841455963
  0
SEQEND
  0
POLYLINE
  8
2_FEATURE
 62
9
  6
CONTINUOUS
 66
1
 70
0
  0
VERTEX
  8
2_FEATURE
 62
9
  6
CONTINUOUS
 10
271.3264456024
 20
147.4691733348
  0
VERTEX
  8
2_FEATURE
 62
9
  6
CONTINUOUS
 10
271.3913269004
 20
147.2436466124
  0
VERTEX
  8
2_FEATURE
 62
9
  6
CONTINUOUS
 10
271.4753897237
 20
146.9916061396
  0
VERTEX
  8
2_FEATURE
 62
9
  6
CONTINUOUS
 10
271.5780467727
 20
146.7185842931
  0
SEQEND
  0
LINE
  8
2_FEATURE
 62
9
  6
CONTINUOUS
 10
271.3210390185
 20
147.4908595344
 11
271.3264456024
 21
147.4691733348
  0
POLYLINE
  8
0
 62
9
  6
CONTINUOUS
 66
1
 70
0
  0
VERTEX
  8
0
 62
9
  6
CONTINUOUS
 10
285.4280467727
 20
135.337516877
  0
VERTEX
  8
0
 62
9
  6
CONTINUOUS
 10
285.2682885959
 20
135.1042651756
  0
VERTEX
  8
0
 62
9
  6
CONTINUOUS
 10
284.7928140021
 20
134.876334592
  0
VERTEX
  8
0
 62
9
  6
CONTINUOUS
 10
284.0128900116
 20
134.6589051175
  0
VERTEX
  8
0
 62
9
  6
CONTINUOUS
 10
282.9468640131
 20
134.4568815173
  0
VERTEX
  8
0
 62
9
  6
CONTINUOUS
 10
281.6195810613
 20
134.2747769829
  0
VERTEX
  8
0
 62
9
  6
CONTINUOUS
 10
280.0616096454
 20
134.1166094897
  0
VERTEX
  8
0
 62
9
  6
CONTINUOUS
 10
278.3083880935
 20
133.9858240423
  0
VERTEX
  8
0
 62
9
  6
CONTINUOUS
 10
276.3993022024
 20
133.885232423
  0
VERTEX
  8
0
 62
9
  6
CONTINUOUS
 10
274.376766395
 20
133.8169724089
  0
VERTEX
  8
0
 62
9
  6
CONTINUOUS
 10
272.2853220268
 20
133.7824813998
  0
VERTEX
  8
0
 62
9
  6
CONTINUOUS
 10
270.1707692159
 20
133.782481443
  0
VERTEX
  8
0
 62
9
  6
CONTINUOUS
 10
268.0793243382
 20
133.8169725492
  0
VERTEX
  8
0
 62
9
  6
CONTINUOUS
 10
266.0567876797
 20
133.8852326876
  0
VERTEX
  8
0
 62
9
  6
CONTINUOUS
 10
264.1477009928
 20
133.9858244561
  0
VERTEX
  8
0
 62
9
  6
CONTINUOUS
 10
262.3944787753
 20
134.1166100784
  0
VERTEX
  8
0
 62
9
  6
CONTINUOUS
 10
260.8365077516
 20
134.2747776762
  0
VERTEX
  8
0
 62
9
  6
CONTINUOUS
 10
259.5092247637
 20
134.4568823964
  0
VERTEX
  8
0
 62
9
  6
CONTINUOUS
 10
258.443201071
 20
134.658905756
  0
VERTEX
  8
0
 62
9
  6
CONTINUOUS
 10
257.663277283
 20
134.8763354237
  0
VERTEX
  8
0
 62
9
  6
CONTINUOUS
 10
257.1878041145
 20
135.1042657267
  0
VERTEX
  8
0
 62
9
  6
CONTINUOUS
 10
257.0280467727
 20
135.337516877
  0
SEQEND
  0
POLYLINE
  8
AXES
 62
9
  6
CONTINUOUS
 66
1
 70
0
  0
VERTEX
  8
AXES
 62
9
  6
CONTINUOUS
 10
285.4280467727
 20
117.9729648237
  0
VERTEX
  8
AXES
 62
9
  6
CONTINUOUS
 10
285.2682885959
 20
118.2062165252
  0
VERTEX
  8
AXES
 62
9
  6
CONTINUOUS
 10
284.7928140021
 20
118.4341471088
  0
VERTEX
  8
AXES
 62
9
  6
CONTINUOUS
 10
284.0128900116
 20
118.6515765833
  0
VERTEX
  8
AXES
 62
9
  6
CONTINUOUS
 10
282.9468640131
 20
118.8536001834
  0
VERTEX
  8
AXES
 62
9
  6
CONTINUOUS
 10
281.6195810613
 20
119.0357047179
  0
VERTEX
  8
AXES
 62
9
  6
CONTINUOUS
 10
280.0616096454
 20
119.1938722111
  0
VERTEX
  8
AXES
 62
9
  6
CONTINUOUS
 10
278.3083880935
 20
119.3246576584
  0
VERTEX
  8
AXES
 62
9
  6
CONTINUOUS
 10
276.3993022024
 20
119.4252492778
  0
VERTEX
  8
AXES
 62
9
  6
CONTINUOUS
 10
274.376766395
 20
119.4935092918
  0
VERTEX
  8
AXES
 62
9
  6
CONTINUOUS
 10
272.2853220268
 20
119.528000301
  0
VERTEX
  8
AXES
 62
9
  6
CONTINUOUS
 10
270.1707692159
 20
119.5280002578
  0
VERTEX
  8
AXES
 62
9
  6
CONTINUOUS
 10
268.0793243382
 20
119.4935091516
  0
VERTEX
  8
AXES
 62
9
  6
CONTINUOUS
 10
266.0567876797
 20
119.4252490131
  0
VERTEX
  8
AXES
 62
9
  6
CONTINUOUS
 10
264.1477009928
 20
119.3246572447
  0
VERTEX
  8
AXES
 62
9
  6
CONTINUOUS
 10
262.3944787753
 20
119.1938716223
  0
VERTEX
  8
AXES
 62
9
  6
CONTINUOUS
 10
260.8365077516
 20
119.0357040246
  0
VERTEX
  8
AXES
 62
9
  6
CONTINUOUS
 10
259.5092247637
 20
118.8535993044
  0
VERTEX
  8
AXES
 62
9
  6
CONTINUOUS
 10
258.443201071
 20
118.6515759447
  0
VERTEX
  8
AXES
 62
9
  6
CONTINUOUS
 10
257.663277283
 20
118.434146277
  0
VERTEX
  8
AXES
 62
9
  6
CONTINUOUS
 10
257.1878041145
 20
118.206215974
  0
VERTEX
  8
AXES
 62
9
  6
CONTINUOUS
 10
257.0280467727
 20
117.9729648237
  0
SEQEND
  0
LINE
  8
2_FEATURE
 62
7
  6
CONTINUOUS
 10
281.2280467727
 20
138.1552303103
 11
281.2280467727
 21
136.2891032518
  0
LINE
  8
AXES
 62
7
  6
CONTINUOUS
 10
281.2280467727
 20
115.1552513905
 11
281.2280467727
 21
117.021378449
  0
LINE
  8
AXES
 62
9
  6
CONTINUOUS
 10
270.2073387502
 20
106.2984028634
 11
270.236173864
 21
106.3531599428
  0
POLYLINE
  8
2_FEATURE
 62
7
  6
CONTINUOUS
 66
1
 70
0
  0
VERTEX
  8
2_FEATURE
 62
7
  6
CONTINUOUS
 10
275.6976067371
 20
136.2891032518
  0
VERTEX
  8
2_FEATURE
 62
7
  6
CONTINUOUS
 10
274.7739586337
 20
136.2049477636
  0
VERTEX
  8
2_FEATURE
 62
7
  6
CONTINUOUS
 10
273.7488849297
 20
136.1413437318
  0
VERTEX
  8
2_FEATURE
 62
7
  6
CONTINUOUS
 10
272.6520732857
 20
136.1000316442
  0
VERTEX
  8
2_FEATURE
 62
7
  6
CONTINUOUS
 10
271.5148808356
 20
136.0821267403
  0
VERTEX
  8
2_FEATURE
 62
7
  6
CONTINUOUS
 10
270.941207926
 20
136.0821267652
  0
VERTEX
  8
2_FEATURE
 62
7
  6
CONTINUOUS
 10
269.8040160418
 20
136.100031756
  0
VERTEX
  8
2_FEATURE
 62
7
  6
CONTINUOUS
 10
268.707205586
 20
136.1413438816
  0
VERTEX
  8
2_FEATURE
 62
7
  6
CONTINUOUS
 10
267.682133385
 20
136.2049478793
  0
VERTEX
  8
2_FEATURE
 62
7
  6
CONTINUOUS
 10
266.7584868084
 20
136.2891032518
  0
SEQEND
  0
LINE
  8
2_FEATURE
 62
7
  6
CONTINUOUS
 10
261.2280467727
 20
136.2891032518
 11
266.7584868084
 21
136.2891032518
  0
LINE
  8
2_FEATURE
 62
7
  6
CONTINUOUS
 10
275.6976067371
 20
136.2891032518
 11
281.2280467727
 21
136.2891032518
  0
LINE
  8
2_FEATURE
 62
9
  6
CONTINUOUS
 10
270.2073387502
 20
147.0120788374
 11
270.236173864
 21
146.9573217579
  0
POLYLINE
  8
2_FEATURE
 62
7
  6
CONTINUOUS
 66
1
 70
0
  0
VERTEX
  8
2_FEATURE
 62
7
  6
CONTINUOUS
 10
265.5379302284
 20
137.3502513447
  0
VERTEX
  8
2_FEATURE
 62
7
  6
CONTINUOUS
 10
265.9649746277
 20
137.429112229
  0
VERTEX
  8
2_FEATURE
 62
7
  6
CONTINUOUS
 10
266.803243924
 20
137.5360575181
  0
VERTEX
  8
2_FEATURE
 62
7
  6
CONTINUOUS
 10
267.7817309724
 20
137.6228048185
  0
VERTEX
  8
2_FEATURE
 62
7
  6
CONTINUOUS
 10
268.8687507699
 20
137.6866949734
  0
VERTEX
  8
2_FEATURE
 62
7
  6
CONTINUOUS
 10
270.029690654
 20
137.7258039493
  0
VERTEX
  8
2_FEATURE
 62
7
  6
CONTINUOUS
 10
271.2280504338
 20
137.7389696817
  0
VERTEX
  8
2_FEATURE
 62
7
  6
CONTINUOUS
 10
272.4264097555
 20
137.7258037972
  0
VERTEX
  8
2_FEATURE
 62
7
  6
CONTINUOUS
 10
273.5873483705
 20
137.6866947171
  0
VERTEX
  8
2_FEATURE
 62
7
  6
CONTINUOUS
 10
274.6743664221
 20
137.6228045379
  0
VERTEX
  8
2_FEATURE
 62
7
  6
CONTINUOUS
 10
275.6528515969
 20
137.5360573076
  0
VERTEX
  8
2_FEATURE
 62
7
  6
CONTINUOUS
 10
276.4911194322
 20
137.4291121504
  0
VERTEX
  8
2_FEATURE
 62
7
  6
CONTINUOUS
 10
276.918263186
 20
137.3502329082
  0
SEQEND
  0
LINE
  8
2_FEATURE
 62
7
  6
CONTINUOUS
 10
261.2280467727
 20
138.1552408504
 11
265.2280467727
 21
138.1552408504
  0
LINE
  8
2_FEATURE
 62
7
  6
CONTINUOUS
 10
277.2280467727
 20
138.1552408504
 11
281.2280467727
 21
138.1552408504
  0
LINE
  8
0
 62
9
  6
CONTINUOUS
 10
258.5280467727
 20
138.4636571889
 11
283.9280467727
 21
138.4636571889
  0
LINE
  8
0
 62
9
  6
CONTINUOUS
 10
258.5280467727
 20
138.7376535859
 11
283.9280467727
 21
138.7376535859
  0
LINE
  8
0
 62
9
  6
CONTINUOUS
 10
283.9280467727
 20
147.6552408504
 11
283.9280467727
 21
136.8263361045
  0
LINE
  8
AXES
 62
9
  6
CONTINUOUS
 10
283.9280467727
 20
105.6552408504
 11
283.9280467727
 21
116.4841455963
  0
LINE
  8
0
 62
7
  6
CONTINUOUS
 10
285.4280467727
 20
146.1552408504
 11
285.4280467727
 21
117.9729648237
  0
LINE
  8
AXES
 62
7
  6
CONTINUOUS
 10
285.4280467727
 20
107.1552408504
 11
285.4280467727
 21
121.6552408504
  0
LINE
  8
2_FEATURE
 62
7
  6
CONTINUOUS
 10
285.4280467727
 20
121.6552408504
 11
285.4280467727
 21
131.6552408504
  0
POLYLINE
  8
AXES
 62
9
  6
CONTINUOUS
 66
1
 70
0
  0
VERTEX
  8
AXES
 62
9
  6
CONTINUOUS
 10
271.2780467727
 20
105.4861297895
  0
VERTEX
  8
AXES
 62
9
  6
CONTINUOUS
 10
271.2648146835
 20
105.4700051915
  0
VERTEX
  8
AXES
 62
9
  6
CONTINUOUS
 10
271.1605686548
 20
105.4390623005
  0
VERTEX
  8
AXES
 62
9
  6
CONTINUOUS
 10
270.9605218291
 20
105.4119325121
  0
VERTEX
  8
AXES
 62
9
  6
CONTINUOUS
 10
270.8293664434
 20
105.4005015484
  0
VERTEX
  8
AXES
 62
9
  6
CONTINUOUS
 10
270.5180869817
 20
105.383066262
  0
VERTEX
  8
AXES
 62
9
  6
CONTINUOUS
 10
270.1630563647
 20
105.3739805794
  0
VERTEX
  8
AXES
 62
9
  6
CONTINUOUS
 10
269.9780467727
 20
105.3728273241
  0
SEQEND
  0
POLYLINE
  8
2_FEATURE
 62
9
  6
CONTINUOUS
 66
1
 70
0
  0
VERTEX
  8
2_FEATURE
 62
9
  6
CONTINUOUS
 10
271.2780467727
 20
147.8243519112
  0
VERTEX
  8
2_FEATURE
 62
9
  6
CONTINUOUS
 10
271.2648146835
 20
147.8404765092
  0
VERTEX
  8
2_FEATURE
 62
9
  6
CONTINUOUS
 10
271.1605686548
 20
147.8714194003
  0
VERTEX
  8
2_FEATURE
 62
9
  6
CONTINUOUS
 10
270.9605218291
 20
147.8985491887
  0
VERTEX
  8
2_FEATURE
 62
9
  6
CONTINUOUS
 10
270.8293664434
 20
147.9099801524
  0
VERTEX
  8
2_FEATURE
 62
9
  6
CONTINUOUS
 10
270.5180869817
 20
147.9274154388
  0
VERTEX
  8
2_FEATURE
 62
9
  6
CONTINUOUS
 10
270.1630563647
 20
147.9365011213
  0
VERTEX
  8
2_FEATURE
 62
9
  6
CONTINUOUS
 10
269.9780467727
 20
147.9376543767
  0
SEQEND
  0
POLYLINE
  8
AXES
 62
9
  6
CONTINUOUS
 66
1
 70
0
  0
VERTEX
  8
AXES
 62
9
  6
CONTINUOUS
 10
285.4280467727
 20
117.9729648237
  0
VERTEX
  8
AXES
 62
9
  6
CONTINUOUS
 10
285.3769355097
 20
117.587630044
  0
VERTEX
  8
AXES
 62
9
  6
CONTINUOUS
 10
285.2270848699
 20
117.2285551955
  0
VERTEX
  8
AXES
 62
9
  6
CONTINUOUS
 10
284.9887069296
 20
116.9202106373
  0
VERTEX
  8
AXES
 62
9
  6
CONTINUOUS
 10
284.6780467552
 20
116.6836095411
  0
VERTEX
  8
AXES
 62
9
  6
CONTINUOUS
 10
284.3162753273
 20
116.5348758778
  0
VERTEX
  8
AXES
 62
9
  6
CONTINUOUS
 10
283.9280467727
 20
116.4841455963
  0
SEQEND
  0
POLYLINE
  8
AXES
 62
9
  6
CONTINUOUS
 66
1
 70
0
  0
VERTEX
  8
AXES
 62
9
  6
CONTINUOUS
 10
285.4280467727
 20
116.3356437393
  0
VERTEX
  8
AXES
 62
9
  6
CONTINUOUS
 10
285.3769355122
 20
115.9503089685
  0
VERTEX
  8
AXES
 62
9
  6
CONTINUOUS
 10
285.2270848784
 20
115.5912341256
  0
VERTEX
  8
AXES
 62
9
  6
CONTINUOUS
 10
284.9887069445
 20
115.2828895676
  0
VERTEX
  8
AXES
 62
9
  6
CONTINUOUS
 10
284.6780467727
 20
115.0462884667
  0
VERTEX
  8
AXES
 62
9
  6
CONTINUOUS
 10
284.3162753404
 20
114.8975547968
  0
VERTEX
  8
AXES
 62
9
  6
CONTINUOUS
 10
283.9280467727
 20
114.8468245118
  0
SEQEND
  0
POLYLINE
  8
AXES
 62
9
  6
CONTINUOUS
 66
1
 70
0
  0
VERTEX
  8
AXES
 62
9
  6
CONTINUOUS
 10
285.4280467727
 20
115.8972495042
  0
VERTEX
  8
AXES
 62
9
  6
CONTINUOUS
 10
285.3769354731
 20
115.554463896
  0
VERTEX
  8
AXES
 62
9
  6
CONTINUOUS
 10
285.2270847635
 20
115.2350386337
  0
VERTEX
  8
AXES
 62
9
  6
CONTINUOUS
 10
284.9887067734
 20
114.9607420076
  0
VERTEX
  8
AXES
 62
9
  6
CONTINUOUS
 10
284.6780466014
 20
114.7502668484
  0
VERTEX
  8
AXES
 62
9
  6
CONTINUOUS
 10
284.3162752327
 20
114.6179566539
  0
VERTEX
  8
AXES
 62
9
  6
CONTINUOUS
 10
283.9280467727
 20
114.5728281149
  0
SEQEND
  0
POLYLINE
  8
AXES
 62
9
  6
CONTINUOUS
 66
1
 70
0
  0
VERTEX
  8
AXES
 62
9
  6
CONTINUOUS
 10
271.3210390185
 20
105.8196221664
  0
VERTEX
  8
AXES
 62
9
  6
CONTINUOUS
 10
271.3880391934
 20
105.8879705246
  0
VERTEX
  8
AXES
 62
9
  6
CONTINUOUS
 10
271.4771687763
 20
105.932447444
  0
VERTEX
  8
AXES
 62
9
  6
CONTINUOUS
 10
271.5780467727
 20
105.9478718682
  0
SEQEND
  0
POLYLINE
  8
2_FEATURE
 62
9
  6
CONTINUOUS
 66
1
 70
0
  0
VERTEX
  8
2_FEATURE
 62
9
  6
CONTINUOUS
 10
271.3210390185
 20
147.4908595344
  0
VERTEX
  8
2_FEATURE
 62
9
  6
CONTINUOUS
 10
271.3880391934
 20
147.4225111761
  0
VERTEX
  8
2_FEATURE
 62
9
  6
CONTINUOUS
 10
271.4771687763
 20
147.3780342567
  0
VERTEX
  8
2_FEATURE
 62
9
  6
CONTINUOUS
 10
271.5780467727
 20
147.3626098325
  0
SEQEND
  0
POLYLINE
  8
0
 62
9
  6
CONTINUOUS
 66
1
 70
0
  0
VERTEX
  8
0
 62
9
  6
CONTINUOUS
 10
285.4280467727
 20
137.4132321966
  0
VERTEX
  8
0
 62
9
  6
CONTINUOUS
 10
285.3769354731
 20
137.7560178048
  0
VERTEX
  8
0
 62
9
  6
CONTINUOUS
 10
285.2270847635
 20
138.075443067
  0
VERTEX
  8
0
 62
9
  6
CONTINUOUS
 10
284.9887067734
 20
138.3497396932
  0
VERTEX
  8
0
 62
9
  6
CONTINUOUS
 10
284.6780466014
 20
138.5602148524
  0
VERTEX
  8
0
 62
9
  6
CONTINUOUS
 10
284.3162752327
 20
138.6925250469
  0
VERTEX
  8
0
 62
9
  6
CONTINUOUS
 10
283.9280467727
 20
138.7376535859
  0
SEQEND
  0
POLYLINE
  8
0
 62
9
  6
CONTINUOUS
 66
1
 70
0
  0
VERTEX
  8
0
 62
9
  6
CONTINUOUS
 10
285.4280467727
 20
135.337516877
  0
VERTEX
  8
0
 62
9
  6
CONTINUOUS
 10
285.3769355097
 20
135.7228516568
  0
VERTEX
  8
0
 62
9
  6
CONTINUOUS
 10
285.2270848699
 20
136.0819265053
  0
VERTEX
  8
0
 62
9
  6
CONTINUOUS
 10
284.9887069296
 20
136.3902710635
  0
VERTEX
  8
0
 62
9
  6
CONTINUOUS
 10
284.6780467552
 20
136.6268721597
  0
VERTEX
  8
0
 62
9
  6
CONTINUOUS
 10
284.3162753273
 20
136.775605823
  0
VERTEX
  8
0
 62
9
  6
CONTINUOUS
 10
283.9280467727
 20
136.8263361045
  0
SEQEND
  0
POLYLINE
  8
0
 62
9
  6
CONTINUOUS
 66
1
 70
0
  0
VERTEX
  8
0
 62
9
  6
CONTINUOUS
 10
285.4280467727
 20
136.9748379615
  0
VERTEX
  8
0
 62
9
  6
CONTINUOUS
 10
285.3769355122
 20
137.3601727322
  0
VERTEX
  8
0
 62
9
  6
CONTINUOUS
 10
285.2270848784
 20
137.7192475752
  0
VERTEX
  8
0
 62
9
  6
CONTINUOUS
 10
284.9887069445
 20
138.0275921332
  0
VERTEX
  8
0
 62
9
  6
CONTINUOUS
 10
284.6780467727
 20
138.2641932341
  0
VERTEX
  8
0
 62
9
  6
CONTINUOUS
 10
284.3162753404
 20
138.4129269039
  0
VERTEX
  8
0
 62
9
  6
CONTINUOUS
 10
283.9280467727
 20
138.4636571889
  0
SEQEND
  0
POLYLINE
  8
AXES
 62
9
  6
CONTINUOUS
 66
1
 70
0
  0
VERTEX
  8
AXES
 62
9
  6
CONTINUOUS
 10
285.4280467727
 20
107.2722932575
  0
VERTEX
  8
AXES
 62
9
  6
CONTINUOUS
 10
285.3769355122
 20
106.9295077782
  0
VERTEX
  8
AXES
 62
9
  6
CONTINUOUS
 10
285.2270848784
 20
106.6100825629
  0
VERTEX
  8
AXES
 62
9
  6
CONTINUOUS
 10
284.9887069445
 20
106.335785912
  0
VERTEX
  8
AXES
 62
9
  6
CONTINUOUS
 10
284.6780467727
 20
106.1253106891
  0
VERTEX
  8
AXES
 62
9
  6
CONTINUOUS
 10
284.3162753404
 20
105.9930004327
  0
VERTEX
  8
AXES
 62
9
  6
CONTINUOUS
 10
283.9280467727
 20
105.9478718682
  0
SEQEND
  0
POLYLINE
  8
0
 62
9
  6
CONTINUOUS
 66
1
 70
0
  0
VERTEX
  8
0
 62
9
  6
CONTINUOUS
 10
285.4280467727
 20
146.0381884432
  0
VERTEX
  8
0
 62
9
  6
CONTINUOUS
 10
285.3769355122
 20
146.3809739225
  0
VERTEX
  8
0
 62
9
  6
CONTINUOUS
 10
285.2270848784
 20
146.7003991379
  0
VERTEX
  8
0
 62
9
  6
CONTINUOUS
 10
284.9887069445
 20
146.9746957888
  0
VERTEX
  8
0
 62
9
  6
CONTINUOUS
 10
284.6780467727
 20
147.1851710117
  0
VERTEX
  8
0
 62
9
  6
CONTINUOUS
 10
284.3162753404
 20
147.317481268
  0
VERTEX
  8
0
 62
9
  6
CONTINUOUS
 10
283.9280467727
 20
147.3626098325
  0
SEQEND
  0
LINE
  8
0
 62
9
  6
CONTINUOUS
 10
271.5780467727
 20
146.7185842029
 11
258.5280467727
 21
146.7185842029
  0
LINE
  8
0
 62
9
  6
CONTINUOUS
 10
258.5280467727
 20
146.9573217579
 11
270.236173864
 21
146.9573217579
  0
POLYLINE
  8
2_FEATURE
 62
9
  6
CONTINUOUS
 66
1
 70
0
  0
VERTEX
  8
2_FEATURE
 62
9
  6
CONTINUOUS
 10
270.236173864
 20
146.9573217579
  0
VERTEX
  8
2_FEATURE
 62
9
  6
CONTINUOUS
 10
270.5822261156
 20
146.8637502106
  0
VERTEX
  8
2_FEATURE
 62
9
  6
CONTINUOUS
 10
271.0305555878
 20
146.7827658242
  0
VERTEX
  8
2_FEATURE
 62
9
  6
CONTINUOUS
 10
271.5780465809
 20
146.7185842029
  0
SEQEND
  0
POLYLINE
  8
AXES
 62
9
  6
CONTINUOUS
 66
1
 70
0
  0
VERTEX
  8
AXES
 62
9
  6
CONTINUOUS
 10
271.2780467727
 20
100.9552408504
  0
VERTEX
  8
AXES
 62
9
  6
CONTINUOUS
 10
271.2337438686
 20
100.9259139073
  0
VERTEX
  8
AXES
 62
9
  6
CONTINUOUS
 10
271.1038549764
 20
100.8985858708
  0
VERTEX
  8
AXES
 62
9
  6
CONTINUOUS
 10
270.8972341211
 20
100.8751194232
  0
VERTEX
  8
AXES
 62
9
  6
CONTINUOUS
 10
270.6279656831
 20
100.8571139568
  0
VERTEX
  8
AXES
 62
9
  6
CONTINUOUS
 10
270.3144038224
 20
100.8457965578
  0
VERTEX
  8
AXES
 62
9
  6
CONTINUOUS
 10
269.9780467727
 20
100.8419383848
  0
SEQEND
  0
LINE
  8
0
 62
9
  6
CONTINUOUS
 10
283.9280467727
 20
147.3626098325
 11
271.5780467727
 21
147.3626098325
  0
LINE
  8
0
 62
7
  6
CONTINUOUS
 10
283.9280467727
 20
147.6552408504
 11
271.5780467727
 21
147.6552408504
  0
POLYLINE
  8
2_FEATURE
 62
7
  6
CONTINUOUS
 66
1
 70
0
  0
VERTEX
  8
2_FEATURE
 62
7
  6
CONTINUOUS
 10
271.5776451857
 20
147.6552452173
  0
VERTEX
  8
2_FEATURE
 62
7
  6
CONTINUOUS
 10
271.5661324551
 20
147.6555041736
  0
VERTEX
  8
2_FEATURE
 62
7
  6
CONTINUOUS
 10
271.5602099912
 20
147.655777321
  0
SEQEND
  0
LINE
  8
2_FEATURE
 62
7
  6
CONTINUOUS
 10
271.5595885104
 20
147.6558134149
 11
271.5586989633
 21
147.6558649925
  0
POLYLINE
  8
2_FEATURE
 62
9
  6
CONTINUOUS
 66
1
 70
0
  0
VERTEX
  8
2_FEATURE
 62
9
  6
CONTINUOUS
 10
271.2780467727
 20
152.3552408504
  0
VERTEX
  8
2_FEATURE
 62
9
  6
CONTINUOUS
 10
271.2337438686
 20
152.3845677935
  0
VERTEX
  8
2_FEATURE
 62
9
  6
CONTINUOUS
 10
271.1038549764
 20
152.41189583
  0
VERTEX
  8
2_FEATURE
 62
9
  6
CONTINUOUS
 10
270.8972341211
 20
152.4353622775
  0
VERTEX
  8
2_FEATURE
 62
9
  6
CONTINUOUS
 10
270.6279656831
 20
152.4533677439
  0
VERTEX
  8
2_FEATURE
 62
9
  6
CONTINUOUS
 10
270.3144038224
 20
152.464685143
  0
VERTEX
  8
2_FEATURE
 62
9
  6
CONTINUOUS
 10
269.9780467727
 20
152.4685433159
  0
SEQEND
  0
LINE
  8
0
 62
9
  6
CONTINUOUS
 10
269.9780467727
 20
152.4685433159
 11
258.7113130075
 21
152.4685433159
  0
POLYLINE
  8
0
 62
9
  6
CONTINUOUS
 66
1
 70
0
  0
VERTEX
  8
0
 62
9
  6
CONTINUOUS
 10
258.5280467727
 20
153.6552408504
  0
VERTEX
  8
0
 62
9
  6
CONTINUOUS
 10
258.2323110727
 20
153.6253122026
  0
VERTEX
  8
0
 62
9
  6
CONTINUOUS
 10
257.9647526254
 20
153.5383758575
  0
VERTEX
  8
0
 62
9
  6
CONTINUOUS
 10
257.7444497518
 20
153.4010809145
  0
VERTEX
  8
0
 62
9
  6
CONTINUOUS
 10
257.5963973943
 20
153.2268017428
  0
VERTEX
  8
0
 62
9
  6
CONTINUOUS
 10
257.5303341074
 20
153.0299430534
  0
VERTEX
  8
0
 62
9
  6
CONTINUOUS
 10
257.5303274861
 20
152.9284271758
  0
VERTEX
  8
0
 62
9
  6
CONTINUOUS
 10
257.5964382735
 20
152.7303479074
  0
VERTEX
  8
0
 62
9
  6
CONTINUOUS
 10
257.7443805253
 20
152.5522086725
  0
VERTEX
  8
0
 62
9
  6
CONTINUOUS
 10
257.9648687838
 20
152.4156322804
  0
VERTEX
  8
0
 62
9
  6
CONTINUOUS
 10
258.2323110727
 20
152.3210455548
  0
VERTEX
  8
0
 62
9
  6
CONTINUOUS
 10
258.5280467727
 20
152.2859744645
  0
SEQEND
  0
LINE
  8
0
 62
7
  6
CONTINUOUS
 10
258.5280467727
 20
153.6552408504
 11
269.9780467727
 21
153.6552408504
  0
LINE
  8
0
 62
7
  6
CONTINUOUS
 10
260.4280467727
 20
153.7552408504
 11
263.4280467727
 21
153.7552408504
  0
LINE
  8
0
 62
7
  6
CONTINUOUS
 10
264.4280467727
 20
153.7552408504
 11
265.8080467727
 21
153.7552408504
  0
LINE
  8
0
 62
7
  6
CONTINUOUS
 10
266.1280467727
 20
153.7552408504
 11
267.6580467727
 21
153.7552408504
  0
ARC
  8
AXES
 62
7
  6
CONTINUOUS
 10
123.9249150632
 20
121.6552408504
 40
6.5
 50
225.4715157238
 51
300.5284842762
  0
ARC
  8
AXES
 62
9
  6
CONTINUOUS
 10
136.7723478152
 20
112.3654591327
 40
4.0000000805
 50
62.0
 51
83.0
  0
ARC
  8
AXES
 62
9
  6
CONTINUOUS
 10
155.3482350703
 20
117.1552408504
 40
4.0000000646
 50
242.0
 51
270.0
  0
ARC
  8
AXES
 62
9
  6
CONTINUOUS
 10
155.3408891047
 20
108.1552408504
 40
2.8
 50
252.411992743
 51
270.0
  0
ARC
  8
AXES
 62
7
  6
CONTINUOUS
 10
155.3482350703
 20
117.1552408504
 40
2.5
 50
242.0
 51
270.0
  0
ARC
  8
AXES
 62
7
  6
CONTINUOUS
 10
155.3408891047
 20
108.1552408504
 40
2.5
 50
242.0
 51
270.0
  0
ARC
  8
AXES
 62
7
  6
CONTINUOUS
 10
142.8172362641
 20
118.1552408504
 40
2.5
 50
62.0
 51
90.0
  0
ARC
  8
AXES
 62
7
  6
CONTINUOUS
 10
136.7723478152
 20
112.3654591327
 40
2.5
 50
62.0
 51
83.0
  0
ARC
  8
AXES
 62
7
  6
CONTINUOUS
 10
111.2249159126
 20
119.5323286429
 40
1.5
 50
180.0000010634
 51
263.0000000001
  0
ARC
  8
AXES
 62
7
  6
CONTINUOUS
 10
154.8912136083
 20
100.9552408504
 40
1.3
 50
185.0
 51
270.0
  0
ARC
  8
AXES
 62
9
  6
CONTINUOUS
 10
142.8172362641
 20
118.1552408504
 40
1.0000000183
 50
62.0
 51
90.0
  0
ARC
  8
AXES
 62
9
  6
CONTINUOUS
 10
155.3408891047
 20
108.1552408504
 40
1.0000000177
 50
242.0
 51
270.0
  0
ARC
  8
AXES
 62
7
  6
CONTINUOUS
 10
139.1249150632
 20
121.6552408504
 40
1.0
 50
180.0
 51
270.0
  0
ARC
  8
AXES
 62
7
  6
CONTINUOUS
 10
152.8151326829
 20
106.32701322
 40
0.3
 50
5.0
 51
62.0
  0
ARC
  8
2_FEATURE
 62
7
  6
CONTINUOUS
 10
123.9249150632
 20
131.6552408504
 40
6.5
 50
59.4715157238
 51
134.5284842762
  0
ARC
  8
0
 62
9
  6
CONTINUOUS
 10
136.7723478152
 20
140.945022568
 40
4.0000000805
 50
277.0
 51
298.0
  0
ARC
  8
2_FEATURE
 62
9
  6
CONTINUOUS
 10
155.3482350703
 20
136.1552408504
 40
4.0000000646
 50
90.0
 51
118.0
  0
ARC
  8
2_FEATURE
 62
9
  6
CONTINUOUS
 10
155.3408891047
 20
145.1552408504
 40
2.8
 50
90.0
 51
107.588007257
  0
ARC
  8
2_FEATURE
 62
7
  6
CONTINUOUS
 10
155.3482350703
 20
136.1552408504
 40
2.5
 50
90.0
 51
118.0
  0
ARC
  8
2_FEATURE
 62
7
  6
CONTINUOUS
 10
155.3408891047
 20
145.1552408504
 40
2.5
 50
108.6744135901
 51
118.0
  0
ARC
  8
0
 62
7
  6
CONTINUOUS
 10
155.3408891047
 20
145.1552408504
 40
2.5
 50
90.0
 51
118.0
  0
ARC
  8
0
 62
7
  6
CONTINUOUS
 10
136.7723478152
 20
140.945022568
 40
2.5
 50
277.0
 51
298.0
  0
ARC
  8
2_FEATURE
 62
7
  6
CONTINUOUS
 10
142.8172362641
 20
135.1552408504
 40
2.5
 50
270.0
 51
298.0
  0
ARC
  8
0
 62
7
  6
CONTINUOUS
 10
111.2249159126
 20
133.7781530578
 40
1.5
 50
97.0
 51
179.9999989366
  0
ARC
  8
0
 62
7
  6
CONTINUOUS
 10
154.8912136083
 20
152.3552408504
 40
1.3
 50
90.0
 51
97.4939410517
  0
ARC
  8
0
 62
7
  6
CONTINUOUS
 10
154.8912136083
 20
152.3552408504
 40
1.3
 50
125.8890086059
 51
137.2170198541
  0
ARC
  8
0
 62
7
  6
CONTINUOUS
 10
154.8912136083
 20
152.3552408504
 40
1.3
 50
139.1109913941
 51
167.5060589483
  0
ARC
  8
2_FEATURE
 62
7
  6
CONTINUOUS
 10
154.8912136083
 20
152.3552408504
 40
1.3
 50
90.0
 51
175.0
  0
ARC
  8
2_FEATURE
 62
9
  6
CONTINUOUS
 10
142.8172362641
 20
135.1552408504
 40
1.0000000183
 50
270.0
 51
298.0
  0
ARC
  8
0
 62
9
  6
CONTINUOUS
 10
155.3408891047
 20
145.1552408504
 40
1.0000000177
 50
90.0
 51
118.0
  0
ARC
  8
2_FEATURE
 62
7
  6
CONTINUOUS
 10
139.1249150632
 20
131.6552408504
 40
1.0
 50
90.0
 51
180.0
  0
ARC
  8
2_FEATURE
 62
7
  6
CONTINUOUS
 10
152.8151326829
 20
146.9834684807
 40
0.3
 50
298.0
 51
355.0
  0
ARC
  8
0
 62
7
  6
CONTINUOUS
 10
152.8151326829
 20
146.9834684807
 40
0.3
 50
338.2729779589
 51
355.0
  0
ARC
  8
AXES
 62
7
  6
CONTINUOUS
 10
193.0077856134
 20
111.6552408504
 40
3.0
 50
60.0
 51
90.0
  0
ARC
  8
AXES
 62
7
  6
CONTINUOUS
 10
200.8749150632
 20
107.1552408504
 40
1.5
 50
269.9999999986
 51
360.0
  0
ARC
  8
AXES
 62
7
  6
CONTINUOUS
 10
200.8749150632
 20
108.8452023524
 40
1.5
 50
0.0
 51
60.0
  0
ARC
  8
AXES
 62
7
  6
CONTINUOUS
 10
169.1587525559
 20
100.9552408504
 40
1.3
 50
270.0
 51
355.0
  0
ARC
  8
AXES
 62
7
  6
CONTINUOUS
 10
171.1498144154
 20
105.3552408504
 40
0.3
 50
93.7194204428
 51
175.0
  0
ARC
  8
2_FEATURE
 62
7
  6
CONTINUOUS
 10
193.0077856134
 20
141.6552408504
 40
3.0
 50
270.0
 51
300.0
  0
ARC
  8
2_FEATURE
 62
7
  6
CONTINUOUS
 10
200.8749150632
 20
144.4652793484
 40
1.5
 50
300.0
 51
360.0
  0
ARC
  8
0
 62
7
  6
CONTINUOUS
 10
200.8749150632
 20
146.1552408504
 40
1.5
 50
0.0
 51
90.0000000014
  0
ARC
  8
0
 62
7
  6
CONTINUOUS
 10
169.1587525559
 20
152.3552408504
 40
1.3
 50
12.4889918053
 51
67.5278118991
  0
ARC
  8
0
 62
7
  6
CONTINUOUS
 10
169.1587525559
 20
152.3552408504
 40
1.3
 50
82.5055141235
 51
90.0
  0
ARC
  8
2_FEATURE
 62
7
  6
CONTINUOUS
 10
169.1587525559
 20
152.3552408504
 40
1.3
 50
5.0
 51
90.0
  0
ARC
  8
0
 62
7
  6
CONTINUOUS
 10
171.1498144154
 20
147.9552408504
 40
0.3
 50
205.4880194794
 51
206.7834372919
  0
ARC
  8
0
 62
7
  6
CONTINUOUS
 10
171.1498144154
 20
147.9552408504
 40
0.3
 50
227.0146248627
 51
228.3699024385
  0
ARC
  8
0
 62
7
  6
CONTINUOUS
 10
171.1498144154
 20
147.9552408504
 40
0.3
 50
247.7380815745
 51
250.3697068477
  0
ARC
  8
2_FEATURE
 62
7
  6
CONTINUOUS
 10
171.1498144154
 20
147.9552408504
 40
0.3
 50
185.0
 51
266.2805793863
  0
ARC
  8
AXES
 62
7
  6
CONTINUOUS
 10
121.4689888125
 20
218.0917574895
 40
0.55
 50
241.5258447452
 51
270.0
  0
ARC
  8
AXES
 62
7
  6
CONTINUOUS
 10
127.380841314
 20
218.0917574895
 40
0.55
 50
270.0
 51
298.4741552548
  0
ARC
  8
0
 62
7
  6
CONTINUOUS
 10
123.9249150632
 20
223.5417574895
 40
14.2
 50
90.0
 51
270.0
  0
ARC
  8
AXES
 62
7
  6
CONTINUOUS
 10
123.9249150632
 20
223.5417574895
 40
14.2
 50
90.0
 51
270.0
  0
ARC
  8
AXES
 62
7
  6
CONTINUOUS
 10
124.4249150632
 20
223.5417574895
 40
6.75
 50
118.4741552548
 51
241.5258447452
  0
ARC
  8
AXES
 62
7
  6
CONTINUOUS
 10
124.4249150632
 20
223.5417574895
 40
6.75
 50
298.4741552548
 51
61.5258447452
  0
ARC
  8
AXES
 62
7
  6
CONTINUOUS
 10
121.4689888125
 20
228.9917574895
 40
0.55
 50
90.0
 51
118.4741552548
  0
ARC
  8
AXES
 62
7
  6
CONTINUOUS
 10
127.380841314
 20
228.9917574895
 40
0.55
 50
61.5258447452
 51
90.0
  0
ARC
  8
0
 62
7
  6
CONTINUOUS
 10
188.1749150632
 20
223.5417574895
 40
14.2
 50
81.3223665577
 51
81.9427152927
  0
ARC
  8
0
 62
7
  6
CONTINUOUS
 10
188.1749150632
 20
223.5417574895
 40
14.2
 50
70.7656503943
 51
73.8672854411
  0
ARC
  8
0
 62
7
  6
CONTINUOUS
 10
188.1749150632
 20
223.5417574895
 40
14.2
 50
64.3351338668
 51
67.6319694466
  0
ARC
  8
0
 62
7
  6
CONTINUOUS
 10
188.1749150632
 20
223.5417574895
 40
14.2
 50
296.0775191444
 51
63.9224808556
  0
ARC
  8
0
 62
7
  6
CONTINUOUS
 10
188.1749150632
 20
223.5417574895
 40
14.2
 50
286.1327118862
 51
289.2343523919
  0
ARC
  8
0
 62
7
  6
CONTINUOUS
 10
188.1749150632
 20
223.5417574895
 40
14.2
 50
278.6776335835
 51
280.6860780138
  0
ARC
  8
0
 62
7
  6
CONTINUOUS
 10
188.1749150632
 20
223.5417574895
 40
14.2
 50
270.0
 51
278.05728404
  0
ARC
  8
AXES
 62
7
  6
CONTINUOUS
 10
188.1749150632
 20
223.5417574895
 40
14.2
 50
270.0
 51
90.0
  0
ARC
  8
2_FEATURE
 62
7
  6
CONTINUOUS
 10
188.1749150632
 20
223.5417574895
 40
14.2
 50
270.0
 51
292.3671967337
  0
ARC
  8
2_FEATURE
 62
7
  6
CONTINUOUS
 10
188.1749150632
 20
223.5417574895
 40
14.2
 50
296.0781139744
 51
63.9218860256
  0
ARC
  8
2_FEATURE
 62
7
  6
CONTINUOUS
 10
188.1749150632
 20
223.5417574895
 40
14.2
 50
73.6006429703
 51
79.1771155422
  0
ARC
  8
AXES
 62
9
  6
CONTINUOUS
 10
188.1749150632
 20
223.5417574895
 40
12.6999999993
 50
270.0
 51
90.0
  0
CIRCLE
  8
AXES
 62
7
  6
CONTINUOUS
 10
188.1749150632
 20
223.5417574895
 40
7.25
  0
CIRCLE
  8
AXES
 62
7
  6
CONTINUOUS
 10
188.1749150632
 20
223.5417574895
 40
5.45
  0
ARC
  8
AXES
 62
7
  6
CONTINUOUS
 10
258.5280467727
 20
101.1552408504
 40
1.5
 50
180.0
 51
270.0
  0
ARC
  8
AXES
 62
7
  6
CONTINUOUS
 10
269.9780467727
 20
100.9552408504
 40
1.3
 50
270.0
 51
360.0
  0
ARC
  8
0
 62
7
  6
CONTINUOUS
 10
258.5280467727
 20
152.1552408504
 40
1.5
 50
90.0
 51
180.0
  0
ARC
  8
2_FEATURE
 62
7
  6
CONTINUOUS
 10
269.9780467727
 20
152.3552408504
 40
1.3
 50
0.0
 51
90.0
  0
ARC
  8
AXES
 62
7
  6
CONTINUOUS
 10
283.9280467727
 20
107.1552408504
 40
1.5
 50
270.0
 51
360.0
  0
ARC
  8
AXES
 62
7
  6
CONTINUOUS
 10
271.5780467727
 20
105.3552408504
 40
0.3
 50
90.0
 51
180.0
  0
ARC
  8
0
 62
7
  6
CONTINUOUS
 10
283.9280467727
 20
146.1552408504
 40
1.5
 50
0.0
 51
90.0
  0
ARC
  8
2_FEATURE
 62
7
  6
CONTINUOUS
 10
271.5780467727
 20
147.9552408504
 40
0.3
 50
180.0
 51
270.0
  0
ENDSEC
  0
EOF
