  0
SECTION
  2
HEADER
  9
$EXTMAX
 10
420.0
 20
297.0
 30
0.0
  9
$EXTMIN
 10
0.0
 20
0.0
 30
0.0
  9
$LIMMIN
 10
0.0
 20
0.0
  9
$LIMMAX
 10
420.0
 20
297.0
  9
$VIEWCTR
 10
210.0
 20
148.5
  9
$VIEWSIZE
 40
297.0
  9
$CLAYER
  8
0
  9
$LTSCALE
 40
23.1
  9
$CELTYPE
  6
BYLAYER
  9
$DIMSCALE
 40
1.0
  9
$DIMASZ
 40
3.5
  9
$DIMEXO
 40
1.0
  9
$DIMDLI
 40
15.96
  9
$DIMEXE
 40
2.0
  9
$DIMCEN
 40
3.78
  9
$DIMLFAC
 40
1.0
  9
$DIMBLK
  1
_FILLED
  9
$DIMALT
 70
0
  9
$DIMALTF
 40
0.0393700787
  9
$DIMTXT
 40
3.5
  9
$AUNITS
 70
0
  9
$PDMODE
 70
3
  9
$PDSIZE
 40
0.3125
  9
$TILEMODE
 70
1
  0
ENDSEC
  0
SECTION
  2
TABLES
  0
TABLE
  2
LTYPE
 70
6
  0
LTYPE
  2
BYBLOCK
 70
0
  3

 72
65
 73
0
 40
0.0
  0
LTYPE
  2
BYLAYER
 70
0
  3

 72
65
 73
0
 40
0.0
  0
LTYPE
  2
CONTINUOUS
 70
64
  3
Solid line
 72
65
 73
0
 40
0.0
  0
LTYPE
  2
CENTER
 70
64
  3
____ _ ____ _ ____ _ ____ _ ____ _ ____ _ ____
 72
65
 73
4
 40
0.6
 49
0.375
 49
-0.075
 49
0.075
 49
-0.075
  0
LTYPE
  2
HIDDEN
 70
64
  3
- - - - - - - - - - - - - - - - - - - -
 72
65
 73
2
 40
0.2
 49
0.1
 49
-0.1
  0
LTYPE
  2
PHANTOM
 70
64
  3
_____ _ _ _____ _ _ _____ _ _ _____
 72
65
 73
6
 40
0.8
 49
0.45
 49
-0.05
 49
0.1
 49
-0.05
 49
0.1
 49
-0.05
  0
LTYPE
  2
DOT
 70
64
  3
. . . . . . . . . . . . . . . . . . . .
 72
65
 73
2
 40
0.2
 49
0.1
 49
-0.1
  0
LTYPE
  2
DASHED
 70
64
  3
- - - - - - - - - - - - - - - - - - - -
 72
65
 73
2
 40
0.2
 49
0.1
 49
-0.1
  0
ENDTAB
  0
TABLE
  2
LAYER
 70
36
  0
LAYER
  2
0
 70
0
 62
7
  6
CONTINUOUS
  0
LAYER
  2
DEFAULT_1
 70
0
 62
7
  6
CENTER
  0
LAYER
  2
DEFAULT_2
 70
0
 62
8
  6
HIDDEN
  0
LAYER
  2
DEFAULT_3
 70
0
 62
7
  6
PHANTOM
  0
LAYER
  2
00_CURVE
 70
0
 62
7
  6
CONTINUOUS
  0
LAYER
  2
01___PRT_ALL_DTM_PLN
 70
0
 62
7
  6
CONTINUOUS
  0
LAYER
  2
01___PRT_DEF_DTM_PLN
 70
0
 62
7
  6
CONTINUOUS
  0
LAYER
  2
02___PRT_ALL_AXES
 70
0
 62
7
  6
CONTINUOUS
  0
LAYER
  2
03___PRT_ALL_CURVES
 70
0
 62
7
  6
CONTINUOUS
  0
LAYER
  2
04___PRT_ALL_DTM_PNT
 70
0
 62
7
  6
CONTINUOUS
  0
LAYER
  2
05___PRT_ALL_DTM_CSYS
 70
0
 62
7
  6
CONTINUOUS
  0
LAYER
  2
05___PRT_DEF_DTM_CSYS
 70
0
 62
7
  6
CONTINUOUS
  0
LAYER
  2
06___PRT_ALL_SURFS
 70
0
 62
7
  6
CONTINUOUS
  0
LAYER
  2
1_AXIS
 70
0
 62
7
  6
CONTINUOUS
  0
LAYER
  2
1_DATUMPLANE
 70
0
 62
7
  6
CONTINUOUS
  0
LAYER
  2
1_DATUM_PLANES
 70
0
 62
7
  6
CONTINUOUS
  0
LAYER
  2
2_FEATURE
 70
0
 62
7
  6
CONTINUOUS
  0
LAYER
  2
6_DIM
 70
0
 62
7
  6
CONTINUOUS
  0
LAYER
  2
AXES
 70
0
 62
7
  6
CONTINUOUS
  0
LAYER
  2
CSYS
 70
0
 62
7
  6
CONTINUOUS
  0
LAYER
  2
CURVE
 70
0
 62
7
  6
CONTINUOUS
  0
LAYER
  2
PLANES
 70
0
 62
7
  6
CONTINUOUS
  0
LAYER
  2
QUILT
 70
0
 62
7
  6
CONTINUOUS
  0
LAYER
  2
SURFACE
 70
0
 62
7
  6
CONTINUOUS
  0
LAYER
  2
XSEC_DATUMS
 70
0
 62
7
  6
CONTINUOUS
  0
ENDTAB
  0
TABLE
  2
STYLE
 70
1
  0
STYLE
  2
STANDARD
 70
0
 40
0.0
 41
0.8
 50
0.0
 71
0
 42
0.2
  3
txt
  4

  0
STYLE
  2
TEXTSTYLE_1
 70
0
 40
0.0
 41
0.8
 50
0.0
 71
0
 42
0.2
  3
gdt
  4

  0
STYLE
  2
TEXTSTYLE_2
 70
0
 40
0.0
 41
0.6
 50
0.0
 71
0
 42
0.2
  3
txt
  4

  0
STYLE
  2
TEXTSTYLE_3
 70
0
 40
0.0
 41
1.0
 50
0.0
 71
0
 42
0.2
  3
ftb_____.ttf
  4

  0
STYLE
  2
TEXTSTYLE_4
 70
0
 40
0.0
 41
1.0
 50
0.0
 71
0
 42
0.2
  3
fti_____.ttf
  4

  0
STYLE
  2
TEXTSTYLE_5
 70
0
 40
0.0
 41
1.0
 50
0.0
 71
0
 42
0.2
  3
frutiger light.ttf
  4

  0
STYLE
  2
TEXTSTYLE_6
 70
0
 40
0.0
 41
0.7
 50
0.0
 71
0
 42
0.2
  3
txt
  4

  0
STYLE
  2
TEXTSTYLE_7
 70
0
 40
0.0
 41
0.8
 50
0.0
 71
0
 42
0.2
  3
txt
  4

  0
ENDTAB
  0
ENDSEC
  0
SECTION
  2
BLOCKS
  0
BLOCK
  8
0
 62
2
  6
CONTINUOUS
  2
UNI_LOGO2_BL1
 70
64
 10
382.3920721743
 20
35.81661148
  0
TEXT
  8
0
 62
7
  6
CONTINUOUS
 10
373.4503571828
 20
30.9093678571
  7
TEXTSTYLE_4
 40
1.0655737705
  1
The brand for plastic modular belts and chains
 41
1.0
 72
0
  0
LINE
  8
0
 62
7
  6
CONTINUOUS
 10
358.3701405634
 20
36.3903819718
 11
358.3701405634
 21
34.2592344308
  0
LINE
  8
0
 62
7
  6
CONTINUOUS
 10
358.6592030565
 20
31.2683031351
 11
358.6592030565
 21
31.3650941944
  0
LINE
  8
0
 62
7
  6
CONTINUOUS
 10
358.3701405634
 20
31.332830508
 11
358.4279530651
 21
31.1392483894
  0
LINE
  8
0
 62
7
  6
CONTINUOUS
 10
359.7635831863
 20
34.1772672177
 11
359.7635831863
 21
36.3903819718
  0
LINE
  8
0
 62
7
  6
CONTINUOUS
 10
360.6826405082
 20
32.3330049227
 11
360.6826405082
 21
30.81661148
  0
LINE
  8
0
 62
7
  6
CONTINUOUS
 10
360.9717030634
 20
30.81661148
 11
360.9717030634
 21
31.5586763581
  0
LINE
  8
0
 62
7
  6
CONTINUOUS
 10
360.9717030634
 20
31.6877311038
 11
360.9717030634
 21
32.3330049227
  0
LINE
  8
0
 62
7
  6
CONTINUOUS
 10
358.4279530651
 20
31.5264126717
 11
358.3701405634
 21
31.332830508
  0
LINE
  8
0
 62
7
  6
CONTINUOUS
 10
358.7748280496
 20
31.106984703
 11
358.6592030565
 21
31.2683031351
  0
LINE
  8
0
 62
7
  6
CONTINUOUS
 10
359.8732656185
 20
31.623203731
 11
359.9310780634
 21
31.5264126717
  0
LINE
  8
0
 62
7
  6
CONTINUOUS
 10
360.2201406185
 20
31.5264126717
 11
360.1623280082
 21
31.6554674174
  0
LINE
  8
0
 62
7
  6
CONTINUOUS
 10
361.648829088
 20
36.3903819718
 11
361.648829088
 21
34.5871032833
  0
LINE
  8
0
 62
7
  6
CONTINUOUS
 10
361.648829088
 20
33.2756278735
 11
361.648829088
 21
32.6198901686
  0
LINE
  8
0
 62
7
  6
CONTINUOUS
 10
362.0123280634
 20
31.4618852989
 11
362.0123280634
 21
30.81661148
  0
LINE
  8
0
 62
7
  6
CONTINUOUS
 10
362.3013904531
 20
30.81661148
 11
362.3013904531
 21
31.4618852989
  0
LINE
  8
0
 62
7
  6
CONTINUOUS
 10
358.6592030565
 20
31.3650941944
 11
358.7170155634
 21
31.4941489853
  0
LINE
  8
0
 62
7
  6
CONTINUOUS
 10
358.4279530651
 20
31.1392483894
 11
358.5435780634
 21
31.0101936212
  0
LINE
  8
0
 62
7
  6
CONTINUOUS
 10
361.9545154531
 20
31.5909400446
 11
362.0123280634
 21
31.4618852989
  0
LINE
  8
0
 62
7
  6
CONTINUOUS
 10
362.7638906736
 20
31.106984703
 11
362.8217029531
 21
30.9779299347
  0
LINE
  8
0
 62
7
  6
CONTINUOUS
 10
362.3013904531
 20
31.4618852989
 11
362.2435781736
 21
31.623203731
  0
LINE
  8
0
 62
7
  6
CONTINUOUS
 10
362.7638906736
 20
31.6554674174
 11
362.7638906736
 21
31.5909400446
  0
LINE
  8
0
 62
7
  6
CONTINUOUS
 10
362.7638906736
 20
31.2037757623
 11
362.7638906736
 21
31.106984703
  0
LINE
  8
0
 62
7
  6
CONTINUOUS
 10
363.0422717109
 20
32.6198901686
 11
363.0422717109
 21
36.3903819718
  0
LINE
  8
0
 62
7
  6
CONTINUOUS
 10
363.0529530634
 20
31.074720994
 11
363.0529530634
 21
31.1392483894
  0
LINE
  8
0
 62
7
  6
CONTINUOUS
 10
363.3701405634
 20
36.3903819718
 11
363.3701405634
 21
32.6198901686
  0
LINE
  8
0
 62
7
  6
CONTINUOUS
 10
360.1623280082
 20
31.0101936212
 11
360.2201406185
 21
31.1392483894
  0
LINE
  8
0
 62
7
  6
CONTINUOUS
 10
364.5560782839
 20
30.9134025506
 11
364.4982653428
 21
31.074720994
  0
LINE
  8
0
 62
7
  6
CONTINUOUS
 10
364.2092032839
 20
31.5909400446
 11
364.2092032839
 21
31.4941489853
  0
LINE
  8
0
 62
7
  6
CONTINUOUS
 10
364.2092032839
 20
31.3650941944
 11
364.2092032839
 21
31.1715120759
  0
LINE
  8
0
 62
7
  6
CONTINUOUS
 10
364.4982653428
 20
31.074720994
 11
364.4982653428
 21
31.5909400446
  0
LINE
  8
0
 62
7
  6
CONTINUOUS
 10
364.7635831863
 20
32.6198901686
 11
364.7635831863
 21
34.4231688571
  0
LINE
  8
0
 62
7
  6
CONTINUOUS
 10
364.7635831863
 20
35.7346442669
 11
364.7635831863
 21
36.3903819718
  0
LINE
  8
0
 62
7
  6
CONTINUOUS
 10
365.0763907839
 20
32.3330049227
 11
365.0763907839
 21
32.1716864905
  0
LINE
  8
0
 62
7
  6
CONTINUOUS
 10
365.0763907839
 20
31.8490495359
 11
365.0763907839
 21
30.81661148
  0
LINE
  8
0
 62
7
  6
CONTINUOUS
 10
365.3654528428
 20
30.81661148
 11
365.3654528428
 21
31.8490495359
  0
LINE
  8
0
 62
7
  6
CONTINUOUS
 10
365.3654528428
 20
32.1716864905
 11
365.3654528428
 21
32.3330049227
  0
LINE
  8
0
 62
7
  6
CONTINUOUS
 10
359.9310780634
 20
31.1392483894
 11
359.8732656185
 21
31.0424573076
  0
LINE
  8
0
 62
7
  6
CONTINUOUS
 10
362.2435781736
 20
31.623203731
 11
362.1857655634
 21
31.6877311038
  0
LINE
  8
0
 62
7
  6
CONTINUOUS
 10
363.1107656736
 20
31.0101936212
 11
363.0529530634
 21
31.074720994
  0
LINE
  8
0
 62
7
  6
CONTINUOUS
 10
364.2670155634
 20
30.8811388585
 11
364.3248278428
 21
30.81661148
  0
LINE
  8
0
 62
7
  6
CONTINUOUS
 10
364.2092032839
 20
30.9779299347
 11
364.2670155634
 21
30.8811388585
  0
LINE
  8
0
 62
7
  6
CONTINUOUS
 10
364.6138905634
 20
30.81661148
 11
364.5560782839
 21
30.9134025506
  0
LINE
  8
0
 62
7
  6
CONTINUOUS
 10
364.4982653428
 20
31.5909400446
 11
364.4404530634
 21
31.6877311038
  0
LINE
  8
0
 62
7
  6
CONTINUOUS
 10
365.8279530634
 20
31.8490495359
 11
365.8279530634
 21
30.81661148
  0
LINE
  8
0
 62
7
  6
CONTINUOUS
 10
366.1170157839
 20
30.81661148
 11
366.1170157839
 21
31.5586763581
  0
LINE
  8
0
 62
7
  6
CONTINUOUS
 10
366.1170157839
 20
31.6877311038
 11
366.1170157839
 21
31.8490495359
  0
LINE
  8
0
 62
7
  6
CONTINUOUS
 10
366.648829088
 20
34.8330049227
 11
366.648829088
 21
32.6198901686
  0
LINE
  8
0
 62
7
  6
CONTINUOUS
 10
358.5435780634
 20
31.6554674174
 11
358.4279530651
 21
31.5264126717
  0
LINE
  8
0
 62
7
  6
CONTINUOUS
 10
358.7170155634
 20
31.4941489853
 11
358.7748280496
 21
31.5586763581
  0
LINE
  8
0
 62
7
  6
CONTINUOUS
 10
358.5435780634
 20
31.0101936212
 11
358.6592030565
 21
30.945666237
  0
LINE
  8
0
 62
7
  6
CONTINUOUS
 10
358.9482655496
 20
31.0101936212
 11
358.7748280496
 21
31.106984703
  0
LINE
  8
0
 62
7
  6
CONTINUOUS
 10
364.1513903428
 20
31.6554674174
 11
364.2092032839
 21
31.5909400446
  0
LINE
  8
0
 62
7
  6
CONTINUOUS
 10
367.0998278428
 20
31.5909400446
 11
367.1576407839
 21
31.4296216124
  0
LINE
  8
0
 62
7
  6
CONTINUOUS
 10
367.4467028428
 20
31.4296216124
 11
367.3888905634
 21
31.5909400446
  0
LINE
  8
0
 62
7
  6
CONTINUOUS
 10
367.1576407839
 20
31.4296216124
 11
367.1576407839
 21
30.81661148
  0
LINE
  8
0
 62
7
  6
CONTINUOUS
 10
367.4467028428
 20
30.81661148
 11
367.4467028428
 21
31.4296216124
  0
LINE
  8
0
 62
7
  6
CONTINUOUS
 10
367.9092030634
 20
31.6554674174
 11
367.9092030634
 21
31.5909400446
  0
LINE
  8
0
 62
7
  6
CONTINUOUS
 10
368.0422717109
 20
32.6198901686
 11
368.0422717109
 21
34.7510377095
  0
LINE
  8
0
 62
7
  6
CONTINUOUS
 10
368.3701405634
 20
36.3903819718
 11
368.3701405634
 21
32.6198901686
  0
LINE
  8
0
 62
7
  6
CONTINUOUS
 10
363.0529530634
 20
31.1392483894
 11
363.1107656736
 21
31.2360394487
  0
LINE
  8
0
 62
7
  6
CONTINUOUS
 10
358.6592030565
 20
30.945666237
 11
358.8326405772
 21
30.8811388585
  0
LINE
  8
0
 62
7
  6
CONTINUOUS
 10
360.1623280082
 20
31.6554674174
 11
359.9888905082
 21
31.7522584767
  0
LINE
  8
0
 62
7
  6
CONTINUOUS
 10
362.8217029531
 20
30.9779299347
 11
362.9951404531
 21
30.8811388585
  0
LINE
  8
0
 62
7
  6
CONTINUOUS
 10
361.8388905634
 20
31.6554674174
 11
361.9545154531
 21
31.5909400446
  0
LINE
  8
0
 62
7
  6
CONTINUOUS
 10
362.1857655634
 20
31.6877311038
 11
362.0701406736
 21
31.7522584767
  0
LINE
  8
0
 62
7
  6
CONTINUOUS
 10
367.9092030634
 20
31.074720994
 11
368.0248282839
 21
30.945666237
  0
LINE
  8
0
 62
7
  6
CONTINUOUS
 10
368.2560780634
 20
31.0101936212
 11
368.1982657839
 21
31.074720994
  0
LINE
  8
0
 62
7
  6
CONTINUOUS
 10
367.9092030634
 20
31.5909400446
 11
368.0248282839
 21
31.4618852989
  0
LINE
  8
0
 62
7
  6
CONTINUOUS
 10
367.3888905634
 20
31.5909400446
 11
367.3310782839
 21
31.6877311038
  0
LINE
  8
0
 62
7
  6
CONTINUOUS
 10
369.7592026223
 20
31.0101936212
 11
369.7592026223
 21
31.074720994
  0
LINE
  8
0
 62
7
  6
CONTINUOUS
 10
369.7635831863
 20
32.6198901686
 11
369.7635831863
 21
36.3903819718
  0
LINE
  8
0
 62
7
  6
CONTINUOUS
 10
362.8217029531
 20
31.7199947902
 11
362.7638906736
 21
31.6554674174
  0
LINE
  8
0
 62
7
  6
CONTINUOUS
 10
359.6998280358
 20
31.6877311038
 11
359.8732656185
 21
31.623203731
  0
LINE
  8
0
 62
7
  6
CONTINUOUS
 10
364.4404530634
 20
31.6877311038
 11
364.3248278428
 21
31.7522584767
  0
LINE
  8
0
 62
7
  6
CONTINUOUS
 10
368.2560780634
 20
31.5264126717
 11
368.1982657839
 21
31.5909400446
  0
LINE
  8
0
 62
7
  6
CONTINUOUS
 10
369.4123282839
 20
31.1392483894
 11
369.4701405634
 21
31.074720994
  0
LINE
  8
0
 62
7
  6
CONTINUOUS
 10
369.7592026223
 20
31.074720994
 11
369.6435780634
 21
31.2037757623
  0
LINE
  8
0
 62
7
  6
CONTINUOUS
 10
369.4123282839
 20
31.6554674174
 11
369.4701405634
 21
31.5909400446
  0
LINE
  8
0
 62
7
  6
CONTINUOUS
 10
369.7592026223
 20
31.5909400446
 11
369.6435780634
 21
31.7199947902
  0
LINE
  8
0
 62
7
  6
CONTINUOUS
 10
363.0529530634
 20
31.5909400446
 11
363.1107656736
 21
31.6554674174
  0
LINE
  8
0
 62
7
  6
CONTINUOUS
 10
362.8795155634
 20
31.332830508
 11
362.7638906736
 21
31.2037757623
  0
LINE
  8
0
 62
7
  6
CONTINUOUS
 10
364.2092032839
 20
31.1715120759
 11
364.1513903428
 21
31.106984703
  0
LINE
  8
0
 62
7
  6
CONTINUOUS
 10
364.1513903428
 20
30.9134025506
 11
364.2092032839
 21
30.9779299347
  0
LINE
  8
0
 62
7
  6
CONTINUOUS
 10
362.9951404531
 20
30.8811388585
 11
363.1107656736
 21
30.8488751693
  0
LINE
  8
0
 62
7
  6
CONTINUOUS
 10
359.9888905082
 20
31.7522584767
 11
359.7576405634
 21
31.8167858495
  0
LINE
  8
0
 62
7
  6
CONTINUOUS
 10
363.3420154531
 20
30.945666237
 11
363.1107656736
 21
31.0101936212
  0
LINE
  8
0
 62
7
  6
CONTINUOUS
 10
362.0701406736
 20
31.7522584767
 11
361.8967031736
 21
31.8167858495
  0
LINE
  8
0
 62
7
  6
CONTINUOUS
 10
364.3248278428
 20
31.7522584767
 11
364.1513903428
 21
31.8167858495
  0
LINE
  8
0
 62
7
  6
CONTINUOUS
 10
366.9842032839
 20
31.6554674174
 11
367.0998278428
 21
31.5909400446
  0
LINE
  8
0
 62
7
  6
CONTINUOUS
 10
367.3310782839
 20
31.6877311038
 11
367.2154530634
 21
31.7522584767
  0
LINE
  8
0
 62
7
  6
CONTINUOUS
 10
358.8326405772
 20
30.8811388585
 11
359.0060780772
 21
30.8488751693
  0
LINE
  8
0
 62
7
  6
CONTINUOUS
 10
359.2951405909
 20
30.945666237
 11
358.9482655496
 21
31.0101936212
  0
LINE
  8
0
 62
7
  6
CONTINUOUS
 10
361.7232656736
 20
31.6877311038
 11
361.8388905634
 21
31.6554674174
  0
LINE
  8
0
 62
7
  6
CONTINUOUS
 10
364.0357657839
 20
31.6877311038
 11
364.1513903428
 21
31.6554674174
  0
LINE
  8
0
 62
7
  6
CONTINUOUS
 10
368.3717032839
 20
30.9779299347
 11
368.2560780634
 21
31.0101936212
  0
LINE
  8
0
 62
7
  6
CONTINUOUS
 10
366.8685780634
 20
31.6877311038
 11
366.9842032839
 21
31.6554674174
  0
LINE
  8
0
 62
7
  6
CONTINUOUS
 10
368.0248282839
 20
30.945666237
 11
368.1982657839
 21
30.8811388585
  0
LINE
  8
0
 62
7
  6
CONTINUOUS
 10
367.2154530634
 20
31.7522584767
 11
367.0420155634
 21
31.8167858495
  0
LINE
  8
0
 62
7
  6
CONTINUOUS
 10
368.4295155634
 20
31.4618852989
 11
368.2560780634
 21
31.5264126717
  0
LINE
  8
0
 62
7
  6
CONTINUOUS
 10
369.2388907839
 20
31.2037757623
 11
369.4123282839
 21
31.1392483894
  0
LINE
  8
0
 62
7
  6
CONTINUOUS
 10
369.6435780634
 20
31.7199947902
 11
369.4701405634
 21
31.7845221631
  0
LINE
  8
0
 62
7
  6
CONTINUOUS
 10
368.0248282839
 20
31.4618852989
 11
368.2560780634
 21
31.3650941944
  0
LINE
  8
0
 62
7
  6
CONTINUOUS
 10
369.6435780634
 20
31.2037757623
 11
369.4123282839
 21
31.3005668216
  0
LINE
  8
0
 62
7
  6
CONTINUOUS
 10
368.1982657839
 20
31.5909400446
 11
368.2560780634
 21
31.6554674174
  0
LINE
  8
0
 62
7
  6
CONTINUOUS
 10
358.6592030565
 20
31.7199947902
 11
358.5435780634
 21
31.6554674174
  0
LINE
  8
0
 62
7
  6
CONTINUOUS
 10
358.7748280496
 20
31.5586763581
 11
358.9482655496
 21
31.6554674174
  0
LINE
  8
0
 62
7
  6
CONTINUOUS
 10
361.0873281185
 20
31.7522584767
 11
360.9717030634
 21
31.6877311038
  0
LINE
  8
0
 62
7
  6
CONTINUOUS
 10
360.9717030634
 20
31.5586763581
 11
361.0873281185
 21
31.623203731
  0
LINE
  8
0
 62
7
  6
CONTINUOUS
 10
359.9888905082
 20
30.9134025506
 11
360.1623280082
 21
31.0101936212
  0
LINE
  8
0
 62
7
  6
CONTINUOUS
 10
359.0060780772
 20
30.8488751693
 11
359.3529530358
 21
30.81661148
  0
LINE
  8
0
 62
7
  6
CONTINUOUS
 10
363.1107656736
 20
30.8488751693
 11
363.3420154531
 21
30.81661148
  0
LINE
  8
0
 62
7
  6
CONTINUOUS
 10
361.4920155634
 20
31.7199947902
 11
361.7232656736
 21
31.6877311038
  0
LINE
  8
0
 62
7
  6
CONTINUOUS
 10
363.8045156736
 20
31.7199947902
 11
364.0357657839
 21
31.6877311038
  0
LINE
  8
0
 62
7
  6
CONTINUOUS
 10
368.2560780634
 20
31.3650941944
 11
369.2388907839
 21
31.2037757623
  0
LINE
  8
0
 62
7
  6
CONTINUOUS
 10
369.4123282839
 20
31.3005668216
 11
368.4295155634
 21
31.4618852989
  0
LINE
  8
0
 62
7
  6
CONTINUOUS
 10
361.8967031736
 20
31.8167858495
 11
361.7232656736
 21
31.8490495359
  0
LINE
  8
0
 62
7
  6
CONTINUOUS
 10
368.1982657839
 20
30.8811388585
 11
368.3717032839
 21
30.8488751693
  0
LINE
  8
0
 62
7
  6
CONTINUOUS
 10
367.0420155634
 20
31.8167858495
 11
366.8685780634
 21
31.8490495359
  0
LINE
  8
0
 62
7
  6
CONTINUOUS
 10
369.2967030634
 20
31.6877311038
 11
369.4123282839
 21
31.6554674174
  0
LINE
  8
0
 62
7
  6
CONTINUOUS
 10
369.4701405634
 20
31.074720994
 11
369.4123282839
 21
31.0101936212
  0
LINE
  8
0
 62
7
  6
CONTINUOUS
 10
368.0248282839
 20
31.7522584767
 11
367.9092030634
 21
31.6554674174
  0
LINE
  8
0
 62
7
  6
CONTINUOUS
 10
362.9373281736
 20
31.7845221631
 11
362.8217029531
 21
31.7199947902
  0
LINE
  8
0
 62
7
  6
CONTINUOUS
 10
362.9951404531
 20
31.397357926
 11
362.8795155634
 21
31.332830508
  0
LINE
  8
0
 62
7
  6
CONTINUOUS
 10
363.1107656736
 20
31.2360394487
 11
363.2263905634
 21
31.3005668216
  0
LINE
  8
0
 62
7
  6
CONTINUOUS
 10
360.6826405082
 20
30.81661148
 11
360.9717030634
 21
30.81661148
  0
LINE
  8
0
 62
7
  6
CONTINUOUS
 10
362.0123280634
 20
30.81661148
 11
362.3013904531
 21
30.81661148
  0
LINE
  8
0
 62
7
  6
CONTINUOUS
 10
363.3420154531
 20
30.81661148
 11
363.6888904531
 21
30.81661148
  0
LINE
  8
0
 62
7
  6
CONTINUOUS
 10
364.3248278428
 20
30.81661148
 11
364.6138905634
 21
30.81661148
  0
LINE
  8
0
 62
7
  6
CONTINUOUS
 10
365.0763907839
 20
30.81661148
 11
365.3654528428
 21
30.81661148
  0
LINE
  8
0
 62
7
  6
CONTINUOUS
 10
365.8279530634
 20
30.81661148
 11
366.1170157839
 21
30.81661148
  0
LINE
  8
0
 62
7
  6
CONTINUOUS
 10
367.1576407839
 20
30.81661148
 11
367.4467028428
 21
30.81661148
  0
LINE
  8
0
 62
7
  6
CONTINUOUS
 10
368.7185782839
 20
30.81661148
 11
369.0654532839
 21
30.81661148
  0
LINE
  8
0
 62
7
  6
CONTINUOUS
 10
369.0654532839
 20
30.945666237
 11
368.7185782839
 21
30.945666237
  0
LINE
  8
0
 62
7
  6
CONTINUOUS
 10
363.6888904531
 20
30.945666237
 11
363.3420154531
 21
30.945666237
  0
LINE
  8
0
 62
7
  6
CONTINUOUS
 10
368.1982657839
 20
31.074720994
 11
367.9092030634
 21
31.074720994
  0
LINE
  8
0
 62
7
  6
CONTINUOUS
 10
360.2201406185
 20
31.1392483894
 11
359.9310780634
 21
31.1392483894
  0
LINE
  8
0
 62
7
  6
CONTINUOUS
 10
359.2951405909
 20
31.7199947902
 11
359.6998280358
 21
31.6877311038
  0
LINE
  8
0
 62
7
  6
CONTINUOUS
 10
359.7576405634
 20
31.8167858495
 11
359.3529530358
 21
31.8490495359
  0
LINE
  8
0
 62
7
  6
CONTINUOUS
 10
368.3717032839
 20
30.8488751693
 11
368.7185782839
 21
30.81661148
  0
LINE
  8
0
 62
7
  6
CONTINUOUS
 10
368.7185782839
 20
30.945666237
 11
368.3717032839
 21
30.9779299347
  0
LINE
  8
0
 62
7
  6
CONTINUOUS
 10
364.1513903428
 20
31.8167858495
 11
363.8045156736
 21
31.8490495359
  0
LINE
  8
0
 62
7
  6
CONTINUOUS
 10
368.9498280634
 20
31.7199947902
 11
369.2967030634
 21
31.6877311038
  0
LINE
  8
0
 62
7
  6
CONTINUOUS
 10
369.2967030634
 20
31.8167858495
 11
368.9498280634
 21
31.8490495359
  0
LINE
  8
0
 62
7
  6
CONTINUOUS
 10
366.6373282839
 20
31.7199947902
 11
366.8685780634
 21
31.6877311038
  0
LINE
  8
0
 62
7
  6
CONTINUOUS
 10
369.4701405634
 20
31.7845221631
 11
369.2967030634
 21
31.8167858495
  0
LINE
  8
0
 62
7
  6
CONTINUOUS
 10
369.6435780634
 20
30.9134025506
 11
369.7592026223
 21
31.0101936212
  0
LINE
  8
0
 62
7
  6
CONTINUOUS
 10
364.1513903428
 20
31.106984703
 11
363.9779528428
 21
31.0101936212
  0
LINE
  8
0
 62
7
  6
CONTINUOUS
 10
366.2326403428
 20
31.7522584767
 11
366.1170157839
 21
31.6877311038
  0
LINE
  8
0
 62
7
  6
CONTINUOUS
 10
366.1170157839
 20
31.5586763581
 11
366.2326403428
 21
31.623203731
  0
LINE
  8
0
 62
7
  6
CONTINUOUS
 10
358.8326405772
 20
31.7845221631
 11
358.6592030565
 21
31.7199947902
  0
LINE
  8
0
 62
7
  6
CONTINUOUS
 10
361.2607654531
 20
31.8167858495
 11
361.0873281185
 21
31.7522584767
  0
LINE
  8
0
 62
7
  6
CONTINUOUS
 10
361.0873281185
 20
31.623203731
 11
361.2607654531
 21
31.6877311038
  0
LINE
  8
0
 62
7
  6
CONTINUOUS
 10
359.8732656185
 20
31.0424573076
 11
359.6998280358
 21
30.9779299347
  0
LINE
  8
0
 62
7
  6
CONTINUOUS
 10
369.2967030634
 20
30.9779299347
 11
369.0654532839
 21
30.945666237
  0
LINE
  8
0
 62
7
  6
CONTINUOUS
 10
363.6888904531
 20
30.81661148
 11
363.9779528428
 21
30.8488751693
  0
LINE
  8
0
 62
7
  6
CONTINUOUS
 10
369.0654532839
 20
30.81661148
 11
369.4123282839
 21
30.8488751693
  0
LINE
  8
0
 62
7
  6
CONTINUOUS
 10
359.3529530358
 20
30.81661148
 11
359.7576405634
 21
30.8488751693
  0
LINE
  8
0
 62
7
  6
CONTINUOUS
 10
359.6998280358
 20
30.9779299347
 11
359.2951405909
 21
30.945666237
  0
LINE
  8
0
 62
7
  6
CONTINUOUS
 10
363.5732655634
 20
31.3650941944
 11
364.2092032839
 21
31.3650941944
  0
LINE
  8
0
 62
7
  6
CONTINUOUS
 10
364.2092032839
 20
31.4941489853
 11
363.5732655634
 21
31.4941489853
  0
LINE
  8
0
 62
7
  6
CONTINUOUS
 10
359.9310780634
 20
31.5264126717
 11
360.2201406185
 21
31.5264126717
  0
LINE
  8
0
 62
7
  6
CONTINUOUS
 10
362.7638906736
 20
31.5909400446
 11
363.0529530634
 21
31.5909400446
  0
LINE
  8
0
 62
7
  6
CONTINUOUS
 10
369.4701405634
 20
31.5909400446
 11
369.7592026223
 21
31.5909400446
  0
LINE
  8
0
 62
7
  6
CONTINUOUS
 10
363.4576406736
 20
31.7199947902
 11
363.8045156736
 21
31.7199947902
  0
LINE
  8
0
 62
7
  6
CONTINUOUS
 10
368.6029530634
 20
31.7199947902
 11
368.9498280634
 21
31.7199947902
  0
LINE
  8
0
 62
7
  6
CONTINUOUS
 10
368.9498280634
 20
31.8490495359
 11
368.6029530634
 21
31.8490495359
  0
LINE
  8
0
 62
7
  6
CONTINUOUS
 10
366.8685780634
 20
31.8490495359
 11
366.6373282839
 21
31.8490495359
  0
LINE
  8
0
 62
7
  6
CONTINUOUS
 10
366.1170157839
 20
31.8490495359
 11
365.8279530634
 21
31.8490495359
  0
LINE
  8
0
 62
7
  6
CONTINUOUS
 10
365.3654528428
 20
31.8490495359
 11
365.0763907839
 21
31.8490495359
  0
LINE
  8
0
 62
7
  6
CONTINUOUS
 10
363.8045156736
 20
31.8490495359
 11
363.4576406736
 21
31.8490495359
  0
LINE
  8
0
 62
7
  6
CONTINUOUS
 10
361.7232656736
 20
31.8490495359
 11
361.4920155634
 21
31.8490495359
  0
LINE
  8
0
 62
7
  6
CONTINUOUS
 10
365.0763907839
 20
32.1716864905
 11
365.3654528428
 21
32.1716864905
  0
LINE
  8
0
 62
7
  6
CONTINUOUS
 10
365.3654528428
 20
32.3330049227
 11
365.0763907839
 21
32.3330049227
  0
LINE
  8
0
 62
7
  6
CONTINUOUS
 10
360.9717030634
 20
32.3330049227
 11
360.6826405082
 21
32.3330049227
  0
LINE
  8
0
 62
7
  6
CONTINUOUS
 10
360.0094848257
 20
32.6198901686
 11
360.4220561743
 21
32.6198901686
  0
LINE
  8
0
 62
7
  6
CONTINUOUS
 10
361.648829088
 20
32.6198901686
 11
363.0422717109
 21
32.6198901686
  0
LINE
  8
0
 62
7
  6
CONTINUOUS
 10
363.3701405634
 20
32.6198901686
 11
364.7635831863
 21
32.6198901686
  0
LINE
  8
0
 62
7
  6
CONTINUOUS
 10
366.648829088
 20
32.6198901686
 11
368.0422717109
 21
32.6198901686
  0
LINE
  8
0
 62
7
  6
CONTINUOUS
 10
368.3701405634
 20
32.6198901686
 11
369.7635831863
 21
32.6198901686
  0
LINE
  8
0
 62
7
  6
CONTINUOUS
 10
366.4060778428
 20
31.8167858495
 11
366.2326403428
 21
31.7522584767
  0
LINE
  8
0
 62
7
  6
CONTINUOUS
 10
363.9779528428
 20
30.8488751693
 11
364.1513903428
 21
30.9134025506
  0
LINE
  8
0
 62
7
  6
CONTINUOUS
 10
369.4123282839
 20
30.8488751693
 11
369.6435780634
 21
30.9134025506
  0
LINE
  8
0
 62
7
  6
CONTINUOUS
 10
369.4123282839
 20
31.0101936212
 11
369.2967030634
 21
30.9779299347
  0
LINE
  8
0
 62
7
  6
CONTINUOUS
 10
368.3717032839
 20
31.6877311038
 11
368.6029530634
 21
31.7199947902
  0
LINE
  8
0
 62
7
  6
CONTINUOUS
 10
366.4060778428
 20
31.6877311038
 11
366.6373282839
 21
31.7199947902
  0
LINE
  8
0
 62
7
  6
CONTINUOUS
 10
363.3420154531
 20
31.332830508
 11
363.5732655634
 21
31.3650941944
  0
LINE
  8
0
 62
7
  6
CONTINUOUS
 10
366.6373282839
 20
31.8490495359
 11
366.4060778428
 21
31.8167858495
  0
LINE
  8
0
 62
7
  6
CONTINUOUS
 10
363.2263905634
 20
31.6877311038
 11
363.4576406736
 21
31.7199947902
  0
LINE
  8
0
 62
7
  6
CONTINUOUS
 10
368.6029530634
 20
31.8490495359
 11
368.2560780634
 21
31.8167858495
  0
LINE
  8
0
 62
7
  6
CONTINUOUS
 10
363.5732655634
 20
31.4941489853
 11
363.2263905634
 21
31.4618852989
  0
LINE
  8
0
 62
7
  6
CONTINUOUS
 10
359.3529530358
 20
31.8490495359
 11
359.0060780772
 21
31.8167858495
  0
LINE
  8
0
 62
7
  6
CONTINUOUS
 10
363.4576406736
 20
31.8490495359
 11
363.0529530634
 21
31.8167858495
  0
LINE
  8
0
 62
7
  6
CONTINUOUS
 10
360.8291569568
 20
33.7674311522
 11
360.1734192519
 21
33.7674311522
  0
LINE
  8
0
 62
7
  6
CONTINUOUS
 10
366.2326403428
 20
31.623203731
 11
366.4060778428
 21
31.6877311038
  0
LINE
  8
0
 62
7
  6
CONTINUOUS
 10
368.2560780634
 20
31.6554674174
 11
368.3717032839
 21
31.6877311038
  0
LINE
  8
0
 62
7
  6
CONTINUOUS
 10
368.2560780634
 20
31.8167858495
 11
368.0248282839
 21
31.7522584767
  0
LINE
  8
0
 62
7
  6
CONTINUOUS
 10
363.9779528428
 20
31.0101936212
 11
363.6888904531
 21
30.945666237
  0
LINE
  8
0
 62
7
  6
CONTINUOUS
 10
361.2607654531
 20
31.6877311038
 11
361.4920155634
 21
31.7199947902
  0
LINE
  8
0
 62
7
  6
CONTINUOUS
 10
361.4920155634
 20
31.8490495359
 11
361.2607654531
 21
31.8167858495
  0
LINE
  8
0
 62
7
  6
CONTINUOUS
 10
359.0638905634
 20
31.6877311038
 11
359.2951405909
 21
31.7199947902
  0
LINE
  8
0
 62
7
  6
CONTINUOUS
 10
365.5832553175
 20
35.2428409882
 11
366.2389930224
 21
35.2428409882
  0
LINE
  8
0
 62
7
  6
CONTINUOUS
 10
363.2263905634
 20
31.3005668216
 11
363.3420154531
 21
31.332830508
  0
LINE
  8
0
 62
7
  6
CONTINUOUS
 10
363.2263905634
 20
31.4618852989
 11
362.9951404531
 21
31.397357926
  0
LINE
  8
0
 62
7
  6
CONTINUOUS
 10
363.1107656736
 20
31.6554674174
 11
363.2263905634
 21
31.6877311038
  0
LINE
  8
0
 62
7
  6
CONTINUOUS
 10
359.7576405634
 20
30.8488751693
 11
359.9888905082
 21
30.9134025506
  0
LINE
  8
0
 62
7
  6
CONTINUOUS
 10
363.0529530634
 20
31.8167858495
 11
362.9373281736
 21
31.7845221631
  0
LINE
  8
0
 62
7
  6
CONTINUOUS
 10
359.0060780772
 20
31.8167858495
 11
358.8326405772
 21
31.7845221631
  0
LINE
  8
0
 62
7
  6
CONTINUOUS
 10
369.7635831863
 20
36.3903819718
 11
368.3701405634
 21
36.3903819718
  0
LINE
  8
0
 62
7
  6
CONTINUOUS
 10
366.4029274486
 20
36.3903819718
 11
365.9903561
 21
36.3903819718
  0
LINE
  8
0
 62
7
  6
CONTINUOUS
 10
364.7635831863
 20
36.3903819718
 11
363.3701405634
 21
36.3903819718
  0
LINE
  8
0
 62
7
  6
CONTINUOUS
 10
363.0422717109
 20
36.3903819718
 11
361.648829088
 21
36.3903819718
  0
LINE
  8
0
 62
7
  6
CONTINUOUS
 10
359.7635831863
 20
36.3903819718
 11
358.3701405634
 21
36.3903819718
  0
LINE
  8
0
 62
7
  6
CONTINUOUS
 10
358.9482655496
 20
31.6554674174
 11
359.0638905634
 21
31.6877311038
  0
CIRCLE
  8
0
 62
7
  6
CONTINUOUS
 10
369.0668618749
 20
38.7264475456
 40
2.0901639344
  0
ARC
  8
0
 62
7
  6
CONTINUOUS
 10
360.0094848257
 20
34.2592344308
 40
1.6393442623
 50
180.0
 51
270.0
  0
ARC
  8
0
 62
7
  6
CONTINUOUS
 10
366.4029274486
 20
34.7510377095
 40
1.6393442623
 50
0.0
 51
90.0
  0
ARC
  8
0
 62
7
  6
CONTINUOUS
 10
360.4220561743
 20
34.0953000046
 40
1.4754098361
 50
270.0
 51
326.2510114041
  0
ARC
  8
0
 62
7
  6
CONTINUOUS
 10
365.9903561
 20
34.9149721358
 40
1.4754098361
 50
90.0
 51
146.2510114041
  0
ARC
  8
0
 62
7
  6
CONTINUOUS
 10
360.8291569568
 20
34.5871032833
 40
0.8196721311
 50
270.0
 51
360.0
  0
ARC
  8
0
 62
7
  6
CONTINUOUS
 10
365.5832553175
 20
34.4231688571
 40
0.8196721311
 50
90.0
 51
180.0
  0
ARC
  8
0
 62
7
  6
CONTINUOUS
 10
360.1734192519
 20
34.1772672177
 40
0.4098360656
 50
180.0
 51
270.0
  0
ARC
  8
0
 62
7
  6
CONTINUOUS
 10
366.2389930224
 20
34.8330049227
 40
0.4098360656
 50
0.0
 51
90.0
  0
SOLID
  8
0
 62
7
  6
CONTINUOUS
 10
365.0763907839
 20
32.1716868508
 11
365.0763907839
 21
32.3330053344
 12
365.3654528428
 22
32.1716868508
 13
365.3654528428
 23
32.3330053344
  0
SOLID
  8
0
 62
7
  6
CONTINUOUS
 10
359.3529530358
 20
31.8490498836
 11
359.7576405634
 21
31.8167854792
 12
359.0060780772
 22
31.8167854792
 13
359.0060780772
 23
31.8167854792
  0
SOLID
  8
0
 62
7
  6
CONTINUOUS
 10
358.8326405772
 20
31.7845227934
 11
359.0060780772
 21
31.8167854792
 12
359.7576405634
 22
31.8167854792
 13
359.7576405634
 23
31.8167854792
  0
SOLID
  8
0
 62
7
  6
CONTINUOUS
 10
359.7576405634
 20
31.8167854792
 11
359.9888905082
 21
31.7522584901
 12
358.8326405772
 22
31.7845227934
 13
358.8326405772
 23
31.7845227934
  0
SOLID
  8
0
 62
7
  6
CONTINUOUS
 10
358.6592030565
 20
31.7199940664
 11
358.8326405772
 21
31.7845227934
 12
359.9888905082
 22
31.7522584901
 13
359.9888905082
 23
31.7522584901
  0
SOLID
  8
0
 62
7
  6
CONTINUOUS
 10
358.6592030565
 20
31.7199940664
 11
359.9888905082
 21
31.7522584901
 12
359.2951405909
 22
31.7199940664
 13
359.2951405909
 23
31.7199940664
  0
SOLID
  8
0
 62
7
  6
CONTINUOUS
 10
359.2951405909
 20
31.7199940664
 11
359.9888905082
 21
31.7522584901
 12
359.6998280358
 22
31.6877314
 13
359.6998280358
 23
31.6877314
  0
SOLID
  8
0
 62
7
  6
CONTINUOUS
 10
359.9888905082
 20
31.7522584901
 11
360.1623280082
 21
31.6554670967
 12
359.6998280358
 22
31.6877314
 13
359.6998280358
 23
31.6877314
  0
SOLID
  8
0
 62
7
  6
CONTINUOUS
 10
359.8732656185
 20
31.6232043098
 11
359.6998280358
 21
31.6877314
 12
360.1623280082
 22
31.6554670967
 13
360.1623280082
 23
31.6554670967
  0
SOLID
  8
0
 62
7
  6
CONTINUOUS
 10
359.8732656185
 20
31.6232043098
 11
360.1623280082
 21
31.6554670967
 12
359.9310780634
 22
31.5264128539
 13
359.9310780634
 23
31.5264128539
  0
SOLID
  8
0
 62
7
  6
CONTINUOUS
 10
360.1623280082
 20
31.6554670967
 11
360.2201406185
 21
31.5264128539
 12
359.9310780634
 22
31.5264128539
 13
359.9310780634
 23
31.5264128539
  0
SOLID
  8
0
 62
7
  6
CONTINUOUS
 10
361.2607654531
 20
31.8167852459
 11
361.4920155634
 21
31.8490495492
 12
361.7232656736
 22
31.8490495492
 13
361.7232656736
 23
31.8490495492
  0
SOLID
  8
0
 62
7
  6
CONTINUOUS
 10
361.7232656736
 20
31.8490495492
 11
361.8967031736
 21
31.8167852459
 12
361.2607654531
 22
31.8167852459
 13
361.2607654531
 23
31.8167852459
  0
SOLID
  8
0
 62
7
  6
CONTINUOUS
 10
361.0873281185
 20
31.7522581557
 11
361.2607654531
 21
31.8167852459
 12
361.8967031736
 22
31.8167852459
 13
361.8967031736
 23
31.8167852459
  0
SOLID
  8
0
 62
7
  6
CONTINUOUS
 10
361.8967031736
 20
31.8167852459
 11
362.0701406736
 21
31.7522581557
 12
361.0873281185
 22
31.7522581557
 13
361.0873281185
 23
31.7522581557
  0
SOLID
  8
0
 62
7
  6
CONTINUOUS
 10
362.0701406736
 20
31.7522581557
 11
361.4920155634
 21
31.7199941869
 12
361.0873281185
 22
31.7522581557
 13
361.0873281185
 23
31.7522581557
  0
SOLID
  8
0
 62
7
  6
CONTINUOUS
 10
360.9717030634
 20
31.6877310656
 11
361.0873281185
 21
31.7522581557
 12
361.4920155634
 22
31.7199941869
 13
361.4920155634
 23
31.7199941869
  0
SOLID
  8
0
 62
7
  6
CONTINUOUS
 10
361.4920155634
 20
31.7199941869
 11
361.2607654531
 21
31.6877310656
 12
360.9717030634
 22
31.6877310656
 13
360.9717030634
 23
31.6877310656
  0
SOLID
  8
0
 62
7
  6
CONTINUOUS
 10
361.4920155634
 20
31.7199941869
 11
362.0701406736
 21
31.7522581557
 12
361.7232656736
 22
31.6877310656
 13
361.7232656736
 23
31.6877310656
  0
SOLID
  8
0
 62
7
  6
CONTINUOUS
 10
362.0701406736
 20
31.7522581557
 11
362.1857655634
 21
31.6877310656
 12
361.7232656736
 22
31.6877310656
 13
361.7232656736
 23
31.6877310656
  0
SOLID
  8
0
 62
7
  6
CONTINUOUS
 10
361.8388905634
 20
31.6554670967
 11
361.7232656736
 21
31.6877310656
 12
362.1857655634
 22
31.6877310656
 13
362.1857655634
 23
31.6877310656
  0
SOLID
  8
0
 62
7
  6
CONTINUOUS
 10
362.1857655634
 20
31.6877310656
 11
362.2435781736
 21
31.6232039754
 12
361.8388905634
 22
31.6554670967
 13
361.8388905634
 23
31.6554670967
  0
SOLID
  8
0
 62
7
  6
CONTINUOUS
 10
361.9545154531
 20
31.5909400065
 11
361.8388905634
 21
31.6554670967
 12
362.2435781736
 22
31.6232039754
 13
362.2435781736
 23
31.6232039754
  0
SOLID
  8
0
 62
7
  6
CONTINUOUS
 10
361.9545154531
 20
31.5909400065
 11
362.2435781736
 21
31.6232039754
 12
362.0123280634
 22
31.4618854918
 13
362.0123280634
 23
31.4618854918
  0
SOLID
  8
0
 62
7
  6
CONTINUOUS
 10
362.2435781736
 20
31.6232039754
 11
362.3013904531
 21
31.4618854918
 12
362.0123280634
 22
31.4618854918
 13
362.0123280634
 23
31.4618854918
  0
SOLID
  8
0
 62
7
  6
CONTINUOUS
 10
361.2607654531
 20
31.6877310656
 11
361.0873281185
 21
31.6232039754
 12
360.9717030634
 22
31.6877310656
 13
360.9717030634
 23
31.6877310656
  0
SOLID
  8
0
 62
7
  6
CONTINUOUS
 10
361.0873281185
 20
31.6232039754
 11
360.9717030634
 21
31.5586757033
 12
360.9717030634
 22
31.6877310656
 13
360.9717030634
 23
31.6877310656
  0
SOLID
  8
0
 62
7
  6
CONTINUOUS
 10
360.9717030634
 20
31.5586757033
 11
360.6826405082
 21
30.8166115574
 12
360.9717030634
 22
31.6877310656
 13
360.9717030634
 23
31.6877310656
  0
SOLID
  8
0
 62
7
  6
CONTINUOUS
 10
360.9717030634
 20
31.6877310656
 11
360.6826405082
 21
30.8166115574
 12
360.9717030634
 22
32.333005
 13
360.9717030634
 23
32.333005
  0
SOLID
  8
0
 62
7
  6
CONTINUOUS
 10
360.6826405082
 20
30.8166115574
 11
360.6826405082
 21
32.333005
 12
360.9717030634
 22
32.333005
 13
360.9717030634
 23
32.333005
  0
SOLID
  8
0
 62
7
  6
CONTINUOUS
 10
360.9717030634
 20
31.5586757033
 11
360.9717030634
 21
30.8166115574
 12
360.6826405082
 22
30.8166115574
 13
360.6826405082
 23
30.8166115574
  0
SOLID
  8
0
 62
7
  6
CONTINUOUS
 10
362.0123280634
 20
30.8166115574
 11
362.0123280634
 21
31.4618854918
 12
362.3013904531
 22
31.4618854918
 13
362.3013904531
 23
31.4618854918
  0
SOLID
  8
0
 62
7
  6
CONTINUOUS
 10
362.3013904531
 20
31.4618854918
 11
362.3013904531
 21
30.8166115574
 12
362.0123280634
 22
30.8166115574
 13
362.0123280634
 23
30.8166115574
  0
SOLID
  8
0
 62
7
  6
CONTINUOUS
 10
363.0529530634
 20
31.8167856315
 11
363.4576406736
 21
31.8490496243
 12
363.8045156736
 22
31.8490496243
 13
363.8045156736
 23
31.8490496243
  0
SOLID
  8
0
 62
7
  6
CONTINUOUS
 10
363.8045156736
 20
31.8490496243
 11
364.1513903428
 21
31.8167856315
 12
363.0529530634
 22
31.8167856315
 13
363.0529530634
 23
31.8167856315
  0
SOLID
  8
0
 62
7
  6
CONTINUOUS
 10
362.9373281736
 20
31.7845227934
 11
363.0529530634
 21
31.8167856315
 12
364.1513903428
 22
31.8167856315
 13
364.1513903428
 23
31.8167856315
  0
SOLID
  8
0
 62
7
  6
CONTINUOUS
 10
364.1513903428
 20
31.8167856315
 11
364.3248278428
 21
31.7522584901
 12
362.9373281736
 22
31.7845227934
 13
362.9373281736
 23
31.7845227934
  0
SOLID
  8
0
 62
7
  6
CONTINUOUS
 10
362.8217029531
 20
31.7199944276
 11
362.9373281736
 21
31.7845227934
 12
364.3248278428
 22
31.7522584901
 13
364.3248278428
 23
31.7522584901
  0
SOLID
  8
0
 62
7
  6
CONTINUOUS
 10
362.8217029531
 20
31.7199944276
 11
364.3248278428
 21
31.7522584901
 12
363.4576406736
 22
31.7199944276
 13
363.4576406736
 23
31.7199944276
  0
SOLID
  8
0
 62
7
  6
CONTINUOUS
 10
363.4576406736
 20
31.7199944276
 11
364.3248278428
 21
31.7522584901
 12
363.8045156736
 22
31.7199944276
 13
363.8045156736
 23
31.7199944276
  0
SOLID
  8
0
 62
7
  6
CONTINUOUS
 10
363.8045156736
 20
31.7199944276
 11
364.3248278428
 21
31.7522584901
 12
364.0357657839
 22
31.6877312092
 13
364.0357657839
 23
31.6877312092
  0
SOLID
  8
0
 62
7
  6
CONTINUOUS
 10
364.3248278428
 20
31.7522584901
 11
364.4404530634
 21
31.6877312092
 12
364.0357657839
 22
31.6877312092
 13
364.0357657839
 23
31.6877312092
  0
SOLID
  8
0
 62
7
  6
CONTINUOUS
 10
362.7638906736
 20
31.6554672165
 11
362.8217029531
 21
31.7199944276
 12
363.4576406736
 22
31.7199944276
 13
363.4576406736
 23
31.7199944276
  0
SOLID
  8
0
 62
7
  6
CONTINUOUS
 10
364.1513903428
 20
31.6554672165
 11
364.0357657839
 21
31.6877312092
 12
364.4404530634
 22
31.6877312092
 13
364.4404530634
 23
31.6877312092
  0
SOLID
  8
0
 62
7
  6
CONTINUOUS
 10
364.1513903428
 20
31.6554672165
 11
364.4404530634
 21
31.6877312092
 12
364.2092032839
 22
31.5909400053
 13
364.2092032839
 23
31.5909400053
  0
SOLID
  8
0
 62
7
  6
CONTINUOUS
 10
364.4404530634
 20
31.6877312092
 11
364.4982653428
 21
31.5909400053
 12
364.2092032839
 22
31.5909400053
 13
364.2092032839
 23
31.5909400053
  0
SOLID
  8
0
 62
7
  6
CONTINUOUS
 10
364.2092032839
 20
31.4941486131
 11
364.2092032839
 21
31.5909400053
 12
364.4982653428
 22
31.5909400053
 13
364.4982653428
 23
31.5909400053
  0
SOLID
  8
0
 62
7
  6
CONTINUOUS
 10
364.2092032839
 20
31.4941486131
 11
364.4982653428
 21
31.5909400053
 12
364.2092032839
 22
31.3650944328
 13
364.2092032839
 23
31.3650944328
  0
SOLID
  8
0
 62
7
  6
CONTINUOUS
 10
364.2092032839
 20
31.3650944328
 11
364.4982653428
 21
31.5909400053
 12
364.2092032839
 22
31.1715120759
 13
364.2092032839
 23
31.1715120759
  0
SOLID
  8
0
 62
7
  6
CONTINUOUS
 10
364.4982653428
 20
31.5909400053
 11
364.4982653428
 21
31.0747202524
 12
364.2092032839
 22
31.1715120759
 13
364.2092032839
 23
31.1715120759
  0
SOLID
  8
0
 62
7
  6
CONTINUOUS
 10
366.4060778428
 20
31.8167851023
 11
366.6373282839
 21
31.849049822
 12
366.8685780634
 22
31.849049822
 13
366.8685780634
 23
31.849049822
  0
SOLID
  8
0
 62
7
  6
CONTINUOUS
 10
366.8685780634
 20
31.849049822
 11
367.0420155634
 21
31.8167851023
 12
366.4060778428
 22
31.8167851023
 13
366.4060778428
 23
31.8167851023
  0
SOLID
  8
0
 62
7
  6
CONTINUOUS
 10
366.2326403428
 20
31.7522587602
 11
366.4060778428
 21
31.8167851023
 12
367.0420155634
 22
31.8167851023
 13
367.0420155634
 23
31.8167851023
  0
SOLID
  8
0
 62
7
  6
CONTINUOUS
 10
367.0420155634
 20
31.8167851023
 11
367.2154530634
 21
31.7522587602
 12
366.2326403428
 22
31.7522587602
 13
366.2326403428
 23
31.7522587602
  0
SOLID
  8
0
 62
7
  6
CONTINUOUS
 10
367.2154530634
 20
31.7522587602
 11
366.6373282839
 21
31.7199941869
 12
366.2326403428
 22
31.7522587602
 13
366.2326403428
 23
31.7522587602
  0
SOLID
  8
0
 62
7
  6
CONTINUOUS
 10
366.1170157839
 20
31.6877313857
 11
366.2326403428
 21
31.7522587602
 12
366.6373282839
 22
31.7199941869
 13
366.6373282839
 23
31.7199941869
  0
SOLID
  8
0
 62
7
  6
CONTINUOUS
 10
366.6373282839
 20
31.7199941869
 11
366.4060778428
 21
31.6877313857
 12
366.1170157839
 22
31.6877313857
 13
366.1170157839
 23
31.6877313857
  0
SOLID
  8
0
 62
7
  6
CONTINUOUS
 10
366.6373282839
 20
31.7199941869
 11
367.2154530634
 21
31.7522587602
 12
366.8685780634
 22
31.6877313857
 13
366.8685780634
 23
31.6877313857
  0
SOLID
  8
0
 62
7
  6
CONTINUOUS
 10
367.2154530634
 20
31.7522587602
 11
367.3310782839
 21
31.6877313857
 12
366.8685780634
 22
31.6877313857
 13
366.8685780634
 23
31.6877313857
  0
SOLID
  8
0
 62
7
  6
CONTINUOUS
 10
366.9842032839
 20
31.6554670967
 11
366.8685780634
 21
31.6877313857
 12
367.3310782839
 22
31.6877313857
 13
367.3310782839
 23
31.6877313857
  0
SOLID
  8
0
 62
7
  6
CONTINUOUS
 10
366.9842032839
 20
31.6554670967
 11
367.3310782839
 21
31.6877313857
 12
367.0998278428
 22
31.590940324
 13
367.0998278428
 23
31.590940324
  0
SOLID
  8
0
 62
7
  6
CONTINUOUS
 10
367.3310782839
 20
31.6877313857
 11
367.3888905634
 21
31.590940324
 12
367.0998278428
 22
31.590940324
 13
367.0998278428
 23
31.590940324
  0
SOLID
  8
0
 62
7
  6
CONTINUOUS
 10
367.1576407839
 20
31.4296218878
 11
367.0998278428
 21
31.590940324
 12
367.3888905634
 22
31.590940324
 13
367.3888905634
 23
31.590940324
  0
SOLID
  8
0
 62
7
  6
CONTINUOUS
 10
367.3888905634
 20
31.590940324
 11
367.4467028428
 21
31.4296218878
 12
367.1576407839
 22
31.4296218878
 13
367.1576407839
 23
31.4296218878
  0
SOLID
  8
0
 62
7
  6
CONTINUOUS
 10
366.4060778428
 20
31.6877313857
 11
366.2326403428
 21
31.6232043098
 12
366.1170157839
 22
31.6877313857
 13
366.1170157839
 23
31.6877313857
  0
SOLID
  8
0
 62
7
  6
CONTINUOUS
 10
366.2326403428
 20
31.6232043098
 11
366.1170157839
 21
31.5586757033
 12
366.1170157839
 22
31.6877313857
 13
366.1170157839
 23
31.6877313857
  0
SOLID
  8
0
 62
7
  6
CONTINUOUS
 10
366.1170157839
 20
31.5586757033
 11
365.8279530634
 21
30.8166118302
 12
366.1170157839
 22
31.6877313857
 13
366.1170157839
 23
31.6877313857
  0
SOLID
  8
0
 62
7
  6
CONTINUOUS
 10
366.1170157839
 20
31.6877313857
 11
365.8279530634
 21
30.8166118302
 12
366.1170157839
 22
31.849049822
 13
366.1170157839
 23
31.849049822
  0
SOLID
  8
0
 62
7
  6
CONTINUOUS
 10
365.8279530634
 20
30.8166118302
 11
365.8279530634
 21
31.849049822
 12
366.1170157839
 22
31.849049822
 13
366.1170157839
 23
31.849049822
  0
SOLID
  8
0
 62
7
  6
CONTINUOUS
 10
366.1170157839
 20
31.5586757033
 11
366.1170157839
 21
30.8166118302
 12
365.8279530634
 22
30.8166118302
 13
365.8279530634
 23
30.8166118302
  0
SOLID
  8
0
 62
7
  6
CONTINUOUS
 10
367.1576407839
 20
30.8166118302
 11
367.1576407839
 21
31.4296218878
 12
367.4467028428
 22
31.4296218878
 13
367.4467028428
 23
31.4296218878
  0
SOLID
  8
0
 62
7
  6
CONTINUOUS
 10
367.4467028428
 20
31.4296218878
 11
367.4467028428
 21
30.8166118302
 12
367.1576407839
 22
30.8166118302
 13
367.1576407839
 23
30.8166118302
  0
SOLID
  8
0
 62
7
  6
CONTINUOUS
 10
368.2560780634
 20
31.8167856056
 11
368.6029530634
 21
31.8490498552
 12
368.9498280634
 22
31.8490498552
 13
368.9498280634
 23
31.8490498552
  0
SOLID
  8
0
 62
7
  6
CONTINUOUS
 10
368.9498280634
 20
31.8490498552
 11
369.2967030634
 21
31.8167856056
 12
368.2560780634
 22
31.8167856056
 13
368.2560780634
 23
31.8167856056
  0
SOLID
  8
0
 62
7
  6
CONTINUOUS
 10
368.0248282839
 20
31.7522584901
 11
368.2560780634
 21
31.8167856056
 12
369.2967030634
 22
31.8167856056
 13
369.2967030634
 23
31.8167856056
  0
SOLID
  8
0
 62
7
  6
CONTINUOUS
 10
368.0248282839
 20
31.7522584901
 11
369.2967030634
 21
31.8167855803
 12
369.4701405634
 22
31.7845227934
 13
369.4701405634
 23
31.7845227934
  0
SOLID
  8
0
 62
7
  6
CONTINUOUS
 10
368.0248282839
 20
31.7522584901
 11
369.4701405634
 21
31.7845227934
 12
368.6029530634
 22
31.7199941235
 13
368.6029530634
 23
31.7199941235
  0
SOLID
  8
0
 62
7
  6
CONTINUOUS
 10
368.6029530634
 20
31.7199941235
 11
369.4701405634
 21
31.7845227934
 12
368.9498280634
 22
31.7199941235
 13
368.9498280634
 23
31.7199941235
  0
SOLID
  8
0
 62
7
  6
CONTINUOUS
 10
369.4701405634
 20
31.7845227934
 11
369.6435780634
 21
31.7199941235
 12
368.9498280634
 22
31.7199941235
 13
368.9498280634
 23
31.7199941235
  0
SOLID
  8
0
 62
7
  6
CONTINUOUS
 10
369.2967030634
 20
31.6877314
 11
368.9498280634
 21
31.7199941235
 12
369.6435780634
 22
31.7199941235
 13
369.6435780634
 23
31.7199941235
  0
SOLID
  8
0
 62
7
  6
CONTINUOUS
 10
367.9092030634
 20
31.6554671071
 11
368.0248282839
 21
31.7522584901
 12
368.6029530634
 22
31.7199941235
 13
368.6029530634
 23
31.7199941235
  0
SOLID
  8
0
 62
7
  6
CONTINUOUS
 10
369.2967030634
 20
31.6877314
 11
369.6435780634
 21
31.7199941235
 12
369.4123282839
 22
31.6554671071
 13
369.4123282839
 23
31.6554671071
  0
SOLID
  8
0
 62
7
  6
CONTINUOUS
 10
369.4123282839
 20
31.6554671071
 11
369.6435780634
 21
31.7199941235
 12
369.4701405634
 22
31.5909400907
 13
369.4701405634
 23
31.5909400907
  0
SOLID
  8
0
 62
7
  6
CONTINUOUS
 10
369.6435780634
 20
31.7199941235
 11
369.7592026223
 21
31.5909400907
 12
369.4701405634
 22
31.5909400907
 13
369.4701405634
 23
31.5909400907
  0
SOLID
  8
0
 62
7
  6
CONTINUOUS
 10
359.0638905634
 20
31.6877314
 11
358.5435780634
 21
31.6554670789
 12
359.2951405909
 22
31.7199941045
 13
359.2951405909
 23
31.7199941045
  0
SOLID
  8
0
 62
7
  6
CONTINUOUS
 10
358.5435780634
 20
31.6554670789
 11
358.6592030565
 21
31.7199941045
 12
359.2951405909
 22
31.7199941045
 13
359.2951405909
 23
31.7199941045
  0
SOLID
  8
0
 62
7
  6
CONTINUOUS
 10
359.0638905634
 20
31.6877314
 11
358.9482655496
 21
31.6554670789
 12
358.5435780634
 22
31.6554670789
 13
358.5435780634
 23
31.6554670789
  0
SOLID
  8
0
 62
7
  6
CONTINUOUS
 10
358.4279530651
 20
31.5264129164
 11
358.5435780634
 21
31.6554670789
 12
358.9482655496
 22
31.6554670789
 13
358.9482655496
 23
31.6554670789
  0
SOLID
  8
0
 62
7
  6
CONTINUOUS
 10
362.7638906736
 20
31.6554670789
 11
363.4576406736
 21
31.7199941869
 12
363.2263905634
 22
31.6877314
 13
363.2263905634
 23
31.6877314
  0
SOLID
  8
0
 62
7
  6
CONTINUOUS
 10
363.2263905634
 20
31.6877314
 11
363.1107656736
 21
31.6554670789
 12
362.7638906736
 22
31.6554670789
 13
362.7638906736
 23
31.6554670789
  0
SOLID
  8
0
 62
7
  6
CONTINUOUS
 10
362.7638906736
 20
31.5909399887
 11
362.7638906736
 21
31.6554670789
 12
363.1107656736
 22
31.6554670789
 13
363.1107656736
 23
31.6554670789
  0
SOLID
  8
0
 62
7
  6
CONTINUOUS
 10
363.1107656736
 20
31.6554670789
 11
363.0529530634
 21
31.5909399887
 12
362.7638906736
 22
31.5909399887
 13
362.7638906736
 23
31.5909399887
  0
SOLID
  8
0
 62
7
  6
CONTINUOUS
 10
367.9092030634
 20
31.6554670789
 11
368.6029530634
 21
31.7199941869
 12
368.3717032839
 22
31.6877314
 13
368.3717032839
 23
31.6877314
  0
SOLID
  8
0
 62
7
  6
CONTINUOUS
 10
368.3717032839
 20
31.6877314
 11
368.2560780634
 21
31.6554670789
 12
367.9092030634
 22
31.6554670789
 13
367.9092030634
 23
31.6554670789
  0
SOLID
  8
0
 62
7
  6
CONTINUOUS
 10
367.9092030634
 20
31.5909399887
 11
367.9092030634
 21
31.6554670789
 12
368.2560780634
 22
31.6554670789
 13
368.2560780634
 23
31.6554670789
  0
SOLID
  8
0
 62
7
  6
CONTINUOUS
 10
368.2560780634
 20
31.6554670789
 11
368.1982657839
 21
31.5909399887
 12
367.9092030634
 22
31.5909399887
 13
367.9092030634
 23
31.5909399887
  0
SOLID
  8
0
 62
7
  6
CONTINUOUS
 10
368.0248282839
 20
31.4618858262
 11
367.9092030634
 21
31.5909399887
 12
368.1982657839
 22
31.5909399887
 13
368.1982657839
 23
31.5909399887
  0
SOLID
  8
0
 62
7
  6
CONTINUOUS
 10
358.4279530651
 20
31.5264129164
 11
358.9482655496
 21
31.6554670967
 12
358.7748280496
 22
31.5586757033
 13
358.7748280496
 23
31.5586757033
  0
SOLID
  8
0
 62
7
  6
CONTINUOUS
 10
358.7748280496
 20
31.5586757033
 11
358.7170155634
 21
31.4941486131
 12
358.4279530651
 22
31.5264129164
 13
358.4279530651
 23
31.5264129164
  0
SOLID
  8
0
 62
7
  6
CONTINUOUS
 10
358.3701405634
 20
31.3328301295
 11
358.4279530651
 21
31.5264129164
 12
358.7170155634
 22
31.4941486131
 13
358.7170155634
 23
31.4941486131
  0
SOLID
  8
0
 62
7
  6
CONTINUOUS
 10
363.2263905634
 20
31.4618858262
 11
363.5732655634
 21
31.4941485791
 12
364.2092032839
 22
31.4941485791
 13
364.2092032839
 23
31.4941485791
  0
SOLID
  8
0
 62
7
  6
CONTINUOUS
 10
363.2263905634
 20
31.4618858262
 11
364.2092032839
 21
31.4941485791
 12
362.9951404531
 22
31.397357926
 13
362.9951404531
 23
31.397357926
  0
SOLID
  8
0
 62
7
  6
CONTINUOUS
 10
362.9951404531
 20
31.397357926
 11
364.2092032839
 21
31.4941485791
 12
363.5732655634
 22
31.3650943988
 13
363.5732655634
 23
31.3650943988
  0
SOLID
  8
0
 62
7
  6
CONTINUOUS
 10
364.2092032839
 20
31.4941485791
 11
364.2092032839
 21
31.3650943988
 12
363.5732655634
 22
31.3650943988
 13
363.5732655634
 23
31.3650943988
  0
SOLID
  8
0
 62
7
  6
CONTINUOUS
 10
368.0248282839
 20
31.4618859165
 11
368.1982657839
 21
31.5909400065
 12
368.2560780634
 22
31.5264129164
 13
368.2560780634
 23
31.5264129164
  0
SOLID
  8
0
 62
7
  6
CONTINUOUS
 10
368.2560780634
 20
31.5264129164
 11
368.4295155634
 21
31.4618859165
 12
368.0248282839
 22
31.4618859165
 13
368.0248282839
 23
31.4618859165
  0
SOLID
  8
0
 62
7
  6
CONTINUOUS
 10
368.2560780634
 20
31.3650944328
 11
368.0248282839
 21
31.4618859165
 12
368.4295155634
 22
31.4618859165
 13
368.4295155634
 23
31.4618859165
  0
SOLID
  8
0
 62
7
  6
CONTINUOUS
 10
368.4295155634
 20
31.4618859165
 11
369.4123282839
 21
31.3005673426
 12
368.2560780634
 22
31.3650944328
 13
368.2560780634
 23
31.3650944328
  0
SOLID
  8
0
 62
7
  6
CONTINUOUS
 10
369.2388907839
 20
31.2037760287
 11
368.2560780634
 21
31.3650944328
 12
369.4123282839
 22
31.3005673426
 13
369.4123282839
 23
31.3005673426
  0
SOLID
  8
0
 62
7
  6
CONTINUOUS
 10
369.4123282839
 20
31.3005673426
 11
369.6435780634
 21
31.2037760287
 12
369.2388907839
 22
31.2037760287
 13
369.2388907839
 23
31.2037760287
  0
SOLID
  8
0
 62
7
  6
CONTINUOUS
 10
369.4123282839
 20
31.139248859
 11
369.2388907839
 21
31.2037760287
 12
369.6435780634
 22
31.2037760287
 13
369.6435780634
 23
31.2037760287
  0
SOLID
  8
0
 62
7
  6
CONTINUOUS
 10
369.4123282839
 20
31.139248859
 11
369.6435780634
 21
31.2037760287
 12
369.4701405634
 22
31.0747203105
 13
369.4701405634
 23
31.0747203105
  0
SOLID
  8
0
 62
7
  6
CONTINUOUS
 10
369.6435780634
 20
31.2037760287
 11
369.7592026223
 21
31.0747203105
 12
369.4701405634
 22
31.0747203105
 13
369.4701405634
 23
31.0747203105
  0
SOLID
  8
0
 62
7
  6
CONTINUOUS
 10
369.4123282839
 20
31.0101932257
 11
369.4701405634
 21
31.0747203105
 12
369.7592026223
 22
31.0747203105
 13
369.7592026223
 23
31.0747203105
  0
SOLID
  8
0
 62
7
  6
CONTINUOUS
 10
369.7592026223
 20
31.0747203105
 11
369.7592026223
 21
31.0101932257
 12
369.4123282839
 22
31.0101932257
 13
369.4123282839
 23
31.0101932257
  0
SOLID
  8
0
 62
7
  6
CONTINUOUS
 10
369.2967030634
 20
30.9779303754
 11
369.4123282839
 21
31.0101932257
 12
369.7592026223
 22
31.0101932257
 13
369.7592026223
 23
31.0101932257
  0
SOLID
  8
0
 62
7
  6
CONTINUOUS
 10
369.2967030634
 20
30.9779303754
 11
369.7592026223
 21
31.0101932257
 12
369.0654532839
 22
30.9456661409
 13
369.0654532839
 23
30.9456661409
  0
SOLID
  8
0
 62
7
  6
CONTINUOUS
 10
369.7592026223
 20
31.0101932257
 11
369.6435780634
 21
30.9134032852
 12
369.0654532839
 22
30.9456661409
 13
369.0654532839
 23
30.9456661409
  0
SOLID
  8
0
 62
7
  6
CONTINUOUS
 10
369.6435780634
 20
30.9134032852
 11
368.1982657839
 21
30.8811389819
 12
369.0654532839
 22
30.9456661409
 13
369.0654532839
 23
30.9456661409
  0
SOLID
  8
0
 62
7
  6
CONTINUOUS
 10
369.0654532839
 20
30.9456661409
 11
368.1982657839
 21
30.8811389819
 12
368.7185782839
 22
30.9456661409
 13
368.7185782839
 23
30.9456661409
  0
SOLID
  8
0
 62
7
  6
CONTINUOUS
 10
368.1982657839
 20
30.8811389819
 11
368.0248282839
 21
30.9456661409
 12
368.7185782839
 22
30.9456661409
 13
368.7185782839
 23
30.9456661409
  0
SOLID
  8
0
 62
7
  6
CONTINUOUS
 10
368.1982657839
 20
30.8811389819
 11
369.6435780634
 21
30.9134032852
 12
368.3717032839
 22
30.8488743522
 13
368.3717032839
 23
30.8488743522
  0
SOLID
  8
0
 62
7
  6
CONTINUOUS
 10
369.6435780634
 20
30.9134032852
 11
369.4123282839
 21
30.8488743522
 12
368.3717032839
 22
30.8488743522
 13
368.3717032839
 23
30.8488743522
  0
SOLID
  8
0
 62
7
  6
CONTINUOUS
 10
368.7185782839
 20
30.8166119713
 11
368.3717032839
 21
30.8488743522
 12
369.4123282839
 22
30.8488743522
 13
369.4123282839
 23
30.8488743522
  0
SOLID
  8
0
 62
7
  6
CONTINUOUS
 10
369.4123282839
 20
30.8488743522
 11
369.0654532839
 21
30.8166119713
 12
368.7185782839
 22
30.8166119713
 13
368.7185782839
 23
30.8166119713
  0
SOLID
  8
0
 62
7
  6
CONTINUOUS
 10
358.3701405634
 20
31.3328301295
 11
358.7170155634
 21
31.4941486131
 12
358.6592030565
 22
31.3650944328
 13
358.6592030565
 23
31.3650944328
  0
SOLID
  8
0
 62
7
  6
CONTINUOUS
 10
358.6592030565
 20
31.3650944328
 11
358.6592030565
 21
31.2683031351
 12
358.3701405634
 22
31.3328301295
 13
358.3701405634
 23
31.3328301295
  0
SOLID
  8
0
 62
7
  6
CONTINUOUS
 10
358.4279530651
 20
31.139248859
 11
358.3701405634
 21
31.3328301295
 12
358.6592030565
 22
31.2683031351
 13
358.6592030565
 23
31.2683031351
  0
SOLID
  8
0
 62
7
  6
CONTINUOUS
 10
358.6592030565
 20
31.2683031351
 11
358.7748280496
 21
31.1069845557
 12
358.4279530651
 22
31.139248859
 13
358.4279530651
 23
31.139248859
  0
SOLID
  8
0
 62
7
  6
CONTINUOUS
 10
358.5435780634
 20
31.0101931569
 11
358.4279530651
 21
31.139248859
 12
358.7748280496
 22
31.1069845557
 13
358.7748280496
 23
31.1069845557
  0
SOLID
  8
0
 62
7
  6
CONTINUOUS
 10
358.7748280496
 20
31.1069845557
 11
358.9482655496
 21
31.0101931569
 12
358.5435780634
 22
31.0101931569
 13
358.5435780634
 23
31.0101931569
  0
SOLID
  8
0
 62
7
  6
CONTINUOUS
 10
358.6592030565
 20
30.9456659241
 11
358.5435780634
 21
31.0101931569
 12
358.9482655496
 22
31.0101931569
 13
358.9482655496
 23
31.0101931569
  0
SOLID
  8
0
 62
7
  6
CONTINUOUS
 10
358.9482655496
 20
31.0101931569
 11
359.2951405909
 21
30.9456659241
 12
358.6592030565
 22
30.9456659241
 13
358.6592030565
 23
30.9456659241
  0
SOLID
  8
0
 62
7
  6
CONTINUOUS
 10
358.8326405772
 20
30.8811389819
 11
358.6592030565
 21
30.9456659241
 12
359.2951405909
 22
30.9456659241
 13
359.2951405909
 23
30.9456659241
  0
SOLID
  8
0
 62
7
  6
CONTINUOUS
 10
362.8795155634
 20
31.3328301325
 11
362.9951404531
 21
31.397357926
 12
363.5732655634
 22
31.3650944328
 13
363.5732655634
 23
31.3650944328
  0
SOLID
  8
0
 62
7
  6
CONTINUOUS
 10
363.5732655634
 20
31.3650944328
 11
363.3420154531
 21
31.3328301325
 12
362.8795155634
 22
31.3328301325
 13
362.8795155634
 23
31.3328301325
  0
SOLID
  8
0
 62
7
  6
CONTINUOUS
 10
362.7638906736
 20
31.2037759492
 11
362.8795155634
 21
31.3328301325
 12
363.3420154531
 22
31.3328301325
 13
363.3420154531
 23
31.3328301325
  0
SOLID
  8
0
 62
7
  6
CONTINUOUS
 10
363.1107656736
 20
31.2360394487
 11
362.7638906736
 21
31.2037759492
 12
363.2263905634
 22
31.3005673426
 13
363.2263905634
 23
31.3005673426
  0
SOLID
  8
0
 62
7
  6
CONTINUOUS
 10
362.7638906736
 20
31.2037759492
 11
363.3420154531
 21
31.3328301295
 12
363.2263905634
 22
31.3005673426
 13
363.2263905634
 23
31.3005673426
  0
SOLID
  8
0
 62
7
  6
CONTINUOUS
 10
363.1107656736
 20
31.2360394487
 11
363.0529530634
 21
31.139248859
 12
362.7638906736
 22
31.2037759492
 13
362.7638906736
 23
31.2037759492
  0
SOLID
  8
0
 62
7
  6
CONTINUOUS
 10
362.7638906736
 20
31.1069845557
 11
362.7638906736
 21
31.2037759492
 12
363.0529530634
 22
31.139248859
 13
363.0529530634
 23
31.139248859
  0
SOLID
  8
0
 62
7
  6
CONTINUOUS
 10
363.0529530634
 20
31.139248859
 11
363.0529530634
 21
31.0747202524
 12
362.7638906736
 22
31.1069845557
 13
362.7638906736
 23
31.1069845557
  0
SOLID
  8
0
 62
7
  6
CONTINUOUS
 10
362.8217029531
 20
30.9779303754
 11
362.7638906736
 21
31.1069845557
 12
363.0529530634
 22
31.0747202524
 13
363.0529530634
 23
31.0747202524
  0
SOLID
  8
0
 62
7
  6
CONTINUOUS
 10
364.2092032839
 20
31.1715120759
 11
364.4982653428
 21
31.0747202524
 12
364.1513903428
 22
31.1069845557
 13
364.1513903428
 23
31.1069845557
  0
SOLID
  8
0
 62
7
  6
CONTINUOUS
 10
363.9779528428
 20
31.0101931623
 11
364.1513903428
 21
31.1069845557
 12
364.4982653428
 22
31.0747202524
 13
364.4982653428
 23
31.0747202524
  0
SOLID
  8
0
 62
7
  6
CONTINUOUS
 10
363.9779528428
 20
31.0101931623
 11
364.4982653428
 21
31.0747202524
 12
364.2092032839
 22
30.9779303754
 13
364.2092032839
 23
30.9779303754
  0
SOLID
  8
0
 62
7
  6
CONTINUOUS
 10
364.4982653428
 20
31.0747202524
 11
364.5560782839
 21
30.9134032852
 12
364.2092032839
 22
30.9779303754
 13
364.2092032839
 23
30.9779303754
  0
SOLID
  8
0
 62
7
  6
CONTINUOUS
 10
364.2670155634
 20
30.8811389819
 11
364.2092032839
 21
30.9779303754
 12
364.5560782839
 22
30.9134032852
 13
364.5560782839
 23
30.9134032852
  0
SOLID
  8
0
 62
7
  6
CONTINUOUS
 10
364.2670155634
 20
30.8811389819
 11
364.5560782839
 21
30.9134032852
 12
364.3248278428
 22
30.816611867
 13
364.3248278428
 23
30.816611867
  0
SOLID
  8
0
 62
7
  6
CONTINUOUS
 10
364.5560782839
 20
30.9134032852
 11
364.6138905634
 21
30.816611867
 12
364.3248278428
 22
30.816611867
 13
364.3248278428
 23
30.816611867
  0
SOLID
  8
0
 62
7
  6
CONTINUOUS
 10
359.8732656185
 20
31.0424573076
 11
359.9310780634
 21
31.1392488159
 12
360.2201406185
 22
31.1392488159
 13
360.2201406185
 23
31.1392488159
  0
SOLID
  8
0
 62
7
  6
CONTINUOUS
 10
360.2201406185
 20
31.1392488159
 11
360.1623280082
 21
31.0101931623
 12
359.8732656185
 22
31.0424573076
 13
359.8732656185
 23
31.0424573076
  0
SOLID
  8
0
 62
7
  6
CONTINUOUS
 10
359.6998280358
 20
30.9779303754
 11
359.8732656185
 21
31.0424573076
 12
360.1623280082
 22
31.0101931623
 13
360.1623280082
 23
31.0101931623
  0
SOLID
  8
0
 62
7
  6
CONTINUOUS
 10
359.6998280358
 20
30.9779303754
 11
360.1623280082
 21
31.0101931623
 12
359.2951405909
 22
30.9456660721
 13
359.2951405909
 23
30.9456660721
  0
SOLID
  8
0
 62
7
  6
CONTINUOUS
 10
360.1623280082
 20
31.0101931623
 11
359.9888905082
 21
30.9134032852
 12
359.2951405909
 22
30.9456660721
 13
359.2951405909
 23
30.9456660721
  0
SOLID
  8
0
 62
7
  6
CONTINUOUS
 10
358.8326405772
 20
30.8811389819
 11
359.2951405909
 21
30.9456660721
 12
359.9888905082
 22
30.9134032852
 13
359.9888905082
 23
30.9134032852
  0
SOLID
  8
0
 62
7
  6
CONTINUOUS
 10
358.8326405772
 20
30.8811389819
 11
359.9888905082
 21
30.9134032852
 12
359.0060780772
 22
30.8488745775
 13
359.0060780772
 23
30.8488745775
  0
SOLID
  8
0
 62
7
  6
CONTINUOUS
 10
359.9888905082
 20
30.9134032852
 11
359.7576405634
 21
30.8488745775
 12
359.0060780772
 22
30.8488745775
 13
359.0060780772
 23
30.8488745775
  0
SOLID
  8
0
 62
7
  6
CONTINUOUS
 10
359.3529530358
 20
30.8166118918
 11
359.0060780772
 21
30.8488745775
 12
359.7576405634
 22
30.8488745775
 13
359.7576405634
 23
30.8488745775
  0
SOLID
  8
0
 62
7
  6
CONTINUOUS
 10
362.8217029531
 20
30.9779303754
 11
363.0529530634
 21
31.0747202524
 12
363.1107656736
 22
31.0101931623
 13
363.1107656736
 23
31.0101931623
  0
SOLID
  8
0
 62
7
  6
CONTINUOUS
 10
363.1107656736
 20
31.0101931623
 11
363.3420154531
 21
30.9456660721
 12
362.8217029531
 22
30.9779303754
 13
362.8217029531
 23
30.9779303754
  0
SOLID
  8
0
 62
7
  6
CONTINUOUS
 10
362.9951404531
 20
30.8811389819
 11
362.8217029531
 21
30.9779303754
 12
363.3420154531
 22
30.9456660721
 13
363.3420154531
 23
30.9456660721
  0
SOLID
  8
0
 62
7
  6
CONTINUOUS
 10
363.6888904531
 20
30.9456661188
 11
363.9779528428
 21
31.0101931623
 12
364.2092032839
 22
30.9779303754
 13
364.2092032839
 23
30.9779303754
  0
SOLID
  8
0
 62
7
  6
CONTINUOUS
 10
364.2092032839
 20
30.9779303754
 11
364.1513903428
 21
30.9134032852
 12
363.6888904531
 22
30.9456661188
 13
363.6888904531
 23
30.9456661188
  0
SOLID
  8
0
 62
7
  6
CONTINUOUS
 10
364.1513903428
 20
30.9134032852
 11
362.9951404531
 21
30.8811389819
 12
363.6888904531
 22
30.9456661188
 13
363.6888904531
 23
30.9456661188
  0
SOLID
  8
0
 62
7
  6
CONTINUOUS
 10
362.9951404531
 20
30.8811389819
 11
363.3420154531
 21
30.9456661188
 12
363.6888904531
 22
30.9456661188
 13
363.6888904531
 23
30.9456661188
  0
SOLID
  8
0
 62
7
  6
CONTINUOUS
 10
362.9951404531
 20
30.8811389819
 11
364.1513903428
 21
30.9134032852
 12
363.1107656736
 22
30.8488747093
 13
363.1107656736
 23
30.8488747093
  0
SOLID
  8
0
 62
7
  6
CONTINUOUS
 10
364.1513903428
 20
30.9134032852
 11
363.9779528428
 21
30.8488747093
 12
363.1107656736
 22
30.8488747093
 13
363.1107656736
 23
30.8488747093
  0
SOLID
  8
0
 62
7
  6
CONTINUOUS
 10
363.3420154531
 20
30.816611874
 11
363.1107656736
 21
30.8488747093
 12
363.9779528428
 22
30.8488747093
 13
363.9779528428
 23
30.8488747093
  0
SOLID
  8
0
 62
7
  6
CONTINUOUS
 10
363.9779528428
 20
30.8488747093
 11
363.6888904531
 21
30.816611874
 12
363.3420154531
 22
30.816611874
 13
363.3420154531
 23
30.816611874
  0
SOLID
  8
0
 62
7
  6
CONTINUOUS
 10
368.3717032839
 20
30.9779303754
 11
368.0248282839
 21
30.9456661188
 12
368.2560780634
 22
31.0101931623
 13
368.2560780634
 23
31.0101931623
  0
SOLID
  8
0
 62
7
  6
CONTINUOUS
 10
368.2560780634
 20
31.0101931623
 11
368.0248282839
 21
30.9456661188
 12
368.1982657839
 22
31.0747202992
 13
368.1982657839
 23
31.0747202992
  0
SOLID
  8
0
 62
7
  6
CONTINUOUS
 10
368.0248282839
 20
30.9456661188
 11
367.9092030634
 21
31.0747202992
 12
368.1982657839
 22
31.0747202992
 13
368.1982657839
 23
31.0747202992
  0
SOLID
  8
0
 62
7
  6
CONTINUOUS
 10
368.3717032839
 20
30.9779303754
 11
368.7185782839
 21
30.9456661188
 12
368.0248282839
 22
30.9456661188
 13
368.0248282839
 23
30.9456661188
  0
SOLID
  8
0
 62
7
  6
CONTINUOUS
 10
365.0763907839
 20
30.8166118918
 11
365.0763907839
 21
31.8490498836
 12
365.3654528428
 22
30.8166118918
 13
365.3654528428
 23
31.8490498836
  0
ENDBLK
  8
0
  6
BYBLOCK
 62
0
  0
BLOCK
  8
0
 62
2
  6
CONTINUOUS
  2
AMMEAAL_LOGO_BL0
 70
64
 10
241.0459637928
 20
19.6790146053
  0
TEXT
  8
0
 62
7
  6
CONTINUOUS
 10
227.3106676351
 20
19.0524287129
  7
TEXTSTYLE_3
 40
2.7338706658
  1
Ammeraal Beltech
 41
1.0
 51
15.0
 72
0
  0
TEXT
  8
0
 62
7
  6
CONTINUOUS
 10
238.1114684608
 20
16.7788920401
  7
TEXTSTYLE_4
 40
1.0935482663
  1
Innovation & Service in Belting
 41
1.0
 72
0
  0
LINE
  8
0
 62
7
  6
CONTINUOUS
 10
221.2861269837
 20
19.8190220215
 11
222.0642789771
 21
23.4799393191
  0
LINE
  8
0
 62
7
  6
CONTINUOUS
 10
232.1594472669
 20
27.1433332308
 11
222.5520967201
 21
24.0217158095
  0
LINE
  8
0
 62
7
  6
CONTINUOUS
 10
221.511410316
 20
19.1256712184
 11
229.0184855772
 21
12.3662702925
  0
LINE
  8
0
 62
7
  6
CONTINUOUS
 10
221.7739447268
 20
20.3607985118
 11
232.5822140919
 21
23.8726181108
  0
LINE
  8
0
 62
7
  6
CONTINUOUS
 10
232.5780089548
 20
13.522829547
 11
224.132549286
 21
21.1271555887
  0
LINE
  8
0
 62
7
  6
CONTINUOUS
 10
233.0978316746
 20
26.298408115
 11
232.1212721373
 21
21.7040567125
  0
LINE
  8
0
 62
7
  6
CONTINUOUS
 10
231.4214701896
 20
18.4117473987
 11
230.7350219782
 21
15.1822624744
  0
LINE
  8
0
 62
7
  6
CONTINUOUS
 10
233.7789277731
 20
13.9130317247
 11
234.7351593087
 21
18.4117473987
  0
LINE
  8
0
 62
7
  6
CONTINUOUS
 10
235.4349612564
 20
21.7040567125
 11
235.8792030588
 21
23.7940500719
  0
LINE
  8
0
 62
7
  6
CONTINUOUS
 10
229.7315866525
 20
12.2146959798
 11
233.2911100301
 21
13.3712552343
  0
LINE
  8
0
 62
7
  6
CONTINUOUS
 10
232.8725483422
 20
26.9917589181
 11
235.6539197265
 21
24.487400875
  0
ARC
  8
0
 62
7
  6
CONTINUOUS
 10
222.7773800524
 20
23.3283650064
 40
0.7290321776
 50
108.0
 51
168.0
  0
ARC
  8
0
 62
7
  6
CONTINUOUS
 10
232.3847305992
 20
26.4499824277
 40
0.7290321776
 50
348.0
 51
108.0
  0
ARC
  8
0
 62
7
  6
CONTINUOUS
 10
235.1661019835
 20
23.9456243846
 40
0.7290321776
 50
348.0
 51
48.0
  0
ARC
  8
0
 62
7
  6
CONTINUOUS
 10
229.5063033202
 20
12.9080467828
 40
0.7290321776
 50
228.0
 51
288.0
  0
ARC
  8
0
 62
7
  6
CONTINUOUS
 10
221.9992280591
 20
19.6674477088
 40
0.7290321776
 50
108.0
 51
228.0
  0
ARC
  8
0
 62
7
  6
CONTINUOUS
 10
233.0658266978
 20
14.0646060374
 40
0.7290321776
 50
228.0
 51
348.0
  0
ENDBLK
  8
0
  6
BYBLOCK
 62
0
  0
ENDSEC
  0
SECTION
  2
ENTITIES
  0
TEXT
  8
0
 62
5
  6
CONTINUOUS
 10
304.937007874
 20
25.636
  7
TEXTSTYLE_2
 40
2.8
  1
Scale :
 41
0.6
 51
0.000019
 72
0
  0
TEXT
  8
0
 62
5
  6
CONTINUOUS
 10
324.937007874
 20
25.636
  7
TEXTSTYLE_2
 40
2.8
  1
Chain type:
 41
0.6
 51
0.000019
 72
0
  0
INSERT
  8
0
 62
2
  6
CONTINUOUS
  2
AMMEAAL_LOGO_BL0
 10
241.0459637928
 20
19.6790146053
  0
INSERT
  8
0
 62
2
  6
CONTINUOUS
  2
UNI_LOGO2_BL1
 10
382.3920721743
 20
35.81661148
  0
LINE
  8
0
 62
2
  6
CONTINUOUS
 10
218.937007874
 20
30.0
 11
408.937007874
 21
30.0
  0
LINE
  8
0
 62
2
  6
CONTINUOUS
 10
218.937007874
 20
30.0
 11
218.937007874
 21
10.0
  0
LINE
  8
0
 62
2
  6
CONTINUOUS
 10
218.937007874
 20
10.0
 11
408.937007874
 21
10.0
  0
LINE
  8
0
 62
2
  6
CONTINUOUS
 10
303.937007874
 20
30.0
 11
303.937007874
 21
10.0
  0
LINE
  8
0
 62
2
  6
CONTINUOUS
 10
323.937007874
 20
30.0
 11
323.937007874
 21
10.0
  0
LINE
  8
0
 62
2
  6
CONTINUOUS
 10
408.937007874
 20
30.0
 11
408.937007874
 21
10.0
  0
TEXT
  8
0
 62
5
  6
CONTINUOUS
 10
221.937007874
 20
23.303
  7
TEXTSTYLE_5
 40
1.52
  1
                                                                     Ammeraal Beltech Modular A/S
 41
1.0
 72
0
  0
TEXT
  8
0
 62
5
  6
CONTINUOUS
 10
221.937007874
 20
20.595
  7
TEXTSTYLE_5
 40
1.5
  1
                                                                      Hjulmagervej 21, 7100 Vejle,  DK
 41
1.0
 72
0
  0
TEXT
  8
0
 62
5
  6
CONTINUOUS
 10
221.937007874
 20
17.881
  7
TEXTSTYLE_5
 40
1.495
  1
                                                                      tel: 
 41
1.0
 72
0
  0
TEXT
  8
0
 62
5
  6
CONTINUOUS
 10
266.9239544389
 20
17.881
  7
TEXTSTYLE_5
 40
1.51
  1
+45 75723100     fax: +45 75723348
 41
1.0
 72
0
  0
TEXT
  8
0
 62
5
  6
CONTINUOUS
 10
221.937007874
 20
15.177
  7
TEXTSTYLE_5
 40
1.5
  1
                                                                      admin@unichains.dk  www.unichains.com
 41
1.0
 72
0
  0
TEXT
  8
0
 62
5
  6
CONTINUOUS
 10
308.687007874
 20
13.75
  7
TEXTSTYLE_6
 40
5.0
  1
1:1
 41
0.7
 72
1
 11
313.937007874
 21
13.75
  0
TEXT
  8
0
 62
5
  6
CONTINUOUS
 10
326.937007874
 20
13.75
  7
TEXTSTYLE_7
 40
7.5
  1
OV-Type
 41
0.6761904762
 72
0
  0
LINE
  8
0
 62
7
  6
CONTINUOUS
 10
0.0
 20
0.0
 11
0.0
 21
297.0
  0
LINE
  8
0
 62
7
  6
CONTINUOUS
 10
8.937007874
 20
10.0
 11
8.937007874
 21
287.0
  0
LINE
  8
0
 62
7
  6
CONTINUOUS
 10
0.0
 20
0.0
 11
420.0
 21
0.0
  0
LINE
  8
0
 62
7
  6
CONTINUOUS
 10
408.937007874
 20
10.0
 11
8.937007874
 21
10.0
  0
LINE
  8
0
 62
7
  6
CONTINUOUS
 10
218.937007874
 20
30.0
 11
408.937007874
 21
30.0
  0
LINE
  8
0
 62
7
  6
CONTINUOUS
 10
210.0
 20
297.0
 11
210.0
 21
292.0
  0
LINE
  8
0
 62
7
  6
CONTINUOUS
 10
210.0
 20
0.0
 11
210.0
 21
5.0
  0
LINE
  8
0
 62
7
  6
CONTINUOUS
 10
8.937007874
 20
287.0
 11
408.937007874
 21
287.0
  0
LINE
  8
0
 62
7
  6
CONTINUOUS
 10
0.0
 20
297.0
 11
420.0
 21
297.0
  0
LINE
  8
0
 62
7
  6
CONTINUOUS
 10
408.937007874
 20
287.0
 11
408.937007874
 21
10.0
  0
LINE
  8
0
 62
7
  6
CONTINUOUS
 10
420.0
 20
0.0
 11
420.0
 21
297.0
  0
POLYLINE
  8
AXES
 62
9
  6
CONTINUOUS
 66
1
 70
0
  0
VERTEX
  8
AXES
 62
9
  6
CONTINUOUS
 10
90.546875
 20
180.8085078226
  0
VERTEX
  8
AXES
 62
9
  6
CONTINUOUS
 10
90.4995618394
 20
180.8596190831
  0
VERTEX
  8
AXES
 62
9
  6
CONTINUOUS
 10
90.4554729924
 20
181.0094697169
  0
VERTEX
  8
AXES
 62
9
  6
CONTINUOUS
 10
90.4507595003
 20
181.0391473177
  0
SEQEND
  0
POLYLINE
  8
AXES
 62
9
  6
CONTINUOUS
 66
1
 70
0
  0
VERTEX
  8
AXES
 62
9
  6
CONTINUOUS
 10
103.8817851256
 20
180.8085078226
  0
VERTEX
  8
AXES
 62
9
  6
CONTINUOUS
 10
103.8344719537
 20
180.859619108
  0
VERTEX
  8
AXES
 62
9
  6
CONTINUOUS
 10
103.7906661313
 20
181.0085078226
  0
SEQEND
  0
LINE
  8
DEFAULT_1
 62
2
  6
CENTER
 10
91.296875
 20
177.8085078226
 11
91.296875
 21
212.2085078226
  0
POLYLINE
  8
AXES
 62
9
  6
CONTINUOUS
 66
1
 70
0
  0
VERTEX
  8
AXES
 62
9
  6
CONTINUOUS
 10
105.2721940031
 20
180.8085078226
  0
VERTEX
  8
AXES
 62
9
  6
CONTINUOUS
 10
105.0899317308
 20
180.8596190831
  0
VERTEX
  8
AXES
 62
9
  6
CONTINUOUS
 10
104.9211805465
 20
181.0085078226
  0
SEQEND
  0
POLYLINE
  8
0
 62
7
  6
CONTINUOUS
 66
1
 70
0
  0
VERTEX
  8
0
 62
7
  6
CONTINUOUS
 10
98.046875
 20
235.0042942602
  0
VERTEX
  8
0
 62
7
  6
CONTINUOUS
 10
98.0516931076
 20
235.1023401734
  0
VERTEX
  8
0
 62
7
  6
CONTINUOUS
 10
98.0874927643
 20
235.286403682
  0
VERTEX
  8
0
 62
7
  6
CONTINUOUS
 10
98.1584059091
 20
235.4632307204
  0
VERTEX
  8
0
 62
7
  6
CONTINUOUS
 10
98.2621333504
 20
235.6241172538
  0
VERTEX
  8
0
 62
7
  6
CONTINUOUS
 10
98.3982986911
 20
235.7654438983
  0
VERTEX
  8
0
 62
7
  6
CONTINUOUS
 10
98.4777093016
 20
235.8265171058
  0
VERTEX
  8
0
 62
7
  6
CONTINUOUS
 10
98.6561207409
 20
235.924789295
  0
VERTEX
  8
0
 62
7
  6
CONTINUOUS
 10
98.8560187452
 20
235.9859122562
  0
VERTEX
  8
0
 62
7
  6
CONTINUOUS
 10
99.0659172794
 20
236.0041129396
  0
VERTEX
  8
0
 62
7
  6
CONTINUOUS
 10
99.046875
 20
236.0042942593
  0
SEQEND
  0
LINE
  8
AXES
 62
7
  6
CONTINUOUS
 10
90.546875
 20
180.8085078226
 11
154.796875
 21
180.8085078226
  0
LINE
  8
0
 62
7
  6
CONTINUOUS
 10
154.796875
 20
181.0085078226
 11
91.296875
 21
181.0085078226
  0
LINE
  8
0
 62
9
  6
CONTINUOUS
 10
154.796875
 20
182.0085078226
 11
91.296875
 21
182.0085078226
  0
POLYLINE
  8
AXES
 62
9
  6
CONTINUOUS
 66
1
 70
0
  0
VERTEX
  8
AXES
 62
9
  6
CONTINUOUS
 10
121.4933774787
 20
180.8085078226
  0
VERTEX
  8
AXES
 62
9
  6
CONTINUOUS
 10
121.3111152212
 20
180.859619075
  0
VERTEX
  8
AXES
 62
9
  6
CONTINUOUS
 10
121.1423640154
 20
181.0085078226
  0
SEQEND
  0
LINE
  8
0
 62
7
  6
CONTINUOUS
 10
98.046875
 20
210.0085078226
 11
98.046875
 21
235.0042942602
  0
LINE
  8
0
 62
9
  6
CONTINUOUS
 10
99.046875
 20
208.0085078226
 11
99.046875
 21
236.0042942602
  0
LINE
  8
0
 62
9
  6
CONTINUOUS
 10
111.2434289842
 20
235.0042942602
 11
111.7413359457
 21
235.8715247127
  0
POLYLINE
  8
AXES
 62
9
  6
CONTINUOUS
 66
1
 70
0
  0
VERTEX
  8
AXES
 62
9
  6
CONTINUOUS
 10
90.546875
 20
209.2085078226
  0
VERTEX
  8
AXES
 62
9
  6
CONTINUOUS
 10
90.4995618382
 20
209.1573965595
  0
VERTEX
  8
AXES
 62
9
  6
CONTINUOUS
 10
90.4554729905
 20
209.0075459194
  0
VERTEX
  8
AXES
 62
9
  6
CONTINUOUS
 10
90.4507594999
 20
208.9778683278
  0
SEQEND
  0
LINE
  8
0
 62
9
  6
CONTINUOUS
 10
98.046875
 20
210.0085078226
 11
99.046875
 21
208.0085081069
  0
LINE
  8
0
 62
9
  6
CONTINUOUS
 10
111.2434289842
 20
235.0042942602
 11
111.2434289842
 21
236.0042942602
  0
LINE
  8
DEFAULT_1
 62
2
  6
CENTER
 10
75.296875
 20
195.0085078226
 11
170.796875
 21
195.0085078226
  0
LINE
  8
0
 62
9
  6
CONTINUOUS
 10
97.046875
 20
209.0085078226
 11
99.0468747158
 21
208.0085078226
  0
LINE
  8
AXES
 62
9
  6
CONTINUOUS
 10
121.9628490414
 20
180.8085078226
 11
121.9628490414
 21
181.0085078226
  0
LINE
  8
0
 62
9
  6
CONTINUOUS
 10
91.296875
 20
208.0085078226
 11
99.046875
 21
208.0085078226
  0
LINE
  8
0
 62
7
  6
CONTINUOUS
 10
91.296875
 20
209.0085078226
 11
97.046875
 21
209.0085078226
  0
LINE
  8
AXES
 62
7
  6
CONTINUOUS
 10
97.6415261779
 20
209.2085078226
 11
90.546875
 21
209.2085078226
  0
LINE
  8
0
 62
9
  6
CONTINUOUS
 10
111.2434289842
 20
235.0042942602
 11
161.2696654996
 21
206.2825037046
  0
LINE
  8
0
 62
7
  6
CONTINUOUS
 10
111.7413359457
 20
235.8715247127
 11
161.7675724611
 21
207.1497341571
  0
POLYLINE
  8
0
 62
7
  6
CONTINUOUS
 66
1
 70
0
  0
VERTEX
  8
0
 62
7
  6
CONTINUOUS
 10
111.7413359457
 20
235.8715247127
  0
VERTEX
  8
0
 62
7
  6
CONTINUOUS
 10
111.5636451734
 20
235.9516387552
  0
VERTEX
  8
0
 62
7
  6
CONTINUOUS
 10
111.3803035668
 20
235.9948826453
  0
VERTEX
  8
0
 62
7
  6
CONTINUOUS
 10
111.2434289842
 20
236.0042942602
  0
SEQEND
  0
LINE
  8
0
 62
7
  6
CONTINUOUS
 10
149.846875
 20
191.0930181593
 11
149.846875
 21
188.0371377994
  0
LINE
  8
0
 62
9
  6
CONTINUOUS
 10
98.046875
 20
235.0042942602
 11
111.2434289842
 21
235.0042942602
  0
LINE
  8
0
 62
7
  6
CONTINUOUS
 10
111.2434289842
 20
236.0042942602
 11
99.046875
 21
236.0042942602
  0
LINE
  8
0
 62
7
  6
CONTINUOUS
 10
153.146875
 20
186.6192289501
 11
153.146875
 21
189.7800567595
  0
LINE
  8
0
 62
9
  6
CONTINUOUS
 10
154.796875
 20
182.0085078226
 11
154.796875
 21
181.0085078226
  0
LINE
  8
AXES
 62
9
  6
CONTINUOUS
 10
154.796875
 20
180.8085078226
 11
154.7968750001
 21
181.0085078226
  0
LINE
  8
DEFAULT_1
 62
2
  6
CENTER
 10
154.796875
 20
187.5061110123
 11
154.796875
 21
202.5109046329
  0
LINE
  8
0
 62
7
  6
CONTINUOUS
 10
156.446875
 20
189.7800439663
 11
156.446875
 21
186.6192289501
  0
LINE
  8
0
 62
9
  6
CONTINUOUS
 10
161.2696654996
 20
206.2825037046
 11
161.7675724611
 21
207.1497341571
  0
LINE
  8
0
 62
7
  6
CONTINUOUS
 10
159.746875
 20
188.0371377994
 11
159.746875
 21
191.0930181593
  0
LINE
  8
0
 62
7
  6
CONTINUOUS
 10
76.346875
 20
93.1854122591
 11
76.346875
 21
78.9395877409
  0
LINE
  8
0
 62
7
  6
CONTINUOUS
 10
77.296875
 20
57.0625
 11
77.296875
 21
64.0625
  0
LINE
  8
0
 62
7
  6
CONTINUOUS
 10
77.296875
 20
108.0625
 11
77.296875
 21
115.0625
  0
POLYLINE
  8
0
 62
9
  6
CONTINUOUS
 66
1
 70
0
  0
VERTEX
  8
0
 62
9
  6
CONTINUOUS
 10
161.2696654996
 20
56.0625
  0
VERTEX
  8
0
 62
9
  6
CONTINUOUS
 10
161.3217109486
 20
56.0679781045
  0
VERTEX
  8
0
 62
9
  6
CONTINUOUS
 10
161.4235272112
 20
56.1114434829
  0
VERTEX
  8
0
 62
9
  6
CONTINUOUS
 10
161.518618979
 20
56.1964745946
  0
VERTEX
  8
0
 62
9
  6
CONTINUOUS
 10
161.6028302854
 20
56.3193551722
  0
VERTEX
  8
0
 62
9
  6
CONTINUOUS
 10
161.6396824805
 20
56.3933693912
  0
VERTEX
  8
0
 62
9
  6
CONTINUOUS
 10
161.7008655763
 20
56.5624999976
  0
VERTEX
  8
0
 62
9
  6
CONTINUOUS
 10
161.7432031596
 20
56.7534830039
  0
VERTEX
  8
0
 62
9
  6
CONTINUOUS
 10
161.7648448747
 20
56.9579715361
  0
VERTEX
  8
0
 62
9
  6
CONTINUOUS
 10
161.7675724611
 20
57.0625
  0
SEQEND
  0
LINE
  8
DEFAULT_1
 62
2
  6
CENTER
 10
90.546875
 20
91.3125
 11
90.546875
 21
88.0626
  0
LINE
  8
0
 62
2
  6
CONTINUOUS
 10
90.546875
 20
87.1125
 11
90.546875
 21
85.0125
  0
LINE
  8
AXES
 62
9
  6
CONTINUOUS
 10
90.546875
 20
81.0625
 11
90.546875
 21
77.3802239734
  0
LINE
  8
DEFAULT_1
 62
2
  6
CENTER
 10
90.546875
 20
80.8125
 11
90.546875
 21
84.0624
  0
LINE
  8
0
 62
9
  6
CONTINUOUS
 10
90.546875
 20
91.3125
 11
90.546875
 21
94.7447760266
  0
LINE
  8
0
 62
9
  6
CONTINUOUS
 10
91.296875
 20
56.0625
 11
91.296875
 21
65.0625
  0
LINE
  8
0
 62
9
  6
CONTINUOUS
 10
91.296875
 20
107.0625
 11
91.296875
 21
116.0625
  0
LINE
  8
AXES
 62
9
  6
CONTINUOUS
 10
90.546875
 20
77.3802239734
 11
90.3640709849
 21
75.8914047459
  0
LINE
  8
0
 62
7
  6
CONTINUOUS
 10
160.046875
 20
55.3125
 11
149.546875
 21
55.3125
  0
LINE
  8
0
 62
7
  6
CONTINUOUS
 10
160.296875
 20
55.5625
 11
149.296875
 21
55.5625
  0
LINE
  8
0
 62
7
  6
CONTINUOUS
 10
78.2968774441
 20
56.0625
 11
167.7968728228
 21
56.0625
  0
LINE
  8
0
 62
9
  6
CONTINUOUS
 10
90.546875
 20
94.7447760266
 11
90.3640709849
 21
96.2335952541
  0
LINE
  8
0
 62
9
  6
CONTINUOUS
 10
97.046875
 20
57.0625
 11
97.046875
 21
65.0625
  0
LINE
  8
0
 62
9
  6
CONTINUOUS
 10
97.046875
 20
107.0625
 11
97.046875
 21
115.0625
  0
POLYLINE
  8
0
 62
9
  6
CONTINUOUS
 66
1
 70
0
  0
VERTEX
  8
0
 62
9
  6
CONTINUOUS
 10
97.046875
 20
115.0625
  0
VERTEX
  8
0
 62
9
  6
CONTINUOUS
 10
97.0600577125
 20
115.1771093476
  0
VERTEX
  8
0
 62
9
  6
CONTINUOUS
 10
97.101251978
 20
115.294093468
  0
VERTEX
  8
0
 62
9
  6
CONTINUOUS
 10
97.1800584795
 20
115.4213249085
  0
VERTEX
  8
0
 62
9
  6
CONTINUOUS
 10
97.3107257797
 20
115.5589468224
  0
VERTEX
  8
0
 62
9
  6
CONTINUOUS
 10
97.4018637427
 20
115.6312671427
  0
VERTEX
  8
0
 62
9
  6
CONTINUOUS
 10
97.6457215549
 20
115.7760807207
  0
VERTEX
  8
0
 62
9
  6
CONTINUOUS
 10
97.9908013086
 20
115.9117215552
  0
VERTEX
  8
0
 62
9
  6
CONTINUOUS
 10
98.4624566702
 20
116.0188544513
  0
VERTEX
  8
0
 62
9
  6
CONTINUOUS
 10
99.0468747158
 20
116.0625
  0
SEQEND
  0
POLYLINE
  8
0
 62
9
  6
CONTINUOUS
 66
1
 70
0
  0
VERTEX
  8
0
 62
9
  6
CONTINUOUS
 10
111.2434289842
 20
56.0625
  0
VERTEX
  8
0
 62
9
  6
CONTINUOUS
 10
111.3165048163
 20
56.0733287661
  0
VERTEX
  8
0
 62
9
  6
CONTINUOUS
 10
111.3754181595
 20
56.0982757851
  0
VERTEX
  8
0
 62
9
  6
CONTINUOUS
 10
111.4284514425
 20
56.134107252
  0
VERTEX
  8
0
 62
9
  6
CONTINUOUS
 10
111.4791209993
 20
56.1816339305
  0
VERTEX
  8
0
 62
9
  6
CONTINUOUS
 10
111.5268785584
 20
56.2403578176
  0
VERTEX
  8
0
 62
9
  6
CONTINUOUS
 10
111.5709155163
 20
56.3092430461
  0
VERTEX
  8
0
 62
9
  6
CONTINUOUS
 10
111.6131427321
 20
56.3926936295
  0
VERTEX
  8
0
 62
9
  6
CONTINUOUS
 10
111.656849094
 20
56.5052071123
  0
VERTEX
  8
0
 62
9
  6
CONTINUOUS
 10
111.7006389324
 20
56.6665308625
  0
VERTEX
  8
0
 62
9
  6
CONTINUOUS
 10
111.7310527925
 20
56.8603144808
  0
VERTEX
  8
0
 62
9
  6
CONTINUOUS
 10
111.7413359457
 20
57.0625
  0
SEQEND
  0
POLYLINE
  8
0
 62
9
  6
CONTINUOUS
 66
1
 70
0
  0
VERTEX
  8
0
 62
9
  6
CONTINUOUS
 10
99.046875
 20
57.7696067812
  0
VERTEX
  8
0
 62
9
  6
CONTINUOUS
 10
98.851784678
 20
57.7560199227
  0
VERTEX
  8
0
 62
9
  6
CONTINUOUS
 10
98.6641915676
 20
57.7157814824
  0
VERTEX
  8
0
 62
9
  6
CONTINUOUS
 10
98.491304767
 20
57.6504378012
  0
VERTEX
  8
0
 62
9
  6
CONTINUOUS
 10
98.3397682188
 20
57.5625
  0
VERTEX
  8
0
 62
9
  6
CONTINUOUS
 10
98.2154053877
 20
57.4553474792
  0
VERTEX
  8
0
 62
9
  6
CONTINUOUS
 10
98.1229954675
 20
57.3330980501
  0
VERTEX
  8
0
 62
9
  6
CONTINUOUS
 10
98.0660897196
 20
57.2004496896
  0
VERTEX
  8
0
 62
9
  6
CONTINUOUS
 10
98.046875
 20
57.0625
  0
SEQEND
  0
LINE
  8
0
 62
9
  6
CONTINUOUS
 10
77.296875
 20
57.0625
 11
98.046875
 21
57.0625
  0
LINE
  8
0
 62
9
  6
CONTINUOUS
 10
111.7413359457
 20
57.0625
 11
168.796875
 21
57.0625
  0
LINE
  8
0
 62
9
  6
CONTINUOUS
 10
99.046875
 20
57.7696067812
 11
111.2434289842
 21
57.7696067812
  0
POLYLINE
  8
0
 62
9
  6
CONTINUOUS
 66
1
 70
0
  0
VERTEX
  8
0
 62
9
  6
CONTINUOUS
 10
97.046875
 20
57.0625
  0
VERTEX
  8
0
 62
9
  6
CONTINUOUS
 10
97.0600577125
 20
56.9478906524
  0
VERTEX
  8
0
 62
9
  6
CONTINUOUS
 10
97.101251978
 20
56.830906532
  0
VERTEX
  8
0
 62
9
  6
CONTINUOUS
 10
97.1800584795
 20
56.7036750915
  0
VERTEX
  8
0
 62
9
  6
CONTINUOUS
 10
97.3107257797
 20
56.5660531776
  0
VERTEX
  8
0
 62
9
  6
CONTINUOUS
 10
97.4018637427
 20
56.4937328573
  0
VERTEX
  8
0
 62
9
  6
CONTINUOUS
 10
97.6457215549
 20
56.3489192793
  0
VERTEX
  8
0
 62
9
  6
CONTINUOUS
 10
97.9908013086
 20
56.2132784448
  0
VERTEX
  8
0
 62
9
  6
CONTINUOUS
 10
98.4624566702
 20
56.1061455487
  0
VERTEX
  8
0
 62
9
  6
CONTINUOUS
 10
99.0468747158
 20
56.0625
  0
SEQEND
  0
POLYLINE
  8
0
 62
9
  6
CONTINUOUS
 66
1
 70
0
  0
VERTEX
  8
0
 62
9
  6
CONTINUOUS
 10
98.046875
 20
90.2137881218
  0
VERTEX
  8
0
 62
9
  6
CONTINUOUS
 10
98.0523531046
 20
90.1398753366
  0
VERTEX
  8
0
 62
9
  6
CONTINUOUS
 10
98.0958184837
 20
89.9952801095
  0
VERTEX
  8
0
 62
9
  6
CONTINUOUS
 10
98.1808495962
 20
89.8602347312
  0
VERTEX
  8
0
 62
9
  6
CONTINUOUS
 10
98.3037301745
 20
89.7406413325
  0
VERTEX
  8
0
 62
9
  6
CONTINUOUS
 10
98.3777443936
 20
89.6883053763
  0
VERTEX
  8
0
 62
9
  6
CONTINUOUS
 10
98.546875
 20
89.6014156861
  0
VERTEX
  8
0
 62
9
  6
CONTINUOUS
 10
98.7378580056
 20
89.5412896098
  0
VERTEX
  8
0
 62
9
  6
CONTINUOUS
 10
98.9423465367
 20
89.5105549455
  0
VERTEX
  8
0
 62
9
  6
CONTINUOUS
 10
99.046875
 20
89.5066813406
  0
SEQEND
  0
LINE
  8
0
 62
7
  6
CONTINUOUS
 10
98.046875
 20
115.0625
 11
98.046875
 21
90.2137881218
  0
LINE
  8
0
 62
7
  6
CONTINUOUS
 10
98.046875
 20
57.0625
 11
98.046875
 21
81.9112118782
  0
LINE
  8
0
 62
9
  6
CONTINUOUS
 10
99.046875
 20
116.0625
 11
99.046875
 21
89.2137881218
  0
LINE
  8
0
 62
9
  6
CONTINUOUS
 10
99.046875
 20
56.0625
 11
99.046875
 21
82.9112118782
  0
POLYLINE
  8
0
 62
9
  6
CONTINUOUS
 66
1
 70
0
  0
VERTEX
  8
0
 62
9
  6
CONTINUOUS
 10
98.046875
 20
81.9112118782
  0
VERTEX
  8
0
 62
9
  6
CONTINUOUS
 10
98.0523531046
 20
81.9851246634
  0
VERTEX
  8
0
 62
9
  6
CONTINUOUS
 10
98.0958184837
 20
82.1297198905
  0
VERTEX
  8
0
 62
9
  6
CONTINUOUS
 10
98.1808495962
 20
82.2647652688
  0
VERTEX
  8
0
 62
9
  6
CONTINUOUS
 10
98.3037301745
 20
82.3843586675
  0
VERTEX
  8
0
 62
9
  6
CONTINUOUS
 10
98.3777443936
 20
82.4366946237
  0
VERTEX
  8
0
 62
9
  6
CONTINUOUS
 10
98.546875
 20
82.5235843139
  0
VERTEX
  8
0
 62
9
  6
CONTINUOUS
 10
98.7378580056
 20
82.5837103902
  0
VERTEX
  8
0
 62
9
  6
CONTINUOUS
 10
98.9423465367
 20
82.6144450545
  0
VERTEX
  8
0
 62
9
  6
CONTINUOUS
 10
99.046875
 20
82.6183186594
  0
SEQEND
  0
POLYLINE
  8
0
 62
9
  6
CONTINUOUS
 66
1
 70
0
  0
VERTEX
  8
0
 62
9
  6
CONTINUOUS
 10
111.7413359457
 20
115.0625
  0
VERTEX
  8
0
 62
9
  6
CONTINUOUS
 10
111.6534850556
 20
114.8825783022
  0
VERTEX
  8
0
 62
9
  6
CONTINUOUS
 10
111.5488983029
 20
114.7099998557
  0
VERTEX
  8
0
 62
9
  6
CONTINUOUS
 10
111.4916408249
 20
114.6286851642
  0
VERTEX
  8
0
 62
9
  6
CONTINUOUS
 10
111.3701202679
 20
114.4801554031
  0
VERTEX
  8
0
 62
9
  6
CONTINUOUS
 10
111.2434289842
 20
114.3553932188
  0
SEQEND
  0
LINE
  8
0
 62
9
  6
CONTINUOUS
 10
77.296875
 20
64.0625
 11
98.0468655636
 21
64.0625
  0
LINE
  8
0
 62
9
  6
CONTINUOUS
 10
123.9336000363
 20
64.0625
 11
168.796875
 21
64.0625
  0
POLYLINE
  8
0
 62
9
  6
CONTINUOUS
 66
1
 70
0
  0
VERTEX
  8
0
 62
9
  6
CONTINUOUS
 10
111.7413359457
 20
57.0625
  0
VERTEX
  8
0
 62
9
  6
CONTINUOUS
 10
111.6534850556
 20
57.2424216978
  0
VERTEX
  8
0
 62
9
  6
CONTINUOUS
 10
111.5488983029
 20
57.4150001443
  0
VERTEX
  8
0
 62
9
  6
CONTINUOUS
 10
111.4916408249
 20
57.4963148358
  0
VERTEX
  8
0
 62
9
  6
CONTINUOUS
 10
111.3701202679
 20
57.6448445969
  0
VERTEX
  8
0
 62
9
  6
CONTINUOUS
 10
111.2434289842
 20
57.7696067812
  0
SEQEND
  0
LINE
  8
0
 62
9
  6
CONTINUOUS
 10
120.456875
 20
106.7696067812
 11
119.0601145086
 21
106.0712265355
  0
LINE
  8
0
 62
9
  6
CONTINUOUS
 10
113.0380719798
 20
66.0537734645
 11
111.9111725262
 21
66.0516686523
  0
LINE
  8
0
 62
9
  6
CONTINUOUS
 10
111.9111725262
 20
66.0516686523
 11
110.8755907432
 21
66.0504412763
  0
LINE
  8
0
 62
9
  6
CONTINUOUS
 10
110.0381862106
 20
64.7696067812
 11
123.4356930747
 21
64.7696067812
  0
LINE
  8
0
 62
7
  6
CONTINUOUS
 10
78.296877444
 20
65.0625
 11
98.046875
 21
65.0625
  0
LINE
  8
0
 62
7
  6
CONTINUOUS
 10
110.0381862106
 20
65.0625
 11
167.7968728227
 21
65.0625
  0
LINE
  8
0
 62
9
  6
CONTINUOUS
 10
110.8755907432
 20
66.0504412763
 11
110.0152055731
 21
66.0501907241
  0
LINE
  8
0
 62
9
  6
CONTINUOUS
 10
119.0601145086
 20
66.0537734645
 11
113.0380719798
 21
66.0537734645
  0
LINE
  8
AXES
 62
9
  6
CONTINUOUS
 10
168.996875
 20
66.5625
 11
121.9628490414
 21
66.5625
  0
POLYLINE
  8
0
 62
9
  6
CONTINUOUS
 66
1
 70
0
  0
VERTEX
  8
0
 62
9
  6
CONTINUOUS
 10
110.0152055731
 20
66.0501907241
  0
VERTEX
  8
0
 62
9
  6
CONTINUOUS
 10
109.3997046729
 20
66.0509372839
  0
VERTEX
  8
0
 62
9
  6
CONTINUOUS
 10
109.2002643371
 20
66.051668653
  0
VERTEX
  8
0
 62
9
  6
CONTINUOUS
 10
109.0789472216
 20
66.0526204997
  0
VERTEX
  8
0
 62
9
  6
CONTINUOUS
 10
109.0382242875
 20
66.0537734645
  0
SEQEND
  0
POLYLINE
  8
0
 62
9
  6
CONTINUOUS
 66
1
 70
0
  0
VERTEX
  8
0
 62
9
  6
CONTINUOUS
 10
108.0382623645
 20
66.7521537102
  0
VERTEX
  8
0
 62
9
  6
CONTINUOUS
 10
108.1423796867
 20
66.7487647628
  0
VERTEX
  8
0
 62
9
  6
CONTINUOUS
 10
108.34609947
 20
66.7191578379
  0
VERTEX
  8
0
 62
9
  6
CONTINUOUS
 10
108.5364704281
 20
66.6603192178
  0
VERTEX
  8
0
 62
9
  6
CONTINUOUS
 10
108.7052374381
 20
66.5748003342
  0
VERTEX
  8
0
 62
9
  6
CONTINUOUS
 10
108.7791868786
 20
66.5231535505
  0
VERTEX
  8
0
 62
9
  6
CONTINUOUS
 10
108.9022070725
 20
66.404886294
  0
VERTEX
  8
0
 62
9
  6
CONTINUOUS
 10
108.9877637363
 20
66.2710151882
  0
VERTEX
  8
0
 62
9
  6
CONTINUOUS
 10
109.0321468377
 20
66.1273453323
  0
VERTEX
  8
0
 62
9
  6
CONTINUOUS
 10
109.0382242875
 20
66.0537734645
  0
SEQEND
  0
POLYLINE
  8
0
 62
9
  6
CONTINUOUS
 66
1
 70
0
  0
VERTEX
  8
0
 62
9
  6
CONTINUOUS
 10
121.8710883058
 20
65.0625
  0
VERTEX
  8
0
 62
9
  6
CONTINUOUS
 10
121.3020170725
 20
65.1038346214
  0
VERTEX
  8
0
 62
9
  6
CONTINUOUS
 10
120.8171562234
 20
65.2126131458
  0
VERTEX
  8
0
 62
9
  6
CONTINUOUS
 10
120.456875
 20
65.3553932188
  0
SEQEND
  0
LINE
  8
0
 62
9
  6
CONTINUOUS
 10
120.456875
 20
65.3553932188
 11
119.0601145086
 21
66.0537734645
  0
POLYLINE
  8
0
 62
9
  6
CONTINUOUS
 66
1
 70
0
  0
VERTEX
  8
0
 62
9
  6
CONTINUOUS
 10
108.0382623645
 20
66.7521537102
  0
VERTEX
  8
0
 62
9
  6
CONTINUOUS
 10
108.0814581125
 20
66.3558240668
  0
VERTEX
  8
0
 62
9
  6
CONTINUOUS
 10
108.1971254862
 20
65.9882641199
  0
VERTEX
  8
0
 62
9
  6
CONTINUOUS
 10
108.3723906385
 20
65.6627529052
  0
VERTEX
  8
0
 62
9
  6
CONTINUOUS
 10
108.5892098453
 20
65.3910323369
  0
VERTEX
  8
0
 62
9
  6
CONTINUOUS
 10
108.8317590135
 20
65.1744473408
  0
VERTEX
  8
0
 62
9
  6
CONTINUOUS
 10
109.0874223762
 20
65.0100475197
  0
VERTEX
  8
0
 62
9
  6
CONTINUOUS
 10
109.3440049793
 20
64.8939434904
  0
VERTEX
  8
0
 62
9
  6
CONTINUOUS
 10
109.5907385052
 20
64.82030184
  0
VERTEX
  8
0
 62
9
  6
CONTINUOUS
 10
109.8218116222
 20
64.781346215
  0
VERTEX
  8
0
 62
9
  6
CONTINUOUS
 10
110.0381862106
 20
64.7696067812
  0
SEQEND
  0
POLYLINE
  8
0
 62
9
  6
CONTINUOUS
 66
1
 70
0
  0
VERTEX
  8
0
 62
9
  6
CONTINUOUS
 10
107.9340890836
 20
78.6892293428
  0
VERTEX
  8
0
 62
9
  6
CONTINUOUS
 10
107.9726012211
 20
78.3157039275
  0
VERTEX
  8
0
 62
9
  6
CONTINUOUS
 10
108.0172023375
 20
78.1358603203
  0
VERTEX
  8
0
 62
9
  6
CONTINUOUS
 10
108.1508361056
 20
77.801037802
  0
SEQEND
  0
LINE
  8
0
 62
9
  6
CONTINUOUS
 10
107.8998004406
 20
82.6183186594
 11
107.9340890836
 21
78.6892293428
  0
LINE
  8
0
 62
9
  6
CONTINUOUS
 10
107.9544331921
 20
76.3580254114
 11
108.0382623645
 21
66.7521537102
  0
LINE
  8
AXES
 62
7
  6
CONTINUOUS
 10
104.746875
 20
82.9112118782
 11
104.746875
 21
89.2137881218
  0
LINE
  8
0
 62
9
  6
CONTINUOUS
 10
107.8998004406
 20
82.9112118772
 11
107.8998004406
 21
82.6183186594
  0
LINE
  8
0
 62
9
  6
CONTINUOUS
 10
107.8998004406
 20
89.2137881228
 11
107.8998004406
 21
89.5066813406
  0
LINE
  8
0
 62
9
  6
CONTINUOUS
 10
107.8998004406
 20
89.5066813406
 11
107.9340890836
 21
93.4357706572
  0
LINE
  8
0
 62
9
  6
CONTINUOUS
 10
107.9544331921
 20
95.7669745886
 11
108.0382623645
 21
105.3728462898
  0
POLYLINE
  8
0
 62
9
  6
CONTINUOUS
 66
1
 70
0
  0
VERTEX
  8
0
 62
9
  6
CONTINUOUS
 10
107.9340890836
 20
93.4357706572
  0
VERTEX
  8
0
 62
9
  6
CONTINUOUS
 10
107.9726012211
 20
93.8092960725
  0
VERTEX
  8
0
 62
9
  6
CONTINUOUS
 10
108.0172023375
 20
93.9891396797
  0
VERTEX
  8
0
 62
9
  6
CONTINUOUS
 10
108.1508361056
 20
94.323962198
  0
SEQEND
  0
POLYLINE
  8
0
 62
9
  6
CONTINUOUS
 66
1
 70
0
  0
VERTEX
  8
0
 62
9
  6
CONTINUOUS
 10
108.0382623645
 20
105.3728462898
  0
VERTEX
  8
0
 62
9
  6
CONTINUOUS
 10
108.0814581125
 20
105.7691759332
  0
VERTEX
  8
0
 62
9
  6
CONTINUOUS
 10
108.1971254862
 20
106.1367358801
  0
VERTEX
  8
0
 62
9
  6
CONTINUOUS
 10
108.3723906385
 20
106.4622470948
  0
VERTEX
  8
0
 62
9
  6
CONTINUOUS
 10
108.5892098453
 20
106.7339676631
  0
VERTEX
  8
0
 62
9
  6
CONTINUOUS
 10
108.8317590135
 20
106.9505526592
  0
VERTEX
  8
0
 62
9
  6
CONTINUOUS
 10
109.0874223762
 20
107.1149524803
  0
VERTEX
  8
0
 62
9
  6
CONTINUOUS
 10
109.3440049793
 20
107.2310565096
  0
VERTEX
  8
0
 62
9
  6
CONTINUOUS
 10
109.5907385052
 20
107.30469816
  0
VERTEX
  8
0
 62
9
  6
CONTINUOUS
 10
109.8218116222
 20
107.343653785
  0
VERTEX
  8
0
 62
9
  6
CONTINUOUS
 10
110.0381862106
 20
107.3553932188
  0
SEQEND
  0
POLYLINE
  8
0
 62
9
  6
CONTINUOUS
 66
1
 70
0
  0
VERTEX
  8
0
 62
9
  6
CONTINUOUS
 10
109.0424129161
 20
94.5782481915
  0
VERTEX
  8
0
 62
9
  6
CONTINUOUS
 10
109.0950173117
 20
94.717122172
  0
VERTEX
  8
0
 62
9
  6
CONTINUOUS
 10
109.1174388986
 20
94.8660329024
  0
VERTEX
  8
0
 62
9
  6
CONTINUOUS
 10
109.1089616914
 20
95.0202139293
  0
SEQEND
  0
POLYLINE
  8
0
 62
9
  6
CONTINUOUS
 66
1
 70
0
  0
VERTEX
  8
0
 62
9
  6
CONTINUOUS
 10
109.4050304265
 20
95.5278546219
  0
VERTEX
  8
0
 62
9
  6
CONTINUOUS
 10
109.2957217893
 20
95.3771702636
  0
VERTEX
  8
0
 62
9
  6
CONTINUOUS
 10
109.1961601367
 20
95.2076730307
  0
VERTEX
  8
0
 62
9
  6
CONTINUOUS
 10
109.1089663332
 20
95.0201897191
  0
SEQEND
  0
POLYLINE
  8
0
 62
9
  6
CONTINUOUS
 66
1
 70
0
  0
VERTEX
  8
0
 62
9
  6
CONTINUOUS
 10
109.2269061136
 20
94.8325311835
  0
VERTEX
  8
0
 62
9
  6
CONTINUOUS
 10
109.3235387146
 20
94.9563461319
  0
VERTEX
  8
0
 62
9
  6
CONTINUOUS
 10
109.3892743085
 20
95.1025837371
  0
VERTEX
  8
0
 62
9
  6
CONTINUOUS
 10
109.4097166641
 20
95.1823822383
  0
VERTEX
  8
0
 62
9
  6
CONTINUOUS
 10
109.4247677236
 20
95.3515023124
  0
VERTEX
  8
0
 62
9
  6
CONTINUOUS
 10
109.4050303763
 20
95.5278546225
  0
SEQEND
  0
LINE
  8
0
 62
9
  6
CONTINUOUS
 10
112.9850557451
 20
99.996167772
 11
111.40120329
 21
98.0179714021
  0
LINE
  8
0
 62
9
  6
CONTINUOUS
 10
111.40120329
 20
98.0179714021
 11
110.1740344953
 21
96.4864676596
  0
LINE
  8
0
 62
9
  6
CONTINUOUS
 10
110.1740344953
 20
96.4864676596
 11
109.4050304265
 21
95.5278546219
  0
LINE
  8
0
 62
9
  6
CONTINUOUS
 10
119.0601145086
 20
106.0712265355
 11
112.9850557451
 21
99.996167772
  0
LINE
  8
0
 62
7
  6
CONTINUOUS
 10
121.1639817812
 20
106.7696067812
 11
109.2269061486
 21
94.8325311486
  0
POLYLINE
  8
0
 62
9
  6
CONTINUOUS
 66
1
 70
0
  0
VERTEX
  8
0
 62
9
  6
CONTINUOUS
 10
123.4356930747
 20
107.3553932188
  0
VERTEX
  8
0
 62
9
  6
CONTINUOUS
 10
123.5623843585
 20
107.4801554031
  0
VERTEX
  8
0
 62
9
  6
CONTINUOUS
 10
123.6839049155
 20
107.6286851642
  0
VERTEX
  8
0
 62
9
  6
CONTINUOUS
 10
123.7411623935
 20
107.7099998557
  0
VERTEX
  8
0
 62
9
  6
CONTINUOUS
 10
123.8457491462
 20
107.8825783022
  0
VERTEX
  8
0
 62
9
  6
CONTINUOUS
 10
123.9336000363
 20
108.0625
  0
SEQEND
  0
POLYLINE
  8
0
 62
9
  6
CONTINUOUS
 66
1
 70
0
  0
VERTEX
  8
0
 62
9
  6
CONTINUOUS
 10
121.1639818464
 20
106.769606716
  0
VERTEX
  8
0
 62
9
  6
CONTINUOUS
 10
121.0636502597
 20
106.7001791205
  0
VERTEX
  8
0
 62
9
  6
CONTINUOUS
 10
120.9367996856
 20
106.6646898031
  0
VERTEX
  8
0
 62
9
  6
CONTINUOUS
 10
120.7889741023
 20
106.6646898171
  0
VERTEX
  8
0
 62
9
  6
CONTINUOUS
 10
120.6266341964
 20
106.7001791619
  0
VERTEX
  8
0
 62
9
  6
CONTINUOUS
 10
120.456875
 20
106.7696067829
  0
SEQEND
  0
LINE
  8
0
 62
9
  6
CONTINUOUS
 10
121.4933774787
 20
105.4454475929
 11
117.9623328717
 21
103.5679578717
  0
LINE
  8
AXES
 62
9
  6
CONTINUOUS
 10
121.4933774787
 20
66.6795524071
 11
117.9623328717
 21
68.5570421283
  0
POLYLINE
  8
0
 62
9
  6
CONTINUOUS
 66
1
 70
0
  0
VERTEX
  8
0
 62
9
  6
CONTINUOUS
 10
121.1639818464
 20
65.355393284
  0
VERTEX
  8
0
 62
9
  6
CONTINUOUS
 10
121.0636502597
 20
65.4248208795
  0
VERTEX
  8
0
 62
9
  6
CONTINUOUS
 10
120.9367996856
 20
65.4603101969
  0
VERTEX
  8
0
 62
9
  6
CONTINUOUS
 10
120.7889741023
 20
65.4603101829
  0
VERTEX
  8
0
 62
9
  6
CONTINUOUS
 10
120.6266341964
 20
65.4248208381
  0
VERTEX
  8
0
 62
9
  6
CONTINUOUS
 10
120.456875
 20
65.3553932171
  0
SEQEND
  0
POLYLINE
  8
0
 62
9
  6
CONTINUOUS
 66
1
 70
0
  0
VERTEX
  8
0
 62
9
  6
CONTINUOUS
 10
123.4356930747
 20
64.7696067812
  0
VERTEX
  8
0
 62
9
  6
CONTINUOUS
 10
123.5623843585
 20
64.6448445969
  0
VERTEX
  8
0
 62
9
  6
CONTINUOUS
 10
123.6839049155
 20
64.4963148358
  0
VERTEX
  8
0
 62
9
  6
CONTINUOUS
 10
123.7411623935
 20
64.4150001443
  0
VERTEX
  8
0
 62
9
  6
CONTINUOUS
 10
123.8457491462
 20
64.2424216978
  0
VERTEX
  8
0
 62
9
  6
CONTINUOUS
 10
123.9336000363
 20
64.0625
  0
SEQEND
  0
LINE
  8
0
 62
9
  6
CONTINUOUS
 10
119.0601145086
 20
66.0537734645
 11
112.9850557451
 21
72.128832228
  0
LINE
  8
0
 62
7
  6
CONTINUOUS
 10
121.1639817812
 20
65.3553932188
 11
109.2269061486
 21
77.2924688514
  0
LINE
  8
0
 62
9
  6
CONTINUOUS
 10
110.1740344953
 20
75.6385323404
 11
109.4050304265
 21
76.5971453781
  0
LINE
  8
0
 62
9
  6
CONTINUOUS
 10
111.40120329
 20
74.1070285979
 11
110.1740344953
 21
75.6385323404
  0
LINE
  8
0
 62
9
  6
CONTINUOUS
 10
112.9850557451
 20
72.128832228
 11
111.40120329
 21
74.1070285979
  0
POLYLINE
  8
0
 62
9
  6
CONTINUOUS
 66
1
 70
0
  0
VERTEX
  8
0
 62
9
  6
CONTINUOUS
 10
109.2269061136
 20
77.2924688165
  0
VERTEX
  8
0
 62
9
  6
CONTINUOUS
 10
109.3235387146
 20
77.1686538681
  0
VERTEX
  8
0
 62
9
  6
CONTINUOUS
 10
109.3892743085
 20
77.0224162629
  0
VERTEX
  8
0
 62
9
  6
CONTINUOUS
 10
109.4097166641
 20
76.9426177617
  0
VERTEX
  8
0
 62
9
  6
CONTINUOUS
 10
109.4247677236
 20
76.7734976876
  0
VERTEX
  8
0
 62
9
  6
CONTINUOUS
 10
109.4050303763
 20
76.5971453775
  0
SEQEND
  0
POLYLINE
  8
0
 62
9
  6
CONTINUOUS
 66
1
 70
0
  0
VERTEX
  8
0
 62
9
  6
CONTINUOUS
 10
109.4050304265
 20
76.5971453781
  0
VERTEX
  8
0
 62
9
  6
CONTINUOUS
 10
109.2957217893
 20
76.7478297364
  0
VERTEX
  8
0
 62
9
  6
CONTINUOUS
 10
109.1961601367
 20
76.9173269693
  0
VERTEX
  8
0
 62
9
  6
CONTINUOUS
 10
109.1089663332
 20
77.1048102809
  0
SEQEND
  0
POLYLINE
  8
0
 62
9
  6
CONTINUOUS
 66
1
 70
0
  0
VERTEX
  8
0
 62
9
  6
CONTINUOUS
 10
109.0424129161
 20
77.5467518085
  0
VERTEX
  8
0
 62
9
  6
CONTINUOUS
 10
109.0950173117
 20
77.407877828
  0
VERTEX
  8
0
 62
9
  6
CONTINUOUS
 10
109.1174388986
 20
77.2589670976
  0
VERTEX
  8
0
 62
9
  6
CONTINUOUS
 10
109.1089616914
 20
77.1047860707
  0
SEQEND
  0
POLYLINE
  8
0
 62
7
  6
CONTINUOUS
 66
1
 70
0
  0
VERTEX
  8
0
 62
7
  6
CONTINUOUS
 10
108.8997623637
 20
81.9199384137
  0
VERTEX
  8
0
 62
7
  6
CONTINUOUS
 10
108.8940990855
 20
82.0178430408
  0
VERTEX
  8
0
 62
7
  6
CONTINUOUS
 10
108.856870425
 20
82.2010688172
  0
VERTEX
  8
0
 62
7
  6
CONTINUOUS
 10
108.7847597509
 20
82.3768802356
  0
VERTEX
  8
0
 62
7
  6
CONTINUOUS
 10
108.6801546681
 20
82.5365496108
  0
VERTEX
  8
0
 62
7
  6
CONTINUOUS
 10
108.543448285
 20
82.6765336749
  0
VERTEX
  8
0
 62
7
  6
CONTINUOUS
 10
108.463906593
 20
82.7369141544
  0
VERTEX
  8
0
 62
7
  6
CONTINUOUS
 10
108.2855177643
 20
82.8338288877
  0
VERTEX
  8
0
 62
7
  6
CONTINUOUS
 10
108.086047156
 20
82.8937148864
  0
VERTEX
  8
0
 62
7
  6
CONTINUOUS
 10
107.8767926915
 20
82.9109471649
  0
VERTEX
  8
0
 62
7
  6
CONTINUOUS
 10
107.8998004406
 20
82.9112118772
  0
SEQEND
  0
LINE
  8
0
 62
7
  6
CONTINUOUS
 10
108.8997623637
 20
81.9199384137
 11
108.9340510067
 21
77.9908490971
  0
LINE
  8
0
 62
7
  6
CONTINUOUS
 10
108.9543951152
 20
75.6596451657
 11
109.0382242875
 21
66.0537734645
  0
LINE
  8
AXES
 62
9
  6
CONTINUOUS
 10
109.4391962008
 20
80.0625
 11
109.4391962008
 21
78.5625
  0
LINE
  8
2_FEATURE
 62
9
  6
CONTINUOUS
 10
109.4391962008
 20
92.0625
 11
109.4391962008
 21
93.5625
  0
LINE
  8
0
 62
9
  6
CONTINUOUS
 10
110.0381862106
 20
107.3553932188
 11
110.0381862106
 21
107.0625
  0
LINE
  8
0
 62
9
  6
CONTINUOUS
 10
110.0381862106
 20
64.7696067812
 11
110.0381862106
 21
65.0625
  0
LINE
  8
0
 62
9
  6
CONTINUOUS
 10
111.2434289842
 20
116.0625
 11
111.2434289842
 21
114.3553932188
  0
LINE
  8
0
 62
9
  6
CONTINUOUS
 10
111.2434289842
 20
56.0625
 11
111.2434289842
 21
57.7696067812
  0
LINE
  8
0
 62
7
  6
CONTINUOUS
 10
108.8997623637
 20
90.2050615863
 11
108.9340510067
 21
94.1341509029
  0
LINE
  8
0
 62
7
  6
CONTINUOUS
 10
108.9543951152
 20
96.4653548343
 11
109.0382242875
 21
106.0712265355
  0
POLYLINE
  8
0
 62
7
  6
CONTINUOUS
 66
1
 70
0
  0
VERTEX
  8
0
 62
7
  6
CONTINUOUS
 10
108.8997623637
 20
90.2050615863
  0
VERTEX
  8
0
 62
7
  6
CONTINUOUS
 10
108.8940990855
 20
90.1071569592
  0
VERTEX
  8
0
 62
7
  6
CONTINUOUS
 10
108.856870425
 20
89.9239311828
  0
VERTEX
  8
0
 62
7
  6
CONTINUOUS
 10
108.7847597509
 20
89.7481197644
  0
VERTEX
  8
0
 62
7
  6
CONTINUOUS
 10
108.6801546681
 20
89.5884503892
  0
VERTEX
  8
0
 62
7
  6
CONTINUOUS
 10
108.543448285
 20
89.4484663251
  0
VERTEX
  8
0
 62
7
  6
CONTINUOUS
 10
108.463906593
 20
89.3880858456
  0
VERTEX
  8
0
 62
7
  6
CONTINUOUS
 10
108.2855177643
 20
89.2911711123
  0
VERTEX
  8
0
 62
7
  6
CONTINUOUS
 10
108.086047156
 20
89.2312851136
  0
VERTEX
  8
0
 62
7
  6
CONTINUOUS
 10
107.8767926915
 20
89.2140528351
  0
VERTEX
  8
0
 62
7
  6
CONTINUOUS
 10
107.8998004406
 20
89.2137881228
  0
SEQEND
  0
POLYLINE
  8
0
 62
9
  6
CONTINUOUS
 66
1
 70
0
  0
VERTEX
  8
0
 62
9
  6
CONTINUOUS
 10
109.1089663332
 20
77.1048102809
  0
VERTEX
  8
0
 62
9
  6
CONTINUOUS
 10
108.9905909906
 20
76.3951446359
  0
VERTEX
  8
0
 62
9
  6
CONTINUOUS
 10
108.9543951152
 20
75.6596451657
  0
SEQEND
  0
POLYLINE
  8
0
 62
9
  6
CONTINUOUS
 66
1
 70
0
  0
VERTEX
  8
0
 62
9
  6
CONTINUOUS
 10
108.1508361056
 20
77.801037802
  0
VERTEX
  8
0
 62
9
  6
CONTINUOUS
 10
108.0012948545
 20
77.092361719
  0
VERTEX
  8
0
 62
9
  6
CONTINUOUS
 10
107.9544331921
 20
76.3580254114
  0
SEQEND
  0
LINE
  8
2_FEATURE
 62
9
  6
CONTINUOUS
 10
109.9086677636
 20
93.6795524071
 11
120.092308756
 21
99.0942903714
  0
LINE
  8
2_FEATURE
 62
7
  6
CONTINUOUS
 10
110.6128751078
 20
92.3551310179
 11
120.7965161001
 21
97.7698689821
  0
LINE
  8
AXES
 62
9
  6
CONTINUOUS
 10
121.9701950071
 20
72.5625
 11
160.2005570325
 21
72.5625
  0
LINE
  8
AXES
 62
7
  6
CONTINUOUS
 10
121.9701950071
 20
74.0625
 11
159.6297455502
 21
74.0625
  0
LINE
  8
AXES
 62
9
  6
CONTINUOUS
 10
90.546875
 20
77.3802239734
 11
76.3468750001
 21
78.9395866756
  0
LINE
  8
AXES
 62
7
  6
CONTINUOUS
 10
98.046875
 20
74.9480750284
 11
77.6640808392
 21
77.4507674594
  0
LINE
  8
AXES
 62
9
  6
CONTINUOUS
 10
98.046875
 20
76.4593397666
 11
90.546875
 21
77.3802239734
  0
POLYLINE
  8
0
 62
9
  6
CONTINUOUS
 66
1
 70
0
  0
VERTEX
  8
0
 62
9
  6
CONTINUOUS
 10
108.1508129025
 20
77.8010347655
  0
VERTEX
  8
0
 62
9
  6
CONTINUOUS
 10
108.3399065551
 20
77.7605901443
  0
VERTEX
  8
0
 62
9
  6
CONTINUOUS
 10
108.5219038308
 20
77.6950853855
  0
VERTEX
  8
0
 62
9
  6
CONTINUOUS
 10
108.6899523723
 20
77.6069833064
  0
VERTEX
  8
0
 62
9
  6
CONTINUOUS
 10
108.8377351507
 20
77.4995957977
  0
VERTEX
  8
0
 62
9
  6
CONTINUOUS
 10
108.9596971076
 20
77.3769595137
  0
VERTEX
  8
0
 62
9
  6
CONTINUOUS
 10
109.051253744
 20
77.2436845738
  0
VERTEX
  8
0
 62
9
  6
CONTINUOUS
 10
109.1089616914
 20
77.1047860707
  0
SEQEND
  0
LINE
  8
AXES
 62
9
  6
CONTINUOUS
 10
109.9086677636
 20
78.4454475929
 11
120.092308756
 21
73.0307096286
  0
LINE
  8
AXES
 62
7
  6
CONTINUOUS
 10
110.6128751078
 20
79.7698689821
 11
120.7965161001
 21
74.3551310179
  0
POLYLINE
  8
0
 62
9
  6
CONTINUOUS
 66
1
 70
0
  0
VERTEX
  8
0
 62
9
  6
CONTINUOUS
 10
108.1508361056
 20
94.323962198
  0
VERTEX
  8
0
 62
9
  6
CONTINUOUS
 10
108.0012948545
 20
95.032638281
  0
VERTEX
  8
0
 62
9
  6
CONTINUOUS
 10
107.9544331921
 20
95.7669745886
  0
SEQEND
  0
POLYLINE
  8
0
 62
9
  6
CONTINUOUS
 66
1
 70
0
  0
VERTEX
  8
0
 62
9
  6
CONTINUOUS
 10
109.1089663332
 20
95.0201897191
  0
VERTEX
  8
0
 62
9
  6
CONTINUOUS
 10
108.9905909906
 20
95.7298553641
  0
VERTEX
  8
0
 62
9
  6
CONTINUOUS
 10
108.9543951152
 20
96.4653548343
  0
SEQEND
  0
LINE
  8
0
 62
9
  6
CONTINUOUS
 10
113.0380719798
 20
66.0537734645
 11
112.9850557451
 21
72.128832228
  0
LINE
  8
0
 62
9
  6
CONTINUOUS
 10
113.0380719798
 20
107.0625
 11
113.0380719798
 21
106.0712265355
  0
LINE
  8
0
 62
9
  6
CONTINUOUS
 10
113.0380719798
 20
65.0625
 11
113.0380719798
 21
66.0537734645
  0
LINE
  8
0
 62
9
  6
CONTINUOUS
 10
113.0380719798
 20
106.0712265355
 11
112.9850557451
 21
99.996167772
  0
LINE
  8
AXES
 62
9
  6
CONTINUOUS
 10
110.6128751078
 20
79.7698689821
 11
109.9086677636
 21
78.4454475929
  0
LINE
  8
AXES
 62
9
  6
CONTINUOUS
 10
109.4391962008
 20
78.5625
 11
108.9290622848
 21
78.5625
  0
POLYLINE
  8
0
 62
9
  6
CONTINUOUS
 66
1
 70
0
  0
VERTEX
  8
0
 62
9
  6
CONTINUOUS
 10
107.9544331921
 20
76.3580254114
  0
VERTEX
  8
0
 62
9
  6
CONTINUOUS
 10
108.0585505423
 20
76.354636462
  0
VERTEX
  8
0
 62
9
  6
CONTINUOUS
 10
108.2622703666
 20
76.3250295236
  0
VERTEX
  8
0
 62
9
  6
CONTINUOUS
 10
108.4526413422
 20
76.2661908842
  0
VERTEX
  8
0
 62
9
  6
CONTINUOUS
 10
108.6214083476
 20
76.1806719839
  0
VERTEX
  8
0
 62
9
  6
CONTINUOUS
 10
108.6953577793
 20
76.1290251951
  0
VERTEX
  8
0
 62
9
  6
CONTINUOUS
 10
108.8183779477
 20
76.0107579377
  0
VERTEX
  8
0
 62
9
  6
CONTINUOUS
 10
108.9039345845
 20
75.8768868455
  0
VERTEX
  8
0
 62
9
  6
CONTINUOUS
 10
108.9483176681
 20
75.7332170164
  0
VERTEX
  8
0
 62
9
  6
CONTINUOUS
 10
108.9543951152
 20
75.6596451657
  0
SEQEND
  0
POLYLINE
  8
0
 62
9
  6
CONTINUOUS
 66
1
 70
0
  0
VERTEX
  8
0
 62
9
  6
CONTINUOUS
 10
107.9340890836
 20
78.6892293428
  0
VERTEX
  8
0
 62
9
  6
CONTINUOUS
 10
108.038206393
 20
78.6858403963
  0
VERTEX
  8
0
 62
9
  6
CONTINUOUS
 10
108.2419261507
 20
78.6562334792
  0
VERTEX
  8
0
 62
9
  6
CONTINUOUS
 10
108.4322970925
 20
78.5973948724
  0
VERTEX
  8
0
 62
9
  6
CONTINUOUS
 10
108.6010641019
 20
78.5118760016
  0
VERTEX
  8
0
 62
9
  6
CONTINUOUS
 10
108.6750135478
 20
78.4602292219
  0
VERTEX
  8
0
 62
9
  6
CONTINUOUS
 10
108.7980337596
 20
78.3419619653
  0
VERTEX
  8
0
 62
9
  6
CONTINUOUS
 10
108.8835904426
 20
78.2080908484
  0
VERTEX
  8
0
 62
9
  6
CONTINUOUS
 10
108.9279735554
 20
78.0644209743
  0
VERTEX
  8
0
 62
9
  6
CONTINUOUS
 10
108.9340510067
 20
77.9908490971
  0
SEQEND
  0
POLYLINE
  8
AXES
 62
9
  6
CONTINUOUS
 66
1
 70
0
  0
VERTEX
  8
AXES
 62
9
  6
CONTINUOUS
 10
98.046875
 20
80.0958107273
  0
VERTEX
  8
AXES
 62
9
  6
CONTINUOUS
 10
97.5684535554
 20
80.1145233803
  0
VERTEX
  8
AXES
 62
9
  6
CONTINUOUS
 10
95.7781463774
 20
80.2913851663
  0
VERTEX
  8
AXES
 62
9
  6
CONTINUOUS
 10
93.3911332575
 20
80.6194227336
  0
VERTEX
  8
AXES
 62
9
  6
CONTINUOUS
 10
90.5468752012
 20
81.0625
  0
SEQEND
  0
POLYLINE
  8
AXES
 62
9
  6
CONTINUOUS
 66
1
 70
0
  0
VERTEX
  8
AXES
 62
9
  6
CONTINUOUS
 10
98.046875
 20
78.6336823587
  0
VERTEX
  8
AXES
 62
9
  6
CONTINUOUS
 10
97.3439073202
 20
78.692437834
  0
VERTEX
  8
AXES
 62
9
  6
CONTINUOUS
 10
95.4356541775
 20
79.1345466762
  0
VERTEX
  8
AXES
 62
9
  6
CONTINUOUS
 10
93.1239738098
 20
79.9547162648
  0
VERTEX
  8
AXES
 62
9
  6
CONTINUOUS
 10
90.546875
 20
81.0625
  0
SEQEND
  0
LINE
  8
2_FEATURE
 62
9
  6
CONTINUOUS
 10
110.6128751078
 20
92.3551310179
 11
109.9086677636
 21
93.6795524071
  0
POLYLINE
  8
0
 62
9
  6
CONTINUOUS
 66
1
 70
0
  0
VERTEX
  8
0
 62
9
  6
CONTINUOUS
 10
108.1508129025
 20
77.8010347655
  0
VERTEX
  8
0
 62
9
  6
CONTINUOUS
 10
108.3446819732
 20
77.8351003068
  0
VERTEX
  8
0
 62
9
  6
CONTINUOUS
 10
108.5302355358
 20
77.8373753619
  0
VERTEX
  8
0
 62
9
  6
CONTINUOUS
 10
108.6995146922
 20
77.8077623079
  0
VERTEX
  8
0
 62
9
  6
CONTINUOUS
 10
108.8452585825
 20
77.7475313155
  0
VERTEX
  8
0
 62
9
  6
CONTINUOUS
 10
108.961215889
 20
77.6592658408
  0
VERTEX
  8
0
 62
9
  6
CONTINUOUS
 10
109.0424129161
 20
77.5467518085
  0
SEQEND
  0
LINE
  8
AXES
 62
7
  6
CONTINUOUS
 10
109.4391962008
 20
80.0625
 11
108.9159719831
 21
80.0625
  0
LINE
  8
AXES
 62
9
  6
CONTINUOUS
 10
90.546875
 20
81.0625
 11
98.046875
 21
81.0625
  0
LINE
  8
0
 62
9
  6
CONTINUOUS
 10
99.046875
 20
82.6183186594
 11
107.8998004406
 21
82.6183186594
  0
POLYLINE
  8
0
 62
9
  6
CONTINUOUS
 66
1
 70
0
  0
VERTEX
  8
0
 62
9
  6
CONTINUOUS
 10
107.8998004406
 20
82.6183186594
  0
VERTEX
  8
0
 62
9
  6
CONTINUOUS
 10
108.0941304967
 20
82.6056859455
  0
VERTEX
  8
0
 62
9
  6
CONTINUOUS
 10
108.2810509294
 20
82.5665735847
  0
VERTEX
  8
0
 62
9
  6
CONTINUOUS
 10
108.4534346373
 20
82.5024728947
  0
VERTEX
  8
0
 62
9
  6
CONTINUOUS
 10
108.604708791
 20
82.4158279749
  0
VERTEX
  8
0
 62
9
  6
CONTINUOUS
 10
108.7291054482
 20
82.3099425151
  0
VERTEX
  8
0
 62
9
  6
CONTINUOUS
 10
108.8218814809
 20
82.1888538288
  0
VERTEX
  8
0
 62
9
  6
CONTINUOUS
 10
108.8794994255
 20
82.0571789146
  0
VERTEX
  8
0
 62
9
  6
CONTINUOUS
 10
108.8997623637
 20
81.9199384137
  0
SEQEND
  0
POLYLINE
  8
0
 62
9
  6
CONTINUOUS
 66
1
 70
0
  0
VERTEX
  8
0
 62
9
  6
CONTINUOUS
 10
123.9336000363
 20
64.0625
  0
VERTEX
  8
0
 62
9
  6
CONTINUOUS
 10
123.9240328936
 20
64.257590322
  0
VERTEX
  8
0
 62
9
  6
CONTINUOUS
 10
123.8956991256
 20
64.4451834324
  0
VERTEX
  8
0
 62
9
  6
CONTINUOUS
 10
123.849687583
 20
64.618070233
  0
VERTEX
  8
0
 62
9
  6
CONTINUOUS
 10
123.7877664636
 20
64.7696067812
  0
VERTEX
  8
0
 62
9
  6
CONTINUOUS
 10
123.7123153614
 20
64.8939696123
  0
VERTEX
  8
0
 62
9
  6
CONTINUOUS
 10
123.6262338198
 20
64.9863795325
  0
VERTEX
  8
0
 62
9
  6
CONTINUOUS
 10
123.5328299042
 20
65.0432852804
  0
VERTEX
  8
0
 62
9
  6
CONTINUOUS
 10
123.4356930747
 20
65.0625
  0
SEQEND
  0
LINE
  8
AXES
 62
9
  6
CONTINUOUS
 10
121.9628490414
 20
66.5625
 11
121.9628490414
 21
65.0625
  0
LINE
  8
0
 62
9
  6
CONTINUOUS
 10
121.9628490414
 20
105.5625
 11
121.9628490414
 21
107.0625
  0
LINE
  8
AXES
 62
9
  6
CONTINUOUS
 10
121.9701950071
 20
74.0625
 11
121.9701950071
 21
72.5625
  0
LINE
  8
2_FEATURE
 62
9
  6
CONTINUOUS
 10
121.9701950071
 20
98.0625
 11
121.9701950071
 21
99.5625
  0
POLYLINE
  8
0
 62
9
  6
CONTINUOUS
 66
1
 70
0
  0
VERTEX
  8
0
 62
9
  6
CONTINUOUS
 10
123.9336000363
 20
108.0625
  0
VERTEX
  8
0
 62
9
  6
CONTINUOUS
 10
123.9240328936
 20
107.867409678
  0
VERTEX
  8
0
 62
9
  6
CONTINUOUS
 10
123.8956991256
 20
107.6798165676
  0
VERTEX
  8
0
 62
9
  6
CONTINUOUS
 10
123.849687583
 20
107.506929767
  0
VERTEX
  8
0
 62
9
  6
CONTINUOUS
 10
123.7877664636
 20
107.3553932188
  0
VERTEX
  8
0
 62
9
  6
CONTINUOUS
 10
123.7123153614
 20
107.2310303877
  0
VERTEX
  8
0
 62
9
  6
CONTINUOUS
 10
123.6262338198
 20
107.1386204675
  0
VERTEX
  8
0
 62
9
  6
CONTINUOUS
 10
123.5328299042
 20
107.0817147196
  0
VERTEX
  8
0
 62
9
  6
CONTINUOUS
 10
123.4356930747
 20
107.0625
  0
SEQEND
  0
LINE
  8
0
 62
7
  6
CONTINUOUS
 10
149.5468749156
 20
116.8125000844
 11
149.2968749116
 21
116.5625000884
  0
POLYLINE
  8
0
 62
7
  6
CONTINUOUS
 66
1
 70
0
  0
VERTEX
  8
0
 62
7
  6
CONTINUOUS
 10
99.046875
 20
82.9112118782
  0
VERTEX
  8
0
 62
7
  6
CONTINUOUS
 10
98.8502775684
 20
82.8916961718
  0
VERTEX
  8
0
 62
7
  6
CONTINUOUS
 10
98.6624373656
 20
82.8343628438
  0
VERTEX
  8
0
 62
7
  6
CONTINUOUS
 10
98.4901360162
 20
82.741899367
  0
VERTEX
  8
0
 62
7
  6
CONTINUOUS
 10
98.3394382723
 20
82.6179885589
  0
VERTEX
  8
0
 62
7
  6
CONTINUOUS
 10
98.21567552
 20
82.4671861801
  0
VERTEX
  8
0
 62
7
  6
CONTINUOUS
 10
98.1234007948
 20
82.2948723953
  0
VERTEX
  8
0
 62
7
  6
CONTINUOUS
 10
98.0662769468
 20
82.1072411056
  0
VERTEX
  8
0
 62
7
  6
CONTINUOUS
 10
98.046875
 20
81.9112118782
  0
SEQEND
  0
LINE
  8
0
 62
7
  6
CONTINUOUS
 10
107.8998004406
 20
82.9112118782
 11
99.046875
 21
82.9112118782
  0
LINE
  8
DEFAULT_1
 62
2
  6
CENTER
 10
95.796875
 20
86.0625
 11
92.546975
 21
86.0625
  0
LINE
  8
0
 62
2
  6
CONTINUOUS
 10
91.596875
 20
86.0625
 11
89.496875
 21
86.0625
  0
LINE
  8
DEFAULT_1
 62
2
  6
CENTER
 10
85.296875
 20
86.0625
 11
88.546775
 21
86.0625
  0
LINE
  8
00_CURVE
 62
40
  6
CONTINUOUS
 10
76.346875
 20
86.0625
 11
104.746875
 21
86.0625
  0
LINE
  8
0
 62
7
  6
CONTINUOUS
 10
149.5468749156
 20
55.3124999156
 11
149.2968749116
 21
55.5624999116
  0
LINE
  8
0
 62
9
  6
CONTINUOUS
 10
123.4356930747
 20
107.3553932188
 11
123.4356930747
 21
107.0625
  0
LINE
  8
0
 62
9
  6
CONTINUOUS
 10
123.4356930747
 20
64.7696067812
 11
123.4356930747
 21
65.0625
  0
LINE
  8
AXES
 62
9
  6
CONTINUOUS
 10
120.7965161001
 20
74.3551310179
 11
120.092308756
 21
73.0307096286
  0
LINE
  8
0
 62
9
  6
CONTINUOUS
 10
113.2027377884
 20
72.3460739089
 11
112.9850557451
 21
72.128832228
  0
POLYLINE
  8
2_FEATURE
 62
9
  6
CONTINUOUS
 66
1
 70
0
  0
VERTEX
  8
2_FEATURE
 62
9
  6
CONTINUOUS
 10
161.0391397097
 20
99.7634618943
  0
VERTEX
  8
2_FEATURE
 62
9
  6
CONTINUOUS
 10
160.7187267279
 20
99.6358854202
  0
VERTEX
  8
2_FEATURE
 62
9
  6
CONTINUOUS
 10
160.548974224
 20
99.595224401
  0
VERTEX
  8
2_FEATURE
 62
9
  6
CONTINUOUS
 10
160.2005570325
 20
99.5625
  0
SEQEND
  0
POLYLINE
  8
2_FEATURE
 62
9
  6
CONTINUOUS
 66
1
 70
0
  0
VERTEX
  8
2_FEATURE
 62
9
  6
CONTINUOUS
 10
159.6297455502
 20
98.0625
  0
VERTEX
  8
2_FEATURE
 62
9
  6
CONTINUOUS
 10
159.7774824289
 20
98.1136112577
  0
VERTEX
  8
2_FEATURE
 62
9
  6
CONTINUOUS
 10
159.9151512859
 20
98.2634618861
  0
VERTEX
  8
2_FEATURE
 62
9
  6
CONTINUOUS
 10
160.0333702155
 20
98.5018398161
  0
VERTEX
  8
2_FEATURE
 62
9
  6
CONTINUOUS
 10
160.124082792
 20
98.8124999881
  0
VERTEX
  8
2_FEATURE
 62
9
  6
CONTINUOUS
 10
160.1811071021
 20
99.174271425
  0
VERTEX
  8
2_FEATURE
 62
9
  6
CONTINUOUS
 10
160.2005570325
 20
99.5625
  0
SEQEND
  0
LINE
  8
0
 62
7
  6
CONTINUOUS
 10
99.046875
 20
89.2137881218
 11
107.8998004406
 21
89.2137881218
  0
LINE
  8
0
 62
9
  6
CONTINUOUS
 10
99.046875
 20
89.5066813406
 11
107.8998004406
 21
89.5066813406
  0
POLYLINE
  8
0
 62
7
  6
CONTINUOUS
 66
1
 70
0
  0
VERTEX
  8
0
 62
7
  6
CONTINUOUS
 10
99.046875
 20
89.2137881218
  0
VERTEX
  8
0
 62
7
  6
CONTINUOUS
 10
98.8502775684
 20
89.2333038282
  0
VERTEX
  8
0
 62
7
  6
CONTINUOUS
 10
98.6624373656
 20
89.2906371562
  0
VERTEX
  8
0
 62
7
  6
CONTINUOUS
 10
98.4901360162
 20
89.383100633
  0
VERTEX
  8
0
 62
7
  6
CONTINUOUS
 10
98.3394382723
 20
89.5070114411
  0
VERTEX
  8
0
 62
7
  6
CONTINUOUS
 10
98.21567552
 20
89.6578138199
  0
VERTEX
  8
0
 62
7
  6
CONTINUOUS
 10
98.1234007948
 20
89.8301276047
  0
VERTEX
  8
0
 62
7
  6
CONTINUOUS
 10
98.0662769468
 20
90.0177588944
  0
VERTEX
  8
0
 62
7
  6
CONTINUOUS
 10
98.046875
 20
90.2137881218
  0
SEQEND
  0
POLYLINE
  8
AXES
 62
9
  6
CONTINUOUS
 66
1
 70
0
  0
VERTEX
  8
AXES
 62
9
  6
CONTINUOUS
 10
159.6297455502
 20
74.0625
  0
VERTEX
  8
AXES
 62
9
  6
CONTINUOUS
 10
159.7774824289
 20
74.0113887423
  0
VERTEX
  8
AXES
 62
9
  6
CONTINUOUS
 10
159.9151512859
 20
73.8615381139
  0
VERTEX
  8
AXES
 62
9
  6
CONTINUOUS
 10
160.0333702155
 20
73.6231601839
  0
VERTEX
  8
AXES
 62
9
  6
CONTINUOUS
 10
160.124082792
 20
73.3125000119
  0
VERTEX
  8
AXES
 62
9
  6
CONTINUOUS
 10
160.1811071021
 20
72.950728575
  0
VERTEX
  8
AXES
 62
9
  6
CONTINUOUS
 10
160.2005570325
 20
72.5625
  0
SEQEND
  0
POLYLINE
  8
AXES
 62
9
  6
CONTINUOUS
 66
1
 70
0
  0
VERTEX
  8
AXES
 62
9
  6
CONTINUOUS
 10
161.0391397097
 20
72.3615381057
  0
VERTEX
  8
AXES
 62
9
  6
CONTINUOUS
 10
160.7187267279
 20
72.4891145798
  0
VERTEX
  8
AXES
 62
9
  6
CONTINUOUS
 10
160.548974224
 20
72.529775599
  0
VERTEX
  8
AXES
 62
9
  6
CONTINUOUS
 10
160.2005570325
 20
72.5625
  0
SEQEND
  0
LINE
  8
0
 62
9
  6
CONTINUOUS
 10
113.5959802031
 20
99.3896220529
 11
113.4566963603
 21
99.5267877415
  0
LINE
  8
0
 62
9
  6
CONTINUOUS
 10
113.4566963603
 20
99.5267877415
 11
113.2027377884
 21
99.7789260911
  0
LINE
  8
0
 62
9
  6
CONTINUOUS
 10
113.2027377884
 20
99.7789260911
 11
112.9850557451
 21
99.996167772
  0
LINE
  8
2_FEATURE
 62
9
  6
CONTINUOUS
 10
120.7965161001
 20
97.7698689821
 11
120.092308756
 21
99.0942903714
  0
POLYLINE
  8
0
 62
9
  6
CONTINUOUS
 66
1
 70
0
  0
VERTEX
  8
0
 62
9
  6
CONTINUOUS
 10
113.6921625263
 20
72.8272124737
  0
VERTEX
  8
0
 62
9
  6
CONTINUOUS
 10
113.6878649586
 20
72.8238235243
  0
VERTEX
  8
0
 62
9
  6
CONTINUOUS
 10
113.6564801845
 20
72.7942165861
  0
VERTEX
  8
0
 62
9
  6
CONTINUOUS
 10
113.5959802031
 20
72.7353779471
  0
VERTEX
  8
0
 62
9
  6
CONTINUOUS
 10
113.5089884958
 20
72.6498590472
  0
VERTEX
  8
0
 62
9
  6
CONTINUOUS
 10
113.2027377884
 20
72.3460739089
  0
SEQEND
  0
LINE
  8
2_FEATURE
 62
9
  6
CONTINUOUS
 10
168.996875
 20
103.872538498
 11
161.0391397097
 21
99.7634618943
  0
POLYLINE
  8
0
 62
9
  6
CONTINUOUS
 66
1
 70
0
  0
VERTEX
  8
0
 62
9
  6
CONTINUOUS
 10
107.8998004406
 20
89.5066813406
  0
VERTEX
  8
0
 62
9
  6
CONTINUOUS
 10
108.0941304967
 20
89.5193140545
  0
VERTEX
  8
0
 62
9
  6
CONTINUOUS
 10
108.2810509294
 20
89.5584264153
  0
VERTEX
  8
0
 62
9
  6
CONTINUOUS
 10
108.4534346373
 20
89.6225271053
  0
VERTEX
  8
0
 62
9
  6
CONTINUOUS
 10
108.604708791
 20
89.7091720251
  0
VERTEX
  8
0
 62
9
  6
CONTINUOUS
 10
108.7291054482
 20
89.8150574849
  0
VERTEX
  8
0
 62
9
  6
CONTINUOUS
 10
108.8218814809
 20
89.9361461712
  0
VERTEX
  8
0
 62
9
  6
CONTINUOUS
 10
108.8794994255
 20
90.0678210854
  0
VERTEX
  8
0
 62
9
  6
CONTINUOUS
 10
108.8997623637
 20
90.2050615863
  0
SEQEND
  0
POLYLINE
  8
2_FEATURE
 62
9
  6
CONTINUOUS
 66
1
 70
0
  0
VERTEX
  8
2_FEATURE
 62
9
  6
CONTINUOUS
 10
98.046875
 20
92.0291892727
  0
VERTEX
  8
2_FEATURE
 62
9
  6
CONTINUOUS
 10
97.5684535554
 20
92.0104766197
  0
VERTEX
  8
2_FEATURE
 62
9
  6
CONTINUOUS
 10
95.7781463774
 20
91.8336148337
  0
VERTEX
  8
2_FEATURE
 62
9
  6
CONTINUOUS
 10
93.3911332575
 20
91.5055772664
  0
VERTEX
  8
2_FEATURE
 62
9
  6
CONTINUOUS
 10
90.5468752012
 20
91.0625
  0
SEQEND
  0
POLYLINE
  8
0
 62
9
  6
CONTINUOUS
 66
1
 70
0
  0
VERTEX
  8
0
 62
9
  6
CONTINUOUS
 10
107.9340890836
 20
93.4357706572
  0
VERTEX
  8
0
 62
9
  6
CONTINUOUS
 10
108.038206393
 20
93.4391596037
  0
VERTEX
  8
0
 62
9
  6
CONTINUOUS
 10
108.2419261507
 20
93.4687665208
  0
VERTEX
  8
0
 62
9
  6
CONTINUOUS
 10
108.4322970925
 20
93.5276051276
  0
VERTEX
  8
0
 62
9
  6
CONTINUOUS
 10
108.6010641019
 20
93.6131239984
  0
VERTEX
  8
0
 62
9
  6
CONTINUOUS
 10
108.6750135478
 20
93.6647707781
  0
VERTEX
  8
0
 62
9
  6
CONTINUOUS
 10
108.7980337596
 20
93.7830380347
  0
VERTEX
  8
0
 62
9
  6
CONTINUOUS
 10
108.8835904426
 20
93.9169091516
  0
VERTEX
  8
0
 62
9
  6
CONTINUOUS
 10
108.9279735554
 20
94.0605790257
  0
VERTEX
  8
0
 62
9
  6
CONTINUOUS
 10
108.9340510067
 20
94.1341509029
  0
SEQEND
  0
LINE
  8
2_FEATURE
 62
9
  6
CONTINUOUS
 10
90.546875
 20
91.0625
 11
98.046875
 21
91.0625
  0
LINE
  8
2_FEATURE
 62
7
  6
CONTINUOUS
 10
109.4391962008
 20
92.0625
 11
108.9159719831
 21
92.0625
  0
LINE
  8
2_FEATURE
 62
9
  6
CONTINUOUS
 10
109.4391962008
 20
93.5625
 11
108.9290622848
 21
93.5625
  0
POLYLINE
  8
0
 62
9
  6
CONTINUOUS
 66
1
 70
0
  0
VERTEX
  8
0
 62
9
  6
CONTINUOUS
 10
108.1508129025
 20
94.3239652345
  0
VERTEX
  8
0
 62
9
  6
CONTINUOUS
 10
108.3446819732
 20
94.2898996932
  0
VERTEX
  8
0
 62
9
  6
CONTINUOUS
 10
108.5302355358
 20
94.2876246381
  0
VERTEX
  8
0
 62
9
  6
CONTINUOUS
 10
108.6995146922
 20
94.3172376921
  0
VERTEX
  8
0
 62
9
  6
CONTINUOUS
 10
108.8452585825
 20
94.3774686845
  0
VERTEX
  8
0
 62
9
  6
CONTINUOUS
 10
108.961215889
 20
94.4657341592
  0
VERTEX
  8
0
 62
9
  6
CONTINUOUS
 10
109.0424129161
 20
94.5782481915
  0
SEQEND
  0
LINE
  8
AXES
 62
9
  6
CONTINUOUS
 10
168.996875
 20
68.252461502
 11
161.0391397097
 21
72.3615381057
  0
POLYLINE
  8
0
 62
9
  6
CONTINUOUS
 66
1
 70
0
  0
VERTEX
  8
0
 62
9
  6
CONTINUOUS
 10
113.6921625263
 20
99.2977875263
  0
VERTEX
  8
0
 62
9
  6
CONTINUOUS
 10
113.6878649586
 20
99.3011764757
  0
VERTEX
  8
0
 62
9
  6
CONTINUOUS
 10
113.6564801845
 20
99.3307834139
  0
VERTEX
  8
0
 62
9
  6
CONTINUOUS
 10
113.5959802031
 20
99.3896220529
  0
SEQEND
  0
LINE
  8
AXES
 62
9
  6
CONTINUOUS
 10
121.4933774787
 20
66.6795524071
 11
120.9193712668
 21
65.6000037332
  0
LINE
  8
0
 62
9
  6
CONTINUOUS
 10
119.2777965508
 20
66.2710151443
 11
119.0601145086
 21
66.0537734645
  0
LINE
  8
2_FEATURE
 62
7
  6
CONTINUOUS
 10
168.246875
 20
102.5735003923
 11
161.1297455502
 21
98.4644237886
  0
POLYLINE
  8
0
 62
9
  6
CONTINUOUS
 66
1
 70
0
  0
VERTEX
  8
0
 62
9
  6
CONTINUOUS
 10
108.1508129025
 20
94.3239652345
  0
VERTEX
  8
0
 62
9
  6
CONTINUOUS
 10
108.3399065551
 20
94.3644098557
  0
VERTEX
  8
0
 62
9
  6
CONTINUOUS
 10
108.5219038308
 20
94.4299146145
  0
VERTEX
  8
0
 62
9
  6
CONTINUOUS
 10
108.6899523723
 20
94.5180166936
  0
VERTEX
  8
0
 62
9
  6
CONTINUOUS
 10
108.8377351507
 20
94.6254042023
  0
VERTEX
  8
0
 62
9
  6
CONTINUOUS
 10
108.9596971076
 20
94.7480404863
  0
VERTEX
  8
0
 62
9
  6
CONTINUOUS
 10
109.051253744
 20
94.8813154262
  0
VERTEX
  8
0
 62
9
  6
CONTINUOUS
 10
109.1089616914
 20
95.0202139293
  0
SEQEND
  0
POLYLINE
  8
2_FEATURE
 62
9
  6
CONTINUOUS
 66
1
 70
0
  0
VERTEX
  8
2_FEATURE
 62
9
  6
CONTINUOUS
 10
98.046875
 20
93.4913176413
  0
VERTEX
  8
2_FEATURE
 62
9
  6
CONTINUOUS
 10
97.3439073202
 20
93.432562166
  0
VERTEX
  8
2_FEATURE
 62
9
  6
CONTINUOUS
 10
95.4356541775
 20
92.9904533238
  0
VERTEX
  8
2_FEATURE
 62
9
  6
CONTINUOUS
 10
93.1239738098
 20
92.1702837352
  0
VERTEX
  8
2_FEATURE
 62
9
  6
CONTINUOUS
 10
90.546875
 20
91.0625
  0
SEQEND
  0
POLYLINE
  8
0
 62
9
  6
CONTINUOUS
 66
1
 70
0
  0
VERTEX
  8
0
 62
9
  6
CONTINUOUS
 10
107.9544331921
 20
95.7669745886
  0
VERTEX
  8
0
 62
9
  6
CONTINUOUS
 10
108.0585505423
 20
95.770363538
  0
VERTEX
  8
0
 62
9
  6
CONTINUOUS
 10
108.2622703666
 20
95.7999704764
  0
VERTEX
  8
0
 62
9
  6
CONTINUOUS
 10
108.4526413422
 20
95.8588091158
  0
VERTEX
  8
0
 62
9
  6
CONTINUOUS
 10
108.6214083476
 20
95.9443280161
  0
VERTEX
  8
0
 62
9
  6
CONTINUOUS
 10
108.6953577793
 20
95.9959748049
  0
VERTEX
  8
0
 62
9
  6
CONTINUOUS
 10
108.8183779477
 20
96.1142420623
  0
VERTEX
  8
0
 62
9
  6
CONTINUOUS
 10
108.9039345845
 20
96.2481131545
  0
VERTEX
  8
0
 62
9
  6
CONTINUOUS
 10
108.9483176681
 20
96.3917829836
  0
VERTEX
  8
0
 62
9
  6
CONTINUOUS
 10
108.9543951152
 20
96.4653548343
  0
SEQEND
  0
LINE
  8
AXES
 62
7
  6
CONTINUOUS
 10
168.246875
 20
69.5514996077
 11
161.1297455502
 21
73.6605762114
  0
LINE
  8
0
 62
9
  6
CONTINUOUS
 10
119.2777965508
 20
105.8539848557
 11
119.0601145086
 21
106.0712265355
  0
LINE
  8
0
 62
9
  6
CONTINUOUS
 10
121.4933774787
 20
105.4454475929
 11
120.9193712668
 21
106.5249962668
  0
POLYLINE
  8
0
 62
9
  6
CONTINUOUS
 66
1
 70
0
  0
VERTEX
  8
0
 62
9
  6
CONTINUOUS
 10
119.7672212898
 20
66.7521537102
  0
VERTEX
  8
0
 62
9
  6
CONTINUOUS
 10
119.7629237221
 20
66.7487647608
  0
VERTEX
  8
0
 62
9
  6
CONTINUOUS
 10
119.7315389477
 20
66.7191578224
  0
VERTEX
  8
0
 62
9
  6
CONTINUOUS
 10
119.671038966
 20
66.660319183
  0
VERTEX
  8
0
 62
9
  6
CONTINUOUS
 10
119.5840472583
 20
66.5748002827
  0
VERTEX
  8
0
 62
9
  6
CONTINUOUS
 10
119.2777965508
 20
66.2710151443
  0
SEQEND
  0
LINE
  8
0
 62
9
  6
CONTINUOUS
 10
98.046875
 20
95.6656602334
 11
90.546875
 21
94.7447760266
  0
LINE
  8
0
 62
7
  6
CONTINUOUS
 10
98.046875
 20
97.1769249716
 11
77.6640808392
 21
94.6742325406
  0
LINE
  8
0
 62
9
  6
CONTINUOUS
 10
90.546875
 20
94.7447760266
 11
76.3468750001
 21
93.1854133244
  0
LINE
  8
2_FEATURE
 62
7
  6
CONTINUOUS
 10
121.9701950071
 20
98.0625
 11
159.6297455502
 21
98.0625
  0
LINE
  8
2_FEATURE
 62
9
  6
CONTINUOUS
 10
121.9701950071
 20
99.5625
 11
160.2005570325
 21
99.5625
  0
POLYLINE
  8
0
 62
9
  6
CONTINUOUS
 66
1
 70
0
  0
VERTEX
  8
0
 62
9
  6
CONTINUOUS
 10
119.7672212898
 20
105.3728462898
  0
VERTEX
  8
0
 62
9
  6
CONTINUOUS
 10
119.7629237221
 20
105.3762352392
  0
VERTEX
  8
0
 62
9
  6
CONTINUOUS
 10
119.7315389477
 20
105.4058421776
  0
VERTEX
  8
0
 62
9
  6
CONTINUOUS
 10
119.671038966
 20
105.464680817
  0
SEQEND
  0
LINE
  8
0
 62
9
  6
CONTINUOUS
 10
119.671038966
 20
105.464680817
 11
119.5317551226
 21
105.6018465061
  0
LINE
  8
0
 62
9
  6
CONTINUOUS
 10
119.5317551226
 20
105.6018465061
 11
119.2777965508
 21
105.8539848557
  0
LINE
  8
0
 62
9
  6
CONTINUOUS
 10
111.2434289842
 20
57.7696067812
 11
123.4356930747
 21
64.7696067812
  0
LINE
  8
0
 62
9
  6
CONTINUOUS
 10
111.2434289842
 20
114.3553932188
 11
123.4356930747
 21
107.3553932188
  0
POLYLINE
  8
2_FEATURE
 62
9
  6
CONTINUOUS
 66
1
 70
0
  0
VERTEX
  8
2_FEATURE
 62
9
  6
CONTINUOUS
 10
161.1297455217
 20
98.4644238381
  0
VERTEX
  8
2_FEATURE
 62
9
  6
CONTINUOUS
 10
161.2377444163
 20
98.5894527596
  0
VERTEX
  8
2_FEATURE
 62
9
  6
CONTINUOUS
 10
161.2836484872
 20
98.7994467031
  0
VERTEX
  8
2_FEATURE
 62
9
  6
CONTINUOUS
 10
161.2641355798
 20
99.0792080542
  0
VERTEX
  8
2_FEATURE
 62
9
  6
CONTINUOUS
 10
161.1806178758
 20
99.4084900141
  0
VERTEX
  8
2_FEATURE
 62
9
  6
CONTINUOUS
 10
161.0391396918
 20
99.7634618943
  0
SEQEND
  0
LINE
  8
0
 62
9
  6
CONTINUOUS
 10
111.7413359457
 20
57.0625
 11
123.9336000363
 21
64.0625
  0
POLYLINE
  8
0
 62
9
  6
CONTINUOUS
 66
1
 70
0
  0
VERTEX
  8
0
 62
9
  6
CONTINUOUS
 10
121.8710883058
 20
107.0625
  0
VERTEX
  8
0
 62
9
  6
CONTINUOUS
 10
121.3020170725
 20
107.0211653786
  0
VERTEX
  8
0
 62
9
  6
CONTINUOUS
 10
120.8171562234
 20
106.9123868542
  0
VERTEX
  8
0
 62
9
  6
CONTINUOUS
 10
120.456875
 20
106.7696067812
  0
SEQEND
  0
POLYLINE
  8
0
 62
9
  6
CONTINUOUS
 66
1
 70
0
  0
VERTEX
  8
0
 62
9
  6
CONTINUOUS
 10
108.0382623645
 20
105.3728462898
  0
VERTEX
  8
0
 62
9
  6
CONTINUOUS
 10
108.1423796867
 20
105.3762352372
  0
VERTEX
  8
0
 62
9
  6
CONTINUOUS
 10
108.34609947
 20
105.4058421621
  0
VERTEX
  8
0
 62
9
  6
CONTINUOUS
 10
108.5364704281
 20
105.4646807822
  0
VERTEX
  8
0
 62
9
  6
CONTINUOUS
 10
108.7052374381
 20
105.5501996658
  0
VERTEX
  8
0
 62
9
  6
CONTINUOUS
 10
108.7791868786
 20
105.6018464495
  0
VERTEX
  8
0
 62
9
  6
CONTINUOUS
 10
108.9022070725
 20
105.720113706
  0
VERTEX
  8
0
 62
9
  6
CONTINUOUS
 10
108.9877637363
 20
105.8539848118
  0
VERTEX
  8
0
 62
9
  6
CONTINUOUS
 10
109.0321468377
 20
105.9976546677
  0
VERTEX
  8
0
 62
9
  6
CONTINUOUS
 10
109.0382242875
 20
106.0712265355
  0
SEQEND
  0
POLYLINE
  8
0
 62
9
  6
CONTINUOUS
 66
1
 70
0
  0
VERTEX
  8
0
 62
9
  6
CONTINUOUS
 10
109.3997046729
 20
106.0740627161
  0
VERTEX
  8
0
 62
9
  6
CONTINUOUS
 10
109.2002643371
 20
106.073331347
  0
VERTEX
  8
0
 62
9
  6
CONTINUOUS
 10
109.0789472216
 20
106.0723795003
  0
VERTEX
  8
0
 62
9
  6
CONTINUOUS
 10
109.0382242875
 20
106.0712265355
  0
SEQEND
  0
LINE
  8
0
 62
9
  6
CONTINUOUS
 10
110.0152055731
 20
106.0748092759
 11
109.3997046729
 21
106.0740627161
  0
LINE
  8
0
 62
9
  6
CONTINUOUS
 10
168.996875
 20
105.5625
 11
121.9628490414
 21
105.5625
  0
LINE
  8
0
 62
9
  6
CONTINUOUS
 10
119.0601145086
 20
106.0712265355
 11
113.0380719798
 21
106.0712265355
  0
LINE
  8
0
 62
7
  6
CONTINUOUS
 10
78.296877444
 20
107.0625
 11
98.046875
 21
107.0625
  0
LINE
  8
0
 62
7
  6
CONTINUOUS
 10
110.0381862106
 20
107.0625
 11
167.7968728227
 21
107.0625
  0
LINE
  8
0
 62
9
  6
CONTINUOUS
 10
110.0381862106
 20
107.3553932188
 11
123.4356930747
 21
107.3553932188
  0
LINE
  8
0
 62
9
  6
CONTINUOUS
 10
77.296875
 20
108.0625
 11
98.0468655636
 21
108.0625
  0
LINE
  8
0
 62
9
  6
CONTINUOUS
 10
123.9336000363
 20
108.0625
 11
168.796875
 21
108.0625
  0
LINE
  8
0
 62
9
  6
CONTINUOUS
 10
110.8755907432
 20
106.0745587237
 11
110.0152055731
 21
106.0748092759
  0
LINE
  8
0
 62
9
  6
CONTINUOUS
 10
111.9111725262
 20
106.0733313477
 11
110.8755907432
 21
106.0745587237
  0
LINE
  8
0
 62
9
  6
CONTINUOUS
 10
113.0380719798
 20
106.0712265355
 11
111.9111725262
 21
106.0733313477
  0
LINE
  8
0
 62
9
  6
CONTINUOUS
 10
111.7413359457
 20
115.0625
 11
123.9336000363
 21
108.0625
  0
POLYLINE
  8
AXES
 62
9
  6
CONTINUOUS
 66
1
 70
0
  0
VERTEX
  8
AXES
 62
9
  6
CONTINUOUS
 10
161.1297455217
 20
73.6605761619
  0
VERTEX
  8
AXES
 62
9
  6
CONTINUOUS
 10
161.2377444163
 20
73.5355472404
  0
VERTEX
  8
AXES
 62
9
  6
CONTINUOUS
 10
161.2836484872
 20
73.3255532969
  0
VERTEX
  8
AXES
 62
9
  6
CONTINUOUS
 10
161.2641355798
 20
73.0457919458
  0
VERTEX
  8
AXES
 62
9
  6
CONTINUOUS
 10
161.1806178758
 20
72.7165099859
  0
VERTEX
  8
AXES
 62
9
  6
CONTINUOUS
 10
161.0391396918
 20
72.3615381057
  0
SEQEND
  0
LINE
  8
0
 62
7
  6
CONTINUOUS
 10
149.296875
 20
55.5625
 11
149.296875
 21
56.0625
  0
LINE
  8
0
 62
7
  6
CONTINUOUS
 10
149.296875
 20
74.0625
 11
149.296875
 21
98.0625
  0
LINE
  8
0
 62
7
  6
CONTINUOUS
 10
149.296875
 20
116.0625
 11
149.296875
 21
116.5625
  0
LINE
  8
0
 62
9
  6
CONTINUOUS
 10
99.046875
 20
114.3553932188
 11
111.2434289842
 21
114.3553932188
  0
LINE
  8
0
 62
9
  6
CONTINUOUS
 10
77.296875
 20
115.0625
 11
98.046875
 21
115.0625
  0
LINE
  8
0
 62
9
  6
CONTINUOUS
 10
111.7413359457
 20
115.0625
 11
168.796875
 21
115.0625
  0
LINE
  8
0
 62
7
  6
CONTINUOUS
 10
78.2968774441
 20
116.0625
 11
167.7968728228
 21
116.0625
  0
POLYLINE
  8
0
 62
9
  6
CONTINUOUS
 66
1
 70
0
  0
VERTEX
  8
0
 62
9
  6
CONTINUOUS
 10
99.046875
 20
114.3553932188
  0
VERTEX
  8
0
 62
9
  6
CONTINUOUS
 10
98.851784678
 20
114.3689800773
  0
VERTEX
  8
0
 62
9
  6
CONTINUOUS
 10
98.6641915676
 20
114.4092185176
  0
VERTEX
  8
0
 62
9
  6
CONTINUOUS
 10
98.491304767
 20
114.4745621988
  0
VERTEX
  8
0
 62
9
  6
CONTINUOUS
 10
98.3397682188
 20
114.5625
  0
VERTEX
  8
0
 62
9
  6
CONTINUOUS
 10
98.2154053877
 20
114.6696525208
  0
VERTEX
  8
0
 62
9
  6
CONTINUOUS
 10
98.1229954675
 20
114.7919019499
  0
VERTEX
  8
0
 62
9
  6
CONTINUOUS
 10
98.0660897196
 20
114.9245503104
  0
VERTEX
  8
0
 62
9
  6
CONTINUOUS
 10
98.046875
 20
115.0625
  0
SEQEND
  0
POLYLINE
  8
0
 62
9
  6
CONTINUOUS
 66
1
 70
0
  0
VERTEX
  8
0
 62
9
  6
CONTINUOUS
 10
111.2434289842
 20
116.0625
  0
VERTEX
  8
0
 62
9
  6
CONTINUOUS
 10
111.3165048163
 20
116.0516712339
  0
VERTEX
  8
0
 62
9
  6
CONTINUOUS
 10
111.3754181595
 20
116.0267242149
  0
VERTEX
  8
0
 62
9
  6
CONTINUOUS
 10
111.4284514425
 20
115.990892748
  0
VERTEX
  8
0
 62
9
  6
CONTINUOUS
 10
111.4791209993
 20
115.9433660695
  0
VERTEX
  8
0
 62
9
  6
CONTINUOUS
 10
111.5268785584
 20
115.8846421824
  0
VERTEX
  8
0
 62
9
  6
CONTINUOUS
 10
111.5709155163
 20
115.8157569539
  0
VERTEX
  8
0
 62
9
  6
CONTINUOUS
 10
111.6131427321
 20
115.7323063705
  0
VERTEX
  8
0
 62
9
  6
CONTINUOUS
 10
111.656849094
 20
115.6197928877
  0
VERTEX
  8
0
 62
9
  6
CONTINUOUS
 10
111.7006389324
 20
115.4584691375
  0
VERTEX
  8
0
 62
9
  6
CONTINUOUS
 10
111.7310527925
 20
115.2646855192
  0
VERTEX
  8
0
 62
9
  6
CONTINUOUS
 10
111.7413359457
 20
115.0625
  0
SEQEND
  0
LINE
  8
AXES
 62
9
  6
CONTINUOUS
 10
154.796875
 20
74.0625
 11
154.796875
 21
65.0625
  0
LINE
  8
2_FEATURE
 62
9
  6
CONTINUOUS
 10
154.796875
 20
98.0625
 11
154.796875
 21
99.5625
  0
LINE
  8
DEFAULT_1
 62
2
  6
CENTER
 10
154.796875
 20
53.5624988155
 11
154.796875
 21
118.5625011845
  0
LINE
  8
0
 62
7
  6
CONTINUOUS
 10
149.296875
 20
116.5625
 11
160.296875
 21
116.5625
  0
LINE
  8
0
 62
7
  6
CONTINUOUS
 10
149.546875
 20
116.8125
 11
160.046875
 21
116.8125
  0
POLYLINE
  8
0
 62
9
  6
CONTINUOUS
 66
1
 70
0
  0
VERTEX
  8
0
 62
9
  6
CONTINUOUS
 10
161.2696654996
 20
116.0625
  0
VERTEX
  8
0
 62
9
  6
CONTINUOUS
 10
161.3217109486
 20
116.0570218955
  0
VERTEX
  8
0
 62
9
  6
CONTINUOUS
 10
161.4235272112
 20
116.0135565171
  0
VERTEX
  8
0
 62
9
  6
CONTINUOUS
 10
161.518618979
 20
115.9285254054
  0
VERTEX
  8
0
 62
9
  6
CONTINUOUS
 10
161.6028302854
 20
115.8056448278
  0
VERTEX
  8
0
 62
9
  6
CONTINUOUS
 10
161.6396824805
 20
115.7316306088
  0
VERTEX
  8
0
 62
9
  6
CONTINUOUS
 10
161.7008655763
 20
115.5625000024
  0
VERTEX
  8
0
 62
9
  6
CONTINUOUS
 10
161.7432031596
 20
115.3715169961
  0
VERTEX
  8
0
 62
9
  6
CONTINUOUS
 10
161.7648448747
 20
115.1670284639
  0
VERTEX
  8
0
 62
9
  6
CONTINUOUS
 10
161.7675724611
 20
115.0625
  0
SEQEND
  0
POLYLINE
  8
0
 62
9
  6
CONTINUOUS
 66
1
 70
0
  0
VERTEX
  8
0
 62
9
  6
CONTINUOUS
 10
161.7675724611
 20
64.0625
  0
VERTEX
  8
0
 62
9
  6
CONTINUOUS
 10
161.7648448747
 20
64.1670284639
  0
VERTEX
  8
0
 62
9
  6
CONTINUOUS
 10
161.7432031596
 20
64.3715169962
  0
VERTEX
  8
0
 62
9
  6
CONTINUOUS
 10
161.7008655763
 20
64.5625000025
  0
VERTEX
  8
0
 62
9
  6
CONTINUOUS
 10
161.6396824804
 20
64.731630609
  0
VERTEX
  8
0
 62
9
  6
CONTINUOUS
 10
161.6028302853
 20
64.8056448279
  0
VERTEX
  8
0
 62
9
  6
CONTINUOUS
 10
161.5186189789
 20
64.9285254055
  0
VERTEX
  8
0
 62
9
  6
CONTINUOUS
 10
161.4235272111
 20
65.0135565171
  0
VERTEX
  8
0
 62
9
  6
CONTINUOUS
 10
161.3217109486
 20
65.0570218955
  0
VERTEX
  8
0
 62
9
  6
CONTINUOUS
 10
161.2696654996
 20
65.0625
  0
SEQEND
  0
LINE
  8
0
 62
7
  6
CONTINUOUS
 10
160.296875
 20
55.5625
 11
160.296875
 21
56.0625
  0
LINE
  8
0
 62
7
  6
CONTINUOUS
 10
160.296875
 20
73.9852944811
 11
160.296875
 21
98.1397055189
  0
LINE
  8
0
 62
7
  6
CONTINUOUS
 10
160.296875
 20
116.0625
 11
160.296875
 21
116.5625
  0
LINE
  8
0
 62
9
  6
CONTINUOUS
 10
161.7675724611
 20
64.0625
 11
161.7675724611
 21
57.0625
  0
LINE
  8
0
 62
9
  6
CONTINUOUS
 10
161.7675724611
 20
108.0625
 11
161.7675724611
 21
115.0625
  0
POLYLINE
  8
0
 62
9
  6
CONTINUOUS
 66
1
 70
0
  0
VERTEX
  8
0
 62
9
  6
CONTINUOUS
 10
161.7675724611
 20
108.0625
  0
VERTEX
  8
0
 62
9
  6
CONTINUOUS
 10
161.7648448747
 20
107.9579715361
  0
VERTEX
  8
0
 62
9
  6
CONTINUOUS
 10
161.7432031596
 20
107.7534830038
  0
VERTEX
  8
0
 62
9
  6
CONTINUOUS
 10
161.7008655763
 20
107.5624999975
  0
VERTEX
  8
0
 62
9
  6
CONTINUOUS
 10
161.6396824804
 20
107.393369391
  0
VERTEX
  8
0
 62
9
  6
CONTINUOUS
 10
161.6028302853
 20
107.3193551721
  0
VERTEX
  8
0
 62
9
  6
CONTINUOUS
 10
161.5186189789
 20
107.1964745945
  0
VERTEX
  8
0
 62
9
  6
CONTINUOUS
 10
161.4235272111
 20
107.1114434829
  0
VERTEX
  8
0
 62
9
  6
CONTINUOUS
 10
161.3217109486
 20
107.0679781045
  0
VERTEX
  8
0
 62
9
  6
CONTINUOUS
 10
161.2696654996
 20
107.0625
  0
SEQEND
  0
LINE
  8
0
 62
7
  6
CONTINUOUS
 10
168.796875
 20
57.0625
 11
168.796875
 21
64.0625
  0
LINE
  8
0
 62
7
  6
CONTINUOUS
 10
168.796875
 20
108.0625
 11
168.796875
 21
115.0625
  0
LINE
  8
AXES
 62
7
  6
CONTINUOUS
 10
168.996875
 20
66.5625
 11
168.996875
 21
68.252461502
  0
LINE
  8
2_FEATURE
 62
7
  6
CONTINUOUS
 10
168.996875
 20
103.872538498
 11
168.996875
 21
105.5625
  0
LINE
  8
0
 62
7
  6
CONTINUOUS
 10
160.0468750844
 20
55.3124999156
 11
160.2968750884
 21
55.5624999116
  0
LINE
  8
0
 62
7
  6
CONTINUOUS
 10
160.0468750844
 20
116.8125000844
 11
160.2968750884
 21
116.5625000884
  0
LINE
  8
0
 62
9
  6
CONTINUOUS
 10
252.1602317812
 20
235.7114010414
 11
251.453125
 21
235.0042942602
  0
LINE
  8
0
 62
7
  6
CONTINUOUS
 10
249.703125
 20
189.7585076539
 11
249.9531248232
 21
189.5085078226
  0
LINE
  8
0
 62
7
  6
CONTINUOUS
 10
249.703125
 20
189.7585247129
 11
249.703125
 21
200.2584909323
  0
LINE
  8
0
 62
7
  6
CONTINUOUS
 10
249.9531250021
 20
189.5085078226
 11
249.9531250021
 21
200.5085078226
  0
LINE
  8
0
 62
7
  6
CONTINUOUS
 10
250.453125
 20
182.0085078226
 11
250.453125
 21
235.0042942602
  0
POLYLINE
  8
AXES
 62
9
  6
CONTINUOUS
 66
1
 70
0
  0
VERTEX
  8
AXES
 62
9
  6
CONTINUOUS
 10
299.8360725929
 20
180.8085078226
  0
VERTEX
  8
AXES
 62
9
  6
CONTINUOUS
 10
300.1788580457
 20
180.859619075
  0
VERTEX
  8
AXES
 62
9
  6
CONTINUOUS
 10
300.498283251
 20
181.0094696926
  0
VERTEX
  8
AXES
 62
9
  6
CONTINUOUS
 10
300.7725799065
 20
181.247847614
  0
VERTEX
  8
AXES
 62
9
  6
CONTINUOUS
 10
300.9830551427
 20
181.5585077849
  0
VERTEX
  8
AXES
 62
9
  6
CONTINUOUS
 10
301.1153654123
 20
181.9202792307
  0
VERTEX
  8
AXES
 62
9
  6
CONTINUOUS
 10
301.1604939821
 20
182.3085078226
  0
SEQEND
  0
POLYLINE
  8
0
 62
9
  6
CONTINUOUS
 66
1
 70
0
  0
VERTEX
  8
0
 62
9
  6
CONTINUOUS
 10
261.0701774071
 20
180.8085078226
  0
VERTEX
  8
0
 62
9
  6
CONTINUOUS
 10
260.7273919543
 20
180.859619075
  0
VERTEX
  8
0
 62
9
  6
CONTINUOUS
 10
260.407966749
 20
181.0094696926
  0
VERTEX
  8
0
 62
9
  6
CONTINUOUS
 10
260.1336700935
 20
181.247847614
  0
VERTEX
  8
0
 62
9
  6
CONTINUOUS
 10
259.9231948573
 20
181.5585077849
  0
VERTEX
  8
0
 62
9
  6
CONTINUOUS
 10
259.7908845877
 20
181.9202792307
  0
VERTEX
  8
0
 62
9
  6
CONTINUOUS
 10
259.7457560179
 20
182.3085078226
  0
SEQEND
  0
LINE
  8
0
 62
9
  6
CONTINUOUS
 10
251.453125
 20
181.0085078226
 11
251.453125
 21
235.0042942602
  0
LINE
  8
0
 62
9
  6
CONTINUOUS
 10
250.4967705824
 20
208.5929261031
 11
250.453125
 21
208.0085081069
  0
POLYLINE
  8
AXES
 62
9
  6
CONTINUOUS
 66
1
 70
0
  0
VERTEX
  8
AXES
 62
9
  6
CONTINUOUS
 10
291.2111163462
 20
180.8085078226
  0
VERTEX
  8
AXES
 62
9
  6
CONTINUOUS
 10
291.5539018255
 20
180.8596190831
  0
VERTEX
  8
AXES
 62
9
  6
CONTINUOUS
 10
291.8733270409
 20
181.0094697169
  0
VERTEX
  8
AXES
 62
9
  6
CONTINUOUS
 10
292.1476236917
 20
181.2478476508
  0
VERTEX
  8
AXES
 62
9
  6
CONTINUOUS
 10
292.3580989147
 20
181.5585078226
  0
VERTEX
  8
AXES
 62
9
  6
CONTINUOUS
 10
292.490409171
 20
181.9202792549
  0
VERTEX
  8
AXES
 62
9
  6
CONTINUOUS
 10
292.5355377355
 20
182.3085078226
  0
SEQEND
  0
POLYLINE
  8
AXES
 62
9
  6
CONTINUOUS
 66
1
 70
0
  0
VERTEX
  8
AXES
 62
9
  6
CONTINUOUS
 10
290.7727221111
 20
180.8085078226
  0
VERTEX
  8
AXES
 62
9
  6
CONTINUOUS
 10
291.1580569738
 20
180.859619108
  0
VERTEX
  8
AXES
 62
9
  6
CONTINUOUS
 10
291.51713185
 20
181.0094697897
  0
VERTEX
  8
AXES
 62
9
  6
CONTINUOUS
 10
291.8254763901
 20
181.2478477589
  0
VERTEX
  8
AXES
 62
9
  6
CONTINUOUS
 10
292.0620774456
 20
181.5585079305
  0
VERTEX
  8
AXES
 62
9
  6
CONTINUOUS
 10
292.2108110716
 20
181.9202793226
  0
VERTEX
  8
AXES
 62
9
  6
CONTINUOUS
 10
292.2615413385
 20
182.3085078226
  0
SEQEND
  0
POLYLINE
  8
AXES
 62
9
  6
CONTINUOUS
 66
1
 70
0
  0
VERTEX
  8
AXES
 62
9
  6
CONTINUOUS
 10
289.1354010266
 20
180.8085078226
  0
VERTEX
  8
AXES
 62
9
  6
CONTINUOUS
 10
289.5207357974
 20
180.8596190831
  0
VERTEX
  8
AXES
 62
9
  6
CONTINUOUS
 10
289.8798106404
 20
181.0094697169
  0
VERTEX
  8
AXES
 62
9
  6
CONTINUOUS
 10
290.1881551983
 20
181.2478476508
  0
VERTEX
  8
AXES
 62
9
  6
CONTINUOUS
 10
290.4247562993
 20
181.5585078226
  0
VERTEX
  8
AXES
 62
9
  6
CONTINUOUS
 10
290.5734899691
 20
181.9202792549
  0
VERTEX
  8
AXES
 62
9
  6
CONTINUOUS
 10
290.6242202541
 20
182.3085078226
  0
SEQEND
  0
LINE
  8
0
 62
7
  6
CONTINUOUS
 10
260.953125
 20
180.8085078226
 11
285.453125
 21
180.8085078226
  0
LINE
  8
AXES
 62
7
  6
CONTINUOUS
 10
285.453125
 20
180.8085078226
 11
299.953125
 21
180.8085078226
  0
LINE
  8
0
 62
7
  6
CONTINUOUS
 10
258.453125
 20
181.0085078226
 11
251.453125
 21
181.0085078226
  0
LINE
  8
0
 62
7
  6
CONTINUOUS
 10
302.453125
 20
181.0085078226
 11
309.453125
 21
181.0085078226
  0
POLYLINE
  8
0
 62
9
  6
CONTINUOUS
 66
1
 70
0
  0
VERTEX
  8
0
 62
9
  6
CONTINUOUS
 10
270.1335278889
 20
180.8085078226
  0
VERTEX
  8
0
 62
9
  6
CONTINUOUS
 10
269.7481930262
 20
180.859619108
  0
VERTEX
  8
0
 62
9
  6
CONTINUOUS
 10
269.38911815
 20
181.0094697897
  0
VERTEX
  8
0
 62
9
  6
CONTINUOUS
 10
269.0807736099
 20
181.2478477589
  0
VERTEX
  8
0
 62
9
  6
CONTINUOUS
 10
268.8441725544
 20
181.5585079305
  0
VERTEX
  8
0
 62
9
  6
CONTINUOUS
 10
268.6954389284
 20
181.9202793226
  0
VERTEX
  8
0
 62
9
  6
CONTINUOUS
 10
268.6447086615
 20
182.3085078226
  0
SEQEND
  0
POLYLINE
  8
0
 62
9
  6
CONTINUOUS
 66
1
 70
0
  0
VERTEX
  8
0
 62
9
  6
CONTINUOUS
 10
271.7708489734
 20
180.8085078226
  0
VERTEX
  8
0
 62
9
  6
CONTINUOUS
 10
271.3855142026
 20
180.8596190831
  0
VERTEX
  8
0
 62
9
  6
CONTINUOUS
 10
271.0264393596
 20
181.0094697169
  0
VERTEX
  8
0
 62
9
  6
CONTINUOUS
 10
270.7180948017
 20
181.2478476508
  0
VERTEX
  8
0
 62
9
  6
CONTINUOUS
 10
270.4814937007
 20
181.5585078226
  0
VERTEX
  8
0
 62
9
  6
CONTINUOUS
 10
270.3327600309
 20
181.9202792549
  0
VERTEX
  8
0
 62
9
  6
CONTINUOUS
 10
270.2820297459
 20
182.3085078226
  0
SEQEND
  0
POLYLINE
  8
0
 62
9
  6
CONTINUOUS
 66
1
 70
0
  0
VERTEX
  8
0
 62
9
  6
CONTINUOUS
 10
269.6951336538
 20
180.8085078226
  0
VERTEX
  8
0
 62
9
  6
CONTINUOUS
 10
269.3523481745
 20
180.8596190831
  0
VERTEX
  8
0
 62
9
  6
CONTINUOUS
 10
269.0329229591
 20
181.0094697169
  0
VERTEX
  8
0
 62
9
  6
CONTINUOUS
 10
268.7586263083
 20
181.2478476508
  0
VERTEX
  8
0
 62
9
  6
CONTINUOUS
 10
268.5481510853
 20
181.5585078226
  0
VERTEX
  8
0
 62
9
  6
CONTINUOUS
 10
268.415840829
 20
181.9202792549
  0
VERTEX
  8
0
 62
9
  6
CONTINUOUS
 10
268.3707122645
 20
182.3085078226
  0
SEQEND
  0
LINE
  8
0
 62
9
  6
CONTINUOUS
 10
270.2820297459
 20
182.3085078226
 11
259.453125
 21
182.3085078226
  0
LINE
  8
AXES
 62
9
  6
CONTINUOUS
 10
290.6242202541
 20
182.3085078226
 11
301.453125
 21
182.3085078226
  0
LINE
  8
0
 62
9
  6
CONTINUOUS
 10
258.453125
 20
181.0085078226
 11
258.453125
 21
210.0041635516
  0
LINE
  8
AXES
 62
7
  6
CONTINUOUS
 10
291.9531144542
 20
185.0085078226
 11
290.0869874014
 21
185.0085078226
  0
LINE
  8
2_FEATURE
 62
7
  6
CONTINUOUS
 10
268.9531355458
 20
185.0085078226
 11
270.8192625986
 21
185.0085078226
  0
LINE
  8
0
 62
7
  6
CONTINUOUS
 10
259.453125
 20
182.0085078226
 11
259.453125
 21
209.0402630528
  0
LINE
  8
0
 62
9
  6
CONTINUOUS
 10
259.7457560179
 20
207.7085078226
 11
259.7457560179
 21
182.3085078226
  0
LINE
  8
AXES
 62
7
  6
CONTINUOUS
 10
291.9531185509
 20
189.0085078226
 11
291.471299661
 21
189.0085078226
  0
LINE
  8
2_FEATURE
 62
7
  6
CONTINUOUS
 10
268.9531314491
 20
189.0085078226
 11
269.434950339
 21
189.0085078226
  0
LINE
  8
0
 62
7
  6
CONTINUOUS
 10
310.9531251768
 20
189.5085078226
 11
310.453125
 21
189.5085078226
  0
LINE
  8
0
 62
7
  6
CONTINUOUS
 10
250.453125
 20
189.5085078226
 11
249.9531248232
 21
189.5085078226
  0
LINE
  8
0
 62
7
  6
CONTINUOUS
 10
249.703125
 20
200.2585079913
 11
249.9531248232
 21
200.5085078226
  0
POLYLINE
  8
2_FEATURE
 62
7
  6
CONTINUOUS
 66
1
 70
0
  0
VERTEX
  8
2_FEATURE
 62
7
  6
CONTINUOUS
 10
269.7581145057
 20
189.3183912783
  0
VERTEX
  8
2_FEATURE
 62
7
  6
CONTINUOUS
 10
269.6792536213
 20
189.7454356775
  0
VERTEX
  8
2_FEATURE
 62
7
  6
CONTINUOUS
 10
269.5723083323
 20
190.5837049738
  0
VERTEX
  8
2_FEATURE
 62
7
  6
CONTINUOUS
 10
269.4855610318
 20
191.5621920223
  0
VERTEX
  8
2_FEATURE
 62
7
  6
CONTINUOUS
 10
269.421670877
 20
192.6492118197
  0
VERTEX
  8
2_FEATURE
 62
7
  6
CONTINUOUS
 10
269.3825619011
 20
193.8101517038
  0
VERTEX
  8
2_FEATURE
 62
7
  6
CONTINUOUS
 10
269.3693961686
 20
195.0085114836
  0
VERTEX
  8
2_FEATURE
 62
7
  6
CONTINUOUS
 10
269.3825620531
 20
196.2068708053
  0
VERTEX
  8
2_FEATURE
 62
7
  6
CONTINUOUS
 10
269.4216711333
 20
197.3678094204
  0
VERTEX
  8
2_FEATURE
 62
7
  6
CONTINUOUS
 10
269.4855613125
 20
198.454827472
  0
VERTEX
  8
2_FEATURE
 62
7
  6
CONTINUOUS
 10
269.5723085428
 20
199.4333126468
  0
VERTEX
  8
2_FEATURE
 62
7
  6
CONTINUOUS
 10
269.6792537
 20
200.271580482
  0
VERTEX
  8
2_FEATURE
 62
7
  6
CONTINUOUS
 10
269.7581329422
 20
200.6987242358
  0
SEQEND
  0
LINE
  8
0
 62
9
  6
CONTINUOUS
 10
268.3707122645
 20
182.3085078226
 11
268.3707122645
 21
207.7085078226
  0
LINE
  8
0
 62
9
  6
CONTINUOUS
 10
268.6447086615
 20
182.3085078226
 11
268.6447086615
 21
207.7085078226
  0
LINE
  8
2_FEATURE
 62
7
  6
CONTINUOUS
 10
268.953125
 20
185.0085078226
 11
268.953125
 21
189.0085078226
  0
LINE
  8
2_FEATURE
 62
7
  6
CONTINUOUS
 10
268.953125
 20
201.0085078226
 11
268.953125
 21
205.0085078226
  0
LINE
  8
DEFAULT_1
 62
2
  6
CENTER
 10
247.9531238155
 20
195.0085078226
 11
312.9531261845
 21
195.0085078226
  0
POLYLINE
  8
0
 62
7
  6
CONTINUOUS
 66
1
 70
0
  0
VERTEX
  8
0
 62
7
  6
CONTINUOUS
 10
258.453125
 20
210.0041634696
  0
VERTEX
  8
0
 62
7
  6
CONTINUOUS
 10
258.6251740771
 20
209.8826013821
  0
VERTEX
  8
0
 62
7
  6
CONTINUOUS
 10
258.9042579535
 20
209.6741638351
  0
VERTEX
  8
0
 62
7
  6
CONTINUOUS
 10
259.1050986225
 20
209.5041797997
  0
VERTEX
  8
0
 62
7
  6
CONTINUOUS
 10
259.245320652
 20
209.3659442694
  0
VERTEX
  8
0
 62
7
  6
CONTINUOUS
 10
259.2980739141
 20
209.3068185249
  0
VERTEX
  8
0
 62
7
  6
CONTINUOUS
 10
259.3768955283
 20
209.2052730887
  0
VERTEX
  8
0
 62
7
  6
CONTINUOUS
 10
259.4260260195
 20
209.1245253926
  0
VERTEX
  8
0
 62
7
  6
CONTINUOUS
 10
259.4501980999
 20
209.0627716779
  0
VERTEX
  8
0
 62
7
  6
CONTINUOUS
 10
259.453125
 20
209.040263044
  0
SEQEND
  0
POLYLINE
  8
2_FEATURE
 62
7
  6
CONTINUOUS
 66
1
 70
0
  0
VERTEX
  8
2_FEATURE
 62
7
  6
CONTINUOUS
 10
269.5487465433
 20
200.9419755645
  0
VERTEX
  8
2_FEATURE
 62
7
  6
CONTINUOUS
 10
269.9842989811
 20
200.4359794264
  0
VERTEX
  8
2_FEATURE
 62
7
  6
CONTINUOUS
 10
270.8192625986
 20
199.478067787
  0
SEQEND
  0
POLYLINE
  8
2_FEATURE
 62
7
  6
CONTINUOUS
 66
1
 70
0
  0
VERTEX
  8
2_FEATURE
 62
7
  6
CONTINUOUS
 10
270.8192625986
 20
199.478067787
  0
VERTEX
  8
2_FEATURE
 62
7
  6
CONTINUOUS
 10
270.9034180868
 20
198.5544196835
  0
VERTEX
  8
2_FEATURE
 62
7
  6
CONTINUOUS
 10
270.9670221186
 20
197.5293459795
  0
VERTEX
  8
2_FEATURE
 62
7
  6
CONTINUOUS
 10
271.0083342062
 20
196.4325343355
  0
VERTEX
  8
2_FEATURE
 62
7
  6
CONTINUOUS
 10
271.0262391101
 20
195.2953418855
  0
VERTEX
  8
2_FEATURE
 62
7
  6
CONTINUOUS
 10
271.0262390851
 20
194.7216689758
  0
VERTEX
  8
2_FEATURE
 62
7
  6
CONTINUOUS
 10
271.0083340944
 20
193.5844770917
  0
VERTEX
  8
2_FEATURE
 62
7
  6
CONTINUOUS
 10
270.9670219688
 20
192.4876666359
  0
VERTEX
  8
2_FEATURE
 62
7
  6
CONTINUOUS
 10
270.9034179711
 20
191.4625944349
  0
VERTEX
  8
2_FEATURE
 62
7
  6
CONTINUOUS
 10
270.8192625986
 20
190.5389478582
  0
SEQEND
  0
LINE
  8
2_FEATURE
 62
7
  6
CONTINUOUS
 10
270.8192625986
 20
185.0085078226
 11
270.8192625986
 21
190.5389478582
  0
LINE
  8
2_FEATURE
 62
7
  6
CONTINUOUS
 10
270.8192625986
 20
199.478067787
 11
270.8192625986
 21
205.0085078226
  0
POLYLINE
  8
0
 62
9
  6
CONTINUOUS
 66
1
 70
0
  0
VERTEX
  8
0
 62
9
  6
CONTINUOUS
 10
260.4281550091
 20
209.0170167806
  0
VERTEX
  8
0
 62
9
  6
CONTINUOUS
 10
260.4079667125
 20
209.0075459283
  0
VERTEX
  8
0
 62
9
  6
CONTINUOUS
 10
260.1336700616
 20
208.7691679944
  0
VERTEX
  8
0
 62
9
  6
CONTINUOUS
 10
259.9231948387
 20
208.4585078226
  0
VERTEX
  8
0
 62
9
  6
CONTINUOUS
 10
259.7908845823
 20
208.0967363902
  0
VERTEX
  8
0
 62
9
  6
CONTINUOUS
 10
259.7457560179
 20
207.7085078226
  0
SEQEND
  0
LINE
  8
0
 62
7
  6
CONTINUOUS
 10
310.9531251768
 20
200.5085078226
 11
310.453125
 21
200.5085078226
  0
LINE
  8
0
 62
7
  6
CONTINUOUS
 10
250.453125
 20
200.5085078226
 11
249.9531248232
 21
200.5085078226
  0
POLYLINE
  8
2_FEATURE
 62
7
  6
CONTINUOUS
 66
1
 70
0
  0
VERTEX
  8
2_FEATURE
 62
7
  6
CONTINUOUS
 10
269.434950339
 20
201.0085078226
  0
VERTEX
  8
2_FEATURE
 62
7
  6
CONTINUOUS
 10
269.4920407653
 20
200.9915561771
  0
VERTEX
  8
2_FEATURE
 62
7
  6
CONTINUOUS
 10
269.5487465433
 20
200.9419755645
  0
SEQEND
  0
POLYLINE
  8
0
 62
9
  6
CONTINUOUS
 66
1
 70
0
  0
VERTEX
  8
0
 62
9
  6
CONTINUOUS
 10
269.2165973909
 20
209.0937123553
  0
VERTEX
  8
0
 62
9
  6
CONTINUOUS
 10
269.0329227834
 20
209.0075458133
  0
VERTEX
  8
0
 62
9
  6
CONTINUOUS
 10
268.7586261572
 20
208.7691678232
  0
VERTEX
  8
0
 62
9
  6
CONTINUOUS
 10
268.548150998
 20
208.4585076513
  0
VERTEX
  8
0
 62
9
  6
CONTINUOUS
 10
268.4158408035
 20
208.0967362826
  0
VERTEX
  8
0
 62
9
  6
CONTINUOUS
 10
268.3707122645
 20
207.7085078226
  0
SEQEND
  0
LINE
  8
AXES
 62
7
  6
CONTINUOUS
 10
291.9531185509
 20
201.0085078226
 11
291.471299661
 21
201.0085078226
  0
LINE
  8
2_FEATURE
 62
7
  6
CONTINUOUS
 10
268.9531314491
 20
201.0085078226
 11
269.434950339
 21
201.0085078226
  0
POLYLINE
  8
0
 62
9
  6
CONTINUOUS
 66
1
 70
0
  0
VERTEX
  8
0
 62
9
  6
CONTINUOUS
 10
270.2820297459
 20
207.7085078226
  0
VERTEX
  8
0
 62
9
  6
CONTINUOUS
 10
270.52091745
 20
207.5585955267
  0
VERTEX
  8
0
 62
9
  6
CONTINUOUS
 10
270.7540971285
 20
207.1125746358
  0
VERTEX
  8
0
 62
9
  6
CONTINUOUS
 10
270.9759995836
 20
206.3815319735
  0
VERTEX
  8
0
 62
9
  6
CONTINUOUS
 10
271.1813748549
 20
205.3835044246
  0
VERTEX
  8
0
 62
9
  6
CONTINUOUS
 10
271.365413726
 20
204.142874251
  0
VERTEX
  8
0
 62
9
  6
CONTINUOUS
 10
271.5238612074
 20
202.6895826438
  0
VERTEX
  8
0
 62
9
  6
CONTINUOUS
 10
271.653102509
 20
201.0582567813
  0
VERTEX
  8
0
 62
9
  6
CONTINUOUS
 10
271.7502277134
 20
199.2872787634
  0
VERTEX
  8
0
 62
9
  6
CONTINUOUS
 10
271.8130750198
 20
197.4178598088
  0
VERTEX
  8
0
 62
9
  6
CONTINUOUS
 10
271.8402578691
 20
195.4931365517
  0
VERTEX
  8
0
 62
9
  6
CONTINUOUS
 10
271.8402576242
 20
194.5238277338
  0
VERTEX
  8
0
 62
9
  6
CONTINUOUS
 10
271.8130738316
 20
192.5991066186
  0
VERTEX
  8
0
 62
9
  6
CONTINUOUS
 10
271.7502257498
 20
190.7296930538
  0
VERTEX
  8
0
 62
9
  6
CONTINUOUS
 10
271.6531000873
 20
188.9587233205
  0
VERTEX
  8
0
 62
9
  6
CONTINUOUS
 10
271.5238587677
 20
187.3274076958
  0
VERTEX
  8
0
 62
9
  6
CONTINUOUS
 10
271.3654118719
 20
185.8741276638
  0
VERTEX
  8
0
 62
9
  6
CONTINUOUS
 10
271.1813741337
 20
184.6335079301
  0
VERTEX
  8
0
 62
9
  6
CONTINUOUS
 10
270.9760009102
 20
183.635489902
  0
VERTEX
  8
0
 62
9
  6
CONTINUOUS
 10
270.7541007691
 20
182.904451299
  0
VERTEX
  8
0
 62
9
  6
CONTINUOUS
 10
270.5209240729
 20
182.4584293403
  0
VERTEX
  8
0
 62
9
  6
CONTINUOUS
 10
270.2820297459
 20
182.3085078226
  0
SEQEND
  0
POLYLINE
  8
AXES
 62
7
  6
CONTINUOUS
 66
1
 70
0
  0
VERTEX
  8
AXES
 62
7
  6
CONTINUOUS
 10
291.3575034567
 20
189.0750400806
  0
VERTEX
  8
AXES
 62
7
  6
CONTINUOUS
 10
291.414296101
 20
189.0254087129
  0
VERTEX
  8
AXES
 62
7
  6
CONTINUOUS
 10
291.471299661
 20
189.0085078226
  0
SEQEND
  0
LINE
  8
0
 62
9
  6
CONTINUOUS
 10
276.3018368782
 20
210.155582382
 11
276.3101018727
 21
209.2085078226
  0
LINE
  8
0
 62
9
  6
CONTINUOUS
 10
276.3018368782
 20
210.155582382
 11
277.0089436594
 21
210.8626891632
  0
POLYLINE
  8
0
 62
9
  6
CONTINUOUS
 66
1
 70
0
  0
VERTEX
  8
0
 62
9
  6
CONTINUOUS
 10
269.6036864571
 20
209.0970904304
  0
VERTEX
  8
0
 62
9
  6
CONTINUOUS
 10
269.3891182752
 20
209.0075459283
  0
VERTEX
  8
0
 62
9
  6
CONTINUOUS
 10
269.0807737172
 20
208.7691679944
  0
VERTEX
  8
0
 62
9
  6
CONTINUOUS
 10
268.8441726163
 20
208.4585078226
  0
VERTEX
  8
0
 62
9
  6
CONTINUOUS
 10
268.6954389464
 20
208.0967363902
  0
VERTEX
  8
0
 62
9
  6
CONTINUOUS
 10
268.6447086615
 20
207.7085078226
  0
SEQEND
  0
LINE
  8
AXES
 62
7
  6
CONTINUOUS
 10
291.9531144542
 20
205.0085078226
 11
290.0869874014
 21
205.0085078226
  0
LINE
  8
2_FEATURE
 62
7
  6
CONTINUOUS
 10
268.9531355458
 20
205.0085078226
 11
270.8192625986
 21
205.0085078226
  0
POLYLINE
  8
0
 62
9
  6
CONTINUOUS
 66
1
 70
0
  0
VERTEX
  8
0
 62
9
  6
CONTINUOUS
 10
271.7708489734
 20
209.2085078226
  0
VERTEX
  8
0
 62
9
  6
CONTINUOUS
 10
272.0097445928
 20
209.0408781364
  0
VERTEX
  8
0
 62
9
  6
CONTINUOUS
 10
272.2429220998
 20
208.5421722068
  0
VERTEX
  8
0
 62
9
  6
CONTINUOUS
 10
272.4648225374
 20
207.7247857509
  0
VERTEX
  8
0
 62
9
  6
CONTINUOUS
 10
272.6701961401
 20
206.6088846616
  0
VERTEX
  8
0
 62
9
  6
CONTINUOUS
 10
272.8542337412
 20
205.2217297714
  0
VERTEX
  8
0
 62
9
  6
CONTINUOUS
 10
273.0126803627
 20
203.5967974456
  0
VERTEX
  8
0
 62
9
  6
CONTINUOUS
 10
273.1419211952
 20
201.7728036066
  0
VERTEX
  8
0
 62
9
  6
CONTINUOUS
 10
273.2390462772
 20
199.7926627503
  0
VERTEX
  8
0
 62
9
  6
CONTINUOUS
 10
273.301893746
 20
197.7024528309
  0
VERTEX
  8
0
 62
9
  6
CONTINUOUS
 10
273.3290769684
 20
195.5504048373
  0
VERTEX
  8
0
 62
9
  6
CONTINUOUS
 10
273.3290769642
 20
194.4666123489
  0
VERTEX
  8
0
 62
9
  6
CONTINUOUS
 10
273.3018937101
 20
192.3145635836
  0
VERTEX
  8
0
 62
9
  6
CONTINUOUS
 10
273.2390461768
 20
190.224352602
  0
VERTEX
  8
0
 62
9
  6
CONTINUOUS
 10
273.1419209989
 20
188.2442107095
  0
VERTEX
  8
0
 62
9
  6
CONTINUOUS
 10
273.0126800353
 20
186.4202158944
  0
VERTEX
  8
0
 62
9
  6
CONTINUOUS
 10
272.8542333165
 20
184.7952833837
  0
VERTEX
  8
0
 62
9
  6
CONTINUOUS
 10
272.6701955423
 20
183.4081280187
  0
VERTEX
  8
0
 62
9
  6
CONTINUOUS
 10
272.464822056
 20
182.2922282614
  0
VERTEX
  8
0
 62
9
  6
CONTINUOUS
 10
272.2429214329
 20
181.4748417727
  0
VERTEX
  8
0
 62
9
  6
CONTINUOUS
 10
272.0097440645
 20
180.9761367969
  0
VERTEX
  8
0
 62
9
  6
CONTINUOUS
 10
271.7708489734
 20
180.8085078226
  0
SEQEND
  0
POLYLINE
  8
AXES
 62
7
  6
CONTINUOUS
 66
1
 70
0
  0
VERTEX
  8
AXES
 62
7
  6
CONTINUOUS
 10
290.0869874014
 20
190.5389478582
  0
VERTEX
  8
AXES
 62
7
  6
CONTINUOUS
 10
290.9450330792
 20
189.5544599461
  0
VERTEX
  8
AXES
 62
7
  6
CONTINUOUS
 10
291.3575034567
 20
189.0750400806
  0
SEQEND
  0
LINE
  8
00_CURVE
 62
40
  6
CONTINUOUS
 10
280.453125
 20
209.2085078226
 11
280.453125
 21
180.8085078226
  0
LINE
  8
AXES
 62
9
  6
CONTINUOUS
 10
301.453125
 20
207.7085078226
 11
290.6242202541
 21
207.7085078226
  0
LINE
  8
0
 62
9
  6
CONTINUOUS
 10
259.453125
 20
207.7085078226
 11
270.2820297459
 21
207.7085078226
  0
LINE
  8
0
 62
9
  6
CONTINUOUS
 10
251.453125
 20
235.0042942602
 11
276.3018368782
 21
210.155582382
  0
LINE
  8
0
 62
7
  6
CONTINUOUS
 10
252.1602317812
 20
235.7114010414
 11
277.0089436594
 21
210.8626891632
  0
LINE
  8
0
 62
7
  6
CONTINUOUS
 10
308.7460182188
 20
235.7114010414
 11
283.8973063406
 21
210.8626891632
  0
LINE
  8
0
 62
9
  6
CONTINUOUS
 10
309.453125
 20
235.0042942602
 11
284.6044131218
 21
210.155582382
  0
POLYLINE
  8
0
 62
9
  6
CONTINUOUS
 66
1
 70
0
  0
VERTEX
  8
0
 62
9
  6
CONTINUOUS
 10
271.7708489734
 20
209.2085078226
  0
VERTEX
  8
0
 62
9
  6
CONTINUOUS
 10
271.3855141932
 20
209.1573965595
  0
VERTEX
  8
0
 62
9
  6
CONTINUOUS
 10
271.0264393444
 20
209.0075459194
  0
VERTEX
  8
0
 62
9
  6
CONTINUOUS
 10
270.7180947862
 20
208.7691679787
  0
VERTEX
  8
0
 62
9
  6
CONTINUOUS
 10
270.4814936902
 20
208.4585078042
  0
VERTEX
  8
0
 62
9
  6
CONTINUOUS
 10
270.3327600273
 20
208.0967363766
  0
VERTEX
  8
0
 62
9
  6
CONTINUOUS
 10
270.2820297459
 20
207.7085078226
  0
SEQEND
  0
LINE
  8
0
 62
7
  6
CONTINUOUS
 10
259.453125
 20
209.0085078226
 11
276.3105634137
 21
209.1556204589
  0
LINE
  8
0
 62
9
  6
CONTINUOUS
 10
259.453125
 20
210.008536381
 11
276.3018368782
 21
210.155582382
  0
LINE
  8
0
 62
7
  6
CONTINUOUS
 10
258.453125
 20
210.0041634696
 11
259.453125
 21
210.008545901
  0
LINE
  8
0
 62
7
  6
CONTINUOUS
 10
258.453125
 20
209.0085078226
 11
251.453125
 21
209.0085078226
  0
LINE
  8
0
 62
7
  6
CONTINUOUS
 10
302.453125
 20
209.0085078226
 11
309.453125
 21
209.0085078226
  0
LINE
  8
0
 62
7
  6
CONTINUOUS
 10
270.1335278889
 20
209.2085078226
 11
275.453125
 21
209.2085078226
  0
LINE
  8
AXES
 62
7
  6
CONTINUOUS
 10
275.453125
 20
209.2085078226
 11
290.7727221111
 21
209.2085078226
  0
LINE
  8
0
 62
9
  6
CONTINUOUS
 10
259.453125
 20
210.008536381
 11
251.453125
 21
210.0085078226
  0
LINE
  8
0
 62
9
  6
CONTINUOUS
 10
301.453125
 20
210.008536381
 11
309.453125
 21
210.0085078226
  0
LINE
  8
0
 62
7
  6
CONTINUOUS
 10
302.453125
 20
210.0041634696
 11
301.453125
 21
210.008545901
  0
LINE
  8
0
 62
7
  6
CONTINUOUS
 10
301.453125
 20
209.0085078226
 11
284.5956865863
 21
209.1556204589
  0
LINE
  8
0
 62
9
  6
CONTINUOUS
 10
301.453125
 20
210.008536381
 11
284.6044131218
 21
210.155582382
  0
POLYLINE
  8
AXES
 62
9
  6
CONTINUOUS
 66
1
 70
0
  0
VERTEX
  8
AXES
 62
9
  6
CONTINUOUS
 10
289.1354010266
 20
209.2085078226
  0
VERTEX
  8
AXES
 62
9
  6
CONTINUOUS
 10
289.5207358068
 20
209.1573965595
  0
VERTEX
  8
AXES
 62
9
  6
CONTINUOUS
 10
289.8798106556
 20
209.0075459194
  0
VERTEX
  8
AXES
 62
9
  6
CONTINUOUS
 10
290.1881552138
 20
208.7691679787
  0
VERTEX
  8
AXES
 62
9
  6
CONTINUOUS
 10
290.4247563098
 20
208.4585078042
  0
VERTEX
  8
AXES
 62
9
  6
CONTINUOUS
 10
290.5734899727
 20
208.0967363766
  0
VERTEX
  8
AXES
 62
9
  6
CONTINUOUS
 10
290.6242202541
 20
207.7085078226
  0
SEQEND
  0
LINE
  8
0
 62
9
  6
CONTINUOUS
 10
284.6044131218
 20
210.155582382
 11
284.5961481273
 21
209.2085078226
  0
LINE
  8
2_FEATURE
 62
7
  6
CONTINUOUS
 10
269.9612169208
 20
189.5544599461
 11
269.5487465433
 21
189.0750400806
  0
LINE
  8
2_FEATURE
 62
7
  6
CONTINUOUS
 10
270.8192625986
 20
190.5389478582
 11
269.9612169208
 21
189.5544599461
  0
POLYLINE
  8
AXES
 62
9
  6
CONTINUOUS
 66
1
 70
0
  0
VERTEX
  8
AXES
 62
9
  6
CONTINUOUS
 10
289.1354010266
 20
209.2085078226
  0
VERTEX
  8
AXES
 62
9
  6
CONTINUOUS
 10
288.8965054072
 20
209.0408781364
  0
VERTEX
  8
AXES
 62
9
  6
CONTINUOUS
 10
288.6633279002
 20
208.5421722068
  0
VERTEX
  8
AXES
 62
9
  6
CONTINUOUS
 10
288.4414274626
 20
207.7247857509
  0
VERTEX
  8
AXES
 62
9
  6
CONTINUOUS
 10
288.2360538599
 20
206.6088846616
  0
VERTEX
  8
AXES
 62
9
  6
CONTINUOUS
 10
288.0520162588
 20
205.2217297714
  0
VERTEX
  8
AXES
 62
9
  6
CONTINUOUS
 10
287.8935696373
 20
203.5967974456
  0
VERTEX
  8
AXES
 62
9
  6
CONTINUOUS
 10
287.7643288048
 20
201.7728036066
  0
VERTEX
  8
AXES
 62
9
  6
CONTINUOUS
 10
287.6672037228
 20
199.7926627503
  0
VERTEX
  8
AXES
 62
9
  6
CONTINUOUS
 10
287.604356254
 20
197.7024528309
  0
VERTEX
  8
AXES
 62
9
  6
CONTINUOUS
 10
287.5771730316
 20
195.5504048373
  0
VERTEX
  8
AXES
 62
9
  6
CONTINUOUS
 10
287.5771730358
 20
194.4666123489
  0
VERTEX
  8
AXES
 62
9
  6
CONTINUOUS
 10
287.6043562899
 20
192.3145635836
  0
VERTEX
  8
AXES
 62
9
  6
CONTINUOUS
 10
287.6672038232
 20
190.224352602
  0
VERTEX
  8
AXES
 62
9
  6
CONTINUOUS
 10
287.7643290011
 20
188.2442107095
  0
VERTEX
  8
AXES
 62
9
  6
CONTINUOUS
 10
287.8935699647
 20
186.4202158944
  0
VERTEX
  8
AXES
 62
9
  6
CONTINUOUS
 10
288.0520166835
 20
184.7952833837
  0
VERTEX
  8
AXES
 62
9
  6
CONTINUOUS
 10
288.2360544577
 20
183.4081280187
  0
VERTEX
  8
AXES
 62
9
  6
CONTINUOUS
 10
288.441427944
 20
182.2922282614
  0
VERTEX
  8
AXES
 62
9
  6
CONTINUOUS
 10
288.6633285671
 20
181.4748417727
  0
VERTEX
  8
AXES
 62
9
  6
CONTINUOUS
 10
288.8965059355
 20
180.9761367969
  0
VERTEX
  8
AXES
 62
9
  6
CONTINUOUS
 10
289.1354010266
 20
180.8085078226
  0
SEQEND
  0
POLYLINE
  8
0
 62
9
  6
CONTINUOUS
 66
1
 70
0
  0
VERTEX
  8
0
 62
9
  6
CONTINUOUS
 10
251.453125
 20
210.0085078226
  0
VERTEX
  8
0
 62
9
  6
CONTINUOUS
 10
251.3385145291
 20
209.9953300572
  0
VERTEX
  8
0
 62
9
  6
CONTINUOUS
 10
251.2215301489
 20
209.9541339142
  0
VERTEX
  8
0
 62
9
  6
CONTINUOUS
 10
251.094303261
 20
209.875319622
  0
VERTEX
  8
0
 62
9
  6
CONTINUOUS
 10
250.9566862493
 20
209.7446476946
  0
VERTEX
  8
0
 62
9
  6
CONTINUOUS
 10
250.884365592
 20
209.6535108157
  0
VERTEX
  8
0
 62
9
  6
CONTINUOUS
 10
250.7395485916
 20
209.4096569577
  0
VERTEX
  8
0
 62
9
  6
CONTINUOUS
 10
250.6039044954
 20
209.0645803493
  0
VERTEX
  8
0
 62
9
  6
CONTINUOUS
 10
250.4967705824
 20
208.5929261031
  0
SEQEND
  0
POLYLINE
  8
0
 62
9
  6
CONTINUOUS
 66
1
 70
0
  0
VERTEX
  8
0
 62
9
  6
CONTINUOUS
 10
309.453125
 20
210.0085078226
  0
VERTEX
  8
0
 62
9
  6
CONTINUOUS
 10
309.5677354709
 20
209.9953300572
  0
VERTEX
  8
0
 62
9
  6
CONTINUOUS
 10
309.6847198511
 20
209.9541339142
  0
VERTEX
  8
0
 62
9
  6
CONTINUOUS
 10
309.811946739
 20
209.875319622
  0
VERTEX
  8
0
 62
9
  6
CONTINUOUS
 10
309.9495637507
 20
209.7446476946
  0
VERTEX
  8
0
 62
9
  6
CONTINUOUS
 10
310.021884408
 20
209.6535108157
  0
VERTEX
  8
0
 62
9
  6
CONTINUOUS
 10
310.1667014084
 20
209.4096569577
  0
VERTEX
  8
0
 62
9
  6
CONTINUOUS
 10
310.3023455046
 20
209.0645803493
  0
VERTEX
  8
0
 62
9
  6
CONTINUOUS
 10
310.4094794176
 20
208.5929261031
  0
SEQEND
  0
POLYLINE
  8
AXES
 62
9
  6
CONTINUOUS
 66
1
 70
0
  0
VERTEX
  8
AXES
 62
9
  6
CONTINUOUS
 10
291.3025635429
 20
209.0970904304
  0
VERTEX
  8
AXES
 62
9
  6
CONTINUOUS
 10
291.5171317248
 20
209.0075459283
  0
VERTEX
  8
AXES
 62
9
  6
CONTINUOUS
 10
291.8254762828
 20
208.7691679944
  0
VERTEX
  8
AXES
 62
9
  6
CONTINUOUS
 10
292.0620773837
 20
208.4585078226
  0
VERTEX
  8
AXES
 62
9
  6
CONTINUOUS
 10
292.2108110536
 20
208.0967363902
  0
VERTEX
  8
AXES
 62
9
  6
CONTINUOUS
 10
292.2615413385
 20
207.7085078226
  0
SEQEND
  0
POLYLINE
  8
AXES
 62
9
  6
CONTINUOUS
 66
1
 70
0
  0
VERTEX
  8
AXES
 62
9
  6
CONTINUOUS
 10
291.6896526091
 20
209.0937123553
  0
VERTEX
  8
AXES
 62
9
  6
CONTINUOUS
 10
291.8733272166
 20
209.0075458133
  0
VERTEX
  8
AXES
 62
9
  6
CONTINUOUS
 10
292.1476238428
 20
208.7691678232
  0
VERTEX
  8
AXES
 62
9
  6
CONTINUOUS
 10
292.358099002
 20
208.4585076513
  0
VERTEX
  8
AXES
 62
9
  6
CONTINUOUS
 10
292.4904091965
 20
208.0967362826
  0
VERTEX
  8
AXES
 62
9
  6
CONTINUOUS
 10
292.5355377355
 20
207.7085078226
  0
SEQEND
  0
LINE
  8
0
 62
9
  6
CONTINUOUS
 10
284.6044131218
 20
210.155582382
 11
283.8973063406
 21
210.8626891632
  0
POLYLINE
  8
2_FEATURE
 62
7
  6
CONTINUOUS
 66
1
 70
0
  0
VERTEX
  8
2_FEATURE
 62
7
  6
CONTINUOUS
 10
269.5487465433
 20
189.0750400806
  0
VERTEX
  8
2_FEATURE
 62
7
  6
CONTINUOUS
 10
269.491953899
 20
189.0254087129
  0
VERTEX
  8
2_FEATURE
 62
7
  6
CONTINUOUS
 10
269.434950339
 20
189.0085078226
  0
SEQEND
  0
POLYLINE
  8
AXES
 62
9
  6
CONTINUOUS
 66
1
 70
0
  0
VERTEX
  8
AXES
 62
9
  6
CONTINUOUS
 10
290.6242202541
 20
207.7085078226
  0
VERTEX
  8
AXES
 62
9
  6
CONTINUOUS
 10
290.38533255
 20
207.5585955267
  0
VERTEX
  8
AXES
 62
9
  6
CONTINUOUS
 10
290.1521528715
 20
207.1125746358
  0
VERTEX
  8
AXES
 62
9
  6
CONTINUOUS
 10
289.9302504164
 20
206.3815319735
  0
VERTEX
  8
AXES
 62
9
  6
CONTINUOUS
 10
289.7248751451
 20
205.3835044246
  0
VERTEX
  8
AXES
 62
9
  6
CONTINUOUS
 10
289.540836274
 20
204.142874251
  0
VERTEX
  8
AXES
 62
9
  6
CONTINUOUS
 10
289.3823887926
 20
202.6895826438
  0
VERTEX
  8
AXES
 62
9
  6
CONTINUOUS
 10
289.253147491
 20
201.0582567813
  0
VERTEX
  8
AXES
 62
9
  6
CONTINUOUS
 10
289.1560222866
 20
199.2872787634
  0
VERTEX
  8
AXES
 62
9
  6
CONTINUOUS
 10
289.0931749802
 20
197.4178598088
  0
VERTEX
  8
AXES
 62
9
  6
CONTINUOUS
 10
289.0659921309
 20
195.4931365517
  0
VERTEX
  8
AXES
 62
9
  6
CONTINUOUS
 10
289.0659923758
 20
194.5238277338
  0
VERTEX
  8
AXES
 62
9
  6
CONTINUOUS
 10
289.0931761684
 20
192.5991066186
  0
VERTEX
  8
AXES
 62
9
  6
CONTINUOUS
 10
289.1560242502
 20
190.7296930538
  0
VERTEX
  8
AXES
 62
9
  6
CONTINUOUS
 10
289.2531499127
 20
188.9587233205
  0
VERTEX
  8
AXES
 62
9
  6
CONTINUOUS
 10
289.3823912323
 20
187.3274076958
  0
VERTEX
  8
AXES
 62
9
  6
CONTINUOUS
 10
289.5408381281
 20
185.8741276638
  0
VERTEX
  8
AXES
 62
9
  6
CONTINUOUS
 10
289.7248758663
 20
184.6335079301
  0
VERTEX
  8
AXES
 62
9
  6
CONTINUOUS
 10
289.9302490898
 20
183.635489902
  0
VERTEX
  8
AXES
 62
9
  6
CONTINUOUS
 10
290.1521492309
 20
182.904451299
  0
VERTEX
  8
AXES
 62
9
  6
CONTINUOUS
 10
290.3853259271
 20
182.4584293403
  0
VERTEX
  8
AXES
 62
9
  6
CONTINUOUS
 10
290.6242202541
 20
182.3085078226
  0
SEQEND
  0
LINE
  8
AXES
 62
7
  6
CONTINUOUS
 10
290.0869874014
 20
185.0085078226
 11
290.0869874014
 21
190.5389478582
  0
LINE
  8
AXES
 62
7
  6
CONTINUOUS
 10
290.0869874014
 20
199.478067787
 11
290.0869874014
 21
205.0085078226
  0
POLYLINE
  8
AXES
 62
7
  6
CONTINUOUS
 66
1
 70
0
  0
VERTEX
  8
AXES
 62
7
  6
CONTINUOUS
 10
290.0869874014
 20
199.478067787
  0
VERTEX
  8
AXES
 62
7
  6
CONTINUOUS
 10
290.0028319132
 20
198.5544196835
  0
VERTEX
  8
AXES
 62
7
  6
CONTINUOUS
 10
289.9392278814
 20
197.5293459795
  0
VERTEX
  8
AXES
 62
7
  6
CONTINUOUS
 10
289.8979157938
 20
196.4325343355
  0
VERTEX
  8
AXES
 62
7
  6
CONTINUOUS
 10
289.8800108899
 20
195.2953418855
  0
VERTEX
  8
AXES
 62
7
  6
CONTINUOUS
 10
289.8800109149
 20
194.7216689758
  0
VERTEX
  8
AXES
 62
7
  6
CONTINUOUS
 10
289.8979159056
 20
193.5844770917
  0
VERTEX
  8
AXES
 62
7
  6
CONTINUOUS
 10
289.9392280312
 20
192.4876666359
  0
VERTEX
  8
AXES
 62
7
  6
CONTINUOUS
 10
290.0028320289
 20
191.4625944349
  0
VERTEX
  8
AXES
 62
7
  6
CONTINUOUS
 10
290.0869874014
 20
190.5389478582
  0
SEQEND
  0
POLYLINE
  8
AXES
 62
7
  6
CONTINUOUS
 66
1
 70
0
  0
VERTEX
  8
AXES
 62
7
  6
CONTINUOUS
 10
291.471299661
 20
201.0085078226
  0
VERTEX
  8
AXES
 62
7
  6
CONTINUOUS
 10
291.4142092347
 20
200.9915561771
  0
VERTEX
  8
AXES
 62
7
  6
CONTINUOUS
 10
291.3575034567
 20
200.9419755645
  0
SEQEND
  0
POLYLINE
  8
AXES
 62
9
  6
CONTINUOUS
 66
1
 70
0
  0
VERTEX
  8
AXES
 62
9
  6
CONTINUOUS
 10
300.4780949909
 20
209.0170167806
  0
VERTEX
  8
AXES
 62
9
  6
CONTINUOUS
 10
300.4982832875
 20
209.0075459283
  0
VERTEX
  8
AXES
 62
9
  6
CONTINUOUS
 10
300.7725799384
 20
208.7691679944
  0
VERTEX
  8
AXES
 62
9
  6
CONTINUOUS
 10
300.9830551613
 20
208.4585078226
  0
VERTEX
  8
AXES
 62
9
  6
CONTINUOUS
 10
301.1153654177
 20
208.0967363902
  0
VERTEX
  8
AXES
 62
9
  6
CONTINUOUS
 10
301.1604939821
 20
207.7085078226
  0
SEQEND
  0
LINE
  8
AXES
 62
7
  6
CONTINUOUS
 10
291.953125
 20
205.0085078226
 11
291.953125
 21
201.0085078226
  0
LINE
  8
AXES
 62
7
  6
CONTINUOUS
 10
291.953125
 20
189.0085078226
 11
291.953125
 21
185.0085078226
  0
LINE
  8
AXES
 62
9
  6
CONTINUOUS
 10
292.2615413385
 20
182.3085078226
 11
292.2615413385
 21
207.7085078226
  0
LINE
  8
AXES
 62
9
  6
CONTINUOUS
 10
292.5355377355
 20
182.3085078226
 11
292.5355377355
 21
207.7085078226
  0
POLYLINE
  8
AXES
 62
7
  6
CONTINUOUS
 66
1
 70
0
  0
VERTEX
  8
AXES
 62
7
  6
CONTINUOUS
 10
291.1481354943
 20
189.3183912783
  0
VERTEX
  8
AXES
 62
7
  6
CONTINUOUS
 10
291.2269963787
 20
189.7454356775
  0
VERTEX
  8
AXES
 62
7
  6
CONTINUOUS
 10
291.3339416677
 20
190.5837049738
  0
VERTEX
  8
AXES
 62
7
  6
CONTINUOUS
 10
291.4206889682
 20
191.5621920223
  0
VERTEX
  8
AXES
 62
7
  6
CONTINUOUS
 10
291.484579123
 20
192.6492118197
  0
VERTEX
  8
AXES
 62
7
  6
CONTINUOUS
 10
291.5236880989
 20
193.8101517038
  0
VERTEX
  8
AXES
 62
7
  6
CONTINUOUS
 10
291.5368538314
 20
195.0085114836
  0
VERTEX
  8
AXES
 62
7
  6
CONTINUOUS
 10
291.5236879469
 20
196.2068708053
  0
VERTEX
  8
AXES
 62
7
  6
CONTINUOUS
 10
291.4845788667
 20
197.3678094204
  0
VERTEX
  8
AXES
 62
7
  6
CONTINUOUS
 10
291.4206886875
 20
198.454827472
  0
VERTEX
  8
AXES
 62
7
  6
CONTINUOUS
 10
291.3339414572
 20
199.4333126468
  0
VERTEX
  8
AXES
 62
7
  6
CONTINUOUS
 10
291.2269963
 20
200.271580482
  0
VERTEX
  8
AXES
 62
7
  6
CONTINUOUS
 10
291.1481170578
 20
200.6987242358
  0
SEQEND
  0
LINE
  8
AXES
 62
7
  6
CONTINUOUS
 10
291.3575034567
 20
200.9419755645
 11
290.9219510189
 21
200.4359794264
  0
LINE
  8
AXES
 62
7
  6
CONTINUOUS
 10
290.9219510189
 20
200.4359794264
 11
290.0869874014
 21
199.478067787
  0
POLYLINE
  8
0
 62
7
  6
CONTINUOUS
 66
1
 70
0
  0
VERTEX
  8
0
 62
7
  6
CONTINUOUS
 10
302.453125
 20
210.0041634696
  0
VERTEX
  8
0
 62
7
  6
CONTINUOUS
 10
302.2810759229
 20
209.8826013821
  0
VERTEX
  8
0
 62
7
  6
CONTINUOUS
 10
302.0019920465
 20
209.6741638351
  0
VERTEX
  8
0
 62
7
  6
CONTINUOUS
 10
301.8011513775
 20
209.5041797997
  0
VERTEX
  8
0
 62
7
  6
CONTINUOUS
 10
301.660929348
 20
209.3659442694
  0
VERTEX
  8
0
 62
7
  6
CONTINUOUS
 10
301.6081760859
 20
209.3068185249
  0
VERTEX
  8
0
 62
7
  6
CONTINUOUS
 10
301.5293544717
 20
209.2052730887
  0
VERTEX
  8
0
 62
7
  6
CONTINUOUS
 10
301.4802239805
 20
209.1245253926
  0
VERTEX
  8
0
 62
7
  6
CONTINUOUS
 10
301.4560519001
 20
209.0627716779
  0
VERTEX
  8
0
 62
7
  6
CONTINUOUS
 10
301.453125
 20
209.040263044
  0
SEQEND
  0
LINE
  8
0
 62
7
  6
CONTINUOUS
 10
311.203125
 20
200.2585079913
 11
310.9531251768
 21
200.5085078226
  0
LINE
  8
AXES
 62
9
  6
CONTINUOUS
 10
301.1604939821
 20
207.7085078226
 11
301.1604939821
 21
182.3085078226
  0
LINE
  8
0
 62
7
  6
CONTINUOUS
 10
301.453125
 20
182.0085078226
 11
301.453125
 21
209.0402630528
  0
LINE
  8
0
 62
9
  6
CONTINUOUS
 10
302.453125
 20
181.0085078226
 11
302.453125
 21
210.0041635516
  0
LINE
  8
0
 62
9
  6
CONTINUOUS
 10
310.453125
 20
235.0042942602
 11
309.453125
 21
235.0042942602
  0
LINE
  8
0
 62
9
  6
CONTINUOUS
 10
250.453125
 20
235.0042942602
 11
251.453125
 21
235.0042942602
  0
LINE
  8
0
 62
9
  6
CONTINUOUS
 10
310.4094794176
 20
208.5929261031
 11
310.453125
 21
208.0085081069
  0
LINE
  8
0
 62
9
  6
CONTINUOUS
 10
309.453125
 20
181.0085078226
 11
309.453125
 21
235.0042942602
  0
LINE
  8
0
 62
7
  6
CONTINUOUS
 10
310.453125
 20
182.0085078226
 11
310.453125
 21
235.0042942602
  0
LINE
  8
0
 62
7
  6
CONTINUOUS
 10
310.9531249979
 20
200.5085078226
 11
310.9531249979
 21
189.5085078226
  0
LINE
  8
0
 62
7
  6
CONTINUOUS
 10
311.203125
 20
200.2584909323
 11
311.203125
 21
189.7585247129
  0
LINE
  8
0
 62
7
  6
CONTINUOUS
 10
311.203125
 20
189.7585076539
 11
310.9531251768
 21
189.5085078226
  0
LINE
  8
0
 62
9
  6
CONTINUOUS
 10
308.7460182188
 20
235.7114010414
 11
309.453125
 21
235.0042942602
  0
ARC
  8
0
 62
7
  6
CONTINUOUS
 10
90.546875
 20
195.0085078226
 40
14.2
 50
90.0
 51
270.0
  0
ARC
  8
AXES
 62
7
  6
CONTINUOUS
 10
90.546875
 20
195.0085078226
 40
14.2
 50
90.0
 51
270.0
  0
ARC
  8
00_CURVE
 62
40
  6
CONTINUOUS
 10
90.546875
 20
195.0085078226
 40
14.2
 50
90.0
 51
98.6723952182
  0
ARC
  8
00_CURVE
 62
40
  6
CONTINUOUS
 10
90.546875
 20
195.0085078226
 40
14.2
 50
269.795613201
 51
270.0000370133
  0
ARC
  8
0
 62
7
  6
CONTINUOUS
 10
91.296875
 20
195.0085078226
 40
14.0
 50
90.0
 51
270.0
  0
ARC
  8
0
 62
9
  6
CONTINUOUS
 10
91.296875
 20
195.0085078226
 40
12.9999999996
 50
90.0
 51
270.0
  0
CIRCLE
  8
0
 62
7
  6
CONTINUOUS
 10
91.296875
 20
195.0085078226
 40
11.25
  0
CIRCLE
  8
0
 62
7
  6
CONTINUOUS
 10
91.296875
 20
195.0085078226
 40
5.7
  0
ARC
  8
0
 62
7
  6
CONTINUOUS
 10
97.0468754757
 20
210.0085073469
 40
0.9999997622
 50
269.9999727466
 51
0.0000272534
  0
CIRCLE
  8
0
 62
7
  6
CONTINUOUS
 10
151.496875
 20
188.9488048596
 40
0.75
  0
CIRCLE
  8
0
 62
7
  6
CONTINUOUS
 10
158.096875
 20
188.9488048596
 40
0.75
  0
ARC
  8
AXES
 62
7
  6
CONTINUOUS
 10
154.796875
 20
195.0085078226
 40
14.2
 50
270.0
 51
69.2478443157
  0
ARC
  8
2_FEATURE
 62
7
  6
CONTINUOUS
 10
154.796875
 20
195.0085078226
 40
14.2
 50
270.0
 51
292.3671967337
  0
ARC
  8
2_FEATURE
 62
7
  6
CONTINUOUS
 10
154.796875
 20
195.0085078226
 40
14.2
 50
296.0781139744
 51
63.7906328913
  0
ARC
  8
0
 62
7
  6
CONTINUOUS
 10
154.796875
 20
195.0085078226
 40
14.2
 50
270.0
 51
295.5830866462
  0
ARC
  8
0
 62
7
  6
CONTINUOUS
 10
154.796875
 20
195.0085078226
 40
14.0
 50
270.0
 51
60.1383779702
  0
ARC
  8
0
 62
9
  6
CONTINUOUS
 10
154.796875
 20
195.0085078226
 40
12.9999999998
 50
270.0
 51
60.1383779702
  0
CIRCLE
  8
0
 62
7
  6
CONTINUOUS
 10
154.796875
 20
195.0085078226
 40
11.25
  0
CIRCLE
  8
0
 62
7
  6
CONTINUOUS
 10
154.796875
 20
195.0085078226
 40
10.9
  0
CIRCLE
  8
0
 62
7
  6
CONTINUOUS
 10
154.796875
 20
195.0085078226
 40
10.7000001929
  0
ARC
  8
0
 62
7
  6
CONTINUOUS
 10
154.796875
 20
195.0085078226
 40
8.55
 50
234.6234598481
 51
258.8731116638
  0
ARC
  8
0
 62
7
  6
CONTINUOUS
 10
154.796875
 20
195.0085078226
 40
8.55
 50
281.1268883362
 51
305.3765401519
  0
ARC
  8
0
 62
7
  6
CONTINUOUS
 10
154.796875
 20
195.4585078226
 40
6.6
 50
318.5903778907
 51
221.4096221093
  0
ARC
  8
0
 62
7
  6
CONTINUOUS
 10
154.796875
 20
195.0085078226
 40
6.3499987638
 50
238.6602899418
 51
246.3290230459
  0
ARC
  8
0
 62
7
  6
CONTINUOUS
 10
154.796875
 20
195.0085078226
 40
6.3499987638
 50
212.038393533
 51
219.385118785
  0
ARC
  8
0
 62
7
  6
CONTINUOUS
 10
154.796875
 20
195.0085078226
 40
6.3499987638
 50
320.6159634159
 51
327.9626875028
  0
ARC
  8
0
 62
7
  6
CONTINUOUS
 10
154.796875
 20
195.0085078226
 40
6.3499987638
 50
293.666239652
 51
301.3298387615
  0
ARC
  8
0
 62
7
  6
CONTINUOUS
 10
154.796875
 20
195.0085078226
 40
6.3499987638
 50
255.4952569932
 51
284.5047662442
  0
ARC
  8
0
 62
7
  6
CONTINUOUS
 10
154.796875
 20
195.0085078226
 40
6.15
 50
254.9946776585
 51
285.0053978291
  0
ARC
  8
0
 62
7
  6
CONTINUOUS
 10
154.796875
 20
195.0085078226
 40
5.7
 50
252.3770837347
 51
287.6229162653
  0
CIRCLE
  8
0
 62
7
  6
CONTINUOUS
 10
154.796875
 20
195.0085078226
 40
5.5
  0
CIRCLE
  8
0
 62
7
  6
CONTINUOUS
 10
154.796875
 20
195.0085078226
 40
5.2499999784
  0
ARC
  8
AXES
 62
7
  6
CONTINUOUS
 10
90.546875
 20
81.0625
 40
6.5
 50
225.4715157238
 51
300.5284842762
  0
ARC
  8
AXES
 62
9
  6
CONTINUOUS
 10
121.9701950071
 20
76.5625
 40
4.0000000646
 50
242.0
 51
270.0
  0
ARC
  8
AXES
 62
7
  6
CONTINUOUS
 10
121.9701950071
 20
76.5625
 40
2.5
 50
242.0
 51
270.0
  0
ARC
  8
AXES
 62
7
  6
CONTINUOUS
 10
121.9628490414
 20
67.5625
 40
2.5
 50
264.573944823
 51
268.2530640271
  0
ARC
  8
AXES
 62
7
  6
CONTINUOUS
 10
109.4391962008
 20
77.5625
 40
2.5
 50
62.0
 51
90.0
  0
ARC
  8
AXES
 62
7
  6
CONTINUOUS
 10
77.8468760021
 20
78.9395877738
 40
1.5
 50
180.0000012547
 51
263.0000000001
  0
ARC
  8
AXES
 62
9
  6
CONTINUOUS
 10
109.4391962008
 20
77.5625
 40
1.0000000183
 50
62.0
 51
90.0
  0
ARC
  8
AXES
 62
9
  6
CONTINUOUS
 10
121.9628490414
 20
67.5625
 40
1.0000000177
 50
242.0
 51
270.0
  0
ARC
  8
0
 62
7
  6
CONTINUOUS
 10
78.296875
 20
64.0625
 40
1.0
 50
90.0
 51
180.0
  0
ARC
  8
0
 62
7
  6
CONTINUOUS
 10
78.296875
 20
57.0625
 40
1.0
 50
180.0
 51
270.0
  0
ARC
  8
0
 62
7
  6
CONTINUOUS
 10
99.046875
 20
57.0625
 40
1.0
 50
180.0
 51
270.0
  0
ARC
  8
0
 62
7
  6
CONTINUOUS
 10
110.0381862106
 20
66.0625
 40
1.0
 50
180.5
 51
270.0
  0
ARC
  8
0
 62
7
  6
CONTINUOUS
 10
121.8710885624
 20
66.0625
 40
1.0
 50
225.0
 51
270.0
  0
ARC
  8
0
 62
7
  6
CONTINUOUS
 10
109.9340129297
 20
77.9995756326
 40
1.0
 50
180.5
 51
225.0
  0
ARC
  8
2_FEATURE
 62
7
  6
CONTINUOUS
 10
90.546875
 20
91.0625
 40
6.5
 50
59.4715157238
 51
134.5284842762
  0
ARC
  8
2_FEATURE
 62
9
  6
CONTINUOUS
 10
121.9701950071
 20
95.5625
 40
4.0000000646
 50
90.0
 51
118.0
  0
ARC
  8
2_FEATURE
 62
7
  6
CONTINUOUS
 10
109.4391962008
 20
94.5625
 40
2.5
 50
270.0
 51
298.0
  0
ARC
  8
0
 62
7
  6
CONTINUOUS
 10
121.9628490414
 20
104.5625
 40
2.5
 50
91.7469359729
 51
95.426055177
  0
ARC
  8
2_FEATURE
 62
7
  6
CONTINUOUS
 10
121.9701950071
 20
95.5625
 40
2.5
 50
90.0
 51
118.0
  0
ARC
  8
0
 62
7
  6
CONTINUOUS
 10
77.8468760021
 20
93.1854122262
 40
1.5
 50
97.0
 51
179.9999987453
  0
ARC
  8
2_FEATURE
 62
9
  6
CONTINUOUS
 10
109.4391962008
 20
94.5625
 40
1.0000000183
 50
270.0
 51
298.0
  0
ARC
  8
0
 62
9
  6
CONTINUOUS
 10
121.9628490414
 20
104.5625
 40
1.0000000177
 50
90.0
 51
118.0
  0
ARC
  8
0
 62
7
  6
CONTINUOUS
 10
78.296875
 20
108.0625
 40
1.0
 50
180.0
 51
270.0
  0
ARC
  8
0
 62
7
  6
CONTINUOUS
 10
78.296875
 20
115.0625
 40
1.0
 50
90.0
 51
180.0
  0
ARC
  8
0
 62
7
  6
CONTINUOUS
 10
99.046875
 20
115.0625
 40
1.0
 50
90.0
 51
180.0
  0
ARC
  8
0
 62
7
  6
CONTINUOUS
 10
110.0381862106
 20
106.0625
 40
1.0
 50
90.0
 51
179.5
  0
ARC
  8
0
 62
7
  6
CONTINUOUS
 10
121.8710885624
 20
106.0625
 40
1.0
 50
90.0
 51
135.0
  0
ARC
  8
0
 62
7
  6
CONTINUOUS
 10
109.9340129297
 20
94.1254243674
 40
1.0
 50
135.0
 51
179.5
  0
ARC
  8
AXES
 62
7
  6
CONTINUOUS
 10
159.6297455502
 20
71.0625
 40
3.0
 50
60.0
 51
90.0
  0
ARC
  8
AXES
 62
7
  6
CONTINUOUS
 10
167.496875
 20
66.5625
 40
1.5
 50
270.0
 51
360.0
  0
ARC
  8
AXES
 62
7
  6
CONTINUOUS
 10
167.496875
 20
68.252461502
 40
1.5
 50
0.0
 51
60.0
  0
ARC
  8
0
 62
7
  6
CONTINUOUS
 10
167.796875
 20
64.0625
 40
1.0
 50
0.0
 51
90.0
  0
ARC
  8
0
 62
7
  6
CONTINUOUS
 10
167.796875
 20
57.0625
 40
1.0
 50
270.0
 51
360.0
  0
ARC
  8
2_FEATURE
 62
7
  6
CONTINUOUS
 10
159.6297455502
 20
101.0625
 40
3.0
 50
270.0
 51
300.0
  0
ARC
  8
0
 62
7
  6
CONTINUOUS
 10
167.496875
 20
105.5625
 40
1.5
 50
0.0
 51
90.0
  0
ARC
  8
2_FEATURE
 62
7
  6
CONTINUOUS
 10
167.496875
 20
103.872538498
 40
1.5
 50
300.0
 51
360.0
  0
ARC
  8
0
 62
7
  6
CONTINUOUS
 10
167.796875
 20
108.0625
 40
1.0
 50
270.0
 51
360.0
  0
ARC
  8
0
 62
7
  6
CONTINUOUS
 10
167.796875
 20
115.0625
 40
1.0
 50
0.0
 51
90.0
  0
ARC
  8
0
 62
7
  6
CONTINUOUS
 10
260.953125
 20
207.7085078226
 40
1.5
 50
119.2323754008
 51
180.0
  0
ARC
  8
0
 62
7
  6
CONTINUOUS
 10
260.953125
 20
182.3085078226
 40
1.5
 50
180.0
 51
270.0
  0
ARC
  8
AXES
 62
7
  6
CONTINUOUS
 10
299.953125
 20
182.3085078226
 40
1.5
 50
270.0
 51
360.0
  0
ARC
  8
AXES
 62
7
  6
CONTINUOUS
 10
299.953125
 20
207.7085078226
 40
1.5
 50
0.0
 51
60.7676245992
  0
ARC
  8
0
 62
7
  6
CONTINUOUS
 10
251.453125
 20
208.0085078226
 40
1.0
 50
90.0
 51
180.0
  0
ARC
  8
0
 62
7
  6
CONTINUOUS
 10
251.453125
 20
182.0085078226
 40
1.0
 50
180.0
 51
270.0
  0
ARC
  8
0
 62
7
  6
CONTINUOUS
 10
258.453125
 20
182.0085078226
 40
1.0
 50
270.0
 51
360.0
  0
ARC
  8
0
 62
7
  6
CONTINUOUS
 10
251.453125
 20
235.0042942602
 40
1.0
 50
45.0
 51
180.0
  0
ARC
  8
0
 62
7
  6
CONTINUOUS
 10
258.453125
 20
208.0085078226
 40
1.0
 50
0.0
 51
90.0
  0
ARC
  8
0
 62
7
  6
CONTINUOUS
 10
276.3018368782
 20
210.155582382
 40
1.0
 50
291.6620708315
 51
45.0
  0
ARC
  8
0
 62
7
  6
CONTINUOUS
 10
309.453125
 20
208.0085078226
 40
1.0
 50
0.0
 51
90.0
  0
ARC
  8
0
 62
7
  6
CONTINUOUS
 10
309.453125
 20
182.0085078226
 40
1.0
 50
270.0
 51
360.0
  0
ARC
  8
0
 62
7
  6
CONTINUOUS
 10
302.453125
 20
182.0085078226
 40
1.0
 50
180.0
 51
270.0
  0
ARC
  8
0
 62
7
  6
CONTINUOUS
 10
309.453125
 20
235.0042942602
 40
1.0
 50
0.0
 51
135.0
  0
ARC
  8
0
 62
7
  6
CONTINUOUS
 10
302.453125
 20
208.0085078226
 40
1.0
 50
90.0
 51
180.0
  0
ARC
  8
0
 62
7
  6
CONTINUOUS
 10
284.6044131218
 20
210.155582382
 40
1.0
 50
135.0
 51
248.3379291685
  0
ENDSEC
  0
EOF
