  0
SECTION
  2
HEADER
  9
$EXTMAX
 10
420.0
 20
297.0
 30
0.0
  9
$EXTMIN
 10
0.0
 20
0.0
 30
0.0
  9
$LIMMIN
 10
0.0
 20
0.0
  9
$LIMMAX
 10
420.0
 20
297.0
  9
$VIEWCTR
 10
210.0
 20
148.5
  9
$VIEWSIZE
 40
297.0
  9
$CLAYER
  8
0
  9
$LTSCALE
 40
23.1
  9
$CELTYPE
  6
BYLAYER
  9
$DIMSCALE
 40
1.0
  9
$DIMASZ
 40
3.5
  9
$DIMEXO
 40
1.0
  9
$DIMDLI
 40
15.96
  9
$DIMEXE
 40
2.0
  9
$DIMCEN
 40
3.78
  9
$DIMLFAC
 40
1.0
  9
$DIMBLK
  1
_FILLED
  9
$DIMALT
 70
0
  9
$DIMALTF
 40
0.0393700787
  9
$DIMTXT
 40
3.5
  9
$AUNITS
 70
0
  9
$PDMODE
 70
3
  9
$PDSIZE
 40
0.3125
  9
$TILEMODE
 70
1
  0
ENDSEC
  0
SECTION
  2
TABLES
  0
TABLE
  2
LTYPE
 70
6
  0
LTYPE
  2
BYBLOCK
 70
0
  3

 72
65
 73
0
 40
0.0
  0
LTYPE
  2
BYLAYER
 70
0
  3

 72
65
 73
0
 40
0.0
  0
LTYPE
  2
CONTINUOUS
 70
64
  3
Solid line
 72
65
 73
0
 40
0.0
  0
LTYPE
  2
CENTER
 70
64
  3
____ _ ____ _ ____ _ ____ _ ____ _ ____ _ ____
 72
65
 73
4
 40
0.6
 49
0.375
 49
-0.075
 49
0.075
 49
-0.075
  0
LTYPE
  2
HIDDEN
 70
64
  3
- - - - - - - - - - - - - - - - - - - -
 72
65
 73
2
 40
0.2
 49
0.1
 49
-0.1
  0
LTYPE
  2
PHANTOM
 70
64
  3
_____ _ _ _____ _ _ _____ _ _ _____
 72
65
 73
6
 40
0.8
 49
0.45
 49
-0.05
 49
0.1
 49
-0.05
 49
0.1
 49
-0.05
  0
LTYPE
  2
DOT
 70
64
  3
. . . . . . . . . . . . . . . . . . . .
 72
65
 73
2
 40
0.2
 49
0.1
 49
-0.1
  0
LTYPE
  2
DASHED
 70
64
  3
- - - - - - - - - - - - - - - - - - - -
 72
65
 73
2
 40
0.2
 49
0.1
 49
-0.1
  0
ENDTAB
  0
TABLE
  2
LAYER
 70
36
  0
LAYER
  2
0
 70
0
 62
7
  6
CONTINUOUS
  0
LAYER
  2
DEFAULT_1
 70
0
 62
7
  6
CENTER
  0
LAYER
  2
DEFAULT_2
 70
0
 62
8
  6
HIDDEN
  0
LAYER
  2
DEFAULT_3
 70
0
 62
7
  6
PHANTOM
  0
LAYER
  2
00_CURVE
 70
0
 62
7
  6
CONTINUOUS
  0
LAYER
  2
1_AXIS
 70
0
 62
7
  6
CONTINUOUS
  0
LAYER
  2
1_DATUMPLANE
 70
0
 62
7
  6
CONTINUOUS
  0
LAYER
  2
1_DATUM_PLANES
 70
0
 62
7
  6
CONTINUOUS
  0
LAYER
  2
2_FEATURE
 70
0
 62
7
  6
CONTINUOUS
  0
LAYER
  2
6_DIM
 70
0
 62
7
  6
CONTINUOUS
  0
LAYER
  2
6_NOTE
 70
0
 62
7
  6
CONTINUOUS
  0
LAYER
  2
AXES
 70
0
 62
7
  6
CONTINUOUS
  0
LAYER
  2
CSYS
 70
0
 62
7
  6
CONTINUOUS
  0
LAYER
  2
NOTES
 70
0
 62
7
  6
CONTINUOUS
  0
LAYER
  2
PLANES
 70
0
 62
7
  6
CONTINUOUS
  0
LAYER
  2
QUILT
 70
0
 62
7
  6
CONTINUOUS
  0
LAYER
  2
XSEC_DATUMS
 70
0
 62
7
  6
CONTINUOUS
  0
ENDTAB
  0
TABLE
  2
STYLE
 70
1
  0
STYLE
  2
STANDARD
 70
0
 40
0.0
 41
0.8
 50
0.0
 71
0
 42
0.2
  3
txt
  4

  0
STYLE
  2
TEXTSTYLE_1
 70
0
 40
0.0
 41
0.8
 50
0.0
 71
0
 42
0.2
  3
gdt
  4

  0
STYLE
  2
TEXTSTYLE_2
 70
0
 40
0.0
 41
0.6
 50
0.0
 71
0
 42
0.2
  3
txt
  4

  0
STYLE
  2
TEXTSTYLE_3
 70
0
 40
0.0
 41
1.0
 50
0.0
 71
0
 42
0.2
  3
ftb_____.ttf
  4

  0
STYLE
  2
TEXTSTYLE_4
 70
0
 40
0.0
 41
1.0
 50
0.0
 71
0
 42
0.2
  3
fti_____.ttf
  4

  0
STYLE
  2
TEXTSTYLE_5
 70
0
 40
0.0
 41
1.0
 50
0.0
 71
0
 42
0.2
  3
frutiger light.ttf
  4

  0
STYLE
  2
TEXTSTYLE_6
 70
0
 40
0.0
 41
0.7
 50
0.0
 71
0
 42
0.2
  3
txt
  4

  0
STYLE
  2
TEXTSTYLE_7
 70
0
 40
0.0
 41
0.8
 50
0.0
 71
0
 42
0.2
  3
txt
  4

  0
ENDTAB
  0
ENDSEC
  0
SECTION
  2
BLOCKS
  0
BLOCK
  8
0
 62
2
  6
CONTINUOUS
  2
UNI_LOGO2_BL1
 70
64
 10
382.3920721743
 20
35.7654615278
  0
TEXT
  8
0
 62
7
  6
CONTINUOUS
 10
373.4503571828
 20
30.9093678571
  7
TEXTSTYLE_4
 40
1.0655737705
  1
The brand for plastic modular belts and chains
 41
1.0
 72
0
  0
LINE
  8
0
 62
7
  6
CONTINUOUS
 10
358.3701405634
 20
36.3903819718
 11
358.3701405634
 21
34.2592344308
  0
LINE
  8
0
 62
7
  6
CONTINUOUS
 10
358.6592030565
 20
31.2683031351
 11
358.6592030565
 21
31.3650941944
  0
LINE
  8
0
 62
7
  6
CONTINUOUS
 10
358.3701405634
 20
31.332830508
 11
358.4279530651
 21
31.1392483894
  0
LINE
  8
0
 62
7
  6
CONTINUOUS
 10
359.7635831863
 20
34.1772672177
 11
359.7635831863
 21
36.3903819718
  0
LINE
  8
0
 62
7
  6
CONTINUOUS
 10
360.6826405082
 20
32.3330049227
 11
360.6826405082
 21
30.81661148
  0
LINE
  8
0
 62
7
  6
CONTINUOUS
 10
360.9717030634
 20
30.81661148
 11
360.9717030634
 21
31.5586763581
  0
LINE
  8
0
 62
7
  6
CONTINUOUS
 10
360.9717030634
 20
31.6877311038
 11
360.9717030634
 21
32.3330049227
  0
LINE
  8
0
 62
7
  6
CONTINUOUS
 10
358.4279530651
 20
31.5264126717
 11
358.3701405634
 21
31.332830508
  0
LINE
  8
0
 62
7
  6
CONTINUOUS
 10
358.7748280496
 20
31.106984703
 11
358.6592030565
 21
31.2683031351
  0
LINE
  8
0
 62
7
  6
CONTINUOUS
 10
359.8732656185
 20
31.623203731
 11
359.9310780634
 21
31.5264126717
  0
LINE
  8
0
 62
7
  6
CONTINUOUS
 10
360.2201406185
 20
31.5264126717
 11
360.1623280082
 21
31.6554674174
  0
LINE
  8
0
 62
7
  6
CONTINUOUS
 10
361.648829088
 20
36.3903819718
 11
361.648829088
 21
34.5871032833
  0
LINE
  8
0
 62
7
  6
CONTINUOUS
 10
361.648829088
 20
33.2756278735
 11
361.648829088
 21
32.6198901686
  0
LINE
  8
0
 62
7
  6
CONTINUOUS
 10
362.0123280634
 20
31.4618852989
 11
362.0123280634
 21
30.81661148
  0
LINE
  8
0
 62
7
  6
CONTINUOUS
 10
362.3013904531
 20
30.81661148
 11
362.3013904531
 21
31.4618852989
  0
LINE
  8
0
 62
7
  6
CONTINUOUS
 10
358.6592030565
 20
31.3650941944
 11
358.7170155634
 21
31.4941489853
  0
LINE
  8
0
 62
7
  6
CONTINUOUS
 10
358.4279530651
 20
31.1392483894
 11
358.5435780634
 21
31.0101936212
  0
LINE
  8
0
 62
7
  6
CONTINUOUS
 10
361.9545154531
 20
31.5909400446
 11
362.0123280634
 21
31.4618852989
  0
LINE
  8
0
 62
7
  6
CONTINUOUS
 10
362.7638906736
 20
31.106984703
 11
362.8217029531
 21
30.9779299347
  0
LINE
  8
0
 62
7
  6
CONTINUOUS
 10
362.3013904531
 20
31.4618852989
 11
362.2435781736
 21
31.623203731
  0
LINE
  8
0
 62
7
  6
CONTINUOUS
 10
362.7638906736
 20
31.6554674174
 11
362.7638906736
 21
31.5909400446
  0
LINE
  8
0
 62
7
  6
CONTINUOUS
 10
362.7638906736
 20
31.2037757623
 11
362.7638906736
 21
31.106984703
  0
LINE
  8
0
 62
7
  6
CONTINUOUS
 10
363.0422717109
 20
32.6198901686
 11
363.0422717109
 21
36.3903819718
  0
LINE
  8
0
 62
7
  6
CONTINUOUS
 10
363.0529530634
 20
31.074720994
 11
363.0529530634
 21
31.1392483894
  0
LINE
  8
0
 62
7
  6
CONTINUOUS
 10
363.3701405634
 20
36.3903819718
 11
363.3701405634
 21
32.6198901686
  0
LINE
  8
0
 62
7
  6
CONTINUOUS
 10
360.1623280082
 20
31.0101936212
 11
360.2201406185
 21
31.1392483894
  0
LINE
  8
0
 62
7
  6
CONTINUOUS
 10
364.5560782839
 20
30.9134025506
 11
364.4982653428
 21
31.074720994
  0
LINE
  8
0
 62
7
  6
CONTINUOUS
 10
364.2092032839
 20
31.5909400446
 11
364.2092032839
 21
31.4941489853
  0
LINE
  8
0
 62
7
  6
CONTINUOUS
 10
364.2092032839
 20
31.3650941944
 11
364.2092032839
 21
31.1715120759
  0
LINE
  8
0
 62
7
  6
CONTINUOUS
 10
364.4982653428
 20
31.074720994
 11
364.4982653428
 21
31.5909400446
  0
LINE
  8
0
 62
7
  6
CONTINUOUS
 10
364.7635831863
 20
32.6198901686
 11
364.7635831863
 21
34.4231688571
  0
LINE
  8
0
 62
7
  6
CONTINUOUS
 10
364.7635831863
 20
35.7346442669
 11
364.7635831863
 21
36.3903819718
  0
LINE
  8
0
 62
7
  6
CONTINUOUS
 10
365.0763907839
 20
32.3330049227
 11
365.0763907839
 21
32.1716864905
  0
LINE
  8
0
 62
7
  6
CONTINUOUS
 10
365.0763907839
 20
31.8490495359
 11
365.0763907839
 21
30.81661148
  0
LINE
  8
0
 62
7
  6
CONTINUOUS
 10
365.3654528428
 20
30.81661148
 11
365.3654528428
 21
31.8490495359
  0
LINE
  8
0
 62
7
  6
CONTINUOUS
 10
365.3654528428
 20
32.1716864905
 11
365.3654528428
 21
32.3330049227
  0
LINE
  8
0
 62
7
  6
CONTINUOUS
 10
359.9310780634
 20
31.1392483894
 11
359.8732656185
 21
31.0424573076
  0
LINE
  8
0
 62
7
  6
CONTINUOUS
 10
362.2435781736
 20
31.623203731
 11
362.1857655634
 21
31.6877311038
  0
LINE
  8
0
 62
7
  6
CONTINUOUS
 10
363.1107656736
 20
31.0101936212
 11
363.0529530634
 21
31.074720994
  0
LINE
  8
0
 62
7
  6
CONTINUOUS
 10
364.2670155634
 20
30.8811388585
 11
364.3248278428
 21
30.81661148
  0
LINE
  8
0
 62
7
  6
CONTINUOUS
 10
364.2092032839
 20
30.9779299347
 11
364.2670155634
 21
30.8811388585
  0
LINE
  8
0
 62
7
  6
CONTINUOUS
 10
364.6138905634
 20
30.81661148
 11
364.5560782839
 21
30.9134025506
  0
LINE
  8
0
 62
7
  6
CONTINUOUS
 10
364.4982653428
 20
31.5909400446
 11
364.4404530634
 21
31.6877311038
  0
LINE
  8
0
 62
7
  6
CONTINUOUS
 10
365.8279530634
 20
31.8490495359
 11
365.8279530634
 21
30.81661148
  0
LINE
  8
0
 62
7
  6
CONTINUOUS
 10
366.1170157839
 20
30.81661148
 11
366.1170157839
 21
31.5586763581
  0
LINE
  8
0
 62
7
  6
CONTINUOUS
 10
366.1170157839
 20
31.6877311038
 11
366.1170157839
 21
31.8490495359
  0
LINE
  8
0
 62
7
  6
CONTINUOUS
 10
366.648829088
 20
34.8330049227
 11
366.648829088
 21
32.6198901686
  0
LINE
  8
0
 62
7
  6
CONTINUOUS
 10
358.5435780634
 20
31.6554674174
 11
358.4279530651
 21
31.5264126717
  0
LINE
  8
0
 62
7
  6
CONTINUOUS
 10
358.7170155634
 20
31.4941489853
 11
358.7748280496
 21
31.5586763581
  0
LINE
  8
0
 62
7
  6
CONTINUOUS
 10
358.5435780634
 20
31.0101936212
 11
358.6592030565
 21
30.945666237
  0
LINE
  8
0
 62
7
  6
CONTINUOUS
 10
358.9482655496
 20
31.0101936212
 11
358.7748280496
 21
31.106984703
  0
LINE
  8
0
 62
7
  6
CONTINUOUS
 10
364.1513903428
 20
31.6554674174
 11
364.2092032839
 21
31.5909400446
  0
LINE
  8
0
 62
7
  6
CONTINUOUS
 10
367.0998278428
 20
31.5909400446
 11
367.1576407839
 21
31.4296216124
  0
LINE
  8
0
 62
7
  6
CONTINUOUS
 10
367.4467028428
 20
31.4296216124
 11
367.3888905634
 21
31.5909400446
  0
LINE
  8
0
 62
7
  6
CONTINUOUS
 10
367.1576407839
 20
31.4296216124
 11
367.1576407839
 21
30.81661148
  0
LINE
  8
0
 62
7
  6
CONTINUOUS
 10
367.4467028428
 20
30.81661148
 11
367.4467028428
 21
31.4296216124
  0
LINE
  8
0
 62
7
  6
CONTINUOUS
 10
367.9092030634
 20
31.6554674174
 11
367.9092030634
 21
31.5909400446
  0
LINE
  8
0
 62
7
  6
CONTINUOUS
 10
368.0422717109
 20
32.6198901686
 11
368.0422717109
 21
34.7510377095
  0
LINE
  8
0
 62
7
  6
CONTINUOUS
 10
368.3701405634
 20
36.3903819718
 11
368.3701405634
 21
32.6198901686
  0
LINE
  8
0
 62
7
  6
CONTINUOUS
 10
363.0529530634
 20
31.1392483894
 11
363.1107656736
 21
31.2360394487
  0
LINE
  8
0
 62
7
  6
CONTINUOUS
 10
358.6592030565
 20
30.945666237
 11
358.8326405772
 21
30.8811388585
  0
LINE
  8
0
 62
7
  6
CONTINUOUS
 10
360.1623280082
 20
31.6554674174
 11
359.9888905082
 21
31.7522584767
  0
LINE
  8
0
 62
7
  6
CONTINUOUS
 10
362.8217029531
 20
30.9779299347
 11
362.9951404531
 21
30.8811388585
  0
LINE
  8
0
 62
7
  6
CONTINUOUS
 10
361.8388905634
 20
31.6554674174
 11
361.9545154531
 21
31.5909400446
  0
LINE
  8
0
 62
7
  6
CONTINUOUS
 10
362.1857655634
 20
31.6877311038
 11
362.0701406736
 21
31.7522584767
  0
LINE
  8
0
 62
7
  6
CONTINUOUS
 10
367.9092030634
 20
31.074720994
 11
368.0248282839
 21
30.945666237
  0
LINE
  8
0
 62
7
  6
CONTINUOUS
 10
368.2560780634
 20
31.0101936212
 11
368.1982657839
 21
31.074720994
  0
LINE
  8
0
 62
7
  6
CONTINUOUS
 10
367.9092030634
 20
31.5909400446
 11
368.0248282839
 21
31.4618852989
  0
LINE
  8
0
 62
7
  6
CONTINUOUS
 10
367.3888905634
 20
31.5909400446
 11
367.3310782839
 21
31.6877311038
  0
LINE
  8
0
 62
7
  6
CONTINUOUS
 10
369.7592026223
 20
31.0101936212
 11
369.7592026223
 21
31.074720994
  0
LINE
  8
0
 62
7
  6
CONTINUOUS
 10
369.7635831863
 20
32.6198901686
 11
369.7635831863
 21
36.3903819718
  0
LINE
  8
0
 62
7
  6
CONTINUOUS
 10
362.8217029531
 20
31.7199947902
 11
362.7638906736
 21
31.6554674174
  0
LINE
  8
0
 62
7
  6
CONTINUOUS
 10
359.6998280358
 20
31.6877311038
 11
359.8732656185
 21
31.623203731
  0
LINE
  8
0
 62
7
  6
CONTINUOUS
 10
364.4404530634
 20
31.6877311038
 11
364.3248278428
 21
31.7522584767
  0
LINE
  8
0
 62
7
  6
CONTINUOUS
 10
368.2560780634
 20
31.5264126717
 11
368.1982657839
 21
31.5909400446
  0
LINE
  8
0
 62
7
  6
CONTINUOUS
 10
369.4123282839
 20
31.1392483894
 11
369.4701405634
 21
31.074720994
  0
LINE
  8
0
 62
7
  6
CONTINUOUS
 10
369.7592026223
 20
31.074720994
 11
369.6435780634
 21
31.2037757623
  0
LINE
  8
0
 62
7
  6
CONTINUOUS
 10
369.4123282839
 20
31.6554674174
 11
369.4701405634
 21
31.5909400446
  0
LINE
  8
0
 62
7
  6
CONTINUOUS
 10
369.7592026223
 20
31.5909400446
 11
369.6435780634
 21
31.7199947902
  0
LINE
  8
0
 62
7
  6
CONTINUOUS
 10
363.0529530634
 20
31.5909400446
 11
363.1107656736
 21
31.6554674174
  0
LINE
  8
0
 62
7
  6
CONTINUOUS
 10
362.8795155634
 20
31.332830508
 11
362.7638906736
 21
31.2037757623
  0
LINE
  8
0
 62
7
  6
CONTINUOUS
 10
364.2092032839
 20
31.1715120759
 11
364.1513903428
 21
31.106984703
  0
LINE
  8
0
 62
7
  6
CONTINUOUS
 10
364.1513903428
 20
30.9134025506
 11
364.2092032839
 21
30.9779299347
  0
LINE
  8
0
 62
7
  6
CONTINUOUS
 10
362.9951404531
 20
30.8811388585
 11
363.1107656736
 21
30.8488751693
  0
LINE
  8
0
 62
7
  6
CONTINUOUS
 10
359.9888905082
 20
31.7522584767
 11
359.7576405634
 21
31.8167858495
  0
LINE
  8
0
 62
7
  6
CONTINUOUS
 10
363.3420154531
 20
30.945666237
 11
363.1107656736
 21
31.0101936212
  0
LINE
  8
0
 62
7
  6
CONTINUOUS
 10
362.0701406736
 20
31.7522584767
 11
361.8967031736
 21
31.8167858495
  0
LINE
  8
0
 62
7
  6
CONTINUOUS
 10
364.3248278428
 20
31.7522584767
 11
364.1513903428
 21
31.8167858495
  0
LINE
  8
0
 62
7
  6
CONTINUOUS
 10
366.9842032839
 20
31.6554674174
 11
367.0998278428
 21
31.5909400446
  0
LINE
  8
0
 62
7
  6
CONTINUOUS
 10
367.3310782839
 20
31.6877311038
 11
367.2154530634
 21
31.7522584767
  0
LINE
  8
0
 62
7
  6
CONTINUOUS
 10
358.8326405772
 20
30.8811388585
 11
359.0060780772
 21
30.8488751693
  0
LINE
  8
0
 62
7
  6
CONTINUOUS
 10
359.2951405909
 20
30.945666237
 11
358.9482655496
 21
31.0101936212
  0
LINE
  8
0
 62
7
  6
CONTINUOUS
 10
361.7232656736
 20
31.6877311038
 11
361.8388905634
 21
31.6554674174
  0
LINE
  8
0
 62
7
  6
CONTINUOUS
 10
364.0357657839
 20
31.6877311038
 11
364.1513903428
 21
31.6554674174
  0
LINE
  8
0
 62
7
  6
CONTINUOUS
 10
368.3717032839
 20
30.9779299347
 11
368.2560780634
 21
31.0101936212
  0
LINE
  8
0
 62
7
  6
CONTINUOUS
 10
366.8685780634
 20
31.6877311038
 11
366.9842032839
 21
31.6554674174
  0
LINE
  8
0
 62
7
  6
CONTINUOUS
 10
368.0248282839
 20
30.945666237
 11
368.1982657839
 21
30.8811388585
  0
LINE
  8
0
 62
7
  6
CONTINUOUS
 10
367.2154530634
 20
31.7522584767
 11
367.0420155634
 21
31.8167858495
  0
LINE
  8
0
 62
7
  6
CONTINUOUS
 10
368.4295155634
 20
31.4618852989
 11
368.2560780634
 21
31.5264126717
  0
LINE
  8
0
 62
7
  6
CONTINUOUS
 10
369.2388907839
 20
31.2037757623
 11
369.4123282839
 21
31.1392483894
  0
LINE
  8
0
 62
7
  6
CONTINUOUS
 10
369.6435780634
 20
31.7199947902
 11
369.4701405634
 21
31.7845221631
  0
LINE
  8
0
 62
7
  6
CONTINUOUS
 10
368.0248282839
 20
31.4618852989
 11
368.2560780634
 21
31.3650941944
  0
LINE
  8
0
 62
7
  6
CONTINUOUS
 10
369.6435780634
 20
31.2037757623
 11
369.4123282839
 21
31.3005668216
  0
LINE
  8
0
 62
7
  6
CONTINUOUS
 10
368.1982657839
 20
31.5909400446
 11
368.2560780634
 21
31.6554674174
  0
LINE
  8
0
 62
7
  6
CONTINUOUS
 10
358.6592030565
 20
31.7199947902
 11
358.5435780634
 21
31.6554674174
  0
LINE
  8
0
 62
7
  6
CONTINUOUS
 10
358.7748280496
 20
31.5586763581
 11
358.9482655496
 21
31.6554674174
  0
LINE
  8
0
 62
7
  6
CONTINUOUS
 10
361.0873281185
 20
31.7522584767
 11
360.9717030634
 21
31.6877311038
  0
LINE
  8
0
 62
7
  6
CONTINUOUS
 10
360.9717030634
 20
31.5586763581
 11
361.0873281185
 21
31.623203731
  0
LINE
  8
0
 62
7
  6
CONTINUOUS
 10
359.9888905082
 20
30.9134025506
 11
360.1623280082
 21
31.0101936212
  0
LINE
  8
0
 62
7
  6
CONTINUOUS
 10
359.0060780772
 20
30.8488751693
 11
359.3529530358
 21
30.81661148
  0
LINE
  8
0
 62
7
  6
CONTINUOUS
 10
363.1107656736
 20
30.8488751693
 11
363.3420154531
 21
30.81661148
  0
LINE
  8
0
 62
7
  6
CONTINUOUS
 10
361.4920155634
 20
31.7199947902
 11
361.7232656736
 21
31.6877311038
  0
LINE
  8
0
 62
7
  6
CONTINUOUS
 10
363.8045156736
 20
31.7199947902
 11
364.0357657839
 21
31.6877311038
  0
LINE
  8
0
 62
7
  6
CONTINUOUS
 10
368.2560780634
 20
31.3650941944
 11
369.2388907839
 21
31.2037757623
  0
LINE
  8
0
 62
7
  6
CONTINUOUS
 10
369.4123282839
 20
31.3005668216
 11
368.4295155634
 21
31.4618852989
  0
LINE
  8
0
 62
7
  6
CONTINUOUS
 10
361.8967031736
 20
31.8167858495
 11
361.7232656736
 21
31.8490495359
  0
LINE
  8
0
 62
7
  6
CONTINUOUS
 10
368.1982657839
 20
30.8811388585
 11
368.3717032839
 21
30.8488751693
  0
LINE
  8
0
 62
7
  6
CONTINUOUS
 10
367.0420155634
 20
31.8167858495
 11
366.8685780634
 21
31.8490495359
  0
LINE
  8
0
 62
7
  6
CONTINUOUS
 10
369.2967030634
 20
31.6877311038
 11
369.4123282839
 21
31.6554674174
  0
LINE
  8
0
 62
7
  6
CONTINUOUS
 10
369.4701405634
 20
31.074720994
 11
369.4123282839
 21
31.0101936212
  0
LINE
  8
0
 62
7
  6
CONTINUOUS
 10
368.0248282839
 20
31.7522584767
 11
367.9092030634
 21
31.6554674174
  0
LINE
  8
0
 62
7
  6
CONTINUOUS
 10
362.9373281736
 20
31.7845221631
 11
362.8217029531
 21
31.7199947902
  0
LINE
  8
0
 62
7
  6
CONTINUOUS
 10
362.9951404531
 20
31.397357926
 11
362.8795155634
 21
31.332830508
  0
LINE
  8
0
 62
7
  6
CONTINUOUS
 10
363.1107656736
 20
31.2360394487
 11
363.2263905634
 21
31.3005668216
  0
LINE
  8
0
 62
7
  6
CONTINUOUS
 10
360.6826405082
 20
30.81661148
 11
360.9717030634
 21
30.81661148
  0
LINE
  8
0
 62
7
  6
CONTINUOUS
 10
362.0123280634
 20
30.81661148
 11
362.3013904531
 21
30.81661148
  0
LINE
  8
0
 62
7
  6
CONTINUOUS
 10
363.3420154531
 20
30.81661148
 11
363.6888904531
 21
30.81661148
  0
LINE
  8
0
 62
7
  6
CONTINUOUS
 10
364.3248278428
 20
30.81661148
 11
364.6138905634
 21
30.81661148
  0
LINE
  8
0
 62
7
  6
CONTINUOUS
 10
365.0763907839
 20
30.81661148
 11
365.3654528428
 21
30.81661148
  0
LINE
  8
0
 62
7
  6
CONTINUOUS
 10
365.8279530634
 20
30.81661148
 11
366.1170157839
 21
30.81661148
  0
LINE
  8
0
 62
7
  6
CONTINUOUS
 10
367.1576407839
 20
30.81661148
 11
367.4467028428
 21
30.81661148
  0
LINE
  8
0
 62
7
  6
CONTINUOUS
 10
368.7185782839
 20
30.81661148
 11
369.0654532839
 21
30.81661148
  0
LINE
  8
0
 62
7
  6
CONTINUOUS
 10
369.0654532839
 20
30.945666237
 11
368.7185782839
 21
30.945666237
  0
LINE
  8
0
 62
7
  6
CONTINUOUS
 10
363.6888904531
 20
30.945666237
 11
363.3420154531
 21
30.945666237
  0
LINE
  8
0
 62
7
  6
CONTINUOUS
 10
368.1982657839
 20
31.074720994
 11
367.9092030634
 21
31.074720994
  0
LINE
  8
0
 62
7
  6
CONTINUOUS
 10
360.2201406185
 20
31.1392483894
 11
359.9310780634
 21
31.1392483894
  0
LINE
  8
0
 62
7
  6
CONTINUOUS
 10
359.2951405909
 20
31.7199947902
 11
359.6998280358
 21
31.6877311038
  0
LINE
  8
0
 62
7
  6
CONTINUOUS
 10
359.7576405634
 20
31.8167858495
 11
359.3529530358
 21
31.8490495359
  0
LINE
  8
0
 62
7
  6
CONTINUOUS
 10
368.3717032839
 20
30.8488751693
 11
368.7185782839
 21
30.81661148
  0
LINE
  8
0
 62
7
  6
CONTINUOUS
 10
368.7185782839
 20
30.945666237
 11
368.3717032839
 21
30.9779299347
  0
LINE
  8
0
 62
7
  6
CONTINUOUS
 10
364.1513903428
 20
31.8167858495
 11
363.8045156736
 21
31.8490495359
  0
LINE
  8
0
 62
7
  6
CONTINUOUS
 10
368.9498280634
 20
31.7199947902
 11
369.2967030634
 21
31.6877311038
  0
LINE
  8
0
 62
7
  6
CONTINUOUS
 10
369.2967030634
 20
31.8167858495
 11
368.9498280634
 21
31.8490495359
  0
LINE
  8
0
 62
7
  6
CONTINUOUS
 10
366.6373282839
 20
31.7199947902
 11
366.8685780634
 21
31.6877311038
  0
LINE
  8
0
 62
7
  6
CONTINUOUS
 10
369.4701405634
 20
31.7845221631
 11
369.2967030634
 21
31.8167858495
  0
LINE
  8
0
 62
7
  6
CONTINUOUS
 10
369.6435780634
 20
30.9134025506
 11
369.7592026223
 21
31.0101936212
  0
LINE
  8
0
 62
7
  6
CONTINUOUS
 10
364.1513903428
 20
31.106984703
 11
363.9779528428
 21
31.0101936212
  0
LINE
  8
0
 62
7
  6
CONTINUOUS
 10
366.2326403428
 20
31.7522584767
 11
366.1170157839
 21
31.6877311038
  0
LINE
  8
0
 62
7
  6
CONTINUOUS
 10
366.1170157839
 20
31.5586763581
 11
366.2326403428
 21
31.623203731
  0
LINE
  8
0
 62
7
  6
CONTINUOUS
 10
358.8326405772
 20
31.7845221631
 11
358.6592030565
 21
31.7199947902
  0
LINE
  8
0
 62
7
  6
CONTINUOUS
 10
361.2607654531
 20
31.8167858495
 11
361.0873281185
 21
31.7522584767
  0
LINE
  8
0
 62
7
  6
CONTINUOUS
 10
361.0873281185
 20
31.623203731
 11
361.2607654531
 21
31.6877311038
  0
LINE
  8
0
 62
7
  6
CONTINUOUS
 10
359.8732656185
 20
31.0424573076
 11
359.6998280358
 21
30.9779299347
  0
LINE
  8
0
 62
7
  6
CONTINUOUS
 10
369.2967030634
 20
30.9779299347
 11
369.0654532839
 21
30.945666237
  0
LINE
  8
0
 62
7
  6
CONTINUOUS
 10
363.6888904531
 20
30.81661148
 11
363.9779528428
 21
30.8488751693
  0
LINE
  8
0
 62
7
  6
CONTINUOUS
 10
369.0654532839
 20
30.81661148
 11
369.4123282839
 21
30.8488751693
  0
LINE
  8
0
 62
7
  6
CONTINUOUS
 10
359.3529530358
 20
30.81661148
 11
359.7576405634
 21
30.8488751693
  0
LINE
  8
0
 62
7
  6
CONTINUOUS
 10
359.6998280358
 20
30.9779299347
 11
359.2951405909
 21
30.945666237
  0
LINE
  8
0
 62
7
  6
CONTINUOUS
 10
363.5732655634
 20
31.3650941944
 11
364.2092032839
 21
31.3650941944
  0
LINE
  8
0
 62
7
  6
CONTINUOUS
 10
364.2092032839
 20
31.4941489853
 11
363.5732655634
 21
31.4941489853
  0
LINE
  8
0
 62
7
  6
CONTINUOUS
 10
359.9310780634
 20
31.5264126717
 11
360.2201406185
 21
31.5264126717
  0
LINE
  8
0
 62
7
  6
CONTINUOUS
 10
362.7638906736
 20
31.5909400446
 11
363.0529530634
 21
31.5909400446
  0
LINE
  8
0
 62
7
  6
CONTINUOUS
 10
369.4701405634
 20
31.5909400446
 11
369.7592026223
 21
31.5909400446
  0
LINE
  8
0
 62
7
  6
CONTINUOUS
 10
363.4576406736
 20
31.7199947902
 11
363.8045156736
 21
31.7199947902
  0
LINE
  8
0
 62
7
  6
CONTINUOUS
 10
368.6029530634
 20
31.7199947902
 11
368.9498280634
 21
31.7199947902
  0
LINE
  8
0
 62
7
  6
CONTINUOUS
 10
368.9498280634
 20
31.8490495359
 11
368.6029530634
 21
31.8490495359
  0
LINE
  8
0
 62
7
  6
CONTINUOUS
 10
366.8685780634
 20
31.8490495359
 11
366.6373282839
 21
31.8490495359
  0
LINE
  8
0
 62
7
  6
CONTINUOUS
 10
366.1170157839
 20
31.8490495359
 11
365.8279530634
 21
31.8490495359
  0
LINE
  8
0
 62
7
  6
CONTINUOUS
 10
365.3654528428
 20
31.8490495359
 11
365.0763907839
 21
31.8490495359
  0
LINE
  8
0
 62
7
  6
CONTINUOUS
 10
363.8045156736
 20
31.8490495359
 11
363.4576406736
 21
31.8490495359
  0
LINE
  8
0
 62
7
  6
CONTINUOUS
 10
361.7232656736
 20
31.8490495359
 11
361.4920155634
 21
31.8490495359
  0
LINE
  8
0
 62
7
  6
CONTINUOUS
 10
365.0763907839
 20
32.1716864905
 11
365.3654528428
 21
32.1716864905
  0
LINE
  8
0
 62
7
  6
CONTINUOUS
 10
365.3654528428
 20
32.3330049227
 11
365.0763907839
 21
32.3330049227
  0
LINE
  8
0
 62
7
  6
CONTINUOUS
 10
360.9717030634
 20
32.3330049227
 11
360.6826405082
 21
32.3330049227
  0
LINE
  8
0
 62
7
  6
CONTINUOUS
 10
360.0094848257
 20
32.6198901686
 11
360.4220561743
 21
32.6198901686
  0
LINE
  8
0
 62
7
  6
CONTINUOUS
 10
361.648829088
 20
32.6198901686
 11
363.0422717109
 21
32.6198901686
  0
LINE
  8
0
 62
7
  6
CONTINUOUS
 10
363.3701405634
 20
32.6198901686
 11
364.7635831863
 21
32.6198901686
  0
LINE
  8
0
 62
7
  6
CONTINUOUS
 10
366.648829088
 20
32.6198901686
 11
368.0422717109
 21
32.6198901686
  0
LINE
  8
0
 62
7
  6
CONTINUOUS
 10
368.3701405634
 20
32.6198901686
 11
369.7635831863
 21
32.6198901686
  0
LINE
  8
0
 62
7
  6
CONTINUOUS
 10
366.4060778428
 20
31.8167858495
 11
366.2326403428
 21
31.7522584767
  0
LINE
  8
0
 62
7
  6
CONTINUOUS
 10
363.9779528428
 20
30.8488751693
 11
364.1513903428
 21
30.9134025506
  0
LINE
  8
0
 62
7
  6
CONTINUOUS
 10
369.4123282839
 20
30.8488751693
 11
369.6435780634
 21
30.9134025506
  0
LINE
  8
0
 62
7
  6
CONTINUOUS
 10
369.4123282839
 20
31.0101936212
 11
369.2967030634
 21
30.9779299347
  0
LINE
  8
0
 62
7
  6
CONTINUOUS
 10
368.3717032839
 20
31.6877311038
 11
368.6029530634
 21
31.7199947902
  0
LINE
  8
0
 62
7
  6
CONTINUOUS
 10
366.4060778428
 20
31.6877311038
 11
366.6373282839
 21
31.7199947902
  0
LINE
  8
0
 62
7
  6
CONTINUOUS
 10
363.3420154531
 20
31.332830508
 11
363.5732655634
 21
31.3650941944
  0
LINE
  8
0
 62
7
  6
CONTINUOUS
 10
366.6373282839
 20
31.8490495359
 11
366.4060778428
 21
31.8167858495
  0
LINE
  8
0
 62
7
  6
CONTINUOUS
 10
363.2263905634
 20
31.6877311038
 11
363.4576406736
 21
31.7199947902
  0
LINE
  8
0
 62
7
  6
CONTINUOUS
 10
368.6029530634
 20
31.8490495359
 11
368.2560780634
 21
31.8167858495
  0
LINE
  8
0
 62
7
  6
CONTINUOUS
 10
363.5732655634
 20
31.4941489853
 11
363.2263905634
 21
31.4618852989
  0
LINE
  8
0
 62
7
  6
CONTINUOUS
 10
359.3529530358
 20
31.8490495359
 11
359.0060780772
 21
31.8167858495
  0
LINE
  8
0
 62
7
  6
CONTINUOUS
 10
363.4576406736
 20
31.8490495359
 11
363.0529530634
 21
31.8167858495
  0
LINE
  8
0
 62
7
  6
CONTINUOUS
 10
360.8291569568
 20
33.7674311522
 11
360.1734192519
 21
33.7674311522
  0
LINE
  8
0
 62
7
  6
CONTINUOUS
 10
366.2326403428
 20
31.623203731
 11
366.4060778428
 21
31.6877311038
  0
LINE
  8
0
 62
7
  6
CONTINUOUS
 10
368.2560780634
 20
31.6554674174
 11
368.3717032839
 21
31.6877311038
  0
LINE
  8
0
 62
7
  6
CONTINUOUS
 10
368.2560780634
 20
31.8167858495
 11
368.0248282839
 21
31.7522584767
  0
LINE
  8
0
 62
7
  6
CONTINUOUS
 10
363.9779528428
 20
31.0101936212
 11
363.6888904531
 21
30.945666237
  0
LINE
  8
0
 62
7
  6
CONTINUOUS
 10
361.2607654531
 20
31.6877311038
 11
361.4920155634
 21
31.7199947902
  0
LINE
  8
0
 62
7
  6
CONTINUOUS
 10
361.4920155634
 20
31.8490495359
 11
361.2607654531
 21
31.8167858495
  0
LINE
  8
0
 62
7
  6
CONTINUOUS
 10
359.0638905634
 20
31.6877311038
 11
359.2951405909
 21
31.7199947902
  0
LINE
  8
0
 62
7
  6
CONTINUOUS
 10
365.5832553175
 20
35.2428409882
 11
366.2389930224
 21
35.2428409882
  0
LINE
  8
0
 62
7
  6
CONTINUOUS
 10
363.2263905634
 20
31.3005668216
 11
363.3420154531
 21
31.332830508
  0
LINE
  8
0
 62
7
  6
CONTINUOUS
 10
363.2263905634
 20
31.4618852989
 11
362.9951404531
 21
31.397357926
  0
LINE
  8
0
 62
7
  6
CONTINUOUS
 10
363.1107656736
 20
31.6554674174
 11
363.2263905634
 21
31.6877311038
  0
LINE
  8
0
 62
7
  6
CONTINUOUS
 10
359.7576405634
 20
30.8488751693
 11
359.9888905082
 21
30.9134025506
  0
LINE
  8
0
 62
7
  6
CONTINUOUS
 10
363.0529530634
 20
31.8167858495
 11
362.9373281736
 21
31.7845221631
  0
LINE
  8
0
 62
7
  6
CONTINUOUS
 10
359.0060780772
 20
31.8167858495
 11
358.8326405772
 21
31.7845221631
  0
LINE
  8
0
 62
7
  6
CONTINUOUS
 10
369.7635831863
 20
36.3903819718
 11
368.3701405634
 21
36.3903819718
  0
LINE
  8
0
 62
7
  6
CONTINUOUS
 10
366.4029274486
 20
36.3903819718
 11
365.9903561
 21
36.3903819718
  0
LINE
  8
0
 62
7
  6
CONTINUOUS
 10
364.7635831863
 20
36.3903819718
 11
363.3701405634
 21
36.3903819718
  0
LINE
  8
0
 62
7
  6
CONTINUOUS
 10
363.0422717109
 20
36.3903819718
 11
361.648829088
 21
36.3903819718
  0
LINE
  8
0
 62
7
  6
CONTINUOUS
 10
359.7635831863
 20
36.3903819718
 11
358.3701405634
 21
36.3903819718
  0
LINE
  8
0
 62
7
  6
CONTINUOUS
 10
358.9482655496
 20
31.6554674174
 11
359.0638905634
 21
31.6877311038
  0
CIRCLE
  8
0
 62
7
  6
CONTINUOUS
 10
369.0668618749
 20
38.7264475456
 40
2.0901639344
  0
ARC
  8
0
 62
7
  6
CONTINUOUS
 10
360.0094848257
 20
34.2592344308
 40
1.6393442623
 50
180.0
 51
270.0
  0
ARC
  8
0
 62
7
  6
CONTINUOUS
 10
366.4029274486
 20
34.7510377095
 40
1.6393442623
 50
0.0
 51
90.0
  0
ARC
  8
0
 62
7
  6
CONTINUOUS
 10
360.4220561743
 20
34.0953000046
 40
1.4754098361
 50
270.0
 51
326.2510114041
  0
ARC
  8
0
 62
7
  6
CONTINUOUS
 10
365.9903561
 20
34.9149721358
 40
1.4754098361
 50
90.0
 51
146.2510114041
  0
ARC
  8
0
 62
7
  6
CONTINUOUS
 10
360.8291569568
 20
34.5871032833
 40
0.8196721311
 50
270.0
 51
360.0
  0
ARC
  8
0
 62
7
  6
CONTINUOUS
 10
365.5832553175
 20
34.4231688571
 40
0.8196721311
 50
90.0
 51
180.0
  0
ARC
  8
0
 62
7
  6
CONTINUOUS
 10
360.1734192519
 20
34.1772672177
 40
0.4098360656
 50
180.0
 51
270.0
  0
ARC
  8
0
 62
7
  6
CONTINUOUS
 10
366.2389930224
 20
34.8330049227
 40
0.4098360656
 50
0.0
 51
90.0
  0
SOLID
  8
0
 62
7
  6
CONTINUOUS
 10
365.0763907839
 20
32.1716868508
 11
365.0763907839
 21
32.3330053344
 12
365.3654528428
 22
32.1716868508
 13
365.3654528428
 23
32.3330053344
  0
SOLID
  8
0
 62
7
  6
CONTINUOUS
 10
359.3529530358
 20
31.8490498836
 11
359.7576405634
 21
31.8167854792
 12
359.0060780772
 22
31.8167854792
 13
359.0060780772
 23
31.8167854792
  0
SOLID
  8
0
 62
7
  6
CONTINUOUS
 10
358.8326405772
 20
31.7845227934
 11
359.0060780772
 21
31.8167854792
 12
359.7576405634
 22
31.8167854792
 13
359.7576405634
 23
31.8167854792
  0
SOLID
  8
0
 62
7
  6
CONTINUOUS
 10
359.7576405634
 20
31.8167854792
 11
359.9888905082
 21
31.7522584901
 12
358.8326405772
 22
31.7845227934
 13
358.8326405772
 23
31.7845227934
  0
SOLID
  8
0
 62
7
  6
CONTINUOUS
 10
358.6592030565
 20
31.7199940664
 11
358.8326405772
 21
31.7845227934
 12
359.9888905082
 22
31.7522584901
 13
359.9888905082
 23
31.7522584901
  0
SOLID
  8
0
 62
7
  6
CONTINUOUS
 10
358.6592030565
 20
31.7199940664
 11
359.9888905082
 21
31.7522584901
 12
359.2951405909
 22
31.7199940664
 13
359.2951405909
 23
31.7199940664
  0
SOLID
  8
0
 62
7
  6
CONTINUOUS
 10
359.2951405909
 20
31.7199940664
 11
359.9888905082
 21
31.7522584901
 12
359.6998280358
 22
31.6877314
 13
359.6998280358
 23
31.6877314
  0
SOLID
  8
0
 62
7
  6
CONTINUOUS
 10
359.9888905082
 20
31.7522584901
 11
360.1623280082
 21
31.6554670967
 12
359.6998280358
 22
31.6877314
 13
359.6998280358
 23
31.6877314
  0
SOLID
  8
0
 62
7
  6
CONTINUOUS
 10
359.8732656185
 20
31.6232043098
 11
359.6998280358
 21
31.6877314
 12
360.1623280082
 22
31.6554670967
 13
360.1623280082
 23
31.6554670967
  0
SOLID
  8
0
 62
7
  6
CONTINUOUS
 10
359.8732656185
 20
31.6232043098
 11
360.1623280082
 21
31.6554670967
 12
359.9310780634
 22
31.5264128539
 13
359.9310780634
 23
31.5264128539
  0
SOLID
  8
0
 62
7
  6
CONTINUOUS
 10
360.1623280082
 20
31.6554670967
 11
360.2201406185
 21
31.5264128539
 12
359.9310780634
 22
31.5264128539
 13
359.9310780634
 23
31.5264128539
  0
SOLID
  8
0
 62
7
  6
CONTINUOUS
 10
361.2607654531
 20
31.8167852459
 11
361.4920155634
 21
31.8490495492
 12
361.7232656736
 22
31.8490495492
 13
361.7232656736
 23
31.8490495492
  0
SOLID
  8
0
 62
7
  6
CONTINUOUS
 10
361.7232656736
 20
31.8490495492
 11
361.8967031736
 21
31.8167852459
 12
361.2607654531
 22
31.8167852459
 13
361.2607654531
 23
31.8167852459
  0
SOLID
  8
0
 62
7
  6
CONTINUOUS
 10
361.0873281185
 20
31.7522581557
 11
361.2607654531
 21
31.8167852459
 12
361.8967031736
 22
31.8167852459
 13
361.8967031736
 23
31.8167852459
  0
SOLID
  8
0
 62
7
  6
CONTINUOUS
 10
361.8967031736
 20
31.8167852459
 11
362.0701406736
 21
31.7522581557
 12
361.0873281185
 22
31.7522581557
 13
361.0873281185
 23
31.7522581557
  0
SOLID
  8
0
 62
7
  6
CONTINUOUS
 10
362.0701406736
 20
31.7522581557
 11
361.4920155634
 21
31.7199941869
 12
361.0873281185
 22
31.7522581557
 13
361.0873281185
 23
31.7522581557
  0
SOLID
  8
0
 62
7
  6
CONTINUOUS
 10
360.9717030634
 20
31.6877310656
 11
361.0873281185
 21
31.7522581557
 12
361.4920155634
 22
31.7199941869
 13
361.4920155634
 23
31.7199941869
  0
SOLID
  8
0
 62
7
  6
CONTINUOUS
 10
361.4920155634
 20
31.7199941869
 11
361.2607654531
 21
31.6877310656
 12
360.9717030634
 22
31.6877310656
 13
360.9717030634
 23
31.6877310656
  0
SOLID
  8
0
 62
7
  6
CONTINUOUS
 10
361.4920155634
 20
31.7199941869
 11
362.0701406736
 21
31.7522581557
 12
361.7232656736
 22
31.6877310656
 13
361.7232656736
 23
31.6877310656
  0
SOLID
  8
0
 62
7
  6
CONTINUOUS
 10
362.0701406736
 20
31.7522581557
 11
362.1857655634
 21
31.6877310656
 12
361.7232656736
 22
31.6877310656
 13
361.7232656736
 23
31.6877310656
  0
SOLID
  8
0
 62
7
  6
CONTINUOUS
 10
361.8388905634
 20
31.6554670967
 11
361.7232656736
 21
31.6877310656
 12
362.1857655634
 22
31.6877310656
 13
362.1857655634
 23
31.6877310656
  0
SOLID
  8
0
 62
7
  6
CONTINUOUS
 10
362.1857655634
 20
31.6877310656
 11
362.2435781736
 21
31.6232039754
 12
361.8388905634
 22
31.6554670967
 13
361.8388905634
 23
31.6554670967
  0
SOLID
  8
0
 62
7
  6
CONTINUOUS
 10
361.9545154531
 20
31.5909400065
 11
361.8388905634
 21
31.6554670967
 12
362.2435781736
 22
31.6232039754
 13
362.2435781736
 23
31.6232039754
  0
SOLID
  8
0
 62
7
  6
CONTINUOUS
 10
361.9545154531
 20
31.5909400065
 11
362.2435781736
 21
31.6232039754
 12
362.0123280634
 22
31.4618854918
 13
362.0123280634
 23
31.4618854918
  0
SOLID
  8
0
 62
7
  6
CONTINUOUS
 10
362.2435781736
 20
31.6232039754
 11
362.3013904531
 21
31.4618854918
 12
362.0123280634
 22
31.4618854918
 13
362.0123280634
 23
31.4618854918
  0
SOLID
  8
0
 62
7
  6
CONTINUOUS
 10
361.2607654531
 20
31.6877310656
 11
361.0873281185
 21
31.6232039754
 12
360.9717030634
 22
31.6877310656
 13
360.9717030634
 23
31.6877310656
  0
SOLID
  8
0
 62
7
  6
CONTINUOUS
 10
361.0873281185
 20
31.6232039754
 11
360.9717030634
 21
31.5586757033
 12
360.9717030634
 22
31.6877310656
 13
360.9717030634
 23
31.6877310656
  0
SOLID
  8
0
 62
7
  6
CONTINUOUS
 10
360.9717030634
 20
31.5586757033
 11
360.6826405082
 21
30.8166115574
 12
360.9717030634
 22
31.6877310656
 13
360.9717030634
 23
31.6877310656
  0
SOLID
  8
0
 62
7
  6
CONTINUOUS
 10
360.9717030634
 20
31.6877310656
 11
360.6826405082
 21
30.8166115574
 12
360.9717030634
 22
32.333005
 13
360.9717030634
 23
32.333005
  0
SOLID
  8
0
 62
7
  6
CONTINUOUS
 10
360.6826405082
 20
30.8166115574
 11
360.6826405082
 21
32.333005
 12
360.9717030634
 22
32.333005
 13
360.9717030634
 23
32.333005
  0
SOLID
  8
0
 62
7
  6
CONTINUOUS
 10
360.9717030634
 20
31.5586757033
 11
360.9717030634
 21
30.8166115574
 12
360.6826405082
 22
30.8166115574
 13
360.6826405082
 23
30.8166115574
  0
SOLID
  8
0
 62
7
  6
CONTINUOUS
 10
362.0123280634
 20
30.8166115574
 11
362.0123280634
 21
31.4618854918
 12
362.3013904531
 22
31.4618854918
 13
362.3013904531
 23
31.4618854918
  0
SOLID
  8
0
 62
7
  6
CONTINUOUS
 10
362.3013904531
 20
31.4618854918
 11
362.3013904531
 21
30.8166115574
 12
362.0123280634
 22
30.8166115574
 13
362.0123280634
 23
30.8166115574
  0
SOLID
  8
0
 62
7
  6
CONTINUOUS
 10
363.0529530634
 20
31.8167856315
 11
363.4576406736
 21
31.8490496243
 12
363.8045156736
 22
31.8490496243
 13
363.8045156736
 23
31.8490496243
  0
SOLID
  8
0
 62
7
  6
CONTINUOUS
 10
363.8045156736
 20
31.8490496243
 11
364.1513903428
 21
31.8167856315
 12
363.0529530634
 22
31.8167856315
 13
363.0529530634
 23
31.8167856315
  0
SOLID
  8
0
 62
7
  6
CONTINUOUS
 10
362.9373281736
 20
31.7845227934
 11
363.0529530634
 21
31.8167856315
 12
364.1513903428
 22
31.8167856315
 13
364.1513903428
 23
31.8167856315
  0
SOLID
  8
0
 62
7
  6
CONTINUOUS
 10
364.1513903428
 20
31.8167856315
 11
364.3248278428
 21
31.7522584901
 12
362.9373281736
 22
31.7845227934
 13
362.9373281736
 23
31.7845227934
  0
SOLID
  8
0
 62
7
  6
CONTINUOUS
 10
362.8217029531
 20
31.7199944276
 11
362.9373281736
 21
31.7845227934
 12
364.3248278428
 22
31.7522584901
 13
364.3248278428
 23
31.7522584901
  0
SOLID
  8
0
 62
7
  6
CONTINUOUS
 10
362.8217029531
 20
31.7199944276
 11
364.3248278428
 21
31.7522584901
 12
363.4576406736
 22
31.7199944276
 13
363.4576406736
 23
31.7199944276
  0
SOLID
  8
0
 62
7
  6
CONTINUOUS
 10
363.4576406736
 20
31.7199944276
 11
364.3248278428
 21
31.7522584901
 12
363.8045156736
 22
31.7199944276
 13
363.8045156736
 23
31.7199944276
  0
SOLID
  8
0
 62
7
  6
CONTINUOUS
 10
363.8045156736
 20
31.7199944276
 11
364.3248278428
 21
31.7522584901
 12
364.0357657839
 22
31.6877312092
 13
364.0357657839
 23
31.6877312092
  0
SOLID
  8
0
 62
7
  6
CONTINUOUS
 10
364.3248278428
 20
31.7522584901
 11
364.4404530634
 21
31.6877312092
 12
364.0357657839
 22
31.6877312092
 13
364.0357657839
 23
31.6877312092
  0
SOLID
  8
0
 62
7
  6
CONTINUOUS
 10
362.7638906736
 20
31.6554672165
 11
362.8217029531
 21
31.7199944276
 12
363.4576406736
 22
31.7199944276
 13
363.4576406736
 23
31.7199944276
  0
SOLID
  8
0
 62
7
  6
CONTINUOUS
 10
364.1513903428
 20
31.6554672165
 11
364.0357657839
 21
31.6877312092
 12
364.4404530634
 22
31.6877312092
 13
364.4404530634
 23
31.6877312092
  0
SOLID
  8
0
 62
7
  6
CONTINUOUS
 10
364.1513903428
 20
31.6554672165
 11
364.4404530634
 21
31.6877312092
 12
364.2092032839
 22
31.5909400053
 13
364.2092032839
 23
31.5909400053
  0
SOLID
  8
0
 62
7
  6
CONTINUOUS
 10
364.4404530634
 20
31.6877312092
 11
364.4982653428
 21
31.5909400053
 12
364.2092032839
 22
31.5909400053
 13
364.2092032839
 23
31.5909400053
  0
SOLID
  8
0
 62
7
  6
CONTINUOUS
 10
364.2092032839
 20
31.4941486131
 11
364.2092032839
 21
31.5909400053
 12
364.4982653428
 22
31.5909400053
 13
364.4982653428
 23
31.5909400053
  0
SOLID
  8
0
 62
7
  6
CONTINUOUS
 10
364.2092032839
 20
31.4941486131
 11
364.4982653428
 21
31.5909400053
 12
364.2092032839
 22
31.3650944328
 13
364.2092032839
 23
31.3650944328
  0
SOLID
  8
0
 62
7
  6
CONTINUOUS
 10
364.2092032839
 20
31.3650944328
 11
364.4982653428
 21
31.5909400053
 12
364.2092032839
 22
31.1715120759
 13
364.2092032839
 23
31.1715120759
  0
SOLID
  8
0
 62
7
  6
CONTINUOUS
 10
364.4982653428
 20
31.5909400053
 11
364.4982653428
 21
31.0747202524
 12
364.2092032839
 22
31.1715120759
 13
364.2092032839
 23
31.1715120759
  0
SOLID
  8
0
 62
7
  6
CONTINUOUS
 10
366.4060778428
 20
31.8167851023
 11
366.6373282839
 21
31.849049822
 12
366.8685780634
 22
31.849049822
 13
366.8685780634
 23
31.849049822
  0
SOLID
  8
0
 62
7
  6
CONTINUOUS
 10
366.8685780634
 20
31.849049822
 11
367.0420155634
 21
31.8167851023
 12
366.4060778428
 22
31.8167851023
 13
366.4060778428
 23
31.8167851023
  0
SOLID
  8
0
 62
7
  6
CONTINUOUS
 10
366.2326403428
 20
31.7522587602
 11
366.4060778428
 21
31.8167851023
 12
367.0420155634
 22
31.8167851023
 13
367.0420155634
 23
31.8167851023
  0
SOLID
  8
0
 62
7
  6
CONTINUOUS
 10
367.0420155634
 20
31.8167851023
 11
367.2154530634
 21
31.7522587602
 12
366.2326403428
 22
31.7522587602
 13
366.2326403428
 23
31.7522587602
  0
SOLID
  8
0
 62
7
  6
CONTINUOUS
 10
367.2154530634
 20
31.7522587602
 11
366.6373282839
 21
31.7199941869
 12
366.2326403428
 22
31.7522587602
 13
366.2326403428
 23
31.7522587602
  0
SOLID
  8
0
 62
7
  6
CONTINUOUS
 10
366.1170157839
 20
31.6877313857
 11
366.2326403428
 21
31.7522587602
 12
366.6373282839
 22
31.7199941869
 13
366.6373282839
 23
31.7199941869
  0
SOLID
  8
0
 62
7
  6
CONTINUOUS
 10
366.6373282839
 20
31.7199941869
 11
366.4060778428
 21
31.6877313857
 12
366.1170157839
 22
31.6877313857
 13
366.1170157839
 23
31.6877313857
  0
SOLID
  8
0
 62
7
  6
CONTINUOUS
 10
366.6373282839
 20
31.7199941869
 11
367.2154530634
 21
31.7522587602
 12
366.8685780634
 22
31.6877313857
 13
366.8685780634
 23
31.6877313857
  0
SOLID
  8
0
 62
7
  6
CONTINUOUS
 10
367.2154530634
 20
31.7522587602
 11
367.3310782839
 21
31.6877313857
 12
366.8685780634
 22
31.6877313857
 13
366.8685780634
 23
31.6877313857
  0
SOLID
  8
0
 62
7
  6
CONTINUOUS
 10
366.9842032839
 20
31.6554670967
 11
366.8685780634
 21
31.6877313857
 12
367.3310782839
 22
31.6877313857
 13
367.3310782839
 23
31.6877313857
  0
SOLID
  8
0
 62
7
  6
CONTINUOUS
 10
366.9842032839
 20
31.6554670967
 11
367.3310782839
 21
31.6877313857
 12
367.0998278428
 22
31.590940324
 13
367.0998278428
 23
31.590940324
  0
SOLID
  8
0
 62
7
  6
CONTINUOUS
 10
367.3310782839
 20
31.6877313857
 11
367.3888905634
 21
31.590940324
 12
367.0998278428
 22
31.590940324
 13
367.0998278428
 23
31.590940324
  0
SOLID
  8
0
 62
7
  6
CONTINUOUS
 10
367.1576407839
 20
31.4296218878
 11
367.0998278428
 21
31.590940324
 12
367.3888905634
 22
31.590940324
 13
367.3888905634
 23
31.590940324
  0
SOLID
  8
0
 62
7
  6
CONTINUOUS
 10
367.3888905634
 20
31.590940324
 11
367.4467028428
 21
31.4296218878
 12
367.1576407839
 22
31.4296218878
 13
367.1576407839
 23
31.4296218878
  0
SOLID
  8
0
 62
7
  6
CONTINUOUS
 10
366.4060778428
 20
31.6877313857
 11
366.2326403428
 21
31.6232043098
 12
366.1170157839
 22
31.6877313857
 13
366.1170157839
 23
31.6877313857
  0
SOLID
  8
0
 62
7
  6
CONTINUOUS
 10
366.2326403428
 20
31.6232043098
 11
366.1170157839
 21
31.5586757033
 12
366.1170157839
 22
31.6877313857
 13
366.1170157839
 23
31.6877313857
  0
SOLID
  8
0
 62
7
  6
CONTINUOUS
 10
366.1170157839
 20
31.5586757033
 11
365.8279530634
 21
30.8166118302
 12
366.1170157839
 22
31.6877313857
 13
366.1170157839
 23
31.6877313857
  0
SOLID
  8
0
 62
7
  6
CONTINUOUS
 10
366.1170157839
 20
31.6877313857
 11
365.8279530634
 21
30.8166118302
 12
366.1170157839
 22
31.849049822
 13
366.1170157839
 23
31.849049822
  0
SOLID
  8
0
 62
7
  6
CONTINUOUS
 10
365.8279530634
 20
30.8166118302
 11
365.8279530634
 21
31.849049822
 12
366.1170157839
 22
31.849049822
 13
366.1170157839
 23
31.849049822
  0
SOLID
  8
0
 62
7
  6
CONTINUOUS
 10
366.1170157839
 20
31.5586757033
 11
366.1170157839
 21
30.8166118302
 12
365.8279530634
 22
30.8166118302
 13
365.8279530634
 23
30.8166118302
  0
SOLID
  8
0
 62
7
  6
CONTINUOUS
 10
367.1576407839
 20
30.8166118302
 11
367.1576407839
 21
31.4296218878
 12
367.4467028428
 22
31.4296218878
 13
367.4467028428
 23
31.4296218878
  0
SOLID
  8
0
 62
7
  6
CONTINUOUS
 10
367.4467028428
 20
31.4296218878
 11
367.4467028428
 21
30.8166118302
 12
367.1576407839
 22
30.8166118302
 13
367.1576407839
 23
30.8166118302
  0
SOLID
  8
0
 62
7
  6
CONTINUOUS
 10
368.2560780634
 20
31.8167856056
 11
368.6029530634
 21
31.8490498552
 12
368.9498280634
 22
31.8490498552
 13
368.9498280634
 23
31.8490498552
  0
SOLID
  8
0
 62
7
  6
CONTINUOUS
 10
368.9498280634
 20
31.8490498552
 11
369.2967030634
 21
31.8167856056
 12
368.2560780634
 22
31.8167856056
 13
368.2560780634
 23
31.8167856056
  0
SOLID
  8
0
 62
7
  6
CONTINUOUS
 10
368.0248282839
 20
31.7522584901
 11
368.2560780634
 21
31.8167856056
 12
369.2967030634
 22
31.8167856056
 13
369.2967030634
 23
31.8167856056
  0
SOLID
  8
0
 62
7
  6
CONTINUOUS
 10
368.0248282839
 20
31.7522584901
 11
369.2967030634
 21
31.8167855803
 12
369.4701405634
 22
31.7845227934
 13
369.4701405634
 23
31.7845227934
  0
SOLID
  8
0
 62
7
  6
CONTINUOUS
 10
368.0248282839
 20
31.7522584901
 11
369.4701405634
 21
31.7845227934
 12
368.6029530634
 22
31.7199941235
 13
368.6029530634
 23
31.7199941235
  0
SOLID
  8
0
 62
7
  6
CONTINUOUS
 10
368.6029530634
 20
31.7199941235
 11
369.4701405634
 21
31.7845227934
 12
368.9498280634
 22
31.7199941235
 13
368.9498280634
 23
31.7199941235
  0
SOLID
  8
0
 62
7
  6
CONTINUOUS
 10
369.4701405634
 20
31.7845227934
 11
369.6435780634
 21
31.7199941235
 12
368.9498280634
 22
31.7199941235
 13
368.9498280634
 23
31.7199941235
  0
SOLID
  8
0
 62
7
  6
CONTINUOUS
 10
369.2967030634
 20
31.6877314
 11
368.9498280634
 21
31.7199941235
 12
369.6435780634
 22
31.7199941235
 13
369.6435780634
 23
31.7199941235
  0
SOLID
  8
0
 62
7
  6
CONTINUOUS
 10
367.9092030634
 20
31.6554671071
 11
368.0248282839
 21
31.7522584901
 12
368.6029530634
 22
31.7199941235
 13
368.6029530634
 23
31.7199941235
  0
SOLID
  8
0
 62
7
  6
CONTINUOUS
 10
369.2967030634
 20
31.6877314
 11
369.6435780634
 21
31.7199941235
 12
369.4123282839
 22
31.6554671071
 13
369.4123282839
 23
31.6554671071
  0
SOLID
  8
0
 62
7
  6
CONTINUOUS
 10
369.4123282839
 20
31.6554671071
 11
369.6435780634
 21
31.7199941235
 12
369.4701405634
 22
31.5909400907
 13
369.4701405634
 23
31.5909400907
  0
SOLID
  8
0
 62
7
  6
CONTINUOUS
 10
369.6435780634
 20
31.7199941235
 11
369.7592026223
 21
31.5909400907
 12
369.4701405634
 22
31.5909400907
 13
369.4701405634
 23
31.5909400907
  0
SOLID
  8
0
 62
7
  6
CONTINUOUS
 10
359.0638905634
 20
31.6877314
 11
358.5435780634
 21
31.6554670789
 12
359.2951405909
 22
31.7199941045
 13
359.2951405909
 23
31.7199941045
  0
SOLID
  8
0
 62
7
  6
CONTINUOUS
 10
358.5435780634
 20
31.6554670789
 11
358.6592030565
 21
31.7199941045
 12
359.2951405909
 22
31.7199941045
 13
359.2951405909
 23
31.7199941045
  0
SOLID
  8
0
 62
7
  6
CONTINUOUS
 10
359.0638905634
 20
31.6877314
 11
358.9482655496
 21
31.6554670789
 12
358.5435780634
 22
31.6554670789
 13
358.5435780634
 23
31.6554670789
  0
SOLID
  8
0
 62
7
  6
CONTINUOUS
 10
358.4279530651
 20
31.5264129164
 11
358.5435780634
 21
31.6554670789
 12
358.9482655496
 22
31.6554670789
 13
358.9482655496
 23
31.6554670789
  0
SOLID
  8
0
 62
7
  6
CONTINUOUS
 10
362.7638906736
 20
31.6554670789
 11
363.4576406736
 21
31.7199941869
 12
363.2263905634
 22
31.6877314
 13
363.2263905634
 23
31.6877314
  0
SOLID
  8
0
 62
7
  6
CONTINUOUS
 10
363.2263905634
 20
31.6877314
 11
363.1107656736
 21
31.6554670789
 12
362.7638906736
 22
31.6554670789
 13
362.7638906736
 23
31.6554670789
  0
SOLID
  8
0
 62
7
  6
CONTINUOUS
 10
362.7638906736
 20
31.5909399887
 11
362.7638906736
 21
31.6554670789
 12
363.1107656736
 22
31.6554670789
 13
363.1107656736
 23
31.6554670789
  0
SOLID
  8
0
 62
7
  6
CONTINUOUS
 10
363.1107656736
 20
31.6554670789
 11
363.0529530634
 21
31.5909399887
 12
362.7638906736
 22
31.5909399887
 13
362.7638906736
 23
31.5909399887
  0
SOLID
  8
0
 62
7
  6
CONTINUOUS
 10
367.9092030634
 20
31.6554670789
 11
368.6029530634
 21
31.7199941869
 12
368.3717032839
 22
31.6877314
 13
368.3717032839
 23
31.6877314
  0
SOLID
  8
0
 62
7
  6
CONTINUOUS
 10
368.3717032839
 20
31.6877314
 11
368.2560780634
 21
31.6554670789
 12
367.9092030634
 22
31.6554670789
 13
367.9092030634
 23
31.6554670789
  0
SOLID
  8
0
 62
7
  6
CONTINUOUS
 10
367.9092030634
 20
31.5909399887
 11
367.9092030634
 21
31.6554670789
 12
368.2560780634
 22
31.6554670789
 13
368.2560780634
 23
31.6554670789
  0
SOLID
  8
0
 62
7
  6
CONTINUOUS
 10
368.2560780634
 20
31.6554670789
 11
368.1982657839
 21
31.5909399887
 12
367.9092030634
 22
31.5909399887
 13
367.9092030634
 23
31.5909399887
  0
SOLID
  8
0
 62
7
  6
CONTINUOUS
 10
368.0248282839
 20
31.4618858262
 11
367.9092030634
 21
31.5909399887
 12
368.1982657839
 22
31.5909399887
 13
368.1982657839
 23
31.5909399887
  0
SOLID
  8
0
 62
7
  6
CONTINUOUS
 10
358.4279530651
 20
31.5264129164
 11
358.9482655496
 21
31.6554670967
 12
358.7748280496
 22
31.5586757033
 13
358.7748280496
 23
31.5586757033
  0
SOLID
  8
0
 62
7
  6
CONTINUOUS
 10
358.7748280496
 20
31.5586757033
 11
358.7170155634
 21
31.4941486131
 12
358.4279530651
 22
31.5264129164
 13
358.4279530651
 23
31.5264129164
  0
SOLID
  8
0
 62
7
  6
CONTINUOUS
 10
358.3701405634
 20
31.3328301295
 11
358.4279530651
 21
31.5264129164
 12
358.7170155634
 22
31.4941486131
 13
358.7170155634
 23
31.4941486131
  0
SOLID
  8
0
 62
7
  6
CONTINUOUS
 10
363.2263905634
 20
31.4618858262
 11
363.5732655634
 21
31.4941485791
 12
364.2092032839
 22
31.4941485791
 13
364.2092032839
 23
31.4941485791
  0
SOLID
  8
0
 62
7
  6
CONTINUOUS
 10
363.2263905634
 20
31.4618858262
 11
364.2092032839
 21
31.4941485791
 12
362.9951404531
 22
31.397357926
 13
362.9951404531
 23
31.397357926
  0
SOLID
  8
0
 62
7
  6
CONTINUOUS
 10
362.9951404531
 20
31.397357926
 11
364.2092032839
 21
31.4941485791
 12
363.5732655634
 22
31.3650943988
 13
363.5732655634
 23
31.3650943988
  0
SOLID
  8
0
 62
7
  6
CONTINUOUS
 10
364.2092032839
 20
31.4941485791
 11
364.2092032839
 21
31.3650943988
 12
363.5732655634
 22
31.3650943988
 13
363.5732655634
 23
31.3650943988
  0
SOLID
  8
0
 62
7
  6
CONTINUOUS
 10
368.0248282839
 20
31.4618859165
 11
368.1982657839
 21
31.5909400065
 12
368.2560780634
 22
31.5264129164
 13
368.2560780634
 23
31.5264129164
  0
SOLID
  8
0
 62
7
  6
CONTINUOUS
 10
368.2560780634
 20
31.5264129164
 11
368.4295155634
 21
31.4618859165
 12
368.0248282839
 22
31.4618859165
 13
368.0248282839
 23
31.4618859165
  0
SOLID
  8
0
 62
7
  6
CONTINUOUS
 10
368.2560780634
 20
31.3650944328
 11
368.0248282839
 21
31.4618859165
 12
368.4295155634
 22
31.4618859165
 13
368.4295155634
 23
31.4618859165
  0
SOLID
  8
0
 62
7
  6
CONTINUOUS
 10
368.4295155634
 20
31.4618859165
 11
369.4123282839
 21
31.3005673426
 12
368.2560780634
 22
31.3650944328
 13
368.2560780634
 23
31.3650944328
  0
SOLID
  8
0
 62
7
  6
CONTINUOUS
 10
369.2388907839
 20
31.2037760287
 11
368.2560780634
 21
31.3650944328
 12
369.4123282839
 22
31.3005673426
 13
369.4123282839
 23
31.3005673426
  0
SOLID
  8
0
 62
7
  6
CONTINUOUS
 10
369.4123282839
 20
31.3005673426
 11
369.6435780634
 21
31.2037760287
 12
369.2388907839
 22
31.2037760287
 13
369.2388907839
 23
31.2037760287
  0
SOLID
  8
0
 62
7
  6
CONTINUOUS
 10
369.4123282839
 20
31.139248859
 11
369.2388907839
 21
31.2037760287
 12
369.6435780634
 22
31.2037760287
 13
369.6435780634
 23
31.2037760287
  0
SOLID
  8
0
 62
7
  6
CONTINUOUS
 10
369.4123282839
 20
31.139248859
 11
369.6435780634
 21
31.2037760287
 12
369.4701405634
 22
31.0747203105
 13
369.4701405634
 23
31.0747203105
  0
SOLID
  8
0
 62
7
  6
CONTINUOUS
 10
369.6435780634
 20
31.2037760287
 11
369.7592026223
 21
31.0747203105
 12
369.4701405634
 22
31.0747203105
 13
369.4701405634
 23
31.0747203105
  0
SOLID
  8
0
 62
7
  6
CONTINUOUS
 10
369.4123282839
 20
31.0101932257
 11
369.4701405634
 21
31.0747203105
 12
369.7592026223
 22
31.0747203105
 13
369.7592026223
 23
31.0747203105
  0
SOLID
  8
0
 62
7
  6
CONTINUOUS
 10
369.7592026223
 20
31.0747203105
 11
369.7592026223
 21
31.0101932257
 12
369.4123282839
 22
31.0101932257
 13
369.4123282839
 23
31.0101932257
  0
SOLID
  8
0
 62
7
  6
CONTINUOUS
 10
369.2967030634
 20
30.9779303754
 11
369.4123282839
 21
31.0101932257
 12
369.7592026223
 22
31.0101932257
 13
369.7592026223
 23
31.0101932257
  0
SOLID
  8
0
 62
7
  6
CONTINUOUS
 10
369.2967030634
 20
30.9779303754
 11
369.7592026223
 21
31.0101932257
 12
369.0654532839
 22
30.9456661409
 13
369.0654532839
 23
30.9456661409
  0
SOLID
  8
0
 62
7
  6
CONTINUOUS
 10
369.7592026223
 20
31.0101932257
 11
369.6435780634
 21
30.9134032852
 12
369.0654532839
 22
30.9456661409
 13
369.0654532839
 23
30.9456661409
  0
SOLID
  8
0
 62
7
  6
CONTINUOUS
 10
369.6435780634
 20
30.9134032852
 11
368.1982657839
 21
30.8811389819
 12
369.0654532839
 22
30.9456661409
 13
369.0654532839
 23
30.9456661409
  0
SOLID
  8
0
 62
7
  6
CONTINUOUS
 10
369.0654532839
 20
30.9456661409
 11
368.1982657839
 21
30.8811389819
 12
368.7185782839
 22
30.9456661409
 13
368.7185782839
 23
30.9456661409
  0
SOLID
  8
0
 62
7
  6
CONTINUOUS
 10
368.1982657839
 20
30.8811389819
 11
368.0248282839
 21
30.9456661409
 12
368.7185782839
 22
30.9456661409
 13
368.7185782839
 23
30.9456661409
  0
SOLID
  8
0
 62
7
  6
CONTINUOUS
 10
368.1982657839
 20
30.8811389819
 11
369.6435780634
 21
30.9134032852
 12
368.3717032839
 22
30.8488743522
 13
368.3717032839
 23
30.8488743522
  0
SOLID
  8
0
 62
7
  6
CONTINUOUS
 10
369.6435780634
 20
30.9134032852
 11
369.4123282839
 21
30.8488743522
 12
368.3717032839
 22
30.8488743522
 13
368.3717032839
 23
30.8488743522
  0
SOLID
  8
0
 62
7
  6
CONTINUOUS
 10
368.7185782839
 20
30.8166119713
 11
368.3717032839
 21
30.8488743522
 12
369.4123282839
 22
30.8488743522
 13
369.4123282839
 23
30.8488743522
  0
SOLID
  8
0
 62
7
  6
CONTINUOUS
 10
369.4123282839
 20
30.8488743522
 11
369.0654532839
 21
30.8166119713
 12
368.7185782839
 22
30.8166119713
 13
368.7185782839
 23
30.8166119713
  0
SOLID
  8
0
 62
7
  6
CONTINUOUS
 10
358.3701405634
 20
31.3328301295
 11
358.7170155634
 21
31.4941486131
 12
358.6592030565
 22
31.3650944328
 13
358.6592030565
 23
31.3650944328
  0
SOLID
  8
0
 62
7
  6
CONTINUOUS
 10
358.6592030565
 20
31.3650944328
 11
358.6592030565
 21
31.2683031351
 12
358.3701405634
 22
31.3328301295
 13
358.3701405634
 23
31.3328301295
  0
SOLID
  8
0
 62
7
  6
CONTINUOUS
 10
358.4279530651
 20
31.139248859
 11
358.3701405634
 21
31.3328301295
 12
358.6592030565
 22
31.2683031351
 13
358.6592030565
 23
31.2683031351
  0
SOLID
  8
0
 62
7
  6
CONTINUOUS
 10
358.6592030565
 20
31.2683031351
 11
358.7748280496
 21
31.1069845557
 12
358.4279530651
 22
31.139248859
 13
358.4279530651
 23
31.139248859
  0
SOLID
  8
0
 62
7
  6
CONTINUOUS
 10
358.5435780634
 20
31.0101931569
 11
358.4279530651
 21
31.139248859
 12
358.7748280496
 22
31.1069845557
 13
358.7748280496
 23
31.1069845557
  0
SOLID
  8
0
 62
7
  6
CONTINUOUS
 10
358.7748280496
 20
31.1069845557
 11
358.9482655496
 21
31.0101931569
 12
358.5435780634
 22
31.0101931569
 13
358.5435780634
 23
31.0101931569
  0
SOLID
  8
0
 62
7
  6
CONTINUOUS
 10
358.6592030565
 20
30.9456659241
 11
358.5435780634
 21
31.0101931569
 12
358.9482655496
 22
31.0101931569
 13
358.9482655496
 23
31.0101931569
  0
SOLID
  8
0
 62
7
  6
CONTINUOUS
 10
358.9482655496
 20
31.0101931569
 11
359.2951405909
 21
30.9456659241
 12
358.6592030565
 22
30.9456659241
 13
358.6592030565
 23
30.9456659241
  0
SOLID
  8
0
 62
7
  6
CONTINUOUS
 10
358.8326405772
 20
30.8811389819
 11
358.6592030565
 21
30.9456659241
 12
359.2951405909
 22
30.9456659241
 13
359.2951405909
 23
30.9456659241
  0
SOLID
  8
0
 62
7
  6
CONTINUOUS
 10
362.8795155634
 20
31.3328301325
 11
362.9951404531
 21
31.397357926
 12
363.5732655634
 22
31.3650944328
 13
363.5732655634
 23
31.3650944328
  0
SOLID
  8
0
 62
7
  6
CONTINUOUS
 10
363.5732655634
 20
31.3650944328
 11
363.3420154531
 21
31.3328301325
 12
362.8795155634
 22
31.3328301325
 13
362.8795155634
 23
31.3328301325
  0
SOLID
  8
0
 62
7
  6
CONTINUOUS
 10
362.7638906736
 20
31.2037759492
 11
362.8795155634
 21
31.3328301325
 12
363.3420154531
 22
31.3328301325
 13
363.3420154531
 23
31.3328301325
  0
SOLID
  8
0
 62
7
  6
CONTINUOUS
 10
363.1107656736
 20
31.2360394487
 11
362.7638906736
 21
31.2037759492
 12
363.2263905634
 22
31.3005673426
 13
363.2263905634
 23
31.3005673426
  0
SOLID
  8
0
 62
7
  6
CONTINUOUS
 10
362.7638906736
 20
31.2037759492
 11
363.3420154531
 21
31.3328301295
 12
363.2263905634
 22
31.3005673426
 13
363.2263905634
 23
31.3005673426
  0
SOLID
  8
0
 62
7
  6
CONTINUOUS
 10
363.1107656736
 20
31.2360394487
 11
363.0529530634
 21
31.139248859
 12
362.7638906736
 22
31.2037759492
 13
362.7638906736
 23
31.2037759492
  0
SOLID
  8
0
 62
7
  6
CONTINUOUS
 10
362.7638906736
 20
31.1069845557
 11
362.7638906736
 21
31.2037759492
 12
363.0529530634
 22
31.139248859
 13
363.0529530634
 23
31.139248859
  0
SOLID
  8
0
 62
7
  6
CONTINUOUS
 10
363.0529530634
 20
31.139248859
 11
363.0529530634
 21
31.0747202524
 12
362.7638906736
 22
31.1069845557
 13
362.7638906736
 23
31.1069845557
  0
SOLID
  8
0
 62
7
  6
CONTINUOUS
 10
362.8217029531
 20
30.9779303754
 11
362.7638906736
 21
31.1069845557
 12
363.0529530634
 22
31.0747202524
 13
363.0529530634
 23
31.0747202524
  0
SOLID
  8
0
 62
7
  6
CONTINUOUS
 10
364.2092032839
 20
31.1715120759
 11
364.4982653428
 21
31.0747202524
 12
364.1513903428
 22
31.1069845557
 13
364.1513903428
 23
31.1069845557
  0
SOLID
  8
0
 62
7
  6
CONTINUOUS
 10
363.9779528428
 20
31.0101931623
 11
364.1513903428
 21
31.1069845557
 12
364.4982653428
 22
31.0747202524
 13
364.4982653428
 23
31.0747202524
  0
SOLID
  8
0
 62
7
  6
CONTINUOUS
 10
363.9779528428
 20
31.0101931623
 11
364.4982653428
 21
31.0747202524
 12
364.2092032839
 22
30.9779303754
 13
364.2092032839
 23
30.9779303754
  0
SOLID
  8
0
 62
7
  6
CONTINUOUS
 10
364.4982653428
 20
31.0747202524
 11
364.5560782839
 21
30.9134032852
 12
364.2092032839
 22
30.9779303754
 13
364.2092032839
 23
30.9779303754
  0
SOLID
  8
0
 62
7
  6
CONTINUOUS
 10
364.2670155634
 20
30.8811389819
 11
364.2092032839
 21
30.9779303754
 12
364.5560782839
 22
30.9134032852
 13
364.5560782839
 23
30.9134032852
  0
SOLID
  8
0
 62
7
  6
CONTINUOUS
 10
364.2670155634
 20
30.8811389819
 11
364.5560782839
 21
30.9134032852
 12
364.3248278428
 22
30.816611867
 13
364.3248278428
 23
30.816611867
  0
SOLID
  8
0
 62
7
  6
CONTINUOUS
 10
364.5560782839
 20
30.9134032852
 11
364.6138905634
 21
30.816611867
 12
364.3248278428
 22
30.816611867
 13
364.3248278428
 23
30.816611867
  0
SOLID
  8
0
 62
7
  6
CONTINUOUS
 10
359.8732656185
 20
31.0424573076
 11
359.9310780634
 21
31.1392488159
 12
360.2201406185
 22
31.1392488159
 13
360.2201406185
 23
31.1392488159
  0
SOLID
  8
0
 62
7
  6
CONTINUOUS
 10
360.2201406185
 20
31.1392488159
 11
360.1623280082
 21
31.0101931623
 12
359.8732656185
 22
31.0424573076
 13
359.8732656185
 23
31.0424573076
  0
SOLID
  8
0
 62
7
  6
CONTINUOUS
 10
359.6998280358
 20
30.9779303754
 11
359.8732656185
 21
31.0424573076
 12
360.1623280082
 22
31.0101931623
 13
360.1623280082
 23
31.0101931623
  0
SOLID
  8
0
 62
7
  6
CONTINUOUS
 10
359.6998280358
 20
30.9779303754
 11
360.1623280082
 21
31.0101931623
 12
359.2951405909
 22
30.9456660721
 13
359.2951405909
 23
30.9456660721
  0
SOLID
  8
0
 62
7
  6
CONTINUOUS
 10
360.1623280082
 20
31.0101931623
 11
359.9888905082
 21
30.9134032852
 12
359.2951405909
 22
30.9456660721
 13
359.2951405909
 23
30.9456660721
  0
SOLID
  8
0
 62
7
  6
CONTINUOUS
 10
358.8326405772
 20
30.8811389819
 11
359.2951405909
 21
30.9456660721
 12
359.9888905082
 22
30.9134032852
 13
359.9888905082
 23
30.9134032852
  0
SOLID
  8
0
 62
7
  6
CONTINUOUS
 10
358.8326405772
 20
30.8811389819
 11
359.9888905082
 21
30.9134032852
 12
359.0060780772
 22
30.8488745775
 13
359.0060780772
 23
30.8488745775
  0
SOLID
  8
0
 62
7
  6
CONTINUOUS
 10
359.9888905082
 20
30.9134032852
 11
359.7576405634
 21
30.8488745775
 12
359.0060780772
 22
30.8488745775
 13
359.0060780772
 23
30.8488745775
  0
SOLID
  8
0
 62
7
  6
CONTINUOUS
 10
359.3529530358
 20
30.8166118918
 11
359.0060780772
 21
30.8488745775
 12
359.7576405634
 22
30.8488745775
 13
359.7576405634
 23
30.8488745775
  0
SOLID
  8
0
 62
7
  6
CONTINUOUS
 10
362.8217029531
 20
30.9779303754
 11
363.0529530634
 21
31.0747202524
 12
363.1107656736
 22
31.0101931623
 13
363.1107656736
 23
31.0101931623
  0
SOLID
  8
0
 62
7
  6
CONTINUOUS
 10
363.1107656736
 20
31.0101931623
 11
363.3420154531
 21
30.9456660721
 12
362.8217029531
 22
30.9779303754
 13
362.8217029531
 23
30.9779303754
  0
SOLID
  8
0
 62
7
  6
CONTINUOUS
 10
362.9951404531
 20
30.8811389819
 11
362.8217029531
 21
30.9779303754
 12
363.3420154531
 22
30.9456660721
 13
363.3420154531
 23
30.9456660721
  0
SOLID
  8
0
 62
7
  6
CONTINUOUS
 10
363.6888904531
 20
30.9456661188
 11
363.9779528428
 21
31.0101931623
 12
364.2092032839
 22
30.9779303754
 13
364.2092032839
 23
30.9779303754
  0
SOLID
  8
0
 62
7
  6
CONTINUOUS
 10
364.2092032839
 20
30.9779303754
 11
364.1513903428
 21
30.9134032852
 12
363.6888904531
 22
30.9456661188
 13
363.6888904531
 23
30.9456661188
  0
SOLID
  8
0
 62
7
  6
CONTINUOUS
 10
364.1513903428
 20
30.9134032852
 11
362.9951404531
 21
30.8811389819
 12
363.6888904531
 22
30.9456661188
 13
363.6888904531
 23
30.9456661188
  0
SOLID
  8
0
 62
7
  6
CONTINUOUS
 10
362.9951404531
 20
30.8811389819
 11
363.3420154531
 21
30.9456661188
 12
363.6888904531
 22
30.9456661188
 13
363.6888904531
 23
30.9456661188
  0
SOLID
  8
0
 62
7
  6
CONTINUOUS
 10
362.9951404531
 20
30.8811389819
 11
364.1513903428
 21
30.9134032852
 12
363.1107656736
 22
30.8488747093
 13
363.1107656736
 23
30.8488747093
  0
SOLID
  8
0
 62
7
  6
CONTINUOUS
 10
364.1513903428
 20
30.9134032852
 11
363.9779528428
 21
30.8488747093
 12
363.1107656736
 22
30.8488747093
 13
363.1107656736
 23
30.8488747093
  0
SOLID
  8
0
 62
7
  6
CONTINUOUS
 10
363.3420154531
 20
30.816611874
 11
363.1107656736
 21
30.8488747093
 12
363.9779528428
 22
30.8488747093
 13
363.9779528428
 23
30.8488747093
  0
SOLID
  8
0
 62
7
  6
CONTINUOUS
 10
363.9779528428
 20
30.8488747093
 11
363.6888904531
 21
30.816611874
 12
363.3420154531
 22
30.816611874
 13
363.3420154531
 23
30.816611874
  0
SOLID
  8
0
 62
7
  6
CONTINUOUS
 10
368.3717032839
 20
30.9779303754
 11
368.0248282839
 21
30.9456661188
 12
368.2560780634
 22
31.0101931623
 13
368.2560780634
 23
31.0101931623
  0
SOLID
  8
0
 62
7
  6
CONTINUOUS
 10
368.2560780634
 20
31.0101931623
 11
368.0248282839
 21
30.9456661188
 12
368.1982657839
 22
31.0747202992
 13
368.1982657839
 23
31.0747202992
  0
SOLID
  8
0
 62
7
  6
CONTINUOUS
 10
368.0248282839
 20
30.9456661188
 11
367.9092030634
 21
31.0747202992
 12
368.1982657839
 22
31.0747202992
 13
368.1982657839
 23
31.0747202992
  0
SOLID
  8
0
 62
7
  6
CONTINUOUS
 10
368.3717032839
 20
30.9779303754
 11
368.7185782839
 21
30.9456661188
 12
368.0248282839
 22
30.9456661188
 13
368.0248282839
 23
30.9456661188
  0
SOLID
  8
0
 62
7
  6
CONTINUOUS
 10
365.0763907839
 20
30.8166118918
 11
365.0763907839
 21
31.8490498836
 12
365.3654528428
 22
30.8166118918
 13
365.3654528428
 23
31.8490498836
  0
ENDBLK
  8
0
  6
BYBLOCK
 62
0
  0
BLOCK
  8
0
 62
2
  6
CONTINUOUS
  2
AMMEAAL_LOGO_BL0
 70
64
 10
241.0379982417
 20
19.661173918
  0
TEXT
  8
0
 62
7
  6
CONTINUOUS
 10
227.3106676351
 20
19.0524287129
  7
TEXTSTYLE_3
 40
2.7338706658
  1
Ammeraal Beltech
 41
1.0
 51
15.0
 72
0
  0
TEXT
  8
0
 62
7
  6
CONTINUOUS
 10
238.1114684608
 20
16.7788920401
  7
TEXTSTYLE_4
 40
1.0935482663
  1
Innovation & Service in Belting
 41
1.0
 72
0
  0
LINE
  8
0
 62
7
  6
CONTINUOUS
 10
221.2861269837
 20
19.8190220215
 11
222.0642789771
 21
23.4799393191
  0
LINE
  8
0
 62
7
  6
CONTINUOUS
 10
232.1594472669
 20
27.1433332308
 11
222.5520967201
 21
24.0217158095
  0
LINE
  8
0
 62
7
  6
CONTINUOUS
 10
221.511410316
 20
19.1256712184
 11
229.0184855772
 21
12.3662702925
  0
LINE
  8
0
 62
7
  6
CONTINUOUS
 10
221.7739447268
 20
20.3607985118
 11
232.5822140919
 21
23.8726181108
  0
LINE
  8
0
 62
7
  6
CONTINUOUS
 10
232.5780089548
 20
13.522829547
 11
224.132549286
 21
21.1271555887
  0
LINE
  8
0
 62
7
  6
CONTINUOUS
 10
233.0978316746
 20
26.298408115
 11
232.1212721373
 21
21.7040567125
  0
LINE
  8
0
 62
7
  6
CONTINUOUS
 10
231.4214701896
 20
18.4117473987
 11
230.7350219782
 21
15.1822624744
  0
LINE
  8
0
 62
7
  6
CONTINUOUS
 10
233.7789277731
 20
13.9130317247
 11
234.7351593087
 21
18.4117473987
  0
LINE
  8
0
 62
7
  6
CONTINUOUS
 10
235.4349612564
 20
21.7040567125
 11
235.8792030588
 21
23.7940500719
  0
LINE
  8
0
 62
7
  6
CONTINUOUS
 10
229.7315866525
 20
12.2146959798
 11
233.2911100301
 21
13.3712552343
  0
LINE
  8
0
 62
7
  6
CONTINUOUS
 10
232.8725483422
 20
26.9917589181
 11
235.6539197265
 21
24.487400875
  0
ARC
  8
0
 62
7
  6
CONTINUOUS
 10
222.7773800524
 20
23.3283650064
 40
0.7290321776
 50
108.0
 51
168.0
  0
ARC
  8
0
 62
7
  6
CONTINUOUS
 10
232.3847305992
 20
26.4499824277
 40
0.7290321776
 50
348.0
 51
108.0
  0
ARC
  8
0
 62
7
  6
CONTINUOUS
 10
235.1661019835
 20
23.9456243846
 40
0.7290321776
 50
348.0
 51
48.0
  0
ARC
  8
0
 62
7
  6
CONTINUOUS
 10
229.5063033202
 20
12.9080467828
 40
0.7290321776
 50
228.0
 51
288.0
  0
ARC
  8
0
 62
7
  6
CONTINUOUS
 10
221.9992280591
 20
19.6674477088
 40
0.7290321776
 50
108.0
 51
228.0
  0
ARC
  8
0
 62
7
  6
CONTINUOUS
 10
233.0658266978
 20
14.0646060374
 40
0.7290321776
 50
228.0
 51
348.0
  0
ENDBLK
  8
0
  6
BYBLOCK
 62
0
  0
ENDSEC
  0
SECTION
  2
ENTITIES
  0
TEXT
  8
0
 62
5
  6
CONTINUOUS
 10
304.937007874
 20
25.636
  7
TEXTSTYLE_2
 40
2.8
  1
Scale :
 41
0.6
 51
0.000019
 72
0
  0
TEXT
  8
0
 62
5
  6
CONTINUOUS
 10
324.937007874
 20
25.636
  7
TEXTSTYLE_2
 40
2.8
  1
Chain type:
 41
0.6
 51
0.000019
 72
0
  0
INSERT
  8
0
 62
2
  6
CONTINUOUS
  2
AMMEAAL_LOGO_BL0
 10
241.0379982417
 20
19.661173918
  0
INSERT
  8
0
 62
2
  6
CONTINUOUS
  2
UNI_LOGO2_BL1
 10
382.3920721743
 20
35.7654615278
  0
LINE
  8
0
 62
2
  6
CONTINUOUS
 10
218.937007874
 20
30.0
 11
408.937007874
 21
30.0
  0
LINE
  8
0
 62
2
  6
CONTINUOUS
 10
218.937007874
 20
30.0
 11
218.937007874
 21
10.0
  0
LINE
  8
0
 62
2
  6
CONTINUOUS
 10
218.937007874
 20
10.0
 11
408.937007874
 21
10.0
  0
LINE
  8
0
 62
2
  6
CONTINUOUS
 10
303.937007874
 20
30.0
 11
303.937007874
 21
10.0
  0
LINE
  8
0
 62
2
  6
CONTINUOUS
 10
323.937007874
 20
30.0
 11
323.937007874
 21
10.0
  0
LINE
  8
0
 62
2
  6
CONTINUOUS
 10
408.937007874
 20
30.0
 11
408.937007874
 21
10.0
  0
TEXT
  8
0
 62
5
  6
CONTINUOUS
 10
221.937007874
 20
23.303
  7
TEXTSTYLE_5
 40
1.52
  1
                                                                     Ammeraal Beltech Modular A/S
 41
1.0
 72
0
  0
TEXT
  8
0
 62
5
  6
CONTINUOUS
 10
221.937007874
 20
20.595
  7
TEXTSTYLE_5
 40
1.5
  1
                                                                      Hjulmagervej 21, 7100 Vejle,  DK
 41
1.0
 72
0
  0
TEXT
  8
0
 62
5
  6
CONTINUOUS
 10
221.937007874
 20
17.881
  7
TEXTSTYLE_5
 40
1.495
  1
                                                                      tel: 
 41
1.0
 72
0
  0
TEXT
  8
0
 62
5
  6
CONTINUOUS
 10
266.9239544389
 20
17.881
  7
TEXTSTYLE_5
 40
1.51
  1
+45 75723100     fax: +45 75723348
 41
1.0
 72
0
  0
TEXT
  8
0
 62
5
  6
CONTINUOUS
 10
221.937007874
 20
15.177
  7
TEXTSTYLE_5
 40
1.5
  1
                                                                      admin@unichains.dk  www.unichains.com
 41
1.0
 72
0
  0
TEXT
  8
0
 62
5
  6
CONTINUOUS
 10
308.687007874
 20
13.75
  7
TEXTSTYLE_6
 40
5.0
  1
1:1
 41
0.7
 72
1
 11
313.937007874
 21
13.75
  0
TEXT
  8
0
 62
5
  6
CONTINUOUS
 10
326.937007874
 20
13.75
  7
TEXTSTYLE_7
 40
7.5
  1
2600 C
 41
0.7555555556
 72
0
  0
LINE
  8
0
 62
7
  6
CONTINUOUS
 10
0.0
 20
0.0
 11
0.0
 21
297.0
  0
LINE
  8
0
 62
7
  6
CONTINUOUS
 10
8.937007874
 20
10.0
 11
8.937007874
 21
287.0
  0
LINE
  8
0
 62
7
  6
CONTINUOUS
 10
0.0
 20
0.0
 11
420.0
 21
0.0
  0
LINE
  8
0
 62
7
  6
CONTINUOUS
 10
408.937007874
 20
10.0
 11
8.937007874
 21
10.0
  0
LINE
  8
0
 62
7
  6
CONTINUOUS
 10
218.937007874
 20
30.0
 11
408.937007874
 21
30.0
  0
LINE
  8
0
 62
7
  6
CONTINUOUS
 10
210.0
 20
297.0
 11
210.0
 21
292.0
  0
LINE
  8
0
 62
7
  6
CONTINUOUS
 10
210.0
 20
0.0
 11
210.0
 21
5.0
  0
LINE
  8
0
 62
7
  6
CONTINUOUS
 10
8.937007874
 20
287.0
 11
408.937007874
 21
287.0
  0
LINE
  8
0
 62
7
  6
CONTINUOUS
 10
0.0
 20
297.0
 11
420.0
 21
297.0
  0
LINE
  8
0
 62
7
  6
CONTINUOUS
 10
408.937007874
 20
287.0
 11
408.937007874
 21
10.0
  0
LINE
  8
0
 62
7
  6
CONTINUOUS
 10
420.0
 20
0.0
 11
420.0
 21
297.0
  0
LINE
  8
2_FEATURE
 62
7
  6
CONTINUOUS
 10
109.7249150632
 20
119.5311928032
 11
109.7249150632
 21
133.7792888976
  0
LINE
  8
AXES
 62
9
  6
CONTINUOUS
 10
123.9249150632
 20
135.337516877
 11
123.9249150632
 21
117.9729648237
  0
LINE
  8
DEFAULT_1
 62
2
  6
CENTER
 10
123.9249150632
 20
131.9052408504
 11
123.9249150632
 21
128.6553408504
  0
LINE
  8
0
 62
2
  6
CONTINUOUS
 10
123.9249150632
 20
127.7052408504
 11
123.9249150632
 21
125.6052408504
  0
LINE
  8
DEFAULT_1
 62
2
  6
CENTER
 10
123.9249150632
 20
121.4052408504
 11
123.9249150632
 21
124.6551408504
  0
LINE
  8
AXES
 62
9
  6
CONTINUOUS
 10
123.9249150632
 20
117.9729648237
 11
123.7421110481
 21
116.4841455963
  0
LINE
  8
0
 62
9
  6
CONTINUOUS
 10
123.9249150632
 20
135.337516877
 11
123.7421110481
 21
136.8263361045
  0
LINE
  8
0
 62
7
  6
CONTINUOUS
 10
167.1124152421
 20
105.5552408504
 11
163.6436650632
 21
105.5552408504
  0
LINE
  8
0
 62
7
  6
CONTINUOUS
 10
162.8936649738
 20
105.5552408504
 11
159.4249150632
 21
105.5552408504
  0
LINE
  8
AXES
 62
7
  6
CONTINUOUS
 10
200.8749048425
 20
105.6552408504
 11
155.3408891047
 21
105.6552408504
  0
LINE
  8
AXES
 62
9
  6
CONTINUOUS
 10
137.2598251889
 20
116.3356437393
 11
137.0770211738
 21
114.8468245118
  0
LINE
  8
0
 62
7
  6
CONTINUOUS
 10
154.1672101977
 20
147.3626098325
 11
137.9460267222
 21
138.7376535859
  0
LINE
  8
0
 62
9
  6
CONTINUOUS
 10
154.8714175419
 20
146.0381884432
 11
138.6502340664
 21
137.4132321966
  0
LINE
  8
AXES
 62
9
  6
CONTINUOUS
 10
202.3749150632
 20
107.1552408504
 11
155.3408891047
 21
107.1552408504
  0
LINE
  8
AXES
 62
7
  6
CONTINUOUS
 10
154.1672101977
 20
105.9478718682
 11
137.9460267222
 21
114.5728281149
  0
LINE
  8
AXES
 62
9
  6
CONTINUOUS
 10
154.8714175419
 20
107.2722932575
 11
138.6502340664
 21
115.8972495042
  0
LINE
  8
0
 62
9
  6
CONTINUOUS
 10
137.2598251889
 20
136.9748379615
 11
137.0770211738
 21
138.4636571889
  0
LINE
  8
AXES
 62
9
  6
CONTINUOUS
 10
193.5785970957
 20
113.1552408504
 11
174.9249150632
 21
113.1552408504
  0
LINE
  8
AXES
 62
7
  6
CONTINUOUS
 10
137.0770211738
 20
114.8468245118
 11
111.0421209879
 21
118.0435082993
  0
LINE
  8
AXES
 62
9
  6
CONTINUOUS
 10
138.6502340664
 20
115.8972495042
 11
137.9460267222
 21
114.5728281149
  0
LINE
  8
AXES
 62
7
  6
CONTINUOUS
 10
193.0077856134
 20
114.6552408504
 11
174.9249150632
 21
114.6552408504
  0
LINE
  8
AXES
 62
9
  6
CONTINUOUS
 10
173.9249150632
 20
115.6552408504
 11
172.4249150632
 21
115.6552408504
  0
LINE
  8
AXES
 62
9
  6
CONTINUOUS
 10
123.9249150632
 20
117.9729648237
 11
109.7249150633
 21
119.5323275126
  0
LINE
  8
AXES
 62
9
  6
CONTINUOUS
 10
137.2598251889
 20
116.3356437393
 11
123.9249150632
 21
117.9729648237
  0
LINE
  8
0
 62
9
  6
CONTINUOUS
 10
138.6502340664
 20
137.4132321966
 11
137.9460267222
 21
138.7376535859
  0
LINE
  8
AXES
 62
9
  6
CONTINUOUS
 10
155.3408891047
 20
107.1552408504
 11
155.3408891047
 21
105.6552408504
  0
LINE
  8
0
 62
9
  6
CONTINUOUS
 10
155.3408891047
 20
146.1552408504
 11
155.3408891047
 21
147.6552408504
  0
LINE
  8
DEFAULT_1
 62
2
  6
CENTER
 10
129.1749150632
 20
126.6552408504
 11
125.9250150632
 21
126.6552408504
  0
LINE
  8
0
 62
2
  6
CONTINUOUS
 10
124.9749150632
 20
126.6552408504
 11
122.8749150632
 21
126.6552408504
  0
LINE
  8
DEFAULT_1
 62
2
  6
CENTER
 10
118.6749150632
 20
126.6552408504
 11
121.9248150632
 21
126.6552408504
  0
LINE
  8
0
 62
7
  6
CONTINUOUS
 10
158.5949150632
 20
147.6552408504
 11
158.5949150632
 21
147.7552408504
  0
LINE
  8
0
 62
7
  6
CONTINUOUS
 10
158.6449148725
 20
147.6552408504
 11
158.6449148725
 21
147.7552408504
  0
LINE
  8
0
 62
7
  6
CONTINUOUS
 10
158.694915254
 20
147.6552408504
 11
158.694915254
 21
147.7552408504
  0
LINE
  8
0
 62
7
  6
CONTINUOUS
 10
158.7949148725
 20
147.6552408504
 11
158.7949148725
 21
147.7552408504
  0
LINE
  8
0
 62
7
  6
CONTINUOUS
 10
158.9449148725
 20
147.6552408504
 11
158.9449148725
 21
147.7552408504
  0
LINE
  8
0
 62
7
  6
CONTINUOUS
 10
159.1949150632
 20
147.6552408504
 11
159.1949150632
 21
147.7552408504
  0
LINE
  8
0
 62
7
  6
CONTINUOUS
 10
159.4249150632
 20
105.6552408504
 11
159.4249150632
 21
105.5552408504
  0
LINE
  8
0
 62
7
  6
CONTINUOUS
 10
159.4949150632
 20
147.6552408504
 11
159.4949150632
 21
147.7552408504
  0
LINE
  8
0
 62
7
  6
CONTINUOUS
 10
159.7949150632
 20
147.6552408504
 11
159.7949150632
 21
147.7552408504
  0
POLYLINE
  8
2_FEATURE
 62
9
  6
CONTINUOUS
 66
1
 70
0
  0
VERTEX
  8
2_FEATURE
 62
9
  6
CONTINUOUS
 10
194.4171797729
 20
140.3562027447
  0
VERTEX
  8
2_FEATURE
 62
9
  6
CONTINUOUS
 10
194.0967667911
 20
140.2286262706
  0
VERTEX
  8
2_FEATURE
 62
9
  6
CONTINUOUS
 10
193.9270142872
 20
140.1879652514
  0
VERTEX
  8
2_FEATURE
 62
9
  6
CONTINUOUS
 10
193.5785970957
 20
140.1552408504
  0
SEQEND
  0
POLYLINE
  8
2_FEATURE
 62
9
  6
CONTINUOUS
 66
1
 70
0
  0
VERTEX
  8
2_FEATURE
 62
9
  6
CONTINUOUS
 10
193.0077856134
 20
138.6552408504
  0
VERTEX
  8
2_FEATURE
 62
9
  6
CONTINUOUS
 10
193.1555224922
 20
138.7063521081
  0
VERTEX
  8
2_FEATURE
 62
9
  6
CONTINUOUS
 10
193.2931913491
 20
138.8562027365
  0
VERTEX
  8
2_FEATURE
 62
9
  6
CONTINUOUS
 10
193.4114102787
 20
139.0945806665
  0
VERTEX
  8
2_FEATURE
 62
9
  6
CONTINUOUS
 10
193.5021228552
 20
139.4052408384
  0
VERTEX
  8
2_FEATURE
 62
9
  6
CONTINUOUS
 10
193.5591471654
 20
139.7670122754
  0
VERTEX
  8
2_FEATURE
 62
9
  6
CONTINUOUS
 10
193.5785970957
 20
140.1552408504
  0
SEQEND
  0
POLYLINE
  8
AXES
 62
9
  6
CONTINUOUS
 66
1
 70
0
  0
VERTEX
  8
AXES
 62
9
  6
CONTINUOUS
 10
193.0077856134
 20
114.6552408504
  0
VERTEX
  8
AXES
 62
9
  6
CONTINUOUS
 10
193.1555224922
 20
114.6041295926
  0
VERTEX
  8
AXES
 62
9
  6
CONTINUOUS
 10
193.2931913491
 20
114.4542789643
  0
VERTEX
  8
AXES
 62
9
  6
CONTINUOUS
 10
193.4114102787
 20
114.2159010343
  0
VERTEX
  8
AXES
 62
9
  6
CONTINUOUS
 10
193.5021228552
 20
113.9052408623
  0
VERTEX
  8
AXES
 62
9
  6
CONTINUOUS
 10
193.5591471654
 20
113.5434694254
  0
VERTEX
  8
AXES
 62
9
  6
CONTINUOUS
 10
193.5785970957
 20
113.1552408504
  0
SEQEND
  0
POLYLINE
  8
AXES
 62
9
  6
CONTINUOUS
 66
1
 70
0
  0
VERTEX
  8
AXES
 62
9
  6
CONTINUOUS
 10
194.4171797729
 20
112.9542789561
  0
VERTEX
  8
AXES
 62
9
  6
CONTINUOUS
 10
194.0967667911
 20
113.0818554301
  0
VERTEX
  8
AXES
 62
9
  6
CONTINUOUS
 10
193.9270142872
 20
113.1225164494
  0
VERTEX
  8
AXES
 62
9
  6
CONTINUOUS
 10
193.5785970957
 20
113.1552408504
  0
SEQEND
  0
LINE
  8
0
 62
7
  6
CONTINUOUS
 10
159.9149150632
 20
147.6552408504
 11
159.9149150632
 21
147.7552408504
  0
LINE
  8
0
 62
7
  6
CONTINUOUS
 10
161.4449150632
 20
147.6552408504
 11
161.4449150632
 21
147.7552408504
  0
LINE
  8
0
 62
7
  6
CONTINUOUS
 10
161.6749150632
 20
105.6552408504
 11
161.6749150632
 21
105.5552408504
  0
LINE
  8
0
 62
9
  6
CONTINUOUS
 10
161.8549150632
 20
147.6552408504
 11
161.8549150632
 21
147.7552408504
  0
LINE
  8
0
 62
9
  6
CONTINUOUS
 10
162.0059161768
 20
147.6552408504
 11
162.0059161768
 21
147.7552408504
  0
LINE
  8
0
 62
7
  6
CONTINUOUS
 10
162.1436651526
 20
105.6552408504
 11
162.1436651526
 21
105.5552408504
  0
LINE
  8
0
 62
7
  6
CONTINUOUS
 10
162.4549150632
 20
147.6552408504
 11
162.4549150632
 21
147.7552408504
  0
LINE
  8
0
 62
7
  6
CONTINUOUS
 10
162.5186650632
 20
105.6552408504
 11
162.5186650632
 21
105.5552408504
  0
LINE
  8
0
 62
7
  6
CONTINUOUS
 10
162.7999150632
 20
105.6552408504
 11
162.7999150632
 21
105.5552408504
  0
LINE
  8
0
 62
7
  6
CONTINUOUS
 10
162.8936649738
 20
105.6552408504
 11
162.8936649738
 21
105.5552408504
  0
LINE
  8
0
 62
7
  6
CONTINUOUS
 10
162.9649150632
 20
147.6552408504
 11
162.9649150632
 21
147.7552408504
  0
LINE
  8
0
 62
7
  6
CONTINUOUS
 10
162.9949151586
 20
147.6552408504
 11
162.9949151586
 21
147.7552408504
  0
LINE
  8
0
 62
7
  6
CONTINUOUS
 10
163.0949150632
 20
147.6552408504
 11
163.0949150632
 21
147.7552408504
  0
LINE
  8
0
 62
7
  6
CONTINUOUS
 10
163.1449151586
 20
147.6552408504
 11
163.1449151586
 21
147.7552408504
  0
LINE
  8
0
 62
7
  6
CONTINUOUS
 10
163.2849150632
 20
147.6552408504
 11
163.2849150632
 21
147.7552408504
  0
LINE
  8
2_FEATURE
 62
9
  6
CONTINUOUS
 10
202.3749150632
 20
144.4652793484
 11
194.4171797729
 21
140.3562027447
  0
LINE
  8
AXES
 62
9
  6
CONTINUOUS
 10
202.3749150632
 20
108.8452023524
 11
194.4171797729
 21
112.9542789561
  0
LINE
  8
0
 62
7
  6
CONTINUOUS
 10
163.6436650632
 20
105.6552408504
 11
163.6436650632
 21
105.5552408504
  0
LINE
  8
0
 62
7
  6
CONTINUOUS
 10
163.7949150632
 20
147.6552408504
 11
163.7949150632
 21
147.7552408504
  0
LINE
  8
0
 62
9
  6
CONTINUOUS
 10
164.0949150632
 20
147.6552408504
 11
164.0949150632
 21
147.7552408504
  0
LINE
  8
0
 62
9
  6
CONTINUOUS
 10
164.3349150632
 20
147.6552408504
 11
164.3349150632
 21
147.7552408504
  0
LINE
  8
0
 62
7
  6
CONTINUOUS
 10
164.4849150632
 20
147.6552408504
 11
164.4849150632
 21
147.7552408504
  0
LINE
  8
0
 62
7
  6
CONTINUOUS
 10
164.9949150632
 20
147.6552408504
 11
164.9949150632
 21
147.7552408504
  0
LINE
  8
0
 62
7
  6
CONTINUOUS
 10
165.1949150632
 20
147.6552408504
 11
165.1949150632
 21
147.7552408504
  0
LINE
  8
0
 62
7
  6
CONTINUOUS
 10
165.2449150156
 20
147.6552408504
 11
165.2449150156
 21
147.7552408504
  0
LINE
  8
0
 62
7
  6
CONTINUOUS
 10
165.4449151109
 20
147.6552408504
 11
165.4449151109
 21
147.7552408504
  0
LINE
  8
0
 62
7
  6
CONTINUOUS
 10
165.6449150632
 20
147.6552408504
 11
165.6449150632
 21
147.7552408504
  0
LINE
  8
0
 62
7
  6
CONTINUOUS
 10
165.8936650632
 20
105.6552408504
 11
165.8936650632
 21
105.5552408504
  0
LINE
  8
0
 62
7
  6
CONTINUOUS
 10
165.9449150632
 20
147.6552408504
 11
165.9449150632
 21
147.7552408504
  0
LINE
  8
0
 62
7
  6
CONTINUOUS
 10
166.1449150871
 20
147.6552408504
 11
166.1449150871
 21
147.7552408504
  0
LINE
  8
0
 62
7
  6
CONTINUOUS
 10
166.3624148844
 20
105.6552408504
 11
166.3624148844
 21
105.5552408504
  0
LINE
  8
0
 62
7
  6
CONTINUOUS
 10
166.4949150752
 20
147.6552408504
 11
166.4949150752
 21
147.7552408504
  0
LINE
  8
AXES
 62
9
  6
CONTINUOUS
 10
154.8714175419
 20
107.2722932575
 11
154.1672101977
 21
105.9478718682
  0
LINE
  8
2_FEATURE
 62
7
  6
CONTINUOUS
 10
201.6249150632
 20
143.1662412427
 11
194.5077856134
 21
139.057164639
  0
LINE
  8
AXES
 62
7
  6
CONTINUOUS
 10
201.6249150632
 20
110.144240458
 11
194.5077856134
 21
114.2533170617
  0
LINE
  8
0
 62
9
  6
CONTINUOUS
 10
154.8714175419
 20
146.0381884432
 11
154.1672101977
 21
147.3626098325
  0
LINE
  8
0
 62
7
  6
CONTINUOUS
 10
166.6949150632
 20
147.6552408504
 11
166.6949150632
 21
147.7552408504
  0
LINE
  8
0
 62
7
  6
CONTINUOUS
 10
166.7374150632
 20
105.6552408504
 11
166.7374150632
 21
105.5552408504
  0
LINE
  8
0
 62
7
  6
CONTINUOUS
 10
166.8949150603
 20
147.6552408504
 11
166.8949150603
 21
147.7552408504
  0
LINE
  8
0
 62
7
  6
CONTINUOUS
 10
166.9449150618
 20
147.6552408504
 11
166.9449150618
 21
147.7552408504
  0
LINE
  8
0
 62
7
  6
CONTINUOUS
 10
166.9949150632
 20
147.6552408504
 11
166.9949150632
 21
147.7552408504
  0
LINE
  8
0
 62
7
  6
CONTINUOUS
 10
167.0186650632
 20
105.6552408504
 11
167.0186650632
 21
105.5552408504
  0
LINE
  8
0
 62
7
  6
CONTINUOUS
 10
167.1124152421
 20
105.6552408504
 11
167.1124152421
 21
105.5552408504
  0
LINE
  8
0
 62
9
  6
CONTINUOUS
 10
137.2598251889
 20
136.9748379615
 11
123.9249150632
 21
135.337516877
  0
LINE
  8
0
 62
9
  6
CONTINUOUS
 10
123.9249150632
 20
135.337516877
 11
109.7249150633
 21
133.7781541882
  0
LINE
  8
2_FEATURE
 62
9
  6
CONTINUOUS
 10
173.9249150632
 20
137.6552408504
 11
172.4249150632
 21
137.6552408504
  0
LINE
  8
2_FEATURE
 62
7
  6
CONTINUOUS
 10
193.0077856134
 20
138.6552408504
 11
174.9249150632
 21
138.6552408504
  0
LINE
  8
2_FEATURE
 62
9
  6
CONTINUOUS
 10
193.5785970957
 20
140.1552408504
 11
174.9249150632
 21
140.1552408504
  0
LINE
  8
AXES
 62
9
  6
CONTINUOUS
 10
172.4249150632
 20
115.6552408504
 11
172.4249150632
 21
137.6552408504
  0
LINE
  8
0
 62
7
  6
CONTINUOUS
 10
137.0770211738
 20
138.4636571889
 11
111.0421209879
 21
135.2669734015
  0
LINE
  8
2_FEATURE
 62
7
  6
CONTINUOUS
 10
173.9249150632
 20
137.6552408504
 11
173.9249150632
 21
115.6552408504
  0
LINE
  8
AXES
 62
7
  6
CONTINUOUS
 10
173.9249150632
 20
137.6552408504
 11
173.9249150632
 21
115.6552408504
  0
LINE
  8
AXES
 62
9
  6
CONTINUOUS
 10
174.9249150632
 20
114.6552408504
 11
174.9249150633
 21
113.1552408504
  0
LINE
  8
2_FEATURE
 62
9
  6
CONTINUOUS
 10
174.9249150632
 20
138.6552408504
 11
174.9249150633
 21
140.1552408504
  0
LINE
  8
0
 62
9
  6
CONTINUOUS
 10
202.3749150632
 20
146.1552408504
 11
155.3408891047
 21
146.1552408504
  0
POLYLINE
  8
2_FEATURE
 62
9
  6
CONTINUOUS
 66
1
 70
0
  0
VERTEX
  8
2_FEATURE
 62
9
  6
CONTINUOUS
 10
194.5077855849
 20
139.0571646885
  0
VERTEX
  8
2_FEATURE
 62
9
  6
CONTINUOUS
 10
194.6157844795
 20
139.18219361
  0
VERTEX
  8
2_FEATURE
 62
9
  6
CONTINUOUS
 10
194.6616885505
 20
139.3921875535
  0
VERTEX
  8
2_FEATURE
 62
9
  6
CONTINUOUS
 10
194.642175643
 20
139.6719489046
  0
VERTEX
  8
2_FEATURE
 62
9
  6
CONTINUOUS
 10
194.5586579391
 20
140.0012308644
  0
VERTEX
  8
2_FEATURE
 62
9
  6
CONTINUOUS
 10
194.4171797551
 20
140.3562027447
  0
SEQEND
  0
LINE
  8
0
 62
7
  6
CONTINUOUS
 10
200.8749048425
 20
147.6552408504
 11
155.3408891047
 21
147.6552408504
  0
LINE
  8
0
 62
7
  6
CONTINUOUS
 10
158.5949150632
 20
147.7552408504
 11
162.9649150632
 21
147.7552408504
  0
LINE
  8
0
 62
7
  6
CONTINUOUS
 10
162.9949151586
 20
147.7552408504
 11
164.9949150632
 21
147.7552408504
  0
LINE
  8
0
 62
7
  6
CONTINUOUS
 10
165.1949150632
 20
147.7552408504
 11
166.9949150632
 21
147.7552408504
  0
POLYLINE
  8
AXES
 62
9
  6
CONTINUOUS
 66
1
 70
0
  0
VERTEX
  8
AXES
 62
9
  6
CONTINUOUS
 10
194.5077855849
 20
114.2533170123
  0
VERTEX
  8
AXES
 62
9
  6
CONTINUOUS
 10
194.6157844795
 20
114.1282880907
  0
VERTEX
  8
AXES
 62
9
  6
CONTINUOUS
 10
194.6616885505
 20
113.9182941472
  0
VERTEX
  8
AXES
 62
9
  6
CONTINUOUS
 10
194.642175643
 20
113.6385327962
  0
VERTEX
  8
AXES
 62
9
  6
CONTINUOUS
 10
194.5586579391
 20
113.3092508363
  0
VERTEX
  8
AXES
 62
9
  6
CONTINUOUS
 10
194.4171797551
 20
112.9542789561
  0
SEQEND
  0
LINE
  8
AXES
 62
9
  6
CONTINUOUS
 10
188.1749150632
 20
114.6552408504
 11
188.1749150632
 21
105.6552408504
  0
LINE
  8
1_AXIS
 62
2
  6
CENTER
 10
188.1749150632
 20
105.7052408504
 11
188.1749150632
 21
116.6552408504
  0
LINE
  8
2_FEATURE
 62
9
  6
CONTINUOUS
 10
188.1749150632
 20
138.6552408504
 11
188.1749150632
 21
140.1552408504
  0
LINE
  8
0
 62
9
  6
CONTINUOUS
 10
188.1749150632
 20
147.6052408504
 11
188.1749150632
 21
147.6552408504
  0
LINE
  8
DEFAULT_1
 62
2
  6
CENTER
 10
188.1749150632
 20
136.6552408504
 11
188.1749150632
 21
147.6052408504
  0
LINE
  8
AXES
 62
7
  6
CONTINUOUS
 10
202.3749150632
 20
107.1552408504
 11
202.3749150632
 21
108.8452023989
  0
LINE
  8
2_FEATURE
 62
7
  6
CONTINUOUS
 10
202.3749150632
 20
144.4652793019
 11
202.3749150632
 21
146.1552408504
  0
LINE
  8
AXES
 62
7
  6
CONTINUOUS
 10
119.3667005833
 20
213.5417575077
 11
119.3667005833
 21
219.0721975433
  0
LINE
  8
AXES
 62
7
  6
CONTINUOUS
 10
119.3667005833
 20
228.011317472
 11
119.3667005833
 21
233.5417575077
  0
POLYLINE
  8
AXES
 62
9
  6
CONTINUOUS
 66
1
 70
0
  0
VERTEX
  8
AXES
 62
9
  6
CONTINUOUS
 10
123.9249150632
 20
237.7417575077
  0
VERTEX
  8
AXES
 62
9
  6
CONTINUOUS
 10
123.8776019015
 20
237.6906462448
  0
VERTEX
  8
AXES
 62
9
  6
CONTINUOUS
 10
123.8335130539
 20
237.5407956053
  0
VERTEX
  8
AXES
 62
9
  6
CONTINUOUS
 10
123.7956531027
 20
237.3024176653
  0
VERTEX
  8
AXES
 62
9
  6
CONTINUOUS
 10
123.766602141
 20
236.991757491
  0
VERTEX
  8
AXES
 62
9
  6
CONTINUOUS
 10
123.7483399434
 20
236.629986063
  0
VERTEX
  8
AXES
 62
9
  6
CONTINUOUS
 10
123.7421110481
 20
236.2417575077
  0
SEQEND
  0
POLYLINE
  8
AXES
 62
9
  6
CONTINUOUS
 66
1
 70
0
  0
VERTEX
  8
AXES
 62
9
  6
CONTINUOUS
 10
123.9249150632
 20
209.3417575077
  0
VERTEX
  8
AXES
 62
9
  6
CONTINUOUS
 10
123.8776019026
 20
209.3928687682
  0
VERTEX
  8
AXES
 62
9
  6
CONTINUOUS
 10
123.8335130557
 20
209.542719402
  0
VERTEX
  8
AXES
 62
9
  6
CONTINUOUS
 10
123.7956531045
 20
209.7810973359
  0
VERTEX
  8
AXES
 62
9
  6
CONTINUOUS
 10
123.7666021422
 20
210.0917575077
  0
VERTEX
  8
AXES
 62
9
  6
CONTINUOUS
 10
123.7483399439
 20
210.45352894
  0
VERTEX
  8
AXES
 62
9
  6
CONTINUOUS
 10
123.7421110481
 20
210.8417575077
  0
SEQEND
  0
LINE
  8
AXES
 62
7
  6
CONTINUOUS
 10
127.2266983164
 20
213.5417575077
 11
127.2266983164
 21
217.5417575077
  0
LINE
  8
AXES
 62
7
  6
CONTINUOUS
 10
127.2266983164
 20
229.5417575077
 11
127.2266983164
 21
233.5417575077
  0
POLYLINE
  8
AXES
 62
9
  6
CONTINUOUS
 66
1
 70
0
  0
VERTEX
  8
AXES
 62
9
  6
CONTINUOUS
 10
137.2598251889
 20
237.7417575077
  0
VERTEX
  8
AXES
 62
9
  6
CONTINUOUS
 10
137.2125120282
 20
237.6906462471
  0
VERTEX
  8
AXES
 62
9
  6
CONTINUOUS
 10
137.1684231813
 20
237.5407956133
  0
VERTEX
  8
AXES
 62
9
  6
CONTINUOUS
 10
137.1305632301
 20
237.3024176794
  0
VERTEX
  8
AXES
 62
9
  6
CONTINUOUS
 10
137.1015122679
 20
236.9917575077
  0
VERTEX
  8
AXES
 62
9
  6
CONTINUOUS
 10
137.0832500695
 20
236.6299860753
  0
VERTEX
  8
AXES
 62
9
  6
CONTINUOUS
 10
137.0770211738
 20
236.2417575077
  0
SEQEND
  0
POLYLINE
  8
AXES
 62
9
  6
CONTINUOUS
 66
1
 70
0
  0
VERTEX
  8
AXES
 62
9
  6
CONTINUOUS
 10
137.2598251889
 20
209.3417575077
  0
VERTEX
  8
AXES
 62
9
  6
CONTINUOUS
 10
137.2125120169
 20
209.392868793
  0
VERTEX
  8
AXES
 62
9
  6
CONTINUOUS
 10
137.1684231659
 20
209.5427194748
  0
VERTEX
  8
AXES
 62
9
  6
CONTINUOUS
 10
137.130563217
 20
209.781097444
  0
VERTEX
  8
AXES
 62
9
  6
CONTINUOUS
 10
137.1015122603
 20
210.0917576156
  0
VERTEX
  8
AXES
 62
9
  6
CONTINUOUS
 10
137.0832500673
 20
210.4535290076
  0
VERTEX
  8
AXES
 62
9
  6
CONTINUOUS
 10
137.0770211737
 20
210.8417575077
  0
SEQEND
  0
LINE
  8
AXES
 62
9
  6
CONTINUOUS
 10
137.0770211738
 20
210.8417575077
 11
137.0770211738
 21
236.2417575077
  0
LINE
  8
AXES
 62
9
  6
CONTINUOUS
 10
137.9460267222
 20
210.8417575077
 11
137.9460267222
 21
236.2417575077
  0
POLYLINE
  8
AXES
 62
9
  6
CONTINUOUS
 66
1
 70
0
  0
VERTEX
  8
AXES
 62
9
  6
CONTINUOUS
 10
138.6502340664
 20
209.3417575077
  0
VERTEX
  8
AXES
 62
9
  6
CONTINUOUS
 10
138.467971794
 20
209.3928687682
  0
VERTEX
  8
AXES
 62
9
  6
CONTINUOUS
 10
138.2981303943
 20
209.542719402
  0
VERTEX
  8
AXES
 62
9
  6
CONTINUOUS
 10
138.152284278
 20
209.7810973359
  0
VERTEX
  8
AXES
 62
9
  6
CONTINUOUS
 10
138.0403726168
 20
210.0917575077
  0
VERTEX
  8
AXES
 62
9
  6
CONTINUOUS
 10
137.9700220056
 20
210.45352894
  0
VERTEX
  8
AXES
 62
9
  6
CONTINUOUS
 10
137.9460267222
 20
210.8417575077
  0
SEQEND
  0
LINE
  8
AXES
 62
7
  6
CONTINUOUS
 10
123.9249150632
 20
209.3417575077
 11
188.1749150632
 21
209.3417575077
  0
LINE
  8
AXES
 62
9
  6
CONTINUOUS
 10
123.7421110481
 20
210.8417575077
 11
188.1749150632
 21
210.8417575077
  0
POLYLINE
  8
AXES
 62
9
  6
CONTINUOUS
 66
1
 70
0
  0
VERTEX
  8
AXES
 62
9
  6
CONTINUOUS
 10
154.8714175419
 20
209.3417575077
  0
VERTEX
  8
AXES
 62
9
  6
CONTINUOUS
 10
154.6891552844
 20
209.3928687601
  0
VERTEX
  8
AXES
 62
9
  6
CONTINUOUS
 10
154.5193138907
 20
209.5427193777
  0
VERTEX
  8
AXES
 62
9
  6
CONTINUOUS
 10
154.373467772
 20
209.7810972991
  0
VERTEX
  8
AXES
 62
9
  6
CONTINUOUS
 10
154.2615561036
 20
210.09175747
  0
VERTEX
  8
AXES
 62
9
  6
CONTINUOUS
 10
154.1912054848
 20
210.4535289157
  0
VERTEX
  8
AXES
 62
9
  6
CONTINUOUS
 10
154.1672101977
 20
210.8417575077
  0
SEQEND
  0
LINE
  8
0
 62
7
  6
CONTINUOUS
 10
165.8936650632
 20
216.0523958341
 11
166.3624148844
 21
216.1481405035
  0
LINE
  8
AXES
 62
7
  6
CONTINUOUS
 10
127.2266983164
 20
213.5417575077
 11
119.3667005833
 21
213.5417575077
  0
LINE
  8
0
 62
7
  6
CONTINUOUS
 10
159.4249150632
 20
214.0417575077
 11
159.9874150632
 21
214.0417575077
  0
LINE
  8
0
 62
7
  6
CONTINUOUS
 10
163.6436650632
 20
214.0417575077
 11
164.2061650632
 21
214.0417575077
  0
LINE
  8
0
 62
7
  6
CONTINUOUS
 10
161.6749150632
 20
216.0523958341
 11
162.1436651526
 21
216.1481405035
  0
LINE
  8
0
 62
7
  6
CONTINUOUS
 10
159.9874150632
 20
216.0523958341
 11
161.6749150632
 21
216.0523958341
  0
LINE
  8
0
 62
7
  6
CONTINUOUS
 10
164.2061650632
 20
216.0523958341
 11
165.8936650632
 21
216.0523958341
  0
LINE
  8
0
 62
7
  6
CONTINUOUS
 10
165.9874152421
 20
216.6268638507
 11
164.2061650632
 21
216.6268638507
  0
LINE
  8
0
 62
7
  6
CONTINUOUS
 10
161.7686649738
 20
216.6268638507
 11
159.9874150632
 21
216.6268638507
  0
LINE
  8
AXES
 62
7
  6
CONTINUOUS
 10
121.4689888125
 20
217.5417575077
 11
127.380841314
 21
217.5417575077
  0
LINE
  8
0
 62
7
  6
CONTINUOUS
 10
159.9874150632
 20
218.0630341605
 11
161.7686649738
 21
218.0630341605
  0
LINE
  8
0
 62
7
  6
CONTINUOUS
 10
164.2061650632
 20
218.0630341605
 11
165.9874152421
 21
218.0630341605
  0
LINE
  8
0
 62
7
  6
CONTINUOUS
 10
165.8936650632
 20
218.5417575077
 11
163.6436650632
 21
218.5417575077
  0
LINE
  8
0
 62
7
  6
CONTINUOUS
 10
161.6749150632
 20
218.5417575077
 11
159.4249150632
 21
218.5417575077
  0
LINE
  8
0
 62
7
  6
CONTINUOUS
 10
162.1436651526
 20
218.4460128382
 11
161.6749150632
 21
218.5417575077
  0
LINE
  8
0
 62
7
  6
CONTINUOUS
 10
166.3624148844
 20
218.4460128382
 11
165.8936650632
 21
218.5417575077
  0
LINE
  8
0
 62
7
  6
CONTINUOUS
 10
161.7686649738
 20
218.0630341605
 11
162.0499149738
 21
217.967289491
  0
LINE
  8
AXES
 62
9
  6
CONTINUOUS
 10
154.1672101977
 20
236.2417575077
 11
154.1672101977
 21
210.8417575077
  0
LINE
  8
AXES
 62
9
  6
CONTINUOUS
 10
155.3408891047
 20
209.3417575077
 11
155.3408891047
 21
237.7417575077
  0
LINE
  8
0
 62
2
  6
CONTINUOUS
 10
189.2249150632
 20
223.5417575077
 11
187.1249150632
 21
223.5417575077
  0
LINE
  8
DEFAULT_1
 62
2
  6
CENTER
 10
182.9249150632
 20
223.5417575077
 11
106.0886007072
 21
223.5417575077
  0
LINE
  8
DEFAULT_1
 62
2
  6
CENTER
 10
193.4249150632
 20
223.5417575077
 11
207.350055461
 21
223.5417575077
  0
LINE
  8
0
 62
7
  6
CONTINUOUS
 10
165.9874152421
 20
218.0630341605
 11
166.2686652421
 21
217.967289491
  0
LINE
  8
0
 62
7
  6
CONTINUOUS
 10
162.5186650632
 20
218.1587788299
 11
162.1436651526
 21
218.4460128382
  0
LINE
  8
0
 62
7
  6
CONTINUOUS
 10
162.0499149738
 20
217.967289491
 11
162.2374150632
 21
217.7758001522
  0
LINE
  8
0
 62
7
  6
CONTINUOUS
 10
159.4249150632
 20
218.5417575077
 11
159.4249150632
 21
214.0417575077
  0
LINE
  8
0
 62
7
  6
CONTINUOUS
 10
166.7374150632
 20
218.1587788299
 11
166.3624148844
 21
218.4460128382
  0
LINE
  8
0
 62
7
  6
CONTINUOUS
 10
166.2686652421
 20
217.967289491
 11
166.4561650632
 21
217.7758001522
  0
LINE
  8
0
 62
7
  6
CONTINUOUS
 10
162.7999150632
 20
217.7758001522
 11
162.5186650632
 21
218.1587788299
  0
LINE
  8
0
 62
7
  6
CONTINUOUS
 10
159.9874150632
 20
214.0417575077
 11
159.9874150632
 21
216.0523958341
  0
LINE
  8
0
 62
7
  6
CONTINUOUS
 10
159.9874150632
 20
216.6268638507
 11
159.9874150632
 21
218.0630341605
  0
LINE
  8
0
 62
7
  6
CONTINUOUS
 10
162.3311649738
 20
217.4885661438
 11
162.3311649738
 21
217.2013318673
  0
LINE
  8
0
 62
7
  6
CONTINUOUS
 10
162.8936649738
 20
217.1055871979
 11
162.8936649738
 21
217.4885661438
  0
LINE
  8
AXES
 62
7
  6
CONTINUOUS
 10
127.380841314
 20
229.5417575077
 11
121.4689888125
 21
229.5417575077
  0
LINE
  8
0
 62
7
  6
CONTINUOUS
 10
167.0186650632
 20
217.7758001522
 11
166.7374150632
 21
218.1587788299
  0
LINE
  8
0
 62
7
  6
CONTINUOUS
 10
162.2374150632
 20
217.7758001522
 11
162.3311649738
 21
217.4885661438
  0
LINE
  8
0
 62
7
  6
CONTINUOUS
 10
162.8936649738
 20
217.4885661438
 11
162.7999150632
 21
217.7758001522
  0
LINE
  8
0
 62
7
  6
CONTINUOUS
 10
163.6436650632
 20
218.5417575077
 11
163.6436650632
 21
214.0417575077
  0
LINE
  8
0
 62
7
  6
CONTINUOUS
 10
164.2061650632
 20
214.0417575077
 11
164.2061650632
 21
216.0523958341
  0
LINE
  8
0
 62
7
  6
CONTINUOUS
 10
164.2061650632
 20
216.6268638507
 11
164.2061650632
 21
218.0630341605
  0
LINE
  8
0
 62
7
  6
CONTINUOUS
 10
162.3311649738
 20
217.2013318673
 11
162.2374150632
 21
216.914097859
  0
LINE
  8
0
 62
7
  6
CONTINUOUS
 10
162.7999150632
 20
216.8183531896
 11
162.8936649738
 21
217.1055871979
  0
LINE
  8
0
 62
7
  6
CONTINUOUS
 10
162.5186650632
 20
216.4353745118
 11
162.7999150632
 21
216.8183531896
  0
LINE
  8
0
 62
7
  6
CONTINUOUS
 10
162.2374150632
 20
216.914097859
 11
162.0499149738
 21
216.7226085201
  0
LINE
  8
0
 62
7
  6
CONTINUOUS
 10
162.1436651526
 20
216.1481405035
 11
162.5186650632
 21
216.4353745118
  0
LINE
  8
0
 62
7
  6
CONTINUOUS
 10
162.0499149738
 20
216.7226085201
 11
161.7686649738
 21
216.6268638507
  0
LINE
  8
0
 62
7
  6
CONTINUOUS
 10
166.2686652421
 20
216.7226085201
 11
165.9874152421
 21
216.6268638507
  0
LINE
  8
AXES
 62
7
  6
CONTINUOUS
 10
127.2266983164
 20
233.5417575077
 11
119.3667005833
 21
233.5417575077
  0
LINE
  8
0
 62
7
  6
CONTINUOUS
 10
166.4561650632
 20
217.7758001522
 11
166.5499152421
 21
217.4885661438
  0
LINE
  8
0
 62
7
  6
CONTINUOUS
 10
167.1124152421
 20
217.4885661438
 11
167.0186650632
 21
217.7758001522
  0
LINE
  8
0
 62
7
  6
CONTINUOUS
 10
166.5499152421
 20
217.4885661438
 11
166.5499152421
 21
217.2013318673
  0
LINE
  8
0
 62
7
  6
CONTINUOUS
 10
167.1124152421
 20
217.1055871979
 11
167.1124152421
 21
217.4885661438
  0
LINE
  8
0
 62
7
  6
CONTINUOUS
 10
166.5499152421
 20
217.2013318673
 11
166.4561650632
 21
216.914097859
  0
LINE
  8
0
 62
7
  6
CONTINUOUS
 10
167.0186650632
 20
216.8183531896
 11
167.1124152421
 21
217.1055871979
  0
LINE
  8
0
 62
7
  6
CONTINUOUS
 10
166.7374150632
 20
216.4353745118
 11
167.0186650632
 21
216.8183531896
  0
LINE
  8
0
 62
7
  6
CONTINUOUS
 10
166.4561650632
 20
216.914097859
 11
166.2686652421
 21
216.7226085201
  0
LINE
  8
0
 62
7
  6
CONTINUOUS
 10
166.3624148844
 20
216.1481405035
 11
166.7374150632
 21
216.4353745118
  0
LINE
  8
AXES
 62
9
  6
CONTINUOUS
 10
188.1749150632
 20
236.2417575077
 11
123.7421110481
 21
236.2417575077
  0
POLYLINE
  8
AXES
 62
9
  6
CONTINUOUS
 66
1
 70
0
  0
VERTEX
  8
AXES
 62
9
  6
CONTINUOUS
 10
154.8714175419
 20
237.7417575077
  0
VERTEX
  8
AXES
 62
9
  6
CONTINUOUS
 10
154.6891552695
 20
237.6906462471
  0
VERTEX
  8
AXES
 62
9
  6
CONTINUOUS
 10
154.5193138698
 20
237.5407956133
  0
VERTEX
  8
AXES
 62
9
  6
CONTINUOUS
 10
154.3734677535
 20
237.3024176794
  0
VERTEX
  8
AXES
 62
9
  6
CONTINUOUS
 10
154.2615560923
 20
236.9917575077
  0
VERTEX
  8
AXES
 62
9
  6
CONTINUOUS
 10
154.1912054811
 20
236.6299860753
  0
VERTEX
  8
AXES
 62
9
  6
CONTINUOUS
 10
154.1672101977
 20
236.2417575077
  0
SEQEND
  0
POLYLINE
  8
AXES
 62
9
  6
CONTINUOUS
 66
1
 70
0
  0
VERTEX
  8
AXES
 62
9
  6
CONTINUOUS
 10
123.7421110481
 20
236.2417575077
  0
VERTEX
  8
AXES
 62
9
  6
CONTINUOUS
 10
121.7965176397
 20
236.0918437984
  0
VERTEX
  8
AXES
 62
9
  6
CONTINUOUS
 10
119.8974194812
 20
235.645820742
  0
VERTEX
  8
AXES
 62
9
  6
CONTINUOUS
 10
118.0901682559
 20
234.9147756744
  0
VERTEX
  8
AXES
 62
9
  6
CONTINUOUS
 10
116.4175210064
 20
233.9167456775
  0
VERTEX
  8
AXES
 62
9
  6
CONTINUOUS
 10
114.9186455584
 20
232.6761132342
  0
VERTEX
  8
AXES
 62
9
  6
CONTINUOUS
 10
113.6281958926
 20
231.2228197216
  0
VERTEX
  8
AXES
 62
9
  6
CONTINUOUS
 10
112.5756119454
 20
229.5914924427
  0
VERTEX
  8
AXES
 62
9
  6
CONTINUOUS
 10
111.7845929192
 20
227.8205135753
  0
VERTEX
  8
AXES
 62
9
  6
CONTINUOUS
 10
111.2727450923
 20
225.9510943675
  0
VERTEX
  8
AXES
 62
9
  6
CONTINUOUS
 10
111.0513609187
 20
224.0263714443
  0
VERTEX
  8
AXES
 62
9
  6
CONTINUOUS
 10
111.051364031
 20
223.0570630832
  0
VERTEX
  8
AXES
 62
9
  6
CONTINUOUS
 10
111.2727602692
 20
221.1323431087
  0
VERTEX
  8
AXES
 62
9
  6
CONTINUOUS
 10
111.7846184478
 20
219.2629311008
  0
VERTEX
  8
AXES
 62
9
  6
CONTINUOUS
 10
112.5756446378
 20
217.4919632277
  0
VERTEX
  8
AXES
 62
9
  6
CONTINUOUS
 10
113.6282313237
 20
215.8606496326
  0
VERTEX
  8
AXES
 62
9
  6
CONTINUOUS
 10
114.9186777719
 20
214.4073716511
  0
VERTEX
  8
AXES
 62
9
  6
CONTINUOUS
 10
116.4175443594
 20
213.1667538351
  0
VERTEX
  8
AXES
 62
9
  6
CONTINUOUS
 10
118.0901740505
 20
212.1687374465
  0
VERTEX
  8
AXES
 62
9
  6
CONTINUOUS
 10
119.8974043139
 20
211.4377000839
  0
VERTEX
  8
AXES
 62
9
  6
CONTINUOUS
 10
121.796474529
 20
210.9916788839
  0
VERTEX
  8
AXES
 62
9
  6
CONTINUOUS
 10
123.7421110481
 20
210.8417575077
  0
SEQEND
  0
LINE
  8
AXES
 62
7
  6
CONTINUOUS
 10
188.1749150632
 20
237.7417575077
 11
123.9249150632
 21
237.7417575077
  0
POLYLINE
  8
AXES
 62
9
  6
CONTINUOUS
 66
1
 70
0
  0
VERTEX
  8
AXES
 62
9
  6
CONTINUOUS
 10
138.6502340664
 20
237.7417575077
  0
VERTEX
  8
AXES
 62
9
  6
CONTINUOUS
 10
138.4679717255
 20
237.690646208
  0
VERTEX
  8
AXES
 62
9
  6
CONTINUOUS
 10
138.2981303008
 20
237.5407954984
  0
VERTEX
  8
AXES
 62
9
  6
CONTINUOUS
 10
138.1522841976
 20
237.3024175083
  0
VERTEX
  8
AXES
 62
9
  6
CONTINUOUS
 10
138.0403725704
 20
236.9917573364
  0
VERTEX
  8
AXES
 62
9
  6
CONTINUOUS
 10
137.970021992
 20
236.6299859677
  0
VERTEX
  8
AXES
 62
9
  6
CONTINUOUS
 10
137.9460267222
 20
236.2417575077
  0
SEQEND
  0
LINE
  8
AXES
 62
9
  6
CONTINUOUS
 10
188.1749150632
 20
237.7417575077
 11
188.1749150632
 21
236.2417575077
  0
LINE
  8
0
 62
2
  6
CONTINUOUS
 10
188.1749150632
 20
224.5917575077
 11
188.1749150632
 21
222.4917575077
  0
LINE
  8
DEFAULT_1
 62
2
  6
CENTER
 10
188.1749150632
 20
218.2917575077
 11
188.1749150632
 21
204.3666171099
  0
LINE
  8
AXES
 62
9
  6
CONTINUOUS
 10
188.1749150632
 20
209.3417575077
 11
188.1749150632
 21
210.8417575077
  0
LINE
  8
DEFAULT_1
 62
2
  6
CENTER
 10
188.1749150632
 20
228.7917575077
 11
188.1749150632
 21
242.7168979054
  0
LINE
  8
0
 62
7
  6
CONTINUOUS
 10
266.2280467909
 20
105.5552408504
 11
261.7280467909
 21
105.5552408504
  0
LINE
  8
AXES
 62
7
  6
CONTINUOUS
 10
283.9280467909
 20
105.6552408504
 11
258.5280467909
 21
105.6552408504
  0
LINE
  8
AXES
 62
9
  6
CONTINUOUS
 10
283.9280467909
 20
105.9478718682
 11
258.5280467909
 21
105.9478718682
  0
POLYLINE
  8
0
 62
9
  6
CONTINUOUS
 66
1
 70
0
  0
VERTEX
  8
0
 62
9
  6
CONTINUOUS
 10
257.0280467909
 20
146.0381884432
  0
VERTEX
  8
0
 62
9
  6
CONTINUOUS
 10
257.0791580433
 20
146.3809738961
  0
VERTEX
  8
0
 62
9
  6
CONTINUOUS
 10
257.229008661
 20
146.7003991013
  0
VERTEX
  8
0
 62
9
  6
CONTINUOUS
 10
257.4673865823
 20
146.9746957569
  0
VERTEX
  8
0
 62
9
  6
CONTINUOUS
 10
257.7780467533
 20
147.1851709931
  0
VERTEX
  8
0
 62
9
  6
CONTINUOUS
 10
258.139818199
 20
147.3174812627
  0
VERTEX
  8
0
 62
9
  6
CONTINUOUS
 10
258.5280467909
 20
147.3626098325
  0
SEQEND
  0
POLYLINE
  8
AXES
 62
9
  6
CONTINUOUS
 66
1
 70
0
  0
VERTEX
  8
AXES
 62
9
  6
CONTINUOUS
 10
257.0280467909
 20
107.2722932575
  0
VERTEX
  8
AXES
 62
9
  6
CONTINUOUS
 10
257.0791580433
 20
106.9295078046
  0
VERTEX
  8
AXES
 62
9
  6
CONTINUOUS
 10
257.229008661
 20
106.6100825994
  0
VERTEX
  8
AXES
 62
9
  6
CONTINUOUS
 10
257.4673865823
 20
106.3357859438
  0
VERTEX
  8
AXES
 62
9
  6
CONTINUOUS
 10
257.7780467533
 20
106.1253107077
  0
VERTEX
  8
AXES
 62
9
  6
CONTINUOUS
 10
258.139818199
 20
105.9930004381
  0
VERTEX
  8
AXES
 62
9
  6
CONTINUOUS
 10
258.5280467909
 20
105.9478718682
  0
SEQEND
  0
POLYLINE
  8
0
 62
9
  6
CONTINUOUS
 66
1
 70
0
  0
VERTEX
  8
0
 62
9
  6
CONTINUOUS
 10
257.0280467909
 20
136.9748379615
  0
VERTEX
  8
0
 62
9
  6
CONTINUOUS
 10
257.0791580763
 20
137.3601728242
  0
VERTEX
  8
0
 62
9
  6
CONTINUOUS
 10
257.229008758
 20
137.7192477003
  0
VERTEX
  8
0
 62
9
  6
CONTINUOUS
 10
257.4673867272
 20
138.0275922405
  0
VERTEX
  8
0
 62
9
  6
CONTINUOUS
 10
257.7780468989
 20
138.264193296
  0
VERTEX
  8
0
 62
9
  6
CONTINUOUS
 10
258.1398182909
 20
138.4129269219
  0
VERTEX
  8
0
 62
9
  6
CONTINUOUS
 10
258.5280467909
 20
138.4636571889
  0
SEQEND
  0
POLYLINE
  8
0
 62
9
  6
CONTINUOUS
 66
1
 70
0
  0
VERTEX
  8
0
 62
9
  6
CONTINUOUS
 10
257.0280467909
 20
135.337516877
  0
VERTEX
  8
0
 62
9
  6
CONTINUOUS
 10
257.0791580515
 20
135.7228516478
  0
VERTEX
  8
0
 62
9
  6
CONTINUOUS
 10
257.2290086852
 20
136.0819264907
  0
VERTEX
  8
0
 62
9
  6
CONTINUOUS
 10
257.4673866191
 20
136.3902710487
  0
VERTEX
  8
0
 62
9
  6
CONTINUOUS
 10
257.7780467909
 20
136.6268721496
  0
VERTEX
  8
0
 62
9
  6
CONTINUOUS
 10
258.1398182233
 20
136.7756058195
  0
VERTEX
  8
0
 62
9
  6
CONTINUOUS
 10
258.5280467909
 20
136.8263361045
  0
SEQEND
  0
POLYLINE
  8
0
 62
9
  6
CONTINUOUS
 66
1
 70
0
  0
VERTEX
  8
0
 62
9
  6
CONTINUOUS
 10
257.0280467909
 20
137.4132321966
  0
VERTEX
  8
0
 62
9
  6
CONTINUOUS
 10
257.0791580515
 20
137.7560176759
  0
VERTEX
  8
0
 62
9
  6
CONTINUOUS
 10
257.2290086852
 20
138.0754428912
  0
VERTEX
  8
0
 62
9
  6
CONTINUOUS
 10
257.4673866191
 20
138.3497395421
  0
VERTEX
  8
0
 62
9
  6
CONTINUOUS
 10
257.7780467909
 20
138.560214765
  0
VERTEX
  8
0
 62
9
  6
CONTINUOUS
 10
258.1398182233
 20
138.6925250214
  0
VERTEX
  8
0
 62
9
  6
CONTINUOUS
 10
258.5280467909
 20
138.7376535859
  0
SEQEND
  0
POLYLINE
  8
AXES
 62
9
  6
CONTINUOUS
 66
1
 70
0
  0
VERTEX
  8
AXES
 62
9
  6
CONTINUOUS
 10
257.0280467909
 20
115.8972495042
  0
VERTEX
  8
AXES
 62
9
  6
CONTINUOUS
 10
257.0791580515
 20
115.5544640249
  0
VERTEX
  8
AXES
 62
9
  6
CONTINUOUS
 10
257.2290086852
 20
115.2350388095
  0
VERTEX
  8
AXES
 62
9
  6
CONTINUOUS
 10
257.4673866191
 20
114.9607421586
  0
VERTEX
  8
AXES
 62
9
  6
CONTINUOUS
 10
257.7780467909
 20
114.7502669357
  0
VERTEX
  8
AXES
 62
9
  6
CONTINUOUS
 10
258.1398182233
 20
114.6179566794
  0
VERTEX
  8
AXES
 62
9
  6
CONTINUOUS
 10
258.5280467909
 20
114.5728281149
  0
SEQEND
  0
POLYLINE
  8
AXES
 62
9
  6
CONTINUOUS
 66
1
 70
0
  0
VERTEX
  8
AXES
 62
9
  6
CONTINUOUS
 10
257.0280467909
 20
116.3356437393
  0
VERTEX
  8
AXES
 62
9
  6
CONTINUOUS
 10
257.0791580763
 20
115.9503088766
  0
VERTEX
  8
AXES
 62
9
  6
CONTINUOUS
 10
257.229008758
 20
115.5912340004
  0
VERTEX
  8
AXES
 62
9
  6
CONTINUOUS
 10
257.4673867272
 20
115.2828894603
  0
VERTEX
  8
AXES
 62
9
  6
CONTINUOUS
 10
257.7780468989
 20
115.0462884048
  0
VERTEX
  8
AXES
 62
9
  6
CONTINUOUS
 10
258.1398182909
 20
114.8975547788
  0
VERTEX
  8
AXES
 62
9
  6
CONTINUOUS
 10
258.5280467909
 20
114.8468245118
  0
SEQEND
  0
POLYLINE
  8
AXES
 62
9
  6
CONTINUOUS
 66
1
 70
0
  0
VERTEX
  8
AXES
 62
9
  6
CONTINUOUS
 10
257.0280467909
 20
117.9729648237
  0
VERTEX
  8
AXES
 62
9
  6
CONTINUOUS
 10
257.0791580515
 20
117.587630053
  0
VERTEX
  8
AXES
 62
9
  6
CONTINUOUS
 10
257.2290086852
 20
117.22855521
  0
VERTEX
  8
AXES
 62
9
  6
CONTINUOUS
 10
257.4673866191
 20
116.920210652
  0
VERTEX
  8
AXES
 62
9
  6
CONTINUOUS
 10
257.7780467909
 20
116.6836095511
  0
VERTEX
  8
AXES
 62
9
  6
CONTINUOUS
 10
258.1398182233
 20
116.5348758813
  0
VERTEX
  8
AXES
 62
9
  6
CONTINUOUS
 10
258.5280467909
 20
116.4841455963
  0
SEQEND
  0
LINE
  8
AXES
 62
7
  6
CONTINUOUS
 10
257.0280467909
 20
119.1552408504
 11
257.0280467909
 21
107.1552408504
  0
LINE
  8
2_FEATURE
 62
7
  6
CONTINUOUS
 10
257.0280467909
 20
119.1552408977
 11
257.0280467909
 21
134.1552408031
  0
LINE
  8
0
 62
7
  6
CONTINUOUS
 10
257.0280467909
 20
134.1552408504
 11
257.0280467909
 21
146.1552408504
  0
LINE
  8
AXES
 62
9
  6
CONTINUOUS
 10
258.5280467909
 20
116.4841455963
 11
258.5280467909
 21
105.6552408504
  0
LINE
  8
0
 62
9
  6
CONTINUOUS
 10
258.5280467909
 20
136.8263361045
 11
258.5280467909
 21
147.6552408504
  0
LINE
  8
AXES
 62
9
  6
CONTINUOUS
 10
258.5280467909
 20
114.5728281149
 11
283.9280467909
 21
114.5728281149
  0
LINE
  8
AXES
 62
9
  6
CONTINUOUS
 10
258.5280467909
 20
114.8468245118
 11
283.9280467909
 21
114.8468245118
  0
LINE
  8
0
 62
7
  6
CONTINUOUS
 10
260.4280467909
 20
147.6552408504
 11
260.4280467909
 21
147.7552408504
  0
LINE
  8
0
 62
7
  6
CONTINUOUS
 10
260.4918765761
 20
147.6552408504
 11
260.4918765761
 21
147.7552408504
  0
LINE
  8
0
 62
7
  6
CONTINUOUS
 10
260.6833659318
 20
147.6552408504
 11
260.6833659318
 21
147.7552408504
  0
LINE
  8
0
 62
7
  6
CONTINUOUS
 10
260.874855293
 20
147.6552408504
 11
260.874855293
 21
147.7552408504
  0
LINE
  8
0
 62
7
  6
CONTINUOUS
 10
261.1301744562
 20
147.6552408504
 11
261.1301744562
 21
147.7552408504
  0
LINE
  8
2_FEATURE
 62
7
  6
CONTINUOUS
 10
261.2280467909
 20
138.1552303103
 11
261.2280467909
 21
136.2891032518
  0
LINE
  8
AXES
 62
7
  6
CONTINUOUS
 10
261.2280467909
 20
115.1552513905
 11
261.2280467909
 21
117.021378449
  0
LINE
  8
AXES
 62
7
  6
CONTINUOUS
 10
281.2280467909
 20
115.1552408504
 11
277.2280467909
 21
115.1552408504
  0
LINE
  8
AXES
 62
7
  6
CONTINUOUS
 10
265.2280467909
 20
115.1552408504
 11
261.2280467909
 21
115.1552408504
  0
POLYLINE
  8
AXES
 62
7
  6
CONTINUOUS
 66
1
 70
0
  0
VERTEX
  8
AXES
 62
7
  6
CONTINUOUS
 10
265.5379302466
 20
115.960230356
  0
VERTEX
  8
AXES
 62
7
  6
CONTINUOUS
 10
265.9649746458
 20
115.8813694717
  0
VERTEX
  8
AXES
 62
7
  6
CONTINUOUS
 10
266.8032439422
 20
115.7744241827
  0
VERTEX
  8
AXES
 62
7
  6
CONTINUOUS
 10
267.7817309906
 20
115.6876768822
  0
VERTEX
  8
AXES
 62
7
  6
CONTINUOUS
 10
268.868750788
 20
115.6237867274
  0
VERTEX
  8
AXES
 62
7
  6
CONTINUOUS
 10
270.0296906721
 20
115.5846777515
  0
VERTEX
  8
AXES
 62
7
  6
CONTINUOUS
 10
271.2280504519
 20
115.571512019
  0
VERTEX
  8
AXES
 62
7
  6
CONTINUOUS
 10
272.4264097737
 20
115.5846779035
  0
VERTEX
  8
AXES
 62
7
  6
CONTINUOUS
 10
273.5873483887
 20
115.6237869837
  0
VERTEX
  8
AXES
 62
7
  6
CONTINUOUS
 10
274.6743664403
 20
115.6876771628
  0
VERTEX
  8
AXES
 62
7
  6
CONTINUOUS
 10
275.6528516151
 20
115.7744243932
  0
VERTEX
  8
AXES
 62
7
  6
CONTINUOUS
 10
276.4911194504
 20
115.8813695504
  0
VERTEX
  8
AXES
 62
7
  6
CONTINUOUS
 10
276.9182632042
 20
115.9602487926
  0
SEQEND
  0
LINE
  8
0
 62
7
  6
CONTINUOUS
 10
261.3216637951
 20
147.6552408504
 11
261.3216637951
 21
147.7552408504
  0
LINE
  8
0
 62
7
  6
CONTINUOUS
 10
261.6408127826
 20
147.6552408504
 11
261.6408127826
 21
147.7552408504
  0
LINE
  8
0
 62
7
  6
CONTINUOUS
 10
261.7280467909
 20
105.6552408504
 11
261.7280467909
 21
105.5552408504
  0
LINE
  8
0
 62
7
  6
CONTINUOUS
 10
262.2152807992
 20
147.6552408504
 11
262.2152807992
 21
147.7552408504
  0
LINE
  8
0
 62
7
  6
CONTINUOUS
 10
262.5344296973
 20
147.6552408504
 11
262.5344296973
 21
147.7552408504
  0
LINE
  8
0
 62
7
  6
CONTINUOUS
 10
262.725919215
 20
147.6552408504
 11
262.725919215
 21
147.7552408504
  0
LINE
  8
AXES
 62
7
  6
CONTINUOUS
 10
261.2280467909
 20
117.021378449
 11
266.7584868265
 21
117.021378449
  0
LINE
  8
AXES
 62
7
  6
CONTINUOUS
 10
275.6976067553
 20
117.021378449
 11
281.2280467909
 21
117.021378449
  0
POLYLINE
  8
AXES
 62
7
  6
CONTINUOUS
 66
1
 70
0
  0
VERTEX
  8
AXES
 62
7
  6
CONTINUOUS
 10
275.6976067553
 20
117.021378449
  0
VERTEX
  8
AXES
 62
7
  6
CONTINUOUS
 10
274.7739586519
 20
117.1055339372
  0
VERTEX
  8
AXES
 62
7
  6
CONTINUOUS
 10
273.7488849478
 20
117.1691379689
  0
VERTEX
  8
AXES
 62
7
  6
CONTINUOUS
 10
272.6520733038
 20
117.2104500565
  0
VERTEX
  8
AXES
 62
7
  6
CONTINUOUS
 10
271.5148808538
 20
117.2283549605
  0
VERTEX
  8
AXES
 62
7
  6
CONTINUOUS
 10
270.9412079442
 20
117.2283549355
  0
VERTEX
  8
AXES
 62
7
  6
CONTINUOUS
 10
269.80401606
 20
117.2104499448
  0
VERTEX
  8
AXES
 62
7
  6
CONTINUOUS
 10
268.7072056042
 20
117.1691378192
  0
VERTEX
  8
AXES
 62
7
  6
CONTINUOUS
 10
267.6821334032
 20
117.1055338214
  0
VERTEX
  8
AXES
 62
7
  6
CONTINUOUS
 10
266.7584868265
 20
117.021378449
  0
SEQEND
  0
LINE
  8
0
 62
7
  6
CONTINUOUS
 10
262.9812383335
 20
147.6552408504
 11
262.9812383335
 21
147.7552408504
  0
LINE
  8
0
 62
7
  6
CONTINUOUS
 10
263.1727276724
 20
147.6552408504
 11
263.1727276724
 21
147.7552408504
  0
LINE
  8
0
 62
7
  6
CONTINUOUS
 10
263.3642170113
 20
147.6552408504
 11
263.3642170113
 21
147.7552408504
  0
LINE
  8
0
 62
7
  6
CONTINUOUS
 10
263.4280467909
 20
147.6552408504
 11
263.4280467909
 21
147.7552408504
  0
LINE
  8
0
 62
7
  6
CONTINUOUS
 10
264.4280467909
 20
147.6552408504
 11
264.4280467909
 21
147.7552408504
  0
LINE
  8
2_FEATURE
 62
7
  6
CONTINUOUS
 10
265.2280467909
 20
138.1552344022
 11
265.2280467909
 21
137.6734155114
  0
LINE
  8
AXES
 62
7
  6
CONTINUOUS
 10
265.2280467909
 20
115.1552472985
 11
265.2280467909
 21
115.6370661893
  0
LINE
  8
0
 62
7
  6
CONTINUOUS
 10
265.8080467909
 20
147.6552408504
 11
265.8080467909
 21
147.7552408504
  0
LINE
  8
0
 62
7
  6
CONTINUOUS
 10
266.1280467909
 20
147.6552408504
 11
266.1280467909
 21
147.7552408504
  0
LINE
  8
0
 62
7
  6
CONTINUOUS
 10
266.2280467909
 20
105.6552408504
 11
266.2280467909
 21
105.5552408504
  0
LINE
  8
0
 62
7
  6
CONTINUOUS
 10
267.6580467909
 20
147.6552408504
 11
267.6580467909
 21
147.7552408504
  0
POLYLINE
  8
2_FEATURE
 62
7
  6
CONTINUOUS
 66
1
 70
0
  0
VERTEX
  8
2_FEATURE
 62
7
  6
CONTINUOUS
 10
277.1615145328
 20
137.559619307
  0
VERTEX
  8
2_FEATURE
 62
7
  6
CONTINUOUS
 10
276.6555183947
 20
137.1240668693
  0
VERTEX
  8
2_FEATURE
 62
7
  6
CONTINUOUS
 10
275.6976067553
 20
136.2891032518
  0
SEQEND
  0
LINE
  8
AXES
 62
7
  6
CONTINUOUS
 10
277.1615145328
 20
115.7508623937
 11
276.6555183947
 21
116.1864148315
  0
LINE
  8
AXES
 62
7
  6
CONTINUOUS
 10
276.6555183947
 20
116.1864148315
 11
275.6976067553
 21
117.021378449
  0
LINE
  8
1_AXIS
 62
2
  6
CENTER
 10
271.2280467909
 20
105.7052408504
 11
271.2280467909
 21
136.3315334444
  0
LINE
  8
DEFAULT_1
 62
2
  6
CENTER
 10
271.2280467909
 20
136.6552408504
 11
271.2280467909
 21
147.6052408504
  0
LINE
  8
DEFAULT_1
 62
2
  6
CENTER
 10
254.0280476665
 20
126.6552408504
 11
287.4280467909
 21
126.6552408504
  0
POLYLINE
  8
2_FEATURE
 62
7
  6
CONTINUOUS
 66
1
 70
0
  0
VERTEX
  8
2_FEATURE
 62
7
  6
CONTINUOUS
 10
277.2280467909
 20
137.6734155114
  0
VERTEX
  8
2_FEATURE
 62
7
  6
CONTINUOUS
 10
277.2110951454
 20
137.6163250851
  0
VERTEX
  8
2_FEATURE
 62
7
  6
CONTINUOUS
 10
277.1615145328
 20
137.559619307
  0
SEQEND
  0
POLYLINE
  8
AXES
 62
7
  6
CONTINUOUS
 66
1
 70
0
  0
VERTEX
  8
AXES
 62
7
  6
CONTINUOUS
 10
265.294579049
 20
115.7508623937
  0
VERTEX
  8
AXES
 62
7
  6
CONTINUOUS
 10
265.2449476812
 20
115.6940697493
  0
VERTEX
  8
AXES
 62
7
  6
CONTINUOUS
 10
265.2280467909
 20
115.6370661893
  0
SEQEND
  0
POLYLINE
  8
2_FEATURE
 62
7
  6
CONTINUOUS
 66
1
 70
0
  0
VERTEX
  8
2_FEATURE
 62
7
  6
CONTINUOUS
 10
265.294579049
 20
137.559619307
  0
VERTEX
  8
2_FEATURE
 62
7
  6
CONTINUOUS
 10
265.2449476812
 20
137.6164119514
  0
VERTEX
  8
2_FEATURE
 62
7
  6
CONTINUOUS
 10
265.2280467909
 20
137.6734155114
  0
SEQEND
  0
POLYLINE
  8
AXES
 62
7
  6
CONTINUOUS
 66
1
 70
0
  0
VERTEX
  8
AXES
 62
7
  6
CONTINUOUS
 10
277.2280467909
 20
115.6370661893
  0
VERTEX
  8
AXES
 62
7
  6
CONTINUOUS
 10
277.2110951454
 20
115.6941566157
  0
VERTEX
  8
AXES
 62
7
  6
CONTINUOUS
 10
277.1615145328
 20
115.7508623937
  0
SEQEND
  0
POLYLINE
  8
AXES
 62
7
  6
CONTINUOUS
 66
1
 70
0
  0
VERTEX
  8
AXES
 62
7
  6
CONTINUOUS
 10
266.7584868265
 20
117.021378449
  0
VERTEX
  8
AXES
 62
7
  6
CONTINUOUS
 10
265.7739989144
 20
116.1633327712
  0
VERTEX
  8
AXES
 62
7
  6
CONTINUOUS
 10
265.294579049
 20
115.7508623937
  0
SEQEND
  0
LINE
  8
2_FEATURE
 62
7
  6
CONTINUOUS
 10
265.7739989144
 20
137.1471489296
 11
265.294579049
 21
137.559619307
  0
LINE
  8
2_FEATURE
 62
7
  6
CONTINUOUS
 10
266.7584868265
 20
136.2891032518
 11
265.7739989144
 21
137.1471489296
  0
LINE
  8
2_FEATURE
 62
7
  6
CONTINUOUS
 10
277.2280467909
 20
138.1552344022
 11
277.2280467909
 21
137.6734155114
  0
LINE
  8
AXES
 62
7
  6
CONTINUOUS
 10
277.2280467909
 20
115.1552472985
 11
277.2280467909
 21
115.6370661893
  0
POLYLINE
  8
0
 62
9
  6
CONTINUOUS
 66
1
 70
0
  0
VERTEX
  8
0
 62
9
  6
CONTINUOUS
 10
283.9280467909
 20
136.8263361045
  0
VERTEX
  8
0
 62
9
  6
CONTINUOUS
 10
283.7781330817
 20
136.5874472721
  0
VERTEX
  8
0
 62
9
  6
CONTINUOUS
 10
283.3321100253
 20
136.3542673386
  0
VERTEX
  8
0
 62
9
  6
CONTINUOUS
 10
282.6010649576
 20
136.1323647905
  0
VERTEX
  8
0
 62
9
  6
CONTINUOUS
 10
281.6030349608
 20
135.9269895324
  0
VERTEX
  8
0
 62
9
  6
CONTINUOUS
 10
280.3624025175
 20
135.7429507687
  0
VERTEX
  8
0
 62
9
  6
CONTINUOUS
 10
278.9091090048
 20
135.5845034731
  0
VERTEX
  8
0
 62
9
  6
CONTINUOUS
 10
277.277781726
 20
135.4552624153
  0
VERTEX
  8
0
 62
9
  6
CONTINUOUS
 10
275.5068028585
 20
135.3581374915
  0
VERTEX
  8
0
 62
9
  6
CONTINUOUS
 10
273.6373836507
 20
135.2952904808
  0
VERTEX
  8
0
 62
9
  6
CONTINUOUS
 10
271.7126607276
 20
135.2681079223
  0
VERTEX
  8
0
 62
9
  6
CONTINUOUS
 10
270.7433523665
 20
135.2681083044
  0
VERTEX
  8
0
 62
9
  6
CONTINUOUS
 10
268.8186323919
 20
135.2952923443
  0
VERTEX
  8
0
 62
9
  6
CONTINUOUS
 10
266.949220384
 20
135.358140626
  0
VERTEX
  8
0
 62
9
  6
CONTINUOUS
 10
265.178252511
 20
135.4552664294
  0
VERTEX
  8
0
 62
9
  6
CONTINUOUS
 10
263.5469389159
 20
135.5845078235
  0
VERTEX
  8
0
 62
9
  6
CONTINUOUS
 10
262.0936609343
 20
135.742954724
  0
VERTEX
  8
0
 62
9
  6
CONTINUOUS
 10
260.8530431183
 20
135.9269923998
  0
VERTEX
  8
0
 62
9
  6
CONTINUOUS
 10
259.8550267298
 20
136.132365502
  0
VERTEX
  8
0
 62
9
  6
CONTINUOUS
 10
259.1239893671
 20
136.3542654763
  0
VERTEX
  8
0
 62
9
  6
CONTINUOUS
 10
258.6779681672
 20
136.5874419788
  0
VERTEX
  8
0
 62
9
  6
CONTINUOUS
 10
258.5280467909
 20
136.8263361045
  0
SEQEND
  0
POLYLINE
  8
0
 62
9
  6
CONTINUOUS
 66
1
 70
0
  0
VERTEX
  8
0
 62
9
  6
CONTINUOUS
 10
285.4280467909
 20
135.337516877
  0
VERTEX
  8
0
 62
9
  6
CONTINUOUS
 10
285.2604170486
 20
135.0986212153
  0
VERTEX
  8
0
 62
9
  6
CONTINUOUS
 10
284.7617110574
 20
134.8654437058
  0
VERTEX
  8
0
 62
9
  6
CONTINUOUS
 10
283.9443245434
 20
134.64354327
  0
VERTEX
  8
0
 62
9
  6
CONTINUOUS
 10
282.8284234194
 20
134.4381696743
  0
VERTEX
  8
0
 62
9
  6
CONTINUOUS
 10
281.4412685124
 20
134.2541320818
  0
VERTEX
  8
0
 62
9
  6
CONTINUOUS
 10
279.8163361869
 20
134.0956854696
  0
VERTEX
  8
0
 62
9
  6
CONTINUOUS
 10
277.9923423495
 20
133.9664446456
  0
VERTEX
  8
0
 62
9
  6
CONTINUOUS
 10
276.0122014844
 20
133.8693195711
  0
VERTEX
  8
0
 62
9
  6
CONTINUOUS
 10
273.9219915367
 20
133.8064721091
  0
VERTEX
  8
0
 62
9
  6
CONTINUOUS
 10
271.7699434959
 20
133.7792888937
  0
VERTEX
  8
0
 62
9
  6
CONTINUOUS
 10
270.6861510711
 20
133.7792889014
  0
VERTEX
  8
0
 62
9
  6
CONTINUOUS
 10
268.5341022686
 20
133.8064721619
  0
VERTEX
  8
0
 62
9
  6
CONTINUOUS
 10
266.4438912563
 20
133.8693197016
  0
VERTEX
  8
0
 62
9
  6
CONTINUOUS
 10
264.4637493545
 20
133.9664448855
  0
VERTEX
  8
0
 62
9
  6
CONTINUOUS
 10
262.6397545605
 20
134.0956858528
  0
VERTEX
  8
0
 62
9
  6
CONTINUOUS
 10
261.0148221013
 20
134.2541325718
  0
VERTEX
  8
0
 62
9
  6
CONTINUOUS
 10
259.6276668079
 20
134.4381703414
  0
VERTEX
  8
0
 62
9
  6
CONTINUOUS
 10
258.5117671252
 20
134.6435438186
  0
VERTEX
  8
0
 62
9
  6
CONTINUOUS
 10
257.6943806969
 20
134.8654444294
  0
VERTEX
  8
0
 62
9
  6
CONTINUOUS
 10
257.1956757554
 20
135.098621785
  0
VERTEX
  8
0
 62
9
  6
CONTINUOUS
 10
257.0280467909
 20
135.337516877
  0
SEQEND
  0
POLYLINE
  8
AXES
 62
9
  6
CONTINUOUS
 66
1
 70
0
  0
VERTEX
  8
AXES
 62
9
  6
CONTINUOUS
 10
285.4280467909
 20
117.9729648237
  0
VERTEX
  8
AXES
 62
9
  6
CONTINUOUS
 10
285.2604170486
 20
118.2118604855
  0
VERTEX
  8
AXES
 62
9
  6
CONTINUOUS
 10
284.7617110574
 20
118.4450379949
  0
VERTEX
  8
AXES
 62
9
  6
CONTINUOUS
 10
283.9443245434
 20
118.6669384308
  0
VERTEX
  8
AXES
 62
9
  6
CONTINUOUS
 10
282.8284234194
 20
118.8723120265
  0
VERTEX
  8
AXES
 62
9
  6
CONTINUOUS
 10
281.4412685124
 20
119.056349619
  0
VERTEX
  8
AXES
 62
9
  6
CONTINUOUS
 10
279.8163361869
 20
119.2147962312
  0
VERTEX
  8
AXES
 62
9
  6
CONTINUOUS
 10
277.9923423495
 20
119.3440370551
  0
VERTEX
  8
AXES
 62
9
  6
CONTINUOUS
 10
276.0122014844
 20
119.4411621296
  0
VERTEX
  8
AXES
 62
9
  6
CONTINUOUS
 10
273.9219915367
 20
119.5040095916
  0
VERTEX
  8
AXES
 62
9
  6
CONTINUOUS
 10
271.7699434959
 20
119.531192807
  0
VERTEX
  8
AXES
 62
9
  6
CONTINUOUS
 10
270.6861510711
 20
119.5311927994
  0
VERTEX
  8
AXES
 62
9
  6
CONTINUOUS
 10
268.5341022686
 20
119.5040095389
  0
VERTEX
  8
AXES
 62
9
  6
CONTINUOUS
 10
266.4438912563
 20
119.4411619991
  0
VERTEX
  8
AXES
 62
9
  6
CONTINUOUS
 10
264.4637493545
 20
119.3440368153
  0
VERTEX
  8
AXES
 62
9
  6
CONTINUOUS
 10
262.6397545605
 20
119.2147958479
  0
VERTEX
  8
AXES
 62
9
  6
CONTINUOUS
 10
261.0148221013
 20
119.056349129
  0
VERTEX
  8
AXES
 62
9
  6
CONTINUOUS
 10
259.6276668079
 20
118.8723113593
  0
VERTEX
  8
AXES
 62
9
  6
CONTINUOUS
 10
258.5117671252
 20
118.6669378821
  0
VERTEX
  8
AXES
 62
9
  6
CONTINUOUS
 10
257.6943806969
 20
118.4450372714
  0
VERTEX
  8
AXES
 62
9
  6
CONTINUOUS
 10
257.1956757554
 20
118.2118599158
  0
VERTEX
  8
AXES
 62
9
  6
CONTINUOUS
 10
257.0280467909
 20
117.9729648237
  0
SEQEND
  0
POLYLINE
  8
AXES
 62
9
  6
CONTINUOUS
 66
1
 70
0
  0
VERTEX
  8
AXES
 62
9
  6
CONTINUOUS
 10
283.9280467909
 20
116.4841455963
  0
VERTEX
  8
AXES
 62
9
  6
CONTINUOUS
 10
283.7781330817
 20
116.7230344286
  0
VERTEX
  8
AXES
 62
9
  6
CONTINUOUS
 10
283.3321100253
 20
116.9562143621
  0
VERTEX
  8
AXES
 62
9
  6
CONTINUOUS
 10
282.6010649576
 20
117.1781169103
  0
VERTEX
  8
AXES
 62
9
  6
CONTINUOUS
 10
281.6030349608
 20
117.3834921683
  0
VERTEX
  8
AXES
 62
9
  6
CONTINUOUS
 10
280.3624025175
 20
117.5675309321
  0
VERTEX
  8
AXES
 62
9
  6
CONTINUOUS
 10
278.9091090048
 20
117.7259782277
  0
VERTEX
  8
AXES
 62
9
  6
CONTINUOUS
 10
277.277781726
 20
117.8552192854
  0
VERTEX
  8
AXES
 62
9
  6
CONTINUOUS
 10
275.5068028585
 20
117.9523442092
  0
VERTEX
  8
AXES
 62
9
  6
CONTINUOUS
 10
273.6373836507
 20
118.0151912199
  0
VERTEX
  8
AXES
 62
9
  6
CONTINUOUS
 10
271.7126607276
 20
118.0423737785
  0
VERTEX
  8
AXES
 62
9
  6
CONTINUOUS
 10
270.7433523665
 20
118.0423733963
  0
VERTEX
  8
AXES
 62
9
  6
CONTINUOUS
 10
268.8186323919
 20
118.0151893564
  0
VERTEX
  8
AXES
 62
9
  6
CONTINUOUS
 10
266.949220384
 20
117.9523410747
  0
VERTEX
  8
AXES
 62
9
  6
CONTINUOUS
 10
265.178252511
 20
117.8552152713
  0
VERTEX
  8
AXES
 62
9
  6
CONTINUOUS
 10
263.5469389159
 20
117.7259738773
  0
VERTEX
  8
AXES
 62
9
  6
CONTINUOUS
 10
262.0936609343
 20
117.5675269768
  0
VERTEX
  8
AXES
 62
9
  6
CONTINUOUS
 10
260.8530431183
 20
117.383489301
  0
VERTEX
  8
AXES
 62
9
  6
CONTINUOUS
 10
259.8550267298
 20
117.1781161988
  0
VERTEX
  8
AXES
 62
9
  6
CONTINUOUS
 10
259.1239893671
 20
116.9562162244
  0
VERTEX
  8
AXES
 62
9
  6
CONTINUOUS
 10
258.6779681672
 20
116.723039722
  0
VERTEX
  8
AXES
 62
9
  6
CONTINUOUS
 10
258.5280467909
 20
116.4841455963
  0
SEQEND
  0
LINE
  8
2_FEATURE
 62
7
  6
CONTINUOUS
 10
281.2280467909
 20
138.1552303103
 11
281.2280467909
 21
136.2891032518
  0
LINE
  8
AXES
 62
7
  6
CONTINUOUS
 10
281.2280467909
 20
115.1552513905
 11
281.2280467909
 21
117.021378449
  0
POLYLINE
  8
2_FEATURE
 62
7
  6
CONTINUOUS
 66
1
 70
0
  0
VERTEX
  8
2_FEATURE
 62
7
  6
CONTINUOUS
 10
275.6976067553
 20
136.2891032518
  0
VERTEX
  8
2_FEATURE
 62
7
  6
CONTINUOUS
 10
274.7739586519
 20
136.2049477636
  0
VERTEX
  8
2_FEATURE
 62
7
  6
CONTINUOUS
 10
273.7488849478
 20
136.1413437318
  0
VERTEX
  8
2_FEATURE
 62
7
  6
CONTINUOUS
 10
272.6520733038
 20
136.1000316442
  0
VERTEX
  8
2_FEATURE
 62
7
  6
CONTINUOUS
 10
271.5148808538
 20
136.0821267403
  0
VERTEX
  8
2_FEATURE
 62
7
  6
CONTINUOUS
 10
270.9412079442
 20
136.0821267652
  0
VERTEX
  8
2_FEATURE
 62
7
  6
CONTINUOUS
 10
269.80401606
 20
136.100031756
  0
VERTEX
  8
2_FEATURE
 62
7
  6
CONTINUOUS
 10
268.7072056042
 20
136.1413438816
  0
VERTEX
  8
2_FEATURE
 62
7
  6
CONTINUOUS
 10
267.6821334032
 20
136.2049478793
  0
VERTEX
  8
2_FEATURE
 62
7
  6
CONTINUOUS
 10
266.7584868265
 20
136.2891032518
  0
SEQEND
  0
LINE
  8
2_FEATURE
 62
7
  6
CONTINUOUS
 10
261.2280467909
 20
136.2891032518
 11
266.7584868265
 21
136.2891032518
  0
LINE
  8
2_FEATURE
 62
7
  6
CONTINUOUS
 10
275.6976067553
 20
136.2891032518
 11
281.2280467909
 21
136.2891032518
  0
POLYLINE
  8
2_FEATURE
 62
7
  6
CONTINUOUS
 66
1
 70
0
  0
VERTEX
  8
2_FEATURE
 62
7
  6
CONTINUOUS
 10
265.5379302466
 20
137.3502513447
  0
VERTEX
  8
2_FEATURE
 62
7
  6
CONTINUOUS
 10
265.9649746458
 20
137.429112229
  0
VERTEX
  8
2_FEATURE
 62
7
  6
CONTINUOUS
 10
266.8032439422
 20
137.5360575181
  0
VERTEX
  8
2_FEATURE
 62
7
  6
CONTINUOUS
 10
267.7817309906
 20
137.6228048185
  0
VERTEX
  8
2_FEATURE
 62
7
  6
CONTINUOUS
 10
268.868750788
 20
137.6866949734
  0
VERTEX
  8
2_FEATURE
 62
7
  6
CONTINUOUS
 10
270.0296906721
 20
137.7258039493
  0
VERTEX
  8
2_FEATURE
 62
7
  6
CONTINUOUS
 10
271.2280504519
 20
137.7389696817
  0
VERTEX
  8
2_FEATURE
 62
7
  6
CONTINUOUS
 10
272.4264097737
 20
137.7258037972
  0
VERTEX
  8
2_FEATURE
 62
7
  6
CONTINUOUS
 10
273.5873483887
 20
137.6866947171
  0
VERTEX
  8
2_FEATURE
 62
7
  6
CONTINUOUS
 10
274.6743664403
 20
137.6228045379
  0
VERTEX
  8
2_FEATURE
 62
7
  6
CONTINUOUS
 10
275.6528516151
 20
137.5360573076
  0
VERTEX
  8
2_FEATURE
 62
7
  6
CONTINUOUS
 10
276.4911194504
 20
137.4291121504
  0
VERTEX
  8
2_FEATURE
 62
7
  6
CONTINUOUS
 10
276.9182632042
 20
137.3502329082
  0
SEQEND
  0
LINE
  8
2_FEATURE
 62
7
  6
CONTINUOUS
 10
261.2280467909
 20
138.1552408504
 11
265.2280467909
 21
138.1552408504
  0
LINE
  8
2_FEATURE
 62
7
  6
CONTINUOUS
 10
277.2280467909
 20
138.1552408504
 11
281.2280467909
 21
138.1552408504
  0
LINE
  8
0
 62
9
  6
CONTINUOUS
 10
258.5280467909
 20
138.4636571889
 11
283.9280467909
 21
138.4636571889
  0
LINE
  8
0
 62
9
  6
CONTINUOUS
 10
258.5280467909
 20
138.7376535859
 11
283.9280467909
 21
138.7376535859
  0
LINE
  8
0
 62
9
  6
CONTINUOUS
 10
283.9280467909
 20
147.6552408504
 11
283.9280467909
 21
136.8263361045
  0
LINE
  8
AXES
 62
9
  6
CONTINUOUS
 10
283.9280467909
 20
105.6552408504
 11
283.9280467909
 21
116.4841455963
  0
LINE
  8
0
 62
7
  6
CONTINUOUS
 10
285.4280467909
 20
146.1552408504
 11
285.4280467909
 21
135.337516877
  0
LINE
  8
AXES
 62
7
  6
CONTINUOUS
 10
285.4280467909
 20
107.1552408504
 11
285.4280467909
 21
135.337516877
  0
POLYLINE
  8
AXES
 62
9
  6
CONTINUOUS
 66
1
 70
0
  0
VERTEX
  8
AXES
 62
9
  6
CONTINUOUS
 10
285.4280467909
 20
117.9729648237
  0
VERTEX
  8
AXES
 62
9
  6
CONTINUOUS
 10
285.376935528
 20
117.5876300445
  0
VERTEX
  8
AXES
 62
9
  6
CONTINUOUS
 10
285.2270848886
 20
117.2285551962
  0
VERTEX
  8
AXES
 62
9
  6
CONTINUOUS
 10
284.9887069486
 20
116.9202106381
  0
VERTEX
  8
AXES
 62
9
  6
CONTINUOUS
 10
284.6780467743
 20
116.6836095416
  0
VERTEX
  8
AXES
 62
9
  6
CONTINUOUS
 10
284.3162753462
 20
116.534875878
  0
VERTEX
  8
AXES
 62
9
  6
CONTINUOUS
 10
283.9280467909
 20
116.4841455963
  0
SEQEND
  0
POLYLINE
  8
AXES
 62
9
  6
CONTINUOUS
 66
1
 70
0
  0
VERTEX
  8
AXES
 62
9
  6
CONTINUOUS
 10
285.4280467909
 20
116.3356437393
  0
VERTEX
  8
AXES
 62
9
  6
CONTINUOUS
 10
285.3769355303
 20
115.9503089685
  0
VERTEX
  8
AXES
 62
9
  6
CONTINUOUS
 10
285.2270848966
 20
115.5912341256
  0
VERTEX
  8
AXES
 62
9
  6
CONTINUOUS
 10
284.9887069627
 20
115.2828895676
  0
VERTEX
  8
AXES
 62
9
  6
CONTINUOUS
 10
284.6780467909
 20
115.0462884667
  0
VERTEX
  8
AXES
 62
9
  6
CONTINUOUS
 10
284.3162753586
 20
114.8975547968
  0
VERTEX
  8
AXES
 62
9
  6
CONTINUOUS
 10
283.9280467909
 20
114.8468245118
  0
SEQEND
  0
POLYLINE
  8
0
 62
9
  6
CONTINUOUS
 66
1
 70
0
  0
VERTEX
  8
0
 62
9
  6
CONTINUOUS
 10
285.4280467909
 20
135.337516877
  0
VERTEX
  8
0
 62
9
  6
CONTINUOUS
 10
285.376935528
 20
135.7228516563
  0
VERTEX
  8
0
 62
9
  6
CONTINUOUS
 10
285.2270848886
 20
136.0819265045
  0
VERTEX
  8
0
 62
9
  6
CONTINUOUS
 10
284.9887069486
 20
136.3902710627
  0
VERTEX
  8
0
 62
9
  6
CONTINUOUS
 10
284.6780467743
 20
136.6268721592
  0
VERTEX
  8
0
 62
9
  6
CONTINUOUS
 10
284.3162753462
 20
136.7756058228
  0
VERTEX
  8
0
 62
9
  6
CONTINUOUS
 10
283.9280467909
 20
136.8263361045
  0
SEQEND
  0
POLYLINE
  8
0
 62
9
  6
CONTINUOUS
 66
1
 70
0
  0
VERTEX
  8
0
 62
9
  6
CONTINUOUS
 10
285.4280467909
 20
136.9748379615
  0
VERTEX
  8
0
 62
9
  6
CONTINUOUS
 10
285.3769355303
 20
137.3601727322
  0
VERTEX
  8
0
 62
9
  6
CONTINUOUS
 10
285.2270848966
 20
137.7192475752
  0
VERTEX
  8
0
 62
9
  6
CONTINUOUS
 10
284.9887069627
 20
138.0275921332
  0
VERTEX
  8
0
 62
9
  6
CONTINUOUS
 10
284.6780467909
 20
138.2641932341
  0
VERTEX
  8
0
 62
9
  6
CONTINUOUS
 10
284.3162753586
 20
138.4129269039
  0
VERTEX
  8
0
 62
9
  6
CONTINUOUS
 10
283.9280467909
 20
138.4636571889
  0
SEQEND
  0
POLYLINE
  8
AXES
 62
9
  6
CONTINUOUS
 66
1
 70
0
  0
VERTEX
  8
AXES
 62
9
  6
CONTINUOUS
 10
285.4280467909
 20
115.8972495042
  0
VERTEX
  8
AXES
 62
9
  6
CONTINUOUS
 10
285.3769354912
 20
115.554463896
  0
VERTEX
  8
AXES
 62
9
  6
CONTINUOUS
 10
285.2270847816
 20
115.2350386337
  0
VERTEX
  8
AXES
 62
9
  6
CONTINUOUS
 10
284.9887067916
 20
114.9607420076
  0
VERTEX
  8
AXES
 62
9
  6
CONTINUOUS
 10
284.6780466196
 20
114.7502668484
  0
VERTEX
  8
AXES
 62
9
  6
CONTINUOUS
 10
284.3162752509
 20
114.6179566539
  0
VERTEX
  8
AXES
 62
9
  6
CONTINUOUS
 10
283.9280467909
 20
114.5728281149
  0
SEQEND
  0
POLYLINE
  8
AXES
 62
9
  6
CONTINUOUS
 66
1
 70
0
  0
VERTEX
  8
AXES
 62
9
  6
CONTINUOUS
 10
285.4280467909
 20
107.2722932575
  0
VERTEX
  8
AXES
 62
9
  6
CONTINUOUS
 10
285.3769355303
 20
106.9295077782
  0
VERTEX
  8
AXES
 62
9
  6
CONTINUOUS
 10
285.2270848966
 20
106.6100825629
  0
VERTEX
  8
AXES
 62
9
  6
CONTINUOUS
 10
284.9887069627
 20
106.335785912
  0
VERTEX
  8
AXES
 62
9
  6
CONTINUOUS
 10
284.6780467909
 20
106.1253106891
  0
VERTEX
  8
AXES
 62
9
  6
CONTINUOUS
 10
284.3162753586
 20
105.9930004327
  0
VERTEX
  8
AXES
 62
9
  6
CONTINUOUS
 10
283.9280467909
 20
105.9478718682
  0
SEQEND
  0
POLYLINE
  8
0
 62
9
  6
CONTINUOUS
 66
1
 70
0
  0
VERTEX
  8
0
 62
9
  6
CONTINUOUS
 10
285.4280467909
 20
137.4132321966
  0
VERTEX
  8
0
 62
9
  6
CONTINUOUS
 10
285.3769354912
 20
137.7560178048
  0
VERTEX
  8
0
 62
9
  6
CONTINUOUS
 10
285.2270847816
 20
138.075443067
  0
VERTEX
  8
0
 62
9
  6
CONTINUOUS
 10
284.9887067916
 20
138.3497396932
  0
VERTEX
  8
0
 62
9
  6
CONTINUOUS
 10
284.6780466196
 20
138.5602148524
  0
VERTEX
  8
0
 62
9
  6
CONTINUOUS
 10
284.3162752509
 20
138.6925250469
  0
VERTEX
  8
0
 62
9
  6
CONTINUOUS
 10
283.9280467909
 20
138.7376535859
  0
SEQEND
  0
POLYLINE
  8
0
 62
9
  6
CONTINUOUS
 66
1
 70
0
  0
VERTEX
  8
0
 62
9
  6
CONTINUOUS
 10
285.4280467909
 20
146.0381884432
  0
VERTEX
  8
0
 62
9
  6
CONTINUOUS
 10
285.3769355303
 20
146.3809739225
  0
VERTEX
  8
0
 62
9
  6
CONTINUOUS
 10
285.2270848966
 20
146.7003991379
  0
VERTEX
  8
0
 62
9
  6
CONTINUOUS
 10
284.9887069627
 20
146.9746957888
  0
VERTEX
  8
0
 62
9
  6
CONTINUOUS
 10
284.6780467909
 20
147.1851710117
  0
VERTEX
  8
0
 62
9
  6
CONTINUOUS
 10
284.3162753586
 20
147.317481268
  0
VERTEX
  8
0
 62
9
  6
CONTINUOUS
 10
283.9280467909
 20
147.3626098325
  0
SEQEND
  0
LINE
  8
0
 62
9
  6
CONTINUOUS
 10
283.9280467909
 20
147.3626098325
 11
258.5280467909
 21
147.3626098325
  0
LINE
  8
0
 62
7
  6
CONTINUOUS
 10
283.9280467909
 20
147.6552408504
 11
258.5280467909
 21
147.6552408504
  0
LINE
  8
0
 62
7
  6
CONTINUOUS
 10
260.4280467909
 20
147.7552408504
 11
263.4280467909
 21
147.7552408504
  0
LINE
  8
0
 62
7
  6
CONTINUOUS
 10
264.4280467909
 20
147.7552408504
 11
265.8080467909
 21
147.7552408504
  0
LINE
  8
0
 62
7
  6
CONTINUOUS
 10
266.1280467909
 20
147.7552408504
 11
267.6580467909
 21
147.7552408504
  0
ARC
  8
AXES
 62
7
  6
CONTINUOUS
 10
123.9249150632
 20
121.6552408504
 40
6.5
 50
225.4715157238
 51
300.5284842762
  0
ARC
  8
AXES
 62
9
  6
CONTINUOUS
 10
136.7723478152
 20
112.3654591327
 40
4.0000000805
 50
62.0
 51
83.0
  0
ARC
  8
AXES
 62
7
  6
CONTINUOUS
 10
155.3408891047
 20
108.1552408504
 40
2.5
 50
242.0
 51
270.0
  0
ARC
  8
AXES
 62
7
  6
CONTINUOUS
 10
136.7723478152
 20
112.3654591327
 40
2.5
 50
62.0
 51
83.0
  0
ARC
  8
AXES
 62
7
  6
CONTINUOUS
 10
111.2249160001
 20
119.5323286322
 40
1.5
 50
180.000001173
 51
263.0000000001
  0
ARC
  8
AXES
 62
9
  6
CONTINUOUS
 10
155.3408891047
 20
108.1552408504
 40
1.0000000177
 50
242.0
 51
270.0
  0
ARC
  8
2_FEATURE
 62
7
  6
CONTINUOUS
 10
123.9249150632
 20
131.6552408504
 40
6.5
 50
59.4715157238
 51
134.5284842762
  0
ARC
  8
0
 62
9
  6
CONTINUOUS
 10
136.7723478152
 20
140.945022568
 40
4.0000000805
 50
277.0
 51
298.0
  0
ARC
  8
0
 62
7
  6
CONTINUOUS
 10
136.7723478152
 20
140.945022568
 40
2.5
 50
277.0
 51
298.0
  0
ARC
  8
0
 62
7
  6
CONTINUOUS
 10
155.3408891047
 20
145.1552408504
 40
2.5
 50
90.0
 51
118.0
  0
ARC
  8
0
 62
7
  6
CONTINUOUS
 10
111.2249160001
 20
133.7781530686
 40
1.5
 50
97.0
 51
179.999998827
  0
ARC
  8
0
 62
9
  6
CONTINUOUS
 10
155.3408891047
 20
145.1552408504
 40
1.0000000177
 50
90.0
 51
118.0
  0
ARC
  8
AXES
 62
7
  6
CONTINUOUS
 10
193.0077856134
 20
111.6552408504
 40
3.0
 50
60.0
 51
90.0
  0
ARC
  8
AXES
 62
9
  6
CONTINUOUS
 10
174.9249150632
 20
115.6552408504
 40
2.4999998075
 50
180.0
 51
270.0
  0
ARC
  8
AXES
 62
7
  6
CONTINUOUS
 10
200.8749150632
 20
107.1552408504
 40
1.5
 50
269.9999999986
 51
360.0
  0
ARC
  8
AXES
 62
7
  6
CONTINUOUS
 10
200.8749150632
 20
108.8452023524
 40
1.5
 50
0.0
 51
60.0
  0
ARC
  8
AXES
 62
7
  6
CONTINUOUS
 10
174.9249150632
 20
115.6552408504
 40
1.0
 50
180.0
 51
270.0
  0
ARC
  8
2_FEATURE
 62
7
  6
CONTINUOUS
 10
193.0077856134
 20
141.6552408504
 40
3.0
 50
270.0
 51
300.0
  0
ARC
  8
2_FEATURE
 62
9
  6
CONTINUOUS
 10
174.9249150632
 20
137.6552408504
 40
2.4999998075
 50
90.0
 51
180.0
  0
ARC
  8
0
 62
7
  6
CONTINUOUS
 10
200.8749150632
 20
146.1552408504
 40
1.5
 50
0.0
 51
90.0000000014
  0
ARC
  8
2_FEATURE
 62
7
  6
CONTINUOUS
 10
200.8749150632
 20
144.4652793484
 40
1.5
 50
300.0
 51
360.0
  0
ARC
  8
2_FEATURE
 62
7
  6
CONTINUOUS
 10
174.9249150632
 20
137.6552408504
 40
1.0
 50
90.0
 51
180.0
  0
ARC
  8
AXES
 62
7
  6
CONTINUOUS
 10
121.4689888125
 20
218.0917575077
 40
0.55
 50
241.5258447452
 51
270.0
  0
ARC
  8
AXES
 62
7
  6
CONTINUOUS
 10
127.380841314
 20
218.0917575077
 40
0.55
 50
270.0
 51
298.4741552548
  0
ARC
  8
0
 62
7
  6
CONTINUOUS
 10
123.9249150632
 20
223.5417575077
 40
14.2
 50
90.0
 51
270.0
  0
ARC
  8
AXES
 62
7
  6
CONTINUOUS
 10
123.9249150632
 20
223.5417575077
 40
14.2
 50
90.0
 51
270.0
  0
ARC
  8
AXES
 62
7
  6
CONTINUOUS
 10
124.4249150632
 20
223.5417575077
 40
6.75
 50
118.4741552548
 51
241.5258447452
  0
ARC
  8
AXES
 62
7
  6
CONTINUOUS
 10
124.4249150632
 20
223.5417575077
 40
6.75
 50
298.4741552548
 51
61.5258447452
  0
ARC
  8
AXES
 62
7
  6
CONTINUOUS
 10
121.4689888125
 20
228.9917575077
 40
0.55
 50
90.0
 51
118.4741552548
  0
ARC
  8
AXES
 62
7
  6
CONTINUOUS
 10
127.380841314
 20
228.9917575077
 40
0.55
 50
61.5258447452
 51
90.0
  0
ARC
  8
0
 62
7
  6
CONTINUOUS
 10
188.1749150632
 20
223.5417575077
 40
14.2
 50
81.3223665577
 51
81.9427155714
  0
ARC
  8
0
 62
7
  6
CONTINUOUS
 10
188.1749150632
 20
223.5417575077
 40
14.2
 50
270.0
 51
61.4903213675
  0
ARC
  8
AXES
 62
7
  6
CONTINUOUS
 10
188.1749150632
 20
223.5417575077
 40
14.2
 50
270.0
 51
90.0
  0
ARC
  8
2_FEATURE
 62
7
  6
CONTINUOUS
 10
188.1749150632
 20
223.5417575077
 40
14.2
 50
270.0
 51
292.3671967337
  0
ARC
  8
2_FEATURE
 62
7
  6
CONTINUOUS
 10
188.1749150632
 20
223.5417575077
 40
14.2
 50
296.0781139744
 51
63.7906259383
  0
ARC
  8
2_FEATURE
 62
7
  6
CONTINUOUS
 10
188.1749150632
 20
223.5417575077
 40
14.2
 50
81.815592443
 51
90.0
  0
ARC
  8
AXES
 62
9
  6
CONTINUOUS
 10
188.1749150632
 20
223.5417575077
 40
12.6999999993
 50
270.0
 51
90.0
  0
CIRCLE
  8
AXES
 62
7
  6
CONTINUOUS
 10
188.1749150632
 20
223.5417575077
 40
7.25
  0
CIRCLE
  8
AXES
 62
7
  6
CONTINUOUS
 10
188.1749150632
 20
223.5417575077
 40
5.45
  0
ARC
  8
AXES
 62
7
  6
CONTINUOUS
 10
258.5280467909
 20
107.1552408504
 40
1.5
 50
180.0
 51
270.0
  0
ARC
  8
0
 62
7
  6
CONTINUOUS
 10
258.5280467909
 20
146.1552408504
 40
1.5
 50
90.0
 51
180.0
  0
ARC
  8
AXES
 62
7
  6
CONTINUOUS
 10
283.9280467909
 20
107.1552408504
 40
1.5
 50
270.0
 51
360.0
  0
ARC
  8
0
 62
7
  6
CONTINUOUS
 10
283.9280467909
 20
146.1552408504
 40
1.5
 50
0.0
 51
90.0
  0
ENDSEC
  0
EOF
