999
DXF file: G:\afd20\200100-Web\Chains\uni 1873\2D-DXF\Belt links\uni_1873_k600.dxf
999
Pro/ENGINEER 2015290 by Parametric Technology Corporation
  0
SECTION
  2
HEADER
  9
$ACADVER
  1
AC1027
  9
$DWGCODEPAGE
  3
ANSI_1252
  9
$EXTMAX
 10
420.0
 20
297.0
 30
0.0
  9
$EXTMIN
 10
0.0
 20
0.0
 30
0.0
  9
$LIMMIN
 10
0.0
 20
0.0
  9
$LIMMAX
 10
420.0
 20
297.0
  9
$VIEWCTR
 10
210.0
 20
148.5
  9
$VIEWSIZE
 40
297.0
  9
$CLAYER
  8
0
  9
$LTSCALE
 40
23.1
  9
$CELTYPE
  6
BYLAYER
  9
$DIMSCALE
 40
1.0
  9
$DIMASZ
 40
3.5
  9
$DIMEXO
 40
1.0
  9
$DIMDLI
 40
15.96
  9
$DIMEXE
 40
2.0
  9
$DIMCEN
 40
3.78
  9
$DIMLFAC
 40
1.0
  9
$DIMBLK
  1
_FILLED
  9
$DIMALT
 70
0
  9
$DIMALTF
 40
0.0393700787
  9
$DIMTXT
 40
3.5
  9
$DIMTOL
 70
1
  9
$DIMLIM
 70
0
  9
$DIMTFAC
 40
1.0
  9
$DIMTP
 40
0.01
  9
$DIMTM
 40
0.01
  9
$DIMGAP
 40
0.625
  9
$DIMDSEP
 70
46
  9
$AUNITS
 70
0
  9
$PDMODE
 70
3
  9
$PDSIZE
 40
0.3125
  9
$HANDSEED
  5
458
  9
$TILEMODE
 70
1
  9
$MEASUREMENT
 70
1
  9
$INSUNITS
 70
4
  0
ENDSEC
  0
SECTION
  2
CLASSES
  0
CLASS
  1
ACDBDICTIONARYWDFLT
  2
AcDbDictionaryWithDefault
  3
AutoCAD 2000
 90
0
 91
1
280
0
281
0
  0
CLASS
  1
ACDBPLACEHOLDER
  2
AcDbPlaceHolder
  3
AutoCAD 2000
 90
0
 91
1
280
0
281
0
  0
CLASS
  1
LAYOUT
  2
AcDbLayout
  3
AutoCAD 2000
 90
0
 91
0
280
0
281
0
  0
CLASS
  1
TABLESTYLE
  2
AcDbTableStyle
  3
ObjectDBX Classes
 90
2047
 91
1
280
0
281
0
  0
CLASS
  1
ACAD_TABLE
  2
AcDbTable
  3
ObjectDBX Classes
 90
1025
 91
1
280
0
281
1
  0
ENDSEC
  0
SECTION
  2
TABLES
  0
TABLE
  2
VPORT
  5
8
100
AcDbSymbolTable
 70
2
  0
VPORT
  5
1F4
100
AcDbSymbolTableRecord
100
AcDbViewportTableRecord
  2
*ACTIVE
 70
0
 10
0.0
 20
0.0
 11
1.0
 21
1.0
 12
210.0
 22
148.5
 13
0.0
 23
0.0
 14
1.0
 24
1.0
 15
0.0
 25
0.0
 16
0.0
 26
0.0
 36
1.0
 17
0.0
 27
0.0
 37
0.0
 40
297.0
 41
1.4141414141
 42
50.0
 43
0.0
 44
0.0
 50
0.0
 51
0.0
 71
0
 72
100
 73
1
 74
1
 75
0
 76
0
 77
0
 78
0
  0
ENDTAB
  0
TABLE
  2
LTYPE
  5
5
100
AcDbSymbolTable
 70
6
  0
LTYPE
  5
14
100
AcDbSymbolTableRecord
100
AcDbLinetypeTableRecord
  2
BYBLOCK
 70
0
  3

 72
65
 73
0
 40
0.0
  0
LTYPE
  5
15
100
AcDbSymbolTableRecord
100
AcDbLinetypeTableRecord
  2
BYLAYER
 70
0
  3

 72
65
 73
0
 40
0.0
  0
LTYPE
  5
16
100
AcDbSymbolTableRecord
100
AcDbLinetypeTableRecord
  2
CONTINUOUS
 70
64
  3
Solid line
 72
65
 73
0
 40
0.0
  0
LTYPE
  5
1F5
100
AcDbSymbolTableRecord
100
AcDbLinetypeTableRecord
  2
CENTER
 70
64
  3
____ _ ____ _ ____ _ ____ _ ____ _ ____ _ ____
 72
65
 73
4
 40
0.6
 49
0.375
 74
0
 49
-0.075
 74
0
 49
0.075
 74
0
 49
-0.075
 74
0
  0
LTYPE
  5
1F6
100
AcDbSymbolTableRecord
100
AcDbLinetypeTableRecord
  2
HIDDEN
 70
64
  3
- - - - - - - - - - - - - - - - - - - -
 72
65
 73
2
 40
0.2
 49
0.1
 74
0
 49
-0.1
 74
0
  0
LTYPE
  5
1F7
100
AcDbSymbolTableRecord
100
AcDbLinetypeTableRecord
  2
PHANTOM
 70
64
  3
_____ _ _ _____ _ _ _____ _ _ _____
 72
65
 73
6
 40
0.8
 49
0.45
 74
0
 49
-0.05
 74
0
 49
0.1
 74
0
 49
-0.05
 74
0
 49
0.1
 74
0
 49
-0.05
 74
0
  0
LTYPE
  5
1F8
100
AcDbSymbolTableRecord
100
AcDbLinetypeTableRecord
  2
DOT
 70
64
  3
. . . . . . . . . . . . . . . . . . . .
 72
65
 73
2
 40
0.2
 49
0.1
 74
0
 49
-0.1
 74
0
  0
LTYPE
  5
1F9
100
AcDbSymbolTableRecord
100
AcDbLinetypeTableRecord
  2
DASHED
 70
64
  3
- - - - - - - - - - - - - - - - - - - -
 72
65
 73
2
 40
0.2
 49
0.1
 74
0
 49
-0.1
 74
0
  0
ENDTAB
  0
TABLE
  2
LAYER
  5
2
100
AcDbSymbolTable
 70
36
  0
LAYER
  5
10
100
AcDbSymbolTableRecord
100
AcDbLayerTableRecord
  2
0
 70
0
 62
7
  6
CONTINUOUS
370
-3
390
F
  0
LAYER
  5
1FA
100
AcDbSymbolTableRecord
100
AcDbLayerTableRecord
  2
DEFAULT_1
 70
0
 62
7
  6
CENTER
370
-3
390
F
  0
LAYER
  5
1FB
100
AcDbSymbolTableRecord
100
AcDbLayerTableRecord
  2
DEFAULT_2
 70
0
 62
8
  6
HIDDEN
370
-3
390
F
  0
LAYER
  5
1FC
100
AcDbSymbolTableRecord
100
AcDbLayerTableRecord
  2
DEFAULT_3
 70
0
 62
7
  6
PHANTOM
370
-3
390
F
  0
LAYER
  5
1FD
100
AcDbSymbolTableRecord
100
AcDbLayerTableRecord
  2
1_AXIS
 70
0
 62
7
  6
CONTINUOUS
370
-3
390
F
  0
LAYER
  5
1FE
100
AcDbSymbolTableRecord
100
AcDbLayerTableRecord
  2
1_DATUMPLANE
 70
0
 62
7
  6
CONTINUOUS
370
-3
390
F
  0
LAYER
  5
1FF
100
AcDbSymbolTableRecord
100
AcDbLayerTableRecord
  2
4_QUILT
 70
0
 62
7
  6
CONTINUOUS
370
-3
390
F
  0
LAYER
  5
200
100
AcDbSymbolTableRecord
100
AcDbLayerTableRecord
  2
4_SURFACE
 70
0
 62
7
  6
CONTINUOUS
370
-3
390
F
  0
LAYER
  5
201
100
AcDbSymbolTableRecord
100
AcDbLayerTableRecord
  2
6_DIM
 70
0
 62
7
  6
CONTINUOUS
370
-3
390
F
  0
LAYER
  5
202
100
AcDbSymbolTableRecord
100
AcDbLayerTableRecord
  2
6_NOTE
 70
0
 62
7
  6
CONTINUOUS
370
-3
390
F
  0
LAYER
  5
203
100
AcDbSymbolTableRecord
100
AcDbLayerTableRecord
  2
CURVE
 70
0
 62
7
  6
CONTINUOUS
370
-3
390
F
  0
LAYER
  5
204
100
AcDbSymbolTableRecord
100
AcDbLayerTableRecord
  2
CURVES
 70
0
 62
7
  6
CONTINUOUS
370
-3
390
F
  0
LAYER
  5
205
100
AcDbSymbolTableRecord
100
AcDbLayerTableRecord
  2
NOTES
 70
0
 62
7
  6
CONTINUOUS
370
-3
390
F
  0
LAYER
  5
206
100
AcDbSymbolTableRecord
100
AcDbLayerTableRecord
  2
QUILT
 70
0
 62
7
  6
CONTINUOUS
370
-3
390
F
  0
LAYER
  5
207
100
AcDbSymbolTableRecord
100
AcDbLayerTableRecord
  2
SURFACE
 70
0
 62
7
  6
CONTINUOUS
370
-3
390
F
  0
ENDTAB
  0
TABLE
  2
STYLE
  5
3
100
AcDbSymbolTable
 70
1
  0
STYLE
  5
11
100
AcDbSymbolTableRecord
100
AcDbTextStyleTableRecord
  2
STANDARD
 70
0
 40
0.0
 41
0.8
 50
0.0
 71
0
 42
0.2
  3
txt
  4

  0
STYLE
  5
208
100
AcDbSymbolTableRecord
100
AcDbTextStyleTableRecord
  2
TEXTSTYLE_1
 70
0
 40
0.0
 41
0.8
 50
0.0
 71
0
 42
0.2
  3
gdt
  4

  0
STYLE
  5
209
100
AcDbSymbolTableRecord
100
AcDbTextStyleTableRecord
  2
TEXTSTYLE_2
 70
0
 40
0.0
 41
0.6
 50
0.0
 71
0
 42
0.2
  3
txt
  4

  0
STYLE
  5
20A
100
AcDbSymbolTableRecord
100
AcDbTextStyleTableRecord
  2
TEXTSTYLE_3
 70
0
 40
0.0
 41
1.0
 50
0.0
 71
0
 42
0.2
  3
ftb_____.ttf
  4

  0
STYLE
  5
20B
100
AcDbSymbolTableRecord
100
AcDbTextStyleTableRecord
  2
TEXTSTYLE_4
 70
0
 40
0.0
 41
1.0
 50
0.0
 71
0
 42
0.2
  3
fti_____.ttf
  4

  0
STYLE
  5
20C
100
AcDbSymbolTableRecord
100
AcDbTextStyleTableRecord
  2
TEXTSTYLE_5
 70
0
 40
0.0
 41
1.0
 50
0.0
 71
0
 42
0.2
  3
frutiger light.ttf
  4

  0
STYLE
  5
20D
100
AcDbSymbolTableRecord
100
AcDbTextStyleTableRecord
  2
TEXTSTYLE_6
 70
0
 40
0.0
 41
0.7
 50
0.0
 71
0
 42
0.2
  3
txt
  4

  0
STYLE
  5
20E
100
AcDbSymbolTableRecord
100
AcDbTextStyleTableRecord
  2
TEXTSTYLE_7
 70
0
 40
0.0
 41
0.8
 50
0.0
 71
0
 42
0.2
  3
txt
  4

  0
ENDTAB
  0
TABLE
  2
VIEW
  5
6
100
AcDbSymbolTable
 70
0
  0
ENDTAB
  0
TABLE
  2
UCS
  5
7
100
AcDbSymbolTable
 70
0
  0
ENDTAB
  0
TABLE
  2
APPID
  5
9
100
AcDbSymbolTable
 70
1
  0
APPID
  5
20F
100
AcDbSymbolTableRecord
100
AcDbRegAppTableRecord
  2
ACAD
 70
0
  0
ENDTAB
  0
TABLE
  2
BLOCK_RECORD
  5
1
100
AcDbSymbolTable
 70
0
  0
BLOCK_RECORD
  5
210
100
AcDbSymbolTableRecord
100
AcDbBlockTableRecord
  2
*Model_Space
  0
BLOCK_RECORD
  5
211
100
AcDbSymbolTableRecord
100
AcDbBlockTableRecord
  2
*Paper_Space
  0
BLOCK_RECORD
  5
212
100
AcDbSymbolTableRecord
100
AcDbBlockTableRecord
  2
UNI_LOGO2_BL1
  0
BLOCK_RECORD
  5
213
100
AcDbSymbolTableRecord
100
AcDbBlockTableRecord
  2
AMMEAAL_LOGO_BL0
  0
BLOCK_RECORD
  5
214
100
AcDbSymbolTableRecord
100
AcDbBlockTableRecord
  2
*T1
  0
ENDTAB
  0
TABLE
  2
DIMSTYLE
  5
A
100
AcDbSymbolTable
 70
1
100
AcDbDimStyleTable
 71
0
  0
DIMSTYLE
105
215
100
AcDbSymbolTableRecord
100
AcDbDimStyleTableRecord
  2
STANDARD
 70
0
  3

  4

 40
1.0
 41
3.5
 42
1.0
 43
0.38
 44
2.0
 45
0.0
 46
0.0
 47
0.01
 48
0.01
140
3.5
141
0.09
142
0.0
143
25.4
144
1.0
145
0.0
146
1.0
147
0.625
 71
1.0
 72
0.0
 73
0
 74
0
 75
0
 76
0
 77
1
 78
0
170
0
171
2
172
0
173
0
174
0
175
0
176
0
177
0
178
5
270
2
271
2
272
2
273
2
274
2
275
0
280
0
281
0
282
0
283
1
284
0
285
0
286
0
287
3
288
0
340
11
278
46
  0
ENDTAB
  0
ENDSEC
  0
SECTION
  2
BLOCKS
  0
BLOCK
  5
20
100
AcDbEntity
  8
0
100
AcDbBlockBegin
  2
*Model_Space
 70
0
 10
0.0
 20
0.0
 30
0.0
  3
*Model_Space
  1

  0
ENDBLK
  5
21
100
AcDbEntity
  8
0
100
AcDbBlockEnd
  0
BLOCK
  5
1C
100
AcDbEntity
  8
0
100
AcDbBlockBegin
  2
*Paper_Space
 70
0
 10
0.0
 20
0.0
 30
0.0
  3
*Paper_Space
  1

  0
ENDBLK
  5
1D
100
AcDbEntity
  8
0
100
AcDbBlockEnd
  0
BLOCK
  5
216
100
AcDbEntity
  8
0
100
AcDbBlockBegin
 62
2
  6
CONTINUOUS
  2
UNI_LOGO2_BL1
 70
64
 10
382.3920721743
 20
35.81661148
  3
UNI_LOGO2_BL1
  1

  0
TEXT
  5
217
100
AcDbEntity
  8
0
100
AcDbText
 62
7
  6
CONTINUOUS
 10
373.4503571828
 20
30.9093678571
  7
TEXTSTYLE_4
 40
1.0655737705
  1
The brand for plastic modular belts and chains
 41
1.0
 72
0
100
AcDbText
  0
LINE
  5
218
100
AcDbEntity
  8
0
100
AcDbLine
 62
7
  6
CONTINUOUS
 10
358.3701405634
 20
36.3903819718
 11
358.3701405634
 21
34.2592344308
  0
LINE
  5
219
100
AcDbEntity
  8
0
100
AcDbLine
 62
7
  6
CONTINUOUS
 10
358.6592030565
 20
31.2683031351
 11
358.6592030565
 21
31.3650941944
  0
LINE
  5
21A
100
AcDbEntity
  8
0
100
AcDbLine
 62
7
  6
CONTINUOUS
 10
358.3701405634
 20
31.332830508
 11
358.4279530651
 21
31.1392483894
  0
LINE
  5
21B
100
AcDbEntity
  8
0
100
AcDbLine
 62
7
  6
CONTINUOUS
 10
359.7635831863
 20
34.1772672177
 11
359.7635831863
 21
36.3903819718
  0
LINE
  5
21C
100
AcDbEntity
  8
0
100
AcDbLine
 62
7
  6
CONTINUOUS
 10
360.6826405082
 20
32.3330049227
 11
360.6826405082
 21
30.81661148
  0
LINE
  5
21D
100
AcDbEntity
  8
0
100
AcDbLine
 62
7
  6
CONTINUOUS
 10
360.9717030634
 20
30.81661148
 11
360.9717030634
 21
31.5586763581
  0
LINE
  5
21E
100
AcDbEntity
  8
0
100
AcDbLine
 62
7
  6
CONTINUOUS
 10
360.9717030634
 20
31.6877311038
 11
360.9717030634
 21
32.3330049227
  0
LINE
  5
21F
100
AcDbEntity
  8
0
100
AcDbLine
 62
7
  6
CONTINUOUS
 10
358.4279530651
 20
31.5264126717
 11
358.3701405634
 21
31.332830508
  0
LINE
  5
220
100
AcDbEntity
  8
0
100
AcDbLine
 62
7
  6
CONTINUOUS
 10
358.7748280496
 20
31.106984703
 11
358.6592030565
 21
31.2683031351
  0
LINE
  5
221
100
AcDbEntity
  8
0
100
AcDbLine
 62
7
  6
CONTINUOUS
 10
359.8732656185
 20
31.623203731
 11
359.9310780634
 21
31.5264126717
  0
LINE
  5
222
100
AcDbEntity
  8
0
100
AcDbLine
 62
7
  6
CONTINUOUS
 10
360.2201406185
 20
31.5264126717
 11
360.1623280082
 21
31.6554674174
  0
LINE
  5
223
100
AcDbEntity
  8
0
100
AcDbLine
 62
7
  6
CONTINUOUS
 10
361.648829088
 20
36.3903819718
 11
361.648829088
 21
34.5871032833
  0
LINE
  5
224
100
AcDbEntity
  8
0
100
AcDbLine
 62
7
  6
CONTINUOUS
 10
361.648829088
 20
33.2756278735
 11
361.648829088
 21
32.6198901686
  0
LINE
  5
225
100
AcDbEntity
  8
0
100
AcDbLine
 62
7
  6
CONTINUOUS
 10
362.0123280634
 20
31.4618852989
 11
362.0123280634
 21
30.81661148
  0
LINE
  5
226
100
AcDbEntity
  8
0
100
AcDbLine
 62
7
  6
CONTINUOUS
 10
362.3013904531
 20
30.81661148
 11
362.3013904531
 21
31.4618852989
  0
LINE
  5
227
100
AcDbEntity
  8
0
100
AcDbLine
 62
7
  6
CONTINUOUS
 10
358.6592030565
 20
31.3650941944
 11
358.7170155634
 21
31.4941489853
  0
LINE
  5
228
100
AcDbEntity
  8
0
100
AcDbLine
 62
7
  6
CONTINUOUS
 10
358.4279530651
 20
31.1392483894
 11
358.5435780634
 21
31.0101936212
  0
LINE
  5
229
100
AcDbEntity
  8
0
100
AcDbLine
 62
7
  6
CONTINUOUS
 10
361.9545154531
 20
31.5909400446
 11
362.0123280634
 21
31.4618852989
  0
LINE
  5
22A
100
AcDbEntity
  8
0
100
AcDbLine
 62
7
  6
CONTINUOUS
 10
362.7638906736
 20
31.106984703
 11
362.8217029531
 21
30.9779299347
  0
LINE
  5
22B
100
AcDbEntity
  8
0
100
AcDbLine
 62
7
  6
CONTINUOUS
 10
362.3013904531
 20
31.4618852989
 11
362.2435781736
 21
31.623203731
  0
LINE
  5
22C
100
AcDbEntity
  8
0
100
AcDbLine
 62
7
  6
CONTINUOUS
 10
362.7638906736
 20
31.6554674174
 11
362.7638906736
 21
31.5909400446
  0
LINE
  5
22D
100
AcDbEntity
  8
0
100
AcDbLine
 62
7
  6
CONTINUOUS
 10
362.7638906736
 20
31.2037757623
 11
362.7638906736
 21
31.106984703
  0
LINE
  5
22E
100
AcDbEntity
  8
0
100
AcDbLine
 62
7
  6
CONTINUOUS
 10
363.0422717109
 20
32.6198901686
 11
363.0422717109
 21
36.3903819718
  0
LINE
  5
22F
100
AcDbEntity
  8
0
100
AcDbLine
 62
7
  6
CONTINUOUS
 10
363.0529530634
 20
31.074720994
 11
363.0529530634
 21
31.1392483894
  0
LINE
  5
230
100
AcDbEntity
  8
0
100
AcDbLine
 62
7
  6
CONTINUOUS
 10
363.3701405634
 20
36.3903819718
 11
363.3701405634
 21
32.6198901686
  0
LINE
  5
231
100
AcDbEntity
  8
0
100
AcDbLine
 62
7
  6
CONTINUOUS
 10
360.1623280082
 20
31.0101936212
 11
360.2201406185
 21
31.1392483894
  0
LINE
  5
232
100
AcDbEntity
  8
0
100
AcDbLine
 62
7
  6
CONTINUOUS
 10
364.5560782839
 20
30.9134025506
 11
364.4982653428
 21
31.074720994
  0
LINE
  5
233
100
AcDbEntity
  8
0
100
AcDbLine
 62
7
  6
CONTINUOUS
 10
364.2092032839
 20
31.5909400446
 11
364.2092032839
 21
31.4941489853
  0
LINE
  5
234
100
AcDbEntity
  8
0
100
AcDbLine
 62
7
  6
CONTINUOUS
 10
364.2092032839
 20
31.3650941944
 11
364.2092032839
 21
31.1715120759
  0
LINE
  5
235
100
AcDbEntity
  8
0
100
AcDbLine
 62
7
  6
CONTINUOUS
 10
364.4982653428
 20
31.074720994
 11
364.4982653428
 21
31.5909400446
  0
LINE
  5
236
100
AcDbEntity
  8
0
100
AcDbLine
 62
7
  6
CONTINUOUS
 10
364.7635831863
 20
32.6198901686
 11
364.7635831863
 21
34.4231688571
  0
LINE
  5
237
100
AcDbEntity
  8
0
100
AcDbLine
 62
7
  6
CONTINUOUS
 10
364.7635831863
 20
35.7346442669
 11
364.7635831863
 21
36.3903819718
  0
LINE
  5
238
100
AcDbEntity
  8
0
100
AcDbLine
 62
7
  6
CONTINUOUS
 10
365.0763907839
 20
32.3330049227
 11
365.0763907839
 21
32.1716864905
  0
LINE
  5
239
100
AcDbEntity
  8
0
100
AcDbLine
 62
7
  6
CONTINUOUS
 10
365.0763907839
 20
31.8490495359
 11
365.0763907839
 21
30.81661148
  0
LINE
  5
23A
100
AcDbEntity
  8
0
100
AcDbLine
 62
7
  6
CONTINUOUS
 10
365.3654528428
 20
30.81661148
 11
365.3654528428
 21
31.8490495359
  0
LINE
  5
23B
100
AcDbEntity
  8
0
100
AcDbLine
 62
7
  6
CONTINUOUS
 10
365.3654528428
 20
32.1716864905
 11
365.3654528428
 21
32.3330049227
  0
LINE
  5
23C
100
AcDbEntity
  8
0
100
AcDbLine
 62
7
  6
CONTINUOUS
 10
359.9310780634
 20
31.1392483894
 11
359.8732656185
 21
31.0424573076
  0
LINE
  5
23D
100
AcDbEntity
  8
0
100
AcDbLine
 62
7
  6
CONTINUOUS
 10
362.2435781736
 20
31.623203731
 11
362.1857655634
 21
31.6877311038
  0
LINE
  5
23E
100
AcDbEntity
  8
0
100
AcDbLine
 62
7
  6
CONTINUOUS
 10
363.1107656736
 20
31.0101936212
 11
363.0529530634
 21
31.074720994
  0
LINE
  5
23F
100
AcDbEntity
  8
0
100
AcDbLine
 62
7
  6
CONTINUOUS
 10
364.2670155634
 20
30.8811388585
 11
364.3248278428
 21
30.81661148
  0
LINE
  5
240
100
AcDbEntity
  8
0
100
AcDbLine
 62
7
  6
CONTINUOUS
 10
364.2092032839
 20
30.9779299347
 11
364.2670155634
 21
30.8811388585
  0
LINE
  5
241
100
AcDbEntity
  8
0
100
AcDbLine
 62
7
  6
CONTINUOUS
 10
364.6138905634
 20
30.81661148
 11
364.5560782839
 21
30.9134025506
  0
LINE
  5
242
100
AcDbEntity
  8
0
100
AcDbLine
 62
7
  6
CONTINUOUS
 10
364.4982653428
 20
31.5909400446
 11
364.4404530634
 21
31.6877311038
  0
LINE
  5
243
100
AcDbEntity
  8
0
100
AcDbLine
 62
7
  6
CONTINUOUS
 10
365.8279530634
 20
31.8490495359
 11
365.8279530634
 21
30.81661148
  0
LINE
  5
244
100
AcDbEntity
  8
0
100
AcDbLine
 62
7
  6
CONTINUOUS
 10
366.1170157839
 20
30.81661148
 11
366.1170157839
 21
31.5586763581
  0
LINE
  5
245
100
AcDbEntity
  8
0
100
AcDbLine
 62
7
  6
CONTINUOUS
 10
366.1170157839
 20
31.6877311038
 11
366.1170157839
 21
31.8490495359
  0
LINE
  5
246
100
AcDbEntity
  8
0
100
AcDbLine
 62
7
  6
CONTINUOUS
 10
366.648829088
 20
34.8330049227
 11
366.648829088
 21
32.6198901686
  0
LINE
  5
247
100
AcDbEntity
  8
0
100
AcDbLine
 62
7
  6
CONTINUOUS
 10
358.5435780634
 20
31.6554674174
 11
358.4279530651
 21
31.5264126717
  0
LINE
  5
248
100
AcDbEntity
  8
0
100
AcDbLine
 62
7
  6
CONTINUOUS
 10
358.7170155634
 20
31.4941489853
 11
358.7748280496
 21
31.5586763581
  0
LINE
  5
249
100
AcDbEntity
  8
0
100
AcDbLine
 62
7
  6
CONTINUOUS
 10
358.5435780634
 20
31.0101936212
 11
358.6592030565
 21
30.945666237
  0
LINE
  5
24A
100
AcDbEntity
  8
0
100
AcDbLine
 62
7
  6
CONTINUOUS
 10
358.9482655496
 20
31.0101936212
 11
358.7748280496
 21
31.106984703
  0
LINE
  5
24B
100
AcDbEntity
  8
0
100
AcDbLine
 62
7
  6
CONTINUOUS
 10
364.1513903428
 20
31.6554674174
 11
364.2092032839
 21
31.5909400446
  0
LINE
  5
24C
100
AcDbEntity
  8
0
100
AcDbLine
 62
7
  6
CONTINUOUS
 10
367.0998278428
 20
31.5909400446
 11
367.1576407839
 21
31.4296216124
  0
LINE
  5
24D
100
AcDbEntity
  8
0
100
AcDbLine
 62
7
  6
CONTINUOUS
 10
367.4467028428
 20
31.4296216124
 11
367.3888905634
 21
31.5909400446
  0
LINE
  5
24E
100
AcDbEntity
  8
0
100
AcDbLine
 62
7
  6
CONTINUOUS
 10
367.1576407839
 20
31.4296216124
 11
367.1576407839
 21
30.81661148
  0
LINE
  5
24F
100
AcDbEntity
  8
0
100
AcDbLine
 62
7
  6
CONTINUOUS
 10
367.4467028428
 20
30.81661148
 11
367.4467028428
 21
31.4296216124
  0
LINE
  5
250
100
AcDbEntity
  8
0
100
AcDbLine
 62
7
  6
CONTINUOUS
 10
367.9092030634
 20
31.6554674174
 11
367.9092030634
 21
31.5909400446
  0
LINE
  5
251
100
AcDbEntity
  8
0
100
AcDbLine
 62
7
  6
CONTINUOUS
 10
368.0422717109
 20
32.6198901686
 11
368.0422717109
 21
34.7510377095
  0
LINE
  5
252
100
AcDbEntity
  8
0
100
AcDbLine
 62
7
  6
CONTINUOUS
 10
368.3701405634
 20
36.3903819718
 11
368.3701405634
 21
32.6198901686
  0
LINE
  5
253
100
AcDbEntity
  8
0
100
AcDbLine
 62
7
  6
CONTINUOUS
 10
363.0529530634
 20
31.1392483894
 11
363.1107656736
 21
31.2360394487
  0
LINE
  5
254
100
AcDbEntity
  8
0
100
AcDbLine
 62
7
  6
CONTINUOUS
 10
358.6592030565
 20
30.945666237
 11
358.8326405772
 21
30.8811388585
  0
LINE
  5
255
100
AcDbEntity
  8
0
100
AcDbLine
 62
7
  6
CONTINUOUS
 10
360.1623280082
 20
31.6554674174
 11
359.9888905082
 21
31.7522584767
  0
LINE
  5
256
100
AcDbEntity
  8
0
100
AcDbLine
 62
7
  6
CONTINUOUS
 10
362.8217029531
 20
30.9779299347
 11
362.9951404531
 21
30.8811388585
  0
LINE
  5
257
100
AcDbEntity
  8
0
100
AcDbLine
 62
7
  6
CONTINUOUS
 10
361.8388905634
 20
31.6554674174
 11
361.9545154531
 21
31.5909400446
  0
LINE
  5
258
100
AcDbEntity
  8
0
100
AcDbLine
 62
7
  6
CONTINUOUS
 10
362.1857655634
 20
31.6877311038
 11
362.0701406736
 21
31.7522584767
  0
LINE
  5
259
100
AcDbEntity
  8
0
100
AcDbLine
 62
7
  6
CONTINUOUS
 10
367.9092030634
 20
31.074720994
 11
368.0248282839
 21
30.945666237
  0
LINE
  5
25A
100
AcDbEntity
  8
0
100
AcDbLine
 62
7
  6
CONTINUOUS
 10
368.2560780634
 20
31.0101936212
 11
368.1982657839
 21
31.074720994
  0
LINE
  5
25B
100
AcDbEntity
  8
0
100
AcDbLine
 62
7
  6
CONTINUOUS
 10
367.9092030634
 20
31.5909400446
 11
368.0248282839
 21
31.4618852989
  0
LINE
  5
25C
100
AcDbEntity
  8
0
100
AcDbLine
 62
7
  6
CONTINUOUS
 10
367.3888905634
 20
31.5909400446
 11
367.3310782839
 21
31.6877311038
  0
LINE
  5
25D
100
AcDbEntity
  8
0
100
AcDbLine
 62
7
  6
CONTINUOUS
 10
369.7592026223
 20
31.0101936212
 11
369.7592026223
 21
31.074720994
  0
LINE
  5
25E
100
AcDbEntity
  8
0
100
AcDbLine
 62
7
  6
CONTINUOUS
 10
369.7635831863
 20
32.6198901686
 11
369.7635831863
 21
36.3903819718
  0
LINE
  5
25F
100
AcDbEntity
  8
0
100
AcDbLine
 62
7
  6
CONTINUOUS
 10
362.8217029531
 20
31.7199947902
 11
362.7638906736
 21
31.6554674174
  0
LINE
  5
260
100
AcDbEntity
  8
0
100
AcDbLine
 62
7
  6
CONTINUOUS
 10
359.6998280358
 20
31.6877311038
 11
359.8732656185
 21
31.623203731
  0
LINE
  5
261
100
AcDbEntity
  8
0
100
AcDbLine
 62
7
  6
CONTINUOUS
 10
364.4404530634
 20
31.6877311038
 11
364.3248278428
 21
31.7522584767
  0
LINE
  5
262
100
AcDbEntity
  8
0
100
AcDbLine
 62
7
  6
CONTINUOUS
 10
368.2560780634
 20
31.5264126717
 11
368.1982657839
 21
31.5909400446
  0
LINE
  5
263
100
AcDbEntity
  8
0
100
AcDbLine
 62
7
  6
CONTINUOUS
 10
369.4123282839
 20
31.1392483894
 11
369.4701405634
 21
31.074720994
  0
LINE
  5
264
100
AcDbEntity
  8
0
100
AcDbLine
 62
7
  6
CONTINUOUS
 10
369.7592026223
 20
31.074720994
 11
369.6435780634
 21
31.2037757623
  0
LINE
  5
265
100
AcDbEntity
  8
0
100
AcDbLine
 62
7
  6
CONTINUOUS
 10
369.4123282839
 20
31.6554674174
 11
369.4701405634
 21
31.5909400446
  0
LINE
  5
266
100
AcDbEntity
  8
0
100
AcDbLine
 62
7
  6
CONTINUOUS
 10
369.7592026223
 20
31.5909400446
 11
369.6435780634
 21
31.7199947902
  0
LINE
  5
267
100
AcDbEntity
  8
0
100
AcDbLine
 62
7
  6
CONTINUOUS
 10
363.0529530634
 20
31.5909400446
 11
363.1107656736
 21
31.6554674174
  0
LINE
  5
268
100
AcDbEntity
  8
0
100
AcDbLine
 62
7
  6
CONTINUOUS
 10
362.8795155634
 20
31.332830508
 11
362.7638906736
 21
31.2037757623
  0
LINE
  5
269
100
AcDbEntity
  8
0
100
AcDbLine
 62
7
  6
CONTINUOUS
 10
364.2092032839
 20
31.1715120759
 11
364.1513903428
 21
31.106984703
  0
LINE
  5
26A
100
AcDbEntity
  8
0
100
AcDbLine
 62
7
  6
CONTINUOUS
 10
364.1513903428
 20
30.9134025506
 11
364.2092032839
 21
30.9779299347
  0
LINE
  5
26B
100
AcDbEntity
  8
0
100
AcDbLine
 62
7
  6
CONTINUOUS
 10
362.9951404531
 20
30.8811388585
 11
363.1107656736
 21
30.8488751693
  0
LINE
  5
26C
100
AcDbEntity
  8
0
100
AcDbLine
 62
7
  6
CONTINUOUS
 10
359.9888905082
 20
31.7522584767
 11
359.7576405634
 21
31.8167858495
  0
LINE
  5
26D
100
AcDbEntity
  8
0
100
AcDbLine
 62
7
  6
CONTINUOUS
 10
363.3420154531
 20
30.945666237
 11
363.1107656736
 21
31.0101936212
  0
LINE
  5
26E
100
AcDbEntity
  8
0
100
AcDbLine
 62
7
  6
CONTINUOUS
 10
362.0701406736
 20
31.7522584767
 11
361.8967031736
 21
31.8167858495
  0
LINE
  5
26F
100
AcDbEntity
  8
0
100
AcDbLine
 62
7
  6
CONTINUOUS
 10
364.3248278428
 20
31.7522584767
 11
364.1513903428
 21
31.8167858495
  0
LINE
  5
270
100
AcDbEntity
  8
0
100
AcDbLine
 62
7
  6
CONTINUOUS
 10
366.9842032839
 20
31.6554674174
 11
367.0998278428
 21
31.5909400446
  0
LINE
  5
271
100
AcDbEntity
  8
0
100
AcDbLine
 62
7
  6
CONTINUOUS
 10
367.3310782839
 20
31.6877311038
 11
367.2154530634
 21
31.7522584767
  0
LINE
  5
272
100
AcDbEntity
  8
0
100
AcDbLine
 62
7
  6
CONTINUOUS
 10
358.8326405772
 20
30.8811388585
 11
359.0060780772
 21
30.8488751693
  0
LINE
  5
273
100
AcDbEntity
  8
0
100
AcDbLine
 62
7
  6
CONTINUOUS
 10
359.2951405909
 20
30.945666237
 11
358.9482655496
 21
31.0101936212
  0
LINE
  5
274
100
AcDbEntity
  8
0
100
AcDbLine
 62
7
  6
CONTINUOUS
 10
361.7232656736
 20
31.6877311038
 11
361.8388905634
 21
31.6554674174
  0
LINE
  5
275
100
AcDbEntity
  8
0
100
AcDbLine
 62
7
  6
CONTINUOUS
 10
364.0357657839
 20
31.6877311038
 11
364.1513903428
 21
31.6554674174
  0
LINE
  5
276
100
AcDbEntity
  8
0
100
AcDbLine
 62
7
  6
CONTINUOUS
 10
368.3717032839
 20
30.9779299347
 11
368.2560780634
 21
31.0101936212
  0
LINE
  5
277
100
AcDbEntity
  8
0
100
AcDbLine
 62
7
  6
CONTINUOUS
 10
366.8685780634
 20
31.6877311038
 11
366.9842032839
 21
31.6554674174
  0
LINE
  5
278
100
AcDbEntity
  8
0
100
AcDbLine
 62
7
  6
CONTINUOUS
 10
368.0248282839
 20
30.945666237
 11
368.1982657839
 21
30.8811388585
  0
LINE
  5
279
100
AcDbEntity
  8
0
100
AcDbLine
 62
7
  6
CONTINUOUS
 10
367.2154530634
 20
31.7522584767
 11
367.0420155634
 21
31.8167858495
  0
LINE
  5
27A
100
AcDbEntity
  8
0
100
AcDbLine
 62
7
  6
CONTINUOUS
 10
368.4295155634
 20
31.4618852989
 11
368.2560780634
 21
31.5264126717
  0
LINE
  5
27B
100
AcDbEntity
  8
0
100
AcDbLine
 62
7
  6
CONTINUOUS
 10
369.2388907839
 20
31.2037757623
 11
369.4123282839
 21
31.1392483894
  0
LINE
  5
27C
100
AcDbEntity
  8
0
100
AcDbLine
 62
7
  6
CONTINUOUS
 10
369.6435780634
 20
31.7199947902
 11
369.4701405634
 21
31.7845221631
  0
LINE
  5
27D
100
AcDbEntity
  8
0
100
AcDbLine
 62
7
  6
CONTINUOUS
 10
368.0248282839
 20
31.4618852989
 11
368.2560780634
 21
31.3650941944
  0
LINE
  5
27E
100
AcDbEntity
  8
0
100
AcDbLine
 62
7
  6
CONTINUOUS
 10
369.6435780634
 20
31.2037757623
 11
369.4123282839
 21
31.3005668216
  0
LINE
  5
27F
100
AcDbEntity
  8
0
100
AcDbLine
 62
7
  6
CONTINUOUS
 10
368.1982657839
 20
31.5909400446
 11
368.2560780634
 21
31.6554674174
  0
LINE
  5
280
100
AcDbEntity
  8
0
100
AcDbLine
 62
7
  6
CONTINUOUS
 10
358.6592030565
 20
31.7199947902
 11
358.5435780634
 21
31.6554674174
  0
LINE
  5
281
100
AcDbEntity
  8
0
100
AcDbLine
 62
7
  6
CONTINUOUS
 10
358.7748280496
 20
31.5586763581
 11
358.9482655496
 21
31.6554674174
  0
LINE
  5
282
100
AcDbEntity
  8
0
100
AcDbLine
 62
7
  6
CONTINUOUS
 10
361.0873281185
 20
31.7522584767
 11
360.9717030634
 21
31.6877311038
  0
LINE
  5
283
100
AcDbEntity
  8
0
100
AcDbLine
 62
7
  6
CONTINUOUS
 10
360.9717030634
 20
31.5586763581
 11
361.0873281185
 21
31.623203731
  0
LINE
  5
284
100
AcDbEntity
  8
0
100
AcDbLine
 62
7
  6
CONTINUOUS
 10
359.9888905082
 20
30.9134025506
 11
360.1623280082
 21
31.0101936212
  0
LINE
  5
285
100
AcDbEntity
  8
0
100
AcDbLine
 62
7
  6
CONTINUOUS
 10
359.0060780772
 20
30.8488751693
 11
359.3529530358
 21
30.81661148
  0
LINE
  5
286
100
AcDbEntity
  8
0
100
AcDbLine
 62
7
  6
CONTINUOUS
 10
363.1107656736
 20
30.8488751693
 11
363.3420154531
 21
30.81661148
  0
LINE
  5
287
100
AcDbEntity
  8
0
100
AcDbLine
 62
7
  6
CONTINUOUS
 10
361.4920155634
 20
31.7199947902
 11
361.7232656736
 21
31.6877311038
  0
LINE
  5
288
100
AcDbEntity
  8
0
100
AcDbLine
 62
7
  6
CONTINUOUS
 10
363.8045156736
 20
31.7199947902
 11
364.0357657839
 21
31.6877311038
  0
LINE
  5
289
100
AcDbEntity
  8
0
100
AcDbLine
 62
7
  6
CONTINUOUS
 10
368.2560780634
 20
31.3650941944
 11
369.2388907839
 21
31.2037757623
  0
LINE
  5
28A
100
AcDbEntity
  8
0
100
AcDbLine
 62
7
  6
CONTINUOUS
 10
369.4123282839
 20
31.3005668216
 11
368.4295155634
 21
31.4618852989
  0
LINE
  5
28B
100
AcDbEntity
  8
0
100
AcDbLine
 62
7
  6
CONTINUOUS
 10
361.8967031736
 20
31.8167858495
 11
361.7232656736
 21
31.8490495359
  0
LINE
  5
28C
100
AcDbEntity
  8
0
100
AcDbLine
 62
7
  6
CONTINUOUS
 10
368.1982657839
 20
30.8811388585
 11
368.3717032839
 21
30.8488751693
  0
LINE
  5
28D
100
AcDbEntity
  8
0
100
AcDbLine
 62
7
  6
CONTINUOUS
 10
367.0420155634
 20
31.8167858495
 11
366.8685780634
 21
31.8490495359
  0
LINE
  5
28E
100
AcDbEntity
  8
0
100
AcDbLine
 62
7
  6
CONTINUOUS
 10
369.2967030634
 20
31.6877311038
 11
369.4123282839
 21
31.6554674174
  0
LINE
  5
28F
100
AcDbEntity
  8
0
100
AcDbLine
 62
7
  6
CONTINUOUS
 10
369.4701405634
 20
31.074720994
 11
369.4123282839
 21
31.0101936212
  0
LINE
  5
290
100
AcDbEntity
  8
0
100
AcDbLine
 62
7
  6
CONTINUOUS
 10
368.0248282839
 20
31.7522584767
 11
367.9092030634
 21
31.6554674174
  0
LINE
  5
291
100
AcDbEntity
  8
0
100
AcDbLine
 62
7
  6
CONTINUOUS
 10
362.9373281736
 20
31.7845221631
 11
362.8217029531
 21
31.7199947902
  0
LINE
  5
292
100
AcDbEntity
  8
0
100
AcDbLine
 62
7
  6
CONTINUOUS
 10
362.9951404531
 20
31.397357926
 11
362.8795155634
 21
31.332830508
  0
LINE
  5
293
100
AcDbEntity
  8
0
100
AcDbLine
 62
7
  6
CONTINUOUS
 10
363.1107656736
 20
31.2360394487
 11
363.2263905634
 21
31.3005668216
  0
LINE
  5
294
100
AcDbEntity
  8
0
100
AcDbLine
 62
7
  6
CONTINUOUS
 10
360.6826405082
 20
30.81661148
 11
360.9717030634
 21
30.81661148
  0
LINE
  5
295
100
AcDbEntity
  8
0
100
AcDbLine
 62
7
  6
CONTINUOUS
 10
362.0123280634
 20
30.81661148
 11
362.3013904531
 21
30.81661148
  0
LINE
  5
296
100
AcDbEntity
  8
0
100
AcDbLine
 62
7
  6
CONTINUOUS
 10
363.3420154531
 20
30.81661148
 11
363.6888904531
 21
30.81661148
  0
LINE
  5
297
100
AcDbEntity
  8
0
100
AcDbLine
 62
7
  6
CONTINUOUS
 10
364.3248278428
 20
30.81661148
 11
364.6138905634
 21
30.81661148
  0
LINE
  5
298
100
AcDbEntity
  8
0
100
AcDbLine
 62
7
  6
CONTINUOUS
 10
365.0763907839
 20
30.81661148
 11
365.3654528428
 21
30.81661148
  0
LINE
  5
299
100
AcDbEntity
  8
0
100
AcDbLine
 62
7
  6
CONTINUOUS
 10
365.8279530634
 20
30.81661148
 11
366.1170157839
 21
30.81661148
  0
LINE
  5
29A
100
AcDbEntity
  8
0
100
AcDbLine
 62
7
  6
CONTINUOUS
 10
367.1576407839
 20
30.81661148
 11
367.4467028428
 21
30.81661148
  0
LINE
  5
29B
100
AcDbEntity
  8
0
100
AcDbLine
 62
7
  6
CONTINUOUS
 10
368.7185782839
 20
30.81661148
 11
369.0654532839
 21
30.81661148
  0
LINE
  5
29C
100
AcDbEntity
  8
0
100
AcDbLine
 62
7
  6
CONTINUOUS
 10
369.0654532839
 20
30.945666237
 11
368.7185782839
 21
30.945666237
  0
LINE
  5
29D
100
AcDbEntity
  8
0
100
AcDbLine
 62
7
  6
CONTINUOUS
 10
363.6888904531
 20
30.945666237
 11
363.3420154531
 21
30.945666237
  0
LINE
  5
29E
100
AcDbEntity
  8
0
100
AcDbLine
 62
7
  6
CONTINUOUS
 10
368.1982657839
 20
31.074720994
 11
367.9092030634
 21
31.074720994
  0
LINE
  5
29F
100
AcDbEntity
  8
0
100
AcDbLine
 62
7
  6
CONTINUOUS
 10
360.2201406185
 20
31.1392483894
 11
359.9310780634
 21
31.1392483894
  0
LINE
  5
2A0
100
AcDbEntity
  8
0
100
AcDbLine
 62
7
  6
CONTINUOUS
 10
359.2951405909
 20
31.7199947902
 11
359.6998280358
 21
31.6877311038
  0
LINE
  5
2A1
100
AcDbEntity
  8
0
100
AcDbLine
 62
7
  6
CONTINUOUS
 10
359.7576405634
 20
31.8167858495
 11
359.3529530358
 21
31.8490495359
  0
LINE
  5
2A2
100
AcDbEntity
  8
0
100
AcDbLine
 62
7
  6
CONTINUOUS
 10
368.3717032839
 20
30.8488751693
 11
368.7185782839
 21
30.81661148
  0
LINE
  5
2A3
100
AcDbEntity
  8
0
100
AcDbLine
 62
7
  6
CONTINUOUS
 10
368.7185782839
 20
30.945666237
 11
368.3717032839
 21
30.9779299347
  0
LINE
  5
2A4
100
AcDbEntity
  8
0
100
AcDbLine
 62
7
  6
CONTINUOUS
 10
364.1513903428
 20
31.8167858495
 11
363.8045156736
 21
31.8490495359
  0
LINE
  5
2A5
100
AcDbEntity
  8
0
100
AcDbLine
 62
7
  6
CONTINUOUS
 10
368.9498280634
 20
31.7199947902
 11
369.2967030634
 21
31.6877311038
  0
LINE
  5
2A6
100
AcDbEntity
  8
0
100
AcDbLine
 62
7
  6
CONTINUOUS
 10
369.2967030634
 20
31.8167858495
 11
368.9498280634
 21
31.8490495359
  0
LINE
  5
2A7
100
AcDbEntity
  8
0
100
AcDbLine
 62
7
  6
CONTINUOUS
 10
366.6373282839
 20
31.7199947902
 11
366.8685780634
 21
31.6877311038
  0
LINE
  5
2A8
100
AcDbEntity
  8
0
100
AcDbLine
 62
7
  6
CONTINUOUS
 10
369.4701405634
 20
31.7845221631
 11
369.2967030634
 21
31.8167858495
  0
LINE
  5
2A9
100
AcDbEntity
  8
0
100
AcDbLine
 62
7
  6
CONTINUOUS
 10
369.6435780634
 20
30.9134025506
 11
369.7592026223
 21
31.0101936212
  0
LINE
  5
2AA
100
AcDbEntity
  8
0
100
AcDbLine
 62
7
  6
CONTINUOUS
 10
364.1513903428
 20
31.106984703
 11
363.9779528428
 21
31.0101936212
  0
LINE
  5
2AB
100
AcDbEntity
  8
0
100
AcDbLine
 62
7
  6
CONTINUOUS
 10
366.2326403428
 20
31.7522584767
 11
366.1170157839
 21
31.6877311038
  0
LINE
  5
2AC
100
AcDbEntity
  8
0
100
AcDbLine
 62
7
  6
CONTINUOUS
 10
366.1170157839
 20
31.5586763581
 11
366.2326403428
 21
31.623203731
  0
LINE
  5
2AD
100
AcDbEntity
  8
0
100
AcDbLine
 62
7
  6
CONTINUOUS
 10
358.8326405772
 20
31.7845221631
 11
358.6592030565
 21
31.7199947902
  0
LINE
  5
2AE
100
AcDbEntity
  8
0
100
AcDbLine
 62
7
  6
CONTINUOUS
 10
361.2607654531
 20
31.8167858495
 11
361.0873281185
 21
31.7522584767
  0
LINE
  5
2AF
100
AcDbEntity
  8
0
100
AcDbLine
 62
7
  6
CONTINUOUS
 10
361.0873281185
 20
31.623203731
 11
361.2607654531
 21
31.6877311038
  0
LINE
  5
2B0
100
AcDbEntity
  8
0
100
AcDbLine
 62
7
  6
CONTINUOUS
 10
359.8732656185
 20
31.0424573076
 11
359.6998280358
 21
30.9779299347
  0
LINE
  5
2B1
100
AcDbEntity
  8
0
100
AcDbLine
 62
7
  6
CONTINUOUS
 10
369.2967030634
 20
30.9779299347
 11
369.0654532839
 21
30.945666237
  0
LINE
  5
2B2
100
AcDbEntity
  8
0
100
AcDbLine
 62
7
  6
CONTINUOUS
 10
363.6888904531
 20
30.81661148
 11
363.9779528428
 21
30.8488751693
  0
LINE
  5
2B3
100
AcDbEntity
  8
0
100
AcDbLine
 62
7
  6
CONTINUOUS
 10
369.0654532839
 20
30.81661148
 11
369.4123282839
 21
30.8488751693
  0
LINE
  5
2B4
100
AcDbEntity
  8
0
100
AcDbLine
 62
7
  6
CONTINUOUS
 10
359.3529530358
 20
30.81661148
 11
359.7576405634
 21
30.8488751693
  0
LINE
  5
2B5
100
AcDbEntity
  8
0
100
AcDbLine
 62
7
  6
CONTINUOUS
 10
359.6998280358
 20
30.9779299347
 11
359.2951405909
 21
30.945666237
  0
LINE
  5
2B6
100
AcDbEntity
  8
0
100
AcDbLine
 62
7
  6
CONTINUOUS
 10
363.5732655634
 20
31.3650941944
 11
364.2092032839
 21
31.3650941944
  0
LINE
  5
2B7
100
AcDbEntity
  8
0
100
AcDbLine
 62
7
  6
CONTINUOUS
 10
364.2092032839
 20
31.4941489853
 11
363.5732655634
 21
31.4941489853
  0
LINE
  5
2B8
100
AcDbEntity
  8
0
100
AcDbLine
 62
7
  6
CONTINUOUS
 10
359.9310780634
 20
31.5264126717
 11
360.2201406185
 21
31.5264126717
  0
LINE
  5
2B9
100
AcDbEntity
  8
0
100
AcDbLine
 62
7
  6
CONTINUOUS
 10
362.7638906736
 20
31.5909400446
 11
363.0529530634
 21
31.5909400446
  0
LINE
  5
2BA
100
AcDbEntity
  8
0
100
AcDbLine
 62
7
  6
CONTINUOUS
 10
369.4701405634
 20
31.5909400446
 11
369.7592026223
 21
31.5909400446
  0
LINE
  5
2BB
100
AcDbEntity
  8
0
100
AcDbLine
 62
7
  6
CONTINUOUS
 10
363.4576406736
 20
31.7199947902
 11
363.8045156736
 21
31.7199947902
  0
LINE
  5
2BC
100
AcDbEntity
  8
0
100
AcDbLine
 62
7
  6
CONTINUOUS
 10
368.6029530634
 20
31.7199947902
 11
368.9498280634
 21
31.7199947902
  0
LINE
  5
2BD
100
AcDbEntity
  8
0
100
AcDbLine
 62
7
  6
CONTINUOUS
 10
368.9498280634
 20
31.8490495359
 11
368.6029530634
 21
31.8490495359
  0
LINE
  5
2BE
100
AcDbEntity
  8
0
100
AcDbLine
 62
7
  6
CONTINUOUS
 10
366.8685780634
 20
31.8490495359
 11
366.6373282839
 21
31.8490495359
  0
LINE
  5
2BF
100
AcDbEntity
  8
0
100
AcDbLine
 62
7
  6
CONTINUOUS
 10
366.1170157839
 20
31.8490495359
 11
365.8279530634
 21
31.8490495359
  0
LINE
  5
2C0
100
AcDbEntity
  8
0
100
AcDbLine
 62
7
  6
CONTINUOUS
 10
365.3654528428
 20
31.8490495359
 11
365.0763907839
 21
31.8490495359
  0
LINE
  5
2C1
100
AcDbEntity
  8
0
100
AcDbLine
 62
7
  6
CONTINUOUS
 10
363.8045156736
 20
31.8490495359
 11
363.4576406736
 21
31.8490495359
  0
LINE
  5
2C2
100
AcDbEntity
  8
0
100
AcDbLine
 62
7
  6
CONTINUOUS
 10
361.7232656736
 20
31.8490495359
 11
361.4920155634
 21
31.8490495359
  0
LINE
  5
2C3
100
AcDbEntity
  8
0
100
AcDbLine
 62
7
  6
CONTINUOUS
 10
365.0763907839
 20
32.1716864905
 11
365.3654528428
 21
32.1716864905
  0
LINE
  5
2C4
100
AcDbEntity
  8
0
100
AcDbLine
 62
7
  6
CONTINUOUS
 10
365.3654528428
 20
32.3330049227
 11
365.0763907839
 21
32.3330049227
  0
LINE
  5
2C5
100
AcDbEntity
  8
0
100
AcDbLine
 62
7
  6
CONTINUOUS
 10
360.9717030634
 20
32.3330049227
 11
360.6826405082
 21
32.3330049227
  0
LINE
  5
2C6
100
AcDbEntity
  8
0
100
AcDbLine
 62
7
  6
CONTINUOUS
 10
360.0094848257
 20
32.6198901686
 11
360.4220561743
 21
32.6198901686
  0
LINE
  5
2C7
100
AcDbEntity
  8
0
100
AcDbLine
 62
7
  6
CONTINUOUS
 10
361.648829088
 20
32.6198901686
 11
363.0422717109
 21
32.6198901686
  0
LINE
  5
2C8
100
AcDbEntity
  8
0
100
AcDbLine
 62
7
  6
CONTINUOUS
 10
363.3701405634
 20
32.6198901686
 11
364.7635831863
 21
32.6198901686
  0
LINE
  5
2C9
100
AcDbEntity
  8
0
100
AcDbLine
 62
7
  6
CONTINUOUS
 10
366.648829088
 20
32.6198901686
 11
368.0422717109
 21
32.6198901686
  0
LINE
  5
2CA
100
AcDbEntity
  8
0
100
AcDbLine
 62
7
  6
CONTINUOUS
 10
368.3701405634
 20
32.6198901686
 11
369.7635831863
 21
32.6198901686
  0
LINE
  5
2CB
100
AcDbEntity
  8
0
100
AcDbLine
 62
7
  6
CONTINUOUS
 10
366.4060778428
 20
31.8167858495
 11
366.2326403428
 21
31.7522584767
  0
LINE
  5
2CC
100
AcDbEntity
  8
0
100
AcDbLine
 62
7
  6
CONTINUOUS
 10
363.9779528428
 20
30.8488751693
 11
364.1513903428
 21
30.9134025506
  0
LINE
  5
2CD
100
AcDbEntity
  8
0
100
AcDbLine
 62
7
  6
CONTINUOUS
 10
369.4123282839
 20
30.8488751693
 11
369.6435780634
 21
30.9134025506
  0
LINE
  5
2CE
100
AcDbEntity
  8
0
100
AcDbLine
 62
7
  6
CONTINUOUS
 10
369.4123282839
 20
31.0101936212
 11
369.2967030634
 21
30.9779299347
  0
LINE
  5
2CF
100
AcDbEntity
  8
0
100
AcDbLine
 62
7
  6
CONTINUOUS
 10
368.3717032839
 20
31.6877311038
 11
368.6029530634
 21
31.7199947902
  0
LINE
  5
2D0
100
AcDbEntity
  8
0
100
AcDbLine
 62
7
  6
CONTINUOUS
 10
366.4060778428
 20
31.6877311038
 11
366.6373282839
 21
31.7199947902
  0
LINE
  5
2D1
100
AcDbEntity
  8
0
100
AcDbLine
 62
7
  6
CONTINUOUS
 10
363.3420154531
 20
31.332830508
 11
363.5732655634
 21
31.3650941944
  0
LINE
  5
2D2
100
AcDbEntity
  8
0
100
AcDbLine
 62
7
  6
CONTINUOUS
 10
366.6373282839
 20
31.8490495359
 11
366.4060778428
 21
31.8167858495
  0
LINE
  5
2D3
100
AcDbEntity
  8
0
100
AcDbLine
 62
7
  6
CONTINUOUS
 10
363.2263905634
 20
31.6877311038
 11
363.4576406736
 21
31.7199947902
  0
LINE
  5
2D4
100
AcDbEntity
  8
0
100
AcDbLine
 62
7
  6
CONTINUOUS
 10
368.6029530634
 20
31.8490495359
 11
368.2560780634
 21
31.8167858495
  0
LINE
  5
2D5
100
AcDbEntity
  8
0
100
AcDbLine
 62
7
  6
CONTINUOUS
 10
363.5732655634
 20
31.4941489853
 11
363.2263905634
 21
31.4618852989
  0
LINE
  5
2D6
100
AcDbEntity
  8
0
100
AcDbLine
 62
7
  6
CONTINUOUS
 10
359.3529530358
 20
31.8490495359
 11
359.0060780772
 21
31.8167858495
  0
LINE
  5
2D7
100
AcDbEntity
  8
0
100
AcDbLine
 62
7
  6
CONTINUOUS
 10
363.4576406736
 20
31.8490495359
 11
363.0529530634
 21
31.8167858495
  0
LINE
  5
2D8
100
AcDbEntity
  8
0
100
AcDbLine
 62
7
  6
CONTINUOUS
 10
360.8291569568
 20
33.7674311522
 11
360.1734192519
 21
33.7674311522
  0
LINE
  5
2D9
100
AcDbEntity
  8
0
100
AcDbLine
 62
7
  6
CONTINUOUS
 10
366.2326403428
 20
31.623203731
 11
366.4060778428
 21
31.6877311038
  0
LINE
  5
2DA
100
AcDbEntity
  8
0
100
AcDbLine
 62
7
  6
CONTINUOUS
 10
368.2560780634
 20
31.6554674174
 11
368.3717032839
 21
31.6877311038
  0
LINE
  5
2DB
100
AcDbEntity
  8
0
100
AcDbLine
 62
7
  6
CONTINUOUS
 10
368.2560780634
 20
31.8167858495
 11
368.0248282839
 21
31.7522584767
  0
LINE
  5
2DC
100
AcDbEntity
  8
0
100
AcDbLine
 62
7
  6
CONTINUOUS
 10
363.9779528428
 20
31.0101936212
 11
363.6888904531
 21
30.945666237
  0
LINE
  5
2DD
100
AcDbEntity
  8
0
100
AcDbLine
 62
7
  6
CONTINUOUS
 10
361.2607654531
 20
31.6877311038
 11
361.4920155634
 21
31.7199947902
  0
LINE
  5
2DE
100
AcDbEntity
  8
0
100
AcDbLine
 62
7
  6
CONTINUOUS
 10
361.4920155634
 20
31.8490495359
 11
361.2607654531
 21
31.8167858495
  0
LINE
  5
2DF
100
AcDbEntity
  8
0
100
AcDbLine
 62
7
  6
CONTINUOUS
 10
359.0638905634
 20
31.6877311038
 11
359.2951405909
 21
31.7199947902
  0
LINE
  5
2E0
100
AcDbEntity
  8
0
100
AcDbLine
 62
7
  6
CONTINUOUS
 10
365.5832553175
 20
35.2428409882
 11
366.2389930224
 21
35.2428409882
  0
LINE
  5
2E1
100
AcDbEntity
  8
0
100
AcDbLine
 62
7
  6
CONTINUOUS
 10
363.2263905634
 20
31.3005668216
 11
363.3420154531
 21
31.332830508
  0
LINE
  5
2E2
100
AcDbEntity
  8
0
100
AcDbLine
 62
7
  6
CONTINUOUS
 10
363.2263905634
 20
31.4618852989
 11
362.9951404531
 21
31.397357926
  0
LINE
  5
2E3
100
AcDbEntity
  8
0
100
AcDbLine
 62
7
  6
CONTINUOUS
 10
363.1107656736
 20
31.6554674174
 11
363.2263905634
 21
31.6877311038
  0
LINE
  5
2E4
100
AcDbEntity
  8
0
100
AcDbLine
 62
7
  6
CONTINUOUS
 10
359.7576405634
 20
30.8488751693
 11
359.9888905082
 21
30.9134025506
  0
LINE
  5
2E5
100
AcDbEntity
  8
0
100
AcDbLine
 62
7
  6
CONTINUOUS
 10
363.0529530634
 20
31.8167858495
 11
362.9373281736
 21
31.7845221631
  0
LINE
  5
2E6
100
AcDbEntity
  8
0
100
AcDbLine
 62
7
  6
CONTINUOUS
 10
359.0060780772
 20
31.8167858495
 11
358.8326405772
 21
31.7845221631
  0
LINE
  5
2E7
100
AcDbEntity
  8
0
100
AcDbLine
 62
7
  6
CONTINUOUS
 10
369.7635831863
 20
36.3903819718
 11
368.3701405634
 21
36.3903819718
  0
LINE
  5
2E8
100
AcDbEntity
  8
0
100
AcDbLine
 62
7
  6
CONTINUOUS
 10
366.4029274486
 20
36.3903819718
 11
365.9903561
 21
36.3903819718
  0
LINE
  5
2E9
100
AcDbEntity
  8
0
100
AcDbLine
 62
7
  6
CONTINUOUS
 10
364.7635831863
 20
36.3903819718
 11
363.3701405634
 21
36.3903819718
  0
LINE
  5
2EA
100
AcDbEntity
  8
0
100
AcDbLine
 62
7
  6
CONTINUOUS
 10
363.0422717109
 20
36.3903819718
 11
361.648829088
 21
36.3903819718
  0
LINE
  5
2EB
100
AcDbEntity
  8
0
100
AcDbLine
 62
7
  6
CONTINUOUS
 10
359.7635831863
 20
36.3903819718
 11
358.3701405634
 21
36.3903819718
  0
LINE
  5
2EC
100
AcDbEntity
  8
0
100
AcDbLine
 62
7
  6
CONTINUOUS
 10
358.9482655496
 20
31.6554674174
 11
359.0638905634
 21
31.6877311038
  0
CIRCLE
  5
2ED
100
AcDbEntity
  8
0
100
AcDbCircle
 62
7
  6
CONTINUOUS
 10
369.0668618749
 20
38.7264475456
 40
2.0901639344
  0
ARC
  5
2EE
100
AcDbEntity
  8
0
100
AcDbCircle
 62
7
  6
CONTINUOUS
 10
360.0094848257
 20
34.2592344308
 40
1.6393442623
100
AcDbArc
 50
180.0
 51
270.0
  0
ARC
  5
2EF
100
AcDbEntity
  8
0
100
AcDbCircle
 62
7
  6
CONTINUOUS
 10
366.4029274486
 20
34.7510377095
 40
1.6393442623
100
AcDbArc
 50
0.0
 51
90.0
  0
ARC
  5
2F0
100
AcDbEntity
  8
0
100
AcDbCircle
 62
7
  6
CONTINUOUS
 10
360.4220561743
 20
34.0953000046
 40
1.4754098361
100
AcDbArc
 50
270.0
 51
326.2510114041
  0
ARC
  5
2F1
100
AcDbEntity
  8
0
100
AcDbCircle
 62
7
  6
CONTINUOUS
 10
365.9903561
 20
34.9149721358
 40
1.4754098361
100
AcDbArc
 50
90.0
 51
146.2510114041
  0
ARC
  5
2F2
100
AcDbEntity
  8
0
100
AcDbCircle
 62
7
  6
CONTINUOUS
 10
360.8291569568
 20
34.5871032833
 40
0.8196721311
100
AcDbArc
 50
270.0
 51
360.0
  0
ARC
  5
2F3
100
AcDbEntity
  8
0
100
AcDbCircle
 62
7
  6
CONTINUOUS
 10
365.5832553175
 20
34.4231688571
 40
0.8196721311
100
AcDbArc
 50
90.0
 51
180.0
  0
ARC
  5
2F4
100
AcDbEntity
  8
0
100
AcDbCircle
 62
7
  6
CONTINUOUS
 10
360.1734192519
 20
34.1772672177
 40
0.4098360656
100
AcDbArc
 50
180.0
 51
270.0
  0
ARC
  5
2F5
100
AcDbEntity
  8
0
100
AcDbCircle
 62
7
  6
CONTINUOUS
 10
366.2389930224
 20
34.8330049227
 40
0.4098360656
100
AcDbArc
 50
0.0
 51
90.0
  0
SOLID
  5
2F6
100
AcDbEntity
  8
0
100
AcDbTrace
 62
7
  6
CONTINUOUS
 10
365.0763907839
 20
32.1716868508
 11
365.0763907839
 21
32.3330053344
 12
365.3654528428
 22
32.1716868508
 13
365.3654528428
 23
32.3330053344
  0
LWPOLYLINE
  5
2F7
100
AcDbEntity
  8
0
100
AcDbPolyline
 62
7
  6
CONTINUOUS
 90
13
 70
0
 10
359.3529530358
 20
31.8490498836
 10
359.7576405634
 20
31.8167855803
 10
359.9888905082
 20
31.7522584901
 10
360.1623280082
 20
31.6554670967
 10
360.2201406185
 20
31.5264129164
 10
359.9310780634
 20
31.5264129164
 10
359.8732656185
 20
31.6232043098
 10
359.6998280358
 20
31.6877314
 10
359.2951405909
 20
31.7199941869
 10
358.6592030565
 20
31.7199941869
 10
358.8326405772
 20
31.7845227934
 10
359.0060780772
 20
31.8167855803
 10
359.3529530358
 20
31.8490498836
  0
HATCH
  5
2F8
100
AcDbEntity
  8
0
100
AcDbHatch
 62
7
  6
CONTINUOUS
 10
0.0
 20
0.0
 30
0.0
210
0.0
220
0.0
230
1.0
  2
SOLID
 70
1
 71
1
 91
1
 92
1
 93
12
 72
1
 10
359.3529530358
 20
31.8490498836
 11
359.7576405634
 21
31.8167855803
 72
1
 10
359.7576405634
 20
31.8167855803
 11
359.9888905082
 21
31.7522584901
 72
1
 10
359.9888905082
 20
31.7522584901
 11
360.1623280082
 21
31.6554670967
 72
1
 10
360.1623280082
 20
31.6554670967
 11
360.2201406185
 21
31.5264129164
 72
1
 10
360.2201406185
 20
31.5264129164
 11
359.9310780634
 21
31.5264129164
 72
1
 10
359.9310780634
 20
31.5264129164
 11
359.8732656185
 21
31.6232043098
 72
1
 10
359.8732656185
 20
31.6232043098
 11
359.6998280358
 21
31.6877314
 72
1
 10
359.6998280358
 20
31.6877314
 11
359.2951405909
 21
31.7199941869
 72
1
 10
359.2951405909
 20
31.7199941869
 11
358.6592030565
 21
31.7199941869
 72
1
 10
358.6592030565
 20
31.7199941869
 11
358.8326405772
 21
31.7845227934
 72
1
 10
358.8326405772
 20
31.7845227934
 11
359.0060780772
 21
31.8167855803
 72
1
 10
359.0060780772
 20
31.8167855803
 11
359.3529530358
 21
31.8490498836
 97
1
330
2F7
 75
0
 76
1
 98
1
 10
0.0
 20
0.0
  0
LWPOLYLINE
  5
2F9
100
AcDbEntity
  8
0
100
AcDbPolyline
 62
7
  6
CONTINUOUS
 90
25
 70
0
 10
361.2607654531
 20
31.8167855803
 10
361.4920155634
 20
31.8490498836
 10
361.7232656736
 20
31.8490498836
 10
361.8967031736
 20
31.8167855803
 10
362.0701406736
 20
31.7522584901
 10
362.1857655634
 20
31.6877314
 10
362.2435781736
 20
31.6232043098
 10
362.3013904531
 20
31.4618858262
 10
362.3013904531
 20
30.8166118918
 10
362.0123280634
 20
30.8166118918
 10
362.0123280634
 20
31.4618858262
 10
361.9545154531
 20
31.5909400065
 10
361.8388905634
 20
31.6554670967
 10
361.7232656736
 20
31.6877314
 10
361.4920155634
 20
31.7199941869
 10
361.2607654531
 20
31.6877314
 10
361.0873281185
 20
31.6232043098
 10
360.9717030634
 20
31.5586757033
 10
360.9717030634
 20
30.8166118918
 10
360.6826405082
 20
30.8166118918
 10
360.6826405082
 20
32.3330053344
 10
360.9717030634
 20
32.3330053344
 10
360.9717030634
 20
31.6877314
 10
361.0873281185
 20
31.7522584901
 10
361.2607654531
 20
31.8167855803
  0
HATCH
  5
2FA
100
AcDbEntity
  8
0
100
AcDbHatch
 62
7
  6
CONTINUOUS
 10
0.0
 20
0.0
 30
0.0
210
0.0
220
0.0
230
1.0
  2
SOLID
 70
1
 71
1
 91
1
 92
1
 93
24
 72
1
 10
361.2607654531
 20
31.8167855803
 11
361.4920155634
 21
31.8490498836
 72
1
 10
361.4920155634
 20
31.8490498836
 11
361.7232656736
 21
31.8490498836
 72
1
 10
361.7232656736
 20
31.8490498836
 11
361.8967031736
 21
31.8167855803
 72
1
 10
361.8967031736
 20
31.8167855803
 11
362.0701406736
 21
31.7522584901
 72
1
 10
362.0701406736
 20
31.7522584901
 11
362.1857655634
 21
31.6877314
 72
1
 10
362.1857655634
 20
31.6877314
 11
362.2435781736
 21
31.6232043098
 72
1
 10
362.2435781736
 20
31.6232043098
 11
362.3013904531
 21
31.4618858262
 72
1
 10
362.3013904531
 20
31.4618858262
 11
362.3013904531
 21
30.8166118918
 72
1
 10
362.3013904531
 20
30.8166118918
 11
362.0123280634
 21
30.8166118918
 72
1
 10
362.0123280634
 20
30.8166118918
 11
362.0123280634
 21
31.4618858262
 72
1
 10
362.0123280634
 20
31.4618858262
 11
361.9545154531
 21
31.5909400065
 72
1
 10
361.9545154531
 20
31.5909400065
 11
361.8388905634
 21
31.6554670967
 72
1
 10
361.8388905634
 20
31.6554670967
 11
361.7232656736
 21
31.6877314
 72
1
 10
361.7232656736
 20
31.6877314
 11
361.4920155634
 21
31.7199941869
 72
1
 10
361.4920155634
 20
31.7199941869
 11
361.2607654531
 21
31.6877314
 72
1
 10
361.2607654531
 20
31.6877314
 11
361.0873281185
 21
31.6232043098
 72
1
 10
361.0873281185
 20
31.6232043098
 11
360.9717030634
 21
31.5586757033
 72
1
 10
360.9717030634
 20
31.5586757033
 11
360.9717030634
 21
30.8166118918
 72
1
 10
360.9717030634
 20
30.8166118918
 11
360.6826405082
 21
30.8166118918
 72
1
 10
360.6826405082
 20
30.8166118918
 11
360.6826405082
 21
32.3330053344
 72
1
 10
360.6826405082
 20
32.3330053344
 11
360.9717030634
 21
32.3330053344
 72
1
 10
360.9717030634
 20
32.3330053344
 11
360.9717030634
 21
31.6877314
 72
1
 10
360.9717030634
 20
31.6877314
 11
361.0873281185
 21
31.7522584901
 72
1
 10
361.0873281185
 20
31.7522584901
 11
361.2607654531
 21
31.8167855803
 97
1
330
2F9
 75
0
 76
1
 98
1
 10
0.0
 20
0.0
  0
LWPOLYLINE
  5
2FB
100
AcDbEntity
  8
0
100
AcDbPolyline
 62
7
  6
CONTINUOUS
 90
20
 70
0
 10
363.0529530634
 20
31.8167855803
 10
363.4576406736
 20
31.8490498836
 10
363.8045156736
 20
31.8490498836
 10
364.1513903428
 20
31.8167855803
 10
364.3248278428
 20
31.7522584901
 10
364.4404530634
 20
31.6877314
 10
364.4982653428
 20
31.5909400065
 10
364.4982653428
 20
31.0747202524
 10
364.2092032839
 20
31.1715120759
 10
364.2092032839
 20
31.3650944328
 10
364.2092032839
 20
31.4941486131
 10
364.2092032839
 20
31.5909400065
 10
364.1513903428
 20
31.6554670967
 10
364.0357657839
 20
31.6877314
 10
363.8045156736
 20
31.7199941869
 10
363.4576406736
 20
31.7199941869
 10
362.7638906736
 20
31.6554670967
 10
362.8217029531
 20
31.7199941869
 10
362.9373281736
 20
31.7845227934
 10
363.0529530634
 20
31.8167855803
  0
HATCH
  5
2FC
100
AcDbEntity
  8
0
100
AcDbHatch
 62
7
  6
CONTINUOUS
 10
0.0
 20
0.0
 30
0.0
210
0.0
220
0.0
230
1.0
  2
SOLID
 70
1
 71
1
 91
1
 92
1
 93
19
 72
1
 10
363.0529530634
 20
31.8167855803
 11
363.4576406736
 21
31.8490498836
 72
1
 10
363.4576406736
 20
31.8490498836
 11
363.8045156736
 21
31.8490498836
 72
1
 10
363.8045156736
 20
31.8490498836
 11
364.1513903428
 21
31.8167855803
 72
1
 10
364.1513903428
 20
31.8167855803
 11
364.3248278428
 21
31.7522584901
 72
1
 10
364.3248278428
 20
31.7522584901
 11
364.4404530634
 21
31.6877314
 72
1
 10
364.4404530634
 20
31.6877314
 11
364.4982653428
 21
31.5909400065
 72
1
 10
364.4982653428
 20
31.5909400065
 11
364.4982653428
 21
31.0747202524
 72
1
 10
364.4982653428
 20
31.0747202524
 11
364.2092032839
 21
31.1715120759
 72
1
 10
364.2092032839
 20
31.1715120759
 11
364.2092032839
 21
31.3650944328
 72
1
 10
364.2092032839
 20
31.3650944328
 11
364.2092032839
 21
31.4941486131
 72
1
 10
364.2092032839
 20
31.4941486131
 11
364.2092032839
 21
31.5909400065
 72
1
 10
364.2092032839
 20
31.5909400065
 11
364.1513903428
 21
31.6554670967
 72
1
 10
364.1513903428
 20
31.6554670967
 11
364.0357657839
 21
31.6877314
 72
1
 10
364.0357657839
 20
31.6877314
 11
363.8045156736
 21
31.7199941869
 72
1
 10
363.8045156736
 20
31.7199941869
 11
363.4576406736
 21
31.7199941869
 72
1
 10
363.4576406736
 20
31.7199941869
 11
362.7638906736
 21
31.6554670967
 72
1
 10
362.7638906736
 20
31.6554670967
 11
362.8217029531
 21
31.7199941869
 72
1
 10
362.8217029531
 20
31.7199941869
 11
362.9373281736
 21
31.7845227934
 72
1
 10
362.9373281736
 20
31.7845227934
 11
363.0529530634
 21
31.8167855803
 97
1
330
2FB
 75
0
 76
1
 98
1
 10
0.0
 20
0.0
  0
LWPOLYLINE
  5
2FD
100
AcDbEntity
  8
0
100
AcDbPolyline
 62
7
  6
CONTINUOUS
 90
25
 70
0
 10
366.4060778428
 20
31.8167855803
 10
366.6373282839
 20
31.8490498836
 10
366.8685780634
 20
31.8490498836
 10
367.0420155634
 20
31.8167855803
 10
367.2154530634
 20
31.7522584901
 10
367.3310782839
 20
31.6877314
 10
367.3888905634
 20
31.5909400065
 10
367.4467028428
 20
31.4296215229
 10
367.4467028428
 20
30.8166118918
 10
367.1576407839
 20
30.8166118918
 10
367.1576407839
 20
31.4296215229
 10
367.0998278428
 20
31.5909400065
 10
366.9842032839
 20
31.6554670967
 10
366.8685780634
 20
31.6877314
 10
366.6373282839
 20
31.7199941869
 10
366.4060778428
 20
31.6877314
 10
366.2326403428
 20
31.6232043098
 10
366.1170157839
 20
31.5586757033
 10
366.1170157839
 20
30.8166118918
 10
365.8279530634
 20
30.8166118918
 10
365.8279530634
 20
31.8490498836
 10
366.1170157839
 20
31.8490498836
 10
366.1170157839
 20
31.6877314
 10
366.2326403428
 20
31.7522584901
 10
366.4060778428
 20
31.8167855803
  0
HATCH
  5
2FE
100
AcDbEntity
  8
0
100
AcDbHatch
 62
7
  6
CONTINUOUS
 10
0.0
 20
0.0
 30
0.0
210
0.0
220
0.0
230
1.0
  2
SOLID
 70
1
 71
1
 91
1
 92
1
 93
24
 72
1
 10
366.4060778428
 20
31.8167855803
 11
366.6373282839
 21
31.8490498836
 72
1
 10
366.6373282839
 20
31.8490498836
 11
366.8685780634
 21
31.8490498836
 72
1
 10
366.8685780634
 20
31.8490498836
 11
367.0420155634
 21
31.8167855803
 72
1
 10
367.0420155634
 20
31.8167855803
 11
367.2154530634
 21
31.7522584901
 72
1
 10
367.2154530634
 20
31.7522584901
 11
367.3310782839
 21
31.6877314
 72
1
 10
367.3310782839
 20
31.6877314
 11
367.3888905634
 21
31.5909400065
 72
1
 10
367.3888905634
 20
31.5909400065
 11
367.4467028428
 21
31.4296215229
 72
1
 10
367.4467028428
 20
31.4296215229
 11
367.4467028428
 21
30.8166118918
 72
1
 10
367.4467028428
 20
30.8166118918
 11
367.1576407839
 21
30.8166118918
 72
1
 10
367.1576407839
 20
30.8166118918
 11
367.1576407839
 21
31.4296215229
 72
1
 10
367.1576407839
 20
31.4296215229
 11
367.0998278428
 21
31.5909400065
 72
1
 10
367.0998278428
 20
31.5909400065
 11
366.9842032839
 21
31.6554670967
 72
1
 10
366.9842032839
 20
31.6554670967
 11
366.8685780634
 21
31.6877314
 72
1
 10
366.8685780634
 20
31.6877314
 11
366.6373282839
 21
31.7199941869
 72
1
 10
366.6373282839
 20
31.7199941869
 11
366.4060778428
 21
31.6877314
 72
1
 10
366.4060778428
 20
31.6877314
 11
366.2326403428
 21
31.6232043098
 72
1
 10
366.2326403428
 20
31.6232043098
 11
366.1170157839
 21
31.5586757033
 72
1
 10
366.1170157839
 20
31.5586757033
 11
366.1170157839
 21
30.8166118918
 72
1
 10
366.1170157839
 20
30.8166118918
 11
365.8279530634
 21
30.8166118918
 72
1
 10
365.8279530634
 20
30.8166118918
 11
365.8279530634
 21
31.8490498836
 72
1
 10
365.8279530634
 20
31.8490498836
 11
366.1170157839
 21
31.8490498836
 72
1
 10
366.1170157839
 20
31.8490498836
 11
366.1170157839
 21
31.6877314
 72
1
 10
366.1170157839
 20
31.6877314
 11
366.2326403428
 21
31.7522584901
 72
1
 10
366.2326403428
 20
31.7522584901
 11
366.4060778428
 21
31.8167855803
 97
1
330
2FD
 75
0
 76
1
 98
1
 10
0.0
 20
0.0
  0
LWPOLYLINE
  5
2FF
100
AcDbEntity
  8
0
100
AcDbPolyline
 62
7
  6
CONTINUOUS
 90
6
 70
0
 10
368.2560780634
 20
31.8167855803
 10
368.6029530634
 20
31.8490498836
 10
368.9498280634
 20
31.8490498836
 10
369.2967030634
 20
31.8167855803
 10
368.0248282839
 20
31.7522584901
 10
368.2560780634
 20
31.8167855803
  0
HATCH
  5
300
100
AcDbEntity
  8
0
100
AcDbHatch
 62
7
  6
CONTINUOUS
 10
0.0
 20
0.0
 30
0.0
210
0.0
220
0.0
230
1.0
  2
SOLID
 70
1
 71
1
 91
1
 92
1
 93
5
 72
1
 10
368.2560780634
 20
31.8167855803
 11
368.6029530634
 21
31.8490498836
 72
1
 10
368.6029530634
 20
31.8490498836
 11
368.9498280634
 21
31.8490498836
 72
1
 10
368.9498280634
 20
31.8490498836
 11
369.2967030634
 21
31.8167855803
 72
1
 10
369.2967030634
 20
31.8167855803
 11
368.0248282839
 21
31.7522584901
 72
1
 10
368.0248282839
 20
31.7522584901
 11
368.2560780634
 21
31.8167855803
 97
1
330
2FF
 75
0
 76
1
 98
1
 10
0.0
 20
0.0
  0
LWPOLYLINE
  5
301
100
AcDbEntity
  8
0
100
AcDbPolyline
 62
7
  6
CONTINUOUS
 90
12
 70
0
 10
369.4701405634
 20
31.7845227934
 10
369.6435780634
 20
31.7199941869
 10
369.7592026223
 20
31.5909400065
 10
369.4701405634
 20
31.5909400065
 10
369.4123282839
 20
31.6554670967
 10
369.2967030634
 20
31.6877314
 10
368.9498280634
 20
31.7199941869
 10
368.6029530634
 20
31.7199941869
 10
367.9092030634
 20
31.6554670967
 10
368.0248282839
 20
31.7522584901
 10
369.2967030634
 20
31.8167855803
 10
369.4701405634
 20
31.7845227934
  0
HATCH
  5
302
100
AcDbEntity
  8
0
100
AcDbHatch
 62
7
  6
CONTINUOUS
 10
0.0
 20
0.0
 30
0.0
210
0.0
220
0.0
230
1.0
  2
SOLID
 70
1
 71
1
 91
1
 92
1
 93
11
 72
1
 10
369.4701405634
 20
31.7845227934
 11
369.6435780634
 21
31.7199941869
 72
1
 10
369.6435780634
 20
31.7199941869
 11
369.7592026223
 21
31.5909400065
 72
1
 10
369.7592026223
 20
31.5909400065
 11
369.4701405634
 21
31.5909400065
 72
1
 10
369.4701405634
 20
31.5909400065
 11
369.4123282839
 21
31.6554670967
 72
1
 10
369.4123282839
 20
31.6554670967
 11
369.2967030634
 21
31.6877314
 72
1
 10
369.2967030634
 20
31.6877314
 11
368.9498280634
 21
31.7199941869
 72
1
 10
368.9498280634
 20
31.7199941869
 11
368.6029530634
 21
31.7199941869
 72
1
 10
368.6029530634
 20
31.7199941869
 11
367.9092030634
 21
31.6554670967
 72
1
 10
367.9092030634
 20
31.6554670967
 11
368.0248282839
 21
31.7522584901
 72
1
 10
368.0248282839
 20
31.7522584901
 11
369.2967030634
 21
31.8167855803
 72
1
 10
369.2967030634
 20
31.8167855803
 11
369.4701405634
 21
31.7845227934
 97
1
330
301
 75
0
 76
1
 98
1
 10
0.0
 20
0.0
  0
LWPOLYLINE
  5
303
100
AcDbEntity
  8
0
100
AcDbPolyline
 62
7
  6
CONTINUOUS
 90
7
 70
0
 10
359.0638905634
 20
31.6877314
 10
358.9482655496
 20
31.6554670967
 10
358.4279530651
 20
31.5264129164
 10
358.5435780634
 20
31.6554670967
 10
358.6592030565
 20
31.7199941869
 10
359.2951405909
 20
31.7199941869
 10
359.0638905634
 20
31.6877314
  0
HATCH
  5
304
100
AcDbEntity
  8
0
100
AcDbHatch
 62
7
  6
CONTINUOUS
 10
0.0
 20
0.0
 30
0.0
210
0.0
220
0.0
230
1.0
  2
SOLID
 70
1
 71
1
 91
1
 92
1
 93
6
 72
1
 10
359.0638905634
 20
31.6877314
 11
358.9482655496
 21
31.6554670967
 72
1
 10
358.9482655496
 20
31.6554670967
 11
358.4279530651
 21
31.5264129164
 72
1
 10
358.4279530651
 20
31.5264129164
 11
358.5435780634
 21
31.6554670967
 72
1
 10
358.5435780634
 20
31.6554670967
 11
358.6592030565
 21
31.7199941869
 72
1
 10
358.6592030565
 20
31.7199941869
 11
359.2951405909
 21
31.7199941869
 72
1
 10
359.2951405909
 20
31.7199941869
 11
359.0638905634
 21
31.6877314
 97
1
330
303
 75
0
 76
1
 98
1
 10
0.0
 20
0.0
  0
LWPOLYLINE
  5
305
100
AcDbEntity
  8
0
100
AcDbPolyline
 62
7
  6
CONTINUOUS
 90
7
 70
0
 10
363.2263905634
 20
31.6877314
 10
363.1107656736
 20
31.6554670967
 10
363.0529530634
 20
31.5909400065
 10
362.7638906736
 20
31.5909400065
 10
362.7638906736
 20
31.6554670967
 10
363.4576406736
 20
31.7199941869
 10
363.2263905634
 20
31.6877314
  0
HATCH
  5
306
100
AcDbEntity
  8
0
100
AcDbHatch
 62
7
  6
CONTINUOUS
 10
0.0
 20
0.0
 30
0.0
210
0.0
220
0.0
230
1.0
  2
SOLID
 70
1
 71
1
 91
1
 92
1
 93
6
 72
1
 10
363.2263905634
 20
31.6877314
 11
363.1107656736
 21
31.6554670967
 72
1
 10
363.1107656736
 20
31.6554670967
 11
363.0529530634
 21
31.5909400065
 72
1
 10
363.0529530634
 20
31.5909400065
 11
362.7638906736
 21
31.5909400065
 72
1
 10
362.7638906736
 20
31.5909400065
 11
362.7638906736
 21
31.6554670967
 72
1
 10
362.7638906736
 20
31.6554670967
 11
363.4576406736
 21
31.7199941869
 72
1
 10
363.4576406736
 20
31.7199941869
 11
363.2263905634
 21
31.6877314
 97
1
330
305
 75
0
 76
1
 98
1
 10
0.0
 20
0.0
  0
LWPOLYLINE
  5
307
100
AcDbEntity
  8
0
100
AcDbPolyline
 62
7
  6
CONTINUOUS
 90
8
 70
0
 10
368.3717032839
 20
31.6877314
 10
368.2560780634
 20
31.6554670967
 10
368.1982657839
 20
31.5909400065
 10
368.0248282839
 20
31.4618858262
 10
367.9092030634
 20
31.5909400065
 10
367.9092030634
 20
31.6554670967
 10
368.6029530634
 20
31.7199941869
 10
368.3717032839
 20
31.6877314
  0
HATCH
  5
308
100
AcDbEntity
  8
0
100
AcDbHatch
 62
7
  6
CONTINUOUS
 10
0.0
 20
0.0
 30
0.0
210
0.0
220
0.0
230
1.0
  2
SOLID
 70
1
 71
1
 91
1
 92
1
 93
7
 72
1
 10
368.3717032839
 20
31.6877314
 11
368.2560780634
 21
31.6554670967
 72
1
 10
368.2560780634
 20
31.6554670967
 11
368.1982657839
 21
31.5909400065
 72
1
 10
368.1982657839
 20
31.5909400065
 11
368.0248282839
 21
31.4618858262
 72
1
 10
368.0248282839
 20
31.4618858262
 11
367.9092030634
 21
31.5909400065
 72
1
 10
367.9092030634
 20
31.5909400065
 11
367.9092030634
 21
31.6554670967
 72
1
 10
367.9092030634
 20
31.6554670967
 11
368.6029530634
 21
31.7199941869
 72
1
 10
368.6029530634
 20
31.7199941869
 11
368.3717032839
 21
31.6877314
 97
1
330
307
 75
0
 76
1
 98
1
 10
0.0
 20
0.0
  0
LWPOLYLINE
  5
309
100
AcDbEntity
  8
0
100
AcDbPolyline
 62
7
  6
CONTINUOUS
 90
6
 70
0
 10
358.7748280496
 20
31.5586757033
 10
358.7170155634
 20
31.4941486131
 10
358.3701405634
 20
31.3328301295
 10
358.4279530651
 20
31.5264129164
 10
358.9482655496
 20
31.6554670967
 10
358.7748280496
 20
31.5586757033
  0
HATCH
  5
30A
100
AcDbEntity
  8
0
100
AcDbHatch
 62
7
  6
CONTINUOUS
 10
0.0
 20
0.0
 30
0.0
210
0.0
220
0.0
230
1.0
  2
SOLID
 70
1
 71
1
 91
1
 92
1
 93
5
 72
1
 10
358.7748280496
 20
31.5586757033
 11
358.7170155634
 21
31.4941486131
 72
1
 10
358.7170155634
 20
31.4941486131
 11
358.3701405634
 21
31.3328301295
 72
1
 10
358.3701405634
 20
31.3328301295
 11
358.4279530651
 21
31.5264129164
 72
1
 10
358.4279530651
 20
31.5264129164
 11
358.9482655496
 21
31.6554670967
 72
1
 10
358.9482655496
 20
31.6554670967
 11
358.7748280496
 21
31.5586757033
 97
1
330
309
 75
0
 76
1
 98
1
 10
0.0
 20
0.0
  0
LWPOLYLINE
  5
30B
100
AcDbEntity
  8
0
100
AcDbPolyline
 62
7
  6
CONTINUOUS
 90
7
 70
0
 10
363.2263905634
 20
31.4618858262
 10
363.5732655634
 20
31.4941486131
 10
364.2092032839
 20
31.4941486131
 10
364.2092032839
 20
31.3650944328
 10
363.5732655634
 20
31.3650944328
 10
362.9951404531
 20
31.397357926
 10
363.2263905634
 20
31.4618858262
  0
HATCH
  5
30C
100
AcDbEntity
  8
0
100
AcDbHatch
 62
7
  6
CONTINUOUS
 10
0.0
 20
0.0
 30
0.0
210
0.0
220
0.0
230
1.0
  2
SOLID
 70
1
 71
1
 91
1
 92
1
 93
6
 72
1
 10
363.2263905634
 20
31.4618858262
 11
363.5732655634
 21
31.4941486131
 72
1
 10
363.5732655634
 20
31.4941486131
 11
364.2092032839
 21
31.4941486131
 72
1
 10
364.2092032839
 20
31.4941486131
 11
364.2092032839
 21
31.3650944328
 72
1
 10
364.2092032839
 20
31.3650944328
 11
363.5732655634
 21
31.3650944328
 72
1
 10
363.5732655634
 20
31.3650944328
 11
362.9951404531
 21
31.397357926
 72
1
 10
362.9951404531
 20
31.397357926
 11
363.2263905634
 21
31.4618858262
 97
1
330
30B
 75
0
 76
1
 98
1
 10
0.0
 20
0.0
  0
LWPOLYLINE
  5
30D
100
AcDbEntity
  8
0
100
AcDbPolyline
 62
7
  6
CONTINUOUS
 90
24
 70
0
 10
368.2560780634
 20
31.5264129164
 10
368.4295155634
 20
31.4618858262
 10
369.4123282839
 20
31.3005673426
 10
369.6435780634
 20
31.2037759492
 10
369.7592026223
 20
31.0747202524
 10
369.7592026223
 20
31.0101931623
 10
369.6435780634
 20
30.9134032852
 10
369.4123282839
 20
30.8488746787
 10
369.0654532839
 20
30.8166118918
 10
368.7185782839
 20
30.8166118918
 10
368.3717032839
 20
30.8488746787
 10
368.1982657839
 20
30.8811389819
 10
368.0248282839
 20
30.9456660721
 10
368.7185782839
 20
30.9456660721
 10
369.0654532839
 20
30.9456660721
 10
369.2967030634
 20
30.9779303754
 10
369.4123282839
 20
31.0101931623
 10
369.4701405634
 20
31.0747202524
 10
369.4123282839
 20
31.139248859
 10
369.2388907839
 20
31.2037759492
 10
368.2560780634
 20
31.3650944328
 10
368.0248282839
 20
31.4618858262
 10
368.1982657839
 20
31.5909400065
 10
368.2560780634
 20
31.5264129164
  0
HATCH
  5
30E
100
AcDbEntity
  8
0
100
AcDbHatch
 62
7
  6
CONTINUOUS
 10
0.0
 20
0.0
 30
0.0
210
0.0
220
0.0
230
1.0
  2
SOLID
 70
1
 71
1
 91
1
 92
1
 93
23
 72
1
 10
368.2560780634
 20
31.5264129164
 11
368.4295155634
 21
31.4618858262
 72
1
 10
368.4295155634
 20
31.4618858262
 11
369.4123282839
 21
31.3005673426
 72
1
 10
369.4123282839
 20
31.3005673426
 11
369.6435780634
 21
31.2037759492
 72
1
 10
369.6435780634
 20
31.2037759492
 11
369.7592026223
 21
31.0747202524
 72
1
 10
369.7592026223
 20
31.0747202524
 11
369.7592026223
 21
31.0101931623
 72
1
 10
369.7592026223
 20
31.0101931623
 11
369.6435780634
 21
30.9134032852
 72
1
 10
369.6435780634
 20
30.9134032852
 11
369.4123282839
 21
30.8488746787
 72
1
 10
369.4123282839
 20
30.8488746787
 11
369.0654532839
 21
30.8166118918
 72
1
 10
369.0654532839
 20
30.8166118918
 11
368.7185782839
 21
30.8166118918
 72
1
 10
368.7185782839
 20
30.8166118918
 11
368.3717032839
 21
30.8488746787
 72
1
 10
368.3717032839
 20
30.8488746787
 11
368.1982657839
 21
30.8811389819
 72
1
 10
368.1982657839
 20
30.8811389819
 11
368.0248282839
 21
30.9456660721
 72
1
 10
368.0248282839
 20
30.9456660721
 11
368.7185782839
 21
30.9456660721
 72
1
 10
368.7185782839
 20
30.9456660721
 11
369.0654532839
 21
30.9456660721
 72
1
 10
369.0654532839
 20
30.9456660721
 11
369.2967030634
 21
30.9779303754
 72
1
 10
369.2967030634
 20
30.9779303754
 11
369.4123282839
 21
31.0101931623
 72
1
 10
369.4123282839
 20
31.0101931623
 11
369.4701405634
 21
31.0747202524
 72
1
 10
369.4701405634
 20
31.0747202524
 11
369.4123282839
 21
31.139248859
 72
1
 10
369.4123282839
 20
31.139248859
 11
369.2388907839
 21
31.2037759492
 72
1
 10
369.2388907839
 20
31.2037759492
 11
368.2560780634
 21
31.3650944328
 72
1
 10
368.2560780634
 20
31.3650944328
 11
368.0248282839
 21
31.4618858262
 72
1
 10
368.0248282839
 20
31.4618858262
 11
368.1982657839
 21
31.5909400065
 72
1
 10
368.1982657839
 20
31.5909400065
 11
368.2560780634
 21
31.5264129164
 97
1
330
30D
 75
0
 76
1
 98
1
 10
0.0
 20
0.0
  0
LWPOLYLINE
  5
30F
100
AcDbEntity
  8
0
100
AcDbPolyline
 62
7
  6
CONTINUOUS
 90
12
 70
0
 10
358.6592030565
 20
31.3650944328
 10
358.6592030565
 20
31.2683031351
 10
358.7748280496
 20
31.1069845557
 10
358.9482655496
 20
31.0101931623
 10
359.2951405909
 20
30.9456660721
 10
358.8326405772
 20
30.8811389819
 10
358.6592030565
 20
30.9456660721
 10
358.5435780634
 20
31.0101931623
 10
358.4279530651
 20
31.139248859
 10
358.3701405634
 20
31.3328301295
 10
358.7170155634
 20
31.4941486131
 10
358.6592030565
 20
31.3650944328
  0
HATCH
  5
310
100
AcDbEntity
  8
0
100
AcDbHatch
 62
7
  6
CONTINUOUS
 10
0.0
 20
0.0
 30
0.0
210
0.0
220
0.0
230
1.0
  2
SOLID
 70
1
 71
1
 91
1
 92
1
 93
11
 72
1
 10
358.6592030565
 20
31.3650944328
 11
358.6592030565
 21
31.2683031351
 72
1
 10
358.6592030565
 20
31.2683031351
 11
358.7748280496
 21
31.1069845557
 72
1
 10
358.7748280496
 20
31.1069845557
 11
358.9482655496
 21
31.0101931623
 72
1
 10
358.9482655496
 20
31.0101931623
 11
359.2951405909
 21
30.9456660721
 72
1
 10
359.2951405909
 20
30.9456660721
 11
358.8326405772
 21
30.8811389819
 72
1
 10
358.8326405772
 20
30.8811389819
 11
358.6592030565
 21
30.9456660721
 72
1
 10
358.6592030565
 20
30.9456660721
 11
358.5435780634
 21
31.0101931623
 72
1
 10
358.5435780634
 20
31.0101931623
 11
358.4279530651
 21
31.139248859
 72
1
 10
358.4279530651
 20
31.139248859
 11
358.3701405634
 21
31.3328301295
 72
1
 10
358.3701405634
 20
31.3328301295
 11
358.7170155634
 21
31.4941486131
 72
1
 10
358.7170155634
 20
31.4941486131
 11
358.6592030565
 21
31.3650944328
 97
1
330
30F
 75
0
 76
1
 98
1
 10
0.0
 20
0.0
  0
LWPOLYLINE
  5
311
100
AcDbEntity
  8
0
100
AcDbPolyline
 62
7
  6
CONTINUOUS
 90
6
 70
0
 10
362.8795155634
 20
31.3328301295
 10
362.9951404531
 20
31.397357926
 10
363.5732655634
 20
31.3650944328
 10
363.3420154531
 20
31.3328301295
 10
362.7638906736
 20
31.2037759492
 10
362.8795155634
 20
31.3328301295
  0
HATCH
  5
312
100
AcDbEntity
  8
0
100
AcDbHatch
 62
7
  6
CONTINUOUS
 10
0.0
 20
0.0
 30
0.0
210
0.0
220
0.0
230
1.0
  2
SOLID
 70
1
 71
1
 91
1
 92
1
 93
5
 72
1
 10
362.8795155634
 20
31.3328301295
 11
362.9951404531
 21
31.397357926
 72
1
 10
362.9951404531
 20
31.397357926
 11
363.5732655634
 21
31.3650944328
 72
1
 10
363.5732655634
 20
31.3650944328
 11
363.3420154531
 21
31.3328301295
 72
1
 10
363.3420154531
 20
31.3328301295
 11
362.7638906736
 21
31.2037759492
 72
1
 10
362.7638906736
 20
31.2037759492
 11
362.8795155634
 21
31.3328301295
 97
1
330
311
 75
0
 76
1
 98
1
 10
0.0
 20
0.0
  0
LWPOLYLINE
  5
313
100
AcDbEntity
  8
0
100
AcDbPolyline
 62
7
  6
CONTINUOUS
 90
9
 70
0
 10
363.1107656736
 20
31.2360394487
 10
363.0529530634
 20
31.139248859
 10
363.0529530634
 20
31.0747202524
 10
362.8217029531
 20
30.9779303754
 10
362.7638906736
 20
31.1069845557
 10
362.7638906736
 20
31.2037759492
 10
363.3420154531
 20
31.3328301295
 10
363.2263905634
 20
31.3005673426
 10
363.1107656736
 20
31.2360394487
  0
HATCH
  5
314
100
AcDbEntity
  8
0
100
AcDbHatch
 62
7
  6
CONTINUOUS
 10
0.0
 20
0.0
 30
0.0
210
0.0
220
0.0
230
1.0
  2
SOLID
 70
1
 71
1
 91
1
 92
1
 93
8
 72
1
 10
363.1107656736
 20
31.2360394487
 11
363.0529530634
 21
31.139248859
 72
1
 10
363.0529530634
 20
31.139248859
 11
363.0529530634
 21
31.0747202524
 72
1
 10
363.0529530634
 20
31.0747202524
 11
362.8217029531
 21
30.9779303754
 72
1
 10
362.8217029531
 20
30.9779303754
 11
362.7638906736
 21
31.1069845557
 72
1
 10
362.7638906736
 20
31.1069845557
 11
362.7638906736
 21
31.2037759492
 72
1
 10
362.7638906736
 20
31.2037759492
 11
363.3420154531
 21
31.3328301295
 72
1
 10
363.3420154531
 20
31.3328301295
 11
363.2263905634
 21
31.3005673426
 72
1
 10
363.2263905634
 20
31.3005673426
 11
363.1107656736
 21
31.2360394487
 97
1
330
313
 75
0
 76
1
 98
1
 10
0.0
 20
0.0
  0
LWPOLYLINE
  5
315
100
AcDbEntity
  8
0
100
AcDbPolyline
 62
7
  6
CONTINUOUS
 90
10
 70
0
 10
364.1513903428
 20
31.1069845557
 10
364.2092032839
 20
31.1715120759
 10
364.4982653428
 20
31.0747202524
 10
364.5560782839
 20
30.9134032852
 10
364.6138905634
 20
30.8166118918
 10
364.3248278428
 20
30.8166118918
 10
364.2670155634
 20
30.8811389819
 10
364.2092032839
 20
30.9779303754
 10
363.9779528428
 20
31.0101931623
 10
364.1513903428
 20
31.1069845557
  0
HATCH
  5
316
100
AcDbEntity
  8
0
100
AcDbHatch
 62
7
  6
CONTINUOUS
 10
0.0
 20
0.0
 30
0.0
210
0.0
220
0.0
230
1.0
  2
SOLID
 70
1
 71
1
 91
1
 92
1
 93
9
 72
1
 10
364.1513903428
 20
31.1069845557
 11
364.2092032839
 21
31.1715120759
 72
1
 10
364.2092032839
 20
31.1715120759
 11
364.4982653428
 21
31.0747202524
 72
1
 10
364.4982653428
 20
31.0747202524
 11
364.5560782839
 21
30.9134032852
 72
1
 10
364.5560782839
 20
30.9134032852
 11
364.6138905634
 21
30.8166118918
 72
1
 10
364.6138905634
 20
30.8166118918
 11
364.3248278428
 21
30.8166118918
 72
1
 10
364.3248278428
 20
30.8166118918
 11
364.2670155634
 21
30.8811389819
 72
1
 10
364.2670155634
 20
30.8811389819
 11
364.2092032839
 21
30.9779303754
 72
1
 10
364.2092032839
 20
30.9779303754
 11
363.9779528428
 21
31.0101931623
 72
1
 10
363.9779528428
 20
31.0101931623
 11
364.1513903428
 21
31.1069845557
 97
1
330
315
 75
0
 76
1
 98
1
 10
0.0
 20
0.0
  0
LWPOLYLINE
  5
317
100
AcDbEntity
  8
0
100
AcDbPolyline
 62
7
  6
CONTINUOUS
 90
12
 70
0
 10
359.8732656185
 20
31.0424573076
 10
359.9310780634
 20
31.139248859
 10
360.2201406185
 20
31.139248859
 10
360.1623280082
 20
31.0101931623
 10
359.9888905082
 20
30.9134032852
 10
359.7576405634
 20
30.8488746787
 10
359.3529530358
 20
30.8166118918
 10
359.0060780772
 20
30.8488746787
 10
358.8326405772
 20
30.8811389819
 10
359.2951405909
 20
30.9456660721
 10
359.6998280358
 20
30.9779303754
 10
359.8732656185
 20
31.0424573076
  0
HATCH
  5
318
100
AcDbEntity
  8
0
100
AcDbHatch
 62
7
  6
CONTINUOUS
 10
0.0
 20
0.0
 30
0.0
210
0.0
220
0.0
230
1.0
  2
SOLID
 70
1
 71
1
 91
1
 92
1
 93
11
 72
1
 10
359.8732656185
 20
31.0424573076
 11
359.9310780634
 21
31.139248859
 72
1
 10
359.9310780634
 20
31.139248859
 11
360.2201406185
 21
31.139248859
 72
1
 10
360.2201406185
 20
31.139248859
 11
360.1623280082
 21
31.0101931623
 72
1
 10
360.1623280082
 20
31.0101931623
 11
359.9888905082
 21
30.9134032852
 72
1
 10
359.9888905082
 20
30.9134032852
 11
359.7576405634
 21
30.8488746787
 72
1
 10
359.7576405634
 20
30.8488746787
 11
359.3529530358
 21
30.8166118918
 72
1
 10
359.3529530358
 20
30.8166118918
 11
359.0060780772
 21
30.8488746787
 72
1
 10
359.0060780772
 20
30.8488746787
 11
358.8326405772
 21
30.8811389819
 72
1
 10
358.8326405772
 20
30.8811389819
 11
359.2951405909
 21
30.9456660721
 72
1
 10
359.2951405909
 20
30.9456660721
 11
359.6998280358
 21
30.9779303754
 72
1
 10
359.6998280358
 20
30.9779303754
 11
359.8732656185
 21
31.0424573076
 97
1
330
317
 75
0
 76
1
 98
1
 10
0.0
 20
0.0
  0
LWPOLYLINE
  5
319
100
AcDbEntity
  8
0
100
AcDbPolyline
 62
7
  6
CONTINUOUS
 90
6
 70
0
 10
363.1107656736
 20
31.0101931623
 10
363.3420154531
 20
30.9456660721
 10
362.9951404531
 20
30.8811389819
 10
362.8217029531
 20
30.9779303754
 10
363.0529530634
 20
31.0747202524
 10
363.1107656736
 20
31.0101931623
  0
HATCH
  5
31A
100
AcDbEntity
  8
0
100
AcDbHatch
 62
7
  6
CONTINUOUS
 10
0.0
 20
0.0
 30
0.0
210
0.0
220
0.0
230
1.0
  2
SOLID
 70
1
 71
1
 91
1
 92
1
 93
5
 72
1
 10
363.1107656736
 20
31.0101931623
 11
363.3420154531
 21
30.9456660721
 72
1
 10
363.3420154531
 20
30.9456660721
 11
362.9951404531
 21
30.8811389819
 72
1
 10
362.9951404531
 20
30.8811389819
 11
362.8217029531
 21
30.9779303754
 72
1
 10
362.8217029531
 20
30.9779303754
 11
363.0529530634
 21
31.0747202524
 72
1
 10
363.0529530634
 20
31.0747202524
 11
363.1107656736
 21
31.0101931623
 97
1
330
319
 75
0
 76
1
 98
1
 10
0.0
 20
0.0
  0
LWPOLYLINE
  5
31B
100
AcDbEntity
  8
0
100
AcDbPolyline
 62
7
  6
CONTINUOUS
 90
11
 70
0
 10
363.6888904531
 20
30.9456660721
 10
363.9779528428
 20
31.0101931623
 10
364.2092032839
 20
30.9779303754
 10
364.1513903428
 20
30.9134032852
 10
363.9779528428
 20
30.8488746787
 10
363.6888904531
 20
30.8166118918
 10
363.3420154531
 20
30.8166118918
 10
363.1107656736
 20
30.8488746787
 10
362.9951404531
 20
30.8811389819
 10
363.3420154531
 20
30.9456660721
 10
363.6888904531
 20
30.9456660721
  0
HATCH
  5
31C
100
AcDbEntity
  8
0
100
AcDbHatch
 62
7
  6
CONTINUOUS
 10
0.0
 20
0.0
 30
0.0
210
0.0
220
0.0
230
1.0
  2
SOLID
 70
1
 71
1
 91
1
 92
1
 93
10
 72
1
 10
363.6888904531
 20
30.9456660721
 11
363.9779528428
 21
31.0101931623
 72
1
 10
363.9779528428
 20
31.0101931623
 11
364.2092032839
 21
30.9779303754
 72
1
 10
364.2092032839
 20
30.9779303754
 11
364.1513903428
 21
30.9134032852
 72
1
 10
364.1513903428
 20
30.9134032852
 11
363.9779528428
 21
30.8488746787
 72
1
 10
363.9779528428
 20
30.8488746787
 11
363.6888904531
 21
30.8166118918
 72
1
 10
363.6888904531
 20
30.8166118918
 11
363.3420154531
 21
30.8166118918
 72
1
 10
363.3420154531
 20
30.8166118918
 11
363.1107656736
 21
30.8488746787
 72
1
 10
363.1107656736
 20
30.8488746787
 11
362.9951404531
 21
30.8811389819
 72
1
 10
362.9951404531
 20
30.8811389819
 11
363.3420154531
 21
30.9456660721
 72
1
 10
363.3420154531
 20
30.9456660721
 11
363.6888904531
 21
30.9456660721
 97
1
330
31B
 75
0
 76
1
 98
1
 10
0.0
 20
0.0
  0
LWPOLYLINE
  5
31D
100
AcDbEntity
  8
0
100
AcDbPolyline
 62
7
  6
CONTINUOUS
 90
7
 70
0
 10
368.3717032839
 20
30.9779303754
 10
368.7185782839
 20
30.9456660721
 10
368.0248282839
 20
30.9456660721
 10
367.9092030634
 20
31.0747202524
 10
368.1982657839
 20
31.0747202524
 10
368.2560780634
 20
31.0101931623
 10
368.3717032839
 20
30.9779303754
  0
HATCH
  5
31E
100
AcDbEntity
  8
0
100
AcDbHatch
 62
7
  6
CONTINUOUS
 10
0.0
 20
0.0
 30
0.0
210
0.0
220
0.0
230
1.0
  2
SOLID
 70
1
 71
1
 91
1
 92
1
 93
6
 72
1
 10
368.3717032839
 20
30.9779303754
 11
368.7185782839
 21
30.9456660721
 72
1
 10
368.7185782839
 20
30.9456660721
 11
368.0248282839
 21
30.9456660721
 72
1
 10
368.0248282839
 20
30.9456660721
 11
367.9092030634
 21
31.0747202524
 72
1
 10
367.9092030634
 20
31.0747202524
 11
368.1982657839
 21
31.0747202524
 72
1
 10
368.1982657839
 20
31.0747202524
 11
368.2560780634
 21
31.0101931623
 72
1
 10
368.2560780634
 20
31.0101931623
 11
368.3717032839
 21
30.9779303754
 97
1
330
31D
 75
0
 76
1
 98
1
 10
0.0
 20
0.0
  0
SOLID
  5
31F
100
AcDbEntity
  8
0
100
AcDbTrace
 62
7
  6
CONTINUOUS
 10
365.0763907839
 20
30.8166118918
 11
365.0763907839
 21
31.8490498836
 12
365.3654528428
 22
30.8166118918
 13
365.3654528428
 23
31.8490498836
  0
ENDBLK
  5
320
100
AcDbEntity
  8
0
  6
BYBLOCK
 62
0
100
AcDbBlockEnd
  0
BLOCK
  5
321
100
AcDbEntity
  8
0
100
AcDbBlockBegin
 62
2
  6
CONTINUOUS
  2
AMMEAAL_LOGO_BL0
 70
64
 10
241.0459637928
 20
19.6790146053
  3
AMMEAAL_LOGO_BL0
  1

  0
TEXT
  5
322
100
AcDbEntity
  8
0
100
AcDbText
 62
7
  6
CONTINUOUS
 10
227.3106676351
 20
19.0524287129
  7
TEXTSTYLE_3
 40
2.7338706658
  1
Ammeraal Beltech
 41
1.0
 51
15.0
 72
0
100
AcDbText
  0
TEXT
  5
323
100
AcDbEntity
  8
0
100
AcDbText
 62
7
  6
CONTINUOUS
 10
238.1114684608
 20
16.7788920401
  7
TEXTSTYLE_4
 40
1.0935482663
  1
Innovation & Service in Belting
 41
1.0
 72
0
100
AcDbText
  0
LINE
  5
324
100
AcDbEntity
  8
0
100
AcDbLine
 62
7
  6
CONTINUOUS
 10
221.2861269837
 20
19.8190220215
 11
222.0642789771
 21
23.4799393191
  0
LINE
  5
325
100
AcDbEntity
  8
0
100
AcDbLine
 62
7
  6
CONTINUOUS
 10
232.1594472669
 20
27.1433332308
 11
222.5520967201
 21
24.0217158095
  0
LINE
  5
326
100
AcDbEntity
  8
0
100
AcDbLine
 62
7
  6
CONTINUOUS
 10
221.511410316
 20
19.1256712184
 11
229.0184855772
 21
12.3662702925
  0
LINE
  5
327
100
AcDbEntity
  8
0
100
AcDbLine
 62
7
  6
CONTINUOUS
 10
221.7739447268
 20
20.3607985118
 11
232.5822140919
 21
23.8726181108
  0
LINE
  5
328
100
AcDbEntity
  8
0
100
AcDbLine
 62
7
  6
CONTINUOUS
 10
232.5780089548
 20
13.522829547
 11
224.132549286
 21
21.1271555887
  0
LINE
  5
329
100
AcDbEntity
  8
0
100
AcDbLine
 62
7
  6
CONTINUOUS
 10
233.0978316746
 20
26.298408115
 11
232.1212721373
 21
21.7040567125
  0
LINE
  5
32A
100
AcDbEntity
  8
0
100
AcDbLine
 62
7
  6
CONTINUOUS
 10
231.4214701896
 20
18.4117473987
 11
230.7350219782
 21
15.1822624744
  0
LINE
  5
32B
100
AcDbEntity
  8
0
100
AcDbLine
 62
7
  6
CONTINUOUS
 10
233.7789277731
 20
13.9130317247
 11
234.7351593087
 21
18.4117473987
  0
LINE
  5
32C
100
AcDbEntity
  8
0
100
AcDbLine
 62
7
  6
CONTINUOUS
 10
235.4349612564
 20
21.7040567125
 11
235.8792030588
 21
23.7940500719
  0
LINE
  5
32D
100
AcDbEntity
  8
0
100
AcDbLine
 62
7
  6
CONTINUOUS
 10
229.7315866525
 20
12.2146959798
 11
233.2911100301
 21
13.3712552343
  0
LINE
  5
32E
100
AcDbEntity
  8
0
100
AcDbLine
 62
7
  6
CONTINUOUS
 10
232.8725483422
 20
26.9917589181
 11
235.6539197265
 21
24.487400875
  0
ARC
  5
32F
100
AcDbEntity
  8
0
100
AcDbCircle
 62
7
  6
CONTINUOUS
 10
222.7773800524
 20
23.3283650064
 40
0.7290321776
100
AcDbArc
 50
108.0
 51
168.0
  0
ARC
  5
330
100
AcDbEntity
  8
0
100
AcDbCircle
 62
7
  6
CONTINUOUS
 10
232.3847305992
 20
26.4499824277
 40
0.7290321776
100
AcDbArc
 50
348.0
 51
108.0
  0
ARC
  5
331
100
AcDbEntity
  8
0
100
AcDbCircle
 62
7
  6
CONTINUOUS
 10
235.1661019835
 20
23.9456243846
 40
0.7290321776
100
AcDbArc
 50
348.0
 51
48.0
  0
ARC
  5
332
100
AcDbEntity
  8
0
100
AcDbCircle
 62
7
  6
CONTINUOUS
 10
229.5063033202
 20
12.9080467828
 40
0.7290321776
100
AcDbArc
 50
228.0
 51
288.0
  0
ARC
  5
333
100
AcDbEntity
  8
0
100
AcDbCircle
 62
7
  6
CONTINUOUS
 10
221.9992280591
 20
19.6674477088
 40
0.7290321776
100
AcDbArc
 50
108.0
 51
228.0
  0
ARC
  5
334
100
AcDbEntity
  8
0
100
AcDbCircle
 62
7
  6
CONTINUOUS
 10
233.0658266978
 20
14.0646060374
 40
0.7290321776
100
AcDbArc
 50
228.0
 51
348.0
  0
ENDBLK
  5
335
100
AcDbEntity
  8
0
  6
BYBLOCK
 62
0
100
AcDbBlockEnd
  0
BLOCK
  5
336
100
AcDbEntity
  8
0
100
AcDbBlockBegin
  2
*T1
 70
1
 10
0.0
 20
0.0
  3
*T1
  1

  0
LINE
  5
337
100
AcDbEntity
  8
0
100
AcDbLine
 62
2
  6
CONTINUOUS
 10
0.0
 20
0.0
 11
190.0
 21
0.0
  0
LINE
  5
338
100
AcDbEntity
  8
0
100
AcDbLine
 62
2
  6
CONTINUOUS
 10
0.0
 20
0.0
 11
0.0
 21
-20.0
  0
LINE
  5
339
100
AcDbEntity
  8
0
100
AcDbLine
 62
2
  6
CONTINUOUS
 10
0.0
 20
-20.0
 11
190.0
 21
-20.0
  0
LINE
  5
33A
100
AcDbEntity
  8
0
100
AcDbLine
 62
2
  6
CONTINUOUS
 10
85.0
 20
0.0
 11
85.0
 21
-20.0
  0
LINE
  5
33B
100
AcDbEntity
  8
0
100
AcDbLine
 62
2
  6
CONTINUOUS
 10
105.0
 20
0.0
 11
105.0
 21
-20.0
  0
LINE
  5
33C
100
AcDbEntity
  8
0
100
AcDbLine
 62
2
  6
CONTINUOUS
 10
190.0
 20
0.0
 11
190.0
 21
-20.0
  0
MTEXT
  5
33D
100
AcDbEntity
  8
0
100
AcDbMText
 62
5
  6
CONTINUOUS
  7
TEXTSTYLE_5
 71
1
 72
1
 10
3.0
 20
-5.177
 30
0.0
 11
1.0
 21
0.0
 31
0.0
 44
1.08
  3
                                                                     Ammeraal Beltech Modular A/S\P\H1.5;                                                                      Hjulmagervej 21, 7100 Vejle,  DK\P\H1.495;                                 
  1
                                     tel: \H1.51;+45 75723100     fax: +45 75723348\P\H1.5;                                                                      admin@unichains.dk  www.unichains.com
 40
1.52
 41
161.0496183206
  0
MTEXT
  5
33E
100
AcDbEntity
  8
0
100
AcDbMText
 62
5
  6
CONTINUOUS
  7
TEXTSTYLE_6
 71
2
 72
1
 10
95.0
 20
-11.25
 30
0.0
 11
1.0
 21
0.0
 31
0.0
 44
0.9
  1
1:1
 40
5.0
 41
21.0
  0
MTEXT
  5
33F
100
AcDbEntity
  8
0
100
AcDbMText
 62
5
  6
CONTINUOUS
  7
TEXTSTYLE_7
 71
1
 72
1
 10
108.0
 20
-8.75
 30
0.0
 11
1.0
 21
0.0
 31
0.0
 44
0.9
  1
uni 1873 K600
 40
7.5
 41
128.25
  0
ENDBLK
  5
340
100
AcDbEntity
  8
0
  6
BYBLOCK
 62
0
100
AcDbBlockEnd
  0
ENDSEC
  0
SECTION
  2
ENTITIES
  0
MTEXT
  5
341
100
AcDbEntity
  8
0
100
AcDbMText
 62
5
  6
CONTINUOUS
  7
TEXTSTYLE_2
 71
1
 72
1
 10
304.937007874
 20
28.436
 30
0.0
 11
1.0
 21
0.0
 31
0.0
 44
0.9
  1
\Q0.000019;Scale :
 40
2.8
 41
11.76
  0
MTEXT
  5
342
100
AcDbEntity
  8
0
100
AcDbMText
 62
5
  6
CONTINUOUS
  7
TEXTSTYLE_2
 71
1
 72
1
 10
324.937007874
 20
28.436
 30
0.0
 11
1.0
 21
0.0
 31
0.0
 44
0.9
  1
\Q0.000019;Chain type:
 40
2.8
 41
18.48
  0
INSERT
  5
343
100
AcDbEntity
  8
0
100
AcDbBlockReference
 62
2
  6
CONTINUOUS
  2
AMMEAAL_LOGO_BL0
 10
241.0459637928
 20
19.6790146053
  0
INSERT
  5
344
100
AcDbEntity
  8
0
100
AcDbBlockReference
 62
2
  6
CONTINUOUS
  2
UNI_LOGO2_BL1
 10
382.3920721743
 20
35.81661148
  0
ACAD_TABLE
  5
345
100
AcDbEntity
  8
0
 62
2
  6
CONTINUOUS
100
AcDbBlockReference
  2
*T1
 10
218.937007874
 20
30.0
 30
0.0
100
AcDbTable
342
       456
343
214
 11
1.0
 21
0.0
 31
0.0
 90
22
 91
1
 92
3
 93
0
 94
0
 95
0
 96
0
141
20.0
142
85.0
142
20.0
142
85.0
171
1
172
0
173
0
174
0
175
1
176
1
 91
57
178
0
145
0.0
  7
TEXTSTYLE_5
301
CELL_VALUE
 90
4
  2
                                                                     Ammeraal Beltech Modular A/S\P\H1.5;                                                                      Hjulmagervej 21, 7100 Vejle,  DK\P\H1.495;                                 
  1
                                     tel: \H1.51;+45 75723100     fax: +45 75723348\P\H1.5;                                                                      admin@unichains.dk  www.unichains.com
304
ACVALUE_END
170
4
140
1.52
 64
5
171
1
172
0
173
0
174
0
175
1
176
1
 91
57
178
0
145
0.0
  7
TEXTSTYLE_6
301
CELL_VALUE
 90
4
  1
1:1
304
ACVALUE_END
170
8
140
5.0
 64
5
171
1
172
0
173
0
174
0
175
1
176
1
 91
57
178
0
145
0.0
  7
TEXTSTYLE_7
301
CELL_VALUE
 90
4
  1
uni 1873 K600
304
ACVALUE_END
170
7
140
7.5
 64
5
  0
LINE
  5
346
100
AcDbEntity
  8
0
100
AcDbLine
 62
7
  6
CONTINUOUS
 10
0.0
 20
0.0
 11
0.0
 21
297.0
  0
LINE
  5
347
100
AcDbEntity
  8
0
100
AcDbLine
 62
7
  6
CONTINUOUS
 10
8.937007874
 20
10.0
 11
8.937007874
 21
287.0
  0
LINE
  5
348
100
AcDbEntity
  8
0
100
AcDbLine
 62
7
  6
CONTINUOUS
 10
0.0
 20
0.0
 11
420.0
 21
0.0
  0
LINE
  5
349
100
AcDbEntity
  8
0
100
AcDbLine
 62
7
  6
CONTINUOUS
 10
408.937007874
 20
10.0
 11
8.937007874
 21
10.0
  0
LINE
  5
34A
100
AcDbEntity
  8
0
100
AcDbLine
 62
7
  6
CONTINUOUS
 10
218.937007874
 20
30.0
 11
408.937007874
 21
30.0
  0
LINE
  5
34B
100
AcDbEntity
  8
0
100
AcDbLine
 62
7
  6
CONTINUOUS
 10
210.0
 20
297.0
 11
210.0
 21
292.0
  0
LINE
  5
34C
100
AcDbEntity
  8
0
100
AcDbLine
 62
7
  6
CONTINUOUS
 10
210.0
 20
0.0
 11
210.0
 21
5.0
  0
LINE
  5
34D
100
AcDbEntity
  8
0
100
AcDbLine
 62
7
  6
CONTINUOUS
 10
8.937007874
 20
287.0
 11
408.937007874
 21
287.0
  0
LINE
  5
34E
100
AcDbEntity
  8
0
100
AcDbLine
 62
7
  6
CONTINUOUS
 10
0.0
 20
297.0
 11
420.0
 21
297.0
  0
LINE
  5
34F
100
AcDbEntity
  8
0
100
AcDbLine
 62
7
  6
CONTINUOUS
 10
408.937007874
 20
287.0
 11
408.937007874
 21
10.0
  0
LINE
  5
350
100
AcDbEntity
  8
0
100
AcDbLine
 62
7
  6
CONTINUOUS
 10
420.0
 20
0.0
 11
420.0
 21
297.0
  0
LINE
  5
351
100
AcDbEntity
  8
4_SURFACE
100
AcDbLine
 62
7
  6
CONTINUOUS
 10
63.3556640625
 20
114.202597086
 11
63.3556640625
 21
135.4243585522
  0
LINE
  5
352
100
AcDbEntity
  8
0
100
AcDbLine
 62
7
  6
CONTINUOUS
 10
155.3056640625
 20
107.2634778191
 11
211.9632649303
 21
110.2079879838
  0
LINE
  5
353
100
AcDbEntity
  8
0
100
AcDbLine
 62
7
  6
CONTINUOUS
 10
155.3056640625
 20
107.2634778191
 11
123.8056640625
 21
107.2634778191
  0
LINE
  5
354
100
AcDbEntity
  8
4_SURFACE
100
AcDbLine
 62
7
  6
CONTINUOUS
 10
123.8056640625
 20
107.2634778191
 11
67.1480631947
 21
110.2079879838
  0
LINE
  5
355
100
AcDbEntity
  8
1_AXIS
100
AcDbLine
 62
2
  6
CENTER
 10
55.8837890625
 20
115.7634778191
 11
220.458984375
 21
115.7634778191
  0
LINE
  5
356
100
AcDbEntity
  8
1_AXIS
100
AcDbLine
 62
2
  6
CENTER
 10
56.19140625
 20
133.8634778191
 11
221.689453125
 21
133.8634778191
  0
LINE
  5
357
100
AcDbEntity
  8
4_SURFACE
100
AcDbLine
 62
7
  6
CONTINUOUS
 10
67.1480631947
 20
139.4189676544
 11
123.8056640625
 21
142.3634778191
  0
LINE
  5
358
100
AcDbEntity
  8
0
100
AcDbLine
 62
7
  6
CONTINUOUS
 10
123.8056640625
 20
142.3634778191
 11
155.3056640625
 21
142.3634778191
  0
LINE
  5
359
100
AcDbEntity
  8
0
100
AcDbLine
 62
7
  6
CONTINUOUS
 10
211.9632649303
 20
139.4189676544
 11
155.3056640625
 21
142.3634778191
  0
LINE
  5
35A
100
AcDbEntity
  8
0
100
AcDbLine
 62
7
  6
CONTINUOUS
 10
215.7556640625
 20
114.202597086
 11
215.7556640625
 21
135.4243585522
  0
LINE
  5
35B
100
AcDbEntity
  8
4_SURFACE
100
AcDbLine
 62
7
  6
CONTINUOUS
 10
63.3556640625
 20
231.50765625
 11
63.3556640625
 21
233.48765625
  0
LINE
  5
35C
100
AcDbEntity
  8
4_SURFACE
100
AcDbLine
 62
7
  6
CONTINUOUS
 10
112.4056640625
 20
209.90765625
 11
112.4056640625
 21
207.90765625
  0
LINE
  5
35D
100
AcDbEntity
  8
4_SURFACE
100
AcDbLine
 62
7
  6
CONTINUOUS
 10
123.6056640625
 20
231.00765625
 11
123.6056640625
 21
211.0202354957
  0
LINE
  5
35E
100
AcDbEntity
  8
4_SURFACE
100
AcDbLine
 62
7
  6
CONTINUOUS
 10
123.8056640625
 20
231.50765625
 11
123.8056640625
 21
233.48765625
  0
LINE
  5
35F
100
AcDbEntity
  8
4_SURFACE
100
AcDbLine
 62
7
  6
CONTINUOUS
 10
123.8056640625
 20
231.50765625
 11
123.6215182854
 21
231.4304678731
  0
LINE
  5
360
100
AcDbEntity
  8
4_SURFACE
100
AcDbLine
 62
7
  6
CONTINUOUS
 10
127.9056640625
 20
207.40765625
 11
127.9056640625
 21
229.50765625
  0
LINE
  5
361
100
AcDbEntity
  8
0
100
AcDbLine
 62
7
  6
CONTINUOUS
 10
164.2056640625
 20
206.70765625
 11
160.1843874991
 21
206.70765625
  0
LINE
  5
362
100
AcDbEntity
  8
0
100
AcDbLine
 62
7
  6
CONTINUOUS
 10
159.2056640625
 20
206.70765625
 11
156.2056640625
 21
206.70765625
  0
LINE
  5
363
100
AcDbEntity
  8
4_SURFACE
100
AcDbLine
 62
7
  6
CONTINUOUS
 10
113.4056640625
 20
206.90765625
 11
127.4056640625
 21
206.90765625
  0
LINE
  5
364
100
AcDbEntity
  8
0
100
AcDbLine
 62
7
  6
CONTINUOUS
 10
151.7056640625
 20
206.90765625
 11
165.7056640625
 21
206.90765625
  0
LINE
  5
365
100
AcDbEntity
  8
0
100
AcDbLine
 62
7
  6
CONTINUOUS
 10
165.7056640625
 20
210.90765625
 11
156.0056640625
 21
210.90765625
  0
LINE
  5
366
100
AcDbEntity
  8
4_SURFACE
100
AcDbLine
 62
7
  6
CONTINUOUS
 10
113.4056640625
 20
210.90765625
 11
123.1056640625
 21
210.90765625
  0
LINE
  5
367
100
AcDbEntity
  8
DEFAULT_1
100
AcDbLine
 62
2
  6
CENTER
 10
139.5556640625
 20
239.5546875
 11
139.5556640625
 21
233.50775625
  0
LINE
  5
368
100
AcDbEntity
  8
0
100
AcDbLine
 62
2
  6
CONTINUOUS
 10
139.5556640625
 20
232.55765625
 11
139.5556640625
 21
230.45765625
  0
LINE
  5
369
100
AcDbEntity
  8
DEFAULT_1
100
AcDbLine
 62
2
  6
CENTER
 10
139.5556640625
 20
202.3330078125
 11
139.5556640625
 21
229.50755625
  0
LINE
  5
36A
100
AcDbEntity
  8
1_AXIS
100
AcDbLine
 62
2
  6
CENTER
 10
120.791015625
 20
221.30765625
 11
157.5056640625
 21
221.30765625
  0
LINE
  5
36B
100
AcDbEntity
  8
4_SURFACE
100
AcDbLine
 62
7
  6
CONTINUOUS
 10
129.7918327542
 20
231.5076562486
 11
123.8056640625
 21
231.50765625
  0
LINE
  5
36C
100
AcDbEntity
  8
4_SURFACE
100
AcDbLine
 62
7
  6
CONTINUOUS
 10
123.2597799007
 20
231.50765625
 11
63.3556640625
 21
231.50765625
  0
LINE
  5
36D
100
AcDbEntity
  8
0
100
AcDbLine
 62
7
  6
CONTINUOUS
 10
129.7917859251
 20
231.5076562493
 11
155.3056640625
 21
231.50765625
  0
LINE
  5
36E
100
AcDbEntity
  8
0
100
AcDbLine
 62
7
  6
CONTINUOUS
 10
155.8515482243
 20
231.50765625
 11
215.7556640625
 21
231.50765625
  0
LINE
  5
36F
100
AcDbEntity
  8
0
100
AcDbLine
 62
7
  6
CONTINUOUS
 10
151.2056640625
 20
207.40765625
 11
151.2056640625
 21
229.50765625
  0
LINE
  5
370
100
AcDbEntity
  8
0
100
AcDbLine
 62
7
  6
CONTINUOUS
 10
155.3056640625
 20
231.50765625
 11
155.3056640625
 21
233.48765625
  0
LINE
  5
371
100
AcDbEntity
  8
0
100
AcDbLine
 62
7
  6
CONTINUOUS
 10
155.5056640625
 20
231.00765625
 11
155.5056640625
 21
211.0202354957
  0
LINE
  5
372
100
AcDbEntity
  8
4_SURFACE
100
AcDbLine
 62
7
  6
CONTINUOUS
 10
123.8575992766
 20
235.48765625
 11
65.3556640625
 21
235.48765625
  0
LINE
  5
373
100
AcDbEntity
  8
0
100
AcDbLine
 62
7
  6
CONTINUOUS
 10
123.8575992766
 20
235.48765625
 11
213.7556640625
 21
235.48765625
  0
LINE
  5
374
100
AcDbEntity
  8
0
100
AcDbLine
 62
7
  6
CONTINUOUS
 10
155.3056640625
 20
231.50765625
 11
155.4898098396
 21
231.4304678731
  0
LINE
  5
375
100
AcDbEntity
  8
0
100
AcDbLine
 62
7
  6
CONTINUOUS
 10
156.2056640625
 20
206.90765625
 11
156.2056640625
 21
206.70765625
  0
LINE
  5
376
100
AcDbEntity
  8
0
100
AcDbLine
 62
7
  6
CONTINUOUS
 10
156.2694938477
 20
206.90765625
 11
156.2694938477
 21
206.70765625
  0
LINE
  5
377
100
AcDbEntity
  8
0
100
AcDbLine
 62
7
  6
CONTINUOUS
 10
156.4609832034
 20
206.90765625
 11
156.4609832034
 21
206.70765625
  0
LINE
  5
378
100
AcDbEntity
  8
0
100
AcDbLine
 62
7
  6
CONTINUOUS
 10
156.7801321685
 20
206.90765625
 11
156.7801321685
 21
206.70765625
  0
LINE
  5
379
100
AcDbEntity
  8
0
100
AcDbLine
 62
7
  6
CONTINUOUS
 10
157.035451287
 20
206.90765625
 11
157.035451287
 21
206.70765625
  0
LINE
  5
37A
100
AcDbEntity
  8
0
100
AcDbLine
 62
7
  6
CONTINUOUS
 10
157.1631108463
 20
206.90765625
 11
157.1631108463
 21
206.70765625
  0
LINE
  5
37B
100
AcDbEntity
  8
0
100
AcDbLine
 62
7
  6
CONTINUOUS
 10
157.3546002746
 20
206.90765625
 11
157.3546002746
 21
206.70765625
  0
LINE
  5
37C
100
AcDbEntity
  8
0
100
AcDbLine
 62
7
  6
CONTINUOUS
 10
157.4822598338
 20
206.90765625
 11
157.4822598338
 21
206.70765625
  0
LINE
  5
37D
100
AcDbEntity
  8
0
100
AcDbLine
 62
7
  6
CONTINUOUS
 10
157.5460896134
 20
206.90765625
 11
157.5460896134
 21
206.70765625
  0
LINE
  5
37E
100
AcDbEntity
  8
0
100
AcDbLine
 62
7
  6
CONTINUOUS
 10
157.6099193931
 20
206.90765625
 11
157.6099193931
 21
206.70765625
  0
LINE
  5
37F
100
AcDbEntity
  8
0
100
AcDbLine
 62
7
  6
CONTINUOUS
 10
157.7375789523
 20
206.90765625
 11
157.7375789523
 21
206.70765625
  0
LINE
  5
380
100
AcDbEntity
  8
0
100
AcDbLine
 62
7
  6
CONTINUOUS
 10
157.9928980708
 20
206.90765625
 11
157.9928980708
 21
206.70765625
  0
LINE
  5
381
100
AcDbEntity
  8
0
100
AcDbLine
 62
7
  6
CONTINUOUS
 10
158.2482171893
 20
206.90765625
 11
158.2482171893
 21
206.70765625
  0
LINE
  5
382
100
AcDbEntity
  8
0
100
AcDbLine
 62
7
  6
CONTINUOUS
 10
158.5035364866
 20
206.90765625
 11
158.5035364866
 21
206.70765625
  0
LINE
  5
383
100
AcDbEntity
  8
0
100
AcDbLine
 62
7
  6
CONTINUOUS
 10
158.7588556051
 20
206.90765625
 11
158.7588556051
 21
206.70765625
  0
LINE
  5
384
100
AcDbEntity
  8
0
100
AcDbLine
 62
7
  6
CONTINUOUS
 10
159.0141747236
 20
206.90765625
 11
159.0141747236
 21
206.70765625
  0
LINE
  5
385
100
AcDbEntity
  8
0
100
AcDbLine
 62
7
  6
CONTINUOUS
 10
159.1418342829
 20
206.90765625
 11
159.1418342829
 21
206.70765625
  0
LINE
  5
386
100
AcDbEntity
  8
0
100
AcDbLine
 62
7
  6
CONTINUOUS
 10
159.2056640625
 20
206.90765625
 11
159.2056640625
 21
206.70765625
  0
LINE
  5
387
100
AcDbEntity
  8
0
100
AcDbLine
 62
7
  6
CONTINUOUS
 10
160.1843874991
 20
206.90765625
 11
160.1843874991
 21
206.70765625
  0
LINE
  5
388
100
AcDbEntity
  8
0
100
AcDbLine
 62
7
  6
CONTINUOUS
 10
161.2056640625
 20
206.90765625
 11
161.2056640625
 21
206.70765625
  0
LINE
  5
389
100
AcDbEntity
  8
0
100
AcDbLine
 62
7
  6
CONTINUOUS
 10
161.2694938477
 20
206.90765625
 11
161.2694938477
 21
206.70765625
  0
LINE
  5
38A
100
AcDbEntity
  8
0
100
AcDbLine
 62
7
  6
CONTINUOUS
 10
161.4609832034
 20
206.90765625
 11
161.4609832034
 21
206.70765625
  0
LINE
  5
38B
100
AcDbEntity
  8
0
100
AcDbLine
 62
7
  6
CONTINUOUS
 10
161.7801321685
 20
206.90765625
 11
161.7801321685
 21
206.70765625
  0
LINE
  5
38C
100
AcDbEntity
  8
0
100
AcDbLine
 62
7
  6
CONTINUOUS
 10
162.035451287
 20
206.90765625
 11
162.035451287
 21
206.70765625
  0
LINE
  5
38D
100
AcDbEntity
  8
0
100
AcDbLine
 62
7
  6
CONTINUOUS
 10
162.1631108463
 20
206.90765625
 11
162.1631108463
 21
206.70765625
  0
LINE
  5
38E
100
AcDbEntity
  8
0
100
AcDbLine
 62
7
  6
CONTINUOUS
 10
162.3546002746
 20
206.90765625
 11
162.3546002746
 21
206.70765625
  0
LINE
  5
38F
100
AcDbEntity
  8
0
100
AcDbLine
 62
7
  6
CONTINUOUS
 10
162.4822598338
 20
206.90765625
 11
162.4822598338
 21
206.70765625
  0
LINE
  5
390
100
AcDbEntity
  8
0
100
AcDbLine
 62
7
  6
CONTINUOUS
 10
162.5460896134
 20
206.90765625
 11
162.5460896134
 21
206.70765625
  0
LINE
  5
391
100
AcDbEntity
  8
0
100
AcDbLine
 62
7
  6
CONTINUOUS
 10
162.6099193931
 20
206.90765625
 11
162.6099193931
 21
206.70765625
  0
LINE
  5
392
100
AcDbEntity
  8
0
100
AcDbLine
 62
7
  6
CONTINUOUS
 10
162.7375789523
 20
206.90765625
 11
162.7375789523
 21
206.70765625
  0
LINE
  5
393
100
AcDbEntity
  8
0
100
AcDbLine
 62
7
  6
CONTINUOUS
 10
162.9928980708
 20
206.90765625
 11
162.9928980708
 21
206.70765625
  0
LINE
  5
394
100
AcDbEntity
  8
0
100
AcDbLine
 62
7
  6
CONTINUOUS
 10
163.2482171893
 20
206.90765625
 11
163.2482171893
 21
206.70765625
  0
LINE
  5
395
100
AcDbEntity
  8
0
100
AcDbLine
 62
7
  6
CONTINUOUS
 10
163.5035364866
 20
206.90765625
 11
163.5035364866
 21
206.70765625
  0
LINE
  5
396
100
AcDbEntity
  8
0
100
AcDbLine
 62
7
  6
CONTINUOUS
 10
163.7588556051
 20
206.90765625
 11
163.7588556051
 21
206.70765625
  0
LINE
  5
397
100
AcDbEntity
  8
0
100
AcDbLine
 62
7
  6
CONTINUOUS
 10
164.0141747236
 20
206.90765625
 11
164.0141747236
 21
206.70765625
  0
LINE
  5
398
100
AcDbEntity
  8
0
100
AcDbLine
 62
7
  6
CONTINUOUS
 10
164.1418342829
 20
206.90765625
 11
164.1418342829
 21
206.70765625
  0
LINE
  5
399
100
AcDbEntity
  8
0
100
AcDbLine
 62
7
  6
CONTINUOUS
 10
164.2056640625
 20
206.90765625
 11
164.2056640625
 21
206.70765625
  0
LINE
  5
39A
100
AcDbEntity
  8
0
100
AcDbLine
 62
7
  6
CONTINUOUS
 10
166.7056640625
 20
209.90765625
 11
166.7056640625
 21
207.90765625
  0
LINE
  5
39B
100
AcDbEntity
  8
0
100
AcDbLine
 62
7
  6
CONTINUOUS
 10
215.7556640625
 20
231.50765625
 11
215.7556640625
 21
233.48765625
  0
LINE
  5
39C
100
AcDbEntity
  8
4_SURFACE
100
AcDbLine
 62
7
  6
CONTINUOUS
 10
349.3016015625
 20
107.2634778191
 11
351.2816015625
 21
107.2634778191
  0
LINE
  5
39D
100
AcDbEntity
  8
4_SURFACE
100
AcDbLine
 62
7
  6
CONTINUOUS
 10
325.5785599122
 20
110.2047492432
 11
349.3016015625
 21
107.2634778191
  0
LINE
  5
39E
100
AcDbEntity
  8
0
100
AcDbLine
 62
7
  6
CONTINUOUS
 10
324.5016015625
 20
115.3134778191
 11
324.5016015625
 21
118.2561164424
  0
LINE
  5
39F
100
AcDbEntity
  8
0
100
AcDbLine
 62
7
  6
CONTINUOUS
 10
324.5016015625
 20
118.3134778191
 11
324.5016015625
 21
120.1801446129
  0
LINE
  5
3A0
100
AcDbEntity
  8
0
100
AcDbLine
 62
7
  6
CONTINUOUS
 10
324.5016015625
 20
120.7134778191
 11
324.5016015625
 21
125.5218905438
  0
LINE
  5
3A1
100
AcDbEntity
  8
0
100
AcDbLine
 62
7
  6
CONTINUOUS
 10
324.5016015625
 20
125.8125220733
 11
324.5016015625
 21
127.1203614615
  0
LINE
  5
3A2
100
AcDbEntity
  8
0
100
AcDbLine
 62
7
  6
CONTINUOUS
 10
324.5016015625
 20
127.4109921594
 11
324.5016015625
 21
127.9195960888
  0
LINE
  5
3A3
100
AcDbEntity
  8
0
100
AcDbLine
 62
7
  6
CONTINUOUS
 10
324.5016015625
 20
128.2102276183
 11
324.5016015625
 21
134.3134772648
  0
LINE
  5
3A4
100
AcDbEntity
  8
4_SURFACE
100
AcDbLine
 62
7
  6
CONTINUOUS
 10
324.7016015625
 20
111.1971507508
 11
324.7016015625
 21
138.4298048874
  0
LINE
  5
3A5
100
AcDbEntity
  8
4_SURFACE
100
AcDbLine
 62
7
  6
CONTINUOUS
 10
327.7016015625
 20
110.3134778191
 11
325.7016015625
 21
110.3134778191
  0
LINE
  5
3A6
100
AcDbEntity
  8
4_SURFACE
100
AcDbLine
 62
7
  6
CONTINUOUS
 10
328.7016015625
 20
138.3134778191
 11
328.7016015625
 21
111.3134778191
  0
LINE
  5
3A7
100
AcDbEntity
  8
0
100
AcDbLine
 62
7
  6
CONTINUOUS
 10
324.7016015625
 20
115.3134778191
 11
324.5016015625
 21
115.3134778191
  0
LINE
  5
3A8
100
AcDbEntity
  8
0
100
AcDbLine
 62
7
  6
CONTINUOUS
 10
324.7016015625
 20
115.3498066921
 11
324.5016015625
 21
115.3498066921
  0
LINE
  5
3A9
100
AcDbEntity
  8
0
100
AcDbLine
 62
7
  6
CONTINUOUS
 10
324.7016015625
 20
115.458793311
 11
324.5016015625
 21
115.458793311
  0
LINE
  5
3AA
100
AcDbEntity
  8
0
100
AcDbLine
 62
7
  6
CONTINUOUS
 10
324.7016015625
 20
115.6404376661
 11
324.5016015625
 21
115.6404376661
  0
LINE
  5
3AB
100
AcDbEntity
  8
1_AXIS
100
AcDbLine
 62
2
  6
CENTER
 10
344.3516015625
 20
115.7634778191
 11
343.6516015625
 21
115.7634778191
  0
LINE
  5
3AC
100
AcDbEntity
  8
1_AXIS
100
AcDbLine
 62
2
  6
CONTINUOUS
 10
340.1516015625
 20
115.7634778191
 11
338.0516015625
 21
115.7634778191
  0
LINE
  5
3AD
100
AcDbEntity
  8
1_AXIS
100
AcDbLine
 62
2
  6
CENTER
 10
333.8516015625
 20
115.7634778191
 11
334.5516015625
 21
115.7634778191
  0
LINE
  5
3AE
100
AcDbEntity
  8
0
100
AcDbLine
 62
7
  6
CONTINUOUS
 10
324.7016015625
 20
115.8220820083
 11
324.5016015625
 21
115.8220820083
  0
LINE
  5
3AF
100
AcDbEntity
  8
0
100
AcDbLine
 62
7
  6
CONTINUOUS
 10
324.7016015625
 20
116.1127130181
 11
324.5016015625
 21
116.1127130181
  0
LINE
  5
3B0
100
AcDbEntity
  8
0
100
AcDbLine
 62
7
  6
CONTINUOUS
 10
324.7016015625
 20
116.2943573602
 11
324.5016015625
 21
116.2943573602
  0
LINE
  5
3B1
100
AcDbEntity
  8
0
100
AcDbLine
 62
7
  6
CONTINUOUS
 10
324.7016015625
 20
116.4396728131
 11
324.5016015625
 21
116.4396728131
  0
LINE
  5
3B2
100
AcDbEntity
  8
0
100
AcDbLine
 62
7
  6
CONTINUOUS
 10
324.7016015625
 20
116.58498837
 11
324.5016015625
 21
116.58498837
  0
LINE
  5
3B3
100
AcDbEntity
  8
0
100
AcDbLine
 62
7
  6
CONTINUOUS
 10
324.7016015625
 20
116.6576460445
 11
324.5016015625
 21
116.6576460445
  0
LINE
  5
3B4
100
AcDbEntity
  8
0
100
AcDbLine
 62
7
  6
CONTINUOUS
 10
324.7016015625
 20
116.7801445176
 11
324.5016015625
 21
116.7801445176
  0
LINE
  5
3B5
100
AcDbEntity
  8
0
100
AcDbLine
 62
7
  6
CONTINUOUS
 10
324.7016015625
 20
116.9482770543
 11
324.5016015625
 21
116.9482770543
  0
LINE
  5
3B6
100
AcDbEntity
  8
0
100
AcDbLine
 62
7
  6
CONTINUOUS
 10
324.7016015625
 20
118.2561164424
 11
324.5016015625
 21
118.2561164424
  0
LINE
  5
3B7
100
AcDbEntity
  8
0
100
AcDbLine
 62
7
  6
CONTINUOUS
 10
324.7016015625
 20
118.3134778191
 11
324.5016015625
 21
118.3134778191
  0
LINE
  5
3B8
100
AcDbEntity
  8
0
100
AcDbLine
 62
7
  6
CONTINUOUS
 10
324.7016015625
 20
118.5467473483
 11
324.5016015625
 21
118.5467473483
  0
LINE
  5
3B9
100
AcDbEntity
  8
0
100
AcDbLine
 62
7
  6
CONTINUOUS
 10
324.7016015625
 20
118.7647205796
 11
324.5016015625
 21
118.7647205796
  0
LINE
  5
3BA
100
AcDbEntity
  8
0
100
AcDbLine
 62
7
  6
CONTINUOUS
 10
324.7016015625
 20
119.7092711796
 11
324.5016015625
 21
119.7092711796
  0
LINE
  5
3BB
100
AcDbEntity
  8
0
100
AcDbLine
 62
7
  6
CONTINUOUS
 10
324.7016015625
 20
119.8545869443
 11
324.5016015625
 21
119.8545869443
  0
LINE
  5
3BC
100
AcDbEntity
  8
0
100
AcDbLine
 62
7
  6
CONTINUOUS
 10
324.7016015625
 20
120.1801446129
 11
324.5016015625
 21
120.1801446129
  0
LINE
  5
3BD
100
AcDbEntity
  8
0
100
AcDbLine
 62
7
  6
CONTINUOUS
 10
324.7016015625
 20
120.7134778191
 11
324.5016015625
 21
120.7134778191
  0
LINE
  5
3BE
100
AcDbEntity
  8
0
100
AcDbLine
 62
7
  6
CONTINUOUS
 10
324.7016015625
 20
120.7801446129
 11
324.5016015625
 21
120.7801446129
  0
LINE
  5
3BF
100
AcDbEntity
  8
0
100
AcDbLine
 62
7
  6
CONTINUOUS
 10
324.7016015625
 20
120.9801446129
 11
324.5016015625
 21
120.9801446129
  0
LINE
  5
3C0
100
AcDbEntity
  8
0
100
AcDbLine
 62
7
  6
CONTINUOUS
 10
324.7016015625
 20
121.1134778191
 11
324.5016015625
 21
121.1134778191
  0
LINE
  5
3C1
100
AcDbEntity
  8
0
100
AcDbLine
 62
7
  6
CONTINUOUS
 10
324.7016015625
 20
121.3801446129
 11
324.5016015625
 21
121.3801446129
  0
LINE
  5
3C2
100
AcDbEntity
  8
0
100
AcDbLine
 62
7
  6
CONTINUOUS
 10
324.7016015625
 20
121.7801442315
 11
324.5016015625
 21
121.7801442315
  0
LINE
  5
3C3
100
AcDbEntity
  8
0
100
AcDbLine
 62
7
  6
CONTINUOUS
 10
324.7016015625
 20
121.8890034931
 11
324.5016015625
 21
121.8890034931
  0
LINE
  5
3C4
100
AcDbEntity
  8
0
100
AcDbLine
 62
7
  6
CONTINUOUS
 10
324.7016015625
 20
122.1069767245
 11
324.5016015625
 21
122.1069767245
  0
LINE
  5
3C5
100
AcDbEntity
  8
0
100
AcDbLine
 62
7
  6
CONTINUOUS
 10
324.7016015625
 20
122.3249503716
 11
324.5016015625
 21
122.3249503716
  0
LINE
  5
3C6
100
AcDbEntity
  8
0
100
AcDbLine
 62
7
  6
CONTINUOUS
 10
324.7016015625
 20
122.3801442315
 11
324.5016015625
 21
122.3801442315
  0
LINE
  5
3C7
100
AcDbEntity
  8
0
100
AcDbLine
 62
7
  6
CONTINUOUS
 10
324.7016015625
 20
122.4468114067
 11
324.5016015625
 21
122.4468114067
  0
LINE
  5
3C8
100
AcDbEntity
  8
0
100
AcDbLine
 62
7
  6
CONTINUOUS
 10
324.7016015625
 20
122.5134778191
 11
324.5016015625
 21
122.5134778191
  0
LINE
  5
3C9
100
AcDbEntity
  8
0
100
AcDbLine
 62
7
  6
CONTINUOUS
 10
324.7016015625
 20
122.6155810696
 11
324.5016015625
 21
122.6155810696
  0
LINE
  5
3CA
100
AcDbEntity
  8
0
100
AcDbLine
 62
7
  6
CONTINUOUS
 10
324.7016015625
 20
122.6882385362
 11
324.5016015625
 21
122.6882385362
  0
LINE
  5
3CB
100
AcDbEntity
  8
0
100
AcDbLine
 62
7
  6
CONTINUOUS
 10
324.7016015625
 20
122.7972251519
 11
324.5016015625
 21
122.7972251519
  0
LINE
  5
3CC
100
AcDbEntity
  8
0
100
AcDbLine
 62
7
  6
CONTINUOUS
 10
324.7016015625
 20
122.9788700657
 11
324.5016015625
 21
122.9788700657
  0
LINE
  5
3CD
100
AcDbEntity
  8
0
100
AcDbLine
 62
7
  6
CONTINUOUS
 10
324.7016015625
 20
123.160514148
 11
324.5016015625
 21
123.160514148
  0
LINE
  5
3CE
100
AcDbEntity
  8
0
100
AcDbLine
 62
7
  6
CONTINUOUS
 10
324.7016015625
 20
123.3784873793
 11
324.5016015625
 21
123.3784873793
  0
LINE
  5
3CF
100
AcDbEntity
  8
0
100
AcDbLine
 62
7
  6
CONTINUOUS
 10
324.7016015625
 20
123.5601314616
 11
324.5016015625
 21
123.5601314616
  0
LINE
  5
3D0
100
AcDbEntity
  8
0
100
AcDbLine
 62
7
  6
CONTINUOUS
 10
324.7016015625
 20
123.7417763754
 11
324.5016015625
 21
123.7417763754
  0
LINE
  5
3D1
100
AcDbEntity
  8
0
100
AcDbLine
 62
7
  6
CONTINUOUS
 10
324.7016015625
 20
123.8507629911
 11
324.5016015625
 21
123.8507629911
  0
LINE
  5
3D2
100
AcDbEntity
  8
0
100
AcDbLine
 62
7
  6
CONTINUOUS
 10
324.7016015625
 20
123.9234204577
 11
324.5016015625
 21
123.9234204577
  0
LINE
  5
3D3
100
AcDbEntity
  8
0
100
AcDbLine
 62
7
  6
CONTINUOUS
 10
324.7016015625
 20
124.0468114067
 11
324.5016015625
 21
124.0468114067
  0
LINE
  5
3D4
100
AcDbEntity
  8
0
100
AcDbLine
 62
7
  6
CONTINUOUS
 10
324.7016015625
 20
124.2140511557
 11
324.5016015625
 21
124.2140511557
  0
LINE
  5
3D5
100
AcDbEntity
  8
0
100
AcDbLine
 62
7
  6
CONTINUOUS
 10
324.7016015625
 20
124.5773401518
 11
324.5016015625
 21
124.5773401518
  0
LINE
  5
3D6
100
AcDbEntity
  8
0
100
AcDbLine
 62
7
  6
CONTINUOUS
 10
324.7016015625
 20
124.7953133832
 11
324.5016015625
 21
124.7953133832
  0
LINE
  5
3D7
100
AcDbEntity
  8
1_AXIS
100
AcDbLine
 62
2
  6
CENTER
 10
339.1016015625
 20
139.1134778191
 11
339.1016015625
 21
138.4134778191
  0
LINE
  5
3D8
100
AcDbEntity
  8
1_AXIS
100
AcDbLine
 62
2
  6
CONTINUOUS
 10
339.1016015625
 20
134.9134778191
 11
339.1016015625
 21
132.8134778191
  0
LINE
  5
3D9
100
AcDbEntity
  8
1_AXIS
100
AcDbLine
 62
2
  6
CENTER
 10
339.1016015625
 20
121.0134778191
 11
339.1016015625
 21
120.3134778191
  0
LINE
  5
3DA
100
AcDbEntity
  8
1_AXIS
100
AcDbLine
 62
2
  6
CONTINUOUS
 10
339.1016015625
 20
116.8134778191
 11
339.1016015625
 21
114.7134778191
  0
LINE
  5
3DB
100
AcDbEntity
  8
1_AXIS
100
AcDbLine
 62
2
  6
CENTER
 10
339.1016015625
 20
110.5134778191
 11
339.1016015625
 21
111.2134778191
  0
LINE
  5
3DC
100
AcDbEntity
  8
1_AXIS
100
AcDbLine
 62
2
  6
CENTER
 10
339.1016015625
 20
128.6134778191
 11
339.1016015625
 21
129.3134778191
  0
LINE
  5
3DD
100
AcDbEntity
  8
0
100
AcDbLine
 62
7
  6
CONTINUOUS
 10
324.7016015625
 20
125.5218905438
 11
324.5016015625
 21
125.5218905438
  0
LINE
  5
3DE
100
AcDbEntity
  8
0
100
AcDbLine
 62
7
  6
CONTINUOUS
 10
324.7016015625
 20
125.8125220733
 11
324.5016015625
 21
125.8125220733
  0
LINE
  5
3DF
100
AcDbEntity
  8
0
100
AcDbLine
 62
7
  6
CONTINUOUS
 10
324.7016015625
 20
125.8488503909
 11
324.5016015625
 21
125.8488503909
  0
LINE
  5
3E0
100
AcDbEntity
  8
0
100
AcDbLine
 62
7
  6
CONTINUOUS
 10
324.7016015625
 20
125.921508689
 11
324.5016015625
 21
125.921508689
  0
LINE
  5
3E1
100
AcDbEntity
  8
0
100
AcDbLine
 62
7
  6
CONTINUOUS
 10
324.7016015625
 20
126.0304953047
 11
324.5016015625
 21
126.0304953047
  0
LINE
  5
3E2
100
AcDbEntity
  8
0
100
AcDbLine
 62
7
  6
CONTINUOUS
 10
324.7016015625
 20
126.1758102379
 11
324.5016015625
 21
126.1758102379
  0
LINE
  5
3E3
100
AcDbEntity
  8
0
100
AcDbLine
 62
7
  6
CONTINUOUS
 10
324.7016015625
 20
126.3211260027
 11
324.5016015625
 21
126.3211260027
  0
LINE
  5
3E4
100
AcDbEntity
  8
0
100
AcDbLine
 62
7
  6
CONTINUOUS
 10
324.7016015625
 20
126.6117567006
 11
324.5016015625
 21
126.6117567006
  0
LINE
  5
3E5
100
AcDbEntity
  8
0
100
AcDbLine
 62
7
  6
CONTINUOUS
 10
324.7016015625
 20
126.7570724654
 11
324.5016015625
 21
126.7570724654
  0
LINE
  5
3E6
100
AcDbEntity
  8
0
100
AcDbLine
 62
7
  6
CONTINUOUS
 10
324.7016015625
 20
126.9023882301
 11
324.5016015625
 21
126.9023882301
  0
LINE
  5
3E7
100
AcDbEntity
  8
0
100
AcDbLine
 62
7
  6
CONTINUOUS
 10
324.7016015625
 20
127.0113748458
 11
324.5016015625
 21
127.0113748458
  0
LINE
  5
3E8
100
AcDbEntity
  8
0
100
AcDbLine
 62
7
  6
CONTINUOUS
 10
324.7016015625
 20
127.0840323124
 11
324.5016015625
 21
127.0840323124
  0
LINE
  5
3E9
100
AcDbEntity
  8
0
100
AcDbLine
 62
7
  6
CONTINUOUS
 10
324.7016015625
 20
127.1203614615
 11
324.5016015625
 21
127.1203614615
  0
LINE
  5
3EA
100
AcDbEntity
  8
0
100
AcDbLine
 62
7
  6
CONTINUOUS
 10
324.7016015625
 20
127.4109921594
 11
324.5016015625
 21
127.4109921594
  0
LINE
  5
3EB
100
AcDbEntity
  8
0
100
AcDbLine
 62
7
  6
CONTINUOUS
 10
324.7016015625
 20
127.9195960888
 11
324.5016015625
 21
127.9195960888
  0
LINE
  5
3EC
100
AcDbEntity
  8
0
100
AcDbLine
 62
7
  6
CONTINUOUS
 10
324.7016015625
 20
128.2102276183
 11
324.5016015625
 21
128.2102276183
  0
LINE
  5
3ED
100
AcDbEntity
  8
0
100
AcDbLine
 62
7
  6
CONTINUOUS
 10
324.7016015625
 20
128.4282008496
 11
324.5016015625
 21
128.4282008496
  0
LINE
  5
3EE
100
AcDbEntity
  8
0
100
AcDbLine
 62
7
  6
CONTINUOUS
 10
324.7016015625
 20
128.6825023985
 11
324.5016015625
 21
128.6825023985
  0
LINE
  5
3EF
100
AcDbEntity
  8
0
100
AcDbLine
 62
7
  6
CONTINUOUS
 10
324.7016015625
 20
129.2274354769
 11
324.5016015625
 21
129.2274354769
  0
LINE
  5
3F0
100
AcDbEntity
  8
0
100
AcDbLine
 62
7
  6
CONTINUOUS
 10
324.7016015625
 20
129.5180661749
 11
324.5016015625
 21
129.5180661749
  0
LINE
  5
3F1
100
AcDbEntity
  8
0
100
AcDbLine
 62
7
  6
CONTINUOUS
 10
324.7016015625
 20
129.7134778191
 11
324.5016015625
 21
129.7134778191
  0
LINE
  5
3F2
100
AcDbEntity
  8
0
100
AcDbLine
 62
7
  6
CONTINUOUS
 10
324.7016015625
 20
129.8086977044
 11
324.5016015625
 21
129.8086977044
  0
LINE
  5
3F3
100
AcDbEntity
  8
0
100
AcDbLine
 62
7
  6
CONTINUOUS
 10
324.7016015625
 20
129.8450260219
 11
324.5016015625
 21
129.8450260219
  0
LINE
  5
3F4
100
AcDbEntity
  8
0
100
AcDbLine
 62
7
  6
CONTINUOUS
 10
324.7016015625
 20
129.9176843201
 11
324.5016015625
 21
129.9176843201
  0
LINE
  5
3F5
100
AcDbEntity
  8
0
100
AcDbLine
 62
7
  6
CONTINUOUS
 10
324.7016015625
 20
130.0266709357
 11
324.5016015625
 21
130.0266709357
  0
LINE
  5
3F6
100
AcDbEntity
  8
0
100
AcDbLine
 62
7
  6
CONTINUOUS
 10
324.7016015625
 20
130.2083158495
 11
324.5016015625
 21
130.2083158495
  0
LINE
  5
3F7
100
AcDbEntity
  8
0
100
AcDbLine
 62
7
  6
CONTINUOUS
 10
324.7016015625
 20
130.3899591003
 11
324.5016015625
 21
130.3899591003
  0
LINE
  5
3F8
100
AcDbEntity
  8
0
100
AcDbLine
 62
7
  6
CONTINUOUS
 10
324.7016015625
 20
130.5716040141
 11
324.5016015625
 21
130.5716040141
  0
LINE
  5
3F9
100
AcDbEntity
  8
0
100
AcDbLine
 62
7
  6
CONTINUOUS
 10
324.7016015625
 20
130.7532489279
 11
324.5016015625
 21
130.7532489279
  0
LINE
  5
3FA
100
AcDbEntity
  8
0
100
AcDbLine
 62
7
  6
CONTINUOUS
 10
324.7016015625
 20
130.9348921787
 11
324.5016015625
 21
130.9348921787
  0
LINE
  5
3FB
100
AcDbEntity
  8
0
100
AcDbLine
 62
7
  6
CONTINUOUS
 10
324.7016015625
 20
131.0438787944
 11
324.5016015625
 21
131.0438787944
  0
LINE
  5
3FC
100
AcDbEntity
  8
0
100
AcDbLine
 62
7
  6
CONTINUOUS
 10
324.7016015625
 20
131.1165370925
 11
324.5016015625
 21
131.1165370925
  0
LINE
  5
3FD
100
AcDbEntity
  8
0
100
AcDbLine
 62
7
  6
CONTINUOUS
 10
324.7016015625
 20
131.1801449944
 11
324.5016015625
 21
131.1801449944
  0
LINE
  5
3FE
100
AcDbEntity
  8
0
100
AcDbLine
 62
7
  6
CONTINUOUS
 10
324.7016015625
 20
131.407168622
 11
324.5016015625
 21
131.407168622
  0
LINE
  5
3FF
100
AcDbEntity
  8
0
100
AcDbLine
 62
7
  6
CONTINUOUS
 10
324.7016015625
 20
131.4434969396
 11
324.5016015625
 21
131.4434969396
  0
LINE
  5
400
100
AcDbEntity
  8
0
100
AcDbLine
 62
7
  6
CONTINUOUS
 10
324.7016015625
 20
131.4798252571
 11
324.5016015625
 21
131.4798252571
  0
LINE
  5
401
100
AcDbEntity
  8
0
100
AcDbLine
 62
7
  6
CONTINUOUS
 10
324.7016015625
 20
131.5524835552
 11
324.5016015625
 21
131.5524835552
  0
LINE
  5
402
100
AcDbEntity
  8
0
100
AcDbLine
 62
7
  6
CONTINUOUS
 10
324.7016015625
 20
131.6614701709
 11
324.5016015625
 21
131.6614701709
  0
LINE
  5
403
100
AcDbEntity
  8
0
100
AcDbLine
 62
7
  6
CONTINUOUS
 10
324.7016015625
 20
131.8431150847
 11
324.5016015625
 21
131.8431150847
  0
LINE
  5
404
100
AcDbEntity
  8
0
100
AcDbLine
 62
7
  6
CONTINUOUS
 10
324.7016015625
 20
132.0610883161
 11
324.5016015625
 21
132.0610883161
  0
LINE
  5
405
100
AcDbEntity
  8
0
100
AcDbLine
 62
7
  6
CONTINUOUS
 10
324.7016015625
 20
132.2790615474
 11
324.5016015625
 21
132.2790615474
  0
LINE
  5
406
100
AcDbEntity
  8
0
100
AcDbLine
 62
7
  6
CONTINUOUS
 10
324.7016015625
 20
132.4607047982
 11
324.5016015625
 21
132.4607047982
  0
LINE
  5
407
100
AcDbEntity
  8
0
100
AcDbLine
 62
7
  6
CONTINUOUS
 10
324.7016015625
 20
132.5696914139
 11
324.5016015625
 21
132.5696914139
  0
LINE
  5
408
100
AcDbEntity
  8
0
100
AcDbLine
 62
7
  6
CONTINUOUS
 10
324.7016015625
 20
132.642349712
 11
324.5016015625
 21
132.642349712
  0
LINE
  5
409
100
AcDbEntity
  8
0
100
AcDbLine
 62
7
  6
CONTINUOUS
 10
324.7016015625
 20
132.6786780296
 11
324.5016015625
 21
132.6786780296
  0
LINE
  5
40A
100
AcDbEntity
  8
0
100
AcDbLine
 62
7
  6
CONTINUOUS
 10
324.7016015625
 20
132.7150080101
 11
324.5016015625
 21
132.7150080101
  0
LINE
  5
40B
100
AcDbEntity
  8
0
100
AcDbLine
 62
7
  6
CONTINUOUS
 10
324.7016015625
 20
132.7801449944
 11
324.5016015625
 21
132.7801449944
  0
LINE
  5
40C
100
AcDbEntity
  8
0
100
AcDbLine
 62
7
  6
CONTINUOUS
 10
324.7016015625
 20
132.9134778191
 11
324.5016015625
 21
132.9134778191
  0
LINE
  5
40D
100
AcDbEntity
  8
0
100
AcDbLine
 62
7
  6
CONTINUOUS
 10
324.7016015625
 20
133.0056378766
 11
324.5016015625
 21
133.0056378766
  0
LINE
  5
40E
100
AcDbEntity
  8
0
100
AcDbLine
 62
7
  6
CONTINUOUS
 10
324.7016015625
 20
133.0419678572
 11
324.5016015625
 21
133.0419678572
  0
LINE
  5
40F
100
AcDbEntity
  8
0
100
AcDbLine
 62
7
  6
CONTINUOUS
 10
324.7016015625
 20
133.0782961747
 11
324.5016015625
 21
133.0782961747
  0
LINE
  5
410
100
AcDbEntity
  8
0
100
AcDbLine
 62
7
  6
CONTINUOUS
 10
324.7016015625
 20
133.1509544729
 11
324.5016015625
 21
133.1509544729
  0
LINE
  5
411
100
AcDbEntity
  8
0
100
AcDbLine
 62
7
  6
CONTINUOUS
 10
324.7016015625
 20
133.2599410885
 11
324.5016015625
 21
133.2599410885
  0
LINE
  5
412
100
AcDbEntity
  8
0
100
AcDbLine
 62
7
  6
CONTINUOUS
 10
324.7016015625
 20
133.4415843393
 11
324.5016015625
 21
133.4415843393
  0
LINE
  5
413
100
AcDbEntity
  8
0
100
AcDbLine
 62
7
  6
CONTINUOUS
 10
324.7016015625
 20
133.6595575707
 11
324.5016015625
 21
133.6595575707
  0
LINE
  5
414
100
AcDbEntity
  8
1_AXIS
100
AcDbLine
 62
2
  6
CENTER
 10
344.3516015625
 20
133.8634778191
 11
343.6516015625
 21
133.8634778191
  0
LINE
  5
415
100
AcDbEntity
  8
1_AXIS
100
AcDbLine
 62
2
  6
CONTINUOUS
 10
340.1516015625
 20
133.8634778191
 11
338.0516015625
 21
133.8634778191
  0
LINE
  5
416
100
AcDbEntity
  8
1_AXIS
100
AcDbLine
 62
2
  6
CENTER
 10
333.8516015625
 20
133.8634778191
 11
334.5516015625
 21
133.8634778191
  0
LINE
  5
417
100
AcDbEntity
  8
0
100
AcDbLine
 62
7
  6
CONTINUOUS
 10
324.7016015625
 20
133.8775308021
 11
324.5016015625
 21
133.8775308021
  0
LINE
  5
418
100
AcDbEntity
  8
0
100
AcDbLine
 62
7
  6
CONTINUOUS
 10
324.7016015625
 20
134.0591757158
 11
324.5016015625
 21
134.0591757158
  0
LINE
  5
419
100
AcDbEntity
  8
4_SURFACE
100
AcDbLine
 62
7
  6
CONTINUOUS
 10
349.3016015625
 20
107.2918475601
 11
349.3016015625
 21
142.3351080781
  0
LINE
  5
41A
100
AcDbEntity
  8
0
100
AcDbLine
 62
7
  6
CONTINUOUS
 10
324.7016015625
 20
134.1681623315
 11
324.5016015625
 21
134.1681623315
  0
LINE
  5
41B
100
AcDbEntity
  8
0
100
AcDbLine
 62
7
  6
CONTINUOUS
 10
324.7016015625
 20
134.2408206296
 11
324.5016015625
 21
134.2408206296
  0
LINE
  5
41C
100
AcDbEntity
  8
0
100
AcDbLine
 62
7
  6
CONTINUOUS
 10
324.7016015625
 20
134.2771489472
 11
324.5016015625
 21
134.2771489472
  0
LINE
  5
41D
100
AcDbEntity
  8
0
100
AcDbLine
 62
7
  6
CONTINUOUS
 10
324.7016015625
 20
134.3134772648
 11
324.5016015625
 21
134.3134772648
  0
LINE
  5
41E
100
AcDbEntity
  8
4_SURFACE
100
AcDbLine
 62
7
  6
CONTINUOUS
 10
353.2816015625
 20
109.2634778191
 11
353.2816015625
 21
140.3634778191
  0
LINE
  5
41F
100
AcDbEntity
  8
4_SURFACE
100
AcDbLine
 62
7
  6
CONTINUOUS
 10
325.7016015625
 20
139.3134778191
 11
327.7016015625
 21
139.3134778191
  0
LINE
  5
420
100
AcDbEntity
  8
4_SURFACE
100
AcDbLine
 62
7
  6
CONTINUOUS
 10
325.5785599122
 20
139.422206395
 11
349.3016015625
 21
142.3634778191
  0
LINE
  5
421
100
AcDbEntity
  8
4_SURFACE
100
AcDbLine
 62
7
  6
CONTINUOUS
 10
351.2816015625
 20
142.3634778191
 11
349.3016015625
 21
142.3634778191
  0
ARC
  5
422
100
AcDbEntity
  8
0
100
AcDbCircle
 62
7
  6
CONTINUOUS
 10
211.7556640625
 20
114.202597086
 40
4.0
100
AcDbArc
 50
272.9749999998
 51
360.0
  0
ARC
  5
423
100
AcDbEntity
  8
0
100
AcDbCircle
 62
7
  6
CONTINUOUS
 10
211.7556640625
 20
135.4243585522
 40
4.0
100
AcDbArc
 50
0.0
 51
87.0250000005
  0
ARC
  5
424
100
AcDbEntity
  8
4_SURFACE
100
AcDbCircle
 62
7
  6
CONTINUOUS
 10
67.3556640625
 20
135.4243585522
 40
4.0
100
AcDbArc
 50
92.975
 51
180.0
  0
ARC
  5
425
100
AcDbEntity
  8
4_SURFACE
100
AcDbCircle
 62
7
  6
CONTINUOUS
 10
67.3556640625
 20
114.202597086
 40
4.0
100
AcDbArc
 50
180.0
 51
267.025
  0
ARC
  5
426
100
AcDbEntity
  8
4_SURFACE
100
AcDbCircle
 62
7
  6
CONTINUOUS
 10
113.4056640625
 20
207.90765625
 40
1.0
100
AcDbArc
 50
180.0
 51
270.0
  0
ARC
  5
427
100
AcDbEntity
  8
4_SURFACE
100
AcDbCircle
 62
7
  6
CONTINUOUS
 10
113.4056640625
 20
209.90765625
 40
1.0
100
AcDbArc
 50
90.0
 51
180.0
  0
ARC
  5
428
100
AcDbEntity
  8
4_SURFACE
100
AcDbCircle
 62
7
  6
CONTINUOUS
 10
126.9056640625
 20
207.90765625
 40
1.0
100
AcDbArc
 50
270.0
 51
360.0
  0
ARC
  5
429
100
AcDbEntity
  8
4_SURFACE
100
AcDbCircle
 62
7
  6
CONTINUOUS
 10
127.4056640625
 20
207.40765625
 40
0.5
100
AcDbArc
 50
270.0
 51
360.0
  0
ARC
  5
42A
100
AcDbEntity
  8
4_SURFACE
100
AcDbCircle
 62
7
  6
CONTINUOUS
 10
123.1056640625
 20
211.40765625
 40
0.5
100
AcDbArc
 50
270.0
 51
354.1674301481
  0
ARC
  5
42B
100
AcDbEntity
  8
4_SURFACE
100
AcDbCircle
 62
7
  6
CONTINUOUS
 10
124.1056640625
 20
207.40765625
 40
0.5
100
AcDbArc
 50
264.5518637377
 51
270.0
  0
ARC
  5
42C
100
AcDbEntity
  8
4_SURFACE
100
AcDbCircle
 62
7
  6
CONTINUOUS
 10
65.3556640625
 20
233.48765625
 40
2.0
100
AcDbArc
 50
90.0
 51
180.0
  0
ARC
  5
42D
100
AcDbEntity
  8
4_SURFACE
100
AcDbCircle
 62
7
  6
CONTINUOUS
 10
129.9056635965
 20
229.50765625
 40
1.9999996272
100
AcDbArc
 50
93.2606778359
 51
180.0
  0
ARC
  5
42E
100
AcDbEntity
  8
4_SURFACE
100
AcDbCircle
 62
7
  6
CONTINUOUS
 10
123.1056691664
 20
231.00765625
 40
0.499997448
100
AcDbArc
 50
0.0
 51
90.0
  0
ARC
  5
42F
100
AcDbEntity
  8
0
100
AcDbCircle
 62
7
  6
CONTINUOUS
 10
165.7056640625
 20
207.90765625
 40
1.0
100
AcDbArc
 50
270.0
 51
360.0
  0
ARC
  5
430
100
AcDbEntity
  8
0
100
AcDbCircle
 62
7
  6
CONTINUOUS
 10
165.7056640625
 20
209.90765625
 40
1.0
100
AcDbArc
 50
0.0
 51
90.0
  0
ARC
  5
431
100
AcDbEntity
  8
0
100
AcDbCircle
 62
7
  6
CONTINUOUS
 10
152.2056640625
 20
207.90765625
 40
1.0
100
AcDbArc
 50
180.0
 51
270.0
  0
ARC
  5
432
100
AcDbEntity
  8
0
100
AcDbCircle
 62
7
  6
CONTINUOUS
 10
156.0056640625
 20
211.40765625
 40
0.5
100
AcDbArc
 50
180.0
 51
270.0
  0
ARC
  5
433
100
AcDbEntity
  8
0
100
AcDbCircle
 62
7
  6
CONTINUOUS
 10
151.7056640625
 20
207.40765625
 40
0.5
100
AcDbArc
 50
180.0
 51
270.0
  0
ARC
  5
434
100
AcDbEntity
  8
0
100
AcDbCircle
 62
7
  6
CONTINUOUS
 10
155.0056640625
 20
207.40765625
 40
0.5
100
AcDbArc
 50
270.0
 51
275.4481362623
  0
ARC
  5
435
100
AcDbEntity
  8
0
100
AcDbCircle
 62
7
  6
CONTINUOUS
 10
213.7556640625
 20
233.48765625
 40
2.0
100
AcDbArc
 50
0.0
 51
90.0
  0
ARC
  5
436
100
AcDbEntity
  8
0
100
AcDbCircle
 62
7
  6
CONTINUOUS
 10
149.2056645285
 20
229.50765625
 40
1.9999996272
100
AcDbArc
 50
0.0
 51
86.7393221641
  0
ARC
  5
437
100
AcDbEntity
  8
0
100
AcDbCircle
 62
7
  6
CONTINUOUS
 10
156.0056589586
 20
231.00765625
 40
0.499997448
100
AcDbArc
 50
90.0
 51
180.0
  0
CIRCLE
  5
438
100
AcDbEntity
  8
4_SURFACE
100
AcDbCircle
 62
7
  6
CONTINUOUS
 10
339.1016015625
 20
133.8634778191
 40
2.55
  0
CIRCLE
  5
439
100
AcDbEntity
  8
4_SURFACE
100
AcDbCircle
 62
7
  6
CONTINUOUS
 10
339.1016015625
 20
115.7634778191
 40
2.55
  0
ARC
  5
43A
100
AcDbEntity
  8
4_SURFACE
100
AcDbCircle
 62
7
  6
CONTINUOUS
 10
351.2816015625
 20
140.3634778191
 40
2.0
100
AcDbArc
 50
0.0
 51
90.0
  0
ARC
  5
43B
100
AcDbEntity
  8
4_SURFACE
100
AcDbCircle
 62
7
  6
CONTINUOUS
 10
351.2816015625
 20
109.2634778191
 40
2.0
100
AcDbArc
 50
270.0
 51
360.0
  0
ARC
  5
43C
100
AcDbEntity
  8
4_SURFACE
100
AcDbCircle
 62
7
  6
CONTINUOUS
 10
325.7016015625
 20
111.1971507508
 40
1.0
100
AcDbArc
 50
180.0
 51
262.9323224156
  0
ARC
  5
43D
100
AcDbEntity
  8
4_SURFACE
100
AcDbCircle
 62
7
  6
CONTINUOUS
 10
325.7016015625
 20
111.3134778191
 40
1.0
100
AcDbArc
 50
180.0
 51
270.0
  0
ARC
  5
43E
100
AcDbEntity
  8
4_SURFACE
100
AcDbCircle
 62
7
  6
CONTINUOUS
 10
325.7016015625
 20
138.3134778191
 40
1.0
100
AcDbArc
 50
90.0
 51
180.0
  0
ARC
  5
43F
100
AcDbEntity
  8
4_SURFACE
100
AcDbCircle
 62
7
  6
CONTINUOUS
 10
325.7016015625
 20
138.4298048874
 40
1.0
100
AcDbArc
 50
97.0676775844
 51
180.0
  0
ARC
  5
440
100
AcDbEntity
  8
4_SURFACE
100
AcDbCircle
 62
7
  6
CONTINUOUS
 10
327.7016015625
 20
111.3134778191
 40
1.0
100
AcDbArc
 50
270.0
 51
360.0
  0
ARC
  5
441
100
AcDbEntity
  8
4_SURFACE
100
AcDbCircle
 62
7
  6
CONTINUOUS
 10
327.7016015625
 20
138.3134778191
 40
1.0
100
AcDbArc
 50
0.0
 51
90.0
  0
ARC
  5
442
100
AcDbEntity
  8
0
100
AcDbCircle
 62
7
  6
CONTINUOUS
 10
325.7016015625
 20
138.4298048874
 40
1.0
100
AcDbArc
 50
97.0676775723
 51
180.0
  0
ARC
  5
443
100
AcDbEntity
  8
0
100
AcDbCircle
 62
7
  6
CONTINUOUS
 10
325.7016015625
 20
111.1971507508
 40
1.0
100
AcDbArc
 50
180.0
 51
185.0928940682
  0
ARC
  5
444
100
AcDbEntity
  8
0
100
AcDbCircle
 62
7
  6
CONTINUOUS
 10
325.7016015625
 20
111.1971507508
 40
1.0
100
AcDbArc
 50
258.2129714799
 51
262.9323224156
  0
LINE
  5
445
100
AcDbEntity
  8
4_SURFACE
100
AcDbLine
 62
7
  6
CONTINUOUS
 10
123.8575992766
 20
140.3634778191
 11
123.8056640625
 21
142.3634778191
  0
LINE
  5
446
100
AcDbEntity
  8
0
100
AcDbLine
 62
7
  6
CONTINUOUS
 10
155.2537288484
 20
109.2634778191
 11
155.3056640625
 21
107.2634778191
  0
LINE
  5
447
100
AcDbEntity
  8
4_SURFACE
100
AcDbLine
 62
7
  6
CONTINUOUS
 10
123.8575992766
 20
109.2634778191
 11
123.8056640625
 21
107.2634778191
  0
LINE
  5
448
100
AcDbEntity
  8
0
100
AcDbLine
 62
7
  6
CONTINUOUS
 10
155.2537288484
 20
140.3634778191
 11
155.3056640625
 21
142.3634778191
  0
SPLINE
  5
449
100
AcDbEntity
  8
4_SURFACE
100
AcDbSpline
 62
7
  6
CONTINUOUS
 70
0
 71
3
 72
15
 73
11
 74
0
 42
0.0000001
 43
0.0000001
 44
0.0000000001
 40
0.0
 40
0.0
 40
0.0
 40
0.0
 40
0.1253258173
 40
0.2505936639
 40
0.3757749994
 40
0.5008409407
 40
0.6257849396
 40
0.7506135658
 40
0.8753424336
 40
1.0
 40
1.0
 40
1.0
 40
1.0
 10
129.7918327542
 20
231.5076562486
 30
0.0
 10
129.6611197176
 20
231.5076563189
 30
0.0
 10
129.399181664
 20
231.4841719843
 30
0.0
 10
129.0190923153
 20
231.3812797143
 30
0.0
 10
128.6619692491
 20
231.2160999153
 30
0.0
 10
128.3364836207
 20
230.9960073322
 30
0.0
 10
128.0481652359
 20
230.729970519
 30
0.0
 10
127.7989606115
 20
230.4278431881
 30
0.0
 10
127.5864628155
 20
230.0996723631
 30
0.0
 10
127.4641800511
 20
229.8698736439
 30
0.0
 10
127.4056770064
 20
229.7537634817
 30
0.0
  0
SPLINE
  5
44A
100
AcDbEntity
  8
4_SURFACE
100
AcDbSpline
 62
7
  6
CONTINUOUS
 70
0
 71
3
 72
9
 73
5
 74
0
 42
0.0000001
 43
0.0000001
 44
0.0000000001
 40
0.0
 40
0.0
 40
0.0
 40
0.0
 40
0.5002143177
 40
1.0
 40
1.0
 40
1.0
 40
1.0
 10
123.6215182854
 20
231.4304678731
 30
0.0
 10
123.5638955739
 20
231.4532163736
 30
0.0
 10
123.4457847196
 20
231.4920282377
 30
0.0
 10
123.3216773692
 20
231.5076577052
 30
0.0
 10
123.2597799007
 20
231.50765625
 30
0.0
  0
SPLINE
  5
44B
100
AcDbEntity
  8
4_SURFACE
100
AcDbSpline
 62
7
  6
CONTINUOUS
 70
0
 71
3
 72
23
 73
19
 74
0
 42
0.0000001
 43
0.0000001
 44
0.0000000001
 40
0.0
 40
0.0
 40
0.0
 40
0.0
 40
0.0017507507
 40
0.0055722398
 40
0.0117001922
 40
0.0201707705
 40
0.0309781764
 40
0.0441025678
 40
0.0771946257
 40
0.1191442632
 40
0.1695610169
 40
0.2279630154
 40
0.2937908564
 40
0.3664168068
 40
0.4451395266
 40
0.6178067118
 40
0.8051510179
 40
1.0
 40
1.0
 40
1.0
 40
1.0
 10
123.8575992766
 20
235.48765625
 30
0.0
 10
123.8564304311
 20
235.48765625
 30
0.0
 10
123.8539972988
 20
235.4837223543
 30
0.0
 10
123.8521058442
 20
235.4767679103
 30
0.0
 10
123.8495289981
 20
235.4644051472
 30
0.0
 10
123.8471946254
 20
235.4477378368
 30
0.0
 10
123.8447328078
 20
235.4261920515
 30
0.0
 10
123.8412522471
 20
235.3883030596
 30
0.0
 10
123.8371606512
 20
235.3295624143
 30
0.0
 10
123.8326780238
 20
235.245928363
 30
0.0
 10
123.8283978211
 20
235.1453585547
 30
0.0
 10
123.8243705405
 20
235.0288295976
 30
0.0
 10
123.8206452238
 20
234.8974555517
 30
0.0
 10
123.8172624061
 20
234.7525020655
 30
0.0
 10
123.8131287514
 20
234.5362198428
 30
0.0
 10
123.8091648486
 20
234.2433342481
 30
0.0
 10
123.8063038937
 20
233.872904806
 30
0.0
 10
123.8056640625
 20
233.6177423578
 30
0.0
 10
123.8056640625
 20
233.48765625
 30
0.0
  0
SPLINE
  5
44C
100
AcDbEntity
  8
0
100
AcDbSpline
 62
7
  6
CONTINUOUS
 70
0
 71
3
 72
23
 73
19
 74
0
 42
0.0000001
 43
0.0000001
 44
0.0000000001
 40
0.0
 40
0.0
 40
0.0
 40
0.0
 40
0.0017507507
 40
0.0055722398
 40
0.0117001922
 40
0.0201707705
 40
0.0309781764
 40
0.0441025678
 40
0.0771946257
 40
0.1191442632
 40
0.1695610169
 40
0.2279630154
 40
0.2937908564
 40
0.3664168068
 40
0.4451395266
 40
0.6178067118
 40
0.8051510179
 40
1.0
 40
1.0
 40
1.0
 40
1.0
 10
155.2537288484
 20
235.48765625
 30
0.0
 10
155.2548976939
 20
235.48765625
 30
0.0
 10
155.2573308262
 20
235.4837223543
 30
0.0
 10
155.2592222808
 20
235.4767679103
 30
0.0
 10
155.2617991269
 20
235.4644051472
 30
0.0
 10
155.2641334996
 20
235.4477378368
 30
0.0
 10
155.2665953172
 20
235.4261920515
 30
0.0
 10
155.2700758779
 20
235.3883030596
 30
0.0
 10
155.2741674738
 20
235.3295624143
 30
0.0
 10
155.2786501012
 20
235.245928363
 30
0.0
 10
155.2829303039
 20
235.1453585547
 30
0.0
 10
155.2869575845
 20
235.0288295976
 30
0.0
 10
155.2906829012
 20
234.8974555517
 30
0.0
 10
155.2940657189
 20
234.7525020655
 30
0.0
 10
155.2981993736
 20
234.5362198428
 30
0.0
 10
155.3021632764
 20
234.2433342481
 30
0.0
 10
155.3050242313
 20
233.872904806
 30
0.0
 10
155.3056640625
 20
233.6177423578
 30
0.0
 10
155.3056640625
 20
233.48765625
 30
0.0
  0
SPLINE
  5
44D
100
AcDbEntity
  8
0
100
AcDbSpline
 62
7
  6
CONTINUOUS
 70
0
 71
3
 72
9
 73
5
 74
0
 42
0.0000001
 43
0.0000001
 44
0.0000000001
 40
0.0
 40
0.0
 40
0.0
 40
0.0
 40
0.4999057553
 40
1.0
 40
1.0
 40
1.0
 40
1.0
 10
155.0056675113
 20
231.0691803183
 30
0.0
 10
155.0774608985
 20
231.1403395125
 30
0.0
 10
155.2249066274
 20
231.2791363789
 30
0.0
 10
155.3974348409
 20
231.389328017
 30
0.0
 10
155.4898098396
 20
231.4304678731
 30
0.0
  0
SPLINE
  5
44E
100
AcDbEntity
  8
4_SURFACE
100
AcDbSpline
 62
7
  6
CONTINUOUS
 70
0
 71
3
 72
9
 73
5
 74
0
 42
0.0000001
 43
0.0000001
 44
0.0000000001
 40
0.0
 40
0.0
 40
0.0
 40
0.0
 40
0.4999057553
 40
1.0
 40
1.0
 40
1.0
 40
1.0
 10
124.1056606137
 20
231.0691803183
 30
0.0
 10
124.0338672265
 20
231.1403395125
 30
0.0
 10
123.8864214976
 20
231.2791363789
 30
0.0
 10
123.7138932841
 20
231.389328017
 30
0.0
 10
123.6215182854
 20
231.4304678731
 30
0.0
  0
SPLINE
  5
44F
100
AcDbEntity
  8
0
100
AcDbSpline
 62
7
  6
CONTINUOUS
 70
0
 71
3
 72
15
 73
11
 74
0
 42
0.0000001
 43
0.0000001
 44
0.0000000001
 40
0.0
 40
0.0
 40
0.0
 40
0.0
 40
0.1253258173
 40
0.2505936639
 40
0.3757749994
 40
0.5008409407
 40
0.6257849396
 40
0.7506135658
 40
0.8753424336
 40
1.0
 40
1.0
 40
1.0
 40
1.0
 10
149.3194953708
 20
231.5076562486
 30
0.0
 10
149.4502084074
 20
231.5076563189
 30
0.0
 10
149.712146461
 20
231.4841719843
 30
0.0
 10
150.0922358097
 20
231.3812797143
 30
0.0
 10
150.4493588759
 20
231.2160999153
 30
0.0
 10
150.7748445043
 20
230.9960073322
 30
0.0
 10
151.0631628891
 20
230.729970519
 30
0.0
 10
151.3123675135
 20
230.4278431881
 30
0.0
 10
151.5248653095
 20
230.0996723631
 30
0.0
 10
151.6471480739
 20
229.8698736439
 30
0.0
 10
151.7056511186
 20
229.7537634817
 30
0.0
  0
SPLINE
  5
450
100
AcDbEntity
  8
0
100
AcDbSpline
 62
7
  6
CONTINUOUS
 70
0
 71
3
 72
9
 73
5
 74
0
 42
0.0000001
 43
0.0000001
 44
0.0000000001
 40
0.0
 40
0.0
 40
0.0
 40
0.0
 40
0.5002143177
 40
1.0
 40
1.0
 40
1.0
 40
1.0
 10
155.4898098396
 20
231.4304678731
 30
0.0
 10
155.5474325511
 20
231.4532163736
 30
0.0
 10
155.6655434054
 20
231.4920282377
 30
0.0
 10
155.7896507558
 20
231.5076577052
 30
0.0
 10
155.8515482243
 20
231.50765625
 30
0.0
  0
SPLINE
  5
451
100
AcDbEntity
  8
4_SURFACE
100
AcDbSpline
 62
7
  6
CONTINUOUS
 70
0
 71
3
 72
12
 73
8
 74
0
 42
0.0000001
 43
0.0000001
 44
0.0000000001
 40
0.0
 40
0.0
 40
0.0
 40
0.0
 40
0.3923686206
 40
0.7008456057
 40
0.9055542766
 40
0.9652190098
 40
1.0
 40
1.0
 40
1.0
 40
1.0
 10
349.2244131856
 20
107.2730479227
 30
0.0
 10
349.2348753377
 20
107.2744251856
 30
0.0
 10
349.2535683795
 20
107.2770725912
 30
0.0
 10
349.2774565039
 20
107.2813544288
 30
0.0
 10
349.2925549196
 20
107.2853493971
 30
0.0
 10
349.2997349249
 20
107.2886874779
 30
0.0
 10
349.3016019857
 20
107.2909121555
 30
0.0
 10
349.3016015625
 20
107.2918475601
 30
0.0
  0
SPLINE
  5
452
100
AcDbEntity
  8
4_SURFACE
100
AcDbSpline
 62
7
  6
CONTINUOUS
 70
0
 71
3
 72
12
 73
8
 74
0
 42
0.0000001
 43
0.0000001
 44
0.0000000001
 40
0.0
 40
0.0
 40
0.0
 40
0.0
 40
0.0347809914
 40
0.0944457248
 40
0.2991543962
 40
0.6076313809
 40
1.0
 40
1.0
 40
1.0
 40
1.0
 10
349.3016015625
 20
142.3351080781
 30
0.0
 10
349.3016019855
 20
142.3360434828
 30
0.0
 10
349.2997349247
 20
142.3382681602
 30
0.0
 10
349.2925549195
 20
142.3416062412
 30
0.0
 10
349.2774565037
 20
142.3456012094
 30
0.0
 10
349.2535683794
 20
142.349883047
 30
0.0
 10
349.2348753377
 20
142.3525304527
 30
0.0
 10
349.2244131856
 20
142.3539077155
 30
0.0
  0
ENDSEC
  0
SECTION
  2
OBJECTS
  0
DICTIONARY
  5
C
100
AcDbDictionary
280
0
281
1
  3
ACAD_GROUP
350
D
  3
ACAD_MLINESTYLE
350
17
  3
ACAD_LAYOUT
350
1A
  3
ACAD_PLOTSETTINGS
350
19
  3
ACAD_PLOTSTYLENAME
350
E
  3
ACAD_TABLESTYLE
350
       453
  0
DICTIONARY
  5
D
102
{ACAD_REACTORS
330
C
102
}
100
AcDbDictionary
280
0
281
1
  0
ACDBDICTIONARYWDFLT
  5
E
102
{ACAD_REACTORS
330
C
102
}
100
AcDbDictionary
281
1
  3
Normal
350
F
100
AcDbDictionaryWithDefault
340
F
  0
DICTIONARY
  5
17
102
{ACAD_REACTORS
330
C
102
}
100
AcDbDictionary
280
0
281
1
  3
Standard
350
18
  0
DICTIONARY
  5
453
330
C
100
AcDbDictionary
281
1
  3
Standard
350
       456
  3
Standard1
350
       457
  0
DICTIONARY
  5
19
102
{ACAD_REACTORS
330
C
102
}
100
AcDbDictionary
281
1
  0
DICTIONARY
  5
1A
102
{ACAD_REACTORS
330
C
102
}
100
AcDbDictionary
281
1
  3
Model
350
454
  3
Layout1
350
455
  0
ACDBPLACEHOLDER
  5
F
102
{ACAD_REACTORS
330
E
102
}
  0
MLINESTYLE
  5
18
102
{ACAD_REACTORS
330
17
102
}
100
AcDbMlineStyle
  2
STANDARD
 70
0
  3

 62
256
 51
90.0
 52
90.0
 71
2
 49
0.5
 62
256
  6
BYLAYER
 49
-0.5
 62
256
  6
BYLAYER
  0
LAYOUT
  5
454
102
{ACAD_REACTORS
330
1A
102
}
100
AcDbPlotSettings
  1

  2
none_device
  4
ISO_A3_(420.00_x_297.00_MM)
  6

 40
0.0
 41
0.0
 42
0.0
 43
0.0
 44
420.0
 45
297.0
 46
0.0
 47
0.0
 48
0.0
 49
0.0
140
0.0
141
0.0
142
1.0
143
1.0
 70
1024
 72
1
 73
0
 74
0
  7

 75
0
147
1.0
148
0.0
149
0.0
100
AcDbLayout
  1
Model
 70
0
 71
0
 10
0.0
 20
0.0
 11
420.0
 21
297.0
 12
0.0
 22
0.0
 32
0.0
 14
0.0
 24
0.0
 34
0.0
 15
0.0
 25
0.0
 35
0.0
146
0.0
 13
0.0
 23
0.0
 33
0.0
 16
1.0
 26
0.0
 36
0.0
 17
0.0
 27
1.0
 37
0.0
 76
0
330
210
345
0
346
0
  0
LAYOUT
  5
455
102
{ACAD_REACTORS
330
1A
102
}
100
AcDbPlotSettings
  1

  2
none_device
  4
ISO_A3_(420.00_x_297.00_MM)
  6

 40
0.0
 41
0.0
 42
0.0
 43
0.0
 44
420.0
 45
297.0
 46
0.0
 47
0.0
 48
0.0
 49
0.0
140
0.0
141
0.0
142
1.0
143
1.0
 70
0
 72
1
 73
0
 74
0
  7

 75
0
147
1.0
148
0.0
149
0.0
100
AcDbLayout
  1
Layout1
 70
0
 71
1
 10
0.0
 20
0.0
 11
420.0
 21
297.0
 12
0.0
 22
0.0
 32
0.0
 14
0.0
 24
0.0
 34
0.0
 15
0.0
 25
0.0
 35
0.0
146
0.0
 13
0.0
 23
0.0
 33
0.0
 16
1.0
 26
0.0
 36
0.0
 17
0.0
 27
1.0
 37
0.0
 76
0
330
211
345
0
346
0
  0
TABLESTYLE
  5
456
102
{ACAD_REACTORS
330
453
330
345
102
}
330
453
100
AcDbTableStyle
  3
Standard
 70
0
 71
0
 40
0.06
 41
0.06
280
1
281
1
  7
Standard
140
0.18
170
1
 62
0
 63
7
283
0
  7
Standard
140
0.18
170
1
 62
0
 63
7
283
0
  7
Standard
140
0.18
170
1
 62
0
 63
7
283
0
  0
TABLESTYLE
  5
457
102
{ACAD_REACTORS
330
453
102
}
330
453
100
AcDbTableStyle
  3
Standard1
 70
1
 71
0
 40
0.06
 41
0.06
280
1
281
1
  7
Standard
140
0.18
170
1
 62
0
 63
7
283
0
  7
Standard
140
0.18
170
1
 62
0
 63
7
283
0
  7
Standard
140
0.18
170
1
 62
0
 63
7
283
0
  0
ENDSEC
  0
EOF
