  0
SECTION
  2
HEADER
  9
$EXTMAX
 10
420.0
 20
297.0
 30
0.0
  9
$EXTMIN
 10
0.0
 20
0.0
 30
0.0
  9
$LIMMIN
 10
0.0
 20
0.0
  9
$LIMMAX
 10
420.0
 20
297.0
  9
$VIEWCTR
 10
210.0
 20
148.5
  9
$VIEWSIZE
 40
297.0
  9
$CLAYER
  8
0
  9
$LTSCALE
 40
23.1
  9
$CELTYPE
  6
BYLAYER
  9
$DIMSCALE
 40
1.0
  9
$DIMASZ
 40
3.5
  9
$DIMEXO
 40
1.0
  9
$DIMDLI
 40
15.96
  9
$DIMEXE
 40
2.0
  9
$DIMCEN
 40
3.78
  9
$DIMLFAC
 40
1.0
  9
$DIMBLK
  1
_FILLED
  9
$DIMALT
 70
0
  9
$DIMALTF
 40
0.0393700787
  9
$DIMTXT
 40
3.5
  9
$AUNITS
 70
0
  9
$PDMODE
 70
3
  9
$PDSIZE
 40
0.3125
  9
$TILEMODE
 70
1
  0
ENDSEC
  0
SECTION
  2
TABLES
  0
TABLE
  2
LTYPE
 70
6
  0
LTYPE
  2
BYBLOCK
 70
0
  3

 72
65
 73
0
 40
0.0
  0
LTYPE
  2
BYLAYER
 70
0
  3

 72
65
 73
0
 40
0.0
  0
LTYPE
  2
CONTINUOUS
 70
64
  3
Solid line
 72
65
 73
0
 40
0.0
  0
LTYPE
  2
CENTER
 70
64
  3
____ _ ____ _ ____ _ ____ _ ____ _ ____ _ ____
 72
65
 73
4
 40
0.6
 49
0.375
 49
-0.075
 49
0.075
 49
-0.075
  0
LTYPE
  2
HIDDEN
 70
64
  3
- - - - - - - - - - - - - - - - - - - -
 72
65
 73
2
 40
0.2
 49
0.1
 49
-0.1
  0
LTYPE
  2
PHANTOM
 70
64
  3
_____ _ _ _____ _ _ _____ _ _ _____
 72
65
 73
6
 40
0.8
 49
0.45
 49
-0.05
 49
0.1
 49
-0.05
 49
0.1
 49
-0.05
  0
LTYPE
  2
DOT
 70
64
  3
. . . . . . . . . . . . . . . . . . . .
 72
65
 73
2
 40
0.2
 49
0.1
 49
-0.1
  0
LTYPE
  2
DASHED
 70
64
  3
- - - - - - - - - - - - - - - - - - - -
 72
65
 73
2
 40
0.2
 49
0.1
 49
-0.1
  0
ENDTAB
  0
TABLE
  2
LAYER
 70
36
  0
LAYER
  2
0
 70
0
 62
7
  6
CONTINUOUS
  0
LAYER
  2
DEFAULT_1
 70
0
 62
7
  6
CENTER
  0
LAYER
  2
DEFAULT_2
 70
0
 62
8
  6
HIDDEN
  0
LAYER
  2
DEFAULT_3
 70
0
 62
7
  6
PHANTOM
  0
LAYER
  2
1_AXIS
 70
0
 62
7
  6
CONTINUOUS
  0
LAYER
  2
1_DATUMPLANE
 70
0
 62
7
  6
CONTINUOUS
  0
LAYER
  2
4_QUILT
 70
0
 62
7
  6
CONTINUOUS
  0
LAYER
  2
4_SURFACE
 70
0
 62
7
  6
CONTINUOUS
  0
LAYER
  2
6_DIM
 70
0
 62
7
  6
CONTINUOUS
  0
LAYER
  2
6_NOTE
 70
0
 62
7
  6
CONTINUOUS
  0
LAYER
  2
CURVE
 70
0
 62
7
  6
CONTINUOUS
  0
LAYER
  2
CURVES
 70
0
 62
7
  6
CONTINUOUS
  0
LAYER
  2
NOTES
 70
0
 62
7
  6
CONTINUOUS
  0
LAYER
  2
QUILT
 70
0
 62
7
  6
CONTINUOUS
  0
LAYER
  2
SURFACE
 70
0
 62
7
  6
CONTINUOUS
  0
ENDTAB
  0
TABLE
  2
STYLE
 70
1
  0
STYLE
  2
STANDARD
 70
0
 40
0.0
 41
0.8
 50
0.0
 71
0
 42
0.2
  3
txt
  4

  0
STYLE
  2
TEXTSTYLE_1
 70
0
 40
0.0
 41
0.8
 50
0.0
 71
0
 42
0.2
  3
gdt
  4

  0
STYLE
  2
TEXTSTYLE_2
 70
0
 40
0.0
 41
0.6
 50
0.0
 71
0
 42
0.2
  3
txt
  4

  0
STYLE
  2
TEXTSTYLE_3
 70
0
 40
0.0
 41
1.0
 50
0.0
 71
0
 42
0.2
  3
ftb_____.ttf
  4

  0
STYLE
  2
TEXTSTYLE_4
 70
0
 40
0.0
 41
1.0
 50
0.0
 71
0
 42
0.2
  3
fti_____.ttf
  4

  0
STYLE
  2
TEXTSTYLE_5
 70
0
 40
0.0
 41
1.0
 50
0.0
 71
0
 42
0.2
  3
frutiger light.ttf
  4

  0
STYLE
  2
TEXTSTYLE_6
 70
0
 40
0.0
 41
0.7
 50
0.0
 71
0
 42
0.2
  3
txt
  4

  0
STYLE
  2
TEXTSTYLE_7
 70
0
 40
0.0
 41
0.8
 50
0.0
 71
0
 42
0.2
  3
txt
  4

  0
ENDTAB
  0
ENDSEC
  0
SECTION
  2
BLOCKS
  0
BLOCK
  8
0
 62
2
  6
CONTINUOUS
  2
UNI_LOGO2_BL1
 70
64
 10
382.3920721743
 20
35.81661148
  0
TEXT
  8
0
 62
7
  6
CONTINUOUS
 10
373.4503571828
 20
30.9093678571
  7
TEXTSTYLE_4
 40
1.0655737705
  1
The brand for plastic modular belts and chains
 41
1.0
 72
0
  0
LINE
  8
0
 62
7
  6
CONTINUOUS
 10
358.3701405634
 20
36.3903819718
 11
358.3701405634
 21
34.2592344308
  0
LINE
  8
0
 62
7
  6
CONTINUOUS
 10
358.6592030565
 20
31.2683031351
 11
358.6592030565
 21
31.3650941944
  0
LINE
  8
0
 62
7
  6
CONTINUOUS
 10
358.3701405634
 20
31.332830508
 11
358.4279530651
 21
31.1392483894
  0
LINE
  8
0
 62
7
  6
CONTINUOUS
 10
359.7635831863
 20
34.1772672177
 11
359.7635831863
 21
36.3903819718
  0
LINE
  8
0
 62
7
  6
CONTINUOUS
 10
360.6826405082
 20
32.3330049227
 11
360.6826405082
 21
30.81661148
  0
LINE
  8
0
 62
7
  6
CONTINUOUS
 10
360.9717030634
 20
30.81661148
 11
360.9717030634
 21
31.5586763581
  0
LINE
  8
0
 62
7
  6
CONTINUOUS
 10
360.9717030634
 20
31.6877311038
 11
360.9717030634
 21
32.3330049227
  0
LINE
  8
0
 62
7
  6
CONTINUOUS
 10
358.4279530651
 20
31.5264126717
 11
358.3701405634
 21
31.332830508
  0
LINE
  8
0
 62
7
  6
CONTINUOUS
 10
358.7748280496
 20
31.106984703
 11
358.6592030565
 21
31.2683031351
  0
LINE
  8
0
 62
7
  6
CONTINUOUS
 10
359.8732656185
 20
31.623203731
 11
359.9310780634
 21
31.5264126717
  0
LINE
  8
0
 62
7
  6
CONTINUOUS
 10
360.2201406185
 20
31.5264126717
 11
360.1623280082
 21
31.6554674174
  0
LINE
  8
0
 62
7
  6
CONTINUOUS
 10
361.648829088
 20
36.3903819718
 11
361.648829088
 21
34.5871032833
  0
LINE
  8
0
 62
7
  6
CONTINUOUS
 10
361.648829088
 20
33.2756278735
 11
361.648829088
 21
32.6198901686
  0
LINE
  8
0
 62
7
  6
CONTINUOUS
 10
362.0123280634
 20
31.4618852989
 11
362.0123280634
 21
30.81661148
  0
LINE
  8
0
 62
7
  6
CONTINUOUS
 10
362.3013904531
 20
30.81661148
 11
362.3013904531
 21
31.4618852989
  0
LINE
  8
0
 62
7
  6
CONTINUOUS
 10
358.6592030565
 20
31.3650941944
 11
358.7170155634
 21
31.4941489853
  0
LINE
  8
0
 62
7
  6
CONTINUOUS
 10
358.4279530651
 20
31.1392483894
 11
358.5435780634
 21
31.0101936212
  0
LINE
  8
0
 62
7
  6
CONTINUOUS
 10
361.9545154531
 20
31.5909400446
 11
362.0123280634
 21
31.4618852989
  0
LINE
  8
0
 62
7
  6
CONTINUOUS
 10
362.7638906736
 20
31.106984703
 11
362.8217029531
 21
30.9779299347
  0
LINE
  8
0
 62
7
  6
CONTINUOUS
 10
362.3013904531
 20
31.4618852989
 11
362.2435781736
 21
31.623203731
  0
LINE
  8
0
 62
7
  6
CONTINUOUS
 10
362.7638906736
 20
31.6554674174
 11
362.7638906736
 21
31.5909400446
  0
LINE
  8
0
 62
7
  6
CONTINUOUS
 10
362.7638906736
 20
31.2037757623
 11
362.7638906736
 21
31.106984703
  0
LINE
  8
0
 62
7
  6
CONTINUOUS
 10
363.0422717109
 20
32.6198901686
 11
363.0422717109
 21
36.3903819718
  0
LINE
  8
0
 62
7
  6
CONTINUOUS
 10
363.0529530634
 20
31.074720994
 11
363.0529530634
 21
31.1392483894
  0
LINE
  8
0
 62
7
  6
CONTINUOUS
 10
363.3701405634
 20
36.3903819718
 11
363.3701405634
 21
32.6198901686
  0
LINE
  8
0
 62
7
  6
CONTINUOUS
 10
360.1623280082
 20
31.0101936212
 11
360.2201406185
 21
31.1392483894
  0
LINE
  8
0
 62
7
  6
CONTINUOUS
 10
364.5560782839
 20
30.9134025506
 11
364.4982653428
 21
31.074720994
  0
LINE
  8
0
 62
7
  6
CONTINUOUS
 10
364.2092032839
 20
31.5909400446
 11
364.2092032839
 21
31.4941489853
  0
LINE
  8
0
 62
7
  6
CONTINUOUS
 10
364.2092032839
 20
31.3650941944
 11
364.2092032839
 21
31.1715120759
  0
LINE
  8
0
 62
7
  6
CONTINUOUS
 10
364.4982653428
 20
31.074720994
 11
364.4982653428
 21
31.5909400446
  0
LINE
  8
0
 62
7
  6
CONTINUOUS
 10
364.7635831863
 20
32.6198901686
 11
364.7635831863
 21
34.4231688571
  0
LINE
  8
0
 62
7
  6
CONTINUOUS
 10
364.7635831863
 20
35.7346442669
 11
364.7635831863
 21
36.3903819718
  0
LINE
  8
0
 62
7
  6
CONTINUOUS
 10
365.0763907839
 20
32.3330049227
 11
365.0763907839
 21
32.1716864905
  0
LINE
  8
0
 62
7
  6
CONTINUOUS
 10
365.0763907839
 20
31.8490495359
 11
365.0763907839
 21
30.81661148
  0
LINE
  8
0
 62
7
  6
CONTINUOUS
 10
365.3654528428
 20
30.81661148
 11
365.3654528428
 21
31.8490495359
  0
LINE
  8
0
 62
7
  6
CONTINUOUS
 10
365.3654528428
 20
32.1716864905
 11
365.3654528428
 21
32.3330049227
  0
LINE
  8
0
 62
7
  6
CONTINUOUS
 10
359.9310780634
 20
31.1392483894
 11
359.8732656185
 21
31.0424573076
  0
LINE
  8
0
 62
7
  6
CONTINUOUS
 10
362.2435781736
 20
31.623203731
 11
362.1857655634
 21
31.6877311038
  0
LINE
  8
0
 62
7
  6
CONTINUOUS
 10
363.1107656736
 20
31.0101936212
 11
363.0529530634
 21
31.074720994
  0
LINE
  8
0
 62
7
  6
CONTINUOUS
 10
364.2670155634
 20
30.8811388585
 11
364.3248278428
 21
30.81661148
  0
LINE
  8
0
 62
7
  6
CONTINUOUS
 10
364.2092032839
 20
30.9779299347
 11
364.2670155634
 21
30.8811388585
  0
LINE
  8
0
 62
7
  6
CONTINUOUS
 10
364.6138905634
 20
30.81661148
 11
364.5560782839
 21
30.9134025506
  0
LINE
  8
0
 62
7
  6
CONTINUOUS
 10
364.4982653428
 20
31.5909400446
 11
364.4404530634
 21
31.6877311038
  0
LINE
  8
0
 62
7
  6
CONTINUOUS
 10
365.8279530634
 20
31.8490495359
 11
365.8279530634
 21
30.81661148
  0
LINE
  8
0
 62
7
  6
CONTINUOUS
 10
366.1170157839
 20
30.81661148
 11
366.1170157839
 21
31.5586763581
  0
LINE
  8
0
 62
7
  6
CONTINUOUS
 10
366.1170157839
 20
31.6877311038
 11
366.1170157839
 21
31.8490495359
  0
LINE
  8
0
 62
7
  6
CONTINUOUS
 10
366.648829088
 20
34.8330049227
 11
366.648829088
 21
32.6198901686
  0
LINE
  8
0
 62
7
  6
CONTINUOUS
 10
358.5435780634
 20
31.6554674174
 11
358.4279530651
 21
31.5264126717
  0
LINE
  8
0
 62
7
  6
CONTINUOUS
 10
358.7170155634
 20
31.4941489853
 11
358.7748280496
 21
31.5586763581
  0
LINE
  8
0
 62
7
  6
CONTINUOUS
 10
358.5435780634
 20
31.0101936212
 11
358.6592030565
 21
30.945666237
  0
LINE
  8
0
 62
7
  6
CONTINUOUS
 10
358.9482655496
 20
31.0101936212
 11
358.7748280496
 21
31.106984703
  0
LINE
  8
0
 62
7
  6
CONTINUOUS
 10
364.1513903428
 20
31.6554674174
 11
364.2092032839
 21
31.5909400446
  0
LINE
  8
0
 62
7
  6
CONTINUOUS
 10
367.0998278428
 20
31.5909400446
 11
367.1576407839
 21
31.4296216124
  0
LINE
  8
0
 62
7
  6
CONTINUOUS
 10
367.4467028428
 20
31.4296216124
 11
367.3888905634
 21
31.5909400446
  0
LINE
  8
0
 62
7
  6
CONTINUOUS
 10
367.1576407839
 20
31.4296216124
 11
367.1576407839
 21
30.81661148
  0
LINE
  8
0
 62
7
  6
CONTINUOUS
 10
367.4467028428
 20
30.81661148
 11
367.4467028428
 21
31.4296216124
  0
LINE
  8
0
 62
7
  6
CONTINUOUS
 10
367.9092030634
 20
31.6554674174
 11
367.9092030634
 21
31.5909400446
  0
LINE
  8
0
 62
7
  6
CONTINUOUS
 10
368.0422717109
 20
32.6198901686
 11
368.0422717109
 21
34.7510377095
  0
LINE
  8
0
 62
7
  6
CONTINUOUS
 10
368.3701405634
 20
36.3903819718
 11
368.3701405634
 21
32.6198901686
  0
LINE
  8
0
 62
7
  6
CONTINUOUS
 10
363.0529530634
 20
31.1392483894
 11
363.1107656736
 21
31.2360394487
  0
LINE
  8
0
 62
7
  6
CONTINUOUS
 10
358.6592030565
 20
30.945666237
 11
358.8326405772
 21
30.8811388585
  0
LINE
  8
0
 62
7
  6
CONTINUOUS
 10
360.1623280082
 20
31.6554674174
 11
359.9888905082
 21
31.7522584767
  0
LINE
  8
0
 62
7
  6
CONTINUOUS
 10
362.8217029531
 20
30.9779299347
 11
362.9951404531
 21
30.8811388585
  0
LINE
  8
0
 62
7
  6
CONTINUOUS
 10
361.8388905634
 20
31.6554674174
 11
361.9545154531
 21
31.5909400446
  0
LINE
  8
0
 62
7
  6
CONTINUOUS
 10
362.1857655634
 20
31.6877311038
 11
362.0701406736
 21
31.7522584767
  0
LINE
  8
0
 62
7
  6
CONTINUOUS
 10
367.9092030634
 20
31.074720994
 11
368.0248282839
 21
30.945666237
  0
LINE
  8
0
 62
7
  6
CONTINUOUS
 10
368.2560780634
 20
31.0101936212
 11
368.1982657839
 21
31.074720994
  0
LINE
  8
0
 62
7
  6
CONTINUOUS
 10
367.9092030634
 20
31.5909400446
 11
368.0248282839
 21
31.4618852989
  0
LINE
  8
0
 62
7
  6
CONTINUOUS
 10
367.3888905634
 20
31.5909400446
 11
367.3310782839
 21
31.6877311038
  0
LINE
  8
0
 62
7
  6
CONTINUOUS
 10
369.7592026223
 20
31.0101936212
 11
369.7592026223
 21
31.074720994
  0
LINE
  8
0
 62
7
  6
CONTINUOUS
 10
369.7635831863
 20
32.6198901686
 11
369.7635831863
 21
36.3903819718
  0
LINE
  8
0
 62
7
  6
CONTINUOUS
 10
362.8217029531
 20
31.7199947902
 11
362.7638906736
 21
31.6554674174
  0
LINE
  8
0
 62
7
  6
CONTINUOUS
 10
359.6998280358
 20
31.6877311038
 11
359.8732656185
 21
31.623203731
  0
LINE
  8
0
 62
7
  6
CONTINUOUS
 10
364.4404530634
 20
31.6877311038
 11
364.3248278428
 21
31.7522584767
  0
LINE
  8
0
 62
7
  6
CONTINUOUS
 10
368.2560780634
 20
31.5264126717
 11
368.1982657839
 21
31.5909400446
  0
LINE
  8
0
 62
7
  6
CONTINUOUS
 10
369.4123282839
 20
31.1392483894
 11
369.4701405634
 21
31.074720994
  0
LINE
  8
0
 62
7
  6
CONTINUOUS
 10
369.7592026223
 20
31.074720994
 11
369.6435780634
 21
31.2037757623
  0
LINE
  8
0
 62
7
  6
CONTINUOUS
 10
369.4123282839
 20
31.6554674174
 11
369.4701405634
 21
31.5909400446
  0
LINE
  8
0
 62
7
  6
CONTINUOUS
 10
369.7592026223
 20
31.5909400446
 11
369.6435780634
 21
31.7199947902
  0
LINE
  8
0
 62
7
  6
CONTINUOUS
 10
363.0529530634
 20
31.5909400446
 11
363.1107656736
 21
31.6554674174
  0
LINE
  8
0
 62
7
  6
CONTINUOUS
 10
362.8795155634
 20
31.332830508
 11
362.7638906736
 21
31.2037757623
  0
LINE
  8
0
 62
7
  6
CONTINUOUS
 10
364.2092032839
 20
31.1715120759
 11
364.1513903428
 21
31.106984703
  0
LINE
  8
0
 62
7
  6
CONTINUOUS
 10
364.1513903428
 20
30.9134025506
 11
364.2092032839
 21
30.9779299347
  0
LINE
  8
0
 62
7
  6
CONTINUOUS
 10
362.9951404531
 20
30.8811388585
 11
363.1107656736
 21
30.8488751693
  0
LINE
  8
0
 62
7
  6
CONTINUOUS
 10
359.9888905082
 20
31.7522584767
 11
359.7576405634
 21
31.8167858495
  0
LINE
  8
0
 62
7
  6
CONTINUOUS
 10
363.3420154531
 20
30.945666237
 11
363.1107656736
 21
31.0101936212
  0
LINE
  8
0
 62
7
  6
CONTINUOUS
 10
362.0701406736
 20
31.7522584767
 11
361.8967031736
 21
31.8167858495
  0
LINE
  8
0
 62
7
  6
CONTINUOUS
 10
364.3248278428
 20
31.7522584767
 11
364.1513903428
 21
31.8167858495
  0
LINE
  8
0
 62
7
  6
CONTINUOUS
 10
366.9842032839
 20
31.6554674174
 11
367.0998278428
 21
31.5909400446
  0
LINE
  8
0
 62
7
  6
CONTINUOUS
 10
367.3310782839
 20
31.6877311038
 11
367.2154530634
 21
31.7522584767
  0
LINE
  8
0
 62
7
  6
CONTINUOUS
 10
358.8326405772
 20
30.8811388585
 11
359.0060780772
 21
30.8488751693
  0
LINE
  8
0
 62
7
  6
CONTINUOUS
 10
359.2951405909
 20
30.945666237
 11
358.9482655496
 21
31.0101936212
  0
LINE
  8
0
 62
7
  6
CONTINUOUS
 10
361.7232656736
 20
31.6877311038
 11
361.8388905634
 21
31.6554674174
  0
LINE
  8
0
 62
7
  6
CONTINUOUS
 10
364.0357657839
 20
31.6877311038
 11
364.1513903428
 21
31.6554674174
  0
LINE
  8
0
 62
7
  6
CONTINUOUS
 10
368.3717032839
 20
30.9779299347
 11
368.2560780634
 21
31.0101936212
  0
LINE
  8
0
 62
7
  6
CONTINUOUS
 10
366.8685780634
 20
31.6877311038
 11
366.9842032839
 21
31.6554674174
  0
LINE
  8
0
 62
7
  6
CONTINUOUS
 10
368.0248282839
 20
30.945666237
 11
368.1982657839
 21
30.8811388585
  0
LINE
  8
0
 62
7
  6
CONTINUOUS
 10
367.2154530634
 20
31.7522584767
 11
367.0420155634
 21
31.8167858495
  0
LINE
  8
0
 62
7
  6
CONTINUOUS
 10
368.4295155634
 20
31.4618852989
 11
368.2560780634
 21
31.5264126717
  0
LINE
  8
0
 62
7
  6
CONTINUOUS
 10
369.2388907839
 20
31.2037757623
 11
369.4123282839
 21
31.1392483894
  0
LINE
  8
0
 62
7
  6
CONTINUOUS
 10
369.6435780634
 20
31.7199947902
 11
369.4701405634
 21
31.7845221631
  0
LINE
  8
0
 62
7
  6
CONTINUOUS
 10
368.0248282839
 20
31.4618852989
 11
368.2560780634
 21
31.3650941944
  0
LINE
  8
0
 62
7
  6
CONTINUOUS
 10
369.6435780634
 20
31.2037757623
 11
369.4123282839
 21
31.3005668216
  0
LINE
  8
0
 62
7
  6
CONTINUOUS
 10
368.1982657839
 20
31.5909400446
 11
368.2560780634
 21
31.6554674174
  0
LINE
  8
0
 62
7
  6
CONTINUOUS
 10
358.6592030565
 20
31.7199947902
 11
358.5435780634
 21
31.6554674174
  0
LINE
  8
0
 62
7
  6
CONTINUOUS
 10
358.7748280496
 20
31.5586763581
 11
358.9482655496
 21
31.6554674174
  0
LINE
  8
0
 62
7
  6
CONTINUOUS
 10
361.0873281185
 20
31.7522584767
 11
360.9717030634
 21
31.6877311038
  0
LINE
  8
0
 62
7
  6
CONTINUOUS
 10
360.9717030634
 20
31.5586763581
 11
361.0873281185
 21
31.623203731
  0
LINE
  8
0
 62
7
  6
CONTINUOUS
 10
359.9888905082
 20
30.9134025506
 11
360.1623280082
 21
31.0101936212
  0
LINE
  8
0
 62
7
  6
CONTINUOUS
 10
359.0060780772
 20
30.8488751693
 11
359.3529530358
 21
30.81661148
  0
LINE
  8
0
 62
7
  6
CONTINUOUS
 10
363.1107656736
 20
30.8488751693
 11
363.3420154531
 21
30.81661148
  0
LINE
  8
0
 62
7
  6
CONTINUOUS
 10
361.4920155634
 20
31.7199947902
 11
361.7232656736
 21
31.6877311038
  0
LINE
  8
0
 62
7
  6
CONTINUOUS
 10
363.8045156736
 20
31.7199947902
 11
364.0357657839
 21
31.6877311038
  0
LINE
  8
0
 62
7
  6
CONTINUOUS
 10
368.2560780634
 20
31.3650941944
 11
369.2388907839
 21
31.2037757623
  0
LINE
  8
0
 62
7
  6
CONTINUOUS
 10
369.4123282839
 20
31.3005668216
 11
368.4295155634
 21
31.4618852989
  0
LINE
  8
0
 62
7
  6
CONTINUOUS
 10
361.8967031736
 20
31.8167858495
 11
361.7232656736
 21
31.8490495359
  0
LINE
  8
0
 62
7
  6
CONTINUOUS
 10
368.1982657839
 20
30.8811388585
 11
368.3717032839
 21
30.8488751693
  0
LINE
  8
0
 62
7
  6
CONTINUOUS
 10
367.0420155634
 20
31.8167858495
 11
366.8685780634
 21
31.8490495359
  0
LINE
  8
0
 62
7
  6
CONTINUOUS
 10
369.2967030634
 20
31.6877311038
 11
369.4123282839
 21
31.6554674174
  0
LINE
  8
0
 62
7
  6
CONTINUOUS
 10
369.4701405634
 20
31.074720994
 11
369.4123282839
 21
31.0101936212
  0
LINE
  8
0
 62
7
  6
CONTINUOUS
 10
368.0248282839
 20
31.7522584767
 11
367.9092030634
 21
31.6554674174
  0
LINE
  8
0
 62
7
  6
CONTINUOUS
 10
362.9373281736
 20
31.7845221631
 11
362.8217029531
 21
31.7199947902
  0
LINE
  8
0
 62
7
  6
CONTINUOUS
 10
362.9951404531
 20
31.397357926
 11
362.8795155634
 21
31.332830508
  0
LINE
  8
0
 62
7
  6
CONTINUOUS
 10
363.1107656736
 20
31.2360394487
 11
363.2263905634
 21
31.3005668216
  0
LINE
  8
0
 62
7
  6
CONTINUOUS
 10
360.6826405082
 20
30.81661148
 11
360.9717030634
 21
30.81661148
  0
LINE
  8
0
 62
7
  6
CONTINUOUS
 10
362.0123280634
 20
30.81661148
 11
362.3013904531
 21
30.81661148
  0
LINE
  8
0
 62
7
  6
CONTINUOUS
 10
363.3420154531
 20
30.81661148
 11
363.6888904531
 21
30.81661148
  0
LINE
  8
0
 62
7
  6
CONTINUOUS
 10
364.3248278428
 20
30.81661148
 11
364.6138905634
 21
30.81661148
  0
LINE
  8
0
 62
7
  6
CONTINUOUS
 10
365.0763907839
 20
30.81661148
 11
365.3654528428
 21
30.81661148
  0
LINE
  8
0
 62
7
  6
CONTINUOUS
 10
365.8279530634
 20
30.81661148
 11
366.1170157839
 21
30.81661148
  0
LINE
  8
0
 62
7
  6
CONTINUOUS
 10
367.1576407839
 20
30.81661148
 11
367.4467028428
 21
30.81661148
  0
LINE
  8
0
 62
7
  6
CONTINUOUS
 10
368.7185782839
 20
30.81661148
 11
369.0654532839
 21
30.81661148
  0
LINE
  8
0
 62
7
  6
CONTINUOUS
 10
369.0654532839
 20
30.945666237
 11
368.7185782839
 21
30.945666237
  0
LINE
  8
0
 62
7
  6
CONTINUOUS
 10
363.6888904531
 20
30.945666237
 11
363.3420154531
 21
30.945666237
  0
LINE
  8
0
 62
7
  6
CONTINUOUS
 10
368.1982657839
 20
31.074720994
 11
367.9092030634
 21
31.074720994
  0
LINE
  8
0
 62
7
  6
CONTINUOUS
 10
360.2201406185
 20
31.1392483894
 11
359.9310780634
 21
31.1392483894
  0
LINE
  8
0
 62
7
  6
CONTINUOUS
 10
359.2951405909
 20
31.7199947902
 11
359.6998280358
 21
31.6877311038
  0
LINE
  8
0
 62
7
  6
CONTINUOUS
 10
359.7576405634
 20
31.8167858495
 11
359.3529530358
 21
31.8490495359
  0
LINE
  8
0
 62
7
  6
CONTINUOUS
 10
368.3717032839
 20
30.8488751693
 11
368.7185782839
 21
30.81661148
  0
LINE
  8
0
 62
7
  6
CONTINUOUS
 10
368.7185782839
 20
30.945666237
 11
368.3717032839
 21
30.9779299347
  0
LINE
  8
0
 62
7
  6
CONTINUOUS
 10
364.1513903428
 20
31.8167858495
 11
363.8045156736
 21
31.8490495359
  0
LINE
  8
0
 62
7
  6
CONTINUOUS
 10
368.9498280634
 20
31.7199947902
 11
369.2967030634
 21
31.6877311038
  0
LINE
  8
0
 62
7
  6
CONTINUOUS
 10
369.2967030634
 20
31.8167858495
 11
368.9498280634
 21
31.8490495359
  0
LINE
  8
0
 62
7
  6
CONTINUOUS
 10
366.6373282839
 20
31.7199947902
 11
366.8685780634
 21
31.6877311038
  0
LINE
  8
0
 62
7
  6
CONTINUOUS
 10
369.4701405634
 20
31.7845221631
 11
369.2967030634
 21
31.8167858495
  0
LINE
  8
0
 62
7
  6
CONTINUOUS
 10
369.6435780634
 20
30.9134025506
 11
369.7592026223
 21
31.0101936212
  0
LINE
  8
0
 62
7
  6
CONTINUOUS
 10
364.1513903428
 20
31.106984703
 11
363.9779528428
 21
31.0101936212
  0
LINE
  8
0
 62
7
  6
CONTINUOUS
 10
366.2326403428
 20
31.7522584767
 11
366.1170157839
 21
31.6877311038
  0
LINE
  8
0
 62
7
  6
CONTINUOUS
 10
366.1170157839
 20
31.5586763581
 11
366.2326403428
 21
31.623203731
  0
LINE
  8
0
 62
7
  6
CONTINUOUS
 10
358.8326405772
 20
31.7845221631
 11
358.6592030565
 21
31.7199947902
  0
LINE
  8
0
 62
7
  6
CONTINUOUS
 10
361.2607654531
 20
31.8167858495
 11
361.0873281185
 21
31.7522584767
  0
LINE
  8
0
 62
7
  6
CONTINUOUS
 10
361.0873281185
 20
31.623203731
 11
361.2607654531
 21
31.6877311038
  0
LINE
  8
0
 62
7
  6
CONTINUOUS
 10
359.8732656185
 20
31.0424573076
 11
359.6998280358
 21
30.9779299347
  0
LINE
  8
0
 62
7
  6
CONTINUOUS
 10
369.2967030634
 20
30.9779299347
 11
369.0654532839
 21
30.945666237
  0
LINE
  8
0
 62
7
  6
CONTINUOUS
 10
363.6888904531
 20
30.81661148
 11
363.9779528428
 21
30.8488751693
  0
LINE
  8
0
 62
7
  6
CONTINUOUS
 10
369.0654532839
 20
30.81661148
 11
369.4123282839
 21
30.8488751693
  0
LINE
  8
0
 62
7
  6
CONTINUOUS
 10
359.3529530358
 20
30.81661148
 11
359.7576405634
 21
30.8488751693
  0
LINE
  8
0
 62
7
  6
CONTINUOUS
 10
359.6998280358
 20
30.9779299347
 11
359.2951405909
 21
30.945666237
  0
LINE
  8
0
 62
7
  6
CONTINUOUS
 10
363.5732655634
 20
31.3650941944
 11
364.2092032839
 21
31.3650941944
  0
LINE
  8
0
 62
7
  6
CONTINUOUS
 10
364.2092032839
 20
31.4941489853
 11
363.5732655634
 21
31.4941489853
  0
LINE
  8
0
 62
7
  6
CONTINUOUS
 10
359.9310780634
 20
31.5264126717
 11
360.2201406185
 21
31.5264126717
  0
LINE
  8
0
 62
7
  6
CONTINUOUS
 10
362.7638906736
 20
31.5909400446
 11
363.0529530634
 21
31.5909400446
  0
LINE
  8
0
 62
7
  6
CONTINUOUS
 10
369.4701405634
 20
31.5909400446
 11
369.7592026223
 21
31.5909400446
  0
LINE
  8
0
 62
7
  6
CONTINUOUS
 10
363.4576406736
 20
31.7199947902
 11
363.8045156736
 21
31.7199947902
  0
LINE
  8
0
 62
7
  6
CONTINUOUS
 10
368.6029530634
 20
31.7199947902
 11
368.9498280634
 21
31.7199947902
  0
LINE
  8
0
 62
7
  6
CONTINUOUS
 10
368.9498280634
 20
31.8490495359
 11
368.6029530634
 21
31.8490495359
  0
LINE
  8
0
 62
7
  6
CONTINUOUS
 10
366.8685780634
 20
31.8490495359
 11
366.6373282839
 21
31.8490495359
  0
LINE
  8
0
 62
7
  6
CONTINUOUS
 10
366.1170157839
 20
31.8490495359
 11
365.8279530634
 21
31.8490495359
  0
LINE
  8
0
 62
7
  6
CONTINUOUS
 10
365.3654528428
 20
31.8490495359
 11
365.0763907839
 21
31.8490495359
  0
LINE
  8
0
 62
7
  6
CONTINUOUS
 10
363.8045156736
 20
31.8490495359
 11
363.4576406736
 21
31.8490495359
  0
LINE
  8
0
 62
7
  6
CONTINUOUS
 10
361.7232656736
 20
31.8490495359
 11
361.4920155634
 21
31.8490495359
  0
LINE
  8
0
 62
7
  6
CONTINUOUS
 10
365.0763907839
 20
32.1716864905
 11
365.3654528428
 21
32.1716864905
  0
LINE
  8
0
 62
7
  6
CONTINUOUS
 10
365.3654528428
 20
32.3330049227
 11
365.0763907839
 21
32.3330049227
  0
LINE
  8
0
 62
7
  6
CONTINUOUS
 10
360.9717030634
 20
32.3330049227
 11
360.6826405082
 21
32.3330049227
  0
LINE
  8
0
 62
7
  6
CONTINUOUS
 10
360.0094848257
 20
32.6198901686
 11
360.4220561743
 21
32.6198901686
  0
LINE
  8
0
 62
7
  6
CONTINUOUS
 10
361.648829088
 20
32.6198901686
 11
363.0422717109
 21
32.6198901686
  0
LINE
  8
0
 62
7
  6
CONTINUOUS
 10
363.3701405634
 20
32.6198901686
 11
364.7635831863
 21
32.6198901686
  0
LINE
  8
0
 62
7
  6
CONTINUOUS
 10
366.648829088
 20
32.6198901686
 11
368.0422717109
 21
32.6198901686
  0
LINE
  8
0
 62
7
  6
CONTINUOUS
 10
368.3701405634
 20
32.6198901686
 11
369.7635831863
 21
32.6198901686
  0
LINE
  8
0
 62
7
  6
CONTINUOUS
 10
366.4060778428
 20
31.8167858495
 11
366.2326403428
 21
31.7522584767
  0
LINE
  8
0
 62
7
  6
CONTINUOUS
 10
363.9779528428
 20
30.8488751693
 11
364.1513903428
 21
30.9134025506
  0
LINE
  8
0
 62
7
  6
CONTINUOUS
 10
369.4123282839
 20
30.8488751693
 11
369.6435780634
 21
30.9134025506
  0
LINE
  8
0
 62
7
  6
CONTINUOUS
 10
369.4123282839
 20
31.0101936212
 11
369.2967030634
 21
30.9779299347
  0
LINE
  8
0
 62
7
  6
CONTINUOUS
 10
368.3717032839
 20
31.6877311038
 11
368.6029530634
 21
31.7199947902
  0
LINE
  8
0
 62
7
  6
CONTINUOUS
 10
366.4060778428
 20
31.6877311038
 11
366.6373282839
 21
31.7199947902
  0
LINE
  8
0
 62
7
  6
CONTINUOUS
 10
363.3420154531
 20
31.332830508
 11
363.5732655634
 21
31.3650941944
  0
LINE
  8
0
 62
7
  6
CONTINUOUS
 10
366.6373282839
 20
31.8490495359
 11
366.4060778428
 21
31.8167858495
  0
LINE
  8
0
 62
7
  6
CONTINUOUS
 10
363.2263905634
 20
31.6877311038
 11
363.4576406736
 21
31.7199947902
  0
LINE
  8
0
 62
7
  6
CONTINUOUS
 10
368.6029530634
 20
31.8490495359
 11
368.2560780634
 21
31.8167858495
  0
LINE
  8
0
 62
7
  6
CONTINUOUS
 10
363.5732655634
 20
31.4941489853
 11
363.2263905634
 21
31.4618852989
  0
LINE
  8
0
 62
7
  6
CONTINUOUS
 10
359.3529530358
 20
31.8490495359
 11
359.0060780772
 21
31.8167858495
  0
LINE
  8
0
 62
7
  6
CONTINUOUS
 10
363.4576406736
 20
31.8490495359
 11
363.0529530634
 21
31.8167858495
  0
LINE
  8
0
 62
7
  6
CONTINUOUS
 10
360.8291569568
 20
33.7674311522
 11
360.1734192519
 21
33.7674311522
  0
LINE
  8
0
 62
7
  6
CONTINUOUS
 10
366.2326403428
 20
31.623203731
 11
366.4060778428
 21
31.6877311038
  0
LINE
  8
0
 62
7
  6
CONTINUOUS
 10
368.2560780634
 20
31.6554674174
 11
368.3717032839
 21
31.6877311038
  0
LINE
  8
0
 62
7
  6
CONTINUOUS
 10
368.2560780634
 20
31.8167858495
 11
368.0248282839
 21
31.7522584767
  0
LINE
  8
0
 62
7
  6
CONTINUOUS
 10
363.9779528428
 20
31.0101936212
 11
363.6888904531
 21
30.945666237
  0
LINE
  8
0
 62
7
  6
CONTINUOUS
 10
361.2607654531
 20
31.6877311038
 11
361.4920155634
 21
31.7199947902
  0
LINE
  8
0
 62
7
  6
CONTINUOUS
 10
361.4920155634
 20
31.8490495359
 11
361.2607654531
 21
31.8167858495
  0
LINE
  8
0
 62
7
  6
CONTINUOUS
 10
359.0638905634
 20
31.6877311038
 11
359.2951405909
 21
31.7199947902
  0
LINE
  8
0
 62
7
  6
CONTINUOUS
 10
365.5832553175
 20
35.2428409882
 11
366.2389930224
 21
35.2428409882
  0
LINE
  8
0
 62
7
  6
CONTINUOUS
 10
363.2263905634
 20
31.3005668216
 11
363.3420154531
 21
31.332830508
  0
LINE
  8
0
 62
7
  6
CONTINUOUS
 10
363.2263905634
 20
31.4618852989
 11
362.9951404531
 21
31.397357926
  0
LINE
  8
0
 62
7
  6
CONTINUOUS
 10
363.1107656736
 20
31.6554674174
 11
363.2263905634
 21
31.6877311038
  0
LINE
  8
0
 62
7
  6
CONTINUOUS
 10
359.7576405634
 20
30.8488751693
 11
359.9888905082
 21
30.9134025506
  0
LINE
  8
0
 62
7
  6
CONTINUOUS
 10
363.0529530634
 20
31.8167858495
 11
362.9373281736
 21
31.7845221631
  0
LINE
  8
0
 62
7
  6
CONTINUOUS
 10
359.0060780772
 20
31.8167858495
 11
358.8326405772
 21
31.7845221631
  0
LINE
  8
0
 62
7
  6
CONTINUOUS
 10
369.7635831863
 20
36.3903819718
 11
368.3701405634
 21
36.3903819718
  0
LINE
  8
0
 62
7
  6
CONTINUOUS
 10
366.4029274486
 20
36.3903819718
 11
365.9903561
 21
36.3903819718
  0
LINE
  8
0
 62
7
  6
CONTINUOUS
 10
364.7635831863
 20
36.3903819718
 11
363.3701405634
 21
36.3903819718
  0
LINE
  8
0
 62
7
  6
CONTINUOUS
 10
363.0422717109
 20
36.3903819718
 11
361.648829088
 21
36.3903819718
  0
LINE
  8
0
 62
7
  6
CONTINUOUS
 10
359.7635831863
 20
36.3903819718
 11
358.3701405634
 21
36.3903819718
  0
LINE
  8
0
 62
7
  6
CONTINUOUS
 10
358.9482655496
 20
31.6554674174
 11
359.0638905634
 21
31.6877311038
  0
CIRCLE
  8
0
 62
7
  6
CONTINUOUS
 10
369.0668618749
 20
38.7264475456
 40
2.0901639344
  0
ARC
  8
0
 62
7
  6
CONTINUOUS
 10
360.0094848257
 20
34.2592344308
 40
1.6393442623
 50
180.0
 51
270.0
  0
ARC
  8
0
 62
7
  6
CONTINUOUS
 10
366.4029274486
 20
34.7510377095
 40
1.6393442623
 50
0.0
 51
90.0
  0
ARC
  8
0
 62
7
  6
CONTINUOUS
 10
360.4220561743
 20
34.0953000046
 40
1.4754098361
 50
270.0
 51
326.2510114041
  0
ARC
  8
0
 62
7
  6
CONTINUOUS
 10
365.9903561
 20
34.9149721358
 40
1.4754098361
 50
90.0
 51
146.2510114041
  0
ARC
  8
0
 62
7
  6
CONTINUOUS
 10
360.8291569568
 20
34.5871032833
 40
0.8196721311
 50
270.0
 51
360.0
  0
ARC
  8
0
 62
7
  6
CONTINUOUS
 10
365.5832553175
 20
34.4231688571
 40
0.8196721311
 50
90.0
 51
180.0
  0
ARC
  8
0
 62
7
  6
CONTINUOUS
 10
360.1734192519
 20
34.1772672177
 40
0.4098360656
 50
180.0
 51
270.0
  0
ARC
  8
0
 62
7
  6
CONTINUOUS
 10
366.2389930224
 20
34.8330049227
 40
0.4098360656
 50
0.0
 51
90.0
  0
SOLID
  8
0
 62
7
  6
CONTINUOUS
 10
365.0763907839
 20
32.1716868508
 11
365.0763907839
 21
32.3330053344
 12
365.3654528428
 22
32.1716868508
 13
365.3654528428
 23
32.3330053344
  0
SOLID
  8
0
 62
7
  6
CONTINUOUS
 10
359.3529530358
 20
31.8490498836
 11
359.7576405634
 21
31.8167854792
 12
359.0060780772
 22
31.8167854792
 13
359.0060780772
 23
31.8167854792
  0
SOLID
  8
0
 62
7
  6
CONTINUOUS
 10
358.8326405772
 20
31.7845227934
 11
359.0060780772
 21
31.8167854792
 12
359.7576405634
 22
31.8167854792
 13
359.7576405634
 23
31.8167854792
  0
SOLID
  8
0
 62
7
  6
CONTINUOUS
 10
359.7576405634
 20
31.8167854792
 11
359.9888905082
 21
31.7522584901
 12
358.8326405772
 22
31.7845227934
 13
358.8326405772
 23
31.7845227934
  0
SOLID
  8
0
 62
7
  6
CONTINUOUS
 10
358.6592030565
 20
31.7199940664
 11
358.8326405772
 21
31.7845227934
 12
359.9888905082
 22
31.7522584901
 13
359.9888905082
 23
31.7522584901
  0
SOLID
  8
0
 62
7
  6
CONTINUOUS
 10
358.6592030565
 20
31.7199940664
 11
359.9888905082
 21
31.7522584901
 12
359.2951405909
 22
31.7199940664
 13
359.2951405909
 23
31.7199940664
  0
SOLID
  8
0
 62
7
  6
CONTINUOUS
 10
359.2951405909
 20
31.7199940664
 11
359.9888905082
 21
31.7522584901
 12
359.6998280358
 22
31.6877314
 13
359.6998280358
 23
31.6877314
  0
SOLID
  8
0
 62
7
  6
CONTINUOUS
 10
359.9888905082
 20
31.7522584901
 11
360.1623280082
 21
31.6554670967
 12
359.6998280358
 22
31.6877314
 13
359.6998280358
 23
31.6877314
  0
SOLID
  8
0
 62
7
  6
CONTINUOUS
 10
359.8732656185
 20
31.6232043098
 11
359.6998280358
 21
31.6877314
 12
360.1623280082
 22
31.6554670967
 13
360.1623280082
 23
31.6554670967
  0
SOLID
  8
0
 62
7
  6
CONTINUOUS
 10
359.8732656185
 20
31.6232043098
 11
360.1623280082
 21
31.6554670967
 12
359.9310780634
 22
31.5264128539
 13
359.9310780634
 23
31.5264128539
  0
SOLID
  8
0
 62
7
  6
CONTINUOUS
 10
360.1623280082
 20
31.6554670967
 11
360.2201406185
 21
31.5264128539
 12
359.9310780634
 22
31.5264128539
 13
359.9310780634
 23
31.5264128539
  0
SOLID
  8
0
 62
7
  6
CONTINUOUS
 10
361.2607654531
 20
31.8167852459
 11
361.4920155634
 21
31.8490495492
 12
361.7232656736
 22
31.8490495492
 13
361.7232656736
 23
31.8490495492
  0
SOLID
  8
0
 62
7
  6
CONTINUOUS
 10
361.7232656736
 20
31.8490495492
 11
361.8967031736
 21
31.8167852459
 12
361.2607654531
 22
31.8167852459
 13
361.2607654531
 23
31.8167852459
  0
SOLID
  8
0
 62
7
  6
CONTINUOUS
 10
361.0873281185
 20
31.7522581557
 11
361.2607654531
 21
31.8167852459
 12
361.8967031736
 22
31.8167852459
 13
361.8967031736
 23
31.8167852459
  0
SOLID
  8
0
 62
7
  6
CONTINUOUS
 10
361.8967031736
 20
31.8167852459
 11
362.0701406736
 21
31.7522581557
 12
361.0873281185
 22
31.7522581557
 13
361.0873281185
 23
31.7522581557
  0
SOLID
  8
0
 62
7
  6
CONTINUOUS
 10
362.0701406736
 20
31.7522581557
 11
361.4920155634
 21
31.7199941869
 12
361.0873281185
 22
31.7522581557
 13
361.0873281185
 23
31.7522581557
  0
SOLID
  8
0
 62
7
  6
CONTINUOUS
 10
360.9717030634
 20
31.6877310656
 11
361.0873281185
 21
31.7522581557
 12
361.4920155634
 22
31.7199941869
 13
361.4920155634
 23
31.7199941869
  0
SOLID
  8
0
 62
7
  6
CONTINUOUS
 10
361.4920155634
 20
31.7199941869
 11
361.2607654531
 21
31.6877310656
 12
360.9717030634
 22
31.6877310656
 13
360.9717030634
 23
31.6877310656
  0
SOLID
  8
0
 62
7
  6
CONTINUOUS
 10
361.4920155634
 20
31.7199941869
 11
362.0701406736
 21
31.7522581557
 12
361.7232656736
 22
31.6877310656
 13
361.7232656736
 23
31.6877310656
  0
SOLID
  8
0
 62
7
  6
CONTINUOUS
 10
362.0701406736
 20
31.7522581557
 11
362.1857655634
 21
31.6877310656
 12
361.7232656736
 22
31.6877310656
 13
361.7232656736
 23
31.6877310656
  0
SOLID
  8
0
 62
7
  6
CONTINUOUS
 10
361.8388905634
 20
31.6554670967
 11
361.7232656736
 21
31.6877310656
 12
362.1857655634
 22
31.6877310656
 13
362.1857655634
 23
31.6877310656
  0
SOLID
  8
0
 62
7
  6
CONTINUOUS
 10
362.1857655634
 20
31.6877310656
 11
362.2435781736
 21
31.6232039754
 12
361.8388905634
 22
31.6554670967
 13
361.8388905634
 23
31.6554670967
  0
SOLID
  8
0
 62
7
  6
CONTINUOUS
 10
361.9545154531
 20
31.5909400065
 11
361.8388905634
 21
31.6554670967
 12
362.2435781736
 22
31.6232039754
 13
362.2435781736
 23
31.6232039754
  0
SOLID
  8
0
 62
7
  6
CONTINUOUS
 10
361.9545154531
 20
31.5909400065
 11
362.2435781736
 21
31.6232039754
 12
362.0123280634
 22
31.4618854918
 13
362.0123280634
 23
31.4618854918
  0
SOLID
  8
0
 62
7
  6
CONTINUOUS
 10
362.2435781736
 20
31.6232039754
 11
362.3013904531
 21
31.4618854918
 12
362.0123280634
 22
31.4618854918
 13
362.0123280634
 23
31.4618854918
  0
SOLID
  8
0
 62
7
  6
CONTINUOUS
 10
361.2607654531
 20
31.6877310656
 11
361.0873281185
 21
31.6232039754
 12
360.9717030634
 22
31.6877310656
 13
360.9717030634
 23
31.6877310656
  0
SOLID
  8
0
 62
7
  6
CONTINUOUS
 10
361.0873281185
 20
31.6232039754
 11
360.9717030634
 21
31.5586757033
 12
360.9717030634
 22
31.6877310656
 13
360.9717030634
 23
31.6877310656
  0
SOLID
  8
0
 62
7
  6
CONTINUOUS
 10
360.9717030634
 20
31.5586757033
 11
360.6826405082
 21
30.8166115574
 12
360.9717030634
 22
31.6877310656
 13
360.9717030634
 23
31.6877310656
  0
SOLID
  8
0
 62
7
  6
CONTINUOUS
 10
360.9717030634
 20
31.6877310656
 11
360.6826405082
 21
30.8166115574
 12
360.9717030634
 22
32.333005
 13
360.9717030634
 23
32.333005
  0
SOLID
  8
0
 62
7
  6
CONTINUOUS
 10
360.6826405082
 20
30.8166115574
 11
360.6826405082
 21
32.333005
 12
360.9717030634
 22
32.333005
 13
360.9717030634
 23
32.333005
  0
SOLID
  8
0
 62
7
  6
CONTINUOUS
 10
360.9717030634
 20
31.5586757033
 11
360.9717030634
 21
30.8166115574
 12
360.6826405082
 22
30.8166115574
 13
360.6826405082
 23
30.8166115574
  0
SOLID
  8
0
 62
7
  6
CONTINUOUS
 10
362.0123280634
 20
30.8166115574
 11
362.0123280634
 21
31.4618854918
 12
362.3013904531
 22
31.4618854918
 13
362.3013904531
 23
31.4618854918
  0
SOLID
  8
0
 62
7
  6
CONTINUOUS
 10
362.3013904531
 20
31.4618854918
 11
362.3013904531
 21
30.8166115574
 12
362.0123280634
 22
30.8166115574
 13
362.0123280634
 23
30.8166115574
  0
SOLID
  8
0
 62
7
  6
CONTINUOUS
 10
363.0529530634
 20
31.8167856315
 11
363.4576406736
 21
31.8490496243
 12
363.8045156736
 22
31.8490496243
 13
363.8045156736
 23
31.8490496243
  0
SOLID
  8
0
 62
7
  6
CONTINUOUS
 10
363.8045156736
 20
31.8490496243
 11
364.1513903428
 21
31.8167856315
 12
363.0529530634
 22
31.8167856315
 13
363.0529530634
 23
31.8167856315
  0
SOLID
  8
0
 62
7
  6
CONTINUOUS
 10
362.9373281736
 20
31.7845227934
 11
363.0529530634
 21
31.8167856315
 12
364.1513903428
 22
31.8167856315
 13
364.1513903428
 23
31.8167856315
  0
SOLID
  8
0
 62
7
  6
CONTINUOUS
 10
364.1513903428
 20
31.8167856315
 11
364.3248278428
 21
31.7522584901
 12
362.9373281736
 22
31.7845227934
 13
362.9373281736
 23
31.7845227934
  0
SOLID
  8
0
 62
7
  6
CONTINUOUS
 10
362.8217029531
 20
31.7199944276
 11
362.9373281736
 21
31.7845227934
 12
364.3248278428
 22
31.7522584901
 13
364.3248278428
 23
31.7522584901
  0
SOLID
  8
0
 62
7
  6
CONTINUOUS
 10
362.8217029531
 20
31.7199944276
 11
364.3248278428
 21
31.7522584901
 12
363.4576406736
 22
31.7199944276
 13
363.4576406736
 23
31.7199944276
  0
SOLID
  8
0
 62
7
  6
CONTINUOUS
 10
363.4576406736
 20
31.7199944276
 11
364.3248278428
 21
31.7522584901
 12
363.8045156736
 22
31.7199944276
 13
363.8045156736
 23
31.7199944276
  0
SOLID
  8
0
 62
7
  6
CONTINUOUS
 10
363.8045156736
 20
31.7199944276
 11
364.3248278428
 21
31.7522584901
 12
364.0357657839
 22
31.6877312092
 13
364.0357657839
 23
31.6877312092
  0
SOLID
  8
0
 62
7
  6
CONTINUOUS
 10
364.3248278428
 20
31.7522584901
 11
364.4404530634
 21
31.6877312092
 12
364.0357657839
 22
31.6877312092
 13
364.0357657839
 23
31.6877312092
  0
SOLID
  8
0
 62
7
  6
CONTINUOUS
 10
362.7638906736
 20
31.6554672165
 11
362.8217029531
 21
31.7199944276
 12
363.4576406736
 22
31.7199944276
 13
363.4576406736
 23
31.7199944276
  0
SOLID
  8
0
 62
7
  6
CONTINUOUS
 10
364.1513903428
 20
31.6554672165
 11
364.0357657839
 21
31.6877312092
 12
364.4404530634
 22
31.6877312092
 13
364.4404530634
 23
31.6877312092
  0
SOLID
  8
0
 62
7
  6
CONTINUOUS
 10
364.1513903428
 20
31.6554672165
 11
364.4404530634
 21
31.6877312092
 12
364.2092032839
 22
31.5909400053
 13
364.2092032839
 23
31.5909400053
  0
SOLID
  8
0
 62
7
  6
CONTINUOUS
 10
364.4404530634
 20
31.6877312092
 11
364.4982653428
 21
31.5909400053
 12
364.2092032839
 22
31.5909400053
 13
364.2092032839
 23
31.5909400053
  0
SOLID
  8
0
 62
7
  6
CONTINUOUS
 10
364.2092032839
 20
31.4941486131
 11
364.2092032839
 21
31.5909400053
 12
364.4982653428
 22
31.5909400053
 13
364.4982653428
 23
31.5909400053
  0
SOLID
  8
0
 62
7
  6
CONTINUOUS
 10
364.2092032839
 20
31.4941486131
 11
364.4982653428
 21
31.5909400053
 12
364.2092032839
 22
31.3650944328
 13
364.2092032839
 23
31.3650944328
  0
SOLID
  8
0
 62
7
  6
CONTINUOUS
 10
364.2092032839
 20
31.3650944328
 11
364.4982653428
 21
31.5909400053
 12
364.2092032839
 22
31.1715120759
 13
364.2092032839
 23
31.1715120759
  0
SOLID
  8
0
 62
7
  6
CONTINUOUS
 10
364.4982653428
 20
31.5909400053
 11
364.4982653428
 21
31.0747202524
 12
364.2092032839
 22
31.1715120759
 13
364.2092032839
 23
31.1715120759
  0
SOLID
  8
0
 62
7
  6
CONTINUOUS
 10
366.4060778428
 20
31.8167851023
 11
366.6373282839
 21
31.849049822
 12
366.8685780634
 22
31.849049822
 13
366.8685780634
 23
31.849049822
  0
SOLID
  8
0
 62
7
  6
CONTINUOUS
 10
366.8685780634
 20
31.849049822
 11
367.0420155634
 21
31.8167851023
 12
366.4060778428
 22
31.8167851023
 13
366.4060778428
 23
31.8167851023
  0
SOLID
  8
0
 62
7
  6
CONTINUOUS
 10
366.2326403428
 20
31.7522587602
 11
366.4060778428
 21
31.8167851023
 12
367.0420155634
 22
31.8167851023
 13
367.0420155634
 23
31.8167851023
  0
SOLID
  8
0
 62
7
  6
CONTINUOUS
 10
367.0420155634
 20
31.8167851023
 11
367.2154530634
 21
31.7522587602
 12
366.2326403428
 22
31.7522587602
 13
366.2326403428
 23
31.7522587602
  0
SOLID
  8
0
 62
7
  6
CONTINUOUS
 10
367.2154530634
 20
31.7522587602
 11
366.6373282839
 21
31.7199941869
 12
366.2326403428
 22
31.7522587602
 13
366.2326403428
 23
31.7522587602
  0
SOLID
  8
0
 62
7
  6
CONTINUOUS
 10
366.1170157839
 20
31.6877313857
 11
366.2326403428
 21
31.7522587602
 12
366.6373282839
 22
31.7199941869
 13
366.6373282839
 23
31.7199941869
  0
SOLID
  8
0
 62
7
  6
CONTINUOUS
 10
366.6373282839
 20
31.7199941869
 11
366.4060778428
 21
31.6877313857
 12
366.1170157839
 22
31.6877313857
 13
366.1170157839
 23
31.6877313857
  0
SOLID
  8
0
 62
7
  6
CONTINUOUS
 10
366.6373282839
 20
31.7199941869
 11
367.2154530634
 21
31.7522587602
 12
366.8685780634
 22
31.6877313857
 13
366.8685780634
 23
31.6877313857
  0
SOLID
  8
0
 62
7
  6
CONTINUOUS
 10
367.2154530634
 20
31.7522587602
 11
367.3310782839
 21
31.6877313857
 12
366.8685780634
 22
31.6877313857
 13
366.8685780634
 23
31.6877313857
  0
SOLID
  8
0
 62
7
  6
CONTINUOUS
 10
366.9842032839
 20
31.6554670967
 11
366.8685780634
 21
31.6877313857
 12
367.3310782839
 22
31.6877313857
 13
367.3310782839
 23
31.6877313857
  0
SOLID
  8
0
 62
7
  6
CONTINUOUS
 10
366.9842032839
 20
31.6554670967
 11
367.3310782839
 21
31.6877313857
 12
367.0998278428
 22
31.590940324
 13
367.0998278428
 23
31.590940324
  0
SOLID
  8
0
 62
7
  6
CONTINUOUS
 10
367.3310782839
 20
31.6877313857
 11
367.3888905634
 21
31.590940324
 12
367.0998278428
 22
31.590940324
 13
367.0998278428
 23
31.590940324
  0
SOLID
  8
0
 62
7
  6
CONTINUOUS
 10
367.1576407839
 20
31.4296218878
 11
367.0998278428
 21
31.590940324
 12
367.3888905634
 22
31.590940324
 13
367.3888905634
 23
31.590940324
  0
SOLID
  8
0
 62
7
  6
CONTINUOUS
 10
367.3888905634
 20
31.590940324
 11
367.4467028428
 21
31.4296218878
 12
367.1576407839
 22
31.4296218878
 13
367.1576407839
 23
31.4296218878
  0
SOLID
  8
0
 62
7
  6
CONTINUOUS
 10
366.4060778428
 20
31.6877313857
 11
366.2326403428
 21
31.6232043098
 12
366.1170157839
 22
31.6877313857
 13
366.1170157839
 23
31.6877313857
  0
SOLID
  8
0
 62
7
  6
CONTINUOUS
 10
366.2326403428
 20
31.6232043098
 11
366.1170157839
 21
31.5586757033
 12
366.1170157839
 22
31.6877313857
 13
366.1170157839
 23
31.6877313857
  0
SOLID
  8
0
 62
7
  6
CONTINUOUS
 10
366.1170157839
 20
31.5586757033
 11
365.8279530634
 21
30.8166118302
 12
366.1170157839
 22
31.6877313857
 13
366.1170157839
 23
31.6877313857
  0
SOLID
  8
0
 62
7
  6
CONTINUOUS
 10
366.1170157839
 20
31.6877313857
 11
365.8279530634
 21
30.8166118302
 12
366.1170157839
 22
31.849049822
 13
366.1170157839
 23
31.849049822
  0
SOLID
  8
0
 62
7
  6
CONTINUOUS
 10
365.8279530634
 20
30.8166118302
 11
365.8279530634
 21
31.849049822
 12
366.1170157839
 22
31.849049822
 13
366.1170157839
 23
31.849049822
  0
SOLID
  8
0
 62
7
  6
CONTINUOUS
 10
366.1170157839
 20
31.5586757033
 11
366.1170157839
 21
30.8166118302
 12
365.8279530634
 22
30.8166118302
 13
365.8279530634
 23
30.8166118302
  0
SOLID
  8
0
 62
7
  6
CONTINUOUS
 10
367.1576407839
 20
30.8166118302
 11
367.1576407839
 21
31.4296218878
 12
367.4467028428
 22
31.4296218878
 13
367.4467028428
 23
31.4296218878
  0
SOLID
  8
0
 62
7
  6
CONTINUOUS
 10
367.4467028428
 20
31.4296218878
 11
367.4467028428
 21
30.8166118302
 12
367.1576407839
 22
30.8166118302
 13
367.1576407839
 23
30.8166118302
  0
SOLID
  8
0
 62
7
  6
CONTINUOUS
 10
368.2560780634
 20
31.8167856056
 11
368.6029530634
 21
31.8490498552
 12
368.9498280634
 22
31.8490498552
 13
368.9498280634
 23
31.8490498552
  0
SOLID
  8
0
 62
7
  6
CONTINUOUS
 10
368.9498280634
 20
31.8490498552
 11
369.2967030634
 21
31.8167856056
 12
368.2560780634
 22
31.8167856056
 13
368.2560780634
 23
31.8167856056
  0
SOLID
  8
0
 62
7
  6
CONTINUOUS
 10
368.0248282839
 20
31.7522584901
 11
368.2560780634
 21
31.8167856056
 12
369.2967030634
 22
31.8167856056
 13
369.2967030634
 23
31.8167856056
  0
SOLID
  8
0
 62
7
  6
CONTINUOUS
 10
368.0248282839
 20
31.7522584901
 11
369.2967030634
 21
31.8167855803
 12
369.4701405634
 22
31.7845227934
 13
369.4701405634
 23
31.7845227934
  0
SOLID
  8
0
 62
7
  6
CONTINUOUS
 10
368.0248282839
 20
31.7522584901
 11
369.4701405634
 21
31.7845227934
 12
368.6029530634
 22
31.7199941235
 13
368.6029530634
 23
31.7199941235
  0
SOLID
  8
0
 62
7
  6
CONTINUOUS
 10
368.6029530634
 20
31.7199941235
 11
369.4701405634
 21
31.7845227934
 12
368.9498280634
 22
31.7199941235
 13
368.9498280634
 23
31.7199941235
  0
SOLID
  8
0
 62
7
  6
CONTINUOUS
 10
369.4701405634
 20
31.7845227934
 11
369.6435780634
 21
31.7199941235
 12
368.9498280634
 22
31.7199941235
 13
368.9498280634
 23
31.7199941235
  0
SOLID
  8
0
 62
7
  6
CONTINUOUS
 10
369.2967030634
 20
31.6877314
 11
368.9498280634
 21
31.7199941235
 12
369.6435780634
 22
31.7199941235
 13
369.6435780634
 23
31.7199941235
  0
SOLID
  8
0
 62
7
  6
CONTINUOUS
 10
367.9092030634
 20
31.6554671071
 11
368.0248282839
 21
31.7522584901
 12
368.6029530634
 22
31.7199941235
 13
368.6029530634
 23
31.7199941235
  0
SOLID
  8
0
 62
7
  6
CONTINUOUS
 10
369.2967030634
 20
31.6877314
 11
369.6435780634
 21
31.7199941235
 12
369.4123282839
 22
31.6554671071
 13
369.4123282839
 23
31.6554671071
  0
SOLID
  8
0
 62
7
  6
CONTINUOUS
 10
369.4123282839
 20
31.6554671071
 11
369.6435780634
 21
31.7199941235
 12
369.4701405634
 22
31.5909400907
 13
369.4701405634
 23
31.5909400907
  0
SOLID
  8
0
 62
7
  6
CONTINUOUS
 10
369.6435780634
 20
31.7199941235
 11
369.7592026223
 21
31.5909400907
 12
369.4701405634
 22
31.5909400907
 13
369.4701405634
 23
31.5909400907
  0
SOLID
  8
0
 62
7
  6
CONTINUOUS
 10
359.0638905634
 20
31.6877314
 11
358.5435780634
 21
31.6554670789
 12
359.2951405909
 22
31.7199941045
 13
359.2951405909
 23
31.7199941045
  0
SOLID
  8
0
 62
7
  6
CONTINUOUS
 10
358.5435780634
 20
31.6554670789
 11
358.6592030565
 21
31.7199941045
 12
359.2951405909
 22
31.7199941045
 13
359.2951405909
 23
31.7199941045
  0
SOLID
  8
0
 62
7
  6
CONTINUOUS
 10
359.0638905634
 20
31.6877314
 11
358.9482655496
 21
31.6554670789
 12
358.5435780634
 22
31.6554670789
 13
358.5435780634
 23
31.6554670789
  0
SOLID
  8
0
 62
7
  6
CONTINUOUS
 10
358.4279530651
 20
31.5264129164
 11
358.5435780634
 21
31.6554670789
 12
358.9482655496
 22
31.6554670789
 13
358.9482655496
 23
31.6554670789
  0
SOLID
  8
0
 62
7
  6
CONTINUOUS
 10
362.7638906736
 20
31.6554670789
 11
363.4576406736
 21
31.7199941869
 12
363.2263905634
 22
31.6877314
 13
363.2263905634
 23
31.6877314
  0
SOLID
  8
0
 62
7
  6
CONTINUOUS
 10
363.2263905634
 20
31.6877314
 11
363.1107656736
 21
31.6554670789
 12
362.7638906736
 22
31.6554670789
 13
362.7638906736
 23
31.6554670789
  0
SOLID
  8
0
 62
7
  6
CONTINUOUS
 10
362.7638906736
 20
31.5909399887
 11
362.7638906736
 21
31.6554670789
 12
363.1107656736
 22
31.6554670789
 13
363.1107656736
 23
31.6554670789
  0
SOLID
  8
0
 62
7
  6
CONTINUOUS
 10
363.1107656736
 20
31.6554670789
 11
363.0529530634
 21
31.5909399887
 12
362.7638906736
 22
31.5909399887
 13
362.7638906736
 23
31.5909399887
  0
SOLID
  8
0
 62
7
  6
CONTINUOUS
 10
367.9092030634
 20
31.6554670789
 11
368.6029530634
 21
31.7199941869
 12
368.3717032839
 22
31.6877314
 13
368.3717032839
 23
31.6877314
  0
SOLID
  8
0
 62
7
  6
CONTINUOUS
 10
368.3717032839
 20
31.6877314
 11
368.2560780634
 21
31.6554670789
 12
367.9092030634
 22
31.6554670789
 13
367.9092030634
 23
31.6554670789
  0
SOLID
  8
0
 62
7
  6
CONTINUOUS
 10
367.9092030634
 20
31.5909399887
 11
367.9092030634
 21
31.6554670789
 12
368.2560780634
 22
31.6554670789
 13
368.2560780634
 23
31.6554670789
  0
SOLID
  8
0
 62
7
  6
CONTINUOUS
 10
368.2560780634
 20
31.6554670789
 11
368.1982657839
 21
31.5909399887
 12
367.9092030634
 22
31.5909399887
 13
367.9092030634
 23
31.5909399887
  0
SOLID
  8
0
 62
7
  6
CONTINUOUS
 10
368.0248282839
 20
31.4618858262
 11
367.9092030634
 21
31.5909399887
 12
368.1982657839
 22
31.5909399887
 13
368.1982657839
 23
31.5909399887
  0
SOLID
  8
0
 62
7
  6
CONTINUOUS
 10
358.4279530651
 20
31.5264129164
 11
358.9482655496
 21
31.6554670967
 12
358.7748280496
 22
31.5586757033
 13
358.7748280496
 23
31.5586757033
  0
SOLID
  8
0
 62
7
  6
CONTINUOUS
 10
358.7748280496
 20
31.5586757033
 11
358.7170155634
 21
31.4941486131
 12
358.4279530651
 22
31.5264129164
 13
358.4279530651
 23
31.5264129164
  0
SOLID
  8
0
 62
7
  6
CONTINUOUS
 10
358.3701405634
 20
31.3328301295
 11
358.4279530651
 21
31.5264129164
 12
358.7170155634
 22
31.4941486131
 13
358.7170155634
 23
31.4941486131
  0
SOLID
  8
0
 62
7
  6
CONTINUOUS
 10
363.2263905634
 20
31.4618858262
 11
363.5732655634
 21
31.4941485791
 12
364.2092032839
 22
31.4941485791
 13
364.2092032839
 23
31.4941485791
  0
SOLID
  8
0
 62
7
  6
CONTINUOUS
 10
363.2263905634
 20
31.4618858262
 11
364.2092032839
 21
31.4941485791
 12
362.9951404531
 22
31.397357926
 13
362.9951404531
 23
31.397357926
  0
SOLID
  8
0
 62
7
  6
CONTINUOUS
 10
362.9951404531
 20
31.397357926
 11
364.2092032839
 21
31.4941485791
 12
363.5732655634
 22
31.3650943988
 13
363.5732655634
 23
31.3650943988
  0
SOLID
  8
0
 62
7
  6
CONTINUOUS
 10
364.2092032839
 20
31.4941485791
 11
364.2092032839
 21
31.3650943988
 12
363.5732655634
 22
31.3650943988
 13
363.5732655634
 23
31.3650943988
  0
SOLID
  8
0
 62
7
  6
CONTINUOUS
 10
368.0248282839
 20
31.4618859165
 11
368.1982657839
 21
31.5909400065
 12
368.2560780634
 22
31.5264129164
 13
368.2560780634
 23
31.5264129164
  0
SOLID
  8
0
 62
7
  6
CONTINUOUS
 10
368.2560780634
 20
31.5264129164
 11
368.4295155634
 21
31.4618859165
 12
368.0248282839
 22
31.4618859165
 13
368.0248282839
 23
31.4618859165
  0
SOLID
  8
0
 62
7
  6
CONTINUOUS
 10
368.2560780634
 20
31.3650944328
 11
368.0248282839
 21
31.4618859165
 12
368.4295155634
 22
31.4618859165
 13
368.4295155634
 23
31.4618859165
  0
SOLID
  8
0
 62
7
  6
CONTINUOUS
 10
368.4295155634
 20
31.4618859165
 11
369.4123282839
 21
31.3005673426
 12
368.2560780634
 22
31.3650944328
 13
368.2560780634
 23
31.3650944328
  0
SOLID
  8
0
 62
7
  6
CONTINUOUS
 10
369.2388907839
 20
31.2037760287
 11
368.2560780634
 21
31.3650944328
 12
369.4123282839
 22
31.3005673426
 13
369.4123282839
 23
31.3005673426
  0
SOLID
  8
0
 62
7
  6
CONTINUOUS
 10
369.4123282839
 20
31.3005673426
 11
369.6435780634
 21
31.2037760287
 12
369.2388907839
 22
31.2037760287
 13
369.2388907839
 23
31.2037760287
  0
SOLID
  8
0
 62
7
  6
CONTINUOUS
 10
369.4123282839
 20
31.139248859
 11
369.2388907839
 21
31.2037760287
 12
369.6435780634
 22
31.2037760287
 13
369.6435780634
 23
31.2037760287
  0
SOLID
  8
0
 62
7
  6
CONTINUOUS
 10
369.4123282839
 20
31.139248859
 11
369.6435780634
 21
31.2037760287
 12
369.4701405634
 22
31.0747203105
 13
369.4701405634
 23
31.0747203105
  0
SOLID
  8
0
 62
7
  6
CONTINUOUS
 10
369.6435780634
 20
31.2037760287
 11
369.7592026223
 21
31.0747203105
 12
369.4701405634
 22
31.0747203105
 13
369.4701405634
 23
31.0747203105
  0
SOLID
  8
0
 62
7
  6
CONTINUOUS
 10
369.4123282839
 20
31.0101932257
 11
369.4701405634
 21
31.0747203105
 12
369.7592026223
 22
31.0747203105
 13
369.7592026223
 23
31.0747203105
  0
SOLID
  8
0
 62
7
  6
CONTINUOUS
 10
369.7592026223
 20
31.0747203105
 11
369.7592026223
 21
31.0101932257
 12
369.4123282839
 22
31.0101932257
 13
369.4123282839
 23
31.0101932257
  0
SOLID
  8
0
 62
7
  6
CONTINUOUS
 10
369.2967030634
 20
30.9779303754
 11
369.4123282839
 21
31.0101932257
 12
369.7592026223
 22
31.0101932257
 13
369.7592026223
 23
31.0101932257
  0
SOLID
  8
0
 62
7
  6
CONTINUOUS
 10
369.2967030634
 20
30.9779303754
 11
369.7592026223
 21
31.0101932257
 12
369.0654532839
 22
30.9456661409
 13
369.0654532839
 23
30.9456661409
  0
SOLID
  8
0
 62
7
  6
CONTINUOUS
 10
369.7592026223
 20
31.0101932257
 11
369.6435780634
 21
30.9134032852
 12
369.0654532839
 22
30.9456661409
 13
369.0654532839
 23
30.9456661409
  0
SOLID
  8
0
 62
7
  6
CONTINUOUS
 10
369.6435780634
 20
30.9134032852
 11
368.1982657839
 21
30.8811389819
 12
369.0654532839
 22
30.9456661409
 13
369.0654532839
 23
30.9456661409
  0
SOLID
  8
0
 62
7
  6
CONTINUOUS
 10
369.0654532839
 20
30.9456661409
 11
368.1982657839
 21
30.8811389819
 12
368.7185782839
 22
30.9456661409
 13
368.7185782839
 23
30.9456661409
  0
SOLID
  8
0
 62
7
  6
CONTINUOUS
 10
368.1982657839
 20
30.8811389819
 11
368.0248282839
 21
30.9456661409
 12
368.7185782839
 22
30.9456661409
 13
368.7185782839
 23
30.9456661409
  0
SOLID
  8
0
 62
7
  6
CONTINUOUS
 10
368.1982657839
 20
30.8811389819
 11
369.6435780634
 21
30.9134032852
 12
368.3717032839
 22
30.8488743522
 13
368.3717032839
 23
30.8488743522
  0
SOLID
  8
0
 62
7
  6
CONTINUOUS
 10
369.6435780634
 20
30.9134032852
 11
369.4123282839
 21
30.8488743522
 12
368.3717032839
 22
30.8488743522
 13
368.3717032839
 23
30.8488743522
  0
SOLID
  8
0
 62
7
  6
CONTINUOUS
 10
368.7185782839
 20
30.8166119713
 11
368.3717032839
 21
30.8488743522
 12
369.4123282839
 22
30.8488743522
 13
369.4123282839
 23
30.8488743522
  0
SOLID
  8
0
 62
7
  6
CONTINUOUS
 10
369.4123282839
 20
30.8488743522
 11
369.0654532839
 21
30.8166119713
 12
368.7185782839
 22
30.8166119713
 13
368.7185782839
 23
30.8166119713
  0
SOLID
  8
0
 62
7
  6
CONTINUOUS
 10
358.3701405634
 20
31.3328301295
 11
358.7170155634
 21
31.4941486131
 12
358.6592030565
 22
31.3650944328
 13
358.6592030565
 23
31.3650944328
  0
SOLID
  8
0
 62
7
  6
CONTINUOUS
 10
358.6592030565
 20
31.3650944328
 11
358.6592030565
 21
31.2683031351
 12
358.3701405634
 22
31.3328301295
 13
358.3701405634
 23
31.3328301295
  0
SOLID
  8
0
 62
7
  6
CONTINUOUS
 10
358.4279530651
 20
31.139248859
 11
358.3701405634
 21
31.3328301295
 12
358.6592030565
 22
31.2683031351
 13
358.6592030565
 23
31.2683031351
  0
SOLID
  8
0
 62
7
  6
CONTINUOUS
 10
358.6592030565
 20
31.2683031351
 11
358.7748280496
 21
31.1069845557
 12
358.4279530651
 22
31.139248859
 13
358.4279530651
 23
31.139248859
  0
SOLID
  8
0
 62
7
  6
CONTINUOUS
 10
358.5435780634
 20
31.0101931569
 11
358.4279530651
 21
31.139248859
 12
358.7748280496
 22
31.1069845557
 13
358.7748280496
 23
31.1069845557
  0
SOLID
  8
0
 62
7
  6
CONTINUOUS
 10
358.7748280496
 20
31.1069845557
 11
358.9482655496
 21
31.0101931569
 12
358.5435780634
 22
31.0101931569
 13
358.5435780634
 23
31.0101931569
  0
SOLID
  8
0
 62
7
  6
CONTINUOUS
 10
358.6592030565
 20
30.9456659241
 11
358.5435780634
 21
31.0101931569
 12
358.9482655496
 22
31.0101931569
 13
358.9482655496
 23
31.0101931569
  0
SOLID
  8
0
 62
7
  6
CONTINUOUS
 10
358.9482655496
 20
31.0101931569
 11
359.2951405909
 21
30.9456659241
 12
358.6592030565
 22
30.9456659241
 13
358.6592030565
 23
30.9456659241
  0
SOLID
  8
0
 62
7
  6
CONTINUOUS
 10
358.8326405772
 20
30.8811389819
 11
358.6592030565
 21
30.9456659241
 12
359.2951405909
 22
30.9456659241
 13
359.2951405909
 23
30.9456659241
  0
SOLID
  8
0
 62
7
  6
CONTINUOUS
 10
362.8795155634
 20
31.3328301325
 11
362.9951404531
 21
31.397357926
 12
363.5732655634
 22
31.3650944328
 13
363.5732655634
 23
31.3650944328
  0
SOLID
  8
0
 62
7
  6
CONTINUOUS
 10
363.5732655634
 20
31.3650944328
 11
363.3420154531
 21
31.3328301325
 12
362.8795155634
 22
31.3328301325
 13
362.8795155634
 23
31.3328301325
  0
SOLID
  8
0
 62
7
  6
CONTINUOUS
 10
362.7638906736
 20
31.2037759492
 11
362.8795155634
 21
31.3328301325
 12
363.3420154531
 22
31.3328301325
 13
363.3420154531
 23
31.3328301325
  0
SOLID
  8
0
 62
7
  6
CONTINUOUS
 10
363.1107656736
 20
31.2360394487
 11
362.7638906736
 21
31.2037759492
 12
363.2263905634
 22
31.3005673426
 13
363.2263905634
 23
31.3005673426
  0
SOLID
  8
0
 62
7
  6
CONTINUOUS
 10
362.7638906736
 20
31.2037759492
 11
363.3420154531
 21
31.3328301295
 12
363.2263905634
 22
31.3005673426
 13
363.2263905634
 23
31.3005673426
  0
SOLID
  8
0
 62
7
  6
CONTINUOUS
 10
363.1107656736
 20
31.2360394487
 11
363.0529530634
 21
31.139248859
 12
362.7638906736
 22
31.2037759492
 13
362.7638906736
 23
31.2037759492
  0
SOLID
  8
0
 62
7
  6
CONTINUOUS
 10
362.7638906736
 20
31.1069845557
 11
362.7638906736
 21
31.2037759492
 12
363.0529530634
 22
31.139248859
 13
363.0529530634
 23
31.139248859
  0
SOLID
  8
0
 62
7
  6
CONTINUOUS
 10
363.0529530634
 20
31.139248859
 11
363.0529530634
 21
31.0747202524
 12
362.7638906736
 22
31.1069845557
 13
362.7638906736
 23
31.1069845557
  0
SOLID
  8
0
 62
7
  6
CONTINUOUS
 10
362.8217029531
 20
30.9779303754
 11
362.7638906736
 21
31.1069845557
 12
363.0529530634
 22
31.0747202524
 13
363.0529530634
 23
31.0747202524
  0
SOLID
  8
0
 62
7
  6
CONTINUOUS
 10
364.2092032839
 20
31.1715120759
 11
364.4982653428
 21
31.0747202524
 12
364.1513903428
 22
31.1069845557
 13
364.1513903428
 23
31.1069845557
  0
SOLID
  8
0
 62
7
  6
CONTINUOUS
 10
363.9779528428
 20
31.0101931623
 11
364.1513903428
 21
31.1069845557
 12
364.4982653428
 22
31.0747202524
 13
364.4982653428
 23
31.0747202524
  0
SOLID
  8
0
 62
7
  6
CONTINUOUS
 10
363.9779528428
 20
31.0101931623
 11
364.4982653428
 21
31.0747202524
 12
364.2092032839
 22
30.9779303754
 13
364.2092032839
 23
30.9779303754
  0
SOLID
  8
0
 62
7
  6
CONTINUOUS
 10
364.4982653428
 20
31.0747202524
 11
364.5560782839
 21
30.9134032852
 12
364.2092032839
 22
30.9779303754
 13
364.2092032839
 23
30.9779303754
  0
SOLID
  8
0
 62
7
  6
CONTINUOUS
 10
364.2670155634
 20
30.8811389819
 11
364.2092032839
 21
30.9779303754
 12
364.5560782839
 22
30.9134032852
 13
364.5560782839
 23
30.9134032852
  0
SOLID
  8
0
 62
7
  6
CONTINUOUS
 10
364.2670155634
 20
30.8811389819
 11
364.5560782839
 21
30.9134032852
 12
364.3248278428
 22
30.816611867
 13
364.3248278428
 23
30.816611867
  0
SOLID
  8
0
 62
7
  6
CONTINUOUS
 10
364.5560782839
 20
30.9134032852
 11
364.6138905634
 21
30.816611867
 12
364.3248278428
 22
30.816611867
 13
364.3248278428
 23
30.816611867
  0
SOLID
  8
0
 62
7
  6
CONTINUOUS
 10
359.8732656185
 20
31.0424573076
 11
359.9310780634
 21
31.1392488159
 12
360.2201406185
 22
31.1392488159
 13
360.2201406185
 23
31.1392488159
  0
SOLID
  8
0
 62
7
  6
CONTINUOUS
 10
360.2201406185
 20
31.1392488159
 11
360.1623280082
 21
31.0101931623
 12
359.8732656185
 22
31.0424573076
 13
359.8732656185
 23
31.0424573076
  0
SOLID
  8
0
 62
7
  6
CONTINUOUS
 10
359.6998280358
 20
30.9779303754
 11
359.8732656185
 21
31.0424573076
 12
360.1623280082
 22
31.0101931623
 13
360.1623280082
 23
31.0101931623
  0
SOLID
  8
0
 62
7
  6
CONTINUOUS
 10
359.6998280358
 20
30.9779303754
 11
360.1623280082
 21
31.0101931623
 12
359.2951405909
 22
30.9456660721
 13
359.2951405909
 23
30.9456660721
  0
SOLID
  8
0
 62
7
  6
CONTINUOUS
 10
360.1623280082
 20
31.0101931623
 11
359.9888905082
 21
30.9134032852
 12
359.2951405909
 22
30.9456660721
 13
359.2951405909
 23
30.9456660721
  0
SOLID
  8
0
 62
7
  6
CONTINUOUS
 10
358.8326405772
 20
30.8811389819
 11
359.2951405909
 21
30.9456660721
 12
359.9888905082
 22
30.9134032852
 13
359.9888905082
 23
30.9134032852
  0
SOLID
  8
0
 62
7
  6
CONTINUOUS
 10
358.8326405772
 20
30.8811389819
 11
359.9888905082
 21
30.9134032852
 12
359.0060780772
 22
30.8488745775
 13
359.0060780772
 23
30.8488745775
  0
SOLID
  8
0
 62
7
  6
CONTINUOUS
 10
359.9888905082
 20
30.9134032852
 11
359.7576405634
 21
30.8488745775
 12
359.0060780772
 22
30.8488745775
 13
359.0060780772
 23
30.8488745775
  0
SOLID
  8
0
 62
7
  6
CONTINUOUS
 10
359.3529530358
 20
30.8166118918
 11
359.0060780772
 21
30.8488745775
 12
359.7576405634
 22
30.8488745775
 13
359.7576405634
 23
30.8488745775
  0
SOLID
  8
0
 62
7
  6
CONTINUOUS
 10
362.8217029531
 20
30.9779303754
 11
363.0529530634
 21
31.0747202524
 12
363.1107656736
 22
31.0101931623
 13
363.1107656736
 23
31.0101931623
  0
SOLID
  8
0
 62
7
  6
CONTINUOUS
 10
363.1107656736
 20
31.0101931623
 11
363.3420154531
 21
30.9456660721
 12
362.8217029531
 22
30.9779303754
 13
362.8217029531
 23
30.9779303754
  0
SOLID
  8
0
 62
7
  6
CONTINUOUS
 10
362.9951404531
 20
30.8811389819
 11
362.8217029531
 21
30.9779303754
 12
363.3420154531
 22
30.9456660721
 13
363.3420154531
 23
30.9456660721
  0
SOLID
  8
0
 62
7
  6
CONTINUOUS
 10
363.6888904531
 20
30.9456661188
 11
363.9779528428
 21
31.0101931623
 12
364.2092032839
 22
30.9779303754
 13
364.2092032839
 23
30.9779303754
  0
SOLID
  8
0
 62
7
  6
CONTINUOUS
 10
364.2092032839
 20
30.9779303754
 11
364.1513903428
 21
30.9134032852
 12
363.6888904531
 22
30.9456661188
 13
363.6888904531
 23
30.9456661188
  0
SOLID
  8
0
 62
7
  6
CONTINUOUS
 10
364.1513903428
 20
30.9134032852
 11
362.9951404531
 21
30.8811389819
 12
363.6888904531
 22
30.9456661188
 13
363.6888904531
 23
30.9456661188
  0
SOLID
  8
0
 62
7
  6
CONTINUOUS
 10
362.9951404531
 20
30.8811389819
 11
363.3420154531
 21
30.9456661188
 12
363.6888904531
 22
30.9456661188
 13
363.6888904531
 23
30.9456661188
  0
SOLID
  8
0
 62
7
  6
CONTINUOUS
 10
362.9951404531
 20
30.8811389819
 11
364.1513903428
 21
30.9134032852
 12
363.1107656736
 22
30.8488747093
 13
363.1107656736
 23
30.8488747093
  0
SOLID
  8
0
 62
7
  6
CONTINUOUS
 10
364.1513903428
 20
30.9134032852
 11
363.9779528428
 21
30.8488747093
 12
363.1107656736
 22
30.8488747093
 13
363.1107656736
 23
30.8488747093
  0
SOLID
  8
0
 62
7
  6
CONTINUOUS
 10
363.3420154531
 20
30.816611874
 11
363.1107656736
 21
30.8488747093
 12
363.9779528428
 22
30.8488747093
 13
363.9779528428
 23
30.8488747093
  0
SOLID
  8
0
 62
7
  6
CONTINUOUS
 10
363.9779528428
 20
30.8488747093
 11
363.6888904531
 21
30.816611874
 12
363.3420154531
 22
30.816611874
 13
363.3420154531
 23
30.816611874
  0
SOLID
  8
0
 62
7
  6
CONTINUOUS
 10
368.3717032839
 20
30.9779303754
 11
368.0248282839
 21
30.9456661188
 12
368.2560780634
 22
31.0101931623
 13
368.2560780634
 23
31.0101931623
  0
SOLID
  8
0
 62
7
  6
CONTINUOUS
 10
368.2560780634
 20
31.0101931623
 11
368.0248282839
 21
30.9456661188
 12
368.1982657839
 22
31.0747202992
 13
368.1982657839
 23
31.0747202992
  0
SOLID
  8
0
 62
7
  6
CONTINUOUS
 10
368.0248282839
 20
30.9456661188
 11
367.9092030634
 21
31.0747202992
 12
368.1982657839
 22
31.0747202992
 13
368.1982657839
 23
31.0747202992
  0
SOLID
  8
0
 62
7
  6
CONTINUOUS
 10
368.3717032839
 20
30.9779303754
 11
368.7185782839
 21
30.9456661188
 12
368.0248282839
 22
30.9456661188
 13
368.0248282839
 23
30.9456661188
  0
SOLID
  8
0
 62
7
  6
CONTINUOUS
 10
365.0763907839
 20
30.8166118918
 11
365.0763907839
 21
31.8490498836
 12
365.3654528428
 22
30.8166118918
 13
365.3654528428
 23
31.8490498836
  0
ENDBLK
  8
0
  6
BYBLOCK
 62
0
  0
BLOCK
  8
0
 62
2
  6
CONTINUOUS
  2
AMMEAAL_LOGO_BL0
 70
64
 10
241.0459637928
 20
19.6790146053
  0
TEXT
  8
0
 62
7
  6
CONTINUOUS
 10
227.3106676351
 20
19.0524287129
  7
TEXTSTYLE_3
 40
2.7338706658
  1
Ammeraal Beltech
 41
1.0
 51
15.0
 72
0
  0
TEXT
  8
0
 62
7
  6
CONTINUOUS
 10
238.1114684608
 20
16.7788920401
  7
TEXTSTYLE_4
 40
1.0935482663
  1
Innovation & Service in Belting
 41
1.0
 72
0
  0
LINE
  8
0
 62
7
  6
CONTINUOUS
 10
221.2861269837
 20
19.8190220215
 11
222.0642789771
 21
23.4799393191
  0
LINE
  8
0
 62
7
  6
CONTINUOUS
 10
232.1594472669
 20
27.1433332308
 11
222.5520967201
 21
24.0217158095
  0
LINE
  8
0
 62
7
  6
CONTINUOUS
 10
221.511410316
 20
19.1256712184
 11
229.0184855772
 21
12.3662702925
  0
LINE
  8
0
 62
7
  6
CONTINUOUS
 10
221.7739447268
 20
20.3607985118
 11
232.5822140919
 21
23.8726181108
  0
LINE
  8
0
 62
7
  6
CONTINUOUS
 10
232.5780089548
 20
13.522829547
 11
224.132549286
 21
21.1271555887
  0
LINE
  8
0
 62
7
  6
CONTINUOUS
 10
233.0978316746
 20
26.298408115
 11
232.1212721373
 21
21.7040567125
  0
LINE
  8
0
 62
7
  6
CONTINUOUS
 10
231.4214701896
 20
18.4117473987
 11
230.7350219782
 21
15.1822624744
  0
LINE
  8
0
 62
7
  6
CONTINUOUS
 10
233.7789277731
 20
13.9130317247
 11
234.7351593087
 21
18.4117473987
  0
LINE
  8
0
 62
7
  6
CONTINUOUS
 10
235.4349612564
 20
21.7040567125
 11
235.8792030588
 21
23.7940500719
  0
LINE
  8
0
 62
7
  6
CONTINUOUS
 10
229.7315866525
 20
12.2146959798
 11
233.2911100301
 21
13.3712552343
  0
LINE
  8
0
 62
7
  6
CONTINUOUS
 10
232.8725483422
 20
26.9917589181
 11
235.6539197265
 21
24.487400875
  0
ARC
  8
0
 62
7
  6
CONTINUOUS
 10
222.7773800524
 20
23.3283650064
 40
0.7290321776
 50
108.0
 51
168.0
  0
ARC
  8
0
 62
7
  6
CONTINUOUS
 10
232.3847305992
 20
26.4499824277
 40
0.7290321776
 50
348.0
 51
108.0
  0
ARC
  8
0
 62
7
  6
CONTINUOUS
 10
235.1661019835
 20
23.9456243846
 40
0.7290321776
 50
348.0
 51
48.0
  0
ARC
  8
0
 62
7
  6
CONTINUOUS
 10
229.5063033202
 20
12.9080467828
 40
0.7290321776
 50
228.0
 51
288.0
  0
ARC
  8
0
 62
7
  6
CONTINUOUS
 10
221.9992280591
 20
19.6674477088
 40
0.7290321776
 50
108.0
 51
228.0
  0
ARC
  8
0
 62
7
  6
CONTINUOUS
 10
233.0658266978
 20
14.0646060374
 40
0.7290321776
 50
228.0
 51
348.0
  0
ENDBLK
  8
0
  6
BYBLOCK
 62
0
  0
ENDSEC
  0
SECTION
  2
ENTITIES
  0
TEXT
  8
0
 62
5
  6
CONTINUOUS
 10
304.937007874
 20
25.636
  7
TEXTSTYLE_2
 40
2.8
  1
Scale :
 41
0.6
 51
0.000019
 72
0
  0
TEXT
  8
0
 62
5
  6
CONTINUOUS
 10
324.937007874
 20
25.636
  7
TEXTSTYLE_2
 40
2.8
  1
Chain type:
 41
0.6
 51
0.000019
 72
0
  0
INSERT
  8
0
 62
2
  6
CONTINUOUS
  2
AMMEAAL_LOGO_BL0
 10
241.0459637928
 20
19.6790146053
  0
INSERT
  8
0
 62
2
  6
CONTINUOUS
  2
UNI_LOGO2_BL1
 10
382.3920721743
 20
35.81661148
  0
LINE
  8
0
 62
2
  6
CONTINUOUS
 10
218.937007874
 20
30.0
 11
408.937007874
 21
30.0
  0
LINE
  8
0
 62
2
  6
CONTINUOUS
 10
218.937007874
 20
30.0
 11
218.937007874
 21
10.0
  0
LINE
  8
0
 62
2
  6
CONTINUOUS
 10
218.937007874
 20
10.0
 11
408.937007874
 21
10.0
  0
LINE
  8
0
 62
2
  6
CONTINUOUS
 10
303.937007874
 20
30.0
 11
303.937007874
 21
10.0
  0
LINE
  8
0
 62
2
  6
CONTINUOUS
 10
323.937007874
 20
30.0
 11
323.937007874
 21
10.0
  0
LINE
  8
0
 62
2
  6
CONTINUOUS
 10
408.937007874
 20
30.0
 11
408.937007874
 21
10.0
  0
TEXT
  8
0
 62
5
  6
CONTINUOUS
 10
221.937007874
 20
23.303
  7
TEXTSTYLE_5
 40
1.52
  1
                                                                     Ammeraal Beltech Modular A/S
 41
1.0
 72
0
  0
TEXT
  8
0
 62
5
  6
CONTINUOUS
 10
221.937007874
 20
20.595
  7
TEXTSTYLE_5
 40
1.5
  1
                                                                      Hjulmagervej 21, 7100 Vejle,  DK
 41
1.0
 72
0
  0
TEXT
  8
0
 62
5
  6
CONTINUOUS
 10
221.937007874
 20
17.881
  7
TEXTSTYLE_5
 40
1.495
  1
                                                                      tel: 
 41
1.0
 72
0
  0
TEXT
  8
0
 62
5
  6
CONTINUOUS
 10
266.9239544389
 20
17.881
  7
TEXTSTYLE_5
 40
1.51
  1
+45 75723100     fax: +45 75723348
 41
1.0
 72
0
  0
TEXT
  8
0
 62
5
  6
CONTINUOUS
 10
221.937007874
 20
15.177
  7
TEXTSTYLE_5
 40
1.5
  1
                                                                      admin@unichains.dk  www.unichains.com
 41
1.0
 72
0
  0
TEXT
  8
0
 62
5
  6
CONTINUOUS
 10
308.687007874
 20
13.75
  7
TEXTSTYLE_6
 40
5.0
  1
1:1
 41
0.7
 72
1
 11
313.937007874
 21
13.75
  0
TEXT
  8
0
 62
5
  6
CONTINUOUS
 10
326.937007874
 20
13.75
  7
TEXTSTYLE_7
 40
7.5
  1
uni 1873 SE Snap-On
 41
0.648245614
 72
0
  0
LINE
  8
0
 62
7
  6
CONTINUOUS
 10
0.0
 20
0.0
 11
0.0
 21
297.0
  0
LINE
  8
0
 62
7
  6
CONTINUOUS
 10
8.937007874
 20
10.0
 11
8.937007874
 21
287.0
  0
LINE
  8
0
 62
7
  6
CONTINUOUS
 10
0.0
 20
0.0
 11
420.0
 21
0.0
  0
LINE
  8
0
 62
7
  6
CONTINUOUS
 10
408.937007874
 20
10.0
 11
8.937007874
 21
10.0
  0
LINE
  8
0
 62
7
  6
CONTINUOUS
 10
218.937007874
 20
30.0
 11
408.937007874
 21
30.0
  0
LINE
  8
0
 62
7
  6
CONTINUOUS
 10
210.0
 20
297.0
 11
210.0
 21
292.0
  0
LINE
  8
0
 62
7
  6
CONTINUOUS
 10
210.0
 20
0.0
 11
210.0
 21
5.0
  0
LINE
  8
0
 62
7
  6
CONTINUOUS
 10
8.937007874
 20
287.0
 11
408.937007874
 21
287.0
  0
LINE
  8
0
 62
7
  6
CONTINUOUS
 10
0.0
 20
297.0
 11
420.0
 21
297.0
  0
LINE
  8
0
 62
7
  6
CONTINUOUS
 10
408.937007874
 20
287.0
 11
408.937007874
 21
10.0
  0
LINE
  8
0
 62
7
  6
CONTINUOUS
 10
420.0
 20
0.0
 11
420.0
 21
297.0
  0
LINE
  8
4_SURFACE
 62
7
  6
CONTINUOUS
 10
24.2029761199
 20
92.6961714511
 11
24.2029761199
 21
105.9976655177
  0
LINE
  8
4_SURFACE
 62
9
  6
CONTINUOUS
 10
28.0732255776
 20
108.4942962066
 11
27.9953752521
 21
109.9922746199
  0
LINE
  8
4_SURFACE
 62
9
  6
CONTINUOUS
 10
25.7029761199
 20
92.6961714511
 11
25.7029761199
 21
105.9976655177
  0
LINE
  8
4_SURFACE
 62
9
  6
CONTINUOUS
 10
28.0732255776
 20
90.1995407622
 11
27.9953752522
 21
88.7015623488
  0
LINE
  8
0
 62
9
  6
CONTINUOUS
 10
42.1949093409
 20
89.4656332062
 11
42.1710368616
 21
89.9475192501
  0
LINE
  8
0
 62
9
  6
CONTINUOUS
 10
37.6068501052
 20
89.8832744682
 11
37.6058495976
 21
89.9421965226
  0
POLYLINE
  8
0
 62
9
  6
CONTINUOUS
 66
1
 70
0
  0
VERTEX
  8
0
 62
9
  6
CONTINUOUS
 10
37.6090228365
 20
89.5202921305
  0
VERTEX
  8
0
 62
9
  6
CONTINUOUS
 10
37.6085091812
 20
89.6626876577
  0
VERTEX
  8
0
 62
9
  6
CONTINUOUS
 10
37.6068501052
 20
89.8832744682
  0
SEQEND
  0
LINE
  8
0
 62
9
  6
CONTINUOUS
 10
42.0987906837
 20
89.9462154335
 11
42.0988862727
 21
89.4650906611
  0
LINE
  8
0
 62
9
  6
CONTINUOUS
 10
35.6448787611
 20
107.206736175
 11
35.6448771137
 21
91.4871007878
  0
LINE
  8
0
 62
9
  6
CONTINUOUS
 10
36.1429078819
 20
107.2067362393
 11
36.1429078819
 21
91.4871007294
  0
LINE
  8
0
 62
9
  6
CONTINUOUS
 10
37.4433425332
 20
95.4699071933
 11
37.4433425332
 21
103.2239297755
  0
LINE
  8
0
 62
9
  6
CONTINUOUS
 10
39.7345903388
 20
94.2166951591
 11
39.7345903388
 21
104.4771418097
  0
LINE
  8
0
 62
9
  6
CONTINUOUS
 10
39.971361901
 20
104.4771418097
 11
39.971361901
 21
94.2166951591
  0
LINE
  8
0
 62
9
  6
CONTINUOUS
 10
42.2626097067
 20
103.2239297755
 11
42.2626097067
 21
95.4699071933
  0
LINE
  8
0
 62
9
  6
CONTINUOUS
 10
43.5630443579
 20
91.4871007294
 11
43.5630443579
 21
107.2067362393
  0
LINE
  8
0
 62
9
  6
CONTINUOUS
 10
44.0610604937
 20
91.4871008297
 11
44.0610757197
 21
107.2067361826
  0
LINE
  8
0
 62
9
  6
CONTINUOUS
 10
42.0988862738
 20
109.2287462867
 11
42.0987906837
 21
108.7476226894
  0
POLYLINE
  8
0
 62
9
  6
CONTINUOUS
 66
1
 70
0
  0
VERTEX
  8
0
 62
9
  6
CONTINUOUS
 10
37.6058495901
 20
108.7516397184
  0
VERTEX
  8
0
 62
9
  6
CONTINUOUS
 10
37.6068500293
 20
108.8105624059
  0
VERTEX
  8
0
 62
9
  6
CONTINUOUS
 10
37.6077630992
 20
108.9065266158
  0
VERTEX
  8
0
 62
9
  6
CONTINUOUS
 10
37.6090228497
 20
109.1735545288
  0
SEQEND
  0
LINE
  8
0
 62
9
  6
CONTINUOUS
 10
42.1949093409
 20
109.2282037626
 11
42.1710368616
 21
108.7463177187
  0
POLYLINE
  8
0
 62
9
  6
CONTINUOUS
 66
1
 70
0
  0
VERTEX
  8
0
 62
9
  6
CONTINUOUS
 10
36.1429057106
 20
107.2067428894
  0
VERTEX
  8
0
 62
9
  6
CONTINUOUS
 10
36.1738246993
 20
107.5370122148
  0
VERTEX
  8
0
 62
9
  6
CONTINUOUS
 10
36.2648599917
 20
107.8386365305
  0
VERTEX
  8
0
 62
9
  6
CONTINUOUS
 10
36.4109185506
 20
108.1106853657
  0
VERTEX
  8
0
 62
9
  6
CONTINUOUS
 10
36.6043818719
 20
108.3425109704
  0
VERTEX
  8
0
 62
9
  6
CONTINUOUS
 10
36.8385043881
 20
108.5277528891
  0
SEQEND
  0
POLYLINE
  8
0
 62
9
  6
CONTINUOUS
 66
1
 70
0
  0
VERTEX
  8
0
 62
9
  6
CONTINUOUS
 10
37.4433425332
 20
95.4699071933
  0
VERTEX
  8
0
 62
9
  6
CONTINUOUS
 10
37.4934866846
 20
95.1279630017
  0
VERTEX
  8
0
 62
9
  6
CONTINUOUS
 10
37.625177435
 20
94.8053272197
  0
VERTEX
  8
0
 62
9
  6
CONTINUOUS
 10
37.8309783939
 20
94.5202184621
  0
VERTEX
  8
0
 62
9
  6
CONTINUOUS
 10
37.9581857588
 20
94.3968762249
  0
VERTEX
  8
0
 62
9
  6
CONTINUOUS
 10
38.2522290642
 20
94.1973283095
  0
VERTEX
  8
0
 62
9
  6
CONTINUOUS
 10
38.5849750255
 20
94.0696389956
  0
VERTEX
  8
0
 62
9
  6
CONTINUOUS
 10
38.9376345803
 20
94.0210184538
  0
SEQEND
  0
POLYLINE
  8
0
 62
9
  6
CONTINUOUS
 66
1
 70
0
  0
VERTEX
  8
0
 62
9
  6
CONTINUOUS
 10
42.2626097067
 20
103.2239297755
  0
VERTEX
  8
0
 62
9
  6
CONTINUOUS
 10
42.2124655552
 20
103.5658739671
  0
VERTEX
  8
0
 62
9
  6
CONTINUOUS
 10
42.0807748048
 20
103.8885097491
  0
VERTEX
  8
0
 62
9
  6
CONTINUOUS
 10
41.8749738459
 20
104.1736185067
  0
VERTEX
  8
0
 62
9
  6
CONTINUOUS
 10
41.747766481
 20
104.2969607439
  0
VERTEX
  8
0
 62
9
  6
CONTINUOUS
 10
41.4537231756
 20
104.4965086592
  0
VERTEX
  8
0
 62
9
  6
CONTINUOUS
 10
41.1209772144
 20
104.6241979732
  0
VERTEX
  8
0
 62
9
  6
CONTINUOUS
 10
40.7683176595
 20
104.6728185149
  0
SEQEND
  0
POLYLINE
  8
0
 62
9
  6
CONTINUOUS
 66
1
 70
0
  0
VERTEX
  8
0
 62
9
  6
CONTINUOUS
 10
35.6448771137
 20
91.4871007878
  0
VERTEX
  8
0
 62
9
  6
CONTINUOUS
 10
35.6963878758
 20
91.0221066842
  0
VERTEX
  8
0
 62
9
  6
CONTINUOUS
 10
35.8475471869
 20
90.5853275766
  0
VERTEX
  8
0
 62
9
  6
CONTINUOUS
 10
35.9572878272
 20
90.3852871994
  0
VERTEX
  8
0
 62
9
  6
CONTINUOUS
 10
36.2365761855
 20
90.0332912301
  0
VERTEX
  8
0
 62
9
  6
CONTINUOUS
 10
36.5825780214
 20
89.7573075158
  0
SEQEND
  0
POLYLINE
  8
0
 62
9
  6
CONTINUOUS
 66
1
 70
0
  0
VERTEX
  8
0
 62
9
  6
CONTINUOUS
 10
44.0610757197
 20
107.2067361826
  0
VERTEX
  8
0
 62
9
  6
CONTINUOUS
 10
44.0133225112
 20
107.6547248164
  0
VERTEX
  8
0
 62
9
  6
CONTINUOUS
 10
43.8728923796
 20
108.0775154933
  0
VERTEX
  8
0
 62
9
  6
CONTINUOUS
 10
43.6491923025
 20
108.4533662231
  0
VERTEX
  8
0
 62
9
  6
CONTINUOUS
 10
43.3547293439
 20
108.7666734471
  0
VERTEX
  8
0
 62
9
  6
CONTINUOUS
 10
43.0037803646
 20
109.0055906706
  0
VERTEX
  8
0
 62
9
  6
CONTINUOUS
 10
42.6116370783
 20
109.1614382669
  0
VERTEX
  8
0
 62
9
  6
CONTINUOUS
 10
42.1949093409
 20
109.2282037626
  0
SEQEND
  0
POLYLINE
  8
0
 62
9
  6
CONTINUOUS
 66
1
 70
0
  0
VERTEX
  8
0
 62
9
  6
CONTINUOUS
 10
43.563046843
 20
91.4870931183
  0
VERTEX
  8
0
 62
9
  6
CONTINUOUS
 10
43.5273071891
 20
91.1333026421
  0
VERTEX
  8
0
 62
9
  6
CONTINUOUS
 10
43.4224623966
 20
90.8120690608
  0
VERTEX
  8
0
 62
9
  6
CONTINUOUS
 10
43.2553345366
 20
90.5271669203
  0
VERTEX
  8
0
 62
9
  6
CONTINUOUS
 10
43.035482158
 20
90.2907433297
  0
VERTEX
  8
0
 62
9
  6
CONTINUOUS
 10
42.7740065649
 20
90.1117013595
  0
VERTEX
  8
0
 62
9
  6
CONTINUOUS
 10
42.4815011724
 20
89.995770211
  0
VERTEX
  8
0
 62
9
  6
CONTINUOUS
 10
42.1710368616
 20
89.9475192501
  0
SEQEND
  0
LINE
  8
0
 62
9
  6
CONTINUOUS
 10
36.1429078819
 20
91.4871007294
 11
37.4433425332
 21
95.4699071933
  0
LINE
  8
0
 62
9
  6
CONTINUOUS
 10
42.0987930375
 20
108.7476299101
 11
40.7683176595
 21
104.6728185149
  0
LINE
  8
0
 62
9
  6
CONTINUOUS
 10
37.6058485674
 20
89.9421930122
 11
38.9376345803
 21
94.0210184538
  0
LINE
  8
0
 62
9
  6
CONTINUOUS
 10
43.5630443579
 20
107.2067362393
 11
42.2626097067
 21
103.2239297755
  0
LINE
  8
0
 62
9
  6
CONTINUOUS
 10
37.4433425332
 20
103.2239297755
 11
36.1429078819
 21
107.2067362393
  0
LINE
  8
0
 62
9
  6
CONTINUOUS
 10
40.7683176595
 20
94.0210184538
 11
42.0987922436
 21
89.94620949
  0
LINE
  8
0
 62
9
  6
CONTINUOUS
 10
38.9376345803
 20
104.6728185149
 11
37.6058471005
 21
108.7516484493
  0
LINE
  8
0
 62
9
  6
CONTINUOUS
 10
42.2626097067
 20
95.4699071933
 11
43.5630443579
 21
91.4871007294
  0
LINE
  8
0
 62
9
  6
CONTINUOUS
 10
36.5825780214
 20
89.7573075158
 11
36.8385043881
 21
90.1660840797
  0
POLYLINE
  8
0
 62
9
  6
CONTINUOUS
 66
1
 70
0
  0
VERTEX
  8
0
 62
9
  6
CONTINUOUS
 10
40.7683176595
 20
94.0210184538
  0
VERTEX
  8
0
 62
9
  6
CONTINUOUS
 10
40.735692333
 20
94.0656302543
  0
VERTEX
  8
0
 62
9
  6
CONTINUOUS
 10
40.6687445302
 20
94.1073696563
  0
VERTEX
  8
0
 62
9
  6
CONTINUOUS
 10
40.5705787548
 20
94.1443587763
  0
VERTEX
  8
0
 62
9
  6
CONTINUOUS
 10
40.4456896273
 20
94.1749527444
  0
VERTEX
  8
0
 62
9
  6
CONTINUOUS
 10
40.299739096
 20
94.1978044045
  0
VERTEX
  8
0
 62
9
  6
CONTINUOUS
 10
40.139244472
 20
94.2119219984
  0
VERTEX
  8
0
 62
9
  6
CONTINUOUS
 10
39.971361901
 20
94.2166951591
  0
SEQEND
  0
LINE
  8
0
 62
9
  6
CONTINUOUS
 10
36.5825780214
 20
108.936529453
 11
36.8385043881
 21
108.5277528891
  0
POLYLINE
  8
0
 62
9
  6
CONTINUOUS
 66
1
 70
0
  0
VERTEX
  8
0
 62
9
  6
CONTINUOUS
 10
38.9376345803
 20
104.6728185149
  0
VERTEX
  8
0
 62
9
  6
CONTINUOUS
 10
38.970259611
 20
104.628206971
  0
VERTEX
  8
0
 62
9
  6
CONTINUOUS
 10
39.0372068003
 20
104.586467746
  0
VERTEX
  8
0
 62
9
  6
CONTINUOUS
 10
39.1353718611
 20
104.5494786844
  0
VERTEX
  8
0
 62
9
  6
CONTINUOUS
 10
39.2602605233
 20
104.5188846365
  0
VERTEX
  8
0
 62
9
  6
CONTINUOUS
 10
39.4062094085
 20
104.4960330148
  0
VERTEX
  8
0
 62
9
  6
CONTINUOUS
 10
39.5667063798
 20
104.4819150502
  0
VERTEX
  8
0
 62
9
  6
CONTINUOUS
 10
39.7345903388
 20
104.4771418097
  0
SEQEND
  0
POLYLINE
  8
0
 62
9
  6
CONTINUOUS
 66
1
 70
0
  0
VERTEX
  8
0
 62
9
  6
CONTINUOUS
 10
36.5825780214
 20
108.936529453
  0
VERTEX
  8
0
 62
9
  6
CONTINUOUS
 10
36.2370067131
 20
108.6609767728
  0
VERTEX
  8
0
 62
9
  6
CONTINUOUS
 10
35.9575226014
 20
108.3089253977
  0
VERTEX
  8
0
 62
9
  6
CONTINUOUS
 10
35.8476906283
 20
108.108809339
  0
VERTEX
  8
0
 62
9
  6
CONTINUOUS
 10
35.6964141621
 20
107.6718472503
  0
VERTEX
  8
0
 62
9
  6
CONTINUOUS
 10
35.6448787611
 20
107.206736175
  0
SEQEND
  0
POLYLINE
  8
0
 62
9
  6
CONTINUOUS
 66
1
 70
0
  0
VERTEX
  8
0
 62
9
  6
CONTINUOUS
 10
36.8385043881
 20
90.1660840797
  0
VERTEX
  8
0
 62
9
  6
CONTINUOUS
 10
36.5947793173
 20
90.3607761048
  0
VERTEX
  8
0
 62
9
  6
CONTINUOUS
 10
36.4030893826
 20
90.5948616704
  0
VERTEX
  8
0
 62
9
  6
CONTINUOUS
 10
36.260497818
 20
90.8658421675
  0
VERTEX
  8
0
 62
9
  6
CONTINUOUS
 10
36.1719246635
 20
91.1666173773
  0
VERTEX
  8
0
 62
9
  6
CONTINUOUS
 10
36.1429059356
 20
91.4870947686
  0
SEQEND
  0
LINE
  8
0
 62
9
  6
CONTINUOUS
 10
105.6448105329
 20
110.2067362393
 11
105.6448105329
 21
88.4871007294
  0
LINE
  8
0
 62
9
  6
CONTINUOUS
 10
106.1429078819
 20
110.2067362393
 11
106.1429078819
 21
88.4871007294
  0
POLYLINE
  8
0
 62
9
  6
CONTINUOUS
 66
1
 70
0
  0
VERTEX
  8
0
 62
9
  6
CONTINUOUS
 10
106.1429078819
 20
110.2067362393
  0
VERTEX
  8
0
 62
9
  6
CONTINUOUS
 10
106.178666815
 20
110.5606368056
  0
VERTEX
  8
0
 62
9
  6
CONTINUOUS
 10
106.2889835242
 20
110.8938405316
  0
VERTEX
  8
0
 62
9
  6
CONTINUOUS
 10
106.4654970179
 20
111.1863270453
  0
VERTEX
  8
0
 62
9
  6
CONTINUOUS
 10
106.6982149385
 20
111.4263929862
  0
VERTEX
  8
0
 62
9
  6
CONTINUOUS
 10
106.9746537055
 20
111.603939382
  0
VERTEX
  8
0
 62
9
  6
CONTINUOUS
 10
107.2837685042
 20
111.712825905
  0
VERTEX
  8
0
 62
9
  6
CONTINUOUS
 10
107.6071627433
 20
111.7476190652
  0
SEQEND
  0
POLYLINE
  8
0
 62
9
  6
CONTINUOUS
 66
1
 70
0
  0
VERTEX
  8
0
 62
9
  6
CONTINUOUS
 10
36.8385043881
 20
108.5277528891
  0
VERTEX
  8
0
 62
9
  6
CONTINUOUS
 10
37.0933260397
 20
108.6571778628
  0
VERTEX
  8
0
 62
9
  6
CONTINUOUS
 10
37.3496938793
 20
108.7298925004
  0
VERTEX
  8
0
 62
9
  6
CONTINUOUS
 10
37.6058499852
 20
108.7516396144
  0
SEQEND
  0
POLYLINE
  8
0
 62
9
  6
CONTINUOUS
 66
1
 70
0
  0
VERTEX
  8
0
 62
9
  6
CONTINUOUS
 10
105.6448105329
 20
88.4871007294
  0
VERTEX
  8
0
 62
9
  6
CONTINUOUS
 10
105.6960804701
 20
88.0234694342
  0
VERTEX
  8
0
 62
9
  6
CONTINUOUS
 10
105.8456310671
 20
87.5893490965
  0
VERTEX
  8
0
 62
9
  6
CONTINUOUS
 10
106.0830187599
 20
87.2063913097
  0
VERTEX
  8
0
 62
9
  6
CONTINUOUS
 10
106.3942994466
 20
86.8914171236
  0
VERTEX
  8
0
 62
9
  6
CONTINUOUS
 10
106.7635902351
 20
86.6570388428
  0
VERTEX
  8
0
 62
9
  6
CONTINUOUS
 10
107.1739993882
 20
86.5122927829
  0
VERTEX
  8
0
 62
9
  6
CONTINUOUS
 10
107.6071627433
 20
86.4632549904
  0
SEQEND
  0
LINE
  8
0
 62
9
  6
CONTINUOUS
 10
107.4433425332
 20
92.4699071933
 11
107.4433425332
 21
106.2239297755
  0
LINE
  8
0
 62
9
  6
CONTINUOUS
 10
107.6071627433
 20
86.4632549904
 11
107.6071627433
 21
86.9462179035
  0
LINE
  8
0
 62
9
  6
CONTINUOUS
 10
107.6071627433
 20
111.7476190652
 11
107.6071627433
 21
112.2305819784
  0
LINE
  8
0
 62
9
  6
CONTINUOUS
 10
109.7345903388
 20
91.2166951591
 11
109.7345903388
 21
107.4771418097
  0
LINE
  8
0
 62
9
  6
CONTINUOUS
 10
109.971361901
 20
107.4771418097
 11
109.971361901
 21
91.2166951591
  0
LINE
  8
0
 62
9
  6
CONTINUOUS
 10
112.0987894965
 20
112.2305819784
 11
112.0987894965
 21
111.7476190652
  0
LINE
  8
0
 62
9
  6
CONTINUOUS
 10
112.0987894965
 20
86.9462179035
 11
112.0987894965
 21
86.4632549904
  0
LINE
  8
0
 62
9
  6
CONTINUOUS
 10
112.2626097067
 20
106.2239297755
 11
112.2626097067
 21
92.4699071933
  0
LINE
  8
0
 62
9
  6
CONTINUOUS
 10
113.5630443579
 20
88.4871007294
 11
113.5630443579
 21
110.2067362393
  0
LINE
  8
0
 62
9
  6
CONTINUOUS
 10
114.0611417069
 20
88.4871007294
 11
114.0611417069
 21
110.2067362393
  0
POLYLINE
  8
0
 62
9
  6
CONTINUOUS
 66
1
 70
0
  0
VERTEX
  8
0
 62
9
  6
CONTINUOUS
 10
113.5630443579
 20
88.4871007294
  0
VERTEX
  8
0
 62
9
  6
CONTINUOUS
 10
113.5272854248
 20
88.1332001632
  0
VERTEX
  8
0
 62
9
  6
CONTINUOUS
 10
113.4169687157
 20
87.7999964372
  0
VERTEX
  8
0
 62
9
  6
CONTINUOUS
 10
113.2404552219
 20
87.5075099235
  0
VERTEX
  8
0
 62
9
  6
CONTINUOUS
 10
113.0077373013
 20
87.2674439826
  0
VERTEX
  8
0
 62
9
  6
CONTINUOUS
 10
112.7312985344
 20
87.0898975867
  0
VERTEX
  8
0
 62
9
  6
CONTINUOUS
 10
112.4221837356
 20
86.9810110638
  0
VERTEX
  8
0
 62
9
  6
CONTINUOUS
 10
112.0987894965
 20
86.9462179035
  0
SEQEND
  0
LINE
  8
0
 62
9
  6
CONTINUOUS
 10
112.0987894965
 20
111.7476190652
 11
110.7683176595
 21
107.6728185149
  0
LINE
  8
0
 62
9
  6
CONTINUOUS
 10
106.1429078819
 20
88.4871007294
 11
107.4433425332
 21
92.4699071933
  0
LINE
  8
0
 62
9
  6
CONTINUOUS
 10
113.5630443579
 20
110.2067362393
 11
112.2626097067
 21
106.2239297755
  0
LINE
  8
0
 62
9
  6
CONTINUOUS
 10
107.6071627433
 20
86.9462179035
 11
108.9376345803
 21
91.0210184538
  0
POLYLINE
  8
0
 62
9
  6
CONTINUOUS
 66
1
 70
0
  0
VERTEX
  8
0
 62
9
  6
CONTINUOUS
 10
42.2626097067
 20
95.4699071933
  0
VERTEX
  8
0
 62
9
  6
CONTINUOUS
 10
42.1688118577
 20
95.5145176546
  0
VERTEX
  8
0
 62
9
  6
CONTINUOUS
 10
41.9763369463
 20
95.5562580572
  0
VERTEX
  8
0
 62
9
  6
CONTINUOUS
 10
41.6941103454
 20
95.5932472968
  0
VERTEX
  8
0
 62
9
  6
CONTINUOUS
 10
41.3350541067
 20
95.6238413179
  0
VERTEX
  8
0
 62
9
  6
CONTINUOUS
 10
40.9154463357
 20
95.6466931167
  0
VERTEX
  8
0
 62
9
  6
CONTINUOUS
 10
40.4540242976
 20
95.6608109963
  0
VERTEX
  8
0
 62
9
  6
CONTINUOUS
 10
39.971361901
 20
95.6655838985
  0
SEQEND
  0
LINE
  8
0
 62
9
  6
CONTINUOUS
 10
110.7683176595
 20
91.0210184538
 11
112.0987894965
 21
86.9462179035
  0
LINE
  8
0
 62
9
  6
CONTINUOUS
 10
107.4433425332
 20
106.2239297755
 11
106.1429078819
 21
110.2067362393
  0
LINE
  8
0
 62
9
  6
CONTINUOUS
 10
112.2626097067
 20
92.4699071933
 11
113.5630443579
 21
88.4871007294
  0
LINE
  8
0
 62
9
  6
CONTINUOUS
 10
108.9376345803
 20
107.6728185149
 11
107.6071627433
 21
111.7476190652
  0
POLYLINE
  8
0
 62
9
  6
CONTINUOUS
 66
1
 70
0
  0
VERTEX
  8
0
 62
9
  6
CONTINUOUS
 10
107.4433425332
 20
92.4699071933
  0
VERTEX
  8
0
 62
9
  6
CONTINUOUS
 10
107.4934866846
 20
92.1279630017
  0
VERTEX
  8
0
 62
9
  6
CONTINUOUS
 10
107.625177435
 20
91.8053272197
  0
VERTEX
  8
0
 62
9
  6
CONTINUOUS
 10
107.8309783939
 20
91.5202184621
  0
VERTEX
  8
0
 62
9
  6
CONTINUOUS
 10
107.9581857588
 20
91.3968762249
  0
VERTEX
  8
0
 62
9
  6
CONTINUOUS
 10
108.2522290642
 20
91.1973283095
  0
VERTEX
  8
0
 62
9
  6
CONTINUOUS
 10
108.5849750255
 20
91.0696389956
  0
VERTEX
  8
0
 62
9
  6
CONTINUOUS
 10
108.9376345803
 20
91.0210184538
  0
SEQEND
  0
POLYLINE
  8
0
 62
9
  6
CONTINUOUS
 66
1
 70
0
  0
VERTEX
  8
0
 62
9
  6
CONTINUOUS
 10
112.2626097067
 20
106.2239297755
  0
VERTEX
  8
0
 62
9
  6
CONTINUOUS
 10
112.2124655552
 20
106.5658739671
  0
VERTEX
  8
0
 62
9
  6
CONTINUOUS
 10
112.0807748048
 20
106.8885097491
  0
VERTEX
  8
0
 62
9
  6
CONTINUOUS
 10
111.8749738459
 20
107.1736185067
  0
VERTEX
  8
0
 62
9
  6
CONTINUOUS
 10
111.747766481
 20
107.2969607439
  0
VERTEX
  8
0
 62
9
  6
CONTINUOUS
 10
111.4537231756
 20
107.4965086592
  0
VERTEX
  8
0
 62
9
  6
CONTINUOUS
 10
111.1209772144
 20
107.6241979732
  0
VERTEX
  8
0
 62
9
  6
CONTINUOUS
 10
110.7683176595
 20
107.6728185149
  0
SEQEND
  0
POLYLINE
  8
0
 62
9
  6
CONTINUOUS
 66
1
 70
0
  0
VERTEX
  8
0
 62
9
  6
CONTINUOUS
 10
114.0611417069
 20
110.2067362393
  0
VERTEX
  8
0
 62
9
  6
CONTINUOUS
 10
114.0098717697
 20
110.6703675346
  0
VERTEX
  8
0
 62
9
  6
CONTINUOUS
 10
113.8603211727
 20
111.1044878723
  0
VERTEX
  8
0
 62
9
  6
CONTINUOUS
 10
113.6229334799
 20
111.4874456591
  0
VERTEX
  8
0
 62
9
  6
CONTINUOUS
 10
113.3116527933
 20
111.8024198452
  0
VERTEX
  8
0
 62
9
  6
CONTINUOUS
 10
112.9423620047
 20
112.036798126
  0
VERTEX
  8
0
 62
9
  6
CONTINUOUS
 10
112.5319528516
 20
112.1815441859
  0
VERTEX
  8
0
 62
9
  6
CONTINUOUS
 10
112.0987894965
 20
112.2305819784
  0
SEQEND
  0
POLYLINE
  8
0
 62
9
  6
CONTINUOUS
 66
1
 70
0
  0
VERTEX
  8
0
 62
9
  6
CONTINUOUS
 10
36.5825780214
 20
108.936529453
  0
VERTEX
  8
0
 62
9
  6
CONTINUOUS
 10
36.9249759281
 20
109.0691443953
  0
VERTEX
  8
0
 62
9
  6
CONTINUOUS
 10
37.267940396
 20
109.1461244638
  0
VERTEX
  8
0
 62
9
  6
CONTINUOUS
 10
37.6090230421
 20
109.173529074
  0
SEQEND
  0
POLYLINE
  8
0
 62
9
  6
CONTINUOUS
 66
1
 70
0
  0
VERTEX
  8
0
 62
9
  6
CONTINUOUS
 10
37.4433425332
 20
103.2239297755
  0
VERTEX
  8
0
 62
9
  6
CONTINUOUS
 10
37.5371395317
 20
103.1793195704
  0
VERTEX
  8
0
 62
9
  6
CONTINUOUS
 10
37.7296126792
 20
103.137579345
  0
VERTEX
  8
0
 62
9
  6
CONTINUOUS
 10
38.0118372256
 20
103.1005901639
  0
VERTEX
  8
0
 62
9
  6
CONTINUOUS
 10
38.3708921266
 20
103.069996063
  0
VERTEX
  8
0
 62
9
  6
CONTINUOUS
 10
38.7904951653
 20
103.0471443027
  0
VERTEX
  8
0
 62
9
  6
CONTINUOUS
 10
39.2519239517
 20
103.0330260523
  0
VERTEX
  8
0
 62
9
  6
CONTINUOUS
 10
39.7345903388
 20
103.0282530703
  0
SEQEND
  0
POLYLINE
  8
0
 62
9
  6
CONTINUOUS
 66
1
 70
0
  0
VERTEX
  8
0
 62
9
  6
CONTINUOUS
 10
110.7683176595
 20
91.0210184538
  0
VERTEX
  8
0
 62
9
  6
CONTINUOUS
 10
110.735692333
 20
91.0656302543
  0
VERTEX
  8
0
 62
9
  6
CONTINUOUS
 10
110.6687445302
 20
91.1073696563
  0
VERTEX
  8
0
 62
9
  6
CONTINUOUS
 10
110.5705787548
 20
91.1443587763
  0
VERTEX
  8
0
 62
9
  6
CONTINUOUS
 10
110.4456896273
 20
91.1749527444
  0
VERTEX
  8
0
 62
9
  6
CONTINUOUS
 10
110.299739096
 20
91.1978044045
  0
VERTEX
  8
0
 62
9
  6
CONTINUOUS
 10
110.139244472
 20
91.2119219984
  0
VERTEX
  8
0
 62
9
  6
CONTINUOUS
 10
109.971361901
 20
91.2166951591
  0
SEQEND
  0
POLYLINE
  8
0
 62
9
  6
CONTINUOUS
 66
1
 70
0
  0
VERTEX
  8
0
 62
9
  6
CONTINUOUS
 10
108.9376345803
 20
107.6728185149
  0
VERTEX
  8
0
 62
9
  6
CONTINUOUS
 10
108.970259611
 20
107.628206971
  0
VERTEX
  8
0
 62
9
  6
CONTINUOUS
 10
109.0372068003
 20
107.586467746
  0
VERTEX
  8
0
 62
9
  6
CONTINUOUS
 10
109.1353718611
 20
107.5494786844
  0
VERTEX
  8
0
 62
9
  6
CONTINUOUS
 10
109.2602605233
 20
107.5188846365
  0
VERTEX
  8
0
 62
9
  6
CONTINUOUS
 10
109.4062094085
 20
107.4960330148
  0
VERTEX
  8
0
 62
9
  6
CONTINUOUS
 10
109.5667063798
 20
107.4819150502
  0
VERTEX
  8
0
 62
9
  6
CONTINUOUS
 10
109.7345903388
 20
107.4771418097
  0
SEQEND
  0
POLYLINE
  8
0
 62
9
  6
CONTINUOUS
 66
1
 70
0
  0
VERTEX
  8
0
 62
9
  6
CONTINUOUS
 10
112.2626097067
 20
92.4699071933
  0
VERTEX
  8
0
 62
9
  6
CONTINUOUS
 10
112.1688118577
 20
92.5145176546
  0
VERTEX
  8
0
 62
9
  6
CONTINUOUS
 10
111.9763369463
 20
92.5562580572
  0
VERTEX
  8
0
 62
9
  6
CONTINUOUS
 10
111.6941103454
 20
92.5932472968
  0
VERTEX
  8
0
 62
9
  6
CONTINUOUS
 10
111.3350541067
 20
92.6238413179
  0
VERTEX
  8
0
 62
9
  6
CONTINUOUS
 10
110.9154463357
 20
92.6466931167
  0
VERTEX
  8
0
 62
9
  6
CONTINUOUS
 10
110.4540242976
 20
92.6608109963
  0
VERTEX
  8
0
 62
9
  6
CONTINUOUS
 10
109.971361901
 20
92.6655838985
  0
SEQEND
  0
POLYLINE
  8
0
 62
9
  6
CONTINUOUS
 66
1
 70
0
  0
VERTEX
  8
0
 62
9
  6
CONTINUOUS
 10
314.2683176595
 20
94.0210184538
  0
VERTEX
  8
0
 62
9
  6
CONTINUOUS
 10
314.6209772144
 20
94.0696389956
  0
VERTEX
  8
0
 62
9
  6
CONTINUOUS
 10
314.9537231756
 20
94.1973283095
  0
VERTEX
  8
0
 62
9
  6
CONTINUOUS
 10
315.247766481
 20
94.3968762249
  0
VERTEX
  8
0
 62
9
  6
CONTINUOUS
 10
315.3749738459
 20
94.5202184621
  0
VERTEX
  8
0
 62
9
  6
CONTINUOUS
 10
315.5807748048
 20
94.8053272197
  0
VERTEX
  8
0
 62
9
  6
CONTINUOUS
 10
315.7124655552
 20
95.1279630017
  0
VERTEX
  8
0
 62
9
  6
CONTINUOUS
 10
315.7626097067
 20
95.4699071933
  0
SEQEND
  0
POLYLINE
  8
0
 62
9
  6
CONTINUOUS
 66
1
 70
0
  0
VERTEX
  8
0
 62
9
  6
CONTINUOUS
 10
245.5987894965
 20
86.4632549904
  0
VERTEX
  8
0
 62
9
  6
CONTINUOUS
 10
246.0317693638
 20
86.5122506349
  0
VERTEX
  8
0
 62
9
  6
CONTINUOUS
 10
246.4421744348
 20
86.6569477245
  0
VERTEX
  8
0
 62
9
  6
CONTINUOUS
 10
246.811478154
 20
86.8912763967
  0
VERTEX
  8
0
 62
9
  6
CONTINUOUS
 10
247.122776876
 20
87.2061925701
  0
VERTEX
  8
0
 62
9
  6
CONTINUOUS
 10
247.3602296076
 20
87.5891563526
  0
VERTEX
  8
0
 62
9
  6
CONTINUOUS
 10
247.5098344731
 20
88.0233034571
  0
VERTEX
  8
0
 62
9
  6
CONTINUOUS
 10
247.5611417069
 20
88.4871007294
  0
SEQEND
  0
POLYLINE
  8
0
 62
9
  6
CONTINUOUS
 66
1
 70
0
  0
VERTEX
  8
0
 62
9
  6
CONTINUOUS
 10
107.6071627433
 20
86.9462179035
  0
VERTEX
  8
0
 62
9
  6
CONTINUOUS
 10
107.2837685042
 20
86.9810110637
  0
VERTEX
  8
0
 62
9
  6
CONTINUOUS
 10
106.9746537055
 20
87.0898975867
  0
VERTEX
  8
0
 62
9
  6
CONTINUOUS
 10
106.6982149385
 20
87.2674439826
  0
VERTEX
  8
0
 62
9
  6
CONTINUOUS
 10
106.4654970179
 20
87.5075099235
  0
VERTEX
  8
0
 62
9
  6
CONTINUOUS
 10
106.2889835242
 20
87.7999964372
  0
VERTEX
  8
0
 62
9
  6
CONTINUOUS
 10
106.178666815
 20
88.1332001632
  0
VERTEX
  8
0
 62
9
  6
CONTINUOUS
 10
106.1429078819
 20
88.4871007294
  0
SEQEND
  0
POLYLINE
  8
0
 62
9
  6
CONTINUOUS
 66
1
 70
0
  0
VERTEX
  8
0
 62
9
  6
CONTINUOUS
 10
107.4433425332
 20
106.2239297755
  0
VERTEX
  8
0
 62
9
  6
CONTINUOUS
 10
107.5371395317
 20
106.1793195704
  0
VERTEX
  8
0
 62
9
  6
CONTINUOUS
 10
107.7296126792
 20
106.137579345
  0
VERTEX
  8
0
 62
9
  6
CONTINUOUS
 10
108.0118372256
 20
106.1005901639
  0
VERTEX
  8
0
 62
9
  6
CONTINUOUS
 10
108.3708921266
 20
106.069996063
  0
VERTEX
  8
0
 62
9
  6
CONTINUOUS
 10
108.7904951653
 20
106.0471443027
  0
VERTEX
  8
0
 62
9
  6
CONTINUOUS
 10
109.2519239517
 20
106.0330260523
  0
VERTEX
  8
0
 62
9
  6
CONTINUOUS
 10
109.7345903388
 20
106.0282530703
  0
SEQEND
  0
LINE
  8
4_SURFACE
 62
7
  6
CONTINUOUS
 10
160.8919275305
 20
115.3969184844
 11
160.8529761199
 21
116.8969184844
  0
LINE
  8
4_SURFACE
 62
7
  6
CONTINUOUS
 10
160.8919275305
 20
83.2969184844
 11
160.8529761199
 21
81.7969184844
  0
POLYLINE
  8
0
 62
9
  6
CONTINUOUS
 66
1
 70
0
  0
VERTEX
  8
0
 62
9
  6
CONTINUOUS
 10
311.0110428989
 20
109.2282037626
  0
VERTEX
  8
0
 62
9
  6
CONTINUOUS
 10
310.5943027245
 20
109.1614348953
  0
VERTEX
  8
0
 62
9
  6
CONTINUOUS
 10
310.2021165334
 20
109.00556146
  0
VERTEX
  8
0
 62
9
  6
CONTINUOUS
 10
309.8511277916
 20
108.766592636
  0
VERTEX
  8
0
 62
9
  6
CONTINUOUS
 10
309.5566205988
 20
108.4531820144
  0
VERTEX
  8
0
 62
9
  6
CONTINUOUS
 10
309.3329052078
 20
108.0771781879
  0
VERTEX
  8
0
 62
9
  6
CONTINUOUS
 10
309.1925338882
 20
107.6542836898
  0
VERTEX
  8
0
 62
9
  6
CONTINUOUS
 10
309.1448917461
 20
107.2067361391
  0
SEQEND
  0
POLYLINE
  8
0
 62
9
  6
CONTINUOUS
 66
1
 70
0
  0
VERTEX
  8
0
 62
9
  6
CONTINUOUS
 10
244.2683176595
 20
91.0210184538
  0
VERTEX
  8
0
 62
9
  6
CONTINUOUS
 10
244.6209772144
 20
91.0696389956
  0
VERTEX
  8
0
 62
9
  6
CONTINUOUS
 10
244.9537231756
 20
91.1973283095
  0
VERTEX
  8
0
 62
9
  6
CONTINUOUS
 10
245.247766481
 20
91.3968762249
  0
VERTEX
  8
0
 62
9
  6
CONTINUOUS
 10
245.3749738459
 20
91.5202184621
  0
VERTEX
  8
0
 62
9
  6
CONTINUOUS
 10
245.5807748048
 20
91.8053272197
  0
VERTEX
  8
0
 62
9
  6
CONTINUOUS
 10
245.7124655552
 20
92.1279630017
  0
VERTEX
  8
0
 62
9
  6
CONTINUOUS
 10
245.7626097067
 20
92.4699071933
  0
SEQEND
  0
POLYLINE
  8
0
 62
9
  6
CONTINUOUS
 66
1
 70
0
  0
VERTEX
  8
0
 62
9
  6
CONTINUOUS
 10
312.4376345803
 20
104.6728185149
  0
VERTEX
  8
0
 62
9
  6
CONTINUOUS
 10
312.084975006
 20
104.6241979682
  0
VERTEX
  8
0
 62
9
  6
CONTINUOUS
 10
311.752228902
 20
104.4965085746
  0
VERTEX
  8
0
 62
9
  6
CONTINUOUS
 10
311.4581857933
 20
104.2969607736
  0
VERTEX
  8
0
 62
9
  6
CONTINUOUS
 10
311.3309784246
 20
104.1736185402
  0
VERTEX
  8
0
 62
9
  6
CONTINUOUS
 10
311.1251773477
 20
103.8885095918
  0
VERTEX
  8
0
 62
9
  6
CONTINUOUS
 10
310.9934866794
 20
103.5658739482
  0
VERTEX
  8
0
 62
9
  6
CONTINUOUS
 10
310.9433425332
 20
103.2239297755
  0
SEQEND
  0
POLYLINE
  8
0
 62
9
  6
CONTINUOUS
 66
1
 70
0
  0
VERTEX
  8
0
 62
9
  6
CONTINUOUS
 10
177.5183176595
 20
88.5210184538
  0
VERTEX
  8
0
 62
9
  6
CONTINUOUS
 10
177.8709772144
 20
88.5696389956
  0
VERTEX
  8
0
 62
9
  6
CONTINUOUS
 10
178.2037231756
 20
88.6973283095
  0
VERTEX
  8
0
 62
9
  6
CONTINUOUS
 10
178.497766481
 20
88.8968762249
  0
VERTEX
  8
0
 62
9
  6
CONTINUOUS
 10
178.6249738459
 20
89.0202184621
  0
VERTEX
  8
0
 62
9
  6
CONTINUOUS
 10
178.8307748048
 20
89.3053272197
  0
VERTEX
  8
0
 62
9
  6
CONTINUOUS
 10
178.9624655552
 20
89.6279630017
  0
VERTEX
  8
0
 62
9
  6
CONTINUOUS
 10
179.0126097067
 20
89.9699071933
  0
SEQEND
  0
POLYLINE
  8
0
 62
9
  6
CONTINUOUS
 66
1
 70
0
  0
VERTEX
  8
0
 62
9
  6
CONTINUOUS
 10
178.8487894965
 20
83.9632549904
  0
VERTEX
  8
0
 62
9
  6
CONTINUOUS
 10
179.2817693638
 20
84.0122506349
  0
VERTEX
  8
0
 62
9
  6
CONTINUOUS
 10
179.6921744348
 20
84.1569477245
  0
VERTEX
  8
0
 62
9
  6
CONTINUOUS
 10
180.061478154
 20
84.3912763967
  0
VERTEX
  8
0
 62
9
  6
CONTINUOUS
 10
180.372776876
 20
84.7061925701
  0
VERTEX
  8
0
 62
9
  6
CONTINUOUS
 10
180.6102296076
 20
85.0891563526
  0
VERTEX
  8
0
 62
9
  6
CONTINUOUS
 10
180.7598344731
 20
85.5233034571
  0
VERTEX
  8
0
 62
9
  6
CONTINUOUS
 10
180.8111417069
 20
85.9871007294
  0
SEQEND
  0
LINE
  8
0
 62
7
  6
CONTINUOUS
 10
192.3529761199
 20
81.7969184844
 11
325.2105769877
 21
88.7015623488
  0
LINE
  8
0
 62
9
  6
CONTINUOUS
 10
192.3140247093
 20
83.2969184844
 11
311.0110428989
 21
89.4656332062
  0
LINE
  8
0
 62
9
  6
CONTINUOUS
 10
316.6233742184
 20
89.7573075158
 11
325.1327266623
 21
90.1995407622
  0
POLYLINE
  8
0
 62
9
  6
CONTINUOUS
 66
1
 70
0
  0
VERTEX
  8
0
 62
9
  6
CONTINUOUS
 10
176.4845903388
 20
88.7166951591
  0
VERTEX
  8
0
 62
9
  6
CONTINUOUS
 10
176.3167077678
 20
88.7119219984
  0
VERTEX
  8
0
 62
9
  6
CONTINUOUS
 10
176.1562131438
 20
88.6978044045
  0
VERTEX
  8
0
 62
9
  6
CONTINUOUS
 10
176.0102626125
 20
88.6749527444
  0
VERTEX
  8
0
 62
9
  6
CONTINUOUS
 10
175.885373485
 20
88.6443587763
  0
VERTEX
  8
0
 62
9
  6
CONTINUOUS
 10
175.7872077096
 20
88.6073696563
  0
VERTEX
  8
0
 62
9
  6
CONTINUOUS
 10
175.7202599068
 20
88.5656302543
  0
VERTEX
  8
0
 62
9
  6
CONTINUOUS
 10
175.6876345803
 20
88.5210184538
  0
SEQEND
  0
POLYLINE
  8
0
 62
9
  6
CONTINUOUS
 66
1
 70
0
  0
VERTEX
  8
0
 62
9
  6
CONTINUOUS
 10
243.2345903388
 20
91.2166951591
  0
VERTEX
  8
0
 62
9
  6
CONTINUOUS
 10
243.0667077678
 20
91.2119219984
  0
VERTEX
  8
0
 62
9
  6
CONTINUOUS
 10
242.9062131438
 20
91.1978044045
  0
VERTEX
  8
0
 62
9
  6
CONTINUOUS
 10
242.7602626125
 20
91.1749527444
  0
VERTEX
  8
0
 62
9
  6
CONTINUOUS
 10
242.635373485
 20
91.1443587763
  0
VERTEX
  8
0
 62
9
  6
CONTINUOUS
 10
242.5372077096
 20
91.1073696563
  0
VERTEX
  8
0
 62
9
  6
CONTINUOUS
 10
242.4702599068
 20
91.0656302543
  0
VERTEX
  8
0
 62
9
  6
CONTINUOUS
 10
242.4376345803
 20
91.0210184538
  0
SEQEND
  0
POLYLINE
  8
0
 62
9
  6
CONTINUOUS
 66
1
 70
0
  0
VERTEX
  8
0
 62
9
  6
CONTINUOUS
 10
313.2345903388
 20
94.2166951591
  0
VERTEX
  8
0
 62
9
  6
CONTINUOUS
 10
313.0667077678
 20
94.2119219984
  0
VERTEX
  8
0
 62
9
  6
CONTINUOUS
 10
312.9062131438
 20
94.1978044045
  0
VERTEX
  8
0
 62
9
  6
CONTINUOUS
 10
312.7602626125
 20
94.1749527444
  0
VERTEX
  8
0
 62
9
  6
CONTINUOUS
 10
312.635373485
 20
94.1443587763
  0
VERTEX
  8
0
 62
9
  6
CONTINUOUS
 10
312.5372077096
 20
94.1073696563
  0
VERTEX
  8
0
 62
9
  6
CONTINUOUS
 10
312.4702599068
 20
94.0656302543
  0
VERTEX
  8
0
 62
9
  6
CONTINUOUS
 10
312.4376345803
 20
94.0210184538
  0
SEQEND
  0
LINE
  8
0
 62
9
  6
CONTINUOUS
 10
311.1070660095
 20
89.4650896627
 11
315.5969291977
 21
89.5203078947
  0
POLYLINE
  8
0
 62
9
  6
CONTINUOUS
 66
1
 70
0
  0
VERTEX
  8
0
 62
9
  6
CONTINUOUS
 10
176.4845903388
 20
90.1655838985
  0
VERTEX
  8
0
 62
9
  6
CONTINUOUS
 10
176.0019279422
 20
90.1608109963
  0
VERTEX
  8
0
 62
9
  6
CONTINUOUS
 10
175.5405059041
 20
90.1466931167
  0
VERTEX
  8
0
 62
9
  6
CONTINUOUS
 10
175.1208981331
 20
90.1238413179
  0
VERTEX
  8
0
 62
9
  6
CONTINUOUS
 10
174.7618418944
 20
90.0932472968
  0
VERTEX
  8
0
 62
9
  6
CONTINUOUS
 10
174.4796152935
 20
90.0562580573
  0
VERTEX
  8
0
 62
9
  6
CONTINUOUS
 10
174.2871403821
 20
90.0145176548
  0
VERTEX
  8
0
 62
9
  6
CONTINUOUS
 10
174.1933425332
 20
89.9699071933
  0
SEQEND
  0
LINE
  8
0
 62
9
  6
CONTINUOUS
 10
42.1949093409
 20
89.4656332062
 11
42.0988862183
 21
89.4650912094
  0
LINE
  8
0
 62
9
  6
CONTINUOUS
 10
37.6058485674
 20
89.9421930122
 11
42.0987922436
 21
89.94620949
  0
LINE
  8
0
 62
7
  6
CONTINUOUS
 10
192.3529761199
 20
81.7969184844
 11
160.8529761199
 21
81.7969184844
  0
LINE
  8
0
 62
9
  6
CONTINUOUS
 10
160.8919275305
 20
83.2969184844
 11
192.3140247093
 21
83.2969184844
  0
LINE
  8
0
 62
9
  6
CONTINUOUS
 10
174.3571627433
 20
83.9632549904
 11
178.8487894965
 21
83.9632549904
  0
LINE
  8
0
 62
9
  6
CONTINUOUS
 10
174.3571627433
 20
84.4462179035
 11
178.8487894965
 21
84.4462179035
  0
LINE
  8
0
 62
9
  6
CONTINUOUS
 10
180.8111417069
 20
85.9871007294
 11
180.3130443579
 21
85.9871007294
  0
LINE
  8
0
 62
9
  6
CONTINUOUS
 10
172.8929078819
 20
85.9871007294
 11
172.3948105329
 21
85.9871007294
  0
LINE
  8
0
 62
9
  6
CONTINUOUS
 10
107.6071627433
 20
86.4632549904
 11
112.0987894965
 21
86.4632549904
  0
LINE
  8
0
 62
9
  6
CONTINUOUS
 10
241.1071627433
 20
86.4632549904
 11
245.5987894965
 21
86.4632549904
  0
LINE
  8
0
 62
9
  6
CONTINUOUS
 10
107.6071627433
 20
86.9462179035
 11
112.0987894965
 21
86.9462179035
  0
LINE
  8
0
 62
9
  6
CONTINUOUS
 10
241.1071627433
 20
86.9462179035
 11
245.5987894965
 21
86.9462179035
  0
LINE
  8
0
 62
9
  6
CONTINUOUS
 10
247.5611417069
 20
88.4871007294
 11
247.0630443579
 21
88.4871007294
  0
LINE
  8
0
 62
9
  6
CONTINUOUS
 10
239.6429078819
 20
88.4871007294
 11
239.1448105329
 21
88.4871007294
  0
LINE
  8
0
 62
9
  6
CONTINUOUS
 10
114.0611417069
 20
88.4871007294
 11
113.5630443579
 21
88.4871007294
  0
LINE
  8
0
 62
9
  6
CONTINUOUS
 10
106.1429078819
 20
88.4871007294
 11
105.6448105329
 21
88.4871007294
  0
LINE
  8
0
 62
9
  6
CONTINUOUS
 10
176.4845903388
 20
88.7166951591
 11
176.721361901
 21
88.7166951591
  0
LINE
  8
0
 62
9
  6
CONTINUOUS
 10
176.4845903388
 20
90.1655838985
 11
176.721361901
 21
90.1655838985
  0
LINE
  8
1_AXIS
 62
2
  6
CENTER
 10
158.5071577868
 20
90.2969184844
 11
194.5529761199
 21
90.2969184844
  0
LINE
  8
0
 62
9
  6
CONTINUOUS
 10
311.1071592023
 20
89.9462070587
 11
315.6001051394
 21
89.9421885194
  0
LINE
  8
0
 62
9
  6
CONTINUOUS
 10
311.1070660095
 20
89.4650896627
 11
311.0110428989
 21
89.4656332062
  0
LINE
  8
0
 62
9
  6
CONTINUOUS
 10
37.6090236827
 20
89.5203811212
 11
42.0988862183
 21
89.4650912094
  0
LINE
  8
4_SURFACE
 62
7
  6
CONTINUOUS
 10
160.8529761199
 20
81.7969184844
 11
27.9953752521
 21
88.7015623488
  0
LINE
  8
0
 62
9
  6
CONTINUOUS
 10
160.8919275305
 20
83.2969184844
 11
42.1949093409
 21
89.4656332062
  0
LINE
  8
0
 62
9
  6
CONTINUOUS
 10
36.5825780214
 20
89.7573075158
 11
28.0732255776
 21
90.1995407622
  0
POLYLINE
  8
0
 62
9
  6
CONTINUOUS
 66
1
 70
0
  0
VERTEX
  8
0
 62
9
  6
CONTINUOUS
 10
37.605856404
 20
89.9422170131
  0
VERTEX
  8
0
 62
9
  6
CONTINUOUS
 10
37.4095125011
 20
89.9544705346
  0
VERTEX
  8
0
 62
9
  6
CONTINUOUS
 10
37.2363623105
 20
89.98951212
  0
VERTEX
  8
0
 62
9
  6
CONTINUOUS
 10
37.1538887734
 20
90.0146062069
  0
VERTEX
  8
0
 62
9
  6
CONTINUOUS
 10
36.9940240083
 20
90.0797818614
  0
VERTEX
  8
0
 62
9
  6
CONTINUOUS
 10
36.8385043881
 20
90.1660840797
  0
SEQEND
  0
POLYLINE
  8
0
 62
9
  6
CONTINUOUS
 66
1
 70
0
  0
VERTEX
  8
0
 62
9
  6
CONTINUOUS
 10
37.6090236827
 20
89.5203811212
  0
VERTEX
  8
0
 62
9
  6
CONTINUOUS
 10
37.347700534
 20
89.5370499841
  0
VERTEX
  8
0
 62
9
  6
CONTINUOUS
 10
37.1164669253
 20
89.5753392653
  0
VERTEX
  8
0
 62
9
  6
CONTINUOUS
 10
37.0060874004
 20
89.6017602834
  0
VERTEX
  8
0
 62
9
  6
CONTINUOUS
 10
36.791691436
 20
89.6691603299
  0
VERTEX
  8
0
 62
9
  6
CONTINUOUS
 10
36.5825780214
 20
89.7573075158
  0
SEQEND
  0
POLYLINE
  8
0
 62
9
  6
CONTINUOUS
 66
1
 70
0
  0
VERTEX
  8
0
 62
9
  6
CONTINUOUS
 10
174.3571627433
 20
84.4462179035
  0
VERTEX
  8
0
 62
9
  6
CONTINUOUS
 10
174.0337685042
 20
84.4810110637
  0
VERTEX
  8
0
 62
9
  6
CONTINUOUS
 10
173.7246537055
 20
84.5898975867
  0
VERTEX
  8
0
 62
9
  6
CONTINUOUS
 10
173.4482149385
 20
84.7674439826
  0
VERTEX
  8
0
 62
9
  6
CONTINUOUS
 10
173.2154970179
 20
85.0075099235
  0
VERTEX
  8
0
 62
9
  6
CONTINUOUS
 10
173.0389835242
 20
85.2999964372
  0
VERTEX
  8
0
 62
9
  6
CONTINUOUS
 10
172.928666815
 20
85.6332001632
  0
VERTEX
  8
0
 62
9
  6
CONTINUOUS
 10
172.8929078819
 20
85.9871007294
  0
SEQEND
  0
LINE
  8
0
 62
9
  6
CONTINUOUS
 10
172.3948105329
 20
112.7067362393
 11
172.3948105329
 21
85.9871007294
  0
LINE
  8
0
 62
9
  6
CONTINUOUS
 10
172.8929078819
 20
112.7067362393
 11
172.8929078819
 21
85.9871007294
  0
LINE
  8
0
 62
9
  6
CONTINUOUS
 10
174.1933425332
 20
89.9699071933
 11
174.1933425332
 21
108.7239297755
  0
LINE
  8
0
 62
9
  6
CONTINUOUS
 10
174.3571627433
 20
83.9632549904
 11
174.3571627433
 21
84.4462179035
  0
LINE
  8
0
 62
9
  6
CONTINUOUS
 10
174.3571627433
 20
114.2476190652
 11
174.3571627433
 21
114.7305819784
  0
LINE
  8
0
 62
9
  6
CONTINUOUS
 10
176.4845903388
 20
88.7166951591
 11
176.4845903388
 21
109.9771418097
  0
LINE
  8
DEFAULT_1
 62
2
  6
CENTER
 10
176.6029761199
 20
77.7834897601
 11
176.6029761199
 21
120.9103472046
  0
LINE
  8
0
 62
9
  6
CONTINUOUS
 10
176.721361901
 20
109.9771418097
 11
176.721361901
 21
88.7166951591
  0
POLYLINE
  8
0
 62
9
  6
CONTINUOUS
 66
1
 70
0
  0
VERTEX
  8
0
 62
9
  6
CONTINUOUS
 10
172.8929078819
 20
112.7067362393
  0
VERTEX
  8
0
 62
9
  6
CONTINUOUS
 10
172.928666815
 20
113.0606368056
  0
VERTEX
  8
0
 62
9
  6
CONTINUOUS
 10
173.0389835242
 20
113.3938405316
  0
VERTEX
  8
0
 62
9
  6
CONTINUOUS
 10
173.2154970179
 20
113.6863270453
  0
VERTEX
  8
0
 62
9
  6
CONTINUOUS
 10
173.4482149385
 20
113.9263929862
  0
VERTEX
  8
0
 62
9
  6
CONTINUOUS
 10
173.7246537055
 20
114.103939382
  0
VERTEX
  8
0
 62
9
  6
CONTINUOUS
 10
174.0337685042
 20
114.212825905
  0
VERTEX
  8
0
 62
9
  6
CONTINUOUS
 10
174.3571627433
 20
114.2476190652
  0
SEQEND
  0
LINE
  8
0
 62
9
  6
CONTINUOUS
 10
178.8487894965
 20
114.2476190652
 11
177.5183176595
 21
110.1728185149
  0
LINE
  8
0
 62
9
  6
CONTINUOUS
 10
180.3130443579
 20
112.7067362393
 11
179.0126097067
 21
108.7239297755
  0
LINE
  8
0
 62
9
  6
CONTINUOUS
 10
172.8929078819
 20
85.9871007294
 11
174.1933425332
 21
89.9699071933
  0
POLYLINE
  8
0
 62
9
  6
CONTINUOUS
 66
1
 70
0
  0
VERTEX
  8
0
 62
9
  6
CONTINUOUS
 10
242.4376345803
 20
107.6728185149
  0
VERTEX
  8
0
 62
9
  6
CONTINUOUS
 10
242.084975006
 20
107.6241979682
  0
VERTEX
  8
0
 62
9
  6
CONTINUOUS
 10
241.752228902
 20
107.4965085746
  0
VERTEX
  8
0
 62
9
  6
CONTINUOUS
 10
241.4581857933
 20
107.2969607736
  0
VERTEX
  8
0
 62
9
  6
CONTINUOUS
 10
241.3309784246
 20
107.1736185402
  0
VERTEX
  8
0
 62
9
  6
CONTINUOUS
 10
241.1251773477
 20
106.8885095918
  0
VERTEX
  8
0
 62
9
  6
CONTINUOUS
 10
240.9934866794
 20
106.5658739482
  0
VERTEX
  8
0
 62
9
  6
CONTINUOUS
 10
240.9433425332
 20
106.2239297755
  0
SEQEND
  0
POLYLINE
  8
0
 62
9
  6
CONTINUOUS
 66
1
 70
0
  0
VERTEX
  8
0
 62
9
  6
CONTINUOUS
 10
110.7683176595
 20
91.0210184538
  0
VERTEX
  8
0
 62
9
  6
CONTINUOUS
 10
111.1209772144
 20
91.0696389956
  0
VERTEX
  8
0
 62
9
  6
CONTINUOUS
 10
111.4537231756
 20
91.1973283095
  0
VERTEX
  8
0
 62
9
  6
CONTINUOUS
 10
111.747766481
 20
91.3968762249
  0
VERTEX
  8
0
 62
9
  6
CONTINUOUS
 10
111.8749738459
 20
91.5202184621
  0
VERTEX
  8
0
 62
9
  6
CONTINUOUS
 10
112.0807748048
 20
91.8053272197
  0
VERTEX
  8
0
 62
9
  6
CONTINUOUS
 10
112.2124655552
 20
92.1279630017
  0
VERTEX
  8
0
 62
9
  6
CONTINUOUS
 10
112.2626097067
 20
92.4699071933
  0
SEQEND
  0
POLYLINE
  8
0
 62
9
  6
CONTINUOUS
 66
1
 70
0
  0
VERTEX
  8
0
 62
9
  6
CONTINUOUS
 10
112.0987894965
 20
86.4632549904
  0
VERTEX
  8
0
 62
9
  6
CONTINUOUS
 10
112.5317693638
 20
86.5122506349
  0
VERTEX
  8
0
 62
9
  6
CONTINUOUS
 10
112.9421744348
 20
86.6569477245
  0
VERTEX
  8
0
 62
9
  6
CONTINUOUS
 10
113.311478154
 20
86.8912763967
  0
VERTEX
  8
0
 62
9
  6
CONTINUOUS
 10
113.622776876
 20
87.2061925701
  0
VERTEX
  8
0
 62
9
  6
CONTINUOUS
 10
113.8602296076
 20
87.5891563526
  0
VERTEX
  8
0
 62
9
  6
CONTINUOUS
 10
114.0098344731
 20
88.0233034571
  0
VERTEX
  8
0
 62
9
  6
CONTINUOUS
 10
114.0611417069
 20
88.4871007294
  0
SEQEND
  0
POLYLINE
  8
0
 62
9
  6
CONTINUOUS
 66
1
 70
0
  0
VERTEX
  8
0
 62
9
  6
CONTINUOUS
 10
109.7345903388
 20
91.2166951591
  0
VERTEX
  8
0
 62
9
  6
CONTINUOUS
 10
109.5667077678
 20
91.2119219984
  0
VERTEX
  8
0
 62
9
  6
CONTINUOUS
 10
109.4062131438
 20
91.1978044045
  0
VERTEX
  8
0
 62
9
  6
CONTINUOUS
 10
109.2602626125
 20
91.1749527444
  0
VERTEX
  8
0
 62
9
  6
CONTINUOUS
 10
109.135373485
 20
91.1443587763
  0
VERTEX
  8
0
 62
9
  6
CONTINUOUS
 10
109.0372077096
 20
91.1073696563
  0
VERTEX
  8
0
 62
9
  6
CONTINUOUS
 10
108.9702599068
 20
91.0656302543
  0
VERTEX
  8
0
 62
9
  6
CONTINUOUS
 10
108.9376345803
 20
91.0210184538
  0
SEQEND
  0
POLYLINE
  8
0
 62
9
  6
CONTINUOUS
 66
1
 70
0
  0
VERTEX
  8
0
 62
9
  6
CONTINUOUS
 10
39.7345903388
 20
94.2166951591
  0
VERTEX
  8
0
 62
9
  6
CONTINUOUS
 10
39.5667077678
 20
94.2119219984
  0
VERTEX
  8
0
 62
9
  6
CONTINUOUS
 10
39.4062131438
 20
94.1978044045
  0
VERTEX
  8
0
 62
9
  6
CONTINUOUS
 10
39.2602626125
 20
94.1749527444
  0
VERTEX
  8
0
 62
9
  6
CONTINUOUS
 10
39.135373485
 20
94.1443587763
  0
VERTEX
  8
0
 62
9
  6
CONTINUOUS
 10
39.0372077096
 20
94.1073696563
  0
VERTEX
  8
0
 62
9
  6
CONTINUOUS
 10
38.9702599068
 20
94.0656302543
  0
VERTEX
  8
0
 62
9
  6
CONTINUOUS
 10
38.9376345803
 20
94.0210184538
  0
SEQEND
  0
POLYLINE
  8
0
 62
9
  6
CONTINUOUS
 66
1
 70
0
  0
VERTEX
  8
0
 62
9
  6
CONTINUOUS
 10
313.471361901
 20
104.4771418097
  0
VERTEX
  8
0
 62
9
  6
CONTINUOUS
 10
313.639244472
 20
104.4819149703
  0
VERTEX
  8
0
 62
9
  6
CONTINUOUS
 10
313.799739096
 20
104.4960325643
  0
VERTEX
  8
0
 62
9
  6
CONTINUOUS
 10
313.9456896273
 20
104.5188842243
  0
VERTEX
  8
0
 62
9
  6
CONTINUOUS
 10
314.0705787548
 20
104.5494781925
  0
VERTEX
  8
0
 62
9
  6
CONTINUOUS
 10
314.1687445302
 20
104.5864673125
  0
VERTEX
  8
0
 62
9
  6
CONTINUOUS
 10
314.235692333
 20
104.6282067145
  0
VERTEX
  8
0
 62
9
  6
CONTINUOUS
 10
314.2683176595
 20
104.6728185149
  0
SEQEND
  0
LINE
  8
0
 62
9
  6
CONTINUOUS
 10
42.1710368616
 20
89.9475192501
 11
42.0987906837
 21
89.9462142677
  0
POLYLINE
  8
0
 62
9
  6
CONTINUOUS
 66
1
 70
0
  0
VERTEX
  8
0
 62
9
  6
CONTINUOUS
 10
243.2345903388
 20
92.6655838985
  0
VERTEX
  8
0
 62
9
  6
CONTINUOUS
 10
242.7519279422
 20
92.6608109963
  0
VERTEX
  8
0
 62
9
  6
CONTINUOUS
 10
242.2905059041
 20
92.6466931167
  0
VERTEX
  8
0
 62
9
  6
CONTINUOUS
 10
241.8708981331
 20
92.6238413179
  0
VERTEX
  8
0
 62
9
  6
CONTINUOUS
 10
241.5118418944
 20
92.5932472968
  0
VERTEX
  8
0
 62
9
  6
CONTINUOUS
 10
241.2296152935
 20
92.5562580573
  0
VERTEX
  8
0
 62
9
  6
CONTINUOUS
 10
241.0371403821
 20
92.5145176548
  0
VERTEX
  8
0
 62
9
  6
CONTINUOUS
 10
240.9433425332
 20
92.4699071933
  0
SEQEND
  0
POLYLINE
  8
0
 62
9
  6
CONTINUOUS
 66
1
 70
0
  0
VERTEX
  8
0
 62
9
  6
CONTINUOUS
 10
109.7345903388
 20
92.6655838985
  0
VERTEX
  8
0
 62
9
  6
CONTINUOUS
 10
109.2519279422
 20
92.6608109963
  0
VERTEX
  8
0
 62
9
  6
CONTINUOUS
 10
108.7905059041
 20
92.6466931167
  0
VERTEX
  8
0
 62
9
  6
CONTINUOUS
 10
108.3708981331
 20
92.6238413179
  0
VERTEX
  8
0
 62
9
  6
CONTINUOUS
 10
108.0118418944
 20
92.5932472968
  0
VERTEX
  8
0
 62
9
  6
CONTINUOUS
 10
107.7296152935
 20
92.5562580573
  0
VERTEX
  8
0
 62
9
  6
CONTINUOUS
 10
107.5371403821
 20
92.5145176548
  0
VERTEX
  8
0
 62
9
  6
CONTINUOUS
 10
107.4433425332
 20
92.4699071933
  0
SEQEND
  0
POLYLINE
  8
0
 62
9
  6
CONTINUOUS
 66
1
 70
0
  0
VERTEX
  8
0
 62
9
  6
CONTINUOUS
 10
313.2345903388
 20
95.6655838985
  0
VERTEX
  8
0
 62
9
  6
CONTINUOUS
 10
312.7519279422
 20
95.6608109963
  0
VERTEX
  8
0
 62
9
  6
CONTINUOUS
 10
312.2905059041
 20
95.6466931167
  0
VERTEX
  8
0
 62
9
  6
CONTINUOUS
 10
311.8708981331
 20
95.6238413179
  0
VERTEX
  8
0
 62
9
  6
CONTINUOUS
 10
311.5118418944
 20
95.5932472968
  0
VERTEX
  8
0
 62
9
  6
CONTINUOUS
 10
311.2296152935
 20
95.5562580573
  0
VERTEX
  8
0
 62
9
  6
CONTINUOUS
 10
311.0371403821
 20
95.5145176548
  0
VERTEX
  8
0
 62
9
  6
CONTINUOUS
 10
310.9433425332
 20
95.4699071933
  0
SEQEND
  0
POLYLINE
  8
0
 62
9
  6
CONTINUOUS
 66
1
 70
0
  0
VERTEX
  8
0
 62
9
  6
CONTINUOUS
 10
39.7345903388
 20
95.6655838985
  0
VERTEX
  8
0
 62
9
  6
CONTINUOUS
 10
39.2519279422
 20
95.6608109963
  0
VERTEX
  8
0
 62
9
  6
CONTINUOUS
 10
38.7905059041
 20
95.6466931167
  0
VERTEX
  8
0
 62
9
  6
CONTINUOUS
 10
38.3708981331
 20
95.6238413179
  0
VERTEX
  8
0
 62
9
  6
CONTINUOUS
 10
38.0118418944
 20
95.5932472968
  0
VERTEX
  8
0
 62
9
  6
CONTINUOUS
 10
37.7296152935
 20
95.5562580573
  0
VERTEX
  8
0
 62
9
  6
CONTINUOUS
 10
37.5371403821
 20
95.5145176548
  0
VERTEX
  8
0
 62
9
  6
CONTINUOUS
 10
37.4433425332
 20
95.4699071933
  0
SEQEND
  0
LINE
  8
0
 62
9
  6
CONTINUOUS
 10
109.7345903388
 20
91.2166951591
 11
109.971361901
 21
91.2166951591
  0
LINE
  8
0
 62
9
  6
CONTINUOUS
 10
243.2345903388
 20
91.2166951591
 11
243.471361901
 21
91.2166951591
  0
LINE
  8
0
 62
9
  6
CONTINUOUS
 10
317.5611417069
 20
91.4871007295
 11
317.0630443579
 21
91.4871007295
  0
LINE
  8
0
 62
9
  6
CONTINUOUS
 10
309.6429078819
 20
91.4871007295
 11
309.1448105329
 21
91.4871007295
  0
LINE
  8
0
 62
9
  6
CONTINUOUS
 10
44.0611417069
 20
91.4871007295
 11
43.5630443579
 21
91.4871007295
  0
LINE
  8
0
 62
9
  6
CONTINUOUS
 10
36.1429078819
 20
91.4871007295
 11
35.6448105329
 21
91.4871007295
  0
LINE
  8
0
 62
9
  6
CONTINUOUS
 10
109.7345903388
 20
92.6655838985
 11
109.971361901
 21
92.6655838985
  0
LINE
  8
0
 62
9
  6
CONTINUOUS
 10
243.2345903388
 20
92.6655838985
 11
243.471361901
 21
92.6655838985
  0
LINE
  8
4_SURFACE
 62
9
  6
CONTINUOUS
 10
25.7029761199
 20
92.6961714511
 11
24.2029761199
 21
92.6961714511
  0
LINE
  8
0
 62
9
  6
CONTINUOUS
 10
327.5029761199
 20
92.6961714511
 11
329.0029761199
 21
92.6961714511
  0
LINE
  8
0
 62
9
  6
CONTINUOUS
 10
39.7345903388
 20
94.2166951591
 11
39.971361901
 21
94.2166951591
  0
LINE
  8
0
 62
9
  6
CONTINUOUS
 10
313.2345903388
 20
94.2166951591
 11
313.471361901
 21
94.2166951591
  0
LINE
  8
0
 62
9
  6
CONTINUOUS
 10
39.7345903388
 20
95.6655838985
 11
39.971361901
 21
95.6655838985
  0
LINE
  8
0
 62
9
  6
CONTINUOUS
 10
313.2345903388
 20
95.6655838985
 11
313.471361901
 21
95.6655838985
  0
LINE
  8
0
 62
9
  6
CONTINUOUS
 10
311.1071615625
 20
89.9462142872
 11
311.0349153782
 21
89.9475192501
  0
POLYLINE
  8
0
 62
9
  6
CONTINUOUS
 66
1
 70
0
  0
VERTEX
  8
0
 62
9
  6
CONTINUOUS
 10
42.1710368616
 20
108.7463177187
  0
VERTEX
  8
0
 62
9
  6
CONTINUOUS
 10
42.3266308654
 20
108.7309812261
  0
VERTEX
  8
0
 62
9
  6
CONTINUOUS
 10
42.6167018573
 20
108.6538585229
  0
VERTEX
  8
0
 62
9
  6
CONTINUOUS
 10
42.8790550461
 20
108.5203138049
  0
VERTEX
  8
0
 62
9
  6
CONTINUOUS
 10
43.1096907671
 20
108.3345308299
  0
VERTEX
  8
0
 62
9
  6
CONTINUOUS
 10
43.2108077806
 20
108.2235817633
  0
VERTEX
  8
0
 62
9
  6
CONTINUOUS
 10
43.3791608557
 20
107.9703670813
  0
VERTEX
  8
0
 62
9
  6
CONTINUOUS
 10
43.4964013148
 20
107.6823050206
  0
VERTEX
  8
0
 62
9
  6
CONTINUOUS
 10
43.5561033114
 20
107.370703107
  0
VERTEX
  8
0
 62
9
  6
CONTINUOUS
 10
43.5630462711
 20
107.206742099
  0
SEQEND
  0
POLYLINE
  8
0
 62
9
  6
CONTINUOUS
 66
1
 70
0
  0
VERTEX
  8
0
 62
9
  6
CONTINUOUS
 10
241.1071627433
 20
86.9462179035
  0
VERTEX
  8
0
 62
9
  6
CONTINUOUS
 10
240.7837685042
 20
86.9810110637
  0
VERTEX
  8
0
 62
9
  6
CONTINUOUS
 10
240.4746537055
 20
87.0898975867
  0
VERTEX
  8
0
 62
9
  6
CONTINUOUS
 10
240.1982149385
 20
87.2674439826
  0
VERTEX
  8
0
 62
9
  6
CONTINUOUS
 10
239.9654970179
 20
87.5075099235
  0
VERTEX
  8
0
 62
9
  6
CONTINUOUS
 10
239.7889835242
 20
87.7999964372
  0
VERTEX
  8
0
 62
9
  6
CONTINUOUS
 10
239.678666815
 20
88.1332001632
  0
VERTEX
  8
0
 62
9
  6
CONTINUOUS
 10
239.6429078819
 20
88.4871007294
  0
SEQEND
  0
POLYLINE
  8
0
 62
9
  6
CONTINUOUS
 66
1
 70
0
  0
VERTEX
  8
0
 62
9
  6
CONTINUOUS
 10
179.0126097067
 20
89.9699071933
  0
VERTEX
  8
0
 62
9
  6
CONTINUOUS
 10
178.9188118577
 20
90.0145176546
  0
VERTEX
  8
0
 62
9
  6
CONTINUOUS
 10
178.7263369463
 20
90.0562580572
  0
VERTEX
  8
0
 62
9
  6
CONTINUOUS
 10
178.4441103454
 20
90.0932472968
  0
VERTEX
  8
0
 62
9
  6
CONTINUOUS
 10
178.0850541067
 20
90.1238413179
  0
VERTEX
  8
0
 62
9
  6
CONTINUOUS
 10
177.6654463357
 20
90.1466931167
  0
VERTEX
  8
0
 62
9
  6
CONTINUOUS
 10
177.2040242976
 20
90.1608109963
  0
VERTEX
  8
0
 62
9
  6
CONTINUOUS
 10
176.721361901
 20
90.1655838985
  0
SEQEND
  0
POLYLINE
  8
0
 62
9
  6
CONTINUOUS
 66
1
 70
0
  0
VERTEX
  8
0
 62
9
  6
CONTINUOUS
 10
177.5183176595
 20
88.5210184538
  0
VERTEX
  8
0
 62
9
  6
CONTINUOUS
 10
177.485692333
 20
88.5656302543
  0
VERTEX
  8
0
 62
9
  6
CONTINUOUS
 10
177.4187445302
 20
88.6073696563
  0
VERTEX
  8
0
 62
9
  6
CONTINUOUS
 10
177.3205787548
 20
88.6443587763
  0
VERTEX
  8
0
 62
9
  6
CONTINUOUS
 10
177.1956896273
 20
88.6749527444
  0
VERTEX
  8
0
 62
9
  6
CONTINUOUS
 10
177.049739096
 20
88.6978044045
  0
VERTEX
  8
0
 62
9
  6
CONTINUOUS
 10
176.889244472
 20
88.7119219984
  0
VERTEX
  8
0
 62
9
  6
CONTINUOUS
 10
176.721361901
 20
88.7166951591
  0
SEQEND
  0
LINE
  8
0
 62
9
  6
CONTINUOUS
 10
177.5183176595
 20
88.5210184538
 11
178.8487894965
 21
84.4462179035
  0
LINE
  8
0
 62
9
  6
CONTINUOUS
 10
179.0126097067
 20
89.9699071933
 11
180.3130443579
 21
85.9871007294
  0
LINE
  8
0
 62
9
  6
CONTINUOUS
 10
174.1933425332
 20
108.7239297755
 11
172.8929078819
 21
112.7067362393
  0
POLYLINE
  8
0
 62
9
  6
CONTINUOUS
 66
1
 70
0
  0
VERTEX
  8
0
 62
9
  6
CONTINUOUS
 10
174.1933425332
 20
89.9699071933
  0
VERTEX
  8
0
 62
9
  6
CONTINUOUS
 10
174.2434866846
 20
89.6279630017
  0
VERTEX
  8
0
 62
9
  6
CONTINUOUS
 10
174.375177435
 20
89.3053272197
  0
VERTEX
  8
0
 62
9
  6
CONTINUOUS
 10
174.5809783939
 20
89.0202184621
  0
VERTEX
  8
0
 62
9
  6
CONTINUOUS
 10
174.7081857588
 20
88.8968762249
  0
VERTEX
  8
0
 62
9
  6
CONTINUOUS
 10
175.0022290642
 20
88.6973283095
  0
VERTEX
  8
0
 62
9
  6
CONTINUOUS
 10
175.3349750255
 20
88.5696389956
  0
VERTEX
  8
0
 62
9
  6
CONTINUOUS
 10
175.6876345803
 20
88.5210184538
  0
SEQEND
  0
POLYLINE
  8
0
 62
9
  6
CONTINUOUS
 66
1
 70
0
  0
VERTEX
  8
0
 62
9
  6
CONTINUOUS
 10
172.3948105329
 20
85.9871007294
  0
VERTEX
  8
0
 62
9
  6
CONTINUOUS
 10
172.4460804701
 20
85.5234694342
  0
VERTEX
  8
0
 62
9
  6
CONTINUOUS
 10
172.5956310671
 20
85.0893490965
  0
VERTEX
  8
0
 62
9
  6
CONTINUOUS
 10
172.8330187599
 20
84.7063913097
  0
VERTEX
  8
0
 62
9
  6
CONTINUOUS
 10
173.1442994466
 20
84.3914171236
  0
VERTEX
  8
0
 62
9
  6
CONTINUOUS
 10
173.5135902351
 20
84.1570388428
  0
VERTEX
  8
0
 62
9
  6
CONTINUOUS
 10
173.9239993882
 20
84.0122927829
  0
VERTEX
  8
0
 62
9
  6
CONTINUOUS
 10
174.3571627433
 20
83.9632549904
  0
SEQEND
  0
LINE
  8
0
 62
9
  6
CONTINUOUS
 10
178.8487894965
 20
114.7305819784
 11
178.8487894965
 21
114.2476190652
  0
LINE
  8
0
 62
9
  6
CONTINUOUS
 10
178.8487894965
 20
84.4462179035
 11
178.8487894965
 21
83.9632549904
  0
LINE
  8
0
 62
9
  6
CONTINUOUS
 10
179.0126097067
 20
108.7239297755
 11
179.0126097067
 21
89.9699071933
  0
LINE
  8
0
 62
9
  6
CONTINUOUS
 10
180.3130443579
 20
85.9871007294
 11
180.3130443579
 21
112.7067362393
  0
LINE
  8
0
 62
9
  6
CONTINUOUS
 10
180.8111417069
 20
85.9871007294
 11
180.8111417069
 21
112.7067362393
  0
POLYLINE
  8
0
 62
9
  6
CONTINUOUS
 66
1
 70
0
  0
VERTEX
  8
0
 62
9
  6
CONTINUOUS
 10
180.3130443579
 20
85.9871007294
  0
VERTEX
  8
0
 62
9
  6
CONTINUOUS
 10
180.2772854248
 20
85.6332001632
  0
VERTEX
  8
0
 62
9
  6
CONTINUOUS
 10
180.1669687157
 20
85.2999964372
  0
VERTEX
  8
0
 62
9
  6
CONTINUOUS
 10
179.9904552219
 20
85.0075099235
  0
VERTEX
  8
0
 62
9
  6
CONTINUOUS
 10
179.7577373013
 20
84.7674439826
  0
VERTEX
  8
0
 62
9
  6
CONTINUOUS
 10
179.4812985344
 20
84.5898975867
  0
VERTEX
  8
0
 62
9
  6
CONTINUOUS
 10
179.1721837356
 20
84.4810110638
  0
VERTEX
  8
0
 62
9
  6
CONTINUOUS
 10
178.8487894965
 20
84.4462179035
  0
SEQEND
  0
LINE
  8
0
 62
9
  6
CONTINUOUS
 10
174.3571627433
 20
84.4462179035
 11
175.6876345803
 21
88.5210184538
  0
POLYLINE
  8
0
 62
9
  6
CONTINUOUS
 66
1
 70
0
  0
VERTEX
  8
0
 62
9
  6
CONTINUOUS
 10
42.1949093409
 20
89.4656332062
  0
VERTEX
  8
0
 62
9
  6
CONTINUOUS
 10
42.6116495153
 20
89.5324020735
  0
VERTEX
  8
0
 62
9
  6
CONTINUOUS
 10
43.0038357064
 20
89.6882755087
  0
VERTEX
  8
0
 62
9
  6
CONTINUOUS
 10
43.3548244482
 20
89.9272443328
  0
VERTEX
  8
0
 62
9
  6
CONTINUOUS
 10
43.649331641
 20
90.2406549543
  0
VERTEX
  8
0
 62
9
  6
CONTINUOUS
 10
43.873047032
 20
90.6166587809
  0
VERTEX
  8
0
 62
9
  6
CONTINUOUS
 10
44.0134183517
 20
91.039553279
  0
VERTEX
  8
0
 62
9
  6
CONTINUOUS
 10
44.0610604937
 20
91.4871008297
  0
SEQEND
  0
POLYLINE
  8
0
 62
9
  6
CONTINUOUS
 66
1
 70
0
  0
VERTEX
  8
0
 62
9
  6
CONTINUOUS
 10
175.6876345803
 20
110.1728185149
  0
VERTEX
  8
0
 62
9
  6
CONTINUOUS
 10
175.334975006
 20
110.1241979682
  0
VERTEX
  8
0
 62
9
  6
CONTINUOUS
 10
175.002228902
 20
109.9965085746
  0
VERTEX
  8
0
 62
9
  6
CONTINUOUS
 10
174.7081857933
 20
109.7969607736
  0
VERTEX
  8
0
 62
9
  6
CONTINUOUS
 10
174.5809784246
 20
109.6736185402
  0
VERTEX
  8
0
 62
9
  6
CONTINUOUS
 10
174.3751773477
 20
109.3885095918
  0
VERTEX
  8
0
 62
9
  6
CONTINUOUS
 10
174.2434866794
 20
109.0658739482
  0
VERTEX
  8
0
 62
9
  6
CONTINUOUS
 10
174.1933425332
 20
108.7239297755
  0
SEQEND
  0
POLYLINE
  8
0
 62
9
  6
CONTINUOUS
 66
1
 70
0
  0
VERTEX
  8
0
 62
9
  6
CONTINUOUS
 10
241.1071627433
 20
112.2305819784
  0
VERTEX
  8
0
 62
9
  6
CONTINUOUS
 10
240.674182876
 20
112.1815863339
  0
VERTEX
  8
0
 62
9
  6
CONTINUOUS
 10
240.263777805
 20
112.0368892443
  0
VERTEX
  8
0
 62
9
  6
CONTINUOUS
 10
239.8944740858
 20
111.8025605721
  0
VERTEX
  8
0
 62
9
  6
CONTINUOUS
 10
239.5831753638
 20
111.4876443987
  0
VERTEX
  8
0
 62
9
  6
CONTINUOUS
 10
239.3457226322
 20
111.1046806161
  0
VERTEX
  8
0
 62
9
  6
CONTINUOUS
 10
239.1961177667
 20
110.6705335116
  0
VERTEX
  8
0
 62
9
  6
CONTINUOUS
 10
239.1448105329
 20
110.2067362393
  0
SEQEND
  0
POLYLINE
  8
0
 62
9
  6
CONTINUOUS
 66
1
 70
0
  0
VERTEX
  8
0
 62
9
  6
CONTINUOUS
 10
243.471361901
 20
107.4771418097
  0
VERTEX
  8
0
 62
9
  6
CONTINUOUS
 10
243.639244472
 20
107.4819149703
  0
VERTEX
  8
0
 62
9
  6
CONTINUOUS
 10
243.799739096
 20
107.4960325643
  0
VERTEX
  8
0
 62
9
  6
CONTINUOUS
 10
243.9456896273
 20
107.5188842243
  0
VERTEX
  8
0
 62
9
  6
CONTINUOUS
 10
244.0705787548
 20
107.5494781925
  0
VERTEX
  8
0
 62
9
  6
CONTINUOUS
 10
244.1687445302
 20
107.5864673125
  0
VERTEX
  8
0
 62
9
  6
CONTINUOUS
 10
244.235692333
 20
107.6282067145
  0
VERTEX
  8
0
 62
9
  6
CONTINUOUS
 10
244.2683176595
 20
107.6728185149
  0
SEQEND
  0
POLYLINE
  8
0
 62
9
  6
CONTINUOUS
 66
1
 70
0
  0
VERTEX
  8
0
 62
9
  6
CONTINUOUS
 10
39.971361901
 20
104.4771418097
  0
VERTEX
  8
0
 62
9
  6
CONTINUOUS
 10
40.139244472
 20
104.4819149703
  0
VERTEX
  8
0
 62
9
  6
CONTINUOUS
 10
40.299739096
 20
104.4960325643
  0
VERTEX
  8
0
 62
9
  6
CONTINUOUS
 10
40.4456896273
 20
104.5188842243
  0
VERTEX
  8
0
 62
9
  6
CONTINUOUS
 10
40.5705787548
 20
104.5494781925
  0
VERTEX
  8
0
 62
9
  6
CONTINUOUS
 10
40.6687445302
 20
104.5864673125
  0
VERTEX
  8
0
 62
9
  6
CONTINUOUS
 10
40.735692333
 20
104.6282067145
  0
VERTEX
  8
0
 62
9
  6
CONTINUOUS
 10
40.7683176595
 20
104.6728185149
  0
SEQEND
  0
POLYLINE
  8
0
 62
9
  6
CONTINUOUS
 66
1
 70
0
  0
VERTEX
  8
0
 62
9
  6
CONTINUOUS
 10
109.971361901
 20
107.4771418097
  0
VERTEX
  8
0
 62
9
  6
CONTINUOUS
 10
110.1392444721
 20
107.4819149703
  0
VERTEX
  8
0
 62
9
  6
CONTINUOUS
 10
110.299739096
 20
107.4960325643
  0
VERTEX
  8
0
 62
9
  6
CONTINUOUS
 10
110.4456896273
 20
107.5188842243
  0
VERTEX
  8
0
 62
9
  6
CONTINUOUS
 10
110.5705787548
 20
107.5494781925
  0
VERTEX
  8
0
 62
9
  6
CONTINUOUS
 10
110.6687445302
 20
107.5864673125
  0
VERTEX
  8
0
 62
9
  6
CONTINUOUS
 10
110.735692333
 20
107.6282067145
  0
VERTEX
  8
0
 62
9
  6
CONTINUOUS
 10
110.7683176595
 20
107.6728185149
  0
SEQEND
  0
POLYLINE
  8
0
 62
9
  6
CONTINUOUS
 66
1
 70
0
  0
VERTEX
  8
0
 62
9
  6
CONTINUOUS
 10
176.721361901
 20
109.9771418097
  0
VERTEX
  8
0
 62
9
  6
CONTINUOUS
 10
176.889244472
 20
109.9819149703
  0
VERTEX
  8
0
 62
9
  6
CONTINUOUS
 10
177.049739096
 20
109.9960325643
  0
VERTEX
  8
0
 62
9
  6
CONTINUOUS
 10
177.1956896273
 20
110.0188842243
  0
VERTEX
  8
0
 62
9
  6
CONTINUOUS
 10
177.3205787548
 20
110.0494781925
  0
VERTEX
  8
0
 62
9
  6
CONTINUOUS
 10
177.4187445302
 20
110.0864673125
  0
VERTEX
  8
0
 62
9
  6
CONTINUOUS
 10
177.485692333
 20
110.1282067145
  0
VERTEX
  8
0
 62
9
  6
CONTINUOUS
 10
177.5183176595
 20
110.1728185149
  0
SEQEND
  0
LINE
  8
0
 62
9
  6
CONTINUOUS
 10
311.0349153782
 20
108.7463177187
 11
311.1071615561
 21
108.747622701
  0
LINE
  8
0
 62
9
  6
CONTINUOUS
 10
42.0988862304
 20
109.2287473061
 11
37.6090230421
 21
109.173529074
  0
POLYLINE
  8
0
 62
9
  6
CONTINUOUS
 66
1
 70
0
  0
VERTEX
  8
0
 62
9
  6
CONTINUOUS
 10
313.471361901
 20
103.0282530703
  0
VERTEX
  8
0
 62
9
  6
CONTINUOUS
 10
313.9540242976
 20
103.0330259725
  0
VERTEX
  8
0
 62
9
  6
CONTINUOUS
 10
314.4154463357
 20
103.0471438521
  0
VERTEX
  8
0
 62
9
  6
CONTINUOUS
 10
314.8350541067
 20
103.0699956509
  0
VERTEX
  8
0
 62
9
  6
CONTINUOUS
 10
315.1941103454
 20
103.100589672
  0
VERTEX
  8
0
 62
9
  6
CONTINUOUS
 10
315.4763369463
 20
103.1375789115
  0
VERTEX
  8
0
 62
9
  6
CONTINUOUS
 10
315.6688118577
 20
103.179319314
  0
VERTEX
  8
0
 62
9
  6
CONTINUOUS
 10
315.7626097067
 20
103.2239297755
  0
SEQEND
  0
POLYLINE
  8
0
 62
9
  6
CONTINUOUS
 66
1
 70
0
  0
VERTEX
  8
0
 62
9
  6
CONTINUOUS
 10
39.971361901
 20
103.0282530703
  0
VERTEX
  8
0
 62
9
  6
CONTINUOUS
 10
40.4540242976
 20
103.0330259725
  0
VERTEX
  8
0
 62
9
  6
CONTINUOUS
 10
40.9154463357
 20
103.0471438521
  0
VERTEX
  8
0
 62
9
  6
CONTINUOUS
 10
41.3350541067
 20
103.0699956509
  0
VERTEX
  8
0
 62
9
  6
CONTINUOUS
 10
41.6941103454
 20
103.100589672
  0
VERTEX
  8
0
 62
9
  6
CONTINUOUS
 10
41.9763369463
 20
103.1375789115
  0
VERTEX
  8
0
 62
9
  6
CONTINUOUS
 10
42.1688118577
 20
103.179319314
  0
VERTEX
  8
0
 62
9
  6
CONTINUOUS
 10
42.2626097067
 20
103.2239297755
  0
SEQEND
  0
POLYLINE
  8
0
 62
9
  6
CONTINUOUS
 66
1
 70
0
  0
VERTEX
  8
0
 62
9
  6
CONTINUOUS
 10
243.471361901
 20
106.0282530703
  0
VERTEX
  8
0
 62
9
  6
CONTINUOUS
 10
243.9540242976
 20
106.0330259725
  0
VERTEX
  8
0
 62
9
  6
CONTINUOUS
 10
244.4154463357
 20
106.0471438521
  0
VERTEX
  8
0
 62
9
  6
CONTINUOUS
 10
244.8350541067
 20
106.0699956509
  0
VERTEX
  8
0
 62
9
  6
CONTINUOUS
 10
245.1941103454
 20
106.100589672
  0
VERTEX
  8
0
 62
9
  6
CONTINUOUS
 10
245.4763369463
 20
106.1375789115
  0
VERTEX
  8
0
 62
9
  6
CONTINUOUS
 10
245.6688118577
 20
106.179319314
  0
VERTEX
  8
0
 62
9
  6
CONTINUOUS
 10
245.7626097067
 20
106.2239297755
  0
SEQEND
  0
POLYLINE
  8
0
 62
9
  6
CONTINUOUS
 66
1
 70
0
  0
VERTEX
  8
0
 62
9
  6
CONTINUOUS
 10
109.971361901
 20
106.0282530703
  0
VERTEX
  8
0
 62
9
  6
CONTINUOUS
 10
110.4540242976
 20
106.0330259725
  0
VERTEX
  8
0
 62
9
  6
CONTINUOUS
 10
110.9154463357
 20
106.0471438521
  0
VERTEX
  8
0
 62
9
  6
CONTINUOUS
 10
111.3350541067
 20
106.0699956509
  0
VERTEX
  8
0
 62
9
  6
CONTINUOUS
 10
111.6941103454
 20
106.100589672
  0
VERTEX
  8
0
 62
9
  6
CONTINUOUS
 10
111.9763369463
 20
106.1375789115
  0
VERTEX
  8
0
 62
9
  6
CONTINUOUS
 10
112.1688118577
 20
106.179319314
  0
VERTEX
  8
0
 62
9
  6
CONTINUOUS
 10
112.2626097067
 20
106.2239297755
  0
SEQEND
  0
POLYLINE
  8
0
 62
9
  6
CONTINUOUS
 66
1
 70
0
  0
VERTEX
  8
0
 62
9
  6
CONTINUOUS
 10
176.721361901
 20
108.5282530703
  0
VERTEX
  8
0
 62
9
  6
CONTINUOUS
 10
177.2040242976
 20
108.5330259725
  0
VERTEX
  8
0
 62
9
  6
CONTINUOUS
 10
177.6654463357
 20
108.5471438521
  0
VERTEX
  8
0
 62
9
  6
CONTINUOUS
 10
178.0850541067
 20
108.5699956509
  0
VERTEX
  8
0
 62
9
  6
CONTINUOUS
 10
178.4441103454
 20
108.600589672
  0
VERTEX
  8
0
 62
9
  6
CONTINUOUS
 10
178.7263369463
 20
108.6375789115
  0
VERTEX
  8
0
 62
9
  6
CONTINUOUS
 10
178.9188118577
 20
108.679319314
  0
VERTEX
  8
0
 62
9
  6
CONTINUOUS
 10
179.0126097067
 20
108.7239297755
  0
SEQEND
  0
LINE
  8
0
 62
9
  6
CONTINUOUS
 10
311.0110428989
 20
109.2282037626
 11
311.1070660208
 21
109.2287458187
  0
LINE
  8
0
 62
9
  6
CONTINUOUS
 10
315.6001036004
 20
108.7516437361
 11
311.107159965
 21
108.7476275743
  0
LINE
  8
0
 62
9
  6
CONTINUOUS
 10
39.7345903388
 20
103.0282530703
 11
39.971361901
 21
103.0282530703
  0
LINE
  8
0
 62
9
  6
CONTINUOUS
 10
313.2345903388
 20
103.0282530703
 11
313.471361901
 21
103.0282530703
  0
LINE
  8
0
 62
9
  6
CONTINUOUS
 10
39.7345903388
 20
104.4771418097
 11
39.971361901
 21
104.4771418097
  0
LINE
  8
0
 62
9
  6
CONTINUOUS
 10
313.2345903388
 20
104.4771418097
 11
313.471361901
 21
104.4771418097
  0
LINE
  8
4_SURFACE
 62
9
  6
CONTINUOUS
 10
25.7029761199
 20
105.9976655177
 11
24.2029761199
 21
105.9976655177
  0
LINE
  8
0
 62
9
  6
CONTINUOUS
 10
327.5029761199
 20
105.9976655177
 11
329.0029761199
 21
105.9976655177
  0
LINE
  8
0
 62
9
  6
CONTINUOUS
 10
109.7345903388
 20
106.0282530703
 11
109.971361901
 21
106.0282530703
  0
LINE
  8
0
 62
9
  6
CONTINUOUS
 10
243.2345903388
 20
106.0282530703
 11
243.471361901
 21
106.0282530703
  0
LINE
  8
0
 62
9
  6
CONTINUOUS
 10
35.6448105329
 20
107.2067362393
 11
36.1429078819
 21
107.2067362393
  0
LINE
  8
0
 62
9
  6
CONTINUOUS
 10
43.5630443579
 20
107.2067362393
 11
44.0611417069
 21
107.2067362393
  0
LINE
  8
0
 62
9
  6
CONTINUOUS
 10
309.1448105329
 20
107.2067362393
 11
309.6429078819
 21
107.2067362393
  0
LINE
  8
0
 62
9
  6
CONTINUOUS
 10
317.0630443579
 20
107.2067362393
 11
317.5611417069
 21
107.2067362393
  0
LINE
  8
0
 62
9
  6
CONTINUOUS
 10
109.7345903388
 20
107.4771418097
 11
109.971361901
 21
107.4771418097
  0
LINE
  8
0
 62
9
  6
CONTINUOUS
 10
243.2345903388
 20
107.4771418097
 11
243.471361901
 21
107.4771418097
  0
LINE
  8
1_AXIS
 62
2
  6
CENTER
 10
152.4283089278
 20
108.3969184844
 11
194.5529761199
 21
108.3969184844
  0
LINE
  8
0
 62
9
  6
CONTINUOUS
 10
176.4845903388
 20
108.5282530703
 11
176.721361901
 21
108.5282530703
  0
LINE
  8
0
 62
9
  6
CONTINUOUS
 10
176.4845903388
 20
109.9771418097
 11
176.721361901
 21
109.9771418097
  0
LINE
  8
0
 62
9
  6
CONTINUOUS
 10
105.6448105329
 20
110.2067362393
 11
106.1429078819
 21
110.2067362393
  0
LINE
  8
0
 62
9
  6
CONTINUOUS
 10
113.5630443579
 20
110.2067362393
 11
114.0611417069
 21
110.2067362393
  0
LINE
  8
0
 62
9
  6
CONTINUOUS
 10
239.1448105329
 20
110.2067362393
 11
239.6429078819
 21
110.2067362393
  0
LINE
  8
0
 62
9
  6
CONTINUOUS
 10
247.0630443579
 20
110.2067362393
 11
247.5611417069
 21
110.2067362393
  0
LINE
  8
0
 62
9
  6
CONTINUOUS
 10
42.0987930375
 20
108.7476299101
 11
37.6058471005
 21
108.7516484493
  0
LINE
  8
0
 62
9
  6
CONTINUOUS
 10
42.0988862304
 20
109.2287473061
 11
42.1949093409
 21
109.2282037626
  0
LINE
  8
0
 62
9
  6
CONTINUOUS
 10
315.5969285577
 20
109.1734557767
 11
311.1070660208
 21
109.2287458187
  0
LINE
  8
0
 62
9
  6
CONTINUOUS
 10
42.0987906773
 20
108.7476226816
 11
42.1710368616
 21
108.7463177187
  0
POLYLINE
  8
0
 62
9
  6
CONTINUOUS
 66
1
 70
0
  0
VERTEX
  8
0
 62
9
  6
CONTINUOUS
 10
311.0349153782
 20
89.9475192501
  0
VERTEX
  8
0
 62
9
  6
CONTINUOUS
 10
310.8793213744
 20
89.9628557427
  0
VERTEX
  8
0
 62
9
  6
CONTINUOUS
 10
310.5892503825
 20
90.0399784459
  0
VERTEX
  8
0
 62
9
  6
CONTINUOUS
 10
310.3268971937
 20
90.1735231639
  0
VERTEX
  8
0
 62
9
  6
CONTINUOUS
 10
310.0962614727
 20
90.3593061389
  0
VERTEX
  8
0
 62
9
  6
CONTINUOUS
 10
309.9951444592
 20
90.4702552055
  0
VERTEX
  8
0
 62
9
  6
CONTINUOUS
 10
309.8267913841
 20
90.7234698875
  0
VERTEX
  8
0
 62
9
  6
CONTINUOUS
 10
309.709550925
 20
91.0115319482
  0
VERTEX
  8
0
 62
9
  6
CONTINUOUS
 10
309.6498489284
 20
91.3231338618
  0
VERTEX
  8
0
 62
9
  6
CONTINUOUS
 10
309.6429059687
 20
91.4870948698
  0
SEQEND
  0
POLYLINE
  8
0
 62
9
  6
CONTINUOUS
 66
1
 70
0
  0
VERTEX
  8
0
 62
9
  6
CONTINUOUS
 10
112.0987894965
 20
111.7476190652
  0
VERTEX
  8
0
 62
9
  6
CONTINUOUS
 10
112.4221837356
 20
111.712825905
  0
VERTEX
  8
0
 62
9
  6
CONTINUOUS
 10
112.7312985344
 20
111.603939382
  0
VERTEX
  8
0
 62
9
  6
CONTINUOUS
 10
113.0077373013
 20
111.4263929862
  0
VERTEX
  8
0
 62
9
  6
CONTINUOUS
 10
113.2404552219
 20
111.1863270453
  0
VERTEX
  8
0
 62
9
  6
CONTINUOUS
 10
113.4169687157
 20
110.8938405316
  0
VERTEX
  8
0
 62
9
  6
CONTINUOUS
 10
113.5272854248
 20
110.5606368056
  0
VERTEX
  8
0
 62
9
  6
CONTINUOUS
 10
113.5630443579
 20
110.2067362393
  0
SEQEND
  0
POLYLINE
  8
0
 62
9
  6
CONTINUOUS
 66
1
 70
0
  0
VERTEX
  8
0
 62
9
  6
CONTINUOUS
 10
174.1933425332
 20
108.7239297755
  0
VERTEX
  8
0
 62
9
  6
CONTINUOUS
 10
174.2871395317
 20
108.6793195704
  0
VERTEX
  8
0
 62
9
  6
CONTINUOUS
 10
174.4796126792
 20
108.637579345
  0
VERTEX
  8
0
 62
9
  6
CONTINUOUS
 10
174.7618372256
 20
108.6005901639
  0
VERTEX
  8
0
 62
9
  6
CONTINUOUS
 10
175.1208921266
 20
108.569996063
  0
VERTEX
  8
0
 62
9
  6
CONTINUOUS
 10
175.5404951653
 20
108.5471443027
  0
VERTEX
  8
0
 62
9
  6
CONTINUOUS
 10
176.0019239517
 20
108.5330260523
  0
VERTEX
  8
0
 62
9
  6
CONTINUOUS
 10
176.4845903388
 20
108.5282530703
  0
SEQEND
  0
POLYLINE
  8
0
 62
9
  6
CONTINUOUS
 66
1
 70
0
  0
VERTEX
  8
0
 62
9
  6
CONTINUOUS
 10
175.6876345803
 20
110.1728185149
  0
VERTEX
  8
0
 62
9
  6
CONTINUOUS
 10
175.720259611
 20
110.128206971
  0
VERTEX
  8
0
 62
9
  6
CONTINUOUS
 10
175.7872068003
 20
110.086467746
  0
VERTEX
  8
0
 62
9
  6
CONTINUOUS
 10
175.8853718611
 20
110.0494786844
  0
VERTEX
  8
0
 62
9
  6
CONTINUOUS
 10
176.0102605233
 20
110.0188846365
  0
VERTEX
  8
0
 62
9
  6
CONTINUOUS
 10
176.1562094085
 20
109.9960330148
  0
VERTEX
  8
0
 62
9
  6
CONTINUOUS
 10
176.3167063798
 20
109.9819150502
  0
VERTEX
  8
0
 62
9
  6
CONTINUOUS
 10
176.4845903388
 20
109.9771418097
  0
SEQEND
  0
LINE
  8
0
 62
9
  6
CONTINUOUS
 10
175.6876345803
 20
110.1728185149
 11
174.3571627433
 21
114.2476190652
  0
POLYLINE
  8
0
 62
9
  6
CONTINUOUS
 66
1
 70
0
  0
VERTEX
  8
0
 62
9
  6
CONTINUOUS
 10
179.0126097067
 20
108.7239297755
  0
VERTEX
  8
0
 62
9
  6
CONTINUOUS
 10
178.9624655552
 20
109.0658739671
  0
VERTEX
  8
0
 62
9
  6
CONTINUOUS
 10
178.8307748048
 20
109.3885097491
  0
VERTEX
  8
0
 62
9
  6
CONTINUOUS
 10
178.6249738459
 20
109.6736185067
  0
VERTEX
  8
0
 62
9
  6
CONTINUOUS
 10
178.497766481
 20
109.7969607439
  0
VERTEX
  8
0
 62
9
  6
CONTINUOUS
 10
178.2037231756
 20
109.9965086592
  0
VERTEX
  8
0
 62
9
  6
CONTINUOUS
 10
177.8709772144
 20
110.1241979732
  0
VERTEX
  8
0
 62
9
  6
CONTINUOUS
 10
177.5183176595
 20
110.1728185149
  0
SEQEND
  0
POLYLINE
  8
0
 62
9
  6
CONTINUOUS
 66
1
 70
0
  0
VERTEX
  8
0
 62
9
  6
CONTINUOUS
 10
180.8111417069
 20
112.7067362393
  0
VERTEX
  8
0
 62
9
  6
CONTINUOUS
 10
180.7598717697
 20
113.1703675346
  0
VERTEX
  8
0
 62
9
  6
CONTINUOUS
 10
180.6103211727
 20
113.6044878723
  0
VERTEX
  8
0
 62
9
  6
CONTINUOUS
 10
180.3729334799
 20
113.9874456591
  0
VERTEX
  8
0
 62
9
  6
CONTINUOUS
 10
180.0616527933
 20
114.3024198452
  0
VERTEX
  8
0
 62
9
  6
CONTINUOUS
 10
179.6923620047
 20
114.536798126
  0
VERTEX
  8
0
 62
9
  6
CONTINUOUS
 10
179.2819528516
 20
114.6815441859
  0
VERTEX
  8
0
 62
9
  6
CONTINUOUS
 10
178.8487894965
 20
114.7305819784
  0
SEQEND
  0
LINE
  8
0
 62
7
  6
CONTINUOUS
 10
192.3140247093
 20
83.2969184844
 11
192.3529761199
 21
81.7969184844
  0
LINE
  8
0
 62
7
  6
CONTINUOUS
 10
192.3140247093
 20
115.3969184844
 11
192.3529761199
 21
116.8969184844
  0
POLYLINE
  8
0
 62
9
  6
CONTINUOUS
 66
1
 70
0
  0
VERTEX
  8
0
 62
9
  6
CONTINUOUS
 10
40.7683176595
 20
94.0210184538
  0
VERTEX
  8
0
 62
9
  6
CONTINUOUS
 10
41.1209772144
 20
94.0696389956
  0
VERTEX
  8
0
 62
9
  6
CONTINUOUS
 10
41.4537231756
 20
94.1973283095
  0
VERTEX
  8
0
 62
9
  6
CONTINUOUS
 10
41.747766481
 20
94.3968762249
  0
VERTEX
  8
0
 62
9
  6
CONTINUOUS
 10
41.8749738459
 20
94.5202184621
  0
VERTEX
  8
0
 62
9
  6
CONTINUOUS
 10
42.0807748048
 20
94.8053272197
  0
VERTEX
  8
0
 62
9
  6
CONTINUOUS
 10
42.2124655552
 20
95.1279630017
  0
VERTEX
  8
0
 62
9
  6
CONTINUOUS
 10
42.2626097067
 20
95.4699071933
  0
SEQEND
  0
POLYLINE
  8
0
 62
9
  6
CONTINUOUS
 66
1
 70
0
  0
VERTEX
  8
0
 62
9
  6
CONTINUOUS
 10
108.9376345803
 20
107.6728185149
  0
VERTEX
  8
0
 62
9
  6
CONTINUOUS
 10
108.584975006
 20
107.6241979682
  0
VERTEX
  8
0
 62
9
  6
CONTINUOUS
 10
108.252228902
 20
107.4965085746
  0
VERTEX
  8
0
 62
9
  6
CONTINUOUS
 10
107.9581857933
 20
107.2969607736
  0
VERTEX
  8
0
 62
9
  6
CONTINUOUS
 10
107.8309784246
 20
107.1736185402
  0
VERTEX
  8
0
 62
9
  6
CONTINUOUS
 10
107.6251773477
 20
106.8885095918
  0
VERTEX
  8
0
 62
9
  6
CONTINUOUS
 10
107.4934866794
 20
106.5658739482
  0
VERTEX
  8
0
 62
9
  6
CONTINUOUS
 10
107.4433425332
 20
106.2239297755
  0
SEQEND
  0
POLYLINE
  8
0
 62
9
  6
CONTINUOUS
 66
1
 70
0
  0
VERTEX
  8
0
 62
9
  6
CONTINUOUS
 10
174.3571627433
 20
114.7305819784
  0
VERTEX
  8
0
 62
9
  6
CONTINUOUS
 10
173.924182876
 20
114.6815863339
  0
VERTEX
  8
0
 62
9
  6
CONTINUOUS
 10
173.513777805
 20
114.5368892443
  0
VERTEX
  8
0
 62
9
  6
CONTINUOUS
 10
173.1444740858
 20
114.3025605721
  0
VERTEX
  8
0
 62
9
  6
CONTINUOUS
 10
172.8331753638
 20
113.9876443987
  0
VERTEX
  8
0
 62
9
  6
CONTINUOUS
 10
172.5957226322
 20
113.6046806161
  0
VERTEX
  8
0
 62
9
  6
CONTINUOUS
 10
172.4461177667
 20
113.1705335116
  0
VERTEX
  8
0
 62
9
  6
CONTINUOUS
 10
172.3948105329
 20
112.7067362393
  0
SEQEND
  0
POLYLINE
  8
0
 62
9
  6
CONTINUOUS
 66
1
 70
0
  0
VERTEX
  8
0
 62
9
  6
CONTINUOUS
 10
107.6071627433
 20
112.2305819784
  0
VERTEX
  8
0
 62
9
  6
CONTINUOUS
 10
107.174182876
 20
112.1815863339
  0
VERTEX
  8
0
 62
9
  6
CONTINUOUS
 10
106.763777805
 20
112.0368892443
  0
VERTEX
  8
0
 62
9
  6
CONTINUOUS
 10
106.3944740858
 20
111.8025605721
  0
VERTEX
  8
0
 62
9
  6
CONTINUOUS
 10
106.0831753638
 20
111.4876443987
  0
VERTEX
  8
0
 62
9
  6
CONTINUOUS
 10
105.8457226322
 20
111.1046806161
  0
VERTEX
  8
0
 62
9
  6
CONTINUOUS
 10
105.6961177667
 20
110.6705335116
  0
VERTEX
  8
0
 62
9
  6
CONTINUOUS
 10
105.6448105329
 20
110.2067362393
  0
SEQEND
  0
LINE
  8
0
 62
9
  6
CONTINUOUS
 10
28.0732255776
 20
108.4942962066
 11
36.5825780214
 21
108.936529453
  0
LINE
  8
0
 62
9
  6
CONTINUOUS
 10
42.1949093409
 20
109.2282037626
 11
160.8919275305
 21
115.3969184844
  0
LINE
  8
4_SURFACE
 62
7
  6
CONTINUOUS
 10
27.9953752521
 20
109.9922746199
 11
160.8529761199
 21
116.8969184844
  0
LINE
  8
0
 62
9
  6
CONTINUOUS
 10
245.5987894965
 20
111.7476190652
 11
241.1071627433
 21
111.7476190652
  0
LINE
  8
0
 62
9
  6
CONTINUOUS
 10
112.0987894965
 20
111.7476190652
 11
107.6071627433
 21
111.7476190652
  0
LINE
  8
0
 62
9
  6
CONTINUOUS
 10
245.5987894965
 20
112.2305819784
 11
241.1071627433
 21
112.2305819784
  0
LINE
  8
0
 62
9
  6
CONTINUOUS
 10
112.0987894965
 20
112.2305819784
 11
107.6071627433
 21
112.2305819784
  0
LINE
  8
0
 62
9
  6
CONTINUOUS
 10
172.3948105329
 20
112.7067362393
 11
172.8929078819
 21
112.7067362393
  0
LINE
  8
0
 62
9
  6
CONTINUOUS
 10
180.3130443579
 20
112.7067362393
 11
180.8111417069
 21
112.7067362393
  0
LINE
  8
0
 62
9
  6
CONTINUOUS
 10
178.8487894965
 20
114.2476190652
 11
174.3571627433
 21
114.2476190652
  0
LINE
  8
0
 62
9
  6
CONTINUOUS
 10
178.8487894965
 20
114.7305819784
 11
174.3571627433
 21
114.7305819784
  0
LINE
  8
0
 62
9
  6
CONTINUOUS
 10
192.3140247093
 20
115.3969184844
 11
160.8919275305
 21
115.3969184844
  0
LINE
  8
0
 62
7
  6
CONTINUOUS
 10
160.8529761199
 20
116.8969184844
 11
192.3529761199
 21
116.8969184844
  0
LINE
  8
0
 62
9
  6
CONTINUOUS
 10
325.1327266623
 20
108.4942962066
 11
316.6233742184
 21
108.936529453
  0
LINE
  8
0
 62
9
  6
CONTINUOUS
 10
311.0110428989
 20
109.2282037626
 11
192.3140247093
 21
115.3969184844
  0
LINE
  8
0
 62
7
  6
CONTINUOUS
 10
325.2105769877
 20
109.9922746199
 11
192.3529761199
 21
116.8969184844
  0
POLYLINE
  8
0
 62
9
  6
CONTINUOUS
 66
1
 70
0
  0
VERTEX
  8
0
 62
9
  6
CONTINUOUS
 10
315.6000958358
 20
108.7516199557
  0
VERTEX
  8
0
 62
9
  6
CONTINUOUS
 10
315.7964397387
 20
108.7393664341
  0
VERTEX
  8
0
 62
9
  6
CONTINUOUS
 10
315.9695899293
 20
108.7043248487
  0
VERTEX
  8
0
 62
9
  6
CONTINUOUS
 10
316.0520634664
 20
108.6792307619
  0
VERTEX
  8
0
 62
9
  6
CONTINUOUS
 10
316.2119282315
 20
108.6140551073
  0
VERTEX
  8
0
 62
9
  6
CONTINUOUS
 10
316.3674478518
 20
108.5277528891
  0
SEQEND
  0
POLYLINE
  8
0
 62
9
  6
CONTINUOUS
 66
1
 70
0
  0
VERTEX
  8
0
 62
9
  6
CONTINUOUS
 10
315.5969285577
 20
109.1734557767
  0
VERTEX
  8
0
 62
9
  6
CONTINUOUS
 10
315.8582517058
 20
109.1567869847
  0
VERTEX
  8
0
 62
9
  6
CONTINUOUS
 10
316.0894853145
 20
109.1184977035
  0
VERTEX
  8
0
 62
9
  6
CONTINUOUS
 10
316.1998648394
 20
109.0920766854
  0
VERTEX
  8
0
 62
9
  6
CONTINUOUS
 10
316.4142608038
 20
109.0246766388
  0
VERTEX
  8
0
 62
9
  6
CONTINUOUS
 10
316.6233742184
 20
108.936529453
  0
SEQEND
  0
POLYLINE
  8
0
 62
9
  6
CONTINUOUS
 66
1
 70
0
  0
VERTEX
  8
0
 62
9
  6
CONTINUOUS
 10
178.8487894965
 20
114.2476190652
  0
VERTEX
  8
0
 62
9
  6
CONTINUOUS
 10
179.1721837356
 20
114.212825905
  0
VERTEX
  8
0
 62
9
  6
CONTINUOUS
 10
179.4812985344
 20
114.103939382
  0
VERTEX
  8
0
 62
9
  6
CONTINUOUS
 10
179.7577373013
 20
113.9263929862
  0
VERTEX
  8
0
 62
9
  6
CONTINUOUS
 10
179.9904552219
 20
113.6863270453
  0
VERTEX
  8
0
 62
9
  6
CONTINUOUS
 10
180.1669687157
 20
113.3938405316
  0
VERTEX
  8
0
 62
9
  6
CONTINUOUS
 10
180.2772854248
 20
113.0606368056
  0
VERTEX
  8
0
 62
9
  6
CONTINUOUS
 10
180.3130443579
 20
112.7067362393
  0
SEQEND
  0
POLYLINE
  8
0
 62
9
  6
CONTINUOUS
 66
1
 70
0
  0
VERTEX
  8
0
 62
9
  6
CONTINUOUS
 10
245.5987894965
 20
111.7476190652
  0
VERTEX
  8
0
 62
9
  6
CONTINUOUS
 10
245.9221837356
 20
111.712825905
  0
VERTEX
  8
0
 62
9
  6
CONTINUOUS
 10
246.2312985344
 20
111.603939382
  0
VERTEX
  8
0
 62
9
  6
CONTINUOUS
 10
246.5077373013
 20
111.4263929862
  0
VERTEX
  8
0
 62
9
  6
CONTINUOUS
 10
246.7404552219
 20
111.1863270453
  0
VERTEX
  8
0
 62
9
  6
CONTINUOUS
 10
246.9169687157
 20
110.8938405316
  0
VERTEX
  8
0
 62
9
  6
CONTINUOUS
 10
247.0272854248
 20
110.5606368056
  0
VERTEX
  8
0
 62
9
  6
CONTINUOUS
 10
247.0630443579
 20
110.2067362393
  0
SEQEND
  0
POLYLINE
  8
0
 62
9
  6
CONTINUOUS
 66
1
 70
0
  0
VERTEX
  8
0
 62
9
  6
CONTINUOUS
 10
38.9376345803
 20
104.6728185149
  0
VERTEX
  8
0
 62
9
  6
CONTINUOUS
 10
38.584975006
 20
104.6241979682
  0
VERTEX
  8
0
 62
9
  6
CONTINUOUS
 10
38.252228902
 20
104.4965085746
  0
VERTEX
  8
0
 62
9
  6
CONTINUOUS
 10
37.9581857933
 20
104.2969607736
  0
VERTEX
  8
0
 62
9
  6
CONTINUOUS
 10
37.8309784246
 20
104.1736185402
  0
VERTEX
  8
0
 62
9
  6
CONTINUOUS
 10
37.6251773477
 20
103.8885095918
  0
VERTEX
  8
0
 62
9
  6
CONTINUOUS
 10
37.4934866794
 20
103.5658739482
  0
VERTEX
  8
0
 62
9
  6
CONTINUOUS
 10
37.4433425332
 20
103.2239297755
  0
SEQEND
  0
POLYLINE
  8
0
 62
9
  6
CONTINUOUS
 66
1
 70
0
  0
VERTEX
  8
0
 62
9
  6
CONTINUOUS
 10
245.7626097067
 20
92.4699071933
  0
VERTEX
  8
0
 62
9
  6
CONTINUOUS
 10
245.6688118577
 20
92.5145176546
  0
VERTEX
  8
0
 62
9
  6
CONTINUOUS
 10
245.4763369463
 20
92.5562580572
  0
VERTEX
  8
0
 62
9
  6
CONTINUOUS
 10
245.1941103454
 20
92.5932472968
  0
VERTEX
  8
0
 62
9
  6
CONTINUOUS
 10
244.8350541067
 20
92.6238413179
  0
VERTEX
  8
0
 62
9
  6
CONTINUOUS
 10
244.4154463357
 20
92.6466931167
  0
VERTEX
  8
0
 62
9
  6
CONTINUOUS
 10
243.9540242976
 20
92.6608109963
  0
VERTEX
  8
0
 62
9
  6
CONTINUOUS
 10
243.471361901
 20
92.6655838985
  0
SEQEND
  0
POLYLINE
  8
0
 62
9
  6
CONTINUOUS
 66
1
 70
0
  0
VERTEX
  8
0
 62
9
  6
CONTINUOUS
 10
240.9433425332
 20
106.2239297755
  0
VERTEX
  8
0
 62
9
  6
CONTINUOUS
 10
241.0371395317
 20
106.1793195704
  0
VERTEX
  8
0
 62
9
  6
CONTINUOUS
 10
241.2296126792
 20
106.137579345
  0
VERTEX
  8
0
 62
9
  6
CONTINUOUS
 10
241.5118372256
 20
106.1005901639
  0
VERTEX
  8
0
 62
9
  6
CONTINUOUS
 10
241.8708921266
 20
106.069996063
  0
VERTEX
  8
0
 62
9
  6
CONTINUOUS
 10
242.2904951653
 20
106.0471443027
  0
VERTEX
  8
0
 62
9
  6
CONTINUOUS
 10
242.7519239517
 20
106.0330260523
  0
VERTEX
  8
0
 62
9
  6
CONTINUOUS
 10
243.2345903388
 20
106.0282530703
  0
SEQEND
  0
POLYLINE
  8
0
 62
9
  6
CONTINUOUS
 66
1
 70
0
  0
VERTEX
  8
0
 62
9
  6
CONTINUOUS
 10
244.2683176595
 20
91.0210184538
  0
VERTEX
  8
0
 62
9
  6
CONTINUOUS
 10
244.235692333
 20
91.0656302543
  0
VERTEX
  8
0
 62
9
  6
CONTINUOUS
 10
244.1687445302
 20
91.1073696563
  0
VERTEX
  8
0
 62
9
  6
CONTINUOUS
 10
244.0705787548
 20
91.1443587763
  0
VERTEX
  8
0
 62
9
  6
CONTINUOUS
 10
243.9456896273
 20
91.1749527444
  0
VERTEX
  8
0
 62
9
  6
CONTINUOUS
 10
243.799739096
 20
91.1978044045
  0
VERTEX
  8
0
 62
9
  6
CONTINUOUS
 10
243.639244472
 20
91.2119219984
  0
VERTEX
  8
0
 62
9
  6
CONTINUOUS
 10
243.471361901
 20
91.2166951591
  0
SEQEND
  0
LINE
  8
0
 62
9
  6
CONTINUOUS
 10
239.1448105329
 20
110.2067362393
 11
239.1448105329
 21
88.4871007294
  0
POLYLINE
  8
0
 62
9
  6
CONTINUOUS
 66
1
 70
0
  0
VERTEX
  8
0
 62
9
  6
CONTINUOUS
 10
239.6429078819
 20
110.2067362393
  0
VERTEX
  8
0
 62
9
  6
CONTINUOUS
 10
239.678666815
 20
110.5606368056
  0
VERTEX
  8
0
 62
9
  6
CONTINUOUS
 10
239.7889835242
 20
110.8938405316
  0
VERTEX
  8
0
 62
9
  6
CONTINUOUS
 10
239.9654970179
 20
111.1863270453
  0
VERTEX
  8
0
 62
9
  6
CONTINUOUS
 10
240.1982149385
 20
111.4263929862
  0
VERTEX
  8
0
 62
9
  6
CONTINUOUS
 10
240.4746537055
 20
111.603939382
  0
VERTEX
  8
0
 62
9
  6
CONTINUOUS
 10
240.7837685042
 20
111.712825905
  0
VERTEX
  8
0
 62
9
  6
CONTINUOUS
 10
241.1071627433
 20
111.7476190652
  0
SEQEND
  0
LINE
  8
0
 62
9
  6
CONTINUOUS
 10
245.5987894965
 20
111.7476190652
 11
244.2683176595
 21
107.6728185149
  0
POLYLINE
  8
0
 62
9
  6
CONTINUOUS
 66
1
 70
0
  0
VERTEX
  8
0
 62
9
  6
CONTINUOUS
 10
316.6233742184
 20
89.7573075158
  0
VERTEX
  8
0
 62
9
  6
CONTINUOUS
 10
316.2809763117
 20
89.6246925735
  0
VERTEX
  8
0
 62
9
  6
CONTINUOUS
 10
315.9380118438
 20
89.547712505
  0
VERTEX
  8
0
 62
9
  6
CONTINUOUS
 10
315.5969291977
 20
89.5203078947
  0
SEQEND
  0
POLYLINE
  8
0
 62
9
  6
CONTINUOUS
 66
1
 70
0
  0
VERTEX
  8
0
 62
9
  6
CONTINUOUS
 10
315.7626097067
 20
95.4699071933
  0
VERTEX
  8
0
 62
9
  6
CONTINUOUS
 10
315.6688118577
 20
95.5145176546
  0
VERTEX
  8
0
 62
9
  6
CONTINUOUS
 10
315.4763369463
 20
95.5562580572
  0
VERTEX
  8
0
 62
9
  6
CONTINUOUS
 10
315.1941103454
 20
95.5932472968
  0
VERTEX
  8
0
 62
9
  6
CONTINUOUS
 10
314.8350541067
 20
95.6238413179
  0
VERTEX
  8
0
 62
9
  6
CONTINUOUS
 10
314.4154463357
 20
95.6466931167
  0
VERTEX
  8
0
 62
9
  6
CONTINUOUS
 10
313.9540242976
 20
95.6608109963
  0
VERTEX
  8
0
 62
9
  6
CONTINUOUS
 10
313.471361901
 20
95.6655838985
  0
SEQEND
  0
POLYLINE
  8
0
 62
9
  6
CONTINUOUS
 66
1
 70
0
  0
VERTEX
  8
0
 62
9
  6
CONTINUOUS
 10
310.9433425332
 20
103.2239297755
  0
VERTEX
  8
0
 62
9
  6
CONTINUOUS
 10
311.0371395317
 20
103.1793195704
  0
VERTEX
  8
0
 62
9
  6
CONTINUOUS
 10
311.2296126792
 20
103.137579345
  0
VERTEX
  8
0
 62
9
  6
CONTINUOUS
 10
311.5118372256
 20
103.1005901639
  0
VERTEX
  8
0
 62
9
  6
CONTINUOUS
 10
311.8708921266
 20
103.069996063
  0
VERTEX
  8
0
 62
9
  6
CONTINUOUS
 10
312.2904951653
 20
103.0471443027
  0
VERTEX
  8
0
 62
9
  6
CONTINUOUS
 10
312.7519239517
 20
103.0330260523
  0
VERTEX
  8
0
 62
9
  6
CONTINUOUS
 10
313.2345903388
 20
103.0282530703
  0
SEQEND
  0
POLYLINE
  8
0
 62
9
  6
CONTINUOUS
 66
1
 70
0
  0
VERTEX
  8
0
 62
9
  6
CONTINUOUS
 10
242.4376345803
 20
107.6728185149
  0
VERTEX
  8
0
 62
9
  6
CONTINUOUS
 10
242.470259611
 20
107.628206971
  0
VERTEX
  8
0
 62
9
  6
CONTINUOUS
 10
242.5372068003
 20
107.586467746
  0
VERTEX
  8
0
 62
9
  6
CONTINUOUS
 10
242.6353718611
 20
107.5494786844
  0
VERTEX
  8
0
 62
9
  6
CONTINUOUS
 10
242.7602605233
 20
107.5188846365
  0
VERTEX
  8
0
 62
9
  6
CONTINUOUS
 10
242.9062094085
 20
107.4960330148
  0
VERTEX
  8
0
 62
9
  6
CONTINUOUS
 10
243.0667063798
 20
107.4819150502
  0
VERTEX
  8
0
 62
9
  6
CONTINUOUS
 10
243.2345903388
 20
107.4771418097
  0
SEQEND
  0
LINE
  8
0
 62
9
  6
CONTINUOUS
 10
244.2683176595
 20
91.0210184538
 11
245.5987894965
 21
86.9462179035
  0
POLYLINE
  8
0
 62
9
  6
CONTINUOUS
 66
1
 70
0
  0
VERTEX
  8
0
 62
9
  6
CONTINUOUS
 10
240.9433425332
 20
92.4699071933
  0
VERTEX
  8
0
 62
9
  6
CONTINUOUS
 10
240.9934866846
 20
92.1279630017
  0
VERTEX
  8
0
 62
9
  6
CONTINUOUS
 10
241.125177435
 20
91.8053272197
  0
VERTEX
  8
0
 62
9
  6
CONTINUOUS
 10
241.3309783939
 20
91.5202184621
  0
VERTEX
  8
0
 62
9
  6
CONTINUOUS
 10
241.4581857588
 20
91.3968762249
  0
VERTEX
  8
0
 62
9
  6
CONTINUOUS
 10
241.7522290642
 20
91.1973283095
  0
VERTEX
  8
0
 62
9
  6
CONTINUOUS
 10
242.0849750255
 20
91.0696389956
  0
VERTEX
  8
0
 62
9
  6
CONTINUOUS
 10
242.4376345803
 20
91.0210184538
  0
SEQEND
  0
POLYLINE
  8
0
 62
9
  6
CONTINUOUS
 66
1
 70
0
  0
VERTEX
  8
0
 62
9
  6
CONTINUOUS
 10
239.1448105329
 20
88.4871007294
  0
VERTEX
  8
0
 62
9
  6
CONTINUOUS
 10
239.1960804701
 20
88.0234694342
  0
VERTEX
  8
0
 62
9
  6
CONTINUOUS
 10
239.3456310671
 20
87.5893490965
  0
VERTEX
  8
0
 62
9
  6
CONTINUOUS
 10
239.5830187599
 20
87.2063913097
  0
VERTEX
  8
0
 62
9
  6
CONTINUOUS
 10
239.8942994466
 20
86.8914171236
  0
VERTEX
  8
0
 62
9
  6
CONTINUOUS
 10
240.2635902351
 20
86.6570388428
  0
VERTEX
  8
0
 62
9
  6
CONTINUOUS
 10
240.6739993882
 20
86.5122927829
  0
VERTEX
  8
0
 62
9
  6
CONTINUOUS
 10
241.1071627433
 20
86.4632549904
  0
SEQEND
  0
LINE
  8
0
 62
9
  6
CONTINUOUS
 10
239.6429078819
 20
110.2067362393
 11
239.6429078819
 21
88.4871007294
  0
LINE
  8
0
 62
9
  6
CONTINUOUS
 10
240.9433425332
 20
92.4699071933
 11
240.9433425332
 21
106.2239297755
  0
LINE
  8
0
 62
9
  6
CONTINUOUS
 10
241.1071627433
 20
86.4632549904
 11
241.1071627433
 21
86.9462179035
  0
LINE
  8
0
 62
9
  6
CONTINUOUS
 10
241.1071627433
 20
111.7476190652
 11
241.1071627433
 21
112.2305819784
  0
LINE
  8
0
 62
9
  6
CONTINUOUS
 10
243.2345903388
 20
91.2166951591
 11
243.2345903388
 21
107.4771418097
  0
LINE
  8
0
 62
9
  6
CONTINUOUS
 10
243.471361901
 20
107.4771418097
 11
243.471361901
 21
91.2166951591
  0
LINE
  8
0
 62
9
  6
CONTINUOUS
 10
245.5987894965
 20
112.2305819784
 11
245.5987894965
 21
111.7476190652
  0
LINE
  8
0
 62
9
  6
CONTINUOUS
 10
245.5987894965
 20
86.9462179035
 11
245.5987894965
 21
86.4632549904
  0
LINE
  8
0
 62
9
  6
CONTINUOUS
 10
245.7626097067
 20
106.2239297755
 11
245.7626097067
 21
92.4699071933
  0
LINE
  8
0
 62
9
  6
CONTINUOUS
 10
247.0630443579
 20
88.4871007294
 11
247.0630443579
 21
110.2067362393
  0
LINE
  8
0
 62
9
  6
CONTINUOUS
 10
247.5611417069
 20
88.4871007294
 11
247.5611417069
 21
110.2067362393
  0
POLYLINE
  8
0
 62
9
  6
CONTINUOUS
 66
1
 70
0
  0
VERTEX
  8
0
 62
9
  6
CONTINUOUS
 10
247.0630443579
 20
88.4871007294
  0
VERTEX
  8
0
 62
9
  6
CONTINUOUS
 10
247.0272854248
 20
88.1332001632
  0
VERTEX
  8
0
 62
9
  6
CONTINUOUS
 10
246.9169687157
 20
87.7999964372
  0
VERTEX
  8
0
 62
9
  6
CONTINUOUS
 10
246.7404552219
 20
87.5075099235
  0
VERTEX
  8
0
 62
9
  6
CONTINUOUS
 10
246.5077373013
 20
87.2674439826
  0
VERTEX
  8
0
 62
9
  6
CONTINUOUS
 10
246.2312985344
 20
87.0898975867
  0
VERTEX
  8
0
 62
9
  6
CONTINUOUS
 10
245.9221837356
 20
86.9810110638
  0
VERTEX
  8
0
 62
9
  6
CONTINUOUS
 10
245.5987894965
 20
86.9462179035
  0
SEQEND
  0
LINE
  8
0
 62
9
  6
CONTINUOUS
 10
239.6429078819
 20
88.4871007294
 11
240.9433425332
 21
92.4699071933
  0
LINE
  8
0
 62
9
  6
CONTINUOUS
 10
247.0630443579
 20
110.2067362393
 11
245.7626097067
 21
106.2239297755
  0
LINE
  8
0
 62
9
  6
CONTINUOUS
 10
241.1071627433
 20
86.9462179035
 11
242.4376345803
 21
91.0210184538
  0
POLYLINE
  8
0
 62
9
  6
CONTINUOUS
 66
1
 70
0
  0
VERTEX
  8
0
 62
9
  6
CONTINUOUS
 10
316.3674478518
 20
90.1660840797
  0
VERTEX
  8
0
 62
9
  6
CONTINUOUS
 10
316.1126262001
 20
90.036659106
  0
VERTEX
  8
0
 62
9
  6
CONTINUOUS
 10
315.8562583606
 20
89.9639444684
  0
VERTEX
  8
0
 62
9
  6
CONTINUOUS
 10
315.6001022546
 20
89.9421973544
  0
SEQEND
  0
LINE
  8
0
 62
9
  6
CONTINUOUS
 10
240.9433425332
 20
106.2239297755
 11
239.6429078819
 21
110.2067362393
  0
LINE
  8
0
 62
9
  6
CONTINUOUS
 10
245.7626097067
 20
92.4699071933
 11
247.0630443579
 21
88.4871007294
  0
LINE
  8
0
 62
9
  6
CONTINUOUS
 10
242.4376345803
 20
107.6728185149
 11
241.1071627433
 21
111.7476190652
  0
POLYLINE
  8
0
 62
9
  6
CONTINUOUS
 66
1
 70
0
  0
VERTEX
  8
0
 62
9
  6
CONTINUOUS
 10
245.7626097067
 20
106.2239297755
  0
VERTEX
  8
0
 62
9
  6
CONTINUOUS
 10
245.7124655552
 20
106.5658739671
  0
VERTEX
  8
0
 62
9
  6
CONTINUOUS
 10
245.5807748048
 20
106.8885097491
  0
VERTEX
  8
0
 62
9
  6
CONTINUOUS
 10
245.3749738459
 20
107.1736185067
  0
VERTEX
  8
0
 62
9
  6
CONTINUOUS
 10
245.247766481
 20
107.2969607439
  0
VERTEX
  8
0
 62
9
  6
CONTINUOUS
 10
244.9537231756
 20
107.4965086592
  0
VERTEX
  8
0
 62
9
  6
CONTINUOUS
 10
244.6209772144
 20
107.6241979732
  0
VERTEX
  8
0
 62
9
  6
CONTINUOUS
 10
244.2683176595
 20
107.6728185149
  0
SEQEND
  0
POLYLINE
  8
0
 62
9
  6
CONTINUOUS
 66
1
 70
0
  0
VERTEX
  8
0
 62
9
  6
CONTINUOUS
 10
247.5611417069
 20
110.2067362393
  0
VERTEX
  8
0
 62
9
  6
CONTINUOUS
 10
247.5098717697
 20
110.6703675346
  0
VERTEX
  8
0
 62
9
  6
CONTINUOUS
 10
247.3603211727
 20
111.1044878723
  0
VERTEX
  8
0
 62
9
  6
CONTINUOUS
 10
247.1229334799
 20
111.4874456591
  0
VERTEX
  8
0
 62
9
  6
CONTINUOUS
 10
246.8116527933
 20
111.8024198452
  0
VERTEX
  8
0
 62
9
  6
CONTINUOUS
 10
246.4423620047
 20
112.036798126
  0
VERTEX
  8
0
 62
9
  6
CONTINUOUS
 10
246.0319528516
 20
112.1815441859
  0
VERTEX
  8
0
 62
9
  6
CONTINUOUS
 10
245.5987894965
 20
112.2305819784
  0
SEQEND
  0
POLYLINE
  8
0
 62
9
  6
CONTINUOUS
 66
1
 70
0
  0
VERTEX
  8
0
 62
9
  6
CONTINUOUS
 10
316.6233742184
 20
89.7573075158
  0
VERTEX
  8
0
 62
9
  6
CONTINUOUS
 10
316.9689455268
 20
90.032860196
  0
VERTEX
  8
0
 62
9
  6
CONTINUOUS
 10
317.2484296384
 20
90.3849115711
  0
VERTEX
  8
0
 62
9
  6
CONTINUOUS
 10
317.3582616115
 20
90.5850276297
  0
VERTEX
  8
0
 62
9
  6
CONTINUOUS
 10
317.5095380777
 20
91.0219897185
  0
VERTEX
  8
0
 62
9
  6
CONTINUOUS
 10
317.5610734788
 20
91.4871007938
  0
SEQEND
  0
POLYLINE
  8
0
 62
9
  6
CONTINUOUS
 66
1
 70
0
  0
VERTEX
  8
0
 62
9
  6
CONTINUOUS
 10
316.3674478518
 20
108.5277528891
  0
VERTEX
  8
0
 62
9
  6
CONTINUOUS
 10
316.6111729225
 20
108.333060864
  0
VERTEX
  8
0
 62
9
  6
CONTINUOUS
 10
316.8028628573
 20
108.0989752983
  0
VERTEX
  8
0
 62
9
  6
CONTINUOUS
 10
316.9454544218
 20
107.8279948013
  0
VERTEX
  8
0
 62
9
  6
CONTINUOUS
 10
317.0340275763
 20
107.5272195915
  0
VERTEX
  8
0
 62
9
  6
CONTINUOUS
 10
317.0630463042
 20
107.2067422002
  0
SEQEND
  0
LINE
  8
0
 62
9
  6
CONTINUOUS
 10
316.6233742184
 20
108.936529453
 11
316.3674478518
 21
108.5277528891
  0
POLYLINE
  8
0
 62
9
  6
CONTINUOUS
 66
1
 70
0
  0
VERTEX
  8
0
 62
9
  6
CONTINUOUS
 10
314.2683176595
 20
94.0210184538
  0
VERTEX
  8
0
 62
9
  6
CONTINUOUS
 10
314.235692333
 20
94.0656302543
  0
VERTEX
  8
0
 62
9
  6
CONTINUOUS
 10
314.1687445302
 20
94.1073696563
  0
VERTEX
  8
0
 62
9
  6
CONTINUOUS
 10
314.0705787548
 20
94.1443587763
  0
VERTEX
  8
0
 62
9
  6
CONTINUOUS
 10
313.9456896273
 20
94.1749527444
  0
VERTEX
  8
0
 62
9
  6
CONTINUOUS
 10
313.799739096
 20
94.1978044045
  0
VERTEX
  8
0
 62
9
  6
CONTINUOUS
 10
313.639244472
 20
94.2119219984
  0
VERTEX
  8
0
 62
9
  6
CONTINUOUS
 10
313.471361901
 20
94.2166951591
  0
SEQEND
  0
POLYLINE
  8
0
 62
9
  6
CONTINUOUS
 66
1
 70
0
  0
VERTEX
  8
0
 62
9
  6
CONTINUOUS
 10
312.4376345803
 20
104.6728185149
  0
VERTEX
  8
0
 62
9
  6
CONTINUOUS
 10
312.470259611
 20
104.628206971
  0
VERTEX
  8
0
 62
9
  6
CONTINUOUS
 10
312.5372068003
 20
104.586467746
  0
VERTEX
  8
0
 62
9
  6
CONTINUOUS
 10
312.6353718611
 20
104.5494786844
  0
VERTEX
  8
0
 62
9
  6
CONTINUOUS
 10
312.7602605233
 20
104.5188846365
  0
VERTEX
  8
0
 62
9
  6
CONTINUOUS
 10
312.9062094085
 20
104.4960330148
  0
VERTEX
  8
0
 62
9
  6
CONTINUOUS
 10
313.0667063798
 20
104.4819150502
  0
VERTEX
  8
0
 62
9
  6
CONTINUOUS
 10
313.2345903388
 20
104.4771418097
  0
SEQEND
  0
LINE
  8
0
 62
9
  6
CONTINUOUS
 10
316.6233742184
 20
89.7573075158
 11
316.3674478518
 21
90.1660840797
  0
POLYLINE
  8
0
 62
9
  6
CONTINUOUS
 66
1
 70
0
  0
VERTEX
  8
0
 62
9
  6
CONTINUOUS
 10
309.1448765201
 20
91.4871007862
  0
VERTEX
  8
0
 62
9
  6
CONTINUOUS
 10
309.1926297286
 20
91.0391121524
  0
VERTEX
  8
0
 62
9
  6
CONTINUOUS
 10
309.3330598602
 20
90.6163214755
  0
VERTEX
  8
0
 62
9
  6
CONTINUOUS
 10
309.5567599373
 20
90.2404707457
  0
VERTEX
  8
0
 62
9
  6
CONTINUOUS
 10
309.8512228959
 20
89.9271635217
  0
VERTEX
  8
0
 62
9
  6
CONTINUOUS
 10
310.2021718753
 20
89.6882462982
  0
VERTEX
  8
0
 62
9
  6
CONTINUOUS
 10
310.5943151615
 20
89.5323987018
  0
VERTEX
  8
0
 62
9
  6
CONTINUOUS
 10
311.0110428989
 20
89.4656332062
  0
SEQEND
  0
LINE
  8
0
 62
9
  6
CONTINUOUS
 10
309.1448917461
 20
107.2067361391
 11
309.1448765201
 21
91.4871007862
  0
LINE
  8
0
 62
9
  6
CONTINUOUS
 10
309.6429078819
 20
107.2067362393
 11
309.6429078819
 21
91.4871007294
  0
POLYLINE
  8
0
 62
9
  6
CONTINUOUS
 66
1
 70
0
  0
VERTEX
  8
0
 62
9
  6
CONTINUOUS
 10
309.6429053968
 20
107.2067438504
  0
VERTEX
  8
0
 62
9
  6
CONTINUOUS
 10
309.6786450508
 20
107.5605343266
  0
VERTEX
  8
0
 62
9
  6
CONTINUOUS
 10
309.7834898432
 20
107.8817679079
  0
VERTEX
  8
0
 62
9
  6
CONTINUOUS
 10
309.9506177032
 20
108.1666700485
  0
VERTEX
  8
0
 62
9
  6
CONTINUOUS
 10
310.1704700818
 20
108.403093639
  0
VERTEX
  8
0
 62
9
  6
CONTINUOUS
 10
310.4319456749
 20
108.5821356093
  0
VERTEX
  8
0
 62
9
  6
CONTINUOUS
 10
310.7244510674
 20
108.6980667577
  0
VERTEX
  8
0
 62
9
  6
CONTINUOUS
 10
311.0349153782
 20
108.7463177187
  0
SEQEND
  0
LINE
  8
0
 62
9
  6
CONTINUOUS
 10
309.6429078819
 20
91.4871007294
 11
310.9433425332
 21
95.4699071933
  0
LINE
  8
0
 62
9
  6
CONTINUOUS
 10
315.6001036004
 20
108.7516437361
 11
314.2683176595
 21
104.6728185149
  0
LINE
  8
0
 62
9
  6
CONTINUOUS
 10
311.1071592023
 20
89.9462070587
 11
312.4376345803
 21
94.0210184538
  0
LINE
  8
0
 62
9
  6
CONTINUOUS
 10
317.0630443579
 20
107.2067362393
 11
315.7626097067
 21
103.2239297755
  0
LINE
  8
0
 62
9
  6
CONTINUOUS
 10
310.9433425332
 20
103.2239297755
 11
309.6429078819
 21
107.2067362393
  0
LINE
  8
0
 62
9
  6
CONTINUOUS
 10
314.2683176595
 20
94.0210184538
 11
315.6001051394
 21
89.9421885194
  0
LINE
  8
0
 62
9
  6
CONTINUOUS
 10
312.4376345803
 20
104.6728185149
 11
311.107159965
 21
108.7476275743
  0
LINE
  8
0
 62
9
  6
CONTINUOUS
 10
315.7626097067
 20
95.4699071933
 11
317.0630443579
 21
91.4871007294
  0
POLYLINE
  8
0
 62
9
  6
CONTINUOUS
 66
1
 70
0
  0
VERTEX
  8
0
 62
9
  6
CONTINUOUS
 10
310.9433425332
 20
95.4699071933
  0
VERTEX
  8
0
 62
9
  6
CONTINUOUS
 10
310.9934866846
 20
95.1279630017
  0
VERTEX
  8
0
 62
9
  6
CONTINUOUS
 10
311.125177435
 20
94.8053272197
  0
VERTEX
  8
0
 62
9
  6
CONTINUOUS
 10
311.3309783939
 20
94.5202184621
  0
VERTEX
  8
0
 62
9
  6
CONTINUOUS
 10
311.4581857588
 20
94.3968762249
  0
VERTEX
  8
0
 62
9
  6
CONTINUOUS
 10
311.7522290642
 20
94.1973283095
  0
VERTEX
  8
0
 62
9
  6
CONTINUOUS
 10
312.0849750255
 20
94.0696389956
  0
VERTEX
  8
0
 62
9
  6
CONTINUOUS
 10
312.4376345803
 20
94.0210184538
  0
SEQEND
  0
LINE
  8
0
 62
9
  6
CONTINUOUS
 10
325.1327266623
 20
90.1995407622
 11
325.2105769877
 21
88.7015623488
  0
LINE
  8
0
 62
9
  6
CONTINUOUS
 10
311.0110428989
 20
109.2282037626
 11
311.0349153782
 21
108.7463177187
  0
LINE
  8
0
 62
9
  6
CONTINUOUS
 10
315.5991021346
 20
108.8105625003
 11
315.6001026421
 21
108.7516404591
  0
POLYLINE
  8
0
 62
9
  6
CONTINUOUS
 66
1
 70
0
  0
VERTEX
  8
0
 62
9
  6
CONTINUOUS
 10
315.5969294031
 20
109.1735448434
  0
VERTEX
  8
0
 62
9
  6
CONTINUOUS
 10
315.5974430585
 20
109.0311493092
  0
VERTEX
  8
0
 62
9
  6
CONTINUOUS
 10
315.5991021346
 20
108.8105625003
  0
SEQEND
  0
LINE
  8
0
 62
9
  6
CONTINUOUS
 10
311.1071615562
 20
108.7476215352
 11
311.1070659671
 21
109.2287463077
  0
LINE
  8
0
 62
9
  6
CONTINUOUS
 10
310.9433425332
 20
95.4699071933
 11
310.9433425332
 21
103.2239297755
  0
LINE
  8
0
 62
9
  6
CONTINUOUS
 10
313.2345903388
 20
94.2166951591
 11
313.2345903388
 21
104.4771418097
  0
LINE
  8
0
 62
9
  6
CONTINUOUS
 10
313.471361901
 20
104.4771418097
 11
313.471361901
 21
94.2166951591
  0
LINE
  8
0
 62
9
  6
CONTINUOUS
 10
315.7626097067
 20
103.2239297755
 11
315.7626097067
 21
95.4699071933
  0
LINE
  8
0
 62
9
  6
CONTINUOUS
 10
317.0630443579
 20
91.4871007294
 11
317.0630443579
 21
107.2067362393
  0
LINE
  8
0
 62
9
  6
CONTINUOUS
 10
317.5610734788
 20
91.4871007938
 11
317.5610751261
 21
107.206736181
  0
LINE
  8
0
 62
9
  6
CONTINUOUS
 10
327.5029761199
 20
92.6961714511
 11
327.5029761199
 21
105.9976655177
  0
LINE
  8
0
 62
7
  6
CONTINUOUS
 10
329.0029761199
 20
92.6961714511
 11
329.0029761199
 21
105.9976655177
  0
LINE
  8
0
 62
9
  6
CONTINUOUS
 10
311.1070659661
 20
89.4650906821
 11
311.1071615562
 21
89.9462142794
  0
POLYLINE
  8
0
 62
9
  6
CONTINUOUS
 66
1
 70
0
  0
VERTEX
  8
0
 62
9
  6
CONTINUOUS
 10
315.6001026497
 20
89.9421972503
  0
VERTEX
  8
0
 62
9
  6
CONTINUOUS
 10
315.5991022106
 20
89.8832745629
  0
VERTEX
  8
0
 62
9
  6
CONTINUOUS
 10
315.5981891406
 20
89.787310353
  0
VERTEX
  8
0
 62
9
  6
CONTINUOUS
 10
315.5969293901
 20
89.52028244
  0
SEQEND
  0
LINE
  8
0
 62
9
  6
CONTINUOUS
 10
311.0110428989
 20
89.4656332062
 11
311.0349153782
 21
89.9475192501
  0
LINE
  8
0
 62
9
  6
CONTINUOUS
 10
325.1327266623
 20
108.4942962066
 11
325.2105769877
 21
109.9922746199
  0
POLYLINE
  8
0
 62
9
  6
CONTINUOUS
 66
1
 70
0
  0
VERTEX
  8
0
 62
9
  6
CONTINUOUS
 10
317.0630465292
 20
91.4870940793
  0
VERTEX
  8
0
 62
9
  6
CONTINUOUS
 10
317.0321275405
 20
91.156824754
  0
VERTEX
  8
0
 62
9
  6
CONTINUOUS
 10
316.9410922481
 20
90.8552004383
  0
VERTEX
  8
0
 62
9
  6
CONTINUOUS
 10
316.7950336892
 20
90.5831516031
  0
VERTEX
  8
0
 62
9
  6
CONTINUOUS
 10
316.6015703679
 20
90.3513259983
  0
VERTEX
  8
0
 62
9
  6
CONTINUOUS
 10
316.3674478518
 20
90.1660840797
  0
SEQEND
  0
POLYLINE
  8
0
 62
9
  6
CONTINUOUS
 66
1
 70
0
  0
VERTEX
  8
0
 62
9
  6
CONTINUOUS
 10
315.7626097067
 20
103.2239297755
  0
VERTEX
  8
0
 62
9
  6
CONTINUOUS
 10
315.7124655552
 20
103.5658739671
  0
VERTEX
  8
0
 62
9
  6
CONTINUOUS
 10
315.5807748048
 20
103.8885097491
  0
VERTEX
  8
0
 62
9
  6
CONTINUOUS
 10
315.3749738459
 20
104.1736185067
  0
VERTEX
  8
0
 62
9
  6
CONTINUOUS
 10
315.247766481
 20
104.2969607439
  0
VERTEX
  8
0
 62
9
  6
CONTINUOUS
 10
314.9537231756
 20
104.4965086592
  0
VERTEX
  8
0
 62
9
  6
CONTINUOUS
 10
314.6209772144
 20
104.6241979732
  0
VERTEX
  8
0
 62
9
  6
CONTINUOUS
 10
314.2683176595
 20
104.6728185149
  0
SEQEND
  0
POLYLINE
  8
0
 62
9
  6
CONTINUOUS
 66
1
 70
0
  0
VERTEX
  8
0
 62
9
  6
CONTINUOUS
 10
317.5610751261
 20
107.206736181
  0
VERTEX
  8
0
 62
9
  6
CONTINUOUS
 10
317.509564364
 20
107.6717302846
  0
VERTEX
  8
0
 62
9
  6
CONTINUOUS
 10
317.3584050529
 20
108.1085093922
  0
VERTEX
  8
0
 62
9
  6
CONTINUOUS
 10
317.2486644126
 20
108.3085497694
  0
VERTEX
  8
0
 62
9
  6
CONTINUOUS
 10
316.9693760543
 20
108.6605457387
  0
VERTEX
  8
0
 62
9
  6
CONTINUOUS
 10
316.6233742184
 20
108.936529453
  0
SEQEND
  0
POLYLINE
  8
4_SURFACE
 62
9
  6
CONTINUOUS
 66
1
 70
0
  0
VERTEX
  8
4_SURFACE
 62
9
  6
CONTINUOUS
 10
357.5745732668
 20
113.9136587188
  0
VERTEX
  8
4_SURFACE
 62
9
  6
CONTINUOUS
 10
357.5575973024
 20
113.8769591585
  0
VERTEX
  8
4_SURFACE
 62
9
  6
CONTINUOUS
 10
357.5395091018
 20
113.8544844884
  0
VERTEX
  8
4_SURFACE
 62
9
  6
CONTINUOUS
 10
357.5208561007
 20
113.8469149797
  0
SEQEND
  0
POLYLINE
  8
4_SURFACE
 62
9
  6
CONTINUOUS
 66
1
 70
0
  0
VERTEX
  8
4_SURFACE
 62
9
  6
CONTINUOUS
 10
357.5745736546
 20
84.7801813761
  0
VERTEX
  8
4_SURFACE
 62
9
  6
CONTINUOUS
 10
357.5575974409
 20
84.8168789135
  0
VERTEX
  8
4_SURFACE
 62
9
  6
CONTINUOUS
 10
357.5395090841
 20
84.8393513389
  0
VERTEX
  8
4_SURFACE
 62
9
  6
CONTINUOUS
 10
357.520856101
 20
84.8469184404
  0
SEQEND
  0
POLYLINE
  8
4_SURFACE
 62
9
  6
CONTINUOUS
 66
1
 70
0
  0
VERTEX
  8
4_SURFACE
 62
9
  6
CONTINUOUS
 10
356.5282825279
 20
85.6718263967
  0
VERTEX
  8
4_SURFACE
 62
9
  6
CONTINUOUS
 10
356.5249731612
 20
85.7045612786
  0
VERTEX
  8
4_SURFACE
 62
9
  6
CONTINUOUS
 10
356.5231148235
 20
85.7305915992
  0
SEQEND
  0
LINE
  8
4_SURFACE
 62
9
  6
CONTINUOUS
 10
356.5231148263
 20
85.7305915992
 11
356.5218604375
 21
85.7693281
  0
POLYLINE
  8
4_SURFACE
 62
9
  6
CONTINUOUS
 66
1
 70
0
  0
VERTEX
  8
4_SURFACE
 62
9
  6
CONTINUOUS
 10
356.5218604375
 20
85.7693281
  0
VERTEX
  8
4_SURFACE
 62
9
  6
CONTINUOUS
 10
356.5211078077
 20
85.8080600471
  0
VERTEX
  8
4_SURFACE
 62
9
  6
CONTINUOUS
 10
356.520856101
 20
85.8469184844
  0
SEQEND
  0
LINE
  8
0
 62
7
  6
CONTINUOUS
 10
356.320856101
 20
89.8469184844
 11
356.320856101
 21
92.681172628
  0
LINE
  8
0
 62
7
  6
CONTINUOUS
 10
356.320856101
 20
92.8469184844
 11
356.320856101
 21
108.8469184844
  0
POLYLINE
  8
4_SURFACE
 62
9
  6
CONTINUOUS
 66
1
 70
0
  0
VERTEX
  8
4_SURFACE
 62
9
  6
CONTINUOUS
 10
356.520856101
 20
112.8469184844
  0
VERTEX
  8
4_SURFACE
 62
9
  6
CONTINUOUS
 10
356.5211078142
 20
112.8857774277
  0
VERTEX
  8
4_SURFACE
 62
9
  6
CONTINUOUS
 10
356.5218613141
 20
112.9245538078
  0
SEQEND
  0
LINE
  8
4_SURFACE
 62
9
  6
CONTINUOUS
 10
356.5218613141
 20
112.9245538078
 11
356.5231148265
 21
112.9632453742
  0
POLYLINE
  8
4_SURFACE
 62
9
  6
CONTINUOUS
 66
1
 70
0
  0
VERTEX
  8
4_SURFACE
 62
9
  6
CONTINUOUS
 10
356.5231148241
 20
112.9632453742
  0
VERTEX
  8
4_SURFACE
 62
9
  6
CONTINUOUS
 10
356.5265203117
 20
113.0059226801
  0
VERTEX
  8
4_SURFACE
 62
9
  6
CONTINUOUS
 10
356.5336300502
 20
113.0608580224
  0
VERTEX
  8
4_SURFACE
 62
9
  6
CONTINUOUS
 10
356.5468733223
 20
113.1292694732
  0
VERTEX
  8
4_SURFACE
 62
9
  6
CONTINUOUS
 10
356.5695397267
 20
113.2115781419
  0
VERTEX
  8
4_SURFACE
 62
9
  6
CONTINUOUS
 10
356.6062536547
 20
113.3082120128
  0
VERTEX
  8
4_SURFACE
 62
9
  6
CONTINUOUS
 10
356.6648378577
 20
113.4211778879
  0
VERTEX
  8
4_SURFACE
 62
9
  6
CONTINUOUS
 10
356.7564847854
 20
113.5493068469
  0
VERTEX
  8
4_SURFACE
 62
9
  6
CONTINUOUS
 10
356.8979241609
 20
113.6870511231
  0
VERTEX
  8
4_SURFACE
 62
9
  6
CONTINUOUS
 10
357.1138804824
 20
113.8184069725
  0
SEQEND
  0
LINE
  8
4_SURFACE
 62
9
  6
CONTINUOUS
 10
360.6334359139
 20
113.8529831742
 11
360.2625759763
 21
113.5176282776
  0
LINE
  8
4_SURFACE
 62
9
  6
CONTINUOUS
 10
360.6334359139
 20
84.8408537946
 11
360.2625759763
 21
85.1762086912
  0
POLYLINE
  8
4_SURFACE
 62
9
  6
CONTINUOUS
 66
1
 70
0
  0
VERTEX
  8
4_SURFACE
 62
9
  6
CONTINUOUS
 10
356.5231148631
 20
112.9632455527
  0
VERTEX
  8
4_SURFACE
 62
9
  6
CONTINUOUS
 10
356.5242001512
 20
112.9502915693
  0
VERTEX
  8
4_SURFACE
 62
9
  6
CONTINUOUS
 10
356.5244514924
 20
112.9373591148
  0
VERTEX
  8
4_SURFACE
 62
9
  6
CONTINUOUS
 10
356.5238684663
 20
112.9244698071
  0
SEQEND
  0
LINE
  8
4_SURFACE
 62
7
  6
CONTINUOUS
 10
356.520856101
 20
85.7305914161
 11
356.520856101
 21
112.9632455527
  0
LINE
  8
4_SURFACE
 62
9
  6
CONTINUOUS
 10
357.520856101
 20
113.8469184844
 11
357.520856101
 21
84.8469184844
  0
POLYLINE
  8
4_SURFACE
 62
9
  6
CONTINUOUS
 66
1
 70
0
  0
VERTEX
  8
4_SURFACE
 62
9
  6
CONTINUOUS
 10
356.5231148315
 20
85.7305914161
  0
VERTEX
  8
4_SURFACE
 62
9
  6
CONTINUOUS
 10
356.5241999669
 20
85.7435455124
  0
VERTEX
  8
4_SURFACE
 62
9
  6
CONTINUOUS
 10
356.5244510771
 20
85.7564779497
  0
VERTEX
  8
4_SURFACE
 62
9
  6
CONTINUOUS
 10
356.5238677423
 20
85.7693671054
  0
SEQEND
  0
POLYLINE
  8
4_SURFACE
 62
9
  6
CONTINUOUS
 66
1
 70
0
  0
VERTEX
  8
4_SURFACE
 62
9
  6
CONTINUOUS
 10
359.5594337731
 20
114.0357674201
  0
VERTEX
  8
4_SURFACE
 62
9
  6
CONTINUOUS
 10
359.5461709966
 20
113.9179282971
  0
VERTEX
  8
4_SURFACE
 62
9
  6
CONTINUOUS
 10
359.5382001269
 20
113.8789080544
  0
VERTEX
  8
4_SURFACE
 62
9
  6
CONTINUOUS
 10
359.520856101
 20
113.8469174117
  0
SEQEND
  0
POLYLINE
  8
4_SURFACE
 62
9
  6
CONTINUOUS
 66
1
 70
0
  0
VERTEX
  8
4_SURFACE
 62
9
  6
CONTINUOUS
 10
359.5594343196
 20
84.6580739524
  0
VERTEX
  8
4_SURFACE
 62
9
  6
CONTINUOUS
 10
359.5461721642
 20
84.7759107562
  0
VERTEX
  8
4_SURFACE
 62
9
  6
CONTINUOUS
 10
359.5382011208
 20
84.8149298032
  0
VERTEX
  8
4_SURFACE
 62
9
  6
CONTINUOUS
 10
359.520856101
 20
84.8469182249
  0
SEQEND
  0
POLYLINE
  8
4_SURFACE
 62
9
  6
CONTINUOUS
 66
1
 70
0
  0
VERTEX
  8
4_SURFACE
 62
9
  6
CONTINUOUS
 10
357.4049201174
 20
113.898335777
  0
VERTEX
  8
4_SURFACE
 62
9
  6
CONTINUOUS
 10
357.4071984138
 20
113.8665709358
  0
VERTEX
  8
4_SURFACE
 62
9
  6
CONTINUOUS
 10
357.4079952257
 20
113.8471053693
  0
VERTEX
  8
4_SURFACE
 62
9
  6
CONTINUOUS
 10
357.4072897237
 20
113.8404477702
  0
SEQEND
  0
LINE
  8
4_SURFACE
 62
9
  6
CONTINUOUS
 10
359.520856101
 20
113.8469184844
 11
359.520856101
 21
84.8469184844
  0
POLYLINE
  8
4_SURFACE
 62
9
  6
CONTINUOUS
 66
1
 70
0
  0
VERTEX
  8
4_SURFACE
 62
9
  6
CONTINUOUS
 10
357.4049211178
 20
84.7955092552
  0
VERTEX
  8
4_SURFACE
 62
9
  6
CONTINUOUS
 10
357.4071991441
 20
84.8272715759
  0
VERTEX
  8
4_SURFACE
 62
9
  6
CONTINUOUS
 10
357.4079956885
 20
84.8467350473
  0
VERTEX
  8
4_SURFACE
 62
9
  6
CONTINUOUS
 10
357.4072899357
 20
84.8533910513
  0
SEQEND
  0
LINE
  8
4_SURFACE
 62
9
  6
CONTINUOUS
 10
357.4049535006
 20
84.7955033463
 11
357.3978144508
 21
84.7381899085
  0
POLYLINE
  8
4_SURFACE
 62
9
  6
CONTINUOUS
 66
1
 70
0
  0
VERTEX
  8
4_SURFACE
 62
9
  6
CONTINUOUS
 10
357.4049534716
 20
84.7955031137
  0
VERTEX
  8
4_SURFACE
 62
9
  6
CONTINUOUS
 10
357.1211878431
 20
84.8722047973
  0
VERTEX
  8
4_SURFACE
 62
9
  6
CONTINUOUS
 10
356.9212981275
 20
84.988702176
  0
VERTEX
  8
4_SURFACE
 62
9
  6
CONTINUOUS
 10
356.7860311079
 20
85.1109846512
  0
VERTEX
  8
4_SURFACE
 62
9
  6
CONTINUOUS
 10
356.6951928468
 20
85.2253200664
  0
VERTEX
  8
4_SURFACE
 62
9
  6
CONTINUOUS
 10
356.6342516637
 20
85.3272388504
  0
VERTEX
  8
4_SURFACE
 62
9
  6
CONTINUOUS
 10
356.593839391
 20
85.4150865814
  0
VERTEX
  8
4_SURFACE
 62
9
  6
CONTINUOUS
 10
356.5790966803
 20
85.4540168107
  0
VERTEX
  8
4_SURFACE
 62
9
  6
CONTINUOUS
 10
356.5572697208
 20
85.5233836842
  0
VERTEX
  8
4_SURFACE
 62
9
  6
CONTINUOUS
 10
356.5429178475
 20
85.5825202413
  0
VERTEX
  8
4_SURFACE
 62
9
  6
CONTINUOUS
 10
356.533821216
 20
85.6317708895
  0
VERTEX
  8
4_SURFACE
 62
9
  6
CONTINUOUS
 10
356.5282825279
 20
85.6718263967
  0
SEQEND
  0
LINE
  8
4_SURFACE
 62
9
  6
CONTINUOUS
 10
357.3978144508
 20
113.9556470603
 11
357.4049551892
 21
113.8983337997
  0
LINE
  8
4_SURFACE
 62
7
  6
CONTINUOUS
 10
360.520856101
 20
112.8469184844
 11
360.520856101
 21
85.8469184844
  0
LINE
  8
4_SURFACE
 62
9
  6
CONTINUOUS
 10
361.020856101
 20
112.8469184844
 11
361.020856101
 21
85.8469184844
  0
POLYLINE
  8
4_SURFACE
 62
7
  6
CONTINUOUS
 66
1
 70
0
  0
VERTEX
  8
4_SURFACE
 62
7
  6
CONTINUOUS
 10
381.0436680865
 20
81.8064885431
  0
VERTEX
  8
4_SURFACE
 62
7
  6
CONTINUOUS
 10
381.0867773513
 20
81.8130893508
  0
VERTEX
  8
4_SURFACE
 62
7
  6
CONTINUOUS
 10
381.1128216058
 20
81.8194897947
  0
VERTEX
  8
4_SURFACE
 62
7
  6
CONTINUOUS
 10
381.120856101
 20
81.8252882254
  0
SEQEND
  0
LINE
  8
4_SURFACE
 62
7
  6
CONTINUOUS
 10
381.120856101
 20
81.7969184844
 11
383.600856101
 21
81.7969184844
  0
LINE
  8
4_SURFACE
 62
7
  6
CONTINUOUS
 10
357.3978144507
 20
84.7381899085
 11
381.120856101
 21
81.7969184844
  0
LINE
  8
0
 62
7
  6
CONTINUOUS
 10
385.4714465785
 20
84.4462179035
 11
401.4090846687
 21
88.7166951591
  0
LINE
  8
4_SURFACE
 62
9
  6
CONTINUOUS
 10
380.620856101
 20
82.3627386901
 11
381.120856101
 21
82.3627386901
  0
LINE
  8
4_SURFACE
 62
9
  6
CONTINUOUS
 10
359.5594343219
 20
84.6580739704
 11
357.5745735696
 21
84.7801806897
  0
LINE
  8
4_SURFACE
 62
9
  6
CONTINUOUS
 10
357.5745735696
 20
84.7801806897
 11
357.4049535006
 21
84.7955033463
  0
LINE
  8
4_SURFACE
 62
9
  6
CONTINUOUS
 10
380.620856101
 20
82.3627304133
 11
360.6334433476
 21
84.8408631021
  0
LINE
  8
0
 62
9
  6
CONTINUOUS
 10
385.5572782297
 20
85.9871007294
 11
400.4213143094
 21
89.9699071933
  0
LINE
  8
0
 62
7
  6
CONTINUOUS
 10
385.4714465785
 20
86.9462179035
 11
401.4090846687
 21
91.2166951591
  0
LINE
  8
4_SURFACE
 62
7
  6
CONTINUOUS
 10
359.520856101
 20
84.8469184844
 11
357.520856101
 21
84.8469184844
  0
LINE
  8
4_SURFACE
 62
9
  6
CONTINUOUS
 10
356.5231148263
 20
85.7305915992
 11
356.520856101
 21
85.7305914161
  0
LINE
  8
4_SURFACE
 62
9
  6
CONTINUOUS
 10
361.020856101
 20
85.8469184844
 11
360.520856101
 21
85.8469184844
  0
LINE
  8
0
 62
9
  6
CONTINUOUS
 10
385.5572782297
 20
85.9871007294
 11
385.100856101
 21
85.9871007294
  0
LINE
  8
0
 62
9
  6
CONTINUOUS
 10
385.5572782297
 20
88.4871007294
 11
400.4213143094
 21
92.4699071933
  0
LINE
  8
0
 62
7
  6
CONTINUOUS
 10
385.4564254797
 20
89.9421930122
 11
401.4090846687
 21
94.2166951591
  0
LINE
  8
0
 62
9
  6
CONTINUOUS
 10
402.520856101
 20
90.1655838985
 11
400.4213143094
 21
89.9699071933
  0
LINE
  8
0
 62
9
  6
CONTINUOUS
 10
385.5572782297
 20
88.4871007294
 11
385.100856101
 21
88.4871007294
  0
LINE
  8
4_SURFACE
 62
9
  6
CONTINUOUS
 10
381.120856101
 20
88.7015623488
 11
383.600856101
 21
88.7015623488
  0
LINE
  8
4_SURFACE
 62
9
  6
CONTINUOUS
 10
356.520856101
 20
88.8469184844
 11
360.520856101
 21
88.8469184844
  0
LINE
  8
0
 62
7
  6
CONTINUOUS
 10
356.520856101
 20
89.8469184844
 11
356.320856101
 21
89.8469184844
  0
LINE
  8
0
 62
7
  6
CONTINUOUS
 10
356.520856101
 20
89.8819092773
 11
356.320856101
 21
89.8819092773
  0
LINE
  8
1_AXIS
 62
2
  6
CENTER
 10
370.920856101
 20
113.6469184844
 11
370.920856101
 21
112.9469184844
  0
LINE
  8
1_AXIS
 62
2
  6
CONTINUOUS
 10
370.920856101
 20
109.4469184844
 11
370.920856101
 21
107.3469184844
  0
LINE
  8
1_AXIS
 62
2
  6
CENTER
 10
370.920856101
 20
95.5469184844
 11
370.920856101
 21
94.8469184844
  0
LINE
  8
1_AXIS
 62
2
  6
CONTINUOUS
 10
370.920856101
 20
91.3469184844
 11
370.920856101
 21
89.2469184844
  0
LINE
  8
1_AXIS
 62
2
  6
CENTER
 10
370.920856101
 20
85.0469184844
 11
370.920856101
 21
85.7469184844
  0
LINE
  8
1_AXIS
 62
2
  6
CENTER
 10
370.920856101
 20
103.1469184844
 11
370.920856101
 21
103.8469184844
  0
LINE
  8
0
 62
9
  6
CONTINUOUS
 10
385.5572782297
 20
91.4871007294
 11
400.4213143094
 21
95.4699071933
  0
LINE
  8
0
 62
9
  6
CONTINUOUS
 10
402.520856101
 20
92.6655838985
 11
400.4213143094
 21
92.4699071933
  0
LINE
  8
0
 62
7
  6
CONTINUOUS
 10
356.520856101
 20
89.9868816561
 11
356.320856101
 21
89.9868816561
  0
LINE
  8
0
 62
7
  6
CONTINUOUS
 10
356.520856101
 20
90.1618356115
 11
356.320856101
 21
90.1618356115
  0
LINE
  8
1_AXIS
 62
2
  6
CENTER
 10
376.170856101
 20
90.2969184844
 11
375.470856101
 21
90.2969184844
  0
LINE
  8
1_AXIS
 62
2
  6
CONTINUOUS
 10
371.970856101
 20
90.2969184844
 11
369.870856101
 21
90.2969184844
  0
LINE
  8
1_AXIS
 62
2
  6
CENTER
 10
365.670856101
 20
90.2969184844
 11
366.370856101
 21
90.2969184844
  0
LINE
  8
0
 62
7
  6
CONTINUOUS
 10
356.520856101
 20
90.3367895543
 11
356.320856101
 21
90.3367895543
  0
LINE
  8
0
 62
7
  6
CONTINUOUS
 10
356.520856101
 20
90.6167159228
 11
356.320856101
 21
90.6167159228
  0
LINE
  8
0
 62
7
  6
CONTINUOUS
 10
356.520856101
 20
90.7916698656
 11
356.320856101
 21
90.7916698656
  0
LINE
  8
0
 62
7
  6
CONTINUOUS
 10
356.520856101
 20
90.9316329998
 11
356.320856101
 21
90.9316329998
  0
LINE
  8
0
 62
7
  6
CONTINUOUS
 10
356.520856101
 20
91.0715962341
 11
356.320856101
 21
91.0715962341
  0
LINE
  8
0
 62
7
  6
CONTINUOUS
 10
356.520856101
 20
91.1415777512
 11
356.320856101
 21
91.1415777512
  0
LINE
  8
0
 62
7
  6
CONTINUOUS
 10
356.520856101
 20
91.3135851828
 11
356.320856101
 21
91.3135851828
  0
LINE
  8
0
 62
7
  6
CONTINUOUS
 10
356.520856101
 20
91.4215041197
 11
356.320856101
 21
91.4215041197
  0
LINE
  8
0
 62
9
  6
CONTINUOUS
 10
385.5572782297
 20
91.4871007295
 11
385.100856101
 21
91.4871007295
  0
LINE
  8
0
 62
9
  6
CONTINUOUS
 10
402.520856101
 20
95.6655838985
 11
400.4213143094
 21
95.4699071933
  0
LINE
  8
0
 62
7
  6
CONTINUOUS
 10
356.520856101
 20
92.681172628
 11
356.320856101
 21
92.681172628
  0
LINE
  8
4_SURFACE
 62
9
  6
CONTINUOUS
 10
381.120856101
 20
92.6961714511
 11
385.100856101
 21
92.6961714511
  0
LINE
  8
0
 62
7
  6
CONTINUOUS
 10
356.520856101
 20
92.8469184844
 11
356.320856101
 21
92.8469184844
  0
LINE
  8
0
 62
7
  6
CONTINUOUS
 10
356.520856101
 20
92.9610988965
 11
356.320856101
 21
92.9610988965
  0
LINE
  8
0
 62
7
  6
CONTINUOUS
 10
356.520856101
 20
93.1710436479
 11
356.320856101
 21
93.1710436479
  0
LINE
  8
0
 62
7
  6
CONTINUOUS
 10
356.520856101
 20
93.4964184844
 11
356.320856101
 21
93.4964184844
  0
LINE
  8
0
 62
7
  6
CONTINUOUS
 10
356.520856101
 20
97.3214184844
 11
356.320856101
 21
97.3214184844
  0
LINE
  8
4_SURFACE
 62
9
  6
CONTINUOUS
 10
380.6208571048
 20
116.3311066786
 11
380.6823767376
 21
116.8425541729
  0
LINE
  8
0
 62
9
  6
CONTINUOUS
 10
356.520856101
 20
97.8469184844
 11
356.320856101
 21
97.8469184844
  0
LINE
  8
0
 62
9
  6
CONTINUOUS
 10
356.520856101
 20
98.2244212684
 11
356.320856101
 21
98.2244212684
  0
LINE
  8
0
 62
7
  6
CONTINUOUS
 10
356.520856101
 20
99.3469184844
 11
356.320856101
 21
99.3469184844
  0
LINE
  8
4_SURFACE
 62
9
  6
CONTINUOUS
 10
380.6823767377
 20
81.8512827958
 11
380.620857105
 21
82.3627302889
  0
LINE
  8
4_SURFACE
 62
9
  6
CONTINUOUS
 10
380.620856101
 20
82.3627304133
 11
380.620856101
 21
116.3311065541
  0
LINE
  8
4_SURFACE
 62
7
  6
CONTINUOUS
 10
381.120856101
 20
81.8252882254
 11
381.120856101
 21
116.8685487434
  0
LINE
  8
0
 62
7
  6
CONTINUOUS
 10
356.520856101
 20
100.6219184844
 11
356.320856101
 21
100.6219184844
  0
LINE
  8
0
 62
7
  6
CONTINUOUS
 10
356.520856101
 20
100.9106009844
 11
356.320856101
 21
100.9106009844
  0
LINE
  8
0
 62
7
  6
CONTINUOUS
 10
356.520856101
 20
100.9219184844
 11
356.320856101
 21
100.9219184844
  0
LINE
  8
0
 62
9
  6
CONTINUOUS
 10
385.1008459205
 20
109.2287473061
 11
385.0896011067
 21
109.173529074
  0
LINE
  8
0
 62
7
  6
CONTINUOUS
 10
356.520856101
 20
102.1969184844
 11
356.320856101
 21
102.1969184844
  0
LINE
  8
0
 62
9
  6
CONTINUOUS
 10
356.520856101
 20
102.9469184844
 11
356.320856101
 21
102.9469184844
  0
LINE
  8
0
 62
9
  6
CONTINUOUS
 10
385.4565150521
 20
89.9422170131
 11
385.4527562809
 21
89.9544705346
  0
LINE
  8
0
 62
9
  6
CONTINUOUS
 10
385.0896101181
 20
89.5203811212
 11
385.1008459262
 21
89.4650912094
  0
POLYLINE
  8
0
 62
9
  6
CONTINUOUS
 66
1
 70
0
  0
VERTEX
  8
0
 62
9
  6
CONTINUOUS
 10
385.4714465785
 20
84.4462179035
  0
VERTEX
  8
0
 62
9
  6
CONTINUOUS
 10
385.465728807
 20
84.4810110637
  0
VERTEX
  8
0
 62
9
  6
CONTINUOUS
 10
385.4663713776
 20
84.5898975867
  0
VERTEX
  8
0
 62
9
  6
CONTINUOUS
 10
385.473420675
 20
84.7674439826
  0
VERTEX
  8
0
 62
9
  6
CONTINUOUS
 10
385.4866720149
 20
85.0075099235
  0
VERTEX
  8
0
 62
9
  6
CONTINUOUS
 10
385.5056389805
 20
85.2999964372
  0
VERTEX
  8
0
 62
9
  6
CONTINUOUS
 10
385.5296400493
 20
85.6332001632
  0
VERTEX
  8
0
 62
9
  6
CONTINUOUS
 10
385.5572782297
 20
85.9871007294
  0
SEQEND
  0
POLYLINE
  8
0
 62
9
  6
CONTINUOUS
 66
1
 70
0
  0
VERTEX
  8
0
 62
9
  6
CONTINUOUS
 10
385.4714465785
 20
86.9462179035
  0
VERTEX
  8
0
 62
9
  6
CONTINUOUS
 10
385.465728807
 20
86.9810110637
  0
VERTEX
  8
0
 62
9
  6
CONTINUOUS
 10
385.4663713776
 20
87.0898975867
  0
VERTEX
  8
0
 62
9
  6
CONTINUOUS
 10
385.473420675
 20
87.2674439826
  0
VERTEX
  8
0
 62
9
  6
CONTINUOUS
 10
385.4866720149
 20
87.5075099235
  0
VERTEX
  8
0
 62
9
  6
CONTINUOUS
 10
385.5056389805
 20
87.7999964372
  0
VERTEX
  8
0
 62
9
  6
CONTINUOUS
 10
385.5296400493
 20
88.1332001632
  0
VERTEX
  8
0
 62
9
  6
CONTINUOUS
 10
385.5572782297
 20
88.4871007294
  0
SEQEND
  0
POLYLINE
  8
0
 62
7
  6
CONTINUOUS
 66
1
 70
0
  0
VERTEX
  8
0
 62
7
  6
CONTINUOUS
 10
385.100856101
 20
108.936529453
  0
VERTEX
  8
0
 62
7
  6
CONTINUOUS
 10
385.0964669394
 20
109.0691443953
  0
VERTEX
  8
0
 62
7
  6
CONTINUOUS
 10
385.0907600208
 20
109.1461244638
  0
VERTEX
  8
0
 62
7
  6
CONTINUOUS
 10
385.0896011067
 20
109.173529074
  0
SEQEND
  0
LINE
  8
0
 62
7
  6
CONTINUOUS
 10
385.1008467436
 20
109.2287415228
 11
385.100856101
 21
109.2282052562
  0
LINE
  8
0
 62
7
  6
CONTINUOUS
 10
385.1008462282
 20
109.2287714042
 11
385.100917611
 21
109.2220427075
  0
LINE
  8
4_SURFACE
 62
9
  6
CONTINUOUS
 10
383.600856101
 20
81.7969184844
 11
383.600856101
 21
116.8969184844
  0
LINE
  8
0
 62
7
  6
CONTINUOUS
 10
385.100856101
 20
83.2969184844
 11
385.100856101
 21
89.4651245834
  0
LINE
  8
0
 62
7
  6
CONTINUOUS
 10
385.100856101
 20
89.5324020735
 11
385.100856101
 21
90.1995407622
  0
LINE
  8
4_SURFACE
 62
7
  6
CONTINUOUS
 10
385.100856101
 20
90.1995407622
 11
385.100856101
 21
108.4942962066
  0
LINE
  8
0
 62
7
  6
CONTINUOUS
 10
385.100856101
 20
108.4942962066
 11
385.100856101
 21
109.1614382669
  0
LINE
  8
0
 62
7
  6
CONTINUOUS
 10
385.100856101
 20
109.228685959
 11
385.100856101
 21
115.3969184844
  0
LINE
  8
0
 62
7
  6
CONTINUOUS
 10
385.1008593083
 20
89.4652057874
 11
385.1009148029
 21
89.4713079378
  0
POLYLINE
  8
0
 62
7
  6
CONTINUOUS
 66
1
 70
0
  0
VERTEX
  8
0
 62
7
  6
CONTINUOUS
 10
385.0896101181
 20
89.5203811212
  0
VERTEX
  8
0
 62
7
  6
CONTINUOUS
 10
385.0899866189
 20
89.5370499841
  0
VERTEX
  8
0
 62
7
  6
CONTINUOUS
 10
385.0949162779
 20
89.6017602834
  0
SEQEND
  0
LINE
  8
0
 62
9
  6
CONTINUOUS
 10
385.4529521277
 20
108.7298925004
 11
385.4564416848
 21
108.7516396144
  0
POLYLINE
  8
4_SURFACE
 62
9
  6
CONTINUOUS
 66
1
 70
0
  0
VERTEX
  8
4_SURFACE
 62
9
  6
CONTINUOUS
 10
360.6334528226
 20
84.8408619273
  0
VERTEX
  8
4_SURFACE
 62
9
  6
CONTINUOUS
 10
360.5347575114
 20
84.7935211028
  0
VERTEX
  8
4_SURFACE
 62
9
  6
CONTINUOUS
 10
360.2703560186
 20
84.7092971707
  0
VERTEX
  8
4_SURFACE
 62
9
  6
CONTINUOUS
 10
360.1039196903
 20
84.6782501547
  0
VERTEX
  8
4_SURFACE
 62
9
  6
CONTINUOUS
 10
359.730126021
 20
84.6525903962
  0
VERTEX
  8
4_SURFACE
 62
9
  6
CONTINUOUS
 10
359.5594343219
 20
84.6580739704
  0
SEQEND
  0
LINE
  8
0
 62
9
  6
CONTINUOUS
 10
356.520856101
 20
103.5469184844
 11
356.320856101
 21
103.5469184844
  0
LINE
  8
0
 62
7
  6
CONTINUOUS
 10
356.520856101
 20
103.9219184844
 11
356.320856101
 21
103.9219184844
  0
LINE
  8
0
 62
7
  6
CONTINUOUS
 10
356.520856101
 20
105.1969184844
 11
356.320856101
 21
105.1969184844
  0
LINE
  8
0
 62
9
  6
CONTINUOUS
 10
400.4213143094
 20
103.2239297755
 11
402.520856101
 21
103.0282530703
  0
POLYLINE
  8
0
 62
9
  6
CONTINUOUS
 66
1
 70
0
  0
VERTEX
  8
0
 62
9
  6
CONTINUOUS
 10
385.5572534111
 20
107.2067428894
  0
VERTEX
  8
0
 62
9
  6
CONTINUOUS
 10
385.5314204509
 20
107.5370122148
  0
VERTEX
  8
0
 62
9
  6
CONTINUOUS
 10
385.5094614314
 20
107.8386365305
  0
VERTEX
  8
0
 62
9
  6
CONTINUOUS
 10
385.4913418706
 20
108.1106853657
  0
VERTEX
  8
0
 62
9
  6
CONTINUOUS
 10
385.4777206984
 20
108.3425109704
  0
VERTEX
  8
0
 62
9
  6
CONTINUOUS
 10
385.4689340951
 20
108.5277528891
  0
SEQEND
  0
POLYLINE
  8
0
 62
9
  6
CONTINUOUS
 66
1
 70
0
  0
VERTEX
  8
0
 62
9
  6
CONTINUOUS
 10
385.5572782297
 20
110.2067362393
  0
VERTEX
  8
0
 62
9
  6
CONTINUOUS
 10
385.5296400492
 20
110.5606368056
  0
VERTEX
  8
0
 62
9
  6
CONTINUOUS
 10
385.5056389805
 20
110.8938405316
  0
VERTEX
  8
0
 62
9
  6
CONTINUOUS
 10
385.4866720149
 20
111.1863270453
  0
VERTEX
  8
0
 62
9
  6
CONTINUOUS
 10
385.473420675
 20
111.4263929862
  0
VERTEX
  8
0
 62
9
  6
CONTINUOUS
 10
385.4663713776
 20
111.603939382
  0
VERTEX
  8
0
 62
9
  6
CONTINUOUS
 10
385.465728807
 20
111.712825905
  0
VERTEX
  8
0
 62
9
  6
CONTINUOUS
 10
385.4714465785
 20
111.7476190652
  0
SEQEND
  0
POLYLINE
  8
0
 62
9
  6
CONTINUOUS
 66
1
 70
0
  0
VERTEX
  8
0
 62
9
  6
CONTINUOUS
 10
385.5572782297
 20
112.7067362393
  0
VERTEX
  8
0
 62
9
  6
CONTINUOUS
 10
385.5296400492
 20
113.0606368056
  0
VERTEX
  8
0
 62
9
  6
CONTINUOUS
 10
385.5056389805
 20
113.3938405316
  0
VERTEX
  8
0
 62
9
  6
CONTINUOUS
 10
385.4866720149
 20
113.6863270453
  0
VERTEX
  8
0
 62
9
  6
CONTINUOUS
 10
385.473420675
 20
113.9263929862
  0
VERTEX
  8
0
 62
9
  6
CONTINUOUS
 10
385.4663713776
 20
114.103939382
  0
VERTEX
  8
0
 62
9
  6
CONTINUOUS
 10
385.465728807
 20
114.212825905
  0
VERTEX
  8
0
 62
9
  6
CONTINUOUS
 10
385.4714465785
 20
114.2476190652
  0
SEQEND
  0
POLYLINE
  8
0
 62
9
  6
CONTINUOUS
 66
1
 70
0
  0
VERTEX
  8
0
 62
9
  6
CONTINUOUS
 10
385.4689340951
 20
108.5277528891
  0
VERTEX
  8
0
 62
9
  6
CONTINUOUS
 10
385.4594909406
 20
108.6571778628
  0
VERTEX
  8
0
 62
9
  6
CONTINUOUS
 10
385.4529521277
 20
108.7298925004
  0
SEQEND
  0
POLYLINE
  8
4_SURFACE
 62
9
  6
CONTINUOUS
 66
1
 70
0
  0
VERTEX
  8
4_SURFACE
 62
9
  6
CONTINUOUS
 10
385.100856101
 20
108.4942962066
  0
VERTEX
  8
4_SURFACE
 62
9
  6
CONTINUOUS
 10
385.0855882639
 20
108.7074807622
  0
VERTEX
  8
4_SURFACE
 62
9
  6
CONTINUOUS
 10
384.9653040941
 20
109.1165789286
  0
VERTEX
  8
4_SURFACE
 62
9
  6
CONTINUOUS
 10
384.7344804626
 20
109.4752634498
  0
VERTEX
  8
4_SURFACE
 62
9
  6
CONTINUOUS
 10
384.583147202
 20
109.6263927549
  0
VERTEX
  8
4_SURFACE
 62
9
  6
CONTINUOUS
 10
384.2239786205
 20
109.8569052997
  0
VERTEX
  8
4_SURFACE
 62
9
  6
CONTINUOUS
 10
383.8143283584
 20
109.9770273596
  0
VERTEX
  8
4_SURFACE
 62
9
  6
CONTINUOUS
 10
383.600856101
 20
109.9922746199
  0
SEQEND
  0
LINE
  8
0
 62
9
  6
CONTINUOUS
 10
385.5572782297
 20
112.7067362393
 11
385.5572782297
 21
111.7246205436
  0
LINE
  8
0
 62
9
  6
CONTINUOUS
 10
385.5572782297
 20
110.2067362393
 11
385.5572782297
 21
108.7246205436
  0
LINE
  8
0
 62
9
  6
CONTINUOUS
 10
385.5572782297
 20
107.2067362393
 11
385.5572782297
 21
91.4871007294
  0
LINE
  8
0
 62
9
  6
CONTINUOUS
 10
385.5572782297
 20
89.9692164252
 11
385.5572782297
 21
88.4871007294
  0
LINE
  8
0
 62
9
  6
CONTINUOUS
 10
385.5572782297
 20
86.9692164252
 11
385.5572782297
 21
85.9871007294
  0
POLYLINE
  8
0
 62
9
  6
CONTINUOUS
 66
1
 70
0
  0
VERTEX
  8
0
 62
9
  6
CONTINUOUS
 10
385.4689340951
 20
90.1660840797
  0
VERTEX
  8
0
 62
9
  6
CONTINUOUS
 10
385.4782307161
 20
90.3607761048
  0
VERTEX
  8
0
 62
9
  6
CONTINUOUS
 10
385.4920811259
 20
90.5948616704
  0
VERTEX
  8
0
 62
9
  6
CONTINUOUS
 10
385.5102058311
 20
90.8658421675
  0
VERTEX
  8
0
 62
9
  6
CONTINUOUS
 10
385.5321612256
 20
91.1666173773
  0
VERTEX
  8
0
 62
9
  6
CONTINUOUS
 10
385.5572559833
 20
91.4870947686
  0
SEQEND
  0
POLYLINE
  8
0
 62
7
  6
CONTINUOUS
 66
1
 70
0
  0
VERTEX
  8
0
 62
7
  6
CONTINUOUS
 10
385.0949162779
 20
89.6017602834
  0
VERTEX
  8
0
 62
7
  6
CONTINUOUS
 10
385.0988694402
 20
89.6691603299
  0
VERTEX
  8
0
 62
7
  6
CONTINUOUS
 10
385.100856101
 20
89.7573075158
  0
SEQEND
  0
POLYLINE
  8
0
 62
9
  6
CONTINUOUS
 66
1
 70
0
  0
VERTEX
  8
0
 62
9
  6
CONTINUOUS
 10
385.4527562809
 20
89.9544705346
  0
VERTEX
  8
0
 62
9
  6
CONTINUOUS
 10
385.4548488879
 20
89.98951212
  0
VERTEX
  8
0
 62
9
  6
CONTINUOUS
 10
385.4634800955
 20
90.0797818614
  0
SEQEND
  0
LINE
  8
0
 62
7
  6
CONTINUOUS
 10
385.1008553158
 20
89.4652057348
 11
385.1008462819
 21
89.4650607402
  0
LINE
  8
0
 62
9
  6
CONTINUOUS
 10
385.4634800955
 20
90.0797818614
 11
385.4689340951
 21
90.1660840797
  0
POLYLINE
  8
4_SURFACE
 62
9
  6
CONTINUOUS
 66
1
 70
0
  0
VERTEX
  8
4_SURFACE
 62
9
  6
CONTINUOUS
 10
385.100856101
 20
90.1995407622
  0
VERTEX
  8
4_SURFACE
 62
9
  6
CONTINUOUS
 10
385.0855882709
 20
89.9863562558
  0
VERTEX
  8
4_SURFACE
 62
9
  6
CONTINUOUS
 10
384.9653041432
 20
89.5772581477
  0
VERTEX
  8
4_SURFACE
 62
9
  6
CONTINUOUS
 10
384.7344805557
 20
89.2185736264
  0
VERTEX
  8
4_SURFACE
 62
9
  6
CONTINUOUS
 10
384.5831473061
 20
89.0674443041
  0
VERTEX
  8
4_SURFACE
 62
9
  6
CONTINUOUS
 10
384.2239787121
 20
88.8369317109
  0
VERTEX
  8
4_SURFACE
 62
9
  6
CONTINUOUS
 10
383.8143283948
 20
88.7168096144
  0
VERTEX
  8
4_SURFACE
 62
9
  6
CONTINUOUS
 10
383.600856101
 20
88.7015623488
  0
SEQEND
  0
POLYLINE
  8
0
 62
9
  6
CONTINUOUS
 66
1
 70
0
  0
VERTEX
  8
0
 62
9
  6
CONTINUOUS
 10
385.100856101
 20
89.7573075158
  0
VERTEX
  8
0
 62
9
  6
CONTINUOUS
 10
385.1271822661
 20
89.8930090849
  0
VERTEX
  8
0
 62
9
  6
CONTINUOUS
 10
385.2033884922
 20
90.0144206455
  0
VERTEX
  8
0
 62
9
  6
CONTINUOUS
 10
385.3214499076
 20
90.1087569957
  0
VERTEX
  8
0
 62
9
  6
CONTINUOUS
 10
385.4689340951
 20
90.1660840797
  0
SEQEND
  0
LINE
  8
0
 62
7
  6
CONTINUOUS
 10
356.520856101
 20
105.7677293314
 11
356.320856101
 21
105.7677293314
  0
LINE
  8
0
 62
7
  6
CONTINUOUS
 10
356.520856101
 20
105.9802513091
 11
356.320856101
 21
105.9802513091
  0
LINE
  8
4_SURFACE
 62
9
  6
CONTINUOUS
 10
381.120856101
 20
105.9976655177
 11
385.100856101
 21
105.9976655177
  0
LINE
  8
0
 62
7
  6
CONTINUOUS
 10
356.520856101
 20
106.0476545987
 11
356.320856101
 21
106.0476545987
  0
LINE
  8
0
 62
7
  6
CONTINUOUS
 10
356.520856101
 20
106.0826464585
 11
356.320856101
 21
106.0826464585
  0
LINE
  8
0
 62
7
  6
CONTINUOUS
 10
356.520856101
 20
106.1176367164
 11
356.320856101
 21
106.1176367164
  0
LINE
  8
0
 62
7
  6
CONTINUOUS
 10
356.520856101
 20
106.1876188341
 11
356.320856101
 21
106.1876188341
  0
LINE
  8
0
 62
7
  6
CONTINUOUS
 10
356.520856101
 20
106.2925912098
 11
356.320856101
 21
106.2925912098
  0
LINE
  8
0
 62
7
  6
CONTINUOUS
 10
356.520856101
 20
106.4675441015
 11
356.320856101
 21
106.4675441015
  0
LINE
  8
0
 62
7
  6
CONTINUOUS
 10
356.520856101
 20
106.6774888529
 11
356.320856101
 21
106.6774888529
  0
LINE
  8
0
 62
7
  6
CONTINUOUS
 10
356.520856101
 20
106.8874336042
 11
356.320856101
 21
106.8874336042
  0
LINE
  8
0
 62
7
  6
CONTINUOUS
 10
356.520856101
 20
107.0623880976
 11
356.320856101
 21
107.0623880976
  0
LINE
  8
0
 62
7
  6
CONTINUOUS
 10
356.520856101
 20
107.1673604733
 11
356.320856101
 21
107.1673604733
  0
LINE
  8
0
 62
9
  6
CONTINUOUS
 10
385.100856101
 20
107.2067362393
 11
385.5572782297
 21
107.2067362393
  0
LINE
  8
0
 62
7
  6
CONTINUOUS
 10
356.520856101
 20
107.237342591
 11
356.320856101
 21
107.237342591
  0
LINE
  8
0
 62
7
  6
CONTINUOUS
 10
356.520856101
 20
107.272332849
 11
356.320856101
 21
107.272332849
  0
LINE
  8
0
 62
7
  6
CONTINUOUS
 10
356.520856101
 20
107.307323107
 11
356.320856101
 21
107.307323107
  0
LINE
  8
0
 62
7
  6
CONTINUOUS
 10
356.520856101
 20
107.3135856597
 11
356.320856101
 21
107.3135856597
  0
POLYLINE
  8
0
 62
9
  6
CONTINUOUS
 66
1
 70
0
  0
VERTEX
  8
0
 62
9
  6
CONTINUOUS
 10
385.100856101
 20
108.936529453
  0
VERTEX
  8
0
 62
9
  6
CONTINUOUS
 10
385.1271823179
 20
108.8008277549
  0
VERTEX
  8
0
 62
9
  6
CONTINUOUS
 10
385.2033886145
 20
108.6794161886
  0
VERTEX
  8
0
 62
9
  6
CONTINUOUS
 10
385.3214500219
 20
108.5850799086
  0
VERTEX
  8
0
 62
9
  6
CONTINUOUS
 10
385.4689340951
 20
108.5277528891
  0
SEQEND
  0
POLYLINE
  8
0
 62
9
  6
CONTINUOUS
 66
1
 70
0
  0
VERTEX
  8
0
 62
9
  6
CONTINUOUS
 10
385.0895996566
 20
89.5202921305
  0
VERTEX
  8
0
 62
9
  6
CONTINUOUS
 10
385.1291205937
 20
89.6626876577
  0
VERTEX
  8
0
 62
9
  6
CONTINUOUS
 10
385.2085388081
 20
89.7873106451
  0
VERTEX
  8
0
 62
9
  6
CONTINUOUS
 10
385.3209166158
 20
89.8832744682
  0
VERTEX
  8
0
 62
9
  6
CONTINUOUS
 10
385.4564379449
 20
89.9421965226
  0
SEQEND
  0
LINE
  8
0
 62
7
  6
CONTINUOUS
 10
356.520856101
 20
107.4469184844
 11
356.320856101
 21
107.4469184844
  0
LINE
  8
0
 62
7
  6
CONTINUOUS
 10
356.520856101
 20
107.5872499761
 11
356.320856101
 21
107.5872499761
  0
LINE
  8
0
 62
7
  6
CONTINUOUS
 10
356.520856101
 20
107.6222402341
 11
356.320856101
 21
107.6222402341
  0
LINE
  8
0
 62
7
  6
CONTINUOUS
 10
356.520856101
 20
107.6572320938
 11
356.320856101
 21
107.6572320938
  0
LINE
  8
0
 62
7
  6
CONTINUOUS
 10
356.520856101
 20
107.7272126098
 11
356.320856101
 21
107.7272126098
  0
LINE
  8
0
 62
7
  6
CONTINUOUS
 10
356.520856101
 20
107.8321849855
 11
356.320856101
 21
107.8321849855
  0
LINE
  8
0
 62
7
  6
CONTINUOUS
 10
356.520856101
 20
108.0071394789
 11
356.320856101
 21
108.0071394789
  0
LINE
  8
0
 62
7
  6
CONTINUOUS
 10
356.520856101
 20
108.2170842302
 11
356.320856101
 21
108.2170842302
  0
LINE
  8
1_AXIS
 62
2
  6
CENTER
 10
376.170856101
 20
108.3969184844
 11
375.470856101
 21
108.3969184844
  0
LINE
  8
1_AXIS
 62
2
  6
CONTINUOUS
 10
371.970856101
 20
108.3969184844
 11
369.870856101
 21
108.3969184844
  0
LINE
  8
1_AXIS
 62
2
  6
CENTER
 10
365.670856101
 20
108.3969184844
 11
366.370856101
 21
108.3969184844
  0
LINE
  8
0
 62
7
  6
CONTINUOUS
 10
356.520856101
 20
108.4270289816
 11
356.320856101
 21
108.4270289816
  0
LINE
  8
0
 62
7
  6
CONTINUOUS
 10
356.520856101
 20
108.601983475
 11
356.320856101
 21
108.601983475
  0
LINE
  8
0
 62
7
  6
CONTINUOUS
 10
356.520856101
 20
108.7069558507
 11
356.320856101
 21
108.7069558507
  0
LINE
  8
0
 62
7
  6
CONTINUOUS
 10
356.520856101
 20
108.7769363667
 11
356.320856101
 21
108.7769363667
  0
LINE
  8
0
 62
7
  6
CONTINUOUS
 10
356.520856101
 20
108.8119282264
 11
356.320856101
 21
108.8119282264
  0
LINE
  8
0
 62
7
  6
CONTINUOUS
 10
356.520856101
 20
108.8469184844
 11
356.320856101
 21
108.8469184844
  0
LINE
  8
0
 62
9
  6
CONTINUOUS
 10
400.4213143094
 20
106.2239297755
 11
402.520856101
 21
106.0282530703
  0
LINE
  8
0
 62
9
  6
CONTINUOUS
 10
400.4213143094
 20
103.2239297755
 11
385.5572782297
 21
107.2067362393
  0
LINE
  8
4_SURFACE
 62
9
  6
CONTINUOUS
 10
356.520856101
 20
109.8469184844
 11
360.520856101
 21
109.8469184844
  0
LINE
  8
4_SURFACE
 62
9
  6
CONTINUOUS
 10
381.120856101
 20
109.9922746199
 11
383.600856101
 21
109.9922746199
  0
LINE
  8
0
 62
9
  6
CONTINUOUS
 10
385.100856101
 20
110.2067362393
 11
385.5572782297
 21
110.2067362393
  0
LINE
  8
0
 62
9
  6
CONTINUOUS
 10
400.4213143094
 20
108.7239297755
 11
402.520856101
 21
108.5282530703
  0
LINE
  8
0
 62
7
  6
CONTINUOUS
 10
401.4090846687
 20
104.4771418097
 11
385.4564087126
 21
108.7516484493
  0
POLYLINE
  8
0
 62
9
  6
CONTINUOUS
 66
1
 70
0
  0
VERTEX
  8
0
 62
9
  6
CONTINUOUS
 10
385.4564388772
 20
108.7516397184
  0
VERTEX
  8
0
 62
9
  6
CONTINUOUS
 10
385.3209167034
 20
108.8105624059
  0
VERTEX
  8
0
 62
9
  6
CONTINUOUS
 10
385.2085392891
 20
108.9065266158
  0
VERTEX
  8
0
 62
9
  6
CONTINUOUS
 10
385.1291217009
 20
109.0311497856
  0
VERTEX
  8
0
 62
9
  6
CONTINUOUS
 10
385.0896002749
 20
109.1735545288
  0
SEQEND
  0
LINE
  8
0
 62
9
  6
CONTINUOUS
 10
385.100856101
 20
112.7067362393
 11
385.5572782297
 21
112.7067362393
  0
LINE
  8
4_SURFACE
 62
9
  6
CONTINUOUS
 10
361.020856101
 20
112.8469184844
 11
360.520856101
 21
112.8469184844
  0
LINE
  8
4_SURFACE
 62
9
  6
CONTINUOUS
 10
356.5231148265
 20
112.9632453742
 11
356.520856101
 21
112.9632455525
  0
LINE
  8
0
 62
9
  6
CONTINUOUS
 10
400.4213143094
 20
106.2239297755
 11
385.5572782297
 21
110.2067362393
  0
LINE
  8
0
 62
7
  6
CONTINUOUS
 10
401.4090846687
 20
107.4771418097
 11
385.4714465785
 21
111.7476190652
  0
POLYLINE
  8
4_SURFACE
 62
9
  6
CONTINUOUS
 66
1
 70
0
  0
VERTEX
  8
4_SURFACE
 62
9
  6
CONTINUOUS
 10
359.5594343219
 20
114.0357629983
  0
VERTEX
  8
4_SURFACE
 62
9
  6
CONTINUOUS
 10
359.7301260248
 20
114.0412466348
  0
VERTEX
  8
4_SURFACE
 62
9
  6
CONTINUOUS
 10
360.103919692
 20
114.0155868222
  0
VERTEX
  8
4_SURFACE
 62
9
  6
CONTINUOUS
 10
360.2703560177
 20
113.9845397948
  0
VERTEX
  8
4_SURFACE
 62
9
  6
CONTINUOUS
 10
360.5347575198
 20
113.9003158853
  0
VERTEX
  8
4_SURFACE
 62
9
  6
CONTINUOUS
 10
360.63345203
 20
113.8529754227
  0
SEQEND
  0
LINE
  8
4_SURFACE
 62
7
  6
CONTINUOUS
 10
357.520856101
 20
113.8469184844
 11
359.520856101
 21
113.8469184844
  0
LINE
  8
0
 62
9
  6
CONTINUOUS
 10
400.4213143094
 20
108.7239297755
 11
385.5572782297
 21
112.7067362393
  0
POLYLINE
  8
4_SURFACE
 62
7
  6
CONTINUOUS
 66
1
 70
0
  0
VERTEX
  8
4_SURFACE
 62
7
  6
CONTINUOUS
 10
381.120856101
 20
116.8685487434
  0
VERTEX
  8
4_SURFACE
 62
7
  6
CONTINUOUS
 10
381.1128216057
 20
116.8743471741
  0
VERTEX
  8
4_SURFACE
 62
7
  6
CONTINUOUS
 10
381.0867773514
 20
116.880747618
  0
VERTEX
  8
4_SURFACE
 62
7
  6
CONTINUOUS
 10
381.0436680865
 20
116.8873484257
  0
SEQEND
  0
LINE
  8
4_SURFACE
 62
9
  6
CONTINUOUS
 10
360.6334429992
 20
113.852974303
 11
380.620856101
 21
116.3311065541
  0
LINE
  8
4_SURFACE
 62
7
  6
CONTINUOUS
 10
357.3978144507
 20
113.9556470603
 11
381.120856101
 21
116.8969184844
  0
LINE
  8
4_SURFACE
 62
9
  6
CONTINUOUS
 10
357.4049551892
 20
113.8983337997
 11
357.5745735696
 21
113.9136562791
  0
LINE
  8
4_SURFACE
 62
9
  6
CONTINUOUS
 10
357.5745735696
 20
113.9136562791
 11
359.5594343219
 21
114.0357629983
  0
LINE
  8
4_SURFACE
 62
9
  6
CONTINUOUS
 10
380.620856101
 20
116.3310982787
 11
381.120856101
 21
116.3310982787
  0
LINE
  8
4_SURFACE
 62
7
  6
CONTINUOUS
 10
383.600856101
 20
116.8969184844
 11
381.120856101
 21
116.8969184844
  0
LINE
  8
0
 62
7
  6
CONTINUOUS
 10
401.4090846687
 20
109.9771418097
 11
385.4714465785
 21
114.2476190652
  0
POLYLINE
  8
0
 62
9
  6
CONTINUOUS
 66
1
 70
0
  0
VERTEX
  8
0
 62
9
  6
CONTINUOUS
 10
400.4213143094
 20
89.9699071933
  0
VERTEX
  8
0
 62
9
  6
CONTINUOUS
 10
400.5085509346
 20
89.6279630017
  0
VERTEX
  8
0
 62
9
  6
CONTINUOUS
 10
400.583479484
 20
89.3053272197
  0
VERTEX
  8
0
 62
9
  6
CONTINUOUS
 10
400.6418688945
 20
89.0202184621
  0
VERTEX
  8
0
 62
9
  6
CONTINUOUS
 10
400.663789145
 20
88.8968762249
  0
VERTEX
  8
0
 62
9
  6
CONTINUOUS
 10
400.691532392
 20
88.6973283095
  0
VERTEX
  8
0
 62
9
  6
CONTINUOUS
 10
400.6966351411
 20
88.5696389956
  0
VERTEX
  8
0
 62
9
  6
CONTINUOUS
 10
400.6788092629
 20
88.5210184538
  0
SEQEND
  0
POLYLINE
  8
0
 62
9
  6
CONTINUOUS
 66
1
 70
0
  0
VERTEX
  8
0
 62
9
  6
CONTINUOUS
 10
400.4213143094
 20
92.4699071933
  0
VERTEX
  8
0
 62
9
  6
CONTINUOUS
 10
400.5085509346
 20
92.1279630017
  0
VERTEX
  8
0
 62
9
  6
CONTINUOUS
 10
400.583479484
 20
91.8053272197
  0
VERTEX
  8
0
 62
9
  6
CONTINUOUS
 10
400.6418688945
 20
91.5202184621
  0
VERTEX
  8
0
 62
9
  6
CONTINUOUS
 10
400.663789145
 20
91.3968762249
  0
VERTEX
  8
0
 62
9
  6
CONTINUOUS
 10
400.691532392
 20
91.1973283095
  0
VERTEX
  8
0
 62
9
  6
CONTINUOUS
 10
400.6966351411
 20
91.0696389956
  0
VERTEX
  8
0
 62
9
  6
CONTINUOUS
 10
400.6788092629
 20
91.0210184538
  0
SEQEND
  0
POLYLINE
  8
0
 62
9
  6
CONTINUOUS
 66
1
 70
0
  0
VERTEX
  8
0
 62
9
  6
CONTINUOUS
 10
400.4213143094
 20
95.4699071933
  0
VERTEX
  8
0
 62
9
  6
CONTINUOUS
 10
400.5085509346
 20
95.1279630017
  0
VERTEX
  8
0
 62
9
  6
CONTINUOUS
 10
400.583479484
 20
94.8053272197
  0
VERTEX
  8
0
 62
9
  6
CONTINUOUS
 10
400.6418688945
 20
94.5202184621
  0
VERTEX
  8
0
 62
9
  6
CONTINUOUS
 10
400.663789145
 20
94.3968762249
  0
VERTEX
  8
0
 62
9
  6
CONTINUOUS
 10
400.691532392
 20
94.1973283095
  0
VERTEX
  8
0
 62
9
  6
CONTINUOUS
 10
400.6966351411
 20
94.0696389956
  0
VERTEX
  8
0
 62
9
  6
CONTINUOUS
 10
400.6788092629
 20
94.0210184538
  0
SEQEND
  0
LINE
  8
0
 62
9
  6
CONTINUOUS
 10
400.4213143094
 20
89.9699071933
 11
400.4213143094
 21
90.952022889
  0
LINE
  8
0
 62
9
  6
CONTINUOUS
 10
400.4213143094
 20
92.4699071933
 11
400.4213143094
 21
93.952022889
  0
LINE
  8
0
 62
9
  6
CONTINUOUS
 10
400.4213143094
 20
95.4699071933
 11
400.4213143094
 21
103.2239297755
  0
LINE
  8
0
 62
9
  6
CONTINUOUS
 10
400.4213143094
 20
104.7418140798
 11
400.4213143094
 21
106.2239297755
  0
LINE
  8
0
 62
9
  6
CONTINUOUS
 10
400.4213143094
 20
107.7418140798
 11
400.4213143094
 21
108.7239297755
  0
LINE
  8
4_SURFACE
 62
9
  6
CONTINUOUS
 10
357.1138804824
 20
113.8184069725
 11
357.4049551586
 21
113.8983340446
  0
LINE
  8
0
 62
7
  6
CONTINUOUS
 10
402.520856101
 20
90.1655838985
 11
402.520856101
 21
108.5282530703
  0
POLYLINE
  8
0
 62
9
  6
CONTINUOUS
 66
1
 70
0
  0
VERTEX
  8
0
 62
9
  6
CONTINUOUS
 10
400.6788092629
 20
104.6728185149
  0
VERTEX
  8
0
 62
9
  6
CONTINUOUS
 10
400.6966351415
 20
104.6241979682
  0
VERTEX
  8
0
 62
9
  6
CONTINUOUS
 10
400.6915323835
 20
104.4965085746
  0
VERTEX
  8
0
 62
9
  6
CONTINUOUS
 10
400.66378915
 20
104.2969607736
  0
VERTEX
  8
0
 62
9
  6
CONTINUOUS
 10
400.6418689008
 20
104.1736185402
  0
VERTEX
  8
0
 62
9
  6
CONTINUOUS
 10
400.5834794495
 20
103.8885095918
  0
VERTEX
  8
0
 62
9
  6
CONTINUOUS
 10
400.5085509299
 20
103.5658739482
  0
VERTEX
  8
0
 62
9
  6
CONTINUOUS
 10
400.4213143094
 20
103.2239297755
  0
SEQEND
  0
POLYLINE
  8
0
 62
9
  6
CONTINUOUS
 66
1
 70
0
  0
VERTEX
  8
0
 62
9
  6
CONTINUOUS
 10
400.6788092629
 20
107.6728185149
  0
VERTEX
  8
0
 62
9
  6
CONTINUOUS
 10
400.6966351415
 20
107.6241979682
  0
VERTEX
  8
0
 62
9
  6
CONTINUOUS
 10
400.6915323835
 20
107.4965085746
  0
VERTEX
  8
0
 62
9
  6
CONTINUOUS
 10
400.66378915
 20
107.2969607736
  0
VERTEX
  8
0
 62
9
  6
CONTINUOUS
 10
400.6418689008
 20
107.1736185402
  0
VERTEX
  8
0
 62
9
  6
CONTINUOUS
 10
400.5834794495
 20
106.8885095918
  0
VERTEX
  8
0
 62
9
  6
CONTINUOUS
 10
400.5085509299
 20
106.5658739482
  0
VERTEX
  8
0
 62
9
  6
CONTINUOUS
 10
400.4213143094
 20
106.2239297755
  0
SEQEND
  0
POLYLINE
  8
0
 62
9
  6
CONTINUOUS
 66
1
 70
0
  0
VERTEX
  8
0
 62
9
  6
CONTINUOUS
 10
400.6788092629
 20
110.1728185149
  0
VERTEX
  8
0
 62
9
  6
CONTINUOUS
 10
400.6966351415
 20
110.1241979682
  0
VERTEX
  8
0
 62
9
  6
CONTINUOUS
 10
400.6915323835
 20
109.9965085746
  0
VERTEX
  8
0
 62
9
  6
CONTINUOUS
 10
400.66378915
 20
109.7969607736
  0
VERTEX
  8
0
 62
9
  6
CONTINUOUS
 10
400.6418689008
 20
109.6736185402
  0
VERTEX
  8
0
 62
9
  6
CONTINUOUS
 10
400.5834794495
 20
109.3885095918
  0
VERTEX
  8
0
 62
9
  6
CONTINUOUS
 10
400.5085509299
 20
109.0658739482
  0
VERTEX
  8
0
 62
9
  6
CONTINUOUS
 10
400.4213143094
 20
108.7239297755
  0
SEQEND
  0
LINE
  8
4_SURFACE
 62
7
  6
CONTINUOUS
 10
24.2029761199
 20
224.4661272173
 11
24.2029761199
 21
226.9461272173
  0
LINE
  8
0
 62
9
  6
CONTINUOUS
 10
40.7683176595
 20
244.0240803792
 11
42.0987922436
 21
228.8166862952
  0
LINE
  8
0
 62
9
  6
CONTINUOUS
 10
37.6090228365
 20
228.4348707729
 11
37.6077632177
 21
228.5538099244
  0
LINE
  8
0
 62
9
  6
CONTINUOUS
 10
37.6077632177
 20
228.5538099244
 11
37.6058495976
 21
228.8017090612
  0
LINE
  8
0
 62
9
  6
CONTINUOUS
 10
42.0987906837
 20
228.8167038134
 11
42.0988862727
 21
228.4461215048
  0
LINE
  8
0
 62
9
  6
CONTINUOUS
 10
39.7345903388
 20
244.754355785
 11
39.7345903388
 21
245.8661272173
  0
LINE
  8
0
 62
9
  6
CONTINUOUS
 10
39.971361901
 20
245.8661272173
 11
39.971361901
 21
244.754355785
  0
LINE
  8
0
 62
7
  6
CONTINUOUS
 10
36.1429059356
 20
228.9025270996
 11
37.4433425332
 21
243.7665854257
  0
LINE
  8
0
 62
9
  6
CONTINUOUS
 10
37.6058485674
 20
228.801696596
 11
38.9376345803
 21
244.0240803792
  0
LINE
  8
0
 62
7
  6
CONTINUOUS
 10
42.2626097067
 20
243.7665854257
 11
43.563046843
 21
228.9025209409
  0
POLYLINE
  8
0
 62
9
  6
CONTINUOUS
 66
1
 70
0
  0
VERTEX
  8
0
 62
9
  6
CONTINUOUS
 10
37.4433425332
 20
243.7665854257
  0
VERTEX
  8
0
 62
9
  6
CONTINUOUS
 10
37.4934866846
 20
243.8538220509
  0
VERTEX
  8
0
 62
9
  6
CONTINUOUS
 10
37.625177435
 20
243.9287506003
  0
VERTEX
  8
0
 62
9
  6
CONTINUOUS
 10
37.8309783939
 20
243.9871400109
  0
VERTEX
  8
0
 62
9
  6
CONTINUOUS
 10
37.9581857588
 20
244.0090602614
  0
VERTEX
  8
0
 62
9
  6
CONTINUOUS
 10
38.2522290642
 20
244.0368035083
  0
VERTEX
  8
0
 62
9
  6
CONTINUOUS
 10
38.5849750255
 20
244.0419062574
  0
VERTEX
  8
0
 62
9
  6
CONTINUOUS
 10
38.9376345803
 20
244.0240803792
  0
SEQEND
  0
POLYLINE
  8
4_SURFACE
 62
9
  6
CONTINUOUS
 66
1
 70
0
  0
VERTEX
  8
4_SURFACE
 62
9
  6
CONTINUOUS
 10
28.0732255776
 20
228.4461272173
  0
VERTEX
  8
4_SURFACE
 62
9
  6
CONTINUOUS
 10
28.0621463233
 20
228.4308593873
  0
VERTEX
  8
4_SURFACE
 62
9
  6
CONTINUOUS
 10
28.0408853882
 20
228.3105752595
  0
VERTEX
  8
4_SURFACE
 62
9
  6
CONTINUOUS
 10
28.0222444606
 20
228.079751672
  0
VERTEX
  8
4_SURFACE
 62
9
  6
CONTINUOUS
 10
28.0143902307
 20
227.9284184224
  0
VERTEX
  8
4_SURFACE
 62
9
  6
CONTINUOUS
 10
28.0024104319
 20
227.5692498284
  0
VERTEX
  8
4_SURFACE
 62
9
  6
CONTINUOUS
 10
27.9961676561
 20
227.1595995111
  0
VERTEX
  8
4_SURFACE
 62
9
  6
CONTINUOUS
 10
27.9953752521
 20
224.4661272173
  0
SEQEND
  0
POLYLINE
  8
0
 62
9
  6
CONTINUOUS
 66
1
 70
0
  0
VERTEX
  8
0
 62
9
  6
CONTINUOUS
 10
42.1949093409
 20
228.4461272173
  0
VERTEX
  8
0
 62
9
  6
CONTINUOUS
 10
42.1869789289
 20
228.4725125565
  0
VERTEX
  8
0
 62
9
  6
CONTINUOUS
 10
42.1798855052
 20
228.5488837925
  0
VERTEX
  8
0
 62
9
  6
CONTINUOUS
 10
42.1743777172
 20
228.6671805648
  0
VERTEX
  8
0
 62
9
  6
CONTINUOUS
 10
42.1710368616
 20
228.8149176697
  0
SEQEND
  0
POLYLINE
  8
0
 62
9
  6
CONTINUOUS
 66
1
 70
0
  0
VERTEX
  8
0
 62
9
  6
CONTINUOUS
 10
40.7683176595
 20
244.0240803792
  0
VERTEX
  8
0
 62
9
  6
CONTINUOUS
 10
40.735692333
 20
244.190573885
  0
VERTEX
  8
0
 62
9
  6
CONTINUOUS
 10
40.6687445302
 20
244.346347454
  0
VERTEX
  8
0
 62
9
  6
CONTINUOUS
 10
40.5705787548
 20
244.4843927292
  0
VERTEX
  8
0
 62
9
  6
CONTINUOUS
 10
40.4456896273
 20
244.5985709727
  0
VERTEX
  8
0
 62
9
  6
CONTINUOUS
 10
40.299739096
 20
244.6838545292
  0
VERTEX
  8
0
 62
9
  6
CONTINUOUS
 10
40.139244472
 20
244.736542107
  0
VERTEX
  8
0
 62
9
  6
CONTINUOUS
 10
39.971361901
 20
244.754355785
  0
SEQEND
  0
POLYLINE
  8
0
 62
9
  6
CONTINUOUS
 66
1
 70
0
  0
VERTEX
  8
0
 62
9
  6
CONTINUOUS
 10
43.563046843
 20
228.9025209409
  0
VERTEX
  8
0
 62
9
  6
CONTINUOUS
 10
43.5273071891
 20
228.8749190912
  0
VERTEX
  8
0
 62
9
  6
CONTINUOUS
 10
43.4224623966
 20
228.851740552
  0
VERTEX
  8
0
 62
9
  6
CONTINUOUS
 10
43.2553345366
 20
228.8331385755
  0
VERTEX
  8
0
 62
9
  6
CONTINUOUS
 10
43.035482158
 20
228.8198420471
  0
VERTEX
  8
0
 62
9
  6
CONTINUOUS
 10
42.7740065649
 20
228.8122772714
  0
VERTEX
  8
0
 62
9
  6
CONTINUOUS
 10
42.4815011724
 20
228.8106276891
  0
VERTEX
  8
0
 62
9
  6
CONTINUOUS
 10
42.1710368616
 20
228.8149176697
  0
SEQEND
  0
LINE
  8
0
 62
7
  6
CONTINUOUS
 10
106.1429078819
 20
228.902549346
 11
107.4433425332
 21
243.7665854257
  0
LINE
  8
0
 62
9
  6
CONTINUOUS
 10
110.7683176595
 20
244.0240803792
 11
112.0987894965
 21
228.8167176948
  0
LINE
  8
0
 62
7
  6
CONTINUOUS
 10
112.2626097067
 20
243.7665854257
 11
113.5630443579
 21
228.902549346
  0
LINE
  8
0
 62
9
  6
CONTINUOUS
 10
107.6071627433
 20
228.4461272173
 11
107.6071627433
 21
228.8167176948
  0
LINE
  8
0
 62
9
  6
CONTINUOUS
 10
109.7345903388
 20
244.754355785
 11
109.7345903388
 21
245.8661272173
  0
LINE
  8
0
 62
9
  6
CONTINUOUS
 10
109.971361901
 20
245.8661272173
 11
109.971361901
 21
244.754355785
  0
LINE
  8
0
 62
9
  6
CONTINUOUS
 10
112.0987894965
 20
228.8167176948
 11
112.0987894965
 21
228.4461272173
  0
LINE
  8
0
 62
9
  6
CONTINUOUS
 10
107.6071627433
 20
228.8167176948
 11
108.9376345803
 21
244.0240803792
  0
POLYLINE
  8
0
 62
9
  6
CONTINUOUS
 66
1
 70
0
  0
VERTEX
  8
0
 62
9
  6
CONTINUOUS
 10
107.4433425332
 20
243.7665854257
  0
VERTEX
  8
0
 62
9
  6
CONTINUOUS
 10
107.4934866846
 20
243.8538220509
  0
VERTEX
  8
0
 62
9
  6
CONTINUOUS
 10
107.625177435
 20
243.9287506003
  0
VERTEX
  8
0
 62
9
  6
CONTINUOUS
 10
107.8309783939
 20
243.9871400109
  0
VERTEX
  8
0
 62
9
  6
CONTINUOUS
 10
107.9581857588
 20
244.0090602614
  0
VERTEX
  8
0
 62
9
  6
CONTINUOUS
 10
108.2522290642
 20
244.0368035083
  0
VERTEX
  8
0
 62
9
  6
CONTINUOUS
 10
108.5849750255
 20
244.0419062574
  0
VERTEX
  8
0
 62
9
  6
CONTINUOUS
 10
108.9376345803
 20
244.0240803792
  0
SEQEND
  0
POLYLINE
  8
0
 62
9
  6
CONTINUOUS
 66
1
 70
0
  0
VERTEX
  8
0
 62
9
  6
CONTINUOUS
 10
110.7683176595
 20
244.0240803792
  0
VERTEX
  8
0
 62
9
  6
CONTINUOUS
 10
110.735692333
 20
244.190573885
  0
VERTEX
  8
0
 62
9
  6
CONTINUOUS
 10
110.6687445302
 20
244.346347454
  0
VERTEX
  8
0
 62
9
  6
CONTINUOUS
 10
110.5705787548
 20
244.4843927292
  0
VERTEX
  8
0
 62
9
  6
CONTINUOUS
 10
110.4456896273
 20
244.5985709727
  0
VERTEX
  8
0
 62
9
  6
CONTINUOUS
 10
110.299739096
 20
244.6838545292
  0
VERTEX
  8
0
 62
9
  6
CONTINUOUS
 10
110.139244472
 20
244.736542107
  0
VERTEX
  8
0
 62
9
  6
CONTINUOUS
 10
109.971361901
 20
244.754355785
  0
SEQEND
  0
POLYLINE
  8
0
 62
9
  6
CONTINUOUS
 66
1
 70
0
  0
VERTEX
  8
0
 62
9
  6
CONTINUOUS
 10
113.5630443579
 20
228.902549346
  0
VERTEX
  8
0
 62
9
  6
CONTINUOUS
 10
113.5272854248
 20
228.8749111656
  0
VERTEX
  8
0
 62
9
  6
CONTINUOUS
 10
113.4169687157
 20
228.8509100968
  0
VERTEX
  8
0
 62
9
  6
CONTINUOUS
 10
113.2404552219
 20
228.8319431312
  0
VERTEX
  8
0
 62
9
  6
CONTINUOUS
 10
113.0077373013
 20
228.8186917913
  0
VERTEX
  8
0
 62
9
  6
CONTINUOUS
 10
112.7312985344
 20
228.8116424939
  0
VERTEX
  8
0
 62
9
  6
CONTINUOUS
 10
112.4221837356
 20
228.8109999233
  0
VERTEX
  8
0
 62
9
  6
CONTINUOUS
 10
112.0987894965
 20
228.8167176948
  0
SEQEND
  0
POLYLINE
  8
0
 62
9
  6
CONTINUOUS
 66
1
 70
0
  0
VERTEX
  8
0
 62
9
  6
CONTINUOUS
 10
36.5825780214
 20
228.4461272173
  0
VERTEX
  8
0
 62
9
  6
CONTINUOUS
 10
36.6675379074
 20
228.4724533824
  0
VERTEX
  8
0
 62
9
  6
CONTINUOUS
 10
36.7435511199
 20
228.5486596085
  0
VERTEX
  8
0
 62
9
  6
CONTINUOUS
 10
36.8026131143
 20
228.6667210239
  0
VERTEX
  8
0
 62
9
  6
CONTINUOUS
 10
36.8385043881
 20
228.8142052114
  0
SEQEND
  0
LINE
  8
4_SURFACE
 62
7
  6
CONTINUOUS
 10
149.4529761199
 20
202.8661272173
 11
149.4529761199
 21
200.8661272173
  0
LINE
  8
0
 62
7
  6
CONTINUOUS
 10
150.7529761199
 20
199.8661272173
 11
150.7529761199
 21
199.6661272173
  0
LINE
  8
4_SURFACE
 62
9
  6
CONTINUOUS
 10
153.4529761199
 20
199.8661272173
 11
153.4529761199
 21
203.8661272173
  0
LINE
  8
0
 62
7
  6
CONTINUOUS
 10
154.5779761199
 20
199.8661272173
 11
154.5779761199
 21
199.6661272173
  0
LINE
  8
0
 62
7
  6
CONTINUOUS
 10
154.8029761199
 20
199.8661272173
 11
154.8029761199
 21
199.6661272173
  0
POLYLINE
  8
0
 62
9
  6
CONTINUOUS
 66
1
 70
0
  0
VERTEX
  8
0
 62
9
  6
CONTINUOUS
 10
192.1004485385
 20
199.8683859478
  0
VERTEX
  8
0
 62
9
  6
CONTINUOUS
 10
192.1162285131
 20
199.8694710832
  0
VERTEX
  8
0
 62
9
  6
CONTINUOUS
 10
192.1320614766
 20
199.8697221934
  0
VERTEX
  8
0
 62
9
  6
CONTINUOUS
 10
192.1479209568
 20
199.8691388586
  0
SEQEND
  0
POLYLINE
  8
0
 62
9
  6
CONTINUOUS
 66
1
 70
0
  0
VERTEX
  8
0
 62
9
  6
CONTINUOUS
 10
192.2862582398
 20
200.7502246169
  0
VERTEX
  8
0
 62
9
  6
CONTINUOUS
 10
192.2119707411
 20
200.7462788472
  0
VERTEX
  8
0
 62
9
  6
CONTINUOUS
 10
192.1335255448
 20
200.7438891351
  0
VERTEX
  8
0
 62
9
  6
CONTINUOUS
 10
192.0529761199
 20
200.7430855671
  0
SEQEND
  0
POLYLINE
  8
0
 62
9
  6
CONTINUOUS
 66
1
 70
0
  0
VERTEX
  8
0
 62
9
  6
CONTINUOUS
 10
192.1479209568
 20
199.8691388605
  0
VERTEX
  8
0
 62
9
  6
CONTINUOUS
 10
192.1163540155
 20
199.8674674829
  0
VERTEX
  8
0
 62
9
  6
CONTINUOUS
 10
192.0847025168
 20
199.8664628245
  0
SEQEND
  0
LINE
  8
0
 62
7
  6
CONTINUOUS
 10
192.0529761199
 20
199.8661272173
 11
192.1004485383
 21
199.8683859497
  0
POLYLINE
  8
0
 62
9
  6
CONTINUOUS
 66
1
 70
0
  0
VERTEX
  8
0
 62
9
  6
CONTINUOUS
 10
192.2862557488
 20
200.7501922342
  0
VERTEX
  8
0
 62
9
  6
CONTINUOUS
 10
192.3605450138
 20
200.7524702604
  0
VERTEX
  8
0
 62
9
  6
CONTINUOUS
 10
192.4389890669
 20
200.7532668048
  0
VERTEX
  8
0
 62
9
  6
CONTINUOUS
 10
192.5195380135
 20
200.7525610521
  0
SEQEND
  0
LINE
  8
0
 62
9
  6
CONTINUOUS
 10
192.0847025168
 20
199.8664628245
 11
192.0529761199
 21
199.8661272173
  0
LINE
  8
0
 62
7
  6
CONTINUOUS
 10
201.2529761199
 20
199.6661272173
 11
197.2316995565
 21
199.6661272173
  0
LINE
  8
0
 62
7
  6
CONTINUOUS
 10
196.2529761199
 20
199.6661272173
 11
193.2529761199
 21
199.6661272173
  0
LINE
  8
0
 62
7
  6
CONTINUOUS
 10
159.9029761199
 20
199.6661272173
 11
158.5149761199
 21
199.6661272173
  0
LINE
  8
0
 62
7
  6
CONTINUOUS
 10
158.2529761199
 20
199.6661272173
 11
154.8029761199
 21
199.6661272173
  0
LINE
  8
0
 62
7
  6
CONTINUOUS
 10
154.5779761199
 20
199.6661272173
 11
150.7529761199
 21
199.6661272173
  0
LINE
  8
4_SURFACE
 62
7
  6
CONTINUOUS
 10
150.4529761199
 20
199.8661272173
 11
164.4529761199
 21
199.8661272173
  0
LINE
  8
0
 62
7
  6
CONTINUOUS
 10
188.7529761199
 20
199.8661272173
 11
202.7529761199
 21
199.8661272173
  0
LINE
  8
0
 62
9
  6
CONTINUOUS
 10
188.3981916226
 20
200.3661272173
 11
188.2529761199
 21
200.3661272174
  0
LINE
  8
4_SURFACE
 62
9
  6
CONTINUOUS
 10
164.8082489979
 20
200.3661272173
 11
164.9529761199
 21
200.3661272174
  0
LINE
  8
4_SURFACE
 62
9
  6
CONTINUOUS
 10
164.4491768737
 20
200.743085567
 11
161.1529761199
 21
200.743085567
  0
LINE
  8
0
 62
9
  6
CONTINUOUS
 10
188.7567753661
 20
200.743085567
 11
192.0529761199
 21
200.743085567
  0
LINE
  8
4_SURFACE
 62
9
  6
CONTINUOUS
 10
160.6655403969
 20
200.8661294304
 11
149.4529761199
 21
200.8661272173
  0
LINE
  8
0
 62
9
  6
CONTINUOUS
 10
192.5404118429
 20
200.8661294304
 11
203.7529761199
 21
200.8661272173
  0
LINE
  8
0
 62
9
  6
CONTINUOUS
 10
203.7529761199
 20
202.8661272173
 11
192.8319335117
 21
202.8661195792
  0
LINE
  8
4_SURFACE
 62
9
  6
CONTINUOUS
 10
149.4529761199
 20
202.8661272173
 11
160.3740187281
 21
202.8661195792
  0
LINE
  8
4_SURFACE
 62
9
  6
CONTINUOUS
 10
161.121249723
 20
199.8664628245
 11
161.1529761199
 21
199.8661272173
  0
POLYLINE
  8
4_SURFACE
 62
9
  6
CONTINUOUS
 66
1
 70
0
  0
VERTEX
  8
4_SURFACE
 62
9
  6
CONTINUOUS
 10
160.919696491
 20
200.7501922342
  0
VERTEX
  8
4_SURFACE
 62
9
  6
CONTINUOUS
 10
160.845407226
 20
200.7524702604
  0
VERTEX
  8
4_SURFACE
 62
9
  6
CONTINUOUS
 10
160.7669631729
 20
200.7532668048
  0
VERTEX
  8
4_SURFACE
 62
9
  6
CONTINUOUS
 10
160.6864142263
 20
200.7525610521
  0
SEQEND
  0
LINE
  8
4_SURFACE
 62
7
  6
CONTINUOUS
 10
161.1055037015
 20
199.8683859497
 11
161.1529761199
 21
199.8661272173
  0
POLYLINE
  8
4_SURFACE
 62
9
  6
CONTINUOUS
 66
1
 70
0
  0
VERTEX
  8
4_SURFACE
 62
9
  6
CONTINUOUS
 10
161.058031283
 20
199.8691388605
  0
VERTEX
  8
4_SURFACE
 62
9
  6
CONTINUOUS
 10
161.0895982243
 20
199.8674674829
  0
VERTEX
  8
4_SURFACE
 62
9
  6
CONTINUOUS
 10
161.121249723
 20
199.8664628245
  0
SEQEND
  0
POLYLINE
  8
4_SURFACE
 62
9
  6
CONTINUOUS
 66
1
 70
0
  0
VERTEX
  8
4_SURFACE
 62
9
  6
CONTINUOUS
 10
160.919694
 20
200.7502246169
  0
VERTEX
  8
4_SURFACE
 62
9
  6
CONTINUOUS
 10
160.9939814988
 20
200.7462788472
  0
VERTEX
  8
4_SURFACE
 62
9
  6
CONTINUOUS
 10
161.072426695
 20
200.7438891351
  0
VERTEX
  8
4_SURFACE
 62
9
  6
CONTINUOUS
 10
161.1529761199
 20
200.7430855671
  0
SEQEND
  0
POLYLINE
  8
4_SURFACE
 62
9
  6
CONTINUOUS
 66
1
 70
0
  0
VERTEX
  8
4_SURFACE
 62
9
  6
CONTINUOUS
 10
161.1055037013
 20
199.8683859478
  0
VERTEX
  8
4_SURFACE
 62
9
  6
CONTINUOUS
 10
161.0897237267
 20
199.8694710832
  0
VERTEX
  8
4_SURFACE
 62
9
  6
CONTINUOUS
 10
161.0738907632
 20
199.8697221934
  0
VERTEX
  8
4_SURFACE
 62
9
  6
CONTINUOUS
 10
161.058031283
 20
199.8691388586
  0
SEQEND
  0
LINE
  8
4_SURFACE
 62
9
  6
CONTINUOUS
 10
160.545147337
 20
201.5089508416
 11
160.6864142263
 21
200.7525607131
  0
POLYLINE
  8
4_SURFACE
 62
9
  6
CONTINUOUS
 66
1
 70
0
  0
VERTEX
  8
4_SURFACE
 62
9
  6
CONTINUOUS
 10
160.1529761199
 20
203.6078470926
  0
VERTEX
  8
4_SURFACE
 62
9
  6
CONTINUOUS
 10
160.1599833864
 20
203.5372474102
  0
VERTEX
  8
4_SURFACE
 62
9
  6
CONTINUOUS
 10
160.21635163
 20
203.3515412163
  0
VERTEX
  8
4_SURFACE
 62
9
  6
CONTINUOUS
 10
160.261417093
 20
203.2364275938
  0
VERTEX
  8
4_SURFACE
 62
9
  6
CONTINUOUS
 10
160.34986459
 20
202.9815233333
  0
VERTEX
  8
4_SURFACE
 62
9
  6
CONTINUOUS
 10
160.3740194764
 20
202.8661195792
  0
SEQEND
  0
POLYLINE
  8
4_SURFACE
 62
9
  6
CONTINUOUS
 66
1
 70
0
  0
VERTEX
  8
4_SURFACE
 62
9
  6
CONTINUOUS
 10
160.6864142263
 20
200.7525607131
  0
VERTEX
  8
4_SURFACE
 62
9
  6
CONTINUOUS
 10
160.7043906089
 20
200.4739273649
  0
VERTEX
  8
4_SURFACE
 62
9
  6
CONTINUOUS
 10
160.7334463508
 20
200.2762318662
  0
VERTEX
  8
4_SURFACE
 62
9
  6
CONTINUOUS
 10
160.7666777077
 20
200.1411921888
  0
VERTEX
  8
4_SURFACE
 62
9
  6
CONTINUOUS
 10
160.8009622602
 20
200.0495623888
  0
VERTEX
  8
4_SURFACE
 62
9
  6
CONTINUOUS
 10
160.8349649705
 20
199.9873979724
  0
VERTEX
  8
4_SURFACE
 62
9
  6
CONTINUOUS
 10
160.8677899326
 20
199.9456625342
  0
VERTEX
  8
4_SURFACE
 62
9
  6
CONTINUOUS
 10
160.8837008114
 20
199.9302742887
  0
VERTEX
  8
4_SURFACE
 62
9
  6
CONTINUOUS
 10
160.9148195924
 20
199.9072290679
  0
VERTEX
  8
4_SURFACE
 62
9
  6
CONTINUOUS
 10
160.9451658509
 20
199.8917863571
  0
VERTEX
  8
4_SURFACE
 62
9
  6
CONTINUOUS
 10
160.9744704583
 20
199.881755824
  0
VERTEX
  8
4_SURFACE
 62
9
  6
CONTINUOUS
 10
161.0025633796
 20
199.87544644
  0
VERTEX
  8
4_SURFACE
 62
9
  6
CONTINUOUS
 10
161.0302951542
 20
199.871502847
  0
VERTEX
  8
4_SURFACE
 62
9
  6
CONTINUOUS
 10
161.058031283
 20
199.8691388605
  0
SEQEND
  0
LINE
  8
4_SURFACE
 62
9
  6
CONTINUOUS
 10
160.9092584656
 20
200.9198446859
 11
160.919694
 21
200.7502246169
  0
POLYLINE
  8
4_SURFACE
 62
9
  6
CONTINUOUS
 66
1
 70
0
  0
VERTEX
  8
4_SURFACE
 62
9
  6
CONTINUOUS
 10
160.7634970006
 20
202.9047054382
  0
VERTEX
  8
4_SURFACE
 62
9
  6
CONTINUOUS
 10
160.8007157309
 20
202.2384035725
  0
VERTEX
  8
4_SURFACE
 62
9
  6
CONTINUOUS
 10
160.8490620181
 20
201.5577665557
  0
VERTEX
  8
4_SURFACE
 62
9
  6
CONTINUOUS
 10
160.9092584656
 20
200.9198446859
  0
SEQEND
  0
POLYLINE
  8
4_SURFACE
 62
9
  6
CONTINUOUS
 66
1
 70
0
  0
VERTEX
  8
4_SURFACE
 62
9
  6
CONTINUOUS
 10
160.65297612
 20
203.9787239389
  0
VERTEX
  8
4_SURFACE
 62
9
  6
CONTINUOUS
 10
160.6564829523
 20
203.8800286277
  0
VERTEX
  8
4_SURFACE
 62
9
  6
CONTINUOUS
 10
160.6846876221
 20
203.6156271349
  0
VERTEX
  8
4_SURFACE
 62
9
  6
CONTINUOUS
 10
160.7072313541
 20
203.4491908066
  0
VERTEX
  8
4_SURFACE
 62
9
  6
CONTINUOUS
 10
160.7514672934
 20
203.0753971373
  0
VERTEX
  8
4_SURFACE
 62
9
  6
CONTINUOUS
 10
160.7634970006
 20
202.9047054382
  0
SEQEND
  0
POLYLINE
  8
4_SURFACE
 62
9
  6
CONTINUOUS
 66
1
 70
0
  0
VERTEX
  8
4_SURFACE
 62
9
  6
CONTINUOUS
 10
160.9196944454
 20
200.7502245879
  0
VERTEX
  8
4_SURFACE
 62
9
  6
CONTINUOUS
 10
160.9286829283
 20
200.4664589594
  0
VERTEX
  8
4_SURFACE
 62
9
  6
CONTINUOUS
 10
160.9432111512
 20
200.2665692438
  0
VERTEX
  8
4_SURFACE
 62
9
  6
CONTINUOUS
 10
160.9598269135
 20
200.1313022242
  0
VERTEX
  8
4_SURFACE
 62
9
  6
CONTINUOUS
 10
160.9769691787
 20
200.0404639631
  0
VERTEX
  8
4_SURFACE
 62
9
  6
CONTINUOUS
 10
160.9939705554
 20
199.9795227801
  0
VERTEX
  8
4_SURFACE
 62
9
  6
CONTINUOUS
 10
161.0103830313
 20
199.9391105073
  0
VERTEX
  8
4_SURFACE
 62
9
  6
CONTINUOUS
 10
161.0183384579
 20
199.9243677967
  0
VERTEX
  8
4_SURFACE
 62
9
  6
CONTINUOUS
 10
161.0338978493
 20
199.9025408371
  0
VERTEX
  8
4_SURFACE
 62
9
  6
CONTINUOUS
 10
161.0490709878
 20
199.8881889638
  0
VERTEX
  8
4_SURFACE
 62
9
  6
CONTINUOUS
 10
161.0637232507
 20
199.8790923323
  0
VERTEX
  8
4_SURFACE
 62
9
  6
CONTINUOUS
 10
161.077769681
 20
199.8735536442
  0
VERTEX
  8
4_SURFACE
 62
9
  6
CONTINUOUS
 10
161.091635526
 20
199.8702442775
  0
VERTEX
  8
4_SURFACE
 62
9
  6
CONTINUOUS
 10
161.1055037016
 20
199.8683859497
  0
SEQEND
  0
LINE
  8
0
 62
7
  6
CONTINUOUS
 10
158.2529761199
 20
199.8661272173
 11
158.2529761199
 21
199.6661272173
  0
LINE
  8
0
 62
7
  6
CONTINUOUS
 10
158.5149761199
 20
199.8661272173
 11
158.5149761199
 21
199.6661272173
  0
LINE
  8
0
 62
7
  6
CONTINUOUS
 10
158.6626356768
 20
199.8661272173
 11
158.6626356768
 21
199.6661272173
  0
LINE
  8
0
 62
7
  6
CONTINUOUS
 10
158.9579548732
 20
199.8661272173
 11
158.9579548732
 21
199.6661272173
  0
LINE
  8
0
 62
7
  6
CONTINUOUS
 10
158.9874867846
 20
199.8661272173
 11
158.9874867846
 21
199.6661272173
  0
LINE
  8
0
 62
7
  6
CONTINUOUS
 10
159.017018696
 20
199.8661272173
 11
159.017018696
 21
199.6661272173
  0
LINE
  8
0
 62
7
  6
CONTINUOUS
 10
159.0760825187
 20
199.8661272173
 11
159.0760825187
 21
199.6661272173
  0
LINE
  8
0
 62
7
  6
CONTINUOUS
 10
159.1942101642
 20
199.8661272173
 11
159.1942101642
 21
199.6661272173
  0
LINE
  8
0
 62
7
  6
CONTINUOUS
 10
159.253273987
 20
199.8661272173
 11
159.253273987
 21
199.6661272173
  0
LINE
  8
0
 62
7
  6
CONTINUOUS
 10
159.3123378097
 20
199.8661272173
 11
159.3123378097
 21
199.6661272173
  0
LINE
  8
0
 62
7
  6
CONTINUOUS
 10
159.4599974079
 20
199.8661272173
 11
159.4599974079
 21
199.6661272173
  0
LINE
  8
0
 62
7
  6
CONTINUOUS
 10
159.5485931421
 20
199.8661272173
 11
159.5485931421
 21
199.6661272173
  0
LINE
  8
0
 62
7
  6
CONTINUOUS
 10
159.6667208082
 20
199.8661272173
 11
159.6667208082
 21
199.6661272173
  0
LINE
  8
0
 62
7
  6
CONTINUOUS
 10
159.725784631
 20
199.8661272173
 11
159.725784631
 21
199.6661272173
  0
LINE
  8
0
 62
7
  6
CONTINUOUS
 10
159.8143803754
 20
199.8661272173
 11
159.8143803754
 21
199.6661272173
  0
LINE
  8
0
 62
7
  6
CONTINUOUS
 10
159.8734442059
 20
199.8661272173
 11
159.8734442059
 21
199.6661272173
  0
LINE
  8
0
 62
7
  6
CONTINUOUS
 10
159.9029761199
 20
199.8661272173
 11
159.9029761199
 21
199.6661272173
  0
LINE
  8
4_SURFACE
 62
9
  6
CONTINUOUS
 10
160.1529761199
 20
203.8661272173
 11
160.1529761199
 21
203.6078470926
  0
LINE
  8
4_SURFACE
 62
7
  6
CONTINUOUS
 10
160.6529761199
 20
223.9661272173
 11
160.6529761199
 21
203.9787144639
  0
LINE
  8
4_SURFACE
 62
9
  6
CONTINUOUS
 10
161.1529651101
 20
224.0276585751
 11
161.1529761199
 21
199.8661272173
  0
LINE
  8
4_SURFACE
 62
9
  6
CONTINUOUS
 10
164.4529761199
 20
200.0108545305
 11
164.4529761199
 21
199.8661272173
  0
LINE
  8
4_SURFACE
 62
9
  6
CONTINUOUS
 10
164.4529761199
 20
200.8046063922
 11
164.4529869854
 21
222.7122308101
  0
LINE
  8
4_SURFACE
 62
7
  6
CONTINUOUS
 10
164.9529761199
 20
200.3661272173
 11
164.9529761199
 21
222.4661272173
  0
LINE
  8
4_SURFACE
 62
9
  6
CONTINUOUS
 10
164.4491768737
 20
200.743085567
 11
164.4529761199
 21
200.8046063922
  0
LINE
  8
4_SURFACE
 62
7
  6
CONTINUOUS
 10
164.9453776275
 20
200.743085567
 11
164.9529761199
 21
200.8661272173
  0
POLYLINE
  8
4_SURFACE
 62
9
  6
CONTINUOUS
 66
1
 70
0
  0
VERTEX
  8
4_SURFACE
 62
9
  6
CONTINUOUS
 10
160.6529761199
 20
203.9787070302
  0
VERTEX
  8
4_SURFACE
 62
9
  6
CONTINUOUS
 10
160.6149157109
 20
203.8367843208
  0
VERTEX
  8
4_SURFACE
 62
9
  6
CONTINUOUS
 10
160.5065291553
 20
203.7164685931
  0
VERTEX
  8
4_SURFACE
 62
9
  6
CONTINUOUS
 10
160.3443175722
 20
203.6360766015
  0
VERTEX
  8
4_SURFACE
 62
9
  6
CONTINUOUS
 10
160.1529761199
 20
203.6078470926
  0
SEQEND
  0
POLYLINE
  8
4_SURFACE
 62
7
  6
CONTINUOUS
 66
1
 70
0
  0
VERTEX
  8
4_SURFACE
 62
7
  6
CONTINUOUS
 10
160.8919275305
 20
228.4461272173
  0
VERTEX
  8
4_SURFACE
 62
7
  6
CONTINUOUS
 10
160.8863853134
 20
228.4308657279
  0
VERTEX
  8
4_SURFACE
 62
7
  6
CONTINUOUS
 10
160.8757491302
 20
228.3106209386
  0
VERTEX
  8
4_SURFACE
 62
7
  6
CONTINUOUS
 10
160.8664225001
 20
228.0798422974
  0
VERTEX
  8
4_SURFACE
 62
7
  6
CONTINUOUS
 10
160.8624923678
 20
227.9285227154
  0
VERTEX
  8
4_SURFACE
 62
7
  6
CONTINUOUS
 10
160.8564972591
 20
227.569349058
  0
VERTEX
  8
4_SURFACE
 62
7
  6
CONTINUOUS
 10
160.8533727558
 20
227.1596441131
  0
VERTEX
  8
4_SURFACE
 62
7
  6
CONTINUOUS
 10
160.8529761199
 20
224.4661272173
  0
SEQEND
  0
POLYLINE
  8
0
 62
9
  6
CONTINUOUS
 66
1
 70
0
  0
VERTEX
  8
0
 62
9
  6
CONTINUOUS
 10
174.1933425332
 20
243.7665854257
  0
VERTEX
  8
0
 62
9
  6
CONTINUOUS
 10
174.2434866846
 20
243.8538220509
  0
VERTEX
  8
0
 62
9
  6
CONTINUOUS
 10
174.375177435
 20
243.9287506003
  0
VERTEX
  8
0
 62
9
  6
CONTINUOUS
 10
174.5809783939
 20
243.9871400109
  0
VERTEX
  8
0
 62
9
  6
CONTINUOUS
 10
174.7081857588
 20
244.0090602614
  0
VERTEX
  8
0
 62
9
  6
CONTINUOUS
 10
175.0022290642
 20
244.0368035083
  0
VERTEX
  8
0
 62
9
  6
CONTINUOUS
 10
175.3349750255
 20
244.0419062574
  0
VERTEX
  8
0
 62
9
  6
CONTINUOUS
 10
175.6876345803
 20
244.0240803792
  0
SEQEND
  0
LINE
  8
4_SURFACE
 62
9
  6
CONTINUOUS
 10
160.9092588518
 20
200.9198447709
 11
160.6655408113
 21
200.8661272173
  0
LINE
  8
4_SURFACE
 62
9
  6
CONTINUOUS
 10
160.763496978
 20
202.9047054359
 11
160.3740178813
 21
202.8661272173
  0
LINE
  8
0
 62
7
  6
CONTINUOUS
 10
202.7529761199
 20
203.8661272173
 11
193.0529761199
 21
203.8661272173
  0
LINE
  8
4_SURFACE
 62
7
  6
CONTINUOUS
 10
150.4529761199
 20
203.8661272173
 11
160.1529761199
 21
203.8661272173
  0
LINE
  8
0
 62
9
  6
CONTINUOUS
 10
192.4424552618
 20
202.9047054359
 11
192.8319343585
 21
202.8661272173
  0
LINE
  8
0
 62
9
  6
CONTINUOUS
 10
192.2966933881
 20
200.9198447709
 11
192.5404114285
 21
200.8661272173
  0
POLYLINE
  8
0
 62
9
  6
CONTINUOUS
 66
1
 70
0
  0
VERTEX
  8
0
 62
9
  6
CONTINUOUS
 10
189.2529761199
 20
199.8661272173
  0
VERTEX
  8
0
 62
9
  6
CONTINUOUS
 10
189.1023163973
 20
199.9126006476
  0
VERTEX
  8
0
 62
9
  6
CONTINUOUS
 10
188.9679254012
 20
200.0445583809
  0
VERTEX
  8
0
 62
9
  6
CONTINUOUS
 10
188.8623398762
 20
200.2419576074
  0
VERTEX
  8
0
 62
9
  6
CONTINUOUS
 10
188.7914380308
 20
200.4814896692
  0
VERTEX
  8
0
 62
9
  6
CONTINUOUS
 10
188.7567753661
 20
200.743085567
  0
SEQEND
  0
POLYLINE
  8
0
 62
9
  6
CONTINUOUS
 66
1
 70
0
  0
VERTEX
  8
0
 62
9
  6
CONTINUOUS
 10
188.2605745785
 20
200.7430855628
  0
VERTEX
  8
0
 62
9
  6
CONTINUOUS
 10
188.3004789791
 20
200.7247026819
  0
VERTEX
  8
0
 62
9
  6
CONTINUOUS
 10
188.4085345751
 20
200.7182540036
  0
VERTEX
  8
0
 62
9
  6
CONTINUOUS
 10
188.5686024739
 20
200.7247026851
  0
VERTEX
  8
0
 62
9
  6
CONTINUOUS
 10
188.7567753661
 20
200.743085567
  0
SEQEND
  0
POLYLINE
  8
0
 62
9
  6
CONTINUOUS
 66
1
 70
0
  0
VERTEX
  8
0
 62
9
  6
CONTINUOUS
 10
188.2529761199
 20
200.8661272173
  0
VERTEX
  8
0
 62
9
  6
CONTINUOUS
 10
188.2910363537
 20
200.8425842168
  0
VERTEX
  8
0
 62
9
  6
CONTINUOUS
 10
188.3994227293
 20
200.8226254247
  0
VERTEX
  8
0
 62
9
  6
CONTINUOUS
 10
188.5616344037
 20
200.8092893862
  0
VERTEX
  8
0
 62
9
  6
CONTINUOUS
 10
188.7529761199
 20
200.8046063922
  0
SEQEND
  0
POLYLINE
  8
4_SURFACE
 62
7
  6
CONTINUOUS
 66
1
 70
0
  0
VERTEX
  8
4_SURFACE
 62
7
  6
CONTINUOUS
 10
161.1529651101
 20
224.0276585751
  0
VERTEX
  8
4_SURFACE
 62
7
  6
CONTINUOUS
 10
160.9321523606
 20
224.2267817569
  0
VERTEX
  8
4_SURFACE
 62
7
  6
CONTINUOUS
 10
160.6688312073
 20
224.3889392028
  0
SEQEND
  0
POLYLINE
  8
4_SURFACE
 62
9
  6
CONTINUOUS
 66
1
 70
0
  0
VERTEX
  8
4_SURFACE
 62
9
  6
CONTINUOUS
 10
164.9529761199
 20
222.4661294631
  0
VERTEX
  8
4_SURFACE
 62
9
  6
CONTINUOUS
 10
164.9448429138
 20
222.5103383847
  0
VERTEX
  8
4_SURFACE
 62
9
  6
CONTINUOUS
 10
164.9219816404
 20
222.551421869
  0
VERTEX
  8
4_SURFACE
 62
9
  6
CONTINUOUS
 10
164.8853711835
 20
222.5896904167
  0
VERTEX
  8
4_SURFACE
 62
9
  6
CONTINUOUS
 10
164.8356639551
 20
222.6244985491
  0
VERTEX
  8
4_SURFACE
 62
9
  6
CONTINUOUS
 10
164.7746119901
 20
222.6545400304
  0
VERTEX
  8
4_SURFACE
 62
9
  6
CONTINUOUS
 10
164.7042523091
 20
222.678880857
  0
VERTEX
  8
4_SURFACE
 62
9
  6
CONTINUOUS
 10
164.6265072259
 20
222.6969148778
  0
VERTEX
  8
4_SURFACE
 62
9
  6
CONTINUOUS
 10
164.5426506575
 20
222.7082188369
  0
VERTEX
  8
4_SURFACE
 62
9
  6
CONTINUOUS
 10
164.4529869853
 20
222.7122102134
  0
SEQEND
  0
POLYLINE
  8
4_SURFACE
 62
9
  6
CONTINUOUS
 66
1
 70
0
  0
VERTEX
  8
4_SURFACE
 62
9
  6
CONTINUOUS
 10
160.3740187281
 20
202.8661195792
  0
VERTEX
  8
4_SURFACE
 62
9
  6
CONTINUOUS
 10
160.4484551348
 20
202.1947476749
  0
VERTEX
  8
4_SURFACE
 62
9
  6
CONTINUOUS
 10
160.545147337
 20
201.5089508416
  0
SEQEND
  0
LINE
  8
0
 62
9
  6
CONTINUOUS
 10
174.3571627433
 20
228.4461272173
 11
174.3571627433
 21
228.8167176948
  0
LINE
  8
0
 62
9
  6
CONTINUOUS
 10
176.4845903388
 20
244.754355785
 11
176.4845903388
 21
245.8661272173
  0
LINE
  8
DEFAULT_1
 62
2
  6
CENTER
 10
176.6029761199
 20
229.7161272173
 11
176.6029761199
 21
226.4662272173
  0
LINE
  8
0
 62
2
  6
CONTINUOUS
 10
176.6029761199
 20
225.5161272173
 11
176.6029761199
 21
223.4161272173
  0
LINE
  8
DEFAULT_1
 62
2
  6
CENTER
 10
176.6029761199
 20
191.9968780563
 11
176.6029761199
 21
222.4660272173
  0
LINE
  8
0
 62
9
  6
CONTINUOUS
 10
176.721361901
 20
245.8661272173
 11
176.721361901
 21
244.754355785
  0
LINE
  8
0
 62
7
  6
CONTINUOUS
 10
172.8929078819
 20
228.902549346
 11
174.1933425332
 21
243.7665854257
  0
LINE
  8
0
 62
9
  6
CONTINUOUS
 10
174.3571627433
 20
228.8167176948
 11
175.6876345803
 21
244.0240803792
  0
POLYLINE
  8
0
 62
9
  6
CONTINUOUS
 66
1
 70
0
  0
VERTEX
  8
0
 62
9
  6
CONTINUOUS
 10
180.3130443579
 20
228.902549346
  0
VERTEX
  8
0
 62
9
  6
CONTINUOUS
 10
180.2772854248
 20
228.8749111656
  0
VERTEX
  8
0
 62
9
  6
CONTINUOUS
 10
180.1669687157
 20
228.8509100968
  0
VERTEX
  8
0
 62
9
  6
CONTINUOUS
 10
179.9904552219
 20
228.8319431312
  0
VERTEX
  8
0
 62
9
  6
CONTINUOUS
 10
179.7577373013
 20
228.8186917913
  0
VERTEX
  8
0
 62
9
  6
CONTINUOUS
 10
179.4812985344
 20
228.8116424939
  0
VERTEX
  8
0
 62
9
  6
CONTINUOUS
 10
179.1721837356
 20
228.8109999233
  0
VERTEX
  8
0
 62
9
  6
CONTINUOUS
 10
178.8487894965
 20
228.8167176948
  0
SEQEND
  0
LINE
  8
4_SURFACE
 62
7
  6
CONTINUOUS
 10
160.8529761199
 20
224.4661272173
 11
160.6688312073
 21
224.3889392028
  0
POLYLINE
  8
0
 62
9
  6
CONTINUOUS
 66
1
 70
0
  0
VERTEX
  8
0
 62
9
  6
CONTINUOUS
 10
316.6015703679
 20
228.8229918147
  0
VERTEX
  8
0
 62
9
  6
CONTINUOUS
 10
316.1126262001
 20
228.804762057
  0
VERTEX
  8
0
 62
9
  6
CONTINUOUS
 10
315.8562583606
 20
228.798223244
  0
VERTEX
  8
0
 62
9
  6
CONTINUOUS
 10
315.6001022546
 20
228.8017128011
  0
SEQEND
  0
LINE
  8
1_AXIS
 62
2
  6
CENTER
 10
151.8137709485
 20
214.2661272173
 11
202.5355360492
 21
214.2661272173
  0
POLYLINE
  8
0
 62
9
  6
CONTINUOUS
 66
1
 70
0
  0
VERTEX
  8
0
 62
9
  6
CONTINUOUS
 10
36.5947793173
 20
228.8235018324
  0
VERTEX
  8
0
 62
9
  6
CONTINUOUS
 10
36.4030893826
 20
228.8373522422
  0
VERTEX
  8
0
 62
9
  6
CONTINUOUS
 10
36.260497818
 20
228.8554769474
  0
VERTEX
  8
0
 62
9
  6
CONTINUOUS
 10
36.1719246635
 20
228.877432342
  0
VERTEX
  8
0
 62
9
  6
CONTINUOUS
 10
36.1429059356
 20
228.9025270996
  0
SEQEND
  0
POLYLINE
  8
4_SURFACE
 62
7
  6
CONTINUOUS
 66
1
 70
0
  0
VERTEX
  8
4_SURFACE
 62
7
  6
CONTINUOUS
 10
160.6688312073
 20
224.3889392028
  0
VERTEX
  8
4_SURFACE
 62
7
  6
CONTINUOUS
 10
160.5418199539
 20
224.4320484677
  0
VERTEX
  8
4_SURFACE
 62
7
  6
CONTINUOUS
 10
160.4186640552
 20
224.4580927221
  0
VERTEX
  8
4_SURFACE
 62
7
  6
CONTINUOUS
 10
160.3070919581
 20
224.4661272173
  0
SEQEND
  0
LINE
  8
0
 62
9
  6
CONTINUOUS
 10
177.5183176595
 20
244.0240803792
 11
178.8487894965
 21
228.8167176948
  0
LINE
  8
0
 62
7
  6
CONTINUOUS
 10
179.0126097067
 20
243.7665854257
 11
180.3130443579
 21
228.902549346
  0
LINE
  8
0
 62
7
  6
CONTINUOUS
 10
188.2605746123
 20
200.743085567
 11
188.2529761199
 21
200.8661272173
  0
LINE
  8
0
 62
9
  6
CONTINUOUS
 10
188.7567753661
 20
200.743085567
 11
188.7529761199
 21
200.8046063922
  0
LINE
  8
0
 62
9
  6
CONTINUOUS
 10
178.8487894965
 20
228.8167176948
 11
178.8487894965
 21
228.4461272173
  0
LINE
  8
0
 62
7
  6
CONTINUOUS
 10
188.2529761199
 20
200.3661272173
 11
188.2529761199
 21
222.4661272173
  0
POLYLINE
  8
0
 62
9
  6
CONTINUOUS
 66
1
 70
0
  0
VERTEX
  8
0
 62
9
  6
CONTINUOUS
 10
188.2529761199
 20
222.4661294631
  0
VERTEX
  8
0
 62
9
  6
CONTINUOUS
 10
188.2611093261
 20
222.5103383847
  0
VERTEX
  8
0
 62
9
  6
CONTINUOUS
 10
188.2839705994
 20
222.551421869
  0
VERTEX
  8
0
 62
9
  6
CONTINUOUS
 10
188.3205810564
 20
222.5896904167
  0
VERTEX
  8
0
 62
9
  6
CONTINUOUS
 10
188.3702882847
 20
222.6244985491
  0
VERTEX
  8
0
 62
9
  6
CONTINUOUS
 10
188.4313402497
 20
222.6545400304
  0
VERTEX
  8
0
 62
9
  6
CONTINUOUS
 10
188.5016999308
 20
222.678880857
  0
VERTEX
  8
0
 62
9
  6
CONTINUOUS
 10
188.5794450139
 20
222.6969148778
  0
VERTEX
  8
0
 62
9
  6
CONTINUOUS
 10
188.6633015823
 20
222.7082188369
  0
VERTEX
  8
0
 62
9
  6
CONTINUOUS
 10
188.7529652545
 20
222.7122102134
  0
SEQEND
  0
POLYLINE
  8
0
 62
7
  6
CONTINUOUS
 66
1
 70
0
  0
VERTEX
  8
0
 62
7
  6
CONTINUOUS
 10
192.0529871297
 20
224.0276585751
  0
VERTEX
  8
0
 62
7
  6
CONTINUOUS
 10
192.2737998793
 20
224.2267817569
  0
VERTEX
  8
0
 62
7
  6
CONTINUOUS
 10
192.5371210325
 20
224.3889392028
  0
SEQEND
  0
POLYLINE
  8
0
 62
7
  6
CONTINUOUS
 66
1
 70
0
  0
VERTEX
  8
0
 62
7
  6
CONTINUOUS
 10
192.5371210325
 20
224.3889392028
  0
VERTEX
  8
0
 62
7
  6
CONTINUOUS
 10
192.6641322859
 20
224.4320484677
  0
VERTEX
  8
0
 62
7
  6
CONTINUOUS
 10
192.7872881846
 20
224.4580927221
  0
VERTEX
  8
0
 62
7
  6
CONTINUOUS
 10
192.8988602817
 20
224.4661272173
  0
SEQEND
  0
POLYLINE
  8
4_SURFACE
 62
7
  6
CONTINUOUS
 66
1
 70
0
  0
VERTEX
  8
4_SURFACE
 62
7
  6
CONTINUOUS
 10
166.8389957801
 20
224.4661272172
  0
VERTEX
  8
4_SURFACE
 62
7
  6
CONTINUOUS
 10
166.2932507302
 20
224.3979036607
  0
VERTEX
  8
4_SURFACE
 62
7
  6
CONTINUOUS
 10
165.7579871629
 20
224.1893539158
  0
VERTEX
  8
4_SURFACE
 62
7
  6
CONTINUOUS
 10
165.2494970748
 20
223.8273345463
  0
VERTEX
  8
4_SURFACE
 62
7
  6
CONTINUOUS
 10
164.8008399
 20
223.3096807499
  0
VERTEX
  8
4_SURFACE
 62
7
  6
CONTINUOUS
 10
164.4529869854
 20
222.7122308101
  0
SEQEND
  0
POLYLINE
  8
0
 62
9
  6
CONTINUOUS
 66
1
 70
0
  0
VERTEX
  8
0
 62
9
  6
CONTINUOUS
 10
313.2345903388
 20
244.754355785
  0
VERTEX
  8
0
 62
9
  6
CONTINUOUS
 10
313.0667077678
 20
244.736542107
  0
VERTEX
  8
0
 62
9
  6
CONTINUOUS
 10
312.9062131438
 20
244.6838545292
  0
VERTEX
  8
0
 62
9
  6
CONTINUOUS
 10
312.7602626125
 20
244.5985709727
  0
VERTEX
  8
0
 62
9
  6
CONTINUOUS
 10
312.635373485
 20
244.4843927292
  0
VERTEX
  8
0
 62
9
  6
CONTINUOUS
 10
312.5372077096
 20
244.346347454
  0
VERTEX
  8
0
 62
9
  6
CONTINUOUS
 10
312.4702599068
 20
244.190573885
  0
VERTEX
  8
0
 62
9
  6
CONTINUOUS
 10
312.4376345803
 20
244.0240803792
  0
SEQEND
  0
LINE
  8
0
 62
9
  6
CONTINUOUS
 10
311.1071615625
 20
228.8167041983
 11
311.0349153782
 21
228.8149176697
  0
POLYLINE
  8
0
 62
9
  6
CONTINUOUS
 66
1
 70
0
  0
VERTEX
  8
0
 62
9
  6
CONTINUOUS
 10
37.605856404
 20
228.8017861684
  0
VERTEX
  8
0
 62
9
  6
CONTINUOUS
 10
37.4095125011
 20
228.7980273972
  0
VERTEX
  8
0
 62
9
  6
CONTINUOUS
 10
37.2363623105
 20
228.8001200042
  0
VERTEX
  8
0
 62
9
  6
CONTINUOUS
 10
37.1538887734
 20
228.8025588121
  0
VERTEX
  8
0
 62
9
  6
CONTINUOUS
 10
36.5947793173
 20
228.8235018324
  0
SEQEND
  0
POLYLINE
  8
0
 62
9
  6
CONTINUOUS
 66
1
 70
0
  0
VERTEX
  8
0
 62
9
  6
CONTINUOUS
 10
311.0349153782
 20
228.8149176697
  0
VERTEX
  8
0
 62
9
  6
CONTINUOUS
 10
310.8793213744
 20
228.8120532418
  0
VERTEX
  8
0
 62
9
  6
CONTINUOUS
 10
310.5892503825
 20
228.810632859
  0
VERTEX
  8
0
 62
9
  6
CONTINUOUS
 10
310.3268971937
 20
228.8145000368
  0
VERTEX
  8
0
 62
9
  6
CONTINUOUS
 10
310.0962614727
 20
228.823422409
  0
VERTEX
  8
0
 62
9
  6
CONTINUOUS
 10
309.9951444592
 20
228.8297164043
  0
VERTEX
  8
0
 62
9
  6
CONTINUOUS
 10
309.8267913841
 20
228.8457269374
  0
VERTEX
  8
0
 62
9
  6
CONTINUOUS
 10
309.709550925
 20
228.8658995239
  0
VERTEX
  8
0
 62
9
  6
CONTINUOUS
 10
309.6498489284
 20
228.8894902747
  0
VERTEX
  8
0
 62
9
  6
CONTINUOUS
 10
309.6429059687
 20
228.9025274774
  0
SEQEND
  0
POLYLINE
  8
0
 62
9
  6
CONTINUOUS
 66
1
 70
0
  0
VERTEX
  8
0
 62
9
  6
CONTINUOUS
 10
241.1071627433
 20
228.8167176948
  0
VERTEX
  8
0
 62
9
  6
CONTINUOUS
 10
240.7837685042
 20
228.8109999233
  0
VERTEX
  8
0
 62
9
  6
CONTINUOUS
 10
240.4746537055
 20
228.8116424939
  0
VERTEX
  8
0
 62
9
  6
CONTINUOUS
 10
240.1982149385
 20
228.8186917913
  0
VERTEX
  8
0
 62
9
  6
CONTINUOUS
 10
239.9654970179
 20
228.8319431312
  0
VERTEX
  8
0
 62
9
  6
CONTINUOUS
 10
239.7889835242
 20
228.8509100968
  0
VERTEX
  8
0
 62
9
  6
CONTINUOUS
 10
239.678666815
 20
228.8749111656
  0
VERTEX
  8
0
 62
9
  6
CONTINUOUS
 10
239.6429078819
 20
228.902549346
  0
SEQEND
  0
POLYLINE
  8
0
 62
9
  6
CONTINUOUS
 66
1
 70
0
  0
VERTEX
  8
0
 62
9
  6
CONTINUOUS
 10
174.3571627433
 20
228.8167176948
  0
VERTEX
  8
0
 62
9
  6
CONTINUOUS
 10
174.0337685042
 20
228.8109999233
  0
VERTEX
  8
0
 62
9
  6
CONTINUOUS
 10
173.7246537055
 20
228.8116424939
  0
VERTEX
  8
0
 62
9
  6
CONTINUOUS
 10
173.4482149385
 20
228.8186917913
  0
VERTEX
  8
0
 62
9
  6
CONTINUOUS
 10
173.2154970179
 20
228.8319431312
  0
VERTEX
  8
0
 62
9
  6
CONTINUOUS
 10
173.0389835242
 20
228.8509100968
  0
VERTEX
  8
0
 62
9
  6
CONTINUOUS
 10
172.928666815
 20
228.8749111656
  0
VERTEX
  8
0
 62
9
  6
CONTINUOUS
 10
172.8929078819
 20
228.902549346
  0
SEQEND
  0
POLYLINE
  8
0
 62
9
  6
CONTINUOUS
 66
1
 70
0
  0
VERTEX
  8
0
 62
9
  6
CONTINUOUS
 10
107.6071627433
 20
228.8167176948
  0
VERTEX
  8
0
 62
9
  6
CONTINUOUS
 10
107.2837685042
 20
228.8109999233
  0
VERTEX
  8
0
 62
9
  6
CONTINUOUS
 10
106.9746537055
 20
228.8116424939
  0
VERTEX
  8
0
 62
9
  6
CONTINUOUS
 10
106.6982149385
 20
228.8186917913
  0
VERTEX
  8
0
 62
9
  6
CONTINUOUS
 10
106.4654970179
 20
228.8319431312
  0
VERTEX
  8
0
 62
9
  6
CONTINUOUS
 10
106.2889835242
 20
228.8509100968
  0
VERTEX
  8
0
 62
9
  6
CONTINUOUS
 10
106.178666815
 20
228.8749111656
  0
VERTEX
  8
0
 62
9
  6
CONTINUOUS
 10
106.1429078819
 20
228.902549346
  0
SEQEND
  0
POLYLINE
  8
0
 62
9
  6
CONTINUOUS
 66
1
 70
0
  0
VERTEX
  8
0
 62
9
  6
CONTINUOUS
 10
316.6233742184
 20
228.4461272173
  0
VERTEX
  8
0
 62
9
  6
CONTINUOUS
 10
316.2809763117
 20
228.4417380557
  0
VERTEX
  8
0
 62
9
  6
CONTINUOUS
 10
315.9380118438
 20
228.4360311371
  0
VERTEX
  8
0
 62
9
  6
CONTINUOUS
 10
315.5969291977
 20
228.4348722231
  0
SEQEND
  0
POLYLINE
  8
4_SURFACE
 62
9
  6
CONTINUOUS
 66
1
 70
0
  0
VERTEX
  8
4_SURFACE
 62
9
  6
CONTINUOUS
 10
161.1529651101
 20
224.027647854
  0
VERTEX
  8
4_SURFACE
 62
9
  6
CONTINUOUS
 10
161.083505082
 20
224.0270513407
  0
VERTEX
  8
4_SURFACE
 62
9
  6
CONTINUOUS
 10
160.9469181444
 20
224.0221814984
  0
VERTEX
  8
4_SURFACE
 62
9
  6
CONTINUOUS
 10
160.8264950727
 20
224.0127228044
  0
VERTEX
  8
4_SURFACE
 62
9
  6
CONTINUOUS
 10
160.7760014382
 20
224.0065413503
  0
VERTEX
  8
4_SURFACE
 62
9
  6
CONTINUOUS
 10
160.698315401
 20
223.9917241801
  0
VERTEX
  8
4_SURFACE
 62
9
  6
CONTINUOUS
 10
160.6579508788
 20
223.9747838022
  0
VERTEX
  8
4_SURFACE
 62
9
  6
CONTINUOUS
 10
160.65297612
 20
223.9661282213
  0
SEQEND
  0
LINE
  8
0
 62
9
  6
CONTINUOUS
 10
37.6058485674
 20
228.801696596
 11
42.0987922436
 21
228.8166862952
  0
LINE
  8
0
 62
9
  6
CONTINUOUS
 10
37.6090236827
 20
228.4348812344
 11
42.0988862183
 21
228.4461170425
  0
LINE
  8
4_SURFACE
 62
7
  6
CONTINUOUS
 10
166.8389957801
 20
224.4661272172
 11
160.8529761199
 21
224.4661272173
  0
LINE
  8
4_SURFACE
 62
7
  6
CONTINUOUS
 10
160.3070919581
 20
224.4661272173
 11
24.2029761199
 21
224.4661272173
  0
LINE
  8
0
 62
7
  6
CONTINUOUS
 10
166.8390244001
 20
224.4661272173
 11
192.3529761199
 21
224.4661272173
  0
LINE
  8
0
 62
7
  6
CONTINUOUS
 10
192.8988602817
 20
224.4661272173
 11
329.0029761199
 21
224.4661272173
  0
LINE
  8
4_SURFACE
 62
9
  6
CONTINUOUS
 10
160.8529761199
 20
226.9461272173
 11
24.2029761199
 21
226.9461272173
  0
LINE
  8
0
 62
9
  6
CONTINUOUS
 10
160.8529761199
 20
226.9461272173
 11
329.0029761199
 21
226.9461272173
  0
LINE
  8
0
 62
7
  6
CONTINUOUS
 10
36.5825780214
 20
228.4461272173
 11
28.0732255776
 21
228.4461272173
  0
LINE
  8
4_SURFACE
 62
7
  6
CONTINUOUS
 10
28.0732255776
 20
228.4461272173
 11
25.7029761199
 21
228.4461272173
  0
LINE
  8
0
 62
7
  6
CONTINUOUS
 10
316.6233742184
 20
228.4461272173
 11
327.5029761199
 21
228.4461272173
  0
LINE
  8
0
 62
9
  6
CONTINUOUS
 10
107.6071627433
 20
228.8167176948
 11
112.0987894965
 21
228.8167176948
  0
LINE
  8
0
 62
9
  6
CONTINUOUS
 10
174.3571627433
 20
228.8167176948
 11
178.8487894965
 21
228.8167176948
  0
LINE
  8
0
 62
9
  6
CONTINUOUS
 10
241.1071627433
 20
228.8167176948
 11
245.5987894965
 21
228.8167176948
  0
LINE
  8
0
 62
7
  6
CONTINUOUS
 10
311.1070660095
 20
228.4461170368
 11
42.0988862183
 21
228.4461170425
  0
POLYLINE
  8
0
 62
9
  6
CONTINUOUS
 66
1
 70
0
  0
VERTEX
  8
0
 62
9
  6
CONTINUOUS
 10
37.6090236827
 20
228.4348812344
  0
VERTEX
  8
0
 62
9
  6
CONTINUOUS
 10
37.347700534
 20
228.4352577352
  0
VERTEX
  8
0
 62
9
  6
CONTINUOUS
 10
37.1164669253
 20
228.4381994911
  0
SEQEND
  0
LINE
  8
0
 62
9
  6
CONTINUOUS
 10
311.1070660095
 20
228.4461170368
 11
315.5969291977
 21
228.4348722231
  0
LINE
  8
0
 62
9
  6
CONTINUOUS
 10
311.1071592023
 20
228.8166772213
 11
315.6001051394
 21
228.8016798285
  0
POLYLINE
  8
0
 62
9
  6
CONTINUOUS
 66
1
 70
0
  0
VERTEX
  8
0
 62
9
  6
CONTINUOUS
 10
192.0529871297
 20
224.027647854
  0
VERTEX
  8
0
 62
9
  6
CONTINUOUS
 10
192.1224471578
 20
224.0270513407
  0
VERTEX
  8
0
 62
9
  6
CONTINUOUS
 10
192.2590340954
 20
224.0221814984
  0
VERTEX
  8
0
 62
9
  6
CONTINUOUS
 10
192.3794571671
 20
224.0127228044
  0
VERTEX
  8
0
 62
9
  6
CONTINUOUS
 10
192.4299508017
 20
224.0065413503
  0
VERTEX
  8
0
 62
9
  6
CONTINUOUS
 10
192.5076368388
 20
223.9917241801
  0
VERTEX
  8
0
 62
9
  6
CONTINUOUS
 10
192.548001361
 20
223.9747838022
  0
VERTEX
  8
0
 62
9
  6
CONTINUOUS
 10
192.5529761198
 20
223.9661282213
  0
SEQEND
  0
POLYLINE
  8
0
 62
9
  6
CONTINUOUS
 66
1
 70
0
  0
VERTEX
  8
0
 62
9
  6
CONTINUOUS
 10
37.1164669253
 20
228.4381994911
  0
VERTEX
  8
0
 62
9
  6
CONTINUOUS
 10
36.791691436
 20
228.4441405565
  0
VERTEX
  8
0
 62
9
  6
CONTINUOUS
 10
36.5825780214
 20
228.4461272173
  0
SEQEND
  0
LINE
  8
0
 62
9
  6
CONTINUOUS
 10
42.1710368616
 20
228.8149176697
 11
42.0987906837
 21
228.8167041258
  0
POLYLINE
  8
0
 62
7
  6
CONTINUOUS
 66
1
 70
0
  0
VERTEX
  8
0
 62
7
  6
CONTINUOUS
 10
186.3669564597
 20
224.4661272172
  0
VERTEX
  8
0
 62
7
  6
CONTINUOUS
 10
186.9127015096
 20
224.3979036607
  0
VERTEX
  8
0
 62
7
  6
CONTINUOUS
 10
187.4479650769
 20
224.1893539158
  0
VERTEX
  8
0
 62
7
  6
CONTINUOUS
 10
187.956455165
 20
223.8273345463
  0
VERTEX
  8
0
 62
7
  6
CONTINUOUS
 10
188.4051123398
 20
223.3096807499
  0
VERTEX
  8
0
 62
7
  6
CONTINUOUS
 10
188.7529652545
 20
222.7122308101
  0
SEQEND
  0
LINE
  8
0
 62
7
  6
CONTINUOUS
 10
192.3529761199
 20
224.4661272173
 11
192.5371210325
 21
224.3889392028
  0
POLYLINE
  8
0
 62
9
  6
CONTINUOUS
 66
1
 70
0
  0
VERTEX
  8
0
 62
9
  6
CONTINUOUS
 10
192.5529761199
 20
203.9787070302
  0
VERTEX
  8
0
 62
9
  6
CONTINUOUS
 10
192.5910365289
 20
203.8367843208
  0
VERTEX
  8
0
 62
9
  6
CONTINUOUS
 10
192.6994230845
 20
203.7164685931
  0
VERTEX
  8
0
 62
9
  6
CONTINUOUS
 10
192.8616346677
 20
203.6360766015
  0
VERTEX
  8
0
 62
9
  6
CONTINUOUS
 10
193.0529761199
 20
203.6078470926
  0
SEQEND
  0
POLYLINE
  8
0
 62
9
  6
CONTINUOUS
 66
1
 70
0
  0
VERTEX
  8
0
 62
9
  6
CONTINUOUS
 10
177.5183176595
 20
244.0240803792
  0
VERTEX
  8
0
 62
9
  6
CONTINUOUS
 10
177.485692333
 20
244.190573885
  0
VERTEX
  8
0
 62
9
  6
CONTINUOUS
 10
177.4187445302
 20
244.346347454
  0
VERTEX
  8
0
 62
9
  6
CONTINUOUS
 10
177.3205787548
 20
244.4843927292
  0
VERTEX
  8
0
 62
9
  6
CONTINUOUS
 10
177.1956896273
 20
244.5985709727
  0
VERTEX
  8
0
 62
9
  6
CONTINUOUS
 10
177.049739096
 20
244.6838545292
  0
VERTEX
  8
0
 62
9
  6
CONTINUOUS
 10
176.889244472
 20
244.736542107
  0
VERTEX
  8
0
 62
9
  6
CONTINUOUS
 10
176.721361901
 20
244.754355785
  0
SEQEND
  0
LINE
  8
0
 62
9
  6
CONTINUOUS
 10
188.7529761199
 20
200.8046063922
 11
188.7529652545
 21
222.7122308101
  0
LINE
  8
0
 62
9
  6
CONTINUOUS
 10
188.7529761199
 20
200.0101405354
 11
188.7529761199
 21
199.8661272173
  0
LINE
  8
0
 62
9
  6
CONTINUOUS
 10
192.0529871297
 20
224.0276585751
 11
192.0529761199
 21
199.8661272173
  0
LINE
  8
0
 62
7
  6
CONTINUOUS
 10
192.3529761199
 20
224.4661272173
 11
192.352579484
 21
227.1596441131
  0
LINE
  8
0
 62
7
  6
CONTINUOUS
 10
192.5529761199
 20
223.9661272173
 11
192.5529761199
 21
203.9787144639
  0
LINE
  8
0
 62
9
  6
CONTINUOUS
 10
193.0529761199
 20
203.8661272173
 11
193.0529761199
 21
203.6078470926
  0
LINE
  8
0
 62
7
  6
CONTINUOUS
 10
193.2529761199
 20
199.8661272173
 11
193.2529761199
 21
199.6661272173
  0
LINE
  8
0
 62
7
  6
CONTINUOUS
 10
193.3168059051
 20
199.8661272173
 11
193.3168059051
 21
199.6661272173
  0
LINE
  8
0
 62
7
  6
CONTINUOUS
 10
193.5082952608
 20
199.8661272173
 11
193.5082952608
 21
199.6661272173
  0
LINE
  8
0
 62
7
  6
CONTINUOUS
 10
193.8274442259
 20
199.8661272173
 11
193.8274442259
 21
199.6661272173
  0
LINE
  8
0
 62
7
  6
CONTINUOUS
 10
194.0827633444
 20
199.8661272173
 11
194.0827633444
 21
199.6661272173
  0
LINE
  8
0
 62
7
  6
CONTINUOUS
 10
194.2104229037
 20
199.8661272173
 11
194.2104229037
 21
199.6661272173
  0
LINE
  8
0
 62
7
  6
CONTINUOUS
 10
194.401912332
 20
199.8661272173
 11
194.401912332
 21
199.6661272173
  0
LINE
  8
0
 62
7
  6
CONTINUOUS
 10
194.5295718912
 20
199.8661272173
 11
194.5295718912
 21
199.6661272173
  0
LINE
  8
0
 62
7
  6
CONTINUOUS
 10
194.5934016708
 20
199.8661272173
 11
194.5934016708
 21
199.6661272173
  0
LINE
  8
0
 62
7
  6
CONTINUOUS
 10
194.6572314505
 20
199.8661272173
 11
194.6572314505
 21
199.6661272173
  0
LINE
  8
0
 62
7
  6
CONTINUOUS
 10
194.7848910097
 20
199.8661272173
 11
194.7848910097
 21
199.6661272173
  0
LINE
  8
0
 62
7
  6
CONTINUOUS
 10
195.0402101282
 20
199.8661272173
 11
195.0402101282
 21
199.6661272173
  0
LINE
  8
0
 62
7
  6
CONTINUOUS
 10
195.2955292467
 20
199.8661272173
 11
195.2955292467
 21
199.6661272173
  0
LINE
  8
0
 62
7
  6
CONTINUOUS
 10
195.550848544
 20
199.8661272173
 11
195.550848544
 21
199.6661272173
  0
LINE
  8
0
 62
7
  6
CONTINUOUS
 10
195.8061676625
 20
199.8661272173
 11
195.8061676625
 21
199.6661272173
  0
LINE
  8
0
 62
7
  6
CONTINUOUS
 10
196.061486781
 20
199.8661272173
 11
196.061486781
 21
199.6661272173
  0
LINE
  8
0
 62
7
  6
CONTINUOUS
 10
196.1891463403
 20
199.8661272173
 11
196.1891463403
 21
199.6661272173
  0
LINE
  8
0
 62
7
  6
CONTINUOUS
 10
196.2529761199
 20
199.8661272173
 11
196.2529761199
 21
199.6661272173
  0
LINE
  8
0
 62
7
  6
CONTINUOUS
 10
197.2316995565
 20
199.8661272173
 11
197.2316995565
 21
199.6661272173
  0
LINE
  8
0
 62
7
  6
CONTINUOUS
 10
198.2529761199
 20
199.8661272173
 11
198.2529761199
 21
199.6661272173
  0
LINE
  8
0
 62
7
  6
CONTINUOUS
 10
198.3168059051
 20
199.8661272173
 11
198.3168059051
 21
199.6661272173
  0
LINE
  8
0
 62
7
  6
CONTINUOUS
 10
198.5082952608
 20
199.8661272173
 11
198.5082952608
 21
199.6661272173
  0
POLYLINE
  8
0
 62
9
  6
CONTINUOUS
 66
1
 70
0
  0
VERTEX
  8
0
 62
9
  6
CONTINUOUS
 10
192.2862577944
 20
200.7502245879
  0
VERTEX
  8
0
 62
9
  6
CONTINUOUS
 10
192.2772693115
 20
200.4664589594
  0
VERTEX
  8
0
 62
9
  6
CONTINUOUS
 10
192.2627410886
 20
200.2665692438
  0
VERTEX
  8
0
 62
9
  6
CONTINUOUS
 10
192.2461253263
 20
200.1313022242
  0
VERTEX
  8
0
 62
9
  6
CONTINUOUS
 10
192.2289830612
 20
200.0404639631
  0
VERTEX
  8
0
 62
9
  6
CONTINUOUS
 10
192.2119816844
 20
199.9795227801
  0
VERTEX
  8
0
 62
9
  6
CONTINUOUS
 10
192.1955692085
 20
199.9391105073
  0
VERTEX
  8
0
 62
9
  6
CONTINUOUS
 10
192.1876137819
 20
199.9243677967
  0
VERTEX
  8
0
 62
9
  6
CONTINUOUS
 10
192.1720543905
 20
199.9025408371
  0
VERTEX
  8
0
 62
9
  6
CONTINUOUS
 10
192.156881252
 20
199.8881889638
  0
VERTEX
  8
0
 62
9
  6
CONTINUOUS
 10
192.1422289892
 20
199.8790923323
  0
VERTEX
  8
0
 62
9
  6
CONTINUOUS
 10
192.1281825588
 20
199.8735536442
  0
VERTEX
  8
0
 62
9
  6
CONTINUOUS
 10
192.1143167138
 20
199.8702442775
  0
VERTEX
  8
0
 62
9
  6
CONTINUOUS
 10
192.1004485382
 20
199.8683859497
  0
SEQEND
  0
POLYLINE
  8
0
 62
9
  6
CONTINUOUS
 66
1
 70
0
  0
VERTEX
  8
0
 62
9
  6
CONTINUOUS
 10
192.5529761198
 20
203.9787239389
  0
VERTEX
  8
0
 62
9
  6
CONTINUOUS
 10
192.5494692875
 20
203.8800286277
  0
VERTEX
  8
0
 62
9
  6
CONTINUOUS
 10
192.5212646177
 20
203.6156271349
  0
VERTEX
  8
0
 62
9
  6
CONTINUOUS
 10
192.4987208858
 20
203.4491908066
  0
VERTEX
  8
0
 62
9
  6
CONTINUOUS
 10
192.4544849464
 20
203.0753971373
  0
VERTEX
  8
0
 62
9
  6
CONTINUOUS
 10
192.4424552392
 20
202.9047054382
  0
SEQEND
  0
POLYLINE
  8
0
 62
9
  6
CONTINUOUS
 66
1
 70
0
  0
VERTEX
  8
0
 62
9
  6
CONTINUOUS
 10
192.4424552392
 20
202.9047054382
  0
VERTEX
  8
0
 62
9
  6
CONTINUOUS
 10
192.4052365089
 20
202.2384035725
  0
VERTEX
  8
0
 62
9
  6
CONTINUOUS
 10
192.3568902218
 20
201.5577665557
  0
VERTEX
  8
0
 62
9
  6
CONTINUOUS
 10
192.2966937742
 20
200.9198446859
  0
SEQEND
  0
LINE
  8
0
 62
9
  6
CONTINUOUS
 10
192.2966937742
 20
200.9198446859
 11
192.2862582398
 21
200.7502246169
  0
POLYLINE
  8
0
 62
9
  6
CONTINUOUS
 66
1
 70
0
  0
VERTEX
  8
0
 62
9
  6
CONTINUOUS
 10
192.5195380135
 20
200.7525607131
  0
VERTEX
  8
0
 62
9
  6
CONTINUOUS
 10
192.501561631
 20
200.4739273649
  0
VERTEX
  8
0
 62
9
  6
CONTINUOUS
 10
192.472505889
 20
200.2762318662
  0
VERTEX
  8
0
 62
9
  6
CONTINUOUS
 10
192.4392745321
 20
200.1411921888
  0
VERTEX
  8
0
 62
9
  6
CONTINUOUS
 10
192.4049899796
 20
200.0495623888
  0
VERTEX
  8
0
 62
9
  6
CONTINUOUS
 10
192.3709872693
 20
199.9873979724
  0
VERTEX
  8
0
 62
9
  6
CONTINUOUS
 10
192.3381623072
 20
199.9456625342
  0
VERTEX
  8
0
 62
9
  6
CONTINUOUS
 10
192.3222514284
 20
199.9302742887
  0
VERTEX
  8
0
 62
9
  6
CONTINUOUS
 10
192.2911326474
 20
199.9072290679
  0
VERTEX
  8
0
 62
9
  6
CONTINUOUS
 10
192.2607863889
 20
199.8917863571
  0
VERTEX
  8
0
 62
9
  6
CONTINUOUS
 10
192.2314817815
 20
199.881755824
  0
VERTEX
  8
0
 62
9
  6
CONTINUOUS
 10
192.2033888602
 20
199.87544644
  0
VERTEX
  8
0
 62
9
  6
CONTINUOUS
 10
192.1756570856
 20
199.871502847
  0
VERTEX
  8
0
 62
9
  6
CONTINUOUS
 10
192.1479209568
 20
199.8691388605
  0
SEQEND
  0
POLYLINE
  8
0
 62
9
  6
CONTINUOUS
 66
1
 70
0
  0
VERTEX
  8
0
 62
9
  6
CONTINUOUS
 10
193.0529761199
 20
203.6078470926
  0
VERTEX
  8
0
 62
9
  6
CONTINUOUS
 10
193.0459688534
 20
203.5372474102
  0
VERTEX
  8
0
 62
9
  6
CONTINUOUS
 10
192.9896006098
 20
203.3515412163
  0
VERTEX
  8
0
 62
9
  6
CONTINUOUS
 10
192.9445351469
 20
203.2364275938
  0
VERTEX
  8
0
 62
9
  6
CONTINUOUS
 10
192.8560876498
 20
202.9815233333
  0
VERTEX
  8
0
 62
9
  6
CONTINUOUS
 10
192.8319327634
 20
202.8661195792
  0
SEQEND
  0
POLYLINE
  8
0
 62
9
  6
CONTINUOUS
 66
1
 70
0
  0
VERTEX
  8
0
 62
9
  6
CONTINUOUS
 10
192.8319335117
 20
202.8661195792
  0
VERTEX
  8
0
 62
9
  6
CONTINUOUS
 10
192.757497105
 20
202.1947476749
  0
VERTEX
  8
0
 62
9
  6
CONTINUOUS
 10
192.6608049028
 20
201.5089508416
  0
VERTEX
  8
0
 62
9
  6
CONTINUOUS
 10
192.5195380135
 20
200.7525607131
  0
SEQEND
  0
POLYLINE
  8
4_SURFACE
 62
9
  6
CONTINUOUS
 66
1
 70
0
  0
VERTEX
  8
4_SURFACE
 62
9
  6
CONTINUOUS
 10
164.9529761199
 20
200.8661272173
  0
VERTEX
  8
4_SURFACE
 62
9
  6
CONTINUOUS
 10
164.9149158862
 20
200.8425842168
  0
VERTEX
  8
4_SURFACE
 62
9
  6
CONTINUOUS
 10
164.8065295105
 20
200.8226254247
  0
VERTEX
  8
4_SURFACE
 62
9
  6
CONTINUOUS
 10
164.6443178361
 20
200.8092893862
  0
VERTEX
  8
4_SURFACE
 62
9
  6
CONTINUOUS
 10
164.4529761199
 20
200.8046063922
  0
SEQEND
  0
POLYLINE
  8
4_SURFACE
 62
9
  6
CONTINUOUS
 66
1
 70
0
  0
VERTEX
  8
4_SURFACE
 62
9
  6
CONTINUOUS
 10
164.9453776613
 20
200.7430855628
  0
VERTEX
  8
4_SURFACE
 62
9
  6
CONTINUOUS
 10
164.9054732607
 20
200.7247026819
  0
VERTEX
  8
4_SURFACE
 62
9
  6
CONTINUOUS
 10
164.7974176647
 20
200.7182540036
  0
VERTEX
  8
4_SURFACE
 62
9
  6
CONTINUOUS
 10
164.6373497659
 20
200.7247026851
  0
VERTEX
  8
4_SURFACE
 62
9
  6
CONTINUOUS
 10
164.4491768737
 20
200.743085567
  0
SEQEND
  0
POLYLINE
  8
4_SURFACE
 62
9
  6
CONTINUOUS
 66
1
 70
0
  0
VERTEX
  8
4_SURFACE
 62
9
  6
CONTINUOUS
 10
163.9529761199
 20
199.8661272173
  0
VERTEX
  8
4_SURFACE
 62
9
  6
CONTINUOUS
 10
164.1036358425
 20
199.9126006476
  0
VERTEX
  8
4_SURFACE
 62
9
  6
CONTINUOUS
 10
164.2380268387
 20
200.0445583809
  0
VERTEX
  8
4_SURFACE
 62
9
  6
CONTINUOUS
 10
164.3436123636
 20
200.2419576074
  0
VERTEX
  8
4_SURFACE
 62
9
  6
CONTINUOUS
 10
164.414514209
 20
200.4814896692
  0
VERTEX
  8
4_SURFACE
 62
9
  6
CONTINUOUS
 10
164.4491768737
 20
200.743085567
  0
SEQEND
  0
POLYLINE
  8
0
 62
9
  6
CONTINUOUS
 66
1
 70
0
  0
VERTEX
  8
0
 62
9
  6
CONTINUOUS
 10
243.2345903388
 20
244.754355785
  0
VERTEX
  8
0
 62
9
  6
CONTINUOUS
 10
243.0667077678
 20
244.736542107
  0
VERTEX
  8
0
 62
9
  6
CONTINUOUS
 10
242.9062131438
 20
244.6838545292
  0
VERTEX
  8
0
 62
9
  6
CONTINUOUS
 10
242.7602626125
 20
244.5985709727
  0
VERTEX
  8
0
 62
9
  6
CONTINUOUS
 10
242.635373485
 20
244.4843927292
  0
VERTEX
  8
0
 62
9
  6
CONTINUOUS
 10
242.5372077096
 20
244.346347454
  0
VERTEX
  8
0
 62
9
  6
CONTINUOUS
 10
242.4702599068
 20
244.190573885
  0
VERTEX
  8
0
 62
9
  6
CONTINUOUS
 10
242.4376345803
 20
244.0240803792
  0
SEQEND
  0
POLYLINE
  8
0
 62
9
  6
CONTINUOUS
 66
1
 70
0
  0
VERTEX
  8
0
 62
9
  6
CONTINUOUS
 10
176.4845903388
 20
244.754355785
  0
VERTEX
  8
0
 62
9
  6
CONTINUOUS
 10
176.3167077678
 20
244.736542107
  0
VERTEX
  8
0
 62
9
  6
CONTINUOUS
 10
176.1562131438
 20
244.6838545292
  0
VERTEX
  8
0
 62
9
  6
CONTINUOUS
 10
176.0102626125
 20
244.5985709727
  0
VERTEX
  8
0
 62
9
  6
CONTINUOUS
 10
175.885373485
 20
244.4843927292
  0
VERTEX
  8
0
 62
9
  6
CONTINUOUS
 10
175.7872077096
 20
244.346347454
  0
VERTEX
  8
0
 62
9
  6
CONTINUOUS
 10
175.7202599068
 20
244.190573885
  0
VERTEX
  8
0
 62
9
  6
CONTINUOUS
 10
175.6876345803
 20
244.0240803792
  0
SEQEND
  0
POLYLINE
  8
0
 62
9
  6
CONTINUOUS
 66
1
 70
0
  0
VERTEX
  8
0
 62
9
  6
CONTINUOUS
 10
314.2683176595
 20
244.0240803792
  0
VERTEX
  8
0
 62
9
  6
CONTINUOUS
 10
314.6209772144
 20
244.0419062574
  0
VERTEX
  8
0
 62
9
  6
CONTINUOUS
 10
314.9537231756
 20
244.0368035083
  0
VERTEX
  8
0
 62
9
  6
CONTINUOUS
 10
315.247766481
 20
244.0090602614
  0
VERTEX
  8
0
 62
9
  6
CONTINUOUS
 10
315.3749738459
 20
243.9871400109
  0
VERTEX
  8
0
 62
9
  6
CONTINUOUS
 10
315.5807748048
 20
243.9287506003
  0
VERTEX
  8
0
 62
9
  6
CONTINUOUS
 10
315.7124655552
 20
243.8538220509
  0
VERTEX
  8
0
 62
9
  6
CONTINUOUS
 10
315.7626097067
 20
243.7665854257
  0
SEQEND
  0
POLYLINE
  8
0
 62
9
  6
CONTINUOUS
 66
1
 70
0
  0
VERTEX
  8
0
 62
9
  6
CONTINUOUS
 10
244.2683176595
 20
244.0240803792
  0
VERTEX
  8
0
 62
9
  6
CONTINUOUS
 10
244.6209772144
 20
244.0419062574
  0
VERTEX
  8
0
 62
9
  6
CONTINUOUS
 10
244.9537231756
 20
244.0368035083
  0
VERTEX
  8
0
 62
9
  6
CONTINUOUS
 10
245.247766481
 20
244.0090602614
  0
VERTEX
  8
0
 62
9
  6
CONTINUOUS
 10
245.3749738459
 20
243.9871400109
  0
VERTEX
  8
0
 62
9
  6
CONTINUOUS
 10
245.5807748048
 20
243.9287506003
  0
VERTEX
  8
0
 62
9
  6
CONTINUOUS
 10
245.7124655552
 20
243.8538220509
  0
VERTEX
  8
0
 62
9
  6
CONTINUOUS
 10
245.7626097067
 20
243.7665854257
  0
SEQEND
  0
POLYLINE
  8
0
 62
9
  6
CONTINUOUS
 66
1
 70
0
  0
VERTEX
  8
0
 62
9
  6
CONTINUOUS
 10
177.5183176595
 20
244.0240803792
  0
VERTEX
  8
0
 62
9
  6
CONTINUOUS
 10
177.8709772144
 20
244.0419062574
  0
VERTEX
  8
0
 62
9
  6
CONTINUOUS
 10
178.2037231756
 20
244.0368035083
  0
VERTEX
  8
0
 62
9
  6
CONTINUOUS
 10
178.497766481
 20
244.0090602614
  0
VERTEX
  8
0
 62
9
  6
CONTINUOUS
 10
178.6249738459
 20
243.9871400109
  0
VERTEX
  8
0
 62
9
  6
CONTINUOUS
 10
178.8307748048
 20
243.9287506003
  0
VERTEX
  8
0
 62
9
  6
CONTINUOUS
 10
178.9624655552
 20
243.8538220509
  0
VERTEX
  8
0
 62
9
  6
CONTINUOUS
 10
179.0126097067
 20
243.7665854257
  0
SEQEND
  0
POLYLINE
  8
0
 62
7
  6
CONTINUOUS
 66
1
 70
0
  0
VERTEX
  8
0
 62
7
  6
CONTINUOUS
 10
192.3140247093
 20
228.4461272173
  0
VERTEX
  8
0
 62
7
  6
CONTINUOUS
 10
192.3195669264
 20
228.4308657279
  0
VERTEX
  8
0
 62
7
  6
CONTINUOUS
 10
192.3302031096
 20
228.3106209386
  0
VERTEX
  8
0
 62
7
  6
CONTINUOUS
 10
192.3395297397
 20
228.0798422974
  0
VERTEX
  8
0
 62
7
  6
CONTINUOUS
 10
192.343459872
 20
227.9285227154
  0
VERTEX
  8
0
 62
7
  6
CONTINUOUS
 10
192.3494549807
 20
227.569349058
  0
VERTEX
  8
0
 62
7
  6
CONTINUOUS
 10
192.352579484
 20
227.1596441131
  0
SEQEND
  0
LINE
  8
0
 62
7
  6
CONTINUOUS
 10
198.8274442259
 20
199.8661272173
 11
198.8274442259
 21
199.6661272173
  0
LINE
  8
0
 62
7
  6
CONTINUOUS
 10
199.0827633444
 20
199.8661272173
 11
199.0827633444
 21
199.6661272173
  0
LINE
  8
0
 62
7
  6
CONTINUOUS
 10
199.2104229037
 20
199.8661272173
 11
199.2104229037
 21
199.6661272173
  0
LINE
  8
0
 62
7
  6
CONTINUOUS
 10
199.401912332
 20
199.8661272173
 11
199.401912332
 21
199.6661272173
  0
LINE
  8
0
 62
7
  6
CONTINUOUS
 10
199.5295718912
 20
199.8661272173
 11
199.5295718912
 21
199.6661272173
  0
LINE
  8
0
 62
7
  6
CONTINUOUS
 10
199.5934016708
 20
199.8661272173
 11
199.5934016708
 21
199.6661272173
  0
LINE
  8
0
 62
7
  6
CONTINUOUS
 10
199.6572314505
 20
199.8661272173
 11
199.6572314505
 21
199.6661272173
  0
LINE
  8
0
 62
9
  6
CONTINUOUS
 10
199.7529761199
 20
199.8661272173
 11
199.7529761199
 21
203.8661272173
  0
LINE
  8
0
 62
7
  6
CONTINUOUS
 10
199.7848910097
 20
199.8661272173
 11
199.7848910097
 21
199.6661272173
  0
LINE
  8
0
 62
7
  6
CONTINUOUS
 10
200.0402101282
 20
199.8661272173
 11
200.0402101282
 21
199.6661272173
  0
LINE
  8
0
 62
7
  6
CONTINUOUS
 10
200.2955292467
 20
199.8661272173
 11
200.2955292467
 21
199.6661272173
  0
LINE
  8
0
 62
7
  6
CONTINUOUS
 10
200.550848544
 20
199.8661272173
 11
200.550848544
 21
199.6661272173
  0
LINE
  8
0
 62
7
  6
CONTINUOUS
 10
200.8061676625
 20
199.8661272173
 11
200.8061676625
 21
199.6661272173
  0
LINE
  8
0
 62
7
  6
CONTINUOUS
 10
201.061486781
 20
199.8661272173
 11
201.061486781
 21
199.6661272173
  0
LINE
  8
0
 62
7
  6
CONTINUOUS
 10
201.1891463403
 20
199.8661272173
 11
201.1891463403
 21
199.6661272173
  0
LINE
  8
0
 62
7
  6
CONTINUOUS
 10
201.2529761199
 20
199.8661272173
 11
201.2529761199
 21
199.6661272173
  0
LINE
  8
0
 62
7
  6
CONTINUOUS
 10
203.7529761199
 20
202.8661272173
 11
203.7529761199
 21
200.8661272173
  0
POLYLINE
  8
0
 62
9
  6
CONTINUOUS
 66
1
 70
0
  0
VERTEX
  8
0
 62
9
  6
CONTINUOUS
 10
109.7345903388
 20
244.754355785
  0
VERTEX
  8
0
 62
9
  6
CONTINUOUS
 10
109.5667077678
 20
244.736542107
  0
VERTEX
  8
0
 62
9
  6
CONTINUOUS
 10
109.4062131438
 20
244.6838545292
  0
VERTEX
  8
0
 62
9
  6
CONTINUOUS
 10
109.2602626125
 20
244.5985709727
  0
VERTEX
  8
0
 62
9
  6
CONTINUOUS
 10
109.135373485
 20
244.4843927292
  0
VERTEX
  8
0
 62
9
  6
CONTINUOUS
 10
109.0372077096
 20
244.346347454
  0
VERTEX
  8
0
 62
9
  6
CONTINUOUS
 10
108.9702599068
 20
244.190573885
  0
VERTEX
  8
0
 62
9
  6
CONTINUOUS
 10
108.9376345803
 20
244.0240803792
  0
SEQEND
  0
POLYLINE
  8
0
 62
9
  6
CONTINUOUS
 66
1
 70
0
  0
VERTEX
  8
0
 62
9
  6
CONTINUOUS
 10
110.7683176595
 20
244.0240803792
  0
VERTEX
  8
0
 62
9
  6
CONTINUOUS
 10
111.1209772144
 20
244.0419062574
  0
VERTEX
  8
0
 62
9
  6
CONTINUOUS
 10
111.4537231756
 20
244.0368035083
  0
VERTEX
  8
0
 62
9
  6
CONTINUOUS
 10
111.747766481
 20
244.0090602614
  0
VERTEX
  8
0
 62
9
  6
CONTINUOUS
 10
111.8749738459
 20
243.9871400109
  0
VERTEX
  8
0
 62
9
  6
CONTINUOUS
 10
112.0807748048
 20
243.9287506003
  0
VERTEX
  8
0
 62
9
  6
CONTINUOUS
 10
112.2124655552
 20
243.8538220509
  0
VERTEX
  8
0
 62
9
  6
CONTINUOUS
 10
112.2626097067
 20
243.7665854257
  0
SEQEND
  0
POLYLINE
  8
0
 62
9
  6
CONTINUOUS
 66
1
 70
0
  0
VERTEX
  8
0
 62
9
  6
CONTINUOUS
 10
40.7683176595
 20
244.0240803792
  0
VERTEX
  8
0
 62
9
  6
CONTINUOUS
 10
41.1209772144
 20
244.0419062574
  0
VERTEX
  8
0
 62
9
  6
CONTINUOUS
 10
41.4537231756
 20
244.0368035083
  0
VERTEX
  8
0
 62
9
  6
CONTINUOUS
 10
41.747766481
 20
244.0090602614
  0
VERTEX
  8
0
 62
9
  6
CONTINUOUS
 10
41.8749738459
 20
243.9871400109
  0
VERTEX
  8
0
 62
9
  6
CONTINUOUS
 10
42.0807748048
 20
243.9287506003
  0
VERTEX
  8
0
 62
9
  6
CONTINUOUS
 10
42.2124655552
 20
243.8538220509
  0
VERTEX
  8
0
 62
9
  6
CONTINUOUS
 10
42.2626097067
 20
243.7665854257
  0
SEQEND
  0
LINE
  8
0
 62
9
  6
CONTINUOUS
 10
39.7345903388
 20
244.754355785
 11
39.971361901
 21
244.754355785
  0
LINE
  8
0
 62
9
  6
CONTINUOUS
 10
109.7345903388
 20
244.754355785
 11
109.971361901
 21
244.754355785
  0
LINE
  8
0
 62
9
  6
CONTINUOUS
 10
176.4845903388
 20
244.754355785
 11
176.721361901
 21
244.754355785
  0
LINE
  8
0
 62
9
  6
CONTINUOUS
 10
243.2345903388
 20
244.754355785
 11
243.471361901
 21
244.754355785
  0
LINE
  8
0
 62
9
  6
CONTINUOUS
 10
313.2345903388
 20
244.754355785
 11
313.471361901
 21
244.754355785
  0
LINE
  8
0
 62
7
  6
CONTINUOUS
 10
39.7345903388
 20
245.8661272173
 11
39.971361901
 21
245.8661272173
  0
LINE
  8
0
 62
7
  6
CONTINUOUS
 10
109.7345903388
 20
245.8661272173
 11
109.971361901
 21
245.8661272173
  0
LINE
  8
0
 62
7
  6
CONTINUOUS
 10
176.4845903388
 20
245.8661272173
 11
176.721361901
 21
245.8661272173
  0
LINE
  8
0
 62
7
  6
CONTINUOUS
 10
243.2345903388
 20
245.8661272173
 11
243.471361901
 21
245.8661272173
  0
LINE
  8
0
 62
7
  6
CONTINUOUS
 10
313.2345903388
 20
245.8661272173
 11
313.471361901
 21
245.8661272173
  0
POLYLINE
  8
0
 62
9
  6
CONTINUOUS
 66
1
 70
0
  0
VERTEX
  8
0
 62
9
  6
CONTINUOUS
 10
247.0630443579
 20
228.902549346
  0
VERTEX
  8
0
 62
9
  6
CONTINUOUS
 10
247.0272854248
 20
228.8749111656
  0
VERTEX
  8
0
 62
9
  6
CONTINUOUS
 10
246.9169687157
 20
228.8509100968
  0
VERTEX
  8
0
 62
9
  6
CONTINUOUS
 10
246.7404552219
 20
228.8319431312
  0
VERTEX
  8
0
 62
9
  6
CONTINUOUS
 10
246.5077373013
 20
228.8186917913
  0
VERTEX
  8
0
 62
9
  6
CONTINUOUS
 10
246.2312985344
 20
228.8116424939
  0
VERTEX
  8
0
 62
9
  6
CONTINUOUS
 10
245.9221837356
 20
228.8109999233
  0
VERTEX
  8
0
 62
9
  6
CONTINUOUS
 10
245.5987894965
 20
228.8167176948
  0
SEQEND
  0
POLYLINE
  8
0
 62
9
  6
CONTINUOUS
 66
1
 70
0
  0
VERTEX
  8
0
 62
9
  6
CONTINUOUS
 10
39.7345903388
 20
244.754355785
  0
VERTEX
  8
0
 62
9
  6
CONTINUOUS
 10
39.5667077678
 20
244.736542107
  0
VERTEX
  8
0
 62
9
  6
CONTINUOUS
 10
39.4062131438
 20
244.6838545292
  0
VERTEX
  8
0
 62
9
  6
CONTINUOUS
 10
39.2602626125
 20
244.5985709727
  0
VERTEX
  8
0
 62
9
  6
CONTINUOUS
 10
39.135373485
 20
244.4843927292
  0
VERTEX
  8
0
 62
9
  6
CONTINUOUS
 10
39.0372077096
 20
244.346347454
  0
VERTEX
  8
0
 62
9
  6
CONTINUOUS
 10
38.9702599068
 20
244.190573885
  0
VERTEX
  8
0
 62
9
  6
CONTINUOUS
 10
38.9376345803
 20
244.0240803792
  0
SEQEND
  0
POLYLINE
  8
0
 62
9
  6
CONTINUOUS
 66
1
 70
0
  0
VERTEX
  8
0
 62
9
  6
CONTINUOUS
 10
240.9433425332
 20
243.7665854257
  0
VERTEX
  8
0
 62
9
  6
CONTINUOUS
 10
240.9934866846
 20
243.8538220509
  0
VERTEX
  8
0
 62
9
  6
CONTINUOUS
 10
241.125177435
 20
243.9287506003
  0
VERTEX
  8
0
 62
9
  6
CONTINUOUS
 10
241.3309783939
 20
243.9871400109
  0
VERTEX
  8
0
 62
9
  6
CONTINUOUS
 10
241.4581857588
 20
244.0090602614
  0
VERTEX
  8
0
 62
9
  6
CONTINUOUS
 10
241.7522290642
 20
244.0368035083
  0
VERTEX
  8
0
 62
9
  6
CONTINUOUS
 10
242.0849750255
 20
244.0419062574
  0
VERTEX
  8
0
 62
9
  6
CONTINUOUS
 10
242.4376345803
 20
244.0240803792
  0
SEQEND
  0
POLYLINE
  8
0
 62
9
  6
CONTINUOUS
 66
1
 70
0
  0
VERTEX
  8
0
 62
9
  6
CONTINUOUS
 10
316.6233742184
 20
228.4461272173
  0
VERTEX
  8
0
 62
9
  6
CONTINUOUS
 10
316.5384142499
 20
228.4724534342
  0
VERTEX
  8
0
 62
9
  6
CONTINUOUS
 10
316.4624010332
 20
228.5486597308
  0
VERTEX
  8
0
 62
9
  6
CONTINUOUS
 10
316.4033390834
 20
228.6667211382
  0
VERTEX
  8
0
 62
9
  6
CONTINUOUS
 10
316.3674478518
 20
228.8142052114
  0
SEQEND
  0
LINE
  8
0
 62
7
  6
CONTINUOUS
 10
239.6429078819
 20
228.902549346
 11
240.9433425332
 21
243.7665854257
  0
LINE
  8
0
 62
9
  6
CONTINUOUS
 10
244.2683176595
 20
244.0240803792
 11
245.5987894965
 21
228.8167176948
  0
LINE
  8
0
 62
7
  6
CONTINUOUS
 10
245.7626097067
 20
243.7665854257
 11
247.0630443579
 21
228.902549346
  0
LINE
  8
0
 62
9
  6
CONTINUOUS
 10
241.1071627433
 20
228.4461272173
 11
241.1071627433
 21
228.8167176948
  0
LINE
  8
0
 62
9
  6
CONTINUOUS
 10
243.2345903388
 20
244.754355785
 11
243.2345903388
 21
245.8661272173
  0
LINE
  8
0
 62
9
  6
CONTINUOUS
 10
243.471361901
 20
245.8661272173
 11
243.471361901
 21
244.754355785
  0
LINE
  8
0
 62
9
  6
CONTINUOUS
 10
245.5987894965
 20
228.8167176948
 11
245.5987894965
 21
228.4461272173
  0
LINE
  8
0
 62
9
  6
CONTINUOUS
 10
241.1071627433
 20
228.8167176948
 11
242.4376345803
 21
244.0240803792
  0
POLYLINE
  8
0
 62
9
  6
CONTINUOUS
 66
1
 70
0
  0
VERTEX
  8
0
 62
9
  6
CONTINUOUS
 10
244.2683176595
 20
244.0240803792
  0
VERTEX
  8
0
 62
9
  6
CONTINUOUS
 10
244.235692333
 20
244.190573885
  0
VERTEX
  8
0
 62
9
  6
CONTINUOUS
 10
244.1687445302
 20
244.346347454
  0
VERTEX
  8
0
 62
9
  6
CONTINUOUS
 10
244.0705787548
 20
244.4843927292
  0
VERTEX
  8
0
 62
9
  6
CONTINUOUS
 10
243.9456896273
 20
244.5985709727
  0
VERTEX
  8
0
 62
9
  6
CONTINUOUS
 10
243.799739096
 20
244.6838545292
  0
VERTEX
  8
0
 62
9
  6
CONTINUOUS
 10
243.639244472
 20
244.736542107
  0
VERTEX
  8
0
 62
9
  6
CONTINUOUS
 10
243.471361901
 20
244.754355785
  0
SEQEND
  0
POLYLINE
  8
0
 62
9
  6
CONTINUOUS
 66
1
 70
0
  0
VERTEX
  8
0
 62
9
  6
CONTINUOUS
 10
317.0630465292
 20
228.9025245274
  0
VERTEX
  8
0
 62
9
  6
CONTINUOUS
 10
317.0321275405
 20
228.8766915672
  0
VERTEX
  8
0
 62
9
  6
CONTINUOUS
 10
316.9410922481
 20
228.8547325477
  0
VERTEX
  8
0
 62
9
  6
CONTINUOUS
 10
316.7950336892
 20
228.836612987
  0
VERTEX
  8
0
 62
9
  6
CONTINUOUS
 10
316.6015703679
 20
228.8229918147
  0
SEQEND
  0
POLYLINE
  8
0
 62
9
  6
CONTINUOUS
 66
1
 70
0
  0
VERTEX
  8
0
 62
9
  6
CONTINUOUS
 10
310.9433425332
 20
243.7665854257
  0
VERTEX
  8
0
 62
9
  6
CONTINUOUS
 10
310.9934866846
 20
243.8538220509
  0
VERTEX
  8
0
 62
9
  6
CONTINUOUS
 10
311.125177435
 20
243.9287506003
  0
VERTEX
  8
0
 62
9
  6
CONTINUOUS
 10
311.3309783939
 20
243.9871400109
  0
VERTEX
  8
0
 62
9
  6
CONTINUOUS
 10
311.4581857588
 20
244.0090602614
  0
VERTEX
  8
0
 62
9
  6
CONTINUOUS
 10
311.7522290642
 20
244.0368035083
  0
VERTEX
  8
0
 62
9
  6
CONTINUOUS
 10
312.0849750255
 20
244.0419062574
  0
VERTEX
  8
0
 62
9
  6
CONTINUOUS
 10
312.4376345803
 20
244.0240803792
  0
SEQEND
  0
POLYLINE
  8
0
 62
9
  6
CONTINUOUS
 66
1
 70
0
  0
VERTEX
  8
0
 62
9
  6
CONTINUOUS
 10
325.1327266623
 20
228.4461272173
  0
VERTEX
  8
0
 62
9
  6
CONTINUOUS
 10
325.1438059166
 20
228.4308593873
  0
VERTEX
  8
0
 62
9
  6
CONTINUOUS
 10
325.1650668516
 20
228.3105752595
  0
VERTEX
  8
0
 62
9
  6
CONTINUOUS
 10
325.1837077792
 20
228.079751672
  0
VERTEX
  8
0
 62
9
  6
CONTINUOUS
 10
325.1915620091
 20
227.9284184224
  0
VERTEX
  8
0
 62
9
  6
CONTINUOUS
 10
325.2035418079
 20
227.5692498284
  0
VERTEX
  8
0
 62
9
  6
CONTINUOUS
 10
325.2097845837
 20
227.1595995111
  0
SEQEND
  0
LINE
  8
0
 62
9
  6
CONTINUOUS
 10
311.1070659661
 20
228.4461170576
 11
311.1071615562
 21
228.816704147
  0
LINE
  8
0
 62
7
  6
CONTINUOUS
 10
309.6429059687
 20
228.9025274774
 11
310.9433425332
 21
243.7665854257
  0
LINE
  8
0
 62
9
  6
CONTINUOUS
 10
311.1071592023
 20
228.8166772213
 11
312.4376345803
 21
244.0240803792
  0
POLYLINE
  8
0
 62
9
  6
CONTINUOUS
 66
1
 70
0
  0
VERTEX
  8
0
 62
9
  6
CONTINUOUS
 10
311.0110428989
 20
228.4461272173
  0
VERTEX
  8
0
 62
9
  6
CONTINUOUS
 10
311.0189733141
 20
228.4725125449
  0
VERTEX
  8
0
 62
9
  6
CONTINUOUS
 10
311.0260667397
 20
228.5488837689
  0
VERTEX
  8
0
 62
9
  6
CONTINUOUS
 10
311.0315745269
 20
228.6671805467
  0
VERTEX
  8
0
 62
9
  6
CONTINUOUS
 10
311.0349153782
 20
228.8149176697
  0
SEQEND
  0
LINE
  8
0
 62
9
  6
CONTINUOUS
 10
314.2683176595
 20
244.0240803792
 11
315.6001051394
 21
228.8016798285
  0
LINE
  8
0
 62
7
  6
CONTINUOUS
 10
315.7626097067
 20
243.7665854257
 11
317.0630465292
 21
228.9025245274
  0
LINE
  8
0
 62
9
  6
CONTINUOUS
 10
313.2345903388
 20
244.754355785
 11
313.2345903388
 21
245.8661272173
  0
LINE
  8
0
 62
9
  6
CONTINUOUS
 10
313.471361901
 20
245.8661272173
 11
313.471361901
 21
244.754355785
  0
LINE
  8
0
 62
9
  6
CONTINUOUS
 10
325.2105769877
 20
224.4661272173
 11
325.2097845837
 21
227.1595995111
  0
LINE
  8
0
 62
7
  6
CONTINUOUS
 10
329.0029761199
 20
224.4661272173
 11
329.0029761199
 21
226.9461272173
  0
POLYLINE
  8
0
 62
9
  6
CONTINUOUS
 66
1
 70
0
  0
VERTEX
  8
0
 62
9
  6
CONTINUOUS
 10
315.6001026497
 20
228.8017099935
  0
VERTEX
  8
0
 62
9
  6
CONTINUOUS
 10
315.5974431618
 20
228.4743928172
  0
VERTEX
  8
0
 62
9
  6
CONTINUOUS
 10
315.5969293901
 20
228.4348713912
  0
SEQEND
  0
POLYLINE
  8
0
 62
9
  6
CONTINUOUS
 66
1
 70
0
  0
VERTEX
  8
0
 62
9
  6
CONTINUOUS
 10
314.2683176595
 20
244.0240803792
  0
VERTEX
  8
0
 62
9
  6
CONTINUOUS
 10
314.235692333
 20
244.190573885
  0
VERTEX
  8
0
 62
9
  6
CONTINUOUS
 10
314.1687445302
 20
244.346347454
  0
VERTEX
  8
0
 62
9
  6
CONTINUOUS
 10
314.0705787548
 20
244.4843927292
  0
VERTEX
  8
0
 62
9
  6
CONTINUOUS
 10
313.9456896273
 20
244.5985709727
  0
VERTEX
  8
0
 62
9
  6
CONTINUOUS
 10
313.799739096
 20
244.6838545292
  0
VERTEX
  8
0
 62
9
  6
CONTINUOUS
 10
313.639244472
 20
244.736542107
  0
VERTEX
  8
0
 62
9
  6
CONTINUOUS
 10
313.471361901
 20
244.754355785
  0
SEQEND
  0
ARC
  8
4_SURFACE
 62
7
  6
CONTINUOUS
 10
28.2029761199
 20
92.6961714511
 40
4.0
 50
180.0
 51
267.025
  0
ARC
  8
4_SURFACE
 62
9
  6
CONTINUOUS
 10
28.2029761199
 20
92.6961714511
 40
2.4999999742
 50
180.0
 51
267.025
  0
ARC
  8
4_SURFACE
 62
7
  6
CONTINUOUS
 10
28.2029761199
 20
105.9976655177
 40
4.0
 50
92.975
 51
180.0
  0
ARC
  8
4_SURFACE
 62
9
  6
CONTINUOUS
 10
28.2029761199
 20
105.9976655177
 40
2.4999999742
 50
92.975
 51
180.0
  0
ARC
  8
0
 62
7
  6
CONTINUOUS
 10
325.0029761199
 20
92.6961714511
 40
4.0
 50
272.9749999999
 51
360.0
  0
ARC
  8
0
 62
9
  6
CONTINUOUS
 10
325.0029761199
 20
92.6961714511
 40
2.4999999742
 50
272.975
 51
360.0
  0
ARC
  8
0
 62
7
  6
CONTINUOUS
 10
325.0029761199
 20
105.9976655177
 40
4.0
 50
0.0
 51
87.0250000003
  0
ARC
  8
0
 62
9
  6
CONTINUOUS
 10
325.0029761199
 20
105.9976655177
 40
2.4999999742
 50
0.0
 51
87.025
  0
ARC
  8
4_SURFACE
 62
9
  6
CONTINUOUS
 10
359.520856101
 20
85.8469184844
 40
1.4999996319
 50
317.8785835009
 51
360.0
  0
ARC
  8
0
 62
7
  6
CONTINUOUS
 10
357.520856101
 20
85.7305914161
 40
1.0
 50
247.8217995655
 51
262.9323224222
  0
ARC
  8
4_SURFACE
 62
7
  6
CONTINUOUS
 10
357.520856101
 20
85.7305914161
 40
1.0
 50
180.0
 51
262.9323224156
  0
ARC
  8
4_SURFACE
 62
7
  6
CONTINUOUS
 10
357.520856101
 20
85.8469184844
 40
1.0
 50
180.0
 51
270.0
  0
ARC
  8
4_SURFACE
 62
7
  6
CONTINUOUS
 10
359.520856101
 20
85.8469184844
 40
1.0
 50
270.0
 51
360.0
  0
CIRCLE
  8
4_SURFACE
 62
7
  6
CONTINUOUS
 10
370.920856101
 20
90.2969184844
 40
2.55
  0
CIRCLE
  8
4_SURFACE
 62
7
  6
CONTINUOUS
 10
370.920856101
 20
108.3969184844
 40
2.55
  0
ARC
  8
4_SURFACE
 62
9
  6
CONTINUOUS
 10
359.520856101
 20
112.8469184844
 40
1.4999996315
 50
0.0
 51
42.1214377867
  0
ARC
  8
0
 62
7
  6
CONTINUOUS
 10
357.520856101
 20
112.9632455527
 40
1.0
 50
97.0676775801
 51
108.9138567496
  0
ARC
  8
4_SURFACE
 62
7
  6
CONTINUOUS
 10
357.520856101
 20
112.8469184844
 40
1.0
 50
90.0
 51
180.0
  0
ARC
  8
4_SURFACE
 62
7
  6
CONTINUOUS
 10
357.520856101
 20
112.9632455527
 40
1.0
 50
97.0676775844
 51
180.0
  0
ARC
  8
4_SURFACE
 62
7
  6
CONTINUOUS
 10
359.520856101
 20
112.8469184844
 40
1.0
 50
0.0
 51
90.0
  0
ARC
  8
4_SURFACE
 62
7
  6
CONTINUOUS
 10
383.600856101
 20
83.2969184844
 40
1.5
 50
270.0
 51
360.0
  0
ARC
  8
0
 62
7
  6
CONTINUOUS
 10
401.020856101
 20
92.6655838985
 40
1.5
 50
285.0
 51
360.0
  0
ARC
  8
0
 62
7
  6
CONTINUOUS
 10
401.020856101
 20
95.6655838985
 40
1.5
 50
285.0
 51
360.0
  0
ARC
  8
0
 62
7
  6
CONTINUOUS
 10
401.020856101
 20
90.1655838985
 40
1.5
 50
285.0
 51
360.0
  0
ARC
  8
0
 62
7
  6
CONTINUOUS
 10
385.600856101
 20
86.4632549904
 40
0.5
 50
105.0
 51
180.0
  0
ARC
  8
0
 62
7
  6
CONTINUOUS
 10
385.600856101
 20
83.9632549904
 40
0.5
 50
105.0
 51
180.0
  0
ARC
  8
0
 62
7
  6
CONTINUOUS
 10
385.6008454112
 20
89.4632537921
 40
0.4999995977
 50
106.7649865838
 51
179.7895091569
  0
ARC
  8
0
 62
7
  6
CONTINUOUS
 10
401.020856101
 20
106.0282530703
 40
1.5
 50
0.0
 51
75.0
  0
ARC
  8
4_SURFACE
 62
7
  6
CONTINUOUS
 10
383.600856101
 20
115.3969184844
 40
1.5
 50
0.0
 51
90.0
  0
ARC
  8
0
 62
7
  6
CONTINUOUS
 10
401.020856101
 20
103.0282530703
 40
1.5
 50
0.0
 51
75.0
  0
ARC
  8
0
 62
7
  6
CONTINUOUS
 10
401.020856101
 20
108.5282530703
 40
1.5
 50
0.0
 51
75.0
  0
ARC
  8
0
 62
7
  6
CONTINUOUS
 10
385.6008425547
 20
109.2305856081
 40
0.5000000057
 50
180.2107711834
 51
253.2334515484
  0
ARC
  8
0
 62
7
  6
CONTINUOUS
 10
385.600856101
 20
112.2305819784
 40
0.5
 50
180.0
 51
255.0
  0
ARC
  8
0
 62
7
  6
CONTINUOUS
 10
385.600856101
 20
114.7305819784
 40
0.5
 50
180.0
 51
255.0
  0
ARC
  8
4_SURFACE
 62
7
  6
CONTINUOUS
 10
150.4529761199
 20
200.8661272173
 40
1.0
 50
180.0
 51
270.0
  0
ARC
  8
4_SURFACE
 62
7
  6
CONTINUOUS
 10
150.4529761199
 20
202.8661272173
 40
1.0
 50
90.0
 51
180.0
  0
ARC
  8
4_SURFACE
 62
7
  6
CONTINUOUS
 10
163.9529761199
 20
200.8661272173
 40
1.0
 50
270.0
 51
352.9323224156
  0
ARC
  8
4_SURFACE
 62
7
  6
CONTINUOUS
 10
164.4529761199
 20
200.3661272173
 40
0.5
 50
270.0
 51
360.0
  0
ARC
  8
4_SURFACE
 62
7
  6
CONTINUOUS
 10
160.1529761199
 20
204.3661272173
 40
0.5
 50
270.0
 51
360.0
  0
ARC
  8
4_SURFACE
 62
7
  6
CONTINUOUS
 10
25.7029761199
 20
226.9461272173
 40
1.5
 50
90.0
 51
180.0
  0
ARC
  8
0
 62
7
  6
CONTINUOUS
 10
44.0611407615
 20
228.9461272173
 40
0.4999997645
 50
185.0000094426
 51
270.0001083418
  0
ARC
  8
0
 62
7
  6
CONTINUOUS
 10
35.6448114947
 20
228.9461272173
 40
0.4999997605
 50
269.9998897888
 51
354.9999903944
  0
ARC
  8
0
 62
7
  6
CONTINUOUS
 10
39.7345903388
 20
243.5661272173
 40
2.3
 50
90.0
 51
175.0
  0
ARC
  8
0
 62
7
  6
CONTINUOUS
 10
39.971361901
 20
243.5661272173
 40
2.3
 50
5.0
 51
90.0
  0
ARC
  8
4_SURFACE
 62
7
  6
CONTINUOUS
 10
166.9529758359
 20
222.4661272173
 40
1.9999997728
 50
95.121162987
 51
180.0
  0
ARC
  8
0
 62
7
  6
CONTINUOUS
 10
114.0611417069
 20
228.9461272173
 40
0.5
 50
185.0
 51
270.0
  0
ARC
  8
0
 62
7
  6
CONTINUOUS
 10
105.6448105329
 20
228.9461272173
 40
0.5
 50
270.0
 51
355.0
  0
ARC
  8
0
 62
7
  6
CONTINUOUS
 10
172.3948105329
 20
228.9461272173
 40
0.5
 50
270.0
 51
355.0
  0
ARC
  8
4_SURFACE
 62
7
  6
CONTINUOUS
 10
160.1529793477
 20
223.9661272173
 40
0.4999983861
 50
0.0
 51
90.0003698791
  0
ARC
  8
0
 62
7
  6
CONTINUOUS
 10
109.7345903388
 20
243.5661272173
 40
2.3
 50
90.0
 51
175.0
  0
ARC
  8
0
 62
7
  6
CONTINUOUS
 10
109.971361901
 20
243.5661272173
 40
2.3
 50
5.0
 51
90.0
  0
ARC
  8
0
 62
7
  6
CONTINUOUS
 10
176.4845903388
 20
243.5661272173
 40
2.3
 50
90.0
 51
175.0
  0
ARC
  8
0
 62
7
  6
CONTINUOUS
 10
188.7529761199
 20
200.3661272173
 40
0.5
 50
180.0
 51
270.0
  0
ARC
  8
0
 62
7
  6
CONTINUOUS
 10
189.2529761199
 20
200.8661272173
 40
1.0
 50
187.0676775844
 51
270.0
  0
ARC
  8
0
 62
7
  6
CONTINUOUS
 10
193.0529761199
 20
204.3661272173
 40
0.5
 50
180.0
 51
270.0
  0
ARC
  8
0
 62
7
  6
CONTINUOUS
 10
202.7529761199
 20
200.8661272173
 40
1.0
 50
270.0
 51
360.0
  0
ARC
  8
0
 62
7
  6
CONTINUOUS
 10
202.7529761199
 20
202.8661272173
 40
1.0
 50
0.0
 51
90.0
  0
ARC
  8
0
 62
7
  6
CONTINUOUS
 10
186.2529764039
 20
222.4661272173
 40
1.9999997728
 50
0.0
 51
84.878837013
  0
ARC
  8
0
 62
7
  6
CONTINUOUS
 10
247.5611417069
 20
228.9461272173
 40
0.5
 50
185.0
 51
270.0
  0
ARC
  8
0
 62
7
  6
CONTINUOUS
 10
239.1448105329
 20
228.9461272173
 40
0.5
 50
270.0
 51
355.0
  0
ARC
  8
0
 62
7
  6
CONTINUOUS
 10
180.8111417069
 20
228.9461272173
 40
0.5
 50
185.0
 51
270.0
  0
ARC
  8
0
 62
7
  6
CONTINUOUS
 10
193.0529728921
 20
223.9661272173
 40
0.4999983861
 50
89.9996301209
 51
180.0
  0
ARC
  8
0
 62
7
  6
CONTINUOUS
 10
243.2345903388
 20
243.5661272173
 40
2.3
 50
90.0
 51
175.0
  0
ARC
  8
0
 62
7
  6
CONTINUOUS
 10
243.471361901
 20
243.5661272173
 40
2.3
 50
5.0
 51
90.0
  0
ARC
  8
0
 62
7
  6
CONTINUOUS
 10
176.721361901
 20
243.5661272173
 40
2.3
 50
5.0
 51
90.0
  0
ARC
  8
0
 62
7
  6
CONTINUOUS
 10
327.5029761199
 20
226.9461272173
 40
1.5
 50
0.0
 51
90.0
  0
ARC
  8
0
 62
7
  6
CONTINUOUS
 10
309.1448114784
 20
228.9461272173
 40
0.4999997645
 50
269.9998916582
 51
354.9999905574
  0
ARC
  8
0
 62
7
  6
CONTINUOUS
 10
317.5611407451
 20
228.9461272173
 40
0.4999997605
 50
185.0000096056
 51
270.0001102112
  0
ARC
  8
0
 62
7
  6
CONTINUOUS
 10
313.2345903388
 20
243.5661272173
 40
2.3
 50
90.0
 51
175.0
  0
ARC
  8
0
 62
7
  6
CONTINUOUS
 10
313.471361901
 20
243.5661272173
 40
2.3
 50
5.0
 51
90.0
  0
ENDSEC
  0
EOF
