999
DXF file: uni_1700_z13_2w_1r_1p_hub63.dxf
999
Pro/ENGINEER 2015290 by Parametric Technology Corporation
  0
SECTION
  2
HEADER
  9
$ACADVER
  1
AC1027
  9
$DWGCODEPAGE
  3
ANSI_1252
  9
$EXTMAX
 10
594.0
 20
420.0
 30
0.0
  9
$EXTMIN
 10
0.0
 20
0.0
 30
0.0
  9
$LIMMIN
 10
0.0
 20
0.0
  9
$LIMMAX
 10
594.0
 20
420.0
  9
$VIEWCTR
 10
297.0
 20
210.0
  9
$VIEWSIZE
 40
420.0
  9
$CLAYER
  8
0
  9
$LTSCALE
 40
32.67
  9
$CELTYPE
  6
BYLAYER
  9
$DIMSCALE
 40
1.0
  9
$DIMASZ
 40
3.5
  9
$DIMEXO
 40
1.0
  9
$DIMDLI
 40
22.572
  9
$DIMEXE
 40
2.0
  9
$DIMCEN
 40
5.346
  9
$DIMLFAC
 40
1.0
  9
$DIMBLK
  1
_FILLED
  9
$DIMALT
 70
0
  9
$DIMALTF
 40
0.0393700787
  9
$DIMTXT
 40
3.5
  9
$DIMTOL
 70
1
  9
$DIMLIM
 70
0
  9
$DIMTFAC
 40
1.0
  9
$DIMTP
 40
0.01
  9
$DIMTM
 40
0.01
  9
$DIMGAP
 40
0.625
  9
$DIMDSEP
 70
46
  9
$AUNITS
 70
0
  9
$PDMODE
 70
3
  9
$PDSIZE
 40
0.3125
  9
$HANDSEED
  5
6E0
  9
$TILEMODE
 70
1
  9
$MEASUREMENT
 70
1
  9
$INSUNITS
 70
4
  0
ENDSEC
  0
SECTION
  2
CLASSES
  0
CLASS
  1
ACDBDICTIONARYWDFLT
  2
AcDbDictionaryWithDefault
  3
AutoCAD 2000
 90
0
 91
1
280
0
281
0
  0
CLASS
  1
ACDBPLACEHOLDER
  2
AcDbPlaceHolder
  3
AutoCAD 2000
 90
0
 91
1
280
0
281
0
  0
CLASS
  1
LAYOUT
  2
AcDbLayout
  3
AutoCAD 2000
 90
0
 91
0
280
0
281
0
  0
CLASS
  1
TABLESTYLE
  2
AcDbTableStyle
  3
ObjectDBX Classes
 90
2047
 91
1
280
0
281
0
  0
CLASS
  1
ACAD_TABLE
  2
AcDbTable
  3
ObjectDBX Classes
 90
1025
 91
1
280
0
281
1
  0
ENDSEC
  0
SECTION
  2
TABLES
  0
TABLE
  2
VPORT
  5
8
100
AcDbSymbolTable
 70
2
  0
VPORT
  5
1F4
100
AcDbSymbolTableRecord
100
AcDbViewportTableRecord
  2
*ACTIVE
 70
0
 10
0.0
 20
0.0
 11
1.0
 21
1.0
 12
297.0
 22
210.0
 13
0.0
 23
0.0
 14
1.0
 24
1.0
 15
0.0
 25
0.0
 16
0.0
 26
0.0
 36
1.0
 17
0.0
 27
0.0
 37
0.0
 40
420.0
 41
1.4142857143
 42
50.0
 43
0.0
 44
0.0
 50
0.0
 51
0.0
 71
0
 72
100
 73
1
 74
1
 75
0
 76
0
 77
0
 78
0
  0
ENDTAB
  0
TABLE
  2
LTYPE
  5
5
100
AcDbSymbolTable
 70
6
  0
LTYPE
  5
14
100
AcDbSymbolTableRecord
100
AcDbLinetypeTableRecord
  2
BYBLOCK
 70
0
  3

 72
65
 73
0
 40
0.0
  0
LTYPE
  5
15
100
AcDbSymbolTableRecord
100
AcDbLinetypeTableRecord
  2
BYLAYER
 70
0
  3

 72
65
 73
0
 40
0.0
  0
LTYPE
  5
16
100
AcDbSymbolTableRecord
100
AcDbLinetypeTableRecord
  2
CONTINUOUS
 70
64
  3
Solid line
 72
65
 73
0
 40
0.0
  0
LTYPE
  5
1F5
100
AcDbSymbolTableRecord
100
AcDbLinetypeTableRecord
  2
CENTER
 70
64
  3
____ _ ____ _ ____ _ ____ _ ____ _ ____ _ ____
 72
65
 73
4
 40
0.6
 49
0.375
 74
0
 49
-0.075
 74
0
 49
0.075
 74
0
 49
-0.075
 74
0
  0
LTYPE
  5
1F6
100
AcDbSymbolTableRecord
100
AcDbLinetypeTableRecord
  2
HIDDEN
 70
64
  3
- - - - - - - - - - - - - - - - - - - -
 72
65
 73
2
 40
0.2
 49
0.1
 74
0
 49
-0.1
 74
0
  0
LTYPE
  5
1F7
100
AcDbSymbolTableRecord
100
AcDbLinetypeTableRecord
  2
PHANTOM
 70
64
  3
_____ _ _ _____ _ _ _____ _ _ _____
 72
65
 73
6
 40
0.8
 49
0.45
 74
0
 49
-0.05
 74
0
 49
0.1
 74
0
 49
-0.05
 74
0
 49
0.1
 74
0
 49
-0.05
 74
0
  0
LTYPE
  5
1F8
100
AcDbSymbolTableRecord
100
AcDbLinetypeTableRecord
  2
DOT
 70
64
  3
. . . . . . . . . . . . . . . . . . . .
 72
65
 73
2
 40
0.2
 49
0.1
 74
0
 49
-0.1
 74
0
  0
LTYPE
  5
1F9
100
AcDbSymbolTableRecord
100
AcDbLinetypeTableRecord
  2
DASHED
 70
64
  3
- - - - - - - - - - - - - - - - - - - -
 72
65
 73
2
 40
0.2
 49
0.1
 74
0
 49
-0.1
 74
0
  0
ENDTAB
  0
TABLE
  2
LAYER
  5
2
100
AcDbSymbolTable
 70
36
  0
LAYER
  5
10
100
AcDbSymbolTableRecord
100
AcDbLayerTableRecord
  2
0
 70
0
 62
7
  6
CONTINUOUS
370
-3
390
F
  0
LAYER
  5
1FA
100
AcDbSymbolTableRecord
100
AcDbLayerTableRecord
  2
DEFAULT_1
 70
0
 62
7
  6
CENTER
370
-3
390
F
  0
LAYER
  5
1FB
100
AcDbSymbolTableRecord
100
AcDbLayerTableRecord
  2
DEFAULT_2
 70
0
 62
8
  6
HIDDEN
370
-3
390
F
  0
LAYER
  5
1FC
100
AcDbSymbolTableRecord
100
AcDbLayerTableRecord
  2
DEFAULT_3
 70
0
 62
7
  6
PHANTOM
370
-3
390
F
  0
LAYER
  5
1FD
100
AcDbSymbolTableRecord
100
AcDbLayerTableRecord
  2
1_AXIS
 70
0
 62
7
  6
CONTINUOUS
370
-3
390
F
  0
LAYER
  5
1FE
100
AcDbSymbolTableRecord
100
AcDbLayerTableRecord
  2
1_DATUM_PLANE
 70
0
 62
7
  6
CONTINUOUS
370
-3
390
F
  0
LAYER
  5
1FF
100
AcDbSymbolTableRecord
100
AcDbLayerTableRecord
  2
2_FEATURE
 70
0
 62
7
  6
CONTINUOUS
370
-3
390
F
  0
LAYER
  5
200
100
AcDbSymbolTableRecord
100
AcDbLayerTableRecord
  2
4_QUILT
 70
0
 62
7
  6
CONTINUOUS
370
-3
390
F
  0
LAYER
  5
201
100
AcDbSymbolTableRecord
100
AcDbLayerTableRecord
  2
6_DIM
 70
0
 62
7
  6
CONTINUOUS
370
-3
390
F
  0
LAYER
  5
202
100
AcDbSymbolTableRecord
100
AcDbLayerTableRecord
  2
AXES
 70
0
 62
7
  6
CONTINUOUS
370
-3
390
F
  0
LAYER
  5
203
100
AcDbSymbolTableRecord
100
AcDbLayerTableRecord
  2
CSYS
 70
0
 62
7
  6
CONTINUOUS
370
-3
390
F
  0
LAYER
  5
204
100
AcDbSymbolTableRecord
100
AcDbLayerTableRecord
  2
CURVES
 70
0
 62
7
  6
CONTINUOUS
370
-3
390
F
  0
LAYER
  5
205
100
AcDbSymbolTableRecord
100
AcDbLayerTableRecord
  2
NOTES
 70
0
 62
7
  6
CONTINUOUS
370
-3
390
F
  0
LAYER
  5
206
100
AcDbSymbolTableRecord
100
AcDbLayerTableRecord
  2
PLANES
 70
0
 62
7
  6
CONTINUOUS
370
-3
390
F
  0
LAYER
  5
207
100
AcDbSymbolTableRecord
100
AcDbLayerTableRecord
  2
QUILTS
 70
0
 62
7
  6
CONTINUOUS
370
-3
390
F
  0
LAYER
  5
208
100
AcDbSymbolTableRecord
100
AcDbLayerTableRecord
  2
SQ-MACHINED
 70
0
 62
7
  6
CONTINUOUS
370
-3
390
F
  0
ENDTAB
  0
TABLE
  2
STYLE
  5
3
100
AcDbSymbolTable
 70
1
  0
STYLE
  5
11
100
AcDbSymbolTableRecord
100
AcDbTextStyleTableRecord
  2
STANDARD
 70
0
 40
0.0
 41
0.8
 50
0.0
 71
0
 42
0.2
  3
txt
  4

  0
STYLE
  5
209
100
AcDbSymbolTableRecord
100
AcDbTextStyleTableRecord
  2
TEXTSTYLE_1
 70
0
 40
0.0
 41
0.8
 50
0.0
 71
0
 42
0.2
  3
gdt
  4

  0
STYLE
  5
20A
100
AcDbSymbolTableRecord
100
AcDbTextStyleTableRecord
  2
TEXTSTYLE_2
 70
0
 40
0.0
 41
0.6
 50
0.0
 71
0
 42
0.2
  3
txt
  4

  0
STYLE
  5
20B
100
AcDbSymbolTableRecord
100
AcDbTextStyleTableRecord
  2
TEXTSTYLE_3
 70
0
 40
0.0
 41
1.0
 50
0.0
 71
0
 42
0.2
  3
ftb_____.ttf
  4

  0
STYLE
  5
20C
100
AcDbSymbolTableRecord
100
AcDbTextStyleTableRecord
  2
TEXTSTYLE_4
 70
0
 40
0.0
 41
1.0
 50
0.0
 71
0
 42
0.2
  3
fti_____.ttf
  4

  0
STYLE
  5
20D
100
AcDbSymbolTableRecord
100
AcDbTextStyleTableRecord
  2
TEXTSTYLE_5
 70
0
 40
0.0
 41
1.0
 50
0.0
 71
0
 42
0.2
  3
frutiger light.ttf
  4

  0
STYLE
  5
20E
100
AcDbSymbolTableRecord
100
AcDbTextStyleTableRecord
  2
TEXTSTYLE_6
 70
0
 40
0.0
 41
0.7
 50
0.0
 71
0
 42
0.2
  3
txt
  4

  0
STYLE
  5
20F
100
AcDbSymbolTableRecord
100
AcDbTextStyleTableRecord
  2
TEXTSTYLE_7
 70
0
 40
0.0
 41
0.8
 50
0.0
 71
0
 42
0.2
  3
txt
  4

  0
ENDTAB
  0
TABLE
  2
VIEW
  5
6
100
AcDbSymbolTable
 70
0
  0
ENDTAB
  0
TABLE
  2
UCS
  5
7
100
AcDbSymbolTable
 70
0
  0
ENDTAB
  0
TABLE
  2
APPID
  5
9
100
AcDbSymbolTable
 70
1
  0
APPID
  5
210
100
AcDbSymbolTableRecord
100
AcDbRegAppTableRecord
  2
ACAD
 70
0
  0
ENDTAB
  0
TABLE
  2
BLOCK_RECORD
  5
1
100
AcDbSymbolTable
 70
0
  0
BLOCK_RECORD
  5
211
100
AcDbSymbolTableRecord
100
AcDbBlockTableRecord
  2
*Model_Space
  0
BLOCK_RECORD
  5
212
100
AcDbSymbolTableRecord
100
AcDbBlockTableRecord
  2
*Paper_Space
  0
BLOCK_RECORD
  5
213
100
AcDbSymbolTableRecord
100
AcDbBlockTableRecord
  2
UNI_LOGO2_BL1
  0
BLOCK_RECORD
  5
214
100
AcDbSymbolTableRecord
100
AcDbBlockTableRecord
  2
AMMEAAL_LOGO_BL0
  0
BLOCK_RECORD
  5
215
100
AcDbSymbolTableRecord
100
AcDbBlockTableRecord
  2
*T1
  0
ENDTAB
  0
TABLE
  2
DIMSTYLE
  5
A
100
AcDbSymbolTable
 70
1
100
AcDbDimStyleTable
 71
0
  0
DIMSTYLE
105
216
100
AcDbSymbolTableRecord
100
AcDbDimStyleTableRecord
  2
STANDARD
 70
0
  3

  4

 40
1.0
 41
3.5
 42
1.0
 43
0.38
 44
2.0
 45
0.0
 46
0.0
 47
0.01
 48
0.01
140
3.5
141
0.09
142
0.0
143
25.4
144
1.0
145
0.0
146
1.0
147
0.625
 71
1.0
 72
0.0
 73
0
 74
0
 75
0
 76
0
 77
1
 78
0
170
0
171
2
172
0
173
0
174
0
175
0
176
0
177
0
178
0
270
2
271
2
272
2
273
2
274
2
275
0
280
0
281
0
282
0
283
1
284
0
285
0
286
0
287
3
288
0
340
11
278
46
  0
ENDTAB
  0
ENDSEC
  0
SECTION
  2
BLOCKS
  0
BLOCK
  5
20
100
AcDbEntity
  8
0
100
AcDbBlockBegin
  2
*Model_Space
 70
0
 10
0.0
 20
0.0
 30
0.0
  3
*Model_Space
  1

  0
ENDBLK
  5
21
100
AcDbEntity
  8
0
100
AcDbBlockEnd
  0
BLOCK
  5
1C
100
AcDbEntity
  8
0
100
AcDbBlockBegin
  2
*Paper_Space
 70
0
 10
0.0
 20
0.0
 30
0.0
  3
*Paper_Space
  1

  0
ENDBLK
  5
1D
100
AcDbEntity
  8
0
100
AcDbBlockEnd
  0
BLOCK
  5
217
100
AcDbEntity
  8
0
100
AcDbBlockBegin
 62
2
  6
CONTINUOUS
  2
UNI_LOGO2_BL1
 70
64
 10
557.4079930916
 20
35.8092573885
  3
UNI_LOGO2_BL1
  1

  0
TEXT
  5
218
100
AcDbEntity
  8
0
100
AcDbText
 62
7
  6
CONTINUOUS
 10
548.4662781001
 20
30.9020137655
  7
TEXTSTYLE_4
 40
1.0655737705
  1
The brand for plastic modular belts and chains
 41
1.0
 72
0
100
AcDbText
  0
LINE
  5
219
100
AcDbEntity
  8
0
100
AcDbLine
 62
7
  6
CONTINUOUS
 10
533.3860614807
 20
36.3830278803
 11
533.3860614807
 21
34.2518803393
  0
LINE
  5
21A
100
AcDbEntity
  8
0
100
AcDbLine
 62
7
  6
CONTINUOUS
 10
533.6751239738
 20
31.2609490436
 11
533.6751239738
 21
31.3577401029
  0
LINE
  5
21B
100
AcDbEntity
  8
0
100
AcDbLine
 62
7
  6
CONTINUOUS
 10
533.3860614807
 20
31.3254764164
 11
533.4438739824
 21
31.1318942979
  0
LINE
  5
21C
100
AcDbEntity
  8
0
100
AcDbLine
 62
7
  6
CONTINUOUS
 10
534.7795041036
 20
34.1699131262
 11
534.7795041036
 21
36.3830278803
  0
LINE
  5
21D
100
AcDbEntity
  8
0
100
AcDbLine
 62
7
  6
CONTINUOUS
 10
535.6985614255
 20
32.3256508311
 11
535.6985614255
 21
30.8092573885
  0
LINE
  5
21E
100
AcDbEntity
  8
0
100
AcDbLine
 62
7
  6
CONTINUOUS
 10
535.9876239807
 20
30.8092573885
 11
535.9876239807
 21
31.5513222666
  0
LINE
  5
21F
100
AcDbEntity
  8
0
100
AcDbLine
 62
7
  6
CONTINUOUS
 10
535.9876239807
 20
31.6803770123
 11
535.9876239807
 21
32.3256508311
  0
LINE
  5
220
100
AcDbEntity
  8
0
100
AcDbLine
 62
7
  6
CONTINUOUS
 10
533.4438739824
 20
31.5190585802
 11
533.3860614807
 21
31.3254764164
  0
LINE
  5
221
100
AcDbEntity
  8
0
100
AcDbLine
 62
7
  6
CONTINUOUS
 10
533.7907489669
 20
31.0996306115
 11
533.6751239738
 21
31.2609490436
  0
LINE
  5
222
100
AcDbEntity
  8
0
100
AcDbLine
 62
7
  6
CONTINUOUS
 10
534.8891865358
 20
31.6158496394
 11
534.9469989807
 21
31.5190585802
  0
LINE
  5
223
100
AcDbEntity
  8
0
100
AcDbLine
 62
7
  6
CONTINUOUS
 10
535.2360615358
 20
31.5190585802
 11
535.1782489255
 21
31.6481133259
  0
LINE
  5
224
100
AcDbEntity
  8
0
100
AcDbLine
 62
7
  6
CONTINUOUS
 10
536.6647500053
 20
36.3830278803
 11
536.6647500053
 21
34.5797491918
  0
LINE
  5
225
100
AcDbEntity
  8
0
100
AcDbLine
 62
7
  6
CONTINUOUS
 10
536.6647500053
 20
33.2682737819
 11
536.6647500053
 21
32.612536077
  0
LINE
  5
226
100
AcDbEntity
  8
0
100
AcDbLine
 62
7
  6
CONTINUOUS
 10
537.0282489807
 20
31.4545312073
 11
537.0282489807
 21
30.8092573885
  0
LINE
  5
227
100
AcDbEntity
  8
0
100
AcDbLine
 62
7
  6
CONTINUOUS
 10
537.3173113704
 20
30.8092573885
 11
537.3173113704
 21
31.4545312073
  0
LINE
  5
228
100
AcDbEntity
  8
0
100
AcDbLine
 62
7
  6
CONTINUOUS
 10
533.6751239738
 20
31.3577401029
 11
533.7329364807
 21
31.4867948937
  0
LINE
  5
229
100
AcDbEntity
  8
0
100
AcDbLine
 62
7
  6
CONTINUOUS
 10
533.4438739824
 20
31.1318942979
 11
533.5594989807
 21
31.0028395296
  0
LINE
  5
22A
100
AcDbEntity
  8
0
100
AcDbLine
 62
7
  6
CONTINUOUS
 10
536.9704363704
 20
31.583585953
 11
537.0282489807
 21
31.4545312073
  0
LINE
  5
22B
100
AcDbEntity
  8
0
100
AcDbLine
 62
7
  6
CONTINUOUS
 10
537.7798115909
 20
31.0996306115
 11
537.8376238704
 21
30.9705758432
  0
LINE
  5
22C
100
AcDbEntity
  8
0
100
AcDbLine
 62
7
  6
CONTINUOUS
 10
537.3173113704
 20
31.4545312073
 11
537.2594990909
 21
31.6158496394
  0
LINE
  5
22D
100
AcDbEntity
  8
0
100
AcDbLine
 62
7
  6
CONTINUOUS
 10
537.7798115909
 20
31.6481133259
 11
537.7798115909
 21
31.583585953
  0
LINE
  5
22E
100
AcDbEntity
  8
0
100
AcDbLine
 62
7
  6
CONTINUOUS
 10
537.7798115909
 20
31.1964216708
 11
537.7798115909
 21
31.0996306115
  0
LINE
  5
22F
100
AcDbEntity
  8
0
100
AcDbLine
 62
7
  6
CONTINUOUS
 10
538.0581926282
 20
32.612536077
 11
538.0581926282
 21
36.3830278803
  0
LINE
  5
230
100
AcDbEntity
  8
0
100
AcDbLine
 62
7
  6
CONTINUOUS
 10
538.0688739807
 20
31.0673669025
 11
538.0688739807
 21
31.1318942979
  0
LINE
  5
231
100
AcDbEntity
  8
0
100
AcDbLine
 62
7
  6
CONTINUOUS
 10
538.3860614807
 20
36.3830278803
 11
538.3860614807
 21
32.612536077
  0
LINE
  5
232
100
AcDbEntity
  8
0
100
AcDbLine
 62
7
  6
CONTINUOUS
 10
535.1782489255
 20
31.0028395296
 11
535.2360615358
 21
31.1318942979
  0
LINE
  5
233
100
AcDbEntity
  8
0
100
AcDbLine
 62
7
  6
CONTINUOUS
 10
539.5719992012
 20
30.9060484591
 11
539.5141862601
 21
31.0673669025
  0
LINE
  5
234
100
AcDbEntity
  8
0
100
AcDbLine
 62
7
  6
CONTINUOUS
 10
539.2251242012
 20
31.583585953
 11
539.2251242012
 21
31.4867948937
  0
LINE
  5
235
100
AcDbEntity
  8
0
100
AcDbLine
 62
7
  6
CONTINUOUS
 10
539.2251242012
 20
31.3577401029
 11
539.2251242012
 21
31.1641579843
  0
LINE
  5
236
100
AcDbEntity
  8
0
100
AcDbLine
 62
7
  6
CONTINUOUS
 10
539.5141862601
 20
31.0673669025
 11
539.5141862601
 21
31.583585953
  0
LINE
  5
237
100
AcDbEntity
  8
0
100
AcDbLine
 62
7
  6
CONTINUOUS
 10
539.7795041036
 20
32.612536077
 11
539.7795041036
 21
34.4158147655
  0
LINE
  5
238
100
AcDbEntity
  8
0
100
AcDbLine
 62
7
  6
CONTINUOUS
 10
539.7795041036
 20
35.7272901754
 11
539.7795041036
 21
36.3830278803
  0
LINE
  5
239
100
AcDbEntity
  8
0
100
AcDbLine
 62
7
  6
CONTINUOUS
 10
540.0923117012
 20
32.3256508311
 11
540.0923117012
 21
32.164332399
  0
LINE
  5
23A
100
AcDbEntity
  8
0
100
AcDbLine
 62
7
  6
CONTINUOUS
 10
540.0923117012
 20
31.8416954444
 11
540.0923117012
 21
30.8092573885
  0
LINE
  5
23B
100
AcDbEntity
  8
0
100
AcDbLine
 62
7
  6
CONTINUOUS
 10
540.3813737601
 20
30.8092573885
 11
540.3813737601
 21
31.8416954444
  0
LINE
  5
23C
100
AcDbEntity
  8
0
100
AcDbLine
 62
7
  6
CONTINUOUS
 10
540.3813737601
 20
32.164332399
 11
540.3813737601
 21
32.3256508311
  0
LINE
  5
23D
100
AcDbEntity
  8
0
100
AcDbLine
 62
7
  6
CONTINUOUS
 10
534.9469989807
 20
31.1318942979
 11
534.8891865358
 21
31.035103216
  0
LINE
  5
23E
100
AcDbEntity
  8
0
100
AcDbLine
 62
7
  6
CONTINUOUS
 10
537.2594990909
 20
31.6158496394
 11
537.2016864807
 21
31.6803770123
  0
LINE
  5
23F
100
AcDbEntity
  8
0
100
AcDbLine
 62
7
  6
CONTINUOUS
 10
538.1266865909
 20
31.0028395296
 11
538.0688739807
 21
31.0673669025
  0
LINE
  5
240
100
AcDbEntity
  8
0
100
AcDbLine
 62
7
  6
CONTINUOUS
 10
539.2829364807
 20
30.873784767
 11
539.3407487601
 21
30.8092573885
  0
LINE
  5
241
100
AcDbEntity
  8
0
100
AcDbLine
 62
7
  6
CONTINUOUS
 10
539.2251242012
 20
30.9705758432
 11
539.2829364807
 21
30.873784767
  0
LINE
  5
242
100
AcDbEntity
  8
0
100
AcDbLine
 62
7
  6
CONTINUOUS
 10
539.6298114807
 20
30.8092573885
 11
539.5719992012
 21
30.9060484591
  0
LINE
  5
243
100
AcDbEntity
  8
0
100
AcDbLine
 62
7
  6
CONTINUOUS
 10
539.5141862601
 20
31.583585953
 11
539.4563739807
 21
31.6803770123
  0
LINE
  5
244
100
AcDbEntity
  8
0
100
AcDbLine
 62
7
  6
CONTINUOUS
 10
540.8438739807
 20
31.8416954444
 11
540.8438739807
 21
30.8092573885
  0
LINE
  5
245
100
AcDbEntity
  8
0
100
AcDbLine
 62
7
  6
CONTINUOUS
 10
541.1329367012
 20
30.8092573885
 11
541.1329367012
 21
31.5513222666
  0
LINE
  5
246
100
AcDbEntity
  8
0
100
AcDbLine
 62
7
  6
CONTINUOUS
 10
541.1329367012
 20
31.6803770123
 11
541.1329367012
 21
31.8416954444
  0
LINE
  5
247
100
AcDbEntity
  8
0
100
AcDbLine
 62
7
  6
CONTINUOUS
 10
541.6647500053
 20
34.8256508311
 11
541.6647500053
 21
32.612536077
  0
LINE
  5
248
100
AcDbEntity
  8
0
100
AcDbLine
 62
7
  6
CONTINUOUS
 10
533.5594989807
 20
31.6481133259
 11
533.4438739824
 21
31.5190585802
  0
LINE
  5
249
100
AcDbEntity
  8
0
100
AcDbLine
 62
7
  6
CONTINUOUS
 10
533.7329364807
 20
31.4867948937
 11
533.7907489669
 21
31.5513222666
  0
LINE
  5
24A
100
AcDbEntity
  8
0
100
AcDbLine
 62
7
  6
CONTINUOUS
 10
533.5594989807
 20
31.0028395296
 11
533.6751239738
 21
30.9383121455
  0
LINE
  5
24B
100
AcDbEntity
  8
0
100
AcDbLine
 62
7
  6
CONTINUOUS
 10
533.9641864669
 20
31.0028395296
 11
533.7907489669
 21
31.0996306115
  0
LINE
  5
24C
100
AcDbEntity
  8
0
100
AcDbLine
 62
7
  6
CONTINUOUS
 10
539.1673112601
 20
31.6481133259
 11
539.2251242012
 21
31.583585953
  0
LINE
  5
24D
100
AcDbEntity
  8
0
100
AcDbLine
 62
7
  6
CONTINUOUS
 10
542.1157487601
 20
31.583585953
 11
542.1735617012
 21
31.4222675209
  0
LINE
  5
24E
100
AcDbEntity
  8
0
100
AcDbLine
 62
7
  6
CONTINUOUS
 10
542.4626237601
 20
31.4222675209
 11
542.4048114807
 21
31.583585953
  0
LINE
  5
24F
100
AcDbEntity
  8
0
100
AcDbLine
 62
7
  6
CONTINUOUS
 10
542.1735617012
 20
31.4222675209
 11
542.1735617012
 21
30.8092573885
  0
LINE
  5
250
100
AcDbEntity
  8
0
100
AcDbLine
 62
7
  6
CONTINUOUS
 10
542.4626237601
 20
30.8092573885
 11
542.4626237601
 21
31.4222675209
  0
LINE
  5
251
100
AcDbEntity
  8
0
100
AcDbLine
 62
7
  6
CONTINUOUS
 10
542.9251239807
 20
31.6481133259
 11
542.9251239807
 21
31.583585953
  0
LINE
  5
252
100
AcDbEntity
  8
0
100
AcDbLine
 62
7
  6
CONTINUOUS
 10
543.0581926282
 20
32.612536077
 11
543.0581926282
 21
34.743683618
  0
LINE
  5
253
100
AcDbEntity
  8
0
100
AcDbLine
 62
7
  6
CONTINUOUS
 10
543.3860614807
 20
36.3830278803
 11
543.3860614807
 21
32.612536077
  0
LINE
  5
254
100
AcDbEntity
  8
0
100
AcDbLine
 62
7
  6
CONTINUOUS
 10
538.0688739807
 20
31.1318942979
 11
538.1266865909
 21
31.2286853572
  0
LINE
  5
255
100
AcDbEntity
  8
0
100
AcDbLine
 62
7
  6
CONTINUOUS
 10
533.6751239738
 20
30.9383121455
 11
533.8485614944
 21
30.873784767
  0
LINE
  5
256
100
AcDbEntity
  8
0
100
AcDbLine
 62
7
  6
CONTINUOUS
 10
535.1782489255
 20
31.6481133259
 11
535.0048114255
 21
31.7449043851
  0
LINE
  5
257
100
AcDbEntity
  8
0
100
AcDbLine
 62
7
  6
CONTINUOUS
 10
537.8376238704
 20
30.9705758432
 11
538.0110613704
 21
30.873784767
  0
LINE
  5
258
100
AcDbEntity
  8
0
100
AcDbLine
 62
7
  6
CONTINUOUS
 10
536.8548114807
 20
31.6481133259
 11
536.9704363704
 21
31.583585953
  0
LINE
  5
259
100
AcDbEntity
  8
0
100
AcDbLine
 62
7
  6
CONTINUOUS
 10
537.2016864807
 20
31.6803770123
 11
537.0860615909
 21
31.7449043851
  0
LINE
  5
25A
100
AcDbEntity
  8
0
100
AcDbLine
 62
7
  6
CONTINUOUS
 10
542.9251239807
 20
31.0673669025
 11
543.0407492012
 21
30.9383121455
  0
LINE
  5
25B
100
AcDbEntity
  8
0
100
AcDbLine
 62
7
  6
CONTINUOUS
 10
543.2719989807
 20
31.0028395296
 11
543.2141867012
 21
31.0673669025
  0
LINE
  5
25C
100
AcDbEntity
  8
0
100
AcDbLine
 62
7
  6
CONTINUOUS
 10
542.9251239807
 20
31.583585953
 11
543.0407492012
 21
31.4545312073
  0
LINE
  5
25D
100
AcDbEntity
  8
0
100
AcDbLine
 62
7
  6
CONTINUOUS
 10
542.4048114807
 20
31.583585953
 11
542.3469992012
 21
31.6803770123
  0
LINE
  5
25E
100
AcDbEntity
  8
0
100
AcDbLine
 62
7
  6
CONTINUOUS
 10
544.7751235396
 20
31.0028395296
 11
544.7751235396
 21
31.0673669025
  0
LINE
  5
25F
100
AcDbEntity
  8
0
100
AcDbLine
 62
7
  6
CONTINUOUS
 10
544.7795041036
 20
32.612536077
 11
544.7795041036
 21
36.3830278803
  0
LINE
  5
260
100
AcDbEntity
  8
0
100
AcDbLine
 62
7
  6
CONTINUOUS
 10
537.8376238704
 20
31.7126406987
 11
537.7798115909
 21
31.6481133259
  0
LINE
  5
261
100
AcDbEntity
  8
0
100
AcDbLine
 62
7
  6
CONTINUOUS
 10
534.7157489531
 20
31.6803770123
 11
534.8891865358
 21
31.6158496394
  0
LINE
  5
262
100
AcDbEntity
  8
0
100
AcDbLine
 62
7
  6
CONTINUOUS
 10
539.4563739807
 20
31.6803770123
 11
539.3407487601
 21
31.7449043851
  0
LINE
  5
263
100
AcDbEntity
  8
0
100
AcDbLine
 62
7
  6
CONTINUOUS
 10
543.2719989807
 20
31.5190585802
 11
543.2141867012
 21
31.583585953
  0
LINE
  5
264
100
AcDbEntity
  8
0
100
AcDbLine
 62
7
  6
CONTINUOUS
 10
544.4282492012
 20
31.1318942979
 11
544.4860614807
 21
31.0673669025
  0
LINE
  5
265
100
AcDbEntity
  8
0
100
AcDbLine
 62
7
  6
CONTINUOUS
 10
544.7751235396
 20
31.0673669025
 11
544.6594989807
 21
31.1964216708
  0
LINE
  5
266
100
AcDbEntity
  8
0
100
AcDbLine
 62
7
  6
CONTINUOUS
 10
544.4282492012
 20
31.6481133259
 11
544.4860614807
 21
31.583585953
  0
LINE
  5
267
100
AcDbEntity
  8
0
100
AcDbLine
 62
7
  6
CONTINUOUS
 10
544.7751235396
 20
31.583585953
 11
544.6594989807
 21
31.7126406987
  0
LINE
  5
268
100
AcDbEntity
  8
0
100
AcDbLine
 62
7
  6
CONTINUOUS
 10
538.0688739807
 20
31.583585953
 11
538.1266865909
 21
31.6481133259
  0
LINE
  5
269
100
AcDbEntity
  8
0
100
AcDbLine
 62
7
  6
CONTINUOUS
 10
537.8954364807
 20
31.3254764164
 11
537.7798115909
 21
31.1964216708
  0
LINE
  5
26A
100
AcDbEntity
  8
0
100
AcDbLine
 62
7
  6
CONTINUOUS
 10
539.2251242012
 20
31.1641579843
 11
539.1673112601
 21
31.0996306115
  0
LINE
  5
26B
100
AcDbEntity
  8
0
100
AcDbLine
 62
7
  6
CONTINUOUS
 10
539.1673112601
 20
30.9060484591
 11
539.2251242012
 21
30.9705758432
  0
LINE
  5
26C
100
AcDbEntity
  8
0
100
AcDbLine
 62
7
  6
CONTINUOUS
 10
538.0110613704
 20
30.873784767
 11
538.1266865909
 21
30.8415210777
  0
LINE
  5
26D
100
AcDbEntity
  8
0
100
AcDbLine
 62
7
  6
CONTINUOUS
 10
535.0048114255
 20
31.7449043851
 11
534.7735614807
 21
31.809431758
  0
LINE
  5
26E
100
AcDbEntity
  8
0
100
AcDbLine
 62
7
  6
CONTINUOUS
 10
538.3579363704
 20
30.9383121455
 11
538.1266865909
 21
31.0028395296
  0
LINE
  5
26F
100
AcDbEntity
  8
0
100
AcDbLine
 62
7
  6
CONTINUOUS
 10
537.0860615909
 20
31.7449043851
 11
536.9126240909
 21
31.809431758
  0
LINE
  5
270
100
AcDbEntity
  8
0
100
AcDbLine
 62
7
  6
CONTINUOUS
 10
539.3407487601
 20
31.7449043851
 11
539.1673112601
 21
31.809431758
  0
LINE
  5
271
100
AcDbEntity
  8
0
100
AcDbLine
 62
7
  6
CONTINUOUS
 10
542.0001242012
 20
31.6481133259
 11
542.1157487601
 21
31.583585953
  0
LINE
  5
272
100
AcDbEntity
  8
0
100
AcDbLine
 62
7
  6
CONTINUOUS
 10
542.3469992012
 20
31.6803770123
 11
542.2313739807
 21
31.7449043851
  0
LINE
  5
273
100
AcDbEntity
  8
0
100
AcDbLine
 62
7
  6
CONTINUOUS
 10
533.8485614944
 20
30.873784767
 11
534.0219989944
 21
30.8415210777
  0
LINE
  5
274
100
AcDbEntity
  8
0
100
AcDbLine
 62
7
  6
CONTINUOUS
 10
534.3110615082
 20
30.9383121455
 11
533.9641864669
 21
31.0028395296
  0
LINE
  5
275
100
AcDbEntity
  8
0
100
AcDbLine
 62
7
  6
CONTINUOUS
 10
536.7391865909
 20
31.6803770123
 11
536.8548114807
 21
31.6481133259
  0
LINE
  5
276
100
AcDbEntity
  8
0
100
AcDbLine
 62
7
  6
CONTINUOUS
 10
539.0516867012
 20
31.6803770123
 11
539.1673112601
 21
31.6481133259
  0
LINE
  5
277
100
AcDbEntity
  8
0
100
AcDbLine
 62
7
  6
CONTINUOUS
 10
543.3876242012
 20
30.9705758432
 11
543.2719989807
 21
31.0028395296
  0
LINE
  5
278
100
AcDbEntity
  8
0
100
AcDbLine
 62
7
  6
CONTINUOUS
 10
541.8844989807
 20
31.6803770123
 11
542.0001242012
 21
31.6481133259
  0
LINE
  5
279
100
AcDbEntity
  8
0
100
AcDbLine
 62
7
  6
CONTINUOUS
 10
543.0407492012
 20
30.9383121455
 11
543.2141867012
 21
30.873784767
  0
LINE
  5
27A
100
AcDbEntity
  8
0
100
AcDbLine
 62
7
  6
CONTINUOUS
 10
542.2313739807
 20
31.7449043851
 11
542.0579364807
 21
31.809431758
  0
LINE
  5
27B
100
AcDbEntity
  8
0
100
AcDbLine
 62
7
  6
CONTINUOUS
 10
543.4454364807
 20
31.4545312073
 11
543.2719989807
 21
31.5190585802
  0
LINE
  5
27C
100
AcDbEntity
  8
0
100
AcDbLine
 62
7
  6
CONTINUOUS
 10
544.2548117012
 20
31.1964216708
 11
544.4282492012
 21
31.1318942979
  0
LINE
  5
27D
100
AcDbEntity
  8
0
100
AcDbLine
 62
7
  6
CONTINUOUS
 10
544.6594989807
 20
31.7126406987
 11
544.4860614807
 21
31.7771680715
  0
LINE
  5
27E
100
AcDbEntity
  8
0
100
AcDbLine
 62
7
  6
CONTINUOUS
 10
543.0407492012
 20
31.4545312073
 11
543.2719989807
 21
31.3577401029
  0
LINE
  5
27F
100
AcDbEntity
  8
0
100
AcDbLine
 62
7
  6
CONTINUOUS
 10
544.6594989807
 20
31.1964216708
 11
544.4282492012
 21
31.29321273
  0
LINE
  5
280
100
AcDbEntity
  8
0
100
AcDbLine
 62
7
  6
CONTINUOUS
 10
543.2141867012
 20
31.583585953
 11
543.2719989807
 21
31.6481133259
  0
LINE
  5
281
100
AcDbEntity
  8
0
100
AcDbLine
 62
7
  6
CONTINUOUS
 10
533.6751239738
 20
31.7126406987
 11
533.5594989807
 21
31.6481133259
  0
LINE
  5
282
100
AcDbEntity
  8
0
100
AcDbLine
 62
7
  6
CONTINUOUS
 10
533.7907489669
 20
31.5513222666
 11
533.9641864669
 21
31.6481133259
  0
LINE
  5
283
100
AcDbEntity
  8
0
100
AcDbLine
 62
7
  6
CONTINUOUS
 10
536.1032490358
 20
31.7449043851
 11
535.9876239807
 21
31.6803770123
  0
LINE
  5
284
100
AcDbEntity
  8
0
100
AcDbLine
 62
7
  6
CONTINUOUS
 10
535.9876239807
 20
31.5513222666
 11
536.1032490358
 21
31.6158496394
  0
LINE
  5
285
100
AcDbEntity
  8
0
100
AcDbLine
 62
7
  6
CONTINUOUS
 10
535.0048114255
 20
30.9060484591
 11
535.1782489255
 21
31.0028395296
  0
LINE
  5
286
100
AcDbEntity
  8
0
100
AcDbLine
 62
7
  6
CONTINUOUS
 10
534.0219989944
 20
30.8415210777
 11
534.3688739531
 21
30.8092573885
  0
LINE
  5
287
100
AcDbEntity
  8
0
100
AcDbLine
 62
7
  6
CONTINUOUS
 10
538.1266865909
 20
30.8415210777
 11
538.3579363704
 21
30.8092573885
  0
LINE
  5
288
100
AcDbEntity
  8
0
100
AcDbLine
 62
7
  6
CONTINUOUS
 10
536.5079364807
 20
31.7126406987
 11
536.7391865909
 21
31.6803770123
  0
LINE
  5
289
100
AcDbEntity
  8
0
100
AcDbLine
 62
7
  6
CONTINUOUS
 10
538.8204365909
 20
31.7126406987
 11
539.0516867012
 21
31.6803770123
  0
LINE
  5
28A
100
AcDbEntity
  8
0
100
AcDbLine
 62
7
  6
CONTINUOUS
 10
543.2719989807
 20
31.3577401029
 11
544.2548117012
 21
31.1964216708
  0
LINE
  5
28B
100
AcDbEntity
  8
0
100
AcDbLine
 62
7
  6
CONTINUOUS
 10
544.4282492012
 20
31.29321273
 11
543.4454364807
 21
31.4545312073
  0
LINE
  5
28C
100
AcDbEntity
  8
0
100
AcDbLine
 62
7
  6
CONTINUOUS
 10
536.9126240909
 20
31.809431758
 11
536.7391865909
 21
31.8416954444
  0
LINE
  5
28D
100
AcDbEntity
  8
0
100
AcDbLine
 62
7
  6
CONTINUOUS
 10
543.2141867012
 20
30.873784767
 11
543.3876242012
 21
30.8415210777
  0
LINE
  5
28E
100
AcDbEntity
  8
0
100
AcDbLine
 62
7
  6
CONTINUOUS
 10
542.0579364807
 20
31.809431758
 11
541.8844989807
 21
31.8416954444
  0
LINE
  5
28F
100
AcDbEntity
  8
0
100
AcDbLine
 62
7
  6
CONTINUOUS
 10
544.3126239807
 20
31.6803770123
 11
544.4282492012
 21
31.6481133259
  0
LINE
  5
290
100
AcDbEntity
  8
0
100
AcDbLine
 62
7
  6
CONTINUOUS
 10
544.4860614807
 20
31.0673669025
 11
544.4282492012
 21
31.0028395296
  0
LINE
  5
291
100
AcDbEntity
  8
0
100
AcDbLine
 62
7
  6
CONTINUOUS
 10
543.0407492012
 20
31.7449043851
 11
542.9251239807
 21
31.6481133259
  0
LINE
  5
292
100
AcDbEntity
  8
0
100
AcDbLine
 62
7
  6
CONTINUOUS
 10
537.9532490909
 20
31.7771680715
 11
537.8376238704
 21
31.7126406987
  0
LINE
  5
293
100
AcDbEntity
  8
0
100
AcDbLine
 62
7
  6
CONTINUOUS
 10
538.0110613704
 20
31.3900038345
 11
537.8954364807
 21
31.3254764164
  0
LINE
  5
294
100
AcDbEntity
  8
0
100
AcDbLine
 62
7
  6
CONTINUOUS
 10
538.1266865909
 20
31.2286853572
 11
538.2423114807
 21
31.29321273
  0
LINE
  5
295
100
AcDbEntity
  8
0
100
AcDbLine
 62
7
  6
CONTINUOUS
 10
535.6985614255
 20
30.8092573885
 11
535.9876239807
 21
30.8092573885
  0
LINE
  5
296
100
AcDbEntity
  8
0
100
AcDbLine
 62
7
  6
CONTINUOUS
 10
537.0282489807
 20
30.8092573885
 11
537.3173113704
 21
30.8092573885
  0
LINE
  5
297
100
AcDbEntity
  8
0
100
AcDbLine
 62
7
  6
CONTINUOUS
 10
538.3579363704
 20
30.8092573885
 11
538.7048113704
 21
30.8092573885
  0
LINE
  5
298
100
AcDbEntity
  8
0
100
AcDbLine
 62
7
  6
CONTINUOUS
 10
539.3407487601
 20
30.8092573885
 11
539.6298114807
 21
30.8092573885
  0
LINE
  5
299
100
AcDbEntity
  8
0
100
AcDbLine
 62
7
  6
CONTINUOUS
 10
540.0923117012
 20
30.8092573885
 11
540.3813737601
 21
30.8092573885
  0
LINE
  5
29A
100
AcDbEntity
  8
0
100
AcDbLine
 62
7
  6
CONTINUOUS
 10
540.8438739807
 20
30.8092573885
 11
541.1329367012
 21
30.8092573885
  0
LINE
  5
29B
100
AcDbEntity
  8
0
100
AcDbLine
 62
7
  6
CONTINUOUS
 10
542.1735617012
 20
30.8092573885
 11
542.4626237601
 21
30.8092573885
  0
LINE
  5
29C
100
AcDbEntity
  8
0
100
AcDbLine
 62
7
  6
CONTINUOUS
 10
543.7344992012
 20
30.8092573885
 11
544.0813742012
 21
30.8092573885
  0
LINE
  5
29D
100
AcDbEntity
  8
0
100
AcDbLine
 62
7
  6
CONTINUOUS
 10
544.0813742012
 20
30.9383121455
 11
543.7344992012
 21
30.9383121455
  0
LINE
  5
29E
100
AcDbEntity
  8
0
100
AcDbLine
 62
7
  6
CONTINUOUS
 10
538.7048113704
 20
30.9383121455
 11
538.3579363704
 21
30.9383121455
  0
LINE
  5
29F
100
AcDbEntity
  8
0
100
AcDbLine
 62
7
  6
CONTINUOUS
 10
543.2141867012
 20
31.0673669025
 11
542.9251239807
 21
31.0673669025
  0
LINE
  5
2A0
100
AcDbEntity
  8
0
100
AcDbLine
 62
7
  6
CONTINUOUS
 10
535.2360615358
 20
31.1318942979
 11
534.9469989807
 21
31.1318942979
  0
LINE
  5
2A1
100
AcDbEntity
  8
0
100
AcDbLine
 62
7
  6
CONTINUOUS
 10
534.3110615082
 20
31.7126406987
 11
534.7157489531
 21
31.6803770123
  0
LINE
  5
2A2
100
AcDbEntity
  8
0
100
AcDbLine
 62
7
  6
CONTINUOUS
 10
534.7735614807
 20
31.809431758
 11
534.3688739531
 21
31.8416954444
  0
LINE
  5
2A3
100
AcDbEntity
  8
0
100
AcDbLine
 62
7
  6
CONTINUOUS
 10
543.3876242012
 20
30.8415210777
 11
543.7344992012
 21
30.8092573885
  0
LINE
  5
2A4
100
AcDbEntity
  8
0
100
AcDbLine
 62
7
  6
CONTINUOUS
 10
543.7344992012
 20
30.9383121455
 11
543.3876242012
 21
30.9705758432
  0
LINE
  5
2A5
100
AcDbEntity
  8
0
100
AcDbLine
 62
7
  6
CONTINUOUS
 10
539.1673112601
 20
31.809431758
 11
538.8204365909
 21
31.8416954444
  0
LINE
  5
2A6
100
AcDbEntity
  8
0
100
AcDbLine
 62
7
  6
CONTINUOUS
 10
543.9657489807
 20
31.7126406987
 11
544.3126239807
 21
31.6803770123
  0
LINE
  5
2A7
100
AcDbEntity
  8
0
100
AcDbLine
 62
7
  6
CONTINUOUS
 10
544.3126239807
 20
31.809431758
 11
543.9657489807
 21
31.8416954444
  0
LINE
  5
2A8
100
AcDbEntity
  8
0
100
AcDbLine
 62
7
  6
CONTINUOUS
 10
541.6532492012
 20
31.7126406987
 11
541.8844989807
 21
31.6803770123
  0
LINE
  5
2A9
100
AcDbEntity
  8
0
100
AcDbLine
 62
7
  6
CONTINUOUS
 10
544.4860614807
 20
31.7771680715
 11
544.3126239807
 21
31.809431758
  0
LINE
  5
2AA
100
AcDbEntity
  8
0
100
AcDbLine
 62
7
  6
CONTINUOUS
 10
544.6594989807
 20
30.9060484591
 11
544.7751235396
 21
31.0028395296
  0
LINE
  5
2AB
100
AcDbEntity
  8
0
100
AcDbLine
 62
7
  6
CONTINUOUS
 10
539.1673112601
 20
31.0996306115
 11
538.9938737601
 21
31.0028395296
  0
LINE
  5
2AC
100
AcDbEntity
  8
0
100
AcDbLine
 62
7
  6
CONTINUOUS
 10
541.2485612601
 20
31.7449043851
 11
541.1329367012
 21
31.6803770123
  0
LINE
  5
2AD
100
AcDbEntity
  8
0
100
AcDbLine
 62
7
  6
CONTINUOUS
 10
541.1329367012
 20
31.5513222666
 11
541.2485612601
 21
31.6158496394
  0
LINE
  5
2AE
100
AcDbEntity
  8
0
100
AcDbLine
 62
7
  6
CONTINUOUS
 10
533.8485614944
 20
31.7771680715
 11
533.6751239738
 21
31.7126406987
  0
LINE
  5
2AF
100
AcDbEntity
  8
0
100
AcDbLine
 62
7
  6
CONTINUOUS
 10
536.2766863704
 20
31.809431758
 11
536.1032490358
 21
31.7449043851
  0
LINE
  5
2B0
100
AcDbEntity
  8
0
100
AcDbLine
 62
7
  6
CONTINUOUS
 10
536.1032490358
 20
31.6158496394
 11
536.2766863704
 21
31.6803770123
  0
LINE
  5
2B1
100
AcDbEntity
  8
0
100
AcDbLine
 62
7
  6
CONTINUOUS
 10
534.8891865358
 20
31.035103216
 11
534.7157489531
 21
30.9705758432
  0
LINE
  5
2B2
100
AcDbEntity
  8
0
100
AcDbLine
 62
7
  6
CONTINUOUS
 10
544.3126239807
 20
30.9705758432
 11
544.0813742012
 21
30.9383121455
  0
LINE
  5
2B3
100
AcDbEntity
  8
0
100
AcDbLine
 62
7
  6
CONTINUOUS
 10
538.7048113704
 20
30.8092573885
 11
538.9938737601
 21
30.8415210777
  0
LINE
  5
2B4
100
AcDbEntity
  8
0
100
AcDbLine
 62
7
  6
CONTINUOUS
 10
544.0813742012
 20
30.8092573885
 11
544.4282492012
 21
30.8415210777
  0
LINE
  5
2B5
100
AcDbEntity
  8
0
100
AcDbLine
 62
7
  6
CONTINUOUS
 10
534.3688739531
 20
30.8092573885
 11
534.7735614807
 21
30.8415210777
  0
LINE
  5
2B6
100
AcDbEntity
  8
0
100
AcDbLine
 62
7
  6
CONTINUOUS
 10
534.7157489531
 20
30.9705758432
 11
534.3110615082
 21
30.9383121455
  0
LINE
  5
2B7
100
AcDbEntity
  8
0
100
AcDbLine
 62
7
  6
CONTINUOUS
 10
538.5891864807
 20
31.3577401029
 11
539.2251242012
 21
31.3577401029
  0
LINE
  5
2B8
100
AcDbEntity
  8
0
100
AcDbLine
 62
7
  6
CONTINUOUS
 10
539.2251242012
 20
31.4867948937
 11
538.5891864807
 21
31.4867948937
  0
LINE
  5
2B9
100
AcDbEntity
  8
0
100
AcDbLine
 62
7
  6
CONTINUOUS
 10
534.9469989807
 20
31.5190585802
 11
535.2360615358
 21
31.5190585802
  0
LINE
  5
2BA
100
AcDbEntity
  8
0
100
AcDbLine
 62
7
  6
CONTINUOUS
 10
537.7798115909
 20
31.583585953
 11
538.0688739807
 21
31.583585953
  0
LINE
  5
2BB
100
AcDbEntity
  8
0
100
AcDbLine
 62
7
  6
CONTINUOUS
 10
544.4860614807
 20
31.583585953
 11
544.7751235396
 21
31.583585953
  0
LINE
  5
2BC
100
AcDbEntity
  8
0
100
AcDbLine
 62
7
  6
CONTINUOUS
 10
538.4735615909
 20
31.7126406987
 11
538.8204365909
 21
31.7126406987
  0
LINE
  5
2BD
100
AcDbEntity
  8
0
100
AcDbLine
 62
7
  6
CONTINUOUS
 10
543.6188739807
 20
31.7126406987
 11
543.9657489807
 21
31.7126406987
  0
LINE
  5
2BE
100
AcDbEntity
  8
0
100
AcDbLine
 62
7
  6
CONTINUOUS
 10
543.9657489807
 20
31.8416954444
 11
543.6188739807
 21
31.8416954444
  0
LINE
  5
2BF
100
AcDbEntity
  8
0
100
AcDbLine
 62
7
  6
CONTINUOUS
 10
541.8844989807
 20
31.8416954444
 11
541.6532492012
 21
31.8416954444
  0
LINE
  5
2C0
100
AcDbEntity
  8
0
100
AcDbLine
 62
7
  6
CONTINUOUS
 10
541.1329367012
 20
31.8416954444
 11
540.8438739807
 21
31.8416954444
  0
LINE
  5
2C1
100
AcDbEntity
  8
0
100
AcDbLine
 62
7
  6
CONTINUOUS
 10
540.3813737601
 20
31.8416954444
 11
540.0923117012
 21
31.8416954444
  0
LINE
  5
2C2
100
AcDbEntity
  8
0
100
AcDbLine
 62
7
  6
CONTINUOUS
 10
538.8204365909
 20
31.8416954444
 11
538.4735615909
 21
31.8416954444
  0
LINE
  5
2C3
100
AcDbEntity
  8
0
100
AcDbLine
 62
7
  6
CONTINUOUS
 10
536.7391865909
 20
31.8416954444
 11
536.5079364807
 21
31.8416954444
  0
LINE
  5
2C4
100
AcDbEntity
  8
0
100
AcDbLine
 62
7
  6
CONTINUOUS
 10
540.0923117012
 20
32.164332399
 11
540.3813737601
 21
32.164332399
  0
LINE
  5
2C5
100
AcDbEntity
  8
0
100
AcDbLine
 62
7
  6
CONTINUOUS
 10
540.3813737601
 20
32.3256508311
 11
540.0923117012
 21
32.3256508311
  0
LINE
  5
2C6
100
AcDbEntity
  8
0
100
AcDbLine
 62
7
  6
CONTINUOUS
 10
535.9876239807
 20
32.3256508311
 11
535.6985614255
 21
32.3256508311
  0
LINE
  5
2C7
100
AcDbEntity
  8
0
100
AcDbLine
 62
7
  6
CONTINUOUS
 10
535.025405743
 20
32.612536077
 11
535.4379770916
 21
32.612536077
  0
LINE
  5
2C8
100
AcDbEntity
  8
0
100
AcDbLine
 62
7
  6
CONTINUOUS
 10
536.6647500053
 20
32.612536077
 11
538.0581926282
 21
32.612536077
  0
LINE
  5
2C9
100
AcDbEntity
  8
0
100
AcDbLine
 62
7
  6
CONTINUOUS
 10
538.3860614807
 20
32.612536077
 11
539.7795041036
 21
32.612536077
  0
LINE
  5
2CA
100
AcDbEntity
  8
0
100
AcDbLine
 62
7
  6
CONTINUOUS
 10
541.6647500053
 20
32.612536077
 11
543.0581926282
 21
32.612536077
  0
LINE
  5
2CB
100
AcDbEntity
  8
0
100
AcDbLine
 62
7
  6
CONTINUOUS
 10
543.3860614807
 20
32.612536077
 11
544.7795041036
 21
32.612536077
  0
LINE
  5
2CC
100
AcDbEntity
  8
0
100
AcDbLine
 62
7
  6
CONTINUOUS
 10
541.4219987601
 20
31.809431758
 11
541.2485612601
 21
31.7449043851
  0
LINE
  5
2CD
100
AcDbEntity
  8
0
100
AcDbLine
 62
7
  6
CONTINUOUS
 10
538.9938737601
 20
30.8415210777
 11
539.1673112601
 21
30.9060484591
  0
LINE
  5
2CE
100
AcDbEntity
  8
0
100
AcDbLine
 62
7
  6
CONTINUOUS
 10
544.4282492012
 20
30.8415210777
 11
544.6594989807
 21
30.9060484591
  0
LINE
  5
2CF
100
AcDbEntity
  8
0
100
AcDbLine
 62
7
  6
CONTINUOUS
 10
544.4282492012
 20
31.0028395296
 11
544.3126239807
 21
30.9705758432
  0
LINE
  5
2D0
100
AcDbEntity
  8
0
100
AcDbLine
 62
7
  6
CONTINUOUS
 10
543.3876242012
 20
31.6803770123
 11
543.6188739807
 21
31.7126406987
  0
LINE
  5
2D1
100
AcDbEntity
  8
0
100
AcDbLine
 62
7
  6
CONTINUOUS
 10
541.4219987601
 20
31.6803770123
 11
541.6532492012
 21
31.7126406987
  0
LINE
  5
2D2
100
AcDbEntity
  8
0
100
AcDbLine
 62
7
  6
CONTINUOUS
 10
538.3579363704
 20
31.3254764164
 11
538.5891864807
 21
31.3577401029
  0
LINE
  5
2D3
100
AcDbEntity
  8
0
100
AcDbLine
 62
7
  6
CONTINUOUS
 10
541.6532492012
 20
31.8416954444
 11
541.4219987601
 21
31.809431758
  0
LINE
  5
2D4
100
AcDbEntity
  8
0
100
AcDbLine
 62
7
  6
CONTINUOUS
 10
538.2423114807
 20
31.6803770123
 11
538.4735615909
 21
31.7126406987
  0
LINE
  5
2D5
100
AcDbEntity
  8
0
100
AcDbLine
 62
7
  6
CONTINUOUS
 10
543.6188739807
 20
31.8416954444
 11
543.2719989807
 21
31.809431758
  0
LINE
  5
2D6
100
AcDbEntity
  8
0
100
AcDbLine
 62
7
  6
CONTINUOUS
 10
538.5891864807
 20
31.4867948937
 11
538.2423114807
 21
31.4545312073
  0
LINE
  5
2D7
100
AcDbEntity
  8
0
100
AcDbLine
 62
7
  6
CONTINUOUS
 10
534.3688739531
 20
31.8416954444
 11
534.0219989944
 21
31.809431758
  0
LINE
  5
2D8
100
AcDbEntity
  8
0
100
AcDbLine
 62
7
  6
CONTINUOUS
 10
538.4735615909
 20
31.8416954444
 11
538.0688739807
 21
31.809431758
  0
LINE
  5
2D9
100
AcDbEntity
  8
0
100
AcDbLine
 62
7
  6
CONTINUOUS
 10
535.8450778741
 20
33.7600770606
 11
535.1893401692
 21
33.7600770606
  0
LINE
  5
2DA
100
AcDbEntity
  8
0
100
AcDbLine
 62
7
  6
CONTINUOUS
 10
541.2485612601
 20
31.6158496394
 11
541.4219987601
 21
31.6803770123
  0
LINE
  5
2DB
100
AcDbEntity
  8
0
100
AcDbLine
 62
7
  6
CONTINUOUS
 10
543.2719989807
 20
31.6481133259
 11
543.3876242012
 21
31.6803770123
  0
LINE
  5
2DC
100
AcDbEntity
  8
0
100
AcDbLine
 62
7
  6
CONTINUOUS
 10
543.2719989807
 20
31.809431758
 11
543.0407492012
 21
31.7449043851
  0
LINE
  5
2DD
100
AcDbEntity
  8
0
100
AcDbLine
 62
7
  6
CONTINUOUS
 10
538.9938737601
 20
31.0028395296
 11
538.7048113704
 21
30.9383121455
  0
LINE
  5
2DE
100
AcDbEntity
  8
0
100
AcDbLine
 62
7
  6
CONTINUOUS
 10
536.2766863704
 20
31.6803770123
 11
536.5079364807
 21
31.7126406987
  0
LINE
  5
2DF
100
AcDbEntity
  8
0
100
AcDbLine
 62
7
  6
CONTINUOUS
 10
536.5079364807
 20
31.8416954444
 11
536.2766863704
 21
31.809431758
  0
LINE
  5
2E0
100
AcDbEntity
  8
0
100
AcDbLine
 62
7
  6
CONTINUOUS
 10
534.0798114807
 20
31.6803770123
 11
534.3110615082
 21
31.7126406987
  0
LINE
  5
2E1
100
AcDbEntity
  8
0
100
AcDbLine
 62
7
  6
CONTINUOUS
 10
540.5991762348
 20
35.2354868967
 11
541.2549139397
 21
35.2354868967
  0
LINE
  5
2E2
100
AcDbEntity
  8
0
100
AcDbLine
 62
7
  6
CONTINUOUS
 10
538.2423114807
 20
31.29321273
 11
538.3579363704
 21
31.3254764164
  0
LINE
  5
2E3
100
AcDbEntity
  8
0
100
AcDbLine
 62
7
  6
CONTINUOUS
 10
538.2423114807
 20
31.4545312073
 11
538.0110613704
 21
31.3900038345
  0
LINE
  5
2E4
100
AcDbEntity
  8
0
100
AcDbLine
 62
7
  6
CONTINUOUS
 10
538.1266865909
 20
31.6481133259
 11
538.2423114807
 21
31.6803770123
  0
LINE
  5
2E5
100
AcDbEntity
  8
0
100
AcDbLine
 62
7
  6
CONTINUOUS
 10
534.7735614807
 20
30.8415210777
 11
535.0048114255
 21
30.9060484591
  0
LINE
  5
2E6
100
AcDbEntity
  8
0
100
AcDbLine
 62
7
  6
CONTINUOUS
 10
538.0688739807
 20
31.809431758
 11
537.9532490909
 21
31.7771680715
  0
LINE
  5
2E7
100
AcDbEntity
  8
0
100
AcDbLine
 62
7
  6
CONTINUOUS
 10
534.0219989944
 20
31.809431758
 11
533.8485614944
 21
31.7771680715
  0
LINE
  5
2E8
100
AcDbEntity
  8
0
100
AcDbLine
 62
7
  6
CONTINUOUS
 10
544.7795041036
 20
36.3830278803
 11
543.3860614807
 21
36.3830278803
  0
LINE
  5
2E9
100
AcDbEntity
  8
0
100
AcDbLine
 62
7
  6
CONTINUOUS
 10
541.4188483659
 20
36.3830278803
 11
541.0062770173
 21
36.3830278803
  0
LINE
  5
2EA
100
AcDbEntity
  8
0
100
AcDbLine
 62
7
  6
CONTINUOUS
 10
539.7795041036
 20
36.3830278803
 11
538.3860614807
 21
36.3830278803
  0
LINE
  5
2EB
100
AcDbEntity
  8
0
100
AcDbLine
 62
7
  6
CONTINUOUS
 10
538.0581926282
 20
36.3830278803
 11
536.6647500053
 21
36.3830278803
  0
LINE
  5
2EC
100
AcDbEntity
  8
0
100
AcDbLine
 62
7
  6
CONTINUOUS
 10
534.7795041036
 20
36.3830278803
 11
533.3860614807
 21
36.3830278803
  0
LINE
  5
2ED
100
AcDbEntity
  8
0
100
AcDbLine
 62
7
  6
CONTINUOUS
 10
533.9641864669
 20
31.6481133259
 11
534.0798114807
 21
31.6803770123
  0
CIRCLE
  5
2EE
100
AcDbEntity
  8
0
100
AcDbCircle
 62
7
  6
CONTINUOUS
 10
544.0827827921
 20
38.7190934541
 40
2.0901639344
  0
ARC
  5
2EF
100
AcDbEntity
  8
0
100
AcDbCircle
 62
7
  6
CONTINUOUS
 10
535.025405743
 20
34.2518803393
 40
1.6393442623
100
AcDbArc
 50
180.0
 51
270.0
  0
ARC
  5
2F0
100
AcDbEntity
  8
0
100
AcDbCircle
 62
7
  6
CONTINUOUS
 10
541.4188483659
 20
34.743683618
 40
1.6393442623
100
AcDbArc
 50
0.0
 51
90.0
  0
ARC
  5
2F1
100
AcDbEntity
  8
0
100
AcDbCircle
 62
7
  6
CONTINUOUS
 10
535.4379770916
 20
34.0879459131
 40
1.4754098361
100
AcDbArc
 50
270.0
 51
326.2510114041
  0
ARC
  5
2F2
100
AcDbEntity
  8
0
100
AcDbCircle
 62
7
  6
CONTINUOUS
 10
541.0062770173
 20
34.9076180442
 40
1.4754098361
100
AcDbArc
 50
90.0
 51
146.2510114041
  0
ARC
  5
2F3
100
AcDbEntity
  8
0
100
AcDbCircle
 62
7
  6
CONTINUOUS
 10
535.8450778741
 20
34.5797491918
 40
0.8196721311
100
AcDbArc
 50
270.0
 51
360.0
  0
ARC
  5
2F4
100
AcDbEntity
  8
0
100
AcDbCircle
 62
7
  6
CONTINUOUS
 10
540.5991762348
 20
34.4158147655
 40
0.8196721311
100
AcDbArc
 50
90.0
 51
180.0
  0
ARC
  5
2F5
100
AcDbEntity
  8
0
100
AcDbCircle
 62
7
  6
CONTINUOUS
 10
535.1893401692
 20
34.1699131262
 40
0.4098360656
100
AcDbArc
 50
180.0
 51
270.0
  0
ARC
  5
2F6
100
AcDbEntity
  8
0
100
AcDbCircle
 62
7
  6
CONTINUOUS
 10
541.2549139397
 20
34.8256508311
 40
0.4098360656
100
AcDbArc
 50
0.0
 51
90.0
  0
SOLID
  5
2F7
100
AcDbEntity
  8
0
100
AcDbTrace
 62
7
  6
CONTINUOUS
 10
540.0923117012
 20
32.1643327593
 11
540.0923117012
 21
32.3256512429
 12
540.3813737601
 22
32.1643327593
 13
540.3813737601
 23
32.3256512429
  0
LWPOLYLINE
  5
2F8
100
AcDbEntity
  8
0
100
AcDbPolyline
 62
7
  6
CONTINUOUS
 90
13
 70
0
 10
534.3688739531
 20
31.841695792
 10
534.7735614807
 20
31.8094314888
 10
535.0048114255
 20
31.7449043986
 10
535.1782489255
 20
31.6481130052
 10
535.2360615358
 20
31.5190588248
 10
534.9469989807
 20
31.5190588248
 10
534.8891865358
 20
31.6158502183
 10
534.7157489531
 20
31.6803773084
 10
534.3110615082
 20
31.7126400953
 10
533.6751239738
 20
31.7126400953
 10
533.8485614944
 20
31.7771687019
 10
534.0219989944
 20
31.8094314888
 10
534.3688739531
 20
31.841695792
  0
HATCH
  5
2F9
100
AcDbEntity
  8
0
100
AcDbHatch
 62
7
  6
CONTINUOUS
 10
0.0
 20
0.0
 30
0.0
210
0.0
220
0.0
230
1.0
  2
SOLID
 70
1
 71
1
 91
1
 92
1
 93
12
 72
1
 10
534.3688739531
 20
31.841695792
 11
534.7735614807
 21
31.8094314888
 72
1
 10
534.7735614807
 20
31.8094314888
 11
535.0048114255
 21
31.7449043986
 72
1
 10
535.0048114255
 20
31.7449043986
 11
535.1782489255
 21
31.6481130052
 72
1
 10
535.1782489255
 20
31.6481130052
 11
535.2360615358
 21
31.5190588248
 72
1
 10
535.2360615358
 20
31.5190588248
 11
534.9469989807
 21
31.5190588248
 72
1
 10
534.9469989807
 20
31.5190588248
 11
534.8891865358
 21
31.6158502183
 72
1
 10
534.8891865358
 20
31.6158502183
 11
534.7157489531
 21
31.6803773084
 72
1
 10
534.7157489531
 20
31.6803773084
 11
534.3110615082
 21
31.7126400953
 72
1
 10
534.3110615082
 20
31.7126400953
 11
533.6751239738
 21
31.7126400953
 72
1
 10
533.6751239738
 20
31.7126400953
 11
533.8485614944
 21
31.7771687019
 72
1
 10
533.8485614944
 20
31.7771687019
 11
534.0219989944
 21
31.8094314888
 72
1
 10
534.0219989944
 20
31.8094314888
 11
534.3688739531
 21
31.841695792
 97
1
330
2F8
 75
0
 76
1
 98
1
 10
0.0
 20
0.0
  0
LWPOLYLINE
  5
2FA
100
AcDbEntity
  8
0
100
AcDbPolyline
 62
7
  6
CONTINUOUS
 90
25
 70
0
 10
536.2766863704
 20
31.8094314888
 10
536.5079364807
 20
31.841695792
 10
536.7391865909
 20
31.841695792
 10
536.9126240909
 20
31.8094314888
 10
537.0860615909
 20
31.7449043986
 10
537.2016864807
 20
31.6803773084
 10
537.2594990909
 20
31.6158502183
 10
537.3173113704
 20
31.4545317347
 10
537.3173113704
 20
30.8092578002
 10
537.0282489807
 20
30.8092578002
 10
537.0282489807
 20
31.4545317347
 10
536.9704363704
 20
31.583585915
 10
536.8548114807
 20
31.6481130052
 10
536.7391865909
 20
31.6803773084
 10
536.5079364807
 20
31.7126400953
 10
536.2766863704
 20
31.6803773084
 10
536.1032490358
 20
31.6158502183
 10
535.9876239807
 20
31.5513216117
 10
535.9876239807
 20
30.8092578002
 10
535.6985614255
 20
30.8092578002
 10
535.6985614255
 20
32.3256512429
 10
535.9876239807
 20
32.3256512429
 10
535.9876239807
 20
31.6803773084
 10
536.1032490358
 20
31.7449043986
 10
536.2766863704
 20
31.8094314888
  0
HATCH
  5
2FB
100
AcDbEntity
  8
0
100
AcDbHatch
 62
7
  6
CONTINUOUS
 10
0.0
 20
0.0
 30
0.0
210
0.0
220
0.0
230
1.0
  2
SOLID
 70
1
 71
1
 91
1
 92
1
 93
24
 72
1
 10
536.2766863704
 20
31.8094314888
 11
536.5079364807
 21
31.841695792
 72
1
 10
536.5079364807
 20
31.841695792
 11
536.7391865909
 21
31.841695792
 72
1
 10
536.7391865909
 20
31.841695792
 11
536.9126240909
 21
31.8094314888
 72
1
 10
536.9126240909
 20
31.8094314888
 11
537.0860615909
 21
31.7449043986
 72
1
 10
537.0860615909
 20
31.7449043986
 11
537.2016864807
 21
31.6803773084
 72
1
 10
537.2016864807
 20
31.6803773084
 11
537.2594990909
 21
31.6158502183
 72
1
 10
537.2594990909
 20
31.6158502183
 11
537.3173113704
 21
31.4545317347
 72
1
 10
537.3173113704
 20
31.4545317347
 11
537.3173113704
 21
30.8092578002
 72
1
 10
537.3173113704
 20
30.8092578002
 11
537.0282489807
 21
30.8092578002
 72
1
 10
537.0282489807
 20
30.8092578002
 11
537.0282489807
 21
31.4545317347
 72
1
 10
537.0282489807
 20
31.4545317347
 11
536.9704363704
 21
31.583585915
 72
1
 10
536.9704363704
 20
31.583585915
 11
536.8548114807
 21
31.6481130052
 72
1
 10
536.8548114807
 20
31.6481130052
 11
536.7391865909
 21
31.6803773084
 72
1
 10
536.7391865909
 20
31.6803773084
 11
536.5079364807
 21
31.7126400953
 72
1
 10
536.5079364807
 20
31.7126400953
 11
536.2766863704
 21
31.6803773084
 72
1
 10
536.2766863704
 20
31.6803773084
 11
536.1032490358
 21
31.6158502183
 72
1
 10
536.1032490358
 20
31.6158502183
 11
535.9876239807
 21
31.5513216117
 72
1
 10
535.9876239807
 20
31.5513216117
 11
535.9876239807
 21
30.8092578002
 72
1
 10
535.9876239807
 20
30.8092578002
 11
535.6985614255
 21
30.8092578002
 72
1
 10
535.6985614255
 20
30.8092578002
 11
535.6985614255
 21
32.3256512429
 72
1
 10
535.6985614255
 20
32.3256512429
 11
535.9876239807
 21
32.3256512429
 72
1
 10
535.9876239807
 20
32.3256512429
 11
535.9876239807
 21
31.6803773084
 72
1
 10
535.9876239807
 20
31.6803773084
 11
536.1032490358
 21
31.7449043986
 72
1
 10
536.1032490358
 20
31.7449043986
 11
536.2766863704
 21
31.8094314888
 97
1
330
2FA
 75
0
 76
1
 98
1
 10
0.0
 20
0.0
  0
LWPOLYLINE
  5
2FC
100
AcDbEntity
  8
0
100
AcDbPolyline
 62
7
  6
CONTINUOUS
 90
20
 70
0
 10
538.0688739807
 20
31.8094314888
 10
538.4735615909
 20
31.841695792
 10
538.8204365909
 20
31.841695792
 10
539.1673112601
 20
31.8094314888
 10
539.3407487601
 20
31.7449043986
 10
539.4563739807
 20
31.6803773084
 10
539.5141862601
 20
31.583585915
 10
539.5141862601
 20
31.0673661609
 10
539.2251242012
 20
31.1641579843
 10
539.2251242012
 20
31.3577403412
 10
539.2251242012
 20
31.4867945216
 10
539.2251242012
 20
31.583585915
 10
539.1673112601
 20
31.6481130052
 10
539.0516867012
 20
31.6803773084
 10
538.8204365909
 20
31.7126400953
 10
538.4735615909
 20
31.7126400953
 10
537.7798115909
 20
31.6481130052
 10
537.8376238704
 20
31.7126400953
 10
537.9532490909
 20
31.7771687019
 10
538.0688739807
 20
31.8094314888
  0
HATCH
  5
2FD
100
AcDbEntity
  8
0
100
AcDbHatch
 62
7
  6
CONTINUOUS
 10
0.0
 20
0.0
 30
0.0
210
0.0
220
0.0
230
1.0
  2
SOLID
 70
1
 71
1
 91
1
 92
1
 93
19
 72
1
 10
538.0688739807
 20
31.8094314888
 11
538.4735615909
 21
31.841695792
 72
1
 10
538.4735615909
 20
31.841695792
 11
538.8204365909
 21
31.841695792
 72
1
 10
538.8204365909
 20
31.841695792
 11
539.1673112601
 21
31.8094314888
 72
1
 10
539.1673112601
 20
31.8094314888
 11
539.3407487601
 21
31.7449043986
 72
1
 10
539.3407487601
 20
31.7449043986
 11
539.4563739807
 21
31.6803773084
 72
1
 10
539.4563739807
 20
31.6803773084
 11
539.5141862601
 21
31.583585915
 72
1
 10
539.5141862601
 20
31.583585915
 11
539.5141862601
 21
31.0673661609
 72
1
 10
539.5141862601
 20
31.0673661609
 11
539.2251242012
 21
31.1641579843
 72
1
 10
539.2251242012
 20
31.1641579843
 11
539.2251242012
 21
31.3577403412
 72
1
 10
539.2251242012
 20
31.3577403412
 11
539.2251242012
 21
31.4867945216
 72
1
 10
539.2251242012
 20
31.4867945216
 11
539.2251242012
 21
31.583585915
 72
1
 10
539.2251242012
 20
31.583585915
 11
539.1673112601
 21
31.6481130052
 72
1
 10
539.1673112601
 20
31.6481130052
 11
539.0516867012
 21
31.6803773084
 72
1
 10
539.0516867012
 20
31.6803773084
 11
538.8204365909
 21
31.7126400953
 72
1
 10
538.8204365909
 20
31.7126400953
 11
538.4735615909
 21
31.7126400953
 72
1
 10
538.4735615909
 20
31.7126400953
 11
537.7798115909
 21
31.6481130052
 72
1
 10
537.7798115909
 20
31.6481130052
 11
537.8376238704
 21
31.7126400953
 72
1
 10
537.8376238704
 20
31.7126400953
 11
537.9532490909
 21
31.7771687019
 72
1
 10
537.9532490909
 20
31.7771687019
 11
538.0688739807
 21
31.8094314888
 97
1
330
2FC
 75
0
 76
1
 98
1
 10
0.0
 20
0.0
  0
LWPOLYLINE
  5
2FE
100
AcDbEntity
  8
0
100
AcDbPolyline
 62
7
  6
CONTINUOUS
 90
25
 70
0
 10
541.4219987601
 20
31.8094314888
 10
541.6532492012
 20
31.841695792
 10
541.8844989807
 20
31.841695792
 10
542.0579364807
 20
31.8094314888
 10
542.2313739807
 20
31.7449043986
 10
542.3469992012
 20
31.6803773084
 10
542.4048114807
 20
31.583585915
 10
542.4626237601
 20
31.4222674314
 10
542.4626237601
 20
30.8092578002
 10
542.1735617012
 20
30.8092578002
 10
542.1735617012
 20
31.4222674314
 10
542.1157487601
 20
31.583585915
 10
542.0001242012
 20
31.6481130052
 10
541.8844989807
 20
31.6803773084
 10
541.6532492012
 20
31.7126400953
 10
541.4219987601
 20
31.6803773084
 10
541.2485612601
 20
31.6158502183
 10
541.1329367012
 20
31.5513216117
 10
541.1329367012
 20
30.8092578002
 10
540.8438739807
 20
30.8092578002
 10
540.8438739807
 20
31.841695792
 10
541.1329367012
 20
31.841695792
 10
541.1329367012
 20
31.6803773084
 10
541.2485612601
 20
31.7449043986
 10
541.4219987601
 20
31.8094314888
  0
HATCH
  5
2FF
100
AcDbEntity
  8
0
100
AcDbHatch
 62
7
  6
CONTINUOUS
 10
0.0
 20
0.0
 30
0.0
210
0.0
220
0.0
230
1.0
  2
SOLID
 70
1
 71
1
 91
1
 92
1
 93
24
 72
1
 10
541.4219987601
 20
31.8094314888
 11
541.6532492012
 21
31.841695792
 72
1
 10
541.6532492012
 20
31.841695792
 11
541.8844989807
 21
31.841695792
 72
1
 10
541.8844989807
 20
31.841695792
 11
542.0579364807
 21
31.8094314888
 72
1
 10
542.0579364807
 20
31.8094314888
 11
542.2313739807
 21
31.7449043986
 72
1
 10
542.2313739807
 20
31.7449043986
 11
542.3469992012
 21
31.6803773084
 72
1
 10
542.3469992012
 20
31.6803773084
 11
542.4048114807
 21
31.583585915
 72
1
 10
542.4048114807
 20
31.583585915
 11
542.4626237601
 21
31.4222674314
 72
1
 10
542.4626237601
 20
31.4222674314
 11
542.4626237601
 21
30.8092578002
 72
1
 10
542.4626237601
 20
30.8092578002
 11
542.1735617012
 21
30.8092578002
 72
1
 10
542.1735617012
 20
30.8092578002
 11
542.1735617012
 21
31.4222674314
 72
1
 10
542.1735617012
 20
31.4222674314
 11
542.1157487601
 21
31.583585915
 72
1
 10
542.1157487601
 20
31.583585915
 11
542.0001242012
 21
31.6481130052
 72
1
 10
542.0001242012
 20
31.6481130052
 11
541.8844989807
 21
31.6803773084
 72
1
 10
541.8844989807
 20
31.6803773084
 11
541.6532492012
 21
31.7126400953
 72
1
 10
541.6532492012
 20
31.7126400953
 11
541.4219987601
 21
31.6803773084
 72
1
 10
541.4219987601
 20
31.6803773084
 11
541.2485612601
 21
31.6158502183
 72
1
 10
541.2485612601
 20
31.6158502183
 11
541.1329367012
 21
31.5513216117
 72
1
 10
541.1329367012
 20
31.5513216117
 11
541.1329367012
 21
30.8092578002
 72
1
 10
541.1329367012
 20
30.8092578002
 11
540.8438739807
 21
30.8092578002
 72
1
 10
540.8438739807
 20
30.8092578002
 11
540.8438739807
 21
31.841695792
 72
1
 10
540.8438739807
 20
31.841695792
 11
541.1329367012
 21
31.841695792
 72
1
 10
541.1329367012
 20
31.841695792
 11
541.1329367012
 21
31.6803773084
 72
1
 10
541.1329367012
 20
31.6803773084
 11
541.2485612601
 21
31.7449043986
 72
1
 10
541.2485612601
 20
31.7449043986
 11
541.4219987601
 21
31.8094314888
 97
1
330
2FE
 75
0
 76
1
 98
1
 10
0.0
 20
0.0
  0
LWPOLYLINE
  5
300
100
AcDbEntity
  8
0
100
AcDbPolyline
 62
7
  6
CONTINUOUS
 90
6
 70
0
 10
543.2719989807
 20
31.8094314888
 10
543.6188739807
 20
31.841695792
 10
543.9657489807
 20
31.841695792
 10
544.3126239807
 20
31.8094314888
 10
543.0407492012
 20
31.7449043986
 10
543.2719989807
 20
31.8094314888
  0
HATCH
  5
301
100
AcDbEntity
  8
0
100
AcDbHatch
 62
7
  6
CONTINUOUS
 10
0.0
 20
0.0
 30
0.0
210
0.0
220
0.0
230
1.0
  2
SOLID
 70
1
 71
1
 91
1
 92
1
 93
5
 72
1
 10
543.2719989807
 20
31.8094314888
 11
543.6188739807
 21
31.841695792
 72
1
 10
543.6188739807
 20
31.841695792
 11
543.9657489807
 21
31.841695792
 72
1
 10
543.9657489807
 20
31.841695792
 11
544.3126239807
 21
31.8094314888
 72
1
 10
544.3126239807
 20
31.8094314888
 11
543.0407492012
 21
31.7449043986
 72
1
 10
543.0407492012
 20
31.7449043986
 11
543.2719989807
 21
31.8094314888
 97
1
330
300
 75
0
 76
1
 98
1
 10
0.0
 20
0.0
  0
LWPOLYLINE
  5
302
100
AcDbEntity
  8
0
100
AcDbPolyline
 62
7
  6
CONTINUOUS
 90
12
 70
0
 10
544.4860614807
 20
31.7771687019
 10
544.6594989807
 20
31.7126400953
 10
544.7751235396
 20
31.583585915
 10
544.4860614807
 20
31.583585915
 10
544.4282492012
 20
31.6481130052
 10
544.3126239807
 20
31.6803773084
 10
543.9657489807
 20
31.7126400953
 10
543.6188739807
 20
31.7126400953
 10
542.9251239807
 20
31.6481130052
 10
543.0407492012
 20
31.7449043986
 10
544.3126239807
 20
31.8094314888
 10
544.4860614807
 20
31.7771687019
  0
HATCH
  5
303
100
AcDbEntity
  8
0
100
AcDbHatch
 62
7
  6
CONTINUOUS
 10
0.0
 20
0.0
 30
0.0
210
0.0
220
0.0
230
1.0
  2
SOLID
 70
1
 71
1
 91
1
 92
1
 93
11
 72
1
 10
544.4860614807
 20
31.7771687019
 11
544.6594989807
 21
31.7126400953
 72
1
 10
544.6594989807
 20
31.7126400953
 11
544.7751235396
 21
31.583585915
 72
1
 10
544.7751235396
 20
31.583585915
 11
544.4860614807
 21
31.583585915
 72
1
 10
544.4860614807
 20
31.583585915
 11
544.4282492012
 21
31.6481130052
 72
1
 10
544.4282492012
 20
31.6481130052
 11
544.3126239807
 21
31.6803773084
 72
1
 10
544.3126239807
 20
31.6803773084
 11
543.9657489807
 21
31.7126400953
 72
1
 10
543.9657489807
 20
31.7126400953
 11
543.6188739807
 21
31.7126400953
 72
1
 10
543.6188739807
 20
31.7126400953
 11
542.9251239807
 21
31.6481130052
 72
1
 10
542.9251239807
 20
31.6481130052
 11
543.0407492012
 21
31.7449043986
 72
1
 10
543.0407492012
 20
31.7449043986
 11
544.3126239807
 21
31.8094314888
 72
1
 10
544.3126239807
 20
31.8094314888
 11
544.4860614807
 21
31.7771687019
 97
1
330
302
 75
0
 76
1
 98
1
 10
0.0
 20
0.0
  0
LWPOLYLINE
  5
304
100
AcDbEntity
  8
0
100
AcDbPolyline
 62
7
  6
CONTINUOUS
 90
7
 70
0
 10
534.0798114807
 20
31.6803773084
 10
533.9641864669
 20
31.6481130052
 10
533.4438739824
 20
31.5190588248
 10
533.5594989807
 20
31.6481130052
 10
533.6751239738
 20
31.7126400953
 10
534.3110615082
 20
31.7126400953
 10
534.0798114807
 20
31.6803773084
  0
HATCH
  5
305
100
AcDbEntity
  8
0
100
AcDbHatch
 62
7
  6
CONTINUOUS
 10
0.0
 20
0.0
 30
0.0
210
0.0
220
0.0
230
1.0
  2
SOLID
 70
1
 71
1
 91
1
 92
1
 93
6
 72
1
 10
534.0798114807
 20
31.6803773084
 11
533.9641864669
 21
31.6481130052
 72
1
 10
533.9641864669
 20
31.6481130052
 11
533.4438739824
 21
31.5190588248
 72
1
 10
533.4438739824
 20
31.5190588248
 11
533.5594989807
 21
31.6481130052
 72
1
 10
533.5594989807
 20
31.6481130052
 11
533.6751239738
 21
31.7126400953
 72
1
 10
533.6751239738
 20
31.7126400953
 11
534.3110615082
 21
31.7126400953
 72
1
 10
534.3110615082
 20
31.7126400953
 11
534.0798114807
 21
31.6803773084
 97
1
330
304
 75
0
 76
1
 98
1
 10
0.0
 20
0.0
  0
LWPOLYLINE
  5
306
100
AcDbEntity
  8
0
100
AcDbPolyline
 62
7
  6
CONTINUOUS
 90
7
 70
0
 10
538.2423114807
 20
31.6803773084
 10
538.1266865909
 20
31.6481130052
 10
538.0688739807
 20
31.583585915
 10
537.7798115909
 20
31.583585915
 10
537.7798115909
 20
31.6481130052
 10
538.4735615909
 20
31.7126400953
 10
538.2423114807
 20
31.6803773084
  0
HATCH
  5
307
100
AcDbEntity
  8
0
100
AcDbHatch
 62
7
  6
CONTINUOUS
 10
0.0
 20
0.0
 30
0.0
210
0.0
220
0.0
230
1.0
  2
SOLID
 70
1
 71
1
 91
1
 92
1
 93
6
 72
1
 10
538.2423114807
 20
31.6803773084
 11
538.1266865909
 21
31.6481130052
 72
1
 10
538.1266865909
 20
31.6481130052
 11
538.0688739807
 21
31.583585915
 72
1
 10
538.0688739807
 20
31.583585915
 11
537.7798115909
 21
31.583585915
 72
1
 10
537.7798115909
 20
31.583585915
 11
537.7798115909
 21
31.6481130052
 72
1
 10
537.7798115909
 20
31.6481130052
 11
538.4735615909
 21
31.7126400953
 72
1
 10
538.4735615909
 20
31.7126400953
 11
538.2423114807
 21
31.6803773084
 97
1
330
306
 75
0
 76
1
 98
1
 10
0.0
 20
0.0
  0
LWPOLYLINE
  5
308
100
AcDbEntity
  8
0
100
AcDbPolyline
 62
7
  6
CONTINUOUS
 90
8
 70
0
 10
543.3876242012
 20
31.6803773084
 10
543.2719989807
 20
31.6481130052
 10
543.2141867012
 20
31.583585915
 10
543.0407492012
 20
31.4545317347
 10
542.9251239807
 20
31.583585915
 10
542.9251239807
 20
31.6481130052
 10
543.6188739807
 20
31.7126400953
 10
543.3876242012
 20
31.6803773084
  0
HATCH
  5
309
100
AcDbEntity
  8
0
100
AcDbHatch
 62
7
  6
CONTINUOUS
 10
0.0
 20
0.0
 30
0.0
210
0.0
220
0.0
230
1.0
  2
SOLID
 70
1
 71
1
 91
1
 92
1
 93
7
 72
1
 10
543.3876242012
 20
31.6803773084
 11
543.2719989807
 21
31.6481130052
 72
1
 10
543.2719989807
 20
31.6481130052
 11
543.2141867012
 21
31.583585915
 72
1
 10
543.2141867012
 20
31.583585915
 11
543.0407492012
 21
31.4545317347
 72
1
 10
543.0407492012
 20
31.4545317347
 11
542.9251239807
 21
31.583585915
 72
1
 10
542.9251239807
 20
31.583585915
 11
542.9251239807
 21
31.6481130052
 72
1
 10
542.9251239807
 20
31.6481130052
 11
543.6188739807
 21
31.7126400953
 72
1
 10
543.6188739807
 20
31.7126400953
 11
543.3876242012
 21
31.6803773084
 97
1
330
308
 75
0
 76
1
 98
1
 10
0.0
 20
0.0
  0
LWPOLYLINE
  5
30A
100
AcDbEntity
  8
0
100
AcDbPolyline
 62
7
  6
CONTINUOUS
 90
6
 70
0
 10
533.7907489669
 20
31.5513216117
 10
533.7329364807
 20
31.4867945216
 10
533.3860614807
 20
31.325476038
 10
533.4438739824
 20
31.5190588248
 10
533.9641864669
 20
31.6481130052
 10
533.7907489669
 20
31.5513216117
  0
HATCH
  5
30B
100
AcDbEntity
  8
0
100
AcDbHatch
 62
7
  6
CONTINUOUS
 10
0.0
 20
0.0
 30
0.0
210
0.0
220
0.0
230
1.0
  2
SOLID
 70
1
 71
1
 91
1
 92
1
 93
5
 72
1
 10
533.7907489669
 20
31.5513216117
 11
533.7329364807
 21
31.4867945216
 72
1
 10
533.7329364807
 20
31.4867945216
 11
533.3860614807
 21
31.325476038
 72
1
 10
533.3860614807
 20
31.325476038
 11
533.4438739824
 21
31.5190588248
 72
1
 10
533.4438739824
 20
31.5190588248
 11
533.9641864669
 21
31.6481130052
 72
1
 10
533.9641864669
 20
31.6481130052
 11
533.7907489669
 21
31.5513216117
 97
1
330
30A
 75
0
 76
1
 98
1
 10
0.0
 20
0.0
  0
LWPOLYLINE
  5
30C
100
AcDbEntity
  8
0
100
AcDbPolyline
 62
7
  6
CONTINUOUS
 90
7
 70
0
 10
538.2423114807
 20
31.4545317347
 10
538.5891864807
 20
31.4867945216
 10
539.2251242012
 20
31.4867945216
 10
539.2251242012
 20
31.3577403412
 10
538.5891864807
 20
31.3577403412
 10
538.0110613704
 20
31.3900038345
 10
538.2423114807
 20
31.4545317347
  0
HATCH
  5
30D
100
AcDbEntity
  8
0
100
AcDbHatch
 62
7
  6
CONTINUOUS
 10
0.0
 20
0.0
 30
0.0
210
0.0
220
0.0
230
1.0
  2
SOLID
 70
1
 71
1
 91
1
 92
1
 93
6
 72
1
 10
538.2423114807
 20
31.4545317347
 11
538.5891864807
 21
31.4867945216
 72
1
 10
538.5891864807
 20
31.4867945216
 11
539.2251242012
 21
31.4867945216
 72
1
 10
539.2251242012
 20
31.4867945216
 11
539.2251242012
 21
31.3577403412
 72
1
 10
539.2251242012
 20
31.3577403412
 11
538.5891864807
 21
31.3577403412
 72
1
 10
538.5891864807
 20
31.3577403412
 11
538.0110613704
 21
31.3900038345
 72
1
 10
538.0110613704
 20
31.3900038345
 11
538.2423114807
 21
31.4545317347
 97
1
330
30C
 75
0
 76
1
 98
1
 10
0.0
 20
0.0
  0
LWPOLYLINE
  5
30E
100
AcDbEntity
  8
0
100
AcDbPolyline
 62
7
  6
CONTINUOUS
 90
24
 70
0
 10
543.2719989807
 20
31.5190588248
 10
543.4454364807
 20
31.4545317347
 10
544.4282492012
 20
31.2932132511
 10
544.6594989807
 20
31.1964218576
 10
544.7751235396
 20
31.0673661609
 10
544.7751235396
 20
31.0028390707
 10
544.6594989807
 20
30.9060491937
 10
544.4282492012
 20
30.8415205871
 10
544.0813742012
 20
30.8092578002
 10
543.7344992012
 20
30.8092578002
 10
543.3876242012
 20
30.8415205871
 10
543.2141867012
 20
30.8737848904
 10
543.0407492012
 20
30.9383119806
 10
543.7344992012
 20
30.9383119806
 10
544.0813742012
 20
30.9383119806
 10
544.3126239807
 20
30.9705762839
 10
544.4282492012
 20
31.0028390707
 10
544.4860614807
 20
31.0673661609
 10
544.4282492012
 20
31.1318947675
 10
544.2548117012
 20
31.1964218576
 10
543.2719989807
 20
31.3577403412
 10
543.0407492012
 20
31.4545317347
 10
543.2141867012
 20
31.583585915
 10
543.2719989807
 20
31.5190588248
  0
HATCH
  5
30F
100
AcDbEntity
  8
0
100
AcDbHatch
 62
7
  6
CONTINUOUS
 10
0.0
 20
0.0
 30
0.0
210
0.0
220
0.0
230
1.0
  2
SOLID
 70
1
 71
1
 91
1
 92
1
 93
23
 72
1
 10
543.2719989807
 20
31.5190588248
 11
543.4454364807
 21
31.4545317347
 72
1
 10
543.4454364807
 20
31.4545317347
 11
544.4282492012
 21
31.2932132511
 72
1
 10
544.4282492012
 20
31.2932132511
 11
544.6594989807
 21
31.1964218576
 72
1
 10
544.6594989807
 20
31.1964218576
 11
544.7751235396
 21
31.0673661609
 72
1
 10
544.7751235396
 20
31.0673661609
 11
544.7751235396
 21
31.0028390707
 72
1
 10
544.7751235396
 20
31.0028390707
 11
544.6594989807
 21
30.9060491937
 72
1
 10
544.6594989807
 20
30.9060491937
 11
544.4282492012
 21
30.8415205871
 72
1
 10
544.4282492012
 20
30.8415205871
 11
544.0813742012
 21
30.8092578002
 72
1
 10
544.0813742012
 20
30.8092578002
 11
543.7344992012
 21
30.8092578002
 72
1
 10
543.7344992012
 20
30.8092578002
 11
543.3876242012
 21
30.8415205871
 72
1
 10
543.3876242012
 20
30.8415205871
 11
543.2141867012
 21
30.8737848904
 72
1
 10
543.2141867012
 20
30.8737848904
 11
543.0407492012
 21
30.9383119806
 72
1
 10
543.0407492012
 20
30.9383119806
 11
543.7344992012
 21
30.9383119806
 72
1
 10
543.7344992012
 20
30.9383119806
 11
544.0813742012
 21
30.9383119806
 72
1
 10
544.0813742012
 20
30.9383119806
 11
544.3126239807
 21
30.9705762839
 72
1
 10
544.3126239807
 20
30.9705762839
 11
544.4282492012
 21
31.0028390707
 72
1
 10
544.4282492012
 20
31.0028390707
 11
544.4860614807
 21
31.0673661609
 72
1
 10
544.4860614807
 20
31.0673661609
 11
544.4282492012
 21
31.1318947675
 72
1
 10
544.4282492012
 20
31.1318947675
 11
544.2548117012
 21
31.1964218576
 72
1
 10
544.2548117012
 20
31.1964218576
 11
543.2719989807
 21
31.3577403412
 72
1
 10
543.2719989807
 20
31.3577403412
 11
543.0407492012
 21
31.4545317347
 72
1
 10
543.0407492012
 20
31.4545317347
 11
543.2141867012
 21
31.583585915
 72
1
 10
543.2141867012
 20
31.583585915
 11
543.2719989807
 21
31.5190588248
 97
1
330
30E
 75
0
 76
1
 98
1
 10
0.0
 20
0.0
  0
LWPOLYLINE
  5
310
100
AcDbEntity
  8
0
100
AcDbPolyline
 62
7
  6
CONTINUOUS
 90
12
 70
0
 10
533.6751239738
 20
31.3577403412
 10
533.6751239738
 20
31.2609490436
 10
533.7907489669
 20
31.0996304642
 10
533.9641864669
 20
31.0028390707
 10
534.3110615082
 20
30.9383119806
 10
533.8485614944
 20
30.8737848904
 10
533.6751239738
 20
30.9383119806
 10
533.5594989807
 20
31.0028390707
 10
533.4438739824
 20
31.1318947675
 10
533.3860614807
 20
31.325476038
 10
533.7329364807
 20
31.4867945216
 10
533.6751239738
 20
31.3577403412
  0
HATCH
  5
311
100
AcDbEntity
  8
0
100
AcDbHatch
 62
7
  6
CONTINUOUS
 10
0.0
 20
0.0
 30
0.0
210
0.0
220
0.0
230
1.0
  2
SOLID
 70
1
 71
1
 91
1
 92
1
 93
11
 72
1
 10
533.6751239738
 20
31.3577403412
 11
533.6751239738
 21
31.2609490436
 72
1
 10
533.6751239738
 20
31.2609490436
 11
533.7907489669
 21
31.0996304642
 72
1
 10
533.7907489669
 20
31.0996304642
 11
533.9641864669
 21
31.0028390707
 72
1
 10
533.9641864669
 20
31.0028390707
 11
534.3110615082
 21
30.9383119806
 72
1
 10
534.3110615082
 20
30.9383119806
 11
533.8485614944
 21
30.8737848904
 72
1
 10
533.8485614944
 20
30.8737848904
 11
533.6751239738
 21
30.9383119806
 72
1
 10
533.6751239738
 20
30.9383119806
 11
533.5594989807
 21
31.0028390707
 72
1
 10
533.5594989807
 20
31.0028390707
 11
533.4438739824
 21
31.1318947675
 72
1
 10
533.4438739824
 20
31.1318947675
 11
533.3860614807
 21
31.325476038
 72
1
 10
533.3860614807
 20
31.325476038
 11
533.7329364807
 21
31.4867945216
 72
1
 10
533.7329364807
 20
31.4867945216
 11
533.6751239738
 21
31.3577403412
 97
1
330
310
 75
0
 76
1
 98
1
 10
0.0
 20
0.0
  0
LWPOLYLINE
  5
312
100
AcDbEntity
  8
0
100
AcDbPolyline
 62
7
  6
CONTINUOUS
 90
6
 70
0
 10
537.8954364807
 20
31.325476038
 10
538.0110613704
 20
31.3900038345
 10
538.5891864807
 20
31.3577403412
 10
538.3579363704
 20
31.325476038
 10
537.7798115909
 20
31.1964218576
 10
537.8954364807
 20
31.325476038
  0
HATCH
  5
313
100
AcDbEntity
  8
0
100
AcDbHatch
 62
7
  6
CONTINUOUS
 10
0.0
 20
0.0
 30
0.0
210
0.0
220
0.0
230
1.0
  2
SOLID
 70
1
 71
1
 91
1
 92
1
 93
5
 72
1
 10
537.8954364807
 20
31.325476038
 11
538.0110613704
 21
31.3900038345
 72
1
 10
538.0110613704
 20
31.3900038345
 11
538.5891864807
 21
31.3577403412
 72
1
 10
538.5891864807
 20
31.3577403412
 11
538.3579363704
 21
31.325476038
 72
1
 10
538.3579363704
 20
31.325476038
 11
537.7798115909
 21
31.1964218576
 72
1
 10
537.7798115909
 20
31.1964218576
 11
537.8954364807
 21
31.325476038
 97
1
330
312
 75
0
 76
1
 98
1
 10
0.0
 20
0.0
  0
LWPOLYLINE
  5
314
100
AcDbEntity
  8
0
100
AcDbPolyline
 62
7
  6
CONTINUOUS
 90
9
 70
0
 10
538.1266865909
 20
31.2286853572
 10
538.0688739807
 20
31.1318947675
 10
538.0688739807
 20
31.0673661609
 10
537.8376238704
 20
30.9705762839
 10
537.7798115909
 20
31.0996304642
 10
537.7798115909
 20
31.1964218576
 10
538.3579363704
 20
31.325476038
 10
538.2423114807
 20
31.2932132511
 10
538.1266865909
 20
31.2286853572
  0
HATCH
  5
315
100
AcDbEntity
  8
0
100
AcDbHatch
 62
7
  6
CONTINUOUS
 10
0.0
 20
0.0
 30
0.0
210
0.0
220
0.0
230
1.0
  2
SOLID
 70
1
 71
1
 91
1
 92
1
 93
8
 72
1
 10
538.1266865909
 20
31.2286853572
 11
538.0688739807
 21
31.1318947675
 72
1
 10
538.0688739807
 20
31.1318947675
 11
538.0688739807
 21
31.0673661609
 72
1
 10
538.0688739807
 20
31.0673661609
 11
537.8376238704
 21
30.9705762839
 72
1
 10
537.8376238704
 20
30.9705762839
 11
537.7798115909
 21
31.0996304642
 72
1
 10
537.7798115909
 20
31.0996304642
 11
537.7798115909
 21
31.1964218576
 72
1
 10
537.7798115909
 20
31.1964218576
 11
538.3579363704
 21
31.325476038
 72
1
 10
538.3579363704
 20
31.325476038
 11
538.2423114807
 21
31.2932132511
 72
1
 10
538.2423114807
 20
31.2932132511
 11
538.1266865909
 21
31.2286853572
 97
1
330
314
 75
0
 76
1
 98
1
 10
0.0
 20
0.0
  0
LWPOLYLINE
  5
316
100
AcDbEntity
  8
0
100
AcDbPolyline
 62
7
  6
CONTINUOUS
 90
10
 70
0
 10
539.1673112601
 20
31.0996304642
 10
539.2251242012
 20
31.1641579843
 10
539.5141862601
 20
31.0673661609
 10
539.5719992012
 20
30.9060491937
 10
539.6298114807
 20
30.8092578002
 10
539.3407487601
 20
30.8092578002
 10
539.2829364807
 20
30.8737848904
 10
539.2251242012
 20
30.9705762839
 10
538.9938737601
 20
31.0028390707
 10
539.1673112601
 20
31.0996304642
  0
HATCH
  5
317
100
AcDbEntity
  8
0
100
AcDbHatch
 62
7
  6
CONTINUOUS
 10
0.0
 20
0.0
 30
0.0
210
0.0
220
0.0
230
1.0
  2
SOLID
 70
1
 71
1
 91
1
 92
1
 93
9
 72
1
 10
539.1673112601
 20
31.0996304642
 11
539.2251242012
 21
31.1641579843
 72
1
 10
539.2251242012
 20
31.1641579843
 11
539.5141862601
 21
31.0673661609
 72
1
 10
539.5141862601
 20
31.0673661609
 11
539.5719992012
 21
30.9060491937
 72
1
 10
539.5719992012
 20
30.9060491937
 11
539.6298114807
 21
30.8092578002
 72
1
 10
539.6298114807
 20
30.8092578002
 11
539.3407487601
 21
30.8092578002
 72
1
 10
539.3407487601
 20
30.8092578002
 11
539.2829364807
 21
30.8737848904
 72
1
 10
539.2829364807
 20
30.8737848904
 11
539.2251242012
 21
30.9705762839
 72
1
 10
539.2251242012
 20
30.9705762839
 11
538.9938737601
 21
31.0028390707
 72
1
 10
538.9938737601
 20
31.0028390707
 11
539.1673112601
 21
31.0996304642
 97
1
330
316
 75
0
 76
1
 98
1
 10
0.0
 20
0.0
  0
LWPOLYLINE
  5
318
100
AcDbEntity
  8
0
100
AcDbPolyline
 62
7
  6
CONTINUOUS
 90
12
 70
0
 10
534.8891865358
 20
31.035103216
 10
534.9469989807
 20
31.1318947675
 10
535.2360615358
 20
31.1318947675
 10
535.1782489255
 20
31.0028390707
 10
535.0048114255
 20
30.9060491937
 10
534.7735614807
 20
30.8415205871
 10
534.3688739531
 20
30.8092578002
 10
534.0219989944
 20
30.8415205871
 10
533.8485614944
 20
30.8737848904
 10
534.3110615082
 20
30.9383119806
 10
534.7157489531
 20
30.9705762839
 10
534.8891865358
 20
31.035103216
  0
HATCH
  5
319
100
AcDbEntity
  8
0
100
AcDbHatch
 62
7
  6
CONTINUOUS
 10
0.0
 20
0.0
 30
0.0
210
0.0
220
0.0
230
1.0
  2
SOLID
 70
1
 71
1
 91
1
 92
1
 93
11
 72
1
 10
534.8891865358
 20
31.035103216
 11
534.9469989807
 21
31.1318947675
 72
1
 10
534.9469989807
 20
31.1318947675
 11
535.2360615358
 21
31.1318947675
 72
1
 10
535.2360615358
 20
31.1318947675
 11
535.1782489255
 21
31.0028390707
 72
1
 10
535.1782489255
 20
31.0028390707
 11
535.0048114255
 21
30.9060491937
 72
1
 10
535.0048114255
 20
30.9060491937
 11
534.7735614807
 21
30.8415205871
 72
1
 10
534.7735614807
 20
30.8415205871
 11
534.3688739531
 21
30.8092578002
 72
1
 10
534.3688739531
 20
30.8092578002
 11
534.0219989944
 21
30.8415205871
 72
1
 10
534.0219989944
 20
30.8415205871
 11
533.8485614944
 21
30.8737848904
 72
1
 10
533.8485614944
 20
30.8737848904
 11
534.3110615082
 21
30.9383119806
 72
1
 10
534.3110615082
 20
30.9383119806
 11
534.7157489531
 21
30.9705762839
 72
1
 10
534.7157489531
 20
30.9705762839
 11
534.8891865358
 21
31.035103216
 97
1
330
318
 75
0
 76
1
 98
1
 10
0.0
 20
0.0
  0
LWPOLYLINE
  5
31A
100
AcDbEntity
  8
0
100
AcDbPolyline
 62
7
  6
CONTINUOUS
 90
6
 70
0
 10
538.1266865909
 20
31.0028390707
 10
538.3579363704
 20
30.9383119806
 10
538.0110613704
 20
30.8737848904
 10
537.8376238704
 20
30.9705762839
 10
538.0688739807
 20
31.0673661609
 10
538.1266865909
 20
31.0028390707
  0
HATCH
  5
31B
100
AcDbEntity
  8
0
100
AcDbHatch
 62
7
  6
CONTINUOUS
 10
0.0
 20
0.0
 30
0.0
210
0.0
220
0.0
230
1.0
  2
SOLID
 70
1
 71
1
 91
1
 92
1
 93
5
 72
1
 10
538.1266865909
 20
31.0028390707
 11
538.3579363704
 21
30.9383119806
 72
1
 10
538.3579363704
 20
30.9383119806
 11
538.0110613704
 21
30.8737848904
 72
1
 10
538.0110613704
 20
30.8737848904
 11
537.8376238704
 21
30.9705762839
 72
1
 10
537.8376238704
 20
30.9705762839
 11
538.0688739807
 21
31.0673661609
 72
1
 10
538.0688739807
 20
31.0673661609
 11
538.1266865909
 21
31.0028390707
 97
1
330
31A
 75
0
 76
1
 98
1
 10
0.0
 20
0.0
  0
LWPOLYLINE
  5
31C
100
AcDbEntity
  8
0
100
AcDbPolyline
 62
7
  6
CONTINUOUS
 90
11
 70
0
 10
538.7048113704
 20
30.9383119806
 10
538.9938737601
 20
31.0028390707
 10
539.2251242012
 20
30.9705762839
 10
539.1673112601
 20
30.9060491937
 10
538.9938737601
 20
30.8415205871
 10
538.7048113704
 20
30.8092578002
 10
538.3579363704
 20
30.8092578002
 10
538.1266865909
 20
30.8415205871
 10
538.0110613704
 20
30.8737848904
 10
538.3579363704
 20
30.9383119806
 10
538.7048113704
 20
30.9383119806
  0
HATCH
  5
31D
100
AcDbEntity
  8
0
100
AcDbHatch
 62
7
  6
CONTINUOUS
 10
0.0
 20
0.0
 30
0.0
210
0.0
220
0.0
230
1.0
  2
SOLID
 70
1
 71
1
 91
1
 92
1
 93
10
 72
1
 10
538.7048113704
 20
30.9383119806
 11
538.9938737601
 21
31.0028390707
 72
1
 10
538.9938737601
 20
31.0028390707
 11
539.2251242012
 21
30.9705762839
 72
1
 10
539.2251242012
 20
30.9705762839
 11
539.1673112601
 21
30.9060491937
 72
1
 10
539.1673112601
 20
30.9060491937
 11
538.9938737601
 21
30.8415205871
 72
1
 10
538.9938737601
 20
30.8415205871
 11
538.7048113704
 21
30.8092578002
 72
1
 10
538.7048113704
 20
30.8092578002
 11
538.3579363704
 21
30.8092578002
 72
1
 10
538.3579363704
 20
30.8092578002
 11
538.1266865909
 21
30.8415205871
 72
1
 10
538.1266865909
 20
30.8415205871
 11
538.0110613704
 21
30.8737848904
 72
1
 10
538.0110613704
 20
30.8737848904
 11
538.3579363704
 21
30.9383119806
 72
1
 10
538.3579363704
 20
30.9383119806
 11
538.7048113704
 21
30.9383119806
 97
1
330
31C
 75
0
 76
1
 98
1
 10
0.0
 20
0.0
  0
LWPOLYLINE
  5
31E
100
AcDbEntity
  8
0
100
AcDbPolyline
 62
7
  6
CONTINUOUS
 90
7
 70
0
 10
543.3876242012
 20
30.9705762839
 10
543.7344992012
 20
30.9383119806
 10
543.0407492012
 20
30.9383119806
 10
542.9251239807
 20
31.0673661609
 10
543.2141867012
 20
31.0673661609
 10
543.2719989807
 20
31.0028390707
 10
543.3876242012
 20
30.9705762839
  0
HATCH
  5
31F
100
AcDbEntity
  8
0
100
AcDbHatch
 62
7
  6
CONTINUOUS
 10
0.0
 20
0.0
 30
0.0
210
0.0
220
0.0
230
1.0
  2
SOLID
 70
1
 71
1
 91
1
 92
1
 93
6
 72
1
 10
543.3876242012
 20
30.9705762839
 11
543.7344992012
 21
30.9383119806
 72
1
 10
543.7344992012
 20
30.9383119806
 11
543.0407492012
 21
30.9383119806
 72
1
 10
543.0407492012
 20
30.9383119806
 11
542.9251239807
 21
31.0673661609
 72
1
 10
542.9251239807
 20
31.0673661609
 11
543.2141867012
 21
31.0673661609
 72
1
 10
543.2141867012
 20
31.0673661609
 11
543.2719989807
 21
31.0028390707
 72
1
 10
543.2719989807
 20
31.0028390707
 11
543.3876242012
 21
30.9705762839
 97
1
330
31E
 75
0
 76
1
 98
1
 10
0.0
 20
0.0
  0
SOLID
  5
320
100
AcDbEntity
  8
0
100
AcDbTrace
 62
7
  6
CONTINUOUS
 10
540.0923117012
 20
30.8092578002
 11
540.0923117012
 21
31.841695792
 12
540.3813737601
 22
30.8092578002
 13
540.3813737601
 23
31.841695792
  0
ENDBLK
  5
321
100
AcDbEntity
  8
0
  6
BYBLOCK
 62
0
100
AcDbBlockEnd
  0
BLOCK
  5
322
100
AcDbEntity
  8
0
100
AcDbBlockBegin
 62
2
  6
CONTINUOUS
  2
AMMEAAL_LOGO_BL0
 70
64
 10
416.1419631151
 20
19.7009994242
  3
AMMEAAL_LOGO_BL0
  1

  0
TEXT
  5
323
100
AcDbEntity
  8
0
100
AcDbText
 62
7
  6
CONTINUOUS
 10
402.4066669574
 20
19.0744135318
  7
TEXTSTYLE_3
 40
2.7338706658
  1
Ammeraal Beltech
 41
1.0
 51
15.0
 72
0
100
AcDbText
  0
TEXT
  5
324
100
AcDbEntity
  8
0
100
AcDbText
 62
7
  6
CONTINUOUS
 10
413.2074677831
 20
16.800876859
  7
TEXTSTYLE_4
 40
1.0935482663
  1
Innovation & Service in Belting
 41
1.0
 72
0
100
AcDbText
  0
LINE
  5
325
100
AcDbEntity
  8
0
100
AcDbLine
 62
7
  6
CONTINUOUS
 10
396.382126306
 20
19.8410068404
 11
397.1602782994
 21
23.5019241381
  0
LINE
  5
326
100
AcDbEntity
  8
0
100
AcDbLine
 62
7
  6
CONTINUOUS
 10
407.2554465892
 20
27.1653180497
 11
397.6480960424
 21
24.0437006284
  0
LINE
  5
327
100
AcDbEntity
  8
0
100
AcDbLine
 62
7
  6
CONTINUOUS
 10
396.6074096383
 20
19.1476560374
 11
404.1144848995
 21
12.3882551114
  0
LINE
  5
328
100
AcDbEntity
  8
0
100
AcDbLine
 62
7
  6
CONTINUOUS
 10
396.869944049
 20
20.3827833308
 11
407.6782134142
 21
23.8946029297
  0
LINE
  5
329
100
AcDbEntity
  8
0
100
AcDbLine
 62
7
  6
CONTINUOUS
 10
407.674008277
 20
13.544814366
 11
399.2285486083
 21
21.1491404077
  0
LINE
  5
32A
100
AcDbEntity
  8
0
100
AcDbLine
 62
7
  6
CONTINUOUS
 10
408.1938309968
 20
26.320392934
 11
407.2172714596
 21
21.7260415315
  0
LINE
  5
32B
100
AcDbEntity
  8
0
100
AcDbLine
 62
7
  6
CONTINUOUS
 10
406.5174695119
 20
18.4337322177
 11
405.8310213004
 21
15.2042472933
  0
LINE
  5
32C
100
AcDbEntity
  8
0
100
AcDbLine
 62
7
  6
CONTINUOUS
 10
408.8749270954
 20
13.9350165436
 11
409.831158631
 21
18.4337322177
  0
LINE
  5
32D
100
AcDbEntity
  8
0
100
AcDbLine
 62
7
  6
CONTINUOUS
 10
410.5309605787
 20
21.7260415315
 11
410.9752023811
 21
23.8160348909
  0
LINE
  5
32E
100
AcDbEntity
  8
0
100
AcDbLine
 62
7
  6
CONTINUOUS
 10
404.8275859748
 20
12.2366807987
 11
408.3871093524
 21
13.3932400533
  0
LINE
  5
32F
100
AcDbEntity
  8
0
100
AcDbLine
 62
7
  6
CONTINUOUS
 10
407.9685476645
 20
27.013743737
 11
410.7499190488
 21
24.5093856939
  0
ARC
  5
330
100
AcDbEntity
  8
0
100
AcDbCircle
 62
7
  6
CONTINUOUS
 10
397.8733793747
 20
23.3503498254
 40
0.7290321776
100
AcDbArc
 50
108.0
 51
168.0
  0
ARC
  5
331
100
AcDbEntity
  8
0
100
AcDbCircle
 62
7
  6
CONTINUOUS
 10
407.4807299215
 20
26.4719672466
 40
0.7290321776
100
AcDbArc
 50
348.0
 51
108.0
  0
ARC
  5
332
100
AcDbEntity
  8
0
100
AcDbCircle
 62
7
  6
CONTINUOUS
 10
410.2621013058
 20
23.9676092036
 40
0.7290321776
100
AcDbArc
 50
348.0
 51
48.0
  0
ARC
  5
333
100
AcDbEntity
  8
0
100
AcDbCircle
 62
7
  6
CONTINUOUS
 10
404.6023026425
 20
12.9300316018
 40
0.7290321776
100
AcDbArc
 50
228.0
 51
288.0
  0
ARC
  5
334
100
AcDbEntity
  8
0
100
AcDbCircle
 62
7
  6
CONTINUOUS
 10
397.0952273813
 20
19.6894325277
 40
0.7290321776
100
AcDbArc
 50
108.0
 51
228.0
  0
ARC
  5
335
100
AcDbEntity
  8
0
100
AcDbCircle
 62
7
  6
CONTINUOUS
 10
408.1618260201
 20
14.0865908563
 40
0.7290321776
100
AcDbArc
 50
228.0
 51
348.0
  0
ENDBLK
  5
336
100
AcDbEntity
  8
0
  6
BYBLOCK
 62
0
100
AcDbBlockEnd
  0
BLOCK
  5
337
100
AcDbEntity
  8
0
100
AcDbBlockBegin
  2
*T1
 70
1
 10
0.0
 20
0.0
  3
*T1
  1

  0
LINE
  5
338
100
AcDbEntity
  8
0
100
AcDbLine
 62
2
  6
CONTINUOUS
 10
0.0
 20
0.0
 11
190.0
 21
0.0
  0
LINE
  5
339
100
AcDbEntity
  8
0
100
AcDbLine
 62
2
  6
CONTINUOUS
 10
0.0
 20
0.0
 11
0.0
 21
-20.0
  0
LINE
  5
33A
100
AcDbEntity
  8
0
100
AcDbLine
 62
2
  6
CONTINUOUS
 10
0.0
 20
-20.0
 11
190.0
 21
-20.0
  0
LINE
  5
33B
100
AcDbEntity
  8
0
100
AcDbLine
 62
2
  6
CONTINUOUS
 10
85.0
 20
0.0
 11
85.0
 21
-20.0
  0
LINE
  5
33C
100
AcDbEntity
  8
0
100
AcDbLine
 62
2
  6
CONTINUOUS
 10
105.0
 20
0.0
 11
105.0
 21
-20.0
  0
LINE
  5
33D
100
AcDbEntity
  8
0
100
AcDbLine
 62
2
  6
CONTINUOUS
 10
190.0
 20
0.0
 11
190.0
 21
-20.0
  0
MTEXT
  5
33E
100
AcDbEntity
  8
0
100
AcDbMText
 62
5
  6
CONTINUOUS
  7
TEXTSTYLE_5
 71
1
 72
1
 10
3.0
 20
-5.177
 30
0.0
 11
1.0
 21
0.0
 31
0.0
 44
1.08
  3
                                                                     Ammeraal Beltech Modular A/S\P\H1.5;                                                                      Hjulmagervej 21, 7100 Vejle,  DK\P\H1.495;                                 
  1
                                     tel: \H1.51;+45 75723100     fax: +45 75723348\P\H1.5;                                                                      admin@unichains.dk  www.unichains.com
 40
1.52
 41
161.0496183206
  0
MTEXT
  5
33F
100
AcDbEntity
  8
0
100
AcDbMText
 62
5
  6
CONTINUOUS
  7
TEXTSTYLE_6
 71
2
 72
1
 10
95.0
 20
-11.25
 30
0.0
 11
1.0
 21
0.0
 31
0.0
 44
0.9
  1
1:1
 40
5.0
 41
21.0
  0
MTEXT
  5
340
100
AcDbEntity
  8
0
100
AcDbMText
 62
5
  6
CONTINUOUS
  7
TEXTSTYLE_7
 71
1
 72
1
 10
108.0
 20
-8.75
 30
0.0
 11
1.0
 21
0.0
 31
0.0
 44
0.9
  1
Z13
 40
7.5
 41
28.0
  0
ENDBLK
  5
341
100
AcDbEntity
  8
0
  6
BYBLOCK
 62
0
100
AcDbBlockEnd
  0
ENDSEC
  0
SECTION
  2
ENTITIES
  0
MTEXT
  5
342
100
AcDbEntity
  8
0
100
AcDbMText
 62
5
  6
CONTINUOUS
  7
TEXTSTYLE_2
 71
1
 72
1
 10
480.0
 20
28.436
 30
0.0
 11
1.0
 21
0.0
 31
0.0
 44
0.9
  1
\Q0.000019;Scale :
 40
2.8
 41
11.76
  0
MTEXT
  5
343
100
AcDbEntity
  8
0
100
AcDbMText
 62
5
  6
CONTINUOUS
  7
TEXTSTYLE_2
 71
1
 72
1
 10
500.0
 20
28.436
 30
0.0
 11
1.0
 21
0.0
 31
0.0
 44
0.9
  1
\Q0.000019;Chain type:
 40
2.8
 41
18.48
  0
INSERT
  5
344
100
AcDbEntity
  8
0
100
AcDbBlockReference
 62
2
  6
CONTINUOUS
  2
AMMEAAL_LOGO_BL0
 10
416.1419631151
 20
19.7009994242
  0
INSERT
  5
345
100
AcDbEntity
  8
0
100
AcDbBlockReference
 62
2
  6
CONTINUOUS
  2
UNI_LOGO2_BL1
 10
557.4079930916
 20
35.8092573885
  0
ACAD_TABLE
  5
346
100
AcDbEntity
  8
0
 62
2
  6
CONTINUOUS
100
AcDbBlockReference
  2
*T1
 10
394.0
 20
30.0
 30
0.0
100
AcDbTable
342
       6DE
343
215
 11
1.0
 21
0.0
 31
0.0
 90
22
 91
1
 92
3
 93
0
 94
0
 95
0
 96
0
141
20.0
142
85.0
142
20.0
142
85.0
171
1
172
0
173
0
174
0
175
1
176
1
 91
57
178
0
145
0.0
  7
TEXTSTYLE_5
301
CELL_VALUE
 90
4
  2
                                                                     Ammeraal Beltech Modular A/S\P\H1.5;                                                                      Hjulmagervej 21, 7100 Vejle,  DK\P\H1.495;                                 
  1
                                     tel: \H1.51;+45 75723100     fax: +45 75723348\P\H1.5;                                                                      admin@unichains.dk  www.unichains.com
304
ACVALUE_END
170
4
140
1.52
 64
5
171
1
172
0
173
0
174
0
175
1
176
1
 91
57
178
0
145
0.0
  7
TEXTSTYLE_6
301
CELL_VALUE
 90
4
  1
1:1
304
ACVALUE_END
170
8
140
5.0
 64
5
171
1
172
0
173
0
174
0
175
1
176
1
 91
57
178
0
145
0.0
  7
TEXTSTYLE_7
301
CELL_VALUE
 90
4
  1
Z13
304
ACVALUE_END
170
7
140
7.5
 64
5
  0
LINE
  5
347
100
AcDbEntity
  8
0
100
AcDbLine
 62
7
  6
CONTINUOUS
 10
-0.0
 20
-0.0
 11
-0.0
 21
420.0
  0
LINE
  5
348
100
AcDbEntity
  8
0
100
AcDbLine
 62
7
  6
CONTINUOUS
 10
10.0
 20
10.0
 11
10.0
 21
410.0
  0
LINE
  5
349
100
AcDbEntity
  8
0
100
AcDbLine
 62
7
  6
CONTINUOUS
 10
-0.0
 20
-0.0
 11
594.0
 21
-0.0
  0
LINE
  5
34A
100
AcDbEntity
  8
0
100
AcDbLine
 62
7
  6
CONTINUOUS
 10
10.0
 20
10.0
 11
584.0
 21
10.0
  0
LINE
  5
34B
100
AcDbEntity
  8
0
100
AcDbLine
 62
7
  6
CONTINUOUS
 10
394.0
 20
30.0
 11
584.0
 21
30.0
  0
LINE
  5
34C
100
AcDbEntity
  8
0
100
AcDbLine
 62
7
  6
CONTINUOUS
 10
179.0
 20
5.0
 11
179.0
 21
10.0
  0
LINE
  5
34D
100
AcDbEntity
  8
0
100
AcDbLine
 62
7
  6
CONTINUOUS
 10
179.0
 20
410.0
 11
179.0
 21
415.0
  0
LINE
  5
34E
100
AcDbEntity
  8
0
100
AcDbLine
 62
7
  6
CONTINUOUS
 10
384.0
 20
410.0
 11
384.0
 21
415.0
  0
LINE
  5
34F
100
AcDbEntity
  8
0
100
AcDbLine
 62
7
  6
CONTINUOUS
 10
5.0
 20
297.0
 11
10.0
 21
297.0
  0
LINE
  5
350
100
AcDbEntity
  8
0
100
AcDbLine
 62
7
  6
CONTINUOUS
 10
584.0
 20
297.0
 11
589.0
 21
297.0
  0
LINE
  5
351
100
AcDbEntity
  8
0
100
AcDbLine
 62
7
  6
CONTINUOUS
 10
10.0
 20
410.0
 11
584.0
 21
410.0
  0
LINE
  5
352
100
AcDbEntity
  8
0
100
AcDbLine
 62
7
  6
CONTINUOUS
 10
-0.0
 20
420.0
 11
594.0
 21
420.0
  0
LINE
  5
353
100
AcDbEntity
  8
0
100
AcDbLine
 62
7
  6
CONTINUOUS
 10
584.0
 20
10.0
 11
584.0
 21
410.0
  0
LINE
  5
354
100
AcDbEntity
  8
0
100
AcDbLine
 62
7
  6
CONTINUOUS
 10
594.0
 20
-0.0
 11
594.0
 21
420.0
  0
LINE
  5
355
100
AcDbEntity
  8
0
100
AcDbLine
 62
7
  6
CONTINUOUS
 10
138.0194486795
 20
230.715362546
 11
137.7270681203
 21
230.4000179397
  0
LINE
  5
356
100
AcDbEntity
  8
0
100
AcDbLine
 62
7
  6
CONTINUOUS
 10
137.9578399206
 20
230.042496271
 11
138.2502204798
 21
230.3578408773
  0
LINE
  5
357
100
AcDbEntity
  8
0
100
AcDbLine
 62
7
  6
CONTINUOUS
 10
135.7936448644
 20
229.2430160166
 11
135.3705585903
 21
228.939263701
  0
LINE
  5
358
100
AcDbEntity
  8
0
100
AcDbLine
 62
7
  6
CONTINUOUS
 10
133.6782138873
 20
227.7242547208
 11
133.255127704
 21
227.4205024704
  0
LINE
  5
359
100
AcDbEntity
  8
0
100
AcDbLine
 62
7
  6
CONTINUOUS
 10
136.3462079097
 20
225.9728168477
 11
136.0077389147
 21
225.7298150126
  0
LINE
  5
35A
100
AcDbEntity
  8
0
100
AcDbLine
 62
7
  6
CONTINUOUS
 10
136.2559109642
 20
225.3841446017
 11
136.5943799593
 21
225.6271464369
  0
LINE
  5
35B
100
AcDbEntity
  8
0
100
AcDbLine
 62
7
  6
CONTINUOUS
 10
137.5251695444
 20
226.2954013749
 11
137.9482558185
 21
226.5991536905
  0
LINE
  5
35C
100
AcDbEntity
  8
0
100
AcDbLine
 62
7
  6
CONTINUOUS
 10
138.3695221888
 20
230.9413267352
 11
138.0194486795
 21
230.715362546
  0
LINE
  5
35D
100
AcDbEntity
  8
0
100
AcDbLine
 62
7
  6
CONTINUOUS
 10
137.2317836592
 20
230.2069433629
 11
136.7941918978
 21
229.9244882073
  0
LINE
  5
35E
100
AcDbEntity
  8
0
100
AcDbLine
 62
7
  6
CONTINUOUS
 10
138.6403664617
 20
227.0643146071
 11
139.0779582231
 21
227.3467697627
  0
LINE
  5
35F
100
AcDbEntity
  8
0
100
AcDbLine
 62
7
  6
CONTINUOUS
 10
140.6532882638
 20
228.3636081289
 11
141.0908797748
 21
228.6460631229
  0
LINE
  5
360
100
AcDbEntity
  8
0
100
AcDbLine
 62
7
  6
CONTINUOUS
 10
153.1752446695
 20
239.4613674909
 11
153.6256820639
 21
239.7436617036
  0
LINE
  5
361
100
AcDbEntity
  8
0
100
AcDbLine
 62
7
  6
CONTINUOUS
 10
139.6785223811
 20
233.6241930051
 11
139.2321444333
 21
233.3558389816
  0
LINE
  5
362
100
AcDbEntity
  8
0
100
AcDbLine
 62
7
  6
CONTINUOUS
 10
139.5062081888
 20
232.8999635112
 11
139.9525861365
 21
233.1683175346
  0
LINE
  5
363
100
AcDbEntity
  8
0
100
AcDbLine
 62
7
  6
CONTINUOUS
 10
140.5007138009
 20
232.2565663383
 11
140.0543358532
 21
231.9882123148
  0
LINE
  5
364
100
AcDbEntity
  8
0
100
AcDbLine
 62
7
  6
CONTINUOUS
 10
141.8083440414
 20
229.0706090485
 11
142.2547219892
 21
229.338963072
  0
LINE
  5
365
100
AcDbEntity
  8
0
100
AcDbLine
 62
7
  6
CONTINUOUS
 10
164.973482122
 20
242.8921216126
 11
165.2566249356
 21
243.061838237
  0
LINE
  5
366
100
AcDbEntity
  8
0
100
AcDbLine
 62
7
  6
CONTINUOUS
 10
153.4391263893
 20
240.2417885618
 11
152.891138396
 21
239.9229602464
  0
LINE
  5
367
100
AcDbEntity
  8
0
100
AcDbLine
 62
7
  6
CONTINUOUS
 10
157.7378634003
 20
241.0541773946
 11
158.2037260108
 21
241.3102162527
  0
LINE
  5
368
100
AcDbEntity
  8
0
100
AcDbLine
 62
7
  6
CONTINUOUS
 10
158.0459993248
 20
241.8182080628
 11
157.480654214
 21
241.5312808227
  0
LINE
  5
369
100
AcDbEntity
  8
0
100
AcDbLine
 62
7
  6
CONTINUOUS
 10
165.1224042184
 20
243.6858645792
 11
164.7374253143
 21
243.4942442111
  0
LINE
  5
36A
100
AcDbEntity
  8
0
100
AcDbLine
 62
7
  6
CONTINUOUS
 10
146.2814549763
 20
237.1830144101
 11
145.7206759246
 21
236.9070581541
  0
LINE
  5
36B
100
AcDbEntity
  8
0
100
AcDbLine
 62
7
  6
CONTINUOUS
 10
147.9283259728
 20
232.420825741
 11
148.4891050245
 21
232.696781997
  0
LINE
  5
36C
100
AcDbEntity
  8
0
100
AcDbLine
 62
7
  6
CONTINUOUS
 10
150.6454398388
 20
239.1612376265
 11
147.2147156402
 21
237.6470908655
  0
LINE
  5
36D
100
AcDbEntity
  8
0
100
AcDbLine
 62
7
  6
CONTINUOUS
 10
147.4294881365
 20
237.1604635323
 11
150.2884240598
 21
238.4222520987
  0
LINE
  5
36E
100
AcDbEntity
  8
0
100
AcDbLine
 62
7
  6
CONTINUOUS
 10
150.1865567145
 20
233.4933898978
 11
150.7583438992
 21
233.7457476111
  0
LINE
  5
36F
100
AcDbEntity
  8
0
100
AcDbLine
 62
7
  6
CONTINUOUS
 10
171.2624723569
 20
241.9986375116
 11
171.7609582968
 21
242.1832875493
  0
LINE
  5
370
100
AcDbEntity
  8
0
100
AcDbLine
 62
7
  6
CONTINUOUS
 10
138.2502204798
 20
230.3578408773
 11
138.6579869392
 21
230.4944246493
  0
LINE
  5
371
100
AcDbEntity
  8
0
100
AcDbLine
 62
7
  6
CONTINUOUS
 10
136.8708058209
 20
225.9565657878
 11
136.9779973666
 21
226.1644843516
  0
LINE
  5
372
100
AcDbEntity
  8
0
100
AcDbLine
 62
7
  6
CONTINUOUS
 10
152.9572173753
 20
239.1525152757
 11
153.1752446695
 21
239.4613674909
  0
LINE
  5
373
100
AcDbEntity
  8
0
100
AcDbLine
 62
7
  6
CONTINUOUS
 10
152.891138396
 20
239.9229602464
 11
152.5153232715
 21
239.4414152904
  0
LINE
  5
374
100
AcDbEntity
  8
0
100
AcDbLine
 62
7
  6
CONTINUOUS
 10
157.5025088506
 20
240.7583162315
 11
157.7378634003
 21
241.0541773946
  0
LINE
  5
375
100
AcDbEntity
  8
0
100
AcDbLine
 62
7
  6
CONTINUOUS
 10
136.6226337551
 20
226.3022362214
 11
136.3462079097
 21
225.9728168477
  0
LINE
  5
376
100
AcDbEntity
  8
0
100
AcDbLine
 62
7
  6
CONTINUOUS
 10
136.5943799593
 20
225.6271464369
 11
136.8708058209
 21
225.9565657878
  0
LINE
  5
377
100
AcDbEntity
  8
0
100
AcDbLine
 62
7
  6
CONTINUOUS
 10
157.480654214
 20
241.5312808227
 11
157.0778822778
 21
241.0720452405
  0
LINE
  5
378
100
AcDbEntity
  8
0
100
AcDbLine
 62
7
  6
CONTINUOUS
 10
164.7127094279
 20
242.6184005979
 11
164.973482122
 21
242.8921216126
  0
LINE
  5
379
100
AcDbEntity
  8
0
100
AcDbLine
 62
7
  6
CONTINUOUS
 10
164.7374253143
 20
243.4942442111
 11
164.3748141989
 21
243.1986189513
  0
LINE
  5
37A
100
AcDbEntity
  8
0
100
AcDbLine
 62
7
  6
CONTINUOUS
 10
167.2716454824
 20
239.1426072407
 11
167.634254261
 21
239.4382320265
  0
LINE
  5
37B
100
AcDbEntity
  8
0
100
AcDbLine
 62
7
  6
CONTINUOUS
 10
176.7430936626
 20
242.9477020115
 11
176.940434331
 21
243.0733023671
  0
LINE
  5
37C
100
AcDbEntity
  8
0
100
AcDbLine
 62
7
  6
CONTINUOUS
 10
155.4566316331
 20
236.3398166772
 11
155.0061942388
 21
236.0575224644
  0
LINE
  5
37D
100
AcDbEntity
  8
0
100
AcDbLine
 62
7
  6
CONTINUOUS
 10
155.1927499395
 20
235.5593955365
 11
155.7407379295
 21
235.8782238606
  0
LINE
  5
37E
100
AcDbEntity
  8
0
100
AcDbLine
 62
7
  6
CONTINUOUS
 10
159.8367685289
 20
237.8071159249
 11
159.3709036414
 21
237.5510763598
  0
LINE
  5
37F
100
AcDbEntity
  8
0
100
AcDbLine
 62
7
  6
CONTINUOUS
 10
171.5605670375
 20
242.7982003749
 11
171.267969129
 21
242.6453555533
  0
LINE
  5
380
100
AcDbEntity
  8
0
100
AcDbLine
 62
7
  6
CONTINUOUS
 10
159.5286303495
 20
237.0430844785
 11
160.0939754576
 21
237.3300117275
  0
LINE
  5
381
100
AcDbEntity
  8
0
100
AcDbLine
 62
7
  6
CONTINUOUS
 10
167.0355863301
 20
239.7447294016
 11
166.6506050952
 21
239.5531085321
  0
LINE
  5
382
100
AcDbEntity
  8
0
100
AcDbLine
 62
7
  6
CONTINUOUS
 10
176.3917668643
 20
243.3417871523
 11
176.0907228375
 21
243.2063394523
  0
LINE
  5
383
100
AcDbEntity
  8
0
100
AcDbLine
 62
7
  6
CONTINUOUS
 10
176.6029545262
 20
241.1177489985
 11
176.3019104995
 21
240.9823012985
  0
LINE
  5
384
100
AcDbEntity
  8
0
100
AcDbLine
 62
7
  6
CONTINUOUS
 10
197.0263907163
 20
243.6613433622
 11
197.3714424344
 21
243.8158260592
  0
LINE
  5
385
100
AcDbEntity
  8
0
100
AcDbLine
 62
7
  6
CONTINUOUS
 10
166.7848258281
 20
238.9290821171
 11
167.2716454824
 21
239.1426072407
  0
LINE
  5
386
100
AcDbEntity
  8
0
100
AcDbLine
 62
7
  6
CONTINUOUS
 10
135.8553990173
 20
225.2275604128
 11
136.2559109642
 21
225.3841446017
  0
LINE
  5
387
100
AcDbEntity
  8
0
100
AcDbLine
 62
7
  6
CONTINUOUS
 10
176.2585464741
 20
240.3370144709
 11
176.7669924696
 21
240.4921564183
  0
LINE
  5
388
100
AcDbEntity
  8
0
100
AcDbLine
 62
7
  6
CONTINUOUS
 10
197.3624559819
 20
244.3577706939
 11
196.9148631674
 21
244.2216097564
  0
LINE
  5
389
100
AcDbEntity
  8
0
100
AcDbLine
 62
7
  6
CONTINUOUS
 10
198.4784609535
 20
239.9437215923
 11
198.2546668933
 21
239.8756407042
  0
LINE
  5
38A
100
AcDbEntity
  8
0
100
AcDbLine
 62
7
  6
CONTINUOUS
 10
198.1611075441
 20
239.3520186037
 11
198.6087003635
 21
239.4881795686
  0
LINE
  5
38B
100
AcDbEntity
  8
0
100
AcDbLine
 62
7
  6
CONTINUOUS
 10
136.7523994572
 20
226.6573227663
 11
136.6226337551
 21
226.3022362214
  0
LINE
  5
38C
100
AcDbEntity
  8
0
100
AcDbLine
 62
7
  6
CONTINUOUS
 10
137.7270681203
 20
230.4000179397
 11
137.5798992641
 21
230.0517842059
  0
LINE
  5
38D
100
AcDbEntity
  8
0
100
AcDbLine
 62
7
  6
CONTINUOUS
 10
137.8106710643
 20
229.6942625372
 11
137.9578399206
 21
230.042496271
  0
LINE
  5
38E
100
AcDbEntity
  8
0
100
AcDbLine
 62
7
  6
CONTINUOUS
 10
152.5153232715
 20
239.4414152904
 11
152.3346071122
 21
239.0329377036
  0
LINE
  5
38F
100
AcDbEntity
  8
0
100
AcDbLine
 62
7
  6
CONTINUOUS
 10
157.0778822778
 20
241.0720452405
 11
156.8740730654
 21
240.6745857154
  0
LINE
  5
390
100
AcDbEntity
  8
0
100
AcDbLine
 62
7
  6
CONTINUOUS
 10
164.3748141989
 20
243.1986189513
 11
164.0569433226
 21
242.6949849107
  0
LINE
  5
391
100
AcDbEntity
  8
0
100
AcDbLine
 62
7
  6
CONTINUOUS
 10
155.6746589274
 20
236.6486688924
 11
155.4566316331
 21
236.3398166772
  0
LINE
  5
392
100
AcDbEntity
  8
0
100
AcDbLine
 62
7
  6
CONTINUOUS
 10
155.7407379295
 20
235.8782238606
 11
156.1165530442
 21
236.3597688428
  0
LINE
  5
393
100
AcDbEntity
  8
0
100
AcDbLine
 62
7
  6
CONTINUOUS
 10
160.0721230785
 20
238.102977088
 11
159.8367685289
 21
237.8071159249
  0
LINE
  5
394
100
AcDbEntity
  8
0
100
AcDbLine
 62
7
  6
CONTINUOUS
 10
160.0939754576
 20
237.3300117275
 11
160.4967496624
 21
237.7892480433
  0
LINE
  5
395
100
AcDbEntity
  8
0
100
AcDbLine
 62
7
  6
CONTINUOUS
 10
167.2963590085
 20
240.0184504891
 11
167.0355863301
 21
239.7447294016
  0
LINE
  5
396
100
AcDbEntity
  8
0
100
AcDbLine
 62
7
  6
CONTINUOUS
 10
171.7609582968
 20
242.1832875493
 11
172.1240154503
 21
242.5623064262
  0
LINE
  5
397
100
AcDbEntity
  8
0
100
AcDbLine
 62
7
  6
CONTINUOUS
 10
176.7669924696
 20
240.4921564183
 11
177.1516219964
 21
240.8492641762
  0
LINE
  5
398
100
AcDbEntity
  8
0
100
AcDbLine
 62
7
  6
CONTINUOUS
 10
196.9148631674
 20
244.2216097564
 11
196.4298466179
 21
243.8760000044
  0
LINE
  5
399
100
AcDbEntity
  8
0
100
AcDbLine
 62
7
  6
CONTINUOUS
 10
198.7965627413
 20
241.7240367358
 11
199.2628721173
 21
241.9649212417
  0
LINE
  5
39A
100
AcDbEntity
  8
0
100
AcDbLine
 62
7
  6
CONTINUOUS
 10
198.6087003635
 20
239.4881795686
 11
198.9537520881
 21
239.6426623023
  0
LINE
  5
39B
100
AcDbEntity
  8
0
100
AcDbLine
 62
7
  6
CONTINUOUS
 10
136.9779973666
 20
226.1644843516
 11
137.0457199081
 21
226.6059884501
  0
LINE
  5
39C
100
AcDbEntity
  8
0
100
AcDbLine
 62
7
  6
CONTINUOUS
 10
137.5798992641
 20
230.0517842059
 11
137.5202484096
 21
229.760041277
  0
LINE
  5
39D
100
AcDbEntity
  8
0
100
AcDbLine
 62
7
  6
CONTINUOUS
 10
137.7510202098
 20
229.4025196083
 11
137.8106710643
 21
229.6942625372
  0
LINE
  5
39E
100
AcDbEntity
  8
0
100
AcDbLine
 62
7
  6
CONTINUOUS
 10
145.7206759246
 20
236.9070581541
 11
145.4886957771
 21
235.9629397034
  0
LINE
  5
39F
100
AcDbEntity
  8
0
100
AcDbLine
 62
7
  6
CONTINUOUS
 10
145.8644660849
 20
235.1993254993
 11
146.0964461008
 21
236.1434442173
  0
LINE
  5
3A0
100
AcDbEntity
  8
0
100
AcDbLine
 62
7
  6
CONTINUOUS
 10
156.1165530442
 20
236.3597688428
 11
156.2972691905
 21
236.7682464645
  0
LINE
  5
3A1
100
AcDbEntity
  8
0
100
AcDbLine
 62
7
  6
CONTINUOUS
 10
160.4967496624
 20
237.7892480433
 11
160.7005588638
 21
238.186707604
  0
LINE
  5
3A2
100
AcDbEntity
  8
0
100
AcDbLine
 62
7
  6
CONTINUOUS
 10
167.634254261
 20
239.4382320265
 11
167.9521251295
 21
239.9418661034
  0
LINE
  5
3A3
100
AcDbEntity
  8
0
100
AcDbLine
 62
7
  6
CONTINUOUS
 10
171.7339726544
 20
243.0402774022
 11
171.5605670375
 21
242.7982003749
  0
LINE
  5
3A4
100
AcDbEntity
  8
0
100
AcDbLine
 62
7
  6
CONTINUOUS
 10
176.5790509783
 20
243.573294076
 11
176.3917668643
 21
243.3417871523
  0
LINE
  5
3A5
100
AcDbEntity
  8
0
100
AcDbLine
 62
7
  6
CONTINUOUS
 10
176.7902386332
 20
241.3492559964
 11
176.6029545262
 21
241.1177489985
  0
LINE
  5
3A6
100
AcDbEntity
  8
0
100
AcDbLine
 62
7
  6
CONTINUOUS
 10
194.7030910444
 20
244.8660639544
 11
193.9834562986
 21
244.2123818678
  0
LINE
  5
3A7
100
AcDbEntity
  8
0
100
AcDbLine
 62
7
  6
CONTINUOUS
 10
193.8687892954
 20
243.3690779751
 11
194.5884240814
 21
244.0227603571
  0
LINE
  5
3A8
100
AcDbEntity
  8
0
100
AcDbLine
 62
7
  6
CONTINUOUS
 10
189.1162435285
 20
241.0790181995
 11
192.9715403652
 21
244.359712511
  0
LINE
  5
3A9
100
AcDbEntity
  8
0
100
AcDbLine
 62
7
  6
CONTINUOUS
 10
192.4721627747
 20
244.6188657103
 11
188.5131306658
 21
241.3476242618
  0
LINE
  5
3AA
100
AcDbEntity
  8
0
100
AcDbLine
 62
7
  6
CONTINUOUS
 10
198.9088339466
 20
242.3523831793
 11
198.6663280188
 21
242.179577884
  0
LINE
  5
3AB
100
AcDbEntity
  8
0
100
AcDbLine
 62
7
  6
CONTINUOUS
 10
198.7209715884
 20
240.1165261222
 11
198.4784609535
 21
239.9437215923
  0
LINE
  5
3AC
100
AcDbEntity
  8
0
100
AcDbLine
 62
7
  6
CONTINUOUS
 10
136.73550483
 20
227.0380764865
 11
136.7523994572
 21
226.6573227663
  0
LINE
  5
3AD
100
AcDbEntity
  8
0
100
AcDbLine
 62
7
  6
CONTINUOUS
 10
152.7908841263
 20
238.4086271922
 11
152.9572173753
 21
239.1525152757
  0
LINE
  5
3AE
100
AcDbEntity
  8
0
100
AcDbLine
 62
7
  6
CONTINUOUS
 10
155.8409922547
 20
237.3925567666
 11
155.6746589274
 21
236.6486688924
  0
LINE
  5
3AF
100
AcDbEntity
  8
0
100
AcDbLine
 62
7
  6
CONTINUOUS
 10
157.2938532378
 20
240.0251729537
 11
157.5025088506
 21
240.7583162315
  0
LINE
  5
3B0
100
AcDbEntity
  8
0
100
AcDbLine
 62
7
  6
CONTINUOUS
 10
160.2807764807
 20
238.8361194453
 11
160.0721230785
 21
238.102977088
  0
LINE
  5
3B1
100
AcDbEntity
  8
0
100
AcDbLine
 62
7
  6
CONTINUOUS
 10
167.4329231617
 20
240.3742716491
 11
167.2963590085
 21
240.0184504891
  0
LINE
  5
3B2
100
AcDbEntity
  8
0
100
AcDbLine
 62
7
  6
CONTINUOUS
 10
172.1240154503
 20
242.5623064262
 11
172.3678873808
 21
243.0305586007
  0
LINE
  5
3B3
100
AcDbEntity
  8
0
100
AcDbLine
 62
7
  6
CONTINUOUS
 10
176.940434331
 20
243.0733023671
 11
177.2113086947
 21
243.5264697715
  0
LINE
  5
3B4
100
AcDbEntity
  8
0
100
AcDbLine
 62
7
  6
CONTINUOUS
 10
177.1516219964
 20
240.8492641762
 11
177.4224963566
 21
241.3024316177
  0
LINE
  5
3B5
100
AcDbEntity
  8
0
100
AcDbLine
 62
7
  6
CONTINUOUS
 10
196.765168227
 20
243.3838144983
 11
197.0263907163
 21
243.6613433622
  0
LINE
  5
3B6
100
AcDbEntity
  8
0
100
AcDbLine
 62
7
  6
CONTINUOUS
 10
199.2628721173
 20
241.9649212417
 11
199.5240899126
 21
242.2424509443
  0
LINE
  5
3B7
100
AcDbEntity
  8
0
100
AcDbLine
 62
7
  6
CONTINUOUS
 10
198.9537520881
 20
239.6426623023
 11
199.2149745775
 21
239.9201911662
  0
LINE
  5
3B8
100
AcDbEntity
  8
0
100
AcDbLine
 62
7
  6
CONTINUOUS
 10
154.1264761901
 20
67.3089152594
 11
154.1509112581
 21
58.4307223083
  0
LINE
  5
3B9
100
AcDbEntity
  8
0
100
AcDbLine
 62
7
  6
CONTINUOUS
 10
150.2884240598
 20
238.4222520987
 11
150.1865567145
 21
233.4933898978
  0
LINE
  5
3BA
100
AcDbEntity
  8
0
100
AcDbLine
 62
7
  6
CONTINUOUS
 10
150.7583438992
 20
233.7457476111
 11
150.8602123351
 21
238.6746102933
  0
LINE
  5
3BB
100
AcDbEntity
  8
0
100
AcDbLine
 62
7
  6
CONTINUOUS
 10
152.3346071122
 20
239.0329377036
 11
152.288750454
 21
238.5613680116
  0
LINE
  5
3BC
100
AcDbEntity
  8
0
100
AcDbLine
 62
7
  6
CONTINUOUS
 10
156.2972691905
 20
236.7682464645
 11
156.3431258225
 21
237.2398162262
  0
LINE
  5
3BD
100
AcDbEntity
  8
0
100
AcDbLine
 62
7
  6
CONTINUOUS
 10
156.8740730654
 20
240.6745857154
 11
156.8012916905
 21
240.2064162103
  0
LINE
  5
3BE
100
AcDbEntity
  8
0
100
AcDbLine
 62
7
  6
CONTINUOUS
 10
160.7005588638
 20
238.186707604
 11
160.7733402166
 21
238.6548771803
  0
LINE
  5
3BF
100
AcDbEntity
  8
0
100
AcDbLine
 62
7
  6
CONTINUOUS
 10
162.438135665
 20
241.9575833065
 11
161.8031556225
 21
239.0414385151
  0
LINE
  5
3C0
100
AcDbEntity
  8
0
100
AcDbLine
 62
7
  6
CONTINUOUS
 10
162.1594166255
 20
238.9149328252
 11
162.7943967437
 21
241.8310773284
  0
LINE
  5
3C1
100
AcDbEntity
  8
0
100
AcDbLine
 62
7
  6
CONTINUOUS
 10
167.9521251295
 20
239.9418661034
 11
168.0663191475
 21
240.4016917266
  0
LINE
  5
3C2
100
AcDbEntity
  8
0
100
AcDbLine
 62
7
  6
CONTINUOUS
 10
179.4570451503
 20
266.8454856039
 11
177.3086294772
 21
258.2311244991
  0
LINE
  5
3C3
100
AcDbEntity
  8
0
100
AcDbLine
 62
7
  6
CONTINUOUS
 10
114.0888513382
 20
91.5342695517
 11
109.9845855261
 21
83.6616645639
  0
LINE
  5
3C4
100
AcDbEntity
  8
0
100
AcDbLine
 62
7
  6
CONTINUOUS
 10
199.1887683035
 20
242.7346364505
 11
198.9088339466
 21
242.3523831793
  0
LINE
  5
3C5
100
AcDbEntity
  8
0
100
AcDbLine
 62
7
  6
CONTINUOUS
 10
198.8609364199
 20
240.3076531772
 11
198.7209715884
 21
240.1165261222
  0
LINE
  5
3C6
100
AcDbEntity
  8
0
100
AcDbLine
 62
7
  6
CONTINUOUS
 10
85.2931658606
 20
119.4333615891
 11
94.1095721111
 21
120.4792525852
  0
LINE
  5
3C7
100
AcDbEntity
  8
0
100
AcDbLine
 62
7
  6
CONTINUOUS
 10
272.3918813773
 20
120.4792525852
 11
281.2082876278
 21
119.4333615891
  0
LINE
  5
3C8
100
AcDbEntity
  8
0
100
AcDbLine
 62
7
  6
CONTINUOUS
 10
77.3634199806
 20
169.6766089568
 11
85.656009801
 21
166.5055111627
  0
LINE
  5
3C9
100
AcDbEntity
  8
0
100
AcDbLine
 62
7
  6
CONTINUOUS
 10
243.5171548081
 20
83.6535908813
 11
250.8376450659
 21
78.6303121178
  0
LINE
  5
3CA
100
AcDbEntity
  8
0
100
AcDbLine
 62
7
  6
CONTINUOUS
 10
93.6911799998
 20
217.8499317458
 11
99.5602209988
 21
211.1883054503
  0
LINE
  5
3CB
100
AcDbEntity
  8
0
100
AcDbLine
 62
7
  6
CONTINUOUS
 10
200.8361158587
 20
64.46484135
 11
204.9836540272
 21
56.6149474468
  0
LINE
  5
3CC
100
AcDbEntity
  8
0
100
AcDbLine
 62
7
  6
CONTINUOUS
 10
130.5359528685
 20
252.9174022565
 11
132.6369184829
 21
244.2913457626
  0
LINE
  5
3CD
100
AcDbEntity
  8
0
100
AcDbLine
 62
7
  6
CONTINUOUS
 10
152.288750454
 20
238.5613680116
 11
152.3031355971
 21
238.2259583511
  0
LINE
  5
3CE
100
AcDbEntity
  8
0
100
AcDbLine
 62
7
  6
CONTINUOUS
 10
156.3431258225
 20
237.2398162262
 11
156.328740784
 21
237.5752256077
  0
LINE
  5
3CF
100
AcDbEntity
  8
0
100
AcDbLine
 62
7
  6
CONTINUOUS
 10
156.8012916905
 20
240.2064162103
 11
156.7964452901
 21
239.8707324576
  0
LINE
  5
3D0
100
AcDbEntity
  8
0
100
AcDbLine
 62
7
  6
CONTINUOUS
 10
160.7733402166
 20
238.6548771803
 11
160.7781867054
 21
238.9905606484
  0
LINE
  5
3D1
100
AcDbEntity
  8
0
100
AcDbLine
 62
7
  6
CONTINUOUS
 10
164.0569433226
 20
242.6949849107
 11
164.0445877103
 21
242.2570636055
  0
LINE
  5
3D2
100
AcDbEntity
  8
0
100
AcDbLine
 62
7
  6
CONTINUOUS
 10
164.6779837588
 20
242.2844833917
 11
164.7127094279
 21
242.6184005979
  0
LINE
  5
3D3
100
AcDbEntity
  8
0
100
AcDbLine
 62
7
  6
CONTINUOUS
 10
171.7881977608
 20
243.3715884551
 11
171.7339726544
 21
243.0402774022
  0
LINE
  5
3D4
100
AcDbEntity
  8
0
100
AcDbLine
 62
7
  6
CONTINUOUS
 10
172.3678873808
 20
243.0305586007
 11
172.4221124872
 21
243.3618696535
  0
LINE
  5
3D5
100
AcDbEntity
  8
0
100
AcDbLine
 62
7
  6
CONTINUOUS
 10
176.6525846737
 20
243.9008611249
 11
176.5790509783
 21
243.573294076
  0
LINE
  5
3D6
100
AcDbEntity
  8
0
100
AcDbLine
 62
7
  6
CONTINUOUS
 10
177.2113086947
 20
243.5264697715
 11
177.2848423901
 21
243.8540368205
  0
LINE
  5
3D7
100
AcDbEntity
  8
0
100
AcDbLine
 62
7
  6
CONTINUOUS
 10
176.8637723286
 20
241.6768230453
 11
176.7902386332
 21
241.3492559964
  0
LINE
  5
3D8
100
AcDbEntity
  8
0
100
AcDbLine
 62
7
  6
CONTINUOUS
 10
177.4224963566
 20
241.3024316177
 11
177.496030045
 21
241.6299987408
  0
LINE
  5
3D9
100
AcDbEntity
  8
0
100
AcDbLine
 62
7
  6
CONTINUOUS
 10
196.4298466179
 20
243.8760000044
 11
196.2524533573
 21
243.4754249737
  0
LINE
  5
3DA
100
AcDbEntity
  8
0
100
AcDbLine
 62
7
  6
CONTINUOUS
 10
199.2149745775
 20
239.9201911662
 11
199.3736512896
 21
240.2160427018
  0
LINE
  5
3DB
100
AcDbEntity
  8
0
100
AcDbLine
 62
7
  6
CONTINUOUS
 10
229.2472241664
 20
256.4434257446
 11
223.3416033453
 21
249.8142063436
  0
LINE
  5
3DC
100
AcDbEntity
  8
0
100
AcDbLine
 62
7
  6
CONTINUOUS
 10
89.8953786508
 20
131.5911675058
 11
82.6026497945
 21
126.5276694088
  0
LINE
  5
3DD
100
AcDbEntity
  8
0
100
AcDbLine
 62
7
  6
CONTINUOUS
 10
268.500159941
 20
224.094209234
 11
260.1902405315
 21
220.9688058109
  0
LINE
  5
3DE
100
AcDbEntity
  8
0
100
AcDbLine
 62
7
  6
CONTINUOUS
 10
156.7964452901
 20
239.8707324576
 11
156.8546894757
 21
239.3318522655
  0
LINE
  5
3DF
100
AcDbEntity
  8
0
100
AcDbLine
 62
7
  6
CONTINUOUS
 10
160.7781867054
 20
238.9905606484
 11
160.7199401986
 21
239.5294402758
  0
LINE
  5
3E0
100
AcDbEntity
  8
0
100
AcDbLine
 62
7
  6
CONTINUOUS
 10
199.5240899126
 20
242.2424509443
 11
199.7014831732
 21
242.6430259751
  0
LINE
  5
3E1
100
AcDbEntity
  8
0
100
AcDbLine
 62
7
  6
CONTINUOUS
 10
152.9172003369
 20
237.7743408596
 11
152.7908841263
 21
238.4086271922
  0
LINE
  5
3E2
100
AcDbEntity
  8
0
100
AcDbLine
 62
7
  6
CONTINUOUS
 10
155.7146759919
 20
238.0268432387
 11
155.8409922547
 21
237.3925567666
  0
LINE
  5
3E3
100
AcDbEntity
  8
0
100
AcDbLine
 62
7
  6
CONTINUOUS
 10
152.3031355971
 20
238.2259583511
 11
152.3921406727
 21
237.6912973902
  0
LINE
  5
3E4
100
AcDbEntity
  8
0
100
AcDbLine
 62
7
  6
CONTINUOUS
 10
156.328740784
 20
237.5752256077
 11
156.239735656
 21
238.1098867081
  0
LINE
  5
3E5
100
AcDbEntity
  8
0
100
AcDbLine
 62
7
  6
CONTINUOUS
 10
157.3836450376
 20
239.3846951065
 11
157.2938532378
 21
240.0251729537
  0
LINE
  5
3E6
100
AcDbEntity
  8
0
100
AcDbLine
 62
7
  6
CONTINUOUS
 10
160.1909869137
 20
239.4765981418
 11
160.2807764807
 21
238.8361194453
  0
LINE
  5
3E7
100
AcDbEntity
  8
0
100
AcDbLine
 62
7
  6
CONTINUOUS
 10
173.2970837161
 20
245.0782947129
 11
173.7697418257
 21
240.1006854161
  0
LINE
  5
3E8
100
AcDbEntity
  8
0
100
AcDbLine
 62
7
  6
CONTINUOUS
 10
174.3316036548
 20
240.7952071629
 11
174.1807553188
 21
242.3838059078
  0
LINE
  5
3E9
100
AcDbEntity
  8
0
100
AcDbLine
 62
7
  6
CONTINUOUS
 10
174.1204159929
 20
243.0192453168
 11
173.9796242042
 21
244.5019375676
  0
LINE
  5
3EA
100
AcDbEntity
  8
0
100
AcDbLine
 62
7
  6
CONTINUOUS
 10
176.632471565
 20
244.1126742613
 11
176.6525846737
 21
243.9008611249
  0
LINE
  5
3EB
100
AcDbEntity
  8
0
100
AcDbLine
 62
7
  6
CONTINUOUS
 10
176.8336026656
 20
241.9945427498
 11
176.8637723286
 21
241.6768230453
  0
LINE
  5
3EC
100
AcDbEntity
  8
1_AXIS
100
AcDbLine
 62
2
  6
CONTINUOUS
 10
183.2507267442
 20
162.1261071308
 11
183.2507267442
 21
159.1561071308
  0
LINE
  5
3ED
100
AcDbEntity
  8
1_AXIS
100
AcDbLine
 62
2
  6
CENTER
 10
183.2507267442
 20
153.2161071308
 11
183.2507267442
 21
51.6411071308
  0
LINE
  5
3EE
100
AcDbEntity
  8
1_AXIS
100
AcDbLine
 62
2
  6
CENTER
 10
183.2507267442
 20
168.0661071308
 11
183.2507267442
 21
269.6411071308
  0
LINE
  5
3EF
100
AcDbEntity
  8
0
100
AcDbLine
 62
7
  6
CONTINUOUS
 10
188.8896419337
 20
245.4794411543
 11
188.8413712644
 21
244.9497211065
  0
LINE
  5
3F0
100
AcDbEntity
  8
0
100
AcDbLine
 62
7
  6
CONTINUOUS
 10
188.5131306658
 20
241.3476242618
 11
188.4358975882
 21
240.5000721111
  0
LINE
  5
3F1
100
AcDbEntity
  8
0
100
AcDbLine
 62
7
  6
CONTINUOUS
 10
193.9834562986
 20
244.2123818678
 11
193.8687892954
 21
243.3690779751
  0
LINE
  5
3F2
100
AcDbEntity
  8
0
100
AcDbLine
 62
7
  6
CONTINUOUS
 10
194.5884240814
 20
244.0227603571
 11
194.0294225562
 21
239.9116547295
  0
LINE
  5
3F3
100
AcDbEntity
  8
0
100
AcDbLine
 62
7
  6
CONTINUOUS
 10
194.6487237093
 20
239.8274461685
 11
195.3223921975
 21
244.7818553934
  0
LINE
  5
3F4
100
AcDbEntity
  8
0
100
AcDbLine
 62
7
  6
CONTINUOUS
 10
197.6034745444
 20
242.1533500202
 11
197.5286270741
 21
241.7344523912
  0
LINE
  5
3F5
100
AcDbEntity
  8
1_AXIS
100
AcDbLine
 62
2
  6
CONTINUOUS
 10
184.7357267442
 20
160.6411071308
 11
181.7657267442
 21
160.6411071308
  0
LINE
  5
3F6
100
AcDbEntity
  8
1_AXIS
100
AcDbLine
 62
2
  6
CENTER
 10
175.8257267442
 20
160.6411071308
 11
74.2507267442
 21
160.6411071308
  0
LINE
  5
3F7
100
AcDbEntity
  8
1_AXIS
100
AcDbLine
 62
2
  6
CENTER
 10
190.6757267442
 20
160.6411071308
 11
292.2507267442
 21
160.6411071308
  0
LINE
  5
3F8
100
AcDbEntity
  8
0
100
AcDbLine
 62
7
  6
CONTINUOUS
 10
133.255127704
 20
227.4205024704
 11
134.4959879298
 21
225.6921504461
  0
LINE
  5
3F9
100
AcDbEntity
  8
0
100
AcDbLine
 62
7
  6
CONTINUOUS
 10
134.9190741131
 20
225.9959026966
 11
133.6782138873
 21
227.7242547208
  0
LINE
  5
3FA
100
AcDbEntity
  8
0
100
AcDbLine
 62
7
  6
CONTINUOUS
 10
135.3705585903
 20
228.939263701
 11
136.73550483
 21
227.0380764865
  0
LINE
  5
3FB
100
AcDbEntity
  8
0
100
AcDbLine
 62
7
  6
CONTINUOUS
 10
137.4067631753
 20
226.996158361
 11
135.7936448644
 21
229.2430160166
  0
LINE
  5
3FC
100
AcDbEntity
  8
0
100
AcDbLine
 62
7
  6
CONTINUOUS
 10
136.7941918978
 20
229.9244882073
 11
138.6403664617
 21
227.0643146071
  0
LINE
  5
3FD
100
AcDbEntity
  8
0
100
AcDbLine
 62
7
  6
CONTINUOUS
 10
139.0779582231
 20
227.3467697627
 11
137.7510202098
 21
229.4025196083
  0
LINE
  5
3FE
100
AcDbEntity
  8
0
100
AcDbLine
 62
7
  6
CONTINUOUS
 10
137.5202484096
 20
229.760041277
 11
137.2317836592
 21
230.2069433629
  0
LINE
  5
3FF
100
AcDbEntity
  8
0
100
AcDbLine
 62
7
  6
CONTINUOUS
 10
139.5571220508
 20
230.0618363058
 11
140.6532882638
 21
228.3636081289
  0
LINE
  5
400
100
AcDbEntity
  8
0
100
AcDbLine
 62
7
  6
CONTINUOUS
 10
141.0908797748
 20
228.6460631229
 11
139.9947135618
 21
230.3442912998
  0
LINE
  5
401
100
AcDbEntity
  8
0
100
AcDbLine
 62
7
  6
CONTINUOUS
 10
139.2321444333
 20
233.3558389816
 11
139.5062081888
 21
232.8999635112
  0
LINE
  5
402
100
AcDbEntity
  8
0
100
AcDbLine
 62
7
  6
CONTINUOUS
 10
140.0543358532
 20
231.9882123148
 11
141.8083440414
 21
229.0706090485
  0
LINE
  5
403
100
AcDbEntity
  8
0
100
AcDbLine
 62
7
  6
CONTINUOUS
 10
142.2547219892
 20
229.338963072
 11
140.5007138009
 21
232.2565663383
  0
LINE
  5
404
100
AcDbEntity
  8
0
100
AcDbLine
 62
7
  6
CONTINUOUS
 10
139.9525861365
 20
233.1683175346
 11
139.6785223811
 21
233.6241930051
  0
LINE
  5
405
100
AcDbEntity
  8
0
100
AcDbLine
 62
7
  6
CONTINUOUS
 10
145.4886957771
 20
235.9629397034
 11
145.8644660849
 21
235.1993254993
  0
LINE
  5
406
100
AcDbEntity
  8
0
100
AcDbLine
 62
7
  6
CONTINUOUS
 10
146.0964461008
 20
236.1434442173
 11
147.9283259728
 21
232.420825741
  0
LINE
  5
407
100
AcDbEntity
  8
0
100
AcDbLine
 62
7
  6
CONTINUOUS
 10
148.4891050245
 20
232.696781997
 11
146.2814549763
 21
237.1830144101
  0
LINE
  5
408
100
AcDbEntity
  8
0
100
AcDbLine
 62
7
  6
CONTINUOUS
 10
147.2147156402
 20
237.6470908655
 11
147.4294881365
 21
237.1604635323
  0
LINE
  5
409
100
AcDbEntity
  8
0
100
AcDbLine
 62
7
  6
CONTINUOUS
 10
152.3921406727
 20
237.6912973902
 11
152.727940887
 21
236.7946690454
  0
LINE
  5
40A
100
AcDbEntity
  8
0
100
AcDbLine
 62
7
  6
CONTINUOUS
 10
153.1783782813
 20
237.0769632581
 11
152.9172003369
 21
237.7743408596
  0
LINE
  5
40B
100
AcDbEntity
  8
0
100
AcDbLine
 62
7
  6
CONTINUOUS
 10
155.4534980475
 20
238.7242208402
 11
155.7146759919
 21
238.0268432387
  0
LINE
  5
40C
100
AcDbEntity
  8
0
100
AcDbLine
 62
7
  6
CONTINUOUS
 10
156.8546894757
 20
239.3318522655
 11
157.1385975104
 21
238.4174670073
  0
LINE
  5
40D
100
AcDbEntity
  8
0
100
AcDbLine
 62
7
  6
CONTINUOUS
 10
157.6044623979
 20
238.6735065724
 11
157.3836450376
 21
239.3846951065
  0
LINE
  5
40E
100
AcDbEntity
  8
0
100
AcDbLine
 62
7
  6
CONTINUOUS
 10
159.9701695534
 20
240.1877866759
 11
160.1909869137
 21
239.4765981418
  0
LINE
  5
40F
100
AcDbEntity
  8
0
100
AcDbLine
 62
7
  6
CONTINUOUS
 10
164.0445877103
 20
242.2570636055
 11
164.1340682511
 21
241.8410457527
  0
LINE
  5
410
100
AcDbEntity
  8
0
100
AcDbLine
 62
7
  6
CONTINUOUS
 10
164.7227239978
 20
242.076474611
 11
164.6779837588
 21
242.2844833917
  0
LINE
  5
411
100
AcDbEntity
  8
0
100
AcDbLine
 62
7
  6
CONTINUOUS
 10
167.3658128031
 20
240.6862848202
 11
167.4329231617
 21
240.3742716491
  0
LINE
  5
412
100
AcDbEntity
  8
0
100
AcDbLine
 62
7
  6
CONTINUOUS
 10
168.3695068458
 20
244.3505029359
 11
169.1328436785
 21
239.4091147827
  0
LINE
  5
413
100
AcDbEntity
  8
0
100
AcDbLine
 62
7
  6
CONTINUOUS
 10
169.7505171976
 20
239.5045318868
 11
169.4094517995
 21
241.7123861993
  0
LINE
  5
414
100
AcDbEntity
  8
0
100
AcDbLine
 62
7
  6
CONTINUOUS
 10
169.3120045559
 20
242.343201633
 11
169.0683864013
 21
243.9202405118
  0
LINE
  5
415
100
AcDbEntity
  8
0
100
AcDbLine
 62
7
  6
CONTINUOUS
 10
171.7394740935
 20
243.6869964665
 11
171.7881977608
 21
243.3715884551
  0
LINE
  5
416
100
AcDbEntity
  8
0
100
AcDbLine
 62
7
  6
CONTINUOUS
 10
177.496030045
 20
241.6299987408
 11
177.4457472734
 21
242.1595315816
  0
LINE
  5
417
100
AcDbEntity
  8
0
100
AcDbLine
 62
7
  6
CONTINUOUS
 10
177.2848423901
 20
243.8540368205
 11
177.2446161446
 21
244.2776633898
  0
LINE
  5
418
100
AcDbEntity
  8
0
100
AcDbLine
 62
7
  6
CONTINUOUS
 10
192.5853749567
 20
240.1219515347
 11
192.6432997666
 21
240.7576156663
  0
LINE
  5
419
100
AcDbEntity
  8
0
100
AcDbLine
 62
7
  6
CONTINUOUS
 10
192.9715403652
 20
244.359712511
 11
193.0391193022
 21
245.1013205779
  0
LINE
  5
41A
100
AcDbEntity
  8
0
100
AcDbLine
 62
7
  6
CONTINUOUS
 10
199.226192091
 20
242.9440855584
 11
199.1887683035
 21
242.7346364505
  0
LINE
  5
41B
100
AcDbEntity
  8
0
100
AcDbLine
 62
7
  6
CONTINUOUS
 10
198.9357838901
 20
240.7265508062
 11
198.8609364199
 21
240.3076531772
  0
LINE
  5
41C
100
AcDbEntity
  8
0
100
AcDbLine
 62
7
  6
CONTINUOUS
 10
199.7014831732
 20
242.6430259751
 11
199.7389069607
 21
242.852475083
  0
LINE
  5
41D
100
AcDbEntity
  8
0
100
AcDbLine
 62
7
  6
CONTINUOUS
 10
199.3736512896
 20
240.2160427018
 11
199.4484987598
 21
240.6349403308
  0
LINE
  5
41E
100
AcDbEntity
  8
0
100
AcDbLine
 62
7
  6
CONTINUOUS
 10
153.4997957421
 20
236.5157449914
 11
153.1783782813
 21
237.0769632581
  0
LINE
  5
41F
100
AcDbEntity
  8
0
100
AcDbLine
 62
7
  6
CONTINUOUS
 10
157.8932146886
 20
238.094803933
 11
157.6044623979
 21
238.6735065724
  0
LINE
  5
420
100
AcDbEntity
  8
0
100
AcDbLine
 62
7
  6
CONTINUOUS
 10
150.8602123351
 20
238.6746102933
 11
150.6454398388
 21
239.1612376265
  0
LINE
  5
421
100
AcDbEntity
  8
0
100
AcDbLine
 62
7
  6
CONTINUOUS
 10
156.239735656
 20
238.1098867081
 11
155.9039354418
 21
239.0065150529
  0
LINE
  5
422
100
AcDbEntity
  8
0
100
AcDbLine
 62
7
  6
CONTINUOUS
 10
160.7199401986
 20
239.5294402758
 11
160.4360321639
 21
240.443825534
  0
LINE
  5
423
100
AcDbEntity
  8
0
100
AcDbLine
 62
7
  6
CONTINUOUS
 10
168.0663191475
 20
240.4016917266
 11
167.9544685498
 21
240.9217136785
  0
LINE
  5
424
100
AcDbEntity
  8
0
100
AcDbLine
 62
7
  6
CONTINUOUS
 10
172.4221124872
 20
243.3618696535
 11
172.3571476126
 21
243.7824135705
  0
LINE
  5
425
100
AcDbEntity
  8
0
100
AcDbLine
 62
7
  6
CONTINUOUS
 10
199.4484987598
 20
240.6349403308
 11
199.4208051599
 21
241.0721598661
  0
LINE
  5
426
100
AcDbEntity
  8
0
100
AcDbLine
 62
7
  6
CONTINUOUS
 10
134.4959879298
 20
225.6921504461
 11
134.8287772422
 21
225.4072304583
  0
LINE
  5
427
100
AcDbEntity
  8
0
100
AcDbLine
 62
7
  6
CONTINUOUS
 10
137.7395523937
 20
226.7112383285
 11
137.4067631753
 21
226.996158361
  0
LINE
  5
428
100
AcDbEntity
  8
0
100
AcDbLine
 62
7
  6
CONTINUOUS
 10
139.1811387979
 20
230.4522472636
 11
139.5571220508
 21
230.0618363058
  0
LINE
  5
429
100
AcDbEntity
  8
0
100
AcDbLine
 62
7
  6
CONTINUOUS
 10
139.9947135618
 20
230.3442912998
 11
139.6187308097
 21
230.7347025808
  0
LINE
  5
42A
100
AcDbEntity
  8
0
100
AcDbLine
 62
7
  6
CONTINUOUS
 10
152.727940887
 20
236.7946690454
 11
153.0120472128
 21
236.3330761503
  0
LINE
  5
42B
100
AcDbEntity
  8
0
100
AcDbLine
 62
7
  6
CONTINUOUS
 10
155.9039354418
 20
239.0065150529
 11
155.6198291682
 21
239.4681078084
  0
LINE
  5
42C
100
AcDbEntity
  8
0
100
AcDbLine
 62
7
  6
CONTINUOUS
 10
155.132080639
 20
239.2854389673
 11
155.4534980475
 21
238.7242208402
  0
LINE
  5
42D
100
AcDbEntity
  8
0
100
AcDbLine
 62
7
  6
CONTINUOUS
 10
157.1385975104
 20
238.4174670073
 11
157.3958067409
 21
237.9403634369
  0
LINE
  5
42E
100
AcDbEntity
  8
0
100
AcDbLine
 62
7
  6
CONTINUOUS
 10
160.4360321639
 20
240.443825534
 11
160.1788252546
 21
240.9209296691
  0
LINE
  5
42F
100
AcDbEntity
  8
0
100
AcDbLine
 62
7
  6
CONTINUOUS
 10
159.6814150299
 20
240.766488466
 11
159.9701695534
 21
240.1877866759
  0
LINE
  5
430
100
AcDbEntity
  8
0
100
AcDbLine
 62
7
  6
CONTINUOUS
 10
164.2535876204
 20
239.799249956
 11
164.444904189
 21
239.4051361383
  0
LINE
  5
431
100
AcDbEntity
  8
0
100
AcDbLine
 62
7
  6
CONTINUOUS
 10
164.1340682511
 20
241.8410457527
 11
164.3253848197
 21
241.446931935
  0
LINE
  5
432
100
AcDbEntity
  8
0
100
AcDbLine
 62
7
  6
CONTINUOUS
 10
199.7389069607
 20
242.852475083
 11
199.7112086406
 21
243.2896953103
  0
LINE
  5
433
100
AcDbEntity
  8
0
100
AcDbLine
 62
7
  6
CONTINUOUS
 10
212.3505422302
 20
58.4307223083
 11
212.3749772982
 21
67.3089152594
  0
LINE
  5
434
100
AcDbEntity
  8
0
100
AcDbLine
 62
7
  6
CONTINUOUS
 10
233.8645350054
 20
244.2913457626
 11
235.9655006199
 21
252.9174022565
  0
LINE
  5
435
100
AcDbEntity
  8
0
100
AcDbLine
 62
7
  6
CONTINUOUS
 10
161.5177994612
 20
56.6149474468
 11
165.6653376296
 21
64.46484135
  0
LINE
  5
436
100
AcDbEntity
  8
0
100
AcDbLine
 62
7
  6
CONTINUOUS
 10
266.9412324896
 20
211.1883054503
 11
272.8102734886
 21
217.8499317458
  0
LINE
  5
437
100
AcDbEntity
  8
0
100
AcDbLine
 62
7
  6
CONTINUOUS
 10
115.6638084225
 20
78.6303121178
 11
122.9842986802
 21
83.6535908813
  0
LINE
  5
438
100
AcDbEntity
  8
0
100
AcDbLine
 62
7
  6
CONTINUOUS
 10
280.8454436873
 20
166.5055111627
 11
289.1380335078
 21
169.6766089568
  0
LINE
  5
439
100
AcDbEntity
  8
0
100
AcDbLine
 62
7
  6
CONTINUOUS
 10
87.0884911577
 20
178.3030565382
 11
78.2779755511
 21
177.2086517243
  0
LINE
  5
43A
100
AcDbEntity
  8
0
100
AcDbLine
 62
7
  6
CONTINUOUS
 10
288.2234779372
 20
177.2086517243
 11
279.4129623307
 21
178.3030565382
  0
LINE
  5
43B
100
AcDbEntity
  8
0
100
AcDbLine
 62
7
  6
CONTINUOUS
 10
106.3112129569
 20
220.9688058109
 11
98.0012935474
 21
224.094209234
  0
LINE
  5
43C
100
AcDbEntity
  8
0
100
AcDbLine
 62
7
  6
CONTINUOUS
 10
137.0457199081
 20
226.6059884501
 11
137.5251695444
 21
226.2954013749
  0
LINE
  5
43D
100
AcDbEntity
  8
0
100
AcDbLine
 62
7
  6
CONTINUOUS
 10
283.8988036939
 20
126.5276694088
 11
276.6060748376
 21
131.5911675058
  0
LINE
  5
43E
100
AcDbEntity
  8
0
100
AcDbLine
 62
7
  6
CONTINUOUS
 10
135.1898203827
 20
225.7974003699
 11
134.9190741131
 21
225.9959026966
  0
LINE
  5
43F
100
AcDbEntity
  8
0
100
AcDbLine
 62
7
  6
CONTINUOUS
 10
139.6187308097
 20
230.7347025808
 11
139.358133457
 21
230.9463527043
  0
LINE
  5
440
100
AcDbEntity
  8
0
100
AcDbLine
 62
7
  6
CONTINUOUS
 10
143.1598501431
 20
249.8142063436
 11
137.254229322
 21
256.4434257446
  0
LINE
  5
441
100
AcDbEntity
  8
0
100
AcDbLine
 62
7
  6
CONTINUOUS
 10
153.0120472128
 20
236.3330761503
 11
153.2215289838
 21
236.0707333019
  0
LINE
  5
442
100
AcDbEntity
  8
0
100
AcDbLine
 62
7
  6
CONTINUOUS
 10
155.6198291682
 20
239.4681078084
 11
155.4103472927
 21
239.7304509359
  0
LINE
  5
443
100
AcDbEntity
  8
0
100
AcDbLine
 62
7
  6
CONTINUOUS
 10
157.3958067409
 20
237.9403634369
 11
157.5899252528
 21
237.6664567328
  0
LINE
  5
444
100
AcDbEntity
  8
0
100
AcDbLine
 62
7
  6
CONTINUOUS
 10
160.1788252546
 20
240.9209296691
 11
159.9847066543
 21
241.1948366578
  0
LINE
  5
445
100
AcDbEntity
  8
0
100
AcDbLine
 62
7
  6
CONTINUOUS
 10
165.0335599358
 20
239.6405649966
 11
164.8646134867
 21
239.930674424
  0
LINE
  5
446
100
AcDbEntity
  8
0
100
AcDbLine
 62
7
  6
CONTINUOUS
 10
164.8916704469
 20
241.7863651836
 11
164.7227239978
 21
242.076474611
  0
LINE
  5
447
100
AcDbEntity
  8
0
100
AcDbLine
 62
7
  6
CONTINUOUS
 10
167.201553132
 20
242.9360896889
 11
167.032606683
 21
243.2261991162
  0
LINE
  5
448
100
AcDbEntity
  8
0
100
AcDbLine
 62
7
  6
CONTINUOUS
 10
256.5168679622
 20
83.6616645639
 11
252.4126021502
 21
91.5342695517
  0
LINE
  5
449
100
AcDbEntity
  8
0
100
AcDbLine
 62
7
  6
CONTINUOUS
 10
171.5878017435
 20
243.9865008473
 11
171.7394740935
 21
243.6869964665
  0
LINE
  5
44A
100
AcDbEntity
  8
0
100
AcDbLine
 62
7
  6
CONTINUOUS
 10
172.3571476126
 20
243.7824135705
 11
172.2054752626
 21
244.0819179514
  0
LINE
  5
44B
100
AcDbEntity
  8
0
100
AcDbLine
 62
7
  6
CONTINUOUS
 10
176.6997296302
 20
242.3024152581
 11
176.8336026656
 21
241.9945427498
  0
LINE
  5
44C
100
AcDbEntity
  8
0
100
AcDbLine
 62
7
  6
CONTINUOUS
 10
177.4457472734
 20
242.1595315816
 11
177.311874238
 21
242.46740409
  0
LINE
  5
44D
100
AcDbEntity
  8
0
100
AcDbLine
 62
7
  6
CONTINUOUS
 10
176.4985985155
 20
244.420546918
 11
176.632471565
 21
244.1126742613
  0
LINE
  5
44E
100
AcDbEntity
  8
0
100
AcDbLine
 62
7
  6
CONTINUOUS
 10
177.2446161446
 20
244.2776633898
 11
177.1107431233
 21
244.5855357498
  0
LINE
  5
44F
100
AcDbEntity
  8
0
100
AcDbLine
 62
7
  6
CONTINUOUS
 10
189.1928240112
 20
258.2311244991
 11
187.0444083381
 21
266.8454856039
  0
LINE
  5
450
100
AcDbEntity
  8
0
100
AcDbLine
 62
7
  6
CONTINUOUS
 10
195.6821154935
 20
240.8756361117
 11
195.728520974
 21
240.543141057
  0
LINE
  5
451
100
AcDbEntity
  8
0
100
AcDbLine
 62
7
  6
CONTINUOUS
 10
134.8287772422
 20
225.4072304583
 11
135.0374804973
 21
225.2951457214
  0
LINE
  5
452
100
AcDbEntity
  8
0
100
AcDbLine
 62
7
  6
CONTINUOUS
 10
137.9482558185
 20
226.5991536905
 11
137.7395523937
 21
226.7112383285
  0
LINE
  5
453
100
AcDbEntity
  8
0
100
AcDbLine
 62
7
  6
CONTINUOUS
 10
153.2215289838
 20
236.0707333019
 11
153.5658747475
 21
235.745299951
  0
LINE
  5
454
100
AcDbEntity
  8
0
100
AcDbLine
 62
7
  6
CONTINUOUS
 10
155.4103472927
 20
239.7304509359
 11
155.0660015552
 21
240.0558842171
  0
LINE
  5
455
100
AcDbEntity
  8
0
100
AcDbLine
 62
7
  6
CONTINUOUS
 10
157.5899252528
 20
237.6664567328
 11
157.9150693473
 21
237.3218392706
  0
LINE
  5
456
100
AcDbEntity
  8
0
100
AcDbLine
 62
7
  6
CONTINUOUS
 10
159.9847066543
 20
241.1948366578
 11
159.6595625819
 21
241.5394540488
  0
LINE
  5
457
100
AcDbEntity
  8
0
100
AcDbLine
 62
7
  6
CONTINUOUS
 10
164.444904189
 20
239.4051361383
 11
164.8622677433
 21
238.9508263112
  0
LINE
  5
458
100
AcDbEntity
  8
0
100
AcDbLine
 62
7
  6
CONTINUOUS
 10
167.9544685498
 20
240.9217136785
 11
167.6613135286
 21
241.2939233968
  0
LINE
  5
459
100
AcDbEntity
  8
0
100
AcDbLine
 62
7
  6
CONTINUOUS
 10
166.4439509362
 20
242.990770258
 11
166.5905272658
 21
242.804665221
  0
LINE
  5
45A
100
AcDbEntity
  8
0
100
AcDbLine
 62
7
  6
CONTINUOUS
 10
196.2599477244
 20
240.5562550622
 11
196.1948303632
 21
240.7840256363
  0
LINE
  5
45B
100
AcDbEntity
  8
0
100
AcDbLine
 62
7
  6
CONTINUOUS
 10
198.8055491939
 20
241.1820921011
 11
198.9357838901
 21
240.7265508062
  0
LINE
  5
45C
100
AcDbEntity
  8
0
100
AcDbLine
 62
7
  6
CONTINUOUS
 10
135.5451839445
 20
225.6596484415
 11
135.1898203827
 21
225.7974003699
  0
LINE
  5
45D
100
AcDbEntity
  8
0
100
AcDbLine
 62
7
  6
CONTINUOUS
 10
154.1138627407
 20
236.0641282664
 11
153.4997957421
 21
236.5157449914
  0
LINE
  5
45E
100
AcDbEntity
  8
0
100
AcDbLine
 62
7
  6
CONTINUOUS
 10
154.5180135619
 20
239.7370559017
 11
155.132080639
 21
239.2854389673
  0
LINE
  5
45F
100
AcDbEntity
  8
0
100
AcDbLine
 62
7
  6
CONTINUOUS
 10
158.4804144582
 20
237.6087665107
 11
157.8932146886
 21
238.094803933
  0
LINE
  5
460
100
AcDbEntity
  8
0
100
AcDbLine
 62
7
  6
CONTINUOUS
 10
159.094217471
 20
241.2525268087
 11
159.6814150299
 21
240.766488466
  0
LINE
  5
461
100
AcDbEntity
  8
0
100
AcDbLine
 62
7
  6
CONTINUOUS
 10
167.032606683
 20
243.2261991162
 11
166.6376132717
 21
243.5765044438
  0
LINE
  5
462
100
AcDbEntity
  8
0
100
AcDbLine
 62
7
  6
CONTINUOUS
 10
167.0950279014
 20
240.9544901481
 11
167.3658128031
 21
240.6862848202
  0
LINE
  5
463
100
AcDbEntity
  8
0
100
AcDbLine
 62
7
  6
CONTINUOUS
 10
172.2054752626
 20
244.0819179514
 11
171.831673674
 21
244.4547530218
  0
LINE
  5
464
100
AcDbEntity
  8
0
100
AcDbLine
 62
7
  6
CONTINUOUS
 10
177.311874238
 20
242.46740409
 11
176.9605474396
 21
242.8614892307
  0
LINE
  5
465
100
AcDbEntity
  8
0
100
AcDbLine
 62
7
  6
CONTINUOUS
 10
177.1107431233
 20
244.5855357498
 11
176.759416325
 21
244.9796208906
  0
LINE
  5
466
100
AcDbEntity
  8
0
100
AcDbLine
 62
7
  6
CONTINUOUS
 10
195.728520974
 20
240.543141057
 11
195.8774722581
 21
240.1923234773
  0
LINE
  5
467
100
AcDbEntity
  8
0
100
AcDbLine
 62
7
  6
CONTINUOUS
 10
199.4208051599
 20
241.0721598661
 11
199.2718538759
 21
241.4229774458
  0
LINE
  5
468
100
AcDbEntity
  8
0
100
AcDbLine
 62
7
  6
CONTINUOUS
 10
199.077240807
 20
243.2949031381
 11
199.226192091
 21
242.9440855584
  0
LINE
  5
469
100
AcDbEntity
  8
0
100
AcDbLine
 62
7
  6
CONTINUOUS
 10
135.0374804973
 20
225.2951457214
 11
135.4774612408
 21
225.2181442494
  0
LINE
  5
46A
100
AcDbEntity
  8
0
100
AcDbLine
 62
7
  6
CONTINUOUS
 10
138.8907163935
 20
230.518026165
 11
139.1811387979
 21
230.4522472636
  0
LINE
  5
46B
100
AcDbEntity
  8
0
100
AcDbLine
 62
7
  6
CONTINUOUS
 10
139.358133457
 20
230.9463527043
 11
139.0677110526
 21
231.0121316057
  0
LINE
  5
46C
100
AcDbEntity
  8
0
100
AcDbLine
 62
7
  6
CONTINUOUS
 10
153.5658747475
 20
235.745299951
 11
153.9704577294
 21
235.556025273
  0
LINE
  5
46D
100
AcDbEntity
  8
0
100
AcDbLine
 62
7
  6
CONTINUOUS
 10
155.0660015552
 20
240.0558842171
 11
154.6614185863
 21
240.2451588601
  0
LINE
  5
46E
100
AcDbEntity
  8
0
100
AcDbLine
 62
7
  6
CONTINUOUS
 10
157.9150693473
 20
237.3218392706
 11
158.3081505939
 21
237.109708588
  0
LINE
  5
46F
100
AcDbEntity
  8
0
100
AcDbLine
 62
7
  6
CONTINUOUS
 10
159.6595625819
 20
241.5394540488
 11
159.2664813463
 21
241.7515846958
  0
LINE
  5
470
100
AcDbEntity
  8
0
100
AcDbLine
 62
7
  6
CONTINUOUS
 10
165.4061832431
 20
239.3942639866
 11
165.0335599358
 21
239.6405649966
  0
LINE
  5
471
100
AcDbEntity
  8
0
100
AcDbLine
 62
7
  6
CONTINUOUS
 10
164.3253848197
 20
241.446931935
 11
164.8222166523
 21
241.1185308526
  0
LINE
  5
472
100
AcDbEntity
  8
0
100
AcDbLine
 62
7
  6
CONTINUOUS
 10
167.6613135286
 20
241.2939233968
 11
167.164481696
 21
241.6223244792
  0
LINE
  5
473
100
AcDbEntity
  8
0
100
AcDbLine
 62
7
  6
CONTINUOUS
 10
166.1955338545
 20
243.1549705485
 11
166.4439509362
 21
242.990770258
  0
LINE
  5
474
100
AcDbEntity
  8
0
100
AcDbLine
 62
7
  6
CONTINUOUS
 10
171.3494312975
 20
244.1649674425
 11
171.5878017435
 21
243.9865008473
  0
LINE
  5
475
100
AcDbEntity
  8
0
100
AcDbLine
 62
7
  6
CONTINUOUS
 10
176.4722192988
 20
242.494534607
 11
176.6997296302
 21
242.3024152581
  0
LINE
  5
476
100
AcDbEntity
  8
0
100
AcDbLine
 62
7
  6
CONTINUOUS
 10
176.2710881842
 20
244.6126662669
 11
176.4985985155
 21
244.420546918
  0
LINE
  5
477
100
AcDbEntity
  8
0
100
AcDbLine
 62
7
  6
CONTINUOUS
 10
196.4276108629
 20
240.3101618164
 11
196.2599477244
 21
240.5562550622
  0
LINE
  5
478
100
AcDbEntity
  8
0
100
AcDbLine
 62
7
  6
CONTINUOUS
 10
199.7112086406
 20
243.2896953103
 11
199.3758870315
 21
243.7818808165
  0
LINE
  5
479
100
AcDbEntity
  8
0
100
AcDbLine
 62
7
  6
CONTINUOUS
 10
136.0077389147
 20
225.7298150126
 11
135.5451839445
 21
225.6596484415
  0
LINE
  5
47A
100
AcDbEntity
  8
0
100
AcDbLine
 62
7
  6
CONTINUOUS
 10
135.4774612408
 20
225.2181442494
 11
135.8553990173
 21
225.2275604128
  0
LINE
  5
47B
100
AcDbEntity
  8
0
100
AcDbLine
 62
7
  6
CONTINUOUS
 10
139.0677110526
 20
231.0121316057
 11
138.6897701457
 21
231.021419379
  0
LINE
  5
47C
100
AcDbEntity
  8
0
100
AcDbLine
 62
7
  6
CONTINUOUS
 10
153.9704577294
 20
235.556025273
 11
154.5701396732
 21
235.439817973
  0
LINE
  5
47D
100
AcDbEntity
  8
0
100
AcDbLine
 62
7
  6
CONTINUOUS
 10
154.4811345747
 20
235.974478995
 11
154.1138627407
 21
236.0641282664
  0
LINE
  5
47E
100
AcDbEntity
  8
0
100
AcDbLine
 62
7
  6
CONTINUOUS
 10
154.150741728
 20
239.8267051731
 11
154.5180135619
 21
239.7370559017
  0
LINE
  5
47F
100
AcDbEntity
  8
0
100
AcDbLine
 62
7
  6
CONTINUOUS
 10
158.3081505939
 20
237.109708588
 11
158.9001945615
 21
236.9593539714
  0
LINE
  5
480
100
AcDbEntity
  8
0
100
AcDbLine
 62
7
  6
CONTINUOUS
 10
158.8419503565
 20
237.4982342257
 11
158.4804144582
 21
237.6087665107
  0
LINE
  5
481
100
AcDbEntity
  8
0
100
AcDbLine
 62
7
  6
CONTINUOUS
 10
158.7326815726
 20
241.3630590937
 11
159.094217471
 21
241.2525268087
  0
LINE
  5
482
100
AcDbEntity
  8
0
100
AcDbLine
 62
7
  6
CONTINUOUS
 10
164.8622677433
 20
238.9508263112
 11
165.4385678836
 21
238.7483338369
  0
LINE
  5
483
100
AcDbEntity
  8
0
100
AcDbLine
 62
7
  6
CONTINUOUS
 10
161.8031556225
 20
239.0414385151
 11
162.1594166255
 21
238.9149328252
  0
LINE
  5
484
100
AcDbEntity
  8
0
100
AcDbLine
 62
7
  6
CONTINUOUS
 10
162.7943967437
 20
241.8310773284
 11
162.438135665
 21
241.9575833065
  0
LINE
  5
485
100
AcDbEntity
  8
0
100
AcDbLine
 62
7
  6
CONTINUOUS
 10
165.2419236191
 20
241.6440686369
 11
164.8916704469
 21
241.7863651836
  0
LINE
  5
486
100
AcDbEntity
  8
0
100
AcDbLine
 62
7
  6
CONTINUOUS
 10
166.7447747292
 20
241.0967866949
 11
167.0950279014
 21
240.9544901481
  0
LINE
  5
487
100
AcDbEntity
  8
0
100
AcDbLine
 62
7
  6
CONTINUOUS
 10
166.6376132717
 20
243.5765044438
 11
166.1631515586
 21
243.8009011358
  0
LINE
  5
488
100
AcDbEntity
  8
0
100
AcDbLine
 62
7
  6
CONTINUOUS
 10
171.831673674
 20
244.4547530218
 11
171.3711692769
 21
244.7065495786
  0
LINE
  5
489
100
AcDbEntity
  8
0
100
AcDbLine
 62
7
  6
CONTINUOUS
 10
176.759416325
 20
244.9796208906
 11
176.3144474696
 21
245.2579525695
  0
LINE
  5
48A
100
AcDbEntity
  8
0
100
AcDbLine
 62
7
  6
CONTINUOUS
 10
196.1476764994
 20
239.9279085086
 11
196.5204218387
 21
239.6451717895
  0
LINE
  5
48B
100
AcDbEntity
  8
0
100
AcDbLine
 62
7
  6
CONTINUOUS
 10
196.613981188
 20
240.16879389
 11
196.4276108629
 21
240.3101618164
  0
LINE
  5
48C
100
AcDbEntity
  8
0
100
AcDbLine
 62
7
  6
CONTINUOUS
 10
195.8774722581
 20
240.1923234773
 11
196.1476764994
 21
239.9279085086
  0
LINE
  5
48D
100
AcDbEntity
  8
0
100
AcDbLine
 62
7
  6
CONTINUOUS
 10
198.535344946
 20
241.4465070331
 11
198.8055491939
 21
241.1820921011
  0
LINE
  5
48E
100
AcDbEntity
  8
0
100
AcDbLine
 62
7
  6
CONTINUOUS
 10
198.8070365591
 20
243.5593180701
 11
199.077240807
 21
243.2949031381
  0
LINE
  5
48F
100
AcDbEntity
  8
0
100
AcDbLine
 62
7
  6
CONTINUOUS
 10
138.6897701457
 20
231.021419379
 11
138.3695221888
 21
230.9413267352
  0
LINE
  5
490
100
AcDbEntity
  8
0
100
AcDbLine
 62
7
  6
CONTINUOUS
 10
165.97012545
 20
238.7538496603
 11
166.7848258281
 21
238.9290821171
  0
LINE
  5
491
100
AcDbEntity
  8
0
100
AcDbLine
 62
7
  6
CONTINUOUS
 10
166.6506050952
 20
239.5531085321
 11
165.8359047171
 21
239.3778760753
  0
LINE
  5
492
100
AcDbEntity
  8
0
100
AcDbLine
 62
7
  6
CONTINUOUS
 10
164.8646134867
 20
239.930674424
 11
164.2535876204
 21
239.799249956
  0
LINE
  5
493
100
AcDbEntity
  8
0
100
AcDbLine
 62
7
  6
CONTINUOUS
 10
165.7040273889
 20
240.9817501382
 11
166.3150532552
 21
241.1131746062
  0
LINE
  5
494
100
AcDbEntity
  8
0
100
AcDbLine
 62
7
  6
CONTINUOUS
 10
154.5701396732
 20
235.439817973
 11
155.1927499395
 21
235.5593955365
  0
LINE
  5
495
100
AcDbEntity
  8
0
100
AcDbLine
 62
7
  6
CONTINUOUS
 10
155.0061942388
 20
236.0575224644
 11
154.4811345747
 21
235.974478995
  0
LINE
  5
496
100
AcDbEntity
  8
0
100
AcDbLine
 62
7
  6
CONTINUOUS
 10
169.1328436785
 20
239.4091147827
 11
169.7505171976
 21
239.5045318868
  0
LINE
  5
497
100
AcDbEntity
  8
0
100
AcDbLine
 62
7
  6
CONTINUOUS
 10
169.4094517995
 20
241.7123861993
 11
171.2624723569
 21
241.9986375116
  0
LINE
  5
498
100
AcDbEntity
  8
0
100
AcDbLine
 62
7
  6
CONTINUOUS
 10
198.6663280188
 20
242.179577884
 11
198.0136483177
 21
242.0800613044
  0
LINE
  5
499
100
AcDbEntity
  8
0
100
AcDbLine
 62
7
  6
CONTINUOUS
 10
158.9001945615
 20
236.9593539714
 11
159.5286303495
 21
237.0430844785
  0
LINE
  5
49A
100
AcDbEntity
  8
0
100
AcDbLine
 62
7
  6
CONTINUOUS
 10
138.6579869392
 20
230.4944246493
 11
138.8907163935
 21
230.518026165
  0
LINE
  5
49B
100
AcDbEntity
  8
0
100
AcDbLine
 62
7
  6
CONTINUOUS
 10
159.3709036414
 20
237.5510763598
 11
158.8419503565
 21
237.4982342257
  0
LINE
  5
49C
100
AcDbEntity
  8
0
100
AcDbLine
 62
7
  6
CONTINUOUS
 10
173.7697418257
 20
240.1006854161
 11
176.2585464741
 21
240.3370144709
  0
LINE
  5
49D
100
AcDbEntity
  8
0
100
AcDbLine
 62
7
  6
CONTINUOUS
 10
176.3019104995
 20
240.9823012985
 11
174.3316036548
 21
240.7952071629
  0
LINE
  5
49E
100
AcDbEntity
  8
0
100
AcDbLine
 62
7
  6
CONTINUOUS
 10
174.1807553188
 20
242.3838059078
 11
176.1510621635
 21
242.5709000433
  0
LINE
  5
49F
100
AcDbEntity
  8
0
100
AcDbLine
 62
7
  6
CONTINUOUS
 10
197.7322219015
 20
239.3205829031
 11
198.1611075441
 21
239.3520186037
  0
LINE
  5
4A0
100
AcDbEntity
  8
0
100
AcDbLine
 62
7
  6
CONTINUOUS
 10
198.2546668933
 20
239.8756407042
 11
197.7232401561
 21
239.8625267723
  0
LINE
  5
4A1
100
AcDbEntity
  8
0
100
AcDbLine
 62
7
  6
CONTINUOUS
 10
165.4385678836
 20
238.7483338369
 11
165.97012545
 21
238.7538496603
  0
LINE
  5
4A2
100
AcDbEntity
  8
0
100
AcDbLine
 62
7
  6
CONTINUOUS
 10
166.7123924333
 20
241.7427172822
 11
166.180832538
 21
241.7372009484
  0
LINE
  5
4A3
100
AcDbEntity
  8
0
100
AcDbLine
 62
7
  6
CONTINUOUS
 10
165.8359047171
 20
239.3778760753
 11
165.4061832431
 21
239.3942639866
  0
LINE
  5
4A4
100
AcDbEntity
  8
0
100
AcDbLine
 62
7
  6
CONTINUOUS
 10
165.2743082458
 20
240.9981385509
 11
165.7040273889
 21
240.9817501382
  0
LINE
  5
4A5
100
AcDbEntity
  8
0
100
AcDbLine
 62
7
  6
CONTINUOUS
 10
166.3150532552
 20
241.1131746062
 11
166.7447747292
 21
241.0967866949
  0
LINE
  5
4A6
100
AcDbEntity
  8
0
100
AcDbLine
 62
7
  6
CONTINUOUS
 10
188.4358975882
 20
240.5000721111
 11
192.5853749567
 21
240.1219515347
  0
LINE
  5
4A7
100
AcDbEntity
  8
0
100
AcDbLine
 62
7
  6
CONTINUOUS
 10
192.6432997666
 20
240.7576156663
 11
189.1162435285
 21
241.0790181995
  0
LINE
  5
4A8
100
AcDbEntity
  8
0
100
AcDbLine
 62
7
  6
CONTINUOUS
 10
165.5698066717
 20
241.6057764805
 11
165.2419236191
 21
241.6440686369
  0
LINE
  5
4A9
100
AcDbEntity
  8
0
100
AcDbLine
 62
7
  6
CONTINUOUS
 10
165.8676508018
 20
243.1932627049
 11
166.1955338545
 21
243.1549705485
  0
LINE
  5
4AA
100
AcDbEntity
  8
0
100
AcDbLine
 62
7
  6
CONTINUOUS
 10
194.0294225562
 20
239.9116547295
 11
194.6487237093
 21
239.8274461685
  0
LINE
  5
4AB
100
AcDbEntity
  8
0
100
AcDbLine
 62
7
  6
CONTINUOUS
 10
171.0243509745
 20
244.2223944321
 11
171.3494312975
 21
244.1649674425
  0
LINE
  5
4AC
100
AcDbEntity
  8
0
100
AcDbLine
 62
7
  6
CONTINUOUS
 10
196.9118837429
 20
239.4671586572
 11
197.7322219015
 21
239.3205829031
  0
LINE
  5
4AD
100
AcDbEntity
  8
0
100
AcDbLine
 62
7
  6
CONTINUOUS
 10
197.7232401561
 20
239.8625267723
 11
197.1079841901
 21
239.9724590073
  0
LINE
  5
4AE
100
AcDbEntity
  8
0
100
AcDbLine
 62
7
  6
CONTINUOUS
 10
196.1948303632
 20
240.7840256363
 11
195.6821154935
 21
240.8756361117
  0
LINE
  5
4AF
100
AcDbEntity
  8
0
100
AcDbLine
 62
7
  6
CONTINUOUS
 10
197.5286270741
 20
241.7344523912
 11
197.9388008475
 21
241.6611636754
  0
LINE
  5
4B0
100
AcDbEntity
  8
0
100
AcDbLine
 62
7
  6
CONTINUOUS
 10
154.6614185863
 20
240.2451588601
 11
154.0617366523
 21
240.361366134
  0
LINE
  5
4B1
100
AcDbEntity
  8
0
100
AcDbLine
 62
7
  6
CONTINUOUS
 10
176.1510621635
 20
242.5709000433
 11
176.4722192988
 21
242.494534607
  0
LINE
  5
4B2
100
AcDbEntity
  8
0
100
AcDbLine
 62
7
  6
CONTINUOUS
 10
175.9499310488
 20
244.6890317032
 11
176.2710881842
 21
244.6126662669
  0
LINE
  5
4B3
100
AcDbEntity
  8
0
100
AcDbLine
 62
7
  6
CONTINUOUS
 10
159.2664813463
 20
241.7515846958
 11
158.67443511
 21
241.9019385788
  0
LINE
  5
4B4
100
AcDbEntity
  8
0
100
AcDbLine
 62
7
  6
CONTINUOUS
 10
164.8222166523
 20
241.1185308526
 11
165.2743082458
 21
240.9981385509
  0
LINE
  5
4B5
100
AcDbEntity
  8
0
100
AcDbLine
 62
7
  6
CONTINUOUS
 10
167.164481696
 20
241.6223244792
 11
166.7123924333
 21
241.7427172822
  0
LINE
  5
4B6
100
AcDbEntity
  8
0
100
AcDbLine
 62
7
  6
CONTINUOUS
 10
197.9388008475
 20
241.6611636754
 11
198.535344946
 21
241.4465070331
  0
LINE
  5
4B7
100
AcDbEntity
  8
0
100
AcDbLine
 62
7
  6
CONTINUOUS
 10
176.9605474396
 20
242.8614892307
 11
176.7430936626
 21
242.9477020115
  0
LINE
  5
4B8
100
AcDbEntity
  8
0
100
AcDbLine
 62
7
  6
CONTINUOUS
 10
197.1079841901
 20
239.9724590073
 11
196.613981188
 21
240.16879389
  0
LINE
  5
4B9
100
AcDbEntity
  8
0
100
AcDbLine
 62
7
  6
CONTINUOUS
 10
196.5204218387
 20
239.6451717895
 11
196.9118837429
 21
239.4671586572
  0
LINE
  5
4BA
100
AcDbEntity
  8
0
100
AcDbLine
 62
7
  6
CONTINUOUS
 10
199.2718538759
 20
241.4229774458
 11
198.7965627413
 21
241.7240367358
  0
LINE
  5
4BB
100
AcDbEntity
  8
0
100
AcDbLine
 62
7
  6
CONTINUOUS
 10
199.3758870315
 20
243.7818808165
 11
199.0031416872
 21
244.0646175081
  0
LINE
  5
4BC
100
AcDbEntity
  8
0
100
AcDbLine
 62
7
  6
CONTINUOUS
 10
166.180832538
 20
241.7372009484
 11
165.5698066717
 21
241.6057764805
  0
LINE
  5
4BD
100
AcDbEntity
  8
0
100
AcDbLine
 62
7
  6
CONTINUOUS
 10
166.5905272658
 20
242.804665221
 11
167.201553132
 21
242.9360896889
  0
LINE
  5
4BE
100
AcDbEntity
  8
0
100
AcDbLine
 62
7
  6
CONTINUOUS
 10
165.2566249356
 20
243.061838237
 11
165.8676508018
 21
243.1932627049
  0
LINE
  5
4BF
100
AcDbEntity
  8
0
100
AcDbLine
 62
7
  6
CONTINUOUS
 10
165.6315939942
 20
243.7953853033
 11
165.1224042184
 21
243.6858645792
  0
LINE
  5
4C0
100
AcDbEntity
  8
0
100
AcDbLine
 62
7
  6
CONTINUOUS
 10
154.0617366523
 20
240.361366134
 11
153.4391263893
 21
240.2417885618
  0
LINE
  5
4C1
100
AcDbEntity
  8
0
100
AcDbLine
 62
7
  6
CONTINUOUS
 10
153.6256820639
 20
239.7436617036
 11
154.150741728
 21
239.8267051731
  0
LINE
  5
4C2
100
AcDbEntity
  8
0
100
AcDbLine
 62
7
  6
CONTINUOUS
 10
171.267969129
 20
242.6453555533
 11
169.3120045559
 21
242.343201633
  0
LINE
  5
4C3
100
AcDbEntity
  8
0
100
AcDbLine
 62
7
  6
CONTINUOUS
 10
169.0683864013
 20
243.9202405118
 11
171.0243509745
 21
244.2223944321
  0
LINE
  5
4C4
100
AcDbEntity
  8
0
100
AcDbLine
 62
7
  6
CONTINUOUS
 10
170.8402009224
 20
244.7321713522
 11
168.3695068458
 21
244.3505029359
  0
LINE
  5
4C5
100
AcDbEntity
  8
0
100
AcDbLine
 62
7
  6
CONTINUOUS
 10
158.67443511
 20
241.9019385788
 11
158.0459993248
 21
241.8182080628
  0
LINE
  5
4C6
100
AcDbEntity
  8
0
100
AcDbLine
 62
7
  6
CONTINUOUS
 10
158.2037260108
 20
241.3102162527
 11
158.7326815726
 21
241.3630590937
  0
LINE
  5
4C7
100
AcDbEntity
  8
0
100
AcDbLine
 62
7
  6
CONTINUOUS
 10
176.0907228375
 20
243.2063394523
 11
174.1204159929
 21
243.0192453168
  0
LINE
  5
4C8
100
AcDbEntity
  8
0
100
AcDbLine
 62
7
  6
CONTINUOUS
 10
173.9796242042
 20
244.5019375676
 11
175.9499310488
 21
244.6890317032
  0
LINE
  5
4C9
100
AcDbEntity
  8
0
100
AcDbLine
 62
7
  6
CONTINUOUS
 10
175.7858883645
 20
245.3146237677
 11
173.2970837161
 21
245.0782947129
  0
LINE
  5
4CA
100
AcDbEntity
  8
0
100
AcDbLine
 62
7
  6
CONTINUOUS
 10
197.3714424344
 20
243.8158260592
 11
197.9028644776
 21
243.8289408298
  0
LINE
  5
4CB
100
AcDbEntity
  8
0
100
AcDbLine
 62
7
  6
CONTINUOUS
 10
166.1631515586
 20
243.8009011358
 11
165.6315939942
 21
243.7953853033
  0
LINE
  5
4CC
100
AcDbEntity
  8
0
100
AcDbLine
 62
7
  6
CONTINUOUS
 10
198.0989696058
 20
244.3342402678
 11
197.3624559819
 21
244.3577706939
  0
LINE
  5
4CD
100
AcDbEntity
  8
0
100
AcDbLine
 62
7
  6
CONTINUOUS
 10
171.3711692769
 20
244.7065495786
 11
170.8402009224
 21
244.7321713522
  0
LINE
  5
4CE
100
AcDbEntity
  8
0
100
AcDbLine
 62
7
  6
CONTINUOUS
 10
188.8413712644
 20
244.9497211065
 11
192.4721627747
 21
244.6188657103
  0
LINE
  5
4CF
100
AcDbEntity
  8
0
100
AcDbLine
 62
7
  6
CONTINUOUS
 10
193.0391193022
 20
245.1013205779
 11
188.8896419337
 21
245.4794411543
  0
LINE
  5
4D0
100
AcDbEntity
  8
0
100
AcDbLine
 62
7
  6
CONTINUOUS
 10
176.3144474696
 20
245.2579525695
 11
175.7858883645
 21
245.3146237677
  0
LINE
  5
4D1
100
AcDbEntity
  8
0
100
AcDbLine
 62
7
  6
CONTINUOUS
 10
195.3223921975
 20
244.7818553934
 11
194.7030910444
 21
244.8660639544
  0
LINE
  5
4D2
100
AcDbEntity
  8
0
100
AcDbLine
 62
7
  6
CONTINUOUS
 10
198.0136483177
 20
242.0800613044
 11
197.6034745444
 21
242.1533500202
  0
LINE
  5
4D3
100
AcDbEntity
  8
0
100
AcDbLine
 62
7
  6
CONTINUOUS
 10
196.2524533573
 20
243.4754249737
 11
196.765168227
 21
243.3838144983
  0
LINE
  5
4D4
100
AcDbEntity
  8
0
100
AcDbLine
 62
7
  6
CONTINUOUS
 10
197.9028644776
 20
243.8289408298
 11
198.313038251
 21
243.755652114
  0
LINE
  5
4D5
100
AcDbEntity
  8
0
100
AcDbLine
 62
7
  6
CONTINUOUS
 10
198.3040517984
 20
244.2975967486
 11
198.0989696058
 21
244.3342402678
  0
LINE
  5
4D6
100
AcDbEntity
  8
0
100
AcDbLine
 62
7
  6
CONTINUOUS
 10
199.0031416872
 20
244.0646175081
 11
198.3040517984
 21
244.2975967486
  0
LINE
  5
4D7
100
AcDbEntity
  8
0
100
AcDbLine
 62
7
  6
CONTINUOUS
 10
198.313038251
 20
243.755652114
 11
198.8070365591
 21
243.5593180701
  0
LWPOLYLINE
  5
4D8
100
AcDbEntity
  8
0
100
AcDbPolyline
 62
7
  6
CONTINUOUS
 90
31
 70
0
 10
76.7339294057
 20
328.994244161
 10
76.7371344392
 20
328.955782382
 10
76.7405674911
 20
328.9193132673
 10
76.7442803061
 20
328.8844732423
 10
76.7483126279
 20
328.8512264045
 10
76.7527483288
 20
328.8193437306
 10
76.7577264168
 20
328.7884676421
 10
76.763459044
 20
328.7581359243
 10
76.7703053452
 20
328.7275861498
 10
76.7788892058
 20
328.6956386268
 10
76.7895609554
 20
328.6626999339
 10
76.8028215627
 20
328.6287048955
 10
76.8187373509
 20
328.5946131416
 10
76.8369804665
 20
328.5616895367
 10
76.8577360506
 20
328.5298737689
 10
76.8808909503
 20
328.4994841586
 10
76.9063039985
 20
328.4708246917
 10
76.9337521105
 20
328.4441860808
 10
76.9629230764
 20
328.4198246819
 10
76.9934521162
 20
328.3979828956
 10
77.024988864
 20
328.378752641
 10
77.0573362744
 20
328.3621055791
 10
77.0895990794
 20
328.3482990705
 10
77.1218401432
 20
328.3370430867
 10
77.1512261408
 20
328.328830613
 10
77.1751923572
 20
328.3234833779
 10
77.1945583587
 20
328.3199625662
 10
77.208395124
 20
328.3177996666
 10
77.2205208381
 20
328.3160667403
 10
77.2337211131
 20
328.314287632
 10
77.264786994
 20
328.3103364851
  0
LWPOLYLINE
  5
4D9
100
AcDbEntity
  8
0
100
AcDbPolyline
 62
7
  6
CONTINUOUS
 90
7
 70
0
 10
76.7210134878
 20
329.2299833204
 10
76.7212662661
 20
329.2226914252
 10
76.7232693814
 20
329.1719785267
 10
76.7255773609
 20
329.1237508445
 10
76.7281400631
 20
329.0781216154
 10
76.7309298597
 20
329.0349820922
 10
76.7339294057
 20
328.994244161
  0
LINE
  5
4DA
100
AcDbEntity
  8
0
100
AcDbLine
 62
7
  6
CONTINUOUS
 10
76.7210940972
 20
329.2335604949
 11
76.7206005529
 21
329.2649405857
  0
LINE
  5
4DB
100
AcDbEntity
  8
0
100
AcDbLine
 62
7
  6
CONTINUOUS
 10
76.7205969198
 20
336.3644198794
 11
76.7205969198
 21
329.2649405857
  0
LINE
  5
4DC
100
AcDbEntity
  8
0
100
AcDbLine
 62
7
  6
CONTINUOUS
 10
82.1729774441
 20
329.2649405857
 11
82.1729774441
 21
336.3644198794
  0
LINE
  5
4DD
100
AcDbEntity
  8
0
100
AcDbLine
 62
7
  6
CONTINUOUS
 10
76.7205969198
 20
336.3644198794
 11
76.7211426006
 21
336.3974475295
  0
LINE
  5
4DE
100
AcDbEntity
  8
0
100
AcDbLine
 62
7
  6
CONTINUOUS
 10
82.1729774441
 20
336.3644198794
 11
82.1904386551
 21
336.5504772693
  0
LINE
  5
4DF
100
AcDbEntity
  8
0
100
AcDbLine
 62
7
  6
CONTINUOUS
 10
82.2022882749
 20
336.6100458996
 11
82.1893134424
 21
336.544388383
  0
LWPOLYLINE
  5
4E0
100
AcDbEntity
  8
0
100
AcDbPolyline
 62
7
  6
CONTINUOUS
 90
6
 70
0
 10
82.2724990479
 20
328.7774866546
 10
82.2917307368
 20
328.7299225447
 10
82.3128596055
 20
328.6838397206
 10
82.3365249946
 20
328.6386761984
 10
82.3628593225
 20
328.5949822182
 10
82.3923097466
 20
328.5526547379
  0
LWPOLYLINE
  5
4E1
100
AcDbEntity
  8
0
100
AcDbPolyline
 62
7
  6
CONTINUOUS
 90
5
 70
0
 10
82.2090972334
 20
328.989304137
 10
82.2231437534
 20
328.9326733785
 10
82.238327349
 20
328.8787363603
 10
82.2547464615
 20
328.827056761
 10
82.2724990479
 20
328.7774866546
  0
LINE
  5
4E2
100
AcDbEntity
  8
0
100
AcDbLine
 62
7
  6
CONTINUOUS
 10
82.1962442075
 20
329.0487973169
 11
82.2090972334
 21
328.989304137
  0
LINE
  5
4E3
100
AcDbEntity
  8
0
100
AcDbLine
 62
7
  6
CONTINUOUS
 10
82.187270278
 20
329.0964812017
 11
82.1962442075
 21
329.0487973169
  0
LWPOLYLINE
  5
4E4
100
AcDbEntity
  8
0
100
AcDbPolyline
 62
7
  6
CONTINUOUS
 90
10
 70
0
 10
82.3976348263
 20
337.0832037859
 10
82.3676379137
 20
337.0407359806
 10
82.3401926151
 20
336.9957158418
 10
82.315126936
 20
336.9484233695
 10
82.2921702284
 20
336.8988575697
 10
82.271184006
 20
336.847176668
 10
82.2518220486
 20
336.7928507192
 10
82.233939492
 20
336.7355643654
 10
82.217415377
 20
336.6747549836
 10
82.2022882749
 20
336.6100458996
  0
LINE
  5
4E5
100
AcDbEntity
  8
0
100
AcDbLine
 62
7
  6
CONTINUOUS
 10
82.3923097466
 20
328.5526547379
 11
82.4245499378
 21
328.5127193056
  0
LINE
  5
4E6
100
AcDbEntity
  8
0
100
AcDbLine
 62
7
  6
CONTINUOUS
 10
109.8713172309
 20
329.2649405857
 11
109.8713172309
 21
336.3644198794
  0
LWPOLYLINE
  5
4E7
100
AcDbEntity
  8
0
100
AcDbPolyline
 62
7
  6
CONTINUOUS
 90
16
 70
0
 10
82.4245499378
 20
328.5127193056
 10
82.4591720043
 20
328.4759412806
 10
82.4960956764
 20
328.4424511233
 10
82.5350408
 20
328.4125704624
 10
82.5756277217
 20
328.3864855018
 10
82.6187123831
 20
328.3636288642
 10
82.660947497
 20
328.3455310011
 10
82.7019939676
 20
328.3315498193
 10
82.7401737499
 20
328.3212612953
 10
82.7719031688
 20
328.3142724339
 10
82.803039864
 20
328.3083434705
 10
82.8350610008
 20
328.3028510888
 10
82.8693547067
 20
328.2974056624
 10
82.9077482987
 20
328.2916748901
 10
82.9502784415
 20
328.2856531849
 10
82.997555435
 20
328.2792687338
  0
LWPOLYLINE
  5
4E8
100
AcDbEntity
  8
0
100
AcDbPolyline
 62
7
  6
CONTINUOUS
 90
4
 70
0
 10
82.5052080319
 20
337.1935353736
 10
82.4660021993
 20
337.1593931249
 10
82.4303394286
 20
337.1227691863
 10
82.3976348263
 20
337.0832037859
  0
LINE
  5
4E9
100
AcDbEntity
  8
0
100
AcDbLine
 62
7
  6
CONTINUOUS
 10
82.5464611848
 20
337.2238619912
 11
82.5052080319
 21
337.1935353736
  0
LINE
  5
4EA
100
AcDbEntity
  8
0
100
AcDbLine
 62
7
  6
CONTINUOUS
 10
110.2164968557
 20
337.1202044207
 11
110.2161342885
 21
337.1198901359
  0
LWPOLYLINE
  5
4EB
100
AcDbEntity
  8
0
100
AcDbPolyline
 62
7
  6
CONTINUOUS
 90
5
 70
0
 10
110.2025647529
 20
328.5214588801
 10
110.2487087737
 20
328.4824673483
 10
110.3092025546
 20
328.4377706886
 10
110.3698534989
 20
328.399426908
 10
110.4325436421
 20
328.3659172905
  0
LINE
  5
4EC
100
AcDbEntity
  8
0
100
AcDbLine
 62
7
  6
CONTINUOUS
 10
110.2015576177
 20
328.5223710081
 11
110.2035660981
 21
328.5205612988
  0
LWPOLYLINE
  5
4ED
100
AcDbEntity
  8
0
100
AcDbPolyline
 62
7
  6
CONTINUOUS
 90
3
 70
0
 10
110.3231474752
 20
337.2004991996
 10
110.2577572444
 20
337.153123949
 10
110.2160936238
 20
337.1187256808
  0
LINE
  5
4EE
100
AcDbEntity
  8
0
100
AcDbLine
 62
7
  6
CONTINUOUS
 10
110.3883711376
 20
337.2404328263
 11
110.3231474752
 21
337.2004991996
  0
LINE
  5
4EF
100
AcDbEntity
  8
0
100
AcDbLine
 62
7
  6
CONTINUOUS
 10
110.4562817942
 20
337.274878507
 11
110.3883711376
 21
337.2404328263
  0
LINE
  5
4F0
100
AcDbEntity
  8
1_AXIS
100
AcDbLine
 62
7
  6
CONTINUOUS
 10
151.7507267442
 20
313.6646802326
 11
151.7507267442
 21
326.3146802326
  0
LINE
  5
4F1
100
AcDbEntity
  8
1_AXIS
100
AcDbLine
 62
7
  6
CONTINUOUS
 10
151.7507267442
 20
339.3146802326
 11
151.7507267442
 21
351.9646802326
  0
LINE
  5
4F2
100
AcDbEntity
  8
0
100
AcDbLine
 62
7
  6
CONTINUOUS
 10
154.1264761901
 20
328.3700280371
 11
154.1264761901
 21
329.2649392171
  0
LINE
  5
4F3
100
AcDbEntity
  8
0
100
AcDbLine
 62
7
  6
CONTINUOUS
 10
154.1264761901
 20
336.3644210585
 11
154.1264761901
 21
337.259332428
  0
LINE
  5
4F4
100
AcDbEntity
  8
0
100
AcDbLine
 62
7
  6
CONTINUOUS
 10
154.1509112581
 20
329.2649392171
 11
154.1509112581
 21
336.3644210585
  0
LINE
  5
4F5
100
AcDbEntity
  8
0
100
AcDbLine
 62
7
  6
CONTINUOUS
 10
110.5225446375
 20
337.302153649
 11
110.4562817942
 21
337.274878507
  0
LWPOLYLINE
  5
4F6
100
AcDbEntity
  8
0
100
AcDbPolyline
 62
7
  6
CONTINUOUS
 90
4
 70
0
 10
110.4325436421
 20
328.3659172905
 10
110.4943227718
 20
328.3383950683
 10
110.5542914467
 20
328.3163484397
 10
110.5851327146
 20
328.3066100805
  0
LWPOLYLINE
  5
4F7
100
AcDbEntity
  8
0
100
AcDbPolyline
 62
7
  6
CONTINUOUS
 90
3
 70
0
 10
110.5977945588
 20
337.3265510673
 10
110.5845626988
 20
337.3227115174
 10
110.5225446375
 20
337.302153649
  0
LWPOLYLINE
  5
4F8
100
AcDbEntity
  8
0
100
AcDbPolyline
 62
7
  6
CONTINUOUS
 90
3
 70
0
 10
251.5015500857
 20
327.3384789481
 10
251.5129141369
 20
327.3412445258
 10
251.6133249167
 20
327.3649419602
  0
LINE
  5
4F9
100
AcDbEntity
  8
1_AXIS
100
AcDbLine
 62
7
  6
CONTINUOUS
 10
153.7507267442
 20
311.6646802326
 11
212.7507267442
 21
311.6646802326
  0
LINE
  5
4FA
100
AcDbEntity
  8
0
100
AcDbLine
 62
7
  6
CONTINUOUS
 10
114.9055519417
 20
327.36091882
 11
114.9999231446
 21
327.3384741098
  0
LINE
  5
4FB
100
AcDbEntity
  8
0
100
AcDbLine
 62
7
  6
CONTINUOUS
 10
251.6133249167
 20
327.3649419602
 11
251.7244735001
 21
327.3898402707
  0
LINE
  5
4FC
100
AcDbEntity
  8
0
100
AcDbLine
 62
7
  6
CONTINUOUS
 10
251.7244735001
 20
327.3898402707
 11
255.843866836
 21
328.2880479169
  0
LINE
  5
4FD
100
AcDbEntity
  8
0
100
AcDbLine
 62
7
  6
CONTINUOUS
 10
251.3374418856
 20
327.3153592618
 11
251.5015051196
 21
327.3384788481
  0
LWPOLYLINE
  5
4FE
100
AcDbEntity
  8
0
100
AcDbPolyline
 62
7
  6
CONTINUOUS
 90
14
 70
0
 10
283.5170426155
 20
328.2810150663
 10
283.5578451388
 20
328.2865784798
 10
283.5950215798
 20
328.2918662437
 10
283.6286620091
 20
328.2968788414
 10
283.6594429498
 20
328.3017165895
 10
283.6876381217
 20
328.3064400432
 10
283.7143617911
 20
328.3112897302
 10
283.740691093
 20
328.3165953735
 10
283.7682450331
 20
328.3229671684
 10
283.8012668819
 20
328.332096407
 10
283.8372011404
 20
328.3442801541
 10
283.874944343
 20
328.3599815228
 10
283.9141130288
 20
328.3798046875
 10
283.9525467828
 20
328.4031226268
  0
LWPOLYLINE
  5
4FF
100
AcDbEntity
  8
0
100
AcDbPolyline
 62
7
  6
CONTINUOUS
 90
30
 70
0
 10
289.2513844561
 20
328.3121785498
 10
289.2698541643
 20
328.3145680165
 10
289.2856489433
 20
328.3167274247
 10
289.3028074195
 20
328.3192977725
 10
289.3275025844
 20
328.3237341257
 10
289.3579726476
 20
328.3308134177
 10
289.3947541929
 20
328.3420263519
 10
289.4343858825
 20
328.3576595478
 10
289.4725456864
 20
328.3765768255
 10
289.5100772105
 20
328.3993618481
 10
289.5464836056
 20
328.4261041794
 10
289.5809204246
 20
328.4565191622
 10
289.6127615058
 20
328.4902180718
 10
289.6413948122
 20
328.5266080985
 10
289.6664671388
 20
328.5650317924
 10
289.6877546487
 20
328.6047711571
 10
289.7055320963
 20
328.6456144161
 10
289.7195921371
 20
328.685826777
 10
289.7302832055
 20
328.7240840705
 10
289.7386604211
 20
328.761411961
 10
289.7453287399
 20
328.7978932771
 10
289.7509898943
 20
328.8352007944
 10
289.7560127789
 20
328.8744483287
 10
289.7605546844
 20
328.9160215417
 10
289.7646950211
 20
328.960057311
 10
289.768513712
 20
329.0071253245
 10
289.7720347116
 20
329.0576267718
 10
289.7752398039
 20
329.1117675395
 10
289.7780757342
 20
329.1695126511
 10
289.7804399896
 20
329.2299829932
  0
LINE
  5
500
100
AcDbEntity
  8
0
100
AcDbLine
 62
7
  6
CONTINUOUS
 10
283.4549165437
 20
328.2729345588
 11
283.5170426155
 21
328.2810150663
  0
LINE
  5
501
100
AcDbEntity
  8
0
100
AcDbLine
 62
7
  6
CONTINUOUS
 10
275.6746237549
 20
327.3176776035
 11
283.4506834908
 21
328.2724359826
  0
LINE
  5
502
100
AcDbEntity
  8
0
100
AcDbLine
 62
7
  6
CONTINUOUS
 10
289.2057766412
 20
328.3065788686
 11
289.2513844561
 21
328.3121785498
  0
LINE
  5
503
100
AcDbEntity
  8
0
100
AcDbLine
 62
7
  6
CONTINUOUS
 10
289.1128519963
 20
328.2957304898
 11
289.2057766412
 21
328.3065788686
  0
LWPOLYLINE
  5
504
100
AcDbEntity
  8
0
100
AcDbPolyline
 62
7
  6
CONTINUOUS
 90
3
 70
0
 10
288.8892730428
 20
328.2708329187
 10
288.896906266
 20
328.2716647294
 10
289.1128519963
 20
328.2957304898
  0
LINE
  5
505
100
AcDbEntity
  8
0
100
AcDbLine
 62
7
  6
CONTINUOUS
 10
275.6495448155
 20
327.3153592618
 11
275.6745987696
 21
327.317677609
  0
LINE
  5
506
100
AcDbEntity
  8
0
100
AcDbLine
 62
7
  6
CONTINUOUS
 10
90.8519185846
 20
327.3153596754
 11
90.8268638352
 21
327.317678264
  0
LINE
  5
507
100
AcDbEntity
  8
0
100
AcDbLine
 62
7
  6
CONTINUOUS
 10
77.4290766914
 20
328.2911270994
 11
77.6121798122
 21
328.2708329878
  0
LINE
  5
508
100
AcDbEntity
  8
0
100
AcDbLine
 62
7
  6
CONTINUOUS
 10
77.3259809874
 20
328.3029842725
 11
77.4290766914
 21
328.2911270994
  0
LINE
  5
509
100
AcDbEntity
  8
0
100
AcDbLine
 62
7
  6
CONTINUOUS
 10
77.264786994
 20
328.3103364851
 11
77.3259809874
 21
328.3029842725
  0
LINE
  5
50A
100
AcDbEntity
  8
0
100
AcDbLine
 62
7
  6
CONTINUOUS
 10
83.0507699972
 20
328.2724359823
 11
90.826837731
 21
327.3176782581
  0
LINE
  5
50B
100
AcDbEntity
  8
0
100
AcDbLine
 62
7
  6
CONTINUOUS
 10
82.997555435
 20
328.2792687338
 11
83.0465349719
 21
328.2729348082
  0
LINE
  5
50C
100
AcDbEntity
  8
0
100
AcDbLine
 62
7
  6
CONTINUOUS
 10
115.1640111802
 20
327.3153593467
 11
114.9999682693
 21
327.33847401
  0
LINE
  5
50D
100
AcDbEntity
  8
0
100
AcDbLine
 62
7
  6
CONTINUOUS
 10
110.6575866507
 20
328.288047917
 11
114.7957718268
 21
327.3857176143
  0
LINE
  5
50E
100
AcDbEntity
  8
0
100
AcDbLine
 62
7
  6
CONTINUOUS
 10
114.7957718268
 20
327.3857176143
 11
114.9055519417
 21
327.36091882
  0
LINE
  5
50F
100
AcDbEntity
  8
1_AXIS
100
AcDbLine
 62
2
  6
CENTER
 10
183.2507267442
 20
309.6646802326
 11
183.2507267442
 21
355.9646802326
  0
LINE
  5
510
100
AcDbEntity
  8
0
100
AcDbLine
 62
7
  6
CONTINUOUS
 10
280.0257953809
 20
327.3146802326
 11
275.649755482
 21
327.3146802326
  0
LINE
  5
511
100
AcDbEntity
  8
0
100
AcDbLine
 62
7
  6
CONTINUOUS
 10
275.6327490877
 20
327.3146802326
 11
211.4281995378
 21
327.3146802326
  0
LINE
  5
512
100
AcDbEntity
  8
0
100
AcDbLine
 62
7
  6
CONTINUOUS
 10
86.475820524
 20
327.3146802326
 11
211.4051035156
 21
327.3146802326
  0
LINE
  5
513
100
AcDbEntity
  8
0
100
AcDbLine
 62
7
  6
CONTINUOUS
 10
86.475820524
 20
338.3146802326
 11
90.7443889118
 21
338.3146802326
  0
LINE
  5
514
100
AcDbEntity
  8
0
100
AcDbLine
 62
7
  6
CONTINUOUS
 10
90.8687416216
 20
338.3146802326
 11
155.0736118732
 21
338.3146802326
  0
LINE
  5
515
100
AcDbEntity
  8
0
100
AcDbLine
 62
7
  6
CONTINUOUS
 10
155.0963499727
 20
338.3146802326
 11
251.3076394954
 21
338.3146802326
  0
LINE
  5
516
100
AcDbEntity
  8
0
100
AcDbLine
 62
7
  6
CONTINUOUS
 10
251.3380168776
 20
338.3146802326
 11
275.6327490877
 21
338.3146802326
  0
LINE
  5
517
100
AcDbEntity
  8
0
100
AcDbLine
 62
7
  6
CONTINUOUS
 10
275.6799880119
 20
338.3146802326
 11
280.0257953809
 21
338.3146802326
  0
LINE
  5
518
100
AcDbEntity
  8
0
100
AcDbLine
 62
7
  6
CONTINUOUS
 10
115.1640137077
 20
338.3140014926
 11
114.9999768082
 21
338.2908884706
  0
LINE
  5
519
100
AcDbEntity
  8
0
100
AcDbLine
 62
7
  6
CONTINUOUS
 10
90.851900264
 20
338.3140016442
 11
90.8268437197
 21
338.3116830771
  0
LINE
  5
51A
100
AcDbEntity
  8
0
100
AcDbLine
 62
7
  6
CONTINUOUS
 10
275.6495353588
 20
338.3140007477
 11
275.6745906636
 21
338.3116820654
  0
LINE
  5
51B
100
AcDbEntity
  8
0
100
AcDbLine
 62
7
  6
CONTINUOUS
 10
251.3374454689
 20
338.3140004913
 11
251.5015191823
 21
338.2908775556
  0
LINE
  5
51C
100
AcDbEntity
  8
0
100
AcDbLine
 62
7
  6
CONTINUOUS
 10
110.6127296618
 20
337.330407567
 11
110.6622586634
 21
337.342322874
  0
LINE
  5
51D
100
AcDbEntity
  8
0
100
AcDbLine
 62
7
  6
CONTINUOUS
 10
114.9999323727
 20
338.29088837
 11
114.9059170486
 21
338.2685258414
  0
LINE
  5
51E
100
AcDbEntity
  8
0
100
AcDbLine
 62
7
  6
CONTINUOUS
 10
114.9059170486
 20
338.2685258414
 11
114.7960982219
 21
338.2437136905
  0
LINE
  5
51F
100
AcDbEntity
  8
0
100
AcDbLine
 62
7
  6
CONTINUOUS
 10
114.7960982219
 20
338.2437136905
 11
110.6576180416
 21
337.3413194091
  0
LWPOLYLINE
  5
520
100
AcDbEntity
  8
0
100
AcDbPolyline
 62
7
  6
CONTINUOUS
 90
14
 70
0
 10
83.0195476679
 20
337.3530015893
 10
82.9725269728
 20
337.3468337067
 10
82.9300820822
 20
337.3410029175
 10
82.8918035815
 20
337.335478381
 10
82.8575350655
 20
337.3302535704
 10
82.8262541636
 20
337.3251696692
 10
82.7973886679
 20
337.3200965056
 10
82.769522221
 20
337.3146817895
 10
82.7403995377
 20
337.3082082867
 10
82.7090502592
 20
337.2999245485
 10
82.6715554399
 20
337.2877235371
 10
82.6307451581
 20
337.2711023542
 10
82.5889384104
 20
337.2499748329
 10
82.5464611848
 20
337.2238619912
  0
LWPOLYLINE
  5
521
100
AcDbEntity
  8
0
100
AcDbPolyline
 62
7
  6
CONTINUOUS
 90
29
 70
0
 10
77.245762872
 20
337.3166543072
 10
77.2274200942
 20
337.3142483721
 10
77.2111765626
 20
337.3119767345
 10
77.19323059
 20
337.3091779022
 10
77.1669874547
 20
337.3041728092
 10
77.135194694
 20
337.2962846257
 10
77.0995503585
 20
337.2847989305
 10
77.0613766051
 20
337.269111937
 10
77.0230829679
 20
337.2494390231
 10
76.9848477497
 20
337.2253782442
 10
76.9474382097
 20
337.1968878026
 10
76.9117696107
 20
337.1640864852
 10
76.8786751385
 20
337.1270623543
 10
76.8492063491
 20
337.0867031345
 10
76.8237253877
 20
337.0438416002
 10
76.8027183252
 20
337.0000192745
 10
76.7860549466
 20
336.9562017905
 10
76.7733671827
 20
336.9134777
 10
76.7640016432
 20
336.873280594
 10
76.7565531078
 20
336.8332673684
 10
76.7503097187
 20
336.7921200337
 10
76.7448596704
 20
336.7488904441
 10
76.7399989096
 20
336.7031652547
 10
76.7355763351
 20
336.6542184467
 10
76.7315375053
 20
336.6016315708
 10
76.7278700953
 20
336.5449562563
 10
76.7246174483
 20
336.4840278931
 10
76.7218466871
 20
336.4184040445
 10
76.7211209912
 20
336.3975664641
  0
LINE
  5
522
100
AcDbEntity
  8
0
100
AcDbLine
 62
7
  6
CONTINUOUS
 10
90.8268195665
 20
338.3116830823
 11
83.0195476679
 21
337.3530015893
  0
LINE
  5
523
100
AcDbEntity
  8
0
100
AcDbLine
 62
7
  6
CONTINUOUS
 10
77.2906671193
 20
337.3222119103
 11
77.245762872
 21
337.3166543072
  0
LINE
  5
524
100
AcDbEntity
  8
0
100
AcDbLine
 62
7
  6
CONTINUOUS
 10
77.3831797253
 20
337.3330506502
 11
77.2906671193
 21
337.3222119103
  0
LWPOLYLINE
  5
525
100
AcDbEntity
  8
0
100
AcDbPolyline
 62
7
  6
CONTINUOUS
 90
3
 70
0
 10
77.6043596589
 20
337.3576778402
 10
77.5532993158
 20
337.3521002921
 10
77.3831797253
 20
337.3330506502
  0
LINE
  5
526
100
AcDbEntity
  8
1_AXIS
100
AcDbLine
 62
7
  6
CONTINUOUS
 10
153.7507267442
 20
353.9646802326
 11
212.7507267442
 21
353.9646802326
  0
LINE
  5
527
100
AcDbEntity
  8
0
100
AcDbLine
 62
7
  6
CONTINUOUS
 10
289.0893568995
 20
337.3363501392
 11
288.8888557591
 21
337.3585725019
  0
LINE
  5
528
100
AcDbEntity
  8
0
100
AcDbLine
 62
7
  6
CONTINUOUS
 10
289.1910994426
 20
337.3245671918
 11
289.0893568995
 21
337.3363501392
  0
LINE
  5
529
100
AcDbEntity
  8
0
100
AcDbLine
 62
7
  6
CONTINUOUS
 10
283.4506653147
 20
337.3569267149
 11
275.6746169562
 21
338.3116820715
  0
LINE
  5
52A
100
AcDbEntity
  8
0
100
AcDbLine
 62
7
  6
CONTINUOUS
 10
283.5057142853
 20
337.3499134434
 11
283.4531977536
 21
337.3566375599
  0
LINE
  5
52B
100
AcDbEntity
  8
0
100
AcDbLine
 62
7
  6
CONTINUOUS
 10
255.8419130994
 20
337.3417359117
 11
251.7245598261
 21
338.2395014409
  0
LWPOLYLINE
  5
52C
100
AcDbEntity
  8
0
100
AcDbPolyline
 62
7
  6
CONTINUOUS
 90
4
 70
0
 10
251.7245598261
 20
338.2395014409
 10
251.6134217968
 20
338.2643962924
 10
251.5129979201
 20
338.2880957461
 10
251.5015673329
 20
338.290877453
  0
LINE
  5
52D
100
AcDbEntity
  8
0
100
AcDbLine
 62
7
  6
CONTINUOUS
 10
255.8887230103
 20
337.3304077855
 11
255.8391948232
 21
337.3423228743
  0
LINE
  5
52E
100
AcDbEntity
  8
0
100
AcDbLine
 62
7
  6
CONTINUOUS
 10
212.3505422302
 20
336.3644210575
 11
212.3505422302
 21
329.2649392168
  0
LINE
  5
52F
100
AcDbEntity
  8
0
100
AcDbLine
 62
7
  6
CONTINUOUS
 10
212.3749772982
 20
328.3700280371
 11
212.3749772982
 21
329.2649392168
  0
LINE
  5
530
100
AcDbEntity
  8
0
100
AcDbLine
 62
7
  6
CONTINUOUS
 10
212.3749772982
 20
336.3644210575
 11
212.3749772982
 21
337.259332428
  0
LWPOLYLINE
  5
531
100
AcDbEntity
  8
0
100
AcDbPolyline
 62
7
  6
CONTINUOUS
 90
3
 70
0
 10
255.916629909
 20
328.3067027885
 10
255.9399793718
 20
328.3139889818
 10
255.9986744965
 20
328.3350206182
  0
LINE
  5
532
100
AcDbEntity
  8
0
100
AcDbLine
 62
7
  6
CONTINUOUS
 10
110.6118379213
 20
337.330163815
 11
110.5977130571
 21
337.3262620127
  0
LINE
  5
533
100
AcDbEntity
  8
0
100
AcDbLine
 62
7
  6
CONTINUOUS
 10
255.9036511939
 20
337.3262874083
 11
255.8896148067
 21
337.3301640186
  0
LINE
  5
534
100
AcDbEntity
  8
1_AXIS
100
AcDbLine
 62
7
  6
CONTINUOUS
 10
214.7507267442
 20
313.6646802326
 11
214.7507267442
 21
326.3146802326
  0
LINE
  5
535
100
AcDbEntity
  8
1_AXIS
100
AcDbLine
 62
7
  6
CONTINUOUS
 10
214.7507267442
 20
339.3146802326
 11
214.7507267442
 21
351.9646802326
  0
LINE
  5
536
100
AcDbEntity
  8
0
100
AcDbLine
 62
7
  6
CONTINUOUS
 10
255.9986744965
 20
328.3350206182
 11
256.0593339319
 21
328.3613084154
  0
LWPOLYLINE
  5
537
100
AcDbEntity
  8
0
100
AcDbPolyline
 62
7
  6
CONTINUOUS
 90
3
 70
0
 10
256.1223434211
 20
328.3941016315
 10
256.1874024552
 20
328.4344771774
 10
256.2530484535
 20
328.4827094495
  0
LINE
  5
538
100
AcDbEntity
  8
0
100
AcDbLine
 62
7
  6
CONTINUOUS
 10
256.0593339319
 20
328.3613084154
 11
256.1223434211
 21
328.3941016315
  0
LINE
  5
539
100
AcDbEntity
  8
0
100
AcDbLine
 62
7
  6
CONTINUOUS
 10
256.2530484535
 20
328.4827094495
 11
256.2988722549
 21
328.5214441308
  0
LWPOLYLINE
  5
53A
100
AcDbEntity
  8
0
100
AcDbPolyline
 62
7
  6
CONTINUOUS
 90
8
 70
0
 10
256.2854581659
 20
337.118640367
 10
256.243752417
 20
337.1530798934
 10
256.1774080841
 20
337.2010971442
 10
256.1112542816
 20
337.2414525061
 10
256.0433511474
 20
337.27570817
 10
255.9773827323
 20
337.3027140914
 10
255.9157315547
 20
337.3230551339
 10
255.903569804
 20
337.3265763941
  0
LINE
  5
53B
100
AcDbEntity
  8
0
100
AcDbLine
 62
7
  6
CONTINUOUS
 10
256.2854163773
 20
337.1198058446
 11
256.2849565905
 21
337.1202044572
  0
LINE
  5
53C
100
AcDbEntity
  8
0
100
AcDbLine
 62
7
  6
CONTINUOUS
 10
256.2978676182
 20
328.5205435359
 11
256.2998975589
 21
328.5223725337
  0
LINE
  5
53D
100
AcDbEntity
  8
0
100
AcDbLine
 62
7
  6
CONTINUOUS
 10
283.9525467828
 20
328.4031226268
 11
283.9903018958
 21
328.4302802628
  0
LWPOLYLINE
  5
53E
100
AcDbEntity
  8
0
100
AcDbPolyline
 62
7
  6
CONTINUOUS
 90
4
 70
0
 10
283.9903018958
 20
328.4302802628
 10
284.026703111
 20
328.4611485868
 10
284.0610276641
 20
328.4951440264
 10
284.0924759782
 20
328.5312530757
  0
LINE
  5
53F
100
AcDbEntity
  8
0
100
AcDbLine
 62
7
  6
CONTINUOUS
 10
256.6301362575
 20
336.3644198794
 11
256.6301362575
 21
329.2649405857
  0
LWPOLYLINE
  5
540
100
AcDbEntity
  8
0
100
AcDbPolyline
 62
7
  6
CONTINUOUS
 90
16
 70
0
 10
284.0858077286
 20
337.1057885578
 10
284.0510309675
 20
337.1441252403
 10
284.0139153851
 20
337.1788519482
 10
283.9748798201
 20
337.2098955201
 10
283.9341527429
 20
337.2372825318
 10
283.890830453
 20
337.261479276
 10
283.8481335451
 20
337.2807554254
 10
283.8063824396
 20
337.2956905511
 10
283.7675700276
 20
337.3066120546
 10
283.7354159319
 20
337.3139573349
 10
283.7040925741
 20
337.3200914823
 10
283.6720017026
 20
337.3257063046
 10
283.6374112921
 20
337.3312699658
 10
283.5983926413
 20
337.3371332541
 10
283.5547529015
 20
337.3433189909
 10
283.5057142853
 20
337.3499134434
  0
LWPOLYLINE
  5
541
100
AcDbEntity
  8
0
100
AcDbPolyline
 62
7
  6
CONTINUOUS
 90
11
 70
0
 10
284.0924759782
 20
328.5312530757
 10
284.1213466555
 20
328.5694471942
 10
284.1477017081
 20
328.6094031983
 10
284.1718666108
 20
328.6512793966
 10
284.1940258917
 20
328.6951282036
 10
284.2145606622
 20
328.7413456911
 10
284.2337831578
 20
328.7903887007
 10
284.2517500255
 20
328.8422800093
 10
284.2684777421
 20
328.8970009534
 10
284.284078289
 20
328.9550397261
 10
284.2984391009
 20
329.0163805811
  0
LINE
  5
542
100
AcDbEntity
  8
0
100
AcDbLine
 62
7
  6
CONTINUOUS
 10
284.1179567403
 20
337.0639892623
 11
284.0858077286
 21
337.1057885578
  0
LINE
  5
543
100
AcDbEntity
  8
0
100
AcDbLine
 62
7
  6
CONTINUOUS
 10
284.3284760442
 20
336.3644198794
 11
284.3110150192
 21
336.5504762877
  0
LWPOLYLINE
  5
544
100
AcDbEntity
  8
0
100
AcDbPolyline
 62
7
  6
CONTINUOUS
 90
28
 70
0
 10
289.7681759596
 20
336.6253580971
 10
289.7642961156
 20
336.6726321805
 10
289.760104278
 20
336.7166360665
 10
289.7555438686
 20
336.7578258964
 10
289.7505233547
 20
336.7965776493
 10
289.7448701944
 20
336.8334477062
 10
289.7382463783
 20
336.8694035117
 10
289.7300487773
 20
336.9057972198
 10
289.7196134282
 20
336.9431568048
 10
289.7057580434
 20
336.9828233943
 10
289.6881677677
 20
337.0232785456
 10
289.6669131976
 20
337.0631426386
 10
289.6420106023
 20
337.1016670001
 10
289.6140344126
 20
337.1375912014
 10
289.5832346598
 20
337.1704951913
 10
289.5504046029
 20
337.1998783619
 10
289.5160290214
 20
337.2257769079
 10
289.4804681309
 20
337.2482382767
 10
289.4446516368
 20
337.266978582
 10
289.4092638684
 20
337.2820574865
 10
289.3754359797
 20
337.2936033336
 10
289.3430005181
 20
337.3022628016
 10
289.3154438794
 20
337.3079236699
 10
289.2966794434
 20
337.3110225862
 10
289.2801118909
 20
337.3134186975
 10
289.2618809605
 20
337.3158555502
 10
289.241342401
 20
337.3184680754
 10
289.1910994426
 20
337.3245671918
  0
LWPOLYLINE
  5
545
100
AcDbEntity
  8
0
100
AcDbPolyline
 62
7
  6
CONTINUOUS
 90
5
 70
0
 10
289.78033227
 20
336.3975733355
 10
289.777873491
 20
336.4614385911
 10
289.7750053297
 20
336.5198620433
 10
289.7717525685
 20
336.5745180968
 10
289.7681759596
 20
336.6253580971
  0
LINE
  5
546
100
AcDbEntity
  8
0
100
AcDbLine
 62
7
  6
CONTINUOUS
 10
289.7808565686
 20
336.3644198794
 11
289.7803108876
 21
336.3974475329
  0
LINE
  5
547
100
AcDbEntity
  8
0
100
AcDbLine
 62
7
  6
CONTINUOUS
 10
284.3284760442
 20
336.3644198794
 11
284.3284760442
 21
329.2649405857
  0
LINE
  5
548
100
AcDbEntity
  8
0
100
AcDbLine
 62
7
  6
CONTINUOUS
 10
289.7808565686
 20
329.2649405857
 11
289.7808565686
 21
336.3644198794
  0
LINE
  5
549
100
AcDbEntity
  8
0
100
AcDbLine
 62
7
  6
CONTINUOUS
 10
289.7803009491
 20
329.2316487485
 11
289.7808552496
 21
329.2649405857
  0
LWPOLYLINE
  5
54A
100
AcDbEntity
  8
0
100
AcDbPolyline
 62
7
  6
CONTINUOUS
 90
3
 70
0
 10
284.2984391009
 20
329.0163805811
 10
284.3116172694
 20
329.0822016165
 10
284.3141833543
 20
329.0964820253
  0
LWPOLYLINE
  5
54B
100
AcDbEntity
  8
0
100
AcDbPolyline
 62
7
  6
CONTINUOUS
 90
6
 70
0
 10
284.2420293577
 20
336.815035137
 10
284.2212375264
 20
336.8702481848
 10
284.1987247059
 20
336.922474841
 10
284.1742240277
 20
336.9720670273
 10
284.1474637826
 20
337.0191535829
 10
284.1179567403
 20
337.0639892623
  0
LWPOLYLINE
  5
54C
100
AcDbEntity
  8
0
100
AcDbPolyline
 62
7
  6
CONTINUOUS
 90
4
 70
0
 10
284.2951726444
 20
336.6281552136
 10
284.2789646378
 20
336.6943708025
 10
284.261221577
 20
336.7566124679
 10
284.2420293577
 20
336.815035137
  0
LWPOLYLINE
  5
54D
100
AcDbEntity
  8
0
100
AcDbPolyline
 62
7
  6
CONTINUOUS
 90
3
 70
0
 10
284.3133380367
 20
336.5376668553
 10
284.3098185479
 20
336.5570475919
 10
284.2951726444
 20
336.6281552136
  0
LWPOLYLINE
  5
54E
100
AcDbEntity
  8
0
100
AcDbPolyline
 62
7
  6
CONTINUOUS
 90
20
 70
0
 10
390.0761149694
 20
56.1296650165
 10
390.1206871284
 20
56.1399333685
 10
390.1631830182
 20
56.1510496764
 10
390.2043514681
 20
56.1633210488
 10
390.2451879651
 20
56.1772820944
 10
390.2856572918
 20
56.1932414534
 10
390.3263354332
 20
56.2118422788
 10
390.3662494044
 20
56.2331012651
 10
390.4046043356
 20
56.2569617589
 10
390.4412177427
 20
56.2836709317
 10
390.4755080512
 20
56.3132071147
 10
390.5073387054
 20
56.3456691699
 10
390.5368416423
 20
56.3812344764
 10
390.5630449638
 20
56.4187281535
 10
390.5855798378
 20
56.4574195198
 10
390.6038165262
 20
56.4957101339
 10
390.6181223304
 20
56.5331635129
 10
390.6283837228
 20
56.5670509802
 10
390.6350666833
 20
56.5945629011
 10
390.6399370045
 20
56.6186815658
  0
LWPOLYLINE
  5
54F
100
AcDbEntity
  8
0
100
AcDbPolyline
 62
7
  6
CONTINUOUS
 90
3
 70
0
 10
389.9775685667
 20
56.1109472095
 10
390.0286968665
 20
56.120043712
 10
390.0761149694
 20
56.1296650165
  0
LWPOLYLINE
  5
550
100
AcDbEntity
  8
0
100
AcDbPolyline
 62
7
  6
CONTINUOUS
 90
5
 70
0
 10
389.7849669231
 20
56.0862891118
 10
389.7977694432
 20
56.0875019083
 10
389.8625661731
 20
56.0945456298
 10
389.9222763471
 20
56.1024080155
 10
389.9775685667
 20
56.1109472095
  0
LINE
  5
551
100
AcDbEntity
  8
0
100
AcDbLine
 62
7
  6
CONTINUOUS
 10
389.6929082515
 20
56.082105852
 11
389.785270847
 21
56.0863806052
  0
LINE
  5
552
100
AcDbEntity
  8
0
100
AcDbLine
 62
7
  6
CONTINUOUS
 10
389.6929082515
 20
56.082105852
 11
382.5934289578
 21
56.082105852
  0
LINE
  5
553
100
AcDbEntity
  8
0
100
AcDbLine
 62
7
  6
CONTINUOUS
 10
382.5001932651
 20
56.0864669729
 11
382.5934289578
 21
56.0821159438
  0
LWPOLYLINE
  5
554
100
AcDbEntity
  8
0
100
AcDbPolyline
 62
7
  6
CONTINUOUS
 90
3
 70
0
 10
382.371652331
 20
56.10115584
 10
382.4452002437
 20
56.0918002108
 10
382.498901617
 20
56.0861880241
  0
LWPOLYLINE
  5
555
100
AcDbEntity
  8
0
100
AcDbPolyline
 62
7
  6
CONTINUOUS
 90
8
 70
0
 10
381.9794607218
 20
56.2020567342
 10
382.027115703
 20
56.1821724334
 10
382.0765965895
 20
56.1647991742
 10
382.1281184289
 20
56.1494897999
 10
382.182699285
 20
56.1356984864
 10
382.2409195688
 20
56.1231567076
 10
382.3037456693
 20
56.1116416857
 10
382.371652331
 20
56.10115584
  0
LWPOLYLINE
  5
556
100
AcDbEntity
  8
0
100
AcDbPolyline
 62
7
  6
CONTINUOUS
 90
7
 70
0
 10
382.3158190312
 20
256.7384862966
 10
382.2767590078
 20
256.7266946276
 10
382.2245501679
 20
256.7092580804
 10
382.1751719558
 20
256.6908550136
 10
382.1286338941
 20
256.6716065906
 10
382.0844142385
 20
256.6513607195
 10
382.0422223549
 20
256.6299858582
  0
LWPOLYLINE
  5
557
100
AcDbEntity
  8
0
100
AcDbPolyline
 62
7
  6
CONTINUOUS
 90
5
 70
0
 10
382.0422223549
 20
256.6299858582
 10
382.0014706416
 20
256.6071521478
 10
381.9616369347
 20
256.5824359156
 10
381.9226744441
 20
256.5555770193
 10
381.8843619234
 20
256.526071328
  0
LINE
  5
558
100
AcDbEntity
  8
0
100
AcDbLine
 62
7
  6
CONTINUOUS
 10
389.6929082515
 20
78.4548563209
 11
382.5934289578
 21
78.4548563209
  0
LINE
  5
559
100
AcDbEntity
  8
0
100
AcDbLine
 62
7
  6
CONTINUOUS
 10
381.8843619234
 20
256.526071328
 11
381.8472629044
 21
256.4939106079
  0
LINE
  5
55A
100
AcDbEntity
  8
0
100
AcDbLine
 62
7
  6
CONTINUOUS
 10
382.0241551256
 20
78.6327111181
 11
382.0317466476
 21
78.6275068098
  0
LWPOLYLINE
  5
55B
100
AcDbEntity
  8
0
100
AcDbPolyline
 62
7
  6
CONTINUOUS
 90
3
 70
0
 10
381.7717273468
 20
56.353397498
 10
381.8078733325
 20
56.3157618312
 10
381.8471957076
 20
56.2817774238
  0
LWPOLYLINE
  5
55C
100
AcDbEntity
  8
0
100
AcDbPolyline
 62
7
  6
CONTINUOUS
 90
17
 70
0
 10
381.8472629044
 20
256.4939106079
 10
381.8114480657
 20
256.4586514129
 10
381.778254157
 20
256.4211601411
 10
381.7484548507
 20
256.3821342853
 10
381.7222449885
 20
256.3420604847
 10
381.6992467966
 20
256.300611348
 10
381.6804073163
 20
256.2600382448
 10
381.6652045516
 20
256.2205499082
 10
381.6533753257
 20
256.1834215469
 10
381.6447999729
 20
256.1514562985
 10
381.6376606713
 20
256.1207292993
 10
381.6313628547
 20
256.0902340585
 10
381.6253996561
 20
256.0584714312
 10
381.6194744105
 20
256.0242883598
 10
381.6134558953
 20
255.9870638625
 10
381.6071882171
 20
255.9457522862
 10
381.6034676004
 20
255.9200289648
  0
LWPOLYLINE
  5
55D
100
AcDbEntity
  8
0
100
AcDbPolyline
 62
7
  6
CONTINUOUS
 90
4
 70
0
 10
381.8899971216
 20
78.741009462
 10
381.9488599842
 20
78.6893287612
 10
382.0130694976
 20
78.6404765408
 10
382.0221776544
 20
78.6340859333
  0
LINE
  5
55E
100
AcDbEntity
  8
0
100
AcDbLine
 62
7
  6
CONTINUOUS
 10
389.6929082515
 20
119.42639845
 11
382.5934289578
 21
119.42639845
  0
LWPOLYLINE
  5
55F
100
AcDbEntity
  8
0
100
AcDbPolyline
 62
7
  6
CONTINUOUS
 90
5
 70
0
 10
381.7040481817
 20
78.9849097508
 10
381.7410902272
 20
78.9204669341
 10
381.7850259078
 20
78.8573203954
 10
381.8359051216
 20
78.796150199
 10
381.8899971216
 20
78.741009462
  0
LINE
  5
560
100
AcDbEntity
  8
1_AXIS
100
AcDbLine
 62
7
  6
CONTINUOUS
 10
405.2931686047
 20
129.1411071308
 11
392.6431686047
 21
129.1411071308
  0
LINE
  5
561
100
AcDbEntity
  8
1_AXIS
100
AcDbLine
 62
7
  6
CONTINUOUS
 10
379.6431686047
 20
129.1411071308
 11
366.9931686047
 21
129.1411071308
  0
LINE
  5
562
100
AcDbEntity
  8
0
100
AcDbLine
 62
7
  6
CONTINUOUS
 10
380.9374770545
 20
120.8235169016
 11
381.8347024195
 21
119.77498915
  0
LWPOLYLINE
  5
563
100
AcDbEntity
  8
0
100
AcDbPolyline
 62
7
  6
CONTINUOUS
 90
3
 70
0
 10
381.6531800168
 20
79.1044492955
 10
381.6750467962
 20
79.0468563179
 10
381.7040481817
 20
78.9849097508
  0
LWPOLYLINE
  5
564
100
AcDbEntity
  8
0
100
AcDbPolyline
 62
7
  6
CONTINUOUS
 90
7
 70
0
 10
381.6524797078
 20
56.5892192388
 10
381.6599747357
 20
56.5597487979
 10
381.6722950756
 20
56.5215081324
 10
381.6898968256
 20
56.4789651049
 10
381.7121968325
 20
56.4363089735
 10
381.739698808
 20
56.3938072944
 10
381.7717273468
 20
56.353397498
  0
LINE
  5
565
100
AcDbEntity
  8
1_AXIS
100
AcDbLine
 62
7
  6
CONTINUOUS
 10
364.9931686047
 20
131.1411071308
 11
364.9931686047
 21
190.1411071308
  0
LWPOLYLINE
  5
566
100
AcDbEntity
  8
0
100
AcDbPolyline
 62
7
  6
CONTINUOUS
 90
4
 70
0
 10
381.6323108865
 20
223.4343583992
 10
380.7285265363
 20
220.2782856224
 10
380.707351539
 20
220.2087644737
 10
380.6917426745
 20
220.1611809887
  0
LWPOLYLINE
  5
567
100
AcDbEntity
  8
0
100
AcDbPolyline
 62
7
  6
CONTINUOUS
 90
4
 70
0
 10
381.6139739384
 20
79.2523785236
 10
381.6237995976
 20
79.2077815034
 10
381.6361195097
 20
79.1597093303
 10
381.6531800168
 20
79.1044492955
  0
LINE
  5
568
100
AcDbEntity
  8
0
100
AcDbLine
 62
7
  6
CONTINUOUS
 10
380.643846683
 20
248.8054772515
 11
380.6480410899
 21
248.8492170324
  0
LINE
  5
569
100
AcDbEntity
  8
0
100
AcDbLine
 62
7
  6
CONTINUOUS
 10
380.6585444814
 20
257.6536488241
 11
380.6438413841
 21
257.5109970948
  0
LINE
  5
56A
100
AcDbEntity
  8
1_AXIS
100
AcDbLine
 62
7
  6
CONTINUOUS
 10
380.6431686047
 20
257.6411071308
 11
381.6459009269
 21
267.1933072905
  0
LINE
  5
56B
100
AcDbEntity
  8
0
100
AcDbLine
 62
7
  6
CONTINUOUS
 10
381.6024785295
 20
255.9124740349
 11
380.6480410855
 21
248.8492462563
  0
LINE
  5
56C
100
AcDbEntity
  8
0
100
AcDbLine
 62
7
  6
CONTINUOUS
 10
380.6564501435
 20
84.614562522
 11
380.6861732187
 21
84.4567732579
  0
LINE
  5
56D
100
AcDbEntity
  8
0
100
AcDbLine
 62
7
  6
CONTINUOUS
 10
380.6861732187
 20
84.4567732579
 11
381.6090333372
 21
79.2788866957
  0
LWPOLYLINE
  5
56E
100
AcDbEntity
  8
0
100
AcDbPolyline
 62
7
  6
CONTINUOUS
 90
18
 70
0
 10
381.6292470118
 20
56.7314509864
 10
381.633118489
 20
56.7033534215
 10
381.6368003143
 20
56.6777692491
 10
381.6403580541
 20
56.6543997727
 10
381.6438107343
 20
56.6333523368
 10
381.6477509896
 20
56.6117134509
 10
381.6532501065
 20
56.5858792072
 10
381.661194163
 20
56.5554944226
 10
381.6738019445
 20
56.5174167259
 10
381.6916027486
 20
56.475340168
 10
381.7141537322
 20
56.4329737646
 10
381.7418530339
 20
56.3908228708
 10
381.7740085793
 20
56.350802693
 10
381.8101566915
 20
56.313609054
 10
381.8493220769
 20
56.2801099469
 10
381.8909601752
 20
56.2503903524
 10
381.9343506692
 20
56.2245166143
 10
381.9794549325
 20
56.2020593695
  0
LINE
  5
56F
100
AcDbEntity
  8
0
100
AcDbLine
 62
7
  6
CONTINUOUS
 10
381.6208200006
 20
56.7957752133
 11
381.6292470118
 21
56.7314509864
  0
LINE
  5
570
100
AcDbEntity
  8
0
100
AcDbLine
 62
7
  6
CONTINUOUS
 10
381.6113592921
 20
56.8718688056
 11
381.6208200006
 21
56.7957752133
  0
LINE
  5
571
100
AcDbEntity
  8
0
100
AcDbLine
 62
7
  6
CONTINUOUS
 10
381.6007968514
 20
56.960694164
 11
381.6113592921
 21
56.8718688056
  0
LINE
  5
572
100
AcDbEntity
  8
0
100
AcDbLine
 62
7
  6
CONTINUOUS
 10
380.6438475148
 20
84.7220869237
 11
380.6564501193
 21
84.6146065065
  0
LINE
  5
573
100
AcDbEntity
  8
0
100
AcDbLine
 62
7
  6
CONTINUOUS
 10
380.6431686047
 20
65.3679500066
 11
380.6431686047
 21
84.7166617526
  0
LINE
  5
574
100
AcDbEntity
  8
0
100
AcDbLine
 62
7
  6
CONTINUOUS
 10
380.6431686047
 20
84.7491820753
 11
380.6431686047
 21
257.6411069647
  0
LINE
  5
575
100
AcDbEntity
  8
1_AXIS
100
AcDbLine
 62
2
  6
CENTER
 10
362.9931686047
 20
160.6411071308
 11
409.2931686047
 21
160.6411071308
  0
LINE
  5
576
100
AcDbEntity
  8
0
100
AcDbLine
 62
7
  6
CONTINUOUS
 10
391.6431686047
 20
257.6411069647
 11
391.6431686047
 21
121.5162710616
  0
LINE
  5
577
100
AcDbEntity
  8
0
100
AcDbLine
 62
7
  6
CONTINUOUS
 10
391.6431686047
 20
121.3143294947
 11
391.6431686047
 21
84.7491820753
  0
LINE
  5
578
100
AcDbEntity
  8
0
100
AcDbLine
 62
7
  6
CONTINUOUS
 10
391.6431686047
 20
84.7220863698
 11
391.6431686047
 21
65.3679500066
  0
LINE
  5
579
100
AcDbEntity
  8
0
100
AcDbLine
 62
7
  6
CONTINUOUS
 10
391.6274441316
 20
257.6570040233
 11
391.6424620923
 21
257.5112554501
  0
LINE
  5
57A
100
AcDbEntity
  8
0
100
AcDbLine
 62
7
  6
CONTINUOUS
 10
391.642491201
 20
248.8054867351
 11
391.6382969101
 21
248.8492277116
  0
LINE
  5
57B
100
AcDbEntity
  8
0
100
AcDbLine
 62
7
  6
CONTINUOUS
 10
391.6424900956
 20
84.7220863698
 11
391.6298889035
 21
84.6146110933
  0
LINE
  5
57C
100
AcDbEntity
  8
1_AXIS
100
AcDbLine
 62
7
  6
CONTINUOUS
 10
390.6404362824
 20
267.1933072905
 11
391.6431686047
 21
257.6411071308
  0
LINE
  5
57D
100
AcDbEntity
  8
1_AXIS
100
AcDbLine
 62
7
  6
CONTINUOUS
 10
407.2931686047
 20
131.1411071308
 11
407.2931686047
 21
190.1411071308
  0
LINE
  5
57E
100
AcDbEntity
  8
0
100
AcDbLine
 62
7
  6
CONTINUOUS
 10
390.6761978142
 20
56.8814406464
 11
390.6863082016
 21
56.9673200985
  0
LINE
  5
57F
100
AcDbEntity
  8
0
100
AcDbLine
 62
7
  6
CONTINUOUS
 10
390.6667686297
 20
56.8049368752
 11
390.6761978142
 21
56.8814406464
  0
LINE
  5
580
100
AcDbEntity
  8
0
100
AcDbLine
 62
7
  6
CONTINUOUS
 10
390.6773093284
 20
79.2789172506
 11
391.6001648575
 21
84.4567747072
  0
LINE
  5
581
100
AcDbEntity
  8
0
100
AcDbLine
 62
7
  6
CONTINUOUS
 10
391.6001648575
 20
84.4567747072
 11
391.6298888794
 21
84.6145692722
  0
LINE
  5
582
100
AcDbEntity
  8
0
100
AcDbLine
 62
7
  6
CONTINUOUS
 10
390.668254992
 20
79.2326347382
 11
390.6735991369
 21
79.2584562826
  0
LINE
  5
583
100
AcDbEntity
  8
0
100
AcDbLine
 62
7
  6
CONTINUOUS
 10
391.5789787956
 20
220.2087942682
 11
391.5577943452
 21
220.278352532
  0
LINE
  5
584
100
AcDbEntity
  8
0
100
AcDbLine
 62
7
  6
CONTINUOUS
 10
391.5577943452
 20
220.278352532
 11
390.6540346279
 21
223.4343294688
  0
LWPOLYLINE
  5
585
100
AcDbEntity
  8
0
100
AcDbPolyline
 62
7
  6
CONTINUOUS
 90
9
 70
0
 10
390.6832356599
 20
255.9173758051
 10
390.6823656384
 20
255.923582072
 10
390.6761349018
 20
255.9664742853
 10
390.6700610498
 20
256.0056514728
 10
390.6641261038
 20
256.0413523574
 10
390.6583482603
 20
256.0735455614
 10
390.6524089971
 20
256.103876695
 10
390.646037877
 20
256.1332228957
 10
390.6385183671
 20
256.163759918
  0
LINE
  5
586
100
AcDbEntity
  8
0
100
AcDbLine
 62
7
  6
CONTINUOUS
 10
391.6382969137
 20
248.8492549251
 11
390.6838618496
 21
255.9124505828
  0
LWPOLYLINE
  5
587
100
AcDbEntity
  8
0
100
AcDbPolyline
 62
7
  6
CONTINUOUS
 90
7
 70
0
 10
390.6399333077
 20
56.6186617399
 10
390.643731615
 20
56.6402386063
 10
390.6471923236
 20
56.6618234035
 10
390.6507729878
 20
56.6857254226
 10
390.6544831534
 20
56.7118159501
 10
390.6583592829
 20
56.7402180346
 10
390.6667686297
 20
56.8049368752
  0
LINE
  5
588
100
AcDbEntity
  8
0
100
AcDbLine
 62
7
  6
CONTINUOUS
 10
391.5946015336
 20
220.1611631931
 11
391.5789787956
 21
220.2087942682
  0
LINE
  5
589
100
AcDbEntity
  8
0
100
AcDbLine
 62
7
  6
CONTINUOUS
 10
390.4516488256
 20
119.7750057229
 11
391.348827243
 21
120.8235451088
  0
LINE
  5
58A
100
AcDbEntity
  8
1_AXIS
100
AcDbLine
 62
7
  6
CONTINUOUS
 10
405.2931686047
 20
192.1411071308
 11
392.6431686047
 21
192.1411071308
  0
LINE
  5
58B
100
AcDbEntity
  8
1_AXIS
100
AcDbLine
 62
7
  6
CONTINUOUS
 10
379.6431686047
 20
192.1411071308
 11
366.9931686047
 21
192.1411071308
  0
LWPOLYLINE
  5
58C
100
AcDbEntity
  8
0
100
AcDbPolyline
 62
7
  6
CONTINUOUS
 90
4
 70
0
 10
390.6281631729
 20
256.1995620438
 10
390.6146672121
 20
256.2381652852
 10
390.5965482664
 20
256.2805823708
 10
390.5733197157
 20
256.3251542112
  0
LINE
  5
58D
100
AcDbEntity
  8
0
100
AcDbLine
 62
7
  6
CONTINUOUS
 10
390.6385183671
 20
256.163759918
 11
390.6281631729
 21
256.1995620438
  0
LINE
  5
58E
100
AcDbEntity
  8
0
100
AcDbLine
 62
7
  6
CONTINUOUS
 10
390.5733197157
 20
256.3251542112
 11
390.5460899796
 21
256.3687778556
  0
LWPOLYLINE
  5
58F
100
AcDbEntity
  8
0
100
AcDbPolyline
 62
7
  6
CONTINUOUS
 90
10
 70
0
 10
390.4246805061
 20
78.7700112892
 10
390.4718003827
 20
78.8220851141
 10
390.513729058
 20
78.8754779544
 10
390.5507205331
 20
78.9302014931
 10
390.5821933063
 20
78.9850247442
 10
390.6096530804
 20
79.0426012861
 10
390.6312691153
 20
79.0981532283
 10
390.6462643302
 20
79.1449598732
 10
390.6582506089
 20
79.189380676
 10
390.668254992
 20
79.2326347382
  0
LINE
  5
590
100
AcDbEntity
  8
0
100
AcDbLine
 62
7
  6
CONTINUOUS
 10
382.5934289578
 20
224.1582205726
 11
389.6929082515
 21
224.1582205726
  0
LWPOLYLINE
  5
591
100
AcDbEntity
  8
0
100
AcDbPolyline
 62
7
  6
CONTINUOUS
 90
5
 70
0
 10
390.5460899796
 20
256.3687778556
 10
390.5142930898
 20
256.4120493487
 10
390.478122579
 20
256.4541780486
 10
390.4378069637
 20
256.4944873837
 10
390.3942596801
 20
256.5319188281
  0
LWPOLYLINE
  5
592
100
AcDbEntity
  8
0
100
AcDbPolyline
 62
7
  6
CONTINUOUS
 90
4
 70
0
 10
390.2541899102
 20
78.6272328574
 10
390.3160584061
 20
78.672412216
 10
390.3729753488
 20
78.7202152824
 10
390.4246805061
 20
78.7700112892
  0
LWPOLYLINE
  5
593
100
AcDbEntity
  8
0
100
AcDbPolyline
 62
7
  6
CONTINUOUS
 90
9
 70
0
 10
390.3942596801
 20
256.5319188281
 10
390.3468564801
 20
256.5670417149
 10
390.2954509879
 20
256.6001292359
 10
390.2402633574
 20
256.6311735837
 10
390.1815746884
 20
256.6601196602
 10
390.119224276
 20
256.6870774718
 10
390.0538038254
 20
256.7117696659
 10
389.983674961
 20
256.7346106299
 10
389.969175181
 20
256.7388924647
  0
LWPOLYLINE
  5
594
100
AcDbEntity
  8
0
100
AcDbPolyline
 62
7
  6
CONTINUOUS
 90
4
 70
0
 10
390.438184001
 20
56.2812868655
 10
390.4731055237
 20
56.3109677971
 10
390.5054966365
 20
56.3436378001
 10
390.5354529435
 20
56.3794194357
  0
LINE
  5
595
100
AcDbEntity
  8
0
100
AcDbLine
 62
7
  6
CONTINUOUS
 10
390.4009309725
 20
56.254509658
 11
390.438184001
 21
56.2812868655
  0
LINE
  5
596
100
AcDbEntity
  8
0
100
AcDbLine
 62
7
  6
CONTINUOUS
 10
389.9709741619
 20
256.7388074982
 11
389.9696422332
 21
256.7391913594
  0
LWPOLYLINE
  5
597
100
AcDbEntity
  8
0
100
AcDbPolyline
 62
7
  6
CONTINUOUS
 90
7
 70
0
 10
390.1575132986
 20
56.1494822507
 10
390.1988555344
 20
56.1615859776
 10
390.2398395631
 20
56.1753394468
 10
390.2805305441
 20
56.1910888401
 10
390.3215850708
 20
56.2095217808
 10
390.3619799107
 20
56.2306664558
 10
390.4009309725
 20
56.254509658
  0
LINE
  5
598
100
AcDbEntity
  8
0
100
AcDbLine
 62
7
  6
CONTINUOUS
 10
382.5934289578
 20
256.7782455118
 11
389.6929082515
 21
256.7782455118
  0
LINE
  5
599
100
AcDbEntity
  8
1_AXIS
100
AcDbLine
 62
7
  6
CONTINUOUS
 10
382.1431686047
 20
267.6411071308
 11
390.1431686047
 21
267.6411071308
  0
ARC
  5
59A
100
AcDbEntity
  8
0
100
AcDbCircle
 62
7
  6
CONTINUOUS
 10
106.9949977
 20
95.2325449012
 40
8.0
100
AcDbArc
 50
332.4653846154
 51
40.6214333352
  0
ARC
  5
59B
100
AcDbEntity
  8
0
100
AcDbCircle
 62
7
  6
CONTINUOUS
 10
127.5106790063
 20
77.0572372564
 40
8.0
100
AcDbArc
 50
56.3016435879
 51
124.4576923077
  0
ARC
  5
59C
100
AcDbEntity
  8
0
100
AcDbCircle
 62
7
  6
CONTINUOUS
 10
110.8713172309
 20
83.1993801453
 40
1.0
100
AcDbArc
 50
152.4653846154
 51
226.9352350727
  0
ARC
  5
59D
100
AcDbEntity
  8
0
100
AcDbCircle
 62
7
  6
CONTINUOUS
 10
115.0980108817
 20
79.4548563209
 40
1.0
100
AcDbArc
 50
229.9878418504
 51
304.4576923077
  0
ARC
  5
59E
100
AcDbEntity
  8
0
100
AcDbCircle
 62
7
  6
CONTINUOUS
 10
82.7985942876
 20
159.0332172323
 40
8.0
100
AcDbArc
 50
0.9170282033
 51
69.0730769231
  0
ARC
  5
59F
100
AcDbEntity
  8
0
100
AcDbCircle
 62
7
  6
CONTINUOUS
 10
85.3327574533
 20
138.1625058632
 40
8.0
100
AcDbArc
 50
304.7730769231
 51
12.9291256429
  0
ARC
  5
5A0
100
AcDbEntity
  8
0
100
AcDbCircle
 62
7
  6
CONTINUOUS
 10
95.0520044648
 20
112.5349576978
 40
8.0
100
AcDbArc
 50
28.6093358956
 51
96.7653846154
  0
ARC
  5
5A1
100
AcDbEntity
  8
0
100
AcDbCircle
 62
7
  6
CONTINUOUS
 10
83.1729774441
 20
125.7062521141
 40
1.0
100
AcDbArc
 50
124.7730769231
 51
199.2429273804
  0
ARC
  5
5A2
100
AcDbEntity
  8
0
100
AcDbCircle
 62
7
  6
CONTINUOUS
 10
85.1753618164
 20
120.42639845
 40
1.0
100
AcDbArc
 50
202.2955341581
 51
276.7653846154
  0
ARC
  5
5A3
100
AcDbEntity
  8
0
100
AcDbCircle
 62
7
  6
CONTINUOUS
 10
172.7387267442
 20
60.7275741085
 40
8.0
100
AcDbArc
 50
83.9939512802
 51
152.15
  0
ARC
  5
5A4
100
AcDbEntity
  8
0
100
AcDbCircle
 62
7
  6
CONTINUOUS
 10
146.1265064896
 20
67.2868972874
 40
8.0
100
AcDbArc
 50
0.1576923077
 51
68.3137410275
  0
ARC
  5
5A5
100
AcDbEntity
  8
0
100
AcDbCircle
 62
7
  6
CONTINUOUS
 10
155.1509074707
 20
58.4334745548
 40
1.0
100
AcDbArc
 50
180.1576923077
 51
254.627542765
  0
ARC
  5
5A6
100
AcDbEntity
  8
0
100
AcDbCircle
 62
7
  6
CONTINUOUS
 10
160.6336258218
 20
57.082105852
 40
1.0
100
AcDbArc
 50
257.6801495427
 51
332.15
  0
ARC
  5
5A7
100
AcDbEntity
  8
0
100
AcDbCircle
 62
7
  6
CONTINUOUS
 10
93.5575570768
 20
205.8998249653
 40
8.0
100
AcDbArc
 50
333.224720511
 51
41.3807692308
  0
ARC
  5
5A8
100
AcDbEntity
  8
0
100
AcDbCircle
 62
7
  6
CONTINUOUS
 10
86.1023439317
 20
186.2420434791
 40
8.0
100
AcDbArc
 50
277.0807692308
 51
345.2368179506
  0
ARC
  5
5A9
100
AcDbEntity
  8
0
100
AcDbCircle
 62
7
  6
CONTINUOUS
 10
78.4012439544
 20
176.2162783567
 40
1.0
100
AcDbArc
 50
97.0807692308
 51
171.5506196881
  0
ARC
  5
5AA
100
AcDbEntity
  8
0
100
AcDbCircle
 62
7
  6
CONTINUOUS
 10
94.44151299
 20
218.5109918064
 40
1.0
100
AcDbArc
 50
146.9109187735
 51
221.3807692308
  0
ARC
  5
5AB
100
AcDbEntity
  8
0
100
AcDbCircle
 62
7
  6
CONTINUOUS
 10
77.7205969198
 20
170.6106456981
 40
1.0
100
AcDbArc
 50
174.6032264658
 51
249.0730769231
  0
ARC
  5
5AC
100
AcDbEntity
  8
0
100
AcDbCircle
 62
7
  6
CONTINUOUS
 10
124.864144117
 20
242.3982058692
 40
8.0
100
AcDbArc
 50
305.5324128187
 51
13.6884615385
  0
ARC
  5
5AD
100
AcDbEntity
  8
0
100
AcDbCircle
 62
7
  6
CONTINUOUS
 10
109.1274541474
 20
228.4567151023
 40
8.0
100
AcDbArc
 50
249.3884615385
 51
317.5445102582
  0
ARC
  5
5AE
100
AcDbEntity
  8
0
100
AcDbCircle
 62
7
  6
CONTINUOUS
 10
97.6492633986
 20
223.1582205726
 40
1.0
100
AcDbArc
 50
69.3884615385
 51
143.8583119957
  0
ARC
  5
5AF
100
AcDbEntity
  8
0
100
AcDbCircle
 62
7
  6
CONTINUOUS
 10
169.5463936024
 20
260.167020732
 40
8.0
100
AcDbArc
 50
277.8401051264
 51
345.9961538462
  0
ARC
  5
5B0
100
AcDbEntity
  8
0
100
AcDbCircle
 62
7
  6
CONTINUOUS
 10
149.1333128329
 20
255.135648206
 40
8.0
100
AcDbArc
 50
221.6961538462
 51
289.8522025659
  0
ARC
  5
5B1
100
AcDbEntity
  8
0
100
AcDbCircle
 62
7
  6
CONTINUOUS
 10
136.5075464857
 20
255.7782455118
 40
1.0
100
AcDbArc
 50
41.6961538462
 51
116.1660043034
  0
ARC
  5
5B2
100
AcDbEntity
  8
0
100
AcDbCircle
 62
7
  6
CONTINUOUS
 10
180.4273246346
 20
266.6034985748
 40
1.0
100
AcDbArc
 50
91.5263033889
 51
165.9961538462
  0
ARC
  5
5B3
100
AcDbEntity
  8
0
100
AcDbCircle
 62
7
  6
CONTINUOUS
 10
131.5075496643
 20
253.1540447432
 40
1.0
100
AcDbArc
 50
119.2186110812
 51
193.6884615385
  0
ARC
  5
5B4
100
AcDbEntity
  8
0
100
AcDbCircle
 62
7
  6
CONTINUOUS
 10
220.3749469987
 20
67.2868972874
 40
8.0
100
AcDbArc
 50
111.6862589725
 51
179.8423076923
  0
ARC
  5
5B5
100
AcDbEntity
  8
0
100
AcDbCircle
 62
7
  6
CONTINUOUS
 10
193.7627267442
 20
60.7275741085
 40
8.0
100
AcDbArc
 50
27.85
 51
96.0060487198
  0
ARC
  5
5B6
100
AcDbEntity
  8
0
100
AcDbCircle
 62
7
  6
CONTINUOUS
 10
211.3505460177
 20
58.4334745548
 40
1.0
100
AcDbArc
 50
285.372457235
 51
359.8423076923
  0
ARC
  5
5B7
100
AcDbEntity
  8
0
100
AcDbCircle
 62
7
  6
CONTINUOUS
 10
205.8678276665
 20
57.082105852
 40
1.0
100
AcDbArc
 50
207.85
 51
282.3198504573
  0
ARC
  5
5B8
100
AcDbEntity
  8
0
100
AcDbCircle
 62
7
  6
CONTINUOUS
 10
183.2507267442
 20
160.6411071308
 40
107.0
100
AcDbArc
 50
282.3198504573
 51
285.372457235
  0
ARC
  5
5B9
100
AcDbEntity
  8
0
100
AcDbCircle
 62
7
  6
CONTINUOUS
 10
183.2507267442
 20
160.6411071308
 40
107.0
100
AcDbArc
 50
337.7044658419
 51
340.7570726196
  0
ARC
  5
5BA
100
AcDbEntity
  8
0
100
AcDbCircle
 62
7
  6
CONTINUOUS
 10
183.2507267442
 20
160.6411071308
 40
107.0
100
AcDbArc
 50
5.3967735342
 51
8.4493803119
  0
ARC
  5
5BB
100
AcDbEntity
  8
0
100
AcDbCircle
 62
7
  6
CONTINUOUS
 10
183.2507267442
 20
160.6411071308
 40
107.0
100
AcDbArc
 50
33.0890812265
 51
36.1416880043
  0
ARC
  5
5BC
100
AcDbEntity
  8
0
100
AcDbCircle
 62
7
  6
CONTINUOUS
 10
183.2507267442
 20
160.6411071308
 40
107.0
100
AcDbArc
 50
60.7813889188
 51
63.8339956966
  0
ARC
  5
5BD
100
AcDbEntity
  8
0
100
AcDbCircle
 62
7
  6
CONTINUOUS
 10
183.2507267442
 20
160.6411071308
 40
107.0
100
AcDbArc
 50
88.4736966111
 51
91.5263033889
  0
ARC
  5
5BE
100
AcDbEntity
  8
0
100
AcDbCircle
 62
7
  6
CONTINUOUS
 10
183.2507267442
 20
160.6411071308
 40
107.0
100
AcDbArc
 50
116.1660043034
 51
119.2186110812
  0
ARC
  5
5BF
100
AcDbEntity
  8
0
100
AcDbCircle
 62
7
  6
CONTINUOUS
 10
183.2507267442
 20
160.6411071308
 40
107.0
100
AcDbArc
 50
143.8583119957
 51
146.9109187735
  0
ARC
  5
5C0
100
AcDbEntity
  8
0
100
AcDbCircle
 62
7
  6
CONTINUOUS
 10
183.2507267442
 20
160.6411071308
 40
107.0
100
AcDbArc
 50
171.5506196881
 51
174.6032264658
  0
ARC
  5
5C1
100
AcDbEntity
  8
0
100
AcDbCircle
 62
7
  6
CONTINUOUS
 10
183.2507267442
 20
160.6411071308
 40
107.0
100
AcDbArc
 50
199.2429273804
 51
202.2955341581
  0
ARC
  5
5C2
100
AcDbEntity
  8
0
100
AcDbCircle
 62
7
  6
CONTINUOUS
 10
183.2507267442
 20
160.6411071308
 40
107.0
100
AcDbArc
 50
226.9352350727
 51
229.9878418504
  0
ARC
  5
5C3
100
AcDbEntity
  8
0
100
AcDbCircle
 62
7
  6
CONTINUOUS
 10
183.2507267442
 20
160.6411071308
 40
107.0
100
AcDbArc
 50
254.627542765
 51
257.6801495427
  0
ARC
  5
5C4
100
AcDbEntity
  8
0
100
AcDbCircle
 62
7
  6
CONTINUOUS
 10
183.2507267442
 20
160.6411071308
 40
107.0
100
AcDbArc
 50
310.0121581496
 51
313.0647649273
  0
ARC
  5
5C5
100
AcDbEntity
  8
0
100
AcDbCircle
 62
7
  6
CONTINUOUS
 10
183.2507267442
 20
160.6411071308
 40
97.0
100
AcDbArc
 50
114.6739937265
 51
120.7107603782
  0
ARC
  5
5C6
100
AcDbEntity
  8
0
100
AcDbCircle
 62
7
  6
CONTINUOUS
 10
183.2507267442
 20
160.6411071308
 40
97.0
100
AcDbArc
 50
142.3663015007
 51
148.4030680703
  0
ARC
  5
5C7
100
AcDbEntity
  8
0
100
AcDbCircle
 62
7
  6
CONTINUOUS
 10
183.2507267442
 20
160.6411071308
 40
97.0
100
AcDbArc
 50
170.0586089341
 51
176.0955705446
  0
ARC
  5
5C8
100
AcDbEntity
  8
0
100
AcDbCircle
 62
7
  6
CONTINUOUS
 10
183.2507267442
 20
160.6411071308
 40
97.0
100
AcDbArc
 50
197.7509163211
 51
203.7876887242
  0
ARC
  5
5C9
100
AcDbEntity
  8
0
100
AcDbCircle
 62
7
  6
CONTINUOUS
 10
183.2507267442
 20
160.6411071308
 40
97.0
100
AcDbArc
 50
225.4432236469
 51
231.4799911456
  0
ARC
  5
5CA
100
AcDbEntity
  8
0
100
AcDbCircle
 62
7
  6
CONTINUOUS
 10
183.2507267442
 20
160.6411071308
 40
97.0
100
AcDbArc
 50
253.1355308904
 51
259.1724653859
  0
ARC
  5
5CB
100
AcDbEntity
  8
0
100
AcDbCircle
 62
7
  6
CONTINUOUS
 10
183.2507267442
 20
160.6411071308
 40
97.0
100
AcDbArc
 50
280.827466702
 51
286.8646065281
  0
ARC
  5
5CC
100
AcDbEntity
  8
0
100
AcDbCircle
 62
7
  6
CONTINUOUS
 10
183.2507267442
 20
160.6411071308
 40
97.0
100
AcDbArc
 50
308.5201449991
 51
314.5569142196
  0
ARC
  5
5CD
100
AcDbEntity
  8
0
100
AcDbCircle
 62
7
  6
CONTINUOUS
 10
183.2507267442
 20
160.6411071308
 40
97.0
100
AcDbArc
 50
336.2124496097
 51
342.2492219103
  0
ARC
  5
5CE
100
AcDbEntity
  8
0
100
AcDbCircle
 62
7
  6
CONTINUOUS
 10
183.2507267442
 20
160.6411071308
 40
97.0
100
AcDbArc
 50
3.9038739121
 51
9.9415296009
  0
ARC
  5
5CF
100
AcDbEntity
  8
0
100
AcDbCircle
 62
7
  6
CONTINUOUS
 10
183.2507267442
 20
160.6411071308
 40
97.0
100
AcDbArc
 50
31.5970662532
 51
37.6338372931
  0
ARC
  5
5D0
100
AcDbEntity
  8
0
100
AcDbCircle
 62
7
  6
CONTINUOUS
 10
183.2507267442
 20
160.6411071308
 40
97.0
100
AcDbArc
 50
59.2893726566
 51
65.3261449824
  0
ARC
  5
5D1
100
AcDbEntity
  8
0
100
AcDbCircle
 62
7
  6
CONTINUOUS
 10
183.2507267442
 20
160.6411071308
 40
97.0
100
AcDbArc
 50
86.9807398757
 51
93.018630506
  0
ARC
  5
5D2
100
AcDbEntity
  8
0
100
AcDbCircle
 62
7
  6
CONTINUOUS
 10
183.2507267442
 20
160.6411071308
 40
92.465
100
AcDbArc
 50
70.1477974341
 51
82.1598948736
  0
ARC
  5
5D3
100
AcDbEntity
  8
0
100
AcDbCircle
 62
7
  6
CONTINUOUS
 10
183.2507267442
 20
160.6411071308
 40
92.465
100
AcDbArc
 50
42.4554897418
 51
54.4675871813
  0
ARC
  5
5D4
100
AcDbEntity
  8
0
100
AcDbCircle
 62
7
  6
CONTINUOUS
 10
183.2507267442
 20
160.6411071308
 40
92.465
100
AcDbArc
 50
14.7631820494
 51
26.775279489
  0
ARC
  5
5D5
100
AcDbEntity
  8
0
100
AcDbCircle
 62
7
  6
CONTINUOUS
 10
183.2507267442
 20
160.6411071308
 40
92.465
100
AcDbArc
 50
97.8401051264
 51
109.8522025659
  0
ARC
  5
5D6
100
AcDbEntity
  8
0
100
AcDbCircle
 62
7
  6
CONTINUOUS
 10
183.2507267442
 20
160.6411071308
 40
92.465
100
AcDbArc
 50
347.0708743571
 51
359.0829717967
  0
ARC
  5
5D7
100
AcDbEntity
  8
0
100
AcDbCircle
 62
7
  6
CONTINUOUS
 10
183.2507267442
 20
160.6411071308
 40
92.465
100
AcDbArc
 50
125.5324128187
 51
137.5445102582
  0
ARC
  5
5D8
100
AcDbEntity
  8
0
100
AcDbCircle
 62
7
  6
CONTINUOUS
 10
183.2507267442
 20
160.6411071308
 40
92.465
100
AcDbArc
 50
319.3785666648
 51
331.3906641044
  0
ARC
  5
5D9
100
AcDbEntity
  8
0
100
AcDbCircle
 62
7
  6
CONTINUOUS
 10
183.2507267442
 20
160.6411071308
 40
92.465
100
AcDbArc
 50
153.224720511
 51
165.2368179506
  0
ARC
  5
5DA
100
AcDbEntity
  8
0
100
AcDbCircle
 62
7
  6
CONTINUOUS
 10
183.2507267442
 20
160.6411071308
 40
92.465
100
AcDbArc
 50
180.9170282033
 51
192.9291256429
  0
ARC
  5
5DB
100
AcDbEntity
  8
0
100
AcDbCircle
 62
7
  6
CONTINUOUS
 10
183.2507267442
 20
160.6411071308
 40
92.465
100
AcDbArc
 50
291.6862589725
 51
303.6983564121
  0
ARC
  5
5DC
100
AcDbEntity
  8
0
100
AcDbCircle
 62
7
  6
CONTINUOUS
 10
183.2507267442
 20
160.6411071308
 40
92.465
100
AcDbArc
 50
208.6093358956
 51
220.6214333352
  0
ARC
  5
5DD
100
AcDbEntity
  8
0
100
AcDbCircle
 62
7
  6
CONTINUOUS
 10
183.2507267442
 20
160.6411071308
 40
92.465
100
AcDbArc
 50
263.9939512802
 51
276.0060487198
  0
ARC
  5
5DE
100
AcDbEntity
  8
0
100
AcDbCircle
 62
7
  6
CONTINUOUS
 10
183.2507267442
 20
160.6411071308
 40
92.465
100
AcDbArc
 50
236.3016435879
 51
248.3137410275
  0
CIRCLE
  5
5DF
100
AcDbEntity
  8
1_AXIS
100
AcDbCircle
 62
7
  6
CONTINUOUS
 10
183.2507267442
 20
160.6411071308
 40
31.5
  0
ARC
  5
5E0
100
AcDbEntity
  8
0
100
AcDbCircle
 62
7
  6
CONTINUOUS
 10
259.5064557883
 20
95.2325449012
 40
8.0
100
AcDbArc
 50
139.3785666648
 51
207.5346153846
  0
ARC
  5
5E1
100
AcDbEntity
  8
0
100
AcDbCircle
 62
7
  6
CONTINUOUS
 10
238.9907744821
 20
77.0572372564
 40
8.0
100
AcDbArc
 50
55.5423076923
 51
123.6983564121
  0
ARC
  5
5E2
100
AcDbEntity
  8
0
100
AcDbCircle
 62
7
  6
CONTINUOUS
 10
255.6301362575
 20
83.1993801453
 40
1.0
100
AcDbArc
 50
313.0647649273
 51
27.5346153846
  0
ARC
  5
5E3
100
AcDbEntity
  8
0
100
AcDbCircle
 62
7
  6
CONTINUOUS
 10
251.4034426067
 20
79.4548563209
 40
1.0
100
AcDbArc
 50
235.5423076923
 51
310.0121581496
  0
ARC
  5
5E4
100
AcDbEntity
  8
0
100
AcDbCircle
 62
7
  6
CONTINUOUS
 10
283.7028592008
 20
159.0332172323
 40
8.0
100
AcDbArc
 50
110.9269230769
 51
179.0829717967
  0
ARC
  5
5E5
100
AcDbEntity
  8
0
100
AcDbCircle
 62
7
  6
CONTINUOUS
 10
281.1686960351
 20
138.1625058632
 40
8.0
100
AcDbArc
 50
167.0708743571
 51
235.2269230769
  0
ARC
  5
5E6
100
AcDbEntity
  8
0
100
AcDbCircle
 62
7
  6
CONTINUOUS
 10
271.4494490236
 20
112.5349576978
 40
8.0
100
AcDbArc
 50
83.2346153846
 51
151.3906641044
  0
ARC
  5
5E7
100
AcDbEntity
  8
0
100
AcDbCircle
 62
7
  6
CONTINUOUS
 10
283.3284760442
 20
125.7062521141
 40
1.0
100
AcDbArc
 50
340.7570726196
 51
55.2269230769
  0
ARC
  5
5E8
100
AcDbEntity
  8
0
100
AcDbCircle
 62
7
  6
CONTINUOUS
 10
281.326091672
 20
120.42639845
 40
1.0
100
AcDbArc
 50
263.2346153846
 51
337.7044658419
  0
ARC
  5
5E9
100
AcDbEntity
  8
0
100
AcDbCircle
 62
7
  6
CONTINUOUS
 10
196.955059886
 20
260.167020732
 40
8.0
100
AcDbArc
 50
194.0038461538
 51
262.1598948736
  0
ARC
  5
5EA
100
AcDbEntity
  8
0
100
AcDbCircle
 62
7
  6
CONTINUOUS
 10
217.3681406555
 20
255.135648206
 40
8.0
100
AcDbArc
 50
250.1477974341
 51
318.3038461538
  0
CIRCLE
  5
5EB
100
AcDbEntity
  8
0
100
AcDbCircle
 62
7
  6
CONTINUOUS
 10
183.2507267442
 20
245.6411071308
 40
1.7320508076
  0
ARC
  5
5EC
100
AcDbEntity
  8
0
100
AcDbCircle
 62
7
  6
CONTINUOUS
 10
229.9939070026
 20
255.7782455118
 40
1.0
100
AcDbArc
 50
63.8339956966
 51
138.3038461538
  0
ARC
  5
5ED
100
AcDbEntity
  8
0
100
AcDbCircle
 62
7
  6
CONTINUOUS
 10
186.0741288537
 20
266.6034985748
 40
1.0
100
AcDbArc
 50
14.0038461538
 51
88.4736966111
  0
ARC
  5
5EE
100
AcDbEntity
  8
0
100
AcDbCircle
 62
7
  6
CONTINUOUS
 10
234.9939038241
 20
253.1540447432
 40
1.0
100
AcDbArc
 50
346.3115384615
 51
60.7813889188
  0
ARC
  5
5EF
100
AcDbEntity
  8
0
100
AcDbCircle
 62
7
  6
CONTINUOUS
 10
272.9438964115
 20
205.8998249653
 40
8.0
100
AcDbArc
 50
138.6192307692
 51
206.775279489
  0
ARC
  5
5F0
100
AcDbEntity
  8
0
100
AcDbCircle
 62
7
  6
CONTINUOUS
 10
280.3991095567
 20
186.2420434791
 40
8.0
100
AcDbArc
 50
194.7631820494
 51
262.9192307692
  0
ARC
  5
5F1
100
AcDbEntity
  8
0
100
AcDbCircle
 62
7
  6
CONTINUOUS
 10
288.100209534
 20
176.2162783567
 40
1.0
100
AcDbArc
 50
8.4493803119
 51
82.9192307692
  0
ARC
  5
5F2
100
AcDbEntity
  8
0
100
AcDbCircle
 62
7
  6
CONTINUOUS
 10
272.0599404984
 20
218.5109918064
 40
1.0
100
AcDbArc
 50
318.6192307692
 51
33.0890812265
  0
ARC
  5
5F3
100
AcDbEntity
  8
0
100
AcDbCircle
 62
7
  6
CONTINUOUS
 10
288.7808565686
 20
170.6106456981
 40
1.0
100
AcDbArc
 50
290.9269230769
 51
5.3967735342
  0
ARC
  5
5F4
100
AcDbEntity
  8
0
100
AcDbCircle
 62
7
  6
CONTINUOUS
 10
241.6373093714
 20
242.3982058692
 40
8.0
100
AcDbArc
 50
166.3115384615
 51
234.4675871813
  0
ARC
  5
5F5
100
AcDbEntity
  8
0
100
AcDbCircle
 62
7
  6
CONTINUOUS
 10
257.3739993409
 20
228.4567151023
 40
8.0
100
AcDbArc
 50
222.4554897418
 51
290.6115384615
  0
ARC
  5
5F6
100
AcDbEntity
  8
0
100
AcDbCircle
 62
7
  6
CONTINUOUS
 10
268.8521900898
 20
223.1582205726
 40
1.0
100
AcDbArc
 50
36.1416880042
 51
110.6115384615
  0
ARC
  5
5F7
100
AcDbEntity
  8
1_AXIS
100
AcDbCircle
 62
7
  6
CONTINUOUS
 10
153.7507267442
 20
313.6646802326
 40
2.0
100
AcDbArc
 50
180.0
 51
270.0
  0
ARC
  5
5F8
100
AcDbEntity
  8
1_AXIS
100
AcDbCircle
 62
7
  6
CONTINUOUS
 10
153.7507267442
 20
351.9646802326
 40
2.0
100
AcDbArc
 50
90.0
 51
180.0
  0
ARC
  5
5F9
100
AcDbEntity
  8
1_AXIS
100
AcDbCircle
 62
7
  6
CONTINUOUS
 10
212.7507267442
 20
313.6646802326
 40
2.0
100
AcDbArc
 50
270.0
 51
360.0
  0
ARC
  5
5FA
100
AcDbEntity
  8
1_AXIS
100
AcDbCircle
 62
7
  6
CONTINUOUS
 10
212.7507267442
 20
351.9646802326
 40
2.0
100
AcDbArc
 50
0.0
 51
90.0
  0
ARC
  5
5FB
100
AcDbEntity
  8
0
100
AcDbCircle
 62
7
  6
CONTINUOUS
 10
255.6041182909
 20
329.3108165744
 40
1.0521767405
100
AcDbArc
 50
295.250677351
 51
299.8224112201
  0
ARC
  5
5FC
100
AcDbEntity
  8
0
100
AcDbCircle
 62
7
  6
CONTINUOUS
 10
110.8757954257
 20
336.3443789136
 40
1.020166004
100
AcDbArc
 50
105.7651813017
 51
110.7939377912
  0
ARC
  5
5FD
100
AcDbEntity
  8
0
100
AcDbCircle
 62
7
  6
CONTINUOUS
 10
255.6276733754
 20
329.2672296785
 40
1.0033305444
100
AcDbArc
 50
312.1123936097
 51
324.9744270269
  0
ARC
  5
5FE
100
AcDbEntity
  8
0
100
AcDbCircle
 62
7
  6
CONTINUOUS
 10
110.8737801129
 20
329.2672296785
 40
1.0033305444
100
AcDbArc
 50
215.0255729732
 51
227.8877464403
  0
ARC
  5
5FF
100
AcDbEntity
  8
0
100
AcDbCircle
 62
7
  6
CONTINUOUS
 10
83.1757304892
 20
329.2652952799
 40
1.0027887557
100
AcDbArc
 50
180.0202538494
 51
191.2689468653
  0
ARC
  5
600
100
AcDbEntity
  8
0
100
AcDbCircle
 62
7
  6
CONTINUOUS
 10
255.6286050234
 20
336.3636881771
 40
1.0015315014
100
AcDbArc
 50
0.0418593496
 51
10.692922765
  0
ARC
  5
601
100
AcDbEntity
  8
0
100
AcDbCircle
 62
7
  6
CONTINUOUS
 10
110.872848465
 20
336.3636881771
 40
1.0015315014
100
AcDbArc
 50
169.307077235
 51
179.9581406504
  0
ARC
  5
602
100
AcDbEntity
  8
0
100
AcDbCircle
 62
7
  6
CONTINUOUS
 10
255.629143511
 20
329.2660862206
 40
1.0013316049
100
AcDbArc
 50
282.3825340395
 51
292.8363112406
  0
ARC
  5
603
100
AcDbEntity
  8
0
100
AcDbCircle
 62
7
  6
CONTINUOUS
 10
110.8723099774
 20
329.2660862206
 40
1.0013316049
100
AcDbArc
 50
247.1636887593
 51
257.6174659606
  0
ARC
  5
604
100
AcDbEntity
  8
1_AXIS
100
AcDbCircle
 62
7
  6
CONTINUOUS
 10
150.7507267442
 20
326.3146802326
 40
1.0
100
AcDbArc
 50
0.0
 51
90.0
  0
ARC
  5
605
100
AcDbEntity
  8
1_AXIS
100
AcDbCircle
 62
7
  6
CONTINUOUS
 10
150.7507267442
 20
339.3146802326
 40
1.0
100
AcDbArc
 50
270.0
 51
360.0
  0
ARC
  5
606
100
AcDbEntity
  8
1_AXIS
100
AcDbCircle
 62
7
  6
CONTINUOUS
 10
215.7507267442
 20
326.3146802326
 40
1.0
100
AcDbArc
 50
90.0
 51
180.0
  0
ARC
  5
607
100
AcDbEntity
  8
1_AXIS
100
AcDbCircle
 62
7
  6
CONTINUOUS
 10
215.7507267442
 20
339.3146802326
 40
1.0
100
AcDbArc
 50
180.0
 51
270.0
  0
ARC
  5
608
100
AcDbEntity
  8
0
100
AcDbCircle
 62
7
  6
CONTINUOUS
 10
255.6306978349
 20
336.3647357862
 40
0.9993727799
100
AcDbArc
 50
42.5984311403
 51
49.1064395297
  0
ARC
  5
609
100
AcDbEntity
  8
0
100
AcDbCircle
 62
7
  6
CONTINUOUS
 10
110.8707556514
 20
336.3647357883
 40
0.9993727769
100
AcDbArc
 50
130.8935636559
 51
137.4015688678
  0
ARC
  5
60A
100
AcDbEntity
  8
0
100
AcDbCircle
 62
7
  6
CONTINUOUS
 10
283.3355949708
 20
329.2637568311
 40
0.9928304414
100
AcDbArc
 50
348.5301394728
 51
0.0687706554
  0
ARC
  5
60B
100
AcDbEntity
  8
0
100
AcDbCircle
 62
7
  6
CONTINUOUS
 10
110.8646915351
 20
336.3753962862
 40
0.9872272334
100
AcDbArc
 50
110.8305474545
 51
131.0278751455
  0
ARC
  5
60C
100
AcDbEntity
  8
0
100
AcDbCircle
 62
7
  6
CONTINUOUS
 10
165.0280845227
 20
337.3632883125
 40
0.9513921351
100
AcDbArc
 50
87.5698696327
 51
90.0385238688
  0
ARC
  5
60D
100
AcDbEntity
  8
0
100
AcDbCircle
 62
7
  6
CONTINUOUS
 10
165.0284148663
 20
328.2554504824
 40
0.9407707499
100
AcDbArc
 50
269.9409222633
 51
272.4120260376
  0
ARC
  5
60E
100
AcDbEntity
  8
0
100
AcDbCircle
 62
7
  6
CONTINUOUS
 10
181.2664168218
 20
42.2204271368
 40
200.7150013869
100
AcDbArc
 50
6.4676735543
 51
6.6179352691
  0
ARC
  5
60F
100
AcDbEntity
  8
0
100
AcDbCircle
 62
7
  6
CONTINUOUS
 10
584.5678276483
 20
42.9559861489
 40
194.221117308
100
AcDbArc
 50
173.378336993
 51
173.5335350628
  0
ARC
  5
610
100
AcDbEntity
  8
1_AXIS
100
AcDbCircle
 62
7
  6
CONTINUOUS
 10
405.2931686047
 20
131.1411071308
 40
2.0
100
AcDbArc
 50
270.0
 51
360.0
  0
ARC
  5
611
100
AcDbEntity
  8
1_AXIS
100
AcDbCircle
 62
7
  6
CONTINUOUS
 10
405.2931686047
 20
190.1411071308
 40
2.0
100
AcDbArc
 50
0.0
 51
90.0
  0
ARC
  5
612
100
AcDbEntity
  8
1_AXIS
100
AcDbCircle
 62
7
  6
CONTINUOUS
 10
366.9931686047
 20
131.1411071308
 40
2.0
100
AcDbArc
 50
180.0
 51
270.0
  0
ARC
  5
613
100
AcDbEntity
  8
1_AXIS
100
AcDbCircle
 62
7
  6
CONTINUOUS
 10
366.9931686047
 20
190.1411071308
 40
2.0
100
AcDbArc
 50
90.0
 51
180.0
  0
ARC
  5
614
100
AcDbEntity
  8
0
100
AcDbCircle
 62
7
  6
CONTINUOUS
 10
389.6905453718
 20
79.4584114844
 40
1.0042438511
100
AcDbArc
 50
301.9649230788
 51
305.1997166921
  0
ARC
  5
615
100
AcDbEntity
  8
0
100
AcDbCircle
 62
7
  6
CONTINUOUS
 10
389.6921532142
 20
120.4280535535
 40
1.0016553881
100
AcDbArc
 50
270.0431889624
 51
280.8013284541
  0
ARC
  5
616
100
AcDbEntity
  8
0
100
AcDbCircle
 62
7
  6
CONTINUOUS
 10
389.6921714885
 20
223.1566590432
 40
1.0015618004
100
AcDbArc
 50
79.2797177152
 51
89.9578524114
  0
ARC
  5
617
100
AcDbEntity
  8
0
100
AcDbCircle
 62
7
  6
CONTINUOUS
 10
389.6921757462
 20
255.7767094415
 40
1.0015363382
100
AcDbArc
 50
73.9057353977
 51
89.9580949148
  0
ARC
  5
618
100
AcDbEntity
  8
0
100
AcDbCircle
 62
7
  6
CONTINUOUS
 10
389.6921790304
 20
79.4563726112
 40
1.0015165558
100
AcDbArc
 50
270.0417180296
 51
280.6790505303
  0
ARC
  5
619
100
AcDbEntity
  8
0
100
AcDbCircle
 62
7
  6
CONTINUOUS
 10
389.6926525009
 20
120.4264321947
 40
1.0001971239
100
AcDbArc
 50
312.3192054549
 51
319.4522672372
  0
ARC
  5
61A
100
AcDbEntity
  8
1_AXIS
100
AcDbCircle
 62
7
  6
CONTINUOUS
 10
392.6431686047
 20
128.1411071308
 40
1.0
100
AcDbArc
 50
90.0
 51
180.0
  0
ARC
  5
61B
100
AcDbEntity
  8
1_AXIS
100
AcDbCircle
 62
7
  6
CONTINUOUS
 10
392.6431686047
 20
193.1411071308
 40
1.0
100
AcDbArc
 50
180.0
 51
270.0
  0
ARC
  5
61C
100
AcDbEntity
  8
1_AXIS
100
AcDbCircle
 62
7
  6
CONTINUOUS
 10
379.6431686047
 20
128.1411071308
 40
1.0
100
AcDbArc
 50
0.0
 51
90.0
  0
ARC
  5
61D
100
AcDbEntity
  8
1_AXIS
100
AcDbCircle
 62
7
  6
CONTINUOUS
 10
379.6431686047
 20
193.1411071308
 40
1.0
100
AcDbArc
 50
270.0
 51
360.0
  0
ARC
  5
61E
100
AcDbEntity
  8
0
100
AcDbCircle
 62
7
  6
CONTINUOUS
 10
382.5931660854
 20
223.158701844
 40
0.9994528003
100
AcDbArc
 50
89.9850287931
 51
134.6413491388
  0
ARC
  5
61F
100
AcDbEntity
  8
0
100
AcDbCircle
 62
7
  6
CONTINUOUS
 10
382.5932550767
 20
120.4257437527
 40
0.9993427445
100
AcDbArc
 50
220.6701944425
 51
270.0099645472
  0
ARC
  5
620
100
AcDbEntity
  8
0
100
AcDbCircle
 62
7
  6
CONTINUOUS
 10
382.5934969072
 20
255.7789643406
 40
0.9993205984
100
AcDbArc
 50
90.0041931746
 51
106.1408197603
  0
ARC
  5
621
100
AcDbEntity
  8
0
100
AcDbCircle
 62
7
  6
CONTINUOUS
 10
381.6399395735
 20
177.3793685476
 40
0.9974908526
100
AcDbArc
 50
148.4605275267
 51
162.9872449156
  0
ARC
  5
622
100
AcDbEntity
  8
0
100
AcDbCircle
 62
7
  6
CONTINUOUS
 10
390.6464043573
 20
177.3793706897
 40
0.9974835358
100
AcDbArc
 50
17.0127621316
 51
31.5395898972
  0
ARC
  5
623
100
AcDbEntity
  8
0
100
AcDbCircle
 62
7
  6
CONTINUOUS
 10
390.6506591559
 20
121.5151522312
 40
0.991555348
100
AcDbArc
 50
313.7947435816
 51
328.5418070459
  0
ARC
  5
624
100
AcDbEntity
  8
0
100
AcDbCircle
 62
7
  6
CONTINUOUS
 10
381.6356274299
 20
121.5151309823
 40
0.9914993512
100
AcDbArc
 50
211.4580784449
 51
226.2053015062
  0
ARC
  5
625
100
AcDbEntity
  8
0
100
AcDbCircle
 62
7
  6
CONTINUOUS
 10
381.577269723
 20
219.860047694
 40
0.9348643826
100
AcDbArc
 50
161.2208573597
 51
164.9767869638
  0
ARC
  5
626
100
AcDbEntity
  8
0
100
AcDbCircle
 62
7
  6
CONTINUOUS
 10
390.7091543138
 20
219.8600859299
 40
0.9347737206
100
AcDbArc
 50
15.0230180377
 51
18.7779422286
  0
ARC
  5
627
100
AcDbEntity
  8
1_AXIS
100
AcDbCircle
 62
7
  6
CONTINUOUS
 10
382.1431686047
 20
267.1411071308
 40
0.5
100
AcDbArc
 50
90.0
 51
174.0073825016
  0
ARC
  5
628
100
AcDbEntity
  8
1_AXIS
100
AcDbCircle
 62
7
  6
CONTINUOUS
 10
390.1431686047
 20
267.1411071308
 40
0.5
100
AcDbArc
 50
5.9926174984
 51
90.0
  0
ARC
  5
629
100
AcDbEntity
  8
0
100
AcDbCircle
 62
7
  6
CONTINUOUS
 10
391.3408007327
 20
211.4543635512
 40
0.3022687513
100
AcDbArc
 50
356.4973603869
 51
2.0101577706
  0
ARC
  5
62A
100
AcDbEntity
  8
0
100
AcDbCircle
 62
7
  6
CONTINUOUS
 10
380.9449128389
 20
211.4543739422
 40
0.3016439799
100
AcDbArc
 50
177.9882725286
 51
183.5102184332
  0
SPLINE
  5
62B
100
AcDbEntity
  8
0
100
AcDbSpline
 62
7
  6
CONTINUOUS
 70
0
 71
3
 72
14
 73
10
 74
0
 42
0.0000001
 43
0.0000001
 44
0.0000000001
 40
0.0
 40
0.0
 40
0.0
 40
0.0
 40
0.3835102765
 40
0.5563148479
 40
0.7067215319
 40
0.8298654625
 40
0.9212990133
 40
0.9783001869
 40
1.0
 40
1.0
 40
1.0
 40
1.0
 10
178.1068685048
 20
257.5108054708
 30
0.0
 10
177.9889713164
 20
257.5480895546
 30
0.0
 10
177.8172481836
 20
257.6004368623
 30
0.0
 10
177.5987906883
 20
257.6640135003
 30
0.0
 10
177.4594894894
 20
257.7032588757
 30
0.0
 10
177.3475913164
 20
257.7317817643
 30
0.0
 10
177.2571740981
 20
257.7529387299
 30
0.0
 10
177.2117211491
 20
257.7559432093
 30
0.0
 10
177.1761584186
 20
257.761456531
 30
0.0
 10
177.1740486906
 20
257.7547856985
 30
0.0
  0
SPLINE
  5
62C
100
AcDbEntity
  8
0
100
AcDbSpline
 62
7
  6
CONTINUOUS
 70
0
 71
3
 72
8
 73
4
 74
0
 42
0.0000001
 43
0.0000001
 44
0.0000000001
 40
0.0
 40
0.0
 40
0.0
 40
0.0
 40
1.0
 40
1.0
 40
1.0
 40
1.0
 10
178.1048449552
 20
257.5112554501
 30
0.0
 10
178.1170424546
 20
257.5073974107
 30
0.0
 10
178.1312733839
 20
257.5044498996
 30
0.0
 10
178.1431671164
 20
257.5091618619
 30
0.0
  0
SPLINE
  5
62D
100
AcDbEntity
  8
0
100
AcDbSpline
 62
7
  6
CONTINUOUS
 70
0
 71
3
 72
14
 73
10
 74
0
 42
0.0000001
 43
0.0000001
 44
0.0000000001
 40
0.0
 40
0.0
 40
0.0
 40
0.0
 40
0.383561495
 40
0.5563930016
 40
0.7068283712
 40
0.8299987807
 40
0.9214340117
 40
0.978385248
 40
1.0
 40
1.0
 40
1.0
 40
1.0
 10
188.3945071427
 20
257.5108768018
 30
0.0
 10
188.5124207568
 20
257.5481226983
 30
0.0
 10
188.6841590922
 20
257.6004529942
 30
0.0
 10
188.9027016447
 20
257.6637680732
 30
0.0
 10
189.0421030378
 20
257.702733349
 30
0.0
 10
189.154039556
 20
257.7310357553
 30
0.0
 10
189.2444506513
 20
257.7523605251
 30
0.0
 10
189.2897276285
 20
257.7556170338
 30
0.0
 10
189.3252958702
 20
257.7614526333
 30
0.0
 10
189.3273975116
 20
257.7548087383
 30
0.0
  0
SPLINE
  5
62E
100
AcDbEntity
  8
0
100
AcDbSpline
 62
7
  6
CONTINUOUS
 70
0
 71
3
 72
8
 73
4
 74
0
 42
0.0000001
 43
0.0000001
 44
0.0000000001
 40
0.0
 40
0.0
 40
0.0
 40
0.0
 40
1.0
 40
1.0
 40
1.0
 40
1.0
 10
142.7880980569
 20
248.8059137785
 30
0.0
 10
142.7794776612
 20
248.7972362108
 30
0.0
 10
142.7686742041
 20
248.7882495593
 30
0.0
 10
142.7564802697
 20
248.7872907241
 30
0.0
  0
SPLINE
  5
62F
100
AcDbEntity
  8
0
100
AcDbSpline
 62
7
  6
CONTINUOUS
 70
0
 71
3
 72
14
 73
10
 74
0
 42
0.0000001
 43
0.0000001
 44
0.0000000001
 40
0.0
 40
0.0
 40
0.0
 40
0.0
 40
0.3836029825
 40
0.5564559873
 40
0.7069149206
 40
0.8301073998
 40
0.9215444415
 40
0.9784555831
 40
1.0
 40
1.0
 40
1.0
 40
1.0
 10
142.7876069171
 20
248.8054867351
 30
0.0
 10
142.8747530874
 20
248.893220867
 30
0.0
 10
143.002504912
 20
249.0193740883
 30
0.0
 10
143.1667384086
 20
249.1768553723
 30
0.0
 10
143.272250014
 20
249.2759684997
 30
0.0
 10
143.3583343751
 20
249.3528909676
 30
0.0
 10
143.4284154476
 20
249.4139069431
 30
0.0
 10
143.4667648924
 20
249.4379470249
 30
0.0
 10
143.495425067
 20
249.4598858899
 30
0.0
 10
143.5003570401
 20
249.4549960395
 30
0.0
  0
SPLINE
  5
630
100
AcDbEntity
  8
0
100
AcDbSpline
 62
7
  6
CONTINUOUS
 70
0
 71
3
 72
8
 73
4
 74
0
 42
0.0000001
 43
0.0000001
 44
0.0000000001
 40
0.0
 40
0.0
 40
0.0
 40
0.0
 40
1.0
 40
1.0
 40
1.0
 40
1.0
 10
188.3951852464
 20
257.5110337879
 30
0.0
 10
188.383473743
 20
257.5073362555
 30
0.0
 10
188.3697116975
 20
257.5045080728
 30
0.0
 10
188.3583842853
 20
257.5092536802
 30
0.0
  0
SPLINE
  5
631
100
AcDbEntity
  8
0
100
AcDbSpline
 62
7
  6
CONTINUOUS
 70
0
 71
3
 72
8
 73
4
 74
0
 42
0.0000001
 43
0.0000001
 44
0.0000000001
 40
0.0
 40
0.0
 40
0.0
 40
0.0
 40
1.0
 40
1.0
 40
1.0
 40
1.0
 10
223.7131419
 20
248.8059301097
 30
0.0
 10
223.7218181883
 20
248.7971835489
 30
0.0
 10
223.7327380368
 20
248.7883353001
 30
0.0
 10
223.7450057799
 20
248.7872026991
 30
0.0
  0
SPLINE
  5
632
100
AcDbEntity
  8
0
100
AcDbSpline
 62
7
  6
CONTINUOUS
 70
0
 71
3
 72
14
 73
10
 74
0
 42
0.0000001
 43
0.0000001
 44
0.0000000001
 40
0.0
 40
0.0
 40
0.0
 40
0.0
 40
0.3835734026
 40
0.5564116498
 40
0.7068539157
 40
0.8300303386
 40
0.9214657039
 40
0.9784053249
 40
1.0
 40
1.0
 40
1.0
 40
1.0
 10
272.0015431756
 20
121.4811063197
 30
0.0
 10
271.9945813782
 20
121.3576452395
 30
0.0
 10
271.9825942378
 20
121.1785087494
 30
0.0
 10
271.9642065527
 20
120.9517214727
 30
0.0
 10
271.9511341755
 20
120.807563244
 30
0.0
 10
271.9378559948
 20
120.692874497
 30
0.0
 10
271.9257760514
 20
120.6007633426
 30
0.0
 10
271.9128363136
 20
120.5572921596
 30
0.0
 10
271.9057515738
 20
120.521937415
 30
0.0
 10
271.8988007972
 20
120.5223279148
 30
0.0
  0
SPLINE
  5
633
100
AcDbEntity
  8
0
100
AcDbSpline
 62
7
  6
CONTINUOUS
 70
0
 71
3
 72
14
 73
10
 74
0
 42
0.0000001
 43
0.0000001
 44
0.0000000001
 40
0.0
 40
0.0
 40
0.0
 40
0.0
 40
0.3835344095
 40
0.5563513303
 40
0.7067713247
 40
0.8299278601
 40
0.9213625309
 40
0.9783402385
 40
1.0
 40
1.0
 40
1.0
 40
1.0
 10
223.7137061299
 20
248.8054475621
 30
0.0
 10
223.6266117751
 20
248.8932250627
 30
0.0
 10
223.4988831956
 20
249.0193833264
 30
0.0
 10
223.3349132
 20
249.1771213203
 30
0.0
 10
223.2297033457
 20
249.2765129167
 30
0.0
 10
223.1438102244
 20
249.3536834281
 30
0.0
 10
223.073618307
 20
249.4145012122
 30
0.0
 10
223.0348955776
 20
249.4383504095
 30
0.0
 10
223.0060358264
 20
249.4598937246
 30
0.0
 10
223.0010770396
 20
249.4549767938
 30
0.0
  0
SPLINE
  5
634
100
AcDbEntity
  8
0
100
AcDbSpline
 62
7
  6
CONTINUOUS
 70
0
 71
3
 72
8
 73
4
 74
0
 42
0.0000001
 43
0.0000001
 44
0.0000000001
 40
0.0
 40
0.0
 40
0.0
 40
0.0
 40
1.0
 40
1.0
 40
1.0
 40
1.0
 10
272.0006622997
 20
121.4747083266
 30
0.0
 10
272.0014938991
 20
121.4893182337
 30
0.0
 10
272.004829859
 20
121.504048038
 30
0.0
 10
272.0107321102
 20
121.5174384963
 30
0.0
  0
SPLINE
  5
635
100
AcDbEntity
  8
0
100
AcDbSpline
 62
7
  6
CONTINUOUS
 70
0
 71
3
 72
14
 73
10
 74
0
 42
0.0000001
 43
0.0000001
 44
0.0000000001
 40
0.0
 40
0.0
 40
0.0
 40
0.0
 40
0.3835441836
 40
0.5563661625
 40
0.70679161
 40
0.829953266
 40
0.9213883539
 40
0.9783565474
 40
1.0
 40
1.0
 40
1.0
 40
1.0
 10
133.6784956566
 20
244.0245595026
 30
0.0
 10
133.5567824317
 20
244.0027328906
 30
0.0
 10
133.3803966156
 20
243.9692791213
 30
0.0
 10
133.1574433448
 20
243.923891691
 30
0.0
 10
133.0158877892
 20
243.893709301
 30
0.0
 10
132.9035984209
 20
243.8668157276
 30
0.0
 10
132.8136591365
 20
243.8436251051
 30
0.0
 10
132.7720421421
 20
243.8253632339
 30
0.0
 10
132.7378884113
 20
243.8139042558
 30
0.0
 10
132.7391170875
 20
243.8070354235
 30
0.0
  0
SPLINE
  5
636
100
AcDbEntity
  8
0
100
AcDbSpline
 62
7
  6
CONTINUOUS
 70
0
 71
3
 72
8
 73
4
 74
0
 42
0.0000001
 43
0.0000001
 44
0.0000000001
 40
0.0
 40
0.0
 40
0.0
 40
0.0
 40
1.0
 40
1.0
 40
1.0
 40
1.0
 10
133.6778192462
 20
244.0243811665
 30
0.0
 10
133.6899236857
 20
244.0265502173
 30
0.0
 10
133.7034042503
 20
244.0304862227
 30
0.0
 10
133.7112701365
 20
244.0399387394
 30
0.0
  0
SPLINE
  5
637
100
AcDbEntity
  8
0
100
AcDbSpline
 62
7
  6
CONTINUOUS
 70
0
 71
3
 72
8
 73
4
 74
0
 42
0.0000001
 43
0.0000001
 44
0.0000000001
 40
0.0
 40
0.0
 40
0.0
 40
0.0
 40
1.0
 40
1.0
 40
1.0
 40
1.0
 10
106.451628529
 20
219.9053066932
 30
0.0
 10
106.4477982955
 20
219.8928315131
 30
0.0
 10
106.4421251613
 20
219.879145998
 30
0.0
 10
106.4313108384
 20
219.8718418055
 30
0.0
  0
SPLINE
  5
638
100
AcDbEntity
  8
0
100
AcDbSpline
 62
7
  6
CONTINUOUS
 70
0
 71
3
 72
14
 73
10
 74
0
 42
0.0000001
 43
0.0000001
 44
0.0000000001
 40
0.0
 40
0.0
 40
0.0
 40
0.0
 40
0.3835154852
 40
0.5563235074
 40
0.7067333492
 40
0.8298795201
 40
0.9213125038
 40
0.9783084143
 40
1.0
 40
1.0
 40
1.0
 40
1.0
 10
106.4505619527
 20
219.9026758748
 30
0.0
 10
106.4868123922
 20
220.0208954939
 30
0.0
 10
106.5413075895
 20
220.1919513253
 30
0.0
 10
106.6131438461
 20
220.4078349735
 30
0.0
 10
106.6600027149
 20
220.5447652765
 30
0.0
 10
106.7001010611
 20
220.6530539778
 30
0.0
 10
106.7340291136
 20
220.7394962012
 30
0.0
 10
106.7573458608
 20
220.7786108168
 30
0.0
 10
106.7729843078
 20
220.8110281696
 30
0.0
 10
106.7796702764
 20
220.8089761623
 30
0.0
  0
SPLINE
  5
639
100
AcDbEntity
  8
0
100
AcDbSpline
 62
7
  6
CONTINUOUS
 70
0
 71
3
 72
8
 73
4
 74
0
 42
0.0000001
 43
0.0000001
 44
0.0000000001
 40
0.0
 40
0.0
 40
0.0
 40
0.0
 40
1.0
 40
1.0
 40
1.0
 40
1.0
 10
251.3380168776
 20
91.5443526207
 30
0.0
 10
251.3267972027
 20
91.5393562482
 30
0.0
 10
251.3146717514
 20
91.5323088022
 30
0.0
 10
251.3093040869
 20
91.5212619465
 30
0.0
  0
SPLINE
  5
63A
100
AcDbEntity
  8
0
100
AcDbSpline
 62
7
  6
CONTINUOUS
 70
0
 71
3
 72
14
 73
10
 74
0
 42
0.0000001
 43
0.0000001
 44
0.0000000001
 40
0.0
 40
0.0
 40
0.0
 40
0.0
 40
0.3835426338
 40
0.5563638039
 40
0.7067883832
 40
0.8299492295
 40
0.9213842561
 40
0.9783539582
 40
1.0
 40
1.0
 40
1.0
 40
1.0
 10
251.3374454689
 20
91.5440409592
 30
0.0
 10
251.4503989918
 20
91.5943597532
 30
0.0
 10
251.6136532343
 20
91.6690528727
 30
0.0
 10
251.8192692118
 20
91.7664701744
 30
0.0
 10
251.9494917426
 20
91.82964344
 30
0.0
 10
252.0520858224
 20
91.8826221251
 30
0.0
 10
252.133858558
 20
91.926666566
 30
0.0
 10
252.1698948293
 20
91.9543666834
 30
0.0
 10
252.2003071531
 20
91.973673438
 30
0.0
 10
252.1974700102
 20
91.9800494139
 30
0.0
  0
SPLINE
  5
63B
100
AcDbEntity
  8
0
100
AcDbSpline
 62
7
  6
CONTINUOUS
 70
0
 71
3
 72
14
 73
10
 74
0
 42
0.0000001
 43
0.0000001
 44
0.0000000001
 40
0.0
 40
0.0
 40
0.0
 40
0.0
 40
0.3835677538
 40
0.5564024607
 40
0.7068413431
 40
0.8300150787
 40
0.9214506113
 40
0.9783957925
 40
1.0
 40
1.0
 40
1.0
 40
1.0
 10
232.8229405755
 20
244.024606931
 30
0.0
 10
232.9446553225
 20
244.00277749
 30
0.0
 10
233.1210424082
 20
243.9693038405
 30
0.0
 10
233.3439715198
 20
243.9237764038
 30
0.0
 10
233.4855080739
 20
243.8934581687
 30
0.0
 10
233.5977666995
 20
243.866470567
 30
0.0
 10
233.6877407573
 20
243.8433541022
 30
0.0
 10
233.729339822
 20
243.8252341152
 30
0.0
 10
233.7635652634
 20
243.8139072786
 30
0.0
 10
233.7623392144
 20
243.8070511504
 30
0.0
  0
SPLINE
  5
63C
100
AcDbEntity
  8
0
100
AcDbSpline
 62
7
  6
CONTINUOUS
 70
0
 71
3
 72
8
 73
4
 74
0
 42
0.0000001
 43
0.0000001
 44
0.0000000001
 40
0.0
 40
0.0
 40
0.0
 40
0.0
 40
1.0
 40
1.0
 40
1.0
 40
1.0
 10
232.8232865063
 20
244.0245178544
 30
0.0
 10
232.8113172194
 20
244.0266658552
 30
0.0
 10
232.7979428872
 20
244.03054911
 30
0.0
 10
232.7902301086
 20
244.0399507471
 30
0.0
  0
SPLINE
  5
63D
100
AcDbEntity
  8
0
100
AcDbSpline
 62
7
  6
CONTINUOUS
 70
0
 71
3
 72
8
 73
4
 74
0
 42
0.0000001
 43
0.0000001
 44
0.0000000001
 40
0.0
 40
0.0
 40
0.0
 40
0.0
 40
1.0
 40
1.0
 40
1.0
 40
1.0
 10
260.0519925322
 20
219.9006532427
 30
0.0
 10
260.05530664
 20
219.889926774
 30
0.0
 10
260.06048451
 20
219.8779471179
 30
0.0
 10
260.0701974956
 20
219.8723169889
 30
0.0
  0
SPLINE
  5
63E
100
AcDbEntity
  8
0
100
AcDbSpline
 62
7
  6
CONTINUOUS
 70
0
 71
3
 72
14
 73
10
 74
0
 42
0.0000001
 43
0.0000001
 44
0.0000000001
 40
0.0
 40
0.0
 40
0.0
 40
0.0
 40
0.3835494925
 40
0.5563741875
 40
0.7068025934
 40
0.8299670487
 40
0.9214023844
 40
0.9783654301
 40
1.0
 40
1.0
 40
1.0
 40
1.0
 10
100.606471845
 20
211.4361338551
 30
0.0
 10
100.5088489456
 20
211.3602366506
 30
0.0
 10
100.3682127581
 20
211.2486441336
 30
0.0
 10
100.1919048339
 20
211.1048244479
 30
0.0
 10
100.0806083946
 20
211.0122896922
 30
0.0
 10
99.9936967984
 20
210.9362756474
 30
0.0
 10
99.9248232564
 20
210.8739541989
 30
0.0
 10
99.8964489138
 20
210.8384737669
 30
0.0
 10
99.8715044192
 20
210.812473965
 30
0.0
 10
99.8757826565
 20
210.8069652246
 30
0.0
  0
SPLINE
  5
63F
100
AcDbEntity
  8
0
100
AcDbSpline
 62
7
  6
CONTINUOUS
 70
0
 71
3
 72
8
 73
4
 74
0
 42
0.0000001
 43
0.0000001
 44
0.0000000001
 40
0.0
 40
0.0
 40
0.0
 40
0.0
 40
1.0
 40
1.0
 40
1.0
 40
1.0
 10
100.6062103506
 20
211.4358965859
 30
0.0
 10
100.6158230966
 20
211.4433676553
 30
0.0
 10
100.6258188336
 20
211.4530517613
 30
0.0
 10
100.6283227286
 20
211.4649661339
 30
0.0
  0
SPLINE
  5
640
100
AcDbEntity
  8
0
100
AcDbSpline
 62
7
  6
CONTINUOUS
 70
0
 71
3
 72
8
 73
4
 74
0
 42
0.0000001
 43
0.0000001
 44
0.0000000001
 40
0.0
 40
0.0
 40
0.0
 40
0.0
 40
1.0
 40
1.0
 40
1.0
 40
1.0
 10
87.7071768876
 20
177.4225172408
 30
0.0
 10
87.7092909672
 20
177.4111364268
 30
0.0
 10
87.7104691654
 20
177.3977457883
 30
0.0
 10
87.7043757867
 20
177.3879038883
 30
0.0
  0
SPLINE
  5
641
100
AcDbEntity
  8
0
100
AcDbSpline
 62
7
  6
CONTINUOUS
 70
0
 71
3
 72
14
 73
10
 74
0
 42
0.0000001
 43
0.0000001
 44
0.0000000001
 40
0.0
 40
0.0
 40
0.0
 40
0.0
 40
0.3836889204
 40
0.5565868918
 40
0.7070962691
 40
0.8303356054
 40
0.9217763171
 40
0.9786052208
 40
1.0
 40
1.0
 40
1.0
 40
1.0
 10
260.0512552233
 20
219.9026022116
 30
0.0
 10
260.0147288652
 20
220.0207523076
 30
0.0
 10
259.9602429625
 20
220.1918438606
 30
0.0
 10
259.8875793342
 20
220.4074838809
 30
0.0
 10
259.8396766196
 20
220.5441317999
 30
0.0
 10
259.7987971064
 20
220.6520650409
 30
0.0
 10
259.7653361334
 20
220.7388250835
 30
0.0
 10
259.74310123
 20
220.7779192466
 30
0.0
 10
259.7284033705
 20
220.8110085035
 30
0.0
 10
259.7218112294
 20
220.8089847635
 30
0.0
  0
SPLINE
  5
642
100
AcDbEntity
  8
0
100
AcDbSpline
 62
7
  6
CONTINUOUS
 70
0
 71
3
 72
14
 73
10
 74
0
 42
0.0000001
 43
0.0000001
 44
0.0000000001
 40
0.0
 40
0.0
 40
0.0
 40
0.0
 40
0.383687531
 40
0.5565848957
 40
0.7070934819
 40
0.8303320013
 40
0.9217726044
 40
0.9786028213
 40
1.0
 40
1.0
 40
1.0
 40
1.0
 10
87.7070481986
 20
177.4235716602
 30
0.0
 10
87.684472507
 20
177.5451608275
 30
0.0
 10
87.6532111005
 20
177.7219763436
 30
0.0
 10
87.6173385941
 20
177.9466842832
 30
0.0
 10
87.5962424009
 20
178.0899396281
 30
0.0
 10
87.5822717623
 20
178.2045068089
 30
0.0
 10
87.5715843508
 20
178.2968783924
 30
0.0
 10
87.5731124424
 20
178.3418320033
 30
0.0
 10
87.5707590481
 20
178.3779602703
 30
0.0
 10
87.5775373562
 20
178.3792319997
 30
0.0
  0
SPLINE
  5
643
100
AcDbEntity
  8
0
100
AcDbSpline
 62
7
  6
CONTINUOUS
 70
0
 71
3
 72
14
 73
10
 74
0
 42
0.0000001
 43
0.0000001
 44
0.0000000001
 40
0.0
 40
0.0
 40
0.0
 40
0.0
 40
0.3836095114
 40
0.5564665172
 40
0.7069293983
 40
0.8301250863
 40
0.9215620066
 40
0.978466752
 40
1.0
 40
1.0
 40
1.0
 40
1.0
 10
243.6371899695
 20
84.7220840361
 30
0.0
 10
243.5736008212
 20
84.6160261264
 30
0.0
 10
243.479735487
 20
84.4629731624
 30
0.0
 10
243.3579047012
 20
84.2707992651
 30
0.0
 10
243.2791416475
 20
84.1493360147
 30
0.0
 10
243.2139486217
 20
84.0540633814
 30
0.0
 10
243.1605251077
 20
83.9780299085
 30
0.0
 10
243.1290834609
 20
83.9455014177
 30
0.0
 10
243.1065349117
 20
83.9173081517
 30
0.0
 10
243.1005791909
 20
83.9208737019
 30
0.0
  0
SPLINE
  5
644
100
AcDbEntity
  8
0
100
AcDbSpline
 62
7
  6
CONTINUOUS
 70
0
 71
3
 72
8
 73
4
 74
0
 42
0.0000001
 43
0.0000001
 44
0.0000000001
 40
0.0
 40
0.0
 40
0.0
 40
0.0
 40
1.0
 40
1.0
 40
1.0
 40
1.0
 10
243.6335391911
 20
84.7169165807
 30
0.0
 10
243.6410385921
 20
84.729411627
 30
0.0
 10
243.6507314178
 20
84.7409118228
 30
0.0
 10
243.6621329427
 20
84.7499877484
 30
0.0
  0
SPLINE
  5
645
100
AcDbEntity
  8
0
100
AcDbSpline
 62
7
  6
CONTINUOUS
 70
0
 71
3
 72
8
 73
4
 74
0
 42
0.0000001
 43
0.0000001
 44
0.0000000001
 40
0.0
 40
0.0
 40
0.0
 40
0.0
 40
1.0
 40
1.0
 40
1.0
 40
1.0
 10
211.4282657785
 20
67.8172247525
 30
0.0
 10
211.4159762501
 20
67.8180164686
 30
0.0
 10
211.4019239146
 20
67.8174310024
 30
0.0
 10
211.3920090631
 20
67.8101265488
 30
0.0
  0
SPLINE
  5
646
100
AcDbEntity
  8
0
100
AcDbSpline
 62
7
  6
CONTINUOUS
 70
0
 71
3
 72
14
 73
10
 74
0
 42
0.0000001
 43
0.0000001
 44
0.0000000001
 40
0.0
 40
0.0
 40
0.0
 40
0.0
 40
0.3835455887
 40
0.5563683027
 40
0.7067945385
 40
0.8299569281
 40
0.9213920705
 40
0.9783588959
 40
1.0
 40
1.0
 40
1.0
 40
1.0
 10
211.427511016
 20
67.8172124867
 30
0.0
 10
211.5509111207
 20
67.809278249
 30
0.0
 10
211.7301777737
 20
67.7995483719
 30
0.0
 10
211.9575148931
 20
67.790268172
 30
0.0
 10
212.1021810571
 20
67.7857053731
 30
0.0
 10
212.2176431244
 20
67.7849512339
 30
0.0
 10
212.3105197767
 20
67.7859396691
 30
0.0
 10
212.3552947331
 20
67.7937033625
 30
0.0
 10
212.391200624
 20
67.7966472242
 30
0.0
 10
212.3916514227
 20
67.8036097272
 30
0.0
  0
SPLINE
  5
647
100
AcDbEntity
  8
0
100
AcDbSpline
 62
7
  6
CONTINUOUS
 70
0
 71
3
 72
14
 73
10
 74
0
 42
0.0000001
 43
0.0000001
 44
0.0000000001
 40
0.0
 40
0.0
 40
0.0
 40
0.0
 40
0.3835678675
 40
0.556402651
 40
0.7068416023
 40
0.8300153879
 40
0.9214509131
 40
0.978395984
 40
1.0
 40
1.0
 40
1.0
 40
1.0
 10
265.8949865905
 20
211.4361730423
 30
0.0
 10
265.9926157412
 20
211.3602813118
 30
0.0
 10
266.1332424673
 20
211.2486702491
 30
0.0
 10
266.3094777523
 20
211.1047561483
 30
0.0
 10
266.4207121548
 20
211.012134808
 30
0.0
 10
266.5075702446
 20
210.9360691094
 30
0.0
 10
266.5764959707
 20
210.8737878121
 30
0.0
 10
266.6049095622
 20
210.8384119569
 30
0.0
 10
266.6299514557
 20
210.8124775953
 30
0.0
 10
266.625679681
 20
210.8069766183
 30
0.0
  0
SPLINE
  5
648
100
AcDbEntity
  8
0
100
AcDbSpline
 62
7
  6
CONTINUOUS
 70
0
 71
3
 72
14
 73
10
 74
0
 42
0.0000001
 43
0.0000001
 44
0.0000000001
 40
0.0
 40
0.0
 40
0.0
 40
0.0
 40
0.3835511485
 40
0.5563767122
 40
0.7068060493
 40
0.8299713686
 40
0.9214067667
 40
0.9783682034
 40
1.0
 40
1.0
 40
1.0
 40
1.0
 10
86.4672453913
 20
167.2111720379
 30
0.0
 10
86.4160769771
 20
167.0986000951
 30
0.0
 10
86.3434097511
 20
166.9344324627
 30
0.0
 10
86.2541412713
 20
166.7251483206
 30
0.0
 10
86.198605043
 20
166.5914864257
 30
0.0
 10
86.1569813258
 20
166.483787319
 30
0.0
 10
86.1249537298
 20
166.3965980827
 30
0.0
 10
86.1163106384
 20
166.3520022259
 30
0.0
 10
86.106295597
 20
166.317389342
 30
0.0
 10
86.1126429917
 20
166.3145001678
 30
0.0
  0
SPLINE
  5
649
100
AcDbEntity
  8
0
100
AcDbSpline
 62
7
  6
CONTINUOUS
 70
0
 71
3
 72
8
 73
4
 74
0
 42
0.0000001
 43
0.0000001
 44
0.0000000001
 40
0.0
 40
0.0
 40
0.0
 40
0.0
 40
1.0
 40
1.0
 40
1.0
 40
1.0
 10
86.4670959729
 20
167.2107618745
 30
0.0
 10
86.4721467127
 20
167.221869283
 30
0.0
 10
86.47652137
 20
167.2351146333
 30
0.0
 10
86.473198039
 20
167.24685516
 30
0.0
  0
SPLINE
  5
64A
100
AcDbEntity
  8
0
100
AcDbSpline
 62
7
  6
CONTINUOUS
 70
0
 71
3
 72
8
 73
4
 74
0
 42
0.0000001
 43
0.0000001
 44
0.0000000001
 40
0.0
 40
0.0
 40
0.0
 40
0.0
 40
1.0
 40
1.0
 40
1.0
 40
1.0
 10
265.8953673082
 20
211.4358273004
 30
0.0
 10
265.8857249521
 20
211.4433246006
 30
0.0
 10
265.8756307941
 20
211.4530038731
 30
0.0
 10
265.8731456716
 20
211.4649624979
 30
0.0
  0
SPLINE
  5
64B
100
AcDbEntity
  8
0
100
AcDbSpline
 62
7
  6
CONTINUOUS
 70
0
 71
3
 72
8
 73
4
 74
0
 42
0.0000001
 43
0.0000001
 44
0.0000000001
 40
0.0
 40
0.0
 40
0.0
 40
0.0
 40
1.0
 40
1.0
 40
1.0
 40
1.0
 10
90.851802261
 20
131.1002545523
 30
0.0
 10
90.8592956349
 20
131.090761282
 30
0.0
 10
90.8666847974
 20
131.0790349993
 30
0.0
 10
90.8661997877
 20
131.0669503977
 30
0.0
  0
SPLINE
  5
64C
100
AcDbEntity
  8
0
100
AcDbSpline
 62
7
  6
CONTINUOUS
 70
0
 71
3
 72
14
 73
10
 74
0
 42
0.0000001
 43
0.0000001
 44
0.0000000001
 40
0.0
 40
0.0
 40
0.0
 40
0.0
 40
0.3835717795
 40
0.5564085485
 40
0.7068496984
 40
0.8300255794
 40
0.9214613045
 40
0.9784025872
 40
1.0
 40
1.0
 40
1.0
 40
1.0
 10
90.851900264
 20
131.1001115065
 30
0.0
 10
90.7752768784
 20
131.1971679001
 30
0.0
 10
90.6654453991
 20
131.3391896546
 30
0.0
 10
90.5287853536
 20
131.5211085605
 30
0.0
 10
90.442967012
 20
131.6376739505
 30
0.0
 10
90.3768529946
 20
131.732325721
 30
0.0
 10
90.3248237024
 20
131.8092878358
 30
0.0
 10
90.3056883794
 20
131.8504156659
 30
0.0
 10
90.2875568289
 20
131.8815807831
 30
0.0
 10
90.2930192336
 20
131.8858982547
 30
0.0
  0
SPLINE
  5
64D
100
AcDbEntity
  8
0
100
AcDbSpline
 62
7
  6
CONTINUOUS
 70
0
 71
3
 72
8
 73
4
 74
0
 42
0.0000001
 43
0.0000001
 44
0.0000000001
 40
0.0
 40
0.0
 40
0.0
 40
0.0
 40
1.0
 40
1.0
 40
1.0
 40
1.0
 10
278.7943125024
 20
177.4253406817
 30
0.0
 10
278.7919917434
 20
177.4129556771
 30
0.0
 10
278.7907779045
 20
177.3986455729
 30
0.0
 10
278.7968906257
 20
177.3876270022
 30
0.0
  0
SPLINE
  5
64E
100
AcDbEntity
  8
0
100
AcDbSpline
 62
7
  6
CONTINUOUS
 70
0
 71
3
 72
14
 73
10
 74
0
 42
0.0000001
 43
0.0000001
 44
0.0000000001
 40
0.0
 40
0.0
 40
0.0
 40
0.0
 40
0.3835377509
 40
0.5563564935
 40
0.7067783777
 40
0.829936613
 40
0.9213713607
 40
0.9783458037
 40
1.0
 40
1.0
 40
1.0
 40
1.0
 10
278.7941530155
 20
177.4237774046
 30
0.0
 10
278.8169202462
 20
177.5453176565
 30
0.0
 10
278.8481852679
 20
177.7221035558
 30
0.0
 10
278.8848336307
 20
177.9466577411
 30
0.0
 10
278.9068458695
 20
178.0897089764
 30
0.0
 10
278.9215490524
 20
178.2042361105
 30
0.0
 10
278.93173896
 20
178.2965522361
 30
0.0
 10
278.9293872268
 20
178.3419588311
 30
0.0
 10
278.9307436789
 20
178.3779508633
 30
0.0
 10
278.9238820229
 20
178.3792383993
 30
0.0
  0
SPLINE
  5
64F
100
AcDbEntity
  8
0
100
AcDbSpline
 62
7
  6
CONTINUOUS
 70
0
 71
3
 72
14
 73
10
 74
0
 42
0.0000001
 43
0.0000001
 44
0.0000000001
 40
0.0
 40
0.0
 40
0.0
 40
0.0
 40
0.3835633609
 40
0.5563958397
 40
0.706832262
 40
0.8300036545
 40
0.9214389632
 40
0.9783883885
 40
1.0
 40
1.0
 40
1.0
 40
1.0
 10
201.4388719251
 20
65.3552077488
 30
0.0
 10
201.3332969144
 20
65.2908273799
 30
0.0
 10
201.179072041
 20
65.1989180479
 30
0.0
 10
200.9820271276
 20
65.0851503244
 30
0.0
 10
200.855995285
 20
65.0139657776
 30
0.0
 10
200.7540811077
 20
64.9597056088
 30
0.0
 10
200.6714021068
 20
64.9173579032
 30
0.0
 10
200.6282287374
 20
64.903353075
 30
0.0
 10
200.5950932594
 20
64.8891633017
 30
0.0
 10
200.5914632401
 20
64.8951102954
 30
0.0
  0
SPLINE
  5
650
100
AcDbEntity
  8
0
100
AcDbSpline
 62
7
  6
CONTINUOUS
 70
0
 71
3
 72
8
 73
4
 74
0
 42
0.0000001
 43
0.0000001
 44
0.0000000001
 40
0.0
 40
0.0
 40
0.0
 40
0.0
 40
1.0
 40
1.0
 40
1.0
 40
1.0
 10
201.4381962451
 20
65.3548652951
 30
0.0
 10
201.4486993027
 20
65.3612680523
 30
0.0
 10
201.461400318
 20
65.3673296215
 30
0.0
 10
201.473553711
 20
65.3654310545
 30
0.0
  0
SPLINE
  5
651
100
AcDbEntity
  8
0
100
AcDbSpline
 62
7
  6
CONTINUOUS
 70
0
 71
3
 72
14
 73
10
 74
0
 42
0.0000001
 43
0.0000001
 44
0.0000000001
 40
0.0
 40
0.0
 40
0.0
 40
0.0
 40
0.3835531481
 40
0.55637973
 40
0.7068101881
 40
0.8299765763
 40
0.9214120725
 40
0.9783715539
 40
1.0
 40
1.0
 40
1.0
 40
1.0
 10
94.4999437787
 20
121.4810860379
 30
0.0
 10
94.5069555837
 20
121.3576294634
 30
0.0
 10
94.518904079
 20
121.1784957423
 30
0.0
 10
94.5371289297
 20
120.9516990684
 30
0.0
 10
94.5500818869
 20
120.8075386139
 30
0.0
 10
94.5632857018
 20
120.6928340276
 30
0.0
 10
94.575439732
 20
120.6007457304
 30
0.0
 10
94.5884994949
 20
120.5572443898
 30
0.0
 10
94.5957051856
 20
120.5219372456
 30
0.0
 10
94.6026670858
 20
120.5223287246
 30
0.0
  0
SPLINE
  5
652
100
AcDbEntity
  8
0
100
AcDbSpline
 62
7
  6
CONTINUOUS
 70
0
 71
3
 72
8
 73
4
 74
0
 42
0.0000001
 43
0.0000001
 44
0.0000000001
 40
0.0
 40
0.0
 40
0.0
 40
0.0
 40
1.0
 40
1.0
 40
1.0
 40
1.0
 10
94.4999763578
 20
121.4808358499
 30
0.0
 10
94.4992901259
 20
121.4929533956
 30
0.0
 10
94.4970024003
 20
121.5066456948
 30
0.0
 10
94.4886318806
 20
121.5154343369
 30
0.0
  0
SPLINE
  5
653
100
AcDbEntity
  8
0
100
AcDbSpline
 62
7
  6
CONTINUOUS
 70
0
 71
3
 72
8
 73
4
 74
0
 42
0.0000001
 43
0.0000001
 44
0.0000000001
 40
0.0
 40
0.0
 40
0.0
 40
0.0
 40
1.0
 40
1.0
 40
1.0
 40
1.0
 10
115.1636991465
 20
91.5441568496
 30
0.0
 10
115.1748065773
 20
91.539206828
 30
0.0
 10
115.1868629521
 20
91.5322357263
 30
0.0
 10
115.1921016523
 20
91.5212614949
 30
0.0
  0
SPLINE
  5
654
100
AcDbEntity
  8
0
100
AcDbSpline
 62
7
  6
CONTINUOUS
 70
0
 71
3
 72
14
 73
10
 74
0
 42
0.0000001
 43
0.0000001
 44
0.0000000001
 40
0.0
 40
0.0
 40
0.0
 40
0.0
 40
0.3835677538
 40
0.5564024607
 40
0.7068413431
 40
0.8300150787
 40
0.9214506113
 40
0.9783957925
 40
1.0
 40
1.0
 40
1.0
 40
1.0
 10
115.1640137077
 20
91.5439875747
 30
0.0
 10
115.0510598972
 20
91.5943109374
 30
0.0
 10
114.8878090683
 20
91.669024096
 30
0.0
 10
114.6822533003
 20
91.7665790166
 30
0.0
 10
114.5520851697
 20
91.8298881734
 30
0.0
 10
114.4495471316
 20
91.882956812
 30
0.0
 10
114.3677196886
 20
91.9269337558
 30
0.0
 10
114.3316658138
 20
91.9544825166
 30
0.0
 10
114.301145591
 20
91.9736709002
 30
0.0
 10
114.3039767921
 20
91.9800343891
 30
0.0
  0
SPLINE
  5
655
100
AcDbEntity
  8
0
100
AcDbSpline
 62
7
  6
CONTINUOUS
 70
0
 71
3
 72
8
 73
4
 74
0
 42
0.0000001
 43
0.0000001
 44
0.0000000001
 40
0.0
 40
0.0
 40
0.0
 40
0.0
 40
1.0
 40
1.0
 40
1.0
 40
1.0
 10
165.0684245585
 20
65.3521528987
 30
0.0
 10
165.0558870049
 20
65.3597879046
 30
0.0
 10
165.0418628163
 20
65.3655200692
 30
0.0
 10
165.0274448368
 20
65.3682778639
 30
0.0
  0
SPLINE
  5
656
100
AcDbEntity
  8
0
100
AcDbSpline
 62
7
  6
CONTINUOUS
 70
0
 71
3
 72
14
 73
10
 74
0
 42
0.0000001
 43
0.0000001
 44
0.0000000001
 40
0.0
 40
0.0
 40
0.0
 40
0.0
 40
0.3836032995
 40
0.5564566746
 40
0.7069158411
 40
0.8301084616
 40
0.921545545
 40
0.9784563782
 40
1.0
 40
1.0
 40
1.0
 40
1.0
 10
165.0625109024
 20
65.355168148
 30
0.0
 10
165.168109655
 20
65.2908205199
 30
0.0
 10
165.3223423525
 20
65.1989098965
 30
0.0
 10
165.5195001867
 20
65.0853241325
 30
0.0
 10
165.6456684785
 20
65.0143473339
 30
0.0
 10
165.747661092
 20
64.960263954
 30
0.0
 10
165.8303076083
 20
64.917791062
 30
0.0
 10
165.8732935172
 20
64.9036257038
 30
0.0
 10
165.9063710151
 20
64.8891804861
 30
0.0
 10
165.9099891161
 20
64.8951084403
 30
0.0
  0
SPLINE
  5
657
100
AcDbEntity
  8
0
100
AcDbSpline
 62
7
  6
CONTINUOUS
 70
0
 71
3
 72
14
 73
10
 74
0
 42
0.0000001
 43
0.0000001
 44
0.0000000001
 40
0.0
 40
0.0
 40
0.0
 40
0.0
 40
0.3836884436
 40
0.5565863132
 40
0.7070954585
 40
0.8303344749
 40
0.9217750934
 40
0.9786044209
 40
1.0
 40
1.0
 40
1.0
 40
1.0
 10
280.0343873535
 20
167.211411001
 30
0.0
 10
280.0854052678
 20
167.0987576348
 30
0.0
 10
280.1580726301
 20
166.934561002
 30
0.0
 10
280.2466732662
 20
166.7249649332
 30
0.0
 10
280.3014340564
 20
166.5909182092
 30
0.0
 10
280.3424119887
 20
166.4830221821
 30
0.0
 10
280.3748981544
 20
166.3958928672
 30
0.0
 10
280.3841771999
 20
166.3518840019
 30
0.0
 10
280.3951147034
 20
166.3173694776
 30
0.0
 10
280.3888381834
 20
166.3145127692
 30
0.0
  0
SPLINE
  5
658
100
AcDbEntity
  8
0
100
AcDbSpline
 62
7
  6
CONTINUOUS
 70
0
 71
3
 72
8
 73
4
 74
0
 42
0.0000001
 43
0.0000001
 44
0.0000000001
 40
0.0
 40
0.0
 40
0.0
 40
0.0
 40
1.0
 40
1.0
 40
1.0
 40
1.0
 10
280.0340285318
 20
167.2123549899
 30
0.0
 10
280.0292453377
 20
167.2229147853
 30
0.0
 10
280.024880369
 20
167.235650208
 30
0.0
 10
280.028444008
 20
167.2466814682
 30
0.0
  0
SPLINE
  5
659
100
AcDbEntity
  8
0
100
AcDbSpline
 62
7
  6
CONTINUOUS
 70
0
 71
3
 72
14
 73
10
 74
0
 42
0.0000001
 43
0.0000001
 44
0.0000000001
 40
0.0
 40
0.0
 40
0.0
 40
0.0
 40
0.3835751369
 40
0.5564138648
 40
0.7068569579
 40
0.8300345865
 40
0.9214705047
 40
0.9784085504
 40
1.0
 40
1.0
 40
1.0
 40
1.0
 10
122.8643387203
 20
84.7220863698
 30
0.0
 10
122.9278997502
 20
84.6160150863
 30
0.0
 10
123.0217501554
 20
84.4629609974
 30
0.0
 10
123.1434168595
 20
84.2706908192
 30
0.0
 10
123.2219981065
 20
84.1491274311
 30
0.0
 10
123.2870683299
 20
84.0537567786
 30
0.0
 10
123.3405720239
 20
83.9778091017
 30
0.0
 10
123.3722208204
 20
83.9453288229
 30
0.0
 10
123.3949170077
 20
83.9173068774
 30
0.0
 10
123.4008890687
 20
83.9208825466
 30
0.0
  0
SPLINE
  5
65A
100
AcDbEntity
  8
0
100
AcDbSpline
 62
7
  6
CONTINUOUS
 70
0
 71
3
 72
8
 73
4
 74
0
 42
0.0000001
 43
0.0000001
 44
0.0000000001
 40
0.0
 40
0.0
 40
0.0
 40
0.0
 40
1.0
 40
1.0
 40
1.0
 40
1.0
 10
275.6497324724
 20
131.100449282
 30
0.0
 10
275.6421869993
 20
131.0908948275
 30
0.0
 10
275.6347992785
 20
131.0790999877
 30
0.0
 10
275.6352194381
 20
131.0669326038
 30
0.0
  0
SPLINE
  5
65B
100
AcDbEntity
  8
0
100
AcDbSpline
 62
7
  6
CONTINUOUS
 70
0
 71
3
 72
8
 73
4
 74
0
 42
0.0000001
 43
0.0000001
 44
0.0000000001
 40
0.0
 40
0.0
 40
0.0
 40
0.0
 40
1.0
 40
1.0
 40
1.0
 40
1.0
 10
122.8686287596
 20
84.7160767519
 30
0.0
 10
122.8609449027
 20
84.7288897322
 30
0.0
 10
122.8510096183
 20
84.740682927
 30
0.0
 10
122.8393205456
 20
84.7499877484
 30
0.0
  0
SPLINE
  5
65C
100
AcDbEntity
  8
0
100
AcDbSpline
 62
7
  6
CONTINUOUS
 70
0
 71
3
 72
8
 73
4
 74
0
 42
0.0000001
 43
0.0000001
 44
0.0000000001
 40
0.0
 40
0.0
 40
0.0
 40
0.0
 40
1.0
 40
1.0
 40
1.0
 40
1.0
 10
155.0736118732
 20
67.8171767067
 30
0.0
 10
155.0857473798
 20
67.8179555591
 30
0.0
 10
155.0996623764
 20
67.8173858264
 30
0.0
 10
155.1094009696
 20
67.8101031802
 30
0.0
  0
SPLINE
  5
65D
100
AcDbEntity
  8
0
100
AcDbSpline
 62
7
  6
CONTINUOUS
 70
0
 71
3
 72
14
 73
10
 74
0
 42
0.0000001
 43
0.0000001
 44
0.0000000001
 40
0.0
 40
0.0
 40
0.0
 40
0.0
 40
0.3835677545
 40
0.5564024617
 40
0.7068413445
 40
0.8300150804
 40
0.921450613
 40
0.9783957936
 40
1.0
 40
1.0
 40
1.0
 40
1.0
 10
155.0739689991
 20
67.8171730063
 30
0.0
 10
154.950566934
 20
67.8092398798
 30
0.0
 10
154.7712945678
 20
67.799528653
 30
0.0
 10
154.543947942
 20
67.7903827194
 30
0.0
 10
154.3992685539
 20
67.7859480513
 30
0.0
 10
154.2838134043
 20
67.7852861982
 30
0.0
 10
154.1909216965
 20
67.7861987372
 30
0.0
 10
154.1461950298
 20
67.7938368787
 30
0.0
 10
154.1102534271
 20
67.7966438897
 30
0.0
 10
154.1098030704
 20
67.8035942037
 30
0.0
  0
SPLINE
  5
65E
100
AcDbEntity
  8
0
100
AcDbSpline
 62
7
  6
CONTINUOUS
 70
0
 71
3
 72
14
 73
10
 74
0
 42
0.0000001
 43
0.0000001
 44
0.0000000001
 40
0.0
 40
0.0
 40
0.0
 40
0.0
 40
0.3835494925
 40
0.5563741875
 40
0.7068025934
 40
0.8299670487
 40
0.9214023844
 40
0.9783654301
 40
1.0
 40
1.0
 40
1.0
 40
1.0
 10
275.6495353588
 20
131.1001563277
 30
0.0
 10
275.7261581243
 20
131.1972107864
 30
0.0
 10
275.8360018424
 20
131.3392170703
 30
0.0
 10
275.9727682752
 20
131.5210508653
 30
0.0
 10
276.0586856257
 20
131.6375317105
 30
0.0
 10
276.1248803773
 20
131.7321362317
 30
0.0
 10
276.1768380804
 20
131.8091292496
 30
0.0
 10
276.1958968931
 20
131.8503691094
 30
0.0
 10
276.2138943861
 20
131.8815830126
 30
0.0
 10
276.2084221387
 20
131.8859078298
 30
0.0
  0
SPLINE
  5
65F
100
AcDbEntity
  8
0
100
AcDbSpline
 62
7
  6
CONTINUOUS
 70
0
 71
3
 72
8
 73
4
 74
0
 42
0.0000001
 43
0.0000001
 44
0.0000000001
 40
0.0
 40
0.0
 40
0.0
 40
0.0
 40
1.0
 40
1.0
 40
1.0
 40
1.0
 10
256.4492967016
 20
328.6913761457
 30
0.0
 10
256.5642799117
 20
328.8555700311
 30
0.0
 10
256.6298686471
 20
329.0644922974
 30
0.0
 10
256.6299821088
 20
329.2649436823
 30
0.0
  0
SPLINE
  5
660
100
AcDbEntity
  8
0
100
AcDbSpline
 62
7
  6
CONTINUOUS
 70
0
 71
3
 72
8
 73
4
 74
0
 42
0.0000001
 43
0.0000001
 44
0.0000000001
 40
0.0
 40
0.0
 40
0.0
 40
0.0
 40
1.0
 40
1.0
 40
1.0
 40
1.0
 10
256.1273798296
 20
328.3979785519
 30
0.0
 10
256.1880919298
 20
328.4327664646
 30
0.0
 10
256.2457900453
 20
328.4737229933
 30
0.0
 10
256.2978429622
 20
328.5204846425
 30
0.0
  0
SPLINE
  5
661
100
AcDbEntity
  8
0
100
AcDbSpline
 62
7
  6
CONTINUOUS
 70
0
 71
3
 72
9
 73
5
 74
0
 42
0.0000001
 43
0.0000001
 44
0.0000000001
 40
0.0
 40
0.0
 40
0.0
 40
0.0
 40
0.2455883648
 40
1.0
 40
1.0
 40
1.0
 40
1.0
 10
256.2849360714
 20
337.1200649584
 30
0.0
 10
256.2580094228
 20
337.1435201298
 30
0.0
 10
256.1432526882
 20
337.2330214223
 30
0.0
 10
256.0083031043
 20
337.2963645964
 30
0.0
 10
255.9027418118
 20
337.3261952598
 30
0.0
  0
SPLINE
  5
662
100
AcDbEntity
  8
0
100
AcDbSpline
 62
7
  6
CONTINUOUS
 70
0
 71
3
 72
8
 73
4
 74
0
 42
0.0000001
 43
0.0000001
 44
0.0000000001
 40
0.0
 40
0.0
 40
0.0
 40
0.0
 40
1.0
 40
1.0
 40
1.0
 40
1.0
 10
256.6127456541
 20
336.5495175805
 30
0.0
 10
256.5787919688
 20
336.7296574936
 30
0.0
 10
256.4904074216
 20
336.9062099166
 30
0.0
 10
256.3663517493
 20
337.0411670624
 30
0.0
  0
SPLINE
  5
663
100
AcDbEntity
  8
0
100
AcDbSpline
 62
7
  6
CONTINUOUS
 70
0
 71
3
 72
8
 73
4
 74
0
 42
0.0000001
 43
0.0000001
 44
0.0000000001
 40
0.0
 40
0.0
 40
0.0
 40
0.0
 40
1.0
 40
1.0
 40
1.0
 40
1.0
 10
110.2035907734
 20
328.5205023879
 30
0.0
 10
110.276308689
 20
328.4551725754
 30
0.0
 10
110.3600712416
 20
328.4008600506
 30
0.0
 10
110.4484932434
 20
328.3591775693
 30
0.0
  0
SPLINE
  5
664
100
AcDbEntity
  8
0
100
AcDbSpline
 62
7
  6
CONTINUOUS
 70
0
 71
3
 72
8
 73
4
 74
0
 42
0.0000001
 43
0.0000001
 44
0.0000000001
 40
0.0
 40
0.0
 40
0.0
 40
0.0
 40
1.0
 40
1.0
 40
1.0
 40
1.0
 10
110.0521567868
 20
328.6913761457
 30
0.0
 10
109.9371735767
 20
328.8555700311
 30
0.0
 10
109.8715848413
 20
329.0644922974
 30
0.0
 10
109.8714713796
 20
329.2649436823
 30
0.0
  0
SPLINE
  5
665
100
AcDbEntity
  8
0
100
AcDbSpline
 62
7
  6
CONTINUOUS
 70
0
 71
3
 72
8
 73
4
 74
0
 42
0.0000001
 43
0.0000001
 44
0.0000000001
 40
0.0
 40
0.0
 40
0.0
 40
0.0
 40
1.0
 40
1.0
 40
1.0
 40
1.0
 10
109.8887078342
 20
336.5495175805
 30
0.0
 10
109.9226615196
 20
336.7296574936
 30
0.0
 10
110.0110460667
 20
336.9062099166
 30
0.0
 10
110.1351017391
 20
337.0411670624
 30
0.0
  0
SPLINE
  5
666
100
AcDbEntity
  8
0
100
AcDbSpline
 62
7
  6
CONTINUOUS
 70
0
 71
3
 72
9
 73
5
 74
0
 42
0.0000001
 43
0.0000001
 44
0.0000000001
 40
0.0
 40
0.0
 40
0.0
 40
0.0
 40
0.7036840221
 40
1.0
 40
1.0
 40
1.0
 40
1.0
 10
90.851155165
 20
327.3153732717
 30
0.0
 10
90.8547008342
 20
327.3151622695
 30
0.0
 10
90.8568770863
 20
327.3159756965
 30
0.0
 10
90.8671976408
 20
327.3137793439
 30
0.0
 10
90.8662811996
 20
327.3149613934
 30
0.0
  0
SPLINE
  5
667
100
AcDbEntity
  8
0
100
AcDbSpline
 62
7
  6
CONTINUOUS
 70
0
 71
3
 72
9
 73
5
 74
0
 42
0.0000001
 43
0.0000001
 44
0.0000000001
 40
0.0
 40
0.0
 40
0.0
 40
0.0
 40
0.8150373235
 40
1.0
 40
1.0
 40
1.0
 40
1.0
 10
115.1636732049
 20
327.3153462792
 30
0.0
 10
115.1713968341
 20
327.3150345041
 30
0.0
 10
115.1808753143
 20
327.3146061315
 30
0.0
 10
115.1903661281
 20
327.3148220966
 30
0.0
 10
115.1921144123
 20
327.3149661616
 30
0.0
  0
SPLINE
  5
668
100
AcDbEntity
  8
0
100
AcDbSpline
 62
7
  6
CONTINUOUS
 70
0
 71
3
 72
9
 73
5
 74
0
 42
0.0000001
 43
0.0000001
 44
0.0000000001
 40
0.0
 40
0.0
 40
0.0
 40
0.0
 40
0.8150930835
 40
1.0
 40
1.0
 40
1.0
 40
1.0
 10
251.3377737392
 20
327.3153464028
 30
0.0
 10
251.3300522315
 20
327.3150347295
 30
0.0
 10
251.3205770407
 20
327.3146060531
 30
0.0
 10
251.3110894426
 20
327.3148221035
 30
0.0
 10
251.3093423121
 20
327.3149664014
 30
0.0
  0
SPLINE
  5
669
100
AcDbEntity
  8
0
100
AcDbSpline
 62
7
  6
CONTINUOUS
 70
0
 71
3
 72
9
 73
5
 74
0
 42
0.0000001
 43
0.0000001
 44
0.0000000001
 40
0.0
 40
0.0
 40
0.0
 40
0.0
 40
0.7094544921
 40
1.0
 40
1.0
 40
1.0
 40
1.0
 10
275.649755482
 20
327.3153464028
 30
0.0
 10
275.6463229725
 20
327.3151421699
 30
0.0
 10
275.6444316052
 20
327.3157532987
 30
0.0
 10
275.6342243055
 20
327.3139826299
 30
0.0
 10
275.6352319073
 20
327.3149664014
 30
0.0
  0
LINE
  5
66A
100
AcDbEntity
  8
0
100
AcDbLine
 62
7
  6
CONTINUOUS
 10
85.9090406551
 20
327.3754926816
 11
86.4670915903
 21
327.3153474282
  0
SPLINE
  5
66B
100
AcDbEntity
  8
0
100
AcDbSpline
 62
7
  6
CONTINUOUS
 70
0
 71
3
 72
8
 73
4
 74
0
 42
0.0000001
 43
0.0000001
 44
0.0000000001
 40
0.0
 40
0.0
 40
0.0
 40
0.0
 40
1.0
 40
1.0
 40
1.0
 40
1.0
 10
77.61645742
 20
328.2704280181
 30
0.0
 10
79.406910802
 20
328.076545169
 30
0.0
 10
81.1974059028
 20
327.883047047
 30
0.0
 10
82.9879499656
 20
327.6900034468
 30
0.0
  0
LINE
  5
66C
100
AcDbEntity
  8
0
100
AcDbLine
 62
7
  6
CONTINUOUS
 10
82.9879499656
 20
327.6900034468
 11
83.1994771707
 21
327.6672002437
  0
LINE
  5
66D
100
AcDbEntity
  8
0
100
AcDbLine
 62
7
  6
CONTINUOUS
 10
83.1994771707
 20
327.6672002437
 11
85.9090406551
 21
327.3754926816
  0
SPLINE
  5
66E
100
AcDbEntity
  8
0
100
AcDbSpline
 62
7
  6
CONTINUOUS
 70
0
 71
3
 72
8
 73
4
 74
0
 42
0.0000001
 43
0.0000001
 44
0.0000000001
 40
0.0
 40
0.0
 40
0.0
 40
0.0
 40
1.0
 40
1.0
 40
1.0
 40
1.0
 10
77.6164956108
 20
337.3589367119
 30
0.0
 10
79.4069423376
 20
337.5528188388
 30
0.0
 10
81.1974308001
 20
337.7463160821
 30
0.0
 10
82.9879682052
 20
337.9393589825
 30
0.0
  0
LINE
  5
66F
100
AcDbEntity
  8
0
100
AcDbLine
 62
7
  6
CONTINUOUS
 10
82.9879682052
 20
337.9393589825
 11
83.1995666873
 21
337.9621698707
  0
LINE
  5
670
100
AcDbEntity
  8
0
100
AcDbLine
 62
7
  6
CONTINUOUS
 10
83.1995666873
 20
337.9621698707
 11
85.9090406551
 21
338.2538677835
  0
LINE
  5
671
100
AcDbEntity
  8
0
100
AcDbLine
 62
7
  6
CONTINUOUS
 10
85.9090406551
 20
338.2538677835
 11
86.4670959729
 21
338.3140138598
  0
SPLINE
  5
672
100
AcDbEntity
  8
0
100
AcDbSpline
 62
7
  6
CONTINUOUS
 70
0
 71
3
 72
9
 73
5
 74
0
 42
0.0000001
 43
0.0000001
 44
0.0000000001
 40
0.0
 40
0.0
 40
0.0
 40
0.0
 40
0.7111226445
 40
1.0
 40
1.0
 40
1.0
 40
1.0
 10
90.851802261
 20
338.3140183679
 30
0.0
 10
90.8552130324
 20
338.3142212722
 30
0.0
 10
90.8570330067
 20
338.3136713917
 30
0.0
 10
90.8672322103
 20
338.3153199552
 30
0.0
 10
90.8661997877
 20
338.3143922479
 30
0.0
  0
LINE
  5
673
100
AcDbEntity
  8
0
100
AcDbLine
 62
7
  6
CONTINUOUS
 10
280.0340285318
 20
338.3140369879
 11
280.5924128333
 21
338.2538677835
  0
LINE
  5
674
100
AcDbEntity
  8
0
100
AcDbLine
 62
7
  6
CONTINUOUS
 10
280.5924128333
 20
338.2538677835
 11
283.3018631834
 21
337.9621724165
  0
LINE
  5
675
100
AcDbEntity
  8
0
100
AcDbLine
 62
7
  6
CONTINUOUS
 10
283.3018631834
 20
337.9621724165
 11
283.5134852765
 21
337.9393589834
  0
SPLINE
  5
676
100
AcDbEntity
  8
0
100
AcDbSpline
 62
7
  6
CONTINUOUS
 70
0
 71
3
 72
8
 73
4
 74
0
 42
0.0000001
 43
0.0000001
 44
0.0000000001
 40
0.0
 40
0.0
 40
0.0
 40
0.0
 40
1.0
 40
1.0
 40
1.0
 40
1.0
 10
283.5134852765
 20
337.9393589834
 30
0.0
 10
285.3040226503
 20
337.7463160876
 30
0.0
 10
287.0945110809
 20
337.552818844
 30
0.0
 10
288.8849577764
 20
337.3589367221
 30
0.0
  0
SPLINE
  5
677
100
AcDbEntity
  8
0
100
AcDbSpline
 62
7
  6
CONTINUOUS
 70
0
 71
3
 72
9
 73
5
 74
0
 42
0.0000001
 43
0.0000001
 44
0.0000000001
 40
0.0
 40
0.0
 40
0.0
 40
0.0
 40
0.7089585961
 40
1.0
 40
1.0
 40
1.0
 40
1.0
 10
275.6497324724
 20
338.3140164693
 30
0.0
 10
275.6463048736
 20
338.3142204458
 30
0.0
 10
275.6443813828
 20
338.3135769011
 30
0.0
 10
275.6342366395
 20
338.315405568
 30
0.0
 10
275.6352194381
 20
338.314395103
 30
0.0
  0
SPLINE
  5
678
100
AcDbEntity
  8
0
100
AcDbSpline
 62
7
  6
CONTINUOUS
 70
0
 71
3
 72
9
 73
5
 74
0
 42
0.0000001
 43
0.0000001
 44
0.0000000001
 40
0.0
 40
0.0
 40
0.0
 40
0.0
 40
0.8152579221
 40
1.0
 40
1.0
 40
1.0
 40
1.0
 10
115.1636991465
 20
338.3140136885
 30
0.0
 10
115.1714143786
 20
338.3143250532
 30
0.0
 10
115.1808798403
 20
338.3147546403
 30
0.0
 10
115.1903579314
 20
338.3145383531
 30
0.0
 10
115.1921016523
 20
338.3143933621
 30
0.0
  0
SPLINE
  5
679
100
AcDbEntity
  8
0
100
AcDbSpline
 62
7
  6
CONTINUOUS
 70
0
 71
3
 72
9
 73
5
 74
0
 42
0.0000001
 43
0.0000001
 44
0.0000000001
 40
0.0
 40
0.0
 40
0.0
 40
0.0
 40
0.8143891651
 40
1.0
 40
1.0
 40
1.0
 40
1.0
 10
251.3380168776
 20
338.3140089832
 30
0.0
 10
251.3302257464
 20
338.3143236044
 30
0.0
 10
251.3206565905
 20
338.3147533311
 30
0.0
 10
251.3110755277
 20
338.3145393292
 30
0.0
 10
251.3093040869
 20
338.3143969126
 30
0.0
  0
LINE
  5
67A
100
AcDbEntity
  8
0
100
AcDbLine
 62
7
  6
CONTINUOUS
 10
280.0342729606
 20
327.3153399039
 11
280.5924128333
 21
327.3754926816
  0
LINE
  5
67B
100
AcDbEntity
  8
0
100
AcDbLine
 62
7
  6
CONTINUOUS
 10
280.5924128333
 20
327.3754926816
 11
283.3019847068
 21
327.667201148
  0
LINE
  5
67C
100
AcDbEntity
  8
0
100
AcDbLine
 62
7
  6
CONTINUOUS
 10
283.3019847068
 20
327.667201148
 11
283.5135035243
 21
327.690003447
  0
SPLINE
  5
67D
100
AcDbEntity
  8
0
100
AcDbSpline
 62
7
  6
CONTINUOUS
 70
0
 71
3
 72
8
 73
4
 74
0
 42
0.0000001
 43
0.0000001
 44
0.0000000001
 40
0.0
 40
0.0
 40
0.0
 40
0.0
 40
1.0
 40
1.0
 40
1.0
 40
1.0
 10
283.5135035243
 20
327.690003447
 30
0.0
 10
285.3040475988
 20
327.8830470489
 30
0.0
 10
287.0945427116
 20
328.0765451711
 30
0.0
 10
288.8849961054
 20
328.2704280219
 30
0.0
  0
SPLINE
  5
67E
100
AcDbEntity
  8
0
100
AcDbSpline
 62
7
  6
CONTINUOUS
 70
0
 71
3
 72
9
 73
5
 74
0
 42
0.0000001
 43
0.0000001
 44
0.0000000001
 40
0.0
 40
0.0
 40
0.0
 40
0.0
 40
0.2275920915
 40
1.0
 40
1.0
 40
1.0
 40
1.0
 10
94.4998991979
 20
327.3153334409
 30
0.0
 10
94.499178211
 20
327.3148645883
 30
0.0
 10
94.4951708717
 20
327.3147093687
 30
0.0
 10
94.4915332537
 20
327.3148169312
 30
0.0
 10
94.4886184358
 20
327.3149689354
 30
0.0
  0
SPLINE
  5
67F
100
AcDbEntity
  8
0
100
AcDbSpline
 62
7
  6
CONTINUOUS
 70
0
 71
3
 72
8
 73
4
 74
0
 42
0.0000001
 43
0.0000001
 44
0.0000000001
 40
0.0
 40
0.0
 40
0.0
 40
0.0
 40
1.0
 40
1.0
 40
1.0
 40
1.0
 10
122.8682446681
 20
327.3155273197
 30
0.0
 10
122.8586238565
 20
327.3148375317
 30
0.0
 10
122.8489660536
 20
327.3146802326
 30
0.0
 10
122.8393205456
 20
327.3146802326
 30
0.0
  0
SPLINE
  5
680
100
AcDbEntity
  8
0
100
AcDbSpline
 62
7
  6
CONTINUOUS
 70
0
 71
3
 72
8
 73
4
 74
0
 42
0.0000001
 43
0.0000001
 44
0.0000000001
 40
0.0
 40
0.0
 40
0.0
 40
0.0
 40
1.0
 40
1.0
 40
1.0
 40
1.0
 10
155.0735738613
 20
327.3153462792
 30
0.0
 10
155.085512519
 20
327.3149051628
 30
0.0
 10
155.0974772327
 20
327.3144357891
 30
0.0
 10
155.1094122583
 20
327.3149661616
 30
0.0
  0
SPLINE
  5
681
100
AcDbEntity
  8
0
100
AcDbSpline
 62
7
  6
CONTINUOUS
 70
0
 71
3
 72
8
 73
4
 74
0
 42
0.0000001
 43
0.0000001
 44
0.0000000001
 40
0.0
 40
0.0
 40
0.0
 40
0.0
 40
1.0
 40
1.0
 40
1.0
 40
1.0
 10
211.4281995378
 20
327.315355268
 30
0.0
 10
211.4161490565
 20
327.314910007
 30
0.0
 10
211.4040725604
 20
327.3144343185
 30
0.0
 10
211.3920255312
 20
327.3149648293
 30
0.0
  0
SPLINE
  5
682
100
AcDbEntity
  8
0
100
AcDbSpline
 62
7
  6
CONTINUOUS
 70
0
 71
3
 72
8
 73
4
 74
0
 42
0.0000001
 43
0.0000001
 44
0.0000000001
 40
0.0
 40
0.0
 40
0.0
 40
0.0
 40
1.0
 40
1.0
 40
1.0
 40
1.0
 10
201.4382236531
 20
327.3153551396
 30
0.0
 10
201.4499914621
 20
327.314846889
 30
0.0
 10
201.461786578
 20
327.3145436512
 30
0.0
 10
201.4735578334
 20
327.3149645944
 30
0.0
  0
SPLINE
  5
683
100
AcDbEntity
  8
0
100
AcDbSpline
 62
7
  6
CONTINUOUS
 70
0
 71
3
 72
8
 73
4
 74
0
 42
0.0000001
 43
0.0000001
 44
0.0000000001
 40
0.0
 40
0.0
 40
0.0
 40
0.0
 40
1.0
 40
1.0
 40
1.0
 40
1.0
 10
243.6324749075
 20
327.3155574258
 30
0.0
 10
243.6423398904
 20
327.3148497267
 30
0.0
 10
243.6522426078
 20
327.3146802326
 30
0.0
 10
243.6621329427
 20
327.3146802326
 30
0.0
  0
SPLINE
  5
684
100
AcDbEntity
  8
0
100
AcDbSpline
 62
7
  6
CONTINUOUS
 70
0
 71
3
 72
9
 73
5
 74
0
 42
0.0000001
 43
0.0000001
 44
0.0000000001
 40
0.0
 40
0.0
 40
0.0
 40
0.0
 40
0.3316632927
 40
1.0
 40
1.0
 40
1.0
 40
1.0
 10
272.0003419937
 20
327.3155630623
 30
0.0
 10
272.0013097546
 20
327.3149315633
 30
0.0
 10
272.0050559227
 20
327.3149954868
 30
0.0
 10
272.0084035053
 20
327.3146802326
 30
0.0
 10
272.0107321102
 20
327.3146802326
 30
0.0
  0
SPLINE
  5
685
100
AcDbEntity
  8
0
100
AcDbSpline
 62
7
  6
CONTINUOUS
 70
0
 71
3
 72
10
 73
6
 74
0
 42
0.0000001
 43
0.0000001
 44
0.0000000001
 40
0.0
 40
0.0
 40
0.0
 40
0.0
 40
0.3804333867
 40
0.6624997356
 40
1.0
 40
1.0
 40
1.0
 40
1.0
 10
86.4672304574
 20
327.3153591963
 30
0.0
 10
86.3792707072
 20
327.3231977976
 30
0.0
 10
86.2558798542
 20
327.4594979547
 30
0.0
 10
86.1740880878
 20
327.6704805406
 30
0.0
 10
86.142606337
 20
327.8130961249
 30
0.0
 10
86.1313919011
 20
327.8906317717
 30
0.0
  0
SPLINE
  5
686
100
AcDbEntity
  8
0
100
AcDbSpline
 62
7
  6
CONTINUOUS
 70
0
 71
3
 72
10
 73
6
 74
0
 42
0.0000001
 43
0.0000001
 44
0.0000000001
 40
0.0
 40
0.0
 40
0.0
 40
0.0
 40
0.3801001869
 40
0.6619982595
 40
1.0
 40
1.0
 40
1.0
 40
1.0
 10
280.0343873535
 20
338.3140061347
 30
0.0
 10
280.1221320748
 20
338.3061926166
 30
0.0
 10
280.2452520532
 20
338.1699387003
 30
0.0
 10
280.3256566125
 20
337.9588073137
 30
0.0
 10
280.3570751904
 20
337.8164028172
 30
0.0
 10
280.3685550301
 20
337.7389133553
 30
0.0
  0
SPLINE
  5
687
100
AcDbEntity
  8
0
100
AcDbSpline
 62
7
  6
CONTINUOUS
 70
0
 71
3
 72
10
 73
6
 74
0
 42
0.0000001
 43
0.0000001
 44
0.0000000001
 40
0.0
 40
0.0
 40
0.0
 40
0.0
 40
0.3804654483
 40
0.6625464118
 40
1.0
 40
1.0
 40
1.0
 40
1.0
 10
86.4672453913
 20
338.3140008098
 30
0.0
 10
86.3792656637
 20
338.3061593892
 30
0.0
 10
86.2558485389
 20
338.1698565772
 30
0.0
 10
86.1739325204
 20
337.9588863339
 30
0.0
 10
86.1424466381
 20
337.816251613
 30
0.0
 10
86.1312567193
 20
337.7387119844
 30
0.0
  0
SPLINE
  5
688
100
AcDbEntity
  8
0
100
AcDbSpline
 62
7
  6
CONTINUOUS
 70
0
 71
3
 72
14
 73
10
 74
0
 42
0.0000001
 43
0.0000001
 44
0.0000000001
 40
0.0
 40
0.0
 40
0.0
 40
0.0
 40
0.0278762689
 40
0.0899020245
 40
0.1846278349
 40
0.309047657
 40
0.4585965411
 40
0.6283639696
 40
1.0
 40
1.0
 40
1.0
 40
1.0
 10
94.4999163073
 20
327.3153590292
 30
0.0
 10
94.507766007
 20
327.3204493982
 30
0.0
 10
94.5138317107
 20
327.3543448062
 30
0.0
 10
94.5279664522
 20
327.4112749904
 30
0.0
 10
94.539480034
 20
327.5067980111
 30
0.0
 10
94.5529351252
 20
327.6290607573
 30
0.0
 10
94.5660093648
 20
327.7776832016
 30
0.0
 10
94.5846446429
 20
328.0087145337
 30
0.0
 10
94.5965864956
 20
328.1901011952
 30
0.0
 10
94.6026616162
 20
328.3146802326
 30
0.0
  0
SPLINE
  5
689
100
AcDbEntity
  8
0
100
AcDbSpline
 62
7
  6
CONTINUOUS
 70
0
 71
3
 72
14
 73
10
 74
0
 42
0.0000001
 43
0.0000001
 44
0.0000000001
 40
0.0
 40
0.0
 40
0.0
 40
0.0
 40
0.0278701048
 40
0.0898935874
 40
0.1846163008
 40
0.3090337936
 40
0.4585835003
 40
0.628355409
 40
1.0
 40
1.0
 40
1.0
 40
1.0
 10
94.4999437787
 20
338.3140008871
 30
0.0
 10
94.5077848009
 20
338.3089013248
 30
0.0
 10
94.5138292187
 20
338.2750148772
 30
0.0
 10
94.5279466725
 20
338.2180782168
 30
0.0
 10
94.5393968538
 20
338.122554789
 30
0.0
 10
94.5527665771
 20
338.0002860205
 30
0.0
 10
94.5657923466
 20
337.8516622898
 30
0.0
 10
94.5845122324
 20
337.6206385538
 30
0.0
 10
94.5965940801
 20
337.439259558
 30
0.0
 10
94.6026670858
 20
337.3146802326
 30
0.0
  0
SPLINE
  5
68A
100
AcDbEntity
  8
0
100
AcDbSpline
 62
7
  6
CONTINUOUS
 70
0
 71
3
 72
9
 73
5
 74
0
 42
0.0000001
 43
0.0000001
 44
0.0000000001
 40
0.0
 40
0.0
 40
0.0
 40
0.0
 40
0.2283975048
 40
1.0
 40
1.0
 40
1.0
 40
1.0
 10
94.4999763578
 20
338.3140187336
 30
0.0
 10
94.4992493574
 20
338.3144929208
 30
0.0
 10
94.495218214
 20
338.3146500539
 30
0.0
 10
94.4915602864
 20
338.3145456152
 30
0.0
 10
94.4886318806
 20
338.3143943089
 30
0.0
  0
SPLINE
  5
68B
100
AcDbEntity
  8
0
100
AcDbSpline
 62
7
  6
CONTINUOUS
 70
0
 71
3
 72
10
 73
6
 74
0
 42
0.0000001
 43
0.0000001
 44
0.0000000001
 40
0.0
 40
0.0
 40
0.0
 40
0.0
 40
0.3972646459
 40
0.6838238457
 40
1.0
 40
1.0
 40
1.0
 40
1.0
 10
122.8643606244
 20
327.3153591427
 30
0.0
 10
123.0219953417
 20
327.3266672958
 30
0.0
 10
123.2363005061
 20
327.5810278439
 30
0.0
 10
123.3585624264
 20
327.947410881
 30
0.0
 10
123.3956252547
 20
328.1890093106
 30
0.0
 10
123.4008906894
 20
328.3146802326
 30
0.0
  0
SPLINE
  5
68C
100
AcDbEntity
  8
0
100
AcDbSpline
 62
7
  6
CONTINUOUS
 70
0
 71
3
 72
8
 73
4
 74
0
 42
0.0000001
 43
0.0000001
 44
0.0000000001
 40
0.0
 40
0.0
 40
0.0
 40
0.0
 40
1.0
 40
1.0
 40
1.0
 40
1.0
 10
155.0739578976
 20
327.3153593467
 30
0.0
 10
154.9891189184
 20
327.3184939934
 30
0.0
 10
154.9040676704
 20
327.3330801137
 30
0.0
 10
154.8228017519
 20
327.3576428678
 30
0.0
  0
SPLINE
  5
68D
100
AcDbEntity
  8
0
100
AcDbSpline
 62
7
  6
CONTINUOUS
 70
0
 71
3
 72
8
 73
4
 74
0
 42
0.0000001
 43
0.0000001
 44
0.0000000001
 40
0.0
 40
0.0
 40
0.0
 40
0.0
 40
1.0
 40
1.0
 40
1.0
 40
1.0
 10
154.8228017519
 20
327.3576428678
 30
0.0
 10
154.7414870094
 20
327.382220379
 30
0.0
 10
154.6625855235
 20
327.4172024243
 30
0.0
 10
154.5900238232
 20
327.4613718825
 30
0.0
  0
SPLINE
  5
68E
100
AcDbEntity
  8
0
100
AcDbSpline
 62
7
  6
CONTINUOUS
 70
0
 71
3
 72
9
 73
5
 74
0
 42
0.0000001
 43
0.0000001
 44
0.0000000001
 40
0.0
 40
0.0
 40
0.0
 40
0.0
 40
0.5001317202
 40
1.0
 40
1.0
 40
1.0
 40
1.0
 10
154.5900238232
 20
327.4613718825
 30
0.0
 10
154.4459499315
 20
327.549071946
 30
0.0
 10
154.1996907881
 20
327.8036411977
 30
0.0
 10
154.1103341369
 20
328.1461028252
 30
0.0
 10
154.1098022699
 20
328.3146802326
 30
0.0
  0
SPLINE
  5
68F
100
AcDbEntity
  8
0
100
AcDbSpline
 62
7
  6
CONTINUOUS
 70
0
 71
3
 72
10
 73
6
 74
0
 42
0.0000001
 43
0.0000001
 44
0.0000000001
 40
0.0
 40
0.0
 40
0.0
 40
0.0
 40
0.397310739
 40
0.6838513315
 40
1.0
 40
1.0
 40
1.0
 40
1.0
 10
122.8643387203
 20
338.3140017235
 30
0.0
 10
123.0220027149
 20
338.3026967509
 30
0.0
 10
123.2363895863
 20
338.0483844932
 30
0.0
 10
123.358695638
 20
337.6819594695
 30
0.0
 10
123.395622324
 20
337.440348628
 30
0.0
 10
123.4008890687
 20
337.3146802326
 30
0.0
  0
SPLINE
  5
690
100
AcDbEntity
  8
0
100
AcDbSpline
 62
7
  6
CONTINUOUS
 70
0
 71
3
 72
8
 73
4
 74
0
 42
0.0000001
 43
0.0000001
 44
0.0000000001
 40
0.0
 40
0.0
 40
0.0
 40
0.0
 40
1.0
 40
1.0
 40
1.0
 40
1.0
 10
122.8686287596
 20
338.3138101789
 30
0.0
 10
122.8588800512
 20
338.3145087935
 30
0.0
 10
122.8490942541
 20
338.3146802326
 30
0.0
 10
122.8393205456
 20
338.3146802326
 30
0.0
  0
SPLINE
  5
691
100
AcDbEntity
  8
0
100
AcDbSpline
 62
7
  6
CONTINUOUS
 70
0
 71
3
 72
8
 73
4
 74
0
 42
0.0000001
 43
0.0000001
 44
0.0000000001
 40
0.0
 40
0.0
 40
0.0
 40
0.0
 40
1.0
 40
1.0
 40
1.0
 40
1.0
 10
155.0736118732
 20
338.3140136903
 30
0.0
 10
155.0855341125
 20
338.3144540759
 30
0.0
 10
155.0974825162
 20
338.3149264649
 30
0.0
 10
155.1094009696
 20
338.3143933617
 30
0.0
  0
SPLINE
  5
692
100
AcDbEntity
  8
0
100
AcDbSpline
 62
7
  6
CONTINUOUS
 70
0
 71
3
 72
8
 73
4
 74
0
 42
0.0000001
 43
0.0000001
 44
0.0000000001
 40
0.0
 40
0.0
 40
0.0
 40
0.0
 40
1.0
 40
1.0
 40
1.0
 40
1.0
 10
155.0739689991
 20
338.3140014927
 30
0.0
 10
154.9891309597
 20
338.3108677118
 30
0.0
 10
154.9040806218
 20
338.2962824288
 30
0.0
 10
154.8228152741
 20
338.2717211426
 30
0.0
  0
SPLINE
  5
693
100
AcDbEntity
  8
0
100
AcDbSpline
 62
7
  6
CONTINUOUS
 70
0
 71
3
 72
8
 73
4
 74
0
 42
0.0000001
 43
0.0000001
 44
0.0000000001
 40
0.0
 40
0.0
 40
0.0
 40
0.0
 40
1.0
 40
1.0
 40
1.0
 40
1.0
 10
154.8228152741
 20
338.2717211426
 30
0.0
 10
154.7414992592
 20
338.2471445431
 30
0.0
 10
154.6625963246
 20
338.2121636182
 30
0.0
 10
154.5900327554
 20
338.1679953948
 30
0.0
  0
SPLINE
  5
694
100
AcDbEntity
  8
0
100
AcDbSpline
 62
7
  6
CONTINUOUS
 70
0
 71
3
 72
9
 73
5
 74
0
 42
0.0000001
 43
0.0000001
 44
0.0000000001
 40
0.0
 40
0.0
 40
0.0
 40
0.0
 40
0.5001302521
 40
1.0
 40
1.0
 40
1.0
 40
1.0
 10
154.5900327554
 20
338.1679953948
 30
0.0
 10
154.4459552325
 20
338.0802978314
 30
0.0
 10
154.1996837717
 20
337.8257299283
 30
0.0
 10
154.1103354318
 20
337.4832604293
 30
0.0
 10
154.1098030704
 20
337.3146802326
 30
0.0
  0
SPLINE
  5
695
100
AcDbEntity
  8
0
100
AcDbSpline
 62
7
  6
CONTINUOUS
 70
0
 71
3
 72
10
 73
6
 74
0
 42
0.0000001
 43
0.0000001
 44
0.0000000001
 40
0.0
 40
0.0
 40
0.0
 40
0.0
 40
0.2326970047
 40
0.4786227295
 40
1.0
 40
1.0
 40
1.0
 40
1.0
 10
165.0625638666
 20
327.3153587543
 30
0.0
 10
165.1725300684
 20
327.3201057799
 30
0.0
 10
165.3988043974
 20
327.3842027791
 30
0.0
 10
165.771337495
 20
327.6907385623
 30
0.0
 10
165.903718921
 20
328.0681420345
 30
0.0
 10
165.9099928813
 20
328.3146802326
 30
0.0
  0
SPLINE
  5
696
100
AcDbEntity
  8
0
100
AcDbSpline
 62
7
  6
CONTINUOUS
 70
0
 71
3
 72
10
 73
6
 74
0
 42
0.0000001
 43
0.0000001
 44
0.0000000001
 40
0.0
 40
0.0
 40
0.0
 40
0.0
 40
0.2326924813
 40
0.4785775549
 40
1.0
 40
1.0
 40
1.0
 40
1.0
 10
201.4388569789
 20
327.315359467
 30
0.0
 10
201.3288991377
 20
327.320108092
 30
0.0
 10
201.1026424773
 20
327.3841873281
 30
0.0
 10
200.730256751
 20
327.6908341943
 30
0.0
 10
200.597728367
 20
328.0681343702
 30
0.0
 10
200.5914568349
 20
328.3146802326
 30
0.0
  0
SPLINE
  5
697
100
AcDbEntity
  8
0
100
AcDbSpline
 62
7
  6
CONTINUOUS
 70
0
 71
3
 72
10
 73
6
 74
0
 42
0.0000001
 43
0.0000001
 44
0.0000000001
 40
0.0
 40
0.0
 40
0.0
 40
0.0
 40
0.2327121534
 40
0.4786918899
 40
1.0
 40
1.0
 40
1.0
 40
1.0
 10
165.0625109024
 20
338.3140028051
 30
0.0
 10
165.1724941795
 20
338.3092597501
 30
0.0
 10
165.3987999285
 20
338.2451408866
 30
0.0
 10
165.7715463405
 20
337.9387586372
 30
0.0
 10
165.9037107703
 20
337.5612073819
 30
0.0
 10
165.9099891161
 20
337.3146802326
 30
0.0
  0
SPLINE
  5
698
100
AcDbEntity
  8
0
100
AcDbSpline
 62
7
  6
CONTINUOUS
 70
0
 71
3
 72
8
 73
4
 74
0
 42
0.0000001
 43
0.0000001
 44
0.0000000001
 40
0.0
 40
0.0
 40
0.0
 40
0.0
 40
1.0
 40
1.0
 40
1.0
 40
1.0
 10
201.4381962451
 20
338.3140028321
 30
0.0
 10
201.449971822
 20
338.3145112662
 30
0.0
 10
201.4617747397
 20
338.3148178869
 30
0.0
 10
201.473553711
 20
338.314395332
 30
0.0
  0
SPLINE
  5
699
100
AcDbEntity
  8
0
100
AcDbSpline
 62
7
  6
CONTINUOUS
 70
0
 71
3
 72
10
 73
6
 74
0
 42
0.0000001
 43
0.0000001
 44
0.0000000001
 40
0.0
 40
0.0
 40
0.0
 40
0.0
 40
0.2326941222
 40
0.4785962756
 40
1.0
 40
1.0
 40
1.0
 40
1.0
 10
201.4388719251
 20
338.3140013287
 30
0.0
 10
201.328910854
 20
338.3092531251
 30
0.0
 10
201.1026470118
 20
338.2451673602
 30
0.0
 10
200.7302006588
 20
337.9385659421
 30
0.0
 10
200.5977357523
 20
337.561222665
 30
0.0
 10
200.5914632401
 20
337.3146802326
 30
0.0
  0
SPLINE
  5
69A
100
AcDbEntity
  8
0
100
AcDbSpline
 62
7
  6
CONTINUOUS
 70
0
 71
3
 72
9
 73
5
 74
0
 42
0.0000001
 43
0.0000001
 44
0.0000000001
 40
0.0
 40
0.0
 40
0.0
 40
0.0
 40
0.4998387185
 40
1.0
 40
1.0
 40
1.0
 40
1.0
 10
211.4274967436
 20
327.3153593852
 30
0.0
 10
211.6767020659
 20
327.3245673822
 30
0.0
 10
212.1871990511
 20
327.547227979
 30
0.0
 10
212.3908637246
 20
328.0651451649
 30
0.0
 10
212.3916511031
 20
328.3146802326
 30
0.0
  0
SPLINE
  5
69B
100
AcDbEntity
  8
0
100
AcDbSpline
 62
7
  6
CONTINUOUS
 70
0
 71
3
 72
10
 73
6
 74
0
 42
0.0000001
 43
0.0000001
 44
0.0000000001
 40
0.0
 40
0.0
 40
0.0
 40
0.0
 40
0.3972101158
 40
0.6837916492
 40
1.0
 40
1.0
 40
1.0
 40
1.0
 10
243.6370620412
 20
327.3153596375
 30
0.0
 10
243.4794620119
 20
327.3266721582
 30
0.0
 10
243.2652545874
 20
327.5810896551
 30
0.0
 10
243.1430413998
 20
327.9474221504
 30
0.0
 10
243.1058209399
 20
328.1890064453
 30
0.0
 10
243.1005574056
 20
328.3146802326
 30
0.0
  0
SPLINE
  5
69C
100
AcDbEntity
  8
0
100
AcDbSpline
 62
7
  6
CONTINUOUS
 70
0
 71
3
 72
9
 73
5
 74
0
 42
0.0000001
 43
0.0000001
 44
0.0000000001
 40
0.0
 40
0.0
 40
0.0
 40
0.0
 40
0.4998383008
 40
1.0
 40
1.0
 40
1.0
 40
1.0
 10
211.427511016
 20
338.3140006023
 30
0.0
 10
211.6767129519
 20
338.3047894362
 30
0.0
 10
212.1871927904
 20
338.0821159542
 30
0.0
 10
212.3908643913
 20
337.5642124491
 30
0.0
 10
212.3916514227
 20
337.3146802326
 30
0.0
  0
SPLINE
  5
69D
100
AcDbEntity
  8
0
100
AcDbSpline
 62
7
  6
CONTINUOUS
 70
0
 71
3
 72
8
 73
4
 74
0
 42
0.0000001
 43
0.0000001
 44
0.0000000001
 40
0.0
 40
0.0
 40
0.0
 40
0.0
 40
1.0
 40
1.0
 40
1.0
 40
1.0
 10
211.4282657785
 20
338.314005583
 30
0.0
 10
211.4161877504
 20
338.3144520223
 30
0.0
 10
211.4040838605
 20
338.3149236643
 30
0.0
 10
211.3920090631
 20
338.3143970337
 30
0.0
  0
SPLINE
  5
69E
100
AcDbEntity
  8
0
100
AcDbSpline
 62
7
  6
CONTINUOUS
 70
0
 71
3
 72
8
 73
4
 74
0
 42
0.0000001
 43
0.0000001
 44
0.0000000001
 40
0.0
 40
0.0
 40
0.0
 40
0.0
 40
1.0
 40
1.0
 40
1.0
 40
1.0
 10
243.6335391911
 20
338.313832495
 30
0.0
 10
243.6430503173
 20
338.3145129851
 30
0.0
 10
243.6525975042
 20
338.3146802326
 30
0.0
 10
243.6621329427
 20
338.3146802326
 30
0.0
  0
SPLINE
  5
69F
100
AcDbEntity
  8
0
100
AcDbSpline
 62
7
  6
CONTINUOUS
 70
0
 71
3
 72
10
 73
6
 74
0
 42
0.0000001
 43
0.0000001
 44
0.0000000001
 40
0.0
 40
0.0
 40
0.0
 40
0.0
 40
0.3974626449
 40
0.6839400502
 40
1.0
 40
1.0
 40
1.0
 40
1.0
 10
243.6371899695
 20
338.3140030861
 30
0.0
 10
243.4794300507
 20
338.3027073212
 30
0.0
 10
243.264770357
 20
338.0485583494
 30
0.0
 10
243.1423387607
 20
337.6819889898
 30
0.0
 10
243.1058501185
 20
337.4403406516
 30
0.0
 10
243.1005791909
 20
337.3146802326
 30
0.0
  0
SPLINE
  5
6A0
100
AcDbEntity
  8
0
100
AcDbSpline
 62
7
  6
CONTINUOUS
 70
0
 71
3
 72
14
 73
10
 74
0
 42
0.0000001
 43
0.0000001
 44
0.0000000001
 40
0.0
 40
0.0
 40
0.0
 40
0.0
 40
0.0278505096
 40
0.0898772797
 40
0.1846025633
 40
0.3090201044
 40
0.4585709288
 40
0.6283466813
 40
1.0
 40
1.0
 40
1.0
 40
1.0
 10
272.0014841265
 20
327.3153599016
 30
0.0
 10
271.9936717641
 20
327.3204909125
 30
0.0
 10
271.9876712775
 20
327.3543386095
 30
0.0
 10
271.973515138
 20
327.4112926264
 30
0.0
 10
271.9620878015
 20
327.5068051084
 30
0.0
 10
271.9487660014
 20
327.6290831049
 30
0.0
 10
271.9357798135
 20
327.7777065122
 30
0.0
 10
271.9170181025
 20
328.0087267074
 30
0.0
 10
271.9048527411
 20
328.1901006586
 30
0.0
 10
271.8987819447
 20
328.3146802326
 30
0.0
  0
SPLINE
  5
6A1
100
AcDbEntity
  8
0
100
AcDbSpline
 62
7
  6
CONTINUOUS
 70
0
 71
3
 72
10
 73
6
 74
0
 42
0.0000001
 43
0.0000001
 44
0.0000000001
 40
0.0
 40
0.0
 40
0.0
 40
0.0
 40
0.3804340195
 40
0.6624992242
 40
1.0
 40
1.0
 40
1.0
 40
1.0
 10
280.0342243592
 20
327.3153591918
 30
0.0
 10
280.1221837092
 20
327.3231990968
 30
0.0
 10
280.2455749228
 20
327.4594965364
 30
0.0
 10
280.3273619041
 20
327.6704808335
 30
0.0
 10
280.3588405642
 20
327.8130957827
 30
0.0
 10
280.370055398
 20
327.8906311066
 30
0.0
  0
SPLINE
  5
6A2
100
AcDbEntity
  8
0
100
AcDbSpline
 62
7
  6
CONTINUOUS
 70
0
 71
3
 72
14
 73
10
 74
0
 42
0.0000001
 43
0.0000001
 44
0.0000000001
 40
0.0
 40
0.0
 40
0.0
 40
0.0
 40
0.0278580612
 40
0.0898912422
 40
0.1846242223
 40
0.3090467288
 40
0.4585958929
 40
0.6283628352
 40
1.0
 40
1.0
 40
1.0
 40
1.0
 10
272.0015431756
 20
338.3140017094
 30
0.0
 10
271.9937207421
 20
338.3088807393
 30
0.0
 10
271.9876851422
 20
338.2750266877
 30
0.0
 10
271.973475319
 20
338.2180812813
 30
0.0
 10
271.9619164075
 20
338.1225731469
 30
0.0
 10
271.9484276074
 20
338.0003047852
 30
0.0
 10
271.9353527757
 20
337.8516839794
 30
0.0
 10
271.9167645039
 20
337.6206482088
 30
0.0
 10
271.9048757605
 20
337.4392592759
 30
0.0
 10
271.8988007972
 20
337.3146802326
 30
0.0
  0
SPLINE
  5
6A3
100
AcDbEntity
  8
0
100
AcDbSpline
 62
7
  6
CONTINUOUS
 70
0
 71
3
 72
8
 73
4
 74
0
 42
0.0000001
 43
0.0000001
 44
0.0000000001
 40
0.0
 40
0.0
 40
0.0
 40
0.0
 40
1.0
 40
1.0
 40
1.0
 40
1.0
 10
382.0327384285
 20
78.6268308907
 30
0.0
 10
382.194584028
 20
78.51721256
 30
0.0
 10
382.3979782756
 20
78.4549971045
 30
0.0
 10
382.5934524833
 20
78.4551004697
 30
0.0
  0
SPLINE
  5
6A4
100
AcDbEntity
  8
0
100
AcDbSpline
 62
7
  6
CONTINUOUS
 70
0
 71
3
 72
8
 73
4
 74
0
 42
0.0000001
 43
0.0000001
 44
0.0000000001
 40
0.0
 40
0.0
 40
0.0
 40
0.0
 40
1.0
 40
1.0
 40
1.0
 40
1.0
 10
389.8777673824
 20
78.4722017038
 30
0.0
 10
389.9988604791
 20
78.4949956999
 30
0.0
 10
390.1176555478
 20
78.5412066821
 30
0.0
 10
390.2221920498
 20
78.6064387606
 30
0.0
  0
SPLINE
  5
6A5
100
AcDbEntity
  8
0
100
AcDbSpline
 62
7
  6
CONTINUOUS
 70
0
 71
3
 72
8
 73
4
 74
0
 42
0.0000001
 43
0.0000001
 44
0.0000000001
 40
0.0
 40
0.0
 40
0.0
 40
0.0
 40
1.0
 40
1.0
 40
1.0
 40
1.0
 10
389.8798675304
 20
119.4441445883
 30
0.0
 10
390.0578051435
 20
119.4780299159
 30
0.0
 10
390.232092467
 20
119.5649524612
 30
0.0
 10
390.3660456155
 20
119.6868809795
 30
0.0
  0
SPLINE
  5
6A6
100
AcDbEntity
  8
0
100
AcDbSpline
 62
7
  6
CONTINUOUS
 70
0
 71
3
 72
8
 73
4
 74
0
 42
0.0000001
 43
0.0000001
 44
0.0000000001
 40
0.0
 40
0.0
 40
0.0
 40
0.0
 40
1.0
 40
1.0
 40
1.0
 40
1.0
 10
381.6323108507
 20
223.4343581909
 30
0.0
 10
381.6789279844
 20
223.5966126911
 30
0.0
 10
381.7707361154
 20
223.7512390556
 30
0.0
 10
381.8908838604
 20
223.8698316327
 30
0.0
  0
SPLINE
  5
6A7
100
AcDbEntity
  8
0
100
AcDbSpline
 62
7
  6
CONTINUOUS
 70
0
 71
3
 72
8
 73
4
 74
0
 42
0.0000001
 43
0.0000001
 44
0.0000000001
 40
0.0
 40
0.0
 40
0.0
 40
0.0
 40
1.0
 40
1.0
 40
1.0
 40
1.0
 10
389.8784764474
 20
224.1407405958
 30
0.0
 10
390.058183172
 20
224.1067800519
 30
0.0
 10
390.2342836526
 20
224.0186621673
 30
0.0
 10
390.3690330412
 20
223.8950076984
 30
0.0
  0
SPLINE
  5
6A8
100
AcDbEntity
  8
0
100
AcDbSpline
 62
7
  6
CONTINUOUS
 70
0
 71
3
 72
8
 73
4
 74
0
 42
0.0000001
 43
0.0000001
 44
0.0000000001
 40
0.0
 40
0.0
 40
0.0
 40
0.0
 40
1.0
 40
1.0
 40
1.0
 40
1.0
 10
390.3690330412
 20
223.8950076984
 30
0.0
 10
390.5030921783
 20
223.7719866474
 30
0.0
 10
390.6056236537
 20
223.6052210093
 30
0.0
 10
390.6551173053
 20
223.4301312904
 30
0.0
  0
SPLINE
  5
6A9
100
AcDbEntity
  8
0
100
AcDbSpline
 62
7
  6
CONTINUOUS
 70
0
 71
3
 72
9
 73
5
 74
0
 42
0.0000001
 43
0.0000001
 44
0.0000000001
 40
0.0
 40
0.0
 40
0.0
 40
0.0
 40
0.8852955067
 40
1.0
 40
1.0
 40
1.0
 40
1.0
 10
380.6438451005
 20
248.8058738324
 30
0.0
 10
380.6435601423
 20
248.8003859315
 30
0.0
 10
380.643556831
 20
248.7943798035
 30
0.0
 10
380.6431679129
 20
248.7879233838
 30
0.0
 10
380.6434562846
 20
248.78727239
 30
0.0
  0
SPLINE
  5
6AA
100
AcDbEntity
  8
0
100
AcDbSpline
 62
7
  6
CONTINUOUS
 70
0
 71
3
 72
8
 73
4
 74
0
 42
0.0000001
 43
0.0000001
 44
0.0000000001
 40
0.0
 40
0.0
 40
0.0
 40
0.0
 40
1.0
 40
1.0
 40
1.0
 40
1.0
 10
380.64384444
 20
219.9034997954
 30
0.0
 10
380.6434387502
 20
219.8929911496
 30
0.0
 10
380.642783021
 20
219.8824481761
 30
0.0
 10
380.6434495463
 20
219.8719528454
 30
0.0
  0
SPLINE
  5
6AB
100
AcDbEntity
  8
0
100
AcDbSpline
 62
7
  6
CONTINUOUS
 70
0
 71
3
 72
8
 73
4
 74
0
 42
0.0000001
 43
0.0000001
 44
0.0000000001
 40
0.0
 40
0.0
 40
0.0
 40
0.0
 40
1.0
 40
1.0
 40
1.0
 40
1.0
 10
380.643821813
 20
121.481206364
 30
0.0
 10
380.6434012386
 20
121.4925968735
 30
0.0
 10
380.6428857186
 20
121.5040153047
 30
0.0
 10
380.6434573075
 20
121.5153992353
 30
0.0
  0
SPLINE
  5
6AC
100
AcDbEntity
  8
0
100
AcDbSpline
 62
7
  6
CONTINUOUS
 70
0
 71
3
 72
8
 73
4
 74
0
 42
0.0000001
 43
0.0000001
 44
0.0000000001
 40
0.0
 40
0.0
 40
0.0
 40
0.0
 40
1.0
 40
1.0
 40
1.0
 40
1.0
 10
380.6440156918
 20
84.7166617526
 30
0.0
 10
380.6435384719
 20
84.727763754
 30
0.0
 10
380.6431686047
 20
84.7388754952
 30
0.0
 10
380.6431686047
 20
84.7499877484
 30
0.0
  0
SPLINE
  5
6AD
100
AcDbEntity
  8
0
100
AcDbSpline
 62
7
  6
CONTINUOUS
 70
0
 71
3
 72
9
 73
5
 74
0
 42
0.0000001
 43
0.0000001
 44
0.0000000001
 40
0.0
 40
0.0
 40
0.0
 40
0.0
 40
0.6063125625
 40
1.0
 40
1.0
 40
1.0
 40
1.0
 10
380.6440016099
 20
65.352449655
 30
0.0
 10
380.643775277
 20
65.3556452797
 30
0.0
 10
380.6434539541
 20
65.3609178863
 30
0.0
 10
380.6431686047
 20
65.3661977011
 30
0.0
 10
380.6431686047
 20
65.3682778639
 30
0.0
  0
SPLINE
  5
6AE
100
AcDbEntity
  8
0
100
AcDbSpline
 62
7
  6
CONTINUOUS
 70
0
 71
3
 72
9
 73
5
 74
0
 42
0.0000001
 43
0.0000001
 44
0.0000000001
 40
0.0
 40
0.0
 40
0.0
 40
0.0
 40
0.8860211247
 40
1.0
 40
1.0
 40
1.0
 40
1.0
 10
391.6424882167
 20
248.8059137785
 30
0.0
 10
391.6427736557
 20
248.8004149019
 30
0.0
 10
391.6427497932
 20
248.7944193633
 30
0.0
 10
391.6431768241
 20
248.7879336292
 30
0.0
 10
391.6428794839
 20
248.7872907241
 30
0.0
  0
SPLINE
  5
6AF
100
AcDbEntity
  8
0
100
AcDbSpline
 62
7
  6
CONTINUOUS
 70
0
 71
3
 72
8
 73
4
 74
0
 42
0.0000001
 43
0.0000001
 44
0.0000000001
 40
0.0
 40
0.0
 40
0.0
 40
0.0
 40
1.0
 40
1.0
 40
1.0
 40
1.0
 10
380.6438488831
 20
219.9026719068
 30
0.0
 10
380.6464467453
 20
219.9699615747
 30
0.0
 10
380.656905996
 20
220.0373352434
 30
0.0
 10
380.6743581748
 20
220.1023742298
 30
0.0
  0
SPLINE
  5
6B0
100
AcDbEntity
  8
0
100
AcDbSpline
 62
7
  6
CONTINUOUS
 70
0
 71
3
 72
8
 73
4
 74
0
 42
0.0000001
 43
0.0000001
 44
0.0000000001
 40
0.0
 40
0.0
 40
0.0
 40
0.0
 40
1.0
 40
1.0
 40
1.0
 40
1.0
 10
391.6424398536
 20
219.9053066932
 30
0.0
 10
391.6428703265
 20
219.8941590014
 30
0.0
 10
391.6435540694
 20
219.8829783982
 30
0.0
 10
391.6428963132
 20
219.8718418055
 30
0.0
  0
SPLINE
  5
6B1
100
AcDbEntity
  8
0
100
AcDbSpline
 62
7
  6
CONTINUOUS
 70
0
 71
3
 72
8
 73
4
 74
0
 42
0.0000001
 43
0.0000001
 44
0.0000000001
 40
0.0
 40
0.0
 40
0.0
 40
0.0
 40
1.0
 40
1.0
 40
1.0
 40
1.0
 10
391.6424879329
 20
219.9026758748
 30
0.0
 10
391.6398897078
 20
219.9699680418
 30
0.0
 10
391.6294317309
 20
220.0373444211
 30
0.0
 10
391.6119791233
 20
220.1023858925
 30
0.0
  0
SPLINE
  5
6B2
100
AcDbEntity
  8
0
100
AcDbSpline
 62
7
  6
CONTINUOUS
 70
0
 71
3
 72
8
 73
4
 74
0
 42
0.0000001
 43
0.0000001
 44
0.0000000001
 40
0.0
 40
0.0
 40
0.0
 40
0.0
 40
1.0
 40
1.0
 40
1.0
 40
1.0
 10
380.6438474013
 20
121.4810992552
 30
0.0
 10
380.6469788411
 20
121.3962906152
 30
0.0
 10
380.6615500698
 20
121.3112645783
 30
0.0
 10
380.6861292383
 20
121.2300354221
 30
0.0
  0
SPLINE
  5
6B3
100
AcDbEntity
  8
0
100
AcDbSpline
 62
7
  6
CONTINUOUS
 70
0
 71
3
 72
8
 73
4
 74
0
 42
0.0000001
 43
0.0000001
 44
0.0000000001
 40
0.0
 40
0.0
 40
0.0
 40
0.0
 40
1.0
 40
1.0
 40
1.0
 40
1.0
 10
380.6861292383
 20
121.2300354221
 30
0.0
 10
380.7106935534
 20
121.1488553534
 30
0.0
 10
380.7456712327
 20
121.0700893416
 30
0.0
 10
380.7898564402
 20
120.9976926804
 30
0.0
  0
SPLINE
  5
6B4
100
AcDbEntity
  8
0
100
AcDbSpline
 62
7
  6
CONTINUOUS
 70
0
 71
3
 72
8
 73
4
 74
0
 42
0.0000001
 43
0.0000001
 44
0.0000000001
 40
0.0
 40
0.0
 40
0.0
 40
0.0
 40
1.0
 40
1.0
 40
1.0
 40
1.0
 10
391.6424892592
 20
121.4810860379
 30
0.0
 10
391.6393566351
 20
121.3962788904
 30
0.0
 10
391.6247850649
 20
121.3112545087
 30
0.0
 10
391.6002058873
 20
121.2300268679
 30
0.0
  0
SPLINE
  5
6B5
100
AcDbEntity
  8
0
100
AcDbSpline
 62
7
  6
CONTINUOUS
 70
0
 71
3
 72
8
 73
4
 74
0
 42
0.0000001
 43
0.0000001
 44
0.0000000001
 40
0.0
 40
0.0
 40
0.0
 40
0.0
 40
1.0
 40
1.0
 40
1.0
 40
1.0
 10
391.6002058873
 20
121.2300268679
 30
0.0
 10
391.575640975
 20
121.1488463702
 30
0.0
 10
391.5406625589
 20
121.0700800715
 30
0.0
 10
391.496476878
 20
120.9976830155
 30
0.0
  0
SPLINE
  5
6B6
100
AcDbEntity
  8
0
100
AcDbSpline
 62
7
  6
CONTINUOUS
 70
0
 71
3
 72
8
 73
4
 74
0
 42
0.0000001
 43
0.0000001
 44
0.0000000001
 40
0.0
 40
0.0
 40
0.0
 40
0.0
 40
1.0
 40
1.0
 40
1.0
 40
1.0
 10
391.6425071057
 20
121.4808358499
 30
0.0
 10
391.6429328382
 20
121.4923614982
 30
0.0
 10
391.6434495627
 20
121.5039147682
 30
0.0
 10
391.642882681
 20
121.5154343369
 30
0.0
  0
SPLINE
  5
6B7
100
AcDbEntity
  8
0
100
AcDbSpline
 62
7
  6
CONTINUOUS
 70
0
 71
3
 72
8
 73
4
 74
0
 42
0.0000001
 43
0.0000001
 44
0.0000000001
 40
0.0
 40
0.0
 40
0.0
 40
0.0
 40
1.0
 40
1.0
 40
1.0
 40
1.0
 10
391.642298551
 20
84.7160767519
 30
0.0
 10
391.642784042
 20
84.72737371
 30
0.0
 10
391.6431686047
 20
84.738680363
 30
0.0
 10
391.6431686047
 20
84.7499877484
 30
0.0
  0
LINE
  5
6B8
100
AcDbEntity
  8
0
100
AcDbLine
 62
7
  6
CONTINUOUS
 10
381.5989163902
 20
56.9799297336
 11
381.5109861766
 21
57.7487965064
  0
SPLINE
  5
6B9
100
AcDbEntity
  8
0
100
AcDbSpline
 62
7
  6
CONTINUOUS
 70
0
 71
3
 72
8
 73
4
 74
0
 42
0.0000001
 43
0.0000001
 44
0.0000000001
 40
0.0
 40
0.0
 40
0.0
 40
0.0
 40
1.0
 40
1.0
 40
1.0
 40
1.0
 10
381.5109861766
 20
57.7487965064
 30
0.0
 10
381.2411557579
 20
60.1089333049
 30
0.0
 10
380.9720892682
 20
62.4691576363
 30
0.0
 10
380.7039810537
 20
64.8294906949
 30
0.0
  0
LINE
  5
6BA
100
AcDbEntity
  8
0
100
AcDbLine
 62
7
  6
CONTINUOUS
 10
390.687425084
 20
56.9799643055
 11
390.7753511689
 21
57.7487953986
  0
SPLINE
  5
6BB
100
AcDbEntity
  8
0
100
AcDbSpline
 62
7
  6
CONTINUOUS
 70
0
 71
3
 72
8
 73
4
 74
0
 42
0.0000001
 43
0.0000001
 44
0.0000000001
 40
0.0
 40
0.0
 40
0.0
 40
0.0
 40
1.0
 40
1.0
 40
1.0
 40
1.0
 10
390.7753511689
 20
57.7487953986
 30
0.0
 10
391.0451813668
 20
60.1089325864
 30
0.0
 10
391.3142479054
 20
62.4691572763
 30
0.0
 10
391.5823561556
 20
64.8294906949
 30
0.0
  0
SPLINE
  5
6BC
100
AcDbEntity
  8
0
100
AcDbSpline
 62
7
  6
CONTINUOUS
 70
0
 71
3
 72
9
 73
5
 74
0
 42
0.0000001
 43
0.0000001
 44
0.0000000001
 40
0.0
 40
0.0
 40
0.0
 40
0.0
 40
0.6082140761
 40
1.0
 40
1.0
 40
1.0
 40
1.0
 10
391.6423132048
 20
65.3521528987
 30
0.0
 10
391.6425444402
 20
65.3554187308
 30
0.0
 10
391.6428777333
 20
65.360789921
 30
0.0
 10
391.6431686047
 20
65.3661688856
 30
0.0
 10
391.6431686047
 20
65.3682778639
 30
0.0
  0
SPLINE
  5
6BD
100
AcDbEntity
  8
0
100
AcDbSpline
 62
7
  6
CONTINUOUS
 70
0
 71
3
 72
9
 73
5
 74
0
 42
0.0000001
 43
0.0000001
 44
0.0000000001
 40
0.0
 40
0.0
 40
0.0
 40
0.0
 40
0.3081090238
 40
1.0
 40
1.0
 40
1.0
 40
1.0
 10
380.6438416531
 20
244.0244212796
 30
0.0
 10
380.6435149851
 20
244.0259849589
 30
0.0
 10
380.6430621588
 20
244.0311755842
 30
0.0
 10
380.6432886359
 20
244.0363600493
 30
0.0
 10
380.6434532867
 20
244.0399434802
 30
0.0
  0
SPLINE
  5
6BE
100
AcDbEntity
  8
0
100
AcDbSpline
 62
7
  6
CONTINUOUS
 70
0
 71
3
 72
8
 73
4
 74
0
 42
0.0000001
 43
0.0000001
 44
0.0000000001
 40
0.0
 40
0.0
 40
0.0
 40
0.0
 40
1.0
 40
1.0
 40
1.0
 40
1.0
 10
380.6438358003
 20
167.2108130574
 30
0.0
 10
380.6433497709
 20
167.222814163
 30
0.0
 10
380.6430092423
 20
167.2348411984
 30
0.0
 10
380.6434548343
 20
167.2468438734
 30
0.0
  0
SPLINE
  5
6BF
100
AcDbEntity
  8
0
100
AcDbSpline
 62
7
  6
CONTINUOUS
 70
0
 71
3
 72
8
 73
4
 74
0
 42
0.0000001
 43
0.0000001
 44
0.0000000001
 40
0.0
 40
0.0
 40
0.0
 40
0.0
 40
1.0
 40
1.0
 40
1.0
 40
1.0
 10
380.6437814565
 20
177.4215795414
 30
0.0
 10
380.643362847
 20
177.4103760631
 30
0.0
 10
380.6429494839
 20
177.3991459859
 30
0.0
 10
380.6434756479
 20
177.3879470435
 30
0.0
  0
SPLINE
  5
6C0
100
AcDbEntity
  8
0
100
AcDbSpline
 62
7
  6
CONTINUOUS
 70
0
 71
3
 72
8
 73
4
 74
0
 42
0.0000001
 43
0.0000001
 44
0.0000000001
 40
0.0
 40
0.0
 40
0.0
 40
0.0
 40
1.0
 40
1.0
 40
1.0
 40
1.0
 10
380.6438616437
 20
131.1013033842
 30
0.0
 10
380.6433234145
 20
131.0898504331
 30
0.0
 10
380.6430516591
 20
131.0783677544
 30
0.0
 10
380.6434497655
 20
131.0669090768
 30
0.0
  0
SPLINE
  5
6C1
100
AcDbEntity
  8
0
100
AcDbSpline
 62
7
  6
CONTINUOUS
 70
0
 71
3
 72
9
 73
5
 74
0
 42
0.0000001
 43
0.0000001
 44
0.0000000001
 40
0.0
 40
0.0
 40
0.0
 40
0.0
 40
0.6566721635
 40
1.0
 40
1.0
 40
1.0
 40
1.0
 10
380.6438346513
 20
91.544189064
 30
0.0
 10
380.643381526
 20
91.5391878955
 30
0.0
 10
380.6431249904
 20
91.5315286011
 30
0.0
 10
380.6433508434
 20
91.5238849478
 30
0.0
 10
380.6434545337
 20
91.5212615253
 30
0.0
  0
SPLINE
  5
6C2
100
AcDbEntity
  8
0
100
AcDbSpline
 62
7
  6
CONTINUOUS
 70
0
 71
3
 72
9
 73
5
 74
0
 42
0.0000001
 43
0.0000001
 44
0.0000000001
 40
0.0
 40
0.0
 40
0.0
 40
0.0
 40
0.1915819859
 40
1.0
 40
1.0
 40
1.0
 40
1.0
 10
380.6438493811
 20
257.5108091904
 30
0.0
 10
380.6454626525
 20
257.5239831644
 30
0.0
 10
380.6710074342
 20
257.5907023173
 30
0.0
 10
380.7389323295
 20
257.6277726317
 30
0.0
 10
380.7898806317
 20
257.651029488
 30
0.0
  0
SPLINE
  5
6C3
100
AcDbEntity
  8
0
100
AcDbSpline
 62
7
  6
CONTINUOUS
 70
0
 71
3
 72
9
 73
5
 74
0
 42
0.0000001
 43
0.0000001
 44
0.0000000001
 40
0.0
 40
0.0
 40
0.0
 40
0.0
 40
0.4342286086
 40
1.0
 40
1.0
 40
1.0
 40
1.0
 10
380.7898806317
 20
257.651029488
 30
0.0
 10
380.9037167283
 20
257.7029933341
 30
0.0
 10
381.1922782892
 20
257.7586143909
 30
0.0
 10
381.4803012667
 20
257.7623620417
 30
0.0
 10
381.6431686047
 20
257.7547876347
 30
0.0
  0
SPLINE
  5
6C4
100
AcDbEntity
  8
0
100
AcDbSpline
 62
7
  6
CONTINUOUS
 70
0
 71
3
 72
9
 73
5
 74
0
 42
0.0000001
 43
0.0000001
 44
0.0000000001
 40
0.0
 40
0.0
 40
0.0
 40
0.0
 40
0.1915926851
 40
1.0
 40
1.0
 40
1.0
 40
1.0
 10
391.6424876676
 20
257.5108054708
 30
0.0
 10
391.6408743144
 20
257.5239809774
 30
0.0
 10
391.6153314522
 20
257.5907052038
 30
0.0
 10
391.5474057651
 20
257.6277810773
 30
0.0
 10
391.4964582505
 20
257.6510458993
 30
0.0
  0
SPLINE
  5
6C5
100
AcDbEntity
  8
0
100
AcDbSpline
 62
7
  6
CONTINUOUS
 70
0
 71
3
 72
9
 73
5
 74
0
 42
0.0000001
 43
0.0000001
 44
0.0000000001
 40
0.0
 40
0.0
 40
0.0
 40
0.0
 40
0.4342369901
 40
1.0
 40
1.0
 40
1.0
 40
1.0
 10
391.4964582505
 20
257.6510458993
 30
0.0
 10
391.3826257944
 20
257.7030266846
 30
0.0
 10
391.0940642721
 20
257.7587012467
 30
0.0
 10
390.8060352504
 20
257.7623596855
 30
0.0
 10
390.6431686047
 20
257.7547856985
 30
0.0
  0
SPLINE
  5
6C6
100
AcDbEntity
  8
0
100
AcDbSpline
 62
7
  6
CONTINUOUS
 70
0
 71
3
 72
12
 73
8
 74
0
 42
0.0000001
 43
0.0000001
 44
0.0000000001
 40
0.0
 40
0.0
 40
0.0
 40
0.0
 40
0.0410928916
 40
0.1086374287
 40
0.3279384912
 40
0.6398003038
 40
1.0
 40
1.0
 40
1.0
 40
1.0
 10
380.643847817
 20
244.0245838486
 30
0.0
 10
380.6467610468
 20
244.0106313697
 30
0.0
 10
380.6758358915
 20
243.9813086486
 30
0.0
 10
380.7764688975
 20
243.9312926197
 30
0.0
 10
380.9810444422
 20
243.8804378349
 30
0.0
 10
381.2855736208
 20
243.8336006474
 30
0.0
 10
381.5183747686
 20
243.8130384713
 30
0.0
 10
381.6431686047
 20
243.8070402528
 30
0.0
  0
SPLINE
  5
6C7
100
AcDbEntity
  8
0
100
AcDbSpline
 62
7
  6
CONTINUOUS
 70
0
 71
3
 72
12
 73
8
 74
0
 42
0.0000001
 43
0.0000001
 44
0.0000000001
 40
0.0
 40
0.0
 40
0.0
 40
0.0
 40
0.0410835048
 40
0.1086212215
 40
0.3279057799
 40
0.6397810648
 40
1.0
 40
1.0
 40
1.0
 40
1.0
 10
391.6424889216
 20
244.0245595026
 30
0.0
 10
391.6395740093
 20
244.0106113525
 30
0.0
 10
391.6104953731
 20
243.9813023802
 30
0.0
 10
391.5098635198
 20
243.9313202505
 30
0.0
 10
391.3052606918
 20
243.8806140805
 30
0.0
 10
391.0007556502
 20
243.8337559736
 30
0.0
 10
390.7679636071
 20
243.8130319487
 30
0.0
 10
390.6431686047
 20
243.8070354235
 30
0.0
  0
SPLINE
  5
6C8
100
AcDbEntity
  8
0
100
AcDbSpline
 62
7
  6
CONTINUOUS
 70
0
 71
3
 72
9
 73
5
 74
0
 42
0.0000001
 43
0.0000001
 44
0.0000000001
 40
0.0
 40
0.0
 40
0.0
 40
0.0
 40
0.3090025815
 40
1.0
 40
1.0
 40
1.0
 40
1.0
 10
391.6424957401
 20
244.0243811665
 30
0.0
 10
391.6428244322
 20
244.0259528574
 30
0.0
 10
391.6432715451
 20
244.0311560805
 30
0.0
 10
391.643049251
 20
244.0363518015
 30
0.0
 10
391.642885325
 20
244.0399387394
 30
0.0
  0
SPLINE
  5
6C9
100
AcDbEntity
  8
0
100
AcDbSpline
 62
7
  6
CONTINUOUS
 70
0
 71
3
 72
11
 73
7
 74
0
 42
0.0000001
 43
0.0000001
 44
0.0000000001
 40
0.0
 40
0.0
 40
0.0
 40
0.0
 40
0.1939521674
 40
0.4270332196
 40
0.7021333098
 40
1.0
 40
1.0
 40
1.0
 40
1.0
 10
380.6438476339
 20
211.4361585167
 30
0.0
 10
380.648769703
 20
211.3542111867
 30
0.0
 10
380.7234444324
 20
211.1773296069
 30
0.0
 10
380.9566220978
 20
210.9826691848
 30
0.0
 10
381.2751357837
 20
210.8507503495
 30
0.0
 10
381.5171828862
 20
210.8118280809
 30
0.0
 10
381.6431686047
 20
210.8069689625
 30
0.0
  0
SPLINE
  5
6CA
100
AcDbEntity
  8
0
100
AcDbSpline
 62
7
  6
CONTINUOUS
 70
0
 71
3
 72
8
 73
4
 74
0
 42
0.0000001
 43
0.0000001
 44
0.0000000001
 40
0.0
 40
0.0
 40
0.0
 40
0.0
 40
1.0
 40
1.0
 40
1.0
 40
1.0
 10
380.6438426923
 20
177.4235700144
 30
0.0
 10
380.646969403
 20
177.5072543757
 30
0.0
 10
380.6615820059
 20
177.5911455806
 30
0.0
 10
380.6860992748
 20
177.6712189981
 30
0.0
  0
SPLINE
  5
6CB
100
AcDbEntity
  8
0
100
AcDbSpline
 62
7
  6
CONTINUOUS
 70
0
 71
3
 72
9
 73
5
 74
0
 42
0.0000001
 43
0.0000001
 44
0.0000000001
 40
0.0
 40
0.0
 40
0.0
 40
0.0
 40
0.4989097011
 40
1.0
 40
1.0
 40
1.0
 40
1.0
 10
380.7897980698
 20
177.9011418936
 30
0.0
 10
380.8778284027
 20
178.0441808295
 30
0.0
 10
381.1332810143
 20
178.2883213712
 30
0.0
 10
381.4744846289
 20
178.3777076421
 30
0.0
 10
381.6431686047
 20
178.379232013
 30
0.0
  0
SPLINE
  5
6CC
100
AcDbEntity
  8
0
100
AcDbSpline
 62
7
  6
CONTINUOUS
 70
0
 71
3
 72
11
 73
7
 74
0
 42
0.0000001
 43
0.0000001
 44
0.0000000001
 40
0.0
 40
0.0
 40
0.0
 40
0.0
 40
0.193941627
 40
0.4269917573
 40
0.7021086299
 40
1.0
 40
1.0
 40
1.0
 40
1.0
 10
391.6424891198
 20
211.4361338551
 30
0.0
 10
391.6375654202
 20
211.3541961404
 30
0.0
 10
391.5629008327
 20
211.1773344996
 30
0.0
 10
391.3296705542
 20
210.9827731202
 30
0.0
 10
391.0111910083
 20
210.8508791608
 30
0.0
 10
390.7691570817
 20
210.8118230531
 30
0.0
 10
390.6431686047
 20
210.8069652246
 30
0.0
  0
SPLINE
  5
6CD
100
AcDbEntity
  8
0
100
AcDbSpline
 62
7
  6
CONTINUOUS
 70
0
 71
3
 72
8
 73
4
 74
0
 42
0.0000001
 43
0.0000001
 44
0.0000000001
 40
0.0
 40
0.0
 40
0.0
 40
0.0
 40
1.0
 40
1.0
 40
1.0
 40
1.0
 10
391.6425270692
 20
177.4225172408
 30
0.0
 10
391.642957905
 20
177.4109869531
 30
0.0
 10
391.6433946435
 20
177.3994300612
 30
0.0
 10
391.6428650295
 20
177.3879038883
 30
0.0
  0
SPLINE
  5
6CE
100
AcDbEntity
  8
0
100
AcDbSpline
 62
7
  6
CONTINUOUS
 70
0
 71
3
 72
8
 73
4
 74
0
 42
0.0000001
 43
0.0000001
 44
0.0000000001
 40
0.0
 40
0.0
 40
0.0
 40
0.0
 40
1.0
 40
1.0
 40
1.0
 40
1.0
 10
391.6424944699
 20
177.4235716602
 30
0.0
 10
391.6393676218
 20
177.5072555291
 30
0.0
 10
391.6247548243
 20
177.5911461878
 30
0.0
 10
391.6002376235
 20
177.6712191167
 30
0.0
  0
SPLINE
  5
6CF
100
AcDbEntity
  8
0
100
AcDbSpline
 62
7
  6
CONTINUOUS
 70
0
 71
3
 72
9
 73
5
 74
0
 42
0.0000001
 43
0.0000001
 44
0.0000000001
 40
0.0
 40
0.0
 40
0.0
 40
0.0
 40
0.4989090669
 40
1.0
 40
1.0
 40
1.0
 40
1.0
 10
391.4965385557
 20
177.9011419507
 30
0.0
 10
391.4085080932
 20
178.044180174
 30
0.0
 10
391.1530536567
 20
178.2883164336
 30
0.0
 10
390.811852468
 20
178.3777077386
 30
0.0
 10
390.6431686047
 20
178.3792319997
 30
0.0
  0
SPLINE
  5
6D0
100
AcDbEntity
  8
0
100
AcDbSpline
 62
7
  6
CONTINUOUS
 70
0
 71
3
 72
10
 73
6
 74
0
 42
0.0000001
 43
0.0000001
 44
0.0000000001
 40
0.0
 40
0.0
 40
0.0
 40
0.0
 40
0.2403997533
 40
0.4890166974
 40
1.0
 40
1.0
 40
1.0
 40
1.0
 10
380.6438475684
 20
167.21119238
 30
0.0
 10
380.6485695188
 20
167.0945912899
 30
0.0
 10
380.7110980965
 20
166.8570217811
 30
0.0
 10
381.0116199741
 20
166.4640328934
 30
0.0
 10
381.3951739849
 20
166.3195195695
 30
0.0
 10
381.6431686047
 20
166.3145021446
 30
0.0
  0
SPLINE
  5
6D1
100
AcDbEntity
  8
0
100
AcDbSpline
 62
7
  6
CONTINUOUS
 70
0
 71
3
 72
11
 73
7
 74
0
 42
0.0000001
 43
0.0000001
 44
0.0000000001
 40
0.0
 40
0.0
 40
0.0
 40
0.0
 40
0.2212825105
 40
0.4622150486
 40
0.7252625649
 40
1.0
 40
1.0
 40
1.0
 40
1.0
 10
380.6438480475
 20
131.1001552397
 30
0.0
 10
380.6486342596
 20
131.2020091695
 30
0.0
 10
380.7147742097
 20
131.4141638901
 30
0.0
 10
380.9451640885
 20
131.6675935085
 30
0.0
 10
381.2687823254
 20
131.83588361
 30
0.0
 10
381.516628376
 20
131.8820778054
 30
0.0
 10
381.6431686047
 20
131.8859083164
 30
0.0
  0
SPLINE
  5
6D2
100
AcDbEntity
  8
0
100
AcDbSpline
 62
7
  6
CONTINUOUS
 70
0
 71
3
 72
10
 73
6
 74
0
 42
0.0000001
 43
0.0000001
 44
0.0000000001
 40
0.0
 40
0.0
 40
0.0
 40
0.0
 40
0.240395306
 40
0.4889950596
 40
1.0
 40
1.0
 40
1.0
 40
1.0
 10
391.6424891819
 20
167.2111720379
 30
0.0
 10
391.6377656678
 20
167.0945766738
 30
0.0
 10
391.5752442968
 20
166.8570177422
 30
0.0
 10
391.2746705782
 20
166.464098356
 30
0.0
 10
390.8911663202
 20
166.3195161313
 30
0.0
 10
390.6431686047
 20
166.3145001678
 30
0.0
  0
SPLINE
  5
6D3
100
AcDbEntity
  8
0
100
AcDbSpline
 62
7
  6
CONTINUOUS
 70
0
 71
3
 72
8
 73
4
 74
0
 42
0.0000001
 43
0.0000001
 44
0.0000000001
 40
0.0
 40
0.0
 40
0.0
 40
0.0
 40
1.0
 40
1.0
 40
1.0
 40
1.0
 10
391.6425022319
 20
167.2107618745
 30
0.0
 10
391.6429892959
 20
167.2227837788
 30
0.0
 10
391.6433266304
 20
167.2348315506
 30
0.0
 10
391.6428836491
 20
167.24685516
 30
0.0
  0
SPLINE
  5
6D4
100
AcDbEntity
  8
0
100
AcDbSpline
 62
7
  6
CONTINUOUS
 70
0
 71
3
 72
8
 73
4
 74
0
 42
0.0000001
 43
0.0000001
 44
0.0000000001
 40
0.0
 40
0.0
 40
0.0
 40
0.0
 40
1.0
 40
1.0
 40
1.0
 40
1.0
 10
391.64250674
 20
131.1002545523
 30
0.0
 10
391.6430274866
 20
131.0891646875
 30
0.0
 10
391.6432807433
 20
131.0780452694
 30
0.0
 10
391.64288062
 20
131.0669503977
 30
0.0
  0
SPLINE
  5
6D5
100
AcDbEntity
  8
0
100
AcDbSpline
 62
7
  6
CONTINUOUS
 70
0
 71
3
 72
11
 73
7
 74
0
 42
0.0000001
 43
0.0000001
 44
0.0000000001
 40
0.0
 40
0.0
 40
0.0
 40
0.0
 40
0.2212931073
 40
0.4622715446
 40
0.7252948998
 40
1.0
 40
1.0
 40
1.0
 40
1.0
 10
391.6424900163
 20
131.1001115065
 30
0.0
 10
391.6377062861
 20
131.201979476
 30
0.0
 10
391.5715488485
 20
131.4141666107
 30
0.0
 10
391.3412412254
 20
131.6677215705
 30
0.0
 10
391.0175735159
 20
131.8360580233
 30
0.0
 10
390.7697050761
 20
131.8820658048
 30
0.0
 10
390.6431686047
 20
131.8858982547
 30
0.0
  0
SPLINE
  5
6D6
100
AcDbEntity
  8
0
100
AcDbSpline
 62
7
  6
CONTINUOUS
 70
0
 71
3
 72
11
 73
7
 74
0
 42
0.0000001
 43
0.0000001
 44
0.0000000001
 40
0.0
 40
0.0
 40
0.0
 40
0.0
 40
0.1543882915
 40
0.3791290953
 40
0.671543256
 40
1.0
 40
1.0
 40
1.0
 40
1.0
 10
380.6438477188
 20
91.5440066456
 30
0.0
 10
380.6491677526
 20
91.6027475608
 30
0.0
 10
380.7415948635
 20
91.7327196637
 30
0.0
 10
380.9694987827
 20
91.8529772937
 30
0.0
 10
381.2813944759
 20
91.9447080786
 30
0.0
 10
381.5178121713
 20
91.9744529878
 30
0.0
 10
381.6431686047
 20
91.9800457119
 30
0.0
  0
SPLINE
  5
6D7
100
AcDbEntity
  8
0
100
AcDbSpline
 62
7
  6
CONTINUOUS
 70
0
 71
3
 72
9
 73
5
 74
0
 42
0.0000001
 43
0.0000001
 44
0.0000000001
 40
0.0
 40
0.0
 40
0.0
 40
0.0
 40
0.6562137128
 40
1.0
 40
1.0
 40
1.0
 40
1.0
 10
391.6425020606
 20
91.5441568496
 30
0.0
 10
391.6429540087
 20
91.5391661484
 30
0.0
 10
391.6432130387
 20
91.5315176834
 30
0.0
 10
391.642985858
 20
91.5238847255
 30
0.0
 10
391.6428817342
 20
91.5212614949
 30
0.0
  0
SPLINE
  5
6D8
100
AcDbEntity
  8
0
100
AcDbSpline
 62
7
  6
CONTINUOUS
 70
0
 71
3
 72
11
 73
7
 74
0
 42
0.0000001
 43
0.0000001
 44
0.0000000001
 40
0.0
 40
0.0
 40
0.0
 40
0.0
 40
0.1543962113
 40
0.3791633147
 40
0.6715615865
 40
1.0
 40
1.0
 40
1.0
 40
1.0
 10
391.6424898647
 20
91.5439875747
 30
0.0
 10
391.6371686327
 20
91.6027339967
 30
0.0
 10
391.5447387665
 20
91.7327178613
 30
0.0
 10
391.3168765698
 20
91.8530864494
 30
0.0
 10
391.0049449171
 20
91.9447935063
 30
0.0
 10
390.7685234614
 20
91.974440938
 30
0.0
 10
390.6431686047
 20
91.9800343891
 30
0.0
  0
SPLINE
  5
6D9
100
AcDbEntity
  8
0
100
AcDbSpline
 62
7
  6
CONTINUOUS
 70
0
 71
3
 72
14
 73
10
 74
0
 42
0.0000001
 43
0.0000001
 44
0.0000000001
 40
0.0
 40
0.0
 40
0.0
 40
0.0
 40
0.0277593884
 40
0.0893273935
 40
0.1837054667
 40
0.3079461534
 40
0.4574647993
 40
0.6273713288
 40
1.0
 40
1.0
 40
1.0
 40
1.0
 10
380.6438477188
 20
67.8171887201
 30
0.0
 10
380.6484820344
 20
67.8091483043
 30
0.0
 10
380.6832107021
 20
67.8041206868
 30
0.0
 10
380.7397106736
 20
67.7944633288
 30
0.0
 10
380.8354918752
 20
67.7895325378
 30
0.0
 10
380.9576044802
 20
67.7853919389
 30
0.0
 10
381.1062689514
 20
67.7849298436
 30
0.0
 10
381.3374674465
 20
67.789463891
 30
0.0
 10
381.5187411035
 20
67.797543207
 30
0.0
 10
381.6431686047
 20
67.8036065714
 30
0.0
  0
SPLINE
  5
6DA
100
AcDbEntity
  8
0
100
AcDbSpline
 62
7
  6
CONTINUOUS
 70
0
 71
3
 72
14
 73
10
 74
0
 42
0.0000001
 43
0.0000001
 44
0.0000000001
 40
0.0
 40
0.0
 40
0.0
 40
0.0
 40
0.0277615097
 40
0.0893243673
 40
0.1836982822
 40
0.3079369062
 40
0.4574562831
 40
0.6273657315
 40
1.0
 40
1.0
 40
1.0
 40
1.0
 10
391.6424898648
 20
67.8171730063
 30
0.0
 10
391.6378660578
 20
67.8091258276
 30
0.0
 10
391.603123996
 20
67.8040918479
 30
0.0
 10
391.5466318108
 20
67.7944796507
 30
0.0
 10
391.4508477816
 20
67.7895922333
 30
0.0
 10
391.3287390273
 20
67.7854972399
 30
0.0
 10
391.1800750991
 20
67.7850505976
 30
0.0
 10
390.9488754237
 20
67.7895281763
 30
0.0
 10
390.7675967461
 20
67.7975301022
 30
0.0
 10
390.6431686047
 20
67.8035942037
 30
0.0
  0
ENDSEC
  0
SECTION
  2
OBJECTS
  0
DICTIONARY
  5
C
100
AcDbDictionary
280
0
281
1
  3
ACAD_GROUP
350
D
  3
ACAD_MLINESTYLE
350
17
  3
ACAD_LAYOUT
350
1A
  3
ACAD_PLOTSETTINGS
350
19
  3
ACAD_PLOTSTYLENAME
350
E
  3
ACAD_TABLESTYLE
350
       6DB
  0
DICTIONARY
  5
D
102
{ACAD_REACTORS
330
C
102
}
100
AcDbDictionary
280
0
281
1
  0
ACDBDICTIONARYWDFLT
  5
E
102
{ACAD_REACTORS
330
C
102
}
100
AcDbDictionary
281
1
  3
Normal
350
F
100
AcDbDictionaryWithDefault
340
F
  0
DICTIONARY
  5
17
102
{ACAD_REACTORS
330
C
102
}
100
AcDbDictionary
280
0
281
1
  3
Standard
350
18
  0
DICTIONARY
  5
6DB
330
C
100
AcDbDictionary
281
1
  3
Standard
350
       6DE
  3
Standard1
350
       6DF
  0
DICTIONARY
  5
19
102
{ACAD_REACTORS
330
C
102
}
100
AcDbDictionary
281
1
  0
DICTIONARY
  5
1A
102
{ACAD_REACTORS
330
C
102
}
100
AcDbDictionary
281
1
  3
Model
350
6DC
  3
Layout1
350
6DD
  0
ACDBPLACEHOLDER
  5
F
102
{ACAD_REACTORS
330
E
102
}
  0
MLINESTYLE
  5
18
102
{ACAD_REACTORS
330
17
102
}
100
AcDbMlineStyle
  2
STANDARD
 70
0
  3

 62
256
 51
90.0
 52
90.0
 71
2
 49
0.5
 62
256
  6
BYLAYER
 49
-0.5
 62
256
  6
BYLAYER
  0
LAYOUT
  5
6DC
102
{ACAD_REACTORS
330
1A
102
}
100
AcDbPlotSettings
  1

  2
none_device
  4
ISO_A2_(594.00_x_420.00_MM)
  6

 40
0.0
 41
0.0
 42
0.0
 43
0.0
 44
594.0
 45
420.0
 46
0.0
 47
0.0
 48
0.0
 49
0.0
140
0.0
141
0.0
142
1.0
143
1.0
 70
1024
 72
1
 73
0
 74
0
  7

 75
0
147
1.0
148
0.0
149
0.0
100
AcDbLayout
  1
Model
 70
0
 71
0
 10
0.0
 20
0.0
 11
594.0
 21
420.0
 12
0.0
 22
0.0
 32
0.0
 14
0.0
 24
0.0
 34
0.0
 15
0.0
 25
0.0
 35
0.0
146
0.0
 13
0.0
 23
0.0
 33
0.0
 16
1.0
 26
0.0
 36
0.0
 17
0.0
 27
1.0
 37
0.0
 76
0
330
211
345
0
346
0
  0
LAYOUT
  5
6DD
102
{ACAD_REACTORS
330
1A
102
}
100
AcDbPlotSettings
  1

  2
none_device
  4
ISO_A2_(594.00_x_420.00_MM)
  6

 40
0.0
 41
0.0
 42
0.0
 43
0.0
 44
594.0
 45
420.0
 46
0.0
 47
0.0
 48
0.0
 49
0.0
140
0.0
141
0.0
142
1.0
143
1.0
 70
0
 72
1
 73
0
 74
0
  7

 75
0
147
1.0
148
0.0
149
0.0
100
AcDbLayout
  1
Layout1
 70
0
 71
1
 10
0.0
 20
0.0
 11
594.0
 21
420.0
 12
0.0
 22
0.0
 32
0.0
 14
0.0
 24
0.0
 34
0.0
 15
0.0
 25
0.0
 35
0.0
146
0.0
 13
0.0
 23
0.0
 33
0.0
 16
1.0
 26
0.0
 36
0.0
 17
0.0
 27
1.0
 37
0.0
 76
0
330
212
345
0
346
0
  0
TABLESTYLE
  5
6DE
102
{ACAD_REACTORS
330
6DB
330
346
102
}
330
6DB
100
AcDbTableStyle
  3
Standard
 70
0
 71
0
 40
0.06
 41
0.06
280
1
281
1
  7
Standard
140
0.18
170
1
 62
0
 63
7
283
0
  7
Standard
140
0.18
170
1
 62
0
 63
7
283
0
  7
Standard
140
0.18
170
1
 62
0
 63
7
283
0
  0
TABLESTYLE
  5
6DF
102
{ACAD_REACTORS
330
6DB
102
}
330
6DB
100
AcDbTableStyle
  3
Standard1
 70
1
 71
0
 40
0.06
 41
0.06
280
1
281
1
  7
Standard
140
0.18
170
1
 62
0
 63
7
283
0
  7
Standard
140
0.18
170
1
 62
0
 63
7
283
0
  7
Standard
140
0.18
170
1
 62
0
 63
7
283
0
  0
ENDSEC
  0
EOF
