999
DXF file: G:\afd20\200100-Web\Chains\uni 1700\2D-DXF\Sprockets\uni_1700_z12_2w_1r_1p_hub63.dxf
999
Pro/ENGINEER 2015290 by Parametric Technology Corporation
  0
SECTION
  2
HEADER
  9
$ACADVER
  1
AC1027
  9
$DWGCODEPAGE
  3
ANSI_1252
  9
$EXTMAX
 10
420.0
 20
297.0
 30
0.0
  9
$EXTMIN
 10
0.0
 20
0.0
 30
0.0
  9
$LIMMIN
 10
0.0
 20
0.0
  9
$LIMMAX
 10
420.0
 20
297.0
  9
$VIEWCTR
 10
210.0
 20
148.5
  9
$VIEWSIZE
 40
297.0
  9
$CLAYER
  8
0
  9
$LTSCALE
 40
23.1
  9
$CELTYPE
  6
BYLAYER
  9
$DIMSCALE
 40
1.0
  9
$DIMASZ
 40
3.5
  9
$DIMEXO
 40
1.0
  9
$DIMDLI
 40
15.96
  9
$DIMEXE
 40
2.0
  9
$DIMCEN
 40
3.78
  9
$DIMLFAC
 40
1.0
  9
$DIMBLK
  1
_FILLED
  9
$DIMALT
 70
0
  9
$DIMALTF
 40
0.0393700787
  9
$DIMTXT
 40
3.5
  9
$DIMTOL
 70
1
  9
$DIMLIM
 70
0
  9
$DIMTFAC
 40
1.0
  9
$DIMTP
 40
0.01
  9
$DIMTM
 40
0.01
  9
$DIMGAP
 40
0.625
  9
$DIMDSEP
 70
46
  9
$AUNITS
 70
0
  9
$PDMODE
 70
3
  9
$PDSIZE
 40
0.3125
  9
$HANDSEED
  5
6B6
  9
$TILEMODE
 70
1
  9
$MEASUREMENT
 70
1
  9
$INSUNITS
 70
4
  0
ENDSEC
  0
SECTION
  2
CLASSES
  0
CLASS
  1
ACDBDICTIONARYWDFLT
  2
AcDbDictionaryWithDefault
  3
AutoCAD 2000
 90
0
 91
1
280
0
281
0
  0
CLASS
  1
ACDBPLACEHOLDER
  2
AcDbPlaceHolder
  3
AutoCAD 2000
 90
0
 91
1
280
0
281
0
  0
CLASS
  1
LAYOUT
  2
AcDbLayout
  3
AutoCAD 2000
 90
0
 91
0
280
0
281
0
  0
CLASS
  1
TABLESTYLE
  2
AcDbTableStyle
  3
ObjectDBX Classes
 90
2047
 91
1
280
0
281
0
  0
CLASS
  1
ACAD_TABLE
  2
AcDbTable
  3
ObjectDBX Classes
 90
1025
 91
1
280
0
281
1
  0
ENDSEC
  0
SECTION
  2
TABLES
  0
TABLE
  2
VPORT
  5
8
100
AcDbSymbolTable
 70
2
  0
VPORT
  5
1F4
100
AcDbSymbolTableRecord
100
AcDbViewportTableRecord
  2
*ACTIVE
 70
0
 10
0.0
 20
0.0
 11
1.0
 21
1.0
 12
210.0
 22
148.5
 13
0.0
 23
0.0
 14
1.0
 24
1.0
 15
0.0
 25
0.0
 16
0.0
 26
0.0
 36
1.0
 17
0.0
 27
0.0
 37
0.0
 40
297.0
 41
1.4141414141
 42
50.0
 43
0.0
 44
0.0
 50
0.0
 51
0.0
 71
0
 72
100
 73
1
 74
1
 75
0
 76
0
 77
0
 78
0
  0
ENDTAB
  0
TABLE
  2
LTYPE
  5
5
100
AcDbSymbolTable
 70
6
  0
LTYPE
  5
14
100
AcDbSymbolTableRecord
100
AcDbLinetypeTableRecord
  2
BYBLOCK
 70
0
  3

 72
65
 73
0
 40
0.0
  0
LTYPE
  5
15
100
AcDbSymbolTableRecord
100
AcDbLinetypeTableRecord
  2
BYLAYER
 70
0
  3

 72
65
 73
0
 40
0.0
  0
LTYPE
  5
16
100
AcDbSymbolTableRecord
100
AcDbLinetypeTableRecord
  2
CONTINUOUS
 70
64
  3
Solid line
 72
65
 73
0
 40
0.0
  0
LTYPE
  5
1F5
100
AcDbSymbolTableRecord
100
AcDbLinetypeTableRecord
  2
CENTER
 70
64
  3
____ _ ____ _ ____ _ ____ _ ____ _ ____ _ ____
 72
65
 73
4
 40
0.6
 49
0.375
 74
0
 49
-0.075
 74
0
 49
0.075
 74
0
 49
-0.075
 74
0
  0
LTYPE
  5
1F6
100
AcDbSymbolTableRecord
100
AcDbLinetypeTableRecord
  2
HIDDEN
 70
64
  3
- - - - - - - - - - - - - - - - - - - -
 72
65
 73
2
 40
0.2
 49
0.1
 74
0
 49
-0.1
 74
0
  0
LTYPE
  5
1F7
100
AcDbSymbolTableRecord
100
AcDbLinetypeTableRecord
  2
PHANTOM
 70
64
  3
_____ _ _ _____ _ _ _____ _ _ _____
 72
65
 73
6
 40
0.8
 49
0.45
 74
0
 49
-0.05
 74
0
 49
0.1
 74
0
 49
-0.05
 74
0
 49
0.1
 74
0
 49
-0.05
 74
0
  0
LTYPE
  5
1F8
100
AcDbSymbolTableRecord
100
AcDbLinetypeTableRecord
  2
DOT
 70
64
  3
. . . . . . . . . . . . . . . . . . . .
 72
65
 73
2
 40
0.2
 49
0.1
 74
0
 49
-0.1
 74
0
  0
LTYPE
  5
1F9
100
AcDbSymbolTableRecord
100
AcDbLinetypeTableRecord
  2
DASHED
 70
64
  3
- - - - - - - - - - - - - - - - - - - -
 72
65
 73
2
 40
0.2
 49
0.1
 74
0
 49
-0.1
 74
0
  0
ENDTAB
  0
TABLE
  2
LAYER
  5
2
100
AcDbSymbolTable
 70
36
  0
LAYER
  5
10
100
AcDbSymbolTableRecord
100
AcDbLayerTableRecord
  2
0
 70
0
 62
7
  6
CONTINUOUS
370
-3
390
F
  0
LAYER
  5
1FA
100
AcDbSymbolTableRecord
100
AcDbLayerTableRecord
  2
DEFAULT_1
 70
0
 62
7
  6
CENTER
370
-3
390
F
  0
LAYER
  5
1FB
100
AcDbSymbolTableRecord
100
AcDbLayerTableRecord
  2
DEFAULT_2
 70
0
 62
8
  6
HIDDEN
370
-3
390
F
  0
LAYER
  5
1FC
100
AcDbSymbolTableRecord
100
AcDbLayerTableRecord
  2
DEFAULT_3
 70
0
 62
7
  6
PHANTOM
370
-3
390
F
  0
LAYER
  5
1FD
100
AcDbSymbolTableRecord
100
AcDbLayerTableRecord
  2
1_AXIS
 70
0
 62
7
  6
CONTINUOUS
370
-3
390
F
  0
LAYER
  5
1FE
100
AcDbSymbolTableRecord
100
AcDbLayerTableRecord
  2
1_DATUM_PLANE
 70
0
 62
7
  6
CONTINUOUS
370
-3
390
F
  0
LAYER
  5
1FF
100
AcDbSymbolTableRecord
100
AcDbLayerTableRecord
  2
2_FEATURE
 70
0
 62
7
  6
CONTINUOUS
370
-3
390
F
  0
LAYER
  5
200
100
AcDbSymbolTableRecord
100
AcDbLayerTableRecord
  2
4_QUILT
 70
0
 62
7
  6
CONTINUOUS
370
-3
390
F
  0
LAYER
  5
201
100
AcDbSymbolTableRecord
100
AcDbLayerTableRecord
  2
6_DIM
 70
0
 62
7
  6
CONTINUOUS
370
-3
390
F
  0
LAYER
  5
202
100
AcDbSymbolTableRecord
100
AcDbLayerTableRecord
  2
AXES
 70
0
 62
7
  6
CONTINUOUS
370
-3
390
F
  0
LAYER
  5
203
100
AcDbSymbolTableRecord
100
AcDbLayerTableRecord
  2
CSYS
 70
0
 62
7
  6
CONTINUOUS
370
-3
390
F
  0
LAYER
  5
204
100
AcDbSymbolTableRecord
100
AcDbLayerTableRecord
  2
CURVES
 70
0
 62
7
  6
CONTINUOUS
370
-3
390
F
  0
LAYER
  5
205
100
AcDbSymbolTableRecord
100
AcDbLayerTableRecord
  2
NOTES
 70
0
 62
7
  6
CONTINUOUS
370
-3
390
F
  0
LAYER
  5
206
100
AcDbSymbolTableRecord
100
AcDbLayerTableRecord
  2
PLANES
 70
0
 62
7
  6
CONTINUOUS
370
-3
390
F
  0
LAYER
  5
207
100
AcDbSymbolTableRecord
100
AcDbLayerTableRecord
  2
QUILTS
 70
0
 62
7
  6
CONTINUOUS
370
-3
390
F
  0
LAYER
  5
208
100
AcDbSymbolTableRecord
100
AcDbLayerTableRecord
  2
SQ-MACHINED
 70
0
 62
7
  6
CONTINUOUS
370
-3
390
F
  0
ENDTAB
  0
TABLE
  2
STYLE
  5
3
100
AcDbSymbolTable
 70
1
  0
STYLE
  5
11
100
AcDbSymbolTableRecord
100
AcDbTextStyleTableRecord
  2
STANDARD
 70
0
 40
0.0
 41
0.8
 50
0.0
 71
0
 42
0.2
  3
txt
  4

  0
STYLE
  5
209
100
AcDbSymbolTableRecord
100
AcDbTextStyleTableRecord
  2
TEXTSTYLE_1
 70
0
 40
0.0
 41
0.8
 50
0.0
 71
0
 42
0.2
  3
gdt
  4

  0
STYLE
  5
20A
100
AcDbSymbolTableRecord
100
AcDbTextStyleTableRecord
  2
TEXTSTYLE_2
 70
0
 40
0.0
 41
0.6
 50
0.0
 71
0
 42
0.2
  3
txt
  4

  0
STYLE
  5
20B
100
AcDbSymbolTableRecord
100
AcDbTextStyleTableRecord
  2
TEXTSTYLE_3
 70
0
 40
0.0
 41
1.0
 50
0.0
 71
0
 42
0.2
  3
ftb_____.ttf
  4

  0
STYLE
  5
20C
100
AcDbSymbolTableRecord
100
AcDbTextStyleTableRecord
  2
TEXTSTYLE_4
 70
0
 40
0.0
 41
1.0
 50
0.0
 71
0
 42
0.2
  3
fti_____.ttf
  4

  0
STYLE
  5
20D
100
AcDbSymbolTableRecord
100
AcDbTextStyleTableRecord
  2
TEXTSTYLE_5
 70
0
 40
0.0
 41
1.0
 50
0.0
 71
0
 42
0.2
  3
frutiger light.ttf
  4

  0
STYLE
  5
20E
100
AcDbSymbolTableRecord
100
AcDbTextStyleTableRecord
  2
TEXTSTYLE_6
 70
0
 40
0.0
 41
0.7
 50
0.0
 71
0
 42
0.2
  3
txt
  4

  0
STYLE
  5
20F
100
AcDbSymbolTableRecord
100
AcDbTextStyleTableRecord
  2
TEXTSTYLE_7
 70
0
 40
0.0
 41
0.8
 50
0.0
 71
0
 42
0.2
  3
txt
  4

  0
ENDTAB
  0
TABLE
  2
VIEW
  5
6
100
AcDbSymbolTable
 70
0
  0
ENDTAB
  0
TABLE
  2
UCS
  5
7
100
AcDbSymbolTable
 70
0
  0
ENDTAB
  0
TABLE
  2
APPID
  5
9
100
AcDbSymbolTable
 70
1
  0
APPID
  5
210
100
AcDbSymbolTableRecord
100
AcDbRegAppTableRecord
  2
ACAD
 70
0
  0
ENDTAB
  0
TABLE
  2
BLOCK_RECORD
  5
1
100
AcDbSymbolTable
 70
0
  0
BLOCK_RECORD
  5
211
100
AcDbSymbolTableRecord
100
AcDbBlockTableRecord
  2
*Model_Space
  0
BLOCK_RECORD
  5
212
100
AcDbSymbolTableRecord
100
AcDbBlockTableRecord
  2
*Paper_Space
  0
BLOCK_RECORD
  5
213
100
AcDbSymbolTableRecord
100
AcDbBlockTableRecord
  2
UNI_LOGO2_BL1
  0
BLOCK_RECORD
  5
214
100
AcDbSymbolTableRecord
100
AcDbBlockTableRecord
  2
AMMEAAL_LOGO_BL0
  0
BLOCK_RECORD
  5
215
100
AcDbSymbolTableRecord
100
AcDbBlockTableRecord
  2
*T1
  0
ENDTAB
  0
TABLE
  2
DIMSTYLE
  5
A
100
AcDbSymbolTable
 70
1
100
AcDbDimStyleTable
 71
0
  0
DIMSTYLE
105
216
100
AcDbSymbolTableRecord
100
AcDbDimStyleTableRecord
  2
STANDARD
 70
0
  3

  4

 40
1.0
 41
3.5
 42
1.0
 43
0.38
 44
2.0
 45
0.0
 46
0.0
 47
0.01
 48
0.01
140
3.5
141
0.09
142
0.0
143
25.4
144
1.0
145
0.0
146
1.0
147
0.625
 71
1.0
 72
0.0
 73
0
 74
0
 75
0
 76
0
 77
1
 78
0
170
0
171
2
172
0
173
0
174
0
175
0
176
0
177
0
178
0
270
2
271
2
272
2
273
2
274
2
275
0
280
0
281
0
282
0
283
1
284
0
285
0
286
0
287
3
288
0
340
11
278
46
  0
ENDTAB
  0
ENDSEC
  0
SECTION
  2
BLOCKS
  0
BLOCK
  5
20
100
AcDbEntity
  8
0
100
AcDbBlockBegin
  2
*Model_Space
 70
0
 10
0.0
 20
0.0
 30
0.0
  3
*Model_Space
  1

  0
ENDBLK
  5
21
100
AcDbEntity
  8
0
100
AcDbBlockEnd
  0
BLOCK
  5
1C
100
AcDbEntity
  8
0
100
AcDbBlockBegin
  2
*Paper_Space
 70
0
 10
0.0
 20
0.0
 30
0.0
  3
*Paper_Space
  1

  0
ENDBLK
  5
1D
100
AcDbEntity
  8
0
100
AcDbBlockEnd
  0
BLOCK
  5
217
100
AcDbEntity
  8
0
100
AcDbBlockBegin
 62
2
  6
CONTINUOUS
  2
UNI_LOGO2_BL1
 70
64
 10
382.3920721743
 20
35.81661148
  3
UNI_LOGO2_BL1
  1

  0
TEXT
  5
218
100
AcDbEntity
  8
0
100
AcDbText
 62
7
  6
CONTINUOUS
 10
373.4503571828
 20
30.9093678571
  7
TEXTSTYLE_4
 40
1.0655737705
  1
The brand for plastic modular belts and chains
 41
1.0
 72
0
100
AcDbText
  0
LINE
  5
219
100
AcDbEntity
  8
0
100
AcDbLine
 62
7
  6
CONTINUOUS
 10
358.3701405634
 20
36.3903819718
 11
358.3701405634
 21
34.2592344308
  0
LINE
  5
21A
100
AcDbEntity
  8
0
100
AcDbLine
 62
7
  6
CONTINUOUS
 10
358.6592030565
 20
31.2683031351
 11
358.6592030565
 21
31.3650941944
  0
LINE
  5
21B
100
AcDbEntity
  8
0
100
AcDbLine
 62
7
  6
CONTINUOUS
 10
358.3701405634
 20
31.332830508
 11
358.4279530651
 21
31.1392483894
  0
LINE
  5
21C
100
AcDbEntity
  8
0
100
AcDbLine
 62
7
  6
CONTINUOUS
 10
359.7635831863
 20
34.1772672177
 11
359.7635831863
 21
36.3903819718
  0
LINE
  5
21D
100
AcDbEntity
  8
0
100
AcDbLine
 62
7
  6
CONTINUOUS
 10
360.6826405082
 20
32.3330049227
 11
360.6826405082
 21
30.81661148
  0
LINE
  5
21E
100
AcDbEntity
  8
0
100
AcDbLine
 62
7
  6
CONTINUOUS
 10
360.9717030634
 20
30.81661148
 11
360.9717030634
 21
31.5586763581
  0
LINE
  5
21F
100
AcDbEntity
  8
0
100
AcDbLine
 62
7
  6
CONTINUOUS
 10
360.9717030634
 20
31.6877311038
 11
360.9717030634
 21
32.3330049227
  0
LINE
  5
220
100
AcDbEntity
  8
0
100
AcDbLine
 62
7
  6
CONTINUOUS
 10
358.4279530651
 20
31.5264126717
 11
358.3701405634
 21
31.332830508
  0
LINE
  5
221
100
AcDbEntity
  8
0
100
AcDbLine
 62
7
  6
CONTINUOUS
 10
358.7748280496
 20
31.106984703
 11
358.6592030565
 21
31.2683031351
  0
LINE
  5
222
100
AcDbEntity
  8
0
100
AcDbLine
 62
7
  6
CONTINUOUS
 10
359.8732656185
 20
31.623203731
 11
359.9310780634
 21
31.5264126717
  0
LINE
  5
223
100
AcDbEntity
  8
0
100
AcDbLine
 62
7
  6
CONTINUOUS
 10
360.2201406185
 20
31.5264126717
 11
360.1623280082
 21
31.6554674174
  0
LINE
  5
224
100
AcDbEntity
  8
0
100
AcDbLine
 62
7
  6
CONTINUOUS
 10
361.648829088
 20
36.3903819718
 11
361.648829088
 21
34.5871032833
  0
LINE
  5
225
100
AcDbEntity
  8
0
100
AcDbLine
 62
7
  6
CONTINUOUS
 10
361.648829088
 20
33.2756278735
 11
361.648829088
 21
32.6198901686
  0
LINE
  5
226
100
AcDbEntity
  8
0
100
AcDbLine
 62
7
  6
CONTINUOUS
 10
362.0123280634
 20
31.4618852989
 11
362.0123280634
 21
30.81661148
  0
LINE
  5
227
100
AcDbEntity
  8
0
100
AcDbLine
 62
7
  6
CONTINUOUS
 10
362.3013904531
 20
30.81661148
 11
362.3013904531
 21
31.4618852989
  0
LINE
  5
228
100
AcDbEntity
  8
0
100
AcDbLine
 62
7
  6
CONTINUOUS
 10
358.6592030565
 20
31.3650941944
 11
358.7170155634
 21
31.4941489853
  0
LINE
  5
229
100
AcDbEntity
  8
0
100
AcDbLine
 62
7
  6
CONTINUOUS
 10
358.4279530651
 20
31.1392483894
 11
358.5435780634
 21
31.0101936212
  0
LINE
  5
22A
100
AcDbEntity
  8
0
100
AcDbLine
 62
7
  6
CONTINUOUS
 10
361.9545154531
 20
31.5909400446
 11
362.0123280634
 21
31.4618852989
  0
LINE
  5
22B
100
AcDbEntity
  8
0
100
AcDbLine
 62
7
  6
CONTINUOUS
 10
362.7638906736
 20
31.106984703
 11
362.8217029531
 21
30.9779299347
  0
LINE
  5
22C
100
AcDbEntity
  8
0
100
AcDbLine
 62
7
  6
CONTINUOUS
 10
362.3013904531
 20
31.4618852989
 11
362.2435781736
 21
31.623203731
  0
LINE
  5
22D
100
AcDbEntity
  8
0
100
AcDbLine
 62
7
  6
CONTINUOUS
 10
362.7638906736
 20
31.6554674174
 11
362.7638906736
 21
31.5909400446
  0
LINE
  5
22E
100
AcDbEntity
  8
0
100
AcDbLine
 62
7
  6
CONTINUOUS
 10
362.7638906736
 20
31.2037757623
 11
362.7638906736
 21
31.106984703
  0
LINE
  5
22F
100
AcDbEntity
  8
0
100
AcDbLine
 62
7
  6
CONTINUOUS
 10
363.0422717109
 20
32.6198901686
 11
363.0422717109
 21
36.3903819718
  0
LINE
  5
230
100
AcDbEntity
  8
0
100
AcDbLine
 62
7
  6
CONTINUOUS
 10
363.0529530634
 20
31.074720994
 11
363.0529530634
 21
31.1392483894
  0
LINE
  5
231
100
AcDbEntity
  8
0
100
AcDbLine
 62
7
  6
CONTINUOUS
 10
363.3701405634
 20
36.3903819718
 11
363.3701405634
 21
32.6198901686
  0
LINE
  5
232
100
AcDbEntity
  8
0
100
AcDbLine
 62
7
  6
CONTINUOUS
 10
360.1623280082
 20
31.0101936212
 11
360.2201406185
 21
31.1392483894
  0
LINE
  5
233
100
AcDbEntity
  8
0
100
AcDbLine
 62
7
  6
CONTINUOUS
 10
364.5560782839
 20
30.9134025506
 11
364.4982653428
 21
31.074720994
  0
LINE
  5
234
100
AcDbEntity
  8
0
100
AcDbLine
 62
7
  6
CONTINUOUS
 10
364.2092032839
 20
31.5909400446
 11
364.2092032839
 21
31.4941489853
  0
LINE
  5
235
100
AcDbEntity
  8
0
100
AcDbLine
 62
7
  6
CONTINUOUS
 10
364.2092032839
 20
31.3650941944
 11
364.2092032839
 21
31.1715120759
  0
LINE
  5
236
100
AcDbEntity
  8
0
100
AcDbLine
 62
7
  6
CONTINUOUS
 10
364.4982653428
 20
31.074720994
 11
364.4982653428
 21
31.5909400446
  0
LINE
  5
237
100
AcDbEntity
  8
0
100
AcDbLine
 62
7
  6
CONTINUOUS
 10
364.7635831863
 20
32.6198901686
 11
364.7635831863
 21
34.4231688571
  0
LINE
  5
238
100
AcDbEntity
  8
0
100
AcDbLine
 62
7
  6
CONTINUOUS
 10
364.7635831863
 20
35.7346442669
 11
364.7635831863
 21
36.3903819718
  0
LINE
  5
239
100
AcDbEntity
  8
0
100
AcDbLine
 62
7
  6
CONTINUOUS
 10
365.0763907839
 20
32.3330049227
 11
365.0763907839
 21
32.1716864905
  0
LINE
  5
23A
100
AcDbEntity
  8
0
100
AcDbLine
 62
7
  6
CONTINUOUS
 10
365.0763907839
 20
31.8490495359
 11
365.0763907839
 21
30.81661148
  0
LINE
  5
23B
100
AcDbEntity
  8
0
100
AcDbLine
 62
7
  6
CONTINUOUS
 10
365.3654528428
 20
30.81661148
 11
365.3654528428
 21
31.8490495359
  0
LINE
  5
23C
100
AcDbEntity
  8
0
100
AcDbLine
 62
7
  6
CONTINUOUS
 10
365.3654528428
 20
32.1716864905
 11
365.3654528428
 21
32.3330049227
  0
LINE
  5
23D
100
AcDbEntity
  8
0
100
AcDbLine
 62
7
  6
CONTINUOUS
 10
359.9310780634
 20
31.1392483894
 11
359.8732656185
 21
31.0424573076
  0
LINE
  5
23E
100
AcDbEntity
  8
0
100
AcDbLine
 62
7
  6
CONTINUOUS
 10
362.2435781736
 20
31.623203731
 11
362.1857655634
 21
31.6877311038
  0
LINE
  5
23F
100
AcDbEntity
  8
0
100
AcDbLine
 62
7
  6
CONTINUOUS
 10
363.1107656736
 20
31.0101936212
 11
363.0529530634
 21
31.074720994
  0
LINE
  5
240
100
AcDbEntity
  8
0
100
AcDbLine
 62
7
  6
CONTINUOUS
 10
364.2670155634
 20
30.8811388585
 11
364.3248278428
 21
30.81661148
  0
LINE
  5
241
100
AcDbEntity
  8
0
100
AcDbLine
 62
7
  6
CONTINUOUS
 10
364.2092032839
 20
30.9779299347
 11
364.2670155634
 21
30.8811388585
  0
LINE
  5
242
100
AcDbEntity
  8
0
100
AcDbLine
 62
7
  6
CONTINUOUS
 10
364.6138905634
 20
30.81661148
 11
364.5560782839
 21
30.9134025506
  0
LINE
  5
243
100
AcDbEntity
  8
0
100
AcDbLine
 62
7
  6
CONTINUOUS
 10
364.4982653428
 20
31.5909400446
 11
364.4404530634
 21
31.6877311038
  0
LINE
  5
244
100
AcDbEntity
  8
0
100
AcDbLine
 62
7
  6
CONTINUOUS
 10
365.8279530634
 20
31.8490495359
 11
365.8279530634
 21
30.81661148
  0
LINE
  5
245
100
AcDbEntity
  8
0
100
AcDbLine
 62
7
  6
CONTINUOUS
 10
366.1170157839
 20
30.81661148
 11
366.1170157839
 21
31.5586763581
  0
LINE
  5
246
100
AcDbEntity
  8
0
100
AcDbLine
 62
7
  6
CONTINUOUS
 10
366.1170157839
 20
31.6877311038
 11
366.1170157839
 21
31.8490495359
  0
LINE
  5
247
100
AcDbEntity
  8
0
100
AcDbLine
 62
7
  6
CONTINUOUS
 10
366.648829088
 20
34.8330049227
 11
366.648829088
 21
32.6198901686
  0
LINE
  5
248
100
AcDbEntity
  8
0
100
AcDbLine
 62
7
  6
CONTINUOUS
 10
358.5435780634
 20
31.6554674174
 11
358.4279530651
 21
31.5264126717
  0
LINE
  5
249
100
AcDbEntity
  8
0
100
AcDbLine
 62
7
  6
CONTINUOUS
 10
358.7170155634
 20
31.4941489853
 11
358.7748280496
 21
31.5586763581
  0
LINE
  5
24A
100
AcDbEntity
  8
0
100
AcDbLine
 62
7
  6
CONTINUOUS
 10
358.5435780634
 20
31.0101936212
 11
358.6592030565
 21
30.945666237
  0
LINE
  5
24B
100
AcDbEntity
  8
0
100
AcDbLine
 62
7
  6
CONTINUOUS
 10
358.9482655496
 20
31.0101936212
 11
358.7748280496
 21
31.106984703
  0
LINE
  5
24C
100
AcDbEntity
  8
0
100
AcDbLine
 62
7
  6
CONTINUOUS
 10
364.1513903428
 20
31.6554674174
 11
364.2092032839
 21
31.5909400446
  0
LINE
  5
24D
100
AcDbEntity
  8
0
100
AcDbLine
 62
7
  6
CONTINUOUS
 10
367.0998278428
 20
31.5909400446
 11
367.1576407839
 21
31.4296216124
  0
LINE
  5
24E
100
AcDbEntity
  8
0
100
AcDbLine
 62
7
  6
CONTINUOUS
 10
367.4467028428
 20
31.4296216124
 11
367.3888905634
 21
31.5909400446
  0
LINE
  5
24F
100
AcDbEntity
  8
0
100
AcDbLine
 62
7
  6
CONTINUOUS
 10
367.1576407839
 20
31.4296216124
 11
367.1576407839
 21
30.81661148
  0
LINE
  5
250
100
AcDbEntity
  8
0
100
AcDbLine
 62
7
  6
CONTINUOUS
 10
367.4467028428
 20
30.81661148
 11
367.4467028428
 21
31.4296216124
  0
LINE
  5
251
100
AcDbEntity
  8
0
100
AcDbLine
 62
7
  6
CONTINUOUS
 10
367.9092030634
 20
31.6554674174
 11
367.9092030634
 21
31.5909400446
  0
LINE
  5
252
100
AcDbEntity
  8
0
100
AcDbLine
 62
7
  6
CONTINUOUS
 10
368.0422717109
 20
32.6198901686
 11
368.0422717109
 21
34.7510377095
  0
LINE
  5
253
100
AcDbEntity
  8
0
100
AcDbLine
 62
7
  6
CONTINUOUS
 10
368.3701405634
 20
36.3903819718
 11
368.3701405634
 21
32.6198901686
  0
LINE
  5
254
100
AcDbEntity
  8
0
100
AcDbLine
 62
7
  6
CONTINUOUS
 10
363.0529530634
 20
31.1392483894
 11
363.1107656736
 21
31.2360394487
  0
LINE
  5
255
100
AcDbEntity
  8
0
100
AcDbLine
 62
7
  6
CONTINUOUS
 10
358.6592030565
 20
30.945666237
 11
358.8326405772
 21
30.8811388585
  0
LINE
  5
256
100
AcDbEntity
  8
0
100
AcDbLine
 62
7
  6
CONTINUOUS
 10
360.1623280082
 20
31.6554674174
 11
359.9888905082
 21
31.7522584767
  0
LINE
  5
257
100
AcDbEntity
  8
0
100
AcDbLine
 62
7
  6
CONTINUOUS
 10
362.8217029531
 20
30.9779299347
 11
362.9951404531
 21
30.8811388585
  0
LINE
  5
258
100
AcDbEntity
  8
0
100
AcDbLine
 62
7
  6
CONTINUOUS
 10
361.8388905634
 20
31.6554674174
 11
361.9545154531
 21
31.5909400446
  0
LINE
  5
259
100
AcDbEntity
  8
0
100
AcDbLine
 62
7
  6
CONTINUOUS
 10
362.1857655634
 20
31.6877311038
 11
362.0701406736
 21
31.7522584767
  0
LINE
  5
25A
100
AcDbEntity
  8
0
100
AcDbLine
 62
7
  6
CONTINUOUS
 10
367.9092030634
 20
31.074720994
 11
368.0248282839
 21
30.945666237
  0
LINE
  5
25B
100
AcDbEntity
  8
0
100
AcDbLine
 62
7
  6
CONTINUOUS
 10
368.2560780634
 20
31.0101936212
 11
368.1982657839
 21
31.074720994
  0
LINE
  5
25C
100
AcDbEntity
  8
0
100
AcDbLine
 62
7
  6
CONTINUOUS
 10
367.9092030634
 20
31.5909400446
 11
368.0248282839
 21
31.4618852989
  0
LINE
  5
25D
100
AcDbEntity
  8
0
100
AcDbLine
 62
7
  6
CONTINUOUS
 10
367.3888905634
 20
31.5909400446
 11
367.3310782839
 21
31.6877311038
  0
LINE
  5
25E
100
AcDbEntity
  8
0
100
AcDbLine
 62
7
  6
CONTINUOUS
 10
369.7592026223
 20
31.0101936212
 11
369.7592026223
 21
31.074720994
  0
LINE
  5
25F
100
AcDbEntity
  8
0
100
AcDbLine
 62
7
  6
CONTINUOUS
 10
369.7635831863
 20
32.6198901686
 11
369.7635831863
 21
36.3903819718
  0
LINE
  5
260
100
AcDbEntity
  8
0
100
AcDbLine
 62
7
  6
CONTINUOUS
 10
362.8217029531
 20
31.7199947902
 11
362.7638906736
 21
31.6554674174
  0
LINE
  5
261
100
AcDbEntity
  8
0
100
AcDbLine
 62
7
  6
CONTINUOUS
 10
359.6998280358
 20
31.6877311038
 11
359.8732656185
 21
31.623203731
  0
LINE
  5
262
100
AcDbEntity
  8
0
100
AcDbLine
 62
7
  6
CONTINUOUS
 10
364.4404530634
 20
31.6877311038
 11
364.3248278428
 21
31.7522584767
  0
LINE
  5
263
100
AcDbEntity
  8
0
100
AcDbLine
 62
7
  6
CONTINUOUS
 10
368.2560780634
 20
31.5264126717
 11
368.1982657839
 21
31.5909400446
  0
LINE
  5
264
100
AcDbEntity
  8
0
100
AcDbLine
 62
7
  6
CONTINUOUS
 10
369.4123282839
 20
31.1392483894
 11
369.4701405634
 21
31.074720994
  0
LINE
  5
265
100
AcDbEntity
  8
0
100
AcDbLine
 62
7
  6
CONTINUOUS
 10
369.7592026223
 20
31.074720994
 11
369.6435780634
 21
31.2037757623
  0
LINE
  5
266
100
AcDbEntity
  8
0
100
AcDbLine
 62
7
  6
CONTINUOUS
 10
369.4123282839
 20
31.6554674174
 11
369.4701405634
 21
31.5909400446
  0
LINE
  5
267
100
AcDbEntity
  8
0
100
AcDbLine
 62
7
  6
CONTINUOUS
 10
369.7592026223
 20
31.5909400446
 11
369.6435780634
 21
31.7199947902
  0
LINE
  5
268
100
AcDbEntity
  8
0
100
AcDbLine
 62
7
  6
CONTINUOUS
 10
363.0529530634
 20
31.5909400446
 11
363.1107656736
 21
31.6554674174
  0
LINE
  5
269
100
AcDbEntity
  8
0
100
AcDbLine
 62
7
  6
CONTINUOUS
 10
362.8795155634
 20
31.332830508
 11
362.7638906736
 21
31.2037757623
  0
LINE
  5
26A
100
AcDbEntity
  8
0
100
AcDbLine
 62
7
  6
CONTINUOUS
 10
364.2092032839
 20
31.1715120759
 11
364.1513903428
 21
31.106984703
  0
LINE
  5
26B
100
AcDbEntity
  8
0
100
AcDbLine
 62
7
  6
CONTINUOUS
 10
364.1513903428
 20
30.9134025506
 11
364.2092032839
 21
30.9779299347
  0
LINE
  5
26C
100
AcDbEntity
  8
0
100
AcDbLine
 62
7
  6
CONTINUOUS
 10
362.9951404531
 20
30.8811388585
 11
363.1107656736
 21
30.8488751693
  0
LINE
  5
26D
100
AcDbEntity
  8
0
100
AcDbLine
 62
7
  6
CONTINUOUS
 10
359.9888905082
 20
31.7522584767
 11
359.7576405634
 21
31.8167858495
  0
LINE
  5
26E
100
AcDbEntity
  8
0
100
AcDbLine
 62
7
  6
CONTINUOUS
 10
363.3420154531
 20
30.945666237
 11
363.1107656736
 21
31.0101936212
  0
LINE
  5
26F
100
AcDbEntity
  8
0
100
AcDbLine
 62
7
  6
CONTINUOUS
 10
362.0701406736
 20
31.7522584767
 11
361.8967031736
 21
31.8167858495
  0
LINE
  5
270
100
AcDbEntity
  8
0
100
AcDbLine
 62
7
  6
CONTINUOUS
 10
364.3248278428
 20
31.7522584767
 11
364.1513903428
 21
31.8167858495
  0
LINE
  5
271
100
AcDbEntity
  8
0
100
AcDbLine
 62
7
  6
CONTINUOUS
 10
366.9842032839
 20
31.6554674174
 11
367.0998278428
 21
31.5909400446
  0
LINE
  5
272
100
AcDbEntity
  8
0
100
AcDbLine
 62
7
  6
CONTINUOUS
 10
367.3310782839
 20
31.6877311038
 11
367.2154530634
 21
31.7522584767
  0
LINE
  5
273
100
AcDbEntity
  8
0
100
AcDbLine
 62
7
  6
CONTINUOUS
 10
358.8326405772
 20
30.8811388585
 11
359.0060780772
 21
30.8488751693
  0
LINE
  5
274
100
AcDbEntity
  8
0
100
AcDbLine
 62
7
  6
CONTINUOUS
 10
359.2951405909
 20
30.945666237
 11
358.9482655496
 21
31.0101936212
  0
LINE
  5
275
100
AcDbEntity
  8
0
100
AcDbLine
 62
7
  6
CONTINUOUS
 10
361.7232656736
 20
31.6877311038
 11
361.8388905634
 21
31.6554674174
  0
LINE
  5
276
100
AcDbEntity
  8
0
100
AcDbLine
 62
7
  6
CONTINUOUS
 10
364.0357657839
 20
31.6877311038
 11
364.1513903428
 21
31.6554674174
  0
LINE
  5
277
100
AcDbEntity
  8
0
100
AcDbLine
 62
7
  6
CONTINUOUS
 10
368.3717032839
 20
30.9779299347
 11
368.2560780634
 21
31.0101936212
  0
LINE
  5
278
100
AcDbEntity
  8
0
100
AcDbLine
 62
7
  6
CONTINUOUS
 10
366.8685780634
 20
31.6877311038
 11
366.9842032839
 21
31.6554674174
  0
LINE
  5
279
100
AcDbEntity
  8
0
100
AcDbLine
 62
7
  6
CONTINUOUS
 10
368.0248282839
 20
30.945666237
 11
368.1982657839
 21
30.8811388585
  0
LINE
  5
27A
100
AcDbEntity
  8
0
100
AcDbLine
 62
7
  6
CONTINUOUS
 10
367.2154530634
 20
31.7522584767
 11
367.0420155634
 21
31.8167858495
  0
LINE
  5
27B
100
AcDbEntity
  8
0
100
AcDbLine
 62
7
  6
CONTINUOUS
 10
368.4295155634
 20
31.4618852989
 11
368.2560780634
 21
31.5264126717
  0
LINE
  5
27C
100
AcDbEntity
  8
0
100
AcDbLine
 62
7
  6
CONTINUOUS
 10
369.2388907839
 20
31.2037757623
 11
369.4123282839
 21
31.1392483894
  0
LINE
  5
27D
100
AcDbEntity
  8
0
100
AcDbLine
 62
7
  6
CONTINUOUS
 10
369.6435780634
 20
31.7199947902
 11
369.4701405634
 21
31.7845221631
  0
LINE
  5
27E
100
AcDbEntity
  8
0
100
AcDbLine
 62
7
  6
CONTINUOUS
 10
368.0248282839
 20
31.4618852989
 11
368.2560780634
 21
31.3650941944
  0
LINE
  5
27F
100
AcDbEntity
  8
0
100
AcDbLine
 62
7
  6
CONTINUOUS
 10
369.6435780634
 20
31.2037757623
 11
369.4123282839
 21
31.3005668216
  0
LINE
  5
280
100
AcDbEntity
  8
0
100
AcDbLine
 62
7
  6
CONTINUOUS
 10
368.1982657839
 20
31.5909400446
 11
368.2560780634
 21
31.6554674174
  0
LINE
  5
281
100
AcDbEntity
  8
0
100
AcDbLine
 62
7
  6
CONTINUOUS
 10
358.6592030565
 20
31.7199947902
 11
358.5435780634
 21
31.6554674174
  0
LINE
  5
282
100
AcDbEntity
  8
0
100
AcDbLine
 62
7
  6
CONTINUOUS
 10
358.7748280496
 20
31.5586763581
 11
358.9482655496
 21
31.6554674174
  0
LINE
  5
283
100
AcDbEntity
  8
0
100
AcDbLine
 62
7
  6
CONTINUOUS
 10
361.0873281185
 20
31.7522584767
 11
360.9717030634
 21
31.6877311038
  0
LINE
  5
284
100
AcDbEntity
  8
0
100
AcDbLine
 62
7
  6
CONTINUOUS
 10
360.9717030634
 20
31.5586763581
 11
361.0873281185
 21
31.623203731
  0
LINE
  5
285
100
AcDbEntity
  8
0
100
AcDbLine
 62
7
  6
CONTINUOUS
 10
359.9888905082
 20
30.9134025506
 11
360.1623280082
 21
31.0101936212
  0
LINE
  5
286
100
AcDbEntity
  8
0
100
AcDbLine
 62
7
  6
CONTINUOUS
 10
359.0060780772
 20
30.8488751693
 11
359.3529530358
 21
30.81661148
  0
LINE
  5
287
100
AcDbEntity
  8
0
100
AcDbLine
 62
7
  6
CONTINUOUS
 10
363.1107656736
 20
30.8488751693
 11
363.3420154531
 21
30.81661148
  0
LINE
  5
288
100
AcDbEntity
  8
0
100
AcDbLine
 62
7
  6
CONTINUOUS
 10
361.4920155634
 20
31.7199947902
 11
361.7232656736
 21
31.6877311038
  0
LINE
  5
289
100
AcDbEntity
  8
0
100
AcDbLine
 62
7
  6
CONTINUOUS
 10
363.8045156736
 20
31.7199947902
 11
364.0357657839
 21
31.6877311038
  0
LINE
  5
28A
100
AcDbEntity
  8
0
100
AcDbLine
 62
7
  6
CONTINUOUS
 10
368.2560780634
 20
31.3650941944
 11
369.2388907839
 21
31.2037757623
  0
LINE
  5
28B
100
AcDbEntity
  8
0
100
AcDbLine
 62
7
  6
CONTINUOUS
 10
369.4123282839
 20
31.3005668216
 11
368.4295155634
 21
31.4618852989
  0
LINE
  5
28C
100
AcDbEntity
  8
0
100
AcDbLine
 62
7
  6
CONTINUOUS
 10
361.8967031736
 20
31.8167858495
 11
361.7232656736
 21
31.8490495359
  0
LINE
  5
28D
100
AcDbEntity
  8
0
100
AcDbLine
 62
7
  6
CONTINUOUS
 10
368.1982657839
 20
30.8811388585
 11
368.3717032839
 21
30.8488751693
  0
LINE
  5
28E
100
AcDbEntity
  8
0
100
AcDbLine
 62
7
  6
CONTINUOUS
 10
367.0420155634
 20
31.8167858495
 11
366.8685780634
 21
31.8490495359
  0
LINE
  5
28F
100
AcDbEntity
  8
0
100
AcDbLine
 62
7
  6
CONTINUOUS
 10
369.2967030634
 20
31.6877311038
 11
369.4123282839
 21
31.6554674174
  0
LINE
  5
290
100
AcDbEntity
  8
0
100
AcDbLine
 62
7
  6
CONTINUOUS
 10
369.4701405634
 20
31.074720994
 11
369.4123282839
 21
31.0101936212
  0
LINE
  5
291
100
AcDbEntity
  8
0
100
AcDbLine
 62
7
  6
CONTINUOUS
 10
368.0248282839
 20
31.7522584767
 11
367.9092030634
 21
31.6554674174
  0
LINE
  5
292
100
AcDbEntity
  8
0
100
AcDbLine
 62
7
  6
CONTINUOUS
 10
362.9373281736
 20
31.7845221631
 11
362.8217029531
 21
31.7199947902
  0
LINE
  5
293
100
AcDbEntity
  8
0
100
AcDbLine
 62
7
  6
CONTINUOUS
 10
362.9951404531
 20
31.397357926
 11
362.8795155634
 21
31.332830508
  0
LINE
  5
294
100
AcDbEntity
  8
0
100
AcDbLine
 62
7
  6
CONTINUOUS
 10
363.1107656736
 20
31.2360394487
 11
363.2263905634
 21
31.3005668216
  0
LINE
  5
295
100
AcDbEntity
  8
0
100
AcDbLine
 62
7
  6
CONTINUOUS
 10
360.6826405082
 20
30.81661148
 11
360.9717030634
 21
30.81661148
  0
LINE
  5
296
100
AcDbEntity
  8
0
100
AcDbLine
 62
7
  6
CONTINUOUS
 10
362.0123280634
 20
30.81661148
 11
362.3013904531
 21
30.81661148
  0
LINE
  5
297
100
AcDbEntity
  8
0
100
AcDbLine
 62
7
  6
CONTINUOUS
 10
363.3420154531
 20
30.81661148
 11
363.6888904531
 21
30.81661148
  0
LINE
  5
298
100
AcDbEntity
  8
0
100
AcDbLine
 62
7
  6
CONTINUOUS
 10
364.3248278428
 20
30.81661148
 11
364.6138905634
 21
30.81661148
  0
LINE
  5
299
100
AcDbEntity
  8
0
100
AcDbLine
 62
7
  6
CONTINUOUS
 10
365.0763907839
 20
30.81661148
 11
365.3654528428
 21
30.81661148
  0
LINE
  5
29A
100
AcDbEntity
  8
0
100
AcDbLine
 62
7
  6
CONTINUOUS
 10
365.8279530634
 20
30.81661148
 11
366.1170157839
 21
30.81661148
  0
LINE
  5
29B
100
AcDbEntity
  8
0
100
AcDbLine
 62
7
  6
CONTINUOUS
 10
367.1576407839
 20
30.81661148
 11
367.4467028428
 21
30.81661148
  0
LINE
  5
29C
100
AcDbEntity
  8
0
100
AcDbLine
 62
7
  6
CONTINUOUS
 10
368.7185782839
 20
30.81661148
 11
369.0654532839
 21
30.81661148
  0
LINE
  5
29D
100
AcDbEntity
  8
0
100
AcDbLine
 62
7
  6
CONTINUOUS
 10
369.0654532839
 20
30.945666237
 11
368.7185782839
 21
30.945666237
  0
LINE
  5
29E
100
AcDbEntity
  8
0
100
AcDbLine
 62
7
  6
CONTINUOUS
 10
363.6888904531
 20
30.945666237
 11
363.3420154531
 21
30.945666237
  0
LINE
  5
29F
100
AcDbEntity
  8
0
100
AcDbLine
 62
7
  6
CONTINUOUS
 10
368.1982657839
 20
31.074720994
 11
367.9092030634
 21
31.074720994
  0
LINE
  5
2A0
100
AcDbEntity
  8
0
100
AcDbLine
 62
7
  6
CONTINUOUS
 10
360.2201406185
 20
31.1392483894
 11
359.9310780634
 21
31.1392483894
  0
LINE
  5
2A1
100
AcDbEntity
  8
0
100
AcDbLine
 62
7
  6
CONTINUOUS
 10
359.2951405909
 20
31.7199947902
 11
359.6998280358
 21
31.6877311038
  0
LINE
  5
2A2
100
AcDbEntity
  8
0
100
AcDbLine
 62
7
  6
CONTINUOUS
 10
359.7576405634
 20
31.8167858495
 11
359.3529530358
 21
31.8490495359
  0
LINE
  5
2A3
100
AcDbEntity
  8
0
100
AcDbLine
 62
7
  6
CONTINUOUS
 10
368.3717032839
 20
30.8488751693
 11
368.7185782839
 21
30.81661148
  0
LINE
  5
2A4
100
AcDbEntity
  8
0
100
AcDbLine
 62
7
  6
CONTINUOUS
 10
368.7185782839
 20
30.945666237
 11
368.3717032839
 21
30.9779299347
  0
LINE
  5
2A5
100
AcDbEntity
  8
0
100
AcDbLine
 62
7
  6
CONTINUOUS
 10
364.1513903428
 20
31.8167858495
 11
363.8045156736
 21
31.8490495359
  0
LINE
  5
2A6
100
AcDbEntity
  8
0
100
AcDbLine
 62
7
  6
CONTINUOUS
 10
368.9498280634
 20
31.7199947902
 11
369.2967030634
 21
31.6877311038
  0
LINE
  5
2A7
100
AcDbEntity
  8
0
100
AcDbLine
 62
7
  6
CONTINUOUS
 10
369.2967030634
 20
31.8167858495
 11
368.9498280634
 21
31.8490495359
  0
LINE
  5
2A8
100
AcDbEntity
  8
0
100
AcDbLine
 62
7
  6
CONTINUOUS
 10
366.6373282839
 20
31.7199947902
 11
366.8685780634
 21
31.6877311038
  0
LINE
  5
2A9
100
AcDbEntity
  8
0
100
AcDbLine
 62
7
  6
CONTINUOUS
 10
369.4701405634
 20
31.7845221631
 11
369.2967030634
 21
31.8167858495
  0
LINE
  5
2AA
100
AcDbEntity
  8
0
100
AcDbLine
 62
7
  6
CONTINUOUS
 10
369.6435780634
 20
30.9134025506
 11
369.7592026223
 21
31.0101936212
  0
LINE
  5
2AB
100
AcDbEntity
  8
0
100
AcDbLine
 62
7
  6
CONTINUOUS
 10
364.1513903428
 20
31.106984703
 11
363.9779528428
 21
31.0101936212
  0
LINE
  5
2AC
100
AcDbEntity
  8
0
100
AcDbLine
 62
7
  6
CONTINUOUS
 10
366.2326403428
 20
31.7522584767
 11
366.1170157839
 21
31.6877311038
  0
LINE
  5
2AD
100
AcDbEntity
  8
0
100
AcDbLine
 62
7
  6
CONTINUOUS
 10
366.1170157839
 20
31.5586763581
 11
366.2326403428
 21
31.623203731
  0
LINE
  5
2AE
100
AcDbEntity
  8
0
100
AcDbLine
 62
7
  6
CONTINUOUS
 10
358.8326405772
 20
31.7845221631
 11
358.6592030565
 21
31.7199947902
  0
LINE
  5
2AF
100
AcDbEntity
  8
0
100
AcDbLine
 62
7
  6
CONTINUOUS
 10
361.2607654531
 20
31.8167858495
 11
361.0873281185
 21
31.7522584767
  0
LINE
  5
2B0
100
AcDbEntity
  8
0
100
AcDbLine
 62
7
  6
CONTINUOUS
 10
361.0873281185
 20
31.623203731
 11
361.2607654531
 21
31.6877311038
  0
LINE
  5
2B1
100
AcDbEntity
  8
0
100
AcDbLine
 62
7
  6
CONTINUOUS
 10
359.8732656185
 20
31.0424573076
 11
359.6998280358
 21
30.9779299347
  0
LINE
  5
2B2
100
AcDbEntity
  8
0
100
AcDbLine
 62
7
  6
CONTINUOUS
 10
369.2967030634
 20
30.9779299347
 11
369.0654532839
 21
30.945666237
  0
LINE
  5
2B3
100
AcDbEntity
  8
0
100
AcDbLine
 62
7
  6
CONTINUOUS
 10
363.6888904531
 20
30.81661148
 11
363.9779528428
 21
30.8488751693
  0
LINE
  5
2B4
100
AcDbEntity
  8
0
100
AcDbLine
 62
7
  6
CONTINUOUS
 10
369.0654532839
 20
30.81661148
 11
369.4123282839
 21
30.8488751693
  0
LINE
  5
2B5
100
AcDbEntity
  8
0
100
AcDbLine
 62
7
  6
CONTINUOUS
 10
359.3529530358
 20
30.81661148
 11
359.7576405634
 21
30.8488751693
  0
LINE
  5
2B6
100
AcDbEntity
  8
0
100
AcDbLine
 62
7
  6
CONTINUOUS
 10
359.6998280358
 20
30.9779299347
 11
359.2951405909
 21
30.945666237
  0
LINE
  5
2B7
100
AcDbEntity
  8
0
100
AcDbLine
 62
7
  6
CONTINUOUS
 10
363.5732655634
 20
31.3650941944
 11
364.2092032839
 21
31.3650941944
  0
LINE
  5
2B8
100
AcDbEntity
  8
0
100
AcDbLine
 62
7
  6
CONTINUOUS
 10
364.2092032839
 20
31.4941489853
 11
363.5732655634
 21
31.4941489853
  0
LINE
  5
2B9
100
AcDbEntity
  8
0
100
AcDbLine
 62
7
  6
CONTINUOUS
 10
359.9310780634
 20
31.5264126717
 11
360.2201406185
 21
31.5264126717
  0
LINE
  5
2BA
100
AcDbEntity
  8
0
100
AcDbLine
 62
7
  6
CONTINUOUS
 10
362.7638906736
 20
31.5909400446
 11
363.0529530634
 21
31.5909400446
  0
LINE
  5
2BB
100
AcDbEntity
  8
0
100
AcDbLine
 62
7
  6
CONTINUOUS
 10
369.4701405634
 20
31.5909400446
 11
369.7592026223
 21
31.5909400446
  0
LINE
  5
2BC
100
AcDbEntity
  8
0
100
AcDbLine
 62
7
  6
CONTINUOUS
 10
363.4576406736
 20
31.7199947902
 11
363.8045156736
 21
31.7199947902
  0
LINE
  5
2BD
100
AcDbEntity
  8
0
100
AcDbLine
 62
7
  6
CONTINUOUS
 10
368.6029530634
 20
31.7199947902
 11
368.9498280634
 21
31.7199947902
  0
LINE
  5
2BE
100
AcDbEntity
  8
0
100
AcDbLine
 62
7
  6
CONTINUOUS
 10
368.9498280634
 20
31.8490495359
 11
368.6029530634
 21
31.8490495359
  0
LINE
  5
2BF
100
AcDbEntity
  8
0
100
AcDbLine
 62
7
  6
CONTINUOUS
 10
366.8685780634
 20
31.8490495359
 11
366.6373282839
 21
31.8490495359
  0
LINE
  5
2C0
100
AcDbEntity
  8
0
100
AcDbLine
 62
7
  6
CONTINUOUS
 10
366.1170157839
 20
31.8490495359
 11
365.8279530634
 21
31.8490495359
  0
LINE
  5
2C1
100
AcDbEntity
  8
0
100
AcDbLine
 62
7
  6
CONTINUOUS
 10
365.3654528428
 20
31.8490495359
 11
365.0763907839
 21
31.8490495359
  0
LINE
  5
2C2
100
AcDbEntity
  8
0
100
AcDbLine
 62
7
  6
CONTINUOUS
 10
363.8045156736
 20
31.8490495359
 11
363.4576406736
 21
31.8490495359
  0
LINE
  5
2C3
100
AcDbEntity
  8
0
100
AcDbLine
 62
7
  6
CONTINUOUS
 10
361.7232656736
 20
31.8490495359
 11
361.4920155634
 21
31.8490495359
  0
LINE
  5
2C4
100
AcDbEntity
  8
0
100
AcDbLine
 62
7
  6
CONTINUOUS
 10
365.0763907839
 20
32.1716864905
 11
365.3654528428
 21
32.1716864905
  0
LINE
  5
2C5
100
AcDbEntity
  8
0
100
AcDbLine
 62
7
  6
CONTINUOUS
 10
365.3654528428
 20
32.3330049227
 11
365.0763907839
 21
32.3330049227
  0
LINE
  5
2C6
100
AcDbEntity
  8
0
100
AcDbLine
 62
7
  6
CONTINUOUS
 10
360.9717030634
 20
32.3330049227
 11
360.6826405082
 21
32.3330049227
  0
LINE
  5
2C7
100
AcDbEntity
  8
0
100
AcDbLine
 62
7
  6
CONTINUOUS
 10
360.0094848257
 20
32.6198901686
 11
360.4220561743
 21
32.6198901686
  0
LINE
  5
2C8
100
AcDbEntity
  8
0
100
AcDbLine
 62
7
  6
CONTINUOUS
 10
361.648829088
 20
32.6198901686
 11
363.0422717109
 21
32.6198901686
  0
LINE
  5
2C9
100
AcDbEntity
  8
0
100
AcDbLine
 62
7
  6
CONTINUOUS
 10
363.3701405634
 20
32.6198901686
 11
364.7635831863
 21
32.6198901686
  0
LINE
  5
2CA
100
AcDbEntity
  8
0
100
AcDbLine
 62
7
  6
CONTINUOUS
 10
366.648829088
 20
32.6198901686
 11
368.0422717109
 21
32.6198901686
  0
LINE
  5
2CB
100
AcDbEntity
  8
0
100
AcDbLine
 62
7
  6
CONTINUOUS
 10
368.3701405634
 20
32.6198901686
 11
369.7635831863
 21
32.6198901686
  0
LINE
  5
2CC
100
AcDbEntity
  8
0
100
AcDbLine
 62
7
  6
CONTINUOUS
 10
366.4060778428
 20
31.8167858495
 11
366.2326403428
 21
31.7522584767
  0
LINE
  5
2CD
100
AcDbEntity
  8
0
100
AcDbLine
 62
7
  6
CONTINUOUS
 10
363.9779528428
 20
30.8488751693
 11
364.1513903428
 21
30.9134025506
  0
LINE
  5
2CE
100
AcDbEntity
  8
0
100
AcDbLine
 62
7
  6
CONTINUOUS
 10
369.4123282839
 20
30.8488751693
 11
369.6435780634
 21
30.9134025506
  0
LINE
  5
2CF
100
AcDbEntity
  8
0
100
AcDbLine
 62
7
  6
CONTINUOUS
 10
369.4123282839
 20
31.0101936212
 11
369.2967030634
 21
30.9779299347
  0
LINE
  5
2D0
100
AcDbEntity
  8
0
100
AcDbLine
 62
7
  6
CONTINUOUS
 10
368.3717032839
 20
31.6877311038
 11
368.6029530634
 21
31.7199947902
  0
LINE
  5
2D1
100
AcDbEntity
  8
0
100
AcDbLine
 62
7
  6
CONTINUOUS
 10
366.4060778428
 20
31.6877311038
 11
366.6373282839
 21
31.7199947902
  0
LINE
  5
2D2
100
AcDbEntity
  8
0
100
AcDbLine
 62
7
  6
CONTINUOUS
 10
363.3420154531
 20
31.332830508
 11
363.5732655634
 21
31.3650941944
  0
LINE
  5
2D3
100
AcDbEntity
  8
0
100
AcDbLine
 62
7
  6
CONTINUOUS
 10
366.6373282839
 20
31.8490495359
 11
366.4060778428
 21
31.8167858495
  0
LINE
  5
2D4
100
AcDbEntity
  8
0
100
AcDbLine
 62
7
  6
CONTINUOUS
 10
363.2263905634
 20
31.6877311038
 11
363.4576406736
 21
31.7199947902
  0
LINE
  5
2D5
100
AcDbEntity
  8
0
100
AcDbLine
 62
7
  6
CONTINUOUS
 10
368.6029530634
 20
31.8490495359
 11
368.2560780634
 21
31.8167858495
  0
LINE
  5
2D6
100
AcDbEntity
  8
0
100
AcDbLine
 62
7
  6
CONTINUOUS
 10
363.5732655634
 20
31.4941489853
 11
363.2263905634
 21
31.4618852989
  0
LINE
  5
2D7
100
AcDbEntity
  8
0
100
AcDbLine
 62
7
  6
CONTINUOUS
 10
359.3529530358
 20
31.8490495359
 11
359.0060780772
 21
31.8167858495
  0
LINE
  5
2D8
100
AcDbEntity
  8
0
100
AcDbLine
 62
7
  6
CONTINUOUS
 10
363.4576406736
 20
31.8490495359
 11
363.0529530634
 21
31.8167858495
  0
LINE
  5
2D9
100
AcDbEntity
  8
0
100
AcDbLine
 62
7
  6
CONTINUOUS
 10
360.8291569568
 20
33.7674311522
 11
360.1734192519
 21
33.7674311522
  0
LINE
  5
2DA
100
AcDbEntity
  8
0
100
AcDbLine
 62
7
  6
CONTINUOUS
 10
366.2326403428
 20
31.623203731
 11
366.4060778428
 21
31.6877311038
  0
LINE
  5
2DB
100
AcDbEntity
  8
0
100
AcDbLine
 62
7
  6
CONTINUOUS
 10
368.2560780634
 20
31.6554674174
 11
368.3717032839
 21
31.6877311038
  0
LINE
  5
2DC
100
AcDbEntity
  8
0
100
AcDbLine
 62
7
  6
CONTINUOUS
 10
368.2560780634
 20
31.8167858495
 11
368.0248282839
 21
31.7522584767
  0
LINE
  5
2DD
100
AcDbEntity
  8
0
100
AcDbLine
 62
7
  6
CONTINUOUS
 10
363.9779528428
 20
31.0101936212
 11
363.6888904531
 21
30.945666237
  0
LINE
  5
2DE
100
AcDbEntity
  8
0
100
AcDbLine
 62
7
  6
CONTINUOUS
 10
361.2607654531
 20
31.6877311038
 11
361.4920155634
 21
31.7199947902
  0
LINE
  5
2DF
100
AcDbEntity
  8
0
100
AcDbLine
 62
7
  6
CONTINUOUS
 10
361.4920155634
 20
31.8490495359
 11
361.2607654531
 21
31.8167858495
  0
LINE
  5
2E0
100
AcDbEntity
  8
0
100
AcDbLine
 62
7
  6
CONTINUOUS
 10
359.0638905634
 20
31.6877311038
 11
359.2951405909
 21
31.7199947902
  0
LINE
  5
2E1
100
AcDbEntity
  8
0
100
AcDbLine
 62
7
  6
CONTINUOUS
 10
365.5832553175
 20
35.2428409882
 11
366.2389930224
 21
35.2428409882
  0
LINE
  5
2E2
100
AcDbEntity
  8
0
100
AcDbLine
 62
7
  6
CONTINUOUS
 10
363.2263905634
 20
31.3005668216
 11
363.3420154531
 21
31.332830508
  0
LINE
  5
2E3
100
AcDbEntity
  8
0
100
AcDbLine
 62
7
  6
CONTINUOUS
 10
363.2263905634
 20
31.4618852989
 11
362.9951404531
 21
31.397357926
  0
LINE
  5
2E4
100
AcDbEntity
  8
0
100
AcDbLine
 62
7
  6
CONTINUOUS
 10
363.1107656736
 20
31.6554674174
 11
363.2263905634
 21
31.6877311038
  0
LINE
  5
2E5
100
AcDbEntity
  8
0
100
AcDbLine
 62
7
  6
CONTINUOUS
 10
359.7576405634
 20
30.8488751693
 11
359.9888905082
 21
30.9134025506
  0
LINE
  5
2E6
100
AcDbEntity
  8
0
100
AcDbLine
 62
7
  6
CONTINUOUS
 10
363.0529530634
 20
31.8167858495
 11
362.9373281736
 21
31.7845221631
  0
LINE
  5
2E7
100
AcDbEntity
  8
0
100
AcDbLine
 62
7
  6
CONTINUOUS
 10
359.0060780772
 20
31.8167858495
 11
358.8326405772
 21
31.7845221631
  0
LINE
  5
2E8
100
AcDbEntity
  8
0
100
AcDbLine
 62
7
  6
CONTINUOUS
 10
369.7635831863
 20
36.3903819718
 11
368.3701405634
 21
36.3903819718
  0
LINE
  5
2E9
100
AcDbEntity
  8
0
100
AcDbLine
 62
7
  6
CONTINUOUS
 10
366.4029274486
 20
36.3903819718
 11
365.9903561
 21
36.3903819718
  0
LINE
  5
2EA
100
AcDbEntity
  8
0
100
AcDbLine
 62
7
  6
CONTINUOUS
 10
364.7635831863
 20
36.3903819718
 11
363.3701405634
 21
36.3903819718
  0
LINE
  5
2EB
100
AcDbEntity
  8
0
100
AcDbLine
 62
7
  6
CONTINUOUS
 10
363.0422717109
 20
36.3903819718
 11
361.648829088
 21
36.3903819718
  0
LINE
  5
2EC
100
AcDbEntity
  8
0
100
AcDbLine
 62
7
  6
CONTINUOUS
 10
359.7635831863
 20
36.3903819718
 11
358.3701405634
 21
36.3903819718
  0
LINE
  5
2ED
100
AcDbEntity
  8
0
100
AcDbLine
 62
7
  6
CONTINUOUS
 10
358.9482655496
 20
31.6554674174
 11
359.0638905634
 21
31.6877311038
  0
CIRCLE
  5
2EE
100
AcDbEntity
  8
0
100
AcDbCircle
 62
7
  6
CONTINUOUS
 10
369.0668618749
 20
38.7264475456
 40
2.0901639344
  0
ARC
  5
2EF
100
AcDbEntity
  8
0
100
AcDbCircle
 62
7
  6
CONTINUOUS
 10
360.0094848257
 20
34.2592344308
 40
1.6393442623
100
AcDbArc
 50
180.0
 51
270.0
  0
ARC
  5
2F0
100
AcDbEntity
  8
0
100
AcDbCircle
 62
7
  6
CONTINUOUS
 10
366.4029274486
 20
34.7510377095
 40
1.6393442623
100
AcDbArc
 50
0.0
 51
90.0
  0
ARC
  5
2F1
100
AcDbEntity
  8
0
100
AcDbCircle
 62
7
  6
CONTINUOUS
 10
360.4220561743
 20
34.0953000046
 40
1.4754098361
100
AcDbArc
 50
270.0
 51
326.2510114041
  0
ARC
  5
2F2
100
AcDbEntity
  8
0
100
AcDbCircle
 62
7
  6
CONTINUOUS
 10
365.9903561
 20
34.9149721358
 40
1.4754098361
100
AcDbArc
 50
90.0
 51
146.2510114041
  0
ARC
  5
2F3
100
AcDbEntity
  8
0
100
AcDbCircle
 62
7
  6
CONTINUOUS
 10
360.8291569568
 20
34.5871032833
 40
0.8196721311
100
AcDbArc
 50
270.0
 51
360.0
  0
ARC
  5
2F4
100
AcDbEntity
  8
0
100
AcDbCircle
 62
7
  6
CONTINUOUS
 10
365.5832553175
 20
34.4231688571
 40
0.8196721311
100
AcDbArc
 50
90.0
 51
180.0
  0
ARC
  5
2F5
100
AcDbEntity
  8
0
100
AcDbCircle
 62
7
  6
CONTINUOUS
 10
360.1734192519
 20
34.1772672177
 40
0.4098360656
100
AcDbArc
 50
180.0
 51
270.0
  0
ARC
  5
2F6
100
AcDbEntity
  8
0
100
AcDbCircle
 62
7
  6
CONTINUOUS
 10
366.2389930224
 20
34.8330049227
 40
0.4098360656
100
AcDbArc
 50
0.0
 51
90.0
  0
SOLID
  5
2F7
100
AcDbEntity
  8
0
100
AcDbTrace
 62
7
  6
CONTINUOUS
 10
365.0763907839
 20
32.1716868508
 11
365.0763907839
 21
32.3330053344
 12
365.3654528428
 22
32.1716868508
 13
365.3654528428
 23
32.3330053344
  0
LWPOLYLINE
  5
2F8
100
AcDbEntity
  8
0
100
AcDbPolyline
 62
7
  6
CONTINUOUS
 90
13
 70
0
 10
359.3529530358
 20
31.8490498836
 10
359.7576405634
 20
31.8167855803
 10
359.9888905082
 20
31.7522584901
 10
360.1623280082
 20
31.6554670967
 10
360.2201406185
 20
31.5264129164
 10
359.9310780634
 20
31.5264129164
 10
359.8732656185
 20
31.6232043098
 10
359.6998280358
 20
31.6877314
 10
359.2951405909
 20
31.7199941869
 10
358.6592030565
 20
31.7199941869
 10
358.8326405772
 20
31.7845227934
 10
359.0060780772
 20
31.8167855803
 10
359.3529530358
 20
31.8490498836
  0
HATCH
  5
2F9
100
AcDbEntity
  8
0
100
AcDbHatch
 62
7
  6
CONTINUOUS
 10
0.0
 20
0.0
 30
0.0
210
0.0
220
0.0
230
1.0
  2
SOLID
 70
1
 71
1
 91
1
 92
1
 93
12
 72
1
 10
359.3529530358
 20
31.8490498836
 11
359.7576405634
 21
31.8167855803
 72
1
 10
359.7576405634
 20
31.8167855803
 11
359.9888905082
 21
31.7522584901
 72
1
 10
359.9888905082
 20
31.7522584901
 11
360.1623280082
 21
31.6554670967
 72
1
 10
360.1623280082
 20
31.6554670967
 11
360.2201406185
 21
31.5264129164
 72
1
 10
360.2201406185
 20
31.5264129164
 11
359.9310780634
 21
31.5264129164
 72
1
 10
359.9310780634
 20
31.5264129164
 11
359.8732656185
 21
31.6232043098
 72
1
 10
359.8732656185
 20
31.6232043098
 11
359.6998280358
 21
31.6877314
 72
1
 10
359.6998280358
 20
31.6877314
 11
359.2951405909
 21
31.7199941869
 72
1
 10
359.2951405909
 20
31.7199941869
 11
358.6592030565
 21
31.7199941869
 72
1
 10
358.6592030565
 20
31.7199941869
 11
358.8326405772
 21
31.7845227934
 72
1
 10
358.8326405772
 20
31.7845227934
 11
359.0060780772
 21
31.8167855803
 72
1
 10
359.0060780772
 20
31.8167855803
 11
359.3529530358
 21
31.8490498836
 97
1
330
2F8
 75
0
 76
1
 98
1
 10
0.0
 20
0.0
  0
LWPOLYLINE
  5
2FA
100
AcDbEntity
  8
0
100
AcDbPolyline
 62
7
  6
CONTINUOUS
 90
25
 70
0
 10
361.2607654531
 20
31.8167855803
 10
361.4920155634
 20
31.8490498836
 10
361.7232656736
 20
31.8490498836
 10
361.8967031736
 20
31.8167855803
 10
362.0701406736
 20
31.7522584901
 10
362.1857655634
 20
31.6877314
 10
362.2435781736
 20
31.6232043098
 10
362.3013904531
 20
31.4618858262
 10
362.3013904531
 20
30.8166118918
 10
362.0123280634
 20
30.8166118918
 10
362.0123280634
 20
31.4618858262
 10
361.9545154531
 20
31.5909400065
 10
361.8388905634
 20
31.6554670967
 10
361.7232656736
 20
31.6877314
 10
361.4920155634
 20
31.7199941869
 10
361.2607654531
 20
31.6877314
 10
361.0873281185
 20
31.6232043098
 10
360.9717030634
 20
31.5586757033
 10
360.9717030634
 20
30.8166118918
 10
360.6826405082
 20
30.8166118918
 10
360.6826405082
 20
32.3330053344
 10
360.9717030634
 20
32.3330053344
 10
360.9717030634
 20
31.6877314
 10
361.0873281185
 20
31.7522584901
 10
361.2607654531
 20
31.8167855803
  0
HATCH
  5
2FB
100
AcDbEntity
  8
0
100
AcDbHatch
 62
7
  6
CONTINUOUS
 10
0.0
 20
0.0
 30
0.0
210
0.0
220
0.0
230
1.0
  2
SOLID
 70
1
 71
1
 91
1
 92
1
 93
24
 72
1
 10
361.2607654531
 20
31.8167855803
 11
361.4920155634
 21
31.8490498836
 72
1
 10
361.4920155634
 20
31.8490498836
 11
361.7232656736
 21
31.8490498836
 72
1
 10
361.7232656736
 20
31.8490498836
 11
361.8967031736
 21
31.8167855803
 72
1
 10
361.8967031736
 20
31.8167855803
 11
362.0701406736
 21
31.7522584901
 72
1
 10
362.0701406736
 20
31.7522584901
 11
362.1857655634
 21
31.6877314
 72
1
 10
362.1857655634
 20
31.6877314
 11
362.2435781736
 21
31.6232043098
 72
1
 10
362.2435781736
 20
31.6232043098
 11
362.3013904531
 21
31.4618858262
 72
1
 10
362.3013904531
 20
31.4618858262
 11
362.3013904531
 21
30.8166118918
 72
1
 10
362.3013904531
 20
30.8166118918
 11
362.0123280634
 21
30.8166118918
 72
1
 10
362.0123280634
 20
30.8166118918
 11
362.0123280634
 21
31.4618858262
 72
1
 10
362.0123280634
 20
31.4618858262
 11
361.9545154531
 21
31.5909400065
 72
1
 10
361.9545154531
 20
31.5909400065
 11
361.8388905634
 21
31.6554670967
 72
1
 10
361.8388905634
 20
31.6554670967
 11
361.7232656736
 21
31.6877314
 72
1
 10
361.7232656736
 20
31.6877314
 11
361.4920155634
 21
31.7199941869
 72
1
 10
361.4920155634
 20
31.7199941869
 11
361.2607654531
 21
31.6877314
 72
1
 10
361.2607654531
 20
31.6877314
 11
361.0873281185
 21
31.6232043098
 72
1
 10
361.0873281185
 20
31.6232043098
 11
360.9717030634
 21
31.5586757033
 72
1
 10
360.9717030634
 20
31.5586757033
 11
360.9717030634
 21
30.8166118918
 72
1
 10
360.9717030634
 20
30.8166118918
 11
360.6826405082
 21
30.8166118918
 72
1
 10
360.6826405082
 20
30.8166118918
 11
360.6826405082
 21
32.3330053344
 72
1
 10
360.6826405082
 20
32.3330053344
 11
360.9717030634
 21
32.3330053344
 72
1
 10
360.9717030634
 20
32.3330053344
 11
360.9717030634
 21
31.6877314
 72
1
 10
360.9717030634
 20
31.6877314
 11
361.0873281185
 21
31.7522584901
 72
1
 10
361.0873281185
 20
31.7522584901
 11
361.2607654531
 21
31.8167855803
 97
1
330
2FA
 75
0
 76
1
 98
1
 10
0.0
 20
0.0
  0
LWPOLYLINE
  5
2FC
100
AcDbEntity
  8
0
100
AcDbPolyline
 62
7
  6
CONTINUOUS
 90
20
 70
0
 10
363.0529530634
 20
31.8167855803
 10
363.4576406736
 20
31.8490498836
 10
363.8045156736
 20
31.8490498836
 10
364.1513903428
 20
31.8167855803
 10
364.3248278428
 20
31.7522584901
 10
364.4404530634
 20
31.6877314
 10
364.4982653428
 20
31.5909400065
 10
364.4982653428
 20
31.0747202524
 10
364.2092032839
 20
31.1715120759
 10
364.2092032839
 20
31.3650944328
 10
364.2092032839
 20
31.4941486131
 10
364.2092032839
 20
31.5909400065
 10
364.1513903428
 20
31.6554670967
 10
364.0357657839
 20
31.6877314
 10
363.8045156736
 20
31.7199941869
 10
363.4576406736
 20
31.7199941869
 10
362.7638906736
 20
31.6554670967
 10
362.8217029531
 20
31.7199941869
 10
362.9373281736
 20
31.7845227934
 10
363.0529530634
 20
31.8167855803
  0
HATCH
  5
2FD
100
AcDbEntity
  8
0
100
AcDbHatch
 62
7
  6
CONTINUOUS
 10
0.0
 20
0.0
 30
0.0
210
0.0
220
0.0
230
1.0
  2
SOLID
 70
1
 71
1
 91
1
 92
1
 93
19
 72
1
 10
363.0529530634
 20
31.8167855803
 11
363.4576406736
 21
31.8490498836
 72
1
 10
363.4576406736
 20
31.8490498836
 11
363.8045156736
 21
31.8490498836
 72
1
 10
363.8045156736
 20
31.8490498836
 11
364.1513903428
 21
31.8167855803
 72
1
 10
364.1513903428
 20
31.8167855803
 11
364.3248278428
 21
31.7522584901
 72
1
 10
364.3248278428
 20
31.7522584901
 11
364.4404530634
 21
31.6877314
 72
1
 10
364.4404530634
 20
31.6877314
 11
364.4982653428
 21
31.5909400065
 72
1
 10
364.4982653428
 20
31.5909400065
 11
364.4982653428
 21
31.0747202524
 72
1
 10
364.4982653428
 20
31.0747202524
 11
364.2092032839
 21
31.1715120759
 72
1
 10
364.2092032839
 20
31.1715120759
 11
364.2092032839
 21
31.3650944328
 72
1
 10
364.2092032839
 20
31.3650944328
 11
364.2092032839
 21
31.4941486131
 72
1
 10
364.2092032839
 20
31.4941486131
 11
364.2092032839
 21
31.5909400065
 72
1
 10
364.2092032839
 20
31.5909400065
 11
364.1513903428
 21
31.6554670967
 72
1
 10
364.1513903428
 20
31.6554670967
 11
364.0357657839
 21
31.6877314
 72
1
 10
364.0357657839
 20
31.6877314
 11
363.8045156736
 21
31.7199941869
 72
1
 10
363.8045156736
 20
31.7199941869
 11
363.4576406736
 21
31.7199941869
 72
1
 10
363.4576406736
 20
31.7199941869
 11
362.7638906736
 21
31.6554670967
 72
1
 10
362.7638906736
 20
31.6554670967
 11
362.8217029531
 21
31.7199941869
 72
1
 10
362.8217029531
 20
31.7199941869
 11
362.9373281736
 21
31.7845227934
 72
1
 10
362.9373281736
 20
31.7845227934
 11
363.0529530634
 21
31.8167855803
 97
1
330
2FC
 75
0
 76
1
 98
1
 10
0.0
 20
0.0
  0
LWPOLYLINE
  5
2FE
100
AcDbEntity
  8
0
100
AcDbPolyline
 62
7
  6
CONTINUOUS
 90
25
 70
0
 10
366.4060778428
 20
31.8167855803
 10
366.6373282839
 20
31.8490498836
 10
366.8685780634
 20
31.8490498836
 10
367.0420155634
 20
31.8167855803
 10
367.2154530634
 20
31.7522584901
 10
367.3310782839
 20
31.6877314
 10
367.3888905634
 20
31.5909400065
 10
367.4467028428
 20
31.4296215229
 10
367.4467028428
 20
30.8166118918
 10
367.1576407839
 20
30.8166118918
 10
367.1576407839
 20
31.4296215229
 10
367.0998278428
 20
31.5909400065
 10
366.9842032839
 20
31.6554670967
 10
366.8685780634
 20
31.6877314
 10
366.6373282839
 20
31.7199941869
 10
366.4060778428
 20
31.6877314
 10
366.2326403428
 20
31.6232043098
 10
366.1170157839
 20
31.5586757033
 10
366.1170157839
 20
30.8166118918
 10
365.8279530634
 20
30.8166118918
 10
365.8279530634
 20
31.8490498836
 10
366.1170157839
 20
31.8490498836
 10
366.1170157839
 20
31.6877314
 10
366.2326403428
 20
31.7522584901
 10
366.4060778428
 20
31.8167855803
  0
HATCH
  5
2FF
100
AcDbEntity
  8
0
100
AcDbHatch
 62
7
  6
CONTINUOUS
 10
0.0
 20
0.0
 30
0.0
210
0.0
220
0.0
230
1.0
  2
SOLID
 70
1
 71
1
 91
1
 92
1
 93
24
 72
1
 10
366.4060778428
 20
31.8167855803
 11
366.6373282839
 21
31.8490498836
 72
1
 10
366.6373282839
 20
31.8490498836
 11
366.8685780634
 21
31.8490498836
 72
1
 10
366.8685780634
 20
31.8490498836
 11
367.0420155634
 21
31.8167855803
 72
1
 10
367.0420155634
 20
31.8167855803
 11
367.2154530634
 21
31.7522584901
 72
1
 10
367.2154530634
 20
31.7522584901
 11
367.3310782839
 21
31.6877314
 72
1
 10
367.3310782839
 20
31.6877314
 11
367.3888905634
 21
31.5909400065
 72
1
 10
367.3888905634
 20
31.5909400065
 11
367.4467028428
 21
31.4296215229
 72
1
 10
367.4467028428
 20
31.4296215229
 11
367.4467028428
 21
30.8166118918
 72
1
 10
367.4467028428
 20
30.8166118918
 11
367.1576407839
 21
30.8166118918
 72
1
 10
367.1576407839
 20
30.8166118918
 11
367.1576407839
 21
31.4296215229
 72
1
 10
367.1576407839
 20
31.4296215229
 11
367.0998278428
 21
31.5909400065
 72
1
 10
367.0998278428
 20
31.5909400065
 11
366.9842032839
 21
31.6554670967
 72
1
 10
366.9842032839
 20
31.6554670967
 11
366.8685780634
 21
31.6877314
 72
1
 10
366.8685780634
 20
31.6877314
 11
366.6373282839
 21
31.7199941869
 72
1
 10
366.6373282839
 20
31.7199941869
 11
366.4060778428
 21
31.6877314
 72
1
 10
366.4060778428
 20
31.6877314
 11
366.2326403428
 21
31.6232043098
 72
1
 10
366.2326403428
 20
31.6232043098
 11
366.1170157839
 21
31.5586757033
 72
1
 10
366.1170157839
 20
31.5586757033
 11
366.1170157839
 21
30.8166118918
 72
1
 10
366.1170157839
 20
30.8166118918
 11
365.8279530634
 21
30.8166118918
 72
1
 10
365.8279530634
 20
30.8166118918
 11
365.8279530634
 21
31.8490498836
 72
1
 10
365.8279530634
 20
31.8490498836
 11
366.1170157839
 21
31.8490498836
 72
1
 10
366.1170157839
 20
31.8490498836
 11
366.1170157839
 21
31.6877314
 72
1
 10
366.1170157839
 20
31.6877314
 11
366.2326403428
 21
31.7522584901
 72
1
 10
366.2326403428
 20
31.7522584901
 11
366.4060778428
 21
31.8167855803
 97
1
330
2FE
 75
0
 76
1
 98
1
 10
0.0
 20
0.0
  0
LWPOLYLINE
  5
300
100
AcDbEntity
  8
0
100
AcDbPolyline
 62
7
  6
CONTINUOUS
 90
6
 70
0
 10
368.2560780634
 20
31.8167855803
 10
368.6029530634
 20
31.8490498836
 10
368.9498280634
 20
31.8490498836
 10
369.2967030634
 20
31.8167855803
 10
368.0248282839
 20
31.7522584901
 10
368.2560780634
 20
31.8167855803
  0
HATCH
  5
301
100
AcDbEntity
  8
0
100
AcDbHatch
 62
7
  6
CONTINUOUS
 10
0.0
 20
0.0
 30
0.0
210
0.0
220
0.0
230
1.0
  2
SOLID
 70
1
 71
1
 91
1
 92
1
 93
5
 72
1
 10
368.2560780634
 20
31.8167855803
 11
368.6029530634
 21
31.8490498836
 72
1
 10
368.6029530634
 20
31.8490498836
 11
368.9498280634
 21
31.8490498836
 72
1
 10
368.9498280634
 20
31.8490498836
 11
369.2967030634
 21
31.8167855803
 72
1
 10
369.2967030634
 20
31.8167855803
 11
368.0248282839
 21
31.7522584901
 72
1
 10
368.0248282839
 20
31.7522584901
 11
368.2560780634
 21
31.8167855803
 97
1
330
300
 75
0
 76
1
 98
1
 10
0.0
 20
0.0
  0
LWPOLYLINE
  5
302
100
AcDbEntity
  8
0
100
AcDbPolyline
 62
7
  6
CONTINUOUS
 90
12
 70
0
 10
369.4701405634
 20
31.7845227934
 10
369.6435780634
 20
31.7199941869
 10
369.7592026223
 20
31.5909400065
 10
369.4701405634
 20
31.5909400065
 10
369.4123282839
 20
31.6554670967
 10
369.2967030634
 20
31.6877314
 10
368.9498280634
 20
31.7199941869
 10
368.6029530634
 20
31.7199941869
 10
367.9092030634
 20
31.6554670967
 10
368.0248282839
 20
31.7522584901
 10
369.2967030634
 20
31.8167855803
 10
369.4701405634
 20
31.7845227934
  0
HATCH
  5
303
100
AcDbEntity
  8
0
100
AcDbHatch
 62
7
  6
CONTINUOUS
 10
0.0
 20
0.0
 30
0.0
210
0.0
220
0.0
230
1.0
  2
SOLID
 70
1
 71
1
 91
1
 92
1
 93
11
 72
1
 10
369.4701405634
 20
31.7845227934
 11
369.6435780634
 21
31.7199941869
 72
1
 10
369.6435780634
 20
31.7199941869
 11
369.7592026223
 21
31.5909400065
 72
1
 10
369.7592026223
 20
31.5909400065
 11
369.4701405634
 21
31.5909400065
 72
1
 10
369.4701405634
 20
31.5909400065
 11
369.4123282839
 21
31.6554670967
 72
1
 10
369.4123282839
 20
31.6554670967
 11
369.2967030634
 21
31.6877314
 72
1
 10
369.2967030634
 20
31.6877314
 11
368.9498280634
 21
31.7199941869
 72
1
 10
368.9498280634
 20
31.7199941869
 11
368.6029530634
 21
31.7199941869
 72
1
 10
368.6029530634
 20
31.7199941869
 11
367.9092030634
 21
31.6554670967
 72
1
 10
367.9092030634
 20
31.6554670967
 11
368.0248282839
 21
31.7522584901
 72
1
 10
368.0248282839
 20
31.7522584901
 11
369.2967030634
 21
31.8167855803
 72
1
 10
369.2967030634
 20
31.8167855803
 11
369.4701405634
 21
31.7845227934
 97
1
330
302
 75
0
 76
1
 98
1
 10
0.0
 20
0.0
  0
LWPOLYLINE
  5
304
100
AcDbEntity
  8
0
100
AcDbPolyline
 62
7
  6
CONTINUOUS
 90
7
 70
0
 10
359.0638905634
 20
31.6877314
 10
358.9482655496
 20
31.6554670967
 10
358.4279530651
 20
31.5264129164
 10
358.5435780634
 20
31.6554670967
 10
358.6592030565
 20
31.7199941869
 10
359.2951405909
 20
31.7199941869
 10
359.0638905634
 20
31.6877314
  0
HATCH
  5
305
100
AcDbEntity
  8
0
100
AcDbHatch
 62
7
  6
CONTINUOUS
 10
0.0
 20
0.0
 30
0.0
210
0.0
220
0.0
230
1.0
  2
SOLID
 70
1
 71
1
 91
1
 92
1
 93
6
 72
1
 10
359.0638905634
 20
31.6877314
 11
358.9482655496
 21
31.6554670967
 72
1
 10
358.9482655496
 20
31.6554670967
 11
358.4279530651
 21
31.5264129164
 72
1
 10
358.4279530651
 20
31.5264129164
 11
358.5435780634
 21
31.6554670967
 72
1
 10
358.5435780634
 20
31.6554670967
 11
358.6592030565
 21
31.7199941869
 72
1
 10
358.6592030565
 20
31.7199941869
 11
359.2951405909
 21
31.7199941869
 72
1
 10
359.2951405909
 20
31.7199941869
 11
359.0638905634
 21
31.6877314
 97
1
330
304
 75
0
 76
1
 98
1
 10
0.0
 20
0.0
  0
LWPOLYLINE
  5
306
100
AcDbEntity
  8
0
100
AcDbPolyline
 62
7
  6
CONTINUOUS
 90
7
 70
0
 10
363.2263905634
 20
31.6877314
 10
363.1107656736
 20
31.6554670967
 10
363.0529530634
 20
31.5909400065
 10
362.7638906736
 20
31.5909400065
 10
362.7638906736
 20
31.6554670967
 10
363.4576406736
 20
31.7199941869
 10
363.2263905634
 20
31.6877314
  0
HATCH
  5
307
100
AcDbEntity
  8
0
100
AcDbHatch
 62
7
  6
CONTINUOUS
 10
0.0
 20
0.0
 30
0.0
210
0.0
220
0.0
230
1.0
  2
SOLID
 70
1
 71
1
 91
1
 92
1
 93
6
 72
1
 10
363.2263905634
 20
31.6877314
 11
363.1107656736
 21
31.6554670967
 72
1
 10
363.1107656736
 20
31.6554670967
 11
363.0529530634
 21
31.5909400065
 72
1
 10
363.0529530634
 20
31.5909400065
 11
362.7638906736
 21
31.5909400065
 72
1
 10
362.7638906736
 20
31.5909400065
 11
362.7638906736
 21
31.6554670967
 72
1
 10
362.7638906736
 20
31.6554670967
 11
363.4576406736
 21
31.7199941869
 72
1
 10
363.4576406736
 20
31.7199941869
 11
363.2263905634
 21
31.6877314
 97
1
330
306
 75
0
 76
1
 98
1
 10
0.0
 20
0.0
  0
LWPOLYLINE
  5
308
100
AcDbEntity
  8
0
100
AcDbPolyline
 62
7
  6
CONTINUOUS
 90
8
 70
0
 10
368.3717032839
 20
31.6877314
 10
368.2560780634
 20
31.6554670967
 10
368.1982657839
 20
31.5909400065
 10
368.0248282839
 20
31.4618858262
 10
367.9092030634
 20
31.5909400065
 10
367.9092030634
 20
31.6554670967
 10
368.6029530634
 20
31.7199941869
 10
368.3717032839
 20
31.6877314
  0
HATCH
  5
309
100
AcDbEntity
  8
0
100
AcDbHatch
 62
7
  6
CONTINUOUS
 10
0.0
 20
0.0
 30
0.0
210
0.0
220
0.0
230
1.0
  2
SOLID
 70
1
 71
1
 91
1
 92
1
 93
7
 72
1
 10
368.3717032839
 20
31.6877314
 11
368.2560780634
 21
31.6554670967
 72
1
 10
368.2560780634
 20
31.6554670967
 11
368.1982657839
 21
31.5909400065
 72
1
 10
368.1982657839
 20
31.5909400065
 11
368.0248282839
 21
31.4618858262
 72
1
 10
368.0248282839
 20
31.4618858262
 11
367.9092030634
 21
31.5909400065
 72
1
 10
367.9092030634
 20
31.5909400065
 11
367.9092030634
 21
31.6554670967
 72
1
 10
367.9092030634
 20
31.6554670967
 11
368.6029530634
 21
31.7199941869
 72
1
 10
368.6029530634
 20
31.7199941869
 11
368.3717032839
 21
31.6877314
 97
1
330
308
 75
0
 76
1
 98
1
 10
0.0
 20
0.0
  0
LWPOLYLINE
  5
30A
100
AcDbEntity
  8
0
100
AcDbPolyline
 62
7
  6
CONTINUOUS
 90
6
 70
0
 10
358.7748280496
 20
31.5586757033
 10
358.7170155634
 20
31.4941486131
 10
358.3701405634
 20
31.3328301295
 10
358.4279530651
 20
31.5264129164
 10
358.9482655496
 20
31.6554670967
 10
358.7748280496
 20
31.5586757033
  0
HATCH
  5
30B
100
AcDbEntity
  8
0
100
AcDbHatch
 62
7
  6
CONTINUOUS
 10
0.0
 20
0.0
 30
0.0
210
0.0
220
0.0
230
1.0
  2
SOLID
 70
1
 71
1
 91
1
 92
1
 93
5
 72
1
 10
358.7748280496
 20
31.5586757033
 11
358.7170155634
 21
31.4941486131
 72
1
 10
358.7170155634
 20
31.4941486131
 11
358.3701405634
 21
31.3328301295
 72
1
 10
358.3701405634
 20
31.3328301295
 11
358.4279530651
 21
31.5264129164
 72
1
 10
358.4279530651
 20
31.5264129164
 11
358.9482655496
 21
31.6554670967
 72
1
 10
358.9482655496
 20
31.6554670967
 11
358.7748280496
 21
31.5586757033
 97
1
330
30A
 75
0
 76
1
 98
1
 10
0.0
 20
0.0
  0
LWPOLYLINE
  5
30C
100
AcDbEntity
  8
0
100
AcDbPolyline
 62
7
  6
CONTINUOUS
 90
7
 70
0
 10
363.2263905634
 20
31.4618858262
 10
363.5732655634
 20
31.4941486131
 10
364.2092032839
 20
31.4941486131
 10
364.2092032839
 20
31.3650944328
 10
363.5732655634
 20
31.3650944328
 10
362.9951404531
 20
31.397357926
 10
363.2263905634
 20
31.4618858262
  0
HATCH
  5
30D
100
AcDbEntity
  8
0
100
AcDbHatch
 62
7
  6
CONTINUOUS
 10
0.0
 20
0.0
 30
0.0
210
0.0
220
0.0
230
1.0
  2
SOLID
 70
1
 71
1
 91
1
 92
1
 93
6
 72
1
 10
363.2263905634
 20
31.4618858262
 11
363.5732655634
 21
31.4941486131
 72
1
 10
363.5732655634
 20
31.4941486131
 11
364.2092032839
 21
31.4941486131
 72
1
 10
364.2092032839
 20
31.4941486131
 11
364.2092032839
 21
31.3650944328
 72
1
 10
364.2092032839
 20
31.3650944328
 11
363.5732655634
 21
31.3650944328
 72
1
 10
363.5732655634
 20
31.3650944328
 11
362.9951404531
 21
31.397357926
 72
1
 10
362.9951404531
 20
31.397357926
 11
363.2263905634
 21
31.4618858262
 97
1
330
30C
 75
0
 76
1
 98
1
 10
0.0
 20
0.0
  0
LWPOLYLINE
  5
30E
100
AcDbEntity
  8
0
100
AcDbPolyline
 62
7
  6
CONTINUOUS
 90
24
 70
0
 10
368.2560780634
 20
31.5264129164
 10
368.4295155634
 20
31.4618858262
 10
369.4123282839
 20
31.3005673426
 10
369.6435780634
 20
31.2037759492
 10
369.7592026223
 20
31.0747202524
 10
369.7592026223
 20
31.0101931623
 10
369.6435780634
 20
30.9134032852
 10
369.4123282839
 20
30.8488746787
 10
369.0654532839
 20
30.8166118918
 10
368.7185782839
 20
30.8166118918
 10
368.3717032839
 20
30.8488746787
 10
368.1982657839
 20
30.8811389819
 10
368.0248282839
 20
30.9456660721
 10
368.7185782839
 20
30.9456660721
 10
369.0654532839
 20
30.9456660721
 10
369.2967030634
 20
30.9779303754
 10
369.4123282839
 20
31.0101931623
 10
369.4701405634
 20
31.0747202524
 10
369.4123282839
 20
31.139248859
 10
369.2388907839
 20
31.2037759492
 10
368.2560780634
 20
31.3650944328
 10
368.0248282839
 20
31.4618858262
 10
368.1982657839
 20
31.5909400065
 10
368.2560780634
 20
31.5264129164
  0
HATCH
  5
30F
100
AcDbEntity
  8
0
100
AcDbHatch
 62
7
  6
CONTINUOUS
 10
0.0
 20
0.0
 30
0.0
210
0.0
220
0.0
230
1.0
  2
SOLID
 70
1
 71
1
 91
1
 92
1
 93
23
 72
1
 10
368.2560780634
 20
31.5264129164
 11
368.4295155634
 21
31.4618858262
 72
1
 10
368.4295155634
 20
31.4618858262
 11
369.4123282839
 21
31.3005673426
 72
1
 10
369.4123282839
 20
31.3005673426
 11
369.6435780634
 21
31.2037759492
 72
1
 10
369.6435780634
 20
31.2037759492
 11
369.7592026223
 21
31.0747202524
 72
1
 10
369.7592026223
 20
31.0747202524
 11
369.7592026223
 21
31.0101931623
 72
1
 10
369.7592026223
 20
31.0101931623
 11
369.6435780634
 21
30.9134032852
 72
1
 10
369.6435780634
 20
30.9134032852
 11
369.4123282839
 21
30.8488746787
 72
1
 10
369.4123282839
 20
30.8488746787
 11
369.0654532839
 21
30.8166118918
 72
1
 10
369.0654532839
 20
30.8166118918
 11
368.7185782839
 21
30.8166118918
 72
1
 10
368.7185782839
 20
30.8166118918
 11
368.3717032839
 21
30.8488746787
 72
1
 10
368.3717032839
 20
30.8488746787
 11
368.1982657839
 21
30.8811389819
 72
1
 10
368.1982657839
 20
30.8811389819
 11
368.0248282839
 21
30.9456660721
 72
1
 10
368.0248282839
 20
30.9456660721
 11
368.7185782839
 21
30.9456660721
 72
1
 10
368.7185782839
 20
30.9456660721
 11
369.0654532839
 21
30.9456660721
 72
1
 10
369.0654532839
 20
30.9456660721
 11
369.2967030634
 21
30.9779303754
 72
1
 10
369.2967030634
 20
30.9779303754
 11
369.4123282839
 21
31.0101931623
 72
1
 10
369.4123282839
 20
31.0101931623
 11
369.4701405634
 21
31.0747202524
 72
1
 10
369.4701405634
 20
31.0747202524
 11
369.4123282839
 21
31.139248859
 72
1
 10
369.4123282839
 20
31.139248859
 11
369.2388907839
 21
31.2037759492
 72
1
 10
369.2388907839
 20
31.2037759492
 11
368.2560780634
 21
31.3650944328
 72
1
 10
368.2560780634
 20
31.3650944328
 11
368.0248282839
 21
31.4618858262
 72
1
 10
368.0248282839
 20
31.4618858262
 11
368.1982657839
 21
31.5909400065
 72
1
 10
368.1982657839
 20
31.5909400065
 11
368.2560780634
 21
31.5264129164
 97
1
330
30E
 75
0
 76
1
 98
1
 10
0.0
 20
0.0
  0
LWPOLYLINE
  5
310
100
AcDbEntity
  8
0
100
AcDbPolyline
 62
7
  6
CONTINUOUS
 90
12
 70
0
 10
358.6592030565
 20
31.3650944328
 10
358.6592030565
 20
31.2683031351
 10
358.7748280496
 20
31.1069845557
 10
358.9482655496
 20
31.0101931623
 10
359.2951405909
 20
30.9456660721
 10
358.8326405772
 20
30.8811389819
 10
358.6592030565
 20
30.9456660721
 10
358.5435780634
 20
31.0101931623
 10
358.4279530651
 20
31.139248859
 10
358.3701405634
 20
31.3328301295
 10
358.7170155634
 20
31.4941486131
 10
358.6592030565
 20
31.3650944328
  0
HATCH
  5
311
100
AcDbEntity
  8
0
100
AcDbHatch
 62
7
  6
CONTINUOUS
 10
0.0
 20
0.0
 30
0.0
210
0.0
220
0.0
230
1.0
  2
SOLID
 70
1
 71
1
 91
1
 92
1
 93
11
 72
1
 10
358.6592030565
 20
31.3650944328
 11
358.6592030565
 21
31.2683031351
 72
1
 10
358.6592030565
 20
31.2683031351
 11
358.7748280496
 21
31.1069845557
 72
1
 10
358.7748280496
 20
31.1069845557
 11
358.9482655496
 21
31.0101931623
 72
1
 10
358.9482655496
 20
31.0101931623
 11
359.2951405909
 21
30.9456660721
 72
1
 10
359.2951405909
 20
30.9456660721
 11
358.8326405772
 21
30.8811389819
 72
1
 10
358.8326405772
 20
30.8811389819
 11
358.6592030565
 21
30.9456660721
 72
1
 10
358.6592030565
 20
30.9456660721
 11
358.5435780634
 21
31.0101931623
 72
1
 10
358.5435780634
 20
31.0101931623
 11
358.4279530651
 21
31.139248859
 72
1
 10
358.4279530651
 20
31.139248859
 11
358.3701405634
 21
31.3328301295
 72
1
 10
358.3701405634
 20
31.3328301295
 11
358.7170155634
 21
31.4941486131
 72
1
 10
358.7170155634
 20
31.4941486131
 11
358.6592030565
 21
31.3650944328
 97
1
330
310
 75
0
 76
1
 98
1
 10
0.0
 20
0.0
  0
LWPOLYLINE
  5
312
100
AcDbEntity
  8
0
100
AcDbPolyline
 62
7
  6
CONTINUOUS
 90
6
 70
0
 10
362.8795155634
 20
31.3328301295
 10
362.9951404531
 20
31.397357926
 10
363.5732655634
 20
31.3650944328
 10
363.3420154531
 20
31.3328301295
 10
362.7638906736
 20
31.2037759492
 10
362.8795155634
 20
31.3328301295
  0
HATCH
  5
313
100
AcDbEntity
  8
0
100
AcDbHatch
 62
7
  6
CONTINUOUS
 10
0.0
 20
0.0
 30
0.0
210
0.0
220
0.0
230
1.0
  2
SOLID
 70
1
 71
1
 91
1
 92
1
 93
5
 72
1
 10
362.8795155634
 20
31.3328301295
 11
362.9951404531
 21
31.397357926
 72
1
 10
362.9951404531
 20
31.397357926
 11
363.5732655634
 21
31.3650944328
 72
1
 10
363.5732655634
 20
31.3650944328
 11
363.3420154531
 21
31.3328301295
 72
1
 10
363.3420154531
 20
31.3328301295
 11
362.7638906736
 21
31.2037759492
 72
1
 10
362.7638906736
 20
31.2037759492
 11
362.8795155634
 21
31.3328301295
 97
1
330
312
 75
0
 76
1
 98
1
 10
0.0
 20
0.0
  0
LWPOLYLINE
  5
314
100
AcDbEntity
  8
0
100
AcDbPolyline
 62
7
  6
CONTINUOUS
 90
9
 70
0
 10
363.1107656736
 20
31.2360394487
 10
363.0529530634
 20
31.139248859
 10
363.0529530634
 20
31.0747202524
 10
362.8217029531
 20
30.9779303754
 10
362.7638906736
 20
31.1069845557
 10
362.7638906736
 20
31.2037759492
 10
363.3420154531
 20
31.3328301295
 10
363.2263905634
 20
31.3005673426
 10
363.1107656736
 20
31.2360394487
  0
HATCH
  5
315
100
AcDbEntity
  8
0
100
AcDbHatch
 62
7
  6
CONTINUOUS
 10
0.0
 20
0.0
 30
0.0
210
0.0
220
0.0
230
1.0
  2
SOLID
 70
1
 71
1
 91
1
 92
1
 93
8
 72
1
 10
363.1107656736
 20
31.2360394487
 11
363.0529530634
 21
31.139248859
 72
1
 10
363.0529530634
 20
31.139248859
 11
363.0529530634
 21
31.0747202524
 72
1
 10
363.0529530634
 20
31.0747202524
 11
362.8217029531
 21
30.9779303754
 72
1
 10
362.8217029531
 20
30.9779303754
 11
362.7638906736
 21
31.1069845557
 72
1
 10
362.7638906736
 20
31.1069845557
 11
362.7638906736
 21
31.2037759492
 72
1
 10
362.7638906736
 20
31.2037759492
 11
363.3420154531
 21
31.3328301295
 72
1
 10
363.3420154531
 20
31.3328301295
 11
363.2263905634
 21
31.3005673426
 72
1
 10
363.2263905634
 20
31.3005673426
 11
363.1107656736
 21
31.2360394487
 97
1
330
314
 75
0
 76
1
 98
1
 10
0.0
 20
0.0
  0
LWPOLYLINE
  5
316
100
AcDbEntity
  8
0
100
AcDbPolyline
 62
7
  6
CONTINUOUS
 90
10
 70
0
 10
364.1513903428
 20
31.1069845557
 10
364.2092032839
 20
31.1715120759
 10
364.4982653428
 20
31.0747202524
 10
364.5560782839
 20
30.9134032852
 10
364.6138905634
 20
30.8166118918
 10
364.3248278428
 20
30.8166118918
 10
364.2670155634
 20
30.8811389819
 10
364.2092032839
 20
30.9779303754
 10
363.9779528428
 20
31.0101931623
 10
364.1513903428
 20
31.1069845557
  0
HATCH
  5
317
100
AcDbEntity
  8
0
100
AcDbHatch
 62
7
  6
CONTINUOUS
 10
0.0
 20
0.0
 30
0.0
210
0.0
220
0.0
230
1.0
  2
SOLID
 70
1
 71
1
 91
1
 92
1
 93
9
 72
1
 10
364.1513903428
 20
31.1069845557
 11
364.2092032839
 21
31.1715120759
 72
1
 10
364.2092032839
 20
31.1715120759
 11
364.4982653428
 21
31.0747202524
 72
1
 10
364.4982653428
 20
31.0747202524
 11
364.5560782839
 21
30.9134032852
 72
1
 10
364.5560782839
 20
30.9134032852
 11
364.6138905634
 21
30.8166118918
 72
1
 10
364.6138905634
 20
30.8166118918
 11
364.3248278428
 21
30.8166118918
 72
1
 10
364.3248278428
 20
30.8166118918
 11
364.2670155634
 21
30.8811389819
 72
1
 10
364.2670155634
 20
30.8811389819
 11
364.2092032839
 21
30.9779303754
 72
1
 10
364.2092032839
 20
30.9779303754
 11
363.9779528428
 21
31.0101931623
 72
1
 10
363.9779528428
 20
31.0101931623
 11
364.1513903428
 21
31.1069845557
 97
1
330
316
 75
0
 76
1
 98
1
 10
0.0
 20
0.0
  0
LWPOLYLINE
  5
318
100
AcDbEntity
  8
0
100
AcDbPolyline
 62
7
  6
CONTINUOUS
 90
12
 70
0
 10
359.8732656185
 20
31.0424573076
 10
359.9310780634
 20
31.139248859
 10
360.2201406185
 20
31.139248859
 10
360.1623280082
 20
31.0101931623
 10
359.9888905082
 20
30.9134032852
 10
359.7576405634
 20
30.8488746787
 10
359.3529530358
 20
30.8166118918
 10
359.0060780772
 20
30.8488746787
 10
358.8326405772
 20
30.8811389819
 10
359.2951405909
 20
30.9456660721
 10
359.6998280358
 20
30.9779303754
 10
359.8732656185
 20
31.0424573076
  0
HATCH
  5
319
100
AcDbEntity
  8
0
100
AcDbHatch
 62
7
  6
CONTINUOUS
 10
0.0
 20
0.0
 30
0.0
210
0.0
220
0.0
230
1.0
  2
SOLID
 70
1
 71
1
 91
1
 92
1
 93
11
 72
1
 10
359.8732656185
 20
31.0424573076
 11
359.9310780634
 21
31.139248859
 72
1
 10
359.9310780634
 20
31.139248859
 11
360.2201406185
 21
31.139248859
 72
1
 10
360.2201406185
 20
31.139248859
 11
360.1623280082
 21
31.0101931623
 72
1
 10
360.1623280082
 20
31.0101931623
 11
359.9888905082
 21
30.9134032852
 72
1
 10
359.9888905082
 20
30.9134032852
 11
359.7576405634
 21
30.8488746787
 72
1
 10
359.7576405634
 20
30.8488746787
 11
359.3529530358
 21
30.8166118918
 72
1
 10
359.3529530358
 20
30.8166118918
 11
359.0060780772
 21
30.8488746787
 72
1
 10
359.0060780772
 20
30.8488746787
 11
358.8326405772
 21
30.8811389819
 72
1
 10
358.8326405772
 20
30.8811389819
 11
359.2951405909
 21
30.9456660721
 72
1
 10
359.2951405909
 20
30.9456660721
 11
359.6998280358
 21
30.9779303754
 72
1
 10
359.6998280358
 20
30.9779303754
 11
359.8732656185
 21
31.0424573076
 97
1
330
318
 75
0
 76
1
 98
1
 10
0.0
 20
0.0
  0
LWPOLYLINE
  5
31A
100
AcDbEntity
  8
0
100
AcDbPolyline
 62
7
  6
CONTINUOUS
 90
6
 70
0
 10
363.1107656736
 20
31.0101931623
 10
363.3420154531
 20
30.9456660721
 10
362.9951404531
 20
30.8811389819
 10
362.8217029531
 20
30.9779303754
 10
363.0529530634
 20
31.0747202524
 10
363.1107656736
 20
31.0101931623
  0
HATCH
  5
31B
100
AcDbEntity
  8
0
100
AcDbHatch
 62
7
  6
CONTINUOUS
 10
0.0
 20
0.0
 30
0.0
210
0.0
220
0.0
230
1.0
  2
SOLID
 70
1
 71
1
 91
1
 92
1
 93
5
 72
1
 10
363.1107656736
 20
31.0101931623
 11
363.3420154531
 21
30.9456660721
 72
1
 10
363.3420154531
 20
30.9456660721
 11
362.9951404531
 21
30.8811389819
 72
1
 10
362.9951404531
 20
30.8811389819
 11
362.8217029531
 21
30.9779303754
 72
1
 10
362.8217029531
 20
30.9779303754
 11
363.0529530634
 21
31.0747202524
 72
1
 10
363.0529530634
 20
31.0747202524
 11
363.1107656736
 21
31.0101931623
 97
1
330
31A
 75
0
 76
1
 98
1
 10
0.0
 20
0.0
  0
LWPOLYLINE
  5
31C
100
AcDbEntity
  8
0
100
AcDbPolyline
 62
7
  6
CONTINUOUS
 90
11
 70
0
 10
363.6888904531
 20
30.9456660721
 10
363.9779528428
 20
31.0101931623
 10
364.2092032839
 20
30.9779303754
 10
364.1513903428
 20
30.9134032852
 10
363.9779528428
 20
30.8488746787
 10
363.6888904531
 20
30.8166118918
 10
363.3420154531
 20
30.8166118918
 10
363.1107656736
 20
30.8488746787
 10
362.9951404531
 20
30.8811389819
 10
363.3420154531
 20
30.9456660721
 10
363.6888904531
 20
30.9456660721
  0
HATCH
  5
31D
100
AcDbEntity
  8
0
100
AcDbHatch
 62
7
  6
CONTINUOUS
 10
0.0
 20
0.0
 30
0.0
210
0.0
220
0.0
230
1.0
  2
SOLID
 70
1
 71
1
 91
1
 92
1
 93
10
 72
1
 10
363.6888904531
 20
30.9456660721
 11
363.9779528428
 21
31.0101931623
 72
1
 10
363.9779528428
 20
31.0101931623
 11
364.2092032839
 21
30.9779303754
 72
1
 10
364.2092032839
 20
30.9779303754
 11
364.1513903428
 21
30.9134032852
 72
1
 10
364.1513903428
 20
30.9134032852
 11
363.9779528428
 21
30.8488746787
 72
1
 10
363.9779528428
 20
30.8488746787
 11
363.6888904531
 21
30.8166118918
 72
1
 10
363.6888904531
 20
30.8166118918
 11
363.3420154531
 21
30.8166118918
 72
1
 10
363.3420154531
 20
30.8166118918
 11
363.1107656736
 21
30.8488746787
 72
1
 10
363.1107656736
 20
30.8488746787
 11
362.9951404531
 21
30.8811389819
 72
1
 10
362.9951404531
 20
30.8811389819
 11
363.3420154531
 21
30.9456660721
 72
1
 10
363.3420154531
 20
30.9456660721
 11
363.6888904531
 21
30.9456660721
 97
1
330
31C
 75
0
 76
1
 98
1
 10
0.0
 20
0.0
  0
LWPOLYLINE
  5
31E
100
AcDbEntity
  8
0
100
AcDbPolyline
 62
7
  6
CONTINUOUS
 90
7
 70
0
 10
368.3717032839
 20
30.9779303754
 10
368.7185782839
 20
30.9456660721
 10
368.0248282839
 20
30.9456660721
 10
367.9092030634
 20
31.0747202524
 10
368.1982657839
 20
31.0747202524
 10
368.2560780634
 20
31.0101931623
 10
368.3717032839
 20
30.9779303754
  0
HATCH
  5
31F
100
AcDbEntity
  8
0
100
AcDbHatch
 62
7
  6
CONTINUOUS
 10
0.0
 20
0.0
 30
0.0
210
0.0
220
0.0
230
1.0
  2
SOLID
 70
1
 71
1
 91
1
 92
1
 93
6
 72
1
 10
368.3717032839
 20
30.9779303754
 11
368.7185782839
 21
30.9456660721
 72
1
 10
368.7185782839
 20
30.9456660721
 11
368.0248282839
 21
30.9456660721
 72
1
 10
368.0248282839
 20
30.9456660721
 11
367.9092030634
 21
31.0747202524
 72
1
 10
367.9092030634
 20
31.0747202524
 11
368.1982657839
 21
31.0747202524
 72
1
 10
368.1982657839
 20
31.0747202524
 11
368.2560780634
 21
31.0101931623
 72
1
 10
368.2560780634
 20
31.0101931623
 11
368.3717032839
 21
30.9779303754
 97
1
330
31E
 75
0
 76
1
 98
1
 10
0.0
 20
0.0
  0
SOLID
  5
320
100
AcDbEntity
  8
0
100
AcDbTrace
 62
7
  6
CONTINUOUS
 10
365.0763907839
 20
30.8166118918
 11
365.0763907839
 21
31.8490498836
 12
365.3654528428
 22
30.8166118918
 13
365.3654528428
 23
31.8490498836
  0
ENDBLK
  5
321
100
AcDbEntity
  8
0
  6
BYBLOCK
 62
0
100
AcDbBlockEnd
  0
BLOCK
  5
322
100
AcDbEntity
  8
0
100
AcDbBlockBegin
 62
2
  6
CONTINUOUS
  2
AMMEAAL_LOGO_BL0
 70
64
 10
241.0459637928
 20
19.6790146053
  3
AMMEAAL_LOGO_BL0
  1

  0
TEXT
  5
323
100
AcDbEntity
  8
0
100
AcDbText
 62
7
  6
CONTINUOUS
 10
227.3106676351
 20
19.0524287129
  7
TEXTSTYLE_3
 40
2.7338706658
  1
Ammeraal Beltech
 41
1.0
 51
15.0
 72
0
100
AcDbText
  0
TEXT
  5
324
100
AcDbEntity
  8
0
100
AcDbText
 62
7
  6
CONTINUOUS
 10
238.1114684608
 20
16.7788920401
  7
TEXTSTYLE_4
 40
1.0935482663
  1
Innovation & Service in Belting
 41
1.0
 72
0
100
AcDbText
  0
LINE
  5
325
100
AcDbEntity
  8
0
100
AcDbLine
 62
7
  6
CONTINUOUS
 10
221.2861269837
 20
19.8190220215
 11
222.0642789771
 21
23.4799393191
  0
LINE
  5
326
100
AcDbEntity
  8
0
100
AcDbLine
 62
7
  6
CONTINUOUS
 10
232.1594472669
 20
27.1433332308
 11
222.5520967201
 21
24.0217158095
  0
LINE
  5
327
100
AcDbEntity
  8
0
100
AcDbLine
 62
7
  6
CONTINUOUS
 10
221.511410316
 20
19.1256712184
 11
229.0184855772
 21
12.3662702925
  0
LINE
  5
328
100
AcDbEntity
  8
0
100
AcDbLine
 62
7
  6
CONTINUOUS
 10
221.7739447268
 20
20.3607985118
 11
232.5822140919
 21
23.8726181108
  0
LINE
  5
329
100
AcDbEntity
  8
0
100
AcDbLine
 62
7
  6
CONTINUOUS
 10
232.5780089548
 20
13.522829547
 11
224.132549286
 21
21.1271555887
  0
LINE
  5
32A
100
AcDbEntity
  8
0
100
AcDbLine
 62
7
  6
CONTINUOUS
 10
233.0978316746
 20
26.298408115
 11
232.1212721373
 21
21.7040567125
  0
LINE
  5
32B
100
AcDbEntity
  8
0
100
AcDbLine
 62
7
  6
CONTINUOUS
 10
231.4214701896
 20
18.4117473987
 11
230.7350219782
 21
15.1822624744
  0
LINE
  5
32C
100
AcDbEntity
  8
0
100
AcDbLine
 62
7
  6
CONTINUOUS
 10
233.7789277731
 20
13.9130317247
 11
234.7351593087
 21
18.4117473987
  0
LINE
  5
32D
100
AcDbEntity
  8
0
100
AcDbLine
 62
7
  6
CONTINUOUS
 10
235.4349612564
 20
21.7040567125
 11
235.8792030588
 21
23.7940500719
  0
LINE
  5
32E
100
AcDbEntity
  8
0
100
AcDbLine
 62
7
  6
CONTINUOUS
 10
229.7315866525
 20
12.2146959798
 11
233.2911100301
 21
13.3712552343
  0
LINE
  5
32F
100
AcDbEntity
  8
0
100
AcDbLine
 62
7
  6
CONTINUOUS
 10
232.8725483422
 20
26.9917589181
 11
235.6539197265
 21
24.487400875
  0
ARC
  5
330
100
AcDbEntity
  8
0
100
AcDbCircle
 62
7
  6
CONTINUOUS
 10
222.7773800524
 20
23.3283650064
 40
0.7290321776
100
AcDbArc
 50
108.0
 51
168.0
  0
ARC
  5
331
100
AcDbEntity
  8
0
100
AcDbCircle
 62
7
  6
CONTINUOUS
 10
232.3847305992
 20
26.4499824277
 40
0.7290321776
100
AcDbArc
 50
348.0
 51
108.0
  0
ARC
  5
332
100
AcDbEntity
  8
0
100
AcDbCircle
 62
7
  6
CONTINUOUS
 10
235.1661019835
 20
23.9456243846
 40
0.7290321776
100
AcDbArc
 50
348.0
 51
48.0
  0
ARC
  5
333
100
AcDbEntity
  8
0
100
AcDbCircle
 62
7
  6
CONTINUOUS
 10
229.5063033202
 20
12.9080467828
 40
0.7290321776
100
AcDbArc
 50
228.0
 51
288.0
  0
ARC
  5
334
100
AcDbEntity
  8
0
100
AcDbCircle
 62
7
  6
CONTINUOUS
 10
221.9992280591
 20
19.6674477088
 40
0.7290321776
100
AcDbArc
 50
108.0
 51
228.0
  0
ARC
  5
335
100
AcDbEntity
  8
0
100
AcDbCircle
 62
7
  6
CONTINUOUS
 10
233.0658266978
 20
14.0646060374
 40
0.7290321776
100
AcDbArc
 50
228.0
 51
348.0
  0
ENDBLK
  5
336
100
AcDbEntity
  8
0
  6
BYBLOCK
 62
0
100
AcDbBlockEnd
  0
BLOCK
  5
337
100
AcDbEntity
  8
0
100
AcDbBlockBegin
  2
*T1
 70
1
 10
0.0
 20
0.0
  3
*T1
  1

  0
LINE
  5
338
100
AcDbEntity
  8
0
100
AcDbLine
 62
2
  6
CONTINUOUS
 10
0.0
 20
0.0
 11
190.0
 21
0.0
  0
LINE
  5
339
100
AcDbEntity
  8
0
100
AcDbLine
 62
2
  6
CONTINUOUS
 10
0.0
 20
0.0
 11
0.0
 21
-20.0
  0
LINE
  5
33A
100
AcDbEntity
  8
0
100
AcDbLine
 62
2
  6
CONTINUOUS
 10
0.0
 20
-20.0
 11
190.0
 21
-20.0
  0
LINE
  5
33B
100
AcDbEntity
  8
0
100
AcDbLine
 62
2
  6
CONTINUOUS
 10
85.0
 20
0.0
 11
85.0
 21
-20.0
  0
LINE
  5
33C
100
AcDbEntity
  8
0
100
AcDbLine
 62
2
  6
CONTINUOUS
 10
105.0
 20
0.0
 11
105.0
 21
-20.0
  0
LINE
  5
33D
100
AcDbEntity
  8
0
100
AcDbLine
 62
2
  6
CONTINUOUS
 10
190.0
 20
0.0
 11
190.0
 21
-20.0
  0
MTEXT
  5
33E
100
AcDbEntity
  8
0
100
AcDbMText
 62
5
  6
CONTINUOUS
  7
TEXTSTYLE_5
 71
1
 72
1
 10
3.0
 20
-5.177
 30
0.0
 11
1.0
 21
0.0
 31
0.0
 44
1.08
  3
                                                                     Ammeraal Beltech Modular A/S\P\H1.5;                                                                      Hjulmagervej 21, 7100 Vejle,  DK\P\H1.495;                                 
  1
                                     tel: \H1.51;+45 75723100     fax: +45 75723348\P\H1.5;                                                                      admin@unichains.dk  www.unichains.com
 40
1.52
 41
161.0496183206
  0
MTEXT
  5
33F
100
AcDbEntity
  8
0
100
AcDbMText
 62
5
  6
CONTINUOUS
  7
TEXTSTYLE_6
 71
2
 72
1
 10
95.0
 20
-11.25
 30
0.0
 11
1.0
 21
0.0
 31
0.0
 44
0.9
  1
1:1
 40
5.0
 41
21.0
  0
MTEXT
  5
340
100
AcDbEntity
  8
0
100
AcDbMText
 62
5
  6
CONTINUOUS
  7
TEXTSTYLE_7
 71
1
 72
1
 10
108.0
 20
-8.75
 30
0.0
 11
1.0
 21
0.0
 31
0.0
 44
0.9
  1
Z12
 40
7.5
 41
28.0
  0
ENDBLK
  5
341
100
AcDbEntity
  8
0
  6
BYBLOCK
 62
0
100
AcDbBlockEnd
  0
ENDSEC
  0
SECTION
  2
ENTITIES
  0
MTEXT
  5
342
100
AcDbEntity
  8
0
100
AcDbMText
 62
2
  6
CONTINUOUS
  7
TEXTSTYLE_2
 71
1
 72
1
 10
304.937007874
 20
28.436
 30
0.0
 11
1.0
 21
0.0
 31
0.0
 44
0.9
  1
\Q0.000019;Scale :
 40
2.8
 41
11.76
  0
MTEXT
  5
343
100
AcDbEntity
  8
0
100
AcDbMText
 62
2
  6
CONTINUOUS
  7
TEXTSTYLE_2
 71
1
 72
1
 10
324.937007874
 20
28.436
 30
0.0
 11
1.0
 21
0.0
 31
0.0
 44
0.9
  1
\Q0.000019;Chain type:
 40
2.8
 41
18.48
  0
INSERT
  5
344
100
AcDbEntity
  8
0
100
AcDbBlockReference
 62
2
  6
CONTINUOUS
  2
AMMEAAL_LOGO_BL0
 10
241.0459637928
 20
19.6790146053
  0
INSERT
  5
345
100
AcDbEntity
  8
0
100
AcDbBlockReference
 62
2
  6
CONTINUOUS
  2
UNI_LOGO2_BL1
 10
382.3920721743
 20
35.81661148
  0
ACAD_TABLE
  5
346
100
AcDbEntity
  8
0
 62
2
  6
CONTINUOUS
100
AcDbBlockReference
  2
*T1
 10
218.937007874
 20
30.0
 30
0.0
100
AcDbTable
342
       6B4
343
215
 11
1.0
 21
0.0
 31
0.0
 90
22
 91
1
 92
3
 93
0
 94
0
 95
0
 96
0
141
20.0
142
85.0
142
20.0
142
85.0
171
1
172
0
173
0
174
0
175
1
176
1
 91
57
178
0
145
0.0
  7
TEXTSTYLE_5
301
CELL_VALUE
 90
4
  2
                                                                     Ammeraal Beltech Modular A/S\P\H1.5;                                                                      Hjulmagervej 21, 7100 Vejle,  DK\P\H1.495;                                 
  1
                                     tel: \H1.51;+45 75723100     fax: +45 75723348\P\H1.5;                                                                      admin@unichains.dk  www.unichains.com
304
ACVALUE_END
170
4
140
1.52
 64
5
171
1
172
0
173
0
174
0
175
1
176
1
 91
57
178
0
145
0.0
  7
TEXTSTYLE_6
301
CELL_VALUE
 90
4
  1
1:1
304
ACVALUE_END
170
8
140
5.0
 64
5
171
1
172
0
173
0
174
0
175
1
176
1
 91
57
178
0
145
0.0
  7
TEXTSTYLE_7
301
CELL_VALUE
 90
4
  1
Z12
304
ACVALUE_END
170
7
140
7.5
 64
5
  0
LINE
  5
347
100
AcDbEntity
  8
0
100
AcDbLine
 62
7
  6
CONTINUOUS
 10
0.0
 20
0.0
 11
0.0
 21
297.0
  0
LINE
  5
348
100
AcDbEntity
  8
0
100
AcDbLine
 62
7
  6
CONTINUOUS
 10
8.937007874
 20
10.0
 11
8.937007874
 21
287.0
  0
LINE
  5
349
100
AcDbEntity
  8
0
100
AcDbLine
 62
7
  6
CONTINUOUS
 10
0.0
 20
0.0
 11
420.0
 21
0.0
  0
LINE
  5
34A
100
AcDbEntity
  8
0
100
AcDbLine
 62
7
  6
CONTINUOUS
 10
408.937007874
 20
10.0
 11
8.937007874
 21
10.0
  0
LINE
  5
34B
100
AcDbEntity
  8
0
100
AcDbLine
 62
7
  6
CONTINUOUS
 10
218.937007874
 20
30.0
 11
408.937007874
 21
30.0
  0
LINE
  5
34C
100
AcDbEntity
  8
0
100
AcDbLine
 62
7
  6
CONTINUOUS
 10
210.0
 20
297.0
 11
210.0
 21
292.0
  0
LINE
  5
34D
100
AcDbEntity
  8
0
100
AcDbLine
 62
7
  6
CONTINUOUS
 10
210.0
 20
0.0
 11
210.0
 21
5.0
  0
LINE
  5
34E
100
AcDbEntity
  8
0
100
AcDbLine
 62
7
  6
CONTINUOUS
 10
8.937007874
 20
287.0
 11
408.937007874
 21
287.0
  0
LINE
  5
34F
100
AcDbEntity
  8
0
100
AcDbLine
 62
7
  6
CONTINUOUS
 10
0.0
 20
297.0
 11
420.0
 21
297.0
  0
LINE
  5
350
100
AcDbEntity
  8
0
100
AcDbLine
 62
7
  6
CONTINUOUS
 10
408.937007874
 20
287.0
 11
408.937007874
 21
10.0
  0
LINE
  5
351
100
AcDbEntity
  8
0
100
AcDbLine
 62
7
  6
CONTINUOUS
 10
420.0
 20
0.0
 11
420.0
 21
297.0
  0
LINE
  5
352
100
AcDbEntity
  8
0
100
AcDbLine
 62
7
  6
CONTINUOUS
 10
103.9911779302
 20
199.7108877154
 11
103.5586863121
 21
199.4206840723
  0
LINE
  5
353
100
AcDbEntity
  8
0
100
AcDbLine
 62
7
  6
CONTINUOUS
 10
103.8550645785
 20
198.978990389
 11
104.2875561966
 21
199.2691940321
  0
LINE
  5
354
100
AcDbEntity
  8
0
100
AcDbLine
 62
7
  6
CONTINUOUS
 10
110.4228643551
 20
203.5912375664
 11
109.8758384645
 21
203.2889336217
  0
LINE
  5
355
100
AcDbEntity
  8
0
100
AcDbLine
 62
7
  6
CONTINUOUS
 10
114.6943606294
 20
205.7736996241
 11
111.3377106002
 21
204.1017518015
  0
LINE
  5
356
100
AcDbEntity
  8
0
100
AcDbLine
 62
7
  6
CONTINUOUS
 10
111.574866216
 20
203.625631438
 11
114.3720736845
 21
205.0189208473
  0
LINE
  5
357
100
AcDbEntity
  8
0
100
AcDbLine
 62
7
  6
CONTINUOUS
 10
101.3055808493
 20
192.2406893783
 11
101.0465815685
 21
191.8973997859
  0
LINE
  5
358
100
AcDbEntity
  8
0
100
AcDbLine
 62
7
  6
CONTINUOUS
 10
101.3123179723
 20
191.5650422031
 11
101.5713172705
 21
191.9083317737
  0
LINE
  5
359
100
AcDbEntity
  8
0
100
AcDbLine
 62
7
  6
CONTINUOUS
 10
102.4770367703
 20
196.7207296769
 11
102.2009569248
 21
196.391019909
  0
LINE
  5
35A
100
AcDbEntity
  8
0
100
AcDbLine
 62
7
  6
CONTINUOUS
 10
102.449492001
 20
196.0456104659
 11
102.7255718465
 21
196.3753202338
  0
LINE
  5
35B
100
AcDbEntity
  8
0
100
AcDbLine
 62
7
  6
CONTINUOUS
 10
128.6071577084
 20
210.7264975896
 11
128.2570507941
 21
210.4161650844
  0
LINE
  5
35C
100
AcDbEntity
  8
0
100
AcDbLine
 62
7
  6
CONTINUOUS
 10
100.3254438721
 20
195.1346036636
 11
99.9186519485
 21
194.8093533054
  0
LINE
  5
35D
100
AcDbEntity
  8
0
100
AcDbLine
 62
7
  6
CONTINUOUS
 10
98.2914846325
 20
193.5083521751
 11
97.8846927962
 21
193.1831018866
  0
LINE
  5
35E
100
AcDbEntity
  8
0
100
AcDbLine
 62
7
  6
CONTINUOUS
 10
101.0465815685
 20
191.8973997859
 11
100.7211480529
 21
191.6371995179
  0
LINE
  5
35F
100
AcDbEntity
  8
0
100
AcDbLine
 62
7
  6
CONTINUOUS
 10
100.9868844567
 20
191.3048419351
 11
101.3123179723
 21
191.5650422031
  0
LINE
  5
360
100
AcDbEntity
  8
0
100
AcDbLine
 62
7
  6
CONTINUOUS
 10
102.2072599946
 20
192.2805928236
 11
102.6140519182
 21
192.6058431818
  0
LINE
  5
361
100
AcDbEntity
  8
0
100
AcDbLine
 62
7
  6
CONTINUOUS
 10
102.8152503849
 20
196.964087084
 11
102.4770367703
 21
196.7207296769
  0
LINE
  5
362
100
AcDbEntity
  8
0
100
AcDbLine
 62
7
  6
CONTINUOUS
 10
101.7160565005
 20
196.1731757719
 11
101.2932896032
 21
195.8689791
  0
LINE
  5
363
100
AcDbEntity
  8
0
100
AcDbLine
 62
7
  6
CONTINUOUS
 10
103.2815703866
 20
193.1057033139
 11
103.7043372839
 21
193.4098999858
  0
LINE
  5
364
100
AcDbEntity
  8
0
100
AcDbLine
 62
7
  6
CONTINUOUS
 10
105.2262978237
 20
194.5050077957
 11
105.649064479
 21
194.8092042935
  0
LINE
  5
365
100
AcDbEntity
  8
0
100
AcDbLine
 62
7
  6
CONTINUOUS
 10
117.2144577372
 20
206.1912275154
 11
117.6517338341
 21
206.4935079875
  0
LINE
  5
366
100
AcDbEntity
  8
0
100
AcDbLine
 62
7
  6
CONTINUOUS
 10
119.6340209594
 20
203.1755153651
 11
119.1967448625
 21
202.8732348931
  0
LINE
  5
367
100
AcDbEntity
  8
0
100
AcDbLine
 62
7
  6
CONTINUOUS
 10
104.8803128955
 20
198.3858064182
 11
104.4478212774
 21
198.0956027751
  0
LINE
  5
368
100
AcDbEntity
  8
0
100
AcDbLine
 62
7
  6
CONTINUOUS
 10
106.3446423485
 20
195.2687629551
 11
106.7771339666
 21
195.5589665982
  0
LINE
  5
369
100
AcDbEntity
  8
0
100
AcDbLine
 62
7
  6
CONTINUOUS
 10
128.86785311
 20
210.1346256883
 11
129.143753519
 21
210.3158784118
  0
LINE
  5
36A
100
AcDbEntity
  8
0
100
AcDbLine
 62
7
  6
CONTINUOUS
 10
117.4429485877
 20
206.9827340165
 11
116.9098649844
 21
206.6395661169
  0
LINE
  5
36B
100
AcDbEntity
  8
0
100
AcDbLine
 62
7
  6
CONTINUOUS
 10
119.4055301382
 20
202.3840087955
 11
119.9386137378
 21
202.7271767037
  0
LINE
  5
36C
100
AcDbEntity
  8
0
100
AcDbLine
 62
7
  6
CONTINUOUS
 10
121.7077382514
 20
207.9875119699
 11
122.1620116327
 21
208.2635908785
  0
LINE
  5
36D
100
AcDbEntity
  8
0
100
AcDbLine
 62
7
  6
CONTINUOUS
 10
123.9460244465
 20
204.8349121166
 11
123.4917488212
 21
204.5588324026
  0
LINE
  5
36E
100
AcDbEntity
  8
0
100
AcDbLine
 62
7
  6
CONTINUOUS
 10
135.4586291539
 20
210.3084853376
 11
135.1723384301
 21
210.144129939
  0
LINE
  5
36F
100
AcDbEntity
  8
0
100
AcDbLine
 62
7
  6
CONTINUOUS
 10
121.9823174418
 20
208.7642338495
 11
121.430000719
 21
208.4529645559
  0
LINE
  5
370
100
AcDbEntity
  8
0
100
AcDbLine
 62
7
  6
CONTINUOUS
 10
123.6714430372
 20
204.0581893615
 11
124.2237597569
 21
204.3694586639
  0
LINE
  5
371
100
AcDbEntity
  8
0
100
AcDbLine
 62
7
  6
CONTINUOUS
 10
112.2942700224
 20
198.9127264968
 11
112.841295913
 21
199.2150304416
  0
LINE
  5
372
100
AcDbEntity
  8
0
100
AcDbLine
 62
7
  6
CONTINUOUS
 10
128.9839039151
 20
210.9338364855
 11
128.6071577084
 21
210.7264975896
  0
LINE
  5
373
100
AcDbEntity
  8
0
100
AcDbLine
 62
7
  6
CONTINUOUS
 10
131.0580422064
 20
207.0749813924
 11
130.6812936914
 21
206.8676418994
  0
LINE
  5
374
100
AcDbEntity
  8
0
100
AcDbLine
 62
7
  6
CONTINUOUS
 10
114.4993768559
 20
200.0906500093
 11
115.0588183496
 21
200.3693078911
  0
LINE
  5
375
100
AcDbEntity
  8
0
100
AcDbLine
 62
7
  6
CONTINUOUS
 10
140.2695732314
 20
211.0393363947
 11
139.9739305106
 21
210.8924726241
  0
LINE
  5
376
100
AcDbEntity
  8
0
100
AcDbLine
 62
7
  6
CONTINUOUS
 10
140.5656777308
 20
208.8250039753
 11
140.27003501
 21
208.6781402047
  0
LINE
  5
377
100
AcDbEntity
  8
0
100
AcDbLine
 62
7
  6
CONTINUOUS
 10
130.8411433139
 20
206.2496837536
 11
131.3187399325
 21
206.483110025
  0
LINE
  5
378
100
AcDbEntity
  8
0
100
AcDbLine
 62
7
  6
CONTINUOUS
 10
100.5950168984
 20
191.1277311094
 11
100.9868844567
 21
191.3048419351
  0
LINE
  5
379
100
AcDbEntity
  8
0
100
AcDbLine
 62
7
  6
CONTINUOUS
 10
135.1925544218
 20
209.4977045731
 11
135.6833061123
 21
209.7020245355
  0
LINE
  5
37A
100
AcDbEntity
  8
0
100
AcDbLine
 62
7
  6
CONTINUOUS
 10
102.7255718465
 20
196.3753202338
 11
103.1259192301
 21
196.5323252802
  0
LINE
  5
37B
100
AcDbEntity
  8
0
100
AcDbLine
 62
7
  6
CONTINUOUS
 10
140.2513855016
 20
208.0316669072
 11
140.7535250857
 21
208.2061438178
  0
LINE
  5
37C
100
AcDbEntity
  8
0
100
AcDbLine
 62
7
  6
CONTINUOUS
 10
161.216795781
 20
212.7823048392
 11
160.7736832008
 21
212.6322036408
  0
LINE
  5
37D
100
AcDbEntity
  8
0
100
AcDbLine
 62
7
  6
CONTINUOUS
 10
103.1310442439
 20
197.0602526916
 11
102.8152503849
 21
196.964087084
  0
LINE
  5
37E
100
AcDbEntity
  8
0
100
AcDbLine
 62
7
  6
CONTINUOUS
 10
101.4167877667
 20
192.6020183328
 11
101.3055808493
 21
192.2406893783
  0
LINE
  5
37F
100
AcDbEntity
  8
0
100
AcDbLine
 62
7
  6
CONTINUOUS
 10
102.2009569248
 20
196.391019909
 11
102.0715646149
 21
196.0357973932
  0
LINE
  5
380
100
AcDbEntity
  8
0
100
AcDbLine
 62
7
  6
CONTINUOUS
 10
102.320099691
 20
195.6903879502
 11
102.449492001
 21
196.0456104659
  0
LINE
  5
381
100
AcDbEntity
  8
0
100
AcDbLine
 62
7
  6
CONTINUOUS
 10
101.5713172705
 20
191.9083317737
 11
101.6675999856
 21
192.1215213499
  0
LINE
  5
382
100
AcDbEntity
  8
0
100
AcDbLine
 62
7
  6
CONTINUOUS
 10
117.0105515095
 20
205.8728757569
 11
117.2144577372
 21
206.1912275154
  0
LINE
  5
383
100
AcDbEntity
  8
0
100
AcDbLine
 62
7
  6
CONTINUOUS
 10
119.8379271872
 20
203.4938671236
 11
119.6340209594
 21
203.1755153651
  0
LINE
  5
384
100
AcDbEntity
  8
0
100
AcDbLine
 62
7
  6
CONTINUOUS
 10
116.9098649844
 20
206.6395661169
 11
116.556102986
 21
206.1415952332
  0
LINE
  5
385
100
AcDbEntity
  8
0
100
AcDbLine
 62
7
  6
CONTINUOUS
 10
119.9386137378
 20
202.7271767037
 11
120.2923757252
 21
203.2251476131
  0
LINE
  5
386
100
AcDbEntity
  8
0
100
AcDbLine
 62
7
  6
CONTINUOUS
 10
121.4854881472
 20
207.6816844319
 11
121.7077382514
 21
207.9875119699
  0
LINE
  5
387
100
AcDbEntity
  8
0
100
AcDbLine
 62
7
  6
CONTINUOUS
 10
124.1682745507
 20
205.1407396547
 11
123.9460244465
 21
204.8349121166
  0
LINE
  5
388
100
AcDbEntity
  8
0
100
AcDbLine
 62
7
  6
CONTINUOUS
 10
121.430000719
 20
208.4529645559
 11
121.047605014
 21
207.9766284589
  0
LINE
  5
389
100
AcDbEntity
  8
0
100
AcDbLine
 62
7
  6
CONTINUOUS
 10
124.2237597569
 20
204.3694586639
 11
124.6061576965
 21
204.8457955925
  0
LINE
  5
38A
100
AcDbEntity
  8
0
100
AcDbLine
 62
7
  6
CONTINUOUS
 10
128.6185943016
 20
209.8503799525
 11
128.86785311
 21
210.1346256883
  0
LINE
  5
38B
100
AcDbEntity
  8
0
100
AcDbLine
 62
7
  6
CONTINUOUS
 10
131.3073009961
 20
207.3592272003
 11
131.0580422064
 21
207.0749813924
  0
LINE
  5
38C
100
AcDbEntity
  8
0
100
AcDbLine
 62
7
  6
CONTINUOUS
 10
131.3187399325
 20
206.483110025
 11
131.6688445316
 21
206.7934419602
  0
LINE
  5
38D
100
AcDbEntity
  8
0
100
AcDbLine
 62
7
  6
CONTINUOUS
 10
140.6357170164
 20
210.6589782134
 11
140.8281089418
 21
210.7920351025
  0
LINE
  5
38E
100
AcDbEntity
  8
0
100
AcDbLine
 62
7
  6
CONTINUOUS
 10
160.9026890774
 20
212.0757017895
 11
161.242737423
 21
212.2409068575
  0
LINE
  5
38F
100
AcDbEntity
  8
0
100
AcDbLine
 62
7
  6
CONTINUOUS
 10
101.6675999856
 20
192.1215213499
 11
101.7123726565
 21
192.5659396434
  0
LINE
  5
390
100
AcDbEntity
  8
0
100
AcDbLine
 62
7
  6
CONTINUOUS
 10
102.0715646149
 20
196.0357973932
 11
102.0267253457
 21
195.7414139681
  0
LINE
  5
391
100
AcDbEntity
  8
0
100
AcDbLine
 62
7
  6
CONTINUOUS
 10
102.2752604218
 20
195.3960045251
 11
102.320099691
 21
195.6903879502
  0
LINE
  5
392
100
AcDbEntity
  8
0
100
AcDbLine
 62
7
  6
CONTINUOUS
 10
116.556102986
 20
206.1415952332
 11
116.3939538075
 21
205.7253982689
  0
LINE
  5
393
100
AcDbEntity
  8
0
100
AcDbLine
 62
7
  6
CONTINUOUS
 10
121.047605014
 20
207.9766284589
 11
120.861293748
 21
207.5706723266
  0
LINE
  5
394
100
AcDbEntity
  8
0
100
AcDbLine
 62
7
  6
CONTINUOUS
 10
128.2570507941
 20
210.4161650844
 11
127.960227081
 21
209.8998465546
  0
LINE
  5
395
100
AcDbEntity
  8
0
100
AcDbLine
 62
7
  6
CONTINUOUS
 10
135.6222746289
 20
210.5572642628
 11
135.4586291539
 21
210.3084853376
  0
LINE
  5
396
100
AcDbEntity
  8
0
100
AcDbLine
 62
7
  6
CONTINUOUS
 10
140.4478649439
 20
211.2778376742
 11
140.2695732314
 21
211.0393363947
  0
LINE
  5
397
100
AcDbEntity
  8
0
100
AcDbLine
 62
7
  6
CONTINUOUS
 10
140.7439694335
 20
209.0635053286
 11
140.5656777308
 21
208.8250039753
  0
LINE
  5
398
100
AcDbEntity
  8
0
100
AcDbLine
 62
7
  6
CONTINUOUS
 10
135.6833061123
 20
209.7020245355
 11
136.0310094878
 21
210.09517612
  0
LINE
  5
399
100
AcDbEntity
  8
0
100
AcDbLine
 62
7
  6
CONTINUOUS
 10
140.7535250857
 20
208.2061438178
 11
141.1242134462
 21
208.5777026462
  0
LINE
  5
39A
100
AcDbEntity
  8
0
100
AcDbLine
 62
7
  6
CONTINUOUS
 10
153.0749736742
 20
209.2364317468
 11
156.8182158778
 21
212.6444233357
  0
LINE
  5
39B
100
AcDbEntity
  8
0
100
AcDbLine
 62
7
  6
CONTINUOUS
 10
156.3104378383
 20
212.8867037956
 11
152.4632019384
 21
209.4846850149
  0
LINE
  5
39C
100
AcDbEntity
  8
0
100
AcDbLine
 62
7
  6
CONTINUOUS
 10
160.7736832008
 20
212.6322036408
 11
160.2997196965
 21
212.2715850742
  0
LINE
  5
39D
100
AcDbEntity
  8
0
100
AcDbLine
 62
7
  6
CONTINUOUS
 10
162.8251728733
 20
210.8262917968
 11
159.5536952612
 21
208.6177390444
  0
LINE
  5
39E
100
AcDbEntity
  8
0
100
AcDbLine
 62
7
  6
CONTINUOUS
 10
160.3782232912
 20
208.4969060133
 11
163.2942270956
 21
210.4349950135
  0
LINE
  5
39F
100
AcDbEntity
  8
0
100
AcDbLine
 62
7
  6
CONTINUOUS
 10
116.8778660895
 20
205.1222554735
 11
117.0105515095
 21
205.8728757569
  0
LINE
  5
3A0
100
AcDbEntity
  8
0
100
AcDbLine
 62
7
  6
CONTINUOUS
 10
109.8758384645
 20
203.2889336217
 11
109.6890044651
 21
202.3348542254
  0
LINE
  5
3A1
100
AcDbEntity
  8
0
100
AcDbLine
 62
7
  6
CONTINUOUS
 10
110.1006524849
 20
201.5899677343
 11
110.2874863402
 21
202.5440473914
  0
LINE
  5
3A2
100
AcDbEntity
  8
0
100
AcDbLine
 62
7
  6
CONTINUOUS
 10
121.3089501549
 20
206.9401518514
 11
121.4854881472
 21
207.6816844319
  0
LINE
  5
3A3
100
AcDbEntity
  8
0
100
AcDbLine
 62
7
  6
CONTINUOUS
 10
120.2923757252
 20
203.2251476131
 11
120.4545248891
 21
203.6413446116
  0
LINE
  5
3A4
100
AcDbEntity
  8
0
100
AcDbLine
 62
7
  6
CONTINUOUS
 10
124.6061576965
 20
204.8457955925
 11
124.7924689499
 21
205.2517517599
  0
LINE
  5
3A5
100
AcDbEntity
  8
0
100
AcDbLine
 62
7
  6
CONTINUOUS
 10
136.0310094878
 20
210.09517612
 11
136.2560746342
 21
210.5727526032
  0
LINE
  5
3A6
100
AcDbEntity
  8
0
100
AcDbLine
 62
7
  6
CONTINUOUS
 10
140.8281089418
 20
210.7920351025
 11
141.0814510241
 21
211.2552320442
  0
LINE
  5
3A7
100
AcDbEntity
  8
0
100
AcDbLine
 62
7
  6
CONTINUOUS
 10
141.1242134462
 20
208.5777026462
 11
141.3775555235
 21
209.0408996248
  0
LINE
  5
3A8
100
AcDbEntity
  8
0
100
AcDbLine
 62
7
  6
CONTINUOUS
 10
131.6688445316
 20
206.7934419602
 11
131.9656682353
 21
207.309760526
  0
LINE
  5
3A9
100
AcDbEntity
  8
0
100
AcDbLine
 62
7
  6
CONTINUOUS
 10
160.6502795042
 20
211.7901341678
 11
160.9026890774
 21
212.0757017895
  0
LINE
  5
3AA
100
AcDbEntity
  8
0
100
AcDbLine
 62
7
  6
CONTINUOUS
 10
158.5373049121
 20
213.205909712
 11
157.8392014189
 21
212.5292813424
  0
LINE
  5
3AB
100
AcDbEntity
  8
0
100
AcDbLine
 62
7
  6
CONTINUOUS
 10
157.7518852994
 20
211.6827083259
 11
158.4499888232
 21
212.3593369919
  0
LINE
  5
3AC
100
AcDbEntity
  8
0
100
AcDbLine
 62
7
  6
CONTINUOUS
 10
101.3802021343
 20
192.9813866437
 11
101.4167877667
 21
192.6020183328
  0
LINE
  5
3AD
100
AcDbEntity
  8
0
100
AcDbLine
 62
7
  6
CONTINUOUS
 10
116.3939538075
 20
205.7253982689
 11
116.3693669919
 21
205.2522425906
  0
LINE
  5
3AE
100
AcDbEntity
  8
0
100
AcDbLine
 62
7
  6
CONTINUOUS
 10
120.861293748
 20
207.5706723266
 11
120.8089646617
 21
207.0997779852
  0
LINE
  5
3AF
100
AcDbEntity
  8
0
100
AcDbLine
 62
7
  6
CONTINUOUS
 10
126.3693096115
 20
209.0935489625
 11
125.8585400725
 21
206.1531043402
  0
LINE
  5
3B0
100
AcDbEntity
  8
0
100
AcDbLine
 62
7
  6
CONTINUOUS
 10
126.2198443452
 20
206.0418172593
 11
126.730613972
 21
208.9822615969
  0
LINE
  5
3B1
100
AcDbEntity
  8
0
100
AcDbLine
 62
7
  6
CONTINUOUS
 10
119.9706126949
 20
204.2444872015
 11
119.8379271872
 21
203.4938671236
  0
LINE
  5
3B2
100
AcDbEntity
  8
0
100
AcDbLine
 62
7
  6
CONTINUOUS
 10
124.3448103745
 20
205.8822712193
 11
124.1682745507
 21
205.1407396547
  0
LINE
  5
3B3
100
AcDbEntity
  8
0
100
AcDbLine
 62
7
  6
CONTINUOUS
 10
131.4290700978
 20
207.7203791789
 11
131.3073009961
 21
207.3592272003
  0
LINE
  5
3B4
100
AcDbEntity
  8
0
100
AcDbLine
 62
7
  6
CONTINUOUS
 10
163.2942270956
 20
210.4349950135
 11
163.5466366688
 21
210.7205626353
  0
LINE
  5
3B5
100
AcDbEntity
  8
0
100
AcDbLine
 62
7
  6
CONTINUOUS
 10
116.3693669919
 20
205.2522425906
 11
116.3988329432
 21
204.9178202073
  0
LINE
  5
3B6
100
AcDbEntity
  8
0
100
AcDbLine
 62
7
  6
CONTINUOUS
 10
120.8089646617
 20
207.0997779852
 11
120.8187379354
 21
206.7642015371
  0
LINE
  5
3B7
100
AcDbEntity
  8
0
100
AcDbLine
 62
7
  6
CONTINUOUS
 10
114.3720736845
 20
205.0189208473
 11
114.4993768559
 21
200.0906500093
  0
LINE
  5
3B8
100
AcDbEntity
  8
0
100
AcDbLine
 62
7
  6
CONTINUOUS
 10
115.0588183496
 20
200.3693078911
 11
114.9315162453
 21
205.2975792607
  0
LINE
  5
3B9
100
AcDbEntity
  8
0
100
AcDbLine
 62
7
  6
CONTINUOUS
 10
120.4545248891
 20
203.6413446116
 11
120.4791116754
 21
204.1145003585
  0
LINE
  5
3BA
100
AcDbEntity
  8
0
100
AcDbLine
 62
7
  6
CONTINUOUS
 10
124.7924689499
 20
205.2517517599
 11
124.844798011
 21
205.7226461714
  0
LINE
  5
3BB
100
AcDbEntity
  8
0
100
AcDbLine
 62
7
  6
CONTINUOUS
 10
131.9656682353
 20
207.309760526
 11
132.0607957177
 21
207.7739055891
  0
LINE
  5
3BC
100
AcDbEntity
  8
0
100
AcDbLine
 62
7
  6
CONTINUOUS
 10
163.0930079086
 20
211.2171181026
 11
162.8251728733
 21
210.8262917968
  0
LINE
  5
3BD
100
AcDbEntity
  8
0
100
AcDbLine
 62
7
  6
CONTINUOUS
 10
120.4791116754
 20
204.1145003585
 11
120.4496458411
 21
204.4489224677
  0
LINE
  5
3BE
100
AcDbEntity
  8
0
100
AcDbLine
 62
7
  6
CONTINUOUS
 10
124.844798011
 20
205.7226461714
 11
124.835024838
 21
206.0582223391
  0
LINE
  5
3BF
100
AcDbEntity
  8
0
100
AcDbLine
 62
7
  6
CONTINUOUS
 10
127.960227081
 20
209.8998465546
 11
127.9659476859
 21
209.4617883331
  0
LINE
  5
3C0
100
AcDbEntity
  8
0
100
AcDbLine
 62
7
  6
CONTINUOUS
 10
128.5976733804
 20
209.5153144548
 11
128.6185943016
 21
209.8503799525
  0
LINE
  5
3C1
100
AcDbEntity
  8
0
100
AcDbLine
 62
7
  6
CONTINUOUS
 10
135.6632865545
 20
210.8904690014
 11
135.6222746289
 21
210.5572642628
  0
LINE
  5
3C2
100
AcDbEntity
  8
0
100
AcDbLine
 62
7
  6
CONTINUOUS
 10
136.2560746342
 20
210.5727526032
 11
136.2970865598
 21
210.9059573418
  0
LINE
  5
3C3
100
AcDbEntity
  8
0
100
AcDbLine
 62
7
  6
CONTINUOUS
 10
145.3374505892
 20
227.729864424
 11
144.2683929905
 21
220.9801003907
  0
LINE
  5
3C4
100
AcDbEntity
  8
0
100
AcDbLine
 62
7
  6
CONTINUOUS
 10
140.5088151008
 20
211.6079777267
 11
140.4478649439
 21
211.2778376742
  0
LINE
  5
3C5
100
AcDbEntity
  8
0
100
AcDbLine
 62
7
  6
CONTINUOUS
 10
141.0814510241
 20
211.2552320442
 11
141.1424011809
 21
211.5853720967
  0
LINE
  5
3C6
100
AcDbEntity
  8
0
100
AcDbLine
 62
7
  6
CONTINUOUS
 10
140.8049195904
 20
209.3936453812
 11
140.7439694335
 21
209.0635053286
  0
LINE
  5
3C7
100
AcDbEntity
  8
0
100
AcDbLine
 62
7
  6
CONTINUOUS
 10
141.3775555235
 20
209.0408996248
 11
141.4385056705
 21
209.3710397512
  0
LINE
  5
3C8
100
AcDbEntity
  8
0
100
AcDbLine
 62
7
  6
CONTINUOUS
 10
99.8711011621
 20
55.2871515686
 11
97.422050184
 21
48.9071556469
  0
LINE
  5
3C9
100
AcDbEntity
  8
0
100
AcDbLine
 62
7
  6
CONTINUOUS
 10
163.5466366688
 20
210.7205626353
 11
163.7114027516
 21
211.1264935021
  0
LINE
  5
3CA
100
AcDbEntity
  8
0
100
AcDbLine
 62
7
  6
CONTINUOUS
 10
160.2997196965
 20
212.2715850742
 11
160.1349488958
 21
211.8656548987
  0
LINE
  5
3CB
100
AcDbEntity
  8
0
100
AcDbLine
 62
7
  6
CONTINUOUS
 10
194.5080192592
 20
217.0649867872
 11
190.207306204
 21
211.7540484641
  0
LINE
  5
3CC
100
AcDbEntity
  8
0
100
AcDbLine
 62
7
  6
CONTINUOUS
 10
68.9116492103
 20
90.4583914705
 11
63.6007108873
 21
86.1576784152
  0
LINE
  5
3CD
100
AcDbEntity
  8
0
100
AcDbLine
 62
7
  6
CONTINUOUS
 10
231.7585420275
 20
183.2436474904
 11
225.3785461058
 21
180.7945965123
  0
LINE
  5
3CE
100
AcDbEntity
  8
0
100
AcDbLine
 62
7
  6
CONTINUOUS
 10
240.3580073675
 20
124.8904860137
 11
247.1077714008
 21
125.9595436125
  0
LINE
  5
3CF
100
AcDbEntity
  8
0
100
AcDbLine
 62
7
  6
CONTINUOUS
 10
52.9358332504
 20
125.9595436125
 11
59.6855972837
 21
124.8904860137
  0
LINE
  5
3D0
100
AcDbEntity
  8
0
100
AcDbLine
 62
7
  6
CONTINUOUS
 10
225.3785461058
 20
80.4931941853
 11
231.7585420275
 21
78.0441432073
  0
LINE
  5
3D1
100
AcDbEntity
  8
0
100
AcDbLine
 62
7
  6
CONTINUOUS
 10
63.6007108873
 20
175.1301122825
 11
68.9116492103
 21
170.8293992272
  0
LINE
  5
3D2
100
AcDbEntity
  8
0
100
AcDbLine
 62
7
  6
CONTINUOUS
 10
190.207306204
 20
49.5337422335
 11
194.5080192592
 21
44.2228039105
  0
LINE
  5
3D3
100
AcDbEntity
  8
0
100
AcDbLine
 62
7
  6
CONTINUOUS
 10
97.422050184
 20
212.3806350508
 11
99.8711011621
 21
206.000639129
  0
LINE
  5
3D4
100
AcDbEntity
  8
0
100
AcDbLine
 62
7
  6
CONTINUOUS
 10
116.3988329432
 20
204.9178202073
 11
116.5118106833
 21
204.3877067507
  0
LINE
  5
3D5
100
AcDbEntity
  8
0
100
AcDbLine
 62
7
  6
CONTINUOUS
 10
144.2683929905
 20
40.307690307
 11
145.3374505892
 21
33.5579262737
  0
LINE
  5
3D6
100
AcDbEntity
  8
0
100
AcDbLine
 62
7
  6
CONTINUOUS
 10
120.8187379354
 20
206.7642015371
 11
120.9003887848
 21
206.2283681811
  0
LINE
  5
3D7
100
AcDbEntity
  8
0
100
AcDbLine
 62
7
  6
CONTINUOUS
 10
117.0326008788
 20
204.4942968111
 11
116.8778660895
 21
205.1222554735
  0
LINE
  5
3D8
100
AcDbEntity
  8
0
100
AcDbLine
 62
7
  6
CONTINUOUS
 10
119.8158778471
 20
204.8724460009
 11
119.9706126949
 21
204.2444872015
  0
LINE
  5
3D9
100
AcDbEntity
  8
0
100
AcDbLine
 62
7
  6
CONTINUOUS
 10
120.4496458411
 20
204.4489224677
 11
120.3366680426
 21
204.9790360613
  0
LINE
  5
3DA
100
AcDbEntity
  8
0
100
AcDbLine
 62
7
  6
CONTINUOUS
 10
121.4265420864
 20
206.3041907067
 11
121.3089501549
 21
206.9401518514
  0
LINE
  5
3DB
100
AcDbEntity
  8
0
100
AcDbLine
 62
7
  6
CONTINUOUS
 10
124.2272206366
 20
206.5182333097
 11
124.3448103745
 21
205.8822712193
  0
LINE
  5
3DC
100
AcDbEntity
  8
0
100
AcDbLine
 62
7
  6
CONTINUOUS
 10
124.835024838
 20
206.0582223391
 11
124.7533716943
 21
206.5940550299
  0
LINE
  5
3DD
100
AcDbEntity
  8
1_AXIS
100
AcDbLine
 62
2
  6
CONTINUOUS
 10
150.0218023256
 20
131.6938953488
 11
150.0218023256
 21
129.5938953488
  0
LINE
  5
3DE
100
AcDbEntity
  8
1_AXIS
100
AcDbLine
 62
2
  6
CENTER
 10
150.0218023256
 20
125.3938953488
 11
150.0218023256
 21
30.6438953488
  0
LINE
  5
3DF
100
AcDbEntity
  8
1_AXIS
100
AcDbLine
 62
2
  6
CENTER
 10
150.0218023256
 20
135.8938953488
 11
150.0218023256
 21
230.6438953488
  0
LINE
  5
3E0
100
AcDbEntity
  8
0
100
AcDbLine
 62
7
  6
CONTINUOUS
 10
152.7011012488
 20
213.6267950432
 11
152.670601341
 21
213.0957553627
  0
LINE
  5
3E1
100
AcDbEntity
  8
0
100
AcDbLine
 62
7
  6
CONTINUOUS
 10
152.4632019384
 20
209.4846850149
 11
152.4144020817
 21
208.6350214518
  0
LINE
  5
3E2
100
AcDbEntity
  8
0
100
AcDbLine
 62
7
  6
CONTINUOUS
 10
157.8392014189
 20
212.5292813424
 11
157.7518852994
 21
211.6827083259
  0
LINE
  5
3E3
100
AcDbEntity
  8
0
100
AcDbLine
 62
7
  6
CONTINUOUS
 10
158.4499888232
 20
212.3593369919
 11
158.0243228286
 21
208.2322943889
  0
LINE
  5
3E4
100
AcDbEntity
  8
0
100
AcDbLine
 62
7
  6
CONTINUOUS
 10
158.6460247439
 20
208.1681716285
 11
159.1590068275
 21
213.1417869515
  0
LINE
  5
3E5
100
AcDbEntity
  8
0
100
AcDbLine
 62
7
  6
CONTINUOUS
 10
159.5536952612
 20
208.6177390444
 11
159.4765679401
 21
208.0914455501
  0
LINE
  5
3E6
100
AcDbEntity
  8
1_AXIS
100
AcDbLine
 62
2
  6
CONTINUOUS
 10
151.0718023256
 20
130.6438953488
 11
148.9718023256
 21
130.6438953488
  0
LINE
  5
3E7
100
AcDbEntity
  8
1_AXIS
100
AcDbLine
 62
2
  6
CENTER
 10
144.7718023256
 20
130.6438953488
 11
50.0218023256
 21
130.6438953488
  0
LINE
  5
3E8
100
AcDbEntity
  8
1_AXIS
100
AcDbLine
 62
2
  6
CENTER
 10
155.2718023256
 20
130.6438953488
 11
250.0218023256
 21
130.6438953488
  0
LINE
  5
3E9
100
AcDbEntity
  8
0
100
AcDbLine
 62
7
  6
CONTINUOUS
 10
97.8846927962
 20
193.1831018866
 11
99.2133747918
 21
191.5213140018
  0
LINE
  5
3EA
100
AcDbEntity
  8
0
100
AcDbLine
 62
7
  6
CONTINUOUS
 10
99.6201666281
 20
191.8465642902
 11
98.2914846325
 21
193.5083521751
  0
LINE
  5
3EB
100
AcDbEntity
  8
0
100
AcDbLine
 62
7
  6
CONTINUOUS
 10
99.9186519485
 20
194.8093533054
 11
101.3802021343
 21
192.9813866437
  0
LINE
  5
3EC
100
AcDbEntity
  8
0
100
AcDbLine
 62
7
  6
CONTINUOUS
 10
101.2932896032
 20
195.8689791
 11
103.2815703866
 21
193.1057033139
  0
LINE
  5
3ED
100
AcDbEntity
  8
0
100
AcDbLine
 62
7
  6
CONTINUOUS
 10
103.7043372839
 20
193.4098999858
 11
102.2752604218
 21
195.3960045251
  0
LINE
  5
3EE
100
AcDbEntity
  8
0
100
AcDbLine
 62
7
  6
CONTINUOUS
 10
102.0267253457
 20
195.7414139681
 11
101.7160565005
 21
196.1731757719
  0
LINE
  5
3EF
100
AcDbEntity
  8
0
100
AcDbLine
 62
7
  6
CONTINUOUS
 10
104.0457560378
 20
196.145702892
 11
105.2262978237
 21
194.5050077957
  0
LINE
  5
3F0
100
AcDbEntity
  8
0
100
AcDbLine
 62
7
  6
CONTINUOUS
 10
103.5586863121
 20
199.4206840723
 11
103.8550645785
 21
198.978990389
  0
LINE
  5
3F1
100
AcDbEntity
  8
0
100
AcDbLine
 62
7
  6
CONTINUOUS
 10
104.4478212774
 20
198.0956027751
 11
106.3446423485
 21
195.2687629551
  0
LINE
  5
3F2
100
AcDbEntity
  8
0
100
AcDbLine
 62
7
  6
CONTINUOUS
 10
106.7771339666
 20
195.5589665982
 11
104.8803128955
 21
198.3858064182
  0
LINE
  5
3F3
100
AcDbEntity
  8
0
100
AcDbLine
 62
7
  6
CONTINUOUS
 10
104.2875561966
 20
199.2691940321
 11
103.9911779302
 21
199.7108877154
  0
LINE
  5
3F4
100
AcDbEntity
  8
0
100
AcDbLine
 62
7
  6
CONTINUOUS
 10
109.6890044651
 20
202.3348542254
 11
110.1006524849
 21
201.5899677343
  0
LINE
  5
3F5
100
AcDbEntity
  8
0
100
AcDbLine
 62
7
  6
CONTINUOUS
 10
110.2874863402
 20
202.5440473914
 11
112.2942700224
 21
198.9127264968
  0
LINE
  5
3F6
100
AcDbEntity
  8
0
100
AcDbLine
 62
7
  6
CONTINUOUS
 10
112.841295913
 20
199.2150304416
 11
110.4228643551
 21
203.5912375664
  0
LINE
  5
3F7
100
AcDbEntity
  8
0
100
AcDbLine
 62
7
  6
CONTINUOUS
 10
111.3377106002
 20
204.1017518015
 11
111.574866216
 21
203.625631438
  0
LINE
  5
3F8
100
AcDbEntity
  8
0
100
AcDbLine
 62
7
  6
CONTINUOUS
 10
116.5118106833
 20
204.3877067507
 11
116.8876241269
 21
203.5070998985
  0
LINE
  5
3F9
100
AcDbEntity
  8
0
100
AcDbLine
 62
7
  6
CONTINUOUS
 10
117.3249002238
 20
203.8093803705
 11
117.0326008788
 21
204.4942968111
  0
LINE
  5
3FA
100
AcDbEntity
  8
0
100
AcDbLine
 62
7
  6
CONTINUOUS
 10
120.9003887848
 20
206.2283681811
 11
121.2238383283
 21
205.3272108333
  0
LINE
  5
3FB
100
AcDbEntity
  8
0
100
AcDbLine
 62
7
  6
CONTINUOUS
 10
121.6781139536
 20
205.6032905473
 11
121.4265420864
 21
206.3041907067
  0
LINE
  5
3FC
100
AcDbEntity
  8
0
100
AcDbLine
 62
7
  6
CONTINUOUS
 10
127.9659476859
 20
209.4617883331
 11
128.0725141631
 21
209.0498159955
  0
LINE
  5
3FD
100
AcDbEntity
  8
0
100
AcDbLine
 62
7
  6
CONTINUOUS
 10
128.6509565817
 20
209.3093284302
 11
128.5976733804
 21
209.5153144548
  0
LINE
  5
3FE
100
AcDbEntity
  8
0
100
AcDbLine
 62
7
  6
CONTINUOUS
 10
132.2083839348
 20
211.7327094784
 11
133.1675481036
 21
206.8255714024
  0
LINE
  5
3FF
100
AcDbEntity
  8
0
100
AcDbLine
 62
7
  6
CONTINUOUS
 10
133.7809403631
 20
206.9454669235
 11
133.3523776433
 21
209.1380180098
  0
LINE
  5
400
100
AcDbEntity
  8
0
100
AcDbLine
 62
7
  6
CONTINUOUS
 10
133.2299311683
 20
209.7644610938
 11
132.9238149235
 21
211.3305690962
  0
LINE
  5
401
100
AcDbEntity
  8
0
100
AcDbLine
 62
7
  6
CONTINUOUS
 10
137.1107319495
 20
212.6561988041
 11
137.7734420324
 21
207.7003118658
  0
LINE
  5
402
100
AcDbEntity
  8
0
100
AcDbLine
 62
7
  6
CONTINUOUS
 10
138.3083266127
 20
208.4158170422
 11
138.0968233904
 21
209.9974831194
  0
LINE
  5
403
100
AcDbEntity
  8
0
100
AcDbLine
 62
7
  6
CONTINUOUS
 10
138.0122221133
 20
210.6301494616
 11
137.8148190939
 21
212.1063712223
  0
LINE
  5
404
100
AcDbEntity
  8
0
100
AcDbLine
 62
7
  6
CONTINUOUS
 10
156.5742165816
 20
208.396105297
 11
156.6108164751
 21
209.0333529879
  0
LINE
  5
405
100
AcDbEntity
  8
0
100
AcDbLine
 62
7
  6
CONTINUOUS
 10
156.8182158778
 20
212.6444233357
 11
156.8609157486
 21
213.3878788884
  0
LINE
  5
406
100
AcDbEntity
  8
0
100
AcDbLine
 62
7
  6
CONTINUOUS
 10
163.123858876
 20
211.4276357658
 11
163.0930079086
 21
211.2171181026
  0
LINE
  5
407
100
AcDbEntity
  8
0
100
AcDbLine
 62
7
  6
CONTINUOUS
 10
163.1869369977
 20
207.547697947
 11
163.2640643189
 21
208.0739914414
  0
LINE
  5
408
100
AcDbEntity
  8
0
100
AcDbLine
 62
7
  6
CONTINUOUS
 10
163.7114027516
 20
211.1264935021
 11
163.7422537189
 21
211.3370111653
  0
LINE
  5
409
100
AcDbEntity
  8
0
100
AcDbLine
 62
7
  6
CONTINUOUS
 10
102.0527304849
 20
192.97427939
 11
100.3254438721
 21
195.1346036636
  0
LINE
  5
40A
100
AcDbEntity
  8
0
100
AcDbLine
 62
7
  6
CONTINUOUS
 10
105.649064479
 20
194.8092042935
 11
104.4685226931
 21
196.4498993898
  0
LINE
  5
40B
100
AcDbEntity
  8
0
100
AcDbLine
 62
7
  6
CONTINUOUS
 10
114.9315162453
 20
205.2975792607
 11
114.6943606294
 21
205.7736996241
  0
LINE
  5
40C
100
AcDbEntity
  8
0
100
AcDbLine
 62
7
  6
CONTINUOUS
 10
119.523578502
 20
205.5573624415
 11
119.8158778471
 21
204.8724460009
  0
LINE
  5
40D
100
AcDbEntity
  8
0
100
AcDbLine
 62
7
  6
CONTINUOUS
 10
120.3366680426
 20
204.9790360613
 11
119.960854599
 21
205.8596429136
  0
LINE
  5
40E
100
AcDbEntity
  8
0
100
AcDbLine
 62
7
  6
CONTINUOUS
 10
123.9756487694
 20
207.219133469
 11
124.2272206366
 21
206.5182333097
  0
LINE
  5
40F
100
AcDbEntity
  8
0
100
AcDbLine
 62
7
  6
CONTINUOUS
 10
124.7533716943
 20
206.5940550299
 11
124.4299221507
 21
207.4952123776
  0
LINE
  5
410
100
AcDbEntity
  8
0
100
AcDbLine
 62
7
  6
CONTINUOUS
 10
131.3491452959
 20
208.0293582158
 11
131.4290700978
 21
207.7203791789
  0
LINE
  5
411
100
AcDbEntity
  8
0
100
AcDbLine
 62
7
  6
CONTINUOUS
 10
132.0607957177
 20
207.7739055891
 11
131.9275877145
 21
208.2888706505
  0
LINE
  5
412
100
AcDbEntity
  8
0
100
AcDbLine
 62
7
  6
CONTINUOUS
 10
135.6020632598
 20
211.2036908359
 11
135.6632865545
 21
210.8904690014
  0
LINE
  5
413
100
AcDbEntity
  8
0
100
AcDbLine
 62
7
  6
CONTINUOUS
 10
136.2970865598
 20
210.9059573418
 11
136.2154555193
 21
211.323586357
  0
LINE
  5
414
100
AcDbEntity
  8
0
100
AcDbLine
 62
7
  6
CONTINUOUS
 10
140.4806146751
 20
211.8188665075
 11
140.5088151008
 21
211.6079777267
  0
LINE
  5
415
100
AcDbEntity
  8
0
100
AcDbLine
 62
7
  6
CONTINUOUS
 10
140.7626189518
 20
209.7099785523
 11
140.8049195904
 21
209.3936453812
  0
LINE
  5
416
100
AcDbEntity
  8
0
100
AcDbLine
 62
7
  6
CONTINUOUS
 10
141.4385056705
 20
209.3710397512
 11
141.3680046063
 21
209.898261703
  0
LINE
  5
417
100
AcDbEntity
  8
0
100
AcDbLine
 62
7
  6
CONTINUOUS
 10
141.1424011809
 20
211.5853720967
 11
141.08600029
 21
212.0071499536
  0
LINE
  5
418
100
AcDbEntity
  8
0
100
AcDbLine
 62
7
  6
CONTINUOUS
 10
99.2133747918
 20
191.5213140018
 11
99.5604695904
 21
191.2540064511
  0
LINE
  5
419
100
AcDbEntity
  8
0
100
AcDbLine
 62
7
  6
CONTINUOUS
 10
103.650533668
 20
196.5166252569
 11
104.0457560378
 21
196.145702892
  0
LINE
  5
41A
100
AcDbEntity
  8
0
100
AcDbLine
 62
7
  6
CONTINUOUS
 10
104.4685226931
 20
196.4498993898
 11
104.0733008071
 21
196.8208221029
  0
LINE
  5
41B
100
AcDbEntity
  8
0
100
AcDbLine
 62
7
  6
CONTINUOUS
 10
116.8876241269
 20
203.5070998985
 11
117.1922169382
 21
203.05876116
  0
LINE
  5
41C
100
AcDbEntity
  8
0
100
AcDbLine
 62
7
  6
CONTINUOUS
 10
119.960854599
 20
205.8596429136
 11
119.6562618462
 21
206.307981515
  0
LINE
  5
41D
100
AcDbEntity
  8
0
100
AcDbLine
 62
7
  6
CONTINUOUS
 10
117.6712500844
 20
203.2631964262
 11
117.3249002238
 21
203.8093803705
  0
LINE
  5
41E
100
AcDbEntity
  8
0
100
AcDbLine
 62
7
  6
CONTINUOUS
 10
119.1772286999
 20
206.1035462488
 11
119.523578502
 21
205.5573624415
  0
LINE
  5
41F
100
AcDbEntity
  8
0
100
AcDbLine
 62
7
  6
CONTINUOUS
 10
121.2238383283
 20
205.3272108333
 11
121.501575911
 21
204.8617581072
  0
LINE
  5
420
100
AcDbEntity
  8
0
100
AcDbLine
 62
7
  6
CONTINUOUS
 10
124.4299221507
 20
207.4952123776
 11
124.1521868624
 21
207.960665769
  0
LINE
  5
421
100
AcDbEntity
  8
0
100
AcDbLine
 62
7
  6
CONTINUOUS
 10
121.9917881305
 20
205.0377084216
 11
121.6781139536
 21
205.6032905473
  0
LINE
  5
422
100
AcDbEntity
  8
0
100
AcDbLine
 62
7
  6
CONTINUOUS
 10
123.6619723989
 20
207.7847146491
 11
123.9756487694
 21
207.219133469
  0
LINE
  5
423
100
AcDbEntity
  8
0
100
AcDbLine
 62
7
  6
CONTINUOUS
 10
128.276162603
 20
207.0146889066
 11
128.4835748033
 21
206.6288030299
  0
LINE
  5
424
100
AcDbEntity
  8
0
100
AcDbLine
 62
7
  6
CONTINUOUS
 10
128.0725141631
 20
209.0498159955
 11
128.2799263634
 21
208.6639301187
  0
LINE
  5
425
100
AcDbEntity
  8
0
100
AcDbLine
 62
7
  6
CONTINUOUS
 10
163.7422537189
 20
211.3370111653
 11
163.7008913328
 21
211.7731497714
  0
LINE
  5
426
100
AcDbEntity
  8
0
100
AcDbLine
 62
7
  6
CONTINUOUS
 10
154.7061540619
 20
33.5579262737
 11
155.7752116607
 21
40.307690307
  0
LINE
  5
427
100
AcDbEntity
  8
0
100
AcDbLine
 62
7
  6
CONTINUOUS
 10
200.1725034891
 20
206.000639129
 11
202.6215544671
 21
212.3806350508
  0
LINE
  5
428
100
AcDbEntity
  8
0
100
AcDbLine
 62
7
  6
CONTINUOUS
 10
105.5355853919
 20
44.2228039105
 11
109.8362984472
 21
49.5337422335
  0
LINE
  5
429
100
AcDbEntity
  8
0
100
AcDbLine
 62
7
  6
CONTINUOUS
 10
231.1319554409
 20
170.8293992272
 11
236.4428937639
 21
175.1301122825
  0
LINE
  5
42A
100
AcDbEntity
  8
0
100
AcDbLine
 62
7
  6
CONTINUOUS
 10
68.2850626236
 20
78.0441432073
 11
74.6650585454
 21
80.4931941853
  0
LINE
  5
42B
100
AcDbEntity
  8
0
100
AcDbLine
 62
7
  6
CONTINUOUS
 10
59.6855972837
 20
136.3973046839
 11
52.9358332504
 21
135.3282470852
  0
LINE
  5
42C
100
AcDbEntity
  8
0
100
AcDbLine
 62
7
  6
CONTINUOUS
 10
247.1077714008
 20
135.3282470852
 11
240.3580073675
 21
136.3973046839
  0
LINE
  5
42D
100
AcDbEntity
  8
0
100
AcDbLine
 62
7
  6
CONTINUOUS
 10
74.6650585454
 20
180.7945965123
 11
68.2850626236
 21
183.2436474904
  0
LINE
  5
42E
100
AcDbEntity
  8
0
100
AcDbLine
 62
7
  6
CONTINUOUS
 10
99.9008272923
 20
191.6623461919
 11
99.6201666281
 21
191.8465642902
  0
LINE
  5
42F
100
AcDbEntity
  8
0
100
AcDbLine
 62
7
  6
CONTINUOUS
 10
104.0733008071
 20
196.8208221029
 11
103.8023459754
 21
197.0190397464
  0
LINE
  5
430
100
AcDbEntity
  8
0
100
AcDbLine
 62
7
  6
CONTINUOUS
 10
102.399825192
 20
192.7069717899
 11
102.0527304849
 21
192.97427939
  0
LINE
  5
431
100
AcDbEntity
  8
0
100
AcDbLine
 62
7
  6
CONTINUOUS
 10
236.4428937639
 20
86.1576784152
 11
231.1319554409
 21
90.4583914705
  0
LINE
  5
432
100
AcDbEntity
  8
0
100
AcDbLine
 62
7
  6
CONTINUOUS
 10
117.1922169382
 20
203.05876116
 11
117.4132933996
 21
202.8061120343
  0
LINE
  5
433
100
AcDbEntity
  8
0
100
AcDbLine
 62
7
  6
CONTINUOUS
 10
119.6562618462
 20
206.307981515
 11
119.4351852678
 21
206.5606309148
  0
LINE
  5
434
100
AcDbEntity
  8
0
100
AcDbLine
 62
7
  6
CONTINUOUS
 10
109.8362984472
 20
211.7540484641
 11
105.5355853919
 21
217.0649867872
  0
LINE
  5
435
100
AcDbEntity
  8
0
100
AcDbLine
 62
7
  6
CONTINUOUS
 10
121.501575911
 20
204.8617581072
 11
121.707435767
 21
204.5965627097
  0
LINE
  5
436
100
AcDbEntity
  8
0
100
AcDbLine
 62
7
  6
CONTINUOUS
 10
124.1521868624
 20
207.960665769
 11
123.9463269057
 21
208.225861447
  0
LINE
  5
437
100
AcDbEntity
  8
0
100
AcDbLine
 62
7
  6
CONTINUOUS
 10
129.0620172219
 20
206.8883154646
 11
128.8812466223
 21
207.1712083291
  0
LINE
  5
438
100
AcDbEntity
  8
0
100
AcDbLine
 62
7
  6
CONTINUOUS
 10
128.8317271814
 20
209.0264355657
 11
128.6509565817
 21
209.3093284302
  0
LINE
  5
439
100
AcDbEntity
  8
0
100
AcDbLine
 62
7
  6
CONTINUOUS
 10
131.0922135801
 20
210.2704716177
 11
130.9114429804
 21
210.5533644822
  0
LINE
  5
43A
100
AcDbEntity
  8
0
100
AcDbLine
 62
7
  6
CONTINUOUS
 10
135.4386048592
 20
211.4969291812
 11
135.6020632598
 21
211.2036908359
  0
LINE
  5
43B
100
AcDbEntity
  8
0
100
AcDbLine
 62
7
  6
CONTINUOUS
 10
136.2154555193
 20
211.323586357
 11
136.0519971187
 21
211.6168247023
  0
LINE
  5
43C
100
AcDbEntity
  8
0
100
AcDbLine
 62
7
  6
CONTINUOUS
 10
140.6170674981
 20
210.0125049897
 11
140.7626189518
 21
209.7099785523
  0
LINE
  5
43D
100
AcDbEntity
  8
0
100
AcDbLine
 62
7
  6
CONTINUOUS
 10
141.3680046063
 20
209.898261703
 11
141.2224531526
 21
210.2007881404
  0
LINE
  5
43E
100
AcDbEntity
  8
0
100
AcDbLine
 62
7
  6
CONTINUOUS
 10
140.3350632016
 20
212.1213930926
 11
140.4806146751
 21
211.8188665075
  0
LINE
  5
43F
100
AcDbEntity
  8
0
100
AcDbLine
 62
7
  6
CONTINUOUS
 10
141.08600029
 20
212.0071499536
 11
140.9404488561
 21
212.3096762433
  0
LINE
  5
440
100
AcDbEntity
  8
0
100
AcDbLine
 62
7
  6
CONTINUOUS
 10
202.6215544671
 20
48.9071556469
 11
200.1725034891
 21
55.2871515686
  0
LINE
  5
441
100
AcDbEntity
  8
0
100
AcDbLine
 62
7
  6
CONTINUOUS
 10
155.7752116607
 20
220.9801003907
 11
154.7061540619
 21
227.729864424
  0
LINE
  5
442
100
AcDbEntity
  8
0
100
AcDbLine
 62
7
  6
CONTINUOUS
 10
99.5604695904
 20
191.2540064511
 11
99.7746961523
 21
191.1528777354
  0
LINE
  5
443
100
AcDbEntity
  8
0
100
AcDbLine
 62
7
  6
CONTINUOUS
 10
102.6140519182
 20
192.6058431818
 11
102.399825192
 21
192.7069717899
  0
LINE
  5
444
100
AcDbEntity
  8
0
100
AcDbLine
 62
7
  6
CONTINUOUS
 10
101.7123726565
 20
192.5659396434
 11
102.2072599946
 21
192.2805928236
  0
LINE
  5
445
100
AcDbEntity
  8
0
100
AcDbLine
 62
7
  6
CONTINUOUS
 10
117.4132933996
 20
202.8061120343
 11
117.7719366387
 21
202.4965059977
  0
LINE
  5
446
100
AcDbEntity
  8
0
100
AcDbLine
 62
7
  6
CONTINUOUS
 10
119.4351852678
 20
206.5606309148
 11
119.0765420579
 21
206.8702368828
  0
LINE
  5
447
100
AcDbEntity
  8
0
100
AcDbLine
 62
7
  6
CONTINUOUS
 10
121.707435767
 20
204.5965627097
 11
122.0472755839
 21
204.2664282274
  0
LINE
  5
448
100
AcDbEntity
  8
0
100
AcDbLine
 62
7
  6
CONTINUOUS
 10
123.9463269057
 20
208.225861447
 11
123.606487114
 21
208.5559958591
  0
LINE
  5
449
100
AcDbEntity
  8
0
100
AcDbLine
 62
7
  6
CONTINUOUS
 10
131.9275877145
 20
208.2888706505
 11
131.6193273709
 21
208.6486699021
  0
LINE
  5
44A
100
AcDbEntity
  8
0
100
AcDbLine
 62
7
  6
CONTINUOUS
 10
130.3330005618
 20
210.2938520475
 11
130.4871295608
 21
210.1139521953
  0
LINE
  5
44B
100
AcDbEntity
  8
0
100
AcDbLine
 62
7
  6
CONTINUOUS
 10
100.262846382
 20
191.5431781024
 11
99.9008272923
 21
191.6623461919
  0
LINE
  5
44C
100
AcDbEntity
  8
0
100
AcDbLine
 62
7
  6
CONTINUOUS
 10
118.3050202421
 20
202.8396738974
 11
117.6712500844
 21
203.2631964262
  0
LINE
  5
44D
100
AcDbEntity
  8
0
100
AcDbLine
 62
7
  6
CONTINUOUS
 10
118.5434584545
 20
206.5270689832
 11
119.1772286999
 21
206.1035462488
  0
LINE
  5
44E
100
AcDbEntity
  8
0
100
AcDbLine
 62
7
  6
CONTINUOUS
 10
122.5995923067
 20
204.577697521
 11
121.9917881305
 21
205.0377084216
  0
LINE
  5
44F
100
AcDbEntity
  8
0
100
AcDbLine
 62
7
  6
CONTINUOUS
 10
123.0541703912
 20
208.2447265655
 11
123.6619723989
 21
207.7847146491
  0
LINE
  5
450
100
AcDbEntity
  8
0
100
AcDbLine
 62
7
  6
CONTINUOUS
 10
131.0675265529
 20
208.2861644551
 11
131.3491452959
 21
208.0293582158
  0
LINE
  5
451
100
AcDbEntity
  8
0
100
AcDbLine
 62
7
  6
CONTINUOUS
 10
128.4835748033
 20
206.6288030299
 11
128.9193248441
 21
206.1920975715
  0
LINE
  5
452
100
AcDbEntity
  8
0
100
AcDbLine
 62
7
  6
CONTINUOUS
 10
162.9640020753
 20
211.7736202488
 11
163.123858876
 21
211.4276357658
  0
LINE
  5
453
100
AcDbEntity
  8
0
100
AcDbLine
 62
7
  6
CONTINUOUS
 10
99.7746961523
 20
191.1528777354
 11
100.218073554
 21
191.0987597071
  0
LINE
  5
454
100
AcDbEntity
  8
0
100
AcDbLine
 62
7
  6
CONTINUOUS
 10
117.7719366387
 20
202.4965059977
 11
118.1846281275
 21
202.325631693
  0
LINE
  5
455
100
AcDbEntity
  8
0
100
AcDbLine
 62
7
  6
CONTINUOUS
 10
122.0472755839
 20
204.2664282274
 11
122.4492198915
 21
204.0716127595
  0
LINE
  5
456
100
AcDbEntity
  8
0
100
AcDbLine
 62
7
  6
CONTINUOUS
 10
129.4444840522
 20
206.6575960668
 11
129.0620172219
 21
206.8883154646
  0
LINE
  5
457
100
AcDbEntity
  8
0
100
AcDbLine
 62
7
  6
CONTINUOUS
 10
128.2799263634
 20
208.6639301187
 11
128.7898828816
 21
208.3563045502
  0
LINE
  5
458
100
AcDbEntity
  8
0
100
AcDbLine
 62
7
  6
CONTINUOUS
 10
130.9114429804
 20
210.5533644822
 11
130.5023345682
 21
210.8870768201
  0
LINE
  5
459
100
AcDbEntity
  8
0
100
AcDbLine
 62
7
  6
CONTINUOUS
 10
136.0519971187
 20
211.6168247023
 11
135.6636700056
 21
211.9745056644
  0
LINE
  5
45A
100
AcDbEntity
  8
0
100
AcDbLine
 62
7
  6
CONTINUOUS
 10
141.2224531526
 20
210.2007881404
 11
140.8563093675
 21
210.5811463218
  0
LINE
  5
45B
100
AcDbEntity
  8
0
100
AcDbLine
 62
7
  6
CONTINUOUS
 10
140.9404488561
 20
212.3096762433
 11
140.574305071
 21
212.6900344246
  0
LINE
  5
45C
100
AcDbEntity
  8
0
100
AcDbLine
 62
7
  6
CONTINUOUS
 10
100.218073554
 20
191.0987597071
 11
100.5950168984
 21
191.1277311094
  0
LINE
  5
45D
100
AcDbEntity
  8
0
100
AcDbLine
 62
7
  6
CONTINUOUS
 10
103.3571595645
 20
196.567651449
 11
103.650533668
 21
196.5166252569
  0
LINE
  5
45E
100
AcDbEntity
  8
0
100
AcDbLine
 62
7
  6
CONTINUOUS
 10
103.8023459754
 20
197.0190397464
 11
103.508971872
 21
197.0700659384
  0
LINE
  5
45F
100
AcDbEntity
  8
0
100
AcDbLine
 62
7
  6
CONTINUOUS
 10
118.675954667
 20
202.7666448327
 11
118.3050202421
 21
202.8396738974
  0
LINE
  5
460
100
AcDbEntity
  8
0
100
AcDbLine
 62
7
  6
CONTINUOUS
 10
122.9655977635
 20
204.4830106824
 11
122.5995923067
 21
204.577697521
  0
LINE
  5
461
100
AcDbEntity
  8
0
100
AcDbLine
 62
7
  6
CONTINUOUS
 10
125.8585400725
 20
206.1531043402
 11
126.2198443452
 21
206.0418172593
  0
LINE
  5
462
100
AcDbEntity
  8
0
100
AcDbLine
 62
7
  6
CONTINUOUS
 10
119.0765420579
 20
206.8702368828
 11
118.6638505837
 21
207.0411111533
  0
LINE
  5
463
100
AcDbEntity
  8
0
100
AcDbLine
 62
7
  6
CONTINUOUS
 10
123.606487114
 20
208.5559958591
 11
123.204542819
 21
208.7508112919
  0
LINE
  5
464
100
AcDbEntity
  8
0
100
AcDbLine
 62
7
  6
CONTINUOUS
 10
131.6193273709
 20
208.6486699021
 11
131.1093708528
 21
208.9562954706
  0
LINE
  5
465
100
AcDbEntity
  8
0
100
AcDbLine
 62
7
  6
CONTINUOUS
 10
130.0780211486
 20
210.4476645332
 11
130.3330005618
 21
210.2938520475
  0
LINE
  5
466
100
AcDbEntity
  8
0
100
AcDbLine
 62
7
  6
CONTINUOUS
 10
135.1933284009
 20
211.6657789787
 11
135.4386048592
 21
211.4969291812
  0
LINE
  5
467
100
AcDbEntity
  8
0
100
AcDbLine
 62
7
  6
CONTINUOUS
 10
140.3823749342
 20
210.1957812717
 11
140.6170674981
 21
210.0125049897
  0
LINE
  5
468
100
AcDbEntity
  8
0
100
AcDbLine
 62
7
  6
CONTINUOUS
 10
140.1003706377
 20
212.3046693746
 11
140.3350632016
 21
212.1213930926
  0
LINE
  5
469
100
AcDbEntity
  8
0
100
AcDbLine
 62
7
  6
CONTINUOUS
 10
163.7008913328
 20
211.7731497714
 11
163.3503268071
 21
212.2546013691
  0
LINE
  5
46A
100
AcDbEntity
  8
0
100
AcDbLine
 62
7
  6
CONTINUOUS
 10
100.7211480529
 20
191.6371995179
 11
100.262846382
 21
191.5431781024
  0
LINE
  5
46B
100
AcDbEntity
  8
0
100
AcDbLine
 62
7
  6
CONTINUOUS
 10
103.1259192301
 20
196.5323252802
 11
103.3571595645
 21
196.567651449
  0
LINE
  5
46C
100
AcDbEntity
  8
0
100
AcDbLine
 62
7
  6
CONTINUOUS
 10
103.508971872
 20
197.0700659384
 11
103.1310442439
 21
197.0602526916
  0
LINE
  5
46D
100
AcDbEntity
  8
0
100
AcDbLine
 62
7
  6
CONTINUOUS
 10
118.1846281275
 20
202.325631693
 11
118.7889324326
 21
202.2365313161
  0
LINE
  5
46E
100
AcDbEntity
  8
0
100
AcDbLine
 62
7
  6
CONTINUOUS
 10
118.6638505837
 20
207.0411111533
 11
118.0595462896
 21
207.1302115045
  0
LINE
  5
46F
100
AcDbEntity
  8
0
100
AcDbLine
 62
7
  6
CONTINUOUS
 10
118.1725240297
 20
206.6000980479
 11
118.5434584545
 21
206.5270689832
  0
LINE
  5
470
100
AcDbEntity
  8
0
100
AcDbLine
 62
7
  6
CONTINUOUS
 10
122.4492198915
 20
204.0716127595
 11
123.0472486349
 21
203.947177265
  0
LINE
  5
471
100
AcDbEntity
  8
0
100
AcDbLine
 62
7
  6
CONTINUOUS
 10
123.204542819
 20
208.7508112919
 11
122.606511841
 21
208.8752459547
  0
LINE
  5
472
100
AcDbEntity
  8
0
100
AcDbLine
 62
7
  6
CONTINUOUS
 10
128.7898828816
 20
208.3563045502
 11
129.2465561985
 21
208.2546650063
  0
LINE
  5
473
100
AcDbEntity
  8
0
100
AcDbLine
 62
7
  6
CONTINUOUS
 10
131.1093708528
 20
208.9562954706
 11
130.6526998441
 21
209.0579356115
  0
LINE
  5
474
100
AcDbEntity
  8
0
100
AcDbLine
 62
7
  6
CONTINUOUS
 10
122.6881649344
 20
208.3394134041
 11
123.0541703912
 21
208.2447265655
  0
LINE
  5
475
100
AcDbEntity
  8
0
100
AcDbLine
 62
7
  6
CONTINUOUS
 10
128.9193248441
 20
206.1920975715
 11
129.5034878746
 21
206.0135517577
  0
LINE
  5
476
100
AcDbEntity
  8
0
100
AcDbLine
 62
7
  6
CONTINUOUS
 10
126.730613972
 20
208.9822615969
 11
126.3693096115
 21
209.0935489625
  0
LINE
  5
477
100
AcDbEntity
  8
0
100
AcDbLine
 62
7
  6
CONTINUOUS
 10
140.8563093675
 20
210.5811463218
 11
140.6357170164
 21
210.6589782134
  0
LINE
  5
478
100
AcDbEntity
  8
0
100
AcDbLine
 62
7
  6
CONTINUOUS
 10
129.1875523923
 20
208.8987092524
 11
128.8317271814
 21
209.0264355657
  0
LINE
  5
479
100
AcDbEntity
  8
0
100
AcDbLine
 62
7
  6
CONTINUOUS
 10
130.711701342
 20
208.4138907684
 11
131.0675265529
 21
208.2861644551
  0
LINE
  5
47A
100
AcDbEntity
  8
0
100
AcDbLine
 62
7
  6
CONTINUOUS
 10
130.5023345682
 20
210.8870768201
 11
130.0190196507
 21
211.0917093763
  0
LINE
  5
47B
100
AcDbEntity
  8
0
100
AcDbLine
 62
7
  6
CONTINUOUS
 10
135.6636700056
 20
211.9745056644
 11
135.193520155
 21
212.2077971639
  0
LINE
  5
47C
100
AcDbEntity
  8
0
100
AcDbLine
 62
7
  6
CONTINUOUS
 10
140.574305071
 20
212.6900344246
 11
140.1190154297
 21
212.9511419662
  0
LINE
  5
47D
100
AcDbEntity
  8
0
100
AcDbLine
 62
7
  6
CONTINUOUS
 10
163.3503268071
 20
212.2546013691
 11
162.9689160753
 21
212.5255349073
  0
LINE
  5
47E
100
AcDbEntity
  8
0
100
AcDbLine
 62
7
  6
CONTINUOUS
 10
162.6856555779
 20
212.0294499173
 11
162.9640020753
 21
211.7736202488
  0
LINE
  5
47F
100
AcDbEntity
  8
0
100
AcDbLine
 62
7
  6
CONTINUOUS
 10
130.0343653909
 20
206.0409913894
 11
130.8411433139
 21
206.2496837536
  0
LINE
  5
480
100
AcDbEntity
  8
0
100
AcDbLine
 62
7
  6
CONTINUOUS
 10
130.6812936914
 20
206.8676418994
 11
129.8745157684
 21
206.6589495352
  0
LINE
  5
481
100
AcDbEntity
  8
0
100
AcDbLine
 62
7
  6
CONTINUOUS
 10
128.8812466223
 20
207.1712083291
 11
128.276162603
 21
207.0146889066
  0
LINE
  5
482
100
AcDbEntity
  8
0
100
AcDbLine
 62
7
  6
CONTINUOUS
 10
129.6765856065
 20
208.2560178776
 11
130.2816696258
 21
208.4125373001
  0
LINE
  5
483
100
AcDbEntity
  8
0
100
AcDbLine
 62
7
  6
CONTINUOUS
 10
130.1218200219
 20
209.0304953737
 11
129.5167360026
 21
208.8739759513
  0
LINE
  5
484
100
AcDbEntity
  8
0
100
AcDbLine
 62
7
  6
CONTINUOUS
 10
130.4871295608
 20
210.1139521953
 11
131.0922135801
 21
210.2704716177
  0
LINE
  5
485
100
AcDbEntity
  8
0
100
AcDbLine
 62
7
  6
CONTINUOUS
 10
129.143753519
 20
210.3158784118
 11
129.7488375383
 21
210.4723978342
  0
LINE
  5
486
100
AcDbEntity
  8
0
100
AcDbLine
 62
7
  6
CONTINUOUS
 10
129.4881421367
 20
211.0642697356
 11
128.9839039151
 21
210.9338364855
  0
LINE
  5
487
100
AcDbEntity
  8
0
100
AcDbLine
 62
7
  6
CONTINUOUS
 10
118.7889324326
 20
202.2365313161
 11
119.4055301382
 21
202.3840087955
  0
LINE
  5
488
100
AcDbEntity
  8
0
100
AcDbLine
 62
7
  6
CONTINUOUS
 10
118.0595462896
 20
207.1302115045
 11
117.4429485877
 21
206.9827340165
  0
LINE
  5
489
100
AcDbEntity
  8
0
100
AcDbLine
 62
7
  6
CONTINUOUS
 10
119.1967448625
 20
202.8732348931
 11
118.675954667
 21
202.7666448327
  0
LINE
  5
48A
100
AcDbEntity
  8
0
100
AcDbLine
 62
7
  6
CONTINUOUS
 10
117.6517338341
 20
206.4935079875
 11
118.1725240297
 21
206.6000980479
  0
LINE
  5
48B
100
AcDbEntity
  8
0
100
AcDbLine
 62
7
  6
CONTINUOUS
 10
133.1675481036
 20
206.8255714024
 11
133.7809403631
 21
206.9454669235
  0
LINE
  5
48C
100
AcDbEntity
  8
0
100
AcDbLine
 62
7
  6
CONTINUOUS
 10
133.3523776433
 20
209.1380180098
 11
135.1925544218
 21
209.4977045731
  0
LINE
  5
48D
100
AcDbEntity
  8
0
100
AcDbLine
 62
7
  6
CONTINUOUS
 10
135.1723384301
 20
210.144129939
 11
133.2299311683
 21
209.7644610938
  0
LINE
  5
48E
100
AcDbEntity
  8
0
100
AcDbLine
 62
7
  6
CONTINUOUS
 10
132.9238149235
 20
211.3305690962
 11
134.8662221854
 21
211.7102379414
  0
LINE
  5
48F
100
AcDbEntity
  8
0
100
AcDbLine
 62
7
  6
CONTINUOUS
 10
134.6619529729
 20
212.2122915628
 11
132.2083839348
 21
211.7327094784
  0
LINE
  5
490
100
AcDbEntity
  8
0
100
AcDbLine
 62
7
  6
CONTINUOUS
 10
123.0472486349
 20
203.947177265
 11
123.6714430372
 21
204.0581893615
  0
LINE
  5
491
100
AcDbEntity
  8
0
100
AcDbLine
 62
7
  6
CONTINUOUS
 10
122.606511841
 20
208.8752459547
 11
121.9823174418
 21
208.7642338495
  0
LINE
  5
492
100
AcDbEntity
  8
0
100
AcDbLine
 62
7
  6
CONTINUOUS
 10
123.4917488212
 20
204.5588324026
 11
122.9655977635
 21
204.4830106824
  0
LINE
  5
493
100
AcDbEntity
  8
0
100
AcDbLine
 62
7
  6
CONTINUOUS
 10
122.1620116327
 20
208.2635908785
 11
122.6881649344
 21
208.3394134041
  0
LINE
  5
494
100
AcDbEntity
  8
0
100
AcDbLine
 62
7
  6
CONTINUOUS
 10
137.7734420324
 20
207.7003118658
 11
140.2513855016
 21
208.0316669072
  0
LINE
  5
495
100
AcDbEntity
  8
0
100
AcDbLine
 62
7
  6
CONTINUOUS
 10
140.27003501
 20
208.6781402047
 11
138.3083266127
 21
208.4158170422
  0
LINE
  5
496
100
AcDbEntity
  8
0
100
AcDbLine
 62
7
  6
CONTINUOUS
 10
138.0968233904
 20
209.9974831194
 11
140.0585317877
 21
210.2598062819
  0
LINE
  5
497
100
AcDbEntity
  8
0
100
AcDbLine
 62
7
  6
CONTINUOUS
 10
139.9739305106
 20
210.8924726241
 11
138.0122221133
 21
210.6301494616
  0
LINE
  5
498
100
AcDbEntity
  8
0
100
AcDbLine
 62
7
  6
CONTINUOUS
 10
137.8148190939
 20
212.1063712223
 11
139.7765274912
 21
212.3686943847
  0
LINE
  5
499
100
AcDbEntity
  8
0
100
AcDbLine
 62
7
  6
CONTINUOUS
 10
139.5886754187
 20
212.9875538456
 11
137.1107319495
 21
212.6561988041
  0
LINE
  5
49A
100
AcDbEntity
  8
0
100
AcDbLine
 62
7
  6
CONTINUOUS
 10
161.242737423
 20
212.2409068575
 11
161.7734887756
 21
212.2706455022
  0
LINE
  5
49B
100
AcDbEntity
  8
0
100
AcDbLine
 62
7
  6
CONTINUOUS
 10
129.5034878746
 20
206.0135517577
 11
130.0343653909
 21
206.0409913894
  0
LINE
  5
49C
100
AcDbEntity
  8
0
100
AcDbLine
 62
7
  6
CONTINUOUS
 10
130.6526998441
 20
209.0579356115
 11
130.1218200219
 21
209.0304953737
  0
LINE
  5
49D
100
AcDbEntity
  8
0
100
AcDbLine
 62
7
  6
CONTINUOUS
 10
130.0190196507
 20
211.0917093763
 11
129.4881421367
 21
211.0642697356
  0
LINE
  5
49E
100
AcDbEntity
  8
0
100
AcDbLine
 62
7
  6
CONTINUOUS
 10
129.8745157684
 20
206.6589495352
 11
129.4444840522
 21
206.6575960668
  0
LINE
  5
49F
100
AcDbEntity
  8
0
100
AcDbLine
 62
7
  6
CONTINUOUS
 10
129.2465561985
 20
208.2546650063
 11
129.6765856065
 21
208.2560178776
  0
LINE
  5
4A0
100
AcDbEntity
  8
0
100
AcDbLine
 62
7
  6
CONTINUOUS
 10
130.2816696258
 20
208.4125373001
 11
130.711701342
 21
208.4138907684
  0
LINE
  5
4A1
100
AcDbEntity
  8
0
100
AcDbLine
 62
7
  6
CONTINUOUS
 10
161.9536850385
 20
212.7818343618
 11
161.216795781
 21
212.7823048392
  0
LINE
  5
4A2
100
AcDbEntity
  8
0
100
AcDbLine
 62
7
  6
CONTINUOUS
 10
135.193520155
 20
212.2077971639
 11
134.6619529729
 21
212.2122915628
  0
LINE
  5
4A3
100
AcDbEntity
  8
0
100
AcDbLine
 62
7
  6
CONTINUOUS
 10
152.4144020817
 20
208.6350214518
 11
156.5742165816
 21
208.396105297
  0
LINE
  5
4A4
100
AcDbEntity
  8
0
100
AcDbLine
 62
7
  6
CONTINUOUS
 10
156.6108164751
 20
209.0333529879
 11
153.0749736742
 21
209.2364317468
  0
LINE
  5
4A5
100
AcDbEntity
  8
0
100
AcDbLine
 62
7
  6
CONTINUOUS
 10
152.670601341
 20
213.0957553627
 11
156.3104378383
 21
212.8867037956
  0
LINE
  5
4A6
100
AcDbEntity
  8
0
100
AcDbLine
 62
7
  6
CONTINUOUS
 10
156.8609157486
 20
213.3878788884
 11
152.7011012488
 21
213.6267950432
  0
LINE
  5
4A7
100
AcDbEntity
  8
0
100
AcDbLine
 62
7
  6
CONTINUOUS
 10
140.1190154297
 20
212.9511419662
 11
139.5886754187
 21
212.9875538456
  0
LINE
  5
4A8
100
AcDbEntity
  8
0
100
AcDbLine
 62
7
  6
CONTINUOUS
 10
129.5167360026
 20
208.8739759513
 11
129.1875523923
 21
208.8987092524
  0
LINE
  5
4A9
100
AcDbEntity
  8
0
100
AcDbLine
 62
7
  6
CONTINUOUS
 10
129.7488375383
 20
210.4723978342
 11
130.0780211486
 21
210.4476645332
  0
LINE
  5
4AA
100
AcDbEntity
  8
0
100
AcDbLine
 62
7
  6
CONTINUOUS
 10
158.0243228286
 20
208.2322943889
 11
158.6460247439
 21
208.1681716285
  0
LINE
  5
4AB
100
AcDbEntity
  8
0
100
AcDbLine
 62
7
  6
CONTINUOUS
 10
159.1590068275
 20
213.1417869515
 11
158.5373049121
 21
213.205909712
  0
LINE
  5
4AC
100
AcDbEntity
  8
0
100
AcDbLine
 62
7
  6
CONTINUOUS
 10
134.8662221854
 20
211.7102379414
 11
135.1933284009
 21
211.6657789787
  0
LINE
  5
4AD
100
AcDbEntity
  8
0
100
AcDbLine
 62
7
  6
CONTINUOUS
 10
159.4765679401
 20
208.0914455501
 11
163.1869369977
 21
207.547697947
  0
LINE
  5
4AE
100
AcDbEntity
  8
0
100
AcDbLine
 62
7
  6
CONTINUOUS
 10
163.2640643189
 20
208.0739914414
 11
160.3782232912
 21
208.4969060133
  0
LINE
  5
4AF
100
AcDbEntity
  8
0
100
AcDbLine
 62
7
  6
CONTINUOUS
 10
160.1349488958
 20
211.8656548987
 11
160.6502795042
 21
211.7901341678
  0
LINE
  5
4B0
100
AcDbEntity
  8
0
100
AcDbLine
 62
7
  6
CONTINUOUS
 10
161.7734887756
 20
212.2706455022
 11
162.1857551495
 21
212.2102286409
  0
LINE
  5
4B1
100
AcDbEntity
  8
0
100
AcDbLine
 62
7
  6
CONTINUOUS
 10
162.3659466944
 20
212.7214181919
 11
161.9536850385
 21
212.7818343618
  0
LINE
  5
4B2
100
AcDbEntity
  8
0
100
AcDbLine
 62
7
  6
CONTINUOUS
 10
140.0585317877
 20
210.2598062819
 11
140.3823749342
 21
210.1957812717
  0
LINE
  5
4B3
100
AcDbEntity
  8
0
100
AcDbLine
 62
7
  6
CONTINUOUS
 10
139.7765274912
 20
212.3686943847
 11
140.1003706377
 21
212.3046693746
  0
LINE
  5
4B4
100
AcDbEntity
  8
0
100
AcDbLine
 62
7
  6
CONTINUOUS
 10
162.9689160753
 20
212.5255349073
 11
162.3659466944
 21
212.7214181919
  0
LINE
  5
4B5
100
AcDbEntity
  8
0
100
AcDbLine
 62
7
  6
CONTINUOUS
 10
162.1857551495
 20
212.2102286409
 11
162.6856555779
 21
212.0294499173
  0
LINE
  5
4B6
100
AcDbEntity
  8
1_AXIS
100
AcDbLine
 62
7
  6
CONTINUOUS
 10
52.0218023256
 20
253.6206395349
 11
52.0218023256
 21
261.6206395349
  0
LINE
  5
4B7
100
AcDbEntity
  8
0
100
AcDbLine
 62
7
  6
CONTINUOUS
 10
63.2300312783
 20
254.070899888
 11
63.2300312783
 21
261.1703791818
  0
LINE
  5
4B8
100
AcDbEntity
  8
0
100
AcDbLine
 62
7
  6
CONTINUOUS
 10
63.2637587632
 20
261.4278997853
 11
63.2636192244
 21
261.4273766725
  0
LWPOLYLINE
  5
4B9
100
AcDbEntity
  8
0
100
AcDbPolyline
 62
7
  6
CONTINUOUS
 90
4
 70
0
 10
63.3175730961
 20
261.5900389107
 10
63.2932380345
 20
261.524143642
 10
63.2710109528
 20
261.4531895876
 10
63.2640734545
 20
261.428065457
  0
LWPOLYLINE
  5
4BA
100
AcDbEntity
  8
0
100
AcDbPolyline
 62
7
  6
CONTINUOUS
 90
3
 70
0
 10
63.3017924532
 20
253.6930887872
 10
63.3302367092
 20
253.6205645844
 10
63.3612375152
 20
253.5533889192
  0
LWPOLYLINE
  5
4BB
100
AcDbEntity
  8
0
100
AcDbPolyline
 62
7
  6
CONTINUOUS
 90
3
 70
0
 10
63.2643135309
 20
253.8130570598
 10
63.2760870991
 20
253.7713378702
 10
63.3017924532
 20
253.6930887872
  0
LWPOLYLINE
  5
4BC
100
AcDbEntity
  8
0
100
AcDbPolyline
 62
7
  6
CONTINUOUS
 90
5
 70
0
 10
63.4360802917
 20
261.8153731645
 10
63.4033247073
 20
261.7645132071
 10
63.3726034623
 20
261.7099609595
 10
63.3440756911
 20
261.6519695371
 10
63.3175730961
 20
261.5900389107
  0
LWPOLYLINE
  5
4BD
100
AcDbEntity
  8
0
100
AcDbPolyline
 62
7
  6
CONTINUOUS
 90
3
 70
0
 10
63.3612375152
 20
253.5533889192
 10
63.3949520173
 20
253.4908332338
 10
63.4318492475
 20
253.4319638283
  0
LWPOLYLINE
  5
4BE
100
AcDbEntity
  8
0
100
AcDbPolyline
 62
7
  6
CONTINUOUS
 90
17
 70
0
 10
63.4719247611
 20
253.3770417386
 10
63.5159094715
 20
253.3256117412
 10
63.5625633083
 20
253.2794538576
 10
63.6109314002
 20
253.239349182
 10
63.6600124934
 20
253.205553973
 10
63.7102962922
 20
253.1770510108
 10
63.7576176868
 20
253.1552574766
 10
63.7994149056
 20
253.1395997472
 10
63.8369904497
 20
253.1279976472
 10
63.8680336501
 20
253.1198819183
 10
63.8969599869
 20
253.1132626066
 10
63.9258654665
 20
253.1073338029
 10
63.956020383
 20
253.1016921738
 10
63.9895185831
 20
253.0959135129
 10
64.0264869741
 20
253.089993916
 10
64.0677011411
 20
253.0838414087
 10
64.0910007253
 20
253.0805387677
  0
LINE
  5
4BF
100
AcDbEntity
  8
0
100
AcDbLine
 62
7
  6
CONTINUOUS
 10
63.4318492475
 20
253.4319638283
 11
63.4719247611
 21
253.3770417386
  0
LINE
  5
4C0
100
AcDbEntity
  8
0
100
AcDbLine
 62
7
  6
CONTINUOUS
 10
97.3556306105
 20
254.070899888
 11
97.3556306105
 21
261.1703791818
  0
LWPOLYLINE
  5
4C1
100
AcDbEntity
  8
0
100
AcDbPolyline
 62
7
  6
CONTINUOUS
 90
7
 70
0
 10
63.6721457521
 20
262.0422612423
 10
63.6298390966
 20
262.0144072219
 10
63.5878948598
 20
261.9822719155
 10
63.5469290307
 20
261.9459736298
 10
63.5075664426
 20
261.9057350411
 10
63.4707687012
 20
261.8623865141
 10
63.4360802917
 20
261.8153731645
  0
LINE
  5
4C2
100
AcDbEntity
  8
0
100
AcDbLine
 62
7
  6
CONTINUOUS
 10
63.7151335884
 20
262.0662470138
 11
63.6721457521
 21
262.0422612423
  0
LINE
  5
4C3
100
AcDbEntity
  8
1_AXIS
100
AcDbLine
 62
7
  6
CONTINUOUS
 10
118.5218023256
 20
238.4706395349
 11
118.5218023256
 21
251.1206395349
  0
LINE
  5
4C4
100
AcDbEntity
  8
1_AXIS
100
AcDbLine
 62
7
  6
CONTINUOUS
 10
118.5218023256
 20
264.1206395349
 11
118.5218023256
 21
276.7706395349
  0
LWPOLYLINE
  5
4C5
100
AcDbEntity
  8
0
100
AcDbPolyline
 62
7
  6
CONTINUOUS
 90
6
 70
0
 10
100.7731799276
 20
262.9158082973
 10
100.7835525127
 20
262.9216841965
 10
100.7721719023
 20
262.9164158135
 10
100.736397209
 20
262.9017843973
 10
100.6794209051
 20
262.8811620893
 10
100.6012260941
 20
262.8558118483
  0
LWPOLYLINE
  5
4C6
100
AcDbEntity
  8
0
100
AcDbPolyline
 62
7
  6
CONTINUOUS
 90
4
 70
0
 10
63.8327537303
 20
262.112210261
 10
63.7958862846
 20
262.1005386234
 10
63.7564948312
 20
262.0854486157
 10
63.7151335884
 20
262.0662470138
  0
LINE
  5
4C7
100
AcDbEntity
  8
0
100
AcDbLine
 62
7
  6
CONTINUOUS
 10
236.1726885809
 20
253.1191855258
 11
236.202984135
 21
253.1269857568
  0
LINE
  5
4C8
100
AcDbEntity
  8
1_AXIS
100
AcDbLine
 62
7
  6
CONTINUOUS
 10
120.5218023256
 20
236.4706395349
 11
179.5218023256
 21
236.4706395349
  0
LINE
  5
4C9
100
AcDbEntity
  8
0
100
AcDbLine
 62
7
  6
CONTINUOUS
 10
100.7718246217
 20
252.3250076845
 11
100.7752245905
 21
252.3234953901
  0
LINE
  5
4CA
100
AcDbEntity
  8
0
100
AcDbLine
 62
7
  6
CONTINUOUS
 10
100.6012260941
 20
262.8558118483
 11
100.5296581279
 21
262.8345605943
  0
LINE
  5
4CB
100
AcDbEntity
  8
0
100
AcDbLine
 62
7
  6
CONTINUOUS
 10
100.5292670317
 20
262.8344414447
 11
98.0794483021
 21
262.1314844536
  0
LINE
  5
4CC
100
AcDbEntity
  8
0
100
AcDbLine
 62
7
  6
CONTINUOUS
 10
228.9220821859
 20
252.1292434912
 11
228.9951414086
 21
252.1409735588
  0
LINE
  5
4CD
100
AcDbEntity
  8
0
100
AcDbLine
 62
7
  6
CONTINUOUS
 10
228.9951414086
 20
252.1409735588
 11
229.3390804722
 21
252.194420413
  0
LWPOLYLINE
  5
4CE
100
AcDbEntity
  8
0
100
AcDbPolyline
 62
7
  6
CONTINUOUS
 90
3
 70
0
 10
229.3390804722
 20
252.194420413
 10
229.7146923557
 20
252.2500012233
 10
230.1206442033
 20
252.3074376316
  0
LWPOLYLINE
  5
4CF
100
AcDbEntity
  8
0
100
AcDbPolyline
 62
7
  6
CONTINUOUS
 90
8
 70
0
 10
235.9525832071
 20
253.0805358828
 10
235.9706173743
 20
253.0830817331
 10
236.011390965
 20
253.0891130513
 10
236.0488212858
 20
253.0950438293
 10
236.083077036
 20
253.1008876824
 10
236.1141120679
 20
253.1066289396
 10
236.1435850815
 20
253.1126060896
 10
236.1726885809
 20
253.1191855258
  0
LINE
  5
4D0
100
AcDbEntity
  8
0
100
AcDbLine
 62
7
  6
CONTINUOUS
 10
230.1206442033
 20
252.3074376316
 11
235.9449361902
 21
253.079565522
  0
LINE
  5
4D1
100
AcDbEntity
  8
0
100
AcDbLine
 62
7
  6
CONTINUOUS
 10
228.8560206562
 20
252.1218939107
 11
228.9220690423
 21
252.1292434875
  0
LINE
  5
4D2
100
AcDbEntity
  8
1_AXIS
100
AcDbLine
 62
7
  6
CONTINUOUS
 10
238.0218023256
 20
252.1206395349
 11
247.5740024852
 21
253.1233718571
  0
LINE
  5
4D3
100
AcDbEntity
  8
1_AXIS
100
AcDbLine
 62
7
  6
CONTINUOUS
 10
62.0218023256
 20
252.1206395349
 11
52.4696021659
 21
253.1233718571
  0
LINE
  5
4D4
100
AcDbEntity
  8
0
100
AcDbLine
 62
7
  6
CONTINUOUS
 10
71.1875922086
 20
252.121894892
 11
71.1215290807
 21
252.1292473235
  0
LINE
  5
4D5
100
AcDbEntity
  8
0
100
AcDbLine
 62
7
  6
CONTINUOUS
 10
64.0986684609
 20
253.0795655219
 11
69.9515489575
 21
252.3034776156
  0
LWPOLYLINE
  5
4D6
100
AcDbEntity
  8
0
100
AcDbPolyline
 62
7
  6
CONTINUOUS
 90
3
 70
0
 10
69.9515489575
 20
252.3034776156
 10
70.3555393771
 20
252.2461492347
 10
70.7292165532
 20
252.1906723936
  0
LWPOLYLINE
  5
4D7
100
AcDbEntity
  8
0
100
AcDbPolyline
 62
7
  6
CONTINUOUS
 90
3
 70
0
 10
70.7292165532
 20
252.1906723936
 10
71.0711214035
 20
252.1373532208
 10
71.1215130247
 20
252.1292473274
  0
LINE
  5
4D8
100
AcDbEntity
  8
0
100
AcDbLine
 62
7
  6
CONTINUOUS
 10
98.0794478363
 20
253.1097947481
 11
100.5292670322
 21
252.4068376245
  0
LWPOLYLINE
  5
4D9
100
AcDbEntity
  8
0
100
AcDbPolyline
 62
7
  6
CONTINUOUS
 90
5
 70
0
 10
100.5296691891
 20
252.4067169826
 10
100.6003644906
 20
252.385733071
 10
100.67850495
 20
252.3604273386
 10
100.7356566906
 20
252.3397719256
 10
100.7718246217
 20
252.3250076845
  0
LINE
  5
4DA
100
AcDbEntity
  8
1_AXIS
100
AcDbLine
 62
2
  6
CENTER
 10
150.0218023256
 20
234.4706395349
 11
150.0218023256
 21
280.7706395349
  0
LINE
  5
4DB
100
AcDbEntity
  8
0
100
AcDbLine
 62
7
  6
CONTINUOUS
 10
238.0218015243
 20
252.1206395349
 11
228.8559891293
 21
252.1206395349
  0
LINE
  5
4DC
100
AcDbEntity
  8
0
100
AcDbLine
 62
7
  6
CONTINUOUS
 10
228.8229816426
 20
252.1206395349
 11
198.6911423534
 21
252.1206395349
  0
LINE
  5
4DD
100
AcDbEntity
  8
0
100
AcDbLine
 62
7
  6
CONTINUOUS
 10
198.6800734827
 20
252.1206395349
 11
101.3634420479
 21
252.1206395349
  0
LINE
  5
4DE
100
AcDbEntity
  8
0
100
AcDbLine
 62
7
  6
CONTINUOUS
 10
101.2156044571
 20
252.1206395349
 11
71.2205668872
 21
252.1206395349
  0
LINE
  5
4DF
100
AcDbEntity
  8
0
100
AcDbLine
 62
7
  6
CONTINUOUS
 10
71.1866604639
 20
252.1206395349
 11
62.0218037436
 21
252.1206395349
  0
LINE
  5
4E0
100
AcDbEntity
  8
0
100
AcDbLine
 62
7
  6
CONTINUOUS
 10
62.0218037436
 20
263.1206395349
 11
71.1865339495
 21
263.1206395349
  0
LINE
  5
4E1
100
AcDbEntity
  8
0
100
AcDbLine
 62
7
  6
CONTINUOUS
 10
71.2205668872
 20
263.1206395349
 11
101.3526609219
 21
263.1206395349
  0
LINE
  5
4E2
100
AcDbEntity
  8
0
100
AcDbLine
 62
7
  6
CONTINUOUS
 10
101.3634420479
 20
263.1206395349
 11
198.6800734827
 21
263.1206395349
  0
LINE
  5
4E3
100
AcDbEntity
  8
0
100
AcDbLine
 62
7
  6
CONTINUOUS
 10
198.8285276516
 20
263.1206395349
 11
228.8229816426
 21
263.1206395349
  0
LINE
  5
4E4
100
AcDbEntity
  8
0
100
AcDbLine
 62
7
  6
CONTINUOUS
 10
228.8554722244
 20
263.1206395349
 11
238.0218015243
 21
263.1206395349
  0
LINE
  5
4E5
100
AcDbEntity
  8
0
100
AcDbLine
 62
7
  6
CONTINUOUS
 10
71.1875871191
 20
263.1193847409
 11
71.121538211
 21
263.1120347969
  0
LINE
  5
4E6
100
AcDbEntity
  8
0
100
AcDbLine
 62
7
  6
CONTINUOUS
 10
228.8560217842
 20
263.1193853351
 11
228.9220692226
 21
263.1120360158
  0
LINE
  5
4E7
100
AcDbEntity
  8
0
100
AcDbLine
 62
7
  6
CONTINUOUS
 10
199.4552394006
 20
252.3894048322
 11
199.5140171037
 21
252.4067402267
  0
LINE
  5
4E8
100
AcDbEntity
  8
0
100
AcDbLine
 62
7
  6
CONTINUOUS
 10
199.5143376167
 20
252.4068376243
 11
201.9641568145
 21
253.1097947481
  0
LINE
  5
4E9
100
AcDbEntity
  8
0
100
AcDbLine
 62
7
  6
CONTINUOUS
 10
71.1215233312
 20
263.1120347929
 11
71.0720177419
 21
263.1040702438
  0
LINE
  5
4EA
100
AcDbEntity
  8
0
100
AcDbLine
 62
7
  6
CONTINUOUS
 10
71.0720177419
 20
263.1040702438
 11
70.7306986324
 21
263.0508299877
  0
LWPOLYLINE
  5
4EB
100
AcDbEntity
  8
0
100
AcDbPolyline
 62
7
  6
CONTINUOUS
 90
3
 70
0
 10
70.7306986324
 20
263.0508299877
 10
70.3573526
 20
262.9954005789
 10
69.9532265026
 20
262.9380464725
  0
LWPOLYLINE
  5
4EC
100
AcDbEntity
  8
0
100
AcDbPolyline
 62
7
  6
CONTINUOUS
 90
8
 70
0
 10
64.093622862
 20
262.1610975837
 10
64.0729544668
 20
262.1582271994
 10
64.0305801896
 20
262.1520231574
 10
63.9919728782
 20
262.1459275724
 10
63.9568049471
 20
262.1399076683
 10
63.9250181868
 20
262.1339645724
 10
63.8947334158
 20
262.1277098289
 10
63.8644056519
 20
262.1206662411
  0
LINE
  5
4ED
100
AcDbEntity
  8
0
100
AcDbLine
 62
7
  6
CONTINUOUS
 10
69.9532265026
 20
262.9380464725
 11
64.0986688563
 21
262.1617135983
  0
LINE
  5
4EE
100
AcDbEntity
  8
1_AXIS
100
AcDbLine
 62
7
  6
CONTINUOUS
 10
52.4696021659
 20
262.1179072126
 11
62.0218023256
 21
263.1206395349
  0
LINE
  5
4EF
100
AcDbEntity
  8
1_AXIS
100
AcDbLine
 62
7
  6
CONTINUOUS
 10
247.5740024852
 20
262.1179072126
 11
238.0218023256
 21
263.1206395349
  0
LINE
  5
4F0
100
AcDbEntity
  8
0
100
AcDbLine
 62
7
  6
CONTINUOUS
 10
235.9449357949
 20
262.1617135987
 11
230.1208070832
 21
262.9338185576
  0
LINE
  5
4F1
100
AcDbEntity
  8
0
100
AcDbLine
 62
7
  6
CONTINUOUS
 10
235.9856223816
 20
262.1560867478
 11
235.9500035045
 21
262.1610946163
  0
LWPOLYLINE
  5
4F2
100
AcDbEntity
  8
0
100
AcDbPolyline
 62
7
  6
CONTINUOUS
 90
3
 70
0
 10
230.1208070832
 20
262.9338185576
 10
229.7148646393
 20
262.9912525514
 10
229.3392275336
 20
263.0468367333
  0
LWPOLYLINE
  5
4F3
100
AcDbEntity
  8
0
100
AcDbPolyline
 62
7
  6
CONTINUOUS
 90
3
 70
0
 10
229.3392275336
 20
263.0468367333
 10
228.9952362651
 20
263.1002908199
 10
228.9220817248
 20
263.1120360122
  0
LINE
  5
4F4
100
AcDbEntity
  8
0
100
AcDbLine
 62
7
  6
CONTINUOUS
 10
201.9626696185
 20
262.1319085625
 11
199.5143376028
 21
262.8344414516
  0
LWPOLYLINE
  5
4F5
100
AcDbEntity
  8
0
100
AcDbPolyline
 62
7
  6
CONTINUOUS
 90
5
 70
0
 10
199.5140161949
 20
262.8345389712
 10
199.4543275991
 20
262.8521515849
 10
199.3742292042
 20
262.8777477163
 10
199.3146904754
 20
262.8989330268
 10
199.2756843926
 20
262.9145680426
  0
LINE
  5
4F6
100
AcDbEntity
  8
0
100
AcDbLine
 62
7
  6
CONTINUOUS
 10
63.8644056519
 20
262.1206662411
 11
63.8327537303
 21
262.112210261
  0
LINE
  5
4F7
100
AcDbEntity
  8
1_AXIS
100
AcDbLine
 62
7
  6
CONTINUOUS
 10
120.5218023256
 20
278.7706395349
 11
179.5218023256
 21
278.7706395349
  0
LINE
  5
4F8
100
AcDbEntity
  8
0
100
AcDbLine
 62
7
  6
CONTINUOUS
 10
199.2756843926
 20
262.9145680426
 11
199.2718349441
 21
262.9162436502
  0
LINE
  5
4F9
100
AcDbEntity
  8
1_AXIS
100
AcDbLine
 62
7
  6
CONTINUOUS
 10
181.5218023256
 20
238.4706395349
 11
181.5218023256
 21
251.1206395349
  0
LINE
  5
4FA
100
AcDbEntity
  8
1_AXIS
100
AcDbLine
 62
7
  6
CONTINUOUS
 10
181.5218023256
 20
264.1206395349
 11
181.5218023256
 21
276.7706395349
  0
LWPOLYLINE
  5
4FB
100
AcDbEntity
  8
0
100
AcDbPolyline
 62
7
  6
CONTINUOUS
 90
6
 70
0
 10
199.2663673258
 20
252.3230888068
 10
199.2603568842
 20
252.3197464338
 10
199.2761000609
 20
252.3268916849
 10
199.3154117274
 20
252.3426200666
 10
199.37513903
 20
252.3638388612
 10
199.4552394006
 20
252.3894048322
  0
LWPOLYLINE
  5
4FC
100
AcDbEntity
  8
0
100
AcDbPolyline
 62
7
  6
CONTINUOUS
 90
4
 70
0
 10
236.202984135
 20
253.1269857568
 10
236.2383634083
 20
253.1376575788
 10
236.2762882795
 20
253.1513415405
 10
236.3168037223
 20
253.1689237466
  0
LINE
  5
4FD
100
AcDbEntity
  8
0
100
AcDbLine
 62
7
  6
CONTINUOUS
 10
236.3168037223
 20
253.1689237466
 11
236.3587308742
 21
253.1907374027
  0
LINE
  5
4FE
100
AcDbEntity
  8
0
100
AcDbLine
 62
7
  6
CONTINUOUS
 10
202.6879740406
 20
261.1703791818
 11
202.6879740406
 21
254.070899888
  0
LWPOLYLINE
  5
4FF
100
AcDbEntity
  8
0
100
AcDbPolyline
 62
7
  6
CONTINUOUS
 90
8
 70
0
 10
236.3587308742
 20
253.1907374027
 10
236.3990991386
 20
253.2155524677
 10
236.4387148075
 20
253.2439645321
 10
236.4770937339
 20
253.2759001872
 10
236.5135372309
 20
253.3107594057
 10
236.5471410144
 20
253.3473153415
 10
236.5783084026
 20
253.3855541402
 10
236.6070474459
 20
253.4250617652
  0
LWPOLYLINE
  5
500
100
AcDbEntity
  8
0
100
AcDbPolyline
 62
7
  6
CONTINUOUS
 90
15
 70
0
 10
236.559702685
 20
261.8785676914
 10
236.5188140469
 20
261.9240516058
 10
236.4742091373
 20
261.9665249473
 10
236.426978386
 20
262.0047927796
 10
236.3765835536
 20
262.0391168534
 10
236.3268498286
 20
262.0670694048
 10
236.2794226139
 20
262.0886256403
 10
236.235854899
 20
262.1045340136
 10
236.1991460037
 20
262.1154877075
 10
236.1650684024
 20
262.1240602025
 10
236.1337909178
 20
262.1309077471
 10
236.102236489
 20
262.1370899169
 10
236.0674032534
 20
262.1432902895
 10
236.0289769623
 20
262.14956143
 10
235.9856223816
 20
262.1560867478
  0
LINE
  5
501
100
AcDbEntity
  8
0
100
AcDbLine
 62
7
  6
CONTINUOUS
 10
236.5976387818
 20
261.8294389955
 11
236.559702685
 21
261.8785676914
  0
LWPOLYLINE
  5
502
100
AcDbEntity
  8
0
100
AcDbPolyline
 62
7
  6
CONTINUOUS
 90
6
 70
0
 10
236.6070474459
 20
253.4250617652
 10
236.6337394167
 20
253.4659633893
 10
236.6586067803
 20
253.5083327246
 10
236.6818730631
 20
253.5524004442
 10
236.703656182
 20
253.5983534207
 10
236.7241689233
 20
253.6466918733
  0
LWPOLYLINE
  5
503
100
AcDbEntity
  8
0
100
AcDbPolyline
 62
7
  6
CONTINUOUS
 90
4
 70
0
 10
236.696273643
 20
261.6590003907
 10
236.6657602042
 20
261.71979795
 10
236.632923419
 20
261.7765418615
 10
236.5976387818
 20
261.8294389955
  0
LINE
  5
504
100
AcDbEntity
  8
0
100
AcDbLine
 62
7
  6
CONTINUOUS
 10
236.8135733728
 20
261.1703791818
 11
236.8135733728
 21
254.070899888
  0
LINE
  5
505
100
AcDbEntity
  8
0
100
AcDbLine
 62
7
  6
CONTINUOUS
 10
236.7617078271
 20
253.7523017563
 11
236.7793262178
 21
253.8131886677
  0
LINE
  5
506
100
AcDbEntity
  8
0
100
AcDbLine
 62
7
  6
CONTINUOUS
 10
236.7435878405
 20
253.6980476444
 11
236.7617078271
 21
253.7523017563
  0
LINE
  5
507
100
AcDbEntity
  8
0
100
AcDbLine
 62
7
  6
CONTINUOUS
 10
236.7241689233
 20
253.6466918733
 11
236.7435878405
 21
253.6980476444
  0
LINE
  5
508
100
AcDbEntity
  8
0
100
AcDbLine
 62
7
  6
CONTINUOUS
 10
236.7245122676
 20
261.5938375396
 11
236.696273643
 21
261.6590003907
  0
LWPOLYLINE
  5
509
100
AcDbEntity
  8
0
100
AcDbPolyline
 62
7
  6
CONTINUOUS
 90
4
 70
0
 10
236.7795188492
 20
261.4281117806
 10
236.7736620316
 20
261.4494311654
 10
236.750364953
 20
261.5241485248
 10
236.7245122676
 20
261.5938375396
  0
LINE
  5
50A
100
AcDbEntity
  8
0
100
AcDbLine
 62
7
  6
CONTINUOUS
 10
236.7799854263
 20
261.4273766744
 11
236.7797003104
 21
261.4284429872
  0
LINE
  5
50B
100
AcDbEntity
  8
1_AXIS
100
AcDbLine
 62
7
  6
CONTINUOUS
 10
248.0218023256
 20
253.6206395349
 11
248.0218023256
 21
261.6206395349
  0
LINE
  5
50C
100
AcDbEntity
  8
1_AXIS
100
AcDbLine
 62
7
  6
CONTINUOUS
 10
313.289244186
 20
32.6438953488
 11
321.289244186
 21
32.6438953488
  0
LINE
  5
50D
100
AcDbEntity
  8
0
100
AcDbLine
 62
7
  6
CONTINUOUS
 10
320.8389838329
 20
43.8521243016
 11
313.7395045392
 21
43.8521243016
  0
LWPOLYLINE
  5
50E
100
AcDbEntity
  8
0
100
AcDbPolyline
 62
7
  6
CONTINUOUS
 90
3
 70
0
 10
313.3616934311
 20
217.3639052218
 10
313.28916923
 20
217.3354609663
 10
313.2219935661
 20
217.3044601607
  0
LWPOLYLINE
  5
50F
100
AcDbEntity
  8
0
100
AcDbPolyline
 62
7
  6
CONTINUOUS
 90
4
 70
0
 10
321.0967164366
 20
43.8861788252
 10
321.1180358182
 20
43.8920356419
 10
321.1927531771
 20
43.9153327202
 10
321.2624421915
 20
43.9411854054
  0
LINE
  5
510
100
AcDbEntity
  8
0
100
AcDbLine
 62
7
  6
CONTINUOUS
 10
321.0959813275
 20
43.8857122487
 11
321.0970476429
 21
43.8859973652
  0
LINE
  5
511
100
AcDbEntity
  8
0
100
AcDbLine
 62
7
  6
CONTINUOUS
 10
313.4209064019
 20
43.9039898475
 11
313.481793319
 21
43.8863714552
  0
LINE
  5
512
100
AcDbEntity
  8
0
100
AcDbLine
 62
7
  6
CONTINUOUS
 10
313.3666522906
 20
43.9221098341
 11
313.4209064019
 21
43.9039898475
  0
LINE
  5
513
100
AcDbEntity
  8
0
100
AcDbLine
 62
7
  6
CONTINUOUS
 10
313.3152965201
 20
43.9415287512
 11
313.3666522906
 21
43.9221098341
  0
LWPOLYLINE
  5
514
100
AcDbEntity
  8
0
100
AcDbPolyline
 62
7
  6
CONTINUOUS
 90
3
 70
0
 10
313.2219935661
 20
217.3044601607
 10
313.1594378819
 20
217.2707456592
 10
313.1005684777
 20
217.2338484296
  0
LWPOLYLINE
  5
515
100
AcDbEntity
  8
0
100
AcDbPolyline
 62
7
  6
CONTINUOUS
 90
6
 70
0
 10
313.0936664142
 20
44.058650228
 10
313.1345680379
 20
44.0319582574
 10
313.1769373728
 20
44.0070908939
 10
313.221005092
 20
43.9838246112
 10
313.266958068
 20
43.9620414924
 10
313.3152965201
 20
43.9415287512
  0
LWPOLYLINE
  5
516
100
AcDbEntity
  8
0
100
AcDbPolyline
 62
7
  6
CONTINUOUS
 90
17
 70
0
 10
313.0456463891
 20
217.1937729169
 10
312.9942163928
 20
217.1497882074
 10
312.9480585101
 20
217.1031343719
 10
312.9079538355
 20
217.0547662818
 10
312.8741586272
 20
217.0056851905
 10
312.8456556655
 20
216.9554013938
 10
312.8238621312
 20
216.908080001
 10
312.8082044013
 20
216.8662827832
 10
312.7966023008
 20
216.8287072396
 10
312.7884865714
 20
216.7976640391
 10
312.7818672593
 20
216.7687377019
 10
312.7759384553
 20
216.7398322218
 10
312.7702968259
 20
216.7096773047
 10
312.7645181647
 20
216.6761791035
 10
312.7585985675
 20
216.6392107113
 10
312.75244606
 20
216.5979965429
 10
312.749143419
 20
216.5746969584
  0
LINE
  5
517
100
AcDbEntity
  8
0
100
AcDbLine
 62
7
  6
CONTINUOUS
 10
313.1005684777
 20
217.2338484296
 11
313.0456463891
 21
217.1937729169
  0
LINE
  5
518
100
AcDbEntity
  8
0
100
AcDbLine
 62
7
  6
CONTINUOUS
 10
320.8389838329
 20
77.9777236338
 11
313.7395045392
 21
77.9777236338
  0
LWPOLYLINE
  5
519
100
AcDbEntity
  8
0
100
AcDbPolyline
 62
7
  6
CONTINUOUS
 90
8
 70
0
 10
312.8593420536
 20
44.3069667984
 10
312.8841571184
 20
44.2665985341
 10
312.9125691827
 20
44.2269828653
 10
312.9445048377
 20
44.1886039391
 10
312.9793640559
 20
44.1521604423
 10
313.0159199913
 20
44.1185566591
 10
313.0541587896
 20
44.0873892712
 10
313.0936664142
 20
44.058650228
  0
LINE
  5
51A
100
AcDbEntity
  8
0
100
AcDbLine
 62
7
  6
CONTINUOUS
 10
312.8375283977
 20
44.34889395
 11
312.8593420536
 21
44.3069667984
  0
LINE
  5
51B
100
AcDbEntity
  8
1_AXIS
100
AcDbLine
 62
7
  6
CONTINUOUS
 10
336.439244186
 20
99.1438953488
 11
323.789244186
 21
99.1438953488
  0
LINE
  5
51C
100
AcDbEntity
  8
1_AXIS
100
AcDbLine
 62
7
  6
CONTINUOUS
 10
310.789244186
 20
99.1438953488
 11
298.139244186
 21
99.1438953488
  0
LWPOLYLINE
  5
51D
100
AcDbEntity
  8
0
100
AcDbPolyline
 62
7
  6
CONTINUOUS
 90
6
 70
0
 10
311.9916471117
 20
81.3994115046
 10
311.988292677
 20
81.405445122
 10
311.9954745103
 20
81.3896212256
 10
312.0112329903
 20
81.3502361669
 10
312.0324507598
 20
81.2905157633
 10
312.0580067393
 20
81.2104543111
  0
LWPOLYLINE
  5
51E
100
AcDbEntity
  8
0
100
AcDbPolyline
 62
7
  6
CONTINUOUS
 90
4
 70
0
 10
312.7955904081
 20
44.4627135358
 10
312.80626223
 20
44.427334263
 10
312.8199461916
 20
44.3894093923
 10
312.8375283977
 20
44.34889395
  0
LINE
  5
51F
100
AcDbEntity
  8
0
100
AcDbLine
 62
7
  6
CONTINUOUS
 10
312.787790177
 20
44.4930090896
 11
312.7955904081
 21
44.4627135358
  0
LINE
  5
520
100
AcDbEntity
  8
1_AXIS
100
AcDbLine
 62
7
  6
CONTINUOUS
 10
296.139244186
 20
101.1438953488
 11
296.139244186
 21
160.1438953488
  0
LINE
  5
521
100
AcDbEntity
  8
0
100
AcDbLine
 62
7
  6
CONTINUOUS
 10
311.9935963889
 20
179.8938541508
 11
311.9920802894
 21
179.8904459211
  0
LINE
  5
522
100
AcDbEntity
  8
1_AXIS
100
AcDbLine
 62
7
  6
CONTINUOUS
 10
311.789244186
 20
42.6438953488
 11
312.7919765083
 21
33.0916951892
  0
LINE
  5
523
100
AcDbEntity
  8
1_AXIS
100
AcDbLine
 62
7
  6
CONTINUOUS
 10
311.789244186
 20
218.6438953488
 11
312.7919765083
 21
228.1960955085
  0
LINE
  5
524
100
AcDbEntity
  8
0
100
AcDbLine
 62
7
  6
CONTINUOUS
 10
311.7904989121
 20
209.4781110753
 11
311.7978505815
 21
209.5441715962
  0
LINE
  5
525
100
AcDbEntity
  8
0
100
AcDbLine
 62
7
  6
CONTINUOUS
 10
312.7481701731
 20
216.5670292135
 11
311.9721053392
 21
210.7143015604
  0
LWPOLYLINE
  5
526
100
AcDbEntity
  8
0
100
AcDbPolyline
 62
7
  6
CONTINUOUS
 90
3
 70
0
 10
311.9721053392
 20
210.7143015604
 10
311.9147797304
 20
210.3103257435
 10
311.8592980419
 20
209.936622694
  0
LWPOLYLINE
  5
527
100
AcDbEntity
  8
0
100
AcDbPolyline
 62
7
  6
CONTINUOUS
 90
3
 70
0
 10
311.8592980419
 20
209.936622694
 10
311.8059713224
 20
209.5946697896
 10
311.7978505853
 20
209.5441855541
  0
LINE
  5
528
100
AcDbEntity
  8
0
100
AcDbLine
 62
7
  6
CONTINUOUS
 10
312.7783993992
 20
182.5862498381
 11
312.0754422757
 21
180.1364306422
  0
LWPOLYLINE
  5
529
100
AcDbEntity
  8
0
100
AcDbPolyline
 62
7
  6
CONTINUOUS
 90
5
 70
0
 10
312.0753257173
 20
180.1360485914
 10
312.0543336415
 20
180.0653291094
 10
312.0290334041
 20
179.9872105426
 10
312.0083789635
 20
179.93006444
 10
311.9935963889
 20
179.8938541508
  0
LINE
  5
52A
100
AcDbEntity
  8
0
100
AcDbLine
 62
7
  6
CONTINUOUS
 10
312.0580067393
 20
81.2104543111
 11
312.0753527471
 21
81.1516447825
  0
LINE
  5
52B
100
AcDbEntity
  8
0
100
AcDbLine
 62
7
  6
CONTINUOUS
 10
312.0754422755
 20
81.1513600577
 11
312.7783993992
 21
78.70154086
  0
LINE
  5
52C
100
AcDbEntity
  8
0
100
AcDbLine
 62
7
  6
CONTINUOUS
 10
311.7978502887
 20
51.7436079987
 11
311.8096172049
 21
51.6703160696
  0
LINE
  5
52D
100
AcDbEntity
  8
0
100
AcDbLine
 62
7
  6
CONTINUOUS
 10
311.8096172049
 20
51.6703160696
 11
311.8630934103
 21
51.3261670656
  0
LWPOLYLINE
  5
52E
100
AcDbEntity
  8
0
100
AcDbPolyline
 62
7
  6
CONTINUOUS
 90
3
 70
0
 10
311.8630934103
 20
51.3261670656
 10
311.9186969992
 20
50.9504131066
 10
311.9761208512
 20
50.5445297441
  0
LWPOLYLINE
  5
52F
100
AcDbEntity
  8
0
100
AcDbPolyline
 62
7
  6
CONTINUOUS
 90
8
 70
0
 10
312.749140534
 20
44.7131144626
 10
312.7516863842
 20
44.6950802963
 10
312.7577177024
 20
44.6543067056
 10
312.7636484804
 20
44.6168763847
 10
312.7694923336
 20
44.5826206344
 10
312.7752335908
 20
44.5515856024
 10
312.7812107408
 20
44.5221125889
 10
312.787790177
 20
44.4930090896
  0
LINE
  5
530
100
AcDbEntity
  8
0
100
AcDbLine
 62
7
  6
CONTINUOUS
 10
311.9761208512
 20
50.5445297441
 11
312.7481701732
 21
44.7207614842
  0
LINE
  5
531
100
AcDbEntity
  8
0
100
AcDbLine
 62
7
  6
CONTINUOUS
 10
311.7904990412
 20
51.809679842
 11
311.7978502849
 21
51.7436224653
  0
LINE
  5
532
100
AcDbEntity
  8
0
100
AcDbLine
 62
7
  6
CONTINUOUS
 10
311.789244186
 20
42.6438963117
 11
311.789244186
 21
51.809366011
  0
LINE
  5
533
100
AcDbEntity
  8
0
100
AcDbLine
 62
7
  6
CONTINUOUS
 10
311.789244186
 20
51.8427161135
 11
311.789244186
 21
81.9745554406
  0
LINE
  5
534
100
AcDbEntity
  8
0
100
AcDbLine
 62
7
  6
CONTINUOUS
 10
311.789244186
 20
81.9856243378
 11
311.789244186
 21
179.3022554516
  0
LINE
  5
535
100
AcDbEntity
  8
0
100
AcDbLine
 62
7
  6
CONTINUOUS
 10
311.789244186
 20
179.450093141
 11
311.789244186
 21
209.4451314719
  0
LINE
  5
536
100
AcDbEntity
  8
0
100
AcDbLine
 62
7
  6
CONTINUOUS
 10
311.789244186
 20
209.4783188464
 11
311.789244186
 21
218.6438950014
  0
LINE
  5
537
100
AcDbEntity
  8
1_AXIS
100
AcDbLine
 62
2
  6
CENTER
 10
294.139244186
 20
130.6438953488
 11
340.439244186
 21
130.6438953488
  0
LINE
  5
538
100
AcDbEntity
  8
0
100
AcDbLine
 62
7
  6
CONTINUOUS
 10
322.789244186
 20
218.6438950014
 11
322.789244186
 21
209.478628536
  0
LINE
  5
539
100
AcDbEntity
  8
0
100
AcDbLine
 62
7
  6
CONTINUOUS
 10
322.789244186
 20
209.4451314719
 11
322.789244186
 21
179.3130367182
  0
LINE
  5
53A
100
AcDbEntity
  8
0
100
AcDbLine
 62
7
  6
CONTINUOUS
 10
322.789244186
 20
179.3022554516
 11
322.789244186
 21
81.9856243378
  0
LINE
  5
53B
100
AcDbEntity
  8
0
100
AcDbLine
 62
7
  6
CONTINUOUS
 10
322.789244186
 20
81.8371703245
 11
322.789244186
 21
51.8427161135
  0
LINE
  5
53C
100
AcDbEntity
  8
0
100
AcDbLine
 62
7
  6
CONTINUOUS
 10
322.789244186
 20
51.809679699
 11
322.789244186
 21
42.6438963117
  0
LINE
  5
53D
100
AcDbEntity
  8
0
100
AcDbLine
 62
7
  6
CONTINUOUS
 10
322.7879894278
 20
51.809679699
 11
322.7806380685
 21
51.7436211874
  0
LINE
  5
53E
100
AcDbEntity
  8
0
100
AcDbLine
 62
7
  6
CONTINUOUS
 10
322.787989568
 20
209.478112266
 11
322.7806399253
 21
209.5441599943
  0
LINE
  5
53F
100
AcDbEntity
  8
1_AXIS
100
AcDbLine
 62
7
  6
CONTINUOUS
 10
321.7865118638
 20
228.1960955085
 11
322.789244186
 21
218.6438953488
  0
LINE
  5
540
100
AcDbEntity
  8
1_AXIS
100
AcDbLine
 62
7
  6
CONTINUOUS
 10
321.7865118638
 20
33.0916951892
 11
322.789244186
 21
42.6438953488
  0
LINE
  5
541
100
AcDbEntity
  8
0
100
AcDbLine
 62
7
  6
CONTINUOUS
 10
321.8303182499
 20
44.7207618796
 11
322.6023356422
 21
50.5443095848
  0
LINE
  5
542
100
AcDbEntity
  8
0
100
AcDbLine
 62
7
  6
CONTINUOUS
 10
321.8246913991
 20
44.6800752893
 11
321.8296992674
 21
44.7156941655
  0
LWPOLYLINE
  5
543
100
AcDbEntity
  8
0
100
AcDbPolyline
 62
7
  6
CONTINUOUS
 90
3
 70
0
 10
322.6023356422
 20
50.5443095848
 10
322.6597534809
 20
50.9501644939
 10
322.7153648246
 20
51.3259689422
  0
LWPOLYLINE
  5
544
100
AcDbEntity
  8
0
100
AcDbPolyline
 62
7
  6
CONTINUOUS
 90
3
 70
0
 10
322.7153648246
 20
51.3259689422
 10
322.7688536516
 20
51.6702048736
 10
322.7806380647
 20
51.7436071367
  0
LINE
  5
545
100
AcDbEntity
  8
0
100
AcDbLine
 62
7
  6
CONTINUOUS
 10
321.8005132137
 20
78.703028056
 11
322.5030461028
 21
81.1513600716
  0
LWPOLYLINE
  5
546
100
AcDbEntity
  8
0
100
AcDbPolyline
 62
7
  6
CONTINUOUS
 90
5
 70
0
 10
322.5031470768
 20
81.1516955311
 10
322.5207640743
 20
81.2113995819
 10
322.5463620548
 20
81.2915041174
 10
322.5675448401
 20
81.3510348546
 10
322.5831666466
 20
81.3900058587
  0
LINE
  5
547
100
AcDbEntity
  8
0
100
AcDbLine
 62
7
  6
CONTINUOUS
 10
322.524410654
 20
180.0645071911
 11
322.5031556715
 21
180.1360842274
  0
LINE
  5
548
100
AcDbEntity
  8
0
100
AcDbLine
 62
7
  6
CONTINUOUS
 10
322.5030460958
 20
180.1364306427
 11
321.8000891048
 21
182.5862493722
  0
LINE
  5
549
100
AcDbEntity
  8
0
100
AcDbLine
 62
7
  6
CONTINUOUS
 10
322.7806399214
 20
209.5441741952
 11
322.7726698318
 21
209.5937149882
  0
LINE
  5
54A
100
AcDbEntity
  8
0
100
AcDbLine
 62
7
  6
CONTINUOUS
 10
322.7726698318
 20
209.5937149882
 11
322.7194299669
 21
209.9350360388
  0
LWPOLYLINE
  5
54B
100
AcDbEntity
  8
0
100
AcDbPolyline
 62
7
  6
CONTINUOUS
 90
3
 70
0
 10
322.7194299669
 20
209.9350360388
 10
322.6639997935
 20
210.308383903
 10
322.6066431099
 20
210.7125196285
  0
LWPOLYLINE
  5
54C
100
AcDbEntity
  8
0
100
AcDbPolyline
 62
7
  6
CONTINUOUS
 90
8
 70
0
 10
321.8297022348
 20
216.5720748214
 10
321.8268318512
 20
216.592743211
 10
321.8206278092
 20
216.635117489
 10
321.8145322242
 20
216.673724801
 10
321.80851232
 20
216.7088927326
 10
321.802569224
 20
216.7406794934
 10
321.7963144804
 20
216.7709642646
 10
321.7892708924
 20
216.8012920286
  0
LINE
  5
54D
100
AcDbEntity
  8
0
100
AcDbLine
 62
7
  6
CONTINUOUS
 10
322.6066431099
 20
210.7125196285
 11
321.8303182495
 21
216.5670288181
  0
LINE
  5
54E
100
AcDbEntity
  8
1_AXIS
100
AcDbLine
 62
7
  6
CONTINUOUS
 10
338.439244186
 20
101.1438953488
 11
338.439244186
 21
160.1438953488
  0
LINE
  5
54F
100
AcDbEntity
  8
0
100
AcDbLine
 62
7
  6
CONTINUOUS
 10
322.5831666466
 20
81.3900058587
 11
322.5848397611
 21
81.3938491437
  0
LINE
  5
550
100
AcDbEntity
  8
0
100
AcDbLine
 62
7
  6
CONTINUOUS
 10
321.7892708924
 20
216.8012920286
 11
321.7808149123
 21
216.8329439499
  0
LINE
  5
551
100
AcDbEntity
  8
1_AXIS
100
AcDbLine
 62
7
  6
CONTINUOUS
 10
336.439244186
 20
162.1438953488
 11
323.789244186
 21
162.1438953488
  0
LINE
  5
552
100
AcDbEntity
  8
1_AXIS
100
AcDbLine
 62
7
  6
CONTINUOUS
 10
310.789244186
 20
162.1438953488
 11
298.139244186
 21
162.1438953488
  0
LWPOLYLINE
  5
553
100
AcDbEntity
  8
0
100
AcDbPolyline
 62
7
  6
CONTINUOUS
 90
6
 70
0
 10
322.5844344774
 20
179.8924785726
 10
322.5903242626
 20
179.8820781388
 10
322.5850326809
 20
179.8935158688
 10
322.5703806389
 20
179.9293480382
 10
322.5497551683
 20
179.9863338388
 10
322.524410654
 20
180.0645071911
  0
LWPOLYLINE
  5
554
100
AcDbEntity
  8
0
100
AcDbPolyline
 62
7
  6
CONTINUOUS
 90
4
 70
0
 10
321.7808149123
 20
216.8329439499
 10
321.7691432748
 20
216.8698113948
 10
321.7540532674
 20
216.9092028473
 10
321.7348516658
 20
216.9505640892
  0
LINE
  5
555
100
AcDbEntity
  8
0
100
AcDbLine
 62
7
  6
CONTINUOUS
 10
321.7348516658
 20
216.9505640892
 11
321.7108658947
 21
216.9935519248
  0
LINE
  5
556
100
AcDbEntity
  8
0
100
AcDbLine
 62
7
  6
CONTINUOUS
 10
313.7395045392
 20
183.3100670639
 11
320.8389838329
 21
183.3100670639
  0
LWPOLYLINE
  5
557
100
AcDbEntity
  8
0
100
AcDbPolyline
 62
7
  6
CONTINUOUS
 90
7
 70
0
 10
321.7108658947
 20
216.9935519248
 10
321.683011875
 20
217.0358585795
 10
321.6508765693
 20
217.0778028157
 10
321.6145782841
 20
217.1187686447
 10
321.5743396958
 20
217.1581312328
 10
321.5309911691
 20
217.1949289742
 10
321.4839778197
 20
217.2296173838
  0
LWPOLYLINE
  5
558
100
AcDbEntity
  8
0
100
AcDbPolyline
 62
7
  6
CONTINUOUS
 90
15
 70
0
 10
321.5471723418
 20
44.1059949868
 10
321.5926562559
 20
44.1468836245
 10
321.6351295973
 20
44.1914885336
 10
321.6733974294
 20
44.2387192844
 10
321.707721503
 20
44.289114116
 10
321.7356740543
 20
44.3388478401
 10
321.75723029
 20
44.3862750543
 10
321.7731386636
 20
44.4298427688
 10
321.7840923577
 20
44.4665516642
 10
321.7926648531
 20
44.5006292657
 10
321.7995123978
 20
44.5319067505
 10
321.8056945678
 20
44.5634611797
 10
321.8118949405
 20
44.5982944158
 10
321.8181660812
 20
44.6367207077
 10
321.8246913991
 20
44.6800752893
  0
LINE
  5
559
100
AcDbEntity
  8
0
100
AcDbLine
 62
7
  6
CONTINUOUS
 10
321.4980436462
 20
44.0680588904
 11
321.5471723418
 21
44.1059949868
  0
LWPOLYLINE
  5
55A
100
AcDbEntity
  8
0
100
AcDbPolyline
 62
7
  6
CONTINUOUS
 90
4
 70
0
 10
321.3276050424
 20
43.9694240299
 10
321.3884026013
 20
43.9999374685
 10
321.4451465125
 20
44.0327742534
 10
321.4980436462
 20
44.0680588904
  0
LWPOLYLINE
  5
55B
100
AcDbEntity
  8
0
100
AcDbPolyline
 62
7
  6
CONTINUOUS
 90
5
 70
0
 10
321.4839778197
 20
217.2296173838
 10
321.4331178625
 20
217.2623729683
 10
321.3785656151
 20
217.2930942135
 10
321.3205741929
 20
217.3216219847
 10
321.2586435668
 20
217.3481245797
  0
LINE
  5
55C
100
AcDbEntity
  8
0
100
AcDbLine
 62
7
  6
CONTINUOUS
 10
321.2624421915
 20
43.9411854054
 11
321.3276050424
 21
43.9694240299
  0
LWPOLYLINE
  5
55D
100
AcDbEntity
  8
0
100
AcDbPolyline
 62
7
  6
CONTINUOUS
 90
3
 70
0
 10
313.4816617112
 20
217.4013841464
 10
313.4399425122
 20
217.3896105755
 10
313.3616934311
 20
217.3639052218
  0
LINE
  5
55E
100
AcDbEntity
  8
0
100
AcDbLine
 62
7
  6
CONTINUOUS
 10
313.7395045392
 20
217.4356663961
 11
320.8389838329
 21
217.4356663961
  0
LINE
  5
55F
100
AcDbEntity
  8
0
100
AcDbLine
 62
7
  6
CONTINUOUS
 10
321.0965044423
 20
217.4019389097
 11
321.0959813274
 21
217.402078449
  0
LWPOLYLINE
  5
560
100
AcDbEntity
  8
0
100
AcDbPolyline
 62
7
  6
CONTINUOUS
 90
4
 70
0
 10
321.2586435668
 20
217.3481245797
 10
321.1927482985
 20
217.3724596412
 10
321.1217942447
 20
217.3946867228
 10
321.0966701081
 20
217.4016242227
  0
LINE
  5
561
100
AcDbEntity
  8
1_AXIS
100
AcDbLine
 62
7
  6
CONTINUOUS
 10
313.289244186
 20
228.6438953488
 11
321.289244186
 21
228.6438953488
  0
ARC
  5
562
100
AcDbEntity
  8
0
100
AcDbCircle
 62
7
  6
CONTINUOUS
 10
77.5320021417
 20
73.0245507734
 40
8.0
100
AcDbArc
 50
38.4798335161
 51
111.0
  0
ARC
  5
563
100
AcDbEntity
  8
0
100
AcDbCircle
 62
7
  6
CONTINUOUS
 10
92.4024577501
 20
58.154095165
 40
8.0
100
AcDbArc
 50
339.0
 51
51.5201664839
  0
ARC
  5
564
100
AcDbEntity
  8
0
100
AcDbCircle
 62
7
  6
CONTINUOUS
 10
98.3556306105
 20
48.5487876973
 40
1.0
100
AcDbArc
 50
159.0
 51
237.8159328482
  0
ARC
  5
565
100
AcDbEntity
  8
0
100
AcDbCircle
 62
7
  6
CONTINUOUS
 10
67.9266946741
 20
78.9777236338
 40
1.0
100
AcDbArc
 50
212.1840671518
 51
291.0
  0
ARC
  5
566
100
AcDbEntity
  8
0
100
AcDbCircle
 62
7
  6
CONTINUOUS
 10
58.4341215634
 20
116.988979289
 40
8.0
100
AcDbArc
 50
8.4798335161
 51
81.0
  0
ARC
  5
567
100
AcDbEntity
  8
0
100
AcDbCircle
 62
7
  6
CONTINUOUS
 10
63.8770860819
 20
96.6755591621
 40
8.0
100
AcDbArc
 50
309.0
 51
21.5201664839
  0
ARC
  5
568
100
AcDbEntity
  8
0
100
AcDbCircle
 62
7
  6
CONTINUOUS
 10
64.2300312783
 20
85.3805324537
 40
1.0
100
AcDbArc
 50
129.0
 51
207.8159328482
  0
ARC
  5
569
100
AcDbEntity
  8
0
100
AcDbCircle
 62
7
  6
CONTINUOUS
 10
53.0922677154
 20
126.9472319531
 40
1.0
100
AcDbArc
 50
182.1840671518
 51
261.0
  0
ARC
  5
56A
100
AcDbEntity
  8
0
100
AcDbCircle
 62
7
  6
CONTINUOUS
 10
136.3668862657
 20
39.0562145866
 40
8.0
100
AcDbArc
 50
9.0
 51
81.5201664839
  0
ARC
  5
56B
100
AcDbEntity
  8
0
100
AcDbCircle
 62
7
  6
CONTINUOUS
 10
116.0534661389
 20
44.4991791051
 40
8.0
100
AcDbArc
 50
68.4798335161
 51
141.0
  0
ARC
  5
56C
100
AcDbEntity
  8
0
100
AcDbCircle
 62
7
  6
CONTINUOUS
 10
146.3251389298
 20
33.7143607387
 40
1.0
100
AcDbArc
 50
189.0
 51
267.8159328482
  0
ARC
  5
56D
100
AcDbEntity
  8
0
100
AcDbCircle
 62
7
  6
CONTINUOUS
 10
104.7584394305
 20
44.8521243016
 40
1.0
100
AcDbArc
 50
242.1840671518
 51
321.0
  0
ARC
  5
56E
100
AcDbEntity
  8
0
100
AcDbCircle
 62
7
  6
CONTINUOUS
 10
136.3668862657
 20
222.231576111
 40
8.0
100
AcDbArc
 50
278.4798335161
 51
351.0
  0
ARC
  5
56F
100
AcDbEntity
  8
0
100
AcDbCircle
 62
7
  6
CONTINUOUS
 10
116.0534661389
 20
216.7886115925
 40
8.0
100
AcDbArc
 50
219.0
 51
291.5201664839
  0
ARC
  5
570
100
AcDbEntity
  8
0
100
AcDbCircle
 62
7
  6
CONTINUOUS
 10
92.4024577501
 20
203.1336955327
 40
8.0
100
AcDbArc
 50
308.4798335161
 51
21.0
  0
ARC
  5
571
100
AcDbEntity
  8
0
100
AcDbCircle
 62
7
  6
CONTINUOUS
 10
77.5320021417
 20
188.2632399243
 40
8.0
100
AcDbArc
 50
249.0
 51
321.5201664839
  0
ARC
  5
572
100
AcDbEntity
  8
0
100
AcDbCircle
 62
7
  6
CONTINUOUS
 10
63.8770860819
 20
164.6122315356
 40
8.0
100
AcDbArc
 50
338.4798335161
 51
51.0
  0
ARC
  5
573
100
AcDbEntity
  8
0
100
AcDbCircle
 62
7
  6
CONTINUOUS
 10
58.4341215634
 20
144.2988114087
 40
8.0
100
AcDbArc
 50
279.0
 51
351.5201664839
  0
ARC
  5
574
100
AcDbEntity
  8
0
100
AcDbCircle
 62
7
  6
CONTINUOUS
 10
104.7584394305
 20
216.4356663961
 40
1.0
100
AcDbArc
 50
39.0
 51
117.8159328482
  0
ARC
  5
575
100
AcDbEntity
  8
0
100
AcDbCircle
 62
7
  6
CONTINUOUS
 10
146.3251389298
 20
227.573429959
 40
1.0
100
AcDbArc
 50
92.1840671518
 51
171.0
  0
ARC
  5
576
100
AcDbEntity
  8
0
100
AcDbCircle
 62
7
  6
CONTINUOUS
 10
67.9266946741
 20
182.3100670639
 40
1.0
100
AcDbArc
 50
69.0
 51
147.8159328482
  0
ARC
  5
577
100
AcDbEntity
  8
0
100
AcDbCircle
 62
7
  6
CONTINUOUS
 10
98.3556306105
 20
212.7390030003
 40
1.0
100
AcDbArc
 50
122.1840671518
 51
201.0
  0
ARC
  5
578
100
AcDbEntity
  8
0
100
AcDbCircle
 62
7
  6
CONTINUOUS
 10
53.0922677154
 20
134.3405587446
 40
1.0
100
AcDbArc
 50
99.0
 51
177.8159328482
  0
ARC
  5
579
100
AcDbEntity
  8
0
100
AcDbCircle
 62
7
  6
CONTINUOUS
 10
64.2300312783
 20
175.9072582439
 40
1.0
100
AcDbArc
 50
152.1840671518
 51
231.0
  0
ARC
  5
57A
100
AcDbEntity
  8
0
100
AcDbCircle
 62
7
  6
CONTINUOUS
 10
163.6767183854
 20
39.0562145866
 40
8.0
100
AcDbArc
 50
98.4798335161
 51
171.0
  0
ARC
  5
57B
100
AcDbEntity
  8
0
100
AcDbCircle
 62
7
  6
CONTINUOUS
 10
183.9901385123
 20
44.4991791051
 40
8.0
100
AcDbArc
 50
39.0
 51
111.5201664839
  0
ARC
  5
57C
100
AcDbEntity
  8
0
100
AcDbCircle
 62
7
  6
CONTINUOUS
 10
153.7184657213
 20
33.7143607387
 40
1.0
100
AcDbArc
 50
272.1840671518
 51
351.0
  0
ARC
  5
57D
100
AcDbEntity
  8
0
100
AcDbCircle
 62
7
  6
CONTINUOUS
 10
195.2851652207
 20
44.8521243016
 40
1.0
100
AcDbArc
 50
219.0
 51
297.8159328482
  0
ARC
  5
57E
100
AcDbEntity
  8
0
100
AcDbCircle
 62
7
  6
CONTINUOUS
 10
207.6411469011
 20
58.154095165
 40
8.0
100
AcDbArc
 50
128.4798335161
 51
201.0
  0
ARC
  5
57F
100
AcDbEntity
  8
0
100
AcDbCircle
 62
7
  6
CONTINUOUS
 10
222.5116025094
 20
73.0245507734
 40
8.0
100
AcDbArc
 50
69.0
 51
141.5201664839
  0
ARC
  5
580
100
AcDbEntity
  8
0
100
AcDbCircle
 62
7
  6
CONTINUOUS
 10
201.6879740406
 20
48.5487876973
 40
1.0
100
AcDbArc
 50
302.1840671518
 51
21.0
  0
ARC
  5
581
100
AcDbEntity
  8
0
100
AcDbCircle
 62
7
  6
CONTINUOUS
 10
232.1169099771
 20
78.9777236338
 40
1.0
100
AcDbArc
 50
249.0
 51
327.8159328482
  0
ARC
  5
582
100
AcDbEntity
  8
0
100
AcDbCircle
 62
7
  6
CONTINUOUS
 10
236.1665185693
 20
96.6755591621
 40
8.0
100
AcDbArc
 50
158.4798335161
 51
231.0
  0
ARC
  5
583
100
AcDbEntity
  8
0
100
AcDbCircle
 62
7
  6
CONTINUOUS
 10
241.6094830878
 20
116.988979289
 40
8.0
100
AcDbArc
 50
99.0
 51
171.5201664839
  0
ARC
  5
584
100
AcDbEntity
  8
0
100
AcDbCircle
 62
7
  6
CONTINUOUS
 10
235.8135733728
 20
85.3805324537
 40
1.0
100
AcDbArc
 50
332.1840671518
 51
51.0
  0
ARC
  5
585
100
AcDbEntity
  8
0
100
AcDbCircle
 62
7
  6
CONTINUOUS
 10
246.9513369357
 20
126.9472319531
 40
1.0
100
AcDbArc
 50
279.0
 51
357.8159328482
  0
ARC
  5
586
100
AcDbEntity
  8
0
100
AcDbCircle
 62
7
  6
CONTINUOUS
 10
150.0218023256
 20
130.6438953488
 40
98.0
100
AcDbArc
 50
117.8159328482
 51
122.1840671518
  0
ARC
  5
587
100
AcDbEntity
  8
0
100
AcDbCircle
 62
7
  6
CONTINUOUS
 10
150.0218023256
 20
130.6438953488
 40
98.0
100
AcDbArc
 50
27.8159328482
 51
32.1840671518
  0
ARC
  5
588
100
AcDbEntity
  8
0
100
AcDbCircle
 62
7
  6
CONTINUOUS
 10
150.0218023256
 20
130.6438953488
 40
98.0
100
AcDbArc
 50
57.8159328482
 51
62.1840671518
  0
ARC
  5
589
100
AcDbEntity
  8
0
100
AcDbCircle
 62
7
  6
CONTINUOUS
 10
150.0218023256
 20
130.6438953488
 40
98.0
100
AcDbArc
 50
147.8159328482
 51
152.1840671518
  0
ARC
  5
58A
100
AcDbEntity
  8
0
100
AcDbCircle
 62
7
  6
CONTINUOUS
 10
150.0218023256
 20
130.6438953488
 40
98.0
100
AcDbArc
 50
177.8159328482
 51
182.1840671518
  0
ARC
  5
58B
100
AcDbEntity
  8
0
100
AcDbCircle
 62
7
  6
CONTINUOUS
 10
150.0218023256
 20
130.6438953488
 40
98.0
100
AcDbArc
 50
207.8159328482
 51
212.1840671518
  0
ARC
  5
58C
100
AcDbEntity
  8
0
100
AcDbCircle
 62
7
  6
CONTINUOUS
 10
150.0218023256
 20
130.6438953488
 40
98.0
100
AcDbArc
 50
237.8159328482
 51
242.1840671518
  0
ARC
  5
58D
100
AcDbEntity
  8
0
100
AcDbCircle
 62
7
  6
CONTINUOUS
 10
150.0218023256
 20
130.6438953488
 40
98.0
100
AcDbArc
 50
267.8159328482
 51
272.1840671518
  0
ARC
  5
58E
100
AcDbEntity
  8
0
100
AcDbCircle
 62
7
  6
CONTINUOUS
 10
150.0218023256
 20
130.6438953488
 40
98.0
100
AcDbArc
 50
297.8159328482
 51
302.1840671518
  0
ARC
  5
58F
100
AcDbEntity
  8
0
100
AcDbCircle
 62
7
  6
CONTINUOUS
 10
150.0218023256
 20
130.6438953488
 40
98.0
100
AcDbArc
 50
327.8159328482
 51
332.1840671518
  0
ARC
  5
590
100
AcDbEntity
  8
0
100
AcDbCircle
 62
7
  6
CONTINUOUS
 10
150.0218023256
 20
130.6438953488
 40
98.0
100
AcDbArc
 50
357.8159328482
 51
2.1840671518
  0
ARC
  5
591
100
AcDbEntity
  8
0
100
AcDbCircle
 62
7
  6
CONTINUOUS
 10
150.0218023256
 20
130.6438953488
 40
98.0
100
AcDbArc
 50
87.8159328482
 51
92.1840671518
  0
ARC
  5
592
100
AcDbEntity
  8
0
100
AcDbCircle
 62
7
  6
CONTINUOUS
 10
150.0218023256
 20
130.6438953488
 40
88.0
100
AcDbArc
 50
116.4313471791
 51
123.5685899775
  0
ARC
  5
593
100
AcDbEntity
  8
0
100
AcDbCircle
 62
7
  6
CONTINUOUS
 10
150.0218023256
 20
130.6438953488
 40
88.0
100
AcDbArc
 50
146.4313468775
 51
153.5685899773
  0
ARC
  5
594
100
AcDbEntity
  8
0
100
AcDbCircle
 62
7
  6
CONTINUOUS
 10
150.0218023256
 20
130.6438953488
 40
88.0
100
AcDbArc
 50
176.4313429105
 51
183.5685937556
  0
ARC
  5
595
100
AcDbEntity
  8
0
100
AcDbCircle
 62
7
  6
CONTINUOUS
 10
150.0218023256
 20
130.6438953488
 40
88.0
100
AcDbArc
 50
206.4313462955
 51
213.5685900883
  0
ARC
  5
596
100
AcDbEntity
  8
0
100
AcDbCircle
 62
7
  6
CONTINUOUS
 10
150.0218023256
 20
130.6438953488
 40
88.0
100
AcDbArc
 50
236.4313459951
 51
243.5685900878
  0
ARC
  5
597
100
AcDbEntity
  8
0
100
AcDbCircle
 62
7
  6
CONTINUOUS
 10
150.0218023256
 20
130.6438953488
 40
88.0
100
AcDbArc
 50
266.4313421846
 51
273.5685938656
  0
ARC
  5
598
100
AcDbEntity
  8
0
100
AcDbCircle
 62
7
  6
CONTINUOUS
 10
150.0218023256
 20
130.6438953488
 40
88.0
100
AcDbArc
 50
296.4313457613
 51
303.5685901994
  0
ARC
  5
599
100
AcDbEntity
  8
0
100
AcDbCircle
 62
7
  6
CONTINUOUS
 10
150.0218023256
 20
130.6438953488
 40
88.0
100
AcDbArc
 50
326.431345666
 51
333.5685901992
  0
ARC
  5
59A
100
AcDbEntity
  8
0
100
AcDbCircle
 62
7
  6
CONTINUOUS
 10
150.0218023256
 20
130.6438953488
 40
88.0
100
AcDbArc
 50
356.4313417508
 51
3.5685939762
  0
ARC
  5
59B
100
AcDbEntity
  8
0
100
AcDbCircle
 62
7
  6
CONTINUOUS
 10
150.0218023256
 20
130.6438953488
 40
88.0
100
AcDbArc
 50
26.4313451246
 51
33.5685903103
  0
ARC
  5
59C
100
AcDbEntity
  8
0
100
AcDbCircle
 62
7
  6
CONTINUOUS
 10
150.0218023256
 20
130.6438953488
 40
88.0
100
AcDbArc
 50
56.4313444916
 51
63.5685903091
  0
ARC
  5
59D
100
AcDbEntity
  8
0
100
AcDbCircle
 62
7
  6
CONTINUOUS
 10
150.0218023256
 20
130.6438953488
 40
88.0
100
AcDbArc
 50
86.4313374314
 51
93.5685897305
  0
ARC
  5
59E
100
AcDbEntity
  8
0
100
AcDbCircle
 62
7
  6
CONTINUOUS
 10
150.0218023256
 20
130.6438953488
 40
84.6
100
AcDbArc
 50
68.4798335161
 51
81.5201664839
  0
ARC
  5
59F
100
AcDbEntity
  8
0
100
AcDbCircle
 62
7
  6
CONTINUOUS
 10
150.0218023256
 20
130.6438953488
 40
84.6
100
AcDbArc
 50
38.4798335161
 51
51.5201664839
  0
ARC
  5
5A0
100
AcDbEntity
  8
0
100
AcDbCircle
 62
7
  6
CONTINUOUS
 10
150.0218023256
 20
130.6438953488
 40
84.6
100
AcDbArc
 50
8.4798335161
 51
21.5201664839
  0
ARC
  5
5A1
100
AcDbEntity
  8
0
100
AcDbCircle
 62
7
  6
CONTINUOUS
 10
150.0218023256
 20
130.6438953488
 40
84.6
100
AcDbArc
 50
98.4798335161
 51
111.5201664839
  0
ARC
  5
5A2
100
AcDbEntity
  8
0
100
AcDbCircle
 62
7
  6
CONTINUOUS
 10
150.0218023256
 20
130.6438953488
 40
84.6
100
AcDbArc
 50
338.4798335161
 51
351.5201664839
  0
ARC
  5
5A3
100
AcDbEntity
  8
0
100
AcDbCircle
 62
7
  6
CONTINUOUS
 10
150.0218023256
 20
130.6438953488
 40
84.6
100
AcDbArc
 50
128.4798335161
 51
141.5201664839
  0
ARC
  5
5A4
100
AcDbEntity
  8
0
100
AcDbCircle
 62
7
  6
CONTINUOUS
 10
150.0218023256
 20
130.6438953488
 40
84.6
100
AcDbArc
 50
158.4798335161
 51
171.5201664839
  0
ARC
  5
5A5
100
AcDbEntity
  8
0
100
AcDbCircle
 62
7
  6
CONTINUOUS
 10
150.0218023256
 20
130.6438953488
 40
84.6
100
AcDbArc
 50
308.4798335161
 51
321.5201664839
  0
ARC
  5
5A6
100
AcDbEntity
  8
0
100
AcDbCircle
 62
7
  6
CONTINUOUS
 10
150.0218023256
 20
130.6438953488
 40
84.6
100
AcDbArc
 50
278.4798335161
 51
291.5201664839
  0
ARC
  5
5A7
100
AcDbEntity
  8
0
100
AcDbCircle
 62
7
  6
CONTINUOUS
 10
150.0218023256
 20
130.6438953488
 40
84.6
100
AcDbArc
 50
188.4798335161
 51
201.5201664839
  0
ARC
  5
5A8
100
AcDbEntity
  8
0
100
AcDbCircle
 62
7
  6
CONTINUOUS
 10
150.0218023256
 20
130.6438953488
 40
84.6
100
AcDbArc
 50
218.4798335161
 51
231.5201664839
  0
ARC
  5
5A9
100
AcDbEntity
  8
0
100
AcDbCircle
 62
7
  6
CONTINUOUS
 10
150.0218023256
 20
130.6438953488
 40
84.6
100
AcDbArc
 50
248.4798335161
 51
261.5201664839
  0
CIRCLE
  5
5AA
100
AcDbEntity
  8
1_AXIS
100
AcDbCircle
 62
7
  6
CONTINUOUS
 10
150.0218023256
 20
130.6438953488
 40
31.5
  0
ARC
  5
5AB
100
AcDbEntity
  8
0
100
AcDbCircle
 62
7
  6
CONTINUOUS
 10
183.9901385123
 20
216.7886115925
 40
8.0
100
AcDbArc
 50
248.4798335161
 51
321.0
  0
ARC
  5
5AC
100
AcDbEntity
  8
0
100
AcDbCircle
 62
7
  6
CONTINUOUS
 10
163.6767183854
 20
222.231576111
 40
8.0
100
AcDbArc
 50
189.0
 51
261.5201664839
  0
CIRCLE
  5
5AD
100
AcDbEntity
  8
0
100
AcDbCircle
 62
7
  6
CONTINUOUS
 10
150.0218023256
 20
210.6438953488
 40
1.7320508076
  0
ARC
  5
5AE
100
AcDbEntity
  8
0
100
AcDbCircle
 62
7
  6
CONTINUOUS
 10
195.2851652207
 20
216.4356663961
 40
1.0
100
AcDbArc
 50
62.1840671518
 51
141.0
  0
ARC
  5
5AF
100
AcDbEntity
  8
0
100
AcDbCircle
 62
7
  6
CONTINUOUS
 10
153.7184657213
 20
227.573429959
 40
1.0
100
AcDbArc
 50
9.0
 51
87.8159328482
  0
ARC
  5
5B0
100
AcDbEntity
  8
0
100
AcDbCircle
 62
7
  6
CONTINUOUS
 10
236.1665185693
 20
164.6122315356
 40
8.0
100
AcDbArc
 50
129.0
 51
201.5201664839
  0
ARC
  5
5B1
100
AcDbEntity
  8
0
100
AcDbCircle
 62
7
  6
CONTINUOUS
 10
241.6094830878
 20
144.2988114087
 40
8.0
100
AcDbArc
 50
188.4798335161
 51
261.0
  0
ARC
  5
5B2
100
AcDbEntity
  8
0
100
AcDbCircle
 62
7
  6
CONTINUOUS
 10
246.9513369357
 20
134.3405587446
 40
1.0
100
AcDbArc
 50
2.1840671518
 51
81.0
  0
ARC
  5
5B3
100
AcDbEntity
  8
0
100
AcDbCircle
 62
7
  6
CONTINUOUS
 10
235.8135733728
 20
175.9072582439
 40
1.0
100
AcDbArc
 50
309.0
 51
27.8159328482
  0
ARC
  5
5B4
100
AcDbEntity
  8
0
100
AcDbCircle
 62
7
  6
CONTINUOUS
 10
222.5116025094
 20
188.2632399243
 40
8.0
100
AcDbArc
 50
218.4798335161
 51
291.0
  0
ARC
  5
5B5
100
AcDbEntity
  8
0
100
AcDbCircle
 62
7
  6
CONTINUOUS
 10
207.6411469011
 20
203.1336955327
 40
8.0
100
AcDbArc
 50
159.0
 51
231.5201664839
  0
ARC
  5
5B6
100
AcDbEntity
  8
0
100
AcDbCircle
 62
7
  6
CONTINUOUS
 10
232.1169099771
 20
182.3100670639
 40
1.0
100
AcDbArc
 50
32.1840671518
 51
111.0
  0
ARC
  5
5B7
100
AcDbEntity
  8
0
100
AcDbCircle
 62
7
  6
CONTINUOUS
 10
201.6879740406
 20
212.7390030003
 40
1.0
100
AcDbArc
 50
339.0
 51
57.8159328482
  0
ARC
  5
5B8
100
AcDbEntity
  8
0
100
AcDbCircle
 62
7
  6
CONTINUOUS
 10
132.650793419
 20
-770.9512289495
 40
1039.4089782342
100
AcDbArc
 50
84.0645203788
 51
84.1817917251
  0
ARC
  5
5B9
100
AcDbEntity
  8
0
100
AcDbCircle
 62
7
  6
CONTINUOUS
 10
133.1748158545
 20
1281.0689957652
 40
1034.2587392425
100
AcDbArc
 50
275.8181012533
 51
275.9344996794
  0
ARC
  5
5BA
100
AcDbEntity
  8
1_AXIS
100
AcDbCircle
 62
7
  6
CONTINUOUS
 10
120.5218023256
 20
238.4706395349
 40
2.0
100
AcDbArc
 50
180.0
 51
270.0
  0
ARC
  5
5BB
100
AcDbEntity
  8
1_AXIS
100
AcDbCircle
 62
7
  6
CONTINUOUS
 10
120.5218023256
 20
276.7706395349
 40
2.0
100
AcDbArc
 50
90.0
 51
180.0
  0
ARC
  5
5BC
100
AcDbEntity
  8
1_AXIS
100
AcDbCircle
 62
7
  6
CONTINUOUS
 10
179.5218023256
 20
238.4706395349
 40
2.0
100
AcDbArc
 50
270.0
 51
360.0
  0
ARC
  5
5BD
100
AcDbEntity
  8
1_AXIS
100
AcDbCircle
 62
7
  6
CONTINUOUS
 10
179.5218023256
 20
276.7706395349
 40
2.0
100
AcDbArc
 50
0.0
 51
90.0
  0
ARC
  5
5BE
100
AcDbEntity
  8
0
100
AcDbCircle
 62
7
  6
CONTINUOUS
 10
64.2337267093
 20
254.0714917361
 40
1.0037366875
100
AcDbArc
 50
180.0338726729
 51
194.7829902046
  0
ARC
  5
5BF
100
AcDbEntity
  8
0
100
AcDbCircle
 62
7
  6
CONTINUOUS
 10
201.6859010611
 20
254.0727662332
 40
1.0027661049
100
AcDbArc
 50
315.4505130119
 51
325.394875605
  0
ARC
  5
5C0
100
AcDbEntity
  8
0
100
AcDbCircle
 62
7
  6
CONTINUOUS
 10
98.35770359
 20
254.0727662332
 40
1.0027661049
100
AcDbArc
 50
214.6051243951
 51
224.5494869881
  0
ARC
  5
5C1
100
AcDbEntity
  8
0
100
AcDbCircle
 62
7
  6
CONTINUOUS
 10
235.8110401306
 20
254.0712659453
 40
1.0025603045
100
AcDbArc
 50
345.2031220205
 51
359.9787752779
  0
ARC
  5
5C2
100
AcDbEntity
  8
0
100
AcDbCircle
 62
7
  6
CONTINUOUS
 10
201.6863970296
 20
261.1696368049
 40
1.0015772862
100
AcDbArc
 50
0.0424680814
 51
10.7479336302
  0
ARC
  5
5C3
100
AcDbEntity
  8
0
100
AcDbCircle
 62
7
  6
CONTINUOUS
 10
98.3572076216
 20
261.1696368049
 40
1.0015772862
100
AcDbArc
 50
169.2520663698
 51
179.9575319186
  0
ARC
  5
5C4
100
AcDbEntity
  8
0
100
AcDbCircle
 62
7
  6
CONTINUOUS
 10
235.8120301618
 20
261.1696425927
 40
1.0015434819
100
AcDbArc
 50
0.0421384098
 51
14.8521784506
  0
ARC
  5
5C5
100
AcDbEntity
  8
0
100
AcDbCircle
 62
7
  6
CONTINUOUS
 10
64.2315744894
 20
261.1696425927
 40
1.0015434819
100
AcDbArc
 50
165.1478216657
 51
179.9578615902
  0
ARC
  5
5C6
100
AcDbEntity
  8
0
100
AcDbCircle
 62
7
  6
CONTINUOUS
 10
201.6870999831
 20
254.0719033696
 40
1.0012060096
100
AcDbArc
 50
286.0647659893
 51
295.7594751988
  0
ARC
  5
5C7
100
AcDbEntity
  8
0
100
AcDbCircle
 62
7
  6
CONTINUOUS
 10
98.3565046681
 20
254.0719033695
 40
1.0012060095
100
AcDbArc
 50
244.240524801
 51
253.9352340567
  0
ARC
  5
5C8
100
AcDbEntity
  8
1_AXIS
100
AcDbCircle
 62
7
  6
CONTINUOUS
 10
117.5218023256
 20
251.1206395349
 40
1.0
100
AcDbArc
 50
0.0
 51
90.0
  0
ARC
  5
5C9
100
AcDbEntity
  8
1_AXIS
100
AcDbCircle
 62
7
  6
CONTINUOUS
 10
117.5218023256
 20
264.1206395349
 40
1.0
100
AcDbArc
 50
270.0
 51
360.0
  0
ARC
  5
5CA
100
AcDbEntity
  8
1_AXIS
100
AcDbCircle
 62
7
  6
CONTINUOUS
 10
182.5218023256
 20
251.1206395349
 40
1.0
100
AcDbArc
 50
90.0
 51
180.0
  0
ARC
  5
5CB
100
AcDbEntity
  8
1_AXIS
100
AcDbCircle
 62
7
  6
CONTINUOUS
 10
182.5218023256
 20
264.1206395349
 40
1.0
100
AcDbArc
 50
180.0
 51
270.0
  0
ARC
  5
5CC
100
AcDbEntity
  8
0
100
AcDbCircle
 62
7
  6
CONTINUOUS
 10
198.6791495584
 20
253.0934062366
 40
0.9727669757
100
AcDbArc
 50
270.04300657
 51
272.9240130437
  0
ARC
  5
5CD
100
AcDbEntity
  8
0
100
AcDbCircle
 62
7
  6
CONTINUOUS
 10
101.3644153719
 20
262.1506931676
 40
0.969946613
100
AcDbArc
 50
90.0407852695
 51
92.9216868445
  0
ARC
  5
5CE
100
AcDbEntity
  8
0
100
AcDbCircle
 62
7
  6
CONTINUOUS
 10
198.6795040977
 20
262.1698530541
 40
0.950786555
100
AcDbArc
 50
87.096693847
 51
89.9773642527
  0
ARC
  5
5CF
100
AcDbEntity
  8
0
100
AcDbCircle
 62
7
  6
CONTINUOUS
 10
101.3640636423
 20
253.0689352425
 40
0.9482957681
100
AcDbArc
 50
267.0989246786
 51
269.9795349577
  0
ARC
  5
5D0
100
AcDbEntity
  8
0
100
AcDbCircle
 62
7
  6
CONTINUOUS
 10
144.5613267154
 20
253.0182588537
 40
0.9007977445
100
AcDbArc
 50
235.9471792962
 51
250.9450201582
  0
ARC
  5
5D1
100
AcDbEntity
  8
0
100
AcDbCircle
 62
7
  6
CONTINUOUS
 10
144.5613051892
 20
262.2230850307
 40
0.9007298925
100
AcDbArc
 50
109.0552307258
 51
124.0539336877
  0
ARC
  5
5D2
100
AcDbEntity
  8
0
100
AcDbCircle
 62
7
  6
CONTINUOUS
 10
155.4823492693
 20
253.0180350945
 40
0.9005624079
100
AcDbArc
 50
289.0557771415
 51
304.0566752858
  0
ARC
  5
5D3
100
AcDbEntity
  8
0
100
AcDbCircle
 62
7
  6
CONTINUOUS
 10
155.4823678564
 20
262.2232954673
 40
0.9005090329
100
AcDbArc
 50
55.9424865184
 51
70.9440281523
  0
ARC
  5
5D4
100
AcDbEntity
  8
1_AXIS
100
AcDbCircle
 62
7
  6
CONTINUOUS
 10
52.5218023256
 20
253.6206395349
 40
0.5
100
AcDbArc
 50
180.0
 51
264.0073825016
  0
ARC
  5
5D5
100
AcDbEntity
  8
1_AXIS
100
AcDbCircle
 62
7
  6
CONTINUOUS
 10
247.5218023256
 20
253.6206395349
 40
0.5
100
AcDbArc
 50
275.9926174984
 51
360.0
  0
ARC
  5
5D6
100
AcDbEntity
  8
1_AXIS
100
AcDbCircle
 62
7
  6
CONTINUOUS
 10
52.5218023256
 20
261.6206395349
 40
0.5
100
AcDbArc
 50
95.9926174984
 51
180.0
  0
ARC
  5
5D7
100
AcDbEntity
  8
1_AXIS
100
AcDbCircle
 62
7
  6
CONTINUOUS
 10
247.5218023256
 20
261.6206395349
 40
0.5
100
AcDbArc
 50
0.0
 51
84.0073825016
  0
ARC
  5
5D8
100
AcDbEntity
  8
0
100
AcDbCircle
 62
7
  6
CONTINUOUS
 10
-712.708133923
 20
148.1633981603
 40
1040.8422008729
100
AcDbArc
 50
354.0644049774
 51
354.1815967071
  0
ARC
  5
5D9
100
AcDbEntity
  8
0
100
AcDbCircle
 62
7
  6
CONTINUOUS
 10
1345.1182898563
 20
147.9440841533
 40
1038.6628090047
100
AcDbArc
 50
185.8184936112
 51
185.9343008774
  0
ARC
  5
5DA
100
AcDbEntity
  8
1_AXIS
100
AcDbCircle
 62
7
  6
CONTINUOUS
 10
336.439244186
 20
101.1438953488
 40
2.0
100
AcDbArc
 50
270.0
 51
360.0
  0
ARC
  5
5DB
100
AcDbEntity
  8
1_AXIS
100
AcDbCircle
 62
7
  6
CONTINUOUS
 10
336.439244186
 20
160.1438953488
 40
2.0
100
AcDbArc
 50
0.0
 51
90.0
  0
ARC
  5
5DC
100
AcDbEntity
  8
1_AXIS
100
AcDbCircle
 62
7
  6
CONTINUOUS
 10
298.139244186
 20
101.1438953488
 40
2.0
100
AcDbArc
 50
180.0
 51
270.0
  0
ARC
  5
5DD
100
AcDbEntity
  8
1_AXIS
100
AcDbCircle
 62
7
  6
CONTINUOUS
 10
298.139244186
 20
160.1438953488
 40
2.0
100
AcDbArc
 50
90.0
 51
180.0
  0
ARC
  5
5DE
100
AcDbEntity
  8
0
100
AcDbCircle
 62
7
  6
CONTINUOUS
 10
313.7400963872
 20
216.4319709653
 40
1.0037366874
100
AcDbArc
 50
90.0338726698
 51
104.7829892131
  0
ARC
  5
5DF
100
AcDbEntity
  8
0
100
AcDbCircle
 62
7
  6
CONTINUOUS
 10
313.7413708843
 20
78.9797966133
 40
1.0027661049
100
AcDbArc
 50
225.4505130118
 51
235.394875605
  0
ARC
  5
5E0
100
AcDbEntity
  8
0
100
AcDbCircle
 62
7
  6
CONTINUOUS
 10
313.7413708843
 20
182.3079940844
 40
1.0027661049
100
AcDbArc
 50
124.605124395
 51
134.5494869881
  0
ARC
  5
5E1
100
AcDbEntity
  8
0
100
AcDbCircle
 62
7
  6
CONTINUOUS
 10
313.7398705964
 20
44.8546575435
 40
1.0025603042
100
AcDbArc
 50
255.2031224882
 51
269.9787752806
  0
ARC
  5
5E2
100
AcDbEntity
  8
0
100
AcDbCircle
 62
7
  6
CONTINUOUS
 10
320.8382414561
 20
78.9793006448
 40
1.0015772862
100
AcDbArc
 50
270.0424680814
 51
280.7479336302
  0
ARC
  5
5E3
100
AcDbEntity
  8
0
100
AcDbCircle
 62
7
  6
CONTINUOUS
 10
320.8382414561
 20
182.3084900528
 40
1.0015772862
100
AcDbArc
 50
79.2520663697
 51
89.9575319186
  0
ARC
  5
5E4
100
AcDbEntity
  8
0
100
AcDbCircle
 62
7
  6
CONTINUOUS
 10
320.8382472438
 20
44.8536675127
 40
1.0015434819
100
AcDbArc
 50
270.0421384098
 51
284.8521785611
  0
ARC
  5
5E5
100
AcDbEntity
  8
0
100
AcDbCircle
 62
7
  6
CONTINUOUS
 10
320.8382472438
 20
216.434123185
 40
1.0015434819
100
AcDbArc
 50
75.1478214437
 51
89.9578615902
  0
ARC
  5
5E6
100
AcDbEntity
  8
0
100
AcDbCircle
 62
7
  6
CONTINUOUS
 10
313.7405080207
 20
78.9785976913
 40
1.0012060095
100
AcDbArc
 50
196.064765961
 51
205.7594751989
  0
ARC
  5
5E7
100
AcDbEntity
  8
0
100
AcDbCircle
 62
7
  6
CONTINUOUS
 10
313.7405080206
 20
182.3091930064
 40
1.0012060094
100
AcDbArc
 50
154.2405248009
 51
163.935234085
  0
ARC
  5
5E8
100
AcDbEntity
  8
1_AXIS
100
AcDbCircle
 62
7
  6
CONTINUOUS
 10
323.789244186
 20
98.1438953488
 40
1.0
100
AcDbArc
 50
90.0
 51
180.0
  0
ARC
  5
5E9
100
AcDbEntity
  8
1_AXIS
100
AcDbCircle
 62
7
  6
CONTINUOUS
 10
323.789244186
 20
163.1438953488
 40
1.0
100
AcDbArc
 50
180.0
 51
270.0
  0
ARC
  5
5EA
100
AcDbEntity
  8
1_AXIS
100
AcDbCircle
 62
7
  6
CONTINUOUS
 10
310.789244186
 20
98.1438953488
 40
1.0
100
AcDbArc
 50
0.0
 51
90.0
  0
ARC
  5
5EB
100
AcDbEntity
  8
1_AXIS
100
AcDbCircle
 62
7
  6
CONTINUOUS
 10
310.789244186
 20
163.1438953488
 40
1.0
100
AcDbArc
 50
270.0
 51
360.0
  0
ARC
  5
5EC
100
AcDbEntity
  8
0
100
AcDbCircle
 62
7
  6
CONTINUOUS
 10
321.813219758
 20
179.3012172496
 40
0.9760247204
100
AcDbArc
 50
0.0443500979
 51
2.9259388323
  0
ARC
  5
5ED
100
AcDbEntity
  8
0
100
AcDbCircle
 62
7
  6
CONTINUOUS
 10
312.7647149414
 20
179.3012167983
 40
0.9754710483
100
AcDbArc
 50
177.0742559311
 51
179.9555982221
  0
ARC
  5
5EE
100
AcDbEntity
  8
0
100
AcDbCircle
 62
7
  6
CONTINUOUS
 10
321.8152830994
 20
81.9865585558
 40
0.9739613682
100
AcDbArc
 50
357.0752266718
 51
359.9564320204
  0
ARC
  5
5EF
100
AcDbEntity
  8
0
100
AcDbCircle
 62
7
  6
CONTINUOUS
 10
312.7605498261
 20
81.9865082058
 40
0.9713058853
100
AcDbArc
 50
180.0407170233
 51
182.9219935561
  0
ARC
  5
5F0
100
AcDbEntity
  8
0
100
AcDbCircle
 62
7
  6
CONTINUOUS
 10
312.6866564547
 20
136.1044367971
 40
0.9005798642
100
AcDbArc
 50
145.9436148186
 51
160.9442947168
  0
ARC
  5
5F1
100
AcDbEntity
  8
0
100
AcDbCircle
 62
7
  6
CONTINUOUS
 10
321.8918507924
 20
125.1833437715
 40
0.9005610158
100
AcDbArc
 50
325.9433027298
 51
340.944157699
  0
ARC
  5
5F2
100
AcDbEntity
  8
0
100
AcDbCircle
 62
7
  6
CONTINUOUS
 10
321.8919530421
 20
136.1044752956
 40
0.900453045
100
AcDbArc
 50
19.0561460885
 51
34.0584348965
  0
ARC
  5
5F3
100
AcDbEntity
  8
0
100
AcDbCircle
 62
7
  6
CONTINUOUS
 10
312.6864426585
 20
125.1832844285
 40
0.9003604978
100
AcDbArc
 50
199.0572309831
 51
214.0603343488
  0
ARC
  5
5F4
100
AcDbEntity
  8
1_AXIS
100
AcDbCircle
 62
7
  6
CONTINUOUS
 10
313.289244186
 20
228.1438953488
 40
0.5
100
AcDbArc
 50
90.0
 51
174.0073825016
  0
ARC
  5
5F5
100
AcDbEntity
  8
1_AXIS
100
AcDbCircle
 62
7
  6
CONTINUOUS
 10
313.289244186
 20
33.1438953488
 40
0.5
100
AcDbArc
 50
185.9926174984
 51
270.0
  0
ARC
  5
5F6
100
AcDbEntity
  8
1_AXIS
100
AcDbCircle
 62
7
  6
CONTINUOUS
 10
321.289244186
 20
228.1438953488
 40
0.5
100
AcDbArc
 50
5.9926174984
 51
90.0
  0
ARC
  5
5F7
100
AcDbEntity
  8
1_AXIS
100
AcDbCircle
 62
7
  6
CONTINUOUS
 10
321.289244186
 20
33.1438953488
 40
0.5
100
AcDbArc
 50
270.0
 51
354.0073825016
  0
SPLINE
  5
5F8
100
AcDbEntity
  8
0
100
AcDbSpline
 62
7
  6
CONTINUOUS
 70
0
 71
3
 72
15
 73
11
 74
0
 42
0.0000001
 43
0.0000001
 44
0.0000000001
 40
0.0
 40
0.0
 40
0.0
 40
0.0
 40
0.3845968582
 40
0.5574534319
 40
0.7077468442
 40
0.8306869808
 40
0.921833943
 40
0.9784193427
 40
0.9933818172
 40
1.0
 40
1.0
 40
1.0
 40
1.0
 10
155.55010957
 20
218.4820319454
 30
0.0
 10
155.660952153
 20
218.533603643
 30
0.0
 10
155.822233975
 20
218.6069616476
 30
0.0
 10
156.0284583895
 20
218.6970737337
 30
0.0
 10
156.1589246379
 20
218.7521770462
 30
0.0
 10
156.2668829857
 20
218.7955101961
 30
0.0
 10
156.3464492562
 20
218.8250501502
 30
0.0
 10
156.3979242167
 20
218.8409453832
 30
0.0
 10
156.4202969941
 20
218.8451453502
 30
0.0
 10
156.4289933457
 20
218.8447655913
 30
0.0
 10
156.4298844283
 20
218.8428598944
 30
0.0
  0
SPLINE
  5
5F9
100
AcDbEntity
  8
0
100
AcDbSpline
 62
7
  6
CONTINUOUS
 70
0
 71
3
 72
15
 73
11
 74
0
 42
0.0000001
 43
0.0000001
 44
0.0000000001
 40
0.0
 40
0.0
 40
0.0
 40
0.0
 40
0.3846067361
 40
0.5574683685
 40
0.7077677145
 40
0.8307134063
 40
0.9218606546
 40
0.9784362066
 40
0.9933897569
 40
1.0
 40
1.0
 40
1.0
 40
1.0
 10
144.4935153414
 20
218.4820485685
 30
0.0
 10
144.3826569049
 20
218.5335886037
 30
0.0
 10
144.2213760845
 20
218.6069522149
 30
0.0
 10
144.0151314344
 20
218.6970258716
 30
0.0
 10
143.8846360473
 20
218.7520669137
 30
0.0
 10
143.7766553605
 20
218.7953508602
 30
0.0
 10
143.6971046695
 20
218.8249156124
 30
0.0
 10
143.6456552566
 20
218.8408773909
 30
0.0
 10
143.6233067329
 20
218.8451322512
 30
0.0
 10
143.614611504
 20
218.8447659267
 30
0.0
 10
143.6137214717
 20
218.842862565
 30
0.0
  0
SPLINE
  5
5FA
100
AcDbEntity
  8
0
100
AcDbSpline
 62
7
  6
CONTINUOUS
 70
0
 71
3
 72
8
 73
4
 74
0
 42
0.0000001
 43
0.0000001
 44
0.0000000001
 40
0.0
 40
0.0
 40
0.0
 40
0.0
 40
1.0
 40
1.0
 40
1.0
 40
1.0
 10
144.4927846231
 20
218.4823102318
 30
0.0
 10
144.5086865143
 20
218.4749180731
 30
0.0
 10
144.5271095465
 20
218.4721861143
 30
0.0
 10
144.5446116284
 20
218.4732775741
 30
0.0
  0
SPLINE
  5
5FB
100
AcDbEntity
  8
0
100
AcDbSpline
 62
7
  6
CONTINUOUS
 70
0
 71
3
 72
8
 73
4
 74
0
 42
0.0000001
 43
0.0000001
 44
0.0000000001
 40
0.0
 40
0.0
 40
0.0
 40
0.0
 40
1.0
 40
1.0
 40
1.0
 40
1.0
 10
110.8907912873
 20
209.478628536
 30
0.0
 10
110.8807352283
 20
209.4643046008
 30
0.0
 10
110.8661694306
 20
209.4527572801
 30
0.0
 10
110.8504974981
 20
209.4449669032
 30
0.0
  0
SPLINE
  5
5FC
100
AcDbEntity
  8
0
100
AcDbSpline
 62
7
  6
CONTINUOUS
 70
0
 71
3
 72
15
 73
11
 74
0
 42
0.0000001
 43
0.0000001
 44
0.0000000001
 40
0.0
 40
0.0
 40
0.0
 40
0.0
 40
0.3846102666
 40
0.5574737283
 40
0.7077752061
 40
0.8307228737
 40
0.9218702081
 40
0.9784422465
 40
0.9933926077
 40
1.0
 40
1.0
 40
1.0
 40
1.0
 10
110.8903537874
 20
209.478112266
 30
0.0
 10
110.9605992096
 20
209.5781704341
 30
0.0
 10
111.0635898166
 20
209.7223468723
 30
0.0
 10
111.1971801857
 20
209.9034662805
 30
0.0
 10
111.2826922036
 20
210.0163667805
 30
0.0
 10
111.3545797678
 20
210.1078310167
 30
0.0
 10
111.4086808354
 20
210.1732152444
 30
0.0
 10
111.4452365299
 20
210.2127793868
 30
0.0
 10
111.4624460703
 20
210.2276511567
 30
0.0
 10
111.4701567644
 20
210.2316855057
 30
0.0
 10
111.4718784885
 20
210.2304826976
 30
0.0
  0
SPLINE
  5
5FD
100
AcDbEntity
  8
0
100
AcDbSpline
 62
7
  6
CONTINUOUS
 70
0
 71
3
 72
8
 73
4
 74
0
 42
0.0000001
 43
0.0000001
 44
0.0000000001
 40
0.0
 40
0.0
 40
0.0
 40
0.0
 40
1.0
 40
1.0
 40
1.0
 40
1.0
 10
228.8554722244
 20
91.5119641138
 30
0.0
 10
228.841527534
 20
91.5021727211
 30
0.0
 10
228.8304584008
 20
91.4878483326
 30
0.0
 10
228.8228738799
 20
91.4725905214
 30
0.0
  0
SPLINE
  5
5FE
100
AcDbEntity
  8
0
100
AcDbSpline
 62
7
  6
CONTINUOUS
 70
0
 71
3
 72
15
 73
11
 74
0
 42
0.0000001
 43
0.0000001
 44
0.0000000001
 40
0.0
 40
0.0
 40
0.0
 40
0.0
 40
0.3846181207
 40
0.5574858383
 40
0.7077921252
 40
0.8307441551
 40
0.9218916846
 40
0.9784559527
 40
0.9933991635
 40
1.0
 40
1.0
 40
1.0
 40
1.0
 10
228.8560217842
 20
91.5124287515
 30
0.0
 10
228.956077208
 20
91.5826793498
 30
0.0
 10
229.1002542233
 20
91.6856715841
 30
0.0
 10
229.2813452463
 20
91.8193044934
 30
0.0
 10
229.3942121398
 20
91.9048642216
 30
0.0
 10
229.4856513877
 20
91.976786642
 30
0.0
 10
229.5510470219
 20
92.0308661458
 30
0.0
 10
229.5906474522
 20
92.0673773661
 30
0.0
 10
229.605547417
 20
92.0845476479
 30
0.0
 10
229.6095908904
 20
92.0922521095
 30
0.0
 10
229.608389273
 20
92.0939720864
 30
0.0
  0
SPLINE
  5
5FF
100
AcDbEntity
  8
0
100
AcDbSpline
 62
7
  6
CONTINUOUS
 70
0
 71
3
 72
8
 73
4
 74
0
 42
0.0000001
 43
0.0000001
 44
0.0000000001
 40
0.0
 40
0.0
 40
0.0
 40
0.0
 40
1.0
 40
1.0
 40
1.0
 40
1.0
 10
155.550975727
 20
218.4823410757
 30
0.0
 10
155.5350267792
 20
218.4749246661
 30
0.0
 10
155.5165478963
 20
218.4721828221
 30
0.0
 10
155.4989930228
 20
218.4732775741
 30
0.0
  0
SPLINE
  5
600
100
AcDbEntity
  8
0
100
AcDbSpline
 62
7
  6
CONTINUOUS
 70
0
 71
3
 72
8
 73
4
 74
0
 42
0.0000001
 43
0.0000001
 44
0.0000000001
 40
0.0
 40
0.0
 40
0.0
 40
0.0
 40
1.0
 40
1.0
 40
1.0
 40
1.0
 10
189.1527811393
 20
209.4786559489
 30
0.0
 10
189.1628447283
 20
209.4643200701
 30
0.0
 10
189.1774225928
 20
209.4527635572
 30
0.0
 10
189.1931071531
 20
209.4449669032
 30
0.0
  0
SPLINE
  5
601
100
AcDbEntity
  8
0
100
AcDbSpline
 62
7
  6
CONTINUOUS
 70
0
 71
3
 72
15
 73
11
 74
0
 42
0.0000001
 43
0.0000001
 44
0.0000000001
 40
0.0
 40
0.0
 40
0.0
 40
0.0
 40
0.3846070588
 40
0.5574688633
 40
0.7077684046
 40
0.8307142762
 40
0.9218615352
 40
0.9784367696
 40
0.9933900267
 40
1.0
 40
1.0
 40
1.0
 40
1.0
 10
189.1532429928
 20
209.4781112596
 30
0.0
 10
189.0830064482
 20
209.5781752552
 30
0.0
 10
188.9800149577
 20
209.722350477
 30
0.0
 10
188.8464370482
 20
209.9034777949
 30
0.0
 10
188.7609433073
 20
210.0163910617
 30
0.0
 10
188.6890698166
 20
210.107865366
 30
0.0
 10
188.6349601314
 20
210.173244984
 30
0.0
 10
188.5983863257
 20
210.2127944716
 30
0.0
 10
188.5811609652
 20
210.2276546969
 30
0.0
 10
188.5734477685
 20
210.2316854384
 30
0.0
 10
188.5717253694
 20
210.2304821434
 30
0.0
  0
SPLINE
  5
602
100
AcDbEntity
  8
0
100
AcDbSpline
 62
7
  6
CONTINUOUS
 70
0
 71
3
 72
15
 73
11
 74
0
 42
0.0000001
 43
0.0000001
 44
0.0000000001
 40
0.0
 40
0.0
 40
0.0
 40
0.0
 40
0.3846130106
 40
0.5574780966
 40
0.7077812921
 40
0.8307304294
 40
0.9218777875
 40
0.9784471085
 40
0.9933949614
 40
1.0
 40
1.0
 40
1.0
 40
1.0
 10
101.3150942985
 20
203.9498371813
 30
0.0
 10
101.1933175572
 20
203.9390420292
 30
0.0
 10
101.0169615203
 20
203.9219336019
 30
0.0
 10
100.7933145521
 20
203.8967737235
 30
0.0
 10
100.6527858549
 20
203.8791468507
 30
0.0
 10
100.5376330996
 20
203.8626085298
 30
0.0
 10
100.4539584434
 20
203.8484570749
 30
0.0
 10
100.4014137381
 20
203.8366009049
 30
0.0
 10
100.3799280787
 20
203.8291496716
 30
0.0
 10
100.3725771574
 20
203.8244927278
 30
0.0
 10
100.3727579166
 20
203.8224010255
 30
0.0
  0
SPLINE
  5
603
100
AcDbEntity
  8
0
100
AcDbSpline
 62
7
  6
CONTINUOUS
 70
0
 71
3
 72
8
 73
4
 74
0
 42
0.0000001
 43
0.0000001
 44
0.0000000001
 40
0.0
 40
0.0
 40
0.0
 40
0.0
 40
1.0
 40
1.0
 40
1.0
 40
1.0
 10
101.3150097742
 20
203.9498218142
 30
0.0
 10
101.3322481651
 20
203.9513517854
 30
0.0
 10
101.3493049926
 20
203.9582070681
 30
0.0
 10
101.3637249278
 20
203.967776206
 30
0.0
  0
SPLINE
  5
604
100
AcDbEntity
  8
0
100
AcDbSpline
 62
7
  6
CONTINUOUS
 70
0
 71
3
 72
8
 73
4
 74
0
 42
0.0000001
 43
0.0000001
 44
0.0000000001
 40
0.0
 40
0.0
 40
0.0
 40
0.0
 40
1.0
 40
1.0
 40
1.0
 40
1.0
 10
76.7159555855
 20
179.3510385029
 30
0.0
 10
76.7144170026
 20
179.3336815552
 30
0.0
 10
76.7075563246
 20
179.3164917141
 30
0.0
 10
76.6979214684
 20
179.3019727466
 30
0.0
  0
SPLINE
  5
605
100
AcDbEntity
  8
0
100
AcDbSpline
 62
7
  6
CONTINUOUS
 70
0
 71
3
 72
15
 73
11
 74
0
 42
0.0000001
 43
0.0000001
 44
0.0000000001
 40
0.0
 40
0.0
 40
0.0
 40
0.0
 40
0.3846038627
 40
0.5574640358
 40
0.7077616401
 40
0.8307057058
 40
0.9218529104
 40
0.9784313803
 40
0.9933875247
 40
1.0
 40
1.0
 40
1.0
 40
1.0
 10
76.7158780992
 20
179.3506122088
 30
0.0
 10
76.7266585404
 20
179.4723893368
 30
0.0
 10
76.7437658509
 20
179.648743858
 30
0.0
 10
76.7688713617
 20
179.8723940035
 30
0.0
 10
76.7864327428
 20
180.0129284386
 30
0.0
 10
76.802922707
 20
180.1280859192
 30
0.0
 10
76.8171030714
 20
180.2117614161
 30
0.0
 10
76.8290252717
 20
180.2642956252
 30
0.0
 10
76.8365322264
 20
180.2857754038
 30
0.0
 10
76.8412005839
 20
180.2931209172
 30
0.0
 10
76.8432946734
 20
180.2929399285
 30
0.0
  0
SPLINE
  5
606
100
AcDbEntity
  8
0
100
AcDbSpline
 62
7
  6
CONTINUOUS
 70
0
 71
3
 72
15
 73
11
 74
0
 42
0.0000001
 43
0.0000001
 44
0.0000000001
 40
0.0
 40
0.0
 40
0.0
 40
0.0
 40
0.3846038519
 40
0.5574640191
 40
0.7077616168
 40
0.8307056767
 40
0.921852881
 40
0.9784313616
 40
0.9933875158
 40
1.0
 40
1.0
 40
1.0
 40
1.0
 10
223.3277265435
 20
81.9371784788
 30
0.0
 10
223.3169461005
 20
81.8154013518
 30
0.0
 10
223.2998387938
 20
81.6390468322
 30
0.0
 10
223.2747333588
 20
81.4153966815
 30
0.0
 10
223.2571720573
 20
81.2748622391
 30
0.0
 10
223.2406821503
 20
81.1597047528
 30
0.0
 10
223.2265017518
 20
81.0760292547
 30
0.0
 10
223.2145794742
 20
81.023495058
 30
0.0
 10
223.2070724541
 20
81.0020152861
 30
0.0
 10
223.2024040831
 20
80.9946697792
 30
0.0
 10
223.2003099907
 20
80.994850768
 30
0.0
  0
SPLINE
  5
607
100
AcDbEntity
  8
0
100
AcDbSpline
 62
7
  6
CONTINUOUS
 70
0
 71
3
 72
8
 73
4
 74
0
 42
0.0000001
 43
0.0000001
 44
0.0000000001
 40
0.0
 40
0.0
 40
0.0
 40
0.0
 40
1.0
 40
1.0
 40
1.0
 40
1.0
 10
223.3276490699
 20
81.9367522573
 30
0.0
 10
223.329187649
 20
81.9541091851
 30
0.0
 10
223.3360483377
 20
81.9712990003
 30
0.0
 10
223.3456831827
 20
81.9858179511
 30
0.0
  0
SPLINE
  5
608
100
AcDbEntity
  8
0
100
AcDbSpline
 62
7
  6
CONTINUOUS
 70
0
 71
3
 72
15
 73
11
 74
0
 42
0.0000001
 43
0.0000001
 44
0.0000000001
 40
0.0
 40
0.0
 40
0.0
 40
0.0
 40
0.3846099994
 40
0.5574733914
 40
0.7077747338
 40
0.8307222282
 40
0.9218695215
 40
0.9784418065
 40
0.9933924022
 40
1.0
 40
1.0
 40
1.0
 40
1.0
 10
198.7285129171
 20
203.9498328058
 30
0.0
 10
198.8502890433
 20
203.9390335378
 30
0.0
 10
199.0266446584
 20
203.9219271338
 30
0.0
 10
199.2502934403
 20
203.8967912187
 30
0.0
 10
199.3908242601
 20
203.8791872513
 30
0.0
 10
199.5059786001
 20
203.8626649092
 30
0.0
 10
199.589653624
 20
203.8485038504
 30
0.0
 10
199.6421947523
 20
203.836626017
 30
0.0
 10
199.6636786753
 20
203.8291564284
 30
0.0
 10
199.6710277227
 20
203.8244956253
 30
0.0
 10
199.6708469137
 20
203.8224030986
 30
0.0
  0
SPLINE
  5
609
100
AcDbEntity
  8
0
100
AcDbSpline
 62
7
  6
CONTINUOUS
 70
0
 71
3
 72
8
 73
4
 74
0
 42
0.0000001
 43
0.0000001
 44
0.0000000001
 40
0.0
 40
0.0
 40
0.0
 40
0.0
 40
1.0
 40
1.0
 40
1.0
 40
1.0
 10
198.7276619781
 20
57.3377880418
 30
0.0
 10
198.7107350016
 20
57.3362847058
 30
0.0
 10
198.694039234
 20
57.3294108106
 30
0.0
 10
198.6798797233
 20
57.3200144917
 30
0.0
  0
SPLINE
  5
60A
100
AcDbEntity
  8
0
100
AcDbSpline
 62
7
  6
CONTINUOUS
 70
0
 71
3
 72
15
 73
11
 74
0
 42
0.0000001
 43
0.0000001
 44
0.0000000001
 40
0.0
 40
0.0
 40
0.0
 40
0.0
 40
0.384618732
 40
0.5574867737
 40
0.7077934329
 40
0.8307458047
 40
0.9218933517
 40
0.9784570183
 40
0.9933996742
 40
1.0
 40
1.0
 40
1.0
 40
1.0
 10
198.7285052403
 20
57.3379399232
 30
0.0
 10
198.8502810381
 20
57.3487521286
 30
0.0
 10
199.0266382249
 20
57.3658573999
 30
0.0
 10
199.2502839078
 20
57.3910448459
 30
0.0
 10
199.3908089714
 20
57.4087127314
 30
0.0
 10
199.5059585645
 20
57.4252831008
 30
0.0
 10
199.5896325232
 20
57.4394176503
 30
0.0
 10
199.6421838275
 20
57.4512326796
 30
0.0
 10
199.6636730847
 20
57.4586488556
 30
0.0
 10
199.6710274408
 20
57.4632985998
 30
0.0
 10
199.670846811
 20
57.4653887881
 30
0.0
  0
SPLINE
  5
60B
100
AcDbEntity
  8
0
100
AcDbSpline
 62
7
  6
CONTINUOUS
 70
0
 71
3
 72
8
 73
4
 74
0
 42
0.0000001
 43
0.0000001
 44
0.0000000001
 40
0.0
 40
0.0
 40
0.0
 40
0.0
 40
1.0
 40
1.0
 40
1.0
 40
1.0
 10
198.7294400787
 20
203.9496646982
 30
0.0
 10
198.7119202293
 20
203.9512192417
 30
0.0
 10
198.6945350689
 20
203.9580508487
 30
0.0
 10
198.6798797233
 20
203.967776206
 30
0.0
  0
SPLINE
  5
60C
100
AcDbEntity
  8
0
100
AcDbSpline
 62
7
  6
CONTINUOUS
 70
0
 71
3
 72
8
 73
4
 74
0
 42
0.0000001
 43
0.0000001
 44
0.0000000001
 40
0.0
 40
0.0
 40
0.0
 40
0.0
 40
1.0
 40
1.0
 40
1.0
 40
1.0
 10
223.3276601153
 20
179.3510087191
 30
0.0
 10
223.3291986844
 20
179.3336624009
 30
0.0
 10
223.3360541817
 20
179.316482891
 30
0.0
 10
223.3456831827
 20
179.3019727466
 30
0.0
  0
SPLINE
  5
60D
100
AcDbEntity
  8
0
100
AcDbSpline
 62
7
  6
CONTINUOUS
 70
0
 71
3
 72
15
 73
11
 74
0
 42
0.0000001
 43
0.0000001
 44
0.0000000001
 40
0.0
 40
0.0
 40
0.0
 40
0.0
 40
0.3846078804
 40
0.5574703217
 40
0.7077704167
 40
0.8307166619
 40
0.9218638701
 40
0.9784382879
 40
0.9933907882
 40
1.0
 40
1.0
 40
1.0
 40
1.0
 10
71.1875870267
 20
169.7753360562
 30
0.0
 10
71.0875135972
 20
169.7051129111
 30
0.0
 10
70.9433411724
 20
169.6021168202
 30
0.0
 10
70.762224376
 20
169.4685243379
 30
0.0
 10
70.6493155916
 20
169.3830243957
 30
0.0
 10
70.5578430311
 20
169.3111484779
 30
0.0
 10
70.49246153
 20
169.2570420975
 30
0.0
 10
70.4529080448
 20
169.2204730543
 30
0.0
 10
70.4380450139
 20
169.2032518448
 30
0.0
 10
70.4340132315
 20
169.1955393245
 30
0.0
 10
70.4352164054
 20
169.193817141
 30
0.0
  0
SPLINE
  5
60E
100
AcDbEntity
  8
0
100
AcDbSpline
 62
7
  6
CONTINUOUS
 70
0
 71
3
 72
8
 73
4
 74
0
 42
0.0000001
 43
0.0000001
 44
0.0000000001
 40
0.0
 40
0.0
 40
0.0
 40
0.0
 40
1.0
 40
1.0
 40
1.0
 40
1.0
 10
71.1870735198
 20
169.7749006306
 30
0.0
 10
71.2013982429
 20
169.7849565008
 30
0.0
 10
71.2129401556
 20
169.7995277634
 30
0.0
 10
71.2207307712
 20
169.8152001763
 30
0.0
  0
SPLINE
  5
60F
100
AcDbEntity
  8
0
100
AcDbSpline
 62
7
  6
CONTINUOUS
 70
0
 71
3
 72
8
 73
4
 74
0
 42
0.0000001
 43
0.0000001
 44
0.0000000001
 40
0.0
 40
0.0
 40
0.0
 40
0.0
 40
1.0
 40
1.0
 40
1.0
 40
1.0
 10
62.1835052257
 20
136.1725952959
 30
0.0
 10
62.1908512476
 20
136.1567944469
 30
0.0
 10
62.1935046468
 20
136.1384772688
 30
0.0
 10
62.1924201003
 20
136.121086046
 30
0.0
  0
SPLINE
  5
610
100
AcDbEntity
  8
0
100
AcDbSpline
 62
7
  6
CONTINUOUS
 70
0
 71
3
 72
15
 73
11
 74
0
 42
0.0000001
 43
0.0000001
 44
0.0000000001
 40
0.0
 40
0.0
 40
0.0
 40
0.0
 40
0.3846038627
 40
0.5574640358
 40
0.7077616401
 40
0.8307057058
 40
0.9218529104
 40
0.9784313803
 40
0.9933875247
 40
1.0
 40
1.0
 40
1.0
 40
1.0
 10
62.1836512677
 20
136.1721873713
 30
0.0
 10
62.1320988396
 20
136.2830396784
 30
0.0
 10
62.0587369445
 20
136.4443208291
 30
0.0
 10
61.9686538819
 20
136.650560292
 30
0.0
 10
61.9135952665
 20
136.7810473735
 30
0.0
 10
61.8702972541
 20
136.8890216591
 30
0.0
 10
61.8407400614
 20
136.9685769474
 30
0.0
 10
61.8247978852
 20
137.0200340072
 30
0.0
 10
61.8205592094
 20
137.0423895184
 30
0.0
 10
61.8209293689
 20
137.0510850984
 30
0.0
 10
61.8228333979
 20
137.0519754024
 30
0.0
  0
SPLINE
  5
611
100
AcDbEntity
  8
0
100
AcDbSpline
 62
7
  6
CONTINUOUS
 70
0
 71
3
 72
15
 73
11
 74
0
 42
0.0000001
 43
0.0000001
 44
0.0000000001
 40
0.0
 40
0.0
 40
0.0
 40
0.0
 40
0.3846086904
 40
0.557471518
 40
0.7077720632
 40
0.8307187602
 40
0.9218660562
 40
0.9784397575
 40
0.9933915346
 40
1.0
 40
1.0
 40
1.0
 40
1.0
 10
223.3277329038
 20
179.3506078511
 30
0.0
 10
223.3169531842
 20
179.4723854619
 30
0.0
 10
223.2998439617
 20
179.6487407038
 30
0.0
 10
223.2747047413
 20
179.8723884882
 30
0.0
 10
223.2571081108
 20
180.0129197197
 30
0.0
 10
223.2405930163
 20
180.1280747156
 30
0.0
 10
223.2264279839
 20
180.2117496741
 30
0.0
 10
223.2145403199
 20
180.264289501
 30
0.0
 10
223.2070625375
 20
180.2857721677
 30
0.0
 10
223.2024002647
 20
180.2931206042
 30
0.0
 10
223.2003074656
 20
180.2929397114
 30
0.0
  0
SPLINE
  5
612
100
AcDbEntity
  8
0
100
AcDbSpline
 62
7
  6
CONTINUOUS
 70
0
 71
3
 72
15
 73
11
 74
0
 42
0.0000001
 43
0.0000001
 44
0.0000000001
 40
0.0
 40
0.0
 40
0.0
 40
0.0
 40
0.3846102919
 40
0.557473767
 40
0.7077752602
 40
0.8307229418
 40
0.9218702769
 40
0.9784422904
 40
0.9933926287
 40
1.0
 40
1.0
 40
1.0
 40
1.0
 10
189.1532509559
 20
51.8096784011
 30
0.0
 10
189.083005498
 20
51.709620255
 30
0.0
 10
188.9800148892
 20
51.5654438127
 30
0.0
 10
188.8464243961
 20
51.384324486
 30
0.0
 10
188.7609122279
 20
51.2714240916
 30
0.0
 10
188.6890245517
 20
51.1799599355
 30
0.0
 10
188.6349235523
 20
51.1145756718
 30
0.0
 10
188.598368
 20
51.0750114134
 30
0.0
 10
188.5811585849
 20
51.0601395533
 30
0.0
 10
188.5734479107
 20
51.0561051751
 30
0.0
 10
188.5717261922
 20
51.0573079794
 30
0.0
  0
SPLINE
  5
613
100
AcDbEntity
  8
0
100
AcDbSpline
 62
7
  6
CONTINUOUS
 70
0
 71
3
 72
15
 73
11
 74
0
 42
0.0000001
 43
0.0000001
 44
0.0000000001
 40
0.0
 40
0.0
 40
0.0
 40
0.0
 40
0.3845984588
 40
0.5574557866
 40
0.7077501916
 40
0.8306912969
 40
0.9218382534
 40
0.9784218864
 40
0.9933828839
 40
1.0
 40
1.0
 40
1.0
 40
1.0
 10
228.8560117647
 20
169.7753109433
 30
0.0
 10
228.9560863257
 20
169.7050908513
 30
0.0
 10
229.100258737
 20
169.6020976328
 30
0.0
 10
229.2814101048
 20
169.4685566979
 30
0.0
 10
229.3943580618
 20
169.3831123365
 30
0.0
 10
229.485859226
 20
169.3112764236
 30
0.0
 10
229.5512271566
 20
169.2571441681
 30
0.0
 10
229.5907377625
 20
169.2205229201
 30
0.0
 10
229.6055679194
 20
169.2032555416
 30
0.0
 10
229.6095887371
 20
169.195535577
 30
0.0
 10
229.6083841463
 20
169.1938112729
 30
0.0
  0
SPLINE
  5
614
100
AcDbEntity
  8
0
100
AcDbSpline
 62
7
  6
CONTINUOUS
 70
0
 71
3
 72
8
 73
4
 74
0
 42
0.0000001
 43
0.0000001
 44
0.0000000001
 40
0.0
 40
0.0
 40
0.0
 40
0.0
 40
1.0
 40
1.0
 40
1.0
 40
1.0
 10
189.1528156036
 20
51.8091646628
 30
0.0
 10
189.16287103
 20
51.8234876889
 30
0.0
 10
189.1774362122
 20
51.8350339106
 30
0.0
 10
189.1931071531
 20
51.8428237945
 30
0.0
  0
SPLINE
  5
615
100
AcDbEntity
  8
0
100
AcDbSpline
 62
7
  6
CONTINUOUS
 70
0
 71
3
 72
8
 73
4
 74
0
 42
0.0000001
 43
0.0000001
 44
0.0000000001
 40
0.0
 40
0.0
 40
0.0
 40
0.0
 40
1.0
 40
1.0
 40
1.0
 40
1.0
 10
228.8568179571
 20
169.7746257666
 30
0.0
 10
228.8423844869
 20
169.7847557965
 30
0.0
 10
228.830723081
 20
169.7994099069
 30
0.0
 10
228.8228738799
 20
169.8152001763
 30
0.0
  0
SPLINE
  5
616
100
AcDbEntity
  8
0
100
AcDbSpline
 62
7
  6
CONTINUOUS
 70
0
 71
3
 72
15
 73
11
 74
0
 42
0.0000001
 43
0.0000001
 44
0.0000000001
 40
0.0
 40
0.0
 40
0.0
 40
0.0
 40
0.3846086551
 40
0.5574713049
 40
0.7077718357
 40
0.830718631
 40
0.9218659268
 40
0.9784395007
 40
0.9933912701
 40
1.0
 40
1.0
 40
1.0
 40
1.0
 10
62.1836515934
 20
125.115609467
 30
0.0
 10
62.1321147237
 20
125.0047493567
 30
0.0
 10
62.0587502836
 20
124.8434685647
 30
0.0
 10
61.9686868205
 20
124.6372188085
 30
0.0
 10
61.9136593724
 20
124.5067171137
 30
0.0
 10
61.8703859826
 20
124.3987317153
 30
0.0
 10
61.8408163273
 20
124.3191840681
 30
0.0
 10
61.8248411915
 20
124.267739912
 30
0.0
 10
61.8205751249
 20
124.2453961792
 30
0.0
 10
61.8209389069
 20
124.236701187
 30
0.0
 10
61.8228418235
 20
124.2358113554
 30
0.0
  0
SPLINE
  5
617
100
AcDbEntity
  8
0
100
AcDbSpline
 62
7
  6
CONTINUOUS
 70
0
 71
3
 72
8
 73
4
 74
0
 42
0.0000001
 43
0.0000001
 44
0.0000000001
 40
0.0
 40
0.0
 40
0.0
 40
0.0
 40
1.0
 40
1.0
 40
1.0
 40
1.0
 10
62.18353486
 20
125.1152834821
 30
0.0
 10
62.190867012
 20
125.1310570186
 30
0.0
 10
62.1935027413
 20
125.1493439835
 30
0.0
 10
62.1924201003
 20
125.1667046516
 30
0.0
  0
SPLINE
  5
618
100
AcDbEntity
  8
0
100
AcDbSpline
 62
7
  6
CONTINUOUS
 70
0
 71
3
 72
8
 73
4
 74
0
 42
0.0000001
 43
0.0000001
 44
0.0000000001
 40
0.0
 40
0.0
 40
0.0
 40
0.0
 40
1.0
 40
1.0
 40
1.0
 40
1.0
 10
237.8604699399
 20
136.1736538506
 30
0.0
 10
237.8529683435
 20
136.1575185649
 30
0.0
 10
237.8500770468
 20
136.1388454049
 30
0.0
 10
237.8511845508
 20
136.121086046
 30
0.0
  0
SPLINE
  5
619
100
AcDbEntity
  8
0
100
AcDbSpline
 62
7
  6
CONTINUOUS
 70
0
 71
3
 72
8
 73
4
 74
0
 42
0.0000001
 43
0.0000001
 44
0.0000000001
 40
0.0
 40
0.0
 40
0.0
 40
0.0
 40
1.0
 40
1.0
 40
1.0
 40
1.0
 10
71.1865339495
 20
91.5133484652
 30
0.0
 10
71.2010490186
 20
91.5031588871
 30
0.0
 10
71.2128366123
 20
91.4884712326
 30
0.0
 10
71.2207307712
 20
91.4725905214
 30
0.0
  0
SPLINE
  5
61A
100
AcDbEntity
  8
0
100
AcDbSpline
 62
7
  6
CONTINUOUS
 70
0
 71
3
 72
15
 73
11
 74
0
 42
0.0000001
 43
0.0000001
 44
0.0000000001
 40
0.0
 40
0.0
 40
0.0
 40
0.0
 40
0.3846069767
 40
0.5574687353
 40
0.7077682333
 40
0.830714047
 40
0.9218612562
 40
0.9784365355
 40
0.9933898849
 40
1.0
 40
1.0
 40
1.0
 40
1.0
 10
71.1875871191
 20
91.5124553156
 30
0.0
 10
71.0875243451
 20
91.5826936337
 30
0.0
 10
70.943349337
 20
91.6856854136
 30
0.0
 10
70.7622209156
 20
91.8192618673
 30
0.0
 10
70.6493067121
 20
91.9047543946
 30
0.0
 10
70.5578316538
 20
91.9766268736
 30
0.0
 10
70.4924518157
 20
92.0307364377
 30
0.0
 10
70.4529026834
 20
92.0673105438
 30
0.0
 10
70.4380426777
 20
92.0845363981
 30
0.0
 10
70.434012106
 20
92.0922496817
 30
0.0
 10
70.4352154094
 20
92.0939721309
 30
0.0
  0
SPLINE
  5
61B
100
AcDbEntity
  8
0
100
AcDbSpline
 62
7
  6
CONTINUOUS
 70
0
 71
3
 72
8
 73
4
 74
0
 42
0.0000001
 43
0.0000001
 44
0.0000000001
 40
0.0
 40
0.0
 40
0.0
 40
0.0
 40
1.0
 40
1.0
 40
1.0
 40
1.0
 10
155.5508154453
 20
42.805482027
 30
0.0
 10
155.5349149984
 20
42.8128735105
 30
0.0
 10
155.5164935135
 20
42.8156044842
 30
0.0
 10
155.4989930228
 20
42.8145131236
 30
0.0
  0
SPLINE
  5
61C
100
AcDbEntity
  8
0
100
AcDbSpline
 62
7
  6
CONTINUOUS
 70
0
 71
3
 72
15
 73
11
 74
0
 42
0.0000001
 43
0.0000001
 44
0.0000000001
 40
0.0
 40
0.0
 40
0.0
 40
0.0
 40
0.3846019518
 40
0.5574610854
 40
0.7077575522
 40
0.8307005712
 40
0.9218476645
 40
0.9784279423
 40
0.9933858241
 40
1.0
 40
1.0
 40
1.0
 40
1.0
 10
237.8599473679
 20
136.1721918018
 30
0.0
 10
237.9114971618
 20
136.283045198
 30
0.0
 10
237.9848589287
 20
136.4443260528
 30
0.0
 10
238.0749549538
 20
136.6505593345
 30
0.0
 10
238.1300270542
 20
136.7810402878
 30
0.0
 10
238.1733349333
 20
136.8890101298
 30
0.0
 10
238.2028876961
 20
136.9685684394
 30
0.0
 10
238.2188172587
 20
137.0200301099
 30
0.0
 10
238.2230455945
 20
137.0423905279
 30
0.0
 10
238.2226726627
 20
137.0510862758
 30
0.0
 10
238.2207681547
 20
137.0519768513
 30
0.0
  0
SPLINE
  5
61D
100
AcDbEntity
  8
0
100
AcDbSpline
 62
7
  6
CONTINUOUS
 70
0
 71
3
 72
15
 73
11
 74
0
 42
0.0000001
 43
0.0000001
 44
0.0000000001
 40
0.0
 40
0.0
 40
0.0
 40
0.0
 40
0.3846067576
 40
0.5574684014
 40
0.7077677603
 40
0.8307134641
 40
0.921860713
 40
0.9784362439
 40
0.9933897748
 40
1.0
 40
1.0
 40
1.0
 40
1.0
 10
155.5500892572
 20
42.80574207
 30
0.0
 10
155.6609477078
 20
42.7542020605
 30
0.0
 10
155.822228531
 20
42.6808384467
 30
0.0
 10
156.0284732384
 20
42.5907649048
 30
0.0
 10
156.1589686913
 20
42.5357240047
 30
0.0
 10
156.2669494265
 20
42.4924401648
 30
0.0
 10
156.3465000828
 20
42.462875358
 30
0.0
 10
156.3979494409
 20
42.4469134346
 30
0.0
 10
156.4202979108
 20
42.4426584555
 30
0.0
 10
156.4289931375
 20
42.44302475
 30
0.0
 10
156.4298831672
 20
42.4449281066
 30
0.0
  0
SPLINE
  5
61E
100
AcDbEntity
  8
0
100
AcDbSpline
 62
7
  6
CONTINUOUS
 70
0
 71
3
 72
15
 73
11
 74
0
 42
0.0000001
 43
0.0000001
 44
0.0000000001
 40
0.0
 40
0.0
 40
0.0
 40
0.0
 40
0.3846150101
 40
0.5574810883
 40
0.7077854866
 40
0.8307357753
 40
0.9218832085
 40
0.9784505342
 40
0.9933965673
 40
1.0
 40
1.0
 40
1.0
 40
1.0
 10
144.4935312548
 20
42.8057293498
 30
0.0
 10
144.3826675032
 20
42.7541988577
 30
0.0
 10
144.2213851593
 20
42.6808350862
 30
0.0
 10
144.015117922
 20
42.5908067028
 30
0.0
 10
143.8845971014
 20
42.5358204095
 30
0.0
 10
143.7765979537
 20
42.4925771868
 30
0.0
 10
143.6970609056
 20
42.462990535
 30
0.0
 10
143.6456330273
 20
42.4469723151
 30
0.0
 10
143.6233052654
 20
42.4426711034
 30
0.0
 10
143.6146109391
 20
42.4430259613
 30
0.0
 10
143.6137218439
 20
42.4449273367
 30
0.0
  0
SPLINE
  5
61F
100
AcDbEntity
  8
0
100
AcDbSpline
 62
7
  6
CONTINUOUS
 70
0
 71
3
 72
15
 73
11
 74
0
 42
0.0000001
 43
0.0000001
 44
0.0000000001
 40
0.0
 40
0.0
 40
0.0
 40
0.0
 40
0.3846097696
 40
0.557472971
 40
0.7077741431
 40
0.8307215387
 40
0.9218688874
 40
0.9784414437
 40
0.9933922474
 40
1.0
 40
1.0
 40
1.0
 40
1.0
 10
76.7158661452
 20
81.9371844265
 30
0.0
 10
76.7266689554
 20
81.8154086493
 30
0.0
 10
76.7437731406
 20
81.6390529652
 30
0.0
 10
76.768904159
 20
81.4154037407
 30
0.0
 10
76.7865064267
 20
81.2748728006
 30
0.0
 10
76.8030284921
 20
81.1597184537
 30
0.0
 10
76.8171910659
 20
81.0760435368
 30
0.0
 10
76.8290708322
 20
81.023502667
 30
0.0
 10
76.8365418742
 20
81.0020189569
 30
0.0
 10
76.8412029369
 20
80.9946700193
 30
0.0
 10
76.8432955124
 20
80.9948508417
 30
0.0
  0
SPLINE
  5
620
100
AcDbEntity
  8
0
100
AcDbSpline
 62
7
  6
CONTINUOUS
 70
0
 71
3
 72
8
 73
4
 74
0
 42
0.0000001
 43
0.0000001
 44
0.0000000001
 40
0.0
 40
0.0
 40
0.0
 40
0.0
 40
1.0
 40
1.0
 40
1.0
 40
1.0
 10
76.7159245581
 20
81.9368624129
 30
0.0
 10
76.7143880385
 20
81.9541813426
 30
0.0
 10
76.7075352846
 20
81.9713306892
 30
0.0
 10
76.6979214684
 20
81.9858179511
 30
0.0
  0
SPLINE
  5
621
100
AcDbEntity
  8
0
100
AcDbSpline
 62
7
  6
CONTINUOUS
 70
0
 71
3
 72
8
 73
4
 74
0
 42
0.0000001
 43
0.0000001
 44
0.0000000001
 40
0.0
 40
0.0
 40
0.0
 40
0.0
 40
1.0
 40
1.0
 40
1.0
 40
1.0
 10
101.3149762633
 20
57.337970007
 30
0.0
 10
101.3322251873
 20
57.3364386899
 30
0.0
 10
101.3492961513
 20
57.3295894967
 30
0.0
 10
101.3637249278
 20
57.3200144917
 30
0.0
  0
SPLINE
  5
622
100
AcDbEntity
  8
0
100
AcDbSpline
 62
7
  6
CONTINUOUS
 70
0
 71
3
 72
15
 73
11
 74
0
 42
0.0000001
 43
0.0000001
 44
0.0000000001
 40
0.0
 40
0.0
 40
0.0
 40
0.0
 40
0.3846147788
 40
0.5574807406
 40
0.7077850019
 40
0.8307351591
 40
0.9218825775
 40
0.9784501231
 40
0.9933963659
 40
1.0
 40
1.0
 40
1.0
 40
1.0
 10
101.3150959712
 20
57.3379482581
 30
0.0
 10
101.1933198609
 20
57.3487527578
 30
0.0
 10
101.0169634201
 20
57.3658592917
 30
0.0
 10
100.7933165109
 20
57.3910250097
 30
0.0
 10
100.6527888609
 20
57.4086642082
 30
0.0
 10
100.537637109
 20
57.42521269
 30
0.0
 10
100.4539626312
 20
57.4393590265
 30
0.0
 10
100.4014159484
 20
57.4512023948
 30
0.0
 10
100.3799290542
 20
57.4586427127
 30
0.0
 10
100.3725771246
 20
57.463297494
 30
0.0
 10
100.3727578366
 20
57.4653887459
 30
0.0
  0
SPLINE
  5
623
100
AcDbEntity
  8
0
100
AcDbSpline
 62
7
  6
CONTINUOUS
 70
0
 71
3
 72
8
 73
4
 74
0
 42
0.0000001
 43
0.0000001
 44
0.0000000001
 40
0.0
 40
0.0
 40
0.0
 40
0.0
 40
1.0
 40
1.0
 40
1.0
 40
1.0
 10
144.4936665693
 20
42.8057780645
 30
0.0
 10
144.5092910942
 20
42.8130395942
 30
0.0
 10
144.527415536
 20
42.8155855014
 30
0.0
 10
144.5446116284
 20
42.8145131236
 30
0.0
  0
SPLINE
  5
624
100
AcDbEntity
  8
0
100
AcDbSpline
 62
7
  6
CONTINUOUS
 70
0
 71
3
 72
15
 73
11
 74
0
 42
0.0000001
 43
0.0000001
 44
0.0000000001
 40
0.0
 40
0.0
 40
0.0
 40
0.0
 40
0.384612831
 40
0.5574776165
 40
0.7077806401
 40
0.8307297551
 40
0.9218771821
 40
0.9784466904
 40
0.9933947225
 40
1.0
 40
1.0
 40
1.0
 40
1.0
 10
237.8599653796
 20
125.1156204268
 30
0.0
 10
237.9114891395
 20
125.0047537544
 30
0.0
 10
237.984855811
 20
124.8434733345
 30
0.0
 10
238.0749034938
 20
124.637215247
 30
0.0
 10
238.1299054111
 20
124.5067016266
 30
0.0
 10
238.1731587999
 20
124.3987070877
 30
0.0
 10
238.2027389904
 20
124.3191661088
 30
0.0
 10
238.2187420584
 20
124.267732493
 30
0.0
 10
238.2230309696
 20
124.2453991448
 30
0.0
 10
238.2226730259
 20
124.2367045916
 30
0.0
 10
238.2207711174
 20
124.2358152318
 30
0.0
  0
SPLINE
  5
625
100
AcDbEntity
  8
0
100
AcDbSpline
 62
7
  6
CONTINUOUS
 70
0
 71
3
 72
8
 73
4
 74
0
 42
0.0000001
 43
0.0000001
 44
0.0000000001
 40
0.0
 40
0.0
 40
0.0
 40
0.0
 40
1.0
 40
1.0
 40
1.0
 40
1.0
 10
110.8906239387
 20
51.8093688861
 30
0.0
 10
110.8806183296
 20
51.8236219646
 30
0.0
 10
110.8660915429
 20
51.8350721349
 30
0.0
 10
110.8504974981
 20
51.8428237945
 30
0.0
  0
SPLINE
  5
626
100
AcDbEntity
  8
0
100
AcDbSpline
 62
7
  6
CONTINUOUS
 70
0
 71
3
 72
15
 73
11
 74
0
 42
0.0000001
 43
0.0000001
 44
0.0000000001
 40
0.0
 40
0.0
 40
0.0
 40
0.0
 40
0.3846087004
 40
0.5574715334
 40
0.7077720847
 40
0.8307187873
 40
0.9218660833
 40
0.9784397747
 40
0.9933915427
 40
1.0
 40
1.0
 40
1.0
 40
1.0
 10
110.8903604303
 20
51.809679699
 30
0.0
 10
110.9605847523
 20
51.7096070569
 30
0.0
 10
111.0635793986
 20
51.5654335493
 30
0.0
 10
111.1971745497
 20
51.3843185335
 30
0.0
 10
111.2826793541
 20
51.2714132741
 30
0.0
 10
111.3545593861
 20
51.1799437002
 30
0.0
 10
111.408664115
 20
51.1145615614
 30
0.0
 10
111.4452289907
 20
51.0750045226
 30
0.0
 10
111.4624462241
 20
51.0601388426
 30
0.0
 10
111.4701580812
 20
51.0561060351
 30
0.0
 10
111.4718800499
 20
51.0573090909
 30
0.0
  0
SPLINE
  5
627
100
AcDbEntity
  8
0
100
AcDbSpline
 62
7
  6
CONTINUOUS
 70
0
 71
3
 72
8
 73
4
 74
0
 42
0.0000001
 43
0.0000001
 44
0.0000000001
 40
0.0
 40
0.0
 40
0.0
 40
0.0
 40
1.0
 40
1.0
 40
1.0
 40
1.0
 10
237.8600660308
 20
125.1153397411
 30
0.0
 10
237.8527425683
 20
125.1310967035
 30
0.0
 10
237.8501030733
 20
125.1493626398
 30
0.0
 10
237.8511845508
 20
125.1667046516
 30
0.0
  0
SPLINE
  5
628
100
AcDbEntity
  8
0
100
AcDbSpline
 62
7
  6
CONTINUOUS
 70
0
 71
3
 72
8
 73
4
 74
0
 42
0.0000001
 43
0.0000001
 44
0.0000000001
 40
0.0
 40
0.0
 40
0.0
 40
0.0
 40
1.0
 40
1.0
 40
1.0
 40
1.0
 10
202.1222183108
 20
253.1701908242
 30
0.0
 10
202.2249599856
 20
253.2197357512
 30
0.0
 10
202.3204969253
 20
253.2880152653
 30
0.0
 10
202.4005171117
 20
253.3693006963
 30
0.0
  0
SPLINE
  5
629
100
AcDbEntity
  8
0
100
AcDbSpline
 62
7
  6
CONTINUOUS
 70
0
 71
3
 72
8
 73
4
 74
0
 42
0.0000001
 43
0.0000001
 44
0.0000000001
 40
0.0
 40
0.0
 40
0.0
 40
0.0
 40
1.0
 40
1.0
 40
1.0
 40
1.0
 10
202.5112633809
 20
253.503277952
 30
0.0
 10
202.6237495933
 20
253.6664125091
 30
0.0
 10
202.6877445411
 20
253.8727416734
 30
0.0
 10
202.6879029753
 20
254.0708981939
 30
0.0
  0
SPLINE
  5
62A
100
AcDbEntity
  8
0
100
AcDbSpline
 62
7
  6
CONTINUOUS
 70
0
 71
3
 72
8
 73
4
 74
0
 42
0.0000001
 43
0.0000001
 44
0.0000000001
 40
0.0
 40
0.0
 40
0.0
 40
0.0
 40
1.0
 40
1.0
 40
1.0
 40
1.0
 10
202.6704037697
 20
261.3564195546
 30
0.0
 10
202.6475191453
 20
261.4771987195
 30
0.0
 10
202.60133785
 20
261.5956601181
 30
0.0
 10
202.5362271962
 20
261.699928596
 30
0.0
  0
SPLINE
  5
62B
100
AcDbEntity
  8
0
100
AcDbSpline
 62
7
  6
CONTINUOUS
 70
0
 71
3
 72
8
 73
4
 74
0
 42
0.0000001
 43
0.0000001
 44
0.0000000001
 40
0.0
 40
0.0
 40
0.0
 40
0.0
 40
1.0
 40
1.0
 40
1.0
 40
1.0
 10
202.5362271962
 20
261.699928596
 30
0.0
 10
202.4712107498
 20
261.8040462097
 30
0.0
 10
202.3853096112
 20
261.8975092575
 30
0.0
 10
202.2870329458
 20
261.9710572883
 30
0.0
  0
SPLINE
  5
62C
100
AcDbEntity
  8
0
100
AcDbSpline
 62
7
  6
CONTINUOUS
 70
0
 71
3
 72
8
 73
4
 74
0
 42
0.0000001
 43
0.0000001
 44
0.0000000001
 40
0.0
 40
0.0
 40
0.0
 40
0.0
 40
1.0
 40
1.0
 40
1.0
 40
1.0
 10
202.2870329458
 20
261.9710572883
 30
0.0
 10
202.1897839157
 20
262.04383626
 30
0.0
 10
202.0772001385
 20
262.0993693292
 30
0.0
 10
201.9603282206
 20
262.1324617358
 30
0.0
  0
SPLINE
  5
62D
100
AcDbEntity
  8
0
100
AcDbSpline
 62
7
  6
CONTINUOUS
 70
0
 71
3
 72
8
 73
4
 74
0
 42
0.0000001
 43
0.0000001
 44
0.0000000001
 40
0.0
 40
0.0
 40
0.0
 40
0.0
 40
1.0
 40
1.0
 40
1.0
 40
1.0
 10
97.9213863403
 20
253.1701908242
 30
0.0
 10
97.8186446655
 20
253.2197357512
 30
0.0
 10
97.7231077259
 20
253.2880152653
 30
0.0
 10
97.6430875395
 20
253.3693006963
 30
0.0
  0
SPLINE
  5
62E
100
AcDbEntity
  8
0
100
AcDbSpline
 62
7
  6
CONTINUOUS
 70
0
 71
3
 72
8
 73
4
 74
0
 42
0.0000001
 43
0.0000001
 44
0.0000000001
 40
0.0
 40
0.0
 40
0.0
 40
0.0
 40
1.0
 40
1.0
 40
1.0
 40
1.0
 10
97.5323412703
 20
253.503277952
 30
0.0
 10
97.4198550578
 20
253.6664125091
 30
0.0
 10
97.3558601101
 20
253.8727416734
 30
0.0
 10
97.3557016758
 20
254.0708981939
 30
0.0
  0
SPLINE
  5
62F
100
AcDbEntity
  8
0
100
AcDbSpline
 62
7
  6
CONTINUOUS
 70
0
 71
3
 72
8
 73
4
 74
0
 42
0.0000001
 43
0.0000001
 44
0.0000000001
 40
0.0
 40
0.0
 40
0.0
 40
0.0
 40
1.0
 40
1.0
 40
1.0
 40
1.0
 10
97.3732008815
 20
261.3564195546
 30
0.0
 10
97.3960855059
 20
261.4771987195
 30
0.0
 10
97.4422668012
 20
261.5956601181
 30
0.0
 10
97.507377455
 20
261.699928596
 30
0.0
  0
SPLINE
  5
630
100
AcDbEntity
  8
0
100
AcDbSpline
 62
7
  6
CONTINUOUS
 70
0
 71
3
 72
8
 73
4
 74
0
 42
0.0000001
 43
0.0000001
 44
0.0000000001
 40
0.0
 40
0.0
 40
0.0
 40
0.0
 40
1.0
 40
1.0
 40
1.0
 40
1.0
 10
97.507377455
 20
261.699928596
 30
0.0
 10
97.5723939014
 20
261.8040462097
 30
0.0
 10
97.6582950399
 20
261.8975092575
 30
0.0
 10
97.7565717054
 20
261.9710572883
 30
0.0
  0
SPLINE
  5
631
100
AcDbEntity
  8
0
100
AcDbSpline
 62
7
  6
CONTINUOUS
 70
0
 71
3
 72
8
 73
4
 74
0
 42
0.0000001
 43
0.0000001
 44
0.0000000001
 40
0.0
 40
0.0
 40
0.0
 40
0.0
 40
1.0
 40
1.0
 40
1.0
 40
1.0
 10
97.7565717054
 20
261.9710572883
 30
0.0
 10
97.8538207353
 20
262.0438362599
 30
0.0
 10
97.9664045124
 20
262.099369329
 30
0.0
 10
98.0832764301
 20
262.1324617356
 30
0.0
  0
LINE
  5
632
100
AcDbEntity
  8
0
100
AcDbLine
 62
7
  6
CONTINUOUS
 10
59.9167930912
 20
262.8862486483
 11
60.0098928726
 21
262.8959114496
  0
SPLINE
  5
633
100
AcDbEntity
  8
0
100
AcDbSpline
 62
7
  6
CONTINUOUS
 70
0
 71
3
 72
9
 73
5
 74
0
 42
0.0000001
 43
0.0000001
 44
0.0000000001
 40
0.0
 40
0.0
 40
0.0
 40
0.0
 40
0.2564861328
 40
1.0
 40
1.0
 40
1.0
 40
1.0
 10
60.0098928726
 20
262.8959114496
 30
0.0
 10
60.1821170204
 20
262.9137807346
 30
0.0
 10
60.8536055651
 20
262.9833241223
 30
0.0
 10
61.5251493162
 20
263.0523359085
 30
0.0
 10
62.0244978601
 20
263.1031905212
 30
0.0
  0
LINE
  5
634
100
AcDbEntity
  8
0
100
AcDbLine
 62
7
  6
CONTINUOUS
 10
62.0244978601
 20
263.1031905212
 11
62.18353486
 21
263.1193711186
  0
SPLINE
  5
635
100
AcDbEntity
  8
0
100
AcDbSpline
 62
7
  6
CONTINUOUS
 70
0
 71
3
 72
9
 73
5
 74
0
 42
0.0000001
 43
0.0000001
 44
0.0000000001
 40
0.0
 40
0.0
 40
0.0
 40
0.0
 40
0.2564371119
 40
1.0
 40
1.0
 40
1.0
 40
1.0
 10
59.9413848388
 20
252.3524778196
 30
0.0
 10
60.1195959162
 20
252.3339788119
 30
0.0
 10
60.8145603045
 20
252.2619751409
 30
0.0
 10
61.5095814641
 20
252.1905176423
 30
0.0
 10
62.0264239755
 20
252.137881489
 30
0.0
  0
LINE
  5
636
100
AcDbEntity
  8
0
100
AcDbLine
 62
7
  6
CONTINUOUS
 10
62.0264239755
 20
252.137881489
 11
62.1840376238
 21
252.1218463107
  0
SPLINE
  5
637
100
AcDbEntity
  8
0
100
AcDbSpline
 62
7
  6
CONTINUOUS
 70
0
 71
3
 72
9
 73
5
 74
0
 42
0.0000001
 43
0.0000001
 44
0.0000000001
 40
0.0
 40
0.0
 40
0.0
 40
0.0
 40
0.3056132883
 40
1.0
 40
1.0
 40
1.0
 40
1.0
 10
71.1866604639
 20
252.1219427415
 30
0.0
 10
71.1901275247
 20
252.1217303041
 30
0.0
 10
71.2014746122
 20
252.1210930308
 30
0.0
 10
71.2128384573
 20
252.1206395349
 30
0.0
 10
71.2207307712
 20
252.1206395349
 30
0.0
  0
SPLINE
  5
638
100
AcDbEntity
  8
0
100
AcDbSpline
 62
7
  6
CONTINUOUS
 70
0
 71
3
 72
9
 73
5
 74
0
 42
0.0000001
 43
0.0000001
 44
0.0000000001
 40
0.0
 40
0.0
 40
0.0
 40
0.0
 40
0.3065064051
 40
1.0
 40
1.0
 40
1.0
 40
1.0
 10
228.8559891293
 20
252.1218932706
 30
0.0
 10
228.8526094476
 20
252.1216862391
 30
0.0
 10
228.8415805392
 20
252.1210662884
 30
0.0
 10
228.8305349957
 20
252.1206395349
 30
0.0
 10
228.8228738799
 20
252.1206395349
 30
0.0
  0
LINE
  5
639
100
AcDbEntity
  8
0
100
AcDbLine
 62
7
  6
CONTINUOUS
 10
237.8600660308
 20
263.1193718836
 11
238.0182380124
 21
263.1032791176
  0
SPLINE
  5
63A
100
AcDbEntity
  8
0
100
AcDbSpline
 62
7
  6
CONTINUOUS
 70
0
 71
3
 72
9
 73
5
 74
0
 42
0.0000001
 43
0.0000001
 44
0.0000000001
 40
0.0
 40
0.0
 40
0.0
 40
0.0
 40
0.305743187
 40
1.0
 40
1.0
 40
1.0
 40
1.0
 10
71.1865339495
 20
263.1193279071
 30
0.0
 10
71.1900153804
 20
263.1195411957
 30
0.0
 10
71.2014044945
 20
263.1201834147
 30
0.0
 10
71.2128105986
 20
263.1206395349
 30
0.0
 10
71.2207307712
 20
263.1206395349
 30
0.0
  0
SPLINE
  5
63B
100
AcDbEntity
  8
0
100
AcDbSpline
 62
7
  6
CONTINUOUS
 70
0
 71
3
 72
9
 73
5
 74
0
 42
0.0000001
 43
0.0000001
 44
0.0000000001
 40
0.0
 40
0.0
 40
0.0
 40
0.0
 40
0.3068462617
 40
1.0
 40
1.0
 40
1.0
 40
1.0
 10
228.8554722244
 20
263.1194135967
 30
0.0
 10
228.8521416357
 20
263.119617611
 30
0.0
 10
228.841284859
 20
263.1202265795
 30
0.0
 10
228.8304116516
 20
263.1206395349
 30
0.0
 10
228.8228738799
 20
263.1206395349
 30
0.0
  0
SPLINE
  5
63C
100
AcDbEntity
  8
0
100
AcDbSpline
 62
7
  6
CONTINUOUS
 70
0
 71
3
 72
9
 73
5
 74
0
 42
0.0000001
 43
0.0000001
 44
0.0000000001
 40
0.0
 40
0.0
 40
0.0
 40
0.0
 40
0.4996552433
 40
1.0
 40
1.0
 40
1.0
 40
1.0
 10
101.315100176
 20
252.1218936466
 30
0.0
 10
101.1854623833
 20
252.1284178308
 30
0.0
 10
100.9262074647
 20
252.194171166
 30
0.0
 10
100.7122119961
 20
252.3546856218
 30
0.0
 10
100.6256702116
 20
252.451667966
 30
0.0
  0
SPLINE
  5
63D
100
AcDbEntity
  8
0
100
AcDbSpline
 62
7
  6
CONTINUOUS
 70
0
 71
3
 72
8
 73
4
 74
0
 42
0.0000001
 43
0.0000001
 44
0.0000000001
 40
0.0
 40
0.0
 40
0.0
 40
0.0
 40
1.0
 40
1.0
 40
1.0
 40
1.0
 10
101.3150959712
 20
263.1193851585
 30
0.0
 10
101.1220883738
 20
263.1096708214
 30
0.0
 10
100.9244802566
 20
263.0381716639
 30
0.0
 10
100.7699124235
 20
262.9221756038
 30
0.0
  0
SPLINE
  5
63E
100
AcDbEntity
  8
0
100
AcDbSpline
 62
7
  6
CONTINUOUS
 70
0
 71
3
 72
8
 73
4
 74
0
 42
0.0000001
 43
0.0000001
 44
0.0000000001
 40
0.0
 40
0.0
 40
0.0
 40
0.0
 40
1.0
 40
1.0
 40
1.0
 40
1.0
 10
198.7285101424
 20
252.1218940071
 30
0.0
 10
198.9203483586
 20
252.1315498104
 30
0.0
 10
199.1166901568
 20
252.2021886373
 30
0.0
 10
199.2707525235
 20
252.3169053444
 30
0.0
  0
SPLINE
  5
63F
100
AcDbEntity
  8
0
100
AcDbSpline
 62
7
  6
CONTINUOUS
 70
0
 71
3
 72
9
 73
5
 74
0
 42
0.0000001
 43
0.0000001
 44
0.0000000001
 40
0.0
 40
0.0
 40
0.0
 40
0.0
 40
0.4996518124
 40
1.0
 40
1.0
 40
1.0
 40
1.0
 10
198.7285052403
 20
263.1193853683
 30
0.0
 10
198.8579824141
 20
263.1128691131
 30
0.0
 10
199.1169134689
 20
263.0472610477
 30
0.0
 10
199.3307518135
 20
262.8871194274
 30
0.0
 10
199.4172832358
 20
262.7903413633
 30
0.0
  0
LINE
  5
640
100
AcDbEntity
  8
0
100
AcDbLine
 62
7
  6
CONTINUOUS
 10
237.8600324284
 20
252.1219031901
 11
238.0182461346
 21
252.1379996209
  0
SPLINE
  5
641
100
AcDbEntity
  8
0
100
AcDbSpline
 62
7
  6
CONTINUOUS
 70
0
 71
3
 72
9
 73
5
 74
0
 42
0.0000001
 43
0.0000001
 44
0.0000000001
 40
0.0
 40
0.0
 40
0.0
 40
0.0
 40
0.1190809965
 40
1.0
 40
1.0
 40
1.0
 40
1.0
 10
76.7159033491
 20
252.1219021203
 30
0.0
 10
76.7152793892
 20
252.1215480301
 30
0.0
 10
76.7091776039
 20
252.1205727687
 30
0.0
 10
76.703228761
 20
252.1206395349
 30
0.0
 10
76.6979214684
 20
252.1206395349
 30
0.0
  0
SPLINE
  5
642
100
AcDbEntity
  8
0
100
AcDbSpline
 62
7
  6
CONTINUOUS
 70
0
 71
3
 72
9
 73
5
 74
0
 42
0.0000001
 43
0.0000001
 44
0.0000000001
 40
0.0
 40
0.0
 40
0.0
 40
0.0
 40
0.2074223414
 40
1.0
 40
1.0
 40
1.0
 40
1.0
 10
110.8906301002
 20
252.1219108585
 30
0.0
 10
110.8878639174
 20
252.1216694354
 30
0.0
 10
110.8745033477
 20
252.1207912896
 30
0.0
 10
110.8611074877
 20
252.1206395349
 30
0.0
 10
110.8504974981
 20
252.1206395349
 30
0.0
  0
SPLINE
  5
643
100
AcDbEntity
  8
0
100
AcDbSpline
 62
7
  6
CONTINUOUS
 70
0
 71
3
 72
8
 73
4
 74
0
 42
0.0000001
 43
0.0000001
 44
0.0000000001
 40
0.0
 40
0.0
 40
0.0
 40
0.0
 40
1.0
 40
1.0
 40
1.0
 40
1.0
 10
155.5503568772
 20
252.1219056249
 30
0.0
 10
155.5332565156
 20
252.120960038
 30
0.0
 10
155.5161195082
 20
252.1206395349
 30
0.0
 10
155.4989930228
 20
252.1206395349
 30
0.0
  0
SPLINE
  5
644
100
AcDbEntity
  8
0
100
AcDbSpline
 62
7
  6
CONTINUOUS
 70
0
 71
3
 72
8
 73
4
 74
0
 42
0.0000001
 43
0.0000001
 44
0.0000000001
 40
0.0
 40
0.0
 40
0.0
 40
0.0
 40
1.0
 40
1.0
 40
1.0
 40
1.0
 10
144.4940490637
 20
252.1218726745
 30
0.0
 10
144.5108825618
 20
252.1209421036
 30
0.0
 10
144.5277524285
 20
252.1206395349
 30
0.0
 10
144.5446116284
 20
252.1206395349
 30
0.0
  0
SPLINE
  5
645
100
AcDbEntity
  8
0
100
AcDbSpline
 62
7
  6
CONTINUOUS
 70
0
 71
3
 72
9
 73
5
 74
0
 42
0.0000001
 43
0.0000001
 44
0.0000000001
 40
0.0
 40
0.0
 40
0.0
 40
0.0
 40
0.2074032477
 40
1.0
 40
1.0
 40
1.0
 40
1.0
 10
189.1530662369
 20
252.1219055289
 30
0.0
 10
189.155825843
 20
252.1216647014
 30
0.0
 10
189.1691559292
 20
252.1207893195
 30
0.0
 10
189.1825211666
 20
252.1206395349
 30
0.0
 10
189.1931071531
 20
252.1206395349
 30
0.0
  0
SPLINE
  5
646
100
AcDbEntity
  8
0
100
AcDbSpline
 62
7
  6
CONTINUOUS
 70
0
 71
3
 72
9
 73
5
 74
0
 42
0.0000001
 43
0.0000001
 44
0.0000000001
 40
0.0
 40
0.0
 40
0.0
 40
0.0
 40
0.1189751361
 40
1.0
 40
1.0
 40
1.0
 40
1.0
 10
223.3276601429
 20
252.1219107421
 30
0.0
 10
223.3282849766
 20
252.1215561041
 30
0.0
 10
223.3343983326
 20
252.1205691619
 30
0.0
 10
223.3403628994
 20
252.1206395349
 30
0.0
 10
223.3456831827
 20
252.1206395349
 30
0.0
  0
SPLINE
  5
647
100
AcDbEntity
  8
0
100
AcDbSpline
 62
7
  6
CONTINUOUS
 70
0
 71
3
 72
9
 73
5
 74
0
 42
0.0000001
 43
0.0000001
 44
0.0000000001
 40
0.0
 40
0.0
 40
0.0
 40
0.0
 40
0.2153161285
 40
1.0
 40
1.0
 40
1.0
 40
1.0
 10
237.8599653796
 20
263.119385056
 30
0.0
 10
237.8779437281
 20
263.1172463043
 30
0.0
 10
237.9600918082
 20
263.0935605732
 30
0.0
 10
238.0209115075
 20
263.0248958109
 30
0.0
 10
238.0565204385
 20
262.9693484555
 30
0.0
  0
SPLINE
  5
648
100
AcDbEntity
  8
0
100
AcDbSpline
 62
7
  6
CONTINUOUS
 70
0
 71
3
 72
9
 73
5
 74
0
 42
0.0000001
 43
0.0000001
 44
0.0000000001
 40
0.0
 40
0.0
 40
0.0
 40
0.0
 40
0.4427500884
 40
1.0
 40
1.0
 40
1.0
 40
1.0
 10
238.0565204385
 20
262.9693484555
 30
0.0
 10
238.1260370997
 20
262.8609074947
 30
0.0
 10
238.2107803124
 20
262.5738123729
 30
0.0
 10
238.2275136546
 20
262.2826208453
 30
0.0
 10
238.2207711174
 20
262.1206395349
 30
0.0
  0
SPLINE
  5
649
100
AcDbEntity
  8
0
100
AcDbSpline
 62
7
  6
CONTINUOUS
 70
0
 71
3
 72
9
 73
5
 74
0
 42
0.0000001
 43
0.0000001
 44
0.0000000001
 40
0.0
 40
0.0
 40
0.0
 40
0.0
 40
0.2152726642
 40
1.0
 40
1.0
 40
1.0
 40
1.0
 10
62.1836639235
 20
252.1218946205
 30
0.0
 10
62.1656859577
 20
252.1240341318
 30
0.0
 10
62.083524982
 20
252.1477295072
 30
0.0
 10
62.0226855614
 20
252.2163881535
 30
0.0
 10
61.9870477759
 20
252.2719359156
 30
0.0
  0
SPLINE
  5
64A
100
AcDbEntity
  8
0
100
AcDbSpline
 62
7
  6
CONTINUOUS
 70
0
 71
3
 72
9
 73
5
 74
0
 42
0.0000001
 43
0.0000001
 44
0.0000000001
 40
0.0
 40
0.0
 40
0.0
 40
0.0
 40
0.4427819577
 40
1.0
 40
1.0
 40
1.0
 40
1.0
 10
61.9870477759
 20
252.2719359156
 30
0.0
 10
61.917485279
 20
252.3803613125
 30
0.0
 10
61.8326144158
 20
252.6674516342
 30
0.0
 10
61.8161095319
 20
252.9586644417
 30
0.0
 10
61.8228502356
 20
253.1206395349
 30
0.0
  0
SPLINE
  5
64B
100
AcDbEntity
  8
0
100
AcDbSpline
 62
7
  6
CONTINUOUS
 70
0
 71
3
 72
9
 73
5
 74
0
 42
0.0000001
 43
0.0000001
 44
0.0000000001
 40
0.0
 40
0.0
 40
0.0
 40
0.0
 40
0.2153346759
 40
1.0
 40
1.0
 40
1.0
 40
1.0
 10
62.1836515934
 20
263.1193848158
 30
0.0
 10
62.1656701582
 20
263.1172460442
 30
0.0
 10
62.0835136902
 20
263.0935628828
 30
0.0
 10
62.0226892332
 20
263.0248931962
 30
0.0
 10
61.9870721901
 20
262.9693463674
 30
0.0
  0
SPLINE
  5
64C
100
AcDbEntity
  8
0
100
AcDbSpline
 62
7
  6
CONTINUOUS
 70
0
 71
3
 72
9
 73
5
 74
0
 42
0.0000001
 43
0.0000001
 44
0.0000000001
 40
0.0
 40
0.0
 40
0.0
 40
0.0
 40
0.442764022
 40
1.0
 40
1.0
 40
1.0
 40
1.0
 10
61.9870721901
 20
262.9693463674
 30
0.0
 10
61.9175410401
 20
262.8609085365
 30
0.0
 10
61.8327323996
 20
262.5738215267
 30
0.0
 10
61.8161002466
 20
262.2826182533
 30
0.0
 10
61.8228418235
 20
262.1206395349
 30
0.0
  0
SPLINE
  5
64D
100
AcDbEntity
  8
0
100
AcDbSpline
 62
7
  6
CONTINUOUS
 70
0
 71
3
 72
14
 73
10
 74
0
 42
0.0000001
 43
0.0000001
 44
0.0000000001
 40
0.0
 40
0.0
 40
0.0
 40
0.0
 40
0.0322274374
 40
0.0965921422
 40
0.1923366643
 40
0.3166623773
 40
0.4651845795
 40
0.6331651588
 40
1.0
 40
1.0
 40
1.0
 40
1.0
 10
76.7158690968
 20
252.1218942547
 30
0.0
 10
76.7253186017
 20
252.1272654148
 30
0.0
 10
76.7377620984
 20
252.1612573842
 30
0.0
 10
76.7551572724
 20
252.2211009527
 30
0.0
 10
76.7723374001
 20
252.3168907733
 30
0.0
 10
76.7897849718
 20
252.4394540523
 30
0.0
 10
76.8061980035
 20
252.5874315304
 30
0.0
 10
76.8265662702
 20
252.8169307278
 30
0.0
 10
76.8376392145
 20
252.9970466548
 30
0.0
 10
76.8432961428
 20
253.1206395349
 30
0.0
  0
SPLINE
  5
64E
100
AcDbEntity
  8
0
100
AcDbSpline
 62
7
  6
CONTINUOUS
 70
0
 71
3
 72
14
 73
10
 74
0
 42
0.0000001
 43
0.0000001
 44
0.0000000001
 40
0.0
 40
0.0
 40
0.0
 40
0.0
 40
0.0322345935
 40
0.0965979368
 40
0.1923408752
 40
0.316665934
 40
0.4651875518
 40
0.6331672066
 40
1.0
 40
1.0
 40
1.0
 40
1.0
 10
76.7158661452
 20
263.1193848806
 30
0.0
 10
76.7253217766
 20
263.1140194926
 30
0.0
 10
76.7377789407
 20
263.0800243273
 30
0.0
 10
76.7551619856
 20
263.0201784699
 30
0.0
 10
76.7723405898
 20
262.9243881537
 30
0.0
 10
76.7897898083
 20
262.801825748
 30
0.0
 10
76.806206418
 20
262.6538483788
 30
0.0
 10
76.826571712
 20
262.4243487585
 30
0.0
 10
76.8376380894
 20
262.2442324218
 30
0.0
 10
76.8432955124
 20
262.1206395349
 30
0.0
  0
SPLINE
  5
64F
100
AcDbEntity
  8
0
100
AcDbSpline
 62
7
  6
CONTINUOUS
 70
0
 71
3
 72
9
 73
5
 74
0
 42
0.0000001
 43
0.0000001
 44
0.0000000001
 40
0.0
 40
0.0
 40
0.0
 40
0.0
 40
0.1188693372
 40
1.0
 40
1.0
 40
1.0
 40
1.0
 10
76.7159245581
 20
263.1193711233
 30
0.0
 10
76.715300919
 20
263.1197249602
 30
0.0
 10
76.7091950863
 20
263.1207130459
 30
0.0
 10
76.7032364944
 20
263.1206395349
 30
0.0
 10
76.6979214684
 20
263.1206395349
 30
0.0
  0
SPLINE
  5
650
100
AcDbEntity
  8
0
100
AcDbSpline
 62
7
  6
CONTINUOUS
 70
0
 71
3
 72
9
 73
5
 74
0
 42
0.0000001
 43
0.0000001
 44
0.0000000001
 40
0.0
 40
0.0
 40
0.0
 40
0.0
 40
0.2410109596
 40
1.0
 40
1.0
 40
1.0
 40
1.0
 10
110.8903639828
 20
252.1218943901
 30
0.0
 10
110.9024992148
 20
252.1229537399
 30
0.0
 10
110.9525958995
 20
252.1302259219
 30
0.0
 10
111.0007539523
 20
252.1486705986
 30
0.0
 10
111.0345490116
 20
252.1668226421
 30
0.0
  0
SPLINE
  5
651
100
AcDbEntity
  8
0
100
AcDbSpline
 62
7
  6
CONTINUOUS
 70
0
 71
3
 72
9
 73
5
 74
0
 42
0.0000001
 43
0.0000001
 44
0.0000000001
 40
0.0
 40
0.0
 40
0.0
 40
0.0
 40
0.2370611742
 40
1.0
 40
1.0
 40
1.0
 40
1.0
 10
111.0345490116
 20
252.1668226421
 30
0.0
 10
111.0465212678
 20
252.173253195
 30
0.0
 10
111.0958003873
 20
252.2026466539
 30
0.0
 10
111.139865835
 20
252.2403877
 30
0.0
 10
111.1701601649
 20
252.2719339271
 30
0.0
  0
SPLINE
  5
652
100
AcDbEntity
  8
0
100
AcDbSpline
 62
7
  6
CONTINUOUS
 70
0
 71
3
 72
9
 73
5
 74
0
 42
0.0000001
 43
0.0000001
 44
0.0000000001
 40
0.0
 40
0.0
 40
0.0
 40
0.0
 40
0.4600392796
 40
1.0
 40
1.0
 40
1.0
 40
1.0
 10
111.1701601649
 20
252.2719339271
 30
0.0
 10
111.2672480706
 20
252.3730339393
 30
0.0
 10
111.4129299907
 20
252.6527051298
 30
0.0
 10
111.4656888802
 20
252.9562361734
 30
0.0
 10
111.4718798446
 20
253.1206395349
 30
0.0
  0
SPLINE
  5
653
100
AcDbEntity
  8
0
100
AcDbSpline
 62
7
  6
CONTINUOUS
 70
0
 71
3
 72
8
 73
4
 74
0
 42
0.0000001
 43
0.0000001
 44
0.0000000001
 40
0.0
 40
0.0
 40
0.0
 40
0.0
 40
1.0
 40
1.0
 40
1.0
 40
1.0
 10
144.4935355029
 20
252.1218937815
 30
0.0
 10
144.4167482869
 20
252.1261387862
 30
0.0
 10
144.3399554152
 20
252.1417887519
 30
0.0
 10
144.2672384975
 20
252.1668196623
 30
0.0
  0
SPLINE
  5
654
100
AcDbEntity
  8
0
100
AcDbSpline
 62
7
  6
CONTINUOUS
 70
0
 71
3
 72
9
 73
5
 74
0
 42
0.0000001
 43
0.0000001
 44
0.0000000001
 40
0.0
 40
0.0
 40
0.0
 40
0.0
 40
0.4916958613
 40
1.0
 40
1.0
 40
1.0
 40
1.0
 10
144.0569187564
 20
252.2719283723
 30
0.0
 10
143.9231812657
 20
252.3623302477
 30
0.0
 10
143.6986027032
 20
252.6225382179
 30
0.0
 10
143.6169699358
 20
252.9537930148
 30
0.0
 10
143.6137219236
 20
253.1206395349
 30
0.0
  0
SPLINE
  5
655
100
AcDbEntity
  8
0
100
AcDbSpline
 62
7
  6
CONTINUOUS
 70
0
 71
3
 72
9
 73
5
 74
0
 42
0.0000001
 43
0.0000001
 44
0.0000000001
 40
0.0
 40
0.0
 40
0.0
 40
0.0
 40
0.24100839
 40
1.0
 40
1.0
 40
1.0
 40
1.0
 10
110.8903604303
 20
263.1193847766
 30
0.0
 10
110.9024956392
 20
263.1183254642
 30
0.0
 10
110.9525927741
 20
263.1110533324
 30
0.0
 10
111.0007512342
 20
263.0926086923
 30
0.0
 10
111.0345469577
 20
263.0744569218
 30
0.0
  0
SPLINE
  5
656
100
AcDbEntity
  8
0
100
AcDbSpline
 62
7
  6
CONTINUOUS
 70
0
 71
3
 72
9
 73
5
 74
0
 42
0.0000001
 43
0.0000001
 44
0.0000000001
 40
0.0
 40
0.0
 40
0.0
 40
0.0
 40
0.2370590907
 40
1.0
 40
1.0
 40
1.0
 40
1.0
 10
111.0345469577
 20
263.0744569218
 30
0.0
 10
111.0465196109
 20
263.0680263788
 30
0.0
 10
111.0958009237
 20
263.0386327752
 30
0.0
 10
111.1398690015
 20
263.000892008
 30
0.0
 10
111.1701660155
 20
262.9693461205
 30
0.0
  0
SPLINE
  5
657
100
AcDbEntity
  8
0
100
AcDbSpline
 62
7
  6
CONTINUOUS
 70
0
 71
3
 72
9
 73
5
 74
0
 42
0.0000001
 43
0.0000001
 44
0.0000000001
 40
0.0
 40
0.0
 40
0.0
 40
0.0
 40
0.4600459458
 40
1.0
 40
1.0
 40
1.0
 40
1.0
 10
111.1701660155
 20
262.9693461205
 30
0.0
 10
111.2672609955
 20
262.8682487872
 30
0.0
 10
111.412969763
 20
262.5885835098
 30
0.0
 10
111.4656887657
 20
262.2850419521
 30
0.0
 10
111.4718800499
 20
262.1206395349
 30
0.0
  0
SPLINE
  5
658
100
AcDbEntity
  8
0
100
AcDbSpline
 62
7
  6
CONTINUOUS
 70
0
 71
3
 72
9
 73
5
 74
0
 42
0.0000001
 43
0.0000001
 44
0.0000000001
 40
0.0
 40
0.0
 40
0.0
 40
0.0
 40
0.2073949679
 40
1.0
 40
1.0
 40
1.0
 40
1.0
 10
110.8906239387
 20
263.1193681941
 30
0.0
 10
110.887858543
 20
263.1196095319
 30
0.0
 10
110.8745000782
 20
263.1204883834
 30
0.0
 10
110.8611062295
 20
263.1206395349
 30
0.0
 10
110.8504974981
 20
263.1206395349
 30
0.0
  0
SPLINE
  5
659
100
AcDbEntity
  8
0
100
AcDbSpline
 62
7
  6
CONTINUOUS
 70
0
 71
3
 72
8
 73
4
 74
0
 42
0.0000001
 43
0.0000001
 44
0.0000000001
 40
0.0
 40
0.0
 40
0.0
 40
0.0
 40
1.0
 40
1.0
 40
1.0
 40
1.0
 10
144.4936665693
 20
263.119389992
 30
0.0
 10
144.5106274636
 20
263.1203276594
 30
0.0
 10
144.5276248348
 20
263.1206395349
 30
0.0
 10
144.5446116284
 20
263.1206395349
 30
0.0
  0
SPLINE
  5
65A
100
AcDbEntity
  8
0
100
AcDbSpline
 62
7
  6
CONTINUOUS
 70
0
 71
3
 72
8
 73
4
 74
0
 42
0.0000001
 43
0.0000001
 44
0.0000000001
 40
0.0
 40
0.0
 40
0.0
 40
0.0
 40
1.0
 40
1.0
 40
1.0
 40
1.0
 10
144.4935312548
 20
263.1193851694
 30
0.0
 10
144.4167443922
 20
263.1151399867
 30
0.0
 10
144.3399518456
 20
263.0994900153
 30
0.0
 10
144.2672353954
 20
263.0744588004
 30
0.0
  0
SPLINE
  5
65B
100
AcDbEntity
  8
0
100
AcDbSpline
 62
7
  6
CONTINUOUS
 70
0
 71
3
 72
9
 73
5
 74
0
 42
0.0000001
 43
0.0000001
 44
0.0000000001
 40
0.0
 40
0.0
 40
0.0
 40
0.0
 40
0.4916911512
 40
1.0
 40
1.0
 40
1.0
 40
1.0
 10
144.056920728
 20
262.9693494976
 30
0.0
 10
143.9231872416
 20
262.8789462441
 30
0.0
 10
143.6986260319
 20
262.6187320999
 30
0.0
 10
143.6169696562
 20
262.2874865722
 30
0.0
 10
143.6137218439
 20
262.1206395349
 30
0.0
  0
SPLINE
  5
65C
100
AcDbEntity
  8
0
100
AcDbSpline
 62
7
  6
CONTINUOUS
 70
0
 71
3
 72
8
 73
4
 74
0
 42
0.0000001
 43
0.0000001
 44
0.0000000001
 40
0.0
 40
0.0
 40
0.0
 40
0.0
 40
1.0
 40
1.0
 40
1.0
 40
1.0
 10
155.5500892228
 20
252.1218943476
 30
0.0
 10
155.6268720259
 20
252.1261404604
 30
0.0
 10
155.703660247
 20
252.1417913255
 30
0.0
 10
155.7763725006
 20
252.1668224361
 30
0.0
  0
SPLINE
  5
65D
100
AcDbEntity
  8
0
100
AcDbSpline
 62
7
  6
CONTINUOUS
 70
0
 71
3
 72
9
 73
5
 74
0
 42
0.0000001
 43
0.0000001
 44
0.0000000001
 40
0.0
 40
0.0
 40
0.0
 40
0.0
 40
0.4916766922
 40
1.0
 40
1.0
 40
1.0
 40
1.0
 10
155.9866756451
 20
252.2719335216
 30
0.0
 10
156.1203977281
 20
252.3623398392
 30
0.0
 10
156.3449032988
 20
252.6225750274
 30
0.0
 10
156.4266369604
 20
252.9537908107
 30
0.0
 10
156.4298834945
 20
253.1206395349
 30
0.0
  0
SPLINE
  5
65E
100
AcDbEntity
  8
0
100
AcDbSpline
 62
7
  6
CONTINUOUS
 70
0
 71
3
 72
9
 73
5
 74
0
 42
0.0000001
 43
0.0000001
 44
0.0000000001
 40
0.0
 40
0.0
 40
0.0
 40
0.0
 40
0.2410096484
 40
1.0
 40
1.0
 40
1.0
 40
1.0
 10
189.1532454526
 20
252.121894261
 30
0.0
 10
189.1411100643
 20
252.1229535575
 30
0.0
 10
189.0910124382
 20
252.1302255876
 30
0.0
 10
189.0428534631
 20
252.1486702236
 30
0.0
 10
189.0090574169
 20
252.1668220161
 30
0.0
  0
SPLINE
  5
65F
100
AcDbEntity
  8
0
100
AcDbSpline
 62
7
  6
CONTINUOUS
 70
0
 71
3
 72
9
 73
5
 74
0
 42
0.0000001
 43
0.0000001
 44
0.0000000001
 40
0.0
 40
0.0
 40
0.0
 40
0.0
 40
0.2370586303
 40
1.0
 40
1.0
 40
1.0
 40
1.0
 10
189.0090574169
 20
252.1668220161
 30
0.0
 10
188.9970846761
 20
252.1732525526
 30
0.0
 10
188.9478028878
 20
252.2026461917
 30
0.0
 10
188.9037342853
 20
252.2403869368
 30
0.0
 10
188.8734366442
 20
252.2719327071
 30
0.0
  0
SPLINE
  5
660
100
AcDbEntity
  8
0
100
AcDbSpline
 62
7
  6
CONTINUOUS
 70
0
 71
3
 72
9
 73
5
 74
0
 42
0.0000001
 43
0.0000001
 44
0.0000000001
 40
0.0
 40
0.0
 40
0.0
 40
0.0
 40
0.4600478747
 40
1.0
 40
1.0
 40
1.0
 40
1.0
 10
188.8734366442
 20
252.2719327071
 30
0.0
 10
188.7763398438
 20
252.3730294675
 30
0.0
 10
188.630622968
 20
252.6526927017
 30
0.0
 10
188.5779157973
 20
252.9562374067
 30
0.0
 10
188.5717243429
 20
253.1206395349
 30
0.0
  0
SPLINE
  5
661
100
AcDbEntity
  8
0
100
AcDbSpline
 62
7
  6
CONTINUOUS
 70
0
 71
3
 72
8
 73
4
 74
0
 42
0.0000001
 43
0.0000001
 44
0.0000000001
 40
0.0
 40
0.0
 40
0.0
 40
0.0
 40
1.0
 40
1.0
 40
1.0
 40
1.0
 10
155.5500892572
 20
263.1193847145
 30
0.0
 10
155.6268733805
 20
263.1151387377
 30
0.0
 10
155.7036631244
 20
263.0994883981
 30
0.0
 10
155.7763765539
 20
263.0744566765
 30
0.0
  0
SPLINE
  5
662
100
AcDbEntity
  8
0
100
AcDbSpline
 62
7
  6
CONTINUOUS
 70
0
 71
3
 72
9
 73
5
 74
0
 42
0.0000001
 43
0.0000001
 44
0.0000000001
 40
0.0
 40
0.0
 40
0.0
 40
0.0
 40
0.4916745192
 40
1.0
 40
1.0
 40
1.0
 40
1.0
 10
155.9866752557
 20
262.9693454424
 30
0.0
 10
156.1203951459
 20
262.8789378965
 30
0.0
 10
156.3448941741
 20
262.6187008854
 30
0.0
 10
156.4266363602
 20
262.2874885379
 30
0.0
 10
156.4298831672
 20
262.1206395349
 30
0.0
  0
SPLINE
  5
663
100
AcDbEntity
  8
0
100
AcDbSpline
 62
7
  6
CONTINUOUS
 70
0
 71
3
 72
8
 73
4
 74
0
 42
0.0000001
 43
0.0000001
 44
0.0000000001
 40
0.0
 40
0.0
 40
0.0
 40
0.0
 40
1.0
 40
1.0
 40
1.0
 40
1.0
 10
155.5508154453
 20
263.1193531918
 30
0.0
 10
155.5335623409
 20
263.1203072261
 30
0.0
 10
155.5162724844
 20
263.1206395349
 30
0.0
 10
155.4989930228
 20
263.1206395349
 30
0.0
  0
SPLINE
  5
664
100
AcDbEntity
  8
0
100
AcDbSpline
 62
7
  6
CONTINUOUS
 70
0
 71
3
 72
9
 73
5
 74
0
 42
0.0000001
 43
0.0000001
 44
0.0000000001
 40
0.0
 40
0.0
 40
0.0
 40
0.0
 40
0.2073003084
 40
1.0
 40
1.0
 40
1.0
 40
1.0
 10
189.1528156036
 20
263.1193566975
 30
0.0
 10
189.1555911291
 20
263.1195988941
 30
0.0
 10
189.1690042102
 20
263.1204871381
 30
0.0
 10
189.1824534353
 20
263.1206395349
 30
0.0
 10
189.1931071531
 20
263.1206395349
 30
0.0
  0
SPLINE
  5
665
100
AcDbEntity
  8
0
100
AcDbSpline
 62
7
  6
CONTINUOUS
 70
0
 71
3
 72
9
 73
5
 74
0
 42
0.0000001
 43
0.0000001
 44
0.0000000001
 40
0.0
 40
0.0
 40
0.0
 40
0.0
 40
0.2410393453
 40
1.0
 40
1.0
 40
1.0
 40
1.0
 10
189.1532509559
 20
263.1193849183
 30
0.0
 10
189.1411128031
 20
263.1183257245
 30
0.0
 10
189.0910097979
 20
263.1110551307
 30
0.0
 10
189.0428448625
 20
263.0926106548
 30
0.0
 10
189.0090467278
 20
263.0744576437
 30
0.0
  0
SPLINE
  5
666
100
AcDbEntity
  8
0
100
AcDbSpline
 62
7
  6
CONTINUOUS
 70
0
 71
3
 72
9
 73
5
 74
0
 42
0.0000001
 43
0.0000001
 44
0.0000000001
 40
0.0
 40
0.0
 40
0.0
 40
0.0
 40
0.237060039
 40
1.0
 40
1.0
 40
1.0
 40
1.0
 10
189.0090467278
 20
263.0744576437
 30
0.0
 10
188.9970742455
 20
263.0680272118
 30
0.0
 10
188.9477940224
 20
263.0386338058
 30
0.0
 10
188.9037279703
 20
263.0008924483
 30
0.0
 10
188.8734315403
 20
262.9693472244
 30
0.0
  0
SPLINE
  5
667
100
AcDbEntity
  8
0
100
AcDbSpline
 62
7
  6
CONTINUOUS
 70
0
 71
3
 72
9
 73
5
 74
0
 42
0.0000001
 43
0.0000001
 44
0.0000000001
 40
0.0
 40
0.0
 40
0.0
 40
0.0
 40
0.4600503229
 40
1.0
 40
1.0
 40
1.0
 40
1.0
 10
188.8734315403
 20
262.9693472244
 30
0.0
 10
188.7763351879
 20
262.8682486402
 30
0.0
 10
188.630602211
 20
262.5885923189
 30
0.0
 10
188.5779185132
 20
262.2850411883
 30
0.0
 10
188.5717261922
 20
262.1206395349
 30
0.0
  0
SPLINE
  5
668
100
AcDbEntity
  8
0
100
AcDbSpline
 62
7
  6
CONTINUOUS
 70
0
 71
3
 72
14
 73
10
 74
0
 42
0.0000001
 43
0.0000001
 44
0.0000000001
 40
0.0
 40
0.0
 40
0.0
 40
0.0
 40
0.0322258348
 40
0.0965904878
 40
0.1923348294
 40
0.3166602832
 40
0.4651826404
 40
0.633163878
 40
1.0
 40
1.0
 40
1.0
 40
1.0
 10
223.3277324504
 20
252.1218943151
 30
0.0
 10
223.3182843411
 20
252.127266765
 30
0.0
 10
223.3058442712
 20
252.1612580853
 30
0.0
 10
223.2884486584
 20
252.2211013398
 30
0.0
 10
223.2712731658
 20
252.3168913626
 30
0.0
 10
223.2538327038
 20
252.4394552048
 30
0.0
 10
223.2374241913
 20
252.5874327997
 30
0.0
 10
223.2170490541
 20
252.8169312525
 30
0.0
 10
223.2059641407
 20
252.9970466157
 30
0.0
 10
223.2003074033
 20
253.1206395349
 30
0.0
  0
SPLINE
  5
669
100
AcDbEntity
  8
0
100
AcDbSpline
 62
7
  6
CONTINUOUS
 70
0
 71
3
 72
9
 73
5
 74
0
 42
0.0000001
 43
0.0000001
 44
0.0000000001
 40
0.0
 40
0.0
 40
0.0
 40
0.0
 40
0.2153665853
 40
1.0
 40
1.0
 40
1.0
 40
1.0
 10
237.8599600208
 20
252.1218941971
 30
0.0
 10
237.8779439976
 20
252.1240327125
 30
0.0
 10
237.9601015599
 20
252.1477100718
 30
0.0
 10
238.0209233997
 20
252.2163849829
 30
0.0
 10
238.0565336948
 20
252.2719321294
 30
0.0
  0
SPLINE
  5
66A
100
AcDbEntity
  8
0
100
AcDbSpline
 62
7
  6
CONTINUOUS
 70
0
 71
3
 72
9
 73
5
 74
0
 42
0.0000001
 43
0.0000001
 44
0.0000000001
 40
0.0
 40
0.0
 40
0.0
 40
0.0
 40
0.4427580065
 40
1.0
 40
1.0
 40
1.0
 40
1.0
 10
238.0565336948
 20
252.2719321294
 30
0.0
 10
238.1260539535
 20
252.3803741402
 30
0.0
 10
238.2108414089
 20
252.6674600765
 30
0.0
 10
238.2275109428
 20
252.9586598233
 30
0.0
 10
238.2207695909
 20
253.1206395349
 30
0.0
  0
SPLINE
  5
66B
100
AcDbEntity
  8
0
100
AcDbSpline
 62
7
  6
CONTINUOUS
 70
0
 71
3
 72
9
 73
5
 74
0
 42
0.0000001
 43
0.0000001
 44
0.0000000001
 40
0.0
 40
0.0
 40
0.0
 40
0.0
 40
0.1191058663
 40
1.0
 40
1.0
 40
1.0
 40
1.0
 10
223.3276490699
 20
263.1193674364
 30
0.0
 10
223.3282748725
 20
263.119722851
 30
0.0
 10
223.3343935194
 20
263.1207056012
 30
0.0
 10
223.3403604601
 20
263.1206395349
 30
0.0
 10
223.3456831827
 20
263.1206395349
 30
0.0
  0
SPLINE
  5
66C
100
AcDbEntity
  8
0
100
AcDbSpline
 62
7
  6
CONTINUOUS
 70
0
 71
3
 72
14
 73
10
 74
0
 42
0.0000001
 43
0.0000001
 44
0.0000000001
 40
0.0
 40
0.0
 40
0.0
 40
0.0
 40
0.0322253711
 40
0.0965883055
 40
0.1923301712
 40
0.316653779
 40
0.4651763368
 40
0.6331598062
 40
1.0
 40
1.0
 40
1.0
 40
1.0
 10
223.3277265435
 20
263.1193845289
 30
0.0
 10
223.318278885
 20
263.1140118185
 30
0.0
 10
223.3058415482
 20
263.0800202283
 30
0.0
 10
223.2884565777
 20
263.0201761882
 30
0.0
 10
223.2713048757
 20
262.9243846922
 30
0.0
 10
223.253896381
 20
262.8018191041
 30
0.0
 10
223.2375055016
 20
262.6538410773
 30
0.0
 10
223.2171006502
 20
262.4243457584
 30
0.0
 10
223.2059658549
 20
262.2442326524
 30
0.0
 10
223.2003099907
 20
262.1206395349
 30
0.0
  0
SPLINE
  5
66D
100
AcDbEntity
  8
0
100
AcDbSpline
 62
7
  6
CONTINUOUS
 70
0
 71
3
 72
8
 73
4
 74
0
 42
0.0000001
 43
0.0000001
 44
0.0000000001
 40
0.0
 40
0.0
 40
0.0
 40
0.0
 40
1.0
 40
1.0
 40
1.0
 40
1.0
 10
312.8387954754
 20
78.5434793636
 30
0.0
 10
312.8883404024
 20
78.4407376888
 30
0.0
 10
312.9566199165
 20
78.3452007492
 30
0.0
 10
313.0379053475
 20
78.2651805627
 30
0.0
  0
SPLINE
  5
66E
100
AcDbEntity
  8
0
100
AcDbSpline
 62
7
  6
CONTINUOUS
 70
0
 71
3
 72
8
 73
4
 74
0
 42
0.0000001
 43
0.0000001
 44
0.0000000001
 40
0.0
 40
0.0
 40
0.0
 40
0.0
 40
1.0
 40
1.0
 40
1.0
 40
1.0
 10
313.1718826032
 20
78.1544342935
 30
0.0
 10
313.3350171603
 20
78.0419480811
 30
0.0
 10
313.5413463246
 20
77.9779531334
 30
0.0
 10
313.739502845
 20
77.9777946991
 30
0.0
  0
SPLINE
  5
66F
100
AcDbEntity
  8
0
100
AcDbSpline
 62
7
  6
CONTINUOUS
 70
0
 71
3
 72
8
 73
4
 74
0
 42
0.0000001
 43
0.0000001
 44
0.0000000001
 40
0.0
 40
0.0
 40
0.0
 40
0.0
 40
1.0
 40
1.0
 40
1.0
 40
1.0
 10
321.0250242058
 20
77.9952939047
 30
0.0
 10
321.1458033707
 20
78.0181785292
 30
0.0
 10
321.2642647693
 20
78.0643598244
 30
0.0
 10
321.3685332471
 20
78.1294704782
 30
0.0
  0
SPLINE
  5
670
100
AcDbEntity
  8
0
100
AcDbSpline
 62
7
  6
CONTINUOUS
 70
0
 71
3
 72
8
 73
4
 74
0
 42
0.0000001
 43
0.0000001
 44
0.0000000001
 40
0.0
 40
0.0
 40
0.0
 40
0.0
 40
1.0
 40
1.0
 40
1.0
 40
1.0
 10
321.3685332471
 20
78.1294704782
 30
0.0
 10
321.4726508609
 20
78.1944869246
 30
0.0
 10
321.5661139087
 20
78.2803880632
 30
0.0
 10
321.6396619394
 20
78.3786647286
 30
0.0
  0
SPLINE
  5
671
100
AcDbEntity
  8
0
100
AcDbSpline
 62
7
  6
CONTINUOUS
 70
0
 71
3
 72
8
 73
4
 74
0
 42
0.0000001
 43
0.0000001
 44
0.0000000001
 40
0.0
 40
0.0
 40
0.0
 40
0.0
 40
1.0
 40
1.0
 40
1.0
 40
1.0
 10
321.6396619394
 20
78.3786647286
 30
0.0
 10
321.7124409113
 20
78.4759137588
 30
0.0
 10
321.7679739805
 20
78.5884975362
 30
0.0
 10
321.8010663871
 20
78.7053694543
 30
0.0
  0
SPLINE
  5
672
100
AcDbEntity
  8
0
100
AcDbSpline
 62
7
  6
CONTINUOUS
 70
0
 71
3
 72
8
 73
4
 74
0
 42
0.0000001
 43
0.0000001
 44
0.0000000001
 40
0.0
 40
0.0
 40
0.0
 40
0.0
 40
1.0
 40
1.0
 40
1.0
 40
1.0
 10
312.8387954754
 20
182.7443113341
 30
0.0
 10
312.8883404024
 20
182.8470530089
 30
0.0
 10
312.9566199165
 20
182.9425899485
 30
0.0
 10
313.0379053475
 20
183.0226101349
 30
0.0
  0
SPLINE
  5
673
100
AcDbEntity
  8
0
100
AcDbSpline
 62
7
  6
CONTINUOUS
 70
0
 71
3
 72
8
 73
4
 74
0
 42
0.0000001
 43
0.0000001
 44
0.0000000001
 40
0.0
 40
0.0
 40
0.0
 40
0.0
 40
1.0
 40
1.0
 40
1.0
 40
1.0
 10
313.1718826032
 20
183.1333564042
 30
0.0
 10
313.3350171603
 20
183.2458426166
 30
0.0
 10
313.5413463246
 20
183.3098375643
 30
0.0
 10
313.739502845
 20
183.3099959986
 30
0.0
  0
SPLINE
  5
674
100
AcDbEntity
  8
0
100
AcDbSpline
 62
7
  6
CONTINUOUS
 70
0
 71
3
 72
8
 73
4
 74
0
 42
0.0000001
 43
0.0000001
 44
0.0000000001
 40
0.0
 40
0.0
 40
0.0
 40
0.0
 40
1.0
 40
1.0
 40
1.0
 40
1.0
 10
321.0250242058
 20
183.2924967929
 30
0.0
 10
321.1458033707
 20
183.2696121685
 30
0.0
 10
321.2642647693
 20
183.2234308732
 30
0.0
 10
321.3685332471
 20
183.1583202195
 30
0.0
  0
SPLINE
  5
675
100
AcDbEntity
  8
0
100
AcDbSpline
 62
7
  6
CONTINUOUS
 70
0
 71
3
 72
8
 73
4
 74
0
 42
0.0000001
 43
0.0000001
 44
0.0000000001
 40
0.0
 40
0.0
 40
0.0
 40
0.0
 40
1.0
 40
1.0
 40
1.0
 40
1.0
 10
321.3685332471
 20
183.1583202195
 30
0.0
 10
321.4726508609
 20
183.0933037731
 30
0.0
 10
321.5661139087
 20
183.0074026345
 30
0.0
 10
321.6396619394
 20
182.909125969
 30
0.0
  0
SPLINE
  5
676
100
AcDbEntity
  8
0
100
AcDbSpline
 62
7
  6
CONTINUOUS
 70
0
 71
3
 72
8
 73
4
 74
0
 42
0.0000001
 43
0.0000001
 44
0.0000000001
 40
0.0
 40
0.0
 40
0.0
 40
0.0
 40
1.0
 40
1.0
 40
1.0
 40
1.0
 10
321.6396619394
 20
182.909125969
 30
0.0
 10
321.7124409112
 20
182.811876939
 30
0.0
 10
321.7679739803
 20
182.6992931618
 30
0.0
 10
321.8010663869
 20
182.5824212438
 30
0.0
  0
SPLINE
  5
677
100
AcDbEntity
  8
0
100
AcDbSpline
 62
7
  6
CONTINUOUS
 70
0
 71
3
 72
9
 73
5
 74
0
 42
0.0000001
 43
0.0000001
 44
0.0000000001
 40
0.0
 40
0.0
 40
0.0
 40
0.0
 40
0.2566164327
 40
1.0
 40
1.0
 40
1.0
 40
1.0
 10
322.5543113285
 20
220.75410696
 30
0.0
 10
322.5730813128
 20
220.5733136562
 30
0.0
 10
322.6460971893
 20
219.8687729866
 30
0.0
 10
322.7185320067
 20
219.1641719254
 30
0.0
 10
322.7718803114
 20
218.640332359
 30
0.0
  0
LINE
  5
678
100
AcDbEntity
  8
0
100
AcDbLine
 62
7
  6
CONTINUOUS
 10
322.7718803114
 20
218.640332359
 11
322.7879576492
 21
218.4823102318
  0
SPLINE
  5
679
100
AcDbEntity
  8
0
100
AcDbSpline
 62
7
  6
CONTINUOUS
 70
0
 71
3
 72
9
 73
5
 74
0
 42
0.0000001
 43
0.0000001
 44
0.0000000001
 40
0.0
 40
0.0
 40
0.0
 40
0.0
 40
0.2565553188
 40
1.0
 40
1.0
 40
1.0
 40
1.0
 10
312.0218300432
 20
220.7314863307
 30
0.0
 10
312.0032691267
 20
220.5526714041
 30
0.0
 10
311.9310463778
 20
219.8556746723
 30
0.0
 10
311.8593864479
 20
219.1586194445
 30
0.0
 10
311.8066055603
 20
218.6403471539
 30
0.0
  0
LINE
  5
67A
100
AcDbEntity
  8
0
100
AcDbLine
 62
7
  6
CONTINUOUS
 10
311.8066055603
 20
218.6403471539
 11
311.7905100634
 21
218.4821424901
  0
SPLINE
  5
67B
100
AcDbEntity
  8
0
100
AcDbSpline
 62
7
  6
CONTINUOUS
 70
0
 71
3
 72
9
 73
5
 74
0
 42
0.0000001
 43
0.0000001
 44
0.0000000001
 40
0.0
 40
0.0
 40
0.0
 40
0.0
 40
0.3062514894
 40
1.0
 40
1.0
 40
1.0
 40
1.0
 10
311.7905099807
 20
209.4783188464
 30
0.0
 10
311.7903016239
 20
209.4749178307
 30
0.0
 10
311.7896776883
 20
209.4638100534
 30
0.0
 10
311.789244186
 20
209.4526856353
 30
0.0
 10
311.789244186
 20
209.4449669032
 30
0.0
  0
SPLINE
  5
67C
100
AcDbEntity
  8
0
100
AcDbSpline
 62
7
  6
CONTINUOUS
 70
0
 71
3
 72
9
 73
5
 74
0
 42
0.0000001
 43
0.0000001
 44
0.0000000001
 40
0.0
 40
0.0
 40
0.0
 40
0.0
 40
0.3061587504
 40
1.0
 40
1.0
 40
1.0
 40
1.0
 10
311.7905155096
 20
51.809366011
 30
0.0
 10
311.7903065478
 20
51.812776791
 30
0.0
 10
311.7896806239
 20
51.823919826
 30
0.0
 10
311.789244186
 20
51.8350795212
 30
0.0
 10
311.789244186
 20
51.8428237945
 30
0.0
  0
SPLINE
  5
67D
100
AcDbEntity
  8
0
100
AcDbSpline
 62
7
  6
CONTINUOUS
 70
0
 71
3
 72
9
 73
5
 74
0
 42
0.0000001
 43
0.0000001
 44
0.0000000001
 40
0.0
 40
0.0
 40
0.0
 40
0.0
 40
0.3061200863
 40
1.0
 40
1.0
 40
1.0
 40
1.0
 10
322.787961218
 20
209.478628536
 30
0.0
 10
322.7881714155
 20
209.4751973931
 30
0.0
 10
322.7888026397
 20
209.4639865195
 30
0.0
 10
322.789244186
 20
209.4527588274
 30
0.0
 10
322.789244186
 20
209.4449669032
 30
0.0
  0
SPLINE
  5
67E
100
AcDbEntity
  8
0
100
AcDbSpline
 62
7
  6
CONTINUOUS
 70
0
 71
3
 72
9
 73
5
 74
0
 42
0.0000001
 43
0.0000001
 44
0.0000000001
 40
0.0
 40
0.0
 40
0.0
 40
0.0
 40
0.4996498133
 40
1.0
 40
1.0
 40
1.0
 40
1.0
 10
311.7904989657
 20
179.3506082281
 30
0.0
 10
311.7970250526
 20
179.4802520869
 30
0.0
 10
311.8627869872
 20
179.7395212066
 30
0.0
 10
312.0233160807
 20
179.9535253632
 30
0.0
 10
312.120307097
 20
180.0400709258
 30
0.0
  0
SPLINE
  5
67F
100
AcDbEntity
  8
0
100
AcDbSpline
 62
7
  6
CONTINUOUS
 70
0
 71
3
 72
8
 73
4
 74
0
 42
0.0000001
 43
0.0000001
 44
0.0000000001
 40
0.0
 40
0.0
 40
0.0
 40
0.0
 40
1.0
 40
1.0
 40
1.0
 40
1.0
 10
322.7879891806
 20
179.3506122088
 30
0.0
 10
322.7782722104
 20
179.5436271106
 30
0.0
 10
322.7067662039
 20
179.7412413821
 30
0.0
 10
322.5907637647
 20
179.8958137144
 30
0.0
  0
SPLINE
  5
680
100
AcDbEntity
  8
0
100
AcDbSpline
 62
7
  6
CONTINUOUS
 70
0
 71
3
 72
8
 73
4
 74
0
 42
0.0000001
 43
0.0000001
 44
0.0000000001
 40
0.0
 40
0.0
 40
0.0
 40
0.0
 40
1.0
 40
1.0
 40
1.0
 40
1.0
 10
311.7904989059
 20
81.9371833853
 30
0.0
 10
311.800154987
 20
81.7453566648
 30
0.0
 10
311.8707859042
 20
81.549027899
 30
0.0
 10
311.9854895944
 20
81.394970137
 30
0.0
  0
SPLINE
  5
681
100
AcDbEntity
  8
0
100
AcDbSpline
 62
7
  6
CONTINUOUS
 70
0
 71
3
 72
9
 73
5
 74
0
 42
0.0000001
 43
0.0000001
 44
0.0000000001
 40
0.0
 40
0.0
 40
0.0
 40
0.0
 40
0.4996463511
 40
1.0
 40
1.0
 40
1.0
 40
1.0
 10
322.7879895317
 20
81.9371844265
 30
0.0
 10
322.7814732265
 20
81.8077305709
 30
0.0
 10
322.7158835917
 20
81.5488447639
 30
0.0
 10
322.5557956977
 20
81.3350266182
 30
0.0
 10
322.4590462309
 20
81.2484939451
 30
0.0
  0
LINE
  5
682
100
AcDbEntity
  8
0
100
AcDbLine
 62
7
  6
CONTINUOUS
 10
311.7904773257
 20
42.8059105619
 11
311.8066315324
 21
42.6471346175
  0
SPLINE
  5
683
100
AcDbEntity
  8
0
100
AcDbSpline
 62
7
  6
CONTINUOUS
 70
0
 71
3
 72
9
 73
5
 74
0
 42
0.0000001
 43
0.0000001
 44
0.0000000001
 40
0.0
 40
0.0
 40
0.0
 40
0.0
 40
0.3061851704
 40
1.0
 40
1.0
 40
1.0
 40
1.0
 10
322.7879728452
 20
51.8093688861
 30
0.0
 10
322.7881818022
 20
51.8127796684
 30
0.0
 10
322.7888079242
 20
51.8239217339
 30
0.0
 10
322.789244186
 20
51.8350804799
 30
0.0
 10
322.789244186
 20
51.8428237945
 30
0.0
  0
LINE
  5
684
100
AcDbEntity
  8
0
100
AcDbLine
 62
7
  6
CONTINUOUS
 10
322.7879946432
 20
42.8057780645
 11
322.7718544583
 21
42.647139793
  0
SPLINE
  5
685
100
AcDbEntity
  8
0
100
AcDbSpline
 62
7
  6
CONTINUOUS
 70
0
 71
3
 72
9
 73
5
 74
0
 42
0.0000001
 43
0.0000001
 44
0.0000000001
 40
0.0
 40
0.0
 40
0.0
 40
0.0
 40
0.1187220849
 40
1.0
 40
1.0
 40
1.0
 40
1.0
 10
311.7905610953
 20
203.9495221224
 30
0.0
 10
311.7902022325
 20
203.950153518
 30
0.0
 10
311.7891639
 20
203.95633572
 30
0.0
 10
311.789244186
 20
203.962385209
 30
0.0
 10
311.789244186
 20
203.967776206
 30
0.0
  0
SPLINE
  5
686
100
AcDbEntity
  8
0
100
AcDbSpline
 62
7
  6
CONTINUOUS
 70
0
 71
3
 72
9
 73
5
 74
0
 42
0.0000001
 43
0.0000001
 44
0.0000000001
 40
0.0
 40
0.0
 40
0.0
 40
0.0
 40
0.2073415843
 40
1.0
 40
1.0
 40
1.0
 40
1.0
 10
311.7905541118
 20
169.7744589501
 30
0.0
 10
311.790309108
 20
169.7772660338
 30
0.0
 10
311.7894053274
 20
169.7908284949
 30
0.0
 10
311.789244186
 20
169.804428012
 30
0.0
 10
311.789244186
 20
169.8152001763
 30
0.0
  0
SPLINE
  5
687
100
AcDbEntity
  8
0
100
AcDbSpline
 62
7
  6
CONTINUOUS
 70
0
 71
3
 72
8
 73
4
 74
0
 42
0.0000001
 43
0.0000001
 44
0.0000000001
 40
0.0
 40
0.0
 40
0.0
 40
0.0
 40
1.0
 40
1.0
 40
1.0
 40
1.0
 10
311.7904509619
 20
125.1166435762
 30
0.0
 10
311.7895292395
 20
125.133309981
 30
0.0
 10
311.789244186
 20
125.1500127788
 30
0.0
 10
311.789244186
 20
125.1667046516
 30
0.0
  0
SPLINE
  5
688
100
AcDbEntity
  8
0
100
AcDbSpline
 62
7
  6
CONTINUOUS
 70
0
 71
3
 72
8
 73
4
 74
0
 42
0.0000001
 43
0.0000001
 44
0.0000000001
 40
0.0
 40
0.0
 40
0.0
 40
0.0
 40
1.0
 40
1.0
 40
1.0
 40
1.0
 10
311.7905153962
 20
136.1725620206
 30
0.0
 10
311.7895677604
 20
136.155424311
 30
0.0
 10
311.789244186
 20
136.1382499356
 30
0.0
 10
311.789244186
 20
136.121086046
 30
0.0
  0
SPLINE
  5
689
100
AcDbEntity
  8
0
100
AcDbSpline
 62
7
  6
CONTINUOUS
 70
0
 71
3
 72
9
 73
5
 74
0
 42
0.0000001
 43
0.0000001
 44
0.0000000001
 40
0.0
 40
0.0
 40
0.0
 40
0.0
 40
0.2075475863
 40
1.0
 40
1.0
 40
1.0
 40
1.0
 10
311.7905473927
 20
91.5132740128
 30
0.0
 10
311.7903024221
 20
91.5104681443
 30
0.0
 10
311.7894079334
 20
91.4969244029
 30
0.0
 10
311.789244186
 20
91.4833445634
 30
0.0
 10
311.789244186
 20
91.4725905214
 30
0.0
  0
SPLINE
  5
68A
100
AcDbEntity
  8
0
100
AcDbSpline
 62
7
  6
CONTINUOUS
 70
0
 71
3
 72
9
 73
5
 74
0
 42
0.0000001
 43
0.0000001
 44
0.0000000001
 40
0.0
 40
0.0
 40
0.0
 40
0.0
 40
0.119535362
 40
1.0
 40
1.0
 40
1.0
 40
1.0
 10
311.7904594543
 20
57.3377620328
 30
0.0
 10
311.7901091356
 20
57.3371437388
 30
0.0
 10
311.789192414
 20
57.3311103621
 30
0.0
 10
311.789244186
 20
57.3252488783
 30
0.0
 10
311.789244186
 20
57.3200144917
 30
0.0
  0
SPLINE
  5
68B
100
AcDbEntity
  8
0
100
AcDbSpline
 62
7
  6
CONTINUOUS
 70
0
 71
3
 72
9
 73
5
 74
0
 42
0.0000001
 43
0.0000001
 44
0.0000000001
 40
0.0
 40
0.0
 40
0.0
 40
0.0
 40
0.2153665938
 40
1.0
 40
1.0
 40
1.0
 40
1.0
 10
311.7904989986
 20
218.4820483321
 30
0.0
 10
311.7926376086
 20
218.5000332154
 30
0.0
 10
311.8163154198
 20
218.5821951297
 30
0.0
 10
311.8849913535
 20
218.6430205916
 30
0.0
 10
311.9405381708
 20
218.6786375451
 30
0.0
  0
SPLINE
  5
68C
100
AcDbEntity
  8
0
100
AcDbSpline
 62
7
  6
CONTINUOUS
 70
0
 71
3
 72
9
 73
5
 74
0
 42
0.0000001
 43
0.0000001
 44
0.0000000001
 40
0.0
 40
0.0
 40
0.0
 40
0.0
 40
0.4427675345
 40
1.0
 40
1.0
 40
1.0
 40
1.0
 10
311.9405381708
 20
218.6786375451
 30
0.0
 10
312.0489771152
 20
218.7481692488
 30
0.0
 10
312.3360589724
 20
218.8329991188
 30
0.0
 10
312.6272661773
 20
218.8496024135
 30
0.0
 10
312.789244186
 20
218.8428618753
 30
0.0
  0
SPLINE
  5
68D
100
AcDbEntity
  8
0
100
AcDbSpline
 62
7
  6
CONTINUOUS
 70
0
 71
3
 72
9
 73
5
 74
0
 42
0.0000001
 43
0.0000001
 44
0.0000000001
 40
0.0
 40
0.0
 40
0.0
 40
0.0
 40
0.2153363161
 40
1.0
 40
1.0
 40
1.0
 40
1.0
 10
322.7879893646
 20
218.4820485685
 30
0.0
 10
322.7858505469
 20
218.5000307873
 30
0.0
 10
322.762167386
 20
218.582190487
 30
0.0
 10
322.6934965042
 20
218.6430171056
 30
0.0
 10
322.6379500832
 20
218.6786388876
 30
0.0
  0
SPLINE
  5
68E
100
AcDbEntity
  8
0
100
AcDbSpline
 62
7
  6
CONTINUOUS
 70
0
 71
3
 72
9
 73
5
 74
0
 42
0.0000001
 43
0.0000001
 44
0.0000000001
 40
0.0
 40
0.0
 40
0.0
 40
0.0
 40
0.4427713561
 40
1.0
 40
1.0
 40
1.0
 40
1.0
 10
322.6379500832
 20
218.6786388876
 30
0.0
 10
322.5295143031
 20
218.7481784844
 30
0.0
 10
322.242430954
 20
218.833020764
 30
0.0
 10
321.9512216878
 20
218.8496032318
 30
0.0
 10
321.789244186
 20
218.842862565
 30
0.0
  0
SPLINE
  5
68F
100
AcDbEntity
  8
0
100
AcDbSpline
 62
7
  6
CONTINUOUS
 70
0
 71
3
 72
14
 73
10
 74
0
 42
0.0000001
 43
0.0000001
 44
0.0000000001
 40
0.0
 40
0.0
 40
0.0
 40
0.0
 40
0.0322154836
 40
0.0965786655
 40
0.1923199993
 40
0.3166423148
 40
0.4651656898
 40
0.6331527166
 40
1.0
 40
1.0
 40
1.0
 40
1.0
 10
311.7904995053
 20
203.9498008046
 30
0.0
 10
311.7958803675
 20
203.9403618492
 30
0.0
 10
311.829867539
 20
203.9279450516
 30
0.0
 10
311.8897094524
 20
203.9105539391
 30
0.0
 10
311.985501843
 20
203.8934256557
 30
0.0
 10
312.108070649
 20
203.8760551769
 30
0.0
 10
312.2560493486
 20
203.8596896224
 30
0.0
 10
312.4855407688
 20
203.8392493916
 30
0.0
 10
312.665650843
 20
203.828051057
 30
0.0
 10
312.789244186
 20
203.8223963692
 30
0.0
  0
SPLINE
  5
690
100
AcDbEntity
  8
0
100
AcDbSpline
 62
7
  6
CONTINUOUS
 70
0
 71
3
 72
14
 73
10
 74
0
 42
0.0000001
 43
0.0000001
 44
0.0000000001
 40
0.0
 40
0.0
 40
0.0
 40
0.0
 40
0.0322321432
 40
0.0965976288
 40
0.1923432616
 40
0.3166699966
 40
0.4651915846
 40
0.6331697422
 40
1.0
 40
1.0
 40
1.0
 40
1.0
 10
322.7879897021
 20
203.9498371813
 30
0.0
 10
322.7826220791
 20
203.9403836939
 30
0.0
 10
322.7486286926
 20
203.9279294767
 30
0.0
 10
322.6887843959
 20
203.9105318135
 30
0.0
 10
322.5929954898
 20
203.8933329721
 30
0.0
 10
322.4704340415
 20
203.8758590838
 30
0.0
 10
322.3224569344
 20
203.8594303686
 30
0.0
 10
322.0929549165
 20
203.8390881882
 30
0.0
 10
321.912836932
 20
203.8280590553
 30
0.0
 10
321.789244186
 20
203.8224010255
 30
0.0
  0
SPLINE
  5
691
100
AcDbEntity
  8
0
100
AcDbSpline
 62
7
  6
CONTINUOUS
 70
0
 71
3
 72
9
 73
5
 74
0
 42
0.0000001
 43
0.0000001
 44
0.0000000001
 40
0.0
 40
0.0
 40
0.0
 40
0.0
 40
0.1189381108
 40
1.0
 40
1.0
 40
1.0
 40
1.0
 10
322.7879854815
 20
203.9498218142
 30
0.0
 10
322.78833843
 20
203.9504441708
 30
0.0
 10
322.7893153455
 20
203.9565355053
 30
0.0
 10
322.789244186
 20
203.9624761782
 30
0.0
 10
322.789244186
 20
203.967776206
 30
0.0
  0
SPLINE
  5
692
100
AcDbEntity
  8
0
100
AcDbSpline
 62
7
  6
CONTINUOUS
 70
0
 71
3
 72
9
 73
5
 74
0
 42
0.0000001
 43
0.0000001
 44
0.0000000001
 40
0.0
 40
0.0
 40
0.0
 40
0.0
 40
0.2410130092
 40
1.0
 40
1.0
 40
1.0
 40
1.0
 10
311.7904991245
 20
169.7753301825
 30
0.0
 10
311.7915585078
 20
169.7631948866
 30
0.0
 10
311.7988307404
 20
169.7130983754
 30
0.0
 10
311.8172753935
 20
169.6649404215
 30
0.0
 10
311.8354277028
 20
169.631145755
 30
0.0
  0
SPLINE
  5
693
100
AcDbEntity
  8
0
100
AcDbSpline
 62
7
  6
CONTINUOUS
 70
0
 71
3
 72
9
 73
5
 74
0
 42
0.0000001
 43
0.0000001
 44
0.0000000001
 40
0.0
 40
0.0
 40
0.0
 40
0.0
 40
0.2370640589
 40
1.0
 40
1.0
 40
1.0
 40
1.0
 10
311.8354277028
 20
169.631145755
 30
0.0
 10
311.8418582569
 20
169.619173811
 30
0.0
 10
311.8712514486
 20
169.5698966941
 30
0.0
 10
311.9089927782
 20
169.5258336948
 30
0.0
 10
311.9405394713
 20
169.495542133
 30
0.0
  0
SPLINE
  5
694
100
AcDbEntity
  8
0
100
AcDbSpline
 62
7
  6
CONTINUOUS
 70
0
 71
3
 72
9
 73
5
 74
0
 42
0.0000001
 43
0.0000001
 44
0.0000000001
 40
0.0
 40
0.0
 40
0.0
 40
0.0
 40
0.4600314442
 40
1.0
 40
1.0
 40
1.0
 40
1.0
 10
311.9405394713
 20
169.495542133
 30
0.0
 10
312.0416420946
 20
169.3984620254
 30
0.0
 10
312.3213209671
 20
169.2528118171
 30
0.0
 10
312.624839761
 20
169.2000088342
 30
0.0
 10
312.789244186
 20
169.1938179348
 30
0.0
  0
SPLINE
  5
695
100
AcDbEntity
  8
0
100
AcDbSpline
 62
7
  6
CONTINUOUS
 70
0
 71
3
 72
8
 73
4
 74
0
 42
0.0000001
 43
0.0000001
 44
0.0000000001
 40
0.0
 40
0.0
 40
0.0
 40
0.0
 40
1.0
 40
1.0
 40
1.0
 40
1.0
 10
311.7904989657
 20
136.1721809679
 30
0.0
 10
311.7947450289
 20
136.2489639012
 30
0.0
 10
311.8103958908
 20
136.3257522465
 30
0.0
 10
311.8354269277
 20
136.3984646602
 30
0.0
  0
SPLINE
  5
696
100
AcDbEntity
  8
0
100
AcDbSpline
 62
7
  6
CONTINUOUS
 70
0
 71
3
 72
9
 73
5
 74
0
 42
0.0000001
 43
0.0000001
 44
0.0000000001
 40
0.0
 40
0.0
 40
0.0
 40
0.0
 40
0.4916778919
 40
1.0
 40
1.0
 40
1.0
 40
1.0
 10
311.9405378658
 20
136.6087691708
 30
0.0
 10
312.0309438192
 20
136.7424922834
 30
0.0
 10
312.2911774516
 20
136.9670022918
 30
0.0
 10
312.6223955941
 20
137.0487298616
 30
0.0
 10
312.789244186
 20
137.0519764997
 30
0.0
  0
SPLINE
  5
697
100
AcDbEntity
  8
0
100
AcDbSpline
 62
7
  6
CONTINUOUS
 70
0
 71
3
 72
9
 73
5
 74
0
 42
0.0000001
 43
0.0000001
 44
0.0000000001
 40
0.0
 40
0.0
 40
0.0
 40
0.0
 40
0.2410065129
 40
1.0
 40
1.0
 40
1.0
 40
1.0
 10
322.7879894078
 20
169.7753360562
 30
0.0
 10
322.7869300821
 20
169.7632009922
 30
0.0
 10
322.7796578372
 20
169.7131040772
 30
0.0
 10
322.7612132332
 20
169.6649458359
 30
0.0
 10
322.7430614818
 20
169.6311501671
 30
0.0
  0
SPLINE
  5
698
100
AcDbEntity
  8
0
100
AcDbSpline
 62
7
  6
CONTINUOUS
 70
0
 71
3
 72
9
 73
5
 74
0
 42
0.0000001
 43
0.0000001
 44
0.0000000001
 40
0.0
 40
0.0
 40
0.0
 40
0.0
 40
0.2370603023
 40
1.0
 40
1.0
 40
1.0
 40
1.0
 10
322.7430614818
 20
169.6311501671
 30
0.0
 10
322.7366309372
 20
169.6191775176
 30
0.0
 10
322.7072374714
 20
169.5698964821
 30
0.0
 10
322.6694966686
 20
169.5258287355
 30
0.0
 10
322.6379505333
 20
169.4955324141
 30
0.0
  0
SPLINE
  5
699
100
AcDbEntity
  8
0
100
AcDbSpline
 62
7
  6
CONTINUOUS
 70
0
 71
3
 72
9
 73
5
 74
0
 42
0.0000001
 43
0.0000001
 44
0.0000000001
 40
0.0
 40
0.0
 40
0.0
 40
0.0
 40
0.4600429379
 40
1.0
 40
1.0
 40
1.0
 40
1.0
 10
322.6379505333
 20
169.4955324141
 30
0.0
 10
322.5368526833
 20
169.3984399199
 30
0.0
 10
322.2571837168
 20
169.252743875
 30
0.0
 10
321.9536470083
 20
169.2000085288
 30
0.0
 10
321.789244186
 20
169.193817141
 30
0.0
  0
SPLINE
  5
69A
100
AcDbEntity
  8
0
100
AcDbSpline
 62
7
  6
CONTINUOUS
 70
0
 71
3
 72
9
 73
5
 74
0
 42
0.0000001
 43
0.0000001
 44
0.0000000001
 40
0.0
 40
0.0
 40
0.0
 40
0.0
 40
0.2073715414
 40
1.0
 40
1.0
 40
1.0
 40
1.0
 10
322.7879618986
 20
169.7749006306
 30
0.0
 10
322.7882042537
 20
169.7776776549
 30
0.0
 10
322.7890903874
 20
169.7910935425
 30
0.0
 10
322.789244186
 20
169.8045453153
 30
0.0
 10
322.789244186
 20
169.8152001763
 30
0.0
  0
SPLINE
  5
69B
100
AcDbEntity
  8
0
100
AcDbSpline
 62
7
  6
CONTINUOUS
 70
0
 71
3
 72
8
 73
4
 74
0
 42
0.0000001
 43
0.0000001
 44
0.0000000001
 40
0.0
 40
0.0
 40
0.0
 40
0.0
 40
1.0
 40
1.0
 40
1.0
 40
1.0
 10
322.7879720843
 20
136.1725952959
 30
0.0
 10
322.7889204392
 20
136.1554465134
 30
0.0
 10
322.789244186
 20
136.1382610313
 30
0.0
 10
322.789244186
 20
136.121086046
 30
0.0
  0
SPLINE
  5
69C
100
AcDbEntity
  8
0
100
AcDbSpline
 62
7
  6
CONTINUOUS
 70
0
 71
3
 72
8
 73
4
 74
0
 42
0.0000001
 43
0.0000001
 44
0.0000000001
 40
0.0
 40
0.0
 40
0.0
 40
0.0
 40
1.0
 40
1.0
 40
1.0
 40
1.0
 10
322.7879891806
 20
136.1721873713
 30
0.0
 10
322.7837427817
 20
136.2489694325
 30
0.0
 10
322.7680919435
 20
136.325756951
 30
0.0
 10
322.7430604375
 20
136.3984683018
 30
0.0
  0
SPLINE
  5
69D
100
AcDbEntity
  8
0
100
AcDbSpline
 62
7
  6
CONTINUOUS
 70
0
 71
3
 72
9
 73
5
 74
0
 42
0.0000001
 43
0.0000001
 44
0.0000000001
 40
0.0
 40
0.0
 40
0.0
 40
0.0
 40
0.4916690804
 40
1.0
 40
1.0
 40
1.0
 40
1.0
 10
322.6379485228
 20
136.6087633372
 30
0.0
 10
322.547540004
 20
136.7424790874
 30
0.0
 10
322.2872947112
 20
136.9669566791
 30
0.0
 10
321.9560938502
 20
137.0487292173
 30
0.0
 10
321.789244186
 20
137.0519754024
 30
0.0
  0
SPLINE
  5
69E
100
AcDbEntity
  8
0
100
AcDbSpline
 62
7
  6
CONTINUOUS
 70
0
 71
3
 72
8
 73
4
 74
0
 42
0.0000001
 43
0.0000001
 44
0.0000000001
 40
0.0
 40
0.0
 40
0.0
 40
0.0
 40
1.0
 40
1.0
 40
1.0
 40
1.0
 10
311.7904992716
 20
125.1155957277
 30
0.0
 10
311.7947453398
 20
125.038810593
 30
0.0
 10
311.8103948632
 20
124.9620194351
 30
0.0
 10
311.835428305
 20
124.8893055244
 30
0.0
  0
SPLINE
  5
69F
100
AcDbEntity
  8
0
100
AcDbSpline
 62
7
  6
CONTINUOUS
 70
0
 71
3
 72
9
 73
5
 74
0
 42
0.0000001
 43
0.0000001
 44
0.0000000001
 40
0.0
 40
0.0
 40
0.0
 40
0.0
 40
0.4916686319
 40
1.0
 40
1.0
 40
1.0
 40
1.0
 10
311.9405405668
 20
124.6790234886
 30
0.0
 10
312.0309526528
 20
124.5453103493
 30
0.0
 10
312.2911937211
 20
124.3208320346
 30
0.0
 10
312.622394401
 20
124.239054028
 30
0.0
 10
312.789244186
 20
124.2358074218
 30
0.0
  0
SPLINE
  5
6A0
100
AcDbEntity
  8
0
100
AcDbSpline
 62
7
  6
CONTINUOUS
 70
0
 71
3
 72
9
 73
5
 74
0
 42
0.0000001
 43
0.0000001
 44
0.0000000001
 40
0.0
 40
0.0
 40
0.0
 40
0.0
 40
0.2409930664
 40
1.0
 40
1.0
 40
1.0
 40
1.0
 10
311.7904995432
 20
91.5124819873
 30
0.0
 10
311.7915591433
 20
91.5246146651
 30
0.0
 10
311.79883289
 20
91.5747043421
 30
0.0
 10
311.8172777961
 20
91.6228550295
 30
0.0
 10
311.8354297537
 20
91.6566453759
 30
0.0
  0
SPLINE
  5
6A1
100
AcDbEntity
  8
0
100
AcDbSpline
 62
7
  6
CONTINUOUS
 70
0
 71
3
 72
9
 73
5
 74
0
 42
0.0000001
 43
0.0000001
 44
0.0000000001
 40
0.0
 40
0.0
 40
0.0
 40
0.0
 40
0.2370687416
 40
1.0
 40
1.0
 40
1.0
 40
1.0
 10
311.8354297537
 20
91.6566453759
 30
0.0
 10
311.8418604345
 20
91.6686162573
 30
0.0
 10
311.8712534317
 20
91.7178878245
 30
0.0
 10
311.9089950095
 20
91.7619448515
 30
0.0
 10
311.9405431791
 20
91.7922291697
 30
0.0
  0
SPLINE
  5
6A2
100
AcDbEntity
  8
0
100
AcDbSpline
 62
7
  6
CONTINUOUS
 70
0
 71
3
 72
9
 73
5
 74
0
 42
0.0000001
 43
0.0000001
 44
0.0000000001
 40
0.0
 40
0.0
 40
0.0
 40
0.0
 40
0.4600088129
 40
1.0
 40
1.0
 40
1.0
 40
1.0
 10
311.9405431791
 20
91.7922291697
 30
0.0
 10
312.0416524783
 20
91.8892879287
 30
0.0
 10
312.3213555693
 20
92.0348414938
 30
0.0
 10
312.6248364008
 20
92.0877883197
 30
0.0
 10
312.789244186
 20
92.093977337
 30
0.0
  0
SPLINE
  5
6A3
100
AcDbEntity
  8
0
100
AcDbSpline
 62
7
  6
CONTINUOUS
 70
0
 71
3
 72
8
 73
4
 74
0
 42
0.0000001
 43
0.0000001
 44
0.0000000001
 40
0.0
 40
0.0
 40
0.0
 40
0.0
 40
1.0
 40
1.0
 40
1.0
 40
1.0
 10
322.787989467
 20
125.115609467
 30
0.0
 10
322.7837436807
 20
125.0388246553
 30
0.0
 10
322.7680934541
 20
124.9620341953
 30
0.0
 10
322.7430618007
 20
124.8893200266
 30
0.0
  0
SPLINE
  5
6A4
100
AcDbEntity
  8
0
100
AcDbSpline
 62
7
  6
CONTINUOUS
 70
0
 71
3
 72
9
 73
5
 74
0
 42
0.0000001
 43
0.0000001
 44
0.0000000001
 40
0.0
 40
0.0
 40
0.0
 40
0.0
 40
0.4916786323
 40
1.0
 40
1.0
 40
1.0
 40
1.0
 10
322.6379510185
 20
124.679017889
 30
0.0
 10
322.5475443828
 20
124.5452947032
 30
0.0
 10
322.287313176
 20
124.3207802879
 30
0.0
 10
321.9560927298
 20
124.2390585928
 30
0.0
 10
321.789244186
 20
124.2358113554
 30
0.0
  0
SPLINE
  5
6A5
100
AcDbEntity
  8
0
100
AcDbSpline
 62
7
  6
CONTINUOUS
 70
0
 71
3
 72
8
 73
4
 74
0
 42
0.0000001
 43
0.0000001
 44
0.0000000001
 40
0.0
 40
0.0
 40
0.0
 40
0.0
 40
1.0
 40
1.0
 40
1.0
 40
1.0
 10
322.7879757698
 20
125.1152834821
 30
0.0
 10
322.7889223678
 20
125.1324029354
 30
0.0
 10
322.789244186
 20
125.1495590479
 30
0.0
 10
322.789244186
 20
125.1667046516
 30
0.0
  0
SPLINE
  5
6A6
100
AcDbEntity
  8
0
100
AcDbSpline
 62
7
  6
CONTINUOUS
 70
0
 71
3
 72
9
 73
5
 74
0
 42
0.0000001
 43
0.0000001
 44
0.0000000001
 40
0.0
 40
0.0
 40
0.0
 40
0.0
 40
0.2072987927
 40
1.0
 40
1.0
 40
1.0
 40
1.0
 10
322.7879325583
 20
91.5133484652
 30
0.0
 10
322.7881775873
 20
91.5105408033
 30
0.0
 10
322.7890835203
 20
91.4969728889
 30
0.0
 10
322.789244186
 20
91.4833677018
 30
0.0
 10
322.789244186
 20
91.4725905214
 30
0.0
  0
SPLINE
  5
6A7
100
AcDbEntity
  8
0
100
AcDbSpline
 62
7
  6
CONTINUOUS
 70
0
 71
3
 72
9
 73
5
 74
0
 42
0.0000001
 43
0.0000001
 44
0.0000000001
 40
0.0
 40
0.0
 40
0.0
 40
0.0
 40
0.2410314875
 40
1.0
 40
1.0
 40
1.0
 40
1.0
 10
322.7879893921
 20
91.5124553156
 30
0.0
 10
322.7869301067
 20
91.5245924578
 30
0.0
 10
322.7796588983
 20
91.5746928543
 30
0.0
 10
322.7612143768
 20
91.6228550478
 30
0.0
 10
322.7430614586
 20
91.6566515328
 30
0.0
  0
SPLINE
  5
6A8
100
AcDbEntity
  8
0
100
AcDbSpline
 62
7
  6
CONTINUOUS
 70
0
 71
3
 72
9
 73
5
 74
0
 42
0.0000001
 43
0.0000001
 44
0.0000000001
 40
0.0
 40
0.0
 40
0.0
 40
0.0
 40
0.2370631294
 40
1.0
 40
1.0
 40
1.0
 40
1.0
 10
322.7430614586
 20
91.6566515328
 30
0.0
 10
322.7366309834
 20
91.6686235727
 30
0.0
 10
322.7072378078
 20
91.7179012294
 30
0.0
 10
322.6694962887
 20
91.7619644362
 30
0.0
 10
322.6379502842
 20
91.7922572586
 30
0.0
  0
SPLINE
  5
6A9
100
AcDbEntity
  8
0
100
AcDbSpline
 62
7
  6
CONTINUOUS
 70
0
 71
3
 72
9
 73
5
 74
0
 42
0.0000001
 43
0.0000001
 44
0.0000000001
 40
0.0
 40
0.0
 40
0.0
 40
0.0
 40
0.4600386247
 40
1.0
 40
1.0
 40
1.0
 40
1.0
 10
322.6379502842
 20
91.7922572586
 30
0.0
 10
322.5368484739
 20
91.8893427447
 30
0.0
 10
322.2571794445
 20
92.0350262946
 30
0.0
 10
321.9536475116
 20
92.0877805082
 30
0.0
 10
321.789244186
 20
92.0939721309
 30
0.0
  0
SPLINE
  5
6AA
100
AcDbEntity
  8
0
100
AcDbSpline
 62
7
  6
CONTINUOUS
 70
0
 71
3
 72
14
 73
10
 74
0
 42
0.0000001
 43
0.0000001
 44
0.0000000001
 40
0.0
 40
0.0
 40
0.0
 40
0.0
 40
0.0322383452
 40
0.0966051396
 40
0.1923531559
 40
0.3166821909
 40
0.4652031161
 40
0.633177312
 40
1.0
 40
1.0
 40
1.0
 40
1.0
 10
311.7904982978
 20
57.3379362896
 30
0.0
 10
311.7958609609
 20
57.3473952324
 30
0.0
 10
311.8298566346
 20
57.3598638402
 30
0.0
 10
311.8897015784
 20
57.3772668767
 30
0.0
 10
311.9854887302
 20
57.3944992471
 30
0.0
 10
312.1080468564
 20
57.4120218915
 30
0.0
 10
312.2560232308
 20
57.4284800921
 30
0.0
 10
312.4855301279
 20
57.4487771732
 30
0.0
 10
312.6656517241
 20
57.4597280524
 30
0.0
 10
312.789244186
 20
57.4653875861
 30
0.0
  0
SPLINE
  5
6AB
100
AcDbEntity
  8
0
100
AcDbSpline
 62
7
  6
CONTINUOUS
 70
0
 71
3
 72
9
 73
5
 74
0
 42
0.0000001
 43
0.0000001
 44
0.0000000001
 40
0.0
 40
0.0
 40
0.0
 40
0.0
 40
0.1187498958
 40
1.0
 40
1.0
 40
1.0
 40
1.0
 10
322.787983633
 20
57.337970007
 30
0.0
 10
322.7883359701
 20
57.3373485363
 30
0.0
 10
322.789321184
 20
57.3312591264
 30
0.0
 10
322.789244186
 20
57.3253160967
 30
0.0
 10
322.789244186
 20
57.3200144917
 30
0.0
  0
SPLINE
  5
6AC
100
AcDbEntity
  8
0
100
AcDbSpline
 62
7
  6
CONTINUOUS
 70
0
 71
3
 72
14
 73
10
 74
0
 42
0.0000001
 43
0.0000001
 44
0.0000000001
 40
0.0
 40
0.0
 40
0.0
 40
0.0
 40
0.0322358791
 40
0.0966012199
 40
0.1923469139
 40
0.3166740017
 40
0.4651952602
 40
0.6331721883
 40
1.0
 40
1.0
 40
1.0
 40
1.0
 10
322.7879898097
 20
57.3379482581
 30
0.0
 10
322.7826252108
 20
57.3474049895
 30
0.0
 10
322.7486302317
 20
57.3598669154
 30
0.0
 10
322.6887850545
 20
57.3772618768
 30
0.0
 10
322.5929964089
 20
57.3944681995
 30
0.0
 10
322.4704360447
 20
57.4119543358
 30
0.0
 10
322.3224591535
 20
57.4283913318
 30
0.0
 10
322.0929558396
 20
57.4487218403
 30
0.0
 10
321.9128368616
 20
57.4597301602
 30
0.0
 10
321.789244186
 20
57.4653887459
 30
0.0
  0
SPLINE
  5
6AD
100
AcDbEntity
  8
0
100
AcDbSpline
 62
7
  6
CONTINUOUS
 70
0
 71
3
 72
9
 73
5
 74
0
 42
0.0000001
 43
0.0000001
 44
0.0000000001
 40
0.0
 40
0.0
 40
0.0
 40
0.0
 40
0.2153445992
 40
1.0
 40
1.0
 40
1.0
 40
1.0
 10
311.7904984326
 20
42.8057258014
 30
0.0
 10
311.7926368372
 20
42.7877463023
 30
0.0
 10
311.8163168272
 20
42.7056025909
 30
0.0
 10
311.8849851066
 20
42.6447898962
 30
0.0
 10
311.9405330234
 20
42.6091950044
 30
0.0
  0
SPLINE
  5
6AE
100
AcDbEntity
  8
0
100
AcDbSpline
 62
7
  6
CONTINUOUS
 70
0
 71
3
 72
9
 73
5
 74
0
 42
0.0000001
 43
0.0000001
 44
0.0000000001
 40
0.0
 40
0.0
 40
0.0
 40
0.0
 40
0.442733496
 40
1.0
 40
1.0
 40
1.0
 40
1.0
 10
311.9405330234
 20
42.6091950044
 30
0.0
 10
312.0489814115
 20
42.5397016939
 30
0.0
 10
312.3360802844
 20
42.455027089
 30
0.0
 10
312.6272600068
 20
42.4381834752
 30
0.0
 10
312.789244186
 20
42.4449271664
 30
0.0
  0
SPLINE
  5
6AF
100
AcDbEntity
  8
0
100
AcDbSpline
 62
7
  6
CONTINUOUS
 70
0
 71
3
 72
9
 73
5
 74
0
 42
0.0000001
 43
0.0000001
 44
0.0000000001
 40
0.0
 40
0.0
 40
0.0
 40
0.0
 40
0.2153375998
 40
1.0
 40
1.0
 40
1.0
 40
1.0
 10
322.7879898206
 20
42.8057293498
 30
0.0
 10
322.7858512939
 20
42.7877497541
 30
0.0
 10
322.7621697015
 20
42.7056031328
 30
0.0
 10
322.6935017455
 20
42.6447873469
 30
0.0
 10
322.6379541488
 20
42.6091861461
 30
0.0
  0
SPLINE
  5
6B0
100
AcDbEntity
  8
0
100
AcDbSpline
 62
7
  6
CONTINUOUS
 70
0
 71
3
 72
9
 73
5
 74
0
 42
0.0000001
 43
0.0000001
 44
0.0000000001
 40
0.0
 40
0.0
 40
0.0
 40
0.0
 40
0.4427418278
 40
1.0
 40
1.0
 40
1.0
 40
1.0
 10
322.6379541488
 20
42.6091861461
 30
0.0
 10
322.5295088727
 20
42.5396821123
 30
0.0
 10
322.242412896
 20
42.4549715705
 30
0.0
 10
321.9512268976
 20
42.4381842191
 30
0.0
 10
321.789244186
 20
42.4449273367
 30
0.0
  0
ENDSEC
  0
SECTION
  2
OBJECTS
  0
DICTIONARY
  5
C
100
AcDbDictionary
280
0
281
1
  3
ACAD_GROUP
350
D
  3
ACAD_MLINESTYLE
350
17
  3
ACAD_LAYOUT
350
1A
  3
ACAD_PLOTSETTINGS
350
19
  3
ACAD_PLOTSTYLENAME
350
E
  3
ACAD_TABLESTYLE
350
       6B1
  0
DICTIONARY
  5
D
102
{ACAD_REACTORS
330
C
102
}
100
AcDbDictionary
280
0
281
1
  0
ACDBDICTIONARYWDFLT
  5
E
102
{ACAD_REACTORS
330
C
102
}
100
AcDbDictionary
281
1
  3
Normal
350
F
100
AcDbDictionaryWithDefault
340
F
  0
DICTIONARY
  5
17
102
{ACAD_REACTORS
330
C
102
}
100
AcDbDictionary
280
0
281
1
  3
Standard
350
18
  0
DICTIONARY
  5
6B1
330
C
100
AcDbDictionary
281
1
  3
Standard
350
       6B4
  3
Standard1
350
       6B5
  0
DICTIONARY
  5
19
102
{ACAD_REACTORS
330
C
102
}
100
AcDbDictionary
281
1
  0
DICTIONARY
  5
1A
102
{ACAD_REACTORS
330
C
102
}
100
AcDbDictionary
281
1
  3
Model
350
6B2
  3
Layout1
350
6B3
  0
ACDBPLACEHOLDER
  5
F
102
{ACAD_REACTORS
330
E
102
}
  0
MLINESTYLE
  5
18
102
{ACAD_REACTORS
330
17
102
}
100
AcDbMlineStyle
  2
STANDARD
 70
0
  3

 62
256
 51
90.0
 52
90.0
 71
2
 49
0.5
 62
256
  6
BYLAYER
 49
-0.5
 62
256
  6
BYLAYER
  0
LAYOUT
  5
6B2
102
{ACAD_REACTORS
330
1A
102
}
100
AcDbPlotSettings
  1

  2
none_device
  4
ISO_A3_(420.00_x_297.00_MM)
  6

 40
0.0
 41
0.0
 42
0.0
 43
0.0
 44
420.0
 45
297.0
 46
0.0
 47
0.0
 48
0.0
 49
0.0
140
0.0
141
0.0
142
1.0
143
1.0
 70
1024
 72
1
 73
0
 74
0
  7

 75
0
147
1.0
148
0.0
149
0.0
100
AcDbLayout
  1
Model
 70
0
 71
0
 10
0.0
 20
0.0
 11
420.0
 21
297.0
 12
0.0
 22
0.0
 32
0.0
 14
0.0
 24
0.0
 34
0.0
 15
0.0
 25
0.0
 35
0.0
146
0.0
 13
0.0
 23
0.0
 33
0.0
 16
1.0
 26
0.0
 36
0.0
 17
0.0
 27
1.0
 37
0.0
 76
0
330
211
345
0
346
0
  0
LAYOUT
  5
6B3
102
{ACAD_REACTORS
330
1A
102
}
100
AcDbPlotSettings
  1

  2
none_device
  4
ISO_A3_(420.00_x_297.00_MM)
  6

 40
0.0
 41
0.0
 42
0.0
 43
0.0
 44
420.0
 45
297.0
 46
0.0
 47
0.0
 48
0.0
 49
0.0
140
0.0
141
0.0
142
1.0
143
1.0
 70
0
 72
1
 73
0
 74
0
  7

 75
0
147
1.0
148
0.0
149
0.0
100
AcDbLayout
  1
Layout1
 70
0
 71
1
 10
0.0
 20
0.0
 11
420.0
 21
297.0
 12
0.0
 22
0.0
 32
0.0
 14
0.0
 24
0.0
 34
0.0
 15
0.0
 25
0.0
 35
0.0
146
0.0
 13
0.0
 23
0.0
 33
0.0
 16
1.0
 26
0.0
 36
0.0
 17
0.0
 27
1.0
 37
0.0
 76
0
330
212
345
0
346
0
  0
TABLESTYLE
  5
6B4
102
{ACAD_REACTORS
330
6B1
330
346
102
}
330
6B1
100
AcDbTableStyle
  3
Standard
 70
0
 71
0
 40
0.06
 41
0.06
280
1
281
1
  7
Standard
140
0.18
170
1
 62
0
 63
7
283
0
  7
Standard
140
0.18
170
1
 62
0
 63
7
283
0
  7
Standard
140
0.18
170
1
 62
0
 63
7
283
0
  0
TABLESTYLE
  5
6B5
102
{ACAD_REACTORS
330
6B1
102
}
330
6B1
100
AcDbTableStyle
  3
Standard1
 70
1
 71
0
 40
0.06
 41
0.06
280
1
281
1
  7
Standard
140
0.18
170
1
 62
0
 63
7
283
0
  7
Standard
140
0.18
170
1
 62
0
 63
7
283
0
  7
Standard
140
0.18
170
1
 62
0
 63
7
283
0
  0
ENDSEC
  0
EOF
