999
DXF file: G:\afd20\200100-Web\Chains\uni 1700\2D-DXF\Sprockets\uni_1700_z10_2w_1r_1p_hub63.dxf
999
Pro/ENGINEER 2015290 by Parametric Technology Corporation
  0
SECTION
  2
HEADER
  9
$ACADVER
  1
AC1027
  9
$DWGCODEPAGE
  3
ANSI_1252
  9
$EXTMAX
 10
420.0
 20
297.0
 30
0.0
  9
$EXTMIN
 10
0.0
 20
0.0
 30
0.0
  9
$LIMMIN
 10
0.0
 20
0.0
  9
$LIMMAX
 10
420.0
 20
297.0
  9
$VIEWCTR
 10
210.0
 20
148.5
  9
$VIEWSIZE
 40
297.0
  9
$CLAYER
  8
0
  9
$LTSCALE
 40
23.1
  9
$CELTYPE
  6
BYLAYER
  9
$DIMSCALE
 40
1.0
  9
$DIMASZ
 40
3.5
  9
$DIMEXO
 40
1.0
  9
$DIMDLI
 40
15.96
  9
$DIMEXE
 40
2.0
  9
$DIMCEN
 40
3.78
  9
$DIMLFAC
 40
1.0
  9
$DIMBLK
  1
_FILLED
  9
$DIMALT
 70
0
  9
$DIMALTF
 40
0.0393700787
  9
$DIMTXT
 40
3.5
  9
$DIMTOL
 70
1
  9
$DIMLIM
 70
0
  9
$DIMTFAC
 40
1.0
  9
$DIMTP
 40
0.01
  9
$DIMTM
 40
0.01
  9
$DIMGAP
 40
0.625
  9
$DIMDSEP
 70
46
  9
$AUNITS
 70
0
  9
$PDMODE
 70
3
  9
$PDSIZE
 40
0.3125
  9
$HANDSEED
  5
679
  9
$TILEMODE
 70
1
  9
$MEASUREMENT
 70
1
  9
$INSUNITS
 70
4
  0
ENDSEC
  0
SECTION
  2
CLASSES
  0
CLASS
  1
ACDBDICTIONARYWDFLT
  2
AcDbDictionaryWithDefault
  3
AutoCAD 2000
 90
0
 91
1
280
0
281
0
  0
CLASS
  1
ACDBPLACEHOLDER
  2
AcDbPlaceHolder
  3
AutoCAD 2000
 90
0
 91
1
280
0
281
0
  0
CLASS
  1
LAYOUT
  2
AcDbLayout
  3
AutoCAD 2000
 90
0
 91
0
280
0
281
0
  0
CLASS
  1
TABLESTYLE
  2
AcDbTableStyle
  3
ObjectDBX Classes
 90
2047
 91
1
280
0
281
0
  0
CLASS
  1
ACAD_TABLE
  2
AcDbTable
  3
ObjectDBX Classes
 90
1025
 91
1
280
0
281
1
  0
ENDSEC
  0
SECTION
  2
TABLES
  0
TABLE
  2
VPORT
  5
8
100
AcDbSymbolTable
 70
2
  0
VPORT
  5
1F4
100
AcDbSymbolTableRecord
100
AcDbViewportTableRecord
  2
*ACTIVE
 70
0
 10
0.0
 20
0.0
 11
1.0
 21
1.0
 12
210.0
 22
148.5
 13
0.0
 23
0.0
 14
1.0
 24
1.0
 15
0.0
 25
0.0
 16
0.0
 26
0.0
 36
1.0
 17
0.0
 27
0.0
 37
0.0
 40
297.0
 41
1.4141414141
 42
50.0
 43
0.0
 44
0.0
 50
0.0
 51
0.0
 71
0
 72
100
 73
1
 74
1
 75
0
 76
0
 77
0
 78
0
  0
ENDTAB
  0
TABLE
  2
LTYPE
  5
5
100
AcDbSymbolTable
 70
6
  0
LTYPE
  5
14
100
AcDbSymbolTableRecord
100
AcDbLinetypeTableRecord
  2
BYBLOCK
 70
0
  3

 72
65
 73
0
 40
0.0
  0
LTYPE
  5
15
100
AcDbSymbolTableRecord
100
AcDbLinetypeTableRecord
  2
BYLAYER
 70
0
  3

 72
65
 73
0
 40
0.0
  0
LTYPE
  5
16
100
AcDbSymbolTableRecord
100
AcDbLinetypeTableRecord
  2
CONTINUOUS
 70
64
  3
Solid line
 72
65
 73
0
 40
0.0
  0
LTYPE
  5
1F5
100
AcDbSymbolTableRecord
100
AcDbLinetypeTableRecord
  2
CENTER
 70
64
  3
____ _ ____ _ ____ _ ____ _ ____ _ ____ _ ____
 72
65
 73
4
 40
0.6
 49
0.375
 74
0
 49
-0.075
 74
0
 49
0.075
 74
0
 49
-0.075
 74
0
  0
LTYPE
  5
1F6
100
AcDbSymbolTableRecord
100
AcDbLinetypeTableRecord
  2
HIDDEN
 70
64
  3
- - - - - - - - - - - - - - - - - - - -
 72
65
 73
2
 40
0.2
 49
0.1
 74
0
 49
-0.1
 74
0
  0
LTYPE
  5
1F7
100
AcDbSymbolTableRecord
100
AcDbLinetypeTableRecord
  2
PHANTOM
 70
64
  3
_____ _ _ _____ _ _ _____ _ _ _____
 72
65
 73
6
 40
0.8
 49
0.45
 74
0
 49
-0.05
 74
0
 49
0.1
 74
0
 49
-0.05
 74
0
 49
0.1
 74
0
 49
-0.05
 74
0
  0
LTYPE
  5
1F8
100
AcDbSymbolTableRecord
100
AcDbLinetypeTableRecord
  2
DOT
 70
64
  3
. . . . . . . . . . . . . . . . . . . .
 72
65
 73
2
 40
0.2
 49
0.1
 74
0
 49
-0.1
 74
0
  0
LTYPE
  5
1F9
100
AcDbSymbolTableRecord
100
AcDbLinetypeTableRecord
  2
DASHED
 70
64
  3
- - - - - - - - - - - - - - - - - - - -
 72
65
 73
2
 40
0.2
 49
0.1
 74
0
 49
-0.1
 74
0
  0
ENDTAB
  0
TABLE
  2
LAYER
  5
2
100
AcDbSymbolTable
 70
36
  0
LAYER
  5
10
100
AcDbSymbolTableRecord
100
AcDbLayerTableRecord
  2
0
 70
0
 62
7
  6
CONTINUOUS
370
-3
390
F
  0
LAYER
  5
1FA
100
AcDbSymbolTableRecord
100
AcDbLayerTableRecord
  2
DEFAULT_1
 70
0
 62
7
  6
CENTER
370
-3
390
F
  0
LAYER
  5
1FB
100
AcDbSymbolTableRecord
100
AcDbLayerTableRecord
  2
DEFAULT_2
 70
0
 62
8
  6
HIDDEN
370
-3
390
F
  0
LAYER
  5
1FC
100
AcDbSymbolTableRecord
100
AcDbLayerTableRecord
  2
DEFAULT_3
 70
0
 62
7
  6
PHANTOM
370
-3
390
F
  0
LAYER
  5
1FD
100
AcDbSymbolTableRecord
100
AcDbLayerTableRecord
  2
1_AXIS
 70
0
 62
7
  6
CONTINUOUS
370
-3
390
F
  0
LAYER
  5
1FE
100
AcDbSymbolTableRecord
100
AcDbLayerTableRecord
  2
1_DATUM_PLANE
 70
0
 62
7
  6
CONTINUOUS
370
-3
390
F
  0
LAYER
  5
1FF
100
AcDbSymbolTableRecord
100
AcDbLayerTableRecord
  2
2_FEATURE
 70
0
 62
7
  6
CONTINUOUS
370
-3
390
F
  0
LAYER
  5
200
100
AcDbSymbolTableRecord
100
AcDbLayerTableRecord
  2
4_QUILT
 70
0
 62
7
  6
CONTINUOUS
370
-3
390
F
  0
LAYER
  5
201
100
AcDbSymbolTableRecord
100
AcDbLayerTableRecord
  2
6_DIM
 70
0
 62
7
  6
CONTINUOUS
370
-3
390
F
  0
LAYER
  5
202
100
AcDbSymbolTableRecord
100
AcDbLayerTableRecord
  2
AXES
 70
0
 62
7
  6
CONTINUOUS
370
-3
390
F
  0
LAYER
  5
203
100
AcDbSymbolTableRecord
100
AcDbLayerTableRecord
  2
CSYS
 70
0
 62
7
  6
CONTINUOUS
370
-3
390
F
  0
LAYER
  5
204
100
AcDbSymbolTableRecord
100
AcDbLayerTableRecord
  2
CURVES
 70
0
 62
7
  6
CONTINUOUS
370
-3
390
F
  0
LAYER
  5
205
100
AcDbSymbolTableRecord
100
AcDbLayerTableRecord
  2
NOTES
 70
0
 62
7
  6
CONTINUOUS
370
-3
390
F
  0
LAYER
  5
206
100
AcDbSymbolTableRecord
100
AcDbLayerTableRecord
  2
PLANES
 70
0
 62
7
  6
CONTINUOUS
370
-3
390
F
  0
LAYER
  5
207
100
AcDbSymbolTableRecord
100
AcDbLayerTableRecord
  2
QUILTS
 70
0
 62
7
  6
CONTINUOUS
370
-3
390
F
  0
LAYER
  5
208
100
AcDbSymbolTableRecord
100
AcDbLayerTableRecord
  2
SQ-MACHINED
 70
0
 62
7
  6
CONTINUOUS
370
-3
390
F
  0
ENDTAB
  0
TABLE
  2
STYLE
  5
3
100
AcDbSymbolTable
 70
1
  0
STYLE
  5
11
100
AcDbSymbolTableRecord
100
AcDbTextStyleTableRecord
  2
STANDARD
 70
0
 40
0.0
 41
0.8
 50
0.0
 71
0
 42
0.2
  3
txt
  4

  0
STYLE
  5
209
100
AcDbSymbolTableRecord
100
AcDbTextStyleTableRecord
  2
TEXTSTYLE_1
 70
0
 40
0.0
 41
0.8
 50
0.0
 71
0
 42
0.2
  3
gdt
  4

  0
STYLE
  5
20A
100
AcDbSymbolTableRecord
100
AcDbTextStyleTableRecord
  2
TEXTSTYLE_2
 70
0
 40
0.0
 41
0.6
 50
0.0
 71
0
 42
0.2
  3
txt
  4

  0
STYLE
  5
20B
100
AcDbSymbolTableRecord
100
AcDbTextStyleTableRecord
  2
TEXTSTYLE_3
 70
0
 40
0.0
 41
1.0
 50
0.0
 71
0
 42
0.2
  3
ftb_____.ttf
  4

  0
STYLE
  5
20C
100
AcDbSymbolTableRecord
100
AcDbTextStyleTableRecord
  2
TEXTSTYLE_4
 70
0
 40
0.0
 41
1.0
 50
0.0
 71
0
 42
0.2
  3
fti_____.ttf
  4

  0
STYLE
  5
20D
100
AcDbSymbolTableRecord
100
AcDbTextStyleTableRecord
  2
TEXTSTYLE_5
 70
0
 40
0.0
 41
1.0
 50
0.0
 71
0
 42
0.2
  3
frutiger light.ttf
  4

  0
STYLE
  5
20E
100
AcDbSymbolTableRecord
100
AcDbTextStyleTableRecord
  2
TEXTSTYLE_6
 70
0
 40
0.0
 41
0.7
 50
0.0
 71
0
 42
0.2
  3
txt
  4

  0
STYLE
  5
20F
100
AcDbSymbolTableRecord
100
AcDbTextStyleTableRecord
  2
TEXTSTYLE_7
 70
0
 40
0.0
 41
0.8
 50
0.0
 71
0
 42
0.2
  3
txt
  4

  0
ENDTAB
  0
TABLE
  2
VIEW
  5
6
100
AcDbSymbolTable
 70
0
  0
ENDTAB
  0
TABLE
  2
UCS
  5
7
100
AcDbSymbolTable
 70
0
  0
ENDTAB
  0
TABLE
  2
APPID
  5
9
100
AcDbSymbolTable
 70
1
  0
APPID
  5
210
100
AcDbSymbolTableRecord
100
AcDbRegAppTableRecord
  2
ACAD
 70
0
  0
ENDTAB
  0
TABLE
  2
BLOCK_RECORD
  5
1
100
AcDbSymbolTable
 70
0
  0
BLOCK_RECORD
  5
211
100
AcDbSymbolTableRecord
100
AcDbBlockTableRecord
  2
*Model_Space
  0
BLOCK_RECORD
  5
212
100
AcDbSymbolTableRecord
100
AcDbBlockTableRecord
  2
*Paper_Space
  0
BLOCK_RECORD
  5
213
100
AcDbSymbolTableRecord
100
AcDbBlockTableRecord
  2
UNI_LOGO2_BL1
  0
BLOCK_RECORD
  5
214
100
AcDbSymbolTableRecord
100
AcDbBlockTableRecord
  2
AMMEAAL_LOGO_BL0
  0
BLOCK_RECORD
  5
215
100
AcDbSymbolTableRecord
100
AcDbBlockTableRecord
  2
*T1
  0
ENDTAB
  0
TABLE
  2
DIMSTYLE
  5
A
100
AcDbSymbolTable
 70
1
100
AcDbDimStyleTable
 71
0
  0
DIMSTYLE
105
216
100
AcDbSymbolTableRecord
100
AcDbDimStyleTableRecord
  2
STANDARD
 70
0
  3

  4

 40
1.0
 41
3.5
 42
1.0
 43
0.38
 44
2.0
 45
0.0
 46
0.0
 47
0.01
 48
0.01
140
3.5
141
0.09
142
0.0
143
25.4
144
1.0
145
0.0
146
1.0
147
0.625
 71
1.0
 72
0.0
 73
0
 74
0
 75
0
 76
0
 77
1
 78
0
170
0
171
2
172
0
173
0
174
0
175
0
176
0
177
0
178
0
270
2
271
2
272
2
273
2
274
2
275
0
280
0
281
0
282
0
283
1
284
0
285
0
286
0
287
3
288
0
340
11
278
46
  0
ENDTAB
  0
ENDSEC
  0
SECTION
  2
BLOCKS
  0
BLOCK
  5
20
100
AcDbEntity
  8
0
100
AcDbBlockBegin
  2
*Model_Space
 70
0
 10
0.0
 20
0.0
 30
0.0
  3
*Model_Space
  1

  0
ENDBLK
  5
21
100
AcDbEntity
  8
0
100
AcDbBlockEnd
  0
BLOCK
  5
1C
100
AcDbEntity
  8
0
100
AcDbBlockBegin
  2
*Paper_Space
 70
0
 10
0.0
 20
0.0
 30
0.0
  3
*Paper_Space
  1

  0
ENDBLK
  5
1D
100
AcDbEntity
  8
0
100
AcDbBlockEnd
  0
BLOCK
  5
217
100
AcDbEntity
  8
0
100
AcDbBlockBegin
 62
2
  6
CONTINUOUS
  2
UNI_LOGO2_BL1
 70
64
 10
382.3920721743
 20
35.81661148
  3
UNI_LOGO2_BL1
  1

  0
TEXT
  5
218
100
AcDbEntity
  8
0
100
AcDbText
 62
7
  6
CONTINUOUS
 10
373.4503571828
 20
30.9093678571
  7
TEXTSTYLE_4
 40
1.0655737705
  1
The brand for plastic modular belts and chains
 41
1.0
 72
0
100
AcDbText
  0
LINE
  5
219
100
AcDbEntity
  8
0
100
AcDbLine
 62
7
  6
CONTINUOUS
 10
358.3701405634
 20
36.3903819718
 11
358.3701405634
 21
34.2592344308
  0
LINE
  5
21A
100
AcDbEntity
  8
0
100
AcDbLine
 62
7
  6
CONTINUOUS
 10
358.6592030565
 20
31.2683031351
 11
358.6592030565
 21
31.3650941944
  0
LINE
  5
21B
100
AcDbEntity
  8
0
100
AcDbLine
 62
7
  6
CONTINUOUS
 10
358.3701405634
 20
31.332830508
 11
358.4279530651
 21
31.1392483894
  0
LINE
  5
21C
100
AcDbEntity
  8
0
100
AcDbLine
 62
7
  6
CONTINUOUS
 10
359.7635831863
 20
34.1772672177
 11
359.7635831863
 21
36.3903819718
  0
LINE
  5
21D
100
AcDbEntity
  8
0
100
AcDbLine
 62
7
  6
CONTINUOUS
 10
360.6826405082
 20
32.3330049227
 11
360.6826405082
 21
30.81661148
  0
LINE
  5
21E
100
AcDbEntity
  8
0
100
AcDbLine
 62
7
  6
CONTINUOUS
 10
360.9717030634
 20
30.81661148
 11
360.9717030634
 21
31.5586763581
  0
LINE
  5
21F
100
AcDbEntity
  8
0
100
AcDbLine
 62
7
  6
CONTINUOUS
 10
360.9717030634
 20
31.6877311038
 11
360.9717030634
 21
32.3330049227
  0
LINE
  5
220
100
AcDbEntity
  8
0
100
AcDbLine
 62
7
  6
CONTINUOUS
 10
358.4279530651
 20
31.5264126717
 11
358.3701405634
 21
31.332830508
  0
LINE
  5
221
100
AcDbEntity
  8
0
100
AcDbLine
 62
7
  6
CONTINUOUS
 10
358.7748280496
 20
31.106984703
 11
358.6592030565
 21
31.2683031351
  0
LINE
  5
222
100
AcDbEntity
  8
0
100
AcDbLine
 62
7
  6
CONTINUOUS
 10
359.8732656185
 20
31.623203731
 11
359.9310780634
 21
31.5264126717
  0
LINE
  5
223
100
AcDbEntity
  8
0
100
AcDbLine
 62
7
  6
CONTINUOUS
 10
360.2201406185
 20
31.5264126717
 11
360.1623280082
 21
31.6554674174
  0
LINE
  5
224
100
AcDbEntity
  8
0
100
AcDbLine
 62
7
  6
CONTINUOUS
 10
361.648829088
 20
36.3903819718
 11
361.648829088
 21
34.5871032833
  0
LINE
  5
225
100
AcDbEntity
  8
0
100
AcDbLine
 62
7
  6
CONTINUOUS
 10
361.648829088
 20
33.2756278735
 11
361.648829088
 21
32.6198901686
  0
LINE
  5
226
100
AcDbEntity
  8
0
100
AcDbLine
 62
7
  6
CONTINUOUS
 10
362.0123280634
 20
31.4618852989
 11
362.0123280634
 21
30.81661148
  0
LINE
  5
227
100
AcDbEntity
  8
0
100
AcDbLine
 62
7
  6
CONTINUOUS
 10
362.3013904531
 20
30.81661148
 11
362.3013904531
 21
31.4618852989
  0
LINE
  5
228
100
AcDbEntity
  8
0
100
AcDbLine
 62
7
  6
CONTINUOUS
 10
358.6592030565
 20
31.3650941944
 11
358.7170155634
 21
31.4941489853
  0
LINE
  5
229
100
AcDbEntity
  8
0
100
AcDbLine
 62
7
  6
CONTINUOUS
 10
358.4279530651
 20
31.1392483894
 11
358.5435780634
 21
31.0101936212
  0
LINE
  5
22A
100
AcDbEntity
  8
0
100
AcDbLine
 62
7
  6
CONTINUOUS
 10
361.9545154531
 20
31.5909400446
 11
362.0123280634
 21
31.4618852989
  0
LINE
  5
22B
100
AcDbEntity
  8
0
100
AcDbLine
 62
7
  6
CONTINUOUS
 10
362.7638906736
 20
31.106984703
 11
362.8217029531
 21
30.9779299347
  0
LINE
  5
22C
100
AcDbEntity
  8
0
100
AcDbLine
 62
7
  6
CONTINUOUS
 10
362.3013904531
 20
31.4618852989
 11
362.2435781736
 21
31.623203731
  0
LINE
  5
22D
100
AcDbEntity
  8
0
100
AcDbLine
 62
7
  6
CONTINUOUS
 10
362.7638906736
 20
31.6554674174
 11
362.7638906736
 21
31.5909400446
  0
LINE
  5
22E
100
AcDbEntity
  8
0
100
AcDbLine
 62
7
  6
CONTINUOUS
 10
362.7638906736
 20
31.2037757623
 11
362.7638906736
 21
31.106984703
  0
LINE
  5
22F
100
AcDbEntity
  8
0
100
AcDbLine
 62
7
  6
CONTINUOUS
 10
363.0422717109
 20
32.6198901686
 11
363.0422717109
 21
36.3903819718
  0
LINE
  5
230
100
AcDbEntity
  8
0
100
AcDbLine
 62
7
  6
CONTINUOUS
 10
363.0529530634
 20
31.074720994
 11
363.0529530634
 21
31.1392483894
  0
LINE
  5
231
100
AcDbEntity
  8
0
100
AcDbLine
 62
7
  6
CONTINUOUS
 10
363.3701405634
 20
36.3903819718
 11
363.3701405634
 21
32.6198901686
  0
LINE
  5
232
100
AcDbEntity
  8
0
100
AcDbLine
 62
7
  6
CONTINUOUS
 10
360.1623280082
 20
31.0101936212
 11
360.2201406185
 21
31.1392483894
  0
LINE
  5
233
100
AcDbEntity
  8
0
100
AcDbLine
 62
7
  6
CONTINUOUS
 10
364.5560782839
 20
30.9134025506
 11
364.4982653428
 21
31.074720994
  0
LINE
  5
234
100
AcDbEntity
  8
0
100
AcDbLine
 62
7
  6
CONTINUOUS
 10
364.2092032839
 20
31.5909400446
 11
364.2092032839
 21
31.4941489853
  0
LINE
  5
235
100
AcDbEntity
  8
0
100
AcDbLine
 62
7
  6
CONTINUOUS
 10
364.2092032839
 20
31.3650941944
 11
364.2092032839
 21
31.1715120759
  0
LINE
  5
236
100
AcDbEntity
  8
0
100
AcDbLine
 62
7
  6
CONTINUOUS
 10
364.4982653428
 20
31.074720994
 11
364.4982653428
 21
31.5909400446
  0
LINE
  5
237
100
AcDbEntity
  8
0
100
AcDbLine
 62
7
  6
CONTINUOUS
 10
364.7635831863
 20
32.6198901686
 11
364.7635831863
 21
34.4231688571
  0
LINE
  5
238
100
AcDbEntity
  8
0
100
AcDbLine
 62
7
  6
CONTINUOUS
 10
364.7635831863
 20
35.7346442669
 11
364.7635831863
 21
36.3903819718
  0
LINE
  5
239
100
AcDbEntity
  8
0
100
AcDbLine
 62
7
  6
CONTINUOUS
 10
365.0763907839
 20
32.3330049227
 11
365.0763907839
 21
32.1716864905
  0
LINE
  5
23A
100
AcDbEntity
  8
0
100
AcDbLine
 62
7
  6
CONTINUOUS
 10
365.0763907839
 20
31.8490495359
 11
365.0763907839
 21
30.81661148
  0
LINE
  5
23B
100
AcDbEntity
  8
0
100
AcDbLine
 62
7
  6
CONTINUOUS
 10
365.3654528428
 20
30.81661148
 11
365.3654528428
 21
31.8490495359
  0
LINE
  5
23C
100
AcDbEntity
  8
0
100
AcDbLine
 62
7
  6
CONTINUOUS
 10
365.3654528428
 20
32.1716864905
 11
365.3654528428
 21
32.3330049227
  0
LINE
  5
23D
100
AcDbEntity
  8
0
100
AcDbLine
 62
7
  6
CONTINUOUS
 10
359.9310780634
 20
31.1392483894
 11
359.8732656185
 21
31.0424573076
  0
LINE
  5
23E
100
AcDbEntity
  8
0
100
AcDbLine
 62
7
  6
CONTINUOUS
 10
362.2435781736
 20
31.623203731
 11
362.1857655634
 21
31.6877311038
  0
LINE
  5
23F
100
AcDbEntity
  8
0
100
AcDbLine
 62
7
  6
CONTINUOUS
 10
363.1107656736
 20
31.0101936212
 11
363.0529530634
 21
31.074720994
  0
LINE
  5
240
100
AcDbEntity
  8
0
100
AcDbLine
 62
7
  6
CONTINUOUS
 10
364.2670155634
 20
30.8811388585
 11
364.3248278428
 21
30.81661148
  0
LINE
  5
241
100
AcDbEntity
  8
0
100
AcDbLine
 62
7
  6
CONTINUOUS
 10
364.2092032839
 20
30.9779299347
 11
364.2670155634
 21
30.8811388585
  0
LINE
  5
242
100
AcDbEntity
  8
0
100
AcDbLine
 62
7
  6
CONTINUOUS
 10
364.6138905634
 20
30.81661148
 11
364.5560782839
 21
30.9134025506
  0
LINE
  5
243
100
AcDbEntity
  8
0
100
AcDbLine
 62
7
  6
CONTINUOUS
 10
364.4982653428
 20
31.5909400446
 11
364.4404530634
 21
31.6877311038
  0
LINE
  5
244
100
AcDbEntity
  8
0
100
AcDbLine
 62
7
  6
CONTINUOUS
 10
365.8279530634
 20
31.8490495359
 11
365.8279530634
 21
30.81661148
  0
LINE
  5
245
100
AcDbEntity
  8
0
100
AcDbLine
 62
7
  6
CONTINUOUS
 10
366.1170157839
 20
30.81661148
 11
366.1170157839
 21
31.5586763581
  0
LINE
  5
246
100
AcDbEntity
  8
0
100
AcDbLine
 62
7
  6
CONTINUOUS
 10
366.1170157839
 20
31.6877311038
 11
366.1170157839
 21
31.8490495359
  0
LINE
  5
247
100
AcDbEntity
  8
0
100
AcDbLine
 62
7
  6
CONTINUOUS
 10
366.648829088
 20
34.8330049227
 11
366.648829088
 21
32.6198901686
  0
LINE
  5
248
100
AcDbEntity
  8
0
100
AcDbLine
 62
7
  6
CONTINUOUS
 10
358.5435780634
 20
31.6554674174
 11
358.4279530651
 21
31.5264126717
  0
LINE
  5
249
100
AcDbEntity
  8
0
100
AcDbLine
 62
7
  6
CONTINUOUS
 10
358.7170155634
 20
31.4941489853
 11
358.7748280496
 21
31.5586763581
  0
LINE
  5
24A
100
AcDbEntity
  8
0
100
AcDbLine
 62
7
  6
CONTINUOUS
 10
358.5435780634
 20
31.0101936212
 11
358.6592030565
 21
30.945666237
  0
LINE
  5
24B
100
AcDbEntity
  8
0
100
AcDbLine
 62
7
  6
CONTINUOUS
 10
358.9482655496
 20
31.0101936212
 11
358.7748280496
 21
31.106984703
  0
LINE
  5
24C
100
AcDbEntity
  8
0
100
AcDbLine
 62
7
  6
CONTINUOUS
 10
364.1513903428
 20
31.6554674174
 11
364.2092032839
 21
31.5909400446
  0
LINE
  5
24D
100
AcDbEntity
  8
0
100
AcDbLine
 62
7
  6
CONTINUOUS
 10
367.0998278428
 20
31.5909400446
 11
367.1576407839
 21
31.4296216124
  0
LINE
  5
24E
100
AcDbEntity
  8
0
100
AcDbLine
 62
7
  6
CONTINUOUS
 10
367.4467028428
 20
31.4296216124
 11
367.3888905634
 21
31.5909400446
  0
LINE
  5
24F
100
AcDbEntity
  8
0
100
AcDbLine
 62
7
  6
CONTINUOUS
 10
367.1576407839
 20
31.4296216124
 11
367.1576407839
 21
30.81661148
  0
LINE
  5
250
100
AcDbEntity
  8
0
100
AcDbLine
 62
7
  6
CONTINUOUS
 10
367.4467028428
 20
30.81661148
 11
367.4467028428
 21
31.4296216124
  0
LINE
  5
251
100
AcDbEntity
  8
0
100
AcDbLine
 62
7
  6
CONTINUOUS
 10
367.9092030634
 20
31.6554674174
 11
367.9092030634
 21
31.5909400446
  0
LINE
  5
252
100
AcDbEntity
  8
0
100
AcDbLine
 62
7
  6
CONTINUOUS
 10
368.0422717109
 20
32.6198901686
 11
368.0422717109
 21
34.7510377095
  0
LINE
  5
253
100
AcDbEntity
  8
0
100
AcDbLine
 62
7
  6
CONTINUOUS
 10
368.3701405634
 20
36.3903819718
 11
368.3701405634
 21
32.6198901686
  0
LINE
  5
254
100
AcDbEntity
  8
0
100
AcDbLine
 62
7
  6
CONTINUOUS
 10
363.0529530634
 20
31.1392483894
 11
363.1107656736
 21
31.2360394487
  0
LINE
  5
255
100
AcDbEntity
  8
0
100
AcDbLine
 62
7
  6
CONTINUOUS
 10
358.6592030565
 20
30.945666237
 11
358.8326405772
 21
30.8811388585
  0
LINE
  5
256
100
AcDbEntity
  8
0
100
AcDbLine
 62
7
  6
CONTINUOUS
 10
360.1623280082
 20
31.6554674174
 11
359.9888905082
 21
31.7522584767
  0
LINE
  5
257
100
AcDbEntity
  8
0
100
AcDbLine
 62
7
  6
CONTINUOUS
 10
362.8217029531
 20
30.9779299347
 11
362.9951404531
 21
30.8811388585
  0
LINE
  5
258
100
AcDbEntity
  8
0
100
AcDbLine
 62
7
  6
CONTINUOUS
 10
361.8388905634
 20
31.6554674174
 11
361.9545154531
 21
31.5909400446
  0
LINE
  5
259
100
AcDbEntity
  8
0
100
AcDbLine
 62
7
  6
CONTINUOUS
 10
362.1857655634
 20
31.6877311038
 11
362.0701406736
 21
31.7522584767
  0
LINE
  5
25A
100
AcDbEntity
  8
0
100
AcDbLine
 62
7
  6
CONTINUOUS
 10
367.9092030634
 20
31.074720994
 11
368.0248282839
 21
30.945666237
  0
LINE
  5
25B
100
AcDbEntity
  8
0
100
AcDbLine
 62
7
  6
CONTINUOUS
 10
368.2560780634
 20
31.0101936212
 11
368.1982657839
 21
31.074720994
  0
LINE
  5
25C
100
AcDbEntity
  8
0
100
AcDbLine
 62
7
  6
CONTINUOUS
 10
367.9092030634
 20
31.5909400446
 11
368.0248282839
 21
31.4618852989
  0
LINE
  5
25D
100
AcDbEntity
  8
0
100
AcDbLine
 62
7
  6
CONTINUOUS
 10
367.3888905634
 20
31.5909400446
 11
367.3310782839
 21
31.6877311038
  0
LINE
  5
25E
100
AcDbEntity
  8
0
100
AcDbLine
 62
7
  6
CONTINUOUS
 10
369.7592026223
 20
31.0101936212
 11
369.7592026223
 21
31.074720994
  0
LINE
  5
25F
100
AcDbEntity
  8
0
100
AcDbLine
 62
7
  6
CONTINUOUS
 10
369.7635831863
 20
32.6198901686
 11
369.7635831863
 21
36.3903819718
  0
LINE
  5
260
100
AcDbEntity
  8
0
100
AcDbLine
 62
7
  6
CONTINUOUS
 10
362.8217029531
 20
31.7199947902
 11
362.7638906736
 21
31.6554674174
  0
LINE
  5
261
100
AcDbEntity
  8
0
100
AcDbLine
 62
7
  6
CONTINUOUS
 10
359.6998280358
 20
31.6877311038
 11
359.8732656185
 21
31.623203731
  0
LINE
  5
262
100
AcDbEntity
  8
0
100
AcDbLine
 62
7
  6
CONTINUOUS
 10
364.4404530634
 20
31.6877311038
 11
364.3248278428
 21
31.7522584767
  0
LINE
  5
263
100
AcDbEntity
  8
0
100
AcDbLine
 62
7
  6
CONTINUOUS
 10
368.2560780634
 20
31.5264126717
 11
368.1982657839
 21
31.5909400446
  0
LINE
  5
264
100
AcDbEntity
  8
0
100
AcDbLine
 62
7
  6
CONTINUOUS
 10
369.4123282839
 20
31.1392483894
 11
369.4701405634
 21
31.074720994
  0
LINE
  5
265
100
AcDbEntity
  8
0
100
AcDbLine
 62
7
  6
CONTINUOUS
 10
369.7592026223
 20
31.074720994
 11
369.6435780634
 21
31.2037757623
  0
LINE
  5
266
100
AcDbEntity
  8
0
100
AcDbLine
 62
7
  6
CONTINUOUS
 10
369.4123282839
 20
31.6554674174
 11
369.4701405634
 21
31.5909400446
  0
LINE
  5
267
100
AcDbEntity
  8
0
100
AcDbLine
 62
7
  6
CONTINUOUS
 10
369.7592026223
 20
31.5909400446
 11
369.6435780634
 21
31.7199947902
  0
LINE
  5
268
100
AcDbEntity
  8
0
100
AcDbLine
 62
7
  6
CONTINUOUS
 10
363.0529530634
 20
31.5909400446
 11
363.1107656736
 21
31.6554674174
  0
LINE
  5
269
100
AcDbEntity
  8
0
100
AcDbLine
 62
7
  6
CONTINUOUS
 10
362.8795155634
 20
31.332830508
 11
362.7638906736
 21
31.2037757623
  0
LINE
  5
26A
100
AcDbEntity
  8
0
100
AcDbLine
 62
7
  6
CONTINUOUS
 10
364.2092032839
 20
31.1715120759
 11
364.1513903428
 21
31.106984703
  0
LINE
  5
26B
100
AcDbEntity
  8
0
100
AcDbLine
 62
7
  6
CONTINUOUS
 10
364.1513903428
 20
30.9134025506
 11
364.2092032839
 21
30.9779299347
  0
LINE
  5
26C
100
AcDbEntity
  8
0
100
AcDbLine
 62
7
  6
CONTINUOUS
 10
362.9951404531
 20
30.8811388585
 11
363.1107656736
 21
30.8488751693
  0
LINE
  5
26D
100
AcDbEntity
  8
0
100
AcDbLine
 62
7
  6
CONTINUOUS
 10
359.9888905082
 20
31.7522584767
 11
359.7576405634
 21
31.8167858495
  0
LINE
  5
26E
100
AcDbEntity
  8
0
100
AcDbLine
 62
7
  6
CONTINUOUS
 10
363.3420154531
 20
30.945666237
 11
363.1107656736
 21
31.0101936212
  0
LINE
  5
26F
100
AcDbEntity
  8
0
100
AcDbLine
 62
7
  6
CONTINUOUS
 10
362.0701406736
 20
31.7522584767
 11
361.8967031736
 21
31.8167858495
  0
LINE
  5
270
100
AcDbEntity
  8
0
100
AcDbLine
 62
7
  6
CONTINUOUS
 10
364.3248278428
 20
31.7522584767
 11
364.1513903428
 21
31.8167858495
  0
LINE
  5
271
100
AcDbEntity
  8
0
100
AcDbLine
 62
7
  6
CONTINUOUS
 10
366.9842032839
 20
31.6554674174
 11
367.0998278428
 21
31.5909400446
  0
LINE
  5
272
100
AcDbEntity
  8
0
100
AcDbLine
 62
7
  6
CONTINUOUS
 10
367.3310782839
 20
31.6877311038
 11
367.2154530634
 21
31.7522584767
  0
LINE
  5
273
100
AcDbEntity
  8
0
100
AcDbLine
 62
7
  6
CONTINUOUS
 10
358.8326405772
 20
30.8811388585
 11
359.0060780772
 21
30.8488751693
  0
LINE
  5
274
100
AcDbEntity
  8
0
100
AcDbLine
 62
7
  6
CONTINUOUS
 10
359.2951405909
 20
30.945666237
 11
358.9482655496
 21
31.0101936212
  0
LINE
  5
275
100
AcDbEntity
  8
0
100
AcDbLine
 62
7
  6
CONTINUOUS
 10
361.7232656736
 20
31.6877311038
 11
361.8388905634
 21
31.6554674174
  0
LINE
  5
276
100
AcDbEntity
  8
0
100
AcDbLine
 62
7
  6
CONTINUOUS
 10
364.0357657839
 20
31.6877311038
 11
364.1513903428
 21
31.6554674174
  0
LINE
  5
277
100
AcDbEntity
  8
0
100
AcDbLine
 62
7
  6
CONTINUOUS
 10
368.3717032839
 20
30.9779299347
 11
368.2560780634
 21
31.0101936212
  0
LINE
  5
278
100
AcDbEntity
  8
0
100
AcDbLine
 62
7
  6
CONTINUOUS
 10
366.8685780634
 20
31.6877311038
 11
366.9842032839
 21
31.6554674174
  0
LINE
  5
279
100
AcDbEntity
  8
0
100
AcDbLine
 62
7
  6
CONTINUOUS
 10
368.0248282839
 20
30.945666237
 11
368.1982657839
 21
30.8811388585
  0
LINE
  5
27A
100
AcDbEntity
  8
0
100
AcDbLine
 62
7
  6
CONTINUOUS
 10
367.2154530634
 20
31.7522584767
 11
367.0420155634
 21
31.8167858495
  0
LINE
  5
27B
100
AcDbEntity
  8
0
100
AcDbLine
 62
7
  6
CONTINUOUS
 10
368.4295155634
 20
31.4618852989
 11
368.2560780634
 21
31.5264126717
  0
LINE
  5
27C
100
AcDbEntity
  8
0
100
AcDbLine
 62
7
  6
CONTINUOUS
 10
369.2388907839
 20
31.2037757623
 11
369.4123282839
 21
31.1392483894
  0
LINE
  5
27D
100
AcDbEntity
  8
0
100
AcDbLine
 62
7
  6
CONTINUOUS
 10
369.6435780634
 20
31.7199947902
 11
369.4701405634
 21
31.7845221631
  0
LINE
  5
27E
100
AcDbEntity
  8
0
100
AcDbLine
 62
7
  6
CONTINUOUS
 10
368.0248282839
 20
31.4618852989
 11
368.2560780634
 21
31.3650941944
  0
LINE
  5
27F
100
AcDbEntity
  8
0
100
AcDbLine
 62
7
  6
CONTINUOUS
 10
369.6435780634
 20
31.2037757623
 11
369.4123282839
 21
31.3005668216
  0
LINE
  5
280
100
AcDbEntity
  8
0
100
AcDbLine
 62
7
  6
CONTINUOUS
 10
368.1982657839
 20
31.5909400446
 11
368.2560780634
 21
31.6554674174
  0
LINE
  5
281
100
AcDbEntity
  8
0
100
AcDbLine
 62
7
  6
CONTINUOUS
 10
358.6592030565
 20
31.7199947902
 11
358.5435780634
 21
31.6554674174
  0
LINE
  5
282
100
AcDbEntity
  8
0
100
AcDbLine
 62
7
  6
CONTINUOUS
 10
358.7748280496
 20
31.5586763581
 11
358.9482655496
 21
31.6554674174
  0
LINE
  5
283
100
AcDbEntity
  8
0
100
AcDbLine
 62
7
  6
CONTINUOUS
 10
361.0873281185
 20
31.7522584767
 11
360.9717030634
 21
31.6877311038
  0
LINE
  5
284
100
AcDbEntity
  8
0
100
AcDbLine
 62
7
  6
CONTINUOUS
 10
360.9717030634
 20
31.5586763581
 11
361.0873281185
 21
31.623203731
  0
LINE
  5
285
100
AcDbEntity
  8
0
100
AcDbLine
 62
7
  6
CONTINUOUS
 10
359.9888905082
 20
30.9134025506
 11
360.1623280082
 21
31.0101936212
  0
LINE
  5
286
100
AcDbEntity
  8
0
100
AcDbLine
 62
7
  6
CONTINUOUS
 10
359.0060780772
 20
30.8488751693
 11
359.3529530358
 21
30.81661148
  0
LINE
  5
287
100
AcDbEntity
  8
0
100
AcDbLine
 62
7
  6
CONTINUOUS
 10
363.1107656736
 20
30.8488751693
 11
363.3420154531
 21
30.81661148
  0
LINE
  5
288
100
AcDbEntity
  8
0
100
AcDbLine
 62
7
  6
CONTINUOUS
 10
361.4920155634
 20
31.7199947902
 11
361.7232656736
 21
31.6877311038
  0
LINE
  5
289
100
AcDbEntity
  8
0
100
AcDbLine
 62
7
  6
CONTINUOUS
 10
363.8045156736
 20
31.7199947902
 11
364.0357657839
 21
31.6877311038
  0
LINE
  5
28A
100
AcDbEntity
  8
0
100
AcDbLine
 62
7
  6
CONTINUOUS
 10
368.2560780634
 20
31.3650941944
 11
369.2388907839
 21
31.2037757623
  0
LINE
  5
28B
100
AcDbEntity
  8
0
100
AcDbLine
 62
7
  6
CONTINUOUS
 10
369.4123282839
 20
31.3005668216
 11
368.4295155634
 21
31.4618852989
  0
LINE
  5
28C
100
AcDbEntity
  8
0
100
AcDbLine
 62
7
  6
CONTINUOUS
 10
361.8967031736
 20
31.8167858495
 11
361.7232656736
 21
31.8490495359
  0
LINE
  5
28D
100
AcDbEntity
  8
0
100
AcDbLine
 62
7
  6
CONTINUOUS
 10
368.1982657839
 20
30.8811388585
 11
368.3717032839
 21
30.8488751693
  0
LINE
  5
28E
100
AcDbEntity
  8
0
100
AcDbLine
 62
7
  6
CONTINUOUS
 10
367.0420155634
 20
31.8167858495
 11
366.8685780634
 21
31.8490495359
  0
LINE
  5
28F
100
AcDbEntity
  8
0
100
AcDbLine
 62
7
  6
CONTINUOUS
 10
369.2967030634
 20
31.6877311038
 11
369.4123282839
 21
31.6554674174
  0
LINE
  5
290
100
AcDbEntity
  8
0
100
AcDbLine
 62
7
  6
CONTINUOUS
 10
369.4701405634
 20
31.074720994
 11
369.4123282839
 21
31.0101936212
  0
LINE
  5
291
100
AcDbEntity
  8
0
100
AcDbLine
 62
7
  6
CONTINUOUS
 10
368.0248282839
 20
31.7522584767
 11
367.9092030634
 21
31.6554674174
  0
LINE
  5
292
100
AcDbEntity
  8
0
100
AcDbLine
 62
7
  6
CONTINUOUS
 10
362.9373281736
 20
31.7845221631
 11
362.8217029531
 21
31.7199947902
  0
LINE
  5
293
100
AcDbEntity
  8
0
100
AcDbLine
 62
7
  6
CONTINUOUS
 10
362.9951404531
 20
31.397357926
 11
362.8795155634
 21
31.332830508
  0
LINE
  5
294
100
AcDbEntity
  8
0
100
AcDbLine
 62
7
  6
CONTINUOUS
 10
363.1107656736
 20
31.2360394487
 11
363.2263905634
 21
31.3005668216
  0
LINE
  5
295
100
AcDbEntity
  8
0
100
AcDbLine
 62
7
  6
CONTINUOUS
 10
360.6826405082
 20
30.81661148
 11
360.9717030634
 21
30.81661148
  0
LINE
  5
296
100
AcDbEntity
  8
0
100
AcDbLine
 62
7
  6
CONTINUOUS
 10
362.0123280634
 20
30.81661148
 11
362.3013904531
 21
30.81661148
  0
LINE
  5
297
100
AcDbEntity
  8
0
100
AcDbLine
 62
7
  6
CONTINUOUS
 10
363.3420154531
 20
30.81661148
 11
363.6888904531
 21
30.81661148
  0
LINE
  5
298
100
AcDbEntity
  8
0
100
AcDbLine
 62
7
  6
CONTINUOUS
 10
364.3248278428
 20
30.81661148
 11
364.6138905634
 21
30.81661148
  0
LINE
  5
299
100
AcDbEntity
  8
0
100
AcDbLine
 62
7
  6
CONTINUOUS
 10
365.0763907839
 20
30.81661148
 11
365.3654528428
 21
30.81661148
  0
LINE
  5
29A
100
AcDbEntity
  8
0
100
AcDbLine
 62
7
  6
CONTINUOUS
 10
365.8279530634
 20
30.81661148
 11
366.1170157839
 21
30.81661148
  0
LINE
  5
29B
100
AcDbEntity
  8
0
100
AcDbLine
 62
7
  6
CONTINUOUS
 10
367.1576407839
 20
30.81661148
 11
367.4467028428
 21
30.81661148
  0
LINE
  5
29C
100
AcDbEntity
  8
0
100
AcDbLine
 62
7
  6
CONTINUOUS
 10
368.7185782839
 20
30.81661148
 11
369.0654532839
 21
30.81661148
  0
LINE
  5
29D
100
AcDbEntity
  8
0
100
AcDbLine
 62
7
  6
CONTINUOUS
 10
369.0654532839
 20
30.945666237
 11
368.7185782839
 21
30.945666237
  0
LINE
  5
29E
100
AcDbEntity
  8
0
100
AcDbLine
 62
7
  6
CONTINUOUS
 10
363.6888904531
 20
30.945666237
 11
363.3420154531
 21
30.945666237
  0
LINE
  5
29F
100
AcDbEntity
  8
0
100
AcDbLine
 62
7
  6
CONTINUOUS
 10
368.1982657839
 20
31.074720994
 11
367.9092030634
 21
31.074720994
  0
LINE
  5
2A0
100
AcDbEntity
  8
0
100
AcDbLine
 62
7
  6
CONTINUOUS
 10
360.2201406185
 20
31.1392483894
 11
359.9310780634
 21
31.1392483894
  0
LINE
  5
2A1
100
AcDbEntity
  8
0
100
AcDbLine
 62
7
  6
CONTINUOUS
 10
359.2951405909
 20
31.7199947902
 11
359.6998280358
 21
31.6877311038
  0
LINE
  5
2A2
100
AcDbEntity
  8
0
100
AcDbLine
 62
7
  6
CONTINUOUS
 10
359.7576405634
 20
31.8167858495
 11
359.3529530358
 21
31.8490495359
  0
LINE
  5
2A3
100
AcDbEntity
  8
0
100
AcDbLine
 62
7
  6
CONTINUOUS
 10
368.3717032839
 20
30.8488751693
 11
368.7185782839
 21
30.81661148
  0
LINE
  5
2A4
100
AcDbEntity
  8
0
100
AcDbLine
 62
7
  6
CONTINUOUS
 10
368.7185782839
 20
30.945666237
 11
368.3717032839
 21
30.9779299347
  0
LINE
  5
2A5
100
AcDbEntity
  8
0
100
AcDbLine
 62
7
  6
CONTINUOUS
 10
364.1513903428
 20
31.8167858495
 11
363.8045156736
 21
31.8490495359
  0
LINE
  5
2A6
100
AcDbEntity
  8
0
100
AcDbLine
 62
7
  6
CONTINUOUS
 10
368.9498280634
 20
31.7199947902
 11
369.2967030634
 21
31.6877311038
  0
LINE
  5
2A7
100
AcDbEntity
  8
0
100
AcDbLine
 62
7
  6
CONTINUOUS
 10
369.2967030634
 20
31.8167858495
 11
368.9498280634
 21
31.8490495359
  0
LINE
  5
2A8
100
AcDbEntity
  8
0
100
AcDbLine
 62
7
  6
CONTINUOUS
 10
366.6373282839
 20
31.7199947902
 11
366.8685780634
 21
31.6877311038
  0
LINE
  5
2A9
100
AcDbEntity
  8
0
100
AcDbLine
 62
7
  6
CONTINUOUS
 10
369.4701405634
 20
31.7845221631
 11
369.2967030634
 21
31.8167858495
  0
LINE
  5
2AA
100
AcDbEntity
  8
0
100
AcDbLine
 62
7
  6
CONTINUOUS
 10
369.6435780634
 20
30.9134025506
 11
369.7592026223
 21
31.0101936212
  0
LINE
  5
2AB
100
AcDbEntity
  8
0
100
AcDbLine
 62
7
  6
CONTINUOUS
 10
364.1513903428
 20
31.106984703
 11
363.9779528428
 21
31.0101936212
  0
LINE
  5
2AC
100
AcDbEntity
  8
0
100
AcDbLine
 62
7
  6
CONTINUOUS
 10
366.2326403428
 20
31.7522584767
 11
366.1170157839
 21
31.6877311038
  0
LINE
  5
2AD
100
AcDbEntity
  8
0
100
AcDbLine
 62
7
  6
CONTINUOUS
 10
366.1170157839
 20
31.5586763581
 11
366.2326403428
 21
31.623203731
  0
LINE
  5
2AE
100
AcDbEntity
  8
0
100
AcDbLine
 62
7
  6
CONTINUOUS
 10
358.8326405772
 20
31.7845221631
 11
358.6592030565
 21
31.7199947902
  0
LINE
  5
2AF
100
AcDbEntity
  8
0
100
AcDbLine
 62
7
  6
CONTINUOUS
 10
361.2607654531
 20
31.8167858495
 11
361.0873281185
 21
31.7522584767
  0
LINE
  5
2B0
100
AcDbEntity
  8
0
100
AcDbLine
 62
7
  6
CONTINUOUS
 10
361.0873281185
 20
31.623203731
 11
361.2607654531
 21
31.6877311038
  0
LINE
  5
2B1
100
AcDbEntity
  8
0
100
AcDbLine
 62
7
  6
CONTINUOUS
 10
359.8732656185
 20
31.0424573076
 11
359.6998280358
 21
30.9779299347
  0
LINE
  5
2B2
100
AcDbEntity
  8
0
100
AcDbLine
 62
7
  6
CONTINUOUS
 10
369.2967030634
 20
30.9779299347
 11
369.0654532839
 21
30.945666237
  0
LINE
  5
2B3
100
AcDbEntity
  8
0
100
AcDbLine
 62
7
  6
CONTINUOUS
 10
363.6888904531
 20
30.81661148
 11
363.9779528428
 21
30.8488751693
  0
LINE
  5
2B4
100
AcDbEntity
  8
0
100
AcDbLine
 62
7
  6
CONTINUOUS
 10
369.0654532839
 20
30.81661148
 11
369.4123282839
 21
30.8488751693
  0
LINE
  5
2B5
100
AcDbEntity
  8
0
100
AcDbLine
 62
7
  6
CONTINUOUS
 10
359.3529530358
 20
30.81661148
 11
359.7576405634
 21
30.8488751693
  0
LINE
  5
2B6
100
AcDbEntity
  8
0
100
AcDbLine
 62
7
  6
CONTINUOUS
 10
359.6998280358
 20
30.9779299347
 11
359.2951405909
 21
30.945666237
  0
LINE
  5
2B7
100
AcDbEntity
  8
0
100
AcDbLine
 62
7
  6
CONTINUOUS
 10
363.5732655634
 20
31.3650941944
 11
364.2092032839
 21
31.3650941944
  0
LINE
  5
2B8
100
AcDbEntity
  8
0
100
AcDbLine
 62
7
  6
CONTINUOUS
 10
364.2092032839
 20
31.4941489853
 11
363.5732655634
 21
31.4941489853
  0
LINE
  5
2B9
100
AcDbEntity
  8
0
100
AcDbLine
 62
7
  6
CONTINUOUS
 10
359.9310780634
 20
31.5264126717
 11
360.2201406185
 21
31.5264126717
  0
LINE
  5
2BA
100
AcDbEntity
  8
0
100
AcDbLine
 62
7
  6
CONTINUOUS
 10
362.7638906736
 20
31.5909400446
 11
363.0529530634
 21
31.5909400446
  0
LINE
  5
2BB
100
AcDbEntity
  8
0
100
AcDbLine
 62
7
  6
CONTINUOUS
 10
369.4701405634
 20
31.5909400446
 11
369.7592026223
 21
31.5909400446
  0
LINE
  5
2BC
100
AcDbEntity
  8
0
100
AcDbLine
 62
7
  6
CONTINUOUS
 10
363.4576406736
 20
31.7199947902
 11
363.8045156736
 21
31.7199947902
  0
LINE
  5
2BD
100
AcDbEntity
  8
0
100
AcDbLine
 62
7
  6
CONTINUOUS
 10
368.6029530634
 20
31.7199947902
 11
368.9498280634
 21
31.7199947902
  0
LINE
  5
2BE
100
AcDbEntity
  8
0
100
AcDbLine
 62
7
  6
CONTINUOUS
 10
368.9498280634
 20
31.8490495359
 11
368.6029530634
 21
31.8490495359
  0
LINE
  5
2BF
100
AcDbEntity
  8
0
100
AcDbLine
 62
7
  6
CONTINUOUS
 10
366.8685780634
 20
31.8490495359
 11
366.6373282839
 21
31.8490495359
  0
LINE
  5
2C0
100
AcDbEntity
  8
0
100
AcDbLine
 62
7
  6
CONTINUOUS
 10
366.1170157839
 20
31.8490495359
 11
365.8279530634
 21
31.8490495359
  0
LINE
  5
2C1
100
AcDbEntity
  8
0
100
AcDbLine
 62
7
  6
CONTINUOUS
 10
365.3654528428
 20
31.8490495359
 11
365.0763907839
 21
31.8490495359
  0
LINE
  5
2C2
100
AcDbEntity
  8
0
100
AcDbLine
 62
7
  6
CONTINUOUS
 10
363.8045156736
 20
31.8490495359
 11
363.4576406736
 21
31.8490495359
  0
LINE
  5
2C3
100
AcDbEntity
  8
0
100
AcDbLine
 62
7
  6
CONTINUOUS
 10
361.7232656736
 20
31.8490495359
 11
361.4920155634
 21
31.8490495359
  0
LINE
  5
2C4
100
AcDbEntity
  8
0
100
AcDbLine
 62
7
  6
CONTINUOUS
 10
365.0763907839
 20
32.1716864905
 11
365.3654528428
 21
32.1716864905
  0
LINE
  5
2C5
100
AcDbEntity
  8
0
100
AcDbLine
 62
7
  6
CONTINUOUS
 10
365.3654528428
 20
32.3330049227
 11
365.0763907839
 21
32.3330049227
  0
LINE
  5
2C6
100
AcDbEntity
  8
0
100
AcDbLine
 62
7
  6
CONTINUOUS
 10
360.9717030634
 20
32.3330049227
 11
360.6826405082
 21
32.3330049227
  0
LINE
  5
2C7
100
AcDbEntity
  8
0
100
AcDbLine
 62
7
  6
CONTINUOUS
 10
360.0094848257
 20
32.6198901686
 11
360.4220561743
 21
32.6198901686
  0
LINE
  5
2C8
100
AcDbEntity
  8
0
100
AcDbLine
 62
7
  6
CONTINUOUS
 10
361.648829088
 20
32.6198901686
 11
363.0422717109
 21
32.6198901686
  0
LINE
  5
2C9
100
AcDbEntity
  8
0
100
AcDbLine
 62
7
  6
CONTINUOUS
 10
363.3701405634
 20
32.6198901686
 11
364.7635831863
 21
32.6198901686
  0
LINE
  5
2CA
100
AcDbEntity
  8
0
100
AcDbLine
 62
7
  6
CONTINUOUS
 10
366.648829088
 20
32.6198901686
 11
368.0422717109
 21
32.6198901686
  0
LINE
  5
2CB
100
AcDbEntity
  8
0
100
AcDbLine
 62
7
  6
CONTINUOUS
 10
368.3701405634
 20
32.6198901686
 11
369.7635831863
 21
32.6198901686
  0
LINE
  5
2CC
100
AcDbEntity
  8
0
100
AcDbLine
 62
7
  6
CONTINUOUS
 10
366.4060778428
 20
31.8167858495
 11
366.2326403428
 21
31.7522584767
  0
LINE
  5
2CD
100
AcDbEntity
  8
0
100
AcDbLine
 62
7
  6
CONTINUOUS
 10
363.9779528428
 20
30.8488751693
 11
364.1513903428
 21
30.9134025506
  0
LINE
  5
2CE
100
AcDbEntity
  8
0
100
AcDbLine
 62
7
  6
CONTINUOUS
 10
369.4123282839
 20
30.8488751693
 11
369.6435780634
 21
30.9134025506
  0
LINE
  5
2CF
100
AcDbEntity
  8
0
100
AcDbLine
 62
7
  6
CONTINUOUS
 10
369.4123282839
 20
31.0101936212
 11
369.2967030634
 21
30.9779299347
  0
LINE
  5
2D0
100
AcDbEntity
  8
0
100
AcDbLine
 62
7
  6
CONTINUOUS
 10
368.3717032839
 20
31.6877311038
 11
368.6029530634
 21
31.7199947902
  0
LINE
  5
2D1
100
AcDbEntity
  8
0
100
AcDbLine
 62
7
  6
CONTINUOUS
 10
366.4060778428
 20
31.6877311038
 11
366.6373282839
 21
31.7199947902
  0
LINE
  5
2D2
100
AcDbEntity
  8
0
100
AcDbLine
 62
7
  6
CONTINUOUS
 10
363.3420154531
 20
31.332830508
 11
363.5732655634
 21
31.3650941944
  0
LINE
  5
2D3
100
AcDbEntity
  8
0
100
AcDbLine
 62
7
  6
CONTINUOUS
 10
366.6373282839
 20
31.8490495359
 11
366.4060778428
 21
31.8167858495
  0
LINE
  5
2D4
100
AcDbEntity
  8
0
100
AcDbLine
 62
7
  6
CONTINUOUS
 10
363.2263905634
 20
31.6877311038
 11
363.4576406736
 21
31.7199947902
  0
LINE
  5
2D5
100
AcDbEntity
  8
0
100
AcDbLine
 62
7
  6
CONTINUOUS
 10
368.6029530634
 20
31.8490495359
 11
368.2560780634
 21
31.8167858495
  0
LINE
  5
2D6
100
AcDbEntity
  8
0
100
AcDbLine
 62
7
  6
CONTINUOUS
 10
363.5732655634
 20
31.4941489853
 11
363.2263905634
 21
31.4618852989
  0
LINE
  5
2D7
100
AcDbEntity
  8
0
100
AcDbLine
 62
7
  6
CONTINUOUS
 10
359.3529530358
 20
31.8490495359
 11
359.0060780772
 21
31.8167858495
  0
LINE
  5
2D8
100
AcDbEntity
  8
0
100
AcDbLine
 62
7
  6
CONTINUOUS
 10
363.4576406736
 20
31.8490495359
 11
363.0529530634
 21
31.8167858495
  0
LINE
  5
2D9
100
AcDbEntity
  8
0
100
AcDbLine
 62
7
  6
CONTINUOUS
 10
360.8291569568
 20
33.7674311522
 11
360.1734192519
 21
33.7674311522
  0
LINE
  5
2DA
100
AcDbEntity
  8
0
100
AcDbLine
 62
7
  6
CONTINUOUS
 10
366.2326403428
 20
31.623203731
 11
366.4060778428
 21
31.6877311038
  0
LINE
  5
2DB
100
AcDbEntity
  8
0
100
AcDbLine
 62
7
  6
CONTINUOUS
 10
368.2560780634
 20
31.6554674174
 11
368.3717032839
 21
31.6877311038
  0
LINE
  5
2DC
100
AcDbEntity
  8
0
100
AcDbLine
 62
7
  6
CONTINUOUS
 10
368.2560780634
 20
31.8167858495
 11
368.0248282839
 21
31.7522584767
  0
LINE
  5
2DD
100
AcDbEntity
  8
0
100
AcDbLine
 62
7
  6
CONTINUOUS
 10
363.9779528428
 20
31.0101936212
 11
363.6888904531
 21
30.945666237
  0
LINE
  5
2DE
100
AcDbEntity
  8
0
100
AcDbLine
 62
7
  6
CONTINUOUS
 10
361.2607654531
 20
31.6877311038
 11
361.4920155634
 21
31.7199947902
  0
LINE
  5
2DF
100
AcDbEntity
  8
0
100
AcDbLine
 62
7
  6
CONTINUOUS
 10
361.4920155634
 20
31.8490495359
 11
361.2607654531
 21
31.8167858495
  0
LINE
  5
2E0
100
AcDbEntity
  8
0
100
AcDbLine
 62
7
  6
CONTINUOUS
 10
359.0638905634
 20
31.6877311038
 11
359.2951405909
 21
31.7199947902
  0
LINE
  5
2E1
100
AcDbEntity
  8
0
100
AcDbLine
 62
7
  6
CONTINUOUS
 10
365.5832553175
 20
35.2428409882
 11
366.2389930224
 21
35.2428409882
  0
LINE
  5
2E2
100
AcDbEntity
  8
0
100
AcDbLine
 62
7
  6
CONTINUOUS
 10
363.2263905634
 20
31.3005668216
 11
363.3420154531
 21
31.332830508
  0
LINE
  5
2E3
100
AcDbEntity
  8
0
100
AcDbLine
 62
7
  6
CONTINUOUS
 10
363.2263905634
 20
31.4618852989
 11
362.9951404531
 21
31.397357926
  0
LINE
  5
2E4
100
AcDbEntity
  8
0
100
AcDbLine
 62
7
  6
CONTINUOUS
 10
363.1107656736
 20
31.6554674174
 11
363.2263905634
 21
31.6877311038
  0
LINE
  5
2E5
100
AcDbEntity
  8
0
100
AcDbLine
 62
7
  6
CONTINUOUS
 10
359.7576405634
 20
30.8488751693
 11
359.9888905082
 21
30.9134025506
  0
LINE
  5
2E6
100
AcDbEntity
  8
0
100
AcDbLine
 62
7
  6
CONTINUOUS
 10
363.0529530634
 20
31.8167858495
 11
362.9373281736
 21
31.7845221631
  0
LINE
  5
2E7
100
AcDbEntity
  8
0
100
AcDbLine
 62
7
  6
CONTINUOUS
 10
359.0060780772
 20
31.8167858495
 11
358.8326405772
 21
31.7845221631
  0
LINE
  5
2E8
100
AcDbEntity
  8
0
100
AcDbLine
 62
7
  6
CONTINUOUS
 10
369.7635831863
 20
36.3903819718
 11
368.3701405634
 21
36.3903819718
  0
LINE
  5
2E9
100
AcDbEntity
  8
0
100
AcDbLine
 62
7
  6
CONTINUOUS
 10
366.4029274486
 20
36.3903819718
 11
365.9903561
 21
36.3903819718
  0
LINE
  5
2EA
100
AcDbEntity
  8
0
100
AcDbLine
 62
7
  6
CONTINUOUS
 10
364.7635831863
 20
36.3903819718
 11
363.3701405634
 21
36.3903819718
  0
LINE
  5
2EB
100
AcDbEntity
  8
0
100
AcDbLine
 62
7
  6
CONTINUOUS
 10
363.0422717109
 20
36.3903819718
 11
361.648829088
 21
36.3903819718
  0
LINE
  5
2EC
100
AcDbEntity
  8
0
100
AcDbLine
 62
7
  6
CONTINUOUS
 10
359.7635831863
 20
36.3903819718
 11
358.3701405634
 21
36.3903819718
  0
LINE
  5
2ED
100
AcDbEntity
  8
0
100
AcDbLine
 62
7
  6
CONTINUOUS
 10
358.9482655496
 20
31.6554674174
 11
359.0638905634
 21
31.6877311038
  0
CIRCLE
  5
2EE
100
AcDbEntity
  8
0
100
AcDbCircle
 62
7
  6
CONTINUOUS
 10
369.0668618749
 20
38.7264475456
 40
2.0901639344
  0
ARC
  5
2EF
100
AcDbEntity
  8
0
100
AcDbCircle
 62
7
  6
CONTINUOUS
 10
360.0094848257
 20
34.2592344308
 40
1.6393442623
100
AcDbArc
 50
180.0
 51
270.0
  0
ARC
  5
2F0
100
AcDbEntity
  8
0
100
AcDbCircle
 62
7
  6
CONTINUOUS
 10
366.4029274486
 20
34.7510377095
 40
1.6393442623
100
AcDbArc
 50
0.0
 51
90.0
  0
ARC
  5
2F1
100
AcDbEntity
  8
0
100
AcDbCircle
 62
7
  6
CONTINUOUS
 10
360.4220561743
 20
34.0953000046
 40
1.4754098361
100
AcDbArc
 50
270.0
 51
326.2510114041
  0
ARC
  5
2F2
100
AcDbEntity
  8
0
100
AcDbCircle
 62
7
  6
CONTINUOUS
 10
365.9903561
 20
34.9149721358
 40
1.4754098361
100
AcDbArc
 50
90.0
 51
146.2510114041
  0
ARC
  5
2F3
100
AcDbEntity
  8
0
100
AcDbCircle
 62
7
  6
CONTINUOUS
 10
360.8291569568
 20
34.5871032833
 40
0.8196721311
100
AcDbArc
 50
270.0
 51
360.0
  0
ARC
  5
2F4
100
AcDbEntity
  8
0
100
AcDbCircle
 62
7
  6
CONTINUOUS
 10
365.5832553175
 20
34.4231688571
 40
0.8196721311
100
AcDbArc
 50
90.0
 51
180.0
  0
ARC
  5
2F5
100
AcDbEntity
  8
0
100
AcDbCircle
 62
7
  6
CONTINUOUS
 10
360.1734192519
 20
34.1772672177
 40
0.4098360656
100
AcDbArc
 50
180.0
 51
270.0
  0
ARC
  5
2F6
100
AcDbEntity
  8
0
100
AcDbCircle
 62
7
  6
CONTINUOUS
 10
366.2389930224
 20
34.8330049227
 40
0.4098360656
100
AcDbArc
 50
0.0
 51
90.0
  0
SOLID
  5
2F7
100
AcDbEntity
  8
0
100
AcDbTrace
 62
7
  6
CONTINUOUS
 10
365.0763907839
 20
32.1716868508
 11
365.0763907839
 21
32.3330053344
 12
365.3654528428
 22
32.1716868508
 13
365.3654528428
 23
32.3330053344
  0
LWPOLYLINE
  5
2F8
100
AcDbEntity
  8
0
100
AcDbPolyline
 62
7
  6
CONTINUOUS
 90
13
 70
0
 10
359.3529530358
 20
31.8490498836
 10
359.7576405634
 20
31.8167855803
 10
359.9888905082
 20
31.7522584901
 10
360.1623280082
 20
31.6554670967
 10
360.2201406185
 20
31.5264129164
 10
359.9310780634
 20
31.5264129164
 10
359.8732656185
 20
31.6232043098
 10
359.6998280358
 20
31.6877314
 10
359.2951405909
 20
31.7199941869
 10
358.6592030565
 20
31.7199941869
 10
358.8326405772
 20
31.7845227934
 10
359.0060780772
 20
31.8167855803
 10
359.3529530358
 20
31.8490498836
  0
HATCH
  5
2F9
100
AcDbEntity
  8
0
100
AcDbHatch
 62
7
  6
CONTINUOUS
 10
0.0
 20
0.0
 30
0.0
210
0.0
220
0.0
230
1.0
  2
SOLID
 70
1
 71
1
 91
1
 92
1
 93
12
 72
1
 10
359.3529530358
 20
31.8490498836
 11
359.7576405634
 21
31.8167855803
 72
1
 10
359.7576405634
 20
31.8167855803
 11
359.9888905082
 21
31.7522584901
 72
1
 10
359.9888905082
 20
31.7522584901
 11
360.1623280082
 21
31.6554670967
 72
1
 10
360.1623280082
 20
31.6554670967
 11
360.2201406185
 21
31.5264129164
 72
1
 10
360.2201406185
 20
31.5264129164
 11
359.9310780634
 21
31.5264129164
 72
1
 10
359.9310780634
 20
31.5264129164
 11
359.8732656185
 21
31.6232043098
 72
1
 10
359.8732656185
 20
31.6232043098
 11
359.6998280358
 21
31.6877314
 72
1
 10
359.6998280358
 20
31.6877314
 11
359.2951405909
 21
31.7199941869
 72
1
 10
359.2951405909
 20
31.7199941869
 11
358.6592030565
 21
31.7199941869
 72
1
 10
358.6592030565
 20
31.7199941869
 11
358.8326405772
 21
31.7845227934
 72
1
 10
358.8326405772
 20
31.7845227934
 11
359.0060780772
 21
31.8167855803
 72
1
 10
359.0060780772
 20
31.8167855803
 11
359.3529530358
 21
31.8490498836
 97
1
330
2F8
 75
0
 76
1
 98
1
 10
0.0
 20
0.0
  0
LWPOLYLINE
  5
2FA
100
AcDbEntity
  8
0
100
AcDbPolyline
 62
7
  6
CONTINUOUS
 90
25
 70
0
 10
361.2607654531
 20
31.8167855803
 10
361.4920155634
 20
31.8490498836
 10
361.7232656736
 20
31.8490498836
 10
361.8967031736
 20
31.8167855803
 10
362.0701406736
 20
31.7522584901
 10
362.1857655634
 20
31.6877314
 10
362.2435781736
 20
31.6232043098
 10
362.3013904531
 20
31.4618858262
 10
362.3013904531
 20
30.8166118918
 10
362.0123280634
 20
30.8166118918
 10
362.0123280634
 20
31.4618858262
 10
361.9545154531
 20
31.5909400065
 10
361.8388905634
 20
31.6554670967
 10
361.7232656736
 20
31.6877314
 10
361.4920155634
 20
31.7199941869
 10
361.2607654531
 20
31.6877314
 10
361.0873281185
 20
31.6232043098
 10
360.9717030634
 20
31.5586757033
 10
360.9717030634
 20
30.8166118918
 10
360.6826405082
 20
30.8166118918
 10
360.6826405082
 20
32.3330053344
 10
360.9717030634
 20
32.3330053344
 10
360.9717030634
 20
31.6877314
 10
361.0873281185
 20
31.7522584901
 10
361.2607654531
 20
31.8167855803
  0
HATCH
  5
2FB
100
AcDbEntity
  8
0
100
AcDbHatch
 62
7
  6
CONTINUOUS
 10
0.0
 20
0.0
 30
0.0
210
0.0
220
0.0
230
1.0
  2
SOLID
 70
1
 71
1
 91
1
 92
1
 93
24
 72
1
 10
361.2607654531
 20
31.8167855803
 11
361.4920155634
 21
31.8490498836
 72
1
 10
361.4920155634
 20
31.8490498836
 11
361.7232656736
 21
31.8490498836
 72
1
 10
361.7232656736
 20
31.8490498836
 11
361.8967031736
 21
31.8167855803
 72
1
 10
361.8967031736
 20
31.8167855803
 11
362.0701406736
 21
31.7522584901
 72
1
 10
362.0701406736
 20
31.7522584901
 11
362.1857655634
 21
31.6877314
 72
1
 10
362.1857655634
 20
31.6877314
 11
362.2435781736
 21
31.6232043098
 72
1
 10
362.2435781736
 20
31.6232043098
 11
362.3013904531
 21
31.4618858262
 72
1
 10
362.3013904531
 20
31.4618858262
 11
362.3013904531
 21
30.8166118918
 72
1
 10
362.3013904531
 20
30.8166118918
 11
362.0123280634
 21
30.8166118918
 72
1
 10
362.0123280634
 20
30.8166118918
 11
362.0123280634
 21
31.4618858262
 72
1
 10
362.0123280634
 20
31.4618858262
 11
361.9545154531
 21
31.5909400065
 72
1
 10
361.9545154531
 20
31.5909400065
 11
361.8388905634
 21
31.6554670967
 72
1
 10
361.8388905634
 20
31.6554670967
 11
361.7232656736
 21
31.6877314
 72
1
 10
361.7232656736
 20
31.6877314
 11
361.4920155634
 21
31.7199941869
 72
1
 10
361.4920155634
 20
31.7199941869
 11
361.2607654531
 21
31.6877314
 72
1
 10
361.2607654531
 20
31.6877314
 11
361.0873281185
 21
31.6232043098
 72
1
 10
361.0873281185
 20
31.6232043098
 11
360.9717030634
 21
31.5586757033
 72
1
 10
360.9717030634
 20
31.5586757033
 11
360.9717030634
 21
30.8166118918
 72
1
 10
360.9717030634
 20
30.8166118918
 11
360.6826405082
 21
30.8166118918
 72
1
 10
360.6826405082
 20
30.8166118918
 11
360.6826405082
 21
32.3330053344
 72
1
 10
360.6826405082
 20
32.3330053344
 11
360.9717030634
 21
32.3330053344
 72
1
 10
360.9717030634
 20
32.3330053344
 11
360.9717030634
 21
31.6877314
 72
1
 10
360.9717030634
 20
31.6877314
 11
361.0873281185
 21
31.7522584901
 72
1
 10
361.0873281185
 20
31.7522584901
 11
361.2607654531
 21
31.8167855803
 97
1
330
2FA
 75
0
 76
1
 98
1
 10
0.0
 20
0.0
  0
LWPOLYLINE
  5
2FC
100
AcDbEntity
  8
0
100
AcDbPolyline
 62
7
  6
CONTINUOUS
 90
20
 70
0
 10
363.0529530634
 20
31.8167855803
 10
363.4576406736
 20
31.8490498836
 10
363.8045156736
 20
31.8490498836
 10
364.1513903428
 20
31.8167855803
 10
364.3248278428
 20
31.7522584901
 10
364.4404530634
 20
31.6877314
 10
364.4982653428
 20
31.5909400065
 10
364.4982653428
 20
31.0747202524
 10
364.2092032839
 20
31.1715120759
 10
364.2092032839
 20
31.3650944328
 10
364.2092032839
 20
31.4941486131
 10
364.2092032839
 20
31.5909400065
 10
364.1513903428
 20
31.6554670967
 10
364.0357657839
 20
31.6877314
 10
363.8045156736
 20
31.7199941869
 10
363.4576406736
 20
31.7199941869
 10
362.7638906736
 20
31.6554670967
 10
362.8217029531
 20
31.7199941869
 10
362.9373281736
 20
31.7845227934
 10
363.0529530634
 20
31.8167855803
  0
HATCH
  5
2FD
100
AcDbEntity
  8
0
100
AcDbHatch
 62
7
  6
CONTINUOUS
 10
0.0
 20
0.0
 30
0.0
210
0.0
220
0.0
230
1.0
  2
SOLID
 70
1
 71
1
 91
1
 92
1
 93
19
 72
1
 10
363.0529530634
 20
31.8167855803
 11
363.4576406736
 21
31.8490498836
 72
1
 10
363.4576406736
 20
31.8490498836
 11
363.8045156736
 21
31.8490498836
 72
1
 10
363.8045156736
 20
31.8490498836
 11
364.1513903428
 21
31.8167855803
 72
1
 10
364.1513903428
 20
31.8167855803
 11
364.3248278428
 21
31.7522584901
 72
1
 10
364.3248278428
 20
31.7522584901
 11
364.4404530634
 21
31.6877314
 72
1
 10
364.4404530634
 20
31.6877314
 11
364.4982653428
 21
31.5909400065
 72
1
 10
364.4982653428
 20
31.5909400065
 11
364.4982653428
 21
31.0747202524
 72
1
 10
364.4982653428
 20
31.0747202524
 11
364.2092032839
 21
31.1715120759
 72
1
 10
364.2092032839
 20
31.1715120759
 11
364.2092032839
 21
31.3650944328
 72
1
 10
364.2092032839
 20
31.3650944328
 11
364.2092032839
 21
31.4941486131
 72
1
 10
364.2092032839
 20
31.4941486131
 11
364.2092032839
 21
31.5909400065
 72
1
 10
364.2092032839
 20
31.5909400065
 11
364.1513903428
 21
31.6554670967
 72
1
 10
364.1513903428
 20
31.6554670967
 11
364.0357657839
 21
31.6877314
 72
1
 10
364.0357657839
 20
31.6877314
 11
363.8045156736
 21
31.7199941869
 72
1
 10
363.8045156736
 20
31.7199941869
 11
363.4576406736
 21
31.7199941869
 72
1
 10
363.4576406736
 20
31.7199941869
 11
362.7638906736
 21
31.6554670967
 72
1
 10
362.7638906736
 20
31.6554670967
 11
362.8217029531
 21
31.7199941869
 72
1
 10
362.8217029531
 20
31.7199941869
 11
362.9373281736
 21
31.7845227934
 72
1
 10
362.9373281736
 20
31.7845227934
 11
363.0529530634
 21
31.8167855803
 97
1
330
2FC
 75
0
 76
1
 98
1
 10
0.0
 20
0.0
  0
LWPOLYLINE
  5
2FE
100
AcDbEntity
  8
0
100
AcDbPolyline
 62
7
  6
CONTINUOUS
 90
25
 70
0
 10
366.4060778428
 20
31.8167855803
 10
366.6373282839
 20
31.8490498836
 10
366.8685780634
 20
31.8490498836
 10
367.0420155634
 20
31.8167855803
 10
367.2154530634
 20
31.7522584901
 10
367.3310782839
 20
31.6877314
 10
367.3888905634
 20
31.5909400065
 10
367.4467028428
 20
31.4296215229
 10
367.4467028428
 20
30.8166118918
 10
367.1576407839
 20
30.8166118918
 10
367.1576407839
 20
31.4296215229
 10
367.0998278428
 20
31.5909400065
 10
366.9842032839
 20
31.6554670967
 10
366.8685780634
 20
31.6877314
 10
366.6373282839
 20
31.7199941869
 10
366.4060778428
 20
31.6877314
 10
366.2326403428
 20
31.6232043098
 10
366.1170157839
 20
31.5586757033
 10
366.1170157839
 20
30.8166118918
 10
365.8279530634
 20
30.8166118918
 10
365.8279530634
 20
31.8490498836
 10
366.1170157839
 20
31.8490498836
 10
366.1170157839
 20
31.6877314
 10
366.2326403428
 20
31.7522584901
 10
366.4060778428
 20
31.8167855803
  0
HATCH
  5
2FF
100
AcDbEntity
  8
0
100
AcDbHatch
 62
7
  6
CONTINUOUS
 10
0.0
 20
0.0
 30
0.0
210
0.0
220
0.0
230
1.0
  2
SOLID
 70
1
 71
1
 91
1
 92
1
 93
24
 72
1
 10
366.4060778428
 20
31.8167855803
 11
366.6373282839
 21
31.8490498836
 72
1
 10
366.6373282839
 20
31.8490498836
 11
366.8685780634
 21
31.8490498836
 72
1
 10
366.8685780634
 20
31.8490498836
 11
367.0420155634
 21
31.8167855803
 72
1
 10
367.0420155634
 20
31.8167855803
 11
367.2154530634
 21
31.7522584901
 72
1
 10
367.2154530634
 20
31.7522584901
 11
367.3310782839
 21
31.6877314
 72
1
 10
367.3310782839
 20
31.6877314
 11
367.3888905634
 21
31.5909400065
 72
1
 10
367.3888905634
 20
31.5909400065
 11
367.4467028428
 21
31.4296215229
 72
1
 10
367.4467028428
 20
31.4296215229
 11
367.4467028428
 21
30.8166118918
 72
1
 10
367.4467028428
 20
30.8166118918
 11
367.1576407839
 21
30.8166118918
 72
1
 10
367.1576407839
 20
30.8166118918
 11
367.1576407839
 21
31.4296215229
 72
1
 10
367.1576407839
 20
31.4296215229
 11
367.0998278428
 21
31.5909400065
 72
1
 10
367.0998278428
 20
31.5909400065
 11
366.9842032839
 21
31.6554670967
 72
1
 10
366.9842032839
 20
31.6554670967
 11
366.8685780634
 21
31.6877314
 72
1
 10
366.8685780634
 20
31.6877314
 11
366.6373282839
 21
31.7199941869
 72
1
 10
366.6373282839
 20
31.7199941869
 11
366.4060778428
 21
31.6877314
 72
1
 10
366.4060778428
 20
31.6877314
 11
366.2326403428
 21
31.6232043098
 72
1
 10
366.2326403428
 20
31.6232043098
 11
366.1170157839
 21
31.5586757033
 72
1
 10
366.1170157839
 20
31.5586757033
 11
366.1170157839
 21
30.8166118918
 72
1
 10
366.1170157839
 20
30.8166118918
 11
365.8279530634
 21
30.8166118918
 72
1
 10
365.8279530634
 20
30.8166118918
 11
365.8279530634
 21
31.8490498836
 72
1
 10
365.8279530634
 20
31.8490498836
 11
366.1170157839
 21
31.8490498836
 72
1
 10
366.1170157839
 20
31.8490498836
 11
366.1170157839
 21
31.6877314
 72
1
 10
366.1170157839
 20
31.6877314
 11
366.2326403428
 21
31.7522584901
 72
1
 10
366.2326403428
 20
31.7522584901
 11
366.4060778428
 21
31.8167855803
 97
1
330
2FE
 75
0
 76
1
 98
1
 10
0.0
 20
0.0
  0
LWPOLYLINE
  5
300
100
AcDbEntity
  8
0
100
AcDbPolyline
 62
7
  6
CONTINUOUS
 90
6
 70
0
 10
368.2560780634
 20
31.8167855803
 10
368.6029530634
 20
31.8490498836
 10
368.9498280634
 20
31.8490498836
 10
369.2967030634
 20
31.8167855803
 10
368.0248282839
 20
31.7522584901
 10
368.2560780634
 20
31.8167855803
  0
HATCH
  5
301
100
AcDbEntity
  8
0
100
AcDbHatch
 62
7
  6
CONTINUOUS
 10
0.0
 20
0.0
 30
0.0
210
0.0
220
0.0
230
1.0
  2
SOLID
 70
1
 71
1
 91
1
 92
1
 93
5
 72
1
 10
368.2560780634
 20
31.8167855803
 11
368.6029530634
 21
31.8490498836
 72
1
 10
368.6029530634
 20
31.8490498836
 11
368.9498280634
 21
31.8490498836
 72
1
 10
368.9498280634
 20
31.8490498836
 11
369.2967030634
 21
31.8167855803
 72
1
 10
369.2967030634
 20
31.8167855803
 11
368.0248282839
 21
31.7522584901
 72
1
 10
368.0248282839
 20
31.7522584901
 11
368.2560780634
 21
31.8167855803
 97
1
330
300
 75
0
 76
1
 98
1
 10
0.0
 20
0.0
  0
LWPOLYLINE
  5
302
100
AcDbEntity
  8
0
100
AcDbPolyline
 62
7
  6
CONTINUOUS
 90
12
 70
0
 10
369.4701405634
 20
31.7845227934
 10
369.6435780634
 20
31.7199941869
 10
369.7592026223
 20
31.5909400065
 10
369.4701405634
 20
31.5909400065
 10
369.4123282839
 20
31.6554670967
 10
369.2967030634
 20
31.6877314
 10
368.9498280634
 20
31.7199941869
 10
368.6029530634
 20
31.7199941869
 10
367.9092030634
 20
31.6554670967
 10
368.0248282839
 20
31.7522584901
 10
369.2967030634
 20
31.8167855803
 10
369.4701405634
 20
31.7845227934
  0
HATCH
  5
303
100
AcDbEntity
  8
0
100
AcDbHatch
 62
7
  6
CONTINUOUS
 10
0.0
 20
0.0
 30
0.0
210
0.0
220
0.0
230
1.0
  2
SOLID
 70
1
 71
1
 91
1
 92
1
 93
11
 72
1
 10
369.4701405634
 20
31.7845227934
 11
369.6435780634
 21
31.7199941869
 72
1
 10
369.6435780634
 20
31.7199941869
 11
369.7592026223
 21
31.5909400065
 72
1
 10
369.7592026223
 20
31.5909400065
 11
369.4701405634
 21
31.5909400065
 72
1
 10
369.4701405634
 20
31.5909400065
 11
369.4123282839
 21
31.6554670967
 72
1
 10
369.4123282839
 20
31.6554670967
 11
369.2967030634
 21
31.6877314
 72
1
 10
369.2967030634
 20
31.6877314
 11
368.9498280634
 21
31.7199941869
 72
1
 10
368.9498280634
 20
31.7199941869
 11
368.6029530634
 21
31.7199941869
 72
1
 10
368.6029530634
 20
31.7199941869
 11
367.9092030634
 21
31.6554670967
 72
1
 10
367.9092030634
 20
31.6554670967
 11
368.0248282839
 21
31.7522584901
 72
1
 10
368.0248282839
 20
31.7522584901
 11
369.2967030634
 21
31.8167855803
 72
1
 10
369.2967030634
 20
31.8167855803
 11
369.4701405634
 21
31.7845227934
 97
1
330
302
 75
0
 76
1
 98
1
 10
0.0
 20
0.0
  0
LWPOLYLINE
  5
304
100
AcDbEntity
  8
0
100
AcDbPolyline
 62
7
  6
CONTINUOUS
 90
7
 70
0
 10
359.0638905634
 20
31.6877314
 10
358.9482655496
 20
31.6554670967
 10
358.4279530651
 20
31.5264129164
 10
358.5435780634
 20
31.6554670967
 10
358.6592030565
 20
31.7199941869
 10
359.2951405909
 20
31.7199941869
 10
359.0638905634
 20
31.6877314
  0
HATCH
  5
305
100
AcDbEntity
  8
0
100
AcDbHatch
 62
7
  6
CONTINUOUS
 10
0.0
 20
0.0
 30
0.0
210
0.0
220
0.0
230
1.0
  2
SOLID
 70
1
 71
1
 91
1
 92
1
 93
6
 72
1
 10
359.0638905634
 20
31.6877314
 11
358.9482655496
 21
31.6554670967
 72
1
 10
358.9482655496
 20
31.6554670967
 11
358.4279530651
 21
31.5264129164
 72
1
 10
358.4279530651
 20
31.5264129164
 11
358.5435780634
 21
31.6554670967
 72
1
 10
358.5435780634
 20
31.6554670967
 11
358.6592030565
 21
31.7199941869
 72
1
 10
358.6592030565
 20
31.7199941869
 11
359.2951405909
 21
31.7199941869
 72
1
 10
359.2951405909
 20
31.7199941869
 11
359.0638905634
 21
31.6877314
 97
1
330
304
 75
0
 76
1
 98
1
 10
0.0
 20
0.0
  0
LWPOLYLINE
  5
306
100
AcDbEntity
  8
0
100
AcDbPolyline
 62
7
  6
CONTINUOUS
 90
7
 70
0
 10
363.2263905634
 20
31.6877314
 10
363.1107656736
 20
31.6554670967
 10
363.0529530634
 20
31.5909400065
 10
362.7638906736
 20
31.5909400065
 10
362.7638906736
 20
31.6554670967
 10
363.4576406736
 20
31.7199941869
 10
363.2263905634
 20
31.6877314
  0
HATCH
  5
307
100
AcDbEntity
  8
0
100
AcDbHatch
 62
7
  6
CONTINUOUS
 10
0.0
 20
0.0
 30
0.0
210
0.0
220
0.0
230
1.0
  2
SOLID
 70
1
 71
1
 91
1
 92
1
 93
6
 72
1
 10
363.2263905634
 20
31.6877314
 11
363.1107656736
 21
31.6554670967
 72
1
 10
363.1107656736
 20
31.6554670967
 11
363.0529530634
 21
31.5909400065
 72
1
 10
363.0529530634
 20
31.5909400065
 11
362.7638906736
 21
31.5909400065
 72
1
 10
362.7638906736
 20
31.5909400065
 11
362.7638906736
 21
31.6554670967
 72
1
 10
362.7638906736
 20
31.6554670967
 11
363.4576406736
 21
31.7199941869
 72
1
 10
363.4576406736
 20
31.7199941869
 11
363.2263905634
 21
31.6877314
 97
1
330
306
 75
0
 76
1
 98
1
 10
0.0
 20
0.0
  0
LWPOLYLINE
  5
308
100
AcDbEntity
  8
0
100
AcDbPolyline
 62
7
  6
CONTINUOUS
 90
8
 70
0
 10
368.3717032839
 20
31.6877314
 10
368.2560780634
 20
31.6554670967
 10
368.1982657839
 20
31.5909400065
 10
368.0248282839
 20
31.4618858262
 10
367.9092030634
 20
31.5909400065
 10
367.9092030634
 20
31.6554670967
 10
368.6029530634
 20
31.7199941869
 10
368.3717032839
 20
31.6877314
  0
HATCH
  5
309
100
AcDbEntity
  8
0
100
AcDbHatch
 62
7
  6
CONTINUOUS
 10
0.0
 20
0.0
 30
0.0
210
0.0
220
0.0
230
1.0
  2
SOLID
 70
1
 71
1
 91
1
 92
1
 93
7
 72
1
 10
368.3717032839
 20
31.6877314
 11
368.2560780634
 21
31.6554670967
 72
1
 10
368.2560780634
 20
31.6554670967
 11
368.1982657839
 21
31.5909400065
 72
1
 10
368.1982657839
 20
31.5909400065
 11
368.0248282839
 21
31.4618858262
 72
1
 10
368.0248282839
 20
31.4618858262
 11
367.9092030634
 21
31.5909400065
 72
1
 10
367.9092030634
 20
31.5909400065
 11
367.9092030634
 21
31.6554670967
 72
1
 10
367.9092030634
 20
31.6554670967
 11
368.6029530634
 21
31.7199941869
 72
1
 10
368.6029530634
 20
31.7199941869
 11
368.3717032839
 21
31.6877314
 97
1
330
308
 75
0
 76
1
 98
1
 10
0.0
 20
0.0
  0
LWPOLYLINE
  5
30A
100
AcDbEntity
  8
0
100
AcDbPolyline
 62
7
  6
CONTINUOUS
 90
6
 70
0
 10
358.7748280496
 20
31.5586757033
 10
358.7170155634
 20
31.4941486131
 10
358.3701405634
 20
31.3328301295
 10
358.4279530651
 20
31.5264129164
 10
358.9482655496
 20
31.6554670967
 10
358.7748280496
 20
31.5586757033
  0
HATCH
  5
30B
100
AcDbEntity
  8
0
100
AcDbHatch
 62
7
  6
CONTINUOUS
 10
0.0
 20
0.0
 30
0.0
210
0.0
220
0.0
230
1.0
  2
SOLID
 70
1
 71
1
 91
1
 92
1
 93
5
 72
1
 10
358.7748280496
 20
31.5586757033
 11
358.7170155634
 21
31.4941486131
 72
1
 10
358.7170155634
 20
31.4941486131
 11
358.3701405634
 21
31.3328301295
 72
1
 10
358.3701405634
 20
31.3328301295
 11
358.4279530651
 21
31.5264129164
 72
1
 10
358.4279530651
 20
31.5264129164
 11
358.9482655496
 21
31.6554670967
 72
1
 10
358.9482655496
 20
31.6554670967
 11
358.7748280496
 21
31.5586757033
 97
1
330
30A
 75
0
 76
1
 98
1
 10
0.0
 20
0.0
  0
LWPOLYLINE
  5
30C
100
AcDbEntity
  8
0
100
AcDbPolyline
 62
7
  6
CONTINUOUS
 90
7
 70
0
 10
363.2263905634
 20
31.4618858262
 10
363.5732655634
 20
31.4941486131
 10
364.2092032839
 20
31.4941486131
 10
364.2092032839
 20
31.3650944328
 10
363.5732655634
 20
31.3650944328
 10
362.9951404531
 20
31.397357926
 10
363.2263905634
 20
31.4618858262
  0
HATCH
  5
30D
100
AcDbEntity
  8
0
100
AcDbHatch
 62
7
  6
CONTINUOUS
 10
0.0
 20
0.0
 30
0.0
210
0.0
220
0.0
230
1.0
  2
SOLID
 70
1
 71
1
 91
1
 92
1
 93
6
 72
1
 10
363.2263905634
 20
31.4618858262
 11
363.5732655634
 21
31.4941486131
 72
1
 10
363.5732655634
 20
31.4941486131
 11
364.2092032839
 21
31.4941486131
 72
1
 10
364.2092032839
 20
31.4941486131
 11
364.2092032839
 21
31.3650944328
 72
1
 10
364.2092032839
 20
31.3650944328
 11
363.5732655634
 21
31.3650944328
 72
1
 10
363.5732655634
 20
31.3650944328
 11
362.9951404531
 21
31.397357926
 72
1
 10
362.9951404531
 20
31.397357926
 11
363.2263905634
 21
31.4618858262
 97
1
330
30C
 75
0
 76
1
 98
1
 10
0.0
 20
0.0
  0
LWPOLYLINE
  5
30E
100
AcDbEntity
  8
0
100
AcDbPolyline
 62
7
  6
CONTINUOUS
 90
24
 70
0
 10
368.2560780634
 20
31.5264129164
 10
368.4295155634
 20
31.4618858262
 10
369.4123282839
 20
31.3005673426
 10
369.6435780634
 20
31.2037759492
 10
369.7592026223
 20
31.0747202524
 10
369.7592026223
 20
31.0101931623
 10
369.6435780634
 20
30.9134032852
 10
369.4123282839
 20
30.8488746787
 10
369.0654532839
 20
30.8166118918
 10
368.7185782839
 20
30.8166118918
 10
368.3717032839
 20
30.8488746787
 10
368.1982657839
 20
30.8811389819
 10
368.0248282839
 20
30.9456660721
 10
368.7185782839
 20
30.9456660721
 10
369.0654532839
 20
30.9456660721
 10
369.2967030634
 20
30.9779303754
 10
369.4123282839
 20
31.0101931623
 10
369.4701405634
 20
31.0747202524
 10
369.4123282839
 20
31.139248859
 10
369.2388907839
 20
31.2037759492
 10
368.2560780634
 20
31.3650944328
 10
368.0248282839
 20
31.4618858262
 10
368.1982657839
 20
31.5909400065
 10
368.2560780634
 20
31.5264129164
  0
HATCH
  5
30F
100
AcDbEntity
  8
0
100
AcDbHatch
 62
7
  6
CONTINUOUS
 10
0.0
 20
0.0
 30
0.0
210
0.0
220
0.0
230
1.0
  2
SOLID
 70
1
 71
1
 91
1
 92
1
 93
23
 72
1
 10
368.2560780634
 20
31.5264129164
 11
368.4295155634
 21
31.4618858262
 72
1
 10
368.4295155634
 20
31.4618858262
 11
369.4123282839
 21
31.3005673426
 72
1
 10
369.4123282839
 20
31.3005673426
 11
369.6435780634
 21
31.2037759492
 72
1
 10
369.6435780634
 20
31.2037759492
 11
369.7592026223
 21
31.0747202524
 72
1
 10
369.7592026223
 20
31.0747202524
 11
369.7592026223
 21
31.0101931623
 72
1
 10
369.7592026223
 20
31.0101931623
 11
369.6435780634
 21
30.9134032852
 72
1
 10
369.6435780634
 20
30.9134032852
 11
369.4123282839
 21
30.8488746787
 72
1
 10
369.4123282839
 20
30.8488746787
 11
369.0654532839
 21
30.8166118918
 72
1
 10
369.0654532839
 20
30.8166118918
 11
368.7185782839
 21
30.8166118918
 72
1
 10
368.7185782839
 20
30.8166118918
 11
368.3717032839
 21
30.8488746787
 72
1
 10
368.3717032839
 20
30.8488746787
 11
368.1982657839
 21
30.8811389819
 72
1
 10
368.1982657839
 20
30.8811389819
 11
368.0248282839
 21
30.9456660721
 72
1
 10
368.0248282839
 20
30.9456660721
 11
368.7185782839
 21
30.9456660721
 72
1
 10
368.7185782839
 20
30.9456660721
 11
369.0654532839
 21
30.9456660721
 72
1
 10
369.0654532839
 20
30.9456660721
 11
369.2967030634
 21
30.9779303754
 72
1
 10
369.2967030634
 20
30.9779303754
 11
369.4123282839
 21
31.0101931623
 72
1
 10
369.4123282839
 20
31.0101931623
 11
369.4701405634
 21
31.0747202524
 72
1
 10
369.4701405634
 20
31.0747202524
 11
369.4123282839
 21
31.139248859
 72
1
 10
369.4123282839
 20
31.139248859
 11
369.2388907839
 21
31.2037759492
 72
1
 10
369.2388907839
 20
31.2037759492
 11
368.2560780634
 21
31.3650944328
 72
1
 10
368.2560780634
 20
31.3650944328
 11
368.0248282839
 21
31.4618858262
 72
1
 10
368.0248282839
 20
31.4618858262
 11
368.1982657839
 21
31.5909400065
 72
1
 10
368.1982657839
 20
31.5909400065
 11
368.2560780634
 21
31.5264129164
 97
1
330
30E
 75
0
 76
1
 98
1
 10
0.0
 20
0.0
  0
LWPOLYLINE
  5
310
100
AcDbEntity
  8
0
100
AcDbPolyline
 62
7
  6
CONTINUOUS
 90
12
 70
0
 10
358.6592030565
 20
31.3650944328
 10
358.6592030565
 20
31.2683031351
 10
358.7748280496
 20
31.1069845557
 10
358.9482655496
 20
31.0101931623
 10
359.2951405909
 20
30.9456660721
 10
358.8326405772
 20
30.8811389819
 10
358.6592030565
 20
30.9456660721
 10
358.5435780634
 20
31.0101931623
 10
358.4279530651
 20
31.139248859
 10
358.3701405634
 20
31.3328301295
 10
358.7170155634
 20
31.4941486131
 10
358.6592030565
 20
31.3650944328
  0
HATCH
  5
311
100
AcDbEntity
  8
0
100
AcDbHatch
 62
7
  6
CONTINUOUS
 10
0.0
 20
0.0
 30
0.0
210
0.0
220
0.0
230
1.0
  2
SOLID
 70
1
 71
1
 91
1
 92
1
 93
11
 72
1
 10
358.6592030565
 20
31.3650944328
 11
358.6592030565
 21
31.2683031351
 72
1
 10
358.6592030565
 20
31.2683031351
 11
358.7748280496
 21
31.1069845557
 72
1
 10
358.7748280496
 20
31.1069845557
 11
358.9482655496
 21
31.0101931623
 72
1
 10
358.9482655496
 20
31.0101931623
 11
359.2951405909
 21
30.9456660721
 72
1
 10
359.2951405909
 20
30.9456660721
 11
358.8326405772
 21
30.8811389819
 72
1
 10
358.8326405772
 20
30.8811389819
 11
358.6592030565
 21
30.9456660721
 72
1
 10
358.6592030565
 20
30.9456660721
 11
358.5435780634
 21
31.0101931623
 72
1
 10
358.5435780634
 20
31.0101931623
 11
358.4279530651
 21
31.139248859
 72
1
 10
358.4279530651
 20
31.139248859
 11
358.3701405634
 21
31.3328301295
 72
1
 10
358.3701405634
 20
31.3328301295
 11
358.7170155634
 21
31.4941486131
 72
1
 10
358.7170155634
 20
31.4941486131
 11
358.6592030565
 21
31.3650944328
 97
1
330
310
 75
0
 76
1
 98
1
 10
0.0
 20
0.0
  0
LWPOLYLINE
  5
312
100
AcDbEntity
  8
0
100
AcDbPolyline
 62
7
  6
CONTINUOUS
 90
6
 70
0
 10
362.8795155634
 20
31.3328301295
 10
362.9951404531
 20
31.397357926
 10
363.5732655634
 20
31.3650944328
 10
363.3420154531
 20
31.3328301295
 10
362.7638906736
 20
31.2037759492
 10
362.8795155634
 20
31.3328301295
  0
HATCH
  5
313
100
AcDbEntity
  8
0
100
AcDbHatch
 62
7
  6
CONTINUOUS
 10
0.0
 20
0.0
 30
0.0
210
0.0
220
0.0
230
1.0
  2
SOLID
 70
1
 71
1
 91
1
 92
1
 93
5
 72
1
 10
362.8795155634
 20
31.3328301295
 11
362.9951404531
 21
31.397357926
 72
1
 10
362.9951404531
 20
31.397357926
 11
363.5732655634
 21
31.3650944328
 72
1
 10
363.5732655634
 20
31.3650944328
 11
363.3420154531
 21
31.3328301295
 72
1
 10
363.3420154531
 20
31.3328301295
 11
362.7638906736
 21
31.2037759492
 72
1
 10
362.7638906736
 20
31.2037759492
 11
362.8795155634
 21
31.3328301295
 97
1
330
312
 75
0
 76
1
 98
1
 10
0.0
 20
0.0
  0
LWPOLYLINE
  5
314
100
AcDbEntity
  8
0
100
AcDbPolyline
 62
7
  6
CONTINUOUS
 90
9
 70
0
 10
363.1107656736
 20
31.2360394487
 10
363.0529530634
 20
31.139248859
 10
363.0529530634
 20
31.0747202524
 10
362.8217029531
 20
30.9779303754
 10
362.7638906736
 20
31.1069845557
 10
362.7638906736
 20
31.2037759492
 10
363.3420154531
 20
31.3328301295
 10
363.2263905634
 20
31.3005673426
 10
363.1107656736
 20
31.2360394487
  0
HATCH
  5
315
100
AcDbEntity
  8
0
100
AcDbHatch
 62
7
  6
CONTINUOUS
 10
0.0
 20
0.0
 30
0.0
210
0.0
220
0.0
230
1.0
  2
SOLID
 70
1
 71
1
 91
1
 92
1
 93
8
 72
1
 10
363.1107656736
 20
31.2360394487
 11
363.0529530634
 21
31.139248859
 72
1
 10
363.0529530634
 20
31.139248859
 11
363.0529530634
 21
31.0747202524
 72
1
 10
363.0529530634
 20
31.0747202524
 11
362.8217029531
 21
30.9779303754
 72
1
 10
362.8217029531
 20
30.9779303754
 11
362.7638906736
 21
31.1069845557
 72
1
 10
362.7638906736
 20
31.1069845557
 11
362.7638906736
 21
31.2037759492
 72
1
 10
362.7638906736
 20
31.2037759492
 11
363.3420154531
 21
31.3328301295
 72
1
 10
363.3420154531
 20
31.3328301295
 11
363.2263905634
 21
31.3005673426
 72
1
 10
363.2263905634
 20
31.3005673426
 11
363.1107656736
 21
31.2360394487
 97
1
330
314
 75
0
 76
1
 98
1
 10
0.0
 20
0.0
  0
LWPOLYLINE
  5
316
100
AcDbEntity
  8
0
100
AcDbPolyline
 62
7
  6
CONTINUOUS
 90
10
 70
0
 10
364.1513903428
 20
31.1069845557
 10
364.2092032839
 20
31.1715120759
 10
364.4982653428
 20
31.0747202524
 10
364.5560782839
 20
30.9134032852
 10
364.6138905634
 20
30.8166118918
 10
364.3248278428
 20
30.8166118918
 10
364.2670155634
 20
30.8811389819
 10
364.2092032839
 20
30.9779303754
 10
363.9779528428
 20
31.0101931623
 10
364.1513903428
 20
31.1069845557
  0
HATCH
  5
317
100
AcDbEntity
  8
0
100
AcDbHatch
 62
7
  6
CONTINUOUS
 10
0.0
 20
0.0
 30
0.0
210
0.0
220
0.0
230
1.0
  2
SOLID
 70
1
 71
1
 91
1
 92
1
 93
9
 72
1
 10
364.1513903428
 20
31.1069845557
 11
364.2092032839
 21
31.1715120759
 72
1
 10
364.2092032839
 20
31.1715120759
 11
364.4982653428
 21
31.0747202524
 72
1
 10
364.4982653428
 20
31.0747202524
 11
364.5560782839
 21
30.9134032852
 72
1
 10
364.5560782839
 20
30.9134032852
 11
364.6138905634
 21
30.8166118918
 72
1
 10
364.6138905634
 20
30.8166118918
 11
364.3248278428
 21
30.8166118918
 72
1
 10
364.3248278428
 20
30.8166118918
 11
364.2670155634
 21
30.8811389819
 72
1
 10
364.2670155634
 20
30.8811389819
 11
364.2092032839
 21
30.9779303754
 72
1
 10
364.2092032839
 20
30.9779303754
 11
363.9779528428
 21
31.0101931623
 72
1
 10
363.9779528428
 20
31.0101931623
 11
364.1513903428
 21
31.1069845557
 97
1
330
316
 75
0
 76
1
 98
1
 10
0.0
 20
0.0
  0
LWPOLYLINE
  5
318
100
AcDbEntity
  8
0
100
AcDbPolyline
 62
7
  6
CONTINUOUS
 90
12
 70
0
 10
359.8732656185
 20
31.0424573076
 10
359.9310780634
 20
31.139248859
 10
360.2201406185
 20
31.139248859
 10
360.1623280082
 20
31.0101931623
 10
359.9888905082
 20
30.9134032852
 10
359.7576405634
 20
30.8488746787
 10
359.3529530358
 20
30.8166118918
 10
359.0060780772
 20
30.8488746787
 10
358.8326405772
 20
30.8811389819
 10
359.2951405909
 20
30.9456660721
 10
359.6998280358
 20
30.9779303754
 10
359.8732656185
 20
31.0424573076
  0
HATCH
  5
319
100
AcDbEntity
  8
0
100
AcDbHatch
 62
7
  6
CONTINUOUS
 10
0.0
 20
0.0
 30
0.0
210
0.0
220
0.0
230
1.0
  2
SOLID
 70
1
 71
1
 91
1
 92
1
 93
11
 72
1
 10
359.8732656185
 20
31.0424573076
 11
359.9310780634
 21
31.139248859
 72
1
 10
359.9310780634
 20
31.139248859
 11
360.2201406185
 21
31.139248859
 72
1
 10
360.2201406185
 20
31.139248859
 11
360.1623280082
 21
31.0101931623
 72
1
 10
360.1623280082
 20
31.0101931623
 11
359.9888905082
 21
30.9134032852
 72
1
 10
359.9888905082
 20
30.9134032852
 11
359.7576405634
 21
30.8488746787
 72
1
 10
359.7576405634
 20
30.8488746787
 11
359.3529530358
 21
30.8166118918
 72
1
 10
359.3529530358
 20
30.8166118918
 11
359.0060780772
 21
30.8488746787
 72
1
 10
359.0060780772
 20
30.8488746787
 11
358.8326405772
 21
30.8811389819
 72
1
 10
358.8326405772
 20
30.8811389819
 11
359.2951405909
 21
30.9456660721
 72
1
 10
359.2951405909
 20
30.9456660721
 11
359.6998280358
 21
30.9779303754
 72
1
 10
359.6998280358
 20
30.9779303754
 11
359.8732656185
 21
31.0424573076
 97
1
330
318
 75
0
 76
1
 98
1
 10
0.0
 20
0.0
  0
LWPOLYLINE
  5
31A
100
AcDbEntity
  8
0
100
AcDbPolyline
 62
7
  6
CONTINUOUS
 90
6
 70
0
 10
363.1107656736
 20
31.0101931623
 10
363.3420154531
 20
30.9456660721
 10
362.9951404531
 20
30.8811389819
 10
362.8217029531
 20
30.9779303754
 10
363.0529530634
 20
31.0747202524
 10
363.1107656736
 20
31.0101931623
  0
HATCH
  5
31B
100
AcDbEntity
  8
0
100
AcDbHatch
 62
7
  6
CONTINUOUS
 10
0.0
 20
0.0
 30
0.0
210
0.0
220
0.0
230
1.0
  2
SOLID
 70
1
 71
1
 91
1
 92
1
 93
5
 72
1
 10
363.1107656736
 20
31.0101931623
 11
363.3420154531
 21
30.9456660721
 72
1
 10
363.3420154531
 20
30.9456660721
 11
362.9951404531
 21
30.8811389819
 72
1
 10
362.9951404531
 20
30.8811389819
 11
362.8217029531
 21
30.9779303754
 72
1
 10
362.8217029531
 20
30.9779303754
 11
363.0529530634
 21
31.0747202524
 72
1
 10
363.0529530634
 20
31.0747202524
 11
363.1107656736
 21
31.0101931623
 97
1
330
31A
 75
0
 76
1
 98
1
 10
0.0
 20
0.0
  0
LWPOLYLINE
  5
31C
100
AcDbEntity
  8
0
100
AcDbPolyline
 62
7
  6
CONTINUOUS
 90
11
 70
0
 10
363.6888904531
 20
30.9456660721
 10
363.9779528428
 20
31.0101931623
 10
364.2092032839
 20
30.9779303754
 10
364.1513903428
 20
30.9134032852
 10
363.9779528428
 20
30.8488746787
 10
363.6888904531
 20
30.8166118918
 10
363.3420154531
 20
30.8166118918
 10
363.1107656736
 20
30.8488746787
 10
362.9951404531
 20
30.8811389819
 10
363.3420154531
 20
30.9456660721
 10
363.6888904531
 20
30.9456660721
  0
HATCH
  5
31D
100
AcDbEntity
  8
0
100
AcDbHatch
 62
7
  6
CONTINUOUS
 10
0.0
 20
0.0
 30
0.0
210
0.0
220
0.0
230
1.0
  2
SOLID
 70
1
 71
1
 91
1
 92
1
 93
10
 72
1
 10
363.6888904531
 20
30.9456660721
 11
363.9779528428
 21
31.0101931623
 72
1
 10
363.9779528428
 20
31.0101931623
 11
364.2092032839
 21
30.9779303754
 72
1
 10
364.2092032839
 20
30.9779303754
 11
364.1513903428
 21
30.9134032852
 72
1
 10
364.1513903428
 20
30.9134032852
 11
363.9779528428
 21
30.8488746787
 72
1
 10
363.9779528428
 20
30.8488746787
 11
363.6888904531
 21
30.8166118918
 72
1
 10
363.6888904531
 20
30.8166118918
 11
363.3420154531
 21
30.8166118918
 72
1
 10
363.3420154531
 20
30.8166118918
 11
363.1107656736
 21
30.8488746787
 72
1
 10
363.1107656736
 20
30.8488746787
 11
362.9951404531
 21
30.8811389819
 72
1
 10
362.9951404531
 20
30.8811389819
 11
363.3420154531
 21
30.9456660721
 72
1
 10
363.3420154531
 20
30.9456660721
 11
363.6888904531
 21
30.9456660721
 97
1
330
31C
 75
0
 76
1
 98
1
 10
0.0
 20
0.0
  0
LWPOLYLINE
  5
31E
100
AcDbEntity
  8
0
100
AcDbPolyline
 62
7
  6
CONTINUOUS
 90
7
 70
0
 10
368.3717032839
 20
30.9779303754
 10
368.7185782839
 20
30.9456660721
 10
368.0248282839
 20
30.9456660721
 10
367.9092030634
 20
31.0747202524
 10
368.1982657839
 20
31.0747202524
 10
368.2560780634
 20
31.0101931623
 10
368.3717032839
 20
30.9779303754
  0
HATCH
  5
31F
100
AcDbEntity
  8
0
100
AcDbHatch
 62
7
  6
CONTINUOUS
 10
0.0
 20
0.0
 30
0.0
210
0.0
220
0.0
230
1.0
  2
SOLID
 70
1
 71
1
 91
1
 92
1
 93
6
 72
1
 10
368.3717032839
 20
30.9779303754
 11
368.7185782839
 21
30.9456660721
 72
1
 10
368.7185782839
 20
30.9456660721
 11
368.0248282839
 21
30.9456660721
 72
1
 10
368.0248282839
 20
30.9456660721
 11
367.9092030634
 21
31.0747202524
 72
1
 10
367.9092030634
 20
31.0747202524
 11
368.1982657839
 21
31.0747202524
 72
1
 10
368.1982657839
 20
31.0747202524
 11
368.2560780634
 21
31.0101931623
 72
1
 10
368.2560780634
 20
31.0101931623
 11
368.3717032839
 21
30.9779303754
 97
1
330
31E
 75
0
 76
1
 98
1
 10
0.0
 20
0.0
  0
SOLID
  5
320
100
AcDbEntity
  8
0
100
AcDbTrace
 62
7
  6
CONTINUOUS
 10
365.0763907839
 20
30.8166118918
 11
365.0763907839
 21
31.8490498836
 12
365.3654528428
 22
30.8166118918
 13
365.3654528428
 23
31.8490498836
  0
ENDBLK
  5
321
100
AcDbEntity
  8
0
  6
BYBLOCK
 62
0
100
AcDbBlockEnd
  0
BLOCK
  5
322
100
AcDbEntity
  8
0
100
AcDbBlockBegin
 62
2
  6
CONTINUOUS
  2
AMMEAAL_LOGO_BL0
 70
64
 10
241.0459637928
 20
19.6790146053
  3
AMMEAAL_LOGO_BL0
  1

  0
TEXT
  5
323
100
AcDbEntity
  8
0
100
AcDbText
 62
7
  6
CONTINUOUS
 10
227.3106676351
 20
19.0524287129
  7
TEXTSTYLE_3
 40
2.7338706658
  1
Ammeraal Beltech
 41
1.0
 51
15.0
 72
0
100
AcDbText
  0
TEXT
  5
324
100
AcDbEntity
  8
0
100
AcDbText
 62
7
  6
CONTINUOUS
 10
238.1114684608
 20
16.7788920401
  7
TEXTSTYLE_4
 40
1.0935482663
  1
Innovation & Service in Belting
 41
1.0
 72
0
100
AcDbText
  0
LINE
  5
325
100
AcDbEntity
  8
0
100
AcDbLine
 62
7
  6
CONTINUOUS
 10
221.2861269837
 20
19.8190220215
 11
222.0642789771
 21
23.4799393191
  0
LINE
  5
326
100
AcDbEntity
  8
0
100
AcDbLine
 62
7
  6
CONTINUOUS
 10
232.1594472669
 20
27.1433332308
 11
222.5520967201
 21
24.0217158095
  0
LINE
  5
327
100
AcDbEntity
  8
0
100
AcDbLine
 62
7
  6
CONTINUOUS
 10
221.511410316
 20
19.1256712184
 11
229.0184855772
 21
12.3662702925
  0
LINE
  5
328
100
AcDbEntity
  8
0
100
AcDbLine
 62
7
  6
CONTINUOUS
 10
221.7739447268
 20
20.3607985118
 11
232.5822140919
 21
23.8726181108
  0
LINE
  5
329
100
AcDbEntity
  8
0
100
AcDbLine
 62
7
  6
CONTINUOUS
 10
232.5780089548
 20
13.522829547
 11
224.132549286
 21
21.1271555887
  0
LINE
  5
32A
100
AcDbEntity
  8
0
100
AcDbLine
 62
7
  6
CONTINUOUS
 10
233.0978316746
 20
26.298408115
 11
232.1212721373
 21
21.7040567125
  0
LINE
  5
32B
100
AcDbEntity
  8
0
100
AcDbLine
 62
7
  6
CONTINUOUS
 10
231.4214701896
 20
18.4117473987
 11
230.7350219782
 21
15.1822624744
  0
LINE
  5
32C
100
AcDbEntity
  8
0
100
AcDbLine
 62
7
  6
CONTINUOUS
 10
233.7789277731
 20
13.9130317247
 11
234.7351593087
 21
18.4117473987
  0
LINE
  5
32D
100
AcDbEntity
  8
0
100
AcDbLine
 62
7
  6
CONTINUOUS
 10
235.4349612564
 20
21.7040567125
 11
235.8792030588
 21
23.7940500719
  0
LINE
  5
32E
100
AcDbEntity
  8
0
100
AcDbLine
 62
7
  6
CONTINUOUS
 10
229.7315866525
 20
12.2146959798
 11
233.2911100301
 21
13.3712552343
  0
LINE
  5
32F
100
AcDbEntity
  8
0
100
AcDbLine
 62
7
  6
CONTINUOUS
 10
232.8725483422
 20
26.9917589181
 11
235.6539197265
 21
24.487400875
  0
ARC
  5
330
100
AcDbEntity
  8
0
100
AcDbCircle
 62
7
  6
CONTINUOUS
 10
222.7773800524
 20
23.3283650064
 40
0.7290321776
100
AcDbArc
 50
108.0
 51
168.0
  0
ARC
  5
331
100
AcDbEntity
  8
0
100
AcDbCircle
 62
7
  6
CONTINUOUS
 10
232.3847305992
 20
26.4499824277
 40
0.7290321776
100
AcDbArc
 50
348.0
 51
108.0
  0
ARC
  5
332
100
AcDbEntity
  8
0
100
AcDbCircle
 62
7
  6
CONTINUOUS
 10
235.1661019835
 20
23.9456243846
 40
0.7290321776
100
AcDbArc
 50
348.0
 51
48.0
  0
ARC
  5
333
100
AcDbEntity
  8
0
100
AcDbCircle
 62
7
  6
CONTINUOUS
 10
229.5063033202
 20
12.9080467828
 40
0.7290321776
100
AcDbArc
 50
228.0
 51
288.0
  0
ARC
  5
334
100
AcDbEntity
  8
0
100
AcDbCircle
 62
7
  6
CONTINUOUS
 10
221.9992280591
 20
19.6674477088
 40
0.7290321776
100
AcDbArc
 50
108.0
 51
228.0
  0
ARC
  5
335
100
AcDbEntity
  8
0
100
AcDbCircle
 62
7
  6
CONTINUOUS
 10
233.0658266978
 20
14.0646060374
 40
0.7290321776
100
AcDbArc
 50
228.0
 51
348.0
  0
ENDBLK
  5
336
100
AcDbEntity
  8
0
  6
BYBLOCK
 62
0
100
AcDbBlockEnd
  0
BLOCK
  5
337
100
AcDbEntity
  8
0
100
AcDbBlockBegin
  2
*T1
 70
1
 10
0.0
 20
0.0
  3
*T1
  1

  0
LINE
  5
338
100
AcDbEntity
  8
0
100
AcDbLine
 62
2
  6
CONTINUOUS
 10
0.0
 20
0.0
 11
190.0
 21
0.0
  0
LINE
  5
339
100
AcDbEntity
  8
0
100
AcDbLine
 62
2
  6
CONTINUOUS
 10
0.0
 20
0.0
 11
0.0
 21
-20.0
  0
LINE
  5
33A
100
AcDbEntity
  8
0
100
AcDbLine
 62
2
  6
CONTINUOUS
 10
0.0
 20
-20.0
 11
190.0
 21
-20.0
  0
LINE
  5
33B
100
AcDbEntity
  8
0
100
AcDbLine
 62
2
  6
CONTINUOUS
 10
85.0
 20
0.0
 11
85.0
 21
-20.0
  0
LINE
  5
33C
100
AcDbEntity
  8
0
100
AcDbLine
 62
2
  6
CONTINUOUS
 10
105.0
 20
0.0
 11
105.0
 21
-20.0
  0
LINE
  5
33D
100
AcDbEntity
  8
0
100
AcDbLine
 62
2
  6
CONTINUOUS
 10
190.0
 20
0.0
 11
190.0
 21
-20.0
  0
MTEXT
  5
33E
100
AcDbEntity
  8
0
100
AcDbMText
 62
5
  6
CONTINUOUS
  7
TEXTSTYLE_5
 71
1
 72
1
 10
3.0
 20
-5.177
 30
0.0
 11
1.0
 21
0.0
 31
0.0
 44
1.08
  3
                                                                     Ammeraal Beltech Modular A/S\P\H1.5;                                                                      Hjulmagervej 21, 7100 Vejle,  DK\P\H1.495;                                 
  1
                                     tel: \H1.51;+45 75723100     fax: +45 75723348\P\H1.5;                                                                      admin@unichains.dk  www.unichains.com
 40
1.52
 41
161.0496183206
  0
MTEXT
  5
33F
100
AcDbEntity
  8
0
100
AcDbMText
 62
5
  6
CONTINUOUS
  7
TEXTSTYLE_6
 71
2
 72
1
 10
95.0
 20
-11.25
 30
0.0
 11
1.0
 21
0.0
 31
0.0
 44
0.9
  1
1:1
 40
5.0
 41
21.0
  0
MTEXT
  5
340
100
AcDbEntity
  8
0
100
AcDbMText
 62
5
  6
CONTINUOUS
  7
TEXTSTYLE_7
 71
1
 72
1
 10
108.0
 20
-8.75
 30
0.0
 11
1.0
 21
0.0
 31
0.0
 44
0.9
  1
 Z10
 40
7.5
 41
40.0
  0
ENDBLK
  5
341
100
AcDbEntity
  8
0
  6
BYBLOCK
 62
0
100
AcDbBlockEnd
  0
ENDSEC
  0
SECTION
  2
ENTITIES
  0
MTEXT
  5
342
100
AcDbEntity
  8
0
100
AcDbMText
 62
2
  6
CONTINUOUS
  7
TEXTSTYLE_2
 71
1
 72
1
 10
304.937007874
 20
28.436
 30
0.0
 11
1.0
 21
0.0
 31
0.0
 44
0.9
  1
\Q0.000019;Scale :
 40
2.8
 41
11.76
  0
MTEXT
  5
343
100
AcDbEntity
  8
0
100
AcDbMText
 62
2
  6
CONTINUOUS
  7
TEXTSTYLE_2
 71
1
 72
1
 10
324.937007874
 20
28.436
 30
0.0
 11
1.0
 21
0.0
 31
0.0
 44
0.9
  1
\Q0.000019;Chain type:
 40
2.8
 41
18.48
  0
INSERT
  5
344
100
AcDbEntity
  8
0
100
AcDbBlockReference
 62
2
  6
CONTINUOUS
  2
AMMEAAL_LOGO_BL0
 10
241.0459637928
 20
19.6790146053
  0
INSERT
  5
345
100
AcDbEntity
  8
0
100
AcDbBlockReference
 62
2
  6
CONTINUOUS
  2
UNI_LOGO2_BL1
 10
382.3920721743
 20
35.81661148
  0
ACAD_TABLE
  5
346
100
AcDbEntity
  8
0
 62
2
  6
CONTINUOUS
100
AcDbBlockReference
  2
*T1
 10
218.937007874
 20
30.0
 30
0.0
100
AcDbTable
342
       677
343
215
 11
1.0
 21
0.0
 31
0.0
 90
22
 91
1
 92
3
 93
0
 94
0
 95
0
 96
0
141
20.0
142
85.0
142
20.0
142
85.0
171
1
172
0
173
0
174
0
175
1
176
1
 91
57
178
0
145
0.0
  7
TEXTSTYLE_5
301
CELL_VALUE
 90
4
  2
                                                                     Ammeraal Beltech Modular A/S\P\H1.5;                                                                      Hjulmagervej 21, 7100 Vejle,  DK\P\H1.495;                                 
  1
                                     tel: \H1.51;+45 75723100     fax: +45 75723348\P\H1.5;                                                                      admin@unichains.dk  www.unichains.com
304
ACVALUE_END
170
4
140
1.52
 64
5
171
1
172
0
173
0
174
0
175
1
176
1
 91
57
178
0
145
0.0
  7
TEXTSTYLE_6
301
CELL_VALUE
 90
4
  1
1:1
304
ACVALUE_END
170
8
140
5.0
 64
5
171
1
172
0
173
0
174
0
175
1
176
1
 91
57
178
0
145
0.0
  7
TEXTSTYLE_7
301
CELL_VALUE
 90
4
  1
 Z10
304
ACVALUE_END
170
7
140
7.5
 64
5
  0
LINE
  5
347
100
AcDbEntity
  8
0
100
AcDbLine
 62
7
  6
CONTINUOUS
 10
0.0
 20
0.0
 11
0.0
 21
297.0
  0
LINE
  5
348
100
AcDbEntity
  8
0
100
AcDbLine
 62
7
  6
CONTINUOUS
 10
8.937007874
 20
10.0
 11
8.937007874
 21
287.0
  0
LINE
  5
349
100
AcDbEntity
  8
0
100
AcDbLine
 62
7
  6
CONTINUOUS
 10
0.0
 20
0.0
 11
420.0
 21
0.0
  0
LINE
  5
34A
100
AcDbEntity
  8
0
100
AcDbLine
 62
7
  6
CONTINUOUS
 10
408.937007874
 20
10.0
 11
8.937007874
 21
10.0
  0
LINE
  5
34B
100
AcDbEntity
  8
0
100
AcDbLine
 62
7
  6
CONTINUOUS
 10
218.937007874
 20
30.0
 11
408.937007874
 21
30.0
  0
LINE
  5
34C
100
AcDbEntity
  8
0
100
AcDbLine
 62
7
  6
CONTINUOUS
 10
210.0
 20
297.0
 11
210.0
 21
292.0
  0
LINE
  5
34D
100
AcDbEntity
  8
0
100
AcDbLine
 62
7
  6
CONTINUOUS
 10
210.0
 20
0.0
 11
210.0
 21
5.0
  0
LINE
  5
34E
100
AcDbEntity
  8
0
100
AcDbLine
 62
7
  6
CONTINUOUS
 10
8.937007874
 20
287.0
 11
408.937007874
 21
287.0
  0
LINE
  5
34F
100
AcDbEntity
  8
0
100
AcDbLine
 62
7
  6
CONTINUOUS
 10
0.0
 20
297.0
 11
420.0
 21
297.0
  0
LINE
  5
350
100
AcDbEntity
  8
0
100
AcDbLine
 62
7
  6
CONTINUOUS
 10
408.937007874
 20
287.0
 11
408.937007874
 21
10.0
  0
LINE
  5
351
100
AcDbEntity
  8
0
100
AcDbLine
 62
7
  6
CONTINUOUS
 10
420.0
 20
0.0
 11
420.0
 21
297.0
  0
LINE
  5
352
100
AcDbEntity
  8
0
100
AcDbLine
 62
7
  6
CONTINUOUS
 10
130.0148847587
 20
181.0153252872
 11
129.6486202957
 21
180.7899839575
  0
LINE
  5
353
100
AcDbEntity
  8
0
100
AcDbLine
 62
7
  6
CONTINUOUS
 10
132.7879714808
 20
184.7464685958
 11
132.4080759861
 21
184.5449542657
  0
LINE
  5
354
100
AcDbEntity
  8
0
100
AcDbLine
 62
7
  6
CONTINUOUS
 10
132.5082870064
 20
184.1313903422
 11
132.8881825011
 21
184.3329046723
  0
LINE
  5
355
100
AcDbEntity
  8
0
100
AcDbLine
 62
7
  6
CONTINUOUS
 10
130.1563919024
 20
184.0674367061
 11
129.65906343
 21
183.9127374651
  0
LINE
  5
356
100
AcDbEntity
  8
0
100
AcDbLine
 62
7
  6
CONTINUOUS
 10
127.669750003
 20
183.2939406448
 11
127.1724216374
 21
183.139241437
  0
LINE
  5
357
100
AcDbEntity
  8
0
100
AcDbLine
 62
7
  6
CONTINUOUS
 10
129.6486202957
 20
180.7899839575
 11
129.2507575463
 21
180.6662245736
  0
LINE
  5
358
100
AcDbEntity
  8
0
100
AcDbLine
 62
7
  6
CONTINUOUS
 10
129.3771500895
 20
180.2598967206
 11
129.775012839
 21
180.3836561045
  0
LINE
  5
359
100
AcDbEntity
  8
0
100
AcDbLine
 62
7
  6
CONTINUOUS
 10
130.8691352221
 20
180.7239943551
 11
131.3664636944
 21
180.8786935961
  0
LINE
  5
35A
100
AcDbEntity
  8
0
100
AcDbLine
 62
7
  6
CONTINUOUS
 10
132.4080759861
 20
184.5449542657
 11
132.1544707434
 21
184.2645798973
  0
LINE
  5
35B
100
AcDbEntity
  8
0
100
AcDbLine
 62
7
  6
CONTINUOUS
 10
132.2546817637
 20
183.8510159738
 11
132.5082870064
 21
184.1313903422
  0
LINE
  5
35C
100
AcDbEntity
  8
0
100
AcDbLine
 62
7
  6
CONTINUOUS
 10
130.1412773103
 20
180.6089974075
 11
130.3086106203
 21
180.7724590848
  0
LINE
  5
35D
100
AcDbEntity
  8
0
100
AcDbLine
 62
7
  6
CONTINUOUS
 10
149.9691960027
 20
187.3119523593
 11
150.2898520976
 21
187.5122153381
  0
LINE
  5
35E
100
AcDbEntity
  8
0
100
AcDbLine
 62
7
  6
CONTINUOUS
 10
129.775012839
 20
180.3836561045
 11
130.1412773103
 21
180.6089974075
  0
LINE
  5
35F
100
AcDbEntity
  8
0
100
AcDbLine
 62
7
  6
CONTINUOUS
 10
150.2067651329
 20
188.0478278873
 11
149.6737390548
 21
187.7494895684
  0
LINE
  5
360
100
AcDbEntity
  8
0
100
AcDbLine
 62
7
  6
CONTINUOUS
 10
154.8485476799
 20
186.9999614369
 11
155.1831189068
 21
187.1759946328
  0
LINE
  5
361
100
AcDbEntity
  8
0
100
AcDbLine
 62
7
  6
CONTINUOUS
 10
155.1398178213
 20
187.7162809111
 11
154.5862130434
 21
187.4581253333
  0
LINE
  5
362
100
AcDbEntity
  8
0
100
AcDbLine
 62
7
  6
CONTINUOUS
 10
162.287815946
 20
185.7081602378
 11
162.640388408
 21
185.8446089494
  0
LINE
  5
363
100
AcDbEntity
  8
0
100
AcDbLine
 62
7
  6
CONTINUOUS
 10
132.1544707434
 20
184.2645798973
 11
132.0021021287
 21
184.0087362609
  0
LINE
  5
364
100
AcDbEntity
  8
0
100
AcDbLine
 62
7
  6
CONTINUOUS
 10
132.102313149
 20
183.5951723374
 11
132.2546817637
 21
183.8510159738
  0
LINE
  5
365
100
AcDbEntity
  8
0
100
AcDbLine
 62
7
  6
CONTINUOUS
 10
130.2500855191
 20
181.3113087228
 11
130.0148847587
 21
181.0153252872
  0
LINE
  5
366
100
AcDbEntity
  8
0
100
AcDbLine
 62
7
  6
CONTINUOUS
 10
149.6737390548
 20
187.7494895684
 11
149.3488831021
 21
187.4429265582
  0
LINE
  5
367
100
AcDbEntity
  8
0
100
AcDbLine
 62
7
  6
CONTINUOUS
 10
154.5862130434
 20
187.4581253333
 11
154.2396023849
 21
187.1763926221
  0
LINE
  5
368
100
AcDbEntity
  8
0
100
AcDbLine
 62
7
  6
CONTINUOUS
 10
162.2294843806
 20
186.3770578023
 11
161.7272568145
 21
186.0569693574
  0
LINE
  5
369
100
AcDbEntity
  8
0
100
AcDbLine
 62
7
  6
CONTINUOUS
 10
151.5043661572
 20
183.9508531496
 11
151.1837100624
 21
183.7505901708
  0
LINE
  5
36A
100
AcDbEntity
  8
0
100
AcDbLine
 62
7
  6
CONTINUOUS
 10
151.2667970245
 20
183.2149775564
 11
151.7998231037
 21
183.5133159033
  0
LINE
  5
36B
100
AcDbEntity
  8
0
100
AcDbLine
 62
7
  6
CONTINUOUS
 10
156.1312852985
 20
183.5346580665
 11
155.7967140717
 21
183.3586248706
  0
LINE
  5
36C
100
AcDbEntity
  8
0
100
AcDbLine
 62
7
  6
CONTINUOUS
 10
155.8400127809
 20
182.8183387973
 11
156.3936199308
 21
183.0764941331
  0
LINE
  5
36D
100
AcDbEntity
  8
0
100
AcDbLine
 62
7
  6
CONTINUOUS
 10
163.5167075415
 20
182.2549282488
 11
163.1641350626
 21
182.1184794646
  0
LINE
  5
36E
100
AcDbEntity
  8
0
100
AcDbLine
 62
7
  6
CONTINUOUS
 10
168.5000795133
 20
182.242343167
 11
168.9931919537
 21
182.4220816628
  0
LINE
  5
36F
100
AcDbEntity
  8
0
100
AcDbLine
 62
7
  6
CONTINUOUS
 10
130.3086106203
 20
180.7724590848
 11
130.5122130888
 21
181.1700244839
  0
LINE
  5
370
100
AcDbEntity
  8
0
100
AcDbLine
 62
7
  6
CONTINUOUS
 10
142.2887168146
 20
187.9212549186
 11
141.7317413606
 21
187.1244156742
  0
LINE
  5
371
100
AcDbEntity
  8
0
100
AcDbLine
 62
7
  6
CONTINUOUS
 10
141.8067072739
 20
186.2766597607
 11
142.3636827016
 21
187.073499302
  0
LINE
  5
372
100
AcDbEntity
  8
0
100
AcDbLine
 62
7
  6
CONTINUOUS
 10
151.7998231037
 20
183.5133159033
 11
152.1246790578
 21
183.8198789507
  0
LINE
  5
373
100
AcDbEntity
  8
0
100
AcDbLine
 62
7
  6
CONTINUOUS
 10
156.3936199308
 20
183.0764941331
 11
156.7402305936
 21
183.3582268813
  0
LINE
  5
374
100
AcDbEntity
  8
0
100
AcDbLine
 62
7
  6
CONTINUOUS
 10
163.5750390816
 20
181.5860305754
 11
164.0772666562
 21
181.9061190566
  0
LINE
  5
375
100
AcDbEntity
  8
0
100
AcDbLine
 62
7
  6
CONTINUOUS
 10
168.8543076817
 20
183.0231646817
 11
168.5918260676
 21
182.8825439244
  0
LINE
  5
376
100
AcDbEntity
  8
0
100
AcDbLine
 62
7
  6
CONTINUOUS
 10
173.4663393967
 20
181.2857001827
 11
173.1939861281
 21
181.165307109
  0
LINE
  5
377
100
AcDbEntity
  8
0
100
AcDbLine
 62
7
  6
CONTINUOUS
 10
172.6382875566
 20
179.2107843397
 11
172.3659342604
 21
179.0903911969
  0
LINE
  5
378
100
AcDbEntity
  8
0
100
AcDbLine
 62
7
  6
CONTINUOUS
 10
130.3542224014
 20
181.6779343269
 11
130.2500855191
 21
181.3113087228
  0
LINE
  5
379
100
AcDbEntity
  8
0
100
AcDbLine
 62
7
  6
CONTINUOUS
 10
149.3488831021
 20
187.4429265582
 11
149.1239111631
 21
187.0259512183
  0
LINE
  5
37A
100
AcDbEntity
  8
0
100
AcDbLine
 62
7
  6
CONTINUOUS
 10
154.2396023849
 20
187.1763926221
 11
153.9844505387
 21
186.777171694
  0
LINE
  5
37B
100
AcDbEntity
  8
0
100
AcDbLine
 62
7
  6
CONTINUOUS
 10
149.527654211
 20
186.69060135
 11
149.9691960027
 21
187.3119523593
  0
LINE
  5
37C
100
AcDbEntity
  8
0
100
AcDbLine
 62
7
  6
CONTINUOUS
 10
151.9459079402
 20
184.5722039355
 11
151.5043661572
 21
183.9508531496
  0
LINE
  5
37D
100
AcDbEntity
  8
0
100
AcDbLine
 62
7
  6
CONTINUOUS
 10
154.3623204484
 20
186.4129185851
 11
154.8485476799
 21
186.9999614369
  0
LINE
  5
37E
100
AcDbEntity
  8
0
100
AcDbLine
 62
7
  6
CONTINUOUS
 10
156.6175101359
 20
184.121700966
 11
156.1312852985
 21
183.5346580665
  0
LINE
  5
37F
100
AcDbEntity
  8
0
100
AcDbLine
 62
7
  6
CONTINUOUS
 10
163.7919177956
 20
182.5185904984
 11
163.5167075415
 21
182.2549282488
  0
LINE
  5
380
100
AcDbEntity
  8
0
100
AcDbLine
 62
7
  6
CONTINUOUS
 10
168.9931919537
 20
182.4220816628
 11
169.4187742617
 21
182.7345129617
  0
LINE
  5
381
100
AcDbEntity
  8
0
100
AcDbLine
 62
7
  6
CONTINUOUS
 10
173.5594254293
 20
180.6758439479
 11
174.0073907983
 21
180.9552373007
  0
LINE
  5
382
100
AcDbEntity
  8
0
100
AcDbLine
 62
7
  6
CONTINUOUS
 10
172.7313735477
 20
178.6009280011
 11
173.1793389305
 21
178.8803213886
  0
LINE
  5
383
100
AcDbEntity
  8
0
100
AcDbLine
 62
7
  6
CONTINUOUS
 10
191.2880143943
 20
171.5254076304
 11
190.8489954788
 21
171.3472469936
  0
LINE
  5
384
100
AcDbEntity
  8
0
100
AcDbLine
 62
7
  6
CONTINUOUS
 10
144.4314259383
 20
203.4262038414
 11
142.4051056005
 21
195.2990768656
  0
LINE
  5
385
100
AcDbEntity
  8
0
100
AcDbLine
 62
7
  6
CONTINUOUS
 10
99.9448905839
 20
64.6199721241
 11
96.8072127933
 21
56.8539470743
  0
LINE
  5
386
100
AcDbEntity
  8
0
100
AcDbLine
 62
7
  6
CONTINUOUS
 10
147.1512361333
 20
187.6534015999
 11
145.2229703748
 21
183.1162383104
  0
LINE
  5
387
100
AcDbEntity
  8
0
100
AcDbLine
 62
7
  6
CONTINUOUS
 10
145.8475998414
 20
183.1377564305
 11
147.7758667913
 21
187.674919761
  0
LINE
  5
388
100
AcDbEntity
  8
0
100
AcDbLine
 62
7
  6
CONTINUOUS
 10
152.1246790578
 20
183.8198789507
 11
152.3496509998
 21
184.2368543651
  0
LINE
  5
389
100
AcDbEntity
  8
0
100
AcDbLine
 62
7
  6
CONTINUOUS
 10
156.7402305936
 20
183.3582268813
 11
156.9953824482
 21
183.7574478834
  0
LINE
  5
38A
100
AcDbEntity
  8
0
100
AcDbLine
 62
7
  6
CONTINUOUS
 10
159.8949550631
 20
186.0726304604
 11
158.1083672985
 21
183.6819811221
  0
LINE
  5
38B
100
AcDbEntity
  8
0
100
AcDbLine
 62
7
  6
CONTINUOUS
 10
158.3801476837
 20
183.4191864987
 11
160.1667353976
 21
185.8098355433
  0
LINE
  5
38C
100
AcDbEntity
  8
0
100
AcDbLine
 62
7
  6
CONTINUOUS
 10
164.0772666562
 20
181.9061190566
 11
164.3765745592
 21
182.2733991359
  0
LINE
  5
38D
100
AcDbEntity
  8
0
100
AcDbLine
 62
7
  6
CONTINUOUS
 10
193.4914420768
 20
189.9283722549
 11
187.0751091077
 21
184.5444296269
  0
LINE
  5
38E
100
AcDbEntity
  8
0
100
AcDbLine
 62
7
  6
CONTINUOUS
 10
75.9128230246
 20
103.7803012773
 11
68.8096333759
 21
99.341735765
  0
LINE
  5
38F
100
AcDbEntity
  8
0
100
AcDbLine
 62
7
  6
CONTINUOUS
 10
191.1202440947
 20
166.9643334043
 11
191.5592630599
 21
167.1424940966
  0
LINE
  5
390
100
AcDbEntity
  8
0
100
AcDbLine
 62
7
  6
CONTINUOUS
 10
71.1328114207
 20
92.1917289424
 11
79.4883359103
 21
92.7760041321
  0
LINE
  5
391
100
AcDbEntity
  8
0
100
AcDbLine
 62
7
  6
CONTINUOUS
 10
216.8924780432
 20
92.7760041321
 11
225.2480025327
 21
92.1917289424
  0
LINE
  5
392
100
AcDbEntity
  8
0
100
AcDbLine
 62
7
  6
CONTINUOUS
 10
68.8096333759
 20
143.021636328
 11
75.9128230246
 21
138.5830708158
  0
LINE
  5
393
100
AcDbEntity
  8
0
100
AcDbLine
 62
7
  6
CONTINUOUS
 10
187.0751091077
 20
57.8189424661
 11
193.4914420768
 21
52.4349998382
  0
LINE
  5
394
100
AcDbEntity
  8
0
100
AcDbLine
 62
7
  6
CONTINUOUS
 10
96.8072127933
 20
185.5094250187
 11
99.9448905839
 21
177.7433999689
  0
LINE
  5
395
100
AcDbEntity
  8
0
100
AcDbLine
 62
7
  6
CONTINUOUS
 10
142.4051056005
 20
47.0642952274
 11
144.4314259383
 21
38.9371682516
  0
LINE
  5
396
100
AcDbEntity
  8
0
100
AcDbLine
 62
7
  6
CONTINUOUS
 10
149.1239111631
 20
187.0259512183
 11
149.0072277064
 21
186.711163125
  0
LINE
  5
397
100
AcDbEntity
  8
0
100
AcDbLine
 62
7
  6
CONTINUOUS
 10
152.3496509998
 20
184.2368543651
 11
152.4663344448
 21
184.5516421605
  0
LINE
  5
398
100
AcDbEntity
  8
0
100
AcDbLine
 62
7
  6
CONTINUOUS
 10
153.9844505387
 20
186.777171694
 11
153.8448339657
 21
186.4718615534
  0
LINE
  5
399
100
AcDbEntity
  8
0
100
AcDbLine
 62
7
  6
CONTINUOUS
 10
156.9953824482
 20
183.7574478834
 11
157.1349989874
 21
184.062757728
  0
LINE
  5
39A
100
AcDbEntity
  8
0
100
AcDbLine
 62
7
  6
CONTINUOUS
 10
161.7272568145
 20
186.0569693574
 11
161.5294087683
 21
185.6660935698
  0
LINE
  5
39B
100
AcDbEntity
  8
0
100
AcDbLine
 62
7
  6
CONTINUOUS
 10
162.1140654644
 20
185.420901917
 11
162.287815946
 21
185.7081602378
  0
LINE
  5
39C
100
AcDbEntity
  8
0
100
AcDbLine
 62
7
  6
CONTINUOUS
 10
169.0492637129
 20
183.2964768142
 11
168.8543076817
 21
183.0231646817
  0
LINE
  5
39D
100
AcDbEntity
  8
0
100
AcDbLine
 62
7
  6
CONTINUOUS
 10
169.4187742617
 20
182.7345129617
 11
169.613730293
 21
183.0078250942
  0
LINE
  5
39E
100
AcDbEntity
  8
0
100
AcDbLine
 62
7
  6
CONTINUOUS
 10
173.6813825345
 20
181.5435059716
 11
173.4663393967
 21
181.2857001827
  0
LINE
  5
39F
100
AcDbEntity
  8
0
100
AcDbLine
 62
7
  6
CONTINUOUS
 10
174.0073907983
 20
180.9552373007
 11
174.222433936
 21
181.2130430897
  0
LINE
  5
3A0
100
AcDbEntity
  8
0
100
AcDbLine
 62
7
  6
CONTINUOUS
 10
172.8533306943
 20
179.4685901287
 11
172.6382875566
 21
179.2107843397
  0
LINE
  5
3A1
100
AcDbEntity
  8
0
100
AcDbLine
 62
7
  6
CONTINUOUS
 10
173.1793389305
 20
178.8803213886
 11
173.3943820959
 21
179.1381272467
  0
LINE
  5
3A2
100
AcDbEntity
  8
0
100
AcDbLine
 62
7
  6
CONTINUOUS
 10
190.8489954788
 20
171.3472469936
 11
190.558537659
 21
171.1788967009
  0
LINE
  5
3A3
100
AcDbEntity
  8
0
100
AcDbLine
 62
7
  6
CONTINUOUS
 10
191.5592630599
 20
167.1424940966
 11
191.8497206809
 21
167.3108441672
  0
LINE
  5
3A4
100
AcDbEntity
  8
0
100
AcDbLine
 62
7
  6
CONTINUOUS
 10
149.3983688102
 20
186.0569135548
 11
149.527654211
 21
186.69060135
  0
LINE
  5
3A5
100
AcDbEntity
  8
0
100
AcDbLine
 62
7
  6
CONTINUOUS
 10
152.0751933468
 20
185.2058918797
 11
151.9459079402
 21
184.5722039355
  0
LINE
  5
3A6
100
AcDbEntity
  8
0
100
AcDbLine
 62
7
  6
CONTINUOUS
 10
149.0072277064
 20
186.711163125
 11
148.8821421634
 21
186.1837753611
  0
LINE
  5
3A7
100
AcDbEntity
  8
0
100
AcDbLine
 62
7
  6
CONTINUOUS
 10
152.4663344448
 20
184.5516421605
 11
152.5914199936
 21
185.0790300733
  0
LINE
  5
3A8
100
AcDbEntity
  8
0
100
AcDbLine
 62
7
  6
CONTINUOUS
 10
154.1865879828
 20
185.7905099247
 11
154.3623204484
 21
186.4129185851
  0
LINE
  5
3A9
100
AcDbEntity
  8
0
100
AcDbLine
 62
7
  6
CONTINUOUS
 10
156.7932449872
 20
184.7441095047
 11
156.6175101359
 21
184.121700966
  0
LINE
  5
3AA
100
AcDbEntity
  8
0
100
AcDbLine
 62
7
  6
CONTINUOUS
 10
153.8448339657
 20
186.4718615534
 11
153.681138563
 21
185.9551526781
  0
LINE
  5
3AB
100
AcDbEntity
  8
0
100
AcDbLine
 62
7
  6
CONTINUOUS
 10
157.1349989874
 20
184.062757728
 11
157.2986920381
 21
184.5794670211
  0
LINE
  5
3AC
100
AcDbEntity
  8
0
100
AcDbLine
 62
7
  6
CONTINUOUS
 10
190.4433580547
 20
170.4253905658
 11
190.946645953
 21
170.8315626125
  0
LINE
  5
3AD
100
AcDbEntity
  8
0
100
AcDbLine
 62
7
  6
CONTINUOUS
 10
191.9649003846
 20
168.0643504134
 11
191.461612387
 21
167.6581782556
  0
LINE
  5
3AE
100
AcDbEntity
  8
0
100
AcDbLine
 62
7
  6
CONTINUOUS
 10
190.558537659
 20
171.1788967009
 11
190.1261943709
 21
170.8519975863
  0
LINE
  5
3AF
100
AcDbEntity
  8
0
100
AcDbLine
 62
7
  6
CONTINUOUS
 10
191.8497206809
 20
167.3108441672
 11
192.2820640684
 21
167.6377433929
  0
LINE
  5
3B0
100
AcDbEntity
  8
0
100
AcDbLine
 62
7
  6
CONTINUOUS
 10
141.7317413606
 20
187.1244156742
 11
141.8067072739
 21
186.2766597607
  0
LINE
  5
3B1
100
AcDbEntity
  8
0
100
AcDbLine
 62
7
  6
CONTINUOUS
 10
142.3636827016
 20
187.073499302
 11
142.7291414535
 21
182.9406900774
  0
LINE
  5
3B2
100
AcDbEntity
  8
0
100
AcDbLine
 62
7
  6
CONTINUOUS
 10
143.3517120587
 20
182.9957431573
 11
142.9112874197
 21
187.9763079985
  0
LINE
  5
3B3
100
AcDbEntity
  8
0
100
AcDbLine
 62
7
  6
CONTINUOUS
 10
144.009775509
 20
188.0774104821
 11
144.0280888005
 21
187.5458109995
  0
LINE
  5
3B4
100
AcDbEntity
  8
1_AXIS
100
AcDbLine
 62
2
  6
CONTINUOUS
 10
148.1904069767
 20
122.2316860465
 11
148.1904069767
 21
120.1316860465
  0
LINE
  5
3B5
100
AcDbEntity
  8
1_AXIS
100
AcDbLine
 62
2
  6
CENTER
 10
148.1904069767
 20
115.9316860465
 11
148.1904069767
 21
36.1316860465
  0
LINE
  5
3B6
100
AcDbEntity
  8
1_AXIS
100
AcDbLine
 62
2
  6
CENTER
 10
148.1904069767
 20
126.4316860465
 11
148.1904069767
 21
206.2316860465
  0
LINE
  5
3B7
100
AcDbEntity
  8
0
100
AcDbLine
 62
7
  6
CONTINUOUS
 10
148.8821421634
 20
186.1837753611
 11
148.844343443
 21
185.2270750792
  0
LINE
  5
3B8
100
AcDbEntity
  8
0
100
AcDbLine
 62
7
  6
CONTINUOUS
 10
149.3689698054
 20
185.3128133356
 11
149.3983688102
 21
186.0569135548
  0
LINE
  5
3B9
100
AcDbEntity
  8
0
100
AcDbLine
 62
7
  6
CONTINUOUS
 10
153.681138563
 20
185.9551526781
 11
153.5727836775
 21
185.0038570399
  0
LINE
  5
3BA
100
AcDbEntity
  8
0
100
AcDbLine
 62
7
  6
CONTINUOUS
 10
154.1023119608
 20
185.0506133172
 11
154.1865879828
 21
185.7905099247
  0
LINE
  5
3BB
100
AcDbEntity
  8
0
100
AcDbLine
 62
7
  6
CONTINUOUS
 10
161.5294087683
 20
185.6660935698
 11
161.4330181725
 21
185.251622251
  0
LINE
  5
3BC
100
AcDbEntity
  8
0
100
AcDbLine
 62
7
  6
CONTINUOUS
 10
162.0658702003
 20
185.2136664028
 11
162.1140654644
 21
185.420901917
  0
LINE
  5
3BD
100
AcDbEntity
  8
0
100
AcDbLine
 62
7
  6
CONTINUOUS
 10
166.4142411933
 20
185.6844419423
 11
164.9170401604
 21
180.9138666031
  0
LINE
  5
3BE
100
AcDbEntity
  8
0
100
AcDbLine
 62
7
  6
CONTINUOUS
 10
165.5133620778
 20
180.726716474
 11
166.1823242509
 21
182.8582501664
  0
LINE
  5
3BF
100
AcDbEntity
  8
0
100
AcDbLine
 62
7
  6
CONTINUOUS
 10
166.3734562749
 20
183.4672597116
 11
166.851286424
 21
184.9897838589
  0
LINE
  5
3C0
100
AcDbEntity
  8
0
100
AcDbLine
 62
7
  6
CONTINUOUS
 10
171.234254948
 20
184.1236809861
 11
169.3809959703
 21
179.4798214747
  0
LINE
  5
3C1
100
AcDbEntity
  8
0
100
AcDbLine
 62
7
  6
CONTINUOUS
 10
170.1980646611
 20
179.8409972302
 11
170.7895303046
 21
181.3230800839
  0
LINE
  5
3C2
100
AcDbEntity
  8
0
100
AcDbLine
 62
7
  6
CONTINUOUS
 10
171.0261165289
 20
181.9159131423
 11
171.5781511626
 21
183.2991905555
  0
LINE
  5
3C3
100
AcDbEntity
  8
0
100
AcDbLine
 62
7
  6
CONTINUOUS
 10
185.3754515614
 20
176.9545534969
 11
185.0667688157
 21
176.5213695301
  0
LINE
  5
3C4
100
AcDbEntity
  8
0
100
AcDbLine
 62
7
  6
CONTINUOUS
 10
182.9677258422
 20
173.5757181311
 11
182.4738334058
 21
172.8826237235
  0
LINE
  5
3C5
100
AcDbEntity
  8
0
100
AcDbLine
 62
7
  6
CONTINUOUS
 10
189.1703322156
 20
173.2470649437
 11
188.6376746927
 21
172.5832984635
  0
LINE
  5
3C6
100
AcDbEntity
  8
0
100
AcDbLine
 62
7
  6
CONTINUOUS
 10
189.5912034449
 20
172.7729238847
 11
186.9944985571
 21
169.5370629619
  0
LINE
  5
3C7
100
AcDbEntity
  8
0
100
AcDbLine
 62
7
  6
CONTINUOUS
 10
187.4819519534
 20
169.1458926838
 11
190.6113141776
 21
173.0455198544
  0
LINE
  5
3C8
100
AcDbEntity
  8
0
100
AcDbLine
 62
7
  6
CONTINUOUS
 10
190.1261943709
 20
170.8519975863
 11
189.4876928799
 21
170.1385411977
  0
LINE
  5
3C9
100
AcDbEntity
  8
0
100
AcDbLine
 62
7
  6
CONTINUOUS
 10
189.9467457839
 20
169.8704800413
 11
190.4433580547
 21
170.4253905658
  0
LINE
  5
3CA
100
AcDbEntity
  8
1_AXIS
100
AcDbLine
 62
2
  6
CONTINUOUS
 10
149.2404069767
 20
121.1816860465
 11
147.1404069767
 21
121.1816860465
  0
LINE
  5
3CB
100
AcDbEntity
  8
1_AXIS
100
AcDbLine
 62
2
  6
CENTER
 10
142.9404069767
 20
121.1816860465
 11
63.1404069767
 21
121.1816860465
  0
LINE
  5
3CC
100
AcDbEntity
  8
1_AXIS
100
AcDbLine
 62
2
  6
CENTER
 10
153.4404069767
 20
121.1816860465
 11
233.2404069767
 21
121.1816860465
  0
LINE
  5
3CD
100
AcDbEntity
  8
0
100
AcDbLine
 62
7
  6
CONTINUOUS
 10
127.1724216374
 20
183.139241437
 11
127.8043843427
 21
181.1076022076
  0
LINE
  5
3CE
100
AcDbEntity
  8
0
100
AcDbLine
 62
7
  6
CONTINUOUS
 10
128.3017127083
 20
181.2623014154
 11
127.669750003
 21
183.2939406448
  0
LINE
  5
3CF
100
AcDbEntity
  8
0
100
AcDbLine
 62
7
  6
CONTINUOUS
 10
129.65906343
 20
183.9127374651
 11
130.3542224014
 21
181.6779343269
  0
LINE
  5
3D0
100
AcDbEntity
  8
0
100
AcDbLine
 62
7
  6
CONTINUOUS
 10
131.3706531858
 20
184.4030370138
 11
132.1723414189
 21
181.0945253362
  0
LINE
  5
3D1
100
AcDbEntity
  8
0
100
AcDbLine
 62
7
  6
CONTINUOUS
 10
132.6785265863
 20
181.2171794877
 11
132.102313149
 21
183.5951723374
  0
LINE
  5
3D2
100
AcDbEntity
  8
0
100
AcDbLine
 62
7
  6
CONTINUOUS
 10
132.0021021287
 20
184.0087362609
 11
131.8768383532
 21
184.5256911653
  0
LINE
  5
3D3
100
AcDbEntity
  8
0
100
AcDbLine
 62
7
  6
CONTINUOUS
 10
134.0247904245
 20
183.623163275
 11
134.5007928414
 21
181.6587343488
  0
LINE
  5
3D4
100
AcDbEntity
  8
0
100
AcDbLine
 62
7
  6
CONTINUOUS
 10
134.8497183575
 20
186.8406065673
 11
134.9536028076
 21
186.3189348241
  0
LINE
  5
3D5
100
AcDbEntity
  8
0
100
AcDbLine
 62
7
  6
CONTINUOUS
 10
135.1613717661
 20
185.2755910455
 11
135.8262323049
 21
181.9368915969
  0
LINE
  5
3D6
100
AcDbEntity
  8
0
100
AcDbLine
 62
7
  6
CONTINUOUS
 10
136.3370357528
 20
182.038611761
 11
135.6721752139
 21
185.3773112096
  0
LINE
  5
3D7
100
AcDbEntity
  8
0
100
AcDbLine
 62
7
  6
CONTINUOUS
 10
135.4644062555
 20
186.4206549882
 11
135.3605218054
 21
186.9423267313
  0
LINE
  5
3D8
100
AcDbEntity
  8
0
100
AcDbLine
 62
7
  6
CONTINUOUS
 10
147.7758667913
 20
187.674919761
 11
147.7575534998
 21
188.2065192436
  0
LINE
  5
3D9
100
AcDbEntity
  8
0
100
AcDbLine
 62
7
  6
CONTINUOUS
 10
152.1045923516
 20
185.9499920989
 11
152.0751933468
 21
185.2058918797
  0
LINE
  5
3DA
100
AcDbEntity
  8
0
100
AcDbLine
 62
7
  6
CONTINUOUS
 10
152.5914199936
 20
185.0790300733
 11
152.629218714
 21
186.0357303552
  0
LINE
  5
3DB
100
AcDbEntity
  8
0
100
AcDbLine
 62
7
  6
CONTINUOUS
 10
156.8775210092
 20
185.4840061122
 11
156.7932449872
 21
184.7441095047
  0
LINE
  5
3DC
100
AcDbEntity
  8
0
100
AcDbLine
 62
7
  6
CONTINUOUS
 10
157.2986920381
 20
184.5794670211
 11
157.4070469236
 21
185.5307626593
  0
LINE
  5
3DD
100
AcDbEntity
  8
0
100
AcDbLine
 62
7
  6
CONTINUOUS
 10
163.8642106918
 20
182.8294437698
 11
163.7919177956
 21
182.5185904984
  0
LINE
  5
3DE
100
AcDbEntity
  8
0
100
AcDbLine
 62
7
  6
CONTINUOUS
 10
164.3765745592
 20
182.2733991359
 11
164.4970627196
 21
182.7914879216
  0
LINE
  5
3DF
100
AcDbEntity
  8
0
100
AcDbLine
 62
7
  6
CONTINUOUS
 10
169.1448298142
 20
183.6009818711
 11
169.0492637129
 21
183.2964768142
  0
LINE
  5
3E0
100
AcDbEntity
  8
0
100
AcDbLine
 62
7
  6
CONTINUOUS
 10
169.613730293
 20
183.0078250942
 11
169.7411517316
 21
183.413831742
  0
LINE
  5
3E1
100
AcDbEntity
  8
0
100
AcDbLine
 62
7
  6
CONTINUOUS
 10
173.7602446093
 20
181.7411169911
 11
173.6813825345
 21
181.5435059716
  0
LINE
  5
3E2
100
AcDbEntity
  8
0
100
AcDbLine
 62
7
  6
CONTINUOUS
 10
172.9716238065
 20
179.7650066579
 11
172.8533306943
 21
179.4685901287
  0
LINE
  5
3E3
100
AcDbEntity
  8
0
100
AcDbLine
 62
7
  6
CONTINUOUS
 10
173.3943820959
 20
179.1381272467
 11
173.5915372828
 21
179.6321547954
  0
LINE
  5
3E4
100
AcDbEntity
  8
0
100
AcDbLine
 62
7
  6
CONTINUOUS
 10
174.222433936
 20
181.2130430897
 11
174.380158196
 21
181.6082654054
  0
LINE
  5
3E5
100
AcDbEntity
  8
0
100
AcDbLine
 62
7
  6
CONTINUOUS
 10
185.8671108058
 20
170.4646067491
 11
186.2375301439
 21
170.9844275699
  0
LINE
  5
3E6
100
AcDbEntity
  8
0
100
AcDbLine
 62
7
  6
CONTINUOUS
 10
188.3365731174
 20
173.9300789689
 11
188.7687289614
 21
174.5365365225
  0
LINE
  5
3E7
100
AcDbEntity
  8
0
100
AcDbLine
 62
7
  6
CONTINUOUS
 10
192.4615126554
 20
168.6192609378
 11
191.9649003846
 21
168.0643504134
  0
LINE
  5
3E8
100
AcDbEntity
  8
0
100
AcDbLine
 62
7
  6
CONTINUOUS
 10
192.2820640684
 20
167.6377433929
 11
192.9205655595
 21
168.3511997815
  0
LINE
  5
3E9
100
AcDbEntity
  8
0
100
AcDbLine
 62
7
  6
CONTINUOUS
 10
130.9779434281
 20
181.4263056793
 11
130.1563919024
 21
184.0674367061
  0
LINE
  5
3EA
100
AcDbEntity
  8
0
100
AcDbLine
 62
7
  6
CONTINUOUS
 10
135.0069777192
 20
181.7813884301
 11
134.5309753023
 21
183.7458173563
  0
LINE
  5
3EB
100
AcDbEntity
  8
0
100
AcDbLine
 62
7
  6
CONTINUOUS
 10
153.5727836775
 20
185.0038570399
 11
153.6160847461
 21
184.4635706135
  0
LINE
  5
3EC
100
AcDbEntity
  8
0
100
AcDbLine
 62
7
  6
CONTINUOUS
 10
157.4070469236
 20
185.5307626593
 11
157.363748207
 21
186.0710486679
  0
LINE
  5
3ED
100
AcDbEntity
  8
0
100
AcDbLine
 62
7
  6
CONTINUOUS
 10
154.1335712288
 20
184.4046276452
 11
154.1023119608
 21
185.0506133172
  0
LINE
  5
3EE
100
AcDbEntity
  8
0
100
AcDbLine
 62
7
  6
CONTINUOUS
 10
156.8462593555
 20
186.1299919059
 11
156.8775210092
 21
185.4840061122
  0
LINE
  5
3EF
100
AcDbEntity
  8
0
100
AcDbLine
 62
7
  6
CONTINUOUS
 10
160.6707859314
 20
183.3536715231
 11
160.6758529209
 21
182.9156052537
  0
LINE
  5
3F0
100
AcDbEntity
  8
0
100
AcDbLine
 62
7
  6
CONTINUOUS
 10
161.4330181725
 20
185.251622251
 11
161.438085162
 21
184.8135559816
  0
LINE
  5
3F1
100
AcDbEntity
  8
0
100
AcDbLine
 62
7
  6
CONTINUOUS
 10
189.4876928799
 20
170.1385411977
 11
189.2105899674
 21
169.6727108806
  0
LINE
  5
3F2
100
AcDbEntity
  8
0
100
AcDbLine
 62
7
  6
CONTINUOUS
 10
192.9205655595
 20
168.3511997815
 11
193.1976683726
 21
168.8170299875
  0
LINE
  5
3F3
100
AcDbEntity
  8
0
100
AcDbLine
 62
7
  6
CONTINUOUS
 10
189.5986982613
 20
169.3253767922
 11
189.9467457839
 21
169.8704800413
  0
LINE
  5
3F4
100
AcDbEntity
  8
0
100
AcDbLine
 62
7
  6
CONTINUOUS
 10
192.8095600787
 20
169.164364076
 11
192.4615126554
 21
168.6192609378
  0
LINE
  5
3F5
100
AcDbEntity
  8
0
100
AcDbLine
 62
7
  6
CONTINUOUS
 10
127.8043843427
 20
181.1076022076
 11
128.0302425755
 21
180.7322141622
  0
LINE
  5
3F6
100
AcDbEntity
  8
0
100
AcDbLine
 62
7
  6
CONTINUOUS
 10
131.2038015576
 20
181.0509176213
 11
130.9779434281
 21
181.4263056793
  0
LINE
  5
3F7
100
AcDbEntity
  8
0
100
AcDbLine
 62
7
  6
CONTINUOUS
 10
133.7982894418
 20
184.115587307
 11
134.0247904245
 21
183.623163275
  0
LINE
  5
3F8
100
AcDbEntity
  8
0
100
AcDbLine
 62
7
  6
CONTINUOUS
 10
134.5309753023
 20
183.7458173563
 11
134.3044748989
 21
184.2382415287
  0
LINE
  5
3F9
100
AcDbEntity
  8
0
100
AcDbLine
 62
7
  6
CONTINUOUS
 10
148.844343443
 20
185.2270750792
 11
148.9274304018
 21
184.6914623811
  0
LINE
  5
3FA
100
AcDbEntity
  8
0
100
AcDbLine
 62
7
  6
CONTINUOUS
 10
152.629218714
 20
186.0357303552
 11
152.5461317493
 21
186.5713429044
  0
LINE
  5
3FB
100
AcDbEntity
  8
0
100
AcDbLine
 62
7
  6
CONTINUOUS
 10
149.4478569064
 20
184.6709006061
 11
149.3689698054
 21
185.3128133356
  0
LINE
  5
3FC
100
AcDbEntity
  8
0
100
AcDbLine
 62
7
  6
CONTINUOUS
 10
152.0257052447
 20
186.5919046794
 11
152.1045923516
 21
185.9499920989
  0
LINE
  5
3FD
100
AcDbEntity
  8
0
100
AcDbLine
 62
7
  6
CONTINUOUS
 10
161.3087049487
 20
182.8776494055
 11
161.2795403271
 21
183.2120979178
  0
LINE
  5
3FE
100
AcDbEntity
  8
0
100
AcDbLine
 62
7
  6
CONTINUOUS
 10
162.0950348218
 20
184.8792178905
 11
162.0658702003
 21
185.2136664028
  0
LINE
  5
3FF
100
AcDbEntity
  8
0
100
AcDbLine
 62
7
  6
CONTINUOUS
 10
164.6746382646
 20
184.9346303022
 11
164.645473643
 21
185.2690788144
  0
LINE
  5
400
100
AcDbEntity
  8
0
100
AcDbLine
 62
7
  6
CONTINUOUS
 10
169.1410058069
 20
183.9366792838
 11
169.1448298142
 21
183.6009818711
  0
LINE
  5
401
100
AcDbEntity
  8
0
100
AcDbLine
 62
7
  6
CONTINUOUS
 10
169.7411517316
 20
183.413831742
 11
169.7373277243
 21
183.7495291547
  0
LINE
  5
402
100
AcDbEntity
  8
0
100
AcDbLine
 62
7
  6
CONTINUOUS
 10
172.9931669482
 20
180.1000340658
 11
172.9716238065
 21
179.7650066579
  0
LINE
  5
403
100
AcDbEntity
  8
0
100
AcDbLine
 62
7
  6
CONTINUOUS
 10
173.5915372828
 20
179.6321547954
 11
173.6130804245
 21
179.9671822033
  0
LINE
  5
404
100
AcDbEntity
  8
0
100
AcDbLine
 62
7
  6
CONTINUOUS
 10
173.7817878062
 20
182.0761445374
 11
173.7602446093
 21
181.7411169911
  0
LINE
  5
405
100
AcDbEntity
  8
0
100
AcDbLine
 62
7
  6
CONTINUOUS
 10
174.380158196
 20
181.6082654054
 11
174.4017012825
 21
181.9432926749
  0
LINE
  5
406
100
AcDbEntity
  8
0
100
AcDbLine
 62
7
  6
CONTINUOUS
 10
151.9493880152
 20
38.9371682516
 11
153.975708353
 21
47.0642952274
  0
LINE
  5
407
100
AcDbEntity
  8
0
100
AcDbLine
 62
7
  6
CONTINUOUS
 10
196.4359233696
 20
177.7433999689
 11
199.5736011602
 21
185.5094250187
  0
LINE
  5
408
100
AcDbEntity
  8
0
100
AcDbLine
 62
7
  6
CONTINUOUS
 10
189.2105899674
 20
169.6727108806
 11
189.0753799277
 21
169.3654233587
  0
LINE
  5
409
100
AcDbEntity
  8
0
100
AcDbLine
 62
7
  6
CONTINUOUS
 10
193.1976683726
 20
168.8170299875
 11
193.332878611
 21
169.1243177315
  0
LINE
  5
40A
100
AcDbEntity
  8
0
100
AcDbLine
 62
7
  6
CONTINUOUS
 10
102.8893718767
 20
52.4349998382
 11
109.3057048458
 21
57.8189424661
  0
LINE
  5
40B
100
AcDbEntity
  8
0
100
AcDbLine
 62
7
  6
CONTINUOUS
 10
220.4679909289
 20
138.5830708158
 11
227.5711805776
 21
143.021636328
  0
LINE
  5
40C
100
AcDbEntity
  8
0
100
AcDbLine
 62
7
  6
CONTINUOUS
 10
225.2480025327
 20
150.1716431506
 11
216.8924780432
 21
149.5873679609
  0
LINE
  5
40D
100
AcDbEntity
  8
0
100
AcDbLine
 62
7
  6
CONTINUOUS
 10
79.4883359103
 20
149.5873679609
 11
71.1328114207
 21
150.1716431506
  0
LINE
  5
40E
100
AcDbEntity
  8
0
100
AcDbLine
 62
7
  6
CONTINUOUS
 10
227.5711805776
 20
99.341735765
 11
220.4679909289
 21
103.7803012773
  0
LINE
  5
40F
100
AcDbEntity
  8
0
100
AcDbLine
 62
7
  6
CONTINUOUS
 10
109.3057048458
 20
184.5444296269
 11
102.8893718767
 21
189.9283722549
  0
LINE
  5
410
100
AcDbEntity
  8
0
100
AcDbLine
 62
7
  6
CONTINUOUS
 10
130.5122130888
 20
181.1700244839
 11
130.8691352221
 21
180.7239943551
  0
LINE
  5
411
100
AcDbEntity
  8
0
100
AcDbLine
 62
7
  6
CONTINUOUS
 10
128.4959727948
 20
180.9884953983
 11
128.3017127083
 21
181.2623014154
  0
LINE
  5
412
100
AcDbEntity
  8
0
100
AcDbLine
 62
7
  6
CONTINUOUS
 10
134.3044748989
 20
184.2382415287
 11
134.1280794263
 21
184.5238835989
  0
LINE
  5
413
100
AcDbEntity
  8
0
100
AcDbLine
 62
7
  6
CONTINUOUS
 10
199.5736011602
 20
56.8539470743
 11
196.4359233696
 21
64.6199721241
  0
LINE
  5
414
100
AcDbEntity
  8
0
100
AcDbLine
 62
7
  6
CONTINUOUS
 10
148.9274304018
 20
184.6914623811
 11
149.0189146999
 21
184.3684499886
  0
LINE
  5
415
100
AcDbEntity
  8
0
100
AcDbLine
 62
7
  6
CONTINUOUS
 10
152.5461317493
 20
186.5713429044
 11
152.454647463
 21
186.8943555947
  0
LINE
  5
416
100
AcDbEntity
  8
0
100
AcDbLine
 62
7
  6
CONTINUOUS
 10
153.975708353
 20
195.2990768656
 11
151.9493880152
 21
203.4262038414
  0
LINE
  5
417
100
AcDbEntity
  8
0
100
AcDbLine
 62
7
  6
CONTINUOUS
 10
153.6160847461
 20
184.4635706135
 11
153.683464695
 21
184.1346833658
  0
LINE
  5
418
100
AcDbEntity
  8
0
100
AcDbLine
 62
7
  6
CONTINUOUS
 10
157.363748207
 20
186.0710486679
 11
157.2963682918
 21
186.3999362116
  0
LINE
  5
419
100
AcDbEntity
  8
0
100
AcDbLine
 62
7
  6
CONTINUOUS
 10
189.0753799277
 20
169.3654233587
 11
188.9468419126
 21
168.9094004835
  0
LINE
  5
41A
100
AcDbEntity
  8
0
100
AcDbLine
 62
7
  6
CONTINUOUS
 10
193.332878611
 20
169.1243177315
 11
193.4614165764
 21
169.5803405512
  0
LINE
  5
41B
100
AcDbEntity
  8
0
100
AcDbLine
 62
7
  6
CONTINUOUS
 10
128.0302425755
 20
180.7322141622
 11
128.19290452
 21
180.5599900967
  0
LINE
  5
41C
100
AcDbEntity
  8
0
100
AcDbLine
 62
7
  6
CONTINUOUS
 10
131.3664636944
 20
180.8786935961
 11
131.2038015576
 21
181.0509176213
  0
LINE
  5
41D
100
AcDbEntity
  8
0
100
AcDbLine
 62
7
  6
CONTINUOUS
 10
149.0189146999
 20
184.3684499886
 11
149.2102877734
 21
183.9350250036
  0
LINE
  5
41E
100
AcDbEntity
  8
0
100
AcDbLine
 62
7
  6
CONTINUOUS
 10
152.454647463
 20
186.8943555947
 11
152.2632743866
 21
187.3277805053
  0
LINE
  5
41F
100
AcDbEntity
  8
0
100
AcDbLine
 62
7
  6
CONTINUOUS
 10
153.683464695
 20
184.1346833658
 11
153.842301079
 21
183.688308097
  0
LINE
  5
420
100
AcDbEntity
  8
0
100
AcDbLine
 62
7
  6
CONTINUOUS
 10
157.2963682918
 20
186.3999362116
 11
157.1375318994
 21
186.8463114064
  0
LINE
  5
421
100
AcDbEntity
  8
0
100
AcDbLine
 62
7
  6
CONTINUOUS
 10
160.6758529209
 20
182.9156052537
 11
160.859741933
 21
182.3267295566
  0
LINE
  5
422
100
AcDbEntity
  8
0
100
AcDbLine
 62
7
  6
CONTINUOUS
 10
164.4970627196
 20
182.7914879216
 11
164.3905359238
 21
183.253150117
  0
LINE
  5
423
100
AcDbEntity
  8
0
100
AcDbLine
 62
7
  6
CONTINUOUS
 10
164.0126216152
 20
185.3070346626
 11
164.0658838689
 21
185.0762039075
  0
LINE
  5
424
100
AcDbEntity
  8
0
100
AcDbLine
 62
7
  6
CONTINUOUS
 10
189.4835150541
 20
168.5718737814
 11
189.5986982613
 21
169.3253767922
  0
LINE
  5
425
100
AcDbEntity
  8
0
100
AcDbLine
 62
7
  6
CONTINUOUS
 10
192.9247434349
 20
169.9178672532
 11
192.8095600787
 21
169.164364076
  0
LINE
  5
426
100
AcDbEntity
  8
0
100
AcDbLine
 62
7
  6
CONTINUOUS
 10
191.461612387
 20
167.6581782556
 11
190.7254601734
 21
167.4604059705
  0
LINE
  5
427
100
AcDbEntity
  8
0
100
AcDbLine
 62
7
  6
CONTINUOUS
 10
190.946645953
 20
170.8315626125
 11
191.6827983156
 21
171.0293350642
  0
LINE
  5
428
100
AcDbEntity
  8
0
100
AcDbLine
 62
7
  6
CONTINUOUS
 10
128.7896985908
 20
180.745629156
 11
128.4959727948
 21
180.9884953983
  0
LINE
  5
429
100
AcDbEntity
  8
0
100
AcDbLine
 62
7
  6
CONTINUOUS
 10
149.8390003896
 20
184.0166508673
 11
149.4478569064
 21
184.6709006061
  0
LINE
  5
42A
100
AcDbEntity
  8
0
100
AcDbLine
 62
7
  6
CONTINUOUS
 10
151.6345617703
 20
187.2461546416
 11
152.0257052447
 21
186.5919046794
  0
LINE
  5
42B
100
AcDbEntity
  8
0
100
AcDbLine
 62
7
  6
CONTINUOUS
 10
154.4753252375
 20
183.7232759426
 11
154.1335712288
 21
184.4046276452
  0
LINE
  5
42C
100
AcDbEntity
  8
0
100
AcDbLine
 62
7
  6
CONTINUOUS
 10
156.5045077409
 20
186.8113435609
 11
156.8462593555
 21
186.1299919059
  0
LINE
  5
42D
100
AcDbEntity
  8
0
100
AcDbLine
 62
7
  6
CONTINUOUS
 10
163.733586264
 20
183.1874882081
 11
163.8642106918
 21
182.8294437698
  0
LINE
  5
42E
100
AcDbEntity
  8
0
100
AcDbLine
 62
7
  6
CONTINUOUS
 10
173.6130804245
 20
179.9671822033
 11
173.4805633545
 21
180.4782329284
  0
LINE
  5
42F
100
AcDbEntity
  8
0
100
AcDbLine
 62
7
  6
CONTINUOUS
 10
188.9468419126
 20
168.9094004835
 11
188.9668723231
 21
168.4631818425
  0
LINE
  5
430
100
AcDbEntity
  8
0
100
AcDbLine
 62
7
  6
CONTINUOUS
 10
188.6376746927
 20
172.5832984635
 11
189.5912034449
 21
172.7729238847
  0
LINE
  5
431
100
AcDbEntity
  8
0
100
AcDbLine
 62
7
  6
CONTINUOUS
 10
190.1238607813
 20
173.4366901325
 11
189.1703322156
 21
173.2470649437
  0
LINE
  5
432
100
AcDbEntity
  8
0
100
AcDbLine
 62
7
  6
CONTINUOUS
 10
183.3532439656
 20
173.0397422749
 11
188.3365731174
 21
173.9300789689
  0
LINE
  5
433
100
AcDbEntity
  8
0
100
AcDbLine
 62
7
  6
CONTINUOUS
 10
188.0358855698
 20
174.4056053693
 11
182.9677258422
 21
173.5757181311
  0
LINE
  5
434
100
AcDbEntity
  8
0
100
AcDbLine
 62
7
  6
CONTINUOUS
 10
190.6745459738
 20
166.9349143974
 11
191.1202440947
 21
166.9643334043
  0
LINE
  5
435
100
AcDbEntity
  8
0
100
AcDbLine
 62
7
  6
CONTINUOUS
 10
128.19290452
 20
180.5599900967
 11
128.586095939
 21
180.3480637194
  0
LINE
  5
436
100
AcDbEntity
  8
0
100
AcDbLine
 62
7
  6
CONTINUOUS
 10
133.5457100964
 20
184.2733076643
 11
133.7982894418
 21
184.115587307
  0
LINE
  5
437
100
AcDbEntity
  8
0
100
AcDbLine
 62
7
  6
CONTINUOUS
 10
134.1280794263
 20
184.5238835989
 11
133.8755000809
 21
184.6816039562
  0
LINE
  5
438
100
AcDbEntity
  8
0
100
AcDbLine
 62
7
  6
CONTINUOUS
 10
149.2102877734
 20
183.9350250036
 11
149.5099445776
 21
183.6037877886
  0
LINE
  5
439
100
AcDbEntity
  8
0
100
AcDbLine
 62
7
  6
CONTINUOUS
 10
153.842301079
 20
183.688308097
 11
154.116675143
 21
183.335843679
  0
LINE
  5
43A
100
AcDbEntity
  8
0
100
AcDbLine
 62
7
  6
CONTINUOUS
 10
161.5407892334
 20
182.4960092589
 11
161.3087049487
 21
182.8776494055
  0
LINE
  5
43B
100
AcDbEntity
  8
0
100
AcDbLine
 62
7
  6
CONTINUOUS
 10
161.438085162
 20
184.8135559816
 11
161.7475316715
 21
184.3047023695
  0
LINE
  5
43C
100
AcDbEntity
  8
0
100
AcDbLine
 62
7
  6
CONTINUOUS
 10
164.3905359238
 20
183.253150117
 11
164.0810894143
 21
183.7620037291
  0
LINE
  5
43D
100
AcDbEntity
  8
0
100
AcDbLine
 62
7
  6
CONTINUOUS
 10
163.8578971994
 20
185.5614617387
 11
164.0126216152
 21
185.3070346626
  0
LINE
  5
43E
100
AcDbEntity
  8
0
100
AcDbLine
 62
7
  6
CONTINUOUS
 10
164.645473643
 20
185.2690788144
 11
164.4374869735
 21
185.7543366456
  0
LINE
  5
43F
100
AcDbEntity
  8
0
100
AcDbLine
 62
7
  6
CONTINUOUS
 10
172.8785378291
 20
180.3748630311
 11
172.9931669482
 21
180.1000340658
  0
LINE
  5
440
100
AcDbEntity
  8
0
100
AcDbLine
 62
7
  6
CONTINUOUS
 10
173.6671586871
 20
182.3509735027
 11
173.7817878062
 21
182.0761445374
  0
LINE
  5
441
100
AcDbEntity
  8
0
100
AcDbLine
 62
7
  6
CONTINUOUS
 10
169.7373277243
 20
183.7495291547
 11
169.5665881149
 21
184.2491105827
  0
LINE
  5
442
100
AcDbEntity
  8
0
100
AcDbLine
 62
7
  6
CONTINUOUS
 10
174.4017012825
 20
181.9432926749
 11
174.2691842126
 21
182.4543434
  0
LINE
  5
443
100
AcDbEntity
  8
0
100
AcDbLine
 62
7
  6
CONTINUOUS
 10
193.4614165764
 20
169.5803405512
 11
193.4413861411
 21
170.0265591644
  0
LINE
  5
444
100
AcDbEntity
  8
0
100
AcDbLine
 62
7
  6
CONTINUOUS
 10
172.2260936088
 20
178.458949105
 11
172.7313735477
 21
178.6009280011
  0
LINE
  5
445
100
AcDbEntity
  8
0
100
AcDbLine
 62
7
  6
CONTINUOUS
 10
191.7337124904
 20
171.5548266096
 11
191.2880143943
 21
171.5254076304
  0
LINE
  5
446
100
AcDbEntity
  8
0
100
AcDbLine
 62
7
  6
CONTINUOUS
 10
190.7254601734
 20
167.4604059705
 11
190.3507066875
 21
167.5102599234
  0
LINE
  5
447
100
AcDbEntity
  8
0
100
AcDbLine
 62
7
  6
CONTINUOUS
 10
190.0736038309
 20
167.0444296688
 11
190.6745459738
 21
166.9349143974
  0
LINE
  5
448
100
AcDbEntity
  8
0
100
AcDbLine
 62
7
  6
CONTINUOUS
 10
128.586095939
 20
180.3480637194
 11
128.9476892754
 21
180.237719322
  0
LINE
  5
449
100
AcDbEntity
  8
0
100
AcDbLine
 62
7
  6
CONTINUOUS
 10
133.8755000809
 20
184.6816039562
 11
133.5216835282
 21
184.8147934411
  0
LINE
  5
44A
100
AcDbEntity
  8
0
100
AcDbLine
 62
7
  6
CONTINUOUS
 10
149.5099445776
 20
183.6037877886
 11
150.0177715076
 21
183.2643258917
  0
LINE
  5
44B
100
AcDbEntity
  8
0
100
AcDbLine
 62
7
  6
CONTINUOUS
 10
150.1428570532
 20
183.7917137208
 11
149.8390003896
 21
184.0166508673
  0
LINE
  5
44C
100
AcDbEntity
  8
0
100
AcDbLine
 62
7
  6
CONTINUOUS
 10
154.116675143
 20
183.335843679
 11
154.5980433273
 21
182.9598021369
  0
LINE
  5
44D
100
AcDbEntity
  8
0
100
AcDbLine
 62
7
  6
CONTINUOUS
 10
154.7617387374
 20
183.4765110769
 11
154.4753252375
 21
183.7232759426
  0
LINE
  5
44E
100
AcDbEntity
  8
0
100
AcDbLine
 62
7
  6
CONTINUOUS
 10
158.1083672985
 20
183.6819811221
 11
158.3801476837
 21
183.4191864987
  0
LINE
  5
44F
100
AcDbEntity
  8
0
100
AcDbLine
 62
7
  6
CONTINUOUS
 10
160.1667353976
 20
185.8098355433
 11
159.8949550631
 21
186.0726304604
  0
LINE
  5
450
100
AcDbEntity
  8
0
100
AcDbLine
 62
7
  6
CONTINUOUS
 10
160.859741933
 20
182.3267295566
 11
161.2947459084
 21
181.8978978935
  0
LINE
  5
451
100
AcDbEntity
  8
0
100
AcDbLine
 62
7
  6
CONTINUOUS
 10
162.3512167555
 20
184.6011955736
 11
162.0950348218
 21
184.8792178905
  0
LINE
  5
452
100
AcDbEntity
  8
0
100
AcDbLine
 62
7
  6
CONTINUOUS
 10
163.4774043303
 20
183.465510525
 11
163.733586264
 21
183.1874882081
  0
LINE
  5
453
100
AcDbEntity
  8
0
100
AcDbLine
 62
7
  6
CONTINUOUS
 10
152.2632743866
 20
187.3277805053
 11
151.9636175808
 21
187.659017683
  0
LINE
  5
454
100
AcDbEntity
  8
0
100
AcDbLine
 62
7
  6
CONTINUOUS
 10
164.4374869735
 20
185.7543366456
 11
164.1039428319
 21
186.1595725006
  0
LINE
  5
455
100
AcDbEntity
  8
0
100
AcDbLine
 62
7
  6
CONTINUOUS
 10
157.1375318994
 20
186.8463114064
 11
156.8631578312
 21
187.1987757874
  0
LINE
  5
456
100
AcDbEntity
  8
0
100
AcDbLine
 62
7
  6
CONTINUOUS
 10
169.5665881149
 20
184.2491105827
 11
169.2646076985
 21
184.678381632
  0
LINE
  5
457
100
AcDbEntity
  8
0
100
AcDbLine
 62
7
  6
CONTINUOUS
 10
174.2691842126
 20
182.4543434
 11
174.0004905083
 21
182.9051975882
  0
LINE
  5
458
100
AcDbEntity
  8
0
100
AcDbLine
 62
7
  6
CONTINUOUS
 10
169.0059455421
 20
184.20206489
 11
169.1410058069
 21
183.9366792838
  0
LINE
  5
459
100
AcDbEntity
  8
0
100
AcDbLine
 62
7
  6
CONTINUOUS
 10
188.9668723231
 20
168.4631818425
 11
189.142146768
 21
167.878028937
  0
LINE
  5
45A
100
AcDbEntity
  8
0
100
AcDbLine
 62
7
  6
CONTINUOUS
 10
189.5744900996
 20
168.2049281002
 11
189.4835150541
 21
168.5718737814
  0
LINE
  5
45B
100
AcDbEntity
  8
0
100
AcDbLine
 62
7
  6
CONTINUOUS
 10
163.1210090954
 20
181.4731770775
 11
163.5750390816
 21
181.5860305754
  0
LINE
  5
45C
100
AcDbEntity
  8
0
100
AcDbLine
 62
7
  6
CONTINUOUS
 10
162.6835166827
 20
186.489910733
 11
162.2294843806
 21
186.3770578023
  0
LINE
  5
45D
100
AcDbEntity
  8
0
100
AcDbLine
 62
7
  6
CONTINUOUS
 10
132.1723414189
 20
181.0945253362
 11
132.6785265863
 21
181.2171794877
  0
LINE
  5
45E
100
AcDbEntity
  8
0
100
AcDbLine
 62
7
  6
CONTINUOUS
 10
134.5007928414
 20
181.6587343488
 11
135.0069777192
 21
181.7813884301
  0
LINE
  5
45F
100
AcDbEntity
  8
0
100
AcDbLine
 62
7
  6
CONTINUOUS
 10
135.8262323049
 20
181.9368915969
 11
136.3370357528
 21
182.038611761
  0
LINE
  5
460
100
AcDbEntity
  8
0
100
AcDbLine
 62
7
  6
CONTINUOUS
 10
151.1837100624
 20
183.7505901708
 11
150.6590837
 21
183.6648519145
  0
LINE
  5
461
100
AcDbEntity
  8
0
100
AcDbLine
 62
7
  6
CONTINUOUS
 10
150.6380844079
 20
183.1333516835
 11
151.2667970245
 21
183.2149775564
  0
LINE
  5
462
100
AcDbEntity
  8
0
100
AcDbLine
 62
7
  6
CONTINUOUS
 10
173.3265031981
 20
180.6542563839
 11
173.5594254293
 21
180.6758439479
  0
LINE
  5
463
100
AcDbEntity
  8
0
100
AcDbLine
 62
7
  6
CONTINUOUS
 10
142.7291414535
 20
182.9406900774
 11
143.3517120587
 21
182.9957431573
  0
LINE
  5
464
100
AcDbEntity
  8
0
100
AcDbLine
 62
7
  6
CONTINUOUS
 10
155.7967140717
 20
183.3586248706
 11
155.2671857884
 21
183.3118685933
  0
LINE
  5
465
100
AcDbEntity
  8
0
100
AcDbLine
 62
7
  6
CONTINUOUS
 10
155.2069886213
 20
182.7833709425
 11
155.8400127809
 21
182.8183387973
  0
LINE
  5
466
100
AcDbEntity
  8
0
100
AcDbLine
 62
7
  6
CONTINUOUS
 10
128.9476892754
 20
180.237719322
 11
129.3771500895
 21
180.2598967206
  0
LINE
  5
467
100
AcDbEntity
  8
0
100
AcDbLine
 62
7
  6
CONTINUOUS
 10
145.2229703748
 20
183.1162383104
 11
145.8475998414
 21
183.1377564305
  0
LINE
  5
468
100
AcDbEntity
  8
0
100
AcDbLine
 62
7
  6
CONTINUOUS
 10
168.5918260676
 20
182.8825439244
 11
168.2618074968
 21
182.874618112
  0
LINE
  5
469
100
AcDbEntity
  8
0
100
AcDbLine
 62
7
  6
CONTINUOUS
 10
163.1641350626
 20
182.1184794646
 11
162.7342003927
 21
182.1092442911
  0
LINE
  5
46A
100
AcDbEntity
  8
0
100
AcDbLine
 62
7
  6
CONTINUOUS
 10
162.5896145833
 20
181.4875376758
 11
163.1210090954
 21
181.4731770775
  0
LINE
  5
46B
100
AcDbEntity
  8
0
100
AcDbLine
 62
7
  6
CONTINUOUS
 10
172.3659342604
 20
179.0903911969
 11
172.0362620035
 21
179.1074143732
  0
LINE
  5
46C
100
AcDbEntity
  8
0
100
AcDbLine
 62
7
  6
CONTINUOUS
 10
173.1939861281
 20
181.165307109
 11
172.8643138713
 21
181.1823302854
  0
LINE
  5
46D
100
AcDbEntity
  8
0
100
AcDbLine
 62
7
  6
CONTINUOUS
 10
133.5216835282
 20
184.8147934411
 11
133.1929197306
 21
184.8445919451
  0
LINE
  5
46E
100
AcDbEntity
  8
0
100
AcDbLine
 62
7
  6
CONTINUOUS
 10
191.6827983156
 20
171.0293350642
 11
192.0575518016
 21
170.9794811113
  0
LINE
  5
46F
100
AcDbEntity
  8
0
100
AcDbLine
 62
7
  6
CONTINUOUS
 10
129.2507575463
 20
180.6662245736
 11
128.7896985908
 21
180.745629156
  0
LINE
  5
470
100
AcDbEntity
  8
0
100
AcDbLine
 62
7
  6
CONTINUOUS
 10
171.702925726
 20
178.5531919859
 11
172.2260936088
 21
178.458949105
  0
LINE
  5
471
100
AcDbEntity
  8
0
100
AcDbLine
 62
7
  6
CONTINUOUS
 10
192.3346546147
 20
171.4453113174
 11
191.7337124904
 21
171.5548266096
  0
LINE
  5
472
100
AcDbEntity
  8
0
100
AcDbLine
 62
7
  6
CONTINUOUS
 10
150.0177715076
 20
183.2643258917
 11
150.6380844079
 21
183.1333516835
  0
LINE
  5
473
100
AcDbEntity
  8
0
100
AcDbLine
 62
7
  6
CONTINUOUS
 10
161.7779428298
 20
181.6763023029
 11
162.5896145833
 21
181.4875376758
  0
LINE
  5
474
100
AcDbEntity
  8
0
100
AcDbLine
 62
7
  6
CONTINUOUS
 10
133.318183506
 20
184.3276370407
 11
133.5457100964
 21
184.2733076643
  0
LINE
  5
475
100
AcDbEntity
  8
0
100
AcDbLine
 62
7
  6
CONTINUOUS
 10
150.6590837
 20
183.6648519145
 11
150.1428570532
 21
183.7917137208
  0
LINE
  5
476
100
AcDbEntity
  8
0
100
AcDbLine
 62
7
  6
CONTINUOUS
 10
154.5980433273
 20
182.9598021369
 11
155.2069886213
 21
182.7833709425
  0
LINE
  5
477
100
AcDbEntity
  8
0
100
AcDbLine
 62
7
  6
CONTINUOUS
 10
164.9170401604
 20
180.9138666031
 11
165.5133620778
 21
180.726716474
  0
LINE
  5
478
100
AcDbEntity
  8
0
100
AcDbLine
 62
7
  6
CONTINUOUS
 10
155.2671857884
 20
183.3118685933
 11
154.7617387374
 21
183.4765110769
  0
LINE
  5
479
100
AcDbEntity
  8
0
100
AcDbLine
 62
7
  6
CONTINUOUS
 10
169.3809959703
 20
179.4798214747
 11
171.702925726
 21
178.5531919859
  0
LINE
  5
47A
100
AcDbEntity
  8
0
100
AcDbLine
 62
7
  6
CONTINUOUS
 10
161.2947459084
 20
181.8978978935
 11
161.7779428298
 21
181.6763023029
  0
LINE
  5
47B
100
AcDbEntity
  8
0
100
AcDbLine
 62
7
  6
CONTINUOUS
 10
161.9225286392
 20
182.2980089182
 11
161.5407892334
 21
182.4960092589
  0
LINE
  5
47C
100
AcDbEntity
  8
0
100
AcDbLine
 62
7
  6
CONTINUOUS
 10
162.1051734453
 20
184.0030842717
 11
162.4869105288
 21
183.805084471
  0
LINE
  5
47D
100
AcDbEntity
  8
0
100
AcDbLine
 62
7
  6
CONTINUOUS
 10
163.0956649245
 20
183.6635108657
 11
163.4774043303
 21
183.465510525
  0
LINE
  5
47E
100
AcDbEntity
  8
0
100
AcDbLine
 62
7
  6
CONTINUOUS
 10
190.3507066875
 20
167.5102599234
 11
189.8916537834
 21
167.7783210797
  0
LINE
  5
47F
100
AcDbEntity
  8
0
100
AcDbLine
 62
7
  6
CONTINUOUS
 10
162.6314963213
 20
184.4267910138
 11
162.3512167555
 21
184.6011955736
  0
LINE
  5
480
100
AcDbEntity
  8
0
100
AcDbLine
 62
7
  6
CONTINUOUS
 10
189.5369306831
 20
167.3819563639
 11
190.0736038309
 21
167.0444296688
  0
LINE
  5
481
100
AcDbEntity
  8
0
100
AcDbLine
 62
7
  6
CONTINUOUS
 10
151.9636175808
 20
187.659017683
 11
151.4557906497
 21
187.998479552
  0
LINE
  5
482
100
AcDbEntity
  8
0
100
AcDbLine
 62
7
  6
CONTINUOUS
 10
182.4738334058
 20
172.8826237235
 11
185.8671108058
 21
170.4646067491
  0
LINE
  5
483
100
AcDbEntity
  8
0
100
AcDbLine
 62
7
  6
CONTINUOUS
 10
151.3307051068
 20
187.4710917881
 11
151.6345617703
 21
187.2461546416
  0
LINE
  5
484
100
AcDbEntity
  8
0
100
AcDbLine
 62
7
  6
CONTINUOUS
 10
156.8631578312
 20
187.1987757874
 11
156.3817872748
 21
187.5748175715
  0
LINE
  5
485
100
AcDbEntity
  8
0
100
AcDbLine
 62
7
  6
CONTINUOUS
 10
186.9944985571
 20
169.5370629619
 11
187.4819519534
 21
169.1458926838
  0
LINE
  5
486
100
AcDbEntity
  8
0
100
AcDbLine
 62
7
  6
CONTINUOUS
 10
161.7475316715
 20
184.3047023695
 11
162.1051734453
 21
184.0030842717
  0
LINE
  5
487
100
AcDbEntity
  8
0
100
AcDbLine
 62
7
  6
CONTINUOUS
 10
164.0810894143
 20
183.7620037291
 11
163.7234499628
 21
184.0636212868
  0
LINE
  5
488
100
AcDbEntity
  8
0
100
AcDbLine
 62
7
  6
CONTINUOUS
 10
172.627727647
 20
180.5894972269
 11
172.8785378291
 21
180.3748630311
  0
LINE
  5
489
100
AcDbEntity
  8
0
100
AcDbLine
 62
7
  6
CONTINUOUS
 10
156.218094241
 20
187.0581084265
 11
156.5045077409
 21
186.8113435609
  0
LINE
  5
48A
100
AcDbEntity
  8
0
100
AcDbLine
 62
7
  6
CONTINUOUS
 10
173.4805633545
 20
180.4782329284
 11
173.3265031981
 21
180.6542563839
  0
LINE
  5
48B
100
AcDbEntity
  8
0
100
AcDbLine
 62
7
  6
CONTINUOUS
 10
189.142146768
 20
167.878028937
 11
189.5369306831
 21
167.3819563639
  0
LINE
  5
48C
100
AcDbEntity
  8
0
100
AcDbLine
 62
7
  6
CONTINUOUS
 10
189.8916537834
 20
167.7783210797
 11
189.5744900996
 21
168.2049281002
  0
LINE
  5
48D
100
AcDbEntity
  8
0
100
AcDbLine
 62
7
  6
CONTINUOUS
 10
193.4413861411
 20
170.0265591644
 11
193.2661116775
 21
170.6117120491
  0
LINE
  5
48E
100
AcDbEntity
  8
0
100
AcDbLine
 62
7
  6
CONTINUOUS
 10
192.8337683894
 20
170.2848129344
 11
192.9247434349
 21
169.9178672532
  0
LINE
  5
48F
100
AcDbEntity
  8
0
100
AcDbLine
 62
7
  6
CONTINUOUS
 10
133.1929197306
 20
184.8445919451
 11
132.7879714808
 21
184.7464685958
  0
LINE
  5
490
100
AcDbEntity
  8
0
100
AcDbLine
 62
7
  6
CONTINUOUS
 10
131.8768383532
 20
184.5256911653
 11
131.3706531858
 21
184.4030370138
  0
LINE
  5
491
100
AcDbEntity
  8
0
100
AcDbLine
 62
7
  6
CONTINUOUS
 10
135.6721752139
 20
185.3773112096
 11
135.1613717661
 21
185.2755910455
  0
LINE
  5
492
100
AcDbEntity
  8
0
100
AcDbLine
 62
7
  6
CONTINUOUS
 10
134.9536028076
 20
186.3189348241
 11
135.4644062555
 21
186.4206549882
  0
LINE
  5
493
100
AcDbEntity
  8
0
100
AcDbLine
 62
7
  6
CONTINUOUS
 10
135.3605218054
 20
186.9423267313
 11
134.8497183575
 21
186.8406065673
  0
LINE
  5
494
100
AcDbEntity
  8
0
100
AcDbLine
 62
7
  6
CONTINUOUS
 10
150.2898520976
 20
187.5122153381
 11
150.81447846
 21
187.5979535944
  0
LINE
  5
495
100
AcDbEntity
  8
0
100
AcDbLine
 62
7
  6
CONTINUOUS
 10
150.8354777491
 20
188.129453751
 11
150.2067651329
 21
188.0478278873
  0
LINE
  5
496
100
AcDbEntity
  8
0
100
AcDbLine
 62
7
  6
CONTINUOUS
 10
162.640388408
 20
185.8446089494
 11
162.9688632379
 21
185.8774399039
  0
LINE
  5
497
100
AcDbEntity
  8
0
100
AcDbLine
 62
7
  6
CONTINUOUS
 10
142.9112874197
 20
187.9763079985
 11
142.2887168146
 21
187.9212549186
  0
LINE
  5
498
100
AcDbEntity
  8
0
100
AcDbLine
 62
7
  6
CONTINUOUS
 10
155.1831189068
 20
187.1759946328
 11
155.7126448212
 21
187.2227511799
  0
LINE
  5
499
100
AcDbEntity
  8
0
100
AcDbLine
 62
7
  6
CONTINUOUS
 10
155.7728419798
 20
187.7512487567
 11
155.1398178213
 21
187.7162809111
  0
LINE
  5
49A
100
AcDbEntity
  8
0
100
AcDbLine
 62
7
  6
CONTINUOUS
 10
144.0280888005
 20
187.5458109995
 11
147.1512361333
 21
187.6534015999
  0
LINE
  5
49B
100
AcDbEntity
  8
0
100
AcDbLine
 62
7
  6
CONTINUOUS
 10
147.7575534998
 20
188.2065192436
 11
144.009775509
 21
188.0774104821
  0
LINE
  5
49C
100
AcDbEntity
  8
0
100
AcDbLine
 62
7
  6
CONTINUOUS
 10
163.1134490304
 20
186.4991464466
 11
162.6835166827
 21
186.489910733
  0
LINE
  5
49D
100
AcDbEntity
  8
0
100
AcDbLine
 62
7
  6
CONTINUOUS
 10
132.8881825011
 20
184.3329046723
 11
133.318183506
 21
184.3276370407
  0
LINE
  5
49E
100
AcDbEntity
  8
0
100
AcDbLine
 62
7
  6
CONTINUOUS
 10
167.9712900031
 20
182.2967997791
 11
168.5000795133
 21
182.242343167
  0
LINE
  5
49F
100
AcDbEntity
  8
0
100
AcDbLine
 62
7
  6
CONTINUOUS
 10
151.4557906497
 20
187.998479552
 11
150.8354777491
 21
188.129453751
  0
LINE
  5
4A0
100
AcDbEntity
  8
0
100
AcDbLine
 62
7
  6
CONTINUOUS
 10
162.7342003927
 20
182.1092442911
 11
161.9225286392
 21
182.2980089182
  0
LINE
  5
4A1
100
AcDbEntity
  8
0
100
AcDbLine
 62
7
  6
CONTINUOUS
 10
161.2795403271
 20
183.2120979178
 11
160.6707859314
 21
183.3536715231
  0
LINE
  5
4A2
100
AcDbEntity
  8
0
100
AcDbLine
 62
7
  6
CONTINUOUS
 10
162.4869105288
 20
183.805084471
 11
163.0956649245
 21
183.6635108657
  0
LINE
  5
4A3
100
AcDbEntity
  8
0
100
AcDbLine
 62
7
  6
CONTINUOUS
 10
163.240250717
 20
184.2852174085
 11
162.6314963213
 21
184.4267910138
  0
LINE
  5
4A4
100
AcDbEntity
  8
0
100
AcDbLine
 62
7
  6
CONTINUOUS
 10
164.0658838689
 20
185.0762039075
 11
164.6746382646
 21
184.9346303022
  0
LINE
  5
4A5
100
AcDbEntity
  8
0
100
AcDbLine
 62
7
  6
CONTINUOUS
 10
162.9688632379
 20
185.8774399039
 11
163.5776176336
 21
185.7358662985
  0
LINE
  5
4A6
100
AcDbEntity
  8
0
100
AcDbLine
 62
7
  6
CONTINUOUS
 10
163.6207459083
 20
186.3811680821
 11
163.1134490304
 21
186.4991464466
  0
LINE
  5
4A7
100
AcDbEntity
  8
0
100
AcDbLine
 62
7
  6
CONTINUOUS
 10
150.81447846
 20
187.5979535944
 11
151.3307051068
 21
187.4710917881
  0
LINE
  5
4A8
100
AcDbEntity
  8
0
100
AcDbLine
 62
7
  6
CONTINUOUS
 10
156.3817872748
 20
187.5748175715
 11
155.7728419798
 21
187.7512487567
  0
LINE
  5
4A9
100
AcDbEntity
  8
0
100
AcDbLine
 62
7
  6
CONTINUOUS
 10
166.1823242509
 20
182.8582501664
 11
167.9712900031
 21
182.2967997791
  0
LINE
  5
4AA
100
AcDbEntity
  8
0
100
AcDbLine
 62
7
  6
CONTINUOUS
 10
168.2618074968
 20
182.874618112
 11
166.3734562749
 21
183.4672597116
  0
LINE
  5
4AB
100
AcDbEntity
  8
0
100
AcDbLine
 62
7
  6
CONTINUOUS
 10
166.851286424
 20
184.9897838589
 11
168.7396376459
 21
184.3971422593
  0
LINE
  5
4AC
100
AcDbEntity
  8
0
100
AcDbLine
 62
7
  6
CONTINUOUS
 10
168.7995288629
 20
184.9358414259
 11
166.4142411933
 21
185.6844419423
  0
LINE
  5
4AD
100
AcDbEntity
  8
0
100
AcDbLine
 62
7
  6
CONTINUOUS
 10
155.7126448212
 20
187.2227511799
 11
156.218094241
 21
187.0581084265
  0
LINE
  5
4AE
100
AcDbEntity
  8
0
100
AcDbLine
 62
7
  6
CONTINUOUS
 10
172.0362620035
 20
179.1074143732
 11
170.1980646611
 21
179.8409972302
  0
LINE
  5
4AF
100
AcDbEntity
  8
0
100
AcDbLine
 62
7
  6
CONTINUOUS
 10
170.7895303046
 20
181.3230800839
 11
172.627727647
 21
180.5894972269
  0
LINE
  5
4B0
100
AcDbEntity
  8
0
100
AcDbLine
 62
7
  6
CONTINUOUS
 10
172.8643138713
 20
181.1823302854
 11
171.0261165289
 21
181.9159131423
  0
LINE
  5
4B1
100
AcDbEntity
  8
0
100
AcDbLine
 62
7
  6
CONTINUOUS
 10
171.5781511626
 20
183.2991905555
 11
173.4163485051
 21
182.5656076985
  0
LINE
  5
4B2
100
AcDbEntity
  8
0
100
AcDbLine
 62
7
  6
CONTINUOUS
 10
173.5561847037
 20
183.1970514973
 11
171.234254948
 21
184.1236809861
  0
LINE
  5
4B3
100
AcDbEntity
  8
0
100
AcDbLine
 62
7
  6
CONTINUOUS
 10
163.7234499628
 20
184.0636212868
 11
163.240250717
 21
184.2852174085
  0
LINE
  5
4B4
100
AcDbEntity
  8
0
100
AcDbLine
 62
7
  6
CONTINUOUS
 10
164.1039428319
 20
186.1595725006
 11
163.6207459083
 21
186.3811680821
  0
LINE
  5
4B5
100
AcDbEntity
  8
0
100
AcDbLine
 62
7
  6
CONTINUOUS
 10
169.2646076985
 20
184.678381632
 11
168.7995288629
 21
184.9358414259
  0
LINE
  5
4B6
100
AcDbEntity
  8
0
100
AcDbLine
 62
7
  6
CONTINUOUS
 10
192.0575518016
 20
170.9794811113
 11
192.5166047056
 21
170.7114199549
  0
LINE
  5
4B7
100
AcDbEntity
  8
0
100
AcDbLine
 62
7
  6
CONTINUOUS
 10
163.5776176336
 20
185.7358662985
 11
163.8578971994
 21
185.5614617387
  0
LINE
  5
4B8
100
AcDbEntity
  8
0
100
AcDbLine
 62
7
  6
CONTINUOUS
 10
192.8713277562
 20
171.1077846153
 11
192.3346546147
 21
171.4453113174
  0
LINE
  5
4B9
100
AcDbEntity
  8
0
100
AcDbLine
 62
7
  6
CONTINUOUS
 10
174.0004905083
 20
182.9051975882
 11
173.5561847037
 21
183.1970514973
  0
LINE
  5
4BA
100
AcDbEntity
  8
0
100
AcDbLine
 62
7
  6
CONTINUOUS
 10
186.2375301439
 20
170.9844275699
 11
183.3532439656
 21
173.0397422749
  0
LINE
  5
4BB
100
AcDbEntity
  8
0
100
AcDbLine
 62
7
  6
CONTINUOUS
 10
185.0667688157
 20
176.5213695301
 11
188.0358855698
 21
174.4056053693
  0
LINE
  5
4BC
100
AcDbEntity
  8
0
100
AcDbLine
 62
7
  6
CONTINUOUS
 10
188.7687289614
 20
174.5365365225
 11
185.3754515614
 21
176.9545534969
  0
LINE
  5
4BD
100
AcDbEntity
  8
0
100
AcDbLine
 62
7
  6
CONTINUOUS
 10
168.7396376459
 20
184.3971422593
 11
169.0059455421
 21
184.20206489
  0
LINE
  5
4BE
100
AcDbEntity
  8
0
100
AcDbLine
 62
7
  6
CONTINUOUS
 10
190.6113141776
 20
173.0455198544
 11
190.1238607813
 21
173.4366901325
  0
LINE
  5
4BF
100
AcDbEntity
  8
0
100
AcDbLine
 62
7
  6
CONTINUOUS
 10
173.4163485051
 20
182.5656076985
 11
173.6671586871
 21
182.3509735027
  0
LINE
  5
4C0
100
AcDbEntity
  8
0
100
AcDbLine
 62
7
  6
CONTINUOUS
 10
193.2661116775
 20
170.6117120491
 11
192.8713277562
 21
171.1077846153
  0
LINE
  5
4C1
100
AcDbEntity
  8
0
100
AcDbLine
 62
7
  6
CONTINUOUS
 10
192.5166047056
 20
170.7114199549
 11
192.8337683894
 21
170.2848129344
  0
LINE
  5
4C2
100
AcDbEntity
  8
0
100
AcDbLine
 62
7
  6
CONTINUOUS
 10
68.3395526401
 20
238.1988068647
 11
68.3395526401
 21
245.2982861585
  0
LINE
  5
4C3
100
AcDbEntity
  8
0
100
AcDbLine
 62
7
  6
CONTINUOUS
 10
68.3395526401
 20
245.2982861585
 11
68.3489107254
 21
245.4347717357
  0
LINE
  5
4C4
100
AcDbEntity
  8
0
100
AcDbLine
 62
7
  6
CONTINUOUS
 10
68.3488463351
 20
245.4343018331
 11
68.3487288283
 21
245.433445495
  0
LINE
  5
4C5
100
AcDbEntity
  8
0
100
AcDbLine
 62
7
  6
CONTINUOUS
 10
68.3580265243
 20
245.4954377897
 11
68.3487095168
 21
245.4336008461
  0
LINE
  5
4C6
100
AcDbEntity
  8
0
100
AcDbLine
 62
7
  6
CONTINUOUS
 10
68.3694779607
 20
245.5591836245
 11
68.3580265243
 21
245.4954377897
  0
LWPOLYLINE
  5
4C7
100
AcDbEntity
  8
0
100
AcDbPolyline
 62
7
  6
CONTINUOUS
 90
3
 70
0
 10
68.3954925348
 20
245.6744320835
 10
68.3819982065
 20
245.6187390299
 10
68.3694779607
 20
245.5591836245
  0
LWPOLYLINE
  5
4C8
100
AcDbEntity
  8
0
100
AcDbPolyline
 62
7
  6
CONTINUOUS
 90
4
 70
0
 10
68.4434315716
 20
245.8254966329
 10
68.4259603234
 20
245.7772081902
 10
68.4100602989
 20
245.7269838201
 10
68.3954925348
 20
245.6744320835
  0
LWPOLYLINE
  5
4C9
100
AcDbEntity
  8
0
100
AcDbPolyline
 62
7
  6
CONTINUOUS
 90
3
 70
0
 10
68.4076671583
 20
237.7778124662
 10
68.4233354133
 20
237.7269359804
 10
68.4403426639
 20
237.6785206109
  0
LINE
  5
4CA
100
AcDbEntity
  8
0
100
AcDbLine
 62
7
  6
CONTINUOUS
 10
68.393215005
 20
237.8313051432
 11
68.4076671583
 21
237.7778124662
  0
LWPOLYLINE
  5
4CB
100
AcDbEntity
  8
0
100
AcDbPolyline
 62
7
  6
CONTINUOUS
 90
6
 70
0
 10
68.3852257312
 20
237.8641666376
 10
68.3978134956
 20
237.8135111624
 10
68.4115042067
 20
237.7647274115
 10
68.4262364735
 20
237.7182132809
 10
68.4420234643
 20
237.6740714014
 10
68.4590143782
 20
237.6320721511
  0
LWPOLYLINE
  5
4CC
100
AcDbEntity
  8
0
100
AcDbPolyline
 62
7
  6
CONTINUOUS
 90
3
 70
0
 10
68.3627820197
 20
237.9735155229
 10
68.3735505429
 20
237.9174063682
 10
68.3852257312
 20
237.8641666376
  0
LWPOLYLINE
  5
4CD
100
AcDbEntity
  8
0
100
AcDbPolyline
 62
7
  6
CONTINUOUS
 90
4
 70
0
 10
68.3566335506
 20
238.009559237
 10
68.3677143295
 20
237.9468414766
 10
68.379874205
 20
237.8877264277
 10
68.393215005
 20
237.8313051432
  0
LINE
  5
4CE
100
AcDbEntity
  8
0
100
AcDbLine
 62
7
  6
CONTINUOUS
 10
68.34878924
 20
238.0614392989
 11
68.3566335506
 21
238.009559237
  0
LWPOLYLINE
  5
4CF
100
AcDbEntity
  8
0
100
AcDbPolyline
 62
7
  6
CONTINUOUS
 90
3
 70
0
 10
68.3487896806
 20
238.0614361595
 10
68.3529659654
 20
238.0328576402
 10
68.3627820197
 20
237.9735155229
  0
LWPOLYLINE
  5
4D0
100
AcDbEntity
  8
0
100
AcDbPolyline
 62
7
  6
CONTINUOUS
 90
10
 70
0
 10
68.4772995843
 20
237.5922173441
 10
68.4972260138
 20
237.5540617214
 10
68.5191533422
 20
237.5173091737
 10
68.5433362192
 20
237.4818508742
 10
68.5702297524
 20
237.4474567695
 10
68.5996547502
 20
237.4148138923
 10
68.6315424763
 20
237.3842603681
 10
68.6653048958
 20
237.3564836466
 10
68.7002922305
 20
237.3319668763
 10
68.7359684091
 20
237.3107821265
  0
LWPOLYLINE
  5
4D1
100
AcDbEntity
  8
0
100
AcDbPolyline
 62
7
  6
CONTINUOUS
 90
3
 70
0
 10
68.4588701131
 20
237.6324073739
 10
68.4792156636
 20
237.5883242416
 10
68.5017042027
 20
237.5461481759
  0
LWPOLYLINE
  5
4D2
100
AcDbEntity
  8
0
100
AcDbPolyline
 62
7
  6
CONTINUOUS
 90
15
 70
0
 10
68.5017042027
 20
237.5461481759
 10
68.5267482796
 20
237.5056529587
 10
68.5549006146
 20
237.4664706881
 10
68.5860536889
 20
237.4293170761
 10
68.6202720136
 20
237.3945434615
 10
68.6568591025
 20
237.3630282206
 10
68.6950374464
 20
237.3353988956
 10
68.7341282866
 20
237.3117886421
 10
68.7742231134
 20
237.2918378722
 10
68.812807262
 20
237.2762956003
 10
68.8492986061
 20
237.2645304663
 10
68.88241705
 20
237.2559925952
 10
68.9093954189
 20
237.2502502172
 10
68.9352861155
 20
237.2454524632
 10
68.9623171674
 20
237.2409196944
  0
LINE
  5
4D3
100
AcDbEntity
  8
0
100
AcDbLine
 62
7
  6
CONTINUOUS
 10
96.7343966479
 20
238.1988068647
 11
96.7343966479
 21
245.2982861585
  0
LWPOLYLINE
  5
4D4
100
AcDbEntity
  8
0
100
AcDbPolyline
 62
7
  6
CONTINUOUS
 90
10
 70
0
 10
68.710480144
 20
246.1710225748
 10
68.6704687347
 20
246.143798544
 10
68.6330758495
 20
246.1135953512
 10
68.5980310368
 20
246.080202872
 10
68.5656239386
 20
246.0436987026
 10
68.535999082
 20
246.0042761861
 10
68.5090395803
 20
245.9622643377
 10
68.48472417
 20
245.9181992202
 10
68.4629698277
 20
245.8726140783
 10
68.4434315716
 20
245.8254966329
  0
LINE
  5
4D5
100
AcDbEntity
  8
0
100
AcDbLine
 62
7
  6
CONTINUOUS
 10
68.7510668618
 20
246.1939618932
 11
68.710480144
 21
246.1710225748
  0
LWPOLYLINE
  5
4D6
100
AcDbEntity
  8
0
100
AcDbPolyline
 62
7
  6
CONTINUOUS
 90
7
 70
0
 10
68.7723352745
 20
237.2926868943
 10
68.8076109248
 20
237.2781945694
 10
68.8416564473
 20
237.2667759273
 10
68.8725871369
 20
237.2583357079
 10
68.8974766946
 20
237.2526748503
 10
68.9204820473
 20
237.2481269757
 10
68.943403594
 20
237.2440498553
  0
LINE
  5
4D7
100
AcDbEntity
  8
1_AXIS
100
AcDbLine
 62
7
  6
CONTINUOUS
 10
116.6904069767
 20
222.5985465116
 11
116.6904069767
 21
235.2485465116
  0
LINE
  5
4D8
100
AcDbEntity
  8
1_AXIS
100
AcDbLine
 62
7
  6
CONTINUOUS
 10
116.6904069767
 20
248.2485465116
 11
116.6904069767
 21
260.8985465116
  0
LWPOLYLINE
  5
4D9
100
AcDbEntity
  8
0
100
AcDbPolyline
 62
7
  6
CONTINUOUS
 90
4
 70
0
 10
100.8838215117
 20
247.1889566679
 10
100.8571281151
 20
247.1792649023
 10
100.794382676
 20
247.1582964398
 10
100.7115886857
 20
247.133184222
  0
LINE
  5
4DA
100
AcDbEntity
  8
0
100
AcDbLine
 62
7
  6
CONTINUOUS
 10
195.6786226707
 20
236.3666225686
 11
195.7663984101
 21
236.3909092787
  0
LINE
  5
4DB
100
AcDbEntity
  8
0
100
AcDbLine
 62
7
  6
CONTINUOUS
 10
195.7666269993
 20
236.3909734538
 11
198.9065790175
 21
237.2332417676
  0
LWPOLYLINE
  5
4DC
100
AcDbEntity
  8
0
100
AcDbPolyline
 62
7
  6
CONTINUOUS
 90
5
 70
0
 10
227.4514981963
 20
237.246511551
 10
227.4759545469
 20
237.2511541669
 10
227.5030714862
 20
237.2570887538
 10
227.5327887315
 20
237.2648959718
 10
227.5677451691
 20
237.2762016015
  0
LWPOLYLINE
  5
4DD
100
AcDbEntity
  8
0
100
AcDbPolyline
 62
7
  6
CONTINUOUS
 90
5
 70
0
 10
227.4183839532
 20
237.2409015182
 10
227.4453681382
 20
237.2454244709
 10
227.4711937062
 20
237.2502059792
 10
227.4980933651
 20
237.2559225909
 10
227.5310790974
 20
237.2644055528
  0
LINE
  5
4DE
100
AcDbEntity
  8
0
100
AcDbLine
 62
7
  6
CONTINUOUS
 10
227.3894569479
 20
237.2363949832
 11
227.4268234916
 21
237.2422762893
  0
LINE
  5
4DF
100
AcDbEntity
  8
0
100
AcDbLine
 62
7
  6
CONTINUOUS
 10
227.3576339449
 20
237.2317099364
 11
227.4001061801
 21
237.2380214962
  0
LINE
  5
4E0
100
AcDbEntity
  8
1_AXIS
100
AcDbLine
 62
7
  6
CONTINUOUS
 10
118.690752634
 20
220.5985465116
 11
177.6904069767
 21
220.5985465116
  0
LWPOLYLINE
  5
4E1
100
AcDbEntity
  8
0
100
AcDbPolyline
 62
7
  6
CONTINUOUS
 90
3
 70
0
 10
68.9673783384
 20
237.2401094301
 10
68.993673476
 20
237.2360455484
 10
69.0223215858
 20
237.2318333569
  0
LINE
  5
4E2
100
AcDbEntity
  8
0
100
AcDbLine
 62
7
  6
CONTINUOUS
 10
97.4742349332
 20
237.233241768
 11
100.6141869463
 21
236.3909734542
  0
LWPOLYLINE
  5
4E3
100
AcDbEntity
  8
0
100
AcDbPolyline
 62
7
  6
CONTINUOUS
 90
4
 70
0
 10
100.614449815
 20
236.3909004057
 10
100.7116233356
 20
236.3638995575
 10
100.7943866332
 20
236.3387947259
 10
100.8571136942
 20
236.3178305804
  0
LINE
  5
4E4
100
AcDbEntity
  8
0
100
AcDbLine
 62
7
  6
CONTINUOUS
 10
100.8571136942
 20
236.3178305804
 11
100.8837913702
 21
236.3081441887
  0
LINE
  5
4E5
100
AcDbEntity
  8
0
100
AcDbLine
 62
7
  6
CONTINUOUS
 10
227.3229172774
 20
237.2268286352
 11
227.3711823846
 21
237.2336758793
  0
LINE
  5
4E6
100
AcDbEntity
  8
0
100
AcDbLine
 62
7
  6
CONTINUOUS
 10
227.2849448814
 20
237.2216942914
 11
227.339482492
 21
237.2291322996
  0
LINE
  5
4E7
100
AcDbEntity
  8
0
100
AcDbLine
 62
7
  6
CONTINUOUS
 10
227.2279504612
 20
237.2142956343
 11
227.3050811844
 21
237.2243935403
  0
LINE
  5
4E8
100
AcDbEntity
  8
0
100
AcDbLine
 62
7
  6
CONTINUOUS
 10
227.1626316503
 20
237.206178559
 11
227.2439569607
 21
237.2163408303
  0
LINE
  5
4E9
100
AcDbEntity
  8
0
100
AcDbLine
 62
7
  6
CONTINUOUS
 10
219.1188210773
 20
236.2514999499
 11
227.1594462699
 21
237.2058152277
  0
LINE
  5
4EA
100
AcDbEntity
  8
0
100
AcDbLine
 62
7
  6
CONTINUOUS
 10
219.0984571068
 20
236.2495327273
 11
219.1188222876
 21
236.2514999496
  0
LINE
  5
4EB
100
AcDbEntity
  8
0
100
AcDbLine
 62
7
  6
CONTINUOUS
 10
77.2823622356
 20
236.249533009
 11
77.2619954658
 21
236.2515004538
  0
LINE
  5
4EC
100
AcDbEntity
  8
0
100
AcDbLine
 62
7
  6
CONTINUOUS
 10
69.2043947829
 20
237.2078631694
 11
77.0781867288
 21
236.2739538785
  0
LINE
  5
4ED
100
AcDbEntity
  8
0
100
AcDbLine
 62
7
  6
CONTINUOUS
 10
77.0781867288
 20
236.2739538785
 11
77.2619964554
 21
236.251500454
  0
LINE
  5
4EE
100
AcDbEntity
  8
0
100
AcDbLine
 62
7
  6
CONTINUOUS
 10
69.1367439599
 20
237.216355357
 11
69.2181818008
 21
237.2061786181
  0
LINE
  5
4EF
100
AcDbEntity
  8
0
100
AcDbLine
 62
7
  6
CONTINUOUS
 10
69.0875744417
 20
237.2228001548
 11
69.1631400005
 21
237.2129948672
  0
LWPOLYLINE
  5
4F0
100
AcDbEntity
  8
0
100
AcDbPolyline
 62
7
  6
CONTINUOUS
 90
3
 70
0
 10
69.0231085327
 20
237.2317202073
 10
69.0578146585
 20
237.2268399355
 10
69.0957736938
 20
237.22170696
  0
LINE
  5
4F1
100
AcDbEntity
  8
0
100
AcDbLine
 62
7
  6
CONTINUOUS
 10
77.3020815211
 20
236.2485465116
 11
219.0787813809
 21
236.2485465116
  0
LINE
  5
4F2
100
AcDbEntity
  8
1_AXIS
100
AcDbLine
 62
2
  6
CENTER
 10
148.1904069767
 20
218.5985465116
 11
148.1904069767
 21
264.8985465116
  0
LINE
  5
4F3
100
AcDbEntity
  8
0
100
AcDbLine
 62
7
  6
CONTINUOUS
 10
77.3020815211
 20
247.2485465116
 11
195.1722234112
 21
247.2485465116
  0
LINE
  5
4F4
100
AcDbEntity
  8
0
100
AcDbLine
 62
7
  6
CONTINUOUS
 10
195.3536611253
 20
247.2485465116
 11
219.0787813809
 21
247.2485465116
  0
LWPOLYLINE
  5
4F5
100
AcDbEntity
  8
0
100
AcDbPolyline
 62
7
  6
CONTINUOUS
 90
4
 70
0
 10
69.0195082877
 20
246.2649696129
 10
68.9902874571
 20
246.2606446903
 10
68.963398441
 20
246.2564424335
 10
68.9382259957
 20
246.2522301323
  0
LINE
  5
4F6
100
AcDbEntity
  8
0
100
AcDbLine
 62
7
  6
CONTINUOUS
 10
69.0864656655
 20
246.2742493555
 11
69.0271877724
 21
246.2660735785
  0
LINE
  5
4F7
100
AcDbEntity
  8
0
100
AcDbLine
 62
7
  6
CONTINUOUS
 10
69.1249025849
 20
246.2792931166
 11
69.0631500425
 21
246.2710987443
  0
LINE
  5
4F8
100
AcDbEntity
  8
0
100
AcDbLine
 62
7
  6
CONTINUOUS
 10
69.1669402677
 20
246.2846280379
 11
69.1029008743
 21
246.276427282
  0
LINE
  5
4F9
100
AcDbEntity
  8
0
100
AcDbLine
 62
7
  6
CONTINUOUS
 10
69.2128387724
 20
246.2902669888
 11
69.1468465782
 21
246.28209973
  0
LINE
  5
4FA
100
AcDbEntity
  8
0
100
AcDbLine
 62
7
  6
CONTINUOUS
 10
77.2619800852
 20
247.245594427
 11
69.2213678613
 21
246.2912778069
  0
LINE
  5
4FB
100
AcDbEntity
  8
0
100
AcDbLine
 62
7
  6
CONTINUOUS
 10
77.2823403131
 20
247.247561189
 11
77.2619781549
 21
247.2455944274
  0
LINE
  5
4FC
100
AcDbEntity
  8
0
100
AcDbLine
 62
7
  6
CONTINUOUS
 10
219.0984483746
 20
247.2475598236
 11
219.1188162446
 21
247.2455922234
  0
LINE
  5
4FD
100
AcDbEntity
  8
0
100
AcDbLine
 62
7
  6
CONTINUOUS
 10
227.1845807282
 20
246.2882478134
 11
219.1188154177
 21
247.2455922232
  0
LINE
  5
4FE
100
AcDbEntity
  8
0
100
AcDbLine
 62
7
  6
CONTINUOUS
 10
227.2674801672
 20
246.2777930122
 11
227.1758974811
 21
246.2893065408
  0
LINE
  5
4FF
100
AcDbEntity
  8
0
100
AcDbLine
 62
7
  6
CONTINUOUS
 10
227.3070759063
 20
246.2725388678
 11
227.2332796328
 21
246.2821869021
  0
LINE
  5
500
100
AcDbEntity
  8
0
100
AcDbLine
 62
7
  6
CONTINUOUS
 10
227.3428225091
 20
246.2676069636
 11
227.2774680931
 21
246.2764857876
  0
LINE
  5
501
100
AcDbEntity
  8
0
100
AcDbLine
 62
7
  6
CONTINUOUS
 10
227.3748983484
 20
246.2629841003
 11
227.3173722518
 21
246.2711386301
  0
LINE
  5
502
100
AcDbEntity
  8
0
100
AcDbLine
 62
7
  6
CONTINUOUS
 10
227.385401809
 20
246.26141905
 11
227.3533352168
 21
246.2661151655
  0
LWPOLYLINE
  5
503
100
AcDbEntity
  8
0
100
AcDbPolyline
 62
7
  6
CONTINUOUS
 90
4
 70
0
 10
195.4970629208
 20
236.3081601755
 10
195.5296658809
 20
236.3199225629
 10
195.5941853852
 20
236.3412538473
 10
195.6786226707
 20
236.3666225686
  0
LINE
  5
504
100
AcDbEntity
  8
0
100
AcDbLine
 62
7
  6
CONTINUOUS
 10
100.7115886857
 20
247.133184222
 11
100.6144258941
 21
247.1061873784
  0
LINE
  5
505
100
AcDbEntity
  8
0
100
AcDbLine
 62
7
  6
CONTINUOUS
 10
100.6141869427
 20
247.1061195667
 11
97.4742352745
 21
246.2638513371
  0
LWPOLYLINE
  5
506
100
AcDbEntity
  8
0
100
AcDbPolyline
 62
7
  6
CONTINUOUS
 90
6
 70
0
 10
68.9142008872
 20
246.2478339892
 10
68.8895393465
 20
246.2427463247
 10
68.8610566707
 20
246.2358324278
 10
68.8289534719
 20
246.2263279145
 10
68.7914519186
 20
246.2125215107
 10
68.7510668618
 20
246.1939618932
  0
LWPOLYLINE
  5
507
100
AcDbEntity
  8
0
100
AcDbPolyline
 62
7
  6
CONTINUOUS
 90
18
 70
0
 10
68.937962602
 20
246.2521840811
 10
68.9114471883
 20
246.2472989884
 10
68.8830641718
 20
246.2412834871
 10
68.8521111047
 20
246.2333812172
 10
68.8150733735
 20
246.2215770172
 10
68.7743151581
 20
246.2051404604
 10
68.7319367051
 20
246.1837058738
 10
68.6891428244
 20
246.1571097132
 10
68.6484966567
 20
246.1266631396
 10
68.6103211446
 20
246.0925496063
 10
68.5757381173
 20
246.0557689507
 10
68.5443963336
 20
246.0161088144
 10
68.5159706433
 20
245.9736943115
 10
68.4904145946
 20
245.9291075461
 10
68.4675581764
 20
245.8827810057
 10
68.4470715392
 20
245.8347806686
 10
68.4287812509
 20
245.7854545925
 10
68.412185662
 20
245.7340944401
  0
LINE
  5
508
100
AcDbEntity
  8
1_AXIS
100
AcDbLine
 62
7
  6
CONTINUOUS
 10
118.690752634
 20
262.8985465116
 11
177.6904069767
 21
262.8985465116
  0
LINE
  5
509
100
AcDbEntity
  8
0
100
AcDbLine
 62
7
  6
CONTINUOUS
 10
198.9050385465
 20
246.2642631228
 11
195.7666269424
 21
247.106119594
  0
LWPOLYLINE
  5
50A
100
AcDbEntity
  8
0
100
AcDbPolyline
 62
7
  6
CONTINUOUS
 90
4
 70
0
 10
195.7663989769
 20
247.1061836093
 10
195.678619474
 20
247.1304715922
 10
195.594188839
 20
247.1558387377
 10
195.5296718315
 20
247.1771695609
  0
LINE
  5
50B
100
AcDbEntity
  8
0
100
AcDbLine
 62
7
  6
CONTINUOUS
 10
195.5296718315
 20
247.1771695609
 11
195.4970712139
 21
247.1889311464
  0
LWPOLYLINE
  5
50C
100
AcDbEntity
  8
0
100
AcDbPolyline
 62
7
  6
CONTINUOUS
 90
6
 70
0
 10
227.5331921782
 20
246.2320946822
 10
227.5020626856
 20
246.2402763511
 10
227.4771099132
 20
246.2457531753
 10
227.4539359897
 20
246.2502092508
 10
227.4297477026
 20
246.2544193795
 10
227.4037814012
 20
246.2586047603
  0
LINE
  5
50D
100
AcDbEntity
  8
1_AXIS
100
AcDbLine
 62
7
  6
CONTINUOUS
 10
179.6904069767
 20
222.5985465116
 11
179.6904069767
 21
235.2485465116
  0
LINE
  5
50E
100
AcDbEntity
  8
1_AXIS
100
AcDbLine
 62
7
  6
CONTINUOUS
 10
179.6904069767
 20
248.2485465116
 11
179.6904069767
 21
260.8985465116
  0
LWPOLYLINE
  5
50F
100
AcDbEntity
  8
0
100
AcDbPolyline
 62
7
  6
CONTINUOUS
 90
20
 70
0
 10
227.5674568938
 20
237.2760980765
 10
227.6060552814
 20
237.2915985602
 10
227.6462168151
 20
237.3115313321
 10
227.6853933005
 20
237.3351457673
 10
227.723668002
 20
237.3628016723
 10
227.7603405929
 20
237.3943549984
 10
227.7946265731
 20
237.4291698121
 10
227.8258080731
 20
237.466334938
 10
227.8539844466
 20
237.5055310051
 10
227.8790783171
 20
237.5460934238
 10
227.9016118986
 20
237.588351721
 10
227.9219830144
 20
237.6324984686
 10
227.9405231582
 20
237.6786588207
 10
227.9575291994
 20
237.7270901195
 10
227.9731893647
 20
237.7779600895
 10
227.9876300424
 20
237.8314281284
 10
228.000958561
 20
237.8878116581
 10
228.0131076878
 20
237.9468836733
 10
228.0241802934
 20
238.0095585767
 10
228.0320239178
 20
238.061433636
  0
LWPOLYLINE
  5
510
100
AcDbEntity
  8
0
100
AcDbPolyline
 62
7
  6
CONTINUOUS
 90
7
 70
0
 10
227.5681614264
 20
246.2207060612
 10
227.5289751924
 20
246.2333042801
 10
227.4971656077
 20
246.2414177867
 10
227.4683019477
 20
246.2475067412
 10
227.441762724
 20
246.2523735287
 10
227.4147291023
 20
246.2568742477
 10
227.3748983484
 20
246.2629841003
  0
LINE
  5
511
100
AcDbEntity
  8
0
100
AcDbLine
 62
7
  6
CONTINUOUS
 10
227.605505297
 20
237.2913534206
 11
227.6432206287
 21
237.3099008942
  0
LWPOLYLINE
  5
512
100
AcDbEntity
  8
0
100
AcDbPolyline
 62
7
  6
CONTINUOUS
 90
11
 70
0
 10
227.6432206287
 20
237.3099008942
 10
227.6811970704
 20
237.3324032595
 10
227.7182705649
 20
237.3585950518
 10
227.7537543847
 20
237.3882863019
 10
227.7868520102
 20
237.4207686451
 10
227.8172812153
 20
237.4555802201
 10
227.8446627313
 20
237.4918956189
 10
227.869413282
 20
237.529749604
 10
227.8917300531
 20
237.5690479063
 10
227.9119974375
 20
237.610078208
 10
227.9305879698
 20
237.6531427113
  0
LWPOLYLINE
  5
513
100
AcDbEntity
  8
0
100
AcDbPolyline
 62
7
  6
CONTINUOUS
 90
4
 70
0
 10
227.6923988828
 20
246.156611289
 10
227.6511264721
 20
246.1824357749
 10
227.6087673132
 20
246.2041099075
 10
227.5686165217
 20
246.2205411409
  0
LINE
  5
514
100
AcDbEntity
  8
0
100
AcDbLine
 62
7
  6
CONTINUOUS
 10
199.6464173056
 20
245.2982861585
 11
199.6464173056
 21
238.1988068647
  0
LWPOLYLINE
  5
515
100
AcDbEntity
  8
0
100
AcDbPolyline
 62
7
  6
CONTINUOUS
 90
3
 70
0
 10
227.7678503226
 20
246.0951101202
 10
227.7312943995
 20
246.127498422
 10
227.6926547974
 20
246.1564356658
  0
LWPOLYLINE
  5
516
100
AcDbEntity
  8
0
100
AcDbPolyline
 62
7
  6
CONTINUOUS
 90
4
 70
0
 10
227.8585839989
 20
245.983628977
 10
227.8313084122
 20
246.0230442465
 10
227.8012246529
 20
246.0601951065
 10
227.7681157757
 20
246.0948543451
  0
LINE
  5
517
100
AcDbEntity
  8
0
100
AcDbLine
 62
7
  6
CONTINUOUS
 10
228.0412613134
 20
245.2982861585
 11
228.0319032306
 21
245.4347717175
  0
LINE
  5
518
100
AcDbEntity
  8
0
100
AcDbLine
 62
7
  6
CONTINUOUS
 10
228.0412613134
 20
245.2982861585
 11
228.0412613134
 21
238.1988068647
  0
LINE
  5
519
100
AcDbEntity
  8
0
100
AcDbLine
 62
7
  6
CONTINUOUS
 10
228.0155880399
 20
237.9600746812
 11
228.0260368243
 21
238.0211633595
  0
LWPOLYLINE
  5
51A
100
AcDbEntity
  8
0
100
AcDbPolyline
 62
7
  6
CONTINUOUS
 90
4
 70
0
 10
227.9782540374
 20
237.795921871
 10
227.9917010699
 20
237.847852904
 10
228.0041420522
 20
237.9024904179
 10
228.0155880399
 20
237.9600746812
  0
LWPOLYLINE
  5
51B
100
AcDbEntity
  8
0
100
AcDbPolyline
 62
7
  6
CONTINUOUS
 90
4
 70
0
 10
227.9305879698
 20
237.6531427113
 10
227.9477036103
 20
237.6983284644
 10
227.9635791556
 20
237.7459608574
 10
227.9782540374
 20
237.795921871
  0
LWPOLYLINE
  5
51C
100
AcDbEntity
  8
0
100
AcDbPolyline
 62
7
  6
CONTINUOUS
 90
4
 70
0
 10
227.9258074189
 20
245.8541925825
 10
227.9057492773
 20
245.8987568
 10
227.8833788037
 20
245.9420464794
 10
227.8585839989
 20
245.983628977
  0
LWPOLYLINE
  5
51D
100
AcDbEntity
  8
0
100
AcDbPolyline
 62
7
  6
CONTINUOUS
 90
4
 70
0
 10
227.9754017636
 20
245.7109636767
 10
227.96035953
 20
245.7605633261
 10
227.9439413637
 20
245.808121453
 10
227.9258074189
 20
245.8541925825
  0
LINE
  5
51E
100
AcDbEntity
  8
0
100
AcDbLine
 62
7
  6
CONTINUOUS
 10
227.9892493121
 20
245.6589939098
 11
227.9754017636
 21
245.7109636767
  0
LWPOLYLINE
  5
51F
100
AcDbEntity
  8
0
100
AcDbPolyline
 62
7
  6
CONTINUOUS
 90
9
 70
0
 10
227.9961164736
 20
245.6305061608
 10
227.981799623
 20
245.6877884211
 10
227.9663261856
 20
245.7416506623
 10
227.9494650305
 20
245.7928024396
 10
227.9309818794
 20
245.8416594098
 10
227.9104476221
 20
245.888850564
 10
227.8875846087
 20
245.9343622242
 10
227.8618839729
 20
245.978435935
 10
227.8333515783
 20
246.0202941581
  0
LWPOLYLINE
  5
520
100
AcDbEntity
  8
0
100
AcDbPolyline
 62
7
  6
CONTINUOUS
 90
3
 70
0
 10
228.0214107454
 20
245.5037012195
 10
228.0093418413
 20
245.569281766
 10
227.9961164736
 20
245.6305061608
  0
LWPOLYLINE
  5
521
100
AcDbEntity
  8
0
100
AcDbPolyline
 62
7
  6
CONTINUOUS
 90
4
 70
0
 10
228.0246046819
 20
245.4842293076
 10
228.0138514271
 20
245.5460646588
 10
228.0020625901
 20
245.6041186451
 10
227.9892493121
 20
245.6589939098
  0
LINE
  5
522
100
AcDbEntity
  8
0
100
AcDbLine
 62
7
  6
CONTINUOUS
 10
228.0321031561
 20
245.433610189
 11
228.0214107454
 21
245.5037012195
  0
LINE
  5
523
100
AcDbEntity
  8
0
100
AcDbLine
 62
7
  6
CONTINUOUS
 10
228.0320859205
 20
245.4334396427
 11
228.0319676192
 21
245.4343018269
  0
LINE
  5
524
100
AcDbEntity
  8
1_AXIS
100
AcDbLine
 62
7
  6
CONTINUOUS
 10
314.2049418605
 20
38.1316860465
 11
322.2049418605
 21
38.1316860465
  0
LINE
  5
525
100
AcDbEntity
  8
0
100
AcDbLine
 62
7
  6
CONTINUOUS
 10
321.7546815073
 20
52.2010442813
 11
314.6552022136
 21
52.2010442813
  0
LWPOLYLINE
  5
526
100
AcDbEntity
  8
0
100
AcDbPolyline
 62
7
  6
CONTINUOUS
 90
6
 70
0
 10
314.2208206718
 20
190.0632054347
 10
314.1679138979
 20
190.0362246534
 10
314.1194527427
 20
190.0087195265
 10
314.0727101744
 20
189.9793419185
 10
314.0271753953
 20
189.9476381057
 10
313.9840742414
 20
189.9143358106
  0
LINE
  5
527
100
AcDbEntity
  8
0
100
AcDbLine
 62
7
  6
CONTINUOUS
 10
314.2210494969
 20
190.0631670178
 11
314.2205849856
 21
190.0629430809
  0
LINE
  5
528
100
AcDbEntity
  8
0
100
AcDbLine
 62
7
  6
CONTINUOUS
 10
314.2205680856
 20
52.3004371674
 11
314.2210494203
 21
52.3002051121
  0
LINE
  5
529
100
AcDbEntity
  8
0
100
AcDbLine
 62
7
  6
CONTINUOUS
 10
314.1727503297
 20
52.3245539864
 11
314.2208066516
 21
52.300173432
  0
LWPOLYLINE
  5
52A
100
AcDbEntity
  8
0
100
AcDbPolyline
 62
7
  6
CONTINUOUS
 90
17
 70
0
 10
313.9840742414
 20
189.9143358106
 10
313.9440679365
 20
189.8799732987
 10
313.9073389373
 20
189.8448266197
 10
313.8743494003
 20
189.80957247
 10
313.8443217789
 20
189.773591651
 10
313.8168707393
 20
189.7365375456
 10
313.7916230282
 20
189.6979300789
 10
313.7675161422
 20
189.6555986687
 10
313.7466333929
 20
189.6127708075
 10
313.7288974545
 20
189.5698080971
 10
313.7145788427
 20
189.5286521344
 10
313.7042025387
 20
189.4937511787
 10
313.6957300194
 20
189.4611689371
 10
313.6886046004
 20
189.4304544843
 10
313.6821339921
 20
189.399721689
 10
313.6757968536
 20
189.3668885245
 10
313.6696520365
 20
189.332390886
  0
LWPOLYLINE
  5
52B
100
AcDbEntity
  8
0
100
AcDbPolyline
 62
7
  6
CONTINUOUS
 90
11
 70
0
 10
313.7459260869
 20
52.7521825737
 10
313.7697179205
 20
52.7036319498
 10
313.7976055917
 20
52.6558322084
 10
313.8304387779
 20
52.6079593745
 10
313.867520405
 20
52.5616202994
 10
313.9093598882
 20
52.5165081188
 10
313.9560884185
 20
52.472682882
 10
314.0066668057
 20
52.431144547
 10
314.0591676989
 20
52.3931200302
 10
314.1143804265
 20
52.3576987883
 10
314.1727503297
 20
52.3245539864
  0
LINE
  5
52C
100
AcDbEntity
  8
1_AXIS
100
AcDbLine
 62
7
  6
CONTINUOUS
 10
337.3549418605
 20
89.6816860465
 11
324.7049418605
 21
89.6816860465
  0
LINE
  5
52D
100
AcDbEntity
  8
1_AXIS
100
AcDbLine
 62
7
  6
CONTINUOUS
 10
311.7049418605
 20
89.6816860465
 11
299.0549418605
 21
89.6816860465
  0
LINE
  5
52E
100
AcDbEntity
  8
0
100
AcDbLine
 62
7
  6
CONTINUOUS
 10
321.7546815073
 20
92.1892929927
 11
314.6552022136
 21
92.1892929927
  0
LINE
  5
52F
100
AcDbEntity
  8
0
100
AcDbLine
 62
7
  6
CONTINUOUS
 10
314.0866581635
 20
149.9967319473
 11
313.2413782424
 21
149.4099420845
  0
LINE
  5
530
100
AcDbEntity
  8
0
100
AcDbLine
 62
7
  6
CONTINUOUS
 10
313.2413542931
 20
92.9533956847
 11
314.0866581612
 21
92.3666401476
  0
LWPOLYLINE
  5
531
100
AcDbEntity
  8
0
100
AcDbPolyline
 62
7
  6
CONTINUOUS
 90
3
 70
0
 10
313.7137764526
 20
52.8372476139
 10
313.7271941032
 20
52.7981083481
 10
313.7459260869
 20
52.7521825737
  0
LINE
  5
532
100
AcDbEntity
  8
1_AXIS
100
AcDbLine
 62
7
  6
CONTINUOUS
 10
297.0549418605
 20
91.6816860465
 11
297.0549418605
 21
150.6816860465
  0
LWPOLYLINE
  5
533
100
AcDbEntity
  8
0
100
AcDbPolyline
 62
7
  6
CONTINUOUS
 90
3
 70
0
 10
313.6943380997
 20
52.9079546337
 10
313.7031096749
 20
52.873600836
 10
313.7137764526
 20
52.8372476139
  0
LINE
  5
534
100
AcDbEntity
  8
1_AXIS
100
AcDbLine
 62
7
  6
CONTINUOUS
 10
312.7049418605
 20
48.1316860465
 11
313.7076741827
 21
38.5794858869
  0
LINE
  5
535
100
AcDbEntity
  8
1_AXIS
100
AcDbLine
 62
7
  6
CONTINUOUS
 10
312.7049418605
 20
194.2316860465
 11
313.7076741827
 21
203.7838862062
  0
LINE
  5
536
100
AcDbEntity
  8
0
100
AcDbLine
 62
7
  6
CONTINUOUS
 10
312.7059283587
 20
183.1809728153
 11
312.7155827035
 21
183.2656088713
  0
LINE
  5
537
100
AcDbEntity
  8
0
100
AcDbLine
 62
7
  6
CONTINUOUS
 10
313.6673072584
 20
189.3174523846
 11
312.7984629612
 21
183.761007669
  0
LINE
  5
538
100
AcDbEntity
  8
0
100
AcDbLine
 62
7
  6
CONTINUOUS
 10
312.7984629612
 20
183.761007669
 11
312.7672460225
 21
183.5688893833
  0
LINE
  5
539
100
AcDbEntity
  8
0
100
AcDbLine
 62
7
  6
CONTINUOUS
 10
312.7672460225
 20
183.5688893833
 11
312.7367645167
 21
183.3876733881
  0
LINE
  5
53A
100
AcDbEntity
  8
0
100
AcDbLine
 62
7
  6
CONTINUOUS
 10
312.7367645167
 20
183.3876733881
 11
312.7155827036
 21
183.2656091522
  0
LWPOLYLINE
  5
53B
100
AcDbEntity
  8
0
100
AcDbPolyline
 62
7
  6
CONTINUOUS
 90
5
 70
0
 10
313.6696308664
 20
53.031104758
 10
313.6715318085
 20
53.0201449944
 10
313.678928888
 20
52.9799129731
 10
313.6864679062
 20
52.9427597701
 10
313.6943380997
 20
52.9079546337
  0
LINE
  5
53C
100
AcDbEntity
  8
0
100
AcDbLine
 62
7
  6
CONTINUOUS
 10
312.715582026
 20
59.0977634599
 11
312.7399690132
 21
58.9569496021
  0
LINE
  5
53D
100
AcDbEntity
  8
0
100
AcDbLine
 62
7
  6
CONTINUOUS
 10
312.7399690132
 20
58.9569496021
 11
312.7705170829
 21
58.7746562597
  0
LINE
  5
53E
100
AcDbEntity
  8
0
100
AcDbLine
 62
7
  6
CONTINUOUS
 10
312.7705170829
 20
58.7746562597
 11
312.8017898198
 21
58.5815140446
  0
LINE
  5
53F
100
AcDbEntity
  8
0
100
AcDbLine
 62
7
  6
CONTINUOUS
 10
312.8017898198
 20
58.5815140446
 11
313.6673072586
 21
53.0459197095
  0
LINE
  5
540
100
AcDbEntity
  8
0
100
AcDbLine
 62
7
  6
CONTINUOUS
 10
312.7059280273
 20
59.1823978414
 11
312.715582026
 21
59.0977633088
  0
LINE
  5
541
100
AcDbEntity
  8
0
100
AcDbLine
 62
7
  6
CONTINUOUS
 10
312.7049418605
 20
48.1316870415
 11
312.7049418605
 21
59.1822046165
  0
LINE
  5
542
100
AcDbEntity
  8
0
100
AcDbLine
 62
7
  6
CONTINUOUS
 10
312.7049418605
 20
59.2136579839
 11
312.7049418605
 21
93.7349172225
  0
LINE
  5
543
100
AcDbEntity
  8
0
100
AcDbLine
 62
7
  6
CONTINUOUS
 10
312.7049418605
 20
93.7849809182
 11
312.7049418605
 21
183.1496090258
  0
LINE
  5
544
100
AcDbEntity
  8
0
100
AcDbLine
 62
7
  6
CONTINUOUS
 10
312.7049418605
 20
183.1811073473
 11
312.7049418605
 21
194.231685848
  0
LINE
  5
545
100
AcDbEntity
  8
1_AXIS
100
AcDbLine
 62
2
  6
CENTER
 10
295.0549418605
 20
121.1816860465
 11
341.3549418605
 21
121.1816860465
  0
LINE
  5
546
100
AcDbEntity
  8
0
100
AcDbLine
 62
7
  6
CONTINUOUS
 10
323.7049418605
 20
194.231685848
 11
323.7049418605
 21
183.181084914
  0
LINE
  5
547
100
AcDbEntity
  8
0
100
AcDbLine
 62
7
  6
CONTINUOUS
 10
323.7049418605
 20
183.1496090258
 11
323.7049418605
 21
148.6284548705
  0
LINE
  5
548
100
AcDbEntity
  8
0
100
AcDbLine
 62
7
  6
CONTINUOUS
 10
323.7049418605
 20
148.5782011286
 11
323.7049418605
 21
59.2136579839
  0
LINE
  5
549
100
AcDbEntity
  8
0
100
AcDbLine
 62
7
  6
CONTINUOUS
 10
323.7049418605
 20
59.1823997769
 11
323.7049418605
 21
48.1316870415
  0
LINE
  5
54A
100
AcDbEntity
  8
1_AXIS
100
AcDbLine
 62
7
  6
CONTINUOUS
 10
322.7022095382
 20
203.7838862062
 11
323.3778874927
 21
197.3472620724
  0
LINE
  5
54B
100
AcDbEntity
  8
1_AXIS
100
AcDbLine
 62
7
  6
CONTINUOUS
 10
323.6769785791
 20
194.498069063
 11
323.7049418605
 21
194.2316860465
  0
LINE
  5
54C
100
AcDbEntity
  8
1_AXIS
100
AcDbLine
 62
7
  6
CONTINUOUS
 10
322.7022095382
 20
38.5794858869
 11
323.7049418605
 21
48.1316860465
  0
LINE
  5
54D
100
AcDbEntity
  8
0
100
AcDbLine
 62
7
  6
CONTINUOUS
 10
323.7039552193
 20
59.1823997769
 11
323.6943000873
 21
59.0977594554
  0
LINE
  5
54E
100
AcDbEntity
  8
0
100
AcDbLine
 62
7
  6
CONTINUOUS
 10
322.7425765045
 20
53.0459200325
 11
323.6080923539
 21
58.5815048132
  0
LINE
  5
54F
100
AcDbEntity
  8
0
100
AcDbLine
 62
7
  6
CONTINUOUS
 10
323.6080923539
 20
58.5815048132
 11
323.6393636663
 21
58.7746413226
  0
LINE
  5
550
100
AcDbEntity
  8
0
100
AcDbLine
 62
7
  6
CONTINUOUS
 10
323.6393636663
 20
58.7746413226
 11
323.6699114503
 21
58.9569352971
  0
LINE
  5
551
100
AcDbEntity
  8
0
100
AcDbLine
 62
7
  6
CONTINUOUS
 10
323.6699114503
 20
58.9569352971
 11
323.6943000871
 21
59.0977589722
  0
LINE
  5
552
100
AcDbEntity
  8
0
100
AcDbLine
 62
7
  6
CONTINUOUS
 10
323.6943045325
 20
183.2656008132
 11
323.6731543879
 21
183.3874775334
  0
LWPOLYLINE
  5
553
100
AcDbEntity
  8
0
100
AcDbPolyline
 62
7
  6
CONTINUOUS
 90
5
 70
0
 10
322.7409580054
 20
189.3280513761
 10
322.7372539019
 20
189.3496983184
 10
322.7293377294
 20
189.3924802277
 10
322.7211403252
 20
189.4320065626
 10
322.7123155393
 20
189.4695087998
  0
LINE
  5
554
100
AcDbEntity
  8
0
100
AcDbLine
 62
7
  6
CONTINUOUS
 10
323.6731543879
 20
183.3874775334
 11
323.6426745029
 21
183.5686661832
  0
LINE
  5
555
100
AcDbEntity
  8
0
100
AcDbLine
 62
7
  6
CONTINUOUS
 10
323.6426745029
 20
183.5686661832
 11
323.6114484845
 21
183.7608206576
  0
LINE
  5
556
100
AcDbEntity
  8
0
100
AcDbLine
 62
7
  6
CONTINUOUS
 10
323.6114484845
 20
183.7608206576
 11
322.7425765031
 21
189.3174520614
  0
LINE
  5
557
100
AcDbEntity
  8
0
100
AcDbLine
 62
7
  6
CONTINUOUS
 10
323.703956536
 20
183.1809777397
 11
323.694304532
 21
183.2656020768
  0
LINE
  5
558
100
AcDbEntity
  8
1_AXIS
100
AcDbLine
 62
7
  6
CONTINUOUS
 10
339.3549418605
 20
91.6816860465
 11
339.3549418605
 21
150.6816860465
  0
LWPOLYLINE
  5
559
100
AcDbEntity
  8
0
100
AcDbPolyline
 62
7
  6
CONTINUOUS
 90
3
 70
0
 10
322.7123155393
 20
189.4695087998
 10
322.7020783441
 20
189.507234514
 10
322.6885104261
 20
189.5495660717
  0
LINE
  5
55A
100
AcDbEntity
  8
0
100
AcDbLine
 62
7
  6
CONTINUOUS
 10
322.323225606
 20
92.3666401854
 11
323.1685056002
 21
92.9534300881
  0
LINE
  5
55B
100
AcDbEntity
  8
0
100
AcDbLine
 62
7
  6
CONTINUOUS
 10
322.3226059763
 20
92.366212468
 11
322.3220802358
 21
92.3658499098
  0
LINE
  5
55C
100
AcDbEntity
  8
0
100
AcDbLine
 62
7
  6
CONTINUOUS
 10
314.6552022136
 20
150.1740791003
 11
321.7546815073
 21
150.1740791003
  0
LINE
  5
55D
100
AcDbEntity
  8
0
100
AcDbLine
 62
7
  6
CONTINUOUS
 10
323.1685054685
 20
149.4099420905
 11
322.3232256061
 21
149.9967319066
  0
LINE
  5
55E
100
AcDbEntity
  8
0
100
AcDbLine
 62
7
  6
CONTINUOUS
 10
322.6885104261
 20
189.5495660717
 11
322.6714487166
 21
189.5938666375
  0
LINE
  5
55F
100
AcDbEntity
  8
1_AXIS
100
AcDbLine
 62
7
  6
CONTINUOUS
 10
337.3549418605
 20
152.6816860465
 11
324.7049418605
 21
152.6816860465
  0
LINE
  5
560
100
AcDbEntity
  8
1_AXIS
100
AcDbLine
 62
7
  6
CONTINUOUS
 10
311.7049418605
 20
152.6816860465
 11
299.0549418605
 21
152.6816860465
  0
LWPOLYLINE
  5
561
100
AcDbEntity
  8
0
100
AcDbPolyline
 62
7
  6
CONTINUOUS
 90
13
 70
0
 10
322.6714487166
 20
189.5938666375
 10
322.6498468991
 20
189.6404735203
 10
322.6227346336
 20
189.6893367907
 10
322.5899727958
 20
189.7392572423
 10
322.5521233284
 20
189.7886005244
 10
322.5113638596
 20
189.834574411
 10
322.4676155059
 20
189.877660375
 10
322.4222891282
 20
189.9169042936
 10
322.3744308283
 20
189.9535042592
 10
322.3232116585
 20
189.9881926995
 10
322.2689841169
 20
190.020817696
 10
322.2116686982
 20
190.0514559414
 10
322.1917900519
 20
190.0612582021
  0
LWPOLYLINE
  5
562
100
AcDbEntity
  8
0
100
AcDbPolyline
 62
7
  6
CONTINUOUS
 90
15
 70
0
 10
322.4309474869
 20
52.4535923099
 10
322.4877996314
 20
52.5048826106
 10
322.5388134888
 20
52.5590445549
 10
322.5820131716
 20
52.6130975846
 10
322.6166100826
 20
52.6640634315
 10
322.6445746777
 20
52.7126932202
 10
322.6678524952
 20
52.7611237925
 10
322.6858537442
 20
52.8063397999
 10
322.6986092948
 20
52.8445699857
 10
322.7086182898
 20
52.8795745564
 10
322.7165297996
 20
52.9111512577
 10
322.7234814464
 20
52.9421752044
 10
322.7302228168
 20
52.9754453691
 10
322.7370044318
 20
53.0122538202
 10
322.7409340523
 20
53.0351771571
  0
LWPOLYLINE
  5
563
100
AcDbEntity
  8
0
100
AcDbPolyline
 62
7
  6
CONTINUOUS
 90
5
 70
0
 10
322.1872059097
 20
52.2999102588
 10
322.2217270338
 20
52.3170320304
 10
322.2972428084
 20
52.3590766609
 10
322.3673235654
 20
52.4047997267
 10
322.4309474869
 20
52.4535923099
  0
LINE
  5
564
100
AcDbEntity
  8
0
100
AcDbLine
 62
7
  6
CONTINUOUS
 10
322.189726764
 20
52.3006358846
 11
322.1905095165
 21
52.3010143116
  0
LINE
  5
565
100
AcDbEntity
  8
0
100
AcDbLine
 62
7
  6
CONTINUOUS
 10
314.6552022136
 20
190.1623278117
 11
321.7546815073
 21
190.1623278117
  0
LINE
  5
566
100
AcDbEntity
  8
0
100
AcDbLine
 62
7
  6
CONTINUOUS
 10
322.1921135958
 20
190.0615784998
 11
322.190509505
 21
190.062357787
  0
LINE
  5
567
100
AcDbEntity
  8
1_AXIS
100
AcDbLine
 62
7
  6
CONTINUOUS
 10
314.2049418605
 20
204.2316860465
 11
322.2049418605
 21
204.2316860465
  0
ARC
  5
568
100
AcDbEntity
  8
0
100
AcDbCircle
 62
7
  6
CONTINUOUS
 10
71.6734689107
 20
110.5646860465
 40
8.0
100
AcDbArc
 50
302.0
 51
7.899557324
  0
ARC
  5
569
100
AcDbEntity
  8
0
100
AcDbCircle
 62
7
  6
CONTINUOUS
 10
80.0463877002
 20
84.79549173
 40
8.0
100
AcDbArc
 50
28.100442676
 51
94.0
  0
ARC
  5
56A
100
AcDbEntity
  8
0
100
AcDbCircle
 62
7
  6
CONTINUOUS
 10
92.5274197474
 20
67.6168248714
 40
8.0
100
AcDbArc
 50
338.0
 51
43.899557324
  0
ARC
  5
56B
100
AcDbEntity
  8
0
100
AcDbCircle
 62
7
  6
CONTINUOUS
 10
134.6427397903
 20
45.1289200626
 40
8.0
100
AcDbArc
 50
14.0
 51
79.899557324
  0
ARC
  5
56C
100
AcDbEntity
  8
0
100
AcDbCircle
 62
7
  6
CONTINUOUS
 10
114.4480057233
 20
51.6905869211
 40
8.0
100
AcDbArc
 50
64.100442676
 51
130.0
  0
ARC
  5
56D
100
AcDbEntity
  8
0
100
AcDbCircle
 62
7
  6
CONTINUOUS
 10
69.3395526401
 20
98.4936876688
 40
1.0
100
AcDbArc
 50
122.0
 51
196.0522769451
  0
ARC
  5
56E
100
AcDbEntity
  8
0
100
AcDbCircle
 62
7
  6
CONTINUOUS
 10
97.7343966479
 20
56.4793404809
 40
1.0
100
AcDbArc
 50
158.0
 51
232.0522769451
  0
ARC
  5
56F
100
AcDbEntity
  8
0
100
AcDbCircle
 62
7
  6
CONTINUOUS
 10
71.063054947
 20
93.1892929927
 40
1.0
100
AcDbArc
 50
199.9477230549
 51
274.0
  0
ARC
  5
570
100
AcDbEntity
  8
0
100
AcDbCircle
 62
7
  6
CONTINUOUS
 10
145.4017216645
 20
39.1790901472
 40
1.0
100
AcDbArc
 50
194.0
 51
268.0522769451
  0
ARC
  5
571
100
AcDbEntity
  8
0
100
AcDbCircle
 62
7
  6
CONTINUOUS
 10
102.246584267
 20
53.2010442813
 40
1.0
100
AcDbArc
 50
235.9477230549
 51
310.0
  0
ARC
  5
572
100
AcDbEntity
  8
0
100
AcDbCircle
 62
7
  6
CONTINUOUS
 10
134.6427397903
 20
197.2344520304
 40
8.0
100
AcDbArc
 50
280.100442676
 51
346.0
  0
ARC
  5
573
100
AcDbEntity
  8
0
100
AcDbCircle
 62
7
  6
CONTINUOUS
 10
114.4480057233
 20
190.6727851719
 40
8.0
100
AcDbArc
 50
230.0
 51
295.899557324
  0
ARC
  5
574
100
AcDbEntity
  8
0
100
AcDbCircle
 62
7
  6
CONTINUOUS
 10
92.5274197474
 20
174.7465472216
 40
8.0
100
AcDbArc
 50
316.100442676
 51
22.0
  0
ARC
  5
575
100
AcDbEntity
  8
0
100
AcDbCircle
 62
7
  6
CONTINUOUS
 10
80.0463877002
 20
157.567880363
 40
8.0
100
AcDbArc
 50
266.0
 51
331.899557324
  0
ARC
  5
576
100
AcDbEntity
  8
0
100
AcDbCircle
 62
7
  6
CONTINUOUS
 10
71.6734689107
 20
131.7986860465
 40
8.0
100
AcDbArc
 50
352.100442676
 51
58.0
  0
ARC
  5
577
100
AcDbEntity
  8
0
100
AcDbCircle
 62
7
  6
CONTINUOUS
 10
102.246584267
 20
189.1623278117
 40
1.0
100
AcDbArc
 50
50.0
 51
124.0522769451
  0
ARC
  5
578
100
AcDbEntity
  8
0
100
AcDbCircle
 62
7
  6
CONTINUOUS
 10
145.4017216645
 20
203.1842819458
 40
1.0
100
AcDbArc
 50
91.9477230549
 51
166.0
  0
ARC
  5
579
100
AcDbEntity
  8
0
100
AcDbCircle
 62
7
  6
CONTINUOUS
 10
71.063054947
 20
149.1740791003
 40
1.0
100
AcDbArc
 50
86.0
 51
160.0522769451
  0
ARC
  5
57A
100
AcDbEntity
  8
0
100
AcDbCircle
 62
7
  6
CONTINUOUS
 10
97.7343966479
 20
185.8840316121
 40
1.0
100
AcDbArc
 50
127.9477230549
 51
202.0
  0
ARC
  5
57B
100
AcDbEntity
  8
0
100
AcDbCircle
 62
7
  6
CONTINUOUS
 10
69.3395526401
 20
143.8696844242
 40
1.0
100
AcDbArc
 50
163.9477230549
 51
238.0
  0
ARC
  5
57C
100
AcDbEntity
  8
0
100
AcDbCircle
 62
7
  6
CONTINUOUS
 10
224.7073450428
 20
110.5646860465
 40
8.0
100
AcDbArc
 50
172.100442676
 51
238.0
  0
ARC
  5
57D
100
AcDbEntity
  8
0
100
AcDbCircle
 62
7
  6
CONTINUOUS
 10
216.3344262533
 20
84.79549173
 40
8.0
100
AcDbArc
 50
86.0
 51
151.899557324
  0
ARC
  5
57E
100
AcDbEntity
  8
0
100
AcDbCircle
 62
7
  6
CONTINUOUS
 10
203.8533942061
 20
67.6168248714
 40
8.0
100
AcDbArc
 50
136.100442676
 51
202.0
  0
ARC
  5
57F
100
AcDbEntity
  8
0
100
AcDbCircle
 62
7
  6
CONTINUOUS
 10
181.9328082302
 20
51.6905869211
 40
8.0
100
AcDbArc
 50
50.0
 51
115.899557324
  0
ARC
  5
580
100
AcDbEntity
  8
0
100
AcDbCircle
 62
7
  6
CONTINUOUS
 10
161.7380741632
 20
45.1289200626
 40
8.0
100
AcDbArc
 50
100.100442676
 51
166.0
  0
ARC
  5
581
100
AcDbEntity
  8
0
100
AcDbCircle
 62
7
  6
CONTINUOUS
 10
227.0412613134
 20
98.4936876688
 40
1.0
100
AcDbArc
 50
343.9477230549
 51
58.0
  0
ARC
  5
582
100
AcDbEntity
  8
0
100
AcDbCircle
 62
7
  6
CONTINUOUS
 10
198.6464173056
 20
56.4793404809
 40
1.0
100
AcDbArc
 50
307.9477230549
 51
22.0
  0
ARC
  5
583
100
AcDbEntity
  8
0
100
AcDbCircle
 62
7
  6
CONTINUOUS
 10
225.3177590065
 20
93.1892929927
 40
1.0
100
AcDbArc
 50
266.0
 51
340.0522769451
  0
ARC
  5
584
100
AcDbEntity
  8
0
100
AcDbCircle
 62
7
  6
CONTINUOUS
 10
150.979092289
 20
39.1790901472
 40
1.0
100
AcDbArc
 50
271.9477230549
 51
346.0
  0
ARC
  5
585
100
AcDbEntity
  8
0
100
AcDbCircle
 62
7
  6
CONTINUOUS
 10
194.1342296865
 20
53.2010442813
 40
1.0
100
AcDbArc
 50
230.0
 51
304.0522769451
  0
ARC
  5
586
100
AcDbEntity
  8
0
100
AcDbCircle
 62
7
  6
CONTINUOUS
 10
148.1904069767
 20
121.1816860465
 40
83.05
100
AcDbArc
 50
124.0522769451
 51
127.9477230549
  0
ARC
  5
587
100
AcDbEntity
  8
0
100
AcDbCircle
 62
7
  6
CONTINUOUS
 10
148.1904069767
 20
121.1816860465
 40
83.05
100
AcDbArc
 50
160.0522769451
 51
163.9477230549
  0
ARC
  5
588
100
AcDbEntity
  8
0
100
AcDbCircle
 62
7
  6
CONTINUOUS
 10
148.1904069767
 20
121.1816860465
 40
83.05
100
AcDbArc
 50
196.0522769451
 51
199.9477230549
  0
ARC
  5
589
100
AcDbEntity
  8
0
100
AcDbCircle
 62
7
  6
CONTINUOUS
 10
148.1904069767
 20
121.1816860465
 40
83.05
100
AcDbArc
 50
232.0522769451
 51
235.9477230549
  0
ARC
  5
58A
100
AcDbEntity
  8
0
100
AcDbCircle
 62
7
  6
CONTINUOUS
 10
148.1904069767
 20
121.1816860465
 40
83.05
100
AcDbArc
 50
268.0522769451
 51
271.9477230549
  0
ARC
  5
58B
100
AcDbEntity
  8
0
100
AcDbCircle
 62
7
  6
CONTINUOUS
 10
148.1904069767
 20
121.1816860465
 40
83.05
100
AcDbArc
 50
304.0522769451
 51
307.9477230549
  0
ARC
  5
58C
100
AcDbEntity
  8
0
100
AcDbCircle
 62
7
  6
CONTINUOUS
 10
148.1904069767
 20
121.1816860465
 40
83.05
100
AcDbArc
 50
340.0522769451
 51
343.9477230549
  0
ARC
  5
58D
100
AcDbEntity
  8
0
100
AcDbCircle
 62
7
  6
CONTINUOUS
 10
148.1904069767
 20
121.1816860465
 40
83.05
100
AcDbArc
 50
16.0522769451
 51
19.9477230549
  0
ARC
  5
58E
100
AcDbEntity
  8
0
100
AcDbCircle
 62
7
  6
CONTINUOUS
 10
148.1904069767
 20
121.1816860465
 40
83.05
100
AcDbArc
 50
52.0522769451
 51
55.9477230549
  0
ARC
  5
58F
100
AcDbEntity
  8
0
100
AcDbCircle
 62
7
  6
CONTINUOUS
 10
148.1904069767
 20
121.1816860465
 40
83.05
100
AcDbArc
 50
88.0522769451
 51
91.9477230549
  0
ARC
  5
590
100
AcDbEntity
  8
0
100
AcDbCircle
 62
7
  6
CONTINUOUS
 10
148.1904069767
 20
121.1816860465
 40
73.05
100
AcDbArc
 50
121.9733559792
 51
130.0268018622
  0
ARC
  5
591
100
AcDbEntity
  8
0
100
AcDbCircle
 62
7
  6
CONTINUOUS
 10
148.1904069767
 20
121.1816860465
 40
73.05
100
AcDbArc
 50
157.9733532203
 51
166.0267943375
  0
ARC
  5
592
100
AcDbEntity
  8
0
100
AcDbCircle
 62
7
  6
CONTINUOUS
 10
148.1904069767
 20
121.1816860465
 40
73.05
100
AcDbArc
 50
193.9733669247
 51
202.0268080531
  0
ARC
  5
593
100
AcDbEntity
  8
0
100
AcDbCircle
 62
7
  6
CONTINUOUS
 10
148.1904069767
 20
121.1816860465
 40
73.05
100
AcDbArc
 50
229.9733559779
 51
238.0268018602
  0
ARC
  5
594
100
AcDbEntity
  8
0
100
AcDbCircle
 62
7
  6
CONTINUOUS
 10
148.1904069767
 20
121.1816860465
 40
73.05
100
AcDbArc
 50
265.9733668039
 51
274.0267940248
  0
ARC
  5
595
100
AcDbEntity
  8
0
100
AcDbCircle
 62
7
  6
CONTINUOUS
 10
148.1904069767
 20
121.1816860465
 40
73.05
100
AcDbArc
 50
301.9733558756
 51
310.0268016294
  0
ARC
  5
596
100
AcDbEntity
  8
0
100
AcDbCircle
 62
7
  6
CONTINUOUS
 10
148.1904069767
 20
121.1816860465
 40
73.05
100
AcDbArc
 50
337.9733524634
 51
346.0267941003
  0
ARC
  5
597
100
AcDbEntity
  8
0
100
AcDbCircle
 62
7
  6
CONTINUOUS
 10
148.1904069767
 20
121.1816860465
 40
73.05
100
AcDbArc
 50
13.9733662109
 51
22.0268078143
  0
ARC
  5
598
100
AcDbEntity
  8
0
100
AcDbCircle
 62
7
  6
CONTINUOUS
 10
148.1904069767
 20
121.1816860465
 40
73.05
100
AcDbArc
 50
85.9733640373
 51
94.0267877632
  0
ARC
  5
599
100
AcDbEntity
  8
0
100
AcDbCircle
 62
7
  6
CONTINUOUS
 10
148.1904069767
 20
121.1816860465
 40
73.05
100
AcDbArc
 50
49.973354989
 51
58.0268016243
  0
ARC
  5
59A
100
AcDbEntity
  8
0
100
AcDbCircle
 62
7
  6
CONTINUOUS
 10
148.1904069767
 20
121.1816860465
 40
69.25
100
AcDbArc
 50
64.100442676
 51
79.899557324
  0
ARC
  5
59B
100
AcDbEntity
  8
0
100
AcDbCircle
 62
7
  6
CONTINUOUS
 10
148.1904069767
 20
121.1816860465
 40
69.25
100
AcDbArc
 50
28.100442676
 51
43.899557324
  0
ARC
  5
59C
100
AcDbEntity
  8
0
100
AcDbCircle
 62
7
  6
CONTINUOUS
 10
148.1904069767
 20
121.1816860465
 40
69.25
100
AcDbArc
 50
352.100442676
 51
7.899557324
  0
ARC
  5
59D
100
AcDbEntity
  8
0
100
AcDbCircle
 62
7
  6
CONTINUOUS
 10
148.1904069767
 20
121.1816860465
 40
69.25
100
AcDbArc
 50
100.100442676
 51
115.899557324
  0
ARC
  5
59E
100
AcDbEntity
  8
0
100
AcDbCircle
 62
7
  6
CONTINUOUS
 10
148.1904069767
 20
121.1816860465
 40
69.25
100
AcDbArc
 50
136.100442676
 51
151.899557324
  0
ARC
  5
59F
100
AcDbEntity
  8
0
100
AcDbCircle
 62
7
  6
CONTINUOUS
 10
148.1904069767
 20
121.1816860465
 40
69.25
100
AcDbArc
 50
316.100442676
 51
331.899557324
  0
ARC
  5
5A0
100
AcDbEntity
  8
0
100
AcDbCircle
 62
7
  6
CONTINUOUS
 10
148.1904069767
 20
121.1816860465
 40
69.25
100
AcDbArc
 50
172.100442676
 51
187.899557324
  0
ARC
  5
5A1
100
AcDbEntity
  8
0
100
AcDbCircle
 62
7
  6
CONTINUOUS
 10
148.1904069767
 20
121.1816860465
 40
69.25
100
AcDbArc
 50
280.100442676
 51
295.899557324
  0
ARC
  5
5A2
100
AcDbEntity
  8
0
100
AcDbCircle
 62
7
  6
CONTINUOUS
 10
148.1904069767
 20
121.1816860465
 40
69.25
100
AcDbArc
 50
208.100442676
 51
223.899557324
  0
ARC
  5
5A3
100
AcDbEntity
  8
0
100
AcDbCircle
 62
7
  6
CONTINUOUS
 10
148.1904069767
 20
121.1816860465
 40
69.25
100
AcDbArc
 50
244.100442676
 51
259.899557324
  0
CIRCLE
  5
5A4
100
AcDbEntity
  8
1_AXIS
100
AcDbCircle
 62
7
  6
CONTINUOUS
 10
148.1904069767
 20
121.1816860465
 40
31.5
  0
ARC
  5
5A5
100
AcDbEntity
  8
0
100
AcDbCircle
 62
7
  6
CONTINUOUS
 10
161.7380741632
 20
197.2344520304
 40
8.0
100
AcDbArc
 50
194.0
 51
259.899557324
  0
ARC
  5
5A6
100
AcDbEntity
  8
0
100
AcDbCircle
 62
7
  6
CONTINUOUS
 10
181.9328082302
 20
190.6727851719
 40
8.0
100
AcDbArc
 50
244.100442676
 51
310.0
  0
ARC
  5
5A7
100
AcDbEntity
  8
0
100
AcDbCircle
 62
7
  6
CONTINUOUS
 10
150.979092289
 20
203.1842819458
 40
1.0
100
AcDbArc
 50
14.0
 51
88.0522769451
  0
ARC
  5
5A8
100
AcDbEntity
  8
0
100
AcDbCircle
 62
7
  6
CONTINUOUS
 10
216.3344262533
 20
157.567880363
 40
8.0
100
AcDbArc
 50
208.100442676
 51
274.0
  0
ARC
  5
5A9
100
AcDbEntity
  8
0
100
AcDbCircle
 62
7
  6
CONTINUOUS
 10
224.7073450428
 20
131.7986860465
 40
8.0
100
AcDbArc
 50
122.0
 51
187.899557324
  0
ARC
  5
5AA
100
AcDbEntity
  8
0
100
AcDbCircle
 62
7
  6
CONTINUOUS
 10
225.3177590065
 20
149.1740791003
 40
1.0
100
AcDbArc
 50
19.9477230549
 51
94.0
  0
ARC
  5
5AB
100
AcDbEntity
  8
0
100
AcDbCircle
 62
7
  6
CONTINUOUS
 10
227.0412613134
 20
143.8696844242
 40
1.0
100
AcDbArc
 50
302.0
 51
16.0522769451
  0
ARC
  5
5AC
100
AcDbEntity
  8
0
100
AcDbCircle
 62
7
  6
CONTINUOUS
 10
203.8533942061
 20
174.7465472216
 40
8.0
100
AcDbArc
 50
158.0
 51
223.899557324
  0
ARC
  5
5AD
100
AcDbEntity
  8
0
100
AcDbCircle
 62
7
  6
CONTINUOUS
 10
194.1342296865
 20
189.1623278117
 40
1.0
100
AcDbArc
 50
55.9477230549
 51
130.0
  0
ARC
  5
5AE
100
AcDbEntity
  8
0
100
AcDbCircle
 62
7
  6
CONTINUOUS
 10
198.6464173056
 20
185.8840316121
 40
1.0
100
AcDbArc
 50
338.0
 51
52.0522769451
  0
ARC
  5
5AF
100
AcDbEntity
  8
1_AXIS
100
AcDbCircle
 62
7
  6
CONTINUOUS
 10
118.6904069767
 20
222.5985465116
 40
2.0
100
AcDbArc
 50
180.0
 51
270.0
  0
ARC
  5
5B0
100
AcDbEntity
  8
1_AXIS
100
AcDbCircle
 62
7
  6
CONTINUOUS
 10
118.6904069767
 20
260.8985465116
 40
2.0
100
AcDbArc
 50
90.0
 51
180.0
  0
ARC
  5
5B1
100
AcDbEntity
  8
1_AXIS
100
AcDbCircle
 62
7
  6
CONTINUOUS
 10
177.6904069767
 20
222.5985465116
 40
2.0
100
AcDbArc
 50
270.0
 51
360.0
  0
ARC
  5
5B2
100
AcDbEntity
  8
1_AXIS
100
AcDbCircle
 62
7
  6
CONTINUOUS
 10
177.6904069767
 20
260.8985465116
 40
2.0
100
AcDbArc
 50
0.0
 51
90.0
  0
ARC
  5
5B3
100
AcDbEntity
  8
0
100
AcDbCircle
 62
7
  6
CONTINUOUS
 10
198.6448645042
 20
245.2975511379
 40
1.0015530712
100
AcDbArc
 50
0.042048278
 51
10.7112156787
  0
ARC
  5
5B4
100
AcDbEntity
  8
0
100
AcDbCircle
 62
7
  6
CONTINUOUS
 10
97.7359494493
 20
245.2975511379
 40
1.0015530712
100
AcDbArc
 50
169.2887843213
 51
179.9579517219
  0
ARC
  5
5B5
100
AcDbEntity
  8
1_AXIS
100
AcDbCircle
 62
7
  6
CONTINUOUS
 10
115.6904069767
 20
235.2485465116
 40
1.0
100
AcDbArc
 50
0.0
 51
90.0
  0
ARC
  5
5B6
100
AcDbEntity
  8
1_AXIS
100
AcDbCircle
 62
7
  6
CONTINUOUS
 10
115.6904069767
 20
248.2485465116
 40
1.0
100
AcDbArc
 50
270.0
 51
360.0
  0
ARC
  5
5B7
100
AcDbEntity
  8
1_AXIS
100
AcDbCircle
 62
7
  6
CONTINUOUS
 10
180.6904069767
 20
235.2485465116
 40
1.0
100
AcDbArc
 50
90.0
 51
180.0
  0
ARC
  5
5B8
100
AcDbEntity
  8
1_AXIS
100
AcDbCircle
 62
7
  6
CONTINUOUS
 10
180.6904069767
 20
248.2485465116
 40
1.0
100
AcDbArc
 50
180.0
 51
270.0
  0
ARC
  5
5B9
100
AcDbEntity
  8
0
100
AcDbCircle
 62
7
  6
CONTINUOUS
 10
198.6474912663
 20
238.1983274824
 40
0.9988449903
100
AcDbArc
 50
325.0735331148
 51
0.0274070695
  0
ARC
  5
5BA
100
AcDbEntity
  8
0
100
AcDbCircle
 62
7
  6
CONTINUOUS
 10
97.7333226872
 20
238.1983274824
 40
0.9988449903
100
AcDbArc
 50
179.9725929306
 51
214.9264668852
  0
ARC
  5
5BB
100
AcDbEntity
  8
0
100
AcDbCircle
 62
7
  6
CONTINUOUS
 10
69.3366893179
 20
238.1988423577
 40
0.9971381854
100
AcDbArc
 50
180.0024394318
 51
188.2693863964
  0
ARC
  5
5BC
100
AcDbEntity
  8
0
100
AcDbCircle
 62
7
  6
CONTINUOUS
 10
227.0450832222
 20
238.1977941253
 40
0.9960936752
100
AcDbArc
 50
351.7941616654
 51
0.0587368277
  0
ARC
  5
5BD
100
AcDbEntity
  8
0
100
AcDbCircle
 62
7
  6
CONTINUOUS
 10
195.1664746882
 20
246.3066987154
 40
0.9420732089
100
AcDbArc
 50
69.4575229208
 51
76.0177246331
  0
ARC
  5
5BE
100
AcDbEntity
  8
0
100
AcDbCircle
 62
7
  6
CONTINUOUS
 10
101.2143372935
 20
237.1903716636
 40
0.9420507383
100
AcDbArc
 50
249.4603109504
 51
256.0176242072
  0
ARC
  5
5BF
100
AcDbEntity
  8
0
100
AcDbCircle
 62
7
  6
CONTINUOUS
 10
195.1664809486
 20
237.190333954
 40
0.9420131306
100
AcDbArc
 50
283.9823162125
 51
290.542872512
  0
ARC
  5
5C0
100
AcDbEntity
  8
0
100
AcDbCircle
 62
7
  6
CONTINUOUS
 10
101.214321592
 20
246.3068712499
 40
0.9419015097
100
AcDbArc
 50
103.9820517135
 51
110.5400408855
  0
ARC
  5
5C1
100
AcDbEntity
  8
0
100
AcDbCircle
 62
7
  6
CONTINUOUS
 10
195.1683483882
 20
246.3155752034
 40
0.9330070572
100
AcDbArc
 50
75.9976700942
 51
87.3174176345
  0
ARC
  5
5C2
100
AcDbEntity
  8
0
100
AcDbCircle
 62
7
  6
CONTINUOUS
 10
101.2124624264
 20
237.1814924535
 40
0.9329816636
100
AcDbArc
 50
255.9975973065
 51
267.3176671351
  0
ARC
  5
5C3
100
AcDbEntity
  8
0
100
AcDbCircle
 62
7
  6
CONTINUOUS
 10
195.1683563816
 20
237.1814550184
 40
0.932944185
100
AcDbArc
 50
272.6819600436
 51
284.002305542
  0
ARC
  5
5C4
100
AcDbEntity
  8
0
100
AcDbCircle
 62
7
  6
CONTINUOUS
 10
101.2124425362
 20
246.3157565279
 40
0.932825532
100
AcDbArc
 50
92.6807875655
 51
104.0019192172
  0
ARC
  5
5C5
100
AcDbEntity
  8
0
100
AcDbCircle
 62
7
  6
CONTINUOUS
 10
143.0589757873
 20
246.3657032582
 40
0.8829075922
100
AcDbArc
 50
92.7941364616
 51
104.4018498851
  0
ARC
  5
5C6
100
AcDbEntity
  8
0
100
AcDbCircle
 62
7
  6
CONTINUOUS
 10
153.3218573422
 20
237.13122396
 40
0.8827417198
100
AcDbArc
 50
272.795498033
 51
284.4044756234
  0
ARC
  5
5C7
100
AcDbEntity
  8
0
100
AcDbCircle
 62
7
  6
CONTINUOUS
 10
143.0589503901
 20
237.1311715944
 40
0.8826893284
100
AcDbArc
 50
255.5947222458
 51
267.2040783855
  0
ARC
  5
5C8
100
AcDbEntity
  8
0
100
AcDbCircle
 62
7
  6
CONTINUOUS
 10
153.3218676598
 20
246.3659573231
 40
0.8826534161
100
AcDbArc
 50
75.594317448
 51
87.203791909
  0
ARC
  5
5C9
100
AcDbEntity
  8
0
100
AcDbCircle
 62
7
  6
CONTINUOUS
 10
101.2101670316
 20
237.1253745217
 40
0.8768288634
100
AcDbArc
 50
267.2854634144
 51
269.9200632021
  0
ARC
  5
5CA
100
AcDbEntity
  8
0
100
AcDbCircle
 62
7
  6
CONTINUOUS
 10
195.1706764353
 20
246.3726978584
 40
0.8758494669
100
AcDbArc
 50
87.2870827256
 51
89.9219045036
  0
ARC
  5
5CB
100
AcDbEntity
  8
1_AXIS
100
AcDbCircle
 62
7
  6
CONTINUOUS
 10
299.0549418605
 20
91.6816860465
 40
2.0
100
AcDbArc
 50
180.0
 51
270.0
  0
ARC
  5
5CC
100
AcDbEntity
  8
0
100
AcDbCircle
 62
7
  6
CONTINUOUS
 10
313.7201016741
 20
93.7850655191
 40
1.015159872
100
AcDbArc
 50
179.9805676694
 51
182.5285010933
  0
ARC
  5
5CD
100
AcDbEntity
  8
1_AXIS
100
AcDbCircle
 62
7
  6
CONTINUOUS
 10
311.7049418605
 20
88.6816860465
 40
1.0
100
AcDbArc
 50
0.0
 51
90.0
  0
ARC
  5
5CE
100
AcDbEntity
  8
0
100
AcDbCircle
 62
7
  6
CONTINUOUS
 10
314.6551714952
 20
93.1891963166
 40
0.9999030045
100
AcDbArc
 50
235.3502115876
 51
270.0017597812
  0
ARC
  5
5CF
100
AcDbEntity
  8
0
100
AcDbCircle
 62
7
  6
CONTINUOUS
 10
313.7046046181
 20
93.7858330596
 40
0.9997017922
100
AcDbArc
 50
182.5950782705
 51
253.0322150708
  0
ARC
  5
5D0
100
AcDbEntity
  8
1_AXIS
100
AcDbCircle
 62
7
  6
CONTINUOUS
 10
314.2049418605
 20
38.6316860465
 40
0.5
100
AcDbArc
 50
185.9926174984
 51
270.0
  0
ARC
  5
5D1
100
AcDbEntity
  8
1_AXIS
100
AcDbCircle
 62
7
  6
CONTINUOUS
 10
299.0549418605
 20
150.6816860465
 40
2.0
100
AcDbArc
 50
90.0
 51
180.0
  0
ARC
  5
5D2
100
AcDbEntity
  8
0
100
AcDbCircle
 62
7
  6
CONTINUOUS
 10
313.7174197811
 20
148.5783721626
 40
1.0124780036
100
AcDbArc
 50
177.4748651691
 51
180.0231954431
  0
ARC
  5
5D3
100
AcDbEntity
  8
1_AXIS
100
AcDbCircle
 62
7
  6
CONTINUOUS
 10
311.7049418605
 20
153.6816860465
 40
1.0
100
AcDbArc
 50
270.0
 51
360.0
  0
ARC
  5
5D4
100
AcDbEntity
  8
0
100
AcDbCircle
 62
7
  6
CONTINUOUS
 10
314.6551714952
 20
149.1741757764
 40
0.9999030045
100
AcDbArc
 50
89.9982402188
 51
124.649788961
  0
ARC
  5
5D5
100
AcDbEntity
  8
0
100
AcDbCircle
 62
7
  6
CONTINUOUS
 10
313.7045947261
 20
148.5775398774
 40
0.9996919056
100
AcDbArc
 50
106.9700507105
 51
177.4045219194
  0
ARC
  5
5D6
100
AcDbEntity
  8
1_AXIS
100
AcDbCircle
 62
7
  6
CONTINUOUS
 10
314.2049418605
 20
203.7316860465
 40
0.5
100
AcDbArc
 50
90.0
 51
174.0073825016
  0
ARC
  5
5D7
100
AcDbEntity
  8
1_AXIS
100
AcDbCircle
 62
7
  6
CONTINUOUS
 10
337.3549418605
 20
91.6816860465
 40
2.0
100
AcDbArc
 50
270.0
 51
360.0
  0
ARC
  5
5D8
100
AcDbEntity
  8
0
100
AcDbCircle
 62
7
  6
CONTINUOUS
 10
322.6897470768
 20
93.7850217343
 40
1.0151948578
100
AcDbArc
 50
357.4733342581
 51
0.0219027936
  0
ARC
  5
5D9
100
AcDbEntity
  8
0
100
AcDbCircle
 62
7
  6
CONTINUOUS
 10
321.7539525944
 20
53.2025603099
 40
1.0015162939
100
AcDbArc
 50
270.0417004109
 51
291.2419593008
  0
ARC
  5
5DA
100
AcDbEntity
  8
1_AXIS
100
AcDbCircle
 62
7
  6
CONTINUOUS
 10
324.7049418605
 20
88.6816860465
 40
1.0
100
AcDbArc
 50
90.0
 51
180.0
  0
ARC
  5
5DB
100
AcDbEntity
  8
0
100
AcDbCircle
 62
7
  6
CONTINUOUS
 10
322.7052950023
 20
93.7858317711
 40
0.9996859037
100
AcDbArc
 50
286.9715084284
 51
357.404278516
  0
ARC
  5
5DC
100
AcDbEntity
  8
0
100
AcDbCircle
 62
7
  6
CONTINUOUS
 10
321.7548283144
 20
93.1887092384
 40
0.9994162565
100
AcDbArc
 50
269.9915836652
 51
304.5811589579
  0
ARC
  5
5DD
100
AcDbEntity
  8
0
100
AcDbCircle
 62
7
  6
CONTINUOUS
 10
321.7580332823
 20
53.1934481396
 40
0.991705253
100
AcDbArc
 50
291.2819382552
 51
295.8549739599
  0
ARC
  5
5DE
100
AcDbEntity
  8
1_AXIS
100
AcDbCircle
 62
7
  6
CONTINUOUS
 10
322.2049418605
 20
38.6316860465
 40
0.5
100
AcDbArc
 50
270.0
 51
354.0073825016
  0
ARC
  5
5DF
100
AcDbEntity
  8
1_AXIS
100
AcDbCircle
 62
7
  6
CONTINUOUS
 10
337.3549418605
 20
150.6816860465
 40
2.0
100
AcDbArc
 50
0.0
 51
90.0
  0
ARC
  5
5E0
100
AcDbEntity
  8
0
100
AcDbCircle
 62
7
  6
CONTINUOUS
 10
322.6932701364
 20
148.5782757637
 40
1.0116717726
100
AcDbArc
 50
359.9822456041
 51
2.5290240635
  0
ARC
  5
5E1
100
AcDbEntity
  8
0
100
AcDbCircle
 62
7
  6
CONTINUOUS
 10
321.7539525944
 20
189.1608117831
 40
1.0015162939
100
AcDbArc
 50
64.2155090056
 51
89.9582995891
  0
ARC
  5
5E2
100
AcDbEntity
  8
1_AXIS
100
AcDbCircle
 62
7
  6
CONTINUOUS
 10
324.7049418605
 20
153.6816860465
 40
1.0
100
AcDbArc
 50
180.0
 51
270.0
  0
ARC
  5
5E3
100
AcDbEntity
  8
0
100
AcDbCircle
 62
7
  6
CONTINUOUS
 10
322.7052505378
 20
148.5775368113
 40
0.9997303319
100
AcDbArc
 50
2.593902093
 51
73.038947991
  0
ARC
  5
5E4
100
AcDbEntity
  8
0
100
AcDbCircle
 62
7
  6
CONTINUOUS
 10
321.7548283144
 20
149.1746628548
 40
0.9994162563
100
AcDbArc
 50
55.4188427815
 51
90.0084163381
  0
ARC
  5
5E5
100
AcDbEntity
  8
1_AXIS
100
AcDbCircle
 62
7
  6
CONTINUOUS
 10
322.2049418605
 20
203.7316860465
 40
0.5
100
AcDbArc
 50
5.9926174984
 51
90.0
  0
SPLINE
  5
5E6
100
AcDbEntity
  8
0
100
AcDbSpline
 62
7
  6
CONTINUOUS
 70
0
 71
3
 72
15
 73
11
 74
0
 42
0.0000001
 43
0.0000001
 44
0.0000000001
 40
0.0
 40
0.0
 40
0.0
 40
0.0
 40
0.3845381941
 40
0.5568207445
 40
0.7071009133
 40
0.8300820019
 40
0.9215775037
 40
0.9782745553
 40
0.993257628
 40
1.0
 40
1.0
 40
1.0
 40
1.0
 10
153.3648801737
 20
194.0575498847
 30
0.0
 10
153.4797534178
 20
194.1015489727
 30
0.0
 10
153.6465525783
 20
194.1640068161
 30
0.0
 10
153.8597708804
 20
194.2397485604
 30
0.0
 10
153.9944953711
 20
194.2857629854
 30
0.0
 10
154.1059591417
 20
194.3218125632
 30
0.0
 10
154.1880866615
 20
194.3461768762
 30
0.0
 10
154.2409762652
 20
194.3581592338
 30
0.0
 10
154.2640288749
 20
194.3604412681
 30
0.0
 10
154.2726475436
 20
194.3591410555
 30
0.0
 10
154.2734234694
 20
194.3571286179
 30
0.0
  0
SPLINE
  5
5E7
100
AcDbEntity
  8
0
100
AcDbSpline
 62
7
  6
CONTINUOUS
 70
0
 71
3
 72
15
 73
11
 74
0
 42
0.0000001
 43
0.0000001
 44
0.0000000001
 40
0.0
 40
0.0
 40
0.0
 40
0.0
 40
0.3844859916
 40
0.5567439588
 40
0.7069990993
 40
0.8299492266
 40
0.9214222358
 40
0.9781626365
 40
0.9932026629
 40
1.0
 40
1.0
 40
1.0
 40
1.0
 10
143.0158871565
 20
194.0575095318
 30
0.0
 10
142.9010235154
 20
194.1015273333
 30
0.0
 10
142.7342633248
 20
194.1640802796
 30
0.0
 10
142.521056588
 20
194.2398343913
 30
0.0
 10
142.3863643559
 20
194.285919871
 30
0.0
 10
142.2750145531
 20
194.3222563582
 30
0.0
 10
142.1929241161
 20
194.3468329247
 30
0.0
 10
142.1399569422
 20
194.3585764898
 30
0.0
 10
142.1167883996
 20
194.360537234
 30
0.0
 10
142.1081697913
 20
194.3591498323
 30
0.0
 10
142.1073874512
 20
194.3571207498
 30
0.0
  0
SPLINE
  5
5E8
100
AcDbEntity
  8
0
100
AcDbSpline
 62
7
  6
CONTINUOUS
 70
0
 71
3
 72
8
 73
4
 74
0
 42
0.0000001
 43
0.0000001
 44
0.0000000001
 40
0.0
 40
0.0
 40
0.0
 40
0.0
 40
1.0
 40
1.0
 40
1.0
 40
1.0
 10
153.3653003138
 20
194.0576733552
 30
0.0
 10
153.3509907549
 20
194.0521874008
 30
0.0
 10
153.3350450617
 20
194.0503036664
 30
0.0
 10
153.3197577723
 20
194.0513797498
 30
0.0
  0
SPLINE
  5
5E9
100
AcDbEntity
  8
0
100
AcDbSpline
 62
7
  6
CONTINUOUS
 70
0
 71
3
 72
8
 73
4
 74
0
 42
0.0000001
 43
0.0000001
 44
0.0000000001
 40
0.0
 40
0.0
 40
0.0
 40
0.0
 40
1.0
 40
1.0
 40
1.0
 40
1.0
 10
143.0157689556
 20
194.0575447498
 30
0.0
 10
143.0299926466
 20
194.0520866311
 30
0.0
 10
143.0458588105
 20
194.0503099959
 30
0.0
 10
143.0610561812
 20
194.0513797498
 30
0.0
  0
SPLINE
  5
5EA
100
AcDbEntity
  8
0
100
AcDbSpline
 62
7
  6
CONTINUOUS
 70
0
 71
3
 72
8
 73
4
 74
0
 42
0.0000001
 43
0.0000001
 44
0.0000000001
 40
0.0
 40
0.0
 40
0.0
 40
0.0
 40
1.0
 40
1.0
 40
1.0
 40
1.0
 10
109.5413647326
 20
183.181084914
 30
0.0
 10
109.5330672655
 20
183.1683201203
 30
0.0
 10
109.521322544
 20
183.1575252173
 30
0.0
 10
109.5084076426
 20
183.1494633789
 30
0.0
  0
SPLINE
  5
5EB
100
AcDbEntity
  8
0
100
AcDbSpline
 62
7
  6
CONTINUOUS
 70
0
 71
3
 72
15
 73
11
 74
0
 42
0.0000001
 43
0.0000001
 44
0.0000000001
 40
0.0
 40
0.0
 40
0.0
 40
0.0
 40
0.3845408435
 40
0.5568246275
 40
0.7071060839
 40
0.8300887866
 40
0.9215854524
 40
0.9782803062
 40
0.9932604731
 40
1.0
 40
1.0
 40
1.0
 40
1.0
 10
109.5412825731
 20
183.1809777397
 30
0.0
 10
109.6083583838
 20
183.2840924611
 30
0.0
 10
109.706591717
 20
183.4326629685
 30
0.0
 10
109.834569386
 20
183.619266121
 30
0.0
 10
109.9165211962
 20
183.7356793059
 30
0.0
 10
109.9855217966
 20
183.8303519301
 30
0.0
 10
110.0376516087
 20
183.8983284832
 30
0.0
 10
110.07338674
 20
183.9391177942
 30
0.0
 10
110.0906805624
 20
183.9545238903
 30
0.0
 10
110.0984148031
 20
183.9585416126
 30
0.0
 10
110.1002246445
 20
183.9573700923
 30
0.0
  0
SPLINE
  5
5EC
100
AcDbEntity
  8
0
100
AcDbSpline
 62
7
  6
CONTINUOUS
 70
0
 71
3
 72
15
 73
11
 74
0
 42
0.0000001
 43
0.0000001
 44
0.0000000001
 40
0.0
 40
0.0
 40
0.0
 40
0.0
 40
0.3845411782
 40
0.5568251247
 40
0.7071067346
 40
0.8300896348
 40
0.9215864476
 40
0.9782810278
 40
0.9932608318
 40
1.0
 40
1.0
 40
1.0
 40
1.0
 10
215.9004750261
 20
93.7405909716
 30
0.0
 10
215.9068201621
 20
93.617743289
 30
0.0
 10
215.9146731142
 20
93.4398069838
 30
0.0
 10
215.9208192822
 20
93.2136184332
 30
0.0
 10
215.9229446256
 20
93.0712680715
 30
0.0
 10
215.9227672264
 20
92.954118648
 30
0.0
 10
215.9205475194
 20
92.8684835263
 30
0.0
 10
215.9156141547
 20
92.8144796834
 30
0.0
 10
215.9106808517
 20
92.7918509271
 30
0.0
 10
215.9067858244
 20
92.7840542675
 30
0.0
 10
215.9046331458
 20
92.7839382551
 30
0.0
  0
SPLINE
  5
5ED
100
AcDbEntity
  8
0
100
AcDbSpline
 62
7
  6
CONTINUOUS
 70
0
 71
3
 72
8
 73
4
 74
0
 42
0.0000001
 43
0.0000001
 44
0.0000000001
 40
0.0
 40
0.0
 40
0.0
 40
0.0
 40
1.0
 40
1.0
 40
1.0
 40
1.0
 10
186.8393921002
 20
183.1810699586
 30
0.0
 10
186.8476910602
 20
183.1682938552
 30
0.0
 10
186.8594826747
 20
183.1575306698
 30
0.0
 10
186.8724063109
 20
183.1494633789
 30
0.0
  0
SPLINE
  5
5EE
100
AcDbEntity
  8
0
100
AcDbSpline
 62
7
  6
CONTINUOUS
 70
0
 71
3
 72
8
 73
4
 74
0
 42
0.0000001
 43
0.0000001
 44
0.0000000001
 40
0.0
 40
0.0
 40
0.0
 40
0.0
 40
1.0
 40
1.0
 40
1.0
 40
1.0
 10
215.9004667919
 20
93.7402935632
 30
0.0
 10
215.8996739131
 20
93.7555510408
 30
0.0
 10
215.9028176449
 20
93.7712468869
 30
0.0
 10
215.9085474478
 20
93.7854098188
 30
0.0
  0
SPLINE
  5
5EF
100
AcDbEntity
  8
0
100
AcDbSpline
 62
7
  6
CONTINUOUS
 70
0
 71
3
 72
15
 73
11
 74
0
 42
0.0000001
 43
0.0000001
 44
0.0000000001
 40
0.0
 40
0.0
 40
0.0
 40
0.0
 40
0.3844860629
 40
0.5567440638
 40
0.7069992385
 40
0.8299494072
 40
0.9214224463
 40
0.9781627875
 40
0.9932027364
 40
1.0
 40
1.0
 40
1.0
 40
1.0
 10
186.8394668856
 20
183.1809721709
 30
0.0
 10
186.7724132361
 20
183.2840984612
 30
0.0
 10
186.674268985
 20
183.4327239632
 30
0.0
 10
186.5463082318
 20
183.6193300937
 30
0.0
 10
186.4644282004
 20
183.7357840854
 30
0.0
 10
186.3957020278
 20
183.8306304779
 30
0.0
 10
186.3437350143
 20
183.8987646921
 30
0.0
 10
186.3077866416
 20
183.9393989583
 30
0.0
 10
186.2901957688
 20
183.9546036196
 30
0.0
 10
186.2824077425
 20
183.9585471723
 30
0.0
 10
186.2805821712
 20
183.9573654711
 30
0.0
  0
SPLINE
  5
5F0
100
AcDbEntity
  8
0
100
AcDbSpline
 62
7
  6
CONTINUOUS
 70
0
 71
3
 72
8
 73
4
 74
0
 42
0.0000001
 43
0.0000001
 44
0.0000000001
 40
0.0
 40
0.0
 40
0.0
 40
0.0
 40
1.0
 40
1.0
 40
1.0
 40
1.0
 10
195.2121318341
 20
65.265453627
 30
0.0
 10
195.1974165181
 20
65.2615088802
 30
0.0
 10
195.1835363111
 20
65.2536203955
 30
0.0
 10
195.1718702384
 20
65.2438222171
 30
0.0
  0
SPLINE
  5
5F1
100
AcDbEntity
  8
0
100
AcDbSpline
 62
7
  6
CONTINUOUS
 70
0
 71
3
 72
15
 73
11
 74
0
 42
0.0000001
 43
0.0000001
 44
0.0000000001
 40
0.0
 40
0.0
 40
0.0
 40
0.0
 40
0.3844860629
 40
0.5567440638
 40
0.7069992385
 40
0.8299494072
 40
0.9214224463
 40
0.9781627875
 40
0.9932027364
 40
1.0
 40
1.0
 40
1.0
 40
1.0
 10
195.2120157225
 20
65.26541272
 30
0.0
 10
195.3308153702
 20
65.297316754
 30
0.0
 10
195.5024948638
 20
65.3447296776
 30
0.0
 10
195.7195098875
 20
65.4087631202
 30
0.0
 10
195.8555665364
 20
65.4506493951
 30
0.0
 10
195.9670083713
 20
65.4867027223
 30
0.0
 10
196.0478665501
 20
65.515071659
 30
0.0
 10
196.0976206918
 20
65.5367039143
 30
0.0
 10
196.1175170626
 20
65.5487353297
 30
0.0
 10
196.1236742366
 20
65.5549235582
 30
0.0
 10
196.1231145045
 20
65.5570249454
 30
0.0
  0
SPLINE
  5
5F2
100
AcDbEntity
  8
0
100
AcDbSpline
 62
7
  6
CONTINUOUS
 70
0
 71
3
 72
15
 73
11
 74
0
 42
0.0000001
 43
0.0000001
 44
0.0000000001
 40
0.0
 40
0.0
 40
0.0
 40
0.0
 40
0.3844839168
 40
0.5567409163
 40
0.7069950542
 40
0.8299439621
 40
0.9214160791
 40
0.9781582071
 40
0.9932005034
 40
1.0
 40
1.0
 40
1.0
 40
1.0
 10
101.1687977083
 20
177.0979568693
 30
0.0
 10
101.0499973011
 20
177.0660560027
 30
0.0
 10
100.8783174744
 20
177.0186446173
 30
0.0
 10
100.6613026622
 20
176.9546114599
 30
0.0
 10
100.5252452254
 20
176.9127287571
 30
0.0
 10
100.4138002371
 20
176.8766877557
 30
0.0
 10
100.3329382074
 20
176.8483267075
 30
0.0
 10
100.2831871596
 20
176.826684731
 30
0.0
 10
100.2632947155
 20
176.8146400731
 30
0.0
 10
100.2571395938
 20
176.8084490032
 30
0.0
 10
100.2576995109
 20
176.806346915
 30
0.0
  0
SPLINE
  5
5F3
100
AcDbEntity
  8
0
100
AcDbSpline
 62
7
  6
CONTINUOUS
 70
0
 71
3
 72
8
 73
4
 74
0
 42
0.0000001
 43
0.0000001
 44
0.0000000001
 40
0.0
 40
0.0
 40
0.0
 40
0.0
 40
1.0
 40
1.0
 40
1.0
 40
1.0
 10
101.1684355535
 20
177.0978269517
 30
0.0
 10
101.1832347859
 20
177.1017940537
 30
0.0
 10
101.1972111426
 20
177.1096958453
 30
0.0
 10
101.2089437151
 20
177.1195498759
 30
0.0
  0
SPLINE
  5
5F4
100
AcDbEntity
  8
0
100
AcDbSpline
 62
7
  6
CONTINUOUS
 70
0
 71
3
 72
8
 73
4
 74
0
 42
0.0000001
 43
0.0000001
 44
0.0000000001
 40
0.0
 40
0.0
 40
0.0
 40
0.0
 40
1.0
 40
1.0
 40
1.0
 40
1.0
 10
80.4803425934
 20
148.6229162511
 30
0.0
 10
80.4811327499
 20
148.6077122162
 30
0.0
 10
80.4779762397
 20
148.5920756
 30
0.0
 10
80.4722665057
 20
148.5779622742
 30
0.0
  0
SPLINE
  5
5F5
100
AcDbEntity
  8
0
100
AcDbSpline
 62
7
  6
CONTINUOUS
 70
0
 71
3
 72
15
 73
11
 74
0
 42
0.0000001
 43
0.0000001
 44
0.0000000001
 40
0.0
 40
0.0
 40
0.0
 40
0.0
 40
0.3845409261
 40
0.5568247491
 40
0.7071062452
 40
0.8300889979
 40
0.9215856996
 40
0.9782804847
 40
0.9932605615
 40
1.0
 40
1.0
 40
1.0
 40
1.0
 10
80.480339121
 20
148.6227812759
 30
0.0
 10
80.4739953175
 20
148.7456290158
 30
0.0
 10
80.46614036
 20
148.9235651979
 30
0.0
 10
80.4599939113
 20
149.1497537176
 30
0.0
 10
80.4578684914
 20
149.2921040423
 30
0.0
 10
80.4580444769
 20
149.4092533711
 30
0.0
 10
80.4602631105
 20
149.4948886435
 30
0.0
 10
80.46519768
 20
149.5488924749
 30
0.0
 10
80.4701326475
 20
149.5715213011
 30
0.0
 10
80.4740280874
 20
149.5793178237
 30
0.0
 10
80.4761808535
 20
149.5794338404
 30
0.0
  0
SPLINE
  5
5F6
100
AcDbEntity
  8
0
100
AcDbSpline
 62
7
  6
CONTINUOUS
 70
0
 71
3
 72
15
 73
11
 74
0
 42
0.0000001
 43
0.0000001
 44
0.0000000001
 40
0.0
 40
0.0
 40
0.0
 40
0.0
 40
0.3845391045
 40
0.5568220808
 40
0.7071026894
 40
0.8300843305
 40
0.9215802322
 40
0.9782765296
 40
0.9932586049
 40
1.0
 40
1.0
 40
1.0
 40
1.0
 10
195.2120015106
 20
177.0980203852
 30
0.0
 10
195.330797748
 20
177.0660947582
 30
0.0
 10
195.5024526133
 20
177.0185809063
 30
0.0
 10
195.7194698026
 20
176.9545305312
 30
0.0
 10
195.8555104996
 20
176.9125664618
 30
0.0
 10
195.9668745938
 20
176.8762089805
 30
0.0
 10
196.0476364206
 20
176.8476432502
 30
0.0
 10
196.097469455
 20
176.8262536564
 30
0.0
 10
196.1174624183
 20
176.8145557486
 30
0.0
 10
196.1236717454
 20
176.8084391867
 30
0.0
 10
196.1231166819
 20
176.8063553193
 30
0.0
  0
SPLINE
  5
5F7
100
AcDbEntity
  8
0
100
AcDbSpline
 62
7
  6
CONTINUOUS
 70
0
 71
3
 72
8
 73
4
 74
0
 42
0.0000001
 43
0.0000001
 44
0.0000000001
 40
0.0
 40
0.0
 40
0.0
 40
0.0
 40
1.0
 40
1.0
 40
1.0
 40
1.0
 10
195.2123712016
 20
177.0978886485
 30
0.0
 10
195.1975846781
 20
177.1018574897
 30
0.0
 10
195.1835937564
 20
177.10970345
 30
0.0
 10
195.1718702384
 20
177.1195498759
 30
0.0
  0
SPLINE
  5
5F8
100
AcDbEntity
  8
0
100
AcDbSpline
 62
7
  6
CONTINUOUS
 70
0
 71
3
 72
15
 73
11
 74
0
 42
0.0000001
 43
0.0000001
 44
0.0000000001
 40
0.0
 40
0.0
 40
0.0
 40
0.0
 40
0.384542414
 40
0.5568269391
 40
0.7071091454
 40
0.8300927967
 40
0.9215901529
 40
0.9782837099
 40
0.9932621603
 40
1.0
 40
1.0
 40
1.0
 40
1.0
 10
186.8395331678
 20
59.182394222
 30
0.0
 10
186.7724575226
 20
59.0792793107
 30
0.0
 10
186.6742208005
 20
58.930710918
 30
0.0
 10
186.5462426086
 20
58.7441078835
 30
0.0
 10
186.4642888741
 20
58.6276957679
 30
0.0
 10
186.3952802078
 20
58.5330282609
 30
0.0
 10
186.343145522
 20
58.4650564076
 30
0.0
 10
186.3074165302
 20
58.4242625692
 30
0.0
 10
186.2901314553
 20
58.4088506283
 30
0.0
 10
186.282398791
 20
58.4048307117
 30
0.0
 10
186.2805894097
 20
58.4060019355
 30
0.0
  0
SPLINE
  5
5F9
100
AcDbEntity
  8
0
100
AcDbSpline
 62
7
  6
CONTINUOUS
 70
0
 71
3
 72
8
 73
4
 74
0
 42
0.0000001
 43
0.0000001
 44
0.0000000001
 40
0.0
 40
0.0
 40
0.0
 40
0.0
 40
1.0
 40
1.0
 40
1.0
 40
1.0
 10
215.9004162717
 20
148.6229378018
 30
0.0
 10
215.8996206661
 20
148.6077237104
 30
0.0
 10
215.9028338409
 20
148.5920851728
 30
0.0
 10
215.9085474478
 20
148.5779622742
 30
0.0
  0
SPLINE
  5
5FA
100
AcDbEntity
  8
0
100
AcDbSpline
 62
7
  6
CONTINUOUS
 70
0
 71
3
 72
15
 73
11
 74
0
 42
0.0000001
 43
0.0000001
 44
0.0000000001
 40
0.0
 40
0.0
 40
0.0
 40
0.0
 40
0.3844860629
 40
0.5567440638
 40
0.7069992386
 40
0.8299494072
 40
0.9214224463
 40
0.9781627875
 40
0.9932027364
 40
1.0
 40
1.0
 40
1.0
 40
1.0
 10
215.9004192962
 20
148.6228147308
 30
0.0
 10
215.9067878668
 20
148.7456587986
 30
0.0
 10
215.914747378
 20
148.9235870989
 30
0.0
 10
215.9209092855
 20
149.1497680733
 30
0.0
 10
215.9231168875
 20
149.2921092066
 30
0.0
 10
215.9232655565
 20
149.4092377807
 30
0.0
 10
215.9212716458
 20
149.494904962
 30
0.0
 10
215.9160730238
 20
149.5489086972
 30
0.0
 10
215.9107787845
 20
149.5715491822
 30
0.0
 10
215.9067961009
 20
149.5793172704
 30
0.0
 10
215.9046245962
 20
149.5794342979
 30
0.0
  0
SPLINE
  5
5FB
100
AcDbEntity
  8
0
100
AcDbSpline
 62
7
  6
CONTINUOUS
 70
0
 71
3
 72
8
 73
4
 74
0
 42
0.0000001
 43
0.0000001
 44
0.0000000001
 40
0.0
 40
0.0
 40
0.0
 40
0.0
 40
1.0
 40
1.0
 40
1.0
 40
1.0
 10
186.8393837508
 20
59.1821999493
 30
0.0
 10
186.8477009071
 20
59.1949947375
 30
0.0
 10
186.8594609735
 20
59.2058278767
 30
0.0
 10
186.8724063109
 20
59.2139087142
 30
0.0
  0
SPLINE
  5
5FC
100
AcDbEntity
  8
0
100
AcDbSpline
 62
7
  6
CONTINUOUS
 70
0
 71
3
 72
15
 73
11
 74
0
 42
0.0000001
 43
0.0000001
 44
0.0000000001
 40
0.0
 40
0.0
 40
0.0
 40
0.0
 40
0.3844851253
 40
0.5567426918
 40
0.7069974089
 40
0.8299470238
 40
0.9214196611
 40
0.9781607855
 40
0.9932017612
 40
1.0
 40
1.0
 40
1.0
 40
1.0
 10
77.2823660732
 20
138.7802922179
 30
0.0
 10
77.2050060903
 20
138.6846541122
 30
0.0
 10
77.0939832823
 20
138.5453854505
 30
0.0
 10
76.9560524573
 20
138.3660231613
 30
0.0
 10
76.8705991045
 20
138.2521655364
 30
0.0
 10
76.801628048
 20
138.1574975012
 30
0.0
 10
76.7528838752
 20
138.0870210952
 30
0.0
 10
76.7253506523
 20
138.0402728298
 30
0.0
 10
76.7163308393
 20
138.0188407387
 30
0.0
 10
76.7149883841
 20
138.0102147833
 30
0.0
 10
76.7166766264
 20
138.0088435273
 30
0.0
  0
SPLINE
  5
5FD
100
AcDbEntity
  8
0
100
AcDbSpline
 62
7
  6
CONTINUOUS
 70
0
 71
3
 72
8
 73
4
 74
0
 42
0.0000001
 43
0.0000001
 44
0.0000000001
 40
0.0
 40
0.0
 40
0.0
 40
0.0
 40
1.0
 40
1.0
 40
1.0
 40
1.0
 10
77.2821752893
 20
138.7800124216
 30
0.0
 10
77.2918064809
 20
138.7919086502
 30
0.0
 10
77.2984573227
 20
138.806504018
 30
0.0
 10
77.3021533738
 20
138.8213572772
 30
0.0
  0
SPLINE
  5
5FE
100
AcDbEntity
  8
0
100
AcDbSpline
 62
7
  6
CONTINUOUS
 70
0
 71
3
 72
8
 73
4
 74
0
 42
0.0000001
 43
0.0000001
 44
0.0000000001
 40
0.0
 40
0.0
 40
0.0
 40
0.0
 40
1.0
 40
1.0
 40
1.0
 40
1.0
 10
77.2822637573
 20
103.5831304049
 30
0.0
 10
77.2918397277
 20
103.5712945101
 30
0.0
 10
77.2984770363
 20
103.5567888523
 30
0.0
 10
77.3021533738
 20
103.5420148158
 30
0.0
  0
SPLINE
  5
5FF
100
AcDbEntity
  8
0
100
AcDbSpline
 62
7
  6
CONTINUOUS
 70
0
 71
3
 72
15
 73
11
 74
0
 42
0.0000001
 43
0.0000001
 44
0.0000000001
 40
0.0
 40
0.0
 40
0.0
 40
0.0
 40
0.384540916
 40
0.5568247342
 40
0.7071062255
 40
0.8300889721
 40
0.9215856694
 40
0.9782804629
 40
0.9932605506
 40
1.0
 40
1.0
 40
1.0
 40
1.0
 10
77.2823403131
 20
103.5830191247
 30
0.0
 10
77.2049999747
 20
103.6786762363
 30
0.0
 10
77.0940569028
 20
103.8180125914
 30
0.0
 10
76.9561340444
 20
103.9973901535
 30
0.0
 10
76.8707431105
 20
104.1113046844
 30
0.0
 10
76.8020267903
 20
104.2061838845
 30
0.0
 10
76.7534865139
 20
104.2767683348
 30
0.0
 10
76.7257360487
 20
104.3233588479
 30
0.0
 10
76.7164276842
 20
104.3445666959
 30
0.0
 10
76.7149964968
 20
104.3531639026
 30
0.0
 10
76.716669931
 20
104.3545231284
 30
0.0
  0
SPLINE
  5
600
100
AcDbEntity
  8
0
100
AcDbSpline
 62
7
  6
CONTINUOUS
 70
0
 71
3
 72
8
 73
4
 74
0
 42
0.0000001
 43
0.0000001
 44
0.0000000001
 40
0.0
 40
0.0
 40
0.0
 40
0.0
 40
1.0
 40
1.0
 40
1.0
 40
1.0
 10
153.3650447114
 20
48.3058273492
 30
0.0
 10
153.3508211065
 20
48.3112854277
 30
0.0
 10
153.3349550483
 20
48.3130620905
 30
0.0
 10
153.3197577723
 20
48.3119923432
 30
0.0
  0
SPLINE
  5
601
100
AcDbEntity
  8
0
100
AcDbSpline
 62
7
  6
CONTINUOUS
 70
0
 71
3
 72
15
 73
11
 74
0
 42
0.0000001
 43
0.0000001
 44
0.0000000001
 40
0.0
 40
0.0
 40
0.0
 40
0.0
 40
0.3844860629
 40
0.5567440638
 40
0.7069992385
 40
0.8299494071
 40
0.9214224462
 40
0.9781627874
 40
0.9932027363
 40
1.0
 40
1.0
 40
1.0
 40
1.0
 10
153.3649267304
 20
48.3058625034
 30
0.0
 10
153.479790385
 20
48.2618447283
 30
0.0
 10
153.6465506302
 20
48.1992919146
 30
0.0
 10
153.8597573856
 20
48.1235378275
 30
0.0
 10
153.9944496614
 20
48.077452444
 30
0.0
 10
154.1057996137
 20
48.0411163312
 30
0.0
 10
154.1878900971
 20
48.016540038
 30
0.0
 10
154.2408571639
 20
48.0047961495
 30
0.0
 10
154.2640255547
 20
48.0028349759
 30
0.0
 10
154.2726441625
 20
48.0042222618
 30
0.0
 10
154.2734264941
 20
48.0062513221
 30
0.0
  0
SPLINE
  5
602
100
AcDbEntity
  8
0
100
AcDbSpline
 62
7
  6
CONTINUOUS
 70
0
 71
3
 72
15
 73
11
 74
0
 42
0.0000001
 43
0.0000001
 44
0.0000000001
 40
0.0
 40
0.0
 40
0.0
 40
0.0
 40
0.3845400779
 40
0.5568235096
 40
0.7071045882
 40
0.8300868202
 40
0.9215831495
 40
0.9782786408
 40
0.9932596499
 40
1.0
 40
1.0
 40
1.0
 40
1.0
 10
219.0984731989
 20
138.780352033
 30
0.0
 10
219.1758152994
 20
138.6846963924
 30
0.0
 10
219.2867580164
 20
138.5453597838
 30
0.0
 10
219.4246807091
 20
138.3659822477
 30
0.0
 10
219.5100729114
 20
138.2520688265
 30
0.0
 10
219.5787933331
 20
138.1571930069
 30
0.0
 10
219.6273368044
 20
138.0866102605
 30
0.0
 10
219.6550839373
 20
138.0400173538
 30
0.0
 10
219.6643878578
 20
138.0188060151
 30
0.0
 10
219.6658176754
 20
138.0102083703
 30
0.0
 10
219.6641440155
 20
138.0088489589
 30
0.0
  0
SPLINE
  5
603
100
AcDbEntity
  8
0
100
AcDbSpline
 62
7
  6
CONTINUOUS
 70
0
 71
3
 72
15
 73
11
 74
0
 42
0.0000001
 43
0.0000001
 44
0.0000000001
 40
0.0
 40
0.0
 40
0.0
 40
0.0
 40
0.1252949684
 40
0.2503960163
 40
0.375288796
 40
0.5000194655
 40
0.6247318144
 40
0.7496082053
 40
0.8746858917
 40
1.0
 40
1.0
 40
1.0
 40
1.0
 10
148.1904069767
 20
197.3472620724
 30
0.0
 10
148.3744221847
 20
197.3472620724
 30
0.0
 10
148.7464119268
 20
197.2712477942
 30
0.0
 10
149.2113282702
 20
196.9497018671
 30
0.0
 10
149.5180256417
 20
196.4758815558
 30
0.0
 10
149.6242086639
 20
195.9227485999
 30
0.0
 10
149.5177447716
 20
195.3697166545
 30
0.0
 10
149.2111168919
 20
194.8960171483
 30
0.0
 10
148.7464464342
 20
194.5742058899
 30
0.0
 10
148.3744502946
 20
194.498069063
 30
0.0
 10
148.1904069767
 20
194.498069063
 30
0.0
  0
SPLINE
  5
604
100
AcDbEntity
  8
0
100
AcDbSpline
 62
7
  6
CONTINUOUS
 70
0
 71
3
 72
15
 73
11
 74
0
 42
0.0000001
 43
0.0000001
 44
0.0000000001
 40
0.0
 40
0.0
 40
0.0
 40
0.0
 40
0.1252903524
 40
0.2503720284
 40
0.3752406965
 40
0.4999644172
 40
0.6246950583
 40
0.7495956297
 40
0.8747013254
 40
1.0
 40
1.0
 40
1.0
 40
1.0
 10
148.1904069767
 20
194.498069063
 30
0.0
 10
148.0063986372
 20
194.498069063
 30
0.0
 10
147.6344424644
 20
194.5742006411
 30
0.0
 10
147.1697522754
 20
194.8959223939
 30
0.0
 10
146.8631353903
 20
195.3696388774
 30
0.0
 10
146.7565825449
 20
195.9226574413
 30
0.0
 10
146.8627693339
 20
196.4758247012
 30
0.0
 10
147.169452313
 20
196.9496735035
 30
0.0
 10
147.634384348
 20
197.271243929
 30
0.0
 10
148.0063864148
 20
197.3472620724
 30
0.0
 10
148.1904069767
 20
197.3472620724
 30
0.0
  0
SPLINE
  5
605
100
AcDbEntity
  8
0
100
AcDbSpline
 62
7
  6
CONTINUOUS
 70
0
 71
3
 72
8
 73
4
 74
0
 42
0.0000001
 43
0.0000001
 44
0.0000000001
 40
0.0
 40
0.0
 40
0.0
 40
0.0
 40
1.0
 40
1.0
 40
1.0
 40
1.0
 10
219.0986689748
 20
138.7800660947
 30
0.0
 10
219.0890489924
 20
138.7919563385
 30
0.0
 10
219.0823538046
 20
138.8065153754
 30
0.0
 10
219.0786605797
 20
138.8213572772
 30
0.0
  0
SPLINE
  5
606
100
AcDbEntity
  8
0
100
AcDbSpline
 62
7
  6
CONTINUOUS
 70
0
 71
3
 72
15
 73
11
 74
0
 42
0.0000001
 43
0.0000001
 44
0.0000000001
 40
0.0
 40
0.0
 40
0.0
 40
0.0
 40
0.3844864823
 40
0.5567446854
 40
0.7070000527
 40
0.829950462
 40
0.9214236837
 40
0.9781636814
 40
0.9932031744
 40
1.0
 40
1.0
 40
1.0
 40
1.0
 10
80.4803943382
 20
93.7405576053
 30
0.0
 10
80.4740244919
 20
93.6177135866
 30
0.0
 10
80.4660672828
 20
93.4397851419
 30
0.0
 10
80.4599056842
 20
93.2136041176
 30
0.0
 10
80.4576983858
 20
93.0712629242
 30
0.0
 10
80.4575520622
 20
92.9541341942
 30
0.0
 10
80.4595477072
 20
92.8684672537
 30
0.0
 10
80.4647443685
 20
92.8144635255
 30
0.0
 10
80.470035931
 20
92.7918231179
 30
0.0
 10
80.4740179582
 20
92.7840548171
 30
0.0
 10
80.4761893209
 20
92.7839377971
 30
0.0
  0
SPLINE
  5
607
100
AcDbEntity
  8
0
100
AcDbSpline
 62
7
  6
CONTINUOUS
 70
0
 71
3
 72
8
 73
4
 74
0
 42
0.0000001
 43
0.0000001
 44
0.0000000001
 40
0.0
 40
0.0
 40
0.0
 40
0.0
 40
1.0
 40
1.0
 40
1.0
 40
1.0
 10
80.4804028452
 20
93.7402675343
 30
0.0
 10
80.4812012542
 20
93.7555365616
 30
0.0
 10
80.4780007422
 20
93.7712359279
 30
0.0
 10
80.4722665057
 20
93.7854098188
 30
0.0
  0
SPLINE
  5
608
100
AcDbEntity
  8
0
100
AcDbSpline
 62
7
  6
CONTINUOUS
 70
0
 71
3
 72
8
 73
4
 74
0
 42
0.0000001
 43
0.0000001
 44
0.0000000001
 40
0.0
 40
0.0
 40
0.0
 40
0.0
 40
1.0
 40
1.0
 40
1.0
 40
1.0
 10
101.1686856062
 20
65.2653945705
 30
0.0
 10
101.1833896693
 20
65.2614477502
 30
0.0
 10
101.1972855537
 20
65.2536137509
 30
0.0
 10
101.2089437151
 20
65.2438222171
 30
0.0
  0
SPLINE
  5
609
100
AcDbEntity
  8
0
100
AcDbSpline
 62
7
  6
CONTINUOUS
 70
0
 71
3
 72
15
 73
11
 74
0
 42
0.0000001
 43
0.0000001
 44
0.0000000001
 40
0.0
 40
0.0
 40
0.0
 40
0.0
 40
0.3845409259
 40
0.5568247487
 40
0.7071062447
 40
0.8300889973
 40
0.9215856989
 40
0.9782804842
 40
0.9932605612
 40
1.0
 40
1.0
 40
1.0
 40
1.0
 10
101.1688128868
 20
65.2653495638
 30
0.0
 10
101.0500174001
 20
65.2972782877
 30
0.0
 10
100.8783627192
 20
65.3447930827
 30
0.0
 10
100.6613452965
 20
65.408843559
 30
0.0
 10
100.5253053017
 20
65.4508108337
 30
0.0
 10
100.4139440513
 20
65.487179338
 30
0.0
 10
100.3331856625
 20
65.5157521376
 30
0.0
 10
100.283349833
 20
65.5371332948
 30
0.0
 10
100.2633535296
 20
65.5488194212
 30
0.0
 10
100.2571423534
 20
65.554933463
 30
0.0
 10
100.2576972563
 20
65.5570167164
 30
0.0
  0
SPLINE
  5
60A
100
AcDbEntity
  8
0
100
AcDbSpline
 62
7
  6
CONTINUOUS
 70
0
 71
3
 72
15
 73
11
 74
0
 42
0.0000001
 43
0.0000001
 44
0.0000000001
 40
0.0
 40
0.0
 40
0.0
 40
0.0
 40
0.3845409259
 40
0.5568247487
 40
0.7071062447
 40
0.8300889973
 40
0.9215856989
 40
0.9782804842
 40
0.9932605612
 40
1.0
 40
1.0
 40
1.0
 40
1.0
 10
143.0159362021
 20
48.3058200235
 30
0.0
 10
142.9010614015
 20
48.2618246686
 30
0.0
 10
142.7342613517
 20
48.1993688553
 30
0.0
 10
142.5210426434
 20
48.1236271386
 30
0.0
 10
142.3863162305
 20
48.0776170743
 30
0.0
 10
142.2748462159
 20
48.0415833118
 30
0.0
 10
142.1927166367
 20
48.0172306023
 30
0.0
 10
142.1398310748
 20
48.0052355561
 30
0.0
 10
142.1167847928
 20
48.0029362987
 30
0.0
 10
142.1081661021
 20
48.0042318247
 30
0.0
 10
142.1073905223
 20
48.0062433759
 30
0.0
  0
SPLINE
  5
60B
100
AcDbEntity
  8
0
100
AcDbSpline
 62
7
  6
CONTINUOUS
 70
0
 71
3
 72
8
 73
4
 74
0
 42
0.0000001
 43
0.0000001
 44
0.0000000001
 40
0.0
 40
0.0
 40
0.0
 40
0.0
 40
1.0
 40
1.0
 40
1.0
 40
1.0
 10
219.0985182997
 20
103.5831802271
 30
0.0
 10
219.0889320081
 20
103.5713393973
 30
0.0
 10
219.0823394114
 20
103.5567988759
 30
0.0
 10
219.0786605797
 20
103.5420148158
 30
0.0
  0
SPLINE
  5
60C
100
AcDbEntity
  8
0
100
AcDbSpline
 62
7
  6
CONTINUOUS
 70
0
 71
3
 72
8
 73
4
 74
0
 42
0.0000001
 43
0.0000001
 44
0.0000000001
 40
0.0
 40
0.0
 40
0.0
 40
0.0
 40
1.0
 40
1.0
 40
1.0
 40
1.0
 10
143.0158067757
 20
48.3057816209
 30
0.0
 10
143.0300224954
 20
48.3112314077
 30
0.0
 10
143.0458692112
 20
48.3130613651
 30
0.0
 10
143.0610561812
 20
48.3119923432
 30
0.0
  0
SPLINE
  5
60D
100
AcDbEntity
  8
0
100
AcDbSpline
 62
7
  6
CONTINUOUS
 70
0
 71
3
 72
8
 73
4
 74
0
 42
0.0000001
 43
0.0000001
 44
0.0000000001
 40
0.0
 40
0.0
 40
0.0
 40
0.0
 40
1.0
 40
1.0
 40
1.0
 40
1.0
 10
109.5414909979
 20
59.1822103453
 30
0.0
 10
109.5331712821
 20
59.195018051
 30
0.0
 10
109.5213633514
 20
59.2058214026
 30
0.0
 10
109.5084076426
 20
59.2139087142
 30
0.0
  0
SPLINE
  5
60E
100
AcDbEntity
  8
0
100
AcDbSpline
 62
7
  6
CONTINUOUS
 70
0
 71
3
 72
15
 73
11
 74
0
 42
0.0000001
 43
0.0000001
 44
0.0000000001
 40
0.0
 40
0.0
 40
0.0
 40
0.0
 40
0.3844860519
 40
0.5567440476
 40
0.706999217
 40
0.8299493792
 40
0.9214224135
 40
0.9781627639
 40
0.9932027249
 40
1.0
 40
1.0
 40
1.0
 40
1.0
 10
219.0984483746
 20
103.5830788346
 30
0.0
 10
219.1758065917
 20
103.6787184174
 30
0.0
 10
219.2868296177
 20
103.81798694
 30
0.0
 10
219.4247605479
 20
103.997349311
 30
0.0
 10
219.5102125666
 20
104.1112080999
 30
0.0
 10
219.5791793407
 20
104.20587968
 30
0.0
 10
219.627920179
 20
104.2763578556
 30
0.0
 10
219.6554569623
 20
104.3231034994
 30
0.0
 10
219.6644815195
 20
104.3445319557
 30
0.0
 10
219.6658254113
 20
104.3531574393
 30
0.0
 10
219.6641374113
 20
104.3545284974
 30
0.0
  0
SPLINE
  5
60F
100
AcDbEntity
  8
0
100
AcDbSpline
 62
7
  6
CONTINUOUS
 70
0
 71
3
 72
15
 73
11
 74
0
 42
0.0000001
 43
0.0000001
 44
0.0000000001
 40
0.0
 40
0.0
 40
0.0
 40
0.0
 40
0.3844879991
 40
0.556746914
 40
0.707003008
 40
0.8299543058
 40
0.9214281811
 40
0.9781669196
 40
0.9932047553
 40
1.0
 40
1.0
 40
1.0
 40
1.0
 10
109.5413449305
 20
59.1823997769
 30
0.0
 10
109.6083984899
 20
59.0792733333
 30
0.0
 10
109.7065466933
 20
58.9306502986
 30
0.0
 10
109.8345080958
 20
58.7440443301
 30
0.0
 10
109.9163904319
 20
58.627591635
 30
0.0
 10
109.9851261307
 20
58.532751265
 30
0.0
 10
110.0370988893
 20
58.4646225953
 30
0.0
 10
110.0730398275
 20
58.4239829824
 30
0.0
 10
110.0906204399
 20
58.4087712862
 30
0.0
 10
110.0984065953
 20
58.4048251687
 30
0.0
 10
110.1002316159
 20
58.4060065142
 30
0.0
  0
SPLINE
  5
610
100
AcDbEntity
  8
0
100
AcDbSpline
 62
7
  6
CONTINUOUS
 70
0
 71
3
 72
8
 73
4
 74
0
 42
0.0000001
 43
0.0000001
 44
0.0000000001
 40
0.0
 40
0.0
 40
0.0
 40
0.0
 40
1.0
 40
1.0
 40
1.0
 40
1.0
 10
198.9065786869
 20
237.2332417164
 30
0.0
 10
199.0173892936
 20
237.2630984698
 30
0.0
 10
199.124487578
 20
237.3130669361
 30
0.0
 10
199.2186289658
 20
237.3787008862
 30
0.0
  0
SPLINE
  5
611
100
AcDbEntity
  8
0
100
AcDbSpline
 62
7
  6
CONTINUOUS
 70
0
 71
3
 72
8
 73
4
 74
0
 42
0.0000001
 43
0.0000001
 44
0.0000000001
 40
0.0
 40
0.0
 40
0.0
 40
0.0
 40
1.0
 40
1.0
 40
1.0
 40
1.0
 10
199.2186289658
 20
237.3787008862
 30
0.0
 10
199.314446747
 20
237.4455035925
 30
0.0
 10
199.3995736935
 20
237.5306849401
 30
0.0
 10
199.4664317828
 20
237.6264640853
 30
0.0
  0
SPLINE
  5
612
100
AcDbEntity
  8
0
100
AcDbSpline
 62
7
  6
CONTINUOUS
 70
0
 71
3
 72
8
 73
4
 74
0
 42
0.0000001
 43
0.0000001
 44
0.0000000001
 40
0.0
 40
0.0
 40
0.0
 40
0.0
 40
1.0
 40
1.0
 40
1.0
 40
1.0
 10
199.6289669487
 20
245.4836987489
 30
0.0
 10
199.6061679266
 20
245.6044470487
 30
0.0
 10
199.5600878618
 20
245.7228930315
 30
0.0
 10
199.4950832595
 20
245.8271731781
 30
0.0
  0
SPLINE
  5
613
100
AcDbEntity
  8
0
100
AcDbSpline
 62
7
  6
CONTINUOUS
 70
0
 71
3
 72
8
 73
4
 74
0
 42
0.0000001
 43
0.0000001
 44
0.0000000001
 40
0.0
 40
0.0
 40
0.0
 40
0.0
 40
1.0
 40
1.0
 40
1.0
 40
1.0
 10
199.4950832595
 20
245.8271731781
 30
0.0
 10
199.4301460089
 20
245.9313452791
 30
0.0
 10
199.3443138311
 20
246.024878211
 30
0.0
 10
199.2460900765
 20
246.0985040704
 30
0.0
  0
SPLINE
  5
614
100
AcDbEntity
  8
0
100
AcDbSpline
 62
7
  6
CONTINUOUS
 70
0
 71
3
 72
8
 73
4
 74
0
 42
0.0000001
 43
0.0000001
 44
0.0000000001
 40
0.0
 40
0.0
 40
0.0
 40
0.0
 40
1.0
 40
1.0
 40
1.0
 40
1.0
 10
199.2460900765
 20
246.0985040704
 30
0.0
 10
199.1442600223
 20
246.1748331141
 30
0.0
 10
199.0254580364
 20
246.2322267213
 30
0.0
 10
198.9024477347
 20
246.2648449452
 30
0.0
  0
SPLINE
  5
615
100
AcDbEntity
  8
0
100
AcDbSpline
 62
7
  6
CONTINUOUS
 70
0
 71
3
 72
8
 73
4
 74
0
 42
0.0000001
 43
0.0000001
 44
0.0000000001
 40
0.0
 40
0.0
 40
0.0
 40
0.0
 40
1.0
 40
1.0
 40
1.0
 40
1.0
 10
97.4742352666
 20
237.2332417164
 30
0.0
 10
97.3634246599
 20
237.2630984698
 30
0.0
 10
97.2563263755
 20
237.3130669361
 30
0.0
 10
97.1621849877
 20
237.3787008862
 30
0.0
  0
SPLINE
  5
616
100
AcDbEntity
  8
0
100
AcDbSpline
 62
7
  6
CONTINUOUS
 70
0
 71
3
 72
8
 73
4
 74
0
 42
0.0000001
 43
0.0000001
 44
0.0000000001
 40
0.0
 40
0.0
 40
0.0
 40
0.0
 40
1.0
 40
1.0
 40
1.0
 40
1.0
 10
97.1621849877
 20
237.3787008862
 30
0.0
 10
97.0663672064
 20
237.4455035925
 30
0.0
 10
96.98124026
 20
237.5306849401
 30
0.0
 10
96.9143821707
 20
237.6264640853
 30
0.0
  0
SPLINE
  5
617
100
AcDbEntity
  8
0
100
AcDbSpline
 62
7
  6
CONTINUOUS
 70
0
 71
3
 72
8
 73
4
 74
0
 42
0.0000001
 43
0.0000001
 44
0.0000000001
 40
0.0
 40
0.0
 40
0.0
 40
0.0
 40
1.0
 40
1.0
 40
1.0
 40
1.0
 10
96.7518470048
 20
245.4836987489
 30
0.0
 10
96.7746460269
 20
245.6044470487
 30
0.0
 10
96.8207260917
 20
245.7228930315
 30
0.0
 10
96.885730694
 20
245.8271731781
 30
0.0
  0
SPLINE
  5
618
100
AcDbEntity
  8
0
100
AcDbSpline
 62
7
  6
CONTINUOUS
 70
0
 71
3
 72
8
 73
4
 74
0
 42
0.0000001
 43
0.0000001
 44
0.0000000001
 40
0.0
 40
0.0
 40
0.0
 40
0.0
 40
1.0
 40
1.0
 40
1.0
 40
1.0
 10
96.885730694
 20
245.8271731781
 30
0.0
 10
96.9506679446
 20
245.9313452791
 30
0.0
 10
97.0365001224
 20
246.024878211
 30
0.0
 10
97.134723877
 20
246.0985040704
 30
0.0
  0
SPLINE
  5
619
100
AcDbEntity
  8
0
100
AcDbSpline
 62
7
  6
CONTINUOUS
 70
0
 71
3
 72
8
 73
4
 74
0
 42
0.0000001
 43
0.0000001
 44
0.0000000001
 40
0.0
 40
0.0
 40
0.0
 40
0.0
 40
1.0
 40
1.0
 40
1.0
 40
1.0
 10
97.134723877
 20
246.0985040704
 30
0.0
 10
97.2365539305
 20
246.1748331136
 30
0.0
 10
97.3553559154
 20
246.2322267205
 30
0.0
 10
97.4783662162
 20
246.2648449445
 30
0.0
  0
SPLINE
  5
61A
100
AcDbEntity
  8
0
100
AcDbSpline
 62
7
  6
CONTINUOUS
 70
0
 71
3
 72
9
 73
5
 74
0
 42
0.0000001
 43
0.0000001
 44
0.0000000001
 40
0.0
 40
0.0
 40
0.0
 40
0.0
 40
0.3339415239
 40
1.0
 40
1.0
 40
1.0
 40
1.0
 10
77.2822662862
 20
236.2495295539
 30
0.0
 10
77.2844773382
 20
236.2493733493
 30
0.0
 10
77.2910998835
 20
236.2489470719
 30
0.0
 10
77.2977323589
 20
236.2485465116
 30
0.0
 10
77.3021533738
 20
236.2485465116
 30
0.0
  0
SPLINE
  5
61B
100
AcDbEntity
  8
0
100
AcDbSpline
 62
7
  6
CONTINUOUS
 70
0
 71
3
 72
8
 73
4
 74
0
 42
0.0000001
 43
0.0000001
 44
0.0000000001
 40
0.0
 40
0.0
 40
0.0
 40
0.0
 40
1.0
 40
1.0
 40
1.0
 40
1.0
 10
195.2121705497
 20
236.2495304239
 30
0.0
 10
195.1987473133
 20
236.2489127502
 30
0.0
 10
195.1853076785
 20
236.2485465116
 30
0.0
 10
195.1718702384
 20
236.2485465116
 30
0.0
  0
SPLINE
  5
61C
100
AcDbEntity
  8
0
100
AcDbSpline
 62
7
  6
CONTINUOUS
 70
0
 71
3
 72
9
 73
5
 74
0
 42
0.0000001
 43
0.0000001
 44
0.0000000001
 40
0.0
 40
0.0
 40
0.0
 40
0.0
 40
0.3341443626
 40
1.0
 40
1.0
 40
1.0
 40
1.0
 10
219.0985531171
 20
236.2495304226
 30
0.0
 10
219.0963401113
 20
236.2493740893
 30
0.0
 10
219.0897157883
 20
236.2489469818
 30
0.0
 10
219.0830814671
 20
236.2485465116
 30
0.0
 10
219.0786605797
 20
236.2485465116
 30
0.0
  0
SPLINE
  5
61D
100
AcDbEntity
  8
0
100
AcDbSpline
 62
7
  6
CONTINUOUS
 70
0
 71
3
 72
9
 73
5
 74
0
 42
0.0000001
 43
0.0000001
 44
0.0000000001
 40
0.0
 40
0.0
 40
0.0
 40
0.0
 40
0.334802193
 40
1.0
 40
1.0
 40
1.0
 40
1.0
 10
77.2822637573
 20
247.2475611881
 30
0.0
 10
77.284480807
 20
247.2477177768
 30
0.0
 10
77.2911040412
 20
247.2481469963
 30
0.0
 10
77.2977374814
 20
247.2485465116
 30
0.0
 10
77.3021533738
 20
247.2485465116
 30
0.0
  0
SPLINE
  5
61E
100
AcDbEntity
  8
0
100
AcDbSpline
 62
7
  6
CONTINUOUS
 70
0
 71
3
 72
8
 73
4
 74
0
 42
0.0000001
 43
0.0000001
 44
0.0000000001
 40
0.0
 40
0.0
 40
0.0
 40
0.0
 40
1.0
 40
1.0
 40
1.0
 40
1.0
 10
101.1686856062
 20
247.2475611898
 30
0.0
 10
101.1820948169
 20
247.2481779736
 30
0.0
 10
101.1955203268
 20
247.2485465116
 30
0.0
 10
101.2089437151
 20
247.2485465116
 30
0.0
  0
SPLINE
  5
61F
100
AcDbEntity
  8
0
100
AcDbSpline
 62
7
  6
CONTINUOUS
 70
0
 71
3
 72
9
 73
5
 74
0
 42
0.0000001
 43
0.0000001
 44
0.0000000001
 40
0.0
 40
0.0
 40
0.0
 40
0.0
 40
0.3338462554
 40
1.0
 40
1.0
 40
1.0
 40
1.0
 10
219.0985182997
 20
247.2475656976
 30
0.0
 10
219.0963111475
 20
247.247721633
 30
0.0
 10
219.0896983583
 20
247.2481467694
 30
0.0
 10
219.0830756885
 20
247.2485465116
 30
0.0
 10
219.0786605797
 20
247.2485465116
 30
0.0
  0
SPLINE
  5
620
100
AcDbEntity
  8
0
100
AcDbSpline
 62
7
  6
CONTINUOUS
 70
0
 71
3
 72
9
 73
5
 74
0
 42
0.0000001
 43
0.0000001
 44
0.0000000001
 40
0.0
 40
0.0
 40
0.0
 40
0.0
 40
0.2145941335
 40
1.0
 40
1.0
 40
1.0
 40
1.0
 10
80.4803830881
 20
236.2495348129
 30
0.0
 10
80.4808340681
 20
236.2491501357
 30
0.0
 10
80.4755864054
 20
236.2481501482
 30
0.0
 10
80.4744359682
 20
236.2485465116
 30
0.0
 10
80.4722665057
 20
236.2485465116
 30
0.0
  0
SPLINE
  5
621
100
AcDbEntity
  8
0
100
AcDbSpline
 62
7
  6
CONTINUOUS
 70
0
 71
3
 72
9
 73
5
 74
0
 42
0.0000001
 43
0.0000001
 44
0.0000000001
 40
0.0
 40
0.0
 40
0.0
 40
0.0
 40
0.2089124463
 40
1.0
 40
1.0
 40
1.0
 40
1.0
 10
109.541471374
 20
236.2495332615
 30
0.0
 10
109.5391751522
 20
236.2493459542
 30
0.0
 10
109.528165051
 20
236.2486874233
 30
0.0
 10
109.517131613
 20
236.2485465116
 30
0.0
 10
109.5084076426
 20
236.2485465116
 30
0.0
  0
SPLINE
  5
622
100
AcDbEntity
  8
0
100
AcDbSpline
 62
7
  6
CONTINUOUS
 70
0
 71
3
 72
8
 73
4
 74
0
 42
0.0000001
 43
0.0000001
 44
0.0000000001
 40
0.0
 40
0.0
 40
0.0
 40
0.0
 40
1.0
 40
1.0
 40
1.0
 40
1.0
 10
153.3650724926
 20
236.2495304239
 30
0.0
 10
153.3499811146
 20
236.2488120361
 30
0.0
 10
153.3348662393
 20
236.2485465116
 30
0.0
 10
153.3197577723
 20
236.2485465116
 30
0.0
  0
SPLINE
  5
623
100
AcDbEntity
  8
0
100
AcDbSpline
 62
7
  6
CONTINUOUS
 70
0
 71
3
 72
8
 73
4
 74
0
 42
0.0000001
 43
0.0000001
 44
0.0000000001
 40
0.0
 40
0.0
 40
0.0
 40
0.0
 40
1.0
 40
1.0
 40
1.0
 40
1.0
 10
143.0157313528
 20
236.2495295555
 30
0.0
 10
143.0308260836
 20
236.2488108871
 30
0.0
 10
143.0459443519
 20
236.2485465116
 30
0.0
 10
143.0610561812
 20
236.2485465116
 30
0.0
  0
SPLINE
  5
624
100
AcDbEntity
  8
0
100
AcDbSpline
 62
7
  6
CONTINUOUS
 70
0
 71
3
 72
9
 73
5
 74
0
 42
0.0000001
 43
0.0000001
 44
0.0000000001
 40
0.0
 40
0.0
 40
0.0
 40
0.0
 40
0.2090910682
 40
1.0
 40
1.0
 40
1.0
 40
1.0
 10
186.8393724865
 20
236.2495295559
 30
0.0
 10
186.8416685794
 20
236.2493422052
 30
0.0
 10
186.8526690166
 20
236.2486894189
 30
0.0
 10
186.863692234
 20
236.2485465116
 30
0.0
 10
186.8724063109
 20
236.2485465116
 30
0.0
  0
SPLINE
  5
625
100
AcDbEntity
  8
0
100
AcDbSpline
 62
7
  6
CONTINUOUS
 70
0
 71
3
 72
9
 73
5
 74
0
 42
0.0000001
 43
0.0000001
 44
0.0000000001
 40
0.0
 40
0.0
 40
0.0
 40
0.0
 40
0.2164284608
 40
1.0
 40
1.0
 40
1.0
 40
1.0
 10
215.900422316
 20
236.2495295551
 30
0.0
 10
215.8999669734
 20
236.2491416352
 30
0.0
 10
215.9052364859
 20
236.2481699331
 30
0.0
 10
215.9063817602
 20
236.2485465116
 30
0.0
 10
215.9085474478
 20
236.2485465116
 30
0.0
  0
SPLINE
  5
626
100
AcDbEntity
  8
0
100
AcDbSpline
 62
7
  6
CONTINUOUS
 70
0
 71
3
 72
15
 73
11
 74
0
 42
0.0000001
 43
0.0000001
 44
0.0000000001
 40
0.0
 40
0.0
 40
0.0
 40
0.0
 40
0.0099543877
 40
0.0282423123
 40
0.0903962998
 40
0.1853959806
 40
0.3097139801
 40
0.4590484555
 40
0.6281076581
 40
1.0
 40
1.0
 40
1.0
 40
1.0
 10
80.4803747864
 20
236.2495327084
 30
0.0
 10
80.4778545529
 20
236.2516987649
 30
0.0
 10
80.4745310122
 20
236.2611771582
 30
0.0
 10
80.4681605791
 20
236.2901182961
 30
0.0
 10
80.4633004023
 20
236.3491664516
 30
0.0
 10
80.4592718861
 20
236.4427156349
 30
0.0
 10
80.4576254426
 20
236.5659250877
 30
0.0
 10
80.4578840253
 20
236.7136739649
 30
0.0
 10
80.4622150121
 20
236.9441118722
 30
0.0
 10
80.4703256069
 20
237.1245329618
 30
0.0
 10
80.4761867515
 20
237.2485465116
 30
0.0
  0
SPLINE
  5
627
100
AcDbEntity
  8
0
100
AcDbSpline
 62
7
  6
CONTINUOUS
 70
0
 71
3
 72
15
 73
11
 74
0
 42
0.0000001
 43
0.0000001
 44
0.0000000001
 40
0.0
 40
0.0
 40
0.0
 40
0.0
 40
0.0099595006
 40
0.0282509104
 40
0.0904076302
 40
0.185406853
 40
0.3097253564
 40
0.4590611888
 40
0.628117522
 40
1.0
 40
1.0
 40
1.0
 40
1.0
 10
80.4803943382
 20
247.2475598339
 30
0.0
 10
80.477871533
 20
247.2453940573
 30
0.0
 10
80.4745383493
 20
247.2359162486
 30
0.0
 10
80.4681492815
 20
247.206973705
 30
0.0
 10
80.4632698235
 20
247.1479240605
 30
0.0
 10
80.459239605
 20
247.0543721035
 30
0.0
 10
80.45754886
 20
246.9311611279
 30
0.0
 10
80.4576804301
 20
246.7834097251
 30
0.0
 10
80.4619458021
 20
246.552968144
 30
0.0
 10
80.470330052
 20
246.3725591584
 30
0.0
 10
80.4761893209
 20
246.2485465116
 30
0.0
  0
SPLINE
  5
628
100
AcDbEntity
  8
0
100
AcDbSpline
 62
7
  6
CONTINUOUS
 70
0
 71
3
 72
9
 73
5
 74
0
 42
0.0000001
 43
0.0000001
 44
0.0000000001
 40
0.0
 40
0.0
 40
0.0
 40
0.0
 40
0.2163659319
 40
1.0
 40
1.0
 40
1.0
 40
1.0
 10
80.4804028452
 20
247.2475596263
 30
0.0
 10
80.4808588564
 20
247.2479478441
 30
0.0
 10
80.4755833114
 20
247.2489254405
 30
0.0
 10
80.4744355351
 20
247.2485465116
 30
0.0
 10
80.4722665057
 20
247.2485465116
 30
0.0
  0
SPLINE
  5
629
100
AcDbEntity
  8
0
100
AcDbSpline
 62
7
  6
CONTINUOUS
 70
0
 71
3
 72
9
 73
5
 74
0
 42
0.0000001
 43
0.0000001
 44
0.0000000001
 40
0.0
 40
0.0
 40
0.0
 40
0.0
 40
0.2341509466
 40
1.0
 40
1.0
 40
1.0
 40
1.0
 10
109.5413224995
 20
236.2495326785
 30
0.0
 10
109.5587690999
 20
236.2509549691
 30
0.0
 10
109.6327767119
 20
236.2637022269
 30
0.0
 10
109.7007151795
 20
236.3020360725
 30
0.0
 10
109.7452436279
 20
236.3380235157
 30
0.0
  0
SPLINE
  5
62A
100
AcDbEntity
  8
0
100
AcDbSpline
 62
7
  6
CONTINUOUS
 70
0
 71
3
 72
9
 73
5
 74
0
 42
0.0000001
 43
0.0000001
 44
0.0000000001
 40
0.0
 40
0.0
 40
0.0
 40
0.0
 40
0.2388252515
 40
1.0
 40
1.0
 40
1.0
 40
1.0
 10
109.7452436279
 20
236.3380235157
 30
0.0
 10
109.7535056629
 20
236.3447008091
 30
0.0
 10
109.7872332067
 20
236.3737290383
 30
0.0
 10
109.8175253434
 20
236.4066387675
 30
0.0
 10
109.8387509705
 20
236.433016362
 30
0.0
  0
SPLINE
  5
62B
100
AcDbEntity
  8
0
100
AcDbSpline
 62
7
  6
CONTINUOUS
 70
0
 71
3
 72
9
 73
5
 74
0
 42
0.0000001
 43
0.0000001
 44
0.0000000001
 40
0.0
 40
0.0
 40
0.0
 40
0.0
 40
0.4621390506
 40
1.0
 40
1.0
 40
1.0
 40
1.0
 10
109.8387509705
 20
236.433016362
 30
0.0
 10
109.9223898065
 20
236.5369563441
 30
0.0
 10
110.0460245672
 20
236.8061055116
 30
0.0
 10
110.0940648003
 20
237.0933963312
 30
0.0
 10
110.100229493
 20
237.2485465116
 30
0.0
  0
SPLINE
  5
62C
100
AcDbEntity
  8
0
100
AcDbSpline
 62
7
  6
CONTINUOUS
 70
0
 71
3
 72
8
 73
4
 74
0
 42
0.0000001
 43
0.0000001
 44
0.0000000001
 40
0.0
 40
0.0
 40
0.0
 40
0.0
 40
1.0
 40
1.0
 40
1.0
 40
1.0
 10
142.8393557278
 20
236.2762337986
 30
0.0
 10
142.7228445817
 20
236.3060722363
 30
0.0
 10
142.6105469676
 20
236.3607811728
 30
0.0
 10
142.5143868017
 20
236.4330196806
 30
0.0
  0
SPLINE
  5
62D
100
AcDbEntity
  8
0
100
AcDbSpline
 62
7
  6
CONTINUOUS
 70
0
 71
3
 72
9
 73
5
 74
0
 42
0.0000001
 43
0.0000001
 44
0.0000000001
 40
0.0
 40
0.0
 40
0.0
 40
0.0
 40
0.4947270559
 40
1.0
 40
1.0
 40
1.0
 40
1.0
 10
142.5143868017
 20
236.4330196806
 30
0.0
 10
142.3910960588
 20
236.5256395218
 30
0.0
 10
142.1857930806
 20
236.7768168819
 30
0.0
 10
142.1100683466
 20
237.0910776676
 30
0.0
 10
142.1073876448
 20
237.2485465116
 30
0.0
  0
SPLINE
  5
62E
100
AcDbEntity
  8
0
100
AcDbSpline
 62
7
  6
CONTINUOUS
 70
0
 71
3
 72
9
 73
5
 74
0
 42
0.0000001
 43
0.0000001
 44
0.0000000001
 40
0.0
 40
0.0
 40
0.0
 40
0.0
 40
0.2341510836
 40
1.0
 40
1.0
 40
1.0
 40
1.0
 10
109.5413449305
 20
247.2475598705
 30
0.0
 10
109.5587887987
 20
247.2461373057
 30
0.0
 10
109.6327847766
 20
247.233389016
 30
0.0
 10
109.7007077519
 20
247.1950516023
 30
0.0
 10
109.7452269266
 20
247.1590668087
 30
0.0
  0
SPLINE
  5
62F
100
AcDbEntity
  8
0
100
AcDbSpline
 62
7
  6
CONTINUOUS
 70
0
 71
3
 72
9
 73
5
 74
0
 42
0.0000001
 43
0.0000001
 44
0.0000000001
 40
0.0
 40
0.0
 40
0.0
 40
0.0
 40
0.2388235644
 40
1.0
 40
1.0
 40
1.0
 40
1.0
 10
109.7452269266
 20
247.1590668087
 30
0.0
 10
109.7534880648
 20
247.1523893409
 30
0.0
 10
109.7872123765
 20
247.1233607103
 30
0.0
 10
109.817501968
 20
247.0904513995
 30
0.0
 10
109.8387240945
 20
247.0640729902
 30
0.0
  0
SPLINE
  5
630
100
AcDbEntity
  8
0
100
AcDbSpline
 62
7
  6
CONTINUOUS
 70
0
 71
3
 72
9
 73
5
 74
0
 42
0.0000001
 43
0.0000001
 44
0.0000000001
 40
0.0
 40
0.0
 40
0.0
 40
0.0
 40
0.4620898971
 40
1.0
 40
1.0
 40
1.0
 40
1.0
 10
109.8387240945
 20
247.0640729902
 30
0.0
 10
109.9223400047
 20
246.9601411476
 30
0.0
 10
110.0457096073
 20
246.6909042493
 30
0.0
 10
110.0940685506
 20
246.4037033581
 30
0.0
 10
110.1002316159
 20
246.2485465116
 30
0.0
  0
SPLINE
  5
631
100
AcDbEntity
  8
0
100
AcDbSpline
 62
7
  6
CONTINUOUS
 70
0
 71
3
 72
9
 73
5
 74
0
 42
0.0000001
 43
0.0000001
 44
0.0000000001
 40
0.0
 40
0.0
 40
0.0
 40
0.0
 40
0.2091513547
 40
1.0
 40
1.0
 40
1.0
 40
1.0
 10
109.5414909979
 20
247.2475613619
 30
0.0
 10
109.5391908008
 20
247.2477490709
 30
0.0
 10
109.5281738145
 20
247.2484019438
 30
0.0
 10
109.5171341213
 20
247.2485465116
 30
0.0
 10
109.5084076426
 20
247.2485465116
 30
0.0
  0
SPLINE
  5
632
100
AcDbEntity
  8
0
100
AcDbSpline
 62
7
  6
CONTINUOUS
 70
0
 71
3
 72
8
 73
4
 74
0
 42
0.0000001
 43
0.0000001
 44
0.0000000001
 40
0.0
 40
0.0
 40
0.0
 40
0.0
 40
1.0
 40
1.0
 40
1.0
 40
1.0
 10
143.0158067757
 20
247.2475611898
 30
0.0
 10
143.0308764403
 20
247.2482781612
 30
0.0
 10
143.0459694705
 20
247.2485465116
 30
0.0
 10
143.0610561812
 20
247.2485465116
 30
0.0
  0
SPLINE
  5
633
100
AcDbEntity
  8
0
100
AcDbSpline
 62
7
  6
CONTINUOUS
 70
0
 71
3
 72
8
 73
4
 74
0
 42
0.0000001
 43
0.0000001
 44
0.0000000001
 40
0.0
 40
0.0
 40
0.0
 40
0.0
 40
1.0
 40
1.0
 40
1.0
 40
1.0
 10
142.8393779875
 20
247.2208655952
 30
0.0
 10
142.7228554813
 20
247.1910317445
 30
0.0
 10
142.6105468846
 20
247.1363228008
 30
0.0
 10
142.5143732821
 20
247.0640857516
 30
0.0
  0
SPLINE
  5
634
100
AcDbEntity
  8
0
100
AcDbSpline
 62
7
  6
CONTINUOUS
 70
0
 71
3
 72
9
 73
5
 74
0
 42
0.0000001
 43
0.0000001
 44
0.0000000001
 40
0.0
 40
0.0
 40
0.0
 40
0.0
 40
0.4947825834
 40
1.0
 40
1.0
 40
1.0
 40
1.0
 10
142.5143732821
 20
247.0640857516
 30
0.0
 10
142.3910514729
 20
246.9714573862
 30
0.0
 10
142.1854926013
 20
246.7203994428
 30
0.0
 10
142.1100732497
 20
246.4060109307
 30
0.0
 10
142.1073905223
 20
246.2485465116
 30
0.0
  0
SPLINE
  5
635
100
AcDbEntity
  8
0
100
AcDbSpline
 62
7
  6
CONTINUOUS
 70
0
 71
3
 72
8
 73
4
 74
0
 42
0.0000001
 43
0.0000001
 44
0.0000000001
 40
0.0
 40
0.0
 40
0.0
 40
0.0
 40
1.0
 40
1.0
 40
1.0
 40
1.0
 10
153.5414530687
 20
236.2762323456
 30
0.0
 10
153.6579669362
 20
236.3060697209
 30
0.0
 10
153.770267189
 20
236.3607786635
 30
0.0
 10
153.8664305612
 20
236.433016854
 30
0.0
  0
SPLINE
  5
636
100
AcDbEntity
  8
0
100
AcDbSpline
 62
7
  6
CONTINUOUS
 70
0
 71
3
 72
9
 73
5
 74
0
 42
0.0000001
 43
0.0000001
 44
0.0000000001
 40
0.0
 40
0.0
 40
0.0
 40
0.0
 40
0.4947402282
 40
1.0
 40
1.0
 40
1.0
 40
1.0
 10
153.8664305612
 20
236.433016854
 30
0.0
 10
153.9897286401
 20
236.5256387111
 30
0.0
 10
154.1950924133
 20
236.7767876358
 30
0.0
 10
154.2707443888
 20
237.0910787481
 30
0.0
 10
154.273425579
 20
237.2485465116
 30
0.0
  0
SPLINE
  5
637
100
AcDbEntity
  8
0
100
AcDbSpline
 62
7
  6
CONTINUOUS
 70
0
 71
3
 72
9
 73
5
 74
0
 42
0.0000001
 43
0.0000001
 44
0.0000000001
 40
0.0
 40
0.0
 40
0.0
 40
0.0
 40
0.234152572
 40
1.0
 40
1.0
 40
1.0
 40
1.0
 10
186.8394757532
 20
236.2495330077
 30
0.0
 10
186.8220308248
 20
236.2509554902
 30
0.0
 10
186.7480307972
 20
236.2637034302
 30
0.0
 10
186.6801027374
 20
236.3020402872
 30
0.0
 10
186.6355807106
 20
236.3380262599
 30
0.0
  0
SPLINE
  5
638
100
AcDbEntity
  8
0
100
AcDbSpline
 62
7
  6
CONTINUOUS
 70
0
 71
3
 72
9
 73
5
 74
0
 42
0.0000001
 43
0.0000001
 44
0.0000000001
 40
0.0
 40
0.0
 40
0.0
 40
0.0
 40
0.2388238457
 40
1.0
 40
1.0
 40
1.0
 40
1.0
 10
186.6355807106
 20
236.3380262599
 30
0.0
 10
186.6273193729
 20
236.34470368
 30
0.0
 10
186.5935943431
 20
236.373732218
 30
0.0
 10
186.5633041951
 20
236.4066415946
 30
0.0
 10
186.5420811009
 20
236.4330196702
 30
0.0
  0
SPLINE
  5
639
100
AcDbEntity
  8
0
100
AcDbSpline
 62
7
  6
CONTINUOUS
 70
0
 71
3
 72
9
 73
5
 74
0
 42
0.0000001
 43
0.0000001
 44
0.0000000001
 40
0.0
 40
0.0
 40
0.0
 40
0.0
 40
0.462105676
 40
1.0
 40
1.0
 40
1.0
 40
1.0
 10
186.5420811009
 20
236.4330196702
 30
0.0
 10
186.4584581529
 20
236.5369542063
 30
0.0
 10
186.3350041332
 20
236.8061627109
 30
0.0
 10
186.2867461447
 20
237.0933919644
 30
0.0
 10
186.2805826134
 20
237.2485465116
 30
0.0
  0
SPLINE
  5
63A
100
AcDbEntity
  8
0
100
AcDbSpline
 62
7
  6
CONTINUOUS
 70
0
 71
3
 72
8
 73
4
 74
0
 42
0.0000001
 43
0.0000001
 44
0.0000000001
 40
0.0
 40
0.0
 40
0.0
 40
0.0
 40
1.0
 40
1.0
 40
1.0
 40
1.0
 10
153.5414594278
 20
247.2208587843
 30
0.0
 10
153.657968948
 20
247.1910198715
 30
0.0
 10
153.7702650744
 20
247.1363111695
 30
0.0
 10
153.8664233235
 20
247.0640725362
 30
0.0
  0
SPLINE
  5
63B
100
AcDbEntity
  8
0
100
AcDbSpline
 62
7
  6
CONTINUOUS
 70
0
 71
3
 72
9
 73
5
 74
0
 42
0.0000001
 43
0.0000001
 44
0.0000000001
 40
0.0
 40
0.0
 40
0.0
 40
0.0
 40
0.4947176356
 40
1.0
 40
1.0
 40
1.0
 40
1.0
 10
153.8664233235
 20
247.0640725362
 30
0.0
 10
153.9897092881
 20
246.9714542776
 30
0.0
 10
154.1949695413
 20
246.7202561716
 30
0.0
 10
154.2707460732
 20
246.4060164232
 30
0.0
 10
154.2734264941
 20
246.2485465116
 30
0.0
  0
SPLINE
  5
63C
100
AcDbEntity
  8
0
100
AcDbSpline
 62
7
  6
CONTINUOUS
 70
0
 71
3
 72
8
 73
4
 74
0
 42
0.0000001
 43
0.0000001
 44
0.0000000001
 40
0.0
 40
0.0
 40
0.0
 40
0.0
 40
1.0
 40
1.0
 40
1.0
 40
1.0
 10
153.3650447114
 20
247.247565699
 30
0.0
 10
153.3499626131
 20
247.2482838478
 30
0.0
 10
153.3348569586
 20
247.2485465116
 30
0.0
 10
153.3197577723
 20
247.2485465116
 30
0.0
  0
SPLINE
  5
63D
100
AcDbEntity
  8
0
100
AcDbSpline
 62
7
  6
CONTINUOUS
 70
0
 71
3
 72
9
 73
5
 74
0
 42
0.0000001
 43
0.0000001
 44
0.0000000001
 40
0.0
 40
0.0
 40
0.0
 40
0.0
 40
0.2084677596
 40
1.0
 40
1.0
 40
1.0
 40
1.0
 10
186.8393837508
 20
247.2475570597
 30
0.0
 10
186.8416722594
 20
247.2477435946
 30
0.0
 10
186.8526679981
 20
247.2484124915
 30
0.0
 10
186.8636882446
 20
247.2485465116
 30
0.0
 10
186.8724063109
 20
247.2485465116
 30
0.0
  0
SPLINE
  5
63E
100
AcDbEntity
  8
0
100
AcDbSpline
 62
7
  6
CONTINUOUS
 70
0
 71
3
 72
9
 73
5
 74
0
 42
0.0000001
 43
0.0000001
 44
0.0000000001
 40
0.0
 40
0.0
 40
0.0
 40
0.0
 40
0.2341509318
 40
1.0
 40
1.0
 40
1.0
 40
1.0
 10
186.8395331678
 20
247.2475612258
 30
0.0
 10
186.8220818432
 20
247.2461394721
 30
0.0
 10
186.7480541754
 20
247.2333945288
 30
0.0
 10
186.6800881851
 20
247.195068676
 30
0.0
 10
186.6355430919
 20
247.159077547
 30
0.0
  0
SPLINE
  5
63F
100
AcDbEntity
  8
0
100
AcDbSpline
 62
7
  6
CONTINUOUS
 70
0
 71
3
 72
9
 73
5
 74
0
 42
0.0000001
 43
0.0000001
 44
0.0000000001
 40
0.0
 40
0.0
 40
0.0
 40
0.0
 40
0.2388283206
 40
1.0
 40
1.0
 40
1.0
 40
1.0
 10
186.6355430919
 20
247.159077547
 30
0.0
 10
186.627279226
 20
247.1524005858
 30
0.0
 10
186.59354499
 20
247.1233730945
 30
0.0
 10
186.5632475052
 20
247.0904624165
 30
0.0
 10
186.5420150142
 20
247.0640861087
 30
0.0
  0
SPLINE
  5
640
100
AcDbEntity
  8
0
100
AcDbSpline
 62
7
  6
CONTINUOUS
 70
0
 71
3
 72
9
 73
5
 74
0
 42
0.0000001
 43
0.0000001
 44
0.0000000001
 40
0.0
 40
0.0
 40
0.0
 40
0.0
 40
0.4622289204
 40
1.0
 40
1.0
 40
1.0
 40
1.0
 10
186.5420150142
 20
247.0640861087
 30
0.0
 10
186.4583332106
 20
246.9601314191
 30
0.0
 10
186.3342120623
 20
246.6911416464
 30
0.0
 10
186.2867572402
 20
246.4036851033
 30
0.0
 10
186.2805894097
 20
246.2485465116
 30
0.0
  0
SPLINE
  5
641
100
AcDbEntity
  8
0
100
AcDbSpline
 62
7
  6
CONTINUOUS
 70
0
 71
3
 72
15
 73
11
 74
0
 42
0.0000001
 43
0.0000001
 44
0.0000000001
 40
0.0
 40
0.0
 40
0.0
 40
0.0
 40
0.0099572619
 40
0.028247352
 40
0.0904031414
 40
0.1854025863
 40
0.3097209004
 40
0.4590561876
 40
0.6281136438
 40
1.0
 40
1.0
 40
1.0
 40
1.0
 10
215.9004268543
 20
236.2495330077
 30
0.0
 10
215.902948379
 20
236.2516990909
 30
0.0
 10
215.9062773662
 20
236.2611770217
 30
0.0
 10
215.9126597261
 20
236.2901189779
 30
0.0
 10
215.9175326598
 20
236.3491679479
 30
0.0
 10
215.9215624477
 20
236.4427189237
 30
0.0
 10
215.9232357069
 20
236.5659292854
 30
0.0
 10
215.9230542407
 20
236.7136797036
 30
0.0
 10
215.918762761
 20
236.944119809
 30
0.0
 10
215.9104850919
 20
237.124533516
 30
0.0
 10
215.9046251222
 20
237.2485465116
 30
0.0
  0
SPLINE
  5
642
100
AcDbEntity
  8
0
100
AcDbSpline
 62
7
  6
CONTINUOUS
 70
0
 71
3
 72
9
 73
5
 74
0
 42
0.0000001
 43
0.0000001
 44
0.0000000001
 40
0.0
 40
0.0
 40
0.0
 40
0.0
 40
0.2112773838
 40
1.0
 40
1.0
 40
1.0
 40
1.0
 10
215.9004667919
 20
247.2475552352
 30
0.0
 10
215.9000250889
 20
247.2479333409
 30
0.0
 10
215.9052204547
 20
247.2489764877
 30
0.0
 10
215.9063768882
 20
247.2485465116
 30
0.0
 10
215.9085474478
 20
247.2485465116
 30
0.0
  0
SPLINE
  5
643
100
AcDbEntity
  8
0
100
AcDbSpline
 62
7
  6
CONTINUOUS
 70
0
 71
3
 72
15
 73
11
 74
0
 42
0.0000001
 43
0.0000001
 44
0.0000000001
 40
0.0
 40
0.0
 40
0.0
 40
0.0
 40
0.0099451026
 40
0.0282266572
 40
0.0903755991
 40
0.1853760703
 40
0.3096932249
 40
0.4590254923
 40
0.628089852
 40
1.0
 40
1.0
 40
1.0
 40
1.0
 10
215.9004750261
 20
247.2475611957
 30
0.0
 10
215.9029906136
 20
247.2453946605
 30
0.0
 10
215.9062966244
 20
247.2359151963
 30
0.0
 10
215.9126329391
 20
247.2069766293
 30
0.0
 10
215.9174575579
 20
247.1479311447
 30
0.0
 10
215.9214824744
 20
247.0543869626
 30
0.0
 10
215.9230488309
 20
246.9311801334
 30
0.0
 10
215.9225614643
 20
246.783435952
 30
0.0
 10
215.9181133061
 20
246.5530043456
 30
0.0
 10
215.9104977761
 20
246.3725617299
 30
0.0
 10
215.9046331458
 20
246.2485465116
 30
0.0
  0
SPLINE
  5
644
100
AcDbEntity
  8
0
100
AcDbSpline
 62
7
  6
CONTINUOUS
 70
0
 71
3
 72
8
 73
4
 74
0
 42
0.0000001
 43
0.0000001
 44
0.0000000001
 40
0.0
 40
0.0
 40
0.0
 40
0.0
 40
1.0
 40
1.0
 40
1.0
 40
1.0
 10
314.2216752521
 20
52.2999394239
 30
0.0
 10
314.3552004058
 20
52.2355908461
 30
0.0
 10
314.5069886467
 20
52.2009127782
 30
0.0
 10
314.6552103746
 20
52.2010725793
 30
0.0
  0
SPLINE
  5
645
100
AcDbEntity
  8
0
100
AcDbSpline
 62
7
  6
CONTINUOUS
 70
0
 71
3
 72
8
 73
4
 74
0
 42
0.0000001
 43
0.0000001
 44
0.0000000001
 40
0.0
 40
0.0
 40
0.0
 40
0.0
 40
1.0
 40
1.0
 40
1.0
 40
1.0
 10
314.2216753662
 20
190.0634327241
 30
0.0
 10
314.355200491
 20
190.1277812671
 30
0.0
 10
314.5069886878
 20
190.1624593148
 30
0.0
 10
314.6552103746
 20
190.1622995137
 30
0.0
  0
LINE
  5
646
100
AcDbEntity
  8
0
100
AcDbLine
 62
7
  6
CONTINUOUS
 10
323.6272494713
 20
194.8077264786
 11
323.6864407689
 21
194.2294548145
  0
LINE
  5
647
100
AcDbEntity
  8
0
100
AcDbLine
 62
7
  6
CONTINUOUS
 10
323.6864407689
 20
194.2294548145
 11
323.703961045
 21
194.0575447498
  0
LINE
  5
648
100
AcDbEntity
  8
0
100
AcDbLine
 62
7
  6
CONTINUOUS
 10
312.780345394
 20
194.7854361088
 11
312.7234434425
 21
194.2294578843
  0
LINE
  5
649
100
AcDbEntity
  8
0
100
AcDbLine
 62
7
  6
CONTINUOUS
 10
312.7234434425
 20
194.2294578843
 11
312.7059257695
 21
194.0575723264
  0
LINE
  5
64A
100
AcDbEntity
  8
0
100
AcDbLine
 62
7
  6
CONTINUOUS
 10
323.6769785791
 20
194.498069063
 11
323.6237626814
 21
194.9973601475
  0
LINE
  5
64B
100
AcDbEntity
  8
0
100
AcDbLine
 62
7
  6
CONTINUOUS
 10
323.6237626814
 20
194.9973601475
 11
323.3778874927
 21
197.3472620724
  0
SPLINE
  5
64C
100
AcDbEntity
  8
0
100
AcDbSpline
 62
7
  6
CONTINUOUS
 70
0
 71
3
 72
9
 73
5
 74
0
 42
0.0000001
 43
0.0000001
 44
0.0000000001
 40
0.0
 40
0.0
 40
0.0
 40
0.0
 40
0.2914689762
 40
1.0
 40
1.0
 40
1.0
 40
1.0
 10
312.705924904
 20
183.1811073473
 30
0.0
 10
312.7057620788
 20
183.1780355941
 30
0.0
 10
312.7052644555
 20
183.1674940597
 30
0.0
 10
312.7049418605
 20
183.1569409772
 30
0.0
 10
312.7049418605
 20
183.1494633789
 30
0.0
  0
SPLINE
  5
64D
100
AcDbEntity
  8
0
100
AcDbSpline
 62
7
  6
CONTINUOUS
 70
0
 71
3
 72
9
 73
5
 74
0
 42
0.0000001
 43
0.0000001
 44
0.0000000001
 40
0.0
 40
0.0
 40
0.0
 40
0.0
 40
0.2915676363
 40
1.0
 40
1.0
 40
1.0
 40
1.0
 10
312.7059286103
 20
59.1822046165
 30
0.0
 10
312.7057654392
 20
59.1852832557
 30
0.0
 10
312.7052651347
 20
59.1958447553
 30
0.0
 10
312.7049418605
 20
59.2064179348
 30
0.0
 10
312.7049418605
 20
59.2139087142
 30
0.0
  0
SPLINE
  5
64E
100
AcDbEntity
  8
0
100
AcDbSpline
 62
7
  6
CONTINUOUS
 70
0
 71
3
 72
9
 73
5
 74
0
 42
0.0000001
 43
0.0000001
 44
0.0000000001
 40
0.0
 40
0.0
 40
0.0
 40
0.0
 40
0.2919044339
 40
1.0
 40
1.0
 40
1.0
 40
1.0
 10
323.7039565435
 20
183.181084914
 30
0.0
 10
323.7041194295
 20
183.1780107363
 30
0.0
 10
323.7046218511
 20
183.1674768808
 30
0.0
 10
323.7049418605
 20
183.1569311142
 30
0.0
 10
323.7049418605
 20
183.1494633789
 30
0.0
  0
LINE
  5
64F
100
AcDbEntity
  8
0
100
AcDbLine
 62
7
  6
CONTINUOUS
 10
312.7059249043
 20
48.3058087313
 11
312.7333345479
 21
48.0370132309
  0
LINE
  5
650
100
AcDbEntity
  8
0
100
AcDbLine
 62
7
  6
CONTINUOUS
 10
312.7333345479
 20
48.0370132309
 11
312.7802790596
 21
47.5785821791
  0
SPLINE
  5
651
100
AcDbEntity
  8
0
100
AcDbSpline
 62
7
  6
CONTINUOUS
 70
0
 71
3
 72
9
 73
5
 74
0
 42
0.0000001
 43
0.0000001
 44
0.0000000001
 40
0.0
 40
0.0
 40
0.0
 40
0.0
 40
0.2913985812
 40
1.0
 40
1.0
 40
1.0
 40
1.0
 10
323.7039567107
 20
59.1822103453
 30
0.0
 10
323.7041197847
 20
59.1852866363
 30
0.0
 10
323.7046178659
 20
59.1958463117
 30
0.0
 10
323.7049418605
 20
59.2064175149
 30
0.0
 10
323.7049418605
 20
59.2139087142
 30
0.0
  0
LINE
  5
652
100
AcDbEntity
  8
0
100
AcDbLine
 62
7
  6
CONTINUOUS
 10
323.7039565386
 20
48.3057816209
 11
323.6765413392
 21
48.0369340861
  0
LINE
  5
653
100
AcDbEntity
  8
0
100
AcDbLine
 62
7
  6
CONTINUOUS
 10
323.6765413392
 20
48.0369340861
 11
323.6269476188
 21
47.5527046805
  0
SPLINE
  5
654
100
AcDbEntity
  8
0
100
AcDbSpline
 62
7
  6
CONTINUOUS
 70
0
 71
3
 72
9
 73
5
 74
0
 42
0.0000001
 43
0.0000001
 44
0.0000000001
 40
0.0
 40
0.0
 40
0.0
 40
0.0
 40
0.1721061713
 40
1.0
 40
1.0
 40
1.0
 40
1.0
 10
312.7059330899
 20
177.0978535581
 30
0.0
 10
312.7057222639
 20
177.0990822736
 30
0.0
 10
312.7049945389
 20
177.1062989327
 30
0.0
 10
312.7049418605
 20
177.1135529294
 30
0.0
 10
312.7049418605
 20
177.1195498759
 30
0.0
  0
SPLINE
  5
655
100
AcDbEntity
  8
0
100
AcDbSpline
 62
7
  6
CONTINUOUS
 70
0
 71
3
 72
8
 73
4
 74
0
 42
0.0000001
 43
0.0000001
 44
0.0000000001
 40
0.0
 40
0.0
 40
0.0
 40
0.0
 40
1.0
 40
1.0
 40
1.0
 40
1.0
 10
312.7059316577
 20
138.7800388245
 30
0.0
 10
312.7051451954
 20
138.793793127
 30
0.0
 10
312.7049418605
 20
138.8075805084
 30
0.0
 10
312.7049418605
 20
138.8213572772
 30
0.0
  0
SPLINE
  5
656
100
AcDbEntity
  8
0
100
AcDbSpline
 62
7
  6
CONTINUOUS
 70
0
 71
3
 72
8
 73
4
 74
0
 42
0.0000001
 43
0.0000001
 44
0.0000000001
 40
0.0
 40
0.0
 40
0.0
 40
0.0
 40
1.0
 40
1.0
 40
1.0
 40
1.0
 10
312.7059249028
 20
103.5832104335
 30
0.0
 10
312.7051406298
 20
103.5694970599
 30
0.0
 10
312.7049418605
 20
103.5557505975
 30
0.0
 10
312.7049418605
 20
103.5420148158
 30
0.0
  0
SPLINE
  5
657
100
AcDbEntity
  8
0
100
AcDbSpline
 62
7
  6
CONTINUOUS
 70
0
 71
3
 72
9
 73
5
 74
0
 42
0.0000001
 43
0.0000001
 44
0.0000000001
 40
0.0
 40
0.0
 40
0.0
 40
0.0
 40
0.1724311229
 40
1.0
 40
1.0
 40
1.0
 40
1.0
 10
312.7059249043
 20
65.2654608357
 30
0.0
 10
312.7057141731
 20
65.2642331093
 30
0.0
 10
312.7049981641
 20
65.2570345687
 30
0.0
 10
312.7049418605
 20
65.2498007574
 30
0.0
 10
312.7049418605
 20
65.2438222171
 30
0.0
  0
SPLINE
  5
658
100
AcDbEntity
  8
0
100
AcDbSpline
 62
7
  6
CONTINUOUS
 70
0
 71
3
 72
9
 73
5
 74
0
 42
0.0000001
 43
0.0000001
 44
0.0000000001
 40
0.0
 40
0.0
 40
0.0
 40
0.0
 40
0.1982900408
 40
1.0
 40
1.0
 40
1.0
 40
1.0
 10
312.7059280785
 20
194.0575241914
 30
0.0
 10
312.7081034563
 20
194.0750359055
 30
0.0
 10
312.7390067372
 20
194.1611665675
 30
0.0
 10
312.8246752095
 20
194.2118118075
 30
0.0
 10
312.8894122289
 20
194.2418015995
 30
0.0
  0
SPLINE
  5
659
100
AcDbEntity
  8
0
100
AcDbSpline
 62
7
  6
CONTINUOUS
 70
0
 71
3
 72
9
 73
5
 74
0
 42
0.0000001
 43
0.0000001
 44
0.0000000001
 40
0.0
 40
0.0
 40
0.0
 40
0.0
 40
0.4457447346
 40
1.0
 40
1.0
 40
1.0
 40
1.0
 10
312.8894122289
 20
194.2418015995
 30
0.0
 10
313.0011408355
 20
194.2935605112
 30
0.0
 10
313.2751877058
 20
194.3557911694
 30
0.0
 10
313.5519801981
 20
194.3638781168
 30
0.0
 10
313.7049418605
 20
194.3571231224
 30
0.0
  0
SPLINE
  5
65A
100
AcDbEntity
  8
0
100
AcDbSpline
 62
7
  6
CONTINUOUS
 70
0
 71
3
 72
9
 73
5
 74
0
 42
0.0000001
 43
0.0000001
 44
0.0000000001
 40
0.0
 40
0.0
 40
0.0
 40
0.0
 40
0.1983119855
 40
1.0
 40
1.0
 40
1.0
 40
1.0
 10
323.7039551708
 20
194.0575095318
 30
0.0
 10
323.7017791115
 20
194.075025639
 30
0.0
 10
323.6708792083
 20
194.1611700451
 30
0.0
 10
323.5852083639
 20
194.2118356276
 30
0.0
 10
323.5204678672
 20
194.24183722
 30
0.0
  0
SPLINE
  5
65B
100
AcDbEntity
  8
0
100
AcDbSpline
 62
7
  6
CONTINUOUS
 70
0
 71
3
 72
9
 73
5
 74
0
 42
0.0000001
 43
0.0000001
 44
0.0000000001
 40
0.0
 40
0.0
 40
0.0
 40
0.0
 40
0.4457895405
 40
1.0
 40
1.0
 40
1.0
 40
1.0
 10
323.5204678672
 20
194.24183722
 30
0.0
 10
323.4087304919
 20
194.2936177801
 30
0.0
 10
323.1347333538
 20
194.3561614327
 30
0.0
 10
322.8578970611
 20
194.3638733839
 30
0.0
 10
322.7049418605
 20
194.3571207498
 30
0.0
  0
SPLINE
  5
65C
100
AcDbEntity
  8
0
100
AcDbSpline
 62
7
  6
CONTINUOUS
 70
0
 71
3
 72
11
 73
7
 74
0
 42
0.0000001
 43
0.0000001
 44
0.0000000001
 40
0.0
 40
0.0
 40
0.0
 40
0.0
 40
0.12406004
 40
0.3457143586
 40
0.6503288118
 40
1.0
 40
1.0
 40
1.0
 40
1.0
 10
312.7059281086
 20
177.0979795849
 30
0.0
 10
312.7133964603
 20
177.0543898876
 30
0.0
 10
312.826301847
 20
176.9689176078
 30
0.0
 10
313.0383235312
 20
176.896758445
 30
0.0
 10
313.3488243231
 20
176.8344756601
 30
0.0
 10
313.5804214189
 20
176.8120443444
 30
0.0
 10
313.7049418605
 20
176.8063494715
 30
0.0
  0
SPLINE
  5
65D
100
AcDbEntity
  8
0
100
AcDbSpline
 62
7
  6
CONTINUOUS
 70
0
 71
3
 72
11
 73
7
 74
0
 42
0.0000001
 43
0.0000001
 44
0.0000000001
 40
0.0
 40
0.0
 40
0.0
 40
0.0
 40
0.1240387231
 40
0.3456879773
 40
0.6502995629
 40
1.0
 40
1.0
 40
1.0
 40
1.0
 10
323.703955121
 20
177.0979568693
 30
0.0
 10
323.696484672
 20
177.0543778886
 30
0.0
 10
323.5835606984
 20
176.9689524168
 30
0.0
 10
323.371559052
 20
176.8968090526
 30
0.0
 10
323.0610167599
 20
176.8348304039
 30
0.0
 10
322.8294654515
 20
176.8120401192
 30
0.0
 10
322.7049418605
 20
176.806346915
 30
0.0
  0
SPLINE
  5
65E
100
AcDbEntity
  8
0
100
AcDbSpline
 62
7
  6
CONTINUOUS
 70
0
 71
3
 72
9
 73
5
 74
0
 42
0.0000001
 43
0.0000001
 44
0.0000000001
 40
0.0
 40
0.0
 40
0.0
 40
0.0
 40
0.1725729747
 40
1.0
 40
1.0
 40
1.0
 40
1.0
 10
323.7039517417
 20
177.0978269517
 30
0.0
 10
323.7041635362
 20
177.0990604705
 30
0.0
 10
323.7048820822
 20
177.1062871148
 30
0.0
 10
323.7049418605
 20
177.1135490394
 30
0.0
 10
323.7049418605
 20
177.1195498759
 30
0.0
  0
SPLINE
  5
65F
100
AcDbEntity
  8
0
100
AcDbSpline
 62
7
  6
CONTINUOUS
 70
0
 71
3
 72
8
 73
4
 74
0
 42
0.0000001
 43
0.0000001
 44
0.0000000001
 40
0.0
 40
0.0
 40
0.0
 40
0.0
 40
1.0
 40
1.0
 40
1.0
 40
1.0
 10
312.7059280844
 20
138.7803134831
 30
0.0
 10
312.7087751188
 20
138.7305064448
 30
0.0
 10
312.7180115903
 20
138.6807484823
 30
0.0
 10
312.7326277398
 20
138.6330492701
 30
0.0
  0
SPLINE
  5
660
100
AcDbEntity
  8
0
100
AcDbSpline
 62
7
  6
CONTINUOUS
 70
0
 71
3
 72
9
 73
5
 74
0
 42
0.0000001
 43
0.0000001
 44
0.0000000001
 40
0.0
 40
0.0
 40
0.0
 40
0.0
 40
0.2426784044
 40
1.0
 40
1.0
 40
1.0
 40
1.0
 10
312.7326277398
 20
138.6330492701
 30
0.0
 10
312.740117385
 20
138.6086071161
 30
0.0
 10
312.7767699156
 20
138.5096821588
 30
0.0
 10
312.8363558655
 20
138.4198606434
 30
0.0
 10
312.8894122858
 20
138.3602842028
 30
0.0
  0
SPLINE
  5
661
100
AcDbEntity
  8
0
100
AcDbSpline
 62
7
  6
CONTINUOUS
 70
0
 71
3
 72
9
 73
5
 74
0
 42
0.0000001
 43
0.0000001
 44
0.0000000001
 40
0.0
 40
0.0
 40
0.0
 40
0.0
 40
0.4811590751
 40
1.0
 40
1.0
 40
1.0
 40
1.0
 10
312.8894122858
 20
138.3602842028
 30
0.0
 10
312.9860199033
 20
138.2518046268
 30
0.0
 10
313.245956197
 20
138.0778299437
 30
0.0
 10
313.5483741311
 20
138.0135171519
 30
0.0
 10
313.7049418605
 20
138.0088451736
 30
0.0
  0
SPLINE
  5
662
100
AcDbEntity
  8
0
100
AcDbSpline
 62
7
  6
CONTINUOUS
 70
0
 71
3
 72
8
 73
4
 74
0
 42
0.0000001
 43
0.0000001
 44
0.0000000001
 40
0.0
 40
0.0
 40
0.0
 40
0.0
 40
1.0
 40
1.0
 40
1.0
 40
1.0
 10
312.7059283578
 20
103.5830706454
 30
0.0
 10
312.7087757074
 20
103.6328752076
 30
0.0
 10
312.7180124787
 20
103.6826306842
 30
0.0
 10
312.7326291484
 20
103.7303271703
 30
0.0
  0
SPLINE
  5
663
100
AcDbEntity
  8
0
100
AcDbSpline
 62
7
  6
CONTINUOUS
 70
0
 71
3
 72
9
 73
5
 74
0
 42
0.0000001
 43
0.0000001
 44
0.0000000001
 40
0.0
 40
0.0
 40
0.0
 40
0.0
 40
0.2426731983
 40
1.0
 40
1.0
 40
1.0
 40
1.0
 10
312.7326291484
 20
103.7303271703
 30
0.0
 10
312.7401189905
 20
103.7547676999
 30
0.0
 10
312.7767733761
 20
103.8536877492
 30
0.0
 10
312.8363582774
 20
103.9435051984
 30
0.0
 10
312.8894150314
 20
104.003078119
 30
0.0
  0
SPLINE
  5
664
100
AcDbEntity
  8
0
100
AcDbSpline
 62
7
  6
CONTINUOUS
 70
0
 71
3
 72
9
 73
5
 74
0
 42
0.0000001
 43
0.0000001
 44
0.0000000001
 40
0.0
 40
0.0
 40
0.0
 40
0.0
 40
0.2364671096
 40
1.0
 40
1.0
 40
1.0
 40
1.0
 10
312.8894150314
 20
104.003078119
 30
0.0
 10
312.936696585
 20
104.0561665578
 30
0.0
 10
313.1646590406
 20
104.2553784893
 30
0.0
 10
313.475497008
 20
104.3476827779
 30
0.0
 10
313.7049418605
 20
104.3545281722
 30
0.0
  0
SPLINE
  5
665
100
AcDbEntity
  8
0
100
AcDbSpline
 62
7
  6
CONTINUOUS
 70
0
 71
3
 72
8
 73
4
 74
0
 42
0.0000001
 43
0.0000001
 44
0.0000000001
 40
0.0
 40
0.0
 40
0.0
 40
0.0
 40
1.0
 40
1.0
 40
1.0
 40
1.0
 10
323.7039551501
 20
138.7802922179
 30
0.0
 10
323.7011075501
 20
138.7304905311
 30
0.0
 10
323.691870635
 20
138.6807379788
 30
0.0
 10
323.6772540187
 20
138.633044464
 30
0.0
  0
SPLINE
  5
666
100
AcDbEntity
  8
0
100
AcDbSpline
 62
7
  6
CONTINUOUS
 70
0
 71
3
 72
9
 73
5
 74
0
 42
0.0000001
 43
0.0000001
 44
0.0000000001
 40
0.0
 40
0.0
 40
0.0
 40
0.0
 40
0.2426695173
 40
1.0
 40
1.0
 40
1.0
 40
1.0
 10
323.6772540187
 20
138.633044464
 30
0.0
 10
323.6697640716
 20
138.6086050251
 30
0.0
 10
323.6331085805
 20
138.5096881943
 30
0.0
 10
323.5735248219
 20
138.419873056
 30
0.0
 10
323.5204676696
 20
138.3603025803
 30
0.0
  0
SPLINE
  5
667
100
AcDbEntity
  8
0
100
AcDbSpline
 62
7
  6
CONTINUOUS
 70
0
 71
3
 72
9
 73
5
 74
0
 42
0.0000001
 43
0.0000001
 44
0.0000000001
 40
0.0
 40
0.0
 40
0.0
 40
0.0
 40
0.236455114
 40
1.0
 40
1.0
 40
1.0
 40
1.0
 10
323.5204676696
 20
138.3603025803
 30
0.0
 10
323.47318753
 20
138.3072183065
 30
0.0
 10
323.245200526
 20
138.1080406555
 30
0.0
 10
322.9343889106
 20
138.0156880806
 30
0.0
 10
322.7049418605
 20
138.0088435273
 30
0.0
  0
SPLINE
  5
668
100
AcDbEntity
  8
0
100
AcDbSpline
 62
7
  6
CONTINUOUS
 70
0
 71
3
 72
8
 73
4
 74
0
 42
0.0000001
 43
0.0000001
 44
0.0000000001
 40
0.0
 40
0.0
 40
0.0
 40
0.0
 40
1.0
 40
1.0
 40
1.0
 40
1.0
 10
323.7039533207
 20
138.7800124216
 30
0.0
 10
323.704740551
 20
138.7937754829
 30
0.0
 10
323.7049418605
 20
138.80757172
 30
0.0
 10
323.7049418605
 20
138.8213572772
 30
0.0
  0
SPLINE
  5
669
100
AcDbEntity
  8
0
100
AcDbSpline
 62
7
  6
CONTINUOUS
 70
0
 71
3
 72
8
 73
4
 74
0
 42
0.0000001
 43
0.0000001
 44
0.0000000001
 40
0.0
 40
0.0
 40
0.0
 40
0.0
 40
1.0
 40
1.0
 40
1.0
 40
1.0
 10
323.7039565369
 20
103.5831304049
 30
0.0
 10
323.7047386487
 20
103.5694436017
 30
0.0
 10
323.7049418605
 20
103.5557239471
 30
0.0
 10
323.7049418605
 20
103.5420148158
 30
0.0
  0
SPLINE
  5
66A
100
AcDbEntity
  8
0
100
AcDbSpline
 62
7
  6
CONTINUOUS
 70
0
 71
3
 72
8
 73
4
 74
0
 42
0.0000001
 43
0.0000001
 44
0.0000000001
 40
0.0
 40
0.0
 40
0.0
 40
0.0
 40
1.0
 40
1.0
 40
1.0
 40
1.0
 10
323.7039565378
 20
103.5830191247
 30
0.0
 10
323.7011106561
 20
103.6328347306
 30
0.0
 10
323.6918755312
 20
103.6826013845
 30
0.0
 10
323.6772609429
 20
103.7303099522
 30
0.0
  0
SPLINE
  5
66B
100
AcDbEntity
  8
0
100
AcDbSpline
 62
7
  6
CONTINUOUS
 70
0
 71
3
 72
9
 73
5
 74
0
 42
0.0000001
 43
0.0000001
 44
0.0000000001
 40
0.0
 40
0.0
 40
0.0
 40
0.0
 40
0.2426944695
 40
1.0
 40
1.0
 40
1.0
 40
1.0
 10
323.6772609429
 20
103.7303099522
 30
0.0
 10
323.6697720205
 20
103.754757152
 30
0.0
 10
323.6331254789
 20
103.8536973938
 30
0.0
 10
323.5735359159
 20
103.9435310704
 30
0.0
 10
323.5204810981
 20
104.0031188741
 30
0.0
  0
SPLINE
  5
66C
100
AcDbEntity
  8
0
100
AcDbSpline
 62
7
  6
CONTINUOUS
 70
0
 71
3
 72
9
 73
5
 74
0
 42
0.0000001
 43
0.0000001
 44
0.0000000001
 40
0.0
 40
0.0
 40
0.0
 40
0.0
 40
0.4812405171
 40
1.0
 40
1.0
 40
1.0
 40
1.0
 10
323.5204810981
 20
104.0031188741
 30
0.0
 10
323.4238602702
 20
104.1116372548
 30
0.0
 10
323.1640723836
 20
104.2859633828
 30
0.0
 10
322.8614991296
 20
104.3498486652
 30
0.0
 10
322.7049418605
 20
104.3545231284
 30
0.0
  0
SPLINE
  5
66D
100
AcDbEntity
  8
0
100
AcDbSpline
 62
7
  6
CONTINUOUS
 70
0
 71
3
 72
11
 73
7
 74
0
 42
0.0000001
 43
0.0000001
 44
0.0000000001
 40
0.0
 40
0.0
 40
0.0
 40
0.0
 40
0.1240491962
 40
0.3457009873
 40
0.6503142468
 40
1.0
 40
1.0
 40
1.0
 40
1.0
 10
312.7059283576
 20
65.2654041331
 30
0.0
 10
312.7133972976
 20
65.3089884836
 30
0.0
 10
312.8263130276
 20
65.3944369659
 30
0.0
 10
313.0383240544
 20
65.4665879588
 30
0.0
 10
313.3488453513
 20
65.5287219537
 30
0.0
 10
313.5804198647
 20
65.5513304302
 30
0.0
 10
313.7049418605
 20
65.5570244473
 30
0.0
  0
SPLINE
  5
66E
100
AcDbEntity
  8
0
100
AcDbSpline
 62
7
  6
CONTINUOUS
 70
0
 71
3
 72
9
 73
5
 74
0
 42
0.0000001
 43
0.0000001
 44
0.0000000001
 40
0.0
 40
0.0
 40
0.0
 40
0.0
 40
0.1713043552
 40
1.0
 40
1.0
 40
1.0
 40
1.0
 10
323.7039565386
 20
65.2653945705
 30
0.0
 10
323.7041649281
 20
65.2641785075
 30
0.0
 10
323.7049027368
 20
65.2570047288
 30
0.0
 10
323.7049418605
 20
65.2497907495
 30
0.0
 10
323.7049418605
 20
65.2438222171
 30
0.0
  0
SPLINE
  5
66F
100
AcDbEntity
  8
0
100
AcDbSpline
 62
7
  6
CONTINUOUS
 70
0
 71
3
 72
11
 73
7
 74
0
 42
0.0000001
 43
0.0000001
 44
0.0000000001
 40
0.0
 40
0.0
 40
0.0
 40
0.0
 40
0.1241002591
 40
0.3457641225
 40
0.6503836292
 40
1.0
 40
1.0
 40
1.0
 40
1.0
 10
323.7039565381
 20
65.2653495638
 30
0.0
 10
323.696492517
 20
65.3089595323
 30
0.0
 10
323.5836214712
 20
65.3945197985
 30
0.0
 10
323.3715625444
 20
65.4667092751
 30
0.0
 10
323.0611384292
 20
65.529556824
 30
0.0
 10
322.8294564453
 20
65.5513186176
 30
0.0
 10
322.7049418605
 20
65.5570167164
 30
0.0
  0
SPLINE
  5
670
100
AcDbEntity
  8
0
100
AcDbSpline
 62
7
  6
CONTINUOUS
 70
0
 71
3
 72
9
 73
5
 74
0
 42
0.0000001
 43
0.0000001
 44
0.0000000001
 40
0.0
 40
0.0
 40
0.0
 40
0.0
 40
0.1983026764
 40
1.0
 40
1.0
 40
1.0
 40
1.0
 10
312.7059283576
 20
48.3058567955
 30
0.0
 10
312.7081041439
 20
48.2883424628
 30
0.0
 10
312.7390056215
 20
48.2022034634
 30
0.0
 10
312.8246756992
 20
48.1515459979
 30
0.0
 10
312.8894150295
 20
48.1215492074
 30
0.0
  0
SPLINE
  5
671
100
AcDbEntity
  8
0
100
AcDbSpline
 62
7
  6
CONTINUOUS
 70
0
 71
3
 72
9
 73
5
 74
0
 42
0.0000001
 43
0.0000001
 44
0.0000000001
 40
0.0
 40
0.0
 40
0.0
 40
0.0
 40
0.4457707374
 40
1.0
 40
1.0
 40
1.0
 40
1.0
 10
312.8894150295
 20
48.1215492074
 30
0.0
 10
313.0011485892
 20
48.0697777701
 30
0.0
 10
313.2751666242
 20
48.0073666198
 30
0.0
 10
313.5519841193
 20
47.9994972614
 30
0.0
 10
313.7049418605
 20
48.0062508411
 30
0.0
  0
SPLINE
  5
672
100
AcDbEntity
  8
0
100
AcDbSpline
 62
7
  6
CONTINUOUS
 70
0
 71
3
 72
9
 73
5
 74
0
 42
0.0000001
 43
0.0000001
 44
0.0000000001
 40
0.0
 40
0.0
 40
0.0
 40
0.0
 40
0.1982477201
 40
1.0
 40
1.0
 40
1.0
 40
1.0
 10
323.7039565381
 20
48.3058200235
 30
0.0
 10
323.7017824509
 20
48.288316917
 30
0.0
 10
323.6708730795
 20
48.2022134511
 30
0.0
 10
323.5852106769
 20
48.1516068239
 30
0.0
 10
323.5204811004
 20
48.1216394891
 30
0.0
  0
SPLINE
  5
673
100
AcDbEntity
  8
0
100
AcDbSpline
 62
7
  6
CONTINUOUS
 70
0
 71
3
 72
9
 73
5
 74
0
 42
0.0000001
 43
0.0000001
 44
0.0000000001
 40
0.0
 40
0.0
 40
0.0
 40
0.0
 40
0.4456605006
 40
1.0
 40
1.0
 40
1.0
 40
1.0
 10
323.5204811004
 20
48.1216394891
 30
0.0
 10
323.4087685556
 20
48.0699208246
 30
0.0
 10
323.1346278411
 20
48.0082755081
 30
0.0
 10
322.8579163807
 20
47.9994838251
 30
0.0
 10
322.7049418605
 20
48.0062433759
 30
0.0
  0
ENDSEC
  0
SECTION
  2
OBJECTS
  0
DICTIONARY
  5
C
100
AcDbDictionary
280
0
281
1
  3
ACAD_GROUP
350
D
  3
ACAD_MLINESTYLE
350
17
  3
ACAD_LAYOUT
350
1A
  3
ACAD_PLOTSETTINGS
350
19
  3
ACAD_PLOTSTYLENAME
350
E
  3
ACAD_TABLESTYLE
350
       674
  0
DICTIONARY
  5
D
102
{ACAD_REACTORS
330
C
102
}
100
AcDbDictionary
280
0
281
1
  0
ACDBDICTIONARYWDFLT
  5
E
102
{ACAD_REACTORS
330
C
102
}
100
AcDbDictionary
281
1
  3
Normal
350
F
100
AcDbDictionaryWithDefault
340
F
  0
DICTIONARY
  5
17
102
{ACAD_REACTORS
330
C
102
}
100
AcDbDictionary
280
0
281
1
  3
Standard
350
18
  0
DICTIONARY
  5
674
330
C
100
AcDbDictionary
281
1
  3
Standard
350
       677
  3
Standard1
350
       678
  0
DICTIONARY
  5
19
102
{ACAD_REACTORS
330
C
102
}
100
AcDbDictionary
281
1
  0
DICTIONARY
  5
1A
102
{ACAD_REACTORS
330
C
102
}
100
AcDbDictionary
281
1
  3
Model
350
675
  3
Layout1
350
676
  0
ACDBPLACEHOLDER
  5
F
102
{ACAD_REACTORS
330
E
102
}
  0
MLINESTYLE
  5
18
102
{ACAD_REACTORS
330
17
102
}
100
AcDbMlineStyle
  2
STANDARD
 70
0
  3

 62
256
 51
90.0
 52
90.0
 71
2
 49
0.5
 62
256
  6
BYLAYER
 49
-0.5
 62
256
  6
BYLAYER
  0
LAYOUT
  5
675
102
{ACAD_REACTORS
330
1A
102
}
100
AcDbPlotSettings
  1

  2
none_device
  4
ISO_A3_(420.00_x_297.00_MM)
  6

 40
0.0
 41
0.0
 42
0.0
 43
0.0
 44
420.0
 45
297.0
 46
0.0
 47
0.0
 48
0.0
 49
0.0
140
0.0
141
0.0
142
1.0
143
1.0
 70
1024
 72
1
 73
0
 74
0
  7

 75
0
147
1.0
148
0.0
149
0.0
100
AcDbLayout
  1
Model
 70
0
 71
0
 10
0.0
 20
0.0
 11
420.0
 21
297.0
 12
0.0
 22
0.0
 32
0.0
 14
0.0
 24
0.0
 34
0.0
 15
0.0
 25
0.0
 35
0.0
146
0.0
 13
0.0
 23
0.0
 33
0.0
 16
1.0
 26
0.0
 36
0.0
 17
0.0
 27
1.0
 37
0.0
 76
0
330
211
345
0
346
0
  0
LAYOUT
  5
676
102
{ACAD_REACTORS
330
1A
102
}
100
AcDbPlotSettings
  1

  2
none_device
  4
ISO_A3_(420.00_x_297.00_MM)
  6

 40
0.0
 41
0.0
 42
0.0
 43
0.0
 44
420.0
 45
297.0
 46
0.0
 47
0.0
 48
0.0
 49
0.0
140
0.0
141
0.0
142
1.0
143
1.0
 70
0
 72
1
 73
0
 74
0
  7

 75
0
147
1.0
148
0.0
149
0.0
100
AcDbLayout
  1
Layout1
 70
0
 71
1
 10
0.0
 20
0.0
 11
420.0
 21
297.0
 12
0.0
 22
0.0
 32
0.0
 14
0.0
 24
0.0
 34
0.0
 15
0.0
 25
0.0
 35
0.0
146
0.0
 13
0.0
 23
0.0
 33
0.0
 16
1.0
 26
0.0
 36
0.0
 17
0.0
 27
1.0
 37
0.0
 76
0
330
212
345
0
346
0
  0
TABLESTYLE
  5
677
102
{ACAD_REACTORS
330
674
330
346
102
}
330
674
100
AcDbTableStyle
  3
Standard
 70
0
 71
0
 40
0.06
 41
0.06
280
1
281
1
  7
Standard
140
0.18
170
1
 62
0
 63
7
283
0
  7
Standard
140
0.18
170
1
 62
0
 63
7
283
0
  7
Standard
140
0.18
170
1
 62
0
 63
7
283
0
  0
TABLESTYLE
  5
678
102
{ACAD_REACTORS
330
674
102
}
330
674
100
AcDbTableStyle
  3
Standard1
 70
1
 71
0
 40
0.06
 41
0.06
280
1
281
1
  7
Standard
140
0.18
170
1
 62
0
 63
7
283
0
  7
Standard
140
0.18
170
1
 62
0
 63
7
283
0
  7
Standard
140
0.18
170
1
 62
0
 63
7
283
0
  0
ENDSEC
  0
EOF
