999
DXF file: uni_1707.dxf
999
Pro/ENGINEER 2015290 by Parametric Technology Corporation
  0
SECTION
  2
HEADER
  9
$ACADVER
  1
AC1027
  9
$DWGCODEPAGE
  3
ANSI_1252
  9
$EXTMAX
 10
210.0
 20
297.0
 30
0.0
  9
$EXTMIN
 10
0.0
 20
0.0
 30
0.0
  9
$LIMMIN
 10
0.0
 20
0.0
  9
$LIMMAX
 10
210.0
 20
297.0
  9
$VIEWCTR
 10
105.0
 20
148.5
  9
$VIEWSIZE
 40
297.0
  9
$CLAYER
  8
0
  9
$LTSCALE
 40
19.36
  9
$CELTYPE
  6
BYLAYER
  9
$DIMSCALE
 40
1.0
  9
$DIMASZ
 40
3.5
  9
$DIMEXO
 40
1.0
  9
$DIMDLI
 40
13.376
  9
$DIMEXE
 40
2.0
  9
$DIMCEN
 40
3.168
  9
$DIMLFAC
 40
1.0
  9
$DIMBLK
  1
_FILLED
  9
$DIMALT
 70
0
  9
$DIMALTF
 40
0.0393700787
  9
$DIMTXT
 40
3.5
  9
$DIMTOL
 70
1
  9
$DIMLIM
 70
0
  9
$DIMTFAC
 40
1.0
  9
$DIMTP
 40
0.01
  9
$DIMTM
 40
0.01
  9
$DIMGAP
 40
0.625
  9
$DIMDSEP
 70
46
  9
$AUNITS
 70
0
  9
$PDMODE
 70
3
  9
$PDSIZE
 40
0.3125
  9
$HANDSEED
  5
3EB
  9
$TILEMODE
 70
1
  9
$MEASUREMENT
 70
1
  9
$INSUNITS
 70
4
  0
ENDSEC
  0
SECTION
  2
CLASSES
  0
CLASS
  1
ACDBDICTIONARYWDFLT
  2
AcDbDictionaryWithDefault
  3
AutoCAD 2000
 90
0
 91
1
280
0
281
0
  0
CLASS
  1
ACDBPLACEHOLDER
  2
AcDbPlaceHolder
  3
AutoCAD 2000
 90
0
 91
1
280
0
281
0
  0
CLASS
  1
LAYOUT
  2
AcDbLayout
  3
AutoCAD 2000
 90
0
 91
0
280
0
281
0
  0
CLASS
  1
TABLESTYLE
  2
AcDbTableStyle
  3
ObjectDBX Classes
 90
2047
 91
1
280
0
281
0
  0
CLASS
  1
ACAD_TABLE
  2
AcDbTable
  3
ObjectDBX Classes
 90
1025
 91
1
280
0
281
1
  0
ENDSEC
  0
SECTION
  2
TABLES
  0
TABLE
  2
VPORT
  5
8
100
AcDbSymbolTable
 70
2
  0
VPORT
  5
1F4
100
AcDbSymbolTableRecord
100
AcDbViewportTableRecord
  2
*ACTIVE
 70
0
 10
0.0
 20
0.0
 11
1.0
 21
1.0
 12
105.0
 22
148.5
 13
0.0
 23
0.0
 14
1.0
 24
1.0
 15
0.0
 25
0.0
 16
0.0
 26
0.0
 36
1.0
 17
0.0
 27
0.0
 37
0.0
 40
297.0
 41
0.7070707071
 42
50.0
 43
0.0
 44
0.0
 50
0.0
 51
0.0
 71
0
 72
100
 73
1
 74
1
 75
0
 76
0
 77
0
 78
0
  0
ENDTAB
  0
TABLE
  2
LTYPE
  5
5
100
AcDbSymbolTable
 70
6
  0
LTYPE
  5
14
100
AcDbSymbolTableRecord
100
AcDbLinetypeTableRecord
  2
BYBLOCK
 70
0
  3

 72
65
 73
0
 40
0.0
  0
LTYPE
  5
15
100
AcDbSymbolTableRecord
100
AcDbLinetypeTableRecord
  2
BYLAYER
 70
0
  3

 72
65
 73
0
 40
0.0
  0
LTYPE
  5
16
100
AcDbSymbolTableRecord
100
AcDbLinetypeTableRecord
  2
CONTINUOUS
 70
64
  3
Solid line
 72
65
 73
0
 40
0.0
  0
LTYPE
  5
1F5
100
AcDbSymbolTableRecord
100
AcDbLinetypeTableRecord
  2
CENTER
 70
64
  3
____ _ ____ _ ____ _ ____ _ ____ _ ____ _ ____
 72
65
 73
4
 40
0.6
 49
0.375
 74
0
 49
-0.075
 74
0
 49
0.075
 74
0
 49
-0.075
 74
0
  0
LTYPE
  5
1F6
100
AcDbSymbolTableRecord
100
AcDbLinetypeTableRecord
  2
HIDDEN
 70
64
  3
- - - - - - - - - - - - - - - - - - - -
 72
65
 73
2
 40
0.2
 49
0.1
 74
0
 49
-0.1
 74
0
  0
LTYPE
  5
1F7
100
AcDbSymbolTableRecord
100
AcDbLinetypeTableRecord
  2
PHANTOM
 70
64
  3
_____ _ _ _____ _ _ _____ _ _ _____
 72
65
 73
6
 40
0.8
 49
0.45
 74
0
 49
-0.05
 74
0
 49
0.1
 74
0
 49
-0.05
 74
0
 49
0.1
 74
0
 49
-0.05
 74
0
  0
LTYPE
  5
1F8
100
AcDbSymbolTableRecord
100
AcDbLinetypeTableRecord
  2
DOT
 70
64
  3
. . . . . . . . . . . . . . . . . . . .
 72
65
 73
2
 40
0.2
 49
0.1
 74
0
 49
-0.1
 74
0
  0
LTYPE
  5
1F9
100
AcDbSymbolTableRecord
100
AcDbLinetypeTableRecord
  2
DASHED
 70
64
  3
- - - - - - - - - - - - - - - - - - - -
 72
65
 73
2
 40
0.2
 49
0.1
 74
0
 49
-0.1
 74
0
  0
ENDTAB
  0
TABLE
  2
LAYER
  5
2
100
AcDbSymbolTable
 70
36
  0
LAYER
  5
10
100
AcDbSymbolTableRecord
100
AcDbLayerTableRecord
  2
0
 70
0
 62
7
  6
CONTINUOUS
370
-3
390
F
  0
LAYER
  5
1FA
100
AcDbSymbolTableRecord
100
AcDbLayerTableRecord
  2
DEFAULT_1
 70
0
 62
7
  6
CENTER
370
-3
390
F
  0
LAYER
  5
1FB
100
AcDbSymbolTableRecord
100
AcDbLayerTableRecord
  2
DEFAULT_2
 70
0
 62
8
  6
HIDDEN
370
-3
390
F
  0
LAYER
  5
1FC
100
AcDbSymbolTableRecord
100
AcDbLayerTableRecord
  2
DEFAULT_3
 70
0
 62
7
  6
PHANTOM
370
-3
390
F
  0
LAYER
  5
1FD
100
AcDbSymbolTableRecord
100
AcDbLayerTableRecord
  2
1_AXIS
 70
0
 62
7
  6
CONTINUOUS
370
-3
390
F
  0
LAYER
  5
1FE
100
AcDbSymbolTableRecord
100
AcDbLayerTableRecord
  2
1_DATUM_PLANE
 70
0
 62
7
  6
CONTINUOUS
370
-3
390
F
  0
LAYER
  5
1FF
100
AcDbSymbolTableRecord
100
AcDbLayerTableRecord
  2
1_DATUM_PLANES
 70
0
 62
7
  6
CONTINUOUS
370
-3
390
F
  0
LAYER
  5
200
100
AcDbSymbolTableRecord
100
AcDbLayerTableRecord
  2
2_FEATURE
 70
0
 62
7
  6
CONTINUOUS
370
-3
390
F
  0
LAYER
  5
201
100
AcDbSymbolTableRecord
100
AcDbLayerTableRecord
  2
3_1_CURVE
 70
0
 62
7
  6
CONTINUOUS
370
-3
390
F
  0
LAYER
  5
202
100
AcDbSymbolTableRecord
100
AcDbLayerTableRecord
  2
3_CURVE
 70
0
 62
7
  6
CONTINUOUS
370
-3
390
F
  0
LAYER
  5
203
100
AcDbSymbolTableRecord
100
AcDbLayerTableRecord
  2
4_QUILT
 70
0
 62
7
  6
CONTINUOUS
370
-3
390
F
  0
LAYER
  5
204
100
AcDbSymbolTableRecord
100
AcDbLayerTableRecord
  2
4_SURFACE
 70
0
 62
7
  6
CONTINUOUS
370
-3
390
F
  0
LAYER
  5
205
100
AcDbSymbolTableRecord
100
AcDbLayerTableRecord
  2
6_DIM
 70
0
 62
7
  6
CONTINUOUS
370
-3
390
F
  0
LAYER
  5
206
100
AcDbSymbolTableRecord
100
AcDbLayerTableRecord
  2
6_NOTE
 70
0
 62
7
  6
CONTINUOUS
370
-3
390
F
  0
LAYER
  5
207
100
AcDbSymbolTableRecord
100
AcDbLayerTableRecord
  2
AXES
 70
0
 62
7
  6
CONTINUOUS
370
-3
390
F
  0
LAYER
  5
208
100
AcDbSymbolTableRecord
100
AcDbLayerTableRecord
  2
CSYS
 70
0
 62
7
  6
CONTINUOUS
370
-3
390
F
  0
LAYER
  5
209
100
AcDbSymbolTableRecord
100
AcDbLayerTableRecord
  2
NOTES
 70
0
 62
7
  6
CONTINUOUS
370
-3
390
F
  0
LAYER
  5
20A
100
AcDbSymbolTableRecord
100
AcDbLayerTableRecord
  2
PLANES
 70
0
 62
7
  6
CONTINUOUS
370
-3
390
F
  0
LAYER
  5
20B
100
AcDbSymbolTableRecord
100
AcDbLayerTableRecord
  2
XSEC_DATUMS
 70
0
 62
7
  6
CONTINUOUS
370
-3
390
F
  0
ENDTAB
  0
TABLE
  2
STYLE
  5
3
100
AcDbSymbolTable
 70
1
  0
STYLE
  5
11
100
AcDbSymbolTableRecord
100
AcDbTextStyleTableRecord
  2
STANDARD
 70
0
 40
0.0
 41
0.8
 50
0.0
 71
0
 42
0.2
  3
txt
  4

  0
STYLE
  5
20C
100
AcDbSymbolTableRecord
100
AcDbTextStyleTableRecord
  2
TEXTSTYLE_1
 70
0
 40
0.0
 41
0.8
 50
0.0
 71
0
 42
0.2
  3
gdt
  4

  0
STYLE
  5
20D
100
AcDbSymbolTableRecord
100
AcDbTextStyleTableRecord
  2
TEXTSTYLE_2
 70
0
 40
0.0
 41
0.6
 50
0.0
 71
0
 42
0.2
  3
txt
  4

  0
STYLE
  5
20E
100
AcDbSymbolTableRecord
100
AcDbTextStyleTableRecord
  2
TEXTSTYLE_3
 70
0
 40
0.0
 41
1.0
 50
0.0
 71
0
 42
0.2
  3
ftb_____.ttf
  4

  0
STYLE
  5
20F
100
AcDbSymbolTableRecord
100
AcDbTextStyleTableRecord
  2
TEXTSTYLE_4
 70
0
 40
0.0
 41
1.0
 50
0.0
 71
0
 42
0.2
  3
fti_____.ttf
  4

  0
STYLE
  5
210
100
AcDbSymbolTableRecord
100
AcDbTextStyleTableRecord
  2
TEXTSTYLE_5
 70
0
 40
0.0
 41
1.0
 50
0.0
 71
0
 42
0.2
  3
frutiger light.ttf
  4

  0
STYLE
  5
211
100
AcDbSymbolTableRecord
100
AcDbTextStyleTableRecord
  2
TEXTSTYLE_6
 70
0
 40
0.0
 41
0.7
 50
0.0
 71
0
 42
0.2
  3
txt
  4

  0
STYLE
  5
212
100
AcDbSymbolTableRecord
100
AcDbTextStyleTableRecord
  2
TEXTSTYLE_7
 70
0
 40
0.0
 41
0.8
 50
0.0
 71
0
 42
0.2
  3
txt
  4

  0
ENDTAB
  0
TABLE
  2
VIEW
  5
6
100
AcDbSymbolTable
 70
0
  0
ENDTAB
  0
TABLE
  2
UCS
  5
7
100
AcDbSymbolTable
 70
0
  0
ENDTAB
  0
TABLE
  2
APPID
  5
9
100
AcDbSymbolTable
 70
1
  0
APPID
  5
213
100
AcDbSymbolTableRecord
100
AcDbRegAppTableRecord
  2
ACAD
 70
0
  0
ENDTAB
  0
TABLE
  2
BLOCK_RECORD
  5
1
100
AcDbSymbolTable
 70
0
  0
BLOCK_RECORD
  5
214
100
AcDbSymbolTableRecord
100
AcDbBlockTableRecord
  2
*Model_Space
  0
BLOCK_RECORD
  5
215
100
AcDbSymbolTableRecord
100
AcDbBlockTableRecord
  2
*Paper_Space
  0
BLOCK_RECORD
  5
216
100
AcDbSymbolTableRecord
100
AcDbBlockTableRecord
  2
UNI_LOGO2_BL1
  0
BLOCK_RECORD
  5
217
100
AcDbSymbolTableRecord
100
AcDbBlockTableRecord
  2
AMMEAAL_LOGO_BL0
  0
BLOCK_RECORD
  5
218
100
AcDbSymbolTableRecord
100
AcDbBlockTableRecord
  2
*T1
  0
ENDTAB
  0
TABLE
  2
DIMSTYLE
  5
A
100
AcDbSymbolTable
 70
1
100
AcDbDimStyleTable
 71
0
  0
DIMSTYLE
105
219
100
AcDbSymbolTableRecord
100
AcDbDimStyleTableRecord
  2
STANDARD
 70
0
  3

  4

 40
1.0
 41
3.5
 42
1.0
 43
0.38
 44
2.0
 45
0.0
 46
0.0
 47
0.01
 48
0.01
140
3.5
141
0.09
142
0.0
143
25.4
144
1.0
145
0.0
146
1.0
147
0.625
 71
1.0
 72
0.0
 73
0
 74
0
 75
0
 76
0
 77
1
 78
0
170
0
171
2
172
0
173
0
174
0
175
0
176
0
177
0
178
5
270
2
271
2
272
2
273
2
274
2
275
0
280
0
281
0
282
0
283
1
284
0
285
0
286
0
287
3
288
0
340
11
278
46
  0
ENDTAB
  0
ENDSEC
  0
SECTION
  2
BLOCKS
  0
BLOCK
  5
20
100
AcDbEntity
  8
0
100
AcDbBlockBegin
  2
*Model_Space
 70
0
 10
0.0
 20
0.0
 30
0.0
  3
*Model_Space
  1

  0
ENDBLK
  5
21
100
AcDbEntity
  8
0
100
AcDbBlockEnd
  0
BLOCK
  5
1C
100
AcDbEntity
  8
0
100
AcDbBlockBegin
  2
*Paper_Space
 70
0
 10
0.0
 20
0.0
 30
0.0
  3
*Paper_Space
  1

  0
ENDBLK
  5
1D
100
AcDbEntity
  8
0
100
AcDbBlockEnd
  0
BLOCK
  5
21A
100
AcDbEntity
  8
0
100
AcDbBlockBegin
 62
2
  6
CONTINUOUS
  2
UNI_LOGO2_BL1
 70
64
 10
173.3924355793
 20
35.4326167403
  3
UNI_LOGO2_BL1
  1

  0
TEXT
  5
21B
100
AcDbEntity
  8
0
100
AcDbText
 62
7
  6
CONTINUOUS
 10
164.4507205878
 20
30.5765230696
  7
TEXTSTYLE_4
 40
1.0655737705
  1
The brand for plastic modular belts and chains
 41
1.0
 72
0
100
AcDbText
  0
LINE
  5
21C
100
AcDbEntity
  8
0
100
AcDbLine
 62
7
  6
CONTINUOUS
 10
149.3705039683
 20
36.0575371843
 11
149.3705039683
 21
33.9263896433
  0
LINE
  5
21D
100
AcDbEntity
  8
0
100
AcDbLine
 62
7
  6
CONTINUOUS
 10
149.6595664615
 20
30.9354583476
 11
149.6595664615
 21
31.0322494069
  0
LINE
  5
21E
100
AcDbEntity
  8
0
100
AcDbLine
 62
7
  6
CONTINUOUS
 10
149.3705039683
 20
30.9999857205
 11
149.4283164701
 21
30.8064036019
  0
LINE
  5
21F
100
AcDbEntity
  8
0
100
AcDbLine
 62
7
  6
CONTINUOUS
 10
150.7639465913
 20
33.8444224302
 11
150.7639465913
 21
36.0575371843
  0
LINE
  5
220
100
AcDbEntity
  8
0
100
AcDbLine
 62
7
  6
CONTINUOUS
 10
151.6830039132
 20
32.0001601351
 11
151.6830039132
 21
30.4837666925
  0
LINE
  5
221
100
AcDbEntity
  8
0
100
AcDbLine
 62
7
  6
CONTINUOUS
 10
151.9720664683
 20
30.4837666925
 11
151.9720664683
 21
31.2258315706
  0
LINE
  5
222
100
AcDbEntity
  8
0
100
AcDbLine
 62
7
  6
CONTINUOUS
 10
151.9720664683
 20
31.3548863163
 11
151.9720664683
 21
32.0001601351
  0
LINE
  5
223
100
AcDbEntity
  8
0
100
AcDbLine
 62
7
  6
CONTINUOUS
 10
149.4283164701
 20
31.1935678842
 11
149.3705039683
 21
30.9999857205
  0
LINE
  5
224
100
AcDbEntity
  8
0
100
AcDbLine
 62
7
  6
CONTINUOUS
 10
149.7751914546
 20
30.7741399155
 11
149.6595664615
 21
30.9354583476
  0
LINE
  5
225
100
AcDbEntity
  8
0
100
AcDbLine
 62
7
  6
CONTINUOUS
 10
150.8736290235
 20
31.2903589434
 11
150.9314414683
 21
31.1935678842
  0
LINE
  5
226
100
AcDbEntity
  8
0
100
AcDbLine
 62
7
  6
CONTINUOUS
 10
151.2205040235
 20
31.1935678842
 11
151.1626914132
 21
31.3226226299
  0
LINE
  5
227
100
AcDbEntity
  8
0
100
AcDbLine
 62
7
  6
CONTINUOUS
 10
152.6491924929
 20
36.0575371843
 11
152.6491924929
 21
34.2542584958
  0
LINE
  5
228
100
AcDbEntity
  8
0
100
AcDbLine
 62
7
  6
CONTINUOUS
 10
152.6491924929
 20
32.9427830859
 11
152.6491924929
 21
32.287045381
  0
LINE
  5
229
100
AcDbEntity
  8
0
100
AcDbLine
 62
7
  6
CONTINUOUS
 10
153.0126914683
 20
31.1290405113
 11
153.0126914683
 21
30.4837666925
  0
LINE
  5
22A
100
AcDbEntity
  8
0
100
AcDbLine
 62
7
  6
CONTINUOUS
 10
153.3017538581
 20
30.4837666925
 11
153.3017538581
 21
31.1290405113
  0
LINE
  5
22B
100
AcDbEntity
  8
0
100
AcDbLine
 62
7
  6
CONTINUOUS
 10
149.6595664615
 20
31.0322494069
 11
149.7173789683
 21
31.1613041978
  0
LINE
  5
22C
100
AcDbEntity
  8
0
100
AcDbLine
 62
7
  6
CONTINUOUS
 10
149.4283164701
 20
30.8064036019
 11
149.5439414683
 21
30.6773488336
  0
LINE
  5
22D
100
AcDbEntity
  8
0
100
AcDbLine
 62
7
  6
CONTINUOUS
 10
152.9548788581
 20
31.258095257
 11
153.0126914683
 21
31.1290405113
  0
LINE
  5
22E
100
AcDbEntity
  8
0
100
AcDbLine
 62
7
  6
CONTINUOUS
 10
153.7642540786
 20
30.7741399155
 11
153.8220663581
 21
30.6450851472
  0
LINE
  5
22F
100
AcDbEntity
  8
0
100
AcDbLine
 62
7
  6
CONTINUOUS
 10
153.3017538581
 20
31.1290405113
 11
153.2439415786
 21
31.2903589434
  0
LINE
  5
230
100
AcDbEntity
  8
0
100
AcDbLine
 62
7
  6
CONTINUOUS
 10
153.7642540786
 20
31.3226226299
 11
153.7642540786
 21
31.258095257
  0
LINE
  5
231
100
AcDbEntity
  8
0
100
AcDbLine
 62
7
  6
CONTINUOUS
 10
153.7642540786
 20
30.8709309748
 11
153.7642540786
 21
30.7741399155
  0
LINE
  5
232
100
AcDbEntity
  8
0
100
AcDbLine
 62
7
  6
CONTINUOUS
 10
154.0426351159
 20
32.287045381
 11
154.0426351159
 21
36.0575371843
  0
LINE
  5
233
100
AcDbEntity
  8
0
100
AcDbLine
 62
7
  6
CONTINUOUS
 10
154.0533164683
 20
30.7418762065
 11
154.0533164683
 21
30.8064036019
  0
LINE
  5
234
100
AcDbEntity
  8
0
100
AcDbLine
 62
7
  6
CONTINUOUS
 10
154.3705039683
 20
36.0575371843
 11
154.3705039683
 21
32.287045381
  0
LINE
  5
235
100
AcDbEntity
  8
0
100
AcDbLine
 62
7
  6
CONTINUOUS
 10
151.1626914132
 20
30.6773488336
 11
151.2205040235
 21
30.8064036019
  0
LINE
  5
236
100
AcDbEntity
  8
0
100
AcDbLine
 62
7
  6
CONTINUOUS
 10
155.5564416889
 20
30.5805577631
 11
155.4986287478
 21
30.7418762065
  0
LINE
  5
237
100
AcDbEntity
  8
0
100
AcDbLine
 62
7
  6
CONTINUOUS
 10
155.2095666889
 20
31.258095257
 11
155.2095666889
 21
31.1613041978
  0
LINE
  5
238
100
AcDbEntity
  8
0
100
AcDbLine
 62
7
  6
CONTINUOUS
 10
155.2095666889
 20
31.0322494069
 11
155.2095666889
 21
30.8386672883
  0
LINE
  5
239
100
AcDbEntity
  8
0
100
AcDbLine
 62
7
  6
CONTINUOUS
 10
155.4986287478
 20
30.7418762065
 11
155.4986287478
 21
31.258095257
  0
LINE
  5
23A
100
AcDbEntity
  8
0
100
AcDbLine
 62
7
  6
CONTINUOUS
 10
155.7639465913
 20
32.287045381
 11
155.7639465913
 21
34.0903240696
  0
LINE
  5
23B
100
AcDbEntity
  8
0
100
AcDbLine
 62
7
  6
CONTINUOUS
 10
155.7639465913
 20
35.4017994794
 11
155.7639465913
 21
36.0575371843
  0
LINE
  5
23C
100
AcDbEntity
  8
0
100
AcDbLine
 62
7
  6
CONTINUOUS
 10
156.0767541889
 20
32.0001601351
 11
156.0767541889
 21
31.838841703
  0
LINE
  5
23D
100
AcDbEntity
  8
0
100
AcDbLine
 62
7
  6
CONTINUOUS
 10
156.0767541889
 20
31.5162047484
 11
156.0767541889
 21
30.4837666925
  0
LINE
  5
23E
100
AcDbEntity
  8
0
100
AcDbLine
 62
7
  6
CONTINUOUS
 10
156.3658162478
 20
30.4837666925
 11
156.3658162478
 21
31.5162047484
  0
LINE
  5
23F
100
AcDbEntity
  8
0
100
AcDbLine
 62
7
  6
CONTINUOUS
 10
156.3658162478
 20
31.838841703
 11
156.3658162478
 21
32.0001601351
  0
LINE
  5
240
100
AcDbEntity
  8
0
100
AcDbLine
 62
7
  6
CONTINUOUS
 10
150.9314414683
 20
30.8064036019
 11
150.8736290235
 21
30.7096125201
  0
LINE
  5
241
100
AcDbEntity
  8
0
100
AcDbLine
 62
7
  6
CONTINUOUS
 10
153.2439415786
 20
31.2903589434
 11
153.1861289683
 21
31.3548863163
  0
LINE
  5
242
100
AcDbEntity
  8
0
100
AcDbLine
 62
7
  6
CONTINUOUS
 10
154.1111290786
 20
30.6773488336
 11
154.0533164683
 21
30.7418762065
  0
LINE
  5
243
100
AcDbEntity
  8
0
100
AcDbLine
 62
7
  6
CONTINUOUS
 10
155.2673789683
 20
30.548294071
 11
155.3251912478
 21
30.4837666925
  0
LINE
  5
244
100
AcDbEntity
  8
0
100
AcDbLine
 62
7
  6
CONTINUOUS
 10
155.2095666889
 20
30.6450851472
 11
155.2673789683
 21
30.548294071
  0
LINE
  5
245
100
AcDbEntity
  8
0
100
AcDbLine
 62
7
  6
CONTINUOUS
 10
155.6142539683
 20
30.4837666925
 11
155.5564416889
 21
30.5805577631
  0
LINE
  5
246
100
AcDbEntity
  8
0
100
AcDbLine
 62
7
  6
CONTINUOUS
 10
155.4986287478
 20
31.258095257
 11
155.4408164683
 21
31.3548863163
  0
LINE
  5
247
100
AcDbEntity
  8
0
100
AcDbLine
 62
7
  6
CONTINUOUS
 10
156.8283164683
 20
31.5162047484
 11
156.8283164683
 21
30.4837666925
  0
LINE
  5
248
100
AcDbEntity
  8
0
100
AcDbLine
 62
7
  6
CONTINUOUS
 10
157.1173791889
 20
30.4837666925
 11
157.1173791889
 21
31.2258315706
  0
LINE
  5
249
100
AcDbEntity
  8
0
100
AcDbLine
 62
7
  6
CONTINUOUS
 10
157.1173791889
 20
31.3548863163
 11
157.1173791889
 21
31.5162047484
  0
LINE
  5
24A
100
AcDbEntity
  8
0
100
AcDbLine
 62
7
  6
CONTINUOUS
 10
157.6491924929
 20
34.5001601351
 11
157.6491924929
 21
32.287045381
  0
LINE
  5
24B
100
AcDbEntity
  8
0
100
AcDbLine
 62
7
  6
CONTINUOUS
 10
149.5439414683
 20
31.3226226299
 11
149.4283164701
 21
31.1935678842
  0
LINE
  5
24C
100
AcDbEntity
  8
0
100
AcDbLine
 62
7
  6
CONTINUOUS
 10
149.7173789683
 20
31.1613041978
 11
149.7751914546
 21
31.2258315706
  0
LINE
  5
24D
100
AcDbEntity
  8
0
100
AcDbLine
 62
7
  6
CONTINUOUS
 10
149.5439414683
 20
30.6773488336
 11
149.6595664615
 21
30.6128214495
  0
LINE
  5
24E
100
AcDbEntity
  8
0
100
AcDbLine
 62
7
  6
CONTINUOUS
 10
149.9486289546
 20
30.6773488336
 11
149.7751914546
 21
30.7741399155
  0
LINE
  5
24F
100
AcDbEntity
  8
0
100
AcDbLine
 62
7
  6
CONTINUOUS
 10
155.1517537478
 20
31.3226226299
 11
155.2095666889
 21
31.258095257
  0
LINE
  5
250
100
AcDbEntity
  8
0
100
AcDbLine
 62
7
  6
CONTINUOUS
 10
158.1001912478
 20
31.258095257
 11
158.1580041889
 21
31.0967768249
  0
LINE
  5
251
100
AcDbEntity
  8
0
100
AcDbLine
 62
7
  6
CONTINUOUS
 10
158.4470662478
 20
31.0967768249
 11
158.3892539683
 21
31.258095257
  0
LINE
  5
252
100
AcDbEntity
  8
0
100
AcDbLine
 62
7
  6
CONTINUOUS
 10
158.1580041889
 20
31.0967768249
 11
158.1580041889
 21
30.4837666925
  0
LINE
  5
253
100
AcDbEntity
  8
0
100
AcDbLine
 62
7
  6
CONTINUOUS
 10
158.4470662478
 20
30.4837666925
 11
158.4470662478
 21
31.0967768249
  0
LINE
  5
254
100
AcDbEntity
  8
0
100
AcDbLine
 62
7
  6
CONTINUOUS
 10
158.9095664683
 20
31.3226226299
 11
158.9095664683
 21
31.258095257
  0
LINE
  5
255
100
AcDbEntity
  8
0
100
AcDbLine
 62
7
  6
CONTINUOUS
 10
159.0426351159
 20
32.287045381
 11
159.0426351159
 21
34.418192922
  0
LINE
  5
256
100
AcDbEntity
  8
0
100
AcDbLine
 62
7
  6
CONTINUOUS
 10
159.3705039683
 20
36.0575371843
 11
159.3705039683
 21
32.287045381
  0
LINE
  5
257
100
AcDbEntity
  8
0
100
AcDbLine
 62
7
  6
CONTINUOUS
 10
154.0533164683
 20
30.8064036019
 11
154.1111290786
 21
30.9031946612
  0
LINE
  5
258
100
AcDbEntity
  8
0
100
AcDbLine
 62
7
  6
CONTINUOUS
 10
149.6595664615
 20
30.6128214495
 11
149.8330039821
 21
30.548294071
  0
LINE
  5
259
100
AcDbEntity
  8
0
100
AcDbLine
 62
7
  6
CONTINUOUS
 10
151.1626914132
 20
31.3226226299
 11
150.9892539132
 21
31.4194136891
  0
LINE
  5
25A
100
AcDbEntity
  8
0
100
AcDbLine
 62
7
  6
CONTINUOUS
 10
153.8220663581
 20
30.6450851472
 11
153.9955038581
 21
30.548294071
  0
LINE
  5
25B
100
AcDbEntity
  8
0
100
AcDbLine
 62
7
  6
CONTINUOUS
 10
152.8392539683
 20
31.3226226299
 11
152.9548788581
 21
31.258095257
  0
LINE
  5
25C
100
AcDbEntity
  8
0
100
AcDbLine
 62
7
  6
CONTINUOUS
 10
153.1861289683
 20
31.3548863163
 11
153.0705040786
 21
31.4194136891
  0
LINE
  5
25D
100
AcDbEntity
  8
0
100
AcDbLine
 62
7
  6
CONTINUOUS
 10
158.9095664683
 20
30.7418762065
 11
159.0251916889
 21
30.6128214495
  0
LINE
  5
25E
100
AcDbEntity
  8
0
100
AcDbLine
 62
7
  6
CONTINUOUS
 10
159.2564414683
 20
30.6773488336
 11
159.1986291889
 21
30.7418762065
  0
LINE
  5
25F
100
AcDbEntity
  8
0
100
AcDbLine
 62
7
  6
CONTINUOUS
 10
158.9095664683
 20
31.258095257
 11
159.0251916889
 21
31.1290405113
  0
LINE
  5
260
100
AcDbEntity
  8
0
100
AcDbLine
 62
7
  6
CONTINUOUS
 10
158.3892539683
 20
31.258095257
 11
158.3314416889
 21
31.3548863163
  0
LINE
  5
261
100
AcDbEntity
  8
0
100
AcDbLine
 62
7
  6
CONTINUOUS
 10
160.7595660273
 20
30.6773488336
 11
160.7595660273
 21
30.7418762065
  0
LINE
  5
262
100
AcDbEntity
  8
0
100
AcDbLine
 62
7
  6
CONTINUOUS
 10
160.7639465913
 20
32.287045381
 11
160.7639465913
 21
36.0575371843
  0
LINE
  5
263
100
AcDbEntity
  8
0
100
AcDbLine
 62
7
  6
CONTINUOUS
 10
153.8220663581
 20
31.3871500027
 11
153.7642540786
 21
31.3226226299
  0
LINE
  5
264
100
AcDbEntity
  8
0
100
AcDbLine
 62
7
  6
CONTINUOUS
 10
150.7001914408
 20
31.3548863163
 11
150.8736290235
 21
31.2903589434
  0
LINE
  5
265
100
AcDbEntity
  8
0
100
AcDbLine
 62
7
  6
CONTINUOUS
 10
155.4408164683
 20
31.3548863163
 11
155.3251912478
 21
31.4194136891
  0
LINE
  5
266
100
AcDbEntity
  8
0
100
AcDbLine
 62
7
  6
CONTINUOUS
 10
159.2564414683
 20
31.1935678842
 11
159.1986291889
 21
31.258095257
  0
LINE
  5
267
100
AcDbEntity
  8
0
100
AcDbLine
 62
7
  6
CONTINUOUS
 10
160.4126916889
 20
30.8064036019
 11
160.4705039683
 21
30.7418762065
  0
LINE
  5
268
100
AcDbEntity
  8
0
100
AcDbLine
 62
7
  6
CONTINUOUS
 10
160.7595660273
 20
30.7418762065
 11
160.6439414683
 21
30.8709309748
  0
LINE
  5
269
100
AcDbEntity
  8
0
100
AcDbLine
 62
7
  6
CONTINUOUS
 10
160.4126916889
 20
31.3226226299
 11
160.4705039683
 21
31.258095257
  0
LINE
  5
26A
100
AcDbEntity
  8
0
100
AcDbLine
 62
7
  6
CONTINUOUS
 10
160.7595660273
 20
31.258095257
 11
160.6439414683
 21
31.3871500027
  0
LINE
  5
26B
100
AcDbEntity
  8
0
100
AcDbLine
 62
7
  6
CONTINUOUS
 10
154.0533164683
 20
31.258095257
 11
154.1111290786
 21
31.3226226299
  0
LINE
  5
26C
100
AcDbEntity
  8
0
100
AcDbLine
 62
7
  6
CONTINUOUS
 10
153.8798789683
 20
30.9999857205
 11
153.7642540786
 21
30.8709309748
  0
LINE
  5
26D
100
AcDbEntity
  8
0
100
AcDbLine
 62
7
  6
CONTINUOUS
 10
155.2095666889
 20
30.8386672883
 11
155.1517537478
 21
30.7741399155
  0
LINE
  5
26E
100
AcDbEntity
  8
0
100
AcDbLine
 62
7
  6
CONTINUOUS
 10
155.1517537478
 20
30.5805577631
 11
155.2095666889
 21
30.6450851472
  0
LINE
  5
26F
100
AcDbEntity
  8
0
100
AcDbLine
 62
7
  6
CONTINUOUS
 10
153.9955038581
 20
30.548294071
 11
154.1111290786
 21
30.5160303817
  0
LINE
  5
270
100
AcDbEntity
  8
0
100
AcDbLine
 62
7
  6
CONTINUOUS
 10
150.9892539132
 20
31.4194136891
 11
150.7580039683
 21
31.483941062
  0
LINE
  5
271
100
AcDbEntity
  8
0
100
AcDbLine
 62
7
  6
CONTINUOUS
 10
154.3423788581
 20
30.6128214495
 11
154.1111290786
 21
30.6773488336
  0
LINE
  5
272
100
AcDbEntity
  8
0
100
AcDbLine
 62
7
  6
CONTINUOUS
 10
153.0705040786
 20
31.4194136891
 11
152.8970665786
 21
31.483941062
  0
LINE
  5
273
100
AcDbEntity
  8
0
100
AcDbLine
 62
7
  6
CONTINUOUS
 10
155.3251912478
 20
31.4194136891
 11
155.1517537478
 21
31.483941062
  0
LINE
  5
274
100
AcDbEntity
  8
0
100
AcDbLine
 62
7
  6
CONTINUOUS
 10
157.9845666889
 20
31.3226226299
 11
158.1001912478
 21
31.258095257
  0
LINE
  5
275
100
AcDbEntity
  8
0
100
AcDbLine
 62
7
  6
CONTINUOUS
 10
158.3314416889
 20
31.3548863163
 11
158.2158164683
 21
31.4194136891
  0
LINE
  5
276
100
AcDbEntity
  8
0
100
AcDbLine
 62
7
  6
CONTINUOUS
 10
149.8330039821
 20
30.548294071
 11
150.0064414821
 21
30.5160303817
  0
LINE
  5
277
100
AcDbEntity
  8
0
100
AcDbLine
 62
7
  6
CONTINUOUS
 10
150.2955039959
 20
30.6128214495
 11
149.9486289546
 21
30.6773488336
  0
LINE
  5
278
100
AcDbEntity
  8
0
100
AcDbLine
 62
7
  6
CONTINUOUS
 10
152.7236290786
 20
31.3548863163
 11
152.8392539683
 21
31.3226226299
  0
LINE
  5
279
100
AcDbEntity
  8
0
100
AcDbLine
 62
7
  6
CONTINUOUS
 10
155.0361291889
 20
31.3548863163
 11
155.1517537478
 21
31.3226226299
  0
LINE
  5
27A
100
AcDbEntity
  8
0
100
AcDbLine
 62
7
  6
CONTINUOUS
 10
159.3720666889
 20
30.6450851472
 11
159.2564414683
 21
30.6773488336
  0
LINE
  5
27B
100
AcDbEntity
  8
0
100
AcDbLine
 62
7
  6
CONTINUOUS
 10
157.8689414683
 20
31.3548863163
 11
157.9845666889
 21
31.3226226299
  0
LINE
  5
27C
100
AcDbEntity
  8
0
100
AcDbLine
 62
7
  6
CONTINUOUS
 10
159.0251916889
 20
30.6128214495
 11
159.1986291889
 21
30.548294071
  0
LINE
  5
27D
100
AcDbEntity
  8
0
100
AcDbLine
 62
7
  6
CONTINUOUS
 10
158.2158164683
 20
31.4194136891
 11
158.0423789683
 21
31.483941062
  0
LINE
  5
27E
100
AcDbEntity
  8
0
100
AcDbLine
 62
7
  6
CONTINUOUS
 10
159.4298789683
 20
31.1290405113
 11
159.2564414683
 21
31.1935678842
  0
LINE
  5
27F
100
AcDbEntity
  8
0
100
AcDbLine
 62
7
  6
CONTINUOUS
 10
160.2392541889
 20
30.8709309748
 11
160.4126916889
 21
30.8064036019
  0
LINE
  5
280
100
AcDbEntity
  8
0
100
AcDbLine
 62
7
  6
CONTINUOUS
 10
160.6439414683
 20
31.3871500027
 11
160.4705039683
 21
31.4516773756
  0
LINE
  5
281
100
AcDbEntity
  8
0
100
AcDbLine
 62
7
  6
CONTINUOUS
 10
159.0251916889
 20
31.1290405113
 11
159.2564414683
 21
31.0322494069
  0
LINE
  5
282
100
AcDbEntity
  8
0
100
AcDbLine
 62
7
  6
CONTINUOUS
 10
160.6439414683
 20
30.8709309748
 11
160.4126916889
 21
30.967722034
  0
LINE
  5
283
100
AcDbEntity
  8
0
100
AcDbLine
 62
7
  6
CONTINUOUS
 10
159.1986291889
 20
31.258095257
 11
159.2564414683
 21
31.3226226299
  0
LINE
  5
284
100
AcDbEntity
  8
0
100
AcDbLine
 62
7
  6
CONTINUOUS
 10
149.6595664615
 20
31.3871500027
 11
149.5439414683
 21
31.3226226299
  0
LINE
  5
285
100
AcDbEntity
  8
0
100
AcDbLine
 62
7
  6
CONTINUOUS
 10
149.7751914546
 20
31.2258315706
 11
149.9486289546
 21
31.3226226299
  0
LINE
  5
286
100
AcDbEntity
  8
0
100
AcDbLine
 62
7
  6
CONTINUOUS
 10
152.0876915235
 20
31.4194136891
 11
151.9720664683
 21
31.3548863163
  0
LINE
  5
287
100
AcDbEntity
  8
0
100
AcDbLine
 62
7
  6
CONTINUOUS
 10
151.9720664683
 20
31.2258315706
 11
152.0876915235
 21
31.2903589434
  0
LINE
  5
288
100
AcDbEntity
  8
0
100
AcDbLine
 62
7
  6
CONTINUOUS
 10
150.9892539132
 20
30.5805577631
 11
151.1626914132
 21
30.6773488336
  0
LINE
  5
289
100
AcDbEntity
  8
0
100
AcDbLine
 62
7
  6
CONTINUOUS
 10
150.0064414821
 20
30.5160303817
 11
150.3533164408
 21
30.4837666925
  0
LINE
  5
28A
100
AcDbEntity
  8
0
100
AcDbLine
 62
7
  6
CONTINUOUS
 10
154.1111290786
 20
30.5160303817
 11
154.3423788581
 21
30.4837666925
  0
LINE
  5
28B
100
AcDbEntity
  8
0
100
AcDbLine
 62
7
  6
CONTINUOUS
 10
152.4923789683
 20
31.3871500027
 11
152.7236290786
 21
31.3548863163
  0
LINE
  5
28C
100
AcDbEntity
  8
0
100
AcDbLine
 62
7
  6
CONTINUOUS
 10
154.8048790786
 20
31.3871500027
 11
155.0361291889
 21
31.3548863163
  0
LINE
  5
28D
100
AcDbEntity
  8
0
100
AcDbLine
 62
7
  6
CONTINUOUS
 10
159.2564414683
 20
31.0322494069
 11
160.2392541889
 21
30.8709309748
  0
LINE
  5
28E
100
AcDbEntity
  8
0
100
AcDbLine
 62
7
  6
CONTINUOUS
 10
160.4126916889
 20
30.967722034
 11
159.4298789683
 21
31.1290405113
  0
LINE
  5
28F
100
AcDbEntity
  8
0
100
AcDbLine
 62
7
  6
CONTINUOUS
 10
152.8970665786
 20
31.483941062
 11
152.7236290786
 21
31.5162047484
  0
LINE
  5
290
100
AcDbEntity
  8
0
100
AcDbLine
 62
7
  6
CONTINUOUS
 10
159.1986291889
 20
30.548294071
 11
159.3720666889
 21
30.5160303817
  0
LINE
  5
291
100
AcDbEntity
  8
0
100
AcDbLine
 62
7
  6
CONTINUOUS
 10
158.0423789683
 20
31.483941062
 11
157.8689414683
 21
31.5162047484
  0
LINE
  5
292
100
AcDbEntity
  8
0
100
AcDbLine
 62
7
  6
CONTINUOUS
 10
160.2970664683
 20
31.3548863163
 11
160.4126916889
 21
31.3226226299
  0
LINE
  5
293
100
AcDbEntity
  8
0
100
AcDbLine
 62
7
  6
CONTINUOUS
 10
160.4705039683
 20
30.7418762065
 11
160.4126916889
 21
30.6773488336
  0
LINE
  5
294
100
AcDbEntity
  8
0
100
AcDbLine
 62
7
  6
CONTINUOUS
 10
159.0251916889
 20
31.4194136891
 11
158.9095664683
 21
31.3226226299
  0
LINE
  5
295
100
AcDbEntity
  8
0
100
AcDbLine
 62
7
  6
CONTINUOUS
 10
153.9376915786
 20
31.4516773756
 11
153.8220663581
 21
31.3871500027
  0
LINE
  5
296
100
AcDbEntity
  8
0
100
AcDbLine
 62
7
  6
CONTINUOUS
 10
153.9955038581
 20
31.0645131385
 11
153.8798789683
 21
30.9999857205
  0
LINE
  5
297
100
AcDbEntity
  8
0
100
AcDbLine
 62
7
  6
CONTINUOUS
 10
154.1111290786
 20
30.9031946612
 11
154.2267539683
 21
30.967722034
  0
LINE
  5
298
100
AcDbEntity
  8
0
100
AcDbLine
 62
7
  6
CONTINUOUS
 10
151.6830039132
 20
30.4837666925
 11
151.9720664683
 21
30.4837666925
  0
LINE
  5
299
100
AcDbEntity
  8
0
100
AcDbLine
 62
7
  6
CONTINUOUS
 10
153.0126914683
 20
30.4837666925
 11
153.3017538581
 21
30.4837666925
  0
LINE
  5
29A
100
AcDbEntity
  8
0
100
AcDbLine
 62
7
  6
CONTINUOUS
 10
154.3423788581
 20
30.4837666925
 11
154.6892538581
 21
30.4837666925
  0
LINE
  5
29B
100
AcDbEntity
  8
0
100
AcDbLine
 62
7
  6
CONTINUOUS
 10
155.3251912478
 20
30.4837666925
 11
155.6142539683
 21
30.4837666925
  0
LINE
  5
29C
100
AcDbEntity
  8
0
100
AcDbLine
 62
7
  6
CONTINUOUS
 10
156.0767541889
 20
30.4837666925
 11
156.3658162478
 21
30.4837666925
  0
LINE
  5
29D
100
AcDbEntity
  8
0
100
AcDbLine
 62
7
  6
CONTINUOUS
 10
156.8283164683
 20
30.4837666925
 11
157.1173791889
 21
30.4837666925
  0
LINE
  5
29E
100
AcDbEntity
  8
0
100
AcDbLine
 62
7
  6
CONTINUOUS
 10
158.1580041889
 20
30.4837666925
 11
158.4470662478
 21
30.4837666925
  0
LINE
  5
29F
100
AcDbEntity
  8
0
100
AcDbLine
 62
7
  6
CONTINUOUS
 10
159.7189416889
 20
30.4837666925
 11
160.0658166889
 21
30.4837666925
  0
LINE
  5
2A0
100
AcDbEntity
  8
0
100
AcDbLine
 62
7
  6
CONTINUOUS
 10
160.0658166889
 20
30.6128214495
 11
159.7189416889
 21
30.6128214495
  0
LINE
  5
2A1
100
AcDbEntity
  8
0
100
AcDbLine
 62
7
  6
CONTINUOUS
 10
154.6892538581
 20
30.6128214495
 11
154.3423788581
 21
30.6128214495
  0
LINE
  5
2A2
100
AcDbEntity
  8
0
100
AcDbLine
 62
7
  6
CONTINUOUS
 10
159.1986291889
 20
30.7418762065
 11
158.9095664683
 21
30.7418762065
  0
LINE
  5
2A3
100
AcDbEntity
  8
0
100
AcDbLine
 62
7
  6
CONTINUOUS
 10
151.2205040235
 20
30.8064036019
 11
150.9314414683
 21
30.8064036019
  0
LINE
  5
2A4
100
AcDbEntity
  8
0
100
AcDbLine
 62
7
  6
CONTINUOUS
 10
150.2955039959
 20
31.3871500027
 11
150.7001914408
 21
31.3548863163
  0
LINE
  5
2A5
100
AcDbEntity
  8
0
100
AcDbLine
 62
7
  6
CONTINUOUS
 10
150.7580039683
 20
31.483941062
 11
150.3533164408
 21
31.5162047484
  0
LINE
  5
2A6
100
AcDbEntity
  8
0
100
AcDbLine
 62
7
  6
CONTINUOUS
 10
159.3720666889
 20
30.5160303817
 11
159.7189416889
 21
30.4837666925
  0
LINE
  5
2A7
100
AcDbEntity
  8
0
100
AcDbLine
 62
7
  6
CONTINUOUS
 10
159.7189416889
 20
30.6128214495
 11
159.3720666889
 21
30.6450851472
  0
LINE
  5
2A8
100
AcDbEntity
  8
0
100
AcDbLine
 62
7
  6
CONTINUOUS
 10
155.1517537478
 20
31.483941062
 11
154.8048790786
 21
31.5162047484
  0
LINE
  5
2A9
100
AcDbEntity
  8
0
100
AcDbLine
 62
7
  6
CONTINUOUS
 10
159.9501914683
 20
31.3871500027
 11
160.2970664683
 21
31.3548863163
  0
LINE
  5
2AA
100
AcDbEntity
  8
0
100
AcDbLine
 62
7
  6
CONTINUOUS
 10
160.2970664683
 20
31.483941062
 11
159.9501914683
 21
31.5162047484
  0
LINE
  5
2AB
100
AcDbEntity
  8
0
100
AcDbLine
 62
7
  6
CONTINUOUS
 10
157.6376916889
 20
31.3871500027
 11
157.8689414683
 21
31.3548863163
  0
LINE
  5
2AC
100
AcDbEntity
  8
0
100
AcDbLine
 62
7
  6
CONTINUOUS
 10
160.4705039683
 20
31.4516773756
 11
160.2970664683
 21
31.483941062
  0
LINE
  5
2AD
100
AcDbEntity
  8
0
100
AcDbLine
 62
7
  6
CONTINUOUS
 10
160.6439414683
 20
30.5805577631
 11
160.7595660273
 21
30.6773488336
  0
LINE
  5
2AE
100
AcDbEntity
  8
0
100
AcDbLine
 62
7
  6
CONTINUOUS
 10
155.1517537478
 20
30.7741399155
 11
154.9783162478
 21
30.6773488336
  0
LINE
  5
2AF
100
AcDbEntity
  8
0
100
AcDbLine
 62
7
  6
CONTINUOUS
 10
157.2330037478
 20
31.4194136891
 11
157.1173791889
 21
31.3548863163
  0
LINE
  5
2B0
100
AcDbEntity
  8
0
100
AcDbLine
 62
7
  6
CONTINUOUS
 10
157.1173791889
 20
31.2258315706
 11
157.2330037478
 21
31.2903589434
  0
LINE
  5
2B1
100
AcDbEntity
  8
0
100
AcDbLine
 62
7
  6
CONTINUOUS
 10
149.8330039821
 20
31.4516773756
 11
149.6595664615
 21
31.3871500027
  0
LINE
  5
2B2
100
AcDbEntity
  8
0
100
AcDbLine
 62
7
  6
CONTINUOUS
 10
152.2611288581
 20
31.483941062
 11
152.0876915235
 21
31.4194136891
  0
LINE
  5
2B3
100
AcDbEntity
  8
0
100
AcDbLine
 62
7
  6
CONTINUOUS
 10
152.0876915235
 20
31.2903589434
 11
152.2611288581
 21
31.3548863163
  0
LINE
  5
2B4
100
AcDbEntity
  8
0
100
AcDbLine
 62
7
  6
CONTINUOUS
 10
150.8736290235
 20
30.7096125201
 11
150.7001914408
 21
30.6450851472
  0
LINE
  5
2B5
100
AcDbEntity
  8
0
100
AcDbLine
 62
7
  6
CONTINUOUS
 10
160.2970664683
 20
30.6450851472
 11
160.0658166889
 21
30.6128214495
  0
LINE
  5
2B6
100
AcDbEntity
  8
0
100
AcDbLine
 62
7
  6
CONTINUOUS
 10
154.6892538581
 20
30.4837666925
 11
154.9783162478
 21
30.5160303817
  0
LINE
  5
2B7
100
AcDbEntity
  8
0
100
AcDbLine
 62
7
  6
CONTINUOUS
 10
160.0658166889
 20
30.4837666925
 11
160.4126916889
 21
30.5160303817
  0
LINE
  5
2B8
100
AcDbEntity
  8
0
100
AcDbLine
 62
7
  6
CONTINUOUS
 10
150.3533164408
 20
30.4837666925
 11
150.7580039683
 21
30.5160303817
  0
LINE
  5
2B9
100
AcDbEntity
  8
0
100
AcDbLine
 62
7
  6
CONTINUOUS
 10
150.7001914408
 20
30.6450851472
 11
150.2955039959
 21
30.6128214495
  0
LINE
  5
2BA
100
AcDbEntity
  8
0
100
AcDbLine
 62
7
  6
CONTINUOUS
 10
154.5736289683
 20
31.0322494069
 11
155.2095666889
 21
31.0322494069
  0
LINE
  5
2BB
100
AcDbEntity
  8
0
100
AcDbLine
 62
7
  6
CONTINUOUS
 10
155.2095666889
 20
31.1613041978
 11
154.5736289683
 21
31.1613041978
  0
LINE
  5
2BC
100
AcDbEntity
  8
0
100
AcDbLine
 62
7
  6
CONTINUOUS
 10
150.9314414683
 20
31.1935678842
 11
151.2205040235
 21
31.1935678842
  0
LINE
  5
2BD
100
AcDbEntity
  8
0
100
AcDbLine
 62
7
  6
CONTINUOUS
 10
153.7642540786
 20
31.258095257
 11
154.0533164683
 21
31.258095257
  0
LINE
  5
2BE
100
AcDbEntity
  8
0
100
AcDbLine
 62
7
  6
CONTINUOUS
 10
160.4705039683
 20
31.258095257
 11
160.7595660273
 21
31.258095257
  0
LINE
  5
2BF
100
AcDbEntity
  8
0
100
AcDbLine
 62
7
  6
CONTINUOUS
 10
154.4580040786
 20
31.3871500027
 11
154.8048790786
 21
31.3871500027
  0
LINE
  5
2C0
100
AcDbEntity
  8
0
100
AcDbLine
 62
7
  6
CONTINUOUS
 10
159.6033164683
 20
31.3871500027
 11
159.9501914683
 21
31.3871500027
  0
LINE
  5
2C1
100
AcDbEntity
  8
0
100
AcDbLine
 62
7
  6
CONTINUOUS
 10
159.9501914683
 20
31.5162047484
 11
159.6033164683
 21
31.5162047484
  0
LINE
  5
2C2
100
AcDbEntity
  8
0
100
AcDbLine
 62
7
  6
CONTINUOUS
 10
157.8689414683
 20
31.5162047484
 11
157.6376916889
 21
31.5162047484
  0
LINE
  5
2C3
100
AcDbEntity
  8
0
100
AcDbLine
 62
7
  6
CONTINUOUS
 10
157.1173791889
 20
31.5162047484
 11
156.8283164683
 21
31.5162047484
  0
LINE
  5
2C4
100
AcDbEntity
  8
0
100
AcDbLine
 62
7
  6
CONTINUOUS
 10
156.3658162478
 20
31.5162047484
 11
156.0767541889
 21
31.5162047484
  0
LINE
  5
2C5
100
AcDbEntity
  8
0
100
AcDbLine
 62
7
  6
CONTINUOUS
 10
154.8048790786
 20
31.5162047484
 11
154.4580040786
 21
31.5162047484
  0
LINE
  5
2C6
100
AcDbEntity
  8
0
100
AcDbLine
 62
7
  6
CONTINUOUS
 10
152.7236290786
 20
31.5162047484
 11
152.4923789683
 21
31.5162047484
  0
LINE
  5
2C7
100
AcDbEntity
  8
0
100
AcDbLine
 62
7
  6
CONTINUOUS
 10
156.0767541889
 20
31.838841703
 11
156.3658162478
 21
31.838841703
  0
LINE
  5
2C8
100
AcDbEntity
  8
0
100
AcDbLine
 62
7
  6
CONTINUOUS
 10
156.3658162478
 20
32.0001601351
 11
156.0767541889
 21
32.0001601351
  0
LINE
  5
2C9
100
AcDbEntity
  8
0
100
AcDbLine
 62
7
  6
CONTINUOUS
 10
151.9720664683
 20
32.0001601351
 11
151.6830039132
 21
32.0001601351
  0
LINE
  5
2CA
100
AcDbEntity
  8
0
100
AcDbLine
 62
7
  6
CONTINUOUS
 10
151.0098482306
 20
32.287045381
 11
151.4224195792
 21
32.287045381
  0
LINE
  5
2CB
100
AcDbEntity
  8
0
100
AcDbLine
 62
7
  6
CONTINUOUS
 10
152.6491924929
 20
32.287045381
 11
154.0426351159
 21
32.287045381
  0
LINE
  5
2CC
100
AcDbEntity
  8
0
100
AcDbLine
 62
7
  6
CONTINUOUS
 10
154.3705039683
 20
32.287045381
 11
155.7639465913
 21
32.287045381
  0
LINE
  5
2CD
100
AcDbEntity
  8
0
100
AcDbLine
 62
7
  6
CONTINUOUS
 10
157.6491924929
 20
32.287045381
 11
159.0426351159
 21
32.287045381
  0
LINE
  5
2CE
100
AcDbEntity
  8
0
100
AcDbLine
 62
7
  6
CONTINUOUS
 10
159.3705039683
 20
32.287045381
 11
160.7639465913
 21
32.287045381
  0
LINE
  5
2CF
100
AcDbEntity
  8
0
100
AcDbLine
 62
7
  6
CONTINUOUS
 10
157.4064412478
 20
31.483941062
 11
157.2330037478
 21
31.4194136891
  0
LINE
  5
2D0
100
AcDbEntity
  8
0
100
AcDbLine
 62
7
  6
CONTINUOUS
 10
154.9783162478
 20
30.5160303817
 11
155.1517537478
 21
30.5805577631
  0
LINE
  5
2D1
100
AcDbEntity
  8
0
100
AcDbLine
 62
7
  6
CONTINUOUS
 10
160.4126916889
 20
30.5160303817
 11
160.6439414683
 21
30.5805577631
  0
LINE
  5
2D2
100
AcDbEntity
  8
0
100
AcDbLine
 62
7
  6
CONTINUOUS
 10
160.4126916889
 20
30.6773488336
 11
160.2970664683
 21
30.6450851472
  0
LINE
  5
2D3
100
AcDbEntity
  8
0
100
AcDbLine
 62
7
  6
CONTINUOUS
 10
159.3720666889
 20
31.3548863163
 11
159.6033164683
 21
31.3871500027
  0
LINE
  5
2D4
100
AcDbEntity
  8
0
100
AcDbLine
 62
7
  6
CONTINUOUS
 10
157.4064412478
 20
31.3548863163
 11
157.6376916889
 21
31.3871500027
  0
LINE
  5
2D5
100
AcDbEntity
  8
0
100
AcDbLine
 62
7
  6
CONTINUOUS
 10
154.3423788581
 20
30.9999857205
 11
154.5736289683
 21
31.0322494069
  0
LINE
  5
2D6
100
AcDbEntity
  8
0
100
AcDbLine
 62
7
  6
CONTINUOUS
 10
157.6376916889
 20
31.5162047484
 11
157.4064412478
 21
31.483941062
  0
LINE
  5
2D7
100
AcDbEntity
  8
0
100
AcDbLine
 62
7
  6
CONTINUOUS
 10
154.2267539683
 20
31.3548863163
 11
154.4580040786
 21
31.3871500027
  0
LINE
  5
2D8
100
AcDbEntity
  8
0
100
AcDbLine
 62
7
  6
CONTINUOUS
 10
159.6033164683
 20
31.5162047484
 11
159.2564414683
 21
31.483941062
  0
LINE
  5
2D9
100
AcDbEntity
  8
0
100
AcDbLine
 62
7
  6
CONTINUOUS
 10
154.5736289683
 20
31.1613041978
 11
154.2267539683
 21
31.1290405113
  0
LINE
  5
2DA
100
AcDbEntity
  8
0
100
AcDbLine
 62
7
  6
CONTINUOUS
 10
150.3533164408
 20
31.5162047484
 11
150.0064414821
 21
31.483941062
  0
LINE
  5
2DB
100
AcDbEntity
  8
0
100
AcDbLine
 62
7
  6
CONTINUOUS
 10
154.4580040786
 20
31.5162047484
 11
154.0533164683
 21
31.483941062
  0
LINE
  5
2DC
100
AcDbEntity
  8
0
100
AcDbLine
 62
7
  6
CONTINUOUS
 10
151.8295203618
 20
33.4345863646
 11
151.1737826569
 21
33.4345863646
  0
LINE
  5
2DD
100
AcDbEntity
  8
0
100
AcDbLine
 62
7
  6
CONTINUOUS
 10
157.2330037478
 20
31.2903589434
 11
157.4064412478
 21
31.3548863163
  0
LINE
  5
2DE
100
AcDbEntity
  8
0
100
AcDbLine
 62
7
  6
CONTINUOUS
 10
159.2564414683
 20
31.3226226299
 11
159.3720666889
 21
31.3548863163
  0
LINE
  5
2DF
100
AcDbEntity
  8
0
100
AcDbLine
 62
7
  6
CONTINUOUS
 10
159.2564414683
 20
31.483941062
 11
159.0251916889
 21
31.4194136891
  0
LINE
  5
2E0
100
AcDbEntity
  8
0
100
AcDbLine
 62
7
  6
CONTINUOUS
 10
154.9783162478
 20
30.6773488336
 11
154.6892538581
 21
30.6128214495
  0
LINE
  5
2E1
100
AcDbEntity
  8
0
100
AcDbLine
 62
7
  6
CONTINUOUS
 10
152.2611288581
 20
31.3548863163
 11
152.4923789683
 21
31.3871500027
  0
LINE
  5
2E2
100
AcDbEntity
  8
0
100
AcDbLine
 62
7
  6
CONTINUOUS
 10
152.4923789683
 20
31.5162047484
 11
152.2611288581
 21
31.483941062
  0
LINE
  5
2E3
100
AcDbEntity
  8
0
100
AcDbLine
 62
7
  6
CONTINUOUS
 10
150.0642539683
 20
31.3548863163
 11
150.2955039959
 21
31.3871500027
  0
LINE
  5
2E4
100
AcDbEntity
  8
0
100
AcDbLine
 62
7
  6
CONTINUOUS
 10
156.5836187224
 20
34.9099962007
 11
157.2393564274
 21
34.9099962007
  0
LINE
  5
2E5
100
AcDbEntity
  8
0
100
AcDbLine
 62
7
  6
CONTINUOUS
 10
154.2267539683
 20
30.967722034
 11
154.3423788581
 21
30.9999857205
  0
LINE
  5
2E6
100
AcDbEntity
  8
0
100
AcDbLine
 62
7
  6
CONTINUOUS
 10
154.2267539683
 20
31.1290405113
 11
153.9955038581
 21
31.0645131385
  0
LINE
  5
2E7
100
AcDbEntity
  8
0
100
AcDbLine
 62
7
  6
CONTINUOUS
 10
154.1111290786
 20
31.3226226299
 11
154.2267539683
 21
31.3548863163
  0
LINE
  5
2E8
100
AcDbEntity
  8
0
100
AcDbLine
 62
7
  6
CONTINUOUS
 10
150.7580039683
 20
30.5160303817
 11
150.9892539132
 21
30.5805577631
  0
LINE
  5
2E9
100
AcDbEntity
  8
0
100
AcDbLine
 62
7
  6
CONTINUOUS
 10
154.0533164683
 20
31.483941062
 11
153.9376915786
 21
31.4516773756
  0
LINE
  5
2EA
100
AcDbEntity
  8
0
100
AcDbLine
 62
7
  6
CONTINUOUS
 10
150.0064414821
 20
31.483941062
 11
149.8330039821
 21
31.4516773756
  0
LINE
  5
2EB
100
AcDbEntity
  8
0
100
AcDbLine
 62
7
  6
CONTINUOUS
 10
160.7639465913
 20
36.0575371843
 11
159.3705039683
 21
36.0575371843
  0
LINE
  5
2EC
100
AcDbEntity
  8
0
100
AcDbLine
 62
7
  6
CONTINUOUS
 10
157.4032908536
 20
36.0575371843
 11
156.990719505
 21
36.0575371843
  0
LINE
  5
2ED
100
AcDbEntity
  8
0
100
AcDbLine
 62
7
  6
CONTINUOUS
 10
155.7639465913
 20
36.0575371843
 11
154.3705039683
 21
36.0575371843
  0
LINE
  5
2EE
100
AcDbEntity
  8
0
100
AcDbLine
 62
7
  6
CONTINUOUS
 10
154.0426351159
 20
36.0575371843
 11
152.6491924929
 21
36.0575371843
  0
LINE
  5
2EF
100
AcDbEntity
  8
0
100
AcDbLine
 62
7
  6
CONTINUOUS
 10
150.7639465913
 20
36.0575371843
 11
149.3705039683
 21
36.0575371843
  0
LINE
  5
2F0
100
AcDbEntity
  8
0
100
AcDbLine
 62
7
  6
CONTINUOUS
 10
149.9486289546
 20
31.3226226299
 11
150.0642539683
 21
31.3548863163
  0
CIRCLE
  5
2F1
100
AcDbEntity
  8
0
100
AcDbCircle
 62
7
  6
CONTINUOUS
 10
160.0672252798
 20
38.3936027581
 40
2.0901639344
  0
ARC
  5
2F2
100
AcDbEntity
  8
0
100
AcDbCircle
 62
7
  6
CONTINUOUS
 10
151.0098482306
 20
33.9263896433
 40
1.6393442623
100
AcDbArc
 50
180.0
 51
270.0
  0
ARC
  5
2F3
100
AcDbEntity
  8
0
100
AcDbCircle
 62
7
  6
CONTINUOUS
 10
157.4032908536
 20
34.418192922
 40
1.6393442623
100
AcDbArc
 50
0.0
 51
90.0
  0
ARC
  5
2F4
100
AcDbEntity
  8
0
100
AcDbCircle
 62
7
  6
CONTINUOUS
 10
151.4224195792
 20
33.7624552171
 40
1.4754098361
100
AcDbArc
 50
270.0
 51
326.2510114041
  0
ARC
  5
2F5
100
AcDbEntity
  8
0
100
AcDbCircle
 62
7
  6
CONTINUOUS
 10
156.990719505
 20
34.5821273482
 40
1.4754098361
100
AcDbArc
 50
90.0
 51
146.2510114041
  0
ARC
  5
2F6
100
AcDbEntity
  8
0
100
AcDbCircle
 62
7
  6
CONTINUOUS
 10
151.8295203618
 20
34.2542584958
 40
0.8196721311
100
AcDbArc
 50
270.0
 51
360.0
  0
ARC
  5
2F7
100
AcDbEntity
  8
0
100
AcDbCircle
 62
7
  6
CONTINUOUS
 10
156.5836187224
 20
34.0903240696
 40
0.8196721311
100
AcDbArc
 50
90.0
 51
180.0
  0
ARC
  5
2F8
100
AcDbEntity
  8
0
100
AcDbCircle
 62
7
  6
CONTINUOUS
 10
151.1737826569
 20
33.8444224302
 40
0.4098360656
100
AcDbArc
 50
180.0
 51
270.0
  0
ARC
  5
2F9
100
AcDbEntity
  8
0
100
AcDbCircle
 62
7
  6
CONTINUOUS
 10
157.2393564274
 20
34.5001601351
 40
0.4098360656
100
AcDbArc
 50
0.0
 51
90.0
  0
SOLID
  5
2FA
100
AcDbEntity
  8
0
100
AcDbTrace
 62
7
  6
CONTINUOUS
 10
156.0767541889
 20
31.8388420633
 11
156.0767541889
 21
32.0001605469
 12
156.3658162478
 22
31.8388420633
 13
156.3658162478
 23
32.0001605469
  0
LWPOLYLINE
  5
2FB
100
AcDbEntity
  8
0
100
AcDbPolyline
 62
7
  6
CONTINUOUS
 90
13
 70
0
 10
150.3533164408
 20
31.5162050961
 10
150.7580039683
 20
31.4839407928
 10
150.9892539132
 20
31.4194137026
 10
151.1626914132
 20
31.3226223092
 10
151.2205040235
 20
31.1935681288
 10
150.9314414683
 20
31.1935681288
 10
150.8736290235
 20
31.2903595223
 10
150.7001914408
 20
31.3548866125
 10
150.2955039959
 20
31.3871493993
 10
149.6595664615
 20
31.3871493993
 10
149.8330039821
 20
31.4516780059
 10
150.0064414821
 20
31.4839407928
 10
150.3533164408
 20
31.5162050961
  0
HATCH
  5
2FC
100
AcDbEntity
  8
0
100
AcDbHatch
 62
7
  6
CONTINUOUS
 10
0.0
 20
0.0
 30
0.0
210
0.0
220
0.0
230
1.0
  2
SOLID
 70
1
 71
1
 91
1
 92
1
 93
12
 72
1
 10
150.3533164408
 20
31.5162050961
 11
150.7580039683
 21
31.4839407928
 72
1
 10
150.7580039683
 20
31.4839407928
 11
150.9892539132
 21
31.4194137026
 72
1
 10
150.9892539132
 20
31.4194137026
 11
151.1626914132
 21
31.3226223092
 72
1
 10
151.1626914132
 20
31.3226223092
 11
151.2205040235
 21
31.1935681288
 72
1
 10
151.2205040235
 20
31.1935681288
 11
150.9314414683
 21
31.1935681288
 72
1
 10
150.9314414683
 20
31.1935681288
 11
150.8736290235
 21
31.2903595223
 72
1
 10
150.8736290235
 20
31.2903595223
 11
150.7001914408
 21
31.3548866125
 72
1
 10
150.7001914408
 20
31.3548866125
 11
150.2955039959
 21
31.3871493993
 72
1
 10
150.2955039959
 20
31.3871493993
 11
149.6595664615
 21
31.3871493993
 72
1
 10
149.6595664615
 20
31.3871493993
 11
149.8330039821
 21
31.4516780059
 72
1
 10
149.8330039821
 20
31.4516780059
 11
150.0064414821
 21
31.4839407928
 72
1
 10
150.0064414821
 20
31.4839407928
 11
150.3533164408
 21
31.5162050961
 97
1
330
2FB
 75
0
 76
1
 98
1
 10
0.0
 20
0.0
  0
LWPOLYLINE
  5
2FD
100
AcDbEntity
  8
0
100
AcDbPolyline
 62
7
  6
CONTINUOUS
 90
25
 70
0
 10
152.2611288581
 20
31.4839407928
 10
152.4923789683
 20
31.5162050961
 10
152.7236290786
 20
31.5162050961
 10
152.8970665786
 20
31.4839407928
 10
153.0705040786
 20
31.4194137026
 10
153.1861289683
 20
31.3548866125
 10
153.2439415786
 20
31.2903595223
 10
153.3017538581
 20
31.1290410387
 10
153.3017538581
 20
30.4837671043
 10
153.0126914683
 20
30.4837671043
 10
153.0126914683
 20
31.1290410387
 10
152.9548788581
 20
31.258095219
 10
152.8392539683
 20
31.3226223092
 10
152.7236290786
 20
31.3548866125
 10
152.4923789683
 20
31.3871493993
 10
152.2611288581
 20
31.3548866125
 10
152.0876915235
 20
31.2903595223
 10
151.9720664683
 20
31.2258309157
 10
151.9720664683
 20
30.4837671043
 10
151.6830039132
 20
30.4837671043
 10
151.6830039132
 20
32.0001605469
 10
151.9720664683
 20
32.0001605469
 10
151.9720664683
 20
31.3548866125
 10
152.0876915235
 20
31.4194137026
 10
152.2611288581
 20
31.4839407928
  0
HATCH
  5
2FE
100
AcDbEntity
  8
0
100
AcDbHatch
 62
7
  6
CONTINUOUS
 10
0.0
 20
0.0
 30
0.0
210
0.0
220
0.0
230
1.0
  2
SOLID
 70
1
 71
1
 91
1
 92
1
 93
24
 72
1
 10
152.2611288581
 20
31.4839407928
 11
152.4923789683
 21
31.5162050961
 72
1
 10
152.4923789683
 20
31.5162050961
 11
152.7236290786
 21
31.5162050961
 72
1
 10
152.7236290786
 20
31.5162050961
 11
152.8970665786
 21
31.4839407928
 72
1
 10
152.8970665786
 20
31.4839407928
 11
153.0705040786
 21
31.4194137026
 72
1
 10
153.0705040786
 20
31.4194137026
 11
153.1861289683
 21
31.3548866125
 72
1
 10
153.1861289683
 20
31.3548866125
 11
153.2439415786
 21
31.2903595223
 72
1
 10
153.2439415786
 20
31.2903595223
 11
153.3017538581
 21
31.1290410387
 72
1
 10
153.3017538581
 20
31.1290410387
 11
153.3017538581
 21
30.4837671043
 72
1
 10
153.3017538581
 20
30.4837671043
 11
153.0126914683
 21
30.4837671043
 72
1
 10
153.0126914683
 20
30.4837671043
 11
153.0126914683
 21
31.1290410387
 72
1
 10
153.0126914683
 20
31.1290410387
 11
152.9548788581
 21
31.258095219
 72
1
 10
152.9548788581
 20
31.258095219
 11
152.8392539683
 21
31.3226223092
 72
1
 10
152.8392539683
 20
31.3226223092
 11
152.7236290786
 21
31.3548866125
 72
1
 10
152.7236290786
 20
31.3548866125
 11
152.4923789683
 21
31.3871493993
 72
1
 10
152.4923789683
 20
31.3871493993
 11
152.2611288581
 21
31.3548866125
 72
1
 10
152.2611288581
 20
31.3548866125
 11
152.0876915235
 21
31.2903595223
 72
1
 10
152.0876915235
 20
31.2903595223
 11
151.9720664683
 21
31.2258309157
 72
1
 10
151.9720664683
 20
31.2258309157
 11
151.9720664683
 21
30.4837671043
 72
1
 10
151.9720664683
 20
30.4837671043
 11
151.6830039132
 21
30.4837671043
 72
1
 10
151.6830039132
 20
30.4837671043
 11
151.6830039132
 21
32.0001605469
 72
1
 10
151.6830039132
 20
32.0001605469
 11
151.9720664683
 21
32.0001605469
 72
1
 10
151.9720664683
 20
32.0001605469
 11
151.9720664683
 21
31.3548866125
 72
1
 10
151.9720664683
 20
31.3548866125
 11
152.0876915235
 21
31.4194137026
 72
1
 10
152.0876915235
 20
31.4194137026
 11
152.2611288581
 21
31.4839407928
 97
1
330
2FD
 75
0
 76
1
 98
1
 10
0.0
 20
0.0
  0
LWPOLYLINE
  5
2FF
100
AcDbEntity
  8
0
100
AcDbPolyline
 62
7
  6
CONTINUOUS
 90
20
 70
0
 10
154.0533164683
 20
31.4839407928
 10
154.4580040786
 20
31.5162050961
 10
154.8048790786
 20
31.5162050961
 10
155.1517537478
 20
31.4839407928
 10
155.3251912478
 20
31.4194137026
 10
155.4408164683
 20
31.3548866125
 10
155.4986287478
 20
31.258095219
 10
155.4986287478
 20
30.7418754649
 10
155.2095666889
 20
30.8386672883
 10
155.2095666889
 20
31.0322496452
 10
155.2095666889
 20
31.1613038256
 10
155.2095666889
 20
31.258095219
 10
155.1517537478
 20
31.3226223092
 10
155.0361291889
 20
31.3548866125
 10
154.8048790786
 20
31.3871493993
 10
154.4580040786
 20
31.3871493993
 10
153.7642540786
 20
31.3226223092
 10
153.8220663581
 20
31.3871493993
 10
153.9376915786
 20
31.4516780059
 10
154.0533164683
 20
31.4839407928
  0
HATCH
  5
300
100
AcDbEntity
  8
0
100
AcDbHatch
 62
7
  6
CONTINUOUS
 10
0.0
 20
0.0
 30
0.0
210
0.0
220
0.0
230
1.0
  2
SOLID
 70
1
 71
1
 91
1
 92
1
 93
19
 72
1
 10
154.0533164683
 20
31.4839407928
 11
154.4580040786
 21
31.5162050961
 72
1
 10
154.4580040786
 20
31.5162050961
 11
154.8048790786
 21
31.5162050961
 72
1
 10
154.8048790786
 20
31.5162050961
 11
155.1517537478
 21
31.4839407928
 72
1
 10
155.1517537478
 20
31.4839407928
 11
155.3251912478
 21
31.4194137026
 72
1
 10
155.3251912478
 20
31.4194137026
 11
155.4408164683
 21
31.3548866125
 72
1
 10
155.4408164683
 20
31.3548866125
 11
155.4986287478
 21
31.258095219
 72
1
 10
155.4986287478
 20
31.258095219
 11
155.4986287478
 21
30.7418754649
 72
1
 10
155.4986287478
 20
30.7418754649
 11
155.2095666889
 21
30.8386672883
 72
1
 10
155.2095666889
 20
30.8386672883
 11
155.2095666889
 21
31.0322496452
 72
1
 10
155.2095666889
 20
31.0322496452
 11
155.2095666889
 21
31.1613038256
 72
1
 10
155.2095666889
 20
31.1613038256
 11
155.2095666889
 21
31.258095219
 72
1
 10
155.2095666889
 20
31.258095219
 11
155.1517537478
 21
31.3226223092
 72
1
 10
155.1517537478
 20
31.3226223092
 11
155.0361291889
 21
31.3548866125
 72
1
 10
155.0361291889
 20
31.3548866125
 11
154.8048790786
 21
31.3871493993
 72
1
 10
154.8048790786
 20
31.3871493993
 11
154.4580040786
 21
31.3871493993
 72
1
 10
154.4580040786
 20
31.3871493993
 11
153.7642540786
 21
31.3226223092
 72
1
 10
153.7642540786
 20
31.3226223092
 11
153.8220663581
 21
31.3871493993
 72
1
 10
153.8220663581
 20
31.3871493993
 11
153.9376915786
 21
31.4516780059
 72
1
 10
153.9376915786
 20
31.4516780059
 11
154.0533164683
 21
31.4839407928
 97
1
330
2FF
 75
0
 76
1
 98
1
 10
0.0
 20
0.0
  0
LWPOLYLINE
  5
301
100
AcDbEntity
  8
0
100
AcDbPolyline
 62
7
  6
CONTINUOUS
 90
25
 70
0
 10
157.4064412478
 20
31.4839407928
 10
157.6376916889
 20
31.5162050961
 10
157.8689414683
 20
31.5162050961
 10
158.0423789683
 20
31.4839407928
 10
158.2158164683
 20
31.4194137026
 10
158.3314416889
 20
31.3548866125
 10
158.3892539683
 20
31.258095219
 10
158.4470662478
 20
31.0967767354
 10
158.4470662478
 20
30.4837671043
 10
158.1580041889
 20
30.4837671043
 10
158.1580041889
 20
31.0967767354
 10
158.1001912478
 20
31.258095219
 10
157.9845666889
 20
31.3226223092
 10
157.8689414683
 20
31.3548866125
 10
157.6376916889
 20
31.3871493993
 10
157.4064412478
 20
31.3548866125
 10
157.2330037478
 20
31.2903595223
 10
157.1173791889
 20
31.2258309157
 10
157.1173791889
 20
30.4837671043
 10
156.8283164683
 20
30.4837671043
 10
156.8283164683
 20
31.5162050961
 10
157.1173791889
 20
31.5162050961
 10
157.1173791889
 20
31.3548866125
 10
157.2330037478
 20
31.4194137026
 10
157.4064412478
 20
31.4839407928
  0
HATCH
  5
302
100
AcDbEntity
  8
0
100
AcDbHatch
 62
7
  6
CONTINUOUS
 10
0.0
 20
0.0
 30
0.0
210
0.0
220
0.0
230
1.0
  2
SOLID
 70
1
 71
1
 91
1
 92
1
 93
24
 72
1
 10
157.4064412478
 20
31.4839407928
 11
157.6376916889
 21
31.5162050961
 72
1
 10
157.6376916889
 20
31.5162050961
 11
157.8689414683
 21
31.5162050961
 72
1
 10
157.8689414683
 20
31.5162050961
 11
158.0423789683
 21
31.4839407928
 72
1
 10
158.0423789683
 20
31.4839407928
 11
158.2158164683
 21
31.4194137026
 72
1
 10
158.2158164683
 20
31.4194137026
 11
158.3314416889
 21
31.3548866125
 72
1
 10
158.3314416889
 20
31.3548866125
 11
158.3892539683
 21
31.258095219
 72
1
 10
158.3892539683
 20
31.258095219
 11
158.4470662478
 21
31.0967767354
 72
1
 10
158.4470662478
 20
31.0967767354
 11
158.4470662478
 21
30.4837671043
 72
1
 10
158.4470662478
 20
30.4837671043
 11
158.1580041889
 21
30.4837671043
 72
1
 10
158.1580041889
 20
30.4837671043
 11
158.1580041889
 21
31.0967767354
 72
1
 10
158.1580041889
 20
31.0967767354
 11
158.1001912478
 21
31.258095219
 72
1
 10
158.1001912478
 20
31.258095219
 11
157.9845666889
 21
31.3226223092
 72
1
 10
157.9845666889
 20
31.3226223092
 11
157.8689414683
 21
31.3548866125
 72
1
 10
157.8689414683
 20
31.3548866125
 11
157.6376916889
 21
31.3871493993
 72
1
 10
157.6376916889
 20
31.3871493993
 11
157.4064412478
 21
31.3548866125
 72
1
 10
157.4064412478
 20
31.3548866125
 11
157.2330037478
 21
31.2903595223
 72
1
 10
157.2330037478
 20
31.2903595223
 11
157.1173791889
 21
31.2258309157
 72
1
 10
157.1173791889
 20
31.2258309157
 11
157.1173791889
 21
30.4837671043
 72
1
 10
157.1173791889
 20
30.4837671043
 11
156.8283164683
 21
30.4837671043
 72
1
 10
156.8283164683
 20
30.4837671043
 11
156.8283164683
 21
31.5162050961
 72
1
 10
156.8283164683
 20
31.5162050961
 11
157.1173791889
 21
31.5162050961
 72
1
 10
157.1173791889
 20
31.5162050961
 11
157.1173791889
 21
31.3548866125
 72
1
 10
157.1173791889
 20
31.3548866125
 11
157.2330037478
 21
31.4194137026
 72
1
 10
157.2330037478
 20
31.4194137026
 11
157.4064412478
 21
31.4839407928
 97
1
330
301
 75
0
 76
1
 98
1
 10
0.0
 20
0.0
  0
LWPOLYLINE
  5
303
100
AcDbEntity
  8
0
100
AcDbPolyline
 62
7
  6
CONTINUOUS
 90
6
 70
0
 10
159.2564414683
 20
31.4839407928
 10
159.6033164683
 20
31.5162050961
 10
159.9501914683
 20
31.5162050961
 10
160.2970664683
 20
31.4839407928
 10
159.0251916889
 20
31.4194137026
 10
159.2564414683
 20
31.4839407928
  0
HATCH
  5
304
100
AcDbEntity
  8
0
100
AcDbHatch
 62
7
  6
CONTINUOUS
 10
0.0
 20
0.0
 30
0.0
210
0.0
220
0.0
230
1.0
  2
SOLID
 70
1
 71
1
 91
1
 92
1
 93
5
 72
1
 10
159.2564414683
 20
31.4839407928
 11
159.6033164683
 21
31.5162050961
 72
1
 10
159.6033164683
 20
31.5162050961
 11
159.9501914683
 21
31.5162050961
 72
1
 10
159.9501914683
 20
31.5162050961
 11
160.2970664683
 21
31.4839407928
 72
1
 10
160.2970664683
 20
31.4839407928
 11
159.0251916889
 21
31.4194137026
 72
1
 10
159.0251916889
 20
31.4194137026
 11
159.2564414683
 21
31.4839407928
 97
1
330
303
 75
0
 76
1
 98
1
 10
0.0
 20
0.0
  0
LWPOLYLINE
  5
305
100
AcDbEntity
  8
0
100
AcDbPolyline
 62
7
  6
CONTINUOUS
 90
12
 70
0
 10
160.4705039683
 20
31.4516780059
 10
160.6439414683
 20
31.3871493993
 10
160.7595660273
 20
31.258095219
 10
160.4705039683
 20
31.258095219
 10
160.4126916889
 20
31.3226223092
 10
160.2970664683
 20
31.3548866125
 10
159.9501914683
 20
31.3871493993
 10
159.6033164683
 20
31.3871493993
 10
158.9095664683
 20
31.3226223092
 10
159.0251916889
 20
31.4194137026
 10
160.2970664683
 20
31.4839407928
 10
160.4705039683
 20
31.4516780059
  0
HATCH
  5
306
100
AcDbEntity
  8
0
100
AcDbHatch
 62
7
  6
CONTINUOUS
 10
0.0
 20
0.0
 30
0.0
210
0.0
220
0.0
230
1.0
  2
SOLID
 70
1
 71
1
 91
1
 92
1
 93
11
 72
1
 10
160.4705039683
 20
31.4516780059
 11
160.6439414683
 21
31.3871493993
 72
1
 10
160.6439414683
 20
31.3871493993
 11
160.7595660273
 21
31.258095219
 72
1
 10
160.7595660273
 20
31.258095219
 11
160.4705039683
 21
31.258095219
 72
1
 10
160.4705039683
 20
31.258095219
 11
160.4126916889
 21
31.3226223092
 72
1
 10
160.4126916889
 20
31.3226223092
 11
160.2970664683
 21
31.3548866125
 72
1
 10
160.2970664683
 20
31.3548866125
 11
159.9501914683
 21
31.3871493993
 72
1
 10
159.9501914683
 20
31.3871493993
 11
159.6033164683
 21
31.3871493993
 72
1
 10
159.6033164683
 20
31.3871493993
 11
158.9095664683
 21
31.3226223092
 72
1
 10
158.9095664683
 20
31.3226223092
 11
159.0251916889
 21
31.4194137026
 72
1
 10
159.0251916889
 20
31.4194137026
 11
160.2970664683
 21
31.4839407928
 72
1
 10
160.2970664683
 20
31.4839407928
 11
160.4705039683
 21
31.4516780059
 97
1
330
305
 75
0
 76
1
 98
1
 10
0.0
 20
0.0
  0
LWPOLYLINE
  5
307
100
AcDbEntity
  8
0
100
AcDbPolyline
 62
7
  6
CONTINUOUS
 90
7
 70
0
 10
150.0642539683
 20
31.3548866125
 10
149.9486289546
 20
31.3226223092
 10
149.4283164701
 20
31.1935681288
 10
149.5439414683
 20
31.3226223092
 10
149.6595664615
 20
31.3871493993
 10
150.2955039959
 20
31.3871493993
 10
150.0642539683
 20
31.3548866125
  0
HATCH
  5
308
100
AcDbEntity
  8
0
100
AcDbHatch
 62
7
  6
CONTINUOUS
 10
0.0
 20
0.0
 30
0.0
210
0.0
220
0.0
230
1.0
  2
SOLID
 70
1
 71
1
 91
1
 92
1
 93
6
 72
1
 10
150.0642539683
 20
31.3548866125
 11
149.9486289546
 21
31.3226223092
 72
1
 10
149.9486289546
 20
31.3226223092
 11
149.4283164701
 21
31.1935681288
 72
1
 10
149.4283164701
 20
31.1935681288
 11
149.5439414683
 21
31.3226223092
 72
1
 10
149.5439414683
 20
31.3226223092
 11
149.6595664615
 21
31.3871493993
 72
1
 10
149.6595664615
 20
31.3871493993
 11
150.2955039959
 21
31.3871493993
 72
1
 10
150.2955039959
 20
31.3871493993
 11
150.0642539683
 21
31.3548866125
 97
1
330
307
 75
0
 76
1
 98
1
 10
0.0
 20
0.0
  0
LWPOLYLINE
  5
309
100
AcDbEntity
  8
0
100
AcDbPolyline
 62
7
  6
CONTINUOUS
 90
7
 70
0
 10
154.2267539683
 20
31.3548866125
 10
154.1111290786
 20
31.3226223092
 10
154.0533164683
 20
31.258095219
 10
153.7642540786
 20
31.258095219
 10
153.7642540786
 20
31.3226223092
 10
154.4580040786
 20
31.3871493993
 10
154.2267539683
 20
31.3548866125
  0
HATCH
  5
30A
100
AcDbEntity
  8
0
100
AcDbHatch
 62
7
  6
CONTINUOUS
 10
0.0
 20
0.0
 30
0.0
210
0.0
220
0.0
230
1.0
  2
SOLID
 70
1
 71
1
 91
1
 92
1
 93
6
 72
1
 10
154.2267539683
 20
31.3548866125
 11
154.1111290786
 21
31.3226223092
 72
1
 10
154.1111290786
 20
31.3226223092
 11
154.0533164683
 21
31.258095219
 72
1
 10
154.0533164683
 20
31.258095219
 11
153.7642540786
 21
31.258095219
 72
1
 10
153.7642540786
 20
31.258095219
 11
153.7642540786
 21
31.3226223092
 72
1
 10
153.7642540786
 20
31.3226223092
 11
154.4580040786
 21
31.3871493993
 72
1
 10
154.4580040786
 20
31.3871493993
 11
154.2267539683
 21
31.3548866125
 97
1
330
309
 75
0
 76
1
 98
1
 10
0.0
 20
0.0
  0
LWPOLYLINE
  5
30B
100
AcDbEntity
  8
0
100
AcDbPolyline
 62
7
  6
CONTINUOUS
 90
8
 70
0
 10
159.3720666889
 20
31.3548866125
 10
159.2564414683
 20
31.3226223092
 10
159.1986291889
 20
31.258095219
 10
159.0251916889
 20
31.1290410387
 10
158.9095664683
 20
31.258095219
 10
158.9095664683
 20
31.3226223092
 10
159.6033164683
 20
31.3871493993
 10
159.3720666889
 20
31.3548866125
  0
HATCH
  5
30C
100
AcDbEntity
  8
0
100
AcDbHatch
 62
7
  6
CONTINUOUS
 10
0.0
 20
0.0
 30
0.0
210
0.0
220
0.0
230
1.0
  2
SOLID
 70
1
 71
1
 91
1
 92
1
 93
7
 72
1
 10
159.3720666889
 20
31.3548866125
 11
159.2564414683
 21
31.3226223092
 72
1
 10
159.2564414683
 20
31.3226223092
 11
159.1986291889
 21
31.258095219
 72
1
 10
159.1986291889
 20
31.258095219
 11
159.0251916889
 21
31.1290410387
 72
1
 10
159.0251916889
 20
31.1290410387
 11
158.9095664683
 21
31.258095219
 72
1
 10
158.9095664683
 20
31.258095219
 11
158.9095664683
 21
31.3226223092
 72
1
 10
158.9095664683
 20
31.3226223092
 11
159.6033164683
 21
31.3871493993
 72
1
 10
159.6033164683
 20
31.3871493993
 11
159.3720666889
 21
31.3548866125
 97
1
330
30B
 75
0
 76
1
 98
1
 10
0.0
 20
0.0
  0
LWPOLYLINE
  5
30D
100
AcDbEntity
  8
0
100
AcDbPolyline
 62
7
  6
CONTINUOUS
 90
6
 70
0
 10
149.7751914546
 20
31.2258309157
 10
149.7173789683
 20
31.1613038256
 10
149.3705039683
 20
30.999985342
 10
149.4283164701
 20
31.1935681288
 10
149.9486289546
 20
31.3226223092
 10
149.7751914546
 20
31.2258309157
  0
HATCH
  5
30E
100
AcDbEntity
  8
0
100
AcDbHatch
 62
7
  6
CONTINUOUS
 10
0.0
 20
0.0
 30
0.0
210
0.0
220
0.0
230
1.0
  2
SOLID
 70
1
 71
1
 91
1
 92
1
 93
5
 72
1
 10
149.7751914546
 20
31.2258309157
 11
149.7173789683
 21
31.1613038256
 72
1
 10
149.7173789683
 20
31.1613038256
 11
149.3705039683
 21
30.999985342
 72
1
 10
149.3705039683
 20
30.999985342
 11
149.4283164701
 21
31.1935681288
 72
1
 10
149.4283164701
 20
31.1935681288
 11
149.9486289546
 21
31.3226223092
 72
1
 10
149.9486289546
 20
31.3226223092
 11
149.7751914546
 21
31.2258309157
 97
1
330
30D
 75
0
 76
1
 98
1
 10
0.0
 20
0.0
  0
LWPOLYLINE
  5
30F
100
AcDbEntity
  8
0
100
AcDbPolyline
 62
7
  6
CONTINUOUS
 90
7
 70
0
 10
154.2267539683
 20
31.1290410387
 10
154.5736289683
 20
31.1613038256
 10
155.2095666889
 20
31.1613038256
 10
155.2095666889
 20
31.0322496452
 10
154.5736289683
 20
31.0322496452
 10
153.9955038581
 20
31.0645131385
 10
154.2267539683
 20
31.1290410387
  0
HATCH
  5
310
100
AcDbEntity
  8
0
100
AcDbHatch
 62
7
  6
CONTINUOUS
 10
0.0
 20
0.0
 30
0.0
210
0.0
220
0.0
230
1.0
  2
SOLID
 70
1
 71
1
 91
1
 92
1
 93
6
 72
1
 10
154.2267539683
 20
31.1290410387
 11
154.5736289683
 21
31.1613038256
 72
1
 10
154.5736289683
 20
31.1613038256
 11
155.2095666889
 21
31.1613038256
 72
1
 10
155.2095666889
 20
31.1613038256
 11
155.2095666889
 21
31.0322496452
 72
1
 10
155.2095666889
 20
31.0322496452
 11
154.5736289683
 21
31.0322496452
 72
1
 10
154.5736289683
 20
31.0322496452
 11
153.9955038581
 21
31.0645131385
 72
1
 10
153.9955038581
 20
31.0645131385
 11
154.2267539683
 21
31.1290410387
 97
1
330
30F
 75
0
 76
1
 98
1
 10
0.0
 20
0.0
  0
LWPOLYLINE
  5
311
100
AcDbEntity
  8
0
100
AcDbPolyline
 62
7
  6
CONTINUOUS
 90
24
 70
0
 10
159.2564414683
 20
31.1935681288
 10
159.4298789683
 20
31.1290410387
 10
160.4126916889
 20
30.9677225551
 10
160.6439414683
 20
30.8709311616
 10
160.7595660273
 20
30.7418754649
 10
160.7595660273
 20
30.6773483748
 10
160.6439414683
 20
30.5805584977
 10
160.4126916889
 20
30.5160298911
 10
160.0658166889
 20
30.4837671043
 10
159.7189416889
 20
30.4837671043
 10
159.3720666889
 20
30.5160298911
 10
159.1986291889
 20
30.5482941944
 10
159.0251916889
 20
30.6128212846
 10
159.7189416889
 20
30.6128212846
 10
160.0658166889
 20
30.6128212846
 10
160.2970664683
 20
30.6450855879
 10
160.4126916889
 20
30.6773483748
 10
160.4705039683
 20
30.7418754649
 10
160.4126916889
 20
30.8064040715
 10
160.2392541889
 20
30.8709311616
 10
159.2564414683
 20
31.0322496452
 10
159.0251916889
 20
31.1290410387
 10
159.1986291889
 20
31.258095219
 10
159.2564414683
 20
31.1935681288
  0
HATCH
  5
312
100
AcDbEntity
  8
0
100
AcDbHatch
 62
7
  6
CONTINUOUS
 10
0.0
 20
0.0
 30
0.0
210
0.0
220
0.0
230
1.0
  2
SOLID
 70
1
 71
1
 91
1
 92
1
 93
23
 72
1
 10
159.2564414683
 20
31.1935681288
 11
159.4298789683
 21
31.1290410387
 72
1
 10
159.4298789683
 20
31.1290410387
 11
160.4126916889
 21
30.9677225551
 72
1
 10
160.4126916889
 20
30.9677225551
 11
160.6439414683
 21
30.8709311616
 72
1
 10
160.6439414683
 20
30.8709311616
 11
160.7595660273
 21
30.7418754649
 72
1
 10
160.7595660273
 20
30.7418754649
 11
160.7595660273
 21
30.6773483748
 72
1
 10
160.7595660273
 20
30.6773483748
 11
160.6439414683
 21
30.5805584977
 72
1
 10
160.6439414683
 20
30.5805584977
 11
160.4126916889
 21
30.5160298911
 72
1
 10
160.4126916889
 20
30.5160298911
 11
160.0658166889
 21
30.4837671043
 72
1
 10
160.0658166889
 20
30.4837671043
 11
159.7189416889
 21
30.4837671043
 72
1
 10
159.7189416889
 20
30.4837671043
 11
159.3720666889
 21
30.5160298911
 72
1
 10
159.3720666889
 20
30.5160298911
 11
159.1986291889
 21
30.5482941944
 72
1
 10
159.1986291889
 20
30.5482941944
 11
159.0251916889
 21
30.6128212846
 72
1
 10
159.0251916889
 20
30.6128212846
 11
159.7189416889
 21
30.6128212846
 72
1
 10
159.7189416889
 20
30.6128212846
 11
160.0658166889
 21
30.6128212846
 72
1
 10
160.0658166889
 20
30.6128212846
 11
160.2970664683
 21
30.6450855879
 72
1
 10
160.2970664683
 20
30.6450855879
 11
160.4126916889
 21
30.6773483748
 72
1
 10
160.4126916889
 20
30.6773483748
 11
160.4705039683
 21
30.7418754649
 72
1
 10
160.4705039683
 20
30.7418754649
 11
160.4126916889
 21
30.8064040715
 72
1
 10
160.4126916889
 20
30.8064040715
 11
160.2392541889
 21
30.8709311616
 72
1
 10
160.2392541889
 20
30.8709311616
 11
159.2564414683
 21
31.0322496452
 72
1
 10
159.2564414683
 20
31.0322496452
 11
159.0251916889
 21
31.1290410387
 72
1
 10
159.0251916889
 20
31.1290410387
 11
159.1986291889
 21
31.258095219
 72
1
 10
159.1986291889
 20
31.258095219
 11
159.2564414683
 21
31.1935681288
 97
1
330
311
 75
0
 76
1
 98
1
 10
0.0
 20
0.0
  0
LWPOLYLINE
  5
313
100
AcDbEntity
  8
0
100
AcDbPolyline
 62
7
  6
CONTINUOUS
 90
12
 70
0
 10
149.6595664615
 20
31.0322496452
 10
149.6595664615
 20
30.9354583476
 10
149.7751914546
 20
30.7741397682
 10
149.9486289546
 20
30.6773483748
 10
150.2955039959
 20
30.6128212846
 10
149.8330039821
 20
30.5482941944
 10
149.6595664615
 20
30.6128212846
 10
149.5439414683
 20
30.6773483748
 10
149.4283164701
 20
30.8064040715
 10
149.3705039683
 20
30.999985342
 10
149.7173789683
 20
31.1613038256
 10
149.6595664615
 20
31.0322496452
  0
HATCH
  5
314
100
AcDbEntity
  8
0
100
AcDbHatch
 62
7
  6
CONTINUOUS
 10
0.0
 20
0.0
 30
0.0
210
0.0
220
0.0
230
1.0
  2
SOLID
 70
1
 71
1
 91
1
 92
1
 93
11
 72
1
 10
149.6595664615
 20
31.0322496452
 11
149.6595664615
 21
30.9354583476
 72
1
 10
149.6595664615
 20
30.9354583476
 11
149.7751914546
 21
30.7741397682
 72
1
 10
149.7751914546
 20
30.7741397682
 11
149.9486289546
 21
30.6773483748
 72
1
 10
149.9486289546
 20
30.6773483748
 11
150.2955039959
 21
30.6128212846
 72
1
 10
150.2955039959
 20
30.6128212846
 11
149.8330039821
 21
30.5482941944
 72
1
 10
149.8330039821
 20
30.5482941944
 11
149.6595664615
 21
30.6128212846
 72
1
 10
149.6595664615
 20
30.6128212846
 11
149.5439414683
 21
30.6773483748
 72
1
 10
149.5439414683
 20
30.6773483748
 11
149.4283164701
 21
30.8064040715
 72
1
 10
149.4283164701
 20
30.8064040715
 11
149.3705039683
 21
30.999985342
 72
1
 10
149.3705039683
 20
30.999985342
 11
149.7173789683
 21
31.1613038256
 72
1
 10
149.7173789683
 20
31.1613038256
 11
149.6595664615
 21
31.0322496452
 97
1
330
313
 75
0
 76
1
 98
1
 10
0.0
 20
0.0
  0
LWPOLYLINE
  5
315
100
AcDbEntity
  8
0
100
AcDbPolyline
 62
7
  6
CONTINUOUS
 90
6
 70
0
 10
153.8798789683
 20
30.999985342
 10
153.9955038581
 20
31.0645131385
 10
154.5736289683
 20
31.0322496452
 10
154.3423788581
 20
30.999985342
 10
153.7642540786
 20
30.8709311616
 10
153.8798789683
 20
30.999985342
  0
HATCH
  5
316
100
AcDbEntity
  8
0
100
AcDbHatch
 62
7
  6
CONTINUOUS
 10
0.0
 20
0.0
 30
0.0
210
0.0
220
0.0
230
1.0
  2
SOLID
 70
1
 71
1
 91
1
 92
1
 93
5
 72
1
 10
153.8798789683
 20
30.999985342
 11
153.9955038581
 21
31.0645131385
 72
1
 10
153.9955038581
 20
31.0645131385
 11
154.5736289683
 21
31.0322496452
 72
1
 10
154.5736289683
 20
31.0322496452
 11
154.3423788581
 21
30.999985342
 72
1
 10
154.3423788581
 20
30.999985342
 11
153.7642540786
 21
30.8709311616
 72
1
 10
153.7642540786
 20
30.8709311616
 11
153.8798789683
 21
30.999985342
 97
1
330
315
 75
0
 76
1
 98
1
 10
0.0
 20
0.0
  0
LWPOLYLINE
  5
317
100
AcDbEntity
  8
0
100
AcDbPolyline
 62
7
  6
CONTINUOUS
 90
9
 70
0
 10
154.1111290786
 20
30.9031946612
 10
154.0533164683
 20
30.8064040715
 10
154.0533164683
 20
30.7418754649
 10
153.8220663581
 20
30.6450855879
 10
153.7642540786
 20
30.7741397682
 10
153.7642540786
 20
30.8709311616
 10
154.3423788581
 20
30.999985342
 10
154.2267539683
 20
30.9677225551
 10
154.1111290786
 20
30.9031946612
  0
HATCH
  5
318
100
AcDbEntity
  8
0
100
AcDbHatch
 62
7
  6
CONTINUOUS
 10
0.0
 20
0.0
 30
0.0
210
0.0
220
0.0
230
1.0
  2
SOLID
 70
1
 71
1
 91
1
 92
1
 93
8
 72
1
 10
154.1111290786
 20
30.9031946612
 11
154.0533164683
 21
30.8064040715
 72
1
 10
154.0533164683
 20
30.8064040715
 11
154.0533164683
 21
30.7418754649
 72
1
 10
154.0533164683
 20
30.7418754649
 11
153.8220663581
 21
30.6450855879
 72
1
 10
153.8220663581
 20
30.6450855879
 11
153.7642540786
 21
30.7741397682
 72
1
 10
153.7642540786
 20
30.7741397682
 11
153.7642540786
 21
30.8709311616
 72
1
 10
153.7642540786
 20
30.8709311616
 11
154.3423788581
 21
30.999985342
 72
1
 10
154.3423788581
 20
30.999985342
 11
154.2267539683
 21
30.9677225551
 72
1
 10
154.2267539683
 20
30.9677225551
 11
154.1111290786
 21
30.9031946612
 97
1
330
317
 75
0
 76
1
 98
1
 10
0.0
 20
0.0
  0
LWPOLYLINE
  5
319
100
AcDbEntity
  8
0
100
AcDbPolyline
 62
7
  6
CONTINUOUS
 90
10
 70
0
 10
155.1517537478
 20
30.7741397682
 10
155.2095666889
 20
30.8386672883
 10
155.4986287478
 20
30.7418754649
 10
155.5564416889
 20
30.5805584977
 10
155.6142539683
 20
30.4837671043
 10
155.3251912478
 20
30.4837671043
 10
155.2673789683
 20
30.5482941944
 10
155.2095666889
 20
30.6450855879
 10
154.9783162478
 20
30.6773483748
 10
155.1517537478
 20
30.7741397682
  0
HATCH
  5
31A
100
AcDbEntity
  8
0
100
AcDbHatch
 62
7
  6
CONTINUOUS
 10
0.0
 20
0.0
 30
0.0
210
0.0
220
0.0
230
1.0
  2
SOLID
 70
1
 71
1
 91
1
 92
1
 93
9
 72
1
 10
155.1517537478
 20
30.7741397682
 11
155.2095666889
 21
30.8386672883
 72
1
 10
155.2095666889
 20
30.8386672883
 11
155.4986287478
 21
30.7418754649
 72
1
 10
155.4986287478
 20
30.7418754649
 11
155.5564416889
 21
30.5805584977
 72
1
 10
155.5564416889
 20
30.5805584977
 11
155.6142539683
 21
30.4837671043
 72
1
 10
155.6142539683
 20
30.4837671043
 11
155.3251912478
 21
30.4837671043
 72
1
 10
155.3251912478
 20
30.4837671043
 11
155.2673789683
 21
30.5482941944
 72
1
 10
155.2673789683
 20
30.5482941944
 11
155.2095666889
 21
30.6450855879
 72
1
 10
155.2095666889
 20
30.6450855879
 11
154.9783162478
 21
30.6773483748
 72
1
 10
154.9783162478
 20
30.6773483748
 11
155.1517537478
 21
30.7741397682
 97
1
330
319
 75
0
 76
1
 98
1
 10
0.0
 20
0.0
  0
LWPOLYLINE
  5
31B
100
AcDbEntity
  8
0
100
AcDbPolyline
 62
7
  6
CONTINUOUS
 90
12
 70
0
 10
150.8736290235
 20
30.7096125201
 10
150.9314414683
 20
30.8064040715
 10
151.2205040235
 20
30.8064040715
 10
151.1626914132
 20
30.6773483748
 10
150.9892539132
 20
30.5805584977
 10
150.7580039683
 20
30.5160298911
 10
150.3533164408
 20
30.4837671043
 10
150.0064414821
 20
30.5160298911
 10
149.8330039821
 20
30.5482941944
 10
150.2955039959
 20
30.6128212846
 10
150.7001914408
 20
30.6450855879
 10
150.8736290235
 20
30.7096125201
  0
HATCH
  5
31C
100
AcDbEntity
  8
0
100
AcDbHatch
 62
7
  6
CONTINUOUS
 10
0.0
 20
0.0
 30
0.0
210
0.0
220
0.0
230
1.0
  2
SOLID
 70
1
 71
1
 91
1
 92
1
 93
11
 72
1
 10
150.8736290235
 20
30.7096125201
 11
150.9314414683
 21
30.8064040715
 72
1
 10
150.9314414683
 20
30.8064040715
 11
151.2205040235
 21
30.8064040715
 72
1
 10
151.2205040235
 20
30.8064040715
 11
151.1626914132
 21
30.6773483748
 72
1
 10
151.1626914132
 20
30.6773483748
 11
150.9892539132
 21
30.5805584977
 72
1
 10
150.9892539132
 20
30.5805584977
 11
150.7580039683
 21
30.5160298911
 72
1
 10
150.7580039683
 20
30.5160298911
 11
150.3533164408
 21
30.4837671043
 72
1
 10
150.3533164408
 20
30.4837671043
 11
150.0064414821
 21
30.5160298911
 72
1
 10
150.0064414821
 20
30.5160298911
 11
149.8330039821
 21
30.5482941944
 72
1
 10
149.8330039821
 20
30.5482941944
 11
150.2955039959
 21
30.6128212846
 72
1
 10
150.2955039959
 20
30.6128212846
 11
150.7001914408
 21
30.6450855879
 72
1
 10
150.7001914408
 20
30.6450855879
 11
150.8736290235
 21
30.7096125201
 97
1
330
31B
 75
0
 76
1
 98
1
 10
0.0
 20
0.0
  0
LWPOLYLINE
  5
31D
100
AcDbEntity
  8
0
100
AcDbPolyline
 62
7
  6
CONTINUOUS
 90
6
 70
0
 10
154.1111290786
 20
30.6773483748
 10
154.3423788581
 20
30.6128212846
 10
153.9955038581
 20
30.5482941944
 10
153.8220663581
 20
30.6450855879
 10
154.0533164683
 20
30.7418754649
 10
154.1111290786
 20
30.6773483748
  0
HATCH
  5
31E
100
AcDbEntity
  8
0
100
AcDbHatch
 62
7
  6
CONTINUOUS
 10
0.0
 20
0.0
 30
0.0
210
0.0
220
0.0
230
1.0
  2
SOLID
 70
1
 71
1
 91
1
 92
1
 93
5
 72
1
 10
154.1111290786
 20
30.6773483748
 11
154.3423788581
 21
30.6128212846
 72
1
 10
154.3423788581
 20
30.6128212846
 11
153.9955038581
 21
30.5482941944
 72
1
 10
153.9955038581
 20
30.5482941944
 11
153.8220663581
 21
30.6450855879
 72
1
 10
153.8220663581
 20
30.6450855879
 11
154.0533164683
 21
30.7418754649
 72
1
 10
154.0533164683
 20
30.7418754649
 11
154.1111290786
 21
30.6773483748
 97
1
330
31D
 75
0
 76
1
 98
1
 10
0.0
 20
0.0
  0
LWPOLYLINE
  5
31F
100
AcDbEntity
  8
0
100
AcDbPolyline
 62
7
  6
CONTINUOUS
 90
11
 70
0
 10
154.6892538581
 20
30.6128212846
 10
154.9783162478
 20
30.6773483748
 10
155.2095666889
 20
30.6450855879
 10
155.1517537478
 20
30.5805584977
 10
154.9783162478
 20
30.5160298911
 10
154.6892538581
 20
30.4837671043
 10
154.3423788581
 20
30.4837671043
 10
154.1111290786
 20
30.5160298911
 10
153.9955038581
 20
30.5482941944
 10
154.3423788581
 20
30.6128212846
 10
154.6892538581
 20
30.6128212846
  0
HATCH
  5
320
100
AcDbEntity
  8
0
100
AcDbHatch
 62
7
  6
CONTINUOUS
 10
0.0
 20
0.0
 30
0.0
210
0.0
220
0.0
230
1.0
  2
SOLID
 70
1
 71
1
 91
1
 92
1
 93
10
 72
1
 10
154.6892538581
 20
30.6128212846
 11
154.9783162478
 21
30.6773483748
 72
1
 10
154.9783162478
 20
30.6773483748
 11
155.2095666889
 21
30.6450855879
 72
1
 10
155.2095666889
 20
30.6450855879
 11
155.1517537478
 21
30.5805584977
 72
1
 10
155.1517537478
 20
30.5805584977
 11
154.9783162478
 21
30.5160298911
 72
1
 10
154.9783162478
 20
30.5160298911
 11
154.6892538581
 21
30.4837671043
 72
1
 10
154.6892538581
 20
30.4837671043
 11
154.3423788581
 21
30.4837671043
 72
1
 10
154.3423788581
 20
30.4837671043
 11
154.1111290786
 21
30.5160298911
 72
1
 10
154.1111290786
 20
30.5160298911
 11
153.9955038581
 21
30.5482941944
 72
1
 10
153.9955038581
 20
30.5482941944
 11
154.3423788581
 21
30.6128212846
 72
1
 10
154.3423788581
 20
30.6128212846
 11
154.6892538581
 21
30.6128212846
 97
1
330
31F
 75
0
 76
1
 98
1
 10
0.0
 20
0.0
  0
LWPOLYLINE
  5
321
100
AcDbEntity
  8
0
100
AcDbPolyline
 62
7
  6
CONTINUOUS
 90
7
 70
0
 10
159.3720666889
 20
30.6450855879
 10
159.7189416889
 20
30.6128212846
 10
159.0251916889
 20
30.6128212846
 10
158.9095664683
 20
30.7418754649
 10
159.1986291889
 20
30.7418754649
 10
159.2564414683
 20
30.6773483748
 10
159.3720666889
 20
30.6450855879
  0
HATCH
  5
322
100
AcDbEntity
  8
0
100
AcDbHatch
 62
7
  6
CONTINUOUS
 10
0.0
 20
0.0
 30
0.0
210
0.0
220
0.0
230
1.0
  2
SOLID
 70
1
 71
1
 91
1
 92
1
 93
6
 72
1
 10
159.3720666889
 20
30.6450855879
 11
159.7189416889
 21
30.6128212846
 72
1
 10
159.7189416889
 20
30.6128212846
 11
159.0251916889
 21
30.6128212846
 72
1
 10
159.0251916889
 20
30.6128212846
 11
158.9095664683
 21
30.7418754649
 72
1
 10
158.9095664683
 20
30.7418754649
 11
159.1986291889
 21
30.7418754649
 72
1
 10
159.1986291889
 20
30.7418754649
 11
159.2564414683
 21
30.6773483748
 72
1
 10
159.2564414683
 20
30.6773483748
 11
159.3720666889
 21
30.6450855879
 97
1
330
321
 75
0
 76
1
 98
1
 10
0.0
 20
0.0
  0
SOLID
  5
323
100
AcDbEntity
  8
0
100
AcDbTrace
 62
7
  6
CONTINUOUS
 10
156.0767541889
 20
30.4837671043
 11
156.0767541889
 21
31.5162050961
 12
156.3658162478
 22
30.4837671043
 13
156.3658162478
 23
31.5162050961
  0
ENDBLK
  5
324
100
AcDbEntity
  8
0
  6
BYBLOCK
 62
0
100
AcDbBlockEnd
  0
BLOCK
  5
325
100
AcDbEntity
  8
0
100
AcDbBlockBegin
 62
2
  6
CONTINUOUS
  2
AMMEAAL_LOGO_BL0
 70
64
 10
31.7661185167
 20
19.8972369706
  3
AMMEAAL_LOGO_BL0
  1

  0
TEXT
  5
326
100
AcDbEntity
  8
0
100
AcDbText
 62
7
  6
CONTINUOUS
 10
18.0387879101
 20
19.2884917655
  7
TEXTSTYLE_3
 40
2.7338706658
  1
Ammeraal Beltech
 41
1.0
 51
15.0
 72
0
100
AcDbText
  0
TEXT
  5
327
100
AcDbEntity
  8
0
100
AcDbText
 62
7
  6
CONTINUOUS
 10
28.8395887358
 20
17.0149550926
  7
TEXTSTYLE_4
 40
1.0935482663
  1
Innovation & Service in Belting
 41
1.0
 72
0
100
AcDbText
  0
LINE
  5
328
100
AcDbEntity
  8
0
100
AcDbLine
 62
7
  6
CONTINUOUS
 10
12.0142472588
 20
20.055085074
 11
12.7923992521
 21
23.7160023717
  0
LINE
  5
329
100
AcDbEntity
  8
0
100
AcDbLine
 62
7
  6
CONTINUOUS
 10
22.8875675419
 20
27.3793962833
 11
13.2802169951
 21
24.257778862
  0
LINE
  5
32A
100
AcDbEntity
  8
0
100
AcDbLine
 62
7
  6
CONTINUOUS
 10
12.2395305911
 20
19.361734271
 11
19.7466058522
 21
12.602333345
  0
LINE
  5
32B
100
AcDbEntity
  8
0
100
AcDbLine
 62
7
  6
CONTINUOUS
 10
12.5020650018
 20
20.5968615644
 11
23.310334367
 21
24.1086811633
  0
LINE
  5
32C
100
AcDbEntity
  8
0
100
AcDbLine
 62
7
  6
CONTINUOUS
 10
23.3061292298
 20
13.7588925996
 11
14.860669561
 21
21.3632186413
  0
LINE
  5
32D
100
AcDbEntity
  8
0
100
AcDbLine
 62
7
  6
CONTINUOUS
 10
23.8259519496
 20
26.5344711676
 11
22.8493924124
 21
21.9401197651
  0
LINE
  5
32E
100
AcDbEntity
  8
0
100
AcDbLine
 62
7
  6
CONTINUOUS
 10
22.1495904647
 20
18.6478104513
 11
21.4631422532
 21
15.4183255269
  0
LINE
  5
32F
100
AcDbEntity
  8
0
100
AcDbLine
 62
7
  6
CONTINUOUS
 10
24.5070480481
 20
14.1490947773
 11
25.4632795838
 21
18.6478104513
  0
LINE
  5
330
100
AcDbEntity
  8
0
100
AcDbLine
 62
7
  6
CONTINUOUS
 10
26.1630815315
 20
21.9401197651
 11
26.6073233338
 21
24.0301131245
  0
LINE
  5
331
100
AcDbEntity
  8
0
100
AcDbLine
 62
7
  6
CONTINUOUS
 10
20.4597069275
 20
12.4507590323
 11
24.0192303051
 21
13.6073182869
  0
LINE
  5
332
100
AcDbEntity
  8
0
100
AcDbLine
 62
7
  6
CONTINUOUS
 10
23.6006686173
 20
27.2278219706
 11
26.3820400015
 21
24.7234639276
  0
ARC
  5
333
100
AcDbEntity
  8
0
100
AcDbCircle
 62
7
  6
CONTINUOUS
 10
13.5055003274
 20
23.564428059
 40
0.7290321776
100
AcDbArc
 50
108.0
 51
168.0
  0
ARC
  5
334
100
AcDbEntity
  8
0
100
AcDbCircle
 62
7
  6
CONTINUOUS
 10
23.1128508743
 20
26.6860454803
 40
0.7290321776
100
AcDbArc
 50
348.0
 51
108.0
  0
ARC
  5
335
100
AcDbEntity
  8
0
100
AcDbCircle
 62
7
  6
CONTINUOUS
 10
25.8942222585
 20
24.1816874372
 40
0.7290321776
100
AcDbArc
 50
348.0
 51
48.0
  0
ARC
  5
336
100
AcDbEntity
  8
0
100
AcDbCircle
 62
7
  6
CONTINUOUS
 10
20.2344235952
 20
13.1441098354
 40
0.7290321776
100
AcDbArc
 50
228.0
 51
288.0
  0
ARC
  5
337
100
AcDbEntity
  8
0
100
AcDbCircle
 62
7
  6
CONTINUOUS
 10
12.7273483341
 20
19.9035107613
 40
0.7290321776
100
AcDbArc
 50
108.0
 51
228.0
  0
ARC
  5
338
100
AcDbEntity
  8
0
100
AcDbCircle
 62
7
  6
CONTINUOUS
 10
23.7939469728
 20
14.30066909
 40
0.7290321776
100
AcDbArc
 50
228.0
 51
348.0
  0
ENDBLK
  5
339
100
AcDbEntity
  8
0
  6
BYBLOCK
 62
0
100
AcDbBlockEnd
  0
BLOCK
  5
33A
100
AcDbEntity
  8
0
100
AcDbBlockBegin
  2
*T1
 70
1
 10
0.0
 20
0.0
  3
*T1
  1

  0
LINE
  5
33B
100
AcDbEntity
  8
0
100
AcDbLine
 62
2
  6
CONTINUOUS
 10
0.0
 20
0.0
 11
190.0
 21
0.0
  0
LINE
  5
33C
100
AcDbEntity
  8
0
100
AcDbLine
 62
2
  6
CONTINUOUS
 10
0.0
 20
0.0
 11
0.0
 21
-20.0
  0
LINE
  5
33D
100
AcDbEntity
  8
0
100
AcDbLine
 62
2
  6
CONTINUOUS
 10
0.0
 20
-20.0
 11
190.0
 21
-20.0
  0
LINE
  5
33E
100
AcDbEntity
  8
0
100
AcDbLine
 62
2
  6
CONTINUOUS
 10
85.0
 20
0.0
 11
85.0
 21
-20.0
  0
LINE
  5
33F
100
AcDbEntity
  8
0
100
AcDbLine
 62
2
  6
CONTINUOUS
 10
105.0
 20
0.0
 11
105.0
 21
-20.0
  0
LINE
  5
340
100
AcDbEntity
  8
0
100
AcDbLine
 62
2
  6
CONTINUOUS
 10
190.0
 20
0.0
 11
190.0
 21
-20.0
  0
MTEXT
  5
341
100
AcDbEntity
  8
0
100
AcDbMText
 62
5
  6
CONTINUOUS
  7
TEXTSTYLE_5
 71
1
 72
1
 10
3.0
 20
-5.177
 30
0.0
 11
1.0
 21
0.0
 31
0.0
 44
1.08
  3
                                                                     Ammeraal Beltech Modular A/S\P\H1.5;                                                                      Hjulmagervej 21,  7100 Vejle,  DK\P\H1.495;                                
  1
                                      tel: \H1.51;+45 75723100     fax: +45 75723348\P\H1.5;                                                                      admin@unichains.dk  www.unichains.com
 40
1.52
 41
161.0496183206
  0
MTEXT
  5
342
100
AcDbEntity
  8
0
100
AcDbMText
 62
5
  6
CONTINUOUS
  7
TEXTSTYLE_6
 71
2
 72
1
 10
95.0
 20
-11.25
 30
0.0
 11
1.0
 21
0.0
 31
0.0
 44
0.9
  1
1:1
 40
5.0
 41
21.0
  0
MTEXT
  5
343
100
AcDbEntity
  8
0
100
AcDbMText
 62
5
  6
CONTINUOUS
  7
TEXTSTYLE_7
 71
1
 72
1
 10
108.0
 20
-8.75
 30
0.0
 11
1.0
 21
0.0
 31
0.0
 44
0.9
  1
uni 1707
 40
7.5
 41
72.25
  0
ENDBLK
  5
344
100
AcDbEntity
  8
0
  6
BYBLOCK
 62
0
100
AcDbBlockEnd
  0
ENDSEC
  0
SECTION
  2
ENTITIES
  0
MTEXT
  5
345
100
AcDbEntity
  8
0
100
AcDbMText
 62
5
  6
CONTINUOUS
  7
TEXTSTYLE_2
 71
1
 72
1
 10
96.0
 20
28.436
 30
0.0
 11
1.0
 21
0.0
 31
0.0
 44
0.9
  1
\Q0.000019;Scale :
 40
2.8
 41
11.76
  0
MTEXT
  5
346
100
AcDbEntity
  8
0
100
AcDbMText
 62
5
  6
CONTINUOUS
  7
TEXTSTYLE_2
 71
1
 72
1
 10
116.0
 20
28.436
 30
0.0
 11
1.0
 21
0.0
 31
0.0
 44
0.9
  1
\Q0.000019;Chain type:
 40
2.8
 41
18.48
  0
INSERT
  5
347
100
AcDbEntity
  8
0
100
AcDbBlockReference
 62
2
  6
CONTINUOUS
  2
AMMEAAL_LOGO_BL0
 10
31.7661185167
 20
19.8972369706
  0
INSERT
  5
348
100
AcDbEntity
  8
0
100
AcDbBlockReference
 62
2
  6
CONTINUOUS
  2
UNI_LOGO2_BL1
 10
173.3924355793
 20
35.4326167403
  0
ACAD_TABLE
  5
349
100
AcDbEntity
  8
0
 62
2
  6
CONTINUOUS
100
AcDbBlockReference
  2
*T1
 10
10.0
 20
30.0
 30
0.0
100
AcDbTable
342
       3E9
343
218
 11
1.0
 21
0.0
 31
0.0
 90
22
 91
1
 92
3
 93
0
 94
0
 95
0
 96
0
141
20.0
142
85.0
142
20.0
142
85.0
171
1
172
0
173
0
174
0
175
1
176
1
 91
57
178
0
145
0.0
  7
TEXTSTYLE_5
301
CELL_VALUE
 90
4
  2
                                                                     Ammeraal Beltech Modular A/S\P\H1.5;                                                                      Hjulmagervej 21,  7100 Vejle,  DK\P\H1.495;                                
  1
                                      tel: \H1.51;+45 75723100     fax: +45 75723348\P\H1.5;                                                                      admin@unichains.dk  www.unichains.com
304
ACVALUE_END
170
4
140
1.52
 64
5
171
1
172
0
173
0
174
0
175
1
176
1
 91
57
178
0
145
0.0
  7
TEXTSTYLE_6
301
CELL_VALUE
 90
4
  1
1:1
304
ACVALUE_END
170
8
140
5.0
 64
5
171
1
172
0
173
0
174
0
175
1
176
1
 91
57
178
0
145
0.0
  7
TEXTSTYLE_7
301
CELL_VALUE
 90
4
  1
uni 1707
304
ACVALUE_END
170
7
140
7.5
 64
5
  0
LINE
  5
34A
100
AcDbEntity
  8
0
100
AcDbLine
 62
7
  6
CONTINUOUS
 10
210.0
 20
0.0
 11
0.0
 21
0.0
  0
LINE
  5
34B
100
AcDbEntity
  8
0
100
AcDbLine
 62
7
  6
CONTINUOUS
 10
10.0
 20
10.0
 11
200.0
 21
10.0
  0
LINE
  5
34C
100
AcDbEntity
  8
0
100
AcDbLine
 62
7
  6
CONTINUOUS
 10
10.0
 20
30.0
 11
200.0
 21
30.0
  0
LINE
  5
34D
100
AcDbEntity
  8
0
100
AcDbLine
 62
7
  6
CONTINUOUS
 10
0.0
 20
0.0
 11
0.0
 21
297.0
  0
LINE
  5
34E
100
AcDbEntity
  8
0
100
AcDbLine
 62
7
  6
CONTINUOUS
 10
10.0
 20
10.0
 11
10.0
 21
287.0
  0
LINE
  5
34F
100
AcDbEntity
  8
0
100
AcDbLine
 62
7
  6
CONTINUOUS
 10
200.0
 20
287.0
 11
200.0
 21
10.0
  0
LINE
  5
350
100
AcDbEntity
  8
0
100
AcDbLine
 62
7
  6
CONTINUOUS
 10
210.0
 20
0.0
 11
210.0
 21
297.0
  0
LINE
  5
351
100
AcDbEntity
  8
0
100
AcDbLine
 62
7
  6
CONTINUOUS
 10
10.0
 20
287.0
 11
200.0
 21
287.0
  0
LINE
  5
352
100
AcDbEntity
  8
0
100
AcDbLine
 62
7
  6
CONTINUOUS
 10
0.0
 20
297.0
 11
210.0
 21
297.0
  0
LINE
  5
353
100
AcDbEntity
  8
2_FEATURE
100
AcDbLine
 62
7
  6
CONTINUOUS
 10
46.1734375
 20
123.0432606461
 11
46.1734375
 21
146.4911143539
  0
LINE
  5
354
100
AcDbEntity
  8
DEFAULT_1
100
AcDbLine
 62
2
  6
CENTER
 10
43.4192224215
 20
87.1911143539
 11
102.1276525785
 21
87.1911143539
  0
LINE
  5
355
100
AcDbEntity
  8
1_AXIS
100
AcDbLine
 62
2
  6
CENTER
 10
43.4192224215
 20
87.1911143539
 11
102.1276525785
 21
87.1911143539
  0
LINE
  5
356
100
AcDbEntity
  8
2_FEATURE
100
AcDbLine
 62
7
  6
CONTINUOUS
 10
54.4734375
 20
140.6911143539
 11
54.4734375
 21
136.6911143539
  0
LINE
  5
357
100
AcDbEntity
  8
2_FEATURE
100
AcDbLine
 62
7
  6
CONTINUOUS
 10
55.2200212046
 20
107.939954069
 11
50.7535619431
 21
112.253163641
  0
LINE
  5
358
100
AcDbEntity
  8
2_FEATURE
100
AcDbLine
 62
7
  6
CONTINUOUS
 10
56.9336815964
 20
129.9316492528
 11
54.4734375
 21
136.6911143539
  0
LINE
  5
359
100
AcDbEntity
  8
DEFAULT_1
100
AcDbLine
 62
2
  6
CENTER
 10
72.7734375
 20
91.5911143539
 11
72.7734375
 21
89.1912143539
  0
LINE
  5
35A
100
AcDbEntity
  8
0
100
AcDbLine
 62
2
  6
CONTINUOUS
 10
72.7734375
 20
88.0711143539
 11
72.7734375
 21
86.3111143539
  0
LINE
  5
35B
100
AcDbEntity
  8
DEFAULT_1
100
AcDbLine
 62
2
  6
CENTER
 10
72.7734375
 20
82.7911143539
 11
72.7734375
 21
85.1910143539
  0
LINE
  5
35C
100
AcDbEntity
  8
1_AXIS
100
AcDbLine
 62
2
  6
CENTER
 10
72.7734375
 20
67.1911143539
 11
72.7734375
 21
155.0432606461
  0
LINE
  5
35D
100
AcDbEntity
  8
DEFAULT_1
100
AcDbLine
 62
2
  6
CENTER
 10
67.1705335868
 20
108.8411143539
 11
79.0894173077
 21
108.8411143539
  0
LINE
  5
35E
100
AcDbEntity
  8
0
100
AcDbLine
 62
7
  6
CONTINUOUS
 10
88.6131934036
 20
129.9316492528
 11
91.0734375
 21
136.6911143539
  0
LINE
  5
35F
100
AcDbEntity
  8
0
100
AcDbLine
 62
7
  6
CONTINUOUS
 10
90.3268537954
 20
107.939954069
 11
94.7933130569
 21
112.253163641
  0
LINE
  5
360
100
AcDbEntity
  8
0
100
AcDbLine
 62
7
  6
CONTINUOUS
 10
91.0734375
 20
140.6911143539
 11
91.0734375
 21
136.6911143539
  0
LINE
  5
361
100
AcDbEntity
  8
0
100
AcDbLine
 62
7
  6
CONTINUOUS
 10
99.3734375
 20
123.0432606461
 11
99.3734375
 21
146.4911143539
  0
LINE
  5
362
100
AcDbEntity
  8
DEFAULT_1
100
AcDbLine
 62
2
  6
CENTER
 10
43.4192224215
 20
137.6411143539
 11
102.1276525785
 21
137.6411143539
  0
LINE
  5
363
100
AcDbEntity
  8
0
100
AcDbLine
 62
7
  6
CONTINUOUS
 10
97.3734375
 20
148.4911143539
 11
95.8877475927
 21
148.4911143539
  0
LINE
  5
364
100
AcDbEntity
  8
2_FEATURE
100
AcDbLine
 62
7
  6
CONTINUOUS
 10
48.1734375
 20
148.4911143539
 11
49.6591274073
 21
148.4911143539
  0
LINE
  5
365
100
AcDbEntity
  8
2_FEATURE
100
AcDbLine
 62
7
  6
CONTINUOUS
 10
46.1734375
 20
192.140625
 11
46.1734375
 21
213.140625
  0
LWPOLYLINE
  5
366
100
AcDbEntity
  8
2_FEATURE
100
AcDbPolyline
 62
7
  6
CONTINUOUS
 90
72
 70
0
 10
54.7734375275
 20
196.1329566551
 10
54.775839619
 20
195.9630856742
 10
54.7847721819
 20
195.7640916817
 10
54.8002870586
 20
195.5656068769
 10
54.8223553207
 20
195.3678606901
 10
54.8509351
 20
195.1711067079
 10
54.8859902075
 20
194.9755055448
 10
54.9274769258
 20
194.7812497993
 10
54.975357597
 20
194.5884916226
 10
55.0295957955
 20
194.3973819103
 10
55.0901406366
 20
194.208117505
 10
55.1569809793
 20
194.0207743481
 10
55.2299380181
 20
193.8358639701
 10
55.3088622603
 20
193.6537119554
 10
55.393461078
 20
193.4748757798
 10
55.4834202903
 20
193.2998232608
 10
55.5783808348
 20
193.1289963181
 10
55.6779426228
 20
192.962805275
 10
55.7816698452
 20
192.8016228493
 10
55.8890918143
 20
192.6457864835
 10
55.9997074419
 20
192.4955950016
 10
56.1129876599
 20
192.3513090901
 10
56.2283834449
 20
192.2131452401
 10
56.3452912359
 20
192.0813186632
 10
56.4632307577
 20
191.955852721
 10
56.5815898246
 20
191.8368734422
 10
56.7001392979
 20
191.7241015212
 10
56.8185614748
 20
191.6173656692
 10
56.936628717
 20
191.5164269395
 10
57.0541194748
 20
191.4210612722
 10
57.1708260449
 20
191.3310504462
 10
57.2866252955
 20
191.2461303937
 10
57.401155285
 20
191.1662227674
 10
57.5142566824
 20
191.0911059528
 10
57.6252573569
 20
191.0208888063
 10
57.7335939194
 20
190.9555684191
 10
57.8387759077
 20
190.8950717836
 10
57.9401700172
 20
190.8393853072
 10
58.0376825961
 20
190.7881911206
 10
58.1308356006
 20
190.741385637
 10
58.2202596378
 20
190.6983340025
 10
58.306321544
 20
190.658599006
 10
58.389495686
 20
190.6217454303
 10
58.470306513
 20
190.5873672304
 10
58.5490781343
 20
190.5551860954
 10
58.6263900562
 20
190.5248554223
 10
58.7020534815
 20
190.496354829
 10
58.7761848088
 20
190.4695492698
 10
58.8484634611
 20
190.4444637283
 10
58.9186622128
 20
190.4210792209
 10
58.9866366891
 20
190.3993436452
 10
59.0521873257
 20
190.3792193919
 10
59.1152845994
 20
190.3606154644
 10
59.1758150311
 20
190.3434684071
 10
59.2338667659
 20
190.3276614173
 10
59.2894803359
 20
190.3130989215
 10
59.3427114237
 20
190.2996880361
 10
59.3936184793
 20
190.2873417793
 10
59.4422564928
 20
190.2759801581
 10
59.4886875844
 20
190.2655272519
 10
59.5329697496
 20
190.2559135076
 10
59.5751641622
 20
190.2470737035
 10
59.6153430067
 20
190.2389451676
 10
59.6535688737
 20
190.2314717787
 10
59.6899474925
 20
190.2245935211
 10
59.7245747971
 20
190.2182570057
 10
59.7575473368
 20
190.2124129746
 10
59.788966007
 20
190.2070153418
 10
59.8189128989
 20
190.2020247817
 10
59.8474759144
 20
190.1974040507
 10
59.8747367644
 20
190.1931197395
 10
59.9256802148
 20
190.1854390012
  0
LINE
  5
367
100
AcDbEntity
  8
2_FEATURE
100
AcDbLine
 62
7
  6
CONTINUOUS
 10
54.7734375
 20
196.1327405408
 11
54.7734375
 21
197.4317107095
  0
LINE
  5
368
100
AcDbEntity
  8
2_FEATURE
100
AcDbLine
 62
7
  6
CONTINUOUS
 10
54.7734375
 20
207.8495392905
 11
54.7734375
 21
209.1485094336
  0
LINE
  5
369
100
AcDbEntity
  8
2_FEATURE
100
AcDbLine
 62
7
  6
CONTINUOUS
 10
57.3416306979
 20
202.2417750258
 11
57.3416306979
 21
203.0394749742
  0
LWPOLYLINE
  5
36A
100
AcDbEntity
  8
2_FEATURE
100
AcDbPolyline
 62
7
  6
CONTINUOUS
 90
49
 70
0
 10
57.341630667
 20
202.2417750258
 10
57.3404979303
 20
202.0998194276
 10
57.336611878
 20
201.9429567401
 10
57.3299604348
 20
201.7862645575
 10
57.3205569368
 20
201.6299581731
 10
57.3084214014
 20
201.4742387967
 10
57.2935854987
 20
201.3193117763
 10
57.2760880265
 20
201.165383323
 10
57.2559788885
 20
201.0126606038
 10
57.2333156971
 20
200.861348152
 10
57.2081651248
 20
200.7116463364
 10
57.1806019476
 20
200.5637546583
 10
57.1507082227
 20
200.41786688
 10
57.1185739282
 20
200.2741741132
 10
57.0842954877
 20
200.1328649821
 10
57.047975634
 20
199.9941191382
 10
57.0097274436
 20
199.8581324629
 10
56.9696678814
 20
199.7250817762
 10
56.9279288956
 20
199.5951733993
 10
56.8846471114
 20
199.4685953495
 10
56.839965436
 20
199.3455349571
 10
56.7940319643
 20
199.2261672159
 10
56.7470003803
 20
199.1106649686
 10
56.6990244369
 20
198.9991798482
 10
56.6502766745
 20
198.8918908582
 10
56.6009248136
 20
198.7889444234
 10
56.551156426
 20
198.6905097457
 10
56.5011551512
 20
198.5967258858
 10
56.4511123697
 20
198.5077261712
 10
56.4012229704
 20
198.4236293784
 10
56.3516626161
 20
198.3445026498
 10
56.3026269934
 20
198.2704291753
 10
56.2542476586
 20
198.2013810484
 10
56.2066137398
 20
198.137274824
 10
56.160054161
 20
198.0783310214
 10
56.1148274962
 20
198.0246239808
 10
56.0712230414
 20
197.9762163542
 10
56.0295914551
 20
197.9331776168
 10
55.9899703387
 20
197.8952147345
 10
55.9525572574
 20
197.8621871008
 10
55.9172622415
 20
197.8337004787
 10
55.8840779523
 20
197.8094690013
 10
55.8531835632
 20
197.789349724
 10
55.8247299724
 20
197.7731536615
 10
55.7991419316
 20
197.7607916528
 10
55.7768456805
 20
197.7520551708
 10
55.7583088959
 20
197.7466062517
 10
55.744059718
 20
197.7439272721
 10
55.7348810364
 20
197.7432159486
  0
LWPOLYLINE
  5
36B
100
AcDbEntity
  8
0
100
AcDbPolyline
 62
7
  6
CONTINUOUS
 90
70
 70
0
 10
85.6994176179
 20
190.1974070049
 10
85.727985417
 20
190.202028609
 10
85.7579375235
 20
190.2070201679
 10
85.7893618806
 20
190.2124189438
 10
85.8223406154
 20
190.2182642817
 10
85.8569746675
 20
190.2246022908
 10
85.893360636
 20
190.2314822559
 10
85.9315944711
 20
190.2389575895
 10
85.9717819222
 20
190.2470883338
 10
86.0139856073
 20
190.2559306404
 10
86.0582777264
 20
190.2655472122
 10
86.1047194979
 20
190.2760033115
 10
86.1533689682
 20
190.2873685371
 10
86.2042882449
 20
190.2997188449
 10
86.2575323386
 20
190.3131342743
 10
86.3131596339
 20
190.3277018347
 10
86.3712257928
 20
190.3435144514
 10
86.4317712103
 20
190.3606677076
 10
86.4948839361
 20
190.3792784286
 10
86.5604503179
 20
190.399410059
 10
86.6284405359
 20
190.4211535415
 10
86.6986552835
 20
190.4445465977
 10
86.7709502528
 20
190.4696413918
 10
86.845098505
 20
190.4964570506
 10
86.9207795248
 20
190.5249686593
 10
86.9981104495
 20
190.5553116346
 10
87.0769036291
 20
190.5875069354
 10
87.1577373488
 20
190.6219008555
 10
87.2409353132
 20
190.6587716871
 10
87.3270206187
 20
190.6985250196
 10
87.4164663774
 20
190.7415955787
 10
87.5096387537
 20
190.788420286
 10
87.6071669679
 20
190.8396333018
 10
87.7085739486
 20
190.8953385876
 10
87.8137663672
 20
190.9558541265
 10
87.9221114641
 20
191.0211937167
 10
88.0331194345
 20
191.0914307085
 10
88.146226816
 20
191.1665679182
 10
88.2607619222
 20
191.2464967318
 10
88.3765645314
 20
191.3314381403
 10
88.493271799
 20
191.4214696943
 10
88.6107612992
 20
191.5168558904
 10
88.7288255877
 20
191.6178150824
 10
88.8472434517
 20
191.7245715767
 10
88.9657874258
 20
191.8373644725
 10
89.0841403916
 20
191.9563656628
 10
89.2020737035
 20
192.081855134
 10
89.3189752517
 20
192.2137071162
 10
89.434365126
 20
192.3518989608
 10
89.5476391077
 20
192.4962149563
 10
89.6582478068
 20
192.6464383818
 10
89.7656617907
 20
192.802308246
 10
89.869379608
 20
192.9635253268
 10
89.968930419
 20
193.1297520234
 10
90.0638782055
 20
193.3006153054
 10
90.153822849
 20
193.4757047975
 10
90.2384052337
 20
193.6545784645
 10
90.317311121
 20
193.8367683305
 10
90.3902479102
 20
194.0217168974
 10
90.4570659075
 20
194.209098029
 10
90.5175862077
 20
194.398399616
 10
90.5717977048
 20
194.5895456852
 10
90.6196495194
 20
194.7823391605
 10
90.6611052929
 20
194.9766291638
 10
90.6961274095
 20
195.1722634922
 10
90.724672205
 20
195.3690495382
 10
90.74670353
 20
195.5668267004
 10
90.7621795569
 20
195.7653412893
 10
90.7710713996
 20
195.9643638151
 10
90.7734374725
 20
196.1329566526
  0
LINE
  5
36C
100
AcDbEntity
  8
0
100
AcDbLine
 62
7
  6
CONTINUOUS
 10
85.6461048069
 20
190.1891420227
 11
85.6994176179
 21
190.1974070049
  0
LWPOLYLINE
  5
36D
100
AcDbEntity
  8
0
100
AcDbPolyline
 62
7
  6
CONTINUOUS
 90
3
 70
0
 10
85.5757422029
 20
190.1789385514
 10
85.5973419639
 20
190.1819866665
 10
85.6461048069
 20
190.1891420227
  0
LINE
  5
36E
100
AcDbEntity
  8
2_FEATURE
100
AcDbLine
 62
7
  6
CONTINUOUS
 10
59.9256802148
 20
190.1854390012
 11
59.9711327964
 21
190.1789385515
  0
LINE
  5
36F
100
AcDbEntity
  8
2_FEATURE
100
AcDbLine
 62
7
  6
CONTINUOUS
 10
48.1734375
 20
190.140625
 11
64.8361835668
 21
190.140625
  0
LINE
  5
370
100
AcDbEntity
  8
0
100
AcDbLine
 62
7
  6
CONTINUOUS
 10
64.8361835668
 20
190.140625
 11
97.3734375
 21
190.140625
  0
LINE
  5
371
100
AcDbEntity
  8
2_FEATURE
100
AcDbLine
 62
7
  6
CONTINUOUS
 10
55.7348810374
 20
197.7432158907
 11
55.0682041016
 21
197.7315790015
  0
LINE
  5
372
100
AcDbEntity
  8
0
100
AcDbLine
 62
7
  6
CONTINUOUS
 10
90.4786708984
 20
197.7315790015
 11
89.811999052
 21
197.7432158018
  0
LWPOLYLINE
  5
373
100
AcDbEntity
  8
0
100
AcDbPolyline
 62
7
  6
CONTINUOUS
 90
49
 70
0
 10
89.8120021535
 20
197.7432158053
 10
89.8027993279
 20
197.7439293429
 10
89.7883332218
 20
197.746662337
 10
89.7693303891
 20
197.7522958235
 10
89.7463036098
 20
197.7614207796
 10
89.7197024099
 20
197.7744483403
 10
89.6900587828
 20
197.791584719
 10
89.6578848024
 20
197.8128912931
 10
89.623457925
 20
197.8384730244
 10
89.5870904598
 20
197.868346106
 10
89.5488722812
 20
197.9026680437
 10
89.5089093061
 20
197.9415799868
 10
89.4672295539
 20
197.985304505
 10
89.4237680593
 20
198.0341918492
 10
89.3787850131
 20
198.0882409491
 10
89.332420193
 20
198.1475633669
 10
89.284970332
 20
198.2120443803
 10
89.2367432977
 20
198.281497593
 10
89.1878630073
 20
198.355963582
 10
89.1384935164
 20
198.4354188924
 10
89.0888218882
 20
198.5197879467
 10
89.0390279684
 20
198.6089906758
 10
88.989300079
 20
198.7029131959
 10
88.9398255431
 20
198.8014241859
 10
88.890784202
 20
198.9043862786
 10
88.8423594922
 20
199.0116340103
 10
88.7947163253
 20
199.123021937
 10
88.7480239159
 20
199.2383742963
 10
88.7024339735
 20
199.3575394323
 10
88.6580979018
 20
199.480345666
 10
88.6151615131
 20
199.6066188443
 10
88.5737655183
 20
199.7361725447
 10
88.5340441557
 20
199.8688204454
 10
88.4961271317
 20
200.0043572668
 10
88.460128811
 20
200.1426097028
 10
88.4261596696
 20
200.2833851268
 10
88.3943204799
 20
200.4265065644
 10
88.3647054557
 20
200.5717882784
 10
88.3374028487
 20
200.7190422276
 10
88.3124927954
 20
200.868077723
 10
88.2900486558
 20
201.0186984722
 10
88.2701355495
 20
201.1707072615
 10
88.2528099685
 20
201.3239031077
 10
88.2381206593
 20
201.4780823213
 10
88.2261056843
 20
201.6330421896
 10
88.2167960316
 20
201.7885809896
 10
88.210211362
 20
201.944501018
 10
88.2063647984
 20
202.1005906882
 10
88.205244333
 20
202.2417750258
  0
LINE
  5
374
100
AcDbEntity
  8
DEFAULT_1
100
AcDbLine
 62
2
  6
CENTER
 10
72.7734375
 20
185.640625
 11
72.7734375
 21
219.640625
  0
LINE
  5
375
100
AcDbEntity
  8
1_AXIS
100
AcDbLine
 62
2
  6
CENTER
 10
72.7734375
 20
185.640625
 11
72.7734375
 21
219.640625
  0
LINE
  5
376
100
AcDbEntity
  8
DEFAULT_1
100
AcDbLine
 62
2
  6
CENTER
 10
43.4192224215
 20
202.640625
 11
102.1276525785
 21
202.640625
  0
LINE
  5
377
100
AcDbEntity
  8
1_AXIS
100
AcDbLine
 62
2
  6
CENTER
 10
43.4192224215
 20
202.640625
 11
102.1276525785
 21
202.640625
  0
LWPOLYLINE
  5
378
100
AcDbEntity
  8
2_FEATURE
100
AcDbPolyline
 62
7
  6
CONTINUOUS
 90
49
 70
0
 10
55.7348803302
 20
207.5380340637
 10
55.7441489497
 20
207.5373112152
 10
55.7584221305
 20
207.5346165218
 10
55.7769796
 20
207.5291488988
 10
55.7992940655
 20
207.5203917593
 10
55.8248987683
 20
207.5080074781
 10
55.8533686796
 20
207.4917872592
 10
55.8842802146
 20
207.4716412523
 10
55.9174823785
 20
207.4473802823
 10
55.9527960947
 20
207.4188610935
 10
55.9902278633
 20
207.3857982565
 10
56.0298666332
 20
207.3477983484
 10
56.0715144288
 20
207.3047213422
 10
56.1151325667
 20
207.2562755884
 10
56.160371017
 20
207.202530314
 10
56.2069406758
 20
207.1435482714
 10
56.2545833456
 20
207.0794035491
 10
56.3029706888
 20
207.0103160275
 10
56.3520132252
 20
206.9362027358
 10
56.4015792716
 20
206.8570359939
 10
56.4514730225
 20
206.7728992847
 10
56.5015186425
 20
206.6838601492
 10
56.551521317
 20
206.5900373862
 10
56.6012896865
 20
206.491564397
 10
56.6506401367
 20
206.3885803332
 10
56.6993851211
 20
206.2812544494
 10
56.7473569575
 20
206.1697332181
 10
56.7943831487
 20
206.054195634
 10
56.8403099497
 20
205.9347934331
 10
56.8849836932
 20
205.8116995152
 10
56.9282563044
 20
205.6850889526
 10
56.9699849019
 20
205.5551491445
 10
57.0100328841
 20
205.4220681751
 10
57.0482683444
 20
205.2860524397
 10
57.0845743429
 20
205.1472788073
 10
57.1188378591
 20
205.0059432303
 10
57.1509561898
 20
204.8622253849
 10
57.1808329837
 20
204.7163139431
 10
57.2083782928
 20
204.5684000402
 10
57.2335101444
 20
204.4186774759
 10
57.2561537926
 20
204.2673457852
 10
57.2762426557
 20
204.1146053854
 10
57.2937191609
 20
203.9606608127
 10
57.3085335008
 20
203.805719286
 10
57.3206469266
 20
203.6499869795
 10
57.3300278639
 20
203.4936691721
 10
57.3366563466
 20
203.3369670083
 10
57.340519124
 20
203.1800958742
 10
57.3416306671
 20
203.0394749742
  0
LINE
  5
379
100
AcDbEntity
  8
0
100
AcDbLine
 62
7
  6
CONTINUOUS
 10
90.4786708984
 20
207.5496709985
 11
89.8119962745
 21
207.5380341497
  0
LINE
  5
37A
100
AcDbEntity
  8
2_FEATURE
100
AcDbLine
 62
7
  6
CONTINUOUS
 10
55.734875948
 20
207.5380341982
 11
55.0682041016
 21
207.5496709985
  0
LWPOLYLINE
  5
37B
100
AcDbEntity
  8
2_FEATURE
100
AcDbPolyline
 62
7
  6
CONTINUOUS
 90
70
 70
0
 10
59.847580886
 20
215.0838626815
 10
59.8190165386
 20
215.0792422295
 10
59.7890681184
 20
215.0742519299
 10
59.757647706
 20
215.0688545336
 10
59.7246731976
 20
215.0630107094
 10
59.6900436522
 20
215.0566743591
 10
59.6536624457
 20
215.0497962054
 10
59.6154337154
 20
215.042322866
 10
59.5752517525
 20
215.0341943227
 10
59.5330540662
 20
215.0253544683
 10
59.4887685666
 20
215.0157406455
 10
59.4423341483
 20
215.0052876441
 10
59.3936930081
 20
214.9939259542
 10
59.3427827677
 20
214.9815795935
 10
59.2895484337
 20
214.9681685637
 10
59.2339309489
 20
214.9536057156
 10
59.1758741
 20
214.9377979933
 10
59.1153370576
 20
214.9206496918
 10
59.0522307801
 20
214.9020436784
 10
58.9866700069
 20
214.8819167912
 10
58.9186847925
 20
214.8601781469
 10
58.8484760937
 20
214.8367905663
 10
58.7761894576
 20
214.8117023769
 10
58.7020533404
 20
214.7848951189
 10
58.6263910448
 20
214.7563949577
 10
58.5490827885
 20
214.7260657677
 10
58.4703150982
 20
214.6938863481
 10
58.3895078204
 20
214.6595098368
 10
58.3063355716
 20
214.6226573369
 10
58.2202735771
 20
214.5829225671
 10
58.1308464398
 20
214.539869692
 10
58.0376882703
 20
214.4930617923
 10
57.9401684251
 20
214.4418638383
 10
57.838766888
 20
214.3861731491
 10
57.733579312
 20
214.3256729819
 10
57.6252385421
 20
214.2603495777
 10
57.5142352089
 20
214.1901301325
 10
57.4011327279
 20
214.1150118811
 10
57.2866033798
 20
214.0351039339
 10
57.170806199
 20
213.950184632
 10
57.0541029445
 20
213.8601756521
 10
56.9366165352
 20
213.7648129155
 10
56.8185544756
 20
213.6638781886
 10
56.7001380919
 20
213.5571473625
 10
56.581594826
 20
213.4443814469
 10
56.4632421254
 20
213.3254090301
 10
56.3453089623
 20
213.1999507443
 10
56.2284071279
 20
213.0681322673
 10
56.1130166158
 20
212.9299766536
 10
55.9997406892
 20
212.785698703
 10
55.8891281345
 20
212.6355144687
 10
55.7817078504
 20
212.4796841861
 10
55.6779806899
 20
212.3185060035
 10
55.5784176387
 20
212.1523174244
 10
55.4834545725
 20
211.9814908431
 10
55.3934921085
 20
211.8064371151
 10
55.308889658
 20
211.627598517
 10
55.2299617197
 20
211.4454433067
 10
55.157001206
 20
211.2605295092
 10
55.0901576988
 20
211.0731829405
 10
55.02961015
 20
210.8839156588
 10
54.9753695626
 20
210.6928033564
 10
54.9274867719
 20
210.5000428391
 10
54.8859981404
 20
210.3057848585
 10
54.8509412844
 20
210.1101814201
 10
54.8223599108
 20
209.913425058
 10
54.8002902007
 20
209.7156762454
 10
54.7847740473
 20
209.517188641
 10
54.775840393
 20
209.3181916871
 10
54.7734375275
 20
209.1482933449
  0
LINE
  5
37C
100
AcDbEntity
  8
2_FEATURE
100
AcDbLine
 62
7
  6
CONTINUOUS
 10
59.9008875108
 20
215.0921256527
 11
59.847580886
 21
215.0838626815
  0
LWPOLYLINE
  5
37D
100
AcDbEntity
  8
2_FEATURE
100
AcDbPolyline
 62
7
  6
CONTINUOUS
 90
3
 70
0
 10
59.9711330196
 20
215.1023114796
 10
59.9496450408
 20
215.0992793301
 10
59.9008875108
 20
215.0921256527
  0
LINE
  5
37E
100
AcDbEntity
  8
2_FEATURE
100
AcDbLine
 62
7
  6
CONTINUOUS
 10
48.1734375
 20
215.140625
 11
60.7811003478
 21
215.140625
  0
LINE
  5
37F
100
AcDbEntity
  8
0
100
AcDbLine
 62
7
  6
CONTINUOUS
 10
60.2657746522
 20
215.140625
 11
97.3734375
 21
215.140625
  0
LINE
  5
380
100
AcDbEntity
  8
0
100
AcDbLine
 62
7
  6
CONTINUOUS
 10
85.6210931528
 20
215.095825902
 11
85.5757419796
 21
215.1023114797
  0
LINE
  5
381
100
AcDbEntity
  8
0
100
AcDbLine
 62
7
  6
CONTINUOUS
 10
88.2052443021
 20
203.0394749742
 11
88.2052443021
 21
202.2417750258
  0
LWPOLYLINE
  5
382
100
AcDbEntity
  8
0
100
AcDbPolyline
 62
7
  6
CONTINUOUS
 90
49
 70
0
 10
88.2052443329
 20
203.0394749742
 10
88.2063437184
 20
203.1793244836
 10
88.2101671156
 20
203.3354224675
 10
88.2167289274
 20
203.4913523474
 10
88.2260161169
 20
203.6469024383
 10
88.2380090723
 20
203.8018750977
 10
88.252676902
 20
203.9560686696
 10
88.2699815898
 20
204.1092804762
 10
88.2898744858
 20
204.2613067752
 10
88.3122991359
 20
204.4119465799
 10
88.3371905103
 20
204.5610026255
 10
88.3644752778
 20
204.7082785842
 10
88.3940733846
 20
204.8535837286
 10
88.4258966087
 20
204.9967299926
 10
88.4598508055
 20
205.1375315913
 10
88.4958352329
 20
205.2758115224
 10
88.5337394678
 20
205.4113770952
 10
88.5734491731
 20
205.5440549533
 10
88.614834683
 20
205.6736397581
 10
88.6577617895
 20
205.7999451253
 10
88.7020898071
 20
205.9227845767
 10
88.7476729512
 20
206.0419838852
 10
88.7943598356
 20
206.1573713234
 10
88.8419987672
 20
206.2687951416
 10
88.8904205672
 20
206.3760795703
 10
88.9394603613
 20
206.4790791113
 10
88.9889347268
 20
206.5776282273
 10
89.0386638375
 20
206.6715894457
 10
89.0884603819
 20
206.7608313607
 10
89.1381360771
 20
206.845240021
 10
89.1875109727
 20
206.9247350724
 10
89.2363979315
 20
206.999240717
 10
89.2846328061
 20
207.0687332854
 10
89.3320914657
 20
207.1332530251
 10
89.3784663546
 20
207.1926138044
 10
89.4234609505
 20
207.2467009622
 10
89.466935539
 20
207.2956259555
 10
89.5086303867
 20
207.3393879242
 10
89.5486094949
 20
207.3783359996
 10
89.5868443425
 20
207.4126922591
 10
89.6232285898
 20
207.4425975195
 10
89.6576719571
 20
207.4682090913
 10
89.689862437
 20
207.4895434518
 10
89.7195227494
 20
207.5067056905
 10
89.7461419399
 20
207.5197575809
 10
89.7691892662
 20
207.5289053025
 10
89.7882155431
 20
207.5345591888
 10
89.8027081165
 20
207.5373088741
 10
89.8120021854
 20
207.5380341952
  0
LWPOLYLINE
  5
383
100
AcDbEntity
  8
0
100
AcDbPolyline
 62
7
  6
CONTINUOUS
 90
72
 70
0
 10
90.7734374725
 20
209.1482933474
 10
90.7710706298
 20
209.3169136027
 10
90.7621776941
 20
209.5159390962
 10
90.7467003882
 20
209.7144564906
 10
90.7246676126
 20
209.9122362841
 10
90.69612122
 20
210.1090247151
 10
90.6610973514
 20
210.3046613238
 10
90.619639661
 20
210.4989535675
 10
90.5717857226
 20
210.6917493893
 10
90.5175718315
 20
210.8828980552
 10
90.457048818
 20
211.072202526
 10
90.3902276494
 20
211.2595870779
 10
90.3172873783
 20
211.4445390721
 10
90.2383777879
 20
211.6267321395
 10
90.1537917642
 20
211.8056082321
 10
90.0638438642
 20
211.980698932
 10
89.9688935535
 20
212.1515618471
 10
89.8693414804
 20
212.3177860684
 10
89.765623729
 20
212.4789988912
 10
89.6582114365
 20
212.6348626551
 10
89.5476058184
 20
212.7850788152
 10
89.4343361375
 20
212.9293868325
 10
89.3189515457
 20
213.0675704247
 10
89.2020559633
 20
213.1994142933
 10
89.0841290183
 20
213.3248960968
 10
88.9657824252
 20
213.443890417
 10
88.8472446634
 20
213.5566773014
 10
88.7288325961
 20
213.6634287659
 10
88.6107734924
 20
213.7643839529
 10
88.4932883417
 20
213.8597672173
 10
88.3765843896
 20
213.9497969253
 10
88.2607838486
 20
214.0347375847
 10
88.1462493821
 20
214.1146667208
 10
88.0331409152
 20
214.189805369
 10
87.922130286
 20
214.2600446603
 10
87.8137809854
 20
214.3253872662
 10
87.7085829869
 20
214.3859063336
 10
87.6071685921
 20
214.4416158262
 10
87.5096331291
 20
214.4928326021
 10
87.41645561
 20
214.5396597161
 10
87.3270067718
 20
214.5827315078
 10
87.2409213905
 20
214.6224846095
 10
87.1577253247
 20
214.6593543647
 10
87.0768951497
 20
214.6937465995
 10
86.9981058931
 20
214.7259401896
 10
86.920778628
 20
214.7562816854
 10
86.8450987331
 20
214.7847928652
 10
86.7709456896
 20
214.8116102248
 10
86.6986427351
 20
214.8367076688
 10
86.6284180366
 20
214.8601038011
 10
86.5604170753
 20
214.8818503552
 10
86.4948405503
 20
214.9019846227
 10
86.4317188133
 20
214.9205974326
 10
86.3711667773
 20
214.937751936
 10
86.3130954973
 20
214.9535652876
 10
86.257464282
 20
214.9681332021
 10
86.204216938
 20
214.9815487771
 10
86.1532944729
 20
214.9938991899
 10
86.1046418729
 20
215.0052644851
 10
86.0581967717
 20
215.0157206803
 10
86.0139013154
 20
215.0253373314
 10
85.9716943538
 20
215.034179689
 10
85.9315037816
 20
215.0423104413
 10
85.8932670804
 20
215.0497857259
 10
85.8568785218
 20
215.0566655876
 10
85.8222422269
 20
215.0630034319
 10
85.7892615213
 20
215.0688485633
 10
85.7578354203
 20
215.0742471029
 10
85.7278817838
 20
215.0792384015
 10
85.6993126515
 20
215.0838597268
 10
85.6720462502
 20
215.0881445102
 10
85.6210931528
 20
215.095825902
  0
LINE
  5
384
100
AcDbEntity
  8
2_FEATURE
100
AcDbLine
 62
7
  6
CONTINUOUS
 10
90.7734375
 20
196.1327405408
 11
90.7734375
 21
197.4317107095
  0
LINE
  5
385
100
AcDbEntity
  8
2_FEATURE
100
AcDbLine
 62
7
  6
CONTINUOUS
 10
90.7734375
 20
207.8495392905
 11
90.7734375
 21
209.1485094336
  0
LINE
  5
386
100
AcDbEntity
  8
0
100
AcDbLine
 62
7
  6
CONTINUOUS
 10
99.3734375
 20
213.140625
 11
99.3734375
 21
192.140625
  0
LINE
  5
387
100
AcDbEntity
  8
2_FEATURE
100
AcDbLine
 62
7
  6
CONTINUOUS
 10
152.2890625
 20
69.1911143539
 11
162.2890625
 21
69.1911143539
  0
LINE
  5
388
100
AcDbEntity
  8
2_FEATURE
100
AcDbLine
 62
7
  6
CONTINUOUS
 10
155.9896164004
 20
82.6911143539
 11
155.5885085996
 21
82.6911143539
  0
LINE
  5
389
100
AcDbEntity
  8
DEFAULT_1
100
AcDbLine
 62
2
  6
CENTER
 10
160.1890625
 20
87.1911143539
 11
157.7891625
 21
87.1911143539
  0
LINE
  5
38A
100
AcDbEntity
  8
1_AXIS
100
AcDbLine
 62
2
  6
CENTER
 10
172.9473050398
 20
87.1911143539
 11
157.7891625
 21
87.1911143539
  0
LINE
  5
38B
100
AcDbEntity
  8
0
100
AcDbLine
 62
2
  6
CONTINUOUS
 10
156.6690625
 20
87.1911143539
 11
154.9090625
 21
87.1911143539
  0
LINE
  5
38C
100
AcDbEntity
  8
1_AXIS
100
AcDbLine
 62
2
  6
CONTINUOUS
 10
156.6690625
 20
87.1911143539
 11
154.9090625
 21
87.1911143539
  0
LINE
  5
38D
100
AcDbEntity
  8
DEFAULT_1
100
AcDbLine
 62
2
  6
CENTER
 10
151.3890625
 20
87.1911143539
 11
153.7889625
 21
87.1911143539
  0
LINE
  5
38E
100
AcDbEntity
  8
1_AXIS
100
AcDbLine
 62
2
  6
CENTER
 10
137.6468720724
 20
87.1911143539
 11
153.7889625
 21
87.1911143539
  0
LINE
  5
38F
100
AcDbEntity
  8
DEFAULT_1
100
AcDbLine
 62
2
  6
CENTER
 10
170.7477339887
 20
87.1911143539
 11
172.7890625
 21
87.1911143539
  0
LINE
  5
390
100
AcDbEntity
  8
0
100
AcDbLine
 62
7
  6
CONTINUOUS
 10
153.1746134977
 20
92.6911143539
 11
158.4035115023
 21
92.6911143539
  0
LINE
  5
391
100
AcDbEntity
  8
2_FEATURE
100
AcDbLine
 62
7
  6
CONTINUOUS
 10
143.2890625
 20
78.1911143539
 11
143.2890625
 21
136.6911143539
  0
LWPOLYLINE
  5
392
100
AcDbEntity
  8
2_FEATURE
100
AcDbPolyline
 62
7
  6
CONTINUOUS
 90
3
 70
0
 10
151.5133720051
 20
138.8743904424
 10
151.538550573
 20
138.9550916239
 10
151.559091875
 20
139.013212694
  0
LINE
  5
393
100
AcDbEntity
  8
0
100
AcDbLine
 62
7
  6
CONTINUOUS
 10
151.1890625
 20
90.5006348976
 11
151.1890625
 21
87.1911143539
  0
LINE
  5
394
100
AcDbEntity
  8
DEFAULT_1
100
AcDbLine
 62
2
  6
CENTER
 10
155.7890625
 20
67.1911143539
 11
155.7890625
 21
155.0432606461
  0
LINE
  5
395
100
AcDbEntity
  8
1_AXIS
100
AcDbLine
 62
2
  6
CENTER
 10
155.7890625
 20
67.1911143539
 11
155.7890625
 21
155.0432606461
  0
LINE
  5
396
100
AcDbEntity
  8
DEFAULT_1
100
AcDbLine
 62
2
  6
CENTER
 10
173.8304497915
 20
108.8411143539
 11
157.7891625
 21
108.8411143539
  0
LINE
  5
397
100
AcDbEntity
  8
0
100
AcDbLine
 62
2
  6
CONTINUOUS
 10
156.6690625
 20
108.8411143539
 11
154.9090625
 21
108.8411143539
  0
LINE
  5
398
100
AcDbEntity
  8
DEFAULT_1
100
AcDbLine
 62
2
  6
CENTER
 10
137.7789437822
 20
108.8411143539
 11
153.7889625
 21
108.8411143539
  0
LINE
  5
399
100
AcDbEntity
  8
0
100
AcDbLine
 62
7
  6
CONTINUOUS
 10
160.3890625
 20
90.5006348976
 11
160.3890625
 21
87.1911143539
  0
LINE
  5
39A
100
AcDbEntity
  8
2_FEATURE
100
AcDbLine
 62
7
  6
CONTINUOUS
 10
160.0645574726
 20
138.875068066
 11
160.0643797219
 21
138.8756829888
  0
LINE
  5
39B
100
AcDbEntity
  8
0
100
AcDbLine
 62
7
  6
CONTINUOUS
 10
168.2890625
 20
75.1911143539
 11
168.2890625
 21
101.1753329623
  0
LINE
  5
39C
100
AcDbEntity
  8
2_FEATURE
100
AcDbLine
 62
7
  6
CONTINUOUS
 10
168.2890625
 20
75.1911143539
 11
168.2890625
 21
136.6911143539
  0
LINE
  5
39D
100
AcDbEntity
  8
2_FEATURE
100
AcDbLine
 62
7
  6
CONTINUOUS
 10
160.0205455539
 20
139.0091247157
 11
160.0393859141
 21
138.9556529454
  0
LINE
  5
39E
100
AcDbEntity
  8
2_FEATURE
100
AcDbLine
 62
7
  6
CONTINUOUS
 10
160.0393859141
 20
138.9556529454
 11
160.0645574726
 21
138.875068066
  0
LINE
  5
39F
100
AcDbEntity
  8
DEFAULT_1
100
AcDbLine
 62
2
  6
CENTER
 10
173.8840978659
 20
137.6411143539
 11
157.7891625
 21
137.6411143539
  0
LINE
  5
3A0
100
AcDbEntity
  8
0
100
AcDbLine
 62
2
  6
CONTINUOUS
 10
156.6690625
 20
137.6411143539
 11
154.9090625
 21
137.6411143539
  0
LINE
  5
3A1
100
AcDbEntity
  8
DEFAULT_1
100
AcDbLine
 62
2
  6
CENTER
 10
137.4570553356
 20
137.6411143539
 11
153.7889625
 21
137.6411143539
  0
LINE
  5
3A2
100
AcDbEntity
  8
2_FEATURE
100
AcDbLine
 62
7
  6
CONTINUOUS
 10
153.3965742555
 20
140.2911143539
 11
158.1815507445
 21
140.2911143539
  0
LINE
  5
3A3
100
AcDbEntity
  8
2_FEATURE
100
AcDbLine
 62
7
  6
CONTINUOUS
 10
152.8649600112
 20
141.2911143539
 11
158.7131649888
 21
141.2911143539
  0
LINE
  5
3A4
100
AcDbEntity
  8
2_FEATURE
100
AcDbLine
 62
7
  6
CONTINUOUS
 10
152.019447135
 20
148.4911143539
 11
159.558677865
 21
148.4911143539
  0
ARC
  5
3A5
100
AcDbEntity
  8
2_FEATURE
100
AcDbCircle
 62
7
  6
CONTINUOUS
 10
48.2734375
 20
100.7465560657
 40
10.0
100
AcDbArc
 50
331.0449756281
 51
46.0
  0
ARC
  5
3A6
100
AcDbEntity
  8
2_FEATURE
100
AcDbCircle
 62
7
  6
CONTINUOUS
 10
45.4734375
 20
140.6911143539
 40
9.0
100
AcDbArc
 50
0.0
 51
58.0057492571
  0
ARC
  5
3A7
100
AcDbEntity
  8
2_FEATURE
100
AcDbCircle
 62
7
  6
CONTINUOUS
 10
48.1734375
 20
146.4911143539
 40
2.0
100
AcDbArc
 50
90.0
 51
180.0
  0
ARC
  5
3A8
100
AcDbEntity
  8
2_FEATURE
100
AcDbCircle
 62
7
  6
CONTINUOUS
 10
49.6591274073
 20
147.3911143539
 40
1.1
100
AcDbArc
 50
58.0057492571
 51
90.0
  0
ARC
  5
3A9
100
AcDbEntity
  8
2_FEATURE
100
AcDbCircle
 62
7
  6
CONTINUOUS
 10
61.1734375
 20
123.0432606461
 40
15.0
100
AcDbArc
 50
180.0
 51
226.0
  0
ARC
  5
3AA
100
AcDbEntity
  8
2_FEATURE
100
AcDbCircle
 62
7
  6
CONTINUOUS
 10
66.3306078042
 20
133.3518506861
 40
10.0
100
AcDbArc
 50
200.0
 51
210.7905924081
  0
ARC
  5
3AB
100
AcDbEntity
  8
0
100
AcDbCircle
 62
7
  6
CONTINUOUS
 10
72.7734375
 20
87.1911143539
 40
18.0
100
AcDbArc
 50
182.047694762
 51
28.9550243719
  0
ARC
  5
3AC
100
AcDbEntity
  8
2_FEATURE
100
AcDbCircle
 62
7
  6
CONTINUOUS
 10
72.7734375
 20
87.1911143539
 40
18.0
100
AcDbArc
 50
151.0449756281
 51
357.952305008
  0
ARC
  5
3AD
100
AcDbEntity
  8
0
100
AcDbCircle
 62
7
  6
CONTINUOUS
 10
97.2734375
 20
100.7465560657
 40
10.0
100
AcDbArc
 50
134.0
 51
208.9550243719
  0
ARC
  5
3AE
100
AcDbEntity
  8
2_FEATURE
100
AcDbCircle
 62
7
  6
CONTINUOUS
 10
72.7734375
 20
137.1911143539
 40
17.5
100
AcDbArc
 50
210.7905924081
 51
329.2094075919
  0
ARC
  5
3AF
100
AcDbEntity
  8
0
100
AcDbCircle
 62
7
  6
CONTINUOUS
 10
72.7734375
 20
137.1911143539
 40
17.5
100
AcDbArc
 50
210.7905924081
 51
329.2094075919
  0
ARC
  5
3B0
100
AcDbEntity
  8
0
100
AcDbCircle
 62
7
  6
CONTINUOUS
 10
84.3734375
 20
123.0432606461
 40
15.0
100
AcDbArc
 50
314.0
 51
360.0
  0
ARC
  5
3B1
100
AcDbEntity
  8
0
100
AcDbCircle
 62
7
  6
CONTINUOUS
 10
79.2162671958
 20
133.3518506861
 40
10.0
100
AcDbArc
 50
329.2094075919
 51
340.0
  0
ARC
  5
3B2
100
AcDbEntity
  8
0
100
AcDbCircle
 62
7
  6
CONTINUOUS
 10
100.0734375
 20
140.6911143539
 40
9.0
100
AcDbArc
 50
121.9942507429
 51
180.0
  0
ARC
  5
3B3
100
AcDbEntity
  8
0
100
AcDbCircle
 62
7
  6
CONTINUOUS
 10
97.3734375
 20
146.4911143539
 40
2.0
100
AcDbArc
 50
0.0
 51
90.0
  0
ARC
  5
3B4
100
AcDbEntity
  8
0
100
AcDbCircle
 62
7
  6
CONTINUOUS
 10
95.8877475927
 20
147.3911143539
 40
1.1
100
AcDbArc
 50
90.0
 51
121.9942507429
  0
ARC
  5
3B5
100
AcDbEntity
  8
2_FEATURE
100
AcDbCircle
 62
7
  6
CONTINUOUS
 10
60.5237635291
 20
211.1359278155
 40
4.0046971978
100
AcDbArc
 50
90.004664545
 51
97.931866901
  0
ARC
  5
3B6
100
AcDbEntity
  8
0
100
AcDbCircle
 62
7
  6
CONTINUOUS
 10
85.0231114709
 20
211.1359278155
 40
4.0046971978
100
AcDbArc
 50
82.0681330774
 51
89.995335455
  0
ARC
  5
3B7
100
AcDbEntity
  8
2_FEATURE
100
AcDbCircle
 62
7
  6
CONTINUOUS
 10
60.5237635289
 20
194.1453221477
 40
4.004697161
100
AcDbArc
 50
262.0681375811
 51
269.9953354582
  0
ARC
  5
3B8
100
AcDbEntity
  8
0
100
AcDbCircle
 62
7
  6
CONTINUOUS
 10
85.0231114711
 20
194.1453221477
 40
4.004697161
100
AcDbArc
 50
270.0046645418
 51
277.9318624424
  0
ARC
  5
3B9
100
AcDbEntity
  8
0
100
AcDbCircle
 62
7
  6
CONTINUOUS
 10
97.3734375
 20
192.140625
 40
2.0
100
AcDbArc
 50
270.0
 51
360.0
  0
ARC
  5
3BA
100
AcDbEntity
  8
2_FEATURE
100
AcDbCircle
 62
7
  6
CONTINUOUS
 10
48.1734375
 20
192.140625
 40
2.0
100
AcDbArc
 50
180.0
 51
270.0
  0
ARC
  5
3BB
100
AcDbEntity
  8
2_FEATURE
100
AcDbCircle
 62
7
  6
CONTINUOUS
 10
48.1734375
 20
213.140625
 40
2.0
100
AcDbArc
 50
90.0
 51
180.0
  0
ARC
  5
3BC
100
AcDbEntity
  8
0
100
AcDbCircle
 62
7
  6
CONTINUOUS
 10
97.3734375
 20
213.140625
 40
2.0
100
AcDbArc
 50
0.0
 51
90.0
  0
ARC
  5
3BD
100
AcDbEntity
  8
0
100
AcDbCircle
 62
7
  6
CONTINUOUS
 10
90.4734371864
 20
197.4316246578
 40
0.3
100
AcDbArc
 50
0.0000000356
 51
89.0
  0
ARC
  5
3BE
100
AcDbEntity
  8
0
100
AcDbCircle
 62
7
  6
CONTINUOUS
 10
90.4734371864
 20
207.8496253422
 40
0.3
100
AcDbArc
 50
271.0
 51
359.9999999644
  0
ARC
  5
3BF
100
AcDbEntity
  8
2_FEATURE
100
AcDbCircle
 62
7
  6
CONTINUOUS
 10
55.0734378136
 20
197.4316246578
 40
0.3
100
AcDbArc
 50
91.0
 51
179.9999999644
  0
ARC
  5
3C0
100
AcDbEntity
  8
2_FEATURE
100
AcDbCircle
 62
7
  6
CONTINUOUS
 10
55.0734378136
 20
207.8496253422
 40
0.3
100
AcDbArc
 50
180.0000000356
 51
269.0
  0
ARC
  5
3C1
100
AcDbEntity
  8
0
100
AcDbCircle
 62
7
  6
CONTINUOUS
 10
152.2890625
 20
78.1911143539
 40
9.0
100
AcDbArc
 50
250.5287793655
 51
270.0
  0
ARC
  5
3C2
100
AcDbEntity
  8
2_FEATURE
100
AcDbCircle
 62
7
  6
CONTINUOUS
 10
152.2890625
 20
78.1911143539
 40
9.0
100
AcDbArc
 50
180.0
 51
250.5287793655
  0
ARC
  5
3C3
100
AcDbEntity
  8
0
100
AcDbCircle
 62
7
  6
CONTINUOUS
 10
155.8887845939
 20
87.1914926746
 40
4.5003234321
100
AcDbArc
 50
271.2836132862
 51
359.9951833686
  0
ARC
  5
3C4
100
AcDbEntity
  8
0
100
AcDbCircle
 62
7
  6
CONTINUOUS
 10
155.6893404061
 20
87.1914926746
 40
4.5003234321
100
AcDbArc
 50
180.0048166311
 51
268.7163867135
  0
ARC
  5
3C5
100
AcDbEntity
  8
0
100
AcDbCircle
 62
7
  6
CONTINUOUS
 10
153.3965742555
 20
138.3311143539
 40
1.96
100
AcDbArc
 50
159.6342027592
 51
163.9122974618
  0
ARC
  5
3C6
100
AcDbEntity
  8
2_FEATURE
100
AcDbCircle
 62
7
  6
CONTINUOUS
 10
153.3965742528
 20
138.3311144527
 40
1.9599999213
100
AcDbArc
 50
89.9999999204
 51
163.9123002125
  0
ARC
  5
3C7
100
AcDbEntity
  8
2_FEATURE
100
AcDbCircle
 62
7
  6
CONTINUOUS
 10
152.019447135
 20
146.4911143539
 40
2.0
100
AcDbArc
 50
90.0
 51
111.0394697813
  0
ARC
  5
3C8
100
AcDbEntity
  8
2_FEATURE
100
AcDbCircle
 62
7
  6
CONTINUOUS
 10
155.7890625
 20
136.6911143539
 40
12.5
100
AcDbArc
 50
111.0394697813
 51
180.0
  0
ARC
  5
3C9
100
AcDbEntity
  8
2_FEATURE
100
AcDbCircle
 62
7
  6
CONTINUOUS
 10
155.7890625
 20
136.6911143539
 40
12.5
100
AcDbArc
 50
0.0
 51
68.9605302187
  0
ARC
  5
3CA
100
AcDbEntity
  8
0
100
AcDbCircle
 62
7
  6
CONTINUOUS
 10
155.7890625
 20
136.6911143539
 40
12.5
100
AcDbArc
 50
159.459022709
 51
159.4886013326
  0
ARC
  5
3CB
100
AcDbEntity
  8
0
100
AcDbCircle
 62
7
  6
CONTINUOUS
 10
155.7890625
 20
136.6911143539
 40
12.5
100
AcDbArc
 50
160.926248189
 51
180.0
  0
ARC
  5
3CC
100
AcDbEntity
  8
0
100
AcDbCircle
 62
7
  6
CONTINUOUS
 10
155.7890625
 20
136.6911143539
 40
12.5
100
AcDbArc
 50
0.3254524159
 51
20.4558237929
  0
ARC
  5
3CD
100
AcDbEntity
  8
0
100
AcDbCircle
 62
7
  6
CONTINUOUS
 10
155.7890625
 20
137.6411143539
 40
4.45
100
AcDbArc
 50
15.148266459
 51
16.0877025382
  0
ARC
  5
3CE
100
AcDbEntity
  8
0
100
AcDbCircle
 62
7
  6
CONTINUOUS
 10
155.7890625
 20
137.6411143539
 40
4.45
100
AcDbArc
 50
344.8853208119
 51
345.9931205921
  0
ARC
  5
3CF
100
AcDbEntity
  8
2_FEATURE
100
AcDbCircle
 62
7
  6
CONTINUOUS
 10
155.7890625
 20
137.6411143539
 40
4.45
100
AcDbArc
 50
163.7030319172
 51
16.2969680828
  0
ARC
  5
3D0
100
AcDbEntity
  8
0
100
AcDbCircle
 62
7
  6
CONTINUOUS
 10
155.7890625
 20
137.6411143539
 40
4.45
100
AcDbArc
 50
163.9122974618
 51
196.4545593756
  0
ARC
  5
3D1
100
AcDbEntity
  8
2_FEATURE
100
AcDbCircle
 62
7
  6
CONTINUOUS
 10
162.2890625
 20
75.1911143539
 40
6.0
100
AcDbArc
 50
270.0
 51
360.0
  0
ARC
  5
3D2
100
AcDbEntity
  8
2_FEATURE
100
AcDbCircle
 62
7
  6
CONTINUOUS
 10
159.558677865
 20
146.4911143539
 40
2.0
100
AcDbArc
 50
68.9605302187
 51
90.0
  0
ARC
  5
3D3
100
AcDbEntity
  8
0
100
AcDbCircle
 62
7
  6
CONTINUOUS
 10
158.1815507445
 20
138.3311143539
 40
1.96
100
AcDbArc
 50
16.0877025382
 51
20.2384001071
  0
ARC
  5
3D4
100
AcDbEntity
  8
0
100
AcDbCircle
 62
7
  6
CONTINUOUS
 10
158.1815507445
 20
138.3311143539
 40
1.96
100
AcDbArc
 50
87.4451539954
 51
90.0
  0
ARC
  5
3D5
100
AcDbEntity
  8
2_FEATURE
100
AcDbCircle
 62
7
  6
CONTINUOUS
 10
158.1815507428
 20
138.3311143621
 40
1.9599999935
100
AcDbArc
 50
16.1313992278
 51
89.9999999498
  0
SPLINE
  5
3D6
100
AcDbEntity
  8
2_FEATURE
100
AcDbSpline
 62
7
  6
CONTINUOUS
 70
0
 71
3
 72
23
 73
19
 74
0
 42
0.0000001
 43
0.0000001
 44
0.0000000001
 40
0.0
 40
0.0
 40
0.0
 40
0.0
 40
0.0242409988
 40
0.0484858058
 40
0.0727445096
 40
0.0969570131
 40
0.145194358
 40
0.1931274639
 40
0.2406333153
 40
0.2875991816
 40
0.3339140246
 40
0.3794680424
 40
0.5519265198
 40
0.7038401007
 40
0.8291382367
 40
0.9226615393
 40
0.9804505996
 40
1.0
 40
1.0
 40
1.0
 40
1.0
 10
53.3734375
 20
136.5872405646
 30
0.0
 10
53.3785511414
 20
136.5797157636
 30
0.0
 10
53.390832658
 20
136.5658444157
 30
0.0
 10
53.4149150203
 20
136.5521049855
 30
0.0
 10
53.4414506107
 20
136.5450052801
 30
0.0
 10
53.4775796032
 20
136.5409062355
 30
0.0
 10
53.5228730334
 20
136.5414767075
 30
0.0
 10
53.576631961
 20
136.5456599741
 30
0.0
 10
53.6297554723
 20
136.5516153609
 30
0.0
 10
53.6821441424
 20
136.5585007197
 30
0.0
 10
53.7337225058
 20
136.565906433
 30
0.0
 10
53.8318045047
 20
136.5807944059
 30
0.0
 10
53.9688029946
 20
136.6033476344
 30
0.0
 10
54.1351489084
 20
136.6318227325
 30
0.0
 10
54.2722234684
 20
136.6557147888
 30
0.0
 10
54.374473241
 20
136.6736735055
 30
0.0
 10
54.437626818
 20
136.6848002807
 30
0.0
 10
54.4662118736
 20
136.6898402333
 30
0.0
 10
54.4734375
 20
136.6911143539
 30
0.0
  0
SPLINE
  5
3D7
100
AcDbEntity
  8
0
100
AcDbSpline
 62
7
  6
CONTINUOUS
 70
0
 71
3
 72
23
 73
19
 74
0
 42
0.0000001
 43
0.0000001
 44
0.0000000001
 40
0.0
 40
0.0
 40
0.0
 40
0.0
 40
0.0242409988
 40
0.0484858058
 40
0.0727445096
 40
0.0969570131
 40
0.145194358
 40
0.1931274639
 40
0.2406333153
 40
0.2875991816
 40
0.3339140246
 40
0.3794680424
 40
0.5519265198
 40
0.7038401007
 40
0.8291382367
 40
0.9226615393
 40
0.9804505996
 40
1.0
 40
1.0
 40
1.0
 40
1.0
 10
92.1734375
 20
136.5872405646
 30
0.0
 10
92.1683238586
 20
136.5797157636
 30
0.0
 10
92.156042342
 20
136.5658444157
 30
0.0
 10
92.1319599797
 20
136.5521049855
 30
0.0
 10
92.1054243893
 20
136.5450052801
 30
0.0
 10
92.0692953968
 20
136.5409062355
 30
0.0
 10
92.0240019666
 20
136.5414767075
 30
0.0
 10
91.970243039
 20
136.5456599741
 30
0.0
 10
91.9171195277
 20
136.5516153609
 30
0.0
 10
91.8647308576
 20
136.5585007197
 30
0.0
 10
91.8131524942
 20
136.565906433
 30
0.0
 10
91.7150704953
 20
136.5807944059
 30
0.0
 10
91.5780720054
 20
136.6033476344
 30
0.0
 10
91.4117260916
 20
136.6318227325
 30
0.0
 10
91.2746515316
 20
136.6557147888
 30
0.0
 10
91.172401759
 20
136.6736735055
 30
0.0
 10
91.109248182
 20
136.6848002807
 30
0.0
 10
91.0806631264
 20
136.6898402333
 30
0.0
 10
91.0734375
 20
136.6911143539
 30
0.0
  0
LINE
  5
3D8
100
AcDbEntity
  8
0
100
AcDbLine
 62
7
  6
CONTINUOUS
 10
92.1734375
 20
136.5872405646
 11
92.2440330497
 21
136.6911143539
  0
LINE
  5
3D9
100
AcDbEntity
  8
2_FEATURE
100
AcDbLine
 62
7
  6
CONTINUOUS
 10
53.3734375
 20
136.5872405646
 11
53.3028419503
 21
136.6911143539
  0
SPLINE
  5
3DA
100
AcDbEntity
  8
2_FEATURE
100
AcDbSpline
 62
7
  6
CONTINUOUS
 70
0
 71
3
 72
31
 73
27
 74
0
 42
0.0000001
 43
0.0000001
 44
0.0000000001
 40
0.0
 40
0.0
 40
0.0
 40
0.0
 40
0.0025054734
 40
0.0049234814
 40
0.0073897954
 40
0.0100345687
 40
0.0129654525
 40
0.0162632069
 40
0.024162376
 40
0.0340279464
 40
0.0459992015
 40
0.0601467672
 40
0.0765033294
 40
0.0950775043
 40
0.1158605512
 40
0.1639468084
 40
0.2204599268
 40
0.2849376999
 40
0.356788265
 40
0.4353086327
 40
0.5197079008
 40
0.6091348592
 40
0.7027113559
 40
0.7995721104
 40
0.8989062331
 40
1.0
 40
1.0
 40
1.0
 40
1.0
 10
64.8361835668
 20
190.140625
 30
0.0
 10
64.8300481348
 20
190.140625
 30
0.0
 10
64.817932919
 20
190.1418622825
 30
0.0
 10
64.8007272012
 20
190.148025424
 30
0.0
 10
64.7852786959
 20
190.1584111699
 30
0.0
 10
64.7717085291
 20
190.1728742357
 30
0.0
 10
64.7599953102
 20
190.1912967543
 30
0.0
 10
64.7459800102
 20
190.223037392
 30
0.0
 10
64.7340465155
 20
190.273592679
 30
0.0
 10
64.7277897975
 20
190.3462689339
 30
0.0
 10
64.729151197
 20
190.434499171
 30
0.0
 10
64.738485767
 20
190.5381608557
 30
0.0
 10
64.7561625913
 20
190.6570925704
 30
0.0
 10
64.7825325373
 20
190.7909948794
 30
0.0
 10
64.8322456776
 20
190.9993241185
 30
0.0
 10
64.9195444703
 20
191.2939284787
 30
0.0
 10
65.0595074403
 20
191.6837870574
 30
0.0
 10
65.2420852524
 20
192.1195256089
 30
0.0
 10
65.4698872238
 20
192.5940280432
 30
0.0
 10
65.7454676971
 20
193.0988940858
 30
0.0
 10
66.0711672328
 20
193.6244402312
 30
0.0
 10
66.4489994689
 20
194.1597830435
 30
0.0
 10
66.880412781
 20
194.6929880561
 30
0.0
 10
67.366010185
 20
195.2113636081
 30
0.0
 10
67.9050641299
 20
195.7018424505
 30
0.0
 10
68.2960526596
 20
195.9998471043
 30
0.0
 10
68.4996879444
 20
196.140625
 30
0.0
  0
SPLINE
  5
3DB
100
AcDbEntity
  8
0
100
AcDbSpline
 62
7
  6
CONTINUOUS
 70
0
 71
3
 72
9
 73
5
 74
0
 42
0.0000001
 43
0.0000001
 44
0.0000000001
 40
0.0
 40
0.0
 40
0.0
 40
0.0
 40
0.4975532536
 40
1.0
 40
1.0
 40
1.0
 40
1.0
 10
77.0471870556
 20
196.140625
 30
0.0
 10
76.3348339416
 20
196.6330915803
 30
0.0
 10
74.9086163994
 20
197.6308115414
 30
0.0
 10
73.4874846144
 20
198.6357174433
 30
0.0
 10
72.7734375
 20
199.140625
 30
0.0
  0
SPLINE
  5
3DC
100
AcDbEntity
  8
0
100
AcDbSpline
 62
7
  6
CONTINUOUS
 70
0
 71
3
 72
9
 73
5
 74
0
 42
0.0000001
 43
0.0000001
 44
0.0000000001
 40
0.0
 40
0.0
 40
0.0
 40
0.0
 40
0.4975532536
 40
1.0
 40
1.0
 40
1.0
 40
1.0
 10
68.4996879444
 20
196.140625
 30
0.0
 10
69.2120410584
 20
196.6330915803
 30
0.0
 10
70.6382586006
 20
197.6308115414
 30
0.0
 10
72.0593903856
 20
198.6357174433
 30
0.0
 10
72.7734375
 20
199.140625
 30
0.0
  0
SPLINE
  5
3DD
100
AcDbEntity
  8
0
100
AcDbSpline
 62
7
  6
CONTINUOUS
 70
0
 71
3
 72
31
 73
27
 74
0
 42
0.0000001
 43
0.0000001
 44
0.0000000001
 40
0.0
 40
0.0
 40
0.0
 40
0.0
 40
0.0025054734
 40
0.0049234814
 40
0.0073897954
 40
0.0100345687
 40
0.0129654525
 40
0.0162632069
 40
0.024162376
 40
0.0340279464
 40
0.0459992015
 40
0.0601467672
 40
0.0765033294
 40
0.0950775043
 40
0.1158605512
 40
0.1639468084
 40
0.2204599268
 40
0.2849376999
 40
0.356788265
 40
0.4353086327
 40
0.5197079008
 40
0.6091348592
 40
0.7027113559
 40
0.7995721104
 40
0.8989062331
 40
1.0
 40
1.0
 40
1.0
 40
1.0
 10
80.7106914332
 20
190.140625
 30
0.0
 10
80.7168268652
 20
190.140625
 30
0.0
 10
80.728942081
 20
190.1418622825
 30
0.0
 10
80.7461477988
 20
190.148025424
 30
0.0
 10
80.7615963041
 20
190.1584111699
 30
0.0
 10
80.7751664709
 20
190.1728742357
 30
0.0
 10
80.7868796898
 20
190.1912967543
 30
0.0
 10
80.8008949898
 20
190.223037392
 30
0.0
 10
80.8128284845
 20
190.273592679
 30
0.0
 10
80.8190852025
 20
190.3462689339
 30
0.0
 10
80.817723803
 20
190.434499171
 30
0.0
 10
80.808389233
 20
190.5381608557
 30
0.0
 10
80.7907124087
 20
190.6570925704
 30
0.0
 10
80.7643424627
 20
190.7909948794
 30
0.0
 10
80.7146293224
 20
190.9993241185
 30
0.0
 10
80.6273305297
 20
191.2939284787
 30
0.0
 10
80.4873675597
 20
191.6837870574
 30
0.0
 10
80.3047897476
 20
192.1195256089
 30
0.0
 10
80.0769877762
 20
192.5940280432
 30
0.0
 10
79.8014073029
 20
193.0988940858
 30
0.0
 10
79.4757077672
 20
193.6244402312
 30
0.0
 10
79.0978755311
 20
194.1597830435
 30
0.0
 10
78.666462219
 20
194.6929880561
 30
0.0
 10
78.180864815
 20
195.2113636081
 30
0.0
 10
77.6418108701
 20
195.7018424505
 30
0.0
 10
77.2508223404
 20
195.9998471043
 30
0.0
 10
77.0471870556
 20
196.140625
 30
0.0
  0
SPLINE
  5
3DE
100
AcDbEntity
  8
0
100
AcDbSpline
 62
7
  6
CONTINUOUS
 70
0
 71
3
 72
20
 73
16
 74
0
 42
0.0000001
 43
0.0000001
 44
0.0000000001
 40
0.0
 40
0.0
 40
0.0
 40
0.0
 40
0.1249458068
 40
0.1874743846
 40
0.2500024603
 40
0.3749302559
 40
0.4998410572
 40
0.5623647824
 40
0.6248872617
 40
0.6874084679
 40
0.749928473
 40
0.8124473886
 40
0.8749656336
 40
0.9374821503
 40
1.0
 40
1.0
 40
1.0
 40
1.0
 10
160.3890625
 20
90.5006348976
 30
0.0
 10
160.3890625
 20
90.6372560696
 30
0.0
 10
160.3717243269
 20
90.842810163
 30
0.0
 10
160.3140983358
 20
91.1102822225
 30
0.0
 10
160.2336005511
 20
91.3718276011
 30
0.0
 10
160.0902735177
 20
91.6839746089
 30
0.0
 10
159.8919958614
 20
91.9647873857
 30
0.0
 10
159.7033137451
 20
92.1630503514
 30
0.0
 10
159.5475067196
 20
92.2969831841
 30
0.0
 10
159.378739794
 20
92.4141662658
 30
0.0
 10
159.1985142059
 20
92.5128636985
 30
0.0
 10
159.0086521529
 20
92.591474575
 30
0.0
 10
158.8112545968
 20
92.6486472253
 30
0.0
 10
158.6087157186
 20
92.6833613462
 30
0.0
 10
158.4718712346
 20
92.6911143539
 30
0.0
 10
158.4035115023
 20
92.6911143539
 30
0.0
  0
SPLINE
  5
3DF
100
AcDbEntity
  8
0
100
AcDbSpline
 62
7
  6
CONTINUOUS
 70
0
 71
3
 72
20
 73
16
 74
0
 42
0.0000001
 43
0.0000001
 44
0.0000000001
 40
0.0
 40
0.0
 40
0.0
 40
0.0
 40
0.1249458068
 40
0.1874743846
 40
0.2500024603
 40
0.3749302559
 40
0.4998410572
 40
0.5623647824
 40
0.6248872617
 40
0.6874084679
 40
0.749928473
 40
0.8124473886
 40
0.8749656336
 40
0.9374821503
 40
1.0
 40
1.0
 40
1.0
 40
1.0
 10
151.1890625
 20
90.5006348976
 30
0.0
 10
151.1890625
 20
90.6372560696
 30
0.0
 10
151.2064006731
 20
90.842810163
 30
0.0
 10
151.2640266642
 20
91.1102822225
 30
0.0
 10
151.3445244489
 20
91.3718276011
 30
0.0
 10
151.4878514823
 20
91.6839746089
 30
0.0
 10
151.6861291386
 20
91.9647873857
 30
0.0
 10
151.8748112549
 20
92.1630503514
 30
0.0
 10
152.0306182804
 20
92.2969831841
 30
0.0
 10
152.199385206
 20
92.4141662658
 30
0.0
 10
152.3796107941
 20
92.5128636985
 30
0.0
 10
152.5694728471
 20
92.591474575
 30
0.0
 10
152.7668704032
 20
92.6486472253
 30
0.0
 10
152.9694092814
 20
92.6833613462
 30
0.0
 10
153.1062537654
 20
92.6911143539
 30
0.0
 10
153.1746134977
 20
92.6911143539
 30
0.0
  0
SPLINE
  5
3E0
100
AcDbEntity
  8
2_FEATURE
100
AcDbSpline
 62
7
  6
CONTINUOUS
 70
0
 71
3
 72
21
 73
17
 74
0
 42
0.0000001
 43
0.0000001
 44
0.0000000001
 40
0.0
 40
0.0
 40
0.0
 40
0.0
 40
0.0632078148
 40
0.1264067047
 40
0.1895673993
 40
0.2526616535
 40
0.31566438
 40
0.3785544869
 40
0.5037877655
 40
0.6284468374
 40
0.6906372594
 40
0.7526981727
 40
0.8146445396
 40
0.8764951786
 40
0.9382720086
 40
1.0
 40
1.0
 40
1.0
 40
1.0
 10
156.0228075499
 20
82.6912367579
 30
0.0
 10
156.1711039841
 20
82.6923307139
 30
0.0
 10
156.4677763744
 20
82.7092078186
 30
0.0
 10
156.9078481374
 20
82.7782684976
 30
0.0
 10
157.3387634587
 20
82.890279348
 30
0.0
 10
157.756122868
 20
83.0439464524
 30
0.0
 10
158.1558490266
 20
83.237569827
 30
0.0
 10
158.6591270366
 20
83.5454613119
 30
0.0
 10
159.226391491
 20
84.0188501735
 30
0.0
 10
159.6901132832
 20
84.5918507191
 30
0.0
 10
159.9882440782
 20
85.0949089778
 30
0.0
 10
160.1739633048
 20
85.4911159792
 30
0.0
 10
160.3203025145
 20
85.9026039234
 30
0.0
 10
160.4261428326
 20
86.325651996
 30
0.0
 10
160.4906543922
 20
86.7563774764
 30
0.0
 10
160.5057843799
 20
87.0462869839
 30
0.0
 10
160.5063446549
 20
87.1911143539
 30
0.0
  0
SPLINE
  5
3E1
100
AcDbEntity
  8
2_FEATURE
100
AcDbSpline
 62
7
  6
CONTINUOUS
 70
0
 71
3
 72
21
 73
17
 74
0
 42
0.0000001
 43
0.0000001
 44
0.0000000001
 40
0.0
 40
0.0
 40
0.0
 40
0.0
 40
0.0632078148
 40
0.1264067047
 40
0.1895673993
 40
0.2526616535
 40
0.31566438
 40
0.3785544869
 40
0.5037877655
 40
0.6284468374
 40
0.6906372594
 40
0.7526981727
 40
0.8146445396
 40
0.8764951786
 40
0.9382720086
 40
1.0
 40
1.0
 40
1.0
 40
1.0
 10
155.5553174501
 20
82.6912367579
 30
0.0
 10
155.4070210159
 20
82.6923307139
 30
0.0
 10
155.1103486256
 20
82.7092078186
 30
0.0
 10
154.6702768626
 20
82.7782684976
 30
0.0
 10
154.2393615413
 20
82.890279348
 30
0.0
 10
153.822002132
 20
83.0439464524
 30
0.0
 10
153.4222759734
 20
83.237569827
 30
0.0
 10
152.9189979634
 20
83.5454613119
 30
0.0
 10
152.351733509
 20
84.0188501735
 30
0.0
 10
151.8880117168
 20
84.5918507191
 30
0.0
 10
151.5898809218
 20
85.0949089778
 30
0.0
 10
151.4041616952
 20
85.4911159792
 30
0.0
 10
151.2578224855
 20
85.9026039234
 30
0.0
 10
151.1519821674
 20
86.325651996
 30
0.0
 10
151.0874706078
 20
86.7563774764
 30
0.0
 10
151.0723406201
 20
87.0462869839
 30
0.0
 10
151.0717803451
 20
87.1911143539
 30
0.0
  0
SPLINE
  5
3E2
100
AcDbEntity
  8
2_FEATURE
100
AcDbSpline
 62
7
  6
CONTINUOUS
 70
0
 71
3
 72
15
 73
11
 74
0
 42
0.0000001
 43
0.0000001
 44
0.0000000001
 40
0.0
 40
0.0
 40
0.0
 40
0.0
 40
0.1250187437
 40
0.2500337004
 40
0.375043981
 40
0.5000462009
 40
0.6250405739
 40
0.7500284245
 40
0.8750129481
 40
1.0
 40
1.0
 40
1.0
 40
1.0
 10
151.136381219
 20
140.4792575669
 30
0.0
 10
151.1951136994
 20
140.535983306
 30
0.0
 10
151.3156499348
 20
140.646314609
 30
0.0
 10
151.5062466788
 20
140.8004537219
 30
0.0
 10
151.7075176135
 20
140.940493362
 30
0.0
 10
151.9202186111
 20
141.0626672365
 30
0.0
 10
152.1443664523
 20
141.1625561658
 30
0.0
 10
152.3785342027
 20
141.2362312506
 30
0.0
 10
152.6198757163
 20
141.2811247029
 30
0.0
 10
152.7833191737
 20
141.2911146757
 30
0.0
 10
152.8649520952
 20
141.2911143539
 30
0.0
  0
SPLINE
  5
3E3
100
AcDbEntity
  8
2_FEATURE
100
AcDbSpline
 62
7
  6
CONTINUOUS
 70
0
 71
3
 72
14
 73
10
 74
0
 42
0.0000001
 43
0.0000001
 44
0.0000000001
 40
0.0
 40
0.0
 40
0.0
 40
0.0
 40
0.1250019505
 40
0.2500013708
 40
0.37500412
 40
0.500013392
 40
0.6250305109
 40
0.7500556943
 40
1.0
 40
1.0
 40
1.0
 40
1.0
 10
158.7131746383
 20
141.2911143539
 30
0.0
 10
158.7948074747
 20
141.2911147462
 30
0.0
 10
158.9582508089
 20
141.2811244825
 30
0.0
 10
159.1995917885
 20
141.236230952
 30
0.0
 10
159.4337601296
 20
141.1625557244
 30
0.0
 10
159.657904495
 20
141.0626673371
 30
0.0
 10
159.8706171404
 20
140.9404914749
 30
0.0
 10
160.1388600968
 20
140.7538233868
 30
0.0
 10
160.3243322813
 20
140.5926490823
 30
0.0
 10
160.4417435785
 20
140.4792578988
 30
0.0
  0
ELLIPSE
  5
3E4
100
AcDbEntity
  8
2_FEATURE
100
AcDbEllipse
 62
7
  6
CONTINUOUS
 10
155.7569548835
 20
87.1911143539
 30
0.0
 11
3.2790576793
 21
3.2051923062
 31
0.0
 40
0.9632639801
 41
-2.3708918933
 42
-2.3635161207
  0
ELLIPSE
  5
3E5
100
AcDbEntity
  8
2_FEATURE
100
AcDbEllipse
 62
7
  6
CONTINUOUS
 10
155.8211701165
 20
87.1911143539
 30
0.0
 11
-3.2790576793
 21
3.2051923062
 31
0.0
 40
0.9632639801
 41
-3.9196691864
 42
-3.9122934139
  0
ENDSEC
  0
SECTION
  2
OBJECTS
  0
DICTIONARY
  5
C
100
AcDbDictionary
280
0
281
1
  3
ACAD_GROUP
350
D
  3
ACAD_MLINESTYLE
350
17
  3
ACAD_LAYOUT
350
1A
  3
ACAD_PLOTSETTINGS
350
19
  3
ACAD_PLOTSTYLENAME
350
E
  3
ACAD_TABLESTYLE
350
       3E6
  0
DICTIONARY
  5
D
102
{ACAD_REACTORS
330
C
102
}
100
AcDbDictionary
280
0
281
1
  0
ACDBDICTIONARYWDFLT
  5
E
102
{ACAD_REACTORS
330
C
102
}
100
AcDbDictionary
281
1
  3
Normal
350
F
100
AcDbDictionaryWithDefault
340
F
  0
DICTIONARY
  5
17
102
{ACAD_REACTORS
330
C
102
}
100
AcDbDictionary
280
0
281
1
  3
Standard
350
18
  0
DICTIONARY
  5
3E6
330
C
100
AcDbDictionary
281
1
  3
Standard
350
       3E9
  3
Standard1
350
       3EA
  0
DICTIONARY
  5
19
102
{ACAD_REACTORS
330
C
102
}
100
AcDbDictionary
281
1
  0
DICTIONARY
  5
1A
102
{ACAD_REACTORS
330
C
102
}
100
AcDbDictionary
281
1
  3
Model
350
3E7
  3
Layout1
350
3E8
  0
ACDBPLACEHOLDER
  5
F
102
{ACAD_REACTORS
330
E
102
}
  0
MLINESTYLE
  5
18
102
{ACAD_REACTORS
330
17
102
}
100
AcDbMlineStyle
  2
STANDARD
 70
0
  3

 62
256
 51
90.0
 52
90.0
 71
2
 49
0.5
 62
256
  6
BYLAYER
 49
-0.5
 62
256
  6
BYLAYER
  0
LAYOUT
  5
3E7
102
{ACAD_REACTORS
330
1A
102
}
100
AcDbPlotSettings
  1

  2
none_device
  4

  6

 40
0.0
 41
0.0
 42
0.0
 43
0.0
 44
210.0
 45
297.0
 46
0.0
 47
0.0
 48
0.0
 49
0.0
140
0.0
141
0.0
142
1.0
143
1.0
 70
1024
 72
1
 73
0
 74
0
  7

 75
0
147
1.0
148
0.0
149
0.0
100
AcDbLayout
  1
Model
 70
0
 71
0
 10
0.0
 20
0.0
 11
210.0
 21
297.0
 12
0.0
 22
0.0
 32
0.0
 14
0.0
 24
0.0
 34
0.0
 15
0.0
 25
0.0
 35
0.0
146
0.0
 13
0.0
 23
0.0
 33
0.0
 16
1.0
 26
0.0
 36
0.0
 17
0.0
 27
1.0
 37
0.0
 76
0
330
214
345
0
346
0
  0
LAYOUT
  5
3E8
102
{ACAD_REACTORS
330
1A
102
}
100
AcDbPlotSettings
  1

  2
none_device
  4

  6

 40
0.0
 41
0.0
 42
0.0
 43
0.0
 44
210.0
 45
297.0
 46
0.0
 47
0.0
 48
0.0
 49
0.0
140
0.0
141
0.0
142
1.0
143
1.0
 70
0
 72
1
 73
0
 74
0
  7

 75
0
147
1.0
148
0.0
149
0.0
100
AcDbLayout
  1
Layout1
 70
0
 71
1
 10
0.0
 20
0.0
 11
210.0
 21
297.0
 12
0.0
 22
0.0
 32
0.0
 14
0.0
 24
0.0
 34
0.0
 15
0.0
 25
0.0
 35
0.0
146
0.0
 13
0.0
 23
0.0
 33
0.0
 16
1.0
 26
0.0
 36
0.0
 17
0.0
 27
1.0
 37
0.0
 76
0
330
215
345
0
346
0
  0
TABLESTYLE
  5
3E9
102
{ACAD_REACTORS
330
3E6
330
349
102
}
330
3E6
100
AcDbTableStyle
  3
Standard
 70
0
 71
0
 40
0.06
 41
0.06
280
1
281
1
  7
Standard
140
0.18
170
1
 62
0
 63
7
283
0
  7
Standard
140
0.18
170
1
 62
0
 63
7
283
0
  7
Standard
140
0.18
170
1
 62
0
 63
7
283
0
  0
TABLESTYLE
  5
3EA
102
{ACAD_REACTORS
330
3E6
102
}
330
3E6
100
AcDbTableStyle
  3
Standard1
 70
1
 71
0
 40
0.06
 41
0.06
280
1
281
1
  7
Standard
140
0.18
170
1
 62
0
 63
7
283
0
  7
Standard
140
0.18
170
1
 62
0
 63
7
283
0
  7
Standard
140
0.18
170
1
 62
0
 63
7
283
0
  0
ENDSEC
  0
EOF
