999
DXF file: uni_1706.dxf
999
Pro/ENGINEER 2015290 by Parametric Technology Corporation
  0
SECTION
  2
HEADER
  9
$ACADVER
  1
AC1027
  9
$DWGCODEPAGE
  3
ANSI_1252
  9
$EXTMAX
 10
210.0
 20
297.0
 30
0.0
  9
$EXTMIN
 10
0.0
 20
0.0
 30
0.0
  9
$LIMMIN
 10
0.0
 20
0.0
  9
$LIMMAX
 10
210.0
 20
297.0
  9
$VIEWCTR
 10
105.0
 20
148.5
  9
$VIEWSIZE
 40
297.0
  9
$CLAYER
  8
0
  9
$LTSCALE
 40
19.36
  9
$CELTYPE
  6
BYLAYER
  9
$DIMSCALE
 40
1.0
  9
$DIMASZ
 40
3.5
  9
$DIMEXO
 40
1.0
  9
$DIMDLI
 40
13.376
  9
$DIMEXE
 40
2.0
  9
$DIMCEN
 40
3.168
  9
$DIMLFAC
 40
1.0
  9
$DIMBLK
  1
_FILLED
  9
$DIMALT
 70
0
  9
$DIMALTF
 40
0.0393700787
  9
$DIMTXT
 40
3.5
  9
$DIMTOL
 70
1
  9
$DIMLIM
 70
0
  9
$DIMTFAC
 40
1.0
  9
$DIMTP
 40
0.01
  9
$DIMTM
 40
0.01
  9
$DIMGAP
 40
0.625
  9
$DIMDSEP
 70
46
  9
$AUNITS
 70
0
  9
$PDMODE
 70
3
  9
$PDSIZE
 40
0.3125
  9
$HANDSEED
  5
65E
  9
$TILEMODE
 70
1
  9
$MEASUREMENT
 70
1
  9
$INSUNITS
 70
4
  0
ENDSEC
  0
SECTION
  2
CLASSES
  0
CLASS
  1
ACDBDICTIONARYWDFLT
  2
AcDbDictionaryWithDefault
  3
AutoCAD 2000
 90
0
 91
1
280
0
281
0
  0
CLASS
  1
ACDBPLACEHOLDER
  2
AcDbPlaceHolder
  3
AutoCAD 2000
 90
0
 91
1
280
0
281
0
  0
CLASS
  1
LAYOUT
  2
AcDbLayout
  3
AutoCAD 2000
 90
0
 91
0
280
0
281
0
  0
CLASS
  1
TABLESTYLE
  2
AcDbTableStyle
  3
ObjectDBX Classes
 90
2047
 91
1
280
0
281
0
  0
CLASS
  1
ACAD_TABLE
  2
AcDbTable
  3
ObjectDBX Classes
 90
1025
 91
1
280
0
281
1
  0
ENDSEC
  0
SECTION
  2
TABLES
  0
TABLE
  2
VPORT
  5
8
100
AcDbSymbolTable
 70
2
  0
VPORT
  5
1F4
100
AcDbSymbolTableRecord
100
AcDbViewportTableRecord
  2
*ACTIVE
 70
0
 10
0.0
 20
0.0
 11
1.0
 21
1.0
 12
105.0
 22
148.5
 13
0.0
 23
0.0
 14
1.0
 24
1.0
 15
0.0
 25
0.0
 16
0.0
 26
0.0
 36
1.0
 17
0.0
 27
0.0
 37
0.0
 40
297.0
 41
0.7070707071
 42
50.0
 43
0.0
 44
0.0
 50
0.0
 51
0.0
 71
0
 72
100
 73
1
 74
1
 75
0
 76
0
 77
0
 78
0
  0
ENDTAB
  0
TABLE
  2
LTYPE
  5
5
100
AcDbSymbolTable
 70
6
  0
LTYPE
  5
14
100
AcDbSymbolTableRecord
100
AcDbLinetypeTableRecord
  2
BYBLOCK
 70
0
  3

 72
65
 73
0
 40
0.0
  0
LTYPE
  5
15
100
AcDbSymbolTableRecord
100
AcDbLinetypeTableRecord
  2
BYLAYER
 70
0
  3

 72
65
 73
0
 40
0.0
  0
LTYPE
  5
16
100
AcDbSymbolTableRecord
100
AcDbLinetypeTableRecord
  2
CONTINUOUS
 70
64
  3
Solid line
 72
65
 73
0
 40
0.0
  0
LTYPE
  5
1F5
100
AcDbSymbolTableRecord
100
AcDbLinetypeTableRecord
  2
CENTER
 70
64
  3
____ _ ____ _ ____ _ ____ _ ____ _ ____ _ ____
 72
65
 73
4
 40
0.6
 49
0.375
 74
0
 49
-0.075
 74
0
 49
0.075
 74
0
 49
-0.075
 74
0
  0
LTYPE
  5
1F6
100
AcDbSymbolTableRecord
100
AcDbLinetypeTableRecord
  2
HIDDEN
 70
64
  3
- - - - - - - - - - - - - - - - - - - -
 72
65
 73
2
 40
0.2
 49
0.1
 74
0
 49
-0.1
 74
0
  0
LTYPE
  5
1F7
100
AcDbSymbolTableRecord
100
AcDbLinetypeTableRecord
  2
PHANTOM
 70
64
  3
_____ _ _ _____ _ _ _____ _ _ _____
 72
65
 73
6
 40
0.8
 49
0.45
 74
0
 49
-0.05
 74
0
 49
0.1
 74
0
 49
-0.05
 74
0
 49
0.1
 74
0
 49
-0.05
 74
0
  0
LTYPE
  5
1F8
100
AcDbSymbolTableRecord
100
AcDbLinetypeTableRecord
  2
DOT
 70
64
  3
. . . . . . . . . . . . . . . . . . . .
 72
65
 73
2
 40
0.2
 49
0.1
 74
0
 49
-0.1
 74
0
  0
LTYPE
  5
1F9
100
AcDbSymbolTableRecord
100
AcDbLinetypeTableRecord
  2
DASHED
 70
64
  3
- - - - - - - - - - - - - - - - - - - -
 72
65
 73
2
 40
0.2
 49
0.1
 74
0
 49
-0.1
 74
0
  0
ENDTAB
  0
TABLE
  2
LAYER
  5
2
100
AcDbSymbolTable
 70
36
  0
LAYER
  5
10
100
AcDbSymbolTableRecord
100
AcDbLayerTableRecord
  2
0
 70
0
 62
7
  6
CONTINUOUS
370
-3
390
F
  0
LAYER
  5
1FA
100
AcDbSymbolTableRecord
100
AcDbLayerTableRecord
  2
DEFAULT_1
 70
0
 62
7
  6
CENTER
370
-3
390
F
  0
LAYER
  5
1FB
100
AcDbSymbolTableRecord
100
AcDbLayerTableRecord
  2
DEFAULT_2
 70
0
 62
8
  6
HIDDEN
370
-3
390
F
  0
LAYER
  5
1FC
100
AcDbSymbolTableRecord
100
AcDbLayerTableRecord
  2
DEFAULT_3
 70
0
 62
7
  6
PHANTOM
370
-3
390
F
  0
LAYER
  5
1FD
100
AcDbSymbolTableRecord
100
AcDbLayerTableRecord
  2
1_AXIS
 70
0
 62
7
  6
CONTINUOUS
370
-3
390
F
  0
LAYER
  5
1FE
100
AcDbSymbolTableRecord
100
AcDbLayerTableRecord
  2
1_DATUM_PLANE
 70
0
 62
7
  6
CONTINUOUS
370
-3
390
F
  0
LAYER
  5
1FF
100
AcDbSymbolTableRecord
100
AcDbLayerTableRecord
  2
1_DATUM_PLANES
 70
0
 62
7
  6
CONTINUOUS
370
-3
390
F
  0
LAYER
  5
200
100
AcDbSymbolTableRecord
100
AcDbLayerTableRecord
  2
2_FEATURE
 70
0
 62
7
  6
CONTINUOUS
370
-3
390
F
  0
LAYER
  5
201
100
AcDbSymbolTableRecord
100
AcDbLayerTableRecord
  2
3_1_CURVE
 70
0
 62
7
  6
CONTINUOUS
370
-3
390
F
  0
LAYER
  5
202
100
AcDbSymbolTableRecord
100
AcDbLayerTableRecord
  2
3_CURVE
 70
0
 62
7
  6
CONTINUOUS
370
-3
390
F
  0
LAYER
  5
203
100
AcDbSymbolTableRecord
100
AcDbLayerTableRecord
  2
4_QUILT
 70
0
 62
7
  6
CONTINUOUS
370
-3
390
F
  0
LAYER
  5
204
100
AcDbSymbolTableRecord
100
AcDbLayerTableRecord
  2
4_SURFACE
 70
0
 62
7
  6
CONTINUOUS
370
-3
390
F
  0
LAYER
  5
205
100
AcDbSymbolTableRecord
100
AcDbLayerTableRecord
  2
6_DIM
 70
0
 62
7
  6
CONTINUOUS
370
-3
390
F
  0
LAYER
  5
206
100
AcDbSymbolTableRecord
100
AcDbLayerTableRecord
  2
6_NOTE
 70
0
 62
7
  6
CONTINUOUS
370
-3
390
F
  0
LAYER
  5
207
100
AcDbSymbolTableRecord
100
AcDbLayerTableRecord
  2
AXES
 70
0
 62
7
  6
CONTINUOUS
370
-3
390
F
  0
LAYER
  5
208
100
AcDbSymbolTableRecord
100
AcDbLayerTableRecord
  2
CSYS
 70
0
 62
7
  6
CONTINUOUS
370
-3
390
F
  0
LAYER
  5
209
100
AcDbSymbolTableRecord
100
AcDbLayerTableRecord
  2
NOTES
 70
0
 62
7
  6
CONTINUOUS
370
-3
390
F
  0
LAYER
  5
20A
100
AcDbSymbolTableRecord
100
AcDbLayerTableRecord
  2
PLANES
 70
0
 62
7
  6
CONTINUOUS
370
-3
390
F
  0
LAYER
  5
20B
100
AcDbSymbolTableRecord
100
AcDbLayerTableRecord
  2
XSEC_DATUMS
 70
0
 62
7
  6
CONTINUOUS
370
-3
390
F
  0
ENDTAB
  0
TABLE
  2
STYLE
  5
3
100
AcDbSymbolTable
 70
1
  0
STYLE
  5
11
100
AcDbSymbolTableRecord
100
AcDbTextStyleTableRecord
  2
STANDARD
 70
0
 40
0.0
 41
0.8
 50
0.0
 71
0
 42
0.2
  3
txt
  4

  0
STYLE
  5
20C
100
AcDbSymbolTableRecord
100
AcDbTextStyleTableRecord
  2
TEXTSTYLE_1
 70
0
 40
0.0
 41
0.8
 50
0.0
 71
0
 42
0.2
  3
gdt
  4

  0
STYLE
  5
20D
100
AcDbSymbolTableRecord
100
AcDbTextStyleTableRecord
  2
TEXTSTYLE_2
 70
0
 40
0.0
 41
0.6
 50
0.0
 71
0
 42
0.2
  3
txt
  4

  0
STYLE
  5
20E
100
AcDbSymbolTableRecord
100
AcDbTextStyleTableRecord
  2
TEXTSTYLE_3
 70
0
 40
0.0
 41
1.0
 50
0.0
 71
0
 42
0.2
  3
ftb_____.ttf
  4

  0
STYLE
  5
20F
100
AcDbSymbolTableRecord
100
AcDbTextStyleTableRecord
  2
TEXTSTYLE_4
 70
0
 40
0.0
 41
1.0
 50
0.0
 71
0
 42
0.2
  3
fti_____.ttf
  4

  0
STYLE
  5
210
100
AcDbSymbolTableRecord
100
AcDbTextStyleTableRecord
  2
TEXTSTYLE_5
 70
0
 40
0.0
 41
1.0
 50
0.0
 71
0
 42
0.2
  3
frutiger light.ttf
  4

  0
STYLE
  5
211
100
AcDbSymbolTableRecord
100
AcDbTextStyleTableRecord
  2
TEXTSTYLE_6
 70
0
 40
0.0
 41
0.7
 50
0.0
 71
0
 42
0.2
  3
txt
  4

  0
STYLE
  5
212
100
AcDbSymbolTableRecord
100
AcDbTextStyleTableRecord
  2
TEXTSTYLE_7
 70
0
 40
0.0
 41
0.8
 50
0.0
 71
0
 42
0.2
  3
txt
  4

  0
ENDTAB
  0
TABLE
  2
VIEW
  5
6
100
AcDbSymbolTable
 70
0
  0
ENDTAB
  0
TABLE
  2
UCS
  5
7
100
AcDbSymbolTable
 70
0
  0
ENDTAB
  0
TABLE
  2
APPID
  5
9
100
AcDbSymbolTable
 70
1
  0
APPID
  5
213
100
AcDbSymbolTableRecord
100
AcDbRegAppTableRecord
  2
ACAD
 70
0
  0
ENDTAB
  0
TABLE
  2
BLOCK_RECORD
  5
1
100
AcDbSymbolTable
 70
0
  0
BLOCK_RECORD
  5
214
100
AcDbSymbolTableRecord
100
AcDbBlockTableRecord
  2
*Model_Space
  0
BLOCK_RECORD
  5
215
100
AcDbSymbolTableRecord
100
AcDbBlockTableRecord
  2
*Paper_Space
  0
BLOCK_RECORD
  5
216
100
AcDbSymbolTableRecord
100
AcDbBlockTableRecord
  2
UNI_LOGO2_BL1
  0
BLOCK_RECORD
  5
217
100
AcDbSymbolTableRecord
100
AcDbBlockTableRecord
  2
AMMEAAL_LOGO_BL0
  0
BLOCK_RECORD
  5
218
100
AcDbSymbolTableRecord
100
AcDbBlockTableRecord
  2
*T1
  0
ENDTAB
  0
TABLE
  2
DIMSTYLE
  5
A
100
AcDbSymbolTable
 70
1
100
AcDbDimStyleTable
 71
0
  0
DIMSTYLE
105
219
100
AcDbSymbolTableRecord
100
AcDbDimStyleTableRecord
  2
STANDARD
 70
0
  3

  4

 40
1.0
 41
3.5
 42
1.0
 43
0.38
 44
2.0
 45
0.0
 46
0.0
 47
0.01
 48
0.01
140
3.5
141
0.09
142
0.0
143
25.4
144
1.0
145
0.0
146
1.0
147
0.625
 71
1.0
 72
0.0
 73
0
 74
0
 75
0
 76
0
 77
1
 78
0
170
0
171
2
172
0
173
0
174
0
175
0
176
0
177
0
178
5
270
2
271
2
272
2
273
2
274
2
275
0
280
0
281
0
282
0
283
1
284
0
285
0
286
0
287
3
288
0
340
11
278
46
  0
ENDTAB
  0
ENDSEC
  0
SECTION
  2
BLOCKS
  0
BLOCK
  5
20
100
AcDbEntity
  8
0
100
AcDbBlockBegin
  2
*Model_Space
 70
0
 10
0.0
 20
0.0
 30
0.0
  3
*Model_Space
  1

  0
ENDBLK
  5
21
100
AcDbEntity
  8
0
100
AcDbBlockEnd
  0
BLOCK
  5
1C
100
AcDbEntity
  8
0
100
AcDbBlockBegin
  2
*Paper_Space
 70
0
 10
0.0
 20
0.0
 30
0.0
  3
*Paper_Space
  1

  0
ENDBLK
  5
1D
100
AcDbEntity
  8
0
100
AcDbBlockEnd
  0
BLOCK
  5
21A
100
AcDbEntity
  8
0
100
AcDbBlockBegin
 62
2
  6
CONTINUOUS
  2
UNI_LOGO2_BL1
 70
64
 10
173.3924355793
 20
35.4326167403
  3
UNI_LOGO2_BL1
  1

  0
TEXT
  5
21B
100
AcDbEntity
  8
0
100
AcDbText
 62
7
  6
CONTINUOUS
 10
164.4507205878
 20
30.5765230696
  7
TEXTSTYLE_4
 40
1.0655737705
  1
The brand for plastic modular belts and chains
 41
1.0
 72
0
100
AcDbText
  0
LINE
  5
21C
100
AcDbEntity
  8
0
100
AcDbLine
 62
7
  6
CONTINUOUS
 10
149.3705039683
 20
36.0575371843
 11
149.3705039683
 21
33.9263896433
  0
LINE
  5
21D
100
AcDbEntity
  8
0
100
AcDbLine
 62
7
  6
CONTINUOUS
 10
149.6595664615
 20
30.9354583476
 11
149.6595664615
 21
31.0322494069
  0
LINE
  5
21E
100
AcDbEntity
  8
0
100
AcDbLine
 62
7
  6
CONTINUOUS
 10
149.3705039683
 20
30.9999857205
 11
149.4283164701
 21
30.8064036019
  0
LINE
  5
21F
100
AcDbEntity
  8
0
100
AcDbLine
 62
7
  6
CONTINUOUS
 10
150.7639465913
 20
33.8444224302
 11
150.7639465913
 21
36.0575371843
  0
LINE
  5
220
100
AcDbEntity
  8
0
100
AcDbLine
 62
7
  6
CONTINUOUS
 10
151.6830039132
 20
32.0001601351
 11
151.6830039132
 21
30.4837666925
  0
LINE
  5
221
100
AcDbEntity
  8
0
100
AcDbLine
 62
7
  6
CONTINUOUS
 10
151.9720664683
 20
30.4837666925
 11
151.9720664683
 21
31.2258315706
  0
LINE
  5
222
100
AcDbEntity
  8
0
100
AcDbLine
 62
7
  6
CONTINUOUS
 10
151.9720664683
 20
31.3548863163
 11
151.9720664683
 21
32.0001601351
  0
LINE
  5
223
100
AcDbEntity
  8
0
100
AcDbLine
 62
7
  6
CONTINUOUS
 10
149.4283164701
 20
31.1935678842
 11
149.3705039683
 21
30.9999857205
  0
LINE
  5
224
100
AcDbEntity
  8
0
100
AcDbLine
 62
7
  6
CONTINUOUS
 10
149.7751914546
 20
30.7741399155
 11
149.6595664615
 21
30.9354583476
  0
LINE
  5
225
100
AcDbEntity
  8
0
100
AcDbLine
 62
7
  6
CONTINUOUS
 10
150.8736290235
 20
31.2903589434
 11
150.9314414683
 21
31.1935678842
  0
LINE
  5
226
100
AcDbEntity
  8
0
100
AcDbLine
 62
7
  6
CONTINUOUS
 10
151.2205040235
 20
31.1935678842
 11
151.1626914132
 21
31.3226226299
  0
LINE
  5
227
100
AcDbEntity
  8
0
100
AcDbLine
 62
7
  6
CONTINUOUS
 10
152.6491924929
 20
36.0575371843
 11
152.6491924929
 21
34.2542584958
  0
LINE
  5
228
100
AcDbEntity
  8
0
100
AcDbLine
 62
7
  6
CONTINUOUS
 10
152.6491924929
 20
32.9427830859
 11
152.6491924929
 21
32.287045381
  0
LINE
  5
229
100
AcDbEntity
  8
0
100
AcDbLine
 62
7
  6
CONTINUOUS
 10
153.0126914683
 20
31.1290405113
 11
153.0126914683
 21
30.4837666925
  0
LINE
  5
22A
100
AcDbEntity
  8
0
100
AcDbLine
 62
7
  6
CONTINUOUS
 10
153.3017538581
 20
30.4837666925
 11
153.3017538581
 21
31.1290405113
  0
LINE
  5
22B
100
AcDbEntity
  8
0
100
AcDbLine
 62
7
  6
CONTINUOUS
 10
149.6595664615
 20
31.0322494069
 11
149.7173789683
 21
31.1613041978
  0
LINE
  5
22C
100
AcDbEntity
  8
0
100
AcDbLine
 62
7
  6
CONTINUOUS
 10
149.4283164701
 20
30.8064036019
 11
149.5439414683
 21
30.6773488336
  0
LINE
  5
22D
100
AcDbEntity
  8
0
100
AcDbLine
 62
7
  6
CONTINUOUS
 10
152.9548788581
 20
31.258095257
 11
153.0126914683
 21
31.1290405113
  0
LINE
  5
22E
100
AcDbEntity
  8
0
100
AcDbLine
 62
7
  6
CONTINUOUS
 10
153.7642540786
 20
30.7741399155
 11
153.8220663581
 21
30.6450851472
  0
LINE
  5
22F
100
AcDbEntity
  8
0
100
AcDbLine
 62
7
  6
CONTINUOUS
 10
153.3017538581
 20
31.1290405113
 11
153.2439415786
 21
31.2903589434
  0
LINE
  5
230
100
AcDbEntity
  8
0
100
AcDbLine
 62
7
  6
CONTINUOUS
 10
153.7642540786
 20
31.3226226299
 11
153.7642540786
 21
31.258095257
  0
LINE
  5
231
100
AcDbEntity
  8
0
100
AcDbLine
 62
7
  6
CONTINUOUS
 10
153.7642540786
 20
30.8709309748
 11
153.7642540786
 21
30.7741399155
  0
LINE
  5
232
100
AcDbEntity
  8
0
100
AcDbLine
 62
7
  6
CONTINUOUS
 10
154.0426351159
 20
32.287045381
 11
154.0426351159
 21
36.0575371843
  0
LINE
  5
233
100
AcDbEntity
  8
0
100
AcDbLine
 62
7
  6
CONTINUOUS
 10
154.0533164683
 20
30.7418762065
 11
154.0533164683
 21
30.8064036019
  0
LINE
  5
234
100
AcDbEntity
  8
0
100
AcDbLine
 62
7
  6
CONTINUOUS
 10
154.3705039683
 20
36.0575371843
 11
154.3705039683
 21
32.287045381
  0
LINE
  5
235
100
AcDbEntity
  8
0
100
AcDbLine
 62
7
  6
CONTINUOUS
 10
151.1626914132
 20
30.6773488336
 11
151.2205040235
 21
30.8064036019
  0
LINE
  5
236
100
AcDbEntity
  8
0
100
AcDbLine
 62
7
  6
CONTINUOUS
 10
155.5564416889
 20
30.5805577631
 11
155.4986287478
 21
30.7418762065
  0
LINE
  5
237
100
AcDbEntity
  8
0
100
AcDbLine
 62
7
  6
CONTINUOUS
 10
155.2095666889
 20
31.258095257
 11
155.2095666889
 21
31.1613041978
  0
LINE
  5
238
100
AcDbEntity
  8
0
100
AcDbLine
 62
7
  6
CONTINUOUS
 10
155.2095666889
 20
31.0322494069
 11
155.2095666889
 21
30.8386672883
  0
LINE
  5
239
100
AcDbEntity
  8
0
100
AcDbLine
 62
7
  6
CONTINUOUS
 10
155.4986287478
 20
30.7418762065
 11
155.4986287478
 21
31.258095257
  0
LINE
  5
23A
100
AcDbEntity
  8
0
100
AcDbLine
 62
7
  6
CONTINUOUS
 10
155.7639465913
 20
32.287045381
 11
155.7639465913
 21
34.0903240696
  0
LINE
  5
23B
100
AcDbEntity
  8
0
100
AcDbLine
 62
7
  6
CONTINUOUS
 10
155.7639465913
 20
35.4017994794
 11
155.7639465913
 21
36.0575371843
  0
LINE
  5
23C
100
AcDbEntity
  8
0
100
AcDbLine
 62
7
  6
CONTINUOUS
 10
156.0767541889
 20
32.0001601351
 11
156.0767541889
 21
31.838841703
  0
LINE
  5
23D
100
AcDbEntity
  8
0
100
AcDbLine
 62
7
  6
CONTINUOUS
 10
156.0767541889
 20
31.5162047484
 11
156.0767541889
 21
30.4837666925
  0
LINE
  5
23E
100
AcDbEntity
  8
0
100
AcDbLine
 62
7
  6
CONTINUOUS
 10
156.3658162478
 20
30.4837666925
 11
156.3658162478
 21
31.5162047484
  0
LINE
  5
23F
100
AcDbEntity
  8
0
100
AcDbLine
 62
7
  6
CONTINUOUS
 10
156.3658162478
 20
31.838841703
 11
156.3658162478
 21
32.0001601351
  0
LINE
  5
240
100
AcDbEntity
  8
0
100
AcDbLine
 62
7
  6
CONTINUOUS
 10
150.9314414683
 20
30.8064036019
 11
150.8736290235
 21
30.7096125201
  0
LINE
  5
241
100
AcDbEntity
  8
0
100
AcDbLine
 62
7
  6
CONTINUOUS
 10
153.2439415786
 20
31.2903589434
 11
153.1861289683
 21
31.3548863163
  0
LINE
  5
242
100
AcDbEntity
  8
0
100
AcDbLine
 62
7
  6
CONTINUOUS
 10
154.1111290786
 20
30.6773488336
 11
154.0533164683
 21
30.7418762065
  0
LINE
  5
243
100
AcDbEntity
  8
0
100
AcDbLine
 62
7
  6
CONTINUOUS
 10
155.2673789683
 20
30.548294071
 11
155.3251912478
 21
30.4837666925
  0
LINE
  5
244
100
AcDbEntity
  8
0
100
AcDbLine
 62
7
  6
CONTINUOUS
 10
155.2095666889
 20
30.6450851472
 11
155.2673789683
 21
30.548294071
  0
LINE
  5
245
100
AcDbEntity
  8
0
100
AcDbLine
 62
7
  6
CONTINUOUS
 10
155.6142539683
 20
30.4837666925
 11
155.5564416889
 21
30.5805577631
  0
LINE
  5
246
100
AcDbEntity
  8
0
100
AcDbLine
 62
7
  6
CONTINUOUS
 10
155.4986287478
 20
31.258095257
 11
155.4408164683
 21
31.3548863163
  0
LINE
  5
247
100
AcDbEntity
  8
0
100
AcDbLine
 62
7
  6
CONTINUOUS
 10
156.8283164683
 20
31.5162047484
 11
156.8283164683
 21
30.4837666925
  0
LINE
  5
248
100
AcDbEntity
  8
0
100
AcDbLine
 62
7
  6
CONTINUOUS
 10
157.1173791889
 20
30.4837666925
 11
157.1173791889
 21
31.2258315706
  0
LINE
  5
249
100
AcDbEntity
  8
0
100
AcDbLine
 62
7
  6
CONTINUOUS
 10
157.1173791889
 20
31.3548863163
 11
157.1173791889
 21
31.5162047484
  0
LINE
  5
24A
100
AcDbEntity
  8
0
100
AcDbLine
 62
7
  6
CONTINUOUS
 10
157.6491924929
 20
34.5001601351
 11
157.6491924929
 21
32.287045381
  0
LINE
  5
24B
100
AcDbEntity
  8
0
100
AcDbLine
 62
7
  6
CONTINUOUS
 10
149.5439414683
 20
31.3226226299
 11
149.4283164701
 21
31.1935678842
  0
LINE
  5
24C
100
AcDbEntity
  8
0
100
AcDbLine
 62
7
  6
CONTINUOUS
 10
149.7173789683
 20
31.1613041978
 11
149.7751914546
 21
31.2258315706
  0
LINE
  5
24D
100
AcDbEntity
  8
0
100
AcDbLine
 62
7
  6
CONTINUOUS
 10
149.5439414683
 20
30.6773488336
 11
149.6595664615
 21
30.6128214495
  0
LINE
  5
24E
100
AcDbEntity
  8
0
100
AcDbLine
 62
7
  6
CONTINUOUS
 10
149.9486289546
 20
30.6773488336
 11
149.7751914546
 21
30.7741399155
  0
LINE
  5
24F
100
AcDbEntity
  8
0
100
AcDbLine
 62
7
  6
CONTINUOUS
 10
155.1517537478
 20
31.3226226299
 11
155.2095666889
 21
31.258095257
  0
LINE
  5
250
100
AcDbEntity
  8
0
100
AcDbLine
 62
7
  6
CONTINUOUS
 10
158.1001912478
 20
31.258095257
 11
158.1580041889
 21
31.0967768249
  0
LINE
  5
251
100
AcDbEntity
  8
0
100
AcDbLine
 62
7
  6
CONTINUOUS
 10
158.4470662478
 20
31.0967768249
 11
158.3892539683
 21
31.258095257
  0
LINE
  5
252
100
AcDbEntity
  8
0
100
AcDbLine
 62
7
  6
CONTINUOUS
 10
158.1580041889
 20
31.0967768249
 11
158.1580041889
 21
30.4837666925
  0
LINE
  5
253
100
AcDbEntity
  8
0
100
AcDbLine
 62
7
  6
CONTINUOUS
 10
158.4470662478
 20
30.4837666925
 11
158.4470662478
 21
31.0967768249
  0
LINE
  5
254
100
AcDbEntity
  8
0
100
AcDbLine
 62
7
  6
CONTINUOUS
 10
158.9095664683
 20
31.3226226299
 11
158.9095664683
 21
31.258095257
  0
LINE
  5
255
100
AcDbEntity
  8
0
100
AcDbLine
 62
7
  6
CONTINUOUS
 10
159.0426351159
 20
32.287045381
 11
159.0426351159
 21
34.418192922
  0
LINE
  5
256
100
AcDbEntity
  8
0
100
AcDbLine
 62
7
  6
CONTINUOUS
 10
159.3705039683
 20
36.0575371843
 11
159.3705039683
 21
32.287045381
  0
LINE
  5
257
100
AcDbEntity
  8
0
100
AcDbLine
 62
7
  6
CONTINUOUS
 10
154.0533164683
 20
30.8064036019
 11
154.1111290786
 21
30.9031946612
  0
LINE
  5
258
100
AcDbEntity
  8
0
100
AcDbLine
 62
7
  6
CONTINUOUS
 10
149.6595664615
 20
30.6128214495
 11
149.8330039821
 21
30.548294071
  0
LINE
  5
259
100
AcDbEntity
  8
0
100
AcDbLine
 62
7
  6
CONTINUOUS
 10
151.1626914132
 20
31.3226226299
 11
150.9892539132
 21
31.4194136891
  0
LINE
  5
25A
100
AcDbEntity
  8
0
100
AcDbLine
 62
7
  6
CONTINUOUS
 10
153.8220663581
 20
30.6450851472
 11
153.9955038581
 21
30.548294071
  0
LINE
  5
25B
100
AcDbEntity
  8
0
100
AcDbLine
 62
7
  6
CONTINUOUS
 10
152.8392539683
 20
31.3226226299
 11
152.9548788581
 21
31.258095257
  0
LINE
  5
25C
100
AcDbEntity
  8
0
100
AcDbLine
 62
7
  6
CONTINUOUS
 10
153.1861289683
 20
31.3548863163
 11
153.0705040786
 21
31.4194136891
  0
LINE
  5
25D
100
AcDbEntity
  8
0
100
AcDbLine
 62
7
  6
CONTINUOUS
 10
158.9095664683
 20
30.7418762065
 11
159.0251916889
 21
30.6128214495
  0
LINE
  5
25E
100
AcDbEntity
  8
0
100
AcDbLine
 62
7
  6
CONTINUOUS
 10
159.2564414683
 20
30.6773488336
 11
159.1986291889
 21
30.7418762065
  0
LINE
  5
25F
100
AcDbEntity
  8
0
100
AcDbLine
 62
7
  6
CONTINUOUS
 10
158.9095664683
 20
31.258095257
 11
159.0251916889
 21
31.1290405113
  0
LINE
  5
260
100
AcDbEntity
  8
0
100
AcDbLine
 62
7
  6
CONTINUOUS
 10
158.3892539683
 20
31.258095257
 11
158.3314416889
 21
31.3548863163
  0
LINE
  5
261
100
AcDbEntity
  8
0
100
AcDbLine
 62
7
  6
CONTINUOUS
 10
160.7595660273
 20
30.6773488336
 11
160.7595660273
 21
30.7418762065
  0
LINE
  5
262
100
AcDbEntity
  8
0
100
AcDbLine
 62
7
  6
CONTINUOUS
 10
160.7639465913
 20
32.287045381
 11
160.7639465913
 21
36.0575371843
  0
LINE
  5
263
100
AcDbEntity
  8
0
100
AcDbLine
 62
7
  6
CONTINUOUS
 10
153.8220663581
 20
31.3871500027
 11
153.7642540786
 21
31.3226226299
  0
LINE
  5
264
100
AcDbEntity
  8
0
100
AcDbLine
 62
7
  6
CONTINUOUS
 10
150.7001914408
 20
31.3548863163
 11
150.8736290235
 21
31.2903589434
  0
LINE
  5
265
100
AcDbEntity
  8
0
100
AcDbLine
 62
7
  6
CONTINUOUS
 10
155.4408164683
 20
31.3548863163
 11
155.3251912478
 21
31.4194136891
  0
LINE
  5
266
100
AcDbEntity
  8
0
100
AcDbLine
 62
7
  6
CONTINUOUS
 10
159.2564414683
 20
31.1935678842
 11
159.1986291889
 21
31.258095257
  0
LINE
  5
267
100
AcDbEntity
  8
0
100
AcDbLine
 62
7
  6
CONTINUOUS
 10
160.4126916889
 20
30.8064036019
 11
160.4705039683
 21
30.7418762065
  0
LINE
  5
268
100
AcDbEntity
  8
0
100
AcDbLine
 62
7
  6
CONTINUOUS
 10
160.7595660273
 20
30.7418762065
 11
160.6439414683
 21
30.8709309748
  0
LINE
  5
269
100
AcDbEntity
  8
0
100
AcDbLine
 62
7
  6
CONTINUOUS
 10
160.4126916889
 20
31.3226226299
 11
160.4705039683
 21
31.258095257
  0
LINE
  5
26A
100
AcDbEntity
  8
0
100
AcDbLine
 62
7
  6
CONTINUOUS
 10
160.7595660273
 20
31.258095257
 11
160.6439414683
 21
31.3871500027
  0
LINE
  5
26B
100
AcDbEntity
  8
0
100
AcDbLine
 62
7
  6
CONTINUOUS
 10
154.0533164683
 20
31.258095257
 11
154.1111290786
 21
31.3226226299
  0
LINE
  5
26C
100
AcDbEntity
  8
0
100
AcDbLine
 62
7
  6
CONTINUOUS
 10
153.8798789683
 20
30.9999857205
 11
153.7642540786
 21
30.8709309748
  0
LINE
  5
26D
100
AcDbEntity
  8
0
100
AcDbLine
 62
7
  6
CONTINUOUS
 10
155.2095666889
 20
30.8386672883
 11
155.1517537478
 21
30.7741399155
  0
LINE
  5
26E
100
AcDbEntity
  8
0
100
AcDbLine
 62
7
  6
CONTINUOUS
 10
155.1517537478
 20
30.5805577631
 11
155.2095666889
 21
30.6450851472
  0
LINE
  5
26F
100
AcDbEntity
  8
0
100
AcDbLine
 62
7
  6
CONTINUOUS
 10
153.9955038581
 20
30.548294071
 11
154.1111290786
 21
30.5160303817
  0
LINE
  5
270
100
AcDbEntity
  8
0
100
AcDbLine
 62
7
  6
CONTINUOUS
 10
150.9892539132
 20
31.4194136891
 11
150.7580039683
 21
31.483941062
  0
LINE
  5
271
100
AcDbEntity
  8
0
100
AcDbLine
 62
7
  6
CONTINUOUS
 10
154.3423788581
 20
30.6128214495
 11
154.1111290786
 21
30.6773488336
  0
LINE
  5
272
100
AcDbEntity
  8
0
100
AcDbLine
 62
7
  6
CONTINUOUS
 10
153.0705040786
 20
31.4194136891
 11
152.8970665786
 21
31.483941062
  0
LINE
  5
273
100
AcDbEntity
  8
0
100
AcDbLine
 62
7
  6
CONTINUOUS
 10
155.3251912478
 20
31.4194136891
 11
155.1517537478
 21
31.483941062
  0
LINE
  5
274
100
AcDbEntity
  8
0
100
AcDbLine
 62
7
  6
CONTINUOUS
 10
157.9845666889
 20
31.3226226299
 11
158.1001912478
 21
31.258095257
  0
LINE
  5
275
100
AcDbEntity
  8
0
100
AcDbLine
 62
7
  6
CONTINUOUS
 10
158.3314416889
 20
31.3548863163
 11
158.2158164683
 21
31.4194136891
  0
LINE
  5
276
100
AcDbEntity
  8
0
100
AcDbLine
 62
7
  6
CONTINUOUS
 10
149.8330039821
 20
30.548294071
 11
150.0064414821
 21
30.5160303817
  0
LINE
  5
277
100
AcDbEntity
  8
0
100
AcDbLine
 62
7
  6
CONTINUOUS
 10
150.2955039959
 20
30.6128214495
 11
149.9486289546
 21
30.6773488336
  0
LINE
  5
278
100
AcDbEntity
  8
0
100
AcDbLine
 62
7
  6
CONTINUOUS
 10
152.7236290786
 20
31.3548863163
 11
152.8392539683
 21
31.3226226299
  0
LINE
  5
279
100
AcDbEntity
  8
0
100
AcDbLine
 62
7
  6
CONTINUOUS
 10
155.0361291889
 20
31.3548863163
 11
155.1517537478
 21
31.3226226299
  0
LINE
  5
27A
100
AcDbEntity
  8
0
100
AcDbLine
 62
7
  6
CONTINUOUS
 10
159.3720666889
 20
30.6450851472
 11
159.2564414683
 21
30.6773488336
  0
LINE
  5
27B
100
AcDbEntity
  8
0
100
AcDbLine
 62
7
  6
CONTINUOUS
 10
157.8689414683
 20
31.3548863163
 11
157.9845666889
 21
31.3226226299
  0
LINE
  5
27C
100
AcDbEntity
  8
0
100
AcDbLine
 62
7
  6
CONTINUOUS
 10
159.0251916889
 20
30.6128214495
 11
159.1986291889
 21
30.548294071
  0
LINE
  5
27D
100
AcDbEntity
  8
0
100
AcDbLine
 62
7
  6
CONTINUOUS
 10
158.2158164683
 20
31.4194136891
 11
158.0423789683
 21
31.483941062
  0
LINE
  5
27E
100
AcDbEntity
  8
0
100
AcDbLine
 62
7
  6
CONTINUOUS
 10
159.4298789683
 20
31.1290405113
 11
159.2564414683
 21
31.1935678842
  0
LINE
  5
27F
100
AcDbEntity
  8
0
100
AcDbLine
 62
7
  6
CONTINUOUS
 10
160.2392541889
 20
30.8709309748
 11
160.4126916889
 21
30.8064036019
  0
LINE
  5
280
100
AcDbEntity
  8
0
100
AcDbLine
 62
7
  6
CONTINUOUS
 10
160.6439414683
 20
31.3871500027
 11
160.4705039683
 21
31.4516773756
  0
LINE
  5
281
100
AcDbEntity
  8
0
100
AcDbLine
 62
7
  6
CONTINUOUS
 10
159.0251916889
 20
31.1290405113
 11
159.2564414683
 21
31.0322494069
  0
LINE
  5
282
100
AcDbEntity
  8
0
100
AcDbLine
 62
7
  6
CONTINUOUS
 10
160.6439414683
 20
30.8709309748
 11
160.4126916889
 21
30.967722034
  0
LINE
  5
283
100
AcDbEntity
  8
0
100
AcDbLine
 62
7
  6
CONTINUOUS
 10
159.1986291889
 20
31.258095257
 11
159.2564414683
 21
31.3226226299
  0
LINE
  5
284
100
AcDbEntity
  8
0
100
AcDbLine
 62
7
  6
CONTINUOUS
 10
149.6595664615
 20
31.3871500027
 11
149.5439414683
 21
31.3226226299
  0
LINE
  5
285
100
AcDbEntity
  8
0
100
AcDbLine
 62
7
  6
CONTINUOUS
 10
149.7751914546
 20
31.2258315706
 11
149.9486289546
 21
31.3226226299
  0
LINE
  5
286
100
AcDbEntity
  8
0
100
AcDbLine
 62
7
  6
CONTINUOUS
 10
152.0876915235
 20
31.4194136891
 11
151.9720664683
 21
31.3548863163
  0
LINE
  5
287
100
AcDbEntity
  8
0
100
AcDbLine
 62
7
  6
CONTINUOUS
 10
151.9720664683
 20
31.2258315706
 11
152.0876915235
 21
31.2903589434
  0
LINE
  5
288
100
AcDbEntity
  8
0
100
AcDbLine
 62
7
  6
CONTINUOUS
 10
150.9892539132
 20
30.5805577631
 11
151.1626914132
 21
30.6773488336
  0
LINE
  5
289
100
AcDbEntity
  8
0
100
AcDbLine
 62
7
  6
CONTINUOUS
 10
150.0064414821
 20
30.5160303817
 11
150.3533164408
 21
30.4837666925
  0
LINE
  5
28A
100
AcDbEntity
  8
0
100
AcDbLine
 62
7
  6
CONTINUOUS
 10
154.1111290786
 20
30.5160303817
 11
154.3423788581
 21
30.4837666925
  0
LINE
  5
28B
100
AcDbEntity
  8
0
100
AcDbLine
 62
7
  6
CONTINUOUS
 10
152.4923789683
 20
31.3871500027
 11
152.7236290786
 21
31.3548863163
  0
LINE
  5
28C
100
AcDbEntity
  8
0
100
AcDbLine
 62
7
  6
CONTINUOUS
 10
154.8048790786
 20
31.3871500027
 11
155.0361291889
 21
31.3548863163
  0
LINE
  5
28D
100
AcDbEntity
  8
0
100
AcDbLine
 62
7
  6
CONTINUOUS
 10
159.2564414683
 20
31.0322494069
 11
160.2392541889
 21
30.8709309748
  0
LINE
  5
28E
100
AcDbEntity
  8
0
100
AcDbLine
 62
7
  6
CONTINUOUS
 10
160.4126916889
 20
30.967722034
 11
159.4298789683
 21
31.1290405113
  0
LINE
  5
28F
100
AcDbEntity
  8
0
100
AcDbLine
 62
7
  6
CONTINUOUS
 10
152.8970665786
 20
31.483941062
 11
152.7236290786
 21
31.5162047484
  0
LINE
  5
290
100
AcDbEntity
  8
0
100
AcDbLine
 62
7
  6
CONTINUOUS
 10
159.1986291889
 20
30.548294071
 11
159.3720666889
 21
30.5160303817
  0
LINE
  5
291
100
AcDbEntity
  8
0
100
AcDbLine
 62
7
  6
CONTINUOUS
 10
158.0423789683
 20
31.483941062
 11
157.8689414683
 21
31.5162047484
  0
LINE
  5
292
100
AcDbEntity
  8
0
100
AcDbLine
 62
7
  6
CONTINUOUS
 10
160.2970664683
 20
31.3548863163
 11
160.4126916889
 21
31.3226226299
  0
LINE
  5
293
100
AcDbEntity
  8
0
100
AcDbLine
 62
7
  6
CONTINUOUS
 10
160.4705039683
 20
30.7418762065
 11
160.4126916889
 21
30.6773488336
  0
LINE
  5
294
100
AcDbEntity
  8
0
100
AcDbLine
 62
7
  6
CONTINUOUS
 10
159.0251916889
 20
31.4194136891
 11
158.9095664683
 21
31.3226226299
  0
LINE
  5
295
100
AcDbEntity
  8
0
100
AcDbLine
 62
7
  6
CONTINUOUS
 10
153.9376915786
 20
31.4516773756
 11
153.8220663581
 21
31.3871500027
  0
LINE
  5
296
100
AcDbEntity
  8
0
100
AcDbLine
 62
7
  6
CONTINUOUS
 10
153.9955038581
 20
31.0645131385
 11
153.8798789683
 21
30.9999857205
  0
LINE
  5
297
100
AcDbEntity
  8
0
100
AcDbLine
 62
7
  6
CONTINUOUS
 10
154.1111290786
 20
30.9031946612
 11
154.2267539683
 21
30.967722034
  0
LINE
  5
298
100
AcDbEntity
  8
0
100
AcDbLine
 62
7
  6
CONTINUOUS
 10
151.6830039132
 20
30.4837666925
 11
151.9720664683
 21
30.4837666925
  0
LINE
  5
299
100
AcDbEntity
  8
0
100
AcDbLine
 62
7
  6
CONTINUOUS
 10
153.0126914683
 20
30.4837666925
 11
153.3017538581
 21
30.4837666925
  0
LINE
  5
29A
100
AcDbEntity
  8
0
100
AcDbLine
 62
7
  6
CONTINUOUS
 10
154.3423788581
 20
30.4837666925
 11
154.6892538581
 21
30.4837666925
  0
LINE
  5
29B
100
AcDbEntity
  8
0
100
AcDbLine
 62
7
  6
CONTINUOUS
 10
155.3251912478
 20
30.4837666925
 11
155.6142539683
 21
30.4837666925
  0
LINE
  5
29C
100
AcDbEntity
  8
0
100
AcDbLine
 62
7
  6
CONTINUOUS
 10
156.0767541889
 20
30.4837666925
 11
156.3658162478
 21
30.4837666925
  0
LINE
  5
29D
100
AcDbEntity
  8
0
100
AcDbLine
 62
7
  6
CONTINUOUS
 10
156.8283164683
 20
30.4837666925
 11
157.1173791889
 21
30.4837666925
  0
LINE
  5
29E
100
AcDbEntity
  8
0
100
AcDbLine
 62
7
  6
CONTINUOUS
 10
158.1580041889
 20
30.4837666925
 11
158.4470662478
 21
30.4837666925
  0
LINE
  5
29F
100
AcDbEntity
  8
0
100
AcDbLine
 62
7
  6
CONTINUOUS
 10
159.7189416889
 20
30.4837666925
 11
160.0658166889
 21
30.4837666925
  0
LINE
  5
2A0
100
AcDbEntity
  8
0
100
AcDbLine
 62
7
  6
CONTINUOUS
 10
160.0658166889
 20
30.6128214495
 11
159.7189416889
 21
30.6128214495
  0
LINE
  5
2A1
100
AcDbEntity
  8
0
100
AcDbLine
 62
7
  6
CONTINUOUS
 10
154.6892538581
 20
30.6128214495
 11
154.3423788581
 21
30.6128214495
  0
LINE
  5
2A2
100
AcDbEntity
  8
0
100
AcDbLine
 62
7
  6
CONTINUOUS
 10
159.1986291889
 20
30.7418762065
 11
158.9095664683
 21
30.7418762065
  0
LINE
  5
2A3
100
AcDbEntity
  8
0
100
AcDbLine
 62
7
  6
CONTINUOUS
 10
151.2205040235
 20
30.8064036019
 11
150.9314414683
 21
30.8064036019
  0
LINE
  5
2A4
100
AcDbEntity
  8
0
100
AcDbLine
 62
7
  6
CONTINUOUS
 10
150.2955039959
 20
31.3871500027
 11
150.7001914408
 21
31.3548863163
  0
LINE
  5
2A5
100
AcDbEntity
  8
0
100
AcDbLine
 62
7
  6
CONTINUOUS
 10
150.7580039683
 20
31.483941062
 11
150.3533164408
 21
31.5162047484
  0
LINE
  5
2A6
100
AcDbEntity
  8
0
100
AcDbLine
 62
7
  6
CONTINUOUS
 10
159.3720666889
 20
30.5160303817
 11
159.7189416889
 21
30.4837666925
  0
LINE
  5
2A7
100
AcDbEntity
  8
0
100
AcDbLine
 62
7
  6
CONTINUOUS
 10
159.7189416889
 20
30.6128214495
 11
159.3720666889
 21
30.6450851472
  0
LINE
  5
2A8
100
AcDbEntity
  8
0
100
AcDbLine
 62
7
  6
CONTINUOUS
 10
155.1517537478
 20
31.483941062
 11
154.8048790786
 21
31.5162047484
  0
LINE
  5
2A9
100
AcDbEntity
  8
0
100
AcDbLine
 62
7
  6
CONTINUOUS
 10
159.9501914683
 20
31.3871500027
 11
160.2970664683
 21
31.3548863163
  0
LINE
  5
2AA
100
AcDbEntity
  8
0
100
AcDbLine
 62
7
  6
CONTINUOUS
 10
160.2970664683
 20
31.483941062
 11
159.9501914683
 21
31.5162047484
  0
LINE
  5
2AB
100
AcDbEntity
  8
0
100
AcDbLine
 62
7
  6
CONTINUOUS
 10
157.6376916889
 20
31.3871500027
 11
157.8689414683
 21
31.3548863163
  0
LINE
  5
2AC
100
AcDbEntity
  8
0
100
AcDbLine
 62
7
  6
CONTINUOUS
 10
160.4705039683
 20
31.4516773756
 11
160.2970664683
 21
31.483941062
  0
LINE
  5
2AD
100
AcDbEntity
  8
0
100
AcDbLine
 62
7
  6
CONTINUOUS
 10
160.6439414683
 20
30.5805577631
 11
160.7595660273
 21
30.6773488336
  0
LINE
  5
2AE
100
AcDbEntity
  8
0
100
AcDbLine
 62
7
  6
CONTINUOUS
 10
155.1517537478
 20
30.7741399155
 11
154.9783162478
 21
30.6773488336
  0
LINE
  5
2AF
100
AcDbEntity
  8
0
100
AcDbLine
 62
7
  6
CONTINUOUS
 10
157.2330037478
 20
31.4194136891
 11
157.1173791889
 21
31.3548863163
  0
LINE
  5
2B0
100
AcDbEntity
  8
0
100
AcDbLine
 62
7
  6
CONTINUOUS
 10
157.1173791889
 20
31.2258315706
 11
157.2330037478
 21
31.2903589434
  0
LINE
  5
2B1
100
AcDbEntity
  8
0
100
AcDbLine
 62
7
  6
CONTINUOUS
 10
149.8330039821
 20
31.4516773756
 11
149.6595664615
 21
31.3871500027
  0
LINE
  5
2B2
100
AcDbEntity
  8
0
100
AcDbLine
 62
7
  6
CONTINUOUS
 10
152.2611288581
 20
31.483941062
 11
152.0876915235
 21
31.4194136891
  0
LINE
  5
2B3
100
AcDbEntity
  8
0
100
AcDbLine
 62
7
  6
CONTINUOUS
 10
152.0876915235
 20
31.2903589434
 11
152.2611288581
 21
31.3548863163
  0
LINE
  5
2B4
100
AcDbEntity
  8
0
100
AcDbLine
 62
7
  6
CONTINUOUS
 10
150.8736290235
 20
30.7096125201
 11
150.7001914408
 21
30.6450851472
  0
LINE
  5
2B5
100
AcDbEntity
  8
0
100
AcDbLine
 62
7
  6
CONTINUOUS
 10
160.2970664683
 20
30.6450851472
 11
160.0658166889
 21
30.6128214495
  0
LINE
  5
2B6
100
AcDbEntity
  8
0
100
AcDbLine
 62
7
  6
CONTINUOUS
 10
154.6892538581
 20
30.4837666925
 11
154.9783162478
 21
30.5160303817
  0
LINE
  5
2B7
100
AcDbEntity
  8
0
100
AcDbLine
 62
7
  6
CONTINUOUS
 10
160.0658166889
 20
30.4837666925
 11
160.4126916889
 21
30.5160303817
  0
LINE
  5
2B8
100
AcDbEntity
  8
0
100
AcDbLine
 62
7
  6
CONTINUOUS
 10
150.3533164408
 20
30.4837666925
 11
150.7580039683
 21
30.5160303817
  0
LINE
  5
2B9
100
AcDbEntity
  8
0
100
AcDbLine
 62
7
  6
CONTINUOUS
 10
150.7001914408
 20
30.6450851472
 11
150.2955039959
 21
30.6128214495
  0
LINE
  5
2BA
100
AcDbEntity
  8
0
100
AcDbLine
 62
7
  6
CONTINUOUS
 10
154.5736289683
 20
31.0322494069
 11
155.2095666889
 21
31.0322494069
  0
LINE
  5
2BB
100
AcDbEntity
  8
0
100
AcDbLine
 62
7
  6
CONTINUOUS
 10
155.2095666889
 20
31.1613041978
 11
154.5736289683
 21
31.1613041978
  0
LINE
  5
2BC
100
AcDbEntity
  8
0
100
AcDbLine
 62
7
  6
CONTINUOUS
 10
150.9314414683
 20
31.1935678842
 11
151.2205040235
 21
31.1935678842
  0
LINE
  5
2BD
100
AcDbEntity
  8
0
100
AcDbLine
 62
7
  6
CONTINUOUS
 10
153.7642540786
 20
31.258095257
 11
154.0533164683
 21
31.258095257
  0
LINE
  5
2BE
100
AcDbEntity
  8
0
100
AcDbLine
 62
7
  6
CONTINUOUS
 10
160.4705039683
 20
31.258095257
 11
160.7595660273
 21
31.258095257
  0
LINE
  5
2BF
100
AcDbEntity
  8
0
100
AcDbLine
 62
7
  6
CONTINUOUS
 10
154.4580040786
 20
31.3871500027
 11
154.8048790786
 21
31.3871500027
  0
LINE
  5
2C0
100
AcDbEntity
  8
0
100
AcDbLine
 62
7
  6
CONTINUOUS
 10
159.6033164683
 20
31.3871500027
 11
159.9501914683
 21
31.3871500027
  0
LINE
  5
2C1
100
AcDbEntity
  8
0
100
AcDbLine
 62
7
  6
CONTINUOUS
 10
159.9501914683
 20
31.5162047484
 11
159.6033164683
 21
31.5162047484
  0
LINE
  5
2C2
100
AcDbEntity
  8
0
100
AcDbLine
 62
7
  6
CONTINUOUS
 10
157.8689414683
 20
31.5162047484
 11
157.6376916889
 21
31.5162047484
  0
LINE
  5
2C3
100
AcDbEntity
  8
0
100
AcDbLine
 62
7
  6
CONTINUOUS
 10
157.1173791889
 20
31.5162047484
 11
156.8283164683
 21
31.5162047484
  0
LINE
  5
2C4
100
AcDbEntity
  8
0
100
AcDbLine
 62
7
  6
CONTINUOUS
 10
156.3658162478
 20
31.5162047484
 11
156.0767541889
 21
31.5162047484
  0
LINE
  5
2C5
100
AcDbEntity
  8
0
100
AcDbLine
 62
7
  6
CONTINUOUS
 10
154.8048790786
 20
31.5162047484
 11
154.4580040786
 21
31.5162047484
  0
LINE
  5
2C6
100
AcDbEntity
  8
0
100
AcDbLine
 62
7
  6
CONTINUOUS
 10
152.7236290786
 20
31.5162047484
 11
152.4923789683
 21
31.5162047484
  0
LINE
  5
2C7
100
AcDbEntity
  8
0
100
AcDbLine
 62
7
  6
CONTINUOUS
 10
156.0767541889
 20
31.838841703
 11
156.3658162478
 21
31.838841703
  0
LINE
  5
2C8
100
AcDbEntity
  8
0
100
AcDbLine
 62
7
  6
CONTINUOUS
 10
156.3658162478
 20
32.0001601351
 11
156.0767541889
 21
32.0001601351
  0
LINE
  5
2C9
100
AcDbEntity
  8
0
100
AcDbLine
 62
7
  6
CONTINUOUS
 10
151.9720664683
 20
32.0001601351
 11
151.6830039132
 21
32.0001601351
  0
LINE
  5
2CA
100
AcDbEntity
  8
0
100
AcDbLine
 62
7
  6
CONTINUOUS
 10
151.0098482306
 20
32.287045381
 11
151.4224195792
 21
32.287045381
  0
LINE
  5
2CB
100
AcDbEntity
  8
0
100
AcDbLine
 62
7
  6
CONTINUOUS
 10
152.6491924929
 20
32.287045381
 11
154.0426351159
 21
32.287045381
  0
LINE
  5
2CC
100
AcDbEntity
  8
0
100
AcDbLine
 62
7
  6
CONTINUOUS
 10
154.3705039683
 20
32.287045381
 11
155.7639465913
 21
32.287045381
  0
LINE
  5
2CD
100
AcDbEntity
  8
0
100
AcDbLine
 62
7
  6
CONTINUOUS
 10
157.6491924929
 20
32.287045381
 11
159.0426351159
 21
32.287045381
  0
LINE
  5
2CE
100
AcDbEntity
  8
0
100
AcDbLine
 62
7
  6
CONTINUOUS
 10
159.3705039683
 20
32.287045381
 11
160.7639465913
 21
32.287045381
  0
LINE
  5
2CF
100
AcDbEntity
  8
0
100
AcDbLine
 62
7
  6
CONTINUOUS
 10
157.4064412478
 20
31.483941062
 11
157.2330037478
 21
31.4194136891
  0
LINE
  5
2D0
100
AcDbEntity
  8
0
100
AcDbLine
 62
7
  6
CONTINUOUS
 10
154.9783162478
 20
30.5160303817
 11
155.1517537478
 21
30.5805577631
  0
LINE
  5
2D1
100
AcDbEntity
  8
0
100
AcDbLine
 62
7
  6
CONTINUOUS
 10
160.4126916889
 20
30.5160303817
 11
160.6439414683
 21
30.5805577631
  0
LINE
  5
2D2
100
AcDbEntity
  8
0
100
AcDbLine
 62
7
  6
CONTINUOUS
 10
160.4126916889
 20
30.6773488336
 11
160.2970664683
 21
30.6450851472
  0
LINE
  5
2D3
100
AcDbEntity
  8
0
100
AcDbLine
 62
7
  6
CONTINUOUS
 10
159.3720666889
 20
31.3548863163
 11
159.6033164683
 21
31.3871500027
  0
LINE
  5
2D4
100
AcDbEntity
  8
0
100
AcDbLine
 62
7
  6
CONTINUOUS
 10
157.4064412478
 20
31.3548863163
 11
157.6376916889
 21
31.3871500027
  0
LINE
  5
2D5
100
AcDbEntity
  8
0
100
AcDbLine
 62
7
  6
CONTINUOUS
 10
154.3423788581
 20
30.9999857205
 11
154.5736289683
 21
31.0322494069
  0
LINE
  5
2D6
100
AcDbEntity
  8
0
100
AcDbLine
 62
7
  6
CONTINUOUS
 10
157.6376916889
 20
31.5162047484
 11
157.4064412478
 21
31.483941062
  0
LINE
  5
2D7
100
AcDbEntity
  8
0
100
AcDbLine
 62
7
  6
CONTINUOUS
 10
154.2267539683
 20
31.3548863163
 11
154.4580040786
 21
31.3871500027
  0
LINE
  5
2D8
100
AcDbEntity
  8
0
100
AcDbLine
 62
7
  6
CONTINUOUS
 10
159.6033164683
 20
31.5162047484
 11
159.2564414683
 21
31.483941062
  0
LINE
  5
2D9
100
AcDbEntity
  8
0
100
AcDbLine
 62
7
  6
CONTINUOUS
 10
154.5736289683
 20
31.1613041978
 11
154.2267539683
 21
31.1290405113
  0
LINE
  5
2DA
100
AcDbEntity
  8
0
100
AcDbLine
 62
7
  6
CONTINUOUS
 10
150.3533164408
 20
31.5162047484
 11
150.0064414821
 21
31.483941062
  0
LINE
  5
2DB
100
AcDbEntity
  8
0
100
AcDbLine
 62
7
  6
CONTINUOUS
 10
154.4580040786
 20
31.5162047484
 11
154.0533164683
 21
31.483941062
  0
LINE
  5
2DC
100
AcDbEntity
  8
0
100
AcDbLine
 62
7
  6
CONTINUOUS
 10
151.8295203618
 20
33.4345863646
 11
151.1737826569
 21
33.4345863646
  0
LINE
  5
2DD
100
AcDbEntity
  8
0
100
AcDbLine
 62
7
  6
CONTINUOUS
 10
157.2330037478
 20
31.2903589434
 11
157.4064412478
 21
31.3548863163
  0
LINE
  5
2DE
100
AcDbEntity
  8
0
100
AcDbLine
 62
7
  6
CONTINUOUS
 10
159.2564414683
 20
31.3226226299
 11
159.3720666889
 21
31.3548863163
  0
LINE
  5
2DF
100
AcDbEntity
  8
0
100
AcDbLine
 62
7
  6
CONTINUOUS
 10
159.2564414683
 20
31.483941062
 11
159.0251916889
 21
31.4194136891
  0
LINE
  5
2E0
100
AcDbEntity
  8
0
100
AcDbLine
 62
7
  6
CONTINUOUS
 10
154.9783162478
 20
30.6773488336
 11
154.6892538581
 21
30.6128214495
  0
LINE
  5
2E1
100
AcDbEntity
  8
0
100
AcDbLine
 62
7
  6
CONTINUOUS
 10
152.2611288581
 20
31.3548863163
 11
152.4923789683
 21
31.3871500027
  0
LINE
  5
2E2
100
AcDbEntity
  8
0
100
AcDbLine
 62
7
  6
CONTINUOUS
 10
152.4923789683
 20
31.5162047484
 11
152.2611288581
 21
31.483941062
  0
LINE
  5
2E3
100
AcDbEntity
  8
0
100
AcDbLine
 62
7
  6
CONTINUOUS
 10
150.0642539683
 20
31.3548863163
 11
150.2955039959
 21
31.3871500027
  0
LINE
  5
2E4
100
AcDbEntity
  8
0
100
AcDbLine
 62
7
  6
CONTINUOUS
 10
156.5836187224
 20
34.9099962007
 11
157.2393564274
 21
34.9099962007
  0
LINE
  5
2E5
100
AcDbEntity
  8
0
100
AcDbLine
 62
7
  6
CONTINUOUS
 10
154.2267539683
 20
30.967722034
 11
154.3423788581
 21
30.9999857205
  0
LINE
  5
2E6
100
AcDbEntity
  8
0
100
AcDbLine
 62
7
  6
CONTINUOUS
 10
154.2267539683
 20
31.1290405113
 11
153.9955038581
 21
31.0645131385
  0
LINE
  5
2E7
100
AcDbEntity
  8
0
100
AcDbLine
 62
7
  6
CONTINUOUS
 10
154.1111290786
 20
31.3226226299
 11
154.2267539683
 21
31.3548863163
  0
LINE
  5
2E8
100
AcDbEntity
  8
0
100
AcDbLine
 62
7
  6
CONTINUOUS
 10
150.7580039683
 20
30.5160303817
 11
150.9892539132
 21
30.5805577631
  0
LINE
  5
2E9
100
AcDbEntity
  8
0
100
AcDbLine
 62
7
  6
CONTINUOUS
 10
154.0533164683
 20
31.483941062
 11
153.9376915786
 21
31.4516773756
  0
LINE
  5
2EA
100
AcDbEntity
  8
0
100
AcDbLine
 62
7
  6
CONTINUOUS
 10
150.0064414821
 20
31.483941062
 11
149.8330039821
 21
31.4516773756
  0
LINE
  5
2EB
100
AcDbEntity
  8
0
100
AcDbLine
 62
7
  6
CONTINUOUS
 10
160.7639465913
 20
36.0575371843
 11
159.3705039683
 21
36.0575371843
  0
LINE
  5
2EC
100
AcDbEntity
  8
0
100
AcDbLine
 62
7
  6
CONTINUOUS
 10
157.4032908536
 20
36.0575371843
 11
156.990719505
 21
36.0575371843
  0
LINE
  5
2ED
100
AcDbEntity
  8
0
100
AcDbLine
 62
7
  6
CONTINUOUS
 10
155.7639465913
 20
36.0575371843
 11
154.3705039683
 21
36.0575371843
  0
LINE
  5
2EE
100
AcDbEntity
  8
0
100
AcDbLine
 62
7
  6
CONTINUOUS
 10
154.0426351159
 20
36.0575371843
 11
152.6491924929
 21
36.0575371843
  0
LINE
  5
2EF
100
AcDbEntity
  8
0
100
AcDbLine
 62
7
  6
CONTINUOUS
 10
150.7639465913
 20
36.0575371843
 11
149.3705039683
 21
36.0575371843
  0
LINE
  5
2F0
100
AcDbEntity
  8
0
100
AcDbLine
 62
7
  6
CONTINUOUS
 10
149.9486289546
 20
31.3226226299
 11
150.0642539683
 21
31.3548863163
  0
CIRCLE
  5
2F1
100
AcDbEntity
  8
0
100
AcDbCircle
 62
7
  6
CONTINUOUS
 10
160.0672252798
 20
38.3936027581
 40
2.0901639344
  0
ARC
  5
2F2
100
AcDbEntity
  8
0
100
AcDbCircle
 62
7
  6
CONTINUOUS
 10
151.0098482306
 20
33.9263896433
 40
1.6393442623
100
AcDbArc
 50
180.0
 51
270.0
  0
ARC
  5
2F3
100
AcDbEntity
  8
0
100
AcDbCircle
 62
7
  6
CONTINUOUS
 10
157.4032908536
 20
34.418192922
 40
1.6393442623
100
AcDbArc
 50
0.0
 51
90.0
  0
ARC
  5
2F4
100
AcDbEntity
  8
0
100
AcDbCircle
 62
7
  6
CONTINUOUS
 10
151.4224195792
 20
33.7624552171
 40
1.4754098361
100
AcDbArc
 50
270.0
 51
326.2510114041
  0
ARC
  5
2F5
100
AcDbEntity
  8
0
100
AcDbCircle
 62
7
  6
CONTINUOUS
 10
156.990719505
 20
34.5821273482
 40
1.4754098361
100
AcDbArc
 50
90.0
 51
146.2510114041
  0
ARC
  5
2F6
100
AcDbEntity
  8
0
100
AcDbCircle
 62
7
  6
CONTINUOUS
 10
151.8295203618
 20
34.2542584958
 40
0.8196721311
100
AcDbArc
 50
270.0
 51
360.0
  0
ARC
  5
2F7
100
AcDbEntity
  8
0
100
AcDbCircle
 62
7
  6
CONTINUOUS
 10
156.5836187224
 20
34.0903240696
 40
0.8196721311
100
AcDbArc
 50
90.0
 51
180.0
  0
ARC
  5
2F8
100
AcDbEntity
  8
0
100
AcDbCircle
 62
7
  6
CONTINUOUS
 10
151.1737826569
 20
33.8444224302
 40
0.4098360656
100
AcDbArc
 50
180.0
 51
270.0
  0
ARC
  5
2F9
100
AcDbEntity
  8
0
100
AcDbCircle
 62
7
  6
CONTINUOUS
 10
157.2393564274
 20
34.5001601351
 40
0.4098360656
100
AcDbArc
 50
0.0
 51
90.0
  0
SOLID
  5
2FA
100
AcDbEntity
  8
0
100
AcDbTrace
 62
7
  6
CONTINUOUS
 10
156.0767541889
 20
31.8388420633
 11
156.0767541889
 21
32.0001605469
 12
156.3658162478
 22
31.8388420633
 13
156.3658162478
 23
32.0001605469
  0
LWPOLYLINE
  5
2FB
100
AcDbEntity
  8
0
100
AcDbPolyline
 62
7
  6
CONTINUOUS
 90
13
 70
0
 10
150.3533164408
 20
31.5162050961
 10
150.7580039683
 20
31.4839407928
 10
150.9892539132
 20
31.4194137026
 10
151.1626914132
 20
31.3226223092
 10
151.2205040235
 20
31.1935681288
 10
150.9314414683
 20
31.1935681288
 10
150.8736290235
 20
31.2903595223
 10
150.7001914408
 20
31.3548866125
 10
150.2955039959
 20
31.3871493993
 10
149.6595664615
 20
31.3871493993
 10
149.8330039821
 20
31.4516780059
 10
150.0064414821
 20
31.4839407928
 10
150.3533164408
 20
31.5162050961
  0
HATCH
  5
2FC
100
AcDbEntity
  8
0
100
AcDbHatch
 62
7
  6
CONTINUOUS
 10
0.0
 20
0.0
 30
0.0
210
0.0
220
0.0
230
1.0
  2
SOLID
 70
1
 71
1
 91
1
 92
1
 93
12
 72
1
 10
150.3533164408
 20
31.5162050961
 11
150.7580039683
 21
31.4839407928
 72
1
 10
150.7580039683
 20
31.4839407928
 11
150.9892539132
 21
31.4194137026
 72
1
 10
150.9892539132
 20
31.4194137026
 11
151.1626914132
 21
31.3226223092
 72
1
 10
151.1626914132
 20
31.3226223092
 11
151.2205040235
 21
31.1935681288
 72
1
 10
151.2205040235
 20
31.1935681288
 11
150.9314414683
 21
31.1935681288
 72
1
 10
150.9314414683
 20
31.1935681288
 11
150.8736290235
 21
31.2903595223
 72
1
 10
150.8736290235
 20
31.2903595223
 11
150.7001914408
 21
31.3548866125
 72
1
 10
150.7001914408
 20
31.3548866125
 11
150.2955039959
 21
31.3871493993
 72
1
 10
150.2955039959
 20
31.3871493993
 11
149.6595664615
 21
31.3871493993
 72
1
 10
149.6595664615
 20
31.3871493993
 11
149.8330039821
 21
31.4516780059
 72
1
 10
149.8330039821
 20
31.4516780059
 11
150.0064414821
 21
31.4839407928
 72
1
 10
150.0064414821
 20
31.4839407928
 11
150.3533164408
 21
31.5162050961
 97
1
330
2FB
 75
0
 76
1
 98
1
 10
0.0
 20
0.0
  0
LWPOLYLINE
  5
2FD
100
AcDbEntity
  8
0
100
AcDbPolyline
 62
7
  6
CONTINUOUS
 90
25
 70
0
 10
152.2611288581
 20
31.4839407928
 10
152.4923789683
 20
31.5162050961
 10
152.7236290786
 20
31.5162050961
 10
152.8970665786
 20
31.4839407928
 10
153.0705040786
 20
31.4194137026
 10
153.1861289683
 20
31.3548866125
 10
153.2439415786
 20
31.2903595223
 10
153.3017538581
 20
31.1290410387
 10
153.3017538581
 20
30.4837671043
 10
153.0126914683
 20
30.4837671043
 10
153.0126914683
 20
31.1290410387
 10
152.9548788581
 20
31.258095219
 10
152.8392539683
 20
31.3226223092
 10
152.7236290786
 20
31.3548866125
 10
152.4923789683
 20
31.3871493993
 10
152.2611288581
 20
31.3548866125
 10
152.0876915235
 20
31.2903595223
 10
151.9720664683
 20
31.2258309157
 10
151.9720664683
 20
30.4837671043
 10
151.6830039132
 20
30.4837671043
 10
151.6830039132
 20
32.0001605469
 10
151.9720664683
 20
32.0001605469
 10
151.9720664683
 20
31.3548866125
 10
152.0876915235
 20
31.4194137026
 10
152.2611288581
 20
31.4839407928
  0
HATCH
  5
2FE
100
AcDbEntity
  8
0
100
AcDbHatch
 62
7
  6
CONTINUOUS
 10
0.0
 20
0.0
 30
0.0
210
0.0
220
0.0
230
1.0
  2
SOLID
 70
1
 71
1
 91
1
 92
1
 93
24
 72
1
 10
152.2611288581
 20
31.4839407928
 11
152.4923789683
 21
31.5162050961
 72
1
 10
152.4923789683
 20
31.5162050961
 11
152.7236290786
 21
31.5162050961
 72
1
 10
152.7236290786
 20
31.5162050961
 11
152.8970665786
 21
31.4839407928
 72
1
 10
152.8970665786
 20
31.4839407928
 11
153.0705040786
 21
31.4194137026
 72
1
 10
153.0705040786
 20
31.4194137026
 11
153.1861289683
 21
31.3548866125
 72
1
 10
153.1861289683
 20
31.3548866125
 11
153.2439415786
 21
31.2903595223
 72
1
 10
153.2439415786
 20
31.2903595223
 11
153.3017538581
 21
31.1290410387
 72
1
 10
153.3017538581
 20
31.1290410387
 11
153.3017538581
 21
30.4837671043
 72
1
 10
153.3017538581
 20
30.4837671043
 11
153.0126914683
 21
30.4837671043
 72
1
 10
153.0126914683
 20
30.4837671043
 11
153.0126914683
 21
31.1290410387
 72
1
 10
153.0126914683
 20
31.1290410387
 11
152.9548788581
 21
31.258095219
 72
1
 10
152.9548788581
 20
31.258095219
 11
152.8392539683
 21
31.3226223092
 72
1
 10
152.8392539683
 20
31.3226223092
 11
152.7236290786
 21
31.3548866125
 72
1
 10
152.7236290786
 20
31.3548866125
 11
152.4923789683
 21
31.3871493993
 72
1
 10
152.4923789683
 20
31.3871493993
 11
152.2611288581
 21
31.3548866125
 72
1
 10
152.2611288581
 20
31.3548866125
 11
152.0876915235
 21
31.2903595223
 72
1
 10
152.0876915235
 20
31.2903595223
 11
151.9720664683
 21
31.2258309157
 72
1
 10
151.9720664683
 20
31.2258309157
 11
151.9720664683
 21
30.4837671043
 72
1
 10
151.9720664683
 20
30.4837671043
 11
151.6830039132
 21
30.4837671043
 72
1
 10
151.6830039132
 20
30.4837671043
 11
151.6830039132
 21
32.0001605469
 72
1
 10
151.6830039132
 20
32.0001605469
 11
151.9720664683
 21
32.0001605469
 72
1
 10
151.9720664683
 20
32.0001605469
 11
151.9720664683
 21
31.3548866125
 72
1
 10
151.9720664683
 20
31.3548866125
 11
152.0876915235
 21
31.4194137026
 72
1
 10
152.0876915235
 20
31.4194137026
 11
152.2611288581
 21
31.4839407928
 97
1
330
2FD
 75
0
 76
1
 98
1
 10
0.0
 20
0.0
  0
LWPOLYLINE
  5
2FF
100
AcDbEntity
  8
0
100
AcDbPolyline
 62
7
  6
CONTINUOUS
 90
20
 70
0
 10
154.0533164683
 20
31.4839407928
 10
154.4580040786
 20
31.5162050961
 10
154.8048790786
 20
31.5162050961
 10
155.1517537478
 20
31.4839407928
 10
155.3251912478
 20
31.4194137026
 10
155.4408164683
 20
31.3548866125
 10
155.4986287478
 20
31.258095219
 10
155.4986287478
 20
30.7418754649
 10
155.2095666889
 20
30.8386672883
 10
155.2095666889
 20
31.0322496452
 10
155.2095666889
 20
31.1613038256
 10
155.2095666889
 20
31.258095219
 10
155.1517537478
 20
31.3226223092
 10
155.0361291889
 20
31.3548866125
 10
154.8048790786
 20
31.3871493993
 10
154.4580040786
 20
31.3871493993
 10
153.7642540786
 20
31.3226223092
 10
153.8220663581
 20
31.3871493993
 10
153.9376915786
 20
31.4516780059
 10
154.0533164683
 20
31.4839407928
  0
HATCH
  5
300
100
AcDbEntity
  8
0
100
AcDbHatch
 62
7
  6
CONTINUOUS
 10
0.0
 20
0.0
 30
0.0
210
0.0
220
0.0
230
1.0
  2
SOLID
 70
1
 71
1
 91
1
 92
1
 93
19
 72
1
 10
154.0533164683
 20
31.4839407928
 11
154.4580040786
 21
31.5162050961
 72
1
 10
154.4580040786
 20
31.5162050961
 11
154.8048790786
 21
31.5162050961
 72
1
 10
154.8048790786
 20
31.5162050961
 11
155.1517537478
 21
31.4839407928
 72
1
 10
155.1517537478
 20
31.4839407928
 11
155.3251912478
 21
31.4194137026
 72
1
 10
155.3251912478
 20
31.4194137026
 11
155.4408164683
 21
31.3548866125
 72
1
 10
155.4408164683
 20
31.3548866125
 11
155.4986287478
 21
31.258095219
 72
1
 10
155.4986287478
 20
31.258095219
 11
155.4986287478
 21
30.7418754649
 72
1
 10
155.4986287478
 20
30.7418754649
 11
155.2095666889
 21
30.8386672883
 72
1
 10
155.2095666889
 20
30.8386672883
 11
155.2095666889
 21
31.0322496452
 72
1
 10
155.2095666889
 20
31.0322496452
 11
155.2095666889
 21
31.1613038256
 72
1
 10
155.2095666889
 20
31.1613038256
 11
155.2095666889
 21
31.258095219
 72
1
 10
155.2095666889
 20
31.258095219
 11
155.1517537478
 21
31.3226223092
 72
1
 10
155.1517537478
 20
31.3226223092
 11
155.0361291889
 21
31.3548866125
 72
1
 10
155.0361291889
 20
31.3548866125
 11
154.8048790786
 21
31.3871493993
 72
1
 10
154.8048790786
 20
31.3871493993
 11
154.4580040786
 21
31.3871493993
 72
1
 10
154.4580040786
 20
31.3871493993
 11
153.7642540786
 21
31.3226223092
 72
1
 10
153.7642540786
 20
31.3226223092
 11
153.8220663581
 21
31.3871493993
 72
1
 10
153.8220663581
 20
31.3871493993
 11
153.9376915786
 21
31.4516780059
 72
1
 10
153.9376915786
 20
31.4516780059
 11
154.0533164683
 21
31.4839407928
 97
1
330
2FF
 75
0
 76
1
 98
1
 10
0.0
 20
0.0
  0
LWPOLYLINE
  5
301
100
AcDbEntity
  8
0
100
AcDbPolyline
 62
7
  6
CONTINUOUS
 90
25
 70
0
 10
157.4064412478
 20
31.4839407928
 10
157.6376916889
 20
31.5162050961
 10
157.8689414683
 20
31.5162050961
 10
158.0423789683
 20
31.4839407928
 10
158.2158164683
 20
31.4194137026
 10
158.3314416889
 20
31.3548866125
 10
158.3892539683
 20
31.258095219
 10
158.4470662478
 20
31.0967767354
 10
158.4470662478
 20
30.4837671043
 10
158.1580041889
 20
30.4837671043
 10
158.1580041889
 20
31.0967767354
 10
158.1001912478
 20
31.258095219
 10
157.9845666889
 20
31.3226223092
 10
157.8689414683
 20
31.3548866125
 10
157.6376916889
 20
31.3871493993
 10
157.4064412478
 20
31.3548866125
 10
157.2330037478
 20
31.2903595223
 10
157.1173791889
 20
31.2258309157
 10
157.1173791889
 20
30.4837671043
 10
156.8283164683
 20
30.4837671043
 10
156.8283164683
 20
31.5162050961
 10
157.1173791889
 20
31.5162050961
 10
157.1173791889
 20
31.3548866125
 10
157.2330037478
 20
31.4194137026
 10
157.4064412478
 20
31.4839407928
  0
HATCH
  5
302
100
AcDbEntity
  8
0
100
AcDbHatch
 62
7
  6
CONTINUOUS
 10
0.0
 20
0.0
 30
0.0
210
0.0
220
0.0
230
1.0
  2
SOLID
 70
1
 71
1
 91
1
 92
1
 93
24
 72
1
 10
157.4064412478
 20
31.4839407928
 11
157.6376916889
 21
31.5162050961
 72
1
 10
157.6376916889
 20
31.5162050961
 11
157.8689414683
 21
31.5162050961
 72
1
 10
157.8689414683
 20
31.5162050961
 11
158.0423789683
 21
31.4839407928
 72
1
 10
158.0423789683
 20
31.4839407928
 11
158.2158164683
 21
31.4194137026
 72
1
 10
158.2158164683
 20
31.4194137026
 11
158.3314416889
 21
31.3548866125
 72
1
 10
158.3314416889
 20
31.3548866125
 11
158.3892539683
 21
31.258095219
 72
1
 10
158.3892539683
 20
31.258095219
 11
158.4470662478
 21
31.0967767354
 72
1
 10
158.4470662478
 20
31.0967767354
 11
158.4470662478
 21
30.4837671043
 72
1
 10
158.4470662478
 20
30.4837671043
 11
158.1580041889
 21
30.4837671043
 72
1
 10
158.1580041889
 20
30.4837671043
 11
158.1580041889
 21
31.0967767354
 72
1
 10
158.1580041889
 20
31.0967767354
 11
158.1001912478
 21
31.258095219
 72
1
 10
158.1001912478
 20
31.258095219
 11
157.9845666889
 21
31.3226223092
 72
1
 10
157.9845666889
 20
31.3226223092
 11
157.8689414683
 21
31.3548866125
 72
1
 10
157.8689414683
 20
31.3548866125
 11
157.6376916889
 21
31.3871493993
 72
1
 10
157.6376916889
 20
31.3871493993
 11
157.4064412478
 21
31.3548866125
 72
1
 10
157.4064412478
 20
31.3548866125
 11
157.2330037478
 21
31.2903595223
 72
1
 10
157.2330037478
 20
31.2903595223
 11
157.1173791889
 21
31.2258309157
 72
1
 10
157.1173791889
 20
31.2258309157
 11
157.1173791889
 21
30.4837671043
 72
1
 10
157.1173791889
 20
30.4837671043
 11
156.8283164683
 21
30.4837671043
 72
1
 10
156.8283164683
 20
30.4837671043
 11
156.8283164683
 21
31.5162050961
 72
1
 10
156.8283164683
 20
31.5162050961
 11
157.1173791889
 21
31.5162050961
 72
1
 10
157.1173791889
 20
31.5162050961
 11
157.1173791889
 21
31.3548866125
 72
1
 10
157.1173791889
 20
31.3548866125
 11
157.2330037478
 21
31.4194137026
 72
1
 10
157.2330037478
 20
31.4194137026
 11
157.4064412478
 21
31.4839407928
 97
1
330
301
 75
0
 76
1
 98
1
 10
0.0
 20
0.0
  0
LWPOLYLINE
  5
303
100
AcDbEntity
  8
0
100
AcDbPolyline
 62
7
  6
CONTINUOUS
 90
6
 70
0
 10
159.2564414683
 20
31.4839407928
 10
159.6033164683
 20
31.5162050961
 10
159.9501914683
 20
31.5162050961
 10
160.2970664683
 20
31.4839407928
 10
159.0251916889
 20
31.4194137026
 10
159.2564414683
 20
31.4839407928
  0
HATCH
  5
304
100
AcDbEntity
  8
0
100
AcDbHatch
 62
7
  6
CONTINUOUS
 10
0.0
 20
0.0
 30
0.0
210
0.0
220
0.0
230
1.0
  2
SOLID
 70
1
 71
1
 91
1
 92
1
 93
5
 72
1
 10
159.2564414683
 20
31.4839407928
 11
159.6033164683
 21
31.5162050961
 72
1
 10
159.6033164683
 20
31.5162050961
 11
159.9501914683
 21
31.5162050961
 72
1
 10
159.9501914683
 20
31.5162050961
 11
160.2970664683
 21
31.4839407928
 72
1
 10
160.2970664683
 20
31.4839407928
 11
159.0251916889
 21
31.4194137026
 72
1
 10
159.0251916889
 20
31.4194137026
 11
159.2564414683
 21
31.4839407928
 97
1
330
303
 75
0
 76
1
 98
1
 10
0.0
 20
0.0
  0
LWPOLYLINE
  5
305
100
AcDbEntity
  8
0
100
AcDbPolyline
 62
7
  6
CONTINUOUS
 90
12
 70
0
 10
160.4705039683
 20
31.4516780059
 10
160.6439414683
 20
31.3871493993
 10
160.7595660273
 20
31.258095219
 10
160.4705039683
 20
31.258095219
 10
160.4126916889
 20
31.3226223092
 10
160.2970664683
 20
31.3548866125
 10
159.9501914683
 20
31.3871493993
 10
159.6033164683
 20
31.3871493993
 10
158.9095664683
 20
31.3226223092
 10
159.0251916889
 20
31.4194137026
 10
160.2970664683
 20
31.4839407928
 10
160.4705039683
 20
31.4516780059
  0
HATCH
  5
306
100
AcDbEntity
  8
0
100
AcDbHatch
 62
7
  6
CONTINUOUS
 10
0.0
 20
0.0
 30
0.0
210
0.0
220
0.0
230
1.0
  2
SOLID
 70
1
 71
1
 91
1
 92
1
 93
11
 72
1
 10
160.4705039683
 20
31.4516780059
 11
160.6439414683
 21
31.3871493993
 72
1
 10
160.6439414683
 20
31.3871493993
 11
160.7595660273
 21
31.258095219
 72
1
 10
160.7595660273
 20
31.258095219
 11
160.4705039683
 21
31.258095219
 72
1
 10
160.4705039683
 20
31.258095219
 11
160.4126916889
 21
31.3226223092
 72
1
 10
160.4126916889
 20
31.3226223092
 11
160.2970664683
 21
31.3548866125
 72
1
 10
160.2970664683
 20
31.3548866125
 11
159.9501914683
 21
31.3871493993
 72
1
 10
159.9501914683
 20
31.3871493993
 11
159.6033164683
 21
31.3871493993
 72
1
 10
159.6033164683
 20
31.3871493993
 11
158.9095664683
 21
31.3226223092
 72
1
 10
158.9095664683
 20
31.3226223092
 11
159.0251916889
 21
31.4194137026
 72
1
 10
159.0251916889
 20
31.4194137026
 11
160.2970664683
 21
31.4839407928
 72
1
 10
160.2970664683
 20
31.4839407928
 11
160.4705039683
 21
31.4516780059
 97
1
330
305
 75
0
 76
1
 98
1
 10
0.0
 20
0.0
  0
LWPOLYLINE
  5
307
100
AcDbEntity
  8
0
100
AcDbPolyline
 62
7
  6
CONTINUOUS
 90
7
 70
0
 10
150.0642539683
 20
31.3548866125
 10
149.9486289546
 20
31.3226223092
 10
149.4283164701
 20
31.1935681288
 10
149.5439414683
 20
31.3226223092
 10
149.6595664615
 20
31.3871493993
 10
150.2955039959
 20
31.3871493993
 10
150.0642539683
 20
31.3548866125
  0
HATCH
  5
308
100
AcDbEntity
  8
0
100
AcDbHatch
 62
7
  6
CONTINUOUS
 10
0.0
 20
0.0
 30
0.0
210
0.0
220
0.0
230
1.0
  2
SOLID
 70
1
 71
1
 91
1
 92
1
 93
6
 72
1
 10
150.0642539683
 20
31.3548866125
 11
149.9486289546
 21
31.3226223092
 72
1
 10
149.9486289546
 20
31.3226223092
 11
149.4283164701
 21
31.1935681288
 72
1
 10
149.4283164701
 20
31.1935681288
 11
149.5439414683
 21
31.3226223092
 72
1
 10
149.5439414683
 20
31.3226223092
 11
149.6595664615
 21
31.3871493993
 72
1
 10
149.6595664615
 20
31.3871493993
 11
150.2955039959
 21
31.3871493993
 72
1
 10
150.2955039959
 20
31.3871493993
 11
150.0642539683
 21
31.3548866125
 97
1
330
307
 75
0
 76
1
 98
1
 10
0.0
 20
0.0
  0
LWPOLYLINE
  5
309
100
AcDbEntity
  8
0
100
AcDbPolyline
 62
7
  6
CONTINUOUS
 90
7
 70
0
 10
154.2267539683
 20
31.3548866125
 10
154.1111290786
 20
31.3226223092
 10
154.0533164683
 20
31.258095219
 10
153.7642540786
 20
31.258095219
 10
153.7642540786
 20
31.3226223092
 10
154.4580040786
 20
31.3871493993
 10
154.2267539683
 20
31.3548866125
  0
HATCH
  5
30A
100
AcDbEntity
  8
0
100
AcDbHatch
 62
7
  6
CONTINUOUS
 10
0.0
 20
0.0
 30
0.0
210
0.0
220
0.0
230
1.0
  2
SOLID
 70
1
 71
1
 91
1
 92
1
 93
6
 72
1
 10
154.2267539683
 20
31.3548866125
 11
154.1111290786
 21
31.3226223092
 72
1
 10
154.1111290786
 20
31.3226223092
 11
154.0533164683
 21
31.258095219
 72
1
 10
154.0533164683
 20
31.258095219
 11
153.7642540786
 21
31.258095219
 72
1
 10
153.7642540786
 20
31.258095219
 11
153.7642540786
 21
31.3226223092
 72
1
 10
153.7642540786
 20
31.3226223092
 11
154.4580040786
 21
31.3871493993
 72
1
 10
154.4580040786
 20
31.3871493993
 11
154.2267539683
 21
31.3548866125
 97
1
330
309
 75
0
 76
1
 98
1
 10
0.0
 20
0.0
  0
LWPOLYLINE
  5
30B
100
AcDbEntity
  8
0
100
AcDbPolyline
 62
7
  6
CONTINUOUS
 90
8
 70
0
 10
159.3720666889
 20
31.3548866125
 10
159.2564414683
 20
31.3226223092
 10
159.1986291889
 20
31.258095219
 10
159.0251916889
 20
31.1290410387
 10
158.9095664683
 20
31.258095219
 10
158.9095664683
 20
31.3226223092
 10
159.6033164683
 20
31.3871493993
 10
159.3720666889
 20
31.3548866125
  0
HATCH
  5
30C
100
AcDbEntity
  8
0
100
AcDbHatch
 62
7
  6
CONTINUOUS
 10
0.0
 20
0.0
 30
0.0
210
0.0
220
0.0
230
1.0
  2
SOLID
 70
1
 71
1
 91
1
 92
1
 93
7
 72
1
 10
159.3720666889
 20
31.3548866125
 11
159.2564414683
 21
31.3226223092
 72
1
 10
159.2564414683
 20
31.3226223092
 11
159.1986291889
 21
31.258095219
 72
1
 10
159.1986291889
 20
31.258095219
 11
159.0251916889
 21
31.1290410387
 72
1
 10
159.0251916889
 20
31.1290410387
 11
158.9095664683
 21
31.258095219
 72
1
 10
158.9095664683
 20
31.258095219
 11
158.9095664683
 21
31.3226223092
 72
1
 10
158.9095664683
 20
31.3226223092
 11
159.6033164683
 21
31.3871493993
 72
1
 10
159.6033164683
 20
31.3871493993
 11
159.3720666889
 21
31.3548866125
 97
1
330
30B
 75
0
 76
1
 98
1
 10
0.0
 20
0.0
  0
LWPOLYLINE
  5
30D
100
AcDbEntity
  8
0
100
AcDbPolyline
 62
7
  6
CONTINUOUS
 90
6
 70
0
 10
149.7751914546
 20
31.2258309157
 10
149.7173789683
 20
31.1613038256
 10
149.3705039683
 20
30.999985342
 10
149.4283164701
 20
31.1935681288
 10
149.9486289546
 20
31.3226223092
 10
149.7751914546
 20
31.2258309157
  0
HATCH
  5
30E
100
AcDbEntity
  8
0
100
AcDbHatch
 62
7
  6
CONTINUOUS
 10
0.0
 20
0.0
 30
0.0
210
0.0
220
0.0
230
1.0
  2
SOLID
 70
1
 71
1
 91
1
 92
1
 93
5
 72
1
 10
149.7751914546
 20
31.2258309157
 11
149.7173789683
 21
31.1613038256
 72
1
 10
149.7173789683
 20
31.1613038256
 11
149.3705039683
 21
30.999985342
 72
1
 10
149.3705039683
 20
30.999985342
 11
149.4283164701
 21
31.1935681288
 72
1
 10
149.4283164701
 20
31.1935681288
 11
149.9486289546
 21
31.3226223092
 72
1
 10
149.9486289546
 20
31.3226223092
 11
149.7751914546
 21
31.2258309157
 97
1
330
30D
 75
0
 76
1
 98
1
 10
0.0
 20
0.0
  0
LWPOLYLINE
  5
30F
100
AcDbEntity
  8
0
100
AcDbPolyline
 62
7
  6
CONTINUOUS
 90
7
 70
0
 10
154.2267539683
 20
31.1290410387
 10
154.5736289683
 20
31.1613038256
 10
155.2095666889
 20
31.1613038256
 10
155.2095666889
 20
31.0322496452
 10
154.5736289683
 20
31.0322496452
 10
153.9955038581
 20
31.0645131385
 10
154.2267539683
 20
31.1290410387
  0
HATCH
  5
310
100
AcDbEntity
  8
0
100
AcDbHatch
 62
7
  6
CONTINUOUS
 10
0.0
 20
0.0
 30
0.0
210
0.0
220
0.0
230
1.0
  2
SOLID
 70
1
 71
1
 91
1
 92
1
 93
6
 72
1
 10
154.2267539683
 20
31.1290410387
 11
154.5736289683
 21
31.1613038256
 72
1
 10
154.5736289683
 20
31.1613038256
 11
155.2095666889
 21
31.1613038256
 72
1
 10
155.2095666889
 20
31.1613038256
 11
155.2095666889
 21
31.0322496452
 72
1
 10
155.2095666889
 20
31.0322496452
 11
154.5736289683
 21
31.0322496452
 72
1
 10
154.5736289683
 20
31.0322496452
 11
153.9955038581
 21
31.0645131385
 72
1
 10
153.9955038581
 20
31.0645131385
 11
154.2267539683
 21
31.1290410387
 97
1
330
30F
 75
0
 76
1
 98
1
 10
0.0
 20
0.0
  0
LWPOLYLINE
  5
311
100
AcDbEntity
  8
0
100
AcDbPolyline
 62
7
  6
CONTINUOUS
 90
24
 70
0
 10
159.2564414683
 20
31.1935681288
 10
159.4298789683
 20
31.1290410387
 10
160.4126916889
 20
30.9677225551
 10
160.6439414683
 20
30.8709311616
 10
160.7595660273
 20
30.7418754649
 10
160.7595660273
 20
30.6773483748
 10
160.6439414683
 20
30.5805584977
 10
160.4126916889
 20
30.5160298911
 10
160.0658166889
 20
30.4837671043
 10
159.7189416889
 20
30.4837671043
 10
159.3720666889
 20
30.5160298911
 10
159.1986291889
 20
30.5482941944
 10
159.0251916889
 20
30.6128212846
 10
159.7189416889
 20
30.6128212846
 10
160.0658166889
 20
30.6128212846
 10
160.2970664683
 20
30.6450855879
 10
160.4126916889
 20
30.6773483748
 10
160.4705039683
 20
30.7418754649
 10
160.4126916889
 20
30.8064040715
 10
160.2392541889
 20
30.8709311616
 10
159.2564414683
 20
31.0322496452
 10
159.0251916889
 20
31.1290410387
 10
159.1986291889
 20
31.258095219
 10
159.2564414683
 20
31.1935681288
  0
HATCH
  5
312
100
AcDbEntity
  8
0
100
AcDbHatch
 62
7
  6
CONTINUOUS
 10
0.0
 20
0.0
 30
0.0
210
0.0
220
0.0
230
1.0
  2
SOLID
 70
1
 71
1
 91
1
 92
1
 93
23
 72
1
 10
159.2564414683
 20
31.1935681288
 11
159.4298789683
 21
31.1290410387
 72
1
 10
159.4298789683
 20
31.1290410387
 11
160.4126916889
 21
30.9677225551
 72
1
 10
160.4126916889
 20
30.9677225551
 11
160.6439414683
 21
30.8709311616
 72
1
 10
160.6439414683
 20
30.8709311616
 11
160.7595660273
 21
30.7418754649
 72
1
 10
160.7595660273
 20
30.7418754649
 11
160.7595660273
 21
30.6773483748
 72
1
 10
160.7595660273
 20
30.6773483748
 11
160.6439414683
 21
30.5805584977
 72
1
 10
160.6439414683
 20
30.5805584977
 11
160.4126916889
 21
30.5160298911
 72
1
 10
160.4126916889
 20
30.5160298911
 11
160.0658166889
 21
30.4837671043
 72
1
 10
160.0658166889
 20
30.4837671043
 11
159.7189416889
 21
30.4837671043
 72
1
 10
159.7189416889
 20
30.4837671043
 11
159.3720666889
 21
30.5160298911
 72
1
 10
159.3720666889
 20
30.5160298911
 11
159.1986291889
 21
30.5482941944
 72
1
 10
159.1986291889
 20
30.5482941944
 11
159.0251916889
 21
30.6128212846
 72
1
 10
159.0251916889
 20
30.6128212846
 11
159.7189416889
 21
30.6128212846
 72
1
 10
159.7189416889
 20
30.6128212846
 11
160.0658166889
 21
30.6128212846
 72
1
 10
160.0658166889
 20
30.6128212846
 11
160.2970664683
 21
30.6450855879
 72
1
 10
160.2970664683
 20
30.6450855879
 11
160.4126916889
 21
30.6773483748
 72
1
 10
160.4126916889
 20
30.6773483748
 11
160.4705039683
 21
30.7418754649
 72
1
 10
160.4705039683
 20
30.7418754649
 11
160.4126916889
 21
30.8064040715
 72
1
 10
160.4126916889
 20
30.8064040715
 11
160.2392541889
 21
30.8709311616
 72
1
 10
160.2392541889
 20
30.8709311616
 11
159.2564414683
 21
31.0322496452
 72
1
 10
159.2564414683
 20
31.0322496452
 11
159.0251916889
 21
31.1290410387
 72
1
 10
159.0251916889
 20
31.1290410387
 11
159.1986291889
 21
31.258095219
 72
1
 10
159.1986291889
 20
31.258095219
 11
159.2564414683
 21
31.1935681288
 97
1
330
311
 75
0
 76
1
 98
1
 10
0.0
 20
0.0
  0
LWPOLYLINE
  5
313
100
AcDbEntity
  8
0
100
AcDbPolyline
 62
7
  6
CONTINUOUS
 90
12
 70
0
 10
149.6595664615
 20
31.0322496452
 10
149.6595664615
 20
30.9354583476
 10
149.7751914546
 20
30.7741397682
 10
149.9486289546
 20
30.6773483748
 10
150.2955039959
 20
30.6128212846
 10
149.8330039821
 20
30.5482941944
 10
149.6595664615
 20
30.6128212846
 10
149.5439414683
 20
30.6773483748
 10
149.4283164701
 20
30.8064040715
 10
149.3705039683
 20
30.999985342
 10
149.7173789683
 20
31.1613038256
 10
149.6595664615
 20
31.0322496452
  0
HATCH
  5
314
100
AcDbEntity
  8
0
100
AcDbHatch
 62
7
  6
CONTINUOUS
 10
0.0
 20
0.0
 30
0.0
210
0.0
220
0.0
230
1.0
  2
SOLID
 70
1
 71
1
 91
1
 92
1
 93
11
 72
1
 10
149.6595664615
 20
31.0322496452
 11
149.6595664615
 21
30.9354583476
 72
1
 10
149.6595664615
 20
30.9354583476
 11
149.7751914546
 21
30.7741397682
 72
1
 10
149.7751914546
 20
30.7741397682
 11
149.9486289546
 21
30.6773483748
 72
1
 10
149.9486289546
 20
30.6773483748
 11
150.2955039959
 21
30.6128212846
 72
1
 10
150.2955039959
 20
30.6128212846
 11
149.8330039821
 21
30.5482941944
 72
1
 10
149.8330039821
 20
30.5482941944
 11
149.6595664615
 21
30.6128212846
 72
1
 10
149.6595664615
 20
30.6128212846
 11
149.5439414683
 21
30.6773483748
 72
1
 10
149.5439414683
 20
30.6773483748
 11
149.4283164701
 21
30.8064040715
 72
1
 10
149.4283164701
 20
30.8064040715
 11
149.3705039683
 21
30.999985342
 72
1
 10
149.3705039683
 20
30.999985342
 11
149.7173789683
 21
31.1613038256
 72
1
 10
149.7173789683
 20
31.1613038256
 11
149.6595664615
 21
31.0322496452
 97
1
330
313
 75
0
 76
1
 98
1
 10
0.0
 20
0.0
  0
LWPOLYLINE
  5
315
100
AcDbEntity
  8
0
100
AcDbPolyline
 62
7
  6
CONTINUOUS
 90
6
 70
0
 10
153.8798789683
 20
30.999985342
 10
153.9955038581
 20
31.0645131385
 10
154.5736289683
 20
31.0322496452
 10
154.3423788581
 20
30.999985342
 10
153.7642540786
 20
30.8709311616
 10
153.8798789683
 20
30.999985342
  0
HATCH
  5
316
100
AcDbEntity
  8
0
100
AcDbHatch
 62
7
  6
CONTINUOUS
 10
0.0
 20
0.0
 30
0.0
210
0.0
220
0.0
230
1.0
  2
SOLID
 70
1
 71
1
 91
1
 92
1
 93
5
 72
1
 10
153.8798789683
 20
30.999985342
 11
153.9955038581
 21
31.0645131385
 72
1
 10
153.9955038581
 20
31.0645131385
 11
154.5736289683
 21
31.0322496452
 72
1
 10
154.5736289683
 20
31.0322496452
 11
154.3423788581
 21
30.999985342
 72
1
 10
154.3423788581
 20
30.999985342
 11
153.7642540786
 21
30.8709311616
 72
1
 10
153.7642540786
 20
30.8709311616
 11
153.8798789683
 21
30.999985342
 97
1
330
315
 75
0
 76
1
 98
1
 10
0.0
 20
0.0
  0
LWPOLYLINE
  5
317
100
AcDbEntity
  8
0
100
AcDbPolyline
 62
7
  6
CONTINUOUS
 90
9
 70
0
 10
154.1111290786
 20
30.9031946612
 10
154.0533164683
 20
30.8064040715
 10
154.0533164683
 20
30.7418754649
 10
153.8220663581
 20
30.6450855879
 10
153.7642540786
 20
30.7741397682
 10
153.7642540786
 20
30.8709311616
 10
154.3423788581
 20
30.999985342
 10
154.2267539683
 20
30.9677225551
 10
154.1111290786
 20
30.9031946612
  0
HATCH
  5
318
100
AcDbEntity
  8
0
100
AcDbHatch
 62
7
  6
CONTINUOUS
 10
0.0
 20
0.0
 30
0.0
210
0.0
220
0.0
230
1.0
  2
SOLID
 70
1
 71
1
 91
1
 92
1
 93
8
 72
1
 10
154.1111290786
 20
30.9031946612
 11
154.0533164683
 21
30.8064040715
 72
1
 10
154.0533164683
 20
30.8064040715
 11
154.0533164683
 21
30.7418754649
 72
1
 10
154.0533164683
 20
30.7418754649
 11
153.8220663581
 21
30.6450855879
 72
1
 10
153.8220663581
 20
30.6450855879
 11
153.7642540786
 21
30.7741397682
 72
1
 10
153.7642540786
 20
30.7741397682
 11
153.7642540786
 21
30.8709311616
 72
1
 10
153.7642540786
 20
30.8709311616
 11
154.3423788581
 21
30.999985342
 72
1
 10
154.3423788581
 20
30.999985342
 11
154.2267539683
 21
30.9677225551
 72
1
 10
154.2267539683
 20
30.9677225551
 11
154.1111290786
 21
30.9031946612
 97
1
330
317
 75
0
 76
1
 98
1
 10
0.0
 20
0.0
  0
LWPOLYLINE
  5
319
100
AcDbEntity
  8
0
100
AcDbPolyline
 62
7
  6
CONTINUOUS
 90
10
 70
0
 10
155.1517537478
 20
30.7741397682
 10
155.2095666889
 20
30.8386672883
 10
155.4986287478
 20
30.7418754649
 10
155.5564416889
 20
30.5805584977
 10
155.6142539683
 20
30.4837671043
 10
155.3251912478
 20
30.4837671043
 10
155.2673789683
 20
30.5482941944
 10
155.2095666889
 20
30.6450855879
 10
154.9783162478
 20
30.6773483748
 10
155.1517537478
 20
30.7741397682
  0
HATCH
  5
31A
100
AcDbEntity
  8
0
100
AcDbHatch
 62
7
  6
CONTINUOUS
 10
0.0
 20
0.0
 30
0.0
210
0.0
220
0.0
230
1.0
  2
SOLID
 70
1
 71
1
 91
1
 92
1
 93
9
 72
1
 10
155.1517537478
 20
30.7741397682
 11
155.2095666889
 21
30.8386672883
 72
1
 10
155.2095666889
 20
30.8386672883
 11
155.4986287478
 21
30.7418754649
 72
1
 10
155.4986287478
 20
30.7418754649
 11
155.5564416889
 21
30.5805584977
 72
1
 10
155.5564416889
 20
30.5805584977
 11
155.6142539683
 21
30.4837671043
 72
1
 10
155.6142539683
 20
30.4837671043
 11
155.3251912478
 21
30.4837671043
 72
1
 10
155.3251912478
 20
30.4837671043
 11
155.2673789683
 21
30.5482941944
 72
1
 10
155.2673789683
 20
30.5482941944
 11
155.2095666889
 21
30.6450855879
 72
1
 10
155.2095666889
 20
30.6450855879
 11
154.9783162478
 21
30.6773483748
 72
1
 10
154.9783162478
 20
30.6773483748
 11
155.1517537478
 21
30.7741397682
 97
1
330
319
 75
0
 76
1
 98
1
 10
0.0
 20
0.0
  0
LWPOLYLINE
  5
31B
100
AcDbEntity
  8
0
100
AcDbPolyline
 62
7
  6
CONTINUOUS
 90
12
 70
0
 10
150.8736290235
 20
30.7096125201
 10
150.9314414683
 20
30.8064040715
 10
151.2205040235
 20
30.8064040715
 10
151.1626914132
 20
30.6773483748
 10
150.9892539132
 20
30.5805584977
 10
150.7580039683
 20
30.5160298911
 10
150.3533164408
 20
30.4837671043
 10
150.0064414821
 20
30.5160298911
 10
149.8330039821
 20
30.5482941944
 10
150.2955039959
 20
30.6128212846
 10
150.7001914408
 20
30.6450855879
 10
150.8736290235
 20
30.7096125201
  0
HATCH
  5
31C
100
AcDbEntity
  8
0
100
AcDbHatch
 62
7
  6
CONTINUOUS
 10
0.0
 20
0.0
 30
0.0
210
0.0
220
0.0
230
1.0
  2
SOLID
 70
1
 71
1
 91
1
 92
1
 93
11
 72
1
 10
150.8736290235
 20
30.7096125201
 11
150.9314414683
 21
30.8064040715
 72
1
 10
150.9314414683
 20
30.8064040715
 11
151.2205040235
 21
30.8064040715
 72
1
 10
151.2205040235
 20
30.8064040715
 11
151.1626914132
 21
30.6773483748
 72
1
 10
151.1626914132
 20
30.6773483748
 11
150.9892539132
 21
30.5805584977
 72
1
 10
150.9892539132
 20
30.5805584977
 11
150.7580039683
 21
30.5160298911
 72
1
 10
150.7580039683
 20
30.5160298911
 11
150.3533164408
 21
30.4837671043
 72
1
 10
150.3533164408
 20
30.4837671043
 11
150.0064414821
 21
30.5160298911
 72
1
 10
150.0064414821
 20
30.5160298911
 11
149.8330039821
 21
30.5482941944
 72
1
 10
149.8330039821
 20
30.5482941944
 11
150.2955039959
 21
30.6128212846
 72
1
 10
150.2955039959
 20
30.6128212846
 11
150.7001914408
 21
30.6450855879
 72
1
 10
150.7001914408
 20
30.6450855879
 11
150.8736290235
 21
30.7096125201
 97
1
330
31B
 75
0
 76
1
 98
1
 10
0.0
 20
0.0
  0
LWPOLYLINE
  5
31D
100
AcDbEntity
  8
0
100
AcDbPolyline
 62
7
  6
CONTINUOUS
 90
6
 70
0
 10
154.1111290786
 20
30.6773483748
 10
154.3423788581
 20
30.6128212846
 10
153.9955038581
 20
30.5482941944
 10
153.8220663581
 20
30.6450855879
 10
154.0533164683
 20
30.7418754649
 10
154.1111290786
 20
30.6773483748
  0
HATCH
  5
31E
100
AcDbEntity
  8
0
100
AcDbHatch
 62
7
  6
CONTINUOUS
 10
0.0
 20
0.0
 30
0.0
210
0.0
220
0.0
230
1.0
  2
SOLID
 70
1
 71
1
 91
1
 92
1
 93
5
 72
1
 10
154.1111290786
 20
30.6773483748
 11
154.3423788581
 21
30.6128212846
 72
1
 10
154.3423788581
 20
30.6128212846
 11
153.9955038581
 21
30.5482941944
 72
1
 10
153.9955038581
 20
30.5482941944
 11
153.8220663581
 21
30.6450855879
 72
1
 10
153.8220663581
 20
30.6450855879
 11
154.0533164683
 21
30.7418754649
 72
1
 10
154.0533164683
 20
30.7418754649
 11
154.1111290786
 21
30.6773483748
 97
1
330
31D
 75
0
 76
1
 98
1
 10
0.0
 20
0.0
  0
LWPOLYLINE
  5
31F
100
AcDbEntity
  8
0
100
AcDbPolyline
 62
7
  6
CONTINUOUS
 90
11
 70
0
 10
154.6892538581
 20
30.6128212846
 10
154.9783162478
 20
30.6773483748
 10
155.2095666889
 20
30.6450855879
 10
155.1517537478
 20
30.5805584977
 10
154.9783162478
 20
30.5160298911
 10
154.6892538581
 20
30.4837671043
 10
154.3423788581
 20
30.4837671043
 10
154.1111290786
 20
30.5160298911
 10
153.9955038581
 20
30.5482941944
 10
154.3423788581
 20
30.6128212846
 10
154.6892538581
 20
30.6128212846
  0
HATCH
  5
320
100
AcDbEntity
  8
0
100
AcDbHatch
 62
7
  6
CONTINUOUS
 10
0.0
 20
0.0
 30
0.0
210
0.0
220
0.0
230
1.0
  2
SOLID
 70
1
 71
1
 91
1
 92
1
 93
10
 72
1
 10
154.6892538581
 20
30.6128212846
 11
154.9783162478
 21
30.6773483748
 72
1
 10
154.9783162478
 20
30.6773483748
 11
155.2095666889
 21
30.6450855879
 72
1
 10
155.2095666889
 20
30.6450855879
 11
155.1517537478
 21
30.5805584977
 72
1
 10
155.1517537478
 20
30.5805584977
 11
154.9783162478
 21
30.5160298911
 72
1
 10
154.9783162478
 20
30.5160298911
 11
154.6892538581
 21
30.4837671043
 72
1
 10
154.6892538581
 20
30.4837671043
 11
154.3423788581
 21
30.4837671043
 72
1
 10
154.3423788581
 20
30.4837671043
 11
154.1111290786
 21
30.5160298911
 72
1
 10
154.1111290786
 20
30.5160298911
 11
153.9955038581
 21
30.5482941944
 72
1
 10
153.9955038581
 20
30.5482941944
 11
154.3423788581
 21
30.6128212846
 72
1
 10
154.3423788581
 20
30.6128212846
 11
154.6892538581
 21
30.6128212846
 97
1
330
31F
 75
0
 76
1
 98
1
 10
0.0
 20
0.0
  0
LWPOLYLINE
  5
321
100
AcDbEntity
  8
0
100
AcDbPolyline
 62
7
  6
CONTINUOUS
 90
7
 70
0
 10
159.3720666889
 20
30.6450855879
 10
159.7189416889
 20
30.6128212846
 10
159.0251916889
 20
30.6128212846
 10
158.9095664683
 20
30.7418754649
 10
159.1986291889
 20
30.7418754649
 10
159.2564414683
 20
30.6773483748
 10
159.3720666889
 20
30.6450855879
  0
HATCH
  5
322
100
AcDbEntity
  8
0
100
AcDbHatch
 62
7
  6
CONTINUOUS
 10
0.0
 20
0.0
 30
0.0
210
0.0
220
0.0
230
1.0
  2
SOLID
 70
1
 71
1
 91
1
 92
1
 93
6
 72
1
 10
159.3720666889
 20
30.6450855879
 11
159.7189416889
 21
30.6128212846
 72
1
 10
159.7189416889
 20
30.6128212846
 11
159.0251916889
 21
30.6128212846
 72
1
 10
159.0251916889
 20
30.6128212846
 11
158.9095664683
 21
30.7418754649
 72
1
 10
158.9095664683
 20
30.7418754649
 11
159.1986291889
 21
30.7418754649
 72
1
 10
159.1986291889
 20
30.7418754649
 11
159.2564414683
 21
30.6773483748
 72
1
 10
159.2564414683
 20
30.6773483748
 11
159.3720666889
 21
30.6450855879
 97
1
330
321
 75
0
 76
1
 98
1
 10
0.0
 20
0.0
  0
SOLID
  5
323
100
AcDbEntity
  8
0
100
AcDbTrace
 62
7
  6
CONTINUOUS
 10
156.0767541889
 20
30.4837671043
 11
156.0767541889
 21
31.5162050961
 12
156.3658162478
 22
30.4837671043
 13
156.3658162478
 23
31.5162050961
  0
ENDBLK
  5
324
100
AcDbEntity
  8
0
  6
BYBLOCK
 62
0
100
AcDbBlockEnd
  0
BLOCK
  5
325
100
AcDbEntity
  8
0
100
AcDbBlockBegin
 62
2
  6
CONTINUOUS
  2
AMMEAAL_LOGO_BL0
 70
64
 10
31.7661185167
 20
19.8972369706
  3
AMMEAAL_LOGO_BL0
  1

  0
TEXT
  5
326
100
AcDbEntity
  8
0
100
AcDbText
 62
7
  6
CONTINUOUS
 10
18.0387879101
 20
19.2884917655
  7
TEXTSTYLE_3
 40
2.7338706658
  1
Ammeraal Beltech
 41
1.0
 51
15.0
 72
0
100
AcDbText
  0
TEXT
  5
327
100
AcDbEntity
  8
0
100
AcDbText
 62
7
  6
CONTINUOUS
 10
28.8395887358
 20
17.0149550926
  7
TEXTSTYLE_4
 40
1.0935482663
  1
Innovation & Service in Belting
 41
1.0
 72
0
100
AcDbText
  0
LINE
  5
328
100
AcDbEntity
  8
0
100
AcDbLine
 62
7
  6
CONTINUOUS
 10
12.0142472588
 20
20.055085074
 11
12.7923992521
 21
23.7160023717
  0
LINE
  5
329
100
AcDbEntity
  8
0
100
AcDbLine
 62
7
  6
CONTINUOUS
 10
22.8875675419
 20
27.3793962833
 11
13.2802169951
 21
24.257778862
  0
LINE
  5
32A
100
AcDbEntity
  8
0
100
AcDbLine
 62
7
  6
CONTINUOUS
 10
12.2395305911
 20
19.361734271
 11
19.7466058522
 21
12.602333345
  0
LINE
  5
32B
100
AcDbEntity
  8
0
100
AcDbLine
 62
7
  6
CONTINUOUS
 10
12.5020650018
 20
20.5968615644
 11
23.310334367
 21
24.1086811633
  0
LINE
  5
32C
100
AcDbEntity
  8
0
100
AcDbLine
 62
7
  6
CONTINUOUS
 10
23.3061292298
 20
13.7588925996
 11
14.860669561
 21
21.3632186413
  0
LINE
  5
32D
100
AcDbEntity
  8
0
100
AcDbLine
 62
7
  6
CONTINUOUS
 10
23.8259519496
 20
26.5344711676
 11
22.8493924124
 21
21.9401197651
  0
LINE
  5
32E
100
AcDbEntity
  8
0
100
AcDbLine
 62
7
  6
CONTINUOUS
 10
22.1495904647
 20
18.6478104513
 11
21.4631422532
 21
15.4183255269
  0
LINE
  5
32F
100
AcDbEntity
  8
0
100
AcDbLine
 62
7
  6
CONTINUOUS
 10
24.5070480481
 20
14.1490947773
 11
25.4632795838
 21
18.6478104513
  0
LINE
  5
330
100
AcDbEntity
  8
0
100
AcDbLine
 62
7
  6
CONTINUOUS
 10
26.1630815315
 20
21.9401197651
 11
26.6073233338
 21
24.0301131245
  0
LINE
  5
331
100
AcDbEntity
  8
0
100
AcDbLine
 62
7
  6
CONTINUOUS
 10
20.4597069275
 20
12.4507590323
 11
24.0192303051
 21
13.6073182869
  0
LINE
  5
332
100
AcDbEntity
  8
0
100
AcDbLine
 62
7
  6
CONTINUOUS
 10
23.6006686173
 20
27.2278219706
 11
26.3820400015
 21
24.7234639276
  0
ARC
  5
333
100
AcDbEntity
  8
0
100
AcDbCircle
 62
7
  6
CONTINUOUS
 10
13.5055003274
 20
23.564428059
 40
0.7290321776
100
AcDbArc
 50
108.0
 51
168.0
  0
ARC
  5
334
100
AcDbEntity
  8
0
100
AcDbCircle
 62
7
  6
CONTINUOUS
 10
23.1128508743
 20
26.6860454803
 40
0.7290321776
100
AcDbArc
 50
348.0
 51
108.0
  0
ARC
  5
335
100
AcDbEntity
  8
0
100
AcDbCircle
 62
7
  6
CONTINUOUS
 10
25.8942222585
 20
24.1816874372
 40
0.7290321776
100
AcDbArc
 50
348.0
 51
48.0
  0
ARC
  5
336
100
AcDbEntity
  8
0
100
AcDbCircle
 62
7
  6
CONTINUOUS
 10
20.2344235952
 20
13.1441098354
 40
0.7290321776
100
AcDbArc
 50
228.0
 51
288.0
  0
ARC
  5
337
100
AcDbEntity
  8
0
100
AcDbCircle
 62
7
  6
CONTINUOUS
 10
12.7273483341
 20
19.9035107613
 40
0.7290321776
100
AcDbArc
 50
108.0
 51
228.0
  0
ARC
  5
338
100
AcDbEntity
  8
0
100
AcDbCircle
 62
7
  6
CONTINUOUS
 10
23.7939469728
 20
14.30066909
 40
0.7290321776
100
AcDbArc
 50
228.0
 51
348.0
  0
ENDBLK
  5
339
100
AcDbEntity
  8
0
  6
BYBLOCK
 62
0
100
AcDbBlockEnd
  0
BLOCK
  5
33A
100
AcDbEntity
  8
0
100
AcDbBlockBegin
  2
*T1
 70
1
 10
0.0
 20
0.0
  3
*T1
  1

  0
LINE
  5
33B
100
AcDbEntity
  8
0
100
AcDbLine
 62
2
  6
CONTINUOUS
 10
0.0
 20
0.0
 11
190.0
 21
0.0
  0
LINE
  5
33C
100
AcDbEntity
  8
0
100
AcDbLine
 62
2
  6
CONTINUOUS
 10
0.0
 20
0.0
 11
0.0
 21
-20.0
  0
LINE
  5
33D
100
AcDbEntity
  8
0
100
AcDbLine
 62
2
  6
CONTINUOUS
 10
0.0
 20
-20.0
 11
190.0
 21
-20.0
  0
LINE
  5
33E
100
AcDbEntity
  8
0
100
AcDbLine
 62
2
  6
CONTINUOUS
 10
85.0
 20
0.0
 11
85.0
 21
-20.0
  0
LINE
  5
33F
100
AcDbEntity
  8
0
100
AcDbLine
 62
2
  6
CONTINUOUS
 10
105.0
 20
0.0
 11
105.0
 21
-20.0
  0
LINE
  5
340
100
AcDbEntity
  8
0
100
AcDbLine
 62
2
  6
CONTINUOUS
 10
190.0
 20
0.0
 11
190.0
 21
-20.0
  0
MTEXT
  5
341
100
AcDbEntity
  8
0
100
AcDbMText
 62
5
  6
CONTINUOUS
  7
TEXTSTYLE_5
 71
1
 72
1
 10
3.0
 20
-5.177
 30
0.0
 11
1.0
 21
0.0
 31
0.0
 44
1.08
  3
                                                                     Ammeraal Beltech Modular A/S\P\H1.5;                                                                      Hjulmagervej 21,  7100 Vejle,  DK\P\H1.495;                                
  1
                                      tel: \H1.51;+45 75723100     fax: +45 75723348\P\H1.5;                                                                      admin@unichains.dk  www.unichains.com
 40
1.52
 41
161.0496183206
  0
MTEXT
  5
342
100
AcDbEntity
  8
0
100
AcDbMText
 62
5
  6
CONTINUOUS
  7
TEXTSTYLE_6
 71
2
 72
1
 10
95.0
 20
-11.25
 30
0.0
 11
1.0
 21
0.0
 31
0.0
 44
0.9
  1
1:1
 40
5.0
 41
21.0
  0
MTEXT
  5
343
100
AcDbEntity
  8
0
100
AcDbMText
 62
5
  6
CONTINUOUS
  7
TEXTSTYLE_7
 71
1
 72
1
 10
108.0
 20
-8.75
 30
0.0
 11
1.0
 21
0.0
 31
0.0
 44
0.9
  1
uni 1706
 40
7.5
 41
72.25
  0
ENDBLK
  5
344
100
AcDbEntity
  8
0
  6
BYBLOCK
 62
0
100
AcDbBlockEnd
  0
ENDSEC
  0
SECTION
  2
ENTITIES
  0
MTEXT
  5
345
100
AcDbEntity
  8
0
100
AcDbMText
 62
5
  6
CONTINUOUS
  7
TEXTSTYLE_2
 71
1
 72
1
 10
96.0
 20
28.436
 30
0.0
 11
1.0
 21
0.0
 31
0.0
 44
0.9
  1
\Q0.000019;Scale :
 40
2.8
 41
11.76
  0
MTEXT
  5
346
100
AcDbEntity
  8
0
100
AcDbMText
 62
5
  6
CONTINUOUS
  7
TEXTSTYLE_2
 71
1
 72
1
 10
116.0
 20
28.436
 30
0.0
 11
1.0
 21
0.0
 31
0.0
 44
0.9
  1
\Q0.000019;Chain type:
 40
2.8
 41
18.48
  0
INSERT
  5
347
100
AcDbEntity
  8
0
100
AcDbBlockReference
 62
2
  6
CONTINUOUS
  2
AMMEAAL_LOGO_BL0
 10
31.7661185167
 20
19.8972369706
  0
INSERT
  5
348
100
AcDbEntity
  8
0
100
AcDbBlockReference
 62
2
  6
CONTINUOUS
  2
UNI_LOGO2_BL1
 10
173.3924355793
 20
35.4326167403
  0
ACAD_TABLE
  5
349
100
AcDbEntity
  8
0
 62
2
  6
CONTINUOUS
100
AcDbBlockReference
  2
*T1
 10
10.0
 20
30.0
 30
0.0
100
AcDbTable
342
       65C
343
218
 11
1.0
 21
0.0
 31
0.0
 90
22
 91
1
 92
3
 93
0
 94
0
 95
0
 96
0
141
20.0
142
85.0
142
20.0
142
85.0
171
1
172
0
173
0
174
0
175
1
176
1
 91
57
178
0
145
0.0
  7
TEXTSTYLE_5
301
CELL_VALUE
 90
4
  2
                                                                     Ammeraal Beltech Modular A/S\P\H1.5;                                                                      Hjulmagervej 21,  7100 Vejle,  DK\P\H1.495;                                
  1
                                      tel: \H1.51;+45 75723100     fax: +45 75723348\P\H1.5;                                                                      admin@unichains.dk  www.unichains.com
304
ACVALUE_END
170
4
140
1.52
 64
5
171
1
172
0
173
0
174
0
175
1
176
1
 91
57
178
0
145
0.0
  7
TEXTSTYLE_6
301
CELL_VALUE
 90
4
  1
1:1
304
ACVALUE_END
170
8
140
5.0
 64
5
171
1
172
0
173
0
174
0
175
1
176
1
 91
57
178
0
145
0.0
  7
TEXTSTYLE_7
301
CELL_VALUE
 90
4
  1
uni 1706
304
ACVALUE_END
170
7
140
7.5
 64
5
  0
LINE
  5
34A
100
AcDbEntity
  8
0
100
AcDbLine
 62
7
  6
CONTINUOUS
 10
210.0
 20
0.0
 11
0.0
 21
0.0
  0
LINE
  5
34B
100
AcDbEntity
  8
0
100
AcDbLine
 62
7
  6
CONTINUOUS
 10
10.0
 20
10.0
 11
200.0
 21
10.0
  0
LINE
  5
34C
100
AcDbEntity
  8
0
100
AcDbLine
 62
7
  6
CONTINUOUS
 10
10.0
 20
30.0
 11
200.0
 21
30.0
  0
LINE
  5
34D
100
AcDbEntity
  8
0
100
AcDbLine
 62
7
  6
CONTINUOUS
 10
0.0
 20
0.0
 11
0.0
 21
297.0
  0
LINE
  5
34E
100
AcDbEntity
  8
0
100
AcDbLine
 62
7
  6
CONTINUOUS
 10
10.0
 20
10.0
 11
10.0
 21
287.0
  0
LINE
  5
34F
100
AcDbEntity
  8
0
100
AcDbLine
 62
7
  6
CONTINUOUS
 10
200.0
 20
287.0
 11
200.0
 21
10.0
  0
LINE
  5
350
100
AcDbEntity
  8
0
100
AcDbLine
 62
7
  6
CONTINUOUS
 10
210.0
 20
0.0
 11
210.0
 21
297.0
  0
LINE
  5
351
100
AcDbEntity
  8
0
100
AcDbLine
 62
7
  6
CONTINUOUS
 10
10.0
 20
287.0
 11
200.0
 21
287.0
  0
LINE
  5
352
100
AcDbEntity
  8
0
100
AcDbLine
 62
7
  6
CONTINUOUS
 10
0.0
 20
297.0
 11
210.0
 21
297.0
  0
LINE
  5
353
100
AcDbEntity
  8
2_FEATURE
100
AcDbLine
 62
7
  6
CONTINUOUS
 10
44.1109375
 20
107.0716068709
 11
44.1109375
 21
157.4711917945
  0
LINE
  5
354
100
AcDbEntity
  8
2_FEATURE
100
AcDbLine
 62
7
  6
CONTINUOUS
 10
52.4109375
 20
152.1711917945
 11
52.4109375
 21
142.4344967897
  0
LINE
  5
355
100
AcDbEntity
  8
DEFAULT_1
100
AcDbLine
 62
2
  6
CENTER
 10
38.0173704498
 20
96.6711917945
 11
102.1693704498
 21
96.6711917945
  0
LINE
  5
356
100
AcDbEntity
  8
2_FEATURE
100
AcDbLine
 62
7
  6
CONTINUOUS
 10
45.4268972133
 20
105.1922216293
 11
53.8135923463
 21
102.1397142371
  0
LINE
  5
357
100
AcDbEntity
  8
2_FEATURE
100
AcDbLine
 62
7
  6
CONTINUOUS
 10
52.4790858474
 20
141.9168586995
 11
52.5336760851
 21
141.7131251587
  0
LINE
  5
358
100
AcDbEntity
  8
DEFAULT_1
100
AcDbLine
 62
2
  6
CENTER
 10
70.7109375
 20
161.6474511879
 11
70.7109375
 21
73.5374511879
  0
LINE
  5
359
100
AcDbEntity
  8
0
100
AcDbLine
 62
7
  6
CONTINUOUS
 10
88.9427891526
 20
141.9168586995
 11
88.8881989149
 21
141.7131251587
  0
LINE
  5
35A
100
AcDbEntity
  8
0
100
AcDbLine
 62
7
  6
CONTINUOUS
 10
95.9949777867
 20
105.1922216293
 11
87.6082826537
 21
102.1397142371
  0
LINE
  5
35B
100
AcDbEntity
  8
DEFAULT_1
100
AcDbLine
 62
2
  6
CENTER
 10
60.5954077338
 20
118.5711917945
 11
82.5074077338
 21
118.5711917945
  0
LINE
  5
35C
100
AcDbEntity
  8
0
100
AcDbLine
 62
7
  6
CONTINUOUS
 10
89.0109375
 20
152.1711917945
 11
89.0109375
 21
142.4344967897
  0
LINE
  5
35D
100
AcDbEntity
  8
0
100
AcDbLine
 62
7
  6
CONTINUOUS
 10
97.3109375
 20
107.0716068709
 11
97.3109375
 21
157.4711917945
  0
LINE
  5
35E
100
AcDbEntity
  8
DEFAULT_1
100
AcDbLine
 62
2
  6
CENTER
 10
38.3391204498
 20
146.9211917945
 11
102.4333704498
 21
146.9211917945
  0
LINE
  5
35F
100
AcDbEntity
  8
0
100
AcDbLine
 62
7
  6
CONTINUOUS
 10
96.3109375
 20
158.4711917945
 11
93.4594673356
 21
158.4711917945
  0
LINE
  5
360
100
AcDbEntity
  8
2_FEATURE
100
AcDbLine
 62
7
  6
CONTINUOUS
 10
45.1109375
 20
158.4711917945
 11
47.9624076644
 21
158.4711917945
  0
LINE
  5
361
100
AcDbEntity
  8
2_FEATURE
100
AcDbLine
 62
7
  6
CONTINUOUS
 10
44.1109375
 20
200.9531250854
 11
44.1109375
 21
221.7352357285
  0
LINE
  5
362
100
AcDbEntity
  8
2_FEATURE
100
AcDbLine
 62
7
  6
CONTINUOUS
 10
44.1109375
 20
222.2910393315
 11
44.1109375
 21
222.9531250854
  0
LINE
  5
363
100
AcDbEntity
  8
0
100
AcDbLine
 62
7
  6
CONTINUOUS
 10
44.1109375
 20
220.2531251962
 11
44.1109375
 21
222.9531250854
  0
LINE
  5
364
100
AcDbEntity
  8
0
100
AcDbLine
 62
7
  6
CONTINUOUS
 10
53.2982761227
 20
223.4961105733
 11
53.2935615957
 21
223.4907925317
  0
LINE
  5
365
100
AcDbEntity
  8
0
100
AcDbLine
 62
7
  6
CONTINUOUS
 10
53.3031369329
 20
223.5015411286
 11
53.2982761227
 21
223.4961105733
  0
LINE
  5
366
100
AcDbEntity
  8
0
100
AcDbLine
 62
7
  6
CONTINUOUS
 10
53.3076094487
 20
223.506491309
 11
53.3031369329
 21
223.5015411286
  0
LINE
  5
367
100
AcDbEntity
  8
0
100
AcDbLine
 62
7
  6
CONTINUOUS
 10
53.3122224459
 20
223.5115507213
 11
53.3076094487
 21
223.506491309
  0
LINE
  5
368
100
AcDbEntity
  8
0
100
AcDbLine
 62
7
  6
CONTINUOUS
 10
53.3169734152
 20
223.5167128776
 11
53.3122224459
 21
223.5115507213
  0
LINE
  5
369
100
AcDbEntity
  8
0
100
AcDbLine
 62
7
  6
CONTINUOUS
 10
53.3218597197
 20
223.5219712092
 11
53.3169734152
 21
223.5167128776
  0
LINE
  5
36A
100
AcDbEntity
  8
0
100
AcDbLine
 62
7
  6
CONTINUOUS
 10
53.3262440973
 20
223.5266459435
 11
53.3218597197
 21
223.5219712092
  0
LINE
  5
36B
100
AcDbEntity
  8
0
100
AcDbLine
 62
7
  6
CONTINUOUS
 10
53.3307280853
 20
223.5313847976
 11
53.3262440973
 21
223.5266459435
  0
LINE
  5
36C
100
AcDbEntity
  8
0
100
AcDbLine
 62
7
  6
CONTINUOUS
 10
53.3353100544
 20
223.5361836622
 11
53.3307280853
 21
223.5313847976
  0
LINE
  5
36D
100
AcDbEntity
  8
0
100
AcDbLine
 62
7
  6
CONTINUOUS
 10
53.3399916446
 20
223.5410418511
 11
53.3353100544
 21
223.5361836622
  0
LINE
  5
36E
100
AcDbEntity
  8
0
100
AcDbLine
 62
7
  6
CONTINUOUS
 10
53.3447763807
 20
223.5459605278
 11
53.3399916446
 21
223.5410418511
  0
LINE
  5
36F
100
AcDbEntity
  8
0
100
AcDbLine
 62
7
  6
CONTINUOUS
 10
53.3496678636
 20
223.5509407785
 11
53.3447763807
 21
223.5459605278
  0
LINE
  5
370
100
AcDbEntity
  8
0
100
AcDbLine
 62
7
  6
CONTINUOUS
 10
53.3546697536
 20
223.5559835891
 11
53.3496678636
 21
223.5509407785
  0
LINE
  5
371
100
AcDbEntity
  8
0
100
AcDbLine
 62
7
  6
CONTINUOUS
 10
53.3597857724
 20
223.5610898407
 11
53.3546697536
 21
223.5559835891
  0
LINE
  5
372
100
AcDbEntity
  8
0
100
AcDbLine
 62
7
  6
CONTINUOUS
 10
53.364264635
 20
223.5655177089
 11
53.3597857724
 21
223.5610898407
  0
LINE
  5
373
100
AcDbEntity
  8
0
100
AcDbLine
 62
7
  6
CONTINUOUS
 10
53.3688325498
 20
223.5699931765
 11
53.364264635
 21
223.5655177089
  0
LINE
  5
374
100
AcDbEntity
  8
0
100
AcDbLine
 62
7
  6
CONTINUOUS
 10
53.3734923913
 20
223.5745170023
 11
53.3688325498
 21
223.5699931765
  0
LINE
  5
375
100
AcDbEntity
  8
0
100
AcDbLine
 62
7
  6
CONTINUOUS
 10
53.378247857
 20
223.5790906157
 11
53.3734923913
 21
223.5745170023
  0
LINE
  5
376
100
AcDbEntity
  8
0
100
AcDbLine
 62
7
  6
CONTINUOUS
 10
53.3831027877
 20
223.583715433
 11
53.378247857
 21
223.5790906157
  0
LINE
  5
377
100
AcDbEntity
  8
0
100
AcDbLine
 62
7
  6
CONTINUOUS
 10
53.3880610836
 20
223.5883927683
 11
53.3831027877
 21
223.583715433
  0
LINE
  5
378
100
AcDbEntity
  8
0
100
AcDbLine
 62
7
  6
CONTINUOUS
 10
53.3931267048
 20
223.5931238283
 11
53.3880610836
 21
223.5883927683
  0
LINE
  5
379
100
AcDbEntity
  8
0
100
AcDbLine
 62
7
  6
CONTINUOUS
 10
53.3983036728
 20
223.5979097069
 11
53.3931267048
 21
223.5931238283
  0
LINE
  5
37A
100
AcDbEntity
  8
0
100
AcDbLine
 62
7
  6
CONTINUOUS
 10
53.4027058134
 20
223.6019405218
 11
53.3983036728
 21
223.5979097069
  0
LINE
  5
37B
100
AcDbEntity
  8
0
100
AcDbLine
 62
7
  6
CONTINUOUS
 10
53.40448965
 20
223.603563811
 11
53.4027058134
 21
223.6019405218
  0
LINE
  5
37C
100
AcDbEntity
  8
2_FEATURE
100
AcDbLine
 62
7
  6
CONTINUOUS
 10
52.7109375
 20
204.9531250854
 11
52.7109375
 21
206.0563258094
  0
LINE
  5
37D
100
AcDbEntity
  8
2_FEATURE
100
AcDbLine
 62
7
  6
CONTINUOUS
 10
52.7109375
 20
217.8499243615
 11
52.7109375
 21
221.9530747345
  0
LINE
  5
37E
100
AcDbEntity
  8
0
100
AcDbLine
 62
7
  6
CONTINUOUS
 10
53.409008046
 20
223.6076496968
 11
53.40448965
 21
223.603563811
  0
LINE
  5
37F
100
AcDbEntity
  8
0
100
AcDbLine
 62
7
  6
CONTINUOUS
 10
53.4136124041
 20
223.6117754213
 11
53.409008046
 21
223.6076496968
  0
LINE
  5
380
100
AcDbEntity
  8
0
100
AcDbLine
 62
7
  6
CONTINUOUS
 10
53.4183048669
 20
223.6159410383
 11
53.4136124041
 21
223.6117754213
  0
LINE
  5
381
100
AcDbEntity
  8
0
100
AcDbLine
 62
7
  6
CONTINUOUS
 10
53.4230844595
 20
223.6201437877
 11
53.4183048669
 21
223.6159410383
  0
LINE
  5
382
100
AcDbEntity
  8
0
100
AcDbLine
 62
7
  6
CONTINUOUS
 10
53.4279484316
 20
223.6243793905
 11
53.4230844595
 21
223.6201437877
  0
LINE
  5
383
100
AcDbEntity
  8
0
100
AcDbLine
 62
7
  6
CONTINUOUS
 10
53.4328939584
 20
223.6286435858
 11
53.4279484316
 21
223.6243793905
  0
LINE
  5
384
100
AcDbEntity
  8
0
100
AcDbLine
 62
7
  6
CONTINUOUS
 10
53.4379181582
 20
223.6329321514
 11
53.4328939584
 21
223.6286435858
  0
LINE
  5
385
100
AcDbEntity
  8
0
100
AcDbLine
 62
7
  6
CONTINUOUS
 10
53.4430180904
 20
223.6372409068
 11
53.4379181582
 21
223.6329321514
  0
LINE
  5
386
100
AcDbEntity
  8
0
100
AcDbLine
 62
7
  6
CONTINUOUS
 10
53.4481907547
 20
223.6415657174
 11
53.4430180904
 21
223.6372409068
  0
LINE
  5
387
100
AcDbEntity
  8
0
100
AcDbLine
 62
7
  6
CONTINUOUS
 10
53.45343309
 20
223.6459024977
 11
53.4481907547
 21
223.6415657174
  0
LINE
  5
388
100
AcDbEntity
  8
0
100
AcDbLine
 62
7
  6
CONTINUOUS
 10
53.4587419732
 20
223.6502472155
 11
53.45343309
 21
223.6459024977
  0
LINE
  5
389
100
AcDbEntity
  8
0
100
AcDbLine
 62
7
  6
CONTINUOUS
 10
53.4641142284
 20
223.6545959372
 11
53.4587419732
 21
223.6502472155
  0
LINE
  5
38A
100
AcDbEntity
  8
0
100
AcDbLine
 62
7
  6
CONTINUOUS
 10
53.4715706927
 20
223.656758722
 11
53.4633711174
 21
223.6501570166
  0
LINE
  5
38B
100
AcDbEntity
  8
0
100
AcDbLine
 62
7
  6
CONTINUOUS
 10
53.4695471853
 20
223.6589453261
 11
53.4641142284
 21
223.6545959372
  0
LINE
  5
38C
100
AcDbEntity
  8
0
100
AcDbLine
 62
7
  6
CONTINUOUS
 10
53.4739367332
 20
223.6624241506
 11
53.4695471853
 21
223.6589453261
  0
LINE
  5
38D
100
AcDbEntity
  8
0
100
AcDbLine
 62
7
  6
CONTINUOUS
 10
53.4801575528
 20
223.6635546597
 11
53.4715706927
 21
223.656758722
  0
LINE
  5
38E
100
AcDbEntity
  8
0
100
AcDbLine
 62
7
  6
CONTINUOUS
 10
53.478364489
 20
223.6659016179
 11
53.4739367332
 21
223.6624241506
  0
LINE
  5
38F
100
AcDbEntity
  8
0
100
AcDbLine
 62
7
  6
CONTINUOUS
 10
53.4828302811
 20
223.6693770397
 11
53.478364489
 21
223.6659016179
  0
LINE
  5
390
100
AcDbEntity
  8
0
100
AcDbLine
 62
7
  6
CONTINUOUS
 10
53.4886087334
 20
223.670127599
 11
53.4801575528
 21
223.6635546597
  0
LINE
  5
391
100
AcDbEntity
  8
0
100
AcDbLine
 62
7
  6
CONTINUOUS
 10
53.4873339301
 20
223.672849729
 11
53.4828302811
 21
223.6693770397
  0
LINE
  5
392
100
AcDbEntity
  8
0
100
AcDbLine
 62
7
  6
CONTINUOUS
 10
53.4918752482
 20
223.6763190008
 11
53.4873339301
 21
223.672849729
  0
LINE
  5
393
100
AcDbEntity
  8
0
100
AcDbLine
 62
7
  6
CONTINUOUS
 10
53.4969279521
 20
223.6764876278
 11
53.4886087334
 21
223.670127599
  0
LINE
  5
394
100
AcDbEntity
  8
0
100
AcDbLine
 62
7
  6
CONTINUOUS
 10
53.4964540398
 20
223.6797841716
 11
53.4918752482
 21
223.6763190008
  0
LINE
  5
395
100
AcDbEntity
  8
0
100
AcDbLine
 62
7
  6
CONTINUOUS
 10
53.5051189425
 20
223.6826443563
 11
53.4969279521
 21
223.6764876278
  0
LINE
  5
396
100
AcDbEntity
  8
0
100
AcDbLine
 62
7
  6
CONTINUOUS
 10
53.5010701006
 20
223.6832445603
 11
53.4964540398
 21
223.6797841716
  0
LINE
  5
397
100
AcDbEntity
  8
0
100
AcDbLine
 62
7
  6
CONTINUOUS
 10
53.5057232183
 20
223.6866994883
 11
53.5010701006
 21
223.6832445603
  0
LINE
  5
398
100
AcDbEntity
  8
0
100
AcDbLine
 62
7
  6
CONTINUOUS
 10
53.5131856813
 20
223.6886071117
 11
53.5051189425
 21
223.6826443563
  0
LINE
  5
399
100
AcDbEntity
  8
0
100
AcDbLine
 62
7
  6
CONTINUOUS
 10
53.5104131721
 20
223.6901482795
 11
53.5057232183
 21
223.6866994883
  0
LINE
  5
39A
100
AcDbEntity
  8
0
100
AcDbLine
 62
7
  6
CONTINUOUS
 10
53.5151397326
 20
223.6935902611
 11
53.5104131721
 21
223.6901482795
  0
LINE
  5
39B
100
AcDbEntity
  8
0
100
AcDbLine
 62
7
  6
CONTINUOUS
 10
53.5211324315
 20
223.6943849829
 11
53.5131856813
 21
223.6886071117
  0
LINE
  5
39C
100
AcDbEntity
  8
0
100
AcDbLine
 62
7
  6
CONTINUOUS
 10
53.519902662
 20
223.6970247632
 11
53.5151397326
 21
223.6935902611
  0
LINE
  5
39D
100
AcDbEntity
  8
0
100
AcDbLine
 62
7
  6
CONTINUOUS
 10
53.5289637464
 20
223.6999868323
 11
53.5211324315
 21
223.6943849829
  0
LINE
  5
39E
100
AcDbEntity
  8
0
100
AcDbLine
 62
7
  6
CONTINUOUS
 10
53.5247017141
 20
223.7004511195
 11
53.519902662
 21
223.6970247632
  0
LINE
  5
39F
100
AcDbEntity
  8
0
100
AcDbLine
 62
7
  6
CONTINUOUS
 10
53.5295366338
 20
223.7038686677
 11
53.5247017141
 21
223.7004511195
  0
LINE
  5
3A0
100
AcDbEntity
  8
0
100
AcDbLine
 62
7
  6
CONTINUOUS
 10
53.5366849438
 20
223.7054216366
 11
53.5289637464
 21
223.6999868323
  0
LINE
  5
3A1
100
AcDbEntity
  8
0
100
AcDbLine
 62
7
  6
CONTINUOUS
 10
53.5344071576
 20
223.7072767493
 11
53.5295366338
 21
223.7038686677
  0
LINE
  5
3A2
100
AcDbEntity
  8
0
100
AcDbLine
 62
7
  6
CONTINUOUS
 10
53.5393130131
 20
223.7106747101
 11
53.5344071576
 21
223.7072767493
  0
LINE
  5
3A3
100
AcDbEntity
  8
0
100
AcDbLine
 62
7
  6
CONTINUOUS
 10
53.5443036602
 20
223.7106995368
 11
53.5366849438
 21
223.7054216366
  0
LINE
  5
3A4
100
AcDbEntity
  8
0
100
AcDbLine
 62
7
  6
CONTINUOUS
 10
53.5442539193
 20
223.7140619005
 11
53.5393130131
 21
223.7106747101
  0
LINE
  5
3A5
100
AcDbEntity
  8
0
100
AcDbLine
 62
7
  6
CONTINUOUS
 10
53.5518283447
 20
223.7158307203
 11
53.5443036602
 21
223.7106995368
  0
LINE
  5
3A6
100
AcDbEntity
  8
0
100
AcDbLine
 62
7
  6
CONTINUOUS
 10
53.5492295865
 20
223.7174376758
 11
53.5442539193
 21
223.7140619005
  0
LINE
  5
3A7
100
AcDbEntity
  8
0
100
AcDbLine
 62
7
  6
CONTINUOUS
 10
53.5542397161
 20
223.7208013964
 11
53.5492295865
 21
223.7174376758
  0
LINE
  5
3A8
100
AcDbEntity
  8
0
100
AcDbLine
 62
7
  6
CONTINUOUS
 10
53.5592677308
 20
223.7208250549
 11
53.5518283447
 21
223.7158307203
  0
LINE
  5
3A9
100
AcDbEntity
  8
0
100
AcDbLine
 62
7
  6
CONTINUOUS
 10
53.5592840008
 20
223.7241524278
 11
53.5542397161
 21
223.7208013964
  0
LINE
  5
3AA
100
AcDbEntity
  8
0
100
AcDbLine
 62
7
  6
CONTINUOUS
 10
53.5666308187
 20
223.7256920912
 11
53.5592677308
 21
223.7208250549
  0
LINE
  5
3AB
100
AcDbEntity
  8
0
100
AcDbLine
 62
7
  6
CONTINUOUS
 10
53.5643621244
 20
223.7274901413
 11
53.5592840008
 21
223.7241524278
  0
LINE
  5
3AC
100
AcDbEntity
  8
0
100
AcDbLine
 62
7
  6
CONTINUOUS
 10
53.5739268582
 20
223.7304410647
 11
53.5666308187
 21
223.7256920912
  0
LINE
  5
3AD
100
AcDbEntity
  8
0
100
AcDbLine
 62
7
  6
CONTINUOUS
 10
53.569473762
 20
223.7308139141
 11
53.5643621244
 21
223.7274901413
  0
LINE
  5
3AE
100
AcDbEntity
  8
0
100
AcDbLine
 62
7
  6
CONTINUOUS
 10
53.5746185798
 20
223.7341231295
 11
53.569473762
 21
223.7308139141
  0
LINE
  5
3AF
100
AcDbEntity
  8
0
100
AcDbLine
 62
7
  6
CONTINUOUS
 10
53.5811653331
 20
223.7350808972
 11
53.5739268582
 21
223.7304410647
  0
LINE
  5
3B0
100
AcDbEntity
  8
0
100
AcDbLine
 62
7
  6
CONTINUOUS
 10
53.5797962354
 20
223.7374171769
 11
53.5746185798
 21
223.7341231295
  0
LINE
  5
3B1
100
AcDbEntity
  8
0
100
AcDbLine
 62
7
  6
CONTINUOUS
 10
53.5883559459
 20
223.7396201988
 11
53.5811653331
 21
223.7350808972
  0
LINE
  5
3B2
100
AcDbEntity
  8
0
100
AcDbLine
 62
7
  6
CONTINUOUS
 10
53.5850063772
 20
223.7406954526
 11
53.5797962354
 21
223.7374171769
  0
LINE
  5
3B3
100
AcDbEntity
  8
0
100
AcDbLine
 62
7
  6
CONTINUOUS
 10
53.5902486451
 20
223.7439573597
 11
53.5850063772
 21
223.7406954526
  0
LINE
  5
3B4
100
AcDbEntity
  8
0
100
AcDbLine
 62
7
  6
CONTINUOUS
 10
53.5955082135
 20
223.7440670281
 11
53.5883559459
 21
223.7396201988
  0
LINE
  5
3B5
100
AcDbEntity
  8
0
100
AcDbLine
 62
7
  6
CONTINUOUS
 10
53.5955226701
 20
223.7472023082
 11
53.5902486451
 21
223.7439573597
  0
LINE
  5
3B6
100
AcDbEntity
  8
0
100
AcDbLine
 62
7
  6
CONTINUOUS
 10
53.6026262168
 20
223.7484257288
 11
53.5955082135
 21
223.7440670281
  0
LINE
  5
3B7
100
AcDbEntity
  8
0
100
AcDbLine
 62
7
  6
CONTINUOUS
 10
53.6008280746
 20
223.7504297158
 11
53.5955226701
 21
223.7472023082
  0
LINE
  5
3B8
100
AcDbEntity
  8
0
100
AcDbLine
 62
7
  6
CONTINUOUS
 10
53.6097099139
 20
223.7526979811
 11
53.6026262168
 21
223.7484257288
  0
LINE
  5
3B9
100
AcDbEntity
  8
0
100
AcDbLine
 62
7
  6
CONTINUOUS
 10
53.606164472
 20
223.7536390073
 11
53.6008280746
 21
223.7504297158
  0
LINE
  5
3BA
100
AcDbEntity
  8
0
100
AcDbLine
 62
7
  6
CONTINUOUS
 10
53.6115314673
 20
223.7568296157
 11
53.606164472
 21
223.7536390073
  0
LINE
  5
3BB
100
AcDbEntity
  8
0
100
AcDbLine
 62
7
  6
CONTINUOUS
 10
53.6167592038
 20
223.7568853906
 11
53.6097099139
 21
223.7526979811
  0
LINE
  5
3BC
100
AcDbEntity
  8
0
100
AcDbLine
 62
7
  6
CONTINUOUS
 10
53.6169286565
 20
223.7600009819
 11
53.6115314673
 21
223.7568296157
  0
LINE
  5
3BD
100
AcDbEntity
  8
0
100
AcDbLine
 62
7
  6
CONTINUOUS
 10
53.6237740258
 20
223.7609895504
 11
53.6167592038
 21
223.7568853906
  0
LINE
  5
3BE
100
AcDbEntity
  8
0
100
AcDbLine
 62
7
  6
CONTINUOUS
 10
53.6223556273
 20
223.7631525548
 11
53.6169286565
 21
223.7600009819
  0
LINE
  5
3BF
100
AcDbEntity
  8
0
100
AcDbLine
 62
7
  6
CONTINUOUS
 10
53.630754359
 20
223.7650120398
 11
53.6237740258
 21
223.7609895504
  0
LINE
  5
3C0
100
AcDbEntity
  8
0
100
AcDbLine
 62
7
  6
CONTINUOUS
 10
53.6278119586
 20
223.7662837923
 11
53.6223556273
 21
223.7631525548
  0
LINE
  5
3C1
100
AcDbEntity
  8
0
100
AcDbLine
 62
7
  6
CONTINUOUS
 10
53.6377002204
 20
223.768954423
 11
53.630754359
 21
223.7650120398
  0
LINE
  5
3C2
100
AcDbEntity
  8
0
100
AcDbLine
 62
7
  6
CONTINUOUS
 10
53.633297221
 20
223.7693941605
 11
53.6278119586
 21
223.7662837923
  0
LINE
  5
3C3
100
AcDbEntity
  8
0
100
AcDbLine
 62
7
  6
CONTINUOUS
 10
53.6388109764
 20
223.7724831346
 11
53.633297221
 21
223.7693941605
  0
LINE
  5
3C4
100
AcDbEntity
  8
0
100
AcDbLine
 62
7
  6
CONTINUOUS
 10
53.6446116646
 20
223.7728182481
 11
53.6377002204
 21
223.768954423
  0
LINE
  5
3C5
100
AcDbEntity
  8
0
100
AcDbLine
 62
7
  6
CONTINUOUS
 10
53.6443527784
 20
223.775550199
 11
53.6388109764
 21
223.7724831346
  0
LINE
  5
3C6
100
AcDbEntity
  8
0
100
AcDbLine
 62
7
  6
CONTINUOUS
 10
53.6514887818
 20
223.7766050464
 11
53.6446116646
 21
223.7728182481
  0
LINE
  5
3C7
100
AcDbEntity
  8
0
100
AcDbLine
 62
7
  6
CONTINUOUS
 10
53.6499221723
 20
223.7785948471
 11
53.6443527784
 21
223.775550199
  0
LINE
  5
3C8
100
AcDbEntity
  8
0
100
AcDbLine
 62
7
  6
CONTINUOUS
 10
53.6583316977
 20
223.7803163311
 11
53.6514887818
 21
223.7766050464
  0
LINE
  5
3C9
100
AcDbEntity
  8
0
100
AcDbLine
 62
7
  6
CONTINUOUS
 10
53.6555186951
 20
223.7816165821
 11
53.6499221723
 21
223.7785948471
  0
LINE
  5
3CA
100
AcDbEntity
  8
0
100
AcDbLine
 62
7
  6
CONTINUOUS
 10
53.6651405713
 20
223.7839535969
 11
53.6583316977
 21
223.7803163311
  0
LINE
  5
3CB
100
AcDbEntity
  8
0
100
AcDbLine
 62
7
  6
CONTINUOUS
 10
53.6611418754
 20
223.7846149166
 11
53.6555186951
 21
223.7816165821
  0
LINE
  5
3CC
100
AcDbEntity
  8
0
100
AcDbLine
 62
7
  6
CONTINUOUS
 10
53.6719155949
 20
223.7875183189
 11
53.6651405713
 21
223.7839535969
  0
LINE
  5
3CD
100
AcDbEntity
  8
0
100
AcDbLine
 62
7
  6
CONTINUOUS
 10
53.6667912633
 20
223.7875893887
 11
53.6611418754
 21
223.7846149166
  0
LINE
  5
3CE
100
AcDbEntity
  8
0
100
AcDbLine
 62
7
  6
CONTINUOUS
 10
53.6724668472
 20
223.790539776
 11
53.6667912633
 21
223.7875893887
  0
LINE
  5
3CF
100
AcDbEntity
  8
0
100
AcDbLine
 62
7
  6
CONTINUOUS
 10
53.6786569922
 20
223.791011952
 11
53.6719155949
 21
223.7875183189
  0
LINE
  5
3D0
100
AcDbEntity
  8
0
100
AcDbLine
 62
7
  6
CONTINUOUS
 10
53.6781689578
 20
223.7934660327
 11
53.6724668472
 21
223.790539776
  0
LINE
  5
3D1
100
AcDbEntity
  8
0
100
AcDbLine
 62
7
  6
CONTINUOUS
 10
53.6853650176
 20
223.7944359306
 11
53.6786569922
 21
223.791011952
  0
LINE
  5
3D2
100
AcDbEntity
  8
0
100
AcDbLine
 62
7
  6
CONTINUOUS
 10
53.6838979308
 20
223.7963681078
 11
53.6781689578
 21
223.7934660327
  0
LINE
  5
3D3
100
AcDbEntity
  8
0
100
AcDbLine
 62
7
  6
CONTINUOUS
 10
53.6920399551
 20
223.7977916678
 11
53.6853650176
 21
223.7944359306
  0
LINE
  5
3D4
100
AcDbEntity
  8
0
100
AcDbLine
 62
7
  6
CONTINUOUS
 10
53.6896540986
 20
223.799245941
 11
53.6838979308
 21
223.7963681078
  0
LINE
  5
3D5
100
AcDbEntity
  8
0
100
AcDbLine
 62
7
  6
CONTINUOUS
 10
53.6986821174
 20
223.8010805546
 11
53.6920399551
 21
223.7977916678
  0
LINE
  5
3D6
100
AcDbEntity
  8
0
100
AcDbLine
 62
7
  6
CONTINUOUS
 10
53.6954377898
 20
223.8020994632
 11
53.6896540986
 21
223.799245941
  0
LINE
  5
3D7
100
AcDbEntity
  8
0
100
AcDbLine
 62
7
  6
CONTINUOUS
 10
53.7052918447
 20
223.8043039603
 11
53.6986821174
 21
223.8010805546
  0
LINE
  5
3D8
100
AcDbEntity
  8
0
100
AcDbLine
 62
7
  6
CONTINUOUS
 10
53.7012493294
 20
223.8049285957
 11
53.6954377898
 21
223.8020994632
  0
LINE
  5
3D9
100
AcDbEntity
  8
0
100
AcDbLine
 62
7
  6
CONTINUOUS
 10
53.7118695039
 20
223.8074632313
 11
53.7052918447
 21
223.8043039603
  0
LINE
  5
3DA
100
AcDbEntity
  8
0
100
AcDbLine
 62
7
  6
CONTINUOUS
 10
53.707089038
 20
223.8077332512
 11
53.7012493294
 21
223.8049285957
  0
LINE
  5
3DB
100
AcDbEntity
  8
0
100
AcDbLine
 62
7
  6
CONTINUOUS
 10
53.7129572316
 20
223.8105133329
 11
53.707089038
 21
223.8077332512
  0
LINE
  5
3DC
100
AcDbEntity
  8
0
100
AcDbLine
 62
7
  6
CONTINUOUS
 10
53.7184154874
 20
223.8105596912
 11
53.7118695039
 21
223.8074632313
  0
LINE
  5
3DD
100
AcDbEntity
  8
0
100
AcDbLine
 62
7
  6
CONTINUOUS
 10
53.7188542213
 20
223.813268735
 11
53.7129572316
 21
223.8105133329
  0
LINE
  5
3DE
100
AcDbEntity
  8
0
100
AcDbLine
 62
7
  6
CONTINUOUS
 10
53.7249302123
 20
223.8135946403
 11
53.7184154874
 21
223.8105596912
  0
LINE
  5
3DF
100
AcDbEntity
  8
0
100
AcDbLine
 62
7
  6
CONTINUOUS
 10
53.7247803134
 20
223.815999343
 11
53.7188542213
 21
223.813268735
  0
LINE
  5
3E0
100
AcDbEntity
  8
0
100
AcDbLine
 62
7
  6
CONTINUOUS
 10
53.7314141194
 20
223.8165693557
 11
53.7249302123
 21
223.8135946403
  0
LINE
  5
3E1
100
AcDbEntity
  8
0
100
AcDbLine
 62
7
  6
CONTINUOUS
 10
53.7307358108
 20
223.8187050342
 11
53.7247803134
 21
223.815999343
  0
LINE
  5
3E2
100
AcDbEntity
  8
0
100
AcDbLine
 62
7
  6
CONTINUOUS
 10
53.7378676722
 20
223.8194850907
 11
53.7314141194
 21
223.8165693557
  0
LINE
  5
3E3
100
AcDbEntity
  8
0
100
AcDbLine
 62
7
  6
CONTINUOUS
 10
53.7367210082
 20
223.8213856762
 11
53.7307358108
 21
223.8187050342
  0
LINE
  5
3E4
100
AcDbEntity
  8
0
100
AcDbLine
 62
7
  6
CONTINUOUS
 10
53.7442913565
 20
223.8223430746
 11
53.7378676722
 21
223.8194850907
  0
LINE
  5
3E5
100
AcDbEntity
  8
0
100
AcDbLine
 62
7
  6
CONTINUOUS
 10
53.7427361933
 20
223.824041127
 11
53.7367210082
 21
223.8213856762
  0
LINE
  5
3E6
100
AcDbEntity
  8
0
100
AcDbLine
 62
7
  6
CONTINUOUS
 10
53.7506856785
 20
223.8251445132
 11
53.7442913565
 21
223.8223430746
  0
LINE
  5
3E7
100
AcDbEntity
  8
0
100
AcDbLine
 62
7
  6
CONTINUOUS
 10
53.748781647
 20
223.8266712363
 11
53.7427361933
 21
223.824041127
  0
LINE
  5
3E8
100
AcDbEntity
  8
0
100
AcDbLine
 62
7
  6
CONTINUOUS
 10
53.7570511376
 20
223.8278905761
 11
53.7506856785
 21
223.8251445132
  0
LINE
  5
3E9
100
AcDbEntity
  8
0
100
AcDbLine
 62
7
  6
CONTINUOUS
 10
53.7518158104
 20
223.8279767383
 11
53.748781647
 21
223.8266712363
  0
LINE
  5
3EA
100
AcDbEntity
  8
2_FEATURE
100
AcDbLine
 62
7
  6
CONTINUOUS
 10
55.5991044437
 20
211.5669150388
 11
55.5991044437
 21
212.3393351323
  0
LWPOLYLINE
  5
3EB
100
AcDbEntity
  8
2_FEATURE
100
AcDbPolyline
 62
7
  6
CONTINUOUS
 90
50
 70
0
 10
55.599104417
 20
211.5669150388
 10
55.5980148108
 20
211.4288713977
 10
55.5942613593
 20
211.2758674632
 10
55.5878320905
 20
211.1229942161
 10
55.5787370643
 20
210.9704057928
 10
55.5669914859
 20
210.8182550897
 10
55.5526199045
 20
210.6667036849
 10
55.5356531746
 20
210.515915866
 10
55.5161299047
 20
210.3660516756
 10
55.4940956797
 20
210.217272343
 10
55.4696026198
 20
210.0697368701
 10
55.4427087792
 20
209.923596788
 10
55.4134846287
 20
209.7790381251
 10
55.3820052914
 20
209.6362240421
 10
55.3483639805
 20
209.4953700939
 10
55.312661226
 20
209.3566728659
 10
55.2750066721
 20
209.2203355911
 10
55.2355135656
 20
209.0865359182
 10
55.1943245153
 20
208.9555233784
 10
55.1515814519
 20
208.8275031048
 10
55.1074566395
 20
208.7027383836
 10
55.0621263093
 20
208.5814624862
 10
55.0157741859
 20
208.4638948513
 10
54.9685959265
 20
208.3502541011
 10
54.920769598
 20
208.2406884842
 10
54.8724836491
 20
208.1353528625
 10
54.8239207525
 20
208.0343696006
 10
54.7752585723
 20
207.9378381795
 10
54.7267094289
 20
207.8459097339
 10
54.6784375989
 20
207.7586283678
 10
54.6307712116
 20
207.6763092131
 10
54.583980517
 20
207.5991179066
 10
54.5383952171
 20
207.5272773292
 10
54.4943288956
 20
207.4609370289
 10
54.4520457734
 20
207.4001343234
 10
54.4118641993
 20
207.344951006
 10
54.373839318
 20
207.2950894316
 10
54.3381002116
 20
207.2503633146
 10
54.3046803343
 20
207.2104747586
 10
54.2736234516
 20
207.1751550481
 10
54.245011848
 20
207.1441889578
 10
54.218900606
 20
207.1173355293
 10
54.1954084956
 20
207.0944192457
 10
54.1746338634
 20
207.0752367128
 10
54.1566708286
 20
207.0595739411
 10
54.1416182914
 20
207.0472132497
 10
54.1295427005
 20
207.0379033305
 10
54.1205204741
 20
207.031395328
 10
54.1146080365
 20
207.0274197964
 10
54.1131716819
 20
207.0265057557
  0
LINE
  5
3EC
100
AcDbEntity
  8
0
100
AcDbLine
 62
7
  6
CONTINUOUS
 10
53.7579071779
 20
223.8305685335
 11
53.7518158104
 21
223.8279767383
  0
LINE
  5
3ED
100
AcDbEntity
  8
0
100
AcDbLine
 62
7
  6
CONTINUOUS
 10
53.7633878599
 20
223.8305822444
 11
53.7570511376
 21
223.8278905761
  0
LINE
  5
3EE
100
AcDbEntity
  8
0
100
AcDbLine
 62
7
  6
CONTINUOUS
 10
53.7640294841
 20
223.8331345728
 11
53.7579071779
 21
223.8305685335
  0
LINE
  5
3EF
100
AcDbEntity
  8
0
100
AcDbLine
 62
7
  6
CONTINUOUS
 10
53.7696957588
 20
223.8332203897
 11
53.7633878599
 21
223.8305822444
  0
LINE
  5
3F0
100
AcDbEntity
  8
0
100
AcDbLine
 62
7
  6
CONTINUOUS
 10
53.7701830196
 20
223.835674712
 11
53.7640294841
 21
223.8331345728
  0
LINE
  5
3F1
100
AcDbEntity
  8
0
100
AcDbLine
 62
7
  6
CONTINUOUS
 10
53.7759747766
 20
223.8358058908
 11
53.7696957588
 21
223.8332203897
  0
LINE
  5
3F2
100
AcDbEntity
  8
0
100
AcDbLine
 62
7
  6
CONTINUOUS
 10
53.7763681402
 20
223.8381888693
 11
53.7701830196
 21
223.835674712
  0
LINE
  5
3F3
100
AcDbEntity
  8
0
100
AcDbLine
 62
7
  6
CONTINUOUS
 10
53.7822249521
 20
223.8383396955
 11
53.7759747766
 21
223.8358058908
  0
LINE
  5
3F4
100
AcDbEntity
  8
0
100
AcDbLine
 62
7
  6
CONTINUOUS
 10
53.7825852042
 20
223.8406769646
 11
53.7763681402
 21
223.8381888693
  0
LINE
  5
3F5
100
AcDbEntity
  8
0
100
AcDbLine
 62
7
  6
CONTINUOUS
 10
53.7884463642
 20
223.8408227652
 11
53.7822249521
 21
223.8383396955
  0
LINE
  5
3F6
100
AcDbEntity
  8
0
100
AcDbLine
 62
7
  6
CONTINUOUS
 10
53.7888345639
 20
223.8431389132
 11
53.7825852042
 21
223.8406769646
  0
LINE
  5
3F7
100
AcDbEntity
  8
0
100
AcDbLine
 62
7
  6
CONTINUOUS
 10
53.794639104
 20
223.8432560484
 11
53.7884463642
 21
223.8408227652
  0
LINE
  5
3F8
100
AcDbEntity
  8
0
100
AcDbLine
 62
7
  6
CONTINUOUS
 10
53.7951165647
 20
223.8455746253
 11
53.7888345639
 21
223.8431389132
  0
LINE
  5
3F9
100
AcDbEntity
  8
0
100
AcDbLine
 62
7
  6
CONTINUOUS
 10
53.8008032736
 20
223.8456404808
 11
53.794639104
 21
223.8432560484
  0
LINE
  5
3FA
100
AcDbEntity
  8
0
100
AcDbLine
 62
7
  6
CONTINUOUS
 10
53.8014315451
 20
223.8479840065
 11
53.7951165647
 21
223.8455746253
  0
LINE
  5
3FB
100
AcDbEntity
  8
0
100
AcDbLine
 62
7
  6
CONTINUOUS
 10
53.8069389861
 20
223.8479769854
 11
53.8008032736
 21
223.8456404808
  0
LINE
  5
3FC
100
AcDbEntity
  8
0
100
AcDbLine
 62
7
  6
CONTINUOUS
 10
53.8077798363
 20
223.8503669583
 11
53.8014315451
 21
223.8479840065
  0
LWPOLYLINE
  5
3FD
100
AcDbEntity
  8
0
100
AcDbPolyline
 62
7
  6
CONTINUOUS
 90
3
 70
0
 10
53.8160894708
 20
223.8513938641
 10
53.8130463651
 20
223.8502664719
 10
53.8069389861
 20
223.8479769854
  0
LINE
  5
3FE
100
AcDbEntity
  8
0
100
AcDbLine
 62
7
  6
CONTINUOUS
 10
53.8141617619
 20
223.8527233778
 11
53.8077798363
 21
223.8503669583
  0
LINE
  5
3FF
100
AcDbEntity
  8
0
100
AcDbLine
 62
7
  6
CONTINUOUS
 10
53.8205776372
 20
223.8550531586
 11
53.8141617619
 21
223.8527233778
  0
LINE
  5
400
100
AcDbEntity
  8
0
100
AcDbLine
 62
7
  6
CONTINUOUS
 10
53.827027769
 20
223.8573561906
 11
53.8205776372
 21
223.8550531586
  0
LINE
  5
401
100
AcDbEntity
  8
0
100
AcDbLine
 62
7
  6
CONTINUOUS
 10
53.8335124555
 20
223.8596323605
 11
53.827027769
 21
223.8573561906
  0
LINE
  5
402
100
AcDbEntity
  8
0
100
AcDbLine
 62
7
  6
CONTINUOUS
 10
53.8400319852
 20
223.8618815519
 11
53.8335124555
 21
223.8596323605
  0
LINE
  5
403
100
AcDbEntity
  8
0
100
AcDbLine
 62
7
  6
CONTINUOUS
 10
53.8465866372
 20
223.8641036459
 11
53.8400319852
 21
223.8618815519
  0
LINE
  5
404
100
AcDbEntity
  8
0
100
AcDbLine
 62
7
  6
CONTINUOUS
 10
53.8531766802
 20
223.8662985214
 11
53.8465866372
 21
223.8641036459
  0
LINE
  5
405
100
AcDbEntity
  8
0
100
AcDbLine
 62
7
  6
CONTINUOUS
 10
53.8598023724
 20
223.868466055
 11
53.8531766802
 21
223.8662985214
  0
LINE
  5
406
100
AcDbEntity
  8
0
100
AcDbLine
 62
7
  6
CONTINUOUS
 10
53.8664639609
 20
223.8706061219
 11
53.8598023724
 21
223.868466055
  0
LINE
  5
407
100
AcDbEntity
  8
0
100
AcDbLine
 62
7
  6
CONTINUOUS
 10
53.8731616812
 20
223.8727185959
 11
53.8664639609
 21
223.8706061219
  0
LINE
  5
408
100
AcDbEntity
  8
0
100
AcDbLine
 62
7
  6
CONTINUOUS
 10
53.8798957793
 20
223.8748033568
 11
53.8731616812
 21
223.8727185959
  0
LINE
  5
409
100
AcDbEntity
  8
0
100
AcDbLine
 62
7
  6
CONTINUOUS
 10
53.8866672445
 20
223.8768605105
 11
53.8798957793
 21
223.8748033568
  0
LINE
  5
40A
100
AcDbEntity
  8
0
100
AcDbLine
 62
7
  6
CONTINUOUS
 10
53.8934779363
 20
223.878890406
 11
53.8866672445
 21
223.8768605105
  0
LINE
  5
40B
100
AcDbEntity
  8
0
100
AcDbLine
 62
7
  6
CONTINUOUS
 10
53.900329756
 20
223.8808933704
 11
53.8934779363
 21
223.878890406
  0
LINE
  5
40C
100
AcDbEntity
  8
0
100
AcDbLine
 62
7
  6
CONTINUOUS
 10
53.9054967487
 20
223.8823780963
 11
53.900329756
 21
223.8808933704
  0
LINE
  5
40D
100
AcDbEntity
  8
0
100
AcDbLine
 62
7
  6
CONTINUOUS
 10
96.3109375
 20
199.9531250854
 11
61.0559296169
 21
199.9531250854
  0
LINE
  5
40E
100
AcDbEntity
  8
2_FEATURE
100
AcDbLine
 62
7
  6
CONTINUOUS
 10
45.1109375
 20
199.9531250854
 11
61.0559296169
 21
199.9531250854
  0
LINE
  5
40F
100
AcDbEntity
  8
2_FEATURE
100
AcDbLine
 62
7
  6
CONTINUOUS
 10
54.1620487114
 20
207.0642631571
 11
53.6934876049
 21
207.0560843926
  0
LINE
  5
410
100
AcDbEntity
  8
0
100
AcDbLine
 62
7
  6
CONTINUOUS
 10
97.0109375
 20
205.9531250854
 11
93.3172651718
 21
205.9531250854
  0
LINE
  5
411
100
AcDbEntity
  8
2_FEATURE
100
AcDbLine
 62
7
  6
CONTINUOUS
 10
44.4109375
 20
205.9531250854
 11
48.1046098282
 21
205.9531250854
  0
LINE
  5
412
100
AcDbEntity
  8
0
100
AcDbLine
 62
7
  6
CONTINUOUS
 10
87.7283873951
 20
207.0560843926
 11
87.2598263961
 21
207.0642631552
  0
LWPOLYLINE
  5
413
100
AcDbEntity
  8
2_FEATURE
100
AcDbPolyline
 62
7
  6
CONTINUOUS
 90
51
 70
0
 10
54.1132157485
 20
216.8798153777
 10
54.1118858557
 20
216.8805333928
 10
54.1146692354
 20
216.878790855
 10
54.1206253769
 20
216.8747818965
 10
54.1296900297
 20
216.8682370504
 10
54.1418069514
 20
216.8588868584
 10
54.1568993773
 20
216.8464828639
 10
54.1749004958
 20
216.8307742153
 10
54.1957110996
 20
216.8115437162
 10
54.2192366774
 20
216.7885779979
 10
54.2453786471
 20
216.7616741869
 10
54.2740177873
 20
216.7306575834
 10
54.3050994113
 20
216.6952871087
 10
54.3385413795
 20
216.655347633
 10
54.3743003275
 20
216.6105701444
 10
54.412343305
 20
216.5606561963
 10
54.4525411618
 20
216.5054196693
 10
54.4948390261
 20
216.4445625299
 10
54.5389180788
 20
216.3781674259
 10
54.5845138093
 20
216.3062723094
 10
54.6313123833
 20
216.2290274255
 10
54.6789837603
 20
216.1466565993
 10
54.7272577259
 20
216.0593258017
 10
54.7758060309
 20
215.9673508873
 10
54.8244646599
 20
215.8707758184
 10
54.8730214909
 20
215.7697517355
 10
54.9212990109
 20
215.6643781431
 10
54.9691147379
 20
215.5547773312
 10
55.0162803541
 20
215.4411042275
 10
55.0626179437
 20
215.3235070395
 10
55.1079319994
 20
215.2022044383
 10
55.1520389323
 20
215.0774158472
 10
55.1947626879
 20
214.9493745064
 10
55.2359311499
 20
214.8183436352
 10
55.2754025585
 20
214.6845282831
 10
55.313034464
 20
214.5481778298
 10
55.3487137371
 20
214.4094699222
 10
55.3823308604
 20
214.2686077392
 10
55.4137854188
 20
214.1257878141
 10
55.4429843336
 20
213.981225666
 10
55.4698525866
 20
213.8350843291
 10
55.494319849
 20
213.6875497305
 10
55.5163281466
 20
213.5387732844
 10
55.5358254909
 20
213.3889138781
 10
55.5527663616
 20
213.2381326354
 10
55.5671122665
 20
213.0865895285
 10
55.5788324113
 20
212.9344486928
 10
55.5879023483
 20
212.7818715468
 10
55.5943069231
 20
212.6290107389
 10
55.5980361455
 20
212.4760202937
 10
55.5991044171
 20
212.3393351323
  0
LINE
  5
414
100
AcDbEntity
  8
DEFAULT_1
100
AcDbLine
 62
2
  6
CENTER
 10
70.7109375
 20
226.5012425559
 11
70.7109375
 21
213.9532250854
  0
LINE
  5
415
100
AcDbEntity
  8
0
100
AcDbLine
 62
2
  6
CONTINUOUS
 10
70.7109375
 20
212.8331250854
 11
70.7109375
 21
211.0731250854
  0
LINE
  5
416
100
AcDbEntity
  8
DEFAULT_1
100
AcDbLine
 62
2
  6
CENTER
 10
70.7109375
 20
197.0461817559
 11
70.7109375
 21
209.9530250854
  0
LINE
  5
417
100
AcDbEntity
  8
DEFAULT_1
100
AcDbLine
 62
2
  6
CENTER
 10
99.8168687124
 20
211.9531250854
 11
72.7110375
 21
211.9531250854
  0
LINE
  5
418
100
AcDbEntity
  8
0
100
AcDbLine
 62
2
  6
CONTINUOUS
 10
71.5909375
 20
211.9531250854
 11
69.8309375
 21
211.9531250854
  0
LINE
  5
419
100
AcDbEntity
  8
DEFAULT_1
100
AcDbLine
 62
2
  6
CENTER
 10
41.5973077524
 20
211.9531250854
 11
68.7108375
 21
211.9531250854
  0
LWPOLYLINE
  5
41A
100
AcDbEntity
  8
0
100
AcDbPolyline
 62
7
  6
CONTINUOUS
 90
52
 70
0
 10
87.3086108578
 20
207.0264604601
 10
87.3094895891
 20
207.0259880978
 10
87.3100058197
 20
207.0257068389
 10
87.307268246
 20
207.0274189686
 10
87.3013564074
 20
207.0313940203
 10
87.292335639
 20
207.037900843
 10
87.2802640768
 20
207.0472073916
 10
87.2652170993
 20
207.0595630081
 10
87.2472605889
 20
207.0752192661
 10
87.2264914933
 20
207.0943955377
 10
87.2030019213
 20
207.1173079658
 10
87.1768884221
 20
207.144162304
 10
87.1482664214
 20
207.1751385512
 10
87.1171933279
 20
207.2104763169
 10
87.0837520898
 20
207.2503910504
 10
87.0479899981
 20
207.2951479413
 10
87.0099441249
 20
207.3450404645
 10
86.9697455601
 20
207.4002518744
 10
86.9274534808
 20
207.4610732861
 10
86.8833839824
 20
207.5274248681
 10
86.8378007019
 20
207.5992690996
 10
86.7910152284
 20
207.6764586751
 10
86.7433552722
 20
207.7587734778
 10
86.6950899441
 20
207.8460496517
 10
86.6465452831
 20
207.9379760431
 10
86.5978865031
 20
208.0345071671
 10
86.549325992
 20
208.135492041
 10
86.501042051
 20
208.2408300767
 10
86.4532179229
 20
208.3503977151
 10
86.4060422318
 20
208.464039613
 10
86.3596934704
 20
208.5816062917
 10
86.3143669534
 20
208.7028797279
 10
86.2702462809
 20
208.8276406098
 10
86.2275074805
 20
208.95565606
 10
86.1863226237
 20
209.0866632671
 10
86.1468335844
 20
209.2204572165
 10
86.1091828601
 20
209.3567887413
 10
86.0734837442
 20
209.4954800244
 10
86.0398458848
 20
209.6363277953
 10
86.0083698182
 20
209.7791354047
 10
85.9791487644
 20
209.9236871948
 10
85.9522578221
 20
210.069820054
 10
85.9277674465
 20
210.2173479468
 10
85.9057356688
 20
210.3661194059
 10
85.8862145891
 20
210.5159754764
 10
85.8692497782
 20
210.666754977
 10
85.8548798309
 20
210.8182979124
 10
85.8431355929
 20
210.9704400468
 10
85.8340416064
 20
211.1230198539
 10
85.827613074
 20
211.2758844871
 10
85.8238600555
 20
211.4288798693
 10
85.822770583
 20
211.5669150388
  0
LINE
  5
41B
100
AcDbEntity
  8
0
100
AcDbLine
 62
7
  6
CONTINUOUS
 10
87.728387396
 20
216.8501657783
 11
87.2598237307
 21
216.8419869691
  0
LINE
  5
41C
100
AcDbEntity
  8
2_FEATURE
100
AcDbLine
 62
7
  6
CONTINUOUS
 10
48.1046098282
 20
217.9531250854
 11
44.4109375
 21
217.9531250854
  0
LINE
  5
41D
100
AcDbEntity
  8
0
100
AcDbLine
 62
7
  6
CONTINUOUS
 10
93.3172651718
 20
217.9531250854
 11
97.0109375
 21
217.9531250854
  0
LINE
  5
41E
100
AcDbEntity
  8
2_FEATURE
100
AcDbLine
 62
7
  6
CONTINUOUS
 10
54.1620513911
 20
216.8419869669
 11
53.693487604
 21
216.8501657783
  0
LINE
  5
41F
100
AcDbEntity
  8
0
100
AcDbLine
 62
7
  6
CONTINUOUS
 10
96.8109375
 20
221.2531250854
 11
88.7109375
 21
221.2531250854
  0
LINE
  5
420
100
AcDbEntity
  8
0
100
AcDbLine
 62
7
  6
CONTINUOUS
 10
52.7109375
 20
221.2531250854
 11
44.6109375
 21
221.2531250854
  0
LINE
  5
421
100
AcDbEntity
  8
0
100
AcDbLine
 62
7
  6
CONTINUOUS
 10
54.3658547395
 20
223.9479402852
 11
54.3488266426
 21
223.9471748819
  0
LINE
  5
422
100
AcDbEntity
  8
0
100
AcDbLine
 62
7
  6
CONTINUOUS
 10
54.3527952829
 20
223.9479442983
 11
54.3210360898
 21
223.9465131503
  0
LINE
  5
423
100
AcDbEntity
  8
0
100
AcDbLine
 62
7
  6
CONTINUOUS
 10
54.3860408273
 20
223.948752563
 11
54.3658547395
 21
223.9479402852
  0
LINE
  5
424
100
AcDbEntity
  8
0
100
AcDbLine
 62
7
  6
CONTINUOUS
 10
54.3829423937
 20
223.9490874681
 11
54.3527952829
 21
223.9479442983
  0
LINE
  5
425
100
AcDbEntity
  8
0
100
AcDbLine
 62
7
  6
CONTINUOUS
 10
54.4065634677
 20
223.9494814435
 11
54.3860408273
 21
223.948752563
  0
LINE
  5
426
100
AcDbEntity
  8
0
100
AcDbLine
 62
7
  6
CONTINUOUS
 10
54.41142372
 20
223.9499964746
 11
54.3829423937
 21
223.9490874681
  0
LINE
  5
427
100
AcDbEntity
  8
0
100
AcDbLine
 62
7
  6
CONTINUOUS
 10
54.4304202474
 20
223.9502177453
 11
54.4065634677
 21
223.9494814435
  0
LINE
  5
428
100
AcDbEntity
  8
0
100
AcDbLine
 62
7
  6
CONTINUOUS
 10
54.4546981445
 20
223.9508551854
 11
54.41142372
 21
223.9499964746
  0
LINE
  5
429
100
AcDbEntity
  8
0
100
AcDbLine
 62
7
  6
CONTINUOUS
 10
54.4825044892
 20
223.9514594117
 11
54.4383112761
 21
223.9507160564
  0
LINE
  5
42A
100
AcDbEntity
  8
0
100
AcDbLine
 62
7
  6
CONTINUOUS
 10
54.5140020056
 20
223.9519993013
 11
54.4637144188
 21
223.9512835765
  0
LINE
  5
42B
100
AcDbEntity
  8
0
100
AcDbLine
 62
7
  6
CONTINUOUS
 10
54.5527141563
 20
223.9524821127
 11
54.4987901813
 21
223.9519070438
  0
LINE
  5
42C
100
AcDbEntity
  8
0
100
AcDbLine
 62
7
  6
CONTINUOUS
 10
54.6085456216
 20
223.9528985956
 11
54.5387692075
 21
223.9524218732
  0
LINE
  5
42D
100
AcDbEntity
  8
0
100
AcDbLine
 62
7
  6
CONTINUOUS
 10
54.6835433515
 20
223.9531134092
 11
54.6010299987
 21
223.9528948078
  0
LINE
  5
42E
100
AcDbEntity
  8
0
100
AcDbLine
 62
7
  6
CONTINUOUS
 10
96.3109375
 20
223.9531250854
 11
86.7348373154
 21
223.9531250854
  0
LINE
  5
42F
100
AcDbEntity
  8
2_FEATURE
100
AcDbLine
 62
7
  6
CONTINUOUS
 10
45.1109375
 20
223.9531250854
 11
54.6870376846
 21
223.9531250854
  0
LINE
  5
430
100
AcDbEntity
  8
0
100
AcDbLine
 62
7
  6
CONTINUOUS
 10
54.7766131363
 20
223.9531250854
 11
86.6576177276
 21
223.953125708
  0
LINE
  5
431
100
AcDbEntity
  8
0
100
AcDbLine
 62
7
  6
CONTINUOUS
 10
86.6452618636
 20
223.9531250854
 11
54.7529882545
 21
223.9531268884
  0
LINE
  5
432
100
AcDbEntity
  8
0
100
AcDbLine
 62
7
  6
CONTINUOUS
 10
86.808137106
 20
223.9529237919
 11
86.8037256514
 21
223.9529436666
  0
LINE
  5
433
100
AcDbEntity
  8
0
100
AcDbLine
 62
7
  6
CONTINUOUS
 10
86.8661101096
 20
223.9525864531
 11
86.808137106
 21
223.9529237919
  0
LINE
  5
434
100
AcDbEntity
  8
0
100
AcDbLine
 62
7
  6
CONTINUOUS
 10
86.9123230353
 20
223.9520646935
 11
86.8588344407
 21
223.9525816426
  0
LINE
  5
435
100
AcDbEntity
  8
0
100
AcDbLine
 62
7
  6
CONTINUOUS
 10
86.9460337822
 20
223.9515190626
 11
86.8973142639
 21
223.9521493894
  0
LINE
  5
436
100
AcDbEntity
  8
0
100
AcDbLine
 62
7
  6
CONTINUOUS
 10
86.9706852167
 20
223.9510167395
 11
86.9302356562
 21
223.9516309481
  0
LINE
  5
437
100
AcDbEntity
  8
0
100
AcDbLine
 62
7
  6
CONTINUOUS
 10
86.9968186748
 20
223.9503773327
 11
86.9582881783
 21
223.9510623061
  0
LINE
  5
438
100
AcDbEntity
  8
0
100
AcDbLine
 62
7
  6
CONTINUOUS
 10
87.0244817018
 20
223.9495684306
 11
86.982854284
 21
223.9504559531
  0
LINE
  5
439
100
AcDbEntity
  8
0
100
AcDbLine
 62
7
  6
CONTINUOUS
 10
87.0278570195
 20
223.9490469816
 11
87.0060725431
 21
223.9497801365
  0
LINE
  5
43A
100
AcDbEntity
  8
0
100
AcDbLine
 62
7
  6
CONTINUOUS
 10
87.0537973208
 20
223.9485482708
 11
87.0244817018
 21
223.9495684306
  0
LINE
  5
43B
100
AcDbEntity
  8
0
100
AcDbLine
 62
7
  6
CONTINUOUS
 10
87.0480478748
 20
223.948272967
 11
87.0278570195
 21
223.9490469816
  0
LINE
  5
43C
100
AcDbEntity
  8
0
100
AcDbLine
 62
7
  6
CONTINUOUS
 10
87.0664213033
 20
223.9474818761
 11
87.0480478748
 21
223.948272967
  0
LINE
  5
43D
100
AcDbEntity
  8
0
100
AcDbLine
 62
7
  6
CONTINUOUS
 10
87.0717779234
 20
223.9472346535
 11
87.0664213033
 21
223.9474818761
  0
LINE
  5
43E
100
AcDbEntity
  8
0
100
AcDbLine
 62
7
  6
CONTINUOUS
 10
53.9659903954
 20
223.8981829897
 11
53.9586701674
 21
223.8964198553
  0
LINE
  5
43F
100
AcDbEntity
  8
0
100
AcDbLine
 62
7
  6
CONTINUOUS
 10
53.9733704837
 20
223.8999205779
 11
53.9659903954
 21
223.8981829897
  0
LINE
  5
440
100
AcDbEntity
  8
0
100
AcDbLine
 62
7
  6
CONTINUOUS
 10
53.9808121621
 20
223.9016325839
 11
53.9733704837
 21
223.8999205779
  0
LINE
  5
441
100
AcDbEntity
  8
0
100
AcDbLine
 62
7
  6
CONTINUOUS
 10
53.9883171386
 20
223.9033189452
 11
53.9808121621
 21
223.9016325839
  0
LINE
  5
442
100
AcDbEntity
  8
0
100
AcDbLine
 62
7
  6
CONTINUOUS
 10
53.995887097
 20
223.9049795742
 11
53.9883171386
 21
223.9033189452
  0
LINE
  5
443
100
AcDbEntity
  8
0
100
AcDbLine
 62
7
  6
CONTINUOUS
 10
54.0035236272
 20
223.9066143449
 11
53.995887097
 21
223.9049795742
  0
LINE
  5
444
100
AcDbEntity
  8
0
100
AcDbLine
 62
7
  6
CONTINUOUS
 10
54.0112274015
 20
223.9082229265
 11
54.0035236272
 21
223.9066143449
  0
LINE
  5
445
100
AcDbEntity
  8
0
100
AcDbLine
 62
7
  6
CONTINUOUS
 10
54.0189985065
 20
223.9098048747
 11
54.0112274015
 21
223.9082229265
  0
LINE
  5
446
100
AcDbEntity
  8
0
100
AcDbLine
 62
7
  6
CONTINUOUS
 10
54.0268370093
 20
223.9113597587
 11
54.0189985065
 21
223.9098048747
  0
LINE
  5
447
100
AcDbEntity
  8
0
100
AcDbLine
 62
7
  6
CONTINUOUS
 10
54.0347429646
 20
223.9128871634
 11
54.0268370093
 21
223.9113597587
  0
LINE
  5
448
100
AcDbEntity
  8
0
100
AcDbLine
 62
7
  6
CONTINUOUS
 10
54.0427164144
 20
223.9143866902
 11
54.0347429646
 21
223.9128871634
  0
LINE
  5
449
100
AcDbEntity
  8
0
100
AcDbLine
 62
7
  6
CONTINUOUS
 10
54.0507573875
 20
223.9158579576
 11
54.0427164144
 21
223.9143866902
  0
LINE
  5
44A
100
AcDbEntity
  8
0
100
AcDbLine
 62
7
  6
CONTINUOUS
 10
54.0588658994
 20
223.9173006021
 11
54.0507573875
 21
223.9158579576
  0
LINE
  5
44B
100
AcDbEntity
  8
0
100
AcDbLine
 62
7
  6
CONTINUOUS
 10
54.0670419518
 20
223.9187142788
 11
54.0588658994
 21
223.9173006021
  0
LINE
  5
44C
100
AcDbEntity
  8
0
100
AcDbLine
 62
7
  6
CONTINUOUS
 10
54.0752855322
 20
223.9200986622
 11
54.0670419518
 21
223.9187142788
  0
LINE
  5
44D
100
AcDbEntity
  8
0
100
AcDbLine
 62
7
  6
CONTINUOUS
 10
54.0835966152
 20
223.9214534471
 11
54.0752855322
 21
223.9200986622
  0
LINE
  5
44E
100
AcDbEntity
  8
0
100
AcDbLine
 62
7
  6
CONTINUOUS
 10
54.0919752549
 20
223.9227783533
 11
54.0835966152
 21
223.9214534471
  0
LINE
  5
44F
100
AcDbEntity
  8
0
100
AcDbLine
 62
7
  6
CONTINUOUS
 10
54.1004216509
 20
223.9240731283
 11
54.0919752549
 21
223.9227783533
  0
LINE
  5
450
100
AcDbEntity
  8
0
100
AcDbLine
 62
7
  6
CONTINUOUS
 10
54.108936013
 20
223.9253375425
 11
54.1004216509
 21
223.9240731283
  0
LINE
  5
451
100
AcDbEntity
  8
0
100
AcDbLine
 62
7
  6
CONTINUOUS
 10
54.1175185467
 20
223.9265713905
 11
54.108936013
 21
223.9253375425
  0
LINE
  5
452
100
AcDbEntity
  8
0
100
AcDbLine
 62
7
  6
CONTINUOUS
 10
54.1261701466
 20
223.9277745854
 11
54.1175185467
 21
223.9265713905
  0
LINE
  5
453
100
AcDbEntity
  8
0
100
AcDbLine
 62
7
  6
CONTINUOUS
 10
54.1348951536
 20
223.9289475089
 11
54.1261701466
 21
223.9277745854
  0
LINE
  5
454
100
AcDbEntity
  8
0
100
AcDbLine
 62
7
  6
CONTINUOUS
 10
54.1436989504
 20
223.9300906266
 11
54.1348951536
 21
223.9289475089
  0
LINE
  5
455
100
AcDbEntity
  8
0
100
AcDbLine
 62
7
  6
CONTINUOUS
 10
54.1525868998
 20
223.9312043368
 11
54.1436989504
 21
223.9300906266
  0
LINE
  5
456
100
AcDbEntity
  8
0
100
AcDbLine
 62
7
  6
CONTINUOUS
 10
54.161564345
 20
223.9322889746
 11
54.1525868998
 21
223.9312043368
  0
LINE
  5
457
100
AcDbEntity
  8
0
100
AcDbLine
 62
7
  6
CONTINUOUS
 10
54.1729201137
 20
223.9336043038
 11
54.161564345
 21
223.9322889746
  0
LINE
  5
458
100
AcDbEntity
  8
0
100
AcDbLine
 62
7
  6
CONTINUOUS
 10
54.1844343923
 20
223.934875054
 11
54.1729201137
 21
223.9336043038
  0
LINE
  5
459
100
AcDbEntity
  8
0
100
AcDbLine
 62
7
  6
CONTINUOUS
 10
54.1961174911
 20
223.9361015246
 11
54.1844343923
 21
223.934875054
  0
LINE
  5
45A
100
AcDbEntity
  8
0
100
AcDbLine
 62
7
  6
CONTINUOUS
 10
54.2079796742
 20
223.937283908
 11
54.1961174911
 21
223.9361015246
  0
LINE
  5
45B
100
AcDbEntity
  8
0
100
AcDbLine
 62
7
  6
CONTINUOUS
 10
54.2200311611
 20
223.9384223054
 11
54.2079796742
 21
223.937283908
  0
LINE
  5
45C
100
AcDbEntity
  8
0
100
AcDbLine
 62
7
  6
CONTINUOUS
 10
54.232282126
 20
223.9395167413
 11
54.2200311611
 21
223.9384223054
  0
LINE
  5
45D
100
AcDbEntity
  8
0
100
AcDbLine
 62
7
  6
CONTINUOUS
 10
54.2447419803
 20
223.9405671219
 11
54.232282126
 21
223.9395167413
  0
LINE
  5
45E
100
AcDbEntity
  8
0
100
AcDbLine
 62
7
  6
CONTINUOUS
 10
54.2574118836
 20
223.9415726934
 11
54.2447419803
 21
223.9405671219
  0
LINE
  5
45F
100
AcDbEntity
  8
0
100
AcDbLine
 62
7
  6
CONTINUOUS
 10
54.2702878079
 20
223.9425324768
 11
54.2574118836
 21
223.9415726934
  0
LINE
  5
460
100
AcDbEntity
  8
0
100
AcDbLine
 62
7
  6
CONTINUOUS
 10
54.2833657082
 20
223.9434457454
 11
54.2702878079
 21
223.9425324768
  0
LINE
  5
461
100
AcDbEntity
  8
0
100
AcDbLine
 62
7
  6
CONTINUOUS
 10
54.296641605
 20
223.9443120323
 11
54.2833657082
 21
223.9434457454
  0
LINE
  5
462
100
AcDbEntity
  8
0
100
AcDbLine
 62
7
  6
CONTINUOUS
 10
54.3128285287
 20
223.9452892851
 11
54.296641605
 21
223.9443120323
  0
LINE
  5
463
100
AcDbEntity
  8
0
100
AcDbLine
 62
7
  6
CONTINUOUS
 10
54.3292882072
 20
223.9461987192
 11
54.3128285287
 21
223.9452892851
  0
LWPOLYLINE
  5
464
100
AcDbEntity
  8
0
100
AcDbPolyline
 62
7
  6
CONTINUOUS
 90
90
 70
0
 10
54.3210360898
 20
223.9465131503
 10
54.3045514546
 20
223.945668192
 10
54.2876194285
 20
223.9447214331
 10
54.2702759341
 20
223.9436636715
 10
54.2525240077
 20
223.942483222
 10
54.2344239946
 20
223.9411718243
 10
54.2160351369
 20
223.9397217127
 10
54.1973583152
 20
223.9381207072
 10
54.1784181788
 20
223.936358213
 10
54.1591997271
 20
223.9344195088
 10
54.1396944613
 20
223.9322893931
 10
54.1199061744
 20
223.9299530983
 10
54.0998336361
 20
223.9273945339
 10
54.0794818444
 20
223.924597643
 10
54.0588491962
 20
223.9215447534
 10
54.0379525968
 20
223.918220363
 10
54.0168032766
 20
223.9146079232
 10
53.995418183
 20
223.9106912966
 10
53.973823808
 20
223.9064559675
 10
53.9520106153
 20
223.9018801134
 10
53.9299792994
 20
223.8969428144
 10
53.9077263335
 20
223.8916211643
 10
53.8852480493
 20
223.8858909641
 10
53.8625464383
 20
223.8797282594
 10
53.8396174635
 20
223.873106282
 10
53.8164763982
 20
223.8660028653
 10
53.7931256098
 20
223.8583914103
 10
53.7696002102
 20
223.8502558996
 10
53.7459282247
 20
223.8415792984
 10
53.7221327662
 20
223.8323438914
 10
53.6982407318
 20
223.8225345871
 10
53.6742699056
 20
223.812134548
 10
53.6502393386
 20
223.8011300175
 10
53.6261911588
 20
223.7895194392
 10
53.6021623138
 20
223.7773014552
 10
53.5781875282
 20
223.7644760621
 10
53.5543045814
 20
223.7510475453
 10
53.5305396742
 20
223.7370162627
 10
53.5069312527
 20
223.7223922866
 10
53.4834783014
 20
223.7071630469
 10
53.4601927072
 20
223.6913238728
 10
53.4370741447
 20
223.6748616971
 10
53.4141283932
 20
223.6577670068
 10
53.3913499388
 20
223.6400209448
 10
53.3687363183
 20
223.6216060534
 10
53.3462900046
 20
223.6025127076
 10
53.3240106663
 20
223.5827292489
 10
53.3019126668
 20
223.5622557126
 10
53.2800077477
 20
223.5410895085
 10
53.2583051365
 20
223.5192249568
 10
53.2368162263
 20
223.49665769
 10
53.2155485203
 20
223.4733782539
 10
53.1945128866
 20
223.4493795356
 10
53.1737138732
 20
223.4246456331
 10
53.1531590823
 20
223.3991619242
 10
53.1328552304
 20
223.3729103372
 10
53.1128128486
 20
223.3458752301
 10
53.0930341625
 20
223.3180276733
 10
53.0735224385
 20
223.2893450388
 10
53.0542891032
 20
223.2598181557
 10
53.0353447854
 20
223.2294338652
 10
53.0167030347
 20
223.1981804997
 10
52.9983759385
 20
223.1660404644
 10
52.9803877377
 20
223.1330144612
 10
52.9627611403
 20
223.0990990411
 10
52.9455196367
 20
223.0642901978
 10
52.9286890153
 20
223.0285863944
 10
52.9122926006
 20
222.9919781708
 10
52.8963576801
 20
222.9544613129
 10
52.8809077441
 20
222.9160190541
 10
52.865964987
 20
222.8766436631
 10
52.8515475489
 20
222.8363327527
 10
52.8376773148
 20
222.7950916751
 10
52.8243697841
 20
222.7529013674
 10
52.8116469294
 20
222.7097543212
 10
52.7995282651
 20
222.6656249455
 10
52.7880393169
 20
222.6204962425
 10
52.7772065461
 20
222.5743403611
 10
52.7670621295
 20
222.5271356496
 10
52.7576416428
 20
222.4788560475
 10
52.7489853602
 20
222.4294777916
 10
52.741128828
 20
222.3789880893
 10
52.7341010314
 20
222.3273787583
 10
52.7279322494
 20
222.2746367944
 10
52.7226566129
 20
222.2207614263
 10
52.7183095709
 20
222.1657402924
 10
52.7149304092
 20
222.1095709328
 10
52.7125618773
 20
222.0522662596
 10
52.7112486826
 20
221.9938160009
 10
52.7109834194
 20
221.9530698796
  0
LWPOLYLINE
  5
465
100
AcDbEntity
  8
0
100
AcDbPolyline
 62
7
  6
CONTINUOUS
 90
3
 70
0
 10
54.3488266426
 20
223.9471748819
 10
54.3460136515
 20
223.9470409638
 10
54.3292882072
 20
223.9461987192
  0
LINE
  5
466
100
AcDbEntity
  8
0
100
AcDbLine
 62
7
  6
CONTINUOUS
 10
87.0880338838
 20
223.9464359464
 11
87.0717779234
 21
223.9472346535
  0
LINE
  5
467
100
AcDbEntity
  8
0
100
AcDbLine
 62
7
  6
CONTINUOUS
 10
87.1044262056
 20
223.945552929
 11
87.0880338838
 21
223.9464359464
  0
LINE
  5
468
100
AcDbEntity
  8
0
100
AcDbLine
 62
7
  6
CONTINUOUS
 10
87.1207778497
 20
223.9445895062
 11
87.1044262056
 21
223.945552929
  0
LINE
  5
469
100
AcDbEntity
  8
0
100
AcDbLine
 62
7
  6
CONTINUOUS
 10
87.1343117777
 20
223.9437261402
 11
87.1207778497
 21
223.9445895062
  0
LINE
  5
46A
100
AcDbEntity
  8
0
100
AcDbLine
 62
7
  6
CONTINUOUS
 10
87.1477541071
 20
223.9428064656
 11
87.1343117777
 21
223.9437261402
  0
LINE
  5
46B
100
AcDbEntity
  8
0
100
AcDbLine
 62
7
  6
CONTINUOUS
 10
87.1610987744
 20
223.9418294198
 11
87.1477541071
 21
223.9428064656
  0
LINE
  5
46C
100
AcDbEntity
  8
0
100
AcDbLine
 62
7
  6
CONTINUOUS
 10
87.1743396678
 20
223.9407941563
 11
87.1610987744
 21
223.9418294198
  0
LINE
  5
46D
100
AcDbEntity
  8
0
100
AcDbLine
 62
7
  6
CONTINUOUS
 10
87.1874706224
 20
223.9397000565
 11
87.1743396678
 21
223.9407941563
  0
LINE
  5
46E
100
AcDbEntity
  8
0
100
AcDbLine
 62
7
  6
CONTINUOUS
 10
87.200485418
 20
223.9385467415
 11
87.1874706224
 21
223.9397000565
  0
LINE
  5
46F
100
AcDbEntity
  8
0
100
AcDbLine
 62
7
  6
CONTINUOUS
 10
87.2108094021
 20
223.9375813602
 11
87.200485418
 21
223.9385467415
  0
LINE
  5
470
100
AcDbEntity
  8
0
100
AcDbLine
 62
7
  6
CONTINUOUS
 10
87.2210517721
 20
223.93657805
 11
87.2108094021
 21
223.9375813602
  0
LINE
  5
471
100
AcDbEntity
  8
0
100
AcDbLine
 62
7
  6
CONTINUOUS
 10
87.2312097957
 20
223.9355369194
 11
87.2210517721
 21
223.93657805
  0
LINE
  5
472
100
AcDbEntity
  8
0
100
AcDbLine
 62
7
  6
CONTINUOUS
 10
87.2412837517
 20
223.9344578477
 11
87.2312097957
 21
223.9355369194
  0
LINE
  5
473
100
AcDbEntity
  8
0
100
AcDbLine
 62
7
  6
CONTINUOUS
 10
87.2512750839
 20
223.9333406257
 11
87.2412837517
 21
223.9344578477
  0
LINE
  5
474
100
AcDbEntity
  8
0
100
AcDbLine
 62
7
  6
CONTINUOUS
 10
87.2611852363
 20
223.9321850654
 11
87.2512750839
 21
223.9333406257
  0
LINE
  5
475
100
AcDbEntity
  8
0
100
AcDbLine
 62
7
  6
CONTINUOUS
 10
87.2710156654
 20
223.9309909968
 11
87.2611852363
 21
223.9321850654
  0
LINE
  5
476
100
AcDbEntity
  8
0
100
AcDbLine
 62
7
  6
CONTINUOUS
 10
87.2807678397
 20
223.9297582657
 11
87.2710156654
 21
223.9309909968
  0
LINE
  5
477
100
AcDbEntity
  8
0
100
AcDbLine
 62
7
  6
CONTINUOUS
 10
87.2904432392
 20
223.9284867317
 11
87.2807678397
 21
223.9297582657
  0
LINE
  5
478
100
AcDbEntity
  8
0
100
AcDbLine
 62
7
  6
CONTINUOUS
 10
87.300043355
 20
223.9271762664
 11
87.2904432392
 21
223.9284867317
  0
LINE
  5
479
100
AcDbEntity
  8
0
100
AcDbLine
 62
7
  6
CONTINUOUS
 10
87.3095696886
 20
223.9258267511
 11
87.300043355
 21
223.9271762664
  0
LINE
  5
47A
100
AcDbEntity
  8
0
100
AcDbLine
 62
7
  6
CONTINUOUS
 10
87.3190237521
 20
223.9244380751
 11
87.3095696886
 21
223.9258267511
  0
LINE
  5
47B
100
AcDbEntity
  8
0
100
AcDbLine
 62
7
  6
CONTINUOUS
 10
87.3284070671
 20
223.9230101337
 11
87.3190237521
 21
223.9244380751
  0
LINE
  5
47C
100
AcDbEntity
  8
0
100
AcDbLine
 62
7
  6
CONTINUOUS
 10
87.3377211652
 20
223.9215428265
 11
87.3284070671
 21
223.9230101337
  0
LINE
  5
47D
100
AcDbEntity
  8
0
100
AcDbLine
 62
7
  6
CONTINUOUS
 10
87.3469675704
 20
223.9200360558
 11
87.3377211652
 21
223.9215428265
  0
LINE
  5
47E
100
AcDbEntity
  8
0
100
AcDbLine
 62
7
  6
CONTINUOUS
 10
87.3561476149
 20
223.9184897323
 11
87.3469675704
 21
223.9200360558
  0
LINE
  5
47F
100
AcDbEntity
  8
0
100
AcDbLine
 62
7
  6
CONTINUOUS
 10
87.3652625168
 20
223.9169037707
 11
87.3561476149
 21
223.9184897323
  0
LINE
  5
480
100
AcDbEntity
  8
0
100
AcDbLine
 62
7
  6
CONTINUOUS
 10
87.374313513
 20
223.9152780824
 11
87.3652625168
 21
223.9169037707
  0
LINE
  5
481
100
AcDbEntity
  8
0
100
AcDbLine
 62
7
  6
CONTINUOUS
 10
87.3833018612
 20
223.9136125738
 11
87.374313513
 21
223.9152780824
  0
LINE
  5
482
100
AcDbEntity
  8
0
100
AcDbLine
 62
7
  6
CONTINUOUS
 10
87.392228839
 20
223.9119071447
 11
87.3833018612
 21
223.9136125738
  0
LINE
  5
483
100
AcDbEntity
  8
0
100
AcDbLine
 62
7
  6
CONTINUOUS
 10
87.401095743
 20
223.9101616866
 11
87.392228839
 21
223.9119071447
  0
LINE
  5
484
100
AcDbEntity
  8
0
100
AcDbLine
 62
7
  6
CONTINUOUS
 10
87.4099038884
 20
223.908376081
 11
87.401095743
 21
223.9101616866
  0
LINE
  5
485
100
AcDbEntity
  8
0
100
AcDbLine
 62
7
  6
CONTINUOUS
 10
87.4186546078
 20
223.9065501982
 11
87.4099038884
 21
223.908376081
  0
LINE
  5
486
100
AcDbEntity
  8
0
100
AcDbLine
 62
7
  6
CONTINUOUS
 10
87.4273492536
 20
223.9046838952
 11
87.4186546078
 21
223.9065501982
  0
LINE
  5
487
100
AcDbEntity
  8
0
100
AcDbLine
 62
7
  6
CONTINUOUS
 10
87.4359890393
 20
223.9027770488
 11
87.4273492536
 21
223.9046838952
  0
LINE
  5
488
100
AcDbEntity
  8
0
100
AcDbLine
 62
7
  6
CONTINUOUS
 10
87.442433016
 20
223.9013203638
 11
87.4359890393
 21
223.9027770488
  0
LINE
  5
489
100
AcDbEntity
  8
0
100
AcDbLine
 62
7
  6
CONTINUOUS
 10
87.4488461212
 20
223.8998410275
 11
87.442433016
 21
223.9013203638
  0
LINE
  5
48A
100
AcDbEntity
  8
0
100
AcDbLine
 62
7
  6
CONTINUOUS
 10
87.4552282446
 20
223.8983391426
 11
87.4488461212
 21
223.8998410275
  0
LWPOLYLINE
  5
48B
100
AcDbEntity
  8
0
100
AcDbPolyline
 62
7
  6
CONTINUOUS
 90
3
 70
0
 10
87.4636893706
 20
223.8963017445
 10
87.4615792826
 20
223.8968148189
 10
87.4552282446
 20
223.8983391426
  0
LINE
  5
48C
100
AcDbEntity
  8
0
100
AcDbLine
 62
7
  6
CONTINUOUS
 10
85.8227705563
 20
212.3393351323
 11
85.8227705563
 21
211.5669150388
  0
LWPOLYLINE
  5
48D
100
AcDbEntity
  8
0
100
AcDbPolyline
 62
7
  6
CONTINUOUS
 90
50
 70
0
 10
85.8227705829
 20
212.3393351323
 10
85.8238387216
 20
212.4760117917
 10
85.8275675109
 20
212.6289936538
 10
85.8339713481
 20
212.7818458172
 10
85.843040243
 20
212.9344143164
 10
85.8547590442
 20
213.0865465529
 10
85.8691033106
 20
213.2380811601
 10
85.8860422569
 20
213.3888540544
 10
85.9055374046
 20
213.5387053111
 10
85.9275432476
 20
213.6874738544
 10
85.9520078173
 20
213.8350008442
 10
85.9788731626
 20
213.9811349299
 10
86.0080689703
 20
214.1256901777
 10
86.039520247
 20
214.2685036026
 10
86.0731339069
 20
214.409359583
 10
86.1088095288
 20
214.5480615219
 10
86.1464375917
 20
214.6844062026
 10
86.1859049196
 20
214.81821581
 10
86.2270691742
 20
214.9492413285
 10
86.2697886522
 20
215.077277827
 10
86.31389143
 20
215.2020625611
 10
86.3592016567
 20
215.3233626848
 10
86.4055358683
 20
215.4409589022
 10
86.4526989002
 20
215.5546331418
 10
86.5005124112
 20
215.6642359669
 10
86.5487879093
 20
215.76961197
 10
86.5973423427
 20
215.8706376655
 10
86.6459975617
 20
215.967212442
 10
86.6945413758
 20
216.0591853085
 10
86.7428088313
 20
216.1465109194
 10
86.790473768
 20
216.2288773976
 10
86.8372671089
 20
216.3061205517
 10
86.8828608066
 20
216.3780193244
 10
86.926943021
 20
216.4444257141
 10
86.9692498298
 20
216.5053015728
 10
87.0094646691
 20
216.5605662173
 10
87.0475286447
 20
216.6105111597
 10
87.0833106061
 20
216.6553194945
 10
87.1167739876
 20
216.6952852426
 10
87.1478719087
 20
216.7306738947
 10
87.1765215413
 20
216.7617007728
 10
87.2026658564
 20
216.7886055876
 10
87.2261889649
 20
216.8115675138
 10
87.2469940681
 20
216.8307917759
 10
87.26498867
 20
216.846493907
 10
87.2800755139
 20
216.8588927989
 10
87.2921883738
 20
216.8682395878
 10
87.3012515401
 20
216.8747832302
 10
87.3072070652
 20
216.8787916954
 10
87.3086603744
 20
216.8797175065
  0
LINE
  5
48E
100
AcDbEntity
  8
0
100
AcDbLine
 62
7
  6
CONTINUOUS
 10
53.9124250849
 20
223.8843346084
 11
53.9054967487
 21
223.8823780963
  0
LINE
  5
48F
100
AcDbEntity
  8
0
100
AcDbLine
 62
7
  6
CONTINUOUS
 10
53.9193997213
 20
223.8862649022
 11
53.9124250849
 21
223.8843346084
  0
LINE
  5
490
100
AcDbEntity
  8
0
100
AcDbLine
 62
7
  6
CONTINUOUS
 10
53.9264225164
 20
223.8881691712
 11
53.9193997213
 21
223.8862649022
  0
LINE
  5
491
100
AcDbEntity
  8
0
100
AcDbLine
 62
7
  6
CONTINUOUS
 10
53.9334953149
 20
223.8900475753
 11
53.9264225164
 21
223.8881691712
  0
LINE
  5
492
100
AcDbEntity
  8
0
100
AcDbLine
 62
7
  6
CONTINUOUS
 10
53.9406199471
 20
223.8919002418
 11
53.9334953149
 21
223.8900475753
  0
LINE
  5
493
100
AcDbEntity
  8
0
100
AcDbLine
 62
7
  6
CONTINUOUS
 10
53.9477982277
 20
223.8937272659
 11
53.9406199471
 21
223.8919002418
  0
LINE
  5
494
100
AcDbEntity
  8
0
100
AcDbLine
 62
7
  6
CONTINUOUS
 10
53.9550319546
 20
223.8955287121
 11
53.9477982277
 21
223.8937272659
  0
LINE
  5
495
100
AcDbEntity
  8
0
100
AcDbLine
 62
7
  6
CONTINUOUS
 10
53.9586701674
 20
223.8964198553
 11
53.9550319546
 21
223.8955287121
  0
LINE
  5
496
100
AcDbEntity
  8
0
100
AcDbLine
 62
7
  6
CONTINUOUS
 10
87.4699988124
 20
223.8947476843
 11
87.4636893706
 21
223.8963017445
  0
LINE
  5
497
100
AcDbEntity
  8
0
100
AcDbLine
 62
7
  6
CONTINUOUS
 10
87.4762769541
 20
223.8931714665
 11
87.4699988124
 21
223.8947476843
  0
LINE
  5
498
100
AcDbEntity
  8
0
100
AcDbLine
 62
7
  6
CONTINUOUS
 10
87.4825237146
 20
223.8915732224
 11
87.4762769541
 21
223.8931714665
  0
LINE
  5
499
100
AcDbEntity
  8
0
100
AcDbLine
 62
7
  6
CONTINUOUS
 10
87.4887390194
 20
223.8899530891
 11
87.4825237146
 21
223.8915732224
  0
LINE
  5
49A
100
AcDbEntity
  8
0
100
AcDbLine
 62
7
  6
CONTINUOUS
 10
87.4949228004
 20
223.8883112096
 11
87.4887390194
 21
223.8899530891
  0
LINE
  5
49B
100
AcDbEntity
  8
0
100
AcDbLine
 62
7
  6
CONTINUOUS
 10
87.5010749956
 20
223.886647733
 11
87.4949228004
 21
223.8883112096
  0
LINE
  5
49C
100
AcDbEntity
  8
0
100
AcDbLine
 62
7
  6
CONTINUOUS
 10
87.5071955491
 20
223.8849628138
 11
87.5010749956
 21
223.886647733
  0
LINE
  5
49D
100
AcDbEntity
  8
0
100
AcDbLine
 62
7
  6
CONTINUOUS
 10
87.5132844111
 20
223.8832566117
 11
87.5071955491
 21
223.8849628138
  0
LINE
  5
49E
100
AcDbEntity
  8
0
100
AcDbLine
 62
7
  6
CONTINUOUS
 10
87.5193415375
 20
223.881529292
 11
87.5132844111
 21
223.8832566117
  0
LINE
  5
49F
100
AcDbEntity
  8
0
100
AcDbLine
 62
7
  6
CONTINUOUS
 10
87.52536689
 20
223.879781025
 11
87.5193415375
 21
223.881529292
  0
LINE
  5
4A0
100
AcDbEntity
  8
0
100
AcDbLine
 62
7
  6
CONTINUOUS
 10
87.5313604359
 20
223.8780119859
 11
87.52536689
 21
223.879781025
  0
LINE
  5
4A1
100
AcDbEntity
  8
0
100
AcDbLine
 62
7
  6
CONTINUOUS
 10
87.537322148
 20
223.8762223547
 11
87.5313604359
 21
223.8780119859
  0
LINE
  5
4A2
100
AcDbEntity
  8
0
100
AcDbLine
 62
7
  6
CONTINUOUS
 10
87.5432520044
 20
223.8744123159
 11
87.537322148
 21
223.8762223547
  0
LINE
  5
4A3
100
AcDbEntity
  8
0
100
AcDbLine
 62
7
  6
CONTINUOUS
 10
87.5491499884
 20
223.8725820587
 11
87.5432520044
 21
223.8744123159
  0
LINE
  5
4A4
100
AcDbEntity
  8
0
100
AcDbLine
 62
7
  6
CONTINUOUS
 10
87.5550162171
 20
223.8707317355
 11
87.5491499884
 21
223.8725820587
  0
LINE
  5
4A5
100
AcDbEntity
  8
0
100
AcDbLine
 62
7
  6
CONTINUOUS
 10
87.5608509658
 20
223.8688614508
 11
87.5550162171
 21
223.8707317355
  0
LINE
  5
4A6
100
AcDbEntity
  8
0
100
AcDbLine
 62
7
  6
CONTINUOUS
 10
87.5666545235
 20
223.8669713044
 11
87.5608509658
 21
223.8688614508
  0
LINE
  5
4A7
100
AcDbEntity
  8
0
100
AcDbLine
 62
7
  6
CONTINUOUS
 10
87.5724271869
 20
223.8650613925
 11
87.5666545235
 21
223.8669713044
  0
LINE
  5
4A8
100
AcDbEntity
  8
0
100
AcDbLine
 62
7
  6
CONTINUOUS
 10
87.5781692602
 20
223.8631318085
 11
87.5724271869
 21
223.8650613925
  0
LINE
  5
4A9
100
AcDbEntity
  8
0
100
AcDbLine
 62
7
  6
CONTINUOUS
 10
87.5838810544
 20
223.8611826416
 11
87.5781692602
 21
223.8631318085
  0
LINE
  5
4AA
100
AcDbEntity
  8
0
100
AcDbLine
 62
7
  6
CONTINUOUS
 10
87.5895628873
 20
223.8592139775
 11
87.5838810544
 21
223.8611826416
  0
LINE
  5
4AB
100
AcDbEntity
  8
0
100
AcDbLine
 62
7
  6
CONTINUOUS
 10
87.5952150832
 20
223.8572258978
 11
87.5895628873
 21
223.8592139775
  0
LINE
  5
4AC
100
AcDbEntity
  8
0
100
AcDbLine
 62
7
  6
CONTINUOUS
 10
87.6008379724
 20
223.8552184797
 11
87.5952150832
 21
223.8572258978
  0
LINE
  5
4AD
100
AcDbEntity
  8
0
100
AcDbLine
 62
7
  6
CONTINUOUS
 10
87.6064318912
 20
223.8531917962
 11
87.6008379724
 21
223.8552184797
  0
LINE
  5
4AE
100
AcDbEntity
  8
0
100
AcDbLine
 62
7
  6
CONTINUOUS
 10
87.6119971813
 20
223.8511459157
 11
87.6064318912
 21
223.8531917962
  0
LINE
  5
4AF
100
AcDbEntity
  8
0
100
AcDbLine
 62
7
  6
CONTINUOUS
 10
87.6118787911
 20
223.8491275495
 11
87.6057855292
 21
223.8513938641
  0
LINE
  5
4B0
100
AcDbEntity
  8
0
100
AcDbLine
 62
7
  6
CONTINUOUS
 10
87.6175341899
 20
223.8490809017
 11
87.6119971813
 21
223.8511459157
  0
LINE
  5
4B1
100
AcDbEntity
  8
0
100
AcDbLine
 62
7
  6
CONTINUOUS
 10
87.6180003207
 20
223.8468146668
 11
87.6118787911
 21
223.8491275495
  0
LINE
  5
4B2
100
AcDbEntity
  8
0
100
AcDbLine
 62
7
  6
CONTINUOUS
 10
87.6230432692
 20
223.846996813
 11
87.6175341899
 21
223.8490809017
  0
LINE
  5
4B3
100
AcDbEntity
  8
0
100
AcDbLine
 62
7
  6
CONTINUOUS
 10
87.6241502469
 20
223.8444543129
 11
87.6180003207
 21
223.8468146668
  0
LINE
  5
4B4
100
AcDbEntity
  8
0
100
AcDbLine
 62
7
  6
CONTINUOUS
 10
87.6285247762
 20
223.8448937031
 11
87.6230432692
 21
223.846996813
  0
LINE
  5
4B5
100
AcDbEntity
  8
0
100
AcDbLine
 62
7
  6
CONTINUOUS
 10
87.6339790724
 20
223.8427716204
 11
87.6285247762
 21
223.8448937031
  0
LINE
  5
4B6
100
AcDbEntity
  8
0
100
AcDbLine
 62
7
  6
CONTINUOUS
 10
87.6303286882
 20
223.8420455712
 11
87.6241502469
 21
223.8444543129
  0
LINE
  5
4B7
100
AcDbEntity
  8
0
100
AcDbLine
 62
7
  6
CONTINUOUS
 10
87.6394065237
 20
223.8406306079
 11
87.6339790724
 21
223.8427716204
  0
LINE
  5
4B8
100
AcDbEntity
  8
0
100
AcDbLine
 62
7
  6
CONTINUOUS
 10
87.6365357521
 20
223.8395875126
 11
87.6303286882
 21
223.8420455712
  0
LINE
  5
4B9
100
AcDbEntity
  8
0
100
AcDbLine
 62
7
  6
CONTINUOUS
 10
87.6448074999
 20
223.8384707032
 11
87.6394065237
 21
223.8406306079
  0
LINE
  5
4BA
100
AcDbEntity
  8
0
100
AcDbLine
 62
7
  6
CONTINUOUS
 10
87.6427715353
 20
223.8370791947
 11
87.6365357521
 21
223.8395875126
  0
LINE
  5
4BB
100
AcDbEntity
  8
0
100
AcDbLine
 62
7
  6
CONTINUOUS
 10
87.6501823749
 20
223.8362919382
 11
87.6448074999
 21
223.8384707032
  0
LINE
  5
4BC
100
AcDbEntity
  8
0
100
AcDbLine
 62
7
  6
CONTINUOUS
 10
87.649036123
 20
223.8345196626
 11
87.6427715353
 21
223.8370791947
  0
LINE
  5
4BD
100
AcDbEntity
  8
0
100
AcDbLine
 62
7
  6
CONTINUOUS
 10
87.6555315261
 20
223.8340943389
 11
87.6501823749
 21
223.8362919382
  0
LINE
  5
4BE
100
AcDbEntity
  8
0
100
AcDbLine
 62
7
  6
CONTINUOUS
 10
87.6553295829
 20
223.8319079533
 11
87.649036123
 21
223.8345196626
  0
LINE
  5
4BF
100
AcDbEntity
  8
0
100
AcDbLine
 62
7
  6
CONTINUOUS
 10
87.6608553338
 20
223.8318779259
 11
87.6555315261
 21
223.8340943389
  0
LINE
  5
4C0
100
AcDbEntity
  8
0
100
AcDbLine
 62
7
  6
CONTINUOUS
 10
87.6616519036
 20
223.8292431548
 11
87.6553295829
 21
223.8319079533
  0
LINE
  5
4C1
100
AcDbEntity
  8
0
100
AcDbLine
 62
7
  6
CONTINUOUS
 10
87.6661541561
 20
223.8296427373
 11
87.6608553338
 21
223.8318779259
  0
LINE
  5
4C2
100
AcDbEntity
  8
0
100
AcDbLine
 62
7
  6
CONTINUOUS
 10
87.6714283096
 20
223.8273888486
 11
87.6661541561
 21
223.8296427373
  0
LINE
  5
4C3
100
AcDbEntity
  8
0
100
AcDbLine
 62
7
  6
CONTINUOUS
 10
87.6680029918
 20
223.8265244049
 11
87.6616519036
 21
223.8292431548
  0
LINE
  5
4C4
100
AcDbEntity
  8
0
100
AcDbLine
 62
7
  6
CONTINUOUS
 10
87.6766781109
 20
223.825116332
 11
87.6714283096
 21
223.8273888486
  0
LINE
  5
4C5
100
AcDbEntity
  8
0
100
AcDbLine
 62
7
  6
CONTINUOUS
 10
87.6743828433
 20
223.8237507883
 11
87.6680029918
 21
223.8265244049
  0
LINE
  5
4C6
100
AcDbEntity
  8
0
100
AcDbLine
 62
7
  6
CONTINUOUS
 10
87.681903881
 20
223.822825252
 11
87.6766781109
 21
223.825116332
  0
LINE
  5
4C7
100
AcDbEntity
  8
0
100
AcDbLine
 62
7
  6
CONTINUOUS
 10
87.6807917835
 20
223.8209212255
 11
87.6743828433
 21
223.8237507883
  0
LINE
  5
4C8
100
AcDbEntity
  8
0
100
AcDbLine
 62
7
  6
CONTINUOUS
 10
87.6871059448
 20
223.8205156652
 11
87.681903881
 21
223.822825252
  0
LINE
  5
4C9
100
AcDbEntity
  8
0
100
AcDbLine
 62
7
  6
CONTINUOUS
 10
87.6872303401
 20
223.8180345182
 11
87.6807917835
 21
223.8209212255
  0
LINE
  5
4CA
100
AcDbEntity
  8
0
100
AcDbLine
 62
7
  6
CONTINUOUS
 10
87.692284631
 20
223.8181876199
 11
87.6871059448
 21
223.8205156652
  0
LINE
  5
4CB
100
AcDbEntity
  8
0
100
AcDbLine
 62
7
  6
CONTINUOUS
 10
87.6936990107
 20
223.8150894482
 11
87.6872303401
 21
223.8180345182
  0
LINE
  5
4CC
100
AcDbEntity
  8
0
100
AcDbLine
 62
7
  6
CONTINUOUS
 10
87.6974402716
 20
223.8158411566
 11
87.692284631
 21
223.8181876199
  0
LINE
  5
4CD
100
AcDbEntity
  8
0
100
AcDbLine
 62
7
  6
CONTINUOUS
 10
87.7025732024
 20
223.8134763077
 11
87.6974402716
 21
223.8158411566
  0
LINE
  5
4CE
100
AcDbEntity
  8
0
100
AcDbLine
 62
7
  6
CONTINUOUS
 10
87.7001982702
 20
223.8120847741
 11
87.6936990107
 21
223.8150894482
  0
LINE
  5
4CF
100
AcDbEntity
  8
0
100
AcDbLine
 62
7
  6
CONTINUOUS
 10
87.7076837637
 20
223.8110930967
 11
87.7025732024
 21
223.8134763077
  0
LINE
  5
4D0
100
AcDbEntity
  8
0
100
AcDbLine
 62
7
  6
CONTINUOUS
 10
87.7067285707
 20
223.8090192306
 11
87.7001982702
 21
223.8120847741
  0
LINE
  5
4D1
100
AcDbEntity
  8
0
100
AcDbLine
 62
7
  6
CONTINUOUS
 10
87.7127722971
 20
223.8086915397
 11
87.7076837637
 21
223.8110930967
  0
LINE
  5
4D2
100
AcDbEntity
  8
0
100
AcDbLine
 62
7
  6
CONTINUOUS
 10
87.7132903414
 20
223.8058915292
 11
87.7067285707
 21
223.8090192306
  0
LINE
  5
4D3
100
AcDbEntity
  8
0
100
AcDbLine
 62
7
  6
CONTINUOUS
 10
87.717839146
 20
223.8062716452
 11
87.7127722971
 21
223.8086915397
  0
LINE
  5
4D4
100
AcDbEntity
  8
0
100
AcDbLine
 62
7
  6
CONTINUOUS
 10
87.7228846563
 20
223.8038334136
 11
87.717839146
 21
223.8062716452
  0
LINE
  5
4D5
100
AcDbEntity
  8
0
100
AcDbLine
 62
7
  6
CONTINUOUS
 10
87.7198839873
 20
223.8027003577
 11
87.7132903414
 21
223.8058915292
  0
LINE
  5
4D6
100
AcDbEntity
  8
0
100
AcDbLine
 62
7
  6
CONTINUOUS
 10
87.7279091757
 20
223.8013768372
 11
87.7228846563
 21
223.8038334136
  0
LINE
  5
4D7
100
AcDbEntity
  8
0
100
AcDbLine
 62
7
  6
CONTINUOUS
 10
87.7265098879
 20
223.7994443812
 11
87.7198839873
 21
223.8027003577
  0
LINE
  5
4D8
100
AcDbEntity
  8
0
100
AcDbLine
 62
7
  6
CONTINUOUS
 10
87.7329130538
 20
223.7989019004
 11
87.7279091757
 21
223.8013768372
  0
LINE
  5
4D9
100
AcDbEntity
  8
0
100
AcDbLine
 62
7
  6
CONTINUOUS
 10
87.733168397
 20
223.7961222417
 11
87.7265098879
 21
223.7994443812
  0
LINE
  5
4DA
100
AcDbEntity
  8
0
100
AcDbLine
 62
7
  6
CONTINUOUS
 10
87.7378966419
 20
223.7964085797
 11
87.7329130538
 21
223.7989019004
  0
LINE
  5
4DB
100
AcDbEntity
  8
0
100
AcDbLine
 62
7
  6
CONTINUOUS
 10
87.7428602926
 20
223.7938968435
 11
87.7378966419
 21
223.7964085797
  0
LWPOLYLINE
  5
4DC
100
AcDbEntity
  8
0
100
AcDbPolyline
 62
7
  6
CONTINUOUS
 90
3
 70
0
 10
87.7432180078
 20
223.791011952
 10
87.7398598411
 20
223.7927325591
 10
87.733168397
 20
223.7961222417
  0
LINE
  5
4DD
100
AcDbEntity
  8
0
100
AcDbLine
 62
7
  6
CONTINUOUS
 10
87.7478043597
 20
223.7913666524
 11
87.7428602926
 21
223.7938968435
  0
LWPOLYLINE
  5
4DE
100
AcDbEntity
  8
0
100
AcDbPolyline
 62
7
  6
CONTINUOUS
 90
92
 70
0
 10
88.7108915806
 20
221.9530698796
 10
88.7106263174
 20
221.9938160009
 10
88.7093131227
 20
222.0522662596
 10
88.7069445908
 20
222.1095709328
 10
88.7035654291
 20
222.1657402924
 10
88.6992183871
 20
222.2207614263
 10
88.6939427506
 20
222.2746367944
 10
88.6877739686
 20
222.3273787583
 10
88.680746172
 20
222.3789880893
 10
88.6728896398
 20
222.4294777916
 10
88.6642333572
 20
222.4788560475
 10
88.6548128705
 20
222.5271356496
 10
88.6446684539
 20
222.5743403611
 10
88.6338356831
 20
222.6204962425
 10
88.6223467349
 20
222.6656249455
 10
88.6102280706
 20
222.7097543212
 10
88.597505216
 20
222.7529013674
 10
88.5841976852
 20
222.7950916751
 10
88.5703274511
 20
222.8363327527
 10
88.555910013
 20
222.8766436631
 10
88.5409672559
 20
222.9160190541
 10
88.5255173199
 20
222.9544613129
 10
88.5095823994
 20
222.9919781708
 10
88.4931859847
 20
223.0285863944
 10
88.4763553633
 20
223.0642901978
 10
88.4591138597
 20
223.0990990411
 10
88.4414872623
 20
223.1330144612
 10
88.4234990615
 20
223.1660404644
 10
88.4051719653
 20
223.1981804997
 10
88.3865302146
 20
223.2294338652
 10
88.3675858968
 20
223.2598181557
 10
88.3483525615
 20
223.2893450388
 10
88.3288408375
 20
223.3180276733
 10
88.3090621514
 20
223.3458752301
 10
88.2890197696
 20
223.3729103372
 10
88.2687159177
 20
223.3991619242
 10
88.2481611268
 20
223.4246456331
 10
88.2273621134
 20
223.4493795356
 10
88.2063264797
 20
223.4733782539
 10
88.1850587737
 20
223.49665769
 10
88.1635698635
 20
223.5192249568
 10
88.1418672523
 20
223.5410895085
 10
88.1199623332
 20
223.5622557126
 10
88.0978643337
 20
223.5827292489
 10
88.0755849954
 20
223.6025127076
 10
88.0531386817
 20
223.6216060534
 10
88.0305250612
 20
223.6400209448
 10
88.0077466068
 20
223.6577670068
 10
87.9848008553
 20
223.6748616971
 10
87.9616822928
 20
223.6913238728
 10
87.9383966986
 20
223.7071630469
 10
87.9149437473
 20
223.7223922866
 10
87.8913353258
 20
223.7370162627
 10
87.8675704186
 20
223.7510475453
 10
87.8436874718
 20
223.7644760621
 10
87.8197126862
 20
223.7773014552
 10
87.7956838412
 20
223.7895194392
 10
87.7716356614
 20
223.8011300175
 10
87.7476050944
 20
223.812134548
 10
87.7236342682
 20
223.8225345871
 10
87.6997422338
 20
223.8323438914
 10
87.6759467753
 20
223.8415792984
 10
87.6522747898
 20
223.8502558996
 10
87.6287493902
 20
223.8583914103
 10
87.6053986018
 20
223.8660028653
 10
87.5822575365
 20
223.873106282
 10
87.5593285617
 20
223.8797282594
 10
87.5366269507
 20
223.8858909641
 10
87.5141486665
 20
223.8916211643
 10
87.4918957006
 20
223.8969428144
 10
87.4698643847
 20
223.9018801134
 10
87.448051192
 20
223.9064559675
 10
87.426456817
 20
223.9106912966
 10
87.4050717234
 20
223.9146079232
 10
87.3839224032
 20
223.918220363
 10
87.3630258038
 20
223.9215447534
 10
87.3423931557
 20
223.924597643
 10
87.3220413639
 20
223.9273945339
 10
87.3019688256
 20
223.9299530983
 10
87.2821805387
 20
223.9322893931
 10
87.2626752729
 20
223.9344195088
 10
87.2434568212
 20
223.936358213
 10
87.2245166848
 20
223.9381207072
 10
87.2058398631
 20
223.9397217127
 10
87.1874510054
 20
223.9411718243
 10
87.1693509923
 20
223.942483222
 10
87.1515990659
 20
223.9436636715
 10
87.1342555715
 20
223.9447214331
 10
87.1173235454
 20
223.945668192
 10
87.1008389102
 20
223.9465131503
 10
87.0847672858
 20
223.9472683772
 10
87.0537973208
 20
223.9485482708
  0
LINE
  5
4DF
100
AcDbEntity
  8
2_FEATURE
100
AcDbLine
 62
7
  6
CONTINUOUS
 10
88.7109375
 20
204.9531250854
 11
88.7109375
 21
206.0563258094
  0
LINE
  5
4E0
100
AcDbEntity
  8
2_FEATURE
100
AcDbLine
 62
7
  6
CONTINUOUS
 10
88.7109375
 20
217.8499243615
 11
88.7109375
 21
221.9530747345
  0
LINE
  5
4E1
100
AcDbEntity
  8
0
100
AcDbLine
 62
7
  6
CONTINUOUS
 10
87.7527291977
 20
223.7888179591
 11
87.7478043597
 21
223.7913666524
  0
LINE
  5
4E2
100
AcDbEntity
  8
0
100
AcDbLine
 62
7
  6
CONTINUOUS
 10
87.7499594051
 20
223.7875183189
 11
87.7432180078
 21
223.791011952
  0
LINE
  5
4E3
100
AcDbEntity
  8
0
100
AcDbLine
 62
7
  6
CONTINUOUS
 10
87.7576351664
 20
223.786250706
 11
87.7527291977
 21
223.7888179591
  0
LINE
  5
4E4
100
AcDbEntity
  8
0
100
AcDbLine
 62
7
  6
CONTINUOUS
 10
87.7567344287
 20
223.7839535969
 11
87.7499594051
 21
223.7875183189
  0
LINE
  5
4E5
100
AcDbEntity
  8
0
100
AcDbLine
 62
7
  6
CONTINUOUS
 10
87.7625225374
 20
223.7836648749
 11
87.7576351664
 21
223.786250706
  0
LINE
  5
4E6
100
AcDbEntity
  8
0
100
AcDbLine
 62
7
  6
CONTINUOUS
 10
87.7635433023
 20
223.7803163311
 11
87.7567344287
 21
223.7839535969
  0
LINE
  5
4E7
100
AcDbEntity
  8
0
100
AcDbLine
 62
7
  6
CONTINUOUS
 10
87.7673911468
 20
223.7810606761
 11
87.7625225374
 21
223.7836648749
  0
LINE
  5
4E8
100
AcDbEntity
  8
0
100
AcDbLine
 62
7
  6
CONTINUOUS
 10
87.77224064
 20
223.7784384281
 11
87.7673911468
 21
223.7810606761
  0
LINE
  5
4E9
100
AcDbEntity
  8
0
100
AcDbLine
 62
7
  6
CONTINUOUS
 10
87.7703862182
 20
223.7766050464
 11
87.7635433023
 21
223.7803163311
  0
LINE
  5
4EA
100
AcDbEntity
  8
0
100
AcDbLine
 62
7
  6
CONTINUOUS
 10
87.7770706708
 20
223.7757984537
 11
87.77224064
 21
223.7784384281
  0
LINE
  5
4EB
100
AcDbEntity
  8
0
100
AcDbLine
 62
7
  6
CONTINUOUS
 10
87.7772633354
 20
223.7728182481
 11
87.7703862182
 21
223.7766050464
  0
LINE
  5
4EC
100
AcDbEntity
  8
0
100
AcDbLine
 62
7
  6
CONTINUOUS
 10
87.7818808978
 20
223.7731410819
 11
87.7770706708
 21
223.7757984537
  0
LINE
  5
4ED
100
AcDbEntity
  8
0
100
AcDbLine
 62
7
  6
CONTINUOUS
 10
87.7866709842
 20
223.7704666479
 11
87.7818808978
 21
223.7731410819
  0
LINE
  5
4EE
100
AcDbEntity
  8
0
100
AcDbLine
 62
7
  6
CONTINUOUS
 10
87.7841747796
 20
223.768954423
 11
87.7772633354
 21
223.7728182481
  0
LINE
  5
4EF
100
AcDbEntity
  8
0
100
AcDbLine
 62
7
  6
CONTINUOUS
 10
87.7914405981
 20
223.7677754931
 11
87.7866709842
 21
223.7704666479
  0
LINE
  5
4F0
100
AcDbEntity
  8
0
100
AcDbLine
 62
7
  6
CONTINUOUS
 10
87.791120641
 20
223.7650120398
 11
87.7841747796
 21
223.768954423
  0
LINE
  5
4F1
100
AcDbEntity
  8
0
100
AcDbLine
 62
7
  6
CONTINUOUS
 10
87.7961894123
 20
223.7650679648
 11
87.7914405981
 21
223.7677754931
  0
LINE
  5
4F2
100
AcDbEntity
  8
0
100
AcDbLine
 62
7
  6
CONTINUOUS
 10
87.8009171046
 20
223.7623444163
 11
87.7961894123
 21
223.7650679648
  0
LINE
  5
4F3
100
AcDbEntity
  8
0
100
AcDbLine
 62
7
  6
CONTINUOUS
 10
87.7981009742
 20
223.7609895504
 11
87.791120641
 21
223.7650120398
  0
LINE
  5
4F4
100
AcDbEntity
  8
0
100
AcDbLine
 62
7
  6
CONTINUOUS
 10
87.8056233574
 20
223.7596052064
 11
87.8009171046
 21
223.7623444163
  0
LINE
  5
4F5
100
AcDbEntity
  8
0
100
AcDbLine
 62
7
  6
CONTINUOUS
 10
87.8051157962
 20
223.7568853906
 11
87.7981009742
 21
223.7609895504
  0
LINE
  5
4F6
100
AcDbEntity
  8
0
100
AcDbLine
 62
7
  6
CONTINUOUS
 10
87.8103078584
 20
223.7568506999
 11
87.8056233574
 21
223.7596052064
  0
LINE
  5
4F7
100
AcDbEntity
  8
0
100
AcDbLine
 62
7
  6
CONTINUOUS
 10
87.8149703001
 20
223.7540812671
 11
87.8103078584
 21
223.7568506999
  0
LINE
  5
4F8
100
AcDbEntity
  8
0
100
AcDbLine
 62
7
  6
CONTINUOUS
 10
87.8121650861
 20
223.7526979811
 11
87.8051157962
 21
223.7568853906
  0
LINE
  5
4F9
100
AcDbEntity
  8
0
100
AcDbLine
 62
7
  6
CONTINUOUS
 10
87.81961038
 20
223.7512972836
 11
87.8149703001
 21
223.7540812671
  0
LINE
  5
4FA
100
AcDbEntity
  8
0
100
AcDbLine
 62
7
  6
CONTINUOUS
 10
87.8192487832
 20
223.7484257288
 11
87.8121650861
 21
223.7526979811
  0
LINE
  5
4FB
100
AcDbEntity
  8
0
100
AcDbLine
 62
7
  6
CONTINUOUS
 10
87.8242278009
 20
223.7484991304
 11
87.81961038
 21
223.7512972836
  0
LINE
  5
4FC
100
AcDbEntity
  8
0
100
AcDbLine
 62
7
  6
CONTINUOUS
 10
87.8288222703
 20
223.745687194
 11
87.8242278009
 21
223.7484991304
  0
LINE
  5
4FD
100
AcDbEntity
  8
0
100
AcDbLine
 62
7
  6
CONTINUOUS
 10
87.8263667865
 20
223.7440670281
 11
87.8192487832
 21
223.7484257288
  0
LINE
  5
4FE
100
AcDbEntity
  8
0
100
AcDbLine
 62
7
  6
CONTINUOUS
 10
87.8333935012
 20
223.7428618655
 11
87.8288222703
 21
223.745687194
  0
LINE
  5
4FF
100
AcDbEntity
  8
0
100
AcDbLine
 62
7
  6
CONTINUOUS
 10
87.8335190541
 20
223.7396201988
 11
87.8263667865
 21
223.7440670281
  0
LINE
  5
500
100
AcDbEntity
  8
0
100
AcDbLine
 62
7
  6
CONTINUOUS
 10
87.8394518403
 20
223.7390746148
 11
87.8333935012
 21
223.7428618655
  0
LINE
  5
501
100
AcDbEntity
  8
0
100
AcDbLine
 62
7
  6
CONTINUOUS
 10
87.8407096669
 20
223.7350808972
 11
87.8335190541
 21
223.7396201988
  0
LINE
  5
502
100
AcDbEntity
  8
0
100
AcDbLine
 62
7
  6
CONTINUOUS
 10
87.8454677115
 20
223.7352652142
 11
87.8394518403
 21
223.7390746148
  0
LINE
  5
503
100
AcDbEntity
  8
0
100
AcDbLine
 62
7
  6
CONTINUOUS
 10
87.8479481418
 20
223.7304410647
 11
87.8407096669
 21
223.7350808972
  0
LINE
  5
504
100
AcDbEntity
  8
0
100
AcDbLine
 62
7
  6
CONTINUOUS
 10
87.8514404773
 20
223.7314346317
 11
87.8454677115
 21
223.7352652142
  0
LINE
  5
505
100
AcDbEntity
  8
0
100
AcDbLine
 62
7
  6
CONTINUOUS
 10
87.8573695164
 20
223.7275838491
 11
87.8514404773
 21
223.7314346317
  0
LINE
  5
506
100
AcDbEntity
  8
0
100
AcDbLine
 62
7
  6
CONTINUOUS
 10
87.8552441813
 20
223.7256920912
 11
87.8479481418
 21
223.7304410647
  0
LINE
  5
507
100
AcDbEntity
  8
0
100
AcDbLine
 62
7
  6
CONTINUOUS
 10
87.8632542243
 20
223.7237138625
 11
87.8573695164
 21
223.7275838491
  0
LINE
  5
508
100
AcDbEntity
  8
0
100
AcDbLine
 62
7
  6
CONTINUOUS
 10
87.8626072692
 20
223.7208250549
 11
87.8552441813
 21
223.7256920912
  0
LINE
  5
509
100
AcDbEntity
  8
0
100
AcDbLine
 62
7
  6
CONTINUOUS
 10
87.8690940131
 20
223.7198256807
 11
87.8632542243
 21
223.7237138625
  0
LINE
  5
50A
100
AcDbEntity
  8
0
100
AcDbLine
 62
7
  6
CONTINUOUS
 10
87.8700466553
 20
223.7158307203
 11
87.8626072692
 21
223.7208250549
  0
LINE
  5
50B
100
AcDbEntity
  8
0
100
AcDbLine
 62
7
  6
CONTINUOUS
 10
87.8748883115
 20
223.7159203255
 11
87.8690940131
 21
223.7198256807
  0
LINE
  5
50C
100
AcDbEntity
  8
0
100
AcDbLine
 62
7
  6
CONTINUOUS
 10
87.8775713398
 20
223.7106995368
 11
87.8700466553
 21
223.7158307203
  0
LINE
  5
50D
100
AcDbEntity
  8
0
100
AcDbLine
 62
7
  6
CONTINUOUS
 10
87.8806365651
 20
223.7119988306
 11
87.8748883115
 21
223.7159203255
  0
LINE
  5
50E
100
AcDbEntity
  8
0
100
AcDbLine
 62
7
  6
CONTINUOUS
 10
87.8863382359
 20
223.7080622411
 11
87.8806365651
 21
223.7119988306
  0
LINE
  5
50F
100
AcDbEntity
  8
0
100
AcDbLine
 62
7
  6
CONTINUOUS
 10
87.8851900562
 20
223.7054216366
 11
87.8775713398
 21
223.7106995368
  0
LINE
  5
510
100
AcDbEntity
  8
0
100
AcDbLine
 62
7
  6
CONTINUOUS
 10
87.8919928028
 20
223.7041116131
 11
87.8863382359
 21
223.7080622411
  0
LINE
  5
511
100
AcDbEntity
  8
0
100
AcDbLine
 62
7
  6
CONTINUOUS
 10
87.8929112536
 20
223.6999868323
 11
87.8851900562
 21
223.7054216366
  0
LINE
  5
512
100
AcDbEntity
  8
0
100
AcDbLine
 62
7
  6
CONTINUOUS
 10
87.8975997614
 20
223.700148013
 11
87.8919928028
 21
223.7041116131
  0
LINE
  5
513
100
AcDbEntity
  8
0
100
AcDbLine
 62
7
  6
CONTINUOUS
 10
87.9007425685
 20
223.6943849829
 11
87.8929112536
 21
223.6999868323
  0
LINE
  5
514
100
AcDbEntity
  8
0
100
AcDbLine
 62
7
  6
CONTINUOUS
 10
87.9031586237
 20
223.6961725168
 11
87.8975997614
 21
223.700148013
  0
LINE
  5
515
100
AcDbEntity
  8
0
100
AcDbLine
 62
7
  6
CONTINUOUS
 10
87.9086689186
 20
223.6921862097
 11
87.9031586237
 21
223.6961725168
  0
LINE
  5
516
100
AcDbEntity
  8
0
100
AcDbLine
 62
7
  6
CONTINUOUS
 10
87.9086893187
 20
223.6886071117
 11
87.9007425685
 21
223.6943849829
  0
LINE
  5
517
100
AcDbEntity
  8
0
100
AcDbLine
 62
7
  6
CONTINUOUS
 10
87.9141301912
 20
223.6881901854
 11
87.9086689186
 21
223.6921862097
  0
LINE
  5
518
100
AcDbEntity
  8
0
100
AcDbLine
 62
7
  6
CONTINUOUS
 10
87.9167560575
 20
223.6826443563
 11
87.9086893187
 21
223.6886071117
  0
LINE
  5
519
100
AcDbEntity
  8
0
100
AcDbLine
 62
7
  6
CONTINUOUS
 10
87.9195420033
 20
223.6841855454
 11
87.9141301912
 21
223.6881901854
  0
LINE
  5
51A
100
AcDbEntity
  8
0
100
AcDbLine
 62
7
  6
CONTINUOUS
 10
87.924903933
 20
223.6801733984
 11
87.9195420033
 21
223.6841855454
  0
LINE
  5
51B
100
AcDbEntity
  8
0
100
AcDbLine
 62
7
  6
CONTINUOUS
 10
87.9249470479
 20
223.6764876278
 11
87.9167560575
 21
223.6826443563
  0
LINE
  5
51C
100
AcDbEntity
  8
0
100
AcDbLine
 62
7
  6
CONTINUOUS
 10
87.9302155745
 20
223.67615486
 11
87.924903933
 21
223.6801733984
  0
LINE
  5
51D
100
AcDbEntity
  8
0
100
AcDbLine
 62
7
  6
CONTINUOUS
 10
87.9332662666
 20
223.670127599
 11
87.9249470479
 21
223.6764876278
  0
LINE
  5
51E
100
AcDbEntity
  8
0
100
AcDbLine
 62
7
  6
CONTINUOUS
 10
87.9354765385
 20
223.6721310517
 11
87.9302155745
 21
223.67615486
  0
LINE
  5
51F
100
AcDbEntity
  8
0
100
AcDbLine
 62
7
  6
CONTINUOUS
 10
87.939388779
 20
223.6691104147
 11
87.9354765385
 21
223.6721310517
  0
LINE
  5
520
100
AcDbEntity
  8
0
100
AcDbLine
 62
7
  6
CONTINUOUS
 10
87.9417174472
 20
223.6635546597
 11
87.9332662666
 21
223.670127599
  0
LINE
  5
521
100
AcDbEntity
  8
0
100
AcDbLine
 62
7
  6
CONTINUOUS
 10
87.9484048218
 20
223.6620558821
 11
87.939388779
 21
223.6691104147
  0
LINE
  5
522
100
AcDbEntity
  8
0
100
AcDbLine
 62
7
  6
CONTINUOUS
 10
87.9503043073
 20
223.656758722
 11
87.9417174472
 21
223.6635546597
  0
LINE
  5
523
100
AcDbEntity
  8
0
100
AcDbLine
 62
7
  6
CONTINUOUS
 10
87.9534855767
 20
223.6580225338
 11
87.9484048218
 21
223.6620558821
  0
LINE
  5
524
100
AcDbEntity
  8
0
100
AcDbLine
 62
7
  6
CONTINUOUS
 10
87.9585141022
 20
223.653989017
 11
87.9534855767
 21
223.6580225338
  0
LINE
  5
525
100
AcDbEntity
  8
0
100
AcDbLine
 62
7
  6
CONTINUOUS
 10
87.9585038826
 20
223.6501570166
 11
87.9503043073
 21
223.656758722
  0
LINE
  5
526
100
AcDbEntity
  8
0
100
AcDbLine
 62
7
  6
CONTINUOUS
 10
87.9634895771
 20
223.6499568973
 11
87.9585141022
 21
223.653989017
  0
LINE
  5
527
100
AcDbEntity
  8
0
100
AcDbLine
 62
7
  6
CONTINUOUS
 10
87.9684098103
 20
223.6459289098
 11
87.9634895771
 21
223.6499568973
  0
LINE
  5
528
100
AcDbEntity
  8
0
100
AcDbLine
 62
7
  6
CONTINUOUS
 10
87.9732723573
 20
223.6419081381
 11
87.9684098103
 21
223.6459289098
  0
LINE
  5
529
100
AcDbEntity
  8
0
100
AcDbLine
 62
7
  6
CONTINUOUS
 10
87.9780748174
 20
223.6378977307
 11
87.9732723573
 21
223.6419081381
  0
LINE
  5
52A
100
AcDbEntity
  8
0
100
AcDbLine
 62
7
  6
CONTINUOUS
 10
87.9828148345
 20
223.6339008729
 11
87.9780748174
 21
223.6378977307
  0
LINE
  5
52B
100
AcDbEntity
  8
0
100
AcDbLine
 62
7
  6
CONTINUOUS
 10
87.9874900963
 20
223.6299207854
 11
87.9828148345
 21
223.6339008729
  0
LINE
  5
52C
100
AcDbEntity
  8
0
100
AcDbLine
 62
7
  6
CONTINUOUS
 10
87.9920983335
 20
223.625960721
 11
87.9874900963
 21
223.6299207854
  0
LINE
  5
52D
100
AcDbEntity
  8
0
100
AcDbLine
 62
7
  6
CONTINUOUS
 10
87.996637319
 20
223.622023963
 11
87.9920983335
 21
223.625960721
  0
LINE
  5
52E
100
AcDbEntity
  8
0
100
AcDbLine
 62
7
  6
CONTINUOUS
 10
88.0011048674
 20
223.6181138223
 11
87.996637319
 21
223.622023963
  0
LINE
  5
52F
100
AcDbEntity
  8
0
100
AcDbLine
 62
7
  6
CONTINUOUS
 10
88.0054988306
 20
223.6142336375
 11
88.0011048674
 21
223.6181138223
  0
LINE
  5
530
100
AcDbEntity
  8
0
100
AcDbLine
 62
7
  6
CONTINUOUS
 10
88.0108851195
 20
223.6094301868
 11
88.0054988306
 21
223.6142336375
  0
LINE
  5
531
100
AcDbEntity
  8
0
100
AcDbLine
 62
7
  6
CONTINUOUS
 10
88.0161548436
 20
223.604680197
 11
88.0108851195
 21
223.6094301868
  0
LINE
  5
532
100
AcDbEntity
  8
0
100
AcDbLine
 62
7
  6
CONTINUOUS
 10
88.0213117532
 20
223.599983115
 11
88.0161548436
 21
223.604680197
  0
LINE
  5
533
100
AcDbEntity
  8
0
100
AcDbLine
 62
7
  6
CONTINUOUS
 10
88.0263595668
 20
223.5953382517
 11
88.0213117532
 21
223.599983115
  0
LINE
  5
534
100
AcDbEntity
  8
0
100
AcDbLine
 62
7
  6
CONTINUOUS
 10
88.0313019484
 20
223.5907448084
 11
88.0263595668
 21
223.5953382517
  0
LINE
  5
535
100
AcDbEntity
  8
0
100
AcDbLine
 62
7
  6
CONTINUOUS
 10
88.0361425086
 20
223.5862018813
 11
88.0313019484
 21
223.5907448084
  0
LINE
  5
536
100
AcDbEntity
  8
0
100
AcDbLine
 62
7
  6
CONTINUOUS
 10
88.0408848048
 20
223.5817084675
 11
88.0361425086
 21
223.5862018813
  0
LINE
  5
537
100
AcDbEntity
  8
0
100
AcDbLine
 62
7
  6
CONTINUOUS
 10
88.0455323423
 20
223.5772634685
 11
88.0408848048
 21
223.5817084675
  0
LINE
  5
538
100
AcDbEntity
  8
0
100
AcDbLine
 62
7
  6
CONTINUOUS
 10
88.0500885751
 20
223.5728656955
 11
88.0455323423
 21
223.5772634685
  0
LINE
  5
539
100
AcDbEntity
  8
0
100
AcDbLine
 62
7
  6
CONTINUOUS
 10
88.0545569082
 20
223.5685138719
 11
88.0500885751
 21
223.5728656955
  0
LINE
  5
53A
100
AcDbEntity
  8
0
100
AcDbLine
 62
7
  6
CONTINUOUS
 10
88.0598072205
 20
223.5633507932
 11
88.0545569082
 21
223.5685138719
  0
LINE
  5
53B
100
AcDbEntity
  8
0
100
AcDbLine
 62
7
  6
CONTINUOUS
 10
88.064939494
 20
223.558251425
 11
88.0598072205
 21
223.5633507932
  0
LINE
  5
53C
100
AcDbEntity
  8
0
100
AcDbLine
 62
7
  6
CONTINUOUS
 10
88.0699574799
 20
223.5532150467
 11
88.064939494
 21
223.558251425
  0
LINE
  5
53D
100
AcDbEntity
  8
0
100
AcDbLine
 62
7
  6
CONTINUOUS
 10
88.0748648695
 20
223.5482408261
 11
88.0699574799
 21
223.5532150467
  0
LINE
  5
53E
100
AcDbEntity
  8
0
100
AcDbLine
 62
7
  6
CONTINUOUS
 10
88.0796652941
 20
223.543327826
 11
88.0748648695
 21
223.5482408261
  0
LINE
  5
53F
100
AcDbEntity
  8
0
100
AcDbLine
 62
7
  6
CONTINUOUS
 10
88.0843623256
 20
223.5384750094
 11
88.0796652941
 21
223.543327826
  0
LINE
  5
540
100
AcDbEntity
  8
0
100
AcDbLine
 62
7
  6
CONTINUOUS
 10
88.0889594797
 20
223.5336812425
 11
88.0843623256
 21
223.5384750094
  0
LINE
  5
541
100
AcDbEntity
  8
0
100
AcDbLine
 62
7
  6
CONTINUOUS
 10
88.0934597584
 20
223.5289457833
 11
88.0889594797
 21
223.5336812425
  0
LINE
  5
542
100
AcDbEntity
  8
0
100
AcDbLine
 62
7
  6
CONTINUOUS
 10
88.0978627451
 20
223.5242714062
 11
88.0934597584
 21
223.5289457833
  0
LINE
  5
543
100
AcDbEntity
  8
0
100
AcDbLine
 62
7
  6
CONTINUOUS
 10
88.102874071
 20
223.5189009897
 11
88.0978627451
 21
223.5242714062
  0
LINE
  5
544
100
AcDbEntity
  8
0
100
AcDbLine
 62
7
  6
CONTINUOUS
 10
88.1077474791
 20
223.5136265679
 11
88.102874071
 21
223.5189009897
  0
LINE
  5
545
100
AcDbEntity
  8
0
100
AcDbLine
 62
7
  6
CONTINUOUS
 10
88.1124801665
 20
223.508455016
 11
88.1077474791
 21
223.5136265679
  0
LINE
  5
546
100
AcDbEntity
  8
0
100
AcDbLine
 62
7
  6
CONTINUOUS
 10
88.1170694538
 20
223.5033931426
 11
88.1124801665
 21
223.508455016
  0
LINE
  5
547
100
AcDbEntity
  8
0
100
AcDbLine
 62
7
  6
CONTINUOUS
 10
88.121512833
 20
223.4984476207
 11
88.1170694538
 21
223.5033931426
  0
LINE
  5
548
100
AcDbEntity
  8
0
100
AcDbLine
 62
7
  6
CONTINUOUS
 10
88.1263530123
 20
223.4930100025
 11
88.121512833
 21
223.4984476207
  0
LINE
  5
549
100
AcDbEntity
  8
0
100
AcDbLine
 62
7
  6
CONTINUOUS
 10
88.1283134043
 20
223.4907925317
 11
88.1263530123
 21
223.4930100025
  0
LINE
  5
54A
100
AcDbEntity
  8
0
100
AcDbLine
 62
7
  6
CONTINUOUS
 10
97.3109375
 20
200.9531250854
 11
97.3109375
 21
222.9531250854
  0
LINE
  5
54B
100
AcDbEntity
  8
2_FEATURE
100
AcDbLine
 62
7
  6
CONTINUOUS
 10
147.6796875854
 20
78.6711917945
 11
151.4829803156
 21
78.6711917945
  0
LINE
  5
54C
100
AcDbEntity
  8
2_FEATURE
100
AcDbLine
 62
7
  6
CONTINUOUS
 10
151.3802414858
 20
92.1711917945
 11
150.979133685
 21
92.1711917945
  0
LINE
  5
54D
100
AcDbEntity
  8
0
100
AcDbLine
 62
7
  6
CONTINUOUS
 10
139.1796875854
 20
84.8873119387
 11
139.1796875854
 21
87.9659736483
  0
LINE
  5
54E
100
AcDbEntity
  8
2_FEATURE
100
AcDbLine
 62
7
  6
CONTINUOUS
 10
139.1796875854
 20
84.8916692783
 11
139.1796875854
 21
147.1711917945
  0
LINE
  5
54F
100
AcDbEntity
  8
DEFAULT_1
100
AcDbLine
 62
2
  6
CENTER
 10
166.4641985748
 20
96.6711917945
 11
153.1797875854
 21
96.6711917945
  0
LINE
  5
550
100
AcDbEntity
  8
0
100
AcDbLine
 62
2
  6
CONTINUOUS
 10
152.0596875854
 20
96.6711917945
 11
150.2996875854
 21
96.6711917945
  0
LINE
  5
551
100
AcDbEntity
  8
DEFAULT_1
100
AcDbLine
 62
2
  6
CENTER
 10
135.2791985748
 20
96.6711917945
 11
149.1795875854
 21
96.6711917945
  0
LINE
  5
552
100
AcDbEntity
  8
2_FEATURE
100
AcDbLine
 62
7
  6
CONTINUOUS
 10
145.1796875854
 20
137.6118801364
 11
145.1796875854
 21
120.1756873785
  0
LINE
  5
553
100
AcDbEntity
  8
0
100
AcDbLine
 62
7
  6
CONTINUOUS
 10
148.5652385831
 20
102.1711917945
 11
153.7941365877
 21
102.1711917945
  0
LINE
  5
554
100
AcDbEntity
  8
0
100
AcDbLine
 62
7
  6
CONTINUOUS
 10
161.6697290931
 20
102.221780386
 11
161.1796829058
 21
102.2217734686
  0
LINE
  5
555
100
AcDbEntity
  8
0
100
AcDbLine
 62
7
  6
CONTINUOUS
 10
146.5796875854
 20
96.6711917945
 11
146.5796875854
 21
99.9807123381
  0
LINE
  5
556
100
AcDbEntity
  8
DEFAULT_1
100
AcDbLine
 62
2
  6
CENTER
 10
151.1796875854
 20
161.6474511879
 11
151.1796875854
 21
120.5712917945
  0
LINE
  5
557
100
AcDbEntity
  8
0
100
AcDbLine
 62
2
  6
CONTINUOUS
 10
151.1796875854
 20
119.4511917945
 11
151.1796875854
 21
117.6911917945
  0
LINE
  5
558
100
AcDbEntity
  8
DEFAULT_1
100
AcDbLine
 62
2
  6
CENTER
 10
151.1796875854
 20
73.8674511879
 11
151.1796875854
 21
116.5710917945
  0
LINE
  5
559
100
AcDbEntity
  8
0
100
AcDbLine
 62
7
  6
CONTINUOUS
 10
155.7796875854
 20
99.9807123381
 11
155.7796875854
 21
96.6711917945
  0
LINE
  5
55A
100
AcDbEntity
  8
2_FEATURE
100
AcDbLine
 62
7
  6
CONTINUOUS
 10
157.1796875854
 20
120.1756873785
 11
157.1796875854
 21
137.6118801364
  0
LINE
  5
55B
100
AcDbEntity
  8
2_FEATURE
100
AcDbLine
 62
7
  6
CONTINUOUS
 10
159.6796875854
 20
145.3518988779
 11
159.6796875854
 21
151.4232634722
  0
LINE
  5
55C
100
AcDbEntity
  8
0
100
AcDbLine
 62
7
  6
CONTINUOUS
 10
160.4796875854
 20
105.3122650327
 11
160.4796875854
 21
120.7980629838
  0
LINE
  5
55D
100
AcDbEntity
  8
DEFAULT_1
100
AcDbLine
 62
2
  6
CENTER
 10
166.4641985748
 20
118.5711917945
 11
153.1797875854
 21
118.5711917945
  0
LINE
  5
55E
100
AcDbEntity
  8
0
100
AcDbLine
 62
2
  6
CONTINUOUS
 10
152.0596875854
 20
118.5711917945
 11
150.2996875854
 21
118.5711917945
  0
LINE
  5
55F
100
AcDbEntity
  8
DEFAULT_1
100
AcDbLine
 62
2
  6
CENTER
 10
134.4541985748
 20
118.5711917945
 11
149.1795875854
 21
118.5711917945
  0
LINE
  5
560
100
AcDbEntity
  8
0
100
AcDbLine
 62
7
  6
CONTINUOUS
 10
163.1796875857
 20
95.2229874786
 11
163.1796903558
 21
95.1949424622
  0
LINE
  5
561
100
AcDbEntity
  8
0
100
AcDbLine
 62
7
  6
CONTINUOUS
 10
163.1796903558
 20
95.1949424622
 11
163.1796883928
 21
95.3652162345
  0
LINE
  5
562
100
AcDbEntity
  8
0
100
AcDbLine
 62
7
  6
CONTINUOUS
 10
163.1796875854
 20
102.4799506849
 11
163.1796884311
 21
95.3674939007
  0
LINE
  5
563
100
AcDbEntity
  8
2_FEATURE
100
AcDbLine
 62
7
  6
CONTINUOUS
 10
163.1796875854
 20
142.2966950335
 11
163.1796875854
 21
95.3838990699
  0
LWPOLYLINE
  5
564
100
AcDbEntity
  8
0
100
AcDbPolyline
 62
7
  6
CONTINUOUS
 90
30
 70
0
 10
163.0934694177
 20
94.3557248431
 10
163.0972819481
 20
94.3742012495
 10
163.1010864285
 20
94.3931042112
 10
163.1048784902
 20
94.412434884
 10
163.1086504638
 20
94.4321751867
 10
163.1123975301
 20
94.4523184917
 10
163.1161109018
 20
94.472842748
 10
163.119783365
 20
94.4937449767
 10
163.1234061459
 20
94.5150126981
 10
163.1269717516
 20
94.5366384055
 10
163.1304735271
 20
94.5586171016
 10
163.1339056158
 20
94.5809460228
 10
163.137262073
 20
94.6036184901
 10
163.1405384171
 20
94.6266337564
 10
163.1437285881
 20
94.6499778304
 10
163.1468247005
 20
94.6736330584
 10
163.1498245704
 20
94.6976284198
 10
163.1527240982
 20
94.7219787881
 10
163.1555207465
 20
94.7467124998
 10
163.1582124119
 20
94.7718641718
 10
163.1607928797
 20
94.7974299345
 10
163.1632593673
 20
94.8234364024
 10
163.16560055
 20
94.8498282296
 10
163.1678019944
 20
94.8765513415
 10
163.1698566309
 20
94.903638131
 10
163.1717544651
 20
94.9310770194
 10
163.1734906268
 20
94.958925401
 10
163.1750587372
 20
94.9872276354
 10
163.1764508109
 20
95.01600446
 10
163.1776958634
 20
95.0462591171
  0
LINE
  5
565
100
AcDbEntity
  8
0
100
AcDbLine
 62
7
  6
CONTINUOUS
 10
163.0896564453
 20
94.337685435
 11
163.0934694177
 21
94.3557248431
  0
LWPOLYLINE
  5
566
100
AcDbEntity
  8
0
100
AcDbPolyline
 62
7
  6
CONTINUOUS
 90
4
 70
0
 10
163.0744502989
 20
94.2692415188
 10
163.0781924953
 20
94.2855809462
 10
163.0820033582
 20
94.302589873
 10
163.0896564453
 20
94.337685435
  0
LINE
  5
567
100
AcDbEntity
  8
0
100
AcDbLine
 62
7
  6
CONTINUOUS
 10
163.0689930982
 20
94.2461810871
 11
163.0699061599
 21
94.2500707337
  0
LINE
  5
568
100
AcDbEntity
  8
0
100
AcDbLine
 62
7
  6
CONTINUOUS
 10
163.070402611
 20
94.2520513145
 11
163.0744502989
 21
94.2692415188
  0
LINE
  5
569
100
AcDbEntity
  8
0
100
AcDbLine
 62
7
  6
CONTINUOUS
 10
163.0680758075
 20
94.2423546929
 11
163.0689930982
 21
94.2461810871
  0
LINE
  5
56A
100
AcDbEntity
  8
0
100
AcDbLine
 62
7
  6
CONTINUOUS
 10
163.0676870259
 20
94.2407529115
 11
163.0680758075
 21
94.2423546929
  0
LINE
  5
56B
100
AcDbEntity
  8
0
100
AcDbLine
 62
7
  6
CONTINUOUS
 10
163.0647578521
 20
94.2287249814
 11
163.066479885
 21
94.2358038233
  0
LINE
  5
56C
100
AcDbEntity
  8
0
100
AcDbLine
 62
7
  6
CONTINUOUS
 10
163.0644228682
 20
94.2273497241
 11
163.0647578521
 21
94.2287249814
  0
LINE
  5
56D
100
AcDbEntity
  8
0
100
AcDbLine
 62
7
  6
CONTINUOUS
 10
163.066479885
 20
94.2358038233
 11
163.0667125357
 21
94.2367589205
  0
LINE
  5
56E
100
AcDbEntity
  8
0
100
AcDbLine
 62
7
  6
CONTINUOUS
 10
163.0667125357
 20
94.2367589205
 11
163.0676870259
 21
94.2407529115
  0
LINE
  5
56F
100
AcDbEntity
  8
0
100
AcDbLine
 62
7
  6
CONTINUOUS
 10
163.0598891558
 20
94.2089289217
 11
163.0644228682
 21
94.2273497241
  0
LINE
  5
570
100
AcDbEntity
  8
0
100
AcDbLine
 62
7
  6
CONTINUOUS
 10
163.0550148849
 20
94.1895062726
 11
163.0598891558
 21
94.2089289217
  0
LINE
  5
571
100
AcDbEntity
  8
0
100
AcDbLine
 62
7
  6
CONTINUOUS
 10
163.0502338877
 20
94.1708088835
 11
163.0550148849
 21
94.1895062726
  0
LINE
  5
572
100
AcDbEntity
  8
0
100
AcDbLine
 62
7
  6
CONTINUOUS
 10
163.0457392666
 20
94.153548372
 11
163.0502338877
 21
94.1708088835
  0
LINE
  5
573
100
AcDbEntity
  8
0
100
AcDbLine
 62
7
  6
CONTINUOUS
 10
163.0090673981
 20
94.0228565328
 11
163.0091549319
 21
94.0231870332
  0
LINE
  5
574
100
AcDbEntity
  8
0
100
AcDbLine
 62
7
  6
CONTINUOUS
 10
163.0413654392
 20
94.1370517743
 11
163.0457392666
 21
94.153548372
  0
LINE
  5
575
100
AcDbEntity
  8
0
100
AcDbLine
 62
7
  6
CONTINUOUS
 10
163.0372297489
 20
94.1217325852
 11
163.0413654392
 21
94.1370517743
  0
LINE
  5
576
100
AcDbEntity
  8
0
100
AcDbLine
 62
7
  6
CONTINUOUS
 10
163.0328615395
 20
94.1058384157
 11
163.0372297489
 21
94.1217325852
  0
LINE
  5
577
100
AcDbEntity
  8
0
100
AcDbLine
 62
7
  6
CONTINUOUS
 10
162.78037864
 20
93.1992634403
 11
163.0097792714
 21
94.0253164251
  0
LINE
  5
578
100
AcDbEntity
  8
0
100
AcDbLine
 62
7
  6
CONTINUOUS
 10
163.0277534306
 20
94.0875727433
 11
163.0328615395
 21
94.1058384157
  0
LINE
  5
579
100
AcDbEntity
  8
0
100
AcDbLine
 62
7
  6
CONTINUOUS
 10
162.6107737918
 20
92.5995340025
 11
162.78037864
 21
93.1992634403
  0
LINE
  5
57A
100
AcDbEntity
  8
0
100
AcDbLine
 62
7
  6
CONTINUOUS
 10
160.6275646827
 20
85.5969779839
 11
162.1460753912
 21
90.9960863576
  0
LWPOLYLINE
  5
57B
100
AcDbEntity
  8
0
100
AcDbPolyline
 62
7
  6
CONTINUOUS
 90
3
 70
0
 10
163.021553666
 20
94.0657913416
 10
163.0217914424
 20
94.0666198528
 10
163.0277534306
 20
94.0875727433
  0
LINE
  5
57C
100
AcDbEntity
  8
0
100
AcDbLine
 62
7
  6
CONTINUOUS
 10
163.0197089891
 20
94.059380549
 11
163.021553666
 21
94.0657913416
  0
LINE
  5
57D
100
AcDbEntity
  8
0
100
AcDbLine
 62
7
  6
CONTINUOUS
 10
163.0186068533
 20
94.0555640397
 11
163.0197089891
 21
94.059380549
  0
LINE
  5
57E
100
AcDbEntity
  8
0
100
AcDbLine
 62
7
  6
CONTINUOUS
 10
163.0177522243
 20
94.0526113829
 11
163.0186068533
 21
94.0555640397
  0
LINE
  5
57F
100
AcDbEntity
  8
0
100
AcDbLine
 62
7
  6
CONTINUOUS
 10
162.4325419948
 20
91.9801012319
 11
162.6107737918
 21
92.5995340025
  0
LINE
  5
580
100
AcDbEntity
  8
0
100
AcDbLine
 62
7
  6
CONTINUOUS
 10
163.0169210456
 20
94.0497452453
 11
163.0177522243
 21
94.0526113829
  0
LINE
  5
581
100
AcDbEntity
  8
0
100
AcDbLine
 62
7
  6
CONTINUOUS
 10
163.01631301
 20
94.0476519123
 11
163.0169210456
 21
94.0497452453
  0
LINE
  5
582
100
AcDbEntity
  8
0
100
AcDbLine
 62
7
  6
CONTINUOUS
 10
162.1460753912
 20
90.9960863576
 11
162.1965003118
 21
91.1705292161
  0
LINE
  5
583
100
AcDbEntity
  8
0
100
AcDbLine
 62
7
  6
CONTINUOUS
 10
163.0157182989
 20
94.0456071177
 11
163.01631301
 21
94.0476519123
  0
LINE
  5
584
100
AcDbEntity
  8
0
100
AcDbLine
 62
7
  6
CONTINUOUS
 10
163.0153294042
 20
94.0442713735
 11
163.0157182989
 21
94.0456071177
  0
LINE
  5
585
100
AcDbEntity
  8
0
100
AcDbLine
 62
7
  6
CONTINUOUS
 10
163.0147572135
 20
94.0423080086
 11
163.0153294042
 21
94.0442713735
  0
LINE
  5
586
100
AcDbEntity
  8
0
100
AcDbLine
 62
7
  6
CONTINUOUS
 10
163.0143824406
 20
94.0410232745
 11
163.0147572135
 21
94.0423080086
  0
LINE
  5
587
100
AcDbEntity
  8
0
100
AcDbLine
 62
7
  6
CONTINUOUS
 10
162.1965003118
 20
91.1705292161
 11
162.2277155603
 21
91.2776532738
  0
LINE
  5
588
100
AcDbEntity
  8
0
100
AcDbLine
 62
7
  6
CONTINUOUS
 10
163.0140124642
 20
94.0397559198
 11
163.0143824406
 21
94.0410232745
  0
LINE
  5
589
100
AcDbEntity
  8
0
100
AcDbLine
 62
7
  6
CONTINUOUS
 10
162.3188452999
 20
91.5896106522
 11
162.4325419948
 21
91.9801012319
  0
LINE
  5
58A
100
AcDbEntity
  8
0
100
AcDbLine
 62
7
  6
CONTINUOUS
 10
162.2277155603
 20
91.2776532738
 11
162.3188452999
 21
91.5896106522
  0
LINE
  5
58B
100
AcDbEntity
  8
0
100
AcDbLine
 62
7
  6
CONTINUOUS
 10
163.0134657201
 20
94.0378847296
 11
163.0140124642
 21
94.0397559198
  0
LINE
  5
58C
100
AcDbEntity
  8
0
100
AcDbLine
 62
7
  6
CONTINUOUS
 10
163.013106309
 20
94.036655751
 11
163.0134657201
 21
94.0378847296
  0
LINE
  5
58D
100
AcDbEntity
  8
0
100
AcDbLine
 62
7
  6
CONTINUOUS
 10
163.0112079942
 20
94.030177189
 11
163.013106309
 21
94.036655751
  0
LINE
  5
58E
100
AcDbEntity
  8
0
100
AcDbLine
 62
7
  6
CONTINUOUS
 10
163.0094869516
 20
94.0243152157
 11
163.0112079942
 21
94.030177189
  0
LINE
  5
58F
100
AcDbEntity
  8
0
100
AcDbLine
 62
7
  6
CONTINUOUS
 10
163.0089824562
 20
94.0225756658
 11
163.0090157048
 21
94.0226867343
  0
LINE
  5
590
100
AcDbEntity
  8
0
100
AcDbLine
 62
7
  6
CONTINUOUS
 10
163.0093543072
 20
94.0238788255
 11
163.0094869516
 21
94.0243152157
  0
LINE
  5
591
100
AcDbEntity
  8
0
100
AcDbLine
 62
7
  6
CONTINUOUS
 10
163.0087561703
 20
94.0218359897
 11
163.0090673981
 21
94.0228565328
  0
LINE
  5
592
100
AcDbEntity
  8
0
100
AcDbLine
 62
7
  6
CONTINUOUS
 10
163.0085123244
 20
94.0210525454
 11
163.0087089666
 21
94.0216832386
  0
LINE
  5
593
100
AcDbEntity
  8
0
100
AcDbLine
 62
7
  6
CONTINUOUS
 10
163.0083011811
 20
94.0203852954
 11
163.0084609799
 21
94.0208893485
  0
LINE
  5
594
100
AcDbEntity
  8
0
100
AcDbLine
 62
7
  6
CONTINUOUS
 10
163.0080754437
 20
94.0196830509
 11
163.0082460297
 21
94.0202126748
  0
LINE
  5
595
100
AcDbEntity
  8
0
100
AcDbLine
 62
7
  6
CONTINUOUS
 10
163.0078374662
 20
94.0189548605
 11
163.0080169988
 21
94.0195030735
  0
LINE
  5
596
100
AcDbEntity
  8
0
100
AcDbLine
 62
7
  6
CONTINUOUS
 10
163.0075892883
 20
94.0182083685
 11
163.0077763472
 21
94.0187698118
  0
LINE
  5
597
100
AcDbEntity
  8
0
100
AcDbLine
 62
7
  6
CONTINUOUS
 10
163.0073312437
 20
94.0174457893
 11
163.0075257036
 21
94.0180191899
  0
LINE
  5
598
100
AcDbEntity
  8
0
100
AcDbLine
 62
7
  6
CONTINUOUS
 10
163.0070632985
 20
94.0166681964
 11
163.0072651869
 21
94.0172527567
  0
LINE
  5
599
100
AcDbEntity
  8
0
100
AcDbLine
 62
7
  6
CONTINUOUS
 10
163.0067854216
 20
94.0158766618
 11
163.0069947614
 21
94.016471578
  0
LINE
  5
59A
100
AcDbEntity
  8
0
100
AcDbLine
 62
7
  6
CONTINUOUS
 10
163.0065704801
 20
94.0152745049
 11
163.0067854216
 21
94.0158766618
  0
LINE
  5
59B
100
AcDbEntity
  8
0
100
AcDbLine
 62
7
  6
CONTINUOUS
 10
163.0063499275
 20
94.0146655572
 11
163.0065704801
 21
94.0152745049
  0
LINE
  5
59C
100
AcDbEntity
  8
0
100
AcDbLine
 62
7
  6
CONTINUOUS
 10
163.0061237564
 20
94.0140502672
 11
163.0063499275
 21
94.0146655572
  0
LINE
  5
59D
100
AcDbEntity
  8
0
100
AcDbLine
 62
7
  6
CONTINUOUS
 10
163.0058919616
 20
94.0134290818
 11
163.0061237564
 21
94.0140502672
  0
LINE
  5
59E
100
AcDbEntity
  8
0
100
AcDbLine
 62
7
  6
CONTINUOUS
 10
163.0056545401
 20
94.0128024459
 11
163.0058919616
 21
94.0134290818
  0
LINE
  5
59F
100
AcDbEntity
  8
0
100
AcDbLine
 62
7
  6
CONTINUOUS
 10
163.0054114919
 20
94.0121708023
 11
163.0056545401
 21
94.0128024459
  0
LINE
  5
5A0
100
AcDbEntity
  8
0
100
AcDbLine
 62
7
  6
CONTINUOUS
 10
163.0051627911
 20
94.0115345185
 11
163.0054114919
 21
94.0121708023
  0
LINE
  5
5A1
100
AcDbEntity
  8
0
100
AcDbLine
 62
7
  6
CONTINUOUS
 10
163.0049082455
 20
94.0108935408
 11
163.0051627911
 21
94.0115345185
  0
LINE
  5
5A2
100
AcDbEntity
  8
0
100
AcDbLine
 62
7
  6
CONTINUOUS
 10
163.0046475956
 20
94.0102476694
 11
163.0049082455
 21
94.0108935408
  0
LINE
  5
5A3
100
AcDbEntity
  8
0
100
AcDbLine
 62
7
  6
CONTINUOUS
 10
163.0043805711
 20
94.0095967093
 11
163.0046475956
 21
94.0102476694
  0
LINE
  5
5A4
100
AcDbEntity
  8
0
100
AcDbLine
 62
7
  6
CONTINUOUS
 10
163.0041068906
 20
94.0089404705
 11
163.0043805711
 21
94.0095967093
  0
LINE
  5
5A5
100
AcDbEntity
  8
0
100
AcDbLine
 62
7
  6
CONTINUOUS
 10
163.0038262608
 20
94.0082787677
 11
163.0041068906
 21
94.0089404705
  0
LINE
  5
5A6
100
AcDbEntity
  8
0
100
AcDbLine
 62
7
  6
CONTINUOUS
 10
163.0035383758
 20
94.0076114205
 11
163.0038262608
 21
94.0082787677
  0
LINE
  5
5A7
100
AcDbEntity
  8
0
100
AcDbLine
 62
7
  6
CONTINUOUS
 10
163.0032429164
 20
94.0069382534
 11
163.0035383758
 21
94.0076114205
  0
LINE
  5
5A8
100
AcDbEntity
  8
0
100
AcDbLine
 62
7
  6
CONTINUOUS
 10
163.001555516
 20
94.0033059827
 11
163.0032429164
 21
94.0069382534
  0
LINE
  5
5A9
100
AcDbEntity
  8
DEFAULT_1
100
AcDbLine
 62
2
  6
CENTER
 10
166.4641985748
 20
146.9211917945
 11
153.1797875854
 21
146.9211917945
  0
LINE
  5
5AA
100
AcDbEntity
  8
0
100
AcDbLine
 62
2
  6
CONTINUOUS
 10
152.0596875854
 20
146.9211917945
 11
150.2996875854
 21
146.9211917945
  0
LINE
  5
5AB
100
AcDbEntity
  8
DEFAULT_1
100
AcDbLine
 62
2
  6
CENTER
 10
135.4441985748
 20
146.9211917945
 11
149.1795875854
 21
146.9211917945
  0
LINE
  5
5AC
100
AcDbEntity
  8
2_FEATURE
100
AcDbLine
 62
7
  6
CONTINUOUS
 10
161.8104211995
 20
143.7909870806
 11
161.0489539713
 21
143.8576068307
  0
LINE
  5
5AD
100
AcDbEntity
  8
2_FEATURE
100
AcDbLine
 62
7
  6
CONTINUOUS
 10
148.7871993409
 20
149.5711917945
 11
153.5721758299
 21
149.5711917945
  0
LINE
  5
5AE
100
AcDbEntity
  8
2_FEATURE
100
AcDbLine
 62
7
  6
CONTINUOUS
 10
148.2555852306
 20
150.5711917945
 11
154.1037900742
 21
150.5711917945
  0
LINE
  5
5AF
100
AcDbEntity
  8
2_FEATURE
100
AcDbLine
 62
7
  6
CONTINUOUS
 10
154.8552827753
 20
158.4711917945
 11
147.5040923955
 21
158.4711917945
  0
LINE
  5
5B0
100
AcDbEntity
  8
2_FEATURE
100
AcDbLine
 62
7
  6
CONTINUOUS
 10
155.8025288066
 20
158.245005006
 11
155.5904018133
 21
158.3311917945
  0
ARC
  5
5B1
100
AcDbEntity
  8
2_FEATURE
100
AcDbCircle
 62
7
  6
CONTINUOUS
 10
46.1109375
 20
107.0716068709
 40
2.0
100
AcDbArc
 50
180.0
 51
250.0
  0
ARC
  5
5B2
100
AcDbEntity
  8
0
100
AcDbCircle
 62
7
  6
CONTINUOUS
 10
46.1109375
 20
107.0716068709
 40
2.0
100
AcDbArc
 50
180.0
 51
250.0
  0
ARC
  5
5B3
100
AcDbEntity
  8
2_FEATURE
100
AcDbCircle
 62
7
  6
CONTINUOUS
 10
67.0225634795
 20
145.5954108353
 40
15.0
100
AcDbArc
 50
195.0
 51
222.4662805721
  0
ARC
  5
5B4
100
AcDbEntity
  8
2_FEATURE
100
AcDbCircle
 62
7
  6
CONTINUOUS
 10
45.4109375
 20
152.1711917945
 40
7.0
100
AcDbArc
 50
0.0
 51
59.316582891
  0
ARC
  5
5B5
100
AcDbEntity
  8
2_FEATURE
100
AcDbCircle
 62
7
  6
CONTINUOUS
 10
54.4109375
 20
142.4344967897
 40
2.0
100
AcDbArc
 50
180.0
 51
195.0
  0
ARC
  5
5B6
100
AcDbEntity
  8
2_FEATURE
100
AcDbCircle
 62
7
  6
CONTINUOUS
 10
47.9624076644
 20
156.4711917945
 40
2.0
100
AcDbArc
 50
59.316582891
 51
90.0
  0
ARC
  5
5B7
100
AcDbEntity
  8
2_FEATURE
100
AcDbCircle
 62
7
  6
CONTINUOUS
 10
45.1109375
 20
157.4711917945
 40
1.0
100
AcDbArc
 50
90.0
 51
180.0
  0
ARC
  5
5B8
100
AcDbEntity
  8
0
100
AcDbCircle
 62
7
  6
CONTINUOUS
 10
70.7109375
 20
96.6711917945
 40
18.0
100
AcDbArc
 50
162.0392146858
 51
17.9607938872
  0
ARC
  5
5B9
100
AcDbEntity
  8
2_FEATURE
100
AcDbCircle
 62
7
  6
CONTINUOUS
 10
70.7109375
 20
96.6711917945
 40
18.0
100
AcDbArc
 50
185.4462806554
 51
195.3751556025
  0
ARC
  5
5BA
100
AcDbEntity
  8
2_FEATURE
100
AcDbCircle
 62
7
  6
CONTINUOUS
 10
70.7109375
 20
96.6711917945
 40
18.0
100
AcDbArc
 50
213.316799891
 51
231.6063802974
  0
ARC
  5
5BB
100
AcDbEntity
  8
2_FEATURE
100
AcDbCircle
 62
7
  6
CONTINUOUS
 10
70.7109375
 20
96.6711917945
 40
18.0
100
AcDbArc
 50
162.0392061128
 51
184.6146272111
  0
ARC
  5
5BC
100
AcDbEntity
  8
0
100
AcDbCircle
 62
7
  6
CONTINUOUS
 10
95.3109375
 20
107.0716068709
 40
2.0
100
AcDbArc
 50
290.0
 51
360.0
  0
ARC
  5
5BD
100
AcDbEntity
  8
2_FEATURE
100
AcDbCircle
 62
7
  6
CONTINUOUS
 10
70.7109375
 20
148.9711917945
 40
20.0
100
AcDbArc
 50
222.4662805721
 51
317.5337194279
  0
ARC
  5
5BE
100
AcDbEntity
  8
0
100
AcDbCircle
 62
7
  6
CONTINUOUS
 10
70.7109375
 20
148.9711917945
 40
20.0
100
AcDbArc
 50
222.4662805721
 51
317.5337194279
  0
ARC
  5
5BF
100
AcDbEntity
  8
0
100
AcDbCircle
 62
7
  6
CONTINUOUS
 10
74.3993115205
 20
145.5954108353
 40
15.0
100
AcDbArc
 50
317.5337194279
 51
345.0
  0
ARC
  5
5C0
100
AcDbEntity
  8
0
100
AcDbCircle
 62
7
  6
CONTINUOUS
 10
87.0109375
 20
142.4344967897
 40
2.0
100
AcDbArc
 50
345.0
 51
360.0
  0
ARC
  5
5C1
100
AcDbEntity
  8
0
100
AcDbCircle
 62
7
  6
CONTINUOUS
 10
96.0109375
 20
152.1711917945
 40
7.0
100
AcDbArc
 50
120.683417109
 51
180.0
  0
ARC
  5
5C2
100
AcDbEntity
  8
0
100
AcDbCircle
 62
7
  6
CONTINUOUS
 10
93.4594673356
 20
156.4711917945
 40
2.0
100
AcDbArc
 50
90.0
 51
120.683417109
  0
ARC
  5
5C3
100
AcDbEntity
  8
0
100
AcDbCircle
 62
7
  6
CONTINUOUS
 10
96.3109375
 20
157.4711917945
 40
1.0
100
AcDbArc
 50
0.0
 51
90.0
  0
ARC
  5
5C4
100
AcDbEntity
  8
2_FEATURE
100
AcDbCircle
 62
7
  6
CONTINUOUS
 10
57.7109375
 20
204.9531250854
 40
5.0
100
AcDbArc
 50
180.0
 51
270.0
  0
ARC
  5
5C5
100
AcDbEntity
  8
2_FEATURE
100
AcDbCircle
 62
7
  6
CONTINUOUS
 10
45.1109375
 20
200.9531250854
 40
1.0
100
AcDbArc
 50
180.0
 51
270.0
  0
ARC
  5
5C6
100
AcDbEntity
  8
2_FEATURE
100
AcDbCircle
 62
7
  6
CONTINUOUS
 10
53.7109377019
 20
206.0562366571
 40
1.0
100
AcDbArc
 50
91.0
 51
179.9999999762
  0
ARC
  5
5C7
100
AcDbEntity
  8
2_FEATURE
100
AcDbCircle
 62
7
  6
CONTINUOUS
 10
44.4109375
 20
205.6531250854
 40
0.3
100
AcDbArc
 50
90.0
 51
180.0
  0
ARC
  5
5C8
100
AcDbEntity
  8
0
100
AcDbCircle
 62
7
  6
CONTINUOUS
 10
54.6378990051
 20
215.594166057
 40
8.3587509967
100
AcDbArc
 50
90.5291010023
 51
90.9243784482
  0
ARC
  5
5C9
100
AcDbEntity
  8
0
100
AcDbCircle
 62
7
  6
CONTINUOUS
 10
54.6078811411
 20
217.5229899059
 40
6.4296939912
100
AcDbArc
 50
90.934209828
 51
91.3051745872
  0
ARC
  5
5CA
100
AcDbEntity
  8
0
100
AcDbCircle
 62
7
  6
CONTINUOUS
 10
54.5890214583
 20
218.3643821577
 40
5.5880904633
100
AcDbArc
 50
91.3083543737
 51
91.585208291
  0
ARC
  5
5CB
100
AcDbEntity
  8
0
100
AcDbCircle
 62
7
  6
CONTINUOUS
 10
56.5662483061
 20
221.6230536643
 40
3.7861857917
100
AcDbArc
 50
172.2690217038
 51
175.5776057398
  0
ARC
  5
5CC
100
AcDbEntity
  8
0
100
AcDbCircle
 62
7
  6
CONTINUOUS
 10
54.4286273782
 20
222.4897122717
 40
1.5100728933
100
AcDbArc
 50
137.7691540795
 51
138.5890895711
  0
ARC
  5
5CD
100
AcDbEntity
  8
0
100
AcDbCircle
 62
7
  6
CONTINUOUS
 10
54.4244804271
 20
222.4929418059
 40
1.5083519575
100
AcDbArc
 50
138.2448924127
 51
138.576773264
  0
ARC
  5
5CE
100
AcDbEntity
  8
0
100
AcDbCircle
 62
7
  6
CONTINUOUS
 10
54.2800240497
 20
222.644456834
 40
1.2953168806
100
AcDbArc
 50
129.077421883
 51
129.5456375006
  0
ARC
  5
5CF
100
AcDbEntity
  8
2_FEATURE
100
AcDbCircle
 62
7
  6
CONTINUOUS
 10
53.7109377028
 20
217.8500135137
 40
1.0
100
AcDbArc
 50
180.0000000239
 51
269.0
  0
ARC
  5
5D0
100
AcDbEntity
  8
2_FEATURE
100
AcDbCircle
 62
7
  6
CONTINUOUS
 10
45.1109375
 20
222.9531250854
 40
1.0
100
AcDbArc
 50
90.0
 51
180.0
  0
ARC
  5
5D1
100
AcDbEntity
  8
0
100
AcDbCircle
 62
7
  6
CONTINUOUS
 10
44.6109375
 20
221.7531250854
 40
0.5
100
AcDbArc
 50
180.0
 51
270.0
  0
ARC
  5
5D2
100
AcDbEntity
  8
2_FEATURE
100
AcDbCircle
 62
7
  6
CONTINUOUS
 10
44.4109375
 20
218.2531250854
 40
0.3
100
AcDbArc
 50
180.0
 51
270.0
  0
ARC
  5
5D3
100
AcDbEntity
  8
0
100
AcDbCircle
 62
7
  6
CONTINUOUS
 10
83.7109375
 20
204.9531250854
 40
5.0
100
AcDbArc
 50
270.0
 51
360.0
  0
ARC
  5
5D4
100
AcDbEntity
  8
0
100
AcDbCircle
 62
7
  6
CONTINUOUS
 10
96.3109375
 20
200.9531250854
 40
1.0
100
AcDbArc
 50
270.0
 51
360.0
  0
ARC
  5
5D5
100
AcDbEntity
  8
0
100
AcDbCircle
 62
7
  6
CONTINUOUS
 10
87.7109372981
 20
206.0562366571
 40
1.0
100
AcDbArc
 50
0.0000000238
 51
89.0
  0
ARC
  5
5D6
100
AcDbEntity
  8
0
100
AcDbCircle
 62
7
  6
CONTINUOUS
 10
97.0109375
 20
205.6531250854
 40
0.3
100
AcDbArc
 50
0.0
 51
90.0
  0
ARC
  5
5D7
100
AcDbEntity
  8
0
100
AcDbCircle
 62
7
  6
CONTINUOUS
 10
86.7839759949
 20
215.5941660569
 40
8.3587509967
100
AcDbArc
 50
89.0756215518
 51
89.4708989977
  0
ARC
  5
5D8
100
AcDbEntity
  8
0
100
AcDbCircle
 62
7
  6
CONTINUOUS
 10
86.8139938588
 20
217.5229899022
 40
6.429693995
100
AcDbArc
 50
88.694825413
 51
89.065790172
  0
ARC
  5
5D9
100
AcDbEntity
  8
0
100
AcDbCircle
 62
7
  6
CONTINUOUS
 10
86.8328535415
 20
218.3643821505
 40
5.5880904705
100
AcDbArc
 50
88.414791709
 51
88.6916456261
  0
ARC
  5
5DA
100
AcDbEntity
  8
0
100
AcDbCircle
 62
7
  6
CONTINUOUS
 10
84.8556266939
 20
221.6230536643
 40
3.7861857917
100
AcDbArc
 50
4.4223942602
 51
7.7309782962
  0
ARC
  5
5DB
100
AcDbEntity
  8
0
100
AcDbCircle
 62
7
  6
CONTINUOUS
 10
86.993247622
 20
222.4897122719
 40
1.5100728931
100
AcDbArc
 50
41.4109104289
 51
42.2308459206
  0
ARC
  5
5DC
100
AcDbEntity
  8
0
100
AcDbCircle
 62
7
  6
CONTINUOUS
 10
86.997396235
 20
222.4929432782
 40
1.5083497371
100
AcDbArc
 50
41.4232265729
 51
41.7552788302
  0
ARC
  5
5DD
100
AcDbEntity
  8
0
100
AcDbCircle
 62
7
  6
CONTINUOUS
 10
87.141850951
 20
222.6444568349
 40
1.2953168795
100
AcDbArc
 50
50.4543624993
 51
50.9225781173
  0
ARC
  5
5DE
100
AcDbEntity
  8
0
100
AcDbCircle
 62
7
  6
CONTINUOUS
 10
87.7109372972
 20
217.8500135137
 40
1.0
100
AcDbArc
 50
271.0
 51
359.9999999761
  0
ARC
  5
5DF
100
AcDbEntity
  8
0
100
AcDbCircle
 62
7
  6
CONTINUOUS
 10
96.3109375
 20
222.9531250854
 40
1.0
100
AcDbArc
 50
0.0
 51
90.0
  0
ARC
  5
5E0
100
AcDbEntity
  8
0
100
AcDbCircle
 62
7
  6
CONTINUOUS
 10
96.8109375
 20
221.7531250854
 40
0.5
100
AcDbArc
 50
270.0
 51
360.0
  0
ARC
  5
5E1
100
AcDbEntity
  8
0
100
AcDbCircle
 62
7
  6
CONTINUOUS
 10
97.0109375
 20
218.2531250854
 40
0.3
100
AcDbArc
 50
270.0
 51
360.0
  0
ARC
  5
5E2
100
AcDbEntity
  8
0
100
AcDbCircle
 62
7
  6
CONTINUOUS
 10
34.1239739271
 20
53.5912354922
 40
136.3712804391
100
AcDbArc
 50
20.948050618
 51
22.4561551942
  0
ARC
  5
5E3
100
AcDbEntity
  8
0
100
AcDbCircle
 62
7
  6
CONTINUOUS
 10
151.4829803157
 20
88.1711917937
 40
9.4999999992
100
AcDbArc
 50
269.9999999997
 51
344.2779958525
  0
ARC
  5
5E4
100
AcDbEntity
  8
2_FEATURE
100
AcDbCircle
 62
7
  6
CONTINUOUS
 10
147.6796875854
 20
87.6711917945
 40
9.0
100
AcDbArc
 50
200.3641348063
 51
269.9999999999
  0
ARC
  5
5E5
100
AcDbEntity
  8
0
100
AcDbCircle
 62
7
  6
CONTINUOUS
 10
165.2417960174
 20
99.950090962
 40
6.4494223024
100
AcDbArc
 50
230.5242329073
 51
232.983362843
  0
ARC
  5
5E6
100
AcDbEntity
  8
0
100
AcDbCircle
 62
7
  6
CONTINUOUS
 10
164.7584212138
 20
99.9209601793
 40
6.1298946675
100
AcDbArc
 50
233.8404536904
 51
236.4214407053
  0
ARC
  5
5E7
100
AcDbEntity
  8
0
100
AcDbCircle
 62
7
  6
CONTINUOUS
 10
164.0818740477
 20
100.5880611243
 40
6.0996930468
100
AcDbArc
 50
241.5890563948
 51
245.7099208664
  0
ARC
  5
5E8
100
AcDbEntity
  8
0
100
AcDbCircle
 62
7
  6
CONTINUOUS
 10
151.2794093021
 20
96.6715704694
 40
4.5003238307
100
AcDbArc
 50
271.2836304121
 51
359.9951788596
  0
ARC
  5
5E9
100
AcDbEntity
  8
0
100
AcDbCircle
 62
7
  6
CONTINUOUS
 10
151.0799658687
 20
96.6715704694
 40
4.5003238307
100
AcDbArc
 50
180.0048211406
 51
268.716369588
  0
ARC
  5
5EA
100
AcDbEntity
  8
0
100
AcDbCircle
 62
7
  6
CONTINUOUS
 10
160.3351333517
 20
95.292329811
 40
2.8441794359
100
AcDbArc
 50
358.2968705053
 51
358.6038534298
  0
ARC
  5
5EB
100
AcDbEntity
  8
2_FEATURE
100
AcDbCircle
 62
7
  6
CONTINUOUS
 10
140.1796875854
 20
84.8873096131
 40
1.0
100
AcDbArc
 50
180.0
 51
200.3641348063
  0
ARC
  5
5EC
100
AcDbEntity
  8
0
100
AcDbCircle
 62
7
  6
CONTINUOUS
 10
162.3137891063
 20
95.1706942439
 40
0.8609819844
100
AcDbArc
 50
351.8131615694
 51
352.3376785364
  0
ARC
  5
5ED
100
AcDbEntity
  8
0
100
AcDbCircle
 62
7
  6
CONTINUOUS
 10
162.6993770171
 20
94.3406052515
 40
0.3814464038
100
AcDbArc
 50
345.1454055061
 51
346.3415423821
  0
ARC
  5
5EE
100
AcDbEntity
  8
0
100
AcDbCircle
 62
7
  6
CONTINUOUS
 10
148.7871993409
 20
147.6111917945
 40
1.96
100
AcDbArc
 50
90.0
 51
153.3533953635
  0
ARC
  5
5EF
100
AcDbEntity
  8
0
100
AcDbCircle
 62
7
  6
CONTINUOUS
 10
148.7871993409
 20
147.6111917945
 40
1.96
100
AcDbArc
 50
163.4365832125
 51
163.9122974618
  0
ARC
  5
5F0
100
AcDbEntity
  8
2_FEATURE
100
AcDbCircle
 62
7
  6
CONTINUOUS
 10
148.7871993382
 20
147.6111918932
 40
1.9599999213
100
AcDbArc
 50
89.9999999204
 51
163.9123002125
  0
ARC
  5
5F1
100
AcDbEntity
  8
2_FEATURE
100
AcDbCircle
 62
7
  6
CONTINUOUS
 10
147.5040923955
 20
156.4711917945
 40
2.0
100
AcDbArc
 50
90.0
 51
111.5651850152
  0
ARC
  5
5F2
100
AcDbEntity
  8
0
100
AcDbCircle
 62
7
  6
CONTINUOUS
 10
147.5040923955
 20
156.4711917945
 40
2.0
100
AcDbArc
 50
92.1005101465
 51
109.4646753875
  0
ARC
  5
5F3
100
AcDbEntity
  8
2_FEATURE
100
AcDbCircle
 62
7
  6
CONTINUOUS
 10
151.1796875854
 20
147.1711917945
 40
12.0
100
AcDbArc
 50
67.3415600792
 51
68.4348149848
  0
ARC
  5
5F4
100
AcDbEntity
  8
2_FEATURE
100
AcDbCircle
 62
7
  6
CONTINUOUS
 10
151.1796875854
 20
147.1711917945
 40
12.0
100
AcDbArc
 50
111.5651850152
 51
180.0
  0
ARC
  5
5F5
100
AcDbEntity
  8
0
100
AcDbCircle
 62
7
  6
CONTINUOUS
 10
151.1796875854
 20
147.1711917945
 40
12.0
100
AcDbArc
 50
111.5651850152
 51
112.0696745329
  0
ARC
  5
5F6
100
AcDbEntity
  8
0
100
AcDbCircle
 62
7
  6
CONTINUOUS
 10
151.1796875854
 20
147.1711917945
 40
12.0
100
AcDbArc
 50
112.307941751
 51
152.0948249649
  0
ARC
  5
5F7
100
AcDbEntity
  8
0
100
AcDbCircle
 62
7
  6
CONTINUOUS
 10
151.1796875854
 20
147.1711917945
 40
12.0
100
AcDbArc
 50
178.4658928947
 51
178.4816782633
  0
ARC
  5
5F8
100
AcDbEntity
  8
0
100
AcDbCircle
 62
7
  6
CONTINUOUS
 10
151.1796875854
 20
147.1711917945
 40
12.0
100
AcDbArc
 50
152.1414902928
 51
152.6443715221
  0
ARC
  5
5F9
100
AcDbEntity
  8
0
100
AcDbCircle
 62
7
  6
CONTINUOUS
 10
151.1796875854
 20
146.9211917945
 40
4.45
100
AcDbArc
 50
15.1276425635
 51
16.0877025382
  0
ARC
  5
5FA
100
AcDbEntity
  8
2_FEATURE
100
AcDbCircle
 62
7
  6
CONTINUOUS
 10
151.1796875854
 20
146.9211917945
 40
4.45
100
AcDbArc
 50
163.7030319172
 51
16.2969680828
  0
ARC
  5
5FB
100
AcDbEntity
  8
0
100
AcDbCircle
 62
7
  6
CONTINUOUS
 10
151.1796875854
 20
146.9211917945
 40
4.45
100
AcDbArc
 50
163.9122974618
 51
345.3892520885
  0
ARC
  5
5FC
100
AcDbEntity
  8
2_FEATURE
100
AcDbCircle
 62
7
  6
CONTINUOUS
 10
151.6796875854
 20
151.4232634722
 40
8.0
100
AcDbArc
 50
0.0
 51
56.032127598
  0
ARC
  5
5FD
100
AcDbEntity
  8
0
100
AcDbCircle
 62
7
  6
CONTINUOUS
 10
153.5721758299
 20
147.6111917945
 40
1.96
100
AcDbArc
 50
16.0877025382
 51
90.0
  0
ARC
  5
5FE
100
AcDbEntity
  8
2_FEATURE
100
AcDbCircle
 62
7
  6
CONTINUOUS
 10
153.5721758282
 20
147.6111918027
 40
1.9599999935
100
AcDbArc
 50
16.1236217038
 51
89.9999999498
  0
ARC
  5
5FF
100
AcDbEntity
  8
0
100
AcDbCircle
 62
7
  6
CONTINUOUS
 10
157.2799667252
 20
106.8109177892
 40
2.4940200931
100
AcDbArc
 50
11.1187526373
 51
12.0448535747
  0
ARC
  5
600
100
AcDbEntity
  8
2_FEATURE
100
AcDbCircle
 62
7
  6
CONTINUOUS
 10
155.0320552697
 20
156.3993694708
 40
2.0
100
AcDbArc
 50
56.032127598
 51
67.3415600792
  0
ARC
  5
601
100
AcDbEntity
  8
2_FEATURE
100
AcDbCircle
 62
7
  6
CONTINUOUS
 10
154.8552827753
 20
156.4711917945
 40
2.0
100
AcDbArc
 50
68.4348149848
 51
90.0
  0
ARC
  5
602
100
AcDbEntity
  8
0
100
AcDbCircle
 62
7
  6
CONTINUOUS
 10
155.0320552697
 20
156.3993694708
 40
2.0
100
AcDbArc
 50
61.3709024863
 51
61.4978125642
  0
ARC
  5
603
100
AcDbEntity
  8
2_FEATURE
100
AcDbCircle
 62
7
  6
CONTINUOUS
 10
161.6796875854
 20
142.2966950335
 40
1.5
100
AcDbArc
 50
0.0
 51
85.0
  0
ARC
  5
604
100
AcDbEntity
  8
2_FEATURE
100
AcDbCircle
 62
7
  6
CONTINUOUS
 10
161.1796875854
 20
145.3518988779
 40
1.5
100
AcDbArc
 50
180.0
 51
265.0
  0
SPLINE
  5
605
100
AcDbEntity
  8
0
100
AcDbSpline
 62
7
  6
CONTINUOUS
 70
0
 71
3
 72
9
 73
5
 74
0
 42
0.0000001
 43
0.0000001
 44
0.0000000001
 40
0.0
 40
0.0
 40
0.0
 40
0.0
 40
0.2388786217
 40
1.0
 40
1.0
 40
1.0
 40
1.0
 10
88.6137243637
 20
95.028346348
 30
0.0
 10
88.618940419
 20
95.0432956631
 30
0.0
 10
88.6383479857
 20
95.1067258731
 30
0.0
 10
88.6485293448
 20
95.1727445374
 30
0.0
 10
88.6525880673
 20
95.2230290661
 30
0.0
  0
SPLINE
  5
606
100
AcDbEntity
  8
0
100
AcDbSpline
 62
7
  6
CONTINUOUS
 70
0
 71
3
 72
9
 73
5
 74
0
 42
0.0000001
 43
0.0000001
 44
0.0000000001
 40
0.0
 40
0.0
 40
0.0
 40
0.0
 40
0.2429696321
 40
1.0
 40
1.0
 40
1.0
 40
1.0
 10
88.6073983743
 20
94.8004805517
 30
0.0
 10
88.6098849733
 20
94.8142634733
 30
0.0
 10
88.6194406715
 20
94.8711122975
 30
0.0
 10
88.6264200691
 20
94.9283811671
 30
0.0
 10
88.6305398373
 20
94.971823551
 30
0.0
  0
SPLINE
  5
607
100
AcDbEntity
  8
0
100
AcDbSpline
 62
7
  6
CONTINUOUS
 70
0
 71
3
 72
22
 73
18
 74
0
 42
0.0000001
 43
0.0000001
 44
0.0000000001
 40
0.0
 40
0.0
 40
0.0
 40
0.0
 40
0.07477515
 40
0.1462530126
 40
0.2149396612
 40
0.2811436002
 40
0.3451671612
 40
0.4071784025
 40
0.5258859505
 40
0.5831997169
 40
0.6395367069
 40
0.6953621617
 40
0.7514288869
 40
0.8087052775
 40
0.8683995808
 40
0.9317854366
 40
1.0
 40
1.0
 40
1.0
 40
1.0
 10
86.5056533212
 20
94.1400051707
 30
0.0
 10
86.5686372067
 20
94.1300177172
 30
0.0
 10
86.6913500345
 20
94.1074352518
 30
0.0
 10
86.8705267346
 20
94.0687159574
 30
0.0
 10
87.042294088
 20
94.0303562623
 30
0.0
 10
87.2084874668
 20
93.9962528142
 30
0.0
 10
87.3705265784
 20
93.9705357229
 30
0.0
 10
87.5784477118
 20
93.9517047823
 30
0.0
 10
87.783233489
 20
93.9607299624
 30
0.0
 10
87.9763316971
 20
94.0077537894
 30
0.0
 10
88.1109043441
 20
94.0620055103
 30
0.0
 10
88.234381696
 20
94.1363272568
 30
0.0
 10
88.3441972087
 20
94.2310025439
 30
0.0
 10
88.4380255013
 20
94.3458725345
 30
0.0
 10
88.5139793785
 20
94.4804159487
 30
0.0
 10
88.5717019081
 20
94.6335904213
 30
0.0
 10
88.5970695431
 20
94.7432290726
 30
0.0
 10
88.6073983741
 20
94.80048055
 30
0.0
  0
SPLINE
  5
608
100
AcDbEntity
  8
0
100
AcDbSpline
 62
7
  6
CONTINUOUS
 70
0
 71
3
 72
9
 73
5
 74
0
 42
0.0000001
 43
0.0000001
 44
0.0000000001
 40
0.0
 40
0.0
 40
0.0
 40
0.0
 40
0.2388786217
 40
1.0
 40
1.0
 40
1.0
 40
1.0
 10
52.8081506363
 20
95.028346348
 30
0.0
 10
52.802934581
 20
95.0432956631
 30
0.0
 10
52.7835270143
 20
95.1067258731
 30
0.0
 10
52.7733456552
 20
95.1727445374
 30
0.0
 10
52.7692869327
 20
95.2230290661
 30
0.0
  0
SPLINE
  5
609
100
AcDbEntity
  8
0
100
AcDbSpline
 62
7
  6
CONTINUOUS
 70
0
 71
3
 72
22
 73
18
 74
0
 42
0.0000001
 43
0.0000001
 44
0.0000000001
 40
0.0
 40
0.0
 40
0.0
 40
0.0
 40
0.07477515
 40
0.1462530126
 40
0.2149396612
 40
0.2811436002
 40
0.3451671612
 40
0.4071784025
 40
0.5258859505
 40
0.5831997169
 40
0.6395367069
 40
0.6953621617
 40
0.7514288869
 40
0.8087052775
 40
0.8683995808
 40
0.9317854366
 40
1.0
 40
1.0
 40
1.0
 40
1.0
 10
54.9162216788
 20
94.1400051707
 30
0.0
 10
54.8532377933
 20
94.1300177172
 30
0.0
 10
54.7305249655
 20
94.1074352518
 30
0.0
 10
54.5513482654
 20
94.0687159574
 30
0.0
 10
54.379580912
 20
94.0303562623
 30
0.0
 10
54.2133875332
 20
93.9962528142
 30
0.0
 10
54.0513484216
 20
93.9705357229
 30
0.0
 10
53.8434272882
 20
93.9517047823
 30
0.0
 10
53.638641511
 20
93.9607299624
 30
0.0
 10
53.4455433029
 20
94.0077537894
 30
0.0
 10
53.3109706559
 20
94.0620055103
 30
0.0
 10
53.187493304
 20
94.1363272568
 30
0.0
 10
53.0776777913
 20
94.2310025439
 30
0.0
 10
52.9838494987
 20
94.3458725345
 30
0.0
 10
52.9078956215
 20
94.4804159487
 30
0.0
 10
52.8501730919
 20
94.6335904213
 30
0.0
 10
52.8248054569
 20
94.7432290726
 30
0.0
 10
52.8144766259
 20
94.80048055
 30
0.0
  0
SPLINE
  5
60A
100
AcDbEntity
  8
0
100
AcDbSpline
 62
7
  6
CONTINUOUS
 70
0
 71
3
 72
9
 73
5
 74
0
 42
0.0000001
 43
0.0000001
 44
0.0000000001
 40
0.0
 40
0.0
 40
0.0
 40
0.0
 40
0.2429696321
 40
1.0
 40
1.0
 40
1.0
 40
1.0
 10
52.8144766257
 20
94.8004805517
 30
0.0
 10
52.8119900267
 20
94.8142634733
 30
0.0
 10
52.8024343285
 20
94.8711122975
 30
0.0
 10
52.7954549309
 20
94.9283811671
 30
0.0
 10
52.7913351627
 20
94.971823551
 30
0.0
  0
SPLINE
  5
60B
100
AcDbEntity
  8
2_FEATURE
100
AcDbSpline
 62
7
  6
CONTINUOUS
 70
0
 71
3
 72
18
 73
14
 74
0
 42
0.0000001
 43
0.0000001
 44
0.0000000001
 40
0.0
 40
0.0
 40
0.0
 40
0.0
 40
0.1466786906
 40
0.2922831342
 40
0.4353165369
 40
0.5735310498
 40
0.7037101859
 40
0.7644732215
 40
0.8214993074
 40
0.8741193799
 40
0.9216509059
 40
0.9635948525
 40
1.0
 40
1.0
 40
1.0
 40
1.0
 10
55.8026047888
 20
102.4799506849
 30
0.0
 10
55.7051995265
 20
102.461210004
 30
0.0
 10
55.5115373632
 20
102.421630095
 30
0.0
 10
55.223558279
 20
102.3605400372
 30
0.0
 10
54.9420705347
 20
102.2965492603
 30
0.0
 10
54.6712004035
 20
102.233018654
 30
0.0
 10
54.4540574664
 20
102.1839541746
 30
0.0
 10
54.2895045779
 20
102.1515993853
 30
0.0
 10
54.175797933
 20
102.1327022406
 30
0.0
 10
54.0702058144
 20
102.1201071475
 30
0.0
 10
53.9741110782
 20
102.1152735872
 30
0.0
 10
53.8889302068
 20
102.119824758
 30
0.0
 10
53.8367266817
 20
102.1312940276
 30
0.0
 10
53.8135923463
 20
102.1397142371
 30
0.0
  0
SPLINE
  5
60C
100
AcDbEntity
  8
0
100
AcDbSpline
 62
7
  6
CONTINUOUS
 70
0
 71
3
 72
23
 73
19
 74
0
 42
0.0000001
 43
0.0000001
 44
0.0000000001
 40
0.0
 40
0.0
 40
0.0
 40
0.0
 40
0.0876015717
 40
0.1721013327
 40
0.2533701692
 40
0.3311988538
 40
0.4054551235
 40
0.4759664882
 40
0.5426684077
 40
0.6053772294
 40
0.663989821
 40
0.7184016832
 40
0.7687345795
 40
0.8155669312
 40
0.8600758494
 40
0.9042303788
 40
0.9501937394
 40
1.0
 40
1.0
 40
1.0
 40
1.0
 10
54.7628066597
 20
95.3838990699
 30
0.0
 10
54.702324136
 20
95.3471447853
 30
0.0
 10
54.5847095394
 20
95.2729545676
 30
0.0
 10
54.4129777186
 20
95.1615591297
 30
0.0
 10
54.246683886
 20
95.0562821132
 30
0.0
 10
54.0840535405
 20
94.9607819108
 30
0.0
 10
53.9237347281
 20
94.8789953138
 30
0.0
 10
53.7657886353
 20
94.8132739572
 30
0.0
 10
53.61094525
 20
94.7662540126
 30
0.0
 10
53.4611330349
 20
94.7388626788
 30
0.0
 10
53.3188361857
 20
94.732202654
 30
0.0
 10
53.1869903793
 20
94.7459631909
 30
0.0
 10
53.068618221
 20
94.7800800658
 30
0.0
 10
52.9665486833
 20
94.8339564821
 30
0.0
 10
52.883840522
 20
94.9074007494
 30
0.0
 10
52.8226667145
 20
94.9987540037
 30
0.0
 10
52.7841073391
 20
95.1059972107
 30
0.0
 10
52.7725243075
 20
95.1829204191
 30
0.0
 10
52.7692869327
 20
95.223029066
 30
0.0
  0
SPLINE
  5
60D
100
AcDbEntity
  8
0
100
AcDbSpline
 62
7
  6
CONTINUOUS
 70
0
 71
3
 72
11
 73
7
 74
0
 42
0.0000001
 43
0.0000001
 44
0.0000000001
 40
0.0
 40
0.0
 40
0.0
 40
0.0
 40
0.2718760871
 40
0.529556715
 40
0.7724138453
 40
1.0
 40
1.0
 40
1.0
 40
1.0
 10
54.7766131358
 20
95.2229874786
 30
0.0
 10
54.6922572218
 20
95.1758821284
 30
0.0
 10
54.5300562528
 20
95.080414087
 30
0.0
 10
54.2937926879
 20
94.9406660939
 30
0.0
 10
54.0652917735
 20
94.8189122239
 30
0.0
 10
53.9106227357
 20
94.7542768609
 30
0.0
 10
53.8340427124
 20
94.7282637387
 30
0.0
  0
SPLINE
  5
60E
100
AcDbEntity
  8
0
100
AcDbSpline
 62
7
  6
CONTINUOUS
 70
0
 71
3
 72
17
 73
13
 74
0
 42
0.0000001
 43
0.0000001
 44
0.0000000001
 40
0.0
 40
0.0
 40
0.0
 40
0.0
 40
0.1516980345
 40
0.2945950918
 40
0.4286006197
 40
0.4923249397
 40
0.5538593294
 40
0.670729074
 40
0.7812789861
 40
0.88922172
 40
0.9439572991
 40
1.0
 40
1.0
 40
1.0
 40
1.0
 10
53.8340427124
 20
94.7282637387
 30
0.0
 10
53.7770484261
 20
94.7089036071
 30
0.0
 10
53.6642394026
 20
94.6770893255
 30
0.0
 10
53.4955107451
 20
94.6520656067
 30
0.0
 10
53.3596917632
 20
94.6525748301
 30
0.0
 10
53.2576224845
 20
94.6664489313
 30
0.0
 10
53.1639228132
 20
94.6881657561
 30
0.0
 10
53.0563896041
 20
94.7305656079
 30
0.0
 10
52.9459351042
 20
94.8071321868
 30
0.0
 10
52.8749206317
 20
94.8908125676
 30
0.0
 10
52.8322568077
 20
94.9665874595
 30
0.0
 10
52.8154764757
 20
95.0073503511
 30
0.0
 10
52.8081506363
 20
95.0283463479
 30
0.0
  0
SPLINE
  5
60F
100
AcDbEntity
  8
0
100
AcDbSpline
 62
7
  6
CONTINUOUS
 70
0
 71
3
 72
22
 73
18
 74
0
 42
0.0000001
 43
0.0000001
 44
0.0000000001
 40
0.0
 40
0.0
 40
0.0
 40
0.0
 40
0.0779237803
 40
0.1526663947
 40
0.2245560517
 40
0.2937473048
 40
0.3604076239
 40
0.4246063117
 40
0.5459890662
 40
0.6036413125
 40
0.6595531296
 40
0.714114061
 40
0.768025772
 40
0.822259486
 40
0.8780796708
 40
0.9369024576
 40
1.0
 40
1.0
 40
1.0
 40
1.0
 10
54.8699225668
 20
94.4212482941
 30
0.0
 10
54.8087994563
 20
94.4041984325
 30
0.0
 10
54.6898202327
 20
94.3680151981
 30
0.0
 10
54.516390219
 20
94.3100301482
 30
0.0
 10
54.3499211158
 20
94.2536561838
 30
0.0
 10
54.1886500033
 20
94.2024990729
 30
0.0
 10
54.0311381503
 20
94.160435622
 30
0.0
 10
53.8295177078
 20
94.1209366418
 30
0.0
 10
53.6298750662
 20
94.1088994482
 30
0.0
 10
53.4397316284
 20
94.1347451485
 30
0.0
 10
53.3076629831
 20
94.1728542781
 30
0.0
 10
53.1861225004
 20
94.2304752368
 30
0.0
 10
53.0776689627
 20
94.3078611478
 30
0.0
 10
52.9846292982
 20
94.4047333631
 30
0.0
 10
52.9091142145
 20
94.5205696946
 30
0.0
 10
52.8516318081
 20
94.6540741135
 30
0.0
 10
52.8263933899
 20
94.7504543974
 30
0.0
 10
52.8161673332
 20
94.8008094634
 30
0.0
  0
LINE
  5
610
100
AcDbEntity
  8
0
100
AcDbLine
 62
7
  6
CONTINUOUS
 10
52.8161673332
 20
94.8008094634
 11
52.8150699955
 21
94.8062698037
  0
SPLINE
  5
611
100
AcDbEntity
  8
0
100
AcDbSpline
 62
7
  6
CONTINUOUS
 70
0
 71
3
 72
9
 73
5
 74
0
 42
0.0000001
 43
0.0000001
 44
0.0000000001
 40
0.0
 40
0.0
 40
0.0
 40
0.0
 40
0.2422380035
 40
1.0
 40
1.0
 40
1.0
 40
1.0
 10
52.8150699955
 20
94.8062698037
 30
0.0
 10
52.8124353905
 20
94.8195182626
 30
0.0
 10
52.8023619197
 20
94.874369188
 30
0.0
 10
52.7953244262
 20
94.9297573205
 30
0.0
 10
52.7913351628
 20
94.9718235494
 30
0.0
  0
SPLINE
  5
612
100
AcDbEntity
  8
0
100
AcDbSpline
 62
7
  6
CONTINUOUS
 70
0
 71
3
 72
18
 73
14
 74
0
 42
0.0000001
 43
0.0000001
 44
0.0000000001
 40
0.0
 40
0.0
 40
0.0
 40
0.0
 40
0.1466786906
 40
0.2922831342
 40
0.4353165369
 40
0.5735310498
 40
0.7037101859
 40
0.7644732215
 40
0.8214993074
 40
0.8741193799
 40
0.9216509059
 40
0.9635948525
 40
1.0
 40
1.0
 40
1.0
 40
1.0
 10
85.6192702112
 20
102.4799506849
 30
0.0
 10
85.7166754735
 20
102.461210004
 30
0.0
 10
85.9103376368
 20
102.421630095
 30
0.0
 10
86.198316721
 20
102.3605400372
 30
0.0
 10
86.4798044653
 20
102.2965492603
 30
0.0
 10
86.7506745965
 20
102.233018654
 30
0.0
 10
86.9678175336
 20
102.1839541746
 30
0.0
 10
87.1323704221
 20
102.1515993853
 30
0.0
 10
87.246077067
 20
102.1327022406
 30
0.0
 10
87.3516691856
 20
102.1201071475
 30
0.0
 10
87.4477639218
 20
102.1152735872
 30
0.0
 10
87.5329447932
 20
102.119824758
 30
0.0
 10
87.5851483183
 20
102.1312940276
 30
0.0
 10
87.6082826537
 20
102.1397142371
 30
0.0
  0
SPLINE
  5
613
100
AcDbEntity
  8
0
100
AcDbSpline
 62
7
  6
CONTINUOUS
 70
0
 71
3
 72
23
 73
19
 74
0
 42
0.0000001
 43
0.0000001
 44
0.0000000001
 40
0.0
 40
0.0
 40
0.0
 40
0.0
 40
0.0876015717
 40
0.1721013327
 40
0.2533701692
 40
0.3311988538
 40
0.4054551235
 40
0.4759664882
 40
0.5426684077
 40
0.6053772294
 40
0.663989821
 40
0.7184016832
 40
0.7687345795
 40
0.8155669312
 40
0.8600758494
 40
0.9042303788
 40
0.9501937394
 40
1.0
 40
1.0
 40
1.0
 40
1.0
 10
86.6590683403
 20
95.3838990699
 30
0.0
 10
86.719550864
 20
95.3471447853
 30
0.0
 10
86.8371654606
 20
95.2729545676
 30
0.0
 10
87.0088972814
 20
95.1615591297
 30
0.0
 10
87.175191114
 20
95.0562821132
 30
0.0
 10
87.3378214595
 20
94.9607819108
 30
0.0
 10
87.4981402719
 20
94.8789953138
 30
0.0
 10
87.6560863647
 20
94.8132739572
 30
0.0
 10
87.81092975
 20
94.7662540126
 30
0.0
 10
87.9607419651
 20
94.7388626788
 30
0.0
 10
88.1030388143
 20
94.732202654
 30
0.0
 10
88.2348846207
 20
94.7459631909
 30
0.0
 10
88.353256779
 20
94.7800800658
 30
0.0
 10
88.4553263167
 20
94.8339564821
 30
0.0
 10
88.538034478
 20
94.9074007494
 30
0.0
 10
88.5992082855
 20
94.9987540037
 30
0.0
 10
88.6377676609
 20
95.1059972107
 30
0.0
 10
88.6493506925
 20
95.1829204191
 30
0.0
 10
88.6525880673
 20
95.223029066
 30
0.0
  0
SPLINE
  5
614
100
AcDbEntity
  8
0
100
AcDbSpline
 62
7
  6
CONTINUOUS
 70
0
 71
3
 72
17
 73
13
 74
0
 42
0.0000001
 43
0.0000001
 44
0.0000000001
 40
0.0
 40
0.0
 40
0.0
 40
0.0
 40
0.1516980345
 40
0.2945950918
 40
0.4286006197
 40
0.4923249397
 40
0.5538593294
 40
0.670729074
 40
0.7812789861
 40
0.88922172
 40
0.9439572991
 40
1.0
 40
1.0
 40
1.0
 40
1.0
 10
87.5878322876
 20
94.7282637387
 30
0.0
 10
87.6448265739
 20
94.7089036071
 30
0.0
 10
87.7576355974
 20
94.6770893255
 30
0.0
 10
87.9263642549
 20
94.6520656067
 30
0.0
 10
88.0621832368
 20
94.6525748301
 30
0.0
 10
88.1642525155
 20
94.6664489313
 30
0.0
 10
88.2579521868
 20
94.6881657561
 30
0.0
 10
88.3654853959
 20
94.7305656079
 30
0.0
 10
88.4759398958
 20
94.8071321868
 30
0.0
 10
88.5469543683
 20
94.8908125676
 30
0.0
 10
88.5896181923
 20
94.9665874595
 30
0.0
 10
88.6063985243
 20
95.0073503511
 30
0.0
 10
88.6137243637
 20
95.0283463479
 30
0.0
  0
SPLINE
  5
615
100
AcDbEntity
  8
0
100
AcDbSpline
 62
7
  6
CONTINUOUS
 70
0
 71
3
 72
11
 73
7
 74
0
 42
0.0000001
 43
0.0000001
 44
0.0000000001
 40
0.0
 40
0.0
 40
0.0
 40
0.0
 40
0.2718760871
 40
0.529556715
 40
0.7724138453
 40
1.0
 40
1.0
 40
1.0
 40
1.0
 10
86.6452618642
 20
95.2229874786
 30
0.0
 10
86.7296177782
 20
95.1758821284
 30
0.0
 10
86.8918187472
 20
95.080414087
 30
0.0
 10
87.1280823121
 20
94.9406660939
 30
0.0
 10
87.3565832265
 20
94.8189122239
 30
0.0
 10
87.5112522643
 20
94.7542768609
 30
0.0
 10
87.5878322876
 20
94.7282637387
 30
0.0
  0
SPLINE
  5
616
100
AcDbEntity
  8
0
100
AcDbSpline
 62
7
  6
CONTINUOUS
 70
0
 71
3
 72
22
 73
18
 74
0
 42
0.0000001
 43
0.0000001
 44
0.0000000001
 40
0.0
 40
0.0
 40
0.0
 40
0.0
 40
0.0779237803
 40
0.1526663947
 40
0.2245560517
 40
0.2937473048
 40
0.3604076239
 40
0.4246063117
 40
0.5459890662
 40
0.6036413125
 40
0.6595531296
 40
0.714114061
 40
0.768025772
 40
0.822259486
 40
0.8780796708
 40
0.9369024576
 40
1.0
 40
1.0
 40
1.0
 40
1.0
 10
86.5519524332
 20
94.4212482941
 30
0.0
 10
86.6130755437
 20
94.4041984325
 30
0.0
 10
86.7320547673
 20
94.3680151981
 30
0.0
 10
86.905484781
 20
94.3100301482
 30
0.0
 10
87.0719538842
 20
94.2536561838
 30
0.0
 10
87.2332249967
 20
94.2024990729
 30
0.0
 10
87.3907368497
 20
94.160435622
 30
0.0
 10
87.5923572922
 20
94.1209366418
 30
0.0
 10
87.7919999338
 20
94.1088994482
 30
0.0
 10
87.9821433716
 20
94.1347451485
 30
0.0
 10
88.1142120169
 20
94.1728542781
 30
0.0
 10
88.2357524996
 20
94.2304752368
 30
0.0
 10
88.3442060373
 20
94.3078611478
 30
0.0
 10
88.4372457018
 20
94.4047333631
 30
0.0
 10
88.5127607855
 20
94.5205696946
 30
0.0
 10
88.5702431919
 20
94.6540741135
 30
0.0
 10
88.5954816101
 20
94.7504543974
 30
0.0
 10
88.6057076668
 20
94.8008094634
 30
0.0
  0
LINE
  5
617
100
AcDbEntity
  8
0
100
AcDbLine
 62
7
  6
CONTINUOUS
 10
88.6057076668
 20
94.8008094634
 11
88.6068050045
 21
94.8062698037
  0
SPLINE
  5
618
100
AcDbEntity
  8
0
100
AcDbSpline
 62
7
  6
CONTINUOUS
 70
0
 71
3
 72
9
 73
5
 74
0
 42
0.0000001
 43
0.0000001
 44
0.0000000001
 40
0.0
 40
0.0
 40
0.0
 40
0.0
 40
0.2422380035
 40
1.0
 40
1.0
 40
1.0
 40
1.0
 10
88.6068050045
 20
94.8062698037
 30
0.0
 10
88.6094396095
 20
94.8195182626
 30
0.0
 10
88.6195130803
 20
94.874369188
 30
0.0
 10
88.6265505738
 20
94.9297573205
 30
0.0
 10
88.6305398372
 20
94.9718235494
 30
0.0
  0
SPLINE
  5
619
100
AcDbEntity
  8
0
100
AcDbSpline
 62
7
  6
CONTINUOUS
 70
0
 71
3
 72
32
 73
28
 74
0
 42
0.0000001
 43
0.0000001
 44
0.0000000001
 40
0.0
 40
0.0
 40
0.0
 40
0.0
 40
0.0714921042
 40
0.1434024907
 40
0.1801173773
 40
0.2178360207
 40
0.2570404494
 40
0.2980848084
 40
0.3403757991
 40
0.3812003366
 40
0.4173322393
 40
0.448210711
 40
0.4751600998
 40
0.4996693461
 40
0.5228793841
 40
0.5455855043
 40
0.5683232758
 40
0.5914454011
 40
0.6151788979
 40
0.6396655007
 40
0.6649891331
 40
0.6911945354
 40
0.7462793336
 40
0.8049143893
 40
0.8669141745
 40
0.9320317845
 40
1.0
 40
1.0
 40
1.0
 40
1.0
 10
80.3659453573
 20
199.9531250854
 30
0.0
 10
80.6112570219
 20
199.9531243544
 30
0.0
 10
81.1033235958
 20
199.9567088916
 30
0.0
 10
81.7211803875
 20
199.9767530915
 30
0.0
 10
82.2222857145
 20
200.0100321609
 30
0.0
 10
82.6104312739
 20
200.0481714245
 30
0.0
 10
83.0113068108
 20
200.1055806003
 30
0.0
 10
83.4232733274
 20
200.1917150043
 30
0.0
 10
83.8311992308
 20
200.3176038162
 30
0.0
 10
84.2043169229
 20
200.4895002009
 30
0.0
 10
84.5106712526
 20
200.7009328716
 30
0.0
 10
84.7360139025
 20
200.9347176512
 30
0.0
 10
84.8863938632
 20
201.1763395875
 30
0.0
 10
84.9746959322
 20
201.418696966
 30
0.0
 10
85.0122068314
 20
201.6588152617
 30
0.0
 10
85.0073034085
 20
201.895405088
 30
0.0
 10
84.9660461515
 20
202.1278598042
 30
0.0
 10
84.8928903737
 20
202.3558299884
 30
0.0
 10
84.7912168247
 20
202.5790430755
 30
0.0
 10
84.6636997904
 20
202.7972390228
 30
0.0
 10
84.5125396992
 20
203.0101753977
 30
0.0
 10
84.2780706379
 20
203.2913728084
 30
0.0
 10
83.9329905079
 20
203.627151475
 30
0.0
 10
83.4571958244
 20
203.9989460884
 30
0.0
 10
82.9215242541
 20
204.3456700851
 30
0.0
 10
82.3336653498
 20
204.6668924521
 30
0.0
 10
81.9195931338
 20
204.860185098
 30
0.0
 10
81.7056918101
 20
204.9531250854
 30
0.0
  0
SPLINE
  5
61A
100
AcDbEntity
  8
2_FEATURE
100
AcDbSpline
 62
7
  6
CONTINUOUS
 70
0
 71
3
 72
32
 73
28
 74
0
 42
0.0000001
 43
0.0000001
 44
0.0000000001
 40
0.0
 40
0.0
 40
0.0
 40
0.0
 40
0.0714921042
 40
0.1434024907
 40
0.1801173773
 40
0.2178360207
 40
0.2570404494
 40
0.2980848084
 40
0.3403757991
 40
0.3812003366
 40
0.4173322393
 40
0.448210711
 40
0.4751600998
 40
0.4996693461
 40
0.5228793841
 40
0.5455855043
 40
0.5683232758
 40
0.5914454011
 40
0.6151788979
 40
0.6396655007
 40
0.6649891331
 40
0.6911945354
 40
0.7462793336
 40
0.8049143893
 40
0.8669141745
 40
0.9320317845
 40
1.0
 40
1.0
 40
1.0
 40
1.0
 10
61.0559296427
 20
199.9531250854
 30
0.0
 10
60.8106179781
 20
199.9531243544
 30
0.0
 10
60.3185514042
 20
199.9567088916
 30
0.0
 10
59.7006946125
 20
199.9767530915
 30
0.0
 10
59.1995892855
 20
200.0100321609
 30
0.0
 10
58.8114437261
 20
200.0481714245
 30
0.0
 10
58.4105681892
 20
200.1055806003
 30
0.0
 10
57.9986016726
 20
200.1917150043
 30
0.0
 10
57.5906757692
 20
200.3176038162
 30
0.0
 10
57.2175580771
 20
200.4895002009
 30
0.0
 10
56.9112037474
 20
200.7009328716
 30
0.0
 10
56.6858610975
 20
200.9347176512
 30
0.0
 10
56.5354811368
 20
201.1763395875
 30
0.0
 10
56.4471790678
 20
201.418696966
 30
0.0
 10
56.4096681686
 20
201.6588152617
 30
0.0
 10
56.4145715915
 20
201.895405088
 30
0.0
 10
56.4558288485
 20
202.1278598042
 30
0.0
 10
56.5289846263
 20
202.3558299884
 30
0.0
 10
56.6306581753
 20
202.5790430755
 30
0.0
 10
56.7581752096
 20
202.7972390228
 30
0.0
 10
56.9093353008
 20
203.0101753977
 30
0.0
 10
57.1438043621
 20
203.2913728084
 30
0.0
 10
57.4888844921
 20
203.627151475
 30
0.0
 10
57.9646791756
 20
203.9989460884
 30
0.0
 10
58.5003507459
 20
204.3456700851
 30
0.0
 10
59.0882096502
 20
204.6668924521
 30
0.0
 10
59.5022818662
 20
204.860185098
 30
0.0
 10
59.7161831899
 20
204.9531250854
 30
0.0
  0
SPLINE
  5
61B
100
AcDbEntity
  8
0
100
AcDbSpline
 62
7
  6
CONTINUOUS
 70
0
 71
3
 72
9
 73
5
 74
0
 42
0.0000001
 43
0.0000001
 44
0.0000000001
 40
0.0
 40
0.0
 40
0.0
 40
0.0
 40
0.2512211256
 40
1.0
 40
1.0
 40
1.0
 40
1.0
 10
52.8081506363
 20
222.3461629127
 30
0.0
 10
52.8029998618
 20
222.3134826281
 30
0.0
 10
52.7845116764
 20
222.1830838117
 30
0.0
 10
52.7736026167
 20
222.0516384612
 30
0.0
 10
52.7692869327
 20
221.9531250822
 30
0.0
  0
SPLINE
  5
61C
100
AcDbEntity
  8
0
100
AcDbSpline
 62
7
  6
CONTINUOUS
 70
0
 71
3
 72
9
 73
5
 74
0
 42
0.0000001
 43
0.0000001
 44
0.0000000001
 40
0.0
 40
0.0
 40
0.0
 40
0.0
 40
0.2512211256
 40
1.0
 40
1.0
 40
1.0
 40
1.0
 10
88.6137243637
 20
222.3461629127
 30
0.0
 10
88.6188751382
 20
222.3134826281
 30
0.0
 10
88.6373633236
 20
222.1830838117
 30
0.0
 10
88.6482723833
 20
222.0516384612
 30
0.0
 10
88.6525880673
 20
221.9531250822
 30
0.0
  0
LINE
  5
61D
100
AcDbEntity
  8
0
100
AcDbLine
 62
7
  6
CONTINUOUS
 10
54.5805790125
 20
223.952726124
 11
54.5704494716
 21
223.9526466026
  0
LINE
  5
61E
100
AcDbEntity
  8
0
100
AcDbLine
 62
7
  6
CONTINUOUS
 10
54.5704494716
 20
223.9526466026
 11
54.56071076
 21
223.9525606516
  0
SPLINE
  5
61F
100
AcDbEntity
  8
0
100
AcDbSpline
 62
7
  6
CONTINUOUS
 70
0
 71
3
 72
13
 73
9
 74
0
 42
0.0000001
 43
0.0000001
 44
0.0000000001
 40
0.0
 40
0.0
 40
0.0
 40
0.0
 40
0.2455359915
 40
0.4871309682
 40
0.6095569187
 40
0.7349253339
 40
0.864643229
 40
1.0
 40
1.0
 40
1.0
 40
1.0
 10
54.4344349019
 20
223.9503340034
 30
0.0
 10
54.3495406448
 20
223.9479810587
 30
0.0
 10
54.1811088934
 20
223.9395149836
 30
0.0
 10
53.9723405634
 20
223.9042259057
 30
0.0
 10
53.810487776
 20
223.8537998843
 30
0.0
 10
53.6902120538
 20
223.802327236
 30
0.0
 10
53.572347707
 20
223.735866747
 30
0.0
 10
53.4978305062
 20
223.6820585562
 30
0.0
 10
53.4614356351
 20
223.6526084552
 30
0.0
  0
SPLINE
  5
620
100
AcDbEntity
  8
0
100
AcDbSpline
 62
7
  6
CONTINUOUS
 70
0
 71
3
 72
9
 73
5
 74
0
 42
0.0000001
 43
0.0000001
 44
0.0000000001
 40
0.0
 40
0.0
 40
0.0
 40
0.0
 40
0.2427712468
 40
1.0
 40
1.0
 40
1.0
 40
1.0
 10
53.4614356351
 20
223.6526084552
 30
0.0
 10
53.4473062248
 20
223.6411751804
 30
0.0
 10
53.3901117948
 20
223.5928451368
 30
0.0
 10
53.3370070715
 20
223.5397182228
 30
0.0
 10
53.2992528645
 20
223.4974260318
 30
0.0
  0
SPLINE
  5
621
100
AcDbEntity
  8
0
100
AcDbSpline
 62
7
  6
CONTINUOUS
 70
0
 71
3
 72
15
 73
11
 74
0
 42
0.0000001
 43
0.0000001
 44
0.0000000001
 40
0.0
 40
0.0
 40
0.0
 40
0.0
 40
0.1087043317
 40
0.2238618524
 40
0.3449881133
 40
0.4713035161
 40
0.6015947554
 40
0.7342640135
 40
0.8676462391
 40
1.0
 40
1.0
 40
1.0
 40
1.0
 10
53.2934533858
 20
223.4908914336
 30
0.0
 10
53.2537784807
 20
223.4459260954
 30
0.0
 10
53.1775236619
 20
223.348390268
 30
0.0
 10
53.0771968293
 20
223.1862943642
 30
0.0
 10
52.9889674856
 20
223.0064343203
 30
0.0
 10
52.914825588
 20
222.8114042248
 30
0.0
 10
52.8554730042
 20
222.6047909135
 30
0.0
 10
52.8113274598
 20
222.3904453639
 30
0.0
 10
52.7823844196
 20
222.1724207745
 30
0.0
 10
52.7722150544
 20
222.0260789837
 30
0.0
 10
52.7692869327
 20
221.9531250822
 30
0.0
  0
LINE
  5
622
100
AcDbEntity
  8
0
100
AcDbLine
 62
7
  6
CONTINUOUS
 10
86.6563274373
 20
223.9531255969
 11
86.6590774579
 21
223.9531258418
  0
LINE
  5
623
100
AcDbEntity
  8
0
100
AcDbLine
 62
7
  6
CONTINUOUS
 10
86.6590774579
 20
223.9531258418
 11
86.6970337153
 21
223.953127649
  0
LINE
  5
624
100
AcDbEntity
  8
0
100
AcDbLine
 62
7
  6
CONTINUOUS
 10
86.6970337153
 20
223.953127649
 11
86.7013491668
 21
223.9531269994
  0
LINE
  5
625
100
AcDbEntity
  8
0
100
AcDbLine
 62
7
  6
CONTINUOUS
 10
86.7013491668
 20
223.9531269994
 11
86.7366741212
 21
223.9531059604
  0
LINE
  5
626
100
AcDbEntity
  8
0
100
AcDbLine
 62
7
  6
CONTINUOUS
 10
86.7366741212
 20
223.9531059604
 11
86.7433098452
 21
223.9530977588
  0
SPLINE
  5
627
100
AcDbEntity
  8
0
100
AcDbSpline
 62
7
  6
CONTINUOUS
 70
0
 71
3
 72
11
 73
7
 74
0
 42
0.0000001
 43
0.0000001
 44
0.0000000001
 40
0.0
 40
0.0
 40
0.0
 40
0.0
 40
0.260151363
 40
0.5095719698
 40
0.7540117701
 40
1.0
 40
1.0
 40
1.0
 40
1.0
 10
86.7433098452
 20
223.9530977588
 30
0.0
 10
86.8173522034
 20
223.9529969169
 30
0.0
 10
86.9623836664
 20
223.9521787755
 30
0.0
 10
87.1769125845
 20
223.9430136905
 30
0.0
 10
87.3861585514
 20
223.9165090941
 30
0.0
 10
87.5218009991
 20
223.8809959212
 30
0.0
 10
87.5878322876
 20
223.8577264685
 30
0.0
  0
LINE
  5
628
100
AcDbEntity
  8
0
100
AcDbLine
 62
7
  6
CONTINUOUS
 10
54.7655475627
 20
223.9531255969
 11
54.7627975421
 21
223.9531258418
  0
LINE
  5
629
100
AcDbEntity
  8
0
100
AcDbLine
 62
7
  6
CONTINUOUS
 10
54.7627975421
 20
223.9531258418
 11
54.7244772405
 21
223.9531276055
  0
LINE
  5
62A
100
AcDbEntity
  8
0
100
AcDbLine
 62
7
  6
CONTINUOUS
 10
54.7244772405
 20
223.9531276055
 11
54.7051697838
 21
223.9531218167
  0
LINE
  5
62B
100
AcDbEntity
  8
0
100
AcDbLine
 62
7
  6
CONTINUOUS
 10
54.7051697838
 20
223.9531218167
 11
54.6852008788
 21
223.9531059604
  0
LINE
  5
62C
100
AcDbEntity
  8
0
100
AcDbLine
 62
7
  6
CONTINUOUS
 10
54.6852008788
 20
223.9531059604
 11
54.6784965243
 21
223.9530976653
  0
SPLINE
  5
62D
100
AcDbEntity
  8
0
100
AcDbSpline
 62
7
  6
CONTINUOUS
 70
0
 71
3
 72
11
 73
7
 74
0
 42
0.0000001
 43
0.0000001
 44
0.0000000001
 40
0.0
 40
0.0
 40
0.0
 40
0.0
 40
0.2601490922
 40
0.5095694729
 40
0.7540103238
 40
1.0
 40
1.0
 40
1.0
 40
1.0
 10
54.6784965243
 20
223.9530976653
 30
0.0
 10
54.6044607598
 20
223.9529966332
 30
0.0
 10
54.4594416543
 20
223.9521776489
 30
0.0
 10
54.2449304668
 20
223.9430108236
 30
0.0
 10
54.0357010236
 20
223.9165055135
 30
0.0
 10
53.9000690853
 20
223.880994189
 30
0.0
 10
53.8340427124
 20
223.8577264685
 30
0.0
  0
SPLINE
  5
62E
100
AcDbEntity
  8
0
100
AcDbSpline
 62
7
  6
CONTINUOUS
 70
0
 71
3
 72
22
 73
18
 74
0
 42
0.0000001
 43
0.0000001
 44
0.0000000001
 40
0.0
 40
0.0
 40
0.0
 40
0.0
 40
0.0616846427
 40
0.1202901588
 40
0.1765483971
 40
0.2310961257
 40
0.2846416799
 40
0.3378541005
 40
0.3916002103
 40
0.4467750727
 40
0.504337935
 40
0.5650960137
 40
0.6295533627
 40
0.6979017849
 40
0.8446972788
 40
0.921829163
 40
1.0
 40
1.0
 40
1.0
 40
1.0
 10
54.9162216788
 20
223.8037288463
 30
0.0
 10
54.8534908056
 20
223.8009311589
 30
0.0
 10
54.7311038462
 20
223.7967704374
 30
0.0
 10
54.551449928
 20
223.791949411
 30
0.0
 10
54.3790969136
 20
223.7856874643
 30
0.0
 10
54.2121616111
 20
223.7736000314
 30
0.0
 10
54.049333771
 20
223.7511402666
 30
0.0
 10
53.8899363702
 20
223.7138620818
 30
0.0
 10
53.7344207725
 20
223.6572525132
 30
0.0
 10
53.5839083332
 20
223.5781395173
 30
0.0
 10
53.4405518235
 20
223.4739318975
 30
0.0
 10
53.306551253
 20
223.343997056
 30
0.0
 10
53.1843460672
 20
223.1887198399
 30
0.0
 10
53.0366947587
 20
222.9447038165
 30
0.0
 10
52.9268651453
 20
222.6656336304
 30
0.0
 10
52.8517043333
 20
222.3672838039
 30
0.0
 10
52.8252059533
 20
222.2112278766
 30
0.0
 10
52.8144766259
 20
222.1323788116
 30
0.0
  0
SPLINE
  5
62F
100
AcDbEntity
  8
0
100
AcDbSpline
 62
7
  6
CONTINUOUS
 70
0
 71
3
 72
23
 73
19
 74
0
 42
0.0000001
 43
0.0000001
 44
0.0000000001
 40
0.0
 40
0.0
 40
0.0
 40
0.0
 40
0.0592218629
 40
0.1154003343
 40
0.1693511751
 40
0.2218184551
 40
0.273635785
 40
0.3256163397
 40
0.3788140462
 40
0.4342109759
 40
0.49285515
 40
0.5553716025
 40
0.6221303171
 40
0.69291612
 40
0.7671856286
 40
0.8439447747
 40
0.9219755554
 40
1.0
 40
1.0
 40
1.0
 40
1.0
 10
54.8699225668
 20
223.8719532626
 30
0.0
 10
54.8053693641
 20
223.8682693435
 30
0.0
 10
54.6795150916
 20
223.862266488
 30
0.0
 10
54.4948063516
 20
223.8539848244
 30
0.0
 10
54.3175917454
 20
223.8431277001
 30
0.0
 10
54.1457364862
 20
223.8244239065
 30
0.0
 10
53.9778596347
 20
223.7926525994
 30
0.0
 10
53.8135006658
 20
223.7425064989
 30
0.0
 10
53.653638437
 20
223.6691261202
 30
0.0
 10
53.4999677453
 20
223.5692483142
 30
0.0
 10
53.3554334622
 20
223.4406541109
 30
0.0
 10
53.222420719
 20
223.283600317
 30
0.0
 10
53.104198287
 20
223.0992588111
 30
0.0
 10
53.0026550407
 20
222.8909513064
 30
0.0
 10
52.9203211038
 20
222.6627713626
 30
0.0
 10
52.8573716728
 20
222.4204046468
 30
0.0
 10
52.8142501514
 20
222.1696516392
 30
0.0
 10
52.7972310377
 20
221.9999841735
 30
0.0
 10
52.7913351628
 20
221.9150016178
 30
0.0
  0
SPLINE
  5
630
100
AcDbEntity
  8
0
100
AcDbSpline
 62
7
  6
CONTINUOUS
 70
0
 71
3
 72
9
 73
5
 74
0
 42
0.0000001
 43
0.0000001
 44
0.0000000001
 40
0.0
 40
0.0
 40
0.0
 40
0.0
 40
0.4852106209
 40
1.0
 40
1.0
 40
1.0
 40
1.0
 10
53.8340427124
 20
223.8577264685
 30
0.0
 10
53.7690003627
 20
223.8348055182
 30
0.0
 10
53.6385858767
 20
223.7764466321
 30
0.0
 10
53.5202945547
 20
223.6961265782
 30
0.0
 10
53.4634952154
 20
223.6500046867
 30
0.0
  0
SPLINE
  5
631
100
AcDbEntity
  8
0
100
AcDbSpline
 62
7
  6
CONTINUOUS
 70
0
 71
3
 72
9
 73
5
 74
0
 42
0.0000001
 43
0.0000001
 44
0.0000000001
 40
0.0
 40
0.0
 40
0.0
 40
0.0
 40
0.2436013933
 40
1.0
 40
1.0
 40
1.0
 40
1.0
 10
53.45530533
 20
223.6432985905
 30
0.0
 10
53.4427468407
 20
223.6329294764
 30
0.0
 10
53.391995396
 20
223.5893982101
 30
0.0
 10
53.344493822
 20
223.5421044271
 30
0.0
 10
53.3105046869
 20
223.5046614283
 30
0.0
  0
SPLINE
  5
632
100
AcDbEntity
  8
0
100
AcDbSpline
 62
7
  6
CONTINUOUS
 70
0
 71
3
 72
10
 73
6
 74
0
 42
0.0000001
 43
0.0000001
 44
0.0000000001
 40
0.0
 40
0.0
 40
0.0
 40
0.0
 40
0.4691319302
 40
0.7299548123
 40
1.0
 40
1.0
 40
1.0
 40
1.0
 10
53.2960951673
 20
223.4885570718
 30
0.0
 10
53.1662130019
 20
223.3412961481
 30
0.0
 10
53.0080073436
 20
223.0720092211
 30
0.0
 10
52.8722357483
 20
222.6758171205
 30
0.0
 10
52.8257477361
 20
222.4578117966
 30
0.0
 10
52.8081506363
 20
222.3461629127
 30
0.0
  0
LINE
  5
633
100
AcDbEntity
  8
0
100
AcDbLine
 62
7
  6
CONTINUOUS
 10
86.8412959875
 20
223.952726124
 11
86.8514491719
 21
223.9526464055
  0
LINE
  5
634
100
AcDbEntity
  8
0
100
AcDbLine
 62
7
  6
CONTINUOUS
 10
86.8514491719
 20
223.9526464055
 11
86.86116424
 21
223.9525606516
  0
SPLINE
  5
635
100
AcDbEntity
  8
0
100
AcDbSpline
 62
7
  6
CONTINUOUS
 70
0
 71
3
 72
13
 73
9
 74
0
 42
0.0000001
 43
0.0000001
 44
0.0000000001
 40
0.0
 40
0.0
 40
0.0
 40
0.0
 40
0.2455359915
 40
0.4871309682
 40
0.6095569187
 40
0.7349253339
 40
0.864643229
 40
1.0
 40
1.0
 40
1.0
 40
1.0
 10
86.9874400981
 20
223.9503340034
 30
0.0
 10
87.0723343552
 20
223.9479810587
 30
0.0
 10
87.2407661066
 20
223.9395149836
 30
0.0
 10
87.4495344366
 20
223.9042259057
 30
0.0
 10
87.611387224
 20
223.8537998843
 30
0.0
 10
87.7316629462
 20
223.802327236
 30
0.0
 10
87.849527293
 20
223.735866747
 30
0.0
 10
87.9240444938
 20
223.6820585562
 30
0.0
 10
87.9604393649
 20
223.6526084552
 30
0.0
  0
SPLINE
  5
636
100
AcDbEntity
  8
0
100
AcDbSpline
 62
7
  6
CONTINUOUS
 70
0
 71
3
 72
9
 73
5
 74
0
 42
0.0000001
 43
0.0000001
 44
0.0000000001
 40
0.0
 40
0.0
 40
0.0
 40
0.0
 40
0.2427713839
 40
1.0
 40
1.0
 40
1.0
 40
1.0
 10
87.9604393649
 20
223.6526084552
 30
0.0
 10
87.9745685005
 20
223.6411754026
 30
0.0
 10
88.0317618059
 20
223.59284635
 30
0.0
 10
88.0848655677
 20
223.5397206127
 30
0.0
 10
88.122619139
 20
223.4974293884
 30
0.0
  0
SPLINE
  5
637
100
AcDbEntity
  8
0
100
AcDbSpline
 62
7
  6
CONTINUOUS
 70
0
 71
3
 72
15
 73
11
 74
0
 42
0.0000001
 43
0.0000001
 44
0.0000000001
 40
0.0
 40
0.0
 40
0.0
 40
0.0
 40
0.1087043317
 40
0.2238618524
 40
0.3449881133
 40
0.4713035161
 40
0.6015947554
 40
0.7342640135
 40
0.8676462391
 40
1.0
 40
1.0
 40
1.0
 40
1.0
 10
88.1284216142
 20
223.4908914336
 30
0.0
 10
88.1680965193
 20
223.4459260954
 30
0.0
 10
88.2443513381
 20
223.348390268
 30
0.0
 10
88.3446781707
 20
223.1862943642
 30
0.0
 10
88.4329075144
 20
223.0064343203
 30
0.0
 10
88.507049412
 20
222.8114042248
 30
0.0
 10
88.5664019958
 20
222.6047909135
 30
0.0
 10
88.6105475402
 20
222.3904453639
 30
0.0
 10
88.6394905804
 20
222.1724207745
 30
0.0
 10
88.6496599456
 20
222.0260789837
 30
0.0
 10
88.6525880673
 20
221.9531250822
 30
0.0
  0
SPLINE
  5
638
100
AcDbEntity
  8
0
100
AcDbSpline
 62
7
  6
CONTINUOUS
 70
0
 71
3
 72
9
 73
5
 74
0
 42
0.0000001
 43
0.0000001
 44
0.0000000001
 40
0.0
 40
0.0
 40
0.0
 40
0.0
 40
0.4852106209
 40
1.0
 40
1.0
 40
1.0
 40
1.0
 10
87.5878322876
 20
223.8577264685
 30
0.0
 10
87.6528746373
 20
223.8348055182
 30
0.0
 10
87.7832891233
 20
223.7764466321
 30
0.0
 10
87.9015804453
 20
223.6961265782
 30
0.0
 10
87.9583797846
 20
223.6500046867
 30
0.0
  0
SPLINE
  5
639
100
AcDbEntity
  8
0
100
AcDbSpline
 62
7
  6
CONTINUOUS
 70
0
 71
3
 72
9
 73
5
 74
0
 42
0.0000001
 43
0.0000001
 44
0.0000000001
 40
0.0
 40
0.0
 40
0.0
 40
0.0
 40
0.2436013933
 40
1.0
 40
1.0
 40
1.0
 40
1.0
 10
87.96656967
 20
223.6432985905
 30
0.0
 10
87.9791281593
 20
223.6329294764
 30
0.0
 10
88.029879604
 20
223.5893982101
 30
0.0
 10
88.077381178
 20
223.5421044271
 30
0.0
 10
88.1113703131
 20
223.5046614283
 30
0.0
  0
SPLINE
  5
63A
100
AcDbEntity
  8
0
100
AcDbSpline
 62
7
  6
CONTINUOUS
 70
0
 71
3
 72
10
 73
6
 74
0
 42
0.0000001
 43
0.0000001
 44
0.0000000001
 40
0.0
 40
0.0
 40
0.0
 40
0.0
 40
0.4691319302
 40
0.7299548123
 40
1.0
 40
1.0
 40
1.0
 40
1.0
 10
88.1257798327
 20
223.4885570718
 30
0.0
 10
88.2556619981
 20
223.3412961481
 30
0.0
 10
88.4138676564
 20
223.0720092211
 30
0.0
 10
88.5496392517
 20
222.6758171205
 30
0.0
 10
88.5961272639
 20
222.4578117966
 30
0.0
 10
88.6137243637
 20
222.3461629127
 30
0.0
  0
SPLINE
  5
63B
100
AcDbEntity
  8
0
100
AcDbSpline
 62
7
  6
CONTINUOUS
 70
0
 71
3
 72
23
 73
19
 74
0
 42
0.0000001
 43
0.0000001
 44
0.0000000001
 40
0.0
 40
0.0
 40
0.0
 40
0.0
 40
0.0592218629
 40
0.1154003343
 40
0.1693511751
 40
0.2218184551
 40
0.273635785
 40
0.3256163397
 40
0.3788140462
 40
0.4342109759
 40
0.49285515
 40
0.5553716025
 40
0.6221303171
 40
0.69291612
 40
0.7671856286
 40
0.8439447747
 40
0.9219755554
 40
1.0
 40
1.0
 40
1.0
 40
1.0
 10
86.5519524332
 20
223.8719532626
 30
0.0
 10
86.6165056359
 20
223.8682693435
 30
0.0
 10
86.7423599084
 20
223.862266488
 30
0.0
 10
86.9270686484
 20
223.8539848244
 30
0.0
 10
87.1042832546
 20
223.8431277001
 30
0.0
 10
87.2761385138
 20
223.8244239065
 30
0.0
 10
87.4440153653
 20
223.7926525994
 30
0.0
 10
87.6083743342
 20
223.7425064989
 30
0.0
 10
87.768236563
 20
223.6691261202
 30
0.0
 10
87.9219072547
 20
223.5692483142
 30
0.0
 10
88.0664415378
 20
223.4406541109
 30
0.0
 10
88.199454281
 20
223.283600317
 30
0.0
 10
88.317676713
 20
223.0992588111
 30
0.0
 10
88.4192199593
 20
222.8909513064
 30
0.0
 10
88.5015538962
 20
222.6627713626
 30
0.0
 10
88.5645033272
 20
222.4204046468
 30
0.0
 10
88.6076248486
 20
222.1696516392
 30
0.0
 10
88.6246439623
 20
221.9999841735
 30
0.0
 10
88.6305398372
 20
221.9150016178
 30
0.0
  0
SPLINE
  5
63C
100
AcDbEntity
  8
0
100
AcDbSpline
 62
7
  6
CONTINUOUS
 70
0
 71
3
 72
22
 73
18
 74
0
 42
0.0000001
 43
0.0000001
 44
0.0000000001
 40
0.0
 40
0.0
 40
0.0
 40
0.0
 40
0.0616846427
 40
0.1202901588
 40
0.1765483971
 40
0.2310961257
 40
0.2846416799
 40
0.3378541005
 40
0.3916002103
 40
0.4467750727
 40
0.504337935
 40
0.5650960137
 40
0.6295533627
 40
0.6979017849
 40
0.8446972788
 40
0.921829163
 40
1.0
 40
1.0
 40
1.0
 40
1.0
 10
86.5056533212
 20
223.8037288463
 30
0.0
 10
86.5683841944
 20
223.8009311589
 30
0.0
 10
86.6907711538
 20
223.7967704374
 30
0.0
 10
86.870425072
 20
223.791949411
 30
0.0
 10
87.0427780864
 20
223.7856874643
 30
0.0
 10
87.2097133889
 20
223.7736000314
 30
0.0
 10
87.372541229
 20
223.7511402666
 30
0.0
 10
87.5319386298
 20
223.7138620818
 30
0.0
 10
87.6874542275
 20
223.6572525132
 30
0.0
 10
87.8379666668
 20
223.5781395173
 30
0.0
 10
87.9813231765
 20
223.4739318975
 30
0.0
 10
88.115323747
 20
223.343997056
 30
0.0
 10
88.2375289328
 20
223.1887198399
 30
0.0
 10
88.3851802413
 20
222.9447038165
 30
0.0
 10
88.4950098547
 20
222.6656336304
 30
0.0
 10
88.5701706667
 20
222.3672838039
 30
0.0
 10
88.5966690467
 20
222.2112278766
 30
0.0
 10
88.6073983741
 20
222.1323788116
 30
0.0
  0
LINE
  5
63D
100
AcDbEntity
  8
0
100
AcDbLine
 62
7
  6
CONTINUOUS
 10
163.1796884311
 20
95.3674939007
 11
163.1796884052
 21
95.365216871
  0
LINE
  5
63E
100
AcDbEntity
  8
0
100
AcDbLine
 62
7
  6
CONTINUOUS
 10
163.1796884052
 20
95.365216871
 11
163.1796883439
 21
95.3639403591
  0
SPLINE
  5
63F
100
AcDbEntity
  8
0
100
AcDbSpline
 62
7
  6
CONTINUOUS
 70
0
 71
3
 72
9
 73
5
 74
0
 42
0.0000001
 43
0.0000001
 44
0.0000000001
 40
0.0
 40
0.0
 40
0.0
 40
0.0
 40
0.2518994127
 40
1.0
 40
1.0
 40
1.0
 40
1.0
 10
163.1796903558
 20
95.1949424622
 30
0.0
 10
163.1796884369
 20
95.1824566289
 30
0.0
 10
163.1796383529
 20
95.1328915475
 30
0.0
 10
163.1790847568
 20
95.0833140065
 30
0.0
 10
163.1776958634
 20
95.0462591171
 30
0.0
  0
LINE
  5
640
100
AcDbEntity
  8
0
100
AcDbLine
 62
7
  6
CONTINUOUS
 10
163.0704026116
 20
94.2520513165
 11
163.0700363395
 21
94.2505329158
  0
SPLINE
  5
641
100
AcDbEntity
  8
0
100
AcDbSpline
 62
7
  6
CONTINUOUS
 70
0
 71
3
 72
20
 73
16
 74
0
 42
0.0000001
 43
0.0000001
 44
0.0000000001
 40
0.0
 40
0.0
 40
0.0
 40
0.0
 40
0.013782368
 40
0.0281022522
 40
0.0453152213
 40
0.0678565954
 40
0.0974996962
 40
0.1354602516
 40
0.1826474715
 40
0.239382785
 40
0.3057658163
 40
0.3817121372
 40
0.5600637095
 40
0.7687470143
 40
1.0
 40
1.0
 40
1.0
 40
1.0
 10
163.001555516
 20
94.0033059827
 30
0.0
 10
162.9977587375
 20
93.9955153103
 30
0.0
 10
162.9878678497
 20
93.9804219332
 30
0.0
 10
162.9638221448
 20
93.9638221582
 30
0.0
 10
162.9301258993
 20
93.9559788954
 30
0.0
 10
162.8862377579
 20
93.9572272629
 30
0.0
 10
162.8303855625
 20
93.967703691
 30
0.0
 10
162.7610696653
 20
93.9881220898
 30
0.0
 10
162.6773564854
 20
94.0191128512
 30
0.0
 10
162.5788048702
 20
94.0610956173
 30
0.0
 10
162.4654921576
 20
94.1143373549
 30
0.0
 10
162.2855688887
 20
94.2054397039
 30
0.0
 10
162.0313325722
 20
94.3475698617
 30
0.0
 10
161.7013579593
 20
94.553453633
 30
0.0
 10
161.4750373521
 20
94.712915886
 30
0.0
 10
161.3589413116
 20
94.80048055
 30
0.0
  0
LINE
  5
642
100
AcDbEntity
  8
0
100
AcDbLine
 62
7
  6
CONTINUOUS
 10
163.0101845548
 20
94.0267872146
 11
163.0098904106
 21
94.0257314222
  0
SPLINE
  5
643
100
AcDbEntity
  8
0
100
AcDbSpline
 62
7
  6
CONTINUOUS
 70
0
 71
3
 72
9
 73
5
 74
0
 42
0.0000001
 43
0.0000001
 44
0.0000000001
 40
0.0
 40
0.0
 40
0.0
 40
0.0
 40
0.2554552631
 40
1.0
 40
1.0
 40
1.0
 40
1.0
 10
163.0098904106
 20
94.0257314222
 30
0.0
 10
163.0093374126
 20
94.0237692626
 30
0.0
 10
163.0070438479
 20
94.0161270872
 30
0.0
 10
163.0041585112
 20
94.0086471115
 30
0.0
 10
163.001555516
 20
94.0033059827
 30
0.0
  0
SPLINE
  5
644
100
AcDbEntity
  8
2_FEATURE
100
AcDbSpline
 62
7
  6
CONTINUOUS
 70
0
 71
3
 72
48
 73
44
 74
0
 42
0.0000001
 43
0.0000001
 44
0.0000000001
 40
0.0
 40
0.0
 40
0.0
 40
0.0
 40
0.0226061074
 40
0.0453211106
 40
0.0679113546
 40
0.0900529839
 40
0.111278962
 40
0.1213453008
 40
0.1309011842
 40
0.1398124931
 40
0.1479358606
 40
0.1551631376
 40
0.1584554424
 40
0.1615789594
 40
0.1646180706
 40
0.1677031578
 40
0.170997365
 40
0.1746658346
 40
0.1788449885
 40
0.1836262794
 40
0.1890540429
 40
0.1951314745
 40
0.201830338
 40
0.2091016528
 40
0.2251167413
 40
0.2426890514
 40
0.2613914169
 40
0.2808960104
 40
0.3009626737
 40
0.3214169804
 40
0.3421311364
 40
0.383981466
 40
0.4259880212
 40
0.4678219176
 40
0.5092611525
 40
0.5501465609
 40
0.5903589865
 40
0.6684157473
 40
0.7429008293
 40
0.8134752146
 40
0.8799246184
 40
0.9421212256
 40
1.0
 40
1.0
 40
1.0
 40
1.0
 10
139.1796875854
 20
87.9659736309
 30
0.0
 10
139.1796872169
 20
88.0443439425
 30
0.0
 10
139.1806119416
 20
88.2014647556
 30
0.0
 10
139.1855367959
 20
88.4368569637
 30
0.0
 10
139.1951097368
 20
88.6705083503
 30
0.0
 10
139.2109142266
 20
88.8986542487
 30
0.0
 10
139.231405905
 20
89.0828718756
 30
0.0
 10
139.2545627658
 20
89.2226178201
 30
0.0
 10
139.2754317777
 20
89.3193588504
 30
0.0
 10
139.3009316398
 20
89.408063474
 30
0.0
 10
139.3321196833
 20
89.4863388319
 30
0.0
 10
139.3652701377
 20
89.5424429411
 30
0.0
 10
139.3970188234
 20
89.5777293271
 30
0.0
 10
139.4228384271
 20
89.5982268448
 30
0.0
 10
139.4517111151
 20
89.6127526242
 30
0.0
 10
139.4837785943
 20
89.620365909
 30
0.0
 10
139.5189040498
 20
89.6203071485
 30
0.0
 10
139.5569037014
 20
89.6121906942
 30
0.0
 10
139.5977085274
 20
89.595878526
 30
0.0
 10
139.641275496
 20
89.5713635808
 30
0.0
 10
139.6874868815
 20
89.5387957658
 30
0.0
 10
139.7361312398
 20
89.4985142701
 30
0.0
 10
139.7869331489
 20
89.4510382765
 30
0.0
 10
139.8594896269
 20
89.3765560247
 30
0.0
 10
139.9525588867
 20
89.2696460141
 30
0.0
 10
140.0652263882
 20
89.1275933307
 30
0.0
 10
140.1806330941
 20
88.9724030693
 30
0.0
 10
140.2976578692
 20
88.8077154218
 30
0.0
 10
140.4155436822
 20
88.6362245017
 30
0.0
 10
140.5337896576
 20
88.4599130771
 30
0.0
 10
140.6920199927
 20
88.2195012
 30
0.0
 10
140.8883188859
 20
87.9147121942
 30
0.0
 10
141.1212511412
 20
87.5464518614
 30
0.0
 10
141.351357924
 20
87.1780996945
 30
0.0
 10
141.5779034023
 20
86.8121109586
 30
0.0
 10
141.8003082392
 20
86.4501731448
 30
0.0
 10
142.0878505606
 20
85.9792679005
 30
0.0
 10
142.4339280509
 20
85.4076267638
 30
0.0
 10
142.8312509338
 20
84.7439759528
 30
0.0
 10
143.2046144929
 20
84.1128926133
 30
0.0
 10
143.5529414783
 20
83.5165079614
 30
0.0
 10
143.8757138614
 20
82.9561814035
 30
0.0
 10
144.0812202648
 20
82.5941670832
 30
0.0
 10
144.1796875854
 20
82.4193365587
 30
0.0
  0
SPLINE
  5
645
100
AcDbEntity
  8
0
100
AcDbSpline
 62
7
  6
CONTINUOUS
 70
0
 71
3
 72
20
 73
16
 74
0
 42
0.0000001
 43
0.0000001
 44
0.0000000001
 40
0.0
 40
0.0
 40
0.0
 40
0.0
 40
0.1249460097
 40
0.1874748428
 40
0.2500030113
 40
0.3749309827
 40
0.4998417681
 40
0.5623654591
 40
0.6248879538
 40
0.6874091553
 40
0.7499290538
 40
0.8124478284
 40
0.8749658598
 40
0.9374823585
 40
1.0
 40
1.0
 40
1.0
 40
1.0
 10
155.7796875854
 20
99.9807123381
 30
0.0
 10
155.7796875854
 20
100.1173337335
 30
0.0
 10
155.7623492052
 20
100.3228883142
 30
0.0
 10
155.7047231111
 20
100.5903609735
 30
0.0
 10
155.6242248279
 20
100.8519068081
 30
0.0
 10
155.4808974035
 20
101.1640539319
 30
0.0
 10
155.2826195661
 20
101.4448667384
 30
0.0
 10
155.0939374201
 20
101.6431296398
 30
0.0
 10
154.9381300897
 20
101.777062104
 30
0.0
 10
154.7693628847
 20
101.8942445942
 30
0.0
 10
154.5891374806
 20
101.9929417347
 30
0.0
 10
154.3992760417
 20
102.0715527859
 30
0.0
 10
154.2018787848
 20
102.1287251016
 30
0.0
 10
153.9993403155
 20
102.1634386862
 30
0.0
 10
153.8624960931
 20
102.1711917945
 30
0.0
 10
153.7941365877
 20
102.1711917945
 30
0.0
  0
SPLINE
  5
646
100
AcDbEntity
  8
0
100
AcDbSpline
 62
7
  6
CONTINUOUS
 70
0
 71
3
 72
20
 73
16
 74
0
 42
0.0000001
 43
0.0000001
 44
0.0000000001
 40
0.0
 40
0.0
 40
0.0
 40
0.0
 40
0.1249460097
 40
0.1874748428
 40
0.2500030113
 40
0.3749309827
 40
0.4998417681
 40
0.5623654591
 40
0.6248879538
 40
0.6874091553
 40
0.7499290538
 40
0.8124478284
 40
0.8749658598
 40
0.9374823585
 40
1.0
 40
1.0
 40
1.0
 40
1.0
 10
146.5796875854
 20
99.9807123381
 30
0.0
 10
146.5796875854
 20
100.1173337335
 30
0.0
 10
146.5970259656
 20
100.3228883142
 30
0.0
 10
146.6546520597
 20
100.5903609735
 30
0.0
 10
146.735150343
 20
100.8519068081
 30
0.0
 10
146.8784777673
 20
101.1640539319
 30
0.0
 10
147.0767556047
 20
101.4448667384
 30
0.0
 10
147.2654377507
 20
101.6431296398
 30
0.0
 10
147.4212450811
 20
101.777062104
 30
0.0
 10
147.5900122862
 20
101.8942445942
 30
0.0
 10
147.7702376902
 20
101.9929417347
 30
0.0
 10
147.9600991291
 20
102.0715527859
 30
0.0
 10
148.157496386
 20
102.1287251016
 30
0.0
 10
148.3600348553
 20
102.1634386862
 30
0.0
 10
148.4968790778
 20
102.1711917945
 30
0.0
 10
148.5652385831
 20
102.1711917945
 30
0.0
  0
SPLINE
  5
647
100
AcDbEntity
  8
2_FEATURE
100
AcDbSpline
 62
7
  6
CONTINUOUS
 70
0
 71
3
 72
21
 73
17
 74
0
 42
0.0000001
 43
0.0000001
 44
0.0000000001
 40
0.0
 40
0.0
 40
0.0
 40
0.0
 40
0.0632078148
 40
0.1264067047
 40
0.1895673993
 40
0.2526616535
 40
0.31566438
 40
0.3785544869
 40
0.5037877655
 40
0.6284468374
 40
0.6906372594
 40
0.7526981727
 40
0.8146445396
 40
0.8764951786
 40
0.9382720086
 40
1.0
 40
1.0
 40
1.0
 40
1.0
 10
151.4134326353
 20
92.1713141985
 30
0.0
 10
151.5617290695
 20
92.1724081545
 30
0.0
 10
151.8584014598
 20
92.1892852592
 30
0.0
 10
152.2984732228
 20
92.2583459382
 30
0.0
 10
152.7293885441
 20
92.3703567886
 30
0.0
 10
153.1467479534
 20
92.5240238929
 30
0.0
 10
153.546474112
 20
92.7176472675
 30
0.0
 10
154.049752122
 20
93.0255387524
 30
0.0
 10
154.6170165764
 20
93.4989276141
 30
0.0
 10
155.0807383686
 20
94.0719281596
 30
0.0
 10
155.3788691636
 20
94.5749864184
 30
0.0
 10
155.5645883902
 20
94.9711934197
 30
0.0
 10
155.7109275999
 20
95.382681364
 30
0.0
 10
155.816767918
 20
95.8057294365
 30
0.0
 10
155.8812794776
 20
96.2364549169
 30
0.0
 10
155.8964094653
 20
96.5263644245
 30
0.0
 10
155.8969697403
 20
96.6711917945
 30
0.0
  0
SPLINE
  5
648
100
AcDbEntity
  8
2_FEATURE
100
AcDbSpline
 62
7
  6
CONTINUOUS
 70
0
 71
3
 72
21
 73
17
 74
0
 42
0.0000001
 43
0.0000001
 44
0.0000000001
 40
0.0
 40
0.0
 40
0.0
 40
0.0
 40
0.0632078148
 40
0.1264067047
 40
0.1895673993
 40
0.2526616535
 40
0.31566438
 40
0.3785544869
 40
0.5037877655
 40
0.6284468374
 40
0.6906372594
 40
0.7526981727
 40
0.8146445396
 40
0.8764951786
 40
0.9382720086
 40
1.0
 40
1.0
 40
1.0
 40
1.0
 10
150.9459425355
 20
92.1713141985
 30
0.0
 10
150.7976461014
 20
92.1724081545
 30
0.0
 10
150.500973711
 20
92.1892852592
 30
0.0
 10
150.060901948
 20
92.2583459382
 30
0.0
 10
149.6299866267
 20
92.3703567886
 30
0.0
 10
149.2126272174
 20
92.5240238929
 30
0.0
 10
148.8129010589
 20
92.7176472675
 30
0.0
 10
148.3096230488
 20
93.0255387524
 30
0.0
 10
147.7423585944
 20
93.4989276141
 30
0.0
 10
147.2786368022
 20
94.0719281596
 30
0.0
 10
146.9805060072
 20
94.5749864184
 30
0.0
 10
146.7947867806
 20
94.9711934197
 30
0.0
 10
146.648447571
 20
95.382681364
 30
0.0
 10
146.5426072528
 20
95.8057294365
 30
0.0
 10
146.4780956932
 20
96.2364549169
 30
0.0
 10
146.4629657055
 20
96.5263644245
 30
0.0
 10
146.4624054305
 20
96.6711917945
 30
0.0
  0
SPLINE
  5
649
100
AcDbEntity
  8
0
100
AcDbSpline
 62
7
  6
CONTINUOUS
 70
0
 71
3
 72
21
 73
17
 74
0
 42
0.0000001
 43
0.0000001
 44
0.0000000001
 40
0.0
 40
0.0
 40
0.0
 40
0.0
 40
0.0219460019
 40
0.0426125518
 40
0.0632261262
 40
0.0861730231
 40
0.1142082269
 40
0.149486345
 40
0.1935776513
 40
0.2473867507
 40
0.3111859911
 40
0.3850589578
 40
0.468562301
 40
0.5609924197
 40
0.7689708829
 40
1.0
 40
1.0
 40
1.0
 40
1.0
 10
163.0680753094
 20
94.242815026
 30
0.0
 10
163.0644581228
 20
94.2291892405
 30
0.0
 10
163.0559070611
 20
94.20305672
 30
0.0
 10
163.0353858919
 20
94.1674896396
 30
0.0
 10
163.0043719589
 20
94.1391229066
 30
0.0
 10
162.9612737244
 20
94.1209626986
 30
0.0
 10
162.9058115694
 20
94.1141436534
 30
0.0
 10
162.8367034886
 20
94.118313195
 30
0.0
 10
162.7524538919
 20
94.1340069262
 30
0.0
 10
162.6522198012
 20
94.1615704756
 30
0.0
 10
162.535742042
 20
94.201275001
 30
0.0
 10
162.4034485649
 20
94.2531965869
 30
0.0
 10
162.2563206969
 20
94.3173440063
 30
0.0
 10
162.0335597524
 20
94.4232483371
 30
0.0
 10
161.7321575478
 20
94.5840086317
 30
0.0
 10
161.4917316418
 20
94.7318709705
 30
0.0
 10
161.3681001604
 20
94.8139716548
 30
0.0
  0
SPLINE
  5
64A
100
AcDbEntity
  8
0
100
AcDbSpline
 62
7
  6
CONTINUOUS
 70
0
 71
3
 72
9
 73
5
 74
0
 42
0.0000001
 43
0.0000001
 44
0.0000000001
 40
0.0
 40
0.0
 40
0.0
 40
0.0
 40
0.2506317578
 40
1.0
 40
1.0
 40
1.0
 40
1.0
 10
163.1796883439
 20
95.3639403591
 30
0.0
 10
163.1796876061
 20
95.352167725
 30
0.0
 10
163.1796637732
 20
95.3051965623
 30
0.0
 10
163.1793278254
 20
95.2582202513
 30
0.0
 10
163.1784684381
 20
95.2230315407
 30
0.0
  0
LINE
  5
64B
100
AcDbEntity
  8
0
100
AcDbLine
 62
7
  6
CONTINUOUS
 10
163.178056338
 20
95.2077984091
 11
163.1776440446
 21
95.1950087745
  0
SPLINE
  5
64C
100
AcDbEntity
  8
0
100
AcDbSpline
 62
7
  6
CONTINUOUS
 70
0
 71
3
 72
9
 73
5
 74
0
 42
0.0000001
 43
0.0000001
 44
0.0000000001
 40
0.0
 40
0.0
 40
0.0
 40
0.0
 40
0.2576039871
 40
1.0
 40
1.0
 40
1.0
 40
1.0
 10
163.1776440446
 20
95.1950087745
 30
0.0
 10
163.1772277568
 20
95.1830339978
 30
0.0
 10
163.1752676521
 20
95.1365680916
 30
0.0
 10
163.1716890791
 20
95.090118436
 30
0.0
 10
163.1670834658
 20
95.055895666
 30
0.0
  0
SPLINE
  5
64D
100
AcDbEntity
  8
0
100
AcDbSpline
 62
7
  6
CONTINUOUS
 70
0
 71
3
 72
23
 73
19
 74
0
 42
0.0000001
 43
0.0000001
 44
0.0000000001
 40
0.0
 40
0.0
 40
0.0
 40
0.0
 40
0.0349399086
 40
0.0673144548
 40
0.0979783002
 40
0.1132639289
 40
0.1289179115
 40
0.1626434646
 40
0.201804447
 40
0.2483976317
 40
0.3034013023
 40
0.3672216465
 40
0.4396852114
 40
0.5200643199
 40
0.6074569481
 40
0.7005548533
 40
0.797936918
 40
1.0
 40
1.0
 40
1.0
 40
1.0
 10
163.1659967961
 20
95.0480890612
 30
0.0
 10
163.1622782077
 20
95.0222493102
 30
0.0
 10
163.1528312445
 20
94.9727114284
 30
0.0
 10
163.1284847559
 20
94.9032772506
 30
0.0
 10
163.0972924404
 20
94.8529795303
 30
0.0
 10
163.0654747658
 20
94.8195254829
 30
0.0
 10
163.0274669777
 20
94.7894472048
 30
0.0
 10
162.9673693467
 20
94.7599411053
 30
0.0
 10
162.8798921835
 20
94.7396022418
 30
0.0
 10
162.7745838714
 20
94.7330940234
 30
0.0
 10
162.6509835913
 20
94.7398127995
 30
0.0
 10
162.5093033849
 20
94.7595448438
 30
0.0
 10
162.3506050527
 20
94.7919062824
 30
0.0
 10
162.1766646265
 20
94.8364614941
 30
0.0
 10
161.9899612926
 20
94.8926001749
 30
0.0
 10
161.793458957
 20
94.9597785532
 30
0.0
 10
161.5194693089
 20
95.0645219673
 30
0.0
 10
161.3148713321
 20
95.1558072681
 30
0.0
 10
161.1796875822
 20
95.223029066
 30
0.0
  0
SPLINE
  5
64E
100
AcDbEntity
  8
0
100
AcDbSpline
 62
7
  6
CONTINUOUS
 70
0
 71
3
 72
12
 73
8
 74
0
 42
0.0000001
 43
0.0000001
 44
0.0000000001
 40
0.0
 40
0.0
 40
0.0
 40
0.0
 40
0.2818344378
 40
0.5419994561
 40
0.7779018567
 40
0.889480792
 40
1.0
 40
1.0
 40
1.0
 40
1.0
 10
163.1776958634
 20
95.0462591171
 30
0.0
 10
163.1765022257
 20
95.0144135384
 30
0.0
 10
163.1729052299
 20
94.953177617
 30
0.0
 10
163.1594383617
 20
94.8660697269
 30
0.0
 10
163.1369107641
 20
94.8004007588
 30
0.0
 10
163.1098391079
 20
94.756022686
 30
0.0
 10
163.0932863437
 20
94.7369364805
 30
0.0
 10
163.0842889685
 20
94.7282637387
 30
0.0
  0
SPLINE
  5
64F
100
AcDbEntity
  8
2_FEATURE
100
AcDbSpline
 62
7
  6
CONTINUOUS
 70
0
 71
3
 72
15
 73
11
 74
0
 42
0.0000001
 43
0.0000001
 44
0.0000000001
 40
0.0
 40
0.0
 40
0.0
 40
0.0
 40
0.1250187431
 40
0.2500336999
 40
0.3750439799
 40
0.5000461993
 40
0.6250405719
 40
0.7500284214
 40
0.8750129512
 40
1.0
 40
1.0
 40
1.0
 40
1.0
 10
146.5270063231
 20
149.7593350381
 30
0.0
 10
146.5857390623
 20
149.8160609889
 30
0.0
 10
146.7062757444
 20
149.9263927934
 30
0.0
 10
146.8968733852
 20
150.0805323951
 30
0.0
 10
147.0981452404
 20
150.220572468
 30
0.0
 10
147.3108472818
 20
150.3427465441
 30
0.0
 10
147.534996251
 20
150.4426354337
 30
0.0
 10
147.7691651396
 20
150.5163101847
 30
0.0
 10
148.010507815
 20
150.5612033004
 30
0.0
 10
148.1739519775
 20
150.5711917945
 30
0.0
 10
148.2555852306
 20
150.5711917945
 30
0.0
  0
SPLINE
  5
650
100
AcDbEntity
  8
2_FEATURE
100
AcDbSpline
 62
7
  6
CONTINUOUS
 70
0
 71
3
 72
14
 73
10
 74
0
 42
0.0000001
 43
0.0000001
 44
0.0000000001
 40
0.0
 40
0.0
 40
0.0
 40
0.0
 40
0.1250019488
 40
0.250001373
 40
0.3750041219
 40
0.5000133934
 40
0.6250305121
 40
0.7500556954
 40
1.0
 40
1.0
 40
1.0
 40
1.0
 10
154.1037945497
 20
150.5711917945
 30
0.0
 10
154.1854276004
 20
150.5711919764
 30
0.0
 10
154.3488713886
 20
150.5612026607
 30
0.0
 10
154.5902131229
 20
150.5163093653
 30
0.0
 10
154.8243821893
 20
150.442634323
 30
0.0
 10
155.0485272903
 20
150.3427459788
 30
0.0
 10
155.2612406018
 20
150.2205699722
 30
0.0
 10
155.5294843556
 20
150.0339015185
 30
0.0
 10
155.71495706
 20
149.8727268177
 30
0.0
 10
155.8323686664
 20
149.7593353354
 30
0.0
  0
SPLINE
  5
651
100
AcDbEntity
  8
0
100
AcDbSpline
 62
7
  6
CONTINUOUS
 70
0
 71
3
 72
19
 73
15
 74
0
 42
0.0000001
 43
0.0000001
 44
0.0000000001
 40
0.0
 40
0.0
 40
0.0
 40
0.0
 40
0.0276007938
 40
0.0572526752
 40
0.0902010816
 40
0.127511994
 40
0.1700477405
 40
0.2183018044
 40
0.2724973258
 40
0.3327632489
 40
0.4711802822
 40
0.6312186941
 40
0.8091704885
 40
1.0
 40
1.0
 40
1.0
 40
1.0
 10
163.0842889685
 20
94.7282637387
 30
0.0
 10
163.0737547965
 20
94.7181096491
 30
0.0
 10
163.0496061829
 20
94.6993080381
 30
0.0
 10
163.006484347
 20
94.6780227676
 30
0.0
 10
162.9554439559
 20
94.6630775992
 30
0.0
 10
162.8961066983
 20
94.6545266958
 30
0.0
 10
162.8281216741
 20
94.6524523061
 30
0.0
 10
162.7513131056
 20
94.6567726622
 30
0.0
 10
162.6656633212
 20
94.6674096821
 30
0.0
 10
162.5336700362
 20
94.6910966813
 30
0.0
 10
162.3489810809
 20
94.7371993277
 30
0.0
 10
162.1079903827
 20
94.8130590047
 30
0.0
 10
161.8449905445
 20
94.9103926808
 30
0.0
 10
161.6649155387
 20
94.9867025602
 30
0.0
 10
161.5727254127
 20
95.0283463479
 30
0.0
  0
SPLINE
  5
652
100
AcDbEntity
  8
0
100
AcDbSpline
 62
7
  6
CONTINUOUS
 70
0
 71
3
 72
11
 73
7
 74
0
 42
0.0000001
 43
0.0000001
 44
0.0000000001
 40
0.0
 40
0.0
 40
0.0
 40
0.0
 40
0.2578748593
 40
0.5126811539
 40
0.7611887606
 40
1.0
 40
1.0
 40
1.0
 40
1.0
 10
161.1796829058
 20
102.2217734686
 30
0.0
 10
161.2660317848
 20
102.2217734686
 30
0.0
 10
161.4377206769
 20
102.218405752
 30
0.0
 10
161.6922246166
 20
102.2032773966
 30
0.0
 10
161.9395021204
 20
102.1779175067
 30
0.0
 10
162.1009638654
 20
102.1537517351
 30
0.0
 10
162.1796875854
 20
102.1397142371
 30
0.0
  0
SPLINE
  5
653
100
AcDbEntity
  8
2_FEATURE
100
AcDbSpline
 62
7
  6
CONTINUOUS
 70
0
 71
3
 72
17
 73
13
 74
0
 42
0.0000001
 43
0.0000001
 44
0.0000000001
 40
0.0
 40
0.0
 40
0.0
 40
0.0
 40
0.052460531
 40
0.0823332341
 40
0.115785117
 40
0.1536799361
 40
0.1967028808
 40
0.3001469744
 40
0.4299587769
 40
0.5891562114
 40
0.7794707929
 40
1.0
 40
1.0
 40
1.0
 40
1.0
 10
163.1796875854
 20
102.4799506849
 30
0.0
 10
163.1796875854
 20
102.4599315436
 30
0.0
 10
163.1725432905
 20
102.4283012958
 30
0.0
 10
163.1521570207
 20
102.3890118337
 30
0.0
 10
163.1294222822
 20
102.3576058308
 30
0.0
 10
163.0995047547
 20
102.325702335
 30
0.0
 10
163.0459478464
 20
102.2798937341
 30
0.0
 10
162.9556570567
 20
102.2242041102
 30
0.0
 10
162.8163273971
 20
102.1676808826
 30
0.0
 10
162.6374073671
 20
102.1261276061
 30
0.0
 10
162.4195800638
 20
102.1105195504
 30
0.0
 10
162.2625355849
 20
102.1249413245
 30
0.0
 10
162.1796875854
 20
102.1397142371
 30
0.0
  0
SPLINE
  5
654
100
AcDbEntity
  8
0
100
AcDbSpline
 62
7
  6
CONTINUOUS
 70
0
 71
3
 72
11
 73
7
 74
0
 42
0.0000001
 43
0.0000001
 44
0.0000000001
 40
0.0
 40
0.0
 40
0.0
 40
0.0
 40
0.2543406066
 40
0.5065635432
 40
0.7552108903
 40
1.0
 40
1.0
 40
1.0
 40
1.0
 10
161.6697290931
 20
102.221780386
 30
0.0
 10
161.6494648597
 20
102.221780386
 30
0.0
 10
161.6088584961
 20
102.2276861381
 30
0.0
 10
161.553582929
 20
102.2535382633
 30
0.0
 10
161.5088767098
 20
102.2939963238
 30
0.0
 10
161.4887722553
 20
102.3286671547
 30
0.0
 10
161.4817905689
 20
102.346877923
 30
0.0
  0
SPLINE
  5
655
100
AcDbEntity
  8
0
100
AcDbSpline
 62
7
  6
CONTINUOUS
 70
0
 71
3
 72
12
 73
8
 74
0
 42
0.0000001
 43
0.0000001
 44
0.0000000001
 40
0.0
 40
0.0
 40
0.0
 40
0.0
 40
0.1295463107
 40
0.257650461
 40
0.5099553121
 40
0.7573815151
 40
1.0
 40
1.0
 40
1.0
 40
1.0
 10
160.1545058505
 20
105.6818409267
 30
0.0
 10
160.1269512538
 20
105.7483957807
 30
0.0
 10
160.0765804909
 20
105.8826156853
 30
0.0
 10
159.9895731887
 20
106.1525577526
 30
0.0
 10
159.8992607151
 20
106.4899698754
 30
0.0
 10
159.8076228122
 20
106.892485081
 30
0.0
 10
159.7532139753
 20
107.1595032384
 30
0.0
 10
159.7271730634
 20
107.2918724269
 30
0.0
  0
SPLINE
  5
656
100
AcDbEntity
  8
0
100
AcDbSpline
 62
7
  6
CONTINUOUS
 70
0
 71
3
 72
9
 73
5
 74
0
 42
0.0000001
 43
0.0000001
 44
0.0000000001
 40
0.0
 40
0.0
 40
0.0
 40
0.0
 40
0.4836799013
 40
1.0
 40
1.0
 40
1.0
 40
1.0
 10
159.719079816
 20
107.3313633245
 30
0.0
 10
159.6761202899
 20
107.5325098028
 30
0.0
 10
159.5936495511
 20
107.9497295979
 30
0.0
 10
159.5179895657
 20
108.3681945342
 30
0.0
 10
159.4796875854
 20
108.5843908365
 30
0.0
  0
ELLIPSE
  5
657
100
AcDbEntity
  8
2_FEATURE
100
AcDbEllipse
 62
7
  6
CONTINUOUS
 10
151.1475799689
 20
96.6711917945
 30
0.0
 11
3.2790576793
 21
3.2051923062
 31
0.0
 40
0.9632639801
 41
-2.3708918933
 42
-2.3635161207
  0
ELLIPSE
  5
658
100
AcDbEntity
  8
2_FEATURE
100
AcDbEllipse
 62
7
  6
CONTINUOUS
 10
151.2117952019
 20
96.6711917945
 30
0.0
 11
-3.2790576793
 21
3.2051923062
 31
0.0
 40
0.9632639801
 41
-3.9196691864
 42
-3.9122934139
  0
ENDSEC
  0
SECTION
  2
OBJECTS
  0
DICTIONARY
  5
C
100
AcDbDictionary
280
0
281
1
  3
ACAD_GROUP
350
D
  3
ACAD_MLINESTYLE
350
17
  3
ACAD_LAYOUT
350
1A
  3
ACAD_PLOTSETTINGS
350
19
  3
ACAD_PLOTSTYLENAME
350
E
  3
ACAD_TABLESTYLE
350
       659
  0
DICTIONARY
  5
D
102
{ACAD_REACTORS
330
C
102
}
100
AcDbDictionary
280
0
281
1
  0
ACDBDICTIONARYWDFLT
  5
E
102
{ACAD_REACTORS
330
C
102
}
100
AcDbDictionary
281
1
  3
Normal
350
F
100
AcDbDictionaryWithDefault
340
F
  0
DICTIONARY
  5
17
102
{ACAD_REACTORS
330
C
102
}
100
AcDbDictionary
280
0
281
1
  3
Standard
350
18
  0
DICTIONARY
  5
659
330
C
100
AcDbDictionary
281
1
  3
Standard
350
       65C
  3
Standard1
350
       65D
  0
DICTIONARY
  5
19
102
{ACAD_REACTORS
330
C
102
}
100
AcDbDictionary
281
1
  0
DICTIONARY
  5
1A
102
{ACAD_REACTORS
330
C
102
}
100
AcDbDictionary
281
1
  3
Model
350
65A
  3
Layout1
350
65B
  0
ACDBPLACEHOLDER
  5
F
102
{ACAD_REACTORS
330
E
102
}
  0
MLINESTYLE
  5
18
102
{ACAD_REACTORS
330
17
102
}
100
AcDbMlineStyle
  2
STANDARD
 70
0
  3

 62
256
 51
90.0
 52
90.0
 71
2
 49
0.5
 62
256
  6
BYLAYER
 49
-0.5
 62
256
  6
BYLAYER
  0
LAYOUT
  5
65A
102
{ACAD_REACTORS
330
1A
102
}
100
AcDbPlotSettings
  1

  2
none_device
  4

  6

 40
0.0
 41
0.0
 42
0.0
 43
0.0
 44
210.0
 45
297.0
 46
0.0
 47
0.0
 48
0.0
 49
0.0
140
0.0
141
0.0
142
1.0
143
1.0
 70
1024
 72
1
 73
0
 74
0
  7

 75
0
147
1.0
148
0.0
149
0.0
100
AcDbLayout
  1
Model
 70
0
 71
0
 10
0.0
 20
0.0
 11
210.0
 21
297.0
 12
0.0
 22
0.0
 32
0.0
 14
0.0
 24
0.0
 34
0.0
 15
0.0
 25
0.0
 35
0.0
146
0.0
 13
0.0
 23
0.0
 33
0.0
 16
1.0
 26
0.0
 36
0.0
 17
0.0
 27
1.0
 37
0.0
 76
0
330
214
345
0
346
0
  0
LAYOUT
  5
65B
102
{ACAD_REACTORS
330
1A
102
}
100
AcDbPlotSettings
  1

  2
none_device
  4

  6

 40
0.0
 41
0.0
 42
0.0
 43
0.0
 44
210.0
 45
297.0
 46
0.0
 47
0.0
 48
0.0
 49
0.0
140
0.0
141
0.0
142
1.0
143
1.0
 70
0
 72
1
 73
0
 74
0
  7

 75
0
147
1.0
148
0.0
149
0.0
100
AcDbLayout
  1
Layout1
 70
0
 71
1
 10
0.0
 20
0.0
 11
210.0
 21
297.0
 12
0.0
 22
0.0
 32
0.0
 14
0.0
 24
0.0
 34
0.0
 15
0.0
 25
0.0
 35
0.0
146
0.0
 13
0.0
 23
0.0
 33
0.0
 16
1.0
 26
0.0
 36
0.0
 17
0.0
 27
1.0
 37
0.0
 76
0
330
215
345
0
346
0
  0
TABLESTYLE
  5
65C
102
{ACAD_REACTORS
330
659
330
349
102
}
330
659
100
AcDbTableStyle
  3
Standard
 70
0
 71
0
 40
0.06
 41
0.06
280
1
281
1
  7
Standard
140
0.18
170
1
 62
0
 63
7
283
0
  7
Standard
140
0.18
170
1
 62
0
 63
7
283
0
  7
Standard
140
0.18
170
1
 62
0
 63
7
283
0
  0
TABLESTYLE
  5
65D
102
{ACAD_REACTORS
330
659
102
}
330
659
100
AcDbTableStyle
  3
Standard1
 70
1
 71
0
 40
0.06
 41
0.06
280
1
281
1
  7
Standard
140
0.18
170
1
 62
0
 63
7
283
0
  7
Standard
140
0.18
170
1
 62
0
 63
7
283
0
  7
Standard
140
0.18
170
1
 62
0
 63
7
283
0
  0
ENDSEC
  0
EOF
