999
DXF file: uni_1702.dxf
999
Pro/ENGINEER 2015290 by Parametric Technology Corporation
  0
SECTION
  2
HEADER
  9
$ACADVER
  1
AC1027
  9
$DWGCODEPAGE
  3
ANSI_1252
  9
$EXTMAX
 10
210.0
 20
297.0
 30
0.0
  9
$EXTMIN
 10
0.0
 20
0.0
 30
0.0
  9
$LIMMIN
 10
0.0
 20
0.0
  9
$LIMMAX
 10
210.0
 20
297.0
  9
$VIEWCTR
 10
105.0
 20
148.5
  9
$VIEWSIZE
 40
297.0
  9
$CLAYER
  8
0
  9
$LTSCALE
 40
19.36
  9
$CELTYPE
  6
BYLAYER
  9
$DIMSCALE
 40
1.0
  9
$DIMASZ
 40
3.5
  9
$DIMEXO
 40
1.0
  9
$DIMDLI
 40
13.376
  9
$DIMEXE
 40
2.0
  9
$DIMCEN
 40
3.168
  9
$DIMLFAC
 40
1.0
  9
$DIMBLK
  1
_FILLED
  9
$DIMALT
 70
0
  9
$DIMALTF
 40
0.0393700787
  9
$DIMTXT
 40
3.5
  9
$DIMTOL
 70
1
  9
$DIMLIM
 70
0
  9
$DIMTFAC
 40
1.0
  9
$DIMTP
 40
0.01
  9
$DIMTM
 40
0.01
  9
$DIMGAP
 40
0.625
  9
$DIMDSEP
 70
46
  9
$AUNITS
 70
0
  9
$PDMODE
 70
3
  9
$PDSIZE
 40
0.3125
  9
$HANDSEED
  5
771
  9
$TILEMODE
 70
1
  9
$MEASUREMENT
 70
1
  9
$INSUNITS
 70
4
  0
ENDSEC
  0
SECTION
  2
CLASSES
  0
CLASS
  1
ACDBDICTIONARYWDFLT
  2
AcDbDictionaryWithDefault
  3
AutoCAD 2000
 90
0
 91
1
280
0
281
0
  0
CLASS
  1
ACDBPLACEHOLDER
  2
AcDbPlaceHolder
  3
AutoCAD 2000
 90
0
 91
1
280
0
281
0
  0
CLASS
  1
LAYOUT
  2
AcDbLayout
  3
AutoCAD 2000
 90
0
 91
0
280
0
281
0
  0
CLASS
  1
TABLESTYLE
  2
AcDbTableStyle
  3
ObjectDBX Classes
 90
2047
 91
1
280
0
281
0
  0
CLASS
  1
ACAD_TABLE
  2
AcDbTable
  3
ObjectDBX Classes
 90
1025
 91
1
280
0
281
1
  0
ENDSEC
  0
SECTION
  2
TABLES
  0
TABLE
  2
VPORT
  5
8
100
AcDbSymbolTable
 70
2
  0
VPORT
  5
1F4
100
AcDbSymbolTableRecord
100
AcDbViewportTableRecord
  2
*ACTIVE
 70
0
 10
0.0
 20
0.0
 11
1.0
 21
1.0
 12
105.0
 22
148.5
 13
0.0
 23
0.0
 14
1.0
 24
1.0
 15
0.0
 25
0.0
 16
0.0
 26
0.0
 36
1.0
 17
0.0
 27
0.0
 37
0.0
 40
297.0
 41
0.7070707071
 42
50.0
 43
0.0
 44
0.0
 50
0.0
 51
0.0
 71
0
 72
100
 73
1
 74
1
 75
0
 76
0
 77
0
 78
0
  0
ENDTAB
  0
TABLE
  2
LTYPE
  5
5
100
AcDbSymbolTable
 70
6
  0
LTYPE
  5
14
100
AcDbSymbolTableRecord
100
AcDbLinetypeTableRecord
  2
BYBLOCK
 70
0
  3

 72
65
 73
0
 40
0.0
  0
LTYPE
  5
15
100
AcDbSymbolTableRecord
100
AcDbLinetypeTableRecord
  2
BYLAYER
 70
0
  3

 72
65
 73
0
 40
0.0
  0
LTYPE
  5
16
100
AcDbSymbolTableRecord
100
AcDbLinetypeTableRecord
  2
CONTINUOUS
 70
64
  3
Solid line
 72
65
 73
0
 40
0.0
  0
LTYPE
  5
1F5
100
AcDbSymbolTableRecord
100
AcDbLinetypeTableRecord
  2
CENTER
 70
64
  3
____ _ ____ _ ____ _ ____ _ ____ _ ____ _ ____
 72
65
 73
4
 40
0.6
 49
0.375
 74
0
 49
-0.075
 74
0
 49
0.075
 74
0
 49
-0.075
 74
0
  0
LTYPE
  5
1F6
100
AcDbSymbolTableRecord
100
AcDbLinetypeTableRecord
  2
HIDDEN
 70
64
  3
- - - - - - - - - - - - - - - - - - - -
 72
65
 73
2
 40
0.2
 49
0.1
 74
0
 49
-0.1
 74
0
  0
LTYPE
  5
1F7
100
AcDbSymbolTableRecord
100
AcDbLinetypeTableRecord
  2
PHANTOM
 70
64
  3
_____ _ _ _____ _ _ _____ _ _ _____
 72
65
 73
6
 40
0.8
 49
0.45
 74
0
 49
-0.05
 74
0
 49
0.1
 74
0
 49
-0.05
 74
0
 49
0.1
 74
0
 49
-0.05
 74
0
  0
LTYPE
  5
1F8
100
AcDbSymbolTableRecord
100
AcDbLinetypeTableRecord
  2
DOT
 70
64
  3
. . . . . . . . . . . . . . . . . . . .
 72
65
 73
2
 40
0.2
 49
0.1
 74
0
 49
-0.1
 74
0
  0
LTYPE
  5
1F9
100
AcDbSymbolTableRecord
100
AcDbLinetypeTableRecord
  2
DASHED
 70
64
  3
- - - - - - - - - - - - - - - - - - - -
 72
65
 73
2
 40
0.2
 49
0.1
 74
0
 49
-0.1
 74
0
  0
ENDTAB
  0
TABLE
  2
LAYER
  5
2
100
AcDbSymbolTable
 70
36
  0
LAYER
  5
10
100
AcDbSymbolTableRecord
100
AcDbLayerTableRecord
  2
0
 70
0
 62
7
  6
CONTINUOUS
370
-3
390
F
  0
LAYER
  5
1FA
100
AcDbSymbolTableRecord
100
AcDbLayerTableRecord
  2
DEFAULT_1
 70
0
 62
7
  6
CENTER
370
-3
390
F
  0
LAYER
  5
1FB
100
AcDbSymbolTableRecord
100
AcDbLayerTableRecord
  2
DEFAULT_2
 70
0
 62
8
  6
HIDDEN
370
-3
390
F
  0
LAYER
  5
1FC
100
AcDbSymbolTableRecord
100
AcDbLayerTableRecord
  2
DEFAULT_3
 70
0
 62
7
  6
PHANTOM
370
-3
390
F
  0
LAYER
  5
1FD
100
AcDbSymbolTableRecord
100
AcDbLayerTableRecord
  2
03_CURVE
 70
0
 62
7
  6
CONTINUOUS
370
-3
390
F
  0
LAYER
  5
1FE
100
AcDbSymbolTableRecord
100
AcDbLayerTableRecord
  2
1_AXIS
 70
0
 62
7
  6
CONTINUOUS
370
-3
390
F
  0
LAYER
  5
1FF
100
AcDbSymbolTableRecord
100
AcDbLayerTableRecord
  2
1_DATUM_PLANE
 70
0
 62
7
  6
CONTINUOUS
370
-3
390
F
  0
LAYER
  5
200
100
AcDbSymbolTableRecord
100
AcDbLayerTableRecord
  2
1_DATUM_PLANES
 70
0
 62
7
  6
CONTINUOUS
370
-3
390
F
  0
LAYER
  5
201
100
AcDbSymbolTableRecord
100
AcDbLayerTableRecord
  2
2_FEATURE
 70
0
 62
7
  6
CONTINUOUS
370
-3
390
F
  0
LAYER
  5
202
100
AcDbSymbolTableRecord
100
AcDbLayerTableRecord
  2
4_QUILT
 70
0
 62
7
  6
CONTINUOUS
370
-3
390
F
  0
LAYER
  5
203
100
AcDbSymbolTableRecord
100
AcDbLayerTableRecord
  2
4_SURFACE
 70
0
 62
7
  6
CONTINUOUS
370
-3
390
F
  0
LAYER
  5
204
100
AcDbSymbolTableRecord
100
AcDbLayerTableRecord
  2
6_DIM
 70
0
 62
7
  6
CONTINUOUS
370
-3
390
F
  0
LAYER
  5
205
100
AcDbSymbolTableRecord
100
AcDbLayerTableRecord
  2
AXES
 70
0
 62
7
  6
CONTINUOUS
370
-3
390
F
  0
LAYER
  5
206
100
AcDbSymbolTableRecord
100
AcDbLayerTableRecord
  2
CSYS
 70
0
 62
7
  6
CONTINUOUS
370
-3
390
F
  0
LAYER
  5
207
100
AcDbSymbolTableRecord
100
AcDbLayerTableRecord
  2
PLANES
 70
0
 62
7
  6
CONTINUOUS
370
-3
390
F
  0
LAYER
  5
208
100
AcDbSymbolTableRecord
100
AcDbLayerTableRecord
  2
XSEC_DATUMS
 70
0
 62
7
  6
CONTINUOUS
370
-3
390
F
  0
ENDTAB
  0
TABLE
  2
STYLE
  5
3
100
AcDbSymbolTable
 70
1
  0
STYLE
  5
11
100
AcDbSymbolTableRecord
100
AcDbTextStyleTableRecord
  2
STANDARD
 70
0
 40
0.0
 41
0.8
 50
0.0
 71
0
 42
0.2
  3
txt
  4

  0
STYLE
  5
209
100
AcDbSymbolTableRecord
100
AcDbTextStyleTableRecord
  2
TEXTSTYLE_1
 70
0
 40
0.0
 41
0.8
 50
0.0
 71
0
 42
0.2
  3
gdt
  4

  0
STYLE
  5
20A
100
AcDbSymbolTableRecord
100
AcDbTextStyleTableRecord
  2
TEXTSTYLE_2
 70
0
 40
0.0
 41
0.6
 50
0.0
 71
0
 42
0.2
  3
txt
  4

  0
STYLE
  5
20B
100
AcDbSymbolTableRecord
100
AcDbTextStyleTableRecord
  2
TEXTSTYLE_3
 70
0
 40
0.0
 41
1.0
 50
0.0
 71
0
 42
0.2
  3
ftb_____.ttf
  4

  0
STYLE
  5
20C
100
AcDbSymbolTableRecord
100
AcDbTextStyleTableRecord
  2
TEXTSTYLE_4
 70
0
 40
0.0
 41
1.0
 50
0.0
 71
0
 42
0.2
  3
fti_____.ttf
  4

  0
STYLE
  5
20D
100
AcDbSymbolTableRecord
100
AcDbTextStyleTableRecord
  2
TEXTSTYLE_5
 70
0
 40
0.0
 41
1.0
 50
0.0
 71
0
 42
0.2
  3
frutiger light.ttf
  4

  0
STYLE
  5
20E
100
AcDbSymbolTableRecord
100
AcDbTextStyleTableRecord
  2
TEXTSTYLE_6
 70
0
 40
0.0
 41
0.7
 50
0.0
 71
0
 42
0.2
  3
txt
  4

  0
STYLE
  5
20F
100
AcDbSymbolTableRecord
100
AcDbTextStyleTableRecord
  2
TEXTSTYLE_7
 70
0
 40
0.0
 41
0.8
 50
0.0
 71
0
 42
0.2
  3
txt
  4

  0
ENDTAB
  0
TABLE
  2
VIEW
  5
6
100
AcDbSymbolTable
 70
0
  0
ENDTAB
  0
TABLE
  2
UCS
  5
7
100
AcDbSymbolTable
 70
0
  0
ENDTAB
  0
TABLE
  2
APPID
  5
9
100
AcDbSymbolTable
 70
1
  0
APPID
  5
210
100
AcDbSymbolTableRecord
100
AcDbRegAppTableRecord
  2
ACAD
 70
0
  0
ENDTAB
  0
TABLE
  2
BLOCK_RECORD
  5
1
100
AcDbSymbolTable
 70
0
  0
BLOCK_RECORD
  5
211
100
AcDbSymbolTableRecord
100
AcDbBlockTableRecord
  2
*Model_Space
  0
BLOCK_RECORD
  5
212
100
AcDbSymbolTableRecord
100
AcDbBlockTableRecord
  2
*Paper_Space
  0
BLOCK_RECORD
  5
213
100
AcDbSymbolTableRecord
100
AcDbBlockTableRecord
  2
UNI_LOGO2_BL1
  0
BLOCK_RECORD
  5
214
100
AcDbSymbolTableRecord
100
AcDbBlockTableRecord
  2
AMMEAAL_LOGO_BL0
  0
BLOCK_RECORD
  5
215
100
AcDbSymbolTableRecord
100
AcDbBlockTableRecord
  2
*T1
  0
ENDTAB
  0
TABLE
  2
DIMSTYLE
  5
A
100
AcDbSymbolTable
 70
1
100
AcDbDimStyleTable
 71
0
  0
DIMSTYLE
105
216
100
AcDbSymbolTableRecord
100
AcDbDimStyleTableRecord
  2
STANDARD
 70
0
  3

  4

 40
1.0
 41
3.5
 42
1.0
 43
0.38
 44
2.0
 45
0.0
 46
0.0
 47
0.01
 48
0.01
140
3.5
141
0.09
142
0.0
143
25.4
144
1.0
145
0.0
146
1.0
147
0.625
 71
1.0
 72
0.0
 73
0
 74
0
 75
0
 76
0
 77
1
 78
0
170
0
171
2
172
0
173
0
174
0
175
0
176
0
177
0
178
5
270
2
271
2
272
2
273
2
274
2
275
0
280
0
281
0
282
0
283
1
284
0
285
0
286
0
287
3
288
0
340
11
278
46
  0
ENDTAB
  0
ENDSEC
  0
SECTION
  2
BLOCKS
  0
BLOCK
  5
20
100
AcDbEntity
  8
0
100
AcDbBlockBegin
  2
*Model_Space
 70
0
 10
0.0
 20
0.0
 30
0.0
  3
*Model_Space
  1

  0
ENDBLK
  5
21
100
AcDbEntity
  8
0
100
AcDbBlockEnd
  0
BLOCK
  5
1C
100
AcDbEntity
  8
0
100
AcDbBlockBegin
  2
*Paper_Space
 70
0
 10
0.0
 20
0.0
 30
0.0
  3
*Paper_Space
  1

  0
ENDBLK
  5
1D
100
AcDbEntity
  8
0
100
AcDbBlockEnd
  0
BLOCK
  5
217
100
AcDbEntity
  8
0
100
AcDbBlockBegin
 62
2
  6
CONTINUOUS
  2
UNI_LOGO2_BL1
 70
64
 10
173.3924355793
 20
35.4837666925
  3
UNI_LOGO2_BL1
  1

  0
TEXT
  5
218
100
AcDbEntity
  8
0
100
AcDbText
 62
7
  6
CONTINUOUS
 10
164.4507205878
 20
30.5765230696
  7
TEXTSTYLE_4
 40
1.0655737705
  1
The brand for plastic modular belts and chains
 41
1.0
 72
0
100
AcDbText
  0
LINE
  5
219
100
AcDbEntity
  8
0
100
AcDbLine
 62
7
  6
CONTINUOUS
 10
149.3705039683
 20
36.0575371843
 11
149.3705039683
 21
33.9263896433
  0
LINE
  5
21A
100
AcDbEntity
  8
0
100
AcDbLine
 62
7
  6
CONTINUOUS
 10
149.6595664615
 20
30.9354583476
 11
149.6595664615
 21
31.0322494069
  0
LINE
  5
21B
100
AcDbEntity
  8
0
100
AcDbLine
 62
7
  6
CONTINUOUS
 10
149.3705039683
 20
30.9999857205
 11
149.4283164701
 21
30.8064036019
  0
LINE
  5
21C
100
AcDbEntity
  8
0
100
AcDbLine
 62
7
  6
CONTINUOUS
 10
150.7639465913
 20
33.8444224302
 11
150.7639465913
 21
36.0575371843
  0
LINE
  5
21D
100
AcDbEntity
  8
0
100
AcDbLine
 62
7
  6
CONTINUOUS
 10
151.6830039132
 20
32.0001601351
 11
151.6830039132
 21
30.4837666925
  0
LINE
  5
21E
100
AcDbEntity
  8
0
100
AcDbLine
 62
7
  6
CONTINUOUS
 10
151.9720664683
 20
30.4837666925
 11
151.9720664683
 21
31.2258315706
  0
LINE
  5
21F
100
AcDbEntity
  8
0
100
AcDbLine
 62
7
  6
CONTINUOUS
 10
151.9720664683
 20
31.3548863163
 11
151.9720664683
 21
32.0001601351
  0
LINE
  5
220
100
AcDbEntity
  8
0
100
AcDbLine
 62
7
  6
CONTINUOUS
 10
149.4283164701
 20
31.1935678842
 11
149.3705039683
 21
30.9999857205
  0
LINE
  5
221
100
AcDbEntity
  8
0
100
AcDbLine
 62
7
  6
CONTINUOUS
 10
149.7751914546
 20
30.7741399155
 11
149.6595664615
 21
30.9354583476
  0
LINE
  5
222
100
AcDbEntity
  8
0
100
AcDbLine
 62
7
  6
CONTINUOUS
 10
150.8736290235
 20
31.2903589434
 11
150.9314414683
 21
31.1935678842
  0
LINE
  5
223
100
AcDbEntity
  8
0
100
AcDbLine
 62
7
  6
CONTINUOUS
 10
151.2205040235
 20
31.1935678842
 11
151.1626914132
 21
31.3226226299
  0
LINE
  5
224
100
AcDbEntity
  8
0
100
AcDbLine
 62
7
  6
CONTINUOUS
 10
152.6491924929
 20
36.0575371843
 11
152.6491924929
 21
34.2542584958
  0
LINE
  5
225
100
AcDbEntity
  8
0
100
AcDbLine
 62
7
  6
CONTINUOUS
 10
152.6491924929
 20
32.9427830859
 11
152.6491924929
 21
32.287045381
  0
LINE
  5
226
100
AcDbEntity
  8
0
100
AcDbLine
 62
7
  6
CONTINUOUS
 10
153.0126914683
 20
31.1290405113
 11
153.0126914683
 21
30.4837666925
  0
LINE
  5
227
100
AcDbEntity
  8
0
100
AcDbLine
 62
7
  6
CONTINUOUS
 10
153.3017538581
 20
30.4837666925
 11
153.3017538581
 21
31.1290405113
  0
LINE
  5
228
100
AcDbEntity
  8
0
100
AcDbLine
 62
7
  6
CONTINUOUS
 10
149.6595664615
 20
31.0322494069
 11
149.7173789683
 21
31.1613041978
  0
LINE
  5
229
100
AcDbEntity
  8
0
100
AcDbLine
 62
7
  6
CONTINUOUS
 10
149.4283164701
 20
30.8064036019
 11
149.5439414683
 21
30.6773488336
  0
LINE
  5
22A
100
AcDbEntity
  8
0
100
AcDbLine
 62
7
  6
CONTINUOUS
 10
152.9548788581
 20
31.258095257
 11
153.0126914683
 21
31.1290405113
  0
LINE
  5
22B
100
AcDbEntity
  8
0
100
AcDbLine
 62
7
  6
CONTINUOUS
 10
153.7642540786
 20
30.7741399155
 11
153.8220663581
 21
30.6450851472
  0
LINE
  5
22C
100
AcDbEntity
  8
0
100
AcDbLine
 62
7
  6
CONTINUOUS
 10
153.3017538581
 20
31.1290405113
 11
153.2439415786
 21
31.2903589434
  0
LINE
  5
22D
100
AcDbEntity
  8
0
100
AcDbLine
 62
7
  6
CONTINUOUS
 10
153.7642540786
 20
31.3226226299
 11
153.7642540786
 21
31.258095257
  0
LINE
  5
22E
100
AcDbEntity
  8
0
100
AcDbLine
 62
7
  6
CONTINUOUS
 10
153.7642540786
 20
30.8709309748
 11
153.7642540786
 21
30.7741399155
  0
LINE
  5
22F
100
AcDbEntity
  8
0
100
AcDbLine
 62
7
  6
CONTINUOUS
 10
154.0426351159
 20
32.287045381
 11
154.0426351159
 21
36.0575371843
  0
LINE
  5
230
100
AcDbEntity
  8
0
100
AcDbLine
 62
7
  6
CONTINUOUS
 10
154.0533164683
 20
30.7418762065
 11
154.0533164683
 21
30.8064036019
  0
LINE
  5
231
100
AcDbEntity
  8
0
100
AcDbLine
 62
7
  6
CONTINUOUS
 10
154.3705039683
 20
36.0575371843
 11
154.3705039683
 21
32.287045381
  0
LINE
  5
232
100
AcDbEntity
  8
0
100
AcDbLine
 62
7
  6
CONTINUOUS
 10
151.1626914132
 20
30.6773488336
 11
151.2205040235
 21
30.8064036019
  0
LINE
  5
233
100
AcDbEntity
  8
0
100
AcDbLine
 62
7
  6
CONTINUOUS
 10
155.5564416889
 20
30.5805577631
 11
155.4986287478
 21
30.7418762065
  0
LINE
  5
234
100
AcDbEntity
  8
0
100
AcDbLine
 62
7
  6
CONTINUOUS
 10
155.2095666889
 20
31.258095257
 11
155.2095666889
 21
31.1613041978
  0
LINE
  5
235
100
AcDbEntity
  8
0
100
AcDbLine
 62
7
  6
CONTINUOUS
 10
155.2095666889
 20
31.0322494069
 11
155.2095666889
 21
30.8386672883
  0
LINE
  5
236
100
AcDbEntity
  8
0
100
AcDbLine
 62
7
  6
CONTINUOUS
 10
155.4986287478
 20
30.7418762065
 11
155.4986287478
 21
31.258095257
  0
LINE
  5
237
100
AcDbEntity
  8
0
100
AcDbLine
 62
7
  6
CONTINUOUS
 10
155.7639465913
 20
32.287045381
 11
155.7639465913
 21
34.0903240696
  0
LINE
  5
238
100
AcDbEntity
  8
0
100
AcDbLine
 62
7
  6
CONTINUOUS
 10
155.7639465913
 20
35.4017994794
 11
155.7639465913
 21
36.0575371843
  0
LINE
  5
239
100
AcDbEntity
  8
0
100
AcDbLine
 62
7
  6
CONTINUOUS
 10
156.0767541889
 20
32.0001601351
 11
156.0767541889
 21
31.838841703
  0
LINE
  5
23A
100
AcDbEntity
  8
0
100
AcDbLine
 62
7
  6
CONTINUOUS
 10
156.0767541889
 20
31.5162047484
 11
156.0767541889
 21
30.4837666925
  0
LINE
  5
23B
100
AcDbEntity
  8
0
100
AcDbLine
 62
7
  6
CONTINUOUS
 10
156.3658162478
 20
30.4837666925
 11
156.3658162478
 21
31.5162047484
  0
LINE
  5
23C
100
AcDbEntity
  8
0
100
AcDbLine
 62
7
  6
CONTINUOUS
 10
156.3658162478
 20
31.838841703
 11
156.3658162478
 21
32.0001601351
  0
LINE
  5
23D
100
AcDbEntity
  8
0
100
AcDbLine
 62
7
  6
CONTINUOUS
 10
150.9314414683
 20
30.8064036019
 11
150.8736290235
 21
30.7096125201
  0
LINE
  5
23E
100
AcDbEntity
  8
0
100
AcDbLine
 62
7
  6
CONTINUOUS
 10
153.2439415786
 20
31.2903589434
 11
153.1861289683
 21
31.3548863163
  0
LINE
  5
23F
100
AcDbEntity
  8
0
100
AcDbLine
 62
7
  6
CONTINUOUS
 10
154.1111290786
 20
30.6773488336
 11
154.0533164683
 21
30.7418762065
  0
LINE
  5
240
100
AcDbEntity
  8
0
100
AcDbLine
 62
7
  6
CONTINUOUS
 10
155.2673789683
 20
30.548294071
 11
155.3251912478
 21
30.4837666925
  0
LINE
  5
241
100
AcDbEntity
  8
0
100
AcDbLine
 62
7
  6
CONTINUOUS
 10
155.2095666889
 20
30.6450851472
 11
155.2673789683
 21
30.548294071
  0
LINE
  5
242
100
AcDbEntity
  8
0
100
AcDbLine
 62
7
  6
CONTINUOUS
 10
155.6142539683
 20
30.4837666925
 11
155.5564416889
 21
30.5805577631
  0
LINE
  5
243
100
AcDbEntity
  8
0
100
AcDbLine
 62
7
  6
CONTINUOUS
 10
155.4986287478
 20
31.258095257
 11
155.4408164683
 21
31.3548863163
  0
LINE
  5
244
100
AcDbEntity
  8
0
100
AcDbLine
 62
7
  6
CONTINUOUS
 10
156.8283164683
 20
31.5162047484
 11
156.8283164683
 21
30.4837666925
  0
LINE
  5
245
100
AcDbEntity
  8
0
100
AcDbLine
 62
7
  6
CONTINUOUS
 10
157.1173791889
 20
30.4837666925
 11
157.1173791889
 21
31.2258315706
  0
LINE
  5
246
100
AcDbEntity
  8
0
100
AcDbLine
 62
7
  6
CONTINUOUS
 10
157.1173791889
 20
31.3548863163
 11
157.1173791889
 21
31.5162047484
  0
LINE
  5
247
100
AcDbEntity
  8
0
100
AcDbLine
 62
7
  6
CONTINUOUS
 10
157.6491924929
 20
34.5001601351
 11
157.6491924929
 21
32.287045381
  0
LINE
  5
248
100
AcDbEntity
  8
0
100
AcDbLine
 62
7
  6
CONTINUOUS
 10
149.5439414683
 20
31.3226226299
 11
149.4283164701
 21
31.1935678842
  0
LINE
  5
249
100
AcDbEntity
  8
0
100
AcDbLine
 62
7
  6
CONTINUOUS
 10
149.7173789683
 20
31.1613041978
 11
149.7751914546
 21
31.2258315706
  0
LINE
  5
24A
100
AcDbEntity
  8
0
100
AcDbLine
 62
7
  6
CONTINUOUS
 10
149.5439414683
 20
30.6773488336
 11
149.6595664615
 21
30.6128214495
  0
LINE
  5
24B
100
AcDbEntity
  8
0
100
AcDbLine
 62
7
  6
CONTINUOUS
 10
149.9486289546
 20
30.6773488336
 11
149.7751914546
 21
30.7741399155
  0
LINE
  5
24C
100
AcDbEntity
  8
0
100
AcDbLine
 62
7
  6
CONTINUOUS
 10
155.1517537478
 20
31.3226226299
 11
155.2095666889
 21
31.258095257
  0
LINE
  5
24D
100
AcDbEntity
  8
0
100
AcDbLine
 62
7
  6
CONTINUOUS
 10
158.1001912478
 20
31.258095257
 11
158.1580041889
 21
31.0967768249
  0
LINE
  5
24E
100
AcDbEntity
  8
0
100
AcDbLine
 62
7
  6
CONTINUOUS
 10
158.4470662478
 20
31.0967768249
 11
158.3892539683
 21
31.258095257
  0
LINE
  5
24F
100
AcDbEntity
  8
0
100
AcDbLine
 62
7
  6
CONTINUOUS
 10
158.1580041889
 20
31.0967768249
 11
158.1580041889
 21
30.4837666925
  0
LINE
  5
250
100
AcDbEntity
  8
0
100
AcDbLine
 62
7
  6
CONTINUOUS
 10
158.4470662478
 20
30.4837666925
 11
158.4470662478
 21
31.0967768249
  0
LINE
  5
251
100
AcDbEntity
  8
0
100
AcDbLine
 62
7
  6
CONTINUOUS
 10
158.9095664683
 20
31.3226226299
 11
158.9095664683
 21
31.258095257
  0
LINE
  5
252
100
AcDbEntity
  8
0
100
AcDbLine
 62
7
  6
CONTINUOUS
 10
159.0426351159
 20
32.287045381
 11
159.0426351159
 21
34.418192922
  0
LINE
  5
253
100
AcDbEntity
  8
0
100
AcDbLine
 62
7
  6
CONTINUOUS
 10
159.3705039683
 20
36.0575371843
 11
159.3705039683
 21
32.287045381
  0
LINE
  5
254
100
AcDbEntity
  8
0
100
AcDbLine
 62
7
  6
CONTINUOUS
 10
154.0533164683
 20
30.8064036019
 11
154.1111290786
 21
30.9031946612
  0
LINE
  5
255
100
AcDbEntity
  8
0
100
AcDbLine
 62
7
  6
CONTINUOUS
 10
149.6595664615
 20
30.6128214495
 11
149.8330039821
 21
30.548294071
  0
LINE
  5
256
100
AcDbEntity
  8
0
100
AcDbLine
 62
7
  6
CONTINUOUS
 10
151.1626914132
 20
31.3226226299
 11
150.9892539132
 21
31.4194136891
  0
LINE
  5
257
100
AcDbEntity
  8
0
100
AcDbLine
 62
7
  6
CONTINUOUS
 10
153.8220663581
 20
30.6450851472
 11
153.9955038581
 21
30.548294071
  0
LINE
  5
258
100
AcDbEntity
  8
0
100
AcDbLine
 62
7
  6
CONTINUOUS
 10
152.8392539683
 20
31.3226226299
 11
152.9548788581
 21
31.258095257
  0
LINE
  5
259
100
AcDbEntity
  8
0
100
AcDbLine
 62
7
  6
CONTINUOUS
 10
153.1861289683
 20
31.3548863163
 11
153.0705040786
 21
31.4194136891
  0
LINE
  5
25A
100
AcDbEntity
  8
0
100
AcDbLine
 62
7
  6
CONTINUOUS
 10
158.9095664683
 20
30.7418762065
 11
159.0251916889
 21
30.6128214495
  0
LINE
  5
25B
100
AcDbEntity
  8
0
100
AcDbLine
 62
7
  6
CONTINUOUS
 10
159.2564414683
 20
30.6773488336
 11
159.1986291889
 21
30.7418762065
  0
LINE
  5
25C
100
AcDbEntity
  8
0
100
AcDbLine
 62
7
  6
CONTINUOUS
 10
158.9095664683
 20
31.258095257
 11
159.0251916889
 21
31.1290405113
  0
LINE
  5
25D
100
AcDbEntity
  8
0
100
AcDbLine
 62
7
  6
CONTINUOUS
 10
158.3892539683
 20
31.258095257
 11
158.3314416889
 21
31.3548863163
  0
LINE
  5
25E
100
AcDbEntity
  8
0
100
AcDbLine
 62
7
  6
CONTINUOUS
 10
160.7595660273
 20
30.6773488336
 11
160.7595660273
 21
30.7418762065
  0
LINE
  5
25F
100
AcDbEntity
  8
0
100
AcDbLine
 62
7
  6
CONTINUOUS
 10
160.7639465913
 20
32.287045381
 11
160.7639465913
 21
36.0575371843
  0
LINE
  5
260
100
AcDbEntity
  8
0
100
AcDbLine
 62
7
  6
CONTINUOUS
 10
153.8220663581
 20
31.3871500027
 11
153.7642540786
 21
31.3226226299
  0
LINE
  5
261
100
AcDbEntity
  8
0
100
AcDbLine
 62
7
  6
CONTINUOUS
 10
150.7001914408
 20
31.3548863163
 11
150.8736290235
 21
31.2903589434
  0
LINE
  5
262
100
AcDbEntity
  8
0
100
AcDbLine
 62
7
  6
CONTINUOUS
 10
155.4408164683
 20
31.3548863163
 11
155.3251912478
 21
31.4194136891
  0
LINE
  5
263
100
AcDbEntity
  8
0
100
AcDbLine
 62
7
  6
CONTINUOUS
 10
159.2564414683
 20
31.1935678842
 11
159.1986291889
 21
31.258095257
  0
LINE
  5
264
100
AcDbEntity
  8
0
100
AcDbLine
 62
7
  6
CONTINUOUS
 10
160.4126916889
 20
30.8064036019
 11
160.4705039683
 21
30.7418762065
  0
LINE
  5
265
100
AcDbEntity
  8
0
100
AcDbLine
 62
7
  6
CONTINUOUS
 10
160.7595660273
 20
30.7418762065
 11
160.6439414683
 21
30.8709309748
  0
LINE
  5
266
100
AcDbEntity
  8
0
100
AcDbLine
 62
7
  6
CONTINUOUS
 10
160.4126916889
 20
31.3226226299
 11
160.4705039683
 21
31.258095257
  0
LINE
  5
267
100
AcDbEntity
  8
0
100
AcDbLine
 62
7
  6
CONTINUOUS
 10
160.7595660273
 20
31.258095257
 11
160.6439414683
 21
31.3871500027
  0
LINE
  5
268
100
AcDbEntity
  8
0
100
AcDbLine
 62
7
  6
CONTINUOUS
 10
154.0533164683
 20
31.258095257
 11
154.1111290786
 21
31.3226226299
  0
LINE
  5
269
100
AcDbEntity
  8
0
100
AcDbLine
 62
7
  6
CONTINUOUS
 10
153.8798789683
 20
30.9999857205
 11
153.7642540786
 21
30.8709309748
  0
LINE
  5
26A
100
AcDbEntity
  8
0
100
AcDbLine
 62
7
  6
CONTINUOUS
 10
155.2095666889
 20
30.8386672883
 11
155.1517537478
 21
30.7741399155
  0
LINE
  5
26B
100
AcDbEntity
  8
0
100
AcDbLine
 62
7
  6
CONTINUOUS
 10
155.1517537478
 20
30.5805577631
 11
155.2095666889
 21
30.6450851472
  0
LINE
  5
26C
100
AcDbEntity
  8
0
100
AcDbLine
 62
7
  6
CONTINUOUS
 10
153.9955038581
 20
30.548294071
 11
154.1111290786
 21
30.5160303817
  0
LINE
  5
26D
100
AcDbEntity
  8
0
100
AcDbLine
 62
7
  6
CONTINUOUS
 10
150.9892539132
 20
31.4194136891
 11
150.7580039683
 21
31.483941062
  0
LINE
  5
26E
100
AcDbEntity
  8
0
100
AcDbLine
 62
7
  6
CONTINUOUS
 10
154.3423788581
 20
30.6128214495
 11
154.1111290786
 21
30.6773488336
  0
LINE
  5
26F
100
AcDbEntity
  8
0
100
AcDbLine
 62
7
  6
CONTINUOUS
 10
153.0705040786
 20
31.4194136891
 11
152.8970665786
 21
31.483941062
  0
LINE
  5
270
100
AcDbEntity
  8
0
100
AcDbLine
 62
7
  6
CONTINUOUS
 10
155.3251912478
 20
31.4194136891
 11
155.1517537478
 21
31.483941062
  0
LINE
  5
271
100
AcDbEntity
  8
0
100
AcDbLine
 62
7
  6
CONTINUOUS
 10
157.9845666889
 20
31.3226226299
 11
158.1001912478
 21
31.258095257
  0
LINE
  5
272
100
AcDbEntity
  8
0
100
AcDbLine
 62
7
  6
CONTINUOUS
 10
158.3314416889
 20
31.3548863163
 11
158.2158164683
 21
31.4194136891
  0
LINE
  5
273
100
AcDbEntity
  8
0
100
AcDbLine
 62
7
  6
CONTINUOUS
 10
149.8330039821
 20
30.548294071
 11
150.0064414821
 21
30.5160303817
  0
LINE
  5
274
100
AcDbEntity
  8
0
100
AcDbLine
 62
7
  6
CONTINUOUS
 10
150.2955039959
 20
30.6128214495
 11
149.9486289546
 21
30.6773488336
  0
LINE
  5
275
100
AcDbEntity
  8
0
100
AcDbLine
 62
7
  6
CONTINUOUS
 10
152.7236290786
 20
31.3548863163
 11
152.8392539683
 21
31.3226226299
  0
LINE
  5
276
100
AcDbEntity
  8
0
100
AcDbLine
 62
7
  6
CONTINUOUS
 10
155.0361291889
 20
31.3548863163
 11
155.1517537478
 21
31.3226226299
  0
LINE
  5
277
100
AcDbEntity
  8
0
100
AcDbLine
 62
7
  6
CONTINUOUS
 10
159.3720666889
 20
30.6450851472
 11
159.2564414683
 21
30.6773488336
  0
LINE
  5
278
100
AcDbEntity
  8
0
100
AcDbLine
 62
7
  6
CONTINUOUS
 10
157.8689414683
 20
31.3548863163
 11
157.9845666889
 21
31.3226226299
  0
LINE
  5
279
100
AcDbEntity
  8
0
100
AcDbLine
 62
7
  6
CONTINUOUS
 10
159.0251916889
 20
30.6128214495
 11
159.1986291889
 21
30.548294071
  0
LINE
  5
27A
100
AcDbEntity
  8
0
100
AcDbLine
 62
7
  6
CONTINUOUS
 10
158.2158164683
 20
31.4194136891
 11
158.0423789683
 21
31.483941062
  0
LINE
  5
27B
100
AcDbEntity
  8
0
100
AcDbLine
 62
7
  6
CONTINUOUS
 10
159.4298789683
 20
31.1290405113
 11
159.2564414683
 21
31.1935678842
  0
LINE
  5
27C
100
AcDbEntity
  8
0
100
AcDbLine
 62
7
  6
CONTINUOUS
 10
160.2392541889
 20
30.8709309748
 11
160.4126916889
 21
30.8064036019
  0
LINE
  5
27D
100
AcDbEntity
  8
0
100
AcDbLine
 62
7
  6
CONTINUOUS
 10
160.6439414683
 20
31.3871500027
 11
160.4705039683
 21
31.4516773756
  0
LINE
  5
27E
100
AcDbEntity
  8
0
100
AcDbLine
 62
7
  6
CONTINUOUS
 10
159.0251916889
 20
31.1290405113
 11
159.2564414683
 21
31.0322494069
  0
LINE
  5
27F
100
AcDbEntity
  8
0
100
AcDbLine
 62
7
  6
CONTINUOUS
 10
160.6439414683
 20
30.8709309748
 11
160.4126916889
 21
30.967722034
  0
LINE
  5
280
100
AcDbEntity
  8
0
100
AcDbLine
 62
7
  6
CONTINUOUS
 10
159.1986291889
 20
31.258095257
 11
159.2564414683
 21
31.3226226299
  0
LINE
  5
281
100
AcDbEntity
  8
0
100
AcDbLine
 62
7
  6
CONTINUOUS
 10
149.6595664615
 20
31.3871500027
 11
149.5439414683
 21
31.3226226299
  0
LINE
  5
282
100
AcDbEntity
  8
0
100
AcDbLine
 62
7
  6
CONTINUOUS
 10
149.7751914546
 20
31.2258315706
 11
149.9486289546
 21
31.3226226299
  0
LINE
  5
283
100
AcDbEntity
  8
0
100
AcDbLine
 62
7
  6
CONTINUOUS
 10
152.0876915235
 20
31.4194136891
 11
151.9720664683
 21
31.3548863163
  0
LINE
  5
284
100
AcDbEntity
  8
0
100
AcDbLine
 62
7
  6
CONTINUOUS
 10
151.9720664683
 20
31.2258315706
 11
152.0876915235
 21
31.2903589434
  0
LINE
  5
285
100
AcDbEntity
  8
0
100
AcDbLine
 62
7
  6
CONTINUOUS
 10
150.9892539132
 20
30.5805577631
 11
151.1626914132
 21
30.6773488336
  0
LINE
  5
286
100
AcDbEntity
  8
0
100
AcDbLine
 62
7
  6
CONTINUOUS
 10
150.0064414821
 20
30.5160303817
 11
150.3533164408
 21
30.4837666925
  0
LINE
  5
287
100
AcDbEntity
  8
0
100
AcDbLine
 62
7
  6
CONTINUOUS
 10
154.1111290786
 20
30.5160303817
 11
154.3423788581
 21
30.4837666925
  0
LINE
  5
288
100
AcDbEntity
  8
0
100
AcDbLine
 62
7
  6
CONTINUOUS
 10
152.4923789683
 20
31.3871500027
 11
152.7236290786
 21
31.3548863163
  0
LINE
  5
289
100
AcDbEntity
  8
0
100
AcDbLine
 62
7
  6
CONTINUOUS
 10
154.8048790786
 20
31.3871500027
 11
155.0361291889
 21
31.3548863163
  0
LINE
  5
28A
100
AcDbEntity
  8
0
100
AcDbLine
 62
7
  6
CONTINUOUS
 10
159.2564414683
 20
31.0322494069
 11
160.2392541889
 21
30.8709309748
  0
LINE
  5
28B
100
AcDbEntity
  8
0
100
AcDbLine
 62
7
  6
CONTINUOUS
 10
160.4126916889
 20
30.967722034
 11
159.4298789683
 21
31.1290405113
  0
LINE
  5
28C
100
AcDbEntity
  8
0
100
AcDbLine
 62
7
  6
CONTINUOUS
 10
152.8970665786
 20
31.483941062
 11
152.7236290786
 21
31.5162047484
  0
LINE
  5
28D
100
AcDbEntity
  8
0
100
AcDbLine
 62
7
  6
CONTINUOUS
 10
159.1986291889
 20
30.548294071
 11
159.3720666889
 21
30.5160303817
  0
LINE
  5
28E
100
AcDbEntity
  8
0
100
AcDbLine
 62
7
  6
CONTINUOUS
 10
158.0423789683
 20
31.483941062
 11
157.8689414683
 21
31.5162047484
  0
LINE
  5
28F
100
AcDbEntity
  8
0
100
AcDbLine
 62
7
  6
CONTINUOUS
 10
160.2970664683
 20
31.3548863163
 11
160.4126916889
 21
31.3226226299
  0
LINE
  5
290
100
AcDbEntity
  8
0
100
AcDbLine
 62
7
  6
CONTINUOUS
 10
160.4705039683
 20
30.7418762065
 11
160.4126916889
 21
30.6773488336
  0
LINE
  5
291
100
AcDbEntity
  8
0
100
AcDbLine
 62
7
  6
CONTINUOUS
 10
159.0251916889
 20
31.4194136891
 11
158.9095664683
 21
31.3226226299
  0
LINE
  5
292
100
AcDbEntity
  8
0
100
AcDbLine
 62
7
  6
CONTINUOUS
 10
153.9376915786
 20
31.4516773756
 11
153.8220663581
 21
31.3871500027
  0
LINE
  5
293
100
AcDbEntity
  8
0
100
AcDbLine
 62
7
  6
CONTINUOUS
 10
153.9955038581
 20
31.0645131385
 11
153.8798789683
 21
30.9999857205
  0
LINE
  5
294
100
AcDbEntity
  8
0
100
AcDbLine
 62
7
  6
CONTINUOUS
 10
154.1111290786
 20
30.9031946612
 11
154.2267539683
 21
30.967722034
  0
LINE
  5
295
100
AcDbEntity
  8
0
100
AcDbLine
 62
7
  6
CONTINUOUS
 10
151.6830039132
 20
30.4837666925
 11
151.9720664683
 21
30.4837666925
  0
LINE
  5
296
100
AcDbEntity
  8
0
100
AcDbLine
 62
7
  6
CONTINUOUS
 10
153.0126914683
 20
30.4837666925
 11
153.3017538581
 21
30.4837666925
  0
LINE
  5
297
100
AcDbEntity
  8
0
100
AcDbLine
 62
7
  6
CONTINUOUS
 10
154.3423788581
 20
30.4837666925
 11
154.6892538581
 21
30.4837666925
  0
LINE
  5
298
100
AcDbEntity
  8
0
100
AcDbLine
 62
7
  6
CONTINUOUS
 10
155.3251912478
 20
30.4837666925
 11
155.6142539683
 21
30.4837666925
  0
LINE
  5
299
100
AcDbEntity
  8
0
100
AcDbLine
 62
7
  6
CONTINUOUS
 10
156.0767541889
 20
30.4837666925
 11
156.3658162478
 21
30.4837666925
  0
LINE
  5
29A
100
AcDbEntity
  8
0
100
AcDbLine
 62
7
  6
CONTINUOUS
 10
156.8283164683
 20
30.4837666925
 11
157.1173791889
 21
30.4837666925
  0
LINE
  5
29B
100
AcDbEntity
  8
0
100
AcDbLine
 62
7
  6
CONTINUOUS
 10
158.1580041889
 20
30.4837666925
 11
158.4470662478
 21
30.4837666925
  0
LINE
  5
29C
100
AcDbEntity
  8
0
100
AcDbLine
 62
7
  6
CONTINUOUS
 10
159.7189416889
 20
30.4837666925
 11
160.0658166889
 21
30.4837666925
  0
LINE
  5
29D
100
AcDbEntity
  8
0
100
AcDbLine
 62
7
  6
CONTINUOUS
 10
160.0658166889
 20
30.6128214495
 11
159.7189416889
 21
30.6128214495
  0
LINE
  5
29E
100
AcDbEntity
  8
0
100
AcDbLine
 62
7
  6
CONTINUOUS
 10
154.6892538581
 20
30.6128214495
 11
154.3423788581
 21
30.6128214495
  0
LINE
  5
29F
100
AcDbEntity
  8
0
100
AcDbLine
 62
7
  6
CONTINUOUS
 10
159.1986291889
 20
30.7418762065
 11
158.9095664683
 21
30.7418762065
  0
LINE
  5
2A0
100
AcDbEntity
  8
0
100
AcDbLine
 62
7
  6
CONTINUOUS
 10
151.2205040235
 20
30.8064036019
 11
150.9314414683
 21
30.8064036019
  0
LINE
  5
2A1
100
AcDbEntity
  8
0
100
AcDbLine
 62
7
  6
CONTINUOUS
 10
150.2955039959
 20
31.3871500027
 11
150.7001914408
 21
31.3548863163
  0
LINE
  5
2A2
100
AcDbEntity
  8
0
100
AcDbLine
 62
7
  6
CONTINUOUS
 10
150.7580039683
 20
31.483941062
 11
150.3533164408
 21
31.5162047484
  0
LINE
  5
2A3
100
AcDbEntity
  8
0
100
AcDbLine
 62
7
  6
CONTINUOUS
 10
159.3720666889
 20
30.5160303817
 11
159.7189416889
 21
30.4837666925
  0
LINE
  5
2A4
100
AcDbEntity
  8
0
100
AcDbLine
 62
7
  6
CONTINUOUS
 10
159.7189416889
 20
30.6128214495
 11
159.3720666889
 21
30.6450851472
  0
LINE
  5
2A5
100
AcDbEntity
  8
0
100
AcDbLine
 62
7
  6
CONTINUOUS
 10
155.1517537478
 20
31.483941062
 11
154.8048790786
 21
31.5162047484
  0
LINE
  5
2A6
100
AcDbEntity
  8
0
100
AcDbLine
 62
7
  6
CONTINUOUS
 10
159.9501914683
 20
31.3871500027
 11
160.2970664683
 21
31.3548863163
  0
LINE
  5
2A7
100
AcDbEntity
  8
0
100
AcDbLine
 62
7
  6
CONTINUOUS
 10
160.2970664683
 20
31.483941062
 11
159.9501914683
 21
31.5162047484
  0
LINE
  5
2A8
100
AcDbEntity
  8
0
100
AcDbLine
 62
7
  6
CONTINUOUS
 10
157.6376916889
 20
31.3871500027
 11
157.8689414683
 21
31.3548863163
  0
LINE
  5
2A9
100
AcDbEntity
  8
0
100
AcDbLine
 62
7
  6
CONTINUOUS
 10
160.4705039683
 20
31.4516773756
 11
160.2970664683
 21
31.483941062
  0
LINE
  5
2AA
100
AcDbEntity
  8
0
100
AcDbLine
 62
7
  6
CONTINUOUS
 10
160.6439414683
 20
30.5805577631
 11
160.7595660273
 21
30.6773488336
  0
LINE
  5
2AB
100
AcDbEntity
  8
0
100
AcDbLine
 62
7
  6
CONTINUOUS
 10
155.1517537478
 20
30.7741399155
 11
154.9783162478
 21
30.6773488336
  0
LINE
  5
2AC
100
AcDbEntity
  8
0
100
AcDbLine
 62
7
  6
CONTINUOUS
 10
157.2330037478
 20
31.4194136891
 11
157.1173791889
 21
31.3548863163
  0
LINE
  5
2AD
100
AcDbEntity
  8
0
100
AcDbLine
 62
7
  6
CONTINUOUS
 10
157.1173791889
 20
31.2258315706
 11
157.2330037478
 21
31.2903589434
  0
LINE
  5
2AE
100
AcDbEntity
  8
0
100
AcDbLine
 62
7
  6
CONTINUOUS
 10
149.8330039821
 20
31.4516773756
 11
149.6595664615
 21
31.3871500027
  0
LINE
  5
2AF
100
AcDbEntity
  8
0
100
AcDbLine
 62
7
  6
CONTINUOUS
 10
152.2611288581
 20
31.483941062
 11
152.0876915235
 21
31.4194136891
  0
LINE
  5
2B0
100
AcDbEntity
  8
0
100
AcDbLine
 62
7
  6
CONTINUOUS
 10
152.0876915235
 20
31.2903589434
 11
152.2611288581
 21
31.3548863163
  0
LINE
  5
2B1
100
AcDbEntity
  8
0
100
AcDbLine
 62
7
  6
CONTINUOUS
 10
150.8736290235
 20
30.7096125201
 11
150.7001914408
 21
30.6450851472
  0
LINE
  5
2B2
100
AcDbEntity
  8
0
100
AcDbLine
 62
7
  6
CONTINUOUS
 10
160.2970664683
 20
30.6450851472
 11
160.0658166889
 21
30.6128214495
  0
LINE
  5
2B3
100
AcDbEntity
  8
0
100
AcDbLine
 62
7
  6
CONTINUOUS
 10
154.6892538581
 20
30.4837666925
 11
154.9783162478
 21
30.5160303817
  0
LINE
  5
2B4
100
AcDbEntity
  8
0
100
AcDbLine
 62
7
  6
CONTINUOUS
 10
160.0658166889
 20
30.4837666925
 11
160.4126916889
 21
30.5160303817
  0
LINE
  5
2B5
100
AcDbEntity
  8
0
100
AcDbLine
 62
7
  6
CONTINUOUS
 10
150.3533164408
 20
30.4837666925
 11
150.7580039683
 21
30.5160303817
  0
LINE
  5
2B6
100
AcDbEntity
  8
0
100
AcDbLine
 62
7
  6
CONTINUOUS
 10
150.7001914408
 20
30.6450851472
 11
150.2955039959
 21
30.6128214495
  0
LINE
  5
2B7
100
AcDbEntity
  8
0
100
AcDbLine
 62
7
  6
CONTINUOUS
 10
154.5736289683
 20
31.0322494069
 11
155.2095666889
 21
31.0322494069
  0
LINE
  5
2B8
100
AcDbEntity
  8
0
100
AcDbLine
 62
7
  6
CONTINUOUS
 10
155.2095666889
 20
31.1613041978
 11
154.5736289683
 21
31.1613041978
  0
LINE
  5
2B9
100
AcDbEntity
  8
0
100
AcDbLine
 62
7
  6
CONTINUOUS
 10
150.9314414683
 20
31.1935678842
 11
151.2205040235
 21
31.1935678842
  0
LINE
  5
2BA
100
AcDbEntity
  8
0
100
AcDbLine
 62
7
  6
CONTINUOUS
 10
153.7642540786
 20
31.258095257
 11
154.0533164683
 21
31.258095257
  0
LINE
  5
2BB
100
AcDbEntity
  8
0
100
AcDbLine
 62
7
  6
CONTINUOUS
 10
160.4705039683
 20
31.258095257
 11
160.7595660273
 21
31.258095257
  0
LINE
  5
2BC
100
AcDbEntity
  8
0
100
AcDbLine
 62
7
  6
CONTINUOUS
 10
154.4580040786
 20
31.3871500027
 11
154.8048790786
 21
31.3871500027
  0
LINE
  5
2BD
100
AcDbEntity
  8
0
100
AcDbLine
 62
7
  6
CONTINUOUS
 10
159.6033164683
 20
31.3871500027
 11
159.9501914683
 21
31.3871500027
  0
LINE
  5
2BE
100
AcDbEntity
  8
0
100
AcDbLine
 62
7
  6
CONTINUOUS
 10
159.9501914683
 20
31.5162047484
 11
159.6033164683
 21
31.5162047484
  0
LINE
  5
2BF
100
AcDbEntity
  8
0
100
AcDbLine
 62
7
  6
CONTINUOUS
 10
157.8689414683
 20
31.5162047484
 11
157.6376916889
 21
31.5162047484
  0
LINE
  5
2C0
100
AcDbEntity
  8
0
100
AcDbLine
 62
7
  6
CONTINUOUS
 10
157.1173791889
 20
31.5162047484
 11
156.8283164683
 21
31.5162047484
  0
LINE
  5
2C1
100
AcDbEntity
  8
0
100
AcDbLine
 62
7
  6
CONTINUOUS
 10
156.3658162478
 20
31.5162047484
 11
156.0767541889
 21
31.5162047484
  0
LINE
  5
2C2
100
AcDbEntity
  8
0
100
AcDbLine
 62
7
  6
CONTINUOUS
 10
154.8048790786
 20
31.5162047484
 11
154.4580040786
 21
31.5162047484
  0
LINE
  5
2C3
100
AcDbEntity
  8
0
100
AcDbLine
 62
7
  6
CONTINUOUS
 10
152.7236290786
 20
31.5162047484
 11
152.4923789683
 21
31.5162047484
  0
LINE
  5
2C4
100
AcDbEntity
  8
0
100
AcDbLine
 62
7
  6
CONTINUOUS
 10
156.0767541889
 20
31.838841703
 11
156.3658162478
 21
31.838841703
  0
LINE
  5
2C5
100
AcDbEntity
  8
0
100
AcDbLine
 62
7
  6
CONTINUOUS
 10
156.3658162478
 20
32.0001601351
 11
156.0767541889
 21
32.0001601351
  0
LINE
  5
2C6
100
AcDbEntity
  8
0
100
AcDbLine
 62
7
  6
CONTINUOUS
 10
151.9720664683
 20
32.0001601351
 11
151.6830039132
 21
32.0001601351
  0
LINE
  5
2C7
100
AcDbEntity
  8
0
100
AcDbLine
 62
7
  6
CONTINUOUS
 10
151.0098482306
 20
32.287045381
 11
151.4224195792
 21
32.287045381
  0
LINE
  5
2C8
100
AcDbEntity
  8
0
100
AcDbLine
 62
7
  6
CONTINUOUS
 10
152.6491924929
 20
32.287045381
 11
154.0426351159
 21
32.287045381
  0
LINE
  5
2C9
100
AcDbEntity
  8
0
100
AcDbLine
 62
7
  6
CONTINUOUS
 10
154.3705039683
 20
32.287045381
 11
155.7639465913
 21
32.287045381
  0
LINE
  5
2CA
100
AcDbEntity
  8
0
100
AcDbLine
 62
7
  6
CONTINUOUS
 10
157.6491924929
 20
32.287045381
 11
159.0426351159
 21
32.287045381
  0
LINE
  5
2CB
100
AcDbEntity
  8
0
100
AcDbLine
 62
7
  6
CONTINUOUS
 10
159.3705039683
 20
32.287045381
 11
160.7639465913
 21
32.287045381
  0
LINE
  5
2CC
100
AcDbEntity
  8
0
100
AcDbLine
 62
7
  6
CONTINUOUS
 10
157.4064412478
 20
31.483941062
 11
157.2330037478
 21
31.4194136891
  0
LINE
  5
2CD
100
AcDbEntity
  8
0
100
AcDbLine
 62
7
  6
CONTINUOUS
 10
154.9783162478
 20
30.5160303817
 11
155.1517537478
 21
30.5805577631
  0
LINE
  5
2CE
100
AcDbEntity
  8
0
100
AcDbLine
 62
7
  6
CONTINUOUS
 10
160.4126916889
 20
30.5160303817
 11
160.6439414683
 21
30.5805577631
  0
LINE
  5
2CF
100
AcDbEntity
  8
0
100
AcDbLine
 62
7
  6
CONTINUOUS
 10
160.4126916889
 20
30.6773488336
 11
160.2970664683
 21
30.6450851472
  0
LINE
  5
2D0
100
AcDbEntity
  8
0
100
AcDbLine
 62
7
  6
CONTINUOUS
 10
159.3720666889
 20
31.3548863163
 11
159.6033164683
 21
31.3871500027
  0
LINE
  5
2D1
100
AcDbEntity
  8
0
100
AcDbLine
 62
7
  6
CONTINUOUS
 10
157.4064412478
 20
31.3548863163
 11
157.6376916889
 21
31.3871500027
  0
LINE
  5
2D2
100
AcDbEntity
  8
0
100
AcDbLine
 62
7
  6
CONTINUOUS
 10
154.3423788581
 20
30.9999857205
 11
154.5736289683
 21
31.0322494069
  0
LINE
  5
2D3
100
AcDbEntity
  8
0
100
AcDbLine
 62
7
  6
CONTINUOUS
 10
157.6376916889
 20
31.5162047484
 11
157.4064412478
 21
31.483941062
  0
LINE
  5
2D4
100
AcDbEntity
  8
0
100
AcDbLine
 62
7
  6
CONTINUOUS
 10
154.2267539683
 20
31.3548863163
 11
154.4580040786
 21
31.3871500027
  0
LINE
  5
2D5
100
AcDbEntity
  8
0
100
AcDbLine
 62
7
  6
CONTINUOUS
 10
159.6033164683
 20
31.5162047484
 11
159.2564414683
 21
31.483941062
  0
LINE
  5
2D6
100
AcDbEntity
  8
0
100
AcDbLine
 62
7
  6
CONTINUOUS
 10
154.5736289683
 20
31.1613041978
 11
154.2267539683
 21
31.1290405113
  0
LINE
  5
2D7
100
AcDbEntity
  8
0
100
AcDbLine
 62
7
  6
CONTINUOUS
 10
150.3533164408
 20
31.5162047484
 11
150.0064414821
 21
31.483941062
  0
LINE
  5
2D8
100
AcDbEntity
  8
0
100
AcDbLine
 62
7
  6
CONTINUOUS
 10
154.4580040786
 20
31.5162047484
 11
154.0533164683
 21
31.483941062
  0
LINE
  5
2D9
100
AcDbEntity
  8
0
100
AcDbLine
 62
7
  6
CONTINUOUS
 10
151.8295203618
 20
33.4345863646
 11
151.1737826569
 21
33.4345863646
  0
LINE
  5
2DA
100
AcDbEntity
  8
0
100
AcDbLine
 62
7
  6
CONTINUOUS
 10
157.2330037478
 20
31.2903589434
 11
157.4064412478
 21
31.3548863163
  0
LINE
  5
2DB
100
AcDbEntity
  8
0
100
AcDbLine
 62
7
  6
CONTINUOUS
 10
159.2564414683
 20
31.3226226299
 11
159.3720666889
 21
31.3548863163
  0
LINE
  5
2DC
100
AcDbEntity
  8
0
100
AcDbLine
 62
7
  6
CONTINUOUS
 10
159.2564414683
 20
31.483941062
 11
159.0251916889
 21
31.4194136891
  0
LINE
  5
2DD
100
AcDbEntity
  8
0
100
AcDbLine
 62
7
  6
CONTINUOUS
 10
154.9783162478
 20
30.6773488336
 11
154.6892538581
 21
30.6128214495
  0
LINE
  5
2DE
100
AcDbEntity
  8
0
100
AcDbLine
 62
7
  6
CONTINUOUS
 10
152.2611288581
 20
31.3548863163
 11
152.4923789683
 21
31.3871500027
  0
LINE
  5
2DF
100
AcDbEntity
  8
0
100
AcDbLine
 62
7
  6
CONTINUOUS
 10
152.4923789683
 20
31.5162047484
 11
152.2611288581
 21
31.483941062
  0
LINE
  5
2E0
100
AcDbEntity
  8
0
100
AcDbLine
 62
7
  6
CONTINUOUS
 10
150.0642539683
 20
31.3548863163
 11
150.2955039959
 21
31.3871500027
  0
LINE
  5
2E1
100
AcDbEntity
  8
0
100
AcDbLine
 62
7
  6
CONTINUOUS
 10
156.5836187224
 20
34.9099962007
 11
157.2393564274
 21
34.9099962007
  0
LINE
  5
2E2
100
AcDbEntity
  8
0
100
AcDbLine
 62
7
  6
CONTINUOUS
 10
154.2267539683
 20
30.967722034
 11
154.3423788581
 21
30.9999857205
  0
LINE
  5
2E3
100
AcDbEntity
  8
0
100
AcDbLine
 62
7
  6
CONTINUOUS
 10
154.2267539683
 20
31.1290405113
 11
153.9955038581
 21
31.0645131385
  0
LINE
  5
2E4
100
AcDbEntity
  8
0
100
AcDbLine
 62
7
  6
CONTINUOUS
 10
154.1111290786
 20
31.3226226299
 11
154.2267539683
 21
31.3548863163
  0
LINE
  5
2E5
100
AcDbEntity
  8
0
100
AcDbLine
 62
7
  6
CONTINUOUS
 10
150.7580039683
 20
30.5160303817
 11
150.9892539132
 21
30.5805577631
  0
LINE
  5
2E6
100
AcDbEntity
  8
0
100
AcDbLine
 62
7
  6
CONTINUOUS
 10
154.0533164683
 20
31.483941062
 11
153.9376915786
 21
31.4516773756
  0
LINE
  5
2E7
100
AcDbEntity
  8
0
100
AcDbLine
 62
7
  6
CONTINUOUS
 10
150.0064414821
 20
31.483941062
 11
149.8330039821
 21
31.4516773756
  0
LINE
  5
2E8
100
AcDbEntity
  8
0
100
AcDbLine
 62
7
  6
CONTINUOUS
 10
160.7639465913
 20
36.0575371843
 11
159.3705039683
 21
36.0575371843
  0
LINE
  5
2E9
100
AcDbEntity
  8
0
100
AcDbLine
 62
7
  6
CONTINUOUS
 10
157.4032908536
 20
36.0575371843
 11
156.990719505
 21
36.0575371843
  0
LINE
  5
2EA
100
AcDbEntity
  8
0
100
AcDbLine
 62
7
  6
CONTINUOUS
 10
155.7639465913
 20
36.0575371843
 11
154.3705039683
 21
36.0575371843
  0
LINE
  5
2EB
100
AcDbEntity
  8
0
100
AcDbLine
 62
7
  6
CONTINUOUS
 10
154.0426351159
 20
36.0575371843
 11
152.6491924929
 21
36.0575371843
  0
LINE
  5
2EC
100
AcDbEntity
  8
0
100
AcDbLine
 62
7
  6
CONTINUOUS
 10
150.7639465913
 20
36.0575371843
 11
149.3705039683
 21
36.0575371843
  0
LINE
  5
2ED
100
AcDbEntity
  8
0
100
AcDbLine
 62
7
  6
CONTINUOUS
 10
149.9486289546
 20
31.3226226299
 11
150.0642539683
 21
31.3548863163
  0
CIRCLE
  5
2EE
100
AcDbEntity
  8
0
100
AcDbCircle
 62
7
  6
CONTINUOUS
 10
160.0672252798
 20
38.3936027581
 40
2.0901639344
  0
ARC
  5
2EF
100
AcDbEntity
  8
0
100
AcDbCircle
 62
7
  6
CONTINUOUS
 10
151.0098482306
 20
33.9263896433
 40
1.6393442623
100
AcDbArc
 50
180.0
 51
270.0
  0
ARC
  5
2F0
100
AcDbEntity
  8
0
100
AcDbCircle
 62
7
  6
CONTINUOUS
 10
157.4032908536
 20
34.418192922
 40
1.6393442623
100
AcDbArc
 50
0.0
 51
90.0
  0
ARC
  5
2F1
100
AcDbEntity
  8
0
100
AcDbCircle
 62
7
  6
CONTINUOUS
 10
151.4224195792
 20
33.7624552171
 40
1.4754098361
100
AcDbArc
 50
270.0
 51
326.2510114041
  0
ARC
  5
2F2
100
AcDbEntity
  8
0
100
AcDbCircle
 62
7
  6
CONTINUOUS
 10
156.990719505
 20
34.5821273482
 40
1.4754098361
100
AcDbArc
 50
90.0
 51
146.2510114041
  0
ARC
  5
2F3
100
AcDbEntity
  8
0
100
AcDbCircle
 62
7
  6
CONTINUOUS
 10
151.8295203618
 20
34.2542584958
 40
0.8196721311
100
AcDbArc
 50
270.0
 51
360.0
  0
ARC
  5
2F4
100
AcDbEntity
  8
0
100
AcDbCircle
 62
7
  6
CONTINUOUS
 10
156.5836187224
 20
34.0903240696
 40
0.8196721311
100
AcDbArc
 50
90.0
 51
180.0
  0
ARC
  5
2F5
100
AcDbEntity
  8
0
100
AcDbCircle
 62
7
  6
CONTINUOUS
 10
151.1737826569
 20
33.8444224302
 40
0.4098360656
100
AcDbArc
 50
180.0
 51
270.0
  0
ARC
  5
2F6
100
AcDbEntity
  8
0
100
AcDbCircle
 62
7
  6
CONTINUOUS
 10
157.2393564274
 20
34.5001601351
 40
0.4098360656
100
AcDbArc
 50
0.0
 51
90.0
  0
SOLID
  5
2F7
100
AcDbEntity
  8
0
100
AcDbTrace
 62
7
  6
CONTINUOUS
 10
156.0767541889
 20
31.8388420633
 11
156.0767541889
 21
32.0001605469
 12
156.3658162478
 22
31.8388420633
 13
156.3658162478
 23
32.0001605469
  0
LWPOLYLINE
  5
2F8
100
AcDbEntity
  8
0
100
AcDbPolyline
 62
7
  6
CONTINUOUS
 90
13
 70
0
 10
150.3533164408
 20
31.5162050961
 10
150.7580039683
 20
31.4839407928
 10
150.9892539132
 20
31.4194137026
 10
151.1626914132
 20
31.3226223092
 10
151.2205040235
 20
31.1935681288
 10
150.9314414683
 20
31.1935681288
 10
150.8736290235
 20
31.2903595223
 10
150.7001914408
 20
31.3548866125
 10
150.2955039959
 20
31.3871493993
 10
149.6595664615
 20
31.3871493993
 10
149.8330039821
 20
31.4516780059
 10
150.0064414821
 20
31.4839407928
 10
150.3533164408
 20
31.5162050961
  0
HATCH
  5
2F9
100
AcDbEntity
  8
0
100
AcDbHatch
 62
7
  6
CONTINUOUS
 10
0.0
 20
0.0
 30
0.0
210
0.0
220
0.0
230
1.0
  2
SOLID
 70
1
 71
1
 91
1
 92
1
 93
12
 72
1
 10
150.3533164408
 20
31.5162050961
 11
150.7580039683
 21
31.4839407928
 72
1
 10
150.7580039683
 20
31.4839407928
 11
150.9892539132
 21
31.4194137026
 72
1
 10
150.9892539132
 20
31.4194137026
 11
151.1626914132
 21
31.3226223092
 72
1
 10
151.1626914132
 20
31.3226223092
 11
151.2205040235
 21
31.1935681288
 72
1
 10
151.2205040235
 20
31.1935681288
 11
150.9314414683
 21
31.1935681288
 72
1
 10
150.9314414683
 20
31.1935681288
 11
150.8736290235
 21
31.2903595223
 72
1
 10
150.8736290235
 20
31.2903595223
 11
150.7001914408
 21
31.3548866125
 72
1
 10
150.7001914408
 20
31.3548866125
 11
150.2955039959
 21
31.3871493993
 72
1
 10
150.2955039959
 20
31.3871493993
 11
149.6595664615
 21
31.3871493993
 72
1
 10
149.6595664615
 20
31.3871493993
 11
149.8330039821
 21
31.4516780059
 72
1
 10
149.8330039821
 20
31.4516780059
 11
150.0064414821
 21
31.4839407928
 72
1
 10
150.0064414821
 20
31.4839407928
 11
150.3533164408
 21
31.5162050961
 97
1
330
2F8
 75
0
 76
1
 98
1
 10
0.0
 20
0.0
  0
LWPOLYLINE
  5
2FA
100
AcDbEntity
  8
0
100
AcDbPolyline
 62
7
  6
CONTINUOUS
 90
25
 70
0
 10
152.2611288581
 20
31.4839407928
 10
152.4923789683
 20
31.5162050961
 10
152.7236290786
 20
31.5162050961
 10
152.8970665786
 20
31.4839407928
 10
153.0705040786
 20
31.4194137026
 10
153.1861289683
 20
31.3548866125
 10
153.2439415786
 20
31.2903595223
 10
153.3017538581
 20
31.1290410387
 10
153.3017538581
 20
30.4837671043
 10
153.0126914683
 20
30.4837671043
 10
153.0126914683
 20
31.1290410387
 10
152.9548788581
 20
31.258095219
 10
152.8392539683
 20
31.3226223092
 10
152.7236290786
 20
31.3548866125
 10
152.4923789683
 20
31.3871493993
 10
152.2611288581
 20
31.3548866125
 10
152.0876915235
 20
31.2903595223
 10
151.9720664683
 20
31.2258309157
 10
151.9720664683
 20
30.4837671043
 10
151.6830039132
 20
30.4837671043
 10
151.6830039132
 20
32.0001605469
 10
151.9720664683
 20
32.0001605469
 10
151.9720664683
 20
31.3548866125
 10
152.0876915235
 20
31.4194137026
 10
152.2611288581
 20
31.4839407928
  0
HATCH
  5
2FB
100
AcDbEntity
  8
0
100
AcDbHatch
 62
7
  6
CONTINUOUS
 10
0.0
 20
0.0
 30
0.0
210
0.0
220
0.0
230
1.0
  2
SOLID
 70
1
 71
1
 91
1
 92
1
 93
24
 72
1
 10
152.2611288581
 20
31.4839407928
 11
152.4923789683
 21
31.5162050961
 72
1
 10
152.4923789683
 20
31.5162050961
 11
152.7236290786
 21
31.5162050961
 72
1
 10
152.7236290786
 20
31.5162050961
 11
152.8970665786
 21
31.4839407928
 72
1
 10
152.8970665786
 20
31.4839407928
 11
153.0705040786
 21
31.4194137026
 72
1
 10
153.0705040786
 20
31.4194137026
 11
153.1861289683
 21
31.3548866125
 72
1
 10
153.1861289683
 20
31.3548866125
 11
153.2439415786
 21
31.2903595223
 72
1
 10
153.2439415786
 20
31.2903595223
 11
153.3017538581
 21
31.1290410387
 72
1
 10
153.3017538581
 20
31.1290410387
 11
153.3017538581
 21
30.4837671043
 72
1
 10
153.3017538581
 20
30.4837671043
 11
153.0126914683
 21
30.4837671043
 72
1
 10
153.0126914683
 20
30.4837671043
 11
153.0126914683
 21
31.1290410387
 72
1
 10
153.0126914683
 20
31.1290410387
 11
152.9548788581
 21
31.258095219
 72
1
 10
152.9548788581
 20
31.258095219
 11
152.8392539683
 21
31.3226223092
 72
1
 10
152.8392539683
 20
31.3226223092
 11
152.7236290786
 21
31.3548866125
 72
1
 10
152.7236290786
 20
31.3548866125
 11
152.4923789683
 21
31.3871493993
 72
1
 10
152.4923789683
 20
31.3871493993
 11
152.2611288581
 21
31.3548866125
 72
1
 10
152.2611288581
 20
31.3548866125
 11
152.0876915235
 21
31.2903595223
 72
1
 10
152.0876915235
 20
31.2903595223
 11
151.9720664683
 21
31.2258309157
 72
1
 10
151.9720664683
 20
31.2258309157
 11
151.9720664683
 21
30.4837671043
 72
1
 10
151.9720664683
 20
30.4837671043
 11
151.6830039132
 21
30.4837671043
 72
1
 10
151.6830039132
 20
30.4837671043
 11
151.6830039132
 21
32.0001605469
 72
1
 10
151.6830039132
 20
32.0001605469
 11
151.9720664683
 21
32.0001605469
 72
1
 10
151.9720664683
 20
32.0001605469
 11
151.9720664683
 21
31.3548866125
 72
1
 10
151.9720664683
 20
31.3548866125
 11
152.0876915235
 21
31.4194137026
 72
1
 10
152.0876915235
 20
31.4194137026
 11
152.2611288581
 21
31.4839407928
 97
1
330
2FA
 75
0
 76
1
 98
1
 10
0.0
 20
0.0
  0
LWPOLYLINE
  5
2FC
100
AcDbEntity
  8
0
100
AcDbPolyline
 62
7
  6
CONTINUOUS
 90
20
 70
0
 10
154.0533164683
 20
31.4839407928
 10
154.4580040786
 20
31.5162050961
 10
154.8048790786
 20
31.5162050961
 10
155.1517537478
 20
31.4839407928
 10
155.3251912478
 20
31.4194137026
 10
155.4408164683
 20
31.3548866125
 10
155.4986287478
 20
31.258095219
 10
155.4986287478
 20
30.7418754649
 10
155.2095666889
 20
30.8386672883
 10
155.2095666889
 20
31.0322496452
 10
155.2095666889
 20
31.1613038256
 10
155.2095666889
 20
31.258095219
 10
155.1517537478
 20
31.3226223092
 10
155.0361291889
 20
31.3548866125
 10
154.8048790786
 20
31.3871493993
 10
154.4580040786
 20
31.3871493993
 10
153.7642540786
 20
31.3226223092
 10
153.8220663581
 20
31.3871493993
 10
153.9376915786
 20
31.4516780059
 10
154.0533164683
 20
31.4839407928
  0
HATCH
  5
2FD
100
AcDbEntity
  8
0
100
AcDbHatch
 62
7
  6
CONTINUOUS
 10
0.0
 20
0.0
 30
0.0
210
0.0
220
0.0
230
1.0
  2
SOLID
 70
1
 71
1
 91
1
 92
1
 93
19
 72
1
 10
154.0533164683
 20
31.4839407928
 11
154.4580040786
 21
31.5162050961
 72
1
 10
154.4580040786
 20
31.5162050961
 11
154.8048790786
 21
31.5162050961
 72
1
 10
154.8048790786
 20
31.5162050961
 11
155.1517537478
 21
31.4839407928
 72
1
 10
155.1517537478
 20
31.4839407928
 11
155.3251912478
 21
31.4194137026
 72
1
 10
155.3251912478
 20
31.4194137026
 11
155.4408164683
 21
31.3548866125
 72
1
 10
155.4408164683
 20
31.3548866125
 11
155.4986287478
 21
31.258095219
 72
1
 10
155.4986287478
 20
31.258095219
 11
155.4986287478
 21
30.7418754649
 72
1
 10
155.4986287478
 20
30.7418754649
 11
155.2095666889
 21
30.8386672883
 72
1
 10
155.2095666889
 20
30.8386672883
 11
155.2095666889
 21
31.0322496452
 72
1
 10
155.2095666889
 20
31.0322496452
 11
155.2095666889
 21
31.1613038256
 72
1
 10
155.2095666889
 20
31.1613038256
 11
155.2095666889
 21
31.258095219
 72
1
 10
155.2095666889
 20
31.258095219
 11
155.1517537478
 21
31.3226223092
 72
1
 10
155.1517537478
 20
31.3226223092
 11
155.0361291889
 21
31.3548866125
 72
1
 10
155.0361291889
 20
31.3548866125
 11
154.8048790786
 21
31.3871493993
 72
1
 10
154.8048790786
 20
31.3871493993
 11
154.4580040786
 21
31.3871493993
 72
1
 10
154.4580040786
 20
31.3871493993
 11
153.7642540786
 21
31.3226223092
 72
1
 10
153.7642540786
 20
31.3226223092
 11
153.8220663581
 21
31.3871493993
 72
1
 10
153.8220663581
 20
31.3871493993
 11
153.9376915786
 21
31.4516780059
 72
1
 10
153.9376915786
 20
31.4516780059
 11
154.0533164683
 21
31.4839407928
 97
1
330
2FC
 75
0
 76
1
 98
1
 10
0.0
 20
0.0
  0
LWPOLYLINE
  5
2FE
100
AcDbEntity
  8
0
100
AcDbPolyline
 62
7
  6
CONTINUOUS
 90
25
 70
0
 10
157.4064412478
 20
31.4839407928
 10
157.6376916889
 20
31.5162050961
 10
157.8689414683
 20
31.5162050961
 10
158.0423789683
 20
31.4839407928
 10
158.2158164683
 20
31.4194137026
 10
158.3314416889
 20
31.3548866125
 10
158.3892539683
 20
31.258095219
 10
158.4470662478
 20
31.0967767354
 10
158.4470662478
 20
30.4837671043
 10
158.1580041889
 20
30.4837671043
 10
158.1580041889
 20
31.0967767354
 10
158.1001912478
 20
31.258095219
 10
157.9845666889
 20
31.3226223092
 10
157.8689414683
 20
31.3548866125
 10
157.6376916889
 20
31.3871493993
 10
157.4064412478
 20
31.3548866125
 10
157.2330037478
 20
31.2903595223
 10
157.1173791889
 20
31.2258309157
 10
157.1173791889
 20
30.4837671043
 10
156.8283164683
 20
30.4837671043
 10
156.8283164683
 20
31.5162050961
 10
157.1173791889
 20
31.5162050961
 10
157.1173791889
 20
31.3548866125
 10
157.2330037478
 20
31.4194137026
 10
157.4064412478
 20
31.4839407928
  0
HATCH
  5
2FF
100
AcDbEntity
  8
0
100
AcDbHatch
 62
7
  6
CONTINUOUS
 10
0.0
 20
0.0
 30
0.0
210
0.0
220
0.0
230
1.0
  2
SOLID
 70
1
 71
1
 91
1
 92
1
 93
24
 72
1
 10
157.4064412478
 20
31.4839407928
 11
157.6376916889
 21
31.5162050961
 72
1
 10
157.6376916889
 20
31.5162050961
 11
157.8689414683
 21
31.5162050961
 72
1
 10
157.8689414683
 20
31.5162050961
 11
158.0423789683
 21
31.4839407928
 72
1
 10
158.0423789683
 20
31.4839407928
 11
158.2158164683
 21
31.4194137026
 72
1
 10
158.2158164683
 20
31.4194137026
 11
158.3314416889
 21
31.3548866125
 72
1
 10
158.3314416889
 20
31.3548866125
 11
158.3892539683
 21
31.258095219
 72
1
 10
158.3892539683
 20
31.258095219
 11
158.4470662478
 21
31.0967767354
 72
1
 10
158.4470662478
 20
31.0967767354
 11
158.4470662478
 21
30.4837671043
 72
1
 10
158.4470662478
 20
30.4837671043
 11
158.1580041889
 21
30.4837671043
 72
1
 10
158.1580041889
 20
30.4837671043
 11
158.1580041889
 21
31.0967767354
 72
1
 10
158.1580041889
 20
31.0967767354
 11
158.1001912478
 21
31.258095219
 72
1
 10
158.1001912478
 20
31.258095219
 11
157.9845666889
 21
31.3226223092
 72
1
 10
157.9845666889
 20
31.3226223092
 11
157.8689414683
 21
31.3548866125
 72
1
 10
157.8689414683
 20
31.3548866125
 11
157.6376916889
 21
31.3871493993
 72
1
 10
157.6376916889
 20
31.3871493993
 11
157.4064412478
 21
31.3548866125
 72
1
 10
157.4064412478
 20
31.3548866125
 11
157.2330037478
 21
31.2903595223
 72
1
 10
157.2330037478
 20
31.2903595223
 11
157.1173791889
 21
31.2258309157
 72
1
 10
157.1173791889
 20
31.2258309157
 11
157.1173791889
 21
30.4837671043
 72
1
 10
157.1173791889
 20
30.4837671043
 11
156.8283164683
 21
30.4837671043
 72
1
 10
156.8283164683
 20
30.4837671043
 11
156.8283164683
 21
31.5162050961
 72
1
 10
156.8283164683
 20
31.5162050961
 11
157.1173791889
 21
31.5162050961
 72
1
 10
157.1173791889
 20
31.5162050961
 11
157.1173791889
 21
31.3548866125
 72
1
 10
157.1173791889
 20
31.3548866125
 11
157.2330037478
 21
31.4194137026
 72
1
 10
157.2330037478
 20
31.4194137026
 11
157.4064412478
 21
31.4839407928
 97
1
330
2FE
 75
0
 76
1
 98
1
 10
0.0
 20
0.0
  0
LWPOLYLINE
  5
300
100
AcDbEntity
  8
0
100
AcDbPolyline
 62
7
  6
CONTINUOUS
 90
6
 70
0
 10
159.2564414683
 20
31.4839407928
 10
159.6033164683
 20
31.5162050961
 10
159.9501914683
 20
31.5162050961
 10
160.2970664683
 20
31.4839407928
 10
159.0251916889
 20
31.4194137026
 10
159.2564414683
 20
31.4839407928
  0
HATCH
  5
301
100
AcDbEntity
  8
0
100
AcDbHatch
 62
7
  6
CONTINUOUS
 10
0.0
 20
0.0
 30
0.0
210
0.0
220
0.0
230
1.0
  2
SOLID
 70
1
 71
1
 91
1
 92
1
 93
5
 72
1
 10
159.2564414683
 20
31.4839407928
 11
159.6033164683
 21
31.5162050961
 72
1
 10
159.6033164683
 20
31.5162050961
 11
159.9501914683
 21
31.5162050961
 72
1
 10
159.9501914683
 20
31.5162050961
 11
160.2970664683
 21
31.4839407928
 72
1
 10
160.2970664683
 20
31.4839407928
 11
159.0251916889
 21
31.4194137026
 72
1
 10
159.0251916889
 20
31.4194137026
 11
159.2564414683
 21
31.4839407928
 97
1
330
300
 75
0
 76
1
 98
1
 10
0.0
 20
0.0
  0
LWPOLYLINE
  5
302
100
AcDbEntity
  8
0
100
AcDbPolyline
 62
7
  6
CONTINUOUS
 90
12
 70
0
 10
160.4705039683
 20
31.4516780059
 10
160.6439414683
 20
31.3871493993
 10
160.7595660273
 20
31.258095219
 10
160.4705039683
 20
31.258095219
 10
160.4126916889
 20
31.3226223092
 10
160.2970664683
 20
31.3548866125
 10
159.9501914683
 20
31.3871493993
 10
159.6033164683
 20
31.3871493993
 10
158.9095664683
 20
31.3226223092
 10
159.0251916889
 20
31.4194137026
 10
160.2970664683
 20
31.4839407928
 10
160.4705039683
 20
31.4516780059
  0
HATCH
  5
303
100
AcDbEntity
  8
0
100
AcDbHatch
 62
7
  6
CONTINUOUS
 10
0.0
 20
0.0
 30
0.0
210
0.0
220
0.0
230
1.0
  2
SOLID
 70
1
 71
1
 91
1
 92
1
 93
11
 72
1
 10
160.4705039683
 20
31.4516780059
 11
160.6439414683
 21
31.3871493993
 72
1
 10
160.6439414683
 20
31.3871493993
 11
160.7595660273
 21
31.258095219
 72
1
 10
160.7595660273
 20
31.258095219
 11
160.4705039683
 21
31.258095219
 72
1
 10
160.4705039683
 20
31.258095219
 11
160.4126916889
 21
31.3226223092
 72
1
 10
160.4126916889
 20
31.3226223092
 11
160.2970664683
 21
31.3548866125
 72
1
 10
160.2970664683
 20
31.3548866125
 11
159.9501914683
 21
31.3871493993
 72
1
 10
159.9501914683
 20
31.3871493993
 11
159.6033164683
 21
31.3871493993
 72
1
 10
159.6033164683
 20
31.3871493993
 11
158.9095664683
 21
31.3226223092
 72
1
 10
158.9095664683
 20
31.3226223092
 11
159.0251916889
 21
31.4194137026
 72
1
 10
159.0251916889
 20
31.4194137026
 11
160.2970664683
 21
31.4839407928
 72
1
 10
160.2970664683
 20
31.4839407928
 11
160.4705039683
 21
31.4516780059
 97
1
330
302
 75
0
 76
1
 98
1
 10
0.0
 20
0.0
  0
LWPOLYLINE
  5
304
100
AcDbEntity
  8
0
100
AcDbPolyline
 62
7
  6
CONTINUOUS
 90
7
 70
0
 10
150.0642539683
 20
31.3548866125
 10
149.9486289546
 20
31.3226223092
 10
149.4283164701
 20
31.1935681288
 10
149.5439414683
 20
31.3226223092
 10
149.6595664615
 20
31.3871493993
 10
150.2955039959
 20
31.3871493993
 10
150.0642539683
 20
31.3548866125
  0
HATCH
  5
305
100
AcDbEntity
  8
0
100
AcDbHatch
 62
7
  6
CONTINUOUS
 10
0.0
 20
0.0
 30
0.0
210
0.0
220
0.0
230
1.0
  2
SOLID
 70
1
 71
1
 91
1
 92
1
 93
6
 72
1
 10
150.0642539683
 20
31.3548866125
 11
149.9486289546
 21
31.3226223092
 72
1
 10
149.9486289546
 20
31.3226223092
 11
149.4283164701
 21
31.1935681288
 72
1
 10
149.4283164701
 20
31.1935681288
 11
149.5439414683
 21
31.3226223092
 72
1
 10
149.5439414683
 20
31.3226223092
 11
149.6595664615
 21
31.3871493993
 72
1
 10
149.6595664615
 20
31.3871493993
 11
150.2955039959
 21
31.3871493993
 72
1
 10
150.2955039959
 20
31.3871493993
 11
150.0642539683
 21
31.3548866125
 97
1
330
304
 75
0
 76
1
 98
1
 10
0.0
 20
0.0
  0
LWPOLYLINE
  5
306
100
AcDbEntity
  8
0
100
AcDbPolyline
 62
7
  6
CONTINUOUS
 90
7
 70
0
 10
154.2267539683
 20
31.3548866125
 10
154.1111290786
 20
31.3226223092
 10
154.0533164683
 20
31.258095219
 10
153.7642540786
 20
31.258095219
 10
153.7642540786
 20
31.3226223092
 10
154.4580040786
 20
31.3871493993
 10
154.2267539683
 20
31.3548866125
  0
HATCH
  5
307
100
AcDbEntity
  8
0
100
AcDbHatch
 62
7
  6
CONTINUOUS
 10
0.0
 20
0.0
 30
0.0
210
0.0
220
0.0
230
1.0
  2
SOLID
 70
1
 71
1
 91
1
 92
1
 93
6
 72
1
 10
154.2267539683
 20
31.3548866125
 11
154.1111290786
 21
31.3226223092
 72
1
 10
154.1111290786
 20
31.3226223092
 11
154.0533164683
 21
31.258095219
 72
1
 10
154.0533164683
 20
31.258095219
 11
153.7642540786
 21
31.258095219
 72
1
 10
153.7642540786
 20
31.258095219
 11
153.7642540786
 21
31.3226223092
 72
1
 10
153.7642540786
 20
31.3226223092
 11
154.4580040786
 21
31.3871493993
 72
1
 10
154.4580040786
 20
31.3871493993
 11
154.2267539683
 21
31.3548866125
 97
1
330
306
 75
0
 76
1
 98
1
 10
0.0
 20
0.0
  0
LWPOLYLINE
  5
308
100
AcDbEntity
  8
0
100
AcDbPolyline
 62
7
  6
CONTINUOUS
 90
8
 70
0
 10
159.3720666889
 20
31.3548866125
 10
159.2564414683
 20
31.3226223092
 10
159.1986291889
 20
31.258095219
 10
159.0251916889
 20
31.1290410387
 10
158.9095664683
 20
31.258095219
 10
158.9095664683
 20
31.3226223092
 10
159.6033164683
 20
31.3871493993
 10
159.3720666889
 20
31.3548866125
  0
HATCH
  5
309
100
AcDbEntity
  8
0
100
AcDbHatch
 62
7
  6
CONTINUOUS
 10
0.0
 20
0.0
 30
0.0
210
0.0
220
0.0
230
1.0
  2
SOLID
 70
1
 71
1
 91
1
 92
1
 93
7
 72
1
 10
159.3720666889
 20
31.3548866125
 11
159.2564414683
 21
31.3226223092
 72
1
 10
159.2564414683
 20
31.3226223092
 11
159.1986291889
 21
31.258095219
 72
1
 10
159.1986291889
 20
31.258095219
 11
159.0251916889
 21
31.1290410387
 72
1
 10
159.0251916889
 20
31.1290410387
 11
158.9095664683
 21
31.258095219
 72
1
 10
158.9095664683
 20
31.258095219
 11
158.9095664683
 21
31.3226223092
 72
1
 10
158.9095664683
 20
31.3226223092
 11
159.6033164683
 21
31.3871493993
 72
1
 10
159.6033164683
 20
31.3871493993
 11
159.3720666889
 21
31.3548866125
 97
1
330
308
 75
0
 76
1
 98
1
 10
0.0
 20
0.0
  0
LWPOLYLINE
  5
30A
100
AcDbEntity
  8
0
100
AcDbPolyline
 62
7
  6
CONTINUOUS
 90
6
 70
0
 10
149.7751914546
 20
31.2258309157
 10
149.7173789683
 20
31.1613038256
 10
149.3705039683
 20
30.999985342
 10
149.4283164701
 20
31.1935681288
 10
149.9486289546
 20
31.3226223092
 10
149.7751914546
 20
31.2258309157
  0
HATCH
  5
30B
100
AcDbEntity
  8
0
100
AcDbHatch
 62
7
  6
CONTINUOUS
 10
0.0
 20
0.0
 30
0.0
210
0.0
220
0.0
230
1.0
  2
SOLID
 70
1
 71
1
 91
1
 92
1
 93
5
 72
1
 10
149.7751914546
 20
31.2258309157
 11
149.7173789683
 21
31.1613038256
 72
1
 10
149.7173789683
 20
31.1613038256
 11
149.3705039683
 21
30.999985342
 72
1
 10
149.3705039683
 20
30.999985342
 11
149.4283164701
 21
31.1935681288
 72
1
 10
149.4283164701
 20
31.1935681288
 11
149.9486289546
 21
31.3226223092
 72
1
 10
149.9486289546
 20
31.3226223092
 11
149.7751914546
 21
31.2258309157
 97
1
330
30A
 75
0
 76
1
 98
1
 10
0.0
 20
0.0
  0
LWPOLYLINE
  5
30C
100
AcDbEntity
  8
0
100
AcDbPolyline
 62
7
  6
CONTINUOUS
 90
7
 70
0
 10
154.2267539683
 20
31.1290410387
 10
154.5736289683
 20
31.1613038256
 10
155.2095666889
 20
31.1613038256
 10
155.2095666889
 20
31.0322496452
 10
154.5736289683
 20
31.0322496452
 10
153.9955038581
 20
31.0645131385
 10
154.2267539683
 20
31.1290410387
  0
HATCH
  5
30D
100
AcDbEntity
  8
0
100
AcDbHatch
 62
7
  6
CONTINUOUS
 10
0.0
 20
0.0
 30
0.0
210
0.0
220
0.0
230
1.0
  2
SOLID
 70
1
 71
1
 91
1
 92
1
 93
6
 72
1
 10
154.2267539683
 20
31.1290410387
 11
154.5736289683
 21
31.1613038256
 72
1
 10
154.5736289683
 20
31.1613038256
 11
155.2095666889
 21
31.1613038256
 72
1
 10
155.2095666889
 20
31.1613038256
 11
155.2095666889
 21
31.0322496452
 72
1
 10
155.2095666889
 20
31.0322496452
 11
154.5736289683
 21
31.0322496452
 72
1
 10
154.5736289683
 20
31.0322496452
 11
153.9955038581
 21
31.0645131385
 72
1
 10
153.9955038581
 20
31.0645131385
 11
154.2267539683
 21
31.1290410387
 97
1
330
30C
 75
0
 76
1
 98
1
 10
0.0
 20
0.0
  0
LWPOLYLINE
  5
30E
100
AcDbEntity
  8
0
100
AcDbPolyline
 62
7
  6
CONTINUOUS
 90
24
 70
0
 10
159.2564414683
 20
31.1935681288
 10
159.4298789683
 20
31.1290410387
 10
160.4126916889
 20
30.9677225551
 10
160.6439414683
 20
30.8709311616
 10
160.7595660273
 20
30.7418754649
 10
160.7595660273
 20
30.6773483748
 10
160.6439414683
 20
30.5805584977
 10
160.4126916889
 20
30.5160298911
 10
160.0658166889
 20
30.4837671043
 10
159.7189416889
 20
30.4837671043
 10
159.3720666889
 20
30.5160298911
 10
159.1986291889
 20
30.5482941944
 10
159.0251916889
 20
30.6128212846
 10
159.7189416889
 20
30.6128212846
 10
160.0658166889
 20
30.6128212846
 10
160.2970664683
 20
30.6450855879
 10
160.4126916889
 20
30.6773483748
 10
160.4705039683
 20
30.7418754649
 10
160.4126916889
 20
30.8064040715
 10
160.2392541889
 20
30.8709311616
 10
159.2564414683
 20
31.0322496452
 10
159.0251916889
 20
31.1290410387
 10
159.1986291889
 20
31.258095219
 10
159.2564414683
 20
31.1935681288
  0
HATCH
  5
30F
100
AcDbEntity
  8
0
100
AcDbHatch
 62
7
  6
CONTINUOUS
 10
0.0
 20
0.0
 30
0.0
210
0.0
220
0.0
230
1.0
  2
SOLID
 70
1
 71
1
 91
1
 92
1
 93
23
 72
1
 10
159.2564414683
 20
31.1935681288
 11
159.4298789683
 21
31.1290410387
 72
1
 10
159.4298789683
 20
31.1290410387
 11
160.4126916889
 21
30.9677225551
 72
1
 10
160.4126916889
 20
30.9677225551
 11
160.6439414683
 21
30.8709311616
 72
1
 10
160.6439414683
 20
30.8709311616
 11
160.7595660273
 21
30.7418754649
 72
1
 10
160.7595660273
 20
30.7418754649
 11
160.7595660273
 21
30.6773483748
 72
1
 10
160.7595660273
 20
30.6773483748
 11
160.6439414683
 21
30.5805584977
 72
1
 10
160.6439414683
 20
30.5805584977
 11
160.4126916889
 21
30.5160298911
 72
1
 10
160.4126916889
 20
30.5160298911
 11
160.0658166889
 21
30.4837671043
 72
1
 10
160.0658166889
 20
30.4837671043
 11
159.7189416889
 21
30.4837671043
 72
1
 10
159.7189416889
 20
30.4837671043
 11
159.3720666889
 21
30.5160298911
 72
1
 10
159.3720666889
 20
30.5160298911
 11
159.1986291889
 21
30.5482941944
 72
1
 10
159.1986291889
 20
30.5482941944
 11
159.0251916889
 21
30.6128212846
 72
1
 10
159.0251916889
 20
30.6128212846
 11
159.7189416889
 21
30.6128212846
 72
1
 10
159.7189416889
 20
30.6128212846
 11
160.0658166889
 21
30.6128212846
 72
1
 10
160.0658166889
 20
30.6128212846
 11
160.2970664683
 21
30.6450855879
 72
1
 10
160.2970664683
 20
30.6450855879
 11
160.4126916889
 21
30.6773483748
 72
1
 10
160.4126916889
 20
30.6773483748
 11
160.4705039683
 21
30.7418754649
 72
1
 10
160.4705039683
 20
30.7418754649
 11
160.4126916889
 21
30.8064040715
 72
1
 10
160.4126916889
 20
30.8064040715
 11
160.2392541889
 21
30.8709311616
 72
1
 10
160.2392541889
 20
30.8709311616
 11
159.2564414683
 21
31.0322496452
 72
1
 10
159.2564414683
 20
31.0322496452
 11
159.0251916889
 21
31.1290410387
 72
1
 10
159.0251916889
 20
31.1290410387
 11
159.1986291889
 21
31.258095219
 72
1
 10
159.1986291889
 20
31.258095219
 11
159.2564414683
 21
31.1935681288
 97
1
330
30E
 75
0
 76
1
 98
1
 10
0.0
 20
0.0
  0
LWPOLYLINE
  5
310
100
AcDbEntity
  8
0
100
AcDbPolyline
 62
7
  6
CONTINUOUS
 90
12
 70
0
 10
149.6595664615
 20
31.0322496452
 10
149.6595664615
 20
30.9354583476
 10
149.7751914546
 20
30.7741397682
 10
149.9486289546
 20
30.6773483748
 10
150.2955039959
 20
30.6128212846
 10
149.8330039821
 20
30.5482941944
 10
149.6595664615
 20
30.6128212846
 10
149.5439414683
 20
30.6773483748
 10
149.4283164701
 20
30.8064040715
 10
149.3705039683
 20
30.999985342
 10
149.7173789683
 20
31.1613038256
 10
149.6595664615
 20
31.0322496452
  0
HATCH
  5
311
100
AcDbEntity
  8
0
100
AcDbHatch
 62
7
  6
CONTINUOUS
 10
0.0
 20
0.0
 30
0.0
210
0.0
220
0.0
230
1.0
  2
SOLID
 70
1
 71
1
 91
1
 92
1
 93
11
 72
1
 10
149.6595664615
 20
31.0322496452
 11
149.6595664615
 21
30.9354583476
 72
1
 10
149.6595664615
 20
30.9354583476
 11
149.7751914546
 21
30.7741397682
 72
1
 10
149.7751914546
 20
30.7741397682
 11
149.9486289546
 21
30.6773483748
 72
1
 10
149.9486289546
 20
30.6773483748
 11
150.2955039959
 21
30.6128212846
 72
1
 10
150.2955039959
 20
30.6128212846
 11
149.8330039821
 21
30.5482941944
 72
1
 10
149.8330039821
 20
30.5482941944
 11
149.6595664615
 21
30.6128212846
 72
1
 10
149.6595664615
 20
30.6128212846
 11
149.5439414683
 21
30.6773483748
 72
1
 10
149.5439414683
 20
30.6773483748
 11
149.4283164701
 21
30.8064040715
 72
1
 10
149.4283164701
 20
30.8064040715
 11
149.3705039683
 21
30.999985342
 72
1
 10
149.3705039683
 20
30.999985342
 11
149.7173789683
 21
31.1613038256
 72
1
 10
149.7173789683
 20
31.1613038256
 11
149.6595664615
 21
31.0322496452
 97
1
330
310
 75
0
 76
1
 98
1
 10
0.0
 20
0.0
  0
LWPOLYLINE
  5
312
100
AcDbEntity
  8
0
100
AcDbPolyline
 62
7
  6
CONTINUOUS
 90
6
 70
0
 10
153.8798789683
 20
30.999985342
 10
153.9955038581
 20
31.0645131385
 10
154.5736289683
 20
31.0322496452
 10
154.3423788581
 20
30.999985342
 10
153.7642540786
 20
30.8709311616
 10
153.8798789683
 20
30.999985342
  0
HATCH
  5
313
100
AcDbEntity
  8
0
100
AcDbHatch
 62
7
  6
CONTINUOUS
 10
0.0
 20
0.0
 30
0.0
210
0.0
220
0.0
230
1.0
  2
SOLID
 70
1
 71
1
 91
1
 92
1
 93
5
 72
1
 10
153.8798789683
 20
30.999985342
 11
153.9955038581
 21
31.0645131385
 72
1
 10
153.9955038581
 20
31.0645131385
 11
154.5736289683
 21
31.0322496452
 72
1
 10
154.5736289683
 20
31.0322496452
 11
154.3423788581
 21
30.999985342
 72
1
 10
154.3423788581
 20
30.999985342
 11
153.7642540786
 21
30.8709311616
 72
1
 10
153.7642540786
 20
30.8709311616
 11
153.8798789683
 21
30.999985342
 97
1
330
312
 75
0
 76
1
 98
1
 10
0.0
 20
0.0
  0
LWPOLYLINE
  5
314
100
AcDbEntity
  8
0
100
AcDbPolyline
 62
7
  6
CONTINUOUS
 90
9
 70
0
 10
154.1111290786
 20
30.9031946612
 10
154.0533164683
 20
30.8064040715
 10
154.0533164683
 20
30.7418754649
 10
153.8220663581
 20
30.6450855879
 10
153.7642540786
 20
30.7741397682
 10
153.7642540786
 20
30.8709311616
 10
154.3423788581
 20
30.999985342
 10
154.2267539683
 20
30.9677225551
 10
154.1111290786
 20
30.9031946612
  0
HATCH
  5
315
100
AcDbEntity
  8
0
100
AcDbHatch
 62
7
  6
CONTINUOUS
 10
0.0
 20
0.0
 30
0.0
210
0.0
220
0.0
230
1.0
  2
SOLID
 70
1
 71
1
 91
1
 92
1
 93
8
 72
1
 10
154.1111290786
 20
30.9031946612
 11
154.0533164683
 21
30.8064040715
 72
1
 10
154.0533164683
 20
30.8064040715
 11
154.0533164683
 21
30.7418754649
 72
1
 10
154.0533164683
 20
30.7418754649
 11
153.8220663581
 21
30.6450855879
 72
1
 10
153.8220663581
 20
30.6450855879
 11
153.7642540786
 21
30.7741397682
 72
1
 10
153.7642540786
 20
30.7741397682
 11
153.7642540786
 21
30.8709311616
 72
1
 10
153.7642540786
 20
30.8709311616
 11
154.3423788581
 21
30.999985342
 72
1
 10
154.3423788581
 20
30.999985342
 11
154.2267539683
 21
30.9677225551
 72
1
 10
154.2267539683
 20
30.9677225551
 11
154.1111290786
 21
30.9031946612
 97
1
330
314
 75
0
 76
1
 98
1
 10
0.0
 20
0.0
  0
LWPOLYLINE
  5
316
100
AcDbEntity
  8
0
100
AcDbPolyline
 62
7
  6
CONTINUOUS
 90
10
 70
0
 10
155.1517537478
 20
30.7741397682
 10
155.2095666889
 20
30.8386672883
 10
155.4986287478
 20
30.7418754649
 10
155.5564416889
 20
30.5805584977
 10
155.6142539683
 20
30.4837671043
 10
155.3251912478
 20
30.4837671043
 10
155.2673789683
 20
30.5482941944
 10
155.2095666889
 20
30.6450855879
 10
154.9783162478
 20
30.6773483748
 10
155.1517537478
 20
30.7741397682
  0
HATCH
  5
317
100
AcDbEntity
  8
0
100
AcDbHatch
 62
7
  6
CONTINUOUS
 10
0.0
 20
0.0
 30
0.0
210
0.0
220
0.0
230
1.0
  2
SOLID
 70
1
 71
1
 91
1
 92
1
 93
9
 72
1
 10
155.1517537478
 20
30.7741397682
 11
155.2095666889
 21
30.8386672883
 72
1
 10
155.2095666889
 20
30.8386672883
 11
155.4986287478
 21
30.7418754649
 72
1
 10
155.4986287478
 20
30.7418754649
 11
155.5564416889
 21
30.5805584977
 72
1
 10
155.5564416889
 20
30.5805584977
 11
155.6142539683
 21
30.4837671043
 72
1
 10
155.6142539683
 20
30.4837671043
 11
155.3251912478
 21
30.4837671043
 72
1
 10
155.3251912478
 20
30.4837671043
 11
155.2673789683
 21
30.5482941944
 72
1
 10
155.2673789683
 20
30.5482941944
 11
155.2095666889
 21
30.6450855879
 72
1
 10
155.2095666889
 20
30.6450855879
 11
154.9783162478
 21
30.6773483748
 72
1
 10
154.9783162478
 20
30.6773483748
 11
155.1517537478
 21
30.7741397682
 97
1
330
316
 75
0
 76
1
 98
1
 10
0.0
 20
0.0
  0
LWPOLYLINE
  5
318
100
AcDbEntity
  8
0
100
AcDbPolyline
 62
7
  6
CONTINUOUS
 90
12
 70
0
 10
150.8736290235
 20
30.7096125201
 10
150.9314414683
 20
30.8064040715
 10
151.2205040235
 20
30.8064040715
 10
151.1626914132
 20
30.6773483748
 10
150.9892539132
 20
30.5805584977
 10
150.7580039683
 20
30.5160298911
 10
150.3533164408
 20
30.4837671043
 10
150.0064414821
 20
30.5160298911
 10
149.8330039821
 20
30.5482941944
 10
150.2955039959
 20
30.6128212846
 10
150.7001914408
 20
30.6450855879
 10
150.8736290235
 20
30.7096125201
  0
HATCH
  5
319
100
AcDbEntity
  8
0
100
AcDbHatch
 62
7
  6
CONTINUOUS
 10
0.0
 20
0.0
 30
0.0
210
0.0
220
0.0
230
1.0
  2
SOLID
 70
1
 71
1
 91
1
 92
1
 93
11
 72
1
 10
150.8736290235
 20
30.7096125201
 11
150.9314414683
 21
30.8064040715
 72
1
 10
150.9314414683
 20
30.8064040715
 11
151.2205040235
 21
30.8064040715
 72
1
 10
151.2205040235
 20
30.8064040715
 11
151.1626914132
 21
30.6773483748
 72
1
 10
151.1626914132
 20
30.6773483748
 11
150.9892539132
 21
30.5805584977
 72
1
 10
150.9892539132
 20
30.5805584977
 11
150.7580039683
 21
30.5160298911
 72
1
 10
150.7580039683
 20
30.5160298911
 11
150.3533164408
 21
30.4837671043
 72
1
 10
150.3533164408
 20
30.4837671043
 11
150.0064414821
 21
30.5160298911
 72
1
 10
150.0064414821
 20
30.5160298911
 11
149.8330039821
 21
30.5482941944
 72
1
 10
149.8330039821
 20
30.5482941944
 11
150.2955039959
 21
30.6128212846
 72
1
 10
150.2955039959
 20
30.6128212846
 11
150.7001914408
 21
30.6450855879
 72
1
 10
150.7001914408
 20
30.6450855879
 11
150.8736290235
 21
30.7096125201
 97
1
330
318
 75
0
 76
1
 98
1
 10
0.0
 20
0.0
  0
LWPOLYLINE
  5
31A
100
AcDbEntity
  8
0
100
AcDbPolyline
 62
7
  6
CONTINUOUS
 90
6
 70
0
 10
154.1111290786
 20
30.6773483748
 10
154.3423788581
 20
30.6128212846
 10
153.9955038581
 20
30.5482941944
 10
153.8220663581
 20
30.6450855879
 10
154.0533164683
 20
30.7418754649
 10
154.1111290786
 20
30.6773483748
  0
HATCH
  5
31B
100
AcDbEntity
  8
0
100
AcDbHatch
 62
7
  6
CONTINUOUS
 10
0.0
 20
0.0
 30
0.0
210
0.0
220
0.0
230
1.0
  2
SOLID
 70
1
 71
1
 91
1
 92
1
 93
5
 72
1
 10
154.1111290786
 20
30.6773483748
 11
154.3423788581
 21
30.6128212846
 72
1
 10
154.3423788581
 20
30.6128212846
 11
153.9955038581
 21
30.5482941944
 72
1
 10
153.9955038581
 20
30.5482941944
 11
153.8220663581
 21
30.6450855879
 72
1
 10
153.8220663581
 20
30.6450855879
 11
154.0533164683
 21
30.7418754649
 72
1
 10
154.0533164683
 20
30.7418754649
 11
154.1111290786
 21
30.6773483748
 97
1
330
31A
 75
0
 76
1
 98
1
 10
0.0
 20
0.0
  0
LWPOLYLINE
  5
31C
100
AcDbEntity
  8
0
100
AcDbPolyline
 62
7
  6
CONTINUOUS
 90
11
 70
0
 10
154.6892538581
 20
30.6128212846
 10
154.9783162478
 20
30.6773483748
 10
155.2095666889
 20
30.6450855879
 10
155.1517537478
 20
30.5805584977
 10
154.9783162478
 20
30.5160298911
 10
154.6892538581
 20
30.4837671043
 10
154.3423788581
 20
30.4837671043
 10
154.1111290786
 20
30.5160298911
 10
153.9955038581
 20
30.5482941944
 10
154.3423788581
 20
30.6128212846
 10
154.6892538581
 20
30.6128212846
  0
HATCH
  5
31D
100
AcDbEntity
  8
0
100
AcDbHatch
 62
7
  6
CONTINUOUS
 10
0.0
 20
0.0
 30
0.0
210
0.0
220
0.0
230
1.0
  2
SOLID
 70
1
 71
1
 91
1
 92
1
 93
10
 72
1
 10
154.6892538581
 20
30.6128212846
 11
154.9783162478
 21
30.6773483748
 72
1
 10
154.9783162478
 20
30.6773483748
 11
155.2095666889
 21
30.6450855879
 72
1
 10
155.2095666889
 20
30.6450855879
 11
155.1517537478
 21
30.5805584977
 72
1
 10
155.1517537478
 20
30.5805584977
 11
154.9783162478
 21
30.5160298911
 72
1
 10
154.9783162478
 20
30.5160298911
 11
154.6892538581
 21
30.4837671043
 72
1
 10
154.6892538581
 20
30.4837671043
 11
154.3423788581
 21
30.4837671043
 72
1
 10
154.3423788581
 20
30.4837671043
 11
154.1111290786
 21
30.5160298911
 72
1
 10
154.1111290786
 20
30.5160298911
 11
153.9955038581
 21
30.5482941944
 72
1
 10
153.9955038581
 20
30.5482941944
 11
154.3423788581
 21
30.6128212846
 72
1
 10
154.3423788581
 20
30.6128212846
 11
154.6892538581
 21
30.6128212846
 97
1
330
31C
 75
0
 76
1
 98
1
 10
0.0
 20
0.0
  0
LWPOLYLINE
  5
31E
100
AcDbEntity
  8
0
100
AcDbPolyline
 62
7
  6
CONTINUOUS
 90
7
 70
0
 10
159.3720666889
 20
30.6450855879
 10
159.7189416889
 20
30.6128212846
 10
159.0251916889
 20
30.6128212846
 10
158.9095664683
 20
30.7418754649
 10
159.1986291889
 20
30.7418754649
 10
159.2564414683
 20
30.6773483748
 10
159.3720666889
 20
30.6450855879
  0
HATCH
  5
31F
100
AcDbEntity
  8
0
100
AcDbHatch
 62
7
  6
CONTINUOUS
 10
0.0
 20
0.0
 30
0.0
210
0.0
220
0.0
230
1.0
  2
SOLID
 70
1
 71
1
 91
1
 92
1
 93
6
 72
1
 10
159.3720666889
 20
30.6450855879
 11
159.7189416889
 21
30.6128212846
 72
1
 10
159.7189416889
 20
30.6128212846
 11
159.0251916889
 21
30.6128212846
 72
1
 10
159.0251916889
 20
30.6128212846
 11
158.9095664683
 21
30.7418754649
 72
1
 10
158.9095664683
 20
30.7418754649
 11
159.1986291889
 21
30.7418754649
 72
1
 10
159.1986291889
 20
30.7418754649
 11
159.2564414683
 21
30.6773483748
 72
1
 10
159.2564414683
 20
30.6773483748
 11
159.3720666889
 21
30.6450855879
 97
1
330
31E
 75
0
 76
1
 98
1
 10
0.0
 20
0.0
  0
SOLID
  5
320
100
AcDbEntity
  8
0
100
AcDbTrace
 62
7
  6
CONTINUOUS
 10
156.0767541889
 20
30.4837671043
 11
156.0767541889
 21
31.5162050961
 12
156.3658162478
 22
30.4837671043
 13
156.3658162478
 23
31.5162050961
  0
ENDBLK
  5
321
100
AcDbEntity
  8
0
  6
BYBLOCK
 62
0
100
AcDbBlockEnd
  0
BLOCK
  5
322
100
AcDbEntity
  8
0
100
AcDbBlockBegin
 62
2
  6
CONTINUOUS
  2
AMMEAAL_LOGO_BL0
 70
64
 10
31.7740840678
 20
19.9150776578
  3
AMMEAAL_LOGO_BL0
  1

  0
TEXT
  5
323
100
AcDbEntity
  8
0
100
AcDbText
 62
7
  6
CONTINUOUS
 10
18.0387879101
 20
19.2884917655
  7
TEXTSTYLE_3
 40
2.7338706658
  1
Ammeraal Beltech
 41
1.0
 51
15.0
 72
0
100
AcDbText
  0
TEXT
  5
324
100
AcDbEntity
  8
0
100
AcDbText
 62
7
  6
CONTINUOUS
 10
28.8395887358
 20
17.0149550926
  7
TEXTSTYLE_4
 40
1.0935482663
  1
Innovation & Service in Belting
 41
1.0
 72
0
100
AcDbText
  0
LINE
  5
325
100
AcDbEntity
  8
0
100
AcDbLine
 62
7
  6
CONTINUOUS
 10
12.0142472588
 20
20.055085074
 11
12.7923992521
 21
23.7160023717
  0
LINE
  5
326
100
AcDbEntity
  8
0
100
AcDbLine
 62
7
  6
CONTINUOUS
 10
22.8875675419
 20
27.3793962833
 11
13.2802169951
 21
24.257778862
  0
LINE
  5
327
100
AcDbEntity
  8
0
100
AcDbLine
 62
7
  6
CONTINUOUS
 10
12.2395305911
 20
19.361734271
 11
19.7466058522
 21
12.602333345
  0
LINE
  5
328
100
AcDbEntity
  8
0
100
AcDbLine
 62
7
  6
CONTINUOUS
 10
12.5020650018
 20
20.5968615644
 11
23.310334367
 21
24.1086811633
  0
LINE
  5
329
100
AcDbEntity
  8
0
100
AcDbLine
 62
7
  6
CONTINUOUS
 10
23.3061292298
 20
13.7588925996
 11
14.860669561
 21
21.3632186413
  0
LINE
  5
32A
100
AcDbEntity
  8
0
100
AcDbLine
 62
7
  6
CONTINUOUS
 10
23.8259519496
 20
26.5344711676
 11
22.8493924124
 21
21.9401197651
  0
LINE
  5
32B
100
AcDbEntity
  8
0
100
AcDbLine
 62
7
  6
CONTINUOUS
 10
22.1495904647
 20
18.6478104513
 11
21.4631422532
 21
15.4183255269
  0
LINE
  5
32C
100
AcDbEntity
  8
0
100
AcDbLine
 62
7
  6
CONTINUOUS
 10
24.5070480481
 20
14.1490947773
 11
25.4632795838
 21
18.6478104513
  0
LINE
  5
32D
100
AcDbEntity
  8
0
100
AcDbLine
 62
7
  6
CONTINUOUS
 10
26.1630815315
 20
21.9401197651
 11
26.6073233338
 21
24.0301131245
  0
LINE
  5
32E
100
AcDbEntity
  8
0
100
AcDbLine
 62
7
  6
CONTINUOUS
 10
20.4597069275
 20
12.4507590323
 11
24.0192303051
 21
13.6073182869
  0
LINE
  5
32F
100
AcDbEntity
  8
0
100
AcDbLine
 62
7
  6
CONTINUOUS
 10
23.6006686173
 20
27.2278219706
 11
26.3820400015
 21
24.7234639276
  0
ARC
  5
330
100
AcDbEntity
  8
0
100
AcDbCircle
 62
7
  6
CONTINUOUS
 10
13.5055003274
 20
23.564428059
 40
0.7290321776
100
AcDbArc
 50
108.0
 51
168.0
  0
ARC
  5
331
100
AcDbEntity
  8
0
100
AcDbCircle
 62
7
  6
CONTINUOUS
 10
23.1128508743
 20
26.6860454803
 40
0.7290321776
100
AcDbArc
 50
348.0
 51
108.0
  0
ARC
  5
332
100
AcDbEntity
  8
0
100
AcDbCircle
 62
7
  6
CONTINUOUS
 10
25.8942222585
 20
24.1816874372
 40
0.7290321776
100
AcDbArc
 50
348.0
 51
48.0
  0
ARC
  5
333
100
AcDbEntity
  8
0
100
AcDbCircle
 62
7
  6
CONTINUOUS
 10
20.2344235952
 20
13.1441098354
 40
0.7290321776
100
AcDbArc
 50
228.0
 51
288.0
  0
ARC
  5
334
100
AcDbEntity
  8
0
100
AcDbCircle
 62
7
  6
CONTINUOUS
 10
12.7273483341
 20
19.9035107613
 40
0.7290321776
100
AcDbArc
 50
108.0
 51
228.0
  0
ARC
  5
335
100
AcDbEntity
  8
0
100
AcDbCircle
 62
7
  6
CONTINUOUS
 10
23.7939469728
 20
14.30066909
 40
0.7290321776
100
AcDbArc
 50
228.0
 51
348.0
  0
ENDBLK
  5
336
100
AcDbEntity
  8
0
  6
BYBLOCK
 62
0
100
AcDbBlockEnd
  0
BLOCK
  5
337
100
AcDbEntity
  8
0
100
AcDbBlockBegin
  2
*T1
 70
1
 10
0.0
 20
0.0
  3
*T1
  1

  0
LINE
  5
338
100
AcDbEntity
  8
0
100
AcDbLine
 62
2
  6
CONTINUOUS
 10
0.0
 20
0.0
 11
190.0
 21
0.0
  0
LINE
  5
339
100
AcDbEntity
  8
0
100
AcDbLine
 62
2
  6
CONTINUOUS
 10
0.0
 20
0.0
 11
0.0
 21
-20.0
  0
LINE
  5
33A
100
AcDbEntity
  8
0
100
AcDbLine
 62
2
  6
CONTINUOUS
 10
0.0
 20
-20.0
 11
190.0
 21
-20.0
  0
LINE
  5
33B
100
AcDbEntity
  8
0
100
AcDbLine
 62
2
  6
CONTINUOUS
 10
85.0
 20
0.0
 11
85.0
 21
-20.0
  0
LINE
  5
33C
100
AcDbEntity
  8
0
100
AcDbLine
 62
2
  6
CONTINUOUS
 10
105.0
 20
0.0
 11
105.0
 21
-20.0
  0
LINE
  5
33D
100
AcDbEntity
  8
0
100
AcDbLine
 62
2
  6
CONTINUOUS
 10
190.0
 20
0.0
 11
190.0
 21
-20.0
  0
MTEXT
  5
33E
100
AcDbEntity
  8
0
100
AcDbMText
 62
5
  6
CONTINUOUS
  7
TEXTSTYLE_5
 71
1
 72
1
 10
3.0
 20
-5.177
 30
0.0
 11
1.0
 21
0.0
 31
0.0
 44
1.08
  3
                                                                     Ammeraal Beltech Modular A/S\P\H1.5;                                                                      Hjulmagervej 21,  7100 Vejle,  DK\P\H1.495;                                
  1
                                      tel: \H1.51;+45 75723100     fax: +45 75723348\P\H1.5;                                                                      admin@unichains.dk  www.unichains.com
 40
1.52
 41
161.0496183206
  0
MTEXT
  5
33F
100
AcDbEntity
  8
0
100
AcDbMText
 62
5
  6
CONTINUOUS
  7
TEXTSTYLE_6
 71
2
 72
1
 10
95.0
 20
-11.25
 30
0.0
 11
1.0
 21
0.0
 31
0.0
 44
0.9
  1
1:1
 40
5.0
 41
21.0
  0
MTEXT
  5
340
100
AcDbEntity
  8
0
100
AcDbMText
 62
5
  6
CONTINUOUS
  7
TEXTSTYLE_7
 71
1
 72
1
 10
108.0
 20
-8.75
 30
0.0
 11
1.0
 21
0.0
 31
0.0
 44
0.9
  1
uni 1702
 40
7.5
 41
72.25
  0
ENDBLK
  5
341
100
AcDbEntity
  8
0
  6
BYBLOCK
 62
0
100
AcDbBlockEnd
  0
ENDSEC
  0
SECTION
  2
ENTITIES
  0
MTEXT
  5
342
100
AcDbEntity
  8
0
100
AcDbMText
 62
5
  6
CONTINUOUS
  7
TEXTSTYLE_2
 71
1
 72
1
 10
96.0
 20
28.436
 30
0.0
 11
1.0
 21
0.0
 31
0.0
 44
0.9
  1
\Q0.000019;Scale :
 40
2.8
 41
11.76
  0
MTEXT
  5
343
100
AcDbEntity
  8
0
100
AcDbMText
 62
5
  6
CONTINUOUS
  7
TEXTSTYLE_2
 71
1
 72
1
 10
116.0
 20
28.436
 30
0.0
 11
1.0
 21
0.0
 31
0.0
 44
0.9
  1
\Q0.000019;Chain type:
 40
2.8
 41
18.48
  0
INSERT
  5
344
100
AcDbEntity
  8
0
100
AcDbBlockReference
 62
2
  6
CONTINUOUS
  2
AMMEAAL_LOGO_BL0
 10
31.7740840678
 20
19.9150776578
  0
INSERT
  5
345
100
AcDbEntity
  8
0
100
AcDbBlockReference
 62
2
  6
CONTINUOUS
  2
UNI_LOGO2_BL1
 10
173.3924355793
 20
35.4837666925
  0
ACAD_TABLE
  5
346
100
AcDbEntity
  8
0
 62
2
  6
CONTINUOUS
100
AcDbBlockReference
  2
*T1
 10
10.0
 20
30.0
 30
0.0
100
AcDbTable
342
       76F
343
215
 11
1.0
 21
0.0
 31
0.0
 90
22
 91
1
 92
3
 93
0
 94
0
 95
0
 96
0
141
20.0
142
85.0
142
20.0
142
85.0
171
1
172
0
173
0
174
0
175
1
176
1
 91
57
178
0
145
0.0
  7
TEXTSTYLE_5
301
CELL_VALUE
 90
4
  2
                                                                     Ammeraal Beltech Modular A/S\P\H1.5;                                                                      Hjulmagervej 21,  7100 Vejle,  DK\P\H1.495;                                
  1
                                      tel: \H1.51;+45 75723100     fax: +45 75723348\P\H1.5;                                                                      admin@unichains.dk  www.unichains.com
304
ACVALUE_END
170
4
140
1.52
 64
5
171
1
172
0
173
0
174
0
175
1
176
1
 91
57
178
0
145
0.0
  7
TEXTSTYLE_6
301
CELL_VALUE
 90
4
  1
1:1
304
ACVALUE_END
170
8
140
5.0
 64
5
171
1
172
0
173
0
174
0
175
1
176
1
 91
57
178
0
145
0.0
  7
TEXTSTYLE_7
301
CELL_VALUE
 90
4
  1
uni 1702
304
ACVALUE_END
170
7
140
7.5
 64
5
  0
LINE
  5
347
100
AcDbEntity
  8
0
100
AcDbLine
 62
7
  6
CONTINUOUS
 10
210.0
 20
0.0
 11
0.0
 21
0.0
  0
LINE
  5
348
100
AcDbEntity
  8
0
100
AcDbLine
 62
7
  6
CONTINUOUS
 10
10.0
 20
10.0
 11
200.0
 21
10.0
  0
LINE
  5
349
100
AcDbEntity
  8
0
100
AcDbLine
 62
7
  6
CONTINUOUS
 10
10.0
 20
30.0
 11
200.0
 21
30.0
  0
LINE
  5
34A
100
AcDbEntity
  8
0
100
AcDbLine
 62
7
  6
CONTINUOUS
 10
0.0
 20
0.0
 11
0.0
 21
297.0
  0
LINE
  5
34B
100
AcDbEntity
  8
0
100
AcDbLine
 62
7
  6
CONTINUOUS
 10
10.0
 20
10.0
 11
10.0
 21
287.0
  0
LINE
  5
34C
100
AcDbEntity
  8
0
100
AcDbLine
 62
7
  6
CONTINUOUS
 10
200.0
 20
287.0
 11
200.0
 21
10.0
  0
LINE
  5
34D
100
AcDbEntity
  8
0
100
AcDbLine
 62
7
  6
CONTINUOUS
 10
210.0
 20
0.0
 11
210.0
 21
297.0
  0
LINE
  5
34E
100
AcDbEntity
  8
0
100
AcDbLine
 62
7
  6
CONTINUOUS
 10
10.0
 20
287.0
 11
200.0
 21
287.0
  0
LINE
  5
34F
100
AcDbEntity
  8
0
100
AcDbLine
 62
7
  6
CONTINUOUS
 10
0.0
 20
297.0
 11
210.0
 21
297.0
  0
LINE
  5
350
100
AcDbEntity
  8
0
100
AcDbLine
 62
7
  6
CONTINUOUS
 10
42.7553915778
 20
147.4566975877
 11
42.5816267795
 21
147.3563744346
  0
LINE
  5
351
100
AcDbEntity
  8
0
100
AcDbLine
 62
7
  6
CONTINUOUS
 10
43.1211646406
 20
146.6863813063
 11
42.9473998424
 21
146.5860581533
  0
LINE
  5
352
100
AcDbEntity
  8
0
100
AcDbLine
 62
7
  6
CONTINUOUS
 10
40.1558139535
 20
174.4313840628
 11
40.1558139535
 21
153.6074745478
  0
LINE
  5
353
100
AcDbEntity
  8
0
100
AcDbLine
 62
7
  6
CONTINUOUS
 10
43.6160340787
 20
145.6441886905
 11
43.4422692804
 21
145.5438655374
  0
LINE
  5
354
100
AcDbEntity
  8
0
100
AcDbLine
 62
7
  6
CONTINUOUS
 10
43.9818071416
 20
144.8738724092
 11
43.8080423433
 21
144.7735492561
  0
LINE
  5
355
100
AcDbEntity
  8
0
100
AcDbLine
 62
7
  6
CONTINUOUS
 10
43.9846109535
 20
144.867967595
 11
43.8108461552
 21
144.767644442
  0
LINE
  5
356
100
AcDbEntity
  8
0
100
AcDbLine
 62
7
  6
CONTINUOUS
 10
44.0678713916
 20
144.6926215194
 11
43.8941065934
 21
144.5922983664
  0
LINE
  5
357
100
AcDbEntity
  8
0
100
AcDbLine
 62
7
  6
CONTINUOUS
 10
44.4336444545
 20
143.9223052381
 11
44.2598796562
 21
143.8219820851
  0
LINE
  5
358
100
AcDbEntity
  8
0
100
AcDbLine
 62
7
  6
CONTINUOUS
 10
45.0145781426
 20
142.6988617325
 11
44.8408133444
 21
142.5985385795
  0
LINE
  5
359
100
AcDbEntity
  8
0
100
AcDbLine
 62
7
  6
CONTINUOUS
 10
46.1118973313
 20
140.3879128886
 11
45.938132533
 21
140.2875897356
  0
LINE
  5
35A
100
AcDbEntity
  8
0
100
AcDbLine
 62
7
  6
CONTINUOUS
 10
48.4558139535
 20
168.4313953489
 11
48.4558139535
 21
159.7653699451
  0
LINE
  5
35B
100
AcDbEntity
  8
DEFAULT_1
100
AcDbLine
 62
2
  6
CENTER
 10
38.1558139535
 20
113.0513953489
 11
95.3558139535
 21
113.0513953489
  0
LINE
  5
35C
100
AcDbEntity
  8
0
100
AcDbLine
 62
7
  6
CONTINUOUS
 10
45.938132533
 20
140.2875897356
 11
42.5816267795
 21
147.3563744346
  0
LINE
  5
35D
100
AcDbEntity
  8
0
100
AcDbLine
 62
7
  6
CONTINUOUS
 10
40.4458080749
 20
152.3206691476
 11
52.0988887415
 21
127.7793382633
  0
LINE
  5
35E
100
AcDbEntity
  8
DEFAULT_1
100
AcDbLine
 62
2
  6
CENTER
 10
66.7558139535
 20
89.9458396279
 11
66.7558139535
 21
177.4313953495
  0
LINE
  5
35F
100
AcDbEntity
  8
0
100
AcDbLine
 62
7
  6
CONTINUOUS
 10
84.0763220292
 20
157.9348655703
 11
84.9888266554
 21
159.5153699451
  0
LINE
  5
360
100
AcDbEntity
  8
0
100
AcDbLine
 62
7
  6
CONTINUOUS
 10
49.4353058778
 20
157.9348655703
 11
48.5228012516
 21
159.5153699451
  0
LINE
  5
361
100
AcDbEntity
  8
0
100
AcDbLine
 62
7
  6
CONTINUOUS
 10
93.0658198321
 20
152.3206691476
 11
81.4127391654
 21
127.7793382633
  0
LINE
  5
362
100
AcDbEntity
  8
DEFAULT_1
100
AcDbLine
 62
2
  6
CENTER
 10
60.6976979281
 20
135.1813953489
 11
73.7953723467
 21
135.1813953489
  0
LINE
  5
363
100
AcDbEntity
  8
0
100
AcDbLine
 62
7
  6
CONTINUOUS
 10
90.4068210809
 20
146.2545598155
 11
89.7953119355
 21
144.9667245465
  0
LINE
  5
364
100
AcDbEntity
  8
0
100
AcDbLine
 62
7
  6
CONTINUOUS
 10
89.6594209495
 20
144.6805387946
 11
89.0479119013
 21
143.3927037303
  0
LINE
  5
365
100
AcDbEntity
  8
0
100
AcDbLine
 62
7
  6
CONTINUOUS
 10
88.9120209154
 20
143.1065179785
 11
88.3005117943
 21
141.8186827606
  0
LINE
  5
366
100
AcDbEntity
  8
0
100
AcDbLine
 62
7
  6
CONTINUOUS
 10
88.1646208812
 20
141.5324971623
 11
87.9607844994
 21
141.1032187393
  0
LINE
  5
367
100
AcDbEntity
  8
0
100
AcDbLine
 62
7
  6
CONTINUOUS
 10
85.0558139535
 20
168.4313953489
 11
85.0558139535
 21
159.7653699451
  0
LINE
  5
368
100
AcDbEntity
  8
0
100
AcDbLine
 62
7
  6
CONTINUOUS
 10
93.3558139535
 20
174.4313840628
 11
93.3558139535
 21
153.6074745478
  0
LINE
  5
369
100
AcDbEntity
  8
0
100
AcDbLine
 62
7
  6
CONTINUOUS
 10
87.7870197011
 20
141.2035418924
 11
87.9607844994
 21
141.1032187393
  0
LINE
  5
36A
100
AcDbEntity
  8
0
100
AcDbLine
 62
7
  6
CONTINUOUS
 10
87.888937892
 20
141.4181811039
 11
88.0627026903
 21
141.3178579508
  0
LINE
  5
36B
100
AcDbEntity
  8
0
100
AcDbLine
 62
7
  6
CONTINUOUS
 10
87.9908560829
 20
141.6328203154
 11
88.1646208812
 21
141.5324971623
  0
LINE
  5
36C
100
AcDbEntity
  8
0
100
AcDbLine
 62
7
  6
CONTINUOUS
 10
88.126746996
 20
141.9190059137
 11
88.3005117943
 21
141.8186827606
  0
LINE
  5
36D
100
AcDbEntity
  8
0
100
AcDbLine
 62
7
  6
CONTINUOUS
 10
88.7382561171
 20
143.2068411316
 11
88.9120209154
 21
143.1065179785
  0
LINE
  5
36E
100
AcDbEntity
  8
0
100
AcDbLine
 62
7
  6
CONTINUOUS
 10
88.8741471031
 20
143.4930268834
 11
89.0479119013
 21
143.3927037303
  0
LINE
  5
36F
100
AcDbEntity
  8
0
100
AcDbLine
 62
7
  6
CONTINUOUS
 10
88.8911334034
 20
143.5287999488
 11
89.0648982017
 21
143.4284767957
  0
LINE
  5
370
100
AcDbEntity
  8
0
100
AcDbLine
 62
7
  6
CONTINUOUS
 10
88.908119801
 20
143.564573219
 11
89.0818845992
 21
143.4642500659
  0
LINE
  5
371
100
AcDbEntity
  8
0
100
AcDbLine
 62
7
  6
CONTINUOUS
 10
88.9420924989
 20
143.6361195546
 11
89.1158572971
 21
143.5357964015
  0
LINE
  5
372
100
AcDbEntity
  8
0
100
AcDbLine
 62
7
  6
CONTINUOUS
 10
88.9930515943
 20
143.7434391603
 11
89.1668163926
 21
143.6431160073
  0
LINE
  5
373
100
AcDbEntity
  8
0
100
AcDbLine
 62
7
  6
CONTINUOUS
 10
89.0779834848
 20
143.9223053064
 11
89.2517482831
 21
143.8219821533
  0
LINE
  5
374
100
AcDbEntity
  8
0
100
AcDbLine
 62
7
  6
CONTINUOUS
 10
89.1799016757
 20
144.1369445179
 11
89.353666474
 21
144.0366213648
  0
LINE
  5
375
100
AcDbEntity
  8
0
100
AcDbLine
 62
7
  6
CONTINUOUS
 10
89.2818198666
 20
144.3515837294
 11
89.4555846649
 21
144.2512605763
  0
LINE
  5
376
100
AcDbEntity
  8
0
100
AcDbLine
 62
7
  6
CONTINUOUS
 10
89.36675166
 20
144.5304496708
 11
89.5405164583
 21
144.4301265177
  0
LINE
  5
377
100
AcDbEntity
  8
0
100
AcDbLine
 62
7
  6
CONTINUOUS
 10
89.4177107554
 20
144.6377692765
 11
89.5914755537
 21
144.5374461234
  0
LINE
  5
378
100
AcDbEntity
  8
0
100
AcDbLine
 62
7
  6
CONTINUOUS
 10
89.4516835505
 20
144.7093158168
 11
89.6254483488
 21
144.6089926637
  0
LINE
  5
379
100
AcDbEntity
  8
0
100
AcDbLine
 62
7
  6
CONTINUOUS
 10
89.4686698509
 20
144.7450888823
 11
89.6424346492
 21
144.6447657292
  0
LINE
  5
37A
100
AcDbEntity
  8
0
100
AcDbLine
 62
7
  6
CONTINUOUS
 10
89.4856561512
 20
144.7808619477
 11
89.6594209495
 21
144.6805387946
  0
LINE
  5
37B
100
AcDbEntity
  8
0
100
AcDbLine
 62
7
  6
CONTINUOUS
 10
89.6215471372
 20
145.0670476995
 11
89.7953119355
 21
144.9667245465
  0
LINE
  5
37C
100
AcDbEntity
  8
0
100
AcDbLine
 62
7
  6
CONTINUOUS
 10
89.6385334376
 20
145.102820765
 11
89.8122982359
 21
145.0024976119
  0
LINE
  5
37D
100
AcDbEntity
  8
0
100
AcDbLine
 62
7
  6
CONTINUOUS
 10
89.6555199323
 20
145.1385942398
 11
89.8292847306
 21
145.0382710868
  0
LINE
  5
37E
100
AcDbEntity
  8
0
100
AcDbLine
 62
7
  6
CONTINUOUS
 10
89.7234653281
 20
145.281686911
 11
89.8972301264
 21
145.181363758
  0
LINE
  5
37F
100
AcDbEntity
  8
0
100
AcDbLine
 62
7
  6
CONTINUOUS
 10
89.7914107239
 20
145.4247795822
 11
89.9651755222
 21
145.3244564292
  0
LINE
  5
380
100
AcDbEntity
  8
0
100
AcDbLine
 62
7
  6
CONTINUOUS
 10
89.9103154096
 20
145.6751922686
 11
90.0840802079
 21
145.5748691155
  0
LINE
  5
381
100
AcDbEntity
  8
0
100
AcDbLine
 62
7
  6
CONTINUOUS
 10
89.9782608054
 20
145.8182849398
 11
90.1520256037
 21
145.7179617867
  0
LINE
  5
382
100
AcDbEntity
  8
0
100
AcDbLine
 62
7
  6
CONTINUOUS
 10
90.0801789963
 20
146.0329241513
 11
90.2539437946
 21
145.9326009982
  0
LINE
  5
383
100
AcDbEntity
  8
0
100
AcDbLine
 62
7
  6
CONTINUOUS
 10
90.1481243921
 20
146.1760168225
 11
90.3218891904
 21
146.0756936695
  0
LINE
  5
384
100
AcDbEntity
  8
0
100
AcDbLine
 62
7
  6
CONTINUOUS
 10
90.2160699823
 20
146.3191099031
 11
90.3898347806
 21
146.2187867501
  0
LINE
  5
385
100
AcDbEntity
  8
0
100
AcDbLine
 62
7
  6
CONTINUOUS
 10
90.2330562826
 20
146.3548829686
 11
90.4068210809
 21
146.2545598155
  0
LINE
  5
386
100
AcDbEntity
  8
1_AXIS
100
AcDbLine
 62
2
  6
CENTER
 10
37.8398980465
 20
162.9313953489
 11
96.0131534884
 21
162.9313953489
  0
LINE
  5
387
100
AcDbEntity
  8
0
100
AcDbLine
 62
7
  6
CONTINUOUS
 10
41.1558139535
 20
175.4313953489
 11
41.4558139535
 21
175.4313953489
  0
LINE
  5
388
100
AcDbEntity
  8
0
100
AcDbLine
 62
7
  6
CONTINUOUS
 10
92.0558139535
 20
175.4313953489
 11
92.3558139535
 21
175.4313953489
  0
LINE
  5
389
100
AcDbEntity
  8
0
100
AcDbLine
 62
7
  6
CONTINUOUS
 10
40.1558139535
 20
250.4610465116
 11
40.1558139535
 21
227.4610465116
  0
LINE
  5
38A
100
AcDbEntity
  8
0
100
AcDbLine
 62
7
  6
CONTINUOUS
 10
42.5968023278
 20
237.2940252386
 11
42.5816267795
 21
237.1759401187
  0
LINE
  5
38B
100
AcDbEntity
  8
0
100
AcDbLine
 62
7
  6
CONTINUOUS
 10
42.6575045169
 20
237.1956209674
 11
42.6726800666
 21
237.2743443898
  0
LINE
  5
38C
100
AcDbEntity
  8
0
100
AcDbLine
 62
7
  6
CONTINUOUS
 10
42.8312693152
 20
237.1956209674
 11
42.8464448648
 21
237.2743443898
  0
LINE
  5
38D
100
AcDbEntity
  8
0
100
AcDbLine
 62
7
  6
CONTINUOUS
 10
43.0520687483
 20
236.9791316177
 11
43.0672443251
 21
237.0578550264
  0
LINE
  5
38E
100
AcDbEntity
  8
0
100
AcDbLine
 62
7
  6
CONTINUOUS
 10
42.9913665714
 20
237.0578550264
 11
42.976191038
 21
236.9988124664
  0
LINE
  5
38F
100
AcDbEntity
  8
0
100
AcDbLine
 62
7
  6
CONTINUOUS
 10
42.627153423
 20
237.3727486334
 11
42.5968023278
 21
237.2940252386
  0
LINE
  5
390
100
AcDbEntity
  8
0
100
AcDbLine
 62
7
  6
CONTINUOUS
 10
42.6726800666
 20
237.2743443898
 11
42.6878556108
 21
237.3137060873
  0
LINE
  5
391
100
AcDbEntity
  8
0
100
AcDbLine
 62
7
  6
CONTINUOUS
 10
42.8464448648
 20
237.2743443898
 11
42.8616204091
 21
237.3137060873
  0
LINE
  5
392
100
AcDbEntity
  8
0
100
AcDbLine
 62
7
  6
CONTINUOUS
 10
43.7501439348
 20
237.4121103309
 11
43.7349684449
 21
237.3727486334
  0
LINE
  5
393
100
AcDbEntity
  8
0
100
AcDbLine
 62
7
  6
CONTINUOUS
 10
43.8108461552
 20
237.333386936
 11
43.826021732
 21
237.3727486334
  0
LINE
  5
394
100
AcDbEntity
  8
0
100
AcDbLine
 62
7
  6
CONTINUOUS
 10
43.7653195116
 20
237.1759401187
 11
43.7349684449
 21
237.0972167238
  0
LWPOLYLINE
  5
395
100
AcDbEntity
  8
2_FEATURE
100
AcDbPolyline
 62
7
  6
CONTINUOUS
 90
10
 70
0
 10
49.2420201292
 20
249.6448003033
 10
49.172434466
 20
249.5237100869
 10
49.0614836664
 20
249.3044725158
 10
48.9693392096
 20
249.0861103112
 10
48.8945209378
 20
248.867434498
 10
48.8361850182
 20
248.6478043108
 10
48.7937762999
 20
248.4264642374
 10
48.7670581981
 20
248.202641305
 10
48.7560923825
 20
247.9755489137
 10
48.755814315
 20
247.9327658104
  0
LINE
  5
396
100
AcDbEntity
  8
0
100
AcDbLine
 62
7
  6
CONTINUOUS
 10
49.2413569438
 20
249.6436946708
 11
49.2420174958
 21
249.6447963103
  0
LINE
  5
397
100
AcDbEntity
  8
0
100
AcDbLine
 62
7
  6
CONTINUOUS
 10
42.6575045169
 20
237.4121103309
 11
42.627153423
 21
237.3727486334
  0
LINE
  5
398
100
AcDbEntity
  8
0
100
AcDbLine
 62
7
  6
CONTINUOUS
 10
42.6878556108
 20
237.3137060873
 11
42.7333822543
 21
237.3727486334
  0
LINE
  5
399
100
AcDbEntity
  8
0
100
AcDbLine
 62
7
  6
CONTINUOUS
 10
42.5816267795
 20
240.2610465116
 11
42.5816267795
 21
238.9610465116
  0
LINE
  5
39A
100
AcDbEntity
  8
0
100
AcDbLine
 62
7
  6
CONTINUOUS
 10
42.6575045169
 20
237.1365784212
 11
42.6575045169
 21
237.1956209674
  0
LINE
  5
39B
100
AcDbEntity
  8
0
100
AcDbLine
 62
7
  6
CONTINUOUS
 10
42.8312693152
 20
237.1365784212
 11
42.8312693152
 21
237.1956209674
  0
LINE
  5
39C
100
AcDbEntity
  8
0
100
AcDbLine
 62
7
  6
CONTINUOUS
 10
42.9473998424
 20
238.9110465116
 11
42.9473998424
 21
240.2610465116
  0
LINE
  5
39D
100
AcDbEntity
  8
0
100
AcDbLine
 62
7
  6
CONTINUOUS
 10
43.1211646406
 20
238.9110465116
 11
43.1211646406
 21
240.2610465116
  0
LINE
  5
39E
100
AcDbEntity
  8
0
100
AcDbLine
 62
7
  6
CONTINUOUS
 10
43.1886486789
 20
237.7860465116
 11
43.1886486789
 21
236.8610465116
  0
LINE
  5
39F
100
AcDbEntity
  8
0
100
AcDbLine
 62
7
  6
CONTINUOUS
 10
43.2645264326
 20
236.8610465116
 11
43.2645264326
 21
237.3137060873
  0
LINE
  5
3A0
100
AcDbEntity
  8
0
100
AcDbLine
 62
7
  6
CONTINUOUS
 10
43.2645264326
 20
237.3924294821
 11
43.2645264326
 21
237.7860465116
  0
LINE
  5
3A1
100
AcDbEntity
  8
0
100
AcDbLine
 62
7
  6
CONTINUOUS
 10
43.4382912309
 20
236.8610465116
 11
43.4382912309
 21
237.3137060873
  0
LINE
  5
3A2
100
AcDbEntity
  8
0
100
AcDbLine
 62
7
  6
CONTINUOUS
 10
43.4382912309
 20
237.4908337257
 11
43.4382912309
 21
237.7860465116
  0
LINE
  5
3A3
100
AcDbEntity
  8
0
100
AcDbLine
 62
7
  6
CONTINUOUS
 10
43.4422692804
 20
240.2610465116
 11
43.4422692804
 21
239.1610465116
  0
LINE
  5
3A4
100
AcDbEntity
  8
0
100
AcDbLine
 62
7
  6
CONTINUOUS
 10
43.4422692804
 20
238.3610465116
 11
43.4422692804
 21
237.9610465116
  0
LINE
  5
3A5
100
AcDbEntity
  8
0
100
AcDbLine
 62
7
  6
CONTINUOUS
 10
43.5376862939
 20
237.2546635411
 11
43.5376862939
 21
236.8610465116
  0
LINE
  5
3A6
100
AcDbEntity
  8
0
100
AcDbLine
 62
7
  6
CONTINUOUS
 10
43.6135640042
 20
236.8610465116
 11
43.6135640042
 21
237.2546635411
  0
LINE
  5
3A7
100
AcDbEntity
  8
0
100
AcDbLine
 62
7
  6
CONTINUOUS
 10
43.7349684449
 20
237.3727486334
 11
43.7349684449
 21
237.333386936
  0
LINE
  5
3A8
100
AcDbEntity
  8
0
100
AcDbLine
 62
7
  6
CONTINUOUS
 10
43.7349684449
 20
237.0972167238
 11
43.7349684449
 21
237.0381741777
  0
LINE
  5
3A9
100
AcDbEntity
  8
0
100
AcDbLine
 62
7
  6
CONTINUOUS
 10
43.7873288025
 20
236.8610465116
 11
43.7873288025
 21
236.911226488
  0
LINE
  5
3AA
100
AcDbEntity
  8
0
100
AcDbLine
 62
7
  6
CONTINUOUS
 10
43.7873288025
 20
237.2044835521
 11
43.7873288025
 21
237.2546635411
  0
LINE
  5
3AB
100
AcDbEntity
  8
0
100
AcDbLine
 62
7
  6
CONTINUOUS
 10
43.8080423433
 20
237.9610465116
 11
43.8080423433
 21
240.2610465116
  0
LINE
  5
3AC
100
AcDbEntity
  8
0
100
AcDbLine
 62
7
  6
CONTINUOUS
 10
43.8108461552
 20
237.0184933152
 11
43.8108461552
 21
237.0578550264
  0
LINE
  5
3AD
100
AcDbEntity
  8
0
100
AcDbLine
 62
7
  6
CONTINUOUS
 10
43.8941065934
 20
240.2610465116
 11
43.8941065934
 21
237.9610465116
  0
LINE
  5
3AE
100
AcDbEntity
  8
0
100
AcDbLine
 62
7
  6
CONTINUOUS
 10
43.9846109535
 20
237.0184933152
 11
43.9846109535
 21
237.0578550264
  0
LINE
  5
3AF
100
AcDbEntity
  8
0
100
AcDbLine
 62
7
  6
CONTINUOUS
 10
44.11435717
 20
237.333386936
 11
44.11435717
 21
237.2743443898
  0
LINE
  5
3B0
100
AcDbEntity
  8
0
100
AcDbLine
 62
7
  6
CONTINUOUS
 10
44.11435717
 20
237.1956209674
 11
44.11435717
 21
237.0775358751
  0
LINE
  5
3B1
100
AcDbEntity
  8
0
100
AcDbLine
 62
7
  6
CONTINUOUS
 10
44.1902347935
 20
237.0184933152
 11
44.1902347935
 21
237.333386936
  0
LINE
  5
3B2
100
AcDbEntity
  8
0
100
AcDbLine
 62
7
  6
CONTINUOUS
 10
44.2598796562
 20
237.9610465116
 11
44.2598796562
 21
239.0610465116
  0
LINE
  5
3B3
100
AcDbEntity
  8
0
100
AcDbLine
 62
7
  6
CONTINUOUS
 10
44.2598796562
 20
239.8610465116
 11
44.2598796562
 21
240.2610465116
  0
LINE
  5
3B4
100
AcDbEntity
  8
0
100
AcDbLine
 62
7
  6
CONTINUOUS
 10
44.3419903877
 20
237.7860465116
 11
44.3419903877
 21
237.687642268
  0
LINE
  5
3B5
100
AcDbEntity
  8
0
100
AcDbLine
 62
7
  6
CONTINUOUS
 10
44.3419903877
 20
237.4908337257
 11
44.3419903877
 21
236.8610465116
  0
LINE
  5
3B6
100
AcDbEntity
  8
0
100
AcDbLine
 62
7
  6
CONTINUOUS
 10
44.4178680112
 20
236.8610465116
 11
44.4178680112
 21
237.4908337257
  0
LINE
  5
3B7
100
AcDbEntity
  8
0
100
AcDbLine
 62
7
  6
CONTINUOUS
 10
44.4178680112
 20
237.687642268
 11
44.4178680112
 21
237.7860465116
  0
LINE
  5
3B8
100
AcDbEntity
  8
0
100
AcDbLine
 62
7
  6
CONTINUOUS
 10
44.4336444545
 20
237.9610465116
 11
44.4336444545
 21
239.0610465116
  0
LINE
  5
3B9
100
AcDbEntity
  8
0
100
AcDbLine
 62
7
  6
CONTINUOUS
 10
44.4336444545
 20
240.1919197938
 11
44.4336444545
 21
240.2610465116
  0
LINE
  5
3BA
100
AcDbEntity
  8
0
100
AcDbLine
 62
7
  6
CONTINUOUS
 10
44.5392724519
 20
237.4908337257
 11
44.5392724519
 21
236.8610465116
  0
LINE
  5
3BB
100
AcDbEntity
  8
0
100
AcDbLine
 62
7
  6
CONTINUOUS
 10
44.5916328095
 20
237.687642268
 11
44.5916328095
 21
237.7860465116
  0
LINE
  5
3BC
100
AcDbEntity
  8
0
100
AcDbLine
 62
7
  6
CONTINUOUS
 10
44.615150249
 20
236.8610465116
 11
44.615150249
 21
237.3137060873
  0
LINE
  5
3BD
100
AcDbEntity
  8
0
100
AcDbLine
 62
7
  6
CONTINUOUS
 10
44.615150249
 20
237.3924294821
 11
44.615150249
 21
237.4908337257
  0
LINE
  5
3BE
100
AcDbEntity
  8
0
100
AcDbLine
 62
7
  6
CONTINUOUS
 10
44.7547490943
 20
239.3110465116
 11
44.7547490943
 21
237.9610465116
  0
LINE
  5
3BF
100
AcDbEntity
  8
0
100
AcDbLine
 62
7
  6
CONTINUOUS
 10
44.7889150473
 20
236.8610465116
 11
44.7889150473
 21
237.3137060873
  0
LINE
  5
3C0
100
AcDbEntity
  8
0
100
AcDbLine
 62
7
  6
CONTINUOUS
 10
44.8883101103
 20
237.2349826924
 11
44.8883101103
 21
236.8610465116
  0
LINE
  5
3C1
100
AcDbEntity
  8
0
100
AcDbLine
 62
7
  6
CONTINUOUS
 10
43.8108461552
 20
237.0578550264
 11
43.826021732
 21
237.1168975725
  0
LINE
  5
3C2
100
AcDbEntity
  8
0
100
AcDbLine
 62
7
  6
CONTINUOUS
 10
43.9846109535
 20
237.0578550264
 11
43.9997865302
 21
237.1168975725
  0
LINE
  5
3C3
100
AcDbEntity
  8
0
100
AcDbLine
 62
7
  6
CONTINUOUS
 10
43.9846109535
 20
237.333386936
 11
43.9997865302
 21
237.3727486334
  0
LINE
  5
3C4
100
AcDbEntity
  8
0
100
AcDbLine
 62
7
  6
CONTINUOUS
 10
44.11435717
 20
237.0775358751
 11
44.0991815064
 21
237.0381741777
  0
LINE
  5
3C5
100
AcDbEntity
  8
0
100
AcDbLine
 62
7
  6
CONTINUOUS
 10
44.0991815064
 20
236.9200890647
 11
44.11435717
 21
236.959450769
  0
LINE
  5
3C6
100
AcDbEntity
  8
0
100
AcDbLine
 62
7
  6
CONTINUOUS
 10
45.1614699715
 20
237.333386936
 11
45.1766454615
 21
237.3727486334
  0
LINE
  5
3C7
100
AcDbEntity
  8
0
100
AcDbLine
 62
7
  6
CONTINUOUS
 10
45.3352347698
 20
237.333386936
 11
45.3504102598
 21
237.3727486334
  0
LINE
  5
3C8
100
AcDbEntity
  8
0
100
AcDbLine
 62
7
  6
CONTINUOUS
 10
45.4953319663
 20
237.0184933152
 11
45.4801564763
 21
236.9791316177
  0
LINE
  5
3C9
100
AcDbEntity
  8
0
100
AcDbLine
 62
7
  6
CONTINUOUS
 10
45.115943328
 20
237.4317911796
 11
45.0855921744
 21
237.3727486334
  0
LINE
  5
3CA
100
AcDbEntity
  8
0
100
AcDbLine
 62
7
  6
CONTINUOUS
 10
45.5408586098
 20
236.9200890647
 11
45.5712095898
 21
236.9791316177
  0
LINE
  5
3CB
100
AcDbEntity
  8
0
100
AcDbLine
 62
7
  6
CONTINUOUS
 10
45.7146234081
 20
236.9200890647
 11
45.744974388
 21
236.9791316177
  0
LINE
  5
3CC
100
AcDbEntity
  8
0
100
AcDbLine
 62
7
  6
CONTINUOUS
 10
42.8616204091
 20
237.3137060873
 11
42.9071470526
 21
237.3727486334
  0
LINE
  5
3CD
100
AcDbEntity
  8
0
100
AcDbLine
 62
7
  6
CONTINUOUS
 10
43.2948775428
 20
237.4317911796
 11
43.2645264326
 21
237.3924294821
  0
LINE
  5
3CE
100
AcDbEntity
  8
0
100
AcDbLine
 62
7
  6
CONTINUOUS
 10
43.2645264326
 20
237.3137060873
 11
43.2948775428
 21
237.3530677847
  0
LINE
  5
3CF
100
AcDbEntity
  8
0
100
AcDbLine
 62
7
  6
CONTINUOUS
 10
43.0065421047
 20
236.9200890647
 11
43.0520687483
 21
236.9791316177
  0
LINE
  5
3D0
100
AcDbEntity
  8
0
100
AcDbLine
 62
7
  6
CONTINUOUS
 10
43.4382912309
 20
237.3137060873
 11
43.4686423411
 21
237.3530677847
  0
LINE
  5
3D1
100
AcDbEntity
  8
0
100
AcDbLine
 62
7
  6
CONTINUOUS
 10
43.180306903
 20
236.9200890647
 11
43.1886486789
 21
236.9309073396
  0
LINE
  5
3D2
100
AcDbEntity
  8
0
100
AcDbLine
 62
7
  6
CONTINUOUS
 10
43.7804950884
 20
237.4514720283
 11
43.7501439348
 21
237.4121103309
  0
LINE
  5
3D3
100
AcDbEntity
  8
0
100
AcDbLine
 62
7
  6
CONTINUOUS
 10
43.7956705784
 20
237.2153018437
 11
43.7653195116
 21
237.1759401187
  0
LINE
  5
3D4
100
AcDbEntity
  8
0
100
AcDbLine
 62
7
  6
CONTINUOUS
 10
43.826021732
 20
237.1168975725
 11
43.8563727987
 21
237.15625927
  0
LINE
  5
3D5
100
AcDbEntity
  8
0
100
AcDbLine
 62
7
  6
CONTINUOUS
 10
43.9997865302
 20
237.1168975725
 11
44.030137597
 21
237.15625927
  0
LINE
  5
3D6
100
AcDbEntity
  8
0
100
AcDbLine
 62
7
  6
CONTINUOUS
 10
44.0991815064
 20
237.0381741777
 11
44.0536548628
 21
236.9791316177
  0
LINE
  5
3D7
100
AcDbEntity
  8
0
100
AcDbLine
 62
7
  6
CONTINUOUS
 10
44.6455012289
 20
237.4317911796
 11
44.615150249
 21
237.3924294821
  0
LINE
  5
3D8
100
AcDbEntity
  8
0
100
AcDbLine
 62
7
  6
CONTINUOUS
 10
44.615150249
 20
237.3137060873
 11
44.6455012289
 21
237.3530677847
  0
LINE
  5
3D9
100
AcDbEntity
  8
0
100
AcDbLine
 62
7
  6
CONTINUOUS
 10
44.7889150473
 20
237.3137060873
 11
44.8192660272
 21
237.3530677847
  0
LINE
  5
3DA
100
AcDbEntity
  8
0
100
AcDbLine
 62
7
  6
CONTINUOUS
 10
42.7030311659
 20
237.4514720283
 11
42.6575045169
 21
237.4121103309
  0
LINE
  5
3DB
100
AcDbEntity
  8
0
100
AcDbLine
 62
7
  6
CONTINUOUS
 10
43.3404041429
 20
237.471152877
 11
43.2948775428
 21
237.4317911796
  0
LINE
  5
3DC
100
AcDbEntity
  8
0
100
AcDbLine
 62
7
  6
CONTINUOUS
 10
43.2948775428
 20
237.3530677847
 11
43.3404041429
 21
237.3924294821
  0
LINE
  5
3DD
100
AcDbEntity
  8
0
100
AcDbLine
 62
7
  6
CONTINUOUS
 10
42.976191038
 20
236.9988124664
 11
42.9306643727
 21
236.959450769
  0
LINE
  5
3DE
100
AcDbEntity
  8
0
100
AcDbLine
 62
7
  6
CONTINUOUS
 10
43.4686423411
 20
237.3530677847
 11
43.4897309569
 21
237.3713007235
  0
LINE
  5
3DF
100
AcDbEntity
  8
0
100
AcDbLine
 62
7
  6
CONTINUOUS
 10
42.5816267795
 20
237.1759401187
 11
42.5968023278
 21
237.0578550264
  0
LINE
  5
3E0
100
AcDbEntity
  8
0
100
AcDbLine
 62
7
  6
CONTINUOUS
 10
44.9641877337
 20
236.8610465116
 11
44.9641877337
 21
237.2349826924
  0
LINE
  5
3E1
100
AcDbEntity
  8
0
100
AcDbLine
 62
7
  6
CONTINUOUS
 10
45.0855921744
 20
237.3727486334
 11
45.0855921744
 21
237.333386936
  0
LINE
  5
3E2
100
AcDbEntity
  8
0
100
AcDbLine
 62
7
  6
CONTINUOUS
 10
45.1205221571
 20
237.9610465116
 11
45.1205221571
 21
239.2610465116
  0
LINE
  5
3E3
100
AcDbEntity
  8
0
100
AcDbLine
 62
7
  6
CONTINUOUS
 10
45.137952532
 20
236.8610465116
 11
45.137952532
 21
236.9207410626
  0
LINE
  5
3E4
100
AcDbEntity
  8
0
100
AcDbLine
 62
7
  6
CONTINUOUS
 10
45.137952532
 20
237.0184933152
 11
45.137952532
 21
237.2349826924
  0
LINE
  5
3E5
100
AcDbEntity
  8
0
100
AcDbLine
 62
7
  6
CONTINUOUS
 10
45.2065864072
 20
240.2610465116
 11
45.2065864072
 21
237.9610465116
  0
LINE
  5
3E6
100
AcDbEntity
  8
0
100
AcDbLine
 62
7
  6
CONTINUOUS
 10
45.5712095898
 20
236.9791316177
 11
45.5712095898
 21
237.0184933152
  0
LINE
  5
3E7
100
AcDbEntity
  8
0
100
AcDbLine
 62
7
  6
CONTINUOUS
 10
45.5723594701
 20
237.9610465116
 11
45.5723594701
 21
240.2610465116
  0
LINE
  5
3E8
100
AcDbEntity
  8
0
100
AcDbLine
 62
7
  6
CONTINUOUS
 10
45.744974388
 20
236.9791316177
 11
45.744974388
 21
237.0184933152
  0
LINE
  5
3E9
100
AcDbEntity
  8
0
100
AcDbLine
 62
7
  6
CONTINUOUS
 10
45.7461242684
 20
237.9610465116
 11
45.7461242684
 21
240.2610465116
  0
LINE
  5
3EA
100
AcDbEntity
  8
0
100
AcDbLine
 62
7
  6
CONTINUOUS
 10
44.6910278725
 20
237.471152877
 11
44.6455012289
 21
237.4317911796
  0
LINE
  5
3EB
100
AcDbEntity
  8
0
100
AcDbLine
 62
7
  6
CONTINUOUS
 10
44.0536548628
 20
236.8807273621
 11
44.0991815064
 21
236.9200890647
  0
LINE
  5
3EC
100
AcDbEntity
  8
0
100
AcDbLine
 62
7
  6
CONTINUOUS
 10
44.6455012289
 20
237.3530677847
 11
44.6910278725
 21
237.3924294821
  0
LINE
  5
3ED
100
AcDbEntity
  8
0
100
AcDbLine
 62
7
  6
CONTINUOUS
 10
44.8192660272
 20
237.3530677847
 11
44.8403546944
 21
237.3713007505
  0
LINE
  5
3EE
100
AcDbEntity
  8
0
100
AcDbLine
 62
7
  6
CONTINUOUS
 10
42.7333822543
 20
237.3727486334
 11
42.7637333536
 21
237.3924294821
  0
LINE
  5
3EF
100
AcDbEntity
  8
0
100
AcDbLine
 62
7
  6
CONTINUOUS
 10
42.9071470526
 20
237.3727486334
 11
42.9326872361
 21
237.3893098948
  0
LINE
  5
3F0
100
AcDbEntity
  8
0
100
AcDbLine
 62
7
  6
CONTINUOUS
 10
43.8108461552
 20
237.471152877
 11
43.7804950884
 21
237.4514720283
  0
LINE
  5
3F1
100
AcDbEntity
  8
0
100
AcDbLine
 62
7
  6
CONTINUOUS
 10
42.9458399278
 20
236.8807273621
 11
43.0065421047
 21
236.9200890647
  0
LINE
  5
3F2
100
AcDbEntity
  8
0
100
AcDbLine
 62
7
  6
CONTINUOUS
 10
43.826021732
 20
237.3727486334
 11
43.8563727987
 21
237.3924294821
  0
LINE
  5
3F3
100
AcDbEntity
  8
0
100
AcDbLine
 62
7
  6
CONTINUOUS
 10
43.1196047261
 20
236.8807273621
 11
43.180306903
 21
236.9200890647
  0
LINE
  5
3F4
100
AcDbEntity
  8
0
100
AcDbLine
 62
7
  6
CONTINUOUS
 10
43.9997865302
 20
237.3727486334
 11
44.030137597
 21
237.3924294821
  0
LINE
  5
3F5
100
AcDbEntity
  8
0
100
AcDbLine
 62
7
  6
CONTINUOUS
 10
43.8563727987
 20
237.2546635411
 11
43.7956705784
 21
237.2153018437
  0
LINE
  5
3F6
100
AcDbEntity
  8
0
100
AcDbLine
 62
7
  6
CONTINUOUS
 10
43.8563727987
 20
237.15625927
 11
43.8867238655
 21
237.1759401187
  0
LINE
  5
3F7
100
AcDbEntity
  8
0
100
AcDbLine
 62
7
  6
CONTINUOUS
 10
44.030137597
 20
237.15625927
 11
44.0604886637
 21
237.1759401187
  0
LINE
  5
3F8
100
AcDbEntity
  8
0
100
AcDbLine
 62
7
  6
CONTINUOUS
 10
45.1766454615
 20
237.471152877
 11
45.115943328
 21
237.4317911796
  0
LINE
  5
3F9
100
AcDbEntity
  8
0
100
AcDbLine
 62
7
  6
CONTINUOUS
 10
45.1766454615
 20
237.3727486334
 11
45.2069966151
 21
237.3924294821
  0
LINE
  5
3FA
100
AcDbEntity
  8
0
100
AcDbLine
 62
7
  6
CONTINUOUS
 10
45.3504102598
 20
237.3727486334
 11
45.3807614134
 21
237.3924294821
  0
LINE
  5
3FB
100
AcDbEntity
  8
0
100
AcDbLine
 62
7
  6
CONTINUOUS
 10
42.5968023278
 20
237.0578550264
 11
42.627153423
 21
236.9791316177
  0
LINE
  5
3FC
100
AcDbEntity
  8
0
100
AcDbLine
 62
7
  6
CONTINUOUS
 10
42.6878556108
 20
237.0381741777
 11
42.6575045169
 21
237.1365784212
  0
LINE
  5
3FD
100
AcDbEntity
  8
0
100
AcDbLine
 62
7
  6
CONTINUOUS
 10
42.8616204091
 20
237.0381741777
 11
42.8312693152
 21
237.1365784212
  0
LINE
  5
3FE
100
AcDbEntity
  8
0
100
AcDbLine
 62
7
  6
CONTINUOUS
 10
42.976191038
 20
237.3530677847
 11
42.9913665714
 21
237.2940252386
  0
LINE
  5
3FF
100
AcDbEntity
  8
0
100
AcDbLine
 62
7
  6
CONTINUOUS
 10
44.11435717
 20
236.959450769
 11
44.12953266
 21
236.9004082125
  0
LINE
  5
400
100
AcDbEntity
  8
0
100
AcDbLine
 62
7
  6
CONTINUOUS
 10
44.2205859471
 20
236.8610465116
 11
44.2054104571
 21
236.9200890647
  0
LINE
  5
401
100
AcDbEntity
  8
0
100
AcDbLine
 62
7
  6
CONTINUOUS
 10
44.1902347935
 20
237.333386936
 11
44.1750593035
 21
237.3924294821
  0
LINE
  5
402
100
AcDbEntity
  8
0
100
AcDbLine
 62
7
  6
CONTINUOUS
 10
43.0672443251
 20
237.2940252386
 11
43.0520687483
 21
237.3727486334
  0
LINE
  5
403
100
AcDbEntity
  8
0
100
AcDbLine
 62
7
  6
CONTINUOUS
 10
43.5225107171
 20
237.333386936
 11
43.5376862939
 21
237.2546635411
  0
LINE
  5
404
100
AcDbEntity
  8
0
100
AcDbLine
 62
7
  6
CONTINUOUS
 10
43.7349684449
 20
237.0381741777
 11
43.7501439348
 21
236.959450769
  0
LINE
  5
405
100
AcDbEntity
  8
0
100
AcDbLine
 62
7
  6
CONTINUOUS
 10
43.6135640042
 20
237.2546635411
 11
43.5983885142
 21
237.3530677847
  0
LINE
  5
406
100
AcDbEntity
  8
0
100
AcDbLine
 62
7
  6
CONTINUOUS
 10
43.7873288025
 20
237.2546635411
 11
43.7751884105
 21
237.333386936
  0
LINE
  5
407
100
AcDbEntity
  8
0
100
AcDbLine
 62
7
  6
CONTINUOUS
 10
44.2054104571
 20
236.9200890647
 11
44.1902347935
 21
237.0184933152
  0
LINE
  5
408
100
AcDbEntity
  8
0
100
AcDbLine
 62
7
  6
CONTINUOUS
 10
44.8731344466
 20
237.333386936
 11
44.8883101103
 21
237.2349826924
  0
LINE
  5
409
100
AcDbEntity
  8
0
100
AcDbLine
 62
7
  6
CONTINUOUS
 10
44.9641877337
 20
237.2349826924
 11
44.9490122438
 21
237.333386936
  0
LWPOLYLINE
  5
40A
100
AcDbEntity
  8
2_FEATURE
100
AcDbPolyline
 62
7
  6
CONTINUOUS
 90
9
 70
0
 10
48.7558143219
 20
229.9893272187
 10
48.7560925747
 20
229.9465298996
 10
48.7670594277
 20
229.7194369776
 10
48.7937782253
 20
229.495616397
 10
48.8361868859
 20
229.2742805476
 10
48.8945219536
 20
229.0546551511
 10
48.9693389286
 20
228.8359834689
 10
49.0614821491
 20
228.6176237795
 10
49.1724329476
 20
228.398385689
  0
LINE
  5
40B
100
AcDbEntity
  8
0
100
AcDbLine
 62
7
  6
CONTINUOUS
 10
48.7558139556
 20
229.9890078845
 11
48.7558139652
 21
229.9893266674
  0
LINE
  5
40C
100
AcDbEntity
  8
2_FEATURE
100
AcDbLine
 62
7
  6
CONTINUOUS
 10
48.7558139535
 20
229.9901658643
 11
48.7558139535
 21
233.7610465116
  0
LINE
  5
40D
100
AcDbEntity
  8
2_FEATURE
100
AcDbLine
 62
7
  6
CONTINUOUS
 10
48.7558139535
 20
244.1610465116
 11
48.7558139535
 21
247.9319271908
  0
LINE
  5
40E
100
AcDbEntity
  8
0
100
AcDbLine
 62
7
  6
CONTINUOUS
 10
48.7558139652
 20
247.9327663594
 11
48.7558139556
 21
247.9330852731
  0
LWPOLYLINE
  5
40F
100
AcDbEntity
  8
0
100
AcDbPolyline
 62
7
  6
CONTINUOUS
 90
16
 70
0
 10
51.7499491132
 20
235.6373556675
 10
51.6716510899
 20
235.5163429375
 10
51.5941551148
 20
235.4046320465
 10
51.5182481218
 20
235.3025639323
 10
51.4445575411
 20
235.2101719524
 10
51.3737430055
 20
235.1274689524
 10
51.3063751953
 20
235.0543005893
 10
51.2430101902
 20
234.9904480307
 10
51.1842002367
 20
234.93563415
 10
51.1305198313
 20
234.8895365082
 10
51.0822721985
 20
234.8515518171
 10
51.0398747144
 20
234.8211426856
 10
51.0034483491
 20
234.7975357083
 10
50.973176631
 20
234.7800069631
 10
50.9494862946
 20
234.7679348246
 10
50.9465345722
 20
234.766555545
  0
LINE
  5
410
100
AcDbEntity
  8
0
100
AcDbLine
 62
7
  6
CONTINUOUS
 10
45.4801564763
 20
236.9791316177
 11
45.4498053227
 21
236.959450769
  0
LINE
  5
411
100
AcDbEntity
  8
0
100
AcDbLine
 62
7
  6
CONTINUOUS
 10
45.4801564763
 20
236.8807273621
 11
45.5408586098
 21
236.9200890647
  0
LINE
  5
412
100
AcDbEntity
  8
0
100
AcDbLine
 62
7
  6
CONTINUOUS
 10
45.6539212746
 20
236.8807273621
 11
45.7146234081
 21
236.9200890647
  0
LINE
  5
413
100
AcDbEntity
  8
0
100
AcDbLine
 62
7
  6
CONTINUOUS
 10
44.0536548628
 20
236.9791316177
 11
43.9777771525
 21
236.9397699134
  0
LINE
  5
414
100
AcDbEntity
  8
0
100
AcDbLine
 62
7
  6
CONTINUOUS
 10
42.7485578094
 20
237.471152877
 11
42.7030311659
 21
237.4514720283
  0
LINE
  5
415
100
AcDbEntity
  8
0
100
AcDbLine
 62
7
  6
CONTINUOUS
 10
43.5983885142
 20
237.3530677847
 11
43.5832129374
 21
237.3924294821
  0
LINE
  5
416
100
AcDbEntity
  8
0
100
AcDbLine
 62
7
  6
CONTINUOUS
 10
43.826021732
 20
236.9791316177
 11
43.8108461552
 21
237.0184933152
  0
LINE
  5
417
100
AcDbEntity
  8
0
100
AcDbLine
 62
7
  6
CONTINUOUS
 10
43.9997865302
 20
236.9791316177
 11
43.9846109535
 21
237.0184933152
  0
LINE
  5
418
100
AcDbEntity
  8
0
100
AcDbLine
 62
7
  6
CONTINUOUS
 10
44.12953266
 20
236.9004082125
 11
44.1447081499
 21
236.8610465116
  0
LINE
  5
419
100
AcDbEntity
  8
0
100
AcDbLine
 62
7
  6
CONTINUOUS
 10
44.0991815064
 20
237.3727486334
 11
44.11435717
 21
237.333386936
  0
LINE
  5
41A
100
AcDbEntity
  8
0
100
AcDbLine
 62
7
  6
CONTINUOUS
 10
45.0855921744
 20
237.0184933152
 11
45.115943328
 21
236.9397699134
  0
LINE
  5
41B
100
AcDbEntity
  8
0
100
AcDbLine
 62
7
  6
CONTINUOUS
 10
45.1766454615
 20
236.9791316177
 11
45.1614699715
 21
237.0184933152
  0
LINE
  5
41C
100
AcDbEntity
  8
0
100
AcDbLine
 62
7
  6
CONTINUOUS
 10
45.0855921744
 20
237.333386936
 11
45.115943328
 21
237.2546635411
  0
LINE
  5
41D
100
AcDbEntity
  8
0
100
AcDbLine
 62
7
  6
CONTINUOUS
 10
45.1766454615
 20
237.2940252386
 11
45.1614699715
 21
237.333386936
  0
LINE
  5
41E
100
AcDbEntity
  8
0
100
AcDbLine
 62
7
  6
CONTINUOUS
 10
45.3504102598
 20
236.9791316177
 11
45.3352347698
 21
237.0184933152
  0
LINE
  5
41F
100
AcDbEntity
  8
0
100
AcDbLine
 62
7
  6
CONTINUOUS
 10
45.3504102598
 20
237.2940252386
 11
45.3352347698
 21
237.333386936
  0
LINE
  5
420
100
AcDbEntity
  8
0
100
AcDbLine
 62
7
  6
CONTINUOUS
 10
45.4801564763
 20
237.0578550264
 11
45.4953319663
 21
237.0184933152
  0
LINE
  5
421
100
AcDbEntity
  8
0
100
AcDbLine
 62
7
  6
CONTINUOUS
 10
45.5712095898
 20
237.0184933152
 11
45.5408586098
 21
237.0972167238
  0
LINE
  5
422
100
AcDbEntity
  8
0
100
AcDbLine
 62
7
  6
CONTINUOUS
 10
45.4801564763
 20
237.3727486334
 11
45.4953319663
 21
237.333386936
  0
LINE
  5
423
100
AcDbEntity
  8
0
100
AcDbLine
 62
7
  6
CONTINUOUS
 10
45.5712095898
 20
237.333386936
 11
45.5408586098
 21
237.4121103309
  0
LINE
  5
424
100
AcDbEntity
  8
0
100
AcDbLine
 62
7
  6
CONTINUOUS
 10
45.744974388
 20
237.0184933152
 11
45.7146234081
 21
237.0972167238
  0
LINE
  5
425
100
AcDbEntity
  8
0
100
AcDbLine
 62
7
  6
CONTINUOUS
 10
45.744974388
 20
237.333386936
 11
45.7146234081
 21
237.4121103309
  0
LINE
  5
426
100
AcDbEntity
  8
0
100
AcDbLine
 62
7
  6
CONTINUOUS
 10
44.9490122438
 20
237.333386936
 11
44.9338367538
 21
237.3924294821
  0
LINE
  5
427
100
AcDbEntity
  8
0
100
AcDbLine
 62
7
  6
CONTINUOUS
 10
42.7637333536
 20
237.3924294821
 11
42.8244355523
 21
237.4121103309
  0
LINE
  5
428
100
AcDbEntity
  8
0
100
AcDbLine
 62
7
  6
CONTINUOUS
 10
43.4011063633
 20
237.4908337257
 11
43.3404041429
 21
237.471152877
  0
LINE
  5
429
100
AcDbEntity
  8
0
100
AcDbLine
 62
7
  6
CONTINUOUS
 10
43.3404041429
 20
237.3924294821
 11
43.4011063633
 21
237.4121103309
  0
LINE
  5
42A
100
AcDbEntity
  8
0
100
AcDbLine
 62
7
  6
CONTINUOUS
 10
43.8563727987
 20
237.3924294821
 11
43.917075019
 21
237.4121103309
  0
LINE
  5
42B
100
AcDbEntity
  8
0
100
AcDbLine
 62
7
  6
CONTINUOUS
 10
44.030137597
 20
237.3924294821
 11
44.0494840617
 21
237.3987019849
  0
LINE
  5
42C
100
AcDbEntity
  8
0
100
AcDbLine
 62
7
  6
CONTINUOUS
 10
44.7517301796
 20
237.4908337257
 11
44.6910278725
 21
237.471152877
  0
LINE
  5
42D
100
AcDbEntity
  8
0
100
AcDbLine
 62
7
  6
CONTINUOUS
 10
43.8867238655
 20
237.1759401187
 11
43.9474260858
 21
237.1956209674
  0
LINE
  5
42E
100
AcDbEntity
  8
0
100
AcDbLine
 62
7
  6
CONTINUOUS
 10
44.6910278725
 20
237.3924294821
 11
44.7517301796
 21
237.4121103309
  0
LINE
  5
42F
100
AcDbEntity
  8
0
100
AcDbLine
 62
7
  6
CONTINUOUS
 10
44.0604886637
 20
237.1759401187
 11
44.1150071897
 21
237.1936160926
  0
LINE
  5
430
100
AcDbEntity
  8
0
100
AcDbLine
 62
7
  6
CONTINUOUS
 10
45.2069966151
 20
237.3924294821
 11
45.2676987486
 21
237.4121103309
  0
LINE
  5
431
100
AcDbEntity
  8
0
100
AcDbLine
 62
7
  6
CONTINUOUS
 10
45.3807614134
 20
237.3924294821
 11
45.4083789613
 21
237.4013836449
  0
LINE
  5
432
100
AcDbEntity
  8
0
100
AcDbLine
 62
7
  6
CONTINUOUS
 10
45.4498053227
 20
236.959450769
 11
45.3891031892
 21
236.9397699134
  0
LINE
  5
433
100
AcDbEntity
  8
0
100
AcDbLine
 62
7
  6
CONTINUOUS
 10
42.627153423
 20
236.9791316177
 11
42.6575045169
 21
236.9397699134
  0
LINE
  5
434
100
AcDbEntity
  8
0
100
AcDbLine
 62
7
  6
CONTINUOUS
 10
42.7333822543
 20
236.9791316177
 11
42.6878556108
 21
237.0381741777
  0
LINE
  5
435
100
AcDbEntity
  8
0
100
AcDbLine
 62
7
  6
CONTINUOUS
 10
42.9071470526
 20
236.9791316177
 11
42.8616204091
 21
237.0381741777
  0
LINE
  5
436
100
AcDbEntity
  8
0
100
AcDbLine
 62
7
  6
CONTINUOUS
 10
49.2420175558
 20
228.277296613
 11
49.241356995
 21
228.2783982672
  0
LINE
  5
437
100
AcDbEntity
  8
2_FEATURE
100
AcDbLine
 62
7
  6
CONTINUOUS
 10
49.1724329476
 20
228.398385689
 11
49.2420201598
 21
228.2772926811
  0
LINE
  5
438
100
AcDbEntity
  8
0
100
AcDbLine
 62
7
  6
CONTINUOUS
 10
50.9496016115
 20
234.7679895684
 11
50.9397230604
 21
234.76350038
  0
LINE
  5
439
100
AcDbEntity
  8
0
100
AcDbLine
 62
7
  6
CONTINUOUS
 10
43.0520687483
 20
237.3727486334
 11
43.0065421047
 21
237.4317911796
  0
LINE
  5
43A
100
AcDbEntity
  8
0
100
AcDbLine
 62
7
  6
CONTINUOUS
 10
43.1886486789
 20
237.4209729059
 11
43.180306903
 21
237.4317911796
  0
LINE
  5
43B
100
AcDbEntity
  8
0
100
AcDbLine
 62
7
  6
CONTINUOUS
 10
43.7501439348
 20
236.959450769
 11
43.7956705784
 21
236.9004082125
  0
LINE
  5
43C
100
AcDbEntity
  8
0
100
AcDbLine
 62
7
  6
CONTINUOUS
 10
43.4921596503
 20
237.3727486334
 11
43.5225107171
 21
237.333386936
  0
LINE
  5
43D
100
AcDbEntity
  8
0
100
AcDbLine
 62
7
  6
CONTINUOUS
 10
43.5832129374
 20
237.3924294821
 11
43.5528618707
 21
237.4317911796
  0
LINE
  5
43E
100
AcDbEntity
  8
0
100
AcDbLine
 62
7
  6
CONTINUOUS
 10
43.7473633626
 20
237.4048981722
 11
43.726626669
 21
237.4317911796
  0
LINE
  5
43F
100
AcDbEntity
  8
0
100
AcDbLine
 62
7
  6
CONTINUOUS
 10
44.1750593035
 20
237.3924294821
 11
44.1447081499
 21
237.4317911796
  0
LINE
  5
440
100
AcDbEntity
  8
0
100
AcDbLine
 62
7
  6
CONTINUOUS
 10
44.3419903877
 20
237.4012919652
 11
44.3184729482
 21
237.4317911796
  0
LINE
  5
441
100
AcDbEntity
  8
0
100
AcDbLine
 62
7
  6
CONTINUOUS
 10
44.8427834667
 20
237.3727486334
 11
44.8731344466
 21
237.333386936
  0
LINE
  5
442
100
AcDbEntity
  8
0
100
AcDbLine
 62
7
  6
CONTINUOUS
 10
44.9338367538
 20
237.3924294821
 11
44.9034856002
 21
237.4317911796
  0
LINE
  5
443
100
AcDbEntity
  8
0
100
AcDbLine
 62
7
  6
CONTINUOUS
 10
45.1004661562
 20
237.4016832093
 11
45.0772503985
 21
237.4317911796
  0
LINE
  5
444
100
AcDbEntity
  8
0
100
AcDbLine
 62
7
  6
CONTINUOUS
 10
42.6575045169
 20
236.9397699134
 11
42.7030311659
 21
236.9004082125
  0
LINE
  5
445
100
AcDbEntity
  8
0
100
AcDbLine
 62
7
  6
CONTINUOUS
 10
42.9306643727
 20
237.3924294821
 11
42.976191038
 21
237.3530677847
  0
LINE
  5
446
100
AcDbEntity
  8
0
100
AcDbLine
 62
7
  6
CONTINUOUS
 10
43.5528618707
 20
237.4317911796
 11
43.5073352271
 21
237.471152877
  0
LINE
  5
447
100
AcDbEntity
  8
0
100
AcDbLine
 62
7
  6
CONTINUOUS
 10
43.726626669
 20
237.4317911796
 11
43.6811000254
 21
237.471152877
  0
LINE
  5
448
100
AcDbEntity
  8
0
100
AcDbLine
 62
7
  6
CONTINUOUS
 10
45.115943328
 20
237.2546635411
 11
45.1766454615
 21
237.1956209674
  0
LINE
  5
449
100
AcDbEntity
  8
0
100
AcDbLine
 62
7
  6
CONTINUOUS
 10
45.5408586098
 20
237.0972167238
 11
45.4801564763
 21
237.15625927
  0
LINE
  5
44A
100
AcDbEntity
  8
0
100
AcDbLine
 62
7
  6
CONTINUOUS
 10
45.7146234081
 20
237.0972167238
 11
45.6539212746
 21
237.15625927
  0
LINE
  5
44B
100
AcDbEntity
  8
0
100
AcDbLine
 62
7
  6
CONTINUOUS
 10
82.5624226925
 20
243.1542884361
 11
82.5721319685
 21
243.1586912189
  0
LINE
  5
44C
100
AcDbEntity
  8
0
100
AcDbLine
 62
7
  6
CONTINUOUS
 10
43.7956705784
 20
236.9004082125
 11
43.826021732
 21
236.8807273621
  0
LINE
  5
44D
100
AcDbEntity
  8
0
100
AcDbLine
 62
7
  6
CONTINUOUS
 10
44.1447081499
 20
237.4317911796
 11
44.0991815064
 21
237.471152877
  0
LINE
  5
44E
100
AcDbEntity
  8
0
100
AcDbLine
 62
7
  6
CONTINUOUS
 10
44.3184729482
 20
237.4317911796
 11
44.2729463047
 21
237.471152877
  0
LINE
  5
44F
100
AcDbEntity
  8
0
100
AcDbLine
 62
7
  6
CONTINUOUS
 10
45.115943328
 20
236.9397699134
 11
45.1614699715
 21
236.9004082125
  0
LINE
  5
450
100
AcDbEntity
  8
0
100
AcDbLine
 62
7
  6
CONTINUOUS
 10
44.9034856002
 20
237.4317911796
 11
44.8579589567
 21
237.471152877
  0
LINE
  5
451
100
AcDbEntity
  8
0
100
AcDbLine
 62
7
  6
CONTINUOUS
 10
45.222172105
 20
237.2546635411
 11
45.1766454615
 21
237.2940252386
  0
LINE
  5
452
100
AcDbEntity
  8
0
100
AcDbLine
 62
7
  6
CONTINUOUS
 10
45.4346298328
 20
237.0972167238
 11
45.4801564763
 21
237.0578550264
  0
LINE
  5
453
100
AcDbEntity
  8
0
100
AcDbLine
 62
7
  6
CONTINUOUS
 10
45.0772503985
 20
237.4317911796
 11
45.031723755
 21
237.471152877
  0
LINE
  5
454
100
AcDbEntity
  8
0
100
AcDbLine
 62
7
  6
CONTINUOUS
 10
45.3959369033
 20
237.2546635411
 11
45.3504102598
 21
237.2940252386
  0
LINE
  5
455
100
AcDbEntity
  8
0
100
AcDbLine
 62
7
  6
CONTINUOUS
 10
45.5408586098
 20
237.4121103309
 11
45.4953319663
 21
237.4514720283
  0
LINE
  5
456
100
AcDbEntity
  8
0
100
AcDbLine
 62
7
  6
CONTINUOUS
 10
45.7146234081
 20
237.4121103309
 11
45.6690967646
 21
237.4514720283
  0
LINE
  5
457
100
AcDbEntity
  8
0
100
AcDbLine
 62
7
  6
CONTINUOUS
 10
51.738455961
 20
242.3030344035
 11
51.8293841841
 21
242.152962673
  0
LWPOLYLINE
  5
458
100
AcDbEntity
  8
0
100
AcDbPolyline
 62
7
  6
CONTINUOUS
 90
38
 70
0
 10
51.8293841841
 20
242.152962673
 10
51.9070263356
 20
242.0145579087
 10
51.983242538
 20
241.8683953665
 10
52.0573750874
 20
241.7151108298
 10
52.1287484746
 20
241.555540741
 10
52.1969140549
 20
241.3901801393
 10
52.2613911904
 20
241.2197062917
 10
52.3218233519
 20
241.0446192525
 10
52.3778643759
 20
240.8654825703
 10
52.4292148868
 20
240.6828734446
 10
52.4756031611
 20
240.4974178042
 10
52.5168448593
 20
240.3095909902
 10
52.552761894
 20
240.120004547
 10
52.5832861155
 20
239.9288724631
 10
52.6083424459
 20
239.7365097162
 10
52.6278772229
 20
239.543159919
 10
52.641850803
 20
239.3490754203
 10
52.6502298755
 20
239.154501025
 10
52.6530001173
 20
238.9596749311
 10
52.6501507889
 20
238.7648500335
 10
52.6416927494
 20
238.570279079
 10
52.627640304
 20
238.3762009086
 10
52.6080271372
 20
238.1828607854
 10
52.5828928595
 20
237.9905116534
 10
52.5522916889
 20
237.7993975314
 10
52.5162987714
 20
237.6098341853
 10
52.4749828757
 20
237.4220358319
 10
52.428522569
 20
237.2366154141
 10
52.3771031207
 20
237.0540489244
 10
52.3209970343
 20
236.8749635021
 10
52.2605047574
 20
236.6999370626
 10
52.1959734469
 20
236.5295338749
 10
52.1277607375
 20
236.3642547935
 10
52.0563481215
 20
236.2047764703
 10
51.9821852157
 20
236.0515943638
 10
51.9059474926
 20
235.9055422553
 10
51.8282925342
 20
235.7672543406
 10
51.7384551554
 20
235.6190573572
  0
LWPOLYLINE
  5
459
100
AcDbEntity
  8
0
100
AcDbPolyline
 62
7
  6
CONTINUOUS
 90
41
 70
0
 10
51.7831981217
 20
242.2285169506
 10
51.8353447986
 20
242.1315388836
 10
51.8845576496
 20
242.0283606614
 10
51.9310389413
 20
241.9186205286
 10
51.9748792565
 20
241.8020963759
 10
52.0161548715
 20
241.6785173404
 10
52.0549133725
 20
241.5476155048
 10
52.0912040673
 20
241.4090302107
 10
52.1250763085
 20
241.2622633378
 10
52.1564660099
 20
241.1072351186
 10
52.1853859553
 20
240.9434942005
 10
52.2116657835
 20
240.771649699
 10
52.235238285
 20
240.5920926125
 10
52.2560456853
 20
240.4053874376
 10
52.2740648172
 20
240.2120667434
 10
52.2892835026
 20
240.0129701622
 10
52.3016963864
 20
239.8089164437
 10
52.311325346
 20
239.6008634901
 10
52.3181863736
 20
239.3898099162
 10
52.3222977737
 20
239.1767253921
 10
52.3236847148
 20
238.9626182148
 10
52.3223378248
 20
238.7485031219
 10
52.3182664153
 20
238.5353946913
 10
52.3114458439
 20
238.3243023019
 10
52.3018573652
 20
238.1161965766
 10
52.2894854931
 20
237.9120771459
 10
52.2743079752
 20
237.7129030388
 10
52.256330058
 20
237.5194939348
 10
52.2355638463
 20
237.3326908242
 10
52.2120318199
 20
237.1530266004
 10
52.1857913336
 20
236.9810654595
 10
52.1569093439
 20
236.8172023243
 10
52.1255556837
 20
236.6620478295
 10
52.0917186459
 20
236.5151566045
 10
52.0554636946
 20
236.3764548184
 10
52.0167415874
 20
236.2454424982
 10
51.9755035632
 20
236.1217590488
 10
51.9317023772
 20
236.0051358259
 10
51.8852622086
 20
235.8953014315
 10
51.8360934915
 20
235.7920341254
 10
51.7839949661
 20
235.6949722448
  0
LINE
  5
45A
100
AcDbEntity
  8
0
100
AcDbLine
 62
7
  6
CONTINUOUS
 10
43.0065421047
 20
237.4317911796
 11
42.9458399278
 21
237.471152877
  0
LINE
  5
45B
100
AcDbEntity
  8
0
100
AcDbLine
 62
7
  6
CONTINUOUS
 10
43.8867238655
 20
236.9397699134
 11
43.826021732
 21
236.9791316177
  0
LINE
  5
45C
100
AcDbEntity
  8
0
100
AcDbLine
 62
7
  6
CONTINUOUS
 10
43.180306903
 20
237.4317911796
 11
43.1196047261
 21
237.471152877
  0
LINE
  5
45D
100
AcDbEntity
  8
0
100
AcDbLine
 62
7
  6
CONTINUOUS
 10
44.0237280038
 20
236.9636070035
 11
43.9997865302
 21
236.9791316177
  0
LINE
  5
45E
100
AcDbEntity
  8
0
100
AcDbLine
 62
7
  6
CONTINUOUS
 10
43.4618085836
 20
237.3924294821
 11
43.4921596503
 21
237.3727486334
  0
LINE
  5
45F
100
AcDbEntity
  8
0
100
AcDbLine
 62
7
  6
CONTINUOUS
 10
44.0688305265
 20
237.3924294821
 11
44.0991815064
 21
237.3727486334
  0
LINE
  5
460
100
AcDbEntity
  8
0
100
AcDbLine
 62
7
  6
CONTINUOUS
 10
45.2069966151
 20
236.959450769
 11
45.1766454615
 21
236.9791316177
  0
LINE
  5
461
100
AcDbEntity
  8
0
100
AcDbLine
 62
7
  6
CONTINUOUS
 10
45.3807614134
 20
236.959450769
 11
45.3504102598
 21
236.9791316177
  0
LINE
  5
462
100
AcDbEntity
  8
0
100
AcDbLine
 62
7
  6
CONTINUOUS
 10
44.8124323131
 20
237.3924294821
 11
44.8427834667
 21
237.3727486334
  0
LINE
  5
463
100
AcDbEntity
  8
0
100
AcDbLine
 62
7
  6
CONTINUOUS
 10
45.4498053227
 20
237.3924294821
 11
45.4801564763
 21
237.3727486334
  0
LINE
  5
464
100
AcDbEntity
  8
DEFAULT_1
100
AcDbLine
 62
2
  6
CENTER
 10
66.7558139535
 20
253.7538693953
 11
66.7558139535
 21
240.9611465116
  0
LINE
  5
465
100
AcDbEntity
  8
0
100
AcDbLine
 62
2
  6
CONTINUOUS
 10
66.7558139535
 20
239.8410465116
 11
66.7558139535
 21
238.0810465116
  0
LINE
  5
466
100
AcDbEntity
  8
DEFAULT_1
100
AcDbLine
 62
2
  6
CENTER
 10
66.7558139535
 20
224.0221484651
 11
66.7558139535
 21
236.9609465116
  0
LINE
  5
467
100
AcDbEntity
  8
0
100
AcDbLine
 62
7
  6
CONTINUOUS
 10
89.1799016757
 20
242.4610465116
 11
89.0779834848
 21
242.397216732
  0
LINE
  5
468
100
AcDbEntity
  8
0
100
AcDbLine
 62
7
  6
CONTINUOUS
 10
89.353666474
 20
242.4610465116
 11
89.2517482831
 21
242.397216732
  0
LINE
  5
469
100
AcDbEntity
  8
0
100
AcDbLine
 62
7
  6
CONTINUOUS
 10
89.9103154096
 20
242.4610465116
 11
89.7914107239
 21
242.397216732
  0
LINE
  5
46A
100
AcDbEntity
  8
0
100
AcDbLine
 62
7
  6
CONTINUOUS
 10
90.0840802079
 20
242.4610465116
 11
89.9651755222
 21
242.397216732
  0
LINE
  5
46B
100
AcDbEntity
  8
2_FEATURE
100
AcDbLine
 62
7
  6
CONTINUOUS
 10
82.5626979301
 20
226.4610465116
 11
50.9644741856
 21
226.4610465116
  0
LINE
  5
46C
100
AcDbEntity
  8
0
100
AcDbLine
 62
7
  6
CONTINUOUS
 10
41.1558139535
 20
226.4610465116
 11
92.3558139535
 21
226.4610465116
  0
LINE
  5
46D
100
AcDbEntity
  8
0
100
AcDbLine
 62
7
  6
CONTINUOUS
 10
42.7030311659
 20
236.9004082125
 11
42.7485578094
 21
236.8807273621
  0
LINE
  5
46E
100
AcDbEntity
  8
0
100
AcDbLine
 62
7
  6
CONTINUOUS
 10
42.8244355523
 20
236.9397699134
 11
42.7333822543
 21
236.9791316177
  0
LINE
  5
46F
100
AcDbEntity
  8
0
100
AcDbLine
 62
7
  6
CONTINUOUS
 10
42.9380008156
 20
236.9657937516
 11
42.9071470526
 21
236.9791316177
  0
LINE
  5
470
100
AcDbEntity
  8
0
100
AcDbLine
 62
7
  6
CONTINUOUS
 10
43.5073352271
 20
237.471152877
 11
43.4618085836
 21
237.4908337257
  0
LINE
  5
471
100
AcDbEntity
  8
0
100
AcDbLine
 62
7
  6
CONTINUOUS
 10
43.6811000254
 20
237.471152877
 11
43.6355733819
 21
237.4908337257
  0
LINE
  5
472
100
AcDbEntity
  8
0
100
AcDbLine
 62
7
  6
CONTINUOUS
 10
45.1614699715
 20
236.9004082125
 11
45.2069966151
 21
236.8807273621
  0
LINE
  5
473
100
AcDbEntity
  8
0
100
AcDbLine
 62
7
  6
CONTINUOUS
 10
44.8579589567
 20
237.471152877
 11
44.8124323131
 21
237.4908337257
  0
LINE
  5
474
100
AcDbEntity
  8
0
100
AcDbLine
 62
7
  6
CONTINUOUS
 10
45.031723755
 20
237.471152877
 11
44.9861971114
 21
237.4908337257
  0
LINE
  5
475
100
AcDbEntity
  8
0
100
AcDbLine
 62
7
  6
CONTINUOUS
 10
45.4953319663
 20
237.4514720283
 11
45.4498053227
 21
237.471152877
  0
LINE
  5
476
100
AcDbEntity
  8
0
100
AcDbLine
 62
7
  6
CONTINUOUS
 10
45.6690967646
 20
237.4514720283
 11
45.623570121
 21
237.471152877
  0
LINE
  5
477
100
AcDbEntity
  8
0
100
AcDbLine
 62
7
  6
CONTINUOUS
 10
89.2687345835
 20
242.0780678339
 11
89.353666474
 21
242.1418976135
  0
LINE
  5
478
100
AcDbEntity
  8
0
100
AcDbLine
 62
7
  6
CONTINUOUS
 10
89.982162017
 20
242.0780678339
 11
90.0670937131
 21
242.1418976135
  0
LINE
  5
479
100
AcDbEntity
  8
0
100
AcDbLine
 62
7
  6
CONTINUOUS
 10
89.353666474
 20
239.4610465116
 11
89.4555846649
 21
239.5248762968
  0
LINE
  5
47A
100
AcDbEntity
  8
0
100
AcDbLine
 62
7
  6
CONTINUOUS
 10
43.826021732
 20
236.8807273621
 11
43.8867238655
 21
236.8610465116
  0
LINE
  5
47B
100
AcDbEntity
  8
0
100
AcDbLine
 62
7
  6
CONTINUOUS
 10
43.4011063633
 20
237.4121103309
 11
43.4618085836
 21
237.3924294821
  0
LINE
  5
47C
100
AcDbEntity
  8
0
100
AcDbLine
 62
7
  6
CONTINUOUS
 10
44.0081283061
 20
237.4121103309
 11
44.0688305265
 21
237.3924294821
  0
LINE
  5
47D
100
AcDbEntity
  8
0
100
AcDbLine
 62
7
  6
CONTINUOUS
 10
44.7517301796
 20
237.4121103309
 11
44.8124323131
 21
237.3924294821
  0
LINE
  5
47E
100
AcDbEntity
  8
0
100
AcDbLine
 62
7
  6
CONTINUOUS
 10
45.1766454615
 20
237.1956209674
 11
45.4346298328
 21
237.0972167238
  0
LINE
  5
47F
100
AcDbEntity
  8
0
100
AcDbLine
 62
7
  6
CONTINUOUS
 10
45.4801564763
 20
237.15625927
 11
45.222172105
 21
237.2546635411
  0
LINE
  5
480
100
AcDbEntity
  8
0
100
AcDbLine
 62
7
  6
CONTINUOUS
 10
45.6539212746
 20
237.15625927
 11
45.3959369033
 21
237.2546635411
  0
LWPOLYLINE
  5
481
100
AcDbEntity
  8
0
100
AcDbPolyline
 62
7
  6
CONTINUOUS
 90
16
 70
0
 10
81.7604295559
 20
242.282737138
 10
81.8387277917
 20
242.4038853245
 10
81.9162392255
 20
242.5157431311
 10
81.9921789975
 20
242.6179694862
 10
82.0659168575
 20
242.7105247748
 10
82.1367917773
 20
242.7933924757
 10
82.2042294275
 20
242.8667214525
 10
82.2676701884
 20
242.9307262998
 10
82.3265599285
 20
242.9856822058
 10
82.3803194838
 20
243.031907759
 10
82.4286522156
 20
243.0700122898
 10
82.4711464745
 20
243.1005364141
 10
82.5076759811
 20
243.1242486002
 10
82.5380548646
 20
243.1418705979
 10
82.5618537976
 20
243.1540220292
 10
82.5648216908
 20
243.1554118589
  0
LINE
  5
482
100
AcDbEntity
  8
0
100
AcDbLine
 62
7
  6
CONTINUOUS
 10
89.4385982674
 20
239.8440252341
 11
89.353666474
 21
239.7801954545
  0
LINE
  5
483
100
AcDbEntity
  8
0
100
AcDbLine
 62
7
  6
CONTINUOUS
 10
42.8244355523
 20
237.4121103309
 11
42.9306643727
 21
237.3924294821
  0
LINE
  5
484
100
AcDbEntity
  8
0
100
AcDbLine
 62
7
  6
CONTINUOUS
 10
42.9458399278
 20
237.471152877
 11
42.8396110856
 21
237.4908337257
  0
LINE
  5
485
100
AcDbEntity
  8
0
100
AcDbLine
 62
7
  6
CONTINUOUS
 10
43.1196047261
 20
237.471152877
 11
43.0133758839
 21
237.4908337257
  0
LINE
  5
486
100
AcDbEntity
  8
0
100
AcDbLine
 62
7
  6
CONTINUOUS
 10
42.7485578094
 20
236.8807273621
 11
42.8396110856
 21
236.8610465116
  0
LINE
  5
487
100
AcDbEntity
  8
0
100
AcDbLine
 62
7
  6
CONTINUOUS
 10
45.2069966151
 20
236.8807273621
 11
45.2980499022
 21
236.8610465116
  0
LINE
  5
488
100
AcDbEntity
  8
0
100
AcDbLine
 62
7
  6
CONTINUOUS
 10
45.2980499022
 20
236.9397699134
 11
45.2069966151
 21
236.959450769
  0
LINE
  5
489
100
AcDbEntity
  8
0
100
AcDbLine
 62
7
  6
CONTINUOUS
 10
45.4221877748
 20
236.9504966031
 11
45.3807614134
 21
236.959450769
  0
LINE
  5
48A
100
AcDbEntity
  8
0
100
AcDbLine
 62
7
  6
CONTINUOUS
 10
44.0991815064
 20
237.471152877
 11
44.0081283061
 21
237.4908337257
  0
LINE
  5
48B
100
AcDbEntity
  8
0
100
AcDbLine
 62
7
  6
CONTINUOUS
 10
44.2729463047
 20
237.471152877
 11
44.1818931044
 21
237.4908337257
  0
LINE
  5
48C
100
AcDbEntity
  8
0
100
AcDbLine
 62
7
  6
CONTINUOUS
 10
45.3587520357
 20
237.4121103309
 11
45.4498053227
 21
237.3924294821
  0
LINE
  5
48D
100
AcDbEntity
  8
0
100
AcDbLine
 62
7
  6
CONTINUOUS
 10
45.4498053227
 20
237.471152877
 11
45.3587520357
 21
237.4908337257
  0
LINE
  5
48E
100
AcDbEntity
  8
0
100
AcDbLine
 62
7
  6
CONTINUOUS
 10
45.623570121
 20
237.471152877
 11
45.532516834
 21
237.4908337257
  0
LINE
  5
48F
100
AcDbEntity
  8
0
100
AcDbLine
 62
7
  6
CONTINUOUS
 10
83.7558139535
 20
234.7610465116
 11
82.5778288791
 21
234.7610465116
  0
LINE
  5
490
100
AcDbEntity
  8
0
100
AcDbLine
 62
7
  6
CONTINUOUS
 10
49.7558139535
 20
234.7610465116
 11
50.9465345722
 21
234.7610465116
  0
LINE
  5
491
100
AcDbEntity
  8
0
100
AcDbLine
 62
7
  6
CONTINUOUS
 10
43.0133758839
 20
236.8610465116
 11
42.8396110856
 21
236.8610465116
  0
LINE
  5
492
100
AcDbEntity
  8
0
100
AcDbLine
 62
7
  6
CONTINUOUS
 10
43.1886486789
 20
236.8610465116
 11
43.4382912309
 21
236.8610465116
  0
LINE
  5
493
100
AcDbEntity
  8
0
100
AcDbLine
 62
7
  6
CONTINUOUS
 10
43.5376862939
 20
236.8610465116
 11
43.7873288025
 21
236.8610465116
  0
LINE
  5
494
100
AcDbEntity
  8
0
100
AcDbLine
 62
7
  6
CONTINUOUS
 10
43.8867238655
 20
236.8610465116
 11
44.7889150473
 21
236.8610465116
  0
LINE
  5
495
100
AcDbEntity
  8
0
100
AcDbLine
 62
7
  6
CONTINUOUS
 10
44.8883101103
 20
236.8610465116
 11
45.137952532
 21
236.8610465116
  0
LINE
  5
496
100
AcDbEntity
  8
0
100
AcDbLine
 62
7
  6
CONTINUOUS
 10
45.2980499022
 20
236.8610465116
 11
45.5628679875
 21
236.8610465116
  0
LWPOLYLINE
  5
497
100
AcDbEntity
  8
0
100
AcDbPolyline
 62
7
  6
CONTINUOUS
 90
3
 70
0
 10
50.9232317646
 20
243.1649940706
 10
50.9329598871
 20
243.1614232249
 10
50.9497935245
 20
243.1540128341
  0
LWPOLYLINE
  5
498
100
AcDbEntity
  8
0
100
AcDbPolyline
 62
7
  6
CONTINUOUS
 90
15
 70
0
 10
50.9493278484
 20
243.1542328109
 10
50.9735859951
 20
243.141863551
 10
51.0039539826
 20
243.1242473382
 10
51.0404727803
 20
243.1005423214
 10
51.0829578091
 20
243.0700257439
 10
51.131287901
 20
243.0319246531
 10
51.185043113
 20
242.9857044752
 10
51.2439162852
 20
242.9307664956
 10
51.307334333
 20
242.8667886255
 10
51.3747452442
 20
242.7934949282
 10
51.4455937852
 20
242.7106667926
 10
51.5193105107
 20
242.6181493299
 10
51.5952358976
 20
242.5159560002
 10
51.6727433281
 20
242.4041195174
 10
51.7510450761
 20
242.2829826748
  0
LINE
  5
499
100
AcDbEntity
  8
0
100
AcDbLine
 62
7
  6
CONTINUOUS
 10
45.6539212746
 20
236.8807273621
 11
45.4801564763
 21
236.8807273621
  0
LINE
  5
49A
100
AcDbEntity
  8
0
100
AcDbLine
 62
7
  6
CONTINUOUS
 10
44.1371204049
 20
236.8807273621
 11
44.0536548628
 21
236.8807273621
  0
LINE
  5
49B
100
AcDbEntity
  8
0
100
AcDbLine
 62
7
  6
CONTINUOUS
 10
43.1196047261
 20
236.8807273621
 11
42.9458399278
 21
236.8807273621
  0
LINE
  5
49C
100
AcDbEntity
  8
0
100
AcDbLine
 62
7
  6
CONTINUOUS
 10
45.7146234081
 20
236.9200890647
 11
45.5408586098
 21
236.9200890647
  0
LINE
  5
49D
100
AcDbEntity
  8
0
100
AcDbLine
 62
7
  6
CONTINUOUS
 10
44.3419903877
 20
236.9200890647
 11
44.2054104571
 21
236.9200890647
  0
LINE
  5
49E
100
AcDbEntity
  8
0
100
AcDbLine
 62
7
  6
CONTINUOUS
 10
44.1244741633
 20
236.9200890647
 11
44.0991815064
 21
236.9200890647
  0
LINE
  5
49F
100
AcDbEntity
  8
0
100
AcDbLine
 62
7
  6
CONTINUOUS
 10
43.180306903
 20
236.9200890647
 11
43.0065421047
 21
236.9200890647
  0
LINE
  5
4A0
100
AcDbEntity
  8
0
100
AcDbLine
 62
7
  6
CONTINUOUS
 10
45.3891031892
 20
236.9397699134
 11
45.2980499022
 21
236.9397699134
  0
LINE
  5
4A1
100
AcDbEntity
  8
0
100
AcDbLine
 62
7
  6
CONTINUOUS
 10
43.9777771525
 20
236.9397699134
 11
43.8867238655
 21
236.9397699134
  0
LINE
  5
4A2
100
AcDbEntity
  8
0
100
AcDbLine
 62
7
  6
CONTINUOUS
 10
45.3807614134
 20
236.959450769
 11
45.2069966151
 21
236.959450769
  0
LINE
  5
4A3
100
AcDbEntity
  8
0
100
AcDbLine
 62
7
  6
CONTINUOUS
 10
45.744974388
 20
236.9791316177
 11
45.5712095898
 21
236.9791316177
  0
LINE
  5
4A4
100
AcDbEntity
  8
0
100
AcDbLine
 62
7
  6
CONTINUOUS
 10
45.3504102598
 20
236.9791316177
 11
45.1766454615
 21
236.9791316177
  0
LINE
  5
4A5
100
AcDbEntity
  8
0
100
AcDbLine
 62
7
  6
CONTINUOUS
 10
43.9997865302
 20
236.9791316177
 11
43.826021732
 21
236.9791316177
  0
LINE
  5
4A6
100
AcDbEntity
  8
0
100
AcDbLine
 62
7
  6
CONTINUOUS
 10
43.1886486789
 20
236.9791316177
 11
43.0520687483
 21
236.9791316177
  0
LINE
  5
4A7
100
AcDbEntity
  8
0
100
AcDbLine
 62
7
  6
CONTINUOUS
 10
42.9071470526
 20
236.9791316177
 11
42.7333822543
 21
236.9791316177
  0
LINE
  5
4A8
100
AcDbEntity
  8
0
100
AcDbLine
 62
7
  6
CONTINUOUS
 10
45.744974388
 20
237.0184933152
 11
45.5712095898
 21
237.0184933152
  0
LINE
  5
4A9
100
AcDbEntity
  8
0
100
AcDbLine
 62
7
  6
CONTINUOUS
 10
45.3352347698
 20
237.0184933152
 11
45.0855921744
 21
237.0184933152
  0
LINE
  5
4AA
100
AcDbEntity
  8
0
100
AcDbLine
 62
7
  6
CONTINUOUS
 10
44.3419903877
 20
237.0184933152
 11
44.1902347935
 21
237.0184933152
  0
LINE
  5
4AB
100
AcDbEntity
  8
0
100
AcDbLine
 62
7
  6
CONTINUOUS
 10
43.9846109535
 20
237.0184933152
 11
43.8108461552
 21
237.0184933152
  0
LINE
  5
4AC
100
AcDbEntity
  8
0
100
AcDbLine
 62
7
  6
CONTINUOUS
 10
42.8616204091
 20
237.0381741777
 11
42.6878556108
 21
237.0381741777
  0
LINE
  5
4AD
100
AcDbEntity
  8
0
100
AcDbLine
 62
7
  6
CONTINUOUS
 10
43.9846109535
 20
237.0578550264
 11
43.8108461552
 21
237.0578550264
  0
LINE
  5
4AE
100
AcDbEntity
  8
0
100
AcDbLine
 62
7
  6
CONTINUOUS
 10
43.1886486789
 20
237.0578550264
 11
42.9913665714
 21
237.0578550264
  0
LINE
  5
4AF
100
AcDbEntity
  8
0
100
AcDbLine
 62
7
  6
CONTINUOUS
 10
45.7146234081
 20
237.0972167238
 11
45.5408586098
 21
237.0972167238
  0
LINE
  5
4B0
100
AcDbEntity
  8
0
100
AcDbLine
 62
7
  6
CONTINUOUS
 10
43.9997865302
 20
237.1168975725
 11
43.826021732
 21
237.1168975725
  0
LINE
  5
4B1
100
AcDbEntity
  8
0
100
AcDbLine
 62
7
  6
CONTINUOUS
 10
42.8312693152
 20
237.1365784212
 11
42.6575045169
 21
237.1365784212
  0
LINE
  5
4B2
100
AcDbEntity
  8
0
100
AcDbLine
 62
7
  6
CONTINUOUS
 10
45.6539212746
 20
237.15625927
 11
45.4801564763
 21
237.15625927
  0
LINE
  5
4B3
100
AcDbEntity
  8
0
100
AcDbLine
 62
7
  6
CONTINUOUS
 10
44.030137597
 20
237.15625927
 11
43.8563727987
 21
237.15625927
  0
LINE
  5
4B4
100
AcDbEntity
  8
0
100
AcDbLine
 62
7
  6
CONTINUOUS
 10
44.0604886637
 20
237.1759401187
 11
43.8867238655
 21
237.1759401187
  0
LINE
  5
4B5
100
AcDbEntity
  8
0
100
AcDbLine
 62
7
  6
CONTINUOUS
 10
42.8312693152
 20
237.1956209674
 11
42.6575045169
 21
237.1956209674
  0
LINE
  5
4B6
100
AcDbEntity
  8
0
100
AcDbLine
 62
7
  6
CONTINUOUS
 10
43.9474260858
 20
237.1956209674
 11
44.11435717
 21
237.1956209674
  0
LINE
  5
4B7
100
AcDbEntity
  8
0
100
AcDbLine
 62
7
  6
CONTINUOUS
 10
45.136177363
 20
237.2349826924
 11
44.9641877337
 21
237.2349826924
  0
LINE
  5
4B8
100
AcDbEntity
  8
0
100
AcDbLine
 62
7
  6
CONTINUOUS
 10
45.3959369033
 20
237.2546635411
 11
45.222172105
 21
237.2546635411
  0
LINE
  5
4B9
100
AcDbEntity
  8
0
100
AcDbLine
 62
7
  6
CONTINUOUS
 10
43.7873288025
 20
237.2546635411
 11
43.6135640042
 21
237.2546635411
  0
LINE
  5
4BA
100
AcDbEntity
  8
0
100
AcDbLine
 62
7
  6
CONTINUOUS
 10
44.11435717
 20
237.2743443898
 11
43.9474260858
 21
237.2743443898
  0
LINE
  5
4BB
100
AcDbEntity
  8
0
100
AcDbLine
 62
7
  6
CONTINUOUS
 10
42.8464448648
 20
237.2743443898
 11
42.6726800666
 21
237.2743443898
  0
LINE
  5
4BC
100
AcDbEntity
  8
0
100
AcDbLine
 62
7
  6
CONTINUOUS
 10
45.3504102598
 20
237.2940252386
 11
45.1766454615
 21
237.2940252386
  0
LINE
  5
4BD
100
AcDbEntity
  8
0
100
AcDbLine
 62
7
  6
CONTINUOUS
 10
42.9913665714
 20
237.2940252386
 11
43.1886486789
 21
237.2940252386
  0
LINE
  5
4BE
100
AcDbEntity
  8
0
100
AcDbLine
 62
7
  6
CONTINUOUS
 10
44.7889150473
 20
237.3137060873
 11
44.615150249
 21
237.3137060873
  0
LINE
  5
4BF
100
AcDbEntity
  8
0
100
AcDbLine
 62
7
  6
CONTINUOUS
 10
43.4382912309
 20
237.3137060873
 11
43.2645264326
 21
237.3137060873
  0
LINE
  5
4C0
100
AcDbEntity
  8
0
100
AcDbLine
 62
7
  6
CONTINUOUS
 10
42.8616204091
 20
237.3137060873
 11
42.6878556108
 21
237.3137060873
  0
LINE
  5
4C1
100
AcDbEntity
  8
0
100
AcDbLine
 62
7
  6
CONTINUOUS
 10
45.3352347698
 20
237.333386936
 11
45.1614699715
 21
237.333386936
  0
LINE
  5
4C2
100
AcDbEntity
  8
0
100
AcDbLine
 62
7
  6
CONTINUOUS
 10
45.0855921744
 20
237.333386936
 11
44.9490122438
 21
237.333386936
  0
LINE
  5
4C3
100
AcDbEntity
  8
0
100
AcDbLine
 62
7
  6
CONTINUOUS
 10
44.3419903877
 20
237.333386936
 11
44.1902347935
 21
237.333386936
  0
LINE
  5
4C4
100
AcDbEntity
  8
0
100
AcDbLine
 62
7
  6
CONTINUOUS
 10
43.7349684449
 20
237.333386936
 11
43.9846109535
 21
237.333386936
  0
LINE
  5
4C5
100
AcDbEntity
  8
0
100
AcDbLine
 62
7
  6
CONTINUOUS
 10
45.4953319663
 20
237.333386936
 11
45.744974388
 21
237.333386936
  0
LINE
  5
4C6
100
AcDbEntity
  8
0
100
AcDbLine
 62
7
  6
CONTINUOUS
 10
44.8192660272
 20
237.3530677847
 11
44.6455012289
 21
237.3530677847
  0
LINE
  5
4C7
100
AcDbEntity
  8
0
100
AcDbLine
 62
7
  6
CONTINUOUS
 10
43.7349684449
 20
237.3530677847
 11
43.5983885142
 21
237.3530677847
  0
LINE
  5
4C8
100
AcDbEntity
  8
0
100
AcDbLine
 62
7
  6
CONTINUOUS
 10
43.4686423411
 20
237.3530677847
 11
43.2948775428
 21
237.3530677847
  0
LINE
  5
4C9
100
AcDbEntity
  8
0
100
AcDbLine
 62
7
  6
CONTINUOUS
 10
45.3504102598
 20
237.3727486334
 11
45.1766454615
 21
237.3727486334
  0
LINE
  5
4CA
100
AcDbEntity
  8
0
100
AcDbLine
 62
7
  6
CONTINUOUS
 10
43.9997865302
 20
237.3727486334
 11
43.826021732
 21
237.3727486334
  0
LINE
  5
4CB
100
AcDbEntity
  8
0
100
AcDbLine
 62
7
  6
CONTINUOUS
 10
43.1886486789
 20
237.3727486334
 11
43.0520687483
 21
237.3727486334
  0
LINE
  5
4CC
100
AcDbEntity
  8
0
100
AcDbLine
 62
7
  6
CONTINUOUS
 10
42.9071470526
 20
237.3727486334
 11
42.7333822543
 21
237.3727486334
  0
LINE
  5
4CD
100
AcDbEntity
  8
0
100
AcDbLine
 62
7
  6
CONTINUOUS
 10
45.3807614134
 20
237.3924294821
 11
45.2069966151
 21
237.3924294821
  0
LINE
  5
4CE
100
AcDbEntity
  8
0
100
AcDbLine
 62
7
  6
CONTINUOUS
 10
45.0957092256
 20
237.3924294821
 11
44.9338367538
 21
237.3924294821
  0
LINE
  5
4CF
100
AcDbEntity
  8
0
100
AcDbLine
 62
7
  6
CONTINUOUS
 10
44.8124323131
 20
237.3924294821
 11
44.6910278725
 21
237.3924294821
  0
LINE
  5
4D0
100
AcDbEntity
  8
0
100
AcDbLine
 62
7
  6
CONTINUOUS
 10
44.3419903877
 20
237.3924294821
 11
44.1750593035
 21
237.3924294821
  0
LINE
  5
4D1
100
AcDbEntity
  8
0
100
AcDbLine
 62
7
  6
CONTINUOUS
 10
44.030137597
 20
237.3924294821
 11
43.8563727987
 21
237.3924294821
  0
LINE
  5
4D2
100
AcDbEntity
  8
0
100
AcDbLine
 62
7
  6
CONTINUOUS
 10
43.7425561898
 20
237.3924294821
 11
43.5832129374
 21
237.3924294821
  0
LINE
  5
4D3
100
AcDbEntity
  8
0
100
AcDbLine
 62
7
  6
CONTINUOUS
 10
43.4618085836
 20
237.3924294821
 11
43.3404041429
 21
237.3924294821
  0
LINE
  5
4D4
100
AcDbEntity
  8
0
100
AcDbLine
 62
7
  6
CONTINUOUS
 10
42.9306643727
 20
237.3924294821
 11
42.7637333536
 21
237.3924294821
  0
LINE
  5
4D5
100
AcDbEntity
  8
0
100
AcDbLine
 62
7
  6
CONTINUOUS
 10
45.7146234081
 20
237.4121103309
 11
45.5408586098
 21
237.4121103309
  0
LINE
  5
4D6
100
AcDbEntity
  8
0
100
AcDbLine
 62
7
  6
CONTINUOUS
 10
43.917075019
 20
237.4121103309
 11
44.0081283061
 21
237.4121103309
  0
LINE
  5
4D7
100
AcDbEntity
  8
0
100
AcDbLine
 62
7
  6
CONTINUOUS
 10
45.2676987486
 20
237.4121103309
 11
45.3587520357
 21
237.4121103309
  0
LINE
  5
4D8
100
AcDbEntity
  8
0
100
AcDbLine
 62
7
  6
CONTINUOUS
 10
45.0772503985
 20
237.4317911796
 11
44.9034856002
 21
237.4317911796
  0
LINE
  5
4D9
100
AcDbEntity
  8
0
100
AcDbLine
 62
7
  6
CONTINUOUS
 10
44.3184729482
 20
237.4317911796
 11
44.1447081499
 21
237.4317911796
  0
LINE
  5
4DA
100
AcDbEntity
  8
0
100
AcDbLine
 62
7
  6
CONTINUOUS
 10
43.726626669
 20
237.4317911796
 11
43.5528618707
 21
237.4317911796
  0
LINE
  5
4DB
100
AcDbEntity
  8
0
100
AcDbLine
 62
7
  6
CONTINUOUS
 10
43.180306903
 20
237.4317911796
 11
43.0065421047
 21
237.4317911796
  0
LINE
  5
4DC
100
AcDbEntity
  8
0
100
AcDbLine
 62
7
  6
CONTINUOUS
 10
45.6690967646
 20
237.4514720283
 11
45.4953319663
 21
237.4514720283
  0
LINE
  5
4DD
100
AcDbEntity
  8
0
100
AcDbLine
 62
7
  6
CONTINUOUS
 10
45.623570121
 20
237.471152877
 11
45.4498053227
 21
237.471152877
  0
LINE
  5
4DE
100
AcDbEntity
  8
0
100
AcDbLine
 62
7
  6
CONTINUOUS
 10
45.031723755
 20
237.471152877
 11
44.8579589567
 21
237.471152877
  0
LINE
  5
4DF
100
AcDbEntity
  8
0
100
AcDbLine
 62
7
  6
CONTINUOUS
 10
44.2729463047
 20
237.471152877
 11
44.0991815064
 21
237.471152877
  0
LINE
  5
4E0
100
AcDbEntity
  8
0
100
AcDbLine
 62
7
  6
CONTINUOUS
 10
43.6811000254
 20
237.471152877
 11
43.5073352271
 21
237.471152877
  0
LINE
  5
4E1
100
AcDbEntity
  8
0
100
AcDbLine
 62
7
  6
CONTINUOUS
 10
43.1196047261
 20
237.471152877
 11
42.9458399278
 21
237.471152877
  0
LINE
  5
4E2
100
AcDbEntity
  8
0
100
AcDbLine
 62
7
  6
CONTINUOUS
 10
45.532516834
 20
237.4908337257
 11
45.2676987486
 21
237.4908337257
  0
LINE
  5
4E3
100
AcDbEntity
  8
0
100
AcDbLine
 62
7
  6
CONTINUOUS
 10
44.9861971114
 20
237.4908337257
 11
44.3419903877
 21
237.4908337257
  0
LINE
  5
4E4
100
AcDbEntity
  8
0
100
AcDbLine
 62
7
  6
CONTINUOUS
 10
44.1818931044
 20
237.4908337257
 11
43.917075019
 21
237.4908337257
  0
LINE
  5
4E5
100
AcDbEntity
  8
0
100
AcDbLine
 62
7
  6
CONTINUOUS
 10
43.6355733819
 20
237.4908337257
 11
43.4011063633
 21
237.4908337257
  0
LINE
  5
4E6
100
AcDbEntity
  8
0
100
AcDbLine
 62
7
  6
CONTINUOUS
 10
43.0133758839
 20
237.4908337257
 11
42.8396110856
 21
237.4908337257
  0
LINE
  5
4E7
100
AcDbEntity
  8
0
100
AcDbLine
 62
7
  6
CONTINUOUS
 10
44.3419903877
 20
237.687642268
 11
44.5916328095
 21
237.687642268
  0
LINE
  5
4E8
100
AcDbEntity
  8
0
100
AcDbLine
 62
7
  6
CONTINUOUS
 10
44.5916328095
 20
237.7860465116
 11
44.3419903877
 21
237.7860465116
  0
LINE
  5
4E9
100
AcDbEntity
  8
0
100
AcDbLine
 62
7
  6
CONTINUOUS
 10
43.4382912309
 20
237.7860465116
 11
43.1886486789
 21
237.7860465116
  0
LINE
  5
4EA
100
AcDbEntity
  8
0
100
AcDbLine
 62
7
  6
CONTINUOUS
 10
43.0119480299
 20
237.9610465116
 11
43.2940111416
 21
237.9610465116
  0
LINE
  5
4EB
100
AcDbEntity
  8
0
100
AcDbLine
 62
7
  6
CONTINUOUS
 10
43.4422692804
 20
237.9610465116
 11
44.4336444545
 21
237.9610465116
  0
LINE
  5
4EC
100
AcDbEntity
  8
0
100
AcDbLine
 62
7
  6
CONTINUOUS
 10
44.7547490943
 20
237.9610465116
 11
45.7461242684
 21
237.9610465116
  0
LINE
  5
4ED
100
AcDbEntity
  8
0
100
AcDbLine
 62
7
  6
CONTINUOUS
 10
43.2271086551
 20
238.6610465116
 11
43.054980155
 21
238.6610465116
  0
LINE
  5
4EE
100
AcDbEntity
  8
DEFAULT_1
100
AcDbLine
 62
2
  6
CENTER
 10
96.6662853953
 20
238.9610465116
 11
68.7559139535
 21
238.9610465116
  0
LINE
  5
4EF
100
AcDbEntity
  8
0
100
AcDbLine
 62
2
  6
CONTINUOUS
 10
67.6358139535
 20
238.9610465116
 11
65.8758139535
 21
238.9610465116
  0
LINE
  5
4F0
100
AcDbEntity
  8
DEFAULT_1
100
AcDbLine
 62
2
  6
CENTER
 10
37.7267505116
 20
238.9610465116
 11
64.7557139535
 21
238.9610465116
  0
LINE
  5
4F1
100
AcDbEntity
  8
0
100
AcDbLine
 62
7
  6
CONTINUOUS
 10
87.888937892
 20
239.4610465116
 11
88.1646208812
 21
239.4610465116
  0
LINE
  5
4F2
100
AcDbEntity
  8
0
100
AcDbLine
 62
7
  6
CONTINUOUS
 10
88.2966106556
 20
239.4610465116
 11
88.5722936448
 21
239.4610465116
  0
LINE
  5
4F3
100
AcDbEntity
  8
0
100
AcDbLine
 62
7
  6
CONTINUOUS
 10
89.1799016757
 20
239.4610465116
 11
89.353666474
 21
239.4610465116
  0
LINE
  5
4F4
100
AcDbEntity
  8
0
100
AcDbLine
 62
7
  6
CONTINUOUS
 10
89.6215471372
 20
239.4610465116
 11
90.4068210809
 21
239.4610465116
  0
LINE
  5
4F5
100
AcDbEntity
  8
0
100
AcDbLine
 62
7
  6
CONTINUOUS
 10
89.0779834848
 20
239.5248762968
 11
89.2517482831
 21
239.5248762968
  0
LINE
  5
4F6
100
AcDbEntity
  8
0
100
AcDbLine
 62
7
  6
CONTINUOUS
 10
44.4750402815
 20
239.5610465116
 11
44.6471687816
 21
239.5610465116
  0
LINE
  5
4F7
100
AcDbEntity
  8
0
100
AcDbLine
 62
7
  6
CONTINUOUS
 10
89.7914107239
 20
242.397216732
 11
89.7234653281
 21
242.2695571728
  0
LINE
  5
4F8
100
AcDbEntity
  8
0
100
AcDbLine
 62
7
  6
CONTINUOUS
 10
89.9651755222
 20
242.397216732
 11
89.8972301264
 21
242.2695571728
  0
LINE
  5
4F9
100
AcDbEntity
  8
0
100
AcDbLine
 62
7
  6
CONTINUOUS
 10
43.9777771525
 20
236.8610465116
 11
44.0536548628
 21
236.8807273621
  0
LINE
  5
4FA
100
AcDbEntity
  8
0
100
AcDbLine
 62
7
  6
CONTINUOUS
 10
45.5628679875
 20
236.8610465116
 11
45.6539212746
 21
236.8807273621
  0
LINE
  5
4FB
100
AcDbEntity
  8
0
100
AcDbLine
 62
7
  6
CONTINUOUS
 10
45.3891031892
 20
236.8610465116
 11
45.4801564763
 21
236.8807273621
  0
LINE
  5
4FC
100
AcDbEntity
  8
0
100
AcDbLine
 62
7
  6
CONTINUOUS
 10
45.2676987486
 20
237.4908337257
 11
45.1766454615
 21
237.471152877
  0
LINE
  5
4FD
100
AcDbEntity
  8
0
100
AcDbLine
 62
7
  6
CONTINUOUS
 10
43.9474260858
 20
237.2743443898
 11
43.8563727987
 21
237.2546635411
  0
LINE
  5
4FE
100
AcDbEntity
  8
0
100
AcDbLine
 62
7
  6
CONTINUOUS
 10
42.8396110856
 20
237.4908337257
 11
42.7485578094
 21
237.471152877
  0
LINE
  5
4FF
100
AcDbEntity
  8
0
100
AcDbLine
 62
7
  6
CONTINUOUS
 10
43.0133758839
 20
236.8610465116
 11
43.1196047261
 21
236.8807273621
  0
LINE
  5
500
100
AcDbEntity
  8
0
100
AcDbLine
 62
7
  6
CONTINUOUS
 10
42.8396110856
 20
236.8610465116
 11
42.9458399278
 21
236.8807273621
  0
LINE
  5
501
100
AcDbEntity
  8
0
100
AcDbLine
 62
7
  6
CONTINUOUS
 10
42.9306643727
 20
236.959450769
 11
42.8244355523
 21
236.9397699134
  0
LINE
  5
502
100
AcDbEntity
  8
0
100
AcDbLine
 62
7
  6
CONTINUOUS
 10
43.917075019
 20
237.4908337257
 11
43.8108461552
 21
237.471152877
  0
LINE
  5
503
100
AcDbEntity
  8
0
100
AcDbLine
 62
7
  6
CONTINUOUS
 10
88.9930515943
 20
239.7163656525
 11
89.1668163926
 21
239.7163656525
  0
LINE
  5
504
100
AcDbEntity
  8
0
100
AcDbLine
 62
7
  6
CONTINUOUS
 10
90.4068210809
 20
239.7801954545
 11
89.9312029215
 21
239.7801954545
  0
LINE
  5
505
100
AcDbEntity
  8
0
100
AcDbLine
 62
7
  6
CONTINUOUS
 10
89.6215471372
 20
239.7801954545
 11
89.7953119355
 21
239.7801954545
  0
LINE
  5
506
100
AcDbEntity
  8
0
100
AcDbLine
 62
7
  6
CONTINUOUS
 10
89.2687345835
 20
239.8440252341
 11
89.4385982674
 21
239.8440252341
  0
LINE
  5
507
100
AcDbEntity
  8
0
100
AcDbLine
 62
7
  6
CONTINUOUS
 10
88.9420924989
 20
239.9078550137
 11
89.1158572971
 21
239.9078550137
  0
LINE
  5
508
100
AcDbEntity
  8
0
100
AcDbLine
 62
7
  6
CONTINUOUS
 10
89.3157925645
 20
239.9716847933
 11
89.4895573628
 21
239.9716847933
  0
LINE
  5
509
100
AcDbEntity
  8
0
100
AcDbLine
 62
7
  6
CONTINUOUS
 10
88.908119801
 20
240.1631741769
 11
89.0818845992
 21
240.1631741769
  0
LINE
  5
50A
100
AcDbEntity
  8
0
100
AcDbLine
 62
7
  6
CONTINUOUS
 10
45.7461242684
 20
240.2610465116
 11
45.2065864072
 21
240.2610465116
  0
LINE
  5
50B
100
AcDbEntity
  8
0
100
AcDbLine
 62
7
  6
CONTINUOUS
 10
44.863965705
 20
240.2610465116
 11
44.5819025933
 21
240.2610465116
  0
LINE
  5
50C
100
AcDbEntity
  8
0
100
AcDbLine
 62
7
  6
CONTINUOUS
 10
44.4336444545
 20
240.2610465116
 11
43.4422692804
 21
240.2610465116
  0
LINE
  5
50D
100
AcDbEntity
  8
0
100
AcDbLine
 62
7
  6
CONTINUOUS
 10
43.1211646406
 20
240.2610465116
 11
42.5816267795
 21
240.2610465116
  0
LINE
  5
50E
100
AcDbEntity
  8
0
100
AcDbLine
 62
7
  6
CONTINUOUS
 10
88.8911334034
 20
240.3546635158
 11
89.0648982017
 21
240.3546635158
  0
LINE
  5
50F
100
AcDbEntity
  8
0
100
AcDbLine
 62
7
  6
CONTINUOUS
 10
89.3837380575
 20
240.3546635158
 11
89.5575028558
 21
240.3546635158
  0
LINE
  5
510
100
AcDbEntity
  8
0
100
AcDbLine
 62
7
  6
CONTINUOUS
 10
45.5632377373
 20
240.4110465116
 11
45.3894729387
 21
240.4110465116
  0
LINE
  5
511
100
AcDbEntity
  8
0
100
AcDbLine
 62
7
  6
CONTINUOUS
 10
88.8741471031
 20
240.6738125033
 11
89.0479119013
 21
240.6738125033
  0
LINE
  5
512
100
AcDbEntity
  8
0
100
AcDbLine
 62
7
  6
CONTINUOUS
 10
89.4007243579
 20
240.7376422829
 11
89.5744891562
 21
240.7376422829
  0
LINE
  5
513
100
AcDbEntity
  8
0
100
AcDbLine
 62
7
  6
CONTINUOUS
 10
89.4007243579
 20
241.1844507403
 11
89.5744891562
 21
241.1844507403
  0
LINE
  5
514
100
AcDbEntity
  8
0
100
AcDbLine
 62
7
  6
CONTINUOUS
 10
88.8741471031
 20
241.2482805199
 11
89.0479119013
 21
241.2482805199
  0
LINE
  5
515
100
AcDbEntity
  8
0
100
AcDbLine
 62
7
  6
CONTINUOUS
 10
90.0971652966
 20
241.3759400792
 11
90.2709300949
 21
241.3759400792
  0
LINE
  5
516
100
AcDbEntity
  8
0
100
AcDbLine
 62
7
  6
CONTINUOUS
 10
87.7870197011
 20
241.5035996384
 11
87.9607844994
 21
241.5035996384
  0
LINE
  5
517
100
AcDbEntity
  8
0
100
AcDbLine
 62
7
  6
CONTINUOUS
 10
88.8911334034
 20
241.5674294181
 11
89.0648982017
 21
241.5674294181
  0
LINE
  5
518
100
AcDbEntity
  8
0
100
AcDbLine
 62
7
  6
CONTINUOUS
 10
89.3837380575
 20
241.5674294181
 11
89.5575028558
 21
241.5674294181
  0
LINE
  5
519
100
AcDbEntity
  8
0
100
AcDbLine
 62
7
  6
CONTINUOUS
 10
90.1311380917
 20
241.6312591977
 11
90.30490289
 21
241.6312591977
  0
LINE
  5
51A
100
AcDbEntity
  8
0
100
AcDbLine
 62
7
  6
CONTINUOUS
 10
88.908119801
 20
241.7589189358
 11
89.0818845992
 21
241.7589189358
  0
LINE
  5
51B
100
AcDbEntity
  8
0
100
AcDbLine
 62
7
  6
CONTINUOUS
 10
89.6385334376
 20
241.7589189358
 11
89.8972301264
 21
241.7589189358
  0
LINE
  5
51C
100
AcDbEntity
  8
0
100
AcDbLine
 62
7
  6
CONTINUOUS
 10
90.1311380917
 20
241.7589189358
 11
90.30490289
 21
241.7589189358
  0
LINE
  5
51D
100
AcDbEntity
  8
0
100
AcDbLine
 62
7
  6
CONTINUOUS
 10
89.3157925645
 20
241.9504082746
 11
89.4895573628
 21
241.9504082746
  0
LINE
  5
51E
100
AcDbEntity
  8
0
100
AcDbLine
 62
7
  6
CONTINUOUS
 10
90.0971652966
 20
241.9504082746
 11
90.2709300949
 21
241.9504082746
  0
LINE
  5
51F
100
AcDbEntity
  8
0
100
AcDbLine
 62
7
  6
CONTINUOUS
 10
87.7870197011
 20
242.0142380543
 11
87.9607844994
 21
242.0142380543
  0
LINE
  5
520
100
AcDbEntity
  8
0
100
AcDbLine
 62
7
  6
CONTINUOUS
 10
88.9420924989
 20
242.0142380543
 11
89.1158572971
 21
242.0142380543
  0
LINE
  5
521
100
AcDbEntity
  8
0
100
AcDbLine
 62
7
  6
CONTINUOUS
 10
89.6555199323
 20
242.0142380543
 11
89.8292847306
 21
242.0142380543
  0
LINE
  5
522
100
AcDbEntity
  8
0
100
AcDbLine
 62
7
  6
CONTINUOUS
 10
89.2687345835
 20
242.0780678339
 11
89.4385982674
 21
242.0780678339
  0
LINE
  5
523
100
AcDbEntity
  8
0
100
AcDbLine
 62
7
  6
CONTINUOUS
 10
90.0462062012
 20
242.0780678339
 11
90.2199709995
 21
242.0780678339
  0
LINE
  5
524
100
AcDbEntity
  8
0
100
AcDbLine
 62
7
  6
CONTINUOUS
 10
88.1646208812
 20
242.1418976135
 11
88.8101027245
 21
242.1418976135
  0
LINE
  5
525
100
AcDbEntity
  8
0
100
AcDbLine
 62
7
  6
CONTINUOUS
 10
90.0670937131
 20
242.1418976135
 11
90.1350393033
 21
242.1418976135
  0
LINE
  5
526
100
AcDbEntity
  8
0
100
AcDbLine
 62
7
  6
CONTINUOUS
 10
88.9930515943
 20
242.2057273931
 11
89.1668163926
 21
242.2057273931
  0
LINE
  5
527
100
AcDbEntity
  8
0
100
AcDbLine
 62
7
  6
CONTINUOUS
 10
89.7234653281
 20
242.2695571728
 11
89.8972301264
 21
242.2695571728
  0
LINE
  5
528
100
AcDbEntity
  8
0
100
AcDbLine
 62
7
  6
CONTINUOUS
 10
89.0779834848
 20
242.397216732
 11
89.2517482831
 21
242.397216732
  0
LINE
  5
529
100
AcDbEntity
  8
0
100
AcDbLine
 62
7
  6
CONTINUOUS
 10
89.7914107239
 20
242.397216732
 11
89.9651755222
 21
242.397216732
  0
LWPOLYLINE
  5
52A
100
AcDbEntity
  8
0
100
AcDbPolyline
 62
7
  6
CONTINUOUS
 90
3
 70
0
 10
82.5884711064
 20
234.7570750747
 10
82.5788833192
 20
234.7605835485
 10
82.5621610591
 20
234.7679256354
  0
LINE
  5
52B
100
AcDbEntity
  8
0
100
AcDbLine
 62
7
  6
CONTINUOUS
 10
82.5620269593
 20
234.7679892544
 11
82.5387481557
 21
234.7798456694
  0
LWPOLYLINE
  5
52C
100
AcDbEntity
  8
0
100
AcDbPolyline
 62
7
  6
CONTINUOUS
 90
13
 70
0
 10
82.5384642875
 20
234.7799998979
 10
82.5081816468
 20
234.7975344288
 10
82.471744465
 20
234.8211486352
 10
82.4293376615
 20
234.851565376
 10
82.3810874591
 20
234.8895534578
 10
82.3274028529
 20
234.9356563491
 10
82.2685764804
 20
234.9904879892
 10
82.205188898
 20
235.0543673405
 10
82.1377944204
 20
235.1275708419
 10
82.0669535401
 20
235.2103132955
 10
81.9932418356
 20
235.3027430144
 10
81.917320451
 20
235.404844091
 10
81.8398204626
 20
235.5165762562
  0
LINE
  5
52D
100
AcDbEntity
  8
0
100
AcDbLine
 62
7
  6
CONTINUOUS
 10
89.217775488
 20
241.9504082746
 11
89.2687345835
 21
242.0780678339
  0
LINE
  5
52E
100
AcDbEntity
  8
0
100
AcDbLine
 62
7
  6
CONTINUOUS
 10
89.9312029215
 20
241.9504082746
 11
89.982162017
 21
242.0780678339
  0
LINE
  5
52F
100
AcDbEntity
  8
0
100
AcDbLine
 62
7
  6
CONTINUOUS
 10
89.3157925645
 20
239.9716847933
 11
89.2667840263
 21
239.8489116488
  0
LINE
  5
530
100
AcDbEntity
  8
0
100
AcDbLine
 62
7
  6
CONTINUOUS
 10
89.4895573628
 20
239.9716847933
 11
89.4385982674
 21
239.8440252341
  0
LINE
  5
531
100
AcDbEntity
  8
0
100
AcDbLine
 62
7
  6
CONTINUOUS
 10
89.0779834848
 20
242.397216732
 11
88.9930515943
 21
242.2057273931
  0
LINE
  5
532
100
AcDbEntity
  8
0
100
AcDbLine
 62
7
  6
CONTINUOUS
 10
89.2517482831
 20
242.397216732
 11
89.1668163926
 21
242.2057273931
  0
LINE
  5
533
100
AcDbEntity
  8
0
100
AcDbLine
 62
7
  6
CONTINUOUS
 10
89.4555846649
 20
239.5248762968
 11
89.5405164583
 21
239.7163656525
  0
LWPOLYLINE
  5
534
100
AcDbEntity
  8
0
100
AcDbPolyline
 62
7
  6
CONTINUOUS
 90
10
 70
0
 10
84.2695853927
 20
228.2772554196
 10
84.3342542475
 20
228.3894286056
 10
84.4459811663
 20
228.6086659702
 10
84.5388632531
 20
228.8270411011
 10
84.6143844888
 20
229.0457316242
 10
84.6733934378
 20
229.2653700818
 10
84.7164524209
 20
229.4867031241
 10
84.7438066231
 20
229.7104940821
 10
84.7554049846
 20
229.9375201849
 10
84.7558135811
 20
229.9893649809
  0
LINE
  5
535
100
AcDbEntity
  8
0
100
AcDbLine
 62
7
  6
CONTINUOUS
 10
84.2695879906
 20
228.2772593408
 11
84.270270912
 21
228.2783982672
  0
LINE
  5
536
100
AcDbEntity
  8
0
100
AcDbLine
 62
7
  6
CONTINUOUS
 10
87.888937892
 20
242.4610465116
 11
88.9120209154
 21
242.4610465116
  0
LINE
  5
537
100
AcDbEntity
  8
0
100
AcDbLine
 62
7
  6
CONTINUOUS
 10
89.1799016757
 20
242.4610465116
 11
89.353666474
 21
242.4610465116
  0
LINE
  5
538
100
AcDbEntity
  8
0
100
AcDbLine
 62
7
  6
CONTINUOUS
 10
89.9103154096
 20
242.4610465116
 11
90.1520256037
 21
242.4610465116
  0
LINE
  5
539
100
AcDbEntity
  8
0
100
AcDbLine
 62
7
  6
CONTINUOUS
 10
45.5632377367
 20
242.9610465116
 11
45.3894729387
 21
242.9610465116
  0
LINE
  5
53A
100
AcDbEntity
  8
0
100
AcDbLine
 62
7
  6
CONTINUOUS
 10
50.9338156388
 20
243.1610465116
 11
49.7558139535
 21
243.1610465116
  0
LINE
  5
53B
100
AcDbEntity
  8
0
100
AcDbLine
 62
7
  6
CONTINUOUS
 10
82.5648216908
 20
243.1610465116
 11
83.7558139535
 21
243.1610465116
  0
LINE
  5
53C
100
AcDbEntity
  8
0
100
AcDbLine
 62
7
  6
CONTINUOUS
 10
81.8396190798
 20
235.5168875444
 11
81.7615259367
 21
235.6376002943
  0
LINE
  5
53D
100
AcDbEntity
  8
0
100
AcDbLine
 62
7
  6
CONTINUOUS
 10
81.7731731487
 20
235.6190567283
 11
81.6831921923
 21
235.7675002919
  0
LWPOLYLINE
  5
53E
100
AcDbEntity
  8
0
100
AcDbPolyline
 62
7
  6
CONTINUOUS
 90
38
 70
0
 10
81.6831921923
 20
235.7675002919
 10
81.6055509242
 20
235.9057813425
 10
81.5293288881
 20
236.0518206438
 10
81.4551819346
 20
236.2049865277
 10
81.3837834089
 20
236.3644495206
 10
81.3155831866
 20
236.5297140385
 10
81.251062276
 20
236.7001051863
 10
81.1905789885
 20
236.8751210193
 10
81.1344808242
 20
237.0541967446
 10
81.0830685383
 20
237.2367537316
 10
81.0366149114
 20
237.4221638802
 10
80.9953052283
 20
237.6099508697
 10
80.9593181354
 20
237.7995008929
 10
80.9287221752
 20
237.9906002046
 10
80.9035923718
 20
238.1829331671
 10
80.8839828119
 20
238.3762560357
 10
80.8699330121
 20
238.5703161217
 10
80.8614765837
 20
238.7648684328
 10
80.8586277898
 20
238.9596744033
 10
80.8613974744
 20
239.1544815704
 10
80.8697749129
 20
239.3490373236
 10
80.8837458246
 20
239.5431037397
 10
80.9032769716
 20
239.7364362848
 10
80.9283288043
 20
239.9287828652
 10
80.9588477917
 20
240.1199001423
 10
80.9947589778
 20
240.309473267
 10
81.0359944387
 20
240.4972887226
 10
81.0823760088
 20
240.6827341008
 10
81.1337193331
 20
240.8653337327
 10
81.1897524117
 20
241.0444607277
 10
81.2501755611
 20
241.2195371705
 10
81.3146422752
 20
241.3899989878
 10
81.3827953476
 20
241.5553450347
 10
81.4541546246
 20
241.7148998015
 10
81.5282712023
 20
241.8681681238
 10
81.6044716988
 20
242.0143178698
 10
81.6821001416
 20
242.1527157867
 10
81.7731723745
 20
242.3030350822
  0
LWPOLYLINE
  5
53F
100
AcDbEntity
  8
0
100
AcDbPolyline
 62
7
  6
CONTINUOUS
 90
41
 70
0
 10
81.7276723449
 20
235.6949031456
 10
81.6755797758
 20
235.7919443843
 10
81.6263851236
 20
235.8952581344
 10
81.5799052912
 20
236.0051866124
 10
81.5360609948
 20
236.121938054
 10
81.4947871988
 20
236.2457582083
 10
81.4560446217
 20
236.3768849787
 10
81.4197870756
 20
236.5156543402
 10
81.3859732685
 20
236.6625062397
 10
81.35464832
 20
236.8175742132
 10
81.3257897649
 20
236.9813506154
 10
81.2995665319
 20
237.1532354372
 10
81.2760418379
 20
237.3328747081
 10
81.2552797209
 20
237.5196719331
 10
81.2373057074
 20
237.7130715827
 10
81.2221317115
 20
237.9122339538
 10
81.2097633898
 20
238.1163310293
 10
81.2001779217
 20
238.3244081918
 10
81.1933596326
 20
238.535467244
 10
81.1892896261
 20
238.7485390922
 10
81.187943192
 20
238.9626159865
 10
81.1893296133
 20
239.1766849767
 10
81.1934395463
 20
239.3897329504
 10
81.2002982271
 20
239.6007532451
 10
81.2099241121
 20
239.8087777224
 10
81.2223333819
 20
240.0128092027
 10
81.2375484871
 20
240.2118942171
 10
81.2555636557
 20
240.4052056164
 10
81.2763668997
 20
240.5919050471
 10
81.2999319805
 20
240.7714371856
 10
81.3261943513
 20
240.9432048327
 10
81.3550906872
 20
241.1068588665
 10
81.3864517841
 20
241.2618018334
 10
81.4203010433
 20
241.4085309123
 10
81.4565945807
 20
241.5471848157
 10
81.4953738024
 20
241.6782018303
 10
81.5366853864
 20
241.8019179228
 10
81.5805689494
 20
241.9185703876
 10
81.6270899602
 20
242.0284045003
 10
81.6763287241
 20
242.1316289704
 10
81.7284693583
 20
242.2285862208
  0
LWPOLYLINE
  5
540
100
AcDbEntity
  8
0
100
AcDbPolyline
 62
7
  6
CONTINUOUS
 90
9
 70
0
 10
84.755813588
 20
247.9327280361
 10
84.7554052128
 20
247.9845588291
 10
84.7438078713
 20
248.2115844606
 10
84.7164543376
 20
248.4353777982
 10
84.6733952658
 20
248.6567150516
 10
84.6143854422
 20
248.876358263
 10
84.5388628961
 20
249.0950528708
 10
84.4459795747
 20
249.3134304586
 10
84.3342526836
 20
249.5326672364
  0
LINE
  5
541
100
AcDbEntity
  8
0
100
AcDbLine
 62
7
  6
CONTINUOUS
 10
84.7558139375
 20
247.9327285821
 11
84.7558139514
 21
247.9330852731
  0
LINE
  5
542
100
AcDbEntity
  8
2_FEATURE
100
AcDbLine
 62
7
  6
CONTINUOUS
 10
84.7558139535
 20
229.9901658643
 11
84.7558139535
 21
233.7610465116
  0
LINE
  5
543
100
AcDbEntity
  8
2_FEATURE
100
AcDbLine
 62
7
  6
CONTINUOUS
 10
84.7558139535
 20
244.1610465116
 11
84.7558139535
 21
247.9319271908
  0
LINE
  5
544
100
AcDbEntity
  8
0
100
AcDbLine
 62
7
  6
CONTINUOUS
 10
84.7558139514
 20
229.9890078845
 11
84.7558139375
 21
229.9893644325
  0
LINE
  5
545
100
AcDbEntity
  8
0
100
AcDbLine
 62
7
  6
CONTINUOUS
 10
89.1498300922
 20
241.5674294181
 11
89.217775488
 21
241.9504082746
  0
LINE
  5
546
100
AcDbEntity
  8
0
100
AcDbLine
 62
7
  6
CONTINUOUS
 10
87.888937892
 20
242.4610465116
 11
87.7870197011
 21
242.0142380543
  0
LINE
  5
547
100
AcDbEntity
  8
0
100
AcDbLine
 62
7
  6
CONTINUOUS
 10
88.0627026903
 20
242.4610465116
 11
87.9607844994
 21
242.0142380543
  0
LINE
  5
548
100
AcDbEntity
  8
0
100
AcDbLine
 62
7
  6
CONTINUOUS
 10
87.9607844994
 20
241.5035996384
 11
88.0627026903
 21
241.9504082746
  0
LINE
  5
549
100
AcDbEntity
  8
0
100
AcDbLine
 62
7
  6
CONTINUOUS
 10
88.9930515943
 20
242.2057273931
 11
88.9420924989
 21
242.0142380543
  0
LINE
  5
54A
100
AcDbEntity
  8
0
100
AcDbLine
 62
7
  6
CONTINUOUS
 10
89.1668163926
 20
242.2057273931
 11
89.1158572971
 21
242.0142380543
  0
LINE
  5
54B
100
AcDbEntity
  8
0
100
AcDbLine
 62
7
  6
CONTINUOUS
 10
89.7234653281
 20
242.2695571728
 11
89.6555199323
 21
242.0142380543
  0
LINE
  5
54C
100
AcDbEntity
  8
0
100
AcDbLine
 62
7
  6
CONTINUOUS
 10
89.8972301264
 20
242.2695571728
 11
89.8292847306
 21
242.0142380543
  0
LINE
  5
54D
100
AcDbEntity
  8
0
100
AcDbLine
 62
7
  6
CONTINUOUS
 10
89.5405164583
 20
239.7163656525
 11
89.5914755537
 21
239.9078550137
  0
LINE
  5
54E
100
AcDbEntity
  8
0
100
AcDbLine
 62
7
  6
CONTINUOUS
 10
90.0971652966
 20
241.3759400792
 11
89.6215471372
 21
239.7801954545
  0
LINE
  5
54F
100
AcDbEntity
  8
0
100
AcDbLine
 62
7
  6
CONTINUOUS
 10
90.2709300949
 20
241.3759400792
 11
89.7953119355
 21
239.7801954545
  0
LINE
  5
550
100
AcDbEntity
  8
0
100
AcDbLine
 62
7
  6
CONTINUOUS
 10
89.9312029215
 20
239.7801954545
 11
90.3558619855
 21
241.1844507403
  0
LINE
  5
551
100
AcDbEntity
  8
0
100
AcDbLine
 62
7
  6
CONTINUOUS
 10
87.7870197011
 20
242.0142380543
 11
87.7870197011
 21
241.5035996384
  0
LINE
  5
552
100
AcDbEntity
  8
0
100
AcDbLine
 62
7
  6
CONTINUOUS
 10
87.888937892
 20
241.5035996384
 11
87.888937892
 21
239.4610465116
  0
LINE
  5
553
100
AcDbEntity
  8
0
100
AcDbLine
 62
7
  6
CONTINUOUS
 10
87.9607844994
 20
242.0142380543
 11
87.9607844994
 21
241.5035996384
  0
LINE
  5
554
100
AcDbEntity
  8
0
100
AcDbLine
 62
7
  6
CONTINUOUS
 10
88.0627026903
 20
241.9504082746
 11
88.0627026903
 21
239.4610465116
  0
LINE
  5
555
100
AcDbEntity
  8
0
100
AcDbLine
 62
7
  6
CONTINUOUS
 10
88.1646208812
 20
239.4610465116
 11
88.1646208812
 21
242.4610465116
  0
LINE
  5
556
100
AcDbEntity
  8
0
100
AcDbLine
 62
7
  6
CONTINUOUS
 10
88.3005117943
 20
242.4610465116
 11
88.3005117943
 21
242.1418976135
  0
LINE
  5
557
100
AcDbEntity
  8
0
100
AcDbLine
 62
7
  6
CONTINUOUS
 10
88.8741471031
 20
241.2482805199
 11
88.8741471031
 21
240.6738125033
  0
LINE
  5
558
100
AcDbEntity
  8
0
100
AcDbLine
 62
7
  6
CONTINUOUS
 10
88.9120209154
 20
242.1418976135
 11
88.9120209154
 21
242.4610465116
  0
LINE
  5
559
100
AcDbEntity
  8
0
100
AcDbLine
 62
7
  6
CONTINUOUS
 10
89.0479119013
 20
241.2482805199
 11
89.0479119013
 21
240.6738125033
  0
LINE
  5
55A
100
AcDbEntity
  8
0
100
AcDbLine
 62
7
  6
CONTINUOUS
 10
89.1328436947
 20
240.7376422829
 11
89.1328436947
 21
241.1844507403
  0
LINE
  5
55B
100
AcDbEntity
  8
0
100
AcDbLine
 62
7
  6
CONTINUOUS
 10
89.1328436947
 20
241.1844507403
 11
89.1498300922
 21
241.5674294181
  0
LINE
  5
55C
100
AcDbEntity
  8
0
100
AcDbLine
 62
7
  6
CONTINUOUS
 10
89.4007243579
 20
240.7376422829
 11
89.3837380575
 21
240.3546635158
  0
LINE
  5
55D
100
AcDbEntity
  8
0
100
AcDbLine
 62
7
  6
CONTINUOUS
 10
89.5744891562
 20
240.7376422829
 11
89.5575028558
 21
240.3546635158
  0
LINE
  5
55E
100
AcDbEntity
  8
0
100
AcDbLine
 62
7
  6
CONTINUOUS
 10
88.8911334034
 20
241.5674294181
 11
88.8741471031
 21
241.2482805199
  0
LINE
  5
55F
100
AcDbEntity
  8
0
100
AcDbLine
 62
7
  6
CONTINUOUS
 10
89.0648982017
 20
241.5674294181
 11
89.0479119013
 21
241.2482805199
  0
LINE
  5
560
100
AcDbEntity
  8
0
100
AcDbLine
 62
7
  6
CONTINUOUS
 10
89.6424346492
 20
240.3546635158
 11
89.6594209495
 21
240.6738125033
  0
LINE
  5
561
100
AcDbEntity
  8
0
100
AcDbLine
 62
7
  6
CONTINUOUS
 10
89.6555199323
 20
242.0142380543
 11
89.6385334376
 21
241.7589189358
  0
LINE
  5
562
100
AcDbEntity
  8
0
100
AcDbLine
 62
7
  6
CONTINUOUS
 10
89.8292847306
 20
242.0142380543
 11
89.8122982359
 21
241.7589189358
  0
LINE
  5
563
100
AcDbEntity
  8
0
100
AcDbLine
 62
7
  6
CONTINUOUS
 10
88.908119801
 20
241.7589189358
 11
88.8911334034
 21
241.5674294181
  0
LINE
  5
564
100
AcDbEntity
  8
0
100
AcDbLine
 62
7
  6
CONTINUOUS
 10
89.0818845992
 20
241.7589189358
 11
89.0648982017
 21
241.5674294181
  0
LINE
  5
565
100
AcDbEntity
  8
0
100
AcDbLine
 62
7
  6
CONTINUOUS
 10
89.6254483488
 20
240.1631741769
 11
89.6424346492
 21
240.3546635158
  0
LINE
  5
566
100
AcDbEntity
  8
0
100
AcDbLine
 62
7
  6
CONTINUOUS
 10
88.6363379262
 20
242.1418976135
 11
88.2966106556
 21
239.4610465116
  0
LINE
  5
567
100
AcDbEntity
  8
0
100
AcDbLine
 62
7
  6
CONTINUOUS
 10
88.8101027245
 20
242.1418976135
 11
88.4703754539
 21
239.4610465116
  0
LINE
  5
568
100
AcDbEntity
  8
0
100
AcDbLine
 62
7
  6
CONTINUOUS
 10
88.5722936448
 20
239.4610465116
 11
88.9120209154
 21
242.1418976135
  0
LINE
  5
569
100
AcDbEntity
  8
0
100
AcDbLine
 62
7
  6
CONTINUOUS
 10
88.9420924989
 20
242.0142380543
 11
88.908119801
 21
241.7589189358
  0
LINE
  5
56A
100
AcDbEntity
  8
0
100
AcDbLine
 62
7
  6
CONTINUOUS
 10
89.1158572971
 20
242.0142380543
 11
89.0818845992
 21
241.7589189358
  0
LINE
  5
56B
100
AcDbEntity
  8
0
100
AcDbLine
 62
7
  6
CONTINUOUS
 10
89.5914755537
 20
239.9078550137
 11
89.6254483488
 21
240.1631741769
  0
LINE
  5
56C
100
AcDbEntity
  8
0
100
AcDbLine
 62
7
  6
CONTINUOUS
 10
90.1311380917
 20
241.6312591977
 11
90.0971652966
 21
241.3759400792
  0
LINE
  5
56D
100
AcDbEntity
  8
0
100
AcDbLine
 62
7
  6
CONTINUOUS
 10
90.30490289
 20
241.6312591977
 11
90.2709300949
 21
241.3759400792
  0
LINE
  5
56E
100
AcDbEntity
  8
0
100
AcDbLine
 62
7
  6
CONTINUOUS
 10
89.3837380575
 20
240.3546635158
 11
89.3157925645
 21
239.9716847933
  0
LINE
  5
56F
100
AcDbEntity
  8
0
100
AcDbLine
 62
7
  6
CONTINUOUS
 10
89.5575028558
 20
240.3546635158
 11
89.4895573628
 21
239.9716847933
  0
LINE
  5
570
100
AcDbEntity
  8
0
100
AcDbLine
 62
7
  6
CONTINUOUS
 10
89.8972301264
 20
241.7589189358
 11
89.9312029215
 21
241.9504082746
  0
LINE
  5
571
100
AcDbEntity
  8
0
100
AcDbLine
 62
7
  6
CONTINUOUS
 10
90.3558619855
 20
241.1844507403
 11
90.3898347806
 21
241.3759400792
  0
LINE
  5
572
100
AcDbEntity
  8
0
100
AcDbLine
 62
7
  6
CONTINUOUS
 10
89.0779834848
 20
239.5248762968
 11
89.1799016757
 21
239.4610465116
  0
LINE
  5
573
100
AcDbEntity
  8
0
100
AcDbLine
 62
7
  6
CONTINUOUS
 10
89.2517482831
 20
239.5248762968
 11
89.353666474
 21
239.4610465116
  0
LINE
  5
574
100
AcDbEntity
  8
0
100
AcDbLine
 62
7
  6
CONTINUOUS
 10
88.8911334034
 20
240.3546635158
 11
88.908119801
 21
240.1631741769
  0
LINE
  5
575
100
AcDbEntity
  8
0
100
AcDbLine
 62
7
  6
CONTINUOUS
 10
89.0648982017
 20
240.3546635158
 11
89.0818845992
 21
240.1631741769
  0
LINE
  5
576
100
AcDbEntity
  8
0
100
AcDbLine
 62
7
  6
CONTINUOUS
 10
89.6424346492
 20
241.5674294181
 11
89.6254483488
 21
241.7589189358
  0
LINE
  5
577
100
AcDbEntity
  8
0
100
AcDbLine
 62
7
  6
CONTINUOUS
 10
90.4068210809
 20
241.7589189358
 11
90.3898347806
 21
242.0142380543
  0
LINE
  5
578
100
AcDbEntity
  8
0
100
AcDbLine
 62
7
  6
CONTINUOUS
 10
88.8741471031
 20
240.6738125033
 11
88.8911334034
 21
240.3546635158
  0
LINE
  5
579
100
AcDbEntity
  8
0
100
AcDbLine
 62
7
  6
CONTINUOUS
 10
89.0479119013
 20
240.6738125033
 11
89.0648982017
 21
240.3546635158
  0
LINE
  5
57A
100
AcDbEntity
  8
0
100
AcDbLine
 62
7
  6
CONTINUOUS
 10
89.6594209495
 20
241.2482805199
 11
89.6424346492
 21
241.5674294181
  0
LINE
  5
57B
100
AcDbEntity
  8
0
100
AcDbLine
 62
7
  6
CONTINUOUS
 10
89.1498300922
 20
240.3546635158
 11
89.1328436947
 21
240.7376422829
  0
LINE
  5
57C
100
AcDbEntity
  8
0
100
AcDbLine
 62
7
  6
CONTINUOUS
 10
89.3837380575
 20
241.5674294181
 11
89.4007243579
 21
241.1844507403
  0
LINE
  5
57D
100
AcDbEntity
  8
0
100
AcDbLine
 62
7
  6
CONTINUOUS
 10
89.5575028558
 20
241.5674294181
 11
89.5744891562
 21
241.1844507403
  0
LINE
  5
57E
100
AcDbEntity
  8
0
100
AcDbLine
 62
7
  6
CONTINUOUS
 10
89.4007243579
 20
241.1844507403
 11
89.4007243579
 21
240.7376422829
  0
LINE
  5
57F
100
AcDbEntity
  8
0
100
AcDbLine
 62
7
  6
CONTINUOUS
 10
89.5744891562
 20
241.1844507403
 11
89.5744891562
 21
240.7376422829
  0
LINE
  5
580
100
AcDbEntity
  8
0
100
AcDbLine
 62
7
  6
CONTINUOUS
 10
89.6215471372
 20
239.7801954545
 11
89.6215471372
 21
239.4610465116
  0
LINE
  5
581
100
AcDbEntity
  8
0
100
AcDbLine
 62
7
  6
CONTINUOUS
 10
89.6594209495
 20
240.6738125033
 11
89.6594209495
 21
241.2482805199
  0
LINE
  5
582
100
AcDbEntity
  8
0
100
AcDbLine
 62
7
  6
CONTINUOUS
 10
89.7953119355
 20
239.7801954545
 11
89.7953119355
 21
239.4610465116
  0
LINE
  5
583
100
AcDbEntity
  8
0
100
AcDbLine
 62
7
  6
CONTINUOUS
 10
90.1311380917
 20
241.7589189358
 11
90.1311380917
 21
241.6312591977
  0
LINE
  5
584
100
AcDbEntity
  8
0
100
AcDbLine
 62
7
  6
CONTINUOUS
 10
90.30490289
 20
241.7589189358
 11
90.30490289
 21
241.6312591977
  0
LINE
  5
585
100
AcDbEntity
  8
0
100
AcDbLine
 62
7
  6
CONTINUOUS
 10
90.4068210809
 20
239.4610465116
 11
90.4068210809
 21
239.7801954545
  0
LINE
  5
586
100
AcDbEntity
  8
0
100
AcDbLine
 62
7
  6
CONTINUOUS
 10
90.4068210809
 20
241.6312591977
 11
90.4068210809
 21
241.7589189358
  0
LINE
  5
587
100
AcDbEntity
  8
0
100
AcDbLine
 62
7
  6
CONTINUOUS
 10
90.3898347806
 20
241.3759400792
 11
90.4068210809
 21
241.6312591977
  0
LINE
  5
588
100
AcDbEntity
  8
2_FEATURE
100
AcDbLine
 62
7
  6
CONTINUOUS
 10
82.5626979301
 20
251.4610465116
 11
50.9644741856
 21
251.4610465116
  0
LINE
  5
589
100
AcDbEntity
  8
0
100
AcDbLine
 62
7
  6
CONTINUOUS
 10
41.1558139535
 20
251.4610465116
 11
92.3558139535
 21
251.4610465116
  0
LINE
  5
58A
100
AcDbEntity
  8
0
100
AcDbLine
 62
7
  6
CONTINUOUS
 10
89.4555846649
 20
242.397216732
 11
89.353666474
 21
242.4610465116
  0
LINE
  5
58B
100
AcDbEntity
  8
0
100
AcDbLine
 62
7
  6
CONTINUOUS
 10
90.2539437946
 20
242.397216732
 11
90.1520256037
 21
242.4610465116
  0
LINE
  5
58C
100
AcDbEntity
  8
0
100
AcDbLine
 62
7
  6
CONTINUOUS
 10
89.353666474
 20
239.7801954545
 11
89.2687345835
 21
239.8440252341
  0
LINE
  5
58D
100
AcDbEntity
  8
0
100
AcDbLine
 62
7
  6
CONTINUOUS
 10
89.353666474
 20
242.1418976135
 11
89.4385982674
 21
242.0780678339
  0
LINE
  5
58E
100
AcDbEntity
  8
0
100
AcDbLine
 62
7
  6
CONTINUOUS
 10
90.0141841091
 20
242.1021337972
 11
90.0462062012
 21
242.0780678339
  0
LINE
  5
58F
100
AcDbEntity
  8
0
100
AcDbLine
 62
7
  6
CONTINUOUS
 10
90.1350393033
 20
242.1418976135
 11
90.2199709995
 21
242.0780678339
  0
LINE
  5
590
100
AcDbEntity
  8
0
100
AcDbLine
 62
7
  6
CONTINUOUS
 10
88.9930515943
 20
239.7163656525
 11
89.0779834848
 21
239.5248762968
  0
LINE
  5
591
100
AcDbEntity
  8
0
100
AcDbLine
 62
7
  6
CONTINUOUS
 10
89.1668163926
 20
239.7163656525
 11
89.2517482831
 21
239.5248762968
  0
LINE
  5
592
100
AcDbEntity
  8
0
100
AcDbLine
 62
7
  6
CONTINUOUS
 10
89.2687345835
 20
239.8440252341
 11
89.217775488
 21
239.9716847933
  0
LINE
  5
593
100
AcDbEntity
  8
0
100
AcDbLine
 62
7
  6
CONTINUOUS
 10
88.9420924989
 20
239.9078550137
 11
88.9930515943
 21
239.7163656525
  0
LINE
  5
594
100
AcDbEntity
  8
0
100
AcDbLine
 62
7
  6
CONTINUOUS
 10
89.1158572971
 20
239.9078550137
 11
89.1668163926
 21
239.7163656525
  0
LINE
  5
595
100
AcDbEntity
  8
0
100
AcDbLine
 62
7
  6
CONTINUOUS
 10
89.217775488
 20
239.9716847933
 11
89.1498300922
 21
240.3546635158
  0
LINE
  5
596
100
AcDbEntity
  8
0
100
AcDbLine
 62
7
  6
CONTINUOUS
 10
89.3157925645
 20
241.9504082746
 11
89.3837380575
 21
241.5674294181
  0
LINE
  5
597
100
AcDbEntity
  8
0
100
AcDbLine
 62
7
  6
CONTINUOUS
 10
89.4895573628
 20
241.9504082746
 11
89.5575028558
 21
241.5674294181
  0
LINE
  5
598
100
AcDbEntity
  8
0
100
AcDbLine
 62
7
  6
CONTINUOUS
 10
88.908119801
 20
240.1631741769
 11
88.9420924989
 21
239.9078550137
  0
LINE
  5
599
100
AcDbEntity
  8
0
100
AcDbLine
 62
7
  6
CONTINUOUS
 10
89.0818845992
 20
240.1631741769
 11
89.1158572971
 21
239.9078550137
  0
LINE
  5
59A
100
AcDbEntity
  8
0
100
AcDbLine
 62
7
  6
CONTINUOUS
 10
89.6254483488
 20
241.7589189358
 11
89.5914755537
 21
242.0142380543
  0
LINE
  5
59B
100
AcDbEntity
  8
0
100
AcDbLine
 62
7
  6
CONTINUOUS
 10
93.3558139535
 20
250.4610465116
 11
93.3558139535
 21
227.4610465116
  0
LINE
  5
59C
100
AcDbEntity
  8
0
100
AcDbLine
 62
7
  6
CONTINUOUS
 10
84.2702709631
 20
249.6436946708
 11
84.2695880603
 21
249.6448335663
  0
LINE
  5
59D
100
AcDbEntity
  8
0
100
AcDbLine
 62
7
  6
CONTINUOUS
 10
84.3342526836
 20
249.5326672364
 11
84.2695854331
 21
249.6448375485
  0
LINE
  5
59E
100
AcDbEntity
  8
0
100
AcDbLine
 62
7
  6
CONTINUOUS
 10
90.3218891904
 20
242.2695571728
 11
90.2539437946
 21
242.397216732
  0
LINE
  5
59F
100
AcDbEntity
  8
0
100
AcDbLine
 62
7
  6
CONTINUOUS
 10
89.5405164583
 20
242.2057273931
 11
89.4555846649
 21
242.397216732
  0
LINE
  5
5A0
100
AcDbEntity
  8
0
100
AcDbLine
 62
7
  6
CONTINUOUS
 10
89.2667840263
 20
242.0731814192
 11
89.3157925645
 21
241.9504082746
  0
LINE
  5
5A1
100
AcDbEntity
  8
0
100
AcDbLine
 62
7
  6
CONTINUOUS
 10
89.4385982674
 20
242.0780678339
 11
89.4895573628
 21
241.9504082746
  0
LINE
  5
5A2
100
AcDbEntity
  8
0
100
AcDbLine
 62
7
  6
CONTINUOUS
 10
90.0462062012
 20
242.0780678339
 11
90.0971652966
 21
241.9504082746
  0
LINE
  5
5A3
100
AcDbEntity
  8
0
100
AcDbLine
 62
7
  6
CONTINUOUS
 10
90.2199709995
 20
242.0780678339
 11
90.2709300949
 21
241.9504082746
  0
LINE
  5
5A4
100
AcDbEntity
  8
0
100
AcDbLine
 62
7
  6
CONTINUOUS
 10
89.5914755537
 20
242.0142380543
 11
89.5405164583
 21
242.2057273931
  0
LINE
  5
5A5
100
AcDbEntity
  8
0
100
AcDbLine
 62
7
  6
CONTINUOUS
 10
90.3898347806
 20
242.0142380543
 11
90.3218891904
 21
242.2695571728
  0
LINE
  5
5A6
100
AcDbEntity
  8
0
100
AcDbLine
 62
7
  6
CONTINUOUS
 10
90.0971652966
 20
241.9504082746
 11
90.1311380917
 21
241.7589189358
  0
LINE
  5
5A7
100
AcDbEntity
  8
0
100
AcDbLine
 62
7
  6
CONTINUOUS
 10
90.2709300949
 20
241.9504082746
 11
90.30490289
 21
241.7589189358
  0
LINE
  5
5A8
100
AcDbEntity
  8
2_FEATURE
100
AcDbLine
 62
7
  6
CONTINUOUS
 10
148.7403478675
 20
94.9313953489
 11
149.065466086
 21
94.9313953489
  0
LINE
  5
5A9
100
AcDbEntity
  8
0
100
AcDbLine
 62
7
  6
CONTINUOUS
 10
147.2358857037
 20
146.3336662589
 11
147.3146090985
 21
146.3656259494
  0
LINE
  5
5AA
100
AcDbEntity
  8
0
100
AcDbLine
 62
7
  6
CONTINUOUS
 10
147.2752474011
 20
145.4752006172
 11
147.1965240062
 21
145.4432409267
  0
LINE
  5
5AB
100
AcDbEntity
  8
0
100
AcDbLine
 62
7
  6
CONTINUOUS
 10
147.2752474011
 20
145.3748774641
 11
147.1965240062
 21
145.3429177736
  0
LINE
  5
5AC
100
AcDbEntity
  8
0
100
AcDbLine
 62
7
  6
CONTINUOUS
 10
146.9800346428
 20
145.0277656818
 11
146.9013112341
 21
144.9958061741
  0
LINE
  5
5AD
100
AcDbEntity
  8
0
100
AcDbLine
 62
7
  6
CONTINUOUS
 10
146.9800346428
 20
144.9274425287
 11
146.9013112341
 21
144.8954830211
  0
LINE
  5
5AE
100
AcDbEntity
  8
0
100
AcDbLine
 62
7
  6
CONTINUOUS
 10
147.1965240062
 20
145.1831196869
 11
147.2949282498
 21
145.2150791945
  0
LINE
  5
5AF
100
AcDbEntity
  8
0
100
AcDbLine
 62
7
  6
CONTINUOUS
 10
146.8619495298
 20
143.936693952
 11
146.9603537803
 21
143.9686538254
  0
LINE
  5
5B0
100
AcDbEntity
  8
0
100
AcDbLine
 62
7
  6
CONTINUOUS
 10
146.9997154915
 20
147.4247379572
 11
146.9209920828
 21
147.360818699
  0
LINE
  5
5B1
100
AcDbEntity
  8
0
100
AcDbLine
 62
7
  6
CONTINUOUS
 10
146.9997154915
 20
147.3244148041
 11
146.9209920828
 21
147.260495546
  0
LINE
  5
5B2
100
AcDbEntity
  8
0
100
AcDbLine
 62
7
  6
CONTINUOUS
 10
146.9800346428
 20
147.1326570354
 11
147.0784388864
 21
147.1965762907
  0
LINE
  5
5B3
100
AcDbEntity
  8
0
100
AcDbLine
 62
7
  6
CONTINUOUS
 10
147.2949282498
 20
146.6257471892
 11
147.2358857037
 21
146.5937875901
  0
LINE
  5
5B4
100
AcDbEntity
  8
0
100
AcDbLine
 62
7
  6
CONTINUOUS
 10
147.2949282498
 20
146.5254240361
 11
147.2358857037
 21
146.493464437
  0
LINE
  5
5B5
100
AcDbEntity
  8
0
100
AcDbLine
 62
7
  6
CONTINUOUS
 10
146.8461434304
 20
144.1989127634
 11
146.8422686776
 21
144.1968153747
  0
LINE
  5
5B6
100
AcDbEntity
  8
0
100
AcDbLine
 62
7
  6
CONTINUOUS
 10
146.9013112341
 20
144.1284517293
 11
146.8422686776
 21
144.0964922216
  0
LINE
  5
5B7
100
AcDbEntity
  8
0
100
AcDbLine
 62
7
  6
CONTINUOUS
 10
146.8029069767
 20
143.9047344444
 11
146.8619495298
 21
143.936693952
  0
LINE
  5
5B8
100
AcDbEntity
  8
0
100
AcDbLine
 62
7
  6
CONTINUOUS
 10
147.2752474011
 20
143.9686538254
 11
147.3342899473
 21
144.000613333
  0
LINE
  5
5B9
100
AcDbEntity
  8
0
100
AcDbLine
 62
7
  6
CONTINUOUS
 10
147.2752474011
 20
142.6307936492
 11
147.1768431575
 21
142.5988337759
  0
LINE
  5
5BA
100
AcDbEntity
  8
0
100
AcDbLine
 62
7
  6
CONTINUOUS
 10
147.2752474011
 20
142.5304704962
 11
147.1768431575
 21
142.4985106228
  0
LINE
  5
5BB
100
AcDbEntity
  8
0
100
AcDbLine
 62
7
  6
CONTINUOUS
 10
147.1768431575
 20
142.3387127189
 11
147.2752474011
 21
142.3706722266
  0
LINE
  5
5BC
100
AcDbEntity
  8
DEFAULT_1
100
AcDbLine
 62
2
  6
CENTER
 10
164.0383490909
 20
113.0513953489
 11
150.9030069767
 21
113.0513953489
  0
LINE
  5
5BD
100
AcDbEntity
  8
0
100
AcDbLine
 62
2
  6
CONTINUOUS
 10
149.7829069767
 20
113.0513953489
 11
148.0229069767
 21
113.0513953489
  0
LINE
  5
5BE
100
AcDbEntity
  8
DEFAULT_1
100
AcDbLine
 62
2
  6
CENTER
 10
133.9136979281
 20
113.0513953489
 11
146.9028069767
 21
113.0513953489
  0
LINE
  5
5BF
100
AcDbEntity
  8
0
100
AcDbLine
 62
7
  6
CONTINUOUS
 10
147.2949282498
 20
145.2150791945
 11
147.3342899473
 21
145.247038885
  0
LINE
  5
5C0
100
AcDbEntity
  8
0
100
AcDbLine
 62
7
  6
CONTINUOUS
 10
146.9209920828
 20
144.7356847515
 11
146.9603537803
 21
144.767644442
  0
LINE
  5
5C1
100
AcDbEntity
  8
0
100
AcDbLine
 62
7
  6
CONTINUOUS
 10
146.8422686776
 20
144.1968153747
 11
146.8029069767
 21
144.1648558671
  0
LINE
  5
5C2
100
AcDbEntity
  8
0
100
AcDbLine
 62
7
  6
CONTINUOUS
 10
146.8422686776
 20
144.0964922216
 11
146.8029069767
 21
144.064532714
  0
LINE
  5
5C3
100
AcDbEntity
  8
0
100
AcDbLine
 62
7
  6
CONTINUOUS
 10
147.3146090985
 20
144.2607347557
 11
147.2752474011
 21
144.2287748823
  0
LINE
  5
5C4
100
AcDbEntity
  8
0
100
AcDbLine
 62
7
  6
CONTINUOUS
 10
147.3146090985
 20
144.1604116026
 11
147.2752474011
 21
144.1284517293
  0
LINE
  5
5C5
100
AcDbEntity
  8
0
100
AcDbLine
 62
7
  6
CONTINUOUS
 10
146.9603537803
 20
142.1833587138
 11
146.8816303785
 21
142.1194393328
  0
LINE
  5
5C6
100
AcDbEntity
  8
0
100
AcDbLine
 62
7
  6
CONTINUOUS
 10
146.9603537803
 20
142.0830355607
 11
146.8816303785
 21
142.0191161797
  0
LINE
  5
5C7
100
AcDbEntity
  8
0
100
AcDbLine
 62
7
  6
CONTINUOUS
 10
147.2752474011
 20
142.1833587138
 11
147.1965240062
 21
142.1194393328
  0
LINE
  5
5C8
100
AcDbEntity
  8
0
100
AcDbLine
 62
7
  6
CONTINUOUS
 10
146.9209920828
 20
141.8912777835
 11
146.9603537803
 21
141.9232372911
  0
LINE
  5
5C9
100
AcDbEntity
  8
0
100
AcDbLine
 62
7
  6
CONTINUOUS
 10
147.2752474011
 20
142.0830355607
 11
147.1965240062
 21
142.0191161797
  0
LINE
  5
5CA
100
AcDbEntity
  8
0
100
AcDbLine
 62
7
  6
CONTINUOUS
 10
147.2358857037
 20
141.8912777835
 11
147.2752474011
 21
141.9232372911
  0
LINE
  5
5CB
100
AcDbEntity
  8
0
100
AcDbLine
 62
7
  6
CONTINUOUS
 10
147.2752474011
 20
142.3706722266
 11
147.3342899473
 21
142.4026317342
  0
LINE
  5
5CC
100
AcDbEntity
  8
0
100
AcDbLine
 62
7
  6
CONTINUOUS
 10
146.9209920828
 20
147.360818699
 11
146.8816303785
 21
147.2968994438
  0
LINE
  5
5CD
100
AcDbEntity
  8
0
100
AcDbLine
 62
7
  6
CONTINUOUS
 10
146.9209920828
 20
147.260495546
 11
146.8816303785
 21
147.1965762907
  0
LINE
  5
5CE
100
AcDbEntity
  8
0
100
AcDbLine
 62
7
  6
CONTINUOUS
 10
146.9209920828
 20
147.0367781468
 11
146.9800346428
 21
147.1326570354
  0
LINE
  5
5CF
100
AcDbEntity
  8
0
100
AcDbLine
 62
7
  6
CONTINUOUS
 10
147.3146090985
 20
146.3656259494
 11
147.3736516447
 21
146.461504838
  0
LINE
  5
5D0
100
AcDbEntity
  8
0
100
AcDbLine
 62
7
  6
CONTINUOUS
 10
146.9997154915
 20
141.3524082239
 11
146.9603537803
 21
141.3204487162
  0
LINE
  5
5D1
100
AcDbEntity
  8
0
100
AcDbLine
 62
7
  6
CONTINUOUS
 10
146.9997154915
 20
141.2520850708
 11
146.9603537803
 21
141.2201255632
  0
LINE
  5
5D2
100
AcDbEntity
  8
0
100
AcDbLine
 62
7
  6
CONTINUOUS
 10
147.3146090985
 20
141.3524082239
 11
147.2752474011
 21
141.3204487162
  0
LINE
  5
5D3
100
AcDbEntity
  8
0
100
AcDbLine
 62
7
  6
CONTINUOUS
 10
146.9603537803
 20
141.0603276593
 11
147.0390771889
 21
141.1242466746
  0
LINE
  5
5D4
100
AcDbEntity
  8
0
100
AcDbLine
 62
7
  6
CONTINUOUS
 10
147.3146090985
 20
141.2520850708
 11
147.2752474011
 21
141.2201255632
  0
LINE
  5
5D5
100
AcDbEntity
  8
0
100
AcDbLine
 62
7
  6
CONTINUOUS
 10
147.2752474011
 20
141.0603276593
 11
147.353970796
 21
141.1242466746
  0
LINE
  5
5D6
100
AcDbEntity
  8
2_FEATURE
100
AcDbLine
 62
7
  6
CONTINUOUS
 10
136.4029069767
 20
100.5315333981
 11
136.4029069767
 21
122.3207667926
  0
LINE
  5
5D7
100
AcDbEntity
  8
0
100
AcDbLine
 62
7
  6
CONTINUOUS
 10
136.4029069767
 20
100.5221151059
 11
136.4029069767
 21
162.9313953489
  0
LINE
  5
5D8
100
AcDbEntity
  8
0
100
AcDbLine
 62
7
  6
CONTINUOUS
 10
146.8816303785
 20
147.2968994438
 11
146.8422686776
 21
147.2010205437
  0
LINE
  5
5D9
100
AcDbEntity
  8
0
100
AcDbLine
 62
7
  6
CONTINUOUS
 10
146.8816303785
 20
147.1965762907
 11
146.8422686776
 21
147.1006973907
  0
LINE
  5
5DA
100
AcDbEntity
  8
0
100
AcDbLine
 62
7
  6
CONTINUOUS
 10
147.3342899473
 20
146.7216261235
 11
147.2949282498
 21
146.6257471892
  0
LINE
  5
5DB
100
AcDbEntity
  8
0
100
AcDbLine
 62
7
  6
CONTINUOUS
 10
147.3342899473
 20
146.6213029704
 11
147.2949282498
 21
146.5254240361
  0
LINE
  5
5DC
100
AcDbEntity
  8
0
100
AcDbLine
 62
7
  6
CONTINUOUS
 10
146.9013112341
 20
144.9958061741
 11
146.8422686776
 21
144.8999272855
  0
LINE
  5
5DD
100
AcDbEntity
  8
0
100
AcDbLine
 62
7
  6
CONTINUOUS
 10
146.9013112341
 20
144.8954830211
 11
146.8422686776
 21
144.7996041325
  0
LINE
  5
5DE
100
AcDbEntity
  8
0
100
AcDbLine
 62
7
  6
CONTINUOUS
 10
147.3146090985
 20
145.5391198153
 11
147.2752474011
 21
145.4752006172
  0
LINE
  5
5DF
100
AcDbEntity
  8
0
100
AcDbLine
 62
7
  6
CONTINUOUS
 10
147.3146090985
 20
145.4387966623
 11
147.2752474011
 21
145.3748774641
  0
LINE
  5
5E0
100
AcDbEntity
  8
0
100
AcDbLine
 62
7
  6
CONTINUOUS
 10
147.3342899473
 20
145.247038885
 11
147.3736516447
 21
145.3109580832
  0
LINE
  5
5E1
100
AcDbEntity
  8
0
100
AcDbLine
 62
7
  6
CONTINUOUS
 10
147.3342899473
 20
144.000613333
 11
147.3736516447
 21
144.064532714
  0
LINE
  5
5E2
100
AcDbEntity
  8
0
100
AcDbLine
 62
7
  6
CONTINUOUS
 10
147.3146090985
 20
142.6947126645
 11
147.2752474011
 21
142.6307936492
  0
LINE
  5
5E3
100
AcDbEntity
  8
0
100
AcDbLine
 62
7
  6
CONTINUOUS
 10
147.3146090985
 20
142.5943895114
 11
147.2752474011
 21
142.5304704962
  0
LINE
  5
5E4
100
AcDbEntity
  8
0
100
AcDbLine
 62
7
  6
CONTINUOUS
 10
147.3342899473
 20
142.4026317342
 11
147.3736516447
 21
142.4665511152
  0
LINE
  5
5E5
100
AcDbEntity
  8
0
100
AcDbLine
 62
7
  6
CONTINUOUS
 10
146.8422686776
 20
147.2010205437
 11
146.8225878272
 21
147.1051416551
  0
LINE
  5
5E6
100
AcDbEntity
  8
0
100
AcDbLine
 62
7
  6
CONTINUOUS
 10
146.8422686776
 20
147.1006973907
 11
146.8225878272
 21
147.004818502
  0
LINE
  5
5E7
100
AcDbEntity
  8
0
100
AcDbLine
 62
7
  6
CONTINUOUS
 10
146.8816303785
 20
146.8450203467
 11
146.9209920828
 21
147.0367781468
  0
LINE
  5
5E8
100
AcDbEntity
  8
0
100
AcDbLine
 62
7
  6
CONTINUOUS
 10
146.8422686776
 20
144.8999272855
 11
146.8225878272
 21
144.8360079045
  0
LINE
  5
5E9
100
AcDbEntity
  8
0
100
AcDbLine
 62
7
  6
CONTINUOUS
 10
146.8422686776
 20
144.7996041325
 11
146.8225878272
 21
144.7356847515
  0
LINE
  5
5EA
100
AcDbEntity
  8
0
100
AcDbLine
 62
7
  6
CONTINUOUS
 10
147.3736516447
 20
146.461504838
 11
147.4130133421
 21
146.5893433257
  0
LINE
  5
5EB
100
AcDbEntity
  8
0
100
AcDbLine
 62
7
  6
CONTINUOUS
 10
146.8816303785
 20
144.6078463552
 11
146.9209920828
 21
144.7356847515
  0
LINE
  5
5EC
100
AcDbEntity
  8
0
100
AcDbLine
 62
7
  6
CONTINUOUS
 10
147.3342899473
 20
145.6030390135
 11
147.3146090985
 21
145.5391198153
  0
LINE
  5
5ED
100
AcDbEntity
  8
0
100
AcDbLine
 62
7
  6
CONTINUOUS
 10
147.3342899473
 20
145.5027158604
 11
147.3146090985
 21
145.4387966623
  0
LINE
  5
5EE
100
AcDbEntity
  8
0
100
AcDbLine
 62
7
  6
CONTINUOUS
 10
147.3342899473
 20
144.324653771
 11
147.3146090985
 21
144.2607347557
  0
LINE
  5
5EF
100
AcDbEntity
  8
0
100
AcDbLine
 62
7
  6
CONTINUOUS
 10
147.3342899473
 20
144.2243306179
 11
147.3146090985
 21
144.1604116026
  0
LINE
  5
5F0
100
AcDbEntity
  8
0
100
AcDbLine
 62
7
  6
CONTINUOUS
 10
146.9013112341
 20
141.8273584025
 11
146.9209920828
 21
141.8912777835
  0
LINE
  5
5F1
100
AcDbEntity
  8
0
100
AcDbLine
 62
7
  6
CONTINUOUS
 10
147.3342899473
 20
142.7586320455
 11
147.3146090985
 21
142.6947126645
  0
LINE
  5
5F2
100
AcDbEntity
  8
0
100
AcDbLine
 62
7
  6
CONTINUOUS
 10
147.3342899473
 20
142.6583088924
 11
147.3146090985
 21
142.5943895114
  0
LINE
  5
5F3
100
AcDbEntity
  8
0
100
AcDbLine
 62
7
  6
CONTINUOUS
 10
147.3342899473
 20
141.4163276049
 11
147.3146090985
 21
141.3524082239
  0
LINE
  5
5F4
100
AcDbEntity
  8
0
100
AcDbLine
 62
7
  6
CONTINUOUS
 10
147.3342899473
 20
141.3160044518
 11
147.3146090985
 21
141.2520850708
  0
LINE
  5
5F5
100
AcDbEntity
  8
0
100
AcDbLine
 62
7
  6
CONTINUOUS
 10
147.3736516447
 20
145.3109580832
 11
147.4130133421
 21
145.4068369718
  0
LINE
  5
5F6
100
AcDbEntity
  8
0
100
AcDbLine
 62
7
  6
CONTINUOUS
 10
147.3736516447
 20
144.064532714
 11
147.4130133421
 21
144.1604116026
  0
LINE
  5
5F7
100
AcDbEntity
  8
0
100
AcDbLine
 62
7
  6
CONTINUOUS
 10
146.8816303785
 20
142.1194393328
 11
146.8422686776
 21
142.0235604442
  0
LINE
  5
5F8
100
AcDbEntity
  8
0
100
AcDbLine
 62
7
  6
CONTINUOUS
 10
146.8816303785
 20
142.0191161797
 11
146.8422686776
 21
141.9232372911
  0
LINE
  5
5F9
100
AcDbEntity
  8
0
100
AcDbLine
 62
7
  6
CONTINUOUS
 10
147.3736516447
 20
142.4665511152
 11
147.4130133421
 21
142.5624300038
  0
LINE
  5
5FA
100
AcDbEntity
  8
0
100
AcDbLine
 62
7
  6
CONTINUOUS
 10
147.0390771889
 20
141.4482871125
 11
146.9997154915
 21
141.3524082239
  0
LINE
  5
5FB
100
AcDbEntity
  8
0
100
AcDbLine
 62
7
  6
CONTINUOUS
 10
147.1965240062
 20
141.7953988949
 11
147.2358857037
 21
141.8912777835
  0
LINE
  5
5FC
100
AcDbEntity
  8
0
100
AcDbLine
 62
7
  6
CONTINUOUS
 10
147.0390771889
 20
141.3479639594
 11
146.9997154915
 21
141.2520850708
  0
LINE
  5
5FD
100
AcDbEntity
  8
0
100
AcDbLine
 62
7
  6
CONTINUOUS
 10
147.353970796
 20
141.1242466746
 11
147.3933324934
 21
141.2201255632
  0
LINE
  5
5FE
100
AcDbEntity
  8
0
100
AcDbLine
 62
7
  6
CONTINUOUS
 10
147.1965240062
 20
142.1194393328
 11
147.1374814325
 21
141.9916009365
  0
LINE
  5
5FF
100
AcDbEntity
  8
0
100
AcDbLine
 62
7
  6
CONTINUOUS
 10
147.1965240062
 20
142.0191161797
 11
147.1374814325
 21
141.8912777835
  0
LINE
  5
600
100
AcDbEntity
  8
0
100
AcDbLine
 62
7
  6
CONTINUOUS
 10
147.0390771889
 20
141.1242466746
 11
147.0981197351
 21
141.2520850708
  0
LINE
  5
601
100
AcDbEntity
  8
0
100
AcDbLine
 62
7
  6
CONTINUOUS
 10
144.7029069767
 20
119.2320090849
 11
144.7029069767
 21
106.6307816128
  0
LINE
  5
602
100
AcDbEntity
  8
0
100
AcDbLine
 62
7
  6
CONTINUOUS
 10
147.3483544922
 20
146.8815014992
 11
147.3342899473
 21
146.7216261235
  0
LINE
  5
603
100
AcDbEntity
  8
0
100
AcDbLine
 62
7
  6
CONTINUOUS
 10
147.353970796
 20
146.8450203467
 11
147.3342899473
 21
146.6213029704
  0
LINE
  5
604
100
AcDbEntity
  8
0
100
AcDbLine
 62
7
  6
CONTINUOUS
 10
147.4130133421
 20
146.5893433257
 11
147.4326941908
 21
146.8130607477
  0
LINE
  5
605
100
AcDbEntity
  8
0
100
AcDbLine
 62
7
  6
CONTINUOUS
 10
146.8225878272
 20
147.1051416551
 11
146.8029069767
 21
146.9133839007
  0
LINE
  5
606
100
AcDbEntity
  8
0
100
AcDbLine
 62
7
  6
CONTINUOUS
 10
146.8225878272
 20
147.004818502
 11
146.8029069767
 21
146.8130607477
  0
LINE
  5
607
100
AcDbEntity
  8
0
100
AcDbLine
 62
7
  6
CONTINUOUS
 10
146.8225878272
 20
141.9276815556
 11
146.8029069767
 21
141.7359237783
  0
LINE
  5
608
100
AcDbEntity
  8
0
100
AcDbLine
 62
7
  6
CONTINUOUS
 10
146.8225878272
 20
141.8273584025
 11
146.8029069767
 21
141.6356006253
  0
LINE
  5
609
100
AcDbEntity
  8
0
100
AcDbLine
 62
7
  6
CONTINUOUS
 10
146.8816303785
 20
141.6356006253
 11
146.9013112341
 21
141.8273584025
  0
LINE
  5
60A
100
AcDbEntity
  8
0
100
AcDbLine
 62
7
  6
CONTINUOUS
 10
147.4130133421
 20
144.1604116026
 11
147.4326941908
 21
144.352169197
  0
LINE
  5
60B
100
AcDbEntity
  8
0
100
AcDbLine
 62
7
  6
CONTINUOUS
 10
147.353970796
 20
141.6080853821
 11
147.3342899473
 21
141.4163276049
  0
LINE
  5
60C
100
AcDbEntity
  8
0
100
AcDbLine
 62
7
  6
CONTINUOUS
 10
147.353970796
 20
141.507762229
 11
147.3342899473
 21
141.3160044518
  0
LINE
  5
60D
100
AcDbEntity
  8
0
100
AcDbLine
 62
7
  6
CONTINUOUS
 10
147.4130133421
 20
141.3160044518
 11
147.4326941908
 21
141.507762229
  0
LINE
  5
60E
100
AcDbEntity
  8
0
100
AcDbLine
 62
7
  6
CONTINUOUS
 10
146.8225878272
 20
144.8360079045
 11
146.8029069767
 21
144.7081695083
  0
LINE
  5
60F
100
AcDbEntity
  8
0
100
AcDbLine
 62
7
  6
CONTINUOUS
 10
146.8225878272
 20
144.7356847515
 11
146.8029069767
 21
144.6078463552
  0
LINE
  5
610
100
AcDbEntity
  8
0
100
AcDbLine
 62
7
  6
CONTINUOUS
 10
147.3462483822
 20
145.680716016
 11
147.3342899473
 21
145.6030390135
  0
LINE
  5
611
100
AcDbEntity
  8
0
100
AcDbLine
 62
7
  6
CONTINUOUS
 10
147.353970796
 20
145.6305544395
 11
147.3342899473
 21
145.5027158604
  0
LINE
  5
612
100
AcDbEntity
  8
0
100
AcDbLine
 62
7
  6
CONTINUOUS
 10
147.353970796
 20
144.4524923501
 11
147.3342899473
 21
144.324653771
  0
LINE
  5
613
100
AcDbEntity
  8
0
100
AcDbLine
 62
7
  6
CONTINUOUS
 10
147.353970796
 20
144.352169197
 11
147.3342899473
 21
144.2243306179
  0
LINE
  5
614
100
AcDbEntity
  8
0
100
AcDbLine
 62
7
  6
CONTINUOUS
 10
147.3462483822
 20
142.8363089369
 11
147.3342899473
 21
142.7586320455
  0
LINE
  5
615
100
AcDbEntity
  8
0
100
AcDbLine
 62
7
  6
CONTINUOUS
 10
147.353970796
 20
142.7861472886
 11
147.3342899473
 21
142.6583088924
  0
LINE
  5
616
100
AcDbEntity
  8
0
100
AcDbLine
 62
7
  6
CONTINUOUS
 10
147.1374814325
 20
141.9916009365
 11
147.0390771889
 21
141.4482871125
  0
LINE
  5
617
100
AcDbEntity
  8
0
100
AcDbLine
 62
7
  6
CONTINUOUS
 10
147.1374814325
 20
141.8912777835
 11
147.0390771889
 21
141.3479639594
  0
LINE
  5
618
100
AcDbEntity
  8
0
100
AcDbLine
 62
7
  6
CONTINUOUS
 10
147.0981197351
 20
141.2520850708
 11
147.1965240062
 21
141.7953988949
  0
LINE
  5
619
100
AcDbEntity
  8
0
100
AcDbLine
 62
7
  6
CONTINUOUS
 10
147.4130133421
 20
145.4068369718
 11
147.4326941908
 21
145.5027158604
  0
LINE
  5
61A
100
AcDbEntity
  8
0
100
AcDbLine
 62
7
  6
CONTINUOUS
 10
146.8422686776
 20
142.0235604442
 11
146.8225878272
 21
141.9276815556
  0
LINE
  5
61B
100
AcDbEntity
  8
0
100
AcDbLine
 62
7
  6
CONTINUOUS
 10
146.8422686776
 20
141.9232372911
 11
146.8225878272
 21
141.8273584025
  0
LINE
  5
61C
100
AcDbEntity
  8
0
100
AcDbLine
 62
7
  6
CONTINUOUS
 10
147.4130133421
 20
142.5624300038
 11
147.4326941908
 21
142.6583088924
  0
LINE
  5
61D
100
AcDbEntity
  8
0
100
AcDbLine
 62
7
  6
CONTINUOUS
 10
147.3933324934
 20
141.2201255632
 11
147.4130133421
 21
141.3160044518
  0
LINE
  5
61E
100
AcDbEntity
  8
0
100
AcDbLine
 62
7
  6
CONTINUOUS
 10
146.8029069767
 20
141.443842848
 11
146.8225878272
 21
141.2520850708
  0
LINE
  5
61F
100
AcDbEntity
  8
0
100
AcDbLine
 62
7
  6
CONTINUOUS
 10
147.4326941908
 20
141.6995200062
 11
147.4130133421
 21
141.8912777835
  0
LINE
  5
620
100
AcDbEntity
  8
0
100
AcDbLine
 62
7
  6
CONTINUOUS
 10
147.4326941908
 20
141.7998431593
 11
147.4130133421
 21
141.9916009365
  0
LINE
  5
621
100
AcDbEntity
  8
0
100
AcDbLine
 62
7
  6
CONTINUOUS
 10
147.216204855
 20
144.4800077761
 11
147.1965240062
 21
144.6717655533
  0
LINE
  5
622
100
AcDbEntity
  8
0
100
AcDbLine
 62
7
  6
CONTINUOUS
 10
147.216204855
 20
144.5803309292
 11
147.1965240062
 21
144.7720887064
  0
LINE
  5
623
100
AcDbEntity
  8
0
100
AcDbLine
 62
7
  6
CONTINUOUS
 10
147.4326941908
 20
146.8130607477
 11
147.4130133421
 21
147.004818502
  0
LINE
  5
624
100
AcDbEntity
  8
0
100
AcDbLine
 62
7
  6
CONTINUOUS
 10
147.4326941908
 20
146.9133839007
 11
147.4130133421
 21
147.1051416551
  0
LINE
  5
625
100
AcDbEntity
  8
0
100
AcDbLine
 62
7
  6
CONTINUOUS
 10
146.8029069767
 20
146.8130607477
 11
146.8225878272
 21
146.5893433257
  0
LINE
  5
626
100
AcDbEntity
  8
0
100
AcDbLine
 62
7
  6
CONTINUOUS
 10
146.9013112341
 20
146.6213029704
 11
146.8816303785
 21
146.8450203467
  0
LINE
  5
627
100
AcDbEntity
  8
0
100
AcDbLine
 62
7
  6
CONTINUOUS
 10
146.9013112341
 20
146.7216261235
 11
146.8878083146
 21
146.8751173017
  0
LINE
  5
628
100
AcDbEntity
  8
0
100
AcDbLine
 62
7
  6
CONTINUOUS
 10
147.4326941908
 20
144.5439269742
 11
147.4130133421
 21
144.767644442
  0
LINE
  5
629
100
AcDbEntity
  8
0
100
AcDbLine
 62
7
  6
CONTINUOUS
 10
147.4326941908
 20
144.6442501273
 11
147.4130133421
 21
144.867967595
  0
LINE
  5
62A
100
AcDbEntity
  8
0
100
AcDbLine
 62
7
  6
CONTINUOUS
 10
146.8029069767
 20
146.9133839007
 11
146.8029069767
 21
146.8130607477
  0
LINE
  5
62B
100
AcDbEntity
  8
0
100
AcDbLine
 62
7
  6
CONTINUOUS
 10
146.8029069767
 20
146.1783124366
 11
146.8029069767
 21
145.9181911053
  0
LINE
  5
62C
100
AcDbEntity
  8
0
100
AcDbLine
 62
7
  6
CONTINUOUS
 10
146.8029069767
 20
145.4432409267
 11
146.8029069767
 21
145.1831196869
  0
LINE
  5
62D
100
AcDbEntity
  8
0
100
AcDbLine
 62
7
  6
CONTINUOUS
 10
146.8029069767
 20
144.7081695083
 11
146.8029069767
 21
144.416088578
  0
LINE
  5
62E
100
AcDbEntity
  8
0
100
AcDbLine
 62
7
  6
CONTINUOUS
 10
146.8029069767
 20
144.1648558671
 11
146.8029069767
 21
143.9047344444
  0
LINE
  5
62F
100
AcDbEntity
  8
0
100
AcDbLine
 62
7
  6
CONTINUOUS
 10
146.8029069767
 20
143.7493804393
 11
146.8029069767
 21
143.4892593823
  0
LINE
  5
630
100
AcDbEntity
  8
0
100
AcDbLine
 62
7
  6
CONTINUOUS
 10
146.8029069767
 20
143.3339053772
 11
146.8029069767
 21
143.0737839545
  0
LINE
  5
631
100
AcDbEntity
  8
0
100
AcDbLine
 62
7
  6
CONTINUOUS
 10
146.8029069767
 20
142.5988337759
 11
146.8029069767
 21
142.3387127189
  0
LINE
  5
632
100
AcDbEntity
  8
0
100
AcDbLine
 62
7
  6
CONTINUOUS
 10
146.8029069767
 20
141.7359237783
 11
146.8029069767
 21
141.443842848
  0
LINE
  5
633
100
AcDbEntity
  8
0
100
AcDbLine
 62
7
  6
CONTINUOUS
 10
146.8225878272
 20
147.1051416551
 11
146.8225878272
 21
147.004818502
  0
LINE
  5
634
100
AcDbEntity
  8
0
100
AcDbLine
 62
7
  6
CONTINUOUS
 10
146.8225878272
 20
144.8360079045
 11
146.8225878272
 21
144.7356847515
  0
LINE
  5
635
100
AcDbEntity
  8
0
100
AcDbLine
 62
7
  6
CONTINUOUS
 10
146.8225878272
 20
141.9276815556
 11
146.8225878272
 21
141.8273584025
  0
LINE
  5
636
100
AcDbEntity
  8
0
100
AcDbLine
 62
7
  6
CONTINUOUS
 10
146.8422686776
 20
147.2010205437
 11
146.8422686776
 21
147.1006973907
  0
LINE
  5
637
100
AcDbEntity
  8
0
100
AcDbLine
 62
7
  6
CONTINUOUS
 10
146.8422686776
 20
144.8999272855
 11
146.8422686776
 21
144.7996041325
  0
LINE
  5
638
100
AcDbEntity
  8
0
100
AcDbLine
 62
7
  6
CONTINUOUS
 10
146.8422686776
 20
144.1968153747
 11
146.8422686776
 21
144.0964922216
  0
LINE
  5
639
100
AcDbEntity
  8
0
100
AcDbLine
 62
7
  6
CONTINUOUS
 10
146.8422686776
 20
142.0235604442
 11
146.8422686776
 21
141.9232372911
  0
LINE
  5
63A
100
AcDbEntity
  8
0
100
AcDbLine
 62
7
  6
CONTINUOUS
 10
146.8816303785
 20
147.2968994438
 11
146.8816303785
 21
147.1965762907
  0
LINE
  5
63B
100
AcDbEntity
  8
0
100
AcDbLine
 62
7
  6
CONTINUOUS
 10
146.8816303785
 20
142.1194393328
 11
146.8816303785
 21
142.0191161797
  0
LINE
  5
63C
100
AcDbEntity
  8
0
100
AcDbLine
 62
7
  6
CONTINUOUS
 10
146.8816303785
 20
141.443842848
 11
146.8816303785
 21
141.6356006253
  0
LINE
  5
63D
100
AcDbEntity
  8
0
100
AcDbLine
 62
7
  6
CONTINUOUS
 10
146.8816303785
 20
144.416088578
 11
146.8816303785
 21
144.6078463552
  0
LINE
  5
63E
100
AcDbEntity
  8
0
100
AcDbLine
 62
7
  6
CONTINUOUS
 10
146.9013112341
 20
146.7216261235
 11
146.9013112341
 21
146.6213029704
  0
LINE
  5
63F
100
AcDbEntity
  8
0
100
AcDbLine
 62
7
  6
CONTINUOUS
 10
146.9013112341
 20
144.9958061741
 11
146.9013112341
 21
144.8954830211
  0
LINE
  5
640
100
AcDbEntity
  8
0
100
AcDbLine
 62
7
  6
CONTINUOUS
 10
146.9013112341
 20
141.4163276049
 11
146.9013112341
 21
141.3160044518
  0
LINE
  5
641
100
AcDbEntity
  8
0
100
AcDbLine
 62
7
  6
CONTINUOUS
 10
146.9209920828
 20
147.360818699
 11
146.9209920828
 21
147.260495546
  0
LINE
  5
642
100
AcDbEntity
  8
0
100
AcDbLine
 62
7
  6
CONTINUOUS
 10
146.9209920828
 20
144.3566136443
 11
146.9209920828
 21
144.2562904913
  0
LINE
  5
643
100
AcDbEntity
  8
0
100
AcDbLine
 62
7
  6
CONTINUOUS
 10
146.9209920828
 20
141.3524082239
 11
146.9209920828
 21
141.2520850708
  0
LINE
  5
644
100
AcDbEntity
  8
0
100
AcDbLine
 62
7
  6
CONTINUOUS
 10
146.9406729316
 20
146.6257471892
 11
146.9406729316
 21
146.5254240361
  0
LINE
  5
645
100
AcDbEntity
  8
0
100
AcDbLine
 62
7
  6
CONTINUOUS
 10
146.9603537803
 20
141.3204487162
 11
146.9603537803
 21
141.2201255632
  0
LINE
  5
646
100
AcDbEntity
  8
0
100
AcDbLine
 62
7
  6
CONTINUOUS
 10
146.9603537803
 20
141.9232372911
 11
146.9603537803
 21
142.1833587138
  0
LINE
  5
647
100
AcDbEntity
  8
0
100
AcDbLine
 62
7
  6
CONTINUOUS
 10
146.9800346428
 20
145.0277656818
 11
146.9800346428
 21
144.9274425287
  0
LINE
  5
648
100
AcDbEntity
  8
0
100
AcDbLine
 62
7
  6
CONTINUOUS
 10
146.9800346428
 20
144.2607347557
 11
146.9800346428
 21
144.1604116026
  0
LINE
  5
649
100
AcDbEntity
  8
0
100
AcDbLine
 62
7
  6
CONTINUOUS
 10
146.9997154915
 20
147.4247379572
 11
146.9997154915
 21
147.3244148041
  0
LINE
  5
64A
100
AcDbEntity
  8
0
100
AcDbLine
 62
7
  6
CONTINUOUS
 10
146.9997154915
 20
141.3524082239
 11
146.9997154915
 21
141.2520850708
  0
LINE
  5
64B
100
AcDbEntity
  8
0
100
AcDbLine
 62
7
  6
CONTINUOUS
 10
146.9997154915
 20
146.3336662589
 11
146.9997154915
 21
146.5937875901
  0
LINE
  5
64C
100
AcDbEntity
  8
0
100
AcDbLine
 62
7
  6
CONTINUOUS
 10
147.0193963402
 20
144.2287748823
 11
147.0193963402
 21
144.1284517293
  0
LINE
  5
64D
100
AcDbEntity
  8
0
100
AcDbLine
 62
7
  6
CONTINUOUS
 10
147.0390771889
 20
145.0277656818
 11
147.0390771889
 21
144.9274425287
  0
LINE
  5
64E
100
AcDbEntity
  8
0
100
AcDbLine
 62
7
  6
CONTINUOUS
 10
147.0390771889
 20
141.4482871125
 11
147.0390771889
 21
141.3479639594
  0
LINE
  5
64F
100
AcDbEntity
  8
0
100
AcDbLine
 62
7
  6
CONTINUOUS
 10
147.1178005838
 20
147.4566975877
 11
147.1178005838
 21
147.3563744346
  0
LINE
  5
650
100
AcDbEntity
  8
0
100
AcDbLine
 62
7
  6
CONTINUOUS
 10
147.1178005838
 20
144.9638464836
 11
147.1178005838
 21
144.8635233306
  0
LINE
  5
651
100
AcDbEntity
  8
0
100
AcDbLine
 62
7
  6
CONTINUOUS
 10
147.1374814325
 20
144.4800077761
 11
147.1374814325
 21
144.1284517293
  0
LINE
  5
652
100
AcDbEntity
  8
0
100
AcDbLine
 62
7
  6
CONTINUOUS
 10
147.1374814325
 20
141.9916009365
 11
147.1374814325
 21
141.8912777835
  0
LINE
  5
653
100
AcDbEntity
  8
0
100
AcDbLine
 62
7
  6
CONTINUOUS
 10
147.1571623088
 20
144.8999272855
 11
147.1571623088
 21
144.7996041325
  0
LINE
  5
654
100
AcDbEntity
  8
0
100
AcDbLine
 62
7
  6
CONTINUOUS
 10
147.1768431575
 20
142.5988337759
 11
147.1768431575
 21
142.4985106228
  0
LINE
  5
655
100
AcDbEntity
  8
0
100
AcDbLine
 62
7
  6
CONTINUOUS
 10
147.1965240062
 20
145.4432409267
 11
147.1965240062
 21
145.3429177736
  0
LINE
  5
656
100
AcDbEntity
  8
0
100
AcDbLine
 62
7
  6
CONTINUOUS
 10
147.1965240062
 20
144.7720887064
 11
147.1965240062
 21
144.6717655533
  0
LINE
  5
657
100
AcDbEntity
  8
0
100
AcDbLine
 62
7
  6
CONTINUOUS
 10
147.1965240062
 20
142.1194393328
 11
147.1965240062
 21
142.0191161797
  0
LINE
  5
658
100
AcDbEntity
  8
0
100
AcDbLine
 62
7
  6
CONTINUOUS
 10
147.216204855
 20
144.1284517293
 11
147.216204855
 21
144.5803309292
  0
LINE
  5
659
100
AcDbEntity
  8
0
100
AcDbLine
 62
7
  6
CONTINUOUS
 10
147.2358857037
 20
147.4247379572
 11
147.2358857037
 21
147.3244148041
  0
LINE
  5
65A
100
AcDbEntity
  8
0
100
AcDbLine
 62
7
  6
CONTINUOUS
 10
147.2358857037
 20
146.5937875901
 11
147.2358857037
 21
146.3336662589
  0
LINE
  5
65B
100
AcDbEntity
  8
0
100
AcDbLine
 62
7
  6
CONTINUOUS
 10
147.2752474011
 20
145.4752006172
 11
147.2752474011
 21
145.3748774641
  0
LINE
  5
65C
100
AcDbEntity
  8
0
100
AcDbLine
 62
7
  6
CONTINUOUS
 10
147.2752474011
 20
145.0277656818
 11
147.2752474011
 21
144.767644442
  0
LINE
  5
65D
100
AcDbEntity
  8
0
100
AcDbLine
 62
7
  6
CONTINUOUS
 10
147.2752474011
 20
144.2287748823
 11
147.2752474011
 21
144.1284517293
  0
LINE
  5
65E
100
AcDbEntity
  8
0
100
AcDbLine
 62
7
  6
CONTINUOUS
 10
147.2752474011
 20
142.6307936492
 11
147.2752474011
 21
142.5304704962
  0
LINE
  5
65F
100
AcDbEntity
  8
0
100
AcDbLine
 62
7
  6
CONTINUOUS
 10
147.2752474011
 20
142.1833587138
 11
147.2752474011
 21
142.0830355607
  0
LINE
  5
660
100
AcDbEntity
  8
0
100
AcDbLine
 62
7
  6
CONTINUOUS
 10
147.2752474011
 20
141.3204487162
 11
147.2752474011
 21
141.0603276593
  0
LINE
  5
661
100
AcDbEntity
  8
0
100
AcDbLine
 62
7
  6
CONTINUOUS
 10
147.2949282498
 20
146.6257471892
 11
147.2949282498
 21
146.5254240361
  0
LINE
  5
662
100
AcDbEntity
  8
0
100
AcDbLine
 62
7
  6
CONTINUOUS
 10
147.3146090985
 20
147.360818699
 11
147.3146090985
 21
147.260495546
  0
LINE
  5
663
100
AcDbEntity
  8
0
100
AcDbLine
 62
7
  6
CONTINUOUS
 10
147.3146090985
 20
145.5391198153
 11
147.3146090985
 21
145.4387966623
  0
LINE
  5
664
100
AcDbEntity
  8
0
100
AcDbLine
 62
7
  6
CONTINUOUS
 10
147.3146090985
 20
145.0277656818
 11
147.3146090985
 21
144.9274425287
  0
LINE
  5
665
100
AcDbEntity
  8
0
100
AcDbLine
 62
7
  6
CONTINUOUS
 10
147.3146090985
 20
144.2607347557
 11
147.3146090985
 21
144.1604116026
  0
LINE
  5
666
100
AcDbEntity
  8
0
100
AcDbLine
 62
7
  6
CONTINUOUS
 10
147.3146090985
 20
142.6947126645
 11
147.3146090985
 21
142.5943895114
  0
LINE
  5
667
100
AcDbEntity
  8
0
100
AcDbLine
 62
7
  6
CONTINUOUS
 10
147.3146090985
 20
142.1833587138
 11
147.3146090985
 21
142.0830355607
  0
LINE
  5
668
100
AcDbEntity
  8
0
100
AcDbLine
 62
7
  6
CONTINUOUS
 10
147.3146090985
 20
141.3524082239
 11
147.3146090985
 21
141.2520850708
  0
LINE
  5
669
100
AcDbEntity
  8
0
100
AcDbLine
 62
7
  6
CONTINUOUS
 10
147.3342899473
 20
146.7216261235
 11
147.3342899473
 21
146.6213029704
  0
LINE
  5
66A
100
AcDbEntity
  8
0
100
AcDbLine
 62
7
  6
CONTINUOUS
 10
147.3342899473
 20
145.6030390135
 11
147.3342899473
 21
145.5027158604
  0
LINE
  5
66B
100
AcDbEntity
  8
0
100
AcDbLine
 62
7
  6
CONTINUOUS
 10
147.3342899473
 20
144.324653771
 11
147.3342899473
 21
144.2243306179
  0
LINE
  5
66C
100
AcDbEntity
  8
0
100
AcDbLine
 62
7
  6
CONTINUOUS
 10
147.3342899473
 20
142.7586320455
 11
147.3342899473
 21
142.6583088924
  0
LINE
  5
66D
100
AcDbEntity
  8
0
100
AcDbLine
 62
7
  6
CONTINUOUS
 10
147.3342899473
 20
141.4163276049
 11
147.3342899473
 21
141.3160044518
  0
LINE
  5
66E
100
AcDbEntity
  8
0
100
AcDbLine
 62
7
  6
CONTINUOUS
 10
147.353970796
 20
147.2968994438
 11
147.353970796
 21
147.1965762907
  0
LINE
  5
66F
100
AcDbEntity
  8
0
100
AcDbLine
 62
7
  6
CONTINUOUS
 10
147.353970796
 20
144.9958061741
 11
147.353970796
 21
144.8954830211
  0
LINE
  5
670
100
AcDbEntity
  8
0
100
AcDbLine
 62
7
  6
CONTINUOUS
 10
147.353970796
 20
144.5439269742
 11
147.353970796
 21
144.352169197
  0
LINE
  5
671
100
AcDbEntity
  8
0
100
AcDbLine
 62
7
  6
CONTINUOUS
 10
147.353970796
 20
141.6995200062
 11
147.353970796
 21
141.507762229
  0
LINE
  5
672
100
AcDbEntity
  8
0
100
AcDbLine
 62
7
  6
CONTINUOUS
 10
147.3736516447
 20
145.9181911053
 11
147.3736516447
 21
145.8542718158
  0
LINE
  5
673
100
AcDbEntity
  8
0
100
AcDbLine
 62
7
  6
CONTINUOUS
 10
147.3736516447
 20
143.0737839545
 11
147.3736516447
 21
143.0098649392
  0
LINE
  5
674
100
AcDbEntity
  8
0
100
AcDbLine
 62
7
  6
CONTINUOUS
 10
147.3736516447
 20
142.1194393328
 11
147.3736516447
 21
142.0191161797
  0
LINE
  5
675
100
AcDbEntity
  8
0
100
AcDbLine
 62
7
  6
CONTINUOUS
 10
147.3933324934
 20
147.2010205437
 11
147.3933324934
 21
147.1006973907
  0
LINE
  5
676
100
AcDbEntity
  8
0
100
AcDbLine
 62
7
  6
CONTINUOUS
 10
147.3933324934
 20
144.9318867931
 11
147.3933324934
 21
144.8315636401
  0
LINE
  5
677
100
AcDbEntity
  8
0
100
AcDbLine
 62
7
  6
CONTINUOUS
 10
147.4130133421
 20
147.1051416551
 11
147.4130133421
 21
147.004818502
  0
LINE
  5
678
100
AcDbEntity
  8
0
100
AcDbLine
 62
7
  6
CONTINUOUS
 10
147.4130133421
 20
145.8587161717
 11
147.4130133421
 21
145.7583930186
  0
LINE
  5
679
100
AcDbEntity
  8
0
100
AcDbLine
 62
7
  6
CONTINUOUS
 10
147.4130133421
 20
144.867967595
 11
147.4130133421
 21
144.767644442
  0
LINE
  5
67A
100
AcDbEntity
  8
0
100
AcDbLine
 62
7
  6
CONTINUOUS
 10
147.4130133421
 20
143.0143092037
 11
147.4130133421
 21
142.9139860506
  0
LINE
  5
67B
100
AcDbEntity
  8
0
100
AcDbLine
 62
7
  6
CONTINUOUS
 10
147.4130133421
 20
141.9916009365
 11
147.4130133421
 21
141.8912777835
  0
LINE
  5
67C
100
AcDbEntity
  8
0
100
AcDbLine
 62
7
  6
CONTINUOUS
 10
147.4326941908
 20
146.9133839007
 11
147.4326941908
 21
146.8130607477
  0
LINE
  5
67D
100
AcDbEntity
  8
0
100
AcDbLine
 62
7
  6
CONTINUOUS
 10
147.4326941908
 20
141.507762229
 11
147.4326941908
 21
141.7998431593
  0
LINE
  5
67E
100
AcDbEntity
  8
0
100
AcDbLine
 62
7
  6
CONTINUOUS
 10
147.4326941908
 20
142.6583088924
 11
147.4326941908
 21
142.8864704417
  0
LINE
  5
67F
100
AcDbEntity
  8
0
100
AcDbLine
 62
7
  6
CONTINUOUS
 10
147.4326941908
 20
143.0737839545
 11
147.4326941908
 21
143.3339053772
  0
LINE
  5
680
100
AcDbEntity
  8
0
100
AcDbLine
 62
7
  6
CONTINUOUS
 10
147.4326941908
 20
143.4892593823
 11
147.4326941908
 21
143.7493804393
  0
LINE
  5
681
100
AcDbEntity
  8
0
100
AcDbLine
 62
7
  6
CONTINUOUS
 10
147.4326941908
 20
144.352169197
 11
147.4326941908
 21
144.6442501273
  0
LINE
  5
682
100
AcDbEntity
  8
0
100
AcDbLine
 62
7
  6
CONTINUOUS
 10
147.4326941908
 20
145.5027158604
 11
147.4326941908
 21
145.7308775926
  0
LINE
  5
683
100
AcDbEntity
  8
0
100
AcDbLine
 62
7
  6
CONTINUOUS
 10
147.6295027332
 20
143.7493804393
 11
147.6295027332
 21
143.4892593823
  0
LINE
  5
684
100
AcDbEntity
  8
0
100
AcDbLine
 62
7
  6
CONTINUOUS
 10
147.7279069767
 20
143.4892593823
 11
147.7279069767
 21
143.7493804393
  0
LINE
  5
685
100
AcDbEntity
  8
0
100
AcDbLine
 62
7
  6
CONTINUOUS
 10
147.7279069767
 20
145.9181911053
 11
147.7279069767
 21
146.1783124366
  0
LINE
  5
686
100
AcDbEntity
  8
0
100
AcDbLine
 62
7
  6
CONTINUOUS
 10
147.9029069767
 20
146.5504431391
 11
147.9029069767
 21
146.2220442678
  0
LINE
  5
687
100
AcDbEntity
  8
0
100
AcDbLine
 62
7
  6
CONTINUOUS
 10
147.9029069767
 20
145.6441886905
 11
147.9029069767
 21
144.7735492561
  0
LINE
  5
688
100
AcDbEntity
  8
0
100
AcDbLine
 62
7
  6
CONTINUOUS
 10
147.9029069767
 20
144.6926215194
 11
147.9029069767
 21
143.8219820851
  0
LINE
  5
689
100
AcDbEntity
  8
0
100
AcDbLine
 62
7
  6
CONTINUOUS
 10
147.9029069767
 20
142.8801126223
 11
147.9029069767
 21
142.0094731879
  0
LINE
  5
68A
100
AcDbEntity
  8
0
100
AcDbLine
 62
7
  6
CONTINUOUS
 10
147.9029069767
 20
141.9285454512
 11
147.9029069767
 21
141.0579060169
  0
LINE
  5
68B
100
AcDbEntity
  8
0
100
AcDbLine
 62
7
  6
CONTINUOUS
 10
148.6029069767
 20
145.9969927617
 11
148.6029069767
 21
146.3594945411
  0
LINE
  5
68C
100
AcDbEntity
  8
1_AXIS
100
AcDbLine
 62
2
  6
CONTINUOUS
 10
148.9029069767
 20
163.8113953489
 11
148.9029069767
 21
162.0513953489
  0
LINE
  5
68D
100
AcDbEntity
  8
1_AXIS
100
AcDbLine
 62
2
  6
CENTER
 10
148.9029069767
 20
158.5313953489
 11
148.9029069767
 21
156.9813953489
  0
LINE
  5
68E
100
AcDbEntity
  8
1_AXIS
100
AcDbLine
 62
2
  6
CENTER
 10
148.9029069767
 20
167.3313953489
 11
148.9029069767
 21
168.8813953489
  0
LINE
  5
68F
100
AcDbEntity
  8
DEFAULT_1
100
AcDbLine
 62
2
  6
CENTER
 10
148.9029069767
 20
90.0001949767
 11
148.9029069767
 21
177.4313953495
  0
LINE
  5
690
100
AcDbEntity
  8
0
100
AcDbLine
 62
7
  6
CONTINUOUS
 10
149.5029069767
 20
143.3688548608
 11
149.5029069767
 21
143.0063530813
  0
LINE
  5
691
100
AcDbEntity
  8
0
100
AcDbLine
 62
7
  6
CONTINUOUS
 10
150.2029069767
 20
141.0579060169
 11
150.2029069767
 21
141.9285454512
  0
LINE
  5
692
100
AcDbEntity
  8
0
100
AcDbLine
 62
7
  6
CONTINUOUS
 10
150.2029069767
 20
142.9157276365
 11
150.2029069767
 21
143.2441265078
  0
LINE
  5
693
100
AcDbEntity
  8
0
100
AcDbLine
 62
7
  6
CONTINUOUS
 10
150.2029069767
 20
143.8219820851
 11
150.2029069767
 21
144.6926215194
  0
LINE
  5
694
100
AcDbEntity
  8
0
100
AcDbLine
 62
7
  6
CONTINUOUS
 10
150.2029069767
 20
144.7735492561
 11
150.2029069767
 21
145.6441886905
  0
LINE
  5
695
100
AcDbEntity
  8
0
100
AcDbLine
 62
7
  6
CONTINUOUS
 10
150.2029069767
 20
146.5860581533
 11
150.2029069767
 21
147.4566975877
  0
LINE
  5
696
100
AcDbEntity
  8
DEFAULT_1
100
AcDbLine
 62
2
  6
CENTER
 10
164.119636093
 20
135.1813953489
 11
150.9030069767
 21
135.1813953489
  0
LINE
  5
697
100
AcDbEntity
  8
0
100
AcDbLine
 62
2
  6
CONTINUOUS
 10
149.7829069767
 20
135.1813953489
 11
148.0229069767
 21
135.1813953489
  0
LINE
  5
698
100
AcDbEntity
  8
DEFAULT_1
100
AcDbLine
 62
2
  6
CENTER
 10
133.9949849302
 20
135.1813953489
 11
146.9028069767
 21
135.1813953489
  0
LINE
  5
699
100
AcDbEntity
  8
0
100
AcDbLine
 62
7
  6
CONTINUOUS
 10
146.9013112341
 20
141.3160044518
 11
146.8816303785
 21
141.443842848
  0
LINE
  5
69A
100
AcDbEntity
  8
0
100
AcDbLine
 62
7
  6
CONTINUOUS
 10
146.9013112341
 20
141.4163276049
 11
146.8816303785
 21
141.5441660011
  0
LINE
  5
69B
100
AcDbEntity
  8
0
100
AcDbLine
 62
7
  6
CONTINUOUS
 10
147.3342899473
 20
141.8273584025
 11
147.353970796
 21
141.6995200062
  0
LINE
  5
69C
100
AcDbEntity
  8
0
100
AcDbLine
 62
7
  6
CONTINUOUS
 10
147.3342899473
 20
142.9139860506
 11
147.353970796
 21
142.7861472886
  0
LINE
  5
69D
100
AcDbEntity
  8
0
100
AcDbLine
 62
7
  6
CONTINUOUS
 10
147.1178005838
 20
144.6078463552
 11
147.1374814325
 21
144.4800077761
  0
LINE
  5
69E
100
AcDbEntity
  8
0
100
AcDbLine
 62
7
  6
CONTINUOUS
 10
147.4326941908
 20
142.7861472886
 11
147.4130133421
 21
142.9139860506
  0
LINE
  5
69F
100
AcDbEntity
  8
0
100
AcDbLine
 62
7
  6
CONTINUOUS
 10
147.4326941908
 20
142.8864704417
 11
147.4130133421
 21
143.0143092037
  0
LINE
  5
6A0
100
AcDbEntity
  8
0
100
AcDbLine
 62
7
  6
CONTINUOUS
 10
147.3342899473
 20
144.6717655533
 11
147.353970796
 21
144.5439269742
  0
LINE
  5
6A1
100
AcDbEntity
  8
0
100
AcDbLine
 62
7
  6
CONTINUOUS
 10
147.3342899473
 20
145.7583930186
 11
147.353970796
 21
145.6305544395
  0
LINE
  5
6A2
100
AcDbEntity
  8
0
100
AcDbLine
 62
7
  6
CONTINUOUS
 10
147.4326941908
 20
145.6305544395
 11
147.4130133421
 21
145.7583930186
  0
LINE
  5
6A3
100
AcDbEntity
  8
0
100
AcDbLine
 62
7
  6
CONTINUOUS
 10
147.4326941908
 20
145.7308775926
 11
147.4130133421
 21
145.8587161717
  0
LINE
  5
6A4
100
AcDbEntity
  8
0
100
AcDbLine
 62
7
  6
CONTINUOUS
 10
147.3342899473
 20
146.9728588801
 11
147.353970796
 21
146.8450203467
  0
LINE
  5
6A5
100
AcDbEntity
  8
0
100
AcDbLine
 62
7
  6
CONTINUOUS
 10
146.8029069767
 20
144.416088578
 11
146.8225878272
 21
144.2562904913
  0
LINE
  5
6A6
100
AcDbEntity
  8
0
100
AcDbLine
 62
7
  6
CONTINUOUS
 10
153.1029069767
 20
119.2320090849
 11
153.1029069767
 21
106.6307816128
  0
LINE
  5
6A7
100
AcDbEntity
  8
0
100
AcDbLine
 62
7
  6
CONTINUOUS
 10
147.9029069767
 20
141.0579060169
 11
150.2029069767
 21
141.0579060169
  0
LINE
  5
6A8
100
AcDbEntity
  8
0
100
AcDbLine
 62
7
  6
CONTINUOUS
 10
146.9209920828
 20
141.0603276593
 11
146.9603537803
 21
141.0603276593
  0
LINE
  5
6A9
100
AcDbEntity
  8
0
100
AcDbLine
 62
7
  6
CONTINUOUS
 10
147.2949282498
 20
143.0098649392
 11
147.3342899473
 21
142.9139860506
  0
LINE
  5
6AA
100
AcDbEntity
  8
0
100
AcDbLine
 62
7
  6
CONTINUOUS
 10
146.8225878272
 20
144.2562904913
 11
146.8619495298
 21
144.1604116026
  0
LINE
  5
6AB
100
AcDbEntity
  8
0
100
AcDbLine
 62
7
  6
CONTINUOUS
 10
147.4130133421
 20
142.9139860506
 11
147.3736516447
 21
143.0098649392
  0
LINE
  5
6AC
100
AcDbEntity
  8
0
100
AcDbLine
 62
7
  6
CONTINUOUS
 10
147.4130133421
 20
143.0143092037
 11
147.3885968394
 21
143.0737839545
  0
LINE
  5
6AD
100
AcDbEntity
  8
0
100
AcDbLine
 62
7
  6
CONTINUOUS
 10
146.9406729316
 20
146.5254240361
 11
146.9013112341
 21
146.6213029704
  0
LINE
  5
6AE
100
AcDbEntity
  8
0
100
AcDbLine
 62
7
  6
CONTINUOUS
 10
146.9406729316
 20
146.6257471892
 11
146.9013112341
 21
146.7216261235
  0
LINE
  5
6AF
100
AcDbEntity
  8
0
100
AcDbLine
 62
7
  6
CONTINUOUS
 10
146.8225878272
 20
141.2520850708
 11
146.8619495298
 21
141.1242466746
  0
LINE
  5
6B0
100
AcDbEntity
  8
0
100
AcDbLine
 62
7
  6
CONTINUOUS
 10
146.9209920828
 20
141.2520850708
 11
146.9013112341
 21
141.3160044518
  0
LINE
  5
6B1
100
AcDbEntity
  8
0
100
AcDbLine
 62
7
  6
CONTINUOUS
 10
146.9209920828
 20
141.3524082239
 11
146.9013112341
 21
141.4163276049
  0
LINE
  5
6B2
100
AcDbEntity
  8
0
100
AcDbLine
 62
7
  6
CONTINUOUS
 10
147.3146090985
 20
141.8912777835
 11
147.3342899473
 21
141.8273584025
  0
LINE
  5
6B3
100
AcDbEntity
  8
0
100
AcDbLine
 62
7
  6
CONTINUOUS
 10
147.4130133421
 20
141.8912777835
 11
147.3736516447
 21
142.0191161797
  0
LINE
  5
6B4
100
AcDbEntity
  8
0
100
AcDbLine
 62
7
  6
CONTINUOUS
 10
147.4130133421
 20
141.9916009365
 11
147.3736516447
 21
142.1194393328
  0
LINE
  5
6B5
100
AcDbEntity
  8
0
100
AcDbLine
 62
7
  6
CONTINUOUS
 10
147.0981197351
 20
144.6717655533
 11
147.1178005838
 21
144.6078463552
  0
LINE
  5
6B6
100
AcDbEntity
  8
0
100
AcDbLine
 62
7
  6
CONTINUOUS
 10
147.1965240062
 20
144.6717655533
 11
147.1571623088
 21
144.7996041325
  0
LINE
  5
6B7
100
AcDbEntity
  8
0
100
AcDbLine
 62
7
  6
CONTINUOUS
 10
147.1965240062
 20
144.7720887064
 11
147.1571623088
 21
144.8999272855
  0
LINE
  5
6B8
100
AcDbEntity
  8
0
100
AcDbLine
 62
7
  6
CONTINUOUS
 10
147.3146090985
 20
144.7356847515
 11
147.3342899473
 21
144.6717655533
  0
LINE
  5
6B9
100
AcDbEntity
  8
0
100
AcDbLine
 62
7
  6
CONTINUOUS
 10
146.8225878272
 20
146.5893433257
 11
146.8619495298
 21
146.461504838
  0
LINE
  5
6BA
100
AcDbEntity
  8
0
100
AcDbLine
 62
7
  6
CONTINUOUS
 10
147.4130133421
 20
144.767644442
 11
147.3933324934
 21
144.8315636401
  0
LINE
  5
6BB
100
AcDbEntity
  8
0
100
AcDbLine
 62
7
  6
CONTINUOUS
 10
147.4130133421
 20
144.867967595
 11
147.3933324934
 21
144.9318867931
  0
LINE
  5
6BC
100
AcDbEntity
  8
0
100
AcDbLine
 62
7
  6
CONTINUOUS
 10
147.3146090985
 20
147.0367781468
 11
147.3342899473
 21
146.9728588801
  0
LINE
  5
6BD
100
AcDbEntity
  8
0
100
AcDbLine
 62
7
  6
CONTINUOUS
 10
146.9209920828
 20
144.2562904913
 11
146.8816303785
 21
144.416088578
  0
LINE
  5
6BE
100
AcDbEntity
  8
0
100
AcDbLine
 62
7
  6
CONTINUOUS
 10
146.9209920828
 20
144.3566136443
 11
146.8816303785
 21
144.5164117311
  0
LINE
  5
6BF
100
AcDbEntity
  8
0
100
AcDbLine
 62
7
  6
CONTINUOUS
 10
147.4130133421
 20
147.004818502
 11
147.3933324934
 21
147.1006973907
  0
LINE
  5
6C0
100
AcDbEntity
  8
0
100
AcDbLine
 62
7
  6
CONTINUOUS
 10
147.4130133421
 20
147.1051416551
 11
147.3933324934
 21
147.2010205437
  0
LINE
  5
6C1
100
AcDbEntity
  8
0
100
AcDbLine
 62
7
  6
CONTINUOUS
 10
147.1178005838
 20
147.3563744346
 11
146.9997154915
 21
147.3244148041
  0
LINE
  5
6C2
100
AcDbEntity
  8
0
100
AcDbLine
 62
7
  6
CONTINUOUS
 10
147.1178005838
 20
147.4566975877
 11
146.9997154915
 21
147.4247379572
  0
LINE
  5
6C3
100
AcDbEntity
  8
0
100
AcDbLine
 62
7
  6
CONTINUOUS
 10
150.2029069767
 20
141.8282222982
 11
147.9029069767
 21
141.8282222982
  0
LINE
  5
6C4
100
AcDbEntity
  8
0
100
AcDbLine
 62
7
  6
CONTINUOUS
 10
150.2029069767
 20
141.9285454512
 11
147.9029069767
 21
141.9285454512
  0
LINE
  5
6C5
100
AcDbEntity
  8
0
100
AcDbLine
 62
7
  6
CONTINUOUS
 10
147.9029069767
 20
142.0094731879
 11
149.2029069767
 21
142.0094731879
  0
LINE
  5
6C6
100
AcDbEntity
  8
0
100
AcDbLine
 62
7
  6
CONTINUOUS
 10
147.3146090985
 20
142.0830355607
 11
147.2752474011
 21
142.0830355607
  0
LINE
  5
6C7
100
AcDbEntity
  8
0
100
AcDbLine
 62
7
  6
CONTINUOUS
 10
147.3146090985
 20
142.1833587138
 11
147.2752474011
 21
142.1833587138
  0
LINE
  5
6C8
100
AcDbEntity
  8
0
100
AcDbLine
 62
7
  6
CONTINUOUS
 10
146.8029069767
 20
142.3387127189
 11
147.1768431575
 21
142.3387127189
  0
LINE
  5
6C9
100
AcDbEntity
  8
0
100
AcDbLine
 62
7
  6
CONTINUOUS
 10
147.1768431575
 20
142.4985106228
 11
146.8029069767
 21
142.4985106228
  0
LINE
  5
6CA
100
AcDbEntity
  8
0
100
AcDbLine
 62
7
  6
CONTINUOUS
 10
147.1768431575
 20
142.5988337759
 11
146.8029069767
 21
142.5988337759
  0
LINE
  5
6CB
100
AcDbEntity
  8
0
100
AcDbLine
 62
7
  6
CONTINUOUS
 10
149.2529069767
 20
142.7797894692
 11
147.9029069767
 21
142.7797894692
  0
LINE
  5
6CC
100
AcDbEntity
  8
0
100
AcDbLine
 62
7
  6
CONTINUOUS
 10
149.2529069767
 20
142.8801126223
 11
147.9029069767
 21
142.8801126223
  0
LINE
  5
6CD
100
AcDbEntity
  8
0
100
AcDbLine
 62
7
  6
CONTINUOUS
 10
146.8029069767
 20
143.0737839545
 11
147.2555665524
 21
143.0737839545
  0
LINE
  5
6CE
100
AcDbEntity
  8
0
100
AcDbLine
 62
7
  6
CONTINUOUS
 10
147.3342899473
 20
143.0737839545
 11
147.4326941908
 21
143.0737839545
  0
LINE
  5
6CF
100
AcDbEntity
  8
0
100
AcDbLine
 62
7
  6
CONTINUOUS
 10
147.4326941908
 20
143.2335822241
 11
146.8029069767
 21
143.2335822241
  0
LINE
  5
6D0
100
AcDbEntity
  8
0
100
AcDbLine
 62
7
  6
CONTINUOUS
 10
147.4326941908
 20
143.3339053772
 11
146.8029069767
 21
143.3339053772
  0
LINE
  5
6D1
100
AcDbEntity
  8
0
100
AcDbLine
 62
7
  6
CONTINUOUS
 10
146.8029069767
 20
143.4892593823
 11
147.4326941908
 21
143.4892593823
  0
LINE
  5
6D2
100
AcDbEntity
  8
0
100
AcDbLine
 62
7
  6
CONTINUOUS
 10
147.6295027332
 20
143.4892593823
 11
147.7279069767
 21
143.4892593823
  0
LINE
  5
6D3
100
AcDbEntity
  8
0
100
AcDbLine
 62
7
  6
CONTINUOUS
 10
147.7279069767
 20
143.6490572862
 11
147.6295027332
 21
143.6490572862
  0
LINE
  5
6D4
100
AcDbEntity
  8
0
100
AcDbLine
 62
7
  6
CONTINUOUS
 10
147.4326941908
 20
143.6490572862
 11
146.8029069767
 21
143.6490572862
  0
LINE
  5
6D5
100
AcDbEntity
  8
0
100
AcDbLine
 62
7
  6
CONTINUOUS
 10
147.7279069767
 20
143.7493804393
 11
147.6295027332
 21
143.7493804393
  0
LINE
  5
6D6
100
AcDbEntity
  8
0
100
AcDbLine
 62
7
  6
CONTINUOUS
 10
147.4326941908
 20
143.7493804393
 11
146.8029069767
 21
143.7493804393
  0
LINE
  5
6D7
100
AcDbEntity
  8
0
100
AcDbLine
 62
7
  6
CONTINUOUS
 10
147.9029069767
 20
143.8219820851
 11
149.0029069767
 21
143.8219820851
  0
LINE
  5
6D8
100
AcDbEntity
  8
0
100
AcDbLine
 62
7
  6
CONTINUOUS
 10
149.8029069767
 20
143.8219820851
 11
150.2029069767
 21
143.8219820851
  0
LINE
  5
6D9
100
AcDbEntity
  8
0
100
AcDbLine
 62
7
  6
CONTINUOUS
 10
146.9603537803
 20
143.9686538254
 11
147.2752474011
 21
143.9686538254
  0
LINE
  5
6DA
100
AcDbEntity
  8
0
100
AcDbLine
 62
7
  6
CONTINUOUS
 10
147.1374814325
 20
144.1284517293
 11
147.0193963402
 21
144.1284517293
  0
LINE
  5
6DB
100
AcDbEntity
  8
0
100
AcDbLine
 62
7
  6
CONTINUOUS
 10
147.2752474011
 20
144.1284517293
 11
147.216204855
 21
144.1284517293
  0
LINE
  5
6DC
100
AcDbEntity
  8
0
100
AcDbLine
 62
7
  6
CONTINUOUS
 10
147.2752474011
 20
144.2287748823
 11
147.216204855
 21
144.2287748823
  0
LINE
  5
6DD
100
AcDbEntity
  8
0
100
AcDbLine
 62
7
  6
CONTINUOUS
 10
147.1374814325
 20
144.2287748823
 11
147.0193963402
 21
144.2287748823
  0
LINE
  5
6DE
100
AcDbEntity
  8
0
100
AcDbLine
 62
7
  6
CONTINUOUS
 10
150.2029069767
 20
144.5922983664
 11
147.9029069767
 21
144.5922983664
  0
LINE
  5
6DF
100
AcDbEntity
  8
0
100
AcDbLine
 62
7
  6
CONTINUOUS
 10
150.2029069767
 20
144.6926215194
 11
147.9029069767
 21
144.6926215194
  0
LINE
  5
6E0
100
AcDbEntity
  8
0
100
AcDbLine
 62
7
  6
CONTINUOUS
 10
146.9603537803
 20
144.767644442
 11
146.9997154915
 21
144.767644442
  0
LINE
  5
6E1
100
AcDbEntity
  8
0
100
AcDbLine
 62
7
  6
CONTINUOUS
 10
147.9029069767
 20
144.7735492561
 11
150.2029069767
 21
144.7735492561
  0
LINE
  5
6E2
100
AcDbEntity
  8
0
100
AcDbLine
 62
7
  6
CONTINUOUS
 10
147.3146090985
 20
144.9274425287
 11
147.2752474011
 21
144.9274425287
  0
LINE
  5
6E3
100
AcDbEntity
  8
0
100
AcDbLine
 62
7
  6
CONTINUOUS
 10
147.0390771889
 20
144.9274425287
 11
146.9800346428
 21
144.9274425287
  0
LINE
  5
6E4
100
AcDbEntity
  8
0
100
AcDbLine
 62
7
  6
CONTINUOUS
 10
147.3146090985
 20
145.0277656818
 11
147.2752474011
 21
145.0277656818
  0
LINE
  5
6E5
100
AcDbEntity
  8
0
100
AcDbLine
 62
7
  6
CONTINUOUS
 10
147.0390771889
 20
145.0277656818
 11
146.9800346428
 21
145.0277656818
  0
LINE
  5
6E6
100
AcDbEntity
  8
0
100
AcDbLine
 62
7
  6
CONTINUOUS
 10
146.9603537803
 20
141.2201255632
 11
146.9209920828
 21
141.2520850708
  0
LINE
  5
6E7
100
AcDbEntity
  8
0
100
AcDbLine
 62
7
  6
CONTINUOUS
 10
146.9603537803
 20
141.3204487162
 11
146.9209920828
 21
141.3524082239
  0
LINE
  5
6E8
100
AcDbEntity
  8
0
100
AcDbLine
 62
7
  6
CONTINUOUS
 10
147.2752474011
 20
141.9232372911
 11
147.3146090985
 21
141.8912777835
  0
LINE
  5
6E9
100
AcDbEntity
  8
0
100
AcDbLine
 62
7
  6
CONTINUOUS
 10
146.8619495298
 20
141.1242466746
 11
146.9209920828
 21
141.0603276593
  0
LINE
  5
6EA
100
AcDbEntity
  8
0
100
AcDbLine
 62
7
  6
CONTINUOUS
 10
147.3736516447
 20
142.0191161797
 11
147.3146090985
 21
142.0830355607
  0
LINE
  5
6EB
100
AcDbEntity
  8
0
100
AcDbLine
 62
7
  6
CONTINUOUS
 10
147.3736516447
 20
142.1194393328
 11
147.3146090985
 21
142.1833587138
  0
LINE
  5
6EC
100
AcDbEntity
  8
0
100
AcDbLine
 62
7
  6
CONTINUOUS
 10
147.2555665524
 20
143.0737839545
 11
147.2949282498
 21
143.0098649392
  0
LINE
  5
6ED
100
AcDbEntity
  8
0
100
AcDbLine
 62
7
  6
CONTINUOUS
 10
147.3736516447
 20
143.0098649392
 11
147.3342899473
 21
143.0737839545
  0
LINE
  5
6EE
100
AcDbEntity
  8
0
100
AcDbLine
 62
7
  6
CONTINUOUS
 10
146.9800346428
 20
144.1604116026
 11
146.9209920828
 21
144.2562904913
  0
LINE
  5
6EF
100
AcDbEntity
  8
0
100
AcDbLine
 62
7
  6
CONTINUOUS
 10
146.9800346428
 20
144.2607347557
 11
146.9209920828
 21
144.3566136443
  0
LINE
  5
6F0
100
AcDbEntity
  8
0
100
AcDbLine
 62
7
  6
CONTINUOUS
 10
147.0587580376
 20
144.7356847515
 11
147.0981197351
 21
144.6717655533
  0
LINE
  5
6F1
100
AcDbEntity
  8
0
100
AcDbLine
 62
7
  6
CONTINUOUS
 10
147.1571623088
 20
144.7996041325
 11
147.1178005838
 21
144.8635233306
  0
LINE
  5
6F2
100
AcDbEntity
  8
0
100
AcDbLine
 62
7
  6
CONTINUOUS
 10
147.1571623088
 20
144.8999272855
 11
147.1178005838
 21
144.9638464836
  0
LINE
  5
6F3
100
AcDbEntity
  8
0
100
AcDbLine
 62
7
  6
CONTINUOUS
 10
147.3933324934
 20
144.8315636401
 11
147.353970796
 21
144.8954830211
  0
LINE
  5
6F4
100
AcDbEntity
  8
0
100
AcDbLine
 62
7
  6
CONTINUOUS
 10
147.3933324934
 20
144.9318867931
 11
147.353970796
 21
144.9958061741
  0
LINE
  5
6F5
100
AcDbEntity
  8
0
100
AcDbLine
 62
7
  6
CONTINUOUS
 10
146.8619495298
 20
146.461504838
 11
146.9209920828
 21
146.3656259494
  0
LINE
  5
6F6
100
AcDbEntity
  8
0
100
AcDbLine
 62
7
  6
CONTINUOUS
 10
147.2555665524
 20
145.9181911053
 11
147.2949282498
 21
145.8542718158
  0
LINE
  5
6F7
100
AcDbEntity
  8
0
100
AcDbLine
 62
7
  6
CONTINUOUS
 10
147.3736516447
 20
145.8542718158
 11
147.3342899473
 21
145.9181911053
  0
LINE
  5
6F8
100
AcDbEntity
  8
0
100
AcDbLine
 62
7
  6
CONTINUOUS
 10
147.2555665524
 20
147.1326570354
 11
147.3146090985
 21
147.0367781468
  0
LINE
  5
6F9
100
AcDbEntity
  8
0
100
AcDbLine
 62
7
  6
CONTINUOUS
 10
147.353970796
 20
147.1965762907
 11
147.3146090985
 21
147.260495546
  0
LINE
  5
6FA
100
AcDbEntity
  8
0
100
AcDbLine
 62
7
  6
CONTINUOUS
 10
147.353970796
 20
147.2968994438
 11
147.3146090985
 21
147.360818699
  0
LINE
  5
6FB
100
AcDbEntity
  8
0
100
AcDbLine
 62
7
  6
CONTINUOUS
 10
147.2949282498
 20
145.8542718158
 11
147.3342899473
 21
145.7583930186
  0
LINE
  5
6FC
100
AcDbEntity
  8
0
100
AcDbLine
 62
7
  6
CONTINUOUS
 10
147.4130133421
 20
145.7583930186
 11
147.3736516447
 21
145.8542718158
  0
LINE
  5
6FD
100
AcDbEntity
  8
0
100
AcDbLine
 62
7
  6
CONTINUOUS
 10
147.4130133421
 20
145.8587161717
 11
147.388596741
 21
145.9181911053
  0
LINE
  5
6FE
100
AcDbEntity
  8
0
100
AcDbLine
 62
7
  6
CONTINUOUS
 10
147.3933324934
 20
147.1006973907
 11
147.353970796
 21
147.1965762907
  0
LINE
  5
6FF
100
AcDbEntity
  8
0
100
AcDbLine
 62
7
  6
CONTINUOUS
 10
147.3933324934
 20
147.2010205437
 11
147.353970796
 21
147.2968994438
  0
LINE
  5
700
100
AcDbEntity
  8
0
100
AcDbLine
 62
7
  6
CONTINUOUS
 10
161.4029069767
 20
162.9313953489
 11
161.4029069767
 21
122.3207667926
  0
LINE
  5
701
100
AcDbEntity
  8
0
100
AcDbLine
 62
7
  6
CONTINUOUS
 10
161.4029069767
 20
120.3764921427
 11
161.4029069767
 21
100.5221151059
  0
LINE
  5
702
100
AcDbEntity
  8
2_FEATURE
100
AcDbLine
 62
7
  6
CONTINUOUS
 10
161.4029069767
 20
100.5315333981
 11
161.4029069767
 21
122.3207667926
  0
LINE
  5
703
100
AcDbEntity
  8
0
100
AcDbLine
 62
7
  6
CONTINUOUS
 10
146.8029069767
 20
145.1831196869
 11
147.1965240062
 21
145.1831196869
  0
LINE
  5
704
100
AcDbEntity
  8
0
100
AcDbLine
 62
7
  6
CONTINUOUS
 10
147.1965240062
 20
145.3429177736
 11
146.8029069767
 21
145.3429177736
  0
LINE
  5
705
100
AcDbEntity
  8
0
100
AcDbLine
 62
7
  6
CONTINUOUS
 10
147.1965240062
 20
145.4432409267
 11
146.8029069767
 21
145.4432409267
  0
LINE
  5
706
100
AcDbEntity
  8
0
100
AcDbLine
 62
7
  6
CONTINUOUS
 10
150.2029069767
 20
145.5438655374
 11
149.1029069767
 21
145.5438655374
  0
LINE
  5
707
100
AcDbEntity
  8
0
100
AcDbLine
 62
7
  6
CONTINUOUS
 10
148.3029069767
 20
145.5438655374
 11
147.9029069767
 21
145.5438655374
  0
LINE
  5
708
100
AcDbEntity
  8
0
100
AcDbLine
 62
7
  6
CONTINUOUS
 10
150.2029069767
 20
145.6441886905
 11
149.1029069767
 21
145.6441886905
  0
LINE
  5
709
100
AcDbEntity
  8
0
100
AcDbLine
 62
7
  6
CONTINUOUS
 10
148.1683230615
 20
145.6441886905
 11
147.9029069767
 21
145.6441886905
  0
LINE
  5
70A
100
AcDbEntity
  8
0
100
AcDbLine
 62
7
  6
CONTINUOUS
 10
146.8029069767
 20
145.9181911053
 11
147.2555665524
 21
145.9181911053
  0
LINE
  5
70B
100
AcDbEntity
  8
0
100
AcDbLine
 62
7
  6
CONTINUOUS
 10
147.3342899473
 20
145.9181911053
 11
147.7279069767
 21
145.9181911053
  0
LINE
  5
70C
100
AcDbEntity
  8
0
100
AcDbLine
 62
7
  6
CONTINUOUS
 10
147.7279069767
 20
146.0779892835
 11
146.8029069767
 21
146.0779892835
  0
LINE
  5
70D
100
AcDbEntity
  8
0
100
AcDbLine
 62
7
  6
CONTINUOUS
 10
147.7279069767
 20
146.1783124366
 11
146.8029069767
 21
146.1783124366
  0
LINE
  5
70E
100
AcDbEntity
  8
0
100
AcDbLine
 62
7
  6
CONTINUOUS
 10
148.8529069767
 20
146.5860581533
 11
150.2029069767
 21
146.5860581533
  0
LINE
  5
70F
100
AcDbEntity
  8
0
100
AcDbLine
 62
7
  6
CONTINUOUS
 10
147.0784388864
 20
147.1965762907
 11
147.1374814325
 21
147.1965762907
  0
LINE
  5
710
100
AcDbEntity
  8
0
100
AcDbLine
 62
7
  6
CONTINUOUS
 10
150.2029069767
 20
147.3563744346
 11
148.9029069767
 21
147.3563744346
  0
LINE
  5
711
100
AcDbEntity
  8
0
100
AcDbLine
 62
7
  6
CONTINUOUS
 10
150.2029069767
 20
147.4566975877
 11
148.9029069767
 21
147.4566975877
  0
LINE
  5
712
100
AcDbEntity
  8
0
100
AcDbLine
 62
7
  6
CONTINUOUS
 10
147.2358857037
 20
147.3244148041
 11
147.1178005838
 21
147.3563744346
  0
LINE
  5
713
100
AcDbEntity
  8
0
100
AcDbLine
 62
7
  6
CONTINUOUS
 10
147.2358857037
 20
147.4247379572
 11
147.1178005838
 21
147.4566975877
  0
LINE
  5
714
100
AcDbEntity
  8
0
100
AcDbLine
 62
7
  6
CONTINUOUS
 10
146.9209920828
 20
146.3656259494
 11
146.9997154915
 21
146.3336662589
  0
LINE
  5
715
100
AcDbEntity
  8
0
100
AcDbLine
 62
7
  6
CONTINUOUS
 10
147.1374814325
 20
147.1965762907
 11
147.216204855
 21
147.1646166574
  0
LINE
  5
716
100
AcDbEntity
  8
0
100
AcDbLine
 62
7
  6
CONTINUOUS
 10
146.9997154915
 20
144.767644442
 11
147.0587580376
 21
144.7356847515
  0
LINE
  5
717
100
AcDbEntity
  8
0
100
AcDbLine
 62
7
  6
CONTINUOUS
 10
146.9997154915
 20
146.493464437
 11
146.9406729316
 21
146.5254240361
  0
LINE
  5
718
100
AcDbEntity
  8
0
100
AcDbLine
 62
7
  6
CONTINUOUS
 10
146.9997154915
 20
146.5937875901
 11
146.9406729316
 21
146.6257471892
  0
LINE
  5
719
100
AcDbEntity
  8
0
100
AcDbLine
 62
7
  6
CONTINUOUS
 10
146.8619495298
 20
144.1604116026
 11
146.9013112341
 21
144.1284517293
  0
LINE
  5
71A
100
AcDbEntity
  8
0
100
AcDbLine
 62
7
  6
CONTINUOUS
 10
147.0193963402
 20
144.1284517293
 11
146.9800346428
 21
144.1604116026
  0
LINE
  5
71B
100
AcDbEntity
  8
0
100
AcDbLine
 62
7
  6
CONTINUOUS
 10
147.0193963402
 20
144.2287748823
 11
146.9800346428
 21
144.2607347557
  0
LINE
  5
71C
100
AcDbEntity
  8
0
100
AcDbLine
 62
7
  6
CONTINUOUS
 10
147.1178005838
 20
144.8635233306
 11
147.0390771889
 21
144.9274425287
  0
LINE
  5
71D
100
AcDbEntity
  8
0
100
AcDbLine
 62
7
  6
CONTINUOUS
 10
147.2752474011
 20
144.767644442
 11
147.3146090985
 21
144.7356847515
  0
LINE
  5
71E
100
AcDbEntity
  8
0
100
AcDbLine
 62
7
  6
CONTINUOUS
 10
147.1178005838
 20
144.9638464836
 11
147.0390771889
 21
145.0277656818
  0
LINE
  5
71F
100
AcDbEntity
  8
0
100
AcDbLine
 62
7
  6
CONTINUOUS
 10
147.353970796
 20
144.8954830211
 11
147.3146090985
 21
144.9274425287
  0
LINE
  5
720
100
AcDbEntity
  8
0
100
AcDbLine
 62
7
  6
CONTINUOUS
 10
147.353970796
 20
144.9958061741
 11
147.3146090985
 21
145.0277656818
  0
LINE
  5
721
100
AcDbEntity
  8
0
100
AcDbLine
 62
7
  6
CONTINUOUS
 10
147.216204855
 20
147.1646166574
 11
147.2555665524
 21
147.1326570354
  0
LINE
  5
722
100
AcDbEntity
  8
0
100
AcDbLine
 62
7
  6
CONTINUOUS
 10
147.3146090985
 20
147.260495546
 11
147.2358857037
 21
147.3244148041
  0
LINE
  5
723
100
AcDbEntity
  8
0
100
AcDbLine
 62
7
  6
CONTINUOUS
 10
147.3146090985
 20
147.360818699
 11
147.2358857037
 21
147.4247379572
  0
LINE
  5
724
100
AcDbEntity
  8
1_AXIS
100
AcDbLine
 62
2
  6
CONTINUOUS
 10
149.7829069767
 20
162.9313953489
 11
148.0229069767
 21
162.9313953489
  0
LINE
  5
725
100
AcDbEntity
  8
1_AXIS
100
AcDbLine
 62
2
  6
CENTER
 10
144.5029069767
 20
162.9313953489
 11
134.192759814
 21
162.9313953489
  0
LINE
  5
726
100
AcDbEntity
  8
1_AXIS
100
AcDbLine
 62
2
  6
CENTER
 10
153.3029069767
 20
162.9313953489
 11
162.9447746977
 21
162.9313953489
  0
LINE
  5
727
100
AcDbEntity
  8
0
100
AcDbLine
 62
7
  6
CONTINUOUS
 10
148.9029613918
 20
175.4313953489
 11
148.9029122873
 21
175.4313953489
  0
ARC
  5
728
100
AcDbEntity
  8
0
100
AcDbCircle
 62
7
  6
CONTINUOUS
 10
47.5822122772
 20
125.6346625963
 40
5.0
100
AcDbArc
 50
326.4739564646
 51
25.4
  0
ARC
  5
729
100
AcDbEntity
  8
0
100
AcDbCircle
 62
7
  6
CONTINUOUS
 10
41.4558139535
 20
168.4313953489
 40
7.0
100
AcDbArc
 50
0.0
 51
90.000173993
  0
ARC
  5
72A
100
AcDbEntity
  8
0
100
AcDbCircle
 62
7
  6
CONTINUOUS
 10
43.1558139535
 20
153.6074745478
 40
3.0
100
AcDbArc
 50
180.0
 51
205.4
  0
ARC
  5
72B
100
AcDbEntity
  8
0
100
AcDbCircle
 62
7
  6
CONTINUOUS
 10
41.1558139535
 20
174.4313953489
 40
1.0
100
AcDbArc
 50
90.0
 51
180.0000000027
  0
ARC
  5
72C
100
AcDbEntity
  8
0
100
AcDbCircle
 62
7
  6
CONTINUOUS
 10
48.9558133447
 20
159.765369782
 40
0.499999821
100
AcDbArc
 50
179.999981308
 51
210.0000186919
  0
ARC
  5
72D
100
AcDbEntity
  8
2_FEATURE
100
AcDbCircle
 62
7
  6
CONTINUOUS
 10
66.7558139535
 20
112.9313953489
 40
18.0
100
AcDbArc
 50
146.4739564646
 51
154.0270434151
  0
ARC
  5
72E
100
AcDbEntity
  8
0
100
AcDbCircle
 62
7
  6
CONTINUOUS
 10
66.7558139535
 20
112.9313953489
 40
18.0
100
AcDbArc
 50
146.4739564646
 51
33.5260435354
  0
ARC
  5
72F
100
AcDbEntity
  8
0
100
AcDbCircle
 62
7
  6
CONTINUOUS
 10
85.9294156298
 20
125.6346625963
 40
5.0
100
AcDbArc
 50
154.6
 51
213.5260435354
  0
ARC
  5
730
100
AcDbEntity
  8
0
100
AcDbCircle
 62
7
  6
CONTINUOUS
 10
66.7558139535
 20
167.9348655703
 40
20.0
100
AcDbArc
 50
210.0
 51
330.0
  0
ARC
  5
731
100
AcDbEntity
  8
0
100
AcDbCircle
 62
7
  6
CONTINUOUS
 10
92.0558139535
 20
168.4313953489
 40
7.0
100
AcDbArc
 50
89.999826007
 51
180.0
  0
ARC
  5
732
100
AcDbEntity
  8
0
100
AcDbCircle
 62
7
  6
CONTINUOUS
 10
90.3558139535
 20
153.6074745478
 40
3.0
100
AcDbArc
 50
334.6
 51
360.0
  0
ARC
  5
733
100
AcDbEntity
  8
0
100
AcDbCircle
 62
7
  6
CONTINUOUS
 10
92.3558139535
 20
174.4313953489
 40
1.0
100
AcDbArc
 50
0.0
 51
90.0
  0
ARC
  5
734
100
AcDbEntity
  8
0
100
AcDbCircle
 62
7
  6
CONTINUOUS
 10
84.5558145623
 20
159.765369782
 40
0.499999821
100
AcDbArc
 50
329.9999813081
 51
0.000018692
  0
ARC
  5
735
100
AcDbEntity
  8
0
100
AcDbCircle
 62
7
  6
CONTINUOUS
 10
58.1110556752
 20
243.9610465116
 40
30.5
100
AcDbArc
 50
325.9910751726
 51
329.0591941656
  0
ARC
  5
736
100
AcDbEntity
  8
0
100
AcDbCircle
 62
7
  6
CONTINUOUS
 10
75.4005722318
 20
243.9610465116
 40
30.5
100
AcDbArc
 50
210.9408058344
 51
214.0089248274
  0
ARC
  5
737
100
AcDbEntity
  8
2_FEATURE
100
AcDbCircle
 62
7
  6
CONTINUOUS
 10
58.1110556752
 20
233.9610465116
 40
30.5
100
AcDbArc
 50
30.9408058753
 51
34.0089248274
  0
ARC
  5
738
100
AcDbEntity
  8
2_FEATURE
100
AcDbCircle
 62
7
  6
CONTINUOUS
 10
75.4005722318
 20
233.9610465116
 40
30.5
100
AcDbArc
 50
145.9910751726
 51
149.0591941247
  0
ARC
  5
739
100
AcDbEntity
  8
0
100
AcDbCircle
 62
7
  6
CONTINUOUS
 10
83.7558139535
 20
244.1610465116
 40
1.0
100
AcDbArc
 50
270.0
 51
360.0
  0
ARC
  5
73A
100
AcDbEntity
  8
0
100
AcDbCircle
 62
7
  6
CONTINUOUS
 10
83.7558139535
 20
233.7610465116
 40
1.0
100
AcDbArc
 50
0.0
 51
90.0
  0
ARC
  5
73B
100
AcDbEntity
  8
2_FEATURE
100
AcDbCircle
 62
7
  6
CONTINUOUS
 10
82.5650941965
 20
227.4610465116
 40
1.0
100
AcDbArc
 50
270.0
 51
325.9910751726
  0
ARC
  5
73C
100
AcDbEntity
  8
2_FEATURE
100
AcDbCircle
 62
7
  6
CONTINUOUS
 10
50.9465337105
 20
227.4610465116
 40
1.0
100
AcDbArc
 50
214.0089248274
 51
270.0
  0
ARC
  5
73D
100
AcDbEntity
  8
2_FEATURE
100
AcDbCircle
 62
7
  6
CONTINUOUS
 10
82.5650941965
 20
250.4610465116
 40
1.0
100
AcDbArc
 50
34.0089248274
 51
90.0
  0
ARC
  5
73E
100
AcDbEntity
  8
2_FEATURE
100
AcDbCircle
 62
7
  6
CONTINUOUS
 10
50.9465337105
 20
250.4610465116
 40
1.0
100
AcDbArc
 50
90.0
 51
145.9910751726
  0
ARC
  5
73F
100
AcDbEntity
  8
0
100
AcDbCircle
 62
7
  6
CONTINUOUS
 10
49.7558139535
 20
233.7610465116
 40
1.0
100
AcDbArc
 50
90.0
 51
180.0
  0
ARC
  5
740
100
AcDbEntity
  8
0
100
AcDbCircle
 62
7
  6
CONTINUOUS
 10
49.7558139535
 20
244.1610465116
 40
1.0
100
AcDbArc
 50
180.0
 51
270.0
  0
ARC
  5
741
100
AcDbEntity
  8
0
100
AcDbCircle
 62
7
  6
CONTINUOUS
 10
41.1558139535
 20
250.4610465116
 40
1.0
100
AcDbArc
 50
90.0
 51
180.0
  0
ARC
  5
742
100
AcDbEntity
  8
0
100
AcDbCircle
 62
7
  6
CONTINUOUS
 10
41.1558139535
 20
227.4610465116
 40
1.0
100
AcDbArc
 50
180.0
 51
270.0
  0
ARC
  5
743
100
AcDbEntity
  8
0
100
AcDbCircle
 62
7
  6
CONTINUOUS
 10
92.3558139535
 20
227.4610465116
 40
1.0
100
AcDbArc
 50
270.0
 51
360.0
  0
ARC
  5
744
100
AcDbEntity
  8
0
100
AcDbCircle
 62
7
  6
CONTINUOUS
 10
92.3558139535
 20
250.4610465116
 40
1.0
100
AcDbArc
 50
0.0
 51
90.0
  0
ARC
  5
745
100
AcDbEntity
  8
2_FEATURE
100
AcDbCircle
 62
7
  6
CONTINUOUS
 10
143.9029069767
 20
124.9761536271
 40
30.5
100
AcDbArc
 50
280.0787747109
 51
304.0089248274
  0
ARC
  5
746
100
AcDbEntity
  8
2_FEATURE
100
AcDbCircle
 62
7
  6
CONTINUOUS
 10
137.4029069767
 20
100.5221151059
 40
1.0
100
AcDbArc
 50
180.0
 51
235.9910751726
  0
ARC
  5
747
100
AcDbEntity
  8
0
100
AcDbCircle
 62
7
  6
CONTINUOUS
 10
148.7403477594
 20
95.9313954225
 40
0.9999999974
100
AcDbArc
 50
259.9212321267
 51
270.0000061949
  0
ARC
  5
748
100
AcDbEntity
  8
0
100
AcDbCircle
 62
7
  6
CONTINUOUS
 10
153.9029069767
 20
124.9761536271
 40
30.5
100
AcDbArc
 50
235.9910751726
 51
259.9212252891
  0
ARC
  5
749
100
AcDbEntity
  8
2_FEATURE
100
AcDbCircle
 62
7
  6
CONTINUOUS
 10
160.4029069767
 20
100.5221151059
 40
1.0
100
AcDbArc
 50
304.0089248274
 51
360.0
  0
ARC
  5
74A
100
AcDbEntity
  8
0
100
AcDbCircle
 62
7
  6
CONTINUOUS
 10
149.0654661939
 20
95.9313954223
 40
0.9999999974
100
AcDbArc
 50
269.9999938156
 51
280.078767886
  0
ARC
  5
74B
100
AcDbEntity
  8
0
100
AcDbCircle
 62
7
  6
CONTINUOUS
 10
148.9029069767
 20
162.9313953489
 40
12.5
100
AcDbArc
 50
0.0
 51
180.0
  0
CIRCLE
  5
74C
100
AcDbEntity
  8
0
100
AcDbCircle
 62
7
  6
CONTINUOUS
 10
148.9029069767
 20
162.9313953489
 40
5.53
  0
CIRCLE
  5
74D
100
AcDbEntity
  8
0
100
AcDbCircle
 62
7
  6
CONTINUOUS
 10
148.9029069767
 20
162.9313953489
 40
3.95
  0
SPLINE
  5
74E
100
AcDbEntity
  8
0
100
AcDbSpline
 62
7
  6
CONTINUOUS
 70
0
 71
3
 72
23
 73
19
 74
0
 42
0.0000001
 43
0.0000001
 44
0.0000000001
 40
0.0
 40
0.0
 40
0.0
 40
0.0
 40
0.0622276857
 40
0.1228110469
 40
0.1825427337
 40
0.2425587744
 40
0.303957888
 40
0.3674439005
 40
0.4330470302
 40
0.5000000007
 40
0.5669529712
 40
0.632556101
 40
0.6960421136
 40
0.7574412273
 40
0.8174572679
 40
0.8771889545
 40
0.9377723142
 40
1.0
 40
1.0
 40
1.0
 40
1.0
 10
153.1029069767
 20
116.7370098898
 30
0.0
 10
153.1029069767
 20
116.993638577
 30
0.0
 10
153.0500565202
 20
117.5020754677
 30
0.0
 10
152.8060963931
 20
118.2208641111
 30
0.0
 10
152.4105169779
 20
118.8582142983
 30
0.0
 10
151.8824699719
 20
119.3947377186
 30
0.0
 10
151.2436778026
 20
119.820054725
 30
0.0
 10
150.5166758877
 20
120.1283607511
 30
0.0
 10
149.7265278767
 20
120.3154997333
 30
0.0
 10
148.9029069677
 20
120.3782972069
 30
0.0
 10
148.0792860584
 20
120.3154997305
 30
0.0
 10
147.2891380472
 20
120.128360745
 30
0.0
 10
146.5621361328
 20
119.8200547154
 30
0.0
 10
145.9233439659
 20
119.3947377057
 30
0.0
 10
145.3952969637
 20
118.8582142835
 30
0.0
 10
144.9997175558
 20
118.2208641005
 30
0.0
 10
144.7557574331
 20
117.5020754627
 30
0.0
 10
144.7029069767
 20
116.9936385777
 30
0.0
 10
144.7029069767
 20
116.7370098898
 30
0.0
  0
SPLINE
  5
74F
100
AcDbEntity
  8
0
100
AcDbSpline
 62
7
  6
CONTINUOUS
 70
0
 71
3
 72
31
 73
27
 74
0
 42
0.0000001
 43
0.0000001
 44
0.0000000001
 40
0.0
 40
0.0
 40
0.0
 40
0.0
 40
0.0310877449
 40
0.0616245165
 40
0.0916855237
 40
0.1213886177
 40
0.1508832508
 40
0.1803396066
 40
0.2099344889
 40
0.2398388522
 40
0.3010903865
 40
0.3650057427
 40
0.4316290522
 40
0.5000000013
 40
0.5683709502
 40
0.63499426
 40
0.6989096159
 40
0.7601611502
 40
0.7900655135
 40
0.8196603955
 40
0.8491167513
 40
0.8786113841
 40
0.9083144774
 40
0.9383754842
 40
0.9689122554
 40
1.0
 40
1.0
 40
1.0
 40
1.0
 10
144.7029069767
 20
109.2352874834
 30
0.0
 10
144.7029069767
 20
109.1088737147
 30
0.0
 10
144.7164781897
 20
108.8580486418
 30
0.0
 10
144.7783887927
 20
108.4896189726
 30
0.0
 10
144.880558243
 20
108.1360615033
 30
0.0
 10
145.0213547602
 20
107.800640935
 30
0.0
 10
145.1987973866
 20
107.4859159692
 30
0.0
 10
145.4106899814
 20
107.1938675886
 30
0.0
 10
145.6548151905
 20
106.9259434671
 30
0.0
 10
146.0229808154
 20
106.599860045
 30
0.0
 10
146.557491166
 20
106.2571011167
 30
0.0
 10
147.2831989814
 20
105.9614537136
 30
0.0
 10
148.0751746723
 20
105.7815185374
 30
0.0
 10
148.9029069918
 20
105.7210693444
 30
0.0
 10
149.730639312
 20
105.7815185419
 30
0.0
 10
150.5226150017
 20
105.9614537229
 30
0.0
 10
151.2483228151
 20
106.2571011308
 30
0.0
 10
151.7828331618
 20
106.5998600628
 30
0.0
 10
152.1509987832
 20
106.9259434869
 30
0.0
 10
152.3951239892
 20
107.1938676096
 30
0.0
 10
152.6070165804
 20
107.48591599
 30
0.0
 10
152.7844592024
 20
107.8006409533
 30
0.0
 10
152.9252557154
 20
108.1360615171
 30
0.0
 10
153.0274251624
 20
108.4896189807
 30
0.0
 10
153.0893357641
 20
108.8580486455
 30
0.0
 10
153.1029069767
 20
109.1088737156
 30
0.0
 10
153.1029069767
 20
109.2352874834
 30
0.0
  0
ELLIPSE
  5
750
100
AcDbEntity
  8
0
100
AcDbEllipse
 62
7
  6
CONTINUOUS
 10
44.5819025933
 20
239.3610465116
 30
0.0
 11
-0.0
 21
0.9
 31
0.0
 40
0.4303212505
 41
0.0
 42
0.9817653566
  0
ELLIPSE
  5
751
100
AcDbEntity
  8
0
100
AcDbEllipse
 62
7
  6
CONTINUOUS
 10
43.2271086551
 20
239.1610465116
 30
0.0
 11
0.0
 21
0.5
 31
0.0
 40
0.4303212505
 41
-3.1415926536
 42
-1.5707963268
  0
ELLIPSE
  5
752
100
AcDbEntity
  8
0
100
AcDbEllipse
 62
7
  6
CONTINUOUS
 10
43.0119480299
 20
238.9610465116
 30
0.0
 11
-0.0
 21
1.0
 31
0.0
 40
0.4303212505
 41
-4.7123889804
 42
-3.1415926536
  0
ELLIPSE
  5
753
100
AcDbEntity
  8
0
100
AcDbEllipse
 62
7
  6
CONTINUOUS
 10
44.6471687816
 20
239.3110465116
 30
0.0
 11
0.0
 21
0.25
 31
0.0
 40
0.4303212505
 41
-1.5707963268
 42
0.0
  0
ELLIPSE
  5
754
100
AcDbEntity
  8
0
100
AcDbEllipse
 62
7
  6
CONTINUOUS
 10
43.2287449533
 20
238.9110465116
 30
0.0
 11
-0.0
 21
0.25
 31
0.0
 40
0.4303212505
 41
1.5707963268
 42
3.1415926536
  0
ELLIPSE
  5
755
100
AcDbEntity
  8
0
100
AcDbEllipse
 62
7
  6
CONTINUOUS
 10
44.6488050798
 20
239.0610465116
 30
0.0
 11
0.0
 21
0.5
 31
0.0
 40
0.4303212505
 41
0.0042347221
 42
1.5707963268
  0
ELLIPSE
  5
756
100
AcDbEntity
  8
0
100
AcDbEllipse
 62
7
  6
CONTINUOUS
 10
44.863965705
 20
239.2610465116
 30
0.0
 11
0.0
 21
1.0
 31
0.0
 40
0.4303212505
 41
-0.9211415882
 42
-0.0
  0
ELLIPSE
  5
757
100
AcDbEntity
  8
0
100
AcDbEllipse
 62
7
  6
CONTINUOUS
 10
45.3894729387
 20
241.6860465116
 30
0.0
 11
-0.0
 21
1.275
 31
0.0
 40
0.4303212505
 41
0.0
 42
6.2831853072
  0
ELLIPSE
  5
758
100
AcDbEntity
  8
0
100
AcDbEllipse
 62
7
  6
CONTINUOUS
 10
43.054980155
 20
238.9110465116
 30
0.0
 11
-0.0
 21
0.25
 31
0.0
 40
0.4303212505
 41
-4.7123889804
 42
-3.1415926536
  0
ELLIPSE
  5
759
100
AcDbEntity
  8
0
100
AcDbEllipse
 62
7
  6
CONTINUOUS
 10
43.1202463433
 20
238.8610465116
 30
0.0
 11
-0.0
 21
0.9
 31
0.0
 40
0.4303212505
 41
-3.1415926536
 42
-2.159827297
  0
ELLIPSE
  5
75A
100
AcDbEntity
  8
0
100
AcDbEllipse
 62
7
  6
CONTINUOUS
 10
44.6902009067
 20
239.2610465116
 30
0.0
 11
0.0
 21
1.0
 31
0.0
 40
0.4303212505
 41
-1.5707963268
 42
0.0
  0
ELLIPSE
  5
75B
100
AcDbEntity
  8
0
100
AcDbEllipse
 62
7
  6
CONTINUOUS
 10
44.4750402815
 20
239.0610465116
 30
0.0
 11
-0.0
 21
0.5
 31
0.0
 40
0.4303212505
 41
0.0
 42
1.5707963268
  0
ELLIPSE
  5
75C
100
AcDbEntity
  8
0
100
AcDbEllipse
 62
7
  6
CONTINUOUS
 10
43.2940111416
 20
238.8610465116
 30
0.0
 11
-0.0
 21
0.9
 31
0.0
 40
0.4303212505
 41
3.1415926536
 42
3.5346736727
  0
ELLIPSE
  5
75D
100
AcDbEntity
  8
0
100
AcDbEllipse
 62
7
  6
CONTINUOUS
 10
45.563237737
 20
241.6860465116
 30
0.0
 11
-0.0
 21
1.275
 31
0.0
 40
0.4303212505
 41
-3.1415926568
 42
-0.0000000032
  0
ELLIPSE
  5
75E
100
AcDbEntity
  8
0
100
AcDbEllipse
 62
7
  6
CONTINUOUS
 10
148.8529069767
 20
146.3594945411
 30
0.0
 11
0.25
 21
-0.0
 31
0.0
 40
0.9062544486
 41
1.5707963268
 42
3.1415926536
  0
ELLIPSE
  5
75F
100
AcDbEntity
  8
0
100
AcDbEllipse
 62
7
  6
CONTINUOUS
 10
148.8029069767
 20
146.2220442678
 30
0.0
 11
0.9
 21
0.0
 31
0.0
 40
0.9062544486
 41
-3.1415926536
 42
-2.159827297
  0
ELLIPSE
  5
760
100
AcDbEntity
  8
0
100
AcDbEllipse
 62
7
  6
CONTINUOUS
 10
149.2029069767
 20
142.9157276365
 30
0.0
 11
1.0
 21
0.0
 31
0.0
 40
0.9062544486
 41
-1.5707963268
 42
0.0
  0
ELLIPSE
  5
761
100
AcDbEntity
  8
0
100
AcDbEllipse
 62
7
  6
CONTINUOUS
 10
149.0029069767
 20
143.3688548608
 30
0.0
 11
0.5
 21
0.0
 31
0.0
 40
0.9062544486
 41
-0.0
 42
1.5707963268
  0
ELLIPSE
  5
762
100
AcDbEntity
  8
0
100
AcDbEllipse
 62
7
  6
CONTINUOUS
 10
149.2529069767
 20
143.1066762344
 30
0.0
 11
0.25
 21
-0.0
 31
0.0
 40
0.9062544486
 41
4.7123889804
 42
6.2831853072
  0
ELLIPSE
  5
763
100
AcDbEntity
  8
0
100
AcDbEllipse
 62
7
  6
CONTINUOUS
 10
149.3029069767
 20
143.2441265078
 30
0.0
 11
0.9
 21
0.0
 31
0.0
 40
0.9062544486
 41
0.0
 42
0.787782256
  0
ELLIPSE
  5
764
100
AcDbEntity
  8
0
100
AcDbEllipse
 62
7
  6
CONTINUOUS
 10
151.6279069767
 20
141.5433873106
 30
0.0
 11
1.275
 21
0.0
 31
0.0
 40
0.9062544486
 41
6.2831853039
 42
9.4247779575
  0
ELLIPSE
  5
765
100
AcDbEntity
  8
0
100
AcDbEllipse
 62
7
  6
CONTINUOUS
 10
148.9029069767
 20
146.5504431391
 30
0.0
 11
1.0
 21
0.0
 31
0.0
 40
0.9062544486
 41
1.5707963268
 42
3.1415926536
  0
ELLIPSE
  5
766
100
AcDbEntity
  8
0
100
AcDbEllipse
 62
7
  6
CONTINUOUS
 10
149.1029069767
 20
146.0973159148
 30
0.0
 11
0.5
 21
0.0
 31
0.0
 40
0.9062544486
 41
-2.9842064185
 42
-1.5707963268
  0
ELLIPSE
  5
767
100
AcDbEntity
  8
0
100
AcDbEllipse
 62
7
  6
CONTINUOUS
 10
149.3029069767
 20
143.1438033547
 30
0.0
 11
0.9
 21
0.0
 31
0.0
 40
0.9062544486
 41
6.2831853072
 42
7.2649506638
  0
ELLIPSE
  5
768
100
AcDbEntity
  8
0
100
AcDbEllipse
 62
7
  6
CONTINUOUS
 10
151.6279069767
 20
141.4430641575
 30
0.0
 11
1.275
 21
0.0
 31
0.0
 40
0.9062544486
 41
0.0
 42
6.2831853072
  0
ELLIPSE
  5
769
100
AcDbEntity
  8
0
100
AcDbEllipse
 62
7
  6
CONTINUOUS
 10
149.1029069767
 20
145.9969927617
 30
0.0
 11
0.5
 21
-0.0
 31
0.0
 40
0.9062544486
 41
-3.1415926536
 42
-1.5707963268
  0
ELLIPSE
  5
76A
100
AcDbEntity
  8
0
100
AcDbEllipse
 62
7
  6
CONTINUOUS
 10
148.9029069767
 20
146.450119986
 30
0.0
 11
1.0
 21
0.0
 31
0.0
 40
0.9062544486
 41
1.5707963268
 42
3.1415926536
  0
ELLIPSE
  5
76B
100
AcDbEntity
  8
0
100
AcDbEllipse
 62
7
  6
CONTINUOUS
 10
149.2529069767
 20
143.0063530813
 30
0.0
 11
0.25
 21
0.0
 31
0.0
 40
0.9062544486
 41
-1.5707963268
 42
0.0
  0
ENDSEC
  0
SECTION
  2
OBJECTS
  0
DICTIONARY
  5
C
100
AcDbDictionary
280
0
281
1
  3
ACAD_GROUP
350
D
  3
ACAD_MLINESTYLE
350
17
  3
ACAD_LAYOUT
350
1A
  3
ACAD_PLOTSETTINGS
350
19
  3
ACAD_PLOTSTYLENAME
350
E
  3
ACAD_TABLESTYLE
350
       76C
  0
DICTIONARY
  5
D
102
{ACAD_REACTORS
330
C
102
}
100
AcDbDictionary
280
0
281
1
  0
ACDBDICTIONARYWDFLT
  5
E
102
{ACAD_REACTORS
330
C
102
}
100
AcDbDictionary
281
1
  3
Normal
350
F
100
AcDbDictionaryWithDefault
340
F
  0
DICTIONARY
  5
17
102
{ACAD_REACTORS
330
C
102
}
100
AcDbDictionary
280
0
281
1
  3
Standard
350
18
  0
DICTIONARY
  5
76C
330
C
100
AcDbDictionary
281
1
  3
Standard
350
       76F
  3
Standard1
350
       770
  0
DICTIONARY
  5
19
102
{ACAD_REACTORS
330
C
102
}
100
AcDbDictionary
281
1
  0
DICTIONARY
  5
1A
102
{ACAD_REACTORS
330
C
102
}
100
AcDbDictionary
281
1
  3
Model
350
76D
  3
Layout1
350
76E
  0
ACDBPLACEHOLDER
  5
F
102
{ACAD_REACTORS
330
E
102
}
  0
MLINESTYLE
  5
18
102
{ACAD_REACTORS
330
17
102
}
100
AcDbMlineStyle
  2
STANDARD
 70
0
  3

 62
256
 51
90.0
 52
90.0
 71
2
 49
0.5
 62
256
  6
BYLAYER
 49
-0.5
 62
256
  6
BYLAYER
  0
LAYOUT
  5
76D
102
{ACAD_REACTORS
330
1A
102
}
100
AcDbPlotSettings
  1

  2
none_device
  4

  6

 40
0.0
 41
0.0
 42
0.0
 43
0.0
 44
210.0
 45
297.0
 46
0.0
 47
0.0
 48
0.0
 49
0.0
140
0.0
141
0.0
142
1.0
143
1.0
 70
1024
 72
1
 73
0
 74
0
  7

 75
0
147
1.0
148
0.0
149
0.0
100
AcDbLayout
  1
Model
 70
0
 71
0
 10
0.0
 20
0.0
 11
210.0
 21
297.0
 12
0.0
 22
0.0
 32
0.0
 14
0.0
 24
0.0
 34
0.0
 15
0.0
 25
0.0
 35
0.0
146
0.0
 13
0.0
 23
0.0
 33
0.0
 16
1.0
 26
0.0
 36
0.0
 17
0.0
 27
1.0
 37
0.0
 76
0
330
211
345
0
346
0
  0
LAYOUT
  5
76E
102
{ACAD_REACTORS
330
1A
102
}
100
AcDbPlotSettings
  1

  2
none_device
  4

  6

 40
0.0
 41
0.0
 42
0.0
 43
0.0
 44
210.0
 45
297.0
 46
0.0
 47
0.0
 48
0.0
 49
0.0
140
0.0
141
0.0
142
1.0
143
1.0
 70
0
 72
1
 73
0
 74
0
  7

 75
0
147
1.0
148
0.0
149
0.0
100
AcDbLayout
  1
Layout1
 70
0
 71
1
 10
0.0
 20
0.0
 11
210.0
 21
297.0
 12
0.0
 22
0.0
 32
0.0
 14
0.0
 24
0.0
 34
0.0
 15
0.0
 25
0.0
 35
0.0
146
0.0
 13
0.0
 23
0.0
 33
0.0
 16
1.0
 26
0.0
 36
0.0
 17
0.0
 27
1.0
 37
0.0
 76
0
330
212
345
0
346
0
  0
TABLESTYLE
  5
76F
102
{ACAD_REACTORS
330
76C
330
346
102
}
330
76C
100
AcDbTableStyle
  3
Standard
 70
0
 71
0
 40
0.06
 41
0.06
280
1
281
1
  7
Standard
140
0.18
170
1
 62
0
 63
7
283
0
  7
Standard
140
0.18
170
1
 62
0
 63
7
283
0
  7
Standard
140
0.18
170
1
 62
0
 63
7
283
0
  0
TABLESTYLE
  5
770
102
{ACAD_REACTORS
330
76C
102
}
330
76C
100
AcDbTableStyle
  3
Standard1
 70
1
 71
0
 40
0.06
 41
0.06
280
1
281
1
  7
Standard
140
0.18
170
1
 62
0
 63
7
283
0
  7
Standard
140
0.18
170
1
 62
0
 63
7
283
0
  7
Standard
140
0.18
170
1
 62
0
 63
7
283
0
  0
ENDSEC
  0
EOF
