999
DXF file: uni_1701_tab-r.dxf
999
Pro/ENGINEER 2015290 by Parametric Technology Corporation
  0
SECTION
  2
HEADER
  9
$ACADVER
  1
AC1027
  9
$DWGCODEPAGE
  3
ANSI_1252
  9
$EXTMAX
 10
210.0
 20
297.0
 30
0.0
  9
$EXTMIN
 10
0.0
 20
0.0
 30
0.0
  9
$LIMMIN
 10
0.0
 20
0.0
  9
$LIMMAX
 10
210.0
 20
297.0
  9
$VIEWCTR
 10
105.0
 20
148.5
  9
$VIEWSIZE
 40
297.0
  9
$CLAYER
  8
0
  9
$LTSCALE
 40
19.36
  9
$CELTYPE
  6
BYLAYER
  9
$DIMSCALE
 40
1.0
  9
$DIMASZ
 40
3.5
  9
$DIMEXO
 40
1.0
  9
$DIMDLI
 40
13.376
  9
$DIMEXE
 40
2.0
  9
$DIMCEN
 40
3.168
  9
$DIMLFAC
 40
1.0
  9
$DIMBLK
  1
_FILLED
  9
$DIMALT
 70
0
  9
$DIMALTF
 40
0.0393700787
  9
$DIMTXT
 40
3.5
  9
$DIMTOL
 70
1
  9
$DIMLIM
 70
0
  9
$DIMTFAC
 40
1.0
  9
$DIMTP
 40
0.01
  9
$DIMTM
 40
0.01
  9
$DIMGAP
 40
0.625
  9
$DIMDSEP
 70
46
  9
$AUNITS
 70
0
  9
$PDMODE
 70
3
  9
$PDSIZE
 40
0.3125
  9
$HANDSEED
  5
6FC
  9
$TILEMODE
 70
1
  9
$MEASUREMENT
 70
1
  9
$INSUNITS
 70
4
  0
ENDSEC
  0
SECTION
  2
CLASSES
  0
CLASS
  1
ACDBDICTIONARYWDFLT
  2
AcDbDictionaryWithDefault
  3
AutoCAD 2000
 90
0
 91
1
280
0
281
0
  0
CLASS
  1
ACDBPLACEHOLDER
  2
AcDbPlaceHolder
  3
AutoCAD 2000
 90
0
 91
1
280
0
281
0
  0
CLASS
  1
LAYOUT
  2
AcDbLayout
  3
AutoCAD 2000
 90
0
 91
0
280
0
281
0
  0
CLASS
  1
TABLESTYLE
  2
AcDbTableStyle
  3
ObjectDBX Classes
 90
2047
 91
1
280
0
281
0
  0
CLASS
  1
ACAD_TABLE
  2
AcDbTable
  3
ObjectDBX Classes
 90
1025
 91
1
280
0
281
1
  0
ENDSEC
  0
SECTION
  2
TABLES
  0
TABLE
  2
VPORT
  5
8
100
AcDbSymbolTable
 70
2
  0
VPORT
  5
1F4
100
AcDbSymbolTableRecord
100
AcDbViewportTableRecord
  2
*ACTIVE
 70
0
 10
0.0
 20
0.0
 11
1.0
 21
1.0
 12
105.0
 22
148.5
 13
0.0
 23
0.0
 14
1.0
 24
1.0
 15
0.0
 25
0.0
 16
0.0
 26
0.0
 36
1.0
 17
0.0
 27
0.0
 37
0.0
 40
297.0
 41
0.7070707071
 42
50.0
 43
0.0
 44
0.0
 50
0.0
 51
0.0
 71
0
 72
100
 73
1
 74
1
 75
0
 76
0
 77
0
 78
0
  0
ENDTAB
  0
TABLE
  2
LTYPE
  5
5
100
AcDbSymbolTable
 70
6
  0
LTYPE
  5
14
100
AcDbSymbolTableRecord
100
AcDbLinetypeTableRecord
  2
BYBLOCK
 70
0
  3

 72
65
 73
0
 40
0.0
  0
LTYPE
  5
15
100
AcDbSymbolTableRecord
100
AcDbLinetypeTableRecord
  2
BYLAYER
 70
0
  3

 72
65
 73
0
 40
0.0
  0
LTYPE
  5
16
100
AcDbSymbolTableRecord
100
AcDbLinetypeTableRecord
  2
CONTINUOUS
 70
64
  3
Solid line
 72
65
 73
0
 40
0.0
  0
LTYPE
  5
1F5
100
AcDbSymbolTableRecord
100
AcDbLinetypeTableRecord
  2
CENTER
 70
64
  3
____ _ ____ _ ____ _ ____ _ ____ _ ____ _ ____
 72
65
 73
4
 40
0.6
 49
0.375
 74
0
 49
-0.075
 74
0
 49
0.075
 74
0
 49
-0.075
 74
0
  0
LTYPE
  5
1F6
100
AcDbSymbolTableRecord
100
AcDbLinetypeTableRecord
  2
HIDDEN
 70
64
  3
- - - - - - - - - - - - - - - - - - - -
 72
65
 73
2
 40
0.2
 49
0.1
 74
0
 49
-0.1
 74
0
  0
LTYPE
  5
1F7
100
AcDbSymbolTableRecord
100
AcDbLinetypeTableRecord
  2
PHANTOM
 70
64
  3
_____ _ _ _____ _ _ _____ _ _ _____
 72
65
 73
6
 40
0.8
 49
0.45
 74
0
 49
-0.05
 74
0
 49
0.1
 74
0
 49
-0.05
 74
0
 49
0.1
 74
0
 49
-0.05
 74
0
  0
LTYPE
  5
1F8
100
AcDbSymbolTableRecord
100
AcDbLinetypeTableRecord
  2
DOT
 70
64
  3
. . . . . . . . . . . . . . . . . . . .
 72
65
 73
2
 40
0.2
 49
0.1
 74
0
 49
-0.1
 74
0
  0
LTYPE
  5
1F9
100
AcDbSymbolTableRecord
100
AcDbLinetypeTableRecord
  2
DASHED
 70
64
  3
- - - - - - - - - - - - - - - - - - - -
 72
65
 73
2
 40
0.2
 49
0.1
 74
0
 49
-0.1
 74
0
  0
ENDTAB
  0
TABLE
  2
LAYER
  5
2
100
AcDbSymbolTable
 70
36
  0
LAYER
  5
10
100
AcDbSymbolTableRecord
100
AcDbLayerTableRecord
  2
0
 70
0
 62
7
  6
CONTINUOUS
370
-3
390
F
  0
LAYER
  5
1FA
100
AcDbSymbolTableRecord
100
AcDbLayerTableRecord
  2
DEFAULT_1
 70
0
 62
7
  6
CENTER
370
-3
390
F
  0
LAYER
  5
1FB
100
AcDbSymbolTableRecord
100
AcDbLayerTableRecord
  2
DEFAULT_2
 70
0
 62
8
  6
HIDDEN
370
-3
390
F
  0
LAYER
  5
1FC
100
AcDbSymbolTableRecord
100
AcDbLayerTableRecord
  2
DEFAULT_3
 70
0
 62
7
  6
PHANTOM
370
-3
390
F
  0
LAYER
  5
1FD
100
AcDbSymbolTableRecord
100
AcDbLayerTableRecord
  2
1_AXIS
 70
0
 62
7
  6
CONTINUOUS
370
-3
390
F
  0
LAYER
  5
1FE
100
AcDbSymbolTableRecord
100
AcDbLayerTableRecord
  2
1_DATUM_PLANE
 70
0
 62
7
  6
CONTINUOUS
370
-3
390
F
  0
LAYER
  5
1FF
100
AcDbSymbolTableRecord
100
AcDbLayerTableRecord
  2
1_DATUM_PLANES
 70
0
 62
7
  6
CONTINUOUS
370
-3
390
F
  0
LAYER
  5
200
100
AcDbSymbolTableRecord
100
AcDbLayerTableRecord
  2
2_FEATURE
 70
0
 62
7
  6
CONTINUOUS
370
-3
390
F
  0
LAYER
  5
201
100
AcDbSymbolTableRecord
100
AcDbLayerTableRecord
  2
3_CURVE
 70
0
 62
7
  6
CONTINUOUS
370
-3
390
F
  0
LAYER
  5
202
100
AcDbSymbolTableRecord
100
AcDbLayerTableRecord
  2
4_QUILT
 70
0
 62
7
  6
CONTINUOUS
370
-3
390
F
  0
LAYER
  5
203
100
AcDbSymbolTableRecord
100
AcDbLayerTableRecord
  2
4_SURFACE
 70
0
 62
7
  6
CONTINUOUS
370
-3
390
F
  0
LAYER
  5
204
100
AcDbSymbolTableRecord
100
AcDbLayerTableRecord
  2
6_DIM
 70
0
 62
7
  6
CONTINUOUS
370
-3
390
F
  0
LAYER
  5
205
100
AcDbSymbolTableRecord
100
AcDbLayerTableRecord
  2
CSYS
 70
0
 62
7
  6
CONTINUOUS
370
-3
390
F
  0
LAYER
  5
206
100
AcDbSymbolTableRecord
100
AcDbLayerTableRecord
  2
PLANES
 70
0
 62
7
  6
CONTINUOUS
370
-3
390
F
  0
ENDTAB
  0
TABLE
  2
STYLE
  5
3
100
AcDbSymbolTable
 70
1
  0
STYLE
  5
11
100
AcDbSymbolTableRecord
100
AcDbTextStyleTableRecord
  2
STANDARD
 70
0
 40
0.0
 41
0.8
 50
0.0
 71
0
 42
0.2
  3
txt
  4

  0
STYLE
  5
207
100
AcDbSymbolTableRecord
100
AcDbTextStyleTableRecord
  2
TEXTSTYLE_1
 70
0
 40
0.0
 41
0.8
 50
0.0
 71
0
 42
0.2
  3
gdt
  4

  0
STYLE
  5
208
100
AcDbSymbolTableRecord
100
AcDbTextStyleTableRecord
  2
TEXTSTYLE_2
 70
0
 40
0.0
 41
0.6
 50
0.0
 71
0
 42
0.2
  3
txt
  4

  0
STYLE
  5
209
100
AcDbSymbolTableRecord
100
AcDbTextStyleTableRecord
  2
TEXTSTYLE_3
 70
0
 40
0.0
 41
1.0
 50
0.0
 71
0
 42
0.2
  3
ftb_____.ttf
  4

  0
STYLE
  5
20A
100
AcDbSymbolTableRecord
100
AcDbTextStyleTableRecord
  2
TEXTSTYLE_4
 70
0
 40
0.0
 41
1.0
 50
0.0
 71
0
 42
0.2
  3
fti_____.ttf
  4

  0
STYLE
  5
20B
100
AcDbSymbolTableRecord
100
AcDbTextStyleTableRecord
  2
TEXTSTYLE_5
 70
0
 40
0.0
 41
1.0
 50
0.0
 71
0
 42
0.2
  3
frutiger light.ttf
  4

  0
STYLE
  5
20C
100
AcDbSymbolTableRecord
100
AcDbTextStyleTableRecord
  2
TEXTSTYLE_6
 70
0
 40
0.0
 41
0.7
 50
0.0
 71
0
 42
0.2
  3
txt
  4

  0
STYLE
  5
20D
100
AcDbSymbolTableRecord
100
AcDbTextStyleTableRecord
  2
TEXTSTYLE_7
 70
0
 40
0.0
 41
0.8
 50
0.0
 71
0
 42
0.2
  3
txt
  4

  0
ENDTAB
  0
TABLE
  2
VIEW
  5
6
100
AcDbSymbolTable
 70
0
  0
ENDTAB
  0
TABLE
  2
UCS
  5
7
100
AcDbSymbolTable
 70
0
  0
ENDTAB
  0
TABLE
  2
APPID
  5
9
100
AcDbSymbolTable
 70
1
  0
APPID
  5
20E
100
AcDbSymbolTableRecord
100
AcDbRegAppTableRecord
  2
ACAD
 70
0
  0
ENDTAB
  0
TABLE
  2
BLOCK_RECORD
  5
1
100
AcDbSymbolTable
 70
0
  0
BLOCK_RECORD
  5
20F
100
AcDbSymbolTableRecord
100
AcDbBlockTableRecord
  2
*Model_Space
  0
BLOCK_RECORD
  5
210
100
AcDbSymbolTableRecord
100
AcDbBlockTableRecord
  2
*Paper_Space
  0
BLOCK_RECORD
  5
211
100
AcDbSymbolTableRecord
100
AcDbBlockTableRecord
  2
UNI_LOGO2_BL1
  0
BLOCK_RECORD
  5
212
100
AcDbSymbolTableRecord
100
AcDbBlockTableRecord
  2
AMMEAAL_LOGO_BL0
  0
BLOCK_RECORD
  5
213
100
AcDbSymbolTableRecord
100
AcDbBlockTableRecord
  2
*T1
  0
ENDTAB
  0
TABLE
  2
DIMSTYLE
  5
A
100
AcDbSymbolTable
 70
1
100
AcDbDimStyleTable
 71
0
  0
DIMSTYLE
105
214
100
AcDbSymbolTableRecord
100
AcDbDimStyleTableRecord
  2
STANDARD
 70
0
  3

  4

 40
1.0
 41
3.5
 42
1.0
 43
0.38
 44
2.0
 45
0.0
 46
0.0
 47
0.01
 48
0.01
140
3.5
141
0.09
142
0.0
143
25.4
144
1.0
145
0.0
146
1.0
147
0.625
 71
1.0
 72
0.0
 73
0
 74
0
 75
0
 76
0
 77
1
 78
0
170
0
171
2
172
0
173
0
174
0
175
0
176
0
177
0
178
5
270
2
271
2
272
2
273
2
274
2
275
0
280
0
281
0
282
0
283
1
284
0
285
0
286
0
287
3
288
0
340
11
278
46
  0
ENDTAB
  0
ENDSEC
  0
SECTION
  2
BLOCKS
  0
BLOCK
  5
20
100
AcDbEntity
  8
0
100
AcDbBlockBegin
  2
*Model_Space
 70
0
 10
0.0
 20
0.0
 30
0.0
  3
*Model_Space
  1

  0
ENDBLK
  5
21
100
AcDbEntity
  8
0
100
AcDbBlockEnd
  0
BLOCK
  5
1C
100
AcDbEntity
  8
0
100
AcDbBlockBegin
  2
*Paper_Space
 70
0
 10
0.0
 20
0.0
 30
0.0
  3
*Paper_Space
  1

  0
ENDBLK
  5
1D
100
AcDbEntity
  8
0
100
AcDbBlockEnd
  0
BLOCK
  5
215
100
AcDbEntity
  8
0
100
AcDbBlockBegin
 62
2
  6
CONTINUOUS
  2
UNI_LOGO2_BL1
 70
64
 10
173.5956734183
 20
35.5937998301
  3
UNI_LOGO2_BL1
  1

  0
TEXT
  5
216
100
AcDbEntity
  8
0
100
AcDbText
 62
7
  6
CONTINUOUS
 10
164.6539584268
 20
30.6865562072
  7
TEXTSTYLE_4
 40
1.0655737705
  1
The brand for plastic modular belts and chains
 41
1.0
 72
0
100
AcDbText
  0
LINE
  5
217
100
AcDbEntity
  8
0
100
AcDbLine
 62
7
  6
CONTINUOUS
 10
149.5737418074
 20
36.1675703219
 11
149.5737418074
 21
34.0364227809
  0
LINE
  5
218
100
AcDbEntity
  8
0
100
AcDbLine
 62
7
  6
CONTINUOUS
 10
149.8628043005
 20
31.0454914852
 11
149.8628043005
 21
31.1422825445
  0
LINE
  5
219
100
AcDbEntity
  8
0
100
AcDbLine
 62
7
  6
CONTINUOUS
 10
149.5737418074
 20
31.1100188581
 11
149.6315543091
 21
30.9164367395
  0
LINE
  5
21A
100
AcDbEntity
  8
0
100
AcDbLine
 62
7
  6
CONTINUOUS
 10
150.9671844304
 20
33.9544555678
 11
150.9671844304
 21
36.1675703219
  0
LINE
  5
21B
100
AcDbEntity
  8
0
100
AcDbLine
 62
7
  6
CONTINUOUS
 10
151.8862417523
 20
32.1101932727
 11
151.8862417523
 21
30.5937998301
  0
LINE
  5
21C
100
AcDbEntity
  8
0
100
AcDbLine
 62
7
  6
CONTINUOUS
 10
152.1753043074
 20
30.5937998301
 11
152.1753043074
 21
31.3358647082
  0
LINE
  5
21D
100
AcDbEntity
  8
0
100
AcDbLine
 62
7
  6
CONTINUOUS
 10
152.1753043074
 20
31.4649194539
 11
152.1753043074
 21
32.1101932727
  0
LINE
  5
21E
100
AcDbEntity
  8
0
100
AcDbLine
 62
7
  6
CONTINUOUS
 10
149.6315543091
 20
31.3036010218
 11
149.5737418074
 21
31.1100188581
  0
LINE
  5
21F
100
AcDbEntity
  8
0
100
AcDbLine
 62
7
  6
CONTINUOUS
 10
149.9784292936
 20
30.8841730531
 11
149.8628043005
 21
31.0454914852
  0
LINE
  5
220
100
AcDbEntity
  8
0
100
AcDbLine
 62
7
  6
CONTINUOUS
 10
151.0768668626
 20
31.400392081
 11
151.1346793074
 21
31.3036010218
  0
LINE
  5
221
100
AcDbEntity
  8
0
100
AcDbLine
 62
7
  6
CONTINUOUS
 10
151.4237418626
 20
31.3036010218
 11
151.3659292523
 21
31.4326557675
  0
LINE
  5
222
100
AcDbEntity
  8
0
100
AcDbLine
 62
7
  6
CONTINUOUS
 10
152.852430332
 20
36.1675703219
 11
152.852430332
 21
34.3642916334
  0
LINE
  5
223
100
AcDbEntity
  8
0
100
AcDbLine
 62
7
  6
CONTINUOUS
 10
152.852430332
 20
33.0528162235
 11
152.852430332
 21
32.3970785186
  0
LINE
  5
224
100
AcDbEntity
  8
0
100
AcDbLine
 62
7
  6
CONTINUOUS
 10
153.2159293074
 20
31.2390736489
 11
153.2159293074
 21
30.5937998301
  0
LINE
  5
225
100
AcDbEntity
  8
0
100
AcDbLine
 62
7
  6
CONTINUOUS
 10
153.5049916972
 20
30.5937998301
 11
153.5049916972
 21
31.2390736489
  0
LINE
  5
226
100
AcDbEntity
  8
0
100
AcDbLine
 62
7
  6
CONTINUOUS
 10
149.8628043005
 20
31.1422825445
 11
149.9206168074
 21
31.2713373354
  0
LINE
  5
227
100
AcDbEntity
  8
0
100
AcDbLine
 62
7
  6
CONTINUOUS
 10
149.6315543091
 20
30.9164367395
 11
149.7471793074
 21
30.7873819712
  0
LINE
  5
228
100
AcDbEntity
  8
0
100
AcDbLine
 62
7
  6
CONTINUOUS
 10
153.1581166972
 20
31.3681283946
 11
153.2159293074
 21
31.2390736489
  0
LINE
  5
229
100
AcDbEntity
  8
0
100
AcDbLine
 62
7
  6
CONTINUOUS
 10
153.9674919177
 20
30.8841730531
 11
154.0253041972
 21
30.7551182848
  0
LINE
  5
22A
100
AcDbEntity
  8
0
100
AcDbLine
 62
7
  6
CONTINUOUS
 10
153.5049916972
 20
31.2390736489
 11
153.4471794177
 21
31.400392081
  0
LINE
  5
22B
100
AcDbEntity
  8
0
100
AcDbLine
 62
7
  6
CONTINUOUS
 10
153.9674919177
 20
31.4326557675
 11
153.9674919177
 21
31.3681283946
  0
LINE
  5
22C
100
AcDbEntity
  8
0
100
AcDbLine
 62
7
  6
CONTINUOUS
 10
153.9674919177
 20
30.9809641124
 11
153.9674919177
 21
30.8841730531
  0
LINE
  5
22D
100
AcDbEntity
  8
0
100
AcDbLine
 62
7
  6
CONTINUOUS
 10
154.245872955
 20
32.3970785186
 11
154.245872955
 21
36.1675703219
  0
LINE
  5
22E
100
AcDbEntity
  8
0
100
AcDbLine
 62
7
  6
CONTINUOUS
 10
154.2565543074
 20
30.8519093441
 11
154.2565543074
 21
30.9164367395
  0
LINE
  5
22F
100
AcDbEntity
  8
0
100
AcDbLine
 62
7
  6
CONTINUOUS
 10
154.5737418074
 20
36.1675703219
 11
154.5737418074
 21
32.3970785186
  0
LINE
  5
230
100
AcDbEntity
  8
0
100
AcDbLine
 62
7
  6
CONTINUOUS
 10
151.3659292523
 20
30.7873819712
 11
151.4237418626
 21
30.9164367395
  0
LINE
  5
231
100
AcDbEntity
  8
0
100
AcDbLine
 62
7
  6
CONTINUOUS
 10
155.759679528
 20
30.6905909007
 11
155.7018665869
 21
30.8519093441
  0
LINE
  5
232
100
AcDbEntity
  8
0
100
AcDbLine
 62
7
  6
CONTINUOUS
 10
155.412804528
 20
31.3681283946
 11
155.412804528
 21
31.2713373354
  0
LINE
  5
233
100
AcDbEntity
  8
0
100
AcDbLine
 62
7
  6
CONTINUOUS
 10
155.412804528
 20
31.1422825445
 11
155.412804528
 21
30.9487004259
  0
LINE
  5
234
100
AcDbEntity
  8
0
100
AcDbLine
 62
7
  6
CONTINUOUS
 10
155.7018665869
 20
30.8519093441
 11
155.7018665869
 21
31.3681283946
  0
LINE
  5
235
100
AcDbEntity
  8
0
100
AcDbLine
 62
7
  6
CONTINUOUS
 10
155.9671844304
 20
32.3970785186
 11
155.9671844304
 21
34.2003572071
  0
LINE
  5
236
100
AcDbEntity
  8
0
100
AcDbLine
 62
7
  6
CONTINUOUS
 10
155.9671844304
 20
35.511832617
 11
155.9671844304
 21
36.1675703219
  0
LINE
  5
237
100
AcDbEntity
  8
0
100
AcDbLine
 62
7
  6
CONTINUOUS
 10
156.279992028
 20
32.1101932727
 11
156.279992028
 21
31.9488748406
  0
LINE
  5
238
100
AcDbEntity
  8
0
100
AcDbLine
 62
7
  6
CONTINUOUS
 10
156.279992028
 20
31.626237886
 11
156.279992028
 21
30.5937998301
  0
LINE
  5
239
100
AcDbEntity
  8
0
100
AcDbLine
 62
7
  6
CONTINUOUS
 10
156.5690540869
 20
30.5937998301
 11
156.5690540869
 21
31.626237886
  0
LINE
  5
23A
100
AcDbEntity
  8
0
100
AcDbLine
 62
7
  6
CONTINUOUS
 10
156.5690540869
 20
31.9488748406
 11
156.5690540869
 21
32.1101932727
  0
LINE
  5
23B
100
AcDbEntity
  8
0
100
AcDbLine
 62
7
  6
CONTINUOUS
 10
151.1346793074
 20
30.9164367395
 11
151.0768668626
 21
30.8196456577
  0
LINE
  5
23C
100
AcDbEntity
  8
0
100
AcDbLine
 62
7
  6
CONTINUOUS
 10
153.4471794177
 20
31.400392081
 11
153.3893668074
 21
31.4649194539
  0
LINE
  5
23D
100
AcDbEntity
  8
0
100
AcDbLine
 62
7
  6
CONTINUOUS
 10
154.3143669177
 20
30.7873819712
 11
154.2565543074
 21
30.8519093441
  0
LINE
  5
23E
100
AcDbEntity
  8
0
100
AcDbLine
 62
7
  6
CONTINUOUS
 10
155.4706168074
 20
30.6583272086
 11
155.5284290869
 21
30.5937998301
  0
LINE
  5
23F
100
AcDbEntity
  8
0
100
AcDbLine
 62
7
  6
CONTINUOUS
 10
155.412804528
 20
30.7551182848
 11
155.4706168074
 21
30.6583272086
  0
LINE
  5
240
100
AcDbEntity
  8
0
100
AcDbLine
 62
7
  6
CONTINUOUS
 10
155.8174918074
 20
30.5937998301
 11
155.759679528
 21
30.6905909007
  0
LINE
  5
241
100
AcDbEntity
  8
0
100
AcDbLine
 62
7
  6
CONTINUOUS
 10
155.7018665869
 20
31.3681283946
 11
155.6440543074
 21
31.4649194539
  0
LINE
  5
242
100
AcDbEntity
  8
0
100
AcDbLine
 62
7
  6
CONTINUOUS
 10
157.0315543074
 20
31.626237886
 11
157.0315543074
 21
30.5937998301
  0
LINE
  5
243
100
AcDbEntity
  8
0
100
AcDbLine
 62
7
  6
CONTINUOUS
 10
157.320617028
 20
30.5937998301
 11
157.320617028
 21
31.3358647082
  0
LINE
  5
244
100
AcDbEntity
  8
0
100
AcDbLine
 62
7
  6
CONTINUOUS
 10
157.320617028
 20
31.4649194539
 11
157.320617028
 21
31.626237886
  0
LINE
  5
245
100
AcDbEntity
  8
0
100
AcDbLine
 62
7
  6
CONTINUOUS
 10
157.852430332
 20
34.6101932727
 11
157.852430332
 21
32.3970785186
  0
LINE
  5
246
100
AcDbEntity
  8
0
100
AcDbLine
 62
7
  6
CONTINUOUS
 10
149.7471793074
 20
31.4326557675
 11
149.6315543091
 21
31.3036010218
  0
LINE
  5
247
100
AcDbEntity
  8
0
100
AcDbLine
 62
7
  6
CONTINUOUS
 10
149.9206168074
 20
31.2713373354
 11
149.9784292936
 21
31.3358647082
  0
LINE
  5
248
100
AcDbEntity
  8
0
100
AcDbLine
 62
7
  6
CONTINUOUS
 10
149.7471793074
 20
30.7873819712
 11
149.8628043005
 21
30.7228545871
  0
LINE
  5
249
100
AcDbEntity
  8
0
100
AcDbLine
 62
7
  6
CONTINUOUS
 10
150.1518667936
 20
30.7873819712
 11
149.9784292936
 21
30.8841730531
  0
LINE
  5
24A
100
AcDbEntity
  8
0
100
AcDbLine
 62
7
  6
CONTINUOUS
 10
155.3549915869
 20
31.4326557675
 11
155.412804528
 21
31.3681283946
  0
LINE
  5
24B
100
AcDbEntity
  8
0
100
AcDbLine
 62
7
  6
CONTINUOUS
 10
158.3034290869
 20
31.3681283946
 11
158.361242028
 21
31.2068099625
  0
LINE
  5
24C
100
AcDbEntity
  8
0
100
AcDbLine
 62
7
  6
CONTINUOUS
 10
158.6503040869
 20
31.2068099625
 11
158.5924918074
 21
31.3681283946
  0
LINE
  5
24D
100
AcDbEntity
  8
0
100
AcDbLine
 62
7
  6
CONTINUOUS
 10
158.361242028
 20
31.2068099625
 11
158.361242028
 21
30.5937998301
  0
LINE
  5
24E
100
AcDbEntity
  8
0
100
AcDbLine
 62
7
  6
CONTINUOUS
 10
158.6503040869
 20
30.5937998301
 11
158.6503040869
 21
31.2068099625
  0
LINE
  5
24F
100
AcDbEntity
  8
0
100
AcDbLine
 62
7
  6
CONTINUOUS
 10
159.1128043074
 20
31.4326557675
 11
159.1128043074
 21
31.3681283946
  0
LINE
  5
250
100
AcDbEntity
  8
0
100
AcDbLine
 62
7
  6
CONTINUOUS
 10
159.245872955
 20
32.3970785186
 11
159.245872955
 21
34.5282260596
  0
LINE
  5
251
100
AcDbEntity
  8
0
100
AcDbLine
 62
7
  6
CONTINUOUS
 10
159.5737418074
 20
36.1675703219
 11
159.5737418074
 21
32.3970785186
  0
LINE
  5
252
100
AcDbEntity
  8
0
100
AcDbLine
 62
7
  6
CONTINUOUS
 10
154.2565543074
 20
30.9164367395
 11
154.3143669177
 21
31.0132277988
  0
LINE
  5
253
100
AcDbEntity
  8
0
100
AcDbLine
 62
7
  6
CONTINUOUS
 10
149.8628043005
 20
30.7228545871
 11
150.0362418212
 21
30.6583272086
  0
LINE
  5
254
100
AcDbEntity
  8
0
100
AcDbLine
 62
7
  6
CONTINUOUS
 10
151.3659292523
 20
31.4326557675
 11
151.1924917523
 21
31.5294468267
  0
LINE
  5
255
100
AcDbEntity
  8
0
100
AcDbLine
 62
7
  6
CONTINUOUS
 10
154.0253041972
 20
30.7551182848
 11
154.1987416972
 21
30.6583272086
  0
LINE
  5
256
100
AcDbEntity
  8
0
100
AcDbLine
 62
7
  6
CONTINUOUS
 10
153.0424918074
 20
31.4326557675
 11
153.1581166972
 21
31.3681283946
  0
LINE
  5
257
100
AcDbEntity
  8
0
100
AcDbLine
 62
7
  6
CONTINUOUS
 10
153.3893668074
 20
31.4649194539
 11
153.2737419177
 21
31.5294468267
  0
LINE
  5
258
100
AcDbEntity
  8
0
100
AcDbLine
 62
7
  6
CONTINUOUS
 10
159.1128043074
 20
30.8519093441
 11
159.228429528
 21
30.7228545871
  0
LINE
  5
259
100
AcDbEntity
  8
0
100
AcDbLine
 62
7
  6
CONTINUOUS
 10
159.4596793074
 20
30.7873819712
 11
159.401867028
 21
30.8519093441
  0
LINE
  5
25A
100
AcDbEntity
  8
0
100
AcDbLine
 62
7
  6
CONTINUOUS
 10
159.1128043074
 20
31.3681283946
 11
159.228429528
 21
31.2390736489
  0
LINE
  5
25B
100
AcDbEntity
  8
0
100
AcDbLine
 62
7
  6
CONTINUOUS
 10
158.5924918074
 20
31.3681283946
 11
158.534679528
 21
31.4649194539
  0
LINE
  5
25C
100
AcDbEntity
  8
0
100
AcDbLine
 62
7
  6
CONTINUOUS
 10
160.9628038663
 20
30.7873819712
 11
160.9628038663
 21
30.8519093441
  0
LINE
  5
25D
100
AcDbEntity
  8
0
100
AcDbLine
 62
7
  6
CONTINUOUS
 10
160.9671844304
 20
32.3970785186
 11
160.9671844304
 21
36.1675703219
  0
LINE
  5
25E
100
AcDbEntity
  8
0
100
AcDbLine
 62
7
  6
CONTINUOUS
 10
154.0253041972
 20
31.4971831403
 11
153.9674919177
 21
31.4326557675
  0
LINE
  5
25F
100
AcDbEntity
  8
0
100
AcDbLine
 62
7
  6
CONTINUOUS
 10
150.9034292799
 20
31.4649194539
 11
151.0768668626
 21
31.400392081
  0
LINE
  5
260
100
AcDbEntity
  8
0
100
AcDbLine
 62
7
  6
CONTINUOUS
 10
155.6440543074
 20
31.4649194539
 11
155.5284290869
 21
31.5294468267
  0
LINE
  5
261
100
AcDbEntity
  8
0
100
AcDbLine
 62
7
  6
CONTINUOUS
 10
159.4596793074
 20
31.3036010218
 11
159.401867028
 21
31.3681283946
  0
LINE
  5
262
100
AcDbEntity
  8
0
100
AcDbLine
 62
7
  6
CONTINUOUS
 10
160.615929528
 20
30.9164367395
 11
160.6737418074
 21
30.8519093441
  0
LINE
  5
263
100
AcDbEntity
  8
0
100
AcDbLine
 62
7
  6
CONTINUOUS
 10
160.9628038663
 20
30.8519093441
 11
160.8471793074
 21
30.9809641124
  0
LINE
  5
264
100
AcDbEntity
  8
0
100
AcDbLine
 62
7
  6
CONTINUOUS
 10
160.615929528
 20
31.4326557675
 11
160.6737418074
 21
31.3681283946
  0
LINE
  5
265
100
AcDbEntity
  8
0
100
AcDbLine
 62
7
  6
CONTINUOUS
 10
160.9628038663
 20
31.3681283946
 11
160.8471793074
 21
31.4971831403
  0
LINE
  5
266
100
AcDbEntity
  8
0
100
AcDbLine
 62
7
  6
CONTINUOUS
 10
154.2565543074
 20
31.3681283946
 11
154.3143669177
 21
31.4326557675
  0
LINE
  5
267
100
AcDbEntity
  8
0
100
AcDbLine
 62
7
  6
CONTINUOUS
 10
154.0831168074
 20
31.1100188581
 11
153.9674919177
 21
30.9809641124
  0
LINE
  5
268
100
AcDbEntity
  8
0
100
AcDbLine
 62
7
  6
CONTINUOUS
 10
155.412804528
 20
30.9487004259
 11
155.3549915869
 21
30.8841730531
  0
LINE
  5
269
100
AcDbEntity
  8
0
100
AcDbLine
 62
7
  6
CONTINUOUS
 10
155.3549915869
 20
30.6905909007
 11
155.412804528
 21
30.7551182848
  0
LINE
  5
26A
100
AcDbEntity
  8
0
100
AcDbLine
 62
7
  6
CONTINUOUS
 10
154.1987416972
 20
30.6583272086
 11
154.3143669177
 21
30.6260635193
  0
LINE
  5
26B
100
AcDbEntity
  8
0
100
AcDbLine
 62
7
  6
CONTINUOUS
 10
151.1924917523
 20
31.5294468267
 11
150.9612418074
 21
31.5939741996
  0
LINE
  5
26C
100
AcDbEntity
  8
0
100
AcDbLine
 62
7
  6
CONTINUOUS
 10
154.5456166972
 20
30.7228545871
 11
154.3143669177
 21
30.7873819712
  0
LINE
  5
26D
100
AcDbEntity
  8
0
100
AcDbLine
 62
7
  6
CONTINUOUS
 10
153.2737419177
 20
31.5294468267
 11
153.1003044177
 21
31.5939741996
  0
LINE
  5
26E
100
AcDbEntity
  8
0
100
AcDbLine
 62
7
  6
CONTINUOUS
 10
155.5284290869
 20
31.5294468267
 11
155.3549915869
 21
31.5939741996
  0
LINE
  5
26F
100
AcDbEntity
  8
0
100
AcDbLine
 62
7
  6
CONTINUOUS
 10
158.187804528
 20
31.4326557675
 11
158.3034290869
 21
31.3681283946
  0
LINE
  5
270
100
AcDbEntity
  8
0
100
AcDbLine
 62
7
  6
CONTINUOUS
 10
158.534679528
 20
31.4649194539
 11
158.4190543074
 21
31.5294468267
  0
LINE
  5
271
100
AcDbEntity
  8
0
100
AcDbLine
 62
7
  6
CONTINUOUS
 10
150.0362418212
 20
30.6583272086
 11
150.2096793212
 21
30.6260635193
  0
LINE
  5
272
100
AcDbEntity
  8
0
100
AcDbLine
 62
7
  6
CONTINUOUS
 10
150.498741835
 20
30.7228545871
 11
150.1518667936
 21
30.7873819712
  0
LINE
  5
273
100
AcDbEntity
  8
0
100
AcDbLine
 62
7
  6
CONTINUOUS
 10
152.9268669177
 20
31.4649194539
 11
153.0424918074
 21
31.4326557675
  0
LINE
  5
274
100
AcDbEntity
  8
0
100
AcDbLine
 62
7
  6
CONTINUOUS
 10
155.239367028
 20
31.4649194539
 11
155.3549915869
 21
31.4326557675
  0
LINE
  5
275
100
AcDbEntity
  8
0
100
AcDbLine
 62
7
  6
CONTINUOUS
 10
159.575304528
 20
30.7551182848
 11
159.4596793074
 21
30.7873819712
  0
LINE
  5
276
100
AcDbEntity
  8
0
100
AcDbLine
 62
7
  6
CONTINUOUS
 10
158.0721793074
 20
31.4649194539
 11
158.187804528
 21
31.4326557675
  0
LINE
  5
277
100
AcDbEntity
  8
0
100
AcDbLine
 62
7
  6
CONTINUOUS
 10
159.228429528
 20
30.7228545871
 11
159.401867028
 21
30.6583272086
  0
LINE
  5
278
100
AcDbEntity
  8
0
100
AcDbLine
 62
7
  6
CONTINUOUS
 10
158.4190543074
 20
31.5294468267
 11
158.2456168074
 21
31.5939741996
  0
LINE
  5
279
100
AcDbEntity
  8
0
100
AcDbLine
 62
7
  6
CONTINUOUS
 10
159.6331168074
 20
31.2390736489
 11
159.4596793074
 21
31.3036010218
  0
LINE
  5
27A
100
AcDbEntity
  8
0
100
AcDbLine
 62
7
  6
CONTINUOUS
 10
160.442492028
 20
30.9809641124
 11
160.615929528
 21
30.9164367395
  0
LINE
  5
27B
100
AcDbEntity
  8
0
100
AcDbLine
 62
7
  6
CONTINUOUS
 10
160.8471793074
 20
31.4971831403
 11
160.6737418074
 21
31.5617105132
  0
LINE
  5
27C
100
AcDbEntity
  8
0
100
AcDbLine
 62
7
  6
CONTINUOUS
 10
159.228429528
 20
31.2390736489
 11
159.4596793074
 21
31.1422825445
  0
LINE
  5
27D
100
AcDbEntity
  8
0
100
AcDbLine
 62
7
  6
CONTINUOUS
 10
160.8471793074
 20
30.9809641124
 11
160.615929528
 21
31.0777551716
  0
LINE
  5
27E
100
AcDbEntity
  8
0
100
AcDbLine
 62
7
  6
CONTINUOUS
 10
159.401867028
 20
31.3681283946
 11
159.4596793074
 21
31.4326557675
  0
LINE
  5
27F
100
AcDbEntity
  8
0
100
AcDbLine
 62
7
  6
CONTINUOUS
 10
149.8628043005
 20
31.4971831403
 11
149.7471793074
 21
31.4326557675
  0
LINE
  5
280
100
AcDbEntity
  8
0
100
AcDbLine
 62
7
  6
CONTINUOUS
 10
149.9784292936
 20
31.3358647082
 11
150.1518667936
 21
31.4326557675
  0
LINE
  5
281
100
AcDbEntity
  8
0
100
AcDbLine
 62
7
  6
CONTINUOUS
 10
152.2909293626
 20
31.5294468267
 11
152.1753043074
 21
31.4649194539
  0
LINE
  5
282
100
AcDbEntity
  8
0
100
AcDbLine
 62
7
  6
CONTINUOUS
 10
152.1753043074
 20
31.3358647082
 11
152.2909293626
 21
31.400392081
  0
LINE
  5
283
100
AcDbEntity
  8
0
100
AcDbLine
 62
7
  6
CONTINUOUS
 10
151.1924917523
 20
30.6905909007
 11
151.3659292523
 21
30.7873819712
  0
LINE
  5
284
100
AcDbEntity
  8
0
100
AcDbLine
 62
7
  6
CONTINUOUS
 10
150.2096793212
 20
30.6260635193
 11
150.5565542799
 21
30.5937998301
  0
LINE
  5
285
100
AcDbEntity
  8
0
100
AcDbLine
 62
7
  6
CONTINUOUS
 10
154.3143669177
 20
30.6260635193
 11
154.5456166972
 21
30.5937998301
  0
LINE
  5
286
100
AcDbEntity
  8
0
100
AcDbLine
 62
7
  6
CONTINUOUS
 10
152.6956168074
 20
31.4971831403
 11
152.9268669177
 21
31.4649194539
  0
LINE
  5
287
100
AcDbEntity
  8
0
100
AcDbLine
 62
7
  6
CONTINUOUS
 10
155.0081169177
 20
31.4971831403
 11
155.239367028
 21
31.4649194539
  0
LINE
  5
288
100
AcDbEntity
  8
0
100
AcDbLine
 62
7
  6
CONTINUOUS
 10
159.4596793074
 20
31.1422825445
 11
160.442492028
 21
30.9809641124
  0
LINE
  5
289
100
AcDbEntity
  8
0
100
AcDbLine
 62
7
  6
CONTINUOUS
 10
160.615929528
 20
31.0777551716
 11
159.6331168074
 21
31.2390736489
  0
LINE
  5
28A
100
AcDbEntity
  8
0
100
AcDbLine
 62
7
  6
CONTINUOUS
 10
153.1003044177
 20
31.5939741996
 11
152.9268669177
 21
31.626237886
  0
LINE
  5
28B
100
AcDbEntity
  8
0
100
AcDbLine
 62
7
  6
CONTINUOUS
 10
159.401867028
 20
30.6583272086
 11
159.575304528
 21
30.6260635193
  0
LINE
  5
28C
100
AcDbEntity
  8
0
100
AcDbLine
 62
7
  6
CONTINUOUS
 10
158.2456168074
 20
31.5939741996
 11
158.0721793074
 21
31.626237886
  0
LINE
  5
28D
100
AcDbEntity
  8
0
100
AcDbLine
 62
7
  6
CONTINUOUS
 10
160.5003043074
 20
31.4649194539
 11
160.615929528
 21
31.4326557675
  0
LINE
  5
28E
100
AcDbEntity
  8
0
100
AcDbLine
 62
7
  6
CONTINUOUS
 10
160.6737418074
 20
30.8519093441
 11
160.615929528
 21
30.7873819712
  0
LINE
  5
28F
100
AcDbEntity
  8
0
100
AcDbLine
 62
7
  6
CONTINUOUS
 10
159.228429528
 20
31.5294468267
 11
159.1128043074
 21
31.4326557675
  0
LINE
  5
290
100
AcDbEntity
  8
0
100
AcDbLine
 62
7
  6
CONTINUOUS
 10
154.1409294177
 20
31.5617105132
 11
154.0253041972
 21
31.4971831403
  0
LINE
  5
291
100
AcDbEntity
  8
0
100
AcDbLine
 62
7
  6
CONTINUOUS
 10
154.1987416972
 20
31.1745462761
 11
154.0831168074
 21
31.1100188581
  0
LINE
  5
292
100
AcDbEntity
  8
0
100
AcDbLine
 62
7
  6
CONTINUOUS
 10
154.3143669177
 20
31.0132277988
 11
154.4299918074
 21
31.0777551716
  0
LINE
  5
293
100
AcDbEntity
  8
0
100
AcDbLine
 62
7
  6
CONTINUOUS
 10
151.8862417523
 20
30.5937998301
 11
152.1753043074
 21
30.5937998301
  0
LINE
  5
294
100
AcDbEntity
  8
0
100
AcDbLine
 62
7
  6
CONTINUOUS
 10
153.2159293074
 20
30.5937998301
 11
153.5049916972
 21
30.5937998301
  0
LINE
  5
295
100
AcDbEntity
  8
0
100
AcDbLine
 62
7
  6
CONTINUOUS
 10
154.5456166972
 20
30.5937998301
 11
154.8924916972
 21
30.5937998301
  0
LINE
  5
296
100
AcDbEntity
  8
0
100
AcDbLine
 62
7
  6
CONTINUOUS
 10
155.5284290869
 20
30.5937998301
 11
155.8174918074
 21
30.5937998301
  0
LINE
  5
297
100
AcDbEntity
  8
0
100
AcDbLine
 62
7
  6
CONTINUOUS
 10
156.279992028
 20
30.5937998301
 11
156.5690540869
 21
30.5937998301
  0
LINE
  5
298
100
AcDbEntity
  8
0
100
AcDbLine
 62
7
  6
CONTINUOUS
 10
157.0315543074
 20
30.5937998301
 11
157.320617028
 21
30.5937998301
  0
LINE
  5
299
100
AcDbEntity
  8
0
100
AcDbLine
 62
7
  6
CONTINUOUS
 10
158.361242028
 20
30.5937998301
 11
158.6503040869
 21
30.5937998301
  0
LINE
  5
29A
100
AcDbEntity
  8
0
100
AcDbLine
 62
7
  6
CONTINUOUS
 10
159.922179528
 20
30.5937998301
 11
160.269054528
 21
30.5937998301
  0
LINE
  5
29B
100
AcDbEntity
  8
0
100
AcDbLine
 62
7
  6
CONTINUOUS
 10
160.269054528
 20
30.7228545871
 11
159.922179528
 21
30.7228545871
  0
LINE
  5
29C
100
AcDbEntity
  8
0
100
AcDbLine
 62
7
  6
CONTINUOUS
 10
154.8924916972
 20
30.7228545871
 11
154.5456166972
 21
30.7228545871
  0
LINE
  5
29D
100
AcDbEntity
  8
0
100
AcDbLine
 62
7
  6
CONTINUOUS
 10
159.401867028
 20
30.8519093441
 11
159.1128043074
 21
30.8519093441
  0
LINE
  5
29E
100
AcDbEntity
  8
0
100
AcDbLine
 62
7
  6
CONTINUOUS
 10
151.4237418626
 20
30.9164367395
 11
151.1346793074
 21
30.9164367395
  0
LINE
  5
29F
100
AcDbEntity
  8
0
100
AcDbLine
 62
7
  6
CONTINUOUS
 10
150.498741835
 20
31.4971831403
 11
150.9034292799
 21
31.4649194539
  0
LINE
  5
2A0
100
AcDbEntity
  8
0
100
AcDbLine
 62
7
  6
CONTINUOUS
 10
150.9612418074
 20
31.5939741996
 11
150.5565542799
 21
31.626237886
  0
LINE
  5
2A1
100
AcDbEntity
  8
0
100
AcDbLine
 62
7
  6
CONTINUOUS
 10
159.575304528
 20
30.6260635193
 11
159.922179528
 21
30.5937998301
  0
LINE
  5
2A2
100
AcDbEntity
  8
0
100
AcDbLine
 62
7
  6
CONTINUOUS
 10
159.922179528
 20
30.7228545871
 11
159.575304528
 21
30.7551182848
  0
LINE
  5
2A3
100
AcDbEntity
  8
0
100
AcDbLine
 62
7
  6
CONTINUOUS
 10
155.3549915869
 20
31.5939741996
 11
155.0081169177
 21
31.626237886
  0
LINE
  5
2A4
100
AcDbEntity
  8
0
100
AcDbLine
 62
7
  6
CONTINUOUS
 10
160.1534293074
 20
31.4971831403
 11
160.5003043074
 21
31.4649194539
  0
LINE
  5
2A5
100
AcDbEntity
  8
0
100
AcDbLine
 62
7
  6
CONTINUOUS
 10
160.5003043074
 20
31.5939741996
 11
160.1534293074
 21
31.626237886
  0
LINE
  5
2A6
100
AcDbEntity
  8
0
100
AcDbLine
 62
7
  6
CONTINUOUS
 10
157.840929528
 20
31.4971831403
 11
158.0721793074
 21
31.4649194539
  0
LINE
  5
2A7
100
AcDbEntity
  8
0
100
AcDbLine
 62
7
  6
CONTINUOUS
 10
160.6737418074
 20
31.5617105132
 11
160.5003043074
 21
31.5939741996
  0
LINE
  5
2A8
100
AcDbEntity
  8
0
100
AcDbLine
 62
7
  6
CONTINUOUS
 10
160.8471793074
 20
30.6905909007
 11
160.9628038663
 21
30.7873819712
  0
LINE
  5
2A9
100
AcDbEntity
  8
0
100
AcDbLine
 62
7
  6
CONTINUOUS
 10
155.3549915869
 20
30.8841730531
 11
155.1815540869
 21
30.7873819712
  0
LINE
  5
2AA
100
AcDbEntity
  8
0
100
AcDbLine
 62
7
  6
CONTINUOUS
 10
157.4362415869
 20
31.5294468267
 11
157.320617028
 21
31.4649194539
  0
LINE
  5
2AB
100
AcDbEntity
  8
0
100
AcDbLine
 62
7
  6
CONTINUOUS
 10
157.320617028
 20
31.3358647082
 11
157.4362415869
 21
31.400392081
  0
LINE
  5
2AC
100
AcDbEntity
  8
0
100
AcDbLine
 62
7
  6
CONTINUOUS
 10
150.0362418212
 20
31.5617105132
 11
149.8628043005
 21
31.4971831403
  0
LINE
  5
2AD
100
AcDbEntity
  8
0
100
AcDbLine
 62
7
  6
CONTINUOUS
 10
152.4643666972
 20
31.5939741996
 11
152.2909293626
 21
31.5294468267
  0
LINE
  5
2AE
100
AcDbEntity
  8
0
100
AcDbLine
 62
7
  6
CONTINUOUS
 10
152.2909293626
 20
31.400392081
 11
152.4643666972
 21
31.4649194539
  0
LINE
  5
2AF
100
AcDbEntity
  8
0
100
AcDbLine
 62
7
  6
CONTINUOUS
 10
151.0768668626
 20
30.8196456577
 11
150.9034292799
 21
30.7551182848
  0
LINE
  5
2B0
100
AcDbEntity
  8
0
100
AcDbLine
 62
7
  6
CONTINUOUS
 10
160.5003043074
 20
30.7551182848
 11
160.269054528
 21
30.7228545871
  0
LINE
  5
2B1
100
AcDbEntity
  8
0
100
AcDbLine
 62
7
  6
CONTINUOUS
 10
154.8924916972
 20
30.5937998301
 11
155.1815540869
 21
30.6260635193
  0
LINE
  5
2B2
100
AcDbEntity
  8
0
100
AcDbLine
 62
7
  6
CONTINUOUS
 10
160.269054528
 20
30.5937998301
 11
160.615929528
 21
30.6260635193
  0
LINE
  5
2B3
100
AcDbEntity
  8
0
100
AcDbLine
 62
7
  6
CONTINUOUS
 10
150.5565542799
 20
30.5937998301
 11
150.9612418074
 21
30.6260635193
  0
LINE
  5
2B4
100
AcDbEntity
  8
0
100
AcDbLine
 62
7
  6
CONTINUOUS
 10
150.9034292799
 20
30.7551182848
 11
150.498741835
 21
30.7228545871
  0
LINE
  5
2B5
100
AcDbEntity
  8
0
100
AcDbLine
 62
7
  6
CONTINUOUS
 10
154.7768668074
 20
31.1422825445
 11
155.412804528
 21
31.1422825445
  0
LINE
  5
2B6
100
AcDbEntity
  8
0
100
AcDbLine
 62
7
  6
CONTINUOUS
 10
155.412804528
 20
31.2713373354
 11
154.7768668074
 21
31.2713373354
  0
LINE
  5
2B7
100
AcDbEntity
  8
0
100
AcDbLine
 62
7
  6
CONTINUOUS
 10
151.1346793074
 20
31.3036010218
 11
151.4237418626
 21
31.3036010218
  0
LINE
  5
2B8
100
AcDbEntity
  8
0
100
AcDbLine
 62
7
  6
CONTINUOUS
 10
153.9674919177
 20
31.3681283946
 11
154.2565543074
 21
31.3681283946
  0
LINE
  5
2B9
100
AcDbEntity
  8
0
100
AcDbLine
 62
7
  6
CONTINUOUS
 10
160.6737418074
 20
31.3681283946
 11
160.9628038663
 21
31.3681283946
  0
LINE
  5
2BA
100
AcDbEntity
  8
0
100
AcDbLine
 62
7
  6
CONTINUOUS
 10
154.6612419177
 20
31.4971831403
 11
155.0081169177
 21
31.4971831403
  0
LINE
  5
2BB
100
AcDbEntity
  8
0
100
AcDbLine
 62
7
  6
CONTINUOUS
 10
159.8065543074
 20
31.4971831403
 11
160.1534293074
 21
31.4971831403
  0
LINE
  5
2BC
100
AcDbEntity
  8
0
100
AcDbLine
 62
7
  6
CONTINUOUS
 10
160.1534293074
 20
31.626237886
 11
159.8065543074
 21
31.626237886
  0
LINE
  5
2BD
100
AcDbEntity
  8
0
100
AcDbLine
 62
7
  6
CONTINUOUS
 10
158.0721793074
 20
31.626237886
 11
157.840929528
 21
31.626237886
  0
LINE
  5
2BE
100
AcDbEntity
  8
0
100
AcDbLine
 62
7
  6
CONTINUOUS
 10
157.320617028
 20
31.626237886
 11
157.0315543074
 21
31.626237886
  0
LINE
  5
2BF
100
AcDbEntity
  8
0
100
AcDbLine
 62
7
  6
CONTINUOUS
 10
156.5690540869
 20
31.626237886
 11
156.279992028
 21
31.626237886
  0
LINE
  5
2C0
100
AcDbEntity
  8
0
100
AcDbLine
 62
7
  6
CONTINUOUS
 10
155.0081169177
 20
31.626237886
 11
154.6612419177
 21
31.626237886
  0
LINE
  5
2C1
100
AcDbEntity
  8
0
100
AcDbLine
 62
7
  6
CONTINUOUS
 10
152.9268669177
 20
31.626237886
 11
152.6956168074
 21
31.626237886
  0
LINE
  5
2C2
100
AcDbEntity
  8
0
100
AcDbLine
 62
7
  6
CONTINUOUS
 10
156.279992028
 20
31.9488748406
 11
156.5690540869
 21
31.9488748406
  0
LINE
  5
2C3
100
AcDbEntity
  8
0
100
AcDbLine
 62
7
  6
CONTINUOUS
 10
156.5690540869
 20
32.1101932727
 11
156.279992028
 21
32.1101932727
  0
LINE
  5
2C4
100
AcDbEntity
  8
0
100
AcDbLine
 62
7
  6
CONTINUOUS
 10
152.1753043074
 20
32.1101932727
 11
151.8862417523
 21
32.1101932727
  0
LINE
  5
2C5
100
AcDbEntity
  8
0
100
AcDbLine
 62
7
  6
CONTINUOUS
 10
151.2130860697
 20
32.3970785186
 11
151.6256574183
 21
32.3970785186
  0
LINE
  5
2C6
100
AcDbEntity
  8
0
100
AcDbLine
 62
7
  6
CONTINUOUS
 10
152.852430332
 20
32.3970785186
 11
154.245872955
 21
32.3970785186
  0
LINE
  5
2C7
100
AcDbEntity
  8
0
100
AcDbLine
 62
7
  6
CONTINUOUS
 10
154.5737418074
 20
32.3970785186
 11
155.9671844304
 21
32.3970785186
  0
LINE
  5
2C8
100
AcDbEntity
  8
0
100
AcDbLine
 62
7
  6
CONTINUOUS
 10
157.852430332
 20
32.3970785186
 11
159.245872955
 21
32.3970785186
  0
LINE
  5
2C9
100
AcDbEntity
  8
0
100
AcDbLine
 62
7
  6
CONTINUOUS
 10
159.5737418074
 20
32.3970785186
 11
160.9671844304
 21
32.3970785186
  0
LINE
  5
2CA
100
AcDbEntity
  8
0
100
AcDbLine
 62
7
  6
CONTINUOUS
 10
157.6096790869
 20
31.5939741996
 11
157.4362415869
 21
31.5294468267
  0
LINE
  5
2CB
100
AcDbEntity
  8
0
100
AcDbLine
 62
7
  6
CONTINUOUS
 10
155.1815540869
 20
30.6260635193
 11
155.3549915869
 21
30.6905909007
  0
LINE
  5
2CC
100
AcDbEntity
  8
0
100
AcDbLine
 62
7
  6
CONTINUOUS
 10
160.615929528
 20
30.6260635193
 11
160.8471793074
 21
30.6905909007
  0
LINE
  5
2CD
100
AcDbEntity
  8
0
100
AcDbLine
 62
7
  6
CONTINUOUS
 10
160.615929528
 20
30.7873819712
 11
160.5003043074
 21
30.7551182848
  0
LINE
  5
2CE
100
AcDbEntity
  8
0
100
AcDbLine
 62
7
  6
CONTINUOUS
 10
159.575304528
 20
31.4649194539
 11
159.8065543074
 21
31.4971831403
  0
LINE
  5
2CF
100
AcDbEntity
  8
0
100
AcDbLine
 62
7
  6
CONTINUOUS
 10
157.6096790869
 20
31.4649194539
 11
157.840929528
 21
31.4971831403
  0
LINE
  5
2D0
100
AcDbEntity
  8
0
100
AcDbLine
 62
7
  6
CONTINUOUS
 10
154.5456166972
 20
31.1100188581
 11
154.7768668074
 21
31.1422825445
  0
LINE
  5
2D1
100
AcDbEntity
  8
0
100
AcDbLine
 62
7
  6
CONTINUOUS
 10
157.840929528
 20
31.626237886
 11
157.6096790869
 21
31.5939741996
  0
LINE
  5
2D2
100
AcDbEntity
  8
0
100
AcDbLine
 62
7
  6
CONTINUOUS
 10
154.4299918074
 20
31.4649194539
 11
154.6612419177
 21
31.4971831403
  0
LINE
  5
2D3
100
AcDbEntity
  8
0
100
AcDbLine
 62
7
  6
CONTINUOUS
 10
159.8065543074
 20
31.626237886
 11
159.4596793074
 21
31.5939741996
  0
LINE
  5
2D4
100
AcDbEntity
  8
0
100
AcDbLine
 62
7
  6
CONTINUOUS
 10
154.7768668074
 20
31.2713373354
 11
154.4299918074
 21
31.2390736489
  0
LINE
  5
2D5
100
AcDbEntity
  8
0
100
AcDbLine
 62
7
  6
CONTINUOUS
 10
150.5565542799
 20
31.626237886
 11
150.2096793212
 21
31.5939741996
  0
LINE
  5
2D6
100
AcDbEntity
  8
0
100
AcDbLine
 62
7
  6
CONTINUOUS
 10
154.6612419177
 20
31.626237886
 11
154.2565543074
 21
31.5939741996
  0
LINE
  5
2D7
100
AcDbEntity
  8
0
100
AcDbLine
 62
7
  6
CONTINUOUS
 10
152.0327582009
 20
33.5446195022
 11
151.3770204959
 21
33.5446195022
  0
LINE
  5
2D8
100
AcDbEntity
  8
0
100
AcDbLine
 62
7
  6
CONTINUOUS
 10
157.4362415869
 20
31.400392081
 11
157.6096790869
 21
31.4649194539
  0
LINE
  5
2D9
100
AcDbEntity
  8
0
100
AcDbLine
 62
7
  6
CONTINUOUS
 10
159.4596793074
 20
31.4326557675
 11
159.575304528
 21
31.4649194539
  0
LINE
  5
2DA
100
AcDbEntity
  8
0
100
AcDbLine
 62
7
  6
CONTINUOUS
 10
159.4596793074
 20
31.5939741996
 11
159.228429528
 21
31.5294468267
  0
LINE
  5
2DB
100
AcDbEntity
  8
0
100
AcDbLine
 62
7
  6
CONTINUOUS
 10
155.1815540869
 20
30.7873819712
 11
154.8924916972
 21
30.7228545871
  0
LINE
  5
2DC
100
AcDbEntity
  8
0
100
AcDbLine
 62
7
  6
CONTINUOUS
 10
152.4643666972
 20
31.4649194539
 11
152.6956168074
 21
31.4971831403
  0
LINE
  5
2DD
100
AcDbEntity
  8
0
100
AcDbLine
 62
7
  6
CONTINUOUS
 10
152.6956168074
 20
31.626237886
 11
152.4643666972
 21
31.5939741996
  0
LINE
  5
2DE
100
AcDbEntity
  8
0
100
AcDbLine
 62
7
  6
CONTINUOUS
 10
150.2674918074
 20
31.4649194539
 11
150.498741835
 21
31.4971831403
  0
LINE
  5
2DF
100
AcDbEntity
  8
0
100
AcDbLine
 62
7
  6
CONTINUOUS
 10
156.7868565615
 20
35.0200293383
 11
157.4425942664
 21
35.0200293383
  0
LINE
  5
2E0
100
AcDbEntity
  8
0
100
AcDbLine
 62
7
  6
CONTINUOUS
 10
154.4299918074
 20
31.0777551716
 11
154.5456166972
 21
31.1100188581
  0
LINE
  5
2E1
100
AcDbEntity
  8
0
100
AcDbLine
 62
7
  6
CONTINUOUS
 10
154.4299918074
 20
31.2390736489
 11
154.1987416972
 21
31.1745462761
  0
LINE
  5
2E2
100
AcDbEntity
  8
0
100
AcDbLine
 62
7
  6
CONTINUOUS
 10
154.3143669177
 20
31.4326557675
 11
154.4299918074
 21
31.4649194539
  0
LINE
  5
2E3
100
AcDbEntity
  8
0
100
AcDbLine
 62
7
  6
CONTINUOUS
 10
150.9612418074
 20
30.6260635193
 11
151.1924917523
 21
30.6905909007
  0
LINE
  5
2E4
100
AcDbEntity
  8
0
100
AcDbLine
 62
7
  6
CONTINUOUS
 10
154.2565543074
 20
31.5939741996
 11
154.1409294177
 21
31.5617105132
  0
LINE
  5
2E5
100
AcDbEntity
  8
0
100
AcDbLine
 62
7
  6
CONTINUOUS
 10
150.2096793212
 20
31.5939741996
 11
150.0362418212
 21
31.5617105132
  0
LINE
  5
2E6
100
AcDbEntity
  8
0
100
AcDbLine
 62
7
  6
CONTINUOUS
 10
160.9671844304
 20
36.1675703219
 11
159.5737418074
 21
36.1675703219
  0
LINE
  5
2E7
100
AcDbEntity
  8
0
100
AcDbLine
 62
7
  6
CONTINUOUS
 10
157.6065286927
 20
36.1675703219
 11
157.1939573441
 21
36.1675703219
  0
LINE
  5
2E8
100
AcDbEntity
  8
0
100
AcDbLine
 62
7
  6
CONTINUOUS
 10
155.9671844304
 20
36.1675703219
 11
154.5737418074
 21
36.1675703219
  0
LINE
  5
2E9
100
AcDbEntity
  8
0
100
AcDbLine
 62
7
  6
CONTINUOUS
 10
154.245872955
 20
36.1675703219
 11
152.852430332
 21
36.1675703219
  0
LINE
  5
2EA
100
AcDbEntity
  8
0
100
AcDbLine
 62
7
  6
CONTINUOUS
 10
150.9671844304
 20
36.1675703219
 11
149.5737418074
 21
36.1675703219
  0
LINE
  5
2EB
100
AcDbEntity
  8
0
100
AcDbLine
 62
7
  6
CONTINUOUS
 10
150.1518667936
 20
31.4326557675
 11
150.2674918074
 21
31.4649194539
  0
CIRCLE
  5
2EC
100
AcDbEntity
  8
0
100
AcDbCircle
 62
7
  6
CONTINUOUS
 10
160.2704631189
 20
38.5036358957
 40
2.0901639344
  0
ARC
  5
2ED
100
AcDbEntity
  8
0
100
AcDbCircle
 62
7
  6
CONTINUOUS
 10
151.2130860697
 20
34.0364227809
 40
1.6393442623
100
AcDbArc
 50
180.0
 51
270.0
  0
ARC
  5
2EE
100
AcDbEntity
  8
0
100
AcDbCircle
 62
7
  6
CONTINUOUS
 10
157.6065286927
 20
34.5282260596
 40
1.6393442623
100
AcDbArc
 50
0.0
 51
90.0
  0
ARC
  5
2EF
100
AcDbEntity
  8
0
100
AcDbCircle
 62
7
  6
CONTINUOUS
 10
151.6256574183
 20
33.8724883547
 40
1.4754098361
100
AcDbArc
 50
270.0
 51
326.2510114041
  0
ARC
  5
2F0
100
AcDbEntity
  8
0
100
AcDbCircle
 62
7
  6
CONTINUOUS
 10
157.1939573441
 20
34.6921604858
 40
1.4754098361
100
AcDbArc
 50
90.0
 51
146.2510114041
  0
ARC
  5
2F1
100
AcDbEntity
  8
0
100
AcDbCircle
 62
7
  6
CONTINUOUS
 10
152.0327582009
 20
34.3642916334
 40
0.8196721311
100
AcDbArc
 50
270.0
 51
360.0
  0
ARC
  5
2F2
100
AcDbEntity
  8
0
100
AcDbCircle
 62
7
  6
CONTINUOUS
 10
156.7868565615
 20
34.2003572071
 40
0.8196721311
100
AcDbArc
 50
90.0
 51
180.0
  0
ARC
  5
2F3
100
AcDbEntity
  8
0
100
AcDbCircle
 62
7
  6
CONTINUOUS
 10
151.3770204959
 20
33.9544555678
 40
0.4098360656
100
AcDbArc
 50
180.0
 51
270.0
  0
ARC
  5
2F4
100
AcDbEntity
  8
0
100
AcDbCircle
 62
7
  6
CONTINUOUS
 10
157.4425942664
 20
34.6101932727
 40
0.4098360656
100
AcDbArc
 50
0.0
 51
90.0
  0
SOLID
  5
2F5
100
AcDbEntity
  8
0
100
AcDbTrace
 62
7
  6
CONTINUOUS
 10
156.279992028
 20
31.9488752009
 11
156.279992028
 21
32.1101936845
 12
156.5690540869
 22
31.9488752009
 13
156.5690540869
 23
32.1101936845
  0
LWPOLYLINE
  5
2F6
100
AcDbEntity
  8
0
100
AcDbPolyline
 62
7
  6
CONTINUOUS
 90
13
 70
0
 10
150.5565542799
 20
31.6262382337
 10
150.9612418074
 20
31.5939739304
 10
151.1924917523
 20
31.5294468402
 10
151.3659292523
 20
31.4326554468
 10
151.4237418626
 20
31.3036012664
 10
151.1346793074
 20
31.3036012664
 10
151.0768668626
 20
31.4003926599
 10
150.9034292799
 20
31.4649197501
 10
150.498741835
 20
31.4971825369
 10
149.8628043005
 20
31.4971825369
 10
150.0362418212
 20
31.5617111435
 10
150.2096793212
 20
31.5939739304
 10
150.5565542799
 20
31.6262382337
  0
HATCH
  5
2F7
100
AcDbEntity
  8
0
100
AcDbHatch
 62
7
  6
CONTINUOUS
 10
0.0
 20
0.0
 30
0.0
210
0.0
220
0.0
230
1.0
  2
SOLID
 70
1
 71
1
 91
1
 92
1
 93
12
 72
1
 10
150.5565542799
 20
31.6262382337
 11
150.9612418074
 21
31.5939739304
 72
1
 10
150.9612418074
 20
31.5939739304
 11
151.1924917523
 21
31.5294468402
 72
1
 10
151.1924917523
 20
31.5294468402
 11
151.3659292523
 21
31.4326554468
 72
1
 10
151.3659292523
 20
31.4326554468
 11
151.4237418626
 21
31.3036012664
 72
1
 10
151.4237418626
 20
31.3036012664
 11
151.1346793074
 21
31.3036012664
 72
1
 10
151.1346793074
 20
31.3036012664
 11
151.0768668626
 21
31.4003926599
 72
1
 10
151.0768668626
 20
31.4003926599
 11
150.9034292799
 21
31.4649197501
 72
1
 10
150.9034292799
 20
31.4649197501
 11
150.498741835
 21
31.4971825369
 72
1
 10
150.498741835
 20
31.4971825369
 11
149.8628043005
 21
31.4971825369
 72
1
 10
149.8628043005
 20
31.4971825369
 11
150.0362418212
 21
31.5617111435
 72
1
 10
150.0362418212
 20
31.5617111435
 11
150.2096793212
 21
31.5939739304
 72
1
 10
150.2096793212
 20
31.5939739304
 11
150.5565542799
 21
31.6262382337
 97
1
330
2F6
 75
0
 76
1
 98
1
 10
0.0
 20
0.0
  0
LWPOLYLINE
  5
2F8
100
AcDbEntity
  8
0
100
AcDbPolyline
 62
7
  6
CONTINUOUS
 90
25
 70
0
 10
152.4643666972
 20
31.5939739304
 10
152.6956168074
 20
31.6262382337
 10
152.9268669177
 20
31.6262382337
 10
153.1003044177
 20
31.5939739304
 10
153.2737419177
 20
31.5294468402
 10
153.3893668074
 20
31.4649197501
 10
153.4471794177
 20
31.4003926599
 10
153.5049916972
 20
31.2390741763
 10
153.5049916972
 20
30.5938002419
 10
153.2159293074
 20
30.5938002419
 10
153.2159293074
 20
31.2390741763
 10
153.1581166972
 20
31.3681283566
 10
153.0424918074
 20
31.4326554468
 10
152.9268669177
 20
31.4649197501
 10
152.6956168074
 20
31.4971825369
 10
152.4643666972
 20
31.4649197501
 10
152.2909293626
 20
31.4003926599
 10
152.1753043074
 20
31.3358640533
 10
152.1753043074
 20
30.5938002419
 10
151.8862417523
 20
30.5938002419
 10
151.8862417523
 20
32.1101936845
 10
152.1753043074
 20
32.1101936845
 10
152.1753043074
 20
31.4649197501
 10
152.2909293626
 20
31.5294468402
 10
152.4643666972
 20
31.5939739304
  0
HATCH
  5
2F9
100
AcDbEntity
  8
0
100
AcDbHatch
 62
7
  6
CONTINUOUS
 10
0.0
 20
0.0
 30
0.0
210
0.0
220
0.0
230
1.0
  2
SOLID
 70
1
 71
1
 91
1
 92
1
 93
24
 72
1
 10
152.4643666972
 20
31.5939739304
 11
152.6956168074
 21
31.6262382337
 72
1
 10
152.6956168074
 20
31.6262382337
 11
152.9268669177
 21
31.6262382337
 72
1
 10
152.9268669177
 20
31.6262382337
 11
153.1003044177
 21
31.5939739304
 72
1
 10
153.1003044177
 20
31.5939739304
 11
153.2737419177
 21
31.5294468402
 72
1
 10
153.2737419177
 20
31.5294468402
 11
153.3893668074
 21
31.4649197501
 72
1
 10
153.3893668074
 20
31.4649197501
 11
153.4471794177
 21
31.4003926599
 72
1
 10
153.4471794177
 20
31.4003926599
 11
153.5049916972
 21
31.2390741763
 72
1
 10
153.5049916972
 20
31.2390741763
 11
153.5049916972
 21
30.5938002419
 72
1
 10
153.5049916972
 20
30.5938002419
 11
153.2159293074
 21
30.5938002419
 72
1
 10
153.2159293074
 20
30.5938002419
 11
153.2159293074
 21
31.2390741763
 72
1
 10
153.2159293074
 20
31.2390741763
 11
153.1581166972
 21
31.3681283566
 72
1
 10
153.1581166972
 20
31.3681283566
 11
153.0424918074
 21
31.4326554468
 72
1
 10
153.0424918074
 20
31.4326554468
 11
152.9268669177
 21
31.4649197501
 72
1
 10
152.9268669177
 20
31.4649197501
 11
152.6956168074
 21
31.4971825369
 72
1
 10
152.6956168074
 20
31.4971825369
 11
152.4643666972
 21
31.4649197501
 72
1
 10
152.4643666972
 20
31.4649197501
 11
152.2909293626
 21
31.4003926599
 72
1
 10
152.2909293626
 20
31.4003926599
 11
152.1753043074
 21
31.3358640533
 72
1
 10
152.1753043074
 20
31.3358640533
 11
152.1753043074
 21
30.5938002419
 72
1
 10
152.1753043074
 20
30.5938002419
 11
151.8862417523
 21
30.5938002419
 72
1
 10
151.8862417523
 20
30.5938002419
 11
151.8862417523
 21
32.1101936845
 72
1
 10
151.8862417523
 20
32.1101936845
 11
152.1753043074
 21
32.1101936845
 72
1
 10
152.1753043074
 20
32.1101936845
 11
152.1753043074
 21
31.4649197501
 72
1
 10
152.1753043074
 20
31.4649197501
 11
152.2909293626
 21
31.5294468402
 72
1
 10
152.2909293626
 20
31.5294468402
 11
152.4643666972
 21
31.5939739304
 97
1
330
2F8
 75
0
 76
1
 98
1
 10
0.0
 20
0.0
  0
LWPOLYLINE
  5
2FA
100
AcDbEntity
  8
0
100
AcDbPolyline
 62
7
  6
CONTINUOUS
 90
20
 70
0
 10
154.2565543074
 20
31.5939739304
 10
154.6612419177
 20
31.6262382337
 10
155.0081169177
 20
31.6262382337
 10
155.3549915869
 20
31.5939739304
 10
155.5284290869
 20
31.5294468402
 10
155.6440543074
 20
31.4649197501
 10
155.7018665869
 20
31.3681283566
 10
155.7018665869
 20
30.8519086025
 10
155.412804528
 20
30.9487004259
 10
155.412804528
 20
31.1422827828
 10
155.412804528
 20
31.2713369632
 10
155.412804528
 20
31.3681283566
 10
155.3549915869
 20
31.4326554468
 10
155.239367028
 20
31.4649197501
 10
155.0081169177
 20
31.4971825369
 10
154.6612419177
 20
31.4971825369
 10
153.9674919177
 20
31.4326554468
 10
154.0253041972
 20
31.4971825369
 10
154.1409294177
 20
31.5617111435
 10
154.2565543074
 20
31.5939739304
  0
HATCH
  5
2FB
100
AcDbEntity
  8
0
100
AcDbHatch
 62
7
  6
CONTINUOUS
 10
0.0
 20
0.0
 30
0.0
210
0.0
220
0.0
230
1.0
  2
SOLID
 70
1
 71
1
 91
1
 92
1
 93
19
 72
1
 10
154.2565543074
 20
31.5939739304
 11
154.6612419177
 21
31.6262382337
 72
1
 10
154.6612419177
 20
31.6262382337
 11
155.0081169177
 21
31.6262382337
 72
1
 10
155.0081169177
 20
31.6262382337
 11
155.3549915869
 21
31.5939739304
 72
1
 10
155.3549915869
 20
31.5939739304
 11
155.5284290869
 21
31.5294468402
 72
1
 10
155.5284290869
 20
31.5294468402
 11
155.6440543074
 21
31.4649197501
 72
1
 10
155.6440543074
 20
31.4649197501
 11
155.7018665869
 21
31.3681283566
 72
1
 10
155.7018665869
 20
31.3681283566
 11
155.7018665869
 21
30.8519086025
 72
1
 10
155.7018665869
 20
30.8519086025
 11
155.412804528
 21
30.9487004259
 72
1
 10
155.412804528
 20
30.9487004259
 11
155.412804528
 21
31.1422827828
 72
1
 10
155.412804528
 20
31.1422827828
 11
155.412804528
 21
31.2713369632
 72
1
 10
155.412804528
 20
31.2713369632
 11
155.412804528
 21
31.3681283566
 72
1
 10
155.412804528
 20
31.3681283566
 11
155.3549915869
 21
31.4326554468
 72
1
 10
155.3549915869
 20
31.4326554468
 11
155.239367028
 21
31.4649197501
 72
1
 10
155.239367028
 20
31.4649197501
 11
155.0081169177
 21
31.4971825369
 72
1
 10
155.0081169177
 20
31.4971825369
 11
154.6612419177
 21
31.4971825369
 72
1
 10
154.6612419177
 20
31.4971825369
 11
153.9674919177
 21
31.4326554468
 72
1
 10
153.9674919177
 20
31.4326554468
 11
154.0253041972
 21
31.4971825369
 72
1
 10
154.0253041972
 20
31.4971825369
 11
154.1409294177
 21
31.5617111435
 72
1
 10
154.1409294177
 20
31.5617111435
 11
154.2565543074
 21
31.5939739304
 97
1
330
2FA
 75
0
 76
1
 98
1
 10
0.0
 20
0.0
  0
LWPOLYLINE
  5
2FC
100
AcDbEntity
  8
0
100
AcDbPolyline
 62
7
  6
CONTINUOUS
 90
25
 70
0
 10
157.6096790869
 20
31.5939739304
 10
157.840929528
 20
31.6262382337
 10
158.0721793074
 20
31.6262382337
 10
158.2456168074
 20
31.5939739304
 10
158.4190543074
 20
31.5294468402
 10
158.534679528
 20
31.4649197501
 10
158.5924918074
 20
31.3681283566
 10
158.6503040869
 20
31.206809873
 10
158.6503040869
 20
30.5938002419
 10
158.361242028
 20
30.5938002419
 10
158.361242028
 20
31.206809873
 10
158.3034290869
 20
31.3681283566
 10
158.187804528
 20
31.4326554468
 10
158.0721793074
 20
31.4649197501
 10
157.840929528
 20
31.4971825369
 10
157.6096790869
 20
31.4649197501
 10
157.4362415869
 20
31.4003926599
 10
157.320617028
 20
31.3358640533
 10
157.320617028
 20
30.5938002419
 10
157.0315543074
 20
30.5938002419
 10
157.0315543074
 20
31.6262382337
 10
157.320617028
 20
31.6262382337
 10
157.320617028
 20
31.4649197501
 10
157.4362415869
 20
31.5294468402
 10
157.6096790869
 20
31.5939739304
  0
HATCH
  5
2FD
100
AcDbEntity
  8
0
100
AcDbHatch
 62
7
  6
CONTINUOUS
 10
0.0
 20
0.0
 30
0.0
210
0.0
220
0.0
230
1.0
  2
SOLID
 70
1
 71
1
 91
1
 92
1
 93
24
 72
1
 10
157.6096790869
 20
31.5939739304
 11
157.840929528
 21
31.6262382337
 72
1
 10
157.840929528
 20
31.6262382337
 11
158.0721793074
 21
31.6262382337
 72
1
 10
158.0721793074
 20
31.6262382337
 11
158.2456168074
 21
31.5939739304
 72
1
 10
158.2456168074
 20
31.5939739304
 11
158.4190543074
 21
31.5294468402
 72
1
 10
158.4190543074
 20
31.5294468402
 11
158.534679528
 21
31.4649197501
 72
1
 10
158.534679528
 20
31.4649197501
 11
158.5924918074
 21
31.3681283566
 72
1
 10
158.5924918074
 20
31.3681283566
 11
158.6503040869
 21
31.206809873
 72
1
 10
158.6503040869
 20
31.206809873
 11
158.6503040869
 21
30.5938002419
 72
1
 10
158.6503040869
 20
30.5938002419
 11
158.361242028
 21
30.5938002419
 72
1
 10
158.361242028
 20
30.5938002419
 11
158.361242028
 21
31.206809873
 72
1
 10
158.361242028
 20
31.206809873
 11
158.3034290869
 21
31.3681283566
 72
1
 10
158.3034290869
 20
31.3681283566
 11
158.187804528
 21
31.4326554468
 72
1
 10
158.187804528
 20
31.4326554468
 11
158.0721793074
 21
31.4649197501
 72
1
 10
158.0721793074
 20
31.4649197501
 11
157.840929528
 21
31.4971825369
 72
1
 10
157.840929528
 20
31.4971825369
 11
157.6096790869
 21
31.4649197501
 72
1
 10
157.6096790869
 20
31.4649197501
 11
157.4362415869
 21
31.4003926599
 72
1
 10
157.4362415869
 20
31.4003926599
 11
157.320617028
 21
31.3358640533
 72
1
 10
157.320617028
 20
31.3358640533
 11
157.320617028
 21
30.5938002419
 72
1
 10
157.320617028
 20
30.5938002419
 11
157.0315543074
 21
30.5938002419
 72
1
 10
157.0315543074
 20
30.5938002419
 11
157.0315543074
 21
31.6262382337
 72
1
 10
157.0315543074
 20
31.6262382337
 11
157.320617028
 21
31.6262382337
 72
1
 10
157.320617028
 20
31.6262382337
 11
157.320617028
 21
31.4649197501
 72
1
 10
157.320617028
 20
31.4649197501
 11
157.4362415869
 21
31.5294468402
 72
1
 10
157.4362415869
 20
31.5294468402
 11
157.6096790869
 21
31.5939739304
 97
1
330
2FC
 75
0
 76
1
 98
1
 10
0.0
 20
0.0
  0
LWPOLYLINE
  5
2FE
100
AcDbEntity
  8
0
100
AcDbPolyline
 62
7
  6
CONTINUOUS
 90
6
 70
0
 10
159.4596793074
 20
31.5939739304
 10
159.8065543074
 20
31.6262382337
 10
160.1534293074
 20
31.6262382337
 10
160.5003043074
 20
31.5939739304
 10
159.228429528
 20
31.5294468402
 10
159.4596793074
 20
31.5939739304
  0
HATCH
  5
2FF
100
AcDbEntity
  8
0
100
AcDbHatch
 62
7
  6
CONTINUOUS
 10
0.0
 20
0.0
 30
0.0
210
0.0
220
0.0
230
1.0
  2
SOLID
 70
1
 71
1
 91
1
 92
1
 93
5
 72
1
 10
159.4596793074
 20
31.5939739304
 11
159.8065543074
 21
31.6262382337
 72
1
 10
159.8065543074
 20
31.6262382337
 11
160.1534293074
 21
31.6262382337
 72
1
 10
160.1534293074
 20
31.6262382337
 11
160.5003043074
 21
31.5939739304
 72
1
 10
160.5003043074
 20
31.5939739304
 11
159.228429528
 21
31.5294468402
 72
1
 10
159.228429528
 20
31.5294468402
 11
159.4596793074
 21
31.5939739304
 97
1
330
2FE
 75
0
 76
1
 98
1
 10
0.0
 20
0.0
  0
LWPOLYLINE
  5
300
100
AcDbEntity
  8
0
100
AcDbPolyline
 62
7
  6
CONTINUOUS
 90
12
 70
0
 10
160.6737418074
 20
31.5617111435
 10
160.8471793074
 20
31.4971825369
 10
160.9628038663
 20
31.3681283566
 10
160.6737418074
 20
31.3681283566
 10
160.615929528
 20
31.4326554468
 10
160.5003043074
 20
31.4649197501
 10
160.1534293074
 20
31.4971825369
 10
159.8065543074
 20
31.4971825369
 10
159.1128043074
 20
31.4326554468
 10
159.228429528
 20
31.5294468402
 10
160.5003043074
 20
31.5939739304
 10
160.6737418074
 20
31.5617111435
  0
HATCH
  5
301
100
AcDbEntity
  8
0
100
AcDbHatch
 62
7
  6
CONTINUOUS
 10
0.0
 20
0.0
 30
0.0
210
0.0
220
0.0
230
1.0
  2
SOLID
 70
1
 71
1
 91
1
 92
1
 93
11
 72
1
 10
160.6737418074
 20
31.5617111435
 11
160.8471793074
 21
31.4971825369
 72
1
 10
160.8471793074
 20
31.4971825369
 11
160.9628038663
 21
31.3681283566
 72
1
 10
160.9628038663
 20
31.3681283566
 11
160.6737418074
 21
31.3681283566
 72
1
 10
160.6737418074
 20
31.3681283566
 11
160.615929528
 21
31.4326554468
 72
1
 10
160.615929528
 20
31.4326554468
 11
160.5003043074
 21
31.4649197501
 72
1
 10
160.5003043074
 20
31.4649197501
 11
160.1534293074
 21
31.4971825369
 72
1
 10
160.1534293074
 20
31.4971825369
 11
159.8065543074
 21
31.4971825369
 72
1
 10
159.8065543074
 20
31.4971825369
 11
159.1128043074
 21
31.4326554468
 72
1
 10
159.1128043074
 20
31.4326554468
 11
159.228429528
 21
31.5294468402
 72
1
 10
159.228429528
 20
31.5294468402
 11
160.5003043074
 21
31.5939739304
 72
1
 10
160.5003043074
 20
31.5939739304
 11
160.6737418074
 21
31.5617111435
 97
1
330
300
 75
0
 76
1
 98
1
 10
0.0
 20
0.0
  0
LWPOLYLINE
  5
302
100
AcDbEntity
  8
0
100
AcDbPolyline
 62
7
  6
CONTINUOUS
 90
7
 70
0
 10
150.2674918074
 20
31.4649197501
 10
150.1518667936
 20
31.4326554468
 10
149.6315543091
 20
31.3036012664
 10
149.7471793074
 20
31.4326554468
 10
149.8628043005
 20
31.4971825369
 10
150.498741835
 20
31.4971825369
 10
150.2674918074
 20
31.4649197501
  0
HATCH
  5
303
100
AcDbEntity
  8
0
100
AcDbHatch
 62
7
  6
CONTINUOUS
 10
0.0
 20
0.0
 30
0.0
210
0.0
220
0.0
230
1.0
  2
SOLID
 70
1
 71
1
 91
1
 92
1
 93
6
 72
1
 10
150.2674918074
 20
31.4649197501
 11
150.1518667936
 21
31.4326554468
 72
1
 10
150.1518667936
 20
31.4326554468
 11
149.6315543091
 21
31.3036012664
 72
1
 10
149.6315543091
 20
31.3036012664
 11
149.7471793074
 21
31.4326554468
 72
1
 10
149.7471793074
 20
31.4326554468
 11
149.8628043005
 21
31.4971825369
 72
1
 10
149.8628043005
 20
31.4971825369
 11
150.498741835
 21
31.4971825369
 72
1
 10
150.498741835
 20
31.4971825369
 11
150.2674918074
 21
31.4649197501
 97
1
330
302
 75
0
 76
1
 98
1
 10
0.0
 20
0.0
  0
LWPOLYLINE
  5
304
100
AcDbEntity
  8
0
100
AcDbPolyline
 62
7
  6
CONTINUOUS
 90
7
 70
0
 10
154.4299918074
 20
31.4649197501
 10
154.3143669177
 20
31.4326554468
 10
154.2565543074
 20
31.3681283566
 10
153.9674919177
 20
31.3681283566
 10
153.9674919177
 20
31.4326554468
 10
154.6612419177
 20
31.4971825369
 10
154.4299918074
 20
31.4649197501
  0
HATCH
  5
305
100
AcDbEntity
  8
0
100
AcDbHatch
 62
7
  6
CONTINUOUS
 10
0.0
 20
0.0
 30
0.0
210
0.0
220
0.0
230
1.0
  2
SOLID
 70
1
 71
1
 91
1
 92
1
 93
6
 72
1
 10
154.4299918074
 20
31.4649197501
 11
154.3143669177
 21
31.4326554468
 72
1
 10
154.3143669177
 20
31.4326554468
 11
154.2565543074
 21
31.3681283566
 72
1
 10
154.2565543074
 20
31.3681283566
 11
153.9674919177
 21
31.3681283566
 72
1
 10
153.9674919177
 20
31.3681283566
 11
153.9674919177
 21
31.4326554468
 72
1
 10
153.9674919177
 20
31.4326554468
 11
154.6612419177
 21
31.4971825369
 72
1
 10
154.6612419177
 20
31.4971825369
 11
154.4299918074
 21
31.4649197501
 97
1
330
304
 75
0
 76
1
 98
1
 10
0.0
 20
0.0
  0
LWPOLYLINE
  5
306
100
AcDbEntity
  8
0
100
AcDbPolyline
 62
7
  6
CONTINUOUS
 90
8
 70
0
 10
159.575304528
 20
31.4649197501
 10
159.4596793074
 20
31.4326554468
 10
159.401867028
 20
31.3681283566
 10
159.228429528
 20
31.2390741763
 10
159.1128043074
 20
31.3681283566
 10
159.1128043074
 20
31.4326554468
 10
159.8065543074
 20
31.4971825369
 10
159.575304528
 20
31.4649197501
  0
HATCH
  5
307
100
AcDbEntity
  8
0
100
AcDbHatch
 62
7
  6
CONTINUOUS
 10
0.0
 20
0.0
 30
0.0
210
0.0
220
0.0
230
1.0
  2
SOLID
 70
1
 71
1
 91
1
 92
1
 93
7
 72
1
 10
159.575304528
 20
31.4649197501
 11
159.4596793074
 21
31.4326554468
 72
1
 10
159.4596793074
 20
31.4326554468
 11
159.401867028
 21
31.3681283566
 72
1
 10
159.401867028
 20
31.3681283566
 11
159.228429528
 21
31.2390741763
 72
1
 10
159.228429528
 20
31.2390741763
 11
159.1128043074
 21
31.3681283566
 72
1
 10
159.1128043074
 20
31.3681283566
 11
159.1128043074
 21
31.4326554468
 72
1
 10
159.1128043074
 20
31.4326554468
 11
159.8065543074
 21
31.4971825369
 72
1
 10
159.8065543074
 20
31.4971825369
 11
159.575304528
 21
31.4649197501
 97
1
330
306
 75
0
 76
1
 98
1
 10
0.0
 20
0.0
  0
LWPOLYLINE
  5
308
100
AcDbEntity
  8
0
100
AcDbPolyline
 62
7
  6
CONTINUOUS
 90
6
 70
0
 10
149.9784292936
 20
31.3358640533
 10
149.9206168074
 20
31.2713369632
 10
149.5737418074
 20
31.1100184796
 10
149.6315543091
 20
31.3036012664
 10
150.1518667936
 20
31.4326554468
 10
149.9784292936
 20
31.3358640533
  0
HATCH
  5
309
100
AcDbEntity
  8
0
100
AcDbHatch
 62
7
  6
CONTINUOUS
 10
0.0
 20
0.0
 30
0.0
210
0.0
220
0.0
230
1.0
  2
SOLID
 70
1
 71
1
 91
1
 92
1
 93
5
 72
1
 10
149.9784292936
 20
31.3358640533
 11
149.9206168074
 21
31.2713369632
 72
1
 10
149.9206168074
 20
31.2713369632
 11
149.5737418074
 21
31.1100184796
 72
1
 10
149.5737418074
 20
31.1100184796
 11
149.6315543091
 21
31.3036012664
 72
1
 10
149.6315543091
 20
31.3036012664
 11
150.1518667936
 21
31.4326554468
 72
1
 10
150.1518667936
 20
31.4326554468
 11
149.9784292936
 21
31.3358640533
 97
1
330
308
 75
0
 76
1
 98
1
 10
0.0
 20
0.0
  0
LWPOLYLINE
  5
30A
100
AcDbEntity
  8
0
100
AcDbPolyline
 62
7
  6
CONTINUOUS
 90
7
 70
0
 10
154.4299918074
 20
31.2390741763
 10
154.7768668074
 20
31.2713369632
 10
155.412804528
 20
31.2713369632
 10
155.412804528
 20
31.1422827828
 10
154.7768668074
 20
31.1422827828
 10
154.1987416972
 20
31.1745462761
 10
154.4299918074
 20
31.2390741763
  0
HATCH
  5
30B
100
AcDbEntity
  8
0
100
AcDbHatch
 62
7
  6
CONTINUOUS
 10
0.0
 20
0.0
 30
0.0
210
0.0
220
0.0
230
1.0
  2
SOLID
 70
1
 71
1
 91
1
 92
1
 93
6
 72
1
 10
154.4299918074
 20
31.2390741763
 11
154.7768668074
 21
31.2713369632
 72
1
 10
154.7768668074
 20
31.2713369632
 11
155.412804528
 21
31.2713369632
 72
1
 10
155.412804528
 20
31.2713369632
 11
155.412804528
 21
31.1422827828
 72
1
 10
155.412804528
 20
31.1422827828
 11
154.7768668074
 21
31.1422827828
 72
1
 10
154.7768668074
 20
31.1422827828
 11
154.1987416972
 21
31.1745462761
 72
1
 10
154.1987416972
 20
31.1745462761
 11
154.4299918074
 21
31.2390741763
 97
1
330
30A
 75
0
 76
1
 98
1
 10
0.0
 20
0.0
  0
LWPOLYLINE
  5
30C
100
AcDbEntity
  8
0
100
AcDbPolyline
 62
7
  6
CONTINUOUS
 90
24
 70
0
 10
159.4596793074
 20
31.3036012664
 10
159.6331168074
 20
31.2390741763
 10
160.615929528
 20
31.0777556927
 10
160.8471793074
 20
30.9809642992
 10
160.9628038663
 20
30.8519086025
 10
160.9628038663
 20
30.7873815123
 10
160.8471793074
 20
30.6905916353
 10
160.615929528
 20
30.6260630287
 10
160.269054528
 20
30.5938002419
 10
159.922179528
 20
30.5938002419
 10
159.575304528
 20
30.6260630287
 10
159.401867028
 20
30.658327332
 10
159.228429528
 20
30.7228544222
 10
159.922179528
 20
30.7228544222
 10
160.269054528
 20
30.7228544222
 10
160.5003043074
 20
30.7551187255
 10
160.615929528
 20
30.7873815123
 10
160.6737418074
 20
30.8519086025
 10
160.615929528
 20
30.9164372091
 10
160.442492028
 20
30.9809642992
 10
159.4596793074
 20
31.1422827828
 10
159.228429528
 20
31.2390741763
 10
159.401867028
 20
31.3681283566
 10
159.4596793074
 20
31.3036012664
  0
HATCH
  5
30D
100
AcDbEntity
  8
0
100
AcDbHatch
 62
7
  6
CONTINUOUS
 10
0.0
 20
0.0
 30
0.0
210
0.0
220
0.0
230
1.0
  2
SOLID
 70
1
 71
1
 91
1
 92
1
 93
23
 72
1
 10
159.4596793074
 20
31.3036012664
 11
159.6331168074
 21
31.2390741763
 72
1
 10
159.6331168074
 20
31.2390741763
 11
160.615929528
 21
31.0777556927
 72
1
 10
160.615929528
 20
31.0777556927
 11
160.8471793074
 21
30.9809642992
 72
1
 10
160.8471793074
 20
30.9809642992
 11
160.9628038663
 21
30.8519086025
 72
1
 10
160.9628038663
 20
30.8519086025
 11
160.9628038663
 21
30.7873815123
 72
1
 10
160.9628038663
 20
30.7873815123
 11
160.8471793074
 21
30.6905916353
 72
1
 10
160.8471793074
 20
30.6905916353
 11
160.615929528
 21
30.6260630287
 72
1
 10
160.615929528
 20
30.6260630287
 11
160.269054528
 21
30.5938002419
 72
1
 10
160.269054528
 20
30.5938002419
 11
159.922179528
 21
30.5938002419
 72
1
 10
159.922179528
 20
30.5938002419
 11
159.575304528
 21
30.6260630287
 72
1
 10
159.575304528
 20
30.6260630287
 11
159.401867028
 21
30.658327332
 72
1
 10
159.401867028
 20
30.658327332
 11
159.228429528
 21
30.7228544222
 72
1
 10
159.228429528
 20
30.7228544222
 11
159.922179528
 21
30.7228544222
 72
1
 10
159.922179528
 20
30.7228544222
 11
160.269054528
 21
30.7228544222
 72
1
 10
160.269054528
 20
30.7228544222
 11
160.5003043074
 21
30.7551187255
 72
1
 10
160.5003043074
 20
30.7551187255
 11
160.615929528
 21
30.7873815123
 72
1
 10
160.615929528
 20
30.7873815123
 11
160.6737418074
 21
30.8519086025
 72
1
 10
160.6737418074
 20
30.8519086025
 11
160.615929528
 21
30.9164372091
 72
1
 10
160.615929528
 20
30.9164372091
 11
160.442492028
 21
30.9809642992
 72
1
 10
160.442492028
 20
30.9809642992
 11
159.4596793074
 21
31.1422827828
 72
1
 10
159.4596793074
 20
31.1422827828
 11
159.228429528
 21
31.2390741763
 72
1
 10
159.228429528
 20
31.2390741763
 11
159.401867028
 21
31.3681283566
 72
1
 10
159.401867028
 20
31.3681283566
 11
159.4596793074
 21
31.3036012664
 97
1
330
30C
 75
0
 76
1
 98
1
 10
0.0
 20
0.0
  0
LWPOLYLINE
  5
30E
100
AcDbEntity
  8
0
100
AcDbPolyline
 62
7
  6
CONTINUOUS
 90
12
 70
0
 10
149.8628043005
 20
31.1422827828
 10
149.8628043005
 20
31.0454914852
 10
149.9784292936
 20
30.8841729058
 10
150.1518667936
 20
30.7873815123
 10
150.498741835
 20
30.7228544222
 10
150.0362418212
 20
30.658327332
 10
149.8628043005
 20
30.7228544222
 10
149.7471793074
 20
30.7873815123
 10
149.6315543091
 20
30.9164372091
 10
149.5737418074
 20
31.1100184796
 10
149.9206168074
 20
31.2713369632
 10
149.8628043005
 20
31.1422827828
  0
HATCH
  5
30F
100
AcDbEntity
  8
0
100
AcDbHatch
 62
7
  6
CONTINUOUS
 10
0.0
 20
0.0
 30
0.0
210
0.0
220
0.0
230
1.0
  2
SOLID
 70
1
 71
1
 91
1
 92
1
 93
11
 72
1
 10
149.8628043005
 20
31.1422827828
 11
149.8628043005
 21
31.0454914852
 72
1
 10
149.8628043005
 20
31.0454914852
 11
149.9784292936
 21
30.8841729058
 72
1
 10
149.9784292936
 20
30.8841729058
 11
150.1518667936
 21
30.7873815123
 72
1
 10
150.1518667936
 20
30.7873815123
 11
150.498741835
 21
30.7228544222
 72
1
 10
150.498741835
 20
30.7228544222
 11
150.0362418212
 21
30.658327332
 72
1
 10
150.0362418212
 20
30.658327332
 11
149.8628043005
 21
30.7228544222
 72
1
 10
149.8628043005
 20
30.7228544222
 11
149.7471793074
 21
30.7873815123
 72
1
 10
149.7471793074
 20
30.7873815123
 11
149.6315543091
 21
30.9164372091
 72
1
 10
149.6315543091
 20
30.9164372091
 11
149.5737418074
 21
31.1100184796
 72
1
 10
149.5737418074
 20
31.1100184796
 11
149.9206168074
 21
31.2713369632
 72
1
 10
149.9206168074
 20
31.2713369632
 11
149.8628043005
 21
31.1422827828
 97
1
330
30E
 75
0
 76
1
 98
1
 10
0.0
 20
0.0
  0
LWPOLYLINE
  5
310
100
AcDbEntity
  8
0
100
AcDbPolyline
 62
7
  6
CONTINUOUS
 90
6
 70
0
 10
154.0831168074
 20
31.1100184796
 10
154.1987416972
 20
31.1745462761
 10
154.7768668074
 20
31.1422827828
 10
154.5456166972
 20
31.1100184796
 10
153.9674919177
 20
30.9809642992
 10
154.0831168074
 20
31.1100184796
  0
HATCH
  5
311
100
AcDbEntity
  8
0
100
AcDbHatch
 62
7
  6
CONTINUOUS
 10
0.0
 20
0.0
 30
0.0
210
0.0
220
0.0
230
1.0
  2
SOLID
 70
1
 71
1
 91
1
 92
1
 93
5
 72
1
 10
154.0831168074
 20
31.1100184796
 11
154.1987416972
 21
31.1745462761
 72
1
 10
154.1987416972
 20
31.1745462761
 11
154.7768668074
 21
31.1422827828
 72
1
 10
154.7768668074
 20
31.1422827828
 11
154.5456166972
 21
31.1100184796
 72
1
 10
154.5456166972
 20
31.1100184796
 11
153.9674919177
 21
30.9809642992
 72
1
 10
153.9674919177
 20
30.9809642992
 11
154.0831168074
 21
31.1100184796
 97
1
330
310
 75
0
 76
1
 98
1
 10
0.0
 20
0.0
  0
LWPOLYLINE
  5
312
100
AcDbEntity
  8
0
100
AcDbPolyline
 62
7
  6
CONTINUOUS
 90
9
 70
0
 10
154.3143669177
 20
31.0132277988
 10
154.2565543074
 20
30.9164372091
 10
154.2565543074
 20
30.8519086025
 10
154.0253041972
 20
30.7551187255
 10
153.9674919177
 20
30.8841729058
 10
153.9674919177
 20
30.9809642992
 10
154.5456166972
 20
31.1100184796
 10
154.4299918074
 20
31.0777556927
 10
154.3143669177
 20
31.0132277988
  0
HATCH
  5
313
100
AcDbEntity
  8
0
100
AcDbHatch
 62
7
  6
CONTINUOUS
 10
0.0
 20
0.0
 30
0.0
210
0.0
220
0.0
230
1.0
  2
SOLID
 70
1
 71
1
 91
1
 92
1
 93
8
 72
1
 10
154.3143669177
 20
31.0132277988
 11
154.2565543074
 21
30.9164372091
 72
1
 10
154.2565543074
 20
30.9164372091
 11
154.2565543074
 21
30.8519086025
 72
1
 10
154.2565543074
 20
30.8519086025
 11
154.0253041972
 21
30.7551187255
 72
1
 10
154.0253041972
 20
30.7551187255
 11
153.9674919177
 21
30.8841729058
 72
1
 10
153.9674919177
 20
30.8841729058
 11
153.9674919177
 21
30.9809642992
 72
1
 10
153.9674919177
 20
30.9809642992
 11
154.5456166972
 21
31.1100184796
 72
1
 10
154.5456166972
 20
31.1100184796
 11
154.4299918074
 21
31.0777556927
 72
1
 10
154.4299918074
 20
31.0777556927
 11
154.3143669177
 21
31.0132277988
 97
1
330
312
 75
0
 76
1
 98
1
 10
0.0
 20
0.0
  0
LWPOLYLINE
  5
314
100
AcDbEntity
  8
0
100
AcDbPolyline
 62
7
  6
CONTINUOUS
 90
10
 70
0
 10
155.3549915869
 20
30.8841729058
 10
155.412804528
 20
30.9487004259
 10
155.7018665869
 20
30.8519086025
 10
155.759679528
 20
30.6905916353
 10
155.8174918074
 20
30.5938002419
 10
155.5284290869
 20
30.5938002419
 10
155.4706168074
 20
30.658327332
 10
155.412804528
 20
30.7551187255
 10
155.1815540869
 20
30.7873815123
 10
155.3549915869
 20
30.8841729058
  0
HATCH
  5
315
100
AcDbEntity
  8
0
100
AcDbHatch
 62
7
  6
CONTINUOUS
 10
0.0
 20
0.0
 30
0.0
210
0.0
220
0.0
230
1.0
  2
SOLID
 70
1
 71
1
 91
1
 92
1
 93
9
 72
1
 10
155.3549915869
 20
30.8841729058
 11
155.412804528
 21
30.9487004259
 72
1
 10
155.412804528
 20
30.9487004259
 11
155.7018665869
 21
30.8519086025
 72
1
 10
155.7018665869
 20
30.8519086025
 11
155.759679528
 21
30.6905916353
 72
1
 10
155.759679528
 20
30.6905916353
 11
155.8174918074
 21
30.5938002419
 72
1
 10
155.8174918074
 20
30.5938002419
 11
155.5284290869
 21
30.5938002419
 72
1
 10
155.5284290869
 20
30.5938002419
 11
155.4706168074
 21
30.658327332
 72
1
 10
155.4706168074
 20
30.658327332
 11
155.412804528
 21
30.7551187255
 72
1
 10
155.412804528
 20
30.7551187255
 11
155.1815540869
 21
30.7873815123
 72
1
 10
155.1815540869
 20
30.7873815123
 11
155.3549915869
 21
30.8841729058
 97
1
330
314
 75
0
 76
1
 98
1
 10
0.0
 20
0.0
  0
LWPOLYLINE
  5
316
100
AcDbEntity
  8
0
100
AcDbPolyline
 62
7
  6
CONTINUOUS
 90
12
 70
0
 10
151.0768668626
 20
30.8196456577
 10
151.1346793074
 20
30.9164372091
 10
151.4237418626
 20
30.9164372091
 10
151.3659292523
 20
30.7873815123
 10
151.1924917523
 20
30.6905916353
 10
150.9612418074
 20
30.6260630287
 10
150.5565542799
 20
30.5938002419
 10
150.2096793212
 20
30.6260630287
 10
150.0362418212
 20
30.658327332
 10
150.498741835
 20
30.7228544222
 10
150.9034292799
 20
30.7551187255
 10
151.0768668626
 20
30.8196456577
  0
HATCH
  5
317
100
AcDbEntity
  8
0
100
AcDbHatch
 62
7
  6
CONTINUOUS
 10
0.0
 20
0.0
 30
0.0
210
0.0
220
0.0
230
1.0
  2
SOLID
 70
1
 71
1
 91
1
 92
1
 93
11
 72
1
 10
151.0768668626
 20
30.8196456577
 11
151.1346793074
 21
30.9164372091
 72
1
 10
151.1346793074
 20
30.9164372091
 11
151.4237418626
 21
30.9164372091
 72
1
 10
151.4237418626
 20
30.9164372091
 11
151.3659292523
 21
30.7873815123
 72
1
 10
151.3659292523
 20
30.7873815123
 11
151.1924917523
 21
30.6905916353
 72
1
 10
151.1924917523
 20
30.6905916353
 11
150.9612418074
 21
30.6260630287
 72
1
 10
150.9612418074
 20
30.6260630287
 11
150.5565542799
 21
30.5938002419
 72
1
 10
150.5565542799
 20
30.5938002419
 11
150.2096793212
 21
30.6260630287
 72
1
 10
150.2096793212
 20
30.6260630287
 11
150.0362418212
 21
30.658327332
 72
1
 10
150.0362418212
 20
30.658327332
 11
150.498741835
 21
30.7228544222
 72
1
 10
150.498741835
 20
30.7228544222
 11
150.9034292799
 21
30.7551187255
 72
1
 10
150.9034292799
 20
30.7551187255
 11
151.0768668626
 21
30.8196456577
 97
1
330
316
 75
0
 76
1
 98
1
 10
0.0
 20
0.0
  0
LWPOLYLINE
  5
318
100
AcDbEntity
  8
0
100
AcDbPolyline
 62
7
  6
CONTINUOUS
 90
6
 70
0
 10
154.3143669177
 20
30.7873815123
 10
154.5456166972
 20
30.7228544222
 10
154.1987416972
 20
30.658327332
 10
154.0253041972
 20
30.7551187255
 10
154.2565543074
 20
30.8519086025
 10
154.3143669177
 20
30.7873815123
  0
HATCH
  5
319
100
AcDbEntity
  8
0
100
AcDbHatch
 62
7
  6
CONTINUOUS
 10
0.0
 20
0.0
 30
0.0
210
0.0
220
0.0
230
1.0
  2
SOLID
 70
1
 71
1
 91
1
 92
1
 93
5
 72
1
 10
154.3143669177
 20
30.7873815123
 11
154.5456166972
 21
30.7228544222
 72
1
 10
154.5456166972
 20
30.7228544222
 11
154.1987416972
 21
30.658327332
 72
1
 10
154.1987416972
 20
30.658327332
 11
154.0253041972
 21
30.7551187255
 72
1
 10
154.0253041972
 20
30.7551187255
 11
154.2565543074
 21
30.8519086025
 72
1
 10
154.2565543074
 20
30.8519086025
 11
154.3143669177
 21
30.7873815123
 97
1
330
318
 75
0
 76
1
 98
1
 10
0.0
 20
0.0
  0
LWPOLYLINE
  5
31A
100
AcDbEntity
  8
0
100
AcDbPolyline
 62
7
  6
CONTINUOUS
 90
11
 70
0
 10
154.8924916972
 20
30.7228544222
 10
155.1815540869
 20
30.7873815123
 10
155.412804528
 20
30.7551187255
 10
155.3549915869
 20
30.6905916353
 10
155.1815540869
 20
30.6260630287
 10
154.8924916972
 20
30.5938002419
 10
154.5456166972
 20
30.5938002419
 10
154.3143669177
 20
30.6260630287
 10
154.1987416972
 20
30.658327332
 10
154.5456166972
 20
30.7228544222
 10
154.8924916972
 20
30.7228544222
  0
HATCH
  5
31B
100
AcDbEntity
  8
0
100
AcDbHatch
 62
7
  6
CONTINUOUS
 10
0.0
 20
0.0
 30
0.0
210
0.0
220
0.0
230
1.0
  2
SOLID
 70
1
 71
1
 91
1
 92
1
 93
10
 72
1
 10
154.8924916972
 20
30.7228544222
 11
155.1815540869
 21
30.7873815123
 72
1
 10
155.1815540869
 20
30.7873815123
 11
155.412804528
 21
30.7551187255
 72
1
 10
155.412804528
 20
30.7551187255
 11
155.3549915869
 21
30.6905916353
 72
1
 10
155.3549915869
 20
30.6905916353
 11
155.1815540869
 21
30.6260630287
 72
1
 10
155.1815540869
 20
30.6260630287
 11
154.8924916972
 21
30.5938002419
 72
1
 10
154.8924916972
 20
30.5938002419
 11
154.5456166972
 21
30.5938002419
 72
1
 10
154.5456166972
 20
30.5938002419
 11
154.3143669177
 21
30.6260630287
 72
1
 10
154.3143669177
 20
30.6260630287
 11
154.1987416972
 21
30.658327332
 72
1
 10
154.1987416972
 20
30.658327332
 11
154.5456166972
 21
30.7228544222
 72
1
 10
154.5456166972
 20
30.7228544222
 11
154.8924916972
 21
30.7228544222
 97
1
330
31A
 75
0
 76
1
 98
1
 10
0.0
 20
0.0
  0
LWPOLYLINE
  5
31C
100
AcDbEntity
  8
0
100
AcDbPolyline
 62
7
  6
CONTINUOUS
 90
7
 70
0
 10
159.575304528
 20
30.7551187255
 10
159.922179528
 20
30.7228544222
 10
159.228429528
 20
30.7228544222
 10
159.1128043074
 20
30.8519086025
 10
159.401867028
 20
30.8519086025
 10
159.4596793074
 20
30.7873815123
 10
159.575304528
 20
30.7551187255
  0
HATCH
  5
31D
100
AcDbEntity
  8
0
100
AcDbHatch
 62
7
  6
CONTINUOUS
 10
0.0
 20
0.0
 30
0.0
210
0.0
220
0.0
230
1.0
  2
SOLID
 70
1
 71
1
 91
1
 92
1
 93
6
 72
1
 10
159.575304528
 20
30.7551187255
 11
159.922179528
 21
30.7228544222
 72
1
 10
159.922179528
 20
30.7228544222
 11
159.228429528
 21
30.7228544222
 72
1
 10
159.228429528
 20
30.7228544222
 11
159.1128043074
 21
30.8519086025
 72
1
 10
159.1128043074
 20
30.8519086025
 11
159.401867028
 21
30.8519086025
 72
1
 10
159.401867028
 20
30.8519086025
 11
159.4596793074
 21
30.7873815123
 72
1
 10
159.4596793074
 20
30.7873815123
 11
159.575304528
 21
30.7551187255
 97
1
330
31C
 75
0
 76
1
 98
1
 10
0.0
 20
0.0
  0
SOLID
  5
31E
100
AcDbEntity
  8
0
100
AcDbTrace
 62
7
  6
CONTINUOUS
 10
156.279992028
 20
30.5938002419
 11
156.279992028
 21
31.6262382337
 12
156.5690540869
 22
30.5938002419
 13
156.5690540869
 23
31.6262382337
  0
ENDBLK
  5
31F
100
AcDbEntity
  8
0
  6
BYBLOCK
 62
0
100
AcDbBlockEnd
  0
BLOCK
  5
320
100
AcDbEntity
  8
0
100
AcDbBlockBegin
 62
2
  6
CONTINUOUS
  2
AMMEAAL_LOGO_BL0
 70
64
 10
32.1213064866
 20
19.8534310916
  3
AMMEAAL_LOGO_BL0
  1

  0
TEXT
  5
321
100
AcDbEntity
  8
0
100
AcDbText
 62
7
  6
CONTINUOUS
 10
18.3860103289
 20
19.2268451992
  7
TEXTSTYLE_3
 40
2.7338706658
  1
Ammeraal Beltech
 41
1.0
 51
15.0
 72
0
100
AcDbText
  0
TEXT
  5
322
100
AcDbEntity
  8
0
100
AcDbText
 62
7
  6
CONTINUOUS
 10
29.1868111546
 20
16.9533085264
  7
TEXTSTYLE_4
 40
1.0935482663
  1
Innovation & Service in Belting
 41
1.0
 72
0
100
AcDbText
  0
LINE
  5
323
100
AcDbEntity
  8
0
100
AcDbLine
 62
7
  6
CONTINUOUS
 10
12.3614696776
 20
19.9934385078
 11
13.1396216709
 21
23.6543558055
  0
LINE
  5
324
100
AcDbEntity
  8
0
100
AcDbLine
 62
7
  6
CONTINUOUS
 10
23.2347899607
 20
27.3177497171
 11
13.6274394139
 21
24.1961322958
  0
LINE
  5
325
100
AcDbEntity
  8
0
100
AcDbLine
 62
7
  6
CONTINUOUS
 10
12.5867530099
 20
19.3000877048
 11
20.093828271
 21
12.5406867788
  0
LINE
  5
326
100
AcDbEntity
  8
0
100
AcDbLine
 62
7
  6
CONTINUOUS
 10
12.8492874206
 20
20.5352149982
 11
23.6575567857
 21
24.0470345971
  0
LINE
  5
327
100
AcDbEntity
  8
0
100
AcDbLine
 62
7
  6
CONTINUOUS
 10
23.6533516486
 20
13.6972460334
 11
15.2078919798
 21
21.3015720751
  0
LINE
  5
328
100
AcDbEntity
  8
0
100
AcDbLine
 62
7
  6
CONTINUOUS
 10
24.1731743684
 20
26.4728246013
 11
23.1966148312
 21
21.8784731989
  0
LINE
  5
329
100
AcDbEntity
  8
0
100
AcDbLine
 62
7
  6
CONTINUOUS
 10
22.4968128835
 20
18.5861638851
 11
21.810364672
 21
15.3566789607
  0
LINE
  5
32A
100
AcDbEntity
  8
0
100
AcDbLine
 62
7
  6
CONTINUOUS
 10
24.8542704669
 20
14.087448211
 11
25.8105020025
 21
18.5861638851
  0
LINE
  5
32B
100
AcDbEntity
  8
0
100
AcDbLine
 62
7
  6
CONTINUOUS
 10
26.5103039502
 20
21.8784731989
 11
26.9545457526
 21
23.9684665583
  0
LINE
  5
32C
100
AcDbEntity
  8
0
100
AcDbLine
 62
7
  6
CONTINUOUS
 10
20.8069293463
 20
12.3891124661
 11
24.3664527239
 21
13.5456717207
  0
LINE
  5
32D
100
AcDbEntity
  8
0
100
AcDbLine
 62
7
  6
CONTINUOUS
 10
23.9478910361
 20
27.1661754044
 11
26.7292624203
 21
24.6618173613
  0
ARC
  5
32E
100
AcDbEntity
  8
0
100
AcDbCircle
 62
7
  6
CONTINUOUS
 10
13.8527227462
 20
23.5027814928
 40
0.7290321776
100
AcDbArc
 50
108.0
 51
168.0
  0
ARC
  5
32F
100
AcDbEntity
  8
0
100
AcDbCircle
 62
7
  6
CONTINUOUS
 10
23.4600732931
 20
26.624398914
 40
0.7290321776
100
AcDbArc
 50
348.0
 51
108.0
  0
ARC
  5
330
100
AcDbEntity
  8
0
100
AcDbCircle
 62
7
  6
CONTINUOUS
 10
26.2414446773
 20
24.120040871
 40
0.7290321776
100
AcDbArc
 50
348.0
 51
48.0
  0
ARC
  5
331
100
AcDbEntity
  8
0
100
AcDbCircle
 62
7
  6
CONTINUOUS
 10
20.581646014
 20
13.0824632691
 40
0.7290321776
100
AcDbArc
 50
228.0
 51
288.0
  0
ARC
  5
332
100
AcDbEntity
  8
0
100
AcDbCircle
 62
7
  6
CONTINUOUS
 10
13.0745707529
 20
19.8418641951
 40
0.7290321776
100
AcDbArc
 50
108.0
 51
228.0
  0
ARC
  5
333
100
AcDbEntity
  8
0
100
AcDbCircle
 62
7
  6
CONTINUOUS
 10
24.1411693916
 20
14.2390225237
 40
0.7290321776
100
AcDbArc
 50
228.0
 51
348.0
  0
ENDBLK
  5
334
100
AcDbEntity
  8
0
  6
BYBLOCK
 62
0
100
AcDbBlockEnd
  0
BLOCK
  5
335
100
AcDbEntity
  8
0
100
AcDbBlockBegin
  2
*T1
 70
1
 10
0.0
 20
0.0
  3
*T1
  1

  0
LINE
  5
336
100
AcDbEntity
  8
0
100
AcDbLine
 62
2
  6
CONTINUOUS
 10
0.0
 20
0.0
 11
190.0
 21
0.0
  0
LINE
  5
337
100
AcDbEntity
  8
0
100
AcDbLine
 62
2
  6
CONTINUOUS
 10
0.0
 20
0.0
 11
0.0
 21
-20.0
  0
LINE
  5
338
100
AcDbEntity
  8
0
100
AcDbLine
 62
2
  6
CONTINUOUS
 10
0.0
 20
-20.0
 11
190.0
 21
-20.0
  0
LINE
  5
339
100
AcDbEntity
  8
0
100
AcDbLine
 62
2
  6
CONTINUOUS
 10
85.0
 20
0.0
 11
85.0
 21
-20.0
  0
LINE
  5
33A
100
AcDbEntity
  8
0
100
AcDbLine
 62
2
  6
CONTINUOUS
 10
105.0
 20
0.0
 11
105.0
 21
-20.0
  0
LINE
  5
33B
100
AcDbEntity
  8
0
100
AcDbLine
 62
2
  6
CONTINUOUS
 10
190.0
 20
0.0
 11
190.0
 21
-20.0
  0
MTEXT
  5
33C
100
AcDbEntity
  8
0
100
AcDbMText
 62
5
  6
CONTINUOUS
  7
TEXTSTYLE_5
 71
1
 72
1
 10
3.0
 20
-5.177
 30
0.0
 11
1.0
 21
0.0
 31
0.0
 44
1.08
  3
                                                                     Ammeraal Beltech Modular A/S\P\H1.5;                                                                      Hjulmagervej 21,  7100 Vejle,  DK\P\H1.495;                                
  1
                                      tel: \H1.51;+45 75723100     fax: +45 75723348\P\H1.5;                                                                      admin@unichains.dk  www.unichains.com
 40
1.52
 41
161.0496183206
  0
MTEXT
  5
33D
100
AcDbEntity
  8
0
100
AcDbMText
 62
5
  6
CONTINUOUS
  7
TEXTSTYLE_6
 71
2
 72
1
 10
95.0
 20
-11.25
 30
0.0
 11
1.0
 21
0.0
 31
0.0
 44
0.9
  1
1:1
 40
5.0
 41
21.0
  0
MTEXT
  5
33E
100
AcDbEntity
  8
0
100
AcDbMText
 62
5
  6
CONTINUOUS
  7
TEXTSTYLE_7
 71
1
 72
1
 10
108.0
 20
-8.75
 30
0.0
 11
1.0
 21
0.0
 31
0.0
 44
0.9
  1
uni 1701 TAB-R
 40
7.5
 41
129.75
  0
ENDBLK
  5
33F
100
AcDbEntity
  8
0
  6
BYBLOCK
 62
0
100
AcDbBlockEnd
  0
ENDSEC
  0
SECTION
  2
ENTITIES
  0
MTEXT
  5
340
100
AcDbEntity
  8
0
100
AcDbMText
 62
5
  6
CONTINUOUS
  7
TEXTSTYLE_2
 71
1
 72
1
 10
96.0
 20
28.436
 30
0.0
 11
1.0
 21
0.0
 31
0.0
 44
0.9
  1
\Q0.000019;Scale :
 40
2.8
 41
11.76
  0
MTEXT
  5
341
100
AcDbEntity
  8
0
100
AcDbMText
 62
5
  6
CONTINUOUS
  7
TEXTSTYLE_2
 71
1
 72
1
 10
116.0
 20
28.436
 30
0.0
 11
1.0
 21
0.0
 31
0.0
 44
0.9
  1
\Q0.000019;Belt type:
 40
2.8
 41
16.8
  0
INSERT
  5
342
100
AcDbEntity
  8
0
100
AcDbBlockReference
 62
2
  6
CONTINUOUS
  2
AMMEAAL_LOGO_BL0
 10
32.1213064866
 20
19.8534310916
  0
INSERT
  5
343
100
AcDbEntity
  8
0
100
AcDbBlockReference
 62
2
  6
CONTINUOUS
  2
UNI_LOGO2_BL1
 10
173.5956734183
 20
35.5937998301
  0
ACAD_TABLE
  5
344
100
AcDbEntity
  8
0
 62
2
  6
CONTINUOUS
100
AcDbBlockReference
  2
*T1
 10
10.0
 20
30.0
 30
0.0
100
AcDbTable
342
       6FA
343
213
 11
1.0
 21
0.0
 31
0.0
 90
22
 91
1
 92
3
 93
0
 94
0
 95
0
 96
0
141
20.0
142
85.0
142
20.0
142
85.0
171
1
172
0
173
0
174
0
175
1
176
1
 91
57
178
0
145
0.0
  7
TEXTSTYLE_5
301
CELL_VALUE
 90
4
  2
                                                                     Ammeraal Beltech Modular A/S\P\H1.5;                                                                      Hjulmagervej 21,  7100 Vejle,  DK\P\H1.495;                                
  1
                                      tel: \H1.51;+45 75723100     fax: +45 75723348\P\H1.5;                                                                      admin@unichains.dk  www.unichains.com
304
ACVALUE_END
170
4
140
1.52
 64
5
171
1
172
0
173
0
174
0
175
1
176
1
 91
57
178
0
145
0.0
  7
TEXTSTYLE_6
301
CELL_VALUE
 90
4
  1
1:1
304
ACVALUE_END
170
8
140
5.0
 64
5
171
1
172
0
173
0
174
0
175
1
176
1
 91
57
178
0
145
0.0
  7
TEXTSTYLE_7
301
CELL_VALUE
 90
4
  1
uni 1701 TAB-R
304
ACVALUE_END
170
7
140
7.5
 64
5
  0
LINE
  5
345
100
AcDbEntity
  8
0
100
AcDbLine
 62
7
  6
CONTINUOUS
 10
210.0
 20
0.0
 11
0.0
 21
0.0
  0
LINE
  5
346
100
AcDbEntity
  8
0
100
AcDbLine
 62
7
  6
CONTINUOUS
 10
10.0
 20
10.0
 11
200.0
 21
10.0
  0
LINE
  5
347
100
AcDbEntity
  8
0
100
AcDbLine
 62
7
  6
CONTINUOUS
 10
10.0
 20
30.0
 11
200.0
 21
30.0
  0
LINE
  5
348
100
AcDbEntity
  8
0
100
AcDbLine
 62
7
  6
CONTINUOUS
 10
0.0
 20
0.0
 11
0.0
 21
297.0
  0
LINE
  5
349
100
AcDbEntity
  8
0
100
AcDbLine
 62
7
  6
CONTINUOUS
 10
10.0
 20
10.0
 11
10.0
 21
287.0
  0
LINE
  5
34A
100
AcDbEntity
  8
0
100
AcDbLine
 62
7
  6
CONTINUOUS
 10
200.0
 20
287.0
 11
200.0
 21
10.0
  0
LINE
  5
34B
100
AcDbEntity
  8
0
100
AcDbLine
 62
7
  6
CONTINUOUS
 10
210.0
 20
0.0
 11
210.0
 21
297.0
  0
LINE
  5
34C
100
AcDbEntity
  8
0
100
AcDbLine
 62
7
  6
CONTINUOUS
 10
10.0
 20
287.0
 11
200.0
 21
287.0
  0
LINE
  5
34D
100
AcDbEntity
  8
0
100
AcDbLine
 62
7
  6
CONTINUOUS
 10
0.0
 20
297.0
 11
210.0
 21
297.0
  0
LINE
  5
34E
100
AcDbEntity
  8
2_FEATURE
100
AcDbLine
 62
7
  6
CONTINUOUS
 10
28.7768917346
 20
151.8437569884
 11
28.7768917346
 21
158.2170056425
  0
LINE
  5
34F
100
AcDbEntity
  8
2_FEATURE
100
AcDbLine
 62
7
  6
CONTINUOUS
 10
35.9268917346
 20
151.2994784475
 11
35.9268917346
 21
172.4029532328
  0
LINE
  5
350
100
AcDbEntity
  8
DEFAULT_1
100
AcDbLine
 62
2
  6
CENTER
 10
26.7768917346
 20
111.3220056425
 11
97.4768917346
 21
111.3220056425
  0
LINE
  5
351
100
AcDbEntity
  8
2_FEATURE
100
AcDbLine
 62
7
  6
CONTINUOUS
 10
43.8268917346
 20
157.913535421
 11
43.8268917346
 21
166.7170056425
  0
LINE
  5
352
100
AcDbEntity
  8
2_FEATURE
100
AcDbLine
 62
7
  6
CONTINUOUS
 10
36.3277603157
 20
149.8013046072
 11
47.8672410095
 21
129.814339266
  0
LINE
  5
353
100
AcDbEntity
  8
2_FEATURE
100
AcDbLine
 62
7
  6
CONTINUOUS
 10
37.2268917346
 20
150.8439648204
 11
48.9391691036
 21
130.5577053449
  0
LINE
  5
354
100
AcDbEntity
  8
2_FEATURE
100
AcDbLine
 62
7
  6
CONTINUOUS
 10
40.5327142189
 20
142.1697783666
 11
31.2768917346
 21
147.5136299695
  0
LINE
  5
355
100
AcDbEntity
  8
2_FEATURE
100
AcDbLine
 62
7
  6
CONTINUOUS
 10
46.9714471683
 20
152.4670056425
 11
43.8268917346
 21
157.913535421
  0
LINE
  5
356
100
AcDbEntity
  8
DEFAULT_1
100
AcDbLine
 62
2
  6
CENTER
 10
62.1268917346
 20
91.207244642
 11
62.1268917346
 21
175.7170056425
  0
LINE
  5
357
100
AcDbEntity
  8
DEFAULT_1
100
AcDbLine
 62
2
  6
CENTER
 10
53.6887711961
 20
133.4670056425
 11
53.4530130566
 21
133.4670056425
  0
LINE
  5
358
100
AcDbEntity
  8
DEFAULT_1
100
AcDbLine
 62
2
  6
CENTER
 10
53.9245293356
 20
133.4670056425
 11
72.0779060798
 21
133.4670056425
  0
LINE
  5
359
100
AcDbEntity
  8
0
100
AcDbLine
 62
7
  6
CONTINUOUS
 10
77.2823363008
 20
152.4670056425
 11
80.4268917346
 21
157.913535421
  0
LINE
  5
35A
100
AcDbEntity
  8
0
100
AcDbLine
 62
7
  6
CONTINUOUS
 10
92.9768917346
 20
147.5136299695
 11
83.7210692503
 21
142.1697783666
  0
LINE
  5
35B
100
AcDbEntity
  8
0
100
AcDbLine
 62
7
  6
CONTINUOUS
 10
87.0268917346
 20
150.8439648204
 11
75.3146143656
 21
130.5577053449
  0
LINE
  5
35C
100
AcDbEntity
  8
0
100
AcDbLine
 62
7
  6
CONTINUOUS
 10
76.3865425063
 20
129.8143393467
 11
87.9260231534
 21
149.8013046072
  0
LINE
  5
35D
100
AcDbEntity
  8
0
100
AcDbLine
 62
7
  6
CONTINUOUS
 10
80.4268917346
 20
157.913535421
 11
80.4268917346
 21
166.7170056425
  0
LINE
  5
35E
100
AcDbEntity
  8
0
100
AcDbLine
 62
7
  6
CONTINUOUS
 10
88.3268917346
 20
151.2994784475
 11
88.3268917346
 21
172.4029532326
  0
LINE
  5
35F
100
AcDbEntity
  8
0
100
AcDbLine
 62
7
  6
CONTINUOUS
 10
93.4768917346
 20
160.2170056425
 11
89.6268917346
 21
160.2170056425
  0
LINE
  5
360
100
AcDbEntity
  8
2_FEATURE
100
AcDbLine
 62
7
  6
CONTINUOUS
 10
30.7768917346
 20
160.2170056425
 11
34.6268917346
 21
160.2170056425
  0
LINE
  5
361
100
AcDbEntity
  8
1_AXIS
100
AcDbLine
 62
2
  6
CENTER
 10
27.3933876927
 20
161.2170056425
 11
98.0579607159
 21
161.2170056425
  0
LINE
  5
362
100
AcDbEntity
  8
0
100
AcDbLine
 62
7
  6
CONTINUOUS
 10
95.4768917346
 20
151.8437569884
 11
95.4768917346
 21
158.2170056425
  0
LINE
  5
363
100
AcDbEntity
  8
2_FEATURE
100
AcDbLine
 62
7
  6
CONTINUOUS
 10
160.6796332221
 20
93.2170056425
 11
161.3436498907
 21
93.2170056425
  0
LINE
  5
364
100
AcDbEntity
  8
DEFAULT_1
100
AcDbLine
 62
2
  6
CENTER
 10
177.9340474752
 20
111.3220056425
 11
163.0117414537
 21
111.3220056425
  0
LINE
  5
365
100
AcDbEntity
  8
0
100
AcDbLine
 62
2
  6
CONTINUOUS
 10
161.8916414537
 20
111.3220056425
 11
160.1316414537
 21
111.3220056425
  0
LINE
  5
366
100
AcDbEntity
  8
DEFAULT_1
100
AcDbLine
 62
2
  6
CENTER
 10
144.1734818938
 20
111.3220056425
 11
159.0115414537
 21
111.3220056425
  0
LINE
  5
367
100
AcDbEntity
  8
0
100
AcDbLine
 62
7
  6
CONTINUOUS
 10
148.5116414537
 20
99.5963533834
 11
148.5116414537
 21
101.4221835499
  0
LINE
  5
368
100
AcDbEntity
  8
2_FEATURE
100
AcDbLine
 62
7
  6
CONTINUOUS
 10
148.5116414537
 20
99.6005551114
 11
148.5116414537
 21
161.2170056425
  0
LINE
  5
369
100
AcDbEntity
  8
0
100
AcDbLine
 62
7
  6
CONTINUOUS
 10
158.9313906468
 20
141.5860916165
 11
158.867560856
 21
141.4870399669
  0
LINE
  5
36A
100
AcDbEntity
  8
0
100
AcDbLine
 62
7
  6
CONTINUOUS
 10
158.9313906468
 20
141.3394108339
 11
159.0271353386
 21
141.4879883172
  0
LINE
  5
36B
100
AcDbEntity
  8
0
100
AcDbLine
 62
7
  6
CONTINUOUS
 10
158.9313906468
 20
141.2394108339
 11
159.0271353386
 21
141.3879883172
  0
LINE
  5
36C
100
AcDbEntity
  8
0
100
AcDbLine
 62
7
  6
CONTINUOUS
 10
159.0590502284
 20
141.6851432706
 11
158.9313906468
 21
141.5860916165
  0
LINE
  5
36D
100
AcDbEntity
  8
0
100
AcDbLine
 62
7
  6
CONTINUOUS
 10
159.0271353386
 20
141.4879883172
 11
159.1867097876
 21
141.5870399669
  0
LINE
  5
36E
100
AcDbEntity
  8
0
100
AcDbLine
 62
7
  6
CONTINUOUS
 10
159.0271353386
 20
141.3879883172
 11
159.1867097876
 21
141.4870399669
  0
LINE
  5
36F
100
AcDbEntity
  8
0
100
AcDbLine
 62
7
  6
CONTINUOUS
 10
159.5377736203
 20
140.4469975304
 11
159.4420289508
 21
140.3974717498
  0
LINE
  5
370
100
AcDbEntity
  8
0
100
AcDbLine
 62
7
  6
CONTINUOUS
 10
159.4420289508
 20
140.2498425637
 11
159.5696885101
 21
140.2993684859
  0
LINE
  5
371
100
AcDbEntity
  8
0
100
AcDbLine
 62
7
  6
CONTINUOUS
 10
159.4420289508
 20
140.1498425637
 11
159.5696885101
 21
140.1993684859
  0
LINE
  5
372
100
AcDbEntity
  8
0
100
AcDbLine
 62
7
  6
CONTINUOUS
 10
159.5058587304
 20
138.664067872
 11
159.3781991712
 21
138.6145419498
  0
LINE
  5
373
100
AcDbEntity
  8
0
100
AcDbLine
 62
7
  6
CONTINUOUS
 10
159.3781991712
 20
138.4669129053
 11
159.5377736203
 21
138.5164385442
  0
LINE
  5
374
100
AcDbEntity
  8
2_FEATURE
100
AcDbLine
 62
7
  6
CONTINUOUS
 10
156.8116414537
 20
117.0515032602
 11
156.8116414537
 21
105.3825080247
  0
LINE
  5
375
100
AcDbEntity
  8
0
100
AcDbLine
 62
7
  6
CONTINUOUS
 10
158.7718161781
 20
141.1898849825
 11
158.7399012855
 21
140.8927300512
  0
LINE
  5
376
100
AcDbEntity
  8
0
100
AcDbLine
 62
7
  6
CONTINUOUS
 10
158.7718161781
 20
137.6735511275
 11
158.7399012855
 21
137.4754480053
  0
LINE
  5
377
100
AcDbEntity
  8
0
100
AcDbLine
 62
7
  6
CONTINUOUS
 10
158.8037310708
 20
141.3384624658
 11
158.7718161781
 21
141.1898849825
  0
LINE
  5
378
100
AcDbEntity
  8
0
100
AcDbLine
 62
7
  6
CONTINUOUS
 10
158.867560856
 20
141.0422558318
 11
158.9313906468
 21
141.3394108339
  0
LINE
  5
379
100
AcDbEntity
  8
0
100
AcDbLine
 62
7
  6
CONTINUOUS
 10
158.867560856
 20
140.9422558318
 11
158.9313906468
 21
141.2394108339
  0
LINE
  5
37A
100
AcDbEntity
  8
0
100
AcDbLine
 62
7
  6
CONTINUOUS
 10
159.6654331795
 20
140.4479459693
 11
159.7292629591
 21
140.6460492332
  0
LINE
  5
37B
100
AcDbEntity
  8
0
100
AcDbLine
 62
7
  6
CONTINUOUS
 10
158.8037310708
 20
137.772602972
 11
158.7718161781
 21
137.6735511275
  0
LINE
  5
37C
100
AcDbEntity
  8
0
100
AcDbLine
 62
7
  6
CONTINUOUS
 10
159.6654331795
 20
140.3479459693
 11
159.7292629591
 21
140.5460492332
  0
LINE
  5
37D
100
AcDbEntity
  8
0
100
AcDbLine
 62
7
  6
CONTINUOUS
 10
158.867560856
 20
137.5754480053
 11
158.9313906468
 21
137.7735511275
  0
LINE
  5
37E
100
AcDbEntity
  8
0
100
AcDbLine
 62
7
  6
CONTINUOUS
 10
158.867560856
 20
137.4754480053
 11
158.9313906468
 21
137.6735511275
  0
LINE
  5
37F
100
AcDbEntity
  8
0
100
AcDbLine
 62
7
  6
CONTINUOUS
 10
159.6016033999
 20
138.8621709942
 11
159.5696885101
 21
138.7631194331
  0
LINE
  5
380
100
AcDbEntity
  8
0
100
AcDbLine
 62
7
  6
CONTINUOUS
 10
158.867560856
 20
141.4870399669
 11
158.8037310708
 21
141.3384624658
  0
LINE
  5
381
100
AcDbEntity
  8
0
100
AcDbLine
 62
7
  6
CONTINUOUS
 10
159.6016033999
 20
140.5955750846
 11
159.5377736203
 21
140.4469975304
  0
LINE
  5
382
100
AcDbEntity
  8
0
100
AcDbLine
 62
7
  6
CONTINUOUS
 10
159.6654331795
 20
138.6650160275
 11
159.7292629591
 21
138.8135935109
  0
LINE
  5
383
100
AcDbEntity
  8
0
100
AcDbLine
 62
7
  6
CONTINUOUS
 10
159.6654331795
 20
138.5650160275
 11
159.7292629591
 21
138.7135935109
  0
LINE
  5
384
100
AcDbEntity
  8
0
100
AcDbLine
 62
7
  6
CONTINUOUS
 10
159.6654331795
 20
136.7335090275
 11
159.7292629591
 21
136.8820865109
  0
LINE
  5
385
100
AcDbEntity
  8
0
100
AcDbLine
 62
7
  6
CONTINUOUS
 10
159.6654331795
 20
136.6335090275
 11
159.7292629591
 21
136.7820865109
  0
LINE
  5
386
100
AcDbEntity
  8
0
100
AcDbLine
 62
7
  6
CONTINUOUS
 10
159.5696885101
 20
140.2993684859
 11
159.6654331795
 21
140.4479459693
  0
LINE
  5
387
100
AcDbEntity
  8
0
100
AcDbLine
 62
7
  6
CONTINUOUS
 10
159.5696885101
 20
140.1993684859
 11
159.6654331795
 21
140.3479459693
  0
LINE
  5
388
100
AcDbEntity
  8
0
100
AcDbLine
 62
7
  6
CONTINUOUS
 10
158.899475757
 20
137.9211804553
 11
158.8037310708
 21
137.772602972
  0
LINE
  5
389
100
AcDbEntity
  8
0
100
AcDbLine
 62
7
  6
CONTINUOUS
 10
159.5696885101
 20
138.7631194331
 11
159.5058587304
 21
138.664067872
  0
LINE
  5
38A
100
AcDbEntity
  8
0
100
AcDbLine
 62
7
  6
CONTINUOUS
 10
159.6016033999
 20
138.5659644664
 11
159.6654331795
 21
138.6650160275
  0
LINE
  5
38B
100
AcDbEntity
  8
0
100
AcDbLine
 62
7
  6
CONTINUOUS
 10
159.6016033999
 20
138.4659644664
 11
159.6654331795
 21
138.5650160275
  0
LINE
  5
38C
100
AcDbEntity
  8
0
100
AcDbLine
 62
7
  6
CONTINUOUS
 10
159.6016033999
 20
136.6344571831
 11
159.6654331795
 21
136.7335090275
  0
LINE
  5
38D
100
AcDbEntity
  8
0
100
AcDbLine
 62
7
  6
CONTINUOUS
 10
159.6016033999
 20
136.5344571831
 11
159.6654331795
 21
136.6335090275
  0
LINE
  5
38E
100
AcDbEntity
  8
0
100
AcDbLine
 62
7
  6
CONTINUOUS
 10
159.5377736203
 20
138.5164385442
 11
159.6016033999
 21
138.5659644664
  0
LINE
  5
38F
100
AcDbEntity
  8
0
100
AcDbLine
 62
7
  6
CONTINUOUS
 10
159.5377736203
 20
138.4164385442
 11
159.6016033999
 21
138.4659644664
  0
LINE
  5
390
100
AcDbEntity
  8
0
100
AcDbLine
 62
7
  6
CONTINUOUS
 10
158.9313906468
 20
137.7735511275
 11
158.9952204264
 21
137.8230770498
  0
LINE
  5
391
100
AcDbEntity
  8
0
100
AcDbLine
 62
7
  6
CONTINUOUS
 10
158.9313906468
 20
137.6735511275
 11
158.9952204264
 21
137.7230770498
  0
LINE
  5
392
100
AcDbEntity
  8
0
100
AcDbLine
 62
7
  6
CONTINUOUS
 10
158.8037310708
 20
136.6830346664
 11
158.7399012855
 21
136.6335090275
  0
LINE
  5
393
100
AcDbEntity
  8
0
100
AcDbLine
 62
7
  6
CONTINUOUS
 10
159.5696885101
 20
136.7820865109
 11
159.5058587304
 21
136.7325603053
  0
LINE
  5
394
100
AcDbEntity
  8
0
100
AcDbLine
 62
7
  6
CONTINUOUS
 10
158.899475757
 20
136.7325603053
 11
158.8037310708
 21
136.6830346664
  0
LINE
  5
395
100
AcDbEntity
  8
0
100
AcDbLine
 62
7
  6
CONTINUOUS
 10
158.7399012855
 20
136.4858796997
 11
158.8356459662
 21
136.5354053386
  0
LINE
  5
396
100
AcDbEntity
  8
0
100
AcDbLine
 62
7
  6
CONTINUOUS
 10
158.7399012855
 20
136.3858796997
 11
158.8356459662
 21
136.4354053386
  0
LINE
  5
397
100
AcDbEntity
  8
0
100
AcDbLine
 62
7
  6
CONTINUOUS
 10
159.5058587304
 20
136.5849315442
 11
159.6016033999
 21
136.6344571831
  0
LINE
  5
398
100
AcDbEntity
  8
0
100
AcDbLine
 62
7
  6
CONTINUOUS
 10
159.5058587304
 20
136.4849315442
 11
159.6016033999
 21
136.5344571831
  0
LINE
  5
399
100
AcDbEntity
  8
0
100
AcDbLine
 62
7
  6
CONTINUOUS
 10
159.0271353386
 20
137.9707060942
 11
158.899475757
 21
137.9211804553
  0
LINE
  5
39A
100
AcDbEntity
  8
0
100
AcDbLine
 62
7
  6
CONTINUOUS
 10
159.3781991712
 20
138.3669129053
 11
159.5377736203
 21
138.4164385442
  0
LINE
  5
39B
100
AcDbEntity
  8
0
100
AcDbLine
 62
7
  6
CONTINUOUS
 10
158.8356459662
 20
136.5354053386
 11
158.9952204264
 21
136.5849315442
  0
LINE
  5
39C
100
AcDbEntity
  8
0
100
AcDbLine
 62
7
  6
CONTINUOUS
 10
158.8356459662
 20
136.4354053386
 11
158.9952204264
 21
136.4849315442
  0
LINE
  5
39D
100
AcDbEntity
  8
0
100
AcDbLine
 62
7
  6
CONTINUOUS
 10
158.8356459662
 20
132.077132683
 11
158.9313906468
 21
131.9780814053
  0
LINE
  5
39E
100
AcDbEntity
  8
0
100
AcDbLine
 62
7
  6
CONTINUOUS
 10
158.8356459662
 20
132.177132683
 11
158.9313906468
 21
132.0780814053
  0
LINE
  5
39F
100
AcDbEntity
  8
0
100
AcDbLine
 62
7
  6
CONTINUOUS
 10
158.7718161781
 20
132.2752358052
 11
158.8356459662
 21
132.077132683
  0
LINE
  5
3A0
100
AcDbEntity
  8
0
100
AcDbLine
 62
7
  6
CONTINUOUS
 10
158.7718161781
 20
132.3752358052
 11
158.8356459662
 21
132.177132683
  0
LINE
  5
3A1
100
AcDbEntity
  8
0
100
AcDbLine
 62
7
  6
CONTINUOUS
 10
158.7399012855
 20
132.5723907718
 11
158.7718161781
 21
132.2752358052
  0
LINE
  5
3A2
100
AcDbEntity
  8
0
100
AcDbLine
 62
7
  6
CONTINUOUS
 10
158.7399012855
 20
132.6723907718
 11
158.7718161781
 21
132.3752358052
  0
LINE
  5
3A3
100
AcDbEntity
  8
0
100
AcDbLine
 62
7
  6
CONTINUOUS
 10
159.7611778489
 20
132.968597583
 11
159.7292629591
 21
133.2657525497
  0
LINE
  5
3A4
100
AcDbEntity
  8
0
100
AcDbLine
 62
7
  6
CONTINUOUS
 10
159.410114061
 20
137.2773445997
 11
159.3781991712
 21
137.5744995664
  0
LINE
  5
3A5
100
AcDbEntity
  8
0
100
AcDbLine
 62
7
  6
CONTINUOUS
 10
159.7611778489
 20
140.8927300512
 11
159.7292629591
 21
141.1898849825
  0
LINE
  5
3A6
100
AcDbEntity
  8
0
100
AcDbLine
 62
7
  6
CONTINUOUS
 10
158.7399012855
 20
140.8927300512
 11
158.7718161781
 21
140.5460492332
  0
LINE
  5
3A7
100
AcDbEntity
  8
0
100
AcDbLine
 62
7
  6
CONTINUOUS
 10
158.7448582785
 20
140.9388838927
 11
158.7718161781
 21
140.6460492332
  0
LINE
  5
3A8
100
AcDbEntity
  8
0
100
AcDbLine
 62
7
  6
CONTINUOUS
 10
158.899475757
 20
140.5955750846
 11
158.867560856
 21
140.9422558318
  0
LINE
  5
3A9
100
AcDbEntity
  8
0
100
AcDbLine
 62
7
  6
CONTINUOUS
 10
159.7611778489
 20
137.3763961608
 11
159.7292629591
 21
137.7230770498
  0
LINE
  5
3AA
100
AcDbEntity
  8
0
100
AcDbLine
 62
7
  6
CONTINUOUS
 10
158.7399012855
 20
147.5890008294
 11
158.7399012855
 21
147.4146397623
  0
LINE
  5
3AB
100
AcDbEntity
  8
0
100
AcDbLine
 62
7
  6
CONTINUOUS
 10
158.7399012855
 20
146.8961805064
 11
158.7399012855
 21
146.3072832318
  0
LINE
  5
3AC
100
AcDbEntity
  8
0
100
AcDbLine
 62
7
  6
CONTINUOUS
 10
158.7399012855
 20
146.1687191672
 11
158.7399012855
 21
145.5798218927
  0
LINE
  5
3AD
100
AcDbEntity
  8
0
100
AcDbLine
 62
7
  6
CONTINUOUS
 10
158.7399012855
 20
144.7830785212
 11
158.7399012855
 21
144.1941812466
  0
LINE
  5
3AE
100
AcDbEntity
  8
0
100
AcDbLine
 62
7
  6
CONTINUOUS
 10
158.7399012855
 20
144.055617182
 11
158.7399012855
 21
143.4667199074
  0
LINE
  5
3AF
100
AcDbEntity
  8
0
100
AcDbLine
 62
7
  6
CONTINUOUS
 10
158.7399012855
 20
139.7536360359
 11
158.7399012855
 21
139.5060068498
  0
LINE
  5
3B0
100
AcDbEntity
  8
0
100
AcDbLine
 62
7
  6
CONTINUOUS
 10
158.7399012855
 20
138.6145419498
 11
158.7399012855
 21
138.3669129053
  0
LINE
  5
3B1
100
AcDbEntity
  8
0
100
AcDbLine
 62
7
  6
CONTINUOUS
 10
158.7399012855
 20
137.4754480053
 11
158.7399012855
 21
137.1782930387
  0
LINE
  5
3B2
100
AcDbEntity
  8
0
100
AcDbLine
 62
7
  6
CONTINUOUS
 10
158.7399012855
 20
136.6335090275
 11
158.7399012855
 21
136.3858796997
  0
LINE
  5
3B3
100
AcDbEntity
  8
0
100
AcDbLine
 62
7
  6
CONTINUOUS
 10
158.7399012855
 20
135.9896728886
 11
158.7399012855
 21
135.7420441275
  0
LINE
  5
3B4
100
AcDbEntity
  8
0
100
AcDbLine
 62
7
  6
CONTINUOUS
 10
158.7399012855
 20
135.3458373164
 11
158.7399012855
 21
135.0982079885
  0
LINE
  5
3B5
100
AcDbEntity
  8
0
100
AcDbLine
 62
7
  6
CONTINUOUS
 10
158.7399012855
 20
134.2067430885
 11
158.7399012855
 21
133.9591143275
  0
LINE
  5
3B6
100
AcDbEntity
  8
0
100
AcDbLine
 62
7
  6
CONTINUOUS
 10
158.7399012855
 20
132.8695457385
 11
158.7399012855
 21
132.5723907718
  0
LINE
  5
3B7
100
AcDbEntity
  8
0
100
AcDbLine
 62
7
  6
CONTINUOUS
 10
158.7718161781
 20
132.2752358052
 11
158.7718161781
 21
132.3752358052
  0
LINE
  5
3B8
100
AcDbEntity
  8
0
100
AcDbLine
 62
7
  6
CONTINUOUS
 10
158.7718161781
 20
136.9306639942
 11
158.7718161781
 21
137.0306639942
  0
LINE
  5
3B9
100
AcDbEntity
  8
0
100
AcDbLine
 62
7
  6
CONTINUOUS
 10
158.7718161781
 20
140.5460492332
 11
158.7718161781
 21
140.6460492332
  0
LINE
  5
3BA
100
AcDbEntity
  8
0
100
AcDbLine
 62
7
  6
CONTINUOUS
 10
158.8356459662
 20
132.077132683
 11
158.8356459662
 21
132.177132683
  0
LINE
  5
3BB
100
AcDbEntity
  8
0
100
AcDbLine
 62
7
  6
CONTINUOUS
 10
158.8356459662
 20
136.4354053386
 11
158.8356459662
 21
136.5354053386
  0
LINE
  5
3BC
100
AcDbEntity
  8
0
100
AcDbLine
 62
7
  6
CONTINUOUS
 10
158.8356459662
 20
136.7820865109
 11
158.8356459662
 21
136.8820865109
  0
LINE
  5
3BD
100
AcDbEntity
  8
0
100
AcDbLine
 62
7
  6
CONTINUOUS
 10
158.8356459662
 20
140.3479459693
 11
158.8356459662
 21
140.4479459693
  0
LINE
  5
3BE
100
AcDbEntity
  8
0
100
AcDbLine
 62
7
  6
CONTINUOUS
 10
158.867560856
 20
132.5723907718
 11
158.867560856
 21
132.9695457385
  0
LINE
  5
3BF
100
AcDbEntity
  8
0
100
AcDbLine
 62
7
  6
CONTINUOUS
 10
158.867560856
 20
137.1782930387
 11
158.867560856
 21
137.5754480053
  0
LINE
  5
3C0
100
AcDbEntity
  8
0
100
AcDbLine
 62
7
  6
CONTINUOUS
 10
158.867560856
 20
140.9422558318
 11
158.867560856
 21
141.0422558318
  0
LINE
  5
3C1
100
AcDbEntity
  8
0
100
AcDbLine
 62
7
  6
CONTINUOUS
 10
158.899475757
 20
133.1667007052
 11
158.899475757
 21
133.2667007052
  0
LINE
  5
3C2
100
AcDbEntity
  8
0
100
AcDbLine
 62
7
  6
CONTINUOUS
 10
158.899475757
 20
136.7325603053
 11
158.899475757
 21
136.8325603053
  0
LINE
  5
3C3
100
AcDbEntity
  8
0
100
AcDbLine
 62
7
  6
CONTINUOUS
 10
158.9313906468
 20
131.9780814053
 11
158.9313906468
 21
132.0780814053
  0
LINE
  5
3C4
100
AcDbEntity
  8
0
100
AcDbLine
 62
7
  6
CONTINUOUS
 10
158.9313906468
 20
133.2657525497
 11
158.9313906468
 21
133.3657525497
  0
LINE
  5
3C5
100
AcDbEntity
  8
0
100
AcDbLine
 62
7
  6
CONTINUOUS
 10
158.9313906468
 20
137.6735511275
 11
158.9313906468
 21
137.7735511275
  0
LINE
  5
3C6
100
AcDbEntity
  8
0
100
AcDbLine
 62
7
  6
CONTINUOUS
 10
158.9313906468
 20
140.1993684859
 11
158.9313906468
 21
140.2993684859
  0
LINE
  5
3C7
100
AcDbEntity
  8
0
100
AcDbLine
 62
7
  6
CONTINUOUS
 10
158.9313906468
 20
141.2394108339
 11
158.9313906468
 21
141.3394108339
  0
LINE
  5
3C8
100
AcDbEntity
  8
0
100
AcDbLine
 62
7
  6
CONTINUOUS
 10
158.9952204264
 20
131.9780814053
 11
158.9952204264
 21
132.0780814053
  0
LINE
  5
3C9
100
AcDbEntity
  8
0
100
AcDbLine
 62
7
  6
CONTINUOUS
 10
158.9952204264
 20
133.3152781885
 11
158.9952204264
 21
133.5629075163
  0
LINE
  5
3CA
100
AcDbEntity
  8
0
100
AcDbLine
 62
7
  6
CONTINUOUS
 10
158.9952204264
 20
136.4849315442
 11
158.9952204264
 21
136.5849315442
  0
LINE
  5
3CB
100
AcDbEntity
  8
0
100
AcDbLine
 62
7
  6
CONTINUOUS
 10
158.9952204264
 20
137.7230770498
 11
158.9952204264
 21
137.8230770498
  0
LINE
  5
3CC
100
AcDbEntity
  8
0
100
AcDbLine
 62
7
  6
CONTINUOUS
 10
159.0271353386
 20
141.3879883172
 11
159.0271353386
 21
141.4879883172
  0
LINE
  5
3CD
100
AcDbEntity
  8
0
100
AcDbLine
 62
7
  6
CONTINUOUS
 10
159.0590502284
 20
137.7230770498
 11
159.0590502284
 21
137.8230770498
  0
LINE
  5
3CE
100
AcDbEntity
  8
0
100
AcDbLine
 62
7
  6
CONTINUOUS
 10
159.0590502284
 20
140.1498425637
 11
159.0590502284
 21
140.3974717498
  0
LINE
  5
3CF
100
AcDbEntity
  8
0
100
AcDbLine
 62
7
  6
CONTINUOUS
 10
159.0599012855
 20
146.8961805064
 11
159.0599012855
 21
146.9961805064
  0
LINE
  5
3D0
100
AcDbEntity
  8
0
100
AcDbLine
 62
7
  6
CONTINUOUS
 10
159.122880008
 20
132.077132683
 11
159.122880008
 21
132.177132683
  0
LINE
  5
3D1
100
AcDbEntity
  8
0
100
AcDbLine
 62
7
  6
CONTINUOUS
 10
159.1547948978
 20
137.6735511275
 11
159.1547948978
 21
137.7735511275
  0
LINE
  5
3D2
100
AcDbEntity
  8
0
100
AcDbLine
 62
7
  6
CONTINUOUS
 10
159.1867097876
 20
141.4870399669
 11
159.1867097876
 21
141.5870399669
  0
LINE
  5
3D3
100
AcDbEntity
  8
0
100
AcDbLine
 62
7
  6
CONTINUOUS
 10
159.2186246774
 20
132.2752358052
 11
159.2186246774
 21
132.3752358052
  0
LINE
  5
3D4
100
AcDbEntity
  8
0
100
AcDbLine
 62
7
  6
CONTINUOUS
 10
159.2186246774
 20
137.5744995664
 11
159.2186246774
 21
137.6744995664
  0
LINE
  5
3D5
100
AcDbEntity
  8
0
100
AcDbLine
 62
7
  6
CONTINUOUS
 10
159.2505395672
 20
137.4754480053
 11
159.2505395672
 21
137.5754480053
  0
LINE
  5
3D6
100
AcDbEntity
  8
0
100
AcDbLine
 62
7
  6
CONTINUOUS
 10
159.2824544571
 20
136.7325603053
 11
159.2824544571
 21
137.3773445997
  0
LINE
  5
3D7
100
AcDbEntity
  8
0
100
AcDbLine
 62
7
  6
CONTINUOUS
 10
159.2824544571
 20
141.4870399669
 11
159.2824544571
 21
141.5870399669
  0
LINE
  5
3D8
100
AcDbEntity
  8
0
100
AcDbLine
 62
7
  6
CONTINUOUS
 10
159.2999012855
 20
147.2425906679
 11
159.2999012855
 21
147.6197187971
  0
LINE
  5
3D9
100
AcDbEntity
  8
0
100
AcDbLine
 62
7
  6
CONTINUOUS
 10
159.3462842814
 20
133.9591143275
 11
159.3462842814
 21
134.0591143275
  0
LINE
  5
3DA
100
AcDbEntity
  8
0
100
AcDbLine
 62
7
  6
CONTINUOUS
 10
159.3781991712
 20
133.1171750663
 11
159.3781991712
 21
133.2171750663
  0
LINE
  5
3DB
100
AcDbEntity
  8
0
100
AcDbLine
 62
7
  6
CONTINUOUS
 10
159.3781991712
 20
138.3669129053
 11
159.3781991712
 21
138.4669129053
  0
LINE
  5
3DC
100
AcDbEntity
  8
0
100
AcDbLine
 62
7
  6
CONTINUOUS
 10
159.410114061
 20
136.7325603053
 11
159.410114061
 21
137.2773445997
  0
LINE
  5
3DD
100
AcDbEntity
  8
0
100
AcDbLine
 62
7
  6
CONTINUOUS
 10
159.410114061
 20
141.4375141332
 11
159.410114061
 21
141.5375141332
  0
LINE
  5
3DE
100
AcDbEntity
  8
0
100
AcDbLine
 62
7
  6
CONTINUOUS
 10
159.4420289508
 20
140.3974717498
 11
159.4420289508
 21
140.1498425637
  0
LINE
  5
3DF
100
AcDbEntity
  8
0
100
AcDbLine
 62
7
  6
CONTINUOUS
 10
159.4420289508
 20
133.2657525497
 11
159.4420289508
 21
133.3657525497
  0
LINE
  5
3E0
100
AcDbEntity
  8
0
100
AcDbLine
 62
7
  6
CONTINUOUS
 10
159.4739438406
 20
135.0982079885
 11
159.4739438406
 21
135.1982079885
  0
LINE
  5
3E1
100
AcDbEntity
  8
0
100
AcDbLine
 62
7
  6
CONTINUOUS
 10
159.4739438406
 20
139.5060068498
 11
159.4739438406
 21
139.6060068498
  0
LINE
  5
3E2
100
AcDbEntity
  8
0
100
AcDbLine
 62
7
  6
CONTINUOUS
 10
159.4739438406
 20
141.3879883172
 11
159.4739438406
 21
141.4879883172
  0
LINE
  5
3E3
100
AcDbEntity
  8
0
100
AcDbLine
 62
7
  6
CONTINUOUS
 10
159.5058587304
 20
137.9707060942
 11
159.5058587304
 21
137.7230770498
  0
LINE
  5
3E4
100
AcDbEntity
  8
0
100
AcDbLine
 62
7
  6
CONTINUOUS
 10
159.5058587304
 20
132.2257101663
 11
159.5058587304
 21
131.9780814053
  0
LINE
  5
3E5
100
AcDbEntity
  8
0
100
AcDbLine
 62
7
  6
CONTINUOUS
 10
159.5058587304
 20
133.3152781885
 11
159.5058587304
 21
133.4152781885
  0
LINE
  5
3E6
100
AcDbEntity
  8
0
100
AcDbLine
 62
7
  6
CONTINUOUS
 10
159.5058587304
 20
134.0086399663
 11
159.5058587304
 21
134.1086399663
  0
LINE
  5
3E7
100
AcDbEntity
  8
0
100
AcDbLine
 62
7
  6
CONTINUOUS
 10
159.5058587304
 20
136.4849315442
 11
159.5058587304
 21
136.5849315442
  0
LINE
  5
3E8
100
AcDbEntity
  8
0
100
AcDbLine
 62
7
  6
CONTINUOUS
 10
159.5377736203
 20
134.9991567108
 11
159.5377736203
 21
135.0991567108
  0
LINE
  5
3E9
100
AcDbEntity
  8
0
100
AcDbLine
 62
7
  6
CONTINUOUS
 10
159.5377736203
 20
138.4164385442
 11
159.5377736203
 21
138.5164385442
  0
LINE
  5
3EA
100
AcDbEntity
  8
0
100
AcDbLine
 62
7
  6
CONTINUOUS
 10
159.5377736203
 20
139.406955147
 11
159.5377736203
 21
139.506955147
  0
LINE
  5
3EB
100
AcDbEntity
  8
0
100
AcDbLine
 62
7
  6
CONTINUOUS
 10
159.5696885101
 20
133.2657525497
 11
159.5696885101
 21
133.3657525497
  0
LINE
  5
3EC
100
AcDbEntity
  8
0
100
AcDbLine
 62
7
  6
CONTINUOUS
 10
159.5696885101
 20
137.6735511275
 11
159.5696885101
 21
137.7735511275
  0
LINE
  5
3ED
100
AcDbEntity
  8
0
100
AcDbLine
 62
7
  6
CONTINUOUS
 10
159.5696885101
 20
140.1993684859
 11
159.5696885101
 21
140.2993684859
  0
LINE
  5
3EE
100
AcDbEntity
  8
0
100
AcDbLine
 62
7
  6
CONTINUOUS
 10
159.5696885101
 20
141.2394108339
 11
159.5696885101
 21
141.3394108339
  0
LINE
  5
3EF
100
AcDbEntity
  8
0
100
AcDbLine
 62
7
  6
CONTINUOUS
 10
159.6016033999
 20
133.1667007052
 11
159.6016033999
 21
133.2667007052
  0
LINE
  5
3F0
100
AcDbEntity
  8
0
100
AcDbLine
 62
7
  6
CONTINUOUS
 10
159.6016033999
 20
134.0581656052
 11
159.6016033999
 21
134.1581656052
  0
LINE
  5
3F1
100
AcDbEntity
  8
0
100
AcDbLine
 62
7
  6
CONTINUOUS
 10
159.6016033999
 20
134.8505792275
 11
159.6016033999
 21
134.9505792275
  0
LINE
  5
3F2
100
AcDbEntity
  8
0
100
AcDbLine
 62
7
  6
CONTINUOUS
 10
159.6016033999
 20
135.0982079885
 11
159.6016033999
 21
135.1982079885
  0
LINE
  5
3F3
100
AcDbEntity
  8
0
100
AcDbLine
 62
7
  6
CONTINUOUS
 10
159.6016033999
 20
136.5344571831
 11
159.6016033999
 21
136.6344571831
  0
LINE
  5
3F4
100
AcDbEntity
  8
0
100
AcDbLine
 62
7
  6
CONTINUOUS
 10
159.6016033999
 20
137.5744995664
 11
159.6016033999
 21
137.6744995664
  0
LINE
  5
3F5
100
AcDbEntity
  8
0
100
AcDbLine
 62
7
  6
CONTINUOUS
 10
159.6016033999
 20
138.4659644664
 11
159.6016033999
 21
138.5659644664
  0
LINE
  5
3F6
100
AcDbEntity
  8
0
100
AcDbLine
 62
7
  6
CONTINUOUS
 10
159.6016033999
 20
139.2583778054
 11
159.6016033999
 21
139.3583778054
  0
LINE
  5
3F7
100
AcDbEntity
  8
0
100
AcDbLine
 62
7
  6
CONTINUOUS
 10
159.6016033999
 20
139.5060068498
 11
159.6016033999
 21
139.6060068498
  0
LINE
  5
3F8
100
AcDbEntity
  8
0
100
AcDbLine
 62
7
  6
CONTINUOUS
 10
159.6016033999
 20
141.1403591665
 11
159.6016033999
 21
141.2403591665
  0
LINE
  5
3F9
100
AcDbEntity
  8
0
100
AcDbLine
 62
7
  6
CONTINUOUS
 10
159.6335182897
 20
132.077132683
 11
159.6335182897
 21
132.177132683
  0
LINE
  5
3FA
100
AcDbEntity
  8
0
100
AcDbLine
 62
7
  6
CONTINUOUS
 10
159.6335182897
 20
132.6714426163
 11
159.6335182897
 21
133.068597583
  0
LINE
  5
3FB
100
AcDbEntity
  8
0
100
AcDbLine
 62
7
  6
CONTINUOUS
 10
159.6335182897
 20
134.6524755385
 11
159.6335182897
 21
134.7524755385
  0
LINE
  5
3FC
100
AcDbEntity
  8
0
100
AcDbLine
 62
7
  6
CONTINUOUS
 10
159.6335182897
 20
137.0792411942
 11
159.6335182897
 21
137.4763961608
  0
LINE
  5
3FD
100
AcDbEntity
  8
0
100
AcDbLine
 62
7
  6
CONTINUOUS
 10
159.6335182897
 20
139.0602743998
 11
159.6335182897
 21
139.1602743998
  0
LINE
  5
3FE
100
AcDbEntity
  8
0
100
AcDbLine
 62
7
  6
CONTINUOUS
 10
159.6335182897
 20
140.9422558318
 11
159.6335182897
 21
141.0422558318
  0
LINE
  5
3FF
100
AcDbEntity
  8
0
100
AcDbLine
 62
7
  6
CONTINUOUS
 10
159.6654331795
 20
134.1572174497
 11
159.6654331795
 21
134.2572174497
  0
LINE
  5
400
100
AcDbEntity
  8
0
100
AcDbLine
 62
7
  6
CONTINUOUS
 10
159.6654331795
 20
136.6335090275
 11
159.6654331795
 21
136.7335090275
  0
LINE
  5
401
100
AcDbEntity
  8
0
100
AcDbLine
 62
7
  6
CONTINUOUS
 10
159.6654331795
 20
138.5650160275
 11
159.6654331795
 21
138.6650160275
  0
LINE
  5
402
100
AcDbEntity
  8
0
100
AcDbLine
 62
7
  6
CONTINUOUS
 10
159.6654331795
 20
140.3479459693
 11
159.6654331795
 21
140.4479459693
  0
LINE
  5
403
100
AcDbEntity
  8
0
100
AcDbLine
 62
7
  6
CONTINUOUS
 10
159.6973480693
 20
132.2257101663
 11
159.6973480693
 21
132.3257101663
  0
LINE
  5
404
100
AcDbEntity
  8
0
100
AcDbLine
 62
7
  6
CONTINUOUS
 10
159.7292629591
 20
132.3742876496
 11
159.7292629591
 21
132.4742876496
  0
LINE
  5
405
100
AcDbEntity
  8
0
100
AcDbLine
 62
7
  6
CONTINUOUS
 10
159.7292629591
 20
134.305794933
 11
159.7292629591
 21
134.405794933
  0
LINE
  5
406
100
AcDbEntity
  8
0
100
AcDbLine
 62
7
  6
CONTINUOUS
 10
159.7292629591
 20
136.7820865109
 11
159.7292629591
 21
136.8820865109
  0
LINE
  5
407
100
AcDbEntity
  8
0
100
AcDbLine
 62
7
  6
CONTINUOUS
 10
159.7292629591
 20
138.7135935109
 11
159.7292629591
 21
138.8135935109
  0
LINE
  5
408
100
AcDbEntity
  8
0
100
AcDbLine
 62
7
  6
CONTINUOUS
 10
159.7292629591
 20
140.5460492332
 11
159.7292629591
 21
140.6460492332
  0
LINE
  5
409
100
AcDbEntity
  8
0
100
AcDbLine
 62
7
  6
CONTINUOUS
 10
159.7611778489
 20
132.6714426163
 11
159.7611778489
 21
132.968597583
  0
LINE
  5
40A
100
AcDbEntity
  8
0
100
AcDbLine
 62
7
  6
CONTINUOUS
 10
159.7611778489
 20
134.4543724163
 11
159.7611778489
 21
134.6524755385
  0
LINE
  5
40B
100
AcDbEntity
  8
0
100
AcDbLine
 62
7
  6
CONTINUOUS
 10
159.7611778489
 20
135.0982079885
 11
159.7611778489
 21
135.3458373164
  0
LINE
  5
40C
100
AcDbEntity
  8
0
100
AcDbLine
 62
7
  6
CONTINUOUS
 10
159.7611778489
 20
135.7420441275
 11
159.7611778489
 21
135.9896728886
  0
LINE
  5
40D
100
AcDbEntity
  8
0
100
AcDbLine
 62
7
  6
CONTINUOUS
 10
159.7611778489
 20
137.0792411942
 11
159.7611778489
 21
137.3763961608
  0
LINE
  5
40E
100
AcDbEntity
  8
0
100
AcDbLine
 62
7
  6
CONTINUOUS
 10
159.7611778489
 20
138.8621709942
 11
159.7611778489
 21
139.0602743998
  0
LINE
  5
40F
100
AcDbEntity
  8
0
100
AcDbLine
 62
7
  6
CONTINUOUS
 10
160.0199012855
 20
145.3334117311
 11
160.0199012855
 21
144.9562836019
  0
LINE
  5
410
100
AcDbEntity
  8
0
100
AcDbLine
 62
7
  6
CONTINUOUS
 10
160.0803268365
 20
135.9896728886
 11
160.0803268365
 21
135.7420441275
  0
LINE
  5
411
100
AcDbEntity
  8
0
100
AcDbLine
 62
7
  6
CONTINUOUS
 10
160.2399012855
 20
135.7420441275
 11
160.2399012855
 21
135.9896728886
  0
LINE
  5
412
100
AcDbEntity
  8
0
100
AcDbLine
 62
7
  6
CONTINUOUS
 10
160.2399012855
 20
139.5060068498
 11
160.2399012855
 21
139.7536360359
  0
LINE
  5
413
100
AcDbEntity
  8
0
100
AcDbLine
 62
7
  6
CONTINUOUS
 10
160.2599012855
 20
145.5798218927
 11
160.2599012855
 21
145.6798218927
  0
LINE
  5
414
100
AcDbEntity
  8
0
100
AcDbLine
 62
7
  6
CONTINUOUS
 10
160.5799012855
 20
143.4667199074
 11
160.5799012855
 21
144.055617182
  0
LINE
  5
415
100
AcDbEntity
  8
0
100
AcDbLine
 62
7
  6
CONTINUOUS
 10
160.5799012855
 20
144.8870015696
 11
160.5799012855
 21
145.0613626368
  0
LINE
  5
416
100
AcDbEntity
  8
0
100
AcDbLine
 62
7
  6
CONTINUOUS
 10
160.5799012855
 20
145.5798218927
 11
160.5799012855
 21
146.1687191672
  0
LINE
  5
417
100
AcDbEntity
  8
0
100
AcDbLine
 62
7
  6
CONTINUOUS
 10
160.5799012855
 20
146.3072832318
 11
160.5799012855
 21
146.8961805064
  0
LINE
  5
418
100
AcDbEntity
  8
0
100
AcDbLine
 62
7
  6
CONTINUOUS
 10
160.5799012855
 20
147.6929238779
 11
160.5799012855
 21
148.2818211525
  0
LINE
  5
419
100
AcDbEntity
  8
1_AXIS
100
AcDbLine
 62
2
  6
CONTINUOUS
 10
161.0116414537
 20
162.0970056425
 11
161.0116414537
 21
160.3370056425
  0
LINE
  5
41A
100
AcDbEntity
  8
1_AXIS
100
AcDbLine
 62
2
  6
CENTER
 10
161.0116414537
 20
156.8170056425
 11
161.0116414537
 21
155.2670056425
  0
LINE
  5
41B
100
AcDbEntity
  8
1_AXIS
100
AcDbLine
 62
2
  6
CENTER
 10
161.0116414537
 20
165.6170056425
 11
161.0116414537
 21
167.1670056425
  0
LINE
  5
41C
100
AcDbEntity
  8
DEFAULT_1
100
AcDbLine
 62
2
  6
CENTER
 10
161.0116414537
 20
91.207244642
 11
161.0116414537
 21
175.7170056425
  0
LINE
  5
41D
100
AcDbEntity
  8
0
100
AcDbLine
 62
7
  6
CONTINUOUS
 10
159.6335182897
 20
140.9422558318
 11
159.6016033999
 21
140.5955750846
  0
LINE
  5
41E
100
AcDbEntity
  8
0
100
AcDbLine
 62
7
  6
CONTINUOUS
 10
159.7292629591
 20
140.6460492332
 11
159.7562208564
 21
140.9388838927
  0
LINE
  5
41F
100
AcDbEntity
  8
0
100
AcDbLine
 62
7
  6
CONTINUOUS
 10
159.7292629591
 20
140.5460492332
 11
159.7611778489
 21
140.8927300512
  0
LINE
  5
420
100
AcDbEntity
  8
0
100
AcDbLine
 62
7
  6
CONTINUOUS
 10
158.7718161781
 20
133.1667007052
 11
158.7399012855
 21
132.8695457385
  0
LINE
  5
421
100
AcDbEntity
  8
0
100
AcDbLine
 62
7
  6
CONTINUOUS
 10
158.867560856
 20
132.9695457385
 11
158.899475757
 21
133.2667007052
  0
LINE
  5
422
100
AcDbEntity
  8
0
100
AcDbLine
 62
7
  6
CONTINUOUS
 10
158.867560856
 20
132.8695457385
 11
158.899475757
 21
133.1667007052
  0
LINE
  5
423
100
AcDbEntity
  8
0
100
AcDbLine
 62
7
  6
CONTINUOUS
 10
159.7292629591
 20
136.8820865109
 11
159.7611778489
 21
137.1792411942
  0
LINE
  5
424
100
AcDbEntity
  8
0
100
AcDbLine
 62
7
  6
CONTINUOUS
 10
159.7292629591
 20
136.7820865109
 11
159.7611778489
 21
137.0792411942
  0
LINE
  5
425
100
AcDbEntity
  8
0
100
AcDbLine
 62
7
  6
CONTINUOUS
 10
159.6335182897
 20
132.6714426163
 11
159.6016033999
 21
132.3742876496
  0
LINE
  5
426
100
AcDbEntity
  8
0
100
AcDbLine
 62
7
  6
CONTINUOUS
 10
159.7292629591
 20
132.4742876496
 11
159.7611778489
 21
132.7714426163
  0
LINE
  5
427
100
AcDbEntity
  8
0
100
AcDbLine
 62
7
  6
CONTINUOUS
 10
159.7292629591
 20
132.3742876496
 11
159.7611778489
 21
132.6714426163
  0
LINE
  5
428
100
AcDbEntity
  8
0
100
AcDbLine
 62
7
  6
CONTINUOUS
 10
159.6335182897
 20
139.0602743998
 11
159.6016033999
 21
138.8621709942
  0
LINE
  5
429
100
AcDbEntity
  8
0
100
AcDbLine
 62
7
  6
CONTINUOUS
 10
159.6335182897
 20
137.0792411942
 11
159.6016033999
 21
136.8811377886
  0
LINE
  5
42A
100
AcDbEntity
  8
0
100
AcDbLine
 62
7
  6
CONTINUOUS
 10
159.6335182897
 20
134.6524755385
 11
159.6016033999
 21
134.4543724163
  0
LINE
  5
42B
100
AcDbEntity
  8
0
100
AcDbLine
 62
7
  6
CONTINUOUS
 10
159.2824544571
 20
133.2657525497
 11
159.122880008
 21
132.4238132885
  0
LINE
  5
42C
100
AcDbEntity
  8
0
100
AcDbLine
 62
7
  6
CONTINUOUS
 10
159.2186246774
 20
132.3752358052
 11
159.3781991712
 21
133.2171750663
  0
LINE
  5
42D
100
AcDbEntity
  8
0
100
AcDbLine
 62
7
  6
CONTINUOUS
 10
159.2186246774
 20
132.2752358052
 11
159.3781991712
 21
133.1171750663
  0
LINE
  5
42E
100
AcDbEntity
  8
0
100
AcDbLine
 62
7
  6
CONTINUOUS
 10
159.7292629591
 20
138.8135935109
 11
159.7611778489
 21
138.9621709942
  0
LINE
  5
42F
100
AcDbEntity
  8
0
100
AcDbLine
 62
7
  6
CONTINUOUS
 10
159.7292629591
 20
138.7135935109
 11
159.7611778489
 21
138.8621709942
  0
LINE
  5
430
100
AcDbEntity
  8
0
100
AcDbLine
 62
7
  6
CONTINUOUS
 10
158.8037310708
 20
133.3152781885
 11
158.7718161781
 21
133.1667007052
  0
LINE
  5
431
100
AcDbEntity
  8
0
100
AcDbLine
 62
7
  6
CONTINUOUS
 10
159.7292629591
 20
134.405794933
 11
159.7611778489
 21
134.5543724163
  0
LINE
  5
432
100
AcDbEntity
  8
0
100
AcDbLine
 62
7
  6
CONTINUOUS
 10
159.7292629591
 20
134.305794933
 11
159.7611778489
 21
134.4543724163
  0
LINE
  5
433
100
AcDbEntity
  8
0
100
AcDbLine
 62
7
  6
CONTINUOUS
 10
159.6973480693
 20
132.3257101663
 11
159.7292629591
 21
132.4742876496
  0
LINE
  5
434
100
AcDbEntity
  8
0
100
AcDbLine
 62
7
  6
CONTINUOUS
 10
159.6973480693
 20
132.2257101663
 11
159.7292629591
 21
132.3742876496
  0
LINE
  5
435
100
AcDbEntity
  8
0
100
AcDbLine
 62
7
  6
CONTINUOUS
 10
159.6016033999
 20
136.8811377886
 11
159.5696885101
 21
136.7820865109
  0
LINE
  5
436
100
AcDbEntity
  8
0
100
AcDbLine
 62
7
  6
CONTINUOUS
 10
158.899475757
 20
133.2667007052
 11
158.9313906468
 21
133.3657525497
  0
LINE
  5
437
100
AcDbEntity
  8
0
100
AcDbLine
 62
7
  6
CONTINUOUS
 10
158.899475757
 20
133.1667007052
 11
158.9313906468
 21
133.2657525497
  0
LINE
  5
438
100
AcDbEntity
  8
0
100
AcDbLine
 62
7
  6
CONTINUOUS
 10
159.6016033999
 20
134.4543724163
 11
159.5696885101
 21
134.3553205719
  0
LINE
  5
439
100
AcDbEntity
  8
0
100
AcDbLine
 62
7
  6
CONTINUOUS
 10
159.6016033999
 20
132.3742876496
 11
159.5696885101
 21
132.2752358052
  0
LINE
  5
43A
100
AcDbEntity
  8
0
100
AcDbLine
 62
7
  6
CONTINUOUS
 10
158.867560856
 20
133.4638556718
 11
158.8037310708
 21
133.3152781885
  0
LINE
  5
43B
100
AcDbEntity
  8
0
100
AcDbLine
 62
7
  6
CONTINUOUS
 10
159.6654331795
 20
134.2572174497
 11
159.7292629591
 21
134.405794933
  0
LINE
  5
43C
100
AcDbEntity
  8
0
100
AcDbLine
 62
7
  6
CONTINUOUS
 10
159.6654331795
 20
134.1572174497
 11
159.7292629591
 21
134.305794933
  0
LINE
  5
43D
100
AcDbEntity
  8
0
100
AcDbLine
 62
7
  6
CONTINUOUS
 10
159.3781991712
 20
133.2171750663
 11
159.4420289508
 21
133.3657525497
  0
LINE
  5
43E
100
AcDbEntity
  8
0
100
AcDbLine
 62
7
  6
CONTINUOUS
 10
159.3781991712
 20
133.1171750663
 11
159.4420289508
 21
133.2657525497
  0
LINE
  5
43F
100
AcDbEntity
  8
0
100
AcDbLine
 62
7
  6
CONTINUOUS
 10
159.122880008
 20
132.4238132885
 11
159.0590502284
 21
132.2752358052
  0
LINE
  5
440
100
AcDbEntity
  8
0
100
AcDbLine
 62
7
  6
CONTINUOUS
 10
159.6335182897
 20
132.177132683
 11
159.6973480693
 21
132.3257101663
  0
LINE
  5
441
100
AcDbEntity
  8
0
100
AcDbLine
 62
7
  6
CONTINUOUS
 10
159.6335182897
 20
132.077132683
 11
159.6973480693
 21
132.2257101663
  0
LINE
  5
442
100
AcDbEntity
  8
0
100
AcDbLine
 62
7
  6
CONTINUOUS
 10
159.3781991712
 20
133.4638556718
 11
159.2824544571
 21
133.2657525497
  0
LINE
  5
443
100
AcDbEntity
  8
0
100
AcDbLine
 62
7
  6
CONTINUOUS
 10
159.122880008
 20
132.177132683
 11
159.2186246774
 21
132.3752358052
  0
LINE
  5
444
100
AcDbEntity
  8
0
100
AcDbLine
 62
7
  6
CONTINUOUS
 10
159.122880008
 20
132.077132683
 11
159.2186246774
 21
132.2752358052
  0
LINE
  5
445
100
AcDbEntity
  8
0
100
AcDbLine
 62
7
  6
CONTINUOUS
 10
159.5696885101
 20
134.3553205719
 11
159.5058587304
 21
134.2562692942
  0
LINE
  5
446
100
AcDbEntity
  8
0
100
AcDbLine
 62
7
  6
CONTINUOUS
 10
159.6016033999
 20
134.1581656052
 11
159.6654331795
 21
134.2572174497
  0
LINE
  5
447
100
AcDbEntity
  8
0
100
AcDbLine
 62
7
  6
CONTINUOUS
 10
159.6016033999
 20
134.0581656052
 11
159.6654331795
 21
134.1572174497
  0
LINE
  5
448
100
AcDbEntity
  8
0
100
AcDbLine
 62
7
  6
CONTINUOUS
 10
158.9952204264
 20
133.5629075163
 11
158.867560856
 21
133.4638556718
  0
LINE
  5
449
100
AcDbEntity
  8
0
100
AcDbLine
 62
7
  6
CONTINUOUS
 10
158.9313906468
 20
133.3657525497
 11
158.9952204264
 21
133.4152781885
  0
LINE
  5
44A
100
AcDbEntity
  8
0
100
AcDbLine
 62
7
  6
CONTINUOUS
 10
158.9313906468
 20
133.2657525497
 11
158.9952204264
 21
133.3152781885
  0
LINE
  5
44B
100
AcDbEntity
  8
0
100
AcDbLine
 62
7
  6
CONTINUOUS
 10
159.5058587304
 20
133.5629075163
 11
159.3781991712
 21
133.4638556718
  0
LINE
  5
44C
100
AcDbEntity
  8
0
100
AcDbLine
 62
7
  6
CONTINUOUS
 10
159.4420289508
 20
133.3657525497
 11
159.5058587304
 21
133.4152781885
  0
LINE
  5
44D
100
AcDbEntity
  8
0
100
AcDbLine
 62
7
  6
CONTINUOUS
 10
159.4420289508
 20
133.2657525497
 11
159.5058587304
 21
133.3152781885
  0
LINE
  5
44E
100
AcDbEntity
  8
0
100
AcDbLine
 62
7
  6
CONTINUOUS
 10
159.0590502284
 20
132.2752358052
 11
158.9952204264
 21
132.2257101663
  0
LINE
  5
44F
100
AcDbEntity
  8
0
100
AcDbLine
 62
7
  6
CONTINUOUS
 10
158.9952204264
 20
132.0780814053
 11
159.122880008
 21
132.177132683
  0
LINE
  5
450
100
AcDbEntity
  8
0
100
AcDbLine
 62
7
  6
CONTINUOUS
 10
158.9952204264
 20
131.9780814053
 11
159.122880008
 21
132.077132683
  0
LINE
  5
451
100
AcDbEntity
  8
0
100
AcDbLine
 62
7
  6
CONTINUOUS
 10
159.5696885101
 20
132.2752358052
 11
159.5058587304
 21
132.2257101663
  0
LINE
  5
452
100
AcDbEntity
  8
0
100
AcDbLine
 62
7
  6
CONTINUOUS
 10
159.5058587304
 20
132.0780814053
 11
159.6335182897
 21
132.177132683
  0
LINE
  5
453
100
AcDbEntity
  8
0
100
AcDbLine
 62
7
  6
CONTINUOUS
 10
159.5058587304
 20
131.9780814053
 11
159.6335182897
 21
132.077132683
  0
LINE
  5
454
100
AcDbEntity
  8
0
100
AcDbLine
 62
7
  6
CONTINUOUS
 10
159.5058587304
 20
134.1086399663
 11
159.6016033999
 21
134.1581656052
  0
LINE
  5
455
100
AcDbEntity
  8
0
100
AcDbLine
 62
7
  6
CONTINUOUS
 10
159.5058587304
 20
134.0086399663
 11
159.6016033999
 21
134.0581656052
  0
LINE
  5
456
100
AcDbEntity
  8
0
100
AcDbLine
 62
7
  6
CONTINUOUS
 10
159.5058587304
 20
134.2562692942
 11
159.3462842814
 21
134.2067430885
  0
LINE
  5
457
100
AcDbEntity
  8
0
100
AcDbLine
 62
7
  6
CONTINUOUS
 10
159.3462842814
 20
134.0591143275
 11
159.5058587304
 21
134.1086399663
  0
LINE
  5
458
100
AcDbEntity
  8
0
100
AcDbLine
 62
7
  6
CONTINUOUS
 10
159.3462842814
 20
133.9591143275
 11
159.5058587304
 21
134.0086399663
  0
LINE
  5
459
100
AcDbEntity
  8
0
100
AcDbLine
 62
7
  6
CONTINUOUS
 10
158.9313906468
 20
131.9780814053
 11
158.9952204264
 21
131.9780814053
  0
LINE
  5
45A
100
AcDbEntity
  8
0
100
AcDbLine
 62
7
  6
CONTINUOUS
 10
158.9313906468
 20
132.0780814053
 11
158.9952204264
 21
132.0780814053
  0
LINE
  5
45B
100
AcDbEntity
  8
DEFAULT_1
100
AcDbLine
 62
2
  6
CENTER
 10
178.1573107502
 20
133.4670056425
 11
163.0117414537
 21
133.4670056425
  0
LINE
  5
45C
100
AcDbEntity
  8
0
100
AcDbLine
 62
2
  6
CONTINUOUS
 10
161.8916414537
 20
133.4670056425
 11
160.1316414537
 21
133.4670056425
  0
LINE
  5
45D
100
AcDbEntity
  8
DEFAULT_1
100
AcDbLine
 62
2
  6
CENTER
 10
144.0195321455
 20
133.4670056425
 11
159.0115414537
 21
133.4670056425
  0
LINE
  5
45E
100
AcDbEntity
  8
0
100
AcDbLine
 62
7
  6
CONTINUOUS
 10
159.5696885101
 20
133.5629075163
 11
159.5058587304
 21
133.5629075163
  0
LINE
  5
45F
100
AcDbEntity
  8
0
100
AcDbLine
 62
7
  6
CONTINUOUS
 10
158.9952204264
 20
132.2257101663
 11
158.9313906468
 21
132.2752358052
  0
LINE
  5
460
100
AcDbEntity
  8
0
100
AcDbLine
 62
7
  6
CONTINUOUS
 10
159.5058587304
 20
133.3152781885
 11
159.5696885101
 21
133.2657525497
  0
LINE
  5
461
100
AcDbEntity
  8
0
100
AcDbLine
 62
7
  6
CONTINUOUS
 10
159.5058587304
 20
133.4152781885
 11
159.5696885101
 21
133.3657525497
  0
LINE
  5
462
100
AcDbEntity
  8
0
100
AcDbLine
 62
7
  6
CONTINUOUS
 10
159.6654331795
 20
133.4638556718
 11
159.5696885101
 21
133.5629075163
  0
LINE
  5
463
100
AcDbEntity
  8
0
100
AcDbLine
 62
7
  6
CONTINUOUS
 10
159.4739438406
 20
135.0982079885
 11
159.5377736203
 21
134.9991567108
  0
LINE
  5
464
100
AcDbEntity
  8
0
100
AcDbLine
 62
7
  6
CONTINUOUS
 10
159.4739438406
 20
135.1982079885
 11
159.5377736203
 21
135.0991567108
  0
LINE
  5
465
100
AcDbEntity
  8
0
100
AcDbLine
 62
7
  6
CONTINUOUS
 10
159.6654331795
 20
134.9991567108
 11
159.6016033999
 21
135.0982079885
  0
LINE
  5
466
100
AcDbEntity
  8
0
100
AcDbLine
 62
7
  6
CONTINUOUS
 10
159.0271353386
 20
136.7820865109
 11
158.9313906468
 21
136.9306639942
  0
LINE
  5
467
100
AcDbEntity
  8
0
100
AcDbLine
 62
7
  6
CONTINUOUS
 10
159.5377736203
 20
134.9991567108
 11
159.6016033999
 21
134.8505792275
  0
LINE
  5
468
100
AcDbEntity
  8
0
100
AcDbLine
 62
7
  6
CONTINUOUS
 10
159.5377736203
 20
135.0991567108
 11
159.6016033999
 21
134.9505792275
  0
LINE
  5
469
100
AcDbEntity
  8
0
100
AcDbLine
 62
7
  6
CONTINUOUS
 10
158.7718161781
 20
136.9306639942
 11
158.8356459662
 21
136.7820865109
  0
LINE
  5
46A
100
AcDbEntity
  8
0
100
AcDbLine
 62
7
  6
CONTINUOUS
 10
158.7718161781
 20
137.0306639942
 11
158.8356459662
 21
136.8820865109
  0
LINE
  5
46B
100
AcDbEntity
  8
0
100
AcDbLine
 62
7
  6
CONTINUOUS
 10
159.7292629591
 20
134.8505792275
 11
159.6654331795
 21
134.9991567108
  0
LINE
  5
46C
100
AcDbEntity
  8
0
100
AcDbLine
 62
7
  6
CONTINUOUS
 10
158.9313906468
 20
132.2752358052
 11
158.899475757
 21
132.3742876496
  0
LINE
  5
46D
100
AcDbEntity
  8
0
100
AcDbLine
 62
7
  6
CONTINUOUS
 10
159.5696885101
 20
133.2657525497
 11
159.6016033999
 21
133.1667007052
  0
LINE
  5
46E
100
AcDbEntity
  8
0
100
AcDbLine
 62
7
  6
CONTINUOUS
 10
159.5696885101
 20
133.3657525497
 11
159.6016033999
 21
133.2667007052
  0
LINE
  5
46F
100
AcDbEntity
  8
0
100
AcDbLine
 62
7
  6
CONTINUOUS
 10
159.7292629591
 20
133.2657525497
 11
159.6654331795
 21
133.4638556718
  0
LINE
  5
470
100
AcDbEntity
  8
0
100
AcDbLine
 62
7
  6
CONTINUOUS
 10
159.2186246774
 20
137.5744995664
 11
159.2505395672
 21
137.4754480053
  0
LINE
  5
471
100
AcDbEntity
  8
0
100
AcDbLine
 62
7
  6
CONTINUOUS
 10
159.2186246774
 20
137.6744995664
 11
159.2505395672
 21
137.5754480053
  0
LINE
  5
472
100
AcDbEntity
  8
0
100
AcDbLine
 62
7
  6
CONTINUOUS
 10
159.3781991712
 20
137.5744995664
 11
159.3143693916
 21
137.772602972
  0
LINE
  5
473
100
AcDbEntity
  8
0
100
AcDbLine
 62
7
  6
CONTINUOUS
 10
159.5696885101
 20
137.6735511275
 11
159.6016033999
 21
137.5744995664
  0
LINE
  5
474
100
AcDbEntity
  8
0
100
AcDbLine
 62
7
  6
CONTINUOUS
 10
159.5696885101
 20
137.7735511275
 11
159.6016033999
 21
137.6744995664
  0
LINE
  5
475
100
AcDbEntity
  8
0
100
AcDbLine
 62
7
  6
CONTINUOUS
 10
158.7718161781
 20
140.5460492332
 11
158.8356459662
 21
140.3479459693
  0
LINE
  5
476
100
AcDbEntity
  8
0
100
AcDbLine
 62
7
  6
CONTINUOUS
 10
158.7718161781
 20
140.6460492332
 11
158.8356459662
 21
140.4479459693
  0
LINE
  5
477
100
AcDbEntity
  8
0
100
AcDbLine
 62
7
  6
CONTINUOUS
 10
159.7292629591
 20
137.7230770498
 11
159.6973480693
 21
137.8221286109
  0
LINE
  5
478
100
AcDbEntity
  8
0
100
AcDbLine
 62
7
  6
CONTINUOUS
 10
158.9313906468
 20
136.9306639942
 11
158.867560856
 21
137.1782930387
  0
LINE
  5
479
100
AcDbEntity
  8
0
100
AcDbLine
 62
7
  6
CONTINUOUS
 10
159.7292629591
 20
141.1898849825
 11
159.6973480693
 21
141.3384624658
  0
LINE
  5
47A
100
AcDbEntity
  8
0
100
AcDbLine
 62
7
  6
CONTINUOUS
 10
158.899475757
 20
132.3742876496
 11
158.867560856
 21
132.5723907718
  0
LINE
  5
47B
100
AcDbEntity
  8
0
100
AcDbLine
 62
7
  6
CONTINUOUS
 10
159.6016033999
 20
133.1667007052
 11
159.6335182897
 21
132.968597583
  0
LINE
  5
47C
100
AcDbEntity
  8
0
100
AcDbLine
 62
7
  6
CONTINUOUS
 10
159.6016033999
 20
133.2667007052
 11
159.6335182897
 21
133.068597583
  0
LINE
  5
47D
100
AcDbEntity
  8
0
100
AcDbLine
 62
7
  6
CONTINUOUS
 10
159.6016033999
 20
134.8505792275
 11
159.6335182897
 21
134.6524755385
  0
LINE
  5
47E
100
AcDbEntity
  8
0
100
AcDbLine
 62
7
  6
CONTINUOUS
 10
159.6016033999
 20
134.9505792275
 11
159.6335182897
 21
134.7524755385
  0
LINE
  5
47F
100
AcDbEntity
  8
0
100
AcDbLine
 62
7
  6
CONTINUOUS
 10
159.2505395672
 20
137.4754480053
 11
159.2824544571
 21
137.2773445997
  0
LINE
  5
480
100
AcDbEntity
  8
0
100
AcDbLine
 62
7
  6
CONTINUOUS
 10
159.2505395672
 20
137.5754480053
 11
159.2824544571
 21
137.3773445997
  0
LINE
  5
481
100
AcDbEntity
  8
0
100
AcDbLine
 62
7
  6
CONTINUOUS
 10
159.7611778489
 20
134.6524755385
 11
159.7292629591
 21
134.8505792275
  0
LINE
  5
482
100
AcDbEntity
  8
0
100
AcDbLine
 62
7
  6
CONTINUOUS
 10
159.6016033999
 20
137.5744995664
 11
159.6335182897
 21
137.3763961608
  0
LINE
  5
483
100
AcDbEntity
  8
0
100
AcDbLine
 62
7
  6
CONTINUOUS
 10
159.6016033999
 20
137.6744995664
 11
159.6335182897
 21
137.4763961608
  0
LINE
  5
484
100
AcDbEntity
  8
0
100
AcDbLine
 62
7
  6
CONTINUOUS
 10
159.6016033999
 20
139.2583778054
 11
159.6335182897
 21
139.0602743998
  0
LINE
  5
485
100
AcDbEntity
  8
0
100
AcDbLine
 62
7
  6
CONTINUOUS
 10
159.6016033999
 20
139.3583778054
 11
159.6335182897
 21
139.1602743998
  0
LINE
  5
486
100
AcDbEntity
  8
0
100
AcDbLine
 62
7
  6
CONTINUOUS
 10
159.7611778489
 20
139.0602743998
 11
159.7292629591
 21
139.2583778054
  0
LINE
  5
487
100
AcDbEntity
  8
0
100
AcDbLine
 62
7
  6
CONTINUOUS
 10
159.6016033999
 20
141.1403591665
 11
159.6335182897
 21
140.9422558318
  0
LINE
  5
488
100
AcDbEntity
  8
0
100
AcDbLine
 62
7
  6
CONTINUOUS
 10
159.6016033999
 20
141.2403591665
 11
159.6335182897
 21
141.0422558318
  0
LINE
  5
489
100
AcDbEntity
  8
0
100
AcDbLine
 62
7
  6
CONTINUOUS
 10
158.7399012855
 20
137.1782930387
 11
158.7718161781
 21
136.9306639942
  0
LINE
  5
48A
100
AcDbEntity
  8
0
100
AcDbLine
 62
7
  6
CONTINUOUS
 10
158.7399012855
 20
137.2782930387
 11
158.7718161781
 21
137.0306639942
  0
LINE
  5
48B
100
AcDbEntity
  8
0
100
AcDbLine
 62
7
  6
CONTINUOUS
 10
158.7399012855
 20
133.9591143275
 11
159.3462842814
 21
133.9591143275
  0
LINE
  5
48C
100
AcDbEntity
  8
0
100
AcDbLine
 62
7
  6
CONTINUOUS
 10
158.7399012855
 20
134.0591143275
 11
159.3462842814
 21
134.0591143275
  0
LINE
  5
48D
100
AcDbEntity
  8
0
100
AcDbLine
 62
7
  6
CONTINUOUS
 10
159.3462842814
 20
134.2067430885
 11
158.7399012855
 21
134.2067430885
  0
LINE
  5
48E
100
AcDbEntity
  8
0
100
AcDbLine
 62
7
  6
CONTINUOUS
 10
158.7399012855
 20
135.0982079885
 11
159.4739438406
 21
135.0982079885
  0
LINE
  5
48F
100
AcDbEntity
  8
0
100
AcDbLine
 62
7
  6
CONTINUOUS
 10
159.6016033999
 20
135.0982079885
 11
159.7611778489
 21
135.0982079885
  0
LINE
  5
490
100
AcDbEntity
  8
0
100
AcDbLine
 62
7
  6
CONTINUOUS
 10
158.7399012855
 20
135.1982079885
 11
159.4739438406
 21
135.1982079885
  0
LINE
  5
491
100
AcDbEntity
  8
0
100
AcDbLine
 62
7
  6
CONTINUOUS
 10
159.6016033999
 20
135.1982079885
 11
159.7611778489
 21
135.1982079885
  0
LINE
  5
492
100
AcDbEntity
  8
0
100
AcDbLine
 62
7
  6
CONTINUOUS
 10
159.7611778489
 20
135.3458373164
 11
158.7399012855
 21
135.3458373164
  0
LINE
  5
493
100
AcDbEntity
  8
0
100
AcDbLine
 62
7
  6
CONTINUOUS
 10
158.7399012855
 20
135.7420441275
 11
159.7611778489
 21
135.7420441275
  0
LINE
  5
494
100
AcDbEntity
  8
0
100
AcDbLine
 62
7
  6
CONTINUOUS
 10
160.0803268365
 20
135.7420441275
 11
160.2399012855
 21
135.7420441275
  0
LINE
  5
495
100
AcDbEntity
  8
0
100
AcDbLine
 62
7
  6
CONTINUOUS
 10
158.7399012855
 20
135.8420441275
 11
159.7611778489
 21
135.8420441275
  0
LINE
  5
496
100
AcDbEntity
  8
0
100
AcDbLine
 62
7
  6
CONTINUOUS
 10
160.0803268365
 20
135.8420441275
 11
160.2399012855
 21
135.8420441275
  0
LINE
  5
497
100
AcDbEntity
  8
0
100
AcDbLine
 62
7
  6
CONTINUOUS
 10
160.2399012855
 20
135.9896728886
 11
160.0803268365
 21
135.9896728886
  0
LINE
  5
498
100
AcDbEntity
  8
0
100
AcDbLine
 62
7
  6
CONTINUOUS
 10
159.7611778489
 20
135.9896728886
 11
158.7399012855
 21
135.9896728886
  0
LINE
  5
499
100
AcDbEntity
  8
0
100
AcDbLine
 62
7
  6
CONTINUOUS
 10
158.9952204264
 20
136.4849315442
 11
159.5058587304
 21
136.4849315442
  0
LINE
  5
49A
100
AcDbEntity
  8
0
100
AcDbLine
 62
7
  6
CONTINUOUS
 10
158.9952204264
 20
136.5849315442
 11
159.5058587304
 21
136.5849315442
  0
LINE
  5
49B
100
AcDbEntity
  8
0
100
AcDbLine
 62
7
  6
CONTINUOUS
 10
159.0590502284
 20
137.7230770498
 11
159.1547948978
 21
137.6735511275
  0
LINE
  5
49C
100
AcDbEntity
  8
0
100
AcDbLine
 62
7
  6
CONTINUOUS
 10
159.0590502284
 20
137.8230770498
 11
159.1547948978
 21
137.7735511275
  0
LINE
  5
49D
100
AcDbEntity
  8
0
100
AcDbLine
 62
7
  6
CONTINUOUS
 10
158.8356459662
 20
136.7820865109
 11
158.899475757
 21
136.7325603053
  0
LINE
  5
49E
100
AcDbEntity
  8
0
100
AcDbLine
 62
7
  6
CONTINUOUS
 10
158.8356459662
 20
136.8820865109
 11
158.899475757
 21
136.8325603053
  0
LINE
  5
49F
100
AcDbEntity
  8
0
100
AcDbLine
 62
7
  6
CONTINUOUS
 10
159.0909651182
 20
136.7325603053
 11
159.0271353386
 21
136.7820865109
  0
LINE
  5
4A0
100
AcDbEntity
  8
0
100
AcDbLine
 62
7
  6
CONTINUOUS
 10
159.2505395672
 20
137.8716545331
 11
159.122880008
 21
137.9707060942
  0
LINE
  5
4A1
100
AcDbEntity
  8
0
100
AcDbLine
 62
7
  6
CONTINUOUS
 10
159.5058587304
 20
137.7230770498
 11
159.5696885101
 21
137.6735511275
  0
LINE
  5
4A2
100
AcDbEntity
  8
0
100
AcDbLine
 62
7
  6
CONTINUOUS
 10
159.5058587304
 20
137.8230770498
 11
159.5696885101
 21
137.7735511275
  0
LINE
  5
4A3
100
AcDbEntity
  8
0
100
AcDbLine
 62
7
  6
CONTINUOUS
 10
159.6335182897
 20
137.9211804553
 11
159.5696885101
 21
137.9707060942
  0
LINE
  5
4A4
100
AcDbEntity
  8
0
100
AcDbLine
 62
7
  6
CONTINUOUS
 10
159.1547948978
 20
137.6735511275
 11
159.2186246774
 21
137.5744995664
  0
LINE
  5
4A5
100
AcDbEntity
  8
0
100
AcDbLine
 62
7
  6
CONTINUOUS
 10
159.1547948978
 20
137.7735511275
 11
159.2186246774
 21
137.6744995664
  0
LINE
  5
4A6
100
AcDbEntity
  8
0
100
AcDbLine
 62
7
  6
CONTINUOUS
 10
159.3143693916
 20
137.772602972
 11
159.2505395672
 21
137.8716545331
  0
LINE
  5
4A7
100
AcDbEntity
  8
0
100
AcDbLine
 62
7
  6
CONTINUOUS
 10
159.6973480693
 20
137.8221286109
 11
159.6335182897
 21
137.9211804553
  0
LINE
  5
4A8
100
AcDbEntity
  8
0
100
AcDbLine
 62
7
  6
CONTINUOUS
 10
158.8356459662
 20
140.3479459693
 11
158.9313906468
 21
140.1993684859
  0
LINE
  5
4A9
100
AcDbEntity
  8
0
100
AcDbLine
 62
7
  6
CONTINUOUS
 10
158.8356459662
 20
140.4479459693
 11
158.9313906468
 21
140.2993684859
  0
LINE
  5
4AA
100
AcDbEntity
  8
0
100
AcDbLine
 62
7
  6
CONTINUOUS
 10
159.4739438406
 20
139.5060068498
 11
159.5377736203
 21
139.406955147
  0
LINE
  5
4AB
100
AcDbEntity
  8
0
100
AcDbLine
 62
7
  6
CONTINUOUS
 10
159.4739438406
 20
139.6060068498
 11
159.5377736203
 21
139.506955147
  0
LINE
  5
4AC
100
AcDbEntity
  8
0
100
AcDbLine
 62
7
  6
CONTINUOUS
 10
159.6654331795
 20
139.406955147
 11
159.6016033999
 21
139.5060068498
  0
LINE
  5
4AD
100
AcDbEntity
  8
0
100
AcDbLine
 62
7
  6
CONTINUOUS
 10
159.4739438406
 20
141.3879883172
 11
159.5696885101
 21
141.2394108339
  0
LINE
  5
4AE
100
AcDbEntity
  8
0
100
AcDbLine
 62
7
  6
CONTINUOUS
 10
159.4739438406
 20
141.4879883172
 11
159.5696885101
 21
141.3394108339
  0
LINE
  5
4AF
100
AcDbEntity
  8
0
100
AcDbLine
 62
7
  6
CONTINUOUS
 10
158.9633055366
 20
140.4469975304
 11
158.899475757
 21
140.5955750846
  0
LINE
  5
4B0
100
AcDbEntity
  8
0
100
AcDbLine
 62
7
  6
CONTINUOUS
 10
159.5377736203
 20
139.406955147
 11
159.6016033999
 21
139.2583778054
  0
LINE
  5
4B1
100
AcDbEntity
  8
0
100
AcDbLine
 62
7
  6
CONTINUOUS
 10
159.5377736203
 20
139.506955147
 11
159.6016033999
 21
139.3583778054
  0
LINE
  5
4B2
100
AcDbEntity
  8
0
100
AcDbLine
 62
7
  6
CONTINUOUS
 10
159.7292629591
 20
139.2583778054
 11
159.6654331795
 21
139.406955147
  0
LINE
  5
4B3
100
AcDbEntity
  8
0
100
AcDbLine
 62
7
  6
CONTINUOUS
 10
159.6973480693
 20
141.3384624658
 11
159.6335182897
 21
141.4870399669
  0
LINE
  5
4B4
100
AcDbEntity
  8
0
100
AcDbLine
 62
7
  6
CONTINUOUS
 10
159.5696885101
 20
141.2394108339
 11
159.6016033999
 21
141.1403591665
  0
LINE
  5
4B5
100
AcDbEntity
  8
0
100
AcDbLine
 62
7
  6
CONTINUOUS
 10
159.5696885101
 20
141.3394108339
 11
159.6016033999
 21
141.2403591665
  0
LINE
  5
4B6
100
AcDbEntity
  8
2_FEATURE
100
AcDbLine
 62
7
  6
CONTINUOUS
 10
165.2116414537
 20
105.3825080247
 11
165.2116414537
 21
117.0515032602
  0
LINE
  5
4B7
100
AcDbEntity
  8
0
100
AcDbLine
 62
7
  6
CONTINUOUS
 10
159.5058587304
 20
136.7325603053
 11
159.410114061
 21
136.7325603053
  0
LINE
  5
4B8
100
AcDbEntity
  8
0
100
AcDbLine
 62
7
  6
CONTINUOUS
 10
159.2824544571
 20
136.7325603053
 11
159.0909651182
 21
136.7325603053
  0
LINE
  5
4B9
100
AcDbEntity
  8
0
100
AcDbLine
 62
7
  6
CONTINUOUS
 10
158.9952204264
 20
137.7230770498
 11
159.0590502284
 21
137.7230770498
  0
LINE
  5
4BA
100
AcDbEntity
  8
0
100
AcDbLine
 62
7
  6
CONTINUOUS
 10
158.9952204264
 20
137.8230770498
 11
159.0590502284
 21
137.8230770498
  0
LINE
  5
4BB
100
AcDbEntity
  8
0
100
AcDbLine
 62
7
  6
CONTINUOUS
 10
159.5696885101
 20
137.9707060942
 11
159.5058587304
 21
137.9707060942
  0
LINE
  5
4BC
100
AcDbEntity
  8
0
100
AcDbLine
 62
7
  6
CONTINUOUS
 10
159.122880008
 20
137.9707060942
 11
159.0271353386
 21
137.9707060942
  0
LINE
  5
4BD
100
AcDbEntity
  8
0
100
AcDbLine
 62
7
  6
CONTINUOUS
 10
158.7399012855
 20
138.3669129053
 11
159.3781991712
 21
138.3669129053
  0
LINE
  5
4BE
100
AcDbEntity
  8
0
100
AcDbLine
 62
7
  6
CONTINUOUS
 10
158.7399012855
 20
138.4669129053
 11
159.3781991712
 21
138.4669129053
  0
LINE
  5
4BF
100
AcDbEntity
  8
0
100
AcDbLine
 62
7
  6
CONTINUOUS
 10
159.3781991712
 20
138.6145419498
 11
158.7399012855
 21
138.6145419498
  0
LINE
  5
4C0
100
AcDbEntity
  8
0
100
AcDbLine
 62
7
  6
CONTINUOUS
 10
158.9313906468
 20
140.1993684859
 11
159.0590502284
 21
140.1498425637
  0
LINE
  5
4C1
100
AcDbEntity
  8
0
100
AcDbLine
 62
7
  6
CONTINUOUS
 10
158.9313906468
 20
140.2993684859
 11
159.0590502284
 21
140.2498425637
  0
LINE
  5
4C2
100
AcDbEntity
  8
0
100
AcDbLine
 62
7
  6
CONTINUOUS
 10
159.0590502284
 20
140.3974717498
 11
158.9633055366
 21
140.4469975304
  0
LINE
  5
4C3
100
AcDbEntity
  8
0
100
AcDbLine
 62
7
  6
CONTINUOUS
 10
159.410114061
 20
141.4375141332
 11
159.4739438406
 21
141.3879883172
  0
LINE
  5
4C4
100
AcDbEntity
  8
0
100
AcDbLine
 62
7
  6
CONTINUOUS
 10
159.410114061
 20
141.5375141332
 11
159.4739438406
 21
141.4879883172
  0
LINE
  5
4C5
100
AcDbEntity
  8
0
100
AcDbLine
 62
7
  6
CONTINUOUS
 10
159.5696885101
 20
141.5860916165
 11
159.4420289508
 21
141.6851432706
  0
LINE
  5
4C6
100
AcDbEntity
  8
0
100
AcDbLine
 62
7
  6
CONTINUOUS
 10
159.6335182897
 20
141.4870399669
 11
159.5696885101
 21
141.5860916165
  0
LINE
  5
4C7
100
AcDbEntity
  8
2_FEATURE
100
AcDbLine
 62
7
  6
CONTINUOUS
 10
169.0114628757
 20
101.7939142516
 11
169.0116407512
 21
121.6730611699
  0
LINE
  5
4C8
100
AcDbEntity
  8
0
100
AcDbLine
 62
7
  6
CONTINUOUS
 10
159.2505395672
 20
141.7346690999
 11
159.0590502284
 21
141.6851432706
  0
LINE
  5
4C9
100
AcDbEntity
  8
0
100
AcDbLine
 62
7
  6
CONTINUOUS
 10
158.7399012855
 20
139.5060068498
 11
159.4739438406
 21
139.5060068498
  0
LINE
  5
4CA
100
AcDbEntity
  8
0
100
AcDbLine
 62
7
  6
CONTINUOUS
 10
159.6016033999
 20
139.5060068498
 11
160.2399012855
 21
139.5060068498
  0
LINE
  5
4CB
100
AcDbEntity
  8
0
100
AcDbLine
 62
7
  6
CONTINUOUS
 10
158.7399012855
 20
139.6060068498
 11
159.4739438406
 21
139.6060068498
  0
LINE
  5
4CC
100
AcDbEntity
  8
0
100
AcDbLine
 62
7
  6
CONTINUOUS
 10
159.6016033999
 20
139.6060068498
 11
160.2399012855
 21
139.6060068498
  0
LINE
  5
4CD
100
AcDbEntity
  8
0
100
AcDbLine
 62
7
  6
CONTINUOUS
 10
160.2399012855
 20
139.7536360359
 11
158.7399012855
 21
139.7536360359
  0
LINE
  5
4CE
100
AcDbEntity
  8
0
100
AcDbLine
 62
7
  6
CONTINUOUS
 10
159.1867097876
 20
141.4870399669
 11
159.2824544571
 21
141.4870399669
  0
LINE
  5
4CF
100
AcDbEntity
  8
0
100
AcDbLine
 62
7
  6
CONTINUOUS
 10
159.1867097876
 20
141.5870399669
 11
159.2824544571
 21
141.5870399669
  0
LINE
  5
4D0
100
AcDbEntity
  8
0
100
AcDbLine
 62
7
  6
CONTINUOUS
 10
159.4420289508
 20
141.6851432706
 11
159.2505395672
 21
141.7346690999
  0
LINE
  5
4D1
100
AcDbEntity
  8
0
100
AcDbLine
 62
7
  6
CONTINUOUS
 10
159.2824544571
 20
141.4870399669
 11
159.410114061
 21
141.4375141332
  0
LINE
  5
4D2
100
AcDbEntity
  8
0
100
AcDbLine
 62
7
  6
CONTINUOUS
 10
159.2824544571
 20
141.5870399669
 11
159.410114061
 21
141.5375141332
  0
LINE
  5
4D3
100
AcDbEntity
  8
0
100
AcDbLine
 62
7
  6
CONTINUOUS
 10
158.7399012855
 20
143.4667199074
 11
160.5799012855
 21
143.4667199074
  0
LINE
  5
4D4
100
AcDbEntity
  8
0
100
AcDbLine
 62
7
  6
CONTINUOUS
 10
158.7399012855
 20
143.5667199074
 11
160.5799012855
 21
143.5667199074
  0
LINE
  5
4D5
100
AcDbEntity
  8
0
100
AcDbLine
 62
7
  6
CONTINUOUS
 10
160.5799012855
 20
144.055617182
 11
158.7399012855
 21
144.055617182
  0
LINE
  5
4D6
100
AcDbEntity
  8
0
100
AcDbLine
 62
7
  6
CONTINUOUS
 10
158.7399012855
 20
144.1941812466
 11
159.7799012855
 21
144.1941812466
  0
LINE
  5
4D7
100
AcDbEntity
  8
0
100
AcDbLine
 62
7
  6
CONTINUOUS
 10
158.7399012855
 20
144.2941812466
 11
159.7799012855
 21
144.2941812466
  0
LINE
  5
4D8
100
AcDbEntity
  8
0
100
AcDbLine
 62
7
  6
CONTINUOUS
 10
159.8199012855
 20
144.7830785212
 11
158.7399012855
 21
144.7830785212
  0
LINE
  5
4D9
100
AcDbEntity
  8
0
100
AcDbLine
 62
7
  6
CONTINUOUS
 10
173.5116414537
 20
130.3663556239
 11
173.5116414537
 21
99.8394575281
  0
LINE
  5
4DA
100
AcDbEntity
  8
2_FEATURE
100
AcDbLine
 62
7
  6
CONTINUOUS
 10
173.5116414537
 20
118.0066453513
 11
173.5116414537
 21
161.2170056425
  0
LINE
  5
4DB
100
AcDbEntity
  8
0
100
AcDbLine
 62
7
  6
CONTINUOUS
 10
158.7399012855
 20
145.5798218927
 11
159.6199012855
 21
145.5798218927
  0
LINE
  5
4DC
100
AcDbEntity
  8
0
100
AcDbLine
 62
7
  6
CONTINUOUS
 10
160.2599012855
 20
145.5798218927
 11
160.5799012855
 21
145.5798218927
  0
LINE
  5
4DD
100
AcDbEntity
  8
0
100
AcDbLine
 62
7
  6
CONTINUOUS
 10
158.7399012855
 20
145.6798218927
 11
159.6199012855
 21
145.6798218927
  0
LINE
  5
4DE
100
AcDbEntity
  8
0
100
AcDbLine
 62
7
  6
CONTINUOUS
 10
160.2599012855
 20
145.6798218927
 11
160.5799012855
 21
145.6798218927
  0
LINE
  5
4DF
100
AcDbEntity
  8
0
100
AcDbLine
 62
7
  6
CONTINUOUS
 10
160.5799012855
 20
146.1687191672
 11
158.7399012855
 21
146.1687191672
  0
LINE
  5
4E0
100
AcDbEntity
  8
0
100
AcDbLine
 62
7
  6
CONTINUOUS
 10
158.7399012855
 20
146.3072832318
 11
160.5799012855
 21
146.3072832318
  0
LINE
  5
4E1
100
AcDbEntity
  8
0
100
AcDbLine
 62
7
  6
CONTINUOUS
 10
158.7399012855
 20
146.4072832318
 11
160.5799012855
 21
146.4072832318
  0
LINE
  5
4E2
100
AcDbEntity
  8
0
100
AcDbLine
 62
7
  6
CONTINUOUS
 10
160.5799012855
 20
146.8961805064
 11
159.6999012855
 21
146.8961805064
  0
LINE
  5
4E3
100
AcDbEntity
  8
0
100
AcDbLine
 62
7
  6
CONTINUOUS
 10
159.0599012855
 20
146.8961805064
 11
158.7399012855
 21
146.8961805064
  0
LINE
  5
4E4
100
AcDbEntity
  8
0
100
AcDbLine
 62
7
  6
CONTINUOUS
 10
159.4999012855
 20
147.6929238779
 11
160.5799012855
 21
147.6929238779
  0
LINE
  5
4E5
100
AcDbEntity
  8
0
100
AcDbLine
 62
7
  6
CONTINUOUS
 10
159.4999012855
 20
147.7929238779
 11
160.5799012855
 21
147.7929238779
  0
LINE
  5
4E6
100
AcDbEntity
  8
0
100
AcDbLine
 62
7
  6
CONTINUOUS
 10
160.5799012855
 20
148.2818211525
 11
159.5399012855
 21
148.2818211525
  0
LINE
  5
4E7
100
AcDbEntity
  8
2_FEATURE
100
AcDbLine
 62
7
  6
CONTINUOUS
 10
152.4152430031
 20
160.2170056425
 11
149.8116414537
 21
160.2170056425
  0
LINE
  5
4E8
100
AcDbEntity
  8
1_AXIS
100
AcDbLine
 62
2
  6
CONTINUOUS
 10
161.8916414537
 20
161.2170056425
 11
160.1316414537
 21
161.2170056425
  0
LINE
  5
4E9
100
AcDbEntity
  8
1_AXIS
100
AcDbLine
 62
2
  6
CENTER
 10
156.6116414537
 20
161.2170056425
 11
144.7393014286
 21
161.2170056425
  0
LINE
  5
4EA
100
AcDbEntity
  8
1_AXIS
100
AcDbLine
 62
2
  6
CENTER
 10
165.4116414537
 20
161.2170056425
 11
177.7454409635
 21
161.2170056425
  0
LINE
  5
4EB
100
AcDbEntity
  8
2_FEATURE
100
AcDbLine
 62
7
  6
CONTINUOUS
 10
161.5725126604
 20
173.7029532328
 11
160.450770247
 21
173.7029532328
  0
LINE
  5
4EC
100
AcDbEntity
  8
2_FEATURE
100
AcDbLine
 62
7
  6
CONTINUOUS
 10
28.7768917346
 20
210.707524946
 11
28.7768917346
 21
207.3145518146
  0
LINE
  5
4ED
100
AcDbEntity
  8
2_FEATURE
100
AcDbLine
 62
7
  6
CONTINUOUS
 10
35.9268917346
 20
212.0140853791
 11
35.9268917346
 21
229.7145518146
  0
LINE
  5
4EE
100
AcDbEntity
  8
0
100
AcDbLine
 62
7
  6
CONTINUOUS
 10
37.2050353711
 20
218.0828116464
 11
37.2050353711
 21
217.0428116464
  0
LINE
  5
4EF
100
AcDbEntity
  8
0
100
AcDbLine
 62
7
  6
CONTINUOUS
 10
37.3782404518
 20
218.0828116464
 11
37.3782404518
 21
217.0428116464
  0
LINE
  5
4F0
100
AcDbEntity
  8
0
100
AcDbLine
 62
7
  6
CONTINUOUS
 10
37.5450353711
 20
217.0028116464
 11
37.5450353711
 21
218.0828116464
  0
LINE
  5
4F1
100
AcDbEntity
  8
0
100
AcDbLine
 62
7
  6
CONTINUOUS
 10
38.0050353711
 20
218.0828116464
 11
38.0050353711
 21
217.2028116464
  0
LINE
  5
4F2
100
AcDbEntity
  8
0
100
AcDbLine
 62
7
  6
CONTINUOUS
 10
38.0050353711
 20
216.5628116464
 11
38.0050353711
 21
216.2428116464
  0
LINE
  5
4F3
100
AcDbEntity
  8
0
100
AcDbLine
 62
7
  6
CONTINUOUS
 10
38.1782404518
 20
218.0828116464
 11
38.1782404518
 21
217.2028116464
  0
LINE
  5
4F4
100
AcDbEntity
  8
0
100
AcDbLine
 62
7
  6
CONTINUOUS
 10
38.1782404518
 20
216.5628116464
 11
38.1782404518
 21
216.2428116464
  0
LINE
  5
4F5
100
AcDbEntity
  8
0
100
AcDbLine
 62
7
  6
CONTINUOUS
 10
38.3450353711
 20
216.2428116464
 11
38.3450353711
 21
218.0828116464
  0
LINE
  5
4F6
100
AcDbEntity
  8
0
100
AcDbLine
 62
7
  6
CONTINUOUS
 10
38.4250353711
 20
218.0828116464
 11
38.4250353711
 21
216.2428116464
  0
LINE
  5
4F7
100
AcDbEntity
  8
0
100
AcDbLine
 62
7
  6
CONTINUOUS
 10
38.5982404518
 20
218.0828116464
 11
38.5982404518
 21
216.2428116464
  0
LINE
  5
4F8
100
AcDbEntity
  8
0
100
AcDbLine
 62
7
  6
CONTINUOUS
 10
38.7650353711
 20
216.2428116464
 11
38.7650353711
 21
217.1228116464
  0
LINE
  5
4F9
100
AcDbEntity
  8
0
100
AcDbLine
 62
7
  6
CONTINUOUS
 10
38.7650353711
 20
217.7628116464
 11
38.7650353711
 21
218.0828116464
  0
LINE
  5
4FA
100
AcDbEntity
  8
0
100
AcDbLine
 62
7
  6
CONTINUOUS
 10
39.2250353711
 20
217.3228116464
 11
39.2250353711
 21
216.2428116464
  0
LINE
  5
4FB
100
AcDbEntity
  8
0
100
AcDbLine
 62
7
  6
CONTINUOUS
 10
39.3982404518
 20
217.3228116464
 11
39.3982404518
 21
216.2428116464
  0
LINE
  5
4FC
100
AcDbEntity
  8
0
100
AcDbLine
 62
7
  6
CONTINUOUS
 10
39.5650353711
 20
216.2428116464
 11
39.5650353711
 21
217.2828116464
  0
LINE
  5
4FD
100
AcDbEntity
  8
0
100
AcDbLine
 62
7
  6
CONTINUOUS
 10
39.6450353711
 20
218.0828116464
 11
39.6450353711
 21
216.2428116464
  0
LINE
  5
4FE
100
AcDbEntity
  8
0
100
AcDbLine
 62
7
  6
CONTINUOUS
 10
39.8182404518
 20
218.0828116464
 11
39.8182404518
 21
216.2428116464
  0
LINE
  5
4FF
100
AcDbEntity
  8
0
100
AcDbLine
 62
7
  6
CONTINUOUS
 10
39.9850353711
 20
216.2428116464
 11
39.9850353711
 21
218.0828116464
  0
LINE
  5
500
100
AcDbEntity
  8
0
100
AcDbLine
 62
7
  6
CONTINUOUS
 10
40.9850353711
 20
216.7534499281
 11
41.0136291219
 21
216.5619605893
  0
LINE
  5
501
100
AcDbEntity
  8
0
100
AcDbLine
 62
7
  6
CONTINUOUS
 10
41.1280041176
 20
216.6896201485
 11
41.1280041176
 21
216.7853648179
  0
LINE
  5
502
100
AcDbEntity
  8
0
100
AcDbLine
 62
7
  6
CONTINUOUS
 10
42.1287853438
 20
217.7428116464
 11
42.1287853438
 21
216.2428116464
  0
LINE
  5
503
100
AcDbEntity
  8
0
100
AcDbLine
 62
7
  6
CONTINUOUS
 10
42.2717541211
 20
216.2428116464
 11
42.2717541211
 21
216.9768542015
  0
LINE
  5
504
100
AcDbEntity
  8
0
100
AcDbLine
 62
7
  6
CONTINUOUS
 10
42.2717541211
 20
217.1045137608
 11
42.2717541211
 21
217.7428116464
  0
LINE
  5
505
100
AcDbEntity
  8
0
100
AcDbLine
 62
7
  6
CONTINUOUS
 10
42.3019904245
 20
217.1045137608
 11
42.3019904245
 21
217.0106024099
  0
LINE
  5
506
100
AcDbEntity
  8
0
100
AcDbLine
 62
7
  6
CONTINUOUS
 10
42.7864416211
 20
216.8811095321
 11
42.7864416211
 21
216.2428116464
  0
LINE
  5
507
100
AcDbEntity
  8
0
100
AcDbLine
 62
7
  6
CONTINUOUS
 10
42.9294103165
 20
216.2428116464
 11
42.9294103165
 21
216.8811095321
  0
LINE
  5
508
100
AcDbEntity
  8
0
100
AcDbLine
 62
7
  6
CONTINUOUS
 10
43.1581604256
 20
217.072598871
 11
43.1581604256
 21
217.0087690913
  0
LINE
  5
509
100
AcDbEntity
  8
0
100
AcDbLine
 62
7
  6
CONTINUOUS
 10
43.1581604256
 20
216.6257903689
 11
43.1581604256
 21
216.5300456994
  0
LINE
  5
50A
100
AcDbEntity
  8
0
100
AcDbLine
 62
7
  6
CONTINUOUS
 10
43.3011291211
 20
216.4981307873
 11
43.3011291211
 21
216.5619605893
  0
LINE
  5
50B
100
AcDbEntity
  8
0
100
AcDbLine
 62
7
  6
CONTINUOUS
 10
41.0136291219
 20
216.9449393117
 11
40.9850353711
 21
216.7534499281
  0
LINE
  5
50C
100
AcDbEntity
  8
0
100
AcDbLine
 62
7
  6
CONTINUOUS
 10
41.1280041176
 20
216.7853648179
 11
41.1565978711
 21
216.9130244219
  0
LINE
  5
50D
100
AcDbEntity
  8
0
100
AcDbLine
 62
7
  6
CONTINUOUS
 10
41.8714415938
 20
216.4343010076
 11
41.9000353983
 21
216.5619605893
  0
LINE
  5
50E
100
AcDbEntity
  8
0
100
AcDbLine
 62
7
  6
CONTINUOUS
 10
41.7570666211
 20
216.5619605893
 11
41.7284728983
 21
216.4662158975
  0
LINE
  5
50F
100
AcDbEntity
  8
0
100
AcDbLine
 62
7
  6
CONTINUOUS
 10
41.0136291219
 20
216.5619605893
 11
41.0708166211
 21
216.4343010076
  0
LINE
  5
510
100
AcDbEntity
  8
0
100
AcDbLine
 62
7
  6
CONTINUOUS
 10
41.217070537
 20
216.4944640585
 11
41.2440217018
 21
216.4343010076
  0
LINE
  5
511
100
AcDbEntity
  8
0
100
AcDbLine
 62
7
  6
CONTINUOUS
 10
41.1851916142
 20
216.5300456994
 11
41.1280041176
 21
216.6896201485
  0
LINE
  5
512
100
AcDbEntity
  8
0
100
AcDbLine
 62
7
  6
CONTINUOUS
 10
41.7284728983
 20
217.0406839811
 11
41.7570666211
 21
216.9449393117
  0
LINE
  5
513
100
AcDbEntity
  8
0
100
AcDbLine
 62
7
  6
CONTINUOUS
 10
41.9000353983
 20
216.9449393117
 11
41.8714415938
 21
217.072598871
  0
LINE
  5
514
100
AcDbEntity
  8
0
100
AcDbLine
 62
7
  6
CONTINUOUS
 10
42.7578478165
 20
217.0087690913
 11
42.7864416211
 21
216.8811095321
  0
LINE
  5
515
100
AcDbEntity
  8
0
100
AcDbLine
 62
7
  6
CONTINUOUS
 10
43.1581604256
 20
216.5300456994
 11
43.1867540665
 21
216.4023861178
  0
LINE
  5
516
100
AcDbEntity
  8
0
100
AcDbLine
 62
7
  6
CONTINUOUS
 10
43.3561089865
 20
216.4195756013
 11
43.3599591473
 21
216.4023861178
  0
LINE
  5
517
100
AcDbEntity
  8
0
100
AcDbLine
 62
7
  6
CONTINUOUS
 10
42.9294103165
 20
216.8811095321
 11
42.9008166756
 21
217.0406839811
  0
LINE
  5
518
100
AcDbEntity
  8
0
100
AcDbLine
 62
7
  6
CONTINUOUS
 10
43.8730042301
 20
217.0087690913
 11
43.8730042301
 21
216.9130244219
  0
LINE
  5
519
100
AcDbEntity
  8
0
100
AcDbLine
 62
7
  6
CONTINUOUS
 10
43.8730042301
 20
216.7853648179
 11
43.8730042301
 21
216.5938754791
  0
LINE
  5
51A
100
AcDbEntity
  8
0
100
AcDbLine
 62
7
  6
CONTINUOUS
 10
44.015972762
 20
216.4981307873
 11
44.015972762
 21
217.0087690913
  0
LINE
  5
51B
100
AcDbEntity
  8
2_FEATURE
100
AcDbLine
 62
7
  6
CONTINUOUS
 10
44.1268917346
 20
211.0145518146
 11
44.1268917346
 21
213.3145518146
  0
LINE
  5
51C
100
AcDbEntity
  8
2_FEATURE
100
AcDbLine
 62
7
  6
CONTINUOUS
 10
44.1268917346
 20
223.7145518146
 11
44.1268917346
 21
226.5145157013
  0
LINE
  5
51D
100
AcDbEntity
  8
0
100
AcDbLine
 62
7
  6
CONTINUOUS
 10
44.3019104801
 20
217.7428116464
 11
44.3019104801
 21
217.5832371974
  0
LINE
  5
51E
100
AcDbEntity
  8
0
100
AcDbLine
 62
7
  6
CONTINUOUS
 10
44.3019104801
 20
217.2640882098
 11
44.3019104801
 21
216.2428116464
  0
LINE
  5
51F
100
AcDbEntity
  8
0
100
AcDbLine
 62
7
  6
CONTINUOUS
 10
44.444879012
 20
216.2428116464
 11
44.444879012
 21
217.2640882098
  0
LINE
  5
520
100
AcDbEntity
  8
0
100
AcDbLine
 62
7
  6
CONTINUOUS
 10
44.444879012
 20
217.5832371974
 11
44.444879012
 21
217.7428116464
  0
LINE
  5
521
100
AcDbEntity
  8
0
100
AcDbLine
 62
7
  6
CONTINUOUS
 10
44.6736291211
 20
217.2640882098
 11
44.6736291211
 21
216.2428116464
  0
LINE
  5
522
100
AcDbEntity
  8
0
100
AcDbLine
 62
7
  6
CONTINUOUS
 10
44.8165979801
 20
216.2428116464
 11
44.8165979801
 21
216.9768542015
  0
LINE
  5
523
100
AcDbEntity
  8
0
100
AcDbLine
 62
7
  6
CONTINUOUS
 10
44.8165979801
 20
217.1045137608
 11
44.8165979801
 21
217.2640882098
  0
LINE
  5
524
100
AcDbEntity
  8
0
100
AcDbLine
 62
7
  6
CONTINUOUS
 10
44.8468342018
 20
217.1045137608
 11
44.8468342018
 21
217.0106024634
  0
LINE
  5
525
100
AcDbEntity
  8
0
100
AcDbLine
 62
7
  6
CONTINUOUS
 10
45.3312854801
 20
216.8491946423
 11
45.3312854801
 21
216.2428116464
  0
LINE
  5
526
100
AcDbEntity
  8
0
100
AcDbLine
 62
7
  6
CONTINUOUS
 10
45.474254012
 20
216.2428116464
 11
45.474254012
 21
216.8491946423
  0
LINE
  5
527
100
AcDbEntity
  8
0
100
AcDbLine
 62
7
  6
CONTINUOUS
 10
45.7030041211
 20
217.072598871
 11
45.7030041211
 21
217.0087690913
  0
LINE
  5
528
100
AcDbEntity
  8
0
100
AcDbLine
 62
7
  6
CONTINUOUS
 10
43.3011291211
 20
216.5619605893
 11
43.3297229256
 21
216.6577052587
  0
LINE
  5
529
100
AcDbEntity
  8
0
100
AcDbLine
 62
7
  6
CONTINUOUS
 10
41.0708166211
 20
217.072598871
 11
41.0136291219
 21
216.9449393117
  0
LINE
  5
52A
100
AcDbEntity
  8
0
100
AcDbLine
 62
7
  6
CONTINUOUS
 10
41.1565978711
 20
216.9130244219
 11
41.1851916142
 21
216.9768542015
  0
LINE
  5
52B
100
AcDbEntity
  8
0
100
AcDbLine
 62
7
  6
CONTINUOUS
 10
41.2440217018
 20
217.072598871
 11
41.2170705402
 21
217.0124358377
  0
LINE
  5
52C
100
AcDbEntity
  8
0
100
AcDbLine
 62
7
  6
CONTINUOUS
 10
43.1867540665
 20
217.1364286506
 11
43.1581604256
 21
217.072598871
  0
LINE
  5
52D
100
AcDbEntity
  8
0
100
AcDbLine
 62
7
  6
CONTINUOUS
 10
43.3011291211
 20
217.0087690913
 11
43.3297229256
 21
217.072598871
  0
LINE
  5
52E
100
AcDbEntity
  8
0
100
AcDbLine
 62
7
  6
CONTINUOUS
 10
43.3599591473
 20
217.1364286506
 11
43.3319130312
 21
217.0738211144
  0
LINE
  5
52F
100
AcDbEntity
  8
0
100
AcDbLine
 62
7
  6
CONTINUOUS
 10
43.2153478711
 20
216.7534499281
 11
43.1581604256
 21
216.6257903689
  0
LINE
  5
530
100
AcDbEntity
  8
0
100
AcDbLine
 62
7
  6
CONTINUOUS
 10
43.3885529518
 20
216.7534499281
 11
43.3616018098
 21
216.6932868822
  0
LWPOLYLINE
  5
531
100
AcDbEntity
  8
2_FEATURE
100
AcDbPolyline
 62
7
  6
CONTINUOUS
 90
24
 70
0
 10
48.3747160389
 20
230.8615611679
 10
48.2370407956
 20
230.773566203
 10
48.0721571235
 20
230.6639851118
 10
47.9045277008
 20
230.5478687722
 10
47.7342204036
 20
230.4249939709
 10
47.5614024145
 20
230.2951964584
 10
47.3862807404
 20
230.1583355725
 10
47.2089014128
 20
230.0141576689
 10
47.0293913764
 20
229.8625147994
 10
46.8477623684
 20
229.7031533433
 10
46.6640790003
 20
229.5358392029
 10
46.4784416129
 20
229.3603453929
 10
46.2910094499
 20
229.1764760524
 10
46.101828304
 20
228.9839021577
 10
45.9110387268
 20
228.7824433673
 10
45.7185416242
 20
228.5716830547
 10
45.5243648126
 20
228.3512937379
 10
45.3284997751
 20
228.1208581964
 10
45.1310433206
 20
227.8800271374
 10
44.9320212086
 20
227.6283413825
 10
44.7315181401
 20
227.365511862
 10
44.5294791111
 20
227.0910679861
 10
44.3257390811
 20
226.8043247294
 10
44.126891774
 20
226.5145322965
  0
LINE
  5
532
100
AcDbEntity
  8
0
100
AcDbLine
 62
7
  6
CONTINUOUS
 10
41.0708166211
 20
216.4343010076
 11
41.1280041176
 21
216.3704712168
  0
LINE
  5
533
100
AcDbEntity
  8
0
100
AcDbLine
 62
7
  6
CONTINUOUS
 10
41.2440217018
 20
216.4343010076
 11
41.3012091984
 21
216.3704712168
  0
LINE
  5
534
100
AcDbEntity
  8
0
100
AcDbLine
 62
7
  6
CONTINUOUS
 10
41.2709728642
 20
216.4343010076
 11
41.1851916142
 21
216.5300456994
  0
LINE
  5
535
100
AcDbEntity
  8
0
100
AcDbLine
 62
7
  6
CONTINUOUS
 10
42.9008166756
 20
217.0406839811
 11
42.8722228711
 21
217.1045137608
  0
LINE
  5
536
100
AcDbEntity
  8
0
100
AcDbLine
 62
7
  6
CONTINUOUS
 10
43.3297229256
 20
216.4343010076
 11
43.3011291211
 21
216.4981307873
  0
LINE
  5
537
100
AcDbEntity
  8
0
100
AcDbLine
 62
7
  6
CONTINUOUS
 10
43.9015978711
 20
216.3066414316
 11
43.930191512
 21
216.2428116464
  0
LINE
  5
538
100
AcDbEntity
  8
0
100
AcDbLine
 62
7
  6
CONTINUOUS
 10
43.844410262
 20
217.072598871
 11
43.8730042301
 21
217.0087690913
  0
LINE
  5
539
100
AcDbEntity
  8
0
100
AcDbLine
 62
7
  6
CONTINUOUS
 10
43.8730042301
 20
216.4023861178
 11
43.9015978711
 21
216.3066414316
  0
LINE
  5
53A
100
AcDbEntity
  8
0
100
AcDbLine
 62
7
  6
CONTINUOUS
 10
44.0731603711
 20
216.2428116464
 11
44.0445667301
 21
216.338556327
  0
LINE
  5
53B
100
AcDbEntity
  8
0
100
AcDbLine
 62
7
  6
CONTINUOUS
 10
44.015972762
 20
217.0087690913
 11
43.9873791211
 21
217.1045137608
  0
LINE
  5
53C
100
AcDbEntity
  8
0
100
AcDbLine
 62
7
  6
CONTINUOUS
 10
45.4456603711
 20
217.0087690913
 11
45.4170667301
 21
217.1045137608
  0
LINE
  5
53D
100
AcDbEntity
  8
0
100
AcDbLine
 62
7
  6
CONTINUOUS
 10
44.0445667301
 20
216.338556327
 11
44.015972762
 21
216.4981307873
  0
LINE
  5
53E
100
AcDbEntity
  8
0
100
AcDbLine
 62
7
  6
CONTINUOUS
 10
45.302691512
 20
217.0087690913
 11
45.3312854801
 21
216.8491946423
  0
LINE
  5
53F
100
AcDbEntity
  8
0
100
AcDbLine
 62
7
  6
CONTINUOUS
 10
45.474254012
 20
216.8491946423
 11
45.4456603711
 21
217.0087690913
  0
LINE
  5
540
100
AcDbEntity
  8
0
100
AcDbLine
 62
7
  6
CONTINUOUS
 10
46.6180039029
 20
216.4343010076
 11
46.6180039029
 21
216.4981307873
  0
LINE
  5
541
100
AcDbEntity
  8
0
100
AcDbLine
 62
7
  6
CONTINUOUS
 10
43.8730042301
 20
216.5938754791
 11
43.844410262
 21
216.5300456994
  0
LINE
  5
542
100
AcDbEntity
  8
0
100
AcDbLine
 62
7
  6
CONTINUOUS
 10
43.844410262
 20
216.338556327
 11
43.8730042301
 21
216.4023861178
  0
LINE
  5
543
100
AcDbEntity
  8
0
100
AcDbLine
 62
7
  6
CONTINUOUS
 10
45.8459729801
 20
217.0087690913
 11
45.8745666211
 21
217.072598871
  0
LINE
  5
544
100
AcDbEntity
  8
0
100
AcDbLine
 62
7
  6
CONTINUOUS
 10
41.1280041176
 20
217.1364286506
 11
41.0708166211
 21
217.072598871
  0
LINE
  5
545
100
AcDbEntity
  8
0
100
AcDbLine
 62
7
  6
CONTINUOUS
 10
41.3012091984
 20
217.1364286506
 11
41.2440217018
 21
217.072598871
  0
LINE
  5
546
100
AcDbEntity
  8
0
100
AcDbLine
 62
7
  6
CONTINUOUS
 10
41.1851916142
 20
216.9768542015
 11
41.2709728642
 21
217.072598871
  0
LINE
  5
547
100
AcDbEntity
  8
0
100
AcDbLine
 62
7
  6
CONTINUOUS
 10
41.1280041176
 20
216.3704712168
 11
41.2137853779
 21
216.3066414316
  0
LINE
  5
548
100
AcDbEntity
  8
0
100
AcDbLine
 62
7
  6
CONTINUOUS
 10
41.3012091984
 20
216.3704712168
 11
41.3869904586
 21
216.3066414316
  0
LINE
  5
549
100
AcDbEntity
  8
0
100
AcDbLine
 62
7
  6
CONTINUOUS
 10
41.8714415938
 20
217.072598871
 11
41.7856603438
 21
217.1683435404
  0
LINE
  5
54A
100
AcDbEntity
  8
0
100
AcDbLine
 62
7
  6
CONTINUOUS
 10
43.1867540665
 20
216.4023861178
 11
43.2725353165
 21
216.3066414316
  0
LINE
  5
54B
100
AcDbEntity
  8
0
100
AcDbLine
 62
7
  6
CONTINUOUS
 10
42.7006603711
 20
217.072598871
 11
42.7578478165
 21
217.0087690913
  0
LINE
  5
54C
100
AcDbEntity
  8
0
100
AcDbLine
 62
7
  6
CONTINUOUS
 10
43.3599591473
 20
216.4023861178
 11
43.4457403973
 21
216.3066414316
  0
LINE
  5
54D
100
AcDbEntity
  8
0
100
AcDbLine
 62
7
  6
CONTINUOUS
 10
42.8738654518
 20
217.072598871
 11
42.8991741672
 21
217.0443505427
  0
LINE
  5
54E
100
AcDbEntity
  8
0
100
AcDbLine
 62
7
  6
CONTINUOUS
 10
42.8722228711
 20
217.1045137608
 11
42.8150354256
 21
217.1683435404
  0
LINE
  5
54F
100
AcDbEntity
  8
0
100
AcDbLine
 62
7
  6
CONTINUOUS
 10
43.9873791211
 20
217.1045137608
 11
43.930191512
 21
217.1683435404
  0
LINE
  5
550
100
AcDbEntity
  8
0
100
AcDbLine
 62
7
  6
CONTINUOUS
 10
45.7030041211
 20
216.4981307873
 11
45.7601917301
 21
216.3704712168
  0
LINE
  5
551
100
AcDbEntity
  8
0
100
AcDbLine
 62
7
  6
CONTINUOUS
 10
45.8745666211
 20
216.4343010076
 11
45.8459729801
 21
216.4981307873
  0
LINE
  5
552
100
AcDbEntity
  8
0
100
AcDbLine
 62
7
  6
CONTINUOUS
 10
45.9148817969
 20
216.4118021759
 11
45.9333968109
 21
216.3704712168
  0
LINE
  5
553
100
AcDbEntity
  8
0
100
AcDbLine
 62
7
  6
CONTINUOUS
 10
45.7030041211
 20
217.0087690913
 11
45.7601917301
 21
216.8811095321
  0
LINE
  5
554
100
AcDbEntity
  8
0
100
AcDbLine
 62
7
  6
CONTINUOUS
 10
45.8745666211
 20
216.9449393117
 11
45.8459729801
 21
217.0087690913
  0
LINE
  5
555
100
AcDbEntity
  8
0
100
AcDbLine
 62
7
  6
CONTINUOUS
 10
45.9199212423
 20
216.9111909637
 11
45.9333968109
 21
216.8811095321
  0
LINE
  5
556
100
AcDbEntity
  8
0
100
AcDbLine
 62
7
  6
CONTINUOUS
 10
46.4464417301
 20
216.5619605893
 11
46.4750353711
 21
216.4981307873
  0
LINE
  5
557
100
AcDbEntity
  8
0
100
AcDbLine
 62
7
  6
CONTINUOUS
 10
46.6180039029
 20
216.4981307873
 11
46.5608166211
 21
216.6257903689
  0
LINE
  5
558
100
AcDbEntity
  8
0
100
AcDbLine
 62
7
  6
CONTINUOUS
 10
46.4464417301
 20
217.072598871
 11
46.4750353711
 21
217.0087690913
  0
LINE
  5
559
100
AcDbEntity
  8
0
100
AcDbLine
 62
7
  6
CONTINUOUS
 10
46.6180039029
 20
217.0087690913
 11
46.5608166211
 21
217.1364286506
  0
LINE
  5
55A
100
AcDbEntity
  8
2_FEATURE
100
AcDbLine
 62
7
  6
CONTINUOUS
 10
47.3714917491
 20
216.3825597164
 11
47.3414390897
 21
216.2900414852
  0
LINE
  5
55B
100
AcDbEntity
  8
0
100
AcDbLine
 62
7
  6
CONTINUOUS
 10
46.4750353711
 20
216.4981307873
 11
46.4464417301
 21
216.4343010076
  0
LINE
  5
55C
100
AcDbEntity
  8
0
100
AcDbLine
 62
7
  6
CONTINUOUS
 10
45.7601917301
 20
217.1683435404
 11
45.7030041211
 21
217.072598871
  0
LINE
  5
55D
100
AcDbEntity
  8
0
100
AcDbLine
 62
7
  6
CONTINUOUS
 10
45.9333968109
 20
217.1683435404
 11
45.8770304922
 21
217.0739738922
  0
LINE
  5
55E
100
AcDbEntity
  8
0
100
AcDbLine
 62
7
  6
CONTINUOUS
 10
46.5608166211
 20
216.338556327
 11
46.6180039029
 21
216.4343010076
  0
LINE
  5
55F
100
AcDbEntity
  8
0
100
AcDbLine
 62
7
  6
CONTINUOUS
 10
42.3289416483
 20
217.1683435404
 11
42.2717541211
 21
217.1045137608
  0
LINE
  5
560
100
AcDbEntity
  8
0
100
AcDbLine
 62
7
  6
CONTINUOUS
 10
42.2717541211
 20
216.9768542015
 11
42.3289416483
 21
217.0406839811
  0
LINE
  5
561
100
AcDbEntity
  8
0
100
AcDbLine
 62
7
  6
CONTINUOUS
 10
42.5021467291
 20
217.1683435404
 11
42.4550379969
 21
217.115763194
  0
LINE
  5
562
100
AcDbEntity
  8
0
100
AcDbLine
 62
7
  6
CONTINUOUS
 10
41.7856603438
 20
216.338556327
 11
41.8714415938
 21
216.4343010076
  0
LINE
  5
563
100
AcDbEntity
  8
0
100
AcDbLine
 62
7
  6
CONTINUOUS
 10
43.2439416756
 20
217.2002584302
 11
43.1867540665
 21
217.1364286506
  0
LINE
  5
564
100
AcDbEntity
  8
0
100
AcDbLine
 62
7
  6
CONTINUOUS
 10
43.4171467564
 20
217.2002584302
 11
43.3599591473
 21
217.1364286506
  0
LINE
  5
565
100
AcDbEntity
  8
0
100
AcDbLine
 62
7
  6
CONTINUOUS
 10
43.2725353165
 20
216.8172797525
 11
43.2153478711
 21
216.7534499281
  0
LINE
  5
566
100
AcDbEntity
  8
0
100
AcDbLine
 62
7
  6
CONTINUOUS
 10
43.4457403973
 20
216.8172797525
 11
43.3885529518
 21
216.7534499281
  0
LINE
  5
567
100
AcDbEntity
  8
0
100
AcDbLine
 62
7
  6
CONTINUOUS
 10
43.3297229256
 20
216.6577052587
 11
43.3869103711
 21
216.7215350383
  0
LINE
  5
568
100
AcDbEntity
  8
0
100
AcDbLine
 62
7
  6
CONTINUOUS
 10
43.844410262
 20
216.5300456994
 11
43.758629012
 21
216.4343010076
  0
LINE
  5
569
100
AcDbEntity
  8
0
100
AcDbLine
 62
7
  6
CONTINUOUS
 10
44.015972762
 20
216.5282123339
 11
43.9318340927
 21
216.4343010076
  0
LINE
  5
56A
100
AcDbEntity
  8
0
100
AcDbLine
 62
7
  6
CONTINUOUS
 10
44.873785262
 20
217.1683435404
 11
44.8165979801
 21
217.1045137608
  0
LINE
  5
56B
100
AcDbEntity
  8
0
100
AcDbLine
 62
7
  6
CONTINUOUS
 10
44.8165979801
 20
216.9768542015
 11
44.873785262
 21
217.0406839811
  0
LINE
  5
56C
100
AcDbEntity
  8
0
100
AcDbLine
 62
7
  6
CONTINUOUS
 10
45.0469903427
 20
217.1683435404
 11
44.9998818336
 21
217.1157632173
  0
LINE
  5
56D
100
AcDbEntity
  8
0
100
AcDbLine
 62
7
  6
CONTINUOUS
 10
94.1768917346
 20
206.0145518146
 11
53.5792920598
 21
206.0145518146
  0
LINE
  5
56E
100
AcDbEntity
  8
2_FEATURE
100
AcDbLine
 62
7
  6
CONTINUOUS
 10
30.0768917346
 20
206.0145518146
 11
53.5792920598
 21
206.0145518146
  0
LINE
  5
56F
100
AcDbEntity
  8
0
100
AcDbLine
 62
7
  6
CONTINUOUS
 10
41.6426916074
 20
217.1045137608
 11
41.7284728983
 21
217.0406839811
  0
LINE
  5
570
100
AcDbEntity
  8
0
100
AcDbLine
 62
7
  6
CONTINUOUS
 10
41.8158966882
 20
217.1045137608
 11
41.8739724502
 21
217.0612996397
  0
LINE
  5
571
100
AcDbEntity
  8
0
100
AcDbLine
 62
7
  6
CONTINUOUS
 10
42.8150354256
 20
217.1683435404
 11
42.7292541756
 21
217.23217332
  0
LINE
  5
572
100
AcDbEntity
  8
0
100
AcDbLine
 62
7
  6
CONTINUOUS
 10
43.930191512
 20
217.1683435404
 11
43.844410262
 21
217.23217332
  0
LINE
  5
573
100
AcDbEntity
  8
0
100
AcDbLine
 62
7
  6
CONTINUOUS
 10
45.7601917301
 20
216.8811095321
 11
45.8745666211
 21
216.7853648179
  0
LINE
  5
574
100
AcDbEntity
  8
0
100
AcDbLine
 62
7
  6
CONTINUOUS
 10
45.9333968109
 20
216.8811095321
 11
46.0477717018
 21
216.7853648179
  0
LINE
  5
575
100
AcDbEntity
  8
0
100
AcDbLine
 62
7
  6
CONTINUOUS
 10
45.2455042301
 20
217.072598871
 11
45.302691512
 21
217.0087690913
  0
LINE
  5
576
100
AcDbEntity
  8
0
100
AcDbLine
 62
7
  6
CONTINUOUS
 10
45.4187093109
 20
217.072598871
 11
45.4305422602
 21
217.0593914842
  0
LINE
  5
577
100
AcDbEntity
  8
0
100
AcDbLine
 62
7
  6
CONTINUOUS
 10
45.4170667301
 20
217.1045137608
 11
45.3598791211
 21
217.1683435404
  0
LWPOLYLINE
  5
578
100
AcDbEntity
  8
2_FEATURE
100
AcDbPolyline
 62
7
  6
CONTINUOUS
 90
36
 70
0
 10
47.3414391328
 20
220.7390620166
 10
47.3712033254
 20
220.6474637322
 10
47.4030556778
 20
220.5417547088
 10
47.4332951438
 20
220.4327883041
 10
47.4618507021
 20
220.3207110599
 10
47.48866613
 20
220.2056568103
 10
47.5136914697
 20
220.0877657037
 10
47.5368801304
 20
219.9671960516
 10
47.5581939558
 20
219.8441003202
 10
47.577596308
 20
219.7186459476
 10
47.5950577562
 20
219.5909954205
 10
47.6105491166
 20
219.4613187033
 10
47.6240441432
 20
219.3298044029
 10
47.6355196455
 20
219.1966170425
 10
47.6449467403
 20
219.0620365785
 10
47.6523044532
 20
218.9263148277
 10
47.6575743541
 20
218.7897384706
 10
47.6607452159
 20
218.6525917915
 10
47.6618086946
 20
218.5151581896
 10
47.6607638153
 20
218.3777232906
 10
47.6576115155
 20
218.240572786
 10
47.6523600802
 20
218.1039901192
 10
47.6450207214
 20
217.9682596458
 10
47.6356117961
 20
217.8336681122
 10
47.6241542757
 20
217.700467459
 10
47.6106769717
 20
217.5689377413
 10
47.5952030822
 20
217.4392436691
 10
47.5777588173
 20
217.3115740165
 10
47.5583733511
 20
217.1860989173
 10
47.5370761071
 20
217.0629810329
 10
47.5139036949
 20
216.9423879525
 10
47.4888942724
 20
216.8244722854
 10
47.4620944078
 20
216.7093925309
 10
47.4335540823
 20
216.5972890435
 10
47.4033295198
 20
216.4882958684
 10
47.3714917491
 20
216.3825597164
  0
LINE
  5
579
100
AcDbEntity
  8
0
100
AcDbLine
 62
7
  6
CONTINUOUS
 10
41.2137853779
 20
217.2002584302
 11
41.1280041176
 21
217.1364286506
  0
LINE
  5
57A
100
AcDbEntity
  8
0
100
AcDbLine
 62
7
  6
CONTINUOUS
 10
41.3869904586
 20
217.2002584302
 11
41.3012091984
 21
217.1364286506
  0
LINE
  5
57B
100
AcDbEntity
  8
0
100
AcDbLine
 62
7
  6
CONTINUOUS
 10
42.4147228165
 20
217.23217332
 11
42.3289416483
 21
217.1683435404
  0
LINE
  5
57C
100
AcDbEntity
  8
0
100
AcDbLine
 62
7
  6
CONTINUOUS
 10
42.3289416483
 20
217.0406839811
 11
42.4147228165
 21
217.1045137608
  0
LINE
  5
57D
100
AcDbEntity
  8
0
100
AcDbLine
 62
7
  6
CONTINUOUS
 10
42.5879278973
 20
217.23217332
 11
42.5021467291
 21
217.1683435404
  0
LINE
  5
57E
100
AcDbEntity
  8
0
100
AcDbLine
 62
7
  6
CONTINUOUS
 10
41.7284728983
 20
216.4662158975
 11
41.6426916074
 21
216.4023861178
  0
LINE
  5
57F
100
AcDbEntity
  8
0
100
AcDbLine
 62
7
  6
CONTINUOUS
 10
41.8739724496
 20
216.4456002385
 11
41.8158966882
 21
216.4023861178
  0
LINE
  5
580
100
AcDbEntity
  8
0
100
AcDbLine
 62
7
  6
CONTINUOUS
 10
44.959566512
 20
217.23217332
 11
44.873785262
 21
217.1683435404
  0
LINE
  5
581
100
AcDbEntity
  8
0
100
AcDbLine
 62
7
  6
CONTINUOUS
 10
41.2137853779
 20
216.3066414316
 11
41.2995666279
 21
216.274726539
  0
LINE
  5
582
100
AcDbEntity
  8
0
100
AcDbLine
 62
7
  6
CONTINUOUS
 10
41.3869904586
 20
216.3066414316
 11
41.4727717086
 21
216.274726539
  0
LINE
  5
583
100
AcDbEntity
  8
0
100
AcDbLine
 62
7
  6
CONTINUOUS
 10
41.4425353847
 20
216.3704712168
 11
41.2709728642
 21
216.4343010076
  0
LINE
  5
584
100
AcDbEntity
  8
0
100
AcDbLine
 62
7
  6
CONTINUOUS
 10
43.2725353165
 20
216.3066414316
 11
43.3297229256
 21
216.274726539
  0
LINE
  5
585
100
AcDbEntity
  8
0
100
AcDbLine
 62
7
  6
CONTINUOUS
 10
41.7856603438
 20
217.1683435404
 11
41.6712853711
 21
217.23217332
  0
LINE
  5
586
100
AcDbEntity
  8
0
100
AcDbLine
 62
7
  6
CONTINUOUS
 10
43.4457403973
 20
216.3066414316
 11
43.5029280064
 21
216.274726539
  0
LINE
  5
587
100
AcDbEntity
  8
0
100
AcDbLine
 62
7
  6
CONTINUOUS
 10
43.4440978165
 20
216.3704712168
 11
43.3297229256
 21
216.4343010076
  0
LINE
  5
588
100
AcDbEntity
  8
0
100
AcDbLine
 62
7
  6
CONTINUOUS
 10
42.6434729256
 20
217.1045137608
 11
42.7006603711
 21
217.072598871
  0
LINE
  5
589
100
AcDbEntity
  8
0
100
AcDbLine
 62
7
  6
CONTINUOUS
 10
42.8166780064
 20
217.1045137608
 11
42.8738654518
 21
217.072598871
  0
LINE
  5
58A
100
AcDbEntity
  8
0
100
AcDbLine
 62
7
  6
CONTINUOUS
 10
43.7872229801
 20
217.1045137608
 11
43.844410262
 21
217.072598871
  0
LINE
  5
58B
100
AcDbEntity
  8
0
100
AcDbLine
 62
7
  6
CONTINUOUS
 10
43.9604280609
 20
217.1045137608
 11
43.9927693331
 21
217.0864648501
  0
LINE
  5
58C
100
AcDbEntity
  8
0
100
AcDbLine
 62
7
  6
CONTINUOUS
 10
45.9317542301
 20
216.4023861178
 11
45.8745666211
 21
216.4343010076
  0
LINE
  5
58D
100
AcDbEntity
  8
0
100
AcDbLine
 62
7
  6
CONTINUOUS
 10
45.1883166211
 20
217.1045137608
 11
45.2455042301
 21
217.072598871
  0
LINE
  5
58E
100
AcDbEntity
  8
0
100
AcDbLine
 62
7
  6
CONTINUOUS
 10
45.3615217018
 20
217.1045137608
 11
45.4187093109
 21
217.072598871
  0
LINE
  5
58F
100
AcDbEntity
  8
0
100
AcDbLine
 62
7
  6
CONTINUOUS
 10
45.7601917301
 20
216.3704712168
 11
45.8459729801
 21
216.3066414316
  0
LINE
  5
590
100
AcDbEntity
  8
0
100
AcDbLine
 62
7
  6
CONTINUOUS
 10
45.9333968109
 20
216.3704712168
 11
46.0191780609
 21
216.3066414316
  0
LINE
  5
591
100
AcDbEntity
  8
0
100
AcDbLine
 62
7
  6
CONTINUOUS
 10
45.3598791211
 20
217.1683435404
 11
45.2740978711
 21
217.23217332
  0
LINE
  5
592
100
AcDbEntity
  8
0
100
AcDbLine
 62
7
  6
CONTINUOUS
 10
45.9603478711
 20
216.8811095321
 11
45.8745666211
 21
216.9449393117
  0
LINE
  5
593
100
AcDbEntity
  8
0
100
AcDbLine
 62
7
  6
CONTINUOUS
 10
46.3606604801
 20
216.6257903689
 11
46.4464417301
 21
216.5619605893
  0
LINE
  5
594
100
AcDbEntity
  8
0
100
AcDbLine
 62
7
  6
CONTINUOUS
 10
46.5338655609
 20
216.6257903689
 11
46.5742920705
 21
216.5957090259
  0
LINE
  5
595
100
AcDbEntity
  8
0
100
AcDbLine
 62
7
  6
CONTINUOUS
 10
46.5608166211
 20
217.1364286506
 11
46.4750353711
 21
217.2002584302
  0
LINE
  5
596
100
AcDbEntity
  8
0
100
AcDbLine
 62
7
  6
CONTINUOUS
 10
46.5608166211
 20
216.6257903689
 11
46.4464417301
 21
216.7215350383
  0
LINE
  5
597
100
AcDbEntity
  8
0
100
AcDbLine
 62
7
  6
CONTINUOUS
 10
43.758629012
 20
216.274726539
 11
43.844410262
 21
216.338556327
  0
LINE
  5
598
100
AcDbEntity
  8
0
100
AcDbLine
 62
7
  6
CONTINUOUS
 10
44.873785262
 20
217.0406839811
 11
44.959566512
 21
217.1045137608
  0
LINE
  5
599
100
AcDbEntity
  8
0
100
AcDbLine
 62
7
  6
CONTINUOUS
 10
45.1327715927
 20
217.23217332
 11
45.0469903427
 21
217.1683435404
  0
LINE
  5
59A
100
AcDbEntity
  8
0
100
AcDbLine
 62
7
  6
CONTINUOUS
 10
41.2709728642
 20
217.072598871
 11
41.3281603711
 21
217.1045137608
  0
LINE
  5
59B
100
AcDbEntity
  8
0
100
AcDbLine
 62
7
  6
CONTINUOUS
 10
43.3011291211
 20
217.23217332
 11
43.2439416756
 21
217.2002584302
  0
LINE
  5
59C
100
AcDbEntity
  8
0
100
AcDbLine
 62
7
  6
CONTINUOUS
 10
41.6712853711
 20
216.274726539
 11
41.7856603438
 21
216.338556327
  0
LINE
  5
59D
100
AcDbEntity
  8
0
100
AcDbLine
 62
7
  6
CONTINUOUS
 10
43.4743342018
 20
217.23217332
 11
43.4171467564
 21
217.2002584302
  0
LINE
  5
59E
100
AcDbEntity
  8
0
100
AcDbLine
 62
7
  6
CONTINUOUS
 10
43.3297229256
 20
217.072598871
 11
43.3869103711
 21
217.1045137608
  0
LINE
  5
59F
100
AcDbEntity
  8
0
100
AcDbLine
 62
7
  6
CONTINUOUS
 10
43.3869103711
 20
216.8811095321
 11
43.2725353165
 21
216.8172797525
  0
LINE
  5
5A0
100
AcDbEntity
  8
0
100
AcDbLine
 62
7
  6
CONTINUOUS
 10
43.5601154518
 20
216.8811095321
 11
43.4457403973
 21
216.8172797525
  0
LINE
  5
5A1
100
AcDbEntity
  8
0
100
AcDbLine
 62
7
  6
CONTINUOUS
 10
43.3869103711
 20
216.7215350383
 11
43.4440978165
 21
216.7534499281
  0
LINE
  5
5A2
100
AcDbEntity
  8
0
100
AcDbLine
 62
7
  6
CONTINUOUS
 10
43.3297229256
 20
216.274726539
 11
43.4440978165
 21
216.2428116464
  0
LINE
  5
5A3
100
AcDbEntity
  8
0
100
AcDbLine
 62
7
  6
CONTINUOUS
 10
43.5029280064
 20
216.274726539
 11
43.6157789723
 21
216.2432368788
  0
LINE
  5
5A4
100
AcDbEntity
  8
0
100
AcDbLine
 62
7
  6
CONTINUOUS
 10
42.7292541756
 20
217.23217332
 11
42.6434729256
 21
217.2640882098
  0
LINE
  5
5A5
100
AcDbEntity
  8
0
100
AcDbLine
 62
7
  6
CONTINUOUS
 10
45.8459729801
 20
216.3066414316
 11
45.9317542301
 21
216.274726539
  0
LINE
  5
5A6
100
AcDbEntity
  8
0
100
AcDbLine
 62
7
  6
CONTINUOUS
 10
46.0191780609
 20
216.3066414316
 11
46.1049593109
 21
216.274726539
  0
LINE
  5
5A7
100
AcDbEntity
  8
0
100
AcDbLine
 62
7
  6
CONTINUOUS
 10
45.2740978711
 20
217.23217332
 11
45.1883166211
 21
217.2640882098
  0
LINE
  5
5A8
100
AcDbEntity
  8
0
100
AcDbLine
 62
7
  6
CONTINUOUS
 10
46.3892541211
 20
217.1045137608
 11
46.4464417301
 21
217.072598871
  0
LINE
  5
5A9
100
AcDbEntity
  8
0
100
AcDbLine
 62
7
  6
CONTINUOUS
 10
46.5624592018
 20
217.1045137608
 11
46.5793314892
 21
217.0950977841
  0
LINE
  5
5AA
100
AcDbEntity
  8
0
100
AcDbLine
 62
7
  6
CONTINUOUS
 10
45.8745666211
 20
217.23217332
 11
45.7601917301
 21
217.1683435404
  0
LINE
  5
5AB
100
AcDbEntity
  8
0
100
AcDbLine
 62
7
  6
CONTINUOUS
 10
46.0477717018
 20
217.23217332
 11
45.9333968109
 21
217.1683435404
  0
LINE
  5
5AC
100
AcDbEntity
  8
0
100
AcDbLine
 62
7
  6
CONTINUOUS
 10
45.8745666211
 20
217.072598871
 11
45.9317542301
 21
217.1045137608
  0
LINE
  5
5AD
100
AcDbEntity
  8
0
100
AcDbLine
 62
7
  6
CONTINUOUS
 10
46.4464417301
 20
216.4343010076
 11
46.3892541211
 21
216.4023861178
  0
LINE
  5
5AE
100
AcDbEntity
  8
0
100
AcDbLine
 62
7
  6
CONTINUOUS
 10
46.6171824561
 20
216.4329257165
 11
46.5624592018
 21
216.4023861178
  0
LINE
  5
5AF
100
AcDbEntity
  8
0
100
AcDbLine
 62
7
  6
CONTINUOUS
 10
46.4464417301
 20
216.274726539
 11
46.5608166211
 21
216.338556327
  0
LINE
  5
5B0
100
AcDbEntity
  8
0
100
AcDbLine
 62
7
  6
CONTINUOUS
 10
43.758629012
 20
216.4343010076
 11
43.6156603165
 21
216.3704712168
  0
LINE
  5
5B1
100
AcDbEntity
  8
0
100
AcDbLine
 62
7
  6
CONTINUOUS
 10
43.9318340927
 20
216.4343010076
 11
43.7888653973
 21
216.3704712168
  0
LINE
  5
5B2
100
AcDbEntity
  8
0
100
AcDbLine
 62
7
  6
CONTINUOUS
 10
41.2995666279
 20
217.23217332
 11
41.2137853779
 21
217.2002584302
  0
LINE
  5
5B3
100
AcDbEntity
  8
0
100
AcDbLine
 62
7
  6
CONTINUOUS
 10
41.4727717086
 20
217.23217332
 11
41.3869904586
 21
217.2002584302
  0
LWPOLYLINE
  5
5B4
100
AcDbEntity
  8
2_FEATURE
100
AcDbPolyline
 62
7
  6
CONTINUOUS
 90
61
 70
0
 10
30.1294072837
 20
212.0144667144
 10
30.1169124211
 20
212.0143351168
 10
30.1043016177
 20
212.014135421
 10
30.0915155591
 20
212.0138596642
 10
30.0785001806
 20
212.0134983258
 10
30.0651937119
 20
212.0130398168
 10
30.0515539553
 20
212.0124712423
 10
30.0375275356
 20
212.0117772967
 10
30.0230806618
 20
212.010941542
 10
30.0081736495
 20
212.009945268
 10
29.9927710709
 20
212.0087679078
 10
29.9768629743
 20
212.0073890094
 10
29.9603411226
 20
212.0057767082
 10
29.943136278
 20
212.0038976417
 10
29.9251419096
 20
212.0017088951
 10
29.9062573612
 20
211.999161018
 10
29.8864181958
 20
211.9962022337
 10
29.8655347488
 20
211.9927696584
 10
29.8436036605
 20
211.9888074772
 10
29.8205899922
 20
211.9842491014
 10
29.7965202462
 20
211.9790348748
 10
29.7714048435
 20
211.9730984346
 10
29.7452806129
 20
211.9663762441
 10
29.7181836209
 20
211.9588022852
 10
29.6901524237
 20
211.9503088234
 10
29.6612274114
 20
211.940826236
 10
29.6314673787
 20
211.9302890218
 10
29.6009304516
 20
211.9186304575
 10
29.5696871225
 20
211.9057878154
 10
29.5378062316
 20
211.8916975596
 10
29.5053780694
 20
211.876306182
 10
29.4724914909
 20
211.8595615742
 10
29.4392430477
 20
211.8414178672
 10
29.4057343995
 20
211.8218352562
 10
29.3720588584
 20
211.8007723487
 10
29.3383172013
 20
211.7781952852
 10
29.3046072424
 20
211.7540716041
 10
29.2710311071
 20
211.7283751959
 10
29.2376929299
 20
211.7010853577
 10
29.2047023989
 20
211.6721905315
 10
29.1721572546
 20
211.6416731008
 10
29.1401865842
 20
211.6095505417
 10
29.1088189745
 20
211.5757397531
 10
29.0781303963
 20
211.540194204
 10
29.0481650296
 20
211.5028168465
 10
29.0189930251
 20
211.4635200189
 10
28.9907006484
 20
211.4222152828
 10
28.9633676028
 20
211.3787753518
 10
28.9371849668
 20
211.3332294961
 10
28.9122808492
 20
211.2854944087
 10
28.8889588064
 20
211.2358407231
 10
28.8674429869
 20
211.1844701537
 10
28.8479467747
 20
211.1316525597
 10
28.8306424375
 20
211.0776681047
 10
28.8156639639
 20
211.0228147269
 10
28.8031051382
 20
210.9674044398
 10
28.7930181615
 20
210.9117588021
 10
28.7854131825
 20
210.856205021
 10
28.780258414
 20
210.8010714235
 10
28.7774843238
 20
210.7467920618
 10
28.7768917526
 20
210.7075245543
  0
LINE
  5
5B5
100
AcDbEntity
  8
2_FEATURE
100
AcDbLine
 62
7
  6
CONTINUOUS
 10
30.1511174201
 20
212.0145517831
 11
30.1294072837
 21
212.0144667144
  0
LINE
  5
5B6
100
AcDbEntity
  8
2_FEATURE
100
AcDbLine
 62
7
  6
CONTINUOUS
 10
30.1511818792
 20
212.0145518136
 11
30.1511228767
 21
212.0145518146
  0
LINE
  5
5B7
100
AcDbEntity
  8
0
100
AcDbLine
 62
7
  6
CONTINUOUS
 10
94.1012725246
 20
212.0145518146
 11
88.3205732495
 21
212.0145518146
  0
LINE
  5
5B8
100
AcDbEntity
  8
2_FEATURE
100
AcDbLine
 62
7
  6
CONTINUOUS
 10
35.9332102196
 20
212.0145518146
 11
30.1525109446
 21
212.0145518146
  0
LINE
  5
5B9
100
AcDbEntity
  8
0
100
AcDbLine
 62
7
  6
CONTINUOUS
 10
41.4425353847
 20
217.1364286506
 11
41.6426916074
 21
217.1045137608
  0
LINE
  5
5BA
100
AcDbEntity
  8
0
100
AcDbLine
 62
7
  6
CONTINUOUS
 10
41.6157404654
 20
217.1364286506
 11
41.8158966882
 21
217.1045137608
  0
LINE
  5
5BB
100
AcDbEntity
  8
0
100
AcDbLine
 62
7
  6
CONTINUOUS
 10
41.6712853711
 20
217.23217332
 11
41.4711291074
 21
217.2640882098
  0
LINE
  5
5BC
100
AcDbEntity
  8
0
100
AcDbLine
 62
7
  6
CONTINUOUS
 10
41.2995666279
 20
216.274726539
 11
41.4711291074
 21
216.2428116464
  0
LINE
  5
5BD
100
AcDbEntity
  8
0
100
AcDbLine
 62
7
  6
CONTINUOUS
 10
41.4727717086
 20
216.274726539
 11
41.5643933897
 21
216.2576826252
  0
LINE
  5
5BE
100
AcDbEntity
  8
0
100
AcDbLine
 62
7
  6
CONTINUOUS
 10
45.9317542301
 20
216.274726539
 11
46.1033167301
 21
216.2428116464
  0
LINE
  5
5BF
100
AcDbEntity
  8
0
100
AcDbLine
 62
7
  6
CONTINUOUS
 10
46.1049593109
 20
216.274726539
 11
46.2749341708
 21
216.243106987
  0
LINE
  5
5C0
100
AcDbEntity
  8
0
100
AcDbLine
 62
7
  6
CONTINUOUS
 10
46.1033167301
 20
216.3704712168
 11
45.9317542301
 21
216.4023861178
  0
LINE
  5
5C1
100
AcDbEntity
  8
0
100
AcDbLine
 62
7
  6
CONTINUOUS
 10
43.844410262
 20
217.23217332
 11
43.6728479256
 21
217.2640882098
  0
LINE
  5
5C2
100
AcDbEntity
  8
0
100
AcDbLine
 62
7
  6
CONTINUOUS
 10
42.5290978711
 20
217.1364286506
 11
42.6434729256
 21
217.1045137608
  0
LINE
  5
5C3
100
AcDbEntity
  8
0
100
AcDbLine
 62
7
  6
CONTINUOUS
 10
42.7023029518
 20
217.1364286506
 11
42.8166780064
 21
217.1045137608
  0
LINE
  5
5C4
100
AcDbEntity
  8
0
100
AcDbLine
 62
7
  6
CONTINUOUS
 10
43.6728479256
 20
217.1364286506
 11
43.7872229801
 21
217.1045137608
  0
LINE
  5
5C5
100
AcDbEntity
  8
0
100
AcDbLine
 62
7
  6
CONTINUOUS
 10
43.8460530064
 20
217.1364286506
 11
43.9604280609
 21
217.1045137608
  0
LINE
  5
5C6
100
AcDbEntity
  8
0
100
AcDbLine
 62
7
  6
CONTINUOUS
 10
45.0739417301
 20
217.1364286506
 11
45.1883166211
 21
217.1045137608
  0
LINE
  5
5C7
100
AcDbEntity
  8
0
100
AcDbLine
 62
7
  6
CONTINUOUS
 10
45.2471468109
 20
217.1364286506
 11
45.3615217018
 21
217.1045137608
  0
LINE
  5
5C8
100
AcDbEntity
  8
0
100
AcDbLine
 62
7
  6
CONTINUOUS
 10
45.8745666211
 20
216.7853648179
 11
46.3606604801
 21
216.6257903689
  0
LINE
  5
5C9
100
AcDbEntity
  8
0
100
AcDbLine
 62
7
  6
CONTINUOUS
 10
46.0477717018
 20
216.7853648179
 11
46.5338655609
 21
216.6257903689
  0
LINE
  5
5CA
100
AcDbEntity
  8
0
100
AcDbLine
 62
7
  6
CONTINUOUS
 10
46.4464417301
 20
216.7215350383
 11
45.9603478711
 21
216.8811095321
  0
LINE
  5
5CB
100
AcDbEntity
  8
0
100
AcDbLine
 62
7
  6
CONTINUOUS
 10
46.4750353711
 20
217.2002584302
 11
46.3892541211
 21
217.23217332
  0
LINE
  5
5CC
100
AcDbEntity
  8
0
100
AcDbLine
 62
7
  6
CONTINUOUS
 10
79.1268917346
 20
214.3145518146
 11
78.1542824593
 21
214.3145518146
  0
LINE
  5
5CD
100
AcDbEntity
  8
2_FEATURE
100
AcDbLine
 62
7
  6
CONTINUOUS
 10
45.1268917346
 20
214.3145518146
 11
46.0995010515
 21
214.3145518146
  0
LINE
  5
5CE
100
AcDbEntity
  8
0
100
AcDbLine
 62
7
  6
CONTINUOUS
 10
37.6050353711
 20
216.2428116464
 11
37.7057027801
 21
216.2428116464
  0
LINE
  5
5CF
100
AcDbEntity
  8
0
100
AcDbLine
 62
7
  6
CONTINUOUS
 10
38.0050353711
 20
216.2428116464
 11
38.3450353711
 21
216.2428116464
  0
LINE
  5
5D0
100
AcDbEntity
  8
0
100
AcDbLine
 62
7
  6
CONTINUOUS
 10
38.4250353711
 20
216.2428116464
 11
38.7650353711
 21
216.2428116464
  0
LINE
  5
5D1
100
AcDbEntity
  8
0
100
AcDbLine
 62
7
  6
CONTINUOUS
 10
39.2250353711
 20
216.2428116464
 11
39.5650353711
 21
216.2428116464
  0
LINE
  5
5D2
100
AcDbEntity
  8
0
100
AcDbLine
 62
7
  6
CONTINUOUS
 10
39.6450353711
 20
216.2428116464
 11
39.9850353711
 21
216.2428116464
  0
LINE
  5
5D3
100
AcDbEntity
  8
0
100
AcDbLine
 62
7
  6
CONTINUOUS
 10
42.1287853438
 20
216.2428116464
 11
42.2717541211
 21
216.2428116464
  0
LINE
  5
5D4
100
AcDbEntity
  8
0
100
AcDbLine
 62
7
  6
CONTINUOUS
 10
42.7864416211
 20
216.2428116464
 11
42.9294103165
 21
216.2428116464
  0
LINE
  5
5D5
100
AcDbEntity
  8
0
100
AcDbLine
 62
7
  6
CONTINUOUS
 10
43.4440978165
 20
216.2428116464
 11
43.6156603165
 21
216.2428116464
  0
LINE
  5
5D6
100
AcDbEntity
  8
0
100
AcDbLine
 62
7
  6
CONTINUOUS
 10
43.930191512
 20
216.2428116464
 11
44.0731603711
 21
216.2428116464
  0
LINE
  5
5D7
100
AcDbEntity
  8
0
100
AcDbLine
 62
7
  6
CONTINUOUS
 10
44.3019104801
 20
216.2428116464
 11
44.444879012
 21
216.2428116464
  0
LINE
  5
5D8
100
AcDbEntity
  8
0
100
AcDbLine
 62
7
  6
CONTINUOUS
 10
44.6736291211
 20
216.2428116464
 11
44.8165979801
 21
216.2428116464
  0
LINE
  5
5D9
100
AcDbEntity
  8
0
100
AcDbLine
 62
7
  6
CONTINUOUS
 10
45.3312854801
 20
216.2428116464
 11
45.474254012
 21
216.2428116464
  0
LINE
  5
5DA
100
AcDbEntity
  8
0
100
AcDbLine
 62
7
  6
CONTINUOUS
 10
46.1033167301
 20
216.2428116464
 11
46.2748792301
 21
216.2428116464
  0
LINE
  5
5DB
100
AcDbEntity
  8
0
100
AcDbLine
 62
7
  6
CONTINUOUS
 10
41.2995666279
 20
216.274726539
 11
41.4727717086
 21
216.274726539
  0
LINE
  5
5DC
100
AcDbEntity
  8
0
100
AcDbLine
 62
7
  6
CONTINUOUS
 10
43.3297229256
 20
216.274726539
 11
43.5029280064
 21
216.274726539
  0
LINE
  5
5DD
100
AcDbEntity
  8
0
100
AcDbLine
 62
7
  6
CONTINUOUS
 10
45.9317542301
 20
216.274726539
 11
46.1049593109
 21
216.274726539
  0
LINE
  5
5DE
100
AcDbEntity
  8
0
100
AcDbLine
 62
7
  6
CONTINUOUS
 10
41.2137853779
 20
216.3066414316
 11
41.3869904586
 21
216.3066414316
  0
LINE
  5
5DF
100
AcDbEntity
  8
0
100
AcDbLine
 62
7
  6
CONTINUOUS
 10
43.2725353165
 20
216.3066414316
 11
43.4457403973
 21
216.3066414316
  0
LINE
  5
5E0
100
AcDbEntity
  8
0
100
AcDbLine
 62
7
  6
CONTINUOUS
 10
43.9015978711
 20
216.3066414316
 11
44.0540979443
 21
216.3066414316
  0
LINE
  5
5E1
100
AcDbEntity
  8
0
100
AcDbLine
 62
7
  6
CONTINUOUS
 10
45.8459729801
 20
216.3066414316
 11
46.0191780609
 21
216.3066414316
  0
LINE
  5
5E2
100
AcDbEntity
  8
0
100
AcDbLine
 62
7
  6
CONTINUOUS
 10
41.1280041176
 20
216.3704712168
 11
41.3012091984
 21
216.3704712168
  0
LINE
  5
5E3
100
AcDbEntity
  8
0
100
AcDbLine
 62
7
  6
CONTINUOUS
 10
41.4425353847
 20
216.3704712168
 11
41.6157404654
 21
216.3704712168
  0
LINE
  5
5E4
100
AcDbEntity
  8
0
100
AcDbLine
 62
7
  6
CONTINUOUS
 10
43.4440978165
 20
216.3704712168
 11
43.7888653973
 21
216.3704712168
  0
LINE
  5
5E5
100
AcDbEntity
  8
0
100
AcDbLine
 62
7
  6
CONTINUOUS
 10
45.7601917301
 20
216.3704712168
 11
45.9333968109
 21
216.3704712168
  0
LINE
  5
5E6
100
AcDbEntity
  8
0
100
AcDbLine
 62
7
  6
CONTINUOUS
 10
46.1033167301
 20
216.3704712168
 11
46.4480843109
 21
216.3704712168
  0
LINE
  5
5E7
100
AcDbEntity
  8
0
100
AcDbLine
 62
7
  6
CONTINUOUS
 10
41.6426916074
 20
216.4023861178
 11
41.8158966882
 21
216.4023861178
  0
LINE
  5
5E8
100
AcDbEntity
  8
0
100
AcDbLine
 62
7
  6
CONTINUOUS
 10
43.1867540665
 20
216.4023861178
 11
43.3599591473
 21
216.4023861178
  0
LINE
  5
5E9
100
AcDbEntity
  8
0
100
AcDbLine
 62
7
  6
CONTINUOUS
 10
43.8730042301
 20
216.4023861178
 11
44.0331291417
 21
216.4023861178
  0
LINE
  5
5EA
100
AcDbEntity
  8
0
100
AcDbLine
 62
7
  6
CONTINUOUS
 10
46.3892541211
 20
216.4023861178
 11
46.5624592018
 21
216.4023861178
  0
LINE
  5
5EB
100
AcDbEntity
  8
0
100
AcDbLine
 62
7
  6
CONTINUOUS
 10
41.0708166211
 20
216.4343010076
 11
41.2440217018
 21
216.4343010076
  0
LINE
  5
5EC
100
AcDbEntity
  8
0
100
AcDbLine
 62
7
  6
CONTINUOUS
 10
43.758629012
 20
216.4343010076
 11
43.9318340927
 21
216.4343010076
  0
LINE
  5
5ED
100
AcDbEntity
  8
0
100
AcDbLine
 62
7
  6
CONTINUOUS
 10
46.4464417301
 20
216.4343010076
 11
46.6180039029
 21
216.4343010076
  0
LINE
  5
5EE
100
AcDbEntity
  8
0
100
AcDbLine
 62
7
  6
CONTINUOUS
 10
46.2176916211
 20
217.1364286506
 11
46.3892541211
 21
217.1045137608
  0
LINE
  5
5EF
100
AcDbEntity
  8
0
100
AcDbLine
 62
7
  6
CONTINUOUS
 10
46.3908967018
 20
217.1364286506
 11
46.5624592018
 21
217.1045137608
  0
LINE
  5
5F0
100
AcDbEntity
  8
0
100
AcDbLine
 62
7
  6
CONTINUOUS
 10
46.3892541211
 20
217.23217332
 11
46.2176916211
 21
217.2640882098
  0
LINE
  5
5F1
100
AcDbEntity
  8
DEFAULT_1
100
AcDbLine
 62
2
  6
CENTER
 10
62.1268917346
 20
237.3885318206
 11
62.1268917346
 21
220.5146518146
  0
LINE
  5
5F2
100
AcDbEntity
  8
1_AXIS
100
AcDbLine
 62
2
  6
CENTER
 10
62.1268917346
 20
224.9129093311
 11
62.1268917346
 21
224.8099050282
  0
LINE
  5
5F3
100
AcDbEntity
  8
1_AXIS
100
AcDbLine
 62
2
  6
CENTER
 10
62.1268917346
 20
222.4691198846
 11
62.1268917346
 21
222.3372883855
  0
LINE
  5
5F4
100
AcDbEntity
  8
0
100
AcDbLine
 62
2
  6
CONTINUOUS
 10
62.1268917346
 20
219.3945518146
 11
62.1268917346
 21
217.6345518146
  0
LINE
  5
5F5
100
AcDbEntity
  8
DEFAULT_1
100
AcDbLine
 62
2
  6
CENTER
 10
62.1268917346
 20
199.9029876345
 11
62.1268917346
 21
216.5144518146
  0
LINE
  5
5F6
100
AcDbEntity
  8
0
100
AcDbLine
 62
7
  6
CONTINUOUS
 10
41.7284728983
 20
216.4662158975
 11
41.8785900437
 21
216.4662158975
  0
LINE
  5
5F7
100
AcDbEntity
  8
0
100
AcDbLine
 62
7
  6
CONTINUOUS
 10
45.8459729801
 20
216.4981307873
 11
45.7030041211
 21
216.4981307873
  0
LINE
  5
5F8
100
AcDbEntity
  8
0
100
AcDbLine
 62
7
  6
CONTINUOUS
 10
46.4750353711
 20
216.4981307873
 11
46.6180039029
 21
216.4981307873
  0
LINE
  5
5F9
100
AcDbEntity
  8
0
100
AcDbLine
 62
7
  6
CONTINUOUS
 10
43.1581604256
 20
216.5300456994
 11
43.3011291211
 21
216.5300456994
  0
LINE
  5
5FA
100
AcDbEntity
  8
0
100
AcDbLine
 62
7
  6
CONTINUOUS
 10
43.844410262
 20
216.5300456994
 11
44.015972762
 21
216.5300456994
  0
LINE
  5
5FB
100
AcDbEntity
  8
0
100
AcDbLine
 62
7
  6
CONTINUOUS
 10
41.9000353983
 20
216.5619605893
 11
41.7570666211
 21
216.5619605893
  0
LINE
  5
5FC
100
AcDbEntity
  8
0
100
AcDbLine
 62
7
  6
CONTINUOUS
 10
41.0136291219
 20
216.5619605893
 11
41.1737541149
 21
216.5619605893
  0
LINE
  5
5FD
100
AcDbEntity
  8
0
100
AcDbLine
 62
7
  6
CONTINUOUS
 10
46.4464417301
 20
216.5619605893
 11
46.589410257
 21
216.5619605893
  0
LINE
  5
5FE
100
AcDbEntity
  8
0
100
AcDbLine
 62
7
  6
CONTINUOUS
 10
38.0050353711
 20
216.5628116464
 11
38.1782404518
 21
216.5628116464
  0
LINE
  5
5FF
100
AcDbEntity
  8
0
100
AcDbLine
 62
7
  6
CONTINUOUS
 10
43.8730042301
 20
216.5938754791
 11
44.015972762
 21
216.5938754791
  0
LINE
  5
600
100
AcDbEntity
  8
0
100
AcDbLine
 62
7
  6
CONTINUOUS
 10
43.1581604256
 20
216.6257903689
 11
43.3201916574
 21
216.6257903689
  0
LINE
  5
601
100
AcDbEntity
  8
0
100
AcDbLine
 62
7
  6
CONTINUOUS
 10
46.3606604801
 20
216.6257903689
 11
46.5338655609
 21
216.6257903689
  0
LINE
  5
602
100
AcDbEntity
  8
0
100
AcDbLine
 62
7
  6
CONTINUOUS
 10
40.9850353711
 20
216.7534499281
 11
41.1280041176
 21
216.7534499281
  0
LINE
  5
603
100
AcDbEntity
  8
0
100
AcDbLine
 62
7
  6
CONTINUOUS
 10
43.2153478711
 20
216.7534499281
 11
43.3885529518
 21
216.7534499281
  0
LINE
  5
604
100
AcDbEntity
  8
0
100
AcDbLine
 62
7
  6
CONTINUOUS
 10
43.5584728711
 20
216.7853648179
 11
44.015972762
 21
216.7853648179
  0
LINE
  5
605
100
AcDbEntity
  8
0
100
AcDbLine
 62
7
  6
CONTINUOUS
 10
45.8745666211
 20
216.7853648179
 11
46.0477717018
 21
216.7853648179
  0
LINE
  5
606
100
AcDbEntity
  8
0
100
AcDbLine
 62
7
  6
CONTINUOUS
 10
37.9782404518
 20
216.8028116464
 11
37.6450353711
 21
216.8028116464
  0
LINE
  5
607
100
AcDbEntity
  8
0
100
AcDbLine
 62
7
  6
CONTINUOUS
 10
43.2725353165
 20
216.8172797525
 11
43.4457403973
 21
216.8172797525
  0
LINE
  5
608
100
AcDbEntity
  8
0
100
AcDbLine
 62
7
  6
CONTINUOUS
 10
45.3312854801
 20
216.8491946423
 11
45.474254012
 21
216.8491946423
  0
LINE
  5
609
100
AcDbEntity
  8
0
100
AcDbLine
 62
7
  6
CONTINUOUS
 10
42.7864416211
 20
216.8811095321
 11
42.9294103165
 21
216.8811095321
  0
LINE
  5
60A
100
AcDbEntity
  8
0
100
AcDbLine
 62
7
  6
CONTINUOUS
 10
43.3869103711
 20
216.8811095321
 11
43.5601154518
 21
216.8811095321
  0
LINE
  5
60B
100
AcDbEntity
  8
0
100
AcDbLine
 62
7
  6
CONTINUOUS
 10
45.7601917301
 20
216.8811095321
 11
45.9333968109
 21
216.8811095321
  0
LINE
  5
60C
100
AcDbEntity
  8
0
100
AcDbLine
 62
7
  6
CONTINUOUS
 10
43.5584728711
 20
216.9130244219
 11
44.015972762
 21
216.9130244219
  0
LINE
  5
60D
100
AcDbEntity
  8
0
100
AcDbLine
 62
7
  6
CONTINUOUS
 10
41.0136291219
 20
216.9449393117
 11
41.1708947426
 21
216.9449393117
  0
LINE
  5
60E
100
AcDbEntity
  8
0
100
AcDbLine
 62
7
  6
CONTINUOUS
 10
41.7570666211
 20
216.9449393117
 11
41.9000353983
 21
216.9449393117
  0
LINE
  5
60F
100
AcDbEntity
  8
0
100
AcDbLine
 62
7
  6
CONTINUOUS
 10
42.7578478165
 20
217.0087690913
 11
42.9065354038
 21
217.0087690913
  0
LINE
  5
610
100
AcDbEntity
  8
0
100
AcDbLine
 62
7
  6
CONTINUOUS
 10
43.1581604256
 20
217.0087690913
 11
43.3011291211
 21
217.0087690913
  0
LINE
  5
611
100
AcDbEntity
  8
0
100
AcDbLine
 62
7
  6
CONTINUOUS
 10
43.8730042301
 20
217.0087690913
 11
44.015972762
 21
217.0087690913
  0
LINE
  5
612
100
AcDbEntity
  8
0
100
AcDbLine
 62
7
  6
CONTINUOUS
 10
45.302691512
 20
217.0087690913
 11
45.4456603711
 21
217.0087690913
  0
LINE
  5
613
100
AcDbEntity
  8
0
100
AcDbLine
 62
7
  6
CONTINUOUS
 10
45.7030041211
 20
217.0087690913
 11
45.8459729801
 21
217.0087690913
  0
LINE
  5
614
100
AcDbEntity
  8
0
100
AcDbLine
 62
7
  6
CONTINUOUS
 10
46.4750353711
 20
217.0087690913
 11
46.6180039029
 21
217.0087690913
  0
LINE
  5
615
100
AcDbEntity
  8
0
100
AcDbLine
 62
7
  6
CONTINUOUS
 10
41.7284728983
 20
217.0406839811
 11
41.8785900449
 21
217.0406839811
  0
LINE
  5
616
100
AcDbEntity
  8
0
100
AcDbLine
 62
7
  6
CONTINUOUS
 10
41.0708166211
 20
217.072598871
 11
41.2440217018
 21
217.072598871
  0
LINE
  5
617
100
AcDbEntity
  8
0
100
AcDbLine
 62
7
  6
CONTINUOUS
 10
42.7006603711
 20
217.072598871
 11
42.8738654518
 21
217.072598871
  0
LINE
  5
618
100
AcDbEntity
  8
0
100
AcDbLine
 62
7
  6
CONTINUOUS
 10
43.1581604256
 20
217.072598871
 11
43.3297229256
 21
217.072598871
  0
LINE
  5
619
100
AcDbEntity
  8
0
100
AcDbLine
 62
7
  6
CONTINUOUS
 10
43.844410262
 20
217.072598871
 11
43.9969103347
 21
217.072598871
  0
LINE
  5
61A
100
AcDbEntity
  8
0
100
AcDbLine
 62
7
  6
CONTINUOUS
 10
45.2455042301
 20
217.072598871
 11
45.4187093109
 21
217.072598871
  0
LINE
  5
61B
100
AcDbEntity
  8
0
100
AcDbLine
 62
7
  6
CONTINUOUS
 10
45.7030041211
 20
217.072598871
 11
45.8745666211
 21
217.072598871
  0
LINE
  5
61C
100
AcDbEntity
  8
0
100
AcDbLine
 62
7
  6
CONTINUOUS
 10
46.4464417301
 20
217.072598871
 11
46.589410262
 21
217.072598871
  0
LINE
  5
61D
100
AcDbEntity
  8
0
100
AcDbLine
 62
7
  6
CONTINUOUS
 10
41.6426916074
 20
217.1045137608
 11
41.8158966882
 21
217.1045137608
  0
LINE
  5
61E
100
AcDbEntity
  8
0
100
AcDbLine
 62
7
  6
CONTINUOUS
 10
42.2717541211
 20
217.1045137608
 11
42.4147228165
 21
217.1045137608
  0
LINE
  5
61F
100
AcDbEntity
  8
0
100
AcDbLine
 62
7
  6
CONTINUOUS
 10
42.6434729256
 20
217.1045137608
 11
42.8166780064
 21
217.1045137608
  0
LINE
  5
620
100
AcDbEntity
  8
0
100
AcDbLine
 62
7
  6
CONTINUOUS
 10
43.7872229801
 20
217.1045137608
 11
43.9604280609
 21
217.1045137608
  0
LINE
  5
621
100
AcDbEntity
  8
0
100
AcDbLine
 62
7
  6
CONTINUOUS
 10
44.8165979801
 20
217.1045137608
 11
44.959566512
 21
217.1045137608
  0
LINE
  5
622
100
AcDbEntity
  8
0
100
AcDbLine
 62
7
  6
CONTINUOUS
 10
45.1883166211
 20
217.1045137608
 11
45.3615217018
 21
217.1045137608
  0
LINE
  5
623
100
AcDbEntity
  8
0
100
AcDbLine
 62
7
  6
CONTINUOUS
 10
46.3892541211
 20
217.1045137608
 11
46.5624592018
 21
217.1045137608
  0
LINE
  5
624
100
AcDbEntity
  8
0
100
AcDbLine
 62
7
  6
CONTINUOUS
 10
41.1280041176
 20
217.1364286506
 11
41.3012091984
 21
217.1364286506
  0
LINE
  5
625
100
AcDbEntity
  8
0
100
AcDbLine
 62
7
  6
CONTINUOUS
 10
41.4425353847
 20
217.1364286506
 11
41.6157404654
 21
217.1364286506
  0
LINE
  5
626
100
AcDbEntity
  8
0
100
AcDbLine
 62
7
  6
CONTINUOUS
 10
42.5290978711
 20
217.1364286506
 11
42.7023029518
 21
217.1364286506
  0
LINE
  5
627
100
AcDbEntity
  8
0
100
AcDbLine
 62
7
  6
CONTINUOUS
 10
43.1867540665
 20
217.1364286506
 11
43.3599591473
 21
217.1364286506
  0
LINE
  5
628
100
AcDbEntity
  8
0
100
AcDbLine
 62
7
  6
CONTINUOUS
 10
43.5012854256
 20
217.1364286506
 11
43.8460530064
 21
217.1364286506
  0
LINE
  5
629
100
AcDbEntity
  8
0
100
AcDbLine
 62
7
  6
CONTINUOUS
 10
45.0739417301
 20
217.1364286506
 11
45.2471468109
 21
217.1364286506
  0
LINE
  5
62A
100
AcDbEntity
  8
0
100
AcDbLine
 62
7
  6
CONTINUOUS
 10
46.0461291211
 20
217.1364286506
 11
46.3908967018
 21
217.1364286506
  0
LINE
  5
62B
100
AcDbEntity
  8
0
100
AcDbLine
 62
7
  6
CONTINUOUS
 10
42.3289416483
 20
217.1683435404
 11
42.5021467291
 21
217.1683435404
  0
LINE
  5
62C
100
AcDbEntity
  8
0
100
AcDbLine
 62
7
  6
CONTINUOUS
 10
44.873785262
 20
217.1683435404
 11
45.0469903427
 21
217.1683435404
  0
LINE
  5
62D
100
AcDbEntity
  8
0
100
AcDbLine
 62
7
  6
CONTINUOUS
 10
45.7601917301
 20
217.1683435404
 11
45.9333968109
 21
217.1683435404
  0
LINE
  5
62E
100
AcDbEntity
  8
0
100
AcDbLine
 62
7
  6
CONTINUOUS
 10
41.2137853779
 20
217.2002584302
 11
41.3869904586
 21
217.2002584302
  0
LINE
  5
62F
100
AcDbEntity
  8
0
100
AcDbLine
 62
7
  6
CONTINUOUS
 10
43.2439416756
 20
217.2002584302
 11
43.4171467564
 21
217.2002584302
  0
LINE
  5
630
100
AcDbEntity
  8
0
100
AcDbLine
 62
7
  6
CONTINUOUS
 10
41.2995666279
 20
217.23217332
 11
41.4727717086
 21
217.23217332
  0
LINE
  5
631
100
AcDbEntity
  8
0
100
AcDbLine
 62
7
  6
CONTINUOUS
 10
42.4147228165
 20
217.23217332
 11
42.5879278973
 21
217.23217332
  0
LINE
  5
632
100
AcDbEntity
  8
0
100
AcDbLine
 62
7
  6
CONTINUOUS
 10
43.3011291211
 20
217.23217332
 11
43.4743342018
 21
217.23217332
  0
LINE
  5
633
100
AcDbEntity
  8
0
100
AcDbLine
 62
7
  6
CONTINUOUS
 10
44.959566512
 20
217.23217332
 11
45.1327715927
 21
217.23217332
  0
LINE
  5
634
100
AcDbEntity
  8
0
100
AcDbLine
 62
7
  6
CONTINUOUS
 10
45.8745666211
 20
217.23217332
 11
46.0477717018
 21
217.23217332
  0
LINE
  5
635
100
AcDbEntity
  8
0
100
AcDbLine
 62
7
  6
CONTINUOUS
 10
46.2176916211
 20
217.2640882098
 11
46.0461291211
 21
217.2640882098
  0
LINE
  5
636
100
AcDbEntity
  8
0
100
AcDbLine
 62
7
  6
CONTINUOUS
 10
45.1883166211
 20
217.2640882098
 11
45.0739417301
 21
217.2640882098
  0
LINE
  5
637
100
AcDbEntity
  8
0
100
AcDbLine
 62
7
  6
CONTINUOUS
 10
44.8165979801
 20
217.2640882098
 11
44.6736291211
 21
217.2640882098
  0
LINE
  5
638
100
AcDbEntity
  8
0
100
AcDbLine
 62
7
  6
CONTINUOUS
 10
44.444879012
 20
217.2640882098
 11
44.3019104801
 21
217.2640882098
  0
LINE
  5
639
100
AcDbEntity
  8
0
100
AcDbLine
 62
7
  6
CONTINUOUS
 10
43.6728479256
 20
217.2640882098
 11
43.5012854256
 21
217.2640882098
  0
LINE
  5
63A
100
AcDbEntity
  8
0
100
AcDbLine
 62
7
  6
CONTINUOUS
 10
42.6434729256
 20
217.2640882098
 11
42.5290978711
 21
217.2640882098
  0
LINE
  5
63B
100
AcDbEntity
  8
0
100
AcDbLine
 62
7
  6
CONTINUOUS
 10
38.9650353711
 20
217.5228116464
 11
39.2982404518
 21
217.5228116464
  0
LINE
  5
63C
100
AcDbEntity
  8
0
100
AcDbLine
 62
7
  6
CONTINUOUS
 10
44.3019104801
 20
217.5832371974
 11
44.444879012
 21
217.5832371974
  0
LINE
  5
63D
100
AcDbEntity
  8
0
100
AcDbLine
 62
7
  6
CONTINUOUS
 10
44.444879012
 20
217.7428116464
 11
44.3019104801
 21
217.7428116464
  0
LINE
  5
63E
100
AcDbEntity
  8
0
100
AcDbLine
 62
7
  6
CONTINUOUS
 10
42.2717541211
 20
217.7428116464
 11
42.1287853438
 21
217.7428116464
  0
LINE
  5
63F
100
AcDbEntity
  8
0
100
AcDbLine
 62
7
  6
CONTINUOUS
 10
38.7650353711
 20
217.7628116464
 11
38.9382404518
 21
217.7628116464
  0
LINE
  5
640
100
AcDbEntity
  8
0
100
AcDbLine
 62
7
  6
CONTINUOUS
 10
39.9850353711
 20
218.0828116464
 11
39.6450353711
 21
218.0828116464
  0
LINE
  5
641
100
AcDbEntity
  8
0
100
AcDbLine
 62
7
  6
CONTINUOUS
 10
39.1650353711
 20
218.0828116464
 11
39.064367962
 21
218.0828116464
  0
LINE
  5
642
100
AcDbEntity
  8
0
100
AcDbLine
 62
7
  6
CONTINUOUS
 10
38.7650353711
 20
218.0828116464
 11
38.4250353711
 21
218.0828116464
  0
LINE
  5
643
100
AcDbEntity
  8
0
100
AcDbLine
 62
7
  6
CONTINUOUS
 10
38.3450353711
 20
218.0828116464
 11
38.0050353711
 21
218.0828116464
  0
LINE
  5
644
100
AcDbEntity
  8
0
100
AcDbLine
 62
7
  6
CONTINUOUS
 10
37.5450353711
 20
218.0828116464
 11
37.2050353711
 21
218.0828116464
  0
LINE
  5
645
100
AcDbEntity
  8
DEFAULT_1
100
AcDbLine
 62
2
  6
CENTER
 10
98.9543339868
 20
218.5145518146
 11
64.1269917346
 21
218.5145518146
  0
LINE
  5
646
100
AcDbEntity
  8
0
100
AcDbLine
 62
2
  6
CONTINUOUS
 10
63.0068917346
 20
218.5145518146
 11
61.2468917346
 21
218.5145518146
  0
LINE
  5
647
100
AcDbEntity
  8
DEFAULT_1
100
AcDbLine
 62
2
  6
CENTER
 10
24.9262781728
 20
218.5145518146
 11
60.1267917346
 21
218.5145518146
  0
LWPOLYLINE
  5
648
100
AcDbEntity
  8
2_FEATURE
100
AcDbPolyline
 62
7
  6
CONTINUOUS
 90
106
 70
0
 10
46.0789822933
 20
222.7247426174
 10
46.0779062734
 20
222.7251047068
 10
46.0805664083
 20
222.7240081159
 10
46.0865212371
 20
222.7212825624
 10
46.0956527623
 20
222.7166746054
 10
46.107828557
 20
222.7099606063
 10
46.1229717158
 20
222.7009039257
 10
46.140993626
 20
222.6892851278
 10
46.1618566062
 20
222.6748586678
 10
46.1855266446
 20
222.6573751376
 10
46.2119520935
 20
222.6365961971
 10
46.241118076
 20
222.612250303
 10
46.2728798179
 20
222.5841731401
 10
46.3071205984
 20
222.5521867003
 10
46.3436856214
 20
222.5161573121
 10
46.3824209965
 20
222.4759628612
 10
46.4231579461
 20
222.4315085376
 10
46.4657244999
 20
222.382715935
 10
46.509934376
 20
222.3295365678
 10
46.555595452
 20
222.271943605
 10
46.6025168069
 20
222.2099236352
 10
46.6505046871
 20
222.1434809955
 10
46.6993479763
 20
222.0726596828
 10
46.7488387159
 20
221.9975173123
 10
46.7987562938
 20
221.9181496947
 10
46.8488804853
 20
221.8346744258
 10
46.8989988953
 20
221.7472189035
 10
46.9488963971
 20
221.6559386728
 10
46.9983722832
 20
221.5609883891
 10
47.0472212934
 20
221.4625562036
 10
47.0952664201
 20
221.3608008377
 10
47.142328261
 20
221.2559085182
 10
47.1882412901
 20
221.1480628194
 10
47.2328442653
 20
221.0374630245
 10
47.2759870705
 20
220.9243126616
 10
47.3175215852
 20
220.8088420171
 10
47.3573330151
 20
220.6912236247
 10
47.3953034741
 20
220.571667245
 10
47.4313446697
 20
220.4503212922
 10
47.4653698698
 20
220.3273528085
 10
47.4973008891
 20
220.2029273802
 10
47.5270662831
 20
220.0772175708
 10
47.5546068529
 20
219.9503775288
 10
47.5798660957
 20
219.8225889116
 10
47.6028116301
 20
219.6939437116
 10
47.6234106123
 20
219.5645608611
 10
47.6416379971
 20
219.4345315129
 10
47.6574722206
 20
219.3039519394
 10
47.6708944833
 20
219.172915637
 10
47.6818904242
 20
219.0415192069
 10
47.6904492329
 20
218.9098417859
 10
47.6965636462
 20
218.7779724378
 10
47.7002289811
 20
218.6459716584
 10
47.7014432894
 20
218.5139068797
 10
47.7002050342
 20
218.3818424372
 10
47.6965157711
 20
218.2498426644
 10
47.690377468
 20
218.1179750086
 10
47.6817948261
 20
217.986299962
 10
47.6707751371
 20
217.8549066606
 10
47.6573292422
 20
217.7238742912
 10
47.6414715396
 20
217.593299529
 10
47.6232208724
 20
217.4632759382
 10
47.6025988489
 20
217.3338998608
 10
47.5796305628
 20
217.2052625009
 10
47.5543489234
 20
217.0774829111
 10
47.5267863783
 20
216.9506531716
 10
47.4969995235
 20
216.8249550682
 10
47.4650476573
 20
216.7005428657
 10
47.431002319
 20
216.5775892051
 10
47.3949417963
 20
216.4562597438
 10
47.3569529275
 20
216.336721605
 10
47.3171241099
 20
216.2191232573
 10
47.2755733597
 20
216.1036745485
 10
47.2324156054
 20
215.9905480966
 10
47.1877990736
 20
215.879974159
 10
47.1418739897
 20
215.7721562457
 10
47.0948016973
 20
215.6672936054
 10
47.0467478163
 20
215.5655697588
 10
46.9978918475
 20
215.4671708851
 10
46.9484108917
 20
215.3722556501
 10
46.8985102766
 20
215.2810120809
 10
46.8483907745
 20
215.1935947166
 10
46.798267553
 20
215.1101589402
 10
46.748353039
 20
215.030831985
 10
46.6988674803
 20
214.9557312691
 10
46.6500315173
 20
214.884952439
 10
46.6020530543
 20
214.8185528406
 10
46.5551431727
 20
214.7565762422
 10
46.5094955337
 20
214.6990266985
 10
46.4653009735
 20
214.6458905433
 10
46.4227515154
 20
214.5971406868
 10
46.3820333163
 20
214.5527283727
 10
46.3433183143
 20
214.5125750418
 10
46.3067752125
 20
214.4765856867
 10
46.2725578633
 20
214.4446380393
 10
46.2408210963
 20
214.41659833
 10
46.2116812568
 20
214.3922881202
 10
46.1852829215
 20
214.3715428457
 10
46.1616405143
 20
214.3540906156
 10
46.1408052098
 20
214.3396927799
 10
46.1228112883
 20
214.3281001612
 10
46.1076965219
 20
214.3190672756
 10
46.0955497848
 20
214.3123747839
 10
46.0864482052
 20
214.3077860642
 10
46.0805245502
 20
214.3050774622
 10
46.0799854207
 20
214.3048468048
  0
LINE
  5
649
100
AcDbEntity
  8
0
100
AcDbLine
 62
7
  6
CONTINUOUS
 10
46.5624592018
 20
216.4023861178
 11
46.4480843109
 21
216.3704712168
  0
LINE
  5
64A
100
AcDbEntity
  8
0
100
AcDbLine
 62
7
  6
CONTINUOUS
 10
46.3892541211
 20
216.4023861178
 11
46.2748792301
 21
216.3704712168
  0
LINE
  5
64B
100
AcDbEntity
  8
0
100
AcDbLine
 62
7
  6
CONTINUOUS
 10
43.6156603165
 20
216.2428116464
 11
43.758629012
 21
216.274726539
  0
LINE
  5
64C
100
AcDbEntity
  8
0
100
AcDbLine
 62
7
  6
CONTINUOUS
 10
46.2748792301
 20
216.2428116464
 11
46.4464417301
 21
216.274726539
  0
LINE
  5
64D
100
AcDbEntity
  8
0
100
AcDbLine
 62
7
  6
CONTINUOUS
 10
46.2177465617
 20
217.2637928693
 11
46.0477717018
 21
217.23217332
  0
LINE
  5
64E
100
AcDbEntity
  8
0
100
AcDbLine
 62
7
  6
CONTINUOUS
 10
46.0461291211
 20
217.2640882098
 11
45.8745666211
 21
217.23217332
  0
LINE
  5
64F
100
AcDbEntity
  8
0
100
AcDbLine
 62
7
  6
CONTINUOUS
 10
43.7316779518
 20
216.9130244219
 11
43.5601154518
 21
216.8811095321
  0
LINE
  5
650
100
AcDbEntity
  8
0
100
AcDbLine
 62
7
  6
CONTINUOUS
 10
43.5584728711
 20
216.9130244219
 11
43.3869103711
 21
216.8811095321
  0
LINE
  5
651
100
AcDbEntity
  8
0
100
AcDbLine
 62
7
  6
CONTINUOUS
 10
41.5643933897
 20
217.2492172323
 11
41.4727717086
 21
217.23217332
  0
LINE
  5
652
100
AcDbEntity
  8
0
100
AcDbLine
 62
7
  6
CONTINUOUS
 10
41.4711291074
 20
217.2640882098
 11
41.2995666279
 21
217.23217332
  0
LINE
  5
653
100
AcDbEntity
  8
0
100
AcDbLine
 62
7
  6
CONTINUOUS
 10
41.4711291074
 20
216.2428116464
 11
41.6712853711
 21
216.274726539
  0
LINE
  5
654
100
AcDbEntity
  8
0
100
AcDbLine
 62
7
  6
CONTINUOUS
 10
41.8158966882
 20
216.4023861178
 11
41.6157404654
 21
216.3704712168
  0
LINE
  5
655
100
AcDbEntity
  8
0
100
AcDbLine
 62
7
  6
CONTINUOUS
 10
41.6426916074
 20
216.4023861178
 11
41.4425353847
 21
216.3704712168
  0
LINE
  5
656
100
AcDbEntity
  8
0
100
AcDbLine
 62
7
  6
CONTINUOUS
 10
43.6728886516
 20
217.2638327943
 11
43.4743342018
 21
217.23217332
  0
LINE
  5
657
100
AcDbEntity
  8
0
100
AcDbLine
 62
7
  6
CONTINUOUS
 10
43.5012854256
 20
217.2640882098
 11
43.3011291211
 21
217.23217332
  0
LWPOLYLINE
  5
658
100
AcDbEntity
  8
0
100
AcDbPolyline
 62
7
  6
CONTINUOUS
 90
106
 70
0
 10
78.1747695813
 20
214.3043713417
 10
78.1758869058
 20
214.3039952118
 10
78.1732610292
 20
214.3050765527
 10
78.1673371707
 20
214.3077851508
 10
78.1582340087
 20
214.3123746131
 10
78.1460845404
 20
214.3190686559
 10
78.1309665528
 20
214.328103652
 10
78.112969514
 20
214.3396986134
 10
78.0921319926
 20
214.354098443
 10
78.0684896823
 20
214.3715511195
 10
78.0420926613
 20
214.3922958521
 10
78.0129544831
 20
214.4166051026
 10
77.9812193757
 20
214.4446436969
 10
77.9470027815
 20
214.4765909363
 10
77.9104600125
 20
214.5125802384
 10
77.8717451559
 20
214.5527336869
 10
77.8310269846
 20
214.5971462411
 10
77.7884776392
 20
214.6458962427
 10
77.7442831965
 20
214.6990325323
 10
77.6986356665
 20
214.756582217
 10
77.6517258911
 20
214.8185589569
 10
77.6037475336
 20
214.8849586955
 10
77.5549116774
 20
214.9557376626
 10
77.5054262292
 20
215.0308385083
 10
77.4555118318
 20
215.1101655825
 10
77.4053887352
 20
215.1936014622
 10
77.355269369
 20
215.281018908
 10
77.3053689038
 20
215.372262529
 10
77.2558881122
 20
215.4671777817
 10
77.2070323246
 20
215.5655766296
 10
77.1589786371
 20
215.6673004111
 10
77.1119065481
 20
215.7721629476
 10
77.065981674
 20
215.8799807218
 10
77.0213653553
 20
215.9905544881
 10
76.9782078143
 20
216.1036807403
 10
76.9366572746
 20
216.2191292259
 10
76.8968286626
 20
216.33672733
 10
76.858839992
 20
216.4562652102
 10
76.8227796597
 20
216.5775943975
 10
76.7887345032
 20
216.7005477699
 10
76.7567828094
 20
216.8249596704
 10
76.7269961172
 20
216.9506574585
 10
76.6994337238
 20
217.0774868707
 10
76.6741522248
 20
217.2052661224
 10
76.651184067
 20
217.333903135
 10
76.6305621593
 20
217.4632788576
 10
76.6123115947
 20
217.5933020871
 10
76.5964539815
 20
217.7238764828
 10
76.5830081624
 20
217.8549084812
 10
76.5719885353
 20
217.9863014084
 10
76.5634059414
 20
218.1179760786
 10
76.5572676722
 20
218.2498433567
 10
76.5535784291
 20
218.3818427508
 10
76.5523401798
 20
218.5139068143
 10
76.5535544798
 20
218.645971214
 10
76.5572197925
 20
218.7779716149
 10
76.5633341694
 20
218.9098405855
 10
76.5718929277
 20
219.0415176302
 10
76.5828888043
 20
219.1729136864
 10
76.596310989
 20
219.3039496183
 10
76.6121451208
 20
219.4345288257
 10
76.6303724007
 20
219.5645578131
 10
76.6509712649
 20
219.6939403096
 10
76.6739166687
 20
219.8225851629
 10
76.6991757689
 20
219.9503734428
 10
76.7267161847
 20
220.0772131584
 10
76.7564814141
 20
220.2029226536
 10
76.7884122589
 20
220.3273477813
 10
76.8224372752
 20
220.4503159782
 10
76.8584782784
 20
220.5716616585
 10
76.8964485374
 20
220.6912177814
 10
76.9362597599
 20
220.808835932
 10
76.9777940624
 20
220.9243063553
 10
77.0209366528
 20
221.0374565208
 10
77.0655394135
 20
221.1480561469
 10
77.1114522315
 20
221.2559017092
 10
77.1585138678
 20
221.3607939276
 10
77.2065588
 20
221.4625492314
 10
77.2554076282
 20
221.5609813943
 10
77.3048833494
 20
221.655931699
 10
77.3547807009
 20
221.747211985
 10
77.4048989747
 20
221.8346675925
 10
77.4550230412
 20
221.9181429686
 10
77.5049405027
 20
221.9975107091
 10
77.5544311321
 20
222.0726532135
 10
77.6032743151
 20
222.1434746672
 10
77.6512620906
 20
222.2099174514
 10
77.6981833403
 20
222.271937567
 10
77.7438443087
 20
222.3295306752
 10
77.7880540689
 20
222.3827101815
 10
77.8306205127
 20
222.4315029345
 10
77.8713574377
 20
222.4759575039
 10
77.9100926728
 20
222.5161520799
 10
77.9466573723
 20
222.5521814256
 10
77.9808974097
 20
222.584167469
 10
78.0126575096
 20
222.6122435319
 10
78.0418218416
 20
222.6365884745
 10
78.0682459661
 20
222.657366864
 10
78.0919158923
 20
222.6748508293
 10
78.1127810782
 20
222.6892792773
 10
78.1308060988
 20
222.7009004158
 10
78.1459524786
 20
222.7099592097
 10
78.1581310098
 20
222.716674765
 10
78.1672641279
 20
222.7212834714
 10
78.1732191746
 20
222.7240090279
 10
78.1737624829
 20
222.7242417152
  0
LINE
  5
659
100
AcDbEntity
  8
0
100
AcDbLine
 62
7
  6
CONTINUOUS
 10
45.9317542301
 20
217.1045137608
 11
46.0461291211
 21
217.1364286506
  0
LINE
  5
65A
100
AcDbEntity
  8
0
100
AcDbLine
 62
7
  6
CONTINUOUS
 10
44.959566512
 20
217.1045137608
 11
45.0739417301
 21
217.1364286506
  0
LINE
  5
65B
100
AcDbEntity
  8
0
100
AcDbLine
 62
7
  6
CONTINUOUS
 10
43.4440978165
 20
216.7534499281
 11
43.5584728711
 21
216.7853648179
  0
LINE
  5
65C
100
AcDbEntity
  8
0
100
AcDbLine
 62
7
  6
CONTINUOUS
 10
45.2135295321
 20
217.2547077534
 11
45.1327715927
 21
217.23217332
  0
LINE
  5
65D
100
AcDbEntity
  8
0
100
AcDbLine
 62
7
  6
CONTINUOUS
 10
45.0739417301
 20
217.2640882098
 11
44.959566512
 21
217.23217332
  0
LINE
  5
65E
100
AcDbEntity
  8
0
100
AcDbLine
 62
7
  6
CONTINUOUS
 10
43.3869103711
 20
217.1045137608
 11
43.5012854256
 21
217.1364286506
  0
LINE
  5
65F
100
AcDbEntity
  8
0
100
AcDbLine
 62
7
  6
CONTINUOUS
 10
42.4147228165
 20
217.1045137608
 11
42.5290978711
 21
217.1364286506
  0
LINE
  5
660
100
AcDbEntity
  8
0
100
AcDbLine
 62
7
  6
CONTINUOUS
 10
42.6686857871
 20
217.2547077718
 11
42.5879278973
 21
217.23217332
  0
LINE
  5
661
100
AcDbEntity
  8
0
100
AcDbLine
 62
7
  6
CONTINUOUS
 10
42.5290978711
 20
217.2640882098
 11
42.4147228165
 21
217.23217332
  0
LINE
  5
662
100
AcDbEntity
  8
0
100
AcDbLine
 62
7
  6
CONTINUOUS
 10
41.3281603711
 20
217.1045137608
 11
41.4425353847
 21
217.1364286506
  0
LINE
  5
663
100
AcDbEntity
  8
2_FEATURE
100
AcDbLine
 62
7
  6
CONTINUOUS
 10
46.09950243
 20
222.7145518146
 11
45.1268917346
 21
222.7145518146
  0
LINE
  5
664
100
AcDbEntity
  8
0
100
AcDbLine
 62
7
  6
CONTINUOUS
 10
78.1542810798
 20
222.7145518146
 11
79.1268917346
 21
222.7145518146
  0
LINE
  5
665
100
AcDbEntity
  8
0
100
AcDbLine
 62
7
  6
CONTINUOUS
 10
77.4632977229
 20
226.5143732366
 11
80.1268917346
 21
226.5145270261
  0
LINE
  5
666
100
AcDbEntity
  8
2_FEATURE
100
AcDbLine
 62
7
  6
CONTINUOUS
 10
46.7904857462
 20
226.5143732366
 11
44.1268917346
 21
226.5145270261
  0
LINE
  5
667
100
AcDbEntity
  8
0
100
AcDbLine
 62
7
  6
CONTINUOUS
 10
76.8825801437
 20
220.6474637322
 11
76.9123443363
 21
220.7390620166
  0
LINE
  5
668
100
AcDbEntity
  8
0
100
AcDbLine
 62
7
  6
CONTINUOUS
 10
48.9062961298
 20
231.0145518146
 11
87.0268917346
 21
231.0145518146
  0
LINE
  5
669
100
AcDbEntity
  8
2_FEATURE
100
AcDbLine
 62
7
  6
CONTINUOUS
 10
37.2268917346
 20
231.0145518146
 11
51.149227645
 21
231.0145518146
  0
LWPOLYLINE
  5
66A
100
AcDbEntity
  8
0
100
AcDbPolyline
 62
7
  6
CONTINUOUS
 90
36
 70
0
 10
76.9123443794
 20
216.2900414852
 10
76.88229172
 20
216.3825597164
 10
76.8504539493
 20
216.4882958684
 10
76.8202293868
 20
216.5972890435
 10
76.7916890613
 20
216.7093925309
 10
76.7648891967
 20
216.8244722854
 10
76.7398797743
 20
216.9423879525
 10
76.7167073621
 20
217.0629810329
 10
76.695410118
 20
217.1860989173
 10
76.6760246519
 20
217.3115740165
 10
76.6585803869
 20
217.4392436691
 10
76.6431064974
 20
217.5689377413
 10
76.6296291935
 20
217.700467459
 10
76.618171673
 20
217.8336681122
 10
76.6087627478
 20
217.9682596458
 10
76.6014233889
 20
218.1039901192
 10
76.5961719537
 20
218.240572786
 10
76.5930196539
 20
218.3777232906
 10
76.5919747746
 20
218.5151581896
 10
76.5930382532
 20
218.6525917915
 10
76.5962091151
 20
218.7897384706
 10
76.601479016
 20
218.9263148277
 10
76.6088367289
 20
219.0620365785
 10
76.6182638236
 20
219.1966170425
 10
76.6297393259
 20
219.3298044029
 10
76.6432343525
 20
219.4613187033
 10
76.658725713
 20
219.5909954205
 10
76.6761871611
 20
219.7186459476
 10
76.6955895134
 20
219.8441003202
 10
76.7169033387
 20
219.9671960516
 10
76.7400919995
 20
220.0877657037
 10
76.7651173392
 20
220.2056568103
 10
76.7919327671
 20
220.3207110599
 10
76.8204883254
 20
220.4327883041
 10
76.8507277914
 20
220.5417547088
 10
76.8825801437
 20
220.6474637322
  0
LINE
  5
66B
100
AcDbEntity
  8
2_FEATURE
100
AcDbLine
 62
7
  6
CONTINUOUS
 10
80.1268917346
 20
211.0145518146
 11
80.1268917346
 21
213.3145518146
  0
LINE
  5
66C
100
AcDbEntity
  8
2_FEATURE
100
AcDbLine
 62
7
  6
CONTINUOUS
 10
80.1268917346
 20
223.7145518146
 11
80.1268917346
 21
226.5145157013
  0
LWPOLYLINE
  5
66D
100
AcDbEntity
  8
0
100
AcDbPolyline
 62
7
  6
CONTINUOUS
 90
24
 70
0
 10
80.1268916951
 20
226.5145322965
 10
79.9280443881
 20
226.8043247294
 10
79.724304358
 20
227.0910679861
 10
79.5222653291
 20
227.365511862
 10
79.3217622605
 20
227.6283413825
 10
79.1227401486
 20
227.8800271374
 10
78.9252836941
 20
228.1208581964
 10
78.7294186566
 20
228.3512937379
 10
78.5352418449
 20
228.5716830547
 10
78.3427447424
 20
228.7824433673
 10
78.1519551652
 20
228.9839021577
 10
77.9627740192
 20
229.1764760524
 10
77.7753418563
 20
229.3603453929
 10
77.5897044688
 20
229.5358392029
 10
77.4060211008
 20
229.7031533433
 10
77.2243920928
 20
229.8625147994
 10
77.0448820563
 20
230.0141576689
 10
76.8675027287
 20
230.1583355725
 10
76.6923810547
 20
230.2951964584
 10
76.5195630655
 20
230.4249939709
 10
76.3492557684
 20
230.5478687722
 10
76.1816263456
 20
230.6639851118
 10
76.0167426736
 20
230.773566203
 10
75.8790674303
 20
230.8615611679
  0
LINE
  5
66E
100
AcDbEntity
  8
0
100
AcDbLine
 62
7
  6
CONTINUOUS
 10
88.3268917346
 20
229.7145518146
 11
88.3268917346
 21
212.0140853791
  0
LWPOLYLINE
  5
66F
100
AcDbEntity
  8
0
100
AcDbPolyline
 62
7
  6
CONTINUOUS
 90
60
 70
0
 10
95.4768917166
 20
210.7075245557
 10
95.4762364592
 20
210.7488163386
 10
95.4733354305
 20
210.8036662963
 10
95.4680529084
 20
210.8589392173
 10
95.4603527256
 20
210.9143383899
 10
95.450222838
 20
210.969629425
 10
95.4376776249
 20
211.0245789713
 10
95.4227577695
 20
211.0789574721
 10
95.4055299671
 20
211.1325412648
 10
95.3860860577
 20
211.1851155544
 10
95.3645420814
 20
211.2364763975
 10
95.3410387304
 20
211.2864293325
 10
95.3157302194
 20
211.3348104348
 10
95.2888069609
 20
211.3814405995
 10
95.2604091581
 20
211.4262677972
 10
95.2307054102
 20
211.4692121409
 10
95.1998345943
 20
211.5102539053
 10
95.1679431301
 20
211.5493706346
 10
95.1351757393
 20
211.586550521
 10
95.1016798436
 20
211.6217866286
 10
95.0675841175
 20
211.6550977067
 10
95.0330216735
 20
211.6865013018
 10
94.9981033041
 20
211.7160375795
 10
94.962939053
 20
211.7437469583
 10
94.9276310936
 20
211.7696760162
 10
94.8922753378
 20
211.7938753333
 10
94.8569659686
 20
211.8163961281
 10
94.8217770034
 20
211.8373012627
 10
94.786831125
 20
211.8566251748
 10
94.7522210577
 20
211.874422953
 10
94.718087365
 20
211.8907289631
 10
94.684563161
 20
211.9055887648
 10
94.6517447311
 20
211.9190688654
 10
94.6197463988
 20
211.9312306546
 10
94.588618341
 20
211.9421607031
 10
94.5584211433
 20
211.9519387683
 10
94.5292008003
 20
211.9606468128
 10
94.5009415617
 20
211.9683799077
 10
94.4738530911
 20
211.9751709137
 10
94.4480607214
 20
211.9810828464
 10
94.4237862287
 20
211.9861624462
 10
94.4014206616
 20
211.9904342682
 10
94.380577284
 20
211.994068867
 10
94.3611558732
 20
211.9971596937
 10
94.3426454327
 20
211.9998444096
 10
94.3244655034
 20
212.0022374614
 10
94.3066575528
 20
212.0043518108
 10
94.2889752553
 20
212.0062310139
 10
94.2716580649
 20
212.0078637679
 10
94.2548505756
 20
212.009257272
 10
94.2385866572
 20
212.0104319023
 10
94.2229765113
 20
212.0114040905
 10
94.207946037
 20
212.0122020817
 10
94.193510789
 20
212.012846453
 10
94.1795223578
 20
212.0133622701
 10
94.1658648975
 20
212.0137681434
 10
94.1524468682
 20
212.0140782185
 10
94.1391621634
 20
212.0143039643
 10
94.1259274768
 20
212.0144538093
 10
94.1026677541
 20
212.0145517831
  0
LINE
  5
670
100
AcDbEntity
  8
0
100
AcDbLine
 62
7
  6
CONTINUOUS
 10
95.4768917346
 20
210.707524946
 11
95.4768917346
 21
207.3145518146
  0
ARC
  5
671
100
AcDbEntity
  8
2_FEATURE
100
AcDbCircle
 62
7
  6
CONTINUOUS
 10
41.3443375237
 20
126.0483395162
 40
7.532
100
AcDbArc
 50
324.4866961967
 51
30.0
  0
ARC
  5
672
100
AcDbEntity
  8
2_FEATURE
100
AcDbCircle
 62
7
  6
CONTINUOUS
 10
39.8827142189
 20
141.0439453417
 40
1.3
100
AcDbArc
 50
32.071155413
 51
60.0
  0
ARC
  5
673
100
AcDbEntity
  8
2_FEATURE
100
AcDbCircle
 62
7
  6
CONTINUOUS
 10
36.8268917346
 20
166.7170056425
 40
7.0
100
AcDbArc
 50
0.0
 51
85.9759335926
  0
ARC
  5
674
100
AcDbEntity
  8
2_FEATURE
100
AcDbCircle
 62
7
  6
CONTINUOUS
 10
33.7768917346
 20
151.8437569884
 40
5.0
100
AcDbArc
 50
180.0
 51
240.0
  0
ARC
  5
675
100
AcDbEntity
  8
2_FEATURE
100
AcDbCircle
 62
7
  6
CONTINUOUS
 10
38.9268917346
 20
151.2994784475
 40
3.0
100
AcDbArc
 50
180.0
 51
209.9598261888
  0
ARC
  5
676
100
AcDbEntity
  8
2_FEATURE
100
AcDbCircle
 62
7
  6
CONTINUOUS
 10
30.7768917346
 20
158.2170056425
 40
2.0
100
AcDbArc
 50
90.0
 51
180.0
  0
ARC
  5
677
100
AcDbEntity
  8
2_FEATURE
100
AcDbCircle
 62
7
  6
CONTINUOUS
 10
37.2268917346
 20
172.4029532328
 40
1.3
100
AcDbArc
 50
85.9759225522
 51
180.0
  0
ARC
  5
678
100
AcDbEntity
  8
2_FEATURE
100
AcDbCircle
 62
7
  6
CONTINUOUS
 10
34.6268917346
 20
161.5170056425
 40
1.3
100
AcDbArc
 50
270.0
 51
360.0
  0
ARC
  5
679
100
AcDbEntity
  8
2_FEATURE
100
AcDbCircle
 62
7
  6
CONTINUOUS
 10
62.1268917346
 20
111.2170056425
 40
18.0
100
AcDbArc
 50
144.4866961967
 51
211.5676602051
  0
ARC
  5
67A
100
AcDbEntity
  8
2_FEATURE
100
AcDbCircle
 62
7
  6
CONTINUOUS
 10
62.1268917346
 20
111.2170056425
 40
18.0
100
AcDbArc
 50
211.5918375893
 51
214.4297214061
  0
ARC
  5
67B
100
AcDbEntity
  8
0
100
AcDbCircle
 62
7
  6
CONTINUOUS
 10
62.1268917346
 20
111.2170056425
 40
18.0
100
AcDbArc
 50
211.5676602051
 51
35.5133038033
  0
ARC
  5
67C
100
AcDbEntity
  8
0
100
AcDbCircle
 62
7
  6
CONTINUOUS
 10
82.9094459454
 20
126.0483395162
 40
7.532
100
AcDbArc
 50
150.0
 51
215.5133038033
  0
ARC
  5
67D
100
AcDbEntity
  8
0
100
AcDbCircle
 62
7
  6
CONTINUOUS
 10
84.3710692503
 20
141.0439453417
 40
1.3
100
AcDbArc
 50
120.0
 51
149.8938102172
  0
ARC
  5
67E
100
AcDbEntity
  8
2_FEATURE
100
AcDbCircle
 62
7
  6
CONTINUOUS
 10
62.1268917346
 20
161.2170056425
 40
17.5
100
AcDbArc
 50
210.0
 51
330.0
  0
ARC
  5
67F
100
AcDbEntity
  8
0
100
AcDbCircle
 62
7
  6
CONTINUOUS
 10
62.1268917346
 20
161.2170056425
 40
17.5
100
AcDbArc
 50
210.0
 51
330.0
  0
ARC
  5
680
100
AcDbEntity
  8
0
100
AcDbCircle
 62
7
  6
CONTINUOUS
 10
90.4768917346
 20
151.8437569884
 40
5.0
100
AcDbArc
 50
300.0
 51
360.0
  0
ARC
  5
681
100
AcDbEntity
  8
0
100
AcDbCircle
 62
7
  6
CONTINUOUS
 10
85.3268917346
 20
151.2994784475
 40
3.0
100
AcDbArc
 50
330.0401738112
 51
360.0
  0
ARC
  5
682
100
AcDbEntity
  8
0
100
AcDbCircle
 62
7
  6
CONTINUOUS
 10
93.4768917346
 20
158.2170056425
 40
2.0
100
AcDbArc
 50
0.0
 51
90.0
  0
ARC
  5
683
100
AcDbEntity
  8
0
100
AcDbCircle
 62
7
  6
CONTINUOUS
 10
89.6268917346
 20
161.5170056425
 40
1.3
100
AcDbArc
 50
180.0
 51
270.0
  0
ARC
  5
684
100
AcDbEntity
  8
0
100
AcDbCircle
 62
7
  6
CONTINUOUS
 10
87.4268917346
 20
166.7170056425
 40
7.0
100
AcDbArc
 50
94.0240664147
 51
180.0
  0
ARC
  5
685
100
AcDbEntity
  8
0
100
AcDbCircle
 62
7
  6
CONTINUOUS
 10
87.0268917346
 20
172.4029532328
 40
1.3
100
AcDbArc
 50
0.0
 51
94.024077487
  0
ARC
  5
686
100
AcDbEntity
  8
2_FEATURE
100
AcDbCircle
 62
7
  6
CONTINUOUS
 10
114.5116414537
 20
151.106308517
 40
40.0
100
AcDbArc
 50
349.614884193
 51
12.170855318
  0
ARC
  5
687
100
AcDbEntity
  8
0
100
AcDbCircle
 62
7
  6
CONTINUOUS
 10
167.6116414537
 20
122.8909879588
 40
30.5
100
AcDbArc
 50
232.1526875085
 51
256.4093598699
  0
ARC
  5
688
100
AcDbEntity
  8
2_FEATURE
100
AcDbCircle
 62
7
  6
CONTINUOUS
 10
154.4116414537
 20
122.8909879588
 40
30.5
100
AcDbArc
 50
283.5906405116
 51
307.6414778518
  0
ARC
  5
689
100
AcDbEntity
  8
0
100
AcDbCircle
 62
7
  6
CONTINUOUS
 10
162.8285598497
 20
102.3086950899
 40
10.9929581904
100
AcDbArc
 50
343.8641776057
 51
345.6941757708
  0
ARC
  5
68A
100
AcDbEntity
  8
0
100
AcDbCircle
 62
7
  6
CONTINUOUS
 10
172.4278208047
 20
99.5315045446
 40
1.0000307777
100
AcDbArc
 50
307.6414371445
 51
343.8643663555
  0
ARC
  5
68B
100
AcDbEntity
  8
0
100
AcDbCircle
 62
7
  6
CONTINUOUS
 10
172.5116413172
 20
99.8394555462
 40
1.0000001364
100
AcDbArc
 50
345.6944390988
 51
0.0001135548
  0
ARC
  5
68C
100
AcDbEntity
  8
2_FEATURE
100
AcDbCircle
 62
7
  6
CONTINUOUS
 10
149.5116414537
 20
99.5963533834
 40
1.0
100
AcDbArc
 50
180.0
 51
232.1526875085
  0
ARC
  5
68D
100
AcDbEntity
  8
0
100
AcDbCircle
 62
7
  6
CONTINUOUS
 10
160.6796332046
 20
94.2170056516
 40
0.9999999998
100
AcDbArc
 50
256.4093609644
 51
270.0000009998
  0
ARC
  5
68E
100
AcDbEntity
  8
0
100
AcDbCircle
 62
7
  6
CONTINUOUS
 10
161.3436498688
 20
94.2170057194
 40
0.9999999988
100
AcDbArc
 50
270.0000012557
 51
283.5906405116
  0
ARC
  5
68F
100
AcDbEntity
  8
2_FEATURE
100
AcDbCircle
 62
7
  6
CONTINUOUS
 10
149.8116414537
 20
158.9170056425
 40
1.3
100
AcDbArc
 50
90.0
 51
180.0
  0
ARC
  5
690
100
AcDbEntity
  8
2_FEATURE
100
AcDbCircle
 62
7
  6
CONTINUOUS
 10
152.4152429803
 20
158.9170058026
 40
1.2999999199
100
AcDbArc
 50
11.6437985198
 51
89.9999989946
  0
ARC
  5
691
100
AcDbEntity
  8
0
100
AcDbCircle
 62
7
  6
CONTINUOUS
 10
161.4680670683
 20
143.8613817583
 40
0.7681733637
100
AcDbArc
 50
183.7548421627
 51
187.4283132446
  0
ARC
  5
692
100
AcDbEntity
  8
0
100
AcDbCircle
 62
7
  6
CONTINUOUS
 10
161.9717355028
 20
143.8613817583
 40
0.7681733638
100
AcDbArc
 50
352.5716867555
 51
356.2451578371
  0
ARC
  5
693
100
AcDbEntity
  8
0
100
AcDbCircle
 62
7
  6
CONTINUOUS
 10
159.9775452569
 20
144.9871118016
 40
0.6023560387
100
AcDbArc
 50
350.5535520807
 51
359.9895147947
  0
ARC
  5
694
100
AcDbEntity
  8
0
100
AcDbCircle
 62
7
  6
CONTINUOUS
 10
160.0335965236
 20
145.0606146908
 40
0.546354495
100
AcDbArc
 50
9.7198656488
 51
10.4332431696
  0
ARC
  5
695
100
AcDbEntity
  8
0
100
AcDbCircle
 62
7
  6
CONTINUOUS
 10
159.2824920847
 20
147.514773725
 40
0.5425908157
100
AcDbArc
 50
180.0141460182
 51
190.4804640579
  0
ARC
  5
696
100
AcDbEntity
  8
0
100
AcDbCircle
 62
7
  6
CONTINUOUS
 10
160.037671722
 20
145.0612557154
 40
0.5422295741
100
AcDbArc
 50
0.0112980591
 51
9.7258038807
  0
ARC
  5
697
100
AcDbEntity
  8
2_FEATURE
100
AcDbCircle
 62
7
  6
CONTINUOUS
 10
161.0116414537
 20
161.2170056425
 40
12.5
100
AcDbArc
 50
0.0
 51
87.1295517773
  0
ARC
  5
698
100
AcDbEntity
  8
2_FEATURE
100
AcDbCircle
 62
7
  6
CONTINUOUS
 10
161.0116414537
 20
161.2170056425
 40
12.5
100
AcDbArc
 50
92.8704482281
 51
180.0
  0
ARC
  5
699
100
AcDbEntity
  8
0
100
AcDbCircle
 62
7
  6
CONTINUOUS
 10
161.0116414537
 20
161.2170056425
 40
12.5
100
AcDbArc
 50
150.5889721808
 51
150.6115059224
  0
ARC
  5
69A
100
AcDbEntity
  8
0
100
AcDbCircle
 62
7
  6
CONTINUOUS
 10
161.0116414537
 20
161.2170056425
 40
12.5
100
AcDbArc
 50
177.0713214478
 51
177.0779969054
  0
ARC
  5
69B
100
AcDbEntity
  8
0
100
AcDbCircle
 62
7
  6
CONTINUOUS
 10
161.0116414537
 20
161.2170056425
 40
12.5
100
AcDbArc
 50
0.0
 51
29.4110278307
  0
CIRCLE
  5
69C
100
AcDbEntity
  8
2_FEATURE
100
AcDbCircle
 62
7
  6
CONTINUOUS
 10
161.0116414537
 20
161.2170056425
 40
5.75
  0
CIRCLE
  5
69D
100
AcDbEntity
  8
2_FEATURE
100
AcDbCircle
 62
7
  6
CONTINUOUS
 10
161.0116414537
 20
161.2170056425
 40
3.95
  0
ARC
  5
69E
100
AcDbEntity
  8
2_FEATURE
100
AcDbCircle
 62
7
  6
CONTINUOUS
 10
160.4507754205
 20
172.4027464527
 40
1.3002067796
100
AcDbArc
 50
90.0002279802
 51
92.8702177869
  0
ARC
  5
69F
100
AcDbEntity
  8
2_FEATURE
100
AcDbCircle
 62
7
  6
CONTINUOUS
 10
161.5725075521
 20
172.4027493446
 40
1.300203888
100
AcDbArc
 50
87.129778704
 51
89.9997748951
  0
ARC
  5
6A0
100
AcDbEntity
  8
0
100
AcDbCircle
 62
7
  6
CONTINUOUS
 10
75.1268917346
 20
211.0145518146
 40
5.0
100
AcDbArc
 50
270.0
 51
360.0
  0
ARC
  5
6A1
100
AcDbEntity
  8
2_FEATURE
100
AcDbCircle
 62
7
  6
CONTINUOUS
 10
49.1268917346
 20
211.0145518146
 40
5.0
100
AcDbArc
 50
180.0
 51
270.0
  0
ARC
  5
6A2
100
AcDbEntity
  8
2_FEATURE
100
AcDbCircle
 62
7
  6
CONTINUOUS
 10
37.2268917346
 20
229.7145518146
 40
1.3
100
AcDbArc
 50
90.0
 51
180.0
  0
ARC
  5
6A3
100
AcDbEntity
  8
2_FEATURE
100
AcDbCircle
 62
7
  6
CONTINUOUS
 10
30.0768917346
 20
207.3145518146
 40
1.3
100
AcDbArc
 50
180.0
 51
270.0
  0
ARC
  5
6A4
100
AcDbEntity
  8
0
100
AcDbCircle
 62
7
  6
CONTINUOUS
 10
87.0268917346
 20
229.7145518146
 40
1.3
100
AcDbArc
 50
0.0
 51
90.0
  0
ARC
  5
6A5
100
AcDbEntity
  8
0
100
AcDbCircle
 62
7
  6
CONTINUOUS
 10
94.1768917346
 20
207.3145518146
 40
1.3
100
AcDbArc
 50
270.0
 51
360.0
  0
ARC
  5
6A6
100
AcDbEntity
  8
0
100
AcDbCircle
 62
7
  6
CONTINUOUS
 10
75.3474892993
 20
230.0145518146
 40
1.0
100
AcDbArc
 50
57.8881069526
 51
90.0
  0
ARC
  5
6A7
100
AcDbEntity
  8
0
100
AcDbCircle
 62
7
  6
CONTINUOUS
 10
79.1268917346
 20
213.3145518146
 40
1.0
100
AcDbArc
 50
0.0
 51
90.0000000001
  0
ARC
  5
6A8
100
AcDbEntity
  8
0
100
AcDbCircle
 62
7
  6
CONTINUOUS
 10
79.1268917346
 20
223.7145518146
 40
1.0
100
AcDbArc
 50
269.9999999999
 51
360.0
  0
ARC
  5
6A9
100
AcDbEntity
  8
2_FEATURE
100
AcDbCircle
 62
7
  6
CONTINUOUS
 10
48.9062941698
 20
230.0145518146
 40
1.0
100
AcDbArc
 50
90.0
 51
122.1118930474
  0
ARC
  5
6AA
100
AcDbEntity
  8
2_FEATURE
100
AcDbCircle
 62
7
  6
CONTINUOUS
 10
45.1268917346
 20
213.3145518146
 40
1.0
100
AcDbArc
 50
89.9999999999
 51
180.0
  0
ARC
  5
6AB
100
AcDbEntity
  8
2_FEATURE
100
AcDbCircle
 62
7
  6
CONTINUOUS
 10
45.1268917346
 20
223.7145518146
 40
1.0
100
AcDbArc
 50
180.0
 51
270.0000000001
  0
ARC
  5
6AC
100
AcDbEntity
  8
0
100
AcDbCircle
 62
7
  6
CONTINUOUS
 10
37.7834906279
 20
216.4667396741
 40
0.2245657607
100
AcDbArc
 50
250.9238923072
 51
252.4208669067
  0
ARC
  5
6AD
100
AcDbEntity
  8
0
100
AcDbCircle
 62
7
  6
CONTINUOUS
 10
37.7807962765
 20
216.4579869859
 40
0.2154080743
100
AcDbArc
 50
252.4009222588
 51
259.4805831015
  0
ARC
  5
6AE
100
AcDbEntity
  8
0
100
AcDbCircle
 62
7
  6
CONTINUOUS
 10
39.2434022843
 20
217.8780383467
 40
0.2055301658
100
AcDbArc
 50
108.2817188825
 51
110.9097736341
  0
ARC
  5
6AF
100
AcDbEntity
  8
0
100
AcDbCircle
 62
7
  6
CONTINUOUS
 10
39.2395993869
 20
217.8902020755
 40
0.1927875734
100
AcDbArc
 50
101.0889924164
 51
108.3425507584
  0
LINE
  5
6B0
100
AcDbEntity
  8
0
100
AcDbLine
 62
7
  6
CONTINUOUS
 10
81.7268917346
 20
157.5652014708
 11
80.4268917346
 21
157.913535421
  0
SPLINE
  5
6B1
100
AcDbEntity
  8
0
100
AcDbSpline
 62
7
  6
CONTINUOUS
 70
0
 71
3
 72
9
 73
5
 74
0
 42
0.0000001
 43
0.0000001
 44
0.0000000001
 40
0.0
 40
0.0
 40
0.0
 40
0.0
 40
0.2476098502
 40
1.0
 40
1.0
 40
1.0
 40
1.0
 10
77.1736756822
 20
101.4109610955
 30
0.0
 10
77.1483724922
 20
101.38578531
 30
0.0
 10
77.043186748
 20
101.2871441366
 30
0.0
 10
76.9270680118
 20
101.200343553
 30
0.0
 10
76.835661012
 20
101.1419614709
 30
0.0
  0
SPLINE
  5
6B2
100
AcDbEntity
  8
0
100
AcDbSpline
 62
7
  6
CONTINUOUS
 70
0
 71
3
 72
10
 73
6
 74
0
 42
0.0000001
 43
0.0000001
 44
0.0000000001
 40
0.0
 40
0.0
 40
0.0
 40
0.0
 40
0.5037199293
 40
0.7537409396
 40
1.0
 40
1.0
 40
1.0
 40
1.0
 10
77.4632990678
 20
101.7939164404
 30
0.0
 10
77.421013053
 20
101.7250945877
 30
0.0
 10
77.3541261623
 20
101.6241659062
 30
0.0
 10
77.2551705179
 20
101.4978953613
 30
0.0
 10
77.2016691922
 20
101.4388136037
 30
0.0
 10
77.1736757134
 20
101.4109610752
 30
0.0
  0
SPLINE
  5
6B3
100
AcDbEntity
  8
2_FEATURE
100
AcDbSpline
 62
7
  6
CONTINUOUS
 70
0
 71
3
 72
9
 73
5
 74
0
 42
0.0000001
 43
0.0000001
 44
0.0000000001
 40
0.0
 40
0.0
 40
0.0
 40
0.0
 40
0.2476098502
 40
1.0
 40
1.0
 40
1.0
 40
1.0
 10
47.0801077869
 20
101.4109610955
 30
0.0
 10
47.1054109769
 20
101.38578531
 30
0.0
 10
47.2105967211
 20
101.2871441366
 30
0.0
 10
47.3267154573
 20
101.200343553
 30
0.0
 10
47.4181224571
 20
101.1419614709
 30
0.0
  0
SPLINE
  5
6B4
100
AcDbEntity
  8
2_FEATURE
100
AcDbSpline
 62
7
  6
CONTINUOUS
 70
0
 71
3
 72
10
 73
6
 74
0
 42
0.0000001
 43
0.0000001
 44
0.0000000001
 40
0.0
 40
0.0
 40
0.0
 40
0.0
 40
0.5037199293
 40
0.7537409396
 40
1.0
 40
1.0
 40
1.0
 40
1.0
 10
46.7904844014
 20
101.7939164404
 30
0.0
 10
46.8327704162
 20
101.7250945877
 30
0.0
 10
46.8996573068
 20
101.6241659062
 30
0.0
 10
46.9986129513
 20
101.4978953613
 30
0.0
 10
47.0521142769
 20
101.4388136037
 30
0.0
 10
47.0801077558
 20
101.4109610752
 30
0.0
  0
SPLINE
  5
6B5
100
AcDbEntity
  8
0
100
AcDbSpline
 62
7
  6
CONTINUOUS
 70
0
 71
3
 72
23
 73
19
 74
0
 42
0.0000001
 43
0.0000001
 44
0.0000000001
 40
0.0
 40
0.0
 40
0.0
 40
0.0
 40
0.0735781643
 40
0.1671057054
 40
0.2782639993
 40
0.4044066101
 40
0.4721872876
 40
0.5426236302
 40
0.6153519587
 40
0.6899929685
 40
0.7279092034
 40
0.7661578357
 40
0.8046929846
 40
0.8434693993
 40
0.8824352951
 40
0.9215416253
 40
0.960751176
 40
1.0
 40
1.0
 40
1.0
 40
1.0
 10
88.2246760001
 20
150.5230466409
 30
0.0
 10
88.1952919903
 20
150.5309543294
 30
0.0
 10
88.1286241879
 20
150.5491624721
 30
0.0
 10
88.0174554672
 20
150.5789131552
 30
0.0
 10
87.8853583607
 20
150.6145502837
 30
0.0
 10
87.7636901708
 20
150.6479593165
 30
0.0
 10
87.6581633209
 20
150.6765461467
 30
0.0
 10
87.5739285037
 20
150.6992461431
 30
0.0
 10
87.4870121521
 20
150.7228995729
 30
0.0
 10
87.4131733748
 20
150.7433858932
 30
0.0
 10
87.3530814065
 20
150.7600818136
 30
0.0
 10
87.3073507622
 20
150.772686817
 30
0.0
 10
87.2612823256
 20
150.7854058055
 30
0.0
 10
87.2149941881
 20
150.7984401421
 30
0.0
 10
87.1684514873
 20
150.8114453656
 30
0.0
 10
87.1214757855
 20
150.8235458974
 30
0.0
 10
87.0741292775
 20
150.8346048624
 30
0.0
 10
87.0425960158
 20
150.8422669608
 30
0.0
 10
87.0268917346
 20
150.8463722176
 30
0.0
  0
SPLINE
  5
6B6
100
AcDbEntity
  8
2_FEATURE
100
AcDbSpline
 62
7
  6
CONTINUOUS
 70
0
 71
3
 72
23
 73
19
 74
0
 42
0.0000001
 43
0.0000001
 44
0.0000000001
 40
0.0
 40
0.0
 40
0.0
 40
0.0
 40
0.0735781643
 40
0.1671057054
 40
0.2782639993
 40
0.4044066101
 40
0.4721872876
 40
0.5426236302
 40
0.6153519587
 40
0.6899929685
 40
0.7279092034
 40
0.7661578357
 40
0.8046929846
 40
0.8434693993
 40
0.8824352951
 40
0.9215416253
 40
0.960751176
 40
1.0
 40
1.0
 40
1.0
 40
1.0
 10
36.029107469
 20
150.5230466409
 30
0.0
 10
36.0584914788
 20
150.5309543294
 30
0.0
 10
36.1251592812
 20
150.5491624721
 30
0.0
 10
36.2363280019
 20
150.5789131552
 30
0.0
 10
36.3684251084
 20
150.6145502837
 30
0.0
 10
36.4900932983
 20
150.6479593165
 30
0.0
 10
36.5956201482
 20
150.6765461467
 30
0.0
 10
36.6798549655
 20
150.6992461431
 30
0.0
 10
36.766771317
 20
150.7228995729
 30
0.0
 10
36.8406100944
 20
150.7433858932
 30
0.0
 10
36.9007020626
 20
150.7600818136
 30
0.0
 10
36.946432707
 20
150.772686817
 30
0.0
 10
36.9925011436
 20
150.7854058055
 30
0.0
 10
37.0387892811
 20
150.7984401421
 30
0.0
 10
37.0853319818
 20
150.8114453656
 30
0.0
 10
37.1323076837
 20
150.8235458974
 30
0.0
 10
37.1796541917
 20
150.8346048624
 30
0.0
 10
37.2111874533
 20
150.8422669608
 30
0.0
 10
37.2268917346
 20
150.8463722176
 30
0.0
  0
LINE
  5
6B7
100
AcDbEntity
  8
2_FEATURE
100
AcDbLine
 62
7
  6
CONTINUOUS
 10
42.5268917346
 20
157.5652014708
 11
43.8268917346
 21
157.913535421
  0
SPLINE
  5
6B8
100
AcDbEntity
  8
0
100
AcDbSpline
 62
7
  6
CONTINUOUS
 70
0
 71
3
 72
11
 73
7
 74
0
 42
0.0000001
 43
0.0000001
 44
0.0000000001
 40
0.0
 40
0.0
 40
0.0
 40
0.0
 40
0.2406432428
 40
0.4865681456
 40
0.7395250925
 40
1.0
 40
1.0
 40
1.0
 40
1.0
 10
160.5709179035
 20
145.1595539092
 30
0.0
 10
160.5630961102
 20
145.2020330668
 30
0.0
 10
160.5369230148
 20
145.2863359435
 30
0.0
 10
160.4692413915
 20
145.4017525578
 30
0.0
 10
160.3759738883
 20
145.502485253
 30
0.0
 10
160.3003678936
 20
145.5564063932
 30
0.0
 10
160.2599012855
 20
145.5798218927
 30
0.0
  0
SPLINE
  5
6B9
100
AcDbEntity
  8
0
100
AcDbSpline
 62
7
  6
CONTINUOUS
 70
0
 71
3
 72
15
 73
11
 74
0
 42
0.0000001
 43
0.0000001
 44
0.0000000001
 40
0.0
 40
0.0
 40
0.0
 40
0.0
 40
0.1160622192
 40
0.2335536987
 40
0.3536445018
 40
0.4770484629
 40
0.6039410297
 40
0.7339733104
 40
0.866357758
 40
1.0
 40
1.0
 40
1.0
 40
1.0
 10
159.2999012855
 20
147.2425906679
 30
0.0
 10
159.2999012855
 20
147.2199182098
 30
0.0
 10
159.3051351353
 20
147.1741295838
 30
0.0
 10
159.3282919815
 20
147.1084707001
 30
0.0
 10
159.3657708973
 20
147.0481084886
 30
0.0
 10
159.416023817
 20
146.9953860053
 30
0.0
 10
159.4770526997
 20
146.9522447405
 30
0.0
 10
159.5465070601
 20
146.9202622724
 30
0.0
 10
159.6217171739
 20
146.9005969193
 30
0.0
 10
159.6737946149
 20
146.8961805064
 30
0.0
 10
159.6999012855
 20
146.8961805064
 30
0.0
  0
SPLINE
  5
6BA
100
AcDbEntity
  8
0
100
AcDbSpline
 62
7
  6
CONTINUOUS
 70
0
 71
3
 72
15
 73
11
 74
0
 42
0.0000001
 43
0.0000001
 44
0.0000000001
 40
0.0
 40
0.0
 40
0.0
 40
0.0
 40
0.1160614309
 40
0.2335535807
 40
0.3536445156
 40
0.4770484873
 40
0.603941021
 40
0.7339734334
 40
0.8663588225
 40
1.0
 40
1.0
 40
1.0
 40
1.0
 10
162.7399012855
 20
143.7611685447
 30
0.0
 10
162.7399012855
 20
143.8189829218
 30
0.0
 10
162.7265548555
 20
143.9357438013
 30
0.0
 10
162.667505611
 20
144.1031742355
 30
0.0
 10
162.5719338487
 20
144.2570981105
 30
0.0
 10
162.44378863
 20
144.3915402069
 30
0.0
 10
162.2881651732
 20
144.5015507526
 30
0.0
 10
162.1110561376
 20
144.5831065323
 30
0.0
 10
161.9192701324
 20
144.6332524343
 30
0.0
 10
161.7864727673
 20
144.6445144566
 30
0.0
 10
161.7199012855
 20
144.6445144566
 30
0.0
  0
SPLINE
  5
6BB
100
AcDbEntity
  8
0
100
AcDbSpline
 62
7
  6
CONTINUOUS
 70
0
 71
3
 72
15
 73
11
 74
0
 42
0.0000001
 43
0.0000001
 44
0.0000000001
 40
0.0
 40
0.0
 40
0.0
 40
0.0
 40
0.1336411775
 40
0.2660265666
 40
0.396058979
 40
0.5229515127
 40
0.6463554844
 40
0.7664464193
 40
0.8839385691
 40
1.0
 40
1.0
 40
1.0
 40
1.0
 10
161.7199012855
 20
144.6445144566
 30
0.0
 10
161.6533298038
 20
144.6445144566
 30
0.0
 10
161.5205324387
 20
144.6332524343
 30
0.0
 10
161.3287464335
 20
144.5831065323
 30
0.0
 10
161.1516373979
 20
144.5015507526
 30
0.0
 10
160.9960139411
 20
144.3915402069
 30
0.0
 10
160.8678687223
 20
144.2570981105
 30
0.0
 10
160.7722969601
 20
144.1031742355
 30
0.0
 10
160.7132477156
 20
143.9357438013
 30
0.0
 10
160.6999012855
 20
143.8189829218
 30
0.0
 10
160.6999012855
 20
143.7611685447
 30
0.0
  0
SPLINE
  5
6BC
100
AcDbEntity
  8
0
100
AcDbSpline
 62
7
  6
CONTINUOUS
 70
0
 71
3
 72
15
 73
11
 74
0
 42
0.0000001
 43
0.0000001
 44
0.0000000001
 40
0.0
 40
0.0
 40
0.0
 40
0.0
 40
0.1336413284
 40
0.2660265797
 40
0.3960589844
 40
0.5229515258
 40
0.646355502
 40
0.7664464348
 40
0.8839385777
 40
1.0
 40
1.0
 40
1.0
 40
1.0
 10
159.5399012855
 20
148.2818211525
 30
0.0
 10
159.4876882942
 20
148.2818211525
 30
0.0
 10
159.383533475
 20
148.272988258
 30
0.0
 10
159.2331130654
 20
148.2336581109
 30
0.0
 10
159.0942040341
 20
148.169692855
 30
0.0
 10
158.9721463947
 20
148.0834100749
 30
0.0
 10
158.871640338
 20
147.9779652664
 30
0.0
 10
158.7966821265
 20
147.8572406199
 30
0.0
 10
158.7503690488
 20
147.7259226043
 30
0.0
 10
158.7399012855
 20
147.6343454404
 30
0.0
 10
158.7399012855
 20
147.5890008294
 30
0.0
  0
SPLINE
  5
6BD
100
AcDbEntity
  8
0
100
AcDbSpline
 62
7
  6
CONTINUOUS
 70
0
 71
3
 72
13
 73
9
 74
0
 42
0.0000001
 43
0.0000001
 44
0.0000000001
 40
0.0
 40
0.0
 40
0.0
 40
0.0
 40
0.2655958412
 40
0.5219612711
 40
0.6456213529
 40
0.7659615724
 40
0.8836953317
 40
1.0
 40
1.0
 40
1.0
 40
1.0
 10
159.8199012855
 20
144.7830785212
 30
0.0
 10
159.8457892796
 20
144.7830785212
 30
0.0
 10
159.8970819027
 20
144.7916691239
 30
0.0
 10
159.9531170681
 20
144.8235149703
 30
0.0
 10
159.9869619927
 20
144.8590407113
 30
0.0
 10
160.0057071355
 20
144.889223932
 30
0.0
 10
160.017283963
 20
144.9220527988
 30
0.0
 10
160.0199012855
 20
144.944947225
 30
0.0
 10
160.0199012855
 20
144.9562836019
 30
0.0
  0
SPLINE
  5
6BE
100
AcDbEntity
  8
2_FEATURE
100
AcDbSpline
 62
7
  6
CONTINUOUS
 70
0
 71
3
 72
35
 73
31
 74
0
 42
0.0000001
 43
0.0000001
 44
0.0000000001
 40
0.0
 40
0.0
 40
0.0
 40
0.0
 40
0.031457183
 40
0.0625117424
 40
0.0931939007
 40
0.1235686867
 40
0.1537321789
 40
0.1838030018
 40
0.2139111864
 40
0.2441864255
 40
0.2747466233
 40
0.3056876903
 40
0.3688699703
 40
0.4011856464
 40
0.4338957852
 40
0.5
 40
0.5661042148
 40
0.5988143536
 40
0.6311300297
 40
0.6943123097
 40
0.7252533767
 40
0.7558135745
 40
0.7860888136
 40
0.8161969982
 40
0.8462678211
 40
0.8764313133
 40
0.9068060993
 40
0.9374882576
 40
0.968542817
 40
1.0
 40
1.0
 40
1.0
 40
1.0
 10
165.2116414537
 20
114.6985120023
 30
0.0
 10
165.2116414537
 20
114.8295945645
 30
0.0
 10
165.1982778894
 20
115.0903014532
 30
0.0
 10
165.1372105498
 20
115.4745395344
 30
0.0
 10
165.0358512205
 20
115.8455588217
 30
0.0
 10
164.8954149037
 20
116.1996265778
 30
0.0
 10
164.7176179619
 20
116.5336013325
 30
0.0
 10
164.5045528644
 20
116.8448877165
 30
0.0
 10
164.2585452022
 20
117.1314280816
 30
0.0
 10
163.9820742019
 20
117.3916120971
 30
0.0
 10
163.6776455247
 20
117.6241925142
 30
0.0
 10
163.2352362571
 20
117.897874654
 30
0.0
 10
162.7492733215
 20
118.1101283448
 30
0.0
 10
162.2358888923
 20
118.2595636212
 30
0.0
 10
161.6998003088
 20
118.3682696722
 30
0.0
 10
161.0116414537
 20
118.422458632
 30
0.0
 10
160.3234825986
 20
118.3682696722
 30
0.0
 10
159.7873940151
 20
118.2595636212
 30
0.0
 10
159.2740095859
 20
118.1101283448
 30
0.0
 10
158.7880466502
 20
117.897874654
 30
0.0
 10
158.3456373827
 20
117.6241925142
 30
0.0
 10
158.0412087054
 20
117.3916120971
 30
0.0
 10
157.7647377052
 20
117.1314280816
 30
0.0
 10
157.518730043
 20
116.8448877165
 30
0.0
 10
157.3056649455
 20
116.5336013325
 30
0.0
 10
157.1278680037
 20
116.1996265778
 30
0.0
 10
156.9874316869
 20
115.8455588217
 30
0.0
 10
156.8860723576
 20
115.4745395344
 30
0.0
 10
156.8250050179
 20
115.0903014532
 30
0.0
 10
156.8116414537
 20
114.8295945645
 30
0.0
 10
156.8116414537
 20
114.6985120023
 30
0.0
  0
SPLINE
  5
6BF
100
AcDbEntity
  8
2_FEATURE
100
AcDbSpline
 62
7
  6
CONTINUOUS
 70
0
 71
3
 72
33
 73
29
 74
0
 42
0.0000001
 43
0.0000001
 44
0.0000000001
 40
0.0
 40
0.0
 40
0.0
 40
0.0
 40
0.0312246291
 40
0.0619650306
 40
0.0922790435
 40
0.122262392
 40
0.1520420326
 40
0.1817655718
 40
0.2115888644
 40
0.2416639616
 40
0.2721275725
 40
0.303090678
 40
0.3667110312
 40
0.4326231921
 40
0.5
 40
0.5673768079
 40
0.6332889688
 40
0.696909322
 40
0.7278724275
 40
0.7583360384
 40
0.7884111356
 40
0.8182344282
 40
0.8479579674
 40
0.877737608
 40
0.9077209565
 40
0.9380349694
 40
0.9687753709
 40
1.0
 40
1.0
 40
1.0
 40
1.0
 10
156.8116414537
 20
107.8310880469
 30
0.0
 10
156.8116414537
 20
107.7027780856
 30
0.0
 10
156.8251564981
 20
107.4479175434
 30
0.0
 10
156.8868023842
 20
107.0730048993
 30
0.0
 10
156.9887277131
 20
106.7122195354
 30
0.0
 10
157.1294528575
 20
106.3689995006
 30
0.0
 10
157.3070942534
 20
106.0461292886
 30
0.0
 10
157.5195039079
 20
105.7458324533
 30
0.0
 10
157.7644086689
 20
105.4698172372
 30
0.0
 10
158.0394800152
 20
105.2193916596
 30
0.0
 10
158.3424114019
 20
104.9955721071
 30
0.0
 10
158.7840172586
 20
104.7315138314
 30
0.0
 10
159.3952832315
 20
104.4739511301
 30
0.0
 10
160.1861989456
 20
104.287874353
 30
0.0
 10
161.0116414537
 20
104.22530132
 30
0.0
 10
161.8370839618
 20
104.287874353
 30
0.0
 10
162.6279996759
 20
104.4739511301
 30
0.0
 10
163.2392656488
 20
104.7315138314
 30
0.0
 10
163.6808715055
 20
104.9955721071
 30
0.0
 10
163.9838028922
 20
105.2193916596
 30
0.0
 10
164.2588742385
 20
105.4698172372
 30
0.0
 10
164.5037789995
 20
105.7458324533
 30
0.0
 10
164.716188654
 20
106.0461292886
 30
0.0
 10
164.8938300499
 20
106.3689995006
 30
0.0
 10
165.0345551943
 20
106.7122195354
 30
0.0
 10
165.1364805232
 20
107.0730048993
 30
0.0
 10
165.1981264093
 20
107.4479175434
 30
0.0
 10
165.2116414537
 20
107.7027780856
 30
0.0
 10
165.2116414537
 20
107.8310880469
 30
0.0
  0
SPLINE
  5
6C0
100
AcDbEntity
  8
2_FEATURE
100
AcDbSpline
 62
7
  6
CONTINUOUS
 70
0
 71
3
 72
39
 73
35
 74
0
 42
0.0000001
 43
0.0000001
 44
0.0000000001
 40
0.0
 40
0.0
 40
0.0
 40
0.0
 40
0.0543560014
 40
0.1111513216
 40
0.1404016876
 40
0.1701627818
 40
0.20038653
 40
0.231024936
 40
0.2620282861
 40
0.2933495833
 40
0.3567659435
 40
0.3887871159
 40
0.4209701321
 40
0.4532850184
 40
0.4857048783
 40
0.5182059135
 40
0.5507662702
 40
0.5833652498
 40
0.6159829423
 40
0.6485996873
 40
0.681195211
 40
0.7462338098
 40
0.7786301682
 40
0.8109066743
 40
0.8430319804
 40
0.8590261203
 40
0.8749684573
 40
0.890855114
 40
0.9066806257
 40
0.9224367943
 40
0.9381176644
 40
0.9537210015
 40
0.9692435832
 40
1.0
 40
1.0
 40
1.0
 40
1.0
 10
169.0116407512
 20
121.6730611699
 30
0.0
 10
169.0116406995
 20
121.8142894064
 30
0.0
 10
169.0269755987
 20
122.1032867715
 30
0.0
 10
169.083887834
 20
122.4642391332
 30
0.0
 10
169.1516088464
 20
122.7574979544
 30
0.0
 10
169.2140442404
 20
122.9808650686
 30
0.0
 10
169.2867429193
 20
123.20488617
 30
0.0
 10
169.3694453321
 20
123.42884514
 30
0.0
 10
169.4608357871
 20
123.6524732232
 30
0.0
 10
169.5941631166
 20
123.9507819814
 30
0.0
 10
169.7411397031
 20
124.2456833478
 30
0.0
 10
169.8979228003
 20
124.5378703488
 30
0.0
 10
170.0206167841
 20
124.7565992953
 30
0.0
 10
170.1469511864
 20
124.9744339033
 30
0.0
 10
170.2759409455
 20
125.1916652645
 30
0.0
 10
170.4066624477
 20
125.4086024904
 30
0.0
 10
170.5389551987
 20
125.6251297324
 30
0.0
 10
170.6718279087
 20
125.841656469
 30
0.0
 10
170.8041515015
 20
126.0586904589
 30
0.0
 10
170.936059645
 20
126.275969488
 30
0.0
 10
171.1089433731
 20
126.5668997748
 30
0.0
 10
171.2766030117
 20
126.8602657398
 30
0.0
 10
171.4367461786
 20
127.1568256921
 30
0.0
 10
171.5514247487
 20
127.3806840717
 30
0.0
 10
171.6421901338
 20
127.5688497033
 30
0.0
 10
171.7111318183
 20
127.7203535155
 30
0.0
 10
171.7607634879
 20
127.8342710513
 30
0.0
 10
171.8084841111
 20
127.9485265961
 30
0.0
 10
171.8543004743
 20
128.0630390863
 30
0.0
 10
171.8978316237
 20
128.1778716852
 30
0.0
 10
171.9386542506
 20
128.2930831793
 30
0.0
 10
171.9768967062
 20
128.4085374303
 30
0.0
 10
172.0248201651
 20
128.5620090899
 30
0.0
 10
172.057328695
 20
128.6778560006
 30
0.0
 10
172.0761783586
 20
128.7555126321
 30
0.0
  0
SPLINE
  5
6C1
100
AcDbEntity
  8
0
100
AcDbSpline
 62
7
  6
CONTINUOUS
 70
0
 71
3
 72
15
 73
11
 74
0
 42
0.0000001
 43
0.0000001
 44
0.0000000001
 40
0.0
 40
0.0
 40
0.0
 40
0.0
 40
0.1160614309
 40
0.2335535807
 40
0.3536445156
 40
0.4770484873
 40
0.603941021
 40
0.7339734334
 40
0.8663588225
 40
1.0
 40
1.0
 40
1.0
 40
1.0
 10
160.6999012855
 20
143.7611685447
 30
0.0
 10
160.6999012855
 20
143.7033541676
 30
0.0
 10
160.7132477156
 20
143.5865932882
 30
0.0
 10
160.7722969601
 20
143.4191628539
 30
0.0
 10
160.8678687223
 20
143.2652389789
 30
0.0
 10
160.9960139411
 20
143.1307968825
 30
0.0
 10
161.1516373979
 20
143.0207863368
 30
0.0
 10
161.3287464335
 20
142.9392305572
 30
0.0
 10
161.5205324387
 20
142.8890846551
 30
0.0
 10
161.6533298038
 20
142.8778226328
 30
0.0
 10
161.7199012855
 20
142.8778226328
 30
0.0
  0
SPLINE
  5
6C2
100
AcDbEntity
  8
2_FEATURE
100
AcDbSpline
 62
7
  6
CONTINUOUS
 70
0
 71
3
 72
13
 73
9
 74
0
 42
0.0000001
 43
0.0000001
 44
0.0000000001
 40
0.0
 40
0.0
 40
0.0
 40
0.0
 40
0.2501311551
 40
0.5000696041
 40
0.6250983242
 40
0.7500995528
 40
0.8750682449
 40
1.0
 40
1.0
 40
1.0
 40
1.0
 10
151.785053699
 20
161.5170056425
 30
0.0
 10
151.9819744053
 20
161.3964807418
 30
0.0
 10
152.3735648666
 20
161.1520073468
 30
0.0
 10
152.8304484751
 20
160.795374465
 30
0.0
 10
153.148798335
 20
160.4599770664
 30
0.0
 10
153.3548012727
 20
160.1804536875
 30
0.0
 10
153.5170754084
 20
159.8732321213
 30
0.0
 10
153.5882604167
 20
159.6521348623
 30
0.0
 10
153.6125719559
 20
159.5394119709
 30
0.0
  0
SPLINE
  5
6C3
100
AcDbEntity
  8
0
100
AcDbSpline
 62
7
  6
CONTINUOUS
 70
0
 71
3
 72
15
 73
11
 74
0
 42
0.0000001
 43
0.0000001
 44
0.0000000001
 40
0.0
 40
0.0
 40
0.0
 40
0.0
 40
0.1160119245
 40
0.2339305553
 40
0.3545926652
 40
0.4784326563
 40
0.6054509754
 40
0.7352448681
 40
0.8670819513
 40
1.0
 40
1.0
 40
1.0
 40
1.0
 10
160.7063406796
 20
143.7620679853
 30
0.0
 10
160.7133167148
 20
143.7085542063
 30
0.0
 10
160.7388847899
 20
143.601822066
 30
0.0
 10
160.8097156951
 20
143.4516772945
 30
0.0
 10
160.9107037505
 20
143.3153664502
 30
0.0
 10
161.0383243849
 20
143.1974178261
 30
0.0
 10
161.1882636311
 20
143.1015734448
 30
0.0
 10
161.3555659825
 20
143.0308724369
 30
0.0
 10
161.5346873167
 20
142.9875407325
 30
0.0
 10
161.6580703152
 20
142.9778226328
 30
0.0
 10
161.7199012855
 20
142.9778226328
 30
0.0
  0
SPLINE
  5
6C4
100
AcDbEntity
  8
0
100
AcDbSpline
 62
7
  6
CONTINUOUS
 70
0
 71
3
 72
15
 73
11
 74
0
 42
0.0000001
 43
0.0000001
 44
0.0000000001
 40
0.0
 40
0.0
 40
0.0
 40
0.0
 40
0.1160622192
 40
0.2335536987
 40
0.3536445018
 40
0.4770484629
 40
0.6039410297
 40
0.7339733104
 40
0.866357758
 40
1.0
 40
1.0
 40
1.0
 40
1.0
 10
160.0199012855
 20
145.2334117311
 30
0.0
 10
160.0199012855
 20
145.2560841892
 30
0.0
 10
160.0146674357
 20
145.3018728153
 30
0.0
 10
159.9915105896
 20
145.3675316989
 30
0.0
 10
159.9540316738
 20
145.4278939105
 30
0.0
 10
159.9037787541
 20
145.4806163938
 30
0.0
 10
159.8427498714
 20
145.5237576586
 30
0.0
 10
159.773295511
 20
145.5557401267
 30
0.0
 10
159.6980853971
 20
145.5754054798
 30
0.0
 10
159.6460079562
 20
145.5798218927
 30
0.0
 10
159.6199012855
 20
145.5798218927
 30
0.0
  0
SPLINE
  5
6C5
100
AcDbEntity
  8
2_FEATURE
100
AcDbSpline
 62
7
  6
CONTINUOUS
 70
0
 71
3
 72
13
 73
9
 74
0
 42
0.0000001
 43
0.0000001
 44
0.0000000001
 40
0.0
 40
0.0
 40
0.0
 40
0.0
 40
0.2447027396
 40
0.4916574448
 40
0.616500136
 40
0.7425531924
 40
0.8702047317
 40
1.0
 40
1.0
 40
1.0
 40
1.0
 10
153.8563746942
 20
143.8957630853
 30
0.0
 10
153.8293144088
 20
143.7481069841
 30
0.0
 10
153.7575496816
 20
143.4543362901
 30
0.0
 10
153.6221603235
 20
143.0998690773
 30
0.0
 10
153.4822802225
 20
142.8280581566
 30
0.0
 10
153.35886352
 20
142.6309526038
 30
0.0
 10
153.2147879635
 20
142.4444589505
 30
0.0
 10
153.1035300572
 20
142.3315326925
 30
0.0
 10
153.0435080577
 20
142.2792128644
 30
0.0
  0
SPLINE
  5
6C6
100
AcDbEntity
  8
2_FEATURE
100
AcDbSpline
 62
7
  6
CONTINUOUS
 70
0
 71
3
 72
9
 73
5
 74
0
 42
0.0000001
 43
0.0000001
 44
0.0000000001
 40
0.0
 40
0.0
 40
0.0
 40
0.0
 40
0.4968393073
 40
1.0
 40
1.0
 40
1.0
 40
1.0
 10
153.0435080577
 20
142.2792128644
 30
0.0
 10
152.915892515
 20
142.1679728567
 30
0.0
 10
152.6427528536
 20
141.962688329
 30
0.0
 10
152.353601931
 20
141.7821969073
 30
0.0
 10
152.2066132847
 20
141.6939453417
 30
0.0
  0
SPLINE
  5
6C7
100
AcDbEntity
  8
0
100
AcDbSpline
 62
7
  6
CONTINUOUS
 70
0
 71
3
 72
15
 73
11
 74
0
 42
0.0000001
 43
0.0000001
 44
0.0000000001
 40
0.0
 40
0.0
 40
0.0
 40
0.0
 40
0.1336411775
 40
0.2660265666
 40
0.396058979
 40
0.5229515127
 40
0.6463554844
 40
0.7664464193
 40
0.8839385691
 40
1.0
 40
1.0
 40
1.0
 40
1.0
 10
161.7199012855
 20
142.8778226328
 30
0.0
 10
161.7864727673
 20
142.8778226328
 30
0.0
 10
161.9192701324
 20
142.8890846551
 30
0.0
 10
162.1110561376
 20
142.9392305572
 30
0.0
 10
162.2881651732
 20
143.0207863368
 30
0.0
 10
162.44378863
 20
143.1307968825
 30
0.0
 10
162.5719338487
 20
143.2652389789
 30
0.0
 10
162.667505611
 20
143.4191628539
 30
0.0
 10
162.7265548555
 20
143.5865932882
 30
0.0
 10
162.7399012855
 20
143.7033541676
 30
0.0
 10
162.7399012855
 20
143.7611685447
 30
0.0
  0
SPLINE
  5
6C8
100
AcDbEntity
  8
0
100
AcDbSpline
 62
7
  6
CONTINUOUS
 70
0
 71
3
 72
13
 73
9
 74
0
 42
0.0000001
 43
0.0000001
 44
0.0000000001
 40
0.0
 40
0.0
 40
0.0
 40
0.0
 40
0.1200944383
 40
0.2407784658
 40
0.3626074151
 40
0.4860451709
 40
0.7385219631
 40
1.0
 40
1.0
 40
1.0
 40
1.0
 10
158.7399012855
 20
147.4146397623
 30
0.0
 10
158.7399012855
 20
147.3891324498
 30
0.0
 10
158.7435416593
 20
147.3379189457
 30
0.0
 10
158.7598208582
 20
147.2623985218
 30
0.0
 10
158.7866714568
 20
147.1891857452
 30
0.0
 10
158.8363099645
 20
147.0955279943
 30
0.0
 10
158.9231439508
 20
146.9896266462
 30
0.0
 10
159.0118322468
 20
146.9239950578
 30
0.0
 10
159.0599012855
 20
146.8961805064
 30
0.0
  0
SPLINE
  5
6C9
100
AcDbEntity
  8
2_FEATURE
100
AcDbSpline
 62
7
  6
CONTINUOUS
 70
0
 71
3
 72
23
 73
19
 74
0
 42
0.0000001
 43
0.0000001
 44
0.0000000001
 40
0.0
 40
0.0
 40
0.0
 40
0.0
 40
0.1931742608
 40
0.370324077
 40
0.5283783727
 40
0.5995579408
 40
0.6651884442
 40
0.7251147365
 40
0.7792925589
 40
0.8711735092
 40
0.8910110279
 40
0.9096330644
 40
0.9272142235
 40
0.9439829953
 40
0.9597662104
 40
0.9740299584
 40
0.9869417189
 40
1.0
 40
1.0
 40
1.0
 40
1.0
 10
172.7169263765
 20
150.5230466409
 30
0.0
 10
172.7744182015
 20
150.5295734712
 30
0.0
 10
172.8843495363
 20
150.5447775037
 30
0.0
 10
173.0399068228
 20
150.5742680758
 30
0.0
 10
173.1579676254
 20
150.6044536576
 30
0.0
 10
173.2418822726
 20
150.6320991405
 30
0.0
 10
173.2969553175
 20
150.6531153862
 30
0.0
 10
173.3461924175
 20
150.67500365
 30
0.0
 10
173.4008374468
 20
150.703608605
 30
0.0
 10
173.4421875876
 20
150.7321025142
 30
0.0
 10
173.4699190021
 20
150.7596245175
 30
0.0
 10
173.4809809628
 20
150.7722707625
 30
0.0
 10
173.4903977616
 20
150.7850700122
 30
0.0
 10
173.4980359602
 20
150.7980301609
 30
0.0
 10
173.5039310716
 20
150.810775168
 30
0.0
 10
173.5082937942
 20
150.8228996996
 30
0.0
 10
173.5110760322
 20
150.8346642031
 30
0.0
 10
173.5116273899
 20
150.8424609206
 30
0.0
 10
173.5116414537
 20
150.8463722176
 30
0.0
  0
SPLINE
  5
6CA
100
AcDbEntity
  8
0
100
AcDbSpline
 62
7
  6
CONTINUOUS
 70
0
 71
3
 72
13
 73
9
 74
0
 42
0.0000001
 43
0.0000001
 44
0.0000000001
 40
0.0
 40
0.0
 40
0.0
 40
0.0
 40
0.2655958412
 40
0.5219612711
 40
0.6456213529
 40
0.7659615724
 40
0.8836953317
 40
1.0
 40
1.0
 40
1.0
 40
1.0
 10
159.4999012855
 20
147.6929238779
 30
0.0
 10
159.4740132914
 20
147.6929238779
 30
0.0
 10
159.4227206684
 20
147.6843332751
 30
0.0
 10
159.366685503
 20
147.6524874287
 30
0.0
 10
159.3328405784
 20
147.6169616877
 30
0.0
 10
159.3140954356
 20
147.5867784671
 30
0.0
 10
159.3025186081
 20
147.5539496002
 30
0.0
 10
159.2999012855
 20
147.5310551741
 30
0.0
 10
159.2999012855
 20
147.5197187971
 30
0.0
  0
SPLINE
  5
6CB
100
AcDbEntity
  8
2_FEATURE
100
AcDbSpline
 62
7
  6
CONTINUOUS
 70
0
 71
3
 72
11
 73
7
 74
0
 42
0.0000001
 43
0.0000001
 44
0.0000000001
 40
0.0
 40
0.0
 40
0.0
 40
0.0
 40
0.2630220547
 40
0.518774495
 40
0.7653075257
 40
1.0
 40
1.0
 40
1.0
 40
1.0
 10
169.0114628758
 20
101.7939164404
 30
0.0
 10
169.0114633363
 20
101.7598558308
 30
0.0
 10
169.0129540507
 20
101.6926618236
 30
0.0
 10
169.0209539419
 20
101.5937970426
 30
0.0
 10
169.0362429296
 20
101.4994872597
 30
0.0
 10
169.0533776708
 20
101.4392692531
 30
0.0
 10
169.0644375667
 20
101.4109610752
 30
0.0
  0
SPLINE
  5
6CC
100
AcDbEntity
  8
0
100
AcDbSpline
 62
7
  6
CONTINUOUS
 70
0
 71
3
 72
11
 73
7
 74
0
 42
0.0000001
 43
0.0000001
 44
0.0000000001
 40
0.0
 40
0.0
 40
0.0
 40
0.0
 40
0.2406448821
 40
0.4865733815
 40
0.7395297225
 40
1.0
 40
1.0
 40
1.0
 40
1.0
 10
158.7489533188
 20
147.4160763157
 30
0.0
 10
158.7567992364
 20
147.3736319828
 30
0.0
 10
158.7830041157
 20
147.2894041907
 30
0.0
 10
158.8506846331
 20
147.1740963489
 30
0.0
 10
158.9439083423
 20
147.0734563203
 30
0.0
 10
159.019463656
 20
147.0195792378
 30
0.0
 10
159.0599012855
 20
146.9961805064
 30
0.0
  0
SPLINE
  5
6CD
100
AcDbEntity
  8
2_FEATURE
100
AcDbSpline
 62
7
  6
CONTINUOUS
 70
0
 71
3
 72
9
 73
5
 74
0
 42
0.0000001
 43
0.0000001
 44
0.0000000001
 40
0.0
 40
0.0
 40
0.0
 40
0.0
 40
0.5347170229
 40
1.0
 40
1.0
 40
1.0
 40
1.0
 10
169.0644375385
 20
101.4109610955
 30
0.0
 10
169.082861005
 20
101.3638056095
 30
0.0
 10
169.1155985492
 20
101.2749315515
 30
0.0
 10
169.1437663965
 20
101.1844695281
 30
0.0
 10
169.1553296372
 20
101.1419614709
 30
0.0
  0
SPLINE
  5
6CE
100
AcDbEntity
  8
2_FEATURE
100
AcDbSpline
 62
7
  6
CONTINUOUS
 70
0
 71
3
 72
9
 73
5
 74
0
 42
0.0000001
 43
0.0000001
 44
0.0000000001
 40
0.0
 40
0.0
 40
0.0
 40
0.0
 40
0.5030674629
 40
1.0
 40
1.0
 40
1.0
 40
1.0
 10
172.2116414537
 20
151.2994784475
 30
0.0
 10
172.2970556041
 20
151.1697250386
 30
0.0
 10
172.4668452193
 20
150.9118035518
 30
0.0
 10
172.6346549463
 20
150.6525763872
 30
0.0
 10
172.7169263765
 20
150.5230466409
 30
0.0
  0
SPLINE
  5
6CF
100
AcDbEntity
  8
2_FEATURE
100
AcDbSpline
 62
7
  6
CONTINUOUS
 70
0
 71
3
 72
13
 73
9
 74
0
 42
0.0000001
 43
0.0000001
 44
0.0000000001
 40
0.0
 40
0.0
 40
0.0
 40
0.0
 40
0.2563075467
 40
0.383091428
 40
0.5088320978
 40
0.6334772907
 40
0.7569765779
 40
1.0
 40
1.0
 40
1.0
 40
1.0
 10
172.7169263765
 20
150.5230466409
 30
0.0
 10
172.6764495987
 20
150.4594078375
 30
0.0
 10
172.6146752688
 20
150.365096594
 30
0.0
 10
172.5307183013
 20
150.2411209897
 30
0.0
 10
172.4676162737
 20
150.1498175057
 30
0.0
 10
172.404090397
 20
150.0599889977
 30
0.0
 10
172.3191611098
 20
149.9430401919
 30
0.0
 10
172.254511164
 20
149.8567082568
 30
0.0
 10
172.2116315287
 20
149.7994784475
 30
0.0
  0
SPLINE
  5
6D0
100
AcDbEntity
  8
0
100
AcDbSpline
 62
7
  6
CONTINUOUS
 70
0
 71
3
 72
15
 73
11
 74
0
 42
0.0000001
 43
0.0000001
 44
0.0000000001
 40
0.0
 40
0.0
 40
0.0
 40
0.0
 40
0.1336413284
 40
0.2660265797
 40
0.3960589844
 40
0.5229515258
 40
0.646355502
 40
0.7664464348
 40
0.8839385777
 40
1.0
 40
1.0
 40
1.0
 40
1.0
 10
159.7799012855
 20
144.1941812466
 30
0.0
 10
159.8321142769
 20
144.1941812466
 30
0.0
 10
159.9362690961
 20
144.203014141
 30
0.0
 10
160.0866895056
 20
144.2423442881
 30
0.0
 10
160.225598537
 20
144.3063095441
 30
0.0
 10
160.3476561764
 20
144.3925923241
 30
0.0
 10
160.4481622331
 20
144.4980371327
 30
0.0
 10
160.5231204446
 20
144.6187617792
 30
0.0
 10
160.5694335222
 20
144.7500797948
 30
0.0
 10
160.5799012855
 20
144.8416569587
 30
0.0
 10
160.5799012855
 20
144.8870015696
 30
0.0
  0
SPLINE
  5
6D1
100
AcDbEntity
  8
0
100
AcDbSpline
 62
7
  6
CONTINUOUS
 70
0
 71
3
 72
15
 73
11
 74
0
 42
0.0000001
 43
0.0000001
 44
0.0000000001
 40
0.0
 40
0.0
 40
0.0
 40
0.0
 40
0.1336430174
 40
0.266026714
 40
0.3960590079
 40
0.5229514845
 40
0.6463554764
 40
0.7664462926
 40
0.8839371026
 40
1.0
 40
1.0
 40
1.0
 40
1.0
 10
159.6199012855
 20
145.6798218927
 30
0.0
 10
159.6460081071
 20
145.6798218927
 30
0.0
 10
159.6980855535
 20
145.675405427
 30
0.0
 10
159.7732956541
 20
145.6557400923
 30
0.0
 10
159.8427499519
 20
145.6237577868
 30
0.0
 10
159.903778495
 20
145.5806161056
 30
0.0
 10
159.954031778
 20
145.5278940139
 30
0.0
 10
159.9915105618
 20
145.4675318188
 30
0.0
 10
160.0146673719
 20
145.4018729475
 30
0.0
 10
160.0199012855
 20
145.3560843212
 30
0.0
 10
160.0199012855
 20
145.3334117311
 30
0.0
  0
SPLINE
  5
6D2
100
AcDbEntity
  8
0
100
AcDbSpline
 62
7
  6
CONTINUOUS
 70
0
 71
3
 72
15
 73
11
 74
0
 42
0.0000001
 43
0.0000001
 44
0.0000000001
 40
0.0
 40
0.0
 40
0.0
 40
0.0
 40
0.1327086001
 40
0.2643803179
 40
0.3940909184
 40
0.5211245943
 40
0.6450696187
 40
0.7658879068
 40
0.8839474993
 40
1.0
 40
1.0
 40
1.0
 40
1.0
 10
159.7799012855
 20
144.2941812466
 30
0.0
 10
159.8273837895
 20
144.2941812466
 30
0.0
 10
159.9221425837
 20
144.3014888783
 30
0.0
 10
160.0598948115
 20
144.3340848072
 30
0.0
 10
160.1889343664
 20
144.3873130452
 30
0.0
 10
160.3051622794
 20
144.4595651569
 30
0.0
 10
160.4048995886
 20
144.5486412175
 30
0.0
 10
160.4849250051
 20
144.6518312021
 30
0.0
 10
160.5425738932
 20
144.7658537437
 30
0.0
 10
160.5649217451
 20
144.8472891235
 30
0.0
 10
160.5717330069
 20
144.8882496999
 30
0.0
  0
SPLINE
  5
6D3
100
AcDbEntity
  8
0
100
AcDbSpline
 62
7
  6
CONTINUOUS
 70
0
 71
3
 72
13
 73
9
 74
0
 42
0.0000001
 43
0.0000001
 44
0.0000000001
 40
0.0
 40
0.0
 40
0.0
 40
0.0
 40
0.1163056034
 40
0.2340381578
 40
0.3543786586
 40
0.4780389219
 40
0.7344046123
 40
1.0
 40
1.0
 40
1.0
 40
1.0
 10
159.2999012855
 20
147.6197187971
 30
0.0
 10
159.2999012855
 20
147.6310552605
 30
0.0
 10
159.302518491
 20
147.6539497011
 30
0.0
 10
159.3140958005
 20
147.6867783374
 30
0.0
 10
159.332840294
 20
147.716961861
 30
0.0
 10
159.3666858944
 20
147.7524871035
 30
0.0
 10
159.4227207043
 20
147.7843331676
 30
0.0
 10
159.4740133464
 20
147.7929238779
 30
0.0
 10
159.4999012855
 20
147.7929238779
 30
0.0
  0
SPLINE
  5
6D4
100
AcDbEntity
  8
0
100
AcDbSpline
 62
7
  6
CONTINUOUS
 70
0
 71
3
 72
15
 73
11
 74
0
 42
0.0000001
 43
0.0000001
 44
0.0000000001
 40
0.0
 40
0.0
 40
0.0
 40
0.0
 40
0.1329180487
 40
0.2647551319
 40
0.3945490246
 40
0.5215673437
 40
0.6454073348
 40
0.7660694447
 40
0.8839880755
 40
1.0
 40
1.0
 40
1.0
 40
1.0
 10
161.7199012855
 20
142.9778226328
 30
0.0
 10
161.7817322559
 20
142.9778226328
 30
0.0
 10
161.9051152544
 20
142.9875407325
 30
0.0
 10
162.0842365886
 20
143.0308724369
 30
0.0
 10
162.25153894
 20
143.1015734448
 30
0.0
 10
162.4014781861
 20
143.1974178261
 30
0.0
 10
162.5290988205
 20
143.3153664502
 30
0.0
 10
162.630086876
 20
143.4516772945
 30
0.0
 10
162.7009177811
 20
143.601822066
 30
0.0
 10
162.7264858563
 20
143.7085542063
 30
0.0
 10
162.7334618915
 20
143.7620679853
 30
0.0
  0
SPLINE
  5
6D5
100
AcDbEntity
  8
0
100
AcDbSpline
 62
7
  6
CONTINUOUS
 70
0
 71
3
 72
16
 73
12
 74
0
 42
0.0000001
 43
0.0000001
 44
0.0000000001
 40
0.0
 40
0.0
 40
0.0
 40
0.0
 40
0.040711719
 40
0.0825691898
 40
0.1732700703
 40
0.2778851012
 40
0.3982805045
 40
0.5336998152
 40
0.6816493638
 40
0.8385136488
 40
1.0
 40
1.0
 40
1.0
 40
1.0
 10
38.9650353711
 20
217.5228116464
 30
0.0
 10
38.9584695816
 20
217.5228116464
 30
0.0
 10
38.9451180021
 20
217.5214804751
 30
0.0
 10
38.9182145815
 20
217.5133919124
 30
0.0
 10
38.885311819
 20
217.4925164229
 30
0.0
 10
38.8509322919
 20
217.4544007202
 30
0.0
 10
38.8210989953
 20
217.4041690396
 30
0.0
 10
38.7967390682
 20
217.3435619215
 30
0.0
 10
38.7786579236
 20
217.2747386001
 30
0.0
 10
38.7675285999
 20
217.2002346418
 30
0.0
 10
38.7650353711
 20
217.1488553855
 30
0.0
 10
38.7650353711
 20
217.1228116464
 30
0.0
  0
SPLINE
  5
6D6
100
AcDbEntity
  8
0
100
AcDbSpline
 62
7
  6
CONTINUOUS
 70
0
 71
3
 72
14
 73
10
 74
0
 42
0.0000001
 43
0.0000001
 44
0.0000000001
 40
0.0
 40
0.0
 40
0.0
 40
0.0
 40
0.0954723167
 40
0.1950649672
 40
0.302206765
 40
0.4192628416
 40
0.5475371879
 40
0.6874335482
 40
1.0
 40
1.0
 40
1.0
 40
1.0
 10
37.7057027801
 20
216.2428116464
 30
0.0
 10
37.7205029952
 20
216.2428116464
 30
0.0
 10
37.750861094
 20
216.246623209
 30
0.0
 10
37.7949972721
 20
216.263419229
 30
0.0
 10
37.8374418155
 20
216.2907984196
 30
0.0
 10
37.8776229263
 20
216.3281653118
 30
0.0
 10
37.915084457
 20
216.3749039815
 30
0.0
 10
37.962497466
 20
216.4516223921
 30
0.0
 10
37.9896820172
 20
216.5168540545
 30
0.0
 10
38.0050353711
 20
216.5628116464
 30
0.0
  0
SPLINE
  5
6D7
100
AcDbEntity
  8
0
100
AcDbSpline
 62
7
  6
CONTINUOUS
 70
0
 71
3
 72
17
 73
13
 74
0
 42
0.0000001
 43
0.0000001
 44
0.0000000001
 40
0.0
 40
0.0
 40
0.0
 40
0.0
 40
0.0407013099
 40
0.0825456487
 40
0.1265459525
 40
0.1735003785
 40
0.2780864128
 40
0.3984483421
 40
0.5338297987
 40
0.6817382213
 40
0.8385599523
 40
1.0
 40
1.0
 40
1.0
 40
1.0
 10
39.8150353711
 20
218.2028116464
 30
0.0
 10
39.8317785216
 20
218.2028116464
 30
0.0
 10
39.8658242725
 20
218.2062026669
 30
0.0
 10
39.915945055
 20
218.2212854123
 30
0.0
 10
39.9648982865
 20
218.2461130072
 30
0.0
 10
40.030284841
 20
218.2934358221
 30
0.0
 10
40.1060750552
 20
218.3772967714
 30
0.0
 10
40.1820481941
 20
218.505338373
 30
0.0
 10
40.244198688
 20
218.6599022025
 30
0.0
 10
40.2902959237
 20
218.8353973116
 30
0.0
 10
40.3186782199
 20
219.0253839276
 30
0.0
 10
40.3250353711
 20
219.1564006381
 30
0.0
 10
40.3250353711
 20
219.2228116464
 30
0.0
  0
SPLINE
  5
6D8
100
AcDbEntity
  8
2_FEATURE
100
AcDbSpline
 62
7
  6
CONTINUOUS
 70
0
 71
3
 72
29
 73
25
 74
0
 42
0.0000001
 43
0.0000001
 44
0.0000000001
 40
0.0
 40
0.0
 40
0.0
 40
0.0
 40
0.0651097047
 40
0.1298813195
 40
0.1944341828
 40
0.258939051
 40
0.32363257
 40
0.3888329438
 40
0.4549417602
 40
0.5223753102
 40
0.5566810074
 40
0.5913077571
 40
0.6260795446
 40
0.6606705258
 40
0.6946242779
 40
0.7274699082
 40
0.7588878924
 40
0.7888050075
 40
0.8173625091
 40
0.8448181293
 40
0.8714571837
 40
0.8975418691
 40
0.9488268176
 40
1.0
 40
1.0
 40
1.0
 40
1.0
 10
53.5792920626
 20
206.0145518146
 30
0.0
 10
53.3550030484
 20
206.0145513058
 30
0.0
 10
52.9075687463
 20
206.0188862194
 30
0.0
 10
52.2381077677
 20
206.0423886628
 30
0.0
 10
51.5717862509
 20
206.0875228532
 30
0.0
 10
50.9080708271
 20
206.1600680076
 30
0.0
 10
50.2466957989
 20
206.2674390271
 30
0.0
 10
49.5881973413
 20
206.41946699
 30
0.0
 10
48.9355247061
 20
206.6292896648
 30
0.0
 10
48.4059970776
 20
206.8657305625
 30
0.0
 10
47.999564085
 20
207.1021191902
 30
0.0
 10
47.7062578269
 20
207.3068878499
 30
0.0
 10
47.4328375677
 20
207.5392758817
 30
0.0
 10
47.1876099461
 20
207.798296346
 30
0.0
 10
46.9794133196
 20
208.0799113062
 30
0.0
 10
46.815500676
 20
208.377107254
 30
0.0
 10
46.6995636475
 20
208.6812846307
 30
0.0
 10
46.6311274934
 20
208.9843472381
 30
0.0
 10
46.6065655002
 20
209.2802593387
 30
0.0
 10
46.6207629737
 20
209.565401722
 30
0.0
 10
46.6684756475
 20
209.8381148497
 30
0.0
 10
46.7698173205
 20
210.1824345027
 30
0.0
 10
46.9594237082
 20
210.5856674835
 30
0.0
 10
47.1614928473
 20
210.8767818967
 30
0.0
 10
47.2714670526
 20
211.0145518146
 30
0.0
  0
SPLINE
  5
6D9
100
AcDbEntity
  8
0
100
AcDbSpline
 62
7
  6
CONTINUOUS
 70
0
 71
3
 72
17
 73
13
 74
0
 42
0.0000001
 43
0.0000001
 44
0.0000000001
 40
0.0
 40
0.0
 40
0.0
 40
0.0
 40
0.1614400477
 40
0.3182617787
 40
0.4661702013
 40
0.6015516579
 40
0.7219135872
 40
0.8264996215
 40
0.8734540475
 40
0.9174543513
 40
0.9592986901
 40
1.0
 40
1.0
 40
1.0
 40
1.0
 10
40.3250353711
 20
219.2228116464
 30
0.0
 10
40.3250353711
 20
219.2892226548
 30
0.0
 10
40.3186782199
 20
219.4202393652
 30
0.0
 10
40.2902959237
 20
219.6102259812
 30
0.0
 10
40.244198688
 20
219.7857210904
 30
0.0
 10
40.1820481941
 20
219.9402849198
 30
0.0
 10
40.1060750552
 20
220.0683265215
 30
0.0
 10
40.030284841
 20
220.1521874707
 30
0.0
 10
39.9648982865
 20
220.1995102857
 30
0.0
 10
39.915945055
 20
220.2243378806
 30
0.0
 10
39.8658242725
 20
220.2394206259
 30
0.0
 10
39.8317785216
 20
220.2428116464
 30
0.0
 10
39.8150353711
 20
220.2428116464
 30
0.0
  0
SPLINE
  5
6DA
100
AcDbEntity
  8
0
100
AcDbSpline
 62
7
  6
CONTINUOUS
 70
0
 71
3
 72
14
 73
10
 74
0
 42
0.0000001
 43
0.0000001
 44
0.0000000001
 40
0.0
 40
0.0
 40
0.0
 40
0.0
 40
0.3181912009
 40
0.4662564
 40
0.6017819586
 40
0.7222713925
 40
0.8269687405
 40
0.9177393562
 40
1.0
 40
1.0
 40
1.0
 40
1.0
 10
37.5450353711
 20
217.0028116464
 30
0.0
 10
37.5450353711
 20
216.9771735506
 30
0.0
 10
37.5485520022
 20
216.9394199714
 30
0.0
 10
37.5608845474
 20
216.8924396505
 30
0.0
 10
37.5730698152
 20
216.8621324629
 30
0.0
 10
37.5879769111
 20
216.8370166375
 30
0.0
 10
37.6051945345
 20
216.8179614313
 30
0.0
 10
37.6243581807
 20
216.8057394679
 30
0.0
 10
37.6384072611
 20
216.8028116464
 30
0.0
 10
37.6450353711
 20
216.8028116464
 30
0.0
  0
SPLINE
  5
6DB
100
AcDbEntity
  8
0
100
AcDbSpline
 62
7
  6
CONTINUOUS
 70
0
 71
3
 72
17
 73
13
 74
0
 42
0.0000001
 43
0.0000001
 44
0.0000000001
 40
0.0
 40
0.0
 40
0.0
 40
0.0
 40
0.1614558821
 40
0.3182926529
 40
0.4662154144
 40
0.6016100086
 40
0.7219836027
 40
0.7762919106
 40
0.8267616009
 40
0.9174463604
 40
0.9592947484
 40
1.0
 40
1.0
 40
1.0
 40
1.0
 10
39.5650353711
 20
217.2828116464
 30
0.0
 10
39.5650353711
 20
217.3348987769
 30
0.0
 10
39.5600488576
 20
217.437657974
 30
0.0
 10
39.5377905853
 20
217.5866629149
 30
0.0
 10
39.501627992
 20
217.7243201467
 30
0.0
 10
39.452908377
 20
217.8455009547
 30
0.0
 10
39.401567014
 20
217.9320350938
 30
0.0
 10
39.3551543682
 20
217.9881243276
 30
0.0
 10
39.3095218489
 20
218.031735073
 30
0.0
 10
39.2586682747
 20
218.0639741536
 30
0.0
 10
39.2048719
 20
218.080149263
 30
0.0
 10
39.178167254
 20
218.0828116464
 30
0.0
 10
39.1650353711
 20
218.0828116464
 30
0.0
  0
SPLINE
  5
6DC
100
AcDbEntity
  8
0
100
AcDbSpline
 62
7
  6
CONTINUOUS
 70
0
 71
3
 72
29
 73
25
 74
0
 42
0.0000001
 43
0.0000001
 44
0.0000000001
 40
0.0
 40
0.0
 40
0.0
 40
0.0
 40
0.0651097047
 40
0.1298813195
 40
0.1944341828
 40
0.258939051
 40
0.32363257
 40
0.3888329438
 40
0.4549417602
 40
0.5223753102
 40
0.5566810074
 40
0.5913077571
 40
0.6260795446
 40
0.6606705258
 40
0.6946242779
 40
0.7274699082
 40
0.7588878924
 40
0.7888050075
 40
0.8173625091
 40
0.8448181293
 40
0.8714571837
 40
0.8975418691
 40
0.9488268176
 40
1.0
 40
1.0
 40
1.0
 40
1.0
 10
70.6744914065
 20
206.0145518146
 30
0.0
 10
70.8987804208
 20
206.0145513058
 30
0.0
 10
71.3462147228
 20
206.0188862194
 30
0.0
 10
72.0156757014
 20
206.0423886628
 30
0.0
 10
72.6819972182
 20
206.0875228532
 30
0.0
 10
73.345712642
 20
206.1600680076
 30
0.0
 10
74.0070876703
 20
206.2674390271
 30
0.0
 10
74.6655861279
 20
206.41946699
 30
0.0
 10
75.3182587631
 20
206.6292896648
 30
0.0
 10
75.8477863916
 20
206.8657305625
 30
0.0
 10
76.2542193841
 20
207.1021191902
 30
0.0
 10
76.5475256423
 20
207.3068878499
 30
0.0
 10
76.8209459015
 20
207.5392758817
 30
0.0
 10
77.0661735231
 20
207.798296346
 30
0.0
 10
77.2743701496
 20
208.0799113062
 30
0.0
 10
77.4382827931
 20
208.377107254
 30
0.0
 10
77.5542198217
 20
208.6812846307
 30
0.0
 10
77.6226559757
 20
208.9843472381
 30
0.0
 10
77.647217969
 20
209.2802593387
 30
0.0
 10
77.6330204954
 20
209.565401722
 30
0.0
 10
77.5853078216
 20
209.8381148497
 30
0.0
 10
77.4839661487
 20
210.1824345027
 30
0.0
 10
77.294359761
 20
210.5856674835
 30
0.0
 10
77.0922906219
 20
210.8767818967
 30
0.0
 10
76.9823164166
 20
211.0145518146
 30
0.0
  0
SPLINE
  5
6DD
100
AcDbEntity
  8
0
100
AcDbSpline
 62
7
  6
CONTINUOUS
 70
0
 71
3
 72
12
 73
8
 74
0
 42
0.0000001
 43
0.0000001
 44
0.0000000001
 40
0.0
 40
0.0
 40
0.0
 40
0.0
 40
0.2005560573
 40
0.3122317535
 40
0.4324927122
 40
0.6993805116
 40
1.0
 40
1.0
 40
1.0
 40
1.0
 10
39.1700491122
 20
218.0700330373
 30
0.0
 10
39.1453218831
 20
218.0605895468
 30
0.0
 10
39.1095184802
 20
218.038414772
 30
0.0
 10
39.0679608693
 20
217.9992197491
 30
0.0
 10
39.0256480444
 20
217.9485746253
 30
0.0
 10
38.9788779702
 20
217.8701604127
 30
0.0
 10
38.9508120795
 20
217.8004426252
 30
0.0
 10
38.9382404518
 20
217.7628116464
 30
0.0
  0
SPLINE
  5
6DE
100
AcDbEntity
  8
2_FEATURE
100
AcDbSpline
 62
7
  6
CONTINUOUS
 70
0
 71
3
 72
11
 73
7
 74
0
 42
0.0000001
 43
0.0000001
 44
0.0000000001
 40
0.0
 40
0.0
 40
0.0
 40
0.0
 40
0.2163891095
 40
0.4485816284
 40
0.7051977599
 40
1.0
 40
1.0
 40
1.0
 40
1.0
 10
39.7373271768
 20
211.3592850551
 30
0.0
 10
39.8245115678
 20
211.3316105195
 30
0.0
 10
40.0000056123
 20
211.2564061187
 30
0.0
 10
40.2488693622
 20
211.089294283
 30
0.0
 10
40.485450388
 20
210.8546282247
 30
0.0
 10
40.6146216784
 20
210.6577343214
 30
0.0
 10
40.670642882
 20
210.5464184186
 30
0.0
  0
SPLINE
  5
6DF
100
AcDbEntity
  8
2_FEATURE
100
AcDbSpline
 62
7
  6
CONTINUOUS
 70
0
 71
3
 72
10
 73
6
 74
0
 42
0.0000001
 43
0.0000001
 44
0.0000000001
 40
0.0
 40
0.0
 40
0.0
 40
0.0
 40
0.2400541893
 40
0.4881283932
 40
1.0
 40
1.0
 40
1.0
 40
1.0
 10
40.670642882
 20
210.5464184186
 30
0.0
 10
40.7031295821
 20
210.4818665546
 30
0.0
 10
40.7653030426
 20
210.3486358136
 30
0.0
 10
40.8806025746
 20
210.0704885411
 30
0.0
 10
40.958078186
 20
209.855117706
 30
0.0
 10
41.0085472438
 20
209.7095236456
 30
0.0
  0
SPLINE
  5
6E0
100
AcDbEntity
  8
0
100
AcDbSpline
 62
7
  6
CONTINUOUS
 70
0
 71
3
 72
17
 73
13
 74
0
 42
0.0000001
 43
0.0000001
 44
0.0000000001
 40
0.0
 40
0.0
 40
0.0
 40
0.0
 40
0.1614400477
 40
0.3182617787
 40
0.4661702013
 40
0.6015516579
 40
0.7219135872
 40
0.8264996215
 40
0.8734540475
 40
0.9174543513
 40
0.9592986901
 40
1.0
 40
1.0
 40
1.0
 40
1.0
 10
39.3050353711
 20
219.2228116464
 30
0.0
 10
39.3050353711
 20
219.1564006381
 30
0.0
 10
39.3113925222
 20
219.0253839276
 30
0.0
 10
39.3397748185
 20
218.8353973116
 30
0.0
 10
39.3858720541
 20
218.6599022025
 30
0.0
 10
39.448022548
 20
218.505338373
 30
0.0
 10
39.5239956869
 20
218.3772967714
 30
0.0
 10
39.5997859011
 20
218.2934358221
 30
0.0
 10
39.6651724556
 20
218.2461130072
 30
0.0
 10
39.7141256871
 20
218.2212854123
 30
0.0
 10
39.7642464696
 20
218.2062026669
 30
0.0
 10
39.7982922205
 20
218.2028116464
 30
0.0
 10
39.8150353711
 20
218.2028116464
 30
0.0
  0
SPLINE
  5
6E1
100
AcDbEntity
  8
0
100
AcDbSpline
 62
7
  6
CONTINUOUS
 70
0
 71
3
 72
17
 73
13
 74
0
 42
0.0000001
 43
0.0000001
 44
0.0000000001
 40
0.0
 40
0.0
 40
0.0
 40
0.0
 40
0.1614558821
 40
0.3182926529
 40
0.4662154144
 40
0.6016100086
 40
0.7219836027
 40
0.7762919106
 40
0.8267616009
 40
0.9174463604
 40
0.9592947484
 40
1.0
 40
1.0
 40
1.0
 40
1.0
 10
37.2050353711
 20
217.0428116464
 30
0.0
 10
37.2050353711
 20
216.9907245159
 30
0.0
 10
37.2100218845
 20
216.8879653188
 30
0.0
 10
37.2322801568
 20
216.738960378
 30
0.0
 10
37.2684427501
 20
216.6013031462
 30
0.0
 10
37.3171623651
 20
216.4801223381
 30
0.0
 10
37.3685037282
 20
216.393588199
 30
0.0
 10
37.4149163739
 20
216.3374989652
 30
0.0
 10
37.4605488932
 20
216.2938882199
 30
0.0
 10
37.5114024674
 20
216.2616491392
 30
0.0
 10
37.5651988421
 20
216.2454740299
 30
0.0
 10
37.5919034881
 20
216.2428116464
 30
0.0
 10
37.6050353711
 20
216.2428116464
 30
0.0
  0
SPLINE
  5
6E2
100
AcDbEntity
  8
0
100
AcDbSpline
 62
7
  6
CONTINUOUS
 70
0
 71
3
 72
16
 73
12
 74
0
 42
0.0000001
 43
0.0000001
 44
0.0000000001
 40
0.0
 40
0.0
 40
0.0
 40
0.0
 40
0.040711719
 40
0.0825691898
 40
0.1732700703
 40
0.2778851012
 40
0.3982805045
 40
0.5336998152
 40
0.6816493638
 40
0.8385136488
 40
1.0
 40
1.0
 40
1.0
 40
1.0
 10
37.8050353711
 20
216.8028116464
 30
0.0
 10
37.8116011606
 20
216.8028116464
 30
0.0
 10
37.82495274
 20
216.8041428177
 30
0.0
 10
37.8518561606
 20
216.8122313804
 30
0.0
 10
37.8847589231
 20
216.8331068699
 30
0.0
 10
37.9191384502
 20
216.8712225726
 30
0.0
 10
37.9489717468
 20
216.9214542533
 30
0.0
 10
37.9733316739
 20
216.9820613713
 30
0.0
 10
37.9914128185
 20
217.0508846927
 30
0.0
 10
38.0025421422
 20
217.1253886511
 30
0.0
 10
38.0050353711
 20
217.1767679073
 30
0.0
 10
38.0050353711
 20
217.2028116464
 30
0.0
  0
SPLINE
  5
6E3
100
AcDbEntity
  8
2_FEATURE
100
AcDbSpline
 62
7
  6
CONTINUOUS
 70
0
 71
3
 72
9
 73
5
 74
0
 42
0.0000001
 43
0.0000001
 44
0.0000000001
 40
0.0
 40
0.0
 40
0.0
 40
0.0
 40
0.458483649
 40
1.0
 40
1.0
 40
1.0
 40
1.0
 10
46.7904844014
 20
226.5143732367
 30
0.0
 10
46.8356731432
 20
226.5143742309
 30
0.0
 10
46.9343764603
 20
226.5221402371
 30
0.0
 10
47.0303616003
 20
226.5480101571
 30
0.0
 10
47.0801077558
 20
226.5673479275
 30
0.0
  0
SPLINE
  5
6E4
100
AcDbEntity
  8
2_FEATURE
100
AcDbSpline
 62
7
  6
CONTINUOUS
 70
0
 71
3
 72
9
 73
5
 74
0
 42
0.0000001
 43
0.0000001
 44
0.0000000001
 40
0.0
 40
0.0
 40
0.0
 40
0.0
 40
0.4821252092
 40
1.0
 40
1.0
 40
1.0
 40
1.0
 10
47.0801077869
 20
226.5673478994
 30
0.0
 10
47.1326006568
 20
226.5877533972
 30
0.0
 10
47.2441624481
 20
226.6232886025
 30
0.0
 10
47.3585197879
 20
226.6478844248
 30
0.0
 10
47.4181224571
 20
226.6582399981
 30
0.0
  0
SPLINE
  5
6E5
100
AcDbEntity
  8
2_FEATURE
100
AcDbSpline
 62
7
  6
CONTINUOUS
 70
0
 71
3
 72
12
 73
8
 74
0
 42
0.0000001
 43
0.0000001
 44
0.0000000001
 40
0.0
 40
0.0
 40
0.0
 40
0.0
 40
0.2317468224
 40
0.4758007459
 40
0.6024182384
 40
0.7322125172
 40
1.0
 40
1.0
 40
1.0
 40
1.0
 10
36.029107469
 20
230.2198367374
 30
0.0
 10
36.0467696177
 20
230.1779100842
 30
0.0
 10
36.0862590413
 20
230.0931582156
 30
0.0
 10
36.1435917025
 20
229.9896241089
 30
0.0
 10
36.1950401922
 20
229.9059104132
 30
0.0
 10
36.2512491797
 20
229.8197030598
 30
0.0
 10
36.2967114013
 20
229.7561707127
 30
0.0
 10
36.3288155232
 20
229.7145418895
 30
0.0
  0
SPLINE
  5
6E6
100
AcDbEntity
  8
2_FEATURE
100
AcDbSpline
 62
7
  6
CONTINUOUS
 70
0
 71
3
 72
14
 73
10
 74
0
 42
0.0000001
 43
0.0000001
 44
0.0000000001
 40
0.0
 40
0.0
 40
0.0
 40
0.0
 40
0.3909802409
 40
0.5524303084
 40
0.6904408931
 40
0.8045443099
 40
0.8943571219
 40
0.9595787776
 40
1.0
 40
1.0
 40
1.0
 40
1.0
 10
36.3288155232
 20
211.9931985547
 30
0.0
 10
36.2772515817
 20
211.9961179826
 30
0.0
 10
36.2043992094
 20
212.0003175029
 30
0.0
 10
36.1133469007
 20
212.0055702974
 30
0.0
 10
36.0588052904
 20
212.0086746212
 30
0.0
 10
36.0137067427
 20
212.0111508092
 30
0.0
 10
35.9782009984
 20
212.0129806277
 30
0.0
 10
35.9524083452
 20
212.0141013697
 30
0.0
 10
35.9384569314
 20
212.0145518362
 30
0.0
 10
35.9331174914
 20
212.0145518137
 30
0.0
  0
SPLINE
  5
6E7
100
AcDbEntity
  8
0
100
AcDbSpline
 62
7
  6
CONTINUOUS
 70
0
 71
3
 72
17
 73
13
 74
0
 42
0.0000001
 43
0.0000001
 44
0.0000000001
 40
0.0
 40
0.0
 40
0.0
 40
0.0
 40
0.0407013099
 40
0.0825456487
 40
0.1265459525
 40
0.1735003785
 40
0.2780864128
 40
0.3984483421
 40
0.5338297987
 40
0.6817382213
 40
0.8385599523
 40
1.0
 40
1.0
 40
1.0
 40
1.0
 10
39.8150353711
 20
220.2428116464
 30
0.0
 10
39.7982922205
 20
220.2428116464
 30
0.0
 10
39.7642464696
 20
220.2394206259
 30
0.0
 10
39.7141256871
 20
220.2243378806
 30
0.0
 10
39.6651724556
 20
220.1995102857
 30
0.0
 10
39.5997859011
 20
220.1521874707
 30
0.0
 10
39.5239956869
 20
220.0683265215
 30
0.0
 10
39.448022548
 20
219.9402849198
 30
0.0
 10
39.3858720541
 20
219.7857210904
 30
0.0
 10
39.3397748185
 20
219.6102259812
 30
0.0
 10
39.3113925222
 20
219.4202393652
 30
0.0
 10
39.3050353711
 20
219.2892226548
 30
0.0
 10
39.3050353711
 20
219.2228116464
 30
0.0
  0
SPLINE
  5
6E8
100
AcDbEntity
  8
0
100
AcDbSpline
 62
7
  6
CONTINUOUS
 70
0
 71
3
 72
16
 73
12
 74
0
 42
0.0000001
 43
0.0000001
 44
0.0000000001
 40
0.0
 40
0.0
 40
0.0
 40
0.0
 40
0.0850482329
 40
0.1316392273
 40
0.1813735312
 40
0.2908098512
 40
0.4136377035
 40
0.5485524923
 40
0.6932742061
 40
0.8448693639
 40
1.0
 40
1.0
 40
1.0
 40
1.0
 10
39.9016904515
 20
220.2280161458
 30
0.0
 10
39.8709702881
 20
220.2174354972
 30
0.0
 10
39.8260457241
 20
220.1928312893
 30
0.0
 10
39.7726246273
 20
220.1486008124
 30
0.0
 10
39.718034397
 20
220.0918024251
 30
0.0
 10
39.6557998507
 20
220.003101756
 30
0.0
 10
39.5935780656
 20
219.8769288188
 30
0.0
 10
39.5431729972
 20
219.7313063253
 30
0.0
 10
39.5060556384
 20
219.5705170354
 30
0.0
 10
39.483324003
 20
219.3993226807
 30
0.0
 10
39.4782404518
 20
219.282076625
 30
0.0
 10
39.4782404518
 20
219.2228116464
 30
0.0
  0
SPLINE
  5
6E9
100
AcDbEntity
  8
0
100
AcDbSpline
 62
7
  6
CONTINUOUS
 70
0
 71
3
 72
14
 73
10
 74
0
 42
0.0000001
 43
0.0000001
 44
0.0000000001
 40
0.0
 40
0.0
 40
0.0
 40
0.0
 40
0.3181912009
 40
0.4662564
 40
0.6017819586
 40
0.7222713925
 40
0.8269687405
 40
0.9177393562
 40
1.0
 40
1.0
 40
1.0
 40
1.0
 10
39.2250353711
 20
217.3228116464
 30
0.0
 10
39.2250353711
 20
217.3484497423
 30
0.0
 10
39.2215187399
 20
217.3862033215
 30
0.0
 10
39.2091861947
 20
217.4331836424
 30
0.0
 10
39.1970009269
 20
217.46349083
 30
0.0
 10
39.182093831
 20
217.4886066554
 30
0.0
 10
39.1648762076
 20
217.5076618615
 30
0.0
 10
39.1457125614
 20
217.519883825
 30
0.0
 10
39.131663481
 20
217.5228116464
 30
0.0
 10
39.1250353711
 20
217.5228116464
 30
0.0
  0
SPLINE
  5
6EA
100
AcDbEntity
  8
0
100
AcDbSpline
 62
7
  6
CONTINUOUS
 70
0
 71
3
 72
14
 73
10
 74
0
 42
0.0000001
 43
0.0000001
 44
0.0000000001
 40
0.0
 40
0.0
 40
0.0
 40
0.0
 40
0.0954723167
 40
0.1950649672
 40
0.302206765
 40
0.4192628416
 40
0.5475371879
 40
0.6874335482
 40
1.0
 40
1.0
 40
1.0
 40
1.0
 10
39.064367962
 20
218.0828116464
 30
0.0
 10
39.0495677469
 20
218.0828116464
 30
0.0
 10
39.0192096481
 20
218.0790000839
 30
0.0
 10
38.97507347
 20
218.0622040638
 30
0.0
 10
38.9326289267
 20
218.0348248733
 30
0.0
 10
38.8924478158
 20
217.997457981
 30
0.0
 10
38.8549862851
 20
217.9507193114
 30
0.0
 10
38.8075732761
 20
217.8740009008
 30
0.0
 10
38.7803887249
 20
217.8087692383
 30
0.0
 10
38.7650353711
 20
217.7628116464
 30
0.0
  0
SPLINE
  5
6EB
100
AcDbEntity
  8
0
100
AcDbSpline
 62
7
  6
CONTINUOUS
 70
0
 71
3
 72
11
 73
7
 74
0
 42
0.0000001
 43
0.0000001
 44
0.0000000001
 40
0.0
 40
0.0
 40
0.0
 40
0.0
 40
0.2163891095
 40
0.4485816284
 40
0.7051977599
 40
1.0
 40
1.0
 40
1.0
 40
1.0
 10
84.5164562924
 20
211.3592850551
 30
0.0
 10
84.4292719013
 20
211.3316105195
 30
0.0
 10
84.2537778568
 20
211.2564061187
 30
0.0
 10
84.004914107
 20
211.089294283
 30
0.0
 10
83.7683330811
 20
210.8546282247
 30
0.0
 10
83.6391617907
 20
210.6577343214
 30
0.0
 10
83.5831405871
 20
210.5464184186
 30
0.0
  0
SPLINE
  5
6EC
100
AcDbEntity
  8
0
100
AcDbSpline
 62
7
  6
CONTINUOUS
 70
0
 71
3
 72
10
 73
6
 74
0
 42
0.0000001
 43
0.0000001
 44
0.0000000001
 40
0.0
 40
0.0
 40
0.0
 40
0.0
 40
0.2400541893
 40
0.4881283932
 40
1.0
 40
1.0
 40
1.0
 40
1.0
 10
83.5831405871
 20
210.5464184186
 30
0.0
 10
83.5506538871
 20
210.4818665546
 30
0.0
 10
83.4884804266
 20
210.3486358136
 30
0.0
 10
83.3731808946
 20
210.0704885411
 30
0.0
 10
83.2957052832
 20
209.855117706
 30
0.0
 10
83.2452362254
 20
209.7095236456
 30
0.0
  0
SPLINE
  5
6ED
100
AcDbEntity
  8
0
100
AcDbSpline
 62
7
  6
CONTINUOUS
 70
0
 71
3
 72
9
 73
5
 74
0
 42
0.0000001
 43
0.0000001
 44
0.0000000001
 40
0.0
 40
0.0
 40
0.0
 40
0.0
 40
0.458483649
 40
1.0
 40
1.0
 40
1.0
 40
1.0
 10
77.4632990678
 20
226.5143732367
 30
0.0
 10
77.4181103259
 20
226.5143742309
 30
0.0
 10
77.3194070089
 20
226.5221402371
 30
0.0
 10
77.2234218689
 20
226.5480101571
 30
0.0
 10
77.1736757134
 20
226.5673479275
 30
0.0
  0
SPLINE
  5
6EE
100
AcDbEntity
  8
0
100
AcDbSpline
 62
7
  6
CONTINUOUS
 70
0
 71
3
 72
9
 73
5
 74
0
 42
0.0000001
 43
0.0000001
 44
0.0000000001
 40
0.0
 40
0.0
 40
0.0
 40
0.0
 40
0.4821252092
 40
1.0
 40
1.0
 40
1.0
 40
1.0
 10
77.1736756822
 20
226.5673478994
 30
0.0
 10
77.1211828124
 20
226.5877533972
 30
0.0
 10
77.0096210211
 20
226.6232886025
 30
0.0
 10
76.8952636813
 20
226.6478844248
 30
0.0
 10
76.835661012
 20
226.6582399981
 30
0.0
  0
SPLINE
  5
6EF
100
AcDbEntity
  8
0
100
AcDbSpline
 62
7
  6
CONTINUOUS
 70
0
 71
3
 72
14
 73
10
 74
0
 42
0.0000001
 43
0.0000001
 44
0.0000000001
 40
0.0
 40
0.0
 40
0.0
 40
0.0
 40
0.3909802409
 40
0.5524303084
 40
0.6904408931
 40
0.8045443099
 40
0.8943571219
 40
0.9595787776
 40
1.0
 40
1.0
 40
1.0
 40
1.0
 10
87.9249679459
 20
211.9931985547
 30
0.0
 10
87.9765318875
 20
211.9961179826
 30
0.0
 10
88.0493842598
 20
212.0003175029
 30
0.0
 10
88.1404365684
 20
212.0055702974
 30
0.0
 10
88.1949781787
 20
212.0086746212
 30
0.0
 10
88.2400767264
 20
212.0111508092
 30
0.0
 10
88.2755824708
 20
212.0129806277
 30
0.0
 10
88.301375124
 20
212.0141013697
 30
0.0
 10
88.3153265378
 20
212.0145518362
 30
0.0
 10
88.3206659777
 20
212.0145518137
 30
0.0
  0
SPLINE
  5
6F0
100
AcDbEntity
  8
0
100
AcDbSpline
 62
7
  6
CONTINUOUS
 70
0
 71
3
 72
12
 73
8
 74
0
 42
0.0000001
 43
0.0000001
 44
0.0000000001
 40
0.0
 40
0.0
 40
0.0
 40
0.0
 40
0.2317468224
 40
0.4758007459
 40
0.6024182384
 40
0.7322125172
 40
1.0
 40
1.0
 40
1.0
 40
1.0
 10
88.2246760001
 20
230.2198367374
 30
0.0
 10
88.2070138515
 20
230.1779100842
 30
0.0
 10
88.1675244279
 20
230.0931582156
 30
0.0
 10
88.1101917666
 20
229.9896241089
 30
0.0
 10
88.0587432769
 20
229.9059104132
 30
0.0
 10
88.0025342895
 20
229.8197030598
 30
0.0
 10
87.9570720679
 20
229.7561707127
 30
0.0
 10
87.9249679459
 20
229.7145418895
 30
0.0
  0
SPLINE
  5
6F1
100
AcDbEntity
  8
0
100
AcDbSpline
 62
7
  6
CONTINUOUS
 70
0
 71
3
 72
16
 73
12
 74
0
 42
0.0000001
 43
0.0000001
 44
0.0000000001
 40
0.0
 40
0.0
 40
0.0
 40
0.0
 40
0.1551306361
 40
0.3067257939
 40
0.4514475077
 40
0.5863622965
 40
0.7091901488
 40
0.8186264688
 40
0.8683607727
 40
0.9149517671
 40
1.0
 40
1.0
 40
1.0
 40
1.0
 10
39.4782404518
 20
219.2228116464
 30
0.0
 10
39.4782404518
 20
219.1635466679
 30
0.0
 10
39.483324003
 20
219.0463006122
 30
0.0
 10
39.5060556384
 20
218.8751062575
 30
0.0
 10
39.5431729972
 20
218.7143169675
 30
0.0
 10
39.5935780656
 20
218.568694474
 30
0.0
 10
39.6557998507
 20
218.4425215368
 30
0.0
 10
39.718034397
 20
218.3538208677
 30
0.0
 10
39.7726246273
 20
218.2970224805
 30
0.0
 10
39.8260457241
 20
218.2527920036
 30
0.0
 10
39.8709702881
 20
218.2281877956
 30
0.0
 10
39.9016904515
 20
218.217607147
 30
0.0
  0
SPLINE
  5
6F2
100
AcDbEntity
  8
0
100
AcDbSpline
 62
7
  6
CONTINUOUS
 70
0
 71
3
 72
16
 73
12
 74
0
 42
0.0000001
 43
0.0000001
 44
0.0000000001
 40
0.0
 40
0.0
 40
0.0
 40
0.0
 40
0.1614872879
 40
0.318350692
 40
0.4663002593
 40
0.6017192972
 40
0.7221149502
 40
0.8267299979
 40
0.9174303568
 40
0.9592891824
 40
1.0
 40
1.0
 40
1.0
 40
1.0
 10
38.1782404518
 20
217.2028116464
 30
0.0
 10
38.1782404518
 20
217.1767677577
 30
0.0
 10
38.1757471955
 20
217.1253884931
 30
0.0
 10
38.164617869
 20
217.0508845397
 30
0.0
 10
38.1465368649
 20
216.9820613507
 30
0.0
 10
38.1221765975
 20
216.9214544001
 30
0.0
 10
38.0923436268
 20
216.8712225217
 30
0.0
 10
38.0579640582
 20
216.8331069367
 30
0.0
 10
38.0250612249
 20
216.8122312201
 30
0.0
 10
37.9981577145
 20
216.804143032
 30
0.0
 10
37.9848060956
 20
216.8028116464
 30
0.0
 10
37.9782404518
 20
216.8028116464
 30
0.0
  0
SPLINE
  5
6F3
100
AcDbEntity
  8
0
100
AcDbSpline
 62
7
  6
CONTINUOUS
 70
0
 71
3
 72
15
 73
11
 74
0
 42
0.0000001
 43
0.0000001
 44
0.0000000001
 40
0.0
 40
0.0
 40
0.0
 40
0.0
 40
0.1551306721
 40
0.3067276002
 40
0.4514581594
 40
0.5863901199
 40
0.7092443934
 40
0.8187152503
 40
0.9149203606
 40
1.0
 40
1.0
 40
1.0
 40
1.0
 10
37.3782404518
 20
217.0428116464
 30
0.0
 10
37.3782404518
 20
216.9963508049
 30
0.0
 10
37.3822239142
 20
216.9044350196
 30
0.0
 10
37.4000363835
 20
216.7702236051
 30
0.0
 10
37.4291220308
 20
216.6441593037
 30
0.0
 10
37.4686201436
 20
216.5299838172
 30
0.0
 10
37.5173848573
 20
216.4310130073
 30
0.0
 10
37.5741758727
 20
216.3500505868
 30
0.0
 10
37.6376117938
 20
216.2894240113
 30
0.0
 10
37.6860152094
 20
216.2628326714
 30
0.0
 10
37.7100971865
 20
216.2545058794
 30
0.0
  0
SPLINE
  5
6F4
100
AcDbEntity
  8
0
100
AcDbSpline
 62
7
  6
CONTINUOUS
 70
0
 71
3
 72
14
 73
10
 74
0
 42
0.0000001
 43
0.0000001
 44
0.0000000001
 40
0.0
 40
0.0
 40
0.0
 40
0.0
 40
0.0822612894
 40
0.1730312446
 40
0.2777283118
 40
0.3982184099
 40
0.5337433909
 40
0.6818094776
 40
1.0
 40
1.0
 40
1.0
 40
1.0
 10
39.2982404518
 20
217.5228116464
 30
0.0
 10
39.3048686126
 20
217.5228116464
 30
0.0
 10
39.3189177433
 20
217.5198838979
 30
0.0
 10
39.338081105
 20
217.507661594
 30
0.0
 10
39.355299147
 20
217.4886068235
 30
0.0
 10
39.3702057142
 20
217.4634906677
 30
0.0
 10
39.3823915174
 20
217.4331836563
 30
0.0
 10
39.3947235087
 20
217.3862031876
 30
0.0
 10
39.3982404518
 20
217.3484496829
 30
0.0
 10
39.3982404518
 20
217.3228116464
 30
0.0
  0
ELLIPSE
  5
6F5
100
AcDbEntity
  8
2_FEATURE
100
AcDbEllipse
 62
7
  6
CONTINUOUS
 10
35.5743168308
 20
172.0145518146
 30
0.0
 11
0.0
 21
40.0
 31
0.0
 40
0.5773502692
 41
-0.1812544712
 42
-0.0326765665
  0
ELLIPSE
  5
6F6
100
AcDbEntity
  8
0
100
AcDbEllipse
 62
7
  6
CONTINUOUS
 10
88.6794666383
 20
172.0145518146
 30
0.0
 11
0.0
 21
40.0
 31
0.0
 40
0.5773502692
 41
0.0326765665
 42
0.1812544712
  0
ENDSEC
  0
SECTION
  2
OBJECTS
  0
DICTIONARY
  5
C
100
AcDbDictionary
280
0
281
1
  3
ACAD_GROUP
350
D
  3
ACAD_MLINESTYLE
350
17
  3
ACAD_LAYOUT
350
1A
  3
ACAD_PLOTSETTINGS
350
19
  3
ACAD_PLOTSTYLENAME
350
E
  3
ACAD_TABLESTYLE
350
       6F7
  0
DICTIONARY
  5
D
102
{ACAD_REACTORS
330
C
102
}
100
AcDbDictionary
280
0
281
1
  0
ACDBDICTIONARYWDFLT
  5
E
102
{ACAD_REACTORS
330
C
102
}
100
AcDbDictionary
281
1
  3
Normal
350
F
100
AcDbDictionaryWithDefault
340
F
  0
DICTIONARY
  5
17
102
{ACAD_REACTORS
330
C
102
}
100
AcDbDictionary
280
0
281
1
  3
Standard
350
18
  0
DICTIONARY
  5
6F7
330
C
100
AcDbDictionary
281
1
  3
Standard
350
       6FA
  3
Standard1
350
       6FB
  0
DICTIONARY
  5
19
102
{ACAD_REACTORS
330
C
102
}
100
AcDbDictionary
281
1
  0
DICTIONARY
  5
1A
102
{ACAD_REACTORS
330
C
102
}
100
AcDbDictionary
281
1
  3
Model
350
6F8
  3
Layout1
350
6F9
  0
ACDBPLACEHOLDER
  5
F
102
{ACAD_REACTORS
330
E
102
}
  0
MLINESTYLE
  5
18
102
{ACAD_REACTORS
330
17
102
}
100
AcDbMlineStyle
  2
STANDARD
 70
0
  3

 62
256
 51
90.0
 52
90.0
 71
2
 49
0.5
 62
256
  6
BYLAYER
 49
-0.5
 62
256
  6
BYLAYER
  0
LAYOUT
  5
6F8
102
{ACAD_REACTORS
330
1A
102
}
100
AcDbPlotSettings
  1

  2
none_device
  4

  6

 40
0.0
 41
0.0
 42
0.0
 43
0.0
 44
210.0
 45
297.0
 46
0.0
 47
0.0
 48
0.0
 49
0.0
140
0.0
141
0.0
142
1.0
143
1.0
 70
1024
 72
1
 73
0
 74
0
  7

 75
0
147
1.0
148
0.0
149
0.0
100
AcDbLayout
  1
Model
 70
0
 71
0
 10
0.0
 20
0.0
 11
210.0
 21
297.0
 12
0.0
 22
0.0
 32
0.0
 14
0.0
 24
0.0
 34
0.0
 15
0.0
 25
0.0
 35
0.0
146
0.0
 13
0.0
 23
0.0
 33
0.0
 16
1.0
 26
0.0
 36
0.0
 17
0.0
 27
1.0
 37
0.0
 76
0
330
20F
345
0
346
0
  0
LAYOUT
  5
6F9
102
{ACAD_REACTORS
330
1A
102
}
100
AcDbPlotSettings
  1

  2
none_device
  4

  6

 40
0.0
 41
0.0
 42
0.0
 43
0.0
 44
210.0
 45
297.0
 46
0.0
 47
0.0
 48
0.0
 49
0.0
140
0.0
141
0.0
142
1.0
143
1.0
 70
0
 72
1
 73
0
 74
0
  7

 75
0
147
1.0
148
0.0
149
0.0
100
AcDbLayout
  1
Layout1
 70
0
 71
1
 10
0.0
 20
0.0
 11
210.0
 21
297.0
 12
0.0
 22
0.0
 32
0.0
 14
0.0
 24
0.0
 34
0.0
 15
0.0
 25
0.0
 35
0.0
146
0.0
 13
0.0
 23
0.0
 33
0.0
 16
1.0
 26
0.0
 36
0.0
 17
0.0
 27
1.0
 37
0.0
 76
0
330
210
345
0
346
0
  0
TABLESTYLE
  5
6FA
102
{ACAD_REACTORS
330
6F7
330
344
102
}
330
6F7
100
AcDbTableStyle
  3
Standard
 70
0
 71
0
 40
0.06
 41
0.06
280
1
281
1
  7
Standard
140
0.18
170
1
 62
0
 63
7
283
0
  7
Standard
140
0.18
170
1
 62
0
 63
7
283
0
  7
Standard
140
0.18
170
1
 62
0
 63
7
283
0
  0
TABLESTYLE
  5
6FB
102
{ACAD_REACTORS
330
6F7
102
}
330
6F7
100
AcDbTableStyle
  3
Standard1
 70
1
 71
0
 40
0.06
 41
0.06
280
1
281
1
  7
Standard
140
0.18
170
1
 62
0
 63
7
283
0
  7
Standard
140
0.18
170
1
 62
0
 63
7
283
0
  7
Standard
140
0.18
170
1
 62
0
 63
7
283
0
  0
ENDSEC
  0
EOF
