999
DXF file: uni_1701_tab.dxf
999
Pro/ENGINEER 2015290 by Parametric Technology Corporation
  0
SECTION
  2
HEADER
  9
$ACADVER
  1
AC1027
  9
$DWGCODEPAGE
  3
ANSI_1252
  9
$EXTMAX
 10
210.0
 20
297.0
 30
0.0
  9
$EXTMIN
 10
0.0
 20
0.0
 30
0.0
  9
$LIMMIN
 10
0.0
 20
0.0
  9
$LIMMAX
 10
210.0
 20
297.0
  9
$VIEWCTR
 10
105.0
 20
148.5
  9
$VIEWSIZE
 40
297.0
  9
$CLAYER
  8
0
  9
$LTSCALE
 40
19.36
  9
$CELTYPE
  6
BYLAYER
  9
$DIMSCALE
 40
1.0
  9
$DIMASZ
 40
3.5
  9
$DIMEXO
 40
1.0
  9
$DIMDLI
 40
13.376
  9
$DIMEXE
 40
2.0
  9
$DIMCEN
 40
3.168
  9
$DIMLFAC
 40
1.0
  9
$DIMBLK
  1
_FILLED
  9
$DIMALT
 70
0
  9
$DIMALTF
 40
0.0393700787
  9
$DIMTXT
 40
3.5
  9
$DIMTOL
 70
1
  9
$DIMLIM
 70
0
  9
$DIMTFAC
 40
1.0
  9
$DIMTP
 40
0.01
  9
$DIMTM
 40
0.01
  9
$DIMGAP
 40
0.625
  9
$DIMDSEP
 70
46
  9
$AUNITS
 70
0
  9
$PDMODE
 70
3
  9
$PDSIZE
 40
0.3125
  9
$HANDSEED
  5
7D9
  9
$TILEMODE
 70
1
  9
$MEASUREMENT
 70
1
  9
$INSUNITS
 70
4
  0
ENDSEC
  0
SECTION
  2
CLASSES
  0
CLASS
  1
ACDBDICTIONARYWDFLT
  2
AcDbDictionaryWithDefault
  3
AutoCAD 2000
 90
0
 91
1
280
0
281
0
  0
CLASS
  1
ACDBPLACEHOLDER
  2
AcDbPlaceHolder
  3
AutoCAD 2000
 90
0
 91
1
280
0
281
0
  0
CLASS
  1
LAYOUT
  2
AcDbLayout
  3
AutoCAD 2000
 90
0
 91
0
280
0
281
0
  0
CLASS
  1
TABLESTYLE
  2
AcDbTableStyle
  3
ObjectDBX Classes
 90
2047
 91
1
280
0
281
0
  0
CLASS
  1
ACAD_TABLE
  2
AcDbTable
  3
ObjectDBX Classes
 90
1025
 91
1
280
0
281
1
  0
ENDSEC
  0
SECTION
  2
TABLES
  0
TABLE
  2
VPORT
  5
8
100
AcDbSymbolTable
 70
2
  0
VPORT
  5
1F4
100
AcDbSymbolTableRecord
100
AcDbViewportTableRecord
  2
*ACTIVE
 70
0
 10
0.0
 20
0.0
 11
1.0
 21
1.0
 12
105.0
 22
148.5
 13
0.0
 23
0.0
 14
1.0
 24
1.0
 15
0.0
 25
0.0
 16
0.0
 26
0.0
 36
1.0
 17
0.0
 27
0.0
 37
0.0
 40
297.0
 41
0.7070707071
 42
50.0
 43
0.0
 44
0.0
 50
0.0
 51
0.0
 71
0
 72
100
 73
1
 74
1
 75
0
 76
0
 77
0
 78
0
  0
ENDTAB
  0
TABLE
  2
LTYPE
  5
5
100
AcDbSymbolTable
 70
6
  0
LTYPE
  5
14
100
AcDbSymbolTableRecord
100
AcDbLinetypeTableRecord
  2
BYBLOCK
 70
0
  3

 72
65
 73
0
 40
0.0
  0
LTYPE
  5
15
100
AcDbSymbolTableRecord
100
AcDbLinetypeTableRecord
  2
BYLAYER
 70
0
  3

 72
65
 73
0
 40
0.0
  0
LTYPE
  5
16
100
AcDbSymbolTableRecord
100
AcDbLinetypeTableRecord
  2
CONTINUOUS
 70
64
  3
Solid line
 72
65
 73
0
 40
0.0
  0
LTYPE
  5
1F5
100
AcDbSymbolTableRecord
100
AcDbLinetypeTableRecord
  2
CENTER
 70
64
  3
____ _ ____ _ ____ _ ____ _ ____ _ ____ _ ____
 72
65
 73
4
 40
0.6
 49
0.375
 74
0
 49
-0.075
 74
0
 49
0.075
 74
0
 49
-0.075
 74
0
  0
LTYPE
  5
1F6
100
AcDbSymbolTableRecord
100
AcDbLinetypeTableRecord
  2
HIDDEN
 70
64
  3
- - - - - - - - - - - - - - - - - - - -
 72
65
 73
2
 40
0.2
 49
0.1
 74
0
 49
-0.1
 74
0
  0
LTYPE
  5
1F7
100
AcDbSymbolTableRecord
100
AcDbLinetypeTableRecord
  2
PHANTOM
 70
64
  3
_____ _ _ _____ _ _ _____ _ _ _____
 72
65
 73
6
 40
0.8
 49
0.45
 74
0
 49
-0.05
 74
0
 49
0.1
 74
0
 49
-0.05
 74
0
 49
0.1
 74
0
 49
-0.05
 74
0
  0
LTYPE
  5
1F8
100
AcDbSymbolTableRecord
100
AcDbLinetypeTableRecord
  2
DOT
 70
64
  3
. . . . . . . . . . . . . . . . . . . .
 72
65
 73
2
 40
0.2
 49
0.1
 74
0
 49
-0.1
 74
0
  0
LTYPE
  5
1F9
100
AcDbSymbolTableRecord
100
AcDbLinetypeTableRecord
  2
DASHED
 70
64
  3
- - - - - - - - - - - - - - - - - - - -
 72
65
 73
2
 40
0.2
 49
0.1
 74
0
 49
-0.1
 74
0
  0
ENDTAB
  0
TABLE
  2
LAYER
  5
2
100
AcDbSymbolTable
 70
36
  0
LAYER
  5
10
100
AcDbSymbolTableRecord
100
AcDbLayerTableRecord
  2
0
 70
0
 62
7
  6
CONTINUOUS
370
-3
390
F
  0
LAYER
  5
1FA
100
AcDbSymbolTableRecord
100
AcDbLayerTableRecord
  2
DEFAULT_1
 70
0
 62
7
  6
CENTER
370
-3
390
F
  0
LAYER
  5
1FB
100
AcDbSymbolTableRecord
100
AcDbLayerTableRecord
  2
DEFAULT_2
 70
0
 62
8
  6
HIDDEN
370
-3
390
F
  0
LAYER
  5
1FC
100
AcDbSymbolTableRecord
100
AcDbLayerTableRecord
  2
DEFAULT_3
 70
0
 62
7
  6
PHANTOM
370
-3
390
F
  0
LAYER
  5
1FD
100
AcDbSymbolTableRecord
100
AcDbLayerTableRecord
  2
03_CURVE
 70
0
 62
7
  6
CONTINUOUS
370
-3
390
F
  0
LAYER
  5
1FE
100
AcDbSymbolTableRecord
100
AcDbLayerTableRecord
  2
1_AXIS
 70
0
 62
7
  6
CONTINUOUS
370
-3
390
F
  0
LAYER
  5
1FF
100
AcDbSymbolTableRecord
100
AcDbLayerTableRecord
  2
1_DATUM_PLANE
 70
0
 62
7
  6
CONTINUOUS
370
-3
390
F
  0
LAYER
  5
200
100
AcDbSymbolTableRecord
100
AcDbLayerTableRecord
  2
1_DATUM_PLANES
 70
0
 62
7
  6
CONTINUOUS
370
-3
390
F
  0
LAYER
  5
201
100
AcDbSymbolTableRecord
100
AcDbLayerTableRecord
  2
2_FEATURE
 70
0
 62
7
  6
CONTINUOUS
370
-3
390
F
  0
LAYER
  5
202
100
AcDbSymbolTableRecord
100
AcDbLayerTableRecord
  2
4_QUILT
 70
0
 62
7
  6
CONTINUOUS
370
-3
390
F
  0
LAYER
  5
203
100
AcDbSymbolTableRecord
100
AcDbLayerTableRecord
  2
4_SURFACE
 70
0
 62
7
  6
CONTINUOUS
370
-3
390
F
  0
LAYER
  5
204
100
AcDbSymbolTableRecord
100
AcDbLayerTableRecord
  2
6_DIM
 70
0
 62
7
  6
CONTINUOUS
370
-3
390
F
  0
LAYER
  5
205
100
AcDbSymbolTableRecord
100
AcDbLayerTableRecord
  2
AXES
 70
0
 62
7
  6
CONTINUOUS
370
-3
390
F
  0
LAYER
  5
206
100
AcDbSymbolTableRecord
100
AcDbLayerTableRecord
  2
CSYS
 70
0
 62
7
  6
CONTINUOUS
370
-3
390
F
  0
LAYER
  5
207
100
AcDbSymbolTableRecord
100
AcDbLayerTableRecord
  2
PLANES
 70
0
 62
7
  6
CONTINUOUS
370
-3
390
F
  0
LAYER
  5
208
100
AcDbSymbolTableRecord
100
AcDbLayerTableRecord
  2
XSEC_DATUMS
 70
0
 62
7
  6
CONTINUOUS
370
-3
390
F
  0
ENDTAB
  0
TABLE
  2
STYLE
  5
3
100
AcDbSymbolTable
 70
1
  0
STYLE
  5
11
100
AcDbSymbolTableRecord
100
AcDbTextStyleTableRecord
  2
STANDARD
 70
0
 40
0.0
 41
0.8
 50
0.0
 71
0
 42
0.2
  3
txt
  4

  0
STYLE
  5
209
100
AcDbSymbolTableRecord
100
AcDbTextStyleTableRecord
  2
TEXTSTYLE_1
 70
0
 40
0.0
 41
0.8
 50
0.0
 71
0
 42
0.2
  3
gdt
  4

  0
STYLE
  5
20A
100
AcDbSymbolTableRecord
100
AcDbTextStyleTableRecord
  2
TEXTSTYLE_2
 70
0
 40
0.0
 41
0.6
 50
0.0
 71
0
 42
0.2
  3
txt
  4

  0
STYLE
  5
20B
100
AcDbSymbolTableRecord
100
AcDbTextStyleTableRecord
  2
TEXTSTYLE_3
 70
0
 40
0.0
 41
1.0
 50
0.0
 71
0
 42
0.2
  3
ftb_____.ttf
  4

  0
STYLE
  5
20C
100
AcDbSymbolTableRecord
100
AcDbTextStyleTableRecord
  2
TEXTSTYLE_4
 70
0
 40
0.0
 41
1.0
 50
0.0
 71
0
 42
0.2
  3
fti_____.ttf
  4

  0
STYLE
  5
20D
100
AcDbSymbolTableRecord
100
AcDbTextStyleTableRecord
  2
TEXTSTYLE_5
 70
0
 40
0.0
 41
1.0
 50
0.0
 71
0
 42
0.2
  3
frutiger light.ttf
  4

  0
STYLE
  5
20E
100
AcDbSymbolTableRecord
100
AcDbTextStyleTableRecord
  2
TEXTSTYLE_6
 70
0
 40
0.0
 41
0.7
 50
0.0
 71
0
 42
0.2
  3
txt
  4

  0
STYLE
  5
20F
100
AcDbSymbolTableRecord
100
AcDbTextStyleTableRecord
  2
TEXTSTYLE_7
 70
0
 40
0.0
 41
0.8
 50
0.0
 71
0
 42
0.2
  3
txt
  4

  0
ENDTAB
  0
TABLE
  2
VIEW
  5
6
100
AcDbSymbolTable
 70
0
  0
ENDTAB
  0
TABLE
  2
UCS
  5
7
100
AcDbSymbolTable
 70
0
  0
ENDTAB
  0
TABLE
  2
APPID
  5
9
100
AcDbSymbolTable
 70
1
  0
APPID
  5
210
100
AcDbSymbolTableRecord
100
AcDbRegAppTableRecord
  2
ACAD
 70
0
  0
ENDTAB
  0
TABLE
  2
BLOCK_RECORD
  5
1
100
AcDbSymbolTable
 70
0
  0
BLOCK_RECORD
  5
211
100
AcDbSymbolTableRecord
100
AcDbBlockTableRecord
  2
*Model_Space
  0
BLOCK_RECORD
  5
212
100
AcDbSymbolTableRecord
100
AcDbBlockTableRecord
  2
*Paper_Space
  0
BLOCK_RECORD
  5
213
100
AcDbSymbolTableRecord
100
AcDbBlockTableRecord
  2
UNI_LOGO2_BL1
  0
BLOCK_RECORD
  5
214
100
AcDbSymbolTableRecord
100
AcDbBlockTableRecord
  2
AMMEAAL_LOGO_BL0
  0
BLOCK_RECORD
  5
215
100
AcDbSymbolTableRecord
100
AcDbBlockTableRecord
  2
*T1
  0
ENDTAB
  0
TABLE
  2
DIMSTYLE
  5
A
100
AcDbSymbolTable
 70
1
100
AcDbDimStyleTable
 71
0
  0
DIMSTYLE
105
216
100
AcDbSymbolTableRecord
100
AcDbDimStyleTableRecord
  2
STANDARD
 70
0
  3

  4

 40
1.0
 41
3.5
 42
1.0
 43
0.38
 44
2.0
 45
0.0
 46
0.0
 47
0.01
 48
0.01
140
3.5
141
0.09
142
0.0
143
25.4
144
1.0
145
0.0
146
1.0
147
0.625
 71
1.0
 72
0.0
 73
0
 74
0
 75
0
 76
0
 77
1
 78
0
170
0
171
2
172
0
173
0
174
0
175
0
176
0
177
0
178
5
270
2
271
2
272
2
273
2
274
2
275
0
280
0
281
0
282
0
283
1
284
0
285
0
286
0
287
3
288
0
340
11
278
46
  0
ENDTAB
  0
ENDSEC
  0
SECTION
  2
BLOCKS
  0
BLOCK
  5
20
100
AcDbEntity
  8
0
100
AcDbBlockBegin
  2
*Model_Space
 70
0
 10
0.0
 20
0.0
 30
0.0
  3
*Model_Space
  1

  0
ENDBLK
  5
21
100
AcDbEntity
  8
0
100
AcDbBlockEnd
  0
BLOCK
  5
1C
100
AcDbEntity
  8
0
100
AcDbBlockBegin
  2
*Paper_Space
 70
0
 10
0.0
 20
0.0
 30
0.0
  3
*Paper_Space
  1

  0
ENDBLK
  5
1D
100
AcDbEntity
  8
0
100
AcDbBlockEnd
  0
BLOCK
  5
217
100
AcDbEntity
  8
0
100
AcDbBlockBegin
 62
2
  6
CONTINUOUS
  2
UNI_LOGO2_BL1
 70
64
 10
173.3924355793
 20
35.4837666925
  3
UNI_LOGO2_BL1
  1

  0
TEXT
  5
218
100
AcDbEntity
  8
0
100
AcDbText
 62
7
  6
CONTINUOUS
 10
164.4507205878
 20
30.5765230696
  7
TEXTSTYLE_4
 40
1.0655737705
  1
The brand for plastic modular belts and chains
 41
1.0
 72
0
100
AcDbText
  0
LINE
  5
219
100
AcDbEntity
  8
0
100
AcDbLine
 62
7
  6
CONTINUOUS
 10
149.3705039683
 20
36.0575371843
 11
149.3705039683
 21
33.9263896433
  0
LINE
  5
21A
100
AcDbEntity
  8
0
100
AcDbLine
 62
7
  6
CONTINUOUS
 10
149.6595664615
 20
30.9354583476
 11
149.6595664615
 21
31.0322494069
  0
LINE
  5
21B
100
AcDbEntity
  8
0
100
AcDbLine
 62
7
  6
CONTINUOUS
 10
149.3705039683
 20
30.9999857205
 11
149.4283164701
 21
30.8064036019
  0
LINE
  5
21C
100
AcDbEntity
  8
0
100
AcDbLine
 62
7
  6
CONTINUOUS
 10
150.7639465913
 20
33.8444224302
 11
150.7639465913
 21
36.0575371843
  0
LINE
  5
21D
100
AcDbEntity
  8
0
100
AcDbLine
 62
7
  6
CONTINUOUS
 10
151.6830039132
 20
32.0001601351
 11
151.6830039132
 21
30.4837666925
  0
LINE
  5
21E
100
AcDbEntity
  8
0
100
AcDbLine
 62
7
  6
CONTINUOUS
 10
151.9720664683
 20
30.4837666925
 11
151.9720664683
 21
31.2258315706
  0
LINE
  5
21F
100
AcDbEntity
  8
0
100
AcDbLine
 62
7
  6
CONTINUOUS
 10
151.9720664683
 20
31.3548863163
 11
151.9720664683
 21
32.0001601351
  0
LINE
  5
220
100
AcDbEntity
  8
0
100
AcDbLine
 62
7
  6
CONTINUOUS
 10
149.4283164701
 20
31.1935678842
 11
149.3705039683
 21
30.9999857205
  0
LINE
  5
221
100
AcDbEntity
  8
0
100
AcDbLine
 62
7
  6
CONTINUOUS
 10
149.7751914546
 20
30.7741399155
 11
149.6595664615
 21
30.9354583476
  0
LINE
  5
222
100
AcDbEntity
  8
0
100
AcDbLine
 62
7
  6
CONTINUOUS
 10
150.8736290235
 20
31.2903589434
 11
150.9314414683
 21
31.1935678842
  0
LINE
  5
223
100
AcDbEntity
  8
0
100
AcDbLine
 62
7
  6
CONTINUOUS
 10
151.2205040235
 20
31.1935678842
 11
151.1626914132
 21
31.3226226299
  0
LINE
  5
224
100
AcDbEntity
  8
0
100
AcDbLine
 62
7
  6
CONTINUOUS
 10
152.6491924929
 20
36.0575371843
 11
152.6491924929
 21
34.2542584958
  0
LINE
  5
225
100
AcDbEntity
  8
0
100
AcDbLine
 62
7
  6
CONTINUOUS
 10
152.6491924929
 20
32.9427830859
 11
152.6491924929
 21
32.287045381
  0
LINE
  5
226
100
AcDbEntity
  8
0
100
AcDbLine
 62
7
  6
CONTINUOUS
 10
153.0126914683
 20
31.1290405113
 11
153.0126914683
 21
30.4837666925
  0
LINE
  5
227
100
AcDbEntity
  8
0
100
AcDbLine
 62
7
  6
CONTINUOUS
 10
153.3017538581
 20
30.4837666925
 11
153.3017538581
 21
31.1290405113
  0
LINE
  5
228
100
AcDbEntity
  8
0
100
AcDbLine
 62
7
  6
CONTINUOUS
 10
149.6595664615
 20
31.0322494069
 11
149.7173789683
 21
31.1613041978
  0
LINE
  5
229
100
AcDbEntity
  8
0
100
AcDbLine
 62
7
  6
CONTINUOUS
 10
149.4283164701
 20
30.8064036019
 11
149.5439414683
 21
30.6773488336
  0
LINE
  5
22A
100
AcDbEntity
  8
0
100
AcDbLine
 62
7
  6
CONTINUOUS
 10
152.9548788581
 20
31.258095257
 11
153.0126914683
 21
31.1290405113
  0
LINE
  5
22B
100
AcDbEntity
  8
0
100
AcDbLine
 62
7
  6
CONTINUOUS
 10
153.7642540786
 20
30.7741399155
 11
153.8220663581
 21
30.6450851472
  0
LINE
  5
22C
100
AcDbEntity
  8
0
100
AcDbLine
 62
7
  6
CONTINUOUS
 10
153.3017538581
 20
31.1290405113
 11
153.2439415786
 21
31.2903589434
  0
LINE
  5
22D
100
AcDbEntity
  8
0
100
AcDbLine
 62
7
  6
CONTINUOUS
 10
153.7642540786
 20
31.3226226299
 11
153.7642540786
 21
31.258095257
  0
LINE
  5
22E
100
AcDbEntity
  8
0
100
AcDbLine
 62
7
  6
CONTINUOUS
 10
153.7642540786
 20
30.8709309748
 11
153.7642540786
 21
30.7741399155
  0
LINE
  5
22F
100
AcDbEntity
  8
0
100
AcDbLine
 62
7
  6
CONTINUOUS
 10
154.0426351159
 20
32.287045381
 11
154.0426351159
 21
36.0575371843
  0
LINE
  5
230
100
AcDbEntity
  8
0
100
AcDbLine
 62
7
  6
CONTINUOUS
 10
154.0533164683
 20
30.7418762065
 11
154.0533164683
 21
30.8064036019
  0
LINE
  5
231
100
AcDbEntity
  8
0
100
AcDbLine
 62
7
  6
CONTINUOUS
 10
154.3705039683
 20
36.0575371843
 11
154.3705039683
 21
32.287045381
  0
LINE
  5
232
100
AcDbEntity
  8
0
100
AcDbLine
 62
7
  6
CONTINUOUS
 10
151.1626914132
 20
30.6773488336
 11
151.2205040235
 21
30.8064036019
  0
LINE
  5
233
100
AcDbEntity
  8
0
100
AcDbLine
 62
7
  6
CONTINUOUS
 10
155.5564416889
 20
30.5805577631
 11
155.4986287478
 21
30.7418762065
  0
LINE
  5
234
100
AcDbEntity
  8
0
100
AcDbLine
 62
7
  6
CONTINUOUS
 10
155.2095666889
 20
31.258095257
 11
155.2095666889
 21
31.1613041978
  0
LINE
  5
235
100
AcDbEntity
  8
0
100
AcDbLine
 62
7
  6
CONTINUOUS
 10
155.2095666889
 20
31.0322494069
 11
155.2095666889
 21
30.8386672883
  0
LINE
  5
236
100
AcDbEntity
  8
0
100
AcDbLine
 62
7
  6
CONTINUOUS
 10
155.4986287478
 20
30.7418762065
 11
155.4986287478
 21
31.258095257
  0
LINE
  5
237
100
AcDbEntity
  8
0
100
AcDbLine
 62
7
  6
CONTINUOUS
 10
155.7639465913
 20
32.287045381
 11
155.7639465913
 21
34.0903240696
  0
LINE
  5
238
100
AcDbEntity
  8
0
100
AcDbLine
 62
7
  6
CONTINUOUS
 10
155.7639465913
 20
35.4017994794
 11
155.7639465913
 21
36.0575371843
  0
LINE
  5
239
100
AcDbEntity
  8
0
100
AcDbLine
 62
7
  6
CONTINUOUS
 10
156.0767541889
 20
32.0001601351
 11
156.0767541889
 21
31.838841703
  0
LINE
  5
23A
100
AcDbEntity
  8
0
100
AcDbLine
 62
7
  6
CONTINUOUS
 10
156.0767541889
 20
31.5162047484
 11
156.0767541889
 21
30.4837666925
  0
LINE
  5
23B
100
AcDbEntity
  8
0
100
AcDbLine
 62
7
  6
CONTINUOUS
 10
156.3658162478
 20
30.4837666925
 11
156.3658162478
 21
31.5162047484
  0
LINE
  5
23C
100
AcDbEntity
  8
0
100
AcDbLine
 62
7
  6
CONTINUOUS
 10
156.3658162478
 20
31.838841703
 11
156.3658162478
 21
32.0001601351
  0
LINE
  5
23D
100
AcDbEntity
  8
0
100
AcDbLine
 62
7
  6
CONTINUOUS
 10
150.9314414683
 20
30.8064036019
 11
150.8736290235
 21
30.7096125201
  0
LINE
  5
23E
100
AcDbEntity
  8
0
100
AcDbLine
 62
7
  6
CONTINUOUS
 10
153.2439415786
 20
31.2903589434
 11
153.1861289683
 21
31.3548863163
  0
LINE
  5
23F
100
AcDbEntity
  8
0
100
AcDbLine
 62
7
  6
CONTINUOUS
 10
154.1111290786
 20
30.6773488336
 11
154.0533164683
 21
30.7418762065
  0
LINE
  5
240
100
AcDbEntity
  8
0
100
AcDbLine
 62
7
  6
CONTINUOUS
 10
155.2673789683
 20
30.548294071
 11
155.3251912478
 21
30.4837666925
  0
LINE
  5
241
100
AcDbEntity
  8
0
100
AcDbLine
 62
7
  6
CONTINUOUS
 10
155.2095666889
 20
30.6450851472
 11
155.2673789683
 21
30.548294071
  0
LINE
  5
242
100
AcDbEntity
  8
0
100
AcDbLine
 62
7
  6
CONTINUOUS
 10
155.6142539683
 20
30.4837666925
 11
155.5564416889
 21
30.5805577631
  0
LINE
  5
243
100
AcDbEntity
  8
0
100
AcDbLine
 62
7
  6
CONTINUOUS
 10
155.4986287478
 20
31.258095257
 11
155.4408164683
 21
31.3548863163
  0
LINE
  5
244
100
AcDbEntity
  8
0
100
AcDbLine
 62
7
  6
CONTINUOUS
 10
156.8283164683
 20
31.5162047484
 11
156.8283164683
 21
30.4837666925
  0
LINE
  5
245
100
AcDbEntity
  8
0
100
AcDbLine
 62
7
  6
CONTINUOUS
 10
157.1173791889
 20
30.4837666925
 11
157.1173791889
 21
31.2258315706
  0
LINE
  5
246
100
AcDbEntity
  8
0
100
AcDbLine
 62
7
  6
CONTINUOUS
 10
157.1173791889
 20
31.3548863163
 11
157.1173791889
 21
31.5162047484
  0
LINE
  5
247
100
AcDbEntity
  8
0
100
AcDbLine
 62
7
  6
CONTINUOUS
 10
157.6491924929
 20
34.5001601351
 11
157.6491924929
 21
32.287045381
  0
LINE
  5
248
100
AcDbEntity
  8
0
100
AcDbLine
 62
7
  6
CONTINUOUS
 10
149.5439414683
 20
31.3226226299
 11
149.4283164701
 21
31.1935678842
  0
LINE
  5
249
100
AcDbEntity
  8
0
100
AcDbLine
 62
7
  6
CONTINUOUS
 10
149.7173789683
 20
31.1613041978
 11
149.7751914546
 21
31.2258315706
  0
LINE
  5
24A
100
AcDbEntity
  8
0
100
AcDbLine
 62
7
  6
CONTINUOUS
 10
149.5439414683
 20
30.6773488336
 11
149.6595664615
 21
30.6128214495
  0
LINE
  5
24B
100
AcDbEntity
  8
0
100
AcDbLine
 62
7
  6
CONTINUOUS
 10
149.9486289546
 20
30.6773488336
 11
149.7751914546
 21
30.7741399155
  0
LINE
  5
24C
100
AcDbEntity
  8
0
100
AcDbLine
 62
7
  6
CONTINUOUS
 10
155.1517537478
 20
31.3226226299
 11
155.2095666889
 21
31.258095257
  0
LINE
  5
24D
100
AcDbEntity
  8
0
100
AcDbLine
 62
7
  6
CONTINUOUS
 10
158.1001912478
 20
31.258095257
 11
158.1580041889
 21
31.0967768249
  0
LINE
  5
24E
100
AcDbEntity
  8
0
100
AcDbLine
 62
7
  6
CONTINUOUS
 10
158.4470662478
 20
31.0967768249
 11
158.3892539683
 21
31.258095257
  0
LINE
  5
24F
100
AcDbEntity
  8
0
100
AcDbLine
 62
7
  6
CONTINUOUS
 10
158.1580041889
 20
31.0967768249
 11
158.1580041889
 21
30.4837666925
  0
LINE
  5
250
100
AcDbEntity
  8
0
100
AcDbLine
 62
7
  6
CONTINUOUS
 10
158.4470662478
 20
30.4837666925
 11
158.4470662478
 21
31.0967768249
  0
LINE
  5
251
100
AcDbEntity
  8
0
100
AcDbLine
 62
7
  6
CONTINUOUS
 10
158.9095664683
 20
31.3226226299
 11
158.9095664683
 21
31.258095257
  0
LINE
  5
252
100
AcDbEntity
  8
0
100
AcDbLine
 62
7
  6
CONTINUOUS
 10
159.0426351159
 20
32.287045381
 11
159.0426351159
 21
34.418192922
  0
LINE
  5
253
100
AcDbEntity
  8
0
100
AcDbLine
 62
7
  6
CONTINUOUS
 10
159.3705039683
 20
36.0575371843
 11
159.3705039683
 21
32.287045381
  0
LINE
  5
254
100
AcDbEntity
  8
0
100
AcDbLine
 62
7
  6
CONTINUOUS
 10
154.0533164683
 20
30.8064036019
 11
154.1111290786
 21
30.9031946612
  0
LINE
  5
255
100
AcDbEntity
  8
0
100
AcDbLine
 62
7
  6
CONTINUOUS
 10
149.6595664615
 20
30.6128214495
 11
149.8330039821
 21
30.548294071
  0
LINE
  5
256
100
AcDbEntity
  8
0
100
AcDbLine
 62
7
  6
CONTINUOUS
 10
151.1626914132
 20
31.3226226299
 11
150.9892539132
 21
31.4194136891
  0
LINE
  5
257
100
AcDbEntity
  8
0
100
AcDbLine
 62
7
  6
CONTINUOUS
 10
153.8220663581
 20
30.6450851472
 11
153.9955038581
 21
30.548294071
  0
LINE
  5
258
100
AcDbEntity
  8
0
100
AcDbLine
 62
7
  6
CONTINUOUS
 10
152.8392539683
 20
31.3226226299
 11
152.9548788581
 21
31.258095257
  0
LINE
  5
259
100
AcDbEntity
  8
0
100
AcDbLine
 62
7
  6
CONTINUOUS
 10
153.1861289683
 20
31.3548863163
 11
153.0705040786
 21
31.4194136891
  0
LINE
  5
25A
100
AcDbEntity
  8
0
100
AcDbLine
 62
7
  6
CONTINUOUS
 10
158.9095664683
 20
30.7418762065
 11
159.0251916889
 21
30.6128214495
  0
LINE
  5
25B
100
AcDbEntity
  8
0
100
AcDbLine
 62
7
  6
CONTINUOUS
 10
159.2564414683
 20
30.6773488336
 11
159.1986291889
 21
30.7418762065
  0
LINE
  5
25C
100
AcDbEntity
  8
0
100
AcDbLine
 62
7
  6
CONTINUOUS
 10
158.9095664683
 20
31.258095257
 11
159.0251916889
 21
31.1290405113
  0
LINE
  5
25D
100
AcDbEntity
  8
0
100
AcDbLine
 62
7
  6
CONTINUOUS
 10
158.3892539683
 20
31.258095257
 11
158.3314416889
 21
31.3548863163
  0
LINE
  5
25E
100
AcDbEntity
  8
0
100
AcDbLine
 62
7
  6
CONTINUOUS
 10
160.7595660273
 20
30.6773488336
 11
160.7595660273
 21
30.7418762065
  0
LINE
  5
25F
100
AcDbEntity
  8
0
100
AcDbLine
 62
7
  6
CONTINUOUS
 10
160.7639465913
 20
32.287045381
 11
160.7639465913
 21
36.0575371843
  0
LINE
  5
260
100
AcDbEntity
  8
0
100
AcDbLine
 62
7
  6
CONTINUOUS
 10
153.8220663581
 20
31.3871500027
 11
153.7642540786
 21
31.3226226299
  0
LINE
  5
261
100
AcDbEntity
  8
0
100
AcDbLine
 62
7
  6
CONTINUOUS
 10
150.7001914408
 20
31.3548863163
 11
150.8736290235
 21
31.2903589434
  0
LINE
  5
262
100
AcDbEntity
  8
0
100
AcDbLine
 62
7
  6
CONTINUOUS
 10
155.4408164683
 20
31.3548863163
 11
155.3251912478
 21
31.4194136891
  0
LINE
  5
263
100
AcDbEntity
  8
0
100
AcDbLine
 62
7
  6
CONTINUOUS
 10
159.2564414683
 20
31.1935678842
 11
159.1986291889
 21
31.258095257
  0
LINE
  5
264
100
AcDbEntity
  8
0
100
AcDbLine
 62
7
  6
CONTINUOUS
 10
160.4126916889
 20
30.8064036019
 11
160.4705039683
 21
30.7418762065
  0
LINE
  5
265
100
AcDbEntity
  8
0
100
AcDbLine
 62
7
  6
CONTINUOUS
 10
160.7595660273
 20
30.7418762065
 11
160.6439414683
 21
30.8709309748
  0
LINE
  5
266
100
AcDbEntity
  8
0
100
AcDbLine
 62
7
  6
CONTINUOUS
 10
160.4126916889
 20
31.3226226299
 11
160.4705039683
 21
31.258095257
  0
LINE
  5
267
100
AcDbEntity
  8
0
100
AcDbLine
 62
7
  6
CONTINUOUS
 10
160.7595660273
 20
31.258095257
 11
160.6439414683
 21
31.3871500027
  0
LINE
  5
268
100
AcDbEntity
  8
0
100
AcDbLine
 62
7
  6
CONTINUOUS
 10
154.0533164683
 20
31.258095257
 11
154.1111290786
 21
31.3226226299
  0
LINE
  5
269
100
AcDbEntity
  8
0
100
AcDbLine
 62
7
  6
CONTINUOUS
 10
153.8798789683
 20
30.9999857205
 11
153.7642540786
 21
30.8709309748
  0
LINE
  5
26A
100
AcDbEntity
  8
0
100
AcDbLine
 62
7
  6
CONTINUOUS
 10
155.2095666889
 20
30.8386672883
 11
155.1517537478
 21
30.7741399155
  0
LINE
  5
26B
100
AcDbEntity
  8
0
100
AcDbLine
 62
7
  6
CONTINUOUS
 10
155.1517537478
 20
30.5805577631
 11
155.2095666889
 21
30.6450851472
  0
LINE
  5
26C
100
AcDbEntity
  8
0
100
AcDbLine
 62
7
  6
CONTINUOUS
 10
153.9955038581
 20
30.548294071
 11
154.1111290786
 21
30.5160303817
  0
LINE
  5
26D
100
AcDbEntity
  8
0
100
AcDbLine
 62
7
  6
CONTINUOUS
 10
150.9892539132
 20
31.4194136891
 11
150.7580039683
 21
31.483941062
  0
LINE
  5
26E
100
AcDbEntity
  8
0
100
AcDbLine
 62
7
  6
CONTINUOUS
 10
154.3423788581
 20
30.6128214495
 11
154.1111290786
 21
30.6773488336
  0
LINE
  5
26F
100
AcDbEntity
  8
0
100
AcDbLine
 62
7
  6
CONTINUOUS
 10
153.0705040786
 20
31.4194136891
 11
152.8970665786
 21
31.483941062
  0
LINE
  5
270
100
AcDbEntity
  8
0
100
AcDbLine
 62
7
  6
CONTINUOUS
 10
155.3251912478
 20
31.4194136891
 11
155.1517537478
 21
31.483941062
  0
LINE
  5
271
100
AcDbEntity
  8
0
100
AcDbLine
 62
7
  6
CONTINUOUS
 10
157.9845666889
 20
31.3226226299
 11
158.1001912478
 21
31.258095257
  0
LINE
  5
272
100
AcDbEntity
  8
0
100
AcDbLine
 62
7
  6
CONTINUOUS
 10
158.3314416889
 20
31.3548863163
 11
158.2158164683
 21
31.4194136891
  0
LINE
  5
273
100
AcDbEntity
  8
0
100
AcDbLine
 62
7
  6
CONTINUOUS
 10
149.8330039821
 20
30.548294071
 11
150.0064414821
 21
30.5160303817
  0
LINE
  5
274
100
AcDbEntity
  8
0
100
AcDbLine
 62
7
  6
CONTINUOUS
 10
150.2955039959
 20
30.6128214495
 11
149.9486289546
 21
30.6773488336
  0
LINE
  5
275
100
AcDbEntity
  8
0
100
AcDbLine
 62
7
  6
CONTINUOUS
 10
152.7236290786
 20
31.3548863163
 11
152.8392539683
 21
31.3226226299
  0
LINE
  5
276
100
AcDbEntity
  8
0
100
AcDbLine
 62
7
  6
CONTINUOUS
 10
155.0361291889
 20
31.3548863163
 11
155.1517537478
 21
31.3226226299
  0
LINE
  5
277
100
AcDbEntity
  8
0
100
AcDbLine
 62
7
  6
CONTINUOUS
 10
159.3720666889
 20
30.6450851472
 11
159.2564414683
 21
30.6773488336
  0
LINE
  5
278
100
AcDbEntity
  8
0
100
AcDbLine
 62
7
  6
CONTINUOUS
 10
157.8689414683
 20
31.3548863163
 11
157.9845666889
 21
31.3226226299
  0
LINE
  5
279
100
AcDbEntity
  8
0
100
AcDbLine
 62
7
  6
CONTINUOUS
 10
159.0251916889
 20
30.6128214495
 11
159.1986291889
 21
30.548294071
  0
LINE
  5
27A
100
AcDbEntity
  8
0
100
AcDbLine
 62
7
  6
CONTINUOUS
 10
158.2158164683
 20
31.4194136891
 11
158.0423789683
 21
31.483941062
  0
LINE
  5
27B
100
AcDbEntity
  8
0
100
AcDbLine
 62
7
  6
CONTINUOUS
 10
159.4298789683
 20
31.1290405113
 11
159.2564414683
 21
31.1935678842
  0
LINE
  5
27C
100
AcDbEntity
  8
0
100
AcDbLine
 62
7
  6
CONTINUOUS
 10
160.2392541889
 20
30.8709309748
 11
160.4126916889
 21
30.8064036019
  0
LINE
  5
27D
100
AcDbEntity
  8
0
100
AcDbLine
 62
7
  6
CONTINUOUS
 10
160.6439414683
 20
31.3871500027
 11
160.4705039683
 21
31.4516773756
  0
LINE
  5
27E
100
AcDbEntity
  8
0
100
AcDbLine
 62
7
  6
CONTINUOUS
 10
159.0251916889
 20
31.1290405113
 11
159.2564414683
 21
31.0322494069
  0
LINE
  5
27F
100
AcDbEntity
  8
0
100
AcDbLine
 62
7
  6
CONTINUOUS
 10
160.6439414683
 20
30.8709309748
 11
160.4126916889
 21
30.967722034
  0
LINE
  5
280
100
AcDbEntity
  8
0
100
AcDbLine
 62
7
  6
CONTINUOUS
 10
159.1986291889
 20
31.258095257
 11
159.2564414683
 21
31.3226226299
  0
LINE
  5
281
100
AcDbEntity
  8
0
100
AcDbLine
 62
7
  6
CONTINUOUS
 10
149.6595664615
 20
31.3871500027
 11
149.5439414683
 21
31.3226226299
  0
LINE
  5
282
100
AcDbEntity
  8
0
100
AcDbLine
 62
7
  6
CONTINUOUS
 10
149.7751914546
 20
31.2258315706
 11
149.9486289546
 21
31.3226226299
  0
LINE
  5
283
100
AcDbEntity
  8
0
100
AcDbLine
 62
7
  6
CONTINUOUS
 10
152.0876915235
 20
31.4194136891
 11
151.9720664683
 21
31.3548863163
  0
LINE
  5
284
100
AcDbEntity
  8
0
100
AcDbLine
 62
7
  6
CONTINUOUS
 10
151.9720664683
 20
31.2258315706
 11
152.0876915235
 21
31.2903589434
  0
LINE
  5
285
100
AcDbEntity
  8
0
100
AcDbLine
 62
7
  6
CONTINUOUS
 10
150.9892539132
 20
30.5805577631
 11
151.1626914132
 21
30.6773488336
  0
LINE
  5
286
100
AcDbEntity
  8
0
100
AcDbLine
 62
7
  6
CONTINUOUS
 10
150.0064414821
 20
30.5160303817
 11
150.3533164408
 21
30.4837666925
  0
LINE
  5
287
100
AcDbEntity
  8
0
100
AcDbLine
 62
7
  6
CONTINUOUS
 10
154.1111290786
 20
30.5160303817
 11
154.3423788581
 21
30.4837666925
  0
LINE
  5
288
100
AcDbEntity
  8
0
100
AcDbLine
 62
7
  6
CONTINUOUS
 10
152.4923789683
 20
31.3871500027
 11
152.7236290786
 21
31.3548863163
  0
LINE
  5
289
100
AcDbEntity
  8
0
100
AcDbLine
 62
7
  6
CONTINUOUS
 10
154.8048790786
 20
31.3871500027
 11
155.0361291889
 21
31.3548863163
  0
LINE
  5
28A
100
AcDbEntity
  8
0
100
AcDbLine
 62
7
  6
CONTINUOUS
 10
159.2564414683
 20
31.0322494069
 11
160.2392541889
 21
30.8709309748
  0
LINE
  5
28B
100
AcDbEntity
  8
0
100
AcDbLine
 62
7
  6
CONTINUOUS
 10
160.4126916889
 20
30.967722034
 11
159.4298789683
 21
31.1290405113
  0
LINE
  5
28C
100
AcDbEntity
  8
0
100
AcDbLine
 62
7
  6
CONTINUOUS
 10
152.8970665786
 20
31.483941062
 11
152.7236290786
 21
31.5162047484
  0
LINE
  5
28D
100
AcDbEntity
  8
0
100
AcDbLine
 62
7
  6
CONTINUOUS
 10
159.1986291889
 20
30.548294071
 11
159.3720666889
 21
30.5160303817
  0
LINE
  5
28E
100
AcDbEntity
  8
0
100
AcDbLine
 62
7
  6
CONTINUOUS
 10
158.0423789683
 20
31.483941062
 11
157.8689414683
 21
31.5162047484
  0
LINE
  5
28F
100
AcDbEntity
  8
0
100
AcDbLine
 62
7
  6
CONTINUOUS
 10
160.2970664683
 20
31.3548863163
 11
160.4126916889
 21
31.3226226299
  0
LINE
  5
290
100
AcDbEntity
  8
0
100
AcDbLine
 62
7
  6
CONTINUOUS
 10
160.4705039683
 20
30.7418762065
 11
160.4126916889
 21
30.6773488336
  0
LINE
  5
291
100
AcDbEntity
  8
0
100
AcDbLine
 62
7
  6
CONTINUOUS
 10
159.0251916889
 20
31.4194136891
 11
158.9095664683
 21
31.3226226299
  0
LINE
  5
292
100
AcDbEntity
  8
0
100
AcDbLine
 62
7
  6
CONTINUOUS
 10
153.9376915786
 20
31.4516773756
 11
153.8220663581
 21
31.3871500027
  0
LINE
  5
293
100
AcDbEntity
  8
0
100
AcDbLine
 62
7
  6
CONTINUOUS
 10
153.9955038581
 20
31.0645131385
 11
153.8798789683
 21
30.9999857205
  0
LINE
  5
294
100
AcDbEntity
  8
0
100
AcDbLine
 62
7
  6
CONTINUOUS
 10
154.1111290786
 20
30.9031946612
 11
154.2267539683
 21
30.967722034
  0
LINE
  5
295
100
AcDbEntity
  8
0
100
AcDbLine
 62
7
  6
CONTINUOUS
 10
151.6830039132
 20
30.4837666925
 11
151.9720664683
 21
30.4837666925
  0
LINE
  5
296
100
AcDbEntity
  8
0
100
AcDbLine
 62
7
  6
CONTINUOUS
 10
153.0126914683
 20
30.4837666925
 11
153.3017538581
 21
30.4837666925
  0
LINE
  5
297
100
AcDbEntity
  8
0
100
AcDbLine
 62
7
  6
CONTINUOUS
 10
154.3423788581
 20
30.4837666925
 11
154.6892538581
 21
30.4837666925
  0
LINE
  5
298
100
AcDbEntity
  8
0
100
AcDbLine
 62
7
  6
CONTINUOUS
 10
155.3251912478
 20
30.4837666925
 11
155.6142539683
 21
30.4837666925
  0
LINE
  5
299
100
AcDbEntity
  8
0
100
AcDbLine
 62
7
  6
CONTINUOUS
 10
156.0767541889
 20
30.4837666925
 11
156.3658162478
 21
30.4837666925
  0
LINE
  5
29A
100
AcDbEntity
  8
0
100
AcDbLine
 62
7
  6
CONTINUOUS
 10
156.8283164683
 20
30.4837666925
 11
157.1173791889
 21
30.4837666925
  0
LINE
  5
29B
100
AcDbEntity
  8
0
100
AcDbLine
 62
7
  6
CONTINUOUS
 10
158.1580041889
 20
30.4837666925
 11
158.4470662478
 21
30.4837666925
  0
LINE
  5
29C
100
AcDbEntity
  8
0
100
AcDbLine
 62
7
  6
CONTINUOUS
 10
159.7189416889
 20
30.4837666925
 11
160.0658166889
 21
30.4837666925
  0
LINE
  5
29D
100
AcDbEntity
  8
0
100
AcDbLine
 62
7
  6
CONTINUOUS
 10
160.0658166889
 20
30.6128214495
 11
159.7189416889
 21
30.6128214495
  0
LINE
  5
29E
100
AcDbEntity
  8
0
100
AcDbLine
 62
7
  6
CONTINUOUS
 10
154.6892538581
 20
30.6128214495
 11
154.3423788581
 21
30.6128214495
  0
LINE
  5
29F
100
AcDbEntity
  8
0
100
AcDbLine
 62
7
  6
CONTINUOUS
 10
159.1986291889
 20
30.7418762065
 11
158.9095664683
 21
30.7418762065
  0
LINE
  5
2A0
100
AcDbEntity
  8
0
100
AcDbLine
 62
7
  6
CONTINUOUS
 10
151.2205040235
 20
30.8064036019
 11
150.9314414683
 21
30.8064036019
  0
LINE
  5
2A1
100
AcDbEntity
  8
0
100
AcDbLine
 62
7
  6
CONTINUOUS
 10
150.2955039959
 20
31.3871500027
 11
150.7001914408
 21
31.3548863163
  0
LINE
  5
2A2
100
AcDbEntity
  8
0
100
AcDbLine
 62
7
  6
CONTINUOUS
 10
150.7580039683
 20
31.483941062
 11
150.3533164408
 21
31.5162047484
  0
LINE
  5
2A3
100
AcDbEntity
  8
0
100
AcDbLine
 62
7
  6
CONTINUOUS
 10
159.3720666889
 20
30.5160303817
 11
159.7189416889
 21
30.4837666925
  0
LINE
  5
2A4
100
AcDbEntity
  8
0
100
AcDbLine
 62
7
  6
CONTINUOUS
 10
159.7189416889
 20
30.6128214495
 11
159.3720666889
 21
30.6450851472
  0
LINE
  5
2A5
100
AcDbEntity
  8
0
100
AcDbLine
 62
7
  6
CONTINUOUS
 10
155.1517537478
 20
31.483941062
 11
154.8048790786
 21
31.5162047484
  0
LINE
  5
2A6
100
AcDbEntity
  8
0
100
AcDbLine
 62
7
  6
CONTINUOUS
 10
159.9501914683
 20
31.3871500027
 11
160.2970664683
 21
31.3548863163
  0
LINE
  5
2A7
100
AcDbEntity
  8
0
100
AcDbLine
 62
7
  6
CONTINUOUS
 10
160.2970664683
 20
31.483941062
 11
159.9501914683
 21
31.5162047484
  0
LINE
  5
2A8
100
AcDbEntity
  8
0
100
AcDbLine
 62
7
  6
CONTINUOUS
 10
157.6376916889
 20
31.3871500027
 11
157.8689414683
 21
31.3548863163
  0
LINE
  5
2A9
100
AcDbEntity
  8
0
100
AcDbLine
 62
7
  6
CONTINUOUS
 10
160.4705039683
 20
31.4516773756
 11
160.2970664683
 21
31.483941062
  0
LINE
  5
2AA
100
AcDbEntity
  8
0
100
AcDbLine
 62
7
  6
CONTINUOUS
 10
160.6439414683
 20
30.5805577631
 11
160.7595660273
 21
30.6773488336
  0
LINE
  5
2AB
100
AcDbEntity
  8
0
100
AcDbLine
 62
7
  6
CONTINUOUS
 10
155.1517537478
 20
30.7741399155
 11
154.9783162478
 21
30.6773488336
  0
LINE
  5
2AC
100
AcDbEntity
  8
0
100
AcDbLine
 62
7
  6
CONTINUOUS
 10
157.2330037478
 20
31.4194136891
 11
157.1173791889
 21
31.3548863163
  0
LINE
  5
2AD
100
AcDbEntity
  8
0
100
AcDbLine
 62
7
  6
CONTINUOUS
 10
157.1173791889
 20
31.2258315706
 11
157.2330037478
 21
31.2903589434
  0
LINE
  5
2AE
100
AcDbEntity
  8
0
100
AcDbLine
 62
7
  6
CONTINUOUS
 10
149.8330039821
 20
31.4516773756
 11
149.6595664615
 21
31.3871500027
  0
LINE
  5
2AF
100
AcDbEntity
  8
0
100
AcDbLine
 62
7
  6
CONTINUOUS
 10
152.2611288581
 20
31.483941062
 11
152.0876915235
 21
31.4194136891
  0
LINE
  5
2B0
100
AcDbEntity
  8
0
100
AcDbLine
 62
7
  6
CONTINUOUS
 10
152.0876915235
 20
31.2903589434
 11
152.2611288581
 21
31.3548863163
  0
LINE
  5
2B1
100
AcDbEntity
  8
0
100
AcDbLine
 62
7
  6
CONTINUOUS
 10
150.8736290235
 20
30.7096125201
 11
150.7001914408
 21
30.6450851472
  0
LINE
  5
2B2
100
AcDbEntity
  8
0
100
AcDbLine
 62
7
  6
CONTINUOUS
 10
160.2970664683
 20
30.6450851472
 11
160.0658166889
 21
30.6128214495
  0
LINE
  5
2B3
100
AcDbEntity
  8
0
100
AcDbLine
 62
7
  6
CONTINUOUS
 10
154.6892538581
 20
30.4837666925
 11
154.9783162478
 21
30.5160303817
  0
LINE
  5
2B4
100
AcDbEntity
  8
0
100
AcDbLine
 62
7
  6
CONTINUOUS
 10
160.0658166889
 20
30.4837666925
 11
160.4126916889
 21
30.5160303817
  0
LINE
  5
2B5
100
AcDbEntity
  8
0
100
AcDbLine
 62
7
  6
CONTINUOUS
 10
150.3533164408
 20
30.4837666925
 11
150.7580039683
 21
30.5160303817
  0
LINE
  5
2B6
100
AcDbEntity
  8
0
100
AcDbLine
 62
7
  6
CONTINUOUS
 10
150.7001914408
 20
30.6450851472
 11
150.2955039959
 21
30.6128214495
  0
LINE
  5
2B7
100
AcDbEntity
  8
0
100
AcDbLine
 62
7
  6
CONTINUOUS
 10
154.5736289683
 20
31.0322494069
 11
155.2095666889
 21
31.0322494069
  0
LINE
  5
2B8
100
AcDbEntity
  8
0
100
AcDbLine
 62
7
  6
CONTINUOUS
 10
155.2095666889
 20
31.1613041978
 11
154.5736289683
 21
31.1613041978
  0
LINE
  5
2B9
100
AcDbEntity
  8
0
100
AcDbLine
 62
7
  6
CONTINUOUS
 10
150.9314414683
 20
31.1935678842
 11
151.2205040235
 21
31.1935678842
  0
LINE
  5
2BA
100
AcDbEntity
  8
0
100
AcDbLine
 62
7
  6
CONTINUOUS
 10
153.7642540786
 20
31.258095257
 11
154.0533164683
 21
31.258095257
  0
LINE
  5
2BB
100
AcDbEntity
  8
0
100
AcDbLine
 62
7
  6
CONTINUOUS
 10
160.4705039683
 20
31.258095257
 11
160.7595660273
 21
31.258095257
  0
LINE
  5
2BC
100
AcDbEntity
  8
0
100
AcDbLine
 62
7
  6
CONTINUOUS
 10
154.4580040786
 20
31.3871500027
 11
154.8048790786
 21
31.3871500027
  0
LINE
  5
2BD
100
AcDbEntity
  8
0
100
AcDbLine
 62
7
  6
CONTINUOUS
 10
159.6033164683
 20
31.3871500027
 11
159.9501914683
 21
31.3871500027
  0
LINE
  5
2BE
100
AcDbEntity
  8
0
100
AcDbLine
 62
7
  6
CONTINUOUS
 10
159.9501914683
 20
31.5162047484
 11
159.6033164683
 21
31.5162047484
  0
LINE
  5
2BF
100
AcDbEntity
  8
0
100
AcDbLine
 62
7
  6
CONTINUOUS
 10
157.8689414683
 20
31.5162047484
 11
157.6376916889
 21
31.5162047484
  0
LINE
  5
2C0
100
AcDbEntity
  8
0
100
AcDbLine
 62
7
  6
CONTINUOUS
 10
157.1173791889
 20
31.5162047484
 11
156.8283164683
 21
31.5162047484
  0
LINE
  5
2C1
100
AcDbEntity
  8
0
100
AcDbLine
 62
7
  6
CONTINUOUS
 10
156.3658162478
 20
31.5162047484
 11
156.0767541889
 21
31.5162047484
  0
LINE
  5
2C2
100
AcDbEntity
  8
0
100
AcDbLine
 62
7
  6
CONTINUOUS
 10
154.8048790786
 20
31.5162047484
 11
154.4580040786
 21
31.5162047484
  0
LINE
  5
2C3
100
AcDbEntity
  8
0
100
AcDbLine
 62
7
  6
CONTINUOUS
 10
152.7236290786
 20
31.5162047484
 11
152.4923789683
 21
31.5162047484
  0
LINE
  5
2C4
100
AcDbEntity
  8
0
100
AcDbLine
 62
7
  6
CONTINUOUS
 10
156.0767541889
 20
31.838841703
 11
156.3658162478
 21
31.838841703
  0
LINE
  5
2C5
100
AcDbEntity
  8
0
100
AcDbLine
 62
7
  6
CONTINUOUS
 10
156.3658162478
 20
32.0001601351
 11
156.0767541889
 21
32.0001601351
  0
LINE
  5
2C6
100
AcDbEntity
  8
0
100
AcDbLine
 62
7
  6
CONTINUOUS
 10
151.9720664683
 20
32.0001601351
 11
151.6830039132
 21
32.0001601351
  0
LINE
  5
2C7
100
AcDbEntity
  8
0
100
AcDbLine
 62
7
  6
CONTINUOUS
 10
151.0098482306
 20
32.287045381
 11
151.4224195792
 21
32.287045381
  0
LINE
  5
2C8
100
AcDbEntity
  8
0
100
AcDbLine
 62
7
  6
CONTINUOUS
 10
152.6491924929
 20
32.287045381
 11
154.0426351159
 21
32.287045381
  0
LINE
  5
2C9
100
AcDbEntity
  8
0
100
AcDbLine
 62
7
  6
CONTINUOUS
 10
154.3705039683
 20
32.287045381
 11
155.7639465913
 21
32.287045381
  0
LINE
  5
2CA
100
AcDbEntity
  8
0
100
AcDbLine
 62
7
  6
CONTINUOUS
 10
157.6491924929
 20
32.287045381
 11
159.0426351159
 21
32.287045381
  0
LINE
  5
2CB
100
AcDbEntity
  8
0
100
AcDbLine
 62
7
  6
CONTINUOUS
 10
159.3705039683
 20
32.287045381
 11
160.7639465913
 21
32.287045381
  0
LINE
  5
2CC
100
AcDbEntity
  8
0
100
AcDbLine
 62
7
  6
CONTINUOUS
 10
157.4064412478
 20
31.483941062
 11
157.2330037478
 21
31.4194136891
  0
LINE
  5
2CD
100
AcDbEntity
  8
0
100
AcDbLine
 62
7
  6
CONTINUOUS
 10
154.9783162478
 20
30.5160303817
 11
155.1517537478
 21
30.5805577631
  0
LINE
  5
2CE
100
AcDbEntity
  8
0
100
AcDbLine
 62
7
  6
CONTINUOUS
 10
160.4126916889
 20
30.5160303817
 11
160.6439414683
 21
30.5805577631
  0
LINE
  5
2CF
100
AcDbEntity
  8
0
100
AcDbLine
 62
7
  6
CONTINUOUS
 10
160.4126916889
 20
30.6773488336
 11
160.2970664683
 21
30.6450851472
  0
LINE
  5
2D0
100
AcDbEntity
  8
0
100
AcDbLine
 62
7
  6
CONTINUOUS
 10
159.3720666889
 20
31.3548863163
 11
159.6033164683
 21
31.3871500027
  0
LINE
  5
2D1
100
AcDbEntity
  8
0
100
AcDbLine
 62
7
  6
CONTINUOUS
 10
157.4064412478
 20
31.3548863163
 11
157.6376916889
 21
31.3871500027
  0
LINE
  5
2D2
100
AcDbEntity
  8
0
100
AcDbLine
 62
7
  6
CONTINUOUS
 10
154.3423788581
 20
30.9999857205
 11
154.5736289683
 21
31.0322494069
  0
LINE
  5
2D3
100
AcDbEntity
  8
0
100
AcDbLine
 62
7
  6
CONTINUOUS
 10
157.6376916889
 20
31.5162047484
 11
157.4064412478
 21
31.483941062
  0
LINE
  5
2D4
100
AcDbEntity
  8
0
100
AcDbLine
 62
7
  6
CONTINUOUS
 10
154.2267539683
 20
31.3548863163
 11
154.4580040786
 21
31.3871500027
  0
LINE
  5
2D5
100
AcDbEntity
  8
0
100
AcDbLine
 62
7
  6
CONTINUOUS
 10
159.6033164683
 20
31.5162047484
 11
159.2564414683
 21
31.483941062
  0
LINE
  5
2D6
100
AcDbEntity
  8
0
100
AcDbLine
 62
7
  6
CONTINUOUS
 10
154.5736289683
 20
31.1613041978
 11
154.2267539683
 21
31.1290405113
  0
LINE
  5
2D7
100
AcDbEntity
  8
0
100
AcDbLine
 62
7
  6
CONTINUOUS
 10
150.3533164408
 20
31.5162047484
 11
150.0064414821
 21
31.483941062
  0
LINE
  5
2D8
100
AcDbEntity
  8
0
100
AcDbLine
 62
7
  6
CONTINUOUS
 10
154.4580040786
 20
31.5162047484
 11
154.0533164683
 21
31.483941062
  0
LINE
  5
2D9
100
AcDbEntity
  8
0
100
AcDbLine
 62
7
  6
CONTINUOUS
 10
151.8295203618
 20
33.4345863646
 11
151.1737826569
 21
33.4345863646
  0
LINE
  5
2DA
100
AcDbEntity
  8
0
100
AcDbLine
 62
7
  6
CONTINUOUS
 10
157.2330037478
 20
31.2903589434
 11
157.4064412478
 21
31.3548863163
  0
LINE
  5
2DB
100
AcDbEntity
  8
0
100
AcDbLine
 62
7
  6
CONTINUOUS
 10
159.2564414683
 20
31.3226226299
 11
159.3720666889
 21
31.3548863163
  0
LINE
  5
2DC
100
AcDbEntity
  8
0
100
AcDbLine
 62
7
  6
CONTINUOUS
 10
159.2564414683
 20
31.483941062
 11
159.0251916889
 21
31.4194136891
  0
LINE
  5
2DD
100
AcDbEntity
  8
0
100
AcDbLine
 62
7
  6
CONTINUOUS
 10
154.9783162478
 20
30.6773488336
 11
154.6892538581
 21
30.6128214495
  0
LINE
  5
2DE
100
AcDbEntity
  8
0
100
AcDbLine
 62
7
  6
CONTINUOUS
 10
152.2611288581
 20
31.3548863163
 11
152.4923789683
 21
31.3871500027
  0
LINE
  5
2DF
100
AcDbEntity
  8
0
100
AcDbLine
 62
7
  6
CONTINUOUS
 10
152.4923789683
 20
31.5162047484
 11
152.2611288581
 21
31.483941062
  0
LINE
  5
2E0
100
AcDbEntity
  8
0
100
AcDbLine
 62
7
  6
CONTINUOUS
 10
150.0642539683
 20
31.3548863163
 11
150.2955039959
 21
31.3871500027
  0
LINE
  5
2E1
100
AcDbEntity
  8
0
100
AcDbLine
 62
7
  6
CONTINUOUS
 10
156.5836187224
 20
34.9099962007
 11
157.2393564274
 21
34.9099962007
  0
LINE
  5
2E2
100
AcDbEntity
  8
0
100
AcDbLine
 62
7
  6
CONTINUOUS
 10
154.2267539683
 20
30.967722034
 11
154.3423788581
 21
30.9999857205
  0
LINE
  5
2E3
100
AcDbEntity
  8
0
100
AcDbLine
 62
7
  6
CONTINUOUS
 10
154.2267539683
 20
31.1290405113
 11
153.9955038581
 21
31.0645131385
  0
LINE
  5
2E4
100
AcDbEntity
  8
0
100
AcDbLine
 62
7
  6
CONTINUOUS
 10
154.1111290786
 20
31.3226226299
 11
154.2267539683
 21
31.3548863163
  0
LINE
  5
2E5
100
AcDbEntity
  8
0
100
AcDbLine
 62
7
  6
CONTINUOUS
 10
150.7580039683
 20
30.5160303817
 11
150.9892539132
 21
30.5805577631
  0
LINE
  5
2E6
100
AcDbEntity
  8
0
100
AcDbLine
 62
7
  6
CONTINUOUS
 10
154.0533164683
 20
31.483941062
 11
153.9376915786
 21
31.4516773756
  0
LINE
  5
2E7
100
AcDbEntity
  8
0
100
AcDbLine
 62
7
  6
CONTINUOUS
 10
150.0064414821
 20
31.483941062
 11
149.8330039821
 21
31.4516773756
  0
LINE
  5
2E8
100
AcDbEntity
  8
0
100
AcDbLine
 62
7
  6
CONTINUOUS
 10
160.7639465913
 20
36.0575371843
 11
159.3705039683
 21
36.0575371843
  0
LINE
  5
2E9
100
AcDbEntity
  8
0
100
AcDbLine
 62
7
  6
CONTINUOUS
 10
157.4032908536
 20
36.0575371843
 11
156.990719505
 21
36.0575371843
  0
LINE
  5
2EA
100
AcDbEntity
  8
0
100
AcDbLine
 62
7
  6
CONTINUOUS
 10
155.7639465913
 20
36.0575371843
 11
154.3705039683
 21
36.0575371843
  0
LINE
  5
2EB
100
AcDbEntity
  8
0
100
AcDbLine
 62
7
  6
CONTINUOUS
 10
154.0426351159
 20
36.0575371843
 11
152.6491924929
 21
36.0575371843
  0
LINE
  5
2EC
100
AcDbEntity
  8
0
100
AcDbLine
 62
7
  6
CONTINUOUS
 10
150.7639465913
 20
36.0575371843
 11
149.3705039683
 21
36.0575371843
  0
LINE
  5
2ED
100
AcDbEntity
  8
0
100
AcDbLine
 62
7
  6
CONTINUOUS
 10
149.9486289546
 20
31.3226226299
 11
150.0642539683
 21
31.3548863163
  0
CIRCLE
  5
2EE
100
AcDbEntity
  8
0
100
AcDbCircle
 62
7
  6
CONTINUOUS
 10
160.0672252798
 20
38.3936027581
 40
2.0901639344
  0
ARC
  5
2EF
100
AcDbEntity
  8
0
100
AcDbCircle
 62
7
  6
CONTINUOUS
 10
151.0098482306
 20
33.9263896433
 40
1.6393442623
100
AcDbArc
 50
180.0
 51
270.0
  0
ARC
  5
2F0
100
AcDbEntity
  8
0
100
AcDbCircle
 62
7
  6
CONTINUOUS
 10
157.4032908536
 20
34.418192922
 40
1.6393442623
100
AcDbArc
 50
0.0
 51
90.0
  0
ARC
  5
2F1
100
AcDbEntity
  8
0
100
AcDbCircle
 62
7
  6
CONTINUOUS
 10
151.4224195792
 20
33.7624552171
 40
1.4754098361
100
AcDbArc
 50
270.0
 51
326.2510114041
  0
ARC
  5
2F2
100
AcDbEntity
  8
0
100
AcDbCircle
 62
7
  6
CONTINUOUS
 10
156.990719505
 20
34.5821273482
 40
1.4754098361
100
AcDbArc
 50
90.0
 51
146.2510114041
  0
ARC
  5
2F3
100
AcDbEntity
  8
0
100
AcDbCircle
 62
7
  6
CONTINUOUS
 10
151.8295203618
 20
34.2542584958
 40
0.8196721311
100
AcDbArc
 50
270.0
 51
360.0
  0
ARC
  5
2F4
100
AcDbEntity
  8
0
100
AcDbCircle
 62
7
  6
CONTINUOUS
 10
156.5836187224
 20
34.0903240696
 40
0.8196721311
100
AcDbArc
 50
90.0
 51
180.0
  0
ARC
  5
2F5
100
AcDbEntity
  8
0
100
AcDbCircle
 62
7
  6
CONTINUOUS
 10
151.1737826569
 20
33.8444224302
 40
0.4098360656
100
AcDbArc
 50
180.0
 51
270.0
  0
ARC
  5
2F6
100
AcDbEntity
  8
0
100
AcDbCircle
 62
7
  6
CONTINUOUS
 10
157.2393564274
 20
34.5001601351
 40
0.4098360656
100
AcDbArc
 50
0.0
 51
90.0
  0
SOLID
  5
2F7
100
AcDbEntity
  8
0
100
AcDbTrace
 62
7
  6
CONTINUOUS
 10
156.0767541889
 20
31.8388420633
 11
156.0767541889
 21
32.0001605469
 12
156.3658162478
 22
31.8388420633
 13
156.3658162478
 23
32.0001605469
  0
LWPOLYLINE
  5
2F8
100
AcDbEntity
  8
0
100
AcDbPolyline
 62
7
  6
CONTINUOUS
 90
13
 70
0
 10
150.3533164408
 20
31.5162050961
 10
150.7580039683
 20
31.4839407928
 10
150.9892539132
 20
31.4194137026
 10
151.1626914132
 20
31.3226223092
 10
151.2205040235
 20
31.1935681288
 10
150.9314414683
 20
31.1935681288
 10
150.8736290235
 20
31.2903595223
 10
150.7001914408
 20
31.3548866125
 10
150.2955039959
 20
31.3871493993
 10
149.6595664615
 20
31.3871493993
 10
149.8330039821
 20
31.4516780059
 10
150.0064414821
 20
31.4839407928
 10
150.3533164408
 20
31.5162050961
  0
HATCH
  5
2F9
100
AcDbEntity
  8
0
100
AcDbHatch
 62
7
  6
CONTINUOUS
 10
0.0
 20
0.0
 30
0.0
210
0.0
220
0.0
230
1.0
  2
SOLID
 70
1
 71
1
 91
1
 92
1
 93
12
 72
1
 10
150.3533164408
 20
31.5162050961
 11
150.7580039683
 21
31.4839407928
 72
1
 10
150.7580039683
 20
31.4839407928
 11
150.9892539132
 21
31.4194137026
 72
1
 10
150.9892539132
 20
31.4194137026
 11
151.1626914132
 21
31.3226223092
 72
1
 10
151.1626914132
 20
31.3226223092
 11
151.2205040235
 21
31.1935681288
 72
1
 10
151.2205040235
 20
31.1935681288
 11
150.9314414683
 21
31.1935681288
 72
1
 10
150.9314414683
 20
31.1935681288
 11
150.8736290235
 21
31.2903595223
 72
1
 10
150.8736290235
 20
31.2903595223
 11
150.7001914408
 21
31.3548866125
 72
1
 10
150.7001914408
 20
31.3548866125
 11
150.2955039959
 21
31.3871493993
 72
1
 10
150.2955039959
 20
31.3871493993
 11
149.6595664615
 21
31.3871493993
 72
1
 10
149.6595664615
 20
31.3871493993
 11
149.8330039821
 21
31.4516780059
 72
1
 10
149.8330039821
 20
31.4516780059
 11
150.0064414821
 21
31.4839407928
 72
1
 10
150.0064414821
 20
31.4839407928
 11
150.3533164408
 21
31.5162050961
 97
1
330
2F8
 75
0
 76
1
 98
1
 10
0.0
 20
0.0
  0
LWPOLYLINE
  5
2FA
100
AcDbEntity
  8
0
100
AcDbPolyline
 62
7
  6
CONTINUOUS
 90
25
 70
0
 10
152.2611288581
 20
31.4839407928
 10
152.4923789683
 20
31.5162050961
 10
152.7236290786
 20
31.5162050961
 10
152.8970665786
 20
31.4839407928
 10
153.0705040786
 20
31.4194137026
 10
153.1861289683
 20
31.3548866125
 10
153.2439415786
 20
31.2903595223
 10
153.3017538581
 20
31.1290410387
 10
153.3017538581
 20
30.4837671043
 10
153.0126914683
 20
30.4837671043
 10
153.0126914683
 20
31.1290410387
 10
152.9548788581
 20
31.258095219
 10
152.8392539683
 20
31.3226223092
 10
152.7236290786
 20
31.3548866125
 10
152.4923789683
 20
31.3871493993
 10
152.2611288581
 20
31.3548866125
 10
152.0876915235
 20
31.2903595223
 10
151.9720664683
 20
31.2258309157
 10
151.9720664683
 20
30.4837671043
 10
151.6830039132
 20
30.4837671043
 10
151.6830039132
 20
32.0001605469
 10
151.9720664683
 20
32.0001605469
 10
151.9720664683
 20
31.3548866125
 10
152.0876915235
 20
31.4194137026
 10
152.2611288581
 20
31.4839407928
  0
HATCH
  5
2FB
100
AcDbEntity
  8
0
100
AcDbHatch
 62
7
  6
CONTINUOUS
 10
0.0
 20
0.0
 30
0.0
210
0.0
220
0.0
230
1.0
  2
SOLID
 70
1
 71
1
 91
1
 92
1
 93
24
 72
1
 10
152.2611288581
 20
31.4839407928
 11
152.4923789683
 21
31.5162050961
 72
1
 10
152.4923789683
 20
31.5162050961
 11
152.7236290786
 21
31.5162050961
 72
1
 10
152.7236290786
 20
31.5162050961
 11
152.8970665786
 21
31.4839407928
 72
1
 10
152.8970665786
 20
31.4839407928
 11
153.0705040786
 21
31.4194137026
 72
1
 10
153.0705040786
 20
31.4194137026
 11
153.1861289683
 21
31.3548866125
 72
1
 10
153.1861289683
 20
31.3548866125
 11
153.2439415786
 21
31.2903595223
 72
1
 10
153.2439415786
 20
31.2903595223
 11
153.3017538581
 21
31.1290410387
 72
1
 10
153.3017538581
 20
31.1290410387
 11
153.3017538581
 21
30.4837671043
 72
1
 10
153.3017538581
 20
30.4837671043
 11
153.0126914683
 21
30.4837671043
 72
1
 10
153.0126914683
 20
30.4837671043
 11
153.0126914683
 21
31.1290410387
 72
1
 10
153.0126914683
 20
31.1290410387
 11
152.9548788581
 21
31.258095219
 72
1
 10
152.9548788581
 20
31.258095219
 11
152.8392539683
 21
31.3226223092
 72
1
 10
152.8392539683
 20
31.3226223092
 11
152.7236290786
 21
31.3548866125
 72
1
 10
152.7236290786
 20
31.3548866125
 11
152.4923789683
 21
31.3871493993
 72
1
 10
152.4923789683
 20
31.3871493993
 11
152.2611288581
 21
31.3548866125
 72
1
 10
152.2611288581
 20
31.3548866125
 11
152.0876915235
 21
31.2903595223
 72
1
 10
152.0876915235
 20
31.2903595223
 11
151.9720664683
 21
31.2258309157
 72
1
 10
151.9720664683
 20
31.2258309157
 11
151.9720664683
 21
30.4837671043
 72
1
 10
151.9720664683
 20
30.4837671043
 11
151.6830039132
 21
30.4837671043
 72
1
 10
151.6830039132
 20
30.4837671043
 11
151.6830039132
 21
32.0001605469
 72
1
 10
151.6830039132
 20
32.0001605469
 11
151.9720664683
 21
32.0001605469
 72
1
 10
151.9720664683
 20
32.0001605469
 11
151.9720664683
 21
31.3548866125
 72
1
 10
151.9720664683
 20
31.3548866125
 11
152.0876915235
 21
31.4194137026
 72
1
 10
152.0876915235
 20
31.4194137026
 11
152.2611288581
 21
31.4839407928
 97
1
330
2FA
 75
0
 76
1
 98
1
 10
0.0
 20
0.0
  0
LWPOLYLINE
  5
2FC
100
AcDbEntity
  8
0
100
AcDbPolyline
 62
7
  6
CONTINUOUS
 90
20
 70
0
 10
154.0533164683
 20
31.4839407928
 10
154.4580040786
 20
31.5162050961
 10
154.8048790786
 20
31.5162050961
 10
155.1517537478
 20
31.4839407928
 10
155.3251912478
 20
31.4194137026
 10
155.4408164683
 20
31.3548866125
 10
155.4986287478
 20
31.258095219
 10
155.4986287478
 20
30.7418754649
 10
155.2095666889
 20
30.8386672883
 10
155.2095666889
 20
31.0322496452
 10
155.2095666889
 20
31.1613038256
 10
155.2095666889
 20
31.258095219
 10
155.1517537478
 20
31.3226223092
 10
155.0361291889
 20
31.3548866125
 10
154.8048790786
 20
31.3871493993
 10
154.4580040786
 20
31.3871493993
 10
153.7642540786
 20
31.3226223092
 10
153.8220663581
 20
31.3871493993
 10
153.9376915786
 20
31.4516780059
 10
154.0533164683
 20
31.4839407928
  0
HATCH
  5
2FD
100
AcDbEntity
  8
0
100
AcDbHatch
 62
7
  6
CONTINUOUS
 10
0.0
 20
0.0
 30
0.0
210
0.0
220
0.0
230
1.0
  2
SOLID
 70
1
 71
1
 91
1
 92
1
 93
19
 72
1
 10
154.0533164683
 20
31.4839407928
 11
154.4580040786
 21
31.5162050961
 72
1
 10
154.4580040786
 20
31.5162050961
 11
154.8048790786
 21
31.5162050961
 72
1
 10
154.8048790786
 20
31.5162050961
 11
155.1517537478
 21
31.4839407928
 72
1
 10
155.1517537478
 20
31.4839407928
 11
155.3251912478
 21
31.4194137026
 72
1
 10
155.3251912478
 20
31.4194137026
 11
155.4408164683
 21
31.3548866125
 72
1
 10
155.4408164683
 20
31.3548866125
 11
155.4986287478
 21
31.258095219
 72
1
 10
155.4986287478
 20
31.258095219
 11
155.4986287478
 21
30.7418754649
 72
1
 10
155.4986287478
 20
30.7418754649
 11
155.2095666889
 21
30.8386672883
 72
1
 10
155.2095666889
 20
30.8386672883
 11
155.2095666889
 21
31.0322496452
 72
1
 10
155.2095666889
 20
31.0322496452
 11
155.2095666889
 21
31.1613038256
 72
1
 10
155.2095666889
 20
31.1613038256
 11
155.2095666889
 21
31.258095219
 72
1
 10
155.2095666889
 20
31.258095219
 11
155.1517537478
 21
31.3226223092
 72
1
 10
155.1517537478
 20
31.3226223092
 11
155.0361291889
 21
31.3548866125
 72
1
 10
155.0361291889
 20
31.3548866125
 11
154.8048790786
 21
31.3871493993
 72
1
 10
154.8048790786
 20
31.3871493993
 11
154.4580040786
 21
31.3871493993
 72
1
 10
154.4580040786
 20
31.3871493993
 11
153.7642540786
 21
31.3226223092
 72
1
 10
153.7642540786
 20
31.3226223092
 11
153.8220663581
 21
31.3871493993
 72
1
 10
153.8220663581
 20
31.3871493993
 11
153.9376915786
 21
31.4516780059
 72
1
 10
153.9376915786
 20
31.4516780059
 11
154.0533164683
 21
31.4839407928
 97
1
330
2FC
 75
0
 76
1
 98
1
 10
0.0
 20
0.0
  0
LWPOLYLINE
  5
2FE
100
AcDbEntity
  8
0
100
AcDbPolyline
 62
7
  6
CONTINUOUS
 90
25
 70
0
 10
157.4064412478
 20
31.4839407928
 10
157.6376916889
 20
31.5162050961
 10
157.8689414683
 20
31.5162050961
 10
158.0423789683
 20
31.4839407928
 10
158.2158164683
 20
31.4194137026
 10
158.3314416889
 20
31.3548866125
 10
158.3892539683
 20
31.258095219
 10
158.4470662478
 20
31.0967767354
 10
158.4470662478
 20
30.4837671043
 10
158.1580041889
 20
30.4837671043
 10
158.1580041889
 20
31.0967767354
 10
158.1001912478
 20
31.258095219
 10
157.9845666889
 20
31.3226223092
 10
157.8689414683
 20
31.3548866125
 10
157.6376916889
 20
31.3871493993
 10
157.4064412478
 20
31.3548866125
 10
157.2330037478
 20
31.2903595223
 10
157.1173791889
 20
31.2258309157
 10
157.1173791889
 20
30.4837671043
 10
156.8283164683
 20
30.4837671043
 10
156.8283164683
 20
31.5162050961
 10
157.1173791889
 20
31.5162050961
 10
157.1173791889
 20
31.3548866125
 10
157.2330037478
 20
31.4194137026
 10
157.4064412478
 20
31.4839407928
  0
HATCH
  5
2FF
100
AcDbEntity
  8
0
100
AcDbHatch
 62
7
  6
CONTINUOUS
 10
0.0
 20
0.0
 30
0.0
210
0.0
220
0.0
230
1.0
  2
SOLID
 70
1
 71
1
 91
1
 92
1
 93
24
 72
1
 10
157.4064412478
 20
31.4839407928
 11
157.6376916889
 21
31.5162050961
 72
1
 10
157.6376916889
 20
31.5162050961
 11
157.8689414683
 21
31.5162050961
 72
1
 10
157.8689414683
 20
31.5162050961
 11
158.0423789683
 21
31.4839407928
 72
1
 10
158.0423789683
 20
31.4839407928
 11
158.2158164683
 21
31.4194137026
 72
1
 10
158.2158164683
 20
31.4194137026
 11
158.3314416889
 21
31.3548866125
 72
1
 10
158.3314416889
 20
31.3548866125
 11
158.3892539683
 21
31.258095219
 72
1
 10
158.3892539683
 20
31.258095219
 11
158.4470662478
 21
31.0967767354
 72
1
 10
158.4470662478
 20
31.0967767354
 11
158.4470662478
 21
30.4837671043
 72
1
 10
158.4470662478
 20
30.4837671043
 11
158.1580041889
 21
30.4837671043
 72
1
 10
158.1580041889
 20
30.4837671043
 11
158.1580041889
 21
31.0967767354
 72
1
 10
158.1580041889
 20
31.0967767354
 11
158.1001912478
 21
31.258095219
 72
1
 10
158.1001912478
 20
31.258095219
 11
157.9845666889
 21
31.3226223092
 72
1
 10
157.9845666889
 20
31.3226223092
 11
157.8689414683
 21
31.3548866125
 72
1
 10
157.8689414683
 20
31.3548866125
 11
157.6376916889
 21
31.3871493993
 72
1
 10
157.6376916889
 20
31.3871493993
 11
157.4064412478
 21
31.3548866125
 72
1
 10
157.4064412478
 20
31.3548866125
 11
157.2330037478
 21
31.2903595223
 72
1
 10
157.2330037478
 20
31.2903595223
 11
157.1173791889
 21
31.2258309157
 72
1
 10
157.1173791889
 20
31.2258309157
 11
157.1173791889
 21
30.4837671043
 72
1
 10
157.1173791889
 20
30.4837671043
 11
156.8283164683
 21
30.4837671043
 72
1
 10
156.8283164683
 20
30.4837671043
 11
156.8283164683
 21
31.5162050961
 72
1
 10
156.8283164683
 20
31.5162050961
 11
157.1173791889
 21
31.5162050961
 72
1
 10
157.1173791889
 20
31.5162050961
 11
157.1173791889
 21
31.3548866125
 72
1
 10
157.1173791889
 20
31.3548866125
 11
157.2330037478
 21
31.4194137026
 72
1
 10
157.2330037478
 20
31.4194137026
 11
157.4064412478
 21
31.4839407928
 97
1
330
2FE
 75
0
 76
1
 98
1
 10
0.0
 20
0.0
  0
LWPOLYLINE
  5
300
100
AcDbEntity
  8
0
100
AcDbPolyline
 62
7
  6
CONTINUOUS
 90
6
 70
0
 10
159.2564414683
 20
31.4839407928
 10
159.6033164683
 20
31.5162050961
 10
159.9501914683
 20
31.5162050961
 10
160.2970664683
 20
31.4839407928
 10
159.0251916889
 20
31.4194137026
 10
159.2564414683
 20
31.4839407928
  0
HATCH
  5
301
100
AcDbEntity
  8
0
100
AcDbHatch
 62
7
  6
CONTINUOUS
 10
0.0
 20
0.0
 30
0.0
210
0.0
220
0.0
230
1.0
  2
SOLID
 70
1
 71
1
 91
1
 92
1
 93
5
 72
1
 10
159.2564414683
 20
31.4839407928
 11
159.6033164683
 21
31.5162050961
 72
1
 10
159.6033164683
 20
31.5162050961
 11
159.9501914683
 21
31.5162050961
 72
1
 10
159.9501914683
 20
31.5162050961
 11
160.2970664683
 21
31.4839407928
 72
1
 10
160.2970664683
 20
31.4839407928
 11
159.0251916889
 21
31.4194137026
 72
1
 10
159.0251916889
 20
31.4194137026
 11
159.2564414683
 21
31.4839407928
 97
1
330
300
 75
0
 76
1
 98
1
 10
0.0
 20
0.0
  0
LWPOLYLINE
  5
302
100
AcDbEntity
  8
0
100
AcDbPolyline
 62
7
  6
CONTINUOUS
 90
12
 70
0
 10
160.4705039683
 20
31.4516780059
 10
160.6439414683
 20
31.3871493993
 10
160.7595660273
 20
31.258095219
 10
160.4705039683
 20
31.258095219
 10
160.4126916889
 20
31.3226223092
 10
160.2970664683
 20
31.3548866125
 10
159.9501914683
 20
31.3871493993
 10
159.6033164683
 20
31.3871493993
 10
158.9095664683
 20
31.3226223092
 10
159.0251916889
 20
31.4194137026
 10
160.2970664683
 20
31.4839407928
 10
160.4705039683
 20
31.4516780059
  0
HATCH
  5
303
100
AcDbEntity
  8
0
100
AcDbHatch
 62
7
  6
CONTINUOUS
 10
0.0
 20
0.0
 30
0.0
210
0.0
220
0.0
230
1.0
  2
SOLID
 70
1
 71
1
 91
1
 92
1
 93
11
 72
1
 10
160.4705039683
 20
31.4516780059
 11
160.6439414683
 21
31.3871493993
 72
1
 10
160.6439414683
 20
31.3871493993
 11
160.7595660273
 21
31.258095219
 72
1
 10
160.7595660273
 20
31.258095219
 11
160.4705039683
 21
31.258095219
 72
1
 10
160.4705039683
 20
31.258095219
 11
160.4126916889
 21
31.3226223092
 72
1
 10
160.4126916889
 20
31.3226223092
 11
160.2970664683
 21
31.3548866125
 72
1
 10
160.2970664683
 20
31.3548866125
 11
159.9501914683
 21
31.3871493993
 72
1
 10
159.9501914683
 20
31.3871493993
 11
159.6033164683
 21
31.3871493993
 72
1
 10
159.6033164683
 20
31.3871493993
 11
158.9095664683
 21
31.3226223092
 72
1
 10
158.9095664683
 20
31.3226223092
 11
159.0251916889
 21
31.4194137026
 72
1
 10
159.0251916889
 20
31.4194137026
 11
160.2970664683
 21
31.4839407928
 72
1
 10
160.2970664683
 20
31.4839407928
 11
160.4705039683
 21
31.4516780059
 97
1
330
302
 75
0
 76
1
 98
1
 10
0.0
 20
0.0
  0
LWPOLYLINE
  5
304
100
AcDbEntity
  8
0
100
AcDbPolyline
 62
7
  6
CONTINUOUS
 90
7
 70
0
 10
150.0642539683
 20
31.3548866125
 10
149.9486289546
 20
31.3226223092
 10
149.4283164701
 20
31.1935681288
 10
149.5439414683
 20
31.3226223092
 10
149.6595664615
 20
31.3871493993
 10
150.2955039959
 20
31.3871493993
 10
150.0642539683
 20
31.3548866125
  0
HATCH
  5
305
100
AcDbEntity
  8
0
100
AcDbHatch
 62
7
  6
CONTINUOUS
 10
0.0
 20
0.0
 30
0.0
210
0.0
220
0.0
230
1.0
  2
SOLID
 70
1
 71
1
 91
1
 92
1
 93
6
 72
1
 10
150.0642539683
 20
31.3548866125
 11
149.9486289546
 21
31.3226223092
 72
1
 10
149.9486289546
 20
31.3226223092
 11
149.4283164701
 21
31.1935681288
 72
1
 10
149.4283164701
 20
31.1935681288
 11
149.5439414683
 21
31.3226223092
 72
1
 10
149.5439414683
 20
31.3226223092
 11
149.6595664615
 21
31.3871493993
 72
1
 10
149.6595664615
 20
31.3871493993
 11
150.2955039959
 21
31.3871493993
 72
1
 10
150.2955039959
 20
31.3871493993
 11
150.0642539683
 21
31.3548866125
 97
1
330
304
 75
0
 76
1
 98
1
 10
0.0
 20
0.0
  0
LWPOLYLINE
  5
306
100
AcDbEntity
  8
0
100
AcDbPolyline
 62
7
  6
CONTINUOUS
 90
7
 70
0
 10
154.2267539683
 20
31.3548866125
 10
154.1111290786
 20
31.3226223092
 10
154.0533164683
 20
31.258095219
 10
153.7642540786
 20
31.258095219
 10
153.7642540786
 20
31.3226223092
 10
154.4580040786
 20
31.3871493993
 10
154.2267539683
 20
31.3548866125
  0
HATCH
  5
307
100
AcDbEntity
  8
0
100
AcDbHatch
 62
7
  6
CONTINUOUS
 10
0.0
 20
0.0
 30
0.0
210
0.0
220
0.0
230
1.0
  2
SOLID
 70
1
 71
1
 91
1
 92
1
 93
6
 72
1
 10
154.2267539683
 20
31.3548866125
 11
154.1111290786
 21
31.3226223092
 72
1
 10
154.1111290786
 20
31.3226223092
 11
154.0533164683
 21
31.258095219
 72
1
 10
154.0533164683
 20
31.258095219
 11
153.7642540786
 21
31.258095219
 72
1
 10
153.7642540786
 20
31.258095219
 11
153.7642540786
 21
31.3226223092
 72
1
 10
153.7642540786
 20
31.3226223092
 11
154.4580040786
 21
31.3871493993
 72
1
 10
154.4580040786
 20
31.3871493993
 11
154.2267539683
 21
31.3548866125
 97
1
330
306
 75
0
 76
1
 98
1
 10
0.0
 20
0.0
  0
LWPOLYLINE
  5
308
100
AcDbEntity
  8
0
100
AcDbPolyline
 62
7
  6
CONTINUOUS
 90
8
 70
0
 10
159.3720666889
 20
31.3548866125
 10
159.2564414683
 20
31.3226223092
 10
159.1986291889
 20
31.258095219
 10
159.0251916889
 20
31.1290410387
 10
158.9095664683
 20
31.258095219
 10
158.9095664683
 20
31.3226223092
 10
159.6033164683
 20
31.3871493993
 10
159.3720666889
 20
31.3548866125
  0
HATCH
  5
309
100
AcDbEntity
  8
0
100
AcDbHatch
 62
7
  6
CONTINUOUS
 10
0.0
 20
0.0
 30
0.0
210
0.0
220
0.0
230
1.0
  2
SOLID
 70
1
 71
1
 91
1
 92
1
 93
7
 72
1
 10
159.3720666889
 20
31.3548866125
 11
159.2564414683
 21
31.3226223092
 72
1
 10
159.2564414683
 20
31.3226223092
 11
159.1986291889
 21
31.258095219
 72
1
 10
159.1986291889
 20
31.258095219
 11
159.0251916889
 21
31.1290410387
 72
1
 10
159.0251916889
 20
31.1290410387
 11
158.9095664683
 21
31.258095219
 72
1
 10
158.9095664683
 20
31.258095219
 11
158.9095664683
 21
31.3226223092
 72
1
 10
158.9095664683
 20
31.3226223092
 11
159.6033164683
 21
31.3871493993
 72
1
 10
159.6033164683
 20
31.3871493993
 11
159.3720666889
 21
31.3548866125
 97
1
330
308
 75
0
 76
1
 98
1
 10
0.0
 20
0.0
  0
LWPOLYLINE
  5
30A
100
AcDbEntity
  8
0
100
AcDbPolyline
 62
7
  6
CONTINUOUS
 90
6
 70
0
 10
149.7751914546
 20
31.2258309157
 10
149.7173789683
 20
31.1613038256
 10
149.3705039683
 20
30.999985342
 10
149.4283164701
 20
31.1935681288
 10
149.9486289546
 20
31.3226223092
 10
149.7751914546
 20
31.2258309157
  0
HATCH
  5
30B
100
AcDbEntity
  8
0
100
AcDbHatch
 62
7
  6
CONTINUOUS
 10
0.0
 20
0.0
 30
0.0
210
0.0
220
0.0
230
1.0
  2
SOLID
 70
1
 71
1
 91
1
 92
1
 93
5
 72
1
 10
149.7751914546
 20
31.2258309157
 11
149.7173789683
 21
31.1613038256
 72
1
 10
149.7173789683
 20
31.1613038256
 11
149.3705039683
 21
30.999985342
 72
1
 10
149.3705039683
 20
30.999985342
 11
149.4283164701
 21
31.1935681288
 72
1
 10
149.4283164701
 20
31.1935681288
 11
149.9486289546
 21
31.3226223092
 72
1
 10
149.9486289546
 20
31.3226223092
 11
149.7751914546
 21
31.2258309157
 97
1
330
30A
 75
0
 76
1
 98
1
 10
0.0
 20
0.0
  0
LWPOLYLINE
  5
30C
100
AcDbEntity
  8
0
100
AcDbPolyline
 62
7
  6
CONTINUOUS
 90
7
 70
0
 10
154.2267539683
 20
31.1290410387
 10
154.5736289683
 20
31.1613038256
 10
155.2095666889
 20
31.1613038256
 10
155.2095666889
 20
31.0322496452
 10
154.5736289683
 20
31.0322496452
 10
153.9955038581
 20
31.0645131385
 10
154.2267539683
 20
31.1290410387
  0
HATCH
  5
30D
100
AcDbEntity
  8
0
100
AcDbHatch
 62
7
  6
CONTINUOUS
 10
0.0
 20
0.0
 30
0.0
210
0.0
220
0.0
230
1.0
  2
SOLID
 70
1
 71
1
 91
1
 92
1
 93
6
 72
1
 10
154.2267539683
 20
31.1290410387
 11
154.5736289683
 21
31.1613038256
 72
1
 10
154.5736289683
 20
31.1613038256
 11
155.2095666889
 21
31.1613038256
 72
1
 10
155.2095666889
 20
31.1613038256
 11
155.2095666889
 21
31.0322496452
 72
1
 10
155.2095666889
 20
31.0322496452
 11
154.5736289683
 21
31.0322496452
 72
1
 10
154.5736289683
 20
31.0322496452
 11
153.9955038581
 21
31.0645131385
 72
1
 10
153.9955038581
 20
31.0645131385
 11
154.2267539683
 21
31.1290410387
 97
1
330
30C
 75
0
 76
1
 98
1
 10
0.0
 20
0.0
  0
LWPOLYLINE
  5
30E
100
AcDbEntity
  8
0
100
AcDbPolyline
 62
7
  6
CONTINUOUS
 90
24
 70
0
 10
159.2564414683
 20
31.1935681288
 10
159.4298789683
 20
31.1290410387
 10
160.4126916889
 20
30.9677225551
 10
160.6439414683
 20
30.8709311616
 10
160.7595660273
 20
30.7418754649
 10
160.7595660273
 20
30.6773483748
 10
160.6439414683
 20
30.5805584977
 10
160.4126916889
 20
30.5160298911
 10
160.0658166889
 20
30.4837671043
 10
159.7189416889
 20
30.4837671043
 10
159.3720666889
 20
30.5160298911
 10
159.1986291889
 20
30.5482941944
 10
159.0251916889
 20
30.6128212846
 10
159.7189416889
 20
30.6128212846
 10
160.0658166889
 20
30.6128212846
 10
160.2970664683
 20
30.6450855879
 10
160.4126916889
 20
30.6773483748
 10
160.4705039683
 20
30.7418754649
 10
160.4126916889
 20
30.8064040715
 10
160.2392541889
 20
30.8709311616
 10
159.2564414683
 20
31.0322496452
 10
159.0251916889
 20
31.1290410387
 10
159.1986291889
 20
31.258095219
 10
159.2564414683
 20
31.1935681288
  0
HATCH
  5
30F
100
AcDbEntity
  8
0
100
AcDbHatch
 62
7
  6
CONTINUOUS
 10
0.0
 20
0.0
 30
0.0
210
0.0
220
0.0
230
1.0
  2
SOLID
 70
1
 71
1
 91
1
 92
1
 93
23
 72
1
 10
159.2564414683
 20
31.1935681288
 11
159.4298789683
 21
31.1290410387
 72
1
 10
159.4298789683
 20
31.1290410387
 11
160.4126916889
 21
30.9677225551
 72
1
 10
160.4126916889
 20
30.9677225551
 11
160.6439414683
 21
30.8709311616
 72
1
 10
160.6439414683
 20
30.8709311616
 11
160.7595660273
 21
30.7418754649
 72
1
 10
160.7595660273
 20
30.7418754649
 11
160.7595660273
 21
30.6773483748
 72
1
 10
160.7595660273
 20
30.6773483748
 11
160.6439414683
 21
30.5805584977
 72
1
 10
160.6439414683
 20
30.5805584977
 11
160.4126916889
 21
30.5160298911
 72
1
 10
160.4126916889
 20
30.5160298911
 11
160.0658166889
 21
30.4837671043
 72
1
 10
160.0658166889
 20
30.4837671043
 11
159.7189416889
 21
30.4837671043
 72
1
 10
159.7189416889
 20
30.4837671043
 11
159.3720666889
 21
30.5160298911
 72
1
 10
159.3720666889
 20
30.5160298911
 11
159.1986291889
 21
30.5482941944
 72
1
 10
159.1986291889
 20
30.5482941944
 11
159.0251916889
 21
30.6128212846
 72
1
 10
159.0251916889
 20
30.6128212846
 11
159.7189416889
 21
30.6128212846
 72
1
 10
159.7189416889
 20
30.6128212846
 11
160.0658166889
 21
30.6128212846
 72
1
 10
160.0658166889
 20
30.6128212846
 11
160.2970664683
 21
30.6450855879
 72
1
 10
160.2970664683
 20
30.6450855879
 11
160.4126916889
 21
30.6773483748
 72
1
 10
160.4126916889
 20
30.6773483748
 11
160.4705039683
 21
30.7418754649
 72
1
 10
160.4705039683
 20
30.7418754649
 11
160.4126916889
 21
30.8064040715
 72
1
 10
160.4126916889
 20
30.8064040715
 11
160.2392541889
 21
30.8709311616
 72
1
 10
160.2392541889
 20
30.8709311616
 11
159.2564414683
 21
31.0322496452
 72
1
 10
159.2564414683
 20
31.0322496452
 11
159.0251916889
 21
31.1290410387
 72
1
 10
159.0251916889
 20
31.1290410387
 11
159.1986291889
 21
31.258095219
 72
1
 10
159.1986291889
 20
31.258095219
 11
159.2564414683
 21
31.1935681288
 97
1
330
30E
 75
0
 76
1
 98
1
 10
0.0
 20
0.0
  0
LWPOLYLINE
  5
310
100
AcDbEntity
  8
0
100
AcDbPolyline
 62
7
  6
CONTINUOUS
 90
12
 70
0
 10
149.6595664615
 20
31.0322496452
 10
149.6595664615
 20
30.9354583476
 10
149.7751914546
 20
30.7741397682
 10
149.9486289546
 20
30.6773483748
 10
150.2955039959
 20
30.6128212846
 10
149.8330039821
 20
30.5482941944
 10
149.6595664615
 20
30.6128212846
 10
149.5439414683
 20
30.6773483748
 10
149.4283164701
 20
30.8064040715
 10
149.3705039683
 20
30.999985342
 10
149.7173789683
 20
31.1613038256
 10
149.6595664615
 20
31.0322496452
  0
HATCH
  5
311
100
AcDbEntity
  8
0
100
AcDbHatch
 62
7
  6
CONTINUOUS
 10
0.0
 20
0.0
 30
0.0
210
0.0
220
0.0
230
1.0
  2
SOLID
 70
1
 71
1
 91
1
 92
1
 93
11
 72
1
 10
149.6595664615
 20
31.0322496452
 11
149.6595664615
 21
30.9354583476
 72
1
 10
149.6595664615
 20
30.9354583476
 11
149.7751914546
 21
30.7741397682
 72
1
 10
149.7751914546
 20
30.7741397682
 11
149.9486289546
 21
30.6773483748
 72
1
 10
149.9486289546
 20
30.6773483748
 11
150.2955039959
 21
30.6128212846
 72
1
 10
150.2955039959
 20
30.6128212846
 11
149.8330039821
 21
30.5482941944
 72
1
 10
149.8330039821
 20
30.5482941944
 11
149.6595664615
 21
30.6128212846
 72
1
 10
149.6595664615
 20
30.6128212846
 11
149.5439414683
 21
30.6773483748
 72
1
 10
149.5439414683
 20
30.6773483748
 11
149.4283164701
 21
30.8064040715
 72
1
 10
149.4283164701
 20
30.8064040715
 11
149.3705039683
 21
30.999985342
 72
1
 10
149.3705039683
 20
30.999985342
 11
149.7173789683
 21
31.1613038256
 72
1
 10
149.7173789683
 20
31.1613038256
 11
149.6595664615
 21
31.0322496452
 97
1
330
310
 75
0
 76
1
 98
1
 10
0.0
 20
0.0
  0
LWPOLYLINE
  5
312
100
AcDbEntity
  8
0
100
AcDbPolyline
 62
7
  6
CONTINUOUS
 90
6
 70
0
 10
153.8798789683
 20
30.999985342
 10
153.9955038581
 20
31.0645131385
 10
154.5736289683
 20
31.0322496452
 10
154.3423788581
 20
30.999985342
 10
153.7642540786
 20
30.8709311616
 10
153.8798789683
 20
30.999985342
  0
HATCH
  5
313
100
AcDbEntity
  8
0
100
AcDbHatch
 62
7
  6
CONTINUOUS
 10
0.0
 20
0.0
 30
0.0
210
0.0
220
0.0
230
1.0
  2
SOLID
 70
1
 71
1
 91
1
 92
1
 93
5
 72
1
 10
153.8798789683
 20
30.999985342
 11
153.9955038581
 21
31.0645131385
 72
1
 10
153.9955038581
 20
31.0645131385
 11
154.5736289683
 21
31.0322496452
 72
1
 10
154.5736289683
 20
31.0322496452
 11
154.3423788581
 21
30.999985342
 72
1
 10
154.3423788581
 20
30.999985342
 11
153.7642540786
 21
30.8709311616
 72
1
 10
153.7642540786
 20
30.8709311616
 11
153.8798789683
 21
30.999985342
 97
1
330
312
 75
0
 76
1
 98
1
 10
0.0
 20
0.0
  0
LWPOLYLINE
  5
314
100
AcDbEntity
  8
0
100
AcDbPolyline
 62
7
  6
CONTINUOUS
 90
9
 70
0
 10
154.1111290786
 20
30.9031946612
 10
154.0533164683
 20
30.8064040715
 10
154.0533164683
 20
30.7418754649
 10
153.8220663581
 20
30.6450855879
 10
153.7642540786
 20
30.7741397682
 10
153.7642540786
 20
30.8709311616
 10
154.3423788581
 20
30.999985342
 10
154.2267539683
 20
30.9677225551
 10
154.1111290786
 20
30.9031946612
  0
HATCH
  5
315
100
AcDbEntity
  8
0
100
AcDbHatch
 62
7
  6
CONTINUOUS
 10
0.0
 20
0.0
 30
0.0
210
0.0
220
0.0
230
1.0
  2
SOLID
 70
1
 71
1
 91
1
 92
1
 93
8
 72
1
 10
154.1111290786
 20
30.9031946612
 11
154.0533164683
 21
30.8064040715
 72
1
 10
154.0533164683
 20
30.8064040715
 11
154.0533164683
 21
30.7418754649
 72
1
 10
154.0533164683
 20
30.7418754649
 11
153.8220663581
 21
30.6450855879
 72
1
 10
153.8220663581
 20
30.6450855879
 11
153.7642540786
 21
30.7741397682
 72
1
 10
153.7642540786
 20
30.7741397682
 11
153.7642540786
 21
30.8709311616
 72
1
 10
153.7642540786
 20
30.8709311616
 11
154.3423788581
 21
30.999985342
 72
1
 10
154.3423788581
 20
30.999985342
 11
154.2267539683
 21
30.9677225551
 72
1
 10
154.2267539683
 20
30.9677225551
 11
154.1111290786
 21
30.9031946612
 97
1
330
314
 75
0
 76
1
 98
1
 10
0.0
 20
0.0
  0
LWPOLYLINE
  5
316
100
AcDbEntity
  8
0
100
AcDbPolyline
 62
7
  6
CONTINUOUS
 90
10
 70
0
 10
155.1517537478
 20
30.7741397682
 10
155.2095666889
 20
30.8386672883
 10
155.4986287478
 20
30.7418754649
 10
155.5564416889
 20
30.5805584977
 10
155.6142539683
 20
30.4837671043
 10
155.3251912478
 20
30.4837671043
 10
155.2673789683
 20
30.5482941944
 10
155.2095666889
 20
30.6450855879
 10
154.9783162478
 20
30.6773483748
 10
155.1517537478
 20
30.7741397682
  0
HATCH
  5
317
100
AcDbEntity
  8
0
100
AcDbHatch
 62
7
  6
CONTINUOUS
 10
0.0
 20
0.0
 30
0.0
210
0.0
220
0.0
230
1.0
  2
SOLID
 70
1
 71
1
 91
1
 92
1
 93
9
 72
1
 10
155.1517537478
 20
30.7741397682
 11
155.2095666889
 21
30.8386672883
 72
1
 10
155.2095666889
 20
30.8386672883
 11
155.4986287478
 21
30.7418754649
 72
1
 10
155.4986287478
 20
30.7418754649
 11
155.5564416889
 21
30.5805584977
 72
1
 10
155.5564416889
 20
30.5805584977
 11
155.6142539683
 21
30.4837671043
 72
1
 10
155.6142539683
 20
30.4837671043
 11
155.3251912478
 21
30.4837671043
 72
1
 10
155.3251912478
 20
30.4837671043
 11
155.2673789683
 21
30.5482941944
 72
1
 10
155.2673789683
 20
30.5482941944
 11
155.2095666889
 21
30.6450855879
 72
1
 10
155.2095666889
 20
30.6450855879
 11
154.9783162478
 21
30.6773483748
 72
1
 10
154.9783162478
 20
30.6773483748
 11
155.1517537478
 21
30.7741397682
 97
1
330
316
 75
0
 76
1
 98
1
 10
0.0
 20
0.0
  0
LWPOLYLINE
  5
318
100
AcDbEntity
  8
0
100
AcDbPolyline
 62
7
  6
CONTINUOUS
 90
12
 70
0
 10
150.8736290235
 20
30.7096125201
 10
150.9314414683
 20
30.8064040715
 10
151.2205040235
 20
30.8064040715
 10
151.1626914132
 20
30.6773483748
 10
150.9892539132
 20
30.5805584977
 10
150.7580039683
 20
30.5160298911
 10
150.3533164408
 20
30.4837671043
 10
150.0064414821
 20
30.5160298911
 10
149.8330039821
 20
30.5482941944
 10
150.2955039959
 20
30.6128212846
 10
150.7001914408
 20
30.6450855879
 10
150.8736290235
 20
30.7096125201
  0
HATCH
  5
319
100
AcDbEntity
  8
0
100
AcDbHatch
 62
7
  6
CONTINUOUS
 10
0.0
 20
0.0
 30
0.0
210
0.0
220
0.0
230
1.0
  2
SOLID
 70
1
 71
1
 91
1
 92
1
 93
11
 72
1
 10
150.8736290235
 20
30.7096125201
 11
150.9314414683
 21
30.8064040715
 72
1
 10
150.9314414683
 20
30.8064040715
 11
151.2205040235
 21
30.8064040715
 72
1
 10
151.2205040235
 20
30.8064040715
 11
151.1626914132
 21
30.6773483748
 72
1
 10
151.1626914132
 20
30.6773483748
 11
150.9892539132
 21
30.5805584977
 72
1
 10
150.9892539132
 20
30.5805584977
 11
150.7580039683
 21
30.5160298911
 72
1
 10
150.7580039683
 20
30.5160298911
 11
150.3533164408
 21
30.4837671043
 72
1
 10
150.3533164408
 20
30.4837671043
 11
150.0064414821
 21
30.5160298911
 72
1
 10
150.0064414821
 20
30.5160298911
 11
149.8330039821
 21
30.5482941944
 72
1
 10
149.8330039821
 20
30.5482941944
 11
150.2955039959
 21
30.6128212846
 72
1
 10
150.2955039959
 20
30.6128212846
 11
150.7001914408
 21
30.6450855879
 72
1
 10
150.7001914408
 20
30.6450855879
 11
150.8736290235
 21
30.7096125201
 97
1
330
318
 75
0
 76
1
 98
1
 10
0.0
 20
0.0
  0
LWPOLYLINE
  5
31A
100
AcDbEntity
  8
0
100
AcDbPolyline
 62
7
  6
CONTINUOUS
 90
6
 70
0
 10
154.1111290786
 20
30.6773483748
 10
154.3423788581
 20
30.6128212846
 10
153.9955038581
 20
30.5482941944
 10
153.8220663581
 20
30.6450855879
 10
154.0533164683
 20
30.7418754649
 10
154.1111290786
 20
30.6773483748
  0
HATCH
  5
31B
100
AcDbEntity
  8
0
100
AcDbHatch
 62
7
  6
CONTINUOUS
 10
0.0
 20
0.0
 30
0.0
210
0.0
220
0.0
230
1.0
  2
SOLID
 70
1
 71
1
 91
1
 92
1
 93
5
 72
1
 10
154.1111290786
 20
30.6773483748
 11
154.3423788581
 21
30.6128212846
 72
1
 10
154.3423788581
 20
30.6128212846
 11
153.9955038581
 21
30.5482941944
 72
1
 10
153.9955038581
 20
30.5482941944
 11
153.8220663581
 21
30.6450855879
 72
1
 10
153.8220663581
 20
30.6450855879
 11
154.0533164683
 21
30.7418754649
 72
1
 10
154.0533164683
 20
30.7418754649
 11
154.1111290786
 21
30.6773483748
 97
1
330
31A
 75
0
 76
1
 98
1
 10
0.0
 20
0.0
  0
LWPOLYLINE
  5
31C
100
AcDbEntity
  8
0
100
AcDbPolyline
 62
7
  6
CONTINUOUS
 90
11
 70
0
 10
154.6892538581
 20
30.6128212846
 10
154.9783162478
 20
30.6773483748
 10
155.2095666889
 20
30.6450855879
 10
155.1517537478
 20
30.5805584977
 10
154.9783162478
 20
30.5160298911
 10
154.6892538581
 20
30.4837671043
 10
154.3423788581
 20
30.4837671043
 10
154.1111290786
 20
30.5160298911
 10
153.9955038581
 20
30.5482941944
 10
154.3423788581
 20
30.6128212846
 10
154.6892538581
 20
30.6128212846
  0
HATCH
  5
31D
100
AcDbEntity
  8
0
100
AcDbHatch
 62
7
  6
CONTINUOUS
 10
0.0
 20
0.0
 30
0.0
210
0.0
220
0.0
230
1.0
  2
SOLID
 70
1
 71
1
 91
1
 92
1
 93
10
 72
1
 10
154.6892538581
 20
30.6128212846
 11
154.9783162478
 21
30.6773483748
 72
1
 10
154.9783162478
 20
30.6773483748
 11
155.2095666889
 21
30.6450855879
 72
1
 10
155.2095666889
 20
30.6450855879
 11
155.1517537478
 21
30.5805584977
 72
1
 10
155.1517537478
 20
30.5805584977
 11
154.9783162478
 21
30.5160298911
 72
1
 10
154.9783162478
 20
30.5160298911
 11
154.6892538581
 21
30.4837671043
 72
1
 10
154.6892538581
 20
30.4837671043
 11
154.3423788581
 21
30.4837671043
 72
1
 10
154.3423788581
 20
30.4837671043
 11
154.1111290786
 21
30.5160298911
 72
1
 10
154.1111290786
 20
30.5160298911
 11
153.9955038581
 21
30.5482941944
 72
1
 10
153.9955038581
 20
30.5482941944
 11
154.3423788581
 21
30.6128212846
 72
1
 10
154.3423788581
 20
30.6128212846
 11
154.6892538581
 21
30.6128212846
 97
1
330
31C
 75
0
 76
1
 98
1
 10
0.0
 20
0.0
  0
LWPOLYLINE
  5
31E
100
AcDbEntity
  8
0
100
AcDbPolyline
 62
7
  6
CONTINUOUS
 90
7
 70
0
 10
159.3720666889
 20
30.6450855879
 10
159.7189416889
 20
30.6128212846
 10
159.0251916889
 20
30.6128212846
 10
158.9095664683
 20
30.7418754649
 10
159.1986291889
 20
30.7418754649
 10
159.2564414683
 20
30.6773483748
 10
159.3720666889
 20
30.6450855879
  0
HATCH
  5
31F
100
AcDbEntity
  8
0
100
AcDbHatch
 62
7
  6
CONTINUOUS
 10
0.0
 20
0.0
 30
0.0
210
0.0
220
0.0
230
1.0
  2
SOLID
 70
1
 71
1
 91
1
 92
1
 93
6
 72
1
 10
159.3720666889
 20
30.6450855879
 11
159.7189416889
 21
30.6128212846
 72
1
 10
159.7189416889
 20
30.6128212846
 11
159.0251916889
 21
30.6128212846
 72
1
 10
159.0251916889
 20
30.6128212846
 11
158.9095664683
 21
30.7418754649
 72
1
 10
158.9095664683
 20
30.7418754649
 11
159.1986291889
 21
30.7418754649
 72
1
 10
159.1986291889
 20
30.7418754649
 11
159.2564414683
 21
30.6773483748
 72
1
 10
159.2564414683
 20
30.6773483748
 11
159.3720666889
 21
30.6450855879
 97
1
330
31E
 75
0
 76
1
 98
1
 10
0.0
 20
0.0
  0
SOLID
  5
320
100
AcDbEntity
  8
0
100
AcDbTrace
 62
7
  6
CONTINUOUS
 10
156.0767541889
 20
30.4837671043
 11
156.0767541889
 21
31.5162050961
 12
156.3658162478
 22
30.4837671043
 13
156.3658162478
 23
31.5162050961
  0
ENDBLK
  5
321
100
AcDbEntity
  8
0
  6
BYBLOCK
 62
0
100
AcDbBlockEnd
  0
BLOCK
  5
322
100
AcDbEntity
  8
0
100
AcDbBlockBegin
 62
2
  6
CONTINUOUS
  2
AMMEAAL_LOGO_BL0
 70
64
 10
31.7740840678
 20
19.9150776578
  3
AMMEAAL_LOGO_BL0
  1

  0
TEXT
  5
323
100
AcDbEntity
  8
0
100
AcDbText
 62
7
  6
CONTINUOUS
 10
18.0387879101
 20
19.2884917655
  7
TEXTSTYLE_3
 40
2.7338706658
  1
Ammeraal Beltech
 41
1.0
 51
15.0
 72
0
100
AcDbText
  0
TEXT
  5
324
100
AcDbEntity
  8
0
100
AcDbText
 62
7
  6
CONTINUOUS
 10
28.8395887358
 20
17.0149550926
  7
TEXTSTYLE_4
 40
1.0935482663
  1
Innovation & Service in Belting
 41
1.0
 72
0
100
AcDbText
  0
LINE
  5
325
100
AcDbEntity
  8
0
100
AcDbLine
 62
7
  6
CONTINUOUS
 10
12.0142472588
 20
20.055085074
 11
12.7923992521
 21
23.7160023717
  0
LINE
  5
326
100
AcDbEntity
  8
0
100
AcDbLine
 62
7
  6
CONTINUOUS
 10
22.8875675419
 20
27.3793962833
 11
13.2802169951
 21
24.257778862
  0
LINE
  5
327
100
AcDbEntity
  8
0
100
AcDbLine
 62
7
  6
CONTINUOUS
 10
12.2395305911
 20
19.361734271
 11
19.7466058522
 21
12.602333345
  0
LINE
  5
328
100
AcDbEntity
  8
0
100
AcDbLine
 62
7
  6
CONTINUOUS
 10
12.5020650018
 20
20.5968615644
 11
23.310334367
 21
24.1086811633
  0
LINE
  5
329
100
AcDbEntity
  8
0
100
AcDbLine
 62
7
  6
CONTINUOUS
 10
23.3061292298
 20
13.7588925996
 11
14.860669561
 21
21.3632186413
  0
LINE
  5
32A
100
AcDbEntity
  8
0
100
AcDbLine
 62
7
  6
CONTINUOUS
 10
23.8259519496
 20
26.5344711676
 11
22.8493924124
 21
21.9401197651
  0
LINE
  5
32B
100
AcDbEntity
  8
0
100
AcDbLine
 62
7
  6
CONTINUOUS
 10
22.1495904647
 20
18.6478104513
 11
21.4631422532
 21
15.4183255269
  0
LINE
  5
32C
100
AcDbEntity
  8
0
100
AcDbLine
 62
7
  6
CONTINUOUS
 10
24.5070480481
 20
14.1490947773
 11
25.4632795838
 21
18.6478104513
  0
LINE
  5
32D
100
AcDbEntity
  8
0
100
AcDbLine
 62
7
  6
CONTINUOUS
 10
26.1630815315
 20
21.9401197651
 11
26.6073233338
 21
24.0301131245
  0
LINE
  5
32E
100
AcDbEntity
  8
0
100
AcDbLine
 62
7
  6
CONTINUOUS
 10
20.4597069275
 20
12.4507590323
 11
24.0192303051
 21
13.6073182869
  0
LINE
  5
32F
100
AcDbEntity
  8
0
100
AcDbLine
 62
7
  6
CONTINUOUS
 10
23.6006686173
 20
27.2278219706
 11
26.3820400015
 21
24.7234639276
  0
ARC
  5
330
100
AcDbEntity
  8
0
100
AcDbCircle
 62
7
  6
CONTINUOUS
 10
13.5055003274
 20
23.564428059
 40
0.7290321776
100
AcDbArc
 50
108.0
 51
168.0
  0
ARC
  5
331
100
AcDbEntity
  8
0
100
AcDbCircle
 62
7
  6
CONTINUOUS
 10
23.1128508743
 20
26.6860454803
 40
0.7290321776
100
AcDbArc
 50
348.0
 51
108.0
  0
ARC
  5
332
100
AcDbEntity
  8
0
100
AcDbCircle
 62
7
  6
CONTINUOUS
 10
25.8942222585
 20
24.1816874372
 40
0.7290321776
100
AcDbArc
 50
348.0
 51
48.0
  0
ARC
  5
333
100
AcDbEntity
  8
0
100
AcDbCircle
 62
7
  6
CONTINUOUS
 10
20.2344235952
 20
13.1441098354
 40
0.7290321776
100
AcDbArc
 50
228.0
 51
288.0
  0
ARC
  5
334
100
AcDbEntity
  8
0
100
AcDbCircle
 62
7
  6
CONTINUOUS
 10
12.7273483341
 20
19.9035107613
 40
0.7290321776
100
AcDbArc
 50
108.0
 51
228.0
  0
ARC
  5
335
100
AcDbEntity
  8
0
100
AcDbCircle
 62
7
  6
CONTINUOUS
 10
23.7939469728
 20
14.30066909
 40
0.7290321776
100
AcDbArc
 50
228.0
 51
348.0
  0
ENDBLK
  5
336
100
AcDbEntity
  8
0
  6
BYBLOCK
 62
0
100
AcDbBlockEnd
  0
BLOCK
  5
337
100
AcDbEntity
  8
0
100
AcDbBlockBegin
  2
*T1
 70
1
 10
0.0
 20
0.0
  3
*T1
  1

  0
LINE
  5
338
100
AcDbEntity
  8
0
100
AcDbLine
 62
2
  6
CONTINUOUS
 10
0.0
 20
0.0
 11
190.0
 21
0.0
  0
LINE
  5
339
100
AcDbEntity
  8
0
100
AcDbLine
 62
2
  6
CONTINUOUS
 10
0.0
 20
0.0
 11
0.0
 21
-20.0
  0
LINE
  5
33A
100
AcDbEntity
  8
0
100
AcDbLine
 62
2
  6
CONTINUOUS
 10
0.0
 20
-20.0
 11
190.0
 21
-20.0
  0
LINE
  5
33B
100
AcDbEntity
  8
0
100
AcDbLine
 62
2
  6
CONTINUOUS
 10
85.0
 20
0.0
 11
85.0
 21
-20.0
  0
LINE
  5
33C
100
AcDbEntity
  8
0
100
AcDbLine
 62
2
  6
CONTINUOUS
 10
105.0
 20
0.0
 11
105.0
 21
-20.0
  0
LINE
  5
33D
100
AcDbEntity
  8
0
100
AcDbLine
 62
2
  6
CONTINUOUS
 10
190.0
 20
0.0
 11
190.0
 21
-20.0
  0
MTEXT
  5
33E
100
AcDbEntity
  8
0
100
AcDbMText
 62
5
  6
CONTINUOUS
  7
TEXTSTYLE_5
 71
1
 72
1
 10
3.0
 20
-5.177
 30
0.0
 11
1.0
 21
0.0
 31
0.0
 44
1.08
  3
                                                                     Ammeraal Beltech Modular A/S\P\H1.5;                                                                      Hjulmagervej 21,  7100 Vejle,  DK\P\H1.495;                                
  1
                                      tel: \H1.51;+45 75723100     fax: +45 75723348\P\H1.5;                                                                      admin@unichains.dk  www.unichains.com
 40
1.52
 41
161.0496183206
  0
MTEXT
  5
33F
100
AcDbEntity
  8
0
100
AcDbMText
 62
5
  6
CONTINUOUS
  7
TEXTSTYLE_6
 71
2
 72
1
 10
95.0
 20
-11.25
 30
0.0
 11
1.0
 21
0.0
 31
0.0
 44
0.9
  1
1:1
 40
5.0
 41
21.0
  0
MTEXT
  5
340
100
AcDbEntity
  8
0
100
AcDbMText
 62
5
  6
CONTINUOUS
  7
TEXTSTYLE_7
 71
1
 72
1
 10
108.0
 20
-8.75
 30
0.0
 11
1.0
 21
0.0
 31
0.0
 44
0.9
  1
uni 1701 TAB
 40
7.5
 41
112.75
  0
ENDBLK
  5
341
100
AcDbEntity
  8
0
  6
BYBLOCK
 62
0
100
AcDbBlockEnd
  0
ENDSEC
  0
SECTION
  2
ENTITIES
  0
MTEXT
  5
342
100
AcDbEntity
  8
0
100
AcDbMText
 62
5
  6
CONTINUOUS
  7
TEXTSTYLE_2
 71
1
 72
1
 10
96.0
 20
28.436
 30
0.0
 11
1.0
 21
0.0
 31
0.0
 44
0.9
  1
\Q0.000019;Scale :
 40
2.8
 41
11.76
  0
MTEXT
  5
343
100
AcDbEntity
  8
0
100
AcDbMText
 62
5
  6
CONTINUOUS
  7
TEXTSTYLE_2
 71
1
 72
1
 10
116.0
 20
28.436
 30
0.0
 11
1.0
 21
0.0
 31
0.0
 44
0.9
  1
\Q0.000019;Chain type:
 40
2.8
 41
18.48
  0
INSERT
  5
344
100
AcDbEntity
  8
0
100
AcDbBlockReference
 62
2
  6
CONTINUOUS
  2
AMMEAAL_LOGO_BL0
 10
31.7740840678
 20
19.9150776578
  0
INSERT
  5
345
100
AcDbEntity
  8
0
100
AcDbBlockReference
 62
2
  6
CONTINUOUS
  2
UNI_LOGO2_BL1
 10
173.3924355793
 20
35.4837666925
  0
ACAD_TABLE
  5
346
100
AcDbEntity
  8
0
 62
2
  6
CONTINUOUS
100
AcDbBlockReference
  2
*T1
 10
10.0
 20
30.0
 30
0.0
100
AcDbTable
342
       7D7
343
215
 11
1.0
 21
0.0
 31
0.0
 90
22
 91
1
 92
3
 93
0
 94
0
 95
0
 96
0
141
20.0
142
85.0
142
20.0
142
85.0
171
1
172
0
173
0
174
0
175
1
176
1
 91
57
178
0
145
0.0
  7
TEXTSTYLE_5
301
CELL_VALUE
 90
4
  2
                                                                     Ammeraal Beltech Modular A/S\P\H1.5;                                                                      Hjulmagervej 21,  7100 Vejle,  DK\P\H1.495;                                
  1
                                      tel: \H1.51;+45 75723100     fax: +45 75723348\P\H1.5;                                                                      admin@unichains.dk  www.unichains.com
304
ACVALUE_END
170
4
140
1.52
 64
5
171
1
172
0
173
0
174
0
175
1
176
1
 91
57
178
0
145
0.0
  7
TEXTSTYLE_6
301
CELL_VALUE
 90
4
  1
1:1
304
ACVALUE_END
170
8
140
5.0
 64
5
171
1
172
0
173
0
174
0
175
1
176
1
 91
57
178
0
145
0.0
  7
TEXTSTYLE_7
301
CELL_VALUE
 90
4
  1
uni 1701 TAB
304
ACVALUE_END
170
7
140
7.5
 64
5
  0
LINE
  5
347
100
AcDbEntity
  8
0
100
AcDbLine
 62
7
  6
CONTINUOUS
 10
210.0
 20
0.0
 11
0.0
 21
0.0
  0
LINE
  5
348
100
AcDbEntity
  8
0
100
AcDbLine
 62
7
  6
CONTINUOUS
 10
10.0
 20
10.0
 11
200.0
 21
10.0
  0
LINE
  5
349
100
AcDbEntity
  8
0
100
AcDbLine
 62
7
  6
CONTINUOUS
 10
10.0
 20
30.0
 11
200.0
 21
30.0
  0
LINE
  5
34A
100
AcDbEntity
  8
0
100
AcDbLine
 62
7
  6
CONTINUOUS
 10
0.0
 20
0.0
 11
0.0
 21
297.0
  0
LINE
  5
34B
100
AcDbEntity
  8
0
100
AcDbLine
 62
7
  6
CONTINUOUS
 10
10.0
 20
10.0
 11
10.0
 21
287.0
  0
LINE
  5
34C
100
AcDbEntity
  8
0
100
AcDbLine
 62
7
  6
CONTINUOUS
 10
200.0
 20
287.0
 11
200.0
 21
10.0
  0
LINE
  5
34D
100
AcDbEntity
  8
0
100
AcDbLine
 62
7
  6
CONTINUOUS
 10
210.0
 20
0.0
 11
210.0
 21
297.0
  0
LINE
  5
34E
100
AcDbEntity
  8
0
100
AcDbLine
 62
7
  6
CONTINUOUS
 10
10.0
 20
287.0
 11
200.0
 21
287.0
  0
LINE
  5
34F
100
AcDbEntity
  8
0
100
AcDbLine
 62
7
  6
CONTINUOUS
 10
0.0
 20
297.0
 11
210.0
 21
297.0
  0
LINE
  5
350
100
AcDbEntity
  8
2_FEATURE
100
AcDbLine
 62
7
  6
CONTINUOUS
 10
38.5220930233
 20
134.1204722762
 11
38.5220930233
 21
140.2337209302
  0
LINE
  5
351
100
AcDbEntity
  8
0
100
AcDbLine
 62
7
  6
CONTINUOUS
 10
47.8716706475
 20
127.759023169
 11
47.6979058492
 21
127.658700016
  0
LINE
  5
352
100
AcDbEntity
  8
0
100
AcDbLine
 62
7
  6
CONTINUOUS
 10
48.2374437104
 20
126.9887068877
 11
48.0636789121
 21
126.8883837347
  0
LINE
  5
353
100
AcDbEntity
  8
0
100
AcDbLine
 62
7
  6
CONTINUOUS
 10
48.7323131484
 20
125.9465142719
 11
48.5585483501
 21
125.8461911188
  0
LINE
  5
354
100
AcDbEntity
  8
0
100
AcDbLine
 62
7
  6
CONTINUOUS
 10
49.0980862113
 20
125.1761979906
 11
48.924321413
 21
125.0758748375
  0
LINE
  5
355
100
AcDbEntity
  8
0
100
AcDbLine
 62
7
  6
CONTINUOUS
 10
49.1008900232
 20
125.1702931764
 11
48.9271252249
 21
125.0699700234
  0
LINE
  5
356
100
AcDbEntity
  8
0
100
AcDbLine
 62
7
  6
CONTINUOUS
 10
49.1841504614
 20
124.9949471008
 11
49.0103856631
 21
124.8946239478
  0
LINE
  5
357
100
AcDbEntity
  8
0
100
AcDbLine
 62
7
  6
CONTINUOUS
 10
49.5499235243
 20
124.2246308195
 11
49.376158726
 21
124.1243076665
  0
LINE
  5
358
100
AcDbEntity
  8
0
100
AcDbLine
 62
7
  6
CONTINUOUS
 10
45.2720930233
 20
154.7337117507
 11
45.2720930233
 21
133.9098001292
  0
LINE
  5
359
100
AcDbEntity
  8
0
100
AcDbLine
 62
7
  6
CONTINUOUS
 10
50.1308572124
 20
123.0011873139
 11
49.9570924141
 21
122.9008641609
  0
LINE
  5
35A
100
AcDbEntity
  8
0
100
AcDbLine
 62
7
  6
CONTINUOUS
 10
51.2281764011
 20
120.69023847
 11
51.0544116028
 21
120.589915317
  0
LINE
  5
35B
100
AcDbEntity
  8
0
100
AcDbLine
 62
7
  6
CONTINUOUS
 10
53.5720930233
 20
148.7337209302
 11
53.5720930233
 21
140.0676955265
  0
LINE
  5
35C
100
AcDbEntity
  8
0
100
AcDbLine
 62
7
  6
CONTINUOUS
 10
51.0544116028
 20
120.589915317
 11
47.6979058492
 21
127.658700016
  0
LINE
  5
35D
100
AcDbEntity
  8
0
100
AcDbLine
 62
7
  6
CONTINUOUS
 10
45.5620871447
 20
132.622994729
 11
57.2151678113
 21
108.0816638447
  0
LINE
  5
35E
100
AcDbEntity
  8
DEFAULT_1
100
AcDbLine
 62
2
  6
CENTER
 10
36.5220930233
 20
93.3487209302
 11
107.2220930233
 21
93.3487209302
  0
LINE
  5
35F
100
AcDbEntity
  8
0
100
AcDbLine
 62
7
  6
CONTINUOUS
 10
94.965010979
 20
125.3117918509
 11
102.7220930233
 21
129.7903452573
  0
LINE
  5
360
100
AcDbEntity
  8
DEFAULT_1
100
AcDbLine
 62
2
  6
CENTER
 10
71.8720930233
 20
158.9645446188
 11
71.8720930233
 21
70.424265549
  0
LINE
  5
361
100
AcDbEntity
  8
0
100
AcDbLine
 62
7
  6
CONTINUOUS
 10
89.1926010989
 20
138.2371911517
 11
90.1051057251
 21
139.8176955265
  0
LINE
  5
362
100
AcDbEntity
  8
0
100
AcDbLine
 62
7
  6
CONTINUOUS
 10
54.5515849476
 20
138.2371911517
 11
53.6390803214
 21
139.8176955265
  0
LINE
  5
363
100
AcDbEntity
  8
0
100
AcDbLine
 62
7
  6
CONTINUOUS
 10
48.7791750675
 20
125.3117918509
 11
41.0220930233
 21
129.7903452573
  0
LINE
  5
364
100
AcDbEntity
  8
2_FEATURE
100
AcDbLine
 62
7
  6
CONTINUOUS
 10
48.7791750675
 20
125.3117918509
 11
41.0220930233
 21
129.7903452573
  0
LINE
  5
365
100
AcDbEntity
  8
0
100
AcDbLine
 62
7
  6
CONTINUOUS
 10
98.1820989018
 20
132.622994729
 11
86.5290182352
 21
108.0816638447
  0
LINE
  5
366
100
AcDbEntity
  8
0
100
AcDbLine
 62
7
  6
CONTINUOUS
 10
96.8188094244
 20
129.2856427895
 11
96.212261251
 21
128.0082553033
  0
LINE
  5
367
100
AcDbEntity
  8
0
100
AcDbLine
 62
7
  6
CONTINUOUS
 10
96.0811158521
 20
127.7320637347
 11
95.4253881073
 21
126.3511043116
  0
LINE
  5
368
100
AcDbEntity
  8
0
100
AcDbLine
 62
7
  6
CONTINUOUS
 10
95.2942427085
 20
126.074912743
 11
94.6713014072
 21
124.7630014096
  0
LINE
  5
369
100
AcDbEntity
  8
0
100
AcDbLine
 62
7
  6
CONTINUOUS
 10
93.753282677
 20
122.8296584542
 11
93.5565643911
 21
122.4153707063
  0
LINE
  5
36A
100
AcDbEntity
  8
0
100
AcDbLine
 62
7
  6
CONTINUOUS
 10
93.4254188046
 20
122.1391787426
 11
92.8352640406
 21
120.8963156964
  0
LINE
  5
36B
100
AcDbEntity
  8
0
100
AcDbLine
 62
7
  6
CONTINUOUS
 10
92.7041184542
 20
120.6201237327
 11
92.1139636198
 21
119.3772605383
  0
LINE
  5
36C
100
AcDbEntity
  8
0
100
AcDbLine
 62
7
  6
CONTINUOUS
 10
91.9828181037
 20
119.1010687228
 11
91.7860998178
 21
118.6867809749
  0
LINE
  5
36D
100
AcDbEntity
  8
DEFAULT_1
100
AcDbLine
 62
2
  6
CENTER
 10
66.9731873696
 20
115.4837209302
 11
76.7993770626
 21
115.4837209302
  0
LINE
  5
36E
100
AcDbEntity
  8
0
100
AcDbLine
 62
7
  6
CONTINUOUS
 10
90.1720930233
 20
148.7337209302
 11
90.1720930233
 21
140.0676955265
  0
LINE
  5
36F
100
AcDbEntity
  8
0
100
AcDbLine
 62
7
  6
CONTINUOUS
 10
91.6123350195
 20
118.787104128
 11
91.7860998178
 21
118.6867809749
  0
LINE
  5
370
100
AcDbEntity
  8
0
100
AcDbLine
 62
7
  6
CONTINUOUS
 10
91.7106941625
 20
118.994248002
 11
91.8844589607
 21
118.8939248489
  0
LINE
  5
371
100
AcDbEntity
  8
0
100
AcDbLine
 62
7
  6
CONTINUOUS
 10
91.8090533054
 20
119.2013918759
 11
91.9828181037
 21
119.1010687228
  0
LINE
  5
372
100
AcDbEntity
  8
0
100
AcDbLine
 62
7
  6
CONTINUOUS
 10
91.9401988215
 20
119.4775836914
 11
92.1139636198
 21
119.3772605383
  0
LINE
  5
373
100
AcDbEntity
  8
0
100
AcDbLine
 62
7
  6
CONTINUOUS
 10
92.5303536559
 20
120.7204468858
 11
92.7041184542
 21
120.6201237327
  0
LINE
  5
374
100
AcDbEntity
  8
0
100
AcDbLine
 62
7
  6
CONTINUOUS
 10
92.6614992423
 20
120.9966388495
 11
92.8352640406
 21
120.8963156964
  0
LINE
  5
375
100
AcDbEntity
  8
0
100
AcDbLine
 62
7
  6
CONTINUOUS
 10
92.6778923703
 20
121.0311626967
 11
92.8516571686
 21
120.9308395437
  0
LINE
  5
376
100
AcDbEntity
  8
0
100
AcDbLine
 62
7
  6
CONTINUOUS
 10
92.6942855921
 20
121.0656867416
 11
92.8680503904
 21
120.9653635885
  0
LINE
  5
377
100
AcDbEntity
  8
0
100
AcDbLine
 62
7
  6
CONTINUOUS
 10
92.7270719418
 20
121.1347346337
 11
92.9008367401
 21
121.0344114807
  0
LINE
  5
378
100
AcDbEntity
  8
0
100
AcDbLine
 62
7
  6
CONTINUOUS
 10
92.7762515133
 20
121.2383065707
 11
92.9500163116
 21
121.1379834176
  0
LINE
  5
379
100
AcDbEntity
  8
0
100
AcDbLine
 62
7
  6
CONTINUOUS
 10
92.8582175283
 20
121.4109265974
 11
93.0319823266
 21
121.3106034443
  0
LINE
  5
37A
100
AcDbEntity
  8
0
100
AcDbLine
 62
7
  6
CONTINUOUS
 10
98.4720930233
 20
154.7337117507
 11
98.4720930233
 21
133.9098001292
  0
LINE
  5
37B
100
AcDbEntity
  8
0
100
AcDbLine
 62
7
  6
CONTINUOUS
 10
92.9565766712
 20
121.6180704713
 11
93.1303414695
 21
121.5177473183
  0
LINE
  5
37C
100
AcDbEntity
  8
0
100
AcDbLine
 62
7
  6
CONTINUOUS
 10
93.0549358142
 20
121.8252143453
 11
93.2287006125
 21
121.7248911922
  0
LINE
  5
37D
100
AcDbEntity
  8
0
100
AcDbLine
 62
7
  6
CONTINUOUS
 10
93.1369017354
 20
121.9978341744
 11
93.3106665337
 21
121.8975110214
  0
LINE
  5
37E
100
AcDbEntity
  8
0
100
AcDbLine
 62
7
  6
CONTINUOUS
 10
93.1860813069
 20
122.1014061114
 11
93.3598461052
 21
122.0010829583
  0
LINE
  5
37F
100
AcDbEntity
  8
0
100
AcDbLine
 62
7
  6
CONTINUOUS
 10
93.2188677504
 20
122.1704542011
 11
93.3926325487
 21
122.070131048
  0
LINE
  5
380
100
AcDbEntity
  8
0
100
AcDbLine
 62
7
  6
CONTINUOUS
 10
93.2352608783
 20
122.2049780484
 11
93.4090256766
 21
122.1046548953
  0
LINE
  5
381
100
AcDbEntity
  8
0
100
AcDbLine
 62
7
  6
CONTINUOUS
 10
93.2516540063
 20
122.2395018957
 11
93.4254188046
 21
122.1391787426
  0
LINE
  5
382
100
AcDbEntity
  8
0
100
AcDbLine
 62
7
  6
CONTINUOUS
 10
93.3827995928
 20
122.5156938593
 11
93.5565643911
 21
122.4153707063
  0
LINE
  5
383
100
AcDbEntity
  8
0
100
AcDbLine
 62
7
  6
CONTINUOUS
 10
93.4811587357
 20
122.7228377333
 11
93.654923534
 21
122.6225145802
  0
LINE
  5
384
100
AcDbEntity
  8
0
100
AcDbLine
 62
7
  6
CONTINUOUS
 10
93.5795178787
 20
122.9299816073
 11
93.753282677
 21
122.8296584542
  0
LINE
  5
385
100
AcDbEntity
  8
0
100
AcDbLine
 62
7
  6
CONTINUOUS
 10
94.4975366089
 20
124.8633245626
 11
94.6713014072
 21
124.7630014096
  0
LINE
  5
386
100
AcDbEntity
  8
0
100
AcDbLine
 62
7
  6
CONTINUOUS
 10
95.1204779102
 20
126.1752358961
 11
95.2942427085
 21
126.074912743
  0
LINE
  5
387
100
AcDbEntity
  8
0
100
AcDbLine
 62
7
  6
CONTINUOUS
 10
95.251623309
 20
126.4514274647
 11
95.4253881073
 21
126.3511043116
  0
LINE
  5
388
100
AcDbEntity
  8
0
100
AcDbLine
 62
7
  6
CONTINUOUS
 10
95.513914482
 20
127.003811392
 11
95.6876792803
 21
126.9034882389
  0
LINE
  5
389
100
AcDbEntity
  8
0
100
AcDbLine
 62
7
  6
CONTINUOUS
 10
95.6450598809
 20
127.2800029605
 11
95.8188246792
 21
127.1796798074
  0
LINE
  5
38A
100
AcDbEntity
  8
0
100
AcDbLine
 62
7
  6
CONTINUOUS
 10
95.9073510539
 20
127.8323868878
 11
96.0811158521
 21
127.7320637347
  0
LINE
  5
38B
100
AcDbEntity
  8
0
100
AcDbLine
 62
7
  6
CONTINUOUS
 10
96.0384964527
 20
128.1085784564
 11
96.212261251
 21
128.0082553033
  0
LINE
  5
38C
100
AcDbEntity
  8
0
100
AcDbLine
 62
7
  6
CONTINUOUS
 10
105.2220930233
 20
134.1204722762
 11
105.2220930233
 21
140.2337209302
  0
LINE
  5
38D
100
AcDbEntity
  8
0
100
AcDbLine
 62
7
  6
CONTINUOUS
 10
96.4319330246
 20
128.9371539522
 11
96.6056978229
 21
128.8368307991
  0
LINE
  5
38E
100
AcDbEntity
  8
0
100
AcDbLine
 62
7
  6
CONTINUOUS
 10
96.513898852
 20
129.1097735838
 11
96.6876636503
 21
129.0094504307
  0
LINE
  5
38F
100
AcDbEntity
  8
0
100
AcDbLine
 62
7
  6
CONTINUOUS
 10
96.579471739
 20
129.2478697632
 11
96.7532365373
 21
129.1475466101
  0
LINE
  5
390
100
AcDbEntity
  8
0
100
AcDbLine
 62
7
  6
CONTINUOUS
 10
96.6286513105
 20
129.3514417001
 11
96.8024161088
 21
129.2511185471
  0
LINE
  5
391
100
AcDbEntity
  8
0
100
AcDbLine
 62
7
  6
CONTINUOUS
 10
96.6450446261
 20
129.3859659425
 11
96.8188094244
 21
129.2856427895
  0
LINE
  5
392
100
AcDbEntity
  8
0
100
AcDbLine
 62
7
  6
CONTINUOUS
 10
103.2220930233
 20
142.2337209302
 11
99.7720930233
 21
142.2337209302
  0
LINE
  5
393
100
AcDbEntity
  8
2_FEATURE
100
AcDbLine
 62
7
  6
CONTINUOUS
 10
40.5220930233
 20
142.2337209302
 11
43.9720930233
 21
142.2337209302
  0
LINE
  5
394
100
AcDbEntity
  8
1_AXIS
100
AcDbLine
 62
2
  6
CENTER
 10
34.9983718251
 20
143.2337209302
 11
108.3453485693
 21
143.2337209302
  0
LINE
  5
395
100
AcDbEntity
  8
0
100
AcDbLine
 62
7
  6
CONTINUOUS
 10
46.2720930233
 20
155.7337209302
 11
46.5720930233
 21
155.7337209302
  0
LINE
  5
396
100
AcDbEntity
  8
0
100
AcDbLine
 62
7
  6
CONTINUOUS
 10
97.1720930233
 20
155.7337209302
 11
97.4720930233
 21
155.7337209302
  0
LINE
  5
397
100
AcDbEntity
  8
0
100
AcDbLine
 62
7
  6
CONTINUOUS
 10
38.5220930233
 20
216.3158392552
 11
38.5220930233
 21
212.6238372093
  0
LINE
  5
398
100
AcDbEntity
  8
2_FEATURE
100
AcDbLine
 62
7
  6
CONTINUOUS
 10
38.5220930233
 20
212.6238372093
 11
38.5220930233
 21
216.3158392552
  0
LINE
  5
399
100
AcDbEntity
  8
0
100
AcDbLine
 62
7
  6
CONTINUOUS
 10
45.2720930233
 20
235.6238372093
 11
45.2720930233
 21
217.6238372093
  0
LINE
  5
39A
100
AcDbEntity
  8
0
100
AcDbLine
 62
7
  6
CONTINUOUS
 10
47.7130813975
 20
222.4568159362
 11
47.6979058492
 21
222.3387308164
  0
LINE
  5
39B
100
AcDbEntity
  8
0
100
AcDbLine
 62
7
  6
CONTINUOUS
 10
47.7737835867
 20
222.3584116651
 11
47.7889591363
 21
222.4371350875
  0
LINE
  5
39C
100
AcDbEntity
  8
0
100
AcDbLine
 62
7
  6
CONTINUOUS
 10
47.947548385
 20
222.3584116651
 11
47.9627239346
 21
222.4371350875
  0
LINE
  5
39D
100
AcDbEntity
  8
0
100
AcDbLine
 62
7
  6
CONTINUOUS
 10
48.1683478181
 20
222.1419223154
 11
48.1835233948
 21
222.220645724
  0
LINE
  5
39E
100
AcDbEntity
  8
0
100
AcDbLine
 62
7
  6
CONTINUOUS
 10
48.1076456411
 20
222.220645724
 11
48.0924701078
 21
222.1616031641
  0
LINE
  5
39F
100
AcDbEntity
  8
0
100
AcDbLine
 62
7
  6
CONTINUOUS
 10
48.9271252249
 20
222.220645724
 11
48.9423008017
 21
222.2796882702
  0
LINE
  5
3A0
100
AcDbEntity
  8
0
100
AcDbLine
 62
7
  6
CONTINUOUS
 10
49.1008900232
 20
222.220645724
 11
49.1160656
 21
222.2796882702
  0
LINE
  5
3A1
100
AcDbEntity
  8
0
100
AcDbLine
 62
7
  6
CONTINUOUS
 10
47.7434324928
 20
222.5355393311
 11
47.7130813975
 21
222.4568159362
  0
LINE
  5
3A2
100
AcDbEntity
  8
0
100
AcDbLine
 62
7
  6
CONTINUOUS
 10
47.7889591363
 20
222.4371350875
 11
47.8041346806
 21
222.4764967849
  0
LINE
  5
3A3
100
AcDbEntity
  8
0
100
AcDbLine
 62
7
  6
CONTINUOUS
 10
47.9627239346
 20
222.4371350875
 11
47.9778994788
 21
222.4764967849
  0
LINE
  5
3A4
100
AcDbEntity
  8
0
100
AcDbLine
 62
7
  6
CONTINUOUS
 10
48.8664230046
 20
222.5749010285
 11
48.8512475146
 21
222.5355393311
  0
LINE
  5
3A5
100
AcDbEntity
  8
0
100
AcDbLine
 62
7
  6
CONTINUOUS
 10
48.9271252249
 20
222.4961776337
 11
48.9423008017
 21
222.5355393311
  0
LINE
  5
3A6
100
AcDbEntity
  8
0
100
AcDbLine
 62
7
  6
CONTINUOUS
 10
48.8815985814
 20
222.3387308164
 11
48.8512475146
 21
222.2600074215
  0
LINE
  5
3A7
100
AcDbEntity
  8
0
100
AcDbLine
 62
7
  6
CONTINUOUS
 10
49.1008900232
 20
222.4961776337
 11
49.1160656
 21
222.5355393311
  0
LINE
  5
3A8
100
AcDbEntity
  8
0
100
AcDbLine
 62
7
  6
CONTINUOUS
 10
49.2306362398
 20
222.2403265728
 11
49.2154605761
 21
222.2009648753
  0
LINE
  5
3A9
100
AcDbEntity
  8
0
100
AcDbLine
 62
7
  6
CONTINUOUS
 10
49.2154605761
 20
222.0828797623
 11
49.2306362398
 21
222.1222414667
  0
LWPOLYLINE
  5
3AA
100
AcDbEntity
  8
2_FEATURE
100
AcDbPolyline
 62
7
  6
CONTINUOUS
 90
10
 70
0
 10
54.358299199
 20
234.8075910009
 10
54.2887135357
 20
234.6865007846
 10
54.1777627362
 20
234.4672632134
 10
54.0856182794
 20
234.2489010089
 10
54.0108000076
 20
234.0302251958
 10
53.952464088
 20
233.8105950087
 10
53.9100553697
 20
233.5892549353
 10
53.8833372679
 20
233.3654320029
 10
53.8723714523
 20
233.1383396115
 10
53.8720933847
 20
233.0955565081
  0
LINE
  5
3AB
100
AcDbEntity
  8
0
100
AcDbLine
 62
7
  6
CONTINUOUS
 10
54.3576360136
 20
234.8064853684
 11
54.3582965655
 21
234.8075870079
  0
LINE
  5
3AC
100
AcDbEntity
  8
0
100
AcDbLine
 62
7
  6
CONTINUOUS
 10
47.7737835867
 20
222.5749010285
 11
47.7434324928
 21
222.5355393311
  0
LINE
  5
3AD
100
AcDbEntity
  8
0
100
AcDbLine
 62
7
  6
CONTINUOUS
 10
47.8041346806
 20
222.4764967849
 11
47.8496613241
 21
222.5355393311
  0
LINE
  5
3AE
100
AcDbEntity
  8
0
100
AcDbLine
 62
7
  6
CONTINUOUS
 10
47.9778994788
 20
222.4764967849
 11
48.0234261224
 21
222.5355393311
  0
LINE
  5
3AF
100
AcDbEntity
  8
0
100
AcDbLine
 62
7
  6
CONTINUOUS
 10
47.6979058492
 20
225.4238372093
 11
47.6979058492
 21
224.1238372093
  0
LINE
  5
3B0
100
AcDbEntity
  8
0
100
AcDbLine
 62
7
  6
CONTINUOUS
 10
47.7737835867
 20
222.2993691189
 11
47.7737835867
 21
222.3584116651
  0
LINE
  5
3B1
100
AcDbEntity
  8
0
100
AcDbLine
 62
7
  6
CONTINUOUS
 10
47.947548385
 20
222.2993691189
 11
47.947548385
 21
222.3584116651
  0
LINE
  5
3B2
100
AcDbEntity
  8
0
100
AcDbLine
 62
7
  6
CONTINUOUS
 10
48.0636789121
 20
224.0738372093
 11
48.0636789121
 21
225.4238372093
  0
LINE
  5
3B3
100
AcDbEntity
  8
0
100
AcDbLine
 62
7
  6
CONTINUOUS
 10
48.2374437104
 20
224.0738372093
 11
48.2374437104
 21
225.4238372093
  0
LINE
  5
3B4
100
AcDbEntity
  8
0
100
AcDbLine
 62
7
  6
CONTINUOUS
 10
48.3049277487
 20
222.9488372093
 11
48.3049277487
 21
222.0238372093
  0
LINE
  5
3B5
100
AcDbEntity
  8
0
100
AcDbLine
 62
7
  6
CONTINUOUS
 10
48.3808055024
 20
222.0238372093
 11
48.3808055024
 21
222.4764967849
  0
LINE
  5
3B6
100
AcDbEntity
  8
0
100
AcDbLine
 62
7
  6
CONTINUOUS
 10
48.3808055024
 20
222.5552201798
 11
48.3808055024
 21
222.9488372093
  0
LINE
  5
3B7
100
AcDbEntity
  8
0
100
AcDbLine
 62
7
  6
CONTINUOUS
 10
48.5545703007
 20
222.0238372093
 11
48.5545703007
 21
222.4764967849
  0
LINE
  5
3B8
100
AcDbEntity
  8
0
100
AcDbLine
 62
7
  6
CONTINUOUS
 10
48.5545703007
 20
222.6536244234
 11
48.5545703007
 21
222.9488372093
  0
LINE
  5
3B9
100
AcDbEntity
  8
0
100
AcDbLine
 62
7
  6
CONTINUOUS
 10
48.5585483501
 20
225.4238372093
 11
48.5585483501
 21
224.3238372093
  0
LINE
  5
3BA
100
AcDbEntity
  8
0
100
AcDbLine
 62
7
  6
CONTINUOUS
 10
48.5585483501
 20
223.5238372093
 11
48.5585483501
 21
223.1238372093
  0
LINE
  5
3BB
100
AcDbEntity
  8
0
100
AcDbLine
 62
7
  6
CONTINUOUS
 10
48.6539653637
 20
222.4174542388
 11
48.6539653637
 21
222.0238372093
  0
LINE
  5
3BC
100
AcDbEntity
  8
0
100
AcDbLine
 62
7
  6
CONTINUOUS
 10
48.729843074
 20
222.0238372093
 11
48.729843074
 21
222.4174542388
  0
LINE
  5
3BD
100
AcDbEntity
  8
0
100
AcDbLine
 62
7
  6
CONTINUOUS
 10
48.8512475146
 20
222.5355393311
 11
48.8512475146
 21
222.4961776337
  0
LINE
  5
3BE
100
AcDbEntity
  8
0
100
AcDbLine
 62
7
  6
CONTINUOUS
 10
48.8512475146
 20
222.2600074215
 11
48.8512475146
 21
222.2009648753
  0
LINE
  5
3BF
100
AcDbEntity
  8
0
100
AcDbLine
 62
7
  6
CONTINUOUS
 10
48.9036078722
 20
222.0238372093
 11
48.9036078722
 21
222.0740171857
  0
LINE
  5
3C0
100
AcDbEntity
  8
0
100
AcDbLine
 62
7
  6
CONTINUOUS
 10
48.9036078722
 20
222.3672742498
 11
48.9036078722
 21
222.4174542388
  0
LINE
  5
3C1
100
AcDbEntity
  8
0
100
AcDbLine
 62
7
  6
CONTINUOUS
 10
48.924321413
 20
223.1238372093
 11
48.924321413
 21
225.4238372093
  0
LINE
  5
3C2
100
AcDbEntity
  8
0
100
AcDbLine
 62
7
  6
CONTINUOUS
 10
48.9271252249
 20
222.1812840128
 11
48.9271252249
 21
222.220645724
  0
LINE
  5
3C3
100
AcDbEntity
  8
0
100
AcDbLine
 62
7
  6
CONTINUOUS
 10
49.0103856631
 20
225.4238372093
 11
49.0103856631
 21
223.1238372093
  0
LINE
  5
3C4
100
AcDbEntity
  8
0
100
AcDbLine
 62
7
  6
CONTINUOUS
 10
49.1008900232
 20
222.1812840128
 11
49.1008900232
 21
222.220645724
  0
LINE
  5
3C5
100
AcDbEntity
  8
0
100
AcDbLine
 62
7
  6
CONTINUOUS
 10
49.2306362398
 20
222.4961776337
 11
49.2306362398
 21
222.4371350875
  0
LINE
  5
3C6
100
AcDbEntity
  8
0
100
AcDbLine
 62
7
  6
CONTINUOUS
 10
49.2306362398
 20
222.3584116651
 11
49.2306362398
 21
222.2403265728
  0
LINE
  5
3C7
100
AcDbEntity
  8
0
100
AcDbLine
 62
7
  6
CONTINUOUS
 10
49.3065138632
 20
222.1812840128
 11
49.3065138632
 21
222.4961776337
  0
LINE
  5
3C8
100
AcDbEntity
  8
0
100
AcDbLine
 62
7
  6
CONTINUOUS
 10
49.376158726
 20
223.1238372093
 11
49.376158726
 21
224.2238372093
  0
LINE
  5
3C9
100
AcDbEntity
  8
0
100
AcDbLine
 62
7
  6
CONTINUOUS
 10
49.376158726
 20
225.0238372093
 11
49.376158726
 21
225.4238372093
  0
LINE
  5
3CA
100
AcDbEntity
  8
0
100
AcDbLine
 62
7
  6
CONTINUOUS
 10
49.4582694575
 20
222.9488372093
 11
49.4582694575
 21
222.8504329657
  0
LINE
  5
3CB
100
AcDbEntity
  8
0
100
AcDbLine
 62
7
  6
CONTINUOUS
 10
49.4582694575
 20
222.6536244234
 11
49.4582694575
 21
222.0238372093
  0
LINE
  5
3CC
100
AcDbEntity
  8
0
100
AcDbLine
 62
7
  6
CONTINUOUS
 10
49.534147081
 20
222.0238372093
 11
49.534147081
 21
222.6536244234
  0
LINE
  5
3CD
100
AcDbEntity
  8
0
100
AcDbLine
 62
7
  6
CONTINUOUS
 10
49.534147081
 20
222.8504329657
 11
49.534147081
 21
222.9488372093
  0
LINE
  5
3CE
100
AcDbEntity
  8
0
100
AcDbLine
 62
7
  6
CONTINUOUS
 10
49.5499235243
 20
223.1238372093
 11
49.5499235243
 21
224.2238372093
  0
LINE
  5
3CF
100
AcDbEntity
  8
0
100
AcDbLine
 62
7
  6
CONTINUOUS
 10
49.5499235243
 20
225.3547104915
 11
49.5499235243
 21
225.4238372093
  0
LINE
  5
3D0
100
AcDbEntity
  8
0
100
AcDbLine
 62
7
  6
CONTINUOUS
 10
49.6555515216
 20
222.6536244234
 11
49.6555515216
 21
222.0238372093
  0
LINE
  5
3D1
100
AcDbEntity
  8
0
100
AcDbLine
 62
7
  6
CONTINUOUS
 10
49.7079118792
 20
222.8504329657
 11
49.7079118792
 21
222.9488372093
  0
LINE
  5
3D2
100
AcDbEntity
  8
0
100
AcDbLine
 62
7
  6
CONTINUOUS
 10
49.7314293188
 20
222.0238372093
 11
49.7314293188
 21
222.4764967849
  0
LINE
  5
3D3
100
AcDbEntity
  8
0
100
AcDbLine
 62
7
  6
CONTINUOUS
 10
49.7314293188
 20
222.5552201798
 11
49.7314293188
 21
222.6536244234
  0
LINE
  5
3D4
100
AcDbEntity
  8
0
100
AcDbLine
 62
7
  6
CONTINUOUS
 10
49.871028164
 20
224.4738372093
 11
49.871028164
 21
223.1238372093
  0
LINE
  5
3D5
100
AcDbEntity
  8
0
100
AcDbLine
 62
7
  6
CONTINUOUS
 10
49.9051941171
 20
222.0238372093
 11
49.9051941171
 21
222.4764967849
  0
LINE
  5
3D6
100
AcDbEntity
  8
0
100
AcDbLine
 62
7
  6
CONTINUOUS
 10
50.00458918
 20
222.3977733901
 11
50.00458918
 21
222.0238372093
  0
LINE
  5
3D7
100
AcDbEntity
  8
0
100
AcDbLine
 62
7
  6
CONTINUOUS
 10
50.0804668035
 20
222.0238372093
 11
50.0804668035
 21
222.3977733901
  0
LINE
  5
3D8
100
AcDbEntity
  8
0
100
AcDbLine
 62
7
  6
CONTINUOUS
 10
50.2018712442
 20
222.5355393311
 11
50.2018712442
 21
222.4961776337
  0
LINE
  5
3D9
100
AcDbEntity
  8
0
100
AcDbLine
 62
7
  6
CONTINUOUS
 10
50.2368012269
 20
223.1238372093
 11
50.2368012269
 21
224.4238372093
  0
LINE
  5
3DA
100
AcDbEntity
  8
0
100
AcDbLine
 62
7
  6
CONTINUOUS
 10
50.2542316018
 20
222.0238372093
 11
50.2542316018
 21
222.0835317603
  0
LINE
  5
3DB
100
AcDbEntity
  8
0
100
AcDbLine
 62
7
  6
CONTINUOUS
 10
50.2542316018
 20
222.1812840128
 11
50.2542316018
 21
222.3977733901
  0
LINE
  5
3DC
100
AcDbEntity
  8
0
100
AcDbLine
 62
7
  6
CONTINUOUS
 10
50.322865477
 20
225.4238372093
 11
50.322865477
 21
223.1238372093
  0
LINE
  5
3DD
100
AcDbEntity
  8
0
100
AcDbLine
 62
7
  6
CONTINUOUS
 10
50.6874886595
 20
222.1419223154
 11
50.6874886595
 21
222.1812840128
  0
LINE
  5
3DE
100
AcDbEntity
  8
0
100
AcDbLine
 62
7
  6
CONTINUOUS
 10
50.6886385399
 20
223.1238372093
 11
50.6886385399
 21
225.4238372093
  0
LINE
  5
3DF
100
AcDbEntity
  8
0
100
AcDbLine
 62
7
  6
CONTINUOUS
 10
50.2777490413
 20
222.4961776337
 11
50.2929245312
 21
222.5355393311
  0
LINE
  5
3E0
100
AcDbEntity
  8
0
100
AcDbLine
 62
7
  6
CONTINUOUS
 10
50.4515138396
 20
222.4961776337
 11
50.4666893295
 21
222.5355393311
  0
LINE
  5
3E1
100
AcDbEntity
  8
0
100
AcDbLine
 62
7
  6
CONTINUOUS
 10
50.6116110361
 20
222.1812840128
 11
50.5964355461
 21
222.1419223154
  0
LINE
  5
3E2
100
AcDbEntity
  8
0
100
AcDbLine
 62
7
  6
CONTINUOUS
 10
50.2322223977
 20
222.5945818772
 11
50.2018712442
 21
222.5355393311
  0
LINE
  5
3E3
100
AcDbEntity
  8
0
100
AcDbLine
 62
7
  6
CONTINUOUS
 10
50.6571376796
 20
222.0828797623
 11
50.6874886595
 21
222.1419223154
  0
LINE
  5
3E4
100
AcDbEntity
  8
0
100
AcDbLine
 62
7
  6
CONTINUOUS
 10
50.8309024779
 20
222.0828797623
 11
50.8612534578
 21
222.1419223154
  0
LINE
  5
3E5
100
AcDbEntity
  8
0
100
AcDbLine
 62
7
  6
CONTINUOUS
 10
48.4111566126
 20
222.5945818772
 11
48.3808055024
 21
222.5552201798
  0
LINE
  5
3E6
100
AcDbEntity
  8
0
100
AcDbLine
 62
7
  6
CONTINUOUS
 10
48.3808055024
 20
222.4764967849
 11
48.4111566126
 21
222.5158584824
  0
LINE
  5
3E7
100
AcDbEntity
  8
0
100
AcDbLine
 62
7
  6
CONTINUOUS
 10
48.1228211745
 20
222.0828797623
 11
48.1683478181
 21
222.1419223154
  0
LINE
  5
3E8
100
AcDbEntity
  8
0
100
AcDbLine
 62
7
  6
CONTINUOUS
 10
48.5545703007
 20
222.4764967849
 11
48.5849214109
 21
222.5158584824
  0
LINE
  5
3E9
100
AcDbEntity
  8
0
100
AcDbLine
 62
7
  6
CONTINUOUS
 10
48.2965859728
 20
222.0828797623
 11
48.3049277487
 21
222.0936980372
  0
LINE
  5
3EA
100
AcDbEntity
  8
0
100
AcDbLine
 62
7
  6
CONTINUOUS
 10
48.8967741582
 20
222.614262726
 11
48.8664230046
 21
222.5749010285
  0
LINE
  5
3EB
100
AcDbEntity
  8
0
100
AcDbLine
 62
7
  6
CONTINUOUS
 10
48.9119496481
 20
222.3780925414
 11
48.8815985814
 21
222.3387308164
  0
LINE
  5
3EC
100
AcDbEntity
  8
0
100
AcDbLine
 62
7
  6
CONTINUOUS
 10
48.9423008017
 20
222.2796882702
 11
48.9726518685
 21
222.3190499676
  0
LINE
  5
3ED
100
AcDbEntity
  8
0
100
AcDbLine
 62
7
  6
CONTINUOUS
 10
49.1160656
 20
222.2796882702
 11
49.1464166668
 21
222.3190499676
  0
LINE
  5
3EE
100
AcDbEntity
  8
0
100
AcDbLine
 62
7
  6
CONTINUOUS
 10
49.2154605761
 20
222.2009648753
 11
49.1699339326
 21
222.1419223154
  0
LINE
  5
3EF
100
AcDbEntity
  8
0
100
AcDbLine
 62
7
  6
CONTINUOUS
 10
49.7617802987
 20
222.5945818772
 11
49.7314293188
 21
222.5552201798
  0
LINE
  5
3F0
100
AcDbEntity
  8
0
100
AcDbLine
 62
7
  6
CONTINUOUS
 10
49.7314293188
 20
222.4764967849
 11
49.7617802987
 21
222.5158584824
  0
LINE
  5
3F1
100
AcDbEntity
  8
0
100
AcDbLine
 62
7
  6
CONTINUOUS
 10
49.9051941171
 20
222.4764967849
 11
49.935545097
 21
222.5158584824
  0
LINE
  5
3F2
100
AcDbEntity
  8
0
100
AcDbLine
 62
7
  6
CONTINUOUS
 10
47.8193102356
 20
222.614262726
 11
47.7737835867
 21
222.5749010285
  0
LINE
  5
3F3
100
AcDbEntity
  8
0
100
AcDbLine
 62
7
  6
CONTINUOUS
 10
48.4566832127
 20
222.6339435747
 11
48.4111566126
 21
222.5945818772
  0
LINE
  5
3F4
100
AcDbEntity
  8
0
100
AcDbLine
 62
7
  6
CONTINUOUS
 10
48.4111566126
 20
222.5158584824
 11
48.4566832127
 21
222.5552201798
  0
LINE
  5
3F5
100
AcDbEntity
  8
0
100
AcDbLine
 62
7
  6
CONTINUOUS
 10
48.0924701078
 20
222.1616031641
 11
48.0469434425
 21
222.1222414667
  0
LINE
  5
3F6
100
AcDbEntity
  8
0
100
AcDbLine
 62
7
  6
CONTINUOUS
 10
48.5849214109
 20
222.5158584824
 11
48.6060100267
 21
222.5340914212
  0
LINE
  5
3F7
100
AcDbEntity
  8
0
100
AcDbLine
 62
7
  6
CONTINUOUS
 10
49.8073069422
 20
222.6339435747
 11
49.7617802987
 21
222.5945818772
  0
LINE
  5
3F8
100
AcDbEntity
  8
0
100
AcDbLine
 62
7
  6
CONTINUOUS
 10
49.1699339326
 20
222.0435180597
 11
49.2154605761
 21
222.0828797623
  0
LINE
  5
3F9
100
AcDbEntity
  8
0
100
AcDbLine
 62
7
  6
CONTINUOUS
 10
49.7617802987
 20
222.5158584824
 11
49.8073069422
 21
222.5552201798
  0
LINE
  5
3FA
100
AcDbEntity
  8
0
100
AcDbLine
 62
7
  6
CONTINUOUS
 10
49.935545097
 20
222.5158584824
 11
49.9566337641
 21
222.5340914482
  0
LINE
  5
3FB
100
AcDbEntity
  8
0
100
AcDbLine
 62
7
  6
CONTINUOUS
 10
48.1835233948
 20
222.4568159362
 11
48.1683478181
 21
222.5355393311
  0
LINE
  5
3FC
100
AcDbEntity
  8
0
100
AcDbLine
 62
7
  6
CONTINUOUS
 10
48.729843074
 20
222.4174542388
 11
48.714667584
 21
222.5158584824
  0
LINE
  5
3FD
100
AcDbEntity
  8
0
100
AcDbLine
 62
7
  6
CONTINUOUS
 10
48.9036078722
 20
222.4174542388
 11
48.8914674803
 21
222.4961776337
  0
LINE
  5
3FE
100
AcDbEntity
  8
0
100
AcDbLine
 62
7
  6
CONTINUOUS
 10
47.6979058492
 20
222.3387308164
 11
47.7130813975
 21
222.220645724
  0
LINE
  5
3FF
100
AcDbEntity
  8
0
100
AcDbLine
 62
7
  6
CONTINUOUS
 10
50.8612534578
 20
222.1419223154
 11
50.8612534578
 21
222.1812840128
  0
LINE
  5
400
100
AcDbEntity
  8
0
100
AcDbLine
 62
7
  6
CONTINUOUS
 10
50.8624033382
 20
223.1238372093
 11
50.8624033382
 21
225.4238372093
  0
LINE
  5
401
100
AcDbEntity
  8
0
100
AcDbLine
 62
7
  6
CONTINUOUS
 10
47.8496613241
 20
222.5355393311
 11
47.8800124234
 21
222.5552201798
  0
LINE
  5
402
100
AcDbEntity
  8
0
100
AcDbLine
 62
7
  6
CONTINUOUS
 10
48.0234261224
 20
222.5355393311
 11
48.0489663059
 21
222.5521005924
  0
LINE
  5
403
100
AcDbEntity
  8
0
100
AcDbLine
 62
7
  6
CONTINUOUS
 10
48.9271252249
 20
222.6339435747
 11
48.8967741582
 21
222.614262726
  0
LINE
  5
404
100
AcDbEntity
  8
0
100
AcDbLine
 62
7
  6
CONTINUOUS
 10
48.0621189976
 20
222.0435180597
 11
48.1228211745
 21
222.0828797623
  0
LINE
  5
405
100
AcDbEntity
  8
0
100
AcDbLine
 62
7
  6
CONTINUOUS
 10
48.9423008017
 20
222.5355393311
 11
48.9726518685
 21
222.5552201798
  0
LINE
  5
406
100
AcDbEntity
  8
0
100
AcDbLine
 62
7
  6
CONTINUOUS
 10
48.2358837959
 20
222.0435180597
 11
48.2965859728
 21
222.0828797623
  0
LINE
  5
407
100
AcDbEntity
  8
0
100
AcDbLine
 62
7
  6
CONTINUOUS
 10
49.1160656
 20
222.5355393311
 11
49.1464166668
 21
222.5552201798
  0
LINE
  5
408
100
AcDbEntity
  8
0
100
AcDbLine
 62
7
  6
CONTINUOUS
 10
48.9726518685
 20
222.4174542388
 11
48.9119496481
 21
222.3780925414
  0
LINE
  5
409
100
AcDbEntity
  8
0
100
AcDbLine
 62
7
  6
CONTINUOUS
 10
48.9726518685
 20
222.3190499676
 11
49.0030029352
 21
222.3387308164
  0
LINE
  5
40A
100
AcDbEntity
  8
0
100
AcDbLine
 62
7
  6
CONTINUOUS
 10
49.1464166668
 20
222.3190499676
 11
49.1767677335
 21
222.3387308164
  0
LINE
  5
40B
100
AcDbEntity
  8
0
100
AcDbLine
 62
7
  6
CONTINUOUS
 10
50.2929245312
 20
222.6339435747
 11
50.2322223977
 21
222.5945818772
  0
LINE
  5
40C
100
AcDbEntity
  8
0
100
AcDbLine
 62
7
  6
CONTINUOUS
 10
50.2929245312
 20
222.5355393311
 11
50.3232756848
 21
222.5552201798
  0
LINE
  5
40D
100
AcDbEntity
  8
0
100
AcDbLine
 62
7
  6
CONTINUOUS
 10
50.4666893295
 20
222.5355393311
 11
50.4970404831
 21
222.5552201798
  0
LINE
  5
40E
100
AcDbEntity
  8
0
100
AcDbLine
 62
7
  6
CONTINUOUS
 10
50.5964355461
 20
222.1419223154
 11
50.5660843925
 21
222.1222414667
  0
LINE
  5
40F
100
AcDbEntity
  8
0
100
AcDbLine
 62
7
  6
CONTINUOUS
 10
50.5964355461
 20
222.0435180597
 11
50.6571376796
 21
222.0828797623
  0
LINE
  5
410
100
AcDbEntity
  8
0
100
AcDbLine
 62
7
  6
CONTINUOUS
 10
50.7702003444
 20
222.0435180597
 11
50.8309024779
 21
222.0828797623
  0
LINE
  5
411
100
AcDbEntity
  8
0
100
AcDbLine
 62
7
  6
CONTINUOUS
 10
49.1699339326
 20
222.1419223154
 11
49.0940562223
 21
222.1025606111
  0
LINE
  5
412
100
AcDbEntity
  8
0
100
AcDbLine
 62
7
  6
CONTINUOUS
 10
47.7130813975
 20
222.220645724
 11
47.7434324928
 21
222.1419223154
  0
LINE
  5
413
100
AcDbEntity
  8
0
100
AcDbLine
 62
7
  6
CONTINUOUS
 10
48.714667584
 20
222.5158584824
 11
48.6994920072
 21
222.5552201798
  0
LINE
  5
414
100
AcDbEntity
  8
0
100
AcDbLine
 62
7
  6
CONTINUOUS
 10
48.9423008017
 20
222.1419223154
 11
48.9271252249
 21
222.1812840128
  0
LINE
  5
415
100
AcDbEntity
  8
0
100
AcDbLine
 62
7
  6
CONTINUOUS
 10
49.1160656
 20
222.1419223154
 11
49.1008900232
 21
222.1812840128
  0
LINE
  5
416
100
AcDbEntity
  8
0
100
AcDbLine
 62
7
  6
CONTINUOUS
 10
47.8041346806
 20
222.2009648753
 11
47.7737835867
 21
222.2993691189
  0
LINE
  5
417
100
AcDbEntity
  8
0
100
AcDbLine
 62
7
  6
CONTINUOUS
 10
47.9778994788
 20
222.2009648753
 11
47.947548385
 21
222.2993691189
  0
LINE
  5
418
100
AcDbEntity
  8
0
100
AcDbLine
 62
7
  6
CONTINUOUS
 10
48.0924701078
 20
222.5158584824
 11
48.1076456411
 21
222.4568159362
  0
LINE
  5
419
100
AcDbEntity
  8
0
100
AcDbLine
 62
7
  6
CONTINUOUS
 10
49.2306362398
 20
222.1222414667
 11
49.2458117297
 21
222.0631989102
  0
LINE
  5
41A
100
AcDbEntity
  8
0
100
AcDbLine
 62
7
  6
CONTINUOUS
 10
49.3368650168
 20
222.0238372093
 11
49.3216895269
 21
222.0828797623
  0
LINE
  5
41B
100
AcDbEntity
  8
0
100
AcDbLine
 62
7
  6
CONTINUOUS
 10
49.3065138632
 20
222.4961776337
 11
49.2913383733
 21
222.5552201798
  0
LINE
  5
41C
100
AcDbEntity
  8
0
100
AcDbLine
 62
7
  6
CONTINUOUS
 10
50.0652913135
 20
222.4961776337
 11
50.0501158236
 21
222.5552201798
  0
LINE
  5
41D
100
AcDbEntity
  8
0
100
AcDbLine
 62
7
  6
CONTINUOUS
 10
48.6387897869
 20
222.4961776337
 11
48.6539653637
 21
222.4174542388
  0
LINE
  5
41E
100
AcDbEntity
  8
0
100
AcDbLine
 62
7
  6
CONTINUOUS
 10
48.8512475146
 20
222.2009648753
 11
48.8664230046
 21
222.1222414667
  0
LINE
  5
41F
100
AcDbEntity
  8
0
100
AcDbLine
 62
7
  6
CONTINUOUS
 10
49.3216895269
 20
222.0828797623
 11
49.3065138632
 21
222.1812840128
  0
LINE
  5
420
100
AcDbEntity
  8
0
100
AcDbLine
 62
7
  6
CONTINUOUS
 10
49.9894135164
 20
222.4961776337
 11
50.00458918
 21
222.3977733901
  0
LINE
  5
421
100
AcDbEntity
  8
0
100
AcDbLine
 62
7
  6
CONTINUOUS
 10
50.0804668035
 20
222.3977733901
 11
50.0652913135
 21
222.4961776337
  0
LWPOLYLINE
  5
422
100
AcDbEntity
  8
2_FEATURE
100
AcDbPolyline
 62
7
  6
CONTINUOUS
 90
9
 70
0
 10
53.8720933916
 20
215.1521179164
 10
53.8723716445
 20
215.1093205972
 10
53.8833384975
 20
214.8822276752
 10
53.910057295
 20
214.6584070946
 10
53.9524659557
 20
214.4370712452
 10
54.0108010234
 20
214.2174458487
 10
54.0856179984
 20
213.9987741665
 10
54.1777612189
 20
213.7804144771
 10
54.2887120174
 20
213.5611763867
  0
LINE
  5
423
100
AcDbEntity
  8
0
100
AcDbLine
 62
7
  6
CONTINUOUS
 10
53.8720930254
 20
215.1517985822
 11
53.872093035
 21
215.1521173652
  0
LINE
  5
424
100
AcDbEntity
  8
2_FEATURE
100
AcDbLine
 62
7
  6
CONTINUOUS
 10
53.8720930233
 20
215.1529565616
 11
53.8720930233
 21
218.9238372093
  0
LINE
  5
425
100
AcDbEntity
  8
2_FEATURE
100
AcDbLine
 62
7
  6
CONTINUOUS
 10
53.8720930233
 20
229.3238372093
 11
53.8720930233
 21
233.0947178884
  0
LINE
  5
426
100
AcDbEntity
  8
0
100
AcDbLine
 62
7
  6
CONTINUOUS
 10
53.872093035
 20
233.0955570571
 11
53.8720930254
 21
233.0958759708
  0
LWPOLYLINE
  5
427
100
AcDbEntity
  8
0
100
AcDbPolyline
 62
7
  6
CONTINUOUS
 90
16
 70
0
 10
56.866228183
 20
220.8001463652
 10
56.7879301597
 20
220.6791336352
 10
56.7104341846
 20
220.5674227441
 10
56.6345271916
 20
220.4653546299
 10
56.5608366109
 20
220.3729626501
 10
56.4900220752
 20
220.2902596501
 10
56.422654265
 20
220.217091287
 10
56.3592892599
 20
220.1532387283
 10
56.3004793064
 20
220.0984248477
 10
56.246798901
 20
220.0523272058
 10
56.1985512683
 20
220.0143425148
 10
56.1561537842
 20
219.9839333833
 10
56.1197274188
 20
219.960326406
 10
56.0894557007
 20
219.9427976608
 10
56.0657653644
 20
219.9307255223
 10
56.0628136419
 20
219.9293462427
  0
LINE
  5
428
100
AcDbEntity
  8
0
100
AcDbLine
 62
7
  6
CONTINUOUS
 10
47.8648368792
 20
222.6339435747
 11
47.8193102356
 21
222.614262726
  0
LINE
  5
429
100
AcDbEntity
  8
0
100
AcDbLine
 62
7
  6
CONTINUOUS
 10
47.8800124234
 20
222.5552201798
 11
47.940714622
 21
222.5749010285
  0
LINE
  5
42A
100
AcDbEntity
  8
0
100
AcDbLine
 62
7
  6
CONTINUOUS
 10
48.517385433
 20
222.6536244234
 11
48.4566832127
 21
222.6339435747
  0
LINE
  5
42B
100
AcDbEntity
  8
0
100
AcDbLine
 62
7
  6
CONTINUOUS
 10
48.4566832127
 20
222.5552201798
 11
48.517385433
 21
222.5749010285
  0
LINE
  5
42C
100
AcDbEntity
  8
0
100
AcDbLine
 62
7
  6
CONTINUOUS
 10
48.9726518685
 20
222.5552201798
 11
49.0333540888
 21
222.5749010285
  0
LINE
  5
42D
100
AcDbEntity
  8
0
100
AcDbLine
 62
7
  6
CONTINUOUS
 10
49.1464166668
 20
222.5552201798
 11
49.1657631315
 21
222.5614926826
  0
LINE
  5
42E
100
AcDbEntity
  8
0
100
AcDbLine
 62
7
  6
CONTINUOUS
 10
49.8680092494
 20
222.6536244234
 11
49.8073069422
 21
222.6339435747
  0
LINE
  5
42F
100
AcDbEntity
  8
0
100
AcDbLine
 62
7
  6
CONTINUOUS
 10
49.0030029352
 20
222.3387308164
 11
49.0637051556
 21
222.3584116651
  0
LINE
  5
430
100
AcDbEntity
  8
0
100
AcDbLine
 62
7
  6
CONTINUOUS
 10
49.8073069422
 20
222.5552201798
 11
49.8680092494
 21
222.5749010285
  0
LINE
  5
431
100
AcDbEntity
  8
0
100
AcDbLine
 62
7
  6
CONTINUOUS
 10
49.1767677335
 20
222.3387308164
 11
49.2312862595
 21
222.3564067902
  0
LINE
  5
432
100
AcDbEntity
  8
0
100
AcDbLine
 62
7
  6
CONTINUOUS
 10
50.3232756848
 20
222.5552201798
 11
50.3839778183
 21
222.5749010285
  0
LINE
  5
433
100
AcDbEntity
  8
0
100
AcDbLine
 62
7
  6
CONTINUOUS
 10
50.4970404831
 20
222.5552201798
 11
50.5246580311
 21
222.5641743426
  0
LINE
  5
434
100
AcDbEntity
  8
2_FEATURE
100
AcDbLine
 62
7
  6
CONTINUOUS
 10
54.2887120174
 20
213.5611763867
 11
54.3582992296
 21
213.4400833787
  0
LINE
  5
435
100
AcDbEntity
  8
0
100
AcDbLine
 62
7
  6
CONTINUOUS
 10
49.2458117297
 20
222.0631989102
 11
49.2609872197
 21
222.0238372093
  0
LINE
  5
436
100
AcDbEntity
  8
0
100
AcDbLine
 62
7
  6
CONTINUOUS
 10
49.2154605761
 20
222.5355393311
 11
49.2306362398
 21
222.4961776337
  0
LINE
  5
437
100
AcDbEntity
  8
0
100
AcDbLine
 62
7
  6
CONTINUOUS
 10
50.2018712442
 20
222.1812840128
 11
50.2322223977
 21
222.1025606111
  0
LINE
  5
438
100
AcDbEntity
  8
0
100
AcDbLine
 62
7
  6
CONTINUOUS
 10
50.2929245312
 20
222.1419223154
 11
50.2777490413
 21
222.1812840128
  0
LINE
  5
439
100
AcDbEntity
  8
0
100
AcDbLine
 62
7
  6
CONTINUOUS
 10
50.2018712442
 20
222.4961776337
 11
50.2322223977
 21
222.4174542388
  0
LINE
  5
43A
100
AcDbEntity
  8
0
100
AcDbLine
 62
7
  6
CONTINUOUS
 10
50.2929245312
 20
222.4568159362
 11
50.2777490413
 21
222.4961776337
  0
LINE
  5
43B
100
AcDbEntity
  8
0
100
AcDbLine
 62
7
  6
CONTINUOUS
 10
50.4666893295
 20
222.1419223154
 11
50.4515138396
 21
222.1812840128
  0
LINE
  5
43C
100
AcDbEntity
  8
0
100
AcDbLine
 62
7
  6
CONTINUOUS
 10
50.4666893295
 20
222.4568159362
 11
50.4515138396
 21
222.4961776337
  0
LINE
  5
43D
100
AcDbEntity
  8
0
100
AcDbLine
 62
7
  6
CONTINUOUS
 10
50.5964355461
 20
222.220645724
 11
50.6116110361
 21
222.1812840128
  0
LINE
  5
43E
100
AcDbEntity
  8
0
100
AcDbLine
 62
7
  6
CONTINUOUS
 10
50.6874886595
 20
222.1812840128
 11
50.6571376796
 21
222.2600074215
  0
LINE
  5
43F
100
AcDbEntity
  8
0
100
AcDbLine
 62
7
  6
CONTINUOUS
 10
50.5964355461
 20
222.5355393311
 11
50.6116110361
 21
222.4961776337
  0
LINE
  5
440
100
AcDbEntity
  8
0
100
AcDbLine
 62
7
  6
CONTINUOUS
 10
50.6874886595
 20
222.4961776337
 11
50.6571376796
 21
222.5749010285
  0
LINE
  5
441
100
AcDbEntity
  8
0
100
AcDbLine
 62
7
  6
CONTINUOUS
 10
50.8612534578
 20
222.1812840128
 11
50.8309024779
 21
222.2600074215
  0
LINE
  5
442
100
AcDbEntity
  8
0
100
AcDbLine
 62
7
  6
CONTINUOUS
 10
50.8612534578
 20
222.4961776337
 11
50.8309024779
 21
222.5749010285
  0
LINE
  5
443
100
AcDbEntity
  8
0
100
AcDbLine
 62
7
  6
CONTINUOUS
 10
56.0658806813
 20
219.9307802661
 11
56.0560021302
 21
219.9262910777
  0
LINE
  5
444
100
AcDbEntity
  8
0
100
AcDbLine
 62
7
  6
CONTINUOUS
 10
50.5660843925
 20
222.1222414667
 11
50.505382259
 21
222.1025606111
  0
LINE
  5
445
100
AcDbEntity
  8
0
100
AcDbLine
 62
7
  6
CONTINUOUS
 10
47.7434324928
 20
222.1419223154
 11
47.7737835867
 21
222.1025606111
  0
LINE
  5
446
100
AcDbEntity
  8
0
100
AcDbLine
 62
7
  6
CONTINUOUS
 10
47.8496613241
 20
222.1419223154
 11
47.8041346806
 21
222.2009648753
  0
LINE
  5
447
100
AcDbEntity
  8
0
100
AcDbLine
 62
7
  6
CONTINUOUS
 10
48.0234261224
 20
222.1419223154
 11
47.9778994788
 21
222.2009648753
  0
LINE
  5
448
100
AcDbEntity
  8
0
100
AcDbLine
 62
7
  6
CONTINUOUS
 10
48.1683478181
 20
222.5355393311
 11
48.1228211745
 21
222.5945818772
  0
LINE
  5
449
100
AcDbEntity
  8
0
100
AcDbLine
 62
7
  6
CONTINUOUS
 10
48.3049277487
 20
222.5837636036
 11
48.2965859728
 21
222.5945818772
  0
LINE
  5
44A
100
AcDbEntity
  8
0
100
AcDbLine
 62
7
  6
CONTINUOUS
 10
48.8664230046
 20
222.1222414667
 11
48.9119496481
 21
222.0631989102
  0
LINE
  5
44B
100
AcDbEntity
  8
0
100
AcDbLine
 62
7
  6
CONTINUOUS
 10
48.6084387201
 20
222.5355393311
 11
48.6387897869
 21
222.4961776337
  0
LINE
  5
44C
100
AcDbEntity
  8
0
100
AcDbLine
 62
7
  6
CONTINUOUS
 10
48.6994920072
 20
222.5552201798
 11
48.6691409405
 21
222.5945818772
  0
LINE
  5
44D
100
AcDbEntity
  8
0
100
AcDbLine
 62
7
  6
CONTINUOUS
 10
48.8636424324
 20
222.5676888699
 11
48.8429057387
 21
222.5945818772
  0
LINE
  5
44E
100
AcDbEntity
  8
0
100
AcDbLine
 62
7
  6
CONTINUOUS
 10
49.2913383733
 20
222.5552201798
 11
49.2609872197
 21
222.5945818772
  0
LINE
  5
44F
100
AcDbEntity
  8
0
100
AcDbLine
 62
7
  6
CONTINUOUS
 10
49.4582694575
 20
222.5640826629
 11
49.434752018
 21
222.5945818772
  0
LINE
  5
450
100
AcDbEntity
  8
0
100
AcDbLine
 62
7
  6
CONTINUOUS
 10
54.3582966256
 20
213.4400873106
 11
54.3576360655
 21
213.4411889636
  0
LINE
  5
451
100
AcDbEntity
  8
0
100
AcDbLine
 62
7
  6
CONTINUOUS
 10
47.7737835867
 20
222.1025606111
 11
47.8193102356
 21
222.0631989102
  0
LINE
  5
452
100
AcDbEntity
  8
0
100
AcDbLine
 62
7
  6
CONTINUOUS
 10
49.9590625365
 20
222.5355393311
 11
49.9894135164
 21
222.4961776337
  0
LINE
  5
453
100
AcDbEntity
  8
0
100
AcDbLine
 62
7
  6
CONTINUOUS
 10
50.0501158236
 20
222.5552201798
 11
50.01976467
 21
222.5945818772
  0
LINE
  5
454
100
AcDbEntity
  8
0
100
AcDbLine
 62
7
  6
CONTINUOUS
 10
50.216745226
 20
222.564473907
 11
50.1935294683
 21
222.5945818772
  0
LINE
  5
455
100
AcDbEntity
  8
0
100
AcDbLine
 62
7
  6
CONTINUOUS
 10
87.6787017623
 20
228.3170791337
 11
87.6884110383
 21
228.3214819165
  0
LINE
  5
456
100
AcDbEntity
  8
0
100
AcDbLine
 62
7
  6
CONTINUOUS
 10
48.0469434425
 20
222.5552201798
 11
48.0924701078
 21
222.5158584824
  0
LINE
  5
457
100
AcDbEntity
  8
0
100
AcDbLine
 62
7
  6
CONTINUOUS
 10
48.6691409405
 20
222.5945818772
 11
48.6236142969
 21
222.6339435747
  0
LINE
  5
458
100
AcDbEntity
  8
0
100
AcDbLine
 62
7
  6
CONTINUOUS
 10
48.8429057387
 20
222.5945818772
 11
48.7973790952
 21
222.6339435747
  0
LINE
  5
459
100
AcDbEntity
  8
0
100
AcDbLine
 62
7
  6
CONTINUOUS
 10
49.2609872197
 20
222.5945818772
 11
49.2154605761
 21
222.6339435747
  0
LINE
  5
45A
100
AcDbEntity
  8
0
100
AcDbLine
 62
7
  6
CONTINUOUS
 10
49.434752018
 20
222.5945818772
 11
49.3892253744
 21
222.6339435747
  0
LINE
  5
45B
100
AcDbEntity
  8
0
100
AcDbLine
 62
7
  6
CONTINUOUS
 10
50.2322223977
 20
222.1025606111
 11
50.2777490413
 21
222.0631989102
  0
LINE
  5
45C
100
AcDbEntity
  8
0
100
AcDbLine
 62
7
  6
CONTINUOUS
 10
50.01976467
 20
222.5945818772
 11
49.9742380264
 21
222.6339435747
  0
LINE
  5
45D
100
AcDbEntity
  8
0
100
AcDbLine
 62
7
  6
CONTINUOUS
 10
50.3384511748
 20
222.4174542388
 11
50.2929245312
 21
222.4568159362
  0
LINE
  5
45E
100
AcDbEntity
  8
0
100
AcDbLine
 62
7
  6
CONTINUOUS
 10
50.5509089026
 20
222.2600074215
 11
50.5964355461
 21
222.220645724
  0
LINE
  5
45F
100
AcDbEntity
  8
0
100
AcDbLine
 62
7
  6
CONTINUOUS
 10
50.1935294683
 20
222.5945818772
 11
50.1480028247
 21
222.6339435747
  0
LINE
  5
460
100
AcDbEntity
  8
0
100
AcDbLine
 62
7
  6
CONTINUOUS
 10
50.5122159731
 20
222.4174542388
 11
50.4666893295
 21
222.4568159362
  0
LINE
  5
461
100
AcDbEntity
  8
0
100
AcDbLine
 62
7
  6
CONTINUOUS
 10
50.6571376796
 20
222.5749010285
 11
50.6116110361
 21
222.614262726
  0
LINE
  5
462
100
AcDbEntity
  8
0
100
AcDbLine
 62
7
  6
CONTINUOUS
 10
50.8309024779
 20
222.5749010285
 11
50.7853758343
 21
222.614262726
  0
LINE
  5
463
100
AcDbEntity
  8
0
100
AcDbLine
 62
7
  6
CONTINUOUS
 10
50.2322223977
 20
222.4174542388
 11
50.2929245312
 21
222.3584116651
  0
LINE
  5
464
100
AcDbEntity
  8
0
100
AcDbLine
 62
7
  6
CONTINUOUS
 10
50.6571376796
 20
222.2600074215
 11
50.5964355461
 21
222.3190499676
  0
LINE
  5
465
100
AcDbEntity
  8
0
100
AcDbLine
 62
7
  6
CONTINUOUS
 10
50.8309024779
 20
222.2600074215
 11
50.7702003444
 21
222.3190499676
  0
LWPOLYLINE
  5
466
100
AcDbEntity
  8
0
100
AcDbPolyline
 62
7
  6
CONTINUOUS
 90
38
 70
0
 10
56.9456632539
 20
227.3157533706
 10
57.0233054054
 20
227.1773486063
 10
57.0995216078
 20
227.0311860642
 10
57.1736541572
 20
226.8779015275
 10
57.2450275443
 20
226.7183314387
 10
57.3131931246
 20
226.552970837
 10
57.3776702602
 20
226.3824969894
 10
57.4381024217
 20
226.2074099502
 10
57.4941434457
 20
226.028273268
 10
57.5454939566
 20
225.8456641423
 10
57.5918822308
 20
225.6602085019
 10
57.633123929
 20
225.4723816879
 10
57.6690409637
 20
225.2827952447
 10
57.6995651852
 20
225.0916631607
 10
57.7246215157
 20
224.8993004139
 10
57.7441562926
 20
224.7059506167
 10
57.7581298728
 20
224.511866118
 10
57.7665089452
 20
224.3172917226
 10
57.769279187
 20
224.1224656288
 10
57.7664298586
 20
223.9276407312
 10
57.7579718191
 20
223.7330697767
 10
57.7439193737
 20
223.5389916062
 10
57.724306207
 20
223.3456514831
 10
57.6991719293
 20
223.153302351
 10
57.6685707587
 20
222.9621882291
 10
57.6325778412
 20
222.772624883
 10
57.5912619454
 20
222.5848265296
 10
57.5448016388
 20
222.3994061117
 10
57.4933821905
 20
222.216839622
 10
57.4372761041
 20
222.0377541997
 10
57.3767838272
 20
221.8627277603
 10
57.3122525167
 20
221.6923245726
 10
57.2440398073
 20
221.5270454912
 10
57.1726271912
 20
221.367567168
 10
57.0984642855
 20
221.2143850615
 10
57.0222265624
 20
221.068332953
 10
56.944571604
 20
220.9300450383
 10
56.8547342252
 20
220.7818480549
  0
LWPOLYLINE
  5
467
100
AcDbEntity
  8
0
100
AcDbPolyline
 62
7
  6
CONTINUOUS
 90
41
 70
0
 10
56.8994771915
 20
227.3913076482
 10
56.9516238684
 20
227.2943295813
 10
57.0008367194
 20
227.1911513591
 10
57.0473180111
 20
227.0814112263
 10
57.0911583263
 20
226.9648870736
 10
57.1324339413
 20
226.8413080381
 10
57.1711924423
 20
226.7104062025
 10
57.2074831371
 20
226.5718209084
 10
57.2413553783
 20
226.4250540355
 10
57.2727450797
 20
226.2700258163
 10
57.301665025
 20
226.1062848982
 10
57.3279448532
 20
225.9344403967
 10
57.3515173548
 20
225.7548833101
 10
57.3723247551
 20
225.5681781353
 10
57.390343887
 20
225.374857441
 10
57.4055625723
 20
225.1757608599
 10
57.4179754561
 20
224.9717071414
 10
57.4276044157
 20
224.7636541877
 10
57.4344654434
 20
224.5526006139
 10
57.4385768435
 20
224.3395160897
 10
57.4399637846
 20
224.1254089125
 10
57.4386168946
 20
223.9112938196
 10
57.434545485
 20
223.6981853889
 10
57.4277249137
 20
223.4870929996
 10
57.418136435
 20
223.2789872742
 10
57.4057645628
 20
223.0748678436
 10
57.390587045
 20
222.8756937365
 10
57.3726091278
 20
222.6822846325
 10
57.351842916
 20
222.4954815219
 10
57.3283108896
 20
222.315817298
 10
57.3020704033
 20
222.1438561572
 10
57.2731884136
 20
221.979993022
 10
57.2418347535
 20
221.8248385272
 10
57.2079977157
 20
221.6779473022
 10
57.1717427643
 20
221.5392455161
 10
57.1330206572
 20
221.4082331958
 10
57.0917826329
 20
221.2845497465
 10
57.047981447
 20
221.1679265236
 10
57.0015412784
 20
221.0580921292
 10
56.9523725612
 20
220.9548248231
 10
56.9002740358
 20
220.8577629424
  0
LINE
  5
468
100
AcDbEntity
  8
0
100
AcDbLine
 62
7
  6
CONTINUOUS
 10
48.9119496481
 20
222.0631989102
 11
48.9423008017
 21
222.0435180597
  0
LINE
  5
469
100
AcDbEntity
  8
0
100
AcDbLine
 62
7
  6
CONTINUOUS
 10
48.1228211745
 20
222.5945818772
 11
48.0621189976
 21
222.6339435747
  0
LINE
  5
46A
100
AcDbEntity
  8
0
100
AcDbLine
 62
7
  6
CONTINUOUS
 10
49.0030029352
 20
222.1025606111
 11
48.9423008017
 21
222.1419223154
  0
LINE
  5
46B
100
AcDbEntity
  8
0
100
AcDbLine
 62
7
  6
CONTINUOUS
 10
48.2965859728
 20
222.5945818772
 11
48.2358837959
 21
222.6339435747
  0
LINE
  5
46C
100
AcDbEntity
  8
0
100
AcDbLine
 62
7
  6
CONTINUOUS
 10
49.1400070736
 20
222.1263977012
 11
49.1160656
 21
222.1419223154
  0
LINE
  5
46D
100
AcDbEntity
  8
0
100
AcDbLine
 62
7
  6
CONTINUOUS
 10
48.5780876534
 20
222.5552201798
 11
48.6084387201
 21
222.5355393311
  0
LINE
  5
46E
100
AcDbEntity
  8
0
100
AcDbLine
 62
7
  6
CONTINUOUS
 10
49.1851095962
 20
222.5552201798
 11
49.2154605761
 21
222.5355393311
  0
LINE
  5
46F
100
AcDbEntity
  8
0
100
AcDbLine
 62
7
  6
CONTINUOUS
 10
50.3232756848
 20
222.1222414667
 11
50.2929245312
 21
222.1419223154
  0
LINE
  5
470
100
AcDbEntity
  8
0
100
AcDbLine
 62
7
  6
CONTINUOUS
 10
50.4970404831
 20
222.1222414667
 11
50.4666893295
 21
222.1419223154
  0
LINE
  5
471
100
AcDbEntity
  8
0
100
AcDbLine
 62
7
  6
CONTINUOUS
 10
49.9287113829
 20
222.5552201798
 11
49.9590625365
 21
222.5355393311
  0
LINE
  5
472
100
AcDbEntity
  8
0
100
AcDbLine
 62
7
  6
CONTINUOUS
 10
50.5660843925
 20
222.5552201798
 11
50.5964355461
 21
222.5355393311
  0
LINE
  5
473
100
AcDbEntity
  8
0
100
AcDbLine
 62
7
  6
CONTINUOUS
 10
56.8547350307
 20
227.4658251012
 11
56.9456632539
 21
227.3157533706
  0
LINE
  5
474
100
AcDbEntity
  8
DEFAULT_1
100
AcDbLine
 62
2
  6
CENTER
 10
71.8720930233
 20
239.6669238411
 11
71.8720930233
 21
226.1239372093
  0
LINE
  5
475
100
AcDbEntity
  8
0
100
AcDbLine
 62
2
  6
CONTINUOUS
 10
71.8720930233
 20
225.0038372093
 11
71.8720930233
 21
223.2438372093
  0
LINE
  5
476
100
AcDbEntity
  8
DEFAULT_1
100
AcDbLine
 62
2
  6
CENTER
 10
71.8720930233
 20
208.7564122132
 11
71.8720930233
 21
222.1237372093
  0
LINE
  5
477
100
AcDbEntity
  8
0
100
AcDbLine
 62
7
  6
CONTINUOUS
 10
92.9565766712
 20
227.6238372093
 11
92.8582175283
 21
227.5600074297
  0
LINE
  5
478
100
AcDbEntity
  8
0
100
AcDbLine
 62
7
  6
CONTINUOUS
 10
93.1303414695
 20
227.6238372093
 11
93.0319823266
 21
227.5600074297
  0
LINE
  5
479
100
AcDbEntity
  8
2_FEATURE
100
AcDbLine
 62
7
  6
CONTINUOUS
 10
87.680177912
 20
211.6238372093
 11
56.0651263735
 21
211.6238372093
  0
LINE
  5
47A
100
AcDbEntity
  8
0
100
AcDbLine
 62
7
  6
CONTINUOUS
 10
39.5220930233
 20
211.6238372093
 11
104.2220930233
 21
211.6238372093
  0
LINE
  5
47B
100
AcDbEntity
  8
0
100
AcDbLine
 62
7
  6
CONTINUOUS
 10
47.8193102356
 20
222.0631989102
 11
47.8648368792
 21
222.0435180597
  0
LINE
  5
47C
100
AcDbEntity
  8
0
100
AcDbLine
 62
7
  6
CONTINUOUS
 10
47.940714622
 20
222.1025606111
 11
47.8496613241
 21
222.1419223154
  0
LINE
  5
47D
100
AcDbEntity
  8
0
100
AcDbLine
 62
7
  6
CONTINUOUS
 10
48.0542798854
 20
222.1285844493
 11
48.0234261224
 21
222.1419223154
  0
LINE
  5
47E
100
AcDbEntity
  8
0
100
AcDbLine
 62
7
  6
CONTINUOUS
 10
48.6236142969
 20
222.6339435747
 11
48.5780876534
 21
222.6536244234
  0
LINE
  5
47F
100
AcDbEntity
  8
0
100
AcDbLine
 62
7
  6
CONTINUOUS
 10
48.7973790952
 20
222.6339435747
 11
48.7518524517
 21
222.6536244234
  0
LINE
  5
480
100
AcDbEntity
  8
0
100
AcDbLine
 62
7
  6
CONTINUOUS
 10
50.2777490413
 20
222.0631989102
 11
50.3232756848
 21
222.0435180597
  0
LINE
  5
481
100
AcDbEntity
  8
0
100
AcDbLine
 62
7
  6
CONTINUOUS
 10
49.9742380264
 20
222.6339435747
 11
49.9287113829
 21
222.6536244234
  0
LINE
  5
482
100
AcDbEntity
  8
0
100
AcDbLine
 62
7
  6
CONTINUOUS
 10
50.1480028247
 20
222.6339435747
 11
50.1024761812
 21
222.6536244234
  0
LINE
  5
483
100
AcDbEntity
  8
0
100
AcDbLine
 62
7
  6
CONTINUOUS
 10
50.6116110361
 20
222.614262726
 11
50.5660843925
 21
222.6339435747
  0
LINE
  5
484
100
AcDbEntity
  8
0
100
AcDbLine
 62
7
  6
CONTINUOUS
 10
50.7853758343
 20
222.614262726
 11
50.7398491908
 21
222.6339435747
  0
LINE
  5
485
100
AcDbEntity
  8
0
100
AcDbLine
 62
7
  6
CONTINUOUS
 10
93.0483754545
 20
227.2408585316
 11
93.1303414695
 21
227.3046883112
  0
LINE
  5
486
100
AcDbEntity
  8
0
100
AcDbLine
 62
7
  6
CONTINUOUS
 10
93.1303414695
 20
224.6238372093
 11
93.2287006125
 21
224.6876669945
  0
LINE
  5
487
100
AcDbEntity
  8
0
100
AcDbLine
 62
7
  6
CONTINUOUS
 10
47.8648368792
 20
222.0435180597
 11
47.9558901554
 21
222.0238372093
  0
LINE
  5
488
100
AcDbEntity
  8
0
100
AcDbLine
 62
7
  6
CONTINUOUS
 10
48.9423008017
 20
222.0435180597
 11
49.0030029352
 21
222.0238372093
  0
LINE
  5
489
100
AcDbEntity
  8
0
100
AcDbLine
 62
7
  6
CONTINUOUS
 10
48.517385433
 20
222.5749010285
 11
48.5780876534
 21
222.5552201798
  0
LINE
  5
48A
100
AcDbEntity
  8
0
100
AcDbLine
 62
7
  6
CONTINUOUS
 10
49.1244073759
 20
222.5749010285
 11
49.1851095962
 21
222.5552201798
  0
LINE
  5
48B
100
AcDbEntity
  8
0
100
AcDbLine
 62
7
  6
CONTINUOUS
 10
49.8680092494
 20
222.5749010285
 11
49.9287113829
 21
222.5552201798
  0
LINE
  5
48C
100
AcDbEntity
  8
0
100
AcDbLine
 62
7
  6
CONTINUOUS
 10
50.2929245312
 20
222.3584116651
 11
50.5509089026
 21
222.2600074215
  0
LINE
  5
48D
100
AcDbEntity
  8
0
100
AcDbLine
 62
7
  6
CONTINUOUS
 10
50.5964355461
 20
222.3190499676
 11
50.3384511748
 21
222.4174542388
  0
LINE
  5
48E
100
AcDbEntity
  8
0
100
AcDbLine
 62
7
  6
CONTINUOUS
 10
50.7702003444
 20
222.3190499676
 11
50.5122159731
 21
222.4174542388
  0
LWPOLYLINE
  5
48F
100
AcDbEntity
  8
0
100
AcDbPolyline
 62
7
  6
CONTINUOUS
 90
16
 70
0
 10
86.8767086257
 20
227.4455278357
 10
86.9550068615
 20
227.5666760221
 10
87.0325182953
 20
227.6785338287
 10
87.1084580673
 20
227.7807601839
 10
87.1821959273
 20
227.8733154725
 10
87.2530708471
 20
227.9561831734
 10
87.3205084972
 20
228.0295121502
 10
87.3839492582
 20
228.0935169975
 10
87.4428389983
 20
228.1484729035
 10
87.4965985535
 20
228.1946984567
 10
87.5449312854
 20
228.2328029874
 10
87.5874255443
 20
228.2633271118
 10
87.6239550508
 20
228.2870392978
 10
87.6543339343
 20
228.3046612956
 10
87.6781328673
 20
228.3168127269
 10
87.6811007606
 20
228.3182025565
  0
LINE
  5
490
100
AcDbEntity
  8
0
100
AcDbLine
 62
7
  6
CONTINUOUS
 10
93.2123073907
 20
225.0068159318
 11
93.1303414695
 21
224.9429861521
  0
LINE
  5
491
100
AcDbEntity
  8
0
100
AcDbLine
 62
7
  6
CONTINUOUS
 10
96.6056978229
 20
224.6238372093
 11
96.6876636503
 21
224.6876669945
  0
LWPOLYLINE
  5
492
100
AcDbEntity
  8
2_FEATURE
100
AcDbPolyline
 62
7
  6
CONTINUOUS
 90
45
 70
0
 10
39.8845738073
 20
217.6237552584
 10
39.865190057
 20
217.6235373566
 10
39.845327024
 20
217.6231548983
 10
39.824825335
 20
217.6225731546
 10
39.8034591546
 20
217.6217451023
 10
39.7809274793
 20
217.6206053404
 10
39.7572310326
 20
217.619089032
 10
39.7321804633
 20
217.6171089888
 10
39.7059724742
 20
217.6146000278
 10
39.6788226231
 20
217.6115078607
 10
39.6504905745
 20
217.6077258844
 10
39.6210219475
 20
217.603171302
 10
39.5899111635
 20
217.5976562686
 10
39.5566823393
 20
217.5909426268
 10
39.5214589121
 20
217.5828729617
 10
39.4841174463
 20
217.5732174631
 10
39.4450356582
 20
217.561862962
 10
39.4044785656
 20
217.5486853071
 10
39.3627308254
 20
217.5335837009
 10
39.3200675547
 20
217.5164747153
 10
39.2768299327
 20
217.4973280524
 10
39.2333677885
 20
217.4761548486
 10
39.1899275216
 20
217.4529516624
 10
39.1468933337
 20
217.4278263914
 10
39.1041754283
 20
217.400632417
 10
39.0618270655
 20
217.3712853293
 10
39.0198840075
 20
217.3396727508
 10
38.9784077408
 20
217.3056806781
 10
38.9374794396
 20
217.2691901279
 10
38.8971903111
 20
217.2300672103
 10
38.8576958802
 20
217.1882178922
 10
38.8191512599
 20
217.1435300248
 10
38.7817697378
 20
217.0959408898
 10
38.7457732158
 20
217.0453888293
 10
38.7113983111
 20
216.9918191656
 10
38.6789130814
 20
216.9352138263
 10
38.6485587964
 20
216.8754868043
 10
38.6206240311
 20
216.8126010701
 10
38.595403806
 20
216.7464845891
 10
38.5732358135
 20
216.6771003545
 10
38.554493841
 20
216.6044381074
 10
38.5395883681
 20
216.5285215972
 10
38.5289660842
 20
216.4494158491
 10
38.523105996
 20
216.367172361
 10
38.5220932512
 20
216.3158371615
  0
LINE
  5
493
100
AcDbEntity
  8
2_FEATURE
100
AcDbLine
 62
7
  6
CONTINUOUS
 10
39.90664435
 20
217.6238369819
 11
39.8845738073
 21
217.6237552584
  0
LINE
  5
494
100
AcDbEntity
  8
0
100
AcDbLine
 62
7
  6
CONTINUOUS
 10
103.8342200968
 20
217.6238372093
 11
98.4150895625
 21
217.6238372093
  0
LINE
  5
495
100
AcDbEntity
  8
2_FEATURE
100
AcDbLine
 62
7
  6
CONTINUOUS
 10
45.329096484
 20
217.6238372093
 11
39.9099659497
 21
217.6238372093
  0
LINE
  5
496
100
AcDbEntity
  8
0
100
AcDbLine
 62
7
  6
CONTINUOUS
 10
47.940714622
 20
222.5749010285
 11
48.0469434425
 21
222.5552201798
  0
LINE
  5
497
100
AcDbEntity
  8
0
100
AcDbLine
 62
7
  6
CONTINUOUS
 10
48.0621189976
 20
222.6339435747
 11
47.9558901554
 21
222.6536244234
  0
LINE
  5
498
100
AcDbEntity
  8
0
100
AcDbLine
 62
7
  6
CONTINUOUS
 10
48.2358837959
 20
222.6339435747
 11
48.1296549537
 21
222.6536244234
  0
LINE
  5
499
100
AcDbEntity
  8
0
100
AcDbLine
 62
7
  6
CONTINUOUS
 10
50.3232756848
 20
222.0435180597
 11
50.4143289719
 21
222.0238372093
  0
LINE
  5
49A
100
AcDbEntity
  8
0
100
AcDbLine
 62
7
  6
CONTINUOUS
 10
50.4143289719
 20
222.1025606111
 11
50.3232756848
 21
222.1222414667
  0
LINE
  5
49B
100
AcDbEntity
  8
0
100
AcDbLine
 62
7
  6
CONTINUOUS
 10
50.5384668446
 20
222.1132873008
 11
50.4970404831
 21
222.1222414667
  0
LINE
  5
49C
100
AcDbEntity
  8
0
100
AcDbLine
 62
7
  6
CONTINUOUS
 10
49.2154605761
 20
222.6339435747
 11
49.1244073759
 21
222.6536244234
  0
LINE
  5
49D
100
AcDbEntity
  8
0
100
AcDbLine
 62
7
  6
CONTINUOUS
 10
49.3892253744
 20
222.6339435747
 11
49.2981721742
 21
222.6536244234
  0
LINE
  5
49E
100
AcDbEntity
  8
0
100
AcDbLine
 62
7
  6
CONTINUOUS
 10
50.4750311054
 20
222.5749010285
 11
50.5660843925
 21
222.5552201798
  0
LINE
  5
49F
100
AcDbEntity
  8
0
100
AcDbLine
 62
7
  6
CONTINUOUS
 10
50.5660843925
 20
222.6339435747
 11
50.4750311054
 21
222.6536244234
  0
LINE
  5
4A0
100
AcDbEntity
  8
0
100
AcDbLine
 62
7
  6
CONTINUOUS
 10
50.7398491908
 20
222.6339435747
 11
50.6487959037
 21
222.6536244234
  0
LWPOLYLINE
  5
4A1
100
AcDbEntity
  8
0
100
AcDbPolyline
 62
7
  6
CONTINUOUS
 90
15
 70
0
 10
56.0656069182
 20
228.3170235085
 10
56.0898650649
 20
228.3046542487
 10
56.1202330524
 20
228.2870380359
 10
56.1567518501
 20
228.2633330191
 10
56.1992368788
 20
228.2328164416
 10
56.2475669708
 20
228.1947153508
 10
56.3013221828
 20
228.1484951729
 10
56.3601953549
 20
228.0935571933
 10
56.4236134028
 20
228.0295793232
 10
56.491024314
 20
227.9562856258
 10
56.561872855
 20
227.8734574903
 10
56.6355895804
 20
227.7809400275
 10
56.7115149674
 20
227.6787466979
 10
56.7890223979
 20
227.566910215
 10
56.8673241459
 20
227.4457733724
  0
LINE
  5
4A2
100
AcDbEntity
  8
0
100
AcDbLine
 62
7
  6
CONTINUOUS
 10
88.8720930233
 20
219.9238372093
 11
87.6941079489
 21
219.9238372093
  0
LINE
  5
4A3
100
AcDbEntity
  8
0
100
AcDbLine
 62
7
  6
CONTINUOUS
 10
54.8720930233
 20
219.9238372093
 11
56.0628136419
 21
219.9238372093
  0
LINE
  5
4A4
100
AcDbEntity
  8
0
100
AcDbLine
 62
7
  6
CONTINUOUS
 10
48.1296549537
 20
222.0238372093
 11
47.9558901554
 21
222.0238372093
  0
LINE
  5
4A5
100
AcDbEntity
  8
0
100
AcDbLine
 62
7
  6
CONTINUOUS
 10
48.3049277487
 20
222.0238372093
 11
48.5545703007
 21
222.0238372093
  0
LINE
  5
4A6
100
AcDbEntity
  8
0
100
AcDbLine
 62
7
  6
CONTINUOUS
 10
48.6539653637
 20
222.0238372093
 11
48.9036078722
 21
222.0238372093
  0
LINE
  5
4A7
100
AcDbEntity
  8
0
100
AcDbLine
 62
7
  6
CONTINUOUS
 10
49.0030029352
 20
222.0238372093
 11
49.9051941171
 21
222.0238372093
  0
LINE
  5
4A8
100
AcDbEntity
  8
0
100
AcDbLine
 62
7
  6
CONTINUOUS
 10
50.00458918
 20
222.0238372093
 11
50.2542316018
 21
222.0238372093
  0
LINE
  5
4A9
100
AcDbEntity
  8
0
100
AcDbLine
 62
7
  6
CONTINUOUS
 10
50.4143289719
 20
222.0238372093
 11
50.6791470573
 21
222.0238372093
  0
LINE
  5
4AA
100
AcDbEntity
  8
0
100
AcDbLine
 62
7
  6
CONTINUOUS
 10
50.7702003444
 20
222.0435180597
 11
50.5964355461
 21
222.0435180597
  0
LINE
  5
4AB
100
AcDbEntity
  8
0
100
AcDbLine
 62
7
  6
CONTINUOUS
 10
49.2533994747
 20
222.0435180597
 11
49.1699339326
 21
222.0435180597
  0
LINE
  5
4AC
100
AcDbEntity
  8
0
100
AcDbLine
 62
7
  6
CONTINUOUS
 10
48.2358837959
 20
222.0435180597
 11
48.0621189976
 21
222.0435180597
  0
LINE
  5
4AD
100
AcDbEntity
  8
0
100
AcDbLine
 62
7
  6
CONTINUOUS
 10
50.8309024779
 20
222.0828797623
 11
50.6571376796
 21
222.0828797623
  0
LINE
  5
4AE
100
AcDbEntity
  8
0
100
AcDbLine
 62
7
  6
CONTINUOUS
 10
49.2407532331
 20
222.0828797623
 11
49.2154605761
 21
222.0828797623
  0
LINE
  5
4AF
100
AcDbEntity
  8
0
100
AcDbLine
 62
7
  6
CONTINUOUS
 10
49.4582694575
 20
222.0828797623
 11
49.3216895269
 21
222.0828797623
  0
LINE
  5
4B0
100
AcDbEntity
  8
0
100
AcDbLine
 62
7
  6
CONTINUOUS
 10
48.2965859728
 20
222.0828797623
 11
48.1228211745
 21
222.0828797623
  0
LINE
  5
4B1
100
AcDbEntity
  8
0
100
AcDbLine
 62
7
  6
CONTINUOUS
 10
50.505382259
 20
222.1025606111
 11
50.4143289719
 21
222.1025606111
  0
LINE
  5
4B2
100
AcDbEntity
  8
0
100
AcDbLine
 62
7
  6
CONTINUOUS
 10
49.0940562223
 20
222.1025606111
 11
49.0030029352
 21
222.1025606111
  0
LINE
  5
4B3
100
AcDbEntity
  8
0
100
AcDbLine
 62
7
  6
CONTINUOUS
 10
50.4970404831
 20
222.1222414667
 11
50.3232756848
 21
222.1222414667
  0
LINE
  5
4B4
100
AcDbEntity
  8
0
100
AcDbLine
 62
7
  6
CONTINUOUS
 10
50.8612534578
 20
222.1419223154
 11
50.6874886595
 21
222.1419223154
  0
LINE
  5
4B5
100
AcDbEntity
  8
0
100
AcDbLine
 62
7
  6
CONTINUOUS
 10
50.4666893295
 20
222.1419223154
 11
50.2929245312
 21
222.1419223154
  0
LINE
  5
4B6
100
AcDbEntity
  8
0
100
AcDbLine
 62
7
  6
CONTINUOUS
 10
49.1160656
 20
222.1419223154
 11
48.9423008017
 21
222.1419223154
  0
LINE
  5
4B7
100
AcDbEntity
  8
0
100
AcDbLine
 62
7
  6
CONTINUOUS
 10
48.3049277487
 20
222.1419223154
 11
48.1683478181
 21
222.1419223154
  0
LINE
  5
4B8
100
AcDbEntity
  8
0
100
AcDbLine
 62
7
  6
CONTINUOUS
 10
48.0234261224
 20
222.1419223154
 11
47.8496613241
 21
222.1419223154
  0
LINE
  5
4B9
100
AcDbEntity
  8
0
100
AcDbLine
 62
7
  6
CONTINUOUS
 10
50.8612534578
 20
222.1812840128
 11
50.6874886595
 21
222.1812840128
  0
LINE
  5
4BA
100
AcDbEntity
  8
0
100
AcDbLine
 62
7
  6
CONTINUOUS
 10
50.4515138396
 20
222.1812840128
 11
50.2018712442
 21
222.1812840128
  0
LINE
  5
4BB
100
AcDbEntity
  8
0
100
AcDbLine
 62
7
  6
CONTINUOUS
 10
49.4582694575
 20
222.1812840128
 11
49.3065138632
 21
222.1812840128
  0
LINE
  5
4BC
100
AcDbEntity
  8
0
100
AcDbLine
 62
7
  6
CONTINUOUS
 10
49.1008900232
 20
222.1812840128
 11
48.9271252249
 21
222.1812840128
  0
LINE
  5
4BD
100
AcDbEntity
  8
0
100
AcDbLine
 62
7
  6
CONTINUOUS
 10
47.9778994788
 20
222.2009648753
 11
47.8041346806
 21
222.2009648753
  0
LINE
  5
4BE
100
AcDbEntity
  8
0
100
AcDbLine
 62
7
  6
CONTINUOUS
 10
49.1008900232
 20
222.220645724
 11
48.9271252249
 21
222.220645724
  0
LINE
  5
4BF
100
AcDbEntity
  8
0
100
AcDbLine
 62
7
  6
CONTINUOUS
 10
48.3049277487
 20
222.220645724
 11
48.1076456411
 21
222.220645724
  0
LINE
  5
4C0
100
AcDbEntity
  8
0
100
AcDbLine
 62
7
  6
CONTINUOUS
 10
50.8309024779
 20
222.2600074215
 11
50.6571376796
 21
222.2600074215
  0
LINE
  5
4C1
100
AcDbEntity
  8
0
100
AcDbLine
 62
7
  6
CONTINUOUS
 10
49.1160656
 20
222.2796882702
 11
48.9423008017
 21
222.2796882702
  0
LINE
  5
4C2
100
AcDbEntity
  8
0
100
AcDbLine
 62
7
  6
CONTINUOUS
 10
47.947548385
 20
222.2993691189
 11
47.7737835867
 21
222.2993691189
  0
LINE
  5
4C3
100
AcDbEntity
  8
0
100
AcDbLine
 62
7
  6
CONTINUOUS
 10
50.7702003444
 20
222.3190499676
 11
50.5964355461
 21
222.3190499676
  0
LINE
  5
4C4
100
AcDbEntity
  8
0
100
AcDbLine
 62
7
  6
CONTINUOUS
 10
49.1464166668
 20
222.3190499676
 11
48.9726518685
 21
222.3190499676
  0
LINE
  5
4C5
100
AcDbEntity
  8
0
100
AcDbLine
 62
7
  6
CONTINUOUS
 10
49.1767677335
 20
222.3387308164
 11
49.0030029352
 21
222.3387308164
  0
LINE
  5
4C6
100
AcDbEntity
  8
0
100
AcDbLine
 62
7
  6
CONTINUOUS
 10
47.947548385
 20
222.3584116651
 11
47.7737835867
 21
222.3584116651
  0
LINE
  5
4C7
100
AcDbEntity
  8
0
100
AcDbLine
 62
7
  6
CONTINUOUS
 10
49.0637051556
 20
222.3584116651
 11
49.2306362398
 21
222.3584116651
  0
LINE
  5
4C8
100
AcDbEntity
  8
0
100
AcDbLine
 62
7
  6
CONTINUOUS
 10
50.2524564328
 20
222.3977733901
 11
50.0804668035
 21
222.3977733901
  0
LINE
  5
4C9
100
AcDbEntity
  8
0
100
AcDbLine
 62
7
  6
CONTINUOUS
 10
50.5122159731
 20
222.4174542388
 11
50.3384511748
 21
222.4174542388
  0
LINE
  5
4CA
100
AcDbEntity
  8
0
100
AcDbLine
 62
7
  6
CONTINUOUS
 10
48.9036078722
 20
222.4174542388
 11
48.729843074
 21
222.4174542388
  0
LINE
  5
4CB
100
AcDbEntity
  8
0
100
AcDbLine
 62
7
  6
CONTINUOUS
 10
49.2306362398
 20
222.4371350875
 11
49.0637051556
 21
222.4371350875
  0
LINE
  5
4CC
100
AcDbEntity
  8
0
100
AcDbLine
 62
7
  6
CONTINUOUS
 10
47.9627239346
 20
222.4371350875
 11
47.7889591363
 21
222.4371350875
  0
LINE
  5
4CD
100
AcDbEntity
  8
0
100
AcDbLine
 62
7
  6
CONTINUOUS
 10
50.4666893295
 20
222.4568159362
 11
50.2929245312
 21
222.4568159362
  0
LINE
  5
4CE
100
AcDbEntity
  8
0
100
AcDbLine
 62
7
  6
CONTINUOUS
 10
48.1076456411
 20
222.4568159362
 11
48.3049277487
 21
222.4568159362
  0
LINE
  5
4CF
100
AcDbEntity
  8
0
100
AcDbLine
 62
7
  6
CONTINUOUS
 10
49.9051941171
 20
222.4764967849
 11
49.7314293188
 21
222.4764967849
  0
LINE
  5
4D0
100
AcDbEntity
  8
0
100
AcDbLine
 62
7
  6
CONTINUOUS
 10
48.5545703007
 20
222.4764967849
 11
48.3808055024
 21
222.4764967849
  0
LINE
  5
4D1
100
AcDbEntity
  8
0
100
AcDbLine
 62
7
  6
CONTINUOUS
 10
47.9778994788
 20
222.4764967849
 11
47.8041346806
 21
222.4764967849
  0
LINE
  5
4D2
100
AcDbEntity
  8
0
100
AcDbLine
 62
7
  6
CONTINUOUS
 10
50.4515138396
 20
222.4961776337
 11
50.2777490413
 21
222.4961776337
  0
LINE
  5
4D3
100
AcDbEntity
  8
0
100
AcDbLine
 62
7
  6
CONTINUOUS
 10
50.2018712442
 20
222.4961776337
 11
50.0652913135
 21
222.4961776337
  0
LINE
  5
4D4
100
AcDbEntity
  8
0
100
AcDbLine
 62
7
  6
CONTINUOUS
 10
49.4582694575
 20
222.4961776337
 11
49.3065138632
 21
222.4961776337
  0
LINE
  5
4D5
100
AcDbEntity
  8
0
100
AcDbLine
 62
7
  6
CONTINUOUS
 10
48.8512475146
 20
222.4961776337
 11
49.1008900232
 21
222.4961776337
  0
LINE
  5
4D6
100
AcDbEntity
  8
0
100
AcDbLine
 62
7
  6
CONTINUOUS
 10
50.6116110361
 20
222.4961776337
 11
50.8612534578
 21
222.4961776337
  0
LINE
  5
4D7
100
AcDbEntity
  8
0
100
AcDbLine
 62
7
  6
CONTINUOUS
 10
49.935545097
 20
222.5158584824
 11
49.7617802987
 21
222.5158584824
  0
LINE
  5
4D8
100
AcDbEntity
  8
0
100
AcDbLine
 62
7
  6
CONTINUOUS
 10
48.8512475146
 20
222.5158584824
 11
48.714667584
 21
222.5158584824
  0
LINE
  5
4D9
100
AcDbEntity
  8
0
100
AcDbLine
 62
7
  6
CONTINUOUS
 10
48.5849214109
 20
222.5158584824
 11
48.4111566126
 21
222.5158584824
  0
LINE
  5
4DA
100
AcDbEntity
  8
0
100
AcDbLine
 62
7
  6
CONTINUOUS
 10
50.4666893295
 20
222.5355393311
 11
50.2929245312
 21
222.5355393311
  0
LINE
  5
4DB
100
AcDbEntity
  8
0
100
AcDbLine
 62
7
  6
CONTINUOUS
 10
49.1160656
 20
222.5355393311
 11
48.9423008017
 21
222.5355393311
  0
LINE
  5
4DC
100
AcDbEntity
  8
0
100
AcDbLine
 62
7
  6
CONTINUOUS
 10
48.3049277487
 20
222.5355393311
 11
48.1683478181
 21
222.5355393311
  0
LINE
  5
4DD
100
AcDbEntity
  8
0
100
AcDbLine
 62
7
  6
CONTINUOUS
 10
48.0234261224
 20
222.5355393311
 11
47.8496613241
 21
222.5355393311
  0
LINE
  5
4DE
100
AcDbEntity
  8
0
100
AcDbLine
 62
7
  6
CONTINUOUS
 10
50.4970404831
 20
222.5552201798
 11
50.3232756848
 21
222.5552201798
  0
LINE
  5
4DF
100
AcDbEntity
  8
0
100
AcDbLine
 62
7
  6
CONTINUOUS
 10
50.2119882954
 20
222.5552201798
 11
50.0501158236
 21
222.5552201798
  0
LINE
  5
4E0
100
AcDbEntity
  8
0
100
AcDbLine
 62
7
  6
CONTINUOUS
 10
49.9287113829
 20
222.5552201798
 11
49.8073069422
 21
222.5552201798
  0
LINE
  5
4E1
100
AcDbEntity
  8
0
100
AcDbLine
 62
7
  6
CONTINUOUS
 10
49.4582694575
 20
222.5552201798
 11
49.2913383733
 21
222.5552201798
  0
LINE
  5
4E2
100
AcDbEntity
  8
0
100
AcDbLine
 62
7
  6
CONTINUOUS
 10
49.1464166668
 20
222.5552201798
 11
48.9726518685
 21
222.5552201798
  0
LINE
  5
4E3
100
AcDbEntity
  8
0
100
AcDbLine
 62
7
  6
CONTINUOUS
 10
48.8588352596
 20
222.5552201798
 11
48.6994920072
 21
222.5552201798
  0
LINE
  5
4E4
100
AcDbEntity
  8
0
100
AcDbLine
 62
7
  6
CONTINUOUS
 10
48.5780876534
 20
222.5552201798
 11
48.4566832127
 21
222.5552201798
  0
LINE
  5
4E5
100
AcDbEntity
  8
0
100
AcDbLine
 62
7
  6
CONTINUOUS
 10
48.0469434425
 20
222.5552201798
 11
47.8800124234
 21
222.5552201798
  0
LINE
  5
4E6
100
AcDbEntity
  8
0
100
AcDbLine
 62
7
  6
CONTINUOUS
 10
50.8309024779
 20
222.5749010285
 11
50.6571376796
 21
222.5749010285
  0
LINE
  5
4E7
100
AcDbEntity
  8
0
100
AcDbLine
 62
7
  6
CONTINUOUS
 10
49.0333540888
 20
222.5749010285
 11
49.1244073759
 21
222.5749010285
  0
LINE
  5
4E8
100
AcDbEntity
  8
0
100
AcDbLine
 62
7
  6
CONTINUOUS
 10
50.3839778183
 20
222.5749010285
 11
50.4750311054
 21
222.5749010285
  0
LINE
  5
4E9
100
AcDbEntity
  8
0
100
AcDbLine
 62
7
  6
CONTINUOUS
 10
50.1935294683
 20
222.5945818772
 11
50.01976467
 21
222.5945818772
  0
LINE
  5
4EA
100
AcDbEntity
  8
0
100
AcDbLine
 62
7
  6
CONTINUOUS
 10
49.434752018
 20
222.5945818772
 11
49.2609872197
 21
222.5945818772
  0
LINE
  5
4EB
100
AcDbEntity
  8
0
100
AcDbLine
 62
7
  6
CONTINUOUS
 10
48.8429057387
 20
222.5945818772
 11
48.6691409405
 21
222.5945818772
  0
LINE
  5
4EC
100
AcDbEntity
  8
0
100
AcDbLine
 62
7
  6
CONTINUOUS
 10
48.2965859728
 20
222.5945818772
 11
48.1228211745
 21
222.5945818772
  0
LINE
  5
4ED
100
AcDbEntity
  8
0
100
AcDbLine
 62
7
  6
CONTINUOUS
 10
50.7853758343
 20
222.614262726
 11
50.6116110361
 21
222.614262726
  0
LINE
  5
4EE
100
AcDbEntity
  8
0
100
AcDbLine
 62
7
  6
CONTINUOUS
 10
50.7398491908
 20
222.6339435747
 11
50.5660843925
 21
222.6339435747
  0
LINE
  5
4EF
100
AcDbEntity
  8
0
100
AcDbLine
 62
7
  6
CONTINUOUS
 10
50.1480028247
 20
222.6339435747
 11
49.9742380264
 21
222.6339435747
  0
LINE
  5
4F0
100
AcDbEntity
  8
0
100
AcDbLine
 62
7
  6
CONTINUOUS
 10
49.3892253744
 20
222.6339435747
 11
49.2154605761
 21
222.6339435747
  0
LINE
  5
4F1
100
AcDbEntity
  8
0
100
AcDbLine
 62
7
  6
CONTINUOUS
 10
48.7973790952
 20
222.6339435747
 11
48.6236142969
 21
222.6339435747
  0
LINE
  5
4F2
100
AcDbEntity
  8
0
100
AcDbLine
 62
7
  6
CONTINUOUS
 10
48.2358837959
 20
222.6339435747
 11
48.0621189976
 21
222.6339435747
  0
LINE
  5
4F3
100
AcDbEntity
  8
0
100
AcDbLine
 62
7
  6
CONTINUOUS
 10
50.6487959037
 20
222.6536244234
 11
50.3839778183
 21
222.6536244234
  0
LINE
  5
4F4
100
AcDbEntity
  8
0
100
AcDbLine
 62
7
  6
CONTINUOUS
 10
50.1024761812
 20
222.6536244234
 11
49.4582694575
 21
222.6536244234
  0
LINE
  5
4F5
100
AcDbEntity
  8
0
100
AcDbLine
 62
7
  6
CONTINUOUS
 10
49.2981721742
 20
222.6536244234
 11
49.0333540888
 21
222.6536244234
  0
LINE
  5
4F6
100
AcDbEntity
  8
0
100
AcDbLine
 62
7
  6
CONTINUOUS
 10
48.7518524517
 20
222.6536244234
 11
48.517385433
 21
222.6536244234
  0
LINE
  5
4F7
100
AcDbEntity
  8
0
100
AcDbLine
 62
7
  6
CONTINUOUS
 10
48.1296549537
 20
222.6536244234
 11
47.9558901554
 21
222.6536244234
  0
LINE
  5
4F8
100
AcDbEntity
  8
0
100
AcDbLine
 62
7
  6
CONTINUOUS
 10
49.4582694575
 20
222.8504329657
 11
49.7079118792
 21
222.8504329657
  0
LINE
  5
4F9
100
AcDbEntity
  8
0
100
AcDbLine
 62
7
  6
CONTINUOUS
 10
49.7079118792
 20
222.9488372093
 11
49.4582694575
 21
222.9488372093
  0
LINE
  5
4FA
100
AcDbEntity
  8
0
100
AcDbLine
 62
7
  6
CONTINUOUS
 10
48.5545703007
 20
222.9488372093
 11
48.3049277487
 21
222.9488372093
  0
LWPOLYLINE
  5
4FB
100
AcDbEntity
  8
0
100
AcDbPolyline
 62
7
  6
CONTINUOUS
 90
3
 70
0
 10
56.0395108344
 20
228.3277847683
 10
56.0492389568
 20
228.3242139226
 10
56.0660725943
 20
228.3168035318
  0
LINE
  5
4FC
100
AcDbEntity
  8
0
100
AcDbLine
 62
7
  6
CONTINUOUS
 10
96.4975059116
 20
226.4110712176
 11
96.4483263401
 21
226.347241438
  0
LINE
  5
4FD
100
AcDbEntity
  8
0
100
AcDbLine
 62
7
  6
CONTINUOUS
 10
96.6712707099
 20
226.4110712176
 11
96.6220911384
 21
226.347241438
  0
LINE
  5
4FE
100
AcDbEntity
  8
0
100
AcDbLine
 62
7
  6
CONTINUOUS
 10
96.4975059116
 20
225.0706457114
 11
96.4483263401
 21
225.0068159318
  0
LINE
  5
4FF
100
AcDbEntity
  8
0
100
AcDbLine
 62
7
  6
CONTINUOUS
 10
96.6712707099
 20
225.0706457114
 11
96.6220911384
 21
225.0068159318
  0
LINE
  5
500
100
AcDbEntity
  8
0
100
AcDbLine
 62
7
  6
CONTINUOUS
 10
48.1282270997
 20
223.1238372093
 11
48.4102902113
 21
223.1238372093
  0
LINE
  5
501
100
AcDbEntity
  8
0
100
AcDbLine
 62
7
  6
CONTINUOUS
 10
48.5585483501
 20
223.1238372093
 11
49.5499235243
 21
223.1238372093
  0
LINE
  5
502
100
AcDbEntity
  8
0
100
AcDbLine
 62
7
  6
CONTINUOUS
 10
49.871028164
 20
223.1238372093
 11
50.8624033382
 21
223.1238372093
  0
LINE
  5
503
100
AcDbEntity
  8
0
100
AcDbLine
 62
7
  6
CONTINUOUS
 10
48.3433877249
 20
223.8238372093
 11
48.1712592247
 21
223.8238372093
  0
LINE
  5
504
100
AcDbEntity
  8
DEFAULT_1
100
AcDbLine
 62
2
  6
CENTER
 10
100.1132375277
 20
224.1238372093
 11
73.8721930233
 21
224.1238372093
  0
LINE
  5
505
100
AcDbEntity
  8
0
100
AcDbLine
 62
2
  6
CONTINUOUS
 10
72.7520930233
 20
224.1238372093
 11
70.9920930233
 21
224.1238372093
  0
LINE
  5
506
100
AcDbEntity
  8
DEFAULT_1
100
AcDbLine
 62
2
  6
CENTER
 10
42.7454235742
 20
224.1238372093
 11
69.8719930233
 21
224.1238372093
  0
LINE
  5
507
100
AcDbEntity
  8
0
100
AcDbLine
 62
7
  6
CONTINUOUS
 10
91.7106941625
 20
224.6238372093
 11
91.9828181037
 21
224.6238372093
  0
LINE
  5
508
100
AcDbEntity
  8
0
100
AcDbLine
 62
7
  6
CONTINUOUS
 10
92.1041307343
 20
224.6238372093
 11
92.3762546755
 21
224.6238372093
  0
LINE
  5
509
100
AcDbEntity
  8
0
100
AcDbLine
 62
7
  6
CONTINUOUS
 10
92.9565766712
 20
224.6238372093
 11
93.1303414695
 21
224.6238372093
  0
LINE
  5
50A
100
AcDbEntity
  8
0
100
AcDbLine
 62
7
  6
CONTINUOUS
 10
93.4811587357
 20
224.6238372093
 11
93.753282677
 21
224.6238372093
  0
LINE
  5
50B
100
AcDbEntity
  8
0
100
AcDbLine
 62
7
  6
CONTINUOUS
 10
94.7598275942
 20
224.6238372093
 11
95.0319515355
 21
224.6238372093
  0
LINE
  5
50C
100
AcDbEntity
  8
0
100
AcDbLine
 62
7
  6
CONTINUOUS
 10
95.251623309
 20
224.6238372093
 11
95.5237472503
 21
224.6238372093
  0
LINE
  5
50D
100
AcDbEntity
  8
0
100
AcDbLine
 62
7
  6
CONTINUOUS
 10
95.8089919109
 20
224.6238372093
 11
96.6056978229
 21
224.6238372093
  0
LINE
  5
50E
100
AcDbEntity
  8
0
100
AcDbLine
 62
7
  6
CONTINUOUS
 10
92.8582175283
 20
224.6876669945
 11
93.0319823266
 21
224.6876669945
  0
LINE
  5
50F
100
AcDbEntity
  8
0
100
AcDbLine
 62
7
  6
CONTINUOUS
 10
49.5913193512
 20
224.7238372093
 11
49.7634478514
 21
224.7238372093
  0
LINE
  5
510
100
AcDbEntity
  8
0
100
AcDbLine
 62
7
  6
CONTINUOUS
 10
92.7762515133
 20
224.8791563502
 11
92.9500163116
 21
224.8791563502
  0
LINE
  5
511
100
AcDbEntity
  8
0
100
AcDbLine
 62
7
  6
CONTINUOUS
 10
96.6220911384
 20
225.0068159318
 11
96.310620394
 21
225.0068159318
  0
LINE
  5
512
100
AcDbEntity
  8
0
100
AcDbLine
 62
7
  6
CONTINUOUS
 10
93.0483754545
 20
225.0068159318
 11
93.2123073907
 21
225.0068159318
  0
LINE
  5
513
100
AcDbEntity
  8
0
100
AcDbLine
 62
7
  6
CONTINUOUS
 10
92.7270719418
 20
225.0706457114
 11
92.9008367401
 21
225.0706457114
  0
LINE
  5
514
100
AcDbEntity
  8
0
100
AcDbLine
 62
7
  6
CONTINUOUS
 10
96.4975059116
 20
225.0706457114
 11
96.6712707099
 21
225.0706457114
  0
LINE
  5
515
100
AcDbEntity
  8
0
100
AcDbLine
 62
7
  6
CONTINUOUS
 10
93.0877221639
 20
225.134475491
 11
93.2614869622
 21
225.134475491
  0
LINE
  5
516
100
AcDbEntity
  8
0
100
AcDbLine
 62
7
  6
CONTINUOUS
 10
96.5302921675
 20
225.1983053153
 11
96.7040569658
 21
225.1983053153
  0
LINE
  5
517
100
AcDbEntity
  8
0
100
AcDbLine
 62
7
  6
CONTINUOUS
 10
92.6942855921
 20
225.3259648746
 11
92.8680503904
 21
225.3259648746
  0
LINE
  5
518
100
AcDbEntity
  8
0
100
AcDbLine
 62
7
  6
CONTINUOUS
 10
95.5893201373
 20
225.3897946542
 11
95.9171838221
 21
225.3897946542
  0
LINE
  5
519
100
AcDbEntity
  8
0
100
AcDbLine
 62
7
  6
CONTINUOUS
 10
96.5466854831
 20
225.3897946542
 11
96.7204502814
 21
225.3897946542
  0
LINE
  5
51A
100
AcDbEntity
  8
0
100
AcDbLine
 62
7
  6
CONTINUOUS
 10
50.8624033382
 20
225.4238372093
 11
50.322865477
 21
225.4238372093
  0
LINE
  5
51B
100
AcDbEntity
  8
0
100
AcDbLine
 62
7
  6
CONTINUOUS
 10
49.9802447748
 20
225.4238372093
 11
49.6981816631
 21
225.4238372093
  0
LINE
  5
51C
100
AcDbEntity
  8
0
100
AcDbLine
 62
7
  6
CONTINUOUS
 10
49.5499235243
 20
225.4238372093
 11
48.5585483501
 21
225.4238372093
  0
LINE
  5
51D
100
AcDbEntity
  8
0
100
AcDbLine
 62
7
  6
CONTINUOUS
 10
48.2374437104
 20
225.4238372093
 11
47.6979058492
 21
225.4238372093
  0
LINE
  5
51E
100
AcDbEntity
  8
0
100
AcDbLine
 62
7
  6
CONTINUOUS
 10
92.6778923703
 20
225.5174542135
 11
92.8516571686
 21
225.5174542135
  0
LINE
  5
51F
100
AcDbEntity
  8
0
100
AcDbLine
 62
7
  6
CONTINUOUS
 10
93.1532949571
 20
225.5174542135
 11
93.3270597554
 21
225.5174542135
  0
LINE
  5
520
100
AcDbEntity
  8
0
100
AcDbLine
 62
7
  6
CONTINUOUS
 10
50.6795168066
 20
225.5738372093
 11
50.5057520084
 21
225.5738372093
  0
LINE
  5
521
100
AcDbEntity
  8
0
100
AcDbLine
 62
7
  6
CONTINUOUS
 10
96.5466854831
 20
225.5812839931
 11
96.7204502814
 21
225.5812839931
  0
LINE
  5
522
100
AcDbEntity
  8
0
100
AcDbLine
 62
7
  6
CONTINUOUS
 10
95.9007905066
 20
225.6451137727
 11
95.6057130777
 21
225.6451137727
  0
LINE
  5
523
100
AcDbEntity
  8
0
100
AcDbLine
 62
7
  6
CONTINUOUS
 10
96.5302921675
 20
225.7727734214
 11
96.7040569658
 21
225.7727734214
  0
LINE
  5
524
100
AcDbEntity
  8
0
100
AcDbLine
 62
7
  6
CONTINUOUS
 10
92.6614992423
 20
225.836603201
 11
92.8352640406
 21
225.836603201
  0
LINE
  5
525
100
AcDbEntity
  8
0
100
AcDbLine
 62
7
  6
CONTINUOUS
 10
93.1696880851
 20
225.9004329806
 11
93.3434528834
 21
225.9004329806
  0
LINE
  5
526
100
AcDbEntity
  8
0
100
AcDbLine
 62
7
  6
CONTINUOUS
 10
96.4975059116
 20
225.9004329806
 11
96.6712707099
 21
225.9004329806
  0
LINE
  5
527
100
AcDbEntity
  8
0
100
AcDbLine
 62
7
  6
CONTINUOUS
 10
96.310620394
 20
225.9642627602
 11
96.6220911384
 21
225.9642627602
  0
LWPOLYLINE
  5
528
100
AcDbEntity
  8
0
100
AcDbPolyline
 62
7
  6
CONTINUOUS
 90
3
 70
0
 10
87.7047501762
 20
219.9198657724
 10
87.6951623889
 20
219.9233742461
 10
87.6784401289
 20
219.9307163331
  0
LINE
  5
529
100
AcDbEntity
  8
0
100
AcDbLine
 62
7
  6
CONTINUOUS
 10
92.999195883
 20
227.1131989723
 11
93.0483754545
 21
227.2408585316
  0
LINE
  5
52A
100
AcDbEntity
  8
0
100
AcDbLine
 62
7
  6
CONTINUOUS
 10
93.0877221639
 20
225.134475491
 11
93.0434590235
 21
225.0195779262
  0
LINE
  5
52B
100
AcDbEntity
  8
0
100
AcDbLine
 62
7
  6
CONTINUOUS
 10
93.2614869622
 20
225.134475491
 11
93.2123073907
 21
225.0068159318
  0
LINE
  5
52C
100
AcDbEntity
  8
0
100
AcDbLine
 62
7
  6
CONTINUOUS
 10
92.8582175283
 20
227.5600074297
 11
92.7762515133
 21
227.3685180908
  0
LINE
  5
52D
100
AcDbEntity
  8
0
100
AcDbLine
 62
7
  6
CONTINUOUS
 10
93.0319823266
 20
227.5600074297
 11
92.9500163116
 21
227.3685180908
  0
LINE
  5
52E
100
AcDbEntity
  8
0
100
AcDbLine
 62
7
  6
CONTINUOUS
 10
93.2287006125
 20
224.6876669945
 11
93.3106665337
 21
224.8791563502
  0
LWPOLYLINE
  5
52F
100
AcDbEntity
  8
0
100
AcDbPolyline
 62
7
  6
CONTINUOUS
 90
10
 70
0
 10
89.3858644624
 20
213.4400461172
 10
89.4505333173
 20
213.5522193032
 10
89.562260236
 20
213.7714566678
 10
89.6551423228
 20
213.9898317987
 10
89.7306635586
 20
214.2085223217
 10
89.7896725075
 20
214.4281607794
 10
89.8327314907
 20
214.6494938216
 10
89.8600856928
 20
214.8732847797
 10
89.8716840544
 20
215.1003108825
 10
89.8720926508
 20
215.1521556786
  0
LINE
  5
530
100
AcDbEntity
  8
0
100
AcDbLine
 62
7
  6
CONTINUOUS
 10
89.3858670603
 20
213.4400500384
 11
89.386549981
 21
213.4411889636
  0
LINE
  5
531
100
AcDbEntity
  8
0
100
AcDbLine
 62
7
  6
CONTINUOUS
 10
49.0940562223
 20
222.0238372093
 11
49.1699339326
 21
222.0435180597
  0
LINE
  5
532
100
AcDbEntity
  8
0
100
AcDbLine
 62
7
  6
CONTINUOUS
 10
50.6791470573
 20
222.0238372093
 11
50.7702003444
 21
222.0435180597
  0
LINE
  5
533
100
AcDbEntity
  8
0
100
AcDbLine
 62
7
  6
CONTINUOUS
 10
50.505382259
 20
222.0238372093
 11
50.5964355461
 21
222.0435180597
  0
LINE
  5
534
100
AcDbEntity
  8
0
100
AcDbLine
 62
7
  6
CONTINUOUS
 10
50.3839778183
 20
222.6536244234
 11
50.2929245312
 21
222.6339435747
  0
LINE
  5
535
100
AcDbEntity
  8
0
100
AcDbLine
 62
7
  6
CONTINUOUS
 10
49.0637051556
 20
222.4371350875
 11
48.9726518685
 21
222.4174542388
  0
LINE
  5
536
100
AcDbEntity
  8
0
100
AcDbLine
 62
7
  6
CONTINUOUS
 10
47.9558901554
 20
222.6536244234
 11
47.8648368792
 21
222.6339435747
  0
LINE
  5
537
100
AcDbEntity
  8
0
100
AcDbLine
 62
7
  6
CONTINUOUS
 10
48.1296549537
 20
222.0238372093
 11
48.2358837959
 21
222.0435180597
  0
LINE
  5
538
100
AcDbEntity
  8
0
100
AcDbLine
 62
7
  6
CONTINUOUS
 10
47.9558901554
 20
222.0238372093
 11
48.0621189976
 21
222.0435180597
  0
LINE
  5
539
100
AcDbEntity
  8
0
100
AcDbLine
 62
7
  6
CONTINUOUS
 10
48.0469434425
 20
222.1222414667
 11
47.940714622
 21
222.1025606111
  0
LINE
  5
53A
100
AcDbEntity
  8
0
100
AcDbLine
 62
7
  6
CONTINUOUS
 10
49.0333540888
 20
222.6536244234
 11
48.9271252249
 21
222.6339435747
  0
LINE
  5
53B
100
AcDbEntity
  8
0
100
AcDbLine
 62
7
  6
CONTINUOUS
 10
96.6220911384
 20
226.347241438
 11
96.310620394
 21
226.347241438
  0
LINE
  5
53C
100
AcDbEntity
  8
0
100
AcDbLine
 62
7
  6
CONTINUOUS
 10
93.1696880851
 20
226.347241438
 11
93.3434528834
 21
226.347241438
  0
LINE
  5
53D
100
AcDbEntity
  8
0
100
AcDbLine
 62
7
  6
CONTINUOUS
 10
92.6614992423
 20
226.4110712176
 11
92.8352640406
 21
226.4110712176
  0
LINE
  5
53E
100
AcDbEntity
  8
0
100
AcDbLine
 62
7
  6
CONTINUOUS
 10
96.4975059116
 20
226.4110712176
 11
96.6712707099
 21
226.4110712176
  0
LINE
  5
53F
100
AcDbEntity
  8
0
100
AcDbLine
 62
7
  6
CONTINUOUS
 10
96.5302921675
 20
226.5387307769
 11
96.7040569658
 21
226.5387307769
  0
LINE
  5
540
100
AcDbEntity
  8
0
100
AcDbLine
 62
7
  6
CONTINUOUS
 10
91.6123350195
 20
226.6663903361
 11
91.7860998178
 21
226.6663903361
  0
LINE
  5
541
100
AcDbEntity
  8
0
100
AcDbLine
 62
7
  6
CONTINUOUS
 10
93.4123043022
 20
226.6663903361
 11
93.5565643911
 21
226.6663903361
  0
LINE
  5
542
100
AcDbEntity
  8
0
100
AcDbLine
 62
7
  6
CONTINUOUS
 10
92.6778923703
 20
226.7302201157
 11
92.8516571686
 21
226.7302201157
  0
LINE
  5
543
100
AcDbEntity
  8
0
100
AcDbLine
 62
7
  6
CONTINUOUS
 10
93.1532949571
 20
226.7302201157
 11
93.3270597554
 21
226.7302201157
  0
LINE
  5
544
100
AcDbEntity
  8
0
100
AcDbLine
 62
7
  6
CONTINUOUS
 10
96.5466854831
 20
226.7302201157
 11
96.7204502814
 21
226.7302201157
  0
LINE
  5
545
100
AcDbEntity
  8
0
100
AcDbLine
 62
7
  6
CONTINUOUS
 10
96.5466854831
 20
226.857879675
 11
96.7204502814
 21
226.857879675
  0
LINE
  5
546
100
AcDbEntity
  8
0
100
AcDbLine
 62
7
  6
CONTINUOUS
 10
92.6942855921
 20
226.9217096334
 11
92.8680503904
 21
226.9217096334
  0
LINE
  5
547
100
AcDbEntity
  8
0
100
AcDbLine
 62
7
  6
CONTINUOUS
 10
96.5302921675
 20
227.0493691927
 11
96.7040569658
 21
227.0493691927
  0
LINE
  5
548
100
AcDbEntity
  8
0
100
AcDbLine
 62
7
  6
CONTINUOUS
 10
93.0877221639
 20
227.1131989723
 11
93.2614869622
 21
227.1131989723
  0
LINE
  5
549
100
AcDbEntity
  8
0
100
AcDbLine
 62
7
  6
CONTINUOUS
 10
91.6123350195
 20
227.1770287519
 11
91.7860998178
 21
227.1770287519
  0
LINE
  5
54A
100
AcDbEntity
  8
0
100
AcDbLine
 62
7
  6
CONTINUOUS
 10
92.7270719418
 20
227.1770287519
 11
92.9008367401
 21
227.1770287519
  0
LINE
  5
54B
100
AcDbEntity
  8
0
100
AcDbLine
 62
7
  6
CONTINUOUS
 10
93.3827995928
 20
227.1770287519
 11
93.5565643911
 21
227.1770287519
  0
LINE
  5
54C
100
AcDbEntity
  8
0
100
AcDbLine
 62
7
  6
CONTINUOUS
 10
96.4975059116
 20
227.1770287519
 11
96.6712707099
 21
227.1770287519
  0
LINE
  5
54D
100
AcDbEntity
  8
0
100
AcDbLine
 62
7
  6
CONTINUOUS
 10
93.0483754545
 20
227.2408585316
 11
93.2123073907
 21
227.2408585316
  0
LINE
  5
54E
100
AcDbEntity
  8
0
100
AcDbLine
 62
7
  6
CONTINUOUS
 10
96.310620394
 20
227.2408585316
 11
96.6220911384
 21
227.2408585316
  0
LINE
  5
54F
100
AcDbEntity
  8
0
100
AcDbLine
 62
7
  6
CONTINUOUS
 10
91.9828181037
 20
227.3046883112
 11
92.6057593112
 21
227.3046883112
  0
LINE
  5
550
100
AcDbEntity
  8
0
100
AcDbLine
 62
7
  6
CONTINUOUS
 10
94.4975366089
 20
227.3046883112
 11
94.9335923925
 21
227.3046883112
  0
LINE
  5
551
100
AcDbEntity
  8
0
100
AcDbLine
 62
7
  6
CONTINUOUS
 10
95.0319515355
 20
227.3046883112
 11
95.2942427085
 21
227.3046883112
  0
LINE
  5
552
100
AcDbEntity
  8
0
100
AcDbLine
 62
7
  6
CONTINUOUS
 10
92.7762515133
 20
227.3685180908
 11
92.9500163116
 21
227.3685180908
  0
LINE
  5
553
100
AcDbEntity
  8
0
100
AcDbLine
 62
7
  6
CONTINUOUS
 10
92.8582175283
 20
227.5600074297
 11
93.0319823266
 21
227.5600074297
  0
LINE
  5
554
100
AcDbEntity
  8
0
100
AcDbLine
 62
7
  6
CONTINUOUS
 10
91.7106941625
 20
227.6238372093
 11
92.7041184542
 21
227.6238372093
  0
LINE
  5
555
100
AcDbEntity
  8
0
100
AcDbLine
 62
7
  6
CONTINUOUS
 10
92.9565766712
 20
227.6238372093
 11
93.1303414695
 21
227.6238372093
  0
LINE
  5
556
100
AcDbEntity
  8
0
100
AcDbLine
 62
7
  6
CONTINUOUS
 10
93.4811587357
 20
227.6238372093
 11
93.753282677
 21
227.6238372093
  0
LINE
  5
557
100
AcDbEntity
  8
0
100
AcDbLine
 62
7
  6
CONTINUOUS
 10
94.4975366089
 20
227.6238372093
 11
95.2942427085
 21
227.6238372093
  0
LINE
  5
558
100
AcDbEntity
  8
0
100
AcDbLine
 62
7
  6
CONTINUOUS
 10
95.513914482
 20
227.6238372093
 11
95.8188246792
 21
227.6238372093
  0
LINE
  5
559
100
AcDbEntity
  8
0
100
AcDbLine
 62
7
  6
CONTINUOUS
 10
96.0384964527
 20
227.6238372093
 11
96.6056978229
 21
227.6238372093
  0
LINE
  5
55A
100
AcDbEntity
  8
0
100
AcDbLine
 62
7
  6
CONTINUOUS
 10
50.6795168069
 20
228.1238372093
 11
50.5057520084
 21
228.1238372093
  0
LINE
  5
55B
100
AcDbEntity
  8
0
100
AcDbLine
 62
7
  6
CONTINUOUS
 10
56.0500947086
 20
228.3238372093
 11
54.8720930233
 21
228.3238372093
  0
LINE
  5
55C
100
AcDbEntity
  8
0
100
AcDbLine
 62
7
  6
CONTINUOUS
 10
87.6811007606
 20
228.3238372093
 11
88.8720930233
 21
228.3238372093
  0
LINE
  5
55D
100
AcDbEntity
  8
0
100
AcDbLine
 62
7
  6
CONTINUOUS
 10
87.6783060291
 20
219.9307799521
 11
87.6550272255
 21
219.942636367
  0
LWPOLYLINE
  5
55E
100
AcDbEntity
  8
0
100
AcDbPolyline
 62
7
  6
CONTINUOUS
 90
13
 70
0
 10
87.6547433572
 20
219.9427905956
 10
87.6244607166
 20
219.9603251265
 10
87.5880235348
 20
219.9839393329
 10
87.5456167313
 20
220.0143560737
 10
87.4973665289
 20
220.0523441554
 10
87.4436819227
 20
220.0984470468
 10
87.3848555501
 20
220.1532786868
 10
87.3214679678
 20
220.2171580382
 10
87.2540734902
 20
220.2903615396
 10
87.1832326098
 20
220.3731039932
 10
87.1095209054
 20
220.4655337121
 10
87.0335995208
 20
220.5676347887
 10
86.9560995324
 20
220.6793669538
  0
LWPOLYLINE
  5
55F
100
AcDbEntity
  8
0
100
AcDbPolyline
 62
7
  6
CONTINUOUS
 90
9
 70
0
 10
89.8720926577
 20
233.0955187338
 10
89.8716842825
 20
233.1473495269
 10
89.860086941
 20
233.3743751585
 10
89.8327334074
 20
233.598168496
 10
89.7896743356
 20
233.8195057494
 10
89.7306645119
 20
234.0391489608
 10
89.6551419658
 20
234.2578435685
 10
89.5622586445
 20
234.4762211563
 10
89.4505317534
 20
234.695457934
  0
LINE
  5
560
100
AcDbEntity
  8
0
100
AcDbLine
 62
7
  6
CONTINUOUS
 10
89.8720930073
 20
233.0955192797
 11
89.8720930211
 21
233.0958759708
  0
LINE
  5
561
100
AcDbEntity
  8
2_FEATURE
100
AcDbLine
 62
7
  6
CONTINUOUS
 10
89.8720930233
 20
215.1529565616
 11
89.8720930233
 21
218.9238372093
  0
LINE
  5
562
100
AcDbEntity
  8
2_FEATURE
100
AcDbLine
 62
7
  6
CONTINUOUS
 10
89.8720930233
 20
229.3238372093
 11
89.8720930233
 21
233.0947178884
  0
LINE
  5
563
100
AcDbEntity
  8
0
100
AcDbLine
 62
7
  6
CONTINUOUS
 10
89.8720930211
 20
215.1517985822
 11
89.8720930073
 21
215.1521551302
  0
LINE
  5
564
100
AcDbEntity
  8
0
100
AcDbLine
 62
7
  6
CONTINUOUS
 10
92.4319945129
 20
227.3046883112
 11
92.1041307343
 21
224.6238372093
  0
LINE
  5
565
100
AcDbEntity
  8
0
100
AcDbLine
 62
7
  6
CONTINUOUS
 10
92.6057593112
 20
227.3046883112
 11
92.2778955326
 21
224.6238372093
  0
LINE
  5
566
100
AcDbEntity
  8
0
100
AcDbLine
 62
7
  6
CONTINUOUS
 10
92.9336231836
 20
226.7302201157
 11
92.999195883
 21
227.1131989723
  0
LINE
  5
567
100
AcDbEntity
  8
0
100
AcDbLine
 62
7
  6
CONTINUOUS
 10
91.7106941625
 20
227.6238372093
 11
91.6123350195
 21
227.1770287519
  0
LINE
  5
568
100
AcDbEntity
  8
0
100
AcDbLine
 62
7
  6
CONTINUOUS
 10
91.8844589607
 20
227.6238372093
 11
91.7860998178
 21
227.1770287519
  0
LINE
  5
569
100
AcDbEntity
  8
0
100
AcDbLine
 62
7
  6
CONTINUOUS
 10
91.7860998178
 20
226.6663903361
 11
91.8844589607
 21
227.1131989723
  0
LINE
  5
56A
100
AcDbEntity
  8
0
100
AcDbLine
 62
7
  6
CONTINUOUS
 10
93.4811587357
 20
227.6238372093
 11
93.3827995928
 21
227.1770287519
  0
LINE
  5
56B
100
AcDbEntity
  8
0
100
AcDbLine
 62
7
  6
CONTINUOUS
 10
93.654923534
 20
227.6238372093
 11
93.5565643911
 21
227.1770287519
  0
LINE
  5
56C
100
AcDbEntity
  8
0
100
AcDbLine
 62
7
  6
CONTINUOUS
 10
93.5565643911
 20
226.6663903361
 11
93.654923534
 21
227.1131989723
  0
LINE
  5
56D
100
AcDbEntity
  8
0
100
AcDbLine
 62
7
  6
CONTINUOUS
 10
92.7762515133
 20
227.3685180908
 11
92.7270719418
 21
227.1770287519
  0
LINE
  5
56E
100
AcDbEntity
  8
0
100
AcDbLine
 62
7
  6
CONTINUOUS
 10
92.9500163116
 20
227.3685180908
 11
92.9008367401
 21
227.1770287519
  0
LINE
  5
56F
100
AcDbEntity
  8
0
100
AcDbLine
 62
7
  6
CONTINUOUS
 10
93.3106665337
 20
224.8791563502
 11
93.3598461052
 21
225.0706457114
  0
LINE
  5
570
100
AcDbEntity
  8
0
100
AcDbLine
 62
7
  6
CONTINUOUS
 10
96.7204502814
 20
226.1557520991
 11
96.7532365373
 21
226.2195818787
  0
LINE
  5
571
100
AcDbEntity
  8
0
100
AcDbLine
 62
7
  6
CONTINUOUS
 10
86.9558981495
 20
220.6796782421
 11
86.8778050065
 21
220.800390992
  0
LINE
  5
572
100
AcDbEntity
  8
0
100
AcDbLine
 62
7
  6
CONTINUOUS
 10
86.8894522185
 20
220.7818474259
 11
86.7994712621
 21
220.9302909896
  0
LWPOLYLINE
  5
573
100
AcDbEntity
  8
0
100
AcDbPolyline
 62
7
  6
CONTINUOUS
 90
38
 70
0
 10
86.7994712621
 20
220.9302909896
 10
86.721829994
 20
221.0685720402
 10
86.6456079578
 20
221.2146113415
 10
86.5714610044
 20
221.3677772253
 10
86.5000624787
 20
221.5272402183
 10
86.4318622564
 20
221.6925047362
 10
86.3673413458
 20
221.862895884
 10
86.3068580583
 20
222.0379117169
 10
86.250759894
 20
222.2169874422
 10
86.1993476081
 20
222.3995444292
 10
86.1528939812
 20
222.5849545779
 10
86.1115842981
 20
222.7727415674
 10
86.0755972052
 20
222.9622915906
 10
86.0450012449
 20
223.1533909023
 10
86.0198714415
 20
223.3457238648
 10
86.0002618817
 20
223.5390467334
 10
85.9862120818
 20
223.7331068194
 10
85.9777556535
 20
223.9276591305
 10
85.9749068596
 20
224.122465101
 10
85.9776765442
 20
224.3172722681
 10
85.9860539827
 20
224.5118280213
 10
86.0000248944
 20
224.7058944374
 10
86.0195560414
 20
224.8992269824
 10
86.0446078741
 20
225.0915735628
 10
86.0751268615
 20
225.28269084
 10
86.1110380475
 20
225.4722639647
 10
86.1522735085
 20
225.6600794203
 10
86.1986550785
 20
225.8455247984
 10
86.2499984028
 20
226.0281244304
 10
86.3060314815
 20
226.2072514253
 10
86.3664546308
 20
226.3823278682
 10
86.4309213449
 20
226.5527896855
 10
86.4990744174
 20
226.7181357323
 10
86.5704336944
 20
226.8776904992
 10
86.6445502721
 20
227.0309588215
 10
86.7207507685
 20
227.1771085675
 10
86.7983792114
 20
227.3155064843
 10
86.8894514443
 20
227.4658257799
  0
LWPOLYLINE
  5
574
100
AcDbEntity
  8
0
100
AcDbPolyline
 62
7
  6
CONTINUOUS
 90
41
 70
0
 10
86.8439514147
 20
220.8576938433
 10
86.7918588455
 20
220.954735082
 10
86.7426641933
 20
221.0580488321
 10
86.6961843609
 20
221.1679773101
 10
86.6523400645
 20
221.2847287517
 10
86.6110662686
 20
221.408548906
 10
86.5723236914
 20
221.5396756764
 10
86.5360661454
 20
221.6784450379
 10
86.5022523383
 20
221.8252969374
 10
86.4709273898
 20
221.9803649109
 10
86.4420688347
 20
222.1441413131
 10
86.4158456017
 20
222.3160261349
 10
86.3923209077
 20
222.4956654058
 10
86.3715587907
 20
222.6824626308
 10
86.3535847772
 20
222.8758622804
 10
86.3384107813
 20
223.0750246515
 10
86.3260424595
 20
223.279121727
 10
86.3164569915
 20
223.4871988894
 10
86.3096387023
 20
223.6982579417
 10
86.3055686959
 20
223.9113297899
 10
86.3042222617
 20
224.1254066842
 10
86.305608683
 20
224.3394756743
 10
86.309718616
 20
224.552523648
 10
86.3165772968
 20
224.7635439427
 10
86.3262031818
 20
224.97156842
 10
86.3386124516
 20
225.1755999003
 10
86.3538275569
 20
225.3746849148
 10
86.3718427255
 20
225.5679963141
 10
86.3926459695
 20
225.7546957448
 10
86.4162110502
 20
225.9342278833
 10
86.442473421
 20
226.1059955304
 10
86.471369757
 20
226.2696495642
 10
86.5027308538
 20
226.4245925311
 10
86.5365801131
 20
226.57132161
 10
86.5728736505
 20
226.7099755133
 10
86.6116528721
 20
226.840992528
 10
86.6529644561
 20
226.9647086204
 10
86.6968480192
 20
227.0813610853
 10
86.7433690299
 20
227.191195198
 10
86.7926077939
 20
227.2944196681
 10
86.844748428
 20
227.3913769185
  0
LINE
  5
575
100
AcDbEntity
  8
0
100
AcDbLine
 62
7
  6
CONTINUOUS
 10
92.6778923703
 20
225.5174542135
 11
92.6942855921
 21
225.3259648746
  0
LINE
  5
576
100
AcDbEntity
  8
0
100
AcDbLine
 62
7
  6
CONTINUOUS
 10
92.8516571686
 20
225.5174542135
 11
92.8680503904
 21
225.3259648746
  0
LINE
  5
577
100
AcDbEntity
  8
0
100
AcDbLine
 62
7
  6
CONTINUOUS
 10
92.6614992423
 20
225.836603201
 11
92.6778923703
 21
225.5174542135
  0
LINE
  5
578
100
AcDbEntity
  8
0
100
AcDbLine
 62
7
  6
CONTINUOUS
 10
92.8352640406
 20
225.836603201
 11
92.8516571686
 21
225.5174542135
  0
LINE
  5
579
100
AcDbEntity
  8
0
100
AcDbLine
 62
7
  6
CONTINUOUS
 10
92.9336231836
 20
225.5174542135
 11
92.9172299618
 21
225.9004329806
  0
LINE
  5
57A
100
AcDbEntity
  8
0
100
AcDbLine
 62
7
  6
CONTINUOUS
 10
93.1532949571
 20
226.7302201157
 11
93.1696880851
 21
226.347241438
  0
LINE
  5
57B
100
AcDbEntity
  8
0
100
AcDbLine
 62
7
  6
CONTINUOUS
 10
91.6123350195
 20
227.1770287519
 11
91.6123350195
 21
226.6663903361
  0
LINE
  5
57C
100
AcDbEntity
  8
0
100
AcDbLine
 62
7
  6
CONTINUOUS
 10
91.7106941625
 20
226.6663903361
 11
91.7106941625
 21
224.6238372093
  0
LINE
  5
57D
100
AcDbEntity
  8
0
100
AcDbLine
 62
7
  6
CONTINUOUS
 10
91.7860998178
 20
227.1770287519
 11
91.7860998178
 21
226.6663903361
  0
LINE
  5
57E
100
AcDbEntity
  8
0
100
AcDbLine
 62
7
  6
CONTINUOUS
 10
91.8844589607
 20
227.1131989723
 11
91.8844589607
 21
224.6238372093
  0
LINE
  5
57F
100
AcDbEntity
  8
0
100
AcDbLine
 62
7
  6
CONTINUOUS
 10
91.9828181037
 20
224.6238372093
 11
91.9828181037
 21
227.6238372093
  0
LINE
  5
580
100
AcDbEntity
  8
0
100
AcDbLine
 62
7
  6
CONTINUOUS
 10
92.1139636198
 20
227.6238372093
 11
92.1139636198
 21
227.3046883112
  0
LINE
  5
581
100
AcDbEntity
  8
0
100
AcDbLine
 62
7
  6
CONTINUOUS
 10
92.6614992423
 20
226.4110712176
 11
92.6614992423
 21
225.836603201
  0
LINE
  5
582
100
AcDbEntity
  8
0
100
AcDbLine
 62
7
  6
CONTINUOUS
 10
92.7041184542
 20
227.3046883112
 11
92.7041184542
 21
227.6238372093
  0
LINE
  5
583
100
AcDbEntity
  8
0
100
AcDbLine
 62
7
  6
CONTINUOUS
 10
92.8352640406
 20
226.4110712176
 11
92.8352640406
 21
225.836603201
  0
LINE
  5
584
100
AcDbEntity
  8
0
100
AcDbLine
 62
7
  6
CONTINUOUS
 10
92.9172299618
 20
225.9004329806
 11
92.9172299618
 21
226.347241438
  0
LINE
  5
585
100
AcDbEntity
  8
0
100
AcDbLine
 62
7
  6
CONTINUOUS
 10
93.1696880851
 20
226.347241438
 11
93.1696880851
 21
225.9004329806
  0
LINE
  5
586
100
AcDbEntity
  8
0
100
AcDbLine
 62
7
  6
CONTINUOUS
 10
93.3434528834
 20
226.347241438
 11
93.3434528834
 21
225.9004329806
  0
LINE
  5
587
100
AcDbEntity
  8
0
100
AcDbLine
 62
7
  6
CONTINUOUS
 10
93.3827995928
 20
227.1770287519
 11
93.3827995928
 21
226.9982821848
  0
LINE
  5
588
100
AcDbEntity
  8
0
100
AcDbLine
 62
7
  6
CONTINUOUS
 10
93.4254188046
 20
225.836603201
 11
93.4254188046
 21
226.4110712176
  0
LINE
  5
589
100
AcDbEntity
  8
0
100
AcDbLine
 62
7
  6
CONTINUOUS
 10
93.4811587357
 20
226.6663903361
 11
93.4811587357
 21
224.6238372093
  0
LINE
  5
58A
100
AcDbEntity
  8
0
100
AcDbLine
 62
7
  6
CONTINUOUS
 10
93.5565643911
 20
227.1770287519
 11
93.5565643911
 21
226.6663903361
  0
LINE
  5
58B
100
AcDbEntity
  8
0
100
AcDbLine
 62
7
  6
CONTINUOUS
 10
93.654923534
 20
227.1131989723
 11
93.654923534
 21
224.6238372093
  0
LINE
  5
58C
100
AcDbEntity
  8
0
100
AcDbLine
 62
7
  6
CONTINUOUS
 10
93.753282677
 20
224.6238372093
 11
93.753282677
 21
227.6238372093
  0
LINE
  5
58D
100
AcDbEntity
  8
0
100
AcDbLine
 62
7
  6
CONTINUOUS
 10
92.9172299618
 20
226.347241438
 11
92.9336231836
 21
226.7302201157
  0
LINE
  5
58E
100
AcDbEntity
  8
0
100
AcDbLine
 62
7
  6
CONTINUOUS
 10
93.1696880851
 20
225.9004329806
 11
93.1532949571
 21
225.5174542135
  0
LINE
  5
58F
100
AcDbEntity
  8
0
100
AcDbLine
 62
7
  6
CONTINUOUS
 10
93.3434528834
 20
225.9004329806
 11
93.3270597554
 21
225.5174542135
  0
LINE
  5
590
100
AcDbEntity
  8
0
100
AcDbLine
 62
7
  6
CONTINUOUS
 10
92.6778923703
 20
226.7302201157
 11
92.6614992423
 21
226.4110712176
  0
LINE
  5
591
100
AcDbEntity
  8
0
100
AcDbLine
 62
7
  6
CONTINUOUS
 10
92.8516571686
 20
226.7302201157
 11
92.8352640406
 21
226.4110712176
  0
LINE
  5
592
100
AcDbEntity
  8
0
100
AcDbLine
 62
7
  6
CONTINUOUS
 10
93.4090256766
 20
225.5174542135
 11
93.4254188046
 21
225.836603201
  0
LINE
  5
593
100
AcDbEntity
  8
0
100
AcDbLine
 62
7
  6
CONTINUOUS
 10
92.6942855921
 20
226.9217096334
 11
92.6778923703
 21
226.7302201157
  0
LINE
  5
594
100
AcDbEntity
  8
0
100
AcDbLine
 62
7
  6
CONTINUOUS
 10
92.8680503904
 20
226.9217096334
 11
92.8516571686
 21
226.7302201157
  0
LINE
  5
595
100
AcDbEntity
  8
0
100
AcDbLine
 62
7
  6
CONTINUOUS
 10
93.3926325487
 20
225.3259648746
 11
93.4090256766
 21
225.5174542135
  0
LINE
  5
596
100
AcDbEntity
  8
0
100
AcDbLine
 62
7
  6
CONTINUOUS
 10
92.3762546755
 20
224.6238372093
 11
92.7041184542
 21
227.3046883112
  0
LINE
  5
597
100
AcDbEntity
  8
0
100
AcDbLine
 62
7
  6
CONTINUOUS
 10
92.7270719418
 20
227.1770287519
 11
92.6942855921
 21
226.9217096334
  0
LINE
  5
598
100
AcDbEntity
  8
0
100
AcDbLine
 62
7
  6
CONTINUOUS
 10
92.9008367401
 20
227.1770287519
 11
92.8680503904
 21
226.9217096334
  0
LINE
  5
599
100
AcDbEntity
  8
0
100
AcDbLine
 62
7
  6
CONTINUOUS
 10
93.3598461052
 20
225.0706457114
 11
93.3926325487
 21
225.3259648746
  0
LINE
  5
59A
100
AcDbEntity
  8
0
100
AcDbLine
 62
7
  6
CONTINUOUS
 10
93.1532949571
 20
225.5174542135
 11
93.0877221639
 21
225.134475491
  0
LINE
  5
59B
100
AcDbEntity
  8
0
100
AcDbLine
 62
7
  6
CONTINUOUS
 10
93.3270597554
 20
225.5174542135
 11
93.2614869622
 21
225.134475491
  0
LINE
  5
59C
100
AcDbEntity
  8
0
100
AcDbLine
 62
7
  6
CONTINUOUS
 10
96.5302921675
 20
226.5387307769
 11
96.4975059116
 21
226.4110712176
  0
LINE
  5
59D
100
AcDbEntity
  8
0
100
AcDbLine
 62
7
  6
CONTINUOUS
 10
96.7040569658
 20
226.5387307769
 11
96.6712707099
 21
226.4110712176
  0
LINE
  5
59E
100
AcDbEntity
  8
0
100
AcDbLine
 62
7
  6
CONTINUOUS
 10
96.5302921675
 20
225.1983053153
 11
96.4975059116
 21
225.0706457114
  0
LINE
  5
59F
100
AcDbEntity
  8
0
100
AcDbLine
 62
7
  6
CONTINUOUS
 10
96.7040569658
 20
225.1983053153
 11
96.6712707099
 21
225.0706457114
  0
LINE
  5
5A0
100
AcDbEntity
  8
0
100
AcDbLine
 62
7
  6
CONTINUOUS
 10
96.6876636503
 20
224.6876669945
 11
96.7532365373
 21
224.8791563502
  0
LINE
  5
5A1
100
AcDbEntity
  8
0
100
AcDbLine
 62
7
  6
CONTINUOUS
 10
92.8582175283
 20
224.6876669945
 11
92.9565766712
 21
224.6238372093
  0
LINE
  5
5A2
100
AcDbEntity
  8
0
100
AcDbLine
 62
7
  6
CONTINUOUS
 10
93.0319823266
 20
224.6876669945
 11
93.1303414695
 21
224.6238372093
  0
LINE
  5
5A3
100
AcDbEntity
  8
0
100
AcDbLine
 62
7
  6
CONTINUOUS
 10
93.4090256766
 20
226.7302201157
 11
93.3926325487
 21
226.9217096334
  0
LINE
  5
5A4
100
AcDbEntity
  8
0
100
AcDbLine
 62
7
  6
CONTINUOUS
 10
95.7434190238
 20
225.3897946542
 11
95.8089919109
 21
224.6238372093
  0
LINE
  5
5A5
100
AcDbEntity
  8
0
100
AcDbLine
 62
7
  6
CONTINUOUS
 10
95.666369393
 20
226.3536420807
 11
95.7270257083
 21
225.6451137727
  0
LINE
  5
5A6
100
AcDbEntity
  8
0
100
AcDbLine
 62
7
  6
CONTINUOUS
 10
95.9171838221
 20
225.3897946542
 11
95.9827567092
 21
224.6238372093
  0
LINE
  5
5A7
100
AcDbEntity
  8
0
100
AcDbLine
 62
7
  6
CONTINUOUS
 10
95.7532517921
 20
227.3685180908
 11
95.9007905066
 21
225.6451137727
  0
LINE
  5
5A8
100
AcDbEntity
  8
0
100
AcDbLine
 62
7
  6
CONTINUOUS
 10
93.4254188046
 20
226.4110712176
 11
93.4090256766
 21
226.7302201157
  0
LINE
  5
5A9
100
AcDbEntity
  8
0
100
AcDbLine
 62
7
  6
CONTINUOUS
 10
93.3270597554
 20
226.7302201157
 11
93.3434528834
 21
226.347241438
  0
LINE
  5
5AA
100
AcDbEntity
  8
0
100
AcDbLine
 62
7
  6
CONTINUOUS
 10
94.4975366089
 20
227.6238372093
 11
94.4975366089
 21
227.3046883112
  0
LINE
  5
5AB
100
AcDbEntity
  8
0
100
AcDbLine
 62
7
  6
CONTINUOUS
 10
94.6713014072
 20
227.6238372093
 11
94.6713014072
 21
227.3046883112
  0
LINE
  5
5AC
100
AcDbEntity
  8
0
100
AcDbLine
 62
7
  6
CONTINUOUS
 10
94.7598275942
 20
227.3046883112
 11
94.7598275942
 21
224.6238372093
  0
LINE
  5
5AD
100
AcDbEntity
  8
0
100
AcDbLine
 62
7
  6
CONTINUOUS
 10
94.9335923925
 20
227.3046883112
 11
94.9335923925
 21
224.6238372093
  0
LINE
  5
5AE
100
AcDbEntity
  8
0
100
AcDbLine
 62
7
  6
CONTINUOUS
 10
95.0319515355
 20
224.6238372093
 11
95.0319515355
 21
227.3046883112
  0
LINE
  5
5AF
100
AcDbEntity
  8
0
100
AcDbLine
 62
7
  6
CONTINUOUS
 10
95.2942427085
 20
227.3046883112
 11
95.2942427085
 21
227.6238372093
  0
LINE
  5
5B0
100
AcDbEntity
  8
0
100
AcDbLine
 62
7
  6
CONTINUOUS
 10
96.0384964527
 20
227.6238372093
 11
96.0384964527
 21
225.1113038549
  0
LINE
  5
5B1
100
AcDbEntity
  8
0
100
AcDbLine
 62
7
  6
CONTINUOUS
 10
96.212261251
 20
227.6238372093
 11
96.212261251
 21
224.6238372093
  0
LINE
  5
5B2
100
AcDbEntity
  8
0
100
AcDbLine
 62
7
  6
CONTINUOUS
 10
96.310620394
 20
225.0068159318
 11
96.310620394
 21
225.9642627602
  0
LINE
  5
5B3
100
AcDbEntity
  8
0
100
AcDbLine
 62
7
  6
CONTINUOUS
 10
96.310620394
 20
226.347241438
 11
96.310620394
 21
227.2408585316
  0
LINE
  5
5B4
100
AcDbEntity
  8
0
100
AcDbLine
 62
7
  6
CONTINUOUS
 10
96.5466854831
 20
226.857879675
 11
96.5466854831
 21
226.7302201157
  0
LINE
  5
5B5
100
AcDbEntity
  8
0
100
AcDbLine
 62
7
  6
CONTINUOUS
 10
96.5466854831
 20
225.5812839931
 11
96.5466854831
 21
225.3897946542
  0
LINE
  5
5B6
100
AcDbEntity
  8
0
100
AcDbLine
 62
7
  6
CONTINUOUS
 10
96.7204502814
 20
226.857879675
 11
96.7204502814
 21
226.7302201157
  0
LINE
  5
5B7
100
AcDbEntity
  8
0
100
AcDbLine
 62
7
  6
CONTINUOUS
 10
96.7204502814
 20
225.5812839931
 11
96.7204502814
 21
225.3897946542
  0
LINE
  5
5B8
100
AcDbEntity
  8
0
100
AcDbLine
 62
7
  6
CONTINUOUS
 10
96.8188094244
 20
225.3259648746
 11
96.8188094244
 21
225.6451137727
  0
LINE
  5
5B9
100
AcDbEntity
  8
0
100
AcDbLine
 62
7
  6
CONTINUOUS
 10
96.8188094244
 20
226.6663903361
 11
96.8188094244
 21
226.9217096334
  0
LINE
  5
5BA
100
AcDbEntity
  8
0
100
AcDbLine
 62
7
  6
CONTINUOUS
 10
95.6057130777
 20
225.6451137727
 11
95.7532517921
 21
227.3685180908
  0
LINE
  5
5BB
100
AcDbEntity
  8
0
100
AcDbLine
 62
7
  6
CONTINUOUS
 10
95.5237472503
 20
224.6238372093
 11
95.5893201373
 21
225.3897946542
  0
LINE
  5
5BC
100
AcDbEntity
  8
0
100
AcDbLine
 62
7
  6
CONTINUOUS
 10
96.5466854831
 20
226.7302201157
 11
96.5302921675
 21
226.5387307769
  0
LINE
  5
5BD
100
AcDbEntity
  8
0
100
AcDbLine
 62
7
  6
CONTINUOUS
 10
96.5466854831
 20
225.3897946542
 11
96.5302921675
 21
225.1983053153
  0
LINE
  5
5BE
100
AcDbEntity
  8
0
100
AcDbLine
 62
7
  6
CONTINUOUS
 10
96.7204502814
 20
226.7302201157
 11
96.7040569658
 21
226.5387307769
  0
LINE
  5
5BF
100
AcDbEntity
  8
0
100
AcDbLine
 62
7
  6
CONTINUOUS
 10
96.8024161088
 20
226.4749009972
 11
96.8188094244
 21
226.6663903361
  0
LINE
  5
5C0
100
AcDbEntity
  8
0
100
AcDbLine
 62
7
  6
CONTINUOUS
 10
96.7204502814
 20
225.3897946542
 11
96.7040569658
 21
225.1983053153
  0
LINE
  5
5C1
100
AcDbEntity
  8
0
100
AcDbLine
 62
7
  6
CONTINUOUS
 10
96.8024161088
 20
225.134475491
 11
96.8188094244
 21
225.3259648746
  0
LINE
  5
5C2
100
AcDbEntity
  8
0
100
AcDbLine
 62
7
  6
CONTINUOUS
 10
95.513914482
 20
227.6238372093
 11
95.251623309
 21
224.6238372093
  0
LINE
  5
5C3
100
AcDbEntity
  8
0
100
AcDbLine
 62
7
  6
CONTINUOUS
 10
95.6876792803
 20
227.6238372093
 11
95.4253881073
 21
224.6238372093
  0
LINE
  5
5C4
100
AcDbEntity
  8
0
100
AcDbLine
 62
7
  6
CONTINUOUS
 10
96.7532365373
 20
226.2195818787
 11
96.8024161088
 21
226.4749009972
  0
LINE
  5
5C5
100
AcDbEntity
  8
0
100
AcDbLine
 62
7
  6
CONTINUOUS
 10
96.7532365373
 20
224.8791563502
 11
96.8024161088
 21
225.134475491
  0
LINE
  5
5C6
100
AcDbEntity
  8
2_FEATURE
100
AcDbLine
 62
7
  6
CONTINUOUS
 10
87.680177912
 20
236.6238372093
 11
56.0651263735
 21
236.6238372093
  0
LINE
  5
5C7
100
AcDbEntity
  8
0
100
AcDbLine
 62
7
  6
CONTINUOUS
 10
46.2720930233
 20
236.6238372093
 11
97.4720930233
 21
236.6238372093
  0
LINE
  5
5C8
100
AcDbEntity
  8
0
100
AcDbLine
 62
7
  6
CONTINUOUS
 10
93.2287006125
 20
227.5600074297
 11
93.1303414695
 21
227.6238372093
  0
LINE
  5
5C9
100
AcDbEntity
  8
0
100
AcDbLine
 62
7
  6
CONTINUOUS
 10
93.1303414695
 20
224.9429861521
 11
93.0483754545
 21
225.0068159318
  0
LINE
  5
5CA
100
AcDbEntity
  8
0
100
AcDbLine
 62
7
  6
CONTINUOUS
 10
93.1303414695
 20
227.3046883112
 11
93.2123073907
 21
227.2408585316
  0
LINE
  5
5CB
100
AcDbEntity
  8
0
100
AcDbLine
 62
7
  6
CONTINUOUS
 10
92.7762515133
 20
224.8791563502
 11
92.8582175283
 21
224.6876669945
  0
LINE
  5
5CC
100
AcDbEntity
  8
0
100
AcDbLine
 62
7
  6
CONTINUOUS
 10
92.9500163116
 20
224.8791563502
 11
93.0319823266
 21
224.6876669945
  0
LINE
  5
5CD
100
AcDbEntity
  8
0
100
AcDbLine
 62
7
  6
CONTINUOUS
 10
93.0483754545
 20
225.0068159318
 11
92.999195883
 21
225.134475491
  0
LINE
  5
5CE
100
AcDbEntity
  8
0
100
AcDbLine
 62
7
  6
CONTINUOUS
 10
93.0434590235
 20
227.2280965371
 11
93.0877221639
 21
227.1131989723
  0
LINE
  5
5CF
100
AcDbEntity
  8
0
100
AcDbLine
 62
7
  6
CONTINUOUS
 10
93.2123073907
 20
227.2408585316
 11
93.2614869622
 21
227.1131989723
  0
LINE
  5
5D0
100
AcDbEntity
  8
0
100
AcDbLine
 62
7
  6
CONTINUOUS
 10
92.7270719418
 20
225.0706457114
 11
92.7762515133
 21
224.8791563502
  0
LINE
  5
5D1
100
AcDbEntity
  8
0
100
AcDbLine
 62
7
  6
CONTINUOUS
 10
92.9008367401
 20
225.0706457114
 11
92.9500163116
 21
224.8791563502
  0
LINE
  5
5D2
100
AcDbEntity
  8
0
100
AcDbLine
 62
7
  6
CONTINUOUS
 10
93.3598461052
 20
227.1770287519
 11
93.3106665337
 21
227.3685180908
  0
LINE
  5
5D3
100
AcDbEntity
  8
0
100
AcDbLine
 62
7
  6
CONTINUOUS
 10
92.999195883
 20
225.134475491
 11
92.9336231836
 21
225.5174542135
  0
LINE
  5
5D4
100
AcDbEntity
  8
0
100
AcDbLine
 62
7
  6
CONTINUOUS
 10
93.0877221639
 20
227.1131989723
 11
93.1532949571
 21
226.7302201157
  0
LINE
  5
5D5
100
AcDbEntity
  8
0
100
AcDbLine
 62
7
  6
CONTINUOUS
 10
93.2614869622
 20
227.1131989723
 11
93.3270597554
 21
226.7302201157
  0
LINE
  5
5D6
100
AcDbEntity
  8
0
100
AcDbLine
 62
7
  6
CONTINUOUS
 10
92.6942855921
 20
225.3259648746
 11
92.7270719418
 21
225.0706457114
  0
LINE
  5
5D7
100
AcDbEntity
  8
0
100
AcDbLine
 62
7
  6
CONTINUOUS
 10
92.8680503904
 20
225.3259648746
 11
92.9008367401
 21
225.0706457114
  0
LINE
  5
5D8
100
AcDbEntity
  8
0
100
AcDbLine
 62
7
  6
CONTINUOUS
 10
93.3926325487
 20
226.9217096334
 11
93.3598461052
 21
227.1770287519
  0
LINE
  5
5D9
100
AcDbEntity
  8
0
100
AcDbLine
 62
7
  6
CONTINUOUS
 10
96.0811158521
 20
224.6238372093
 11
95.8188246792
 21
227.6238372093
  0
LINE
  5
5DA
100
AcDbEntity
  8
0
100
AcDbLine
 62
7
  6
CONTINUOUS
 10
96.5302921675
 20
225.7727734214
 11
96.5466854831
 21
225.5812839931
  0
LINE
  5
5DB
100
AcDbEntity
  8
0
100
AcDbLine
 62
7
  6
CONTINUOUS
 10
96.5302921675
 20
227.0493691927
 11
96.5466854831
 21
226.857879675
  0
LINE
  5
5DC
100
AcDbEntity
  8
0
100
AcDbLine
 62
7
  6
CONTINUOUS
 10
96.7040569658
 20
225.7727734214
 11
96.7204502814
 21
225.5812839931
  0
LINE
  5
5DD
100
AcDbEntity
  8
0
100
AcDbLine
 62
7
  6
CONTINUOUS
 10
96.8188094244
 20
225.6451137727
 11
96.8024161088
 21
225.836603201
  0
LINE
  5
5DE
100
AcDbEntity
  8
0
100
AcDbLine
 62
7
  6
CONTINUOUS
 10
96.7040569658
 20
227.0493691927
 11
96.7204502814
 21
226.857879675
  0
LINE
  5
5DF
100
AcDbEntity
  8
0
100
AcDbLine
 62
7
  6
CONTINUOUS
 10
96.8188094244
 20
226.9217096334
 11
96.8024161088
 21
227.1131989723
  0
LINE
  5
5E0
100
AcDbEntity
  8
0
100
AcDbLine
 62
7
  6
CONTINUOUS
 10
98.4720930233
 20
235.6238372093
 11
98.4720930233
 21
217.6238372093
  0
LINE
  5
5E1
100
AcDbEntity
  8
0
100
AcDbLine
 62
7
  6
CONTINUOUS
 10
96.6876636503
 20
227.5600074297
 11
96.6056978229
 21
227.6238372093
  0
LINE
  5
5E2
100
AcDbEntity
  8
0
100
AcDbLine
 62
7
  6
CONTINUOUS
 10
96.4483263401
 20
225.9642627602
 11
96.4975059116
 21
225.9004329806
  0
LINE
  5
5E3
100
AcDbEntity
  8
0
100
AcDbLine
 62
7
  6
CONTINUOUS
 10
96.6220911384
 20
225.9642627602
 11
96.6712707099
 21
225.9004329806
  0
LINE
  5
5E4
100
AcDbEntity
  8
0
100
AcDbLine
 62
7
  6
CONTINUOUS
 10
96.4483263401
 20
227.2408585316
 11
96.4975059116
 21
227.1770287519
  0
LINE
  5
5E5
100
AcDbEntity
  8
0
100
AcDbLine
 62
7
  6
CONTINUOUS
 10
96.6220911384
 20
227.2408585316
 11
96.6712707099
 21
227.1770287519
  0
LINE
  5
5E6
100
AcDbEntity
  8
0
100
AcDbLine
 62
7
  6
CONTINUOUS
 10
89.3865500329
 20
234.8064853684
 11
89.3858671301
 21
234.8076242639
  0
LINE
  5
5E7
100
AcDbEntity
  8
0
100
AcDbLine
 62
7
  6
CONTINUOUS
 10
89.4505317534
 20
234.695457934
 11
89.3858645028
 21
234.8076282462
  0
LINE
  5
5E8
100
AcDbEntity
  8
0
100
AcDbLine
 62
7
  6
CONTINUOUS
 10
96.7532365373
 20
226.0919223195
 11
96.7204502814
 21
226.1557520991
  0
LINE
  5
5E9
100
AcDbEntity
  8
0
100
AcDbLine
 62
7
  6
CONTINUOUS
 10
93.3106665337
 20
227.3685180908
 11
93.2287006125
 21
227.5600074297
  0
LINE
  5
5EA
100
AcDbEntity
  8
0
100
AcDbLine
 62
7
  6
CONTINUOUS
 10
96.7532365373
 20
227.3685180908
 11
96.6876636503
 21
227.5600074297
  0
LINE
  5
5EB
100
AcDbEntity
  8
0
100
AcDbLine
 62
7
  6
CONTINUOUS
 10
96.4975059116
 20
225.9004329806
 11
96.5302921675
 21
225.7727734214
  0
LINE
  5
5EC
100
AcDbEntity
  8
0
100
AcDbLine
 62
7
  6
CONTINUOUS
 10
96.6712707099
 20
225.9004329806
 11
96.7040569658
 21
225.7727734214
  0
LINE
  5
5ED
100
AcDbEntity
  8
0
100
AcDbLine
 62
7
  6
CONTINUOUS
 10
96.4975059116
 20
227.1770287519
 11
96.5302921675
 21
227.0493691927
  0
LINE
  5
5EE
100
AcDbEntity
  8
0
100
AcDbLine
 62
7
  6
CONTINUOUS
 10
96.6712707099
 20
227.1770287519
 11
96.7040569658
 21
227.0493691927
  0
LINE
  5
5EF
100
AcDbEntity
  8
0
100
AcDbLine
 62
7
  6
CONTINUOUS
 10
96.8024161088
 20
225.836603201
 11
96.7532365373
 21
226.0919223195
  0
LINE
  5
5F0
100
AcDbEntity
  8
0
100
AcDbLine
 62
7
  6
CONTINUOUS
 10
96.8024161088
 20
227.1131989723
 11
96.7532365373
 21
227.3685180908
  0
LWPOLYLINE
  5
5F1
100
AcDbEntity
  8
0
100
AcDbPolyline
 62
7
  6
CONTINUOUS
 90
48
 70
0
 10
105.2220927953
 20
216.315837186
 10
105.221017395
 20
216.3687358387
 10
105.2151655109
 20
216.4499425447
 10
105.2046681966
 20
216.528095424
 10
105.1899865762
 20
216.6031405459
 10
105.1715517639
 20
216.6750118236
 10
105.1497610471
 20
216.7436827409
 10
105.1249773918
 20
216.8091594543
 10
105.0975297134
 20
216.8714744898
 10
105.0677083264
 20
216.9306912209
 10
105.0357910573
 20
216.9868521734
 10
105.0020123761
 20
217.0400414923
 10
104.9666260315
 20
217.090285623
 10
104.929855065
 20
217.1376436381
 10
104.8919088277
 20
217.1821782972
 10
104.8529809819
 20
217.2239593097
 10
104.8132336823
 20
217.2630777528
 10
104.7728181189
 20
217.2996215175
 10
104.7318535041
 20
217.3336939317
 10
104.6904454354
 20
217.3653946458
 10
104.648683714
 20
217.3948218593
 10
104.6066372909
 20
217.4220751385
 10
104.5643847907
 20
217.4472361921
 10
104.5219079466
 20
217.4704301174
 10
104.4794936595
 20
217.4916139123
 10
104.4373233255
 20
217.5108242546
 10
104.395692648
 20
217.5280660623
 10
104.3548751758
 20
217.5433820583
 10
104.3151094947
 20
217.5568497289
 10
104.2766400199
 20
217.5685611817
 10
104.2396780315
 20
217.5786321973
 10
104.2045138538
 20
217.58716966
 10
104.1710880738
 20
217.5943669225
 10
104.1394407281
 20
217.6003776772
 10
104.1094616092
 20
217.6053690293
 10
104.0810410334
 20
217.6094863596
 10
104.0541116777
 20
217.6128514896
 10
104.028533044
 20
217.6155801969
 10
104.0043220854
 20
217.6177588152
 10
103.9815120853
 20
217.61946725
 10
103.9598848972
 20
217.6207942364
 10
103.9392957214
 20
217.6218080361
 10
103.9195560542
 20
217.6225666392
 10
103.9004880059
 20
217.6231158613
 10
103.8819465462
 20
217.6234911408
 10
103.8638043988
 20
217.6237203169
 10
103.8458836604
 20
217.6238255677
 10
103.8375730977
 20
217.6238369812
  0
LINE
  5
5F2
100
AcDbEntity
  8
0
100
AcDbLine
 62
7
  6
CONTINUOUS
 10
105.2220930233
 20
216.3158392552
 11
105.2220930233
 21
212.6238372093
  0
LINE
  5
5F3
100
AcDbEntity
  8
2_FEATURE
100
AcDbLine
 62
7
  6
CONTINUOUS
 10
167.4147664721
 20
75.2337209302
 11
167.7398846907
 21
75.2337209302
  0
LINE
  5
5F4
100
AcDbEntity
  8
0
100
AcDbLine
 62
7
  6
CONTINUOUS
 10
165.9103043083
 20
126.6359918403
 11
165.9890277032
 21
126.6679515308
  0
LINE
  5
5F5
100
AcDbEntity
  8
0
100
AcDbLine
 62
7
  6
CONTINUOUS
 10
165.9496660058
 20
125.7775261986
 11
165.8709426109
 21
125.7455665081
  0
LINE
  5
5F6
100
AcDbEntity
  8
0
100
AcDbLine
 62
7
  6
CONTINUOUS
 10
165.9496660058
 20
125.6772030455
 11
165.8709426109
 21
125.645243355
  0
LINE
  5
5F7
100
AcDbEntity
  8
0
100
AcDbLine
 62
7
  6
CONTINUOUS
 10
165.6544532474
 20
125.3300912632
 11
165.5757298388
 21
125.2981317555
  0
LINE
  5
5F8
100
AcDbEntity
  8
0
100
AcDbLine
 62
7
  6
CONTINUOUS
 10
165.6544532474
 20
125.2297681101
 11
165.5757298388
 21
125.1978086025
  0
LINE
  5
5F9
100
AcDbEntity
  8
0
100
AcDbLine
 62
7
  6
CONTINUOUS
 10
165.8709426109
 20
125.4854452683
 11
165.9693468545
 21
125.5174047759
  0
LINE
  5
5FA
100
AcDbEntity
  8
0
100
AcDbLine
 62
7
  6
CONTINUOUS
 10
165.5363681344
 20
124.2390195334
 11
165.6347723849
 21
124.2709794068
  0
LINE
  5
5FB
100
AcDbEntity
  8
0
100
AcDbLine
 62
7
  6
CONTINUOUS
 10
165.6741340961
 20
127.7270635386
 11
165.5954106875
 21
127.6631442804
  0
LINE
  5
5FC
100
AcDbEntity
  8
0
100
AcDbLine
 62
7
  6
CONTINUOUS
 10
165.6741340961
 20
127.6267403855
 11
165.5954106875
 21
127.5628211274
  0
LINE
  5
5FD
100
AcDbEntity
  8
0
100
AcDbLine
 62
7
  6
CONTINUOUS
 10
165.6544532474
 20
127.4349826168
 11
165.752857491
 21
127.4989018721
  0
LINE
  5
5FE
100
AcDbEntity
  8
0
100
AcDbLine
 62
7
  6
CONTINUOUS
 10
165.9693468545
 20
126.9280727706
 11
165.9103043083
 21
126.8961131715
  0
LINE
  5
5FF
100
AcDbEntity
  8
0
100
AcDbLine
 62
7
  6
CONTINUOUS
 10
165.9693468545
 20
126.8277496175
 11
165.9103043083
 21
126.7957900184
  0
LINE
  5
600
100
AcDbEntity
  8
0
100
AcDbLine
 62
7
  6
CONTINUOUS
 10
165.5205620351
 20
124.5012383448
 11
165.5166872823
 21
124.4991409561
  0
LINE
  5
601
100
AcDbEntity
  8
0
100
AcDbLine
 62
7
  6
CONTINUOUS
 10
165.5757298388
 20
124.4307773107
 11
165.5166872823
 21
124.398817803
  0
LINE
  5
602
100
AcDbEntity
  8
0
100
AcDbLine
 62
7
  6
CONTINUOUS
 10
165.4773255814
 20
124.2070600258
 11
165.5363681344
 21
124.2390195334
  0
LINE
  5
603
100
AcDbEntity
  8
0
100
AcDbLine
 62
7
  6
CONTINUOUS
 10
165.9496660058
 20
124.2709794068
 11
166.0087085519
 21
124.3029389144
  0
LINE
  5
604
100
AcDbEntity
  8
0
100
AcDbLine
 62
7
  6
CONTINUOUS
 10
165.9496660058
 20
122.9331192306
 11
165.8512617622
 21
122.9011593573
  0
LINE
  5
605
100
AcDbEntity
  8
0
100
AcDbLine
 62
7
  6
CONTINUOUS
 10
165.9496660058
 20
122.8327960776
 11
165.8512617622
 21
122.8008362042
  0
LINE
  5
606
100
AcDbEntity
  8
0
100
AcDbLine
 62
7
  6
CONTINUOUS
 10
165.8512617622
 20
122.6410383003
 11
165.9496660058
 21
122.672997808
  0
LINE
  5
607
100
AcDbEntity
  8
DEFAULT_1
100
AcDbLine
 62
2
  6
CENTER
 10
182.0576096208
 20
93.3487209302
 11
169.5774255814
 21
93.3487209302
  0
LINE
  5
608
100
AcDbEntity
  8
0
100
AcDbLine
 62
2
  6
CONTINUOUS
 10
168.4573255814
 20
93.3487209302
 11
166.6973255814
 21
93.3487209302
  0
LINE
  5
609
100
AcDbEntity
  8
DEFAULT_1
100
AcDbLine
 62
2
  6
CENTER
 10
152.9807724114
 20
93.3487209302
 11
165.5772255814
 21
93.3487209302
  0
LINE
  5
60A
100
AcDbEntity
  8
0
100
AcDbLine
 62
7
  6
CONTINUOUS
 10
165.9693468545
 20
125.5174047759
 11
166.0087085519
 21
125.5493644664
  0
LINE
  5
60B
100
AcDbEntity
  8
0
100
AcDbLine
 62
7
  6
CONTINUOUS
 10
165.5954106875
 20
125.0380103329
 11
165.6347723849
 21
125.0699700234
  0
LINE
  5
60C
100
AcDbEntity
  8
0
100
AcDbLine
 62
7
  6
CONTINUOUS
 10
165.5166872823
 20
124.4991409561
 11
165.4773255814
 21
124.4671814485
  0
LINE
  5
60D
100
AcDbEntity
  8
0
100
AcDbLine
 62
7
  6
CONTINUOUS
 10
165.5166872823
 20
124.398817803
 11
165.4773255814
 21
124.3668582954
  0
LINE
  5
60E
100
AcDbEntity
  8
0
100
AcDbLine
 62
7
  6
CONTINUOUS
 10
165.9890277032
 20
124.5630603371
 11
165.9496660058
 21
124.5311004637
  0
LINE
  5
60F
100
AcDbEntity
  8
0
100
AcDbLine
 62
7
  6
CONTINUOUS
 10
165.9890277032
 20
124.462737184
 11
165.9496660058
 21
124.4307773107
  0
LINE
  5
610
100
AcDbEntity
  8
0
100
AcDbLine
 62
7
  6
CONTINUOUS
 10
165.6347723849
 20
122.4856842952
 11
165.5560489832
 21
122.4217649142
  0
LINE
  5
611
100
AcDbEntity
  8
0
100
AcDbLine
 62
7
  6
CONTINUOUS
 10
165.6347723849
 20
122.3853611421
 11
165.5560489832
 21
122.3214417611
  0
LINE
  5
612
100
AcDbEntity
  8
0
100
AcDbLine
 62
7
  6
CONTINUOUS
 10
165.9496660058
 20
122.4856842952
 11
165.8709426109
 21
122.4217649142
  0
LINE
  5
613
100
AcDbEntity
  8
0
100
AcDbLine
 62
7
  6
CONTINUOUS
 10
165.5954106875
 20
122.1936033649
 11
165.6347723849
 21
122.2255628725
  0
LINE
  5
614
100
AcDbEntity
  8
0
100
AcDbLine
 62
7
  6
CONTINUOUS
 10
165.9496660058
 20
122.3853611421
 11
165.8709426109
 21
122.3214417611
  0
LINE
  5
615
100
AcDbEntity
  8
0
100
AcDbLine
 62
7
  6
CONTINUOUS
 10
165.9103043083
 20
122.1936033649
 11
165.9496660058
 21
122.2255628725
  0
LINE
  5
616
100
AcDbEntity
  8
0
100
AcDbLine
 62
7
  6
CONTINUOUS
 10
165.9496660058
 20
122.672997808
 11
166.0087085519
 21
122.7049573156
  0
LINE
  5
617
100
AcDbEntity
  8
0
100
AcDbLine
 62
7
  6
CONTINUOUS
 10
165.5954106875
 20
127.6631442804
 11
165.5560489832
 21
127.5992250252
  0
LINE
  5
618
100
AcDbEntity
  8
0
100
AcDbLine
 62
7
  6
CONTINUOUS
 10
165.5954106875
 20
127.5628211274
 11
165.5560489832
 21
127.4989018721
  0
LINE
  5
619
100
AcDbEntity
  8
0
100
AcDbLine
 62
7
  6
CONTINUOUS
 10
165.5954106875
 20
127.3391037282
 11
165.6544532474
 21
127.4349826168
  0
LINE
  5
61A
100
AcDbEntity
  8
0
100
AcDbLine
 62
7
  6
CONTINUOUS
 10
165.9890277032
 20
126.6679515308
 11
166.0480702493
 21
126.7638304194
  0
LINE
  5
61B
100
AcDbEntity
  8
0
100
AcDbLine
 62
7
  6
CONTINUOUS
 10
165.6741340961
 20
121.6547338053
 11
165.6347723849
 21
121.6227742976
  0
LINE
  5
61C
100
AcDbEntity
  8
0
100
AcDbLine
 62
7
  6
CONTINUOUS
 10
165.6741340961
 20
121.5544106522
 11
165.6347723849
 21
121.5224511446
  0
LINE
  5
61D
100
AcDbEntity
  8
0
100
AcDbLine
 62
7
  6
CONTINUOUS
 10
165.9890277032
 20
121.6547338053
 11
165.9496660058
 21
121.6227742976
  0
LINE
  5
61E
100
AcDbEntity
  8
0
100
AcDbLine
 62
7
  6
CONTINUOUS
 10
165.6347723849
 20
121.3626532407
 11
165.7134957936
 21
121.4265722559
  0
LINE
  5
61F
100
AcDbEntity
  8
0
100
AcDbLine
 62
7
  6
CONTINUOUS
 10
165.9890277032
 20
121.5544106522
 11
165.9496660058
 21
121.5224511446
  0
LINE
  5
620
100
AcDbEntity
  8
0
100
AcDbLine
 62
7
  6
CONTINUOUS
 10
165.9496660058
 20
121.3626532407
 11
166.0283894006
 21
121.4265722559
  0
LINE
  5
621
100
AcDbEntity
  8
2_FEATURE
100
AcDbLine
 62
7
  6
CONTINUOUS
 10
155.0773255814
 20
80.8244406872
 11
155.0773255814
 21
102.623092374
  0
LINE
  5
622
100
AcDbEntity
  8
0
100
AcDbLine
 62
7
  6
CONTINUOUS
 10
155.0773255814
 20
80.8244491032
 11
155.0773255814
 21
143.2336963856
  0
LINE
  5
623
100
AcDbEntity
  8
0
100
AcDbLine
 62
7
  6
CONTINUOUS
 10
165.5560489832
 20
127.5992250252
 11
165.5166872823
 21
127.5033461251
  0
LINE
  5
624
100
AcDbEntity
  8
0
100
AcDbLine
 62
7
  6
CONTINUOUS
 10
165.5560489832
 20
127.4989018721
 11
165.5166872823
 21
127.403022972
  0
LINE
  5
625
100
AcDbEntity
  8
0
100
AcDbLine
 62
7
  6
CONTINUOUS
 10
166.0087085519
 20
127.0239517049
 11
165.9693468545
 21
126.9280727706
  0
LINE
  5
626
100
AcDbEntity
  8
0
100
AcDbLine
 62
7
  6
CONTINUOUS
 10
166.0087085519
 20
126.9236285518
 11
165.9693468545
 21
126.8277496175
  0
LINE
  5
627
100
AcDbEntity
  8
0
100
AcDbLine
 62
7
  6
CONTINUOUS
 10
165.5757298388
 20
125.2981317555
 11
165.5166872823
 21
125.2022528669
  0
LINE
  5
628
100
AcDbEntity
  8
0
100
AcDbLine
 62
7
  6
CONTINUOUS
 10
165.5757298388
 20
125.1978086025
 11
165.5166872823
 21
125.1019297138
  0
LINE
  5
629
100
AcDbEntity
  8
0
100
AcDbLine
 62
7
  6
CONTINUOUS
 10
165.9890277032
 20
125.8414453967
 11
165.9496660058
 21
125.7775261986
  0
LINE
  5
62A
100
AcDbEntity
  8
0
100
AcDbLine
 62
7
  6
CONTINUOUS
 10
165.9890277032
 20
125.7411222437
 11
165.9496660058
 21
125.6772030455
  0
LINE
  5
62B
100
AcDbEntity
  8
0
100
AcDbLine
 62
7
  6
CONTINUOUS
 10
166.0087085519
 20
125.5493644664
 11
166.0480702493
 21
125.6132836645
  0
LINE
  5
62C
100
AcDbEntity
  8
0
100
AcDbLine
 62
7
  6
CONTINUOUS
 10
166.0087085519
 20
124.3029389144
 11
166.0480702493
 21
124.3668582954
  0
LINE
  5
62D
100
AcDbEntity
  8
0
100
AcDbLine
 62
7
  6
CONTINUOUS
 10
165.9890277032
 20
122.9970382459
 11
165.9496660058
 21
122.9331192306
  0
LINE
  5
62E
100
AcDbEntity
  8
0
100
AcDbLine
 62
7
  6
CONTINUOUS
 10
165.9890277032
 20
122.8967150928
 11
165.9496660058
 21
122.8327960776
  0
LINE
  5
62F
100
AcDbEntity
  8
0
100
AcDbLine
 62
7
  6
CONTINUOUS
 10
166.0087085519
 20
122.7049573156
 11
166.0480702493
 21
122.7688766966
  0
LINE
  5
630
100
AcDbEntity
  8
0
100
AcDbLine
 62
7
  6
CONTINUOUS
 10
165.5166872823
 20
127.5033461251
 11
165.4970064318
 21
127.4074672365
  0
LINE
  5
631
100
AcDbEntity
  8
0
100
AcDbLine
 62
7
  6
CONTINUOUS
 10
165.5166872823
 20
127.403022972
 11
165.4970064318
 21
127.3071440834
  0
LINE
  5
632
100
AcDbEntity
  8
0
100
AcDbLine
 62
7
  6
CONTINUOUS
 10
165.5560489832
 20
127.1473459281
 11
165.5954106875
 21
127.3391037282
  0
LINE
  5
633
100
AcDbEntity
  8
0
100
AcDbLine
 62
7
  6
CONTINUOUS
 10
165.5166872823
 20
125.2022528669
 11
165.4970064318
 21
125.1383334859
  0
LINE
  5
634
100
AcDbEntity
  8
0
100
AcDbLine
 62
7
  6
CONTINUOUS
 10
165.5166872823
 20
125.1019297138
 11
165.4970064318
 21
125.0380103329
  0
LINE
  5
635
100
AcDbEntity
  8
0
100
AcDbLine
 62
7
  6
CONTINUOUS
 10
166.0480702493
 20
126.7638304194
 11
166.0874319468
 21
126.8916689071
  0
LINE
  5
636
100
AcDbEntity
  8
0
100
AcDbLine
 62
7
  6
CONTINUOUS
 10
165.5560489832
 20
124.9101719366
 11
165.5954106875
 21
125.0380103329
  0
LINE
  5
637
100
AcDbEntity
  8
0
100
AcDbLine
 62
7
  6
CONTINUOUS
 10
166.0087085519
 20
125.9053645948
 11
165.9890277032
 21
125.8414453967
  0
LINE
  5
638
100
AcDbEntity
  8
0
100
AcDbLine
 62
7
  6
CONTINUOUS
 10
166.0087085519
 20
125.8050414418
 11
165.9890277032
 21
125.7411222437
  0
LINE
  5
639
100
AcDbEntity
  8
0
100
AcDbLine
 62
7
  6
CONTINUOUS
 10
166.0087085519
 20
124.6269793523
 11
165.9890277032
 21
124.5630603371
  0
LINE
  5
63A
100
AcDbEntity
  8
0
100
AcDbLine
 62
7
  6
CONTINUOUS
 10
166.0087085519
 20
124.5266561993
 11
165.9890277032
 21
124.462737184
  0
LINE
  5
63B
100
AcDbEntity
  8
0
100
AcDbLine
 62
7
  6
CONTINUOUS
 10
165.5757298388
 20
122.1296839839
 11
165.5954106875
 21
122.1936033649
  0
LINE
  5
63C
100
AcDbEntity
  8
0
100
AcDbLine
 62
7
  6
CONTINUOUS
 10
166.0087085519
 20
123.0609576269
 11
165.9890277032
 21
122.9970382459
  0
LINE
  5
63D
100
AcDbEntity
  8
0
100
AcDbLine
 62
7
  6
CONTINUOUS
 10
166.0087085519
 20
122.9606344738
 11
165.9890277032
 21
122.8967150928
  0
LINE
  5
63E
100
AcDbEntity
  8
0
100
AcDbLine
 62
7
  6
CONTINUOUS
 10
166.0087085519
 20
121.7186531862
 11
165.9890277032
 21
121.6547338053
  0
LINE
  5
63F
100
AcDbEntity
  8
0
100
AcDbLine
 62
7
  6
CONTINUOUS
 10
166.0087085519
 20
121.6183300332
 11
165.9890277032
 21
121.5544106522
  0
LINE
  5
640
100
AcDbEntity
  8
0
100
AcDbLine
 62
7
  6
CONTINUOUS
 10
166.0480702493
 20
125.6132836645
 11
166.0874319468
 21
125.7091625532
  0
LINE
  5
641
100
AcDbEntity
  8
0
100
AcDbLine
 62
7
  6
CONTINUOUS
 10
166.0480702493
 20
124.3668582954
 11
166.0874319468
 21
124.462737184
  0
LINE
  5
642
100
AcDbEntity
  8
0
100
AcDbLine
 62
7
  6
CONTINUOUS
 10
165.5560489832
 20
122.4217649142
 11
165.5166872823
 21
122.3258860256
  0
LINE
  5
643
100
AcDbEntity
  8
0
100
AcDbLine
 62
7
  6
CONTINUOUS
 10
165.5560489832
 20
122.3214417611
 11
165.5166872823
 21
122.2255628725
  0
LINE
  5
644
100
AcDbEntity
  8
0
100
AcDbLine
 62
7
  6
CONTINUOUS
 10
166.0480702493
 20
122.7688766966
 11
166.0874319468
 21
122.8647555852
  0
LINE
  5
645
100
AcDbEntity
  8
0
100
AcDbLine
 62
7
  6
CONTINUOUS
 10
165.7134957936
 20
121.7506126939
 11
165.6741340961
 21
121.6547338053
  0
LINE
  5
646
100
AcDbEntity
  8
0
100
AcDbLine
 62
7
  6
CONTINUOUS
 10
165.8709426109
 20
122.0977244763
 11
165.9103043083
 21
122.1936033649
  0
LINE
  5
647
100
AcDbEntity
  8
0
100
AcDbLine
 62
7
  6
CONTINUOUS
 10
165.7134957936
 20
121.6502895408
 11
165.6741340961
 21
121.5544106522
  0
LINE
  5
648
100
AcDbEntity
  8
0
100
AcDbLine
 62
7
  6
CONTINUOUS
 10
166.0283894006
 20
121.4265722559
 11
166.0677510981
 21
121.5224511446
  0
LINE
  5
649
100
AcDbEntity
  8
0
100
AcDbLine
 62
7
  6
CONTINUOUS
 10
165.8709426109
 20
122.4217649142
 11
165.8119000372
 21
122.2939265179
  0
LINE
  5
64A
100
AcDbEntity
  8
0
100
AcDbLine
 62
7
  6
CONTINUOUS
 10
165.8709426109
 20
122.3214417611
 11
165.8119000372
 21
122.1936033649
  0
LINE
  5
64B
100
AcDbEntity
  8
0
100
AcDbLine
 62
7
  6
CONTINUOUS
 10
165.7134957936
 20
121.4265722559
 11
165.7725383397
 21
121.5544106522
  0
LINE
  5
64C
100
AcDbEntity
  8
0
100
AcDbLine
 62
7
  6
CONTINUOUS
 10
163.3773255814
 20
99.5343346663
 11
163.3773255814
 21
86.9331071942
  0
LINE
  5
64D
100
AcDbEntity
  8
0
100
AcDbLine
 62
7
  6
CONTINUOUS
 10
166.0227730968
 20
127.1838270806
 11
166.0087085519
 21
127.0239517049
  0
LINE
  5
64E
100
AcDbEntity
  8
0
100
AcDbLine
 62
7
  6
CONTINUOUS
 10
166.0283894006
 20
127.1473459281
 11
166.0087085519
 21
126.9236285518
  0
LINE
  5
64F
100
AcDbEntity
  8
0
100
AcDbLine
 62
7
  6
CONTINUOUS
 10
166.0874319468
 20
126.8916689071
 11
166.1071127955
 21
127.1153863291
  0
LINE
  5
650
100
AcDbEntity
  8
0
100
AcDbLine
 62
7
  6
CONTINUOUS
 10
165.4970064318
 20
127.4074672365
 11
165.4773255814
 21
127.2157094821
  0
LINE
  5
651
100
AcDbEntity
  8
0
100
AcDbLine
 62
7
  6
CONTINUOUS
 10
165.4970064318
 20
127.3071440834
 11
165.4773255814
 21
127.1153863291
  0
LINE
  5
652
100
AcDbEntity
  8
0
100
AcDbLine
 62
7
  6
CONTINUOUS
 10
165.4970064318
 20
122.230007137
 11
165.4773255814
 21
122.0382493597
  0
LINE
  5
653
100
AcDbEntity
  8
0
100
AcDbLine
 62
7
  6
CONTINUOUS
 10
165.4970064318
 20
122.1296839839
 11
165.4773255814
 21
121.9379262066
  0
LINE
  5
654
100
AcDbEntity
  8
0
100
AcDbLine
 62
7
  6
CONTINUOUS
 10
165.5560489832
 20
121.9379262066
 11
165.5757298388
 21
122.1296839839
  0
LINE
  5
655
100
AcDbEntity
  8
0
100
AcDbLine
 62
7
  6
CONTINUOUS
 10
166.0874319468
 20
124.462737184
 11
166.1071127955
 21
124.6544947784
  0
LINE
  5
656
100
AcDbEntity
  8
0
100
AcDbLine
 62
7
  6
CONTINUOUS
 10
166.0283894006
 20
121.9104109635
 11
166.0087085519
 21
121.7186531862
  0
LINE
  5
657
100
AcDbEntity
  8
0
100
AcDbLine
 62
7
  6
CONTINUOUS
 10
166.0283894006
 20
121.8100878104
 11
166.0087085519
 21
121.6183300332
  0
LINE
  5
658
100
AcDbEntity
  8
0
100
AcDbLine
 62
7
  6
CONTINUOUS
 10
166.0874319468
 20
121.6183300332
 11
166.1071127955
 21
121.8100878104
  0
LINE
  5
659
100
AcDbEntity
  8
0
100
AcDbLine
 62
7
  6
CONTINUOUS
 10
165.4970064318
 20
125.1383334859
 11
165.4773255814
 21
125.0104950897
  0
LINE
  5
65A
100
AcDbEntity
  8
0
100
AcDbLine
 62
7
  6
CONTINUOUS
 10
165.4970064318
 20
125.0380103329
 11
165.4773255814
 21
124.9101719366
  0
LINE
  5
65B
100
AcDbEntity
  8
0
100
AcDbLine
 62
7
  6
CONTINUOUS
 10
166.0206669869
 20
125.9830415974
 11
166.0087085519
 21
125.9053645948
  0
LINE
  5
65C
100
AcDbEntity
  8
0
100
AcDbLine
 62
7
  6
CONTINUOUS
 10
166.0283894006
 20
125.9328800209
 11
166.0087085519
 21
125.8050414418
  0
LINE
  5
65D
100
AcDbEntity
  8
0
100
AcDbLine
 62
7
  6
CONTINUOUS
 10
166.0283894006
 20
124.7548179315
 11
166.0087085519
 21
124.6269793523
  0
LINE
  5
65E
100
AcDbEntity
  8
0
100
AcDbLine
 62
7
  6
CONTINUOUS
 10
166.0283894006
 20
124.6544947784
 11
166.0087085519
 21
124.5266561993
  0
LINE
  5
65F
100
AcDbEntity
  8
0
100
AcDbLine
 62
7
  6
CONTINUOUS
 10
166.0206669869
 20
123.1386345183
 11
166.0087085519
 21
123.0609576269
  0
LINE
  5
660
100
AcDbEntity
  8
0
100
AcDbLine
 62
7
  6
CONTINUOUS
 10
166.0283894006
 20
123.08847287
 11
166.0087085519
 21
122.9606344738
  0
LINE
  5
661
100
AcDbEntity
  8
0
100
AcDbLine
 62
7
  6
CONTINUOUS
 10
165.8119000372
 20
122.2939265179
 11
165.7134957936
 21
121.7506126939
  0
LINE
  5
662
100
AcDbEntity
  8
0
100
AcDbLine
 62
7
  6
CONTINUOUS
 10
165.8119000372
 20
122.1936033649
 11
165.7134957936
 21
121.6502895408
  0
LINE
  5
663
100
AcDbEntity
  8
0
100
AcDbLine
 62
7
  6
CONTINUOUS
 10
165.7725383397
 20
121.5544106522
 11
165.8709426109
 21
122.0977244763
  0
LINE
  5
664
100
AcDbEntity
  8
0
100
AcDbLine
 62
7
  6
CONTINUOUS
 10
166.0874319468
 20
125.7091625532
 11
166.1071127955
 21
125.8050414418
  0
LINE
  5
665
100
AcDbEntity
  8
0
100
AcDbLine
 62
7
  6
CONTINUOUS
 10
165.5166872823
 20
122.3258860256
 11
165.4970064318
 21
122.230007137
  0
LINE
  5
666
100
AcDbEntity
  8
0
100
AcDbLine
 62
7
  6
CONTINUOUS
 10
165.5166872823
 20
122.2255628725
 11
165.4970064318
 21
122.1296839839
  0
LINE
  5
667
100
AcDbEntity
  8
0
100
AcDbLine
 62
7
  6
CONTINUOUS
 10
166.0874319468
 20
122.8647555852
 11
166.1071127955
 21
122.9606344738
  0
LINE
  5
668
100
AcDbEntity
  8
0
100
AcDbLine
 62
7
  6
CONTINUOUS
 10
166.0677510981
 20
121.5224511446
 11
166.0874319468
 21
121.6183300332
  0
LINE
  5
669
100
AcDbEntity
  8
0
100
AcDbLine
 62
7
  6
CONTINUOUS
 10
165.4773255814
 20
121.7461684294
 11
165.4970064318
 21
121.5544106522
  0
LINE
  5
66A
100
AcDbEntity
  8
0
100
AcDbLine
 62
7
  6
CONTINUOUS
 10
166.1071127955
 20
122.0018455876
 11
166.0874319468
 21
122.1936033649
  0
LINE
  5
66B
100
AcDbEntity
  8
0
100
AcDbLine
 62
7
  6
CONTINUOUS
 10
166.1071127955
 20
122.1021687407
 11
166.0874319468
 21
122.2939265179
  0
LINE
  5
66C
100
AcDbEntity
  8
0
100
AcDbLine
 62
7
  6
CONTINUOUS
 10
165.8906234596
 20
124.7823333575
 11
165.8709426109
 21
124.9740911347
  0
LINE
  5
66D
100
AcDbEntity
  8
0
100
AcDbLine
 62
7
  6
CONTINUOUS
 10
165.8906234596
 20
124.8826565106
 11
165.8709426109
 21
125.0744142878
  0
LINE
  5
66E
100
AcDbEntity
  8
0
100
AcDbLine
 62
7
  6
CONTINUOUS
 10
166.1071127955
 20
127.1153863291
 11
166.0874319468
 21
127.3071440834
  0
LINE
  5
66F
100
AcDbEntity
  8
0
100
AcDbLine
 62
7
  6
CONTINUOUS
 10
166.1071127955
 20
127.2157094821
 11
166.0874319468
 21
127.4074672365
  0
LINE
  5
670
100
AcDbEntity
  8
0
100
AcDbLine
 62
7
  6
CONTINUOUS
 10
165.4773255814
 20
127.1153863291
 11
165.4970064318
 21
126.8916689071
  0
LINE
  5
671
100
AcDbEntity
  8
0
100
AcDbLine
 62
7
  6
CONTINUOUS
 10
165.5757298388
 20
126.9236285518
 11
165.5560489832
 21
127.1473459281
  0
LINE
  5
672
100
AcDbEntity
  8
0
100
AcDbLine
 62
7
  6
CONTINUOUS
 10
165.5757298388
 20
127.0239517049
 11
165.5622269193
 21
127.1774428831
  0
LINE
  5
673
100
AcDbEntity
  8
0
100
AcDbLine
 62
7
  6
CONTINUOUS
 10
166.1071127955
 20
124.8462525556
 11
166.0874319468
 21
125.0699700234
  0
LINE
  5
674
100
AcDbEntity
  8
0
100
AcDbLine
 62
7
  6
CONTINUOUS
 10
166.1071127955
 20
124.9465757087
 11
166.0874319468
 21
125.1702931764
  0
LINE
  5
675
100
AcDbEntity
  8
0
100
AcDbLine
 62
7
  6
CONTINUOUS
 10
165.4773255814
 20
127.2157094821
 11
165.4773255814
 21
127.1153863291
  0
LINE
  5
676
100
AcDbEntity
  8
0
100
AcDbLine
 62
7
  6
CONTINUOUS
 10
165.4773255814
 20
126.480638018
 11
165.4773255814
 21
126.2205166867
  0
LINE
  5
677
100
AcDbEntity
  8
0
100
AcDbLine
 62
7
  6
CONTINUOUS
 10
165.4773255814
 20
125.7455665081
 11
165.4773255814
 21
125.4854452683
  0
LINE
  5
678
100
AcDbEntity
  8
0
100
AcDbLine
 62
7
  6
CONTINUOUS
 10
165.4773255814
 20
125.0104950897
 11
165.4773255814
 21
124.7184141594
  0
LINE
  5
679
100
AcDbEntity
  8
0
100
AcDbLine
 62
7
  6
CONTINUOUS
 10
165.4773255814
 20
124.4671814485
 11
165.4773255814
 21
124.2070600258
  0
LINE
  5
67A
100
AcDbEntity
  8
0
100
AcDbLine
 62
7
  6
CONTINUOUS
 10
165.4773255814
 20
124.0517060207
 11
165.4773255814
 21
123.7915849637
  0
LINE
  5
67B
100
AcDbEntity
  8
0
100
AcDbLine
 62
7
  6
CONTINUOUS
 10
165.4773255814
 20
123.6362309586
 11
165.4773255814
 21
123.3761095359
  0
LINE
  5
67C
100
AcDbEntity
  8
0
100
AcDbLine
 62
7
  6
CONTINUOUS
 10
165.4773255814
 20
122.9011593573
 11
165.4773255814
 21
122.6410383003
  0
LINE
  5
67D
100
AcDbEntity
  8
0
100
AcDbLine
 62
7
  6
CONTINUOUS
 10
165.4773255814
 20
122.0382493597
 11
165.4773255814
 21
121.7461684294
  0
LINE
  5
67E
100
AcDbEntity
  8
0
100
AcDbLine
 62
7
  6
CONTINUOUS
 10
165.4970064318
 20
127.4074672365
 11
165.4970064318
 21
127.3071440834
  0
LINE
  5
67F
100
AcDbEntity
  8
0
100
AcDbLine
 62
7
  6
CONTINUOUS
 10
165.4970064318
 20
125.1383334859
 11
165.4970064318
 21
125.0380103329
  0
LINE
  5
680
100
AcDbEntity
  8
0
100
AcDbLine
 62
7
  6
CONTINUOUS
 10
165.4970064318
 20
122.230007137
 11
165.4970064318
 21
122.1296839839
  0
LINE
  5
681
100
AcDbEntity
  8
0
100
AcDbLine
 62
7
  6
CONTINUOUS
 10
165.5166872823
 20
127.5033461251
 11
165.5166872823
 21
127.403022972
  0
LINE
  5
682
100
AcDbEntity
  8
0
100
AcDbLine
 62
7
  6
CONTINUOUS
 10
165.5166872823
 20
125.2022528669
 11
165.5166872823
 21
125.1019297138
  0
LINE
  5
683
100
AcDbEntity
  8
0
100
AcDbLine
 62
7
  6
CONTINUOUS
 10
165.5166872823
 20
124.4991409561
 11
165.5166872823
 21
124.398817803
  0
LINE
  5
684
100
AcDbEntity
  8
0
100
AcDbLine
 62
7
  6
CONTINUOUS
 10
165.5166872823
 20
122.3258860256
 11
165.5166872823
 21
122.2255628725
  0
LINE
  5
685
100
AcDbEntity
  8
0
100
AcDbLine
 62
7
  6
CONTINUOUS
 10
165.5560489832
 20
127.5992250252
 11
165.5560489832
 21
127.4989018721
  0
LINE
  5
686
100
AcDbEntity
  8
0
100
AcDbLine
 62
7
  6
CONTINUOUS
 10
165.5560489832
 20
122.4217649142
 11
165.5560489832
 21
122.3214417611
  0
LINE
  5
687
100
AcDbEntity
  8
0
100
AcDbLine
 62
7
  6
CONTINUOUS
 10
165.5560489832
 20
121.7461684294
 11
165.5560489832
 21
121.9379262066
  0
LINE
  5
688
100
AcDbEntity
  8
0
100
AcDbLine
 62
7
  6
CONTINUOUS
 10
165.5560489832
 20
124.7184141594
 11
165.5560489832
 21
124.9101719366
  0
LINE
  5
689
100
AcDbEntity
  8
0
100
AcDbLine
 62
7
  6
CONTINUOUS
 10
165.5757298388
 20
127.0239517049
 11
165.5757298388
 21
126.9236285518
  0
LINE
  5
68A
100
AcDbEntity
  8
0
100
AcDbLine
 62
7
  6
CONTINUOUS
 10
165.5757298388
 20
125.2981317555
 11
165.5757298388
 21
125.1978086025
  0
LINE
  5
68B
100
AcDbEntity
  8
0
100
AcDbLine
 62
7
  6
CONTINUOUS
 10
165.5757298388
 20
121.7186531862
 11
165.5757298388
 21
121.6183300332
  0
LINE
  5
68C
100
AcDbEntity
  8
0
100
AcDbLine
 62
7
  6
CONTINUOUS
 10
165.5954106875
 20
127.6631442804
 11
165.5954106875
 21
127.5628211274
  0
LINE
  5
68D
100
AcDbEntity
  8
0
100
AcDbLine
 62
7
  6
CONTINUOUS
 10
165.5954106875
 20
124.6589392257
 11
165.5954106875
 21
124.5586160726
  0
LINE
  5
68E
100
AcDbEntity
  8
0
100
AcDbLine
 62
7
  6
CONTINUOUS
 10
165.5954106875
 20
121.6547338053
 11
165.5954106875
 21
121.5544106522
  0
LINE
  5
68F
100
AcDbEntity
  8
0
100
AcDbLine
 62
7
  6
CONTINUOUS
 10
165.6150915362
 20
126.9280727706
 11
165.6150915362
 21
126.8277496175
  0
LINE
  5
690
100
AcDbEntity
  8
0
100
AcDbLine
 62
7
  6
CONTINUOUS
 10
165.6347723849
 20
121.6227742976
 11
165.6347723849
 21
121.5224511446
  0
LINE
  5
691
100
AcDbEntity
  8
0
100
AcDbLine
 62
7
  6
CONTINUOUS
 10
165.6347723849
 20
122.2255628725
 11
165.6347723849
 21
122.4856842952
  0
LINE
  5
692
100
AcDbEntity
  8
0
100
AcDbLine
 62
7
  6
CONTINUOUS
 10
165.6544532474
 20
125.3300912632
 11
165.6544532474
 21
125.2297681101
  0
LINE
  5
693
100
AcDbEntity
  8
0
100
AcDbLine
 62
7
  6
CONTINUOUS
 10
165.6544532474
 20
124.5630603371
 11
165.6544532474
 21
124.462737184
  0
LINE
  5
694
100
AcDbEntity
  8
0
100
AcDbLine
 62
7
  6
CONTINUOUS
 10
165.6741340961
 20
127.7270635386
 11
165.6741340961
 21
127.6267403855
  0
LINE
  5
695
100
AcDbEntity
  8
0
100
AcDbLine
 62
7
  6
CONTINUOUS
 10
165.6741340961
 20
121.6547338053
 11
165.6741340961
 21
121.5544106522
  0
LINE
  5
696
100
AcDbEntity
  8
0
100
AcDbLine
 62
7
  6
CONTINUOUS
 10
165.6741340961
 20
126.6359918403
 11
165.6741340961
 21
126.8961131715
  0
LINE
  5
697
100
AcDbEntity
  8
0
100
AcDbLine
 62
7
  6
CONTINUOUS
 10
165.6938149449
 20
124.5311004637
 11
165.6938149449
 21
124.4307773107
  0
LINE
  5
698
100
AcDbEntity
  8
0
100
AcDbLine
 62
7
  6
CONTINUOUS
 10
165.7134957936
 20
125.3300912632
 11
165.7134957936
 21
125.2297681101
  0
LINE
  5
699
100
AcDbEntity
  8
0
100
AcDbLine
 62
7
  6
CONTINUOUS
 10
165.7134957936
 20
121.7506126939
 11
165.7134957936
 21
121.6502895408
  0
LINE
  5
69A
100
AcDbEntity
  8
0
100
AcDbLine
 62
7
  6
CONTINUOUS
 10
165.7922191884
 20
127.759023169
 11
165.7922191884
 21
127.658700016
  0
LINE
  5
69B
100
AcDbEntity
  8
0
100
AcDbLine
 62
7
  6
CONTINUOUS
 10
165.7922191884
 20
125.266172065
 11
165.7922191884
 21
125.165848912
  0
LINE
  5
69C
100
AcDbEntity
  8
0
100
AcDbLine
 62
7
  6
CONTINUOUS
 10
165.8119000372
 20
124.7823333575
 11
165.8119000372
 21
124.4307773107
  0
LINE
  5
69D
100
AcDbEntity
  8
0
100
AcDbLine
 62
7
  6
CONTINUOUS
 10
165.8119000372
 20
122.2939265179
 11
165.8119000372
 21
122.1936033649
  0
LINE
  5
69E
100
AcDbEntity
  8
0
100
AcDbLine
 62
7
  6
CONTINUOUS
 10
165.8315809134
 20
125.2022528669
 11
165.8315809134
 21
125.1019297138
  0
LINE
  5
69F
100
AcDbEntity
  8
0
100
AcDbLine
 62
7
  6
CONTINUOUS
 10
165.8512617622
 20
122.9011593573
 11
165.8512617622
 21
122.8008362042
  0
LINE
  5
6A0
100
AcDbEntity
  8
0
100
AcDbLine
 62
7
  6
CONTINUOUS
 10
165.8709426109
 20
125.7455665081
 11
165.8709426109
 21
125.645243355
  0
LINE
  5
6A1
100
AcDbEntity
  8
0
100
AcDbLine
 62
7
  6
CONTINUOUS
 10
165.8709426109
 20
125.0744142878
 11
165.8709426109
 21
124.9740911347
  0
LINE
  5
6A2
100
AcDbEntity
  8
0
100
AcDbLine
 62
7
  6
CONTINUOUS
 10
165.8709426109
 20
122.4217649142
 11
165.8709426109
 21
122.3214417611
  0
LINE
  5
6A3
100
AcDbEntity
  8
0
100
AcDbLine
 62
7
  6
CONTINUOUS
 10
165.8906234596
 20
124.4307773107
 11
165.8906234596
 21
124.8826565106
  0
LINE
  5
6A4
100
AcDbEntity
  8
0
100
AcDbLine
 62
7
  6
CONTINUOUS
 10
165.9103043083
 20
127.7270635386
 11
165.9103043083
 21
127.6267403855
  0
LINE
  5
6A5
100
AcDbEntity
  8
0
100
AcDbLine
 62
7
  6
CONTINUOUS
 10
165.9103043083
 20
126.8961131715
 11
165.9103043083
 21
126.6359918403
  0
LINE
  5
6A6
100
AcDbEntity
  8
0
100
AcDbLine
 62
7
  6
CONTINUOUS
 10
165.9496660058
 20
125.7775261986
 11
165.9496660058
 21
125.6772030455
  0
LINE
  5
6A7
100
AcDbEntity
  8
0
100
AcDbLine
 62
7
  6
CONTINUOUS
 10
165.9496660058
 20
125.3300912632
 11
165.9496660058
 21
125.0699700234
  0
LINE
  5
6A8
100
AcDbEntity
  8
0
100
AcDbLine
 62
7
  6
CONTINUOUS
 10
165.9496660058
 20
124.5311004637
 11
165.9496660058
 21
124.4307773107
  0
LINE
  5
6A9
100
AcDbEntity
  8
0
100
AcDbLine
 62
7
  6
CONTINUOUS
 10
165.9496660058
 20
122.9331192306
 11
165.9496660058
 21
122.8327960776
  0
LINE
  5
6AA
100
AcDbEntity
  8
0
100
AcDbLine
 62
7
  6
CONTINUOUS
 10
165.9496660058
 20
122.4856842952
 11
165.9496660058
 21
122.3853611421
  0
LINE
  5
6AB
100
AcDbEntity
  8
0
100
AcDbLine
 62
7
  6
CONTINUOUS
 10
165.9496660058
 20
121.6227742976
 11
165.9496660058
 21
121.3626532407
  0
LINE
  5
6AC
100
AcDbEntity
  8
0
100
AcDbLine
 62
7
  6
CONTINUOUS
 10
165.9693468545
 20
126.9280727706
 11
165.9693468545
 21
126.8277496175
  0
LINE
  5
6AD
100
AcDbEntity
  8
0
100
AcDbLine
 62
7
  6
CONTINUOUS
 10
165.9890277032
 20
127.6631442804
 11
165.9890277032
 21
127.5628211274
  0
LINE
  5
6AE
100
AcDbEntity
  8
0
100
AcDbLine
 62
7
  6
CONTINUOUS
 10
165.9890277032
 20
125.8414453967
 11
165.9890277032
 21
125.7411222437
  0
LINE
  5
6AF
100
AcDbEntity
  8
0
100
AcDbLine
 62
7
  6
CONTINUOUS
 10
165.9890277032
 20
125.3300912632
 11
165.9890277032
 21
125.2297681101
  0
LINE
  5
6B0
100
AcDbEntity
  8
0
100
AcDbLine
 62
7
  6
CONTINUOUS
 10
165.9890277032
 20
124.5630603371
 11
165.9890277032
 21
124.462737184
  0
LINE
  5
6B1
100
AcDbEntity
  8
0
100
AcDbLine
 62
7
  6
CONTINUOUS
 10
165.9890277032
 20
122.9970382459
 11
165.9890277032
 21
122.8967150928
  0
LINE
  5
6B2
100
AcDbEntity
  8
0
100
AcDbLine
 62
7
  6
CONTINUOUS
 10
165.9890277032
 20
122.4856842952
 11
165.9890277032
 21
122.3853611421
  0
LINE
  5
6B3
100
AcDbEntity
  8
0
100
AcDbLine
 62
7
  6
CONTINUOUS
 10
165.9890277032
 20
121.6547338053
 11
165.9890277032
 21
121.5544106522
  0
LINE
  5
6B4
100
AcDbEntity
  8
0
100
AcDbLine
 62
7
  6
CONTINUOUS
 10
166.0087085519
 20
127.0239517049
 11
166.0087085519
 21
126.9236285518
  0
LINE
  5
6B5
100
AcDbEntity
  8
0
100
AcDbLine
 62
7
  6
CONTINUOUS
 10
166.0087085519
 20
125.9053645948
 11
166.0087085519
 21
125.8050414418
  0
LINE
  5
6B6
100
AcDbEntity
  8
0
100
AcDbLine
 62
7
  6
CONTINUOUS
 10
166.0087085519
 20
124.6269793523
 11
166.0087085519
 21
124.5266561993
  0
LINE
  5
6B7
100
AcDbEntity
  8
0
100
AcDbLine
 62
7
  6
CONTINUOUS
 10
166.0087085519
 20
123.0609576269
 11
166.0087085519
 21
122.9606344738
  0
LINE
  5
6B8
100
AcDbEntity
  8
0
100
AcDbLine
 62
7
  6
CONTINUOUS
 10
166.0087085519
 20
121.7186531862
 11
166.0087085519
 21
121.6183300332
  0
LINE
  5
6B9
100
AcDbEntity
  8
0
100
AcDbLine
 62
7
  6
CONTINUOUS
 10
166.0283894006
 20
127.5992250252
 11
166.0283894006
 21
127.4989018721
  0
LINE
  5
6BA
100
AcDbEntity
  8
0
100
AcDbLine
 62
7
  6
CONTINUOUS
 10
166.0283894006
 20
125.2981317555
 11
166.0283894006
 21
125.1978086025
  0
LINE
  5
6BB
100
AcDbEntity
  8
0
100
AcDbLine
 62
7
  6
CONTINUOUS
 10
166.0283894006
 20
124.8462525556
 11
166.0283894006
 21
124.6544947784
  0
LINE
  5
6BC
100
AcDbEntity
  8
0
100
AcDbLine
 62
7
  6
CONTINUOUS
 10
166.0283894006
 20
122.0018455876
 11
166.0283894006
 21
121.8100878104
  0
LINE
  5
6BD
100
AcDbEntity
  8
0
100
AcDbLine
 62
7
  6
CONTINUOUS
 10
166.0480702493
 20
126.2205166867
 11
166.0480702493
 21
126.1565973972
  0
LINE
  5
6BE
100
AcDbEntity
  8
0
100
AcDbLine
 62
7
  6
CONTINUOUS
 10
166.0480702493
 20
123.3761095359
 11
166.0480702493
 21
123.3121905206
  0
LINE
  5
6BF
100
AcDbEntity
  8
0
100
AcDbLine
 62
7
  6
CONTINUOUS
 10
166.0480702493
 20
122.4217649142
 11
166.0480702493
 21
122.3214417611
  0
LINE
  5
6C0
100
AcDbEntity
  8
0
100
AcDbLine
 62
7
  6
CONTINUOUS
 10
166.0677510981
 20
127.5033461251
 11
166.0677510981
 21
127.403022972
  0
LINE
  5
6C1
100
AcDbEntity
  8
0
100
AcDbLine
 62
7
  6
CONTINUOUS
 10
166.0677510981
 20
125.2342123745
 11
166.0677510981
 21
125.1338892215
  0
LINE
  5
6C2
100
AcDbEntity
  8
0
100
AcDbLine
 62
7
  6
CONTINUOUS
 10
166.0874319468
 20
127.4074672365
 11
166.0874319468
 21
127.3071440834
  0
LINE
  5
6C3
100
AcDbEntity
  8
0
100
AcDbLine
 62
7
  6
CONTINUOUS
 10
166.0874319468
 20
126.1610417531
 11
166.0874319468
 21
126.0607186
  0
LINE
  5
6C4
100
AcDbEntity
  8
0
100
AcDbLine
 62
7
  6
CONTINUOUS
 10
166.0874319468
 20
125.1702931764
 11
166.0874319468
 21
125.0699700234
  0
LINE
  5
6C5
100
AcDbEntity
  8
0
100
AcDbLine
 62
7
  6
CONTINUOUS
 10
166.0874319468
 20
123.3166347851
 11
166.0874319468
 21
123.216311632
  0
LINE
  5
6C6
100
AcDbEntity
  8
0
100
AcDbLine
 62
7
  6
CONTINUOUS
 10
166.0874319468
 20
122.2939265179
 11
166.0874319468
 21
122.1936033649
  0
LINE
  5
6C7
100
AcDbEntity
  8
0
100
AcDbLine
 62
7
  6
CONTINUOUS
 10
166.1071127955
 20
127.2157094821
 11
166.1071127955
 21
127.1153863291
  0
LINE
  5
6C8
100
AcDbEntity
  8
0
100
AcDbLine
 62
7
  6
CONTINUOUS
 10
166.1071127955
 20
121.8100878104
 11
166.1071127955
 21
122.1021687407
  0
LINE
  5
6C9
100
AcDbEntity
  8
0
100
AcDbLine
 62
7
  6
CONTINUOUS
 10
166.1071127955
 20
122.9606344738
 11
166.1071127955
 21
123.1887960231
  0
LINE
  5
6CA
100
AcDbEntity
  8
0
100
AcDbLine
 62
7
  6
CONTINUOUS
 10
166.1071127955
 20
123.3761095359
 11
166.1071127955
 21
123.6362309586
  0
LINE
  5
6CB
100
AcDbEntity
  8
0
100
AcDbLine
 62
7
  6
CONTINUOUS
 10
166.1071127955
 20
123.7915849637
 11
166.1071127955
 21
124.0517060207
  0
LINE
  5
6CC
100
AcDbEntity
  8
0
100
AcDbLine
 62
7
  6
CONTINUOUS
 10
166.1071127955
 20
124.6544947784
 11
166.1071127955
 21
124.9465757087
  0
LINE
  5
6CD
100
AcDbEntity
  8
0
100
AcDbLine
 62
7
  6
CONTINUOUS
 10
166.1071127955
 20
125.8050414418
 11
166.1071127955
 21
126.033203174
  0
LINE
  5
6CE
100
AcDbEntity
  8
0
100
AcDbLine
 62
7
  6
CONTINUOUS
 10
166.3039213378
 20
124.0517060207
 11
166.3039213378
 21
123.7915849637
  0
LINE
  5
6CF
100
AcDbEntity
  8
0
100
AcDbLine
 62
7
  6
CONTINUOUS
 10
166.4023255814
 20
123.7915849637
 11
166.4023255814
 21
124.0517060207
  0
LINE
  5
6D0
100
AcDbEntity
  8
0
100
AcDbLine
 62
7
  6
CONTINUOUS
 10
166.4023255814
 20
126.2205166867
 11
166.4023255814
 21
126.480638018
  0
LINE
  5
6D1
100
AcDbEntity
  8
0
100
AcDbLine
 62
7
  6
CONTINUOUS
 10
166.5773255814
 20
126.8527687205
 11
166.5773255814
 21
126.5243698492
  0
LINE
  5
6D2
100
AcDbEntity
  8
0
100
AcDbLine
 62
7
  6
CONTINUOUS
 10
166.5773255814
 20
125.9465142719
 11
166.5773255814
 21
125.0758748375
  0
LINE
  5
6D3
100
AcDbEntity
  8
0
100
AcDbLine
 62
7
  6
CONTINUOUS
 10
166.5773255814
 20
124.9949471008
 11
166.5773255814
 21
124.1243076665
  0
LINE
  5
6D4
100
AcDbEntity
  8
0
100
AcDbLine
 62
7
  6
CONTINUOUS
 10
166.5773255814
 20
123.1824382037
 11
166.5773255814
 21
122.3117987693
  0
LINE
  5
6D5
100
AcDbEntity
  8
0
100
AcDbLine
 62
7
  6
CONTINUOUS
 10
166.5773255814
 20
122.2308710326
 11
166.5773255814
 21
121.3602315983
  0
LINE
  5
6D6
100
AcDbEntity
  8
0
100
AcDbLine
 62
7
  6
CONTINUOUS
 10
167.2773255814
 20
126.2993183431
 11
167.2773255814
 21
126.6618201225
  0
LINE
  5
6D7
100
AcDbEntity
  8
DEFAULT_1
100
AcDbLine
 62
2
  6
CENTER
 10
167.5773255814
 20
158.3761563992
 11
167.5773255814
 21
117.4838209302
  0
LINE
  5
6D8
100
AcDbEntity
  8
1_AXIS
100
AcDbLine
 62
2
  6
CONTINUOUS
 10
167.5773255814
 20
144.1137209302
 11
167.5773255814
 21
142.3537209302
  0
LINE
  5
6D9
100
AcDbEntity
  8
1_AXIS
100
AcDbLine
 62
2
  6
CENTER
 10
167.5773255814
 20
138.8337209302
 11
167.5773255814
 21
137.2837209302
  0
LINE
  5
6DA
100
AcDbEntity
  8
0
100
AcDbLine
 62
2
  6
CONTINUOUS
 10
167.5773255814
 20
116.3637209302
 11
167.5773255814
 21
114.6037209302
  0
LINE
  5
6DB
100
AcDbEntity
  8
DEFAULT_1
100
AcDbLine
 62
2
  6
CENTER
 10
167.5773255814
 20
72.7173657016
 11
167.5773255814
 21
113.4836209302
  0
LINE
  5
6DC
100
AcDbEntity
  8
1_AXIS
100
AcDbLine
 62
2
  6
CENTER
 10
167.5773255814
 20
147.6337209302
 11
167.5773255814
 21
149.1837209302
  0
LINE
  5
6DD
100
AcDbEntity
  8
0
100
AcDbLine
 62
7
  6
CONTINUOUS
 10
168.1773255814
 20
123.6711804422
 11
168.1773255814
 21
123.3086786627
  0
LINE
  5
6DE
100
AcDbEntity
  8
0
100
AcDbLine
 62
7
  6
CONTINUOUS
 10
168.8773255814
 20
121.3602315983
 11
168.8773255814
 21
122.2308710326
  0
LINE
  5
6DF
100
AcDbEntity
  8
0
100
AcDbLine
 62
7
  6
CONTINUOUS
 10
168.8773255814
 20
123.2180532179
 11
168.8773255814
 21
123.5464520892
  0
LINE
  5
6E0
100
AcDbEntity
  8
0
100
AcDbLine
 62
7
  6
CONTINUOUS
 10
168.8773255814
 20
124.1243076665
 11
168.8773255814
 21
124.9949471008
  0
LINE
  5
6E1
100
AcDbEntity
  8
0
100
AcDbLine
 62
7
  6
CONTINUOUS
 10
168.8773255814
 20
125.0758748375
 11
168.8773255814
 21
125.9465142719
  0
LINE
  5
6E2
100
AcDbEntity
  8
0
100
AcDbLine
 62
7
  6
CONTINUOUS
 10
168.8773255814
 20
126.8883837347
 11
168.8773255814
 21
127.759023169
  0
LINE
  5
6E3
100
AcDbEntity
  8
DEFAULT_1
100
AcDbLine
 62
2
  6
CENTER
 10
181.9266328766
 20
115.4837209302
 11
169.5774255814
 21
115.4837209302
  0
LINE
  5
6E4
100
AcDbEntity
  8
0
100
AcDbLine
 62
2
  6
CONTINUOUS
 10
168.4573255814
 20
115.4837209302
 11
166.6973255814
 21
115.4837209302
  0
LINE
  5
6E5
100
AcDbEntity
  8
DEFAULT_1
100
AcDbLine
 62
2
  6
CENTER
 10
152.7188189231
 20
115.4837209302
 11
165.5772255814
 21
115.4837209302
  0
LINE
  5
6E6
100
AcDbEntity
  8
0
100
AcDbLine
 62
7
  6
CONTINUOUS
 10
165.5757298388
 20
121.6183300332
 11
165.5560489832
 21
121.7461684294
  0
LINE
  5
6E7
100
AcDbEntity
  8
0
100
AcDbLine
 62
7
  6
CONTINUOUS
 10
165.5757298388
 20
121.7186531862
 11
165.5560489832
 21
121.8464915825
  0
LINE
  5
6E8
100
AcDbEntity
  8
0
100
AcDbLine
 62
7
  6
CONTINUOUS
 10
166.0087085519
 20
122.1296839839
 11
166.0283894006
 21
122.0018455876
  0
LINE
  5
6E9
100
AcDbEntity
  8
0
100
AcDbLine
 62
7
  6
CONTINUOUS
 10
166.0087085519
 20
123.216311632
 11
166.0283894006
 21
123.08847287
  0
LINE
  5
6EA
100
AcDbEntity
  8
0
100
AcDbLine
 62
7
  6
CONTINUOUS
 10
165.7922191884
 20
124.9101719366
 11
165.8119000372
 21
124.7823333575
  0
LINE
  5
6EB
100
AcDbEntity
  8
0
100
AcDbLine
 62
7
  6
CONTINUOUS
 10
166.1071127955
 20
123.08847287
 11
166.0874319468
 21
123.216311632
  0
LINE
  5
6EC
100
AcDbEntity
  8
0
100
AcDbLine
 62
7
  6
CONTINUOUS
 10
166.1071127955
 20
123.1887960231
 11
166.0874319468
 21
123.3166347851
  0
LINE
  5
6ED
100
AcDbEntity
  8
0
100
AcDbLine
 62
7
  6
CONTINUOUS
 10
166.0087085519
 20
124.9740911347
 11
166.0283894006
 21
124.8462525556
  0
LINE
  5
6EE
100
AcDbEntity
  8
0
100
AcDbLine
 62
7
  6
CONTINUOUS
 10
166.0087085519
 20
126.0607186
 11
166.0283894006
 21
125.9328800209
  0
LINE
  5
6EF
100
AcDbEntity
  8
0
100
AcDbLine
 62
7
  6
CONTINUOUS
 10
166.1071127955
 20
125.9328800209
 11
166.0874319468
 21
126.0607186
  0
LINE
  5
6F0
100
AcDbEntity
  8
0
100
AcDbLine
 62
7
  6
CONTINUOUS
 10
166.1071127955
 20
126.033203174
 11
166.0874319468
 21
126.1610417531
  0
LINE
  5
6F1
100
AcDbEntity
  8
0
100
AcDbLine
 62
7
  6
CONTINUOUS
 10
166.0087085519
 20
127.2751844615
 11
166.0283894006
 21
127.1473459281
  0
LINE
  5
6F2
100
AcDbEntity
  8
0
100
AcDbLine
 62
7
  6
CONTINUOUS
 10
165.4773255814
 20
124.7184141594
 11
165.4970064318
 21
124.5586160726
  0
LINE
  5
6F3
100
AcDbEntity
  8
0
100
AcDbLine
 62
7
  6
CONTINUOUS
 10
171.7773255814
 20
99.5343346663
 11
171.7773255814
 21
86.9331071942
  0
LINE
  5
6F4
100
AcDbEntity
  8
0
100
AcDbLine
 62
7
  6
CONTINUOUS
 10
166.5773255814
 20
121.3602315983
 11
168.8773255814
 21
121.3602315983
  0
LINE
  5
6F5
100
AcDbEntity
  8
0
100
AcDbLine
 62
7
  6
CONTINUOUS
 10
165.5954106875
 20
121.3626532407
 11
165.6347723849
 21
121.3626532407
  0
LINE
  5
6F6
100
AcDbEntity
  8
0
100
AcDbLine
 62
7
  6
CONTINUOUS
 10
165.9693468545
 20
123.3121905206
 11
166.0087085519
 21
123.216311632
  0
LINE
  5
6F7
100
AcDbEntity
  8
0
100
AcDbLine
 62
7
  6
CONTINUOUS
 10
165.4970064318
 20
124.5586160726
 11
165.5363681344
 21
124.462737184
  0
LINE
  5
6F8
100
AcDbEntity
  8
0
100
AcDbLine
 62
7
  6
CONTINUOUS
 10
166.0874319468
 20
123.216311632
 11
166.0480702493
 21
123.3121905206
  0
LINE
  5
6F9
100
AcDbEntity
  8
0
100
AcDbLine
 62
7
  6
CONTINUOUS
 10
166.0874319468
 20
123.3166347851
 11
166.063015444
 21
123.3761095359
  0
LINE
  5
6FA
100
AcDbEntity
  8
0
100
AcDbLine
 62
7
  6
CONTINUOUS
 10
165.6150915362
 20
126.8277496175
 11
165.5757298388
 21
126.9236285518
  0
LINE
  5
6FB
100
AcDbEntity
  8
0
100
AcDbLine
 62
7
  6
CONTINUOUS
 10
165.6150915362
 20
126.9280727706
 11
165.5757298388
 21
127.0239517049
  0
LINE
  5
6FC
100
AcDbEntity
  8
0
100
AcDbLine
 62
7
  6
CONTINUOUS
 10
165.4970064318
 20
121.5544106522
 11
165.5363681344
 21
121.4265722559
  0
LINE
  5
6FD
100
AcDbEntity
  8
0
100
AcDbLine
 62
7
  6
CONTINUOUS
 10
165.5954106875
 20
121.5544106522
 11
165.5757298388
 21
121.6183300332
  0
LINE
  5
6FE
100
AcDbEntity
  8
0
100
AcDbLine
 62
7
  6
CONTINUOUS
 10
165.5954106875
 20
121.6547338053
 11
165.5757298388
 21
121.7186531862
  0
LINE
  5
6FF
100
AcDbEntity
  8
0
100
AcDbLine
 62
7
  6
CONTINUOUS
 10
165.9890277032
 20
122.1936033649
 11
166.0087085519
 21
122.1296839839
  0
LINE
  5
700
100
AcDbEntity
  8
0
100
AcDbLine
 62
7
  6
CONTINUOUS
 10
166.0874319468
 20
122.1936033649
 11
166.0480702493
 21
122.3214417611
  0
LINE
  5
701
100
AcDbEntity
  8
0
100
AcDbLine
 62
7
  6
CONTINUOUS
 10
166.0874319468
 20
122.2939265179
 11
166.0480702493
 21
122.4217649142
  0
LINE
  5
702
100
AcDbEntity
  8
0
100
AcDbLine
 62
7
  6
CONTINUOUS
 10
165.7725383397
 20
124.9740911347
 11
165.7922191884
 21
124.9101719366
  0
LINE
  5
703
100
AcDbEntity
  8
0
100
AcDbLine
 62
7
  6
CONTINUOUS
 10
165.8709426109
 20
124.9740911347
 11
165.8315809134
 21
125.1019297138
  0
LINE
  5
704
100
AcDbEntity
  8
0
100
AcDbLine
 62
7
  6
CONTINUOUS
 10
165.8709426109
 20
125.0744142878
 11
165.8315809134
 21
125.2022528669
  0
LINE
  5
705
100
AcDbEntity
  8
0
100
AcDbLine
 62
7
  6
CONTINUOUS
 10
165.9890277032
 20
125.0380103329
 11
166.0087085519
 21
124.9740911347
  0
LINE
  5
706
100
AcDbEntity
  8
0
100
AcDbLine
 62
7
  6
CONTINUOUS
 10
165.4970064318
 20
126.8916689071
 11
165.5363681344
 21
126.7638304194
  0
LINE
  5
707
100
AcDbEntity
  8
0
100
AcDbLine
 62
7
  6
CONTINUOUS
 10
166.0874319468
 20
125.0699700234
 11
166.0677510981
 21
125.1338892215
  0
LINE
  5
708
100
AcDbEntity
  8
0
100
AcDbLine
 62
7
  6
CONTINUOUS
 10
166.0874319468
 20
125.1702931764
 11
166.0677510981
 21
125.2342123745
  0
LINE
  5
709
100
AcDbEntity
  8
0
100
AcDbLine
 62
7
  6
CONTINUOUS
 10
165.9890277032
 20
127.3391037282
 11
166.0087085519
 21
127.2751844615
  0
LINE
  5
70A
100
AcDbEntity
  8
0
100
AcDbLine
 62
7
  6
CONTINUOUS
 10
165.5954106875
 20
124.5586160726
 11
165.5560489832
 21
124.7184141594
  0
LINE
  5
70B
100
AcDbEntity
  8
0
100
AcDbLine
 62
7
  6
CONTINUOUS
 10
165.5954106875
 20
124.6589392257
 11
165.5560489832
 21
124.8187373125
  0
LINE
  5
70C
100
AcDbEntity
  8
0
100
AcDbLine
 62
7
  6
CONTINUOUS
 10
166.0874319468
 20
127.3071440834
 11
166.0677510981
 21
127.403022972
  0
LINE
  5
70D
100
AcDbEntity
  8
0
100
AcDbLine
 62
7
  6
CONTINUOUS
 10
166.0874319468
 20
127.4074672365
 11
166.0677510981
 21
127.5033461251
  0
LINE
  5
70E
100
AcDbEntity
  8
0
100
AcDbLine
 62
7
  6
CONTINUOUS
 10
165.7922191884
 20
127.658700016
 11
165.6741340961
 21
127.6267403855
  0
LINE
  5
70F
100
AcDbEntity
  8
0
100
AcDbLine
 62
7
  6
CONTINUOUS
 10
165.7922191884
 20
127.759023169
 11
165.6741340961
 21
127.7270635386
  0
LINE
  5
710
100
AcDbEntity
  8
0
100
AcDbLine
 62
7
  6
CONTINUOUS
 10
168.8773255814
 20
122.1305478796
 11
166.5773255814
 21
122.1305478796
  0
LINE
  5
711
100
AcDbEntity
  8
0
100
AcDbLine
 62
7
  6
CONTINUOUS
 10
168.8773255814
 20
122.2308710326
 11
166.5773255814
 21
122.2308710326
  0
LINE
  5
712
100
AcDbEntity
  8
0
100
AcDbLine
 62
7
  6
CONTINUOUS
 10
166.5773255814
 20
122.3117987693
 11
167.8773255814
 21
122.3117987693
  0
LINE
  5
713
100
AcDbEntity
  8
0
100
AcDbLine
 62
7
  6
CONTINUOUS
 10
165.9890277032
 20
122.3853611421
 11
165.9496660058
 21
122.3853611421
  0
LINE
  5
714
100
AcDbEntity
  8
0
100
AcDbLine
 62
7
  6
CONTINUOUS
 10
165.9890277032
 20
122.4856842952
 11
165.9496660058
 21
122.4856842952
  0
LINE
  5
715
100
AcDbEntity
  8
0
100
AcDbLine
 62
7
  6
CONTINUOUS
 10
165.4773255814
 20
122.6410383003
 11
165.8512617622
 21
122.6410383003
  0
LINE
  5
716
100
AcDbEntity
  8
0
100
AcDbLine
 62
7
  6
CONTINUOUS
 10
165.8512617622
 20
122.8008362042
 11
165.4773255814
 21
122.8008362042
  0
LINE
  5
717
100
AcDbEntity
  8
0
100
AcDbLine
 62
7
  6
CONTINUOUS
 10
165.8512617622
 20
122.9011593573
 11
165.4773255814
 21
122.9011593573
  0
LINE
  5
718
100
AcDbEntity
  8
0
100
AcDbLine
 62
7
  6
CONTINUOUS
 10
167.9273255814
 20
123.0821150506
 11
166.5773255814
 21
123.0821150506
  0
LINE
  5
719
100
AcDbEntity
  8
0
100
AcDbLine
 62
7
  6
CONTINUOUS
 10
167.9273255814
 20
123.1824382037
 11
166.5773255814
 21
123.1824382037
  0
LINE
  5
71A
100
AcDbEntity
  8
0
100
AcDbLine
 62
7
  6
CONTINUOUS
 10
165.4773255814
 20
123.3761095359
 11
165.929985157
 21
123.3761095359
  0
LINE
  5
71B
100
AcDbEntity
  8
0
100
AcDbLine
 62
7
  6
CONTINUOUS
 10
166.0087085519
 20
123.3761095359
 11
166.1071127955
 21
123.3761095359
  0
LINE
  5
71C
100
AcDbEntity
  8
0
100
AcDbLine
 62
7
  6
CONTINUOUS
 10
166.1071127955
 20
123.5359078055
 11
165.4773255814
 21
123.5359078055
  0
LINE
  5
71D
100
AcDbEntity
  8
0
100
AcDbLine
 62
7
  6
CONTINUOUS
 10
166.1071127955
 20
123.6362309586
 11
165.4773255814
 21
123.6362309586
  0
LINE
  5
71E
100
AcDbEntity
  8
0
100
AcDbLine
 62
7
  6
CONTINUOUS
 10
165.4773255814
 20
123.7915849637
 11
166.1071127955
 21
123.7915849637
  0
LINE
  5
71F
100
AcDbEntity
  8
0
100
AcDbLine
 62
7
  6
CONTINUOUS
 10
166.3039213378
 20
123.7915849637
 11
166.4023255814
 21
123.7915849637
  0
LINE
  5
720
100
AcDbEntity
  8
0
100
AcDbLine
 62
7
  6
CONTINUOUS
 10
166.4023255814
 20
123.9513828676
 11
166.3039213378
 21
123.9513828676
  0
LINE
  5
721
100
AcDbEntity
  8
0
100
AcDbLine
 62
7
  6
CONTINUOUS
 10
166.1071127955
 20
123.9513828676
 11
165.4773255814
 21
123.9513828676
  0
LINE
  5
722
100
AcDbEntity
  8
0
100
AcDbLine
 62
7
  6
CONTINUOUS
 10
166.4023255814
 20
124.0517060207
 11
166.3039213378
 21
124.0517060207
  0
LINE
  5
723
100
AcDbEntity
  8
0
100
AcDbLine
 62
7
  6
CONTINUOUS
 10
166.1071127955
 20
124.0517060207
 11
165.4773255814
 21
124.0517060207
  0
LINE
  5
724
100
AcDbEntity
  8
0
100
AcDbLine
 62
7
  6
CONTINUOUS
 10
166.5773255814
 20
124.1243076665
 11
167.6773255814
 21
124.1243076665
  0
LINE
  5
725
100
AcDbEntity
  8
0
100
AcDbLine
 62
7
  6
CONTINUOUS
 10
168.4773255814
 20
124.1243076665
 11
168.8773255814
 21
124.1243076665
  0
LINE
  5
726
100
AcDbEntity
  8
0
100
AcDbLine
 62
7
  6
CONTINUOUS
 10
165.6347723849
 20
124.2709794068
 11
165.9496660058
 21
124.2709794068
  0
LINE
  5
727
100
AcDbEntity
  8
0
100
AcDbLine
 62
7
  6
CONTINUOUS
 10
165.8119000372
 20
124.4307773107
 11
165.6938149449
 21
124.4307773107
  0
LINE
  5
728
100
AcDbEntity
  8
0
100
AcDbLine
 62
7
  6
CONTINUOUS
 10
165.9496660058
 20
124.4307773107
 11
165.8906234596
 21
124.4307773107
  0
LINE
  5
729
100
AcDbEntity
  8
0
100
AcDbLine
 62
7
  6
CONTINUOUS
 10
165.9496660058
 20
124.5311004637
 11
165.8906234596
 21
124.5311004637
  0
LINE
  5
72A
100
AcDbEntity
  8
0
100
AcDbLine
 62
7
  6
CONTINUOUS
 10
165.8119000372
 20
124.5311004637
 11
165.6938149449
 21
124.5311004637
  0
LINE
  5
72B
100
AcDbEntity
  8
0
100
AcDbLine
 62
7
  6
CONTINUOUS
 10
168.8773255814
 20
124.8946239478
 11
166.5773255814
 21
124.8946239478
  0
LINE
  5
72C
100
AcDbEntity
  8
0
100
AcDbLine
 62
7
  6
CONTINUOUS
 10
168.8773255814
 20
124.9949471008
 11
166.5773255814
 21
124.9949471008
  0
LINE
  5
72D
100
AcDbEntity
  8
0
100
AcDbLine
 62
7
  6
CONTINUOUS
 10
165.6347723849
 20
125.0699700234
 11
165.6741340961
 21
125.0699700234
  0
LINE
  5
72E
100
AcDbEntity
  8
0
100
AcDbLine
 62
7
  6
CONTINUOUS
 10
166.5773255814
 20
125.0758748375
 11
168.8773255814
 21
125.0758748375
  0
LINE
  5
72F
100
AcDbEntity
  8
0
100
AcDbLine
 62
7
  6
CONTINUOUS
 10
165.9890277032
 20
125.2297681101
 11
165.9496660058
 21
125.2297681101
  0
LINE
  5
730
100
AcDbEntity
  8
0
100
AcDbLine
 62
7
  6
CONTINUOUS
 10
165.7134957936
 20
125.2297681101
 11
165.6544532474
 21
125.2297681101
  0
LINE
  5
731
100
AcDbEntity
  8
0
100
AcDbLine
 62
7
  6
CONTINUOUS
 10
165.9890277032
 20
125.3300912632
 11
165.9496660058
 21
125.3300912632
  0
LINE
  5
732
100
AcDbEntity
  8
0
100
AcDbLine
 62
7
  6
CONTINUOUS
 10
165.7134957936
 20
125.3300912632
 11
165.6544532474
 21
125.3300912632
  0
LINE
  5
733
100
AcDbEntity
  8
0
100
AcDbLine
 62
7
  6
CONTINUOUS
 10
165.6347723849
 20
121.5224511446
 11
165.5954106875
 21
121.5544106522
  0
LINE
  5
734
100
AcDbEntity
  8
0
100
AcDbLine
 62
7
  6
CONTINUOUS
 10
165.6347723849
 20
121.6227742976
 11
165.5954106875
 21
121.6547338053
  0
LINE
  5
735
100
AcDbEntity
  8
0
100
AcDbLine
 62
7
  6
CONTINUOUS
 10
165.9496660058
 20
122.2255628725
 11
165.9890277032
 21
122.1936033649
  0
LINE
  5
736
100
AcDbEntity
  8
0
100
AcDbLine
 62
7
  6
CONTINUOUS
 10
165.5363681344
 20
121.4265722559
 11
165.5954106875
 21
121.3626532407
  0
LINE
  5
737
100
AcDbEntity
  8
0
100
AcDbLine
 62
7
  6
CONTINUOUS
 10
166.0480702493
 20
122.3214417611
 11
165.9890277032
 21
122.3853611421
  0
LINE
  5
738
100
AcDbEntity
  8
0
100
AcDbLine
 62
7
  6
CONTINUOUS
 10
166.0480702493
 20
122.4217649142
 11
165.9890277032
 21
122.4856842952
  0
LINE
  5
739
100
AcDbEntity
  8
0
100
AcDbLine
 62
7
  6
CONTINUOUS
 10
165.929985157
 20
123.3761095359
 11
165.9693468545
 21
123.3121905206
  0
LINE
  5
73A
100
AcDbEntity
  8
0
100
AcDbLine
 62
7
  6
CONTINUOUS
 10
166.0480702493
 20
123.3121905206
 11
166.0087085519
 21
123.3761095359
  0
LINE
  5
73B
100
AcDbEntity
  8
0
100
AcDbLine
 62
7
  6
CONTINUOUS
 10
165.6544532474
 20
124.462737184
 11
165.5954106875
 21
124.5586160726
  0
LINE
  5
73C
100
AcDbEntity
  8
0
100
AcDbLine
 62
7
  6
CONTINUOUS
 10
165.6544532474
 20
124.5630603371
 11
165.5954106875
 21
124.6589392257
  0
LINE
  5
73D
100
AcDbEntity
  8
0
100
AcDbLine
 62
7
  6
CONTINUOUS
 10
165.7331766423
 20
125.0380103329
 11
165.7725383397
 21
124.9740911347
  0
LINE
  5
73E
100
AcDbEntity
  8
0
100
AcDbLine
 62
7
  6
CONTINUOUS
 10
165.8315809134
 20
125.1019297138
 11
165.7922191884
 21
125.165848912
  0
LINE
  5
73F
100
AcDbEntity
  8
0
100
AcDbLine
 62
7
  6
CONTINUOUS
 10
165.8315809134
 20
125.2022528669
 11
165.7922191884
 21
125.266172065
  0
LINE
  5
740
100
AcDbEntity
  8
0
100
AcDbLine
 62
7
  6
CONTINUOUS
 10
166.0677510981
 20
125.1338892215
 11
166.0283894006
 21
125.1978086025
  0
LINE
  5
741
100
AcDbEntity
  8
0
100
AcDbLine
 62
7
  6
CONTINUOUS
 10
166.0677510981
 20
125.2342123745
 11
166.0283894006
 21
125.2981317555
  0
LINE
  5
742
100
AcDbEntity
  8
0
100
AcDbLine
 62
7
  6
CONTINUOUS
 10
165.5363681344
 20
126.7638304194
 11
165.5954106875
 21
126.6679515308
  0
LINE
  5
743
100
AcDbEntity
  8
0
100
AcDbLine
 62
7
  6
CONTINUOUS
 10
165.929985157
 20
126.2205166867
 11
165.9693468545
 21
126.1565973972
  0
LINE
  5
744
100
AcDbEntity
  8
0
100
AcDbLine
 62
7
  6
CONTINUOUS
 10
166.0480702493
 20
126.1565973972
 11
166.0087085519
 21
126.2205166867
  0
LINE
  5
745
100
AcDbEntity
  8
0
100
AcDbLine
 62
7
  6
CONTINUOUS
 10
165.929985157
 20
127.4349826168
 11
165.9890277032
 21
127.3391037282
  0
LINE
  5
746
100
AcDbEntity
  8
0
100
AcDbLine
 62
7
  6
CONTINUOUS
 10
166.0283894006
 20
127.4989018721
 11
165.9890277032
 21
127.5628211274
  0
LINE
  5
747
100
AcDbEntity
  8
0
100
AcDbLine
 62
7
  6
CONTINUOUS
 10
166.0283894006
 20
127.5992250252
 11
165.9890277032
 21
127.6631442804
  0
LINE
  5
748
100
AcDbEntity
  8
0
100
AcDbLine
 62
7
  6
CONTINUOUS
 10
165.9693468545
 20
126.1565973972
 11
166.0087085519
 21
126.0607186
  0
LINE
  5
749
100
AcDbEntity
  8
0
100
AcDbLine
 62
7
  6
CONTINUOUS
 10
166.0874319468
 20
126.0607186
 11
166.0480702493
 21
126.1565973972
  0
LINE
  5
74A
100
AcDbEntity
  8
0
100
AcDbLine
 62
7
  6
CONTINUOUS
 10
166.0874319468
 20
126.1610417531
 11
166.0630153457
 21
126.2205166867
  0
LINE
  5
74B
100
AcDbEntity
  8
0
100
AcDbLine
 62
7
  6
CONTINUOUS
 10
166.0677510981
 20
127.403022972
 11
166.0283894006
 21
127.4989018721
  0
LINE
  5
74C
100
AcDbEntity
  8
0
100
AcDbLine
 62
7
  6
CONTINUOUS
 10
166.0677510981
 20
127.5033461251
 11
166.0283894006
 21
127.5992250252
  0
LINE
  5
74D
100
AcDbEntity
  8
0
100
AcDbLine
 62
7
  6
CONTINUOUS
 10
180.0773255814
 20
143.2337209302
 11
180.0773255814
 21
102.623092374
  0
LINE
  5
74E
100
AcDbEntity
  8
0
100
AcDbLine
 62
7
  6
CONTINUOUS
 10
180.0773255814
 20
100.6788177241
 11
180.0773255814
 21
80.8244491032
  0
LINE
  5
74F
100
AcDbEntity
  8
2_FEATURE
100
AcDbLine
 62
7
  6
CONTINUOUS
 10
180.0773255814
 20
80.8244406872
 11
180.0773255814
 21
102.623092374
  0
LINE
  5
750
100
AcDbEntity
  8
0
100
AcDbLine
 62
7
  6
CONTINUOUS
 10
165.4773255814
 20
125.4854452683
 11
165.8709426109
 21
125.4854452683
  0
LINE
  5
751
100
AcDbEntity
  8
0
100
AcDbLine
 62
7
  6
CONTINUOUS
 10
165.8709426109
 20
125.645243355
 11
165.4773255814
 21
125.645243355
  0
LINE
  5
752
100
AcDbEntity
  8
0
100
AcDbLine
 62
7
  6
CONTINUOUS
 10
165.8709426109
 20
125.7455665081
 11
165.4773255814
 21
125.7455665081
  0
LINE
  5
753
100
AcDbEntity
  8
0
100
AcDbLine
 62
7
  6
CONTINUOUS
 10
168.8773255814
 20
125.8461911188
 11
167.7773255814
 21
125.8461911188
  0
LINE
  5
754
100
AcDbEntity
  8
0
100
AcDbLine
 62
7
  6
CONTINUOUS
 10
166.9773255814
 20
125.8461911188
 11
166.5773255814
 21
125.8461911188
  0
LINE
  5
755
100
AcDbEntity
  8
0
100
AcDbLine
 62
7
  6
CONTINUOUS
 10
168.8773255814
 20
125.9465142719
 11
167.7773255814
 21
125.9465142719
  0
LINE
  5
756
100
AcDbEntity
  8
0
100
AcDbLine
 62
7
  6
CONTINUOUS
 10
166.8427416662
 20
125.9465142719
 11
166.5773255814
 21
125.9465142719
  0
LINE
  5
757
100
AcDbEntity
  8
0
100
AcDbLine
 62
7
  6
CONTINUOUS
 10
165.4773255814
 20
126.2205166867
 11
165.929985157
 21
126.2205166867
  0
LINE
  5
758
100
AcDbEntity
  8
0
100
AcDbLine
 62
7
  6
CONTINUOUS
 10
166.0087085519
 20
126.2205166867
 11
166.4023255814
 21
126.2205166867
  0
LINE
  5
759
100
AcDbEntity
  8
0
100
AcDbLine
 62
7
  6
CONTINUOUS
 10
166.4023255814
 20
126.3803148649
 11
165.4773255814
 21
126.3803148649
  0
LINE
  5
75A
100
AcDbEntity
  8
0
100
AcDbLine
 62
7
  6
CONTINUOUS
 10
166.4023255814
 20
126.480638018
 11
165.4773255814
 21
126.480638018
  0
LINE
  5
75B
100
AcDbEntity
  8
0
100
AcDbLine
 62
7
  6
CONTINUOUS
 10
167.5273255814
 20
126.8883837347
 11
168.8773255814
 21
126.8883837347
  0
LINE
  5
75C
100
AcDbEntity
  8
0
100
AcDbLine
 62
7
  6
CONTINUOUS
 10
165.752857491
 20
127.4989018721
 11
165.8119000372
 21
127.4989018721
  0
LINE
  5
75D
100
AcDbEntity
  8
0
100
AcDbLine
 62
7
  6
CONTINUOUS
 10
168.8773255814
 20
127.658700016
 11
167.5773255814
 21
127.658700016
  0
LINE
  5
75E
100
AcDbEntity
  8
0
100
AcDbLine
 62
7
  6
CONTINUOUS
 10
168.8773255814
 20
127.759023169
 11
167.5773255814
 21
127.759023169
  0
LINE
  5
75F
100
AcDbEntity
  8
0
100
AcDbLine
 62
7
  6
CONTINUOUS
 10
165.9103043083
 20
127.6267403855
 11
165.7922191884
 21
127.658700016
  0
LINE
  5
760
100
AcDbEntity
  8
0
100
AcDbLine
 62
7
  6
CONTINUOUS
 10
165.9103043083
 20
127.7270635386
 11
165.7922191884
 21
127.759023169
  0
LINE
  5
761
100
AcDbEntity
  8
0
100
AcDbLine
 62
7
  6
CONTINUOUS
 10
165.5954106875
 20
126.6679515308
 11
165.6741340961
 21
126.6359918403
  0
LINE
  5
762
100
AcDbEntity
  8
0
100
AcDbLine
 62
7
  6
CONTINUOUS
 10
165.8119000372
 20
127.4989018721
 11
165.8906234596
 21
127.4669422387
  0
LINE
  5
763
100
AcDbEntity
  8
0
100
AcDbLine
 62
7
  6
CONTINUOUS
 10
165.6741340961
 20
125.0699700234
 11
165.7331766423
 21
125.0380103329
  0
LINE
  5
764
100
AcDbEntity
  8
0
100
AcDbLine
 62
7
  6
CONTINUOUS
 10
165.6741340961
 20
126.7957900184
 11
165.6150915362
 21
126.8277496175
  0
LINE
  5
765
100
AcDbEntity
  8
0
100
AcDbLine
 62
7
  6
CONTINUOUS
 10
165.6741340961
 20
126.8961131715
 11
165.6150915362
 21
126.9280727706
  0
LINE
  5
766
100
AcDbEntity
  8
0
100
AcDbLine
 62
7
  6
CONTINUOUS
 10
165.5363681344
 20
124.462737184
 11
165.5757298388
 21
124.4307773107
  0
LINE
  5
767
100
AcDbEntity
  8
0
100
AcDbLine
 62
7
  6
CONTINUOUS
 10
165.6938149449
 20
124.4307773107
 11
165.6544532474
 21
124.462737184
  0
LINE
  5
768
100
AcDbEntity
  8
0
100
AcDbLine
 62
7
  6
CONTINUOUS
 10
165.6938149449
 20
124.5311004637
 11
165.6544532474
 21
124.5630603371
  0
LINE
  5
769
100
AcDbEntity
  8
0
100
AcDbLine
 62
7
  6
CONTINUOUS
 10
165.7922191884
 20
125.165848912
 11
165.7134957936
 21
125.2297681101
  0
LINE
  5
76A
100
AcDbEntity
  8
0
100
AcDbLine
 62
7
  6
CONTINUOUS
 10
165.9496660058
 20
125.0699700234
 11
165.9890277032
 21
125.0380103329
  0
LINE
  5
76B
100
AcDbEntity
  8
0
100
AcDbLine
 62
7
  6
CONTINUOUS
 10
165.7922191884
 20
125.266172065
 11
165.7134957936
 21
125.3300912632
  0
LINE
  5
76C
100
AcDbEntity
  8
0
100
AcDbLine
 62
7
  6
CONTINUOUS
 10
166.0283894006
 20
125.1978086025
 11
165.9890277032
 21
125.2297681101
  0
LINE
  5
76D
100
AcDbEntity
  8
0
100
AcDbLine
 62
7
  6
CONTINUOUS
 10
166.0283894006
 20
125.2981317555
 11
165.9890277032
 21
125.3300912632
  0
LINE
  5
76E
100
AcDbEntity
  8
0
100
AcDbLine
 62
7
  6
CONTINUOUS
 10
165.8906234596
 20
127.4669422387
 11
165.929985157
 21
127.4349826168
  0
LINE
  5
76F
100
AcDbEntity
  8
0
100
AcDbLine
 62
7
  6
CONTINUOUS
 10
165.9890277032
 20
127.5628211274
 11
165.9103043083
 21
127.6267403855
  0
LINE
  5
770
100
AcDbEntity
  8
0
100
AcDbLine
 62
7
  6
CONTINUOUS
 10
165.9890277032
 20
127.6631442804
 11
165.9103043083
 21
127.7270635386
  0
LINE
  5
771
100
AcDbEntity
  8
0
100
AcDbLine
 62
7
  6
CONTINUOUS
 10
159.0237351612
 20
142.2337209302
 11
156.0773255814
 21
142.2337209302
  0
LINE
  5
772
100
AcDbEntity
  8
2_FEATURE
100
AcDbLine
 62
7
  6
CONTINUOUS
 10
156.0773255814
 20
142.2337209302
 11
159.0237351612
 21
142.2337209302
  0
LINE
  5
773
100
AcDbEntity
  8
1_AXIS
100
AcDbLine
 62
2
  6
CONTINUOUS
 10
168.4573255814
 20
143.2337209302
 11
166.6973255814
 21
143.2337209302
  0
LINE
  5
774
100
AcDbEntity
  8
1_AXIS
100
AcDbLine
 62
2
  6
CENTER
 10
163.1773255814
 20
143.2337209302
 11
152.7188189231
 21
143.2337209302
  0
LINE
  5
775
100
AcDbEntity
  8
1_AXIS
100
AcDbLine
 62
2
  6
CENTER
 10
171.9773255814
 20
143.2337209302
 11
181.9266328766
 21
143.2337209302
  0
LINE
  5
776
100
AcDbEntity
  8
0
100
AcDbLine
 62
7
  6
CONTINUOUS
 10
167.5773799965
 20
155.7337209302
 11
167.5773308919
 21
155.7337209302
  0
ARC
  5
777
100
AcDbEntity
  8
0
100
AcDbCircle
 62
7
  6
CONTINUOUS
 10
52.698491347
 20
105.9369881777
 40
5.0
100
AcDbArc
 50
326.4739564646
 51
25.4
  0
ARC
  5
778
100
AcDbEntity
  8
0
100
AcDbCircle
 62
7
  6
CONTINUOUS
 10
46.5720930233
 20
148.7337209302
 40
7.0
100
AcDbArc
 50
0.0
 51
90.000173993
  0
ARC
  5
779
100
AcDbEntity
  8
0
100
AcDbCircle
 62
7
  6
CONTINUOUS
 10
43.5220930233
 20
134.1204722762
 40
5.0
100
AcDbArc
 50
237.271795311
 51
240.0
  0
ARC
  5
77A
100
AcDbEntity
  8
2_FEATURE
100
AcDbCircle
 62
7
  6
CONTINUOUS
 10
43.5220930233
 20
134.1204722762
 40
5.0
100
AcDbArc
 50
180.0
 51
240.0
  0
ARC
  5
77B
100
AcDbEntity
  8
0
100
AcDbCircle
 62
7
  6
CONTINUOUS
 10
48.2720930233
 20
133.9098001292
 40
3.0
100
AcDbArc
 50
180.0
 51
205.4
  0
ARC
  5
77C
100
AcDbEntity
  8
0
100
AcDbCircle
 62
7
  6
CONTINUOUS
 10
40.5220930233
 20
140.2337209302
 40
2.0
100
AcDbArc
 50
90.0
 51
180.0
  0
ARC
  5
77D
100
AcDbEntity
  8
2_FEATURE
100
AcDbCircle
 62
7
  6
CONTINUOUS
 10
40.5220930233
 20
140.2337209302
 40
2.0
100
AcDbArc
 50
90.0
 51
180.0
  0
ARC
  5
77E
100
AcDbEntity
  8
0
100
AcDbCircle
 62
7
  6
CONTINUOUS
 10
43.9720930233
 20
143.5337209302
 40
1.3
100
AcDbArc
 50
352.5052825461
 51
353.4763695128
  0
ARC
  5
77F
100
AcDbEntity
  8
2_FEATURE
100
AcDbCircle
 62
7
  6
CONTINUOUS
 10
43.9720930233
 20
143.5337209302
 40
1.3
100
AcDbArc
 50
270.0
 51
360.0
  0
ARC
  5
780
100
AcDbEntity
  8
2_FEATURE
100
AcDbCircle
 62
7
  6
CONTINUOUS
 10
48.1291750675
 20
124.185958826
 40
1.3
100
AcDbArc
 50
57.5931612285
 51
60.0
  0
ARC
  5
781
100
AcDbEntity
  8
0
100
AcDbCircle
 62
7
  6
CONTINUOUS
 10
46.2720930233
 20
154.7337209302
 40
1.0
100
AcDbArc
 50
90.0
 51
180.0000219743
  0
ARC
  5
782
100
AcDbEntity
  8
0
100
AcDbCircle
 62
7
  6
CONTINUOUS
 10
54.0720924145
 20
140.0676953633
 40
0.499999821
100
AcDbArc
 50
179.9999813081
 51
210.000018692
  0
ARC
  5
783
100
AcDbEntity
  8
2_FEATURE
100
AcDbCircle
 62
7
  6
CONTINUOUS
 10
71.8720930233
 20
93.2337209302
 40
18.0
100
AcDbArc
 50
146.4739564646
 51
154.0270434151
  0
ARC
  5
784
100
AcDbEntity
  8
0
100
AcDbCircle
 62
7
  6
CONTINUOUS
 10
71.8720930233
 20
93.2337209302
 40
18.0
100
AcDbArc
 50
146.4739564646
 51
33.5260435354
  0
ARC
  5
785
100
AcDbEntity
  8
0
100
AcDbCircle
 62
7
  6
CONTINUOUS
 10
91.0456946995
 20
105.9369881777
 40
5.0
100
AcDbArc
 50
154.6
 51
213.5260435354
  0
ARC
  5
786
100
AcDbEntity
  8
0
100
AcDbCircle
 62
7
  6
CONTINUOUS
 10
71.8720930233
 20
148.2371911517
 40
20.0
100
AcDbArc
 50
210.0
 51
330.0
  0
ARC
  5
787
100
AcDbEntity
  8
0
100
AcDbCircle
 62
7
  6
CONTINUOUS
 10
97.1720930233
 20
148.7337209302
 40
7.0
100
AcDbArc
 50
89.999826007
 51
180.0
  0
ARC
  5
788
100
AcDbEntity
  8
0
100
AcDbCircle
 62
7
  6
CONTINUOUS
 10
100.2220930233
 20
134.1204722762
 40
5.0
100
AcDbArc
 50
300.0
 51
360.0
  0
ARC
  5
789
100
AcDbEntity
  8
0
100
AcDbCircle
 62
7
  6
CONTINUOUS
 10
95.4720930233
 20
133.9098001292
 40
3.0
100
AcDbArc
 50
334.6
 51
360.0
  0
ARC
  5
78A
100
AcDbEntity
  8
0
100
AcDbCircle
 62
7
  6
CONTINUOUS
 10
103.2220930233
 20
140.2337209302
 40
2.0
100
AcDbArc
 50
0.0
 51
90.0
  0
ARC
  5
78B
100
AcDbEntity
  8
0
100
AcDbCircle
 62
7
  6
CONTINUOUS
 10
95.615010979
 20
124.185958826
 40
1.3
100
AcDbArc
 50
120.0
 51
122.4068387715
  0
ARC
  5
78C
100
AcDbEntity
  8
0
100
AcDbCircle
 62
7
  6
CONTINUOUS
 10
99.7720930233
 20
143.5337209302
 40
1.3
100
AcDbArc
 50
180.0
 51
270.0
  0
ARC
  5
78D
100
AcDbEntity
  8
0
100
AcDbCircle
 62
7
  6
CONTINUOUS
 10
97.4720930233
 20
154.7337209302
 40
1.0
100
AcDbArc
 50
359.9999780257
 51
90.0
  0
ARC
  5
78E
100
AcDbEntity
  8
0
100
AcDbCircle
 62
7
  6
CONTINUOUS
 10
89.672093632
 20
140.0676953633
 40
0.499999821
100
AcDbArc
 50
329.9999813081
 51
0.000018692
  0
ARC
  5
78F
100
AcDbEntity
  8
0
100
AcDbCircle
 62
7
  6
CONTINUOUS
 10
63.227334745
 20
229.1238372093
 40
30.5
100
AcDbArc
 50
325.9910751726
 51
329.0591941644
  0
ARC
  5
790
100
AcDbEntity
  8
0
100
AcDbCircle
 62
7
  6
CONTINUOUS
 10
80.5168513015
 20
229.1238372093
 40
30.5
100
AcDbArc
 50
210.9408058356
 51
214.0089248274
  0
ARC
  5
791
100
AcDbEntity
  8
2_FEATURE
100
AcDbCircle
 62
7
  6
CONTINUOUS
 10
63.227334745
 20
219.1238372093
 40
30.5
100
AcDbArc
 50
30.9408058753
 51
34.0089248274
  0
ARC
  5
792
100
AcDbEntity
  8
2_FEATURE
100
AcDbCircle
 62
7
  6
CONTINUOUS
 10
80.5168513015
 20
219.1238372093
 40
30.5
100
AcDbArc
 50
145.9910751726
 51
149.0591941247
  0
ARC
  5
793
100
AcDbEntity
  8
0
100
AcDbCircle
 62
7
  6
CONTINUOUS
 10
88.8720930233
 20
229.3238372093
 40
1.0
100
AcDbArc
 50
270.0
 51
360.0
  0
ARC
  5
794
100
AcDbEntity
  8
0
100
AcDbCircle
 62
7
  6
CONTINUOUS
 10
88.8720930233
 20
218.9238372093
 40
1.0
100
AcDbArc
 50
0.0
 51
90.0
  0
ARC
  5
795
100
AcDbEntity
  8
2_FEATURE
100
AcDbCircle
 62
7
  6
CONTINUOUS
 10
87.6813732663
 20
212.6238372093
 40
1.0
100
AcDbArc
 50
270.0
 51
325.9910751726
  0
ARC
  5
796
100
AcDbEntity
  8
2_FEATURE
100
AcDbCircle
 62
7
  6
CONTINUOUS
 10
56.0628127803
 20
212.6238372093
 40
1.0
100
AcDbArc
 50
214.0089248274
 51
270.0
  0
ARC
  5
797
100
AcDbEntity
  8
2_FEATURE
100
AcDbCircle
 62
7
  6
CONTINUOUS
 10
87.6813732663
 20
235.6238372093
 40
1.0
100
AcDbArc
 50
34.0089248274
 51
90.0
  0
ARC
  5
798
100
AcDbEntity
  8
2_FEATURE
100
AcDbCircle
 62
7
  6
CONTINUOUS
 10
56.0628127803
 20
235.6238372093
 40
1.0
100
AcDbArc
 50
90.0
 51
145.9910751726
  0
ARC
  5
799
100
AcDbEntity
  8
0
100
AcDbCircle
 62
7
  6
CONTINUOUS
 10
54.8720930233
 20
218.9238372093
 40
1.0
100
AcDbArc
 50
90.0
 51
180.0
  0
ARC
  5
79A
100
AcDbEntity
  8
0
100
AcDbCircle
 62
7
  6
CONTINUOUS
 10
54.8720930233
 20
229.3238372093
 40
1.0
100
AcDbArc
 50
180.0
 51
270.0
  0
ARC
  5
79B
100
AcDbEntity
  8
0
100
AcDbCircle
 62
7
  6
CONTINUOUS
 10
46.2720930233
 20
235.6238372093
 40
1.0
100
AcDbArc
 50
90.0
 51
180.0
  0
ARC
  5
79C
100
AcDbEntity
  8
0
100
AcDbCircle
 62
7
  6
CONTINUOUS
 10
39.5220930233
 20
212.6238372093
 40
1.0
100
AcDbArc
 50
180.0
 51
270.0
  0
ARC
  5
79D
100
AcDbEntity
  8
0
100
AcDbCircle
 62
7
  6
CONTINUOUS
 10
104.2220930233
 20
212.6238372093
 40
1.0
100
AcDbArc
 50
270.0
 51
360.0
  0
ARC
  5
79E
100
AcDbEntity
  8
0
100
AcDbCircle
 62
7
  6
CONTINUOUS
 10
97.4720930233
 20
235.6238372093
 40
1.0
100
AcDbArc
 50
0.0
 51
90.0
  0
ARC
  5
79F
100
AcDbEntity
  8
2_FEATURE
100
AcDbCircle
 62
7
  6
CONTINUOUS
 10
121.0773255814
 20
133.3337209302
 40
40.0
100
AcDbArc
 50
350.7279601404
 51
11.8519383442
  0
ARC
  5
7A0
100
AcDbEntity
  8
0
100
AcDbCircle
 62
7
  6
CONTINUOUS
 10
172.5773255814
 20
105.2784792085
 40
30.5
100
AcDbArc
 50
235.9910751726
 51
259.9212252891
  0
ARC
  5
7A1
100
AcDbEntity
  8
2_FEATURE
100
AcDbCircle
 62
7
  6
CONTINUOUS
 10
162.5773255814
 20
105.2784792085
 40
30.5
100
AcDbArc
 50
280.0787747109
 51
304.0089248274
  0
ARC
  5
7A2
100
AcDbEntity
  8
2_FEATURE
100
AcDbCircle
 62
7
  6
CONTINUOUS
 10
156.0773255814
 20
80.8244406872
 40
1.0
100
AcDbArc
 50
180.0
 51
235.9910751726
  0
ARC
  5
7A3
100
AcDbEntity
  8
2_FEATURE
100
AcDbCircle
 62
7
  6
CONTINUOUS
 10
179.0773255814
 20
80.8244406872
 40
1.0
100
AcDbArc
 50
304.0089248274
 51
360.0
  0
ARC
  5
7A4
100
AcDbEntity
  8
0
100
AcDbCircle
 62
7
  6
CONTINUOUS
 10
167.7398847986
 20
76.2337210037
 40
0.9999999974
100
AcDbArc
 50
269.9999938156
 51
280.078767886
  0
ARC
  5
7A5
100
AcDbEntity
  8
0
100
AcDbCircle
 62
7
  6
CONTINUOUS
 10
167.414766364
 20
76.2337210039
 40
0.9999999974
100
AcDbArc
 50
259.9212321267
 51
270.0000061949
  0
ARC
  5
7A6
100
AcDbEntity
  8
2_FEATURE
100
AcDbCircle
 62
7
  6
CONTINUOUS
 10
159.0237349806
 20
140.9337223349
 40
1.2999992977
100
AcDbArc
 50
11.3254302987
 51
89.9999920384
  0
ARC
  5
7A7
100
AcDbEntity
  8
0
100
AcDbCircle
 62
7
  6
CONTINUOUS
 10
156.0773255814
 20
141.2337209302
 40
1.0
100
AcDbArc
 50
90.0
 51
180.0
  0
ARC
  5
7A8
100
AcDbEntity
  8
0
100
AcDbCircle
 62
7
  6
CONTINUOUS
 10
167.5773255814
 20
143.2337209302
 40
12.5
100
AcDbArc
 50
0.0
 51
180.0001125041
  0
CIRCLE
  5
7A9
100
AcDbEntity
  8
0
100
AcDbCircle
 62
7
  6
CONTINUOUS
 10
167.5773255814
 20
143.2337209302
 40
5.53
  0
CIRCLE
  5
7AA
100
AcDbEntity
  8
0
100
AcDbCircle
 62
7
  6
CONTINUOUS
 10
167.5773255814
 20
143.2337209302
 40
3.95
  0
SPLINE
  5
7AB
100
AcDbEntity
  8
0
100
AcDbSpline
 62
7
  6
CONTINUOUS
 70
0
 71
3
 72
9
 73
5
 74
0
 42
0.0000001
 43
0.0000001
 44
0.0000000001
 40
0.0
 40
0.0
 40
0.0
 40
0.0
 40
0.5950470731
 40
1.0
 40
1.0
 40
1.0
 40
1.0
 10
45.5620871447
 20
217.6175225642
 30
0.0
 10
45.51566383
 20
217.6192599826
 30
0.0
 10
45.4376438184
 20
217.6219810887
 30
0.0
 10
45.3595821933
 20
217.6238362881
 30
0.0
 10
45.3279671848
 20
217.6238371886
 30
0.0
  0
SPLINE
  5
7AC
100
AcDbEntity
  8
0
100
AcDbSpline
 62
7
  6
CONTINUOUS
 70
0
 71
3
 72
9
 73
5
 74
0
 42
0.0000001
 43
0.0000001
 44
0.0000000001
 40
0.0
 40
0.0
 40
0.0
 40
0.0
 40
0.5950470731
 40
1.0
 40
1.0
 40
1.0
 40
1.0
 10
98.1820989018
 20
217.6175225642
 30
0.0
 10
98.2285222165
 20
217.6192599826
 30
0.0
 10
98.3065422281
 20
217.6219810887
 30
0.0
 10
98.3846038532
 20
217.6238362881
 30
0.0
 10
98.4162188618
 20
217.6238371886
 30
0.0
  0
SPLINE
  5
7AD
100
AcDbEntity
  8
0
100
AcDbSpline
 62
7
  6
CONTINUOUS
 70
0
 71
3
 72
10
 73
6
 74
0
 42
0.0000001
 43
0.0000001
 44
0.0000000001
 40
0.0
 40
0.0
 40
0.0
 40
0.0
 40
0.2352304785
 40
0.4826393364
 40
1.0
 40
1.0
 40
1.0
 40
1.0
 10
94.7904431455
 20
216.4442385602
 30
0.0
 10
94.7556384308
 20
216.371742
 30
0.0
 10
94.6898602981
 20
216.2202744007
 30
0.0
 10
94.57010981
 20
215.8999705614
 30
0.0
 10
94.4918286494
 20
215.6503564464
 30
0.0
 10
94.4406750983
 20
215.4810447036
 30
0.0
  0
SPLINE
  5
7AE
100
AcDbEntity
  8
2_FEATURE
100
AcDbSpline
 62
7
  6
CONTINUOUS
 70
0
 71
3
 72
11
 73
7
 74
0
 42
0.0000001
 43
0.0000001
 44
0.0000000001
 40
0.0
 40
0.0
 40
0.0
 40
0.0
 40
0.2076913291
 40
0.4368008548
 40
0.6968964734
 40
1.0
 40
1.0
 40
1.0
 40
1.0
 10
48.2848676636
 20
217.101215678
 30
0.0
 10
48.3477361378
 20
217.0796005542
 30
0.0
 10
48.4747959247
 20
217.0181015075
 30
0.0
 10
48.6519539586
 20
216.8802447131
 30
0.0
 10
48.8195682789
 20
216.6880226177
 30
0.0
 10
48.9117527681
 20
216.5317025923
 30
0.0
 10
48.953742901
 20
216.4442385602
 30
0.0
  0
SPLINE
  5
7AF
100
AcDbEntity
  8
2_FEATURE
100
AcDbSpline
 62
7
  6
CONTINUOUS
 70
0
 71
3
 72
10
 73
6
 74
0
 42
0.0000001
 43
0.0000001
 44
0.0000000001
 40
0.0
 40
0.0
 40
0.0
 40
0.0
 40
0.2352304785
 40
0.4826393364
 40
1.0
 40
1.0
 40
1.0
 40
1.0
 10
48.953742901
 20
216.4442385602
 30
0.0
 10
48.9885476157
 20
216.371742
 30
0.0
 10
49.0543257484
 20
216.2202744007
 30
0.0
 10
49.1740762365
 20
215.8999705614
 30
0.0
 10
49.2523573971
 20
215.6503564464
 30
0.0
 10
49.3035109483
 20
215.4810447036
 30
0.0
  0
SPLINE
  5
7B0
100
AcDbEntity
  8
0
100
AcDbSpline
 62
7
  6
CONTINUOUS
 70
0
 71
3
 72
11
 73
7
 74
0
 42
0.0000001
 43
0.0000001
 44
0.0000000001
 40
0.0
 40
0.0
 40
0.0
 40
0.0
 40
0.2076913291
 40
0.4368008548
 40
0.6968964734
 40
1.0
 40
1.0
 40
1.0
 40
1.0
 10
95.4593183829
 20
217.101215678
 30
0.0
 10
95.3964499087
 20
217.0796005542
 30
0.0
 10
95.2693901218
 20
217.0181015075
 30
0.0
 10
95.092232088
 20
216.8802447131
 30
0.0
 10
94.9246177676
 20
216.6880226177
 30
0.0
 10
94.8324332784
 20
216.5317025923
 30
0.0
 10
94.7904431455
 20
216.4442385602
 30
0.0
  0
SPLINE
  5
7B1
100
AcDbEntity
  8
0
100
AcDbSpline
 62
7
  6
CONTINUOUS
 70
0
 71
3
 72
23
 73
19
 74
0
 42
0.0000001
 43
0.0000001
 44
0.0000000001
 40
0.0
 40
0.0
 40
0.0
 40
0.0
 40
0.0622276857
 40
0.1228110469
 40
0.1825427337
 40
0.2425587744
 40
0.303957888
 40
0.3674439005
 40
0.4330470302
 40
0.5000000007
 40
0.5669529712
 40
0.632556101
 40
0.6960421136
 40
0.7574412273
 40
0.8174572679
 40
0.8771889545
 40
0.9377723142
 40
1.0
 40
1.0
 40
1.0
 40
1.0
 10
171.7773255814
 20
97.0393354712
 30
0.0
 10
171.7773255814
 20
97.2959641584
 30
0.0
 10
171.7244751249
 20
97.8044010491
 30
0.0
 10
171.4805149978
 20
98.5231896925
 30
0.0
 10
171.0849355825
 20
99.1605398797
 30
0.0
 10
170.5568885765
 20
99.6970633
 30
0.0
 10
169.9180964073
 20
100.1223803064
 30
0.0
 10
169.1910944923
 20
100.4306863325
 30
0.0
 10
168.4009464814
 20
100.6178253147
 30
0.0
 10
167.5773255724
 20
100.6806227883
 30
0.0
 10
166.7537046631
 20
100.6178253119
 30
0.0
 10
165.9635566519
 20
100.4306863264
 30
0.0
 10
165.2365547375
 20
100.1223802968
 30
0.0
 10
164.5977625705
 20
99.6970632871
 30
0.0
 10
164.0697155684
 20
99.1605398649
 30
0.0
 10
163.6741361604
 20
98.5231896819
 30
0.0
 10
163.4301760377
 20
97.8044010441
 30
0.0
 10
163.3773255814
 20
97.2959641591
 30
0.0
 10
163.3773255814
 20
97.0393354712
 30
0.0
  0
SPLINE
  5
7B2
100
AcDbEntity
  8
0
100
AcDbSpline
 62
7
  6
CONTINUOUS
 70
0
 71
3
 72
31
 73
27
 74
0
 42
0.0000001
 43
0.0000001
 44
0.0000000001
 40
0.0
 40
0.0
 40
0.0
 40
0.0
 40
0.0310877449
 40
0.0616245165
 40
0.0916855237
 40
0.1213886177
 40
0.1508832508
 40
0.1803396066
 40
0.2099344889
 40
0.2398388522
 40
0.3010903865
 40
0.3650057427
 40
0.4316290522
 40
0.5000000013
 40
0.5683709502
 40
0.63499426
 40
0.6989096159
 40
0.7601611502
 40
0.7900655135
 40
0.8196603955
 40
0.8491167513
 40
0.8786113841
 40
0.9083144774
 40
0.9383754842
 40
0.9689122554
 40
1.0
 40
1.0
 40
1.0
 40
1.0
 10
163.3773255814
 20
89.5376130648
 30
0.0
 10
163.3773255814
 20
89.4111992961
 30
0.0
 10
163.3908967944
 20
89.1603742232
 30
0.0
 10
163.4528073973
 20
88.791944554
 30
0.0
 10
163.5549768476
 20
88.4383870847
 30
0.0
 10
163.6957733649
 20
88.1029665164
 30
0.0
 10
163.8732159912
 20
87.7882415506
 30
0.0
 10
164.085108586
 20
87.49619317
 30
0.0
 10
164.3292337951
 20
87.2282690485
 30
0.0
 10
164.6973994201
 20
86.9021856264
 30
0.0
 10
165.2319097706
 20
86.5594266981
 30
0.0
 10
165.957617586
 20
86.263779295
 30
0.0
 10
166.7495932769
 20
86.0838441188
 30
0.0
 10
167.5773255964
 20
86.0233949258
 30
0.0
 10
168.4050579167
 20
86.0838441233
 30
0.0
 10
169.1970336063
 20
86.2637793043
 30
0.0
 10
169.9227414198
 20
86.5594267122
 30
0.0
 10
170.4572517664
 20
86.9021856442
 30
0.0
 10
170.8254173879
 20
87.2282690683
 30
0.0
 10
171.0695425939
 20
87.496193191
 30
0.0
 10
171.2814351851
 20
87.7882415714
 30
0.0
 10
171.4588778071
 20
88.1029665347
 30
0.0
 10
171.59967432
 20
88.4383870985
 30
0.0
 10
171.701843767
 20
88.7919445621
 30
0.0
 10
171.7637543688
 20
89.1603742269
 30
0.0
 10
171.7773255814
 20
89.411199297
 30
0.0
 10
171.7773255814
 20
89.5376130648
 30
0.0
  0
SPLINE
  5
7B3
100
AcDbEntity
  8
2_FEATURE
100
AcDbSpline
 62
7
  6
CONTINUOUS
 70
0
 71
3
 72
13
 73
9
 74
0
 42
0.0000001
 43
0.0000001
 44
0.0000000001
 40
0.0
 40
0.0
 40
0.0
 40
0.0
 40
0.2500759192
 40
0.4999781497
 40
0.6250033649
 40
0.7500177972
 40
0.8750110141
 40
1.0
 40
1.0
 40
1.0
 40
1.0
 10
158.4089417012
 20
143.5337209302
 30
0.0
 10
158.6051171083
 20
143.4124998494
 30
0.0
 10
158.9952348619
 20
143.1666561107
 30
0.0
 10
159.4499043916
 20
142.8082045078
 30
0.0
 10
159.7661976135
 20
142.4714981854
 30
0.0
 10
159.9705205542
 20
142.1911101198
 30
0.0
 10
160.1310012163
 20
141.8832195064
 30
0.0
 10
160.2009160401
 20
141.6618675013
 30
0.0
 10
160.2245872899
 20
141.549066372
 30
0.0
  0
SPLINE
  5
7B4
100
AcDbEntity
  8
2_FEATURE
100
AcDbSpline
 62
7
  6
CONTINUOUS
 70
0
 71
3
 72
11
 73
7
 74
0
 42
0.0000001
 43
0.0000001
 44
0.0000000001
 40
0.0
 40
0.0
 40
0.0
 40
0.0
 40
0.2466310307
 40
0.4948092197
 40
0.7454724528
 40
1.0
 40
1.0
 40
1.0
 40
1.0
 10
160.5547040501
 20
126.8888322742
 30
0.0
 10
160.5338221507
 20
126.7609228482
 30
0.0
 10
160.4766022047
 20
126.5065232903
 30
0.0
 10
160.3430538977
 20
126.1370411536
 30
0.0
 10
160.1565758068
 20
125.7862570054
 30
0.0
 10
159.9917827449
 20
125.5752799682
 30
0.0
 10
159.8977269323
 20
125.4801842961
 30
0.0
  0
SPLINE
  5
7B5
100
AcDbEntity
  8
2_FEATURE
100
AcDbSpline
 62
7
  6
CONTINUOUS
 70
0
 71
3
 72
9
 73
5
 74
0
 42
0.0000001
 43
0.0000001
 44
0.0000000001
 40
0.0
 40
0.0
 40
0.0
 40
0.0
 40
0.4971163048
 40
1.0
 40
1.0
 40
1.0
 40
1.0
 10
159.8977269323
 20
125.4801842961
 30
0.0
 10
159.7562123741
 20
125.3371042223
 30
0.0
 10
159.4438769671
 20
125.0765767198
 30
0.0
 10
159.1062910364
 20
124.8528568346
 30
0.0
 10
158.9345330757
 20
124.7435744994
 30
0.0
  0
ELLIPSE
  5
7B6
100
AcDbEntity
  8
0
100
AcDbEllipse
 62
7
  6
CONTINUOUS
 10
49.6981816631
 20
224.5238372093
 30
0.0
 11
-0.0
 21
0.9
 31
0.0
 40
0.4303212505
 41
0.0
 42
0.9817653566
  0
ELLIPSE
  5
7B7
100
AcDbEntity
  8
0
100
AcDbEllipse
 62
7
  6
CONTINUOUS
 10
48.3433877249
 20
224.3238372093
 30
0.0
 11
0.0
 21
0.5
 31
0.0
 40
0.4303212505
 41
-3.1415926536
 42
-1.5707963268
  0
ELLIPSE
  5
7B8
100
AcDbEntity
  8
0
100
AcDbEllipse
 62
7
  6
CONTINUOUS
 10
48.1282270997
 20
224.1238372093
 30
0.0
 11
0.0
 21
1.0
 31
0.0
 40
0.4303212505
 41
-4.7123889804
 42
-3.1415926536
  0
ELLIPSE
  5
7B9
100
AcDbEntity
  8
0
100
AcDbEllipse
 62
7
  6
CONTINUOUS
 10
49.7634478514
 20
224.4738372093
 30
0.0
 11
-0.0
 21
0.25
 31
0.0
 40
0.4303212505
 41
-1.5707963268
 42
0.0
  0
ELLIPSE
  5
7BA
100
AcDbEntity
  8
0
100
AcDbEllipse
 62
7
  6
CONTINUOUS
 10
49.7650841495
 20
224.2238372093
 30
0.0
 11
0.0
 21
0.5
 31
0.0
 40
0.4303212505
 41
0.0042347221
 42
1.5707963268
  0
ELLIPSE
  5
7BB
100
AcDbEntity
  8
0
100
AcDbEllipse
 62
7
  6
CONTINUOUS
 10
49.9802447748
 20
224.4238372093
 30
0.0
 11
0.0
 21
1.0
 31
0.0
 40
0.4303212505
 41
-0.9211415882
 42
-0.0
  0
ELLIPSE
  5
7BC
100
AcDbEntity
  8
0
100
AcDbEllipse
 62
7
  6
CONTINUOUS
 10
50.6795168067
 20
226.8488372093
 30
0.0
 11
-0.0
 21
1.275
 31
0.0
 40
0.4303212505
 41
-3.141592656
 42
-0.0000000024
  0
ELLIPSE
  5
7BD
100
AcDbEntity
  8
0
100
AcDbEllipse
 62
7
  6
CONTINUOUS
 10
48.2365254131
 20
224.0238372093
 30
0.0
 11
0.0
 21
0.9
 31
0.0
 40
0.4303212505
 41
-3.1415926536
 42
-2.159827297
  0
ELLIPSE
  5
7BE
100
AcDbEntity
  8
2_FEATURE
100
AcDbEllipse
 62
7
  6
CONTINUOUS
 10
45.2246095322
 20
177.6238372093
 30
0.0
 11
0.0
 21
40.0
 31
0.0
 40
0.474834911
 41
-0.1618276205
 42
-0.0177690901
  0
ELLIPSE
  5
7BF
100
AcDbEntity
  8
0
100
AcDbEllipse
 62
7
  6
CONTINUOUS
 10
50.5057520084
 20
226.8488372093
 30
0.0
 11
0.0
 21
1.275
 31
0.0
 40
0.4303212505
 41
0.0
 42
6.2831853072
  0
ELLIPSE
  5
7C0
100
AcDbEntity
  8
0
100
AcDbEllipse
 62
7
  6
CONTINUOUS
 10
48.1712592247
 20
224.0738372093
 30
0.0
 11
0.0
 21
0.25
 31
0.0
 40
0.4303212505
 41
-4.7123889804
 42
-3.1415926536
  0
ELLIPSE
  5
7C1
100
AcDbEntity
  8
0
100
AcDbEllipse
 62
7
  6
CONTINUOUS
 10
49.8064799765
 20
224.4238372093
 30
0.0
 11
0.0
 21
1.0
 31
0.0
 40
0.4303212505
 41
-1.5707963268
 42
0.0
  0
ELLIPSE
  5
7C2
100
AcDbEntity
  8
0
100
AcDbEllipse
 62
7
  6
CONTINUOUS
 10
49.5913193512
 20
224.2238372093
 30
0.0
 11
0.0
 21
0.5
 31
0.0
 40
0.4303212505
 41
0.0
 42
1.5707963268
  0
ELLIPSE
  5
7C3
100
AcDbEntity
  8
0
100
AcDbEllipse
 62
7
  6
CONTINUOUS
 10
48.4102902113
 20
224.0238372093
 30
0.0
 11
-0.0
 21
0.9
 31
0.0
 40
0.4303212505
 41
3.1415926536
 42
3.5346736727
  0
ELLIPSE
  5
7C4
100
AcDbEntity
  8
0
100
AcDbEllipse
 62
7
  6
CONTINUOUS
 10
98.5195765144
 20
177.6238372093
 30
0.0
 11
0.0
 21
40.0
 31
0.0
 40
0.474834911
 41
0.0177690901
 42
0.1618276205
  0
ELLIPSE
  5
7C5
100
AcDbEntity
  8
0
100
AcDbEllipse
 62
7
  6
CONTINUOUS
 10
48.345024023
 20
224.0738372093
 30
0.0
 11
0.0
 21
0.25
 31
0.0
 40
0.4303212505
 41
1.5707963268
 42
3.1415926536
  0
ELLIPSE
  5
7C6
100
AcDbEntity
  8
0
100
AcDbEllipse
 62
7
  6
CONTINUOUS
 10
167.4773255814
 20
126.5243698492
 30
0.0
 11
0.9
 21
0.0
 31
0.0
 40
0.9062544486
 41
-3.1415926536
 42
-2.159827297
  0
ELLIPSE
  5
7C7
100
AcDbEntity
  8
0
100
AcDbEllipse
 62
7
  6
CONTINUOUS
 10
167.5273255814
 20
126.6618201225
 30
0.0
 11
0.25
 21
0.0
 31
0.0
 40
0.9062544486
 41
1.5707963268
 42
3.1415926536
  0
ELLIPSE
  5
7C8
100
AcDbEntity
  8
0
100
AcDbEllipse
 62
7
  6
CONTINUOUS
 10
167.8773255814
 20
123.2180532179
 30
0.0
 11
1.0
 21
-0.0
 31
0.0
 40
0.9062544486
 41
-1.5707963268
 42
0.0
  0
ELLIPSE
  5
7C9
100
AcDbEntity
  8
0
100
AcDbEllipse
 62
7
  6
CONTINUOUS
 10
167.6773255814
 20
123.6711804422
 30
0.0
 11
0.5
 21
0.0
 31
0.0
 40
0.9062544486
 41
-0.0
 42
1.5707963268
  0
ELLIPSE
  5
7CA
100
AcDbEntity
  8
0
100
AcDbEllipse
 62
7
  6
CONTINUOUS
 10
167.9273255814
 20
123.4090018158
 30
0.0
 11
0.25
 21
0.0
 31
0.0
 40
0.9062544486
 41
4.7123889804
 42
6.2831853072
  0
ELLIPSE
  5
7CB
100
AcDbEntity
  8
0
100
AcDbEllipse
 62
7
  6
CONTINUOUS
 10
167.9773255814
 20
123.5464520892
 30
0.0
 11
0.9
 21
-0.0
 31
0.0
 40
0.9062544486
 41
0.0
 42
0.787782256
  0
ELLIPSE
  5
7CC
100
AcDbEntity
  8
0
100
AcDbEllipse
 62
7
  6
CONTINUOUS
 10
167.9773255814
 20
123.4461289361
 30
0.0
 11
0.9
 21
0.0
 31
0.0
 40
0.9062544486
 41
6.2831853072
 42
7.2649506638
  0
ELLIPSE
  5
7CD
100
AcDbEntity
  8
0
100
AcDbEllipse
 62
7
  6
CONTINUOUS
 10
167.5773255814
 20
126.8527687205
 30
0.0
 11
1.0
 21
0.0
 31
0.0
 40
0.9062544486
 41
1.5707963268
 42
3.1415926536
  0
ELLIPSE
  5
7CE
100
AcDbEntity
  8
0
100
AcDbEllipse
 62
7
  6
CONTINUOUS
 10
170.3023255814
 20
121.845712892
 30
0.0
 11
1.275
 21
0.0
 31
0.0
 40
0.9062544486
 41
-0.0000000024
 42
3.1415926512
  0
ELLIPSE
  5
7CF
100
AcDbEntity
  8
0
100
AcDbEllipse
 62
7
  6
CONTINUOUS
 10
167.7773255814
 20
126.3996414962
 30
0.0
 11
0.5
 21
-0.0
 31
0.0
 40
0.9062544486
 41
-2.9842064185
 42
-1.5707963268
  0
ELLIPSE
  5
7D0
100
AcDbEntity
  8
0
100
AcDbEllipse
 62
7
  6
CONTINUOUS
 10
170.3023255814
 20
121.7453897389
 30
0.0
 11
1.275
 21
-0.0
 31
0.0
 40
0.9062544486
 41
0.0
 42
6.2831853072
  0
ELLIPSE
  5
7D1
100
AcDbEntity
  8
0
100
AcDbEllipse
 62
7
  6
CONTINUOUS
 10
167.7773255814
 20
126.2993183431
 30
0.0
 11
0.5
 21
0.0
 31
0.0
 40
0.9062544486
 41
-3.1415926536
 42
-1.5707963268
  0
ELLIPSE
  5
7D2
100
AcDbEntity
  8
0
100
AcDbEllipse
 62
7
  6
CONTINUOUS
 10
167.5773255814
 20
126.7524455674
 30
0.0
 11
1.0
 21
0.0
 31
0.0
 40
0.9062544486
 41
1.5707963268
 42
3.1415926536
  0
ELLIPSE
  5
7D3
100
AcDbEntity
  8
0
100
AcDbEllipse
 62
7
  6
CONTINUOUS
 10
167.9273255814
 20
123.3086786627
 30
0.0
 11
0.25
 21
0.0
 31
0.0
 40
0.9062544486
 41
-1.5707963268
 42
0.0
  0
ENDSEC
  0
SECTION
  2
OBJECTS
  0
DICTIONARY
  5
C
100
AcDbDictionary
280
0
281
1
  3
ACAD_GROUP
350
D
  3
ACAD_MLINESTYLE
350
17
  3
ACAD_LAYOUT
350
1A
  3
ACAD_PLOTSETTINGS
350
19
  3
ACAD_PLOTSTYLENAME
350
E
  3
ACAD_TABLESTYLE
350
       7D4
  0
DICTIONARY
  5
D
102
{ACAD_REACTORS
330
C
102
}
100
AcDbDictionary
280
0
281
1
  0
ACDBDICTIONARYWDFLT
  5
E
102
{ACAD_REACTORS
330
C
102
}
100
AcDbDictionary
281
1
  3
Normal
350
F
100
AcDbDictionaryWithDefault
340
F
  0
DICTIONARY
  5
17
102
{ACAD_REACTORS
330
C
102
}
100
AcDbDictionary
280
0
281
1
  3
Standard
350
18
  0
DICTIONARY
  5
7D4
330
C
100
AcDbDictionary
281
1
  3
Standard
350
       7D7
  3
Standard1
350
       7D8
  0
DICTIONARY
  5
19
102
{ACAD_REACTORS
330
C
102
}
100
AcDbDictionary
281
1
  0
DICTIONARY
  5
1A
102
{ACAD_REACTORS
330
C
102
}
100
AcDbDictionary
281
1
  3
Model
350
7D5
  3
Layout1
350
7D6
  0
ACDBPLACEHOLDER
  5
F
102
{ACAD_REACTORS
330
E
102
}
  0
MLINESTYLE
  5
18
102
{ACAD_REACTORS
330
17
102
}
100
AcDbMlineStyle
  2
STANDARD
 70
0
  3

 62
256
 51
90.0
 52
90.0
 71
2
 49
0.5
 62
256
  6
BYLAYER
 49
-0.5
 62
256
  6
BYLAYER
  0
LAYOUT
  5
7D5
102
{ACAD_REACTORS
330
1A
102
}
100
AcDbPlotSettings
  1

  2
none_device
  4

  6

 40
0.0
 41
0.0
 42
0.0
 43
0.0
 44
210.0
 45
297.0
 46
0.0
 47
0.0
 48
0.0
 49
0.0
140
0.0
141
0.0
142
1.0
143
1.0
 70
1024
 72
1
 73
0
 74
0
  7

 75
0
147
1.0
148
0.0
149
0.0
100
AcDbLayout
  1
Model
 70
0
 71
0
 10
0.0
 20
0.0
 11
210.0
 21
297.0
 12
0.0
 22
0.0
 32
0.0
 14
0.0
 24
0.0
 34
0.0
 15
0.0
 25
0.0
 35
0.0
146
0.0
 13
0.0
 23
0.0
 33
0.0
 16
1.0
 26
0.0
 36
0.0
 17
0.0
 27
1.0
 37
0.0
 76
0
330
211
345
0
346
0
  0
LAYOUT
  5
7D6
102
{ACAD_REACTORS
330
1A
102
}
100
AcDbPlotSettings
  1

  2
none_device
  4

  6

 40
0.0
 41
0.0
 42
0.0
 43
0.0
 44
210.0
 45
297.0
 46
0.0
 47
0.0
 48
0.0
 49
0.0
140
0.0
141
0.0
142
1.0
143
1.0
 70
0
 72
1
 73
0
 74
0
  7

 75
0
147
1.0
148
0.0
149
0.0
100
AcDbLayout
  1
Layout1
 70
0
 71
1
 10
0.0
 20
0.0
 11
210.0
 21
297.0
 12
0.0
 22
0.0
 32
0.0
 14
0.0
 24
0.0
 34
0.0
 15
0.0
 25
0.0
 35
0.0
146
0.0
 13
0.0
 23
0.0
 33
0.0
 16
1.0
 26
0.0
 36
0.0
 17
0.0
 27
1.0
 37
0.0
 76
0
330
212
345
0
346
0
  0
TABLESTYLE
  5
7D7
102
{ACAD_REACTORS
330
7D4
330
346
102
}
330
7D4
100
AcDbTableStyle
  3
Standard
 70
0
 71
0
 40
0.06
 41
0.06
280
1
281
1
  7
Standard
140
0.18
170
1
 62
0
 63
7
283
0
  7
Standard
140
0.18
170
1
 62
0
 63
7
283
0
  7
Standard
140
0.18
170
1
 62
0
 63
7
283
0
  0
TABLESTYLE
  5
7D8
102
{ACAD_REACTORS
330
7D4
102
}
330
7D4
100
AcDbTableStyle
  3
Standard1
 70
1
 71
0
 40
0.06
 41
0.06
280
1
281
1
  7
Standard
140
0.18
170
1
 62
0
 63
7
283
0
  7
Standard
140
0.18
170
1
 62
0
 63
7
283
0
  7
Standard
140
0.18
170
1
 62
0
 63
7
283
0
  0
ENDSEC
  0
EOF
