999
DXF file: uni_1700.dxf
999
Pro/ENGINEER 2015290 by Parametric Technology Corporation
  0
SECTION
  2
HEADER
  9
$ACADVER
  1
AC1027
  9
$DWGCODEPAGE
  3
ANSI_1252
  9
$EXTMAX
 10
210.0
 20
297.0
 30
0.0
  9
$EXTMIN
 10
0.0
 20
0.0
 30
0.0
  9
$LIMMIN
 10
0.0
 20
0.0
  9
$LIMMAX
 10
210.0
 20
297.0
  9
$VIEWCTR
 10
105.0
 20
148.5
  9
$VIEWSIZE
 40
297.0
  9
$CLAYER
  8
0
  9
$LTSCALE
 40
19.36
  9
$CELTYPE
  6
BYLAYER
  9
$DIMSCALE
 40
1.0
  9
$DIMASZ
 40
3.5
  9
$DIMEXO
 40
1.0
  9
$DIMDLI
 40
13.376
  9
$DIMEXE
 40
2.0
  9
$DIMCEN
 40
3.168
  9
$DIMLFAC
 40
1.0
  9
$DIMBLK
  1
_FILLED
  9
$DIMALT
 70
0
  9
$DIMALTF
 40
0.0393700787
  9
$DIMTXT
 40
3.5
  9
$DIMTOL
 70
1
  9
$DIMLIM
 70
0
  9
$DIMTFAC
 40
1.0
  9
$DIMTP
 40
0.01
  9
$DIMTM
 40
0.01
  9
$DIMGAP
 40
0.625
  9
$DIMDSEP
 70
46
  9
$AUNITS
 70
0
  9
$PDMODE
 70
3
  9
$PDSIZE
 40
0.3125
  9
$HANDSEED
  5
5DC
  9
$TILEMODE
 70
1
  9
$MEASUREMENT
 70
1
  9
$INSUNITS
 70
4
  0
ENDSEC
  0
SECTION
  2
CLASSES
  0
CLASS
  1
ACDBDICTIONARYWDFLT
  2
AcDbDictionaryWithDefault
  3
AutoCAD 2000
 90
0
 91
1
280
0
281
0
  0
CLASS
  1
ACDBPLACEHOLDER
  2
AcDbPlaceHolder
  3
AutoCAD 2000
 90
0
 91
1
280
0
281
0
  0
CLASS
  1
LAYOUT
  2
AcDbLayout
  3
AutoCAD 2000
 90
0
 91
0
280
0
281
0
  0
CLASS
  1
TABLESTYLE
  2
AcDbTableStyle
  3
ObjectDBX Classes
 90
2047
 91
1
280
0
281
0
  0
CLASS
  1
ACAD_TABLE
  2
AcDbTable
  3
ObjectDBX Classes
 90
1025
 91
1
280
0
281
1
  0
ENDSEC
  0
SECTION
  2
TABLES
  0
TABLE
  2
VPORT
  5
8
100
AcDbSymbolTable
 70
2
  0
VPORT
  5
1F4
100
AcDbSymbolTableRecord
100
AcDbViewportTableRecord
  2
*ACTIVE
 70
0
 10
0.0
 20
0.0
 11
1.0
 21
1.0
 12
105.0
 22
148.5
 13
0.0
 23
0.0
 14
1.0
 24
1.0
 15
0.0
 25
0.0
 16
0.0
 26
0.0
 36
1.0
 17
0.0
 27
0.0
 37
0.0
 40
297.0
 41
0.7070707071
 42
50.0
 43
0.0
 44
0.0
 50
0.0
 51
0.0
 71
0
 72
100
 73
1
 74
1
 75
0
 76
0
 77
0
 78
0
  0
ENDTAB
  0
TABLE
  2
LTYPE
  5
5
100
AcDbSymbolTable
 70
6
  0
LTYPE
  5
14
100
AcDbSymbolTableRecord
100
AcDbLinetypeTableRecord
  2
BYBLOCK
 70
0
  3

 72
65
 73
0
 40
0.0
  0
LTYPE
  5
15
100
AcDbSymbolTableRecord
100
AcDbLinetypeTableRecord
  2
BYLAYER
 70
0
  3

 72
65
 73
0
 40
0.0
  0
LTYPE
  5
16
100
AcDbSymbolTableRecord
100
AcDbLinetypeTableRecord
  2
CONTINUOUS
 70
64
  3
Solid line
 72
65
 73
0
 40
0.0
  0
LTYPE
  5
1F5
100
AcDbSymbolTableRecord
100
AcDbLinetypeTableRecord
  2
CENTER
 70
64
  3
____ _ ____ _ ____ _ ____ _ ____ _ ____ _ ____
 72
65
 73
4
 40
0.6
 49
0.375
 74
0
 49
-0.075
 74
0
 49
0.075
 74
0
 49
-0.075
 74
0
  0
LTYPE
  5
1F6
100
AcDbSymbolTableRecord
100
AcDbLinetypeTableRecord
  2
HIDDEN
 70
64
  3
- - - - - - - - - - - - - - - - - - - -
 72
65
 73
2
 40
0.2
 49
0.1
 74
0
 49
-0.1
 74
0
  0
LTYPE
  5
1F7
100
AcDbSymbolTableRecord
100
AcDbLinetypeTableRecord
  2
PHANTOM
 70
64
  3
_____ _ _ _____ _ _ _____ _ _ _____
 72
65
 73
6
 40
0.8
 49
0.45
 74
0
 49
-0.05
 74
0
 49
0.1
 74
0
 49
-0.05
 74
0
 49
0.1
 74
0
 49
-0.05
 74
0
  0
LTYPE
  5
1F8
100
AcDbSymbolTableRecord
100
AcDbLinetypeTableRecord
  2
DOT
 70
64
  3
. . . . . . . . . . . . . . . . . . . .
 72
65
 73
2
 40
0.2
 49
0.1
 74
0
 49
-0.1
 74
0
  0
LTYPE
  5
1F9
100
AcDbSymbolTableRecord
100
AcDbLinetypeTableRecord
  2
DASHED
 70
64
  3
- - - - - - - - - - - - - - - - - - - -
 72
65
 73
2
 40
0.2
 49
0.1
 74
0
 49
-0.1
 74
0
  0
ENDTAB
  0
TABLE
  2
LAYER
  5
2
100
AcDbSymbolTable
 70
36
  0
LAYER
  5
10
100
AcDbSymbolTableRecord
100
AcDbLayerTableRecord
  2
0
 70
0
 62
7
  6
CONTINUOUS
370
-3
390
F
  0
LAYER
  5
1FA
100
AcDbSymbolTableRecord
100
AcDbLayerTableRecord
  2
DEFAULT_1
 70
0
 62
7
  6
CENTER
370
-3
390
F
  0
LAYER
  5
1FB
100
AcDbSymbolTableRecord
100
AcDbLayerTableRecord
  2
DEFAULT_2
 70
0
 62
8
  6
HIDDEN
370
-3
390
F
  0
LAYER
  5
1FC
100
AcDbSymbolTableRecord
100
AcDbLayerTableRecord
  2
DEFAULT_3
 70
0
 62
7
  6
PHANTOM
370
-3
390
F
  0
LAYER
  5
1FD
100
AcDbSymbolTableRecord
100
AcDbLayerTableRecord
  2
CSYS
 70
0
 62
7
  6
CONTINUOUS
370
-3
390
F
  0
LAYER
  5
1FE
100
AcDbSymbolTableRecord
100
AcDbLayerTableRecord
  2
CURVE
 70
0
 62
7
  6
CONTINUOUS
370
-3
390
F
  0
LAYER
  5
1FF
100
AcDbSymbolTableRecord
100
AcDbLayerTableRecord
  2
NOTES
 70
0
 62
7
  6
CONTINUOUS
370
-3
390
F
  0
LAYER
  5
200
100
AcDbSymbolTableRecord
100
AcDbLayerTableRecord
  2
SURFACE
 70
0
 62
7
  6
CONTINUOUS
370
-3
390
F
  0
ENDTAB
  0
TABLE
  2
STYLE
  5
3
100
AcDbSymbolTable
 70
1
  0
STYLE
  5
11
100
AcDbSymbolTableRecord
100
AcDbTextStyleTableRecord
  2
STANDARD
 70
0
 40
0.0
 41
0.8
 50
0.0
 71
0
 42
0.2
  3
txt
  4

  0
STYLE
  5
201
100
AcDbSymbolTableRecord
100
AcDbTextStyleTableRecord
  2
TEXTSTYLE_1
 70
0
 40
0.0
 41
0.8
 50
0.0
 71
0
 42
0.2
  3
gdt
  4

  0
STYLE
  5
202
100
AcDbSymbolTableRecord
100
AcDbTextStyleTableRecord
  2
TEXTSTYLE_2
 70
0
 40
0.0
 41
0.6
 50
0.0
 71
0
 42
0.2
  3
txt
  4

  0
STYLE
  5
203
100
AcDbSymbolTableRecord
100
AcDbTextStyleTableRecord
  2
TEXTSTYLE_3
 70
0
 40
0.0
 41
1.0
 50
0.0
 71
0
 42
0.2
  3
ftb_____.ttf
  4

  0
STYLE
  5
204
100
AcDbSymbolTableRecord
100
AcDbTextStyleTableRecord
  2
TEXTSTYLE_4
 70
0
 40
0.0
 41
1.0
 50
0.0
 71
0
 42
0.2
  3
fti_____.ttf
  4

  0
STYLE
  5
205
100
AcDbSymbolTableRecord
100
AcDbTextStyleTableRecord
  2
TEXTSTYLE_5
 70
0
 40
0.0
 41
1.0
 50
0.0
 71
0
 42
0.2
  3
frutiger light.ttf
  4

  0
STYLE
  5
206
100
AcDbSymbolTableRecord
100
AcDbTextStyleTableRecord
  2
TEXTSTYLE_6
 70
0
 40
0.0
 41
0.7
 50
0.0
 71
0
 42
0.2
  3
txt
  4

  0
STYLE
  5
207
100
AcDbSymbolTableRecord
100
AcDbTextStyleTableRecord
  2
TEXTSTYLE_7
 70
0
 40
0.0
 41
0.8
 50
0.0
 71
0
 42
0.2
  3
txt
  4

  0
ENDTAB
  0
TABLE
  2
VIEW
  5
6
100
AcDbSymbolTable
 70
0
  0
ENDTAB
  0
TABLE
  2
UCS
  5
7
100
AcDbSymbolTable
 70
0
  0
ENDTAB
  0
TABLE
  2
APPID
  5
9
100
AcDbSymbolTable
 70
1
  0
APPID
  5
208
100
AcDbSymbolTableRecord
100
AcDbRegAppTableRecord
  2
ACAD
 70
0
  0
ENDTAB
  0
TABLE
  2
BLOCK_RECORD
  5
1
100
AcDbSymbolTable
 70
0
  0
BLOCK_RECORD
  5
209
100
AcDbSymbolTableRecord
100
AcDbBlockTableRecord
  2
*Model_Space
  0
BLOCK_RECORD
  5
20A
100
AcDbSymbolTableRecord
100
AcDbBlockTableRecord
  2
*Paper_Space
  0
BLOCK_RECORD
  5
20B
100
AcDbSymbolTableRecord
100
AcDbBlockTableRecord
  2
UNI_LOGO2_BL1
  0
BLOCK_RECORD
  5
20C
100
AcDbSymbolTableRecord
100
AcDbBlockTableRecord
  2
AMMEAAL_LOGO_BL0
  0
BLOCK_RECORD
  5
20D
100
AcDbSymbolTableRecord
100
AcDbBlockTableRecord
  2
*T1
  0
ENDTAB
  0
TABLE
  2
DIMSTYLE
  5
A
100
AcDbSymbolTable
 70
1
100
AcDbDimStyleTable
 71
0
  0
DIMSTYLE
105
20E
100
AcDbSymbolTableRecord
100
AcDbDimStyleTableRecord
  2
STANDARD
 70
0
  3

  4

 40
1.0
 41
3.5
 42
1.0
 43
0.38
 44
2.0
 45
0.0
 46
0.0
 47
0.01
 48
0.01
140
3.5
141
0.09
142
0.0
143
25.4
144
1.0
145
0.0
146
1.0
147
0.625
 71
1.0
 72
0.0
 73
0
 74
0
 75
0
 76
0
 77
1
 78
0
170
0
171
2
172
0
173
0
174
0
175
0
176
0
177
0
178
5
270
2
271
2
272
2
273
2
274
2
275
0
280
0
281
0
282
0
283
1
284
0
285
0
286
0
287
3
288
0
340
11
278
46
  0
ENDTAB
  0
ENDSEC
  0
SECTION
  2
BLOCKS
  0
BLOCK
  5
20
100
AcDbEntity
  8
0
100
AcDbBlockBegin
  2
*Model_Space
 70
0
 10
0.0
 20
0.0
 30
0.0
  3
*Model_Space
  1

  0
ENDBLK
  5
21
100
AcDbEntity
  8
0
100
AcDbBlockEnd
  0
BLOCK
  5
1C
100
AcDbEntity
  8
0
100
AcDbBlockBegin
  2
*Paper_Space
 70
0
 10
0.0
 20
0.0
 30
0.0
  3
*Paper_Space
  1

  0
ENDBLK
  5
1D
100
AcDbEntity
  8
0
100
AcDbBlockEnd
  0
BLOCK
  5
20F
100
AcDbEntity
  8
0
100
AcDbBlockBegin
 62
2
  6
CONTINUOUS
  2
UNI_LOGO2_BL1
 70
64
 10
173.3924355793
 20
35.4837666925
  3
UNI_LOGO2_BL1
  1

  0
TEXT
  5
210
100
AcDbEntity
  8
0
100
AcDbText
 62
7
  6
CONTINUOUS
 10
164.4507205878
 20
30.5765230696
  7
TEXTSTYLE_4
 40
1.0655737705
  1
The brand for plastic modular belts and chains
 41
1.0
 72
0
100
AcDbText
  0
LINE
  5
211
100
AcDbEntity
  8
0
100
AcDbLine
 62
7
  6
CONTINUOUS
 10
149.3705039683
 20
36.0575371843
 11
149.3705039683
 21
33.9263896433
  0
LINE
  5
212
100
AcDbEntity
  8
0
100
AcDbLine
 62
7
  6
CONTINUOUS
 10
149.6595664615
 20
30.9354583476
 11
149.6595664615
 21
31.0322494069
  0
LINE
  5
213
100
AcDbEntity
  8
0
100
AcDbLine
 62
7
  6
CONTINUOUS
 10
149.3705039683
 20
30.9999857205
 11
149.4283164701
 21
30.8064036019
  0
LINE
  5
214
100
AcDbEntity
  8
0
100
AcDbLine
 62
7
  6
CONTINUOUS
 10
150.7639465913
 20
33.8444224302
 11
150.7639465913
 21
36.0575371843
  0
LINE
  5
215
100
AcDbEntity
  8
0
100
AcDbLine
 62
7
  6
CONTINUOUS
 10
151.6830039132
 20
32.0001601351
 11
151.6830039132
 21
30.4837666925
  0
LINE
  5
216
100
AcDbEntity
  8
0
100
AcDbLine
 62
7
  6
CONTINUOUS
 10
151.9720664683
 20
30.4837666925
 11
151.9720664683
 21
31.2258315706
  0
LINE
  5
217
100
AcDbEntity
  8
0
100
AcDbLine
 62
7
  6
CONTINUOUS
 10
151.9720664683
 20
31.3548863163
 11
151.9720664683
 21
32.0001601351
  0
LINE
  5
218
100
AcDbEntity
  8
0
100
AcDbLine
 62
7
  6
CONTINUOUS
 10
149.4283164701
 20
31.1935678842
 11
149.3705039683
 21
30.9999857205
  0
LINE
  5
219
100
AcDbEntity
  8
0
100
AcDbLine
 62
7
  6
CONTINUOUS
 10
149.7751914546
 20
30.7741399155
 11
149.6595664615
 21
30.9354583476
  0
LINE
  5
21A
100
AcDbEntity
  8
0
100
AcDbLine
 62
7
  6
CONTINUOUS
 10
150.8736290235
 20
31.2903589434
 11
150.9314414683
 21
31.1935678842
  0
LINE
  5
21B
100
AcDbEntity
  8
0
100
AcDbLine
 62
7
  6
CONTINUOUS
 10
151.2205040235
 20
31.1935678842
 11
151.1626914132
 21
31.3226226299
  0
LINE
  5
21C
100
AcDbEntity
  8
0
100
AcDbLine
 62
7
  6
CONTINUOUS
 10
152.6491924929
 20
36.0575371843
 11
152.6491924929
 21
34.2542584958
  0
LINE
  5
21D
100
AcDbEntity
  8
0
100
AcDbLine
 62
7
  6
CONTINUOUS
 10
152.6491924929
 20
32.9427830859
 11
152.6491924929
 21
32.287045381
  0
LINE
  5
21E
100
AcDbEntity
  8
0
100
AcDbLine
 62
7
  6
CONTINUOUS
 10
153.0126914683
 20
31.1290405113
 11
153.0126914683
 21
30.4837666925
  0
LINE
  5
21F
100
AcDbEntity
  8
0
100
AcDbLine
 62
7
  6
CONTINUOUS
 10
153.3017538581
 20
30.4837666925
 11
153.3017538581
 21
31.1290405113
  0
LINE
  5
220
100
AcDbEntity
  8
0
100
AcDbLine
 62
7
  6
CONTINUOUS
 10
149.6595664615
 20
31.0322494069
 11
149.7173789683
 21
31.1613041978
  0
LINE
  5
221
100
AcDbEntity
  8
0
100
AcDbLine
 62
7
  6
CONTINUOUS
 10
149.4283164701
 20
30.8064036019
 11
149.5439414683
 21
30.6773488336
  0
LINE
  5
222
100
AcDbEntity
  8
0
100
AcDbLine
 62
7
  6
CONTINUOUS
 10
152.9548788581
 20
31.258095257
 11
153.0126914683
 21
31.1290405113
  0
LINE
  5
223
100
AcDbEntity
  8
0
100
AcDbLine
 62
7
  6
CONTINUOUS
 10
153.7642540786
 20
30.7741399155
 11
153.8220663581
 21
30.6450851472
  0
LINE
  5
224
100
AcDbEntity
  8
0
100
AcDbLine
 62
7
  6
CONTINUOUS
 10
153.3017538581
 20
31.1290405113
 11
153.2439415786
 21
31.2903589434
  0
LINE
  5
225
100
AcDbEntity
  8
0
100
AcDbLine
 62
7
  6
CONTINUOUS
 10
153.7642540786
 20
31.3226226299
 11
153.7642540786
 21
31.258095257
  0
LINE
  5
226
100
AcDbEntity
  8
0
100
AcDbLine
 62
7
  6
CONTINUOUS
 10
153.7642540786
 20
30.8709309748
 11
153.7642540786
 21
30.7741399155
  0
LINE
  5
227
100
AcDbEntity
  8
0
100
AcDbLine
 62
7
  6
CONTINUOUS
 10
154.0426351159
 20
32.287045381
 11
154.0426351159
 21
36.0575371843
  0
LINE
  5
228
100
AcDbEntity
  8
0
100
AcDbLine
 62
7
  6
CONTINUOUS
 10
154.0533164683
 20
30.7418762065
 11
154.0533164683
 21
30.8064036019
  0
LINE
  5
229
100
AcDbEntity
  8
0
100
AcDbLine
 62
7
  6
CONTINUOUS
 10
154.3705039683
 20
36.0575371843
 11
154.3705039683
 21
32.287045381
  0
LINE
  5
22A
100
AcDbEntity
  8
0
100
AcDbLine
 62
7
  6
CONTINUOUS
 10
151.1626914132
 20
30.6773488336
 11
151.2205040235
 21
30.8064036019
  0
LINE
  5
22B
100
AcDbEntity
  8
0
100
AcDbLine
 62
7
  6
CONTINUOUS
 10
155.5564416889
 20
30.5805577631
 11
155.4986287478
 21
30.7418762065
  0
LINE
  5
22C
100
AcDbEntity
  8
0
100
AcDbLine
 62
7
  6
CONTINUOUS
 10
155.2095666889
 20
31.258095257
 11
155.2095666889
 21
31.1613041978
  0
LINE
  5
22D
100
AcDbEntity
  8
0
100
AcDbLine
 62
7
  6
CONTINUOUS
 10
155.2095666889
 20
31.0322494069
 11
155.2095666889
 21
30.8386672883
  0
LINE
  5
22E
100
AcDbEntity
  8
0
100
AcDbLine
 62
7
  6
CONTINUOUS
 10
155.4986287478
 20
30.7418762065
 11
155.4986287478
 21
31.258095257
  0
LINE
  5
22F
100
AcDbEntity
  8
0
100
AcDbLine
 62
7
  6
CONTINUOUS
 10
155.7639465913
 20
32.287045381
 11
155.7639465913
 21
34.0903240696
  0
LINE
  5
230
100
AcDbEntity
  8
0
100
AcDbLine
 62
7
  6
CONTINUOUS
 10
155.7639465913
 20
35.4017994794
 11
155.7639465913
 21
36.0575371843
  0
LINE
  5
231
100
AcDbEntity
  8
0
100
AcDbLine
 62
7
  6
CONTINUOUS
 10
156.0767541889
 20
32.0001601351
 11
156.0767541889
 21
31.838841703
  0
LINE
  5
232
100
AcDbEntity
  8
0
100
AcDbLine
 62
7
  6
CONTINUOUS
 10
156.0767541889
 20
31.5162047484
 11
156.0767541889
 21
30.4837666925
  0
LINE
  5
233
100
AcDbEntity
  8
0
100
AcDbLine
 62
7
  6
CONTINUOUS
 10
156.3658162478
 20
30.4837666925
 11
156.3658162478
 21
31.5162047484
  0
LINE
  5
234
100
AcDbEntity
  8
0
100
AcDbLine
 62
7
  6
CONTINUOUS
 10
156.3658162478
 20
31.838841703
 11
156.3658162478
 21
32.0001601351
  0
LINE
  5
235
100
AcDbEntity
  8
0
100
AcDbLine
 62
7
  6
CONTINUOUS
 10
150.9314414683
 20
30.8064036019
 11
150.8736290235
 21
30.7096125201
  0
LINE
  5
236
100
AcDbEntity
  8
0
100
AcDbLine
 62
7
  6
CONTINUOUS
 10
153.2439415786
 20
31.2903589434
 11
153.1861289683
 21
31.3548863163
  0
LINE
  5
237
100
AcDbEntity
  8
0
100
AcDbLine
 62
7
  6
CONTINUOUS
 10
154.1111290786
 20
30.6773488336
 11
154.0533164683
 21
30.7418762065
  0
LINE
  5
238
100
AcDbEntity
  8
0
100
AcDbLine
 62
7
  6
CONTINUOUS
 10
155.2673789683
 20
30.548294071
 11
155.3251912478
 21
30.4837666925
  0
LINE
  5
239
100
AcDbEntity
  8
0
100
AcDbLine
 62
7
  6
CONTINUOUS
 10
155.2095666889
 20
30.6450851472
 11
155.2673789683
 21
30.548294071
  0
LINE
  5
23A
100
AcDbEntity
  8
0
100
AcDbLine
 62
7
  6
CONTINUOUS
 10
155.6142539683
 20
30.4837666925
 11
155.5564416889
 21
30.5805577631
  0
LINE
  5
23B
100
AcDbEntity
  8
0
100
AcDbLine
 62
7
  6
CONTINUOUS
 10
155.4986287478
 20
31.258095257
 11
155.4408164683
 21
31.3548863163
  0
LINE
  5
23C
100
AcDbEntity
  8
0
100
AcDbLine
 62
7
  6
CONTINUOUS
 10
156.8283164683
 20
31.5162047484
 11
156.8283164683
 21
30.4837666925
  0
LINE
  5
23D
100
AcDbEntity
  8
0
100
AcDbLine
 62
7
  6
CONTINUOUS
 10
157.1173791889
 20
30.4837666925
 11
157.1173791889
 21
31.2258315706
  0
LINE
  5
23E
100
AcDbEntity
  8
0
100
AcDbLine
 62
7
  6
CONTINUOUS
 10
157.1173791889
 20
31.3548863163
 11
157.1173791889
 21
31.5162047484
  0
LINE
  5
23F
100
AcDbEntity
  8
0
100
AcDbLine
 62
7
  6
CONTINUOUS
 10
157.6491924929
 20
34.5001601351
 11
157.6491924929
 21
32.287045381
  0
LINE
  5
240
100
AcDbEntity
  8
0
100
AcDbLine
 62
7
  6
CONTINUOUS
 10
149.5439414683
 20
31.3226226299
 11
149.4283164701
 21
31.1935678842
  0
LINE
  5
241
100
AcDbEntity
  8
0
100
AcDbLine
 62
7
  6
CONTINUOUS
 10
149.7173789683
 20
31.1613041978
 11
149.7751914546
 21
31.2258315706
  0
LINE
  5
242
100
AcDbEntity
  8
0
100
AcDbLine
 62
7
  6
CONTINUOUS
 10
149.5439414683
 20
30.6773488336
 11
149.6595664615
 21
30.6128214495
  0
LINE
  5
243
100
AcDbEntity
  8
0
100
AcDbLine
 62
7
  6
CONTINUOUS
 10
149.9486289546
 20
30.6773488336
 11
149.7751914546
 21
30.7741399155
  0
LINE
  5
244
100
AcDbEntity
  8
0
100
AcDbLine
 62
7
  6
CONTINUOUS
 10
155.1517537478
 20
31.3226226299
 11
155.2095666889
 21
31.258095257
  0
LINE
  5
245
100
AcDbEntity
  8
0
100
AcDbLine
 62
7
  6
CONTINUOUS
 10
158.1001912478
 20
31.258095257
 11
158.1580041889
 21
31.0967768249
  0
LINE
  5
246
100
AcDbEntity
  8
0
100
AcDbLine
 62
7
  6
CONTINUOUS
 10
158.4470662478
 20
31.0967768249
 11
158.3892539683
 21
31.258095257
  0
LINE
  5
247
100
AcDbEntity
  8
0
100
AcDbLine
 62
7
  6
CONTINUOUS
 10
158.1580041889
 20
31.0967768249
 11
158.1580041889
 21
30.4837666925
  0
LINE
  5
248
100
AcDbEntity
  8
0
100
AcDbLine
 62
7
  6
CONTINUOUS
 10
158.4470662478
 20
30.4837666925
 11
158.4470662478
 21
31.0967768249
  0
LINE
  5
249
100
AcDbEntity
  8
0
100
AcDbLine
 62
7
  6
CONTINUOUS
 10
158.9095664683
 20
31.3226226299
 11
158.9095664683
 21
31.258095257
  0
LINE
  5
24A
100
AcDbEntity
  8
0
100
AcDbLine
 62
7
  6
CONTINUOUS
 10
159.0426351159
 20
32.287045381
 11
159.0426351159
 21
34.418192922
  0
LINE
  5
24B
100
AcDbEntity
  8
0
100
AcDbLine
 62
7
  6
CONTINUOUS
 10
159.3705039683
 20
36.0575371843
 11
159.3705039683
 21
32.287045381
  0
LINE
  5
24C
100
AcDbEntity
  8
0
100
AcDbLine
 62
7
  6
CONTINUOUS
 10
154.0533164683
 20
30.8064036019
 11
154.1111290786
 21
30.9031946612
  0
LINE
  5
24D
100
AcDbEntity
  8
0
100
AcDbLine
 62
7
  6
CONTINUOUS
 10
149.6595664615
 20
30.6128214495
 11
149.8330039821
 21
30.548294071
  0
LINE
  5
24E
100
AcDbEntity
  8
0
100
AcDbLine
 62
7
  6
CONTINUOUS
 10
151.1626914132
 20
31.3226226299
 11
150.9892539132
 21
31.4194136891
  0
LINE
  5
24F
100
AcDbEntity
  8
0
100
AcDbLine
 62
7
  6
CONTINUOUS
 10
153.8220663581
 20
30.6450851472
 11
153.9955038581
 21
30.548294071
  0
LINE
  5
250
100
AcDbEntity
  8
0
100
AcDbLine
 62
7
  6
CONTINUOUS
 10
152.8392539683
 20
31.3226226299
 11
152.9548788581
 21
31.258095257
  0
LINE
  5
251
100
AcDbEntity
  8
0
100
AcDbLine
 62
7
  6
CONTINUOUS
 10
153.1861289683
 20
31.3548863163
 11
153.0705040786
 21
31.4194136891
  0
LINE
  5
252
100
AcDbEntity
  8
0
100
AcDbLine
 62
7
  6
CONTINUOUS
 10
158.9095664683
 20
30.7418762065
 11
159.0251916889
 21
30.6128214495
  0
LINE
  5
253
100
AcDbEntity
  8
0
100
AcDbLine
 62
7
  6
CONTINUOUS
 10
159.2564414683
 20
30.6773488336
 11
159.1986291889
 21
30.7418762065
  0
LINE
  5
254
100
AcDbEntity
  8
0
100
AcDbLine
 62
7
  6
CONTINUOUS
 10
158.9095664683
 20
31.258095257
 11
159.0251916889
 21
31.1290405113
  0
LINE
  5
255
100
AcDbEntity
  8
0
100
AcDbLine
 62
7
  6
CONTINUOUS
 10
158.3892539683
 20
31.258095257
 11
158.3314416889
 21
31.3548863163
  0
LINE
  5
256
100
AcDbEntity
  8
0
100
AcDbLine
 62
7
  6
CONTINUOUS
 10
160.7595660273
 20
30.6773488336
 11
160.7595660273
 21
30.7418762065
  0
LINE
  5
257
100
AcDbEntity
  8
0
100
AcDbLine
 62
7
  6
CONTINUOUS
 10
160.7639465913
 20
32.287045381
 11
160.7639465913
 21
36.0575371843
  0
LINE
  5
258
100
AcDbEntity
  8
0
100
AcDbLine
 62
7
  6
CONTINUOUS
 10
153.8220663581
 20
31.3871500027
 11
153.7642540786
 21
31.3226226299
  0
LINE
  5
259
100
AcDbEntity
  8
0
100
AcDbLine
 62
7
  6
CONTINUOUS
 10
150.7001914408
 20
31.3548863163
 11
150.8736290235
 21
31.2903589434
  0
LINE
  5
25A
100
AcDbEntity
  8
0
100
AcDbLine
 62
7
  6
CONTINUOUS
 10
155.4408164683
 20
31.3548863163
 11
155.3251912478
 21
31.4194136891
  0
LINE
  5
25B
100
AcDbEntity
  8
0
100
AcDbLine
 62
7
  6
CONTINUOUS
 10
159.2564414683
 20
31.1935678842
 11
159.1986291889
 21
31.258095257
  0
LINE
  5
25C
100
AcDbEntity
  8
0
100
AcDbLine
 62
7
  6
CONTINUOUS
 10
160.4126916889
 20
30.8064036019
 11
160.4705039683
 21
30.7418762065
  0
LINE
  5
25D
100
AcDbEntity
  8
0
100
AcDbLine
 62
7
  6
CONTINUOUS
 10
160.7595660273
 20
30.7418762065
 11
160.6439414683
 21
30.8709309748
  0
LINE
  5
25E
100
AcDbEntity
  8
0
100
AcDbLine
 62
7
  6
CONTINUOUS
 10
160.4126916889
 20
31.3226226299
 11
160.4705039683
 21
31.258095257
  0
LINE
  5
25F
100
AcDbEntity
  8
0
100
AcDbLine
 62
7
  6
CONTINUOUS
 10
160.7595660273
 20
31.258095257
 11
160.6439414683
 21
31.3871500027
  0
LINE
  5
260
100
AcDbEntity
  8
0
100
AcDbLine
 62
7
  6
CONTINUOUS
 10
154.0533164683
 20
31.258095257
 11
154.1111290786
 21
31.3226226299
  0
LINE
  5
261
100
AcDbEntity
  8
0
100
AcDbLine
 62
7
  6
CONTINUOUS
 10
153.8798789683
 20
30.9999857205
 11
153.7642540786
 21
30.8709309748
  0
LINE
  5
262
100
AcDbEntity
  8
0
100
AcDbLine
 62
7
  6
CONTINUOUS
 10
155.2095666889
 20
30.8386672883
 11
155.1517537478
 21
30.7741399155
  0
LINE
  5
263
100
AcDbEntity
  8
0
100
AcDbLine
 62
7
  6
CONTINUOUS
 10
155.1517537478
 20
30.5805577631
 11
155.2095666889
 21
30.6450851472
  0
LINE
  5
264
100
AcDbEntity
  8
0
100
AcDbLine
 62
7
  6
CONTINUOUS
 10
153.9955038581
 20
30.548294071
 11
154.1111290786
 21
30.5160303817
  0
LINE
  5
265
100
AcDbEntity
  8
0
100
AcDbLine
 62
7
  6
CONTINUOUS
 10
150.9892539132
 20
31.4194136891
 11
150.7580039683
 21
31.483941062
  0
LINE
  5
266
100
AcDbEntity
  8
0
100
AcDbLine
 62
7
  6
CONTINUOUS
 10
154.3423788581
 20
30.6128214495
 11
154.1111290786
 21
30.6773488336
  0
LINE
  5
267
100
AcDbEntity
  8
0
100
AcDbLine
 62
7
  6
CONTINUOUS
 10
153.0705040786
 20
31.4194136891
 11
152.8970665786
 21
31.483941062
  0
LINE
  5
268
100
AcDbEntity
  8
0
100
AcDbLine
 62
7
  6
CONTINUOUS
 10
155.3251912478
 20
31.4194136891
 11
155.1517537478
 21
31.483941062
  0
LINE
  5
269
100
AcDbEntity
  8
0
100
AcDbLine
 62
7
  6
CONTINUOUS
 10
157.9845666889
 20
31.3226226299
 11
158.1001912478
 21
31.258095257
  0
LINE
  5
26A
100
AcDbEntity
  8
0
100
AcDbLine
 62
7
  6
CONTINUOUS
 10
158.3314416889
 20
31.3548863163
 11
158.2158164683
 21
31.4194136891
  0
LINE
  5
26B
100
AcDbEntity
  8
0
100
AcDbLine
 62
7
  6
CONTINUOUS
 10
149.8330039821
 20
30.548294071
 11
150.0064414821
 21
30.5160303817
  0
LINE
  5
26C
100
AcDbEntity
  8
0
100
AcDbLine
 62
7
  6
CONTINUOUS
 10
150.2955039959
 20
30.6128214495
 11
149.9486289546
 21
30.6773488336
  0
LINE
  5
26D
100
AcDbEntity
  8
0
100
AcDbLine
 62
7
  6
CONTINUOUS
 10
152.7236290786
 20
31.3548863163
 11
152.8392539683
 21
31.3226226299
  0
LINE
  5
26E
100
AcDbEntity
  8
0
100
AcDbLine
 62
7
  6
CONTINUOUS
 10
155.0361291889
 20
31.3548863163
 11
155.1517537478
 21
31.3226226299
  0
LINE
  5
26F
100
AcDbEntity
  8
0
100
AcDbLine
 62
7
  6
CONTINUOUS
 10
159.3720666889
 20
30.6450851472
 11
159.2564414683
 21
30.6773488336
  0
LINE
  5
270
100
AcDbEntity
  8
0
100
AcDbLine
 62
7
  6
CONTINUOUS
 10
157.8689414683
 20
31.3548863163
 11
157.9845666889
 21
31.3226226299
  0
LINE
  5
271
100
AcDbEntity
  8
0
100
AcDbLine
 62
7
  6
CONTINUOUS
 10
159.0251916889
 20
30.6128214495
 11
159.1986291889
 21
30.548294071
  0
LINE
  5
272
100
AcDbEntity
  8
0
100
AcDbLine
 62
7
  6
CONTINUOUS
 10
158.2158164683
 20
31.4194136891
 11
158.0423789683
 21
31.483941062
  0
LINE
  5
273
100
AcDbEntity
  8
0
100
AcDbLine
 62
7
  6
CONTINUOUS
 10
159.4298789683
 20
31.1290405113
 11
159.2564414683
 21
31.1935678842
  0
LINE
  5
274
100
AcDbEntity
  8
0
100
AcDbLine
 62
7
  6
CONTINUOUS
 10
160.2392541889
 20
30.8709309748
 11
160.4126916889
 21
30.8064036019
  0
LINE
  5
275
100
AcDbEntity
  8
0
100
AcDbLine
 62
7
  6
CONTINUOUS
 10
160.6439414683
 20
31.3871500027
 11
160.4705039683
 21
31.4516773756
  0
LINE
  5
276
100
AcDbEntity
  8
0
100
AcDbLine
 62
7
  6
CONTINUOUS
 10
159.0251916889
 20
31.1290405113
 11
159.2564414683
 21
31.0322494069
  0
LINE
  5
277
100
AcDbEntity
  8
0
100
AcDbLine
 62
7
  6
CONTINUOUS
 10
160.6439414683
 20
30.8709309748
 11
160.4126916889
 21
30.967722034
  0
LINE
  5
278
100
AcDbEntity
  8
0
100
AcDbLine
 62
7
  6
CONTINUOUS
 10
159.1986291889
 20
31.258095257
 11
159.2564414683
 21
31.3226226299
  0
LINE
  5
279
100
AcDbEntity
  8
0
100
AcDbLine
 62
7
  6
CONTINUOUS
 10
149.6595664615
 20
31.3871500027
 11
149.5439414683
 21
31.3226226299
  0
LINE
  5
27A
100
AcDbEntity
  8
0
100
AcDbLine
 62
7
  6
CONTINUOUS
 10
149.7751914546
 20
31.2258315706
 11
149.9486289546
 21
31.3226226299
  0
LINE
  5
27B
100
AcDbEntity
  8
0
100
AcDbLine
 62
7
  6
CONTINUOUS
 10
152.0876915235
 20
31.4194136891
 11
151.9720664683
 21
31.3548863163
  0
LINE
  5
27C
100
AcDbEntity
  8
0
100
AcDbLine
 62
7
  6
CONTINUOUS
 10
151.9720664683
 20
31.2258315706
 11
152.0876915235
 21
31.2903589434
  0
LINE
  5
27D
100
AcDbEntity
  8
0
100
AcDbLine
 62
7
  6
CONTINUOUS
 10
150.9892539132
 20
30.5805577631
 11
151.1626914132
 21
30.6773488336
  0
LINE
  5
27E
100
AcDbEntity
  8
0
100
AcDbLine
 62
7
  6
CONTINUOUS
 10
150.0064414821
 20
30.5160303817
 11
150.3533164408
 21
30.4837666925
  0
LINE
  5
27F
100
AcDbEntity
  8
0
100
AcDbLine
 62
7
  6
CONTINUOUS
 10
154.1111290786
 20
30.5160303817
 11
154.3423788581
 21
30.4837666925
  0
LINE
  5
280
100
AcDbEntity
  8
0
100
AcDbLine
 62
7
  6
CONTINUOUS
 10
152.4923789683
 20
31.3871500027
 11
152.7236290786
 21
31.3548863163
  0
LINE
  5
281
100
AcDbEntity
  8
0
100
AcDbLine
 62
7
  6
CONTINUOUS
 10
154.8048790786
 20
31.3871500027
 11
155.0361291889
 21
31.3548863163
  0
LINE
  5
282
100
AcDbEntity
  8
0
100
AcDbLine
 62
7
  6
CONTINUOUS
 10
159.2564414683
 20
31.0322494069
 11
160.2392541889
 21
30.8709309748
  0
LINE
  5
283
100
AcDbEntity
  8
0
100
AcDbLine
 62
7
  6
CONTINUOUS
 10
160.4126916889
 20
30.967722034
 11
159.4298789683
 21
31.1290405113
  0
LINE
  5
284
100
AcDbEntity
  8
0
100
AcDbLine
 62
7
  6
CONTINUOUS
 10
152.8970665786
 20
31.483941062
 11
152.7236290786
 21
31.5162047484
  0
LINE
  5
285
100
AcDbEntity
  8
0
100
AcDbLine
 62
7
  6
CONTINUOUS
 10
159.1986291889
 20
30.548294071
 11
159.3720666889
 21
30.5160303817
  0
LINE
  5
286
100
AcDbEntity
  8
0
100
AcDbLine
 62
7
  6
CONTINUOUS
 10
158.0423789683
 20
31.483941062
 11
157.8689414683
 21
31.5162047484
  0
LINE
  5
287
100
AcDbEntity
  8
0
100
AcDbLine
 62
7
  6
CONTINUOUS
 10
160.2970664683
 20
31.3548863163
 11
160.4126916889
 21
31.3226226299
  0
LINE
  5
288
100
AcDbEntity
  8
0
100
AcDbLine
 62
7
  6
CONTINUOUS
 10
160.4705039683
 20
30.7418762065
 11
160.4126916889
 21
30.6773488336
  0
LINE
  5
289
100
AcDbEntity
  8
0
100
AcDbLine
 62
7
  6
CONTINUOUS
 10
159.0251916889
 20
31.4194136891
 11
158.9095664683
 21
31.3226226299
  0
LINE
  5
28A
100
AcDbEntity
  8
0
100
AcDbLine
 62
7
  6
CONTINUOUS
 10
153.9376915786
 20
31.4516773756
 11
153.8220663581
 21
31.3871500027
  0
LINE
  5
28B
100
AcDbEntity
  8
0
100
AcDbLine
 62
7
  6
CONTINUOUS
 10
153.9955038581
 20
31.0645131385
 11
153.8798789683
 21
30.9999857205
  0
LINE
  5
28C
100
AcDbEntity
  8
0
100
AcDbLine
 62
7
  6
CONTINUOUS
 10
154.1111290786
 20
30.9031946612
 11
154.2267539683
 21
30.967722034
  0
LINE
  5
28D
100
AcDbEntity
  8
0
100
AcDbLine
 62
7
  6
CONTINUOUS
 10
151.6830039132
 20
30.4837666925
 11
151.9720664683
 21
30.4837666925
  0
LINE
  5
28E
100
AcDbEntity
  8
0
100
AcDbLine
 62
7
  6
CONTINUOUS
 10
153.0126914683
 20
30.4837666925
 11
153.3017538581
 21
30.4837666925
  0
LINE
  5
28F
100
AcDbEntity
  8
0
100
AcDbLine
 62
7
  6
CONTINUOUS
 10
154.3423788581
 20
30.4837666925
 11
154.6892538581
 21
30.4837666925
  0
LINE
  5
290
100
AcDbEntity
  8
0
100
AcDbLine
 62
7
  6
CONTINUOUS
 10
155.3251912478
 20
30.4837666925
 11
155.6142539683
 21
30.4837666925
  0
LINE
  5
291
100
AcDbEntity
  8
0
100
AcDbLine
 62
7
  6
CONTINUOUS
 10
156.0767541889
 20
30.4837666925
 11
156.3658162478
 21
30.4837666925
  0
LINE
  5
292
100
AcDbEntity
  8
0
100
AcDbLine
 62
7
  6
CONTINUOUS
 10
156.8283164683
 20
30.4837666925
 11
157.1173791889
 21
30.4837666925
  0
LINE
  5
293
100
AcDbEntity
  8
0
100
AcDbLine
 62
7
  6
CONTINUOUS
 10
158.1580041889
 20
30.4837666925
 11
158.4470662478
 21
30.4837666925
  0
LINE
  5
294
100
AcDbEntity
  8
0
100
AcDbLine
 62
7
  6
CONTINUOUS
 10
159.7189416889
 20
30.4837666925
 11
160.0658166889
 21
30.4837666925
  0
LINE
  5
295
100
AcDbEntity
  8
0
100
AcDbLine
 62
7
  6
CONTINUOUS
 10
160.0658166889
 20
30.6128214495
 11
159.7189416889
 21
30.6128214495
  0
LINE
  5
296
100
AcDbEntity
  8
0
100
AcDbLine
 62
7
  6
CONTINUOUS
 10
154.6892538581
 20
30.6128214495
 11
154.3423788581
 21
30.6128214495
  0
LINE
  5
297
100
AcDbEntity
  8
0
100
AcDbLine
 62
7
  6
CONTINUOUS
 10
159.1986291889
 20
30.7418762065
 11
158.9095664683
 21
30.7418762065
  0
LINE
  5
298
100
AcDbEntity
  8
0
100
AcDbLine
 62
7
  6
CONTINUOUS
 10
151.2205040235
 20
30.8064036019
 11
150.9314414683
 21
30.8064036019
  0
LINE
  5
299
100
AcDbEntity
  8
0
100
AcDbLine
 62
7
  6
CONTINUOUS
 10
150.2955039959
 20
31.3871500027
 11
150.7001914408
 21
31.3548863163
  0
LINE
  5
29A
100
AcDbEntity
  8
0
100
AcDbLine
 62
7
  6
CONTINUOUS
 10
150.7580039683
 20
31.483941062
 11
150.3533164408
 21
31.5162047484
  0
LINE
  5
29B
100
AcDbEntity
  8
0
100
AcDbLine
 62
7
  6
CONTINUOUS
 10
159.3720666889
 20
30.5160303817
 11
159.7189416889
 21
30.4837666925
  0
LINE
  5
29C
100
AcDbEntity
  8
0
100
AcDbLine
 62
7
  6
CONTINUOUS
 10
159.7189416889
 20
30.6128214495
 11
159.3720666889
 21
30.6450851472
  0
LINE
  5
29D
100
AcDbEntity
  8
0
100
AcDbLine
 62
7
  6
CONTINUOUS
 10
155.1517537478
 20
31.483941062
 11
154.8048790786
 21
31.5162047484
  0
LINE
  5
29E
100
AcDbEntity
  8
0
100
AcDbLine
 62
7
  6
CONTINUOUS
 10
159.9501914683
 20
31.3871500027
 11
160.2970664683
 21
31.3548863163
  0
LINE
  5
29F
100
AcDbEntity
  8
0
100
AcDbLine
 62
7
  6
CONTINUOUS
 10
160.2970664683
 20
31.483941062
 11
159.9501914683
 21
31.5162047484
  0
LINE
  5
2A0
100
AcDbEntity
  8
0
100
AcDbLine
 62
7
  6
CONTINUOUS
 10
157.6376916889
 20
31.3871500027
 11
157.8689414683
 21
31.3548863163
  0
LINE
  5
2A1
100
AcDbEntity
  8
0
100
AcDbLine
 62
7
  6
CONTINUOUS
 10
160.4705039683
 20
31.4516773756
 11
160.2970664683
 21
31.483941062
  0
LINE
  5
2A2
100
AcDbEntity
  8
0
100
AcDbLine
 62
7
  6
CONTINUOUS
 10
160.6439414683
 20
30.5805577631
 11
160.7595660273
 21
30.6773488336
  0
LINE
  5
2A3
100
AcDbEntity
  8
0
100
AcDbLine
 62
7
  6
CONTINUOUS
 10
155.1517537478
 20
30.7741399155
 11
154.9783162478
 21
30.6773488336
  0
LINE
  5
2A4
100
AcDbEntity
  8
0
100
AcDbLine
 62
7
  6
CONTINUOUS
 10
157.2330037478
 20
31.4194136891
 11
157.1173791889
 21
31.3548863163
  0
LINE
  5
2A5
100
AcDbEntity
  8
0
100
AcDbLine
 62
7
  6
CONTINUOUS
 10
157.1173791889
 20
31.2258315706
 11
157.2330037478
 21
31.2903589434
  0
LINE
  5
2A6
100
AcDbEntity
  8
0
100
AcDbLine
 62
7
  6
CONTINUOUS
 10
149.8330039821
 20
31.4516773756
 11
149.6595664615
 21
31.3871500027
  0
LINE
  5
2A7
100
AcDbEntity
  8
0
100
AcDbLine
 62
7
  6
CONTINUOUS
 10
152.2611288581
 20
31.483941062
 11
152.0876915235
 21
31.4194136891
  0
LINE
  5
2A8
100
AcDbEntity
  8
0
100
AcDbLine
 62
7
  6
CONTINUOUS
 10
152.0876915235
 20
31.2903589434
 11
152.2611288581
 21
31.3548863163
  0
LINE
  5
2A9
100
AcDbEntity
  8
0
100
AcDbLine
 62
7
  6
CONTINUOUS
 10
150.8736290235
 20
30.7096125201
 11
150.7001914408
 21
30.6450851472
  0
LINE
  5
2AA
100
AcDbEntity
  8
0
100
AcDbLine
 62
7
  6
CONTINUOUS
 10
160.2970664683
 20
30.6450851472
 11
160.0658166889
 21
30.6128214495
  0
LINE
  5
2AB
100
AcDbEntity
  8
0
100
AcDbLine
 62
7
  6
CONTINUOUS
 10
154.6892538581
 20
30.4837666925
 11
154.9783162478
 21
30.5160303817
  0
LINE
  5
2AC
100
AcDbEntity
  8
0
100
AcDbLine
 62
7
  6
CONTINUOUS
 10
160.0658166889
 20
30.4837666925
 11
160.4126916889
 21
30.5160303817
  0
LINE
  5
2AD
100
AcDbEntity
  8
0
100
AcDbLine
 62
7
  6
CONTINUOUS
 10
150.3533164408
 20
30.4837666925
 11
150.7580039683
 21
30.5160303817
  0
LINE
  5
2AE
100
AcDbEntity
  8
0
100
AcDbLine
 62
7
  6
CONTINUOUS
 10
150.7001914408
 20
30.6450851472
 11
150.2955039959
 21
30.6128214495
  0
LINE
  5
2AF
100
AcDbEntity
  8
0
100
AcDbLine
 62
7
  6
CONTINUOUS
 10
154.5736289683
 20
31.0322494069
 11
155.2095666889
 21
31.0322494069
  0
LINE
  5
2B0
100
AcDbEntity
  8
0
100
AcDbLine
 62
7
  6
CONTINUOUS
 10
155.2095666889
 20
31.1613041978
 11
154.5736289683
 21
31.1613041978
  0
LINE
  5
2B1
100
AcDbEntity
  8
0
100
AcDbLine
 62
7
  6
CONTINUOUS
 10
150.9314414683
 20
31.1935678842
 11
151.2205040235
 21
31.1935678842
  0
LINE
  5
2B2
100
AcDbEntity
  8
0
100
AcDbLine
 62
7
  6
CONTINUOUS
 10
153.7642540786
 20
31.258095257
 11
154.0533164683
 21
31.258095257
  0
LINE
  5
2B3
100
AcDbEntity
  8
0
100
AcDbLine
 62
7
  6
CONTINUOUS
 10
160.4705039683
 20
31.258095257
 11
160.7595660273
 21
31.258095257
  0
LINE
  5
2B4
100
AcDbEntity
  8
0
100
AcDbLine
 62
7
  6
CONTINUOUS
 10
154.4580040786
 20
31.3871500027
 11
154.8048790786
 21
31.3871500027
  0
LINE
  5
2B5
100
AcDbEntity
  8
0
100
AcDbLine
 62
7
  6
CONTINUOUS
 10
159.6033164683
 20
31.3871500027
 11
159.9501914683
 21
31.3871500027
  0
LINE
  5
2B6
100
AcDbEntity
  8
0
100
AcDbLine
 62
7
  6
CONTINUOUS
 10
159.9501914683
 20
31.5162047484
 11
159.6033164683
 21
31.5162047484
  0
LINE
  5
2B7
100
AcDbEntity
  8
0
100
AcDbLine
 62
7
  6
CONTINUOUS
 10
157.8689414683
 20
31.5162047484
 11
157.6376916889
 21
31.5162047484
  0
LINE
  5
2B8
100
AcDbEntity
  8
0
100
AcDbLine
 62
7
  6
CONTINUOUS
 10
157.1173791889
 20
31.5162047484
 11
156.8283164683
 21
31.5162047484
  0
LINE
  5
2B9
100
AcDbEntity
  8
0
100
AcDbLine
 62
7
  6
CONTINUOUS
 10
156.3658162478
 20
31.5162047484
 11
156.0767541889
 21
31.5162047484
  0
LINE
  5
2BA
100
AcDbEntity
  8
0
100
AcDbLine
 62
7
  6
CONTINUOUS
 10
154.8048790786
 20
31.5162047484
 11
154.4580040786
 21
31.5162047484
  0
LINE
  5
2BB
100
AcDbEntity
  8
0
100
AcDbLine
 62
7
  6
CONTINUOUS
 10
152.7236290786
 20
31.5162047484
 11
152.4923789683
 21
31.5162047484
  0
LINE
  5
2BC
100
AcDbEntity
  8
0
100
AcDbLine
 62
7
  6
CONTINUOUS
 10
156.0767541889
 20
31.838841703
 11
156.3658162478
 21
31.838841703
  0
LINE
  5
2BD
100
AcDbEntity
  8
0
100
AcDbLine
 62
7
  6
CONTINUOUS
 10
156.3658162478
 20
32.0001601351
 11
156.0767541889
 21
32.0001601351
  0
LINE
  5
2BE
100
AcDbEntity
  8
0
100
AcDbLine
 62
7
  6
CONTINUOUS
 10
151.9720664683
 20
32.0001601351
 11
151.6830039132
 21
32.0001601351
  0
LINE
  5
2BF
100
AcDbEntity
  8
0
100
AcDbLine
 62
7
  6
CONTINUOUS
 10
151.0098482306
 20
32.287045381
 11
151.4224195792
 21
32.287045381
  0
LINE
  5
2C0
100
AcDbEntity
  8
0
100
AcDbLine
 62
7
  6
CONTINUOUS
 10
152.6491924929
 20
32.287045381
 11
154.0426351159
 21
32.287045381
  0
LINE
  5
2C1
100
AcDbEntity
  8
0
100
AcDbLine
 62
7
  6
CONTINUOUS
 10
154.3705039683
 20
32.287045381
 11
155.7639465913
 21
32.287045381
  0
LINE
  5
2C2
100
AcDbEntity
  8
0
100
AcDbLine
 62
7
  6
CONTINUOUS
 10
157.6491924929
 20
32.287045381
 11
159.0426351159
 21
32.287045381
  0
LINE
  5
2C3
100
AcDbEntity
  8
0
100
AcDbLine
 62
7
  6
CONTINUOUS
 10
159.3705039683
 20
32.287045381
 11
160.7639465913
 21
32.287045381
  0
LINE
  5
2C4
100
AcDbEntity
  8
0
100
AcDbLine
 62
7
  6
CONTINUOUS
 10
157.4064412478
 20
31.483941062
 11
157.2330037478
 21
31.4194136891
  0
LINE
  5
2C5
100
AcDbEntity
  8
0
100
AcDbLine
 62
7
  6
CONTINUOUS
 10
154.9783162478
 20
30.5160303817
 11
155.1517537478
 21
30.5805577631
  0
LINE
  5
2C6
100
AcDbEntity
  8
0
100
AcDbLine
 62
7
  6
CONTINUOUS
 10
160.4126916889
 20
30.5160303817
 11
160.6439414683
 21
30.5805577631
  0
LINE
  5
2C7
100
AcDbEntity
  8
0
100
AcDbLine
 62
7
  6
CONTINUOUS
 10
160.4126916889
 20
30.6773488336
 11
160.2970664683
 21
30.6450851472
  0
LINE
  5
2C8
100
AcDbEntity
  8
0
100
AcDbLine
 62
7
  6
CONTINUOUS
 10
159.3720666889
 20
31.3548863163
 11
159.6033164683
 21
31.3871500027
  0
LINE
  5
2C9
100
AcDbEntity
  8
0
100
AcDbLine
 62
7
  6
CONTINUOUS
 10
157.4064412478
 20
31.3548863163
 11
157.6376916889
 21
31.3871500027
  0
LINE
  5
2CA
100
AcDbEntity
  8
0
100
AcDbLine
 62
7
  6
CONTINUOUS
 10
154.3423788581
 20
30.9999857205
 11
154.5736289683
 21
31.0322494069
  0
LINE
  5
2CB
100
AcDbEntity
  8
0
100
AcDbLine
 62
7
  6
CONTINUOUS
 10
157.6376916889
 20
31.5162047484
 11
157.4064412478
 21
31.483941062
  0
LINE
  5
2CC
100
AcDbEntity
  8
0
100
AcDbLine
 62
7
  6
CONTINUOUS
 10
154.2267539683
 20
31.3548863163
 11
154.4580040786
 21
31.3871500027
  0
LINE
  5
2CD
100
AcDbEntity
  8
0
100
AcDbLine
 62
7
  6
CONTINUOUS
 10
159.6033164683
 20
31.5162047484
 11
159.2564414683
 21
31.483941062
  0
LINE
  5
2CE
100
AcDbEntity
  8
0
100
AcDbLine
 62
7
  6
CONTINUOUS
 10
154.5736289683
 20
31.1613041978
 11
154.2267539683
 21
31.1290405113
  0
LINE
  5
2CF
100
AcDbEntity
  8
0
100
AcDbLine
 62
7
  6
CONTINUOUS
 10
150.3533164408
 20
31.5162047484
 11
150.0064414821
 21
31.483941062
  0
LINE
  5
2D0
100
AcDbEntity
  8
0
100
AcDbLine
 62
7
  6
CONTINUOUS
 10
154.4580040786
 20
31.5162047484
 11
154.0533164683
 21
31.483941062
  0
LINE
  5
2D1
100
AcDbEntity
  8
0
100
AcDbLine
 62
7
  6
CONTINUOUS
 10
151.8295203618
 20
33.4345863646
 11
151.1737826569
 21
33.4345863646
  0
LINE
  5
2D2
100
AcDbEntity
  8
0
100
AcDbLine
 62
7
  6
CONTINUOUS
 10
157.2330037478
 20
31.2903589434
 11
157.4064412478
 21
31.3548863163
  0
LINE
  5
2D3
100
AcDbEntity
  8
0
100
AcDbLine
 62
7
  6
CONTINUOUS
 10
159.2564414683
 20
31.3226226299
 11
159.3720666889
 21
31.3548863163
  0
LINE
  5
2D4
100
AcDbEntity
  8
0
100
AcDbLine
 62
7
  6
CONTINUOUS
 10
159.2564414683
 20
31.483941062
 11
159.0251916889
 21
31.4194136891
  0
LINE
  5
2D5
100
AcDbEntity
  8
0
100
AcDbLine
 62
7
  6
CONTINUOUS
 10
154.9783162478
 20
30.6773488336
 11
154.6892538581
 21
30.6128214495
  0
LINE
  5
2D6
100
AcDbEntity
  8
0
100
AcDbLine
 62
7
  6
CONTINUOUS
 10
152.2611288581
 20
31.3548863163
 11
152.4923789683
 21
31.3871500027
  0
LINE
  5
2D7
100
AcDbEntity
  8
0
100
AcDbLine
 62
7
  6
CONTINUOUS
 10
152.4923789683
 20
31.5162047484
 11
152.2611288581
 21
31.483941062
  0
LINE
  5
2D8
100
AcDbEntity
  8
0
100
AcDbLine
 62
7
  6
CONTINUOUS
 10
150.0642539683
 20
31.3548863163
 11
150.2955039959
 21
31.3871500027
  0
LINE
  5
2D9
100
AcDbEntity
  8
0
100
AcDbLine
 62
7
  6
CONTINUOUS
 10
156.5836187224
 20
34.9099962007
 11
157.2393564274
 21
34.9099962007
  0
LINE
  5
2DA
100
AcDbEntity
  8
0
100
AcDbLine
 62
7
  6
CONTINUOUS
 10
154.2267539683
 20
30.967722034
 11
154.3423788581
 21
30.9999857205
  0
LINE
  5
2DB
100
AcDbEntity
  8
0
100
AcDbLine
 62
7
  6
CONTINUOUS
 10
154.2267539683
 20
31.1290405113
 11
153.9955038581
 21
31.0645131385
  0
LINE
  5
2DC
100
AcDbEntity
  8
0
100
AcDbLine
 62
7
  6
CONTINUOUS
 10
154.1111290786
 20
31.3226226299
 11
154.2267539683
 21
31.3548863163
  0
LINE
  5
2DD
100
AcDbEntity
  8
0
100
AcDbLine
 62
7
  6
CONTINUOUS
 10
150.7580039683
 20
30.5160303817
 11
150.9892539132
 21
30.5805577631
  0
LINE
  5
2DE
100
AcDbEntity
  8
0
100
AcDbLine
 62
7
  6
CONTINUOUS
 10
154.0533164683
 20
31.483941062
 11
153.9376915786
 21
31.4516773756
  0
LINE
  5
2DF
100
AcDbEntity
  8
0
100
AcDbLine
 62
7
  6
CONTINUOUS
 10
150.0064414821
 20
31.483941062
 11
149.8330039821
 21
31.4516773756
  0
LINE
  5
2E0
100
AcDbEntity
  8
0
100
AcDbLine
 62
7
  6
CONTINUOUS
 10
160.7639465913
 20
36.0575371843
 11
159.3705039683
 21
36.0575371843
  0
LINE
  5
2E1
100
AcDbEntity
  8
0
100
AcDbLine
 62
7
  6
CONTINUOUS
 10
157.4032908536
 20
36.0575371843
 11
156.990719505
 21
36.0575371843
  0
LINE
  5
2E2
100
AcDbEntity
  8
0
100
AcDbLine
 62
7
  6
CONTINUOUS
 10
155.7639465913
 20
36.0575371843
 11
154.3705039683
 21
36.0575371843
  0
LINE
  5
2E3
100
AcDbEntity
  8
0
100
AcDbLine
 62
7
  6
CONTINUOUS
 10
154.0426351159
 20
36.0575371843
 11
152.6491924929
 21
36.0575371843
  0
LINE
  5
2E4
100
AcDbEntity
  8
0
100
AcDbLine
 62
7
  6
CONTINUOUS
 10
150.7639465913
 20
36.0575371843
 11
149.3705039683
 21
36.0575371843
  0
LINE
  5
2E5
100
AcDbEntity
  8
0
100
AcDbLine
 62
7
  6
CONTINUOUS
 10
149.9486289546
 20
31.3226226299
 11
150.0642539683
 21
31.3548863163
  0
CIRCLE
  5
2E6
100
AcDbEntity
  8
0
100
AcDbCircle
 62
7
  6
CONTINUOUS
 10
160.0672252798
 20
38.3936027581
 40
2.0901639344
  0
ARC
  5
2E7
100
AcDbEntity
  8
0
100
AcDbCircle
 62
7
  6
CONTINUOUS
 10
151.0098482306
 20
33.9263896433
 40
1.6393442623
100
AcDbArc
 50
180.0
 51
270.0
  0
ARC
  5
2E8
100
AcDbEntity
  8
0
100
AcDbCircle
 62
7
  6
CONTINUOUS
 10
157.4032908536
 20
34.418192922
 40
1.6393442623
100
AcDbArc
 50
0.0
 51
90.0
  0
ARC
  5
2E9
100
AcDbEntity
  8
0
100
AcDbCircle
 62
7
  6
CONTINUOUS
 10
151.4224195792
 20
33.7624552171
 40
1.4754098361
100
AcDbArc
 50
270.0
 51
326.2510114041
  0
ARC
  5
2EA
100
AcDbEntity
  8
0
100
AcDbCircle
 62
7
  6
CONTINUOUS
 10
156.990719505
 20
34.5821273482
 40
1.4754098361
100
AcDbArc
 50
90.0
 51
146.2510114041
  0
ARC
  5
2EB
100
AcDbEntity
  8
0
100
AcDbCircle
 62
7
  6
CONTINUOUS
 10
151.8295203618
 20
34.2542584958
 40
0.8196721311
100
AcDbArc
 50
270.0
 51
360.0
  0
ARC
  5
2EC
100
AcDbEntity
  8
0
100
AcDbCircle
 62
7
  6
CONTINUOUS
 10
156.5836187224
 20
34.0903240696
 40
0.8196721311
100
AcDbArc
 50
90.0
 51
180.0
  0
ARC
  5
2ED
100
AcDbEntity
  8
0
100
AcDbCircle
 62
7
  6
CONTINUOUS
 10
151.1737826569
 20
33.8444224302
 40
0.4098360656
100
AcDbArc
 50
180.0
 51
270.0
  0
ARC
  5
2EE
100
AcDbEntity
  8
0
100
AcDbCircle
 62
7
  6
CONTINUOUS
 10
157.2393564274
 20
34.5001601351
 40
0.4098360656
100
AcDbArc
 50
0.0
 51
90.0
  0
SOLID
  5
2EF
100
AcDbEntity
  8
0
100
AcDbTrace
 62
7
  6
CONTINUOUS
 10
156.0767541889
 20
31.8388420633
 11
156.0767541889
 21
32.0001605469
 12
156.3658162478
 22
31.8388420633
 13
156.3658162478
 23
32.0001605469
  0
LWPOLYLINE
  5
2F0
100
AcDbEntity
  8
0
100
AcDbPolyline
 62
7
  6
CONTINUOUS
 90
13
 70
0
 10
150.3533164408
 20
31.5162050961
 10
150.7580039683
 20
31.4839407928
 10
150.9892539132
 20
31.4194137026
 10
151.1626914132
 20
31.3226223092
 10
151.2205040235
 20
31.1935681288
 10
150.9314414683
 20
31.1935681288
 10
150.8736290235
 20
31.2903595223
 10
150.7001914408
 20
31.3548866125
 10
150.2955039959
 20
31.3871493993
 10
149.6595664615
 20
31.3871493993
 10
149.8330039821
 20
31.4516780059
 10
150.0064414821
 20
31.4839407928
 10
150.3533164408
 20
31.5162050961
  0
HATCH
  5
2F1
100
AcDbEntity
  8
0
100
AcDbHatch
 62
7
  6
CONTINUOUS
 10
0.0
 20
0.0
 30
0.0
210
0.0
220
0.0
230
1.0
  2
SOLID
 70
1
 71
1
 91
1
 92
1
 93
12
 72
1
 10
150.3533164408
 20
31.5162050961
 11
150.7580039683
 21
31.4839407928
 72
1
 10
150.7580039683
 20
31.4839407928
 11
150.9892539132
 21
31.4194137026
 72
1
 10
150.9892539132
 20
31.4194137026
 11
151.1626914132
 21
31.3226223092
 72
1
 10
151.1626914132
 20
31.3226223092
 11
151.2205040235
 21
31.1935681288
 72
1
 10
151.2205040235
 20
31.1935681288
 11
150.9314414683
 21
31.1935681288
 72
1
 10
150.9314414683
 20
31.1935681288
 11
150.8736290235
 21
31.2903595223
 72
1
 10
150.8736290235
 20
31.2903595223
 11
150.7001914408
 21
31.3548866125
 72
1
 10
150.7001914408
 20
31.3548866125
 11
150.2955039959
 21
31.3871493993
 72
1
 10
150.2955039959
 20
31.3871493993
 11
149.6595664615
 21
31.3871493993
 72
1
 10
149.6595664615
 20
31.3871493993
 11
149.8330039821
 21
31.4516780059
 72
1
 10
149.8330039821
 20
31.4516780059
 11
150.0064414821
 21
31.4839407928
 72
1
 10
150.0064414821
 20
31.4839407928
 11
150.3533164408
 21
31.5162050961
 97
1
330
2F0
 75
0
 76
1
 98
1
 10
0.0
 20
0.0
  0
LWPOLYLINE
  5
2F2
100
AcDbEntity
  8
0
100
AcDbPolyline
 62
7
  6
CONTINUOUS
 90
25
 70
0
 10
152.2611288581
 20
31.4839407928
 10
152.4923789683
 20
31.5162050961
 10
152.7236290786
 20
31.5162050961
 10
152.8970665786
 20
31.4839407928
 10
153.0705040786
 20
31.4194137026
 10
153.1861289683
 20
31.3548866125
 10
153.2439415786
 20
31.2903595223
 10
153.3017538581
 20
31.1290410387
 10
153.3017538581
 20
30.4837671043
 10
153.0126914683
 20
30.4837671043
 10
153.0126914683
 20
31.1290410387
 10
152.9548788581
 20
31.258095219
 10
152.8392539683
 20
31.3226223092
 10
152.7236290786
 20
31.3548866125
 10
152.4923789683
 20
31.3871493993
 10
152.2611288581
 20
31.3548866125
 10
152.0876915235
 20
31.2903595223
 10
151.9720664683
 20
31.2258309157
 10
151.9720664683
 20
30.4837671043
 10
151.6830039132
 20
30.4837671043
 10
151.6830039132
 20
32.0001605469
 10
151.9720664683
 20
32.0001605469
 10
151.9720664683
 20
31.3548866125
 10
152.0876915235
 20
31.4194137026
 10
152.2611288581
 20
31.4839407928
  0
HATCH
  5
2F3
100
AcDbEntity
  8
0
100
AcDbHatch
 62
7
  6
CONTINUOUS
 10
0.0
 20
0.0
 30
0.0
210
0.0
220
0.0
230
1.0
  2
SOLID
 70
1
 71
1
 91
1
 92
1
 93
24
 72
1
 10
152.2611288581
 20
31.4839407928
 11
152.4923789683
 21
31.5162050961
 72
1
 10
152.4923789683
 20
31.5162050961
 11
152.7236290786
 21
31.5162050961
 72
1
 10
152.7236290786
 20
31.5162050961
 11
152.8970665786
 21
31.4839407928
 72
1
 10
152.8970665786
 20
31.4839407928
 11
153.0705040786
 21
31.4194137026
 72
1
 10
153.0705040786
 20
31.4194137026
 11
153.1861289683
 21
31.3548866125
 72
1
 10
153.1861289683
 20
31.3548866125
 11
153.2439415786
 21
31.2903595223
 72
1
 10
153.2439415786
 20
31.2903595223
 11
153.3017538581
 21
31.1290410387
 72
1
 10
153.3017538581
 20
31.1290410387
 11
153.3017538581
 21
30.4837671043
 72
1
 10
153.3017538581
 20
30.4837671043
 11
153.0126914683
 21
30.4837671043
 72
1
 10
153.0126914683
 20
30.4837671043
 11
153.0126914683
 21
31.1290410387
 72
1
 10
153.0126914683
 20
31.1290410387
 11
152.9548788581
 21
31.258095219
 72
1
 10
152.9548788581
 20
31.258095219
 11
152.8392539683
 21
31.3226223092
 72
1
 10
152.8392539683
 20
31.3226223092
 11
152.7236290786
 21
31.3548866125
 72
1
 10
152.7236290786
 20
31.3548866125
 11
152.4923789683
 21
31.3871493993
 72
1
 10
152.4923789683
 20
31.3871493993
 11
152.2611288581
 21
31.3548866125
 72
1
 10
152.2611288581
 20
31.3548866125
 11
152.0876915235
 21
31.2903595223
 72
1
 10
152.0876915235
 20
31.2903595223
 11
151.9720664683
 21
31.2258309157
 72
1
 10
151.9720664683
 20
31.2258309157
 11
151.9720664683
 21
30.4837671043
 72
1
 10
151.9720664683
 20
30.4837671043
 11
151.6830039132
 21
30.4837671043
 72
1
 10
151.6830039132
 20
30.4837671043
 11
151.6830039132
 21
32.0001605469
 72
1
 10
151.6830039132
 20
32.0001605469
 11
151.9720664683
 21
32.0001605469
 72
1
 10
151.9720664683
 20
32.0001605469
 11
151.9720664683
 21
31.3548866125
 72
1
 10
151.9720664683
 20
31.3548866125
 11
152.0876915235
 21
31.4194137026
 72
1
 10
152.0876915235
 20
31.4194137026
 11
152.2611288581
 21
31.4839407928
 97
1
330
2F2
 75
0
 76
1
 98
1
 10
0.0
 20
0.0
  0
LWPOLYLINE
  5
2F4
100
AcDbEntity
  8
0
100
AcDbPolyline
 62
7
  6
CONTINUOUS
 90
20
 70
0
 10
154.0533164683
 20
31.4839407928
 10
154.4580040786
 20
31.5162050961
 10
154.8048790786
 20
31.5162050961
 10
155.1517537478
 20
31.4839407928
 10
155.3251912478
 20
31.4194137026
 10
155.4408164683
 20
31.3548866125
 10
155.4986287478
 20
31.258095219
 10
155.4986287478
 20
30.7418754649
 10
155.2095666889
 20
30.8386672883
 10
155.2095666889
 20
31.0322496452
 10
155.2095666889
 20
31.1613038256
 10
155.2095666889
 20
31.258095219
 10
155.1517537478
 20
31.3226223092
 10
155.0361291889
 20
31.3548866125
 10
154.8048790786
 20
31.3871493993
 10
154.4580040786
 20
31.3871493993
 10
153.7642540786
 20
31.3226223092
 10
153.8220663581
 20
31.3871493993
 10
153.9376915786
 20
31.4516780059
 10
154.0533164683
 20
31.4839407928
  0
HATCH
  5
2F5
100
AcDbEntity
  8
0
100
AcDbHatch
 62
7
  6
CONTINUOUS
 10
0.0
 20
0.0
 30
0.0
210
0.0
220
0.0
230
1.0
  2
SOLID
 70
1
 71
1
 91
1
 92
1
 93
19
 72
1
 10
154.0533164683
 20
31.4839407928
 11
154.4580040786
 21
31.5162050961
 72
1
 10
154.4580040786
 20
31.5162050961
 11
154.8048790786
 21
31.5162050961
 72
1
 10
154.8048790786
 20
31.5162050961
 11
155.1517537478
 21
31.4839407928
 72
1
 10
155.1517537478
 20
31.4839407928
 11
155.3251912478
 21
31.4194137026
 72
1
 10
155.3251912478
 20
31.4194137026
 11
155.4408164683
 21
31.3548866125
 72
1
 10
155.4408164683
 20
31.3548866125
 11
155.4986287478
 21
31.258095219
 72
1
 10
155.4986287478
 20
31.258095219
 11
155.4986287478
 21
30.7418754649
 72
1
 10
155.4986287478
 20
30.7418754649
 11
155.2095666889
 21
30.8386672883
 72
1
 10
155.2095666889
 20
30.8386672883
 11
155.2095666889
 21
31.0322496452
 72
1
 10
155.2095666889
 20
31.0322496452
 11
155.2095666889
 21
31.1613038256
 72
1
 10
155.2095666889
 20
31.1613038256
 11
155.2095666889
 21
31.258095219
 72
1
 10
155.2095666889
 20
31.258095219
 11
155.1517537478
 21
31.3226223092
 72
1
 10
155.1517537478
 20
31.3226223092
 11
155.0361291889
 21
31.3548866125
 72
1
 10
155.0361291889
 20
31.3548866125
 11
154.8048790786
 21
31.3871493993
 72
1
 10
154.8048790786
 20
31.3871493993
 11
154.4580040786
 21
31.3871493993
 72
1
 10
154.4580040786
 20
31.3871493993
 11
153.7642540786
 21
31.3226223092
 72
1
 10
153.7642540786
 20
31.3226223092
 11
153.8220663581
 21
31.3871493993
 72
1
 10
153.8220663581
 20
31.3871493993
 11
153.9376915786
 21
31.4516780059
 72
1
 10
153.9376915786
 20
31.4516780059
 11
154.0533164683
 21
31.4839407928
 97
1
330
2F4
 75
0
 76
1
 98
1
 10
0.0
 20
0.0
  0
LWPOLYLINE
  5
2F6
100
AcDbEntity
  8
0
100
AcDbPolyline
 62
7
  6
CONTINUOUS
 90
25
 70
0
 10
157.4064412478
 20
31.4839407928
 10
157.6376916889
 20
31.5162050961
 10
157.8689414683
 20
31.5162050961
 10
158.0423789683
 20
31.4839407928
 10
158.2158164683
 20
31.4194137026
 10
158.3314416889
 20
31.3548866125
 10
158.3892539683
 20
31.258095219
 10
158.4470662478
 20
31.0967767354
 10
158.4470662478
 20
30.4837671043
 10
158.1580041889
 20
30.4837671043
 10
158.1580041889
 20
31.0967767354
 10
158.1001912478
 20
31.258095219
 10
157.9845666889
 20
31.3226223092
 10
157.8689414683
 20
31.3548866125
 10
157.6376916889
 20
31.3871493993
 10
157.4064412478
 20
31.3548866125
 10
157.2330037478
 20
31.2903595223
 10
157.1173791889
 20
31.2258309157
 10
157.1173791889
 20
30.4837671043
 10
156.8283164683
 20
30.4837671043
 10
156.8283164683
 20
31.5162050961
 10
157.1173791889
 20
31.5162050961
 10
157.1173791889
 20
31.3548866125
 10
157.2330037478
 20
31.4194137026
 10
157.4064412478
 20
31.4839407928
  0
HATCH
  5
2F7
100
AcDbEntity
  8
0
100
AcDbHatch
 62
7
  6
CONTINUOUS
 10
0.0
 20
0.0
 30
0.0
210
0.0
220
0.0
230
1.0
  2
SOLID
 70
1
 71
1
 91
1
 92
1
 93
24
 72
1
 10
157.4064412478
 20
31.4839407928
 11
157.6376916889
 21
31.5162050961
 72
1
 10
157.6376916889
 20
31.5162050961
 11
157.8689414683
 21
31.5162050961
 72
1
 10
157.8689414683
 20
31.5162050961
 11
158.0423789683
 21
31.4839407928
 72
1
 10
158.0423789683
 20
31.4839407928
 11
158.2158164683
 21
31.4194137026
 72
1
 10
158.2158164683
 20
31.4194137026
 11
158.3314416889
 21
31.3548866125
 72
1
 10
158.3314416889
 20
31.3548866125
 11
158.3892539683
 21
31.258095219
 72
1
 10
158.3892539683
 20
31.258095219
 11
158.4470662478
 21
31.0967767354
 72
1
 10
158.4470662478
 20
31.0967767354
 11
158.4470662478
 21
30.4837671043
 72
1
 10
158.4470662478
 20
30.4837671043
 11
158.1580041889
 21
30.4837671043
 72
1
 10
158.1580041889
 20
30.4837671043
 11
158.1580041889
 21
31.0967767354
 72
1
 10
158.1580041889
 20
31.0967767354
 11
158.1001912478
 21
31.258095219
 72
1
 10
158.1001912478
 20
31.258095219
 11
157.9845666889
 21
31.3226223092
 72
1
 10
157.9845666889
 20
31.3226223092
 11
157.8689414683
 21
31.3548866125
 72
1
 10
157.8689414683
 20
31.3548866125
 11
157.6376916889
 21
31.3871493993
 72
1
 10
157.6376916889
 20
31.3871493993
 11
157.4064412478
 21
31.3548866125
 72
1
 10
157.4064412478
 20
31.3548866125
 11
157.2330037478
 21
31.2903595223
 72
1
 10
157.2330037478
 20
31.2903595223
 11
157.1173791889
 21
31.2258309157
 72
1
 10
157.1173791889
 20
31.2258309157
 11
157.1173791889
 21
30.4837671043
 72
1
 10
157.1173791889
 20
30.4837671043
 11
156.8283164683
 21
30.4837671043
 72
1
 10
156.8283164683
 20
30.4837671043
 11
156.8283164683
 21
31.5162050961
 72
1
 10
156.8283164683
 20
31.5162050961
 11
157.1173791889
 21
31.5162050961
 72
1
 10
157.1173791889
 20
31.5162050961
 11
157.1173791889
 21
31.3548866125
 72
1
 10
157.1173791889
 20
31.3548866125
 11
157.2330037478
 21
31.4194137026
 72
1
 10
157.2330037478
 20
31.4194137026
 11
157.4064412478
 21
31.4839407928
 97
1
330
2F6
 75
0
 76
1
 98
1
 10
0.0
 20
0.0
  0
LWPOLYLINE
  5
2F8
100
AcDbEntity
  8
0
100
AcDbPolyline
 62
7
  6
CONTINUOUS
 90
6
 70
0
 10
159.2564414683
 20
31.4839407928
 10
159.6033164683
 20
31.5162050961
 10
159.9501914683
 20
31.5162050961
 10
160.2970664683
 20
31.4839407928
 10
159.0251916889
 20
31.4194137026
 10
159.2564414683
 20
31.4839407928
  0
HATCH
  5
2F9
100
AcDbEntity
  8
0
100
AcDbHatch
 62
7
  6
CONTINUOUS
 10
0.0
 20
0.0
 30
0.0
210
0.0
220
0.0
230
1.0
  2
SOLID
 70
1
 71
1
 91
1
 92
1
 93
5
 72
1
 10
159.2564414683
 20
31.4839407928
 11
159.6033164683
 21
31.5162050961
 72
1
 10
159.6033164683
 20
31.5162050961
 11
159.9501914683
 21
31.5162050961
 72
1
 10
159.9501914683
 20
31.5162050961
 11
160.2970664683
 21
31.4839407928
 72
1
 10
160.2970664683
 20
31.4839407928
 11
159.0251916889
 21
31.4194137026
 72
1
 10
159.0251916889
 20
31.4194137026
 11
159.2564414683
 21
31.4839407928
 97
1
330
2F8
 75
0
 76
1
 98
1
 10
0.0
 20
0.0
  0
LWPOLYLINE
  5
2FA
100
AcDbEntity
  8
0
100
AcDbPolyline
 62
7
  6
CONTINUOUS
 90
12
 70
0
 10
160.4705039683
 20
31.4516780059
 10
160.6439414683
 20
31.3871493993
 10
160.7595660273
 20
31.258095219
 10
160.4705039683
 20
31.258095219
 10
160.4126916889
 20
31.3226223092
 10
160.2970664683
 20
31.3548866125
 10
159.9501914683
 20
31.3871493993
 10
159.6033164683
 20
31.3871493993
 10
158.9095664683
 20
31.3226223092
 10
159.0251916889
 20
31.4194137026
 10
160.2970664683
 20
31.4839407928
 10
160.4705039683
 20
31.4516780059
  0
HATCH
  5
2FB
100
AcDbEntity
  8
0
100
AcDbHatch
 62
7
  6
CONTINUOUS
 10
0.0
 20
0.0
 30
0.0
210
0.0
220
0.0
230
1.0
  2
SOLID
 70
1
 71
1
 91
1
 92
1
 93
11
 72
1
 10
160.4705039683
 20
31.4516780059
 11
160.6439414683
 21
31.3871493993
 72
1
 10
160.6439414683
 20
31.3871493993
 11
160.7595660273
 21
31.258095219
 72
1
 10
160.7595660273
 20
31.258095219
 11
160.4705039683
 21
31.258095219
 72
1
 10
160.4705039683
 20
31.258095219
 11
160.4126916889
 21
31.3226223092
 72
1
 10
160.4126916889
 20
31.3226223092
 11
160.2970664683
 21
31.3548866125
 72
1
 10
160.2970664683
 20
31.3548866125
 11
159.9501914683
 21
31.3871493993
 72
1
 10
159.9501914683
 20
31.3871493993
 11
159.6033164683
 21
31.3871493993
 72
1
 10
159.6033164683
 20
31.3871493993
 11
158.9095664683
 21
31.3226223092
 72
1
 10
158.9095664683
 20
31.3226223092
 11
159.0251916889
 21
31.4194137026
 72
1
 10
159.0251916889
 20
31.4194137026
 11
160.2970664683
 21
31.4839407928
 72
1
 10
160.2970664683
 20
31.4839407928
 11
160.4705039683
 21
31.4516780059
 97
1
330
2FA
 75
0
 76
1
 98
1
 10
0.0
 20
0.0
  0
LWPOLYLINE
  5
2FC
100
AcDbEntity
  8
0
100
AcDbPolyline
 62
7
  6
CONTINUOUS
 90
7
 70
0
 10
150.0642539683
 20
31.3548866125
 10
149.9486289546
 20
31.3226223092
 10
149.4283164701
 20
31.1935681288
 10
149.5439414683
 20
31.3226223092
 10
149.6595664615
 20
31.3871493993
 10
150.2955039959
 20
31.3871493993
 10
150.0642539683
 20
31.3548866125
  0
HATCH
  5
2FD
100
AcDbEntity
  8
0
100
AcDbHatch
 62
7
  6
CONTINUOUS
 10
0.0
 20
0.0
 30
0.0
210
0.0
220
0.0
230
1.0
  2
SOLID
 70
1
 71
1
 91
1
 92
1
 93
6
 72
1
 10
150.0642539683
 20
31.3548866125
 11
149.9486289546
 21
31.3226223092
 72
1
 10
149.9486289546
 20
31.3226223092
 11
149.4283164701
 21
31.1935681288
 72
1
 10
149.4283164701
 20
31.1935681288
 11
149.5439414683
 21
31.3226223092
 72
1
 10
149.5439414683
 20
31.3226223092
 11
149.6595664615
 21
31.3871493993
 72
1
 10
149.6595664615
 20
31.3871493993
 11
150.2955039959
 21
31.3871493993
 72
1
 10
150.2955039959
 20
31.3871493993
 11
150.0642539683
 21
31.3548866125
 97
1
330
2FC
 75
0
 76
1
 98
1
 10
0.0
 20
0.0
  0
LWPOLYLINE
  5
2FE
100
AcDbEntity
  8
0
100
AcDbPolyline
 62
7
  6
CONTINUOUS
 90
7
 70
0
 10
154.2267539683
 20
31.3548866125
 10
154.1111290786
 20
31.3226223092
 10
154.0533164683
 20
31.258095219
 10
153.7642540786
 20
31.258095219
 10
153.7642540786
 20
31.3226223092
 10
154.4580040786
 20
31.3871493993
 10
154.2267539683
 20
31.3548866125
  0
HATCH
  5
2FF
100
AcDbEntity
  8
0
100
AcDbHatch
 62
7
  6
CONTINUOUS
 10
0.0
 20
0.0
 30
0.0
210
0.0
220
0.0
230
1.0
  2
SOLID
 70
1
 71
1
 91
1
 92
1
 93
6
 72
1
 10
154.2267539683
 20
31.3548866125
 11
154.1111290786
 21
31.3226223092
 72
1
 10
154.1111290786
 20
31.3226223092
 11
154.0533164683
 21
31.258095219
 72
1
 10
154.0533164683
 20
31.258095219
 11
153.7642540786
 21
31.258095219
 72
1
 10
153.7642540786
 20
31.258095219
 11
153.7642540786
 21
31.3226223092
 72
1
 10
153.7642540786
 20
31.3226223092
 11
154.4580040786
 21
31.3871493993
 72
1
 10
154.4580040786
 20
31.3871493993
 11
154.2267539683
 21
31.3548866125
 97
1
330
2FE
 75
0
 76
1
 98
1
 10
0.0
 20
0.0
  0
LWPOLYLINE
  5
300
100
AcDbEntity
  8
0
100
AcDbPolyline
 62
7
  6
CONTINUOUS
 90
8
 70
0
 10
159.3720666889
 20
31.3548866125
 10
159.2564414683
 20
31.3226223092
 10
159.1986291889
 20
31.258095219
 10
159.0251916889
 20
31.1290410387
 10
158.9095664683
 20
31.258095219
 10
158.9095664683
 20
31.3226223092
 10
159.6033164683
 20
31.3871493993
 10
159.3720666889
 20
31.3548866125
  0
HATCH
  5
301
100
AcDbEntity
  8
0
100
AcDbHatch
 62
7
  6
CONTINUOUS
 10
0.0
 20
0.0
 30
0.0
210
0.0
220
0.0
230
1.0
  2
SOLID
 70
1
 71
1
 91
1
 92
1
 93
7
 72
1
 10
159.3720666889
 20
31.3548866125
 11
159.2564414683
 21
31.3226223092
 72
1
 10
159.2564414683
 20
31.3226223092
 11
159.1986291889
 21
31.258095219
 72
1
 10
159.1986291889
 20
31.258095219
 11
159.0251916889
 21
31.1290410387
 72
1
 10
159.0251916889
 20
31.1290410387
 11
158.9095664683
 21
31.258095219
 72
1
 10
158.9095664683
 20
31.258095219
 11
158.9095664683
 21
31.3226223092
 72
1
 10
158.9095664683
 20
31.3226223092
 11
159.6033164683
 21
31.3871493993
 72
1
 10
159.6033164683
 20
31.3871493993
 11
159.3720666889
 21
31.3548866125
 97
1
330
300
 75
0
 76
1
 98
1
 10
0.0
 20
0.0
  0
LWPOLYLINE
  5
302
100
AcDbEntity
  8
0
100
AcDbPolyline
 62
7
  6
CONTINUOUS
 90
6
 70
0
 10
149.7751914546
 20
31.2258309157
 10
149.7173789683
 20
31.1613038256
 10
149.3705039683
 20
30.999985342
 10
149.4283164701
 20
31.1935681288
 10
149.9486289546
 20
31.3226223092
 10
149.7751914546
 20
31.2258309157
  0
HATCH
  5
303
100
AcDbEntity
  8
0
100
AcDbHatch
 62
7
  6
CONTINUOUS
 10
0.0
 20
0.0
 30
0.0
210
0.0
220
0.0
230
1.0
  2
SOLID
 70
1
 71
1
 91
1
 92
1
 93
5
 72
1
 10
149.7751914546
 20
31.2258309157
 11
149.7173789683
 21
31.1613038256
 72
1
 10
149.7173789683
 20
31.1613038256
 11
149.3705039683
 21
30.999985342
 72
1
 10
149.3705039683
 20
30.999985342
 11
149.4283164701
 21
31.1935681288
 72
1
 10
149.4283164701
 20
31.1935681288
 11
149.9486289546
 21
31.3226223092
 72
1
 10
149.9486289546
 20
31.3226223092
 11
149.7751914546
 21
31.2258309157
 97
1
330
302
 75
0
 76
1
 98
1
 10
0.0
 20
0.0
  0
LWPOLYLINE
  5
304
100
AcDbEntity
  8
0
100
AcDbPolyline
 62
7
  6
CONTINUOUS
 90
7
 70
0
 10
154.2267539683
 20
31.1290410387
 10
154.5736289683
 20
31.1613038256
 10
155.2095666889
 20
31.1613038256
 10
155.2095666889
 20
31.0322496452
 10
154.5736289683
 20
31.0322496452
 10
153.9955038581
 20
31.0645131385
 10
154.2267539683
 20
31.1290410387
  0
HATCH
  5
305
100
AcDbEntity
  8
0
100
AcDbHatch
 62
7
  6
CONTINUOUS
 10
0.0
 20
0.0
 30
0.0
210
0.0
220
0.0
230
1.0
  2
SOLID
 70
1
 71
1
 91
1
 92
1
 93
6
 72
1
 10
154.2267539683
 20
31.1290410387
 11
154.5736289683
 21
31.1613038256
 72
1
 10
154.5736289683
 20
31.1613038256
 11
155.2095666889
 21
31.1613038256
 72
1
 10
155.2095666889
 20
31.1613038256
 11
155.2095666889
 21
31.0322496452
 72
1
 10
155.2095666889
 20
31.0322496452
 11
154.5736289683
 21
31.0322496452
 72
1
 10
154.5736289683
 20
31.0322496452
 11
153.9955038581
 21
31.0645131385
 72
1
 10
153.9955038581
 20
31.0645131385
 11
154.2267539683
 21
31.1290410387
 97
1
330
304
 75
0
 76
1
 98
1
 10
0.0
 20
0.0
  0
LWPOLYLINE
  5
306
100
AcDbEntity
  8
0
100
AcDbPolyline
 62
7
  6
CONTINUOUS
 90
24
 70
0
 10
159.2564414683
 20
31.1935681288
 10
159.4298789683
 20
31.1290410387
 10
160.4126916889
 20
30.9677225551
 10
160.6439414683
 20
30.8709311616
 10
160.7595660273
 20
30.7418754649
 10
160.7595660273
 20
30.6773483748
 10
160.6439414683
 20
30.5805584977
 10
160.4126916889
 20
30.5160298911
 10
160.0658166889
 20
30.4837671043
 10
159.7189416889
 20
30.4837671043
 10
159.3720666889
 20
30.5160298911
 10
159.1986291889
 20
30.5482941944
 10
159.0251916889
 20
30.6128212846
 10
159.7189416889
 20
30.6128212846
 10
160.0658166889
 20
30.6128212846
 10
160.2970664683
 20
30.6450855879
 10
160.4126916889
 20
30.6773483748
 10
160.4705039683
 20
30.7418754649
 10
160.4126916889
 20
30.8064040715
 10
160.2392541889
 20
30.8709311616
 10
159.2564414683
 20
31.0322496452
 10
159.0251916889
 20
31.1290410387
 10
159.1986291889
 20
31.258095219
 10
159.2564414683
 20
31.1935681288
  0
HATCH
  5
307
100
AcDbEntity
  8
0
100
AcDbHatch
 62
7
  6
CONTINUOUS
 10
0.0
 20
0.0
 30
0.0
210
0.0
220
0.0
230
1.0
  2
SOLID
 70
1
 71
1
 91
1
 92
1
 93
23
 72
1
 10
159.2564414683
 20
31.1935681288
 11
159.4298789683
 21
31.1290410387
 72
1
 10
159.4298789683
 20
31.1290410387
 11
160.4126916889
 21
30.9677225551
 72
1
 10
160.4126916889
 20
30.9677225551
 11
160.6439414683
 21
30.8709311616
 72
1
 10
160.6439414683
 20
30.8709311616
 11
160.7595660273
 21
30.7418754649
 72
1
 10
160.7595660273
 20
30.7418754649
 11
160.7595660273
 21
30.6773483748
 72
1
 10
160.7595660273
 20
30.6773483748
 11
160.6439414683
 21
30.5805584977
 72
1
 10
160.6439414683
 20
30.5805584977
 11
160.4126916889
 21
30.5160298911
 72
1
 10
160.4126916889
 20
30.5160298911
 11
160.0658166889
 21
30.4837671043
 72
1
 10
160.0658166889
 20
30.4837671043
 11
159.7189416889
 21
30.4837671043
 72
1
 10
159.7189416889
 20
30.4837671043
 11
159.3720666889
 21
30.5160298911
 72
1
 10
159.3720666889
 20
30.5160298911
 11
159.1986291889
 21
30.5482941944
 72
1
 10
159.1986291889
 20
30.5482941944
 11
159.0251916889
 21
30.6128212846
 72
1
 10
159.0251916889
 20
30.6128212846
 11
159.7189416889
 21
30.6128212846
 72
1
 10
159.7189416889
 20
30.6128212846
 11
160.0658166889
 21
30.6128212846
 72
1
 10
160.0658166889
 20
30.6128212846
 11
160.2970664683
 21
30.6450855879
 72
1
 10
160.2970664683
 20
30.6450855879
 11
160.4126916889
 21
30.6773483748
 72
1
 10
160.4126916889
 20
30.6773483748
 11
160.4705039683
 21
30.7418754649
 72
1
 10
160.4705039683
 20
30.7418754649
 11
160.4126916889
 21
30.8064040715
 72
1
 10
160.4126916889
 20
30.8064040715
 11
160.2392541889
 21
30.8709311616
 72
1
 10
160.2392541889
 20
30.8709311616
 11
159.2564414683
 21
31.0322496452
 72
1
 10
159.2564414683
 20
31.0322496452
 11
159.0251916889
 21
31.1290410387
 72
1
 10
159.0251916889
 20
31.1290410387
 11
159.1986291889
 21
31.258095219
 72
1
 10
159.1986291889
 20
31.258095219
 11
159.2564414683
 21
31.1935681288
 97
1
330
306
 75
0
 76
1
 98
1
 10
0.0
 20
0.0
  0
LWPOLYLINE
  5
308
100
AcDbEntity
  8
0
100
AcDbPolyline
 62
7
  6
CONTINUOUS
 90
12
 70
0
 10
149.6595664615
 20
31.0322496452
 10
149.6595664615
 20
30.9354583476
 10
149.7751914546
 20
30.7741397682
 10
149.9486289546
 20
30.6773483748
 10
150.2955039959
 20
30.6128212846
 10
149.8330039821
 20
30.5482941944
 10
149.6595664615
 20
30.6128212846
 10
149.5439414683
 20
30.6773483748
 10
149.4283164701
 20
30.8064040715
 10
149.3705039683
 20
30.999985342
 10
149.7173789683
 20
31.1613038256
 10
149.6595664615
 20
31.0322496452
  0
HATCH
  5
309
100
AcDbEntity
  8
0
100
AcDbHatch
 62
7
  6
CONTINUOUS
 10
0.0
 20
0.0
 30
0.0
210
0.0
220
0.0
230
1.0
  2
SOLID
 70
1
 71
1
 91
1
 92
1
 93
11
 72
1
 10
149.6595664615
 20
31.0322496452
 11
149.6595664615
 21
30.9354583476
 72
1
 10
149.6595664615
 20
30.9354583476
 11
149.7751914546
 21
30.7741397682
 72
1
 10
149.7751914546
 20
30.7741397682
 11
149.9486289546
 21
30.6773483748
 72
1
 10
149.9486289546
 20
30.6773483748
 11
150.2955039959
 21
30.6128212846
 72
1
 10
150.2955039959
 20
30.6128212846
 11
149.8330039821
 21
30.5482941944
 72
1
 10
149.8330039821
 20
30.5482941944
 11
149.6595664615
 21
30.6128212846
 72
1
 10
149.6595664615
 20
30.6128212846
 11
149.5439414683
 21
30.6773483748
 72
1
 10
149.5439414683
 20
30.6773483748
 11
149.4283164701
 21
30.8064040715
 72
1
 10
149.4283164701
 20
30.8064040715
 11
149.3705039683
 21
30.999985342
 72
1
 10
149.3705039683
 20
30.999985342
 11
149.7173789683
 21
31.1613038256
 72
1
 10
149.7173789683
 20
31.1613038256
 11
149.6595664615
 21
31.0322496452
 97
1
330
308
 75
0
 76
1
 98
1
 10
0.0
 20
0.0
  0
LWPOLYLINE
  5
30A
100
AcDbEntity
  8
0
100
AcDbPolyline
 62
7
  6
CONTINUOUS
 90
6
 70
0
 10
153.8798789683
 20
30.999985342
 10
153.9955038581
 20
31.0645131385
 10
154.5736289683
 20
31.0322496452
 10
154.3423788581
 20
30.999985342
 10
153.7642540786
 20
30.8709311616
 10
153.8798789683
 20
30.999985342
  0
HATCH
  5
30B
100
AcDbEntity
  8
0
100
AcDbHatch
 62
7
  6
CONTINUOUS
 10
0.0
 20
0.0
 30
0.0
210
0.0
220
0.0
230
1.0
  2
SOLID
 70
1
 71
1
 91
1
 92
1
 93
5
 72
1
 10
153.8798789683
 20
30.999985342
 11
153.9955038581
 21
31.0645131385
 72
1
 10
153.9955038581
 20
31.0645131385
 11
154.5736289683
 21
31.0322496452
 72
1
 10
154.5736289683
 20
31.0322496452
 11
154.3423788581
 21
30.999985342
 72
1
 10
154.3423788581
 20
30.999985342
 11
153.7642540786
 21
30.8709311616
 72
1
 10
153.7642540786
 20
30.8709311616
 11
153.8798789683
 21
30.999985342
 97
1
330
30A
 75
0
 76
1
 98
1
 10
0.0
 20
0.0
  0
LWPOLYLINE
  5
30C
100
AcDbEntity
  8
0
100
AcDbPolyline
 62
7
  6
CONTINUOUS
 90
9
 70
0
 10
154.1111290786
 20
30.9031946612
 10
154.0533164683
 20
30.8064040715
 10
154.0533164683
 20
30.7418754649
 10
153.8220663581
 20
30.6450855879
 10
153.7642540786
 20
30.7741397682
 10
153.7642540786
 20
30.8709311616
 10
154.3423788581
 20
30.999985342
 10
154.2267539683
 20
30.9677225551
 10
154.1111290786
 20
30.9031946612
  0
HATCH
  5
30D
100
AcDbEntity
  8
0
100
AcDbHatch
 62
7
  6
CONTINUOUS
 10
0.0
 20
0.0
 30
0.0
210
0.0
220
0.0
230
1.0
  2
SOLID
 70
1
 71
1
 91
1
 92
1
 93
8
 72
1
 10
154.1111290786
 20
30.9031946612
 11
154.0533164683
 21
30.8064040715
 72
1
 10
154.0533164683
 20
30.8064040715
 11
154.0533164683
 21
30.7418754649
 72
1
 10
154.0533164683
 20
30.7418754649
 11
153.8220663581
 21
30.6450855879
 72
1
 10
153.8220663581
 20
30.6450855879
 11
153.7642540786
 21
30.7741397682
 72
1
 10
153.7642540786
 20
30.7741397682
 11
153.7642540786
 21
30.8709311616
 72
1
 10
153.7642540786
 20
30.8709311616
 11
154.3423788581
 21
30.999985342
 72
1
 10
154.3423788581
 20
30.999985342
 11
154.2267539683
 21
30.9677225551
 72
1
 10
154.2267539683
 20
30.9677225551
 11
154.1111290786
 21
30.9031946612
 97
1
330
30C
 75
0
 76
1
 98
1
 10
0.0
 20
0.0
  0
LWPOLYLINE
  5
30E
100
AcDbEntity
  8
0
100
AcDbPolyline
 62
7
  6
CONTINUOUS
 90
10
 70
0
 10
155.1517537478
 20
30.7741397682
 10
155.2095666889
 20
30.8386672883
 10
155.4986287478
 20
30.7418754649
 10
155.5564416889
 20
30.5805584977
 10
155.6142539683
 20
30.4837671043
 10
155.3251912478
 20
30.4837671043
 10
155.2673789683
 20
30.5482941944
 10
155.2095666889
 20
30.6450855879
 10
154.9783162478
 20
30.6773483748
 10
155.1517537478
 20
30.7741397682
  0
HATCH
  5
30F
100
AcDbEntity
  8
0
100
AcDbHatch
 62
7
  6
CONTINUOUS
 10
0.0
 20
0.0
 30
0.0
210
0.0
220
0.0
230
1.0
  2
SOLID
 70
1
 71
1
 91
1
 92
1
 93
9
 72
1
 10
155.1517537478
 20
30.7741397682
 11
155.2095666889
 21
30.8386672883
 72
1
 10
155.2095666889
 20
30.8386672883
 11
155.4986287478
 21
30.7418754649
 72
1
 10
155.4986287478
 20
30.7418754649
 11
155.5564416889
 21
30.5805584977
 72
1
 10
155.5564416889
 20
30.5805584977
 11
155.6142539683
 21
30.4837671043
 72
1
 10
155.6142539683
 20
30.4837671043
 11
155.3251912478
 21
30.4837671043
 72
1
 10
155.3251912478
 20
30.4837671043
 11
155.2673789683
 21
30.5482941944
 72
1
 10
155.2673789683
 20
30.5482941944
 11
155.2095666889
 21
30.6450855879
 72
1
 10
155.2095666889
 20
30.6450855879
 11
154.9783162478
 21
30.6773483748
 72
1
 10
154.9783162478
 20
30.6773483748
 11
155.1517537478
 21
30.7741397682
 97
1
330
30E
 75
0
 76
1
 98
1
 10
0.0
 20
0.0
  0
LWPOLYLINE
  5
310
100
AcDbEntity
  8
0
100
AcDbPolyline
 62
7
  6
CONTINUOUS
 90
12
 70
0
 10
150.8736290235
 20
30.7096125201
 10
150.9314414683
 20
30.8064040715
 10
151.2205040235
 20
30.8064040715
 10
151.1626914132
 20
30.6773483748
 10
150.9892539132
 20
30.5805584977
 10
150.7580039683
 20
30.5160298911
 10
150.3533164408
 20
30.4837671043
 10
150.0064414821
 20
30.5160298911
 10
149.8330039821
 20
30.5482941944
 10
150.2955039959
 20
30.6128212846
 10
150.7001914408
 20
30.6450855879
 10
150.8736290235
 20
30.7096125201
  0
HATCH
  5
311
100
AcDbEntity
  8
0
100
AcDbHatch
 62
7
  6
CONTINUOUS
 10
0.0
 20
0.0
 30
0.0
210
0.0
220
0.0
230
1.0
  2
SOLID
 70
1
 71
1
 91
1
 92
1
 93
11
 72
1
 10
150.8736290235
 20
30.7096125201
 11
150.9314414683
 21
30.8064040715
 72
1
 10
150.9314414683
 20
30.8064040715
 11
151.2205040235
 21
30.8064040715
 72
1
 10
151.2205040235
 20
30.8064040715
 11
151.1626914132
 21
30.6773483748
 72
1
 10
151.1626914132
 20
30.6773483748
 11
150.9892539132
 21
30.5805584977
 72
1
 10
150.9892539132
 20
30.5805584977
 11
150.7580039683
 21
30.5160298911
 72
1
 10
150.7580039683
 20
30.5160298911
 11
150.3533164408
 21
30.4837671043
 72
1
 10
150.3533164408
 20
30.4837671043
 11
150.0064414821
 21
30.5160298911
 72
1
 10
150.0064414821
 20
30.5160298911
 11
149.8330039821
 21
30.5482941944
 72
1
 10
149.8330039821
 20
30.5482941944
 11
150.2955039959
 21
30.6128212846
 72
1
 10
150.2955039959
 20
30.6128212846
 11
150.7001914408
 21
30.6450855879
 72
1
 10
150.7001914408
 20
30.6450855879
 11
150.8736290235
 21
30.7096125201
 97
1
330
310
 75
0
 76
1
 98
1
 10
0.0
 20
0.0
  0
LWPOLYLINE
  5
312
100
AcDbEntity
  8
0
100
AcDbPolyline
 62
7
  6
CONTINUOUS
 90
6
 70
0
 10
154.1111290786
 20
30.6773483748
 10
154.3423788581
 20
30.6128212846
 10
153.9955038581
 20
30.5482941944
 10
153.8220663581
 20
30.6450855879
 10
154.0533164683
 20
30.7418754649
 10
154.1111290786
 20
30.6773483748
  0
HATCH
  5
313
100
AcDbEntity
  8
0
100
AcDbHatch
 62
7
  6
CONTINUOUS
 10
0.0
 20
0.0
 30
0.0
210
0.0
220
0.0
230
1.0
  2
SOLID
 70
1
 71
1
 91
1
 92
1
 93
5
 72
1
 10
154.1111290786
 20
30.6773483748
 11
154.3423788581
 21
30.6128212846
 72
1
 10
154.3423788581
 20
30.6128212846
 11
153.9955038581
 21
30.5482941944
 72
1
 10
153.9955038581
 20
30.5482941944
 11
153.8220663581
 21
30.6450855879
 72
1
 10
153.8220663581
 20
30.6450855879
 11
154.0533164683
 21
30.7418754649
 72
1
 10
154.0533164683
 20
30.7418754649
 11
154.1111290786
 21
30.6773483748
 97
1
330
312
 75
0
 76
1
 98
1
 10
0.0
 20
0.0
  0
LWPOLYLINE
  5
314
100
AcDbEntity
  8
0
100
AcDbPolyline
 62
7
  6
CONTINUOUS
 90
11
 70
0
 10
154.6892538581
 20
30.6128212846
 10
154.9783162478
 20
30.6773483748
 10
155.2095666889
 20
30.6450855879
 10
155.1517537478
 20
30.5805584977
 10
154.9783162478
 20
30.5160298911
 10
154.6892538581
 20
30.4837671043
 10
154.3423788581
 20
30.4837671043
 10
154.1111290786
 20
30.5160298911
 10
153.9955038581
 20
30.5482941944
 10
154.3423788581
 20
30.6128212846
 10
154.6892538581
 20
30.6128212846
  0
HATCH
  5
315
100
AcDbEntity
  8
0
100
AcDbHatch
 62
7
  6
CONTINUOUS
 10
0.0
 20
0.0
 30
0.0
210
0.0
220
0.0
230
1.0
  2
SOLID
 70
1
 71
1
 91
1
 92
1
 93
10
 72
1
 10
154.6892538581
 20
30.6128212846
 11
154.9783162478
 21
30.6773483748
 72
1
 10
154.9783162478
 20
30.6773483748
 11
155.2095666889
 21
30.6450855879
 72
1
 10
155.2095666889
 20
30.6450855879
 11
155.1517537478
 21
30.5805584977
 72
1
 10
155.1517537478
 20
30.5805584977
 11
154.9783162478
 21
30.5160298911
 72
1
 10
154.9783162478
 20
30.5160298911
 11
154.6892538581
 21
30.4837671043
 72
1
 10
154.6892538581
 20
30.4837671043
 11
154.3423788581
 21
30.4837671043
 72
1
 10
154.3423788581
 20
30.4837671043
 11
154.1111290786
 21
30.5160298911
 72
1
 10
154.1111290786
 20
30.5160298911
 11
153.9955038581
 21
30.5482941944
 72
1
 10
153.9955038581
 20
30.5482941944
 11
154.3423788581
 21
30.6128212846
 72
1
 10
154.3423788581
 20
30.6128212846
 11
154.6892538581
 21
30.6128212846
 97
1
330
314
 75
0
 76
1
 98
1
 10
0.0
 20
0.0
  0
LWPOLYLINE
  5
316
100
AcDbEntity
  8
0
100
AcDbPolyline
 62
7
  6
CONTINUOUS
 90
7
 70
0
 10
159.3720666889
 20
30.6450855879
 10
159.7189416889
 20
30.6128212846
 10
159.0251916889
 20
30.6128212846
 10
158.9095664683
 20
30.7418754649
 10
159.1986291889
 20
30.7418754649
 10
159.2564414683
 20
30.6773483748
 10
159.3720666889
 20
30.6450855879
  0
HATCH
  5
317
100
AcDbEntity
  8
0
100
AcDbHatch
 62
7
  6
CONTINUOUS
 10
0.0
 20
0.0
 30
0.0
210
0.0
220
0.0
230
1.0
  2
SOLID
 70
1
 71
1
 91
1
 92
1
 93
6
 72
1
 10
159.3720666889
 20
30.6450855879
 11
159.7189416889
 21
30.6128212846
 72
1
 10
159.7189416889
 20
30.6128212846
 11
159.0251916889
 21
30.6128212846
 72
1
 10
159.0251916889
 20
30.6128212846
 11
158.9095664683
 21
30.7418754649
 72
1
 10
158.9095664683
 20
30.7418754649
 11
159.1986291889
 21
30.7418754649
 72
1
 10
159.1986291889
 20
30.7418754649
 11
159.2564414683
 21
30.6773483748
 72
1
 10
159.2564414683
 20
30.6773483748
 11
159.3720666889
 21
30.6450855879
 97
1
330
316
 75
0
 76
1
 98
1
 10
0.0
 20
0.0
  0
SOLID
  5
318
100
AcDbEntity
  8
0
100
AcDbTrace
 62
7
  6
CONTINUOUS
 10
156.0767541889
 20
30.4837671043
 11
156.0767541889
 21
31.5162050961
 12
156.3658162478
 22
30.4837671043
 13
156.3658162478
 23
31.5162050961
  0
ENDBLK
  5
319
100
AcDbEntity
  8
0
  6
BYBLOCK
 62
0
100
AcDbBlockEnd
  0
BLOCK
  5
31A
100
AcDbEntity
  8
0
100
AcDbBlockBegin
 62
2
  6
CONTINUOUS
  2
AMMEAAL_LOGO_BL0
 70
64
 10
31.7740840678
 20
19.9150776578
  3
AMMEAAL_LOGO_BL0
  1

  0
TEXT
  5
31B
100
AcDbEntity
  8
0
100
AcDbText
 62
7
  6
CONTINUOUS
 10
18.0387879101
 20
19.2884917655
  7
TEXTSTYLE_3
 40
2.7338706658
  1
Ammeraal Beltech
 41
1.0
 51
15.0
 72
0
100
AcDbText
  0
TEXT
  5
31C
100
AcDbEntity
  8
0
100
AcDbText
 62
7
  6
CONTINUOUS
 10
28.8395887358
 20
17.0149550926
  7
TEXTSTYLE_4
 40
1.0935482663
  1
Innovation & Service in Belting
 41
1.0
 72
0
100
AcDbText
  0
LINE
  5
31D
100
AcDbEntity
  8
0
100
AcDbLine
 62
7
  6
CONTINUOUS
 10
12.0142472588
 20
20.055085074
 11
12.7923992521
 21
23.7160023717
  0
LINE
  5
31E
100
AcDbEntity
  8
0
100
AcDbLine
 62
7
  6
CONTINUOUS
 10
22.8875675419
 20
27.3793962833
 11
13.2802169951
 21
24.257778862
  0
LINE
  5
31F
100
AcDbEntity
  8
0
100
AcDbLine
 62
7
  6
CONTINUOUS
 10
12.2395305911
 20
19.361734271
 11
19.7466058522
 21
12.602333345
  0
LINE
  5
320
100
AcDbEntity
  8
0
100
AcDbLine
 62
7
  6
CONTINUOUS
 10
12.5020650018
 20
20.5968615644
 11
23.310334367
 21
24.1086811633
  0
LINE
  5
321
100
AcDbEntity
  8
0
100
AcDbLine
 62
7
  6
CONTINUOUS
 10
23.3061292298
 20
13.7588925996
 11
14.860669561
 21
21.3632186413
  0
LINE
  5
322
100
AcDbEntity
  8
0
100
AcDbLine
 62
7
  6
CONTINUOUS
 10
23.8259519496
 20
26.5344711676
 11
22.8493924124
 21
21.9401197651
  0
LINE
  5
323
100
AcDbEntity
  8
0
100
AcDbLine
 62
7
  6
CONTINUOUS
 10
22.1495904647
 20
18.6478104513
 11
21.4631422532
 21
15.4183255269
  0
LINE
  5
324
100
AcDbEntity
  8
0
100
AcDbLine
 62
7
  6
CONTINUOUS
 10
24.5070480481
 20
14.1490947773
 11
25.4632795838
 21
18.6478104513
  0
LINE
  5
325
100
AcDbEntity
  8
0
100
AcDbLine
 62
7
  6
CONTINUOUS
 10
26.1630815315
 20
21.9401197651
 11
26.6073233338
 21
24.0301131245
  0
LINE
  5
326
100
AcDbEntity
  8
0
100
AcDbLine
 62
7
  6
CONTINUOUS
 10
20.4597069275
 20
12.4507590323
 11
24.0192303051
 21
13.6073182869
  0
LINE
  5
327
100
AcDbEntity
  8
0
100
AcDbLine
 62
7
  6
CONTINUOUS
 10
23.6006686173
 20
27.2278219706
 11
26.3820400015
 21
24.7234639276
  0
ARC
  5
328
100
AcDbEntity
  8
0
100
AcDbCircle
 62
7
  6
CONTINUOUS
 10
13.5055003274
 20
23.564428059
 40
0.7290321776
100
AcDbArc
 50
108.0
 51
168.0
  0
ARC
  5
329
100
AcDbEntity
  8
0
100
AcDbCircle
 62
7
  6
CONTINUOUS
 10
23.1128508743
 20
26.6860454803
 40
0.7290321776
100
AcDbArc
 50
348.0
 51
108.0
  0
ARC
  5
32A
100
AcDbEntity
  8
0
100
AcDbCircle
 62
7
  6
CONTINUOUS
 10
25.8942222585
 20
24.1816874372
 40
0.7290321776
100
AcDbArc
 50
348.0
 51
48.0
  0
ARC
  5
32B
100
AcDbEntity
  8
0
100
AcDbCircle
 62
7
  6
CONTINUOUS
 10
20.2344235952
 20
13.1441098354
 40
0.7290321776
100
AcDbArc
 50
228.0
 51
288.0
  0
ARC
  5
32C
100
AcDbEntity
  8
0
100
AcDbCircle
 62
7
  6
CONTINUOUS
 10
12.7273483341
 20
19.9035107613
 40
0.7290321776
100
AcDbArc
 50
108.0
 51
228.0
  0
ARC
  5
32D
100
AcDbEntity
  8
0
100
AcDbCircle
 62
7
  6
CONTINUOUS
 10
23.7939469728
 20
14.30066909
 40
0.7290321776
100
AcDbArc
 50
228.0
 51
348.0
  0
ENDBLK
  5
32E
100
AcDbEntity
  8
0
  6
BYBLOCK
 62
0
100
AcDbBlockEnd
  0
BLOCK
  5
32F
100
AcDbEntity
  8
0
100
AcDbBlockBegin
  2
*T1
 70
1
 10
0.0
 20
0.0
  3
*T1
  1

  0
LINE
  5
330
100
AcDbEntity
  8
0
100
AcDbLine
 62
2
  6
CONTINUOUS
 10
0.0
 20
0.0
 11
190.0
 21
0.0
  0
LINE
  5
331
100
AcDbEntity
  8
0
100
AcDbLine
 62
2
  6
CONTINUOUS
 10
0.0
 20
0.0
 11
0.0
 21
-20.0
  0
LINE
  5
332
100
AcDbEntity
  8
0
100
AcDbLine
 62
2
  6
CONTINUOUS
 10
0.0
 20
-20.0
 11
190.0
 21
-20.0
  0
LINE
  5
333
100
AcDbEntity
  8
0
100
AcDbLine
 62
2
  6
CONTINUOUS
 10
85.0
 20
0.0
 11
85.0
 21
-20.0
  0
LINE
  5
334
100
AcDbEntity
  8
0
100
AcDbLine
 62
2
  6
CONTINUOUS
 10
105.0
 20
0.0
 11
105.0
 21
-20.0
  0
LINE
  5
335
100
AcDbEntity
  8
0
100
AcDbLine
 62
2
  6
CONTINUOUS
 10
190.0
 20
0.0
 11
190.0
 21
-20.0
  0
MTEXT
  5
336
100
AcDbEntity
  8
0
100
AcDbMText
 62
5
  6
CONTINUOUS
  7
TEXTSTYLE_5
 71
1
 72
1
 10
3.0
 20
-5.177
 30
0.0
 11
1.0
 21
0.0
 31
0.0
 44
1.08
  3
                                                                     Ammeraal Beltech Modular A/S\P\H1.5;                                                                      Hjulmagervej 21,  7100 Vejle,  DK\P\H1.495;                                
  1
                                      tel: \H1.51;+45 75723100     fax: +45 75723348\P\H1.5;                                                                      admin@unichains.dk  www.unichains.com
 40
1.52
 41
161.0496183206
  0
MTEXT
  5
337
100
AcDbEntity
  8
0
100
AcDbMText
 62
5
  6
CONTINUOUS
  7
TEXTSTYLE_6
 71
2
 72
1
 10
95.0
 20
-11.25
 30
0.0
 11
1.0
 21
0.0
 31
0.0
 44
0.9
  1
1:1
 40
5.0
 41
21.0
  0
MTEXT
  5
338
100
AcDbEntity
  8
0
100
AcDbMText
 62
5
  6
CONTINUOUS
  7
TEXTSTYLE_7
 71
1
 72
1
 10
108.0
 20
-8.75
 30
0.0
 11
1.0
 21
0.0
 31
0.0
 44
0.9
  1
uni 1700
 40
7.5
 41
72.25
  0
ENDBLK
  5
339
100
AcDbEntity
  8
0
  6
BYBLOCK
 62
0
100
AcDbBlockEnd
  0
ENDSEC
  0
SECTION
  2
ENTITIES
  0
MTEXT
  5
33A
100
AcDbEntity
  8
0
100
AcDbMText
 62
5
  6
CONTINUOUS
  7
TEXTSTYLE_2
 71
1
 72
1
 10
96.0
 20
28.436
 30
0.0
 11
1.0
 21
0.0
 31
0.0
 44
0.9
  1
\Q0.000019;Scale :
 40
2.8
 41
11.76
  0
MTEXT
  5
33B
100
AcDbEntity
  8
0
100
AcDbMText
 62
5
  6
CONTINUOUS
  7
TEXTSTYLE_2
 71
1
 72
1
 10
116.0
 20
28.436
 30
0.0
 11
1.0
 21
0.0
 31
0.0
 44
0.9
  1
\Q0.000019;Chain type:
 40
2.8
 41
18.48
  0
INSERT
  5
33C
100
AcDbEntity
  8
0
100
AcDbBlockReference
 62
2
  6
CONTINUOUS
  2
AMMEAAL_LOGO_BL0
 10
31.7740840678
 20
19.9150776578
  0
INSERT
  5
33D
100
AcDbEntity
  8
0
100
AcDbBlockReference
 62
2
  6
CONTINUOUS
  2
UNI_LOGO2_BL1
 10
173.3924355793
 20
35.4837666925
  0
ACAD_TABLE
  5
33E
100
AcDbEntity
  8
0
 62
2
  6
CONTINUOUS
100
AcDbBlockReference
  2
*T1
 10
10.0
 20
30.0
 30
0.0
100
AcDbTable
342
       5DA
343
20D
 11
1.0
 21
0.0
 31
0.0
 90
22
 91
1
 92
3
 93
0
 94
0
 95
0
 96
0
141
20.0
142
85.0
142
20.0
142
85.0
171
1
172
0
173
0
174
0
175
1
176
1
 91
57
178
0
145
0.0
  7
TEXTSTYLE_5
301
CELL_VALUE
 90
4
  2
                                                                     Ammeraal Beltech Modular A/S\P\H1.5;                                                                      Hjulmagervej 21,  7100 Vejle,  DK\P\H1.495;                                
  1
                                      tel: \H1.51;+45 75723100     fax: +45 75723348\P\H1.5;                                                                      admin@unichains.dk  www.unichains.com
304
ACVALUE_END
170
4
140
1.52
 64
5
171
1
172
0
173
0
174
0
175
1
176
1
 91
57
178
0
145
0.0
  7
TEXTSTYLE_6
301
CELL_VALUE
 90
4
  1
1:1
304
ACVALUE_END
170
8
140
5.0
 64
5
171
1
172
0
173
0
174
0
175
1
176
1
 91
57
178
0
145
0.0
  7
TEXTSTYLE_7
301
CELL_VALUE
 90
4
  1
uni 1700
304
ACVALUE_END
170
7
140
7.5
 64
5
  0
LINE
  5
33F
100
AcDbEntity
  8
0
100
AcDbLine
 62
7
  6
CONTINUOUS
 10
210.0
 20
0.0
 11
0.0
 21
0.0
  0
LINE
  5
340
100
AcDbEntity
  8
0
100
AcDbLine
 62
7
  6
CONTINUOUS
 10
10.0
 20
10.0
 11
200.0
 21
10.0
  0
LINE
  5
341
100
AcDbEntity
  8
0
100
AcDbLine
 62
7
  6
CONTINUOUS
 10
10.0
 20
30.0
 11
200.0
 21
30.0
  0
LINE
  5
342
100
AcDbEntity
  8
0
100
AcDbLine
 62
7
  6
CONTINUOUS
 10
0.0
 20
0.0
 11
0.0
 21
297.0
  0
LINE
  5
343
100
AcDbEntity
  8
0
100
AcDbLine
 62
7
  6
CONTINUOUS
 10
10.0
 20
10.0
 11
10.0
 21
287.0
  0
LINE
  5
344
100
AcDbEntity
  8
0
100
AcDbLine
 62
7
  6
CONTINUOUS
 10
200.0
 20
287.0
 11
200.0
 21
10.0
  0
LINE
  5
345
100
AcDbEntity
  8
0
100
AcDbLine
 62
7
  6
CONTINUOUS
 10
210.0
 20
0.0
 11
210.0
 21
297.0
  0
LINE
  5
346
100
AcDbEntity
  8
0
100
AcDbLine
 62
7
  6
CONTINUOUS
 10
10.0
 20
287.0
 11
200.0
 21
287.0
  0
LINE
  5
347
100
AcDbEntity
  8
0
100
AcDbLine
 62
7
  6
CONTINUOUS
 10
0.0
 20
297.0
 11
210.0
 21
297.0
  0
LINE
  5
348
100
AcDbEntity
  8
0
100
AcDbLine
 62
7
  6
CONTINUOUS
 10
40.4432439675
 20
172.9729721299
 11
39.4349034819
 21
167.254389066
  0
LINE
  5
349
100
AcDbEntity
  8
0
100
AcDbLine
 62
7
  6
CONTINUOUS
 10
39.34375
 20
166.2125
 11
39.34375
 21
133.3237107824
  0
LINE
  5
34A
100
AcDbEntity
  8
0
100
AcDbLine
 62
7
  6
CONTINUOUS
 10
48.5438132539
 20
159.4448460263
 11
48.54375
 21
167.2125
  0
LINE
  5
34B
100
AcDbEntity
  8
DEFAULT_1
100
AcDbLine
 62
2
  6
CENTER
 10
37.3039868285
 20
113.0325
 11
96.3835131715
 21
113.0325
  0
LINE
  5
34C
100
AcDbEntity
  8
DEFAULT_1
100
AcDbLine
 62
2
  6
CENTER
 10
66.84375
 20
179.9855962798
 11
66.84375
 21
136.3126
  0
LINE
  5
34D
100
AcDbEntity
  8
0
100
AcDbLine
 62
2
  6
CONTINUOUS
 10
66.84375
 20
135.1925
 11
66.84375
 21
133.4325
  0
LINE
  5
34E
100
AcDbEntity
  8
DEFAULT_1
100
AcDbLine
 62
2
  6
CENTER
 10
66.84375
 20
89.8295962798
 11
66.84375
 21
132.3124
  0
LINE
  5
34F
100
AcDbEntity
  8
SURFACE
100
AcDbLine
 62
7
  6
CONTINUOUS
 10
84.924789792
 20
158.5350991262
 11
84.8757329829
 21
158.4448586816
  0
LINE
  5
350
100
AcDbEntity
  8
SURFACE
100
AcDbLine
 62
7
  6
CONTINUOUS
 10
81.9991945662
 20
153.4625
 11
84.8758008076
 21
158.4449281634
  0
LINE
  5
351
100
AcDbEntity
  8
0
100
AcDbLine
 62
7
  6
CONTINUOUS
 10
41.0758952148
 20
130.6047874213
 11
54.6704909938
 21
124.2655233
  0
LINE
  5
352
100
AcDbEntity
  8
SURFACE
100
AcDbLine
 62
7
  6
CONTINUOUS
 10
92.6116047852
 20
130.6047874213
 11
79.0170090062
 21
124.2655233
  0
LINE
  5
353
100
AcDbEntity
  8
0
100
AcDbLine
 62
7
  6
CONTINUOUS
 10
51.6883054338
 20
153.4625
 11
48.8116991924
 21
158.4449281634
  0
LINE
  5
354
100
AcDbEntity
  8
0
100
AcDbLine
 62
7
  6
CONTINUOUS
 10
48.763524412
 20
158.5335069135
 11
48.8117670171
 21
158.4448586816
  0
LINE
  5
355
100
AcDbEntity
  8
DEFAULT_1
100
AcDbLine
 62
2
  6
CENTER
 10
71.24375
 20
134.3125
 11
68.84385
 21
134.3125
  0
LINE
  5
356
100
AcDbEntity
  8
0
100
AcDbLine
 62
2
  6
CONTINUOUS
 10
67.72375
 20
134.3125
 11
65.96375
 21
134.3125
  0
LINE
  5
357
100
AcDbEntity
  8
DEFAULT_1
100
AcDbLine
 62
2
  6
CENTER
 10
62.0078750764
 20
134.3125
 11
64.84365
 21
134.3125
  0
LINE
  5
358
100
AcDbEntity
  8
SURFACE
100
AcDbLine
 62
7
  6
CONTINUOUS
 10
85.14375
 20
159.4448419079
 11
85.14375
 21
167.2125
  0
LINE
  5
359
100
AcDbEntity
  8
SURFACE
100
AcDbLine
 62
7
  6
CONTINUOUS
 10
94.34375
 20
166.2125
 11
94.34375
 21
133.3237107824
  0
LINE
  5
35A
100
AcDbEntity
  8
SURFACE
100
AcDbLine
 62
7
  6
CONTINUOUS
 10
93.2442560325
 20
172.9729721299
 11
94.2525965181
 21
167.254389066
  0
LINE
  5
35B
100
AcDbEntity
  8
DEFAULT_1
100
AcDbLine
 62
2
  6
CENTER
 10
34.88375
 20
162.2125
 11
97.2518750764
 21
162.2125
  0
LINE
  5
35C
100
AcDbEntity
  8
0
100
AcDbLine
 62
7
  6
CONTINUOUS
 10
39.34375
 20
230.4218364459
 11
39.34375
 21
226.1718364459
  0
LINE
  5
35D
100
AcDbEntity
  8
0
100
AcDbLine
 62
7
  6
CONTINUOUS
 10
39.34375
 20
242.9218364459
 11
39.34375
 21
247.1718364459
  0
LINE
  5
35E
100
AcDbEntity
  8
0
100
AcDbLine
 62
7
  6
CONTINUOUS
 10
39.6110169665
 20
230.6718364459
 11
39.6110169665
 21
236.3361192348
  0
LINE
  5
35F
100
AcDbEntity
  8
0
100
AcDbLine
 62
7
  6
CONTINUOUS
 10
39.6110169665
 20
237.007553657
 11
39.6110169455
 21
242.6718364459
  0
LINE
  5
360
100
AcDbEntity
  8
0
100
AcDbLine
 62
7
  6
CONTINUOUS
 10
45.6166426055
 20
237.9005599123
 11
45.6166426055
 21
237.3048150939
  0
LINE
  5
361
100
AcDbEntity
  8
0
100
AcDbLine
 62
7
  6
CONTINUOUS
 10
45.8353926055
 20
237.8260918361
 11
45.8353926055
 21
234.9218364459
  0
LINE
  5
362
100
AcDbEntity
  8
0
100
AcDbLine
 62
7
  6
CONTINUOUS
 10
46.0541426055
 20
234.9218364459
 11
46.0541426055
 21
238.4218364459
  0
LINE
  5
363
100
AcDbEntity
  8
0
100
AcDbLine
 62
7
  6
CONTINUOUS
 10
46.2273476862
 20
234.9218364459
 11
46.2273476862
 21
238.4218364459
  0
LINE
  5
364
100
AcDbEntity
  8
0
100
AcDbLine
 62
7
  6
CONTINUOUS
 10
46.3458092548
 20
238.4218364459
 11
46.3458092548
 21
238.0494960648
  0
LINE
  5
365
100
AcDbEntity
  8
0
100
AcDbLine
 62
7
  6
CONTINUOUS
 10
45.8353926055
 20
238.4218364459
 11
45.6166426055
 21
237.9005599123
  0
LINE
  5
366
100
AcDbEntity
  8
0
100
AcDbLine
 62
7
  6
CONTINUOUS
 10
45.6166426055
 20
237.3048150939
 11
45.8353926055
 21
237.8260918361
  0
LINE
  5
367
100
AcDbEntity
  8
0
100
AcDbLine
 62
7
  6
CONTINUOUS
 10
47.9499760083
 20
236.3367301029
 11
47.9864342026
 21
235.9643896174
  0
LINE
  5
368
100
AcDbEntity
  8
0
100
AcDbLine
 62
7
  6
CONTINUOUS
 10
48.1687260083
 20
235.9643896174
 11
48.1322676055
 21
236.4111981791
  0
LINE
  5
369
100
AcDbEntity
  8
0
100
AcDbLine
 62
7
  6
CONTINUOUS
 10
48.3419310891
 20
235.9643896174
 11
48.3054726862
 21
236.4111981791
  0
LINE
  5
36A
100
AcDbEntity
  8
0
100
AcDbLine
 62
7
  6
CONTINUOUS
 10
47.6583092026
 20
238.0494960648
 11
47.6583092026
 21
238.4218364459
  0
LINE
  5
36B
100
AcDbEntity
  8
0
100
AcDbLine
 62
7
  6
CONTINUOUS
 10
47.8315142834
 20
238.0494960648
 11
47.8315142834
 21
238.4218364459
  0
LINE
  5
36C
100
AcDbEntity
  8
0
100
AcDbLine
 62
7
  6
CONTINUOUS
 10
47.9499760083
 20
237.006942789
 11
47.9499760083
 21
236.3367301029
  0
LINE
  5
36D
100
AcDbEntity
  8
0
100
AcDbLine
 62
7
  6
CONTINUOUS
 10
48.1322676055
 20
236.4111981791
 11
48.1322676055
 21
236.9324747127
  0
LINE
  5
36E
100
AcDbEntity
  8
0
100
AcDbLine
 62
7
  6
CONTINUOUS
 10
48.3054726862
 20
236.4111981791
 11
48.3054726862
 21
236.9324747127
  0
LINE
  5
36F
100
AcDbEntity
  8
0
100
AcDbLine
 62
7
  6
CONTINUOUS
 10
48.84375
 20
243.5209658136
 11
48.84375
 21
241.1718364459
  0
LINE
  5
370
100
AcDbEntity
  8
0
100
AcDbLine
 62
7
  6
CONTINUOUS
 10
48.84375
 20
232.1718364459
 11
48.84375
 21
230.6718364459
  0
LINE
  5
371
100
AcDbEntity
  8
0
100
AcDbLine
 62
7
  6
CONTINUOUS
 10
49.0801842026
 20
236.9324747127
 11
49.0801842026
 21
236.4111981791
  0
LINE
  5
372
100
AcDbEntity
  8
0
100
AcDbLine
 62
7
  6
CONTINUOUS
 10
48.1322676055
 20
236.9324747127
 11
48.1687260083
 21
237.3792831701
  0
LINE
  5
373
100
AcDbEntity
  8
0
100
AcDbLine
 62
7
  6
CONTINUOUS
 10
48.3054726862
 20
236.9324747127
 11
48.3419310891
 21
237.3792831701
  0
LINE
  5
374
100
AcDbEntity
  8
0
100
AcDbLine
 62
7
  6
CONTINUOUS
 10
47.9864342026
 20
237.3792831701
 11
47.9499760083
 21
237.006942789
  0
LINE
  5
375
100
AcDbEntity
  8
0
100
AcDbLine
 62
7
  6
CONTINUOUS
 10
48.0228926055
 20
237.6026876074
 11
47.9864342026
 21
237.3792831701
  0
LINE
  5
376
100
AcDbEntity
  8
0
100
AcDbLine
 62
7
  6
CONTINUOUS
 10
47.4395592026
 20
238.0494960648
 11
46.7103926055
 21
234.9218364459
  0
LINE
  5
377
100
AcDbEntity
  8
0
100
AcDbLine
 62
7
  6
CONTINUOUS
 10
46.9291426055
 20
234.9218364459
 11
47.6583092026
 21
238.0494960648
  0
LINE
  5
378
100
AcDbEntity
  8
0
100
AcDbLine
 62
7
  6
CONTINUOUS
 10
47.1023476862
 20
234.9218364459
 11
47.8315142834
 21
238.0494960648
  0
LINE
  5
379
100
AcDbEntity
  8
0
100
AcDbLine
 62
7
  6
CONTINUOUS
 10
48.0958092026
 20
237.9005599123
 11
48.0228926055
 21
237.6026876074
  0
LINE
  5
37A
100
AcDbEntity
  8
0
100
AcDbLine
 62
7
  6
CONTINUOUS
 10
48.1687260083
 20
237.3792831701
 11
48.3145592026
 21
237.8260918361
  0
LINE
  5
37B
100
AcDbEntity
  8
0
100
AcDbLine
 62
7
  6
CONTINUOUS
 10
48.3419310891
 20
237.3792831701
 11
48.4877642834
 21
237.8260918361
  0
LINE
  5
37C
100
AcDbEntity
  8
0
100
AcDbLine
 62
7
  6
CONTINUOUS
 10
45.7898476862
 20
237.3048150939
 11
45.8353926055
 21
237.4133476979
  0
LINE
  5
37D
100
AcDbEntity
  8
0
100
AcDbLine
 62
7
  6
CONTINUOUS
 10
48.3145592026
 20
235.5175811079
 11
48.1687260083
 21
235.9643896174
  0
LINE
  5
37E
100
AcDbEntity
  8
0
100
AcDbLine
 62
7
  6
CONTINUOUS
 10
48.4877642834
 20
235.5175811079
 11
48.3419310891
 21
235.9643896174
  0
LINE
  5
37F
100
AcDbEntity
  8
0
100
AcDbLine
 62
7
  6
CONTINUOUS
 10
48.0228926055
 20
235.7409853887
 11
48.0958092026
 21
235.4431130317
  0
LINE
  5
380
100
AcDbEntity
  8
0
100
AcDbLine
 62
7
  6
CONTINUOUS
 10
47.9864342026
 20
235.9643896174
 11
48.0228926055
 21
235.7409853887
  0
LINE
  5
381
100
AcDbEntity
  8
0
100
AcDbLine
 62
7
  6
CONTINUOUS
 10
49.2624757997
 20
237.006942789
 11
49.2260176055
 21
237.3792831701
  0
LINE
  5
382
100
AcDbEntity
  8
0
100
AcDbLine
 62
7
  6
CONTINUOUS
 10
49.4356808805
 20
237.006942789
 11
49.3992226862
 21
237.3792831701
  0
LINE
  5
383
100
AcDbEntity
  8
0
100
AcDbLine
 62
7
  6
CONTINUOUS
 10
49.5541426055
 20
236.3367301029
 11
49.5906007997
 21
235.9643896174
  0
LINE
  5
384
100
AcDbEntity
  8
0
100
AcDbLine
 62
7
  6
CONTINUOUS
 10
50.8666426055
 20
237.006942789
 11
50.8301844112
 21
237.3792831701
  0
LINE
  5
385
100
AcDbEntity
  8
0
100
AcDbLine
 62
7
  6
CONTINUOUS
 10
49.0437260083
 20
237.3792831701
 11
49.0801842026
 21
236.9324747127
  0
LINE
  5
386
100
AcDbEntity
  8
0
100
AcDbLine
 62
7
  6
CONTINUOUS
 10
49.7728926055
 20
235.9643896174
 11
49.7364344112
 21
236.4111981791
  0
LINE
  5
387
100
AcDbEntity
  8
0
100
AcDbLine
 62
7
  6
CONTINUOUS
 10
49.9460976862
 20
235.9643896174
 11
49.909639492
 21
236.4111981791
  0
LINE
  5
388
100
AcDbEntity
  8
0
100
AcDbLine
 62
7
  6
CONTINUOUS
 10
50.6478926055
 20
237.3792831701
 11
50.6843507997
 21
236.9324747127
  0
LINE
  5
389
100
AcDbEntity
  8
0
100
AcDbLine
 62
7
  6
CONTINUOUS
 10
49.2624757997
 20
236.3367301029
 11
49.2624757997
 21
237.006942789
  0
LINE
  5
38A
100
AcDbEntity
  8
0
100
AcDbLine
 62
7
  6
CONTINUOUS
 10
49.4356808805
 20
236.3367301029
 11
49.4356808805
 21
237.006942789
  0
LINE
  5
38B
100
AcDbEntity
  8
0
100
AcDbLine
 62
7
  6
CONTINUOUS
 10
49.5541426055
 20
237.006942789
 11
49.5541426055
 21
236.3367301029
  0
LINE
  5
38C
100
AcDbEntity
  8
0
100
AcDbLine
 62
7
  6
CONTINUOUS
 10
49.7364344112
 20
236.4111981791
 11
49.7364344112
 21
236.9324747127
  0
LINE
  5
38D
100
AcDbEntity
  8
0
100
AcDbLine
 62
7
  6
CONTINUOUS
 10
49.909639492
 20
236.4111981791
 11
49.909639492
 21
236.9324747127
  0
LINE
  5
38E
100
AcDbEntity
  8
0
100
AcDbLine
 62
7
  6
CONTINUOUS
 10
50.6843507997
 20
236.9324747127
 11
50.6843507997
 21
236.4111981791
  0
LINE
  5
38F
100
AcDbEntity
  8
0
100
AcDbLine
 62
7
  6
CONTINUOUS
 10
50.8666426055
 20
236.3367301029
 11
50.8666426055
 21
237.006942789
  0
LINE
  5
390
100
AcDbEntity
  8
0
100
AcDbLine
 62
7
  6
CONTINUOUS
 10
51.0398476862
 20
236.3367301029
 11
51.0398476862
 21
237.006942789
  0
LINE
  5
391
100
AcDbEntity
  8
0
100
AcDbLine
 62
7
  6
CONTINUOUS
 10
49.0801842026
 20
236.4111981791
 11
49.0437260083
 21
235.9643896174
  0
LINE
  5
392
100
AcDbEntity
  8
0
100
AcDbLine
 62
7
  6
CONTINUOUS
 10
49.7364344112
 20
236.9324747127
 11
49.7728926055
 21
237.3792831701
  0
LINE
  5
393
100
AcDbEntity
  8
0
100
AcDbLine
 62
7
  6
CONTINUOUS
 10
49.909639492
 20
236.9324747127
 11
49.9460976862
 21
237.3792831701
  0
LINE
  5
394
100
AcDbEntity
  8
0
100
AcDbLine
 62
7
  6
CONTINUOUS
 10
50.6843507997
 20
236.4111981791
 11
50.6478926055
 21
235.9643896174
  0
LINE
  5
395
100
AcDbEntity
  8
0
100
AcDbLine
 62
7
  6
CONTINUOUS
 10
49.2260176055
 20
235.9643896174
 11
49.2624757997
 21
236.3367301029
  0
LINE
  5
396
100
AcDbEntity
  8
0
100
AcDbLine
 62
7
  6
CONTINUOUS
 10
49.3992226862
 20
235.9643896174
 11
49.4356808805
 21
236.3367301029
  0
LINE
  5
397
100
AcDbEntity
  8
0
100
AcDbLine
 62
7
  6
CONTINUOUS
 10
49.5906007997
 20
237.3792831701
 11
49.5541426055
 21
237.006942789
  0
LINE
  5
398
100
AcDbEntity
  8
0
100
AcDbLine
 62
7
  6
CONTINUOUS
 10
50.8301844112
 20
235.9643896174
 11
50.8666426055
 21
236.3367301029
  0
LINE
  5
399
100
AcDbEntity
  8
0
100
AcDbLine
 62
7
  6
CONTINUOUS
 10
49.1895594112
 20
235.7409853887
 11
49.2260176055
 21
235.9643896174
  0
LINE
  5
39A
100
AcDbEntity
  8
0
100
AcDbLine
 62
7
  6
CONTINUOUS
 10
49.6270594112
 20
237.6026876074
 11
49.5906007997
 21
237.3792831701
  0
LINE
  5
39B
100
AcDbEntity
  8
0
100
AcDbLine
 62
7
  6
CONTINUOUS
 10
49.362764492
 20
235.7409853887
 11
49.3992226862
 21
235.9643896174
  0
LINE
  5
39C
100
AcDbEntity
  8
0
100
AcDbLine
 62
7
  6
CONTINUOUS
 10
49.6999757997
 20
237.9005599123
 11
49.6270594112
 21
237.6026876074
  0
LINE
  5
39D
100
AcDbEntity
  8
0
100
AcDbLine
 62
7
  6
CONTINUOUS
 10
49.1166426055
 20
235.4431130317
 11
49.1895594112
 21
235.7409853887
  0
LINE
  5
39E
100
AcDbEntity
  8
0
100
AcDbLine
 62
7
  6
CONTINUOUS
 10
49.2898476862
 20
235.4431130317
 11
49.362764492
 21
235.7409853887
  0
LINE
  5
39F
100
AcDbEntity
  8
0
100
AcDbLine
 62
7
  6
CONTINUOUS
 10
49.0437260083
 20
235.9643896174
 11
48.8978926055
 21
235.5175811079
  0
LINE
  5
3A0
100
AcDbEntity
  8
0
100
AcDbLine
 62
7
  6
CONTINUOUS
 10
49.7728926055
 20
237.3792831701
 11
49.9187257997
 21
237.8260918361
  0
LINE
  5
3A1
100
AcDbEntity
  8
0
100
AcDbLine
 62
7
  6
CONTINUOUS
 10
49.9460976862
 20
237.3792831701
 11
50.0919308805
 21
237.8260918361
  0
LINE
  5
3A2
100
AcDbEntity
  8
0
100
AcDbLine
 62
7
  6
CONTINUOUS
 10
48.2051842026
 20
238.123964141
 11
48.0958092026
 21
237.9005599123
  0
LINE
  5
3A3
100
AcDbEntity
  8
0
100
AcDbLine
 62
7
  6
CONTINUOUS
 10
49.8093507997
 20
238.123964141
 11
49.6999757997
 21
237.9005599123
  0
LWPOLYLINE
  5
3A4
100
AcDbEntity
  8
0
100
AcDbPolyline
 62
7
  6
CONTINUOUS
 90
6
 70
0
 10
39.6707471983
 20
230.68848799
 10
39.6712981492
 20
230.689147843
 10
39.672720179
 20
230.6907357239
 10
39.6727540039
 20
230.6907854951
 10
39.6712009935
 20
230.689503464
 10
39.6678308501
 20
230.6871179423
  0
LINE
  5
3A5
100
AcDbEntity
  8
0
100
AcDbLine
 62
7
  6
CONTINUOUS
 10
48.0958092026
 20
235.4431130317
 11
48.2051842026
 21
235.2197087769
  0
LINE
  5
3A6
100
AcDbEntity
  8
0
100
AcDbLine
 62
7
  6
CONTINUOUS
 10
49.6999757997
 20
235.4431130317
 11
49.8093507997
 21
235.2197087769
  0
LINE
  5
3A7
100
AcDbEntity
  8
0
100
AcDbLine
 62
7
  6
CONTINUOUS
 10
48.8978926055
 20
237.8260918361
 11
49.0437260083
 21
237.3792831701
  0
LINE
  5
3A8
100
AcDbEntity
  8
0
100
AcDbLine
 62
7
  6
CONTINUOUS
 10
49.9187257997
 20
235.5175811079
 11
49.7728926055
 21
235.9643896174
  0
LINE
  5
3A9
100
AcDbEntity
  8
0
100
AcDbLine
 62
7
  6
CONTINUOUS
 10
50.0919308805
 20
235.5175811079
 11
49.9460976862
 21
235.9643896174
  0
LINE
  5
3AA
100
AcDbEntity
  8
0
100
AcDbLine
 62
7
  6
CONTINUOUS
 10
49.6270594112
 20
235.7409853887
 11
49.6999757997
 21
235.4431130317
  0
LINE
  5
3AB
100
AcDbEntity
  8
0
100
AcDbLine
 62
7
  6
CONTINUOUS
 10
49.1895594112
 20
237.6026876074
 11
49.1166426055
 21
237.9005599123
  0
LINE
  5
3AC
100
AcDbEntity
  8
0
100
AcDbLine
 62
7
  6
CONTINUOUS
 10
49.362764492
 20
237.6026876074
 11
49.2898476862
 21
237.9005599123
  0
LINE
  5
3AD
100
AcDbEntity
  8
0
100
AcDbLine
 62
7
  6
CONTINUOUS
 10
49.2260176055
 20
237.3792831701
 11
49.1895594112
 21
237.6026876074
  0
LINE
  5
3AE
100
AcDbEntity
  8
0
100
AcDbLine
 62
7
  6
CONTINUOUS
 10
49.5906007997
 20
235.9643896174
 11
49.6270594112
 21
235.7409853887
  0
LINE
  5
3AF
100
AcDbEntity
  8
0
100
AcDbLine
 62
7
  6
CONTINUOUS
 10
49.3992226862
 20
237.3792831701
 11
49.362764492
 21
237.6026876074
  0
LINE
  5
3B0
100
AcDbEntity
  8
0
100
AcDbLine
 62
7
  6
CONTINUOUS
 10
51.0398476862
 20
237.006942789
 11
51.003389492
 21
237.3792831701
  0
LINE
  5
3B1
100
AcDbEntity
  8
0
100
AcDbLine
 62
7
  6
CONTINUOUS
 10
51.003389492
 20
235.9643896174
 11
51.0398476862
 21
236.3367301029
  0
LINE
  5
3B2
100
AcDbEntity
  8
0
100
AcDbLine
 62
7
  6
CONTINUOUS
 10
50.7937257997
 20
235.7409853887
 11
50.8301844112
 21
235.9643896174
  0
LINE
  5
3B3
100
AcDbEntity
  8
0
100
AcDbLine
 62
7
  6
CONTINUOUS
 10
50.9669308805
 20
235.7409853887
 11
51.003389492
 21
235.9643896174
  0
LINE
  5
3B4
100
AcDbEntity
  8
0
100
AcDbLine
 62
7
  6
CONTINUOUS
 10
50.7208094112
 20
235.4431130317
 11
50.7937257997
 21
235.7409853887
  0
LINE
  5
3B5
100
AcDbEntity
  8
0
100
AcDbLine
 62
7
  6
CONTINUOUS
 10
50.894014492
 20
235.4431130317
 11
50.9669308805
 21
235.7409853887
  0
LINE
  5
3B6
100
AcDbEntity
  8
0
100
AcDbLine
 62
7
  6
CONTINUOUS
 10
50.6478926055
 20
235.9643896174
 11
50.5020594112
 21
235.5175811079
  0
LINE
  5
3B7
100
AcDbEntity
  8
0
100
AcDbLine
 62
7
  6
CONTINUOUS
 10
49.0072676055
 20
235.2197087769
 11
49.1166426055
 21
235.4431130317
  0
LINE
  5
3B8
100
AcDbEntity
  8
0
100
AcDbLine
 62
7
  6
CONTINUOUS
 10
49.1804726862
 20
235.2197087769
 11
49.2898476862
 21
235.4431130317
  0
LINE
  5
3B9
100
AcDbEntity
  8
0
100
AcDbLine
 62
7
  6
CONTINUOUS
 10
50.6114344112
 20
235.2197087769
 11
50.7208094112
 21
235.4431130317
  0
LINE
  5
3BA
100
AcDbEntity
  8
0
100
AcDbLine
 62
7
  6
CONTINUOUS
 10
50.784639492
 20
235.2197087769
 11
50.894014492
 21
235.4431130317
  0
LINE
  5
3BB
100
AcDbEntity
  8
0
100
AcDbLine
 62
7
  6
CONTINUOUS
 10
48.3145592026
 20
237.8260918361
 11
48.4239342026
 21
237.9750279885
  0
LINE
  5
3BC
100
AcDbEntity
  8
0
100
AcDbLine
 62
7
  6
CONTINUOUS
 10
48.4877642834
 20
237.8260918361
 11
48.5971392834
 21
237.9750279885
  0
LINE
  5
3BD
100
AcDbEntity
  8
0
100
AcDbLine
 62
7
  6
CONTINUOUS
 10
49.9187257997
 20
237.8260918361
 11
50.0281007997
 21
237.9750279885
  0
LINE
  5
3BE
100
AcDbEntity
  8
0
100
AcDbLine
 62
7
  6
CONTINUOUS
 10
50.0919308805
 20
237.8260918361
 11
50.2013058805
 21
237.9750279885
  0
LINE
  5
3BF
100
AcDbEntity
  8
0
100
AcDbLine
 62
7
  6
CONTINUOUS
 10
48.8978926055
 20
235.5175811079
 11
48.7885176055
 21
235.3686449554
  0
LINE
  5
3C0
100
AcDbEntity
  8
0
100
AcDbLine
 62
7
  6
CONTINUOUS
 10
48.3874760083
 20
238.3473683697
 11
48.2051842026
 21
238.123964141
  0
LINE
  5
3C1
100
AcDbEntity
  8
0
100
AcDbLine
 62
7
  6
CONTINUOUS
 10
49.9916426055
 20
238.3473683697
 11
49.8093507997
 21
238.123964141
  0
LWPOLYLINE
  5
3C2
100
AcDbEntity
  8
0
100
AcDbPolyline
 62
7
  6
CONTINUOUS
 90
17
 70
0
 10
55.09209514
 20
248.6039472765
 10
54.7023870177
 20
248.4920004888
 10
54.27521095
 20
248.3510994373
 10
53.8541517654
 20
248.1928515303
 10
53.4399139732
 20
248.0175211022
 10
53.0331899187
 20
247.8254015072
 10
52.6346601587
 20
247.6168136786
 10
52.2449907186
 20
247.3921066226
 10
51.8648336989
 20
247.1516557361
 10
51.4948243429
 20
246.8958633323
 10
51.1355819488
 20
246.6251567714
 10
50.7877067229
 20
246.339988979
 10
50.4517810414
 20
246.0408364378
 10
50.1283660659
 20
245.7281996655
 10
49.8180033486
 20
245.4026010806
 10
49.5212112343
 20
245.0645854331
 10
49.2681881361
 20
244.7528768531
  0
LINE
  5
3C3
100
AcDbEntity
  8
0
100
AcDbLine
 62
7
  6
CONTINUOUS
 10
48.2051842026
 20
235.2197087769
 11
48.3874760083
 21
234.9963045287
  0
LINE
  5
3C4
100
AcDbEntity
  8
0
100
AcDbLine
 62
7
  6
CONTINUOUS
 10
49.8093507997
 20
235.2197087769
 11
49.9916426055
 21
234.9963045287
  0
LINE
  5
3C5
100
AcDbEntity
  8
0
100
AcDbLine
 62
7
  6
CONTINUOUS
 10
48.4239342026
 20
235.3686449554
 11
48.3145592026
 21
235.5175811079
  0
LINE
  5
3C6
100
AcDbEntity
  8
0
100
AcDbLine
 62
7
  6
CONTINUOUS
 10
48.5971392834
 20
235.3686449554
 11
48.4877642834
 21
235.5175811079
  0
LINE
  5
3C7
100
AcDbEntity
  8
0
100
AcDbLine
 62
7
  6
CONTINUOUS
 10
50.0281007997
 20
235.3686449554
 11
49.9187257997
 21
235.5175811079
  0
LINE
  5
3C8
100
AcDbEntity
  8
0
100
AcDbLine
 62
7
  6
CONTINUOUS
 10
50.2013058805
 20
235.3686449554
 11
50.0919308805
 21
235.5175811079
  0
LINE
  5
3C9
100
AcDbEntity
  8
0
100
AcDbLine
 62
7
  6
CONTINUOUS
 10
48.7885176055
 20
237.9750279885
 11
48.8978926055
 21
237.8260918361
  0
LINE
  5
3CA
100
AcDbEntity
  8
0
100
AcDbLine
 62
7
  6
CONTINUOUS
 10
49.1166426055
 20
237.9005599123
 11
49.0072676055
 21
238.123964141
  0
LINE
  5
3CB
100
AcDbEntity
  8
0
100
AcDbLine
 62
7
  6
CONTINUOUS
 10
49.2898476862
 20
237.9005599123
 11
49.1804726862
 21
238.123964141
  0
LINE
  5
3CC
100
AcDbEntity
  8
0
100
AcDbLine
 62
7
  6
CONTINUOUS
 10
50.7208094112
 20
237.9005599123
 11
50.6114344112
 21
238.123964141
  0
LINE
  5
3CD
100
AcDbEntity
  8
0
100
AcDbLine
 62
7
  6
CONTINUOUS
 10
50.894014492
 20
237.9005599123
 11
50.784639492
 21
238.123964141
  0
LINE
  5
3CE
100
AcDbEntity
  8
0
100
AcDbLine
 62
7
  6
CONTINUOUS
 10
50.5020594112
 20
237.8260918361
 11
50.6478926055
 21
237.3792831701
  0
LINE
  5
3CF
100
AcDbEntity
  8
0
100
AcDbLine
 62
7
  6
CONTINUOUS
 10
50.7937257997
 20
237.6026876074
 11
50.7208094112
 21
237.9005599123
  0
LINE
  5
3D0
100
AcDbEntity
  8
0
100
AcDbLine
 62
7
  6
CONTINUOUS
 10
50.9669308805
 20
237.6026876074
 11
50.894014492
 21
237.9005599123
  0
LINE
  5
3D1
100
AcDbEntity
  8
0
100
AcDbLine
 62
7
  6
CONTINUOUS
 10
50.8301844112
 20
237.3792831701
 11
50.7937257997
 21
237.6026876074
  0
LINE
  5
3D2
100
AcDbEntity
  8
0
100
AcDbLine
 62
7
  6
CONTINUOUS
 10
51.003389492
 20
237.3792831701
 11
50.9669308805
 21
237.6026876074
  0
LINE
  5
3D3
100
AcDbEntity
  8
0
100
AcDbLine
 62
7
  6
CONTINUOUS
 10
50.5020594112
 20
235.5175811079
 11
50.3926844112
 21
235.3686449554
  0
LINE
  5
3D4
100
AcDbEntity
  8
0
100
AcDbLine
 62
7
  6
CONTINUOUS
 10
48.8249760083
 20
234.9963045287
 11
49.0072676055
 21
235.2197087769
  0
LINE
  5
3D5
100
AcDbEntity
  8
0
100
AcDbLine
 62
7
  6
CONTINUOUS
 10
48.9981810891
 20
234.9963045287
 11
49.1804726862
 21
235.2197087769
  0
LINE
  5
3D6
100
AcDbEntity
  8
0
100
AcDbLine
 62
7
  6
CONTINUOUS
 10
77.8437484222
 20
224.6718364459
 11
74.59375
 21
224.6718364459
  0
LINE
  5
3D7
100
AcDbEntity
  8
0
100
AcDbLine
 62
7
  6
CONTINUOUS
 10
72.1237649118
 20
224.6718364459
 11
40.84375
 21
224.6718364459
  0
LINE
  5
3D8
100
AcDbEntity
  8
SURFACE
100
AcDbLine
 62
7
  6
CONTINUOUS
 10
61.5637361459
 20
224.6718364459
 11
92.84375
 21
224.6718364459
  0
LINE
  5
3D9
100
AcDbEntity
  8
0
100
AcDbLine
 62
7
  6
CONTINUOUS
 10
49.0072676055
 20
238.123964141
 11
48.8249760083
 21
238.3473683697
  0
LINE
  5
3DA
100
AcDbEntity
  8
0
100
AcDbLine
 62
7
  6
CONTINUOUS
 10
49.1804726862
 20
238.123964141
 11
48.9981810891
 21
238.3473683697
  0
LINE
  5
3DB
100
AcDbEntity
  8
0
100
AcDbLine
 62
7
  6
CONTINUOUS
 10
50.3926844112
 20
237.9750279885
 11
50.5020594112
 21
237.8260918361
  0
LINE
  5
3DC
100
AcDbEntity
  8
0
100
AcDbLine
 62
7
  6
CONTINUOUS
 10
50.4291426055
 20
234.9963045287
 11
50.6114344112
 21
235.2197087769
  0
LINE
  5
3DD
100
AcDbEntity
  8
0
100
AcDbLine
 62
7
  6
CONTINUOUS
 10
50.6023476862
 20
234.9963045287
 11
50.784639492
 21
235.2197087769
  0
LINE
  5
3DE
100
AcDbEntity
  8
0
100
AcDbLine
 62
7
  6
CONTINUOUS
 10
50.6114344112
 20
238.123964141
 11
50.4291426055
 21
238.3473683697
  0
LINE
  5
3DF
100
AcDbEntity
  8
0
100
AcDbLine
 62
7
  6
CONTINUOUS
 10
50.784639492
 20
238.123964141
 11
50.6023476862
 21
238.3473683697
  0
LINE
  5
3E0
100
AcDbEntity
  8
0
100
AcDbLine
 62
7
  6
CONTINUOUS
 10
39.6678308501
 20
230.6871179423
 11
39.6658897494
 21
230.6858980968
  0
LINE
  5
3E1
100
AcDbEntity
  8
0
100
AcDbLine
 62
7
  6
CONTINUOUS
 10
39.6654743932
 20
230.6856473848
 11
39.6658896898
 21
230.6858981953
  0
LINE
  5
3E2
100
AcDbEntity
  8
0
100
AcDbLine
 62
7
  6
CONTINUOUS
 10
39.6654743932
 20
230.6856473848
 11
39.6588370188
 21
230.6820134054
  0
LINE
  5
3E3
100
AcDbEntity
  8
0
100
AcDbLine
 62
7
  6
CONTINUOUS
 10
48.4239342026
 20
237.9750279885
 11
48.6062260083
 21
238.0494960648
  0
LINE
  5
3E4
100
AcDbEntity
  8
0
100
AcDbLine
 62
7
  6
CONTINUOUS
 10
48.5971392834
 20
237.9750279885
 11
48.6928284992
 21
238.0141180167
  0
LINE
  5
3E5
100
AcDbEntity
  8
0
100
AcDbLine
 62
7
  6
CONTINUOUS
 10
48.6062260083
 20
235.2941768792
 11
48.4239342026
 21
235.3686449554
  0
LINE
  5
3E6
100
AcDbEntity
  8
0
100
AcDbLine
 62
7
  6
CONTINUOUS
 10
48.6928284992
 20
235.3295549273
 11
48.5971392834
 21
235.3686449554
  0
LINE
  5
3E7
100
AcDbEntity
  8
0
100
AcDbLine
 62
7
  6
CONTINUOUS
 10
39.6583608879
 20
242.6618956856
 11
39.6655013555
 21
242.6580092428
  0
LINE
  5
3E8
100
AcDbEntity
  8
0
100
AcDbLine
 62
7
  6
CONTINUOUS
 10
39.6655014262
 20
242.65800936
 11
39.6658776509
 21
242.657782127
  0
LWPOLYLINE
  5
3E9
100
AcDbEntity
  8
0
100
AcDbPolyline
 62
7
  6
CONTINUOUS
 90
5
 70
0
 10
39.6658776509
 20
242.657782127
 10
39.6682906863
 20
242.6562516052
 10
39.6718084849
 20
242.6536888146
 10
39.6729206726
 20
242.6527342127
 10
39.6727471795
 20
242.6529092586
  0
LINE
  5
3EA
100
AcDbEntity
  8
0
100
AcDbLine
 62
7
  6
CONTINUOUS
 10
50.0281007997
 20
237.9750279885
 11
50.2103926055
 21
238.0494960648
  0
LINE
  5
3EB
100
AcDbEntity
  8
0
100
AcDbLine
 62
7
  6
CONTINUOUS
 10
50.2013058805
 20
237.9750279885
 11
50.2969951459
 21
238.0141180369
  0
LINE
  5
3EC
100
AcDbEntity
  8
0
100
AcDbLine
 62
7
  6
CONTINUOUS
 10
48.6062260083
 20
238.4218364459
 11
48.3874760083
 21
238.3473683697
  0
LINE
  5
3ED
100
AcDbEntity
  8
0
100
AcDbLine
 62
7
  6
CONTINUOUS
 10
50.2103926055
 20
238.4218364459
 11
49.9916426055
 21
238.3473683697
  0
LINE
  5
3EE
100
AcDbEntity
  8
0
100
AcDbLine
 62
7
  6
CONTINUOUS
 10
48.8437500127
 20
230.6718364459
 11
39.59375
 21
230.6718364459
  0
LINE
  5
3EF
100
AcDbEntity
  8
SURFACE
100
AcDbLine
 62
7
  6
CONTINUOUS
 10
84.8437499873
 20
230.6718364459
 11
94.09375
 21
230.6718364459
  0
LINE
  5
3F0
100
AcDbEntity
  8
0
100
AcDbLine
 62
7
  6
CONTINUOUS
 10
48.3874760083
 20
234.9963045287
 11
48.6062260083
 21
234.9218364459
  0
LINE
  5
3F1
100
AcDbEntity
  8
0
100
AcDbLine
 62
7
  6
CONTINUOUS
 10
49.9916426055
 20
234.9963045287
 11
50.2103926055
 21
234.9218364459
  0
LINE
  5
3F2
100
AcDbEntity
  8
0
100
AcDbLine
 62
7
  6
CONTINUOUS
 10
50.2103926055
 20
235.2941768792
 11
50.0281007997
 21
235.3686449554
  0
LINE
  5
3F3
100
AcDbEntity
  8
0
100
AcDbLine
 62
7
  6
CONTINUOUS
 10
50.2969951459
 20
235.3295549071
 11
50.2013058805
 21
235.3686449554
  0
LINE
  5
3F4
100
AcDbEntity
  8
0
100
AcDbLine
 62
7
  6
CONTINUOUS
 10
39.6588370188
 20
230.6820134054
 11
39.6469500395
 21
230.676985937
  0
LINE
  5
3F5
100
AcDbEntity
  8
0
100
AcDbLine
 62
7
  6
CONTINUOUS
 10
48.7885176055
 20
235.3686449554
 11
48.6062260083
 21
235.2941768792
  0
LINE
  5
3F6
100
AcDbEntity
  8
0
100
AcDbLine
 62
7
  6
CONTINUOUS
 10
50.3926844112
 20
235.3686449554
 11
50.2103926055
 21
235.2941768792
  0
LINE
  5
3F7
100
AcDbEntity
  8
0
100
AcDbLine
 62
7
  6
CONTINUOUS
 10
48.6062260083
 20
234.9218364459
 11
48.8249760083
 21
234.9963045287
  0
LINE
  5
3F8
100
AcDbEntity
  8
0
100
AcDbLine
 62
7
  6
CONTINUOUS
 10
48.7794310891
 20
234.9218364459
 11
48.9981810891
 21
234.9963045287
  0
LINE
  5
3F9
100
AcDbEntity
  8
0
100
AcDbLine
 62
7
  6
CONTINUOUS
 10
84.8236217965
 20
232.2788706589
 11
85.2961238281
 21
232.2788706589
  0
LINE
  5
3FA
100
AcDbEntity
  8
0
100
AcDbLine
 62
7
  6
CONTINUOUS
 10
86.0429187473
 20
232.2788706589
 11
87.7361238281
 21
232.2788706589
  0
LINE
  5
3FB
100
AcDbEntity
  8
0
100
AcDbLine
 62
7
  6
CONTINUOUS
 10
50.3159118957
 20
232.4718364459
 11
49.1437614026
 21
232.4718364459
  0
LINE
  5
3FC
100
AcDbEntity
  8
SURFACE
100
AcDbLine
 62
7
  6
CONTINUOUS
 10
83.3715881043
 20
232.4718364459
 11
84.5437385974
 21
232.4718364459
  0
LWPOLYLINE
  5
3FD
100
AcDbEntity
  8
SURFACE
100
AcDbPolyline
 62
7
  6
CONTINUOUS
 90
4
 70
0
 10
94.0659016551
 20
230.6718630866
 10
94.0602644623
 20
230.6723085149
 10
94.0514829337
 20
230.673836065
 10
94.0405499605
 20
230.676985937
  0
LINE
  5
3FE
100
AcDbEntity
  8
0
100
AcDbLine
 62
7
  6
CONTINUOUS
 10
48.8249760083
 20
238.3473683697
 11
48.6062260083
 21
238.4218364459
  0
LINE
  5
3FF
100
AcDbEntity
  8
0
100
AcDbLine
 62
7
  6
CONTINUOUS
 10
48.9981810891
 20
238.3473683697
 11
48.7794310891
 21
238.4218364459
  0
LINE
  5
400
100
AcDbEntity
  8
0
100
AcDbLine
 62
7
  6
CONTINUOUS
 10
48.6062260083
 20
238.0494960648
 11
48.7885176055
 21
237.9750279885
  0
LINE
  5
401
100
AcDbEntity
  8
0
100
AcDbLine
 62
7
  6
CONTINUOUS
 10
50.2103926055
 20
238.0494960648
 11
50.3926844112
 21
237.9750279885
  0
LINE
  5
402
100
AcDbEntity
  8
0
100
AcDbLine
 62
7
  6
CONTINUOUS
 10
39.646463491
 20
242.6668562021
 11
39.6583608879
 21
242.6618956856
  0
LINE
  5
403
100
AcDbEntity
  8
0
100
AcDbLine
 62
7
  6
CONTINUOUS
 10
50.2103926055
 20
234.9218364459
 11
50.4291426055
 21
234.9963045287
  0
LINE
  5
404
100
AcDbEntity
  8
0
100
AcDbLine
 62
7
  6
CONTINUOUS
 10
50.3835976862
 20
234.9218364459
 11
50.6023476862
 21
234.9963045287
  0
LINE
  5
405
100
AcDbEntity
  8
0
100
AcDbLine
 62
7
  6
CONTINUOUS
 10
39.6469500395
 20
230.676985937
 11
39.6360170663
 21
230.673836065
  0
LINE
  5
406
100
AcDbEntity
  8
0
100
AcDbLine
 62
7
  6
CONTINUOUS
 10
83.3761238281
 20
233.3988706589
 11
83.0561238281
 21
233.3988706589
  0
LINE
  5
407
100
AcDbEntity
  8
0
100
AcDbLine
 62
7
  6
CONTINUOUS
 10
85.6961238281
 20
234.8388706589
 11
86.0161238281
 21
234.8388706589
  0
LINE
  5
408
100
AcDbEntity
  8
0
100
AcDbLine
 62
7
  6
CONTINUOUS
 10
50.3835976862
 20
234.9218364459
 11
50.2103926055
 21
234.9218364459
  0
LINE
  5
409
100
AcDbEntity
  8
0
100
AcDbLine
 62
7
  6
CONTINUOUS
 10
48.7794310891
 20
234.9218364459
 11
48.6062260083
 21
234.9218364459
  0
LINE
  5
40A
100
AcDbEntity
  8
0
100
AcDbLine
 62
7
  6
CONTINUOUS
 10
45.8353926055
 20
234.9218364459
 11
46.2273476862
 21
234.9218364459
  0
LINE
  5
40B
100
AcDbEntity
  8
0
100
AcDbLine
 62
7
  6
CONTINUOUS
 10
46.7103926055
 20
234.9218364459
 11
47.1023476862
 21
234.9218364459
  0
LWPOLYLINE
  5
40C
100
AcDbEntity
  8
SURFACE
100
AcDbPolyline
 62
7
  6
CONTINUOUS
 90
57
 70
0
 10
83.3715731925
 20
232.4718375651
 10
83.3271664346
 20
232.4751522747
 10
83.2663543672
 20
232.4888000938
 10
83.1973766007
 20
232.5145116174
 10
83.121829889
 20
232.5530046421
 10
83.041191832
 20
232.6044489063
 10
82.9567660067
 20
232.6686731305
 10
82.8697930898
 20
232.7452179245
 10
82.7808589106
 20
232.833989194
 10
82.6905987741
 20
232.9348153456
 10
82.5993231257
 20
233.0479036721
 10
82.5072645283
 20
233.1736914231
 10
82.4150710836
 20
233.3121638922
 10
82.3230066896
 20
233.4639596745
 10
82.2325504138
 20
233.6277031003
 10
82.1449618962
 20
233.8019325652
 10
82.0608915314
 20
233.9860891861
 10
81.9811286502
 20
234.1791821856
 10
81.9062473744
 20
234.3805355742
 10
81.8368315863
 20
234.5893466879
 10
81.7733975883
 20
234.8047877262
 10
81.7164373562
 20
235.0259478629
 10
81.6663139559
 20
235.2521057245
 10
81.6233778175
 20
235.4824231756
 10
81.5878801448
 20
235.716261964
 10
81.5600416809
 20
235.9529219415
 10
81.5400427001
 20
236.1917101766
 10
81.5280005363
 20
236.4319213568
 10
81.5240051375
 20
236.6728456549
 10
81.5280683095
 20
236.9137696781
 10
81.5401776825
 20
237.1539783087
 10
81.5602447009
 20
237.3927611944
 10
81.5881496483
 20
237.6294120927
 10
81.6237142892
 20
237.8632361526
 10
81.666715002
 20
238.0935333958
 10
81.7169019974
 20
238.31966297
 10
81.7739228537
 20
238.5407883332
 10
81.8374149822
 20
238.7561872258
 10
81.9068854995
 20
238.964948858
 10
81.9818171902
 20
239.1662453424
 10
82.061626177
 20
239.359273111
 10
82.1457372018
 20
239.5433574379
 10
82.233360228
 20
239.7175050843
 10
82.3238446737
 20
239.8811600079
 10
82.4159256814
 20
240.0328528413
 10
82.5081160597
 20
240.1712008385
 10
82.6001602092
 20
240.2968582015
 10
82.6914151352
 20
240.4098180229
 10
82.7816532276
 20
240.5105230616
 10
82.8705683851
 20
240.599182446
 10
82.9575285677
 20
240.6756252566
 10
83.0419492576
 20
240.7397533645
 10
83.1225874652
 20
240.7911026854
 10
83.1981331724
 20
240.8294949055
 10
83.2671027451
 20
240.8550964466
 10
83.3278959779
 20
240.8686246267
 10
83.3715800328
 20
240.8718346372
  0
LINE
  5
40D
100
AcDbEntity
  8
0
100
AcDbLine
 62
7
  6
CONTINUOUS
 10
50.4291426055
 20
238.3473683697
 11
50.2103926055
 21
238.4218364459
  0
LINE
  5
40E
100
AcDbEntity
  8
0
100
AcDbLine
 62
7
  6
CONTINUOUS
 10
50.6023476862
 20
238.3473683697
 11
50.3835976862
 21
238.4218364459
  0
LINE
  5
40F
100
AcDbEntity
  8
DEFAULT_1
100
AcDbLine
 62
2
  6
CENTER
 10
66.84375
 20
254.1873544048
 11
66.84375
 21
238.6719364459
  0
LINE
  5
410
100
AcDbEntity
  8
0
100
AcDbLine
 62
2
  6
CONTINUOUS
 10
66.84375
 20
237.5518364459
 11
66.84375
 21
235.7918364459
  0
LINE
  5
411
100
AcDbEntity
  8
DEFAULT_1
100
AcDbLine
 62
2
  6
CENTER
 10
66.84375
 20
219.3311044048
 11
66.84375
 21
234.6717364459
  0
LWPOLYLINE
  5
412
100
AcDbEntity
  8
SURFACE
100
AcDbPolyline
 62
7
  6
CONTINUOUS
 90
4
 70
0
 10
94.041036509
 20
242.6668562021
 10
94.0519060804
 20
242.6699313533
 10
94.0605787966
 20
242.6714013324
 10
94.0660939143
 20
242.6718158319
  0
LWPOLYLINE
  5
413
100
AcDbEntity
  8
0
100
AcDbPolyline
 62
7
  6
CONTINUOUS
 90
3
 70
0
 10
39.6360170663
 20
230.673836065
 10
39.6272355377
 20
230.6723085149
 10
39.6215983449
 20
230.6718630866
  0
LINE
  5
414
100
AcDbEntity
  8
0
100
AcDbLine
 62
7
  6
CONTINUOUS
 10
50.6023476862
 20
234.9963045287
 11
50.4291426055
 21
234.9963045287
  0
LINE
  5
415
100
AcDbEntity
  8
0
100
AcDbLine
 62
7
  6
CONTINUOUS
 10
48.9981810891
 20
234.9963045287
 11
48.8249760083
 21
234.9963045287
  0
LINE
  5
416
100
AcDbEntity
  8
0
100
AcDbLine
 62
7
  6
CONTINUOUS
 10
50.784639492
 20
235.2197087769
 11
50.6114344112
 21
235.2197087769
  0
LINE
  5
417
100
AcDbEntity
  8
0
100
AcDbLine
 62
7
  6
CONTINUOUS
 10
49.1804726862
 20
235.2197087769
 11
49.0072676055
 21
235.2197087769
  0
LINE
  5
418
100
AcDbEntity
  8
0
100
AcDbLine
 62
7
  6
CONTINUOUS
 10
50.2013058805
 20
235.3686449554
 11
50.0281007997
 21
235.3686449554
  0
LINE
  5
419
100
AcDbEntity
  8
0
100
AcDbLine
 62
7
  6
CONTINUOUS
 10
48.5971392834
 20
235.3686449554
 11
48.4239342026
 21
235.3686449554
  0
LINE
  5
41A
100
AcDbEntity
  8
0
100
AcDbLine
 62
7
  6
CONTINUOUS
 10
50.894014492
 20
235.4431130317
 11
50.7208094112
 21
235.4431130317
  0
LINE
  5
41B
100
AcDbEntity
  8
0
100
AcDbLine
 62
7
  6
CONTINUOUS
 10
49.2898476862
 20
235.4431130317
 11
49.1166426055
 21
235.4431130317
  0
LINE
  5
41C
100
AcDbEntity
  8
0
100
AcDbLine
 62
7
  6
CONTINUOUS
 10
50.0919308805
 20
235.5175811079
 11
49.9187257997
 21
235.5175811079
  0
LINE
  5
41D
100
AcDbEntity
  8
0
100
AcDbLine
 62
7
  6
CONTINUOUS
 10
48.4877642834
 20
235.5175811079
 11
48.3145592026
 21
235.5175811079
  0
LINE
  5
41E
100
AcDbEntity
  8
0
100
AcDbLine
 62
7
  6
CONTINUOUS
 10
50.9669308805
 20
235.7409853887
 11
50.7937257997
 21
235.7409853887
  0
LINE
  5
41F
100
AcDbEntity
  8
0
100
AcDbLine
 62
7
  6
CONTINUOUS
 10
49.362764492
 20
235.7409853887
 11
49.1895594112
 21
235.7409853887
  0
LINE
  5
420
100
AcDbEntity
  8
0
100
AcDbLine
 62
7
  6
CONTINUOUS
 10
82.0029187473
 20
235.9588706589
 11
82.8561238281
 21
235.9588706589
  0
LINE
  5
421
100
AcDbEntity
  8
0
100
AcDbLine
 62
7
  6
CONTINUOUS
 10
83.6029187473
 20
235.9588706589
 11
85.2961238281
 21
235.9588706589
  0
LINE
  5
422
100
AcDbEntity
  8
0
100
AcDbLine
 62
7
  6
CONTINUOUS
 10
85.7215839292
 20
235.9588706589
 11
86.0961238281
 21
235.9588706589
  0
LINE
  5
423
100
AcDbEntity
  8
0
100
AcDbLine
 62
7
  6
CONTINUOUS
 10
86.8829187473
 20
235.9588706589
 11
87.7361238281
 21
235.9588706589
  0
LINE
  5
424
100
AcDbEntity
  8
0
100
AcDbLine
 62
7
  6
CONTINUOUS
 10
51.003389492
 20
235.9643896174
 11
50.8301844112
 21
235.9643896174
  0
LINE
  5
425
100
AcDbEntity
  8
0
100
AcDbLine
 62
7
  6
CONTINUOUS
 10
49.9460976862
 20
235.9643896174
 11
49.7728926055
 21
235.9643896174
  0
LINE
  5
426
100
AcDbEntity
  8
0
100
AcDbLine
 62
7
  6
CONTINUOUS
 10
49.3992226862
 20
235.9643896174
 11
49.2260176055
 21
235.9643896174
  0
LINE
  5
427
100
AcDbEntity
  8
0
100
AcDbLine
 62
7
  6
CONTINUOUS
 10
48.3419310891
 20
235.9643896174
 11
48.1687260083
 21
235.9643896174
  0
LINE
  5
428
100
AcDbEntity
  8
0
100
AcDbLine
 62
7
  6
CONTINUOUS
 10
87.2229187473
 20
236.1988706589
 11
87.3961238281
 21
236.1988706589
  0
LINE
  5
429
100
AcDbEntity
  8
0
100
AcDbLine
 62
7
  6
CONTINUOUS
 10
51.0398476862
 20
236.3367301029
 11
50.8666426055
 21
236.3367301029
  0
LINE
  5
42A
100
AcDbEntity
  8
0
100
AcDbLine
 62
7
  6
CONTINUOUS
 10
49.4356808805
 20
236.3367301029
 11
49.2624757997
 21
236.3367301029
  0
LINE
  5
42B
100
AcDbEntity
  8
0
100
AcDbLine
 62
7
  6
CONTINUOUS
 10
49.909639492
 20
236.4111981791
 11
49.7364344112
 21
236.4111981791
  0
LINE
  5
42C
100
AcDbEntity
  8
0
100
AcDbLine
 62
7
  6
CONTINUOUS
 10
48.3054726862
 20
236.4111981791
 11
48.1322676055
 21
236.4111981791
  0
LINE
  5
42D
100
AcDbEntity
  8
DEFAULT_1
100
AcDbLine
 62
2
  6
CENTER
 10
99.3034850764
 20
236.6718364459
 11
68.84385
 21
236.6718364459
  0
LINE
  5
42E
100
AcDbEntity
  8
0
100
AcDbLine
 62
2
  6
CONTINUOUS
 10
67.72375
 20
236.6718364459
 11
65.96375
 21
236.6718364459
  0
LINE
  5
42F
100
AcDbEntity
  8
DEFAULT_1
100
AcDbLine
 62
2
  6
CENTER
 10
34.1284850764
 20
236.6718364459
 11
64.84365
 21
236.6718364459
  0
LINE
  5
430
100
AcDbEntity
  8
0
100
AcDbLine
 62
7
  6
CONTINUOUS
 10
49.909639492
 20
236.9324747127
 11
49.7364344112
 21
236.9324747127
  0
LINE
  5
431
100
AcDbEntity
  8
0
100
AcDbLine
 62
7
  6
CONTINUOUS
 10
48.3054726862
 20
236.9324747127
 11
48.1322676055
 21
236.9324747127
  0
LINE
  5
432
100
AcDbEntity
  8
0
100
AcDbLine
 62
7
  6
CONTINUOUS
 10
51.0398476862
 20
237.006942789
 11
50.8666426055
 21
237.006942789
  0
LINE
  5
433
100
AcDbEntity
  8
0
100
AcDbLine
 62
7
  6
CONTINUOUS
 10
49.4356808805
 20
237.006942789
 11
49.2624757997
 21
237.006942789
  0
LINE
  5
434
100
AcDbEntity
  8
0
100
AcDbLine
 62
7
  6
CONTINUOUS
 10
45.7898476862
 20
237.3048150939
 11
45.6166426055
 21
237.3048150939
  0
LINE
  5
435
100
AcDbEntity
  8
0
100
AcDbLine
 62
7
  6
CONTINUOUS
 10
51.003389492
 20
237.3792831701
 11
50.8301844112
 21
237.3792831701
  0
LINE
  5
436
100
AcDbEntity
  8
0
100
AcDbLine
 62
7
  6
CONTINUOUS
 10
49.9460976862
 20
237.3792831701
 11
49.7728926055
 21
237.3792831701
  0
LINE
  5
437
100
AcDbEntity
  8
0
100
AcDbLine
 62
7
  6
CONTINUOUS
 10
49.3992226862
 20
237.3792831701
 11
49.2260176055
 21
237.3792831701
  0
LINE
  5
438
100
AcDbEntity
  8
0
100
AcDbLine
 62
7
  6
CONTINUOUS
 10
48.3419310891
 20
237.3792831701
 11
48.1687260083
 21
237.3792831701
  0
LINE
  5
439
100
AcDbEntity
  8
0
100
AcDbLine
 62
7
  6
CONTINUOUS
 10
50.9669308805
 20
237.6026876074
 11
50.7937257997
 21
237.6026876074
  0
LINE
  5
43A
100
AcDbEntity
  8
0
100
AcDbLine
 62
7
  6
CONTINUOUS
 10
49.362764492
 20
237.6026876074
 11
49.1895594112
 21
237.6026876074
  0
LINE
  5
43B
100
AcDbEntity
  8
0
100
AcDbLine
 62
7
  6
CONTINUOUS
 10
50.0919308805
 20
237.8260918361
 11
49.9187257997
 21
237.8260918361
  0
LINE
  5
43C
100
AcDbEntity
  8
0
100
AcDbLine
 62
7
  6
CONTINUOUS
 10
48.4877642834
 20
237.8260918361
 11
48.3145592026
 21
237.8260918361
  0
LINE
  5
43D
100
AcDbEntity
  8
0
100
AcDbLine
 62
7
  6
CONTINUOUS
 10
50.894014492
 20
237.9005599123
 11
50.7208094112
 21
237.9005599123
  0
LINE
  5
43E
100
AcDbEntity
  8
0
100
AcDbLine
 62
7
  6
CONTINUOUS
 10
49.2898476862
 20
237.9005599123
 11
49.1166426055
 21
237.9005599123
  0
LINE
  5
43F
100
AcDbEntity
  8
0
100
AcDbLine
 62
7
  6
CONTINUOUS
 10
50.2013058805
 20
237.9750279885
 11
50.0281007997
 21
237.9750279885
  0
LINE
  5
440
100
AcDbEntity
  8
0
100
AcDbLine
 62
7
  6
CONTINUOUS
 10
48.5971392834
 20
237.9750279885
 11
48.4239342026
 21
237.9750279885
  0
LINE
  5
441
100
AcDbEntity
  8
0
100
AcDbLine
 62
7
  6
CONTINUOUS
 10
47.8315142834
 20
238.0494960648
 11
47.6583092026
 21
238.0494960648
  0
LINE
  5
442
100
AcDbEntity
  8
0
100
AcDbLine
 62
7
  6
CONTINUOUS
 10
46.3458092548
 20
238.0494960648
 11
47.4395592026
 21
238.0494960648
  0
LINE
  5
443
100
AcDbEntity
  8
0
100
AcDbLine
 62
7
  6
CONTINUOUS
 10
50.784639492
 20
238.123964141
 11
50.6114344112
 21
238.123964141
  0
LINE
  5
444
100
AcDbEntity
  8
0
100
AcDbLine
 62
7
  6
CONTINUOUS
 10
49.1804726862
 20
238.123964141
 11
49.0072676055
 21
238.123964141
  0
LINE
  5
445
100
AcDbEntity
  8
0
100
AcDbLine
 62
7
  6
CONTINUOUS
 10
50.6023476862
 20
238.3473683697
 11
50.4291426055
 21
238.3473683697
  0
LINE
  5
446
100
AcDbEntity
  8
0
100
AcDbLine
 62
7
  6
CONTINUOUS
 10
48.9981810891
 20
238.3473683697
 11
48.8249760083
 21
238.3473683697
  0
LINE
  5
447
100
AcDbEntity
  8
0
100
AcDbLine
 62
7
  6
CONTINUOUS
 10
50.3835976862
 20
238.4218364459
 11
50.2103926055
 21
238.4218364459
  0
LINE
  5
448
100
AcDbEntity
  8
0
100
AcDbLine
 62
7
  6
CONTINUOUS
 10
48.7794310891
 20
238.4218364459
 11
48.6062260083
 21
238.4218364459
  0
LINE
  5
449
100
AcDbEntity
  8
0
100
AcDbLine
 62
7
  6
CONTINUOUS
 10
47.8315142834
 20
238.4218364459
 11
46.3458092548
 21
238.4218364459
  0
LINE
  5
44A
100
AcDbEntity
  8
0
100
AcDbLine
 62
7
  6
CONTINUOUS
 10
46.2273476862
 20
238.4218364459
 11
45.8353926055
 21
238.4218364459
  0
LINE
  5
44B
100
AcDbEntity
  8
0
100
AcDbLine
 62
7
  6
CONTINUOUS
 10
87.2229187473
 20
240.2788706589
 11
87.3961238281
 21
240.2788706589
  0
LINE
  5
44C
100
AcDbEntity
  8
SURFACE
100
AcDbLine
 62
7
  6
CONTINUOUS
 10
84.5437385975
 20
240.8718364459
 11
83.3715881043
 21
240.8718364459
  0
LINE
  5
44D
100
AcDbEntity
  8
0
100
AcDbLine
 62
7
  6
CONTINUOUS
 10
49.1437614025
 20
240.8718364459
 11
50.3159118957
 21
240.8718364459
  0
LWPOLYLINE
  5
44E
100
AcDbEntity
  8
0
100
AcDbPolyline
 62
7
  6
CONTINUOUS
 90
57
 70
0
 10
50.315914188
 20
240.8718346385
 10
50.3595754912
 20
240.8686286584
 10
50.4204086208
 20
240.8550930653
 10
50.4895080884
 20
240.8294326853
 10
50.5652628374
 20
240.7909018752
 10
50.6461807177
 20
240.7393130405
 10
50.7309090821
 20
240.6748562859
 10
50.8181635395
 20
240.5980259869
 10
50.9073263339
 20
240.5089590412
 10
50.9977332653
 20
240.4078774805
 10
51.0890434894
 20
240.2946409104
 10
51.1809517632
 20
240.168954938
 10
51.2729378685
 20
240.0307080737
 10
51.3648456803
 20
239.8791046948
 10
51.4551743857
 20
239.7155430842
 10
51.5426848506
 20
239.5414344715
 10
51.6266951969
 20
239.3573836534
 10
51.7063933164
 20
239.1644350655
 10
51.7812152544
 20
238.9632431134
 10
51.8505800087
 20
238.7546083897
 10
51.9139728246
 20
238.5393552801
 10
51.9709031246
 20
238.3183901615
 10
52.0210097631
 20
238.0924326978
 10
52.0639416138
 20
237.8623152045
 10
52.0994494402
 20
237.6286777912
 10
52.1273100357
 20
237.3922187184
 10
52.1473456247
 20
237.1536314737
 10
52.1594366933
 20
236.9136208317
 10
52.1634948553
 20
236.6728957914
 10
52.1595077509
 20
236.4321700122
 10
52.147487115
 20
236.192155798
 10
52.1275226917
 20
235.9535617674
 10
52.0997316256
 20
235.7170920853
 10
52.0642937687
 20
235.4834385934
 10
52.0214295321
 20
235.2532999194
 10
51.9713897014
 20
235.0273140069
 10
51.9145233803
 20
234.8063141752
 10
51.8511921776
 20
234.591019136
 10
51.7818855004
 20
234.382334325
 10
51.7071168566
 20
234.1810834672
 10
51.6274668987
 20
233.9880656964
 10
51.5434981085
 20
233.8039364677
 10
51.4560212246
 20
233.6297370973
 10
51.3657165599
 20
233.4660736266
 10
51.2738198293
 20
233.314353625
 10
51.1818253268
 20
233.175970891
 10
51.0898976952
 20
233.0501452701
 10
50.9985630896
 20
232.9367735693
 10
50.9081312929
 20
232.8355660433
 10
50.8189472832
 20
232.7463836102
 10
50.7316784418
 20
232.6694486809
 10
50.6469437417
 20
232.6048938637
 10
50.5660249512
 20
232.5532084938
 10
50.4902679839
 20
232.5145755091
 10
50.4211590808
 20
232.4888041172
 10
50.3603059758
 20
232.4751483175
 10
50.3159214567
 20
232.471837564
  0
LWPOLYLINE
  5
44F
100
AcDbEntity
  8
0
100
AcDbPolyline
 62
7
  6
CONTINUOUS
 90
4
 70
0
 10
39.6214060857
 20
242.6718158319
 10
39.6269212034
 20
242.6714013324
 10
39.6355939196
 20
242.6699313533
 10
39.646463491
 20
242.6668562021
  0
LINE
  5
450
100
AcDbEntity
  8
SURFACE
100
AcDbLine
 62
7
  6
CONTINUOUS
 10
94.0291391121
 20
242.6618956856
 11
94.041036509
 21
242.6668562021
  0
LINE
  5
451
100
AcDbEntity
  8
SURFACE
100
AcDbLine
 62
7
  6
CONTINUOUS
 10
94.09375
 20
242.6718364459
 11
84.84375
 21
242.6718364459
  0
LINE
  5
452
100
AcDbEntity
  8
0
100
AcDbLine
 62
7
  6
CONTINUOUS
 10
39.59375
 20
242.6718364459
 11
48.84375
 21
242.6718364459
  0
LINE
  5
453
100
AcDbEntity
  8
SURFACE
100
AcDbLine
 62
7
  6
CONTINUOUS
 10
94.0405499605
 20
230.676985937
 11
94.0286629812
 21
230.6820134054
  0
LINE
  5
454
100
AcDbEntity
  8
SURFACE
100
AcDbLine
 62
7
  6
CONTINUOUS
 10
94.0219986445
 20
242.6580092428
 11
94.0291391121
 21
242.6618956856
  0
LINE
  5
455
100
AcDbEntity
  8
SURFACE
100
AcDbLine
 62
7
  6
CONTINUOUS
 10
94.0286629812
 20
230.6820134054
 11
94.0220256068
 21
230.6856473848
  0
LINE
  5
456
100
AcDbEntity
  8
SURFACE
100
AcDbLine
 62
7
  6
CONTINUOUS
 10
94.0192093137
 20
242.6562516052
 11
94.0216223491
 21
242.657782127
  0
LINE
  5
457
100
AcDbEntity
  8
SURFACE
100
AcDbLine
 62
7
  6
CONTINUOUS
 10
94.0219985738
 20
242.65800936
 11
94.0216223491
 21
242.657782127
  0
LINE
  5
458
100
AcDbEntity
  8
0
100
AcDbLine
 62
7
  6
CONTINUOUS
 10
49.9793196143
 20
245.5718364459
 11
39.74375
 21
245.5718364459
  0
LINE
  5
459
100
AcDbEntity
  8
SURFACE
100
AcDbLine
 62
7
  6
CONTINUOUS
 10
83.7081803857
 20
245.5718364459
 11
93.94375
 21
245.5718364459
  0
LINE
  5
45A
100
AcDbEntity
  8
SURFACE
100
AcDbLine
 62
7
  6
CONTINUOUS
 10
94.0220256068
 20
230.6856473848
 11
94.0216103102
 21
230.6858981953
  0
LWPOLYLINE
  5
45B
100
AcDbEntity
  8
SURFACE
100
AcDbPolyline
 62
7
  6
CONTINUOUS
 90
4
 70
0
 10
94.0216102506
 20
230.6858980968
 10
94.0196691499
 20
230.6871179423
 10
94.0162990065
 20
230.689503464
 10
94.0147459961
 20
230.6907854951
  0
LINE
  5
45C
100
AcDbEntity
  8
SURFACE
100
AcDbLine
 62
7
  6
CONTINUOUS
 10
92.6116047852
 20
247.0718364459
 11
81.9381251081
 21
247.0718375226
  0
LINE
  5
45D
100
AcDbEntity
  8
0
100
AcDbLine
 62
7
  6
CONTINUOUS
 10
41.0758952148
 20
247.0718364459
 11
51.7493748919
 21
247.0718375226
  0
LINE
  5
45E
100
AcDbEntity
  8
0
100
AcDbLine
 62
7
  6
CONTINUOUS
 10
40.84375
 20
248.6718364459
 11
78.0787191036
 21
248.6718364459
  0
LINE
  5
45F
100
AcDbEntity
  8
SURFACE
100
AcDbLine
 62
7
  6
CONTINUOUS
 10
74.4212211359
 20
248.6718364459
 11
92.84375
 21
248.6718364459
  0
LINE
  5
460
100
AcDbEntity
  8
SURFACE
100
AcDbLine
 62
7
  6
CONTINUOUS
 10
94.0147459961
 20
230.6907854951
 11
94.014583853
 21
230.6909342646
  0
LINE
  5
461
100
AcDbEntity
  8
0
100
AcDbLine
 62
7
  6
CONTINUOUS
 10
82.0029187473
 20
235.9588706589
 11
82.0029187473
 21
234.1264318944
  0
LINE
  5
462
100
AcDbEntity
  8
0
100
AcDbLine
 62
7
  6
CONTINUOUS
 10
82.1761238281
 20
235.9588706589
 11
82.1761238281
 21
233.8788706589
  0
LINE
  5
463
100
AcDbEntity
  8
0
100
AcDbLine
 62
7
  6
CONTINUOUS
 10
82.8561238281
 20
233.7988706589
 11
82.8561238281
 21
235.9588706589
  0
LINE
  5
464
100
AcDbEntity
  8
0
100
AcDbLine
 62
7
  6
CONTINUOUS
 10
83.6029187473
 20
235.9588706589
 11
83.6029187473
 21
234.1988706589
  0
LINE
  5
465
100
AcDbEntity
  8
0
100
AcDbLine
 62
7
  6
CONTINUOUS
 10
83.6029187473
 20
232.5613118369
 11
83.6029187473
 21
232.4718364459
  0
LINE
  5
466
100
AcDbEntity
  8
0
100
AcDbLine
 62
7
  6
CONTINUOUS
 10
83.7761238281
 20
235.9588706589
 11
83.7761238281
 21
234.1988706589
  0
LINE
  5
467
100
AcDbEntity
  8
0
100
AcDbLine
 62
7
  6
CONTINUOUS
 10
83.7761238281
 20
232.9228807092
 11
83.7761238281
 21
232.4718364459
  0
LINE
  5
468
100
AcDbEntity
  8
0
100
AcDbLine
 62
7
  6
CONTINUOUS
 10
84.4561238281
 20
232.4718364459
 11
84.4561238281
 21
235.9588706589
  0
LINE
  5
469
100
AcDbEntity
  8
0
100
AcDbLine
 62
7
  6
CONTINUOUS
 10
84.6161238281
 20
235.9588706589
 11
84.6161238281
 21
232.4626964319
  0
LINE
  5
46A
100
AcDbEntity
  8
0
100
AcDbLine
 62
7
  6
CONTINUOUS
 10
84.84375
 20
243.5209658136
 11
84.84375
 21
241.1718364459
  0
LINE
  5
46B
100
AcDbEntity
  8
0
100
AcDbLine
 62
7
  6
CONTINUOUS
 10
84.84375
 20
232.1718364459
 11
84.84375
 21
230.6718364459
  0
LWPOLYLINE
  5
46C
100
AcDbEntity
  8
SURFACE
100
AcDbPolyline
 62
7
  6
CONTINUOUS
 90
6
 70
0
 10
94.0186186078
 20
242.6575585443
 10
94.0181198386
 20
242.6569046831
 10
94.0154957006
 20
242.6537123322
 10
94.0145793274
 20
242.6527342127
 10
94.0156915151
 20
242.6536888146
 10
94.0192093137
 20
242.6562516052
  0
LINE
  5
46D
100
AcDbEntity
  8
0
100
AcDbLine
 62
7
  6
CONTINUOUS
 10
85.2961238281
 20
232.2788706589
 11
85.2961238281
 21
234.0388706589
  0
LINE
  5
46E
100
AcDbEntity
  8
0
100
AcDbLine
 62
7
  6
CONTINUOUS
 10
85.2961238281
 20
235.3188706589
 11
85.2961238281
 21
235.9588706589
  0
LINE
  5
46F
100
AcDbEntity
  8
0
100
AcDbLine
 62
7
  6
CONTINUOUS
 10
86.0429187473
 20
234.4388706589
 11
86.0429187473
 21
232.2788706589
  0
LINE
  5
470
100
AcDbEntity
  8
0
100
AcDbLine
 62
7
  6
CONTINUOUS
 10
86.2161238281
 20
234.4388706589
 11
86.2161238281
 21
232.2788706589
  0
LINE
  5
471
100
AcDbEntity
  8
0
100
AcDbLine
 62
7
  6
CONTINUOUS
 10
86.8829187473
 20
235.9588706589
 11
86.8829187473
 21
234.6461806695
  0
LINE
  5
472
100
AcDbEntity
  8
0
100
AcDbLine
 62
7
  6
CONTINUOUS
 10
86.8961238281
 20
232.2788706589
 11
86.8961238281
 21
234.3588706589
  0
LINE
  5
473
100
AcDbEntity
  8
0
100
AcDbLine
 62
7
  6
CONTINUOUS
 10
87.0561238281
 20
235.9588706589
 11
87.0561238281
 21
232.2788706589
  0
LWPOLYLINE
  5
474
100
AcDbEntity
  8
SURFACE
100
AcDbPolyline
 62
7
  6
CONTINUOUS
 90
17
 70
0
 10
84.4193118639
 20
244.7528768531
 10
84.1662887657
 20
245.0645854331
 10
83.8694966514
 20
245.4026010806
 10
83.5591339341
 20
245.7281996655
 10
83.2357189586
 20
246.0408364378
 10
82.8997932771
 20
246.339988979
 10
82.5519180512
 20
246.6251567714
 10
82.1926756571
 20
246.8958633323
 10
81.8226663011
 20
247.1516557361
 10
81.4425092814
 20
247.3921066226
 10
81.0528398413
 20
247.6168136786
 10
80.6543100813
 20
247.8254015072
 10
80.2475860268
 20
248.0175211022
 10
79.8333482346
 20
248.1928515303
 10
79.41228905
 20
248.3510994373
 10
78.9851129823
 20
248.4920004888
 10
78.59540486
 20
248.6039472765
  0
LINE
  5
475
100
AcDbEntity
  8
0
100
AcDbLine
 62
7
  6
CONTINUOUS
 10
87.7361238281
 20
232.2788706589
 11
87.7361238281
 21
235.9588706589
  0
LINE
  5
476
100
AcDbEntity
  8
SURFACE
100
AcDbLine
 62
7
  6
CONTINUOUS
 10
94.0764830335
 20
230.6718364632
 11
94.0764830335
 21
236.3361192348
  0
LINE
  5
477
100
AcDbEntity
  8
SURFACE
100
AcDbLine
 62
7
  6
CONTINUOUS
 10
94.0764830335
 20
237.007553657
 11
94.0764830545
 21
242.671836473
  0
LINE
  5
478
100
AcDbEntity
  8
SURFACE
100
AcDbLine
 62
7
  6
CONTINUOUS
 10
94.34375
 20
230.4218364459
 11
94.34375
 21
226.1718364459
  0
LINE
  5
479
100
AcDbEntity
  8
SURFACE
100
AcDbLine
 62
7
  6
CONTINUOUS
 10
94.34375
 20
242.9218364459
 11
94.34375
 21
247.1718364459
  0
LINE
  5
47A
100
AcDbEntity
  8
0
100
AcDbLine
 62
7
  6
CONTINUOUS
 10
156.450653313
 20
94.4125
 11
147.8348033469
 21
94.4125
  0
LINE
  5
47B
100
AcDbEntity
  8
0
100
AcDbLine
 62
7
  6
CONTINUOUS
 10
148.4472686079
 20
140.4781059784
 11
148.8940771174
 21
140.7306964803
  0
LINE
  5
47C
100
AcDbEntity
  8
0
100
AcDbLine
 62
7
  6
CONTINUOUS
 10
148.6706728887
 20
141.0832873435
 11
148.3728005317
 21
140.9569920926
  0
LINE
  5
47D
100
AcDbEntity
  8
0
100
AcDbLine
 62
7
  6
CONTINUOUS
 10
148.6706728887
 20
140.9832873435
 11
148.3728005317
 21
140.8569920926
  0
LINE
  5
47E
100
AcDbEntity
  8
0
100
AcDbLine
 62
7
  6
CONTINUOUS
 10
148.2983324554
 20
140.2886629214
 11
148.4472686079
 21
140.4781059784
  0
LINE
  5
47F
100
AcDbEntity
  8
0
100
AcDbLine
 62
7
  6
CONTINUOUS
 10
148.3728005317
 20
140.9569920926
 11
148.1493962769
 21
140.7675490355
  0
LINE
  5
480
100
AcDbEntity
  8
0
100
AcDbLine
 62
7
  6
CONTINUOUS
 10
148.3728005317
 20
140.8569920926
 11
148.1493962769
 21
140.6675490355
  0
LINE
  5
481
100
AcDbEntity
  8
0
100
AcDbLine
 62
7
  6
CONTINUOUS
 10
148.3728005317
 20
138.1784940426
 11
148.1493962769
 21
137.9890509855
  0
LINE
  5
482
100
AcDbEntity
  8
0
100
AcDbLine
 62
7
  6
CONTINUOUS
 10
148.3728005317
 20
138.0784940426
 11
148.1493962769
 21
137.8890509855
  0
LINE
  5
483
100
AcDbEntity
  8
0
100
AcDbLine
 62
7
  6
CONTINUOUS
 10
150.8302474123
 20
139.0888567727
 11
151.053651641
 21
139.2782998298
  0
LINE
  5
484
100
AcDbEntity
  8
0
100
AcDbLine
 62
7
  6
CONTINUOUS
 10
150.7557793361
 20
139.5677428869
 11
150.3089706701
 21
139.3151520237
  0
LINE
  5
485
100
AcDbEntity
  8
0
100
AcDbLine
 62
7
  6
CONTINUOUS
 10
150.7557793361
 20
139.4677428869
 11
150.3089706701
 21
139.2151520237
  0
LINE
  5
486
100
AcDbEntity
  8
0
100
AcDbLine
 62
7
  6
CONTINUOUS
 10
148.4472686079
 20
137.6996079284
 11
148.8940771174
 21
137.9521984303
  0
LINE
  5
487
100
AcDbEntity
  8
0
100
AcDbLine
 62
7
  6
CONTINUOUS
 10
150.7557793361
 20
136.7892444755
 11
150.3089706701
 21
136.5366539737
  0
LINE
  5
488
100
AcDbEntity
  8
0
100
AcDbLine
 62
7
  6
CONTINUOUS
 10
150.7557793361
 20
136.6892444755
 11
150.3089706701
 21
136.4366539737
  0
LINE
  5
489
100
AcDbEntity
  8
0
100
AcDbLine
 62
7
  6
CONTINUOUS
 10
148.6706728887
 20
138.3047889322
 11
148.3728005317
 21
138.1784940426
  0
LINE
  5
48A
100
AcDbEntity
  8
0
100
AcDbLine
 62
7
  6
CONTINUOUS
 10
148.6706728887
 20
138.2047889322
 11
148.3728005317
 21
138.0784940426
  0
LINE
  5
48B
100
AcDbEntity
  8
0
100
AcDbLine
 62
7
  6
CONTINUOUS
 10
150.5323751074
 20
138.9625611605
 11
150.8302474123
 21
139.0888567727
  0
LINE
  5
48C
100
AcDbEntity
  8
0
100
AcDbLine
 62
7
  6
CONTINUOUS
 10
150.5323751074
 20
136.1840634718
 11
150.8302474123
 21
136.3103583614
  0
LINE
  5
48D
100
AcDbEntity
  8
SURFACE
100
AcDbLine
 62
7
  6
CONTINUOUS
 10
137.6015239459
 20
101.636533517
 11
137.6015239459
 21
102.0125244515
  0
LINE
  5
48E
100
AcDbEntity
  8
0
100
AcDbLine
 62
7
  6
CONTINUOUS
 10
137.6015239459
 20
101.636533517
 11
137.6015239459
 21
162.2125
  0
LINE
  5
48F
100
AcDbEntity
  8
0
100
AcDbLine
 62
7
  6
CONTINUOUS
 10
148.1493962769
 20
140.7675490355
 11
147.9259920287
 21
140.4518103662
  0
LINE
  5
490
100
AcDbEntity
  8
0
100
AcDbLine
 62
7
  6
CONTINUOUS
 10
148.1493962769
 20
140.6675490355
 11
147.9259920287
 21
140.3518103662
  0
LINE
  5
491
100
AcDbEntity
  8
0
100
AcDbLine
 62
7
  6
CONTINUOUS
 10
148.1493962769
 20
137.9890509855
 11
147.9259920287
 21
137.6733123161
  0
LINE
  5
492
100
AcDbEntity
  8
0
100
AcDbLine
 62
7
  6
CONTINUOUS
 10
148.1493962769
 20
137.8890509855
 11
147.9259920287
 21
137.5733123161
  0
LINE
  5
493
100
AcDbEntity
  8
0
100
AcDbLine
 62
7
  6
CONTINUOUS
 10
151.053651641
 20
139.2782998298
 11
151.2770558697
 21
139.5940381378
  0
LINE
  5
494
100
AcDbEntity
  8
0
100
AcDbLine
 62
7
  6
CONTINUOUS
 10
148.2983324554
 20
137.5101648713
 11
148.4472686079
 21
137.6996079284
  0
LINE
  5
495
100
AcDbEntity
  8
0
100
AcDbLine
 62
7
  6
CONTINUOUS
 10
150.9047154885
 20
139.757185944
 11
150.7557793361
 21
139.5677428869
  0
LINE
  5
496
100
AcDbEntity
  8
0
100
AcDbLine
 62
7
  6
CONTINUOUS
 10
150.9047154885
 20
139.657185944
 11
150.7557793361
 21
139.4677428869
  0
LINE
  5
497
100
AcDbEntity
  8
0
100
AcDbLine
 62
7
  6
CONTINUOUS
 10
150.9047154885
 20
136.9786875326
 11
150.7557793361
 21
136.7892444755
  0
LINE
  5
498
100
AcDbEntity
  8
0
100
AcDbLine
 62
7
  6
CONTINUOUS
 10
150.9047154885
 20
136.8786875326
 11
150.7557793361
 21
136.6892444755
  0
LINE
  5
499
100
AcDbEntity
  8
0
100
AcDbLine
 62
7
  6
CONTINUOUS
 10
150.8302474123
 20
136.3103583614
 11
151.053651641
 21
136.4998014185
  0
LINE
  5
49A
100
AcDbEntity
  8
DEFAULT_1
100
AcDbLine
 62
2
  6
CENTER
 10
166.8676927453
 20
113.0325
 11
151.6016239459
 21
113.0325
  0
LINE
  5
49B
100
AcDbEntity
  8
0
100
AcDbLine
 62
2
  6
CONTINUOUS
 10
150.4815239459
 20
113.0325
 11
148.7215239459
 21
113.0325
  0
LINE
  5
49C
100
AcDbEntity
  8
DEFAULT_1
100
AcDbLine
 62
2
  6
CENTER
 10
131.8084927453
 20
113.0325
 11
147.6014239459
 21
113.0325
  0
LINE
  5
49D
100
AcDbEntity
  8
0
100
AcDbLine
 62
7
  6
CONTINUOUS
 10
143.6015239459
 20
124.8395053104
 11
143.6015239459
 21
161.4362912652
  0
LINE
  5
49E
100
AcDbEntity
  8
0
100
AcDbLine
 62
7
  6
CONTINUOUS
 10
143.6015239459
 20
162.9887087348
 11
143.6015239459
 21
166.7620964379
  0
LINE
  5
49F
100
AcDbEntity
  8
0
100
AcDbLine
 62
7
  6
CONTINUOUS
 10
145.4015239459
 20
106.0784201458
 11
145.4015239459
 21
119.4988595608
  0
LINE
  5
4A0
100
AcDbEntity
  8
0
100
AcDbLine
 62
7
  6
CONTINUOUS
 10
147.9259920287
 20
140.4518103662
 11
147.8515239459
 21
140.072924252
  0
LINE
  5
4A1
100
AcDbEntity
  8
0
100
AcDbLine
 62
7
  6
CONTINUOUS
 10
147.9259920287
 20
140.3518103662
 11
147.8515239459
 21
139.972924252
  0
LINE
  5
4A2
100
AcDbEntity
  8
0
100
AcDbLine
 62
7
  6
CONTINUOUS
 10
147.9259920287
 20
137.6733123161
 11
147.8515239459
 21
137.294426202
  0
LINE
  5
4A3
100
AcDbEntity
  8
0
100
AcDbLine
 62
7
  6
CONTINUOUS
 10
147.9259920287
 20
137.5733123161
 11
147.8515239459
 21
137.194426202
  0
LINE
  5
4A4
100
AcDbEntity
  8
0
100
AcDbLine
 62
7
  6
CONTINUOUS
 10
148.2238643792
 20
139.972924252
 11
148.2983324554
 21
140.2886629214
  0
LINE
  5
4A5
100
AcDbEntity
  8
0
100
AcDbLine
 62
7
  6
CONTINUOUS
 10
148.2238643792
 20
137.194426202
 11
148.2983324554
 21
137.5101648713
  0
LINE
  5
4A6
100
AcDbEntity
  8
0
100
AcDbLine
 62
7
  6
CONTINUOUS
 10
151.053651641
 20
136.4998014185
 11
151.2770558697
 21
136.8155400878
  0
LINE
  5
4A7
100
AcDbEntity
  8
0
100
AcDbLine
 62
7
  6
CONTINUOUS
 10
147.8515239459
 20
144.8721484851
 11
147.8515239459
 21
144.3932623709
  0
LINE
  5
4A8
100
AcDbEntity
  8
0
100
AcDbLine
 62
7
  6
CONTINUOUS
 10
147.8515239459
 20
143.3566040285
 11
147.8515239459
 21
142.8777179143
  0
LINE
  5
4A9
100
AcDbEntity
  8
0
100
AcDbLine
 62
7
  6
CONTINUOUS
 10
147.8515239459
 20
140.072924252
 11
147.8515239459
 21
139.972924252
  0
LINE
  5
4AA
100
AcDbEntity
  8
0
100
AcDbLine
 62
7
  6
CONTINUOUS
 10
147.8515239459
 20
137.294426202
 11
147.8515239459
 21
137.194426202
  0
LINE
  5
4AB
100
AcDbEntity
  8
0
100
AcDbLine
 62
7
  6
CONTINUOUS
 10
147.9259920287
 20
140.4518103662
 11
147.9259920287
 21
140.3518103662
  0
LINE
  5
4AC
100
AcDbEntity
  8
0
100
AcDbLine
 62
7
  6
CONTINUOUS
 10
147.9259920287
 20
137.6733123161
 11
147.9259920287
 21
137.5733123161
  0
LINE
  5
4AD
100
AcDbEntity
  8
0
100
AcDbLine
 62
7
  6
CONTINUOUS
 10
148.1493962769
 20
140.7675490355
 11
148.1493962769
 21
140.6675490355
  0
LINE
  5
4AE
100
AcDbEntity
  8
0
100
AcDbLine
 62
7
  6
CONTINUOUS
 10
148.1493962769
 20
137.9890509855
 11
148.1493962769
 21
137.8890509855
  0
LINE
  5
4AF
100
AcDbEntity
  8
0
100
AcDbLine
 62
7
  6
CONTINUOUS
 10
148.2983324554
 20
139.757185944
 11
148.2983324554
 21
139.657185944
  0
LINE
  5
4B0
100
AcDbEntity
  8
0
100
AcDbLine
 62
7
  6
CONTINUOUS
 10
148.2983324554
 20
136.9786875326
 11
148.2983324554
 21
136.8786875326
  0
LINE
  5
4B1
100
AcDbEntity
  8
0
100
AcDbLine
 62
7
  6
CONTINUOUS
 10
148.3728005317
 20
140.9569920926
 11
148.3728005317
 21
140.8569920926
  0
LINE
  5
4B2
100
AcDbEntity
  8
0
100
AcDbLine
 62
7
  6
CONTINUOUS
 10
148.3728005317
 20
138.1784940426
 11
148.3728005317
 21
138.0784940426
  0
LINE
  5
4B3
100
AcDbEntity
  8
0
100
AcDbLine
 62
7
  6
CONTINUOUS
 10
148.4472686079
 20
139.5677428869
 11
148.4472686079
 21
139.4677428869
  0
LINE
  5
4B4
100
AcDbEntity
  8
0
100
AcDbLine
 62
7
  6
CONTINUOUS
 10
148.4472686079
 20
136.7892444755
 11
148.4472686079
 21
136.6892444755
  0
LINE
  5
4B5
100
AcDbEntity
  8
0
100
AcDbLine
 62
7
  6
CONTINUOUS
 10
148.6706728887
 20
141.0832873435
 11
148.6706728887
 21
140.9832873435
  0
LINE
  5
4B6
100
AcDbEntity
  8
0
100
AcDbLine
 62
7
  6
CONTINUOUS
 10
148.6706728887
 20
138.3047889322
 11
148.6706728887
 21
138.2047889322
  0
LINE
  5
4B7
100
AcDbEntity
  8
0
100
AcDbLine
 62
7
  6
CONTINUOUS
 10
148.8940771174
 20
141.1464351497
 11
148.8940771174
 21
141.0464351497
  0
LINE
  5
4B8
100
AcDbEntity
  8
0
100
AcDbLine
 62
7
  6
CONTINUOUS
 10
148.8940771174
 20
139.3151520237
 11
148.8940771174
 21
139.2151520237
  0
LINE
  5
4B9
100
AcDbEntity
  8
0
100
AcDbLine
 62
7
  6
CONTINUOUS
 10
148.8940771174
 20
138.3679370996
 11
148.8940771174
 21
138.2679370996
  0
LINE
  5
4BA
100
AcDbEntity
  8
0
100
AcDbLine
 62
7
  6
CONTINUOUS
 10
148.8940771174
 20
136.5366539737
 11
148.8940771174
 21
136.4366539737
  0
LINE
  5
4BB
100
AcDbEntity
  8
0
100
AcDbLine
 62
7
  6
CONTINUOUS
 10
149.2664176029
 20
141.2095825945
 11
149.2664176029
 21
141.1095825945
  0
LINE
  5
4BC
100
AcDbEntity
  8
0
100
AcDbLine
 62
7
  6
CONTINUOUS
 10
149.2664176029
 20
138.4310845444
 11
149.2664176029
 21
138.3310845444
  0
LINE
  5
4BD
100
AcDbEntity
  8
0
100
AcDbLine
 62
7
  6
CONTINUOUS
 10
149.3408856791
 20
139.2520045789
 11
149.3408856791
 21
139.1520045789
  0
LINE
  5
4BE
100
AcDbEntity
  8
0
100
AcDbLine
 62
7
  6
CONTINUOUS
 10
149.3408856791
 20
136.4735065289
 11
149.3408856791
 21
136.3735065289
  0
LINE
  5
4BF
100
AcDbEntity
  8
DEFAULT_1
100
AcDbLine
 62
2
  6
CENTER
 10
149.6015239459
 20
90.2186044048
 11
149.6015239459
 21
180.5561044048
  0
LINE
  5
4C0
100
AcDbEntity
  8
0
100
AcDbLine
 62
7
  6
CONTINUOUS
 10
149.8621622127
 20
139.2520045789
 11
149.8621622127
 21
139.1520045789
  0
LINE
  5
4C1
100
AcDbEntity
  8
0
100
AcDbLine
 62
7
  6
CONTINUOUS
 10
149.8621622127
 20
136.4735065289
 11
149.8621622127
 21
136.3735065289
  0
LINE
  5
4C2
100
AcDbEntity
  8
0
100
AcDbLine
 62
7
  6
CONTINUOUS
 10
149.936630289
 20
141.2095825945
 11
149.936630289
 21
141.1095825945
  0
LINE
  5
4C3
100
AcDbEntity
  8
0
100
AcDbLine
 62
7
  6
CONTINUOUS
 10
149.936630289
 20
138.4310845444
 11
149.936630289
 21
138.3310845444
  0
LINE
  5
4C4
100
AcDbEntity
  8
0
100
AcDbLine
 62
7
  6
CONTINUOUS
 10
151.2770558697
 20
139.5940381378
 11
151.3515239459
 21
139.972924252
  0
LINE
  5
4C5
100
AcDbEntity
  8
0
100
AcDbLine
 62
7
  6
CONTINUOUS
 10
151.2770558697
 20
136.8155400878
 11
151.3515239459
 21
137.194426202
  0
LINE
  5
4C6
100
AcDbEntity
  8
0
100
AcDbLine
 62
7
  6
CONTINUOUS
 10
150.9673908821
 20
140.0229242806
 11
150.9047154885
 21
139.757185944
  0
LINE
  5
4C7
100
AcDbEntity
  8
0
100
AcDbLine
 62
7
  6
CONTINUOUS
 10
150.9791835648
 20
139.972924252
 11
150.9047154885
 21
139.657185944
  0
LINE
  5
4C8
100
AcDbEntity
  8
0
100
AcDbLine
 62
7
  6
CONTINUOUS
 10
150.9673908888
 20
137.244426202
 11
150.9047154885
 21
136.9786875326
  0
LINE
  5
4C9
100
AcDbEntity
  8
0
100
AcDbLine
 62
7
  6
CONTINUOUS
 10
150.9791835648
 20
137.194426202
 11
150.9047154885
 21
136.8786875326
  0
LINE
  5
4CA
100
AcDbEntity
  8
0
100
AcDbLine
 62
7
  6
CONTINUOUS
 10
150.2345025939
 20
145.2510345992
 11
150.2345025939
 21
145.1510345992
  0
LINE
  5
4CB
100
AcDbEntity
  8
0
100
AcDbLine
 62
7
  6
CONTINUOUS
 10
150.3089706701
 20
141.1464351497
 11
150.3089706701
 21
141.0464351497
  0
LINE
  5
4CC
100
AcDbEntity
  8
0
100
AcDbLine
 62
7
  6
CONTINUOUS
 10
150.3089706701
 20
139.3151520237
 11
150.3089706701
 21
139.2151520237
  0
LINE
  5
4CD
100
AcDbEntity
  8
0
100
AcDbLine
 62
7
  6
CONTINUOUS
 10
150.3089706701
 20
138.3679370996
 11
150.3089706701
 21
138.2679370996
  0
LINE
  5
4CE
100
AcDbEntity
  8
0
100
AcDbLine
 62
7
  6
CONTINUOUS
 10
150.3089706701
 20
136.5366539737
 11
150.3089706701
 21
136.4366539737
  0
LINE
  5
4CF
100
AcDbEntity
  8
0
100
AcDbLine
 62
7
  6
CONTINUOUS
 10
150.5323751074
 20
141.0832873435
 11
150.5323751074
 21
140.9832873435
  0
LINE
  5
4D0
100
AcDbEntity
  8
0
100
AcDbLine
 62
7
  6
CONTINUOUS
 10
150.5323751074
 20
138.3047889322
 11
150.5323751074
 21
138.2047889322
  0
LINE
  5
4D1
100
AcDbEntity
  8
0
100
AcDbLine
 62
7
  6
CONTINUOUS
 10
150.7557793361
 20
139.5677428869
 11
150.7557793361
 21
139.4677428869
  0
LINE
  5
4D2
100
AcDbEntity
  8
0
100
AcDbLine
 62
7
  6
CONTINUOUS
 10
150.7557793361
 20
136.7892444755
 11
150.7557793361
 21
136.6892444755
  0
LINE
  5
4D3
100
AcDbEntity
  8
0
100
AcDbLine
 62
7
  6
CONTINUOUS
 10
150.8302474123
 20
145.2510345992
 11
150.8302474123
 21
145.1510345992
  0
LINE
  5
4D4
100
AcDbEntity
  8
0
100
AcDbLine
 62
7
  6
CONTINUOUS
 10
150.8302474123
 20
140.9569920926
 11
150.8302474123
 21
140.8569920926
  0
LINE
  5
4D5
100
AcDbEntity
  8
0
100
AcDbLine
 62
7
  6
CONTINUOUS
 10
150.8302474123
 20
138.1784940426
 11
150.8302474123
 21
138.0784940426
  0
LINE
  5
4D6
100
AcDbEntity
  8
0
100
AcDbLine
 62
7
  6
CONTINUOUS
 10
150.9047154885
 20
139.757185944
 11
150.9047154885
 21
139.657185944
  0
LINE
  5
4D7
100
AcDbEntity
  8
0
100
AcDbLine
 62
7
  6
CONTINUOUS
 10
150.9047154885
 20
136.9786875326
 11
150.9047154885
 21
136.8786875326
  0
LINE
  5
4D8
100
AcDbEntity
  8
0
100
AcDbLine
 62
7
  6
CONTINUOUS
 10
150.9791835648
 20
143.9880809155
 11
150.9791835648
 21
141.9936504351
  0
LINE
  5
4D9
100
AcDbEntity
  8
0
100
AcDbLine
 62
7
  6
CONTINUOUS
 10
151.053651641
 20
140.7675490355
 11
151.053651641
 21
140.6675490355
  0
LINE
  5
4DA
100
AcDbEntity
  8
0
100
AcDbLine
 62
7
  6
CONTINUOUS
 10
151.053651641
 20
137.9890509855
 11
151.053651641
 21
137.8890509855
  0
LINE
  5
4DB
100
AcDbEntity
  8
DEFAULT_1
100
AcDbLine
 62
2
  6
CENTER
 10
151.1685581589
 20
141.9823617806
 11
151.1685581589
 21
146.0823617806
  0
LINE
  5
4DC
100
AcDbEntity
  8
0
100
AcDbLine
 62
7
  6
CONTINUOUS
 10
151.2770558697
 20
140.4518103662
 11
151.2770558697
 21
140.3518103662
  0
LINE
  5
4DD
100
AcDbEntity
  8
0
100
AcDbLine
 62
7
  6
CONTINUOUS
 10
151.2770558697
 20
137.6733123161
 11
151.2770558697
 21
137.5733123161
  0
LINE
  5
4DE
100
AcDbEntity
  8
0
100
AcDbLine
 62
7
  6
CONTINUOUS
 10
151.3515239459
 20
140.072924252
 11
151.3515239459
 21
139.972924252
  0
LINE
  5
4DF
100
AcDbEntity
  8
0
100
AcDbLine
 62
7
  6
CONTINUOUS
 10
151.3515239459
 20
137.294426202
 11
151.3515239459
 21
137.194426202
  0
LINE
  5
4E0
100
AcDbEntity
  8
0
100
AcDbLine
 62
7
  6
CONTINUOUS
 10
151.3515239459
 20
141.6147643209
 11
151.3515239459
 21
143.9880809155
  0
LINE
  5
4E1
100
AcDbEntity
  8
0
100
AcDbLine
 62
7
  6
CONTINUOUS
 10
151.3515239459
 20
144.3932623709
 11
151.3515239459
 21
144.8721484851
  0
LINE
  5
4E2
100
AcDbEntity
  8
0
100
AcDbLine
 62
7
  6
CONTINUOUS
 10
153.8015239459
 20
119.4988595608
 11
153.8015239459
 21
106.0784201458
  0
LINE
  5
4E3
100
AcDbEntity
  8
0
100
AcDbLine
 62
7
  6
CONTINUOUS
 10
148.2983324554
 20
136.8786875326
 11
148.2238643792
 21
137.194426202
  0
LINE
  5
4E4
100
AcDbEntity
  8
0
100
AcDbLine
 62
7
  6
CONTINUOUS
 10
148.2983324554
 20
136.9786875326
 11
148.2356570552
 21
137.244426202
  0
LINE
  5
4E5
100
AcDbEntity
  8
0
100
AcDbLine
 62
7
  6
CONTINUOUS
 10
148.2983324554
 20
139.657185944
 11
148.2238643792
 21
139.972924252
  0
LINE
  5
4E6
100
AcDbEntity
  8
0
100
AcDbLine
 62
7
  6
CONTINUOUS
 10
148.2983324554
 20
139.757185944
 11
148.2356570619
 21
140.0229242806
  0
LINE
  5
4E7
100
AcDbEntity
  8
0
100
AcDbLine
 62
7
  6
CONTINUOUS
 10
147.8515239459
 20
137.194426202
 11
147.9259920287
 21
136.8155400878
  0
LINE
  5
4E8
100
AcDbEntity
  8
0
100
AcDbLine
 62
7
  6
CONTINUOUS
 10
147.8515239459
 20
139.972924252
 11
147.9259920287
 21
139.5940381378
  0
LINE
  5
4E9
100
AcDbEntity
  8
0
100
AcDbLine
 62
7
  6
CONTINUOUS
 10
151.3515239459
 20
137.194426202
 11
151.2770558697
 21
137.5733123161
  0
LINE
  5
4EA
100
AcDbEntity
  8
0
100
AcDbLine
 62
7
  6
CONTINUOUS
 10
151.3515239459
 20
137.294426202
 11
151.2770558697
 21
137.6733123161
  0
LINE
  5
4EB
100
AcDbEntity
  8
0
100
AcDbLine
 62
7
  6
CONTINUOUS
 10
155.6015239459
 20
166.7620964202
 11
155.6015239459
 21
162.9887087348
  0
LINE
  5
4EC
100
AcDbEntity
  8
0
100
AcDbLine
 62
7
  6
CONTINUOUS
 10
155.6015239459
 20
161.4362912652
 11
155.6015239459
 21
124.8395523597
  0
LINE
  5
4ED
100
AcDbEntity
  8
0
100
AcDbLine
 62
7
  6
CONTINUOUS
 10
158.5015239459
 20
126.4149561784
 11
158.5015239459
 21
153.6793626702
  0
LINE
  5
4EE
100
AcDbEntity
  8
0
100
AcDbLine
 62
7
  6
CONTINUOUS
 10
148.4472686079
 20
136.6892444755
 11
148.2983324554
 21
136.8786875326
  0
LINE
  5
4EF
100
AcDbEntity
  8
0
100
AcDbLine
 62
7
  6
CONTINUOUS
 10
148.4472686079
 20
136.7892444755
 11
148.2983324554
 21
136.9786875326
  0
LINE
  5
4F0
100
AcDbEntity
  8
0
100
AcDbLine
 62
7
  6
CONTINUOUS
 10
147.9259920287
 20
136.8155400878
 11
148.1493962769
 21
136.4998014185
  0
LINE
  5
4F1
100
AcDbEntity
  8
0
100
AcDbLine
 62
7
  6
CONTINUOUS
 10
147.9259920287
 20
139.5940381378
 11
148.1493962769
 21
139.2782998298
  0
LINE
  5
4F2
100
AcDbEntity
  8
0
100
AcDbLine
 62
7
  6
CONTINUOUS
 10
150.9047154885
 20
137.5101648713
 11
150.9791835648
 21
137.194426202
  0
LINE
  5
4F3
100
AcDbEntity
  8
0
100
AcDbLine
 62
7
  6
CONTINUOUS
 10
150.9047154885
 20
140.2886629214
 11
150.9791835648
 21
139.972924252
  0
LINE
  5
4F4
100
AcDbEntity
  8
0
100
AcDbLine
 62
7
  6
CONTINUOUS
 10
151.3515239459
 20
139.972924252
 11
151.2770558697
 21
140.3518103662
  0
LINE
  5
4F5
100
AcDbEntity
  8
0
100
AcDbLine
 62
7
  6
CONTINUOUS
 10
151.3515239459
 20
140.072924252
 11
151.2770558697
 21
140.4518103662
  0
LINE
  5
4F6
100
AcDbEntity
  8
0
100
AcDbLine
 62
7
  6
CONTINUOUS
 10
160.0015239459
 20
130.6047874213
 11
160.0015251814
 21
124.893766898
  0
LINE
  5
4F7
100
AcDbEntity
  8
SURFACE
100
AcDbLine
 62
7
  6
CONTINUOUS
 10
161.6015239459
 20
125.6249862089
 11
161.6015239459
 21
120.9691205516
  0
LINE
  5
4F8
100
AcDbEntity
  8
SURFACE
100
AcDbLine
 62
7
  6
CONTINUOUS
 10
161.6015239459
 20
120.5034427369
 11
161.6015239459
 21
118.9945601104
  0
LINE
  5
4F9
100
AcDbEntity
  8
0
100
AcDbLine
 62
7
  6
CONTINUOUS
 10
161.6015239459
 20
162.2125
 11
161.6015239459
 21
101.1775149942
  0
LINE
  5
4FA
100
AcDbEntity
  8
DEFAULT_1
100
AcDbLine
 62
2
  6
CENTER
 10
131.9678750764
 20
134.3125
 11
167.2118750764
 21
134.3125
  0
LINE
  5
4FB
100
AcDbEntity
  8
0
100
AcDbLine
 62
7
  6
CONTINUOUS
 10
148.3728005317
 20
136.3103583614
 11
148.6706728887
 21
136.1840634718
  0
LINE
  5
4FC
100
AcDbEntity
  8
0
100
AcDbLine
 62
7
  6
CONTINUOUS
 10
148.8940771174
 20
136.4366539737
 11
148.4472686079
 21
136.6892444755
  0
LINE
  5
4FD
100
AcDbEntity
  8
0
100
AcDbLine
 62
7
  6
CONTINUOUS
 10
148.8940771174
 20
136.5366539737
 11
148.4472686079
 21
136.7892444755
  0
LINE
  5
4FE
100
AcDbEntity
  8
0
100
AcDbLine
 62
7
  6
CONTINUOUS
 10
148.1493962769
 20
136.4998014185
 11
148.3728005317
 21
136.3103583614
  0
LINE
  5
4FF
100
AcDbEntity
  8
0
100
AcDbLine
 62
7
  6
CONTINUOUS
 10
148.1493962769
 20
139.2782998298
 11
148.3728005317
 21
139.0888567727
  0
LINE
  5
500
100
AcDbEntity
  8
0
100
AcDbLine
 62
7
  6
CONTINUOUS
 10
151.053651641
 20
137.8890509855
 11
150.8302474123
 21
138.0784940426
  0
LINE
  5
501
100
AcDbEntity
  8
0
100
AcDbLine
 62
7
  6
CONTINUOUS
 10
151.053651641
 20
137.9890509855
 11
150.8302474123
 21
138.1784940426
  0
LINE
  5
502
100
AcDbEntity
  8
0
100
AcDbLine
 62
7
  6
CONTINUOUS
 10
148.4472686079
 20
139.4677428869
 11
148.2983324554
 21
139.657185944
  0
LINE
  5
503
100
AcDbEntity
  8
0
100
AcDbLine
 62
7
  6
CONTINUOUS
 10
148.4472686079
 20
139.5677428869
 11
148.2983324554
 21
139.757185944
  0
LINE
  5
504
100
AcDbEntity
  8
0
100
AcDbLine
 62
7
  6
CONTINUOUS
 10
150.7557793361
 20
137.6996079284
 11
150.9047154885
 21
137.5101648713
  0
LINE
  5
505
100
AcDbEntity
  8
0
100
AcDbLine
 62
7
  6
CONTINUOUS
 10
150.7557793361
 20
140.4781059784
 11
150.9047154885
 21
140.2886629214
  0
LINE
  5
506
100
AcDbEntity
  8
0
100
AcDbLine
 62
7
  6
CONTINUOUS
 10
151.2770558697
 20
137.5733123161
 11
151.053651641
 21
137.8890509855
  0
LINE
  5
507
100
AcDbEntity
  8
0
100
AcDbLine
 62
7
  6
CONTINUOUS
 10
151.2770558697
 20
137.6733123161
 11
151.053651641
 21
137.9890509855
  0
LINE
  5
508
100
AcDbEntity
  8
0
100
AcDbLine
 62
7
  6
CONTINUOUS
 10
151.2770558697
 20
140.3518103662
 11
151.053651641
 21
140.6675490355
  0
LINE
  5
509
100
AcDbEntity
  8
0
100
AcDbLine
 62
7
  6
CONTINUOUS
 10
151.2770558697
 20
140.4518103662
 11
151.053651641
 21
140.7675490355
  0
LINE
  5
50A
100
AcDbEntity
  8
0
100
AcDbLine
 62
7
  6
CONTINUOUS
 10
150.3089706701
 20
136.1209153043
 11
150.5323751074
 21
136.1840634718
  0
LINE
  5
50B
100
AcDbEntity
  8
0
100
AcDbLine
 62
7
  6
CONTINUOUS
 10
148.8940771174
 20
138.2679370996
 11
148.6706728887
 21
138.2047889322
  0
LINE
  5
50C
100
AcDbEntity
  8
0
100
AcDbLine
 62
7
  6
CONTINUOUS
 10
148.8940771174
 20
138.3679370996
 11
148.6706728887
 21
138.3047889322
  0
LINE
  5
50D
100
AcDbEntity
  8
0
100
AcDbLine
 62
7
  6
CONTINUOUS
 10
150.3089706701
 20
138.8994137157
 11
150.5323751074
 21
138.9625611605
  0
LINE
  5
50E
100
AcDbEntity
  8
0
100
AcDbLine
 62
7
  6
CONTINUOUS
 10
149.936630289
 20
136.0577678595
 11
150.3089706701
 21
136.1209153043
  0
LINE
  5
50F
100
AcDbEntity
  8
0
100
AcDbLine
 62
7
  6
CONTINUOUS
 10
149.2664176029
 20
138.3310845444
 11
148.8940771174
 21
138.2679370996
  0
LINE
  5
510
100
AcDbEntity
  8
0
100
AcDbLine
 62
7
  6
CONTINUOUS
 10
149.2664176029
 20
138.4310845444
 11
148.8940771174
 21
138.3679370996
  0
LINE
  5
511
100
AcDbEntity
  8
0
100
AcDbLine
 62
7
  6
CONTINUOUS
 10
149.936630289
 20
138.8362662709
 11
150.3089706701
 21
138.8994137157
  0
LINE
  5
512
100
AcDbEntity
  8
0
100
AcDbLine
 62
7
  6
CONTINUOUS
 10
150.3089706701
 20
136.4366539737
 11
149.8621622127
 21
136.3735065289
  0
LINE
  5
513
100
AcDbEntity
  8
0
100
AcDbLine
 62
7
  6
CONTINUOUS
 10
150.3089706701
 20
136.5366539737
 11
149.8621622127
 21
136.4735065289
  0
LINE
  5
514
100
AcDbEntity
  8
0
100
AcDbLine
 62
7
  6
CONTINUOUS
 10
148.8940771174
 20
137.9521984303
 11
149.3408856791
 21
138.0153458751
  0
LINE
  5
515
100
AcDbEntity
  8
0
100
AcDbLine
 62
7
  6
CONTINUOUS
 10
150.3089706701
 20
139.2151520237
 11
149.8621622127
 21
139.1520045789
  0
LINE
  5
516
100
AcDbEntity
  8
0
100
AcDbLine
 62
7
  6
CONTINUOUS
 10
150.3089706701
 20
139.3151520237
 11
149.8621622127
 21
139.2520045789
  0
LINE
  5
517
100
AcDbEntity
  8
0
100
AcDbLine
 62
7
  6
CONTINUOUS
 10
149.2664176029
 20
136.0577678595
 11
149.936630289
 21
136.0577678595
  0
LINE
  5
518
100
AcDbEntity
  8
0
100
AcDbLine
 62
7
  6
CONTINUOUS
 10
149.8621622127
 20
136.3735065289
 11
149.3408856791
 21
136.3735065289
  0
LINE
  5
519
100
AcDbEntity
  8
0
100
AcDbLine
 62
7
  6
CONTINUOUS
 10
149.8621622127
 20
136.4735065289
 11
149.3408856791
 21
136.4735065289
  0
LINE
  5
51A
100
AcDbEntity
  8
0
100
AcDbLine
 62
7
  6
CONTINUOUS
 10
149.3408856791
 20
138.0153458751
 11
149.8621622127
 21
138.0153458751
  0
LINE
  5
51B
100
AcDbEntity
  8
0
100
AcDbLine
 62
7
  6
CONTINUOUS
 10
149.936630289
 20
138.3310845444
 11
149.2664176029
 21
138.3310845444
  0
LINE
  5
51C
100
AcDbEntity
  8
0
100
AcDbLine
 62
7
  6
CONTINUOUS
 10
149.936630289
 20
138.4310845444
 11
149.2664176029
 21
138.4310845444
  0
LINE
  5
51D
100
AcDbEntity
  8
0
100
AcDbLine
 62
7
  6
CONTINUOUS
 10
149.2664176029
 20
138.8362662709
 11
149.936630289
 21
138.8362662709
  0
LINE
  5
51E
100
AcDbEntity
  8
0
100
AcDbLine
 62
7
  6
CONTINUOUS
 10
149.8621622127
 20
139.1520045789
 11
149.3408856791
 21
139.1520045789
  0
LINE
  5
51F
100
AcDbEntity
  8
0
100
AcDbLine
 62
7
  6
CONTINUOUS
 10
149.8621622127
 20
139.2520045789
 11
149.3408856791
 21
139.2520045789
  0
LINE
  5
520
100
AcDbEntity
  8
0
100
AcDbLine
 62
7
  6
CONTINUOUS
 10
149.3408856791
 20
136.3735065289
 11
148.8940771174
 21
136.4366539737
  0
LINE
  5
521
100
AcDbEntity
  8
0
100
AcDbLine
 62
7
  6
CONTINUOUS
 10
149.3408856791
 20
136.4735065289
 11
148.8940771174
 21
136.5366539737
  0
LINE
  5
522
100
AcDbEntity
  8
0
100
AcDbLine
 62
7
  6
CONTINUOUS
 10
149.8621622127
 20
138.0153458751
 11
150.3089706701
 21
137.9521984303
  0
LINE
  5
523
100
AcDbEntity
  8
0
100
AcDbLine
 62
7
  6
CONTINUOUS
 10
149.3408856791
 20
139.1520045789
 11
148.8940771174
 21
139.2151520237
  0
LINE
  5
524
100
AcDbEntity
  8
0
100
AcDbLine
 62
7
  6
CONTINUOUS
 10
149.3408856791
 20
139.2520045789
 11
148.8940771174
 21
139.3151520237
  0
LINE
  5
525
100
AcDbEntity
  8
0
100
AcDbLine
 62
7
  6
CONTINUOUS
 10
148.8940771174
 20
136.1209153043
 11
149.2664176029
 21
136.0577678595
  0
LINE
  5
526
100
AcDbEntity
  8
0
100
AcDbLine
 62
7
  6
CONTINUOUS
 10
150.3089706701
 20
138.2679370996
 11
149.936630289
 21
138.3310845444
  0
LINE
  5
527
100
AcDbEntity
  8
0
100
AcDbLine
 62
7
  6
CONTINUOUS
 10
150.3089706701
 20
138.3679370996
 11
149.936630289
 21
138.4310845444
  0
LINE
  5
528
100
AcDbEntity
  8
0
100
AcDbLine
 62
7
  6
CONTINUOUS
 10
148.8940771174
 20
138.8994137157
 11
149.2664176029
 21
138.8362662709
  0
LINE
  5
529
100
AcDbEntity
  8
0
100
AcDbLine
 62
7
  6
CONTINUOUS
 10
148.6706728887
 20
136.1840634718
 11
148.8940771174
 21
136.1209153043
  0
LINE
  5
52A
100
AcDbEntity
  8
0
100
AcDbLine
 62
7
  6
CONTINUOUS
 10
150.5323751074
 20
138.2047889322
 11
150.3089706701
 21
138.2679370996
  0
LINE
  5
52B
100
AcDbEntity
  8
0
100
AcDbLine
 62
7
  6
CONTINUOUS
 10
150.5323751074
 20
138.3047889322
 11
150.3089706701
 21
138.3679370996
  0
LINE
  5
52C
100
AcDbEntity
  8
0
100
AcDbLine
 62
7
  6
CONTINUOUS
 10
148.6706728887
 20
138.9625611605
 11
148.8940771174
 21
138.8994137157
  0
LINE
  5
52D
100
AcDbEntity
  8
0
100
AcDbLine
 62
7
  6
CONTINUOUS
 10
148.3728005317
 20
139.0888567727
 11
148.6706728887
 21
138.9625611605
  0
LINE
  5
52E
100
AcDbEntity
  8
0
100
AcDbLine
 62
7
  6
CONTINUOUS
 10
150.8302474123
 20
138.0784940426
 11
150.5323751074
 21
138.2047889322
  0
LINE
  5
52F
100
AcDbEntity
  8
0
100
AcDbLine
 62
7
  6
CONTINUOUS
 10
150.8302474123
 20
138.1784940426
 11
150.5323751074
 21
138.3047889322
  0
LINE
  5
530
100
AcDbEntity
  8
0
100
AcDbLine
 62
7
  6
CONTINUOUS
 10
150.3089706701
 20
137.9521984303
 11
150.7557793361
 21
137.6996079284
  0
LINE
  5
531
100
AcDbEntity
  8
0
100
AcDbLine
 62
7
  6
CONTINUOUS
 10
148.8940771174
 20
139.2151520237
 11
148.4472686079
 21
139.4677428869
  0
LINE
  5
532
100
AcDbEntity
  8
0
100
AcDbLine
 62
7
  6
CONTINUOUS
 10
148.8940771174
 20
139.3151520237
 11
148.4472686079
 21
139.5677428869
  0
LINE
  5
533
100
AcDbEntity
  8
0
100
AcDbLine
 62
7
  6
CONTINUOUS
 10
150.3089706701
 20
140.7306964803
 11
150.7557793361
 21
140.4781059784
  0
LINE
  5
534
100
AcDbEntity
  8
0
100
AcDbLine
 62
7
  6
CONTINUOUS
 10
151.053651641
 20
140.6675490355
 11
150.8302474123
 21
140.8569920926
  0
LINE
  5
535
100
AcDbEntity
  8
0
100
AcDbLine
 62
7
  6
CONTINUOUS
 10
151.053651641
 20
140.7675490355
 11
150.8302474123
 21
140.9569920926
  0
LINE
  5
536
100
AcDbEntity
  8
0
100
AcDbLine
 62
7
  6
CONTINUOUS
 10
148.8940771174
 20
141.0464351497
 11
148.6706728887
 21
140.9832873435
  0
LINE
  5
537
100
AcDbEntity
  8
0
100
AcDbLine
 62
7
  6
CONTINUOUS
 10
148.8940771174
 20
141.1464351497
 11
148.6706728887
 21
141.0832873435
  0
LINE
  5
538
100
AcDbEntity
  8
0
100
AcDbLine
 62
7
  6
CONTINUOUS
 10
149.2664176029
 20
141.1095825945
 11
148.8940771174
 21
141.0464351497
  0
LINE
  5
539
100
AcDbEntity
  8
0
100
AcDbLine
 62
7
  6
CONTINUOUS
 10
149.2664176029
 20
141.2095825945
 11
148.8940771174
 21
141.1464351497
  0
LINE
  5
53A
100
AcDbEntity
  8
0
100
AcDbLine
 62
7
  6
CONTINUOUS
 10
148.8940771174
 20
140.7306964803
 11
149.3408856791
 21
140.7938442864
  0
LINE
  5
53B
100
AcDbEntity
  8
0
100
AcDbLine
 62
7
  6
CONTINUOUS
 10
149.3408856791
 20
140.7938442864
 11
149.8621622127
 21
140.7938442864
  0
LINE
  5
53C
100
AcDbEntity
  8
0
100
AcDbLine
 62
7
  6
CONTINUOUS
 10
149.936630289
 20
141.1095825945
 11
149.2664176029
 21
141.1095825945
  0
LINE
  5
53D
100
AcDbEntity
  8
0
100
AcDbLine
 62
7
  6
CONTINUOUS
 10
149.936630289
 20
141.2095825945
 11
149.2664176029
 21
141.2095825945
  0
LINE
  5
53E
100
AcDbEntity
  8
0
100
AcDbLine
 62
7
  6
CONTINUOUS
 10
150.9791835648
 20
141.6147643209
 11
151.3515239459
 21
141.6147643209
  0
LINE
  5
53F
100
AcDbEntity
  8
0
100
AcDbLine
 62
7
  6
CONTINUOUS
 10
149.8621622127
 20
140.7938442864
 11
150.3089706701
 21
140.7306964803
  0
LINE
  5
540
100
AcDbEntity
  8
0
100
AcDbLine
 62
7
  6
CONTINUOUS
 10
150.3089706701
 20
141.0464351497
 11
149.936630289
 21
141.1095825945
  0
LINE
  5
541
100
AcDbEntity
  8
0
100
AcDbLine
 62
7
  6
CONTINUOUS
 10
150.3089706701
 20
141.1464351497
 11
149.936630289
 21
141.2095825945
  0
LINE
  5
542
100
AcDbEntity
  8
0
100
AcDbLine
 62
7
  6
CONTINUOUS
 10
150.5323751074
 20
140.9832873435
 11
150.3089706701
 21
141.0464351497
  0
LINE
  5
543
100
AcDbEntity
  8
0
100
AcDbLine
 62
7
  6
CONTINUOUS
 10
150.5323751074
 20
141.0832873435
 11
150.3089706701
 21
141.1464351497
  0
LINE
  5
544
100
AcDbEntity
  8
0
100
AcDbLine
 62
7
  6
CONTINUOUS
 10
147.8515239459
 20
142.8777179143
 11
150.9791835648
 21
141.6147643209
  0
LINE
  5
545
100
AcDbEntity
  8
0
100
AcDbLine
 62
7
  6
CONTINUOUS
 10
150.9791835648
 20
141.9936504351
 11
147.8515239459
 21
143.2566040285
  0
LINE
  5
546
100
AcDbEntity
  8
0
100
AcDbLine
 62
7
  6
CONTINUOUS
 10
150.9791835648
 20
142.0936504351
 11
147.8515239459
 21
143.3566040285
  0
LINE
  5
547
100
AcDbEntity
  8
0
100
AcDbLine
 62
7
  6
CONTINUOUS
 10
150.8302474123
 20
140.8569920926
 11
150.5323751074
 21
140.9832873435
  0
LINE
  5
548
100
AcDbEntity
  8
0
100
AcDbLine
 62
7
  6
CONTINUOUS
 10
150.8302474123
 20
140.9569920926
 11
150.5323751074
 21
141.0832873435
  0
LINE
  5
549
100
AcDbEntity
  8
0
100
AcDbLine
 62
7
  6
CONTINUOUS
 10
150.2345025939
 20
145.1510345992
 11
150.7557793361
 21
144.7721484851
  0
LINE
  5
54A
100
AcDbEntity
  8
0
100
AcDbLine
 62
7
  6
CONTINUOUS
 10
151.3515239459
 20
144.7721484851
 11
150.8302474123
 21
145.1510345992
  0
LINE
  5
54B
100
AcDbEntity
  8
0
100
AcDbLine
 62
7
  6
CONTINUOUS
 10
151.3515239459
 20
144.8721484851
 11
150.8302474123
 21
145.2510345992
  0
LINE
  5
54C
100
AcDbEntity
  8
0
100
AcDbLine
 62
7
  6
CONTINUOUS
 10
151.3515239459
 20
143.8880809155
 11
150.9791835648
 21
143.8880809155
  0
LINE
  5
54D
100
AcDbEntity
  8
0
100
AcDbLine
 62
7
  6
CONTINUOUS
 10
151.3515239459
 20
143.9880809155
 11
150.9791835648
 21
143.9880809155
  0
LINE
  5
54E
100
AcDbEntity
  8
0
100
AcDbLine
 62
7
  6
CONTINUOUS
 10
147.8515239459
 20
144.3932623709
 11
151.3515239459
 21
144.3932623709
  0
LINE
  5
54F
100
AcDbEntity
  8
0
100
AcDbLine
 62
7
  6
CONTINUOUS
 10
150.7557793361
 20
144.7721484851
 11
147.8515239459
 21
144.7721484851
  0
LINE
  5
550
100
AcDbEntity
  8
0
100
AcDbLine
 62
7
  6
CONTINUOUS
 10
150.6181979567
 20
144.8721484851
 11
147.8515239459
 21
144.8721484851
  0
LINE
  5
551
100
AcDbEntity
  8
0
100
AcDbLine
 62
7
  6
CONTINUOUS
 10
150.8302474123
 20
145.1510345992
 11
150.2345025939
 21
145.1510345992
  0
LINE
  5
552
100
AcDbEntity
  8
0
100
AcDbLine
 62
7
  6
CONTINUOUS
 10
150.8302474123
 20
145.2510345992
 11
150.2345025939
 21
145.2510345992
  0
LINE
  5
553
100
AcDbEntity
  8
DEFAULT_1
100
AcDbLine
 62
2
  6
CENTER
 10
166.9909125
 20
162.2125
 11
153.1140239459
 21
162.2125
  0
LINE
  5
554
100
AcDbEntity
  8
0
100
AcDbLine
 62
2
  6
CONTINUOUS
 10
150.4815239459
 20
162.2125
 11
148.7215239459
 21
162.2125
  0
LINE
  5
555
100
AcDbEntity
  8
DEFAULT_1
100
AcDbLine
 62
2
  6
CENTER
 10
132.0373125
 20
162.2125
 11
146.0890239459
 21
162.2125
  0
LINE
  5
556
100
AcDbEntity
  8
0
100
AcDbLine
 62
7
  6
CONTINUOUS
 10
143.4735051802
 20
168.2531782694
 11
149.2658067348
 21
168.2531782694
  0
LINE
  5
557
100
AcDbEntity
  8
0
100
AcDbLine
 62
7
  6
CONTINUOUS
 10
149.937241157
 20
168.2531782694
 11
155.7297098829
 21
168.253178391
  0
ARC
  5
558
100
AcDbEntity
  8
0
100
AcDbCircle
 62
7
  6
CONTINUOUS
 10
47.39375
 20
126.4729943014
 40
6.0
100
AcDbArc
 50
324.136660872
 51
345.316302044
  0
ARC
  5
559
100
AcDbEntity
  8
0
100
AcDbCircle
 62
7
  6
CONTINUOUS
 10
42.34375
 20
133.3237107824
 40
3.0
100
AcDbArc
 50
180.0
 51
245.0
  0
ARC
  5
55A
100
AcDbEntity
  8
0
100
AcDbCircle
 62
7
  6
CONTINUOUS
 10
41.54375
 20
167.2125
 40
7.0
100
AcDbArc
 50
0.0
 51
87.1035070389
  0
ARC
  5
55B
100
AcDbEntity
  8
0
100
AcDbCircle
 62
7
  6
CONTINUOUS
 10
41.54375
 20
167.2125
 40
7.0
100
AcDbArc
 50
87.4665405236
 51
87.8913792686
  0
ARC
  5
55C
100
AcDbEntity
  8
0
100
AcDbCircle
 62
7
  6
CONTINUOUS
 10
45.34375
 20
166.2125
 40
6.0
100
AcDbArc
 50
170.0
 51
180.0
  0
ARC
  5
55D
100
AcDbEntity
  8
0
100
AcDbCircle
 62
7
  6
CONTINUOUS
 10
50.5476285137
 20
159.4466082748
 40
2.0041832976
100
AcDbArc
 50
205.0279587952
 51
207.1032872264
  0
ARC
  5
55E
100
AcDbEntity
  8
0
100
AcDbCircle
 62
7
  6
CONTINUOUS
 10
50.543277734
 20
159.4447726596
 40
1.9994644815
100
AcDbArc
 50
179.9978974501
 51
205.0330419861
  0
ARC
  5
55F
100
AcDbEntity
  8
0
100
AcDbCircle
 62
7
  6
CONTINUOUS
 10
41.9204556168
 20
172.7124999756
 40
1.5
100
AcDbArc
 50
94.5560121506
 51
170.0
  0
ARC
  5
560
100
AcDbEntity
  8
0
100
AcDbCircle
 62
7
  6
CONTINUOUS
 10
41.8221530907
 20
173.5073532762
 40
0.6989927675
100
AcDbArc
 50
82.0772521658
 51
87.4656768767
  0
ARC
  5
561
100
AcDbEntity
  8
SURFACE
100
AcDbCircle
 62
7
  6
CONTINUOUS
 10
66.84375
 20
112.4125
 40
18.0
100
AcDbArc
 50
290.8183284114
 51
35.846212639
  0
ARC
  5
562
100
AcDbEntity
  8
0
100
AcDbCircle
 62
7
  6
CONTINUOUS
 10
66.84375
 20
112.4125
 40
18.0
100
AcDbArc
 50
144.136660872
 51
35.863339128
  0
ARC
  5
563
100
AcDbEntity
  8
SURFACE
100
AcDbCircle
 62
7
  6
CONTINUOUS
 10
86.29375
 20
126.4729943014
 40
6.0
100
AcDbArc
 50
194.683697956
 51
215.863339128
  0
ARC
  5
564
100
AcDbEntity
  8
SURFACE
100
AcDbCircle
 62
7
  6
CONTINUOUS
 10
91.34375
 20
133.3237107824
 40
3.0
100
AcDbArc
 50
295.0
 51
360.0
  0
ARC
  5
565
100
AcDbEntity
  8
0
100
AcDbCircle
 62
7
  6
CONTINUOUS
 10
66.84375
 20
162.2125
 40
17.5
100
AcDbArc
 50
210.0
 51
330.0
  0
ARC
  5
566
100
AcDbEntity
  8
SURFACE
100
AcDbCircle
 62
7
  6
CONTINUOUS
 10
92.14375
 20
167.2125
 40
7.0
100
AcDbArc
 50
92.1086207314
 51
92.5334594764
  0
ARC
  5
567
100
AcDbEntity
  8
SURFACE
100
AcDbCircle
 62
7
  6
CONTINUOUS
 10
92.14375
 20
167.2125
 40
7.0
100
AcDbArc
 50
92.8964929611
 51
180.0
  0
ARC
  5
568
100
AcDbEntity
  8
SURFACE
100
AcDbCircle
 62
7
  6
CONTINUOUS
 10
88.34375
 20
166.2125
 40
6.0
100
AcDbArc
 50
0.0
 51
10.0
  0
ARC
  5
569
100
AcDbEntity
  8
SURFACE
100
AcDbCircle
 62
7
  6
CONTINUOUS
 10
83.1398289519
 20
159.4466286919
 40
2.0042304759
100
AcDbArc
 50
332.9478702857
 51
334.9725245958
  0
ARC
  5
56A
100
AcDbEntity
  8
SURFACE
100
AcDbCircle
 62
7
  6
CONTINUOUS
 10
83.1442222855
 20
159.4447726588
 40
1.999464462
100
AcDbArc
 50
334.9674568233
 51
0.0021025744
  0
ARC
  5
56B
100
AcDbEntity
  8
SURFACE
100
AcDbCircle
 62
7
  6
CONTINUOUS
 10
91.7670443832
 20
172.7124999756
 40
1.5
100
AcDbArc
 50
10.0
 51
85.4439878494
  0
ARC
  5
56C
100
AcDbEntity
  8
SURFACE
100
AcDbCircle
 62
7
  6
CONTINUOUS
 10
91.8653469093
 20
173.5073532762
 40
0.6989927675
100
AcDbArc
 50
92.5343231234
 51
97.9227478344
  0
ARC
  5
56D
100
AcDbEntity
  8
0
100
AcDbCircle
 62
7
  6
CONTINUOUS
 10
54.8437500085
 20
230.6718364459
 40
6.0
100
AcDbArc
 50
180.0
 51
270.0
  0
ARC
  5
56E
100
AcDbEntity
  8
0
100
AcDbCircle
 62
7
  6
CONTINUOUS
 10
40.84375
 20
226.1718364459
 40
1.5
100
AcDbArc
 50
180.0
 51
270.0
  0
ARC
  5
56F
100
AcDbEntity
  8
0
100
AcDbCircle
 62
7
  6
CONTINUOUS
 10
49.14375
 20
232.1718364459
 40
0.3
100
AcDbArc
 50
90.0
 51
180.0
  0
ARC
  5
570
100
AcDbEntity
  8
0
100
AcDbCircle
 62
7
  6
CONTINUOUS
 10
39.59375
 20
230.4218364459
 40
0.25
100
AcDbArc
 50
90.0
 51
180.0
  0
ARC
  5
571
100
AcDbEntity
  8
0
100
AcDbCircle
 62
7
  6
CONTINUOUS
 10
55.6087668485
 20
246.6718364459
 40
2.0
100
AcDbArc
 50
90.0
 51
104.9713368556
  0
ARC
  5
572
100
AcDbEntity
  8
0
100
AcDbCircle
 62
7
  6
CONTINUOUS
 10
50.8437507551
 20
243.5209658121
 40
1.9999999414
100
AcDbArc
 50
141.9786303648
 51
179.9999973791
  0
ARC
  5
573
100
AcDbEntity
  8
0
100
AcDbCircle
 62
7
  6
CONTINUOUS
 10
40.84375
 20
247.1718364459
 40
1.5
100
AcDbArc
 50
90.0
 51
180.0
  0
ARC
  5
574
100
AcDbEntity
  8
0
100
AcDbCircle
 62
7
  6
CONTINUOUS
 10
39.74375
 20
245.9718364459
 40
0.4
100
AcDbArc
 50
180.0
 51
270.0
  0
ARC
  5
575
100
AcDbEntity
  8
0
100
AcDbCircle
 62
7
  6
CONTINUOUS
 10
49.14375
 20
241.1718364459
 40
0.3
100
AcDbArc
 50
180.0
 51
270.0
  0
ARC
  5
576
100
AcDbEntity
  8
0
100
AcDbCircle
 62
7
  6
CONTINUOUS
 10
39.59375
 20
242.9218364459
 40
0.25
100
AcDbArc
 50
180.0
 51
270.0
  0
ARC
  5
577
100
AcDbEntity
  8
SURFACE
100
AcDbCircle
 62
7
  6
CONTINUOUS
 10
78.8437499915
 20
230.6718364459
 40
6.0
100
AcDbArc
 50
270.0
 51
360.0
  0
ARC
  5
578
100
AcDbEntity
  8
0
100
AcDbCircle
 62
7
  6
CONTINUOUS
 10
85.3663848833
 20
233.8788592422
 40
3.1902610552
100
AcDbArc
 50
179.9997949606
 51
182.6201351809
  0
ARC
  5
579
100
AcDbEntity
  8
SURFACE
100
AcDbCircle
 62
7
  6
CONTINUOUS
 10
92.84375
 20
226.1718364459
 40
1.5
100
AcDbArc
 50
270.0
 51
360.0
  0
ARC
  5
57A
100
AcDbEntity
  8
0
100
AcDbCircle
 62
7
  6
CONTINUOUS
 10
85.913043661
 20
235.5321844408
 40
0.4294258043
100
AcDbArc
 50
111.6918691679
 51
113.8907330861
  0
ARC
  5
57B
100
AcDbEntity
  8
SURFACE
100
AcDbCircle
 62
7
  6
CONTINUOUS
 10
84.54375
 20
232.1718364459
 40
0.3
100
AcDbArc
 50
0.0
 51
90.0
  0
ARC
  5
57C
100
AcDbEntity
  8
SURFACE
100
AcDbCircle
 62
7
  6
CONTINUOUS
 10
94.09375
 20
230.4218364459
 40
0.25
100
AcDbArc
 50
0.0
 51
90.0
  0
ARC
  5
57D
100
AcDbEntity
  8
SURFACE
100
AcDbCircle
 62
7
  6
CONTINUOUS
 10
78.0787331515
 20
246.6718364459
 40
2.0
100
AcDbArc
 50
75.0286631444
 51
90.0
  0
ARC
  5
57E
100
AcDbEntity
  8
SURFACE
100
AcDbCircle
 62
7
  6
CONTINUOUS
 10
82.8437492449
 20
243.5209658121
 40
1.9999999414
100
AcDbArc
 50
0.0000026209
 51
38.0213696352
  0
ARC
  5
57F
100
AcDbEntity
  8
SURFACE
100
AcDbCircle
 62
7
  6
CONTINUOUS
 10
92.84375
 20
247.1718364459
 40
1.5
100
AcDbArc
 50
0.0
 51
90.0
  0
ARC
  5
580
100
AcDbEntity
  8
SURFACE
100
AcDbCircle
 62
7
  6
CONTINUOUS
 10
93.94375
 20
245.9718364459
 40
0.4
100
AcDbArc
 50
270.0
 51
360.0
  0
ARC
  5
581
100
AcDbEntity
  8
SURFACE
100
AcDbCircle
 62
7
  6
CONTINUOUS
 10
84.54375
 20
241.1718364459
 40
0.3
100
AcDbArc
 50
270.0
 51
360.0
  0
ARC
  5
582
100
AcDbEntity
  8
SURFACE
100
AcDbCircle
 62
7
  6
CONTINUOUS
 10
94.09375
 20
242.9218364459
 40
0.25
100
AcDbArc
 50
270.0
 51
360.0
  0
ARC
  5
583
100
AcDbEntity
  8
0
100
AcDbCircle
 62
7
  6
CONTINUOUS
 10
147.8348029903
 20
105.5125
 40
11.1
100
AcDbArc
 50
205.2095678255
 51
270.0003913485
  0
ARC
  5
584
100
AcDbEntity
  8
0
100
AcDbCircle
 62
7
  6
CONTINUOUS
 10
139.6015223466
 20
101.6365363443
 40
2.0000000534
100
AcDbArc
 50
180.0000809958
 51
205.2096606218
  0
ARC
  5
585
100
AcDbEntity
  8
SURFACE
100
AcDbCircle
 62
7
  6
CONTINUOUS
 10
139.6015223466
 20
101.6365363443
 40
2.0000000534
100
AcDbArc
 50
180.0000809958
 51
205.2096606218
  0
ARC
  5
586
100
AcDbEntity
  8
0
100
AcDbCircle
 62
7
  6
CONTINUOUS
 10
149.3346841979
 20
167.9874569679
 40
6.2188822354
100
AcDbArc
 50
90.8521720986
 51
92.066642993
  0
ARC
  5
587
100
AcDbEntity
  8
0
100
AcDbCircle
 62
7
  6
CONTINUOUS
 10
149.3343741471
 20
167.9961098859
 40
6.2102237646
100
AcDbArc
 50
92.0666632128
 51
92.6441224906
  0
ARC
  5
588
100
AcDbEntity
  8
0
100
AcDbCircle
 62
7
  6
CONTINUOUS
 10
150.9070179485
 20
103.5024996613
 40
10.9999993468
100
AcDbArc
 50
308.0216185671
 51
345.0288611235
  0
ARC
  5
589
100
AcDbEntity
  8
0
100
AcDbCircle
 62
7
  6
CONTINUOUS
 10
159.6015239459
 20
101.1775150234
 40
2.0
100
AcDbArc
 50
345.0286451679
 51
359.9999991621
  0
ARC
  5
58A
100
AcDbEntity
  8
0
100
AcDbCircle
 62
7
  6
CONTINUOUS
 10
156.4506533121
 20
96.4125000147
 40
1.9999999989
100
AcDbArc
 50
270.0
 51
308.0213664142
  0
ARC
  5
58B
100
AcDbEntity
  8
SURFACE
100
AcDbCircle
 62
7
  6
CONTINUOUS
 10
149.6015239459
 20
162.2125
 40
12.0
100
AcDbArc
 50
177.4407745922
 51
180.0
  0
ARC
  5
58C
100
AcDbEntity
  8
SURFACE
100
AcDbCircle
 62
7
  6
CONTINUOUS
 10
149.6015239459
 20
162.2125
 40
12.0
100
AcDbArc
 50
173.9540491175
 51
174.8496069765
  0
ARC
  5
58D
100
AcDbEntity
  8
SURFACE
100
AcDbCircle
 62
7
  6
CONTINUOUS
 10
149.6015239459
 20
162.2125
 40
12.0
100
AcDbArc
 50
171.3628815026
 51
172.1625058196
  0
ARC
  5
58E
100
AcDbEntity
  8
SURFACE
100
AcDbCircle
 62
7
  6
CONTINUOUS
 10
149.6015239459
 20
162.2125
 40
12.0
100
AcDbArc
 50
163.6532630728
 51
166.244430688
  0
ARC
  5
58F
100
AcDbEntity
  8
0
100
AcDbCircle
 62
7
  6
CONTINUOUS
 10
149.6015239459
 20
162.2125
 40
12.0
100
AcDbArc
 50
92.6429019167
 51
180.0
  0
ARC
  5
590
100
AcDbEntity
  8
0
100
AcDbCircle
 62
7
  6
CONTINUOUS
 10
149.6015239459
 20
162.2125
 40
12.0
100
AcDbArc
 50
0.0
 51
87.3523858795
  0
ARC
  5
591
100
AcDbEntity
  8
SURFACE
100
AcDbCircle
 62
7
  6
CONTINUOUS
 10
149.6015239459
 20
162.2125
 40
12.0
100
AcDbArc
 50
151.8786461299
 51
152.9110618924
  0
CIRCLE
  5
592
100
AcDbEntity
  8
0
100
AcDbCircle
 62
7
  6
CONTINUOUS
 10
149.6015239459
 20
162.2125
 40
6.05
  0
CIRCLE
  5
593
100
AcDbEntity
  8
0
100
AcDbCircle
 62
7
  6
CONTINUOUS
 10
149.6015239459
 20
162.2125
 40
4.0
  0
ARC
  5
594
100
AcDbEntity
  8
0
100
AcDbCircle
 62
7
  6
CONTINUOUS
 10
149.8675362818
 20
167.9614244322
 40
6.2449247256
100
AcDbArc
 50
87.3511057633
 51
87.93439757
  0
ARC
  5
595
100
AcDbEntity
  8
0
100
AcDbCircle
 62
7
  6
CONTINUOUS
 10
149.8676774707
 20
167.9659191506
 40
6.2404278388
100
AcDbArc
 50
87.9342055933
 51
89.15128888
  0
SPLINE
  5
596
100
AcDbEntity
  8
0
100
AcDbSpline
 62
7
  6
CONTINUOUS
 70
0
 71
3
 72
9
 73
5
 74
0
 42
0.0000001
 43
0.0000001
 44
0.0000000001
 40
0.0
 40
0.0
 40
0.0
 40
0.0
 40
0.4640921508
 40
1.0
 40
1.0
 40
1.0
 40
1.0
 10
83.5350332009
 20
232.4705478434
 30
0.0
 10
83.5873115039
 20
232.5306614695
 30
0.0
 10
83.6817780928
 20
232.6760506002
 30
0.0
 10
83.7471641538
 20
232.8355640059
 30
0.0
 10
83.7761238281
 20
232.9228807092
 30
0.0
  0
SPLINE
  5
597
100
AcDbEntity
  8
0
100
AcDbSpline
 62
7
  6
CONTINUOUS
 70
0
 71
3
 72
16
 73
12
 74
0
 42
0.0000001
 43
0.0000001
 44
0.0000000001
 40
0.0
 40
0.0
 40
0.0
 40
0.0
 40
0.0407127721
 40
0.082568619
 40
0.1732700914
 40
0.2778850095
 40
0.3982801407
 40
0.5336994962
 40
0.6816510419
 40
0.8385093358
 40
1.0
 40
1.0
 40
1.0
 40
1.0
 10
87.3961238281
 20
236.1988706589
 30
0.0
 10
87.4296101942
 20
236.1988706589
 30
0.0
 10
87.4977023752
 20
236.2056631169
 30
0.0
 10
87.6349100829
 20
236.246912314
 30
0.0
 10
87.8027125475
 20
236.3533788661
 30
0.0
 10
87.9780492202
 20
236.5477672173
 30
0.0
 10
88.1301996852
 20
236.8039480971
 30
0.0
 10
88.2544353417
 20
237.113045781
 30
0.0
 10
88.3466447856
 20
237.4640420834
 30
0.0
 10
88.4034098104
 20
237.8440112898
 30
0.0
 10
88.4161238281
 20
238.1060441468
 30
0.0
 10
88.4161238281
 20
238.2388706589
 30
0.0
  0
SPLINE
  5
598
100
AcDbEntity
  8
SURFACE
100
AcDbSpline
 62
7
  6
CONTINUOUS
 70
0
 71
3
 72
9
 73
5
 74
0
 42
0.0000001
 43
0.0000001
 44
0.0000000001
 40
0.0
 40
0.0
 40
0.0
 40
0.0
 40
0.292759471
 40
1.0
 40
1.0
 40
1.0
 40
1.0
 10
93.1283385832
 20
230.6718364459
 30
0.0
 10
93.1233115872
 20
230.6718364459
 30
0.0
 10
93.1061402449
 20
230.6723381687
 30
0.0
 10
93.0890355189
 20
230.6741878412
 30
0.0
 10
93.0770191125
 20
230.6759441795
 30
0.0
  0
SPLINE
  5
599
100
AcDbEntity
  8
SURFACE
100
AcDbSpline
 62
7
  6
CONTINUOUS
 70
0
 71
3
 72
9
 73
5
 74
0
 42
0.0000001
 43
0.0000001
 44
0.0000000001
 40
0.0
 40
0.0
 40
0.0
 40
0.0
 40
0.2904912484
 40
1.0
 40
1.0
 40
1.0
 40
1.0
 10
93.0770191125
 20
230.6759441795
 30
0.0
 10
93.0672359714
 20
230.6773741
 30
0.0
 10
93.0337138969
 20
230.6833524832
 30
0.0
 10
93.0007667062
 20
230.6922808743
 30
0.0
 10
92.9778200187
 20
230.6998046742
 30
0.0
  0
SPLINE
  5
59A
100
AcDbEntity
  8
SURFACE
100
AcDbSpline
 62
7
  6
CONTINUOUS
 70
0
 71
3
 72
10
 73
6
 74
0
 42
0.0000001
 43
0.0000001
 44
0.0000000001
 40
0.0
 40
0.0
 40
0.0
 40
0.0
 40
0.2787504079
 40
0.5324288165
 40
1.0
 40
1.0
 40
1.0
 40
1.0
 10
92.9778200187
 20
230.6998046742
 30
0.0
 10
92.944390692
 20
230.7107655401
 30
0.0
 10
92.8819379802
 20
230.7367111717
 30
0.0
 10
92.7742465082
 20
230.8023561052
 30
0.0
 10
92.7075848408
 20
230.869887851
 30
0.0
 10
92.6795912384
 20
230.9218364459
 30
0.0
  0
SPLINE
  5
59B
100
AcDbEntity
  8
0
100
AcDbSpline
 62
7
  6
CONTINUOUS
 70
0
 71
3
 72
9
 73
5
 74
0
 42
0.0000001
 43
0.0000001
 44
0.0000000001
 40
0.0
 40
0.0
 40
0.0
 40
0.0
 40
0.292759471
 40
1.0
 40
1.0
 40
1.0
 40
1.0
 10
40.5591614168
 20
230.6718364459
 30
0.0
 10
40.5641884128
 20
230.6718364459
 30
0.0
 10
40.5813597551
 20
230.6723381687
 30
0.0
 10
40.5984644811
 20
230.6741878412
 30
0.0
 10
40.6104808875
 20
230.6759441795
 30
0.0
  0
SPLINE
  5
59C
100
AcDbEntity
  8
0
100
AcDbSpline
 62
7
  6
CONTINUOUS
 70
0
 71
3
 72
9
 73
5
 74
0
 42
0.0000001
 43
0.0000001
 44
0.0000000001
 40
0.0
 40
0.0
 40
0.0
 40
0.0
 40
0.2904912484
 40
1.0
 40
1.0
 40
1.0
 40
1.0
 10
40.6104808875
 20
230.6759441795
 30
0.0
 10
40.6202640286
 20
230.6773741
 30
0.0
 10
40.6537861031
 20
230.6833524832
 30
0.0
 10
40.6867332938
 20
230.6922808743
 30
0.0
 10
40.7096799813
 20
230.6998046742
 30
0.0
  0
SPLINE
  5
59D
100
AcDbEntity
  8
0
100
AcDbSpline
 62
7
  6
CONTINUOUS
 70
0
 71
3
 72
10
 73
6
 74
0
 42
0.0000001
 43
0.0000001
 44
0.0000000001
 40
0.0
 40
0.0
 40
0.0
 40
0.0
 40
0.2787504079
 40
0.5324288165
 40
1.0
 40
1.0
 40
1.0
 40
1.0
 10
40.7096799813
 20
230.6998046742
 30
0.0
 10
40.743109308
 20
230.7107655401
 30
0.0
 10
40.8055620198
 20
230.7367111717
 30
0.0
 10
40.9132534918
 20
230.8023561052
 30
0.0
 10
40.9799151592
 20
230.869887851
 30
0.0
 10
41.0079087616
 20
230.9218364459
 30
0.0
  0
SPLINE
  5
59E
100
AcDbEntity
  8
0
100
AcDbSpline
 62
7
  6
CONTINUOUS
 70
0
 71
3
 72
26
 73
22
 74
0
 42
0.0000001
 43
0.0000001
 44
0.0000000001
 40
0.0
 40
0.0
 40
0.0
 40
0.0
 40
0.0752529902
 40
0.1478596542
 40
0.1824425437
 40
0.2153973609
 40
0.2753852231
 40
0.3025547956
 40
0.3282205985
 40
0.3528768846
 40
0.3770398899
 40
0.4011703126
 40
0.4256349659
 40
0.4764639114
 40
0.5307647937
 40
0.5888420504
 40
0.650572921
 40
0.7156219065
 40
0.7835603691
 40
0.8539246673
 40
1.0
 40
1.0
 40
1.0
 40
1.0
 10
61.5637361459
 20
224.6718364459
 30
0.0
 10
61.3389008353
 20
224.671829484
 30
0.0
 10
60.8970575129
 20
224.6806147427
 30
0.0
 10
60.3532357968
 20
224.728253662
 30
0.0
 10
59.9404690747
 20
224.8008541144
 30
0.0
 10
59.5710267433
 20
224.8942968342
 30
0.0
 10
59.234444799
 20
225.0290438585
 30
0.0
 10
58.9522909151
 20
225.2153930708
 30
0.0
 10
58.7791480656
 20
225.3704377125
 30
0.0
 10
58.6374781133
 20
225.5431955872
 30
0.0
 10
58.5259583341
 20
225.7313806665
 30
0.0
 10
58.4425630973
 20
225.9328621276
 30
0.0
 10
58.3650369929
 20
226.220331757
 30
0.0
 10
58.3298732883
 20
226.6088941005
 30
0.0
 10
58.3713591725
 20
227.0965067167
 30
0.0
 10
58.4861826482
 20
227.6052538413
 30
0.0
 10
58.6682265853
 20
228.1277472919
 30
0.0
 10
58.912843422
 20
228.6564930609
 30
0.0
 10
59.2162515127
 20
229.1837839474
 30
0.0
 10
59.7001736528
 20
229.8829645722
 30
0.0
 10
60.1323600659
 20
230.368808075
 30
0.0
 10
60.4464422568
 20
230.6718364459
 30
0.0
  0
SPLINE
  5
59F
100
AcDbEntity
  8
0
100
AcDbSpline
 62
7
  6
CONTINUOUS
 70
0
 71
3
 72
11
 73
7
 74
0
 42
0.0000001
 43
0.0000001
 44
0.0000000001
 40
0.0
 40
0.0
 40
0.0
 40
0.0
 40
0.2218948314
 40
0.4548412277
 40
0.7051616344
 40
1.0
 40
1.0
 40
1.0
 40
1.0
 10
41.0079087616
 20
242.4218364459
 30
0.0
 10
40.9921685993
 20
242.4510459527
 30
0.0
 10
40.949761149
 20
242.5055706166
 30
0.0
 10
40.8671755754
 20
242.5721300588
 30
0.0
 10
40.7641375909
 20
242.6273393401
 30
0.0
 10
40.6860153077
 20
242.6528108817
 30
0.0
 10
40.6428772649
 20
242.6619135922
 30
0.0
  0
SPLINE
  5
5A0
100
AcDbEntity
  8
0
100
AcDbSpline
 62
7
  6
CONTINUOUS
 70
0
 71
3
 72
9
 73
5
 74
0
 42
0.0000001
 43
0.0000001
 44
0.0000000001
 40
0.0
 40
0.0
 40
0.0
 40
0.0
 40
0.2332687566
 40
1.0
 40
1.0
 40
1.0
 40
1.0
 10
40.6428772649
 20
242.6619135922
 30
0.0
 10
40.6402832101
 20
242.6624609728
 30
0.0
 10
40.6291468196
 20
242.6647304608
 30
0.0
 10
40.617939355
 20
242.6666591829
 30
0.0
 10
40.6093136686
 20
242.6678977759
 30
0.0
  0
SPLINE
  5
5A1
100
AcDbEntity
  8
0
100
AcDbSpline
 62
7
  6
CONTINUOUS
 70
0
 71
3
 72
9
 73
5
 74
0
 42
0.0000001
 43
0.0000001
 44
0.0000000001
 40
0.0
 40
0.0
 40
0.0
 40
0.0
 40
0.2130086351
 40
1.0
 40
1.0
 40
1.0
 40
1.0
 10
40.6093136686
 20
242.6678977759
 30
0.0
 10
40.6057767035
 20
242.6684056613
 30
0.0
 10
40.589147691
 20
242.6705944265
 30
0.0
 10
40.572363285
 20
242.6718364459
 30
0.0
 10
40.5591614168
 20
242.6718364459
 30
0.0
  0
SPLINE
  5
5A2
100
AcDbEntity
  8
0
100
AcDbSpline
 62
7
  6
CONTINUOUS
 70
0
 71
3
 72
12
 73
8
 74
0
 42
0.0000001
 43
0.0000001
 44
0.0000000001
 40
0.0
 40
0.0
 40
0.0
 40
0.0
 40
0.2981897226
 40
0.5742423745
 40
0.698345248
 40
0.810975813
 40
1.0
 40
1.0
 40
1.0
 40
1.0
 10
85.2961238281
 20
234.0388706589
 30
0.0
 10
85.2961238281
 20
234.1227928315
 30
0.0
 10
85.3086787745
 20
234.2846762851
 30
0.0
 10
85.3562006617
 20
234.4766265905
 30
0.0
 10
85.4134506504
 20
234.6096071819
 30
0.0
 10
85.4743615437
 20
234.7126710659
 30
0.0
 10
85.534527715
 20
234.7768281001
 30
0.0
 10
85.5800099639
 20
234.8044228824
 30
0.0
  0
SPLINE
  5
5A3
100
AcDbEntity
  8
0
100
AcDbSpline
 62
7
  6
CONTINUOUS
 70
0
 71
3
 72
9
 73
5
 74
0
 42
0.0000001
 43
0.0000001
 44
0.0000000001
 40
0.0
 40
0.0
 40
0.0
 40
0.0
 40
0.5149009616
 40
1.0
 40
1.0
 40
1.0
 40
1.0
 10
85.5800099639
 20
234.8044228824
 30
0.0
 10
85.5979520955
 20
234.8153086506
 30
0.0
 10
85.6353993782
 20
234.832634781
 30
0.0
 10
85.6763522996
 20
234.8388706589
 30
0.0
 10
85.6961238281
 20
234.8388706589
 30
0.0
  0
SPLINE
  5
5A4
100
AcDbEntity
  8
0
100
AcDbSpline
 62
7
  6
CONTINUOUS
 70
0
 71
3
 72
16
 73
12
 74
0
 42
0.0000001
 43
0.0000001
 44
0.0000000001
 40
0.0
 40
0.0
 40
0.0
 40
0.0
 40
0.1614902311
 40
0.3183486913
 40
0.4663006842
 40
0.6017191326
 40
0.7221146863
 40
0.8267310412
 40
0.9174296938
 40
0.9593002926
 40
1.0
 40
1.0
 40
1.0
 40
1.0
 10
86.8961238281
 20
234.3588706589
 30
0.0
 10
86.8961238281
 20
234.4630479537
 30
0.0
 10
86.8861525236
 20
234.6685636404
 30
0.0
 10
86.8416305698
 20
234.9665784223
 30
0.0
 10
86.7693095624
 20
235.2418696403
 30
0.0
 10
86.6718663126
 20
235.4842966892
 30
0.0
 10
86.5525366949
 20
235.6852274282
 30
0.0
 10
86.4150150536
 20
235.8376812946
 30
0.0
 10
86.2834045902
 20
235.9212065558
 30
0.0
 10
86.175783932
 20
235.953532555
 30
0.0
 10
86.1223791959
 20
235.9588706589
 30
0.0
 10
86.0961238281
 20
235.9588706589
 30
0.0
  0
SPLINE
  5
5A5
100
AcDbEntity
  8
0
100
AcDbSpline
 62
7
  6
CONTINUOUS
 70
0
 71
3
 72
13
 73
9
 74
0
 42
0.0000001
 43
0.0000001
 44
0.0000000001
 40
0.0
 40
0.0
 40
0.0
 40
0.0
 40
0.0822829264
 40
0.1731425714
 40
0.2778852515
 40
0.3984458421
 40
0.6815990786
 40
1.0
 40
1.0
 40
1.0
 40
1.0
 10
83.0561238281
 20
233.3988706589
 30
0.0
 10
83.0428718161
 20
233.3988706589
 30
0.0
 10
83.0147752804
 20
233.4047373126
 30
0.0
 10
82.9764420246
 20
233.4291660614
 30
0.0
 10
82.9420025667
 20
233.4672829823
 30
0.0
 10
82.9000526193
 20
233.5380690963
 30
0.0
 10
82.8652500617
 20
233.6505264705
 30
0.0
 10
82.8561238281
 20
233.747590849
 30
0.0
 10
82.8561238281
 20
233.7988706589
 30
0.0
  0
SPLINE
  5
5A6
100
AcDbEntity
  8
0
100
AcDbSpline
 62
7
  6
CONTINUOUS
 70
0
 71
3
 72
16
 73
12
 74
0
 42
0.0000001
 43
0.0000001
 44
0.0000000001
 40
0.0
 40
0.0
 40
0.0
 40
0.0
 40
0.1614906642
 40
0.3183489581
 40
0.4663005038
 40
0.6017198593
 40
0.7221149905
 40
0.8267299086
 40
0.917431381
 40
0.9592872279
 40
1.0
 40
1.0
 40
1.0
 40
1.0
 10
88.4161238281
 20
238.2388706589
 30
0.0
 10
88.4161238281
 20
238.371697171
 30
0.0
 10
88.4034098104
 20
238.6337300281
 30
0.0
 10
88.3466447856
 20
239.0136992344
 30
0.0
 10
88.2544353417
 20
239.3646955369
 30
0.0
 10
88.1301996852
 20
239.6737932207
 30
0.0
 10
87.9780492202
 20
239.9299741006
 30
0.0
 10
87.8027125475
 20
240.1243624517
 30
0.0
 10
87.6349100829
 20
240.2308290038
 30
0.0
 10
87.4977023752
 20
240.2720782009
 30
0.0
 10
87.4296101942
 20
240.2788706589
 30
0.0
 10
87.3961238281
 20
240.2788706589
 30
0.0
  0
SPLINE
  5
5A7
100
AcDbEntity
  8
SURFACE
100
AcDbSpline
 62
7
  6
CONTINUOUS
 70
0
 71
3
 72
26
 73
22
 74
0
 42
0.0000001
 43
0.0000001
 44
0.0000000001
 40
0.0
 40
0.0
 40
0.0
 40
0.0
 40
0.0752529902
 40
0.1478596542
 40
0.1824425437
 40
0.2153973609
 40
0.2753852231
 40
0.3025547956
 40
0.3282205985
 40
0.3528768846
 40
0.3770398899
 40
0.4011703126
 40
0.4256349659
 40
0.4764639114
 40
0.5307647937
 40
0.5888420504
 40
0.650572921
 40
0.7156219065
 40
0.7835603691
 40
0.8539246673
 40
1.0
 40
1.0
 40
1.0
 40
1.0
 10
72.1237638541
 20
224.6718364459
 30
0.0
 10
72.3485991647
 20
224.671829484
 30
0.0
 10
72.7904424871
 20
224.6806147427
 30
0.0
 10
73.3342642032
 20
224.728253662
 30
0.0
 10
73.7470309253
 20
224.8008541144
 30
0.0
 10
74.1164732567
 20
224.8942968342
 30
0.0
 10
74.453055201
 20
225.0290438585
 30
0.0
 10
74.7352090849
 20
225.2153930708
 30
0.0
 10
74.9083519344
 20
225.3704377125
 30
0.0
 10
75.0500218867
 20
225.5431955872
 30
0.0
 10
75.1615416659
 20
225.7313806665
 30
0.0
 10
75.2449369027
 20
225.9328621276
 30
0.0
 10
75.3224630071
 20
226.220331757
 30
0.0
 10
75.3576267117
 20
226.6088941005
 30
0.0
 10
75.3161408275
 20
227.0965067167
 30
0.0
 10
75.2013173518
 20
227.6052538413
 30
0.0
 10
75.0192734147
 20
228.1277472919
 30
0.0
 10
74.774656578
 20
228.6564930609
 30
0.0
 10
74.4712484873
 20
229.1837839474
 30
0.0
 10
73.9873263472
 20
229.8829645722
 30
0.0
 10
73.5551399341
 20
230.368808075
 30
0.0
 10
73.2410577432
 20
230.6718364459
 30
0.0
  0
SPLINE
  5
5A8
100
AcDbEntity
  8
SURFACE
100
AcDbSpline
 62
7
  6
CONTINUOUS
 70
0
 71
3
 72
11
 73
7
 74
0
 42
0.0000001
 43
0.0000001
 44
0.0000000001
 40
0.0
 40
0.0
 40
0.0
 40
0.0
 40
0.2218948314
 40
0.4548412277
 40
0.7051616344
 40
1.0
 40
1.0
 40
1.0
 40
1.0
 10
92.6795912384
 20
242.4218364459
 30
0.0
 10
92.6953314007
 20
242.4510459527
 30
0.0
 10
92.737738851
 20
242.5055706166
 30
0.0
 10
92.8203244246
 20
242.5721300588
 30
0.0
 10
92.9233624091
 20
242.6273393401
 30
0.0
 10
93.0014846923
 20
242.6528108817
 30
0.0
 10
93.0446227351
 20
242.6619135922
 30
0.0
  0
SPLINE
  5
5A9
100
AcDbEntity
  8
SURFACE
100
AcDbSpline
 62
7
  6
CONTINUOUS
 70
0
 71
3
 72
9
 73
5
 74
0
 42
0.0000001
 43
0.0000001
 44
0.0000000001
 40
0.0
 40
0.0
 40
0.0
 40
0.0
 40
0.2332687566
 40
1.0
 40
1.0
 40
1.0
 40
1.0
 10
93.0446227351
 20
242.6619135922
 30
0.0
 10
93.0472167899
 20
242.6624609728
 30
0.0
 10
93.0583531804
 20
242.6647304608
 30
0.0
 10
93.069560645
 20
242.6666591829
 30
0.0
 10
93.0781863314
 20
242.6678977759
 30
0.0
  0
SPLINE
  5
5AA
100
AcDbEntity
  8
SURFACE
100
AcDbSpline
 62
7
  6
CONTINUOUS
 70
0
 71
3
 72
9
 73
5
 74
0
 42
0.0000001
 43
0.0000001
 44
0.0000000001
 40
0.0
 40
0.0
 40
0.0
 40
0.0
 40
0.2130086351
 40
1.0
 40
1.0
 40
1.0
 40
1.0
 10
93.0781863314
 20
242.6678977759
 30
0.0
 10
93.0817232965
 20
242.6684056613
 30
0.0
 10
93.098352309
 20
242.6705944265
 30
0.0
 10
93.115136715
 20
242.6718364459
 30
0.0
 10
93.1283385832
 20
242.6718364459
 30
0.0
  0
SPLINE
  5
5AB
100
AcDbEntity
  8
0
100
AcDbSpline
 62
7
  6
CONTINUOUS
 70
0
 71
3
 72
9
 73
5
 74
0
 42
0.0000001
 43
0.0000001
 44
0.0000000001
 40
0.0
 40
0.0
 40
0.0
 40
0.0
 40
0.2459784402
 40
1.0
 40
1.0
 40
1.0
 40
1.0
 10
85.89478901
 20
235.9588706589
 30
0.0
 10
85.8830099088
 20
235.9588706589
 30
0.0
 10
85.83513451
 20
235.9565228867
 30
0.0
 10
85.7878737204
 20
235.9445424269
 30
0.0
 10
85.754321485
 20
235.9312004709
 30
0.0
  0
SPLINE
  5
5AC
100
AcDbEntity
  8
0
100
AcDbSpline
 62
7
  6
CONTINUOUS
 70
0
 71
3
 72
10
 73
6
 74
0
 42
0.0000001
 43
0.0000001
 44
0.0000000001
 40
0.0
 40
0.0
 40
0.0
 40
0.0
 40
0.4328485863
 40
0.7003332809
 40
1.0
 40
1.0
 40
1.0
 40
1.0
 10
85.7391289106
 20
235.9248168146
 30
0.0
 10
85.6379846457
 20
235.8800292628
 30
0.0
 10
85.5029595024
 20
235.746972432
 30
0.0
 10
85.3747007081
 20
235.5268293446
 30
0.0
 10
85.3203896006
 20
235.3915060243
 30
0.0
 10
85.2961238281
 20
235.3188706589
 30
0.0
  0
SPLINE
  5
5AD
100
AcDbEntity
  8
0
100
AcDbSpline
 62
7
  6
CONTINUOUS
 70
0
 71
3
 72
11
 73
7
 74
0
 42
0.0000001
 43
0.0000001
 44
0.0000000001
 40
0.0
 40
0.0
 40
0.0
 40
0.0
 40
0.2173523969
 40
0.4498641575
 40
0.7087399125
 40
1.0
 40
1.0
 40
1.0
 40
1.0
 10
85.7215839292
 20
235.9588706589
 30
0.0
 10
85.6833099213
 20
235.9588706589
 30
0.0
 10
85.6036238158
 20
235.9457724221
 30
0.0
 10
85.4906930141
 20
235.8892439091
 30
0.0
 10
85.3852322859
 20
235.798879293
 30
0.0
 10
85.3247409828
 20
235.722525979
 30
0.0
 10
85.2958435101
 20
235.6801532025
 30
0.0
  0
SPLINE
  5
5AE
100
AcDbEntity
  8
0
100
AcDbSpline
 62
7
  6
CONTINUOUS
 70
0
 71
3
 72
16
 73
12
 74
0
 42
0.0000001
 43
0.0000001
 44
0.0000000001
 40
0.0
 40
0.0
 40
0.0
 40
0.0
 40
0.0407127721
 40
0.082568619
 40
0.1732700914
 40
0.2778850095
 40
0.3982801407
 40
0.5336994962
 40
0.6816510419
 40
0.8385093358
 40
1.0
 40
1.0
 40
1.0
 40
1.0
 10
87.3961238281
 20
240.2788706589
 30
0.0
 10
87.362637462
 20
240.2788706589
 30
0.0
 10
87.294545281
 20
240.2720782009
 30
0.0
 10
87.1573375734
 20
240.2308290038
 30
0.0
 10
86.9895351087
 20
240.1243624517
 30
0.0
 10
86.814198436
 20
239.9299741006
 30
0.0
 10
86.662047971
 20
239.6737932207
 30
0.0
 10
86.5378123145
 20
239.3646955369
 30
0.0
 10
86.4456028707
 20
239.0136992344
 30
0.0
 10
86.3888378458
 20
238.6337300281
 30
0.0
 10
86.3761238281
 20
238.371697171
 30
0.0
 10
86.3761238281
 20
238.2388706589
 30
0.0
  0
SPLINE
  5
5AF
100
AcDbEntity
  8
0
100
AcDbSpline
 62
7
  6
CONTINUOUS
 70
0
 71
3
 72
16
 73
12
 74
0
 42
0.0000001
 43
0.0000001
 44
0.0000000001
 40
0.0
 40
0.0
 40
0.0
 40
0.0
 40
0.0407125658
 40
0.0825686407
 40
0.1732697946
 40
0.2778853724
 40
0.3982806198
 40
0.5336995509
 40
0.6816505563
 40
0.8385097406
 40
1.0
 40
1.0
 40
1.0
 40
1.0
 10
87.2229187473
 20
240.278867983
 30
0.0
 10
87.1894325391
 20
240.278867983
 30
0.0
 10
87.1213394811
 20
240.2720829212
 30
0.0
 10
86.984133311
 20
240.2308272324
 30
0.0
 10
86.816327757
 20
240.124366719
 30
0.0
 10
86.6409947164
 20
239.9299727225
 30
0.0
 10
86.488843891
 20
239.6737926552
 30
0.0
 10
86.3646060209
 20
239.3646961817
 30
0.0
 10
86.2723970262
 20
239.0136996454
 30
0.0
 10
86.2156332809
 20
238.6337301849
 30
0.0
 10
86.2029187473
 20
238.371696885
 30
0.0
 10
86.2029187473
 20
238.2388706589
 30
0.0
  0
SPLINE
  5
5B0
100
AcDbEntity
  8
0
100
AcDbSpline
 62
7
  6
CONTINUOUS
 70
0
 71
3
 72
15
 73
11
 74
0
 42
0.0000001
 43
0.0000001
 44
0.0000000001
 40
0.0
 40
0.0
 40
0.0
 40
0.0
 40
0.2783820276
 40
0.498308886
 40
0.5917680686
 40
0.6794417856
 40
0.7249326438
 40
0.7767734236
 40
0.8479105738
 40
1.0
 40
1.0
 40
1.0
 40
1.0
 10
40.3443942928
 20
230.9218364459
 30
0.0
 10
40.3586565646
 20
230.8953695063
 30
0.0
 10
40.3798413581
 20
230.8454833229
 30
0.0
 10
40.3912802185
 20
230.7816641704
 30
0.0
 10
40.3876022826
 20
230.7382583553
 30
0.0
 10
40.3794420594
 20
230.7147157845
 30
0.0
 10
40.3677720874
 20
230.698319802
 30
0.0
 10
40.353870555
 20
230.6862649722
 30
0.0
 10
40.3264420933
 20
230.673829727
 30
0.0
 10
40.3018539124
 20
230.6718364459
 30
0.0
 10
40.2854283316
 20
230.6718364459
 30
0.0
  0
SPLINE
  5
5B1
100
AcDbEntity
  8
0
100
AcDbSpline
 62
7
  6
CONTINUOUS
 70
0
 71
3
 72
15
 73
11
 74
0
 42
0.0000001
 43
0.0000001
 44
0.0000000001
 40
0.0
 40
0.0
 40
0.0
 40
0.0
 40
0.152089067
 40
0.2232262053
 40
0.2750670838
 40
0.3205579902
 40
0.4082317495
 40
0.5016909543
 40
0.7216178605
 40
1.0
 40
1.0
 40
1.0
 40
1.0
 10
40.2854283316
 20
242.6718364459
 30
0.0
 10
40.3018538747
 20
242.6718364459
 30
0.0
 10
40.3264420409
 20
242.6698432927
 30
0.0
 10
40.3538704484
 20
242.6574079892
 30
0.0
 10
40.3677720117
 20
242.6453531773
 30
0.0
 10
40.3794420158
 20
242.6289571884
 30
0.0
 10
40.3876022665
 20
242.605414612
 30
0.0
 10
40.3912802239
 20
242.562008782
 30
0.0
 10
40.3798413725
 20
242.4981896018
 30
0.0
 10
40.3586565714
 20
242.4483033981
 30
0.0
 10
40.3443942928
 20
242.4218364459
 30
0.0
  0
SPLINE
  5
5B2
100
AcDbEntity
  8
0
100
AcDbSpline
 62
7
  6
CONTINUOUS
 70
0
 71
3
 72
13
 73
9
 74
0
 42
0.0000001
 43
0.0000001
 44
0.0000000001
 40
0.0
 40
0.0
 40
0.0
 40
0.0
 40
0.0822829264
 40
0.1731425714
 40
0.2778852515
 40
0.3984458421
 40
0.6815990786
 40
1.0
 40
1.0
 40
1.0
 40
1.0
 10
86.0161238281
 20
234.8388706589
 30
0.0
 10
86.0293758401
 20
234.8388706589
 30
0.0
 10
86.0574723759
 20
234.8330040053
 30
0.0
 10
86.0958056316
 20
234.8085752565
 30
0.0
 10
86.1302450895
 20
234.7704583355
 30
0.0
 10
86.172195037
 20
234.6996722216
 30
0.0
 10
86.2069975945
 20
234.5872148474
 30
0.0
 10
86.2161238281
 20
234.4901504688
 30
0.0
 10
86.2161238281
 20
234.4388706589
 30
0.0
  0
SPLINE
  5
5B3
100
AcDbEntity
  8
0
100
AcDbSpline
 62
7
  6
CONTINUOUS
 70
0
 71
3
 72
9
 73
5
 74
0
 42
0.0000001
 43
0.0000001
 44
0.0000000001
 40
0.0
 40
0.0
 40
0.0
 40
0.0
 40
0.4799370007
 40
1.0
 40
1.0
 40
1.0
 40
1.0
 10
83.2029187473
 20
233.3988706589
 30
0.0
 10
83.2264236053
 20
233.3988706589
 30
0.0
 10
83.2757013408
 20
233.4078727677
 30
0.0
 10
83.319135511
 20
233.4321258736
 30
0.0
 10
83.3397268047
 20
233.4471165623
 30
0.0
  0
SPLINE
  5
5B4
100
AcDbEntity
  8
0
100
AcDbSpline
 62
7
  6
CONTINUOUS
 70
0
 71
3
 72
12
 73
8
 74
0
 42
0.0000001
 43
0.0000001
 44
0.0000000001
 40
0.0
 40
0.0
 40
0.0
 40
0.0
 40
0.1932207341
 40
0.3070171662
 40
0.4314199362
 40
0.7056772021
 40
1.0
 40
1.0
 40
1.0
 40
1.0
 10
83.3397268047
 20
233.4471165623
 30
0.0
 10
83.3824126341
 20
233.4781923165
 30
0.0
 10
83.4380783972
 20
233.5441420908
 30
0.0
 10
83.4948153422
 20
233.6474075479
 30
0.0
 10
83.5475347579
 20
233.7775432899
 30
0.0
 10
83.5913432006
 20
233.9628338335
 30
0.0
 10
83.6029187473
 20
234.1184440752
 30
0.0
 10
83.6029187473
 20
234.1988706589
 30
0.0
  0
SPLINE
  5
5B5
100
AcDbEntity
  8
0
100
AcDbSpline
 62
7
  6
CONTINUOUS
 70
0
 71
3
 72
14
 73
10
 74
0
 42
0.0000001
 43
0.0000001
 44
0.0000000001
 40
0.0
 40
0.0
 40
0.0
 40
0.0
 40
0.3181911525
 40
0.466256663
 40
0.6017819162
 40
0.7222716736
 40
0.8269687628
 40
0.9177410353
 40
1.0
 40
1.0
 40
1.0
 40
1.0
 10
83.7761238281
 20
234.1988706589
 30
0.0
 10
83.7761238281
 20
234.0963182755
 30
0.0
 10
83.7620568463
 20
233.9453040025
 30
0.0
 10
83.7127277534
 20
233.7573823302
 30
0.0
 10
83.6639856167
 20
233.6361539415
 30
0.0
 10
83.6043582799
 20
233.5356900345
 30
0.0
 10
83.5354866195
 20
233.4594694721
 30
0.0
 10
83.4588320742
 20
233.4105816623
 30
0.0
 10
83.4026357309
 20
233.3988706589
 30
0.0
 10
83.3761238281
 20
233.3988706589
 30
0.0
  0
SPLINE
  5
5B6
100
AcDbEntity
  8
0
100
AcDbSpline
 62
7
  6
CONTINUOUS
 70
0
 71
3
 72
16
 73
12
 74
0
 42
0.0000001
 43
0.0000001
 44
0.0000000001
 40
0.0
 40
0.0
 40
0.0
 40
0.0
 40
0.1614906642
 40
0.3183489581
 40
0.4663005038
 40
0.6017198593
 40
0.7221149905
 40
0.8267299086
 40
0.917431381
 40
0.9592872279
 40
1.0
 40
1.0
 40
1.0
 40
1.0
 10
86.3761238281
 20
238.2388706589
 30
0.0
 10
86.3761238281
 20
238.1060441468
 30
0.0
 10
86.3888378458
 20
237.8440112898
 30
0.0
 10
86.4456028707
 20
237.4640420834
 30
0.0
 10
86.5378123145
 20
237.113045781
 30
0.0
 10
86.662047971
 20
236.8039480971
 30
0.0
 10
86.814198436
 20
236.5477672173
 30
0.0
 10
86.9895351087
 20
236.3533788661
 30
0.0
 10
87.1573375734
 20
236.246912314
 30
0.0
 10
87.294545281
 20
236.2056631169
 30
0.0
 10
87.362637462
 20
236.1988706589
 30
0.0
 10
87.3961238281
 20
236.1988706589
 30
0.0
  0
SPLINE
  5
5B7
100
AcDbEntity
  8
0
100
AcDbSpline
 62
7
  6
CONTINUOUS
 70
0
 71
3
 72
16
 73
12
 74
0
 42
0.0000001
 43
0.0000001
 44
0.0000000001
 40
0.0
 40
0.0
 40
0.0
 40
0.0
 40
0.1614902594
 40
0.3183494437
 40
0.4663004491
 40
0.6017193802
 40
0.7221146276
 40
0.8267302054
 40
0.9174313593
 40
0.9592874342
 40
1.0
 40
1.0
 40
1.0
 40
1.0
 10
86.2029187473
 20
238.2388706589
 30
0.0
 10
86.2029187473
 20
238.1060444328
 30
0.0
 10
86.2156332809
 20
237.844011133
 30
0.0
 10
86.2723970262
 20
237.4640416724
 30
0.0
 10
86.3646060209
 20
237.1130451362
 30
0.0
 10
86.488843891
 20
236.8039486627
 30
0.0
 10
86.6409947164
 20
236.5477685954
 30
0.0
 10
86.816327757
 20
236.3533745988
 30
0.0
 10
86.984133311
 20
236.2469140854
 30
0.0
 10
87.1213394811
 20
236.2056583966
 30
0.0
 10
87.1894325391
 20
236.1988733349
 30
0.0
 10
87.2229187473
 20
236.1988733349
 30
0.0
  0
SPLINE
  5
5B8
100
AcDbEntity
  8
0
100
AcDbSpline
 62
7
  6
CONTINUOUS
 70
0
 71
3
 72
13
 73
9
 74
0
 42
0.0000001
 43
0.0000001
 44
0.0000000001
 40
0.0
 40
0.0
 40
0.0
 40
0.0
 40
0.3183852457
 40
0.6015497488
 40
0.7221092808
 40
0.8268639856
 40
0.9177001479
 40
1.0
 40
1.0
 40
1.0
 40
1.0
 10
86.0429187473
 20
234.4388706589
 30
0.0
 10
86.0429187473
 20
234.4901481453
 30
0.0
 10
86.0337947464
 20
234.5872130112
 30
0.0
 10
85.9989883339
 20
234.6996675094
 30
0.0
 10
85.9570409564
 20
234.7704606831
 30
0.0
 10
85.9225999265
 20
234.8085722015
 30
0.0
 10
85.884271622
 20
234.8330123161
 30
0.0
 10
85.8561735373
 20
234.8388706589
 30
0.0
 10
85.8429187473
 20
234.8388706589
 30
0.0
  0
SPLINE
  5
5B9
100
AcDbEntity
  8
SURFACE
100
AcDbSpline
 62
7
  6
CONTINUOUS
 70
0
 71
3
 72
19
 73
15
 74
0
 42
0.0000001
 43
0.0000001
 44
0.0000000001
 40
0.0
 40
0.0
 40
0.0
 40
0.0
 40
0.4142867455
 40
0.5849287622
 40
0.727788737
 40
0.7882403129
 40
0.8411361761
 40
0.8863594205
 40
0.9238352887
 40
0.9535591588
 40
0.9756496605
 40
0.9839620497
 40
0.9906007222
 40
1.0
 40
1.0
 40
1.0
 40
1.0
 10
93.0253529552
 20
247.0204292272
 30
0.0
 10
93.2050429394
 20
246.9736695209
 30
0.0
 10
93.4629445601
 20
246.921987358
 30
0.0
 10
93.7874024453
 20
246.8874070702
 30
0.0
 10
93.9549567518
 20
246.8796194118
 30
0.0
 10
94.0698023214
 20
246.8804453278
 30
0.0
 10
94.1408176967
 20
246.8836862789
 30
0.0
 10
94.2013616907
 20
246.8891743879
 30
0.0
 10
94.2512565131
 20
246.896463818
 30
0.0
 10
94.2903420773
 20
246.9052224049
 30
0.0
 10
94.315978254
 20
246.9138350987
 30
0.0
 10
94.3306848247
 20
246.9217722816
 30
0.0
 10
94.3393648838
 20
246.9281878444
 30
0.0
 10
94.34375
 20
246.9350261117
 30
0.0
 10
94.34375
 20
246.9392386642
 30
0.0
  0
SPLINE
  5
5BA
100
AcDbEntity
  8
0
100
AcDbSpline
 62
7
  6
CONTINUOUS
 70
0
 71
3
 72
19
 73
15
 74
0
 42
0.0000001
 43
0.0000001
 44
0.0000000001
 40
0.0
 40
0.0
 40
0.0
 40
0.0
 40
0.4142867455
 40
0.5849287622
 40
0.727788737
 40
0.7882403129
 40
0.8411361761
 40
0.8863594205
 40
0.9238352887
 40
0.9535591588
 40
0.9756496605
 40
0.9839620497
 40
0.9906007222
 40
1.0
 40
1.0
 40
1.0
 40
1.0
 10
40.6621470448
 20
247.0204292272
 30
0.0
 10
40.4824570606
 20
246.9736695209
 30
0.0
 10
40.2245554399
 20
246.921987358
 30
0.0
 10
39.9000975547
 20
246.8874070702
 30
0.0
 10
39.7325432482
 20
246.8796194118
 30
0.0
 10
39.6176976786
 20
246.8804453278
 30
0.0
 10
39.5466823033
 20
246.8836862789
 30
0.0
 10
39.4861383093
 20
246.8891743879
 30
0.0
 10
39.4362434869
 20
246.896463818
 30
0.0
 10
39.3971579227
 20
246.9052224049
 30
0.0
 10
39.371521746
 20
246.9138350987
 30
0.0
 10
39.3568151753
 20
246.9217722816
 30
0.0
 10
39.3481351162
 20
246.9281878444
 30
0.0
 10
39.34375
 20
246.9350261117
 30
0.0
 10
39.34375
 20
246.9392386642
 30
0.0
  0
SPLINE
  5
5BB
100
AcDbEntity
  8
SURFACE
100
AcDbSpline
 62
7
  6
CONTINUOUS
 70
0
 71
3
 72
15
 73
11
 74
0
 42
0.0000001
 43
0.0000001
 44
0.0000000001
 40
0.0
 40
0.0
 40
0.0
 40
0.0
 40
0.152089067
 40
0.2232262053
 40
0.2750670838
 40
0.3205579902
 40
0.4082317495
 40
0.5016909543
 40
0.7216178605
 40
1.0
 40
1.0
 40
1.0
 40
1.0
 10
93.4020716684
 20
242.6718364459
 30
0.0
 10
93.3856461253
 20
242.6718364459
 30
0.0
 10
93.3610579591
 20
242.6698432927
 30
0.0
 10
93.3336295516
 20
242.6574079892
 30
0.0
 10
93.3197279883
 20
242.6453531773
 30
0.0
 10
93.3080579842
 20
242.6289571884
 30
0.0
 10
93.2998977335
 20
242.605414612
 30
0.0
 10
93.2962197761
 20
242.562008782
 30
0.0
 10
93.3076586275
 20
242.4981896018
 30
0.0
 10
93.3288434286
 20
242.4483033981
 30
0.0
 10
93.3431057072
 20
242.4218364459
 30
0.0
  0
SPLINE
  5
5BC
100
AcDbEntity
  8
SURFACE
100
AcDbSpline
 62
7
  6
CONTINUOUS
 70
0
 71
3
 72
15
 73
11
 74
0
 42
0.0000001
 43
0.0000001
 44
0.0000000001
 40
0.0
 40
0.0
 40
0.0
 40
0.0
 40
0.2783820276
 40
0.498308886
 40
0.5917680686
 40
0.6794417856
 40
0.7249326438
 40
0.7767734236
 40
0.8479105738
 40
1.0
 40
1.0
 40
1.0
 40
1.0
 10
93.3431057072
 20
230.9218364459
 30
0.0
 10
93.3288434354
 20
230.8953695063
 30
0.0
 10
93.3076586419
 20
230.8454833229
 30
0.0
 10
93.2962197815
 20
230.7816641704
 30
0.0
 10
93.2998977174
 20
230.7382583553
 30
0.0
 10
93.3080579406
 20
230.7147157845
 30
0.0
 10
93.3197279126
 20
230.698319802
 30
0.0
 10
93.333629445
 20
230.6862649722
 30
0.0
 10
93.3610579067
 20
230.673829727
 30
0.0
 10
93.3856460876
 20
230.6718364459
 30
0.0
 10
93.4020716684
 20
230.6718364459
 30
0.0
  0
SPLINE
  5
5BD
100
AcDbEntity
  8
0
100
AcDbSpline
 62
7
  6
CONTINUOUS
 70
0
 71
3
 72
9
 73
5
 74
0
 42
0.0000001
 43
0.0000001
 44
0.0000000001
 40
0.0
 40
0.0
 40
0.0
 40
0.0
 40
0.5000310608
 40
1.0
 40
1.0
 40
1.0
 40
1.0
 10
149.9604818657
 20
174.2056580493
 30
0.0
 10
149.8407061751
 20
174.2074324676
 30
0.0
 10
149.6011364207
 20
174.2080898767
 30
0.0
 10
149.3615665698
 20
174.2074287048
 30
0.0
 10
149.2418058763
 20
174.2056466482
 30
0.0
  0
SPLINE
  5
5BE
100
AcDbEntity
  8
0
100
AcDbSpline
 62
7
  6
CONTINUOUS
 70
0
 71
3
 72
23
 73
19
 74
0
 42
0.0000001
 43
0.0000001
 44
0.0000000001
 40
0.0
 40
0.0
 40
0.0
 40
0.0
 40
0.0616872461
 40
0.121533074
 40
0.1805598314
 40
0.2401092403
 40
0.3014345569
 40
0.3653333003
 40
0.4318320905
 40
0.4999998825
 40
0.5681676712
 40
0.6346664801
 40
0.698565221
 40
0.7598905561
 40
0.8194400374
 40
0.8784668774
 40
0.9383127535
 40
1.0
 40
1.0
 40
1.0
 40
1.0
 10
145.4015239459
 20
109.0470735745
 30
0.0
 10
145.4015239459
 20
108.7960280951
 30
0.0
 10
145.4546211242
 20
108.2993841214
 30
0.0
 10
145.6995106474
 20
107.5997664803
 30
0.0
 10
146.0949125247
 20
106.9830103577
 30
0.0
 10
146.6213548291
 20
106.4660886036
 30
0.0
 10
147.2580884274
 20
106.0572375274
 30
0.0
 10
147.9840982351
 20
105.7609789349
 30
0.0
 10
148.7752745646
 20
105.5810282946
 30
0.0
 10
149.6015224862
 20
105.5206082543
 30
0.0
 10
150.4277705049
 20
105.581027909
 30
0.0
 10
151.2189470009
 20
105.7609780686
 30
0.0
 10
151.9449570891
 20
106.0572363337
 30
0.0
 10
152.581691296
 20
106.466087128
 30
0.0
 10
153.1081343903
 20
106.9830091081
 30
0.0
 10
153.5035369895
 20
107.5997657764
 30
0.0
 10
153.7484267449
 20
108.2993839238
 30
0.0
 10
153.8015239459
 20
108.7960280935
 30
0.0
 10
153.8015239459
 20
109.0470735745
 30
0.0
  0
SPLINE
  5
5BF
100
AcDbEntity
  8
0
100
AcDbSpline
 62
7
  6
CONTINUOUS
 70
0
 71
3
 72
25
 73
21
 74
0
 42
0.0000001
 43
0.0000001
 44
0.0000000001
 40
0.0
 40
0.0
 40
0.0
 40
0.0
 40
0.0612989723
 40
0.1217107223
 40
0.1819182196
 40
0.2427304662
 40
0.3048336395
 40
0.3685693727
 40
0.4010576642
 40
0.433864459
 40
0.4999999788
 40
0.5661354893
 40
0.5989422737
 40
0.6314305618
 40
0.6951662968
 40
0.7572694688
 40
0.8180817153
 40
0.8782892075
 40
0.9387009771
 40
1.0
 40
1.0
 40
1.0
 40
1.0
 10
153.8015239459
 20
106.0784201458
 30
0.0
 10
153.8015188691
 20
105.8235934431
 30
0.0
 10
153.748301119
 20
105.315787578
 30
0.0
 10
153.5056962986
 20
104.5932427009
 30
0.0
 10
153.1115818831
 20
103.943025372
 30
0.0
 10
152.5833595976
 20
103.3871388467
 30
0.0
 10
151.9427743761
 20
102.940755512
 30
0.0
 10
151.3385414498
 20
102.6702133235
 30
0.0
 10
150.8241619613
 20
102.5162405598
 30
0.0
 10
150.2887625407
 20
102.404396219
 30
0.0
 10
149.6015242633
 20
102.3484305711
 30
0.0
 10
148.9142860295
 20
102.4043961709
 30
0.0
 10
148.378886685
 20
102.5162404028
 30
0.0
 10
147.8645072189
 20
102.6702130719
 30
0.0
 10
147.2602742636
 20
102.9407551513
 30
0.0
 10
146.6196889063
 20
103.3871383071
 30
0.0
 10
146.091466562
 20
103.9430247081
 30
0.0
 10
145.6973517934
 20
104.5932419584
 30
0.0
 10
145.4547472195
 20
105.3157870872
 30
0.0
 10
145.4015284062
 20
105.8235932328
 30
0.0
 10
145.4015239459
 20
106.0784201458
 30
0.0
  0
SPLINE
  5
5C0
100
AcDbEntity
  8
0
100
AcDbSpline
 62
7
  6
CONTINUOUS
 70
0
 71
3
 72
25
 73
21
 74
0
 42
0.0000001
 43
0.0000001
 44
0.0000000001
 40
0.0
 40
0.0
 40
0.0
 40
0.0
 40
0.0607671817
 40
0.120590733
 40
0.1802919737
 40
0.2408014399
 40
0.3028997693
 40
0.3669847062
 40
0.3997788574
 40
0.4329657013
 40
0.5
 40
0.567034298
 40
0.6002211417
 40
0.6330152937
 40
0.6971002337
 40
0.759198566
 40
0.8197080328
 40
0.8794092602
 40
0.9392328113
 40
1.0
 40
1.0
 40
1.0
 40
1.0
 10
145.4015239459
 20
119.4988595608
 30
0.0
 10
145.4015280706
 20
119.7495503919
 30
0.0
 10
145.4550656388
 20
120.2489112836
 30
0.0
 10
145.6978917451
 20
120.9582369368
 30
0.0
 10
146.0906671764
 20
121.5956985373
 30
0.0
 10
146.6163115361
 20
122.1412078735
 30
0.0
 10
147.2545832013
 20
122.5806473423
 30
0.0
 10
147.857676754
 20
122.8478022679
 30
0.0
 10
148.3726195092
 20
123.0004842226
 30
0.0
 10
148.9105415448
 20
123.1118219186
 30
0.0
 10
149.6015239552
 20
123.1675557397
 30
0.0
 10
150.292506368
 20
123.1118219511
 30
0.0
 10
150.8304284055
 20
123.0004842656
 30
0.0
 10
151.3453711749
 20
122.8478023071
 30
0.0
 10
151.9484647502
 20
122.5806473542
 30
0.0
 10
152.5867364077
 20
122.1412078364
 30
0.0
 10
153.1123807433
 20
121.5956985082
 30
0.0
 10
153.5051560362
 20
120.9582369482
 30
0.0
 10
153.7479825439
 20
120.2489113501
 30
0.0
 10
153.8015192785
 20
119.7495504207
 30
0.0
 10
153.8015239459
 20
119.4988595608
 30
0.0
  0
SPLINE
  5
5C1
100
AcDbEntity
  8
0
100
AcDbSpline
 62
7
  6
CONTINUOUS
 70
0
 71
3
 72
15
 73
11
 74
0
 42
0.0000001
 43
0.0000001
 44
0.0000000001
 40
0.0
 40
0.0
 40
0.0
 40
0.0
 40
0.1273219941
 40
0.2515024672
 40
0.3734750938
 40
0.4946072207
 40
0.6164758657
 40
0.7406031991
 40
0.8682087862
 40
1.0
 40
1.0
 40
1.0
 40
1.0
 10
153.8015239459
 20
116.942305958
 30
0.0
 10
153.8015239459
 20
117.1341599254
 30
0.0
 10
153.7707469572
 20
117.5139786294
 30
0.0
 10
153.6300142066
 20
118.0616394411
 30
0.0
 10
153.4004784097
 20
118.5683384566
 30
0.0
 10
153.0892920375
 20
119.0250064268
 30
0.0
 10
152.7044597218
 20
119.4258030857
 30
0.0
 10
152.2539161191
 20
119.7669745855
 30
0.0
 10
151.7456536729
 20
120.0458413817
 30
0.0
 10
151.3795549213
 20
120.1864224777
 30
0.0
 10
151.1901301198
 20
120.2460512052
 30
0.0
  0
SPLINE
  5
5C2
100
AcDbEntity
  8
0
100
AcDbSpline
 62
7
  6
CONTINUOUS
 70
0
 71
3
 72
15
 73
11
 74
0
 42
0.0000001
 43
0.0000001
 44
0.0000000001
 40
0.0
 40
0.0
 40
0.0
 40
0.0
 40
0.1229016588
 40
0.248204918
 40
0.3740571974
 40
0.5000005232
 40
0.6259435693
 40
0.751795333
 40
0.877098275
 40
1.0
 40
1.0
 40
1.0
 40
1.0
 10
151.1901301198
 20
120.2460512052
 30
0.0
 10
151.0635888329
 20
120.2858849327
 30
0.0
 10
150.806768709
 20
120.3625931714
 30
0.0
 10
150.4128447029
 20
120.4529072608
 30
0.0
 10
150.0094161576
 20
120.510984123
 30
0.0
 10
149.6015225475
 20
120.5309940375
 30
0.0
 10
149.1936295394
 20
120.5109836542
 30
0.0
 10
148.7902021621
 20
120.4529071577
 30
0.0
 10
148.3962789901
 20
120.3625931079
 30
0.0
 10
148.139459127
 20
120.2858849541
 30
0.0
 10
148.012917772
 20
120.2460512052
 30
0.0
  0
SPLINE
  5
5C3
100
AcDbEntity
  8
0
100
AcDbSpline
 62
7
  6
CONTINUOUS
 70
0
 71
3
 72
15
 73
11
 74
0
 42
0.0000001
 43
0.0000001
 44
0.0000000001
 40
0.0
 40
0.0
 40
0.0
 40
0.0
 40
0.1317912805
 40
0.2593969318
 40
0.3835242774
 40
0.5053928538
 40
0.6265248817
 40
0.7484974404
 40
0.8726779314
 40
1.0
 40
1.0
 40
1.0
 40
1.0
 10
148.012917772
 20
120.2460512052
 30
0.0
 10
147.8234928746
 20
120.1864224475
 30
0.0
 10
147.4573939388
 20
120.045841274
 30
0.0
 10
146.9491313381
 20
119.7669743054
 30
0.0
 10
146.498587774
 20
119.4258027336
 30
0.0
 10
146.1137556881
 20
119.0250061825
 30
0.0
 10
145.8025695322
 20
118.5683385027
 30
0.0
 10
145.5730337869
 20
118.0616397147
 30
0.0
 10
145.4323009613
 20
117.5139788829
 30
0.0
 10
145.4015239459
 20
117.1341600377
 30
0.0
 10
145.4015239459
 20
116.942305958
 30
0.0
  0
SPLINE
  5
5C4
100
AcDbEntity
  8
0
100
AcDbSpline
 62
7
  6
CONTINUOUS
 70
0
 71
3
 72
9
 73
5
 74
0
 42
0.0000001
 43
0.0000001
 44
0.0000000001
 40
0.0
 40
0.0
 40
0.0
 40
0.0
 40
0.5019733737
 40
1.0
 40
1.0
 40
1.0
 40
1.0
 10
155.7297115817
 20
168.2531782694
 30
0.0
 10
155.7517578462
 20
168.2531782694
 30
0.0
 10
155.7960305856
 20
168.2475059166
 30
0.0
 10
155.8359310495
 20
168.2251017869
 30
0.0
 10
155.8515239459
 20
168.2097627355
 30
0.0
  0
SPLINE
  5
5C5
100
AcDbEntity
  8
0
100
AcDbSpline
 62
7
  6
CONTINUOUS
 70
0
 71
3
 72
14
 73
10
 74
0
 42
0.0000001
 43
0.0000001
 44
0.0000000001
 40
0.0
 40
0.0
 40
0.0
 40
0.0
 40
0.0918152718
 40
0.1953959763
 40
0.3103802447
 40
0.4355210819
 40
0.5690906543
 40
0.7091080784
 40
1.0
 40
1.0
 40
1.0
 40
1.0
 10
159.9501167272
 20
130.8393171942
 30
0.0
 10
159.9226606291
 20
130.91073294
 30
0.0
 10
159.8781227093
 20
131.0680847076
 30
0.0
 10
159.8373758469
 20
131.3238217979
 30
0.0
 10
159.8150697318
 20
131.6095973353
 30
0.0
 10
159.8079516493
 20
131.9210213443
 30
0.0
 10
159.8128236186
 20
132.2533070454
 30
0.0
 10
159.8314682453
 20
132.7233600364
 30
0.0
 10
159.8538843501
 20
133.0817711165
 30
0.0
 10
159.8689261642
 20
133.3237107824
 30
0.0
  0
SPLINE
  5
5C6
100
AcDbEntity
  8
0
100
AcDbSpline
 62
7
  6
CONTINUOUS
 70
0
 71
3
 72
11
 73
7
 74
0
 42
0.0000001
 43
0.0000001
 44
0.0000000001
 40
0.0
 40
0.0
 40
0.0
 40
0.0
 40
0.2078592108
 40
0.4343951819
 40
0.6954310837
 40
1.0
 40
1.0
 40
1.0
 40
1.0
 10
160.0015251814
 20
124.8937752293
 30
0.0
 10
160.0015259228
 20
124.8837419104
 30
0.0
 10
159.9979045216
 20
124.8626196901
 30
0.0
 10
159.981606332
 20
124.8327205687
 30
0.0
 10
159.9548887041
 20
124.8048915789
 30
0.0
 10
159.9322898415
 20
124.78931062
 30
0.0
 10
159.9196813269
 20
124.7817502802
 30
0.0
  0
LINE
  5
5C7
100
AcDbEntity
  8
0
100
AcDbLine
 62
7
  6
CONTINUOUS
 10
155.6015239459
 20
161.4362912652
 11
155.8515239459
 21
161.4203510241
  0
LINE
  5
5C8
100
AcDbEntity
  8
0
100
AcDbLine
 62
7
  6
CONTINUOUS
 10
155.6015239459
 20
162.9887087348
 11
155.8515239459
 21
163.0046489759
  0
LINE
  5
5C9
100
AcDbEntity
  8
0
100
AcDbLine
 62
7
  6
CONTINUOUS
 10
143.6015239459
 20
162.9887087348
 11
143.3515239459
 21
163.0046489759
  0
LINE
  5
5CA
100
AcDbEntity
  8
0
100
AcDbLine
 62
7
  6
CONTINUOUS
 10
143.6015239459
 20
161.4362912652
 11
143.3515239459
 21
161.4203510241
  0
SPLINE
  5
5CB
100
AcDbEntity
  8
0
100
AcDbSpline
 62
7
  6
CONTINUOUS
 70
0
 71
3
 72
9
 73
5
 74
0
 42
0.0000001
 43
0.0000001
 44
0.0000000001
 40
0.0
 40
0.0
 40
0.0
 40
0.0
 40
0.4980094878
 40
1.0
 40
1.0
 40
1.0
 40
1.0
 10
143.3515239459
 20
168.209764654
 30
0.0
 10
143.3671148157
 20
168.2251337211
 30
0.0
 10
143.4070851186
 20
168.2475305879
 30
0.0
 10
143.4513941175
 20
168.2531782694
 30
0.0
 10
143.4734616668
 20
168.2531782694
 30
0.0
  0
ELLIPSE
  5
5CC
100
AcDbEntity
  8
0
100
AcDbEllipse
 62
7
  6
CONTINUOUS
 10
38.5458824059
 20
236.6718364459
 30
0.0
 11
0.0
 21
6.05
 31
0.0
 40
0.1763269807
 41
-1.6263152921
 42
-1.5152773615
  0
ELLIPSE
  5
5CD
100
AcDbEntity
  8
0
100
AcDbEllipse
 62
7
  6
CONTINUOUS
 10
40.6761515272
 20
236.6718364459
 30
0.0
 11
-0.0
 21
6.05
 31
0.0
 40
0.1763269807
 41
-2.8253582728
 42
-0.3162343808
  0
ELLIPSE
  5
5CE
100
AcDbEntity
  8
SURFACE
100
AcDbEllipse
 62
7
  6
CONTINUOUS
 10
95.1416175941
 20
236.6718364459
 30
0.0
 11
-0.0
 21
6.05
 31
0.0
 40
0.1763269807
 41
1.5152773615
 42
1.6263152921
  0
ELLIPSE
  5
5CF
100
AcDbEntity
  8
SURFACE
100
AcDbEllipse
 62
7
  6
CONTINUOUS
 10
93.0113484728
 20
236.6718364459
 30
0.0
 11
0.0
 21
6.05
 31
0.0
 40
0.1763269807
 41
0.3162343808
 42
2.8253582728
  0
ELLIPSE
  5
5D0
100
AcDbEntity
  8
0
100
AcDbEllipse
 62
7
  6
CONTINUOUS
 10
40.6761515272
 20
236.6718364459
 30
0.0
 11
0.0
 21
6.05
 31
0.0
 40
0.1763269807
 41
-4.6568700151
 42
-3.4578270344
  0
ELLIPSE
  5
5D1
100
AcDbEntity
  8
0
100
AcDbEllipse
 62
7
  6
CONTINUOUS
 10
40.6761515272
 20
236.6718364459
 30
0.0
 11
-0.0
 21
6.05
 31
0.0
 40
0.1763269807
 41
0.3162343808
 42
1.5152773615
  0
ELLIPSE
  5
5D2
100
AcDbEntity
  8
SURFACE
100
AcDbEllipse
 62
7
  6
CONTINUOUS
 10
93.0113484728
 20
236.6718364459
 30
0.0
 11
-0.0
 21
6.05
 31
0.0
 40
0.1763269807
 41
-2.8253582728
 42
-1.6263152921
  0
ELLIPSE
  5
5D3
100
AcDbEntity
  8
SURFACE
100
AcDbEllipse
 62
7
  6
CONTINUOUS
 10
93.0113484728
 20
236.6718364459
 30
0.0
 11
0.0
 21
6.05
 31
0.0
 40
0.1763269807
 41
-1.5152773615
 42
-0.3162343808
  0
ELLIPSE
  5
5D4
100
AcDbEntity
  8
0
100
AcDbEllipse
 62
7
  6
CONTINUOUS
 10
42.34375
 20
242.980927355
 30
0.0
 11
-1.9720174031
 21
3.9305145352
 31
0.0
 40
0.5751879704
 41
-0.2809500897
 42
-0.1222515336
  0
ELLIPSE
  5
5D5
100
AcDbEntity
  8
SURFACE
100
AcDbEllipse
 62
7
  6
CONTINUOUS
 10
91.34375
 20
242.980927355
 30
0.0
 11
1.9720174031
 21
3.9305145352
 31
0.0
 40
0.5751879704
 41
0.1222515336
 42
0.2809500897
  0
ELLIPSE
  5
5D6
100
AcDbEntity
  8
0
100
AcDbEllipse
 62
7
  6
CONTINUOUS
 10
155.910614855
 20
133.3237107824
 30
0.0
 11
4.0458615457
 21
-2.8766174965
 31
0.0
 40
0.2104648064
 41
0.1485388233
 42
0.3072373794
  0
ENDSEC
  0
SECTION
  2
OBJECTS
  0
DICTIONARY
  5
C
100
AcDbDictionary
280
0
281
1
  3
ACAD_GROUP
350
D
  3
ACAD_MLINESTYLE
350
17
  3
ACAD_LAYOUT
350
1A
  3
ACAD_PLOTSETTINGS
350
19
  3
ACAD_PLOTSTYLENAME
350
E
  3
ACAD_TABLESTYLE
350
       5D7
  0
DICTIONARY
  5
D
102
{ACAD_REACTORS
330
C
102
}
100
AcDbDictionary
280
0
281
1
  0
ACDBDICTIONARYWDFLT
  5
E
102
{ACAD_REACTORS
330
C
102
}
100
AcDbDictionary
281
1
  3
Normal
350
F
100
AcDbDictionaryWithDefault
340
F
  0
DICTIONARY
  5
17
102
{ACAD_REACTORS
330
C
102
}
100
AcDbDictionary
280
0
281
1
  3
Standard
350
18
  0
DICTIONARY
  5
5D7
330
C
100
AcDbDictionary
281
1
  3
Standard
350
       5DA
  3
Standard1
350
       5DB
  0
DICTIONARY
  5
19
102
{ACAD_REACTORS
330
C
102
}
100
AcDbDictionary
281
1
  0
DICTIONARY
  5
1A
102
{ACAD_REACTORS
330
C
102
}
100
AcDbDictionary
281
1
  3
Model
350
5D8
  3
Layout1
350
5D9
  0
ACDBPLACEHOLDER
  5
F
102
{ACAD_REACTORS
330
E
102
}
  0
MLINESTYLE
  5
18
102
{ACAD_REACTORS
330
17
102
}
100
AcDbMlineStyle
  2
STANDARD
 70
0
  3

 62
256
 51
90.0
 52
90.0
 71
2
 49
0.5
 62
256
  6
BYLAYER
 49
-0.5
 62
256
  6
BYLAYER
  0
LAYOUT
  5
5D8
102
{ACAD_REACTORS
330
1A
102
}
100
AcDbPlotSettings
  1

  2
none_device
  4

  6

 40
0.0
 41
0.0
 42
0.0
 43
0.0
 44
210.0
 45
297.0
 46
0.0
 47
0.0
 48
0.0
 49
0.0
140
0.0
141
0.0
142
1.0
143
1.0
 70
1024
 72
1
 73
0
 74
0
  7

 75
0
147
1.0
148
0.0
149
0.0
100
AcDbLayout
  1
Model
 70
0
 71
0
 10
0.0
 20
0.0
 11
210.0
 21
297.0
 12
0.0
 22
0.0
 32
0.0
 14
0.0
 24
0.0
 34
0.0
 15
0.0
 25
0.0
 35
0.0
146
0.0
 13
0.0
 23
0.0
 33
0.0
 16
1.0
 26
0.0
 36
0.0
 17
0.0
 27
1.0
 37
0.0
 76
0
330
209
345
0
346
0
  0
LAYOUT
  5
5D9
102
{ACAD_REACTORS
330
1A
102
}
100
AcDbPlotSettings
  1

  2
none_device
  4

  6

 40
0.0
 41
0.0
 42
0.0
 43
0.0
 44
210.0
 45
297.0
 46
0.0
 47
0.0
 48
0.0
 49
0.0
140
0.0
141
0.0
142
1.0
143
1.0
 70
0
 72
1
 73
0
 74
0
  7

 75
0
147
1.0
148
0.0
149
0.0
100
AcDbLayout
  1
Layout1
 70
0
 71
1
 10
0.0
 20
0.0
 11
210.0
 21
297.0
 12
0.0
 22
0.0
 32
0.0
 14
0.0
 24
0.0
 34
0.0
 15
0.0
 25
0.0
 35
0.0
146
0.0
 13
0.0
 23
0.0
 33
0.0
 16
1.0
 26
0.0
 36
0.0
 17
0.0
 27
1.0
 37
0.0
 76
0
330
20A
345
0
346
0
  0
TABLESTYLE
  5
5DA
102
{ACAD_REACTORS
330
5D7
330
33E
102
}
330
5D7
100
AcDbTableStyle
  3
Standard
 70
0
 71
0
 40
0.06
 41
0.06
280
1
281
1
  7
Standard
140
0.18
170
1
 62
0
 63
7
283
0
  7
Standard
140
0.18
170
1
 62
0
 63
7
283
0
  7
Standard
140
0.18
170
1
 62
0
 63
7
283
0
  0
TABLESTYLE
  5
5DB
102
{ACAD_REACTORS
330
5D7
102
}
330
5D7
100
AcDbTableStyle
  3
Standard1
 70
1
 71
0
 40
0.06
 41
0.06
280
1
281
1
  7
Standard
140
0.18
170
1
 62
0
 63
7
283
0
  7
Standard
140
0.18
170
1
 62
0
 63
7
283
0
  7
Standard
140
0.18
170
1
 62
0
 63
7
283
0
  0
ENDSEC
  0
EOF
