999
DXF file: G:\afd20\200100-Web\Chains\uni 1400\2D-DXF\Sprockets\uni_1400_z10_2w_1r_1p_hub75.dxf
999
Pro/ENGINEER 2015290 by Parametric Technology Corporation
  0
SECTION
  2
HEADER
  9
$ACADVER
  1
AC1027
  9
$DWGCODEPAGE
  3
ANSI_1252
  9
$EXTMAX
 10
594.0
 20
420.0
 30
0.0
  9
$EXTMIN
 10
0.0
 20
0.0
 30
0.0
  9
$LIMMIN
 10
0.0
 20
0.0
  9
$LIMMAX
 10
594.0
 20
420.0
  9
$VIEWCTR
 10
297.0
 20
210.0
  9
$VIEWSIZE
 40
420.0
  9
$CLAYER
  8
0
  9
$LTSCALE
 40
32.67
  9
$CELTYPE
  6
BYLAYER
  9
$DIMSCALE
 40
1.0
  9
$DIMASZ
 40
3.5
  9
$DIMEXO
 40
1.0
  9
$DIMDLI
 40
22.572
  9
$DIMEXE
 40
2.0
  9
$DIMCEN
 40
5.346
  9
$DIMLFAC
 40
1.0
  9
$DIMBLK
  1
_FILLED
  9
$DIMALT
 70
0
  9
$DIMALTF
 40
0.0393700787
  9
$DIMTXT
 40
3.5
  9
$DIMTOL
 70
1
  9
$DIMLIM
 70
0
  9
$DIMTFAC
 40
1.0
  9
$DIMTP
 40
0.01
  9
$DIMTM
 40
0.01
  9
$DIMGAP
 40
0.625
  9
$DIMDSEP
 70
46
  9
$AUNITS
 70
0
  9
$PDMODE
 70
3
  9
$PDSIZE
 40
0.3125
  9
$HANDSEED
  5
5DC
  9
$TILEMODE
 70
1
  9
$MEASUREMENT
 70
1
  9
$INSUNITS
 70
4
  0
ENDSEC
  0
SECTION
  2
CLASSES
  0
CLASS
  1
ACDBDICTIONARYWDFLT
  2
AcDbDictionaryWithDefault
  3
AutoCAD 2000
 90
0
 91
1
280
0
281
0
  0
CLASS
  1
ACDBPLACEHOLDER
  2
AcDbPlaceHolder
  3
AutoCAD 2000
 90
0
 91
1
280
0
281
0
  0
CLASS
  1
LAYOUT
  2
AcDbLayout
  3
AutoCAD 2000
 90
0
 91
0
280
0
281
0
  0
CLASS
  1
TABLESTYLE
  2
AcDbTableStyle
  3
ObjectDBX Classes
 90
2047
 91
1
280
0
281
0
  0
CLASS
  1
ACAD_TABLE
  2
AcDbTable
  3
ObjectDBX Classes
 90
1025
 91
1
280
0
281
1
  0
ENDSEC
  0
SECTION
  2
TABLES
  0
TABLE
  2
VPORT
  5
8
100
AcDbSymbolTable
 70
2
  0
VPORT
  5
1F4
100
AcDbSymbolTableRecord
100
AcDbViewportTableRecord
  2
*ACTIVE
 70
0
 10
0.0
 20
0.0
 11
1.0
 21
1.0
 12
297.0
 22
210.0
 13
0.0
 23
0.0
 14
1.0
 24
1.0
 15
0.0
 25
0.0
 16
0.0
 26
0.0
 36
1.0
 17
0.0
 27
0.0
 37
0.0
 40
420.0
 41
1.4142857143
 42
50.0
 43
0.0
 44
0.0
 50
0.0
 51
0.0
 71
0
 72
100
 73
1
 74
1
 75
0
 76
0
 77
0
 78
0
  0
ENDTAB
  0
TABLE
  2
LTYPE
  5
5
100
AcDbSymbolTable
 70
6
  0
LTYPE
  5
14
100
AcDbSymbolTableRecord
100
AcDbLinetypeTableRecord
  2
BYBLOCK
 70
0
  3

 72
65
 73
0
 40
0.0
  0
LTYPE
  5
15
100
AcDbSymbolTableRecord
100
AcDbLinetypeTableRecord
  2
BYLAYER
 70
0
  3

 72
65
 73
0
 40
0.0
  0
LTYPE
  5
16
100
AcDbSymbolTableRecord
100
AcDbLinetypeTableRecord
  2
CONTINUOUS
 70
64
  3
Solid line
 72
65
 73
0
 40
0.0
  0
LTYPE
  5
1F5
100
AcDbSymbolTableRecord
100
AcDbLinetypeTableRecord
  2
CENTER
 70
64
  3
____ _ ____ _ ____ _ ____ _ ____ _ ____ _ ____
 72
65
 73
4
 40
0.6
 49
0.375
 74
0
 49
-0.075
 74
0
 49
0.075
 74
0
 49
-0.075
 74
0
  0
LTYPE
  5
1F6
100
AcDbSymbolTableRecord
100
AcDbLinetypeTableRecord
  2
HIDDEN
 70
64
  3
- - - - - - - - - - - - - - - - - - - -
 72
65
 73
2
 40
0.2
 49
0.1
 74
0
 49
-0.1
 74
0
  0
LTYPE
  5
1F7
100
AcDbSymbolTableRecord
100
AcDbLinetypeTableRecord
  2
PHANTOM
 70
64
  3
_____ _ _ _____ _ _ _____ _ _ _____
 72
65
 73
6
 40
0.8
 49
0.45
 74
0
 49
-0.05
 74
0
 49
0.1
 74
0
 49
-0.05
 74
0
 49
0.1
 74
0
 49
-0.05
 74
0
  0
LTYPE
  5
1F8
100
AcDbSymbolTableRecord
100
AcDbLinetypeTableRecord
  2
DOT
 70
64
  3
. . . . . . . . . . . . . . . . . . . .
 72
65
 73
2
 40
0.2
 49
0.1
 74
0
 49
-0.1
 74
0
  0
LTYPE
  5
1F9
100
AcDbSymbolTableRecord
100
AcDbLinetypeTableRecord
  2
DASHED
 70
64
  3
- - - - - - - - - - - - - - - - - - - -
 72
65
 73
2
 40
0.2
 49
0.1
 74
0
 49
-0.1
 74
0
  0
ENDTAB
  0
TABLE
  2
LAYER
  5
2
100
AcDbSymbolTable
 70
36
  0
LAYER
  5
10
100
AcDbSymbolTableRecord
100
AcDbLayerTableRecord
  2
0
 70
0
 62
7
  6
CONTINUOUS
370
-3
390
F
  0
LAYER
  5
1FA
100
AcDbSymbolTableRecord
100
AcDbLayerTableRecord
  2
DEFAULT_1
 70
0
 62
7
  6
CENTER
370
-3
390
F
  0
LAYER
  5
1FB
100
AcDbSymbolTableRecord
100
AcDbLayerTableRecord
  2
DEFAULT_2
 70
0
 62
8
  6
HIDDEN
370
-3
390
F
  0
LAYER
  5
1FC
100
AcDbSymbolTableRecord
100
AcDbLayerTableRecord
  2
DEFAULT_3
 70
0
 62
7
  6
PHANTOM
370
-3
390
F
  0
LAYER
  5
1FD
100
AcDbSymbolTableRecord
100
AcDbLayerTableRecord
  2
1_AXIS
 70
0
 62
7
  6
CONTINUOUS
370
-3
390
F
  0
LAYER
  5
1FE
100
AcDbSymbolTableRecord
100
AcDbLayerTableRecord
  2
1_DATUM_PLANE
 70
0
 62
7
  6
CONTINUOUS
370
-3
390
F
  0
LAYER
  5
1FF
100
AcDbSymbolTableRecord
100
AcDbLayerTableRecord
  2
2_FEATURE
 70
0
 62
7
  6
CONTINUOUS
370
-3
390
F
  0
LAYER
  5
200
100
AcDbSymbolTableRecord
100
AcDbLayerTableRecord
  2
4_QUILT
 70
0
 62
7
  6
CONTINUOUS
370
-3
390
F
  0
LAYER
  5
201
100
AcDbSymbolTableRecord
100
AcDbLayerTableRecord
  2
6_DIM
 70
0
 62
7
  6
CONTINUOUS
370
-3
390
F
  0
LAYER
  5
202
100
AcDbSymbolTableRecord
100
AcDbLayerTableRecord
  2
AXES
 70
0
 62
7
  6
CONTINUOUS
370
-3
390
F
  0
LAYER
  5
203
100
AcDbSymbolTableRecord
100
AcDbLayerTableRecord
  2
BLANK_COSM
 70
0
 62
7
  6
CONTINUOUS
370
-3
390
F
  0
LAYER
  5
204
100
AcDbSymbolTableRecord
100
AcDbLayerTableRecord
  2
CSYS
 70
0
 62
7
  6
CONTINUOUS
370
-3
390
F
  0
LAYER
  5
205
100
AcDbSymbolTableRecord
100
AcDbLayerTableRecord
  2
CURVES
 70
0
 62
7
  6
CONTINUOUS
370
-3
390
F
  0
LAYER
  5
206
100
AcDbSymbolTableRecord
100
AcDbLayerTableRecord
  2
NOTES
 70
0
 62
7
  6
CONTINUOUS
370
-3
390
F
  0
LAYER
  5
207
100
AcDbSymbolTableRecord
100
AcDbLayerTableRecord
  2
PLANES
 70
0
 62
7
  6
CONTINUOUS
370
-3
390
F
  0
LAYER
  5
208
100
AcDbSymbolTableRecord
100
AcDbLayerTableRecord
  2
QUILTS
 70
0
 62
7
  6
CONTINUOUS
370
-3
390
F
  0
ENDTAB
  0
TABLE
  2
STYLE
  5
3
100
AcDbSymbolTable
 70
1
  0
STYLE
  5
11
100
AcDbSymbolTableRecord
100
AcDbTextStyleTableRecord
  2
STANDARD
 70
0
 40
0.0
 41
0.8
 50
0.0
 71
0
 42
0.2
  3
txt
  4

  0
STYLE
  5
209
100
AcDbSymbolTableRecord
100
AcDbTextStyleTableRecord
  2
TEXTSTYLE_1
 70
0
 40
0.0
 41
0.8
 50
0.0
 71
0
 42
0.2
  3
gdt
  4

  0
STYLE
  5
20A
100
AcDbSymbolTableRecord
100
AcDbTextStyleTableRecord
  2
TEXTSTYLE_2
 70
0
 40
0.0
 41
0.6
 50
0.0
 71
0
 42
0.2
  3
txt
  4

  0
STYLE
  5
20B
100
AcDbSymbolTableRecord
100
AcDbTextStyleTableRecord
  2
TEXTSTYLE_3
 70
0
 40
0.0
 41
1.0
 50
0.0
 71
0
 42
0.2
  3
ftb_____.ttf
  4

  0
STYLE
  5
20C
100
AcDbSymbolTableRecord
100
AcDbTextStyleTableRecord
  2
TEXTSTYLE_4
 70
0
 40
0.0
 41
1.0
 50
0.0
 71
0
 42
0.2
  3
fti_____.ttf
  4

  0
STYLE
  5
20D
100
AcDbSymbolTableRecord
100
AcDbTextStyleTableRecord
  2
TEXTSTYLE_5
 70
0
 40
0.0
 41
1.0
 50
0.0
 71
0
 42
0.2
  3
frutiger light.ttf
  4

  0
STYLE
  5
20E
100
AcDbSymbolTableRecord
100
AcDbTextStyleTableRecord
  2
TEXTSTYLE_6
 70
0
 40
0.0
 41
0.7
 50
0.0
 71
0
 42
0.2
  3
txt
  4

  0
STYLE
  5
20F
100
AcDbSymbolTableRecord
100
AcDbTextStyleTableRecord
  2
TEXTSTYLE_7
 70
0
 40
0.0
 41
0.8
 50
0.0
 71
0
 42
0.2
  3
txt
  4

  0
ENDTAB
  0
TABLE
  2
VIEW
  5
6
100
AcDbSymbolTable
 70
0
  0
ENDTAB
  0
TABLE
  2
UCS
  5
7
100
AcDbSymbolTable
 70
0
  0
ENDTAB
  0
TABLE
  2
APPID
  5
9
100
AcDbSymbolTable
 70
1
  0
APPID
  5
210
100
AcDbSymbolTableRecord
100
AcDbRegAppTableRecord
  2
ACAD
 70
0
  0
ENDTAB
  0
TABLE
  2
BLOCK_RECORD
  5
1
100
AcDbSymbolTable
 70
0
  0
BLOCK_RECORD
  5
211
100
AcDbSymbolTableRecord
100
AcDbBlockTableRecord
  2
*Model_Space
  0
BLOCK_RECORD
  5
212
100
AcDbSymbolTableRecord
100
AcDbBlockTableRecord
  2
*Paper_Space
  0
BLOCK_RECORD
  5
213
100
AcDbSymbolTableRecord
100
AcDbBlockTableRecord
  2
UNI_LOGO2_BL1
  0
BLOCK_RECORD
  5
214
100
AcDbSymbolTableRecord
100
AcDbBlockTableRecord
  2
AMMEAAL_LOGO_BL0
  0
BLOCK_RECORD
  5
215
100
AcDbSymbolTableRecord
100
AcDbBlockTableRecord
  2
*T1
  0
ENDTAB
  0
TABLE
  2
DIMSTYLE
  5
A
100
AcDbSymbolTable
 70
1
100
AcDbDimStyleTable
 71
0
  0
DIMSTYLE
105
216
100
AcDbSymbolTableRecord
100
AcDbDimStyleTableRecord
  2
STANDARD
 70
0
  3

  4

 40
1.0
 41
3.5
 42
1.0
 43
0.38
 44
2.0
 45
0.0
 46
0.0
 47
0.01
 48
0.01
140
3.5
141
0.09
142
0.0
143
25.4
144
1.0
145
0.0
146
1.0
147
0.625
 71
1.0
 72
0.0
 73
0
 74
0
 75
0
 76
0
 77
1
 78
0
170
0
171
2
172
0
173
0
174
0
175
0
176
0
177
0
178
0
270
2
271
2
272
2
273
2
274
2
275
0
280
0
281
0
282
0
283
1
284
0
285
0
286
0
287
3
288
0
340
11
278
46
  0
ENDTAB
  0
ENDSEC
  0
SECTION
  2
BLOCKS
  0
BLOCK
  5
20
100
AcDbEntity
  8
0
100
AcDbBlockBegin
  2
*Model_Space
 70
0
 10
0.0
 20
0.0
 30
0.0
  3
*Model_Space
  1

  0
ENDBLK
  5
21
100
AcDbEntity
  8
0
100
AcDbBlockEnd
  0
BLOCK
  5
1C
100
AcDbEntity
  8
0
100
AcDbBlockBegin
  2
*Paper_Space
 70
0
 10
0.0
 20
0.0
 30
0.0
  3
*Paper_Space
  1

  0
ENDBLK
  5
1D
100
AcDbEntity
  8
0
100
AcDbBlockEnd
  0
BLOCK
  5
217
100
AcDbEntity
  8
0
100
AcDbBlockBegin
 62
2
  6
CONTINUOUS
  2
UNI_LOGO2_BL1
 70
64
 10
557.4079930916
 20
35.8092573885
  3
UNI_LOGO2_BL1
  1

  0
TEXT
  5
218
100
AcDbEntity
  8
0
100
AcDbText
 62
7
  6
CONTINUOUS
 10
548.4662781001
 20
30.9020137655
  7
TEXTSTYLE_4
 40
1.0655737705
  1
The brand for plastic modular belts and chains
 41
1.0
 72
0
100
AcDbText
  0
LINE
  5
219
100
AcDbEntity
  8
0
100
AcDbLine
 62
7
  6
CONTINUOUS
 10
533.3860614807
 20
36.3830278803
 11
533.3860614807
 21
34.2518803393
  0
LINE
  5
21A
100
AcDbEntity
  8
0
100
AcDbLine
 62
7
  6
CONTINUOUS
 10
533.6751239738
 20
31.2609490436
 11
533.6751239738
 21
31.3577401029
  0
LINE
  5
21B
100
AcDbEntity
  8
0
100
AcDbLine
 62
7
  6
CONTINUOUS
 10
533.3860614807
 20
31.3254764164
 11
533.4438739824
 21
31.1318942979
  0
LINE
  5
21C
100
AcDbEntity
  8
0
100
AcDbLine
 62
7
  6
CONTINUOUS
 10
534.7795041036
 20
34.1699131262
 11
534.7795041036
 21
36.3830278803
  0
LINE
  5
21D
100
AcDbEntity
  8
0
100
AcDbLine
 62
7
  6
CONTINUOUS
 10
535.6985614255
 20
32.3256508311
 11
535.6985614255
 21
30.8092573885
  0
LINE
  5
21E
100
AcDbEntity
  8
0
100
AcDbLine
 62
7
  6
CONTINUOUS
 10
535.9876239807
 20
30.8092573885
 11
535.9876239807
 21
31.5513222666
  0
LINE
  5
21F
100
AcDbEntity
  8
0
100
AcDbLine
 62
7
  6
CONTINUOUS
 10
535.9876239807
 20
31.6803770123
 11
535.9876239807
 21
32.3256508311
  0
LINE
  5
220
100
AcDbEntity
  8
0
100
AcDbLine
 62
7
  6
CONTINUOUS
 10
533.4438739824
 20
31.5190585802
 11
533.3860614807
 21
31.3254764164
  0
LINE
  5
221
100
AcDbEntity
  8
0
100
AcDbLine
 62
7
  6
CONTINUOUS
 10
533.7907489669
 20
31.0996306115
 11
533.6751239738
 21
31.2609490436
  0
LINE
  5
222
100
AcDbEntity
  8
0
100
AcDbLine
 62
7
  6
CONTINUOUS
 10
534.8891865358
 20
31.6158496394
 11
534.9469989807
 21
31.5190585802
  0
LINE
  5
223
100
AcDbEntity
  8
0
100
AcDbLine
 62
7
  6
CONTINUOUS
 10
535.2360615358
 20
31.5190585802
 11
535.1782489255
 21
31.6481133259
  0
LINE
  5
224
100
AcDbEntity
  8
0
100
AcDbLine
 62
7
  6
CONTINUOUS
 10
536.6647500053
 20
36.3830278803
 11
536.6647500053
 21
34.5797491918
  0
LINE
  5
225
100
AcDbEntity
  8
0
100
AcDbLine
 62
7
  6
CONTINUOUS
 10
536.6647500053
 20
33.2682737819
 11
536.6647500053
 21
32.612536077
  0
LINE
  5
226
100
AcDbEntity
  8
0
100
AcDbLine
 62
7
  6
CONTINUOUS
 10
537.0282489807
 20
31.4545312073
 11
537.0282489807
 21
30.8092573885
  0
LINE
  5
227
100
AcDbEntity
  8
0
100
AcDbLine
 62
7
  6
CONTINUOUS
 10
537.3173113704
 20
30.8092573885
 11
537.3173113704
 21
31.4545312073
  0
LINE
  5
228
100
AcDbEntity
  8
0
100
AcDbLine
 62
7
  6
CONTINUOUS
 10
533.6751239738
 20
31.3577401029
 11
533.7329364807
 21
31.4867948937
  0
LINE
  5
229
100
AcDbEntity
  8
0
100
AcDbLine
 62
7
  6
CONTINUOUS
 10
533.4438739824
 20
31.1318942979
 11
533.5594989807
 21
31.0028395296
  0
LINE
  5
22A
100
AcDbEntity
  8
0
100
AcDbLine
 62
7
  6
CONTINUOUS
 10
536.9704363704
 20
31.583585953
 11
537.0282489807
 21
31.4545312073
  0
LINE
  5
22B
100
AcDbEntity
  8
0
100
AcDbLine
 62
7
  6
CONTINUOUS
 10
537.7798115909
 20
31.0996306115
 11
537.8376238704
 21
30.9705758432
  0
LINE
  5
22C
100
AcDbEntity
  8
0
100
AcDbLine
 62
7
  6
CONTINUOUS
 10
537.3173113704
 20
31.4545312073
 11
537.2594990909
 21
31.6158496394
  0
LINE
  5
22D
100
AcDbEntity
  8
0
100
AcDbLine
 62
7
  6
CONTINUOUS
 10
537.7798115909
 20
31.6481133259
 11
537.7798115909
 21
31.583585953
  0
LINE
  5
22E
100
AcDbEntity
  8
0
100
AcDbLine
 62
7
  6
CONTINUOUS
 10
537.7798115909
 20
31.1964216708
 11
537.7798115909
 21
31.0996306115
  0
LINE
  5
22F
100
AcDbEntity
  8
0
100
AcDbLine
 62
7
  6
CONTINUOUS
 10
538.0581926282
 20
32.612536077
 11
538.0581926282
 21
36.3830278803
  0
LINE
  5
230
100
AcDbEntity
  8
0
100
AcDbLine
 62
7
  6
CONTINUOUS
 10
538.0688739807
 20
31.0673669025
 11
538.0688739807
 21
31.1318942979
  0
LINE
  5
231
100
AcDbEntity
  8
0
100
AcDbLine
 62
7
  6
CONTINUOUS
 10
538.3860614807
 20
36.3830278803
 11
538.3860614807
 21
32.612536077
  0
LINE
  5
232
100
AcDbEntity
  8
0
100
AcDbLine
 62
7
  6
CONTINUOUS
 10
535.1782489255
 20
31.0028395296
 11
535.2360615358
 21
31.1318942979
  0
LINE
  5
233
100
AcDbEntity
  8
0
100
AcDbLine
 62
7
  6
CONTINUOUS
 10
539.5719992012
 20
30.9060484591
 11
539.5141862601
 21
31.0673669025
  0
LINE
  5
234
100
AcDbEntity
  8
0
100
AcDbLine
 62
7
  6
CONTINUOUS
 10
539.2251242012
 20
31.583585953
 11
539.2251242012
 21
31.4867948937
  0
LINE
  5
235
100
AcDbEntity
  8
0
100
AcDbLine
 62
7
  6
CONTINUOUS
 10
539.2251242012
 20
31.3577401029
 11
539.2251242012
 21
31.1641579843
  0
LINE
  5
236
100
AcDbEntity
  8
0
100
AcDbLine
 62
7
  6
CONTINUOUS
 10
539.5141862601
 20
31.0673669025
 11
539.5141862601
 21
31.583585953
  0
LINE
  5
237
100
AcDbEntity
  8
0
100
AcDbLine
 62
7
  6
CONTINUOUS
 10
539.7795041036
 20
32.612536077
 11
539.7795041036
 21
34.4158147655
  0
LINE
  5
238
100
AcDbEntity
  8
0
100
AcDbLine
 62
7
  6
CONTINUOUS
 10
539.7795041036
 20
35.7272901754
 11
539.7795041036
 21
36.3830278803
  0
LINE
  5
239
100
AcDbEntity
  8
0
100
AcDbLine
 62
7
  6
CONTINUOUS
 10
540.0923117012
 20
32.3256508311
 11
540.0923117012
 21
32.164332399
  0
LINE
  5
23A
100
AcDbEntity
  8
0
100
AcDbLine
 62
7
  6
CONTINUOUS
 10
540.0923117012
 20
31.8416954444
 11
540.0923117012
 21
30.8092573885
  0
LINE
  5
23B
100
AcDbEntity
  8
0
100
AcDbLine
 62
7
  6
CONTINUOUS
 10
540.3813737601
 20
30.8092573885
 11
540.3813737601
 21
31.8416954444
  0
LINE
  5
23C
100
AcDbEntity
  8
0
100
AcDbLine
 62
7
  6
CONTINUOUS
 10
540.3813737601
 20
32.164332399
 11
540.3813737601
 21
32.3256508311
  0
LINE
  5
23D
100
AcDbEntity
  8
0
100
AcDbLine
 62
7
  6
CONTINUOUS
 10
534.9469989807
 20
31.1318942979
 11
534.8891865358
 21
31.035103216
  0
LINE
  5
23E
100
AcDbEntity
  8
0
100
AcDbLine
 62
7
  6
CONTINUOUS
 10
537.2594990909
 20
31.6158496394
 11
537.2016864807
 21
31.6803770123
  0
LINE
  5
23F
100
AcDbEntity
  8
0
100
AcDbLine
 62
7
  6
CONTINUOUS
 10
538.1266865909
 20
31.0028395296
 11
538.0688739807
 21
31.0673669025
  0
LINE
  5
240
100
AcDbEntity
  8
0
100
AcDbLine
 62
7
  6
CONTINUOUS
 10
539.2829364807
 20
30.873784767
 11
539.3407487601
 21
30.8092573885
  0
LINE
  5
241
100
AcDbEntity
  8
0
100
AcDbLine
 62
7
  6
CONTINUOUS
 10
539.2251242012
 20
30.9705758432
 11
539.2829364807
 21
30.873784767
  0
LINE
  5
242
100
AcDbEntity
  8
0
100
AcDbLine
 62
7
  6
CONTINUOUS
 10
539.6298114807
 20
30.8092573885
 11
539.5719992012
 21
30.9060484591
  0
LINE
  5
243
100
AcDbEntity
  8
0
100
AcDbLine
 62
7
  6
CONTINUOUS
 10
539.5141862601
 20
31.583585953
 11
539.4563739807
 21
31.6803770123
  0
LINE
  5
244
100
AcDbEntity
  8
0
100
AcDbLine
 62
7
  6
CONTINUOUS
 10
540.8438739807
 20
31.8416954444
 11
540.8438739807
 21
30.8092573885
  0
LINE
  5
245
100
AcDbEntity
  8
0
100
AcDbLine
 62
7
  6
CONTINUOUS
 10
541.1329367012
 20
30.8092573885
 11
541.1329367012
 21
31.5513222666
  0
LINE
  5
246
100
AcDbEntity
  8
0
100
AcDbLine
 62
7
  6
CONTINUOUS
 10
541.1329367012
 20
31.6803770123
 11
541.1329367012
 21
31.8416954444
  0
LINE
  5
247
100
AcDbEntity
  8
0
100
AcDbLine
 62
7
  6
CONTINUOUS
 10
541.6647500053
 20
34.8256508311
 11
541.6647500053
 21
32.612536077
  0
LINE
  5
248
100
AcDbEntity
  8
0
100
AcDbLine
 62
7
  6
CONTINUOUS
 10
533.5594989807
 20
31.6481133259
 11
533.4438739824
 21
31.5190585802
  0
LINE
  5
249
100
AcDbEntity
  8
0
100
AcDbLine
 62
7
  6
CONTINUOUS
 10
533.7329364807
 20
31.4867948937
 11
533.7907489669
 21
31.5513222666
  0
LINE
  5
24A
100
AcDbEntity
  8
0
100
AcDbLine
 62
7
  6
CONTINUOUS
 10
533.5594989807
 20
31.0028395296
 11
533.6751239738
 21
30.9383121455
  0
LINE
  5
24B
100
AcDbEntity
  8
0
100
AcDbLine
 62
7
  6
CONTINUOUS
 10
533.9641864669
 20
31.0028395296
 11
533.7907489669
 21
31.0996306115
  0
LINE
  5
24C
100
AcDbEntity
  8
0
100
AcDbLine
 62
7
  6
CONTINUOUS
 10
539.1673112601
 20
31.6481133259
 11
539.2251242012
 21
31.583585953
  0
LINE
  5
24D
100
AcDbEntity
  8
0
100
AcDbLine
 62
7
  6
CONTINUOUS
 10
542.1157487601
 20
31.583585953
 11
542.1735617012
 21
31.4222675209
  0
LINE
  5
24E
100
AcDbEntity
  8
0
100
AcDbLine
 62
7
  6
CONTINUOUS
 10
542.4626237601
 20
31.4222675209
 11
542.4048114807
 21
31.583585953
  0
LINE
  5
24F
100
AcDbEntity
  8
0
100
AcDbLine
 62
7
  6
CONTINUOUS
 10
542.1735617012
 20
31.4222675209
 11
542.1735617012
 21
30.8092573885
  0
LINE
  5
250
100
AcDbEntity
  8
0
100
AcDbLine
 62
7
  6
CONTINUOUS
 10
542.4626237601
 20
30.8092573885
 11
542.4626237601
 21
31.4222675209
  0
LINE
  5
251
100
AcDbEntity
  8
0
100
AcDbLine
 62
7
  6
CONTINUOUS
 10
542.9251239807
 20
31.6481133259
 11
542.9251239807
 21
31.583585953
  0
LINE
  5
252
100
AcDbEntity
  8
0
100
AcDbLine
 62
7
  6
CONTINUOUS
 10
543.0581926282
 20
32.612536077
 11
543.0581926282
 21
34.743683618
  0
LINE
  5
253
100
AcDbEntity
  8
0
100
AcDbLine
 62
7
  6
CONTINUOUS
 10
543.3860614807
 20
36.3830278803
 11
543.3860614807
 21
32.612536077
  0
LINE
  5
254
100
AcDbEntity
  8
0
100
AcDbLine
 62
7
  6
CONTINUOUS
 10
538.0688739807
 20
31.1318942979
 11
538.1266865909
 21
31.2286853572
  0
LINE
  5
255
100
AcDbEntity
  8
0
100
AcDbLine
 62
7
  6
CONTINUOUS
 10
533.6751239738
 20
30.9383121455
 11
533.8485614944
 21
30.873784767
  0
LINE
  5
256
100
AcDbEntity
  8
0
100
AcDbLine
 62
7
  6
CONTINUOUS
 10
535.1782489255
 20
31.6481133259
 11
535.0048114255
 21
31.7449043851
  0
LINE
  5
257
100
AcDbEntity
  8
0
100
AcDbLine
 62
7
  6
CONTINUOUS
 10
537.8376238704
 20
30.9705758432
 11
538.0110613704
 21
30.873784767
  0
LINE
  5
258
100
AcDbEntity
  8
0
100
AcDbLine
 62
7
  6
CONTINUOUS
 10
536.8548114807
 20
31.6481133259
 11
536.9704363704
 21
31.583585953
  0
LINE
  5
259
100
AcDbEntity
  8
0
100
AcDbLine
 62
7
  6
CONTINUOUS
 10
537.2016864807
 20
31.6803770123
 11
537.0860615909
 21
31.7449043851
  0
LINE
  5
25A
100
AcDbEntity
  8
0
100
AcDbLine
 62
7
  6
CONTINUOUS
 10
542.9251239807
 20
31.0673669025
 11
543.0407492012
 21
30.9383121455
  0
LINE
  5
25B
100
AcDbEntity
  8
0
100
AcDbLine
 62
7
  6
CONTINUOUS
 10
543.2719989807
 20
31.0028395296
 11
543.2141867012
 21
31.0673669025
  0
LINE
  5
25C
100
AcDbEntity
  8
0
100
AcDbLine
 62
7
  6
CONTINUOUS
 10
542.9251239807
 20
31.583585953
 11
543.0407492012
 21
31.4545312073
  0
LINE
  5
25D
100
AcDbEntity
  8
0
100
AcDbLine
 62
7
  6
CONTINUOUS
 10
542.4048114807
 20
31.583585953
 11
542.3469992012
 21
31.6803770123
  0
LINE
  5
25E
100
AcDbEntity
  8
0
100
AcDbLine
 62
7
  6
CONTINUOUS
 10
544.7751235396
 20
31.0028395296
 11
544.7751235396
 21
31.0673669025
  0
LINE
  5
25F
100
AcDbEntity
  8
0
100
AcDbLine
 62
7
  6
CONTINUOUS
 10
544.7795041036
 20
32.612536077
 11
544.7795041036
 21
36.3830278803
  0
LINE
  5
260
100
AcDbEntity
  8
0
100
AcDbLine
 62
7
  6
CONTINUOUS
 10
537.8376238704
 20
31.7126406987
 11
537.7798115909
 21
31.6481133259
  0
LINE
  5
261
100
AcDbEntity
  8
0
100
AcDbLine
 62
7
  6
CONTINUOUS
 10
534.7157489531
 20
31.6803770123
 11
534.8891865358
 21
31.6158496394
  0
LINE
  5
262
100
AcDbEntity
  8
0
100
AcDbLine
 62
7
  6
CONTINUOUS
 10
539.4563739807
 20
31.6803770123
 11
539.3407487601
 21
31.7449043851
  0
LINE
  5
263
100
AcDbEntity
  8
0
100
AcDbLine
 62
7
  6
CONTINUOUS
 10
543.2719989807
 20
31.5190585802
 11
543.2141867012
 21
31.583585953
  0
LINE
  5
264
100
AcDbEntity
  8
0
100
AcDbLine
 62
7
  6
CONTINUOUS
 10
544.4282492012
 20
31.1318942979
 11
544.4860614807
 21
31.0673669025
  0
LINE
  5
265
100
AcDbEntity
  8
0
100
AcDbLine
 62
7
  6
CONTINUOUS
 10
544.7751235396
 20
31.0673669025
 11
544.6594989807
 21
31.1964216708
  0
LINE
  5
266
100
AcDbEntity
  8
0
100
AcDbLine
 62
7
  6
CONTINUOUS
 10
544.4282492012
 20
31.6481133259
 11
544.4860614807
 21
31.583585953
  0
LINE
  5
267
100
AcDbEntity
  8
0
100
AcDbLine
 62
7
  6
CONTINUOUS
 10
544.7751235396
 20
31.583585953
 11
544.6594989807
 21
31.7126406987
  0
LINE
  5
268
100
AcDbEntity
  8
0
100
AcDbLine
 62
7
  6
CONTINUOUS
 10
538.0688739807
 20
31.583585953
 11
538.1266865909
 21
31.6481133259
  0
LINE
  5
269
100
AcDbEntity
  8
0
100
AcDbLine
 62
7
  6
CONTINUOUS
 10
537.8954364807
 20
31.3254764164
 11
537.7798115909
 21
31.1964216708
  0
LINE
  5
26A
100
AcDbEntity
  8
0
100
AcDbLine
 62
7
  6
CONTINUOUS
 10
539.2251242012
 20
31.1641579843
 11
539.1673112601
 21
31.0996306115
  0
LINE
  5
26B
100
AcDbEntity
  8
0
100
AcDbLine
 62
7
  6
CONTINUOUS
 10
539.1673112601
 20
30.9060484591
 11
539.2251242012
 21
30.9705758432
  0
LINE
  5
26C
100
AcDbEntity
  8
0
100
AcDbLine
 62
7
  6
CONTINUOUS
 10
538.0110613704
 20
30.873784767
 11
538.1266865909
 21
30.8415210777
  0
LINE
  5
26D
100
AcDbEntity
  8
0
100
AcDbLine
 62
7
  6
CONTINUOUS
 10
535.0048114255
 20
31.7449043851
 11
534.7735614807
 21
31.809431758
  0
LINE
  5
26E
100
AcDbEntity
  8
0
100
AcDbLine
 62
7
  6
CONTINUOUS
 10
538.3579363704
 20
30.9383121455
 11
538.1266865909
 21
31.0028395296
  0
LINE
  5
26F
100
AcDbEntity
  8
0
100
AcDbLine
 62
7
  6
CONTINUOUS
 10
537.0860615909
 20
31.7449043851
 11
536.9126240909
 21
31.809431758
  0
LINE
  5
270
100
AcDbEntity
  8
0
100
AcDbLine
 62
7
  6
CONTINUOUS
 10
539.3407487601
 20
31.7449043851
 11
539.1673112601
 21
31.809431758
  0
LINE
  5
271
100
AcDbEntity
  8
0
100
AcDbLine
 62
7
  6
CONTINUOUS
 10
542.0001242012
 20
31.6481133259
 11
542.1157487601
 21
31.583585953
  0
LINE
  5
272
100
AcDbEntity
  8
0
100
AcDbLine
 62
7
  6
CONTINUOUS
 10
542.3469992012
 20
31.6803770123
 11
542.2313739807
 21
31.7449043851
  0
LINE
  5
273
100
AcDbEntity
  8
0
100
AcDbLine
 62
7
  6
CONTINUOUS
 10
533.8485614944
 20
30.873784767
 11
534.0219989944
 21
30.8415210777
  0
LINE
  5
274
100
AcDbEntity
  8
0
100
AcDbLine
 62
7
  6
CONTINUOUS
 10
534.3110615082
 20
30.9383121455
 11
533.9641864669
 21
31.0028395296
  0
LINE
  5
275
100
AcDbEntity
  8
0
100
AcDbLine
 62
7
  6
CONTINUOUS
 10
536.7391865909
 20
31.6803770123
 11
536.8548114807
 21
31.6481133259
  0
LINE
  5
276
100
AcDbEntity
  8
0
100
AcDbLine
 62
7
  6
CONTINUOUS
 10
539.0516867012
 20
31.6803770123
 11
539.1673112601
 21
31.6481133259
  0
LINE
  5
277
100
AcDbEntity
  8
0
100
AcDbLine
 62
7
  6
CONTINUOUS
 10
543.3876242012
 20
30.9705758432
 11
543.2719989807
 21
31.0028395296
  0
LINE
  5
278
100
AcDbEntity
  8
0
100
AcDbLine
 62
7
  6
CONTINUOUS
 10
541.8844989807
 20
31.6803770123
 11
542.0001242012
 21
31.6481133259
  0
LINE
  5
279
100
AcDbEntity
  8
0
100
AcDbLine
 62
7
  6
CONTINUOUS
 10
543.0407492012
 20
30.9383121455
 11
543.2141867012
 21
30.873784767
  0
LINE
  5
27A
100
AcDbEntity
  8
0
100
AcDbLine
 62
7
  6
CONTINUOUS
 10
542.2313739807
 20
31.7449043851
 11
542.0579364807
 21
31.809431758
  0
LINE
  5
27B
100
AcDbEntity
  8
0
100
AcDbLine
 62
7
  6
CONTINUOUS
 10
543.4454364807
 20
31.4545312073
 11
543.2719989807
 21
31.5190585802
  0
LINE
  5
27C
100
AcDbEntity
  8
0
100
AcDbLine
 62
7
  6
CONTINUOUS
 10
544.2548117012
 20
31.1964216708
 11
544.4282492012
 21
31.1318942979
  0
LINE
  5
27D
100
AcDbEntity
  8
0
100
AcDbLine
 62
7
  6
CONTINUOUS
 10
544.6594989807
 20
31.7126406987
 11
544.4860614807
 21
31.7771680715
  0
LINE
  5
27E
100
AcDbEntity
  8
0
100
AcDbLine
 62
7
  6
CONTINUOUS
 10
543.0407492012
 20
31.4545312073
 11
543.2719989807
 21
31.3577401029
  0
LINE
  5
27F
100
AcDbEntity
  8
0
100
AcDbLine
 62
7
  6
CONTINUOUS
 10
544.6594989807
 20
31.1964216708
 11
544.4282492012
 21
31.29321273
  0
LINE
  5
280
100
AcDbEntity
  8
0
100
AcDbLine
 62
7
  6
CONTINUOUS
 10
543.2141867012
 20
31.583585953
 11
543.2719989807
 21
31.6481133259
  0
LINE
  5
281
100
AcDbEntity
  8
0
100
AcDbLine
 62
7
  6
CONTINUOUS
 10
533.6751239738
 20
31.7126406987
 11
533.5594989807
 21
31.6481133259
  0
LINE
  5
282
100
AcDbEntity
  8
0
100
AcDbLine
 62
7
  6
CONTINUOUS
 10
533.7907489669
 20
31.5513222666
 11
533.9641864669
 21
31.6481133259
  0
LINE
  5
283
100
AcDbEntity
  8
0
100
AcDbLine
 62
7
  6
CONTINUOUS
 10
536.1032490358
 20
31.7449043851
 11
535.9876239807
 21
31.6803770123
  0
LINE
  5
284
100
AcDbEntity
  8
0
100
AcDbLine
 62
7
  6
CONTINUOUS
 10
535.9876239807
 20
31.5513222666
 11
536.1032490358
 21
31.6158496394
  0
LINE
  5
285
100
AcDbEntity
  8
0
100
AcDbLine
 62
7
  6
CONTINUOUS
 10
535.0048114255
 20
30.9060484591
 11
535.1782489255
 21
31.0028395296
  0
LINE
  5
286
100
AcDbEntity
  8
0
100
AcDbLine
 62
7
  6
CONTINUOUS
 10
534.0219989944
 20
30.8415210777
 11
534.3688739531
 21
30.8092573885
  0
LINE
  5
287
100
AcDbEntity
  8
0
100
AcDbLine
 62
7
  6
CONTINUOUS
 10
538.1266865909
 20
30.8415210777
 11
538.3579363704
 21
30.8092573885
  0
LINE
  5
288
100
AcDbEntity
  8
0
100
AcDbLine
 62
7
  6
CONTINUOUS
 10
536.5079364807
 20
31.7126406987
 11
536.7391865909
 21
31.6803770123
  0
LINE
  5
289
100
AcDbEntity
  8
0
100
AcDbLine
 62
7
  6
CONTINUOUS
 10
538.8204365909
 20
31.7126406987
 11
539.0516867012
 21
31.6803770123
  0
LINE
  5
28A
100
AcDbEntity
  8
0
100
AcDbLine
 62
7
  6
CONTINUOUS
 10
543.2719989807
 20
31.3577401029
 11
544.2548117012
 21
31.1964216708
  0
LINE
  5
28B
100
AcDbEntity
  8
0
100
AcDbLine
 62
7
  6
CONTINUOUS
 10
544.4282492012
 20
31.29321273
 11
543.4454364807
 21
31.4545312073
  0
LINE
  5
28C
100
AcDbEntity
  8
0
100
AcDbLine
 62
7
  6
CONTINUOUS
 10
536.9126240909
 20
31.809431758
 11
536.7391865909
 21
31.8416954444
  0
LINE
  5
28D
100
AcDbEntity
  8
0
100
AcDbLine
 62
7
  6
CONTINUOUS
 10
543.2141867012
 20
30.873784767
 11
543.3876242012
 21
30.8415210777
  0
LINE
  5
28E
100
AcDbEntity
  8
0
100
AcDbLine
 62
7
  6
CONTINUOUS
 10
542.0579364807
 20
31.809431758
 11
541.8844989807
 21
31.8416954444
  0
LINE
  5
28F
100
AcDbEntity
  8
0
100
AcDbLine
 62
7
  6
CONTINUOUS
 10
544.3126239807
 20
31.6803770123
 11
544.4282492012
 21
31.6481133259
  0
LINE
  5
290
100
AcDbEntity
  8
0
100
AcDbLine
 62
7
  6
CONTINUOUS
 10
544.4860614807
 20
31.0673669025
 11
544.4282492012
 21
31.0028395296
  0
LINE
  5
291
100
AcDbEntity
  8
0
100
AcDbLine
 62
7
  6
CONTINUOUS
 10
543.0407492012
 20
31.7449043851
 11
542.9251239807
 21
31.6481133259
  0
LINE
  5
292
100
AcDbEntity
  8
0
100
AcDbLine
 62
7
  6
CONTINUOUS
 10
537.9532490909
 20
31.7771680715
 11
537.8376238704
 21
31.7126406987
  0
LINE
  5
293
100
AcDbEntity
  8
0
100
AcDbLine
 62
7
  6
CONTINUOUS
 10
538.0110613704
 20
31.3900038345
 11
537.8954364807
 21
31.3254764164
  0
LINE
  5
294
100
AcDbEntity
  8
0
100
AcDbLine
 62
7
  6
CONTINUOUS
 10
538.1266865909
 20
31.2286853572
 11
538.2423114807
 21
31.29321273
  0
LINE
  5
295
100
AcDbEntity
  8
0
100
AcDbLine
 62
7
  6
CONTINUOUS
 10
535.6985614255
 20
30.8092573885
 11
535.9876239807
 21
30.8092573885
  0
LINE
  5
296
100
AcDbEntity
  8
0
100
AcDbLine
 62
7
  6
CONTINUOUS
 10
537.0282489807
 20
30.8092573885
 11
537.3173113704
 21
30.8092573885
  0
LINE
  5
297
100
AcDbEntity
  8
0
100
AcDbLine
 62
7
  6
CONTINUOUS
 10
538.3579363704
 20
30.8092573885
 11
538.7048113704
 21
30.8092573885
  0
LINE
  5
298
100
AcDbEntity
  8
0
100
AcDbLine
 62
7
  6
CONTINUOUS
 10
539.3407487601
 20
30.8092573885
 11
539.6298114807
 21
30.8092573885
  0
LINE
  5
299
100
AcDbEntity
  8
0
100
AcDbLine
 62
7
  6
CONTINUOUS
 10
540.0923117012
 20
30.8092573885
 11
540.3813737601
 21
30.8092573885
  0
LINE
  5
29A
100
AcDbEntity
  8
0
100
AcDbLine
 62
7
  6
CONTINUOUS
 10
540.8438739807
 20
30.8092573885
 11
541.1329367012
 21
30.8092573885
  0
LINE
  5
29B
100
AcDbEntity
  8
0
100
AcDbLine
 62
7
  6
CONTINUOUS
 10
542.1735617012
 20
30.8092573885
 11
542.4626237601
 21
30.8092573885
  0
LINE
  5
29C
100
AcDbEntity
  8
0
100
AcDbLine
 62
7
  6
CONTINUOUS
 10
543.7344992012
 20
30.8092573885
 11
544.0813742012
 21
30.8092573885
  0
LINE
  5
29D
100
AcDbEntity
  8
0
100
AcDbLine
 62
7
  6
CONTINUOUS
 10
544.0813742012
 20
30.9383121455
 11
543.7344992012
 21
30.9383121455
  0
LINE
  5
29E
100
AcDbEntity
  8
0
100
AcDbLine
 62
7
  6
CONTINUOUS
 10
538.7048113704
 20
30.9383121455
 11
538.3579363704
 21
30.9383121455
  0
LINE
  5
29F
100
AcDbEntity
  8
0
100
AcDbLine
 62
7
  6
CONTINUOUS
 10
543.2141867012
 20
31.0673669025
 11
542.9251239807
 21
31.0673669025
  0
LINE
  5
2A0
100
AcDbEntity
  8
0
100
AcDbLine
 62
7
  6
CONTINUOUS
 10
535.2360615358
 20
31.1318942979
 11
534.9469989807
 21
31.1318942979
  0
LINE
  5
2A1
100
AcDbEntity
  8
0
100
AcDbLine
 62
7
  6
CONTINUOUS
 10
534.3110615082
 20
31.7126406987
 11
534.7157489531
 21
31.6803770123
  0
LINE
  5
2A2
100
AcDbEntity
  8
0
100
AcDbLine
 62
7
  6
CONTINUOUS
 10
534.7735614807
 20
31.809431758
 11
534.3688739531
 21
31.8416954444
  0
LINE
  5
2A3
100
AcDbEntity
  8
0
100
AcDbLine
 62
7
  6
CONTINUOUS
 10
543.3876242012
 20
30.8415210777
 11
543.7344992012
 21
30.8092573885
  0
LINE
  5
2A4
100
AcDbEntity
  8
0
100
AcDbLine
 62
7
  6
CONTINUOUS
 10
543.7344992012
 20
30.9383121455
 11
543.3876242012
 21
30.9705758432
  0
LINE
  5
2A5
100
AcDbEntity
  8
0
100
AcDbLine
 62
7
  6
CONTINUOUS
 10
539.1673112601
 20
31.809431758
 11
538.8204365909
 21
31.8416954444
  0
LINE
  5
2A6
100
AcDbEntity
  8
0
100
AcDbLine
 62
7
  6
CONTINUOUS
 10
543.9657489807
 20
31.7126406987
 11
544.3126239807
 21
31.6803770123
  0
LINE
  5
2A7
100
AcDbEntity
  8
0
100
AcDbLine
 62
7
  6
CONTINUOUS
 10
544.3126239807
 20
31.809431758
 11
543.9657489807
 21
31.8416954444
  0
LINE
  5
2A8
100
AcDbEntity
  8
0
100
AcDbLine
 62
7
  6
CONTINUOUS
 10
541.6532492012
 20
31.7126406987
 11
541.8844989807
 21
31.6803770123
  0
LINE
  5
2A9
100
AcDbEntity
  8
0
100
AcDbLine
 62
7
  6
CONTINUOUS
 10
544.4860614807
 20
31.7771680715
 11
544.3126239807
 21
31.809431758
  0
LINE
  5
2AA
100
AcDbEntity
  8
0
100
AcDbLine
 62
7
  6
CONTINUOUS
 10
544.6594989807
 20
30.9060484591
 11
544.7751235396
 21
31.0028395296
  0
LINE
  5
2AB
100
AcDbEntity
  8
0
100
AcDbLine
 62
7
  6
CONTINUOUS
 10
539.1673112601
 20
31.0996306115
 11
538.9938737601
 21
31.0028395296
  0
LINE
  5
2AC
100
AcDbEntity
  8
0
100
AcDbLine
 62
7
  6
CONTINUOUS
 10
541.2485612601
 20
31.7449043851
 11
541.1329367012
 21
31.6803770123
  0
LINE
  5
2AD
100
AcDbEntity
  8
0
100
AcDbLine
 62
7
  6
CONTINUOUS
 10
541.1329367012
 20
31.5513222666
 11
541.2485612601
 21
31.6158496394
  0
LINE
  5
2AE
100
AcDbEntity
  8
0
100
AcDbLine
 62
7
  6
CONTINUOUS
 10
533.8485614944
 20
31.7771680715
 11
533.6751239738
 21
31.7126406987
  0
LINE
  5
2AF
100
AcDbEntity
  8
0
100
AcDbLine
 62
7
  6
CONTINUOUS
 10
536.2766863704
 20
31.809431758
 11
536.1032490358
 21
31.7449043851
  0
LINE
  5
2B0
100
AcDbEntity
  8
0
100
AcDbLine
 62
7
  6
CONTINUOUS
 10
536.1032490358
 20
31.6158496394
 11
536.2766863704
 21
31.6803770123
  0
LINE
  5
2B1
100
AcDbEntity
  8
0
100
AcDbLine
 62
7
  6
CONTINUOUS
 10
534.8891865358
 20
31.035103216
 11
534.7157489531
 21
30.9705758432
  0
LINE
  5
2B2
100
AcDbEntity
  8
0
100
AcDbLine
 62
7
  6
CONTINUOUS
 10
544.3126239807
 20
30.9705758432
 11
544.0813742012
 21
30.9383121455
  0
LINE
  5
2B3
100
AcDbEntity
  8
0
100
AcDbLine
 62
7
  6
CONTINUOUS
 10
538.7048113704
 20
30.8092573885
 11
538.9938737601
 21
30.8415210777
  0
LINE
  5
2B4
100
AcDbEntity
  8
0
100
AcDbLine
 62
7
  6
CONTINUOUS
 10
544.0813742012
 20
30.8092573885
 11
544.4282492012
 21
30.8415210777
  0
LINE
  5
2B5
100
AcDbEntity
  8
0
100
AcDbLine
 62
7
  6
CONTINUOUS
 10
534.3688739531
 20
30.8092573885
 11
534.7735614807
 21
30.8415210777
  0
LINE
  5
2B6
100
AcDbEntity
  8
0
100
AcDbLine
 62
7
  6
CONTINUOUS
 10
534.7157489531
 20
30.9705758432
 11
534.3110615082
 21
30.9383121455
  0
LINE
  5
2B7
100
AcDbEntity
  8
0
100
AcDbLine
 62
7
  6
CONTINUOUS
 10
538.5891864807
 20
31.3577401029
 11
539.2251242012
 21
31.3577401029
  0
LINE
  5
2B8
100
AcDbEntity
  8
0
100
AcDbLine
 62
7
  6
CONTINUOUS
 10
539.2251242012
 20
31.4867948937
 11
538.5891864807
 21
31.4867948937
  0
LINE
  5
2B9
100
AcDbEntity
  8
0
100
AcDbLine
 62
7
  6
CONTINUOUS
 10
534.9469989807
 20
31.5190585802
 11
535.2360615358
 21
31.5190585802
  0
LINE
  5
2BA
100
AcDbEntity
  8
0
100
AcDbLine
 62
7
  6
CONTINUOUS
 10
537.7798115909
 20
31.583585953
 11
538.0688739807
 21
31.583585953
  0
LINE
  5
2BB
100
AcDbEntity
  8
0
100
AcDbLine
 62
7
  6
CONTINUOUS
 10
544.4860614807
 20
31.583585953
 11
544.7751235396
 21
31.583585953
  0
LINE
  5
2BC
100
AcDbEntity
  8
0
100
AcDbLine
 62
7
  6
CONTINUOUS
 10
538.4735615909
 20
31.7126406987
 11
538.8204365909
 21
31.7126406987
  0
LINE
  5
2BD
100
AcDbEntity
  8
0
100
AcDbLine
 62
7
  6
CONTINUOUS
 10
543.6188739807
 20
31.7126406987
 11
543.9657489807
 21
31.7126406987
  0
LINE
  5
2BE
100
AcDbEntity
  8
0
100
AcDbLine
 62
7
  6
CONTINUOUS
 10
543.9657489807
 20
31.8416954444
 11
543.6188739807
 21
31.8416954444
  0
LINE
  5
2BF
100
AcDbEntity
  8
0
100
AcDbLine
 62
7
  6
CONTINUOUS
 10
541.8844989807
 20
31.8416954444
 11
541.6532492012
 21
31.8416954444
  0
LINE
  5
2C0
100
AcDbEntity
  8
0
100
AcDbLine
 62
7
  6
CONTINUOUS
 10
541.1329367012
 20
31.8416954444
 11
540.8438739807
 21
31.8416954444
  0
LINE
  5
2C1
100
AcDbEntity
  8
0
100
AcDbLine
 62
7
  6
CONTINUOUS
 10
540.3813737601
 20
31.8416954444
 11
540.0923117012
 21
31.8416954444
  0
LINE
  5
2C2
100
AcDbEntity
  8
0
100
AcDbLine
 62
7
  6
CONTINUOUS
 10
538.8204365909
 20
31.8416954444
 11
538.4735615909
 21
31.8416954444
  0
LINE
  5
2C3
100
AcDbEntity
  8
0
100
AcDbLine
 62
7
  6
CONTINUOUS
 10
536.7391865909
 20
31.8416954444
 11
536.5079364807
 21
31.8416954444
  0
LINE
  5
2C4
100
AcDbEntity
  8
0
100
AcDbLine
 62
7
  6
CONTINUOUS
 10
540.0923117012
 20
32.164332399
 11
540.3813737601
 21
32.164332399
  0
LINE
  5
2C5
100
AcDbEntity
  8
0
100
AcDbLine
 62
7
  6
CONTINUOUS
 10
540.3813737601
 20
32.3256508311
 11
540.0923117012
 21
32.3256508311
  0
LINE
  5
2C6
100
AcDbEntity
  8
0
100
AcDbLine
 62
7
  6
CONTINUOUS
 10
535.9876239807
 20
32.3256508311
 11
535.6985614255
 21
32.3256508311
  0
LINE
  5
2C7
100
AcDbEntity
  8
0
100
AcDbLine
 62
7
  6
CONTINUOUS
 10
535.025405743
 20
32.612536077
 11
535.4379770916
 21
32.612536077
  0
LINE
  5
2C8
100
AcDbEntity
  8
0
100
AcDbLine
 62
7
  6
CONTINUOUS
 10
536.6647500053
 20
32.612536077
 11
538.0581926282
 21
32.612536077
  0
LINE
  5
2C9
100
AcDbEntity
  8
0
100
AcDbLine
 62
7
  6
CONTINUOUS
 10
538.3860614807
 20
32.612536077
 11
539.7795041036
 21
32.612536077
  0
LINE
  5
2CA
100
AcDbEntity
  8
0
100
AcDbLine
 62
7
  6
CONTINUOUS
 10
541.6647500053
 20
32.612536077
 11
543.0581926282
 21
32.612536077
  0
LINE
  5
2CB
100
AcDbEntity
  8
0
100
AcDbLine
 62
7
  6
CONTINUOUS
 10
543.3860614807
 20
32.612536077
 11
544.7795041036
 21
32.612536077
  0
LINE
  5
2CC
100
AcDbEntity
  8
0
100
AcDbLine
 62
7
  6
CONTINUOUS
 10
541.4219987601
 20
31.809431758
 11
541.2485612601
 21
31.7449043851
  0
LINE
  5
2CD
100
AcDbEntity
  8
0
100
AcDbLine
 62
7
  6
CONTINUOUS
 10
538.9938737601
 20
30.8415210777
 11
539.1673112601
 21
30.9060484591
  0
LINE
  5
2CE
100
AcDbEntity
  8
0
100
AcDbLine
 62
7
  6
CONTINUOUS
 10
544.4282492012
 20
30.8415210777
 11
544.6594989807
 21
30.9060484591
  0
LINE
  5
2CF
100
AcDbEntity
  8
0
100
AcDbLine
 62
7
  6
CONTINUOUS
 10
544.4282492012
 20
31.0028395296
 11
544.3126239807
 21
30.9705758432
  0
LINE
  5
2D0
100
AcDbEntity
  8
0
100
AcDbLine
 62
7
  6
CONTINUOUS
 10
543.3876242012
 20
31.6803770123
 11
543.6188739807
 21
31.7126406987
  0
LINE
  5
2D1
100
AcDbEntity
  8
0
100
AcDbLine
 62
7
  6
CONTINUOUS
 10
541.4219987601
 20
31.6803770123
 11
541.6532492012
 21
31.7126406987
  0
LINE
  5
2D2
100
AcDbEntity
  8
0
100
AcDbLine
 62
7
  6
CONTINUOUS
 10
538.3579363704
 20
31.3254764164
 11
538.5891864807
 21
31.3577401029
  0
LINE
  5
2D3
100
AcDbEntity
  8
0
100
AcDbLine
 62
7
  6
CONTINUOUS
 10
541.6532492012
 20
31.8416954444
 11
541.4219987601
 21
31.809431758
  0
LINE
  5
2D4
100
AcDbEntity
  8
0
100
AcDbLine
 62
7
  6
CONTINUOUS
 10
538.2423114807
 20
31.6803770123
 11
538.4735615909
 21
31.7126406987
  0
LINE
  5
2D5
100
AcDbEntity
  8
0
100
AcDbLine
 62
7
  6
CONTINUOUS
 10
543.6188739807
 20
31.8416954444
 11
543.2719989807
 21
31.809431758
  0
LINE
  5
2D6
100
AcDbEntity
  8
0
100
AcDbLine
 62
7
  6
CONTINUOUS
 10
538.5891864807
 20
31.4867948937
 11
538.2423114807
 21
31.4545312073
  0
LINE
  5
2D7
100
AcDbEntity
  8
0
100
AcDbLine
 62
7
  6
CONTINUOUS
 10
534.3688739531
 20
31.8416954444
 11
534.0219989944
 21
31.809431758
  0
LINE
  5
2D8
100
AcDbEntity
  8
0
100
AcDbLine
 62
7
  6
CONTINUOUS
 10
538.4735615909
 20
31.8416954444
 11
538.0688739807
 21
31.809431758
  0
LINE
  5
2D9
100
AcDbEntity
  8
0
100
AcDbLine
 62
7
  6
CONTINUOUS
 10
535.8450778741
 20
33.7600770606
 11
535.1893401692
 21
33.7600770606
  0
LINE
  5
2DA
100
AcDbEntity
  8
0
100
AcDbLine
 62
7
  6
CONTINUOUS
 10
541.2485612601
 20
31.6158496394
 11
541.4219987601
 21
31.6803770123
  0
LINE
  5
2DB
100
AcDbEntity
  8
0
100
AcDbLine
 62
7
  6
CONTINUOUS
 10
543.2719989807
 20
31.6481133259
 11
543.3876242012
 21
31.6803770123
  0
LINE
  5
2DC
100
AcDbEntity
  8
0
100
AcDbLine
 62
7
  6
CONTINUOUS
 10
543.2719989807
 20
31.809431758
 11
543.0407492012
 21
31.7449043851
  0
LINE
  5
2DD
100
AcDbEntity
  8
0
100
AcDbLine
 62
7
  6
CONTINUOUS
 10
538.9938737601
 20
31.0028395296
 11
538.7048113704
 21
30.9383121455
  0
LINE
  5
2DE
100
AcDbEntity
  8
0
100
AcDbLine
 62
7
  6
CONTINUOUS
 10
536.2766863704
 20
31.6803770123
 11
536.5079364807
 21
31.7126406987
  0
LINE
  5
2DF
100
AcDbEntity
  8
0
100
AcDbLine
 62
7
  6
CONTINUOUS
 10
536.5079364807
 20
31.8416954444
 11
536.2766863704
 21
31.809431758
  0
LINE
  5
2E0
100
AcDbEntity
  8
0
100
AcDbLine
 62
7
  6
CONTINUOUS
 10
534.0798114807
 20
31.6803770123
 11
534.3110615082
 21
31.7126406987
  0
LINE
  5
2E1
100
AcDbEntity
  8
0
100
AcDbLine
 62
7
  6
CONTINUOUS
 10
540.5991762348
 20
35.2354868967
 11
541.2549139397
 21
35.2354868967
  0
LINE
  5
2E2
100
AcDbEntity
  8
0
100
AcDbLine
 62
7
  6
CONTINUOUS
 10
538.2423114807
 20
31.29321273
 11
538.3579363704
 21
31.3254764164
  0
LINE
  5
2E3
100
AcDbEntity
  8
0
100
AcDbLine
 62
7
  6
CONTINUOUS
 10
538.2423114807
 20
31.4545312073
 11
538.0110613704
 21
31.3900038345
  0
LINE
  5
2E4
100
AcDbEntity
  8
0
100
AcDbLine
 62
7
  6
CONTINUOUS
 10
538.1266865909
 20
31.6481133259
 11
538.2423114807
 21
31.6803770123
  0
LINE
  5
2E5
100
AcDbEntity
  8
0
100
AcDbLine
 62
7
  6
CONTINUOUS
 10
534.7735614807
 20
30.8415210777
 11
535.0048114255
 21
30.9060484591
  0
LINE
  5
2E6
100
AcDbEntity
  8
0
100
AcDbLine
 62
7
  6
CONTINUOUS
 10
538.0688739807
 20
31.809431758
 11
537.9532490909
 21
31.7771680715
  0
LINE
  5
2E7
100
AcDbEntity
  8
0
100
AcDbLine
 62
7
  6
CONTINUOUS
 10
534.0219989944
 20
31.809431758
 11
533.8485614944
 21
31.7771680715
  0
LINE
  5
2E8
100
AcDbEntity
  8
0
100
AcDbLine
 62
7
  6
CONTINUOUS
 10
544.7795041036
 20
36.3830278803
 11
543.3860614807
 21
36.3830278803
  0
LINE
  5
2E9
100
AcDbEntity
  8
0
100
AcDbLine
 62
7
  6
CONTINUOUS
 10
541.4188483659
 20
36.3830278803
 11
541.0062770173
 21
36.3830278803
  0
LINE
  5
2EA
100
AcDbEntity
  8
0
100
AcDbLine
 62
7
  6
CONTINUOUS
 10
539.7795041036
 20
36.3830278803
 11
538.3860614807
 21
36.3830278803
  0
LINE
  5
2EB
100
AcDbEntity
  8
0
100
AcDbLine
 62
7
  6
CONTINUOUS
 10
538.0581926282
 20
36.3830278803
 11
536.6647500053
 21
36.3830278803
  0
LINE
  5
2EC
100
AcDbEntity
  8
0
100
AcDbLine
 62
7
  6
CONTINUOUS
 10
534.7795041036
 20
36.3830278803
 11
533.3860614807
 21
36.3830278803
  0
LINE
  5
2ED
100
AcDbEntity
  8
0
100
AcDbLine
 62
7
  6
CONTINUOUS
 10
533.9641864669
 20
31.6481133259
 11
534.0798114807
 21
31.6803770123
  0
CIRCLE
  5
2EE
100
AcDbEntity
  8
0
100
AcDbCircle
 62
7
  6
CONTINUOUS
 10
544.0827827921
 20
38.7190934541
 40
2.0901639344
  0
ARC
  5
2EF
100
AcDbEntity
  8
0
100
AcDbCircle
 62
7
  6
CONTINUOUS
 10
535.025405743
 20
34.2518803393
 40
1.6393442623
100
AcDbArc
 50
180.0
 51
270.0
  0
ARC
  5
2F0
100
AcDbEntity
  8
0
100
AcDbCircle
 62
7
  6
CONTINUOUS
 10
541.4188483659
 20
34.743683618
 40
1.6393442623
100
AcDbArc
 50
0.0
 51
90.0
  0
ARC
  5
2F1
100
AcDbEntity
  8
0
100
AcDbCircle
 62
7
  6
CONTINUOUS
 10
535.4379770916
 20
34.0879459131
 40
1.4754098361
100
AcDbArc
 50
270.0
 51
326.2510114041
  0
ARC
  5
2F2
100
AcDbEntity
  8
0
100
AcDbCircle
 62
7
  6
CONTINUOUS
 10
541.0062770173
 20
34.9076180442
 40
1.4754098361
100
AcDbArc
 50
90.0
 51
146.2510114041
  0
ARC
  5
2F3
100
AcDbEntity
  8
0
100
AcDbCircle
 62
7
  6
CONTINUOUS
 10
535.8450778741
 20
34.5797491918
 40
0.8196721311
100
AcDbArc
 50
270.0
 51
360.0
  0
ARC
  5
2F4
100
AcDbEntity
  8
0
100
AcDbCircle
 62
7
  6
CONTINUOUS
 10
540.5991762348
 20
34.4158147655
 40
0.8196721311
100
AcDbArc
 50
90.0
 51
180.0
  0
ARC
  5
2F5
100
AcDbEntity
  8
0
100
AcDbCircle
 62
7
  6
CONTINUOUS
 10
535.1893401692
 20
34.1699131262
 40
0.4098360656
100
AcDbArc
 50
180.0
 51
270.0
  0
ARC
  5
2F6
100
AcDbEntity
  8
0
100
AcDbCircle
 62
7
  6
CONTINUOUS
 10
541.2549139397
 20
34.8256508311
 40
0.4098360656
100
AcDbArc
 50
0.0
 51
90.0
  0
SOLID
  5
2F7
100
AcDbEntity
  8
0
100
AcDbTrace
 62
7
  6
CONTINUOUS
 10
540.0923117012
 20
32.1643327593
 11
540.0923117012
 21
32.3256512429
 12
540.3813737601
 22
32.1643327593
 13
540.3813737601
 23
32.3256512429
  0
LWPOLYLINE
  5
2F8
100
AcDbEntity
  8
0
100
AcDbPolyline
 62
7
  6
CONTINUOUS
 90
13
 70
0
 10
534.3688739531
 20
31.841695792
 10
534.7735614807
 20
31.8094314888
 10
535.0048114255
 20
31.7449043986
 10
535.1782489255
 20
31.6481130052
 10
535.2360615358
 20
31.5190588248
 10
534.9469989807
 20
31.5190588248
 10
534.8891865358
 20
31.6158502183
 10
534.7157489531
 20
31.6803773084
 10
534.3110615082
 20
31.7126400953
 10
533.6751239738
 20
31.7126400953
 10
533.8485614944
 20
31.7771687019
 10
534.0219989944
 20
31.8094314888
 10
534.3688739531
 20
31.841695792
  0
HATCH
  5
2F9
100
AcDbEntity
  8
0
100
AcDbHatch
 62
7
  6
CONTINUOUS
 10
0.0
 20
0.0
 30
0.0
210
0.0
220
0.0
230
1.0
  2
SOLID
 70
1
 71
1
 91
1
 92
1
 93
12
 72
1
 10
534.3688739531
 20
31.841695792
 11
534.7735614807
 21
31.8094314888
 72
1
 10
534.7735614807
 20
31.8094314888
 11
535.0048114255
 21
31.7449043986
 72
1
 10
535.0048114255
 20
31.7449043986
 11
535.1782489255
 21
31.6481130052
 72
1
 10
535.1782489255
 20
31.6481130052
 11
535.2360615358
 21
31.5190588248
 72
1
 10
535.2360615358
 20
31.5190588248
 11
534.9469989807
 21
31.5190588248
 72
1
 10
534.9469989807
 20
31.5190588248
 11
534.8891865358
 21
31.6158502183
 72
1
 10
534.8891865358
 20
31.6158502183
 11
534.7157489531
 21
31.6803773084
 72
1
 10
534.7157489531
 20
31.6803773084
 11
534.3110615082
 21
31.7126400953
 72
1
 10
534.3110615082
 20
31.7126400953
 11
533.6751239738
 21
31.7126400953
 72
1
 10
533.6751239738
 20
31.7126400953
 11
533.8485614944
 21
31.7771687019
 72
1
 10
533.8485614944
 20
31.7771687019
 11
534.0219989944
 21
31.8094314888
 72
1
 10
534.0219989944
 20
31.8094314888
 11
534.3688739531
 21
31.841695792
 97
1
330
2F8
 75
0
 76
1
 98
1
 10
0.0
 20
0.0
  0
LWPOLYLINE
  5
2FA
100
AcDbEntity
  8
0
100
AcDbPolyline
 62
7
  6
CONTINUOUS
 90
25
 70
0
 10
536.2766863704
 20
31.8094314888
 10
536.5079364807
 20
31.841695792
 10
536.7391865909
 20
31.841695792
 10
536.9126240909
 20
31.8094314888
 10
537.0860615909
 20
31.7449043986
 10
537.2016864807
 20
31.6803773084
 10
537.2594990909
 20
31.6158502183
 10
537.3173113704
 20
31.4545317347
 10
537.3173113704
 20
30.8092578002
 10
537.0282489807
 20
30.8092578002
 10
537.0282489807
 20
31.4545317347
 10
536.9704363704
 20
31.583585915
 10
536.8548114807
 20
31.6481130052
 10
536.7391865909
 20
31.6803773084
 10
536.5079364807
 20
31.7126400953
 10
536.2766863704
 20
31.6803773084
 10
536.1032490358
 20
31.6158502183
 10
535.9876239807
 20
31.5513216117
 10
535.9876239807
 20
30.8092578002
 10
535.6985614255
 20
30.8092578002
 10
535.6985614255
 20
32.3256512429
 10
535.9876239807
 20
32.3256512429
 10
535.9876239807
 20
31.6803773084
 10
536.1032490358
 20
31.7449043986
 10
536.2766863704
 20
31.8094314888
  0
HATCH
  5
2FB
100
AcDbEntity
  8
0
100
AcDbHatch
 62
7
  6
CONTINUOUS
 10
0.0
 20
0.0
 30
0.0
210
0.0
220
0.0
230
1.0
  2
SOLID
 70
1
 71
1
 91
1
 92
1
 93
24
 72
1
 10
536.2766863704
 20
31.8094314888
 11
536.5079364807
 21
31.841695792
 72
1
 10
536.5079364807
 20
31.841695792
 11
536.7391865909
 21
31.841695792
 72
1
 10
536.7391865909
 20
31.841695792
 11
536.9126240909
 21
31.8094314888
 72
1
 10
536.9126240909
 20
31.8094314888
 11
537.0860615909
 21
31.7449043986
 72
1
 10
537.0860615909
 20
31.7449043986
 11
537.2016864807
 21
31.6803773084
 72
1
 10
537.2016864807
 20
31.6803773084
 11
537.2594990909
 21
31.6158502183
 72
1
 10
537.2594990909
 20
31.6158502183
 11
537.3173113704
 21
31.4545317347
 72
1
 10
537.3173113704
 20
31.4545317347
 11
537.3173113704
 21
30.8092578002
 72
1
 10
537.3173113704
 20
30.8092578002
 11
537.0282489807
 21
30.8092578002
 72
1
 10
537.0282489807
 20
30.8092578002
 11
537.0282489807
 21
31.4545317347
 72
1
 10
537.0282489807
 20
31.4545317347
 11
536.9704363704
 21
31.583585915
 72
1
 10
536.9704363704
 20
31.583585915
 11
536.8548114807
 21
31.6481130052
 72
1
 10
536.8548114807
 20
31.6481130052
 11
536.7391865909
 21
31.6803773084
 72
1
 10
536.7391865909
 20
31.6803773084
 11
536.5079364807
 21
31.7126400953
 72
1
 10
536.5079364807
 20
31.7126400953
 11
536.2766863704
 21
31.6803773084
 72
1
 10
536.2766863704
 20
31.6803773084
 11
536.1032490358
 21
31.6158502183
 72
1
 10
536.1032490358
 20
31.6158502183
 11
535.9876239807
 21
31.5513216117
 72
1
 10
535.9876239807
 20
31.5513216117
 11
535.9876239807
 21
30.8092578002
 72
1
 10
535.9876239807
 20
30.8092578002
 11
535.6985614255
 21
30.8092578002
 72
1
 10
535.6985614255
 20
30.8092578002
 11
535.6985614255
 21
32.3256512429
 72
1
 10
535.6985614255
 20
32.3256512429
 11
535.9876239807
 21
32.3256512429
 72
1
 10
535.9876239807
 20
32.3256512429
 11
535.9876239807
 21
31.6803773084
 72
1
 10
535.9876239807
 20
31.6803773084
 11
536.1032490358
 21
31.7449043986
 72
1
 10
536.1032490358
 20
31.7449043986
 11
536.2766863704
 21
31.8094314888
 97
1
330
2FA
 75
0
 76
1
 98
1
 10
0.0
 20
0.0
  0
LWPOLYLINE
  5
2FC
100
AcDbEntity
  8
0
100
AcDbPolyline
 62
7
  6
CONTINUOUS
 90
20
 70
0
 10
538.0688739807
 20
31.8094314888
 10
538.4735615909
 20
31.841695792
 10
538.8204365909
 20
31.841695792
 10
539.1673112601
 20
31.8094314888
 10
539.3407487601
 20
31.7449043986
 10
539.4563739807
 20
31.6803773084
 10
539.5141862601
 20
31.583585915
 10
539.5141862601
 20
31.0673661609
 10
539.2251242012
 20
31.1641579843
 10
539.2251242012
 20
31.3577403412
 10
539.2251242012
 20
31.4867945216
 10
539.2251242012
 20
31.583585915
 10
539.1673112601
 20
31.6481130052
 10
539.0516867012
 20
31.6803773084
 10
538.8204365909
 20
31.7126400953
 10
538.4735615909
 20
31.7126400953
 10
537.7798115909
 20
31.6481130052
 10
537.8376238704
 20
31.7126400953
 10
537.9532490909
 20
31.7771687019
 10
538.0688739807
 20
31.8094314888
  0
HATCH
  5
2FD
100
AcDbEntity
  8
0
100
AcDbHatch
 62
7
  6
CONTINUOUS
 10
0.0
 20
0.0
 30
0.0
210
0.0
220
0.0
230
1.0
  2
SOLID
 70
1
 71
1
 91
1
 92
1
 93
19
 72
1
 10
538.0688739807
 20
31.8094314888
 11
538.4735615909
 21
31.841695792
 72
1
 10
538.4735615909
 20
31.841695792
 11
538.8204365909
 21
31.841695792
 72
1
 10
538.8204365909
 20
31.841695792
 11
539.1673112601
 21
31.8094314888
 72
1
 10
539.1673112601
 20
31.8094314888
 11
539.3407487601
 21
31.7449043986
 72
1
 10
539.3407487601
 20
31.7449043986
 11
539.4563739807
 21
31.6803773084
 72
1
 10
539.4563739807
 20
31.6803773084
 11
539.5141862601
 21
31.583585915
 72
1
 10
539.5141862601
 20
31.583585915
 11
539.5141862601
 21
31.0673661609
 72
1
 10
539.5141862601
 20
31.0673661609
 11
539.2251242012
 21
31.1641579843
 72
1
 10
539.2251242012
 20
31.1641579843
 11
539.2251242012
 21
31.3577403412
 72
1
 10
539.2251242012
 20
31.3577403412
 11
539.2251242012
 21
31.4867945216
 72
1
 10
539.2251242012
 20
31.4867945216
 11
539.2251242012
 21
31.583585915
 72
1
 10
539.2251242012
 20
31.583585915
 11
539.1673112601
 21
31.6481130052
 72
1
 10
539.1673112601
 20
31.6481130052
 11
539.0516867012
 21
31.6803773084
 72
1
 10
539.0516867012
 20
31.6803773084
 11
538.8204365909
 21
31.7126400953
 72
1
 10
538.8204365909
 20
31.7126400953
 11
538.4735615909
 21
31.7126400953
 72
1
 10
538.4735615909
 20
31.7126400953
 11
537.7798115909
 21
31.6481130052
 72
1
 10
537.7798115909
 20
31.6481130052
 11
537.8376238704
 21
31.7126400953
 72
1
 10
537.8376238704
 20
31.7126400953
 11
537.9532490909
 21
31.7771687019
 72
1
 10
537.9532490909
 20
31.7771687019
 11
538.0688739807
 21
31.8094314888
 97
1
330
2FC
 75
0
 76
1
 98
1
 10
0.0
 20
0.0
  0
LWPOLYLINE
  5
2FE
100
AcDbEntity
  8
0
100
AcDbPolyline
 62
7
  6
CONTINUOUS
 90
25
 70
0
 10
541.4219987601
 20
31.8094314888
 10
541.6532492012
 20
31.841695792
 10
541.8844989807
 20
31.841695792
 10
542.0579364807
 20
31.8094314888
 10
542.2313739807
 20
31.7449043986
 10
542.3469992012
 20
31.6803773084
 10
542.4048114807
 20
31.583585915
 10
542.4626237601
 20
31.4222674314
 10
542.4626237601
 20
30.8092578002
 10
542.1735617012
 20
30.8092578002
 10
542.1735617012
 20
31.4222674314
 10
542.1157487601
 20
31.583585915
 10
542.0001242012
 20
31.6481130052
 10
541.8844989807
 20
31.6803773084
 10
541.6532492012
 20
31.7126400953
 10
541.4219987601
 20
31.6803773084
 10
541.2485612601
 20
31.6158502183
 10
541.1329367012
 20
31.5513216117
 10
541.1329367012
 20
30.8092578002
 10
540.8438739807
 20
30.8092578002
 10
540.8438739807
 20
31.841695792
 10
541.1329367012
 20
31.841695792
 10
541.1329367012
 20
31.6803773084
 10
541.2485612601
 20
31.7449043986
 10
541.4219987601
 20
31.8094314888
  0
HATCH
  5
2FF
100
AcDbEntity
  8
0
100
AcDbHatch
 62
7
  6
CONTINUOUS
 10
0.0
 20
0.0
 30
0.0
210
0.0
220
0.0
230
1.0
  2
SOLID
 70
1
 71
1
 91
1
 92
1
 93
24
 72
1
 10
541.4219987601
 20
31.8094314888
 11
541.6532492012
 21
31.841695792
 72
1
 10
541.6532492012
 20
31.841695792
 11
541.8844989807
 21
31.841695792
 72
1
 10
541.8844989807
 20
31.841695792
 11
542.0579364807
 21
31.8094314888
 72
1
 10
542.0579364807
 20
31.8094314888
 11
542.2313739807
 21
31.7449043986
 72
1
 10
542.2313739807
 20
31.7449043986
 11
542.3469992012
 21
31.6803773084
 72
1
 10
542.3469992012
 20
31.6803773084
 11
542.4048114807
 21
31.583585915
 72
1
 10
542.4048114807
 20
31.583585915
 11
542.4626237601
 21
31.4222674314
 72
1
 10
542.4626237601
 20
31.4222674314
 11
542.4626237601
 21
30.8092578002
 72
1
 10
542.4626237601
 20
30.8092578002
 11
542.1735617012
 21
30.8092578002
 72
1
 10
542.1735617012
 20
30.8092578002
 11
542.1735617012
 21
31.4222674314
 72
1
 10
542.1735617012
 20
31.4222674314
 11
542.1157487601
 21
31.583585915
 72
1
 10
542.1157487601
 20
31.583585915
 11
542.0001242012
 21
31.6481130052
 72
1
 10
542.0001242012
 20
31.6481130052
 11
541.8844989807
 21
31.6803773084
 72
1
 10
541.8844989807
 20
31.6803773084
 11
541.6532492012
 21
31.7126400953
 72
1
 10
541.6532492012
 20
31.7126400953
 11
541.4219987601
 21
31.6803773084
 72
1
 10
541.4219987601
 20
31.6803773084
 11
541.2485612601
 21
31.6158502183
 72
1
 10
541.2485612601
 20
31.6158502183
 11
541.1329367012
 21
31.5513216117
 72
1
 10
541.1329367012
 20
31.5513216117
 11
541.1329367012
 21
30.8092578002
 72
1
 10
541.1329367012
 20
30.8092578002
 11
540.8438739807
 21
30.8092578002
 72
1
 10
540.8438739807
 20
30.8092578002
 11
540.8438739807
 21
31.841695792
 72
1
 10
540.8438739807
 20
31.841695792
 11
541.1329367012
 21
31.841695792
 72
1
 10
541.1329367012
 20
31.841695792
 11
541.1329367012
 21
31.6803773084
 72
1
 10
541.1329367012
 20
31.6803773084
 11
541.2485612601
 21
31.7449043986
 72
1
 10
541.2485612601
 20
31.7449043986
 11
541.4219987601
 21
31.8094314888
 97
1
330
2FE
 75
0
 76
1
 98
1
 10
0.0
 20
0.0
  0
LWPOLYLINE
  5
300
100
AcDbEntity
  8
0
100
AcDbPolyline
 62
7
  6
CONTINUOUS
 90
6
 70
0
 10
543.2719989807
 20
31.8094314888
 10
543.6188739807
 20
31.841695792
 10
543.9657489807
 20
31.841695792
 10
544.3126239807
 20
31.8094314888
 10
543.0407492012
 20
31.7449043986
 10
543.2719989807
 20
31.8094314888
  0
HATCH
  5
301
100
AcDbEntity
  8
0
100
AcDbHatch
 62
7
  6
CONTINUOUS
 10
0.0
 20
0.0
 30
0.0
210
0.0
220
0.0
230
1.0
  2
SOLID
 70
1
 71
1
 91
1
 92
1
 93
5
 72
1
 10
543.2719989807
 20
31.8094314888
 11
543.6188739807
 21
31.841695792
 72
1
 10
543.6188739807
 20
31.841695792
 11
543.9657489807
 21
31.841695792
 72
1
 10
543.9657489807
 20
31.841695792
 11
544.3126239807
 21
31.8094314888
 72
1
 10
544.3126239807
 20
31.8094314888
 11
543.0407492012
 21
31.7449043986
 72
1
 10
543.0407492012
 20
31.7449043986
 11
543.2719989807
 21
31.8094314888
 97
1
330
300
 75
0
 76
1
 98
1
 10
0.0
 20
0.0
  0
LWPOLYLINE
  5
302
100
AcDbEntity
  8
0
100
AcDbPolyline
 62
7
  6
CONTINUOUS
 90
12
 70
0
 10
544.4860614807
 20
31.7771687019
 10
544.6594989807
 20
31.7126400953
 10
544.7751235396
 20
31.583585915
 10
544.4860614807
 20
31.583585915
 10
544.4282492012
 20
31.6481130052
 10
544.3126239807
 20
31.6803773084
 10
543.9657489807
 20
31.7126400953
 10
543.6188739807
 20
31.7126400953
 10
542.9251239807
 20
31.6481130052
 10
543.0407492012
 20
31.7449043986
 10
544.3126239807
 20
31.8094314888
 10
544.4860614807
 20
31.7771687019
  0
HATCH
  5
303
100
AcDbEntity
  8
0
100
AcDbHatch
 62
7
  6
CONTINUOUS
 10
0.0
 20
0.0
 30
0.0
210
0.0
220
0.0
230
1.0
  2
SOLID
 70
1
 71
1
 91
1
 92
1
 93
11
 72
1
 10
544.4860614807
 20
31.7771687019
 11
544.6594989807
 21
31.7126400953
 72
1
 10
544.6594989807
 20
31.7126400953
 11
544.7751235396
 21
31.583585915
 72
1
 10
544.7751235396
 20
31.583585915
 11
544.4860614807
 21
31.583585915
 72
1
 10
544.4860614807
 20
31.583585915
 11
544.4282492012
 21
31.6481130052
 72
1
 10
544.4282492012
 20
31.6481130052
 11
544.3126239807
 21
31.6803773084
 72
1
 10
544.3126239807
 20
31.6803773084
 11
543.9657489807
 21
31.7126400953
 72
1
 10
543.9657489807
 20
31.7126400953
 11
543.6188739807
 21
31.7126400953
 72
1
 10
543.6188739807
 20
31.7126400953
 11
542.9251239807
 21
31.6481130052
 72
1
 10
542.9251239807
 20
31.6481130052
 11
543.0407492012
 21
31.7449043986
 72
1
 10
543.0407492012
 20
31.7449043986
 11
544.3126239807
 21
31.8094314888
 72
1
 10
544.3126239807
 20
31.8094314888
 11
544.4860614807
 21
31.7771687019
 97
1
330
302
 75
0
 76
1
 98
1
 10
0.0
 20
0.0
  0
LWPOLYLINE
  5
304
100
AcDbEntity
  8
0
100
AcDbPolyline
 62
7
  6
CONTINUOUS
 90
7
 70
0
 10
534.0798114807
 20
31.6803773084
 10
533.9641864669
 20
31.6481130052
 10
533.4438739824
 20
31.5190588248
 10
533.5594989807
 20
31.6481130052
 10
533.6751239738
 20
31.7126400953
 10
534.3110615082
 20
31.7126400953
 10
534.0798114807
 20
31.6803773084
  0
HATCH
  5
305
100
AcDbEntity
  8
0
100
AcDbHatch
 62
7
  6
CONTINUOUS
 10
0.0
 20
0.0
 30
0.0
210
0.0
220
0.0
230
1.0
  2
SOLID
 70
1
 71
1
 91
1
 92
1
 93
6
 72
1
 10
534.0798114807
 20
31.6803773084
 11
533.9641864669
 21
31.6481130052
 72
1
 10
533.9641864669
 20
31.6481130052
 11
533.4438739824
 21
31.5190588248
 72
1
 10
533.4438739824
 20
31.5190588248
 11
533.5594989807
 21
31.6481130052
 72
1
 10
533.5594989807
 20
31.6481130052
 11
533.6751239738
 21
31.7126400953
 72
1
 10
533.6751239738
 20
31.7126400953
 11
534.3110615082
 21
31.7126400953
 72
1
 10
534.3110615082
 20
31.7126400953
 11
534.0798114807
 21
31.6803773084
 97
1
330
304
 75
0
 76
1
 98
1
 10
0.0
 20
0.0
  0
LWPOLYLINE
  5
306
100
AcDbEntity
  8
0
100
AcDbPolyline
 62
7
  6
CONTINUOUS
 90
7
 70
0
 10
538.2423114807
 20
31.6803773084
 10
538.1266865909
 20
31.6481130052
 10
538.0688739807
 20
31.583585915
 10
537.7798115909
 20
31.583585915
 10
537.7798115909
 20
31.6481130052
 10
538.4735615909
 20
31.7126400953
 10
538.2423114807
 20
31.6803773084
  0
HATCH
  5
307
100
AcDbEntity
  8
0
100
AcDbHatch
 62
7
  6
CONTINUOUS
 10
0.0
 20
0.0
 30
0.0
210
0.0
220
0.0
230
1.0
  2
SOLID
 70
1
 71
1
 91
1
 92
1
 93
6
 72
1
 10
538.2423114807
 20
31.6803773084
 11
538.1266865909
 21
31.6481130052
 72
1
 10
538.1266865909
 20
31.6481130052
 11
538.0688739807
 21
31.583585915
 72
1
 10
538.0688739807
 20
31.583585915
 11
537.7798115909
 21
31.583585915
 72
1
 10
537.7798115909
 20
31.583585915
 11
537.7798115909
 21
31.6481130052
 72
1
 10
537.7798115909
 20
31.6481130052
 11
538.4735615909
 21
31.7126400953
 72
1
 10
538.4735615909
 20
31.7126400953
 11
538.2423114807
 21
31.6803773084
 97
1
330
306
 75
0
 76
1
 98
1
 10
0.0
 20
0.0
  0
LWPOLYLINE
  5
308
100
AcDbEntity
  8
0
100
AcDbPolyline
 62
7
  6
CONTINUOUS
 90
8
 70
0
 10
543.3876242012
 20
31.6803773084
 10
543.2719989807
 20
31.6481130052
 10
543.2141867012
 20
31.583585915
 10
543.0407492012
 20
31.4545317347
 10
542.9251239807
 20
31.583585915
 10
542.9251239807
 20
31.6481130052
 10
543.6188739807
 20
31.7126400953
 10
543.3876242012
 20
31.6803773084
  0
HATCH
  5
309
100
AcDbEntity
  8
0
100
AcDbHatch
 62
7
  6
CONTINUOUS
 10
0.0
 20
0.0
 30
0.0
210
0.0
220
0.0
230
1.0
  2
SOLID
 70
1
 71
1
 91
1
 92
1
 93
7
 72
1
 10
543.3876242012
 20
31.6803773084
 11
543.2719989807
 21
31.6481130052
 72
1
 10
543.2719989807
 20
31.6481130052
 11
543.2141867012
 21
31.583585915
 72
1
 10
543.2141867012
 20
31.583585915
 11
543.0407492012
 21
31.4545317347
 72
1
 10
543.0407492012
 20
31.4545317347
 11
542.9251239807
 21
31.583585915
 72
1
 10
542.9251239807
 20
31.583585915
 11
542.9251239807
 21
31.6481130052
 72
1
 10
542.9251239807
 20
31.6481130052
 11
543.6188739807
 21
31.7126400953
 72
1
 10
543.6188739807
 20
31.7126400953
 11
543.3876242012
 21
31.6803773084
 97
1
330
308
 75
0
 76
1
 98
1
 10
0.0
 20
0.0
  0
LWPOLYLINE
  5
30A
100
AcDbEntity
  8
0
100
AcDbPolyline
 62
7
  6
CONTINUOUS
 90
6
 70
0
 10
533.7907489669
 20
31.5513216117
 10
533.7329364807
 20
31.4867945216
 10
533.3860614807
 20
31.325476038
 10
533.4438739824
 20
31.5190588248
 10
533.9641864669
 20
31.6481130052
 10
533.7907489669
 20
31.5513216117
  0
HATCH
  5
30B
100
AcDbEntity
  8
0
100
AcDbHatch
 62
7
  6
CONTINUOUS
 10
0.0
 20
0.0
 30
0.0
210
0.0
220
0.0
230
1.0
  2
SOLID
 70
1
 71
1
 91
1
 92
1
 93
5
 72
1
 10
533.7907489669
 20
31.5513216117
 11
533.7329364807
 21
31.4867945216
 72
1
 10
533.7329364807
 20
31.4867945216
 11
533.3860614807
 21
31.325476038
 72
1
 10
533.3860614807
 20
31.325476038
 11
533.4438739824
 21
31.5190588248
 72
1
 10
533.4438739824
 20
31.5190588248
 11
533.9641864669
 21
31.6481130052
 72
1
 10
533.9641864669
 20
31.6481130052
 11
533.7907489669
 21
31.5513216117
 97
1
330
30A
 75
0
 76
1
 98
1
 10
0.0
 20
0.0
  0
LWPOLYLINE
  5
30C
100
AcDbEntity
  8
0
100
AcDbPolyline
 62
7
  6
CONTINUOUS
 90
7
 70
0
 10
538.2423114807
 20
31.4545317347
 10
538.5891864807
 20
31.4867945216
 10
539.2251242012
 20
31.4867945216
 10
539.2251242012
 20
31.3577403412
 10
538.5891864807
 20
31.3577403412
 10
538.0110613704
 20
31.3900038345
 10
538.2423114807
 20
31.4545317347
  0
HATCH
  5
30D
100
AcDbEntity
  8
0
100
AcDbHatch
 62
7
  6
CONTINUOUS
 10
0.0
 20
0.0
 30
0.0
210
0.0
220
0.0
230
1.0
  2
SOLID
 70
1
 71
1
 91
1
 92
1
 93
6
 72
1
 10
538.2423114807
 20
31.4545317347
 11
538.5891864807
 21
31.4867945216
 72
1
 10
538.5891864807
 20
31.4867945216
 11
539.2251242012
 21
31.4867945216
 72
1
 10
539.2251242012
 20
31.4867945216
 11
539.2251242012
 21
31.3577403412
 72
1
 10
539.2251242012
 20
31.3577403412
 11
538.5891864807
 21
31.3577403412
 72
1
 10
538.5891864807
 20
31.3577403412
 11
538.0110613704
 21
31.3900038345
 72
1
 10
538.0110613704
 20
31.3900038345
 11
538.2423114807
 21
31.4545317347
 97
1
330
30C
 75
0
 76
1
 98
1
 10
0.0
 20
0.0
  0
LWPOLYLINE
  5
30E
100
AcDbEntity
  8
0
100
AcDbPolyline
 62
7
  6
CONTINUOUS
 90
24
 70
0
 10
543.2719989807
 20
31.5190588248
 10
543.4454364807
 20
31.4545317347
 10
544.4282492012
 20
31.2932132511
 10
544.6594989807
 20
31.1964218576
 10
544.7751235396
 20
31.0673661609
 10
544.7751235396
 20
31.0028390707
 10
544.6594989807
 20
30.9060491937
 10
544.4282492012
 20
30.8415205871
 10
544.0813742012
 20
30.8092578002
 10
543.7344992012
 20
30.8092578002
 10
543.3876242012
 20
30.8415205871
 10
543.2141867012
 20
30.8737848904
 10
543.0407492012
 20
30.9383119806
 10
543.7344992012
 20
30.9383119806
 10
544.0813742012
 20
30.9383119806
 10
544.3126239807
 20
30.9705762839
 10
544.4282492012
 20
31.0028390707
 10
544.4860614807
 20
31.0673661609
 10
544.4282492012
 20
31.1318947675
 10
544.2548117012
 20
31.1964218576
 10
543.2719989807
 20
31.3577403412
 10
543.0407492012
 20
31.4545317347
 10
543.2141867012
 20
31.583585915
 10
543.2719989807
 20
31.5190588248
  0
HATCH
  5
30F
100
AcDbEntity
  8
0
100
AcDbHatch
 62
7
  6
CONTINUOUS
 10
0.0
 20
0.0
 30
0.0
210
0.0
220
0.0
230
1.0
  2
SOLID
 70
1
 71
1
 91
1
 92
1
 93
23
 72
1
 10
543.2719989807
 20
31.5190588248
 11
543.4454364807
 21
31.4545317347
 72
1
 10
543.4454364807
 20
31.4545317347
 11
544.4282492012
 21
31.2932132511
 72
1
 10
544.4282492012
 20
31.2932132511
 11
544.6594989807
 21
31.1964218576
 72
1
 10
544.6594989807
 20
31.1964218576
 11
544.7751235396
 21
31.0673661609
 72
1
 10
544.7751235396
 20
31.0673661609
 11
544.7751235396
 21
31.0028390707
 72
1
 10
544.7751235396
 20
31.0028390707
 11
544.6594989807
 21
30.9060491937
 72
1
 10
544.6594989807
 20
30.9060491937
 11
544.4282492012
 21
30.8415205871
 72
1
 10
544.4282492012
 20
30.8415205871
 11
544.0813742012
 21
30.8092578002
 72
1
 10
544.0813742012
 20
30.8092578002
 11
543.7344992012
 21
30.8092578002
 72
1
 10
543.7344992012
 20
30.8092578002
 11
543.3876242012
 21
30.8415205871
 72
1
 10
543.3876242012
 20
30.8415205871
 11
543.2141867012
 21
30.8737848904
 72
1
 10
543.2141867012
 20
30.8737848904
 11
543.0407492012
 21
30.9383119806
 72
1
 10
543.0407492012
 20
30.9383119806
 11
543.7344992012
 21
30.9383119806
 72
1
 10
543.7344992012
 20
30.9383119806
 11
544.0813742012
 21
30.9383119806
 72
1
 10
544.0813742012
 20
30.9383119806
 11
544.3126239807
 21
30.9705762839
 72
1
 10
544.3126239807
 20
30.9705762839
 11
544.4282492012
 21
31.0028390707
 72
1
 10
544.4282492012
 20
31.0028390707
 11
544.4860614807
 21
31.0673661609
 72
1
 10
544.4860614807
 20
31.0673661609
 11
544.4282492012
 21
31.1318947675
 72
1
 10
544.4282492012
 20
31.1318947675
 11
544.2548117012
 21
31.1964218576
 72
1
 10
544.2548117012
 20
31.1964218576
 11
543.2719989807
 21
31.3577403412
 72
1
 10
543.2719989807
 20
31.3577403412
 11
543.0407492012
 21
31.4545317347
 72
1
 10
543.0407492012
 20
31.4545317347
 11
543.2141867012
 21
31.583585915
 72
1
 10
543.2141867012
 20
31.583585915
 11
543.2719989807
 21
31.5190588248
 97
1
330
30E
 75
0
 76
1
 98
1
 10
0.0
 20
0.0
  0
LWPOLYLINE
  5
310
100
AcDbEntity
  8
0
100
AcDbPolyline
 62
7
  6
CONTINUOUS
 90
12
 70
0
 10
533.6751239738
 20
31.3577403412
 10
533.6751239738
 20
31.2609490436
 10
533.7907489669
 20
31.0996304642
 10
533.9641864669
 20
31.0028390707
 10
534.3110615082
 20
30.9383119806
 10
533.8485614944
 20
30.8737848904
 10
533.6751239738
 20
30.9383119806
 10
533.5594989807
 20
31.0028390707
 10
533.4438739824
 20
31.1318947675
 10
533.3860614807
 20
31.325476038
 10
533.7329364807
 20
31.4867945216
 10
533.6751239738
 20
31.3577403412
  0
HATCH
  5
311
100
AcDbEntity
  8
0
100
AcDbHatch
 62
7
  6
CONTINUOUS
 10
0.0
 20
0.0
 30
0.0
210
0.0
220
0.0
230
1.0
  2
SOLID
 70
1
 71
1
 91
1
 92
1
 93
11
 72
1
 10
533.6751239738
 20
31.3577403412
 11
533.6751239738
 21
31.2609490436
 72
1
 10
533.6751239738
 20
31.2609490436
 11
533.7907489669
 21
31.0996304642
 72
1
 10
533.7907489669
 20
31.0996304642
 11
533.9641864669
 21
31.0028390707
 72
1
 10
533.9641864669
 20
31.0028390707
 11
534.3110615082
 21
30.9383119806
 72
1
 10
534.3110615082
 20
30.9383119806
 11
533.8485614944
 21
30.8737848904
 72
1
 10
533.8485614944
 20
30.8737848904
 11
533.6751239738
 21
30.9383119806
 72
1
 10
533.6751239738
 20
30.9383119806
 11
533.5594989807
 21
31.0028390707
 72
1
 10
533.5594989807
 20
31.0028390707
 11
533.4438739824
 21
31.1318947675
 72
1
 10
533.4438739824
 20
31.1318947675
 11
533.3860614807
 21
31.325476038
 72
1
 10
533.3860614807
 20
31.325476038
 11
533.7329364807
 21
31.4867945216
 72
1
 10
533.7329364807
 20
31.4867945216
 11
533.6751239738
 21
31.3577403412
 97
1
330
310
 75
0
 76
1
 98
1
 10
0.0
 20
0.0
  0
LWPOLYLINE
  5
312
100
AcDbEntity
  8
0
100
AcDbPolyline
 62
7
  6
CONTINUOUS
 90
6
 70
0
 10
537.8954364807
 20
31.325476038
 10
538.0110613704
 20
31.3900038345
 10
538.5891864807
 20
31.3577403412
 10
538.3579363704
 20
31.325476038
 10
537.7798115909
 20
31.1964218576
 10
537.8954364807
 20
31.325476038
  0
HATCH
  5
313
100
AcDbEntity
  8
0
100
AcDbHatch
 62
7
  6
CONTINUOUS
 10
0.0
 20
0.0
 30
0.0
210
0.0
220
0.0
230
1.0
  2
SOLID
 70
1
 71
1
 91
1
 92
1
 93
5
 72
1
 10
537.8954364807
 20
31.325476038
 11
538.0110613704
 21
31.3900038345
 72
1
 10
538.0110613704
 20
31.3900038345
 11
538.5891864807
 21
31.3577403412
 72
1
 10
538.5891864807
 20
31.3577403412
 11
538.3579363704
 21
31.325476038
 72
1
 10
538.3579363704
 20
31.325476038
 11
537.7798115909
 21
31.1964218576
 72
1
 10
537.7798115909
 20
31.1964218576
 11
537.8954364807
 21
31.325476038
 97
1
330
312
 75
0
 76
1
 98
1
 10
0.0
 20
0.0
  0
LWPOLYLINE
  5
314
100
AcDbEntity
  8
0
100
AcDbPolyline
 62
7
  6
CONTINUOUS
 90
9
 70
0
 10
538.1266865909
 20
31.2286853572
 10
538.0688739807
 20
31.1318947675
 10
538.0688739807
 20
31.0673661609
 10
537.8376238704
 20
30.9705762839
 10
537.7798115909
 20
31.0996304642
 10
537.7798115909
 20
31.1964218576
 10
538.3579363704
 20
31.325476038
 10
538.2423114807
 20
31.2932132511
 10
538.1266865909
 20
31.2286853572
  0
HATCH
  5
315
100
AcDbEntity
  8
0
100
AcDbHatch
 62
7
  6
CONTINUOUS
 10
0.0
 20
0.0
 30
0.0
210
0.0
220
0.0
230
1.0
  2
SOLID
 70
1
 71
1
 91
1
 92
1
 93
8
 72
1
 10
538.1266865909
 20
31.2286853572
 11
538.0688739807
 21
31.1318947675
 72
1
 10
538.0688739807
 20
31.1318947675
 11
538.0688739807
 21
31.0673661609
 72
1
 10
538.0688739807
 20
31.0673661609
 11
537.8376238704
 21
30.9705762839
 72
1
 10
537.8376238704
 20
30.9705762839
 11
537.7798115909
 21
31.0996304642
 72
1
 10
537.7798115909
 20
31.0996304642
 11
537.7798115909
 21
31.1964218576
 72
1
 10
537.7798115909
 20
31.1964218576
 11
538.3579363704
 21
31.325476038
 72
1
 10
538.3579363704
 20
31.325476038
 11
538.2423114807
 21
31.2932132511
 72
1
 10
538.2423114807
 20
31.2932132511
 11
538.1266865909
 21
31.2286853572
 97
1
330
314
 75
0
 76
1
 98
1
 10
0.0
 20
0.0
  0
LWPOLYLINE
  5
316
100
AcDbEntity
  8
0
100
AcDbPolyline
 62
7
  6
CONTINUOUS
 90
10
 70
0
 10
539.1673112601
 20
31.0996304642
 10
539.2251242012
 20
31.1641579843
 10
539.5141862601
 20
31.0673661609
 10
539.5719992012
 20
30.9060491937
 10
539.6298114807
 20
30.8092578002
 10
539.3407487601
 20
30.8092578002
 10
539.2829364807
 20
30.8737848904
 10
539.2251242012
 20
30.9705762839
 10
538.9938737601
 20
31.0028390707
 10
539.1673112601
 20
31.0996304642
  0
HATCH
  5
317
100
AcDbEntity
  8
0
100
AcDbHatch
 62
7
  6
CONTINUOUS
 10
0.0
 20
0.0
 30
0.0
210
0.0
220
0.0
230
1.0
  2
SOLID
 70
1
 71
1
 91
1
 92
1
 93
9
 72
1
 10
539.1673112601
 20
31.0996304642
 11
539.2251242012
 21
31.1641579843
 72
1
 10
539.2251242012
 20
31.1641579843
 11
539.5141862601
 21
31.0673661609
 72
1
 10
539.5141862601
 20
31.0673661609
 11
539.5719992012
 21
30.9060491937
 72
1
 10
539.5719992012
 20
30.9060491937
 11
539.6298114807
 21
30.8092578002
 72
1
 10
539.6298114807
 20
30.8092578002
 11
539.3407487601
 21
30.8092578002
 72
1
 10
539.3407487601
 20
30.8092578002
 11
539.2829364807
 21
30.8737848904
 72
1
 10
539.2829364807
 20
30.8737848904
 11
539.2251242012
 21
30.9705762839
 72
1
 10
539.2251242012
 20
30.9705762839
 11
538.9938737601
 21
31.0028390707
 72
1
 10
538.9938737601
 20
31.0028390707
 11
539.1673112601
 21
31.0996304642
 97
1
330
316
 75
0
 76
1
 98
1
 10
0.0
 20
0.0
  0
LWPOLYLINE
  5
318
100
AcDbEntity
  8
0
100
AcDbPolyline
 62
7
  6
CONTINUOUS
 90
12
 70
0
 10
534.8891865358
 20
31.035103216
 10
534.9469989807
 20
31.1318947675
 10
535.2360615358
 20
31.1318947675
 10
535.1782489255
 20
31.0028390707
 10
535.0048114255
 20
30.9060491937
 10
534.7735614807
 20
30.8415205871
 10
534.3688739531
 20
30.8092578002
 10
534.0219989944
 20
30.8415205871
 10
533.8485614944
 20
30.8737848904
 10
534.3110615082
 20
30.9383119806
 10
534.7157489531
 20
30.9705762839
 10
534.8891865358
 20
31.035103216
  0
HATCH
  5
319
100
AcDbEntity
  8
0
100
AcDbHatch
 62
7
  6
CONTINUOUS
 10
0.0
 20
0.0
 30
0.0
210
0.0
220
0.0
230
1.0
  2
SOLID
 70
1
 71
1
 91
1
 92
1
 93
11
 72
1
 10
534.8891865358
 20
31.035103216
 11
534.9469989807
 21
31.1318947675
 72
1
 10
534.9469989807
 20
31.1318947675
 11
535.2360615358
 21
31.1318947675
 72
1
 10
535.2360615358
 20
31.1318947675
 11
535.1782489255
 21
31.0028390707
 72
1
 10
535.1782489255
 20
31.0028390707
 11
535.0048114255
 21
30.9060491937
 72
1
 10
535.0048114255
 20
30.9060491937
 11
534.7735614807
 21
30.8415205871
 72
1
 10
534.7735614807
 20
30.8415205871
 11
534.3688739531
 21
30.8092578002
 72
1
 10
534.3688739531
 20
30.8092578002
 11
534.0219989944
 21
30.8415205871
 72
1
 10
534.0219989944
 20
30.8415205871
 11
533.8485614944
 21
30.8737848904
 72
1
 10
533.8485614944
 20
30.8737848904
 11
534.3110615082
 21
30.9383119806
 72
1
 10
534.3110615082
 20
30.9383119806
 11
534.7157489531
 21
30.9705762839
 72
1
 10
534.7157489531
 20
30.9705762839
 11
534.8891865358
 21
31.035103216
 97
1
330
318
 75
0
 76
1
 98
1
 10
0.0
 20
0.0
  0
LWPOLYLINE
  5
31A
100
AcDbEntity
  8
0
100
AcDbPolyline
 62
7
  6
CONTINUOUS
 90
6
 70
0
 10
538.1266865909
 20
31.0028390707
 10
538.3579363704
 20
30.9383119806
 10
538.0110613704
 20
30.8737848904
 10
537.8376238704
 20
30.9705762839
 10
538.0688739807
 20
31.0673661609
 10
538.1266865909
 20
31.0028390707
  0
HATCH
  5
31B
100
AcDbEntity
  8
0
100
AcDbHatch
 62
7
  6
CONTINUOUS
 10
0.0
 20
0.0
 30
0.0
210
0.0
220
0.0
230
1.0
  2
SOLID
 70
1
 71
1
 91
1
 92
1
 93
5
 72
1
 10
538.1266865909
 20
31.0028390707
 11
538.3579363704
 21
30.9383119806
 72
1
 10
538.3579363704
 20
30.9383119806
 11
538.0110613704
 21
30.8737848904
 72
1
 10
538.0110613704
 20
30.8737848904
 11
537.8376238704
 21
30.9705762839
 72
1
 10
537.8376238704
 20
30.9705762839
 11
538.0688739807
 21
31.0673661609
 72
1
 10
538.0688739807
 20
31.0673661609
 11
538.1266865909
 21
31.0028390707
 97
1
330
31A
 75
0
 76
1
 98
1
 10
0.0
 20
0.0
  0
LWPOLYLINE
  5
31C
100
AcDbEntity
  8
0
100
AcDbPolyline
 62
7
  6
CONTINUOUS
 90
11
 70
0
 10
538.7048113704
 20
30.9383119806
 10
538.9938737601
 20
31.0028390707
 10
539.2251242012
 20
30.9705762839
 10
539.1673112601
 20
30.9060491937
 10
538.9938737601
 20
30.8415205871
 10
538.7048113704
 20
30.8092578002
 10
538.3579363704
 20
30.8092578002
 10
538.1266865909
 20
30.8415205871
 10
538.0110613704
 20
30.8737848904
 10
538.3579363704
 20
30.9383119806
 10
538.7048113704
 20
30.9383119806
  0
HATCH
  5
31D
100
AcDbEntity
  8
0
100
AcDbHatch
 62
7
  6
CONTINUOUS
 10
0.0
 20
0.0
 30
0.0
210
0.0
220
0.0
230
1.0
  2
SOLID
 70
1
 71
1
 91
1
 92
1
 93
10
 72
1
 10
538.7048113704
 20
30.9383119806
 11
538.9938737601
 21
31.0028390707
 72
1
 10
538.9938737601
 20
31.0028390707
 11
539.2251242012
 21
30.9705762839
 72
1
 10
539.2251242012
 20
30.9705762839
 11
539.1673112601
 21
30.9060491937
 72
1
 10
539.1673112601
 20
30.9060491937
 11
538.9938737601
 21
30.8415205871
 72
1
 10
538.9938737601
 20
30.8415205871
 11
538.7048113704
 21
30.8092578002
 72
1
 10
538.7048113704
 20
30.8092578002
 11
538.3579363704
 21
30.8092578002
 72
1
 10
538.3579363704
 20
30.8092578002
 11
538.1266865909
 21
30.8415205871
 72
1
 10
538.1266865909
 20
30.8415205871
 11
538.0110613704
 21
30.8737848904
 72
1
 10
538.0110613704
 20
30.8737848904
 11
538.3579363704
 21
30.9383119806
 72
1
 10
538.3579363704
 20
30.9383119806
 11
538.7048113704
 21
30.9383119806
 97
1
330
31C
 75
0
 76
1
 98
1
 10
0.0
 20
0.0
  0
LWPOLYLINE
  5
31E
100
AcDbEntity
  8
0
100
AcDbPolyline
 62
7
  6
CONTINUOUS
 90
7
 70
0
 10
543.3876242012
 20
30.9705762839
 10
543.7344992012
 20
30.9383119806
 10
543.0407492012
 20
30.9383119806
 10
542.9251239807
 20
31.0673661609
 10
543.2141867012
 20
31.0673661609
 10
543.2719989807
 20
31.0028390707
 10
543.3876242012
 20
30.9705762839
  0
HATCH
  5
31F
100
AcDbEntity
  8
0
100
AcDbHatch
 62
7
  6
CONTINUOUS
 10
0.0
 20
0.0
 30
0.0
210
0.0
220
0.0
230
1.0
  2
SOLID
 70
1
 71
1
 91
1
 92
1
 93
6
 72
1
 10
543.3876242012
 20
30.9705762839
 11
543.7344992012
 21
30.9383119806
 72
1
 10
543.7344992012
 20
30.9383119806
 11
543.0407492012
 21
30.9383119806
 72
1
 10
543.0407492012
 20
30.9383119806
 11
542.9251239807
 21
31.0673661609
 72
1
 10
542.9251239807
 20
31.0673661609
 11
543.2141867012
 21
31.0673661609
 72
1
 10
543.2141867012
 20
31.0673661609
 11
543.2719989807
 21
31.0028390707
 72
1
 10
543.2719989807
 20
31.0028390707
 11
543.3876242012
 21
30.9705762839
 97
1
330
31E
 75
0
 76
1
 98
1
 10
0.0
 20
0.0
  0
SOLID
  5
320
100
AcDbEntity
  8
0
100
AcDbTrace
 62
7
  6
CONTINUOUS
 10
540.0923117012
 20
30.8092578002
 11
540.0923117012
 21
31.841695792
 12
540.3813737601
 22
30.8092578002
 13
540.3813737601
 23
31.841695792
  0
ENDBLK
  5
321
100
AcDbEntity
  8
0
  6
BYBLOCK
 62
0
100
AcDbBlockEnd
  0
BLOCK
  5
322
100
AcDbEntity
  8
0
100
AcDbBlockBegin
 62
2
  6
CONTINUOUS
  2
AMMEAAL_LOGO_BL0
 70
64
 10
416.1419631151
 20
19.7009994242
  3
AMMEAAL_LOGO_BL0
  1

  0
TEXT
  5
323
100
AcDbEntity
  8
0
100
AcDbText
 62
7
  6
CONTINUOUS
 10
402.4066669574
 20
19.0744135318
  7
TEXTSTYLE_3
 40
2.7338706658
  1
Ammeraal Beltech
 41
1.0
 51
15.0
 72
0
100
AcDbText
  0
TEXT
  5
324
100
AcDbEntity
  8
0
100
AcDbText
 62
7
  6
CONTINUOUS
 10
413.2074677831
 20
16.800876859
  7
TEXTSTYLE_4
 40
1.0935482663
  1
Innovation & Service in Belting
 41
1.0
 72
0
100
AcDbText
  0
LINE
  5
325
100
AcDbEntity
  8
0
100
AcDbLine
 62
7
  6
CONTINUOUS
 10
396.382126306
 20
19.8410068404
 11
397.1602782994
 21
23.5019241381
  0
LINE
  5
326
100
AcDbEntity
  8
0
100
AcDbLine
 62
7
  6
CONTINUOUS
 10
407.2554465892
 20
27.1653180497
 11
397.6480960424
 21
24.0437006284
  0
LINE
  5
327
100
AcDbEntity
  8
0
100
AcDbLine
 62
7
  6
CONTINUOUS
 10
396.6074096383
 20
19.1476560374
 11
404.1144848995
 21
12.3882551114
  0
LINE
  5
328
100
AcDbEntity
  8
0
100
AcDbLine
 62
7
  6
CONTINUOUS
 10
396.869944049
 20
20.3827833308
 11
407.6782134142
 21
23.8946029297
  0
LINE
  5
329
100
AcDbEntity
  8
0
100
AcDbLine
 62
7
  6
CONTINUOUS
 10
407.674008277
 20
13.544814366
 11
399.2285486083
 21
21.1491404077
  0
LINE
  5
32A
100
AcDbEntity
  8
0
100
AcDbLine
 62
7
  6
CONTINUOUS
 10
408.1938309968
 20
26.320392934
 11
407.2172714596
 21
21.7260415315
  0
LINE
  5
32B
100
AcDbEntity
  8
0
100
AcDbLine
 62
7
  6
CONTINUOUS
 10
406.5174695119
 20
18.4337322177
 11
405.8310213004
 21
15.2042472933
  0
LINE
  5
32C
100
AcDbEntity
  8
0
100
AcDbLine
 62
7
  6
CONTINUOUS
 10
408.8749270954
 20
13.9350165436
 11
409.831158631
 21
18.4337322177
  0
LINE
  5
32D
100
AcDbEntity
  8
0
100
AcDbLine
 62
7
  6
CONTINUOUS
 10
410.5309605787
 20
21.7260415315
 11
410.9752023811
 21
23.8160348909
  0
LINE
  5
32E
100
AcDbEntity
  8
0
100
AcDbLine
 62
7
  6
CONTINUOUS
 10
404.8275859748
 20
12.2366807987
 11
408.3871093524
 21
13.3932400533
  0
LINE
  5
32F
100
AcDbEntity
  8
0
100
AcDbLine
 62
7
  6
CONTINUOUS
 10
407.9685476645
 20
27.013743737
 11
410.7499190488
 21
24.5093856939
  0
ARC
  5
330
100
AcDbEntity
  8
0
100
AcDbCircle
 62
7
  6
CONTINUOUS
 10
397.8733793747
 20
23.3503498254
 40
0.7290321776
100
AcDbArc
 50
108.0
 51
168.0
  0
ARC
  5
331
100
AcDbEntity
  8
0
100
AcDbCircle
 62
7
  6
CONTINUOUS
 10
407.4807299215
 20
26.4719672466
 40
0.7290321776
100
AcDbArc
 50
348.0
 51
108.0
  0
ARC
  5
332
100
AcDbEntity
  8
0
100
AcDbCircle
 62
7
  6
CONTINUOUS
 10
410.2621013058
 20
23.9676092036
 40
0.7290321776
100
AcDbArc
 50
348.0
 51
48.0
  0
ARC
  5
333
100
AcDbEntity
  8
0
100
AcDbCircle
 62
7
  6
CONTINUOUS
 10
404.6023026425
 20
12.9300316018
 40
0.7290321776
100
AcDbArc
 50
228.0
 51
288.0
  0
ARC
  5
334
100
AcDbEntity
  8
0
100
AcDbCircle
 62
7
  6
CONTINUOUS
 10
397.0952273813
 20
19.6894325277
 40
0.7290321776
100
AcDbArc
 50
108.0
 51
228.0
  0
ARC
  5
335
100
AcDbEntity
  8
0
100
AcDbCircle
 62
7
  6
CONTINUOUS
 10
408.1618260201
 20
14.0865908563
 40
0.7290321776
100
AcDbArc
 50
228.0
 51
348.0
  0
ENDBLK
  5
336
100
AcDbEntity
  8
0
  6
BYBLOCK
 62
0
100
AcDbBlockEnd
  0
BLOCK
  5
337
100
AcDbEntity
  8
0
100
AcDbBlockBegin
  2
*T1
 70
1
 10
0.0
 20
0.0
  3
*T1
  1

  0
LINE
  5
338
100
AcDbEntity
  8
0
100
AcDbLine
 62
2
  6
CONTINUOUS
 10
0.0
 20
0.0
 11
190.0
 21
0.0
  0
LINE
  5
339
100
AcDbEntity
  8
0
100
AcDbLine
 62
2
  6
CONTINUOUS
 10
0.0
 20
0.0
 11
0.0
 21
-20.0
  0
LINE
  5
33A
100
AcDbEntity
  8
0
100
AcDbLine
 62
2
  6
CONTINUOUS
 10
0.0
 20
-20.0
 11
190.0
 21
-20.0
  0
LINE
  5
33B
100
AcDbEntity
  8
0
100
AcDbLine
 62
2
  6
CONTINUOUS
 10
85.0
 20
0.0
 11
85.0
 21
-20.0
  0
LINE
  5
33C
100
AcDbEntity
  8
0
100
AcDbLine
 62
2
  6
CONTINUOUS
 10
105.0
 20
0.0
 11
105.0
 21
-20.0
  0
LINE
  5
33D
100
AcDbEntity
  8
0
100
AcDbLine
 62
2
  6
CONTINUOUS
 10
190.0
 20
0.0
 11
190.0
 21
-20.0
  0
MTEXT
  5
33E
100
AcDbEntity
  8
0
100
AcDbMText
 62
5
  6
CONTINUOUS
  7
TEXTSTYLE_5
 71
1
 72
1
 10
3.0
 20
-5.177
 30
0.0
 11
1.0
 21
0.0
 31
0.0
 44
1.08
  3
                                                                     Ammeraal Beltech Modular A/S\P\H1.5;                                                                      Hjulmagervej 21, 7100 Vejle,  DK\P\H1.495;                                 
  1
                                     tel: \H1.51;+45 75723100     fax: +45 75723348\P\H1.5;                                                                      admin@unichains.dk  www.unichains.com
 40
1.52
 41
161.0496183206
  0
MTEXT
  5
33F
100
AcDbEntity
  8
0
100
AcDbMText
 62
5
  6
CONTINUOUS
  7
TEXTSTYLE_6
 71
2
 72
1
 10
95.0
 20
-11.25
 30
0.0
 11
1.0
 21
0.0
 31
0.0
 44
0.9
  1
1:1
 40
5.0
 41
21.0
  0
MTEXT
  5
340
100
AcDbEntity
  8
0
100
AcDbMText
 62
5
  6
CONTINUOUS
  7
TEXTSTYLE_7
 71
1
 72
1
 10
108.0
 20
-8.75
 30
0.0
 11
1.0
 21
0.0
 31
0.0
 44
0.9
  1
Sprocket Z10
 40
7.5
 41
114.5
  0
ENDBLK
  5
341
100
AcDbEntity
  8
0
  6
BYBLOCK
 62
0
100
AcDbBlockEnd
  0
ENDSEC
  0
SECTION
  2
ENTITIES
  0
MTEXT
  5
342
100
AcDbEntity
  8
0
100
AcDbMText
 62
5
  6
CONTINUOUS
  7
TEXTSTYLE_2
 71
1
 72
1
 10
480.0
 20
28.436
 30
0.0
 11
1.0
 21
0.0
 31
0.0
 44
0.9
  1
\Q0.000019;Scale :
 40
2.8
 41
11.76
  0
MTEXT
  5
343
100
AcDbEntity
  8
0
100
AcDbMText
 62
5
  6
CONTINUOUS
  7
TEXTSTYLE_2
 71
1
 72
1
 10
500.0
 20
28.436
 30
0.0
 11
1.0
 21
0.0
 31
0.0
 44
0.9
  1
\Q0.000019;Chain type:
 40
2.8
 41
18.48
  0
INSERT
  5
344
100
AcDbEntity
  8
0
100
AcDbBlockReference
 62
2
  6
CONTINUOUS
  2
AMMEAAL_LOGO_BL0
 10
416.1419631151
 20
19.7009994242
  0
INSERT
  5
345
100
AcDbEntity
  8
0
100
AcDbBlockReference
 62
2
  6
CONTINUOUS
  2
UNI_LOGO2_BL1
 10
557.4079930916
 20
35.8092573885
  0
ACAD_TABLE
  5
346
100
AcDbEntity
  8
0
 62
2
  6
CONTINUOUS
100
AcDbBlockReference
  2
*T1
 10
394.0
 20
30.0
 30
0.0
100
AcDbTable
342
       5DA
343
215
 11
1.0
 21
0.0
 31
0.0
 90
22
 91
1
 92
3
 93
0
 94
0
 95
0
 96
0
141
20.0
142
85.0
142
20.0
142
85.0
171
1
172
0
173
0
174
0
175
1
176
1
 91
57
178
0
145
0.0
  7
TEXTSTYLE_5
301
CELL_VALUE
 90
4
  2
                                                                     Ammeraal Beltech Modular A/S\P\H1.5;                                                                      Hjulmagervej 21, 7100 Vejle,  DK\P\H1.495;                                 
  1
                                     tel: \H1.51;+45 75723100     fax: +45 75723348\P\H1.5;                                                                      admin@unichains.dk  www.unichains.com
304
ACVALUE_END
170
4
140
1.52
 64
5
171
1
172
0
173
0
174
0
175
1
176
1
 91
57
178
0
145
0.0
  7
TEXTSTYLE_6
301
CELL_VALUE
 90
4
  1
1:1
304
ACVALUE_END
170
8
140
5.0
 64
5
171
1
172
0
173
0
174
0
175
1
176
1
 91
57
178
0
145
0.0
  7
TEXTSTYLE_7
301
CELL_VALUE
 90
4
  1
Sprocket Z10
304
ACVALUE_END
170
7
140
7.5
 64
5
  0
LINE
  5
347
100
AcDbEntity
  8
0
100
AcDbLine
 62
7
  6
CONTINUOUS
 10
-0.0
 20
-0.0
 11
-0.0
 21
420.0
  0
LINE
  5
348
100
AcDbEntity
  8
0
100
AcDbLine
 62
7
  6
CONTINUOUS
 10
10.0
 20
10.0
 11
10.0
 21
410.0
  0
LINE
  5
349
100
AcDbEntity
  8
0
100
AcDbLine
 62
7
  6
CONTINUOUS
 10
-0.0
 20
-0.0
 11
594.0
 21
-0.0
  0
LINE
  5
34A
100
AcDbEntity
  8
0
100
AcDbLine
 62
7
  6
CONTINUOUS
 10
10.0
 20
10.0
 11
584.0
 21
10.0
  0
LINE
  5
34B
100
AcDbEntity
  8
0
100
AcDbLine
 62
7
  6
CONTINUOUS
 10
394.0
 20
30.0
 11
584.0
 21
30.0
  0
LINE
  5
34C
100
AcDbEntity
  8
0
100
AcDbLine
 62
7
  6
CONTINUOUS
 10
179.0
 20
5.0
 11
179.0
 21
10.0
  0
LINE
  5
34D
100
AcDbEntity
  8
0
100
AcDbLine
 62
7
  6
CONTINUOUS
 10
179.0
 20
410.0
 11
179.0
 21
415.0
  0
LINE
  5
34E
100
AcDbEntity
  8
0
100
AcDbLine
 62
7
  6
CONTINUOUS
 10
384.0
 20
410.0
 11
384.0
 21
415.0
  0
LINE
  5
34F
100
AcDbEntity
  8
0
100
AcDbLine
 62
7
  6
CONTINUOUS
 10
5.0
 20
297.0
 11
10.0
 21
297.0
  0
LINE
  5
350
100
AcDbEntity
  8
0
100
AcDbLine
 62
7
  6
CONTINUOUS
 10
584.0
 20
297.0
 11
589.0
 21
297.0
  0
LINE
  5
351
100
AcDbEntity
  8
0
100
AcDbLine
 62
7
  6
CONTINUOUS
 10
10.0
 20
410.0
 11
584.0
 21
410.0
  0
LINE
  5
352
100
AcDbEntity
  8
0
100
AcDbLine
 62
7
  6
CONTINUOUS
 10
-0.0
 20
420.0
 11
594.0
 21
420.0
  0
LINE
  5
353
100
AcDbEntity
  8
0
100
AcDbLine
 62
7
  6
CONTINUOUS
 10
584.0
 20
10.0
 11
584.0
 21
410.0
  0
LINE
  5
354
100
AcDbEntity
  8
0
100
AcDbLine
 62
7
  6
CONTINUOUS
 10
594.0
 20
-0.0
 11
594.0
 21
420.0
  0
LINE
  5
355
100
AcDbEntity
  8
0
100
AcDbLine
 62
7
  6
CONTINUOUS
 10
149.9482220206
 20
205.1862034556
 11
149.9873783819
 21
205.5584270179
  0
LINE
  5
356
100
AcDbEntity
  8
0
100
AcDbLine
 62
7
  6
CONTINUOUS
 10
149.0534901323
 20
212.5155728813
 11
148.9895882935
 21
211.9140701021
  0
LINE
  5
357
100
AcDbEntity
  8
0
100
AcDbLine
 62
7
  6
CONTINUOUS
 10
149.5087500003
 20
211.4735826644
 11
149.5726518391
 21
212.0750854435
  0
LINE
  5
358
100
AcDbEntity
  8
0
100
AcDbLine
 62
7
  6
CONTINUOUS
 10
149.3775734989
 20
205.5575772125
 11
149.1565989529
 21
204.9059738963
  0
LINE
  5
359
100
AcDbEntity
  8
0
100
AcDbLine
 62
7
  6
CONTINUOUS
 10
149.7272474372
 20
204.5346001638
 11
149.9482220206
 21
205.1862034556
  0
LINE
  5
35A
100
AcDbEntity
  8
0
100
AcDbLine
 62
7
  6
CONTINUOUS
 10
149.3550105789
 20
213.1340408816
 11
149.0534901323
 21
212.5155728813
  0
LINE
  5
35B
100
AcDbEntity
  8
0
100
AcDbLine
 62
7
  6
CONTINUOUS
 10
149.5726518391
 20
212.0750854435
 11
149.8741722856
 21
212.6935534438
  0
LINE
  5
35C
100
AcDbEntity
  8
0
100
AcDbLine
 62
7
  6
CONTINUOUS
 10
146.4347882892
 20
209.4612499286
 11
145.9802422134
 21
208.7627998056
  0
LINE
  5
35D
100
AcDbEntity
  8
0
100
AcDbLine
 62
7
  6
CONTINUOUS
 10
144.1620583331
 20
205.9689999629
 11
143.7075123548
 21
205.2705499897
  0
LINE
  5
35E
100
AcDbEntity
  8
0
100
AcDbLine
 62
7
  6
CONTINUOUS
 10
149.1565989529
 20
204.9059738963
 11
148.7929621183
 21
204.3472138379
  0
LINE
  5
35F
100
AcDbEntity
  8
0
100
AcDbLine
 62
7
  6
CONTINUOUS
 10
149.3636106026
 20
203.9758401054
 11
149.7272474372
 21
204.5346001638
  0
LINE
  5
360
100
AcDbEntity
  8
0
100
AcDbLine
 62
7
  6
CONTINUOUS
 10
150.7272485697
 20
206.0711900748
 11
151.1817946455
 21
206.7696401979
  0
LINE
  5
361
100
AcDbEntity
  8
0
100
AcDbLine
 62
7
  6
CONTINUOUS
 10
173.4152722909
 20
230.9064449824
 11
173.7905074237
 21
231.3808794987
  0
LINE
  5
362
100
AcDbEntity
  8
0
100
AcDbLine
 62
7
  6
CONTINUOUS
 10
149.7863214521
 20
213.6423870224
 11
149.3550105789
 21
213.1340408816
  0
LINE
  5
363
100
AcDbEntity
  8
0
100
AcDbLine
 62
7
  6
CONTINUOUS
 10
148.3845615768
 20
211.9902626101
 11
147.8454231395
 21
211.3548301158
  0
LINE
  5
364
100
AcDbEntity
  8
0
100
AcDbLine
 62
7
  6
CONTINUOUS
 10
151.9987171571
 20
207.830930305
 11
152.5378555944
 21
208.4663627993
  0
LINE
  5
365
100
AcDbEntity
  8
0
100
AcDbLine
 62
7
  6
CONTINUOUS
 10
154.4787535985
 20
210.7539193423
 11
155.0178917273
 21
211.389351473
  0
LINE
  5
366
100
AcDbEntity
  8
0
100
AcDbLine
 62
7
  6
CONTINUOUS
 10
173.3768321813
 20
232.1430862906
 11
172.7344614378
 21
231.4064996223
  0
LINE
  5
367
100
AcDbEntity
  8
0
100
AcDbLine
 62
7
  6
CONTINUOUS
 10
177.5770251896
 20
225.4328359139
 11
178.2193922799
 21
226.1694214834
  0
LINE
  5
368
100
AcDbEntity
  8
0
100
AcDbLine
 62
7
  6
CONTINUOUS
 10
150.9111994323
 20
218.5632575265
 11
150.3220222161
 21
217.9739239007
  0
LINE
  5
369
100
AcDbEntity
  8
0
100
AcDbLine
 62
7
  6
CONTINUOUS
 10
150.923895013
 20
217.3722108412
 11
151.5130722293
 21
217.961544467
  0
LINE
  5
36A
100
AcDbEntity
  8
0
100
AcDbLine
 62
7
  6
CONTINUOUS
 10
152.7168181604
 20
216.7581180109
 11
152.1276409442
 21
216.1687843851
  0
LINE
  5
36B
100
AcDbEntity
  8
0
100
AcDbLine
 62
7
  6
CONTINUOUS
 10
155.9796271819
 20
212.3178204671
 11
156.5688043981
 21
212.9071540929
  0
LINE
  5
36C
100
AcDbEntity
  8
0
100
AcDbLine
 62
7
  6
CONTINUOUS
 10
181.4505766287
 20
232.9930478767
 11
181.8911176448
 21
233.4075513487
  0
LINE
  5
36D
100
AcDbEntity
  8
0
100
AcDbLine
 62
7
  6
CONTINUOUS
 10
148.8573117119
 20
203.5099235799
 11
149.3636106026
 21
203.9758401054
  0
LINE
  5
36E
100
AcDbEntity
  8
0
100
AcDbLine
 62
7
  6
CONTINUOUS
 10
181.5932699223
 20
234.2220293444
 11
180.8501538301
 21
233.5872284246
  0
LINE
  5
36F
100
AcDbEntity
  8
0
100
AcDbLine
 62
7
  6
CONTINUOUS
 10
184.7677232125
 20
226.9700001295
 11
185.5108392977
 21
227.6048010934
  0
LINE
  5
370
100
AcDbEntity
  8
0
100
AcDbLine
 62
7
  6
CONTINUOUS
 10
149.8741722856
 20
212.6935534438
 11
150.4352735856
 21
213.0917777252
  0
LINE
  5
371
100
AcDbEntity
  8
0
100
AcDbLine
 62
7
  6
CONTINUOUS
 10
161.1512841854
 20
226.6155538381
 11
160.3096698043
 21
226.0754749239
  0
LINE
  5
372
100
AcDbEntity
  8
0
100
AcDbLine
 62
7
  6
CONTINUOUS
 10
164.6303011177
 20
219.3425598751
 11
165.4719154988
 21
219.8826387893
  0
LINE
  5
373
100
AcDbEntity
  8
0
100
AcDbLine
 62
7
  6
CONTINUOUS
 10
150.2395948795
 20
213.9135245868
 11
149.7863214521
 21
213.6423870224
  0
LINE
  5
374
100
AcDbEntity
  8
0
100
AcDbLine
 62
7
  6
CONTINUOUS
 10
148.7929621183
 20
204.3472138379
 11
148.1440010816
 21
203.9741407618
  0
LINE
  5
375
100
AcDbEntity
  8
0
100
AcDbLine
 62
7
  6
CONTINUOUS
 10
173.7905074237
 20
231.3808794987
 11
174.5347367407
 21
231.7926364483
  0
LINE
  5
376
100
AcDbEntity
  8
0
100
AcDbLine
 62
7
  6
CONTINUOUS
 10
177.1633462761
 20
226.1950416639
 11
176.4191205991
 21
225.7832858557
  0
LINE
  5
377
100
AcDbEntity
  8
0
100
AcDbLine
 62
7
  6
CONTINUOUS
 10
174.2800903071
 20
232.6047107451
 11
173.3768321813
 21
232.1430862906
  0
LINE
  5
378
100
AcDbEntity
  8
0
100
AcDbLine
 62
7
  6
CONTINUOUS
 10
176.6737670683
 20
224.9712114451
 11
177.5770251896
 21
225.4328359139
  0
LINE
  5
379
100
AcDbEntity
  8
0
100
AcDbLine
 62
7
  6
CONTINUOUS
 10
167.5264915469
 20
230.0405667829
 11
166.6291984363
 21
229.5991315401
  0
LINE
  5
37A
100
AcDbEntity
  8
0
100
AcDbLine
 62
7
  6
CONTINUOUS
 10
171.0507031319
 20
226.6525619302
 11
169.5552151846
 21
225.9168368062
  0
LINE
  5
37B
100
AcDbEntity
  8
0
100
AcDbLine
 62
7
  6
CONTINUOUS
 10
168.657922074
 20
225.4754015634
 11
166.1155927348
 21
224.2246689368
  0
LINE
  5
37C
100
AcDbEntity
  8
0
100
AcDbLine
 62
7
  6
CONTINUOUS
 10
165.5195771649
 20
222.7932760341
 11
169.1087496075
 21
224.5590170053
  0
LINE
  5
37D
100
AcDbEntity
  8
0
100
AcDbLine
 62
7
  6
CONTINUOUS
 10
170.0060427181
 20
225.0004522481
 11
171.5015306654
 21
225.7361773721
  0
LINE
  5
37E
100
AcDbEntity
  8
0
100
AcDbLine
 62
7
  6
CONTINUOUS
 10
170.1606803787
 20
222.4207866549
 11
171.0579734893
 21
222.8622218977
  0
LINE
  5
37F
100
AcDbEntity
  8
0
100
AcDbLine
 62
7
  6
CONTINUOUS
 10
150.4352735856
 20
213.0917777252
 11
150.7807191404
 21
213.2358285726
  0
LINE
  5
380
100
AcDbEntity
  8
0
100
AcDbLine
 62
7
  6
CONTINUOUS
 10
181.8911176448
 20
233.4075513487
 11
182.6875276645
 21
233.7061242618
  0
LINE
  5
381
100
AcDbEntity
  8
0
100
AcDbLine
 62
7
  6
CONTINUOUS
 10
184.4698754736
 20
227.7844782282
 11
183.6734654539
 21
227.485905315
  0
LINE
  5
382
100
AcDbEntity
  8
0
100
AcDbLine
 62
7
  6
CONTINUOUS
 10
182.5542928458
 20
234.5466942784
 11
181.5932699223
 21
234.2220293444
  0
LINE
  5
383
100
AcDbEntity
  8
0
100
AcDbLine
 62
7
  6
CONTINUOUS
 10
183.8067002913
 20
226.6453351807
 11
184.7677232125
 21
226.9700001295
  0
LINE
  5
384
100
AcDbEntity
  8
0
100
AcDbLine
 62
7
  6
CONTINUOUS
 10
148.9895882935
 20
211.9140701021
 11
149.0335137103
 21
211.4396533128
  0
LINE
  5
385
100
AcDbEntity
  8
0
100
AcDbLine
 62
7
  6
CONTINUOUS
 10
149.552675417
 20
210.999165875
 11
149.5087500003
 21
211.4735826644
  0
LINE
  5
386
100
AcDbEntity
  8
0
100
AcDbLine
 62
7
  6
CONTINUOUS
 10
149.3649768752
 20
206.1623340563
 11
149.3775734989
 21
205.5575772125
  0
LINE
  5
387
100
AcDbEntity
  8
0
100
AcDbLine
 62
7
  6
CONTINUOUS
 10
172.295811481
 20
230.0202546579
 11
172.2895670352
 21
229.4831409785
  0
LINE
  5
388
100
AcDbEntity
  8
0
100
AcDbLine
 62
7
  6
CONTINUOUS
 10
160.3096698043
 20
226.0754749239
 11
160.1115536272
 21
224.5326215476
  0
LINE
  5
389
100
AcDbEntity
  8
0
100
AcDbLine
 62
7
  6
CONTINUOUS
 10
160.8469804036
 20
223.3865931895
 11
161.0450963232
 21
224.9294469671
  0
LINE
  5
38A
100
AcDbEntity
  8
0
100
AcDbLine
 62
7
  6
CONTINUOUS
 10
172.4101555917
 20
230.7696502466
 11
172.295811481
 21
230.0202546579
  0
LINE
  5
38B
100
AcDbEntity
  8
0
100
AcDbLine
 62
7
  6
CONTINUOUS
 10
178.5436981081
 20
226.806270916
 11
178.6580421831
 21
227.5556666184
  0
LINE
  5
38C
100
AcDbEntity
  8
0
100
AcDbLine
 62
7
  6
CONTINUOUS
 10
180.2136218252
 20
232.2799708943
 11
180.128953655
 21
231.7495369898
  0
LINE
  5
38D
100
AcDbEntity
  8
0
100
AcDbLine
 62
7
  6
CONTINUOUS
 10
166.6291984363
 20
229.5991315401
 11
165.0687496314
 21
223.7096605922
  0
LINE
  5
38E
100
AcDbEntity
  8
0
100
AcDbLine
 62
7
  6
CONTINUOUS
 10
166.1155927348
 20
224.2246689368
 11
167.230301674
 21
228.3772857479
  0
LINE
  5
38F
100
AcDbEntity
  8
0
100
AcDbLine
 62
7
  6
CONTINUOUS
 10
173.0847256389
 20
229.7324830687
 11
173.4152722909
 21
230.9064449824
  0
LINE
  5
390
100
AcDbEntity
  8
0
100
AcDbLine
 62
7
  6
CONTINUOUS
 10
177.8691318079
 20
227.843438894
 11
177.5385814089
 21
226.6694761802
  0
LINE
  5
391
100
AcDbEntity
  8
0
100
AcDbLine
 62
7
  6
CONTINUOUS
 10
180.4362597777
 20
233.0046109493
 11
180.2136218252
 21
232.2799708943
  0
LINE
  5
392
100
AcDbEntity
  8
0
100
AcDbLine
 62
7
  6
CONTINUOUS
 10
185.9247333407
 20
228.1874186276
 11
186.1473712745
 21
228.9120588002
  0
LINE
  5
393
100
AcDbEntity
  8
0
100
AcDbLine
 62
7
  6
CONTINUOUS
 10
180.9520106385
 20
231.8799958996
 11
181.4505766287
 21
232.9930478767
  0
LINE
  5
394
100
AcDbEntity
  8
0
100
AcDbLine
 62
7
  6
CONTINUOUS
 10
185.4089825359
 20
229.312033324
 11
184.9104164897
 21
228.1989817002
  0
LINE
  5
395
100
AcDbEntity
  8
0
100
AcDbLine
 62
7
  6
CONTINUOUS
 10
172.7344614378
 20
231.4064996223
 11
172.4101555917
 21
230.7696502466
  0
LINE
  5
396
100
AcDbEntity
  8
0
100
AcDbLine
 62
7
  6
CONTINUOUS
 10
178.2193922799
 20
226.1694214834
 11
178.5436981081
 21
226.806270916
  0
LINE
  5
397
100
AcDbEntity
  8
0
100
AcDbLine
 62
7
  6
CONTINUOUS
 10
180.8501538301
 20
233.5872284246
 11
180.4362597777
 21
233.0046109493
  0
LINE
  5
398
100
AcDbEntity
  8
0
100
AcDbLine
 62
7
  6
CONTINUOUS
 10
185.5108392977
 20
227.6048010934
 11
185.9247333407
 21
228.1874186276
  0
LINE
  5
399
100
AcDbEntity
  8
0
100
AcDbLine
 62
7
  6
CONTINUOUS
 10
177.5385814089
 20
226.6694761802
 11
177.1633462761
 21
226.1950416639
  0
LINE
  5
39A
100
AcDbEntity
  8
0
100
AcDbLine
 62
7
  6
CONTINUOUS
 10
209.7713291483
 20
230.4452173279
 11
209.4287438824
 21
230.0314974206
  0
LINE
  5
39B
100
AcDbEntity
  8
0
100
AcDbLine
 62
7
  6
CONTINUOUS
 10
184.9104164897
 20
228.1989817002
 11
184.4698754736
 21
227.7844782282
  0
LINE
  5
39C
100
AcDbEntity
  8
0
100
AcDbLine
 62
7
  6
CONTINUOUS
 10
210.3314582367
 20
230.9560267556
 11
209.7713291483
 21
230.4452173279
  0
LINE
  5
39D
100
AcDbEntity
  8
0
100
AcDbLine
 62
7
  6
CONTINUOUS
 10
212.6085852735
 20
224.0174839422
 11
213.1687144057
 21
224.5282934808
  0
LINE
  5
39E
100
AcDbEntity
  8
0
100
AcDbLine
 62
7
  6
CONTINUOUS
 10
197.2632149205
 20
228.0253102723
 11
203.7608783536
 21
232.8609668946
  0
LINE
  5
39F
100
AcDbEntity
  8
0
100
AcDbLine
 62
7
  6
CONTINUOUS
 10
202.990620212
 20
233.3268362278
 11
196.3283162639
 21
228.5170968287
  0
LINE
  5
3A0
100
AcDbEntity
  8
0
100
AcDbLine
 62
7
  6
CONTINUOUS
 10
210.2038150139
 20
229.7253917062
 11
211.1990251769
 21
230.4303843077
  0
LINE
  5
3A1
100
AcDbEntity
  8
0
100
AcDbLine
 62
7
  6
CONTINUOUS
 10
212.7362212689
 20
225.2481214615
 11
211.7410183333
 21
224.5431263902
  0
LINE
  5
3A2
100
AcDbEntity
  8
0
100
AcDbLine
 62
7
  6
CONTINUOUS
 10
207.0749950576
 20
233.168757155
 11
205.7938846887
 21
232.2864857777
  0
LINE
  5
3A3
100
AcDbEntity
  8
0
100
AcDbLine
 62
7
  6
CONTINUOUS
 10
205.4313725408
 20
230.9739239758
 11
206.7124830367
 21
231.8561958128
  0
LINE
  5
3A4
100
AcDbEntity
  8
0
100
AcDbLine
 62
7
  6
CONTINUOUS
 10
210.9840760377
 20
231.2473022522
 11
210.3314582367
 21
230.9560267556
  0
LINE
  5
3A5
100
AcDbEntity
  8
0
100
AcDbLine
 62
7
  6
CONTINUOUS
 10
211.9559674506
 20
223.7262083902
 11
212.6085852735
 21
224.0174839422
  0
LINE
  5
3A6
100
AcDbEntity
  8
0
100
AcDbLine
 62
7
  6
CONTINUOUS
 10
148.2992598314
 20
203.2765404105
 11
148.8573117119
 21
203.5099235799
  0
LINE
  5
3A7
100
AcDbEntity
  8
0
100
AcDbLine
 62
7
  6
CONTINUOUS
 10
149.1188088019
 20
206.7202443257
 11
149.3649768752
 21
206.1623340563
  0
LINE
  5
3A8
100
AcDbEntity
  8
0
100
AcDbLine
 62
7
  6
CONTINUOUS
 10
149.9873783819
 20
205.5584270179
 11
149.8321194446
 21
206.2560271357
  0
LINE
  5
3A9
100
AcDbEntity
  8
1_AXIS
100
AcDbLine
 62
2
  6
CONTINUOUS
 10
191.6342468262
 20
178.7468408203
 11
191.6342468262
 21
175.7768408203
  0
LINE
  5
3AA
100
AcDbEntity
  8
1_AXIS
100
AcDbLine
 62
2
  6
CENTER
 10
191.6342468262
 20
169.8368408203
 11
191.6342468262
 21
35.7618408203
  0
LINE
  5
3AB
100
AcDbEntity
  8
1_AXIS
100
AcDbLine
 62
2
  6
CENTER
 10
191.6342468262
 20
184.6868408203
 11
191.6342468262
 21
318.7618408203
  0
LINE
  5
3AC
100
AcDbEntity
  8
0
100
AcDbLine
 62
7
  6
CONTINUOUS
 10
180.9472795172
 20
230.8452198589
 11
180.9520106385
 21
231.8799958996
  0
LINE
  5
3AD
100
AcDbEntity
  8
0
100
AcDbLine
 62
7
  6
CONTINUOUS
 10
185.4137136198
 20
230.3468096002
 11
185.4089825359
 21
229.312033324
  0
LINE
  5
3AE
100
AcDbEntity
  8
0
100
AcDbLine
 62
7
  6
CONTINUOUS
 10
178.6580421831
 20
227.5556666184
 11
178.6642867717
 21
228.0927798428
  0
LINE
  5
3AF
100
AcDbEntity
  8
0
100
AcDbLine
 62
7
  6
CONTINUOUS
 10
180.128953655
 20
231.7495369898
 11
180.09757557
 21
230.8828749524
  0
LINE
  5
3B0
100
AcDbEntity
  8
0
100
AcDbLine
 62
7
  6
CONTINUOUS
 10
186.2320395194
 20
229.4424922338
 11
186.263417567
 21
230.3091545067
  0
LINE
  5
3B1
100
AcDbEntity
  8
0
100
AcDbLine
 62
7
  6
CONTINUOUS
 10
197.3605858804
 20
235.0746435234
 11
197.2282436385
 21
234.2339325144
  0
LINE
  5
3B2
100
AcDbEntity
  8
0
100
AcDbLine
 62
7
  6
CONTINUOUS
 10
196.3283162639
 20
228.5170968287
 11
196.1165686583
 21
227.1719590965
  0
LINE
  5
3B3
100
AcDbEntity
  8
0
100
AcDbLine
 62
7
  6
CONTINUOUS
 10
186.1473712745
 20
228.9120588002
 11
186.2320395194
 21
229.4424922338
  0
LINE
  5
3B4
100
AcDbEntity
  8
0
100
AcDbLine
 62
7
  6
CONTINUOUS
 10
205.7938846887
 20
232.2864857777
 11
205.4313725408
 21
230.9739239758
  0
LINE
  5
3B5
100
AcDbEntity
  8
0
100
AcDbLine
 62
7
  6
CONTINUOUS
 10
206.7124830367
 20
231.8561958128
 11
204.9452366808
 21
225.4574583502
  0
LINE
  5
3B6
100
AcDbEntity
  8
0
100
AcDbLine
 62
7
  6
CONTINUOUS
 10
205.9091490314
 20
225.1912385531
 11
208.0389074082
 21
232.9025373579
  0
LINE
  5
3B7
100
AcDbEntity
  8
0
100
AcDbLine
 62
7
  6
CONTINUOUS
 10
208.9611035065
 20
229.3011540618
 11
208.3983866556
 21
227.8763339231
  0
LINE
  5
3B8
100
AcDbEntity
  8
0
100
AcDbLine
 62
7
  6
CONTINUOUS
 10
209.2359889778
 20
227.728538755
 11
209.6736576396
 21
228.8367321962
  0
LINE
  5
3B9
100
AcDbEntity
  8
0
100
AcDbLine
 62
7
  6
CONTINUOUS
 10
213.7040544887
 20
227.244971832
 11
213.2663858268
 21
226.1367783908
  0
LINE
  5
3BA
100
AcDbEntity
  8
0
100
AcDbLine
 62
7
  6
CONTINUOUS
 10
213.9789328639
 20
225.6723593277
 11
214.5416497148
 21
227.0971794663
  0
LINE
  5
3BB
100
AcDbEntity
  8
0
100
AcDbLine
 62
7
  6
CONTINUOUS
 10
209.6736576396
 20
228.8367321962
 11
210.2038150139
 21
229.7253917062
  0
LINE
  5
3BC
100
AcDbEntity
  8
0
100
AcDbLine
 62
7
  6
CONTINUOUS
 10
213.2663858268
 20
226.1367783908
 11
212.7362212689
 21
225.2481214615
  0
LINE
  5
3BD
100
AcDbEntity
  8
0
100
AcDbLine
 62
7
  6
CONTINUOUS
 10
209.4287438824
 20
230.0314974206
 11
208.9611035065
 21
229.3011540618
  0
LINE
  5
3BE
100
AcDbEntity
  8
0
100
AcDbLine
 62
7
  6
CONTINUOUS
 10
213.5112994965
 20
224.9420129446
 11
213.9789328639
 21
225.6723593277
  0
LINE
  5
3BF
100
AcDbEntity
  8
0
100
AcDbLine
 62
7
  6
CONTINUOUS
 10
225.9166034017
 20
224.1470939841
 11
220.858509197
 21
217.9490553414
  0
LINE
  5
3C0
100
AcDbEntity
  8
0
100
AcDbLine
 62
7
  6
CONTINUOUS
 10
221.6332640274
 20
217.3167935658
 11
223.8932635977
 21
220.0861300199
  0
LINE
  5
3C1
100
AcDbEntity
  8
0
100
AcDbLine
 62
7
  6
CONTINUOUS
 10
224.5389776745
 20
220.8773689013
 11
226.153263168
 21
222.855466474
  0
LINE
  5
3C2
100
AcDbEntity
  8
0
100
AcDbLine
 62
7
  6
CONTINUOUS
 10
228.7356922473
 20
219.4298051357
 11
228.4128349074
 21
219.0341853256
  0
LINE
  5
3C3
100
AcDbEntity
  8
0
100
AcDbLine
 62
7
  6
CONTINUOUS
 10
213.1687144057
 20
224.5282934808
 11
213.5112994965
 21
224.9420129446
  0
LINE
  5
3C4
100
AcDbEntity
  8
0
100
AcDbLine
 62
7
  6
CONTINUOUS
 10
235.7224444536
 20
209.6026224971
 11
234.7245003033
 21
208.9516585708
  0
LINE
  5
3C5
100
AcDbEntity
  8
0
100
AcDbLine
 62
7
  6
CONTINUOUS
 10
235.8926062671
 20
208.7186636998
 11
236.1777331672
 21
208.904653393
  0
LINE
  5
3C6
100
AcDbEntity
  8
0
100
AcDbLine
 62
7
  6
CONTINUOUS
 10
234.4154641923
 20
207.5561289919
 11
234.8431545425
 21
207.8351135318
  0
LINE
  5
3C7
100
AcDbEntity
  8
0
100
AcDbLine
 62
7
  6
CONTINUOUS
 10
237.1195897739
 20
204.3452807915
 11
236.6918994238
 21
204.0662962516
  0
LINE
  5
3C8
100
AcDbEntity
  8
0
100
AcDbLine
 62
7
  6
CONTINUOUS
 10
237.0046246874
 20
203.2753323009
 11
237.7174421373
 21
203.7403066643
  0
LINE
  5
3C9
100
AcDbEntity
  8
0
100
AcDbLine
 62
7
  6
CONTINUOUS
 10
228.4128349074
 20
219.0341853256
 11
227.9608540343
 21
218.7439412396
  0
LINE
  5
3CA
100
AcDbEntity
  8
0
100
AcDbLine
 62
7
  6
CONTINUOUS
 10
228.6279898518
 20
217.9798063171
 11
229.079970725
 21
218.2700504031
  0
LINE
  5
3CB
100
AcDbEntity
  8
0
100
AcDbLine
 62
7
  6
CONTINUOUS
 10
236.8114446794
 20
210.1139951587
 11
235.7224444536
 21
209.6026224971
  0
LINE
  5
3CC
100
AcDbEntity
  8
0
100
AcDbLine
 62
7
  6
CONTINUOUS
 10
236.1777331672
 20
208.904653393
 11
237.1241699429
 21
209.3230312079
  0
LINE
  5
3CD
100
AcDbEntity
  8
0
100
AcDbLine
 62
7
  6
CONTINUOUS
 10
229.8738937064
 20
213.5900219227
 11
234.2962415515
 21
215.5428942296
  0
LINE
  5
3CE
100
AcDbEntity
  8
0
100
AcDbLine
 62
7
  6
CONTINUOUS
 10
227.2903447972
 20
212.3914169064
 11
229.2558309708
 21
213.2593619937
  0
LINE
  5
3CF
100
AcDbEntity
  8
0
100
AcDbLine
 62
7
  6
CONTINUOUS
 10
234.3577491015
 20
216.4938022736
 11
226.622486727
 21
213.1357055588
  0
LINE
  5
3D0
100
AcDbEntity
  8
1_AXIS
100
AcDbLine
 62
2
  6
CONTINUOUS
 10
193.1192468262
 20
177.2618408203
 11
190.1492468262
 21
177.2618408203
  0
LINE
  5
3D1
100
AcDbEntity
  8
1_AXIS
100
AcDbLine
 62
2
  6
CENTER
 10
184.2092468262
 20
177.2618408203
 11
50.1342468262
 21
177.2618408203
  0
LINE
  5
3D2
100
AcDbEntity
  8
1_AXIS
100
AcDbLine
 62
2
  6
CENTER
 10
199.0592468262
 20
177.2618408203
 11
333.1342468262
 21
177.2618408203
  0
LINE
  5
3D3
100
AcDbEntity
  8
0
100
AcDbLine
 62
7
  6
CONTINUOUS
 10
143.7075123548
 20
205.2705499897
 11
146.5607547261
 21
203.4136813598
  0
LINE
  5
3D4
100
AcDbEntity
  8
0
100
AcDbLine
 62
7
  6
CONTINUOUS
 10
147.0153007043
 20
204.112131333
 11
144.1620583331
 21
205.9689999629
  0
LINE
  5
3D5
100
AcDbEntity
  8
0
100
AcDbLine
 62
7
  6
CONTINUOUS
 10
145.9802422134
 20
208.7627998056
 11
149.1188088019
 21
206.7202443257
  0
LINE
  5
3D6
100
AcDbEntity
  8
0
100
AcDbLine
 62
7
  6
CONTINUOUS
 10
150.1440034118
 20
207.0473206837
 11
146.4347882892
 21
209.4612499286
  0
LINE
  5
3D7
100
AcDbEntity
  8
0
100
AcDbLine
 62
7
  6
CONTINUOUS
 10
147.8454231395
 20
211.3548301158
 11
151.9987171571
 21
207.830930305
  0
LINE
  5
3D8
100
AcDbEntity
  8
0
100
AcDbLine
 62
7
  6
CONTINUOUS
 10
152.5378555944
 20
208.4663627993
 11
149.552675417
 21
210.999165875
  0
LINE
  5
3D9
100
AcDbEntity
  8
0
100
AcDbLine
 62
7
  6
CONTINUOUS
 10
149.0335137103
 20
211.4396533128
 11
148.3845615768
 21
211.9902626101
  0
LINE
  5
3DA
100
AcDbEntity
  8
0
100
AcDbLine
 62
7
  6
CONTINUOUS
 10
152.0127351279
 20
212.8462349803
 11
154.4787535985
 21
210.7539193423
  0
LINE
  5
3DB
100
AcDbEntity
  8
0
100
AcDbLine
 62
7
  6
CONTINUOUS
 10
155.0178917273
 20
211.389351473
 11
152.5518732567
 21
213.481667111
  0
LINE
  5
3DC
100
AcDbEntity
  8
0
100
AcDbLine
 62
7
  6
CONTINUOUS
 10
150.3220222161
 20
217.9739239007
 11
150.923895013
 21
217.3722108412
  0
LINE
  5
3DD
100
AcDbEntity
  8
0
100
AcDbLine
 62
7
  6
CONTINUOUS
 10
152.1276409442
 20
216.1687843851
 11
155.9796271819
 21
212.3178204671
  0
LINE
  5
3DE
100
AcDbEntity
  8
0
100
AcDbLine
 62
7
  6
CONTINUOUS
 10
156.5688043981
 20
212.9071540929
 11
152.7168181604
 21
216.7581180109
  0
LINE
  5
3DF
100
AcDbEntity
  8
0
100
AcDbLine
 62
7
  6
CONTINUOUS
 10
151.5130722293
 20
217.961544467
 11
150.9111994323
 21
218.5632575265
  0
LINE
  5
3E0
100
AcDbEntity
  8
0
100
AcDbLine
 62
7
  6
CONTINUOUS
 10
160.1115536272
 20
224.5326215476
 11
160.8469804036
 21
223.3865931895
  0
LINE
  5
3E1
100
AcDbEntity
  8
0
100
AcDbLine
 62
7
  6
CONTINUOUS
 10
161.0450963232
 20
224.9294469671
 11
164.6303011177
 21
219.3425598751
  0
LINE
  5
3E2
100
AcDbEntity
  8
0
100
AcDbLine
 62
7
  6
CONTINUOUS
 10
165.4719154988
 20
219.8826387893
 11
161.1512841854
 21
226.6155538381
  0
LINE
  5
3E3
100
AcDbEntity
  8
0
100
AcDbLine
 62
7
  6
CONTINUOUS
 10
165.0687496314
 20
223.7096605922
 11
165.5195771649
 21
222.7932760341
  0
LINE
  5
3E4
100
AcDbEntity
  8
0
100
AcDbLine
 62
7
  6
CONTINUOUS
 10
167.230301674
 20
228.3772857479
 11
168.657922074
 21
225.4754015634
  0
LINE
  5
3E5
100
AcDbEntity
  8
0
100
AcDbLine
 62
7
  6
CONTINUOUS
 10
169.1087496075
 20
224.5590170053
 11
170.1606803787
 21
222.4207866549
  0
LINE
  5
3E6
100
AcDbEntity
  8
0
100
AcDbLine
 62
7
  6
CONTINUOUS
 10
171.0579734893
 20
222.8622218977
 11
170.0060427181
 21
225.0004522481
  0
LINE
  5
3E7
100
AcDbEntity
  8
0
100
AcDbLine
 62
7
  6
CONTINUOUS
 10
169.5552151846
 20
225.9168368062
 11
167.5264915469
 21
230.0405667829
  0
LINE
  5
3E8
100
AcDbEntity
  8
0
100
AcDbLine
 62
7
  6
CONTINUOUS
 10
172.38518466
 20
228.6211991768
 11
172.8435482405
 21
227.1594654425
  0
LINE
  5
3E9
100
AcDbEntity
  8
0
100
AcDbLine
 62
7
  6
CONTINUOUS
 10
173.5877739175
 20
227.5712212507
 11
173.2312689105
 21
228.7081252662
  0
LINE
  5
3EA
100
AcDbEntity
  8
0
100
AcDbLine
 62
7
  6
CONTINUOUS
 10
177.366079818
 20
230.0046997981
 11
177.722584825
 21
228.8677957826
  0
LINE
  5
3EB
100
AcDbEntity
  8
0
100
AcDbLine
 62
7
  6
CONTINUOUS
 10
178.5686727154
 20
228.9547230134
 11
178.1103091349
 21
230.4164567477
  0
LINE
  5
3EC
100
AcDbEntity
  8
0
100
AcDbLine
 62
7
  6
CONTINUOUS
 10
180.09757557
 20
230.8828749524
 11
180.3373982438
 21
229.3698489226
  0
LINE
  5
3ED
100
AcDbEntity
  8
0
100
AcDbLine
 62
7
  6
CONTINUOUS
 10
181.1338082635
 20
229.6684218357
 11
180.9472795172
 21
230.8452198589
  0
LINE
  5
3EE
100
AcDbEntity
  8
0
100
AcDbLine
 62
7
  6
CONTINUOUS
 10
185.2271848736
 20
231.5236076234
 11
185.4137136198
 21
230.3468096002
  0
LINE
  5
3EF
100
AcDbEntity
  8
0
100
AcDbLine
 62
7
  6
CONTINUOUS
 10
186.263417567
 20
230.3091545067
 11
186.0235948933
 21
231.8221805366
  0
LINE
  5
3F0
100
AcDbEntity
  8
0
100
AcDbLine
 62
7
  6
CONTINUOUS
 10
173.2312689105
 20
228.7081252662
 11
173.0847256389
 21
229.7324830687
  0
LINE
  5
3F1
100
AcDbEntity
  8
0
100
AcDbLine
 62
7
  6
CONTINUOUS
 10
177.722584825
 20
228.8677957826
 11
177.8691318079
 21
227.843438894
  0
LINE
  5
3F2
100
AcDbEntity
  8
0
100
AcDbLine
 62
7
  6
CONTINUOUS
 10
172.2895670352
 20
229.4831409785
 11
172.38518466
 21
228.6211991768
  0
LINE
  5
3F3
100
AcDbEntity
  8
0
100
AcDbLine
 62
7
  6
CONTINUOUS
 10
178.6642867717
 20
228.0927798428
 11
178.5686727154
 21
228.9547230134
  0
LINE
  5
3F4
100
AcDbEntity
  8
0
100
AcDbLine
 62
7
  6
CONTINUOUS
 10
208.2082265219
 20
226.4873829442
 11
208.2681628102
 21
225.7316854712
  0
LINE
  5
3F5
100
AcDbEntity
  8
0
100
AcDbLine
 62
7
  6
CONTINUOUS
 10
208.2407859984
 20
227.0235435728
 11
208.2082265219
 21
226.4873829442
  0
LINE
  5
3F6
100
AcDbEntity
  8
0
100
AcDbLine
 62
7
  6
CONTINUOUS
 10
214.6992573804
 20
227.9499667924
 11
214.7318170321
 21
228.4861278645
  0
LINE
  5
3F7
100
AcDbEntity
  8
0
100
AcDbLine
 62
7
  6
CONTINUOUS
 10
202.7021402702
 20
226.1352778804
 11
202.860950979
 21
227.1441312089
  0
LINE
  5
3F8
100
AcDbEntity
  8
0
100
AcDbLine
 62
7
  6
CONTINUOUS
 10
203.7608783536
 20
232.8609668946
 11
203.9461574922
 21
234.0379623073
  0
LINE
  5
3F9
100
AcDbEntity
  8
0
100
AcDbLine
 62
7
  6
CONTINUOUS
 10
208.3983866556
 20
227.8763339231
 11
208.2407859984
 21
227.0235435728
  0
LINE
  5
3FA
100
AcDbEntity
  8
0
100
AcDbLine
 62
7
  6
CONTINUOUS
 10
214.5416497148
 20
227.0971794663
 11
214.6992573804
 21
227.9499667924
  0
LINE
  5
3FB
100
AcDbEntity
  8
0
100
AcDbLine
 62
7
  6
CONTINUOUS
 10
209.01585713
 20
226.7174378585
 11
209.2359889778
 21
227.728538755
  0
LINE
  5
3FC
100
AcDbEntity
  8
0
100
AcDbLine
 62
7
  6
CONTINUOUS
 10
213.9241791528
 20
228.2560753093
 11
213.7040544887
 21
227.244971832
  0
LINE
  5
3FD
100
AcDbEntity
  8
0
100
AcDbLine
 62
7
  6
CONTINUOUS
 10
228.929425451
 20
219.930799931
 11
228.7356922473
 21
219.4298051357
  0
LINE
  5
3FE
100
AcDbEntity
  8
0
100
AcDbLine
 62
7
  6
CONTINUOUS
 10
229.5104470777
 20
218.7975433601
 11
229.7041802813
 21
219.2985381554
  0
LINE
  5
3FF
100
AcDbEntity
  8
0
100
AcDbLine
 62
7
  6
CONTINUOUS
 10
231.0748721633
 20
208.1737831024
 11
235.2482282269
 21
215.5014155109
  0
LINE
  5
400
100
AcDbEntity
  8
0
100
AcDbLine
 62
7
  6
CONTINUOUS
 10
231.4820262366
 20
210.7783979262
 11
230.4070140931
 21
208.9180717548
  0
LINE
  5
401
100
AcDbEntity
  8
0
100
AcDbLine
 62
7
  6
CONTINUOUS
 10
234.2962415515
 20
215.5428942296
 11
231.877467917
 21
211.3571559655
  0
LINE
  5
402
100
AcDbEntity
  8
0
100
AcDbLine
 62
7
  6
CONTINUOUS
 10
233.8176120287
 20
208.1611032494
 11
233.2869109977
 21
207.4169400315
  0
LINE
  5
403
100
AcDbEntity
  8
0
100
AcDbLine
 62
7
  6
CONTINUOUS
 10
237.7174421373
 20
203.7403066643
 11
238.2481430684
 21
204.484469817
  0
LINE
  5
404
100
AcDbEntity
  8
0
100
AcDbLine
 62
7
  6
CONTINUOUS
 10
234.0788299176
 20
207.1375531873
 11
234.4154641923
 21
207.5561289919
  0
LINE
  5
405
100
AcDbEntity
  8
0
100
AcDbLine
 62
7
  6
CONTINUOUS
 10
237.4562242484
 20
204.7638567264
 11
237.1195897739
 21
204.3452807915
  0
LINE
  5
406
100
AcDbEntity
  8
0
100
AcDbLine
 62
7
  6
CONTINUOUS
 10
240.1014683184
 20
205.6934030836
 11
240.4381025932
 21
206.1119788882
  0
LINE
  5
407
100
AcDbEntity
  8
0
100
AcDbLine
 62
7
  6
CONTINUOUS
 10
229.079970725
 20
218.2700504031
 11
229.5104470777
 21
218.7975433601
  0
LINE
  5
408
100
AcDbEntity
  8
0
100
AcDbLine
 62
7
  6
CONTINUOUS
 10
234.7245003033
 20
208.9516585708
 11
233.8176120287
 21
208.1611032494
  0
LINE
  5
409
100
AcDbEntity
  8
0
100
AcDbLine
 62
7
  6
CONTINUOUS
 10
236.6918994238
 20
204.0662962516
 11
236.1731529982
 21
203.9269029765
  0
LINE
  5
40A
100
AcDbEntity
  8
0
100
AcDbLine
 62
7
  6
CONTINUOUS
 10
234.8431545425
 20
207.8351135318
 11
235.3619011677
 21
207.9745069371
  0
LINE
  5
40B
100
AcDbEntity
  8
0
100
AcDbLine
 62
7
  6
CONTINUOUS
 10
237.1241699429
 20
209.3230312079
 11
237.6429167679
 21
209.4624247435
  0
LINE
  5
40C
100
AcDbEntity
  8
0
100
AcDbLine
 62
7
  6
CONTINUOUS
 10
236.1096910182
 20
203.0895469223
 11
237.0046246874
 21
203.2753323009
  0
LINE
  5
40D
100
AcDbEntity
  8
0
100
AcDbLine
 62
7
  6
CONTINUOUS
 10
237.7063786481
 20
210.2997807326
 11
236.8114446794
 21
210.1139951587
  0
LINE
  5
40E
100
AcDbEntity
  8
0
100
AcDbLine
 62
7
  6
CONTINUOUS
 10
147.2223124608
 20
203.1819975969
 11
147.5985458785
 21
203.1360007491
  0
LINE
  5
40F
100
AcDbEntity
  8
0
100
AcDbLine
 62
7
  6
CONTINUOUS
 10
151.1817946455
 20
206.7696401979
 11
150.8055610322
 21
206.8156367997
  0
LINE
  5
410
100
AcDbEntity
  8
0
100
AcDbLine
 62
7
  6
CONTINUOUS
 10
149.8321194446
 20
206.2560271357
 11
150.7272485697
 21
206.0711900748
  0
LINE
  5
411
100
AcDbEntity
  8
0
100
AcDbLine
 62
7
  6
CONTINUOUS
 10
147.5341962387
 20
203.9732910726
 11
147.0153007043
 21
204.112131333
  0
LINE
  5
412
100
AcDbEntity
  8
0
100
AcDbLine
 62
7
  6
CONTINUOUS
 10
146.5607547261
 20
203.4136813598
 11
147.2223124608
 21
203.1819975969
  0
LINE
  5
413
100
AcDbEntity
  8
0
100
AcDbLine
 62
7
  6
CONTINUOUS
 10
150.8055610322
 20
206.8156367997
 11
150.1440034118
 21
207.0473206837
  0
LINE
  5
414
100
AcDbEntity
  8
0
100
AcDbLine
 62
7
  6
CONTINUOUS
 10
151.7950938677
 20
213.9051904184
 11
151.2978947151
 21
214.1084692797
  0
LINE
  5
415
100
AcDbEntity
  8
0
100
AcDbLine
 62
7
  6
CONTINUOUS
 10
151.2559551219
 20
213.2697575605
 11
152.0127351279
 21
212.8462349803
  0
LINE
  5
416
100
AcDbEntity
  8
0
100
AcDbLine
 62
7
  6
CONTINUOUS
 10
152.5518732567
 20
213.481667111
 11
151.7950938677
 21
213.9051904184
  0
LINE
  5
417
100
AcDbEntity
  8
0
100
AcDbLine
 62
7
  6
CONTINUOUS
 10
173.5690438631
 20
225.9598824914
 11
174.0908223032
 21
225.4099590914
  0
LINE
  5
418
100
AcDbEntity
  8
0
100
AcDbLine
 62
7
  6
CONTINUOUS
 10
173.2572235542
 20
226.3972584231
 11
173.5690438631
 21
225.9598824914
  0
LINE
  5
419
100
AcDbEntity
  8
0
100
AcDbLine
 62
7
  6
CONTINUOUS
 10
177.6966302526
 20
231.1786623982
 11
177.384809801
 21
231.6160387849
  0
LINE
  5
41A
100
AcDbEntity
  8
0
100
AcDbLine
 62
7
  6
CONTINUOUS
 10
180.879796031
 20
228.0771201051
 11
181.3156097121
 21
227.4568480158
  0
LINE
  5
41B
100
AcDbEntity
  8
0
100
AcDbLine
 62
7
  6
CONTINUOUS
 10
172.8435482405
 20
227.1594654425
 11
173.2572235542
 21
226.3972584231
  0
LINE
  5
41C
100
AcDbEntity
  8
0
100
AcDbLine
 62
7
  6
CONTINUOUS
 10
178.1103091349
 20
230.4164567477
 11
177.6966302526
 21
231.1786623982
  0
LINE
  5
41D
100
AcDbEntity
  8
0
100
AcDbLine
 62
7
  6
CONTINUOUS
 10
180.6352460036
 20
228.5553706914
 11
180.879796031
 21
228.0771201051
  0
LINE
  5
41E
100
AcDbEntity
  8
0
100
AcDbLine
 62
7
  6
CONTINUOUS
 10
185.7257471708
 20
232.6366585323
 11
185.4811970688
 21
233.1149095895
  0
LINE
  5
41F
100
AcDbEntity
  8
0
100
AcDbLine
 62
7
  6
CONTINUOUS
 10
174.0523821579
 20
226.6466005134
 11
173.5877739175
 21
227.5712212507
  0
LINE
  5
420
100
AcDbEntity
  8
0
100
AcDbLine
 62
7
  6
CONTINUOUS
 10
176.9014752888
 20
230.9293214494
 11
177.366079818
 21
230.0046997981
  0
LINE
  5
421
100
AcDbEntity
  8
0
100
AcDbLine
 62
7
  6
CONTINUOUS
 10
171.5015306654
 20
225.7361773721
 11
171.0507031319
 21
226.6525619302
  0
LINE
  5
422
100
AcDbEntity
  8
0
100
AcDbLine
 62
7
  6
CONTINUOUS
 10
180.3373982438
 20
229.3698489226
 11
180.6352460036
 21
228.5553706914
  0
LINE
  5
423
100
AcDbEntity
  8
0
100
AcDbLine
 62
7
  6
CONTINUOUS
 10
186.0235948933
 20
231.8221805366
 11
185.7257471708
 21
232.6366585323
  0
LINE
  5
424
100
AcDbEntity
  8
0
100
AcDbLine
 62
7
  6
CONTINUOUS
 10
181.4583029871
 20
228.6858296012
 11
181.1338082635
 21
229.6684218357
  0
LINE
  5
425
100
AcDbEntity
  8
0
100
AcDbLine
 62
7
  6
CONTINUOUS
 10
184.9026901873
 20
232.5061996224
 11
185.2271848736
 21
231.5236076234
  0
LINE
  5
426
100
AcDbEntity
  8
0
100
AcDbLine
 62
7
  6
CONTINUOUS
 10
228.8864098962
 20
220.4053017579
 11
228.929425451
 21
219.930799931
  0
LINE
  5
427
100
AcDbEntity
  8
0
100
AcDbLine
 62
7
  6
CONTINUOUS
 10
214.7318170321
 20
228.4861278645
 11
214.6718807
 21
229.2418252267
  0
LINE
  5
428
100
AcDbEntity
  8
0
100
AcDbLine
 62
7
  6
CONTINUOUS
 10
232.9898295421
 20
206.626180428
 11
233.0174278681
 21
205.6492267597
  0
LINE
  5
429
100
AcDbEntity
  8
0
100
AcDbLine
 62
7
  6
CONTINUOUS
 10
238.4026610241
 20
205.1822345413
 11
238.3750668289
 21
206.1591817952
  0
LINE
  5
42A
100
AcDbEntity
  8
0
100
AcDbLine
 62
7
  6
CONTINUOUS
 10
233.8213012811
 20
205.974609785
 11
233.8332557867
 21
206.5793796626
  0
LINE
  5
42B
100
AcDbEntity
  8
0
100
AcDbLine
 62
7
  6
CONTINUOUS
 10
237.571189335
 20
205.833805217
 11
237.5592348294
 21
205.2290353393
  0
LINE
  5
42C
100
AcDbEntity
  8
0
100
AcDbLine
 62
7
  6
CONTINUOUS
 10
239.9037123097
 20
207.5543091348
 11
239.8917578042
 21
206.9495392571
  0
LINE
  5
42D
100
AcDbEntity
  8
0
100
AcDbLine
 62
7
  6
CONTINUOUS
 10
229.7041802813
 20
219.2985381554
 11
229.7472789174
 21
220.1421616308
  0
LINE
  5
42E
100
AcDbEntity
  8
0
100
AcDbLine
 62
7
  6
CONTINUOUS
 10
237.5592348294
 20
205.2290353393
 11
237.4562242484
 21
204.7638567264
  0
LINE
  5
42F
100
AcDbEntity
  8
0
100
AcDbLine
 62
7
  6
CONTINUOUS
 10
238.2481430684
 20
204.484469817
 11
238.4026610241
 21
205.1822345413
  0
LINE
  5
430
100
AcDbEntity
  8
0
100
AcDbLine
 62
7
  6
CONTINUOUS
 10
233.2869109977
 20
207.4169400315
 11
232.9898295421
 21
206.626180428
  0
LINE
  5
431
100
AcDbEntity
  8
0
100
AcDbLine
 62
7
  6
CONTINUOUS
 10
240.4381025932
 20
206.1119788882
 11
240.7351839989
 21
206.9027384591
  0
LINE
  5
432
100
AcDbEntity
  8
0
100
AcDbLine
 62
7
  6
CONTINUOUS
 10
233.8332557867
 20
206.5793796626
 11
234.0788299176
 21
207.1375531873
  0
LINE
  5
433
100
AcDbEntity
  8
0
100
AcDbLine
 62
7
  6
CONTINUOUS
 10
239.8917578042
 20
206.9495392571
 11
239.6461837731
 21
206.3913657976
  0
LINE
  5
434
100
AcDbEntity
  8
0
100
AcDbLine
 62
7
  6
CONTINUOUS
 10
150.8226587336
 20
214.0745402918
 11
150.2395948795
 21
213.9135245868
  0
LINE
  5
435
100
AcDbEntity
  8
0
100
AcDbLine
 62
7
  6
CONTINUOUS
 10
227.8101363854
 20
217.7684446173
 11
228.6279898518
 21
217.9798063171
  0
LINE
  5
436
100
AcDbEntity
  8
0
100
AcDbLine
 62
7
  6
CONTINUOUS
 10
211.7410183333
 20
224.5431263902
 11
211.1509246269
 21
224.4101642423
  0
LINE
  5
437
100
AcDbEntity
  8
0
100
AcDbLine
 62
7
  6
CONTINUOUS
 10
211.1990251769
 20
230.4303843077
 11
211.7891188833
 21
230.5633464555
  0
LINE
  5
438
100
AcDbEntity
  8
0
100
AcDbLine
 62
7
  6
CONTINUOUS
 10
147.5985458785
 20
203.1360007491
 11
148.2992598314
 21
203.2765404105
  0
LINE
  5
439
100
AcDbEntity
  8
0
100
AcDbLine
 62
7
  6
CONTINUOUS
 10
210.993316923
 20
223.5573768192
 11
211.9559674506
 21
223.7262083902
  0
LINE
  5
43A
100
AcDbEntity
  8
0
100
AcDbLine
 62
7
  6
CONTINUOUS
 10
227.9608540343
 20
218.7439412396
 11
227.4873624283
 21
218.6909504789
  0
LINE
  5
43B
100
AcDbEntity
  8
0
100
AcDbLine
 62
7
  6
CONTINUOUS
 10
150.7807191404
 20
213.2358285726
 11
151.2559551219
 21
213.2697575605
  0
LINE
  5
43C
100
AcDbEntity
  8
0
100
AcDbLine
 62
7
  6
CONTINUOUS
 10
151.2978947151
 20
214.1084692797
 11
150.8226587336
 21
214.0745402918
  0
LINE
  5
43D
100
AcDbEntity
  8
0
100
AcDbLine
 62
7
  6
CONTINUOUS
 10
148.1440010816
 20
203.9741407618
 11
147.5341962387
 21
203.9732910726
  0
LINE
  5
43E
100
AcDbEntity
  8
0
100
AcDbLine
 62
7
  6
CONTINUOUS
 10
236.1731529982
 20
203.9269029765
 11
235.5633462292
 21
203.9271072912
  0
LINE
  5
43F
100
AcDbEntity
  8
0
100
AcDbLine
 62
7
  6
CONTINUOUS
 10
237.6429167679
 20
209.4624247435
 11
238.2527234371
 21
209.4622203637
  0
LINE
  5
440
100
AcDbEntity
  8
0
100
AcDbLine
 62
7
  6
CONTINUOUS
 10
226.9707780971
 20
217.7943314191
 11
227.8101363854
 21
217.7684446173
  0
LINE
  5
441
100
AcDbEntity
  8
0
100
AcDbLine
 62
7
  6
CONTINUOUS
 10
235.2662647736
 20
203.1363476877
 11
236.1096910182
 21
203.0895469223
  0
LINE
  5
442
100
AcDbEntity
  8
0
100
AcDbLine
 62
7
  6
CONTINUOUS
 10
238.5498048428
 20
210.2529799347
 11
237.7063786481
 21
210.2997807326
  0
LINE
  5
443
100
AcDbEntity
  8
0
100
AcDbLine
 62
7
  6
CONTINUOUS
 10
235.3619011677
 20
207.9745069371
 11
235.8291443869
 21
207.8813077107
  0
LINE
  5
444
100
AcDbEntity
  8
0
100
AcDbLine
 62
7
  6
CONTINUOUS
 10
174.7207038874
 20
225.0723192541
 11
175.6686503647
 21
224.8344167235
  0
LINE
  5
445
100
AcDbEntity
  8
0
100
AcDbLine
 62
7
  6
CONTINUOUS
 10
175.5730327086
 20
225.6963586248
 11
174.9940804289
 21
225.871583546
  0
LINE
  5
446
100
AcDbEntity
  8
0
100
AcDbLine
 62
7
  6
CONTINUOUS
 10
175.3808209912
 20
231.8795625378
 11
175.9597732709
 21
231.7043376166
  0
LINE
  5
447
100
AcDbEntity
  8
0
100
AcDbLine
 62
7
  6
CONTINUOUS
 10
181.8893855563
 20
227.0307814123
 11
182.792383438
 21
226.6568982681
  0
LINE
  5
448
100
AcDbEntity
  8
0
100
AcDbLine
 62
7
  6
CONTINUOUS
 10
235.5633462292
 20
203.9271072912
 11
235.0050469346
 21
204.1598977824
  0
LINE
  5
449
100
AcDbEntity
  8
0
100
AcDbLine
 62
7
  6
CONTINUOUS
 10
235.8291443869
 20
207.8813077107
 11
236.3874436815
 21
207.6485172195
  0
LINE
  5
44A
100
AcDbEntity
  8
0
100
AcDbLine
 62
7
  6
CONTINUOUS
 10
237.0092048563
 20
208.2530827174
 11
235.8926062671
 21
208.7186636998
  0
LINE
  5
44B
100
AcDbEntity
  8
0
100
AcDbLine
 62
7
  6
CONTINUOUS
 10
238.2527234371
 20
209.4622203637
 11
238.8110227317
 21
209.2294298725
  0
LINE
  5
44C
100
AcDbEntity
  8
0
100
AcDbLine
 62
7
  6
CONTINUOUS
 10
182.8237615067
 20
227.5235604085
 11
182.2766326356
 21
227.7815129498
  0
LINE
  5
44D
100
AcDbEntity
  8
0
100
AcDbLine
 62
7
  6
CONTINUOUS
 10
183.5372316117
 20
233.6684691684
 11
184.0843604828
 21
233.4105166271
  0
LINE
  5
44E
100
AcDbEntity
  8
0
100
AcDbLine
 62
7
  6
CONTINUOUS
 10
234.3832898406
 20
203.5553258375
 11
235.2662647736
 21
203.1363476877
  0
LINE
  5
44F
100
AcDbEntity
  8
0
100
AcDbLine
 62
7
  6
CONTINUOUS
 10
174.0908223032
 20
225.4099590914
 11
174.7207038874
 21
225.0723192541
  0
LINE
  5
450
100
AcDbEntity
  8
0
100
AcDbLine
 62
7
  6
CONTINUOUS
 10
176.8630313966
 20
232.1659620711
 11
176.2331498302
 21
232.5036018516
  0
LINE
  5
451
100
AcDbEntity
  8
0
100
AcDbLine
 62
7
  6
CONTINUOUS
 10
181.3156097121
 20
227.4568480158
 11
181.8893855563
 21
227.0307814123
  0
LINE
  5
452
100
AcDbEntity
  8
0
100
AcDbLine
 62
7
  6
CONTINUOUS
 10
185.0453834063
 20
233.7351815611
 11
184.4716075714
 21
234.1612481057
  0
LINE
  5
453
100
AcDbEntity
  8
0
100
AcDbLine
 62
7
  6
CONTINUOUS
 10
174.9940804289
 20
225.871583546
 11
174.0523821579
 21
226.6466005134
  0
LINE
  5
454
100
AcDbEntity
  8
0
100
AcDbLine
 62
7
  6
CONTINUOUS
 10
175.9597732709
 20
231.7043376166
 11
176.9014752888
 21
230.9293214494
  0
LINE
  5
455
100
AcDbEntity
  8
0
100
AcDbLine
 62
7
  6
CONTINUOUS
 10
177.384809801
 20
231.6160387849
 11
176.8630313966
 21
232.1659620711
  0
LINE
  5
456
100
AcDbEntity
  8
0
100
AcDbLine
 62
7
  6
CONTINUOUS
 10
182.2766326356
 20
227.7815129498
 11
181.4583029871
 21
228.6858296012
  0
LINE
  5
457
100
AcDbEntity
  8
0
100
AcDbLine
 62
7
  6
CONTINUOUS
 10
184.0843604828
 20
233.4105166271
 11
184.9026901873
 21
232.5061996224
  0
LINE
  5
458
100
AcDbEntity
  8
0
100
AcDbLine
 62
7
  6
CONTINUOUS
 10
208.545636022
 20
225.0730808199
 11
209.1331348535
 21
224.2920350177
  0
LINE
  5
459
100
AcDbEntity
  8
0
100
AcDbLine
 62
7
  6
CONTINUOUS
 10
185.4811970688
 20
233.1149095895
 11
185.0453834063
 21
233.7351815611
  0
LINE
  5
45A
100
AcDbEntity
  8
0
100
AcDbLine
 62
7
  6
CONTINUOUS
 10
209.6007752677
 20
225.0223784736
 11
209.2607779394
 21
225.5226697207
  0
LINE
  5
45B
100
AcDbEntity
  8
0
100
AcDbLine
 62
7
  6
CONTINUOUS
 10
213.3392682425
 20
229.9511322243
 11
213.6792655708
 21
229.4508409772
  0
LINE
  5
45C
100
AcDbEntity
  8
0
100
AcDbLine
 62
7
  6
CONTINUOUS
 10
208.2681628102
 20
225.7316854712
 11
208.545636022
 21
225.0730808199
  0
LINE
  5
45D
100
AcDbEntity
  8
0
100
AcDbLine
 62
7
  6
CONTINUOUS
 10
214.6718807
 20
229.2418252267
 11
214.3944074663
 21
229.9004298225
  0
LINE
  5
45E
100
AcDbEntity
  8
0
100
AcDbLine
 62
7
  6
CONTINUOUS
 10
229.7472789174
 20
220.1421616308
 11
229.5536347059
 21
220.9592873139
  0
LINE
  5
45F
100
AcDbEntity
  8
0
100
AcDbLine
 62
7
  6
CONTINUOUS
 10
209.2607779394
 20
225.5226697207
 11
209.01585713
 21
226.7174378585
  0
LINE
  5
460
100
AcDbEntity
  8
0
100
AcDbLine
 62
7
  6
CONTINUOUS
 10
213.6792655708
 20
229.4508409772
 11
213.9241791528
 21
228.2560753093
  0
LINE
  5
461
100
AcDbEntity
  8
0
100
AcDbLine
 62
7
  6
CONTINUOUS
 10
240.7351839989
 20
206.9027384591
 11
240.7075856354
 21
207.8796921031
  0
LINE
  5
462
100
AcDbEntity
  8
0
100
AcDbLine
 62
7
  6
CONTINUOUS
 10
211.9467194529
 20
231.4161365841
 11
210.9840760377
 21
231.2473022522
  0
LINE
  5
463
100
AcDbEntity
  8
0
100
AcDbLine
 62
7
  6
CONTINUOUS
 10
175.6686503647
 20
224.8344167235
 11
176.6737670683
 21
224.9712114451
  0
LINE
  5
464
100
AcDbEntity
  8
0
100
AcDbLine
 62
7
  6
CONTINUOUS
 10
175.2852070063
 20
232.7415054809
 11
174.2800903071
 21
232.6047107451
  0
LINE
  5
465
100
AcDbEntity
  8
0
100
AcDbLine
 62
7
  6
CONTINUOUS
 10
176.4191205991
 20
225.7832858557
 11
175.5730327086
 21
225.6963586248
  0
LINE
  5
466
100
AcDbEntity
  8
0
100
AcDbLine
 62
7
  6
CONTINUOUS
 10
174.5347367407
 20
231.7926364483
 11
175.3808209912
 21
231.8795625378
  0
LINE
  5
467
100
AcDbEntity
  8
0
100
AcDbLine
 62
7
  6
CONTINUOUS
 10
182.792383438
 20
226.6568982681
 11
183.8067002913
 21
226.6453351807
  0
LINE
  5
468
100
AcDbEntity
  8
0
100
AcDbLine
 62
7
  6
CONTINUOUS
 10
183.5686096967
 20
234.5351312058
 11
182.5542928458
 21
234.5466942784
  0
LINE
  5
469
100
AcDbEntity
  8
0
100
AcDbLine
 62
7
  6
CONTINUOUS
 10
183.6734654539
 20
227.485905315
 11
182.8237615067
 21
227.5235604085
  0
LINE
  5
46A
100
AcDbEntity
  8
0
100
AcDbLine
 62
7
  6
CONTINUOUS
 10
182.6875276645
 20
233.7061242618
 11
183.5372316117
 21
233.6684691684
  0
LINE
  5
46B
100
AcDbEntity
  8
0
100
AcDbLine
 62
7
  6
CONTINUOUS
 10
196.1165686583
 20
227.1719590965
 11
202.7021402702
 21
226.1352778804
  0
LINE
  5
46C
100
AcDbEntity
  8
0
100
AcDbLine
 62
7
  6
CONTINUOUS
 10
202.860950979
 20
227.1441312089
 11
197.2632149205
 21
228.0253102723
  0
LINE
  5
46D
100
AcDbEntity
  8
0
100
AcDbLine
 62
7
  6
CONTINUOUS
 10
197.2282436385
 20
234.2339325144
 11
202.990620212
 21
233.3268362278
  0
LINE
  5
46E
100
AcDbEntity
  8
0
100
AcDbLine
 62
7
  6
CONTINUOUS
 10
203.9461574922
 20
234.0379623073
 11
197.3605858804
 21
235.0746435234
  0
LINE
  5
46F
100
AcDbEntity
  8
0
100
AcDbLine
 62
7
  6
CONTINUOUS
 10
211.1509246269
 20
224.4101642423
 11
210.3133223047
 21
224.5579594105
  0
LINE
  5
470
100
AcDbEntity
  8
0
100
AcDbLine
 62
7
  6
CONTINUOUS
 10
211.7891188833
 20
230.5633464555
 11
212.6267141094
 21
230.4155540899
  0
LINE
  5
471
100
AcDbEntity
  8
0
100
AcDbLine
 62
7
  6
CONTINUOUS
 10
210.0007017882
 20
223.7663925559
 11
210.993316923
 21
223.5573768192
  0
LINE
  5
472
100
AcDbEntity
  8
0
100
AcDbLine
 62
7
  6
CONTINUOUS
 10
212.9393345822
 20
231.2071208336
 11
211.9467194529
 21
231.4161365841
  0
LINE
  5
473
100
AcDbEntity
  8
0
100
AcDbLine
 62
7
  6
CONTINUOUS
 10
176.2331498302
 20
232.5036018516
 11
175.2852070063
 21
232.7415054809
  0
LINE
  5
474
100
AcDbEntity
  8
0
100
AcDbLine
 62
7
  6
CONTINUOUS
 10
204.9452366808
 20
225.4574583502
 11
205.9091490314
 21
225.1912385531
  0
LINE
  5
475
100
AcDbEntity
  8
0
100
AcDbLine
 62
7
  6
CONTINUOUS
 10
208.0389074082
 20
232.9025373579
 11
207.0749950576
 21
233.168757155
  0
LINE
  5
476
100
AcDbEntity
  8
0
100
AcDbLine
 62
7
  6
CONTINUOUS
 10
227.4873624283
 20
218.6909504789
 11
226.9923660003
 21
218.8752082198
  0
LINE
  5
477
100
AcDbEntity
  8
0
100
AcDbLine
 62
7
  6
CONTINUOUS
 10
184.4716075714
 20
234.1612481057
 11
183.5686096967
 21
234.5351312058
  0
LINE
  5
478
100
AcDbEntity
  8
0
100
AcDbLine
 62
7
  6
CONTINUOUS
 10
239.4327839065
 20
209.8339953704
 11
238.5498048428
 21
210.2529799347
  0
LINE
  5
479
100
AcDbEntity
  8
0
100
AcDbLine
 62
7
  6
CONTINUOUS
 10
226.2175280887
 20
218.1893446932
 11
226.9707780971
 21
217.7943314191
  0
LINE
  5
47A
100
AcDbEntity
  8
0
100
AcDbLine
 62
7
  6
CONTINUOUS
 10
209.1331348535
 20
224.2920350177
 11
210.0007017882
 21
223.7663925559
  0
LINE
  5
47B
100
AcDbEntity
  8
0
100
AcDbLine
 62
7
  6
CONTINUOUS
 10
213.8069015223
 20
230.6814783856
 11
212.9393345822
 21
231.2071208336
  0
LINE
  5
47C
100
AcDbEntity
  8
0
100
AcDbLine
 62
7
  6
CONTINUOUS
 10
210.3133223047
 20
224.5579594105
 11
209.6007752677
 21
225.0223784736
  0
LINE
  5
47D
100
AcDbEntity
  8
0
100
AcDbLine
 62
7
  6
CONTINUOUS
 10
212.6267141094
 20
230.4155540899
 11
213.3392682425
 21
229.9511322243
  0
LINE
  5
47E
100
AcDbEntity
  8
0
100
AcDbLine
 62
7
  6
CONTINUOUS
 10
235.0050469346
 20
204.1598977824
 11
234.58931109
 21
204.4856831202
  0
LINE
  5
47F
100
AcDbEntity
  8
0
100
AcDbLine
 62
7
  6
CONTINUOUS
 10
236.3874436815
 20
207.6485172195
 11
236.8031795261
 21
207.3227318817
  0
LINE
  5
480
100
AcDbEntity
  8
0
100
AcDbLine
 62
7
  6
CONTINUOUS
 10
238.8110227317
 20
209.2294298725
 11
239.2267585763
 21
208.9036445347
  0
LINE
  5
481
100
AcDbEntity
  8
0
100
AcDbLine
 62
7
  6
CONTINUOUS
 10
220.858509197
 20
217.9490553414
 11
221.6332640274
 21
217.3167935658
  0
LINE
  5
482
100
AcDbEntity
  8
0
100
AcDbLine
 62
7
  6
CONTINUOUS
 10
223.8932635977
 20
220.0861300199
 11
226.2175280887
 21
218.1893446932
  0
LINE
  5
483
100
AcDbEntity
  8
0
100
AcDbLine
 62
7
  6
CONTINUOUS
 10
226.9923660003
 20
218.8752082198
 11
224.5389776745
 21
220.8773689013
  0
LINE
  5
484
100
AcDbEntity
  8
0
100
AcDbLine
 62
7
  6
CONTINUOUS
 10
226.153263168
 20
222.855466474
 11
228.6066514938
 21
220.8533057926
  0
LINE
  5
485
100
AcDbEntity
  8
0
100
AcDbLine
 62
7
  6
CONTINUOUS
 10
229.0156227231
 20
221.6180468817
 11
225.9166034017
 21
224.1470939841
  0
LINE
  5
486
100
AcDbEntity
  8
0
100
AcDbLine
 62
7
  6
CONTINUOUS
 10
233.7854376645
 20
204.1603000868
 11
234.3832898406
 21
203.5553258375
  0
LINE
  5
487
100
AcDbEntity
  8
0
100
AcDbLine
 62
7
  6
CONTINUOUS
 10
237.6070528517
 20
207.64811485
 11
237.0092048563
 21
208.2530827174
  0
LINE
  5
488
100
AcDbEntity
  8
0
100
AcDbLine
 62
7
  6
CONTINUOUS
 10
240.0306319019
 20
209.229027503
 11
239.4327839065
 21
209.8339953704
  0
LINE
  5
489
100
AcDbEntity
  8
0
100
AcDbLine
 62
7
  6
CONTINUOUS
 10
226.622486727
 20
213.1357055588
 11
227.2903447972
 21
212.3914169064
  0
LINE
  5
48A
100
AcDbEntity
  8
0
100
AcDbLine
 62
7
  6
CONTINUOUS
 10
230.4070140931
 20
208.9180717548
 11
231.0748721633
 21
208.1737831024
  0
LINE
  5
48B
100
AcDbEntity
  8
0
100
AcDbLine
 62
7
  6
CONTINUOUS
 10
229.2558309708
 20
213.2593619937
 11
231.4820262366
 21
210.7783979262
  0
LINE
  5
48C
100
AcDbEntity
  8
0
100
AcDbLine
 62
7
  6
CONTINUOUS
 10
231.877467917
 20
211.3571559655
 11
229.8738937064
 21
213.5900219227
  0
LINE
  5
48D
100
AcDbEntity
  8
0
100
AcDbLine
 62
7
  6
CONTINUOUS
 10
235.2482282269
 20
215.5014155109
 11
234.3577491015
 21
216.4938022736
  0
LINE
  5
48E
100
AcDbEntity
  8
0
100
AcDbLine
 62
7
  6
CONTINUOUS
 10
229.5536347059
 20
220.9592873139
 11
229.0156227231
 21
221.6180468817
  0
LINE
  5
48F
100
AcDbEntity
  8
0
100
AcDbLine
 62
7
  6
CONTINUOUS
 10
214.3944074663
 20
229.9004298225
 11
213.8069015223
 21
230.6814783856
  0
LINE
  5
490
100
AcDbEntity
  8
0
100
AcDbLine
 62
7
  6
CONTINUOUS
 10
233.3301489509
 20
204.8582691909
 11
233.7854376645
 21
204.1603000868
  0
LINE
  5
491
100
AcDbEntity
  8
0
100
AcDbLine
 62
7
  6
CONTINUOUS
 10
234.58931109
 20
204.4856831202
 11
233.9519102256
 21
205.4628347539
  0
LINE
  5
492
100
AcDbEntity
  8
0
100
AcDbLine
 62
7
  6
CONTINUOUS
 10
236.8031795261
 20
207.3227318817
 11
237.4405803905
 21
206.345580248
  0
LINE
  5
493
100
AcDbEntity
  8
0
100
AcDbLine
 62
7
  6
CONTINUOUS
 10
238.0623415653
 20
206.9501457459
 11
237.6070528517
 21
207.64811485
  0
LINE
  5
494
100
AcDbEntity
  8
0
100
AcDbLine
 62
7
  6
CONTINUOUS
 10
239.6461837731
 20
206.3913657976
 11
240.1014683184
 21
205.6934030836
  0
LINE
  5
495
100
AcDbEntity
  8
0
100
AcDbLine
 62
7
  6
CONTINUOUS
 10
239.2267585763
 20
208.9036445347
 11
239.7731033653
 21
208.0660841658
  0
LINE
  5
496
100
AcDbEntity
  8
0
100
AcDbLine
 62
7
  6
CONTINUOUS
 10
240.3948645401
 20
208.6706496637
 11
240.0306319019
 21
209.229027503
  0
LINE
  5
497
100
AcDbEntity
  8
0
100
AcDbLine
 62
7
  6
CONTINUOUS
 10
228.6066514938
 20
220.8533057926
 11
228.8864098962
 21
220.4053017579
  0
LINE
  5
498
100
AcDbEntity
  8
0
100
AcDbLine
 62
7
  6
CONTINUOUS
 10
233.0174278681
 20
205.6492267597
 11
233.3301489509
 21
204.8582691909
  0
LINE
  5
499
100
AcDbEntity
  8
0
100
AcDbLine
 62
7
  6
CONTINUOUS
 10
238.3750668289
 20
206.1591817952
 11
238.0623415653
 21
206.9501457459
  0
LINE
  5
49A
100
AcDbEntity
  8
0
100
AcDbLine
 62
7
  6
CONTINUOUS
 10
240.7075856354
 20
207.8796921031
 11
240.3948645401
 21
208.6706496637
  0
LINE
  5
49B
100
AcDbEntity
  8
0
100
AcDbLine
 62
7
  6
CONTINUOUS
 10
233.9519102256
 20
205.4628347539
 11
233.8213012811
 21
205.974609785
  0
LINE
  5
49C
100
AcDbEntity
  8
0
100
AcDbLine
 62
7
  6
CONTINUOUS
 10
237.4405803905
 20
206.345580248
 11
237.571189335
 21
205.833805217
  0
LINE
  5
49D
100
AcDbEntity
  8
0
100
AcDbLine
 62
7
  6
CONTINUOUS
 10
239.7731033653
 20
208.0660841658
 11
239.9037123097
 21
207.5543091348
  0
LWPOLYLINE
  5
49E
100
AcDbEntity
  8
0
100
AcDbPolyline
 62
7
  6
CONTINUOUS
 90
6
 70
0
 10
57.1907667886
 20
357.6068911262
 10
57.1917866635
 20
357.5616759476
 10
57.2146401057
 20
357.389421135
 10
57.2645078926
 20
357.2295076699
 10
57.3382456259
 20
357.0834296088
 10
57.4298795274
 20
356.9568928961
  0
LWPOLYLINE
  5
49F
100
AcDbEntity
  8
0
100
AcDbPolyline
 62
7
  6
CONTINUOUS
 90
7
 70
0
 10
57.1907582997
 20
357.6068574591
 10
57.1909761581
 20
357.5859618555
 10
57.2086876842
 20
357.4181280352
 10
57.252034248
 20
357.2617612177
 10
57.317478953
 20
357.118965713
 10
57.4005356903
 20
356.9930630621
 10
57.4972114165
 20
356.8850707072
  0
LINE
  5
4A0
100
AcDbEntity
  8
0
100
AcDbLine
 62
7
  6
CONTINUOUS
 10
57.1907582017
 20
368.076176259
 11
57.1907582017
 21
357.6068681494
  0
LINE
  5
4A1
100
AcDbEntity
  8
0
100
AcDbLine
 62
7
  6
CONTINUOUS
 10
57.2076277031
 20
368.2592350375
 11
57.1907672085
 21
368.0761539914
  0
LWPOLYLINE
  5
4A2
100
AcDbEntity
  8
0
100
AcDbPolyline
 62
7
  6
CONTINUOUS
 90
3
 70
0
 10
57.2344574183
 20
368.3689224736
 10
57.1968584641
 20
368.1865965931
 10
57.1907582979
 20
368.0761854361
  0
LINE
  5
4A3
100
AcDbEntity
  8
0
100
AcDbLine
 62
7
  6
CONTINUOUS
 10
57.3007147888
 20
368.5326740721
 11
57.2344574183
 21
368.3689224736
  0
LWPOLYLINE
  5
4A4
100
AcDbEntity
  8
0
100
AcDbPolyline
 62
7
  6
CONTINUOUS
 90
4
 70
0
 10
57.3990381415
 20
368.6880195094
 10
57.3152440834
 20
368.5600150749
 10
57.2499588797
 20
368.4155289738
 10
57.2076277031
 20
368.2592350375
  0
LWPOLYLINE
  5
4A5
100
AcDbEntity
  8
0
100
AcDbPolyline
 62
7
  6
CONTINUOUS
 90
3
 70
0
 10
57.49299766
 20
368.7938745941
 10
57.3892011136
 20
368.6750363914
 10
57.3007147888
 20
368.5326740721
  0
LINE
  5
4A6
100
AcDbEntity
  8
0
100
AcDbLine
 62
7
  6
CONTINUOUS
 10
57.4970157884
 20
368.7977705771
 11
57.3990381415
 21
368.6880195094
  0
LWPOLYLINE
  5
4A7
100
AcDbEntity
  8
0
100
AcDbPolyline
 62
7
  6
CONTINUOUS
 90
9
 70
0
 10
57.4298795274
 20
356.9568928961
 10
57.5330737215
 20
356.8520256348
 10
57.6406198344
 20
356.7695680043
 10
57.7468372741
 20
356.707501687
 10
57.8462679991
 20
356.6629108974
 10
57.9355377906
 20
356.6314333326
 10
58.0271973183
 20
356.6048032016
 10
58.1321593528
 20
356.5783566948
 10
58.258454172
 20
356.5496511161
  0
LINE
  5
4A8
100
AcDbEntity
  8
0
100
AcDbLine
 62
7
  6
CONTINUOUS
 10
104.2012524728
 20
368.1360994826
 11
104.2012524728
 21
357.5469450076
  0
LINE
  5
4A9
100
AcDbEntity
  8
0
100
AcDbLine
 62
7
  6
CONTINUOUS
 10
104.2314237959
 20
368.3821923062
 11
104.2012796532
 21
368.1360252111
  0
LWPOLYLINE
  5
4AA
100
AcDbEntity
  8
0
100
AcDbPolyline
 62
7
  6
CONTINUOUS
 90
5
 70
0
 10
104.2012797358
 20
357.5469997979
 10
104.2357160161
 20
357.2841829278
 10
104.3195956884
 20
357.0697752803
 10
104.439990583
 20
356.8897752018
 10
104.5817222233
 20
356.7485420575
  0
LWPOLYLINE
  5
4AB
100
AcDbEntity
  8
0
100
AcDbPolyline
 62
7
  6
CONTINUOUS
 90
4
 70
0
 10
104.5812816522
 20
368.9341342881
 10
104.4335317431
 20
368.7854190828
 10
104.3124819451
 20
368.5995222146
 10
104.2314237959
 20
368.3821923062
  0
LINE
  5
4AC
100
AcDbEntity
  8
0
100
AcDbLine
 62
7
  6
CONTINUOUS
 10
104.7189231675
 20
369.0318360246
 11
104.5812816522
 21
368.9341342881
  0
LINE
  5
4AD
100
AcDbEntity
  8
0
100
AcDbLine
 62
7
  6
CONTINUOUS
 10
104.718846036
 20
369.0317888308
 11
104.7189233416
 21
369.0318357352
  0
LINE
  5
4AE
100
AcDbEntity
  8
0
100
AcDbLine
 62
7
  6
CONTINUOUS
 10
104.8236378345
 20
369.0947171911
 11
104.718846036
 21
369.0317888308
  0
LWPOLYLINE
  5
4AF
100
AcDbEntity
  8
0
100
AcDbPolyline
 62
7
  6
CONTINUOUS
 90
3
 70
0
 10
105.6867334103
 20
369.5738460228
 10
105.2431033379
 20
369.3355233767
 10
104.8236378345
 20
369.0947171911
  0
LWPOLYLINE
  5
4B0
100
AcDbEntity
  8
0
100
AcDbPolyline
 62
7
  6
CONTINUOUS
 90
4
 70
0
 10
104.7188544499
 20
356.6512503261
 10
104.8487394058
 20
356.5734298262
 10
105.2699170051
 20
356.332674129
 10
105.7152463905
 20
356.0943782691
  0
LINE
  5
4B1
100
AcDbEntity
  8
0
100
AcDbLine
 62
7
  6
CONTINUOUS
 10
104.7188543278
 20
356.6512501185
 11
104.7193359572
 21
356.6509580748
  0
LINE
  5
4B2
100
AcDbEntity
  8
0
100
AcDbLine
 62
7
  6
CONTINUOUS
 10
104.5817222233
 20
356.7485420575
 11
104.7193359572
 21
356.6509580748
  0
LINE
  5
4B3
100
AcDbEntity
  8
1_AXIS
100
AcDbLine
 62
7
  6
CONTINUOUS
 10
154.1342468262
 20
343.6915222168
 11
154.1342468262
 21
350.3415222168
  0
LINE
  5
4B4
100
AcDbEntity
  8
1_AXIS
100
AcDbLine
 62
7
  6
CONTINUOUS
 10
154.1342468262
 20
375.3415222168
 11
154.1342468262
 21
381.9915222168
  0
LINE
  5
4B5
100
AcDbEntity
  8
0
100
AcDbLine
 62
7
  6
CONTINUOUS
 10
106.1541832698
 20
369.810175745
 11
105.6867334103
 21
369.5738460228
  0
LINE
  5
4B6
100
AcDbEntity
  8
0
100
AcDbLine
 62
7
  6
CONTINUOUS
 10
106.6451575318
 20
370.0449130087
 11
106.1541832698
 21
369.810175745
  0
LINE
  5
4B7
100
AcDbEntity
  8
0
100
AcDbLine
 62
7
  6
CONTINUOUS
 10
106.7942350353
 20
370.113807585
 11
106.6451575318
 21
370.0449130087
  0
LINE
  5
4B8
100
AcDbEntity
  8
0
100
AcDbLine
 62
7
  6
CONTINUOUS
 10
106.9307760132
 20
370.171719308
 11
106.7950995813
 21
370.1141870413
  0
LWPOLYLINE
  5
4B9
100
AcDbEntity
  8
0
100
AcDbPolyline
 62
7
  6
CONTINUOUS
 90
8
 70
0
 10
325.1481046452
 20
356.5811765499
 10
325.2214607763
 20
356.5995486648
 10
325.2915765034
 20
356.6188586095
 10
325.3677486326
 20
356.6429037439
 10
325.4524971006
 20
356.6752896771
 10
325.5556323943
 20
356.7255600472
 10
325.6655034375
 20
356.7958722264
 10
325.7712930302
 20
356.8850811538
  0
LWPOLYLINE
  5
4BA
100
AcDbEntity
  8
0
100
AcDbPolyline
 62
7
  6
CONTINUOUS
 90
7
 70
0
 10
325.0687339078
 20
356.5626797124
 10
325.1721353619
 20
356.5870336664
 10
325.2600089483
 20
356.6099011896
 10
325.3435835549
 20
356.6348401014
 10
325.4381554312
 20
356.6693083673
 10
325.5423530454
 20
356.718312601
 10
325.6572896341
 20
356.7899188124
  0
LWPOLYLINE
  5
4BB
100
AcDbEntity
  8
0
100
AcDbPolyline
 62
7
  6
CONTINUOUS
 90
3
 70
0
 10
324.9029557108
 20
356.5269252205
 10
324.9626027447
 20
356.5394363089
 10
325.0626955228
 20
356.5613165239
  0
LINE
  5
4BC
100
AcDbEntity
  8
0
100
AcDbLine
 62
7
  6
CONTINUOUS
 10
58.258454172
 20
356.5496511161
 11
58.3658037156
 21
356.5268704071
  0
LWPOLYLINE
  5
4BD
100
AcDbEntity
  8
0
100
AcDbPolyline
 62
7
  6
CONTINUOUS
 90
4
 70
0
 10
106.7954833291
 20
355.568661928
 10
106.9772632985
 20
355.4936847742
 10
107.3437005942
 20
355.389887594
 10
107.7186265178
 20
355.3440345331
  0
LINE
  5
4BE
100
AcDbEntity
  8
0
100
AcDbLine
 62
7
  6
CONTINUOUS
 10
106.6770192802
 20
355.6233191453
 11
106.7942362308
 21
355.5692359907
  0
LWPOLYLINE
  5
4BF
100
AcDbEntity
  8
0
100
AcDbPolyline
 62
7
  6
CONTINUOUS
 90
3
 70
0
 10
105.7152463905
 20
356.0943782691
 10
106.1843836846
 20
355.858056559
 10
106.6770192802
 20
355.6233191453
  0
LINE
  5
4C0
100
AcDbEntity
  8
1_AXIS
100
AcDbLine
 62
7
  6
CONTINUOUS
 10
156.1342468262
 20
341.6915222168
 11
227.1342468262
 21
341.6915222168
  0
LINE
  5
4C1
100
AcDbEntity
  8
1_AXIS
100
AcDbLine
 62
2
  6
CENTER
 10
191.6342468262
 20
339.6915222168
 11
191.6342468262
 21
385.9915222168
  0
LWPOLYLINE
  5
4C2
100
AcDbEntity
  8
0
100
AcDbPolyline
 62
7
  6
CONTINUOUS
 90
4
 70
0
 10
275.4395962978
 20
355.3415407236
 10
275.5978181263
 20
355.3466525986
 10
275.9711284942
 20
355.3996885822
 10
276.3358551326
 20
355.5105827641
  0
LINE
  5
4C3
100
AcDbEntity
  8
0
100
AcDbLine
 62
7
  6
CONTINUOUS
 10
260.8768573726
 20
355.3415222168
 11
261.2168348236
 21
355.3513526806
  0
LINE
  5
4C4
100
AcDbEntity
  8
0
100
AcDbLine
 62
7
  6
CONTINUOUS
 10
65.0358463835
 20
355.3415222168
 11
318.2326472688
 21
355.3415222168
  0
LINE
  5
4C5
100
AcDbEntity
  8
0
100
AcDbLine
 62
7
  6
CONTINUOUS
 10
107.7186265178
 20
355.3440345331
 11
107.8319897579
 21
355.3415408918
  0
LINE
  5
4C6
100
AcDbEntity
  8
0
100
AcDbLine
 62
7
  6
CONTINUOUS
 10
122.051659216
 20
355.351352658
 11
122.3916362797
 21
355.3415222168
  0
LWPOLYLINE
  5
4C7
100
AcDbEntity
  8
0
100
AcDbPolyline
 62
7
  6
CONTINUOUS
 90
4
 70
0
 10
107.8288076032
 20
370.3415253381
 10
107.668637315
 20
370.336277064
 10
107.2951917634
 20
370.2828714428
 10
106.9307760132
 20
370.171719308
  0
LINE
  5
4C8
100
AcDbEntity
  8
0
100
AcDbLine
 62
7
  6
CONTINUOUS
 10
122.3916362797
 20
370.3415222168
 11
122.0519097343
 21
370.3317063007
  0
LINE
  5
4C9
100
AcDbEntity
  8
0
100
AcDbLine
 62
7
  6
CONTINUOUS
 10
65.0358464793
 20
370.3415222168
 11
318.2326471731
 21
370.3415222168
  0
LINE
  5
4CA
100
AcDbEntity
  8
0
100
AcDbLine
 62
7
  6
CONTINUOUS
 10
275.5518552688
 20
370.3389396494
 11
275.4364406104
 21
370.3415251795
  0
LINE
  5
4CB
100
AcDbEntity
  8
0
100
AcDbLine
 62
7
  6
CONTINUOUS
 10
261.2165837055
 20
370.3317063044
 11
260.8768573726
 21
370.3415222168
  0
LWPOLYLINE
  5
4CC
100
AcDbEntity
  8
0
100
AcDbPolyline
 62
7
  6
CONTINUOUS
 90
3
 70
0
 10
58.3655382958
 20
369.1561192394
 10
58.3056899002
 20
369.1435654756
 10
58.2056335981
 20
369.1216907984
  0
LINE
  5
4CD
100
AcDbEntity
  8
1_AXIS
100
AcDbLine
 62
7
  6
CONTINUOUS
 10
156.1342468262
 20
383.9915222168
 11
227.1342468262
 21
383.9915222168
  0
LINE
  5
4CE
100
AcDbEntity
  8
0
100
AcDbLine
 62
7
  6
CONTINUOUS
 10
325.009670326
 20
369.1334737462
 11
324.9026895324
 21
369.1561741521
  0
LINE
  5
4CF
100
AcDbEntity
  8
1_AXIS
100
AcDbLine
 62
7
  6
CONTINUOUS
 10
229.1342468262
 20
343.6915222168
 11
229.1342468262
 21
350.3415222168
  0
LINE
  5
4D0
100
AcDbEntity
  8
1_AXIS
100
AcDbLine
 62
7
  6
CONTINUOUS
 10
229.1342468262
 20
375.3415222168
 11
229.1342468262
 21
381.9915222168
  0
LWPOLYLINE
  5
4D1
100
AcDbEntity
  8
0
100
AcDbPolyline
 62
7
  6
CONTINUOUS
 90
3
 70
0
 10
277.5816561317
 20
356.109144287
 10
278.0253006796
 20
356.3474711903
 10
278.4448028685
 20
356.5882954636
  0
LINE
  5
4D2
100
AcDbEntity
  8
0
100
AcDbLine
 62
7
  6
CONTINUOUS
 10
277.1142121951
 20
355.8728206331
 11
277.5816561317
 21
356.109144287
  0
LINE
  5
4D3
100
AcDbEntity
  8
0
100
AcDbLine
 62
7
  6
CONTINUOUS
 10
276.6232715111
 20
355.6381012001
 11
277.1142121951
 21
355.8728206331
  0
LINE
  5
4D4
100
AcDbEntity
  8
0
100
AcDbLine
 62
7
  6
CONTINUOUS
 10
276.4742588712
 20
355.5692366438
 11
276.6232715111
 21
355.6381012001
  0
LINE
  5
4D5
100
AcDbEntity
  8
0
100
AcDbLine
 62
7
  6
CONTINUOUS
 10
276.3358551326
 20
355.5105827641
 11
276.473333094
 21
355.5688093515
  0
LWPOLYLINE
  5
4D6
100
AcDbEntity
  8
0
100
AcDbPolyline
 62
7
  6
CONTINUOUS
 90
8
 70
0
 10
58.1202469644
 20
369.1018336685
 10
58.0468976198
 20
369.0834600202
 10
57.9767783768
 20
369.064144124
 10
57.9005614833
 20
369.0400781226
 10
57.8157702945
 20
369.0076591326
 10
57.7126267153
 20
368.9573510703
 10
57.6027684296
 20
368.8870012994
 10
57.4970157884
 20
368.7977705771
  0
LWPOLYLINE
  5
4D7
100
AcDbEntity
  8
0
100
AcDbPolyline
 62
7
  6
CONTINUOUS
 90
7
 70
0
 10
58.1977766096
 20
369.1199162458
 10
58.0942955911
 20
369.0955009064
 10
58.006161341
 20
369.0725002974
 10
57.9222388542
 20
369.0473358047
 10
57.8271040964
 20
369.0124031021
 10
57.7224832926
 20
368.9627606908
 10
57.6078940931
 20
368.8907443305
  0
LINE
  5
4D8
100
AcDbEntity
  8
0
100
AcDbLine
 62
7
  6
CONTINUOUS
 10
325.1360571405
 20
369.1047538315
 11
325.009670326
 21
369.1334737462
  0
LWPOLYLINE
  5
4D9
100
AcDbEntity
  8
0
100
AcDbPolyline
 62
7
  6
CONTINUOUS
 90
4
 70
0
 10
276.4730703587
 20
370.1143349072
 10
276.2930832806
 20
370.1886634228
 10
275.9269294133
 20
370.2927250429
 10
275.5518552688
 20
370.3389396494
  0
LINE
  5
4DA
100
AcDbEntity
  8
0
100
AcDbLine
 62
7
  6
CONTINUOUS
 10
276.5915519518
 20
370.0596891462
 11
276.4742574313
 21
370.1138081547
  0
LWPOLYLINE
  5
4DB
100
AcDbEntity
  8
0
100
AcDbPolyline
 62
7
  6
CONTINUOUS
 90
3
 70
0
 10
277.5533712896
 20
369.5886018929
 10
277.0842279645
 20
369.8249303278
 10
276.5915519518
 20
370.0596891462
  0
LINE
  5
4DC
100
AcDbEntity
  8
0
100
AcDbLine
 62
7
  6
CONTINUOUS
 10
278.5497051531
 20
356.6512886547
 11
278.6857003938
 21
356.7476715816
  0
LINE
  5
4DD
100
AcDbEntity
  8
0
100
AcDbLine
 62
7
  6
CONTINUOUS
 10
278.5497044362
 20
356.6512898452
 11
278.5496483882
 21
356.651255832
  0
LINE
  5
4DE
100
AcDbEntity
  8
0
100
AcDbLine
 62
7
  6
CONTINUOUS
 10
278.4448028685
 20
356.5882954636
 11
278.5496483882
 21
356.651255832
  0
LWPOLYLINE
  5
4DF
100
AcDbEntity
  8
0
100
AcDbPolyline
 62
7
  6
CONTINUOUS
 90
4
 70
0
 10
278.5496391176
 20
369.0317940782
 10
278.4198175176
 20
369.1095769352
 10
277.9986831296
 20
369.3503112866
 10
277.5533712896
 20
369.5886018929
  0
LINE
  5
4E0
100
AcDbEntity
  8
0
100
AcDbLine
 62
7
  6
CONTINUOUS
 10
278.5496399068
 20
369.0317953873
 11
278.5492440745
 21
369.0320354351
  0
LINE
  5
4E1
100
AcDbEntity
  8
0
100
AcDbLine
 62
7
  6
CONTINUOUS
 10
278.6858435649
 20
368.9352579397
 11
278.5492440745
 21
369.0320354351
  0
LWPOLYLINE
  5
4E2
100
AcDbEntity
  8
0
100
AcDbPolyline
 62
7
  6
CONTINUOUS
 90
4
 70
0
 10
278.6857003938
 20
356.7476715816
 10
278.833916005
 20
356.8963544356
 10
278.9554143377
 20
357.0823410761
 10
279.0368414155
 20
357.2998803326
  0
LINE
  5
4E3
100
AcDbEntity
  8
0
100
AcDbLine
 62
7
  6
CONTINUOUS
 10
279.0672411796
 20
368.1360980182
 11
279.0672411796
 21
357.5469463571
  0
LINE
  5
4E4
100
AcDbEntity
  8
0
100
AcDbLine
 62
7
  6
CONTINUOUS
 10
279.0368414155
 20
357.2998803326
 11
279.0672315972
 21
357.547013866
  0
LWPOLYLINE
  5
4E5
100
AcDbEntity
  8
0
100
AcDbPolyline
 62
7
  6
CONTINUOUS
 90
10
 70
0
 10
325.7713099284
 20
368.7979357658
 10
325.6670494354
 20
368.8860310418
 10
325.5580630976
 20
368.9561307453
 10
325.4553898055
 20
369.0065227121
 10
325.3709495451
 20
369.039038429
 10
325.2949020763
 20
369.0632115584
 10
325.2241166109
 20
369.0828012118
 10
325.1495453468
 20
369.1015202259
 10
325.0627980504
 20
369.1217046205
 10
324.9846316515
 20
369.138786738
  0
LWPOLYLINE
  5
4E6
100
AcDbEntity
  8
0
100
AcDbPolyline
 62
7
  6
CONTINUOUS
 90
5
 70
0
 10
279.0672315724
 20
368.1360485486
 10
279.0329676599
 20
368.3981968686
 10
278.9490715793
 20
368.6129451501
 10
278.8283427683
 20
368.7934509343
 10
278.6858435649
 20
368.9352579397
  0
LWPOLYLINE
  5
4E7
100
AcDbEntity
  8
0
100
AcDbPolyline
 62
7
  6
CONTINUOUS
 90
4
 70
0
 10
325.7728164203
 20
356.8865684374
 10
325.8772121278
 20
357.0052397815
 10
325.9663348878
 20
357.1475844782
 10
325.9999457933
 20
357.2299528163
  0
LINE
  5
4E8
100
AcDbEntity
  8
0
100
AcDbLine
 62
7
  6
CONTINUOUS
 10
325.7712930302
 20
356.8850811538
 11
325.8693197234
 21
356.9948282259
  0
LWPOLYLINE
  5
4E9
100
AcDbEntity
  8
0
100
AcDbPolyline
 62
7
  6
CONTINUOUS
 90
7
 70
0
 10
325.8384820817
 20
368.7263245304
 10
325.735247805
 20
368.8311816136
 10
325.6276741639
 20
368.9136158951
 10
325.5214548874
 20
368.9756470108
 10
325.4220294662
 20
369.0202096187
 10
325.332771569
 20
369.0516703384
 10
325.2410911514
 20
369.0782969759
  0
LWPOLYLINE
  5
4EA
100
AcDbEntity
  8
0
100
AcDbPolyline
 62
7
  6
CONTINUOUS
 90
4
 70
0
 10
325.8693197234
 20
356.9948282259
 10
325.9531630766
 20
357.1228442376
 10
326.0184905871
 20
357.267352785
 10
326.0608518734
 20
357.4236676159
  0
LWPOLYLINE
  5
4EB
100
AcDbEntity
  8
0
100
AcDbPolyline
 62
7
  6
CONTINUOUS
 90
6
 70
0
 10
326.0777353549
 20
368.076185689
 10
326.07671095
 20
368.1214888916
 10
326.0538336527
 20
368.2937683247
 10
326.003933687
 20
368.453700092
 10
325.930156992
 20
368.5997885078
 10
325.8384820817
 20
368.7263245304
  0
LINE
  5
4EC
100
AcDbEntity
  8
0
100
AcDbLine
 62
7
  6
CONTINUOUS
 10
326.0777354506
 20
368.0761856305
 11
326.0777354506
 21
357.6068587606
  0
LINE
  5
4ED
100
AcDbEntity
  8
0
100
AcDbLine
 62
7
  6
CONTINUOUS
 10
326.0608518734
 20
357.4236676159
 11
326.077735353
 21
357.6068571834
  0
LINE
  5
4EE
100
AcDbEntity
  8
1_AXIS
100
AcDbLine
 62
7
  6
CONTINUOUS
 10
411.4128896199
 20
37.7618408203
 11
421.8693369426
 21
37.7618408203
  0
LWPOLYLINE
  5
4EF
100
AcDbEntity
  8
0
100
AcDbPolyline
 62
7
  6
CONTINUOUS
 90
4
 70
0
 10
421.8985578757
 20
60.7173973685
 10
422.1370490505
 20
60.7459637135
 10
422.338173619
 20
60.8180232152
 10
422.5113621091
 20
60.9240601322
  0
LINE
  5
4F0
100
AcDbEntity
  8
0
100
AcDbLine
 62
7
  6
CONTINUOUS
 10
421.8985690481
 20
60.7173951198
 11
411.3836575456
 21
60.7173951198
  0
LINE
  5
4F1
100
AcDbEntity
  8
0
100
AcDbLine
 62
7
  6
CONTINUOUS
 10
411.1370641895
 20
60.7479705023
 11
411.3836690753
 21
60.717397385
  0
LWPOLYLINE
  5
4F2
100
AcDbEntity
  8
0
100
AcDbPolyline
 62
7
  6
CONTINUOUS
 90
3
 70
0
 10
410.7584312485
 20
60.9336409182
 10
410.9328814577
 20
60.8234979705
 10
411.1370641895
 20
60.7479705023
  0
LWPOLYLINE
  5
4F3
100
AcDbEntity
  8
0
100
AcDbPolyline
 62
7
  6
CONTINUOUS
 90
5
 70
0
 10
410.7710399621
 20
293.5997484247
 10
410.6255211218
 20
293.465649199
 10
410.5165237304
 20
293.3212131913
 10
410.4421975139
 20
293.1843441233
 10
410.3875374749
 20
293.0498974198
  0
LWPOLYLINE
  5
4F4
100
AcDbEntity
  8
0
100
AcDbPolyline
 62
7
  6
CONTINUOUS
 90
3
 70
0
 10
410.5104104524
 20
61.212257946
 10
410.6158936574
 20
61.0689220242
 10
410.7584312485
 20
60.9336409182
  0
LWPOLYLINE
  5
4F5
100
AcDbEntity
  8
0
100
AcDbPolyline
 62
7
  6
CONTINUOUS
 90
7
 70
0
 10
409.9444061226
 20
227.11384578
 10
409.9226987255
 20
227.1059870783
 10
409.7346370327
 20
227.0208747217
 10
409.5466095542
 20
226.8947313874
 10
409.3643002255
 20
226.7069894709
 10
409.2253041167
 20
226.4679494836
 10
409.1522775758
 20
226.2058040704
  0
LINE
  5
4F6
100
AcDbEntity
  8
0
100
AcDbLine
 62
7
  6
CONTINUOUS
 10
409.9446135518
 20
227.113917012
 11
409.9444067918
 21
227.113843917
  0
LWPOLYLINE
  5
4F7
100
AcDbEntity
  8
0
100
AcDbPolyline
 62
7
  6
CONTINUOUS
 90
5
 70
0
 10
422.4079178965
 20
127.2460677739
 10
422.4925055795
 20
127.2474017062
 10
422.7652403238
 20
127.2701365292
 10
423.0410382396
 20
127.3217701568
 10
423.3376104544
 20
127.409764549
  0
LINE
  5
4F8
100
AcDbEntity
  8
0
100
AcDbLine
 62
7
  6
CONTINUOUS
 10
422.4086207716
 20
127.2460681164
 11
410.8736058118
 21
127.2460681164
  0
LWPOLYLINE
  5
4F9
100
AcDbEntity
  8
0
100
AcDbPolyline
 62
7
  6
CONTINUOUS
 90
6
 70
0
 10
409.9445908782
 20
127.4097726081
 10
409.9830121438
 20
127.3964551519
 10
410.2545805464
 20
127.3185949837
 10
410.5267677663
 20
127.268835184
 10
410.7959948707
 20
127.2472098222
 10
410.8742458726
 20
127.2460678561
  0
LINE
  5
4FA
100
AcDbEntity
  8
0
100
AcDbLine
 62
7
  6
CONTINUOUS
 10
409.9445902244
 20
127.4097707867
 11
409.9432333675
 21
127.4102514658
  0
LINE
  5
4FB
100
AcDbEntity
  8
0
100
AcDbLine
 62
7
  6
CONTINUOUS
 10
409.7756282616
 20
127.4813364243
 11
409.9432333675
 21
127.4102514658
  0
LINE
  5
4FC
100
AcDbEntity
  8
0
100
AcDbLine
 62
7
  6
CONTINUOUS
 10
409.5869105924
 20
127.5974540058
 11
409.7756282616
 21
127.4813364243
  0
LINE
  5
4FD
100
AcDbEntity
  8
1_AXIS
100
AcDbLine
 62
7
  6
CONTINUOUS
 10
409.2930357511
 20
309.498322597
 11
410.4280818669
 21
315.935488998
  0
LWPOLYLINE
  5
4FE
100
AcDbEntity
  8
0
100
AcDbPolyline
 62
7
  6
CONTINUOUS
 90
3
 70
0
 10
409.3108395845
 20
289.1899491827
 10
409.2575946793
 20
288.968163185
 10
409.1789294734
 20
288.5023112289
  0
LINE
  5
4FF
100
AcDbEntity
  8
0
100
AcDbLine
 62
7
  6
CONTINUOUS
 10
409.5965203636
 20
290.2589900649
 11
409.310891902
 21
289.190134964
  0
LWPOLYLINE
  5
500
100
AcDbEntity
  8
0
100
AcDbPolyline
 62
7
  6
CONTINUOUS
 90
3
 70
0
 10
410.0513821423
 20
291.9000204875
 10
409.8246059515
 20
291.0914606136
 10
409.5965203636
 20
290.2589900649
  0
LINE
  5
501
100
AcDbEntity
  8
0
100
AcDbLine
 62
7
  6
CONTINUOUS
 10
410.2768079434
 20
292.6842783838
 11
410.0513821423
 21
291.9000204875
  0
LINE
  5
502
100
AcDbEntity
  8
0
100
AcDbLine
 62
7
  6
CONTINUOUS
 10
410.3462515308
 20
292.9218649828
 11
410.2768079434
 21
292.6842783838
  0
LINE
  5
503
100
AcDbEntity
  8
0
100
AcDbLine
 62
7
  6
CONTINUOUS
 10
410.3875374749
 20
293.0498974198
 11
410.3458597133
 21
292.9205249029
  0
LINE
  5
504
100
AcDbEntity
  8
1_AXIS
100
AcDbLine
 62
7
  6
CONTINUOUS
 10
435.7911132813
 20
139.7618408203
 11
429.1411132813
 21
139.7618408203
  0
LINE
  5
505
100
AcDbEntity
  8
1_AXIS
100
AcDbLine
 62
7
  6
CONTINUOUS
 10
404.1411132813
 20
139.7618408203
 11
397.4911132813
 21
139.7618408203
  0
LINE
  5
506
100
AcDbEntity
  8
0
100
AcDbLine
 62
7
  6
CONTINUOUS
 10
409.3973451864
 20
127.7756161827
 11
409.5869105924
 21
127.5974540058
  0
LWPOLYLINE
  5
507
100
AcDbEntity
  8
0
100
AcDbPolyline
 62
7
  6
CONTINUOUS
 90
4
 70
0
 10
410.3457415224
 20
61.6035615602
 10
410.3856706123
 20
61.4790475515
 10
410.4383816178
 20
61.3476148147
 10
410.5104104524
 20
61.212257946
  0
LINE
  5
508
100
AcDbEntity
  8
0
100
AcDbLine
 62
7
  6
CONTINUOUS
 10
410.0654853722
 20
62.5740200284
 11
410.3462517572
 21
61.6018160288
  0
LWPOLYLINE
  5
509
100
AcDbEntity
  8
0
100
AcDbPolyline
 62
7
  6
CONTINUOUS
 90
3
 70
0
 10
409.6108048675
 20
64.2120000426
 10
409.838802257
 20
63.3810391233
 10
410.0654853722
 20
62.5740200284
  0
LINE
  5
50A
100
AcDbEntity
  8
0
100
AcDbLine
 62
7
  6
CONTINUOUS
 10
409.3108919525
 20
65.3335464707
 11
409.6108048675
 21
64.2120000426
  0
LINE
  5
50B
100
AcDbEntity
  8
0
100
AcDbLine
 62
7
  6
CONTINUOUS
 10
409.3108888204
 20
65.3335456245
 11
409.3108542049
 21
65.3336769732
  0
LINE
  5
50C
100
AcDbEntity
  8
0
100
AcDbLine
 62
7
  6
CONTINUOUS
 10
409.2716751278
 20
65.492461866
 11
409.3108542049
 21
65.3336769732
  0
LINE
  5
50D
100
AcDbEntity
  8
1_AXIS
100
AcDbLine
 62
7
  6
CONTINUOUS
 10
409.2930357511
 20
45.0253590436
 11
410.4280818669
 21
38.5881926426
  0
LINE
  5
50E
100
AcDbEntity
  8
1_AXIS
100
AcDbLine
 62
7
  6
CONTINUOUS
 10
395.4911132813
 20
141.7618408203
 11
395.4911132813
 21
212.7618408203
  0
LINE
  5
50F
100
AcDbEntity
  8
0
100
AcDbLine
 62
7
  6
CONTINUOUS
 10
409.1789294734
 20
288.5023112289
 11
409.1433972301
 21
288.0309310721
  0
LWPOLYLINE
  5
510
100
AcDbEntity
  8
0
100
AcDbPolyline
 62
7
  6
CONTINUOUS
 90
4
 70
0
 10
409.1411317665
 20
128.4715624847
 10
409.1559370719
 20
128.2945214714
 10
409.2445418295
 20
128.0127230687
 10
409.3973451864
 20
127.7756161827
  0
LINE
  5
511
100
AcDbEntity
  8
0
100
AcDbLine
 62
7
  6
CONTINUOUS
 10
409.1411132813
 20
77.2262444026
 11
409.15157205
 21
76.7938724967
  0
LWPOLYLINE
  5
512
100
AcDbEntity
  8
0
100
AcDbPolyline
 62
7
  6
CONTINUOUS
 90
4
 70
0
 10
409.1411309006
 20
66.6463919167
 10
409.1457202069
 20
66.4278021498
 10
409.1871507121
 20
65.9572318652
 10
409.2716751278
 20
65.492461866
  0
LINE
  5
513
100
AcDbEntity
  8
0
100
AcDbLine
 62
7
  6
CONTINUOUS
 10
409.1411132813
 20
46.7618408203
 11
409.1411132813
 21
307.7618055428
  0
LINE
  5
514
100
AcDbEntity
  8
0
100
AcDbLine
 62
7
  6
CONTINUOUS
 10
409.1433972301
 20
288.0309310721
 11
409.141130957
 21
287.8778743517
  0
LINE
  5
515
100
AcDbEntity
  8
0
100
AcDbLine
 62
7
  6
CONTINUOUS
 10
409.1515720268
 20
277.7298086661
 11
409.1411132813
 21
277.2974372381
  0
LINE
  5
516
100
AcDbEntity
  8
0
100
AcDbLine
 62
7
  6
CONTINUOUS
 10
409.1522775758
 20
226.2058040704
 11
409.1411318636
 21
226.0521439849
  0
LINE
  5
517
100
AcDbEntity
  8
1_AXIS
100
AcDbLine
 62
2
  6
CENTER
 10
393.4911132813
 20
177.2618408203
 11
439.7911132813
 21
177.2618408203
  0
LWPOLYLINE
  5
518
100
AcDbEntity
  8
0
100
AcDbPolyline
 62
7
  6
CONTINUOUS
 90
4
 70
0
 10
424.1411165692
 20
226.052134363
 10
424.1268567727
 20
226.2258781543
 10
424.0390883978
 20
226.5080078211
 10
423.8866926428
 20
226.7459155557
  0
LINE
  5
519
100
AcDbEntity
  8
0
100
AcDbLine
 62
7
  6
CONTINUOUS
 10
424.1411132813
 20
277.2974372381
 11
424.1306658505
 21
277.7295754475
  0
LWPOLYLINE
  5
51A
100
AcDbEntity
  8
0
100
AcDbPolyline
 62
7
  6
CONTINUOUS
 90
4
 70
0
 10
424.1411173908
 20
287.8776211104
 10
424.136417299
 20
288.0983703778
 10
424.0947096688
 20
288.569148222
 10
424.0099858454
 20
289.0336044963
  0
LINE
  5
51B
100
AcDbEntity
  8
0
100
AcDbLine
 62
7
  6
CONTINUOUS
 10
424.1411132813
 20
46.7618408203
 11
424.1411132813
 21
307.7618055251
  0
LINE
  5
51C
100
AcDbEntity
  8
0
100
AcDbLine
 62
7
  6
CONTINUOUS
 10
424.138773928
 20
66.4902443765
 11
424.1411173205
 21
66.645451859
  0
LINE
  5
51D
100
AcDbEntity
  8
0
100
AcDbLine
 62
7
  6
CONTINUOUS
 10
424.130665854
 20
76.7941063769
 11
424.1411132813
 21
77.2262444026
  0
LINE
  5
51E
100
AcDbEntity
  8
0
100
AcDbLine
 62
7
  6
CONTINUOUS
 10
424.1301209877
 20
128.3189167642
 11
424.1411164401
 21
128.4715136395
  0
LINE
  5
51F
100
AcDbEntity
  8
0
100
AcDbLine
 62
7
  6
CONTINUOUS
 10
424.1029638726
 20
66.0186466046
 11
424.138773928
 21
66.4902443765
  0
LINE
  5
520
100
AcDbEntity
  8
1_AXIS
100
AcDbLine
 62
7
  6
CONTINUOUS
 10
437.7911132812
 20
141.7618408203
 11
437.7911132812
 21
212.7618408203
  0
LINE
  5
521
100
AcDbEntity
  8
1_AXIS
100
AcDbLine
 62
7
  6
CONTINUOUS
 10
422.8541446956
 20
38.5881926426
 11
423.9891908114
 21
45.0253590436
  0
LWPOLYLINE
  5
522
100
AcDbEntity
  8
0
100
AcDbPolyline
 62
7
  6
CONTINUOUS
 90
3
 70
0
 10
423.9713646949
 20
65.3337199438
 10
424.0240917005
 20
65.5530955729
 10
424.1029638726
 20
66.0186466046
  0
LINE
  5
523
100
AcDbEntity
  8
1_AXIS
100
AcDbLine
 62
7
  6
CONTINUOUS
 10
422.8541446956
 20
315.935488998
 11
423.9891908114
 21
309.498322597
  0
LINE
  5
524
100
AcDbEntity
  8
0
100
AcDbLine
 62
7
  6
CONTINUOUS
 10
423.6856591996
 20
64.2645177564
 11
423.9713347114
 21
65.3335472287
  0
LWPOLYLINE
  5
525
100
AcDbEntity
  8
0
100
AcDbPolyline
 62
7
  6
CONTINUOUS
 90
3
 70
0
 10
423.2307968273
 20
62.6234937628
 10
423.4575686261
 20
63.4320333338
 10
423.6856591996
 20
64.2645177564
  0
LINE
  5
526
100
AcDbEntity
  8
0
100
AcDbLine
 62
7
  6
CONTINUOUS
 10
423.0053883696
 20
61.8392995669
 11
423.2307968273
 21
62.6234937628
  0
LINE
  5
527
100
AcDbEntity
  8
0
100
AcDbLine
 62
7
  6
CONTINUOUS
 10
422.9359749943
 20
61.6018168327
 11
423.0053883696
 21
61.8392995669
  0
LINE
  5
528
100
AcDbEntity
  8
0
100
AcDbLine
 62
7
  6
CONTINUOUS
 10
422.8947390927
 20
61.4739287281
 11
422.936373684
 21
61.6031787577
  0
LWPOLYLINE
  5
529
100
AcDbEntity
  8
0
100
AcDbPolyline
 62
7
  6
CONTINUOUS
 90
7
 70
0
 10
423.337710379
 20
127.4098087537
 10
423.3597699724
 20
127.4177956435
 10
423.5480985078
 20
127.5030875968
 10
423.7363051557
 20
127.6295143277
 10
423.9185604645
 20
127.817518559
 10
424.0573550452
 20
128.0567292018
 10
424.1301209877
 20
128.3189167642
  0
LINE
  5
52A
100
AcDbEntity
  8
0
100
AcDbLine
 62
7
  6
CONTINUOUS
 10
423.3376104544
 20
127.409764549
 11
423.3377132218
 21
127.409800873
  0
LINE
  5
52B
100
AcDbEntity
  8
1_AXIS
100
AcDbLine
 62
7
  6
CONTINUOUS
 10
435.7911132813
 20
214.7618408203
 11
429.1411132813
 21
214.7618408203
  0
LINE
  5
52C
100
AcDbEntity
  8
1_AXIS
100
AcDbLine
 62
7
  6
CONTINUOUS
 10
404.1411132813
 20
214.7618408203
 11
397.4911132813
 21
214.7618408203
  0
LWPOLYLINE
  5
52D
100
AcDbEntity
  8
0
100
AcDbPolyline
 62
7
  6
CONTINUOUS
 90
6
 70
0
 10
423.3376333604
 20
227.1139089197
 10
423.2991909448
 20
227.1272337086
 10
423.0276096188
 20
227.2050957727
 10
422.7554162771
 20
227.2548522528
 10
422.4861911785
 20
227.2764731733
 10
422.4079853242
 20
227.277613925
  0
LINE
  5
52E
100
AcDbEntity
  8
0
100
AcDbLine
 62
7
  6
CONTINUOUS
 10
423.3376305302
 20
227.1139010727
 11
423.3389381899
 21
227.1134378437
  0
LINE
  5
52F
100
AcDbEntity
  8
0
100
AcDbLine
 62
7
  6
CONTINUOUS
 10
423.5078653374
 20
227.0417041895
 11
423.3389381899
 21
227.1134378437
  0
LINE
  5
530
100
AcDbEntity
  8
0
100
AcDbLine
 62
7
  6
CONTINUOUS
 10
423.6970271402
 20
226.9249456628
 11
423.5078653374
 21
227.0417041895
  0
LINE
  5
531
100
AcDbEntity
  8
0
100
AcDbLine
 62
7
  6
CONTINUOUS
 10
423.8866926428
 20
226.7459155557
 11
423.6970271402
 21
226.9249456628
  0
LWPOLYLINE
  5
532
100
AcDbEntity
  8
0
100
AcDbPolyline
 62
7
  6
CONTINUOUS
 90
4
 70
0
 10
422.9364315888
 20
292.9203024419
 10
422.8946519214
 20
293.0500016686
 10
422.8407796014
 20
293.1827223497
 10
422.767236217
 20
293.3187806425
  0
LINE
  5
533
100
AcDbEntity
  8
0
100
AcDbLine
 62
7
  6
CONTINUOUS
 10
423.2167056228
 20
291.9497865203
 11
422.9359748533
 21
292.9218651891
  0
LWPOLYLINE
  5
534
100
AcDbEntity
  8
0
100
AcDbPolyline
 62
7
  6
CONTINUOUS
 90
3
 70
0
 10
423.6713872194
 20
290.31180897
 10
423.4433858235
 20
291.1427813196
 10
423.2167056228
 20
291.9497865203
  0
LINE
  5
535
100
AcDbEntity
  8
0
100
AcDbLine
 62
7
  6
CONTINUOUS
 10
423.971334683
 20
289.1901344871
 11
423.6713872194
 21
290.31180897
  0
LINE
  5
536
100
AcDbEntity
  8
0
100
AcDbLine
 62
7
  6
CONTINUOUS
 10
423.9713202068
 20
289.1901305814
 11
423.9713502406
 21
289.1900166257
  0
LINE
  5
537
100
AcDbEntity
  8
0
100
AcDbLine
 62
7
  6
CONTINUOUS
 10
424.0099858454
 20
289.0336044963
 11
423.9713502406
 21
289.1900166257
  0
LWPOLYLINE
  5
538
100
AcDbEntity
  8
0
100
AcDbPolyline
 62
7
  6
CONTINUOUS
 90
5
 70
0
 10
410.8743143257
 20
227.2776137737
 10
410.7896744877
 20
227.2762783307
 10
410.5169387235
 20
227.2535384926
 10
410.2411482983
 20
227.2019012001
 10
409.9446135518
 20
227.113917012
  0
LINE
  5
539
100
AcDbEntity
  8
0
100
AcDbLine
 62
7
  6
CONTINUOUS
 10
422.4086174574
 20
227.2776135242
 11
410.8736058111
 21
227.2776135242
  0
LWPOLYLINE
  5
53A
100
AcDbEntity
  8
0
100
AcDbPolyline
 62
7
  6
CONTINUOUS
 90
3
 70
0
 10
422.767236217
 20
293.3187806425
 10
422.6608406963
 20
293.4610108634
 10
422.5181704992
 20
293.5944068211
  0
LWPOLYLINE
  5
53B
100
AcDbEntity
  8
0
100
AcDbPolyline
 62
7
  6
CONTINUOUS
 90
5
 70
0
 10
422.5113621091
 20
60.9240601322
 10
422.6568207614
 20
61.0581650081
 10
422.7657711318
 20
61.2025855899
 10
422.840084598
 20
61.3394488196
 10
422.8947390927
 20
61.4739287281
  0
LWPOLYLINE
  5
53C
100
AcDbEntity
  8
0
100
AcDbPolyline
 62
7
  6
CONTINUOUS
 90
3
 70
0
 10
422.5181704992
 20
293.5944068211
 10
422.3446262326
 20
293.7025039135
 10
422.1420515111
 20
293.776472336
  0
LWPOLYLINE
  5
53D
100
AcDbEntity
  8
0
100
AcDbPolyline
 62
7
  6
CONTINUOUS
 90
4
 70
0
 10
411.38369581
 20
293.8062687932
 10
411.1453303086
 20
293.7777383763
 10
410.9442340533
 20
293.7057324917
 10
410.7710399621
 20
293.5997484247
  0
LINE
  5
53E
100
AcDbEntity
  8
0
100
AcDbLine
 62
7
  6
CONTINUOUS
 10
421.8985627672
 20
293.8062865209
 11
411.3836637759
 21
293.8062865209
  0
LINE
  5
53F
100
AcDbEntity
  8
0
100
AcDbLine
 62
7
  6
CONTINUOUS
 10
422.1420515111
 20
293.776472336
 11
421.8985314474
 21
293.8062687417
  0
LINE
  5
540
100
AcDbEntity
  8
1_AXIS
100
AcDbLine
 62
7
  6
CONTINUOUS
 10
411.4128896199
 20
316.7618408203
 11
421.8693369426
 21
316.7618408203
  0
ARC
  5
541
100
AcDbEntity
  8
0
100
AcDbCircle
 62
7
  6
CONTINUOUS
 10
96.2371067663
 20
93.7564759097
 40
61.5
100
AcDbArc
 50
115.2342865943
 51
128.5082785044
  0
ARC
  5
542
100
AcDbEntity
  8
0
100
AcDbCircle
 62
7
  6
CONTINUOUS
 10
97.3566530355
 20
89.9643535743
 40
14.0
100
AcDbArc
 50
331.2342865943
 51
36.6996675234
  0
ARC
  5
543
100
AcDbEntity
  8
0
100
AcDbCircle
 62
7
  6
CONTINUOUS
 10
112.5904561661
 20
101.3191429682
 40
5.0
100
AcDbArc
 50
175.3660280026
 51
216.6996675234
  0
ARC
  5
544
100
AcDbEntity
  8
0
100
AcDbCircle
 62
7
  6
CONTINUOUS
 10
115.5696692677
 20
62.7173951198
 40
2.0
100
AcDbArc
 50
236.4133867733
 51
303.4917214956
  0
ARC
  5
545
100
AcDbEntity
  8
0
100
AcDbCircle
 62
7
  6
CONTINUOUS
 10
106.2012524728
 20
69.5239483413
 40
2.0
100
AcDbArc
 50
164.5082785044
 51
231.5866132267
  0
ARC
  5
546
100
AcDbEntity
  8
0
100
AcDbCircle
 62
7
  6
CONTINUOUS
 10
62.7691749966
 20
129.3030745481
 40
2.0
100
AcDbArc
 50
200.4133867733
 51
267.4917214956
  0
ARC
  5
547
100
AcDbEntity
  8
0
100
AcDbCircle
 62
7
  6
CONTINUOUS
 10
65.3731173212
 20
165.7776135242
 40
61.5
100
AcDbArc
 50
79.2342865943
 51
92.5082785044
  0
ARC
  5
548
100
AcDbEntity
  8
0
100
AcDbCircle
 62
7
  6
CONTINUOUS
 10
64.0498956954
 20
162.0516693238
 40
14.0
100
AcDbArc
 50
295.2342865943
 51
0.6996675234
  0
ARC
  5
549
100
AcDbEntity
  8
0
100
AcDbCircle
 62
7
  6
CONTINUOUS
 10
59.1907582017
 20
140.3163090068
 40
2.0
100
AcDbArc
 50
128.5082785044
 51
195.5866132267
  0
ARC
  5
54A
100
AcDbEntity
  8
0
100
AcDbCircle
 62
7
  6
CONTINUOUS
 10
82.7365878891
 20
112.3383460094
 40
61.5
100
AcDbArc
 50
303.4917214956
 51
316.7657134057
  0
ARC
  5
54B
100
AcDbEntity
  8
0
100
AcDbCircle
 62
7
  6
CONTINUOUS
 10
89.6656396829
 20
103.1773112093
 40
18.0
100
AcDbArc
 50
355.3660280026
 51
76.6339719974
  0
ARC
  5
54C
100
AcDbEntity
  8
0
100
AcDbCircle
 62
7
  6
CONTINUOUS
 10
79.4760240546
 20
114.5749280304
 40
14.0
100
AcDbArc
 50
35.3003324766
 51
100.7657134057
  0
ARC
  5
54D
100
AcDbEntity
  8
0
100
AcDbCircle
 62
7
  6
CONTINUOUS
 10
94.9825745551
 20
125.5543128754
 40
5.0
100
AcDbArc
 50
215.3003324766
 51
256.6339719974
  0
ARC
  5
54E
100
AcDbEntity
  8
0
100
AcDbCircle
 62
7
  6
CONTINUOUS
 10
83.0484790656
 20
162.2836820945
 40
5.0
100
AcDbArc
 50
139.3660280026
 51
180.6996675234
  0
ARC
  5
54F
100
AcDbEntity
  8
0
100
AcDbCircle
 62
7
  6
CONTINUOUS
 10
152.6857046829
 20
57.3905538691
 40
18.0
100
AcDbArc
 50
31.3660280026
 51
112.6339719974
  0
ARC
  5
550
100
AcDbEntity
  8
0
100
AcDbCircle
 62
7
  6
CONTINUOUS
 10
141.6952628756
 20
60.7291922516
 40
61.5
100
AcDbArc
 50
339.4917214956
 51
352.7657134057
  0
ARC
  5
551
100
AcDbEntity
  8
0
100
AcDbCircle
 62
7
  6
CONTINUOUS
 10
137.7427813947
 20
60.6221137799
 40
14.0
100
AcDbArc
 50
71.3003324766
 51
136.7657134057
  0
ARC
  5
552
100
AcDbEntity
  8
0
100
AcDbCircle
 62
7
  6
CONTINUOUS
 10
143.8343237826
 20
78.6191444054
 40
5.0
100
AcDbArc
 50
251.3003324766
 51
292.6339719974
  0
ARC
  5
553
100
AcDbEntity
  8
0
100
AcDbCircle
 62
7
  6
CONTINUOUS
 10
163.5395612848
 20
53.6315494481
 40
61.5
100
AcDbArc
 50
151.2342865943
 51
164.5082785044
  0
ARC
  5
554
100
AcDbEntity
  8
0
100
AcDbCircle
 62
7
  6
CONTINUOUS
 10
166.6742468262
 20
51.2217108203
 40
14.0
100
AcDbArc
 50
7.2342865943
 51
72.6996675234
  0
ARC
  5
555
100
AcDbEntity
  8
0
100
AcDbCircle
 62
7
  6
CONTINUOUS
 10
185.8442468262
 20
39.8838007266
 40
2.0
100
AcDbArc
 50
200.5082785044
 51
267.5866132267
  0
ARC
  5
556
100
AcDbEntity
  8
0
100
AcDbCircle
 62
7
  6
CONTINUOUS
 10
172.3244746992
 20
69.362133224
 40
5.0
100
AcDbArc
 50
211.3660280026
 51
252.6996675234
  0
ARC
  5
557
100
AcDbEntity
  8
0
100
AcDbCircle
 62
7
  6
CONTINUOUS
 10
65.3731173212
 20
188.7460681164
 40
61.5
100
AcDbArc
 50
267.4917214956
 51
280.7657134057
  0
ARC
  5
558
100
AcDbEntity
  8
0
100
AcDbCircle
 62
7
  6
CONTINUOUS
 10
65.5941168262
 20
177.2618408203
 40
18.0
100
AcDbArc
 50
319.3660280026
 51
40.6339719974
  0
ARC
  5
559
100
AcDbEntity
  8
0
100
AcDbCircle
 62
7
  6
CONTINUOUS
 10
64.0498956954
 20
192.4720123168
 40
14.0
100
AcDbArc
 50
359.3003324766
 51
64.7657134057
  0
ARC
  5
55A
100
AcDbEntity
  8
0
100
AcDbCircle
 62
7
  6
CONTINUOUS
 10
59.1907582017
 20
214.2073726339
 40
2.0
100
AcDbArc
 50
164.4133867733
 51
231.4917214956
  0
ARC
  5
55B
100
AcDbEntity
  8
0
100
AcDbCircle
 62
7
  6
CONTINUOUS
 10
62.7691749966
 20
225.2206070926
 40
2.0
100
AcDbArc
 50
92.5082785044
 51
159.5866132267
  0
ARC
  5
55C
100
AcDbEntity
  8
0
100
AcDbCircle
 62
7
  6
CONTINUOUS
 10
83.0484790656
 20
192.2399995461
 40
5.0
100
AcDbArc
 50
179.3003324766
 51
220.6339719974
  0
ARC
  5
55D
100
AcDbEntity
  8
0
100
AcDbCircle
 62
7
  6
CONTINUOUS
 10
82.7365878891
 20
242.1853356313
 40
61.5
100
AcDbArc
 50
43.2342865943
 51
56.5082785044
  0
ARC
  5
55E
100
AcDbEntity
  8
0
100
AcDbCircle
 62
7
  6
CONTINUOUS
 10
79.4760240546
 20
239.9487536103
 40
14.0
100
AcDbArc
 50
259.2342865943
 51
324.6996675234
  0
ARC
  5
55F
100
AcDbEntity
  8
0
100
AcDbCircle
 62
7
  6
CONTINUOUS
 10
94.9825745551
 20
228.9693687652
 40
5.0
100
AcDbArc
 50
103.3660280026
 51
144.6996675234
  0
ARC
  5
560
100
AcDbEntity
  8
0
100
AcDbCircle
 62
7
  6
CONTINUOUS
 10
96.2371067663
 20
260.7672057309
 40
61.5
100
AcDbArc
 50
231.4917214956
 51
244.7657134057
  0
ARC
  5
561
100
AcDbEntity
  8
0
100
AcDbCircle
 62
7
  6
CONTINUOUS
 10
89.6656396829
 20
251.3463704313
 40
18.0
100
AcDbArc
 50
283.3660280026
 51
4.6339719974
  0
ARC
  5
562
100
AcDbEntity
  8
0
100
AcDbCircle
 62
7
  6
CONTINUOUS
 10
97.3566530355
 20
264.5593280663
 40
14.0
100
AcDbArc
 50
323.3003324766
 51
28.7657134057
  0
ARC
  5
563
100
AcDbEntity
  8
0
100
AcDbCircle
 62
7
  6
CONTINUOUS
 10
112.5904561661
 20
253.2045386725
 40
5.0
100
AcDbArc
 50
143.3003324766
 51
184.6339719974
  0
ARC
  5
564
100
AcDbEntity
  8
0
100
AcDbCircle
 62
7
  6
CONTINUOUS
 10
106.2012524728
 20
284.9997332993
 40
2.0
100
AcDbArc
 50
128.4133867733
 51
195.4917214956
  0
ARC
  5
565
100
AcDbEntity
  8
0
100
AcDbCircle
 62
7
  6
CONTINUOUS
 10
115.5696692677
 20
291.8062865209
 40
2.0
100
AcDbArc
 50
56.5082785044
 51
123.5866132267
  0
ARC
  5
566
100
AcDbEntity
  8
0
100
AcDbCircle
 62
7
  6
CONTINUOUS
 10
141.6952628756
 20
293.794489389
 40
61.5
100
AcDbArc
 50
7.2342865943
 51
20.5082785044
  0
ARC
  5
567
100
AcDbEntity
  8
0
100
AcDbCircle
 62
7
  6
CONTINUOUS
 10
137.7427813947
 20
293.9015678608
 40
14.0
100
AcDbArc
 50
223.2342865943
 51
288.6996675234
  0
ARC
  5
568
100
AcDbEntity
  8
0
100
AcDbCircle
 62
7
  6
CONTINUOUS
 10
143.8343237826
 20
275.9045372352
 40
5.0
100
AcDbArc
 50
67.3660280026
 51
108.6996675234
  0
ARC
  5
569
100
AcDbEntity
  8
0
100
AcDbCircle
 62
7
  6
CONTINUOUS
 10
152.6857046829
 20
297.1331277715
 40
18.0
100
AcDbArc
 50
247.3660280026
 51
328.6339719974
  0
ARC
  5
56A
100
AcDbEntity
  8
0
100
AcDbCircle
 62
7
  6
CONTINUOUS
 10
172.3244746992
 20
285.1615484167
 40
5.0
100
AcDbArc
 50
107.3003324766
 51
148.6339719974
  0
ARC
  5
56B
100
AcDbEntity
  8
0
100
AcDbCircle
 62
7
  6
CONTINUOUS
 10
163.5395612848
 20
300.8921321925
 40
61.5
100
AcDbArc
 50
195.4917214956
 51
208.7657134057
  0
ARC
  5
56C
100
AcDbEntity
  8
0
100
AcDbCircle
 62
7
  6
CONTINUOUS
 10
166.6742468262
 20
303.3019708203
 40
14.0
100
AcDbArc
 50
287.3003324766
 51
352.7657134057
  0
ARC
  5
56D
100
AcDbEntity
  8
0
100
AcDbCircle
 62
7
  6
CONTINUOUS
 10
185.8442468262
 20
314.6398809141
 40
2.0
100
AcDbArc
 50
92.4133867733
 51
159.4917214956
  0
ARC
  5
56E
100
AcDbEntity
  8
0
100
AcDbCircle
 62
7
  6
CONTINUOUS
 10
219.7289323676
 20
53.6315494481
 40
61.5
100
AcDbArc
 50
15.4917214956
 51
28.7657134057
  0
ARC
  5
56F
100
AcDbEntity
  8
0
100
AcDbCircle
 62
7
  6
CONTINUOUS
 10
216.5942468262
 20
51.2217108203
 40
14.0
100
AcDbArc
 50
107.3003324766
 51
172.7657134057
  0
ARC
  5
570
100
AcDbEntity
  8
0
100
AcDbCircle
 62
7
  6
CONTINUOUS
 10
197.4242468262
 20
39.8838007266
 40
2.0
100
AcDbArc
 50
272.4133867733
 51
339.4917214956
  0
ARC
  5
571
100
AcDbEntity
  8
0
100
AcDbCircle
 62
7
  6
CONTINUOUS
 10
210.9440189532
 20
69.362133224
 40
5.0
100
AcDbArc
 50
287.3003324766
 51
328.6339719974
  0
ARC
  5
572
100
AcDbEntity
  8
0
100
AcDbCircle
 62
7
  6
CONTINUOUS
 10
230.5827889694
 20
57.3905538691
 40
18.0
100
AcDbArc
 50
67.3660280026
 51
148.6339719974
  0
ARC
  5
573
100
AcDbEntity
  8
0
100
AcDbCircle
 62
7
  6
CONTINUOUS
 10
241.5732307768
 20
60.7291922516
 40
61.5
100
AcDbArc
 50
187.2342865943
 51
200.5082785044
  0
ARC
  5
574
100
AcDbEntity
  8
0
100
AcDbCircle
 62
7
  6
CONTINUOUS
 10
245.5257122576
 20
60.6221137799
 40
14.0
100
AcDbArc
 50
43.2342865943
 51
108.6996675234
  0
ARC
  5
575
100
AcDbEntity
  8
0
100
AcDbCircle
 62
7
  6
CONTINUOUS
 10
239.4341698697
 20
78.6191444054
 40
5.0
100
AcDbArc
 50
247.3660280026
 51
288.6996675234
  0
ARC
  5
576
100
AcDbEntity
  8
0
100
AcDbCircle
 62
7
  6
CONTINUOUS
 10
287.031386886
 20
93.7564759097
 40
61.5
100
AcDbArc
 50
51.4917214956
 51
64.7657134057
  0
ARC
  5
577
100
AcDbEntity
  8
0
100
AcDbCircle
 62
7
  6
CONTINUOUS
 10
285.9118406168
 20
89.9643535743
 40
14.0
100
AcDbArc
 50
143.3003324766
 51
208.7657134057
  0
ARC
  5
578
100
AcDbEntity
  8
0
100
AcDbCircle
 62
7
  6
CONTINUOUS
 10
270.6780374862
 20
101.3191429682
 40
5.0
100
AcDbArc
 50
323.3003324766
 51
4.6339719974
  0
ARC
  5
579
100
AcDbEntity
  8
0
100
AcDbCircle
 62
7
  6
CONTINUOUS
 10
267.6988243847
 20
62.7173951198
 40
2.0
100
AcDbArc
 50
236.5082785044
 51
303.5866132267
  0
ARC
  5
57A
100
AcDbEntity
  8
0
100
AcDbCircle
 62
7
  6
CONTINUOUS
 10
277.0672411796
 20
69.5239483413
 40
2.0
100
AcDbArc
 50
308.4133867733
 51
15.4917214956
  0
ARC
  5
57B
100
AcDbEntity
  8
0
100
AcDbCircle
 62
7
  6
CONTINUOUS
 10
300.5319057633
 20
112.3383460094
 40
61.5
100
AcDbArc
 50
223.2342865943
 51
236.5082785044
  0
ARC
  5
57C
100
AcDbEntity
  8
0
100
AcDbCircle
 62
7
  6
CONTINUOUS
 10
293.6028539694
 20
103.1773112093
 40
18.0
100
AcDbArc
 50
103.3660280026
 51
184.6339719974
  0
ARC
  5
57D
100
AcDbEntity
  8
0
100
AcDbCircle
 62
7
  6
CONTINUOUS
 10
303.7924695978
 20
114.5749280304
 40
14.0
100
AcDbArc
 50
79.2342865943
 51
144.6996675234
  0
ARC
  5
57E
100
AcDbEntity
  8
0
100
AcDbCircle
 62
7
  6
CONTINUOUS
 10
288.2859190973
 20
125.5543128754
 40
5.0
100
AcDbArc
 50
283.3660280026
 51
324.6996675234
  0
ARC
  5
57F
100
AcDbEntity
  8
0
100
AcDbCircle
 62
7
  6
CONTINUOUS
 10
300.2200145868
 20
162.2836820945
 40
5.0
100
AcDbArc
 50
359.3003324766
 51
40.6339719974
  0
ARC
  5
580
100
AcDbEntity
  8
0
100
AcDbCircle
 62
7
  6
CONTINUOUS
 10
320.4993186558
 20
129.3030745481
 40
2.0
100
AcDbArc
 50
272.5082785044
 51
339.5866132267
  0
ARC
  5
581
100
AcDbEntity
  8
0
100
AcDbCircle
 62
7
  6
CONTINUOUS
 10
317.8953763311
 20
165.7776135242
 40
61.5
100
AcDbArc
 50
87.4917214956
 51
100.7657134057
  0
ARC
  5
582
100
AcDbEntity
  8
0
100
AcDbCircle
 62
7
  6
CONTINUOUS
 10
319.218597957
 20
162.0516693238
 40
14.0
100
AcDbArc
 50
179.3003324766
 51
244.7657134057
  0
ARC
  5
583
100
AcDbEntity
  8
0
100
AcDbCircle
 62
7
  6
CONTINUOUS
 10
324.0777354506
 20
140.3163090068
 40
2.0
100
AcDbArc
 50
344.4133867733
 51
51.4917214956
  0
ARC
  5
584
100
AcDbEntity
  8
0
100
AcDbCircle
 62
7
  6
CONTINUOUS
 10
191.6342468262
 20
177.2618408203
 40
139.5
100
AcDbArc
 50
159.5866132267
 51
164.4133867733
  0
ARC
  5
585
100
AcDbEntity
  8
0
100
AcDbCircle
 62
7
  6
CONTINUOUS
 10
191.6342468262
 20
177.2618408203
 40
139.5
100
AcDbArc
 50
123.5866132267
 51
128.4133867733
  0
ARC
  5
586
100
AcDbEntity
  8
0
100
AcDbCircle
 62
7
  6
CONTINUOUS
 10
191.6342468262
 20
177.2618408203
 40
139.5
100
AcDbArc
 50
87.5866132267
 51
92.4133867733
  0
ARC
  5
587
100
AcDbEntity
  8
0
100
AcDbCircle
 62
7
  6
CONTINUOUS
 10
191.6342468262
 20
177.2618408203
 40
139.5
100
AcDbArc
 50
51.5866132267
 51
56.4133867733
  0
ARC
  5
588
100
AcDbEntity
  8
0
100
AcDbCircle
 62
7
  6
CONTINUOUS
 10
191.6342468262
 20
177.2618408203
 40
139.5
100
AcDbArc
 50
15.5866132267
 51
20.4133867733
  0
ARC
  5
589
100
AcDbEntity
  8
0
100
AcDbCircle
 62
7
  6
CONTINUOUS
 10
191.6342468262
 20
177.2618408203
 40
139.5
100
AcDbArc
 50
339.5866132267
 51
344.4133867733
  0
ARC
  5
58A
100
AcDbEntity
  8
0
100
AcDbCircle
 62
7
  6
CONTINUOUS
 10
191.6342468262
 20
177.2618408203
 40
139.5
100
AcDbArc
 50
195.5866132267
 51
200.4133867733
  0
ARC
  5
58B
100
AcDbEntity
  8
0
100
AcDbCircle
 62
7
  6
CONTINUOUS
 10
191.6342468262
 20
177.2618408203
 40
139.5
100
AcDbArc
 50
231.5866132267
 51
236.4133867733
  0
ARC
  5
58C
100
AcDbEntity
  8
0
100
AcDbCircle
 62
7
  6
CONTINUOUS
 10
191.6342468262
 20
177.2618408203
 40
139.5
100
AcDbArc
 50
267.5866132267
 51
272.4133867733
  0
ARC
  5
58D
100
AcDbEntity
  8
0
100
AcDbCircle
 62
7
  6
CONTINUOUS
 10
191.6342468262
 20
177.2618408203
 40
139.5
100
AcDbArc
 50
303.5866132267
 51
308.4133867733
  0
CIRCLE
  5
58E
100
AcDbEntity
  8
1_AXIS
100
AcDbCircle
 62
7
  6
CONTINUOUS
 10
191.6342468262
 20
177.2618408203
 40
37.5
  0
ARC
  5
58F
100
AcDbEntity
  8
0
100
AcDbCircle
 62
7
  6
CONTINUOUS
 10
210.9440189532
 20
285.1615484167
 40
5.0
100
AcDbArc
 50
31.3660280026
 51
72.6996675234
  0
CIRCLE
  5
590
100
AcDbEntity
  8
0
100
AcDbCircle
 62
7
  6
CONTINUOUS
 10
191.6342468262
 20
272.2618408203
 40
2.5980762114
  0
ARC
  5
591
100
AcDbEntity
  8
0
100
AcDbCircle
 62
7
  6
CONTINUOUS
 10
216.5942468262
 20
303.3019708203
 40
14.0
100
AcDbArc
 50
187.2342865943
 51
252.6996675234
  0
ARC
  5
592
100
AcDbEntity
  8
0
100
AcDbCircle
 62
7
  6
CONTINUOUS
 10
197.4242468262
 20
314.6398809141
 40
2.0
100
AcDbArc
 50
20.5082785044
 51
87.5866132267
  0
ARC
  5
593
100
AcDbEntity
  8
0
100
AcDbCircle
 62
7
  6
CONTINUOUS
 10
239.4341698697
 20
275.9045372352
 40
5.0
100
AcDbArc
 50
71.3003324766
 51
112.6339719974
  0
ARC
  5
594
100
AcDbEntity
  8
0
100
AcDbCircle
 62
7
  6
CONTINUOUS
 10
241.5732307768
 20
293.794489389
 40
61.5
100
AcDbArc
 50
159.4917214956
 51
172.7657134057
  0
ARC
  5
595
100
AcDbEntity
  8
0
100
AcDbCircle
 62
7
  6
CONTINUOUS
 10
219.7289323676
 20
300.8921321925
 40
61.5
100
AcDbArc
 50
331.2342865943
 51
344.5082785044
  0
ARC
  5
596
100
AcDbEntity
  8
0
100
AcDbCircle
 62
7
  6
CONTINUOUS
 10
230.5827889694
 20
297.1331277715
 40
18.0
100
AcDbArc
 50
211.3660280026
 51
292.6339719974
  0
ARC
  5
597
100
AcDbEntity
  8
0
100
AcDbCircle
 62
7
  6
CONTINUOUS
 10
245.5257122576
 20
293.9015678608
 40
14.0
100
AcDbArc
 50
251.3003324766
 51
316.7657134057
  0
ARC
  5
598
100
AcDbEntity
  8
0
100
AcDbCircle
 62
7
  6
CONTINUOUS
 10
300.2200145868
 20
192.2399995461
 40
5.0
100
AcDbArc
 50
319.3660280026
 51
0.6996675234
  0
ARC
  5
599
100
AcDbEntity
  8
0
100
AcDbCircle
 62
7
  6
CONTINUOUS
 10
300.5319057633
 20
242.1853356313
 40
61.5
100
AcDbArc
 50
123.4917214956
 51
136.7657134057
  0
ARC
  5
59A
100
AcDbEntity
  8
0
100
AcDbCircle
 62
7
  6
CONTINUOUS
 10
303.7924695978
 20
239.9487536103
 40
14.0
100
AcDbArc
 50
215.3003324766
 51
280.7657134057
  0
ARC
  5
59B
100
AcDbEntity
  8
0
100
AcDbCircle
 62
7
  6
CONTINUOUS
 10
288.2859190973
 20
228.9693687652
 40
5.0
100
AcDbArc
 50
35.3003324766
 51
76.6339719974
  0
ARC
  5
59C
100
AcDbEntity
  8
0
100
AcDbCircle
 62
7
  6
CONTINUOUS
 10
317.8953763311
 20
188.7460681164
 40
61.5
100
AcDbArc
 50
259.2342865943
 51
272.5082785044
  0
ARC
  5
59D
100
AcDbEntity
  8
0
100
AcDbCircle
 62
7
  6
CONTINUOUS
 10
317.6743768262
 20
177.2618408203
 40
18.0
100
AcDbArc
 50
139.3660280026
 51
220.6339719974
  0
ARC
  5
59E
100
AcDbEntity
  8
0
100
AcDbCircle
 62
7
  6
CONTINUOUS
 10
319.218597957
 20
192.4720123168
 40
14.0
100
AcDbArc
 50
115.2342865943
 51
180.6996675234
  0
ARC
  5
59F
100
AcDbEntity
  8
0
100
AcDbCircle
 62
7
  6
CONTINUOUS
 10
324.0777354506
 20
214.2073726339
 40
2.0
100
AcDbArc
 50
308.5082785044
 51
15.5866132267
  0
ARC
  5
5A0
100
AcDbEntity
  8
0
100
AcDbCircle
 62
7
  6
CONTINUOUS
 10
320.4993186558
 20
225.2206070926
 40
2.0
100
AcDbArc
 50
20.4133867733
 51
87.4917214956
  0
ARC
  5
5A1
100
AcDbEntity
  8
0
100
AcDbCircle
 62
7
  6
CONTINUOUS
 10
287.031386886
 20
260.7672057309
 40
61.5
100
AcDbArc
 50
295.2342865943
 51
308.5082785044
  0
ARC
  5
5A2
100
AcDbEntity
  8
0
100
AcDbCircle
 62
7
  6
CONTINUOUS
 10
293.6028539694
 20
251.3463704313
 40
18.0
100
AcDbArc
 50
175.3660280026
 51
256.6339719974
  0
ARC
  5
5A3
100
AcDbEntity
  8
0
100
AcDbCircle
 62
7
  6
CONTINUOUS
 10
285.9118406168
 20
264.5593280663
 40
14.0
100
AcDbArc
 50
151.2342865943
 51
216.6996675234
  0
ARC
  5
5A4
100
AcDbEntity
  8
0
100
AcDbCircle
 62
7
  6
CONTINUOUS
 10
270.6780374862
 20
253.2045386725
 40
5.0
100
AcDbArc
 50
355.3660280026
 51
36.6996675234
  0
ARC
  5
5A5
100
AcDbEntity
  8
0
100
AcDbCircle
 62
7
  6
CONTINUOUS
 10
277.0672411796
 20
284.9997332993
 40
2.0
100
AcDbArc
 50
344.5082785044
 51
51.5866132267
  0
ARC
  5
5A6
100
AcDbEntity
  8
0
100
AcDbCircle
 62
7
  6
CONTINUOUS
 10
267.6988243847
 20
291.8062865209
 40
2.0
100
AcDbArc
 50
56.4133867733
 51
123.4917214956
  0
ARC
  5
5A7
100
AcDbEntity
  8
0
100
AcDbCircle
 62
7
  6
CONTINUOUS
 10
202.9386371717
 20
1057.4747234754
 40
715.70114534
100
AcDbArc
 50
258.5522106844
 51
258.7631923153
  0
ARC
  5
5A8
100
AcDbEntity
  8
0
100
AcDbCircle
 62
7
  6
CONTINUOUS
 10
180.3322970501
 20
-331.7795187773
 40
715.6887426053
100
AcDbArc
 50
78.5522117181
 51
78.7631942511
  0
ARC
  5
5A9
100
AcDbEntity
  8
0
100
AcDbCircle
 62
7
  6
CONTINUOUS
 10
183.9389312925
 20
1039.482206649
 40
697.3502622235
100
AcDbArc
 50
281.234031687
 51
281.450564975
  0
ARC
  5
5AA
100
AcDbEntity
  8
0
100
AcDbCircle
 62
7
  6
CONTINUOUS
 10
199.3285322352
 20
-313.7940351755
 40
697.3450327339
100
AcDbArc
 50
101.2340307378
 51
101.4505637202
  0
ARC
  5
5AB
100
AcDbEntity
  8
0
100
AcDbCircle
 62
7
  6
CONTINUOUS
 10
198.4683551831
 20
-242.0275409502
 40
624.1227420898
100
AcDbArc
 50
78.3921816394
 51
78.5486999179
  0
ARC
  5
5AC
100
AcDbEntity
  8
0
100
AcDbCircle
 62
7
  6
CONTINUOUS
 10
184.7994829975
 20
967.7074017147
 40
624.1194916585
100
AcDbArc
 50
258.3921812963
 51
258.5486977102
  0
ARC
  5
5AD
100
AcDbEntity
  8
0
100
AcDbCircle
 62
7
  6
CONTINUOUS
 10
182.5519315155
 20
-231.0063586463
 40
612.8746020902
100
AcDbArc
 50
101.4498643718
 51
101.6092559126
  0
ARC
  5
5AE
100
AcDbEntity
  8
0
100
AcDbCircle
 62
7
  6
CONTINUOUS
 10
200.7170191087
 20
956.6871893437
 40
612.8723416898
100
AcDbArc
 50
281.4498657793
 51
281.6092543828
  0
ARC
  5
5AF
100
AcDbEntity
  8
0
100
AcDbCircle
 62
7
  6
CONTINUOUS
 10
312.6701063156
 20
366.0083624539
 40
10.6668402508
100
AcDbArc
 50
270.0029093248
 51
273.4206885088
  0
ARC
  5
5B0
100
AcDbEntity
  8
0
100
AcDbCircle
 62
7
  6
CONTINUOUS
 10
70.5983872648
 20
366.0083608421
 40
10.6668386391
100
AcDbArc
 50
266.5793139777
 51
269.9970910611
  0
ARC
  5
5B1
100
AcDbEntity
  8
0
100
AcDbCircle
 62
7
  6
CONTINUOUS
 10
312.6701315356
 20
359.6753083177
 40
10.6662139116
100
AcDbArc
 50
86.5759233078
 51
89.9972259788
  0
ARC
  5
5B2
100
AcDbEntity
  8
0
100
AcDbCircle
 62
7
  6
CONTINUOUS
 10
70.5983619153
 20
359.6753145529
 40
10.6662076764
100
AcDbArc
 50
90.0027729405
 51
93.4240775938
  0
ARC
  5
5B3
100
AcDbEntity
  8
0
100
AcDbCircle
 62
7
  6
CONTINUOUS
 10
318.2328069895
 20
363.4452163854
 40
8.1036941702
100
AcDbArc
 50
269.9988700393
 51
281.1118904021
  0
ARC
  5
5B4
100
AcDbEntity
  8
0
100
AcDbCircle
 62
7
  6
CONTINUOUS
 10
65.0356865576
 20
363.4452153039
 40
8.1036930887
100
AcDbArc
 50
258.888108854
 51
270.0011307046
  0
ARC
  5
5B5
100
AcDbEntity
  8
0
100
AcDbCircle
 62
7
  6
CONTINUOUS
 10
65.0356854569
 20
362.2378404465
 40
8.1036817719
100
AcDbArc
 50
89.9988615113
 51
101.1118989301
  0
ARC
  5
5B6
100
AcDbEntity
  8
0
100
AcDbCircle
 62
7
  6
CONTINUOUS
 10
318.2328083687
 20
362.2378422278
 40
8.1036799906
100
AcDbArc
 50
78.8880998447
 51
90.0011397139
  0
ARC
  5
5B7
100
AcDbEntity
  8
1_AXIS
100
AcDbCircle
 62
7
  6
CONTINUOUS
 10
149.1342468262
 20
350.3415222168
 40
5.0
100
AcDbArc
 50
0.0
 51
90.0
  0
ARC
  5
5B8
100
AcDbEntity
  8
1_AXIS
100
AcDbCircle
 62
7
  6
CONTINUOUS
 10
149.1342468262
 20
375.3415222168
 40
5.0
100
AcDbArc
 50
270.0
 51
360.0
  0
ARC
  5
5B9
100
AcDbEntity
  8
1_AXIS
100
AcDbCircle
 62
7
  6
CONTINUOUS
 10
234.1342468262
 20
350.3415222168
 40
5.0
100
AcDbArc
 50
90.0
 51
180.0
  0
ARC
  5
5BA
100
AcDbEntity
  8
1_AXIS
100
AcDbCircle
 62
7
  6
CONTINUOUS
 10
234.1342468262
 20
375.3415222168
 40
5.0
100
AcDbArc
 50
180.0
 51
270.0
  0
ARC
  5
5BB
100
AcDbEntity
  8
1_AXIS
100
AcDbCircle
 62
7
  6
CONTINUOUS
 10
156.1342468262
 20
343.6915222168
 40
2.0
100
AcDbArc
 50
180.0
 51
270.0
  0
ARC
  5
5BC
100
AcDbEntity
  8
1_AXIS
100
AcDbCircle
 62
7
  6
CONTINUOUS
 10
156.1342468262
 20
381.9915222168
 40
2.0
100
AcDbArc
 50
90.0
 51
180.0
  0
ARC
  5
5BD
100
AcDbEntity
  8
1_AXIS
100
AcDbCircle
 62
7
  6
CONTINUOUS
 10
227.1342468262
 20
343.6915222168
 40
2.0
100
AcDbArc
 50
270.0
 51
360.0
  0
ARC
  5
5BE
100
AcDbEntity
  8
1_AXIS
100
AcDbCircle
 62
7
  6
CONTINUOUS
 10
227.1342468262
 20
381.9915222168
 40
2.0
100
AcDbArc
 50
0.0
 51
90.0
  0
ARC
  5
5BF
100
AcDbEntity
  8
0
100
AcDbCircle
 62
7
  6
CONTINUOUS
 10
413.7822216938
 20
47.0741451468
 40
10.3588917147
100
AcDbArc
 50
350.1751849936
 51
359.9910180803
  0
ARC
  5
5C0
100
AcDbEntity
  8
0
100
AcDbCircle
 62
7
  6
CONTINUOUS
 10
413.7822239665
 20
307.4495366894
 40
10.358889442
100
AcDbArc
 50
0.0089808403
 51
9.8248160858
  0
ARC
  5
5C1
100
AcDbEntity
  8
0
100
AcDbCircle
 62
7
  6
CONTINUOUS
 10
419.499959657
 20
307.4495403833
 40
10.3588465024
100
AcDbArc
 50
170.17516352
 51
179.991039554
  0
ARC
  5
5C2
100
AcDbEntity
  8
0
100
AcDbCircle
 62
7
  6
CONTINUOUS
 10
419.4999582835
 20
47.0741411392
 40
10.3588451289
100
AcDbArc
 50
180.0089597937
 51
189.8248371324
  0
ARC
  5
5C3
100
AcDbEntity
  8
1_AXIS
100
AcDbCircle
 62
7
  6
CONTINUOUS
 10
419.1411132813
 20
307.7618408203
 40
10.0
100
AcDbArc
 50
170.0
 51
180.0
  0
ARC
  5
5C4
100
AcDbEntity
  8
1_AXIS
100
AcDbCircle
 62
7
  6
CONTINUOUS
 10
419.1411132813
 20
46.7618408203
 40
10.0
100
AcDbArc
 50
180.0
 51
190.0
  0
ARC
  5
5C5
100
AcDbEntity
  8
1_AXIS
100
AcDbCircle
 62
7
  6
CONTINUOUS
 10
414.1411132813
 20
307.7618408203
 40
10.0
100
AcDbArc
 50
0.0
 51
10.0
  0
ARC
  5
5C6
100
AcDbEntity
  8
1_AXIS
100
AcDbCircle
 62
7
  6
CONTINUOUS
 10
414.1411132813
 20
46.7618408203
 40
10.0
100
AcDbArc
 50
350.0
 51
360.0
  0
ARC
  5
5C7
100
AcDbEntity
  8
1_AXIS
100
AcDbCircle
 62
7
  6
CONTINUOUS
 10
429.1411132813
 20
134.7618408203
 40
5.0
100
AcDbArc
 50
90.0
 51
180.0
  0
ARC
  5
5C8
100
AcDbEntity
  8
1_AXIS
100
AcDbCircle
 62
7
  6
CONTINUOUS
 10
429.1411132813
 20
219.7618408203
 40
5.0
100
AcDbArc
 50
184.7977432892
 51
270.0
  0
ARC
  5
5C9
100
AcDbEntity
  8
1_AXIS
100
AcDbCircle
 62
7
  6
CONTINUOUS
 10
404.1411132813
 20
134.7618408203
 40
5.0
100
AcDbArc
 50
0.0
 51
90.0
  0
ARC
  5
5CA
100
AcDbEntity
  8
1_AXIS
100
AcDbCircle
 62
7
  6
CONTINUOUS
 10
404.1411132813
 20
219.7618408203
 40
5.0
100
AcDbArc
 50
270.0
 51
360.0
  0
ARC
  5
5CB
100
AcDbEntity
  8
1_AXIS
100
AcDbCircle
 62
7
  6
CONTINUOUS
 10
435.7911132813
 20
141.7618408203
 40
2.0
100
AcDbArc
 50
270.0
 51
360.0
  0
ARC
  5
5CC
100
AcDbEntity
  8
1_AXIS
100
AcDbCircle
 62
7
  6
CONTINUOUS
 10
435.7911132813
 20
212.7618408203
 40
2.0
100
AcDbArc
 50
0.0
 51
90.0
  0
ARC
  5
5CD
100
AcDbEntity
  8
1_AXIS
100
AcDbCircle
 62
7
  6
CONTINUOUS
 10
397.4911132813
 20
141.7618408203
 40
2.0
100
AcDbArc
 50
180.0
 51
270.0
  0
ARC
  5
5CE
100
AcDbEntity
  8
1_AXIS
100
AcDbCircle
 62
7
  6
CONTINUOUS
 10
397.4911132813
 20
212.7618408203
 40
2.0
100
AcDbArc
 50
90.0
 51
180.0
  0
ARC
  5
5CF
100
AcDbEntity
  8
0
100
AcDbCircle
 62
7
  6
CONTINUOUS
 10
411.4128896199
 20
38.7618408203
 40
1.0
100
AcDbArc
 50
190.0
 51
270.0
  0
ARC
  5
5D0
100
AcDbEntity
  8
0
100
AcDbCircle
 62
7
  6
CONTINUOUS
 10
411.4128896199
 20
315.7618408203
 40
1.0
100
AcDbArc
 50
90.0
 51
170.0
  0
ARC
  5
5D1
100
AcDbEntity
  8
0
100
AcDbCircle
 62
7
  6
CONTINUOUS
 10
421.8693369426
 20
315.7618408203
 40
1.0
100
AcDbArc
 50
10.0
 51
90.0
  0
ARC
  5
5D2
100
AcDbEntity
  8
0
100
AcDbCircle
 62
7
  6
CONTINUOUS
 10
421.8693369426
 20
38.7618408203
 40
1.0
100
AcDbArc
 50
270.0
 51
350.0
  0
SPLINE
  5
5D3
100
AcDbEntity
  8
0
100
AcDbSpline
 62
7
  6
CONTINUOUS
 70
0
 71
3
 72
8
 73
4
 74
0
 42
0.0000001
 43
0.0000001
 44
0.0000000001
 40
0.0
 40
0.0
 40
0.0
 40
0.0
 40
1.0
 40
1.0
 40
1.0
 40
1.0
 10
324.0490834287
 20
369.3305193442
 30
0.0
 10
324.3220743017
 20
369.2744327609
 30
0.0
 10
324.5950252195
 20
369.2181513086
 30
0.0
 10
324.8679334063
 20
369.1616637603
 30
0.0
  0
SPLINE
  5
5D4
100
AcDbEntity
  8
0
100
AcDbSpline
 62
7
  6
CONTINUOUS
 70
0
 71
3
 72
8
 73
4
 74
0
 42
0.0000001
 43
0.0000001
 44
0.0000000001
 40
0.0
 40
0.0
 40
0.0
 40
0.0
 40
1.0
 40
1.0
 40
1.0
 40
1.0
 10
58.400560246
 20
369.1616637603
 30
0.0
 10
58.6734639877
 20
369.21815039
 30
0.0
 10
58.946410459
 20
369.2744309299
 30
0.0
 10
59.2193968843
 20
369.3305166068
 30
0.0
  0
SPLINE
  5
5D5
100
AcDbEntity
  8
0
100
AcDbSpline
 62
7
  6
CONTINUOUS
 70
0
 71
3
 72
8
 73
4
 74
0
 42
0.0000001
 43
0.0000001
 44
0.0000000001
 40
0.0
 40
0.0
 40
0.0
 40
0.0
 40
1.0
 40
1.0
 40
1.0
 40
1.0
 10
324.8679334063
 20
356.5213806733
 30
0.0
 10
324.5950250231
 20
356.4648930765
 30
0.0
 10
324.322073908
 20
356.4086115807
 30
0.0
 10
324.0490828371
 20
356.3525249566
 30
0.0
  0
SPLINE
  5
5D6
100
AcDbEntity
  8
0
100
AcDbSpline
 62
7
  6
CONTINUOUS
 70
0
 71
3
 72
8
 73
4
 74
0
 42
0.0000001
 43
0.0000001
 44
0.0000000001
 40
0.0
 40
0.0
 40
0.0
 40
0.0
 40
1.0
 40
1.0
 40
1.0
 40
1.0
 10
59.2194051152
 20
356.3525261251
 30
0.0
 10
58.9464159448
 20
356.4086123618
 30
0.0
 10
58.6734667296
 20
356.464893468
 30
0.0
 10
58.400560246
 20
356.5213806733
 30
0.0
  0
ENDSEC
  0
SECTION
  2
OBJECTS
  0
DICTIONARY
  5
C
100
AcDbDictionary
280
0
281
1
  3
ACAD_GROUP
350
D
  3
ACAD_MLINESTYLE
350
17
  3
ACAD_LAYOUT
350
1A
  3
ACAD_PLOTSETTINGS
350
19
  3
ACAD_PLOTSTYLENAME
350
E
  3
ACAD_TABLESTYLE
350
       5D7
  0
DICTIONARY
  5
D
102
{ACAD_REACTORS
330
C
102
}
100
AcDbDictionary
280
0
281
1
  0
ACDBDICTIONARYWDFLT
  5
E
102
{ACAD_REACTORS
330
C
102
}
100
AcDbDictionary
281
1
  3
Normal
350
F
100
AcDbDictionaryWithDefault
340
F
  0
DICTIONARY
  5
17
102
{ACAD_REACTORS
330
C
102
}
100
AcDbDictionary
280
0
281
1
  3
Standard
350
18
  0
DICTIONARY
  5
5D7
330
C
100
AcDbDictionary
281
1
  3
Standard
350
       5DA
  3
Standard1
350
       5DB
  0
DICTIONARY
  5
19
102
{ACAD_REACTORS
330
C
102
}
100
AcDbDictionary
281
1
  0
DICTIONARY
  5
1A
102
{ACAD_REACTORS
330
C
102
}
100
AcDbDictionary
281
1
  3
Model
350
5D8
  3
Layout1
350
5D9
  0
ACDBPLACEHOLDER
  5
F
102
{ACAD_REACTORS
330
E
102
}
  0
MLINESTYLE
  5
18
102
{ACAD_REACTORS
330
17
102
}
100
AcDbMlineStyle
  2
STANDARD
 70
0
  3

 62
256
 51
90.0
 52
90.0
 71
2
 49
0.5
 62
256
  6
BYLAYER
 49
-0.5
 62
256
  6
BYLAYER
  0
LAYOUT
  5
5D8
102
{ACAD_REACTORS
330
1A
102
}
100
AcDbPlotSettings
  1

  2
none_device
  4
ISO_A2_(594.00_x_420.00_MM)
  6

 40
0.0
 41
0.0
 42
0.0
 43
0.0
 44
594.0
 45
420.0
 46
0.0
 47
0.0
 48
0.0
 49
0.0
140
0.0
141
0.0
142
1.0
143
1.0
 70
1024
 72
1
 73
0
 74
0
  7

 75
0
147
1.0
148
0.0
149
0.0
100
AcDbLayout
  1
Model
 70
0
 71
0
 10
0.0
 20
0.0
 11
594.0
 21
420.0
 12
0.0
 22
0.0
 32
0.0
 14
0.0
 24
0.0
 34
0.0
 15
0.0
 25
0.0
 35
0.0
146
0.0
 13
0.0
 23
0.0
 33
0.0
 16
1.0
 26
0.0
 36
0.0
 17
0.0
 27
1.0
 37
0.0
 76
0
330
211
345
0
346
0
  0
LAYOUT
  5
5D9
102
{ACAD_REACTORS
330
1A
102
}
100
AcDbPlotSettings
  1

  2
none_device
  4
ISO_A2_(594.00_x_420.00_MM)
  6

 40
0.0
 41
0.0
 42
0.0
 43
0.0
 44
594.0
 45
420.0
 46
0.0
 47
0.0
 48
0.0
 49
0.0
140
0.0
141
0.0
142
1.0
143
1.0
 70
0
 72
1
 73
0
 74
0
  7

 75
0
147
1.0
148
0.0
149
0.0
100
AcDbLayout
  1
Layout1
 70
0
 71
1
 10
0.0
 20
0.0
 11
594.0
 21
420.0
 12
0.0
 22
0.0
 32
0.0
 14
0.0
 24
0.0
 34
0.0
 15
0.0
 25
0.0
 35
0.0
146
0.0
 13
0.0
 23
0.0
 33
0.0
 16
1.0
 26
0.0
 36
0.0
 17
0.0
 27
1.0
 37
0.0
 76
0
330
212
345
0
346
0
  0
TABLESTYLE
  5
5DA
102
{ACAD_REACTORS
330
5D7
330
346
102
}
330
5D7
100
AcDbTableStyle
  3
Standard
 70
0
 71
0
 40
0.06
 41
0.06
280
1
281
1
  7
Standard
140
0.18
170
1
 62
0
 63
7
283
0
  7
Standard
140
0.18
170
1
 62
0
 63
7
283
0
  7
Standard
140
0.18
170
1
 62
0
 63
7
283
0
  0
TABLESTYLE
  5
5DB
102
{ACAD_REACTORS
330
5D7
102
}
330
5D7
100
AcDbTableStyle
  3
Standard1
 70
1
 71
0
 40
0.06
 41
0.06
280
1
281
1
  7
Standard
140
0.18
170
1
 62
0
 63
7
283
0
  7
Standard
140
0.18
170
1
 62
0
 63
7
283
0
  7
Standard
140
0.18
170
1
 62
0
 63
7
283
0
  0
ENDSEC
  0
EOF
