999
DXF file: G:\afd20\200100-Web\Chains\uni 1400\2D-DXF\Sprockets\uni_1400_z08_2w_1r_1p_hub75.dxf
999
Pro/ENGINEER 2015290 by Parametric Technology Corporation
  0
SECTION
  2
HEADER
  9
$ACADVER
  1
AC1027
  9
$DWGCODEPAGE
  3
ANSI_1252
  9
$EXTMAX
 10
594.0
 20
420.0
 30
0.0
  9
$EXTMIN
 10
0.0
 20
0.0
 30
0.0
  9
$LIMMIN
 10
0.0
 20
0.0
  9
$LIMMAX
 10
594.0
 20
420.0
  9
$VIEWCTR
 10
297.0
 20
210.0
  9
$VIEWSIZE
 40
420.0
  9
$CLAYER
  8
0
  9
$LTSCALE
 40
32.67
  9
$CELTYPE
  6
BYLAYER
  9
$DIMSCALE
 40
1.0
  9
$DIMASZ
 40
3.5
  9
$DIMEXO
 40
1.0
  9
$DIMDLI
 40
22.572
  9
$DIMEXE
 40
2.0
  9
$DIMCEN
 40
5.346
  9
$DIMLFAC
 40
1.0
  9
$DIMBLK
  1
_FILLED
  9
$DIMALT
 70
0
  9
$DIMALTF
 40
0.0393700787
  9
$DIMTXT
 40
3.5
  9
$DIMTOL
 70
1
  9
$DIMLIM
 70
0
  9
$DIMTFAC
 40
1.0
  9
$DIMTP
 40
0.01
  9
$DIMTM
 40
0.01
  9
$DIMGAP
 40
0.625
  9
$DIMDSEP
 70
46
  9
$AUNITS
 70
0
  9
$PDMODE
 70
3
  9
$PDSIZE
 40
0.3125
  9
$HANDSEED
  5
5EA
  9
$TILEMODE
 70
1
  9
$MEASUREMENT
 70
1
  9
$INSUNITS
 70
4
  0
ENDSEC
  0
SECTION
  2
CLASSES
  0
CLASS
  1
ACDBDICTIONARYWDFLT
  2
AcDbDictionaryWithDefault
  3
AutoCAD 2000
 90
0
 91
1
280
0
281
0
  0
CLASS
  1
ACDBPLACEHOLDER
  2
AcDbPlaceHolder
  3
AutoCAD 2000
 90
0
 91
1
280
0
281
0
  0
CLASS
  1
LAYOUT
  2
AcDbLayout
  3
AutoCAD 2000
 90
0
 91
0
280
0
281
0
  0
CLASS
  1
TABLESTYLE
  2
AcDbTableStyle
  3
ObjectDBX Classes
 90
2047
 91
1
280
0
281
0
  0
CLASS
  1
ACAD_TABLE
  2
AcDbTable
  3
ObjectDBX Classes
 90
1025
 91
1
280
0
281
1
  0
ENDSEC
  0
SECTION
  2
TABLES
  0
TABLE
  2
VPORT
  5
8
100
AcDbSymbolTable
 70
2
  0
VPORT
  5
1F4
100
AcDbSymbolTableRecord
100
AcDbViewportTableRecord
  2
*ACTIVE
 70
0
 10
0.0
 20
0.0
 11
1.0
 21
1.0
 12
297.0
 22
210.0
 13
0.0
 23
0.0
 14
1.0
 24
1.0
 15
0.0
 25
0.0
 16
0.0
 26
0.0
 36
1.0
 17
0.0
 27
0.0
 37
0.0
 40
420.0
 41
1.4142857143
 42
50.0
 43
0.0
 44
0.0
 50
0.0
 51
0.0
 71
0
 72
100
 73
1
 74
1
 75
0
 76
0
 77
0
 78
0
  0
ENDTAB
  0
TABLE
  2
LTYPE
  5
5
100
AcDbSymbolTable
 70
6
  0
LTYPE
  5
14
100
AcDbSymbolTableRecord
100
AcDbLinetypeTableRecord
  2
BYBLOCK
 70
0
  3

 72
65
 73
0
 40
0.0
  0
LTYPE
  5
15
100
AcDbSymbolTableRecord
100
AcDbLinetypeTableRecord
  2
BYLAYER
 70
0
  3

 72
65
 73
0
 40
0.0
  0
LTYPE
  5
16
100
AcDbSymbolTableRecord
100
AcDbLinetypeTableRecord
  2
CONTINUOUS
 70
64
  3
Solid line
 72
65
 73
0
 40
0.0
  0
LTYPE
  5
1F5
100
AcDbSymbolTableRecord
100
AcDbLinetypeTableRecord
  2
CENTER
 70
64
  3
____ _ ____ _ ____ _ ____ _ ____ _ ____ _ ____
 72
65
 73
4
 40
0.6
 49
0.375
 74
0
 49
-0.075
 74
0
 49
0.075
 74
0
 49
-0.075
 74
0
  0
LTYPE
  5
1F6
100
AcDbSymbolTableRecord
100
AcDbLinetypeTableRecord
  2
HIDDEN
 70
64
  3
- - - - - - - - - - - - - - - - - - - -
 72
65
 73
2
 40
0.2
 49
0.1
 74
0
 49
-0.1
 74
0
  0
LTYPE
  5
1F7
100
AcDbSymbolTableRecord
100
AcDbLinetypeTableRecord
  2
PHANTOM
 70
64
  3
_____ _ _ _____ _ _ _____ _ _ _____
 72
65
 73
6
 40
0.8
 49
0.45
 74
0
 49
-0.05
 74
0
 49
0.1
 74
0
 49
-0.05
 74
0
 49
0.1
 74
0
 49
-0.05
 74
0
  0
LTYPE
  5
1F8
100
AcDbSymbolTableRecord
100
AcDbLinetypeTableRecord
  2
DOT
 70
64
  3
. . . . . . . . . . . . . . . . . . . .
 72
65
 73
2
 40
0.2
 49
0.1
 74
0
 49
-0.1
 74
0
  0
LTYPE
  5
1F9
100
AcDbSymbolTableRecord
100
AcDbLinetypeTableRecord
  2
DASHED
 70
64
  3
- - - - - - - - - - - - - - - - - - - -
 72
65
 73
2
 40
0.2
 49
0.1
 74
0
 49
-0.1
 74
0
  0
ENDTAB
  0
TABLE
  2
LAYER
  5
2
100
AcDbSymbolTable
 70
36
  0
LAYER
  5
10
100
AcDbSymbolTableRecord
100
AcDbLayerTableRecord
  2
0
 70
0
 62
7
  6
CONTINUOUS
370
-3
390
F
  0
LAYER
  5
1FA
100
AcDbSymbolTableRecord
100
AcDbLayerTableRecord
  2
DEFAULT_1
 70
0
 62
7
  6
CENTER
370
-3
390
F
  0
LAYER
  5
1FB
100
AcDbSymbolTableRecord
100
AcDbLayerTableRecord
  2
DEFAULT_2
 70
0
 62
8
  6
HIDDEN
370
-3
390
F
  0
LAYER
  5
1FC
100
AcDbSymbolTableRecord
100
AcDbLayerTableRecord
  2
DEFAULT_3
 70
0
 62
7
  6
PHANTOM
370
-3
390
F
  0
LAYER
  5
1FD
100
AcDbSymbolTableRecord
100
AcDbLayerTableRecord
  2
1_AXIS
 70
0
 62
7
  6
CONTINUOUS
370
-3
390
F
  0
LAYER
  5
1FE
100
AcDbSymbolTableRecord
100
AcDbLayerTableRecord
  2
1_DATUM_PLANE
 70
0
 62
7
  6
CONTINUOUS
370
-3
390
F
  0
LAYER
  5
1FF
100
AcDbSymbolTableRecord
100
AcDbLayerTableRecord
  2
2_FEATURE
 70
0
 62
7
  6
CONTINUOUS
370
-3
390
F
  0
LAYER
  5
200
100
AcDbSymbolTableRecord
100
AcDbLayerTableRecord
  2
4_QUILT
 70
0
 62
7
  6
CONTINUOUS
370
-3
390
F
  0
LAYER
  5
201
100
AcDbSymbolTableRecord
100
AcDbLayerTableRecord
  2
6_DIM
 70
0
 62
7
  6
CONTINUOUS
370
-3
390
F
  0
LAYER
  5
202
100
AcDbSymbolTableRecord
100
AcDbLayerTableRecord
  2
AXES
 70
0
 62
7
  6
CONTINUOUS
370
-3
390
F
  0
LAYER
  5
203
100
AcDbSymbolTableRecord
100
AcDbLayerTableRecord
  2
BLANK_COSM
 70
0
 62
7
  6
CONTINUOUS
370
-3
390
F
  0
LAYER
  5
204
100
AcDbSymbolTableRecord
100
AcDbLayerTableRecord
  2
CSYS
 70
0
 62
7
  6
CONTINUOUS
370
-3
390
F
  0
LAYER
  5
205
100
AcDbSymbolTableRecord
100
AcDbLayerTableRecord
  2
CURVES
 70
0
 62
7
  6
CONTINUOUS
370
-3
390
F
  0
LAYER
  5
206
100
AcDbSymbolTableRecord
100
AcDbLayerTableRecord
  2
NOTES
 70
0
 62
7
  6
CONTINUOUS
370
-3
390
F
  0
LAYER
  5
207
100
AcDbSymbolTableRecord
100
AcDbLayerTableRecord
  2
PLANES
 70
0
 62
7
  6
CONTINUOUS
370
-3
390
F
  0
LAYER
  5
208
100
AcDbSymbolTableRecord
100
AcDbLayerTableRecord
  2
QUILTS
 70
0
 62
7
  6
CONTINUOUS
370
-3
390
F
  0
ENDTAB
  0
TABLE
  2
STYLE
  5
3
100
AcDbSymbolTable
 70
1
  0
STYLE
  5
11
100
AcDbSymbolTableRecord
100
AcDbTextStyleTableRecord
  2
STANDARD
 70
0
 40
0.0
 41
0.8
 50
0.0
 71
0
 42
0.2
  3
txt
  4

  0
STYLE
  5
209
100
AcDbSymbolTableRecord
100
AcDbTextStyleTableRecord
  2
TEXTSTYLE_1
 70
0
 40
0.0
 41
0.8
 50
0.0
 71
0
 42
0.2
  3
gdt
  4

  0
STYLE
  5
20A
100
AcDbSymbolTableRecord
100
AcDbTextStyleTableRecord
  2
TEXTSTYLE_2
 70
0
 40
0.0
 41
0.6
 50
0.0
 71
0
 42
0.2
  3
txt
  4

  0
STYLE
  5
20B
100
AcDbSymbolTableRecord
100
AcDbTextStyleTableRecord
  2
TEXTSTYLE_3
 70
0
 40
0.0
 41
1.0
 50
0.0
 71
0
 42
0.2
  3
ftb_____.ttf
  4

  0
STYLE
  5
20C
100
AcDbSymbolTableRecord
100
AcDbTextStyleTableRecord
  2
TEXTSTYLE_4
 70
0
 40
0.0
 41
1.0
 50
0.0
 71
0
 42
0.2
  3
fti_____.ttf
  4

  0
STYLE
  5
20D
100
AcDbSymbolTableRecord
100
AcDbTextStyleTableRecord
  2
TEXTSTYLE_5
 70
0
 40
0.0
 41
1.0
 50
0.0
 71
0
 42
0.2
  3
frutiger light.ttf
  4

  0
STYLE
  5
20E
100
AcDbSymbolTableRecord
100
AcDbTextStyleTableRecord
  2
TEXTSTYLE_6
 70
0
 40
0.0
 41
0.7
 50
0.0
 71
0
 42
0.2
  3
txt
  4

  0
STYLE
  5
20F
100
AcDbSymbolTableRecord
100
AcDbTextStyleTableRecord
  2
TEXTSTYLE_7
 70
0
 40
0.0
 41
0.8
 50
0.0
 71
0
 42
0.2
  3
txt
  4

  0
ENDTAB
  0
TABLE
  2
VIEW
  5
6
100
AcDbSymbolTable
 70
0
  0
ENDTAB
  0
TABLE
  2
UCS
  5
7
100
AcDbSymbolTable
 70
0
  0
ENDTAB
  0
TABLE
  2
APPID
  5
9
100
AcDbSymbolTable
 70
1
  0
APPID
  5
210
100
AcDbSymbolTableRecord
100
AcDbRegAppTableRecord
  2
ACAD
 70
0
  0
ENDTAB
  0
TABLE
  2
BLOCK_RECORD
  5
1
100
AcDbSymbolTable
 70
0
  0
BLOCK_RECORD
  5
211
100
AcDbSymbolTableRecord
100
AcDbBlockTableRecord
  2
*Model_Space
  0
BLOCK_RECORD
  5
212
100
AcDbSymbolTableRecord
100
AcDbBlockTableRecord
  2
*Paper_Space
  0
BLOCK_RECORD
  5
213
100
AcDbSymbolTableRecord
100
AcDbBlockTableRecord
  2
UNI_LOGO2_BL1
  0
BLOCK_RECORD
  5
214
100
AcDbSymbolTableRecord
100
AcDbBlockTableRecord
  2
AMMEAAL_LOGO_BL0
  0
BLOCK_RECORD
  5
215
100
AcDbSymbolTableRecord
100
AcDbBlockTableRecord
  2
*T1
  0
ENDTAB
  0
TABLE
  2
DIMSTYLE
  5
A
100
AcDbSymbolTable
 70
1
100
AcDbDimStyleTable
 71
0
  0
DIMSTYLE
105
216
100
AcDbSymbolTableRecord
100
AcDbDimStyleTableRecord
  2
STANDARD
 70
0
  3

  4

 40
1.0
 41
3.5
 42
1.0
 43
0.38
 44
2.0
 45
0.0
 46
0.0
 47
0.01
 48
0.01
140
3.5
141
0.09
142
0.0
143
25.4
144
1.0
145
0.0
146
1.0
147
0.625
 71
1.0
 72
0.0
 73
0
 74
0
 75
0
 76
0
 77
1
 78
0
170
0
171
2
172
0
173
0
174
0
175
0
176
0
177
0
178
5
270
2
271
2
272
2
273
2
274
2
275
0
280
0
281
0
282
0
283
1
284
0
285
0
286
0
287
3
288
0
340
11
278
46
  0
ENDTAB
  0
ENDSEC
  0
SECTION
  2
BLOCKS
  0
BLOCK
  5
20
100
AcDbEntity
  8
0
100
AcDbBlockBegin
  2
*Model_Space
 70
0
 10
0.0
 20
0.0
 30
0.0
  3
*Model_Space
  1

  0
ENDBLK
  5
21
100
AcDbEntity
  8
0
100
AcDbBlockEnd
  0
BLOCK
  5
1C
100
AcDbEntity
  8
0
100
AcDbBlockBegin
  2
*Paper_Space
 70
0
 10
0.0
 20
0.0
 30
0.0
  3
*Paper_Space
  1

  0
ENDBLK
  5
1D
100
AcDbEntity
  8
0
100
AcDbBlockEnd
  0
BLOCK
  5
217
100
AcDbEntity
  8
0
100
AcDbBlockBegin
 62
2
  6
CONTINUOUS
  2
UNI_LOGO2_BL1
 70
64
 10
557.4079930916
 20
35.8092573885
  3
UNI_LOGO2_BL1
  1

  0
TEXT
  5
218
100
AcDbEntity
  8
0
100
AcDbText
 62
7
  6
CONTINUOUS
 10
548.4662781001
 20
30.9020137655
  7
TEXTSTYLE_4
 40
1.0655737705
  1
The brand for plastic modular belts and chains
 41
1.0
 72
0
100
AcDbText
  0
LINE
  5
219
100
AcDbEntity
  8
0
100
AcDbLine
 62
7
  6
CONTINUOUS
 10
533.3860614807
 20
36.3830278803
 11
533.3860614807
 21
34.2518803393
  0
LINE
  5
21A
100
AcDbEntity
  8
0
100
AcDbLine
 62
7
  6
CONTINUOUS
 10
533.6751239738
 20
31.2609490436
 11
533.6751239738
 21
31.3577401029
  0
LINE
  5
21B
100
AcDbEntity
  8
0
100
AcDbLine
 62
7
  6
CONTINUOUS
 10
533.3860614807
 20
31.3254764164
 11
533.4438739824
 21
31.1318942979
  0
LINE
  5
21C
100
AcDbEntity
  8
0
100
AcDbLine
 62
7
  6
CONTINUOUS
 10
534.7795041036
 20
34.1699131262
 11
534.7795041036
 21
36.3830278803
  0
LINE
  5
21D
100
AcDbEntity
  8
0
100
AcDbLine
 62
7
  6
CONTINUOUS
 10
535.6985614255
 20
32.3256508311
 11
535.6985614255
 21
30.8092573885
  0
LINE
  5
21E
100
AcDbEntity
  8
0
100
AcDbLine
 62
7
  6
CONTINUOUS
 10
535.9876239807
 20
30.8092573885
 11
535.9876239807
 21
31.5513222666
  0
LINE
  5
21F
100
AcDbEntity
  8
0
100
AcDbLine
 62
7
  6
CONTINUOUS
 10
535.9876239807
 20
31.6803770123
 11
535.9876239807
 21
32.3256508311
  0
LINE
  5
220
100
AcDbEntity
  8
0
100
AcDbLine
 62
7
  6
CONTINUOUS
 10
533.4438739824
 20
31.5190585802
 11
533.3860614807
 21
31.3254764164
  0
LINE
  5
221
100
AcDbEntity
  8
0
100
AcDbLine
 62
7
  6
CONTINUOUS
 10
533.7907489669
 20
31.0996306115
 11
533.6751239738
 21
31.2609490436
  0
LINE
  5
222
100
AcDbEntity
  8
0
100
AcDbLine
 62
7
  6
CONTINUOUS
 10
534.8891865358
 20
31.6158496394
 11
534.9469989807
 21
31.5190585802
  0
LINE
  5
223
100
AcDbEntity
  8
0
100
AcDbLine
 62
7
  6
CONTINUOUS
 10
535.2360615358
 20
31.5190585802
 11
535.1782489255
 21
31.6481133259
  0
LINE
  5
224
100
AcDbEntity
  8
0
100
AcDbLine
 62
7
  6
CONTINUOUS
 10
536.6647500053
 20
36.3830278803
 11
536.6647500053
 21
34.5797491918
  0
LINE
  5
225
100
AcDbEntity
  8
0
100
AcDbLine
 62
7
  6
CONTINUOUS
 10
536.6647500053
 20
33.2682737819
 11
536.6647500053
 21
32.612536077
  0
LINE
  5
226
100
AcDbEntity
  8
0
100
AcDbLine
 62
7
  6
CONTINUOUS
 10
537.0282489807
 20
31.4545312073
 11
537.0282489807
 21
30.8092573885
  0
LINE
  5
227
100
AcDbEntity
  8
0
100
AcDbLine
 62
7
  6
CONTINUOUS
 10
537.3173113704
 20
30.8092573885
 11
537.3173113704
 21
31.4545312073
  0
LINE
  5
228
100
AcDbEntity
  8
0
100
AcDbLine
 62
7
  6
CONTINUOUS
 10
533.6751239738
 20
31.3577401029
 11
533.7329364807
 21
31.4867948937
  0
LINE
  5
229
100
AcDbEntity
  8
0
100
AcDbLine
 62
7
  6
CONTINUOUS
 10
533.4438739824
 20
31.1318942979
 11
533.5594989807
 21
31.0028395296
  0
LINE
  5
22A
100
AcDbEntity
  8
0
100
AcDbLine
 62
7
  6
CONTINUOUS
 10
536.9704363704
 20
31.583585953
 11
537.0282489807
 21
31.4545312073
  0
LINE
  5
22B
100
AcDbEntity
  8
0
100
AcDbLine
 62
7
  6
CONTINUOUS
 10
537.7798115909
 20
31.0996306115
 11
537.8376238704
 21
30.9705758432
  0
LINE
  5
22C
100
AcDbEntity
  8
0
100
AcDbLine
 62
7
  6
CONTINUOUS
 10
537.3173113704
 20
31.4545312073
 11
537.2594990909
 21
31.6158496394
  0
LINE
  5
22D
100
AcDbEntity
  8
0
100
AcDbLine
 62
7
  6
CONTINUOUS
 10
537.7798115909
 20
31.6481133259
 11
537.7798115909
 21
31.583585953
  0
LINE
  5
22E
100
AcDbEntity
  8
0
100
AcDbLine
 62
7
  6
CONTINUOUS
 10
537.7798115909
 20
31.1964216708
 11
537.7798115909
 21
31.0996306115
  0
LINE
  5
22F
100
AcDbEntity
  8
0
100
AcDbLine
 62
7
  6
CONTINUOUS
 10
538.0581926282
 20
32.612536077
 11
538.0581926282
 21
36.3830278803
  0
LINE
  5
230
100
AcDbEntity
  8
0
100
AcDbLine
 62
7
  6
CONTINUOUS
 10
538.0688739807
 20
31.0673669025
 11
538.0688739807
 21
31.1318942979
  0
LINE
  5
231
100
AcDbEntity
  8
0
100
AcDbLine
 62
7
  6
CONTINUOUS
 10
538.3860614807
 20
36.3830278803
 11
538.3860614807
 21
32.612536077
  0
LINE
  5
232
100
AcDbEntity
  8
0
100
AcDbLine
 62
7
  6
CONTINUOUS
 10
535.1782489255
 20
31.0028395296
 11
535.2360615358
 21
31.1318942979
  0
LINE
  5
233
100
AcDbEntity
  8
0
100
AcDbLine
 62
7
  6
CONTINUOUS
 10
539.5719992012
 20
30.9060484591
 11
539.5141862601
 21
31.0673669025
  0
LINE
  5
234
100
AcDbEntity
  8
0
100
AcDbLine
 62
7
  6
CONTINUOUS
 10
539.2251242012
 20
31.583585953
 11
539.2251242012
 21
31.4867948937
  0
LINE
  5
235
100
AcDbEntity
  8
0
100
AcDbLine
 62
7
  6
CONTINUOUS
 10
539.2251242012
 20
31.3577401029
 11
539.2251242012
 21
31.1641579843
  0
LINE
  5
236
100
AcDbEntity
  8
0
100
AcDbLine
 62
7
  6
CONTINUOUS
 10
539.5141862601
 20
31.0673669025
 11
539.5141862601
 21
31.583585953
  0
LINE
  5
237
100
AcDbEntity
  8
0
100
AcDbLine
 62
7
  6
CONTINUOUS
 10
539.7795041036
 20
32.612536077
 11
539.7795041036
 21
34.4158147655
  0
LINE
  5
238
100
AcDbEntity
  8
0
100
AcDbLine
 62
7
  6
CONTINUOUS
 10
539.7795041036
 20
35.7272901754
 11
539.7795041036
 21
36.3830278803
  0
LINE
  5
239
100
AcDbEntity
  8
0
100
AcDbLine
 62
7
  6
CONTINUOUS
 10
540.0923117012
 20
32.3256508311
 11
540.0923117012
 21
32.164332399
  0
LINE
  5
23A
100
AcDbEntity
  8
0
100
AcDbLine
 62
7
  6
CONTINUOUS
 10
540.0923117012
 20
31.8416954444
 11
540.0923117012
 21
30.8092573885
  0
LINE
  5
23B
100
AcDbEntity
  8
0
100
AcDbLine
 62
7
  6
CONTINUOUS
 10
540.3813737601
 20
30.8092573885
 11
540.3813737601
 21
31.8416954444
  0
LINE
  5
23C
100
AcDbEntity
  8
0
100
AcDbLine
 62
7
  6
CONTINUOUS
 10
540.3813737601
 20
32.164332399
 11
540.3813737601
 21
32.3256508311
  0
LINE
  5
23D
100
AcDbEntity
  8
0
100
AcDbLine
 62
7
  6
CONTINUOUS
 10
534.9469989807
 20
31.1318942979
 11
534.8891865358
 21
31.035103216
  0
LINE
  5
23E
100
AcDbEntity
  8
0
100
AcDbLine
 62
7
  6
CONTINUOUS
 10
537.2594990909
 20
31.6158496394
 11
537.2016864807
 21
31.6803770123
  0
LINE
  5
23F
100
AcDbEntity
  8
0
100
AcDbLine
 62
7
  6
CONTINUOUS
 10
538.1266865909
 20
31.0028395296
 11
538.0688739807
 21
31.0673669025
  0
LINE
  5
240
100
AcDbEntity
  8
0
100
AcDbLine
 62
7
  6
CONTINUOUS
 10
539.2829364807
 20
30.873784767
 11
539.3407487601
 21
30.8092573885
  0
LINE
  5
241
100
AcDbEntity
  8
0
100
AcDbLine
 62
7
  6
CONTINUOUS
 10
539.2251242012
 20
30.9705758432
 11
539.2829364807
 21
30.873784767
  0
LINE
  5
242
100
AcDbEntity
  8
0
100
AcDbLine
 62
7
  6
CONTINUOUS
 10
539.6298114807
 20
30.8092573885
 11
539.5719992012
 21
30.9060484591
  0
LINE
  5
243
100
AcDbEntity
  8
0
100
AcDbLine
 62
7
  6
CONTINUOUS
 10
539.5141862601
 20
31.583585953
 11
539.4563739807
 21
31.6803770123
  0
LINE
  5
244
100
AcDbEntity
  8
0
100
AcDbLine
 62
7
  6
CONTINUOUS
 10
540.8438739807
 20
31.8416954444
 11
540.8438739807
 21
30.8092573885
  0
LINE
  5
245
100
AcDbEntity
  8
0
100
AcDbLine
 62
7
  6
CONTINUOUS
 10
541.1329367012
 20
30.8092573885
 11
541.1329367012
 21
31.5513222666
  0
LINE
  5
246
100
AcDbEntity
  8
0
100
AcDbLine
 62
7
  6
CONTINUOUS
 10
541.1329367012
 20
31.6803770123
 11
541.1329367012
 21
31.8416954444
  0
LINE
  5
247
100
AcDbEntity
  8
0
100
AcDbLine
 62
7
  6
CONTINUOUS
 10
541.6647500053
 20
34.8256508311
 11
541.6647500053
 21
32.612536077
  0
LINE
  5
248
100
AcDbEntity
  8
0
100
AcDbLine
 62
7
  6
CONTINUOUS
 10
533.5594989807
 20
31.6481133259
 11
533.4438739824
 21
31.5190585802
  0
LINE
  5
249
100
AcDbEntity
  8
0
100
AcDbLine
 62
7
  6
CONTINUOUS
 10
533.7329364807
 20
31.4867948937
 11
533.7907489669
 21
31.5513222666
  0
LINE
  5
24A
100
AcDbEntity
  8
0
100
AcDbLine
 62
7
  6
CONTINUOUS
 10
533.5594989807
 20
31.0028395296
 11
533.6751239738
 21
30.9383121455
  0
LINE
  5
24B
100
AcDbEntity
  8
0
100
AcDbLine
 62
7
  6
CONTINUOUS
 10
533.9641864669
 20
31.0028395296
 11
533.7907489669
 21
31.0996306115
  0
LINE
  5
24C
100
AcDbEntity
  8
0
100
AcDbLine
 62
7
  6
CONTINUOUS
 10
539.1673112601
 20
31.6481133259
 11
539.2251242012
 21
31.583585953
  0
LINE
  5
24D
100
AcDbEntity
  8
0
100
AcDbLine
 62
7
  6
CONTINUOUS
 10
542.1157487601
 20
31.583585953
 11
542.1735617012
 21
31.4222675209
  0
LINE
  5
24E
100
AcDbEntity
  8
0
100
AcDbLine
 62
7
  6
CONTINUOUS
 10
542.4626237601
 20
31.4222675209
 11
542.4048114807
 21
31.583585953
  0
LINE
  5
24F
100
AcDbEntity
  8
0
100
AcDbLine
 62
7
  6
CONTINUOUS
 10
542.1735617012
 20
31.4222675209
 11
542.1735617012
 21
30.8092573885
  0
LINE
  5
250
100
AcDbEntity
  8
0
100
AcDbLine
 62
7
  6
CONTINUOUS
 10
542.4626237601
 20
30.8092573885
 11
542.4626237601
 21
31.4222675209
  0
LINE
  5
251
100
AcDbEntity
  8
0
100
AcDbLine
 62
7
  6
CONTINUOUS
 10
542.9251239807
 20
31.6481133259
 11
542.9251239807
 21
31.583585953
  0
LINE
  5
252
100
AcDbEntity
  8
0
100
AcDbLine
 62
7
  6
CONTINUOUS
 10
543.0581926282
 20
32.612536077
 11
543.0581926282
 21
34.743683618
  0
LINE
  5
253
100
AcDbEntity
  8
0
100
AcDbLine
 62
7
  6
CONTINUOUS
 10
543.3860614807
 20
36.3830278803
 11
543.3860614807
 21
32.612536077
  0
LINE
  5
254
100
AcDbEntity
  8
0
100
AcDbLine
 62
7
  6
CONTINUOUS
 10
538.0688739807
 20
31.1318942979
 11
538.1266865909
 21
31.2286853572
  0
LINE
  5
255
100
AcDbEntity
  8
0
100
AcDbLine
 62
7
  6
CONTINUOUS
 10
533.6751239738
 20
30.9383121455
 11
533.8485614944
 21
30.873784767
  0
LINE
  5
256
100
AcDbEntity
  8
0
100
AcDbLine
 62
7
  6
CONTINUOUS
 10
535.1782489255
 20
31.6481133259
 11
535.0048114255
 21
31.7449043851
  0
LINE
  5
257
100
AcDbEntity
  8
0
100
AcDbLine
 62
7
  6
CONTINUOUS
 10
537.8376238704
 20
30.9705758432
 11
538.0110613704
 21
30.873784767
  0
LINE
  5
258
100
AcDbEntity
  8
0
100
AcDbLine
 62
7
  6
CONTINUOUS
 10
536.8548114807
 20
31.6481133259
 11
536.9704363704
 21
31.583585953
  0
LINE
  5
259
100
AcDbEntity
  8
0
100
AcDbLine
 62
7
  6
CONTINUOUS
 10
537.2016864807
 20
31.6803770123
 11
537.0860615909
 21
31.7449043851
  0
LINE
  5
25A
100
AcDbEntity
  8
0
100
AcDbLine
 62
7
  6
CONTINUOUS
 10
542.9251239807
 20
31.0673669025
 11
543.0407492012
 21
30.9383121455
  0
LINE
  5
25B
100
AcDbEntity
  8
0
100
AcDbLine
 62
7
  6
CONTINUOUS
 10
543.2719989807
 20
31.0028395296
 11
543.2141867012
 21
31.0673669025
  0
LINE
  5
25C
100
AcDbEntity
  8
0
100
AcDbLine
 62
7
  6
CONTINUOUS
 10
542.9251239807
 20
31.583585953
 11
543.0407492012
 21
31.4545312073
  0
LINE
  5
25D
100
AcDbEntity
  8
0
100
AcDbLine
 62
7
  6
CONTINUOUS
 10
542.4048114807
 20
31.583585953
 11
542.3469992012
 21
31.6803770123
  0
LINE
  5
25E
100
AcDbEntity
  8
0
100
AcDbLine
 62
7
  6
CONTINUOUS
 10
544.7751235396
 20
31.0028395296
 11
544.7751235396
 21
31.0673669025
  0
LINE
  5
25F
100
AcDbEntity
  8
0
100
AcDbLine
 62
7
  6
CONTINUOUS
 10
544.7795041036
 20
32.612536077
 11
544.7795041036
 21
36.3830278803
  0
LINE
  5
260
100
AcDbEntity
  8
0
100
AcDbLine
 62
7
  6
CONTINUOUS
 10
537.8376238704
 20
31.7126406987
 11
537.7798115909
 21
31.6481133259
  0
LINE
  5
261
100
AcDbEntity
  8
0
100
AcDbLine
 62
7
  6
CONTINUOUS
 10
534.7157489531
 20
31.6803770123
 11
534.8891865358
 21
31.6158496394
  0
LINE
  5
262
100
AcDbEntity
  8
0
100
AcDbLine
 62
7
  6
CONTINUOUS
 10
539.4563739807
 20
31.6803770123
 11
539.3407487601
 21
31.7449043851
  0
LINE
  5
263
100
AcDbEntity
  8
0
100
AcDbLine
 62
7
  6
CONTINUOUS
 10
543.2719989807
 20
31.5190585802
 11
543.2141867012
 21
31.583585953
  0
LINE
  5
264
100
AcDbEntity
  8
0
100
AcDbLine
 62
7
  6
CONTINUOUS
 10
544.4282492012
 20
31.1318942979
 11
544.4860614807
 21
31.0673669025
  0
LINE
  5
265
100
AcDbEntity
  8
0
100
AcDbLine
 62
7
  6
CONTINUOUS
 10
544.7751235396
 20
31.0673669025
 11
544.6594989807
 21
31.1964216708
  0
LINE
  5
266
100
AcDbEntity
  8
0
100
AcDbLine
 62
7
  6
CONTINUOUS
 10
544.4282492012
 20
31.6481133259
 11
544.4860614807
 21
31.583585953
  0
LINE
  5
267
100
AcDbEntity
  8
0
100
AcDbLine
 62
7
  6
CONTINUOUS
 10
544.7751235396
 20
31.583585953
 11
544.6594989807
 21
31.7126406987
  0
LINE
  5
268
100
AcDbEntity
  8
0
100
AcDbLine
 62
7
  6
CONTINUOUS
 10
538.0688739807
 20
31.583585953
 11
538.1266865909
 21
31.6481133259
  0
LINE
  5
269
100
AcDbEntity
  8
0
100
AcDbLine
 62
7
  6
CONTINUOUS
 10
537.8954364807
 20
31.3254764164
 11
537.7798115909
 21
31.1964216708
  0
LINE
  5
26A
100
AcDbEntity
  8
0
100
AcDbLine
 62
7
  6
CONTINUOUS
 10
539.2251242012
 20
31.1641579843
 11
539.1673112601
 21
31.0996306115
  0
LINE
  5
26B
100
AcDbEntity
  8
0
100
AcDbLine
 62
7
  6
CONTINUOUS
 10
539.1673112601
 20
30.9060484591
 11
539.2251242012
 21
30.9705758432
  0
LINE
  5
26C
100
AcDbEntity
  8
0
100
AcDbLine
 62
7
  6
CONTINUOUS
 10
538.0110613704
 20
30.873784767
 11
538.1266865909
 21
30.8415210777
  0
LINE
  5
26D
100
AcDbEntity
  8
0
100
AcDbLine
 62
7
  6
CONTINUOUS
 10
535.0048114255
 20
31.7449043851
 11
534.7735614807
 21
31.809431758
  0
LINE
  5
26E
100
AcDbEntity
  8
0
100
AcDbLine
 62
7
  6
CONTINUOUS
 10
538.3579363704
 20
30.9383121455
 11
538.1266865909
 21
31.0028395296
  0
LINE
  5
26F
100
AcDbEntity
  8
0
100
AcDbLine
 62
7
  6
CONTINUOUS
 10
537.0860615909
 20
31.7449043851
 11
536.9126240909
 21
31.809431758
  0
LINE
  5
270
100
AcDbEntity
  8
0
100
AcDbLine
 62
7
  6
CONTINUOUS
 10
539.3407487601
 20
31.7449043851
 11
539.1673112601
 21
31.809431758
  0
LINE
  5
271
100
AcDbEntity
  8
0
100
AcDbLine
 62
7
  6
CONTINUOUS
 10
542.0001242012
 20
31.6481133259
 11
542.1157487601
 21
31.583585953
  0
LINE
  5
272
100
AcDbEntity
  8
0
100
AcDbLine
 62
7
  6
CONTINUOUS
 10
542.3469992012
 20
31.6803770123
 11
542.2313739807
 21
31.7449043851
  0
LINE
  5
273
100
AcDbEntity
  8
0
100
AcDbLine
 62
7
  6
CONTINUOUS
 10
533.8485614944
 20
30.873784767
 11
534.0219989944
 21
30.8415210777
  0
LINE
  5
274
100
AcDbEntity
  8
0
100
AcDbLine
 62
7
  6
CONTINUOUS
 10
534.3110615082
 20
30.9383121455
 11
533.9641864669
 21
31.0028395296
  0
LINE
  5
275
100
AcDbEntity
  8
0
100
AcDbLine
 62
7
  6
CONTINUOUS
 10
536.7391865909
 20
31.6803770123
 11
536.8548114807
 21
31.6481133259
  0
LINE
  5
276
100
AcDbEntity
  8
0
100
AcDbLine
 62
7
  6
CONTINUOUS
 10
539.0516867012
 20
31.6803770123
 11
539.1673112601
 21
31.6481133259
  0
LINE
  5
277
100
AcDbEntity
  8
0
100
AcDbLine
 62
7
  6
CONTINUOUS
 10
543.3876242012
 20
30.9705758432
 11
543.2719989807
 21
31.0028395296
  0
LINE
  5
278
100
AcDbEntity
  8
0
100
AcDbLine
 62
7
  6
CONTINUOUS
 10
541.8844989807
 20
31.6803770123
 11
542.0001242012
 21
31.6481133259
  0
LINE
  5
279
100
AcDbEntity
  8
0
100
AcDbLine
 62
7
  6
CONTINUOUS
 10
543.0407492012
 20
30.9383121455
 11
543.2141867012
 21
30.873784767
  0
LINE
  5
27A
100
AcDbEntity
  8
0
100
AcDbLine
 62
7
  6
CONTINUOUS
 10
542.2313739807
 20
31.7449043851
 11
542.0579364807
 21
31.809431758
  0
LINE
  5
27B
100
AcDbEntity
  8
0
100
AcDbLine
 62
7
  6
CONTINUOUS
 10
543.4454364807
 20
31.4545312073
 11
543.2719989807
 21
31.5190585802
  0
LINE
  5
27C
100
AcDbEntity
  8
0
100
AcDbLine
 62
7
  6
CONTINUOUS
 10
544.2548117012
 20
31.1964216708
 11
544.4282492012
 21
31.1318942979
  0
LINE
  5
27D
100
AcDbEntity
  8
0
100
AcDbLine
 62
7
  6
CONTINUOUS
 10
544.6594989807
 20
31.7126406987
 11
544.4860614807
 21
31.7771680715
  0
LINE
  5
27E
100
AcDbEntity
  8
0
100
AcDbLine
 62
7
  6
CONTINUOUS
 10
543.0407492012
 20
31.4545312073
 11
543.2719989807
 21
31.3577401029
  0
LINE
  5
27F
100
AcDbEntity
  8
0
100
AcDbLine
 62
7
  6
CONTINUOUS
 10
544.6594989807
 20
31.1964216708
 11
544.4282492012
 21
31.29321273
  0
LINE
  5
280
100
AcDbEntity
  8
0
100
AcDbLine
 62
7
  6
CONTINUOUS
 10
543.2141867012
 20
31.583585953
 11
543.2719989807
 21
31.6481133259
  0
LINE
  5
281
100
AcDbEntity
  8
0
100
AcDbLine
 62
7
  6
CONTINUOUS
 10
533.6751239738
 20
31.7126406987
 11
533.5594989807
 21
31.6481133259
  0
LINE
  5
282
100
AcDbEntity
  8
0
100
AcDbLine
 62
7
  6
CONTINUOUS
 10
533.7907489669
 20
31.5513222666
 11
533.9641864669
 21
31.6481133259
  0
LINE
  5
283
100
AcDbEntity
  8
0
100
AcDbLine
 62
7
  6
CONTINUOUS
 10
536.1032490358
 20
31.7449043851
 11
535.9876239807
 21
31.6803770123
  0
LINE
  5
284
100
AcDbEntity
  8
0
100
AcDbLine
 62
7
  6
CONTINUOUS
 10
535.9876239807
 20
31.5513222666
 11
536.1032490358
 21
31.6158496394
  0
LINE
  5
285
100
AcDbEntity
  8
0
100
AcDbLine
 62
7
  6
CONTINUOUS
 10
535.0048114255
 20
30.9060484591
 11
535.1782489255
 21
31.0028395296
  0
LINE
  5
286
100
AcDbEntity
  8
0
100
AcDbLine
 62
7
  6
CONTINUOUS
 10
534.0219989944
 20
30.8415210777
 11
534.3688739531
 21
30.8092573885
  0
LINE
  5
287
100
AcDbEntity
  8
0
100
AcDbLine
 62
7
  6
CONTINUOUS
 10
538.1266865909
 20
30.8415210777
 11
538.3579363704
 21
30.8092573885
  0
LINE
  5
288
100
AcDbEntity
  8
0
100
AcDbLine
 62
7
  6
CONTINUOUS
 10
536.5079364807
 20
31.7126406987
 11
536.7391865909
 21
31.6803770123
  0
LINE
  5
289
100
AcDbEntity
  8
0
100
AcDbLine
 62
7
  6
CONTINUOUS
 10
538.8204365909
 20
31.7126406987
 11
539.0516867012
 21
31.6803770123
  0
LINE
  5
28A
100
AcDbEntity
  8
0
100
AcDbLine
 62
7
  6
CONTINUOUS
 10
543.2719989807
 20
31.3577401029
 11
544.2548117012
 21
31.1964216708
  0
LINE
  5
28B
100
AcDbEntity
  8
0
100
AcDbLine
 62
7
  6
CONTINUOUS
 10
544.4282492012
 20
31.29321273
 11
543.4454364807
 21
31.4545312073
  0
LINE
  5
28C
100
AcDbEntity
  8
0
100
AcDbLine
 62
7
  6
CONTINUOUS
 10
536.9126240909
 20
31.809431758
 11
536.7391865909
 21
31.8416954444
  0
LINE
  5
28D
100
AcDbEntity
  8
0
100
AcDbLine
 62
7
  6
CONTINUOUS
 10
543.2141867012
 20
30.873784767
 11
543.3876242012
 21
30.8415210777
  0
LINE
  5
28E
100
AcDbEntity
  8
0
100
AcDbLine
 62
7
  6
CONTINUOUS
 10
542.0579364807
 20
31.809431758
 11
541.8844989807
 21
31.8416954444
  0
LINE
  5
28F
100
AcDbEntity
  8
0
100
AcDbLine
 62
7
  6
CONTINUOUS
 10
544.3126239807
 20
31.6803770123
 11
544.4282492012
 21
31.6481133259
  0
LINE
  5
290
100
AcDbEntity
  8
0
100
AcDbLine
 62
7
  6
CONTINUOUS
 10
544.4860614807
 20
31.0673669025
 11
544.4282492012
 21
31.0028395296
  0
LINE
  5
291
100
AcDbEntity
  8
0
100
AcDbLine
 62
7
  6
CONTINUOUS
 10
543.0407492012
 20
31.7449043851
 11
542.9251239807
 21
31.6481133259
  0
LINE
  5
292
100
AcDbEntity
  8
0
100
AcDbLine
 62
7
  6
CONTINUOUS
 10
537.9532490909
 20
31.7771680715
 11
537.8376238704
 21
31.7126406987
  0
LINE
  5
293
100
AcDbEntity
  8
0
100
AcDbLine
 62
7
  6
CONTINUOUS
 10
538.0110613704
 20
31.3900038345
 11
537.8954364807
 21
31.3254764164
  0
LINE
  5
294
100
AcDbEntity
  8
0
100
AcDbLine
 62
7
  6
CONTINUOUS
 10
538.1266865909
 20
31.2286853572
 11
538.2423114807
 21
31.29321273
  0
LINE
  5
295
100
AcDbEntity
  8
0
100
AcDbLine
 62
7
  6
CONTINUOUS
 10
535.6985614255
 20
30.8092573885
 11
535.9876239807
 21
30.8092573885
  0
LINE
  5
296
100
AcDbEntity
  8
0
100
AcDbLine
 62
7
  6
CONTINUOUS
 10
537.0282489807
 20
30.8092573885
 11
537.3173113704
 21
30.8092573885
  0
LINE
  5
297
100
AcDbEntity
  8
0
100
AcDbLine
 62
7
  6
CONTINUOUS
 10
538.3579363704
 20
30.8092573885
 11
538.7048113704
 21
30.8092573885
  0
LINE
  5
298
100
AcDbEntity
  8
0
100
AcDbLine
 62
7
  6
CONTINUOUS
 10
539.3407487601
 20
30.8092573885
 11
539.6298114807
 21
30.8092573885
  0
LINE
  5
299
100
AcDbEntity
  8
0
100
AcDbLine
 62
7
  6
CONTINUOUS
 10
540.0923117012
 20
30.8092573885
 11
540.3813737601
 21
30.8092573885
  0
LINE
  5
29A
100
AcDbEntity
  8
0
100
AcDbLine
 62
7
  6
CONTINUOUS
 10
540.8438739807
 20
30.8092573885
 11
541.1329367012
 21
30.8092573885
  0
LINE
  5
29B
100
AcDbEntity
  8
0
100
AcDbLine
 62
7
  6
CONTINUOUS
 10
542.1735617012
 20
30.8092573885
 11
542.4626237601
 21
30.8092573885
  0
LINE
  5
29C
100
AcDbEntity
  8
0
100
AcDbLine
 62
7
  6
CONTINUOUS
 10
543.7344992012
 20
30.8092573885
 11
544.0813742012
 21
30.8092573885
  0
LINE
  5
29D
100
AcDbEntity
  8
0
100
AcDbLine
 62
7
  6
CONTINUOUS
 10
544.0813742012
 20
30.9383121455
 11
543.7344992012
 21
30.9383121455
  0
LINE
  5
29E
100
AcDbEntity
  8
0
100
AcDbLine
 62
7
  6
CONTINUOUS
 10
538.7048113704
 20
30.9383121455
 11
538.3579363704
 21
30.9383121455
  0
LINE
  5
29F
100
AcDbEntity
  8
0
100
AcDbLine
 62
7
  6
CONTINUOUS
 10
543.2141867012
 20
31.0673669025
 11
542.9251239807
 21
31.0673669025
  0
LINE
  5
2A0
100
AcDbEntity
  8
0
100
AcDbLine
 62
7
  6
CONTINUOUS
 10
535.2360615358
 20
31.1318942979
 11
534.9469989807
 21
31.1318942979
  0
LINE
  5
2A1
100
AcDbEntity
  8
0
100
AcDbLine
 62
7
  6
CONTINUOUS
 10
534.3110615082
 20
31.7126406987
 11
534.7157489531
 21
31.6803770123
  0
LINE
  5
2A2
100
AcDbEntity
  8
0
100
AcDbLine
 62
7
  6
CONTINUOUS
 10
534.7735614807
 20
31.809431758
 11
534.3688739531
 21
31.8416954444
  0
LINE
  5
2A3
100
AcDbEntity
  8
0
100
AcDbLine
 62
7
  6
CONTINUOUS
 10
543.3876242012
 20
30.8415210777
 11
543.7344992012
 21
30.8092573885
  0
LINE
  5
2A4
100
AcDbEntity
  8
0
100
AcDbLine
 62
7
  6
CONTINUOUS
 10
543.7344992012
 20
30.9383121455
 11
543.3876242012
 21
30.9705758432
  0
LINE
  5
2A5
100
AcDbEntity
  8
0
100
AcDbLine
 62
7
  6
CONTINUOUS
 10
539.1673112601
 20
31.809431758
 11
538.8204365909
 21
31.8416954444
  0
LINE
  5
2A6
100
AcDbEntity
  8
0
100
AcDbLine
 62
7
  6
CONTINUOUS
 10
543.9657489807
 20
31.7126406987
 11
544.3126239807
 21
31.6803770123
  0
LINE
  5
2A7
100
AcDbEntity
  8
0
100
AcDbLine
 62
7
  6
CONTINUOUS
 10
544.3126239807
 20
31.809431758
 11
543.9657489807
 21
31.8416954444
  0
LINE
  5
2A8
100
AcDbEntity
  8
0
100
AcDbLine
 62
7
  6
CONTINUOUS
 10
541.6532492012
 20
31.7126406987
 11
541.8844989807
 21
31.6803770123
  0
LINE
  5
2A9
100
AcDbEntity
  8
0
100
AcDbLine
 62
7
  6
CONTINUOUS
 10
544.4860614807
 20
31.7771680715
 11
544.3126239807
 21
31.809431758
  0
LINE
  5
2AA
100
AcDbEntity
  8
0
100
AcDbLine
 62
7
  6
CONTINUOUS
 10
544.6594989807
 20
30.9060484591
 11
544.7751235396
 21
31.0028395296
  0
LINE
  5
2AB
100
AcDbEntity
  8
0
100
AcDbLine
 62
7
  6
CONTINUOUS
 10
539.1673112601
 20
31.0996306115
 11
538.9938737601
 21
31.0028395296
  0
LINE
  5
2AC
100
AcDbEntity
  8
0
100
AcDbLine
 62
7
  6
CONTINUOUS
 10
541.2485612601
 20
31.7449043851
 11
541.1329367012
 21
31.6803770123
  0
LINE
  5
2AD
100
AcDbEntity
  8
0
100
AcDbLine
 62
7
  6
CONTINUOUS
 10
541.1329367012
 20
31.5513222666
 11
541.2485612601
 21
31.6158496394
  0
LINE
  5
2AE
100
AcDbEntity
  8
0
100
AcDbLine
 62
7
  6
CONTINUOUS
 10
533.8485614944
 20
31.7771680715
 11
533.6751239738
 21
31.7126406987
  0
LINE
  5
2AF
100
AcDbEntity
  8
0
100
AcDbLine
 62
7
  6
CONTINUOUS
 10
536.2766863704
 20
31.809431758
 11
536.1032490358
 21
31.7449043851
  0
LINE
  5
2B0
100
AcDbEntity
  8
0
100
AcDbLine
 62
7
  6
CONTINUOUS
 10
536.1032490358
 20
31.6158496394
 11
536.2766863704
 21
31.6803770123
  0
LINE
  5
2B1
100
AcDbEntity
  8
0
100
AcDbLine
 62
7
  6
CONTINUOUS
 10
534.8891865358
 20
31.035103216
 11
534.7157489531
 21
30.9705758432
  0
LINE
  5
2B2
100
AcDbEntity
  8
0
100
AcDbLine
 62
7
  6
CONTINUOUS
 10
544.3126239807
 20
30.9705758432
 11
544.0813742012
 21
30.9383121455
  0
LINE
  5
2B3
100
AcDbEntity
  8
0
100
AcDbLine
 62
7
  6
CONTINUOUS
 10
538.7048113704
 20
30.8092573885
 11
538.9938737601
 21
30.8415210777
  0
LINE
  5
2B4
100
AcDbEntity
  8
0
100
AcDbLine
 62
7
  6
CONTINUOUS
 10
544.0813742012
 20
30.8092573885
 11
544.4282492012
 21
30.8415210777
  0
LINE
  5
2B5
100
AcDbEntity
  8
0
100
AcDbLine
 62
7
  6
CONTINUOUS
 10
534.3688739531
 20
30.8092573885
 11
534.7735614807
 21
30.8415210777
  0
LINE
  5
2B6
100
AcDbEntity
  8
0
100
AcDbLine
 62
7
  6
CONTINUOUS
 10
534.7157489531
 20
30.9705758432
 11
534.3110615082
 21
30.9383121455
  0
LINE
  5
2B7
100
AcDbEntity
  8
0
100
AcDbLine
 62
7
  6
CONTINUOUS
 10
538.5891864807
 20
31.3577401029
 11
539.2251242012
 21
31.3577401029
  0
LINE
  5
2B8
100
AcDbEntity
  8
0
100
AcDbLine
 62
7
  6
CONTINUOUS
 10
539.2251242012
 20
31.4867948937
 11
538.5891864807
 21
31.4867948937
  0
LINE
  5
2B9
100
AcDbEntity
  8
0
100
AcDbLine
 62
7
  6
CONTINUOUS
 10
534.9469989807
 20
31.5190585802
 11
535.2360615358
 21
31.5190585802
  0
LINE
  5
2BA
100
AcDbEntity
  8
0
100
AcDbLine
 62
7
  6
CONTINUOUS
 10
537.7798115909
 20
31.583585953
 11
538.0688739807
 21
31.583585953
  0
LINE
  5
2BB
100
AcDbEntity
  8
0
100
AcDbLine
 62
7
  6
CONTINUOUS
 10
544.4860614807
 20
31.583585953
 11
544.7751235396
 21
31.583585953
  0
LINE
  5
2BC
100
AcDbEntity
  8
0
100
AcDbLine
 62
7
  6
CONTINUOUS
 10
538.4735615909
 20
31.7126406987
 11
538.8204365909
 21
31.7126406987
  0
LINE
  5
2BD
100
AcDbEntity
  8
0
100
AcDbLine
 62
7
  6
CONTINUOUS
 10
543.6188739807
 20
31.7126406987
 11
543.9657489807
 21
31.7126406987
  0
LINE
  5
2BE
100
AcDbEntity
  8
0
100
AcDbLine
 62
7
  6
CONTINUOUS
 10
543.9657489807
 20
31.8416954444
 11
543.6188739807
 21
31.8416954444
  0
LINE
  5
2BF
100
AcDbEntity
  8
0
100
AcDbLine
 62
7
  6
CONTINUOUS
 10
541.8844989807
 20
31.8416954444
 11
541.6532492012
 21
31.8416954444
  0
LINE
  5
2C0
100
AcDbEntity
  8
0
100
AcDbLine
 62
7
  6
CONTINUOUS
 10
541.1329367012
 20
31.8416954444
 11
540.8438739807
 21
31.8416954444
  0
LINE
  5
2C1
100
AcDbEntity
  8
0
100
AcDbLine
 62
7
  6
CONTINUOUS
 10
540.3813737601
 20
31.8416954444
 11
540.0923117012
 21
31.8416954444
  0
LINE
  5
2C2
100
AcDbEntity
  8
0
100
AcDbLine
 62
7
  6
CONTINUOUS
 10
538.8204365909
 20
31.8416954444
 11
538.4735615909
 21
31.8416954444
  0
LINE
  5
2C3
100
AcDbEntity
  8
0
100
AcDbLine
 62
7
  6
CONTINUOUS
 10
536.7391865909
 20
31.8416954444
 11
536.5079364807
 21
31.8416954444
  0
LINE
  5
2C4
100
AcDbEntity
  8
0
100
AcDbLine
 62
7
  6
CONTINUOUS
 10
540.0923117012
 20
32.164332399
 11
540.3813737601
 21
32.164332399
  0
LINE
  5
2C5
100
AcDbEntity
  8
0
100
AcDbLine
 62
7
  6
CONTINUOUS
 10
540.3813737601
 20
32.3256508311
 11
540.0923117012
 21
32.3256508311
  0
LINE
  5
2C6
100
AcDbEntity
  8
0
100
AcDbLine
 62
7
  6
CONTINUOUS
 10
535.9876239807
 20
32.3256508311
 11
535.6985614255
 21
32.3256508311
  0
LINE
  5
2C7
100
AcDbEntity
  8
0
100
AcDbLine
 62
7
  6
CONTINUOUS
 10
535.025405743
 20
32.612536077
 11
535.4379770916
 21
32.612536077
  0
LINE
  5
2C8
100
AcDbEntity
  8
0
100
AcDbLine
 62
7
  6
CONTINUOUS
 10
536.6647500053
 20
32.612536077
 11
538.0581926282
 21
32.612536077
  0
LINE
  5
2C9
100
AcDbEntity
  8
0
100
AcDbLine
 62
7
  6
CONTINUOUS
 10
538.3860614807
 20
32.612536077
 11
539.7795041036
 21
32.612536077
  0
LINE
  5
2CA
100
AcDbEntity
  8
0
100
AcDbLine
 62
7
  6
CONTINUOUS
 10
541.6647500053
 20
32.612536077
 11
543.0581926282
 21
32.612536077
  0
LINE
  5
2CB
100
AcDbEntity
  8
0
100
AcDbLine
 62
7
  6
CONTINUOUS
 10
543.3860614807
 20
32.612536077
 11
544.7795041036
 21
32.612536077
  0
LINE
  5
2CC
100
AcDbEntity
  8
0
100
AcDbLine
 62
7
  6
CONTINUOUS
 10
541.4219987601
 20
31.809431758
 11
541.2485612601
 21
31.7449043851
  0
LINE
  5
2CD
100
AcDbEntity
  8
0
100
AcDbLine
 62
7
  6
CONTINUOUS
 10
538.9938737601
 20
30.8415210777
 11
539.1673112601
 21
30.9060484591
  0
LINE
  5
2CE
100
AcDbEntity
  8
0
100
AcDbLine
 62
7
  6
CONTINUOUS
 10
544.4282492012
 20
30.8415210777
 11
544.6594989807
 21
30.9060484591
  0
LINE
  5
2CF
100
AcDbEntity
  8
0
100
AcDbLine
 62
7
  6
CONTINUOUS
 10
544.4282492012
 20
31.0028395296
 11
544.3126239807
 21
30.9705758432
  0
LINE
  5
2D0
100
AcDbEntity
  8
0
100
AcDbLine
 62
7
  6
CONTINUOUS
 10
543.3876242012
 20
31.6803770123
 11
543.6188739807
 21
31.7126406987
  0
LINE
  5
2D1
100
AcDbEntity
  8
0
100
AcDbLine
 62
7
  6
CONTINUOUS
 10
541.4219987601
 20
31.6803770123
 11
541.6532492012
 21
31.7126406987
  0
LINE
  5
2D2
100
AcDbEntity
  8
0
100
AcDbLine
 62
7
  6
CONTINUOUS
 10
538.3579363704
 20
31.3254764164
 11
538.5891864807
 21
31.3577401029
  0
LINE
  5
2D3
100
AcDbEntity
  8
0
100
AcDbLine
 62
7
  6
CONTINUOUS
 10
541.6532492012
 20
31.8416954444
 11
541.4219987601
 21
31.809431758
  0
LINE
  5
2D4
100
AcDbEntity
  8
0
100
AcDbLine
 62
7
  6
CONTINUOUS
 10
538.2423114807
 20
31.6803770123
 11
538.4735615909
 21
31.7126406987
  0
LINE
  5
2D5
100
AcDbEntity
  8
0
100
AcDbLine
 62
7
  6
CONTINUOUS
 10
543.6188739807
 20
31.8416954444
 11
543.2719989807
 21
31.809431758
  0
LINE
  5
2D6
100
AcDbEntity
  8
0
100
AcDbLine
 62
7
  6
CONTINUOUS
 10
538.5891864807
 20
31.4867948937
 11
538.2423114807
 21
31.4545312073
  0
LINE
  5
2D7
100
AcDbEntity
  8
0
100
AcDbLine
 62
7
  6
CONTINUOUS
 10
534.3688739531
 20
31.8416954444
 11
534.0219989944
 21
31.809431758
  0
LINE
  5
2D8
100
AcDbEntity
  8
0
100
AcDbLine
 62
7
  6
CONTINUOUS
 10
538.4735615909
 20
31.8416954444
 11
538.0688739807
 21
31.809431758
  0
LINE
  5
2D9
100
AcDbEntity
  8
0
100
AcDbLine
 62
7
  6
CONTINUOUS
 10
535.8450778741
 20
33.7600770606
 11
535.1893401692
 21
33.7600770606
  0
LINE
  5
2DA
100
AcDbEntity
  8
0
100
AcDbLine
 62
7
  6
CONTINUOUS
 10
541.2485612601
 20
31.6158496394
 11
541.4219987601
 21
31.6803770123
  0
LINE
  5
2DB
100
AcDbEntity
  8
0
100
AcDbLine
 62
7
  6
CONTINUOUS
 10
543.2719989807
 20
31.6481133259
 11
543.3876242012
 21
31.6803770123
  0
LINE
  5
2DC
100
AcDbEntity
  8
0
100
AcDbLine
 62
7
  6
CONTINUOUS
 10
543.2719989807
 20
31.809431758
 11
543.0407492012
 21
31.7449043851
  0
LINE
  5
2DD
100
AcDbEntity
  8
0
100
AcDbLine
 62
7
  6
CONTINUOUS
 10
538.9938737601
 20
31.0028395296
 11
538.7048113704
 21
30.9383121455
  0
LINE
  5
2DE
100
AcDbEntity
  8
0
100
AcDbLine
 62
7
  6
CONTINUOUS
 10
536.2766863704
 20
31.6803770123
 11
536.5079364807
 21
31.7126406987
  0
LINE
  5
2DF
100
AcDbEntity
  8
0
100
AcDbLine
 62
7
  6
CONTINUOUS
 10
536.5079364807
 20
31.8416954444
 11
536.2766863704
 21
31.809431758
  0
LINE
  5
2E0
100
AcDbEntity
  8
0
100
AcDbLine
 62
7
  6
CONTINUOUS
 10
534.0798114807
 20
31.6803770123
 11
534.3110615082
 21
31.7126406987
  0
LINE
  5
2E1
100
AcDbEntity
  8
0
100
AcDbLine
 62
7
  6
CONTINUOUS
 10
540.5991762348
 20
35.2354868967
 11
541.2549139397
 21
35.2354868967
  0
LINE
  5
2E2
100
AcDbEntity
  8
0
100
AcDbLine
 62
7
  6
CONTINUOUS
 10
538.2423114807
 20
31.29321273
 11
538.3579363704
 21
31.3254764164
  0
LINE
  5
2E3
100
AcDbEntity
  8
0
100
AcDbLine
 62
7
  6
CONTINUOUS
 10
538.2423114807
 20
31.4545312073
 11
538.0110613704
 21
31.3900038345
  0
LINE
  5
2E4
100
AcDbEntity
  8
0
100
AcDbLine
 62
7
  6
CONTINUOUS
 10
538.1266865909
 20
31.6481133259
 11
538.2423114807
 21
31.6803770123
  0
LINE
  5
2E5
100
AcDbEntity
  8
0
100
AcDbLine
 62
7
  6
CONTINUOUS
 10
534.7735614807
 20
30.8415210777
 11
535.0048114255
 21
30.9060484591
  0
LINE
  5
2E6
100
AcDbEntity
  8
0
100
AcDbLine
 62
7
  6
CONTINUOUS
 10
538.0688739807
 20
31.809431758
 11
537.9532490909
 21
31.7771680715
  0
LINE
  5
2E7
100
AcDbEntity
  8
0
100
AcDbLine
 62
7
  6
CONTINUOUS
 10
534.0219989944
 20
31.809431758
 11
533.8485614944
 21
31.7771680715
  0
LINE
  5
2E8
100
AcDbEntity
  8
0
100
AcDbLine
 62
7
  6
CONTINUOUS
 10
544.7795041036
 20
36.3830278803
 11
543.3860614807
 21
36.3830278803
  0
LINE
  5
2E9
100
AcDbEntity
  8
0
100
AcDbLine
 62
7
  6
CONTINUOUS
 10
541.4188483659
 20
36.3830278803
 11
541.0062770173
 21
36.3830278803
  0
LINE
  5
2EA
100
AcDbEntity
  8
0
100
AcDbLine
 62
7
  6
CONTINUOUS
 10
539.7795041036
 20
36.3830278803
 11
538.3860614807
 21
36.3830278803
  0
LINE
  5
2EB
100
AcDbEntity
  8
0
100
AcDbLine
 62
7
  6
CONTINUOUS
 10
538.0581926282
 20
36.3830278803
 11
536.6647500053
 21
36.3830278803
  0
LINE
  5
2EC
100
AcDbEntity
  8
0
100
AcDbLine
 62
7
  6
CONTINUOUS
 10
534.7795041036
 20
36.3830278803
 11
533.3860614807
 21
36.3830278803
  0
LINE
  5
2ED
100
AcDbEntity
  8
0
100
AcDbLine
 62
7
  6
CONTINUOUS
 10
533.9641864669
 20
31.6481133259
 11
534.0798114807
 21
31.6803770123
  0
CIRCLE
  5
2EE
100
AcDbEntity
  8
0
100
AcDbCircle
 62
7
  6
CONTINUOUS
 10
544.0827827921
 20
38.7190934541
 40
2.0901639344
  0
ARC
  5
2EF
100
AcDbEntity
  8
0
100
AcDbCircle
 62
7
  6
CONTINUOUS
 10
535.025405743
 20
34.2518803393
 40
1.6393442623
100
AcDbArc
 50
180.0
 51
270.0
  0
ARC
  5
2F0
100
AcDbEntity
  8
0
100
AcDbCircle
 62
7
  6
CONTINUOUS
 10
541.4188483659
 20
34.743683618
 40
1.6393442623
100
AcDbArc
 50
0.0
 51
90.0
  0
ARC
  5
2F1
100
AcDbEntity
  8
0
100
AcDbCircle
 62
7
  6
CONTINUOUS
 10
535.4379770916
 20
34.0879459131
 40
1.4754098361
100
AcDbArc
 50
270.0
 51
326.2510114041
  0
ARC
  5
2F2
100
AcDbEntity
  8
0
100
AcDbCircle
 62
7
  6
CONTINUOUS
 10
541.0062770173
 20
34.9076180442
 40
1.4754098361
100
AcDbArc
 50
90.0
 51
146.2510114041
  0
ARC
  5
2F3
100
AcDbEntity
  8
0
100
AcDbCircle
 62
7
  6
CONTINUOUS
 10
535.8450778741
 20
34.5797491918
 40
0.8196721311
100
AcDbArc
 50
270.0
 51
360.0
  0
ARC
  5
2F4
100
AcDbEntity
  8
0
100
AcDbCircle
 62
7
  6
CONTINUOUS
 10
540.5991762348
 20
34.4158147655
 40
0.8196721311
100
AcDbArc
 50
90.0
 51
180.0
  0
ARC
  5
2F5
100
AcDbEntity
  8
0
100
AcDbCircle
 62
7
  6
CONTINUOUS
 10
535.1893401692
 20
34.1699131262
 40
0.4098360656
100
AcDbArc
 50
180.0
 51
270.0
  0
ARC
  5
2F6
100
AcDbEntity
  8
0
100
AcDbCircle
 62
7
  6
CONTINUOUS
 10
541.2549139397
 20
34.8256508311
 40
0.4098360656
100
AcDbArc
 50
0.0
 51
90.0
  0
SOLID
  5
2F7
100
AcDbEntity
  8
0
100
AcDbTrace
 62
7
  6
CONTINUOUS
 10
540.0923117012
 20
32.1643327593
 11
540.0923117012
 21
32.3256512429
 12
540.3813737601
 22
32.1643327593
 13
540.3813737601
 23
32.3256512429
  0
LWPOLYLINE
  5
2F8
100
AcDbEntity
  8
0
100
AcDbPolyline
 62
7
  6
CONTINUOUS
 90
13
 70
0
 10
534.3688739531
 20
31.841695792
 10
534.7735614807
 20
31.8094314888
 10
535.0048114255
 20
31.7449043986
 10
535.1782489255
 20
31.6481130052
 10
535.2360615358
 20
31.5190588248
 10
534.9469989807
 20
31.5190588248
 10
534.8891865358
 20
31.6158502183
 10
534.7157489531
 20
31.6803773084
 10
534.3110615082
 20
31.7126400953
 10
533.6751239738
 20
31.7126400953
 10
533.8485614944
 20
31.7771687019
 10
534.0219989944
 20
31.8094314888
 10
534.3688739531
 20
31.841695792
  0
HATCH
  5
2F9
100
AcDbEntity
  8
0
100
AcDbHatch
 62
7
  6
CONTINUOUS
 10
0.0
 20
0.0
 30
0.0
210
0.0
220
0.0
230
1.0
  2
SOLID
 70
1
 71
1
 91
1
 92
1
 93
12
 72
1
 10
534.3688739531
 20
31.841695792
 11
534.7735614807
 21
31.8094314888
 72
1
 10
534.7735614807
 20
31.8094314888
 11
535.0048114255
 21
31.7449043986
 72
1
 10
535.0048114255
 20
31.7449043986
 11
535.1782489255
 21
31.6481130052
 72
1
 10
535.1782489255
 20
31.6481130052
 11
535.2360615358
 21
31.5190588248
 72
1
 10
535.2360615358
 20
31.5190588248
 11
534.9469989807
 21
31.5190588248
 72
1
 10
534.9469989807
 20
31.5190588248
 11
534.8891865358
 21
31.6158502183
 72
1
 10
534.8891865358
 20
31.6158502183
 11
534.7157489531
 21
31.6803773084
 72
1
 10
534.7157489531
 20
31.6803773084
 11
534.3110615082
 21
31.7126400953
 72
1
 10
534.3110615082
 20
31.7126400953
 11
533.6751239738
 21
31.7126400953
 72
1
 10
533.6751239738
 20
31.7126400953
 11
533.8485614944
 21
31.7771687019
 72
1
 10
533.8485614944
 20
31.7771687019
 11
534.0219989944
 21
31.8094314888
 72
1
 10
534.0219989944
 20
31.8094314888
 11
534.3688739531
 21
31.841695792
 97
1
330
2F8
 75
0
 76
1
 98
1
 10
0.0
 20
0.0
  0
LWPOLYLINE
  5
2FA
100
AcDbEntity
  8
0
100
AcDbPolyline
 62
7
  6
CONTINUOUS
 90
25
 70
0
 10
536.2766863704
 20
31.8094314888
 10
536.5079364807
 20
31.841695792
 10
536.7391865909
 20
31.841695792
 10
536.9126240909
 20
31.8094314888
 10
537.0860615909
 20
31.7449043986
 10
537.2016864807
 20
31.6803773084
 10
537.2594990909
 20
31.6158502183
 10
537.3173113704
 20
31.4545317347
 10
537.3173113704
 20
30.8092578002
 10
537.0282489807
 20
30.8092578002
 10
537.0282489807
 20
31.4545317347
 10
536.9704363704
 20
31.583585915
 10
536.8548114807
 20
31.6481130052
 10
536.7391865909
 20
31.6803773084
 10
536.5079364807
 20
31.7126400953
 10
536.2766863704
 20
31.6803773084
 10
536.1032490358
 20
31.6158502183
 10
535.9876239807
 20
31.5513216117
 10
535.9876239807
 20
30.8092578002
 10
535.6985614255
 20
30.8092578002
 10
535.6985614255
 20
32.3256512429
 10
535.9876239807
 20
32.3256512429
 10
535.9876239807
 20
31.6803773084
 10
536.1032490358
 20
31.7449043986
 10
536.2766863704
 20
31.8094314888
  0
HATCH
  5
2FB
100
AcDbEntity
  8
0
100
AcDbHatch
 62
7
  6
CONTINUOUS
 10
0.0
 20
0.0
 30
0.0
210
0.0
220
0.0
230
1.0
  2
SOLID
 70
1
 71
1
 91
1
 92
1
 93
24
 72
1
 10
536.2766863704
 20
31.8094314888
 11
536.5079364807
 21
31.841695792
 72
1
 10
536.5079364807
 20
31.841695792
 11
536.7391865909
 21
31.841695792
 72
1
 10
536.7391865909
 20
31.841695792
 11
536.9126240909
 21
31.8094314888
 72
1
 10
536.9126240909
 20
31.8094314888
 11
537.0860615909
 21
31.7449043986
 72
1
 10
537.0860615909
 20
31.7449043986
 11
537.2016864807
 21
31.6803773084
 72
1
 10
537.2016864807
 20
31.6803773084
 11
537.2594990909
 21
31.6158502183
 72
1
 10
537.2594990909
 20
31.6158502183
 11
537.3173113704
 21
31.4545317347
 72
1
 10
537.3173113704
 20
31.4545317347
 11
537.3173113704
 21
30.8092578002
 72
1
 10
537.3173113704
 20
30.8092578002
 11
537.0282489807
 21
30.8092578002
 72
1
 10
537.0282489807
 20
30.8092578002
 11
537.0282489807
 21
31.4545317347
 72
1
 10
537.0282489807
 20
31.4545317347
 11
536.9704363704
 21
31.583585915
 72
1
 10
536.9704363704
 20
31.583585915
 11
536.8548114807
 21
31.6481130052
 72
1
 10
536.8548114807
 20
31.6481130052
 11
536.7391865909
 21
31.6803773084
 72
1
 10
536.7391865909
 20
31.6803773084
 11
536.5079364807
 21
31.7126400953
 72
1
 10
536.5079364807
 20
31.7126400953
 11
536.2766863704
 21
31.6803773084
 72
1
 10
536.2766863704
 20
31.6803773084
 11
536.1032490358
 21
31.6158502183
 72
1
 10
536.1032490358
 20
31.6158502183
 11
535.9876239807
 21
31.5513216117
 72
1
 10
535.9876239807
 20
31.5513216117
 11
535.9876239807
 21
30.8092578002
 72
1
 10
535.9876239807
 20
30.8092578002
 11
535.6985614255
 21
30.8092578002
 72
1
 10
535.6985614255
 20
30.8092578002
 11
535.6985614255
 21
32.3256512429
 72
1
 10
535.6985614255
 20
32.3256512429
 11
535.9876239807
 21
32.3256512429
 72
1
 10
535.9876239807
 20
32.3256512429
 11
535.9876239807
 21
31.6803773084
 72
1
 10
535.9876239807
 20
31.6803773084
 11
536.1032490358
 21
31.7449043986
 72
1
 10
536.1032490358
 20
31.7449043986
 11
536.2766863704
 21
31.8094314888
 97
1
330
2FA
 75
0
 76
1
 98
1
 10
0.0
 20
0.0
  0
LWPOLYLINE
  5
2FC
100
AcDbEntity
  8
0
100
AcDbPolyline
 62
7
  6
CONTINUOUS
 90
20
 70
0
 10
538.0688739807
 20
31.8094314888
 10
538.4735615909
 20
31.841695792
 10
538.8204365909
 20
31.841695792
 10
539.1673112601
 20
31.8094314888
 10
539.3407487601
 20
31.7449043986
 10
539.4563739807
 20
31.6803773084
 10
539.5141862601
 20
31.583585915
 10
539.5141862601
 20
31.0673661609
 10
539.2251242012
 20
31.1641579843
 10
539.2251242012
 20
31.3577403412
 10
539.2251242012
 20
31.4867945216
 10
539.2251242012
 20
31.583585915
 10
539.1673112601
 20
31.6481130052
 10
539.0516867012
 20
31.6803773084
 10
538.8204365909
 20
31.7126400953
 10
538.4735615909
 20
31.7126400953
 10
537.7798115909
 20
31.6481130052
 10
537.8376238704
 20
31.7126400953
 10
537.9532490909
 20
31.7771687019
 10
538.0688739807
 20
31.8094314888
  0
HATCH
  5
2FD
100
AcDbEntity
  8
0
100
AcDbHatch
 62
7
  6
CONTINUOUS
 10
0.0
 20
0.0
 30
0.0
210
0.0
220
0.0
230
1.0
  2
SOLID
 70
1
 71
1
 91
1
 92
1
 93
19
 72
1
 10
538.0688739807
 20
31.8094314888
 11
538.4735615909
 21
31.841695792
 72
1
 10
538.4735615909
 20
31.841695792
 11
538.8204365909
 21
31.841695792
 72
1
 10
538.8204365909
 20
31.841695792
 11
539.1673112601
 21
31.8094314888
 72
1
 10
539.1673112601
 20
31.8094314888
 11
539.3407487601
 21
31.7449043986
 72
1
 10
539.3407487601
 20
31.7449043986
 11
539.4563739807
 21
31.6803773084
 72
1
 10
539.4563739807
 20
31.6803773084
 11
539.5141862601
 21
31.583585915
 72
1
 10
539.5141862601
 20
31.583585915
 11
539.5141862601
 21
31.0673661609
 72
1
 10
539.5141862601
 20
31.0673661609
 11
539.2251242012
 21
31.1641579843
 72
1
 10
539.2251242012
 20
31.1641579843
 11
539.2251242012
 21
31.3577403412
 72
1
 10
539.2251242012
 20
31.3577403412
 11
539.2251242012
 21
31.4867945216
 72
1
 10
539.2251242012
 20
31.4867945216
 11
539.2251242012
 21
31.583585915
 72
1
 10
539.2251242012
 20
31.583585915
 11
539.1673112601
 21
31.6481130052
 72
1
 10
539.1673112601
 20
31.6481130052
 11
539.0516867012
 21
31.6803773084
 72
1
 10
539.0516867012
 20
31.6803773084
 11
538.8204365909
 21
31.7126400953
 72
1
 10
538.8204365909
 20
31.7126400953
 11
538.4735615909
 21
31.7126400953
 72
1
 10
538.4735615909
 20
31.7126400953
 11
537.7798115909
 21
31.6481130052
 72
1
 10
537.7798115909
 20
31.6481130052
 11
537.8376238704
 21
31.7126400953
 72
1
 10
537.8376238704
 20
31.7126400953
 11
537.9532490909
 21
31.7771687019
 72
1
 10
537.9532490909
 20
31.7771687019
 11
538.0688739807
 21
31.8094314888
 97
1
330
2FC
 75
0
 76
1
 98
1
 10
0.0
 20
0.0
  0
LWPOLYLINE
  5
2FE
100
AcDbEntity
  8
0
100
AcDbPolyline
 62
7
  6
CONTINUOUS
 90
25
 70
0
 10
541.4219987601
 20
31.8094314888
 10
541.6532492012
 20
31.841695792
 10
541.8844989807
 20
31.841695792
 10
542.0579364807
 20
31.8094314888
 10
542.2313739807
 20
31.7449043986
 10
542.3469992012
 20
31.6803773084
 10
542.4048114807
 20
31.583585915
 10
542.4626237601
 20
31.4222674314
 10
542.4626237601
 20
30.8092578002
 10
542.1735617012
 20
30.8092578002
 10
542.1735617012
 20
31.4222674314
 10
542.1157487601
 20
31.583585915
 10
542.0001242012
 20
31.6481130052
 10
541.8844989807
 20
31.6803773084
 10
541.6532492012
 20
31.7126400953
 10
541.4219987601
 20
31.6803773084
 10
541.2485612601
 20
31.6158502183
 10
541.1329367012
 20
31.5513216117
 10
541.1329367012
 20
30.8092578002
 10
540.8438739807
 20
30.8092578002
 10
540.8438739807
 20
31.841695792
 10
541.1329367012
 20
31.841695792
 10
541.1329367012
 20
31.6803773084
 10
541.2485612601
 20
31.7449043986
 10
541.4219987601
 20
31.8094314888
  0
HATCH
  5
2FF
100
AcDbEntity
  8
0
100
AcDbHatch
 62
7
  6
CONTINUOUS
 10
0.0
 20
0.0
 30
0.0
210
0.0
220
0.0
230
1.0
  2
SOLID
 70
1
 71
1
 91
1
 92
1
 93
24
 72
1
 10
541.4219987601
 20
31.8094314888
 11
541.6532492012
 21
31.841695792
 72
1
 10
541.6532492012
 20
31.841695792
 11
541.8844989807
 21
31.841695792
 72
1
 10
541.8844989807
 20
31.841695792
 11
542.0579364807
 21
31.8094314888
 72
1
 10
542.0579364807
 20
31.8094314888
 11
542.2313739807
 21
31.7449043986
 72
1
 10
542.2313739807
 20
31.7449043986
 11
542.3469992012
 21
31.6803773084
 72
1
 10
542.3469992012
 20
31.6803773084
 11
542.4048114807
 21
31.583585915
 72
1
 10
542.4048114807
 20
31.583585915
 11
542.4626237601
 21
31.4222674314
 72
1
 10
542.4626237601
 20
31.4222674314
 11
542.4626237601
 21
30.8092578002
 72
1
 10
542.4626237601
 20
30.8092578002
 11
542.1735617012
 21
30.8092578002
 72
1
 10
542.1735617012
 20
30.8092578002
 11
542.1735617012
 21
31.4222674314
 72
1
 10
542.1735617012
 20
31.4222674314
 11
542.1157487601
 21
31.583585915
 72
1
 10
542.1157487601
 20
31.583585915
 11
542.0001242012
 21
31.6481130052
 72
1
 10
542.0001242012
 20
31.6481130052
 11
541.8844989807
 21
31.6803773084
 72
1
 10
541.8844989807
 20
31.6803773084
 11
541.6532492012
 21
31.7126400953
 72
1
 10
541.6532492012
 20
31.7126400953
 11
541.4219987601
 21
31.6803773084
 72
1
 10
541.4219987601
 20
31.6803773084
 11
541.2485612601
 21
31.6158502183
 72
1
 10
541.2485612601
 20
31.6158502183
 11
541.1329367012
 21
31.5513216117
 72
1
 10
541.1329367012
 20
31.5513216117
 11
541.1329367012
 21
30.8092578002
 72
1
 10
541.1329367012
 20
30.8092578002
 11
540.8438739807
 21
30.8092578002
 72
1
 10
540.8438739807
 20
30.8092578002
 11
540.8438739807
 21
31.841695792
 72
1
 10
540.8438739807
 20
31.841695792
 11
541.1329367012
 21
31.841695792
 72
1
 10
541.1329367012
 20
31.841695792
 11
541.1329367012
 21
31.6803773084
 72
1
 10
541.1329367012
 20
31.6803773084
 11
541.2485612601
 21
31.7449043986
 72
1
 10
541.2485612601
 20
31.7449043986
 11
541.4219987601
 21
31.8094314888
 97
1
330
2FE
 75
0
 76
1
 98
1
 10
0.0
 20
0.0
  0
LWPOLYLINE
  5
300
100
AcDbEntity
  8
0
100
AcDbPolyline
 62
7
  6
CONTINUOUS
 90
6
 70
0
 10
543.2719989807
 20
31.8094314888
 10
543.6188739807
 20
31.841695792
 10
543.9657489807
 20
31.841695792
 10
544.3126239807
 20
31.8094314888
 10
543.0407492012
 20
31.7449043986
 10
543.2719989807
 20
31.8094314888
  0
HATCH
  5
301
100
AcDbEntity
  8
0
100
AcDbHatch
 62
7
  6
CONTINUOUS
 10
0.0
 20
0.0
 30
0.0
210
0.0
220
0.0
230
1.0
  2
SOLID
 70
1
 71
1
 91
1
 92
1
 93
5
 72
1
 10
543.2719989807
 20
31.8094314888
 11
543.6188739807
 21
31.841695792
 72
1
 10
543.6188739807
 20
31.841695792
 11
543.9657489807
 21
31.841695792
 72
1
 10
543.9657489807
 20
31.841695792
 11
544.3126239807
 21
31.8094314888
 72
1
 10
544.3126239807
 20
31.8094314888
 11
543.0407492012
 21
31.7449043986
 72
1
 10
543.0407492012
 20
31.7449043986
 11
543.2719989807
 21
31.8094314888
 97
1
330
300
 75
0
 76
1
 98
1
 10
0.0
 20
0.0
  0
LWPOLYLINE
  5
302
100
AcDbEntity
  8
0
100
AcDbPolyline
 62
7
  6
CONTINUOUS
 90
12
 70
0
 10
544.4860614807
 20
31.7771687019
 10
544.6594989807
 20
31.7126400953
 10
544.7751235396
 20
31.583585915
 10
544.4860614807
 20
31.583585915
 10
544.4282492012
 20
31.6481130052
 10
544.3126239807
 20
31.6803773084
 10
543.9657489807
 20
31.7126400953
 10
543.6188739807
 20
31.7126400953
 10
542.9251239807
 20
31.6481130052
 10
543.0407492012
 20
31.7449043986
 10
544.3126239807
 20
31.8094314888
 10
544.4860614807
 20
31.7771687019
  0
HATCH
  5
303
100
AcDbEntity
  8
0
100
AcDbHatch
 62
7
  6
CONTINUOUS
 10
0.0
 20
0.0
 30
0.0
210
0.0
220
0.0
230
1.0
  2
SOLID
 70
1
 71
1
 91
1
 92
1
 93
11
 72
1
 10
544.4860614807
 20
31.7771687019
 11
544.6594989807
 21
31.7126400953
 72
1
 10
544.6594989807
 20
31.7126400953
 11
544.7751235396
 21
31.583585915
 72
1
 10
544.7751235396
 20
31.583585915
 11
544.4860614807
 21
31.583585915
 72
1
 10
544.4860614807
 20
31.583585915
 11
544.4282492012
 21
31.6481130052
 72
1
 10
544.4282492012
 20
31.6481130052
 11
544.3126239807
 21
31.6803773084
 72
1
 10
544.3126239807
 20
31.6803773084
 11
543.9657489807
 21
31.7126400953
 72
1
 10
543.9657489807
 20
31.7126400953
 11
543.6188739807
 21
31.7126400953
 72
1
 10
543.6188739807
 20
31.7126400953
 11
542.9251239807
 21
31.6481130052
 72
1
 10
542.9251239807
 20
31.6481130052
 11
543.0407492012
 21
31.7449043986
 72
1
 10
543.0407492012
 20
31.7449043986
 11
544.3126239807
 21
31.8094314888
 72
1
 10
544.3126239807
 20
31.8094314888
 11
544.4860614807
 21
31.7771687019
 97
1
330
302
 75
0
 76
1
 98
1
 10
0.0
 20
0.0
  0
LWPOLYLINE
  5
304
100
AcDbEntity
  8
0
100
AcDbPolyline
 62
7
  6
CONTINUOUS
 90
7
 70
0
 10
534.0798114807
 20
31.6803773084
 10
533.9641864669
 20
31.6481130052
 10
533.4438739824
 20
31.5190588248
 10
533.5594989807
 20
31.6481130052
 10
533.6751239738
 20
31.7126400953
 10
534.3110615082
 20
31.7126400953
 10
534.0798114807
 20
31.6803773084
  0
HATCH
  5
305
100
AcDbEntity
  8
0
100
AcDbHatch
 62
7
  6
CONTINUOUS
 10
0.0
 20
0.0
 30
0.0
210
0.0
220
0.0
230
1.0
  2
SOLID
 70
1
 71
1
 91
1
 92
1
 93
6
 72
1
 10
534.0798114807
 20
31.6803773084
 11
533.9641864669
 21
31.6481130052
 72
1
 10
533.9641864669
 20
31.6481130052
 11
533.4438739824
 21
31.5190588248
 72
1
 10
533.4438739824
 20
31.5190588248
 11
533.5594989807
 21
31.6481130052
 72
1
 10
533.5594989807
 20
31.6481130052
 11
533.6751239738
 21
31.7126400953
 72
1
 10
533.6751239738
 20
31.7126400953
 11
534.3110615082
 21
31.7126400953
 72
1
 10
534.3110615082
 20
31.7126400953
 11
534.0798114807
 21
31.6803773084
 97
1
330
304
 75
0
 76
1
 98
1
 10
0.0
 20
0.0
  0
LWPOLYLINE
  5
306
100
AcDbEntity
  8
0
100
AcDbPolyline
 62
7
  6
CONTINUOUS
 90
7
 70
0
 10
538.2423114807
 20
31.6803773084
 10
538.1266865909
 20
31.6481130052
 10
538.0688739807
 20
31.583585915
 10
537.7798115909
 20
31.583585915
 10
537.7798115909
 20
31.6481130052
 10
538.4735615909
 20
31.7126400953
 10
538.2423114807
 20
31.6803773084
  0
HATCH
  5
307
100
AcDbEntity
  8
0
100
AcDbHatch
 62
7
  6
CONTINUOUS
 10
0.0
 20
0.0
 30
0.0
210
0.0
220
0.0
230
1.0
  2
SOLID
 70
1
 71
1
 91
1
 92
1
 93
6
 72
1
 10
538.2423114807
 20
31.6803773084
 11
538.1266865909
 21
31.6481130052
 72
1
 10
538.1266865909
 20
31.6481130052
 11
538.0688739807
 21
31.583585915
 72
1
 10
538.0688739807
 20
31.583585915
 11
537.7798115909
 21
31.583585915
 72
1
 10
537.7798115909
 20
31.583585915
 11
537.7798115909
 21
31.6481130052
 72
1
 10
537.7798115909
 20
31.6481130052
 11
538.4735615909
 21
31.7126400953
 72
1
 10
538.4735615909
 20
31.7126400953
 11
538.2423114807
 21
31.6803773084
 97
1
330
306
 75
0
 76
1
 98
1
 10
0.0
 20
0.0
  0
LWPOLYLINE
  5
308
100
AcDbEntity
  8
0
100
AcDbPolyline
 62
7
  6
CONTINUOUS
 90
8
 70
0
 10
543.3876242012
 20
31.6803773084
 10
543.2719989807
 20
31.6481130052
 10
543.2141867012
 20
31.583585915
 10
543.0407492012
 20
31.4545317347
 10
542.9251239807
 20
31.583585915
 10
542.9251239807
 20
31.6481130052
 10
543.6188739807
 20
31.7126400953
 10
543.3876242012
 20
31.6803773084
  0
HATCH
  5
309
100
AcDbEntity
  8
0
100
AcDbHatch
 62
7
  6
CONTINUOUS
 10
0.0
 20
0.0
 30
0.0
210
0.0
220
0.0
230
1.0
  2
SOLID
 70
1
 71
1
 91
1
 92
1
 93
7
 72
1
 10
543.3876242012
 20
31.6803773084
 11
543.2719989807
 21
31.6481130052
 72
1
 10
543.2719989807
 20
31.6481130052
 11
543.2141867012
 21
31.583585915
 72
1
 10
543.2141867012
 20
31.583585915
 11
543.0407492012
 21
31.4545317347
 72
1
 10
543.0407492012
 20
31.4545317347
 11
542.9251239807
 21
31.583585915
 72
1
 10
542.9251239807
 20
31.583585915
 11
542.9251239807
 21
31.6481130052
 72
1
 10
542.9251239807
 20
31.6481130052
 11
543.6188739807
 21
31.7126400953
 72
1
 10
543.6188739807
 20
31.7126400953
 11
543.3876242012
 21
31.6803773084
 97
1
330
308
 75
0
 76
1
 98
1
 10
0.0
 20
0.0
  0
LWPOLYLINE
  5
30A
100
AcDbEntity
  8
0
100
AcDbPolyline
 62
7
  6
CONTINUOUS
 90
6
 70
0
 10
533.7907489669
 20
31.5513216117
 10
533.7329364807
 20
31.4867945216
 10
533.3860614807
 20
31.325476038
 10
533.4438739824
 20
31.5190588248
 10
533.9641864669
 20
31.6481130052
 10
533.7907489669
 20
31.5513216117
  0
HATCH
  5
30B
100
AcDbEntity
  8
0
100
AcDbHatch
 62
7
  6
CONTINUOUS
 10
0.0
 20
0.0
 30
0.0
210
0.0
220
0.0
230
1.0
  2
SOLID
 70
1
 71
1
 91
1
 92
1
 93
5
 72
1
 10
533.7907489669
 20
31.5513216117
 11
533.7329364807
 21
31.4867945216
 72
1
 10
533.7329364807
 20
31.4867945216
 11
533.3860614807
 21
31.325476038
 72
1
 10
533.3860614807
 20
31.325476038
 11
533.4438739824
 21
31.5190588248
 72
1
 10
533.4438739824
 20
31.5190588248
 11
533.9641864669
 21
31.6481130052
 72
1
 10
533.9641864669
 20
31.6481130052
 11
533.7907489669
 21
31.5513216117
 97
1
330
30A
 75
0
 76
1
 98
1
 10
0.0
 20
0.0
  0
LWPOLYLINE
  5
30C
100
AcDbEntity
  8
0
100
AcDbPolyline
 62
7
  6
CONTINUOUS
 90
7
 70
0
 10
538.2423114807
 20
31.4545317347
 10
538.5891864807
 20
31.4867945216
 10
539.2251242012
 20
31.4867945216
 10
539.2251242012
 20
31.3577403412
 10
538.5891864807
 20
31.3577403412
 10
538.0110613704
 20
31.3900038345
 10
538.2423114807
 20
31.4545317347
  0
HATCH
  5
30D
100
AcDbEntity
  8
0
100
AcDbHatch
 62
7
  6
CONTINUOUS
 10
0.0
 20
0.0
 30
0.0
210
0.0
220
0.0
230
1.0
  2
SOLID
 70
1
 71
1
 91
1
 92
1
 93
6
 72
1
 10
538.2423114807
 20
31.4545317347
 11
538.5891864807
 21
31.4867945216
 72
1
 10
538.5891864807
 20
31.4867945216
 11
539.2251242012
 21
31.4867945216
 72
1
 10
539.2251242012
 20
31.4867945216
 11
539.2251242012
 21
31.3577403412
 72
1
 10
539.2251242012
 20
31.3577403412
 11
538.5891864807
 21
31.3577403412
 72
1
 10
538.5891864807
 20
31.3577403412
 11
538.0110613704
 21
31.3900038345
 72
1
 10
538.0110613704
 20
31.3900038345
 11
538.2423114807
 21
31.4545317347
 97
1
330
30C
 75
0
 76
1
 98
1
 10
0.0
 20
0.0
  0
LWPOLYLINE
  5
30E
100
AcDbEntity
  8
0
100
AcDbPolyline
 62
7
  6
CONTINUOUS
 90
24
 70
0
 10
543.2719989807
 20
31.5190588248
 10
543.4454364807
 20
31.4545317347
 10
544.4282492012
 20
31.2932132511
 10
544.6594989807
 20
31.1964218576
 10
544.7751235396
 20
31.0673661609
 10
544.7751235396
 20
31.0028390707
 10
544.6594989807
 20
30.9060491937
 10
544.4282492012
 20
30.8415205871
 10
544.0813742012
 20
30.8092578002
 10
543.7344992012
 20
30.8092578002
 10
543.3876242012
 20
30.8415205871
 10
543.2141867012
 20
30.8737848904
 10
543.0407492012
 20
30.9383119806
 10
543.7344992012
 20
30.9383119806
 10
544.0813742012
 20
30.9383119806
 10
544.3126239807
 20
30.9705762839
 10
544.4282492012
 20
31.0028390707
 10
544.4860614807
 20
31.0673661609
 10
544.4282492012
 20
31.1318947675
 10
544.2548117012
 20
31.1964218576
 10
543.2719989807
 20
31.3577403412
 10
543.0407492012
 20
31.4545317347
 10
543.2141867012
 20
31.583585915
 10
543.2719989807
 20
31.5190588248
  0
HATCH
  5
30F
100
AcDbEntity
  8
0
100
AcDbHatch
 62
7
  6
CONTINUOUS
 10
0.0
 20
0.0
 30
0.0
210
0.0
220
0.0
230
1.0
  2
SOLID
 70
1
 71
1
 91
1
 92
1
 93
23
 72
1
 10
543.2719989807
 20
31.5190588248
 11
543.4454364807
 21
31.4545317347
 72
1
 10
543.4454364807
 20
31.4545317347
 11
544.4282492012
 21
31.2932132511
 72
1
 10
544.4282492012
 20
31.2932132511
 11
544.6594989807
 21
31.1964218576
 72
1
 10
544.6594989807
 20
31.1964218576
 11
544.7751235396
 21
31.0673661609
 72
1
 10
544.7751235396
 20
31.0673661609
 11
544.7751235396
 21
31.0028390707
 72
1
 10
544.7751235396
 20
31.0028390707
 11
544.6594989807
 21
30.9060491937
 72
1
 10
544.6594989807
 20
30.9060491937
 11
544.4282492012
 21
30.8415205871
 72
1
 10
544.4282492012
 20
30.8415205871
 11
544.0813742012
 21
30.8092578002
 72
1
 10
544.0813742012
 20
30.8092578002
 11
543.7344992012
 21
30.8092578002
 72
1
 10
543.7344992012
 20
30.8092578002
 11
543.3876242012
 21
30.8415205871
 72
1
 10
543.3876242012
 20
30.8415205871
 11
543.2141867012
 21
30.8737848904
 72
1
 10
543.2141867012
 20
30.8737848904
 11
543.0407492012
 21
30.9383119806
 72
1
 10
543.0407492012
 20
30.9383119806
 11
543.7344992012
 21
30.9383119806
 72
1
 10
543.7344992012
 20
30.9383119806
 11
544.0813742012
 21
30.9383119806
 72
1
 10
544.0813742012
 20
30.9383119806
 11
544.3126239807
 21
30.9705762839
 72
1
 10
544.3126239807
 20
30.9705762839
 11
544.4282492012
 21
31.0028390707
 72
1
 10
544.4282492012
 20
31.0028390707
 11
544.4860614807
 21
31.0673661609
 72
1
 10
544.4860614807
 20
31.0673661609
 11
544.4282492012
 21
31.1318947675
 72
1
 10
544.4282492012
 20
31.1318947675
 11
544.2548117012
 21
31.1964218576
 72
1
 10
544.2548117012
 20
31.1964218576
 11
543.2719989807
 21
31.3577403412
 72
1
 10
543.2719989807
 20
31.3577403412
 11
543.0407492012
 21
31.4545317347
 72
1
 10
543.0407492012
 20
31.4545317347
 11
543.2141867012
 21
31.583585915
 72
1
 10
543.2141867012
 20
31.583585915
 11
543.2719989807
 21
31.5190588248
 97
1
330
30E
 75
0
 76
1
 98
1
 10
0.0
 20
0.0
  0
LWPOLYLINE
  5
310
100
AcDbEntity
  8
0
100
AcDbPolyline
 62
7
  6
CONTINUOUS
 90
12
 70
0
 10
533.6751239738
 20
31.3577403412
 10
533.6751239738
 20
31.2609490436
 10
533.7907489669
 20
31.0996304642
 10
533.9641864669
 20
31.0028390707
 10
534.3110615082
 20
30.9383119806
 10
533.8485614944
 20
30.8737848904
 10
533.6751239738
 20
30.9383119806
 10
533.5594989807
 20
31.0028390707
 10
533.4438739824
 20
31.1318947675
 10
533.3860614807
 20
31.325476038
 10
533.7329364807
 20
31.4867945216
 10
533.6751239738
 20
31.3577403412
  0
HATCH
  5
311
100
AcDbEntity
  8
0
100
AcDbHatch
 62
7
  6
CONTINUOUS
 10
0.0
 20
0.0
 30
0.0
210
0.0
220
0.0
230
1.0
  2
SOLID
 70
1
 71
1
 91
1
 92
1
 93
11
 72
1
 10
533.6751239738
 20
31.3577403412
 11
533.6751239738
 21
31.2609490436
 72
1
 10
533.6751239738
 20
31.2609490436
 11
533.7907489669
 21
31.0996304642
 72
1
 10
533.7907489669
 20
31.0996304642
 11
533.9641864669
 21
31.0028390707
 72
1
 10
533.9641864669
 20
31.0028390707
 11
534.3110615082
 21
30.9383119806
 72
1
 10
534.3110615082
 20
30.9383119806
 11
533.8485614944
 21
30.8737848904
 72
1
 10
533.8485614944
 20
30.8737848904
 11
533.6751239738
 21
30.9383119806
 72
1
 10
533.6751239738
 20
30.9383119806
 11
533.5594989807
 21
31.0028390707
 72
1
 10
533.5594989807
 20
31.0028390707
 11
533.4438739824
 21
31.1318947675
 72
1
 10
533.4438739824
 20
31.1318947675
 11
533.3860614807
 21
31.325476038
 72
1
 10
533.3860614807
 20
31.325476038
 11
533.7329364807
 21
31.4867945216
 72
1
 10
533.7329364807
 20
31.4867945216
 11
533.6751239738
 21
31.3577403412
 97
1
330
310
 75
0
 76
1
 98
1
 10
0.0
 20
0.0
  0
LWPOLYLINE
  5
312
100
AcDbEntity
  8
0
100
AcDbPolyline
 62
7
  6
CONTINUOUS
 90
6
 70
0
 10
537.8954364807
 20
31.325476038
 10
538.0110613704
 20
31.3900038345
 10
538.5891864807
 20
31.3577403412
 10
538.3579363704
 20
31.325476038
 10
537.7798115909
 20
31.1964218576
 10
537.8954364807
 20
31.325476038
  0
HATCH
  5
313
100
AcDbEntity
  8
0
100
AcDbHatch
 62
7
  6
CONTINUOUS
 10
0.0
 20
0.0
 30
0.0
210
0.0
220
0.0
230
1.0
  2
SOLID
 70
1
 71
1
 91
1
 92
1
 93
5
 72
1
 10
537.8954364807
 20
31.325476038
 11
538.0110613704
 21
31.3900038345
 72
1
 10
538.0110613704
 20
31.3900038345
 11
538.5891864807
 21
31.3577403412
 72
1
 10
538.5891864807
 20
31.3577403412
 11
538.3579363704
 21
31.325476038
 72
1
 10
538.3579363704
 20
31.325476038
 11
537.7798115909
 21
31.1964218576
 72
1
 10
537.7798115909
 20
31.1964218576
 11
537.8954364807
 21
31.325476038
 97
1
330
312
 75
0
 76
1
 98
1
 10
0.0
 20
0.0
  0
LWPOLYLINE
  5
314
100
AcDbEntity
  8
0
100
AcDbPolyline
 62
7
  6
CONTINUOUS
 90
9
 70
0
 10
538.1266865909
 20
31.2286853572
 10
538.0688739807
 20
31.1318947675
 10
538.0688739807
 20
31.0673661609
 10
537.8376238704
 20
30.9705762839
 10
537.7798115909
 20
31.0996304642
 10
537.7798115909
 20
31.1964218576
 10
538.3579363704
 20
31.325476038
 10
538.2423114807
 20
31.2932132511
 10
538.1266865909
 20
31.2286853572
  0
HATCH
  5
315
100
AcDbEntity
  8
0
100
AcDbHatch
 62
7
  6
CONTINUOUS
 10
0.0
 20
0.0
 30
0.0
210
0.0
220
0.0
230
1.0
  2
SOLID
 70
1
 71
1
 91
1
 92
1
 93
8
 72
1
 10
538.1266865909
 20
31.2286853572
 11
538.0688739807
 21
31.1318947675
 72
1
 10
538.0688739807
 20
31.1318947675
 11
538.0688739807
 21
31.0673661609
 72
1
 10
538.0688739807
 20
31.0673661609
 11
537.8376238704
 21
30.9705762839
 72
1
 10
537.8376238704
 20
30.9705762839
 11
537.7798115909
 21
31.0996304642
 72
1
 10
537.7798115909
 20
31.0996304642
 11
537.7798115909
 21
31.1964218576
 72
1
 10
537.7798115909
 20
31.1964218576
 11
538.3579363704
 21
31.325476038
 72
1
 10
538.3579363704
 20
31.325476038
 11
538.2423114807
 21
31.2932132511
 72
1
 10
538.2423114807
 20
31.2932132511
 11
538.1266865909
 21
31.2286853572
 97
1
330
314
 75
0
 76
1
 98
1
 10
0.0
 20
0.0
  0
LWPOLYLINE
  5
316
100
AcDbEntity
  8
0
100
AcDbPolyline
 62
7
  6
CONTINUOUS
 90
10
 70
0
 10
539.1673112601
 20
31.0996304642
 10
539.2251242012
 20
31.1641579843
 10
539.5141862601
 20
31.0673661609
 10
539.5719992012
 20
30.9060491937
 10
539.6298114807
 20
30.8092578002
 10
539.3407487601
 20
30.8092578002
 10
539.2829364807
 20
30.8737848904
 10
539.2251242012
 20
30.9705762839
 10
538.9938737601
 20
31.0028390707
 10
539.1673112601
 20
31.0996304642
  0
HATCH
  5
317
100
AcDbEntity
  8
0
100
AcDbHatch
 62
7
  6
CONTINUOUS
 10
0.0
 20
0.0
 30
0.0
210
0.0
220
0.0
230
1.0
  2
SOLID
 70
1
 71
1
 91
1
 92
1
 93
9
 72
1
 10
539.1673112601
 20
31.0996304642
 11
539.2251242012
 21
31.1641579843
 72
1
 10
539.2251242012
 20
31.1641579843
 11
539.5141862601
 21
31.0673661609
 72
1
 10
539.5141862601
 20
31.0673661609
 11
539.5719992012
 21
30.9060491937
 72
1
 10
539.5719992012
 20
30.9060491937
 11
539.6298114807
 21
30.8092578002
 72
1
 10
539.6298114807
 20
30.8092578002
 11
539.3407487601
 21
30.8092578002
 72
1
 10
539.3407487601
 20
30.8092578002
 11
539.2829364807
 21
30.8737848904
 72
1
 10
539.2829364807
 20
30.8737848904
 11
539.2251242012
 21
30.9705762839
 72
1
 10
539.2251242012
 20
30.9705762839
 11
538.9938737601
 21
31.0028390707
 72
1
 10
538.9938737601
 20
31.0028390707
 11
539.1673112601
 21
31.0996304642
 97
1
330
316
 75
0
 76
1
 98
1
 10
0.0
 20
0.0
  0
LWPOLYLINE
  5
318
100
AcDbEntity
  8
0
100
AcDbPolyline
 62
7
  6
CONTINUOUS
 90
12
 70
0
 10
534.8891865358
 20
31.035103216
 10
534.9469989807
 20
31.1318947675
 10
535.2360615358
 20
31.1318947675
 10
535.1782489255
 20
31.0028390707
 10
535.0048114255
 20
30.9060491937
 10
534.7735614807
 20
30.8415205871
 10
534.3688739531
 20
30.8092578002
 10
534.0219989944
 20
30.8415205871
 10
533.8485614944
 20
30.8737848904
 10
534.3110615082
 20
30.9383119806
 10
534.7157489531
 20
30.9705762839
 10
534.8891865358
 20
31.035103216
  0
HATCH
  5
319
100
AcDbEntity
  8
0
100
AcDbHatch
 62
7
  6
CONTINUOUS
 10
0.0
 20
0.0
 30
0.0
210
0.0
220
0.0
230
1.0
  2
SOLID
 70
1
 71
1
 91
1
 92
1
 93
11
 72
1
 10
534.8891865358
 20
31.035103216
 11
534.9469989807
 21
31.1318947675
 72
1
 10
534.9469989807
 20
31.1318947675
 11
535.2360615358
 21
31.1318947675
 72
1
 10
535.2360615358
 20
31.1318947675
 11
535.1782489255
 21
31.0028390707
 72
1
 10
535.1782489255
 20
31.0028390707
 11
535.0048114255
 21
30.9060491937
 72
1
 10
535.0048114255
 20
30.9060491937
 11
534.7735614807
 21
30.8415205871
 72
1
 10
534.7735614807
 20
30.8415205871
 11
534.3688739531
 21
30.8092578002
 72
1
 10
534.3688739531
 20
30.8092578002
 11
534.0219989944
 21
30.8415205871
 72
1
 10
534.0219989944
 20
30.8415205871
 11
533.8485614944
 21
30.8737848904
 72
1
 10
533.8485614944
 20
30.8737848904
 11
534.3110615082
 21
30.9383119806
 72
1
 10
534.3110615082
 20
30.9383119806
 11
534.7157489531
 21
30.9705762839
 72
1
 10
534.7157489531
 20
30.9705762839
 11
534.8891865358
 21
31.035103216
 97
1
330
318
 75
0
 76
1
 98
1
 10
0.0
 20
0.0
  0
LWPOLYLINE
  5
31A
100
AcDbEntity
  8
0
100
AcDbPolyline
 62
7
  6
CONTINUOUS
 90
6
 70
0
 10
538.1266865909
 20
31.0028390707
 10
538.3579363704
 20
30.9383119806
 10
538.0110613704
 20
30.8737848904
 10
537.8376238704
 20
30.9705762839
 10
538.0688739807
 20
31.0673661609
 10
538.1266865909
 20
31.0028390707
  0
HATCH
  5
31B
100
AcDbEntity
  8
0
100
AcDbHatch
 62
7
  6
CONTINUOUS
 10
0.0
 20
0.0
 30
0.0
210
0.0
220
0.0
230
1.0
  2
SOLID
 70
1
 71
1
 91
1
 92
1
 93
5
 72
1
 10
538.1266865909
 20
31.0028390707
 11
538.3579363704
 21
30.9383119806
 72
1
 10
538.3579363704
 20
30.9383119806
 11
538.0110613704
 21
30.8737848904
 72
1
 10
538.0110613704
 20
30.8737848904
 11
537.8376238704
 21
30.9705762839
 72
1
 10
537.8376238704
 20
30.9705762839
 11
538.0688739807
 21
31.0673661609
 72
1
 10
538.0688739807
 20
31.0673661609
 11
538.1266865909
 21
31.0028390707
 97
1
330
31A
 75
0
 76
1
 98
1
 10
0.0
 20
0.0
  0
LWPOLYLINE
  5
31C
100
AcDbEntity
  8
0
100
AcDbPolyline
 62
7
  6
CONTINUOUS
 90
11
 70
0
 10
538.7048113704
 20
30.9383119806
 10
538.9938737601
 20
31.0028390707
 10
539.2251242012
 20
30.9705762839
 10
539.1673112601
 20
30.9060491937
 10
538.9938737601
 20
30.8415205871
 10
538.7048113704
 20
30.8092578002
 10
538.3579363704
 20
30.8092578002
 10
538.1266865909
 20
30.8415205871
 10
538.0110613704
 20
30.8737848904
 10
538.3579363704
 20
30.9383119806
 10
538.7048113704
 20
30.9383119806
  0
HATCH
  5
31D
100
AcDbEntity
  8
0
100
AcDbHatch
 62
7
  6
CONTINUOUS
 10
0.0
 20
0.0
 30
0.0
210
0.0
220
0.0
230
1.0
  2
SOLID
 70
1
 71
1
 91
1
 92
1
 93
10
 72
1
 10
538.7048113704
 20
30.9383119806
 11
538.9938737601
 21
31.0028390707
 72
1
 10
538.9938737601
 20
31.0028390707
 11
539.2251242012
 21
30.9705762839
 72
1
 10
539.2251242012
 20
30.9705762839
 11
539.1673112601
 21
30.9060491937
 72
1
 10
539.1673112601
 20
30.9060491937
 11
538.9938737601
 21
30.8415205871
 72
1
 10
538.9938737601
 20
30.8415205871
 11
538.7048113704
 21
30.8092578002
 72
1
 10
538.7048113704
 20
30.8092578002
 11
538.3579363704
 21
30.8092578002
 72
1
 10
538.3579363704
 20
30.8092578002
 11
538.1266865909
 21
30.8415205871
 72
1
 10
538.1266865909
 20
30.8415205871
 11
538.0110613704
 21
30.8737848904
 72
1
 10
538.0110613704
 20
30.8737848904
 11
538.3579363704
 21
30.9383119806
 72
1
 10
538.3579363704
 20
30.9383119806
 11
538.7048113704
 21
30.9383119806
 97
1
330
31C
 75
0
 76
1
 98
1
 10
0.0
 20
0.0
  0
LWPOLYLINE
  5
31E
100
AcDbEntity
  8
0
100
AcDbPolyline
 62
7
  6
CONTINUOUS
 90
7
 70
0
 10
543.3876242012
 20
30.9705762839
 10
543.7344992012
 20
30.9383119806
 10
543.0407492012
 20
30.9383119806
 10
542.9251239807
 20
31.0673661609
 10
543.2141867012
 20
31.0673661609
 10
543.2719989807
 20
31.0028390707
 10
543.3876242012
 20
30.9705762839
  0
HATCH
  5
31F
100
AcDbEntity
  8
0
100
AcDbHatch
 62
7
  6
CONTINUOUS
 10
0.0
 20
0.0
 30
0.0
210
0.0
220
0.0
230
1.0
  2
SOLID
 70
1
 71
1
 91
1
 92
1
 93
6
 72
1
 10
543.3876242012
 20
30.9705762839
 11
543.7344992012
 21
30.9383119806
 72
1
 10
543.7344992012
 20
30.9383119806
 11
543.0407492012
 21
30.9383119806
 72
1
 10
543.0407492012
 20
30.9383119806
 11
542.9251239807
 21
31.0673661609
 72
1
 10
542.9251239807
 20
31.0673661609
 11
543.2141867012
 21
31.0673661609
 72
1
 10
543.2141867012
 20
31.0673661609
 11
543.2719989807
 21
31.0028390707
 72
1
 10
543.2719989807
 20
31.0028390707
 11
543.3876242012
 21
30.9705762839
 97
1
330
31E
 75
0
 76
1
 98
1
 10
0.0
 20
0.0
  0
SOLID
  5
320
100
AcDbEntity
  8
0
100
AcDbTrace
 62
7
  6
CONTINUOUS
 10
540.0923117012
 20
30.8092578002
 11
540.0923117012
 21
31.841695792
 12
540.3813737601
 22
30.8092578002
 13
540.3813737601
 23
31.841695792
  0
ENDBLK
  5
321
100
AcDbEntity
  8
0
  6
BYBLOCK
 62
0
100
AcDbBlockEnd
  0
BLOCK
  5
322
100
AcDbEntity
  8
0
100
AcDbBlockBegin
 62
2
  6
CONTINUOUS
  2
AMMEAAL_LOGO_BL0
 70
64
 10
416.1419631151
 20
19.7009994242
  3
AMMEAAL_LOGO_BL0
  1

  0
TEXT
  5
323
100
AcDbEntity
  8
0
100
AcDbText
 62
7
  6
CONTINUOUS
 10
402.4066669574
 20
19.0744135318
  7
TEXTSTYLE_3
 40
2.7338706658
  1
Ammeraal Beltech
 41
1.0
 51
15.0
 72
0
100
AcDbText
  0
TEXT
  5
324
100
AcDbEntity
  8
0
100
AcDbText
 62
7
  6
CONTINUOUS
 10
413.2074677831
 20
16.800876859
  7
TEXTSTYLE_4
 40
1.0935482663
  1
Innovation & Service in Belting
 41
1.0
 72
0
100
AcDbText
  0
LINE
  5
325
100
AcDbEntity
  8
0
100
AcDbLine
 62
7
  6
CONTINUOUS
 10
396.382126306
 20
19.8410068404
 11
397.1602782994
 21
23.5019241381
  0
LINE
  5
326
100
AcDbEntity
  8
0
100
AcDbLine
 62
7
  6
CONTINUOUS
 10
407.2554465892
 20
27.1653180497
 11
397.6480960424
 21
24.0437006284
  0
LINE
  5
327
100
AcDbEntity
  8
0
100
AcDbLine
 62
7
  6
CONTINUOUS
 10
396.6074096383
 20
19.1476560374
 11
404.1144848995
 21
12.3882551114
  0
LINE
  5
328
100
AcDbEntity
  8
0
100
AcDbLine
 62
7
  6
CONTINUOUS
 10
396.869944049
 20
20.3827833308
 11
407.6782134142
 21
23.8946029297
  0
LINE
  5
329
100
AcDbEntity
  8
0
100
AcDbLine
 62
7
  6
CONTINUOUS
 10
407.674008277
 20
13.544814366
 11
399.2285486083
 21
21.1491404077
  0
LINE
  5
32A
100
AcDbEntity
  8
0
100
AcDbLine
 62
7
  6
CONTINUOUS
 10
408.1938309968
 20
26.320392934
 11
407.2172714596
 21
21.7260415315
  0
LINE
  5
32B
100
AcDbEntity
  8
0
100
AcDbLine
 62
7
  6
CONTINUOUS
 10
406.5174695119
 20
18.4337322177
 11
405.8310213004
 21
15.2042472933
  0
LINE
  5
32C
100
AcDbEntity
  8
0
100
AcDbLine
 62
7
  6
CONTINUOUS
 10
408.8749270954
 20
13.9350165436
 11
409.831158631
 21
18.4337322177
  0
LINE
  5
32D
100
AcDbEntity
  8
0
100
AcDbLine
 62
7
  6
CONTINUOUS
 10
410.5309605787
 20
21.7260415315
 11
410.9752023811
 21
23.8160348909
  0
LINE
  5
32E
100
AcDbEntity
  8
0
100
AcDbLine
 62
7
  6
CONTINUOUS
 10
404.8275859748
 20
12.2366807987
 11
408.3871093524
 21
13.3932400533
  0
LINE
  5
32F
100
AcDbEntity
  8
0
100
AcDbLine
 62
7
  6
CONTINUOUS
 10
407.9685476645
 20
27.013743737
 11
410.7499190488
 21
24.5093856939
  0
ARC
  5
330
100
AcDbEntity
  8
0
100
AcDbCircle
 62
7
  6
CONTINUOUS
 10
397.8733793747
 20
23.3503498254
 40
0.7290321776
100
AcDbArc
 50
108.0
 51
168.0
  0
ARC
  5
331
100
AcDbEntity
  8
0
100
AcDbCircle
 62
7
  6
CONTINUOUS
 10
407.4807299215
 20
26.4719672466
 40
0.7290321776
100
AcDbArc
 50
348.0
 51
108.0
  0
ARC
  5
332
100
AcDbEntity
  8
0
100
AcDbCircle
 62
7
  6
CONTINUOUS
 10
410.2621013058
 20
23.9676092036
 40
0.7290321776
100
AcDbArc
 50
348.0
 51
48.0
  0
ARC
  5
333
100
AcDbEntity
  8
0
100
AcDbCircle
 62
7
  6
CONTINUOUS
 10
404.6023026425
 20
12.9300316018
 40
0.7290321776
100
AcDbArc
 50
228.0
 51
288.0
  0
ARC
  5
334
100
AcDbEntity
  8
0
100
AcDbCircle
 62
7
  6
CONTINUOUS
 10
397.0952273813
 20
19.6894325277
 40
0.7290321776
100
AcDbArc
 50
108.0
 51
228.0
  0
ARC
  5
335
100
AcDbEntity
  8
0
100
AcDbCircle
 62
7
  6
CONTINUOUS
 10
408.1618260201
 20
14.0865908563
 40
0.7290321776
100
AcDbArc
 50
228.0
 51
348.0
  0
ENDBLK
  5
336
100
AcDbEntity
  8
0
  6
BYBLOCK
 62
0
100
AcDbBlockEnd
  0
BLOCK
  5
337
100
AcDbEntity
  8
0
100
AcDbBlockBegin
  2
*T1
 70
1
 10
0.0
 20
0.0
  3
*T1
  1

  0
LINE
  5
338
100
AcDbEntity
  8
0
100
AcDbLine
 62
2
  6
CONTINUOUS
 10
0.0
 20
0.0
 11
190.0
 21
0.0
  0
LINE
  5
339
100
AcDbEntity
  8
0
100
AcDbLine
 62
2
  6
CONTINUOUS
 10
0.0
 20
0.0
 11
0.0
 21
-20.0
  0
LINE
  5
33A
100
AcDbEntity
  8
0
100
AcDbLine
 62
2
  6
CONTINUOUS
 10
0.0
 20
-20.0
 11
190.0
 21
-20.0
  0
LINE
  5
33B
100
AcDbEntity
  8
0
100
AcDbLine
 62
2
  6
CONTINUOUS
 10
85.0
 20
0.0
 11
85.0
 21
-20.0
  0
LINE
  5
33C
100
AcDbEntity
  8
0
100
AcDbLine
 62
2
  6
CONTINUOUS
 10
105.0
 20
0.0
 11
105.0
 21
-20.0
  0
LINE
  5
33D
100
AcDbEntity
  8
0
100
AcDbLine
 62
2
  6
CONTINUOUS
 10
190.0
 20
0.0
 11
190.0
 21
-20.0
  0
MTEXT
  5
33E
100
AcDbEntity
  8
0
100
AcDbMText
 62
5
  6
CONTINUOUS
  7
TEXTSTYLE_5
 71
1
 72
1
 10
3.0
 20
-5.177
 30
0.0
 11
1.0
 21
0.0
 31
0.0
 44
1.08
  3
                                                                     Ammeraal Beltech Modular A/S\P\H1.5;                                                                      Hjulmagervej 21, 7100 Vejle,  DK\P\H1.495;                                 
  1
                                     tel: \H1.51;+45 75723100     fax: +45 75723348\P\H1.5;                                                                      admin@unichains.dk  www.unichains.com
 40
1.52
 41
161.0496183206
  0
MTEXT
  5
33F
100
AcDbEntity
  8
0
100
AcDbMText
 62
5
  6
CONTINUOUS
  7
TEXTSTYLE_6
 71
2
 72
1
 10
95.0
 20
-11.25
 30
0.0
 11
1.0
 21
0.0
 31
0.0
 44
0.9
  1
1:1
 40
5.0
 41
21.0
  0
MTEXT
  5
340
100
AcDbEntity
  8
0
100
AcDbMText
 62
5
  6
CONTINUOUS
  7
TEXTSTYLE_7
 71
1
 72
1
 10
108.0
 20
-8.75
 30
0.0
 11
1.0
 21
0.0
 31
0.0
 44
0.9
  1
Sprocket Z08
 40
7.5
 41
120.5
  0
ENDBLK
  5
341
100
AcDbEntity
  8
0
  6
BYBLOCK
 62
0
100
AcDbBlockEnd
  0
ENDSEC
  0
SECTION
  2
ENTITIES
  0
MTEXT
  5
342
100
AcDbEntity
  8
0
100
AcDbMText
 62
5
  6
CONTINUOUS
  7
TEXTSTYLE_2
 71
1
 72
1
 10
480.0
 20
28.436
 30
0.0
 11
1.0
 21
0.0
 31
0.0
 44
0.9
  1
\Q0.000019;Scale :
 40
2.8
 41
11.76
  0
MTEXT
  5
343
100
AcDbEntity
  8
0
100
AcDbMText
 62
5
  6
CONTINUOUS
  7
TEXTSTYLE_2
 71
1
 72
1
 10
500.0
 20
28.436
 30
0.0
 11
1.0
 21
0.0
 31
0.0
 44
0.9
  1
\Q0.000019;Chain type:
 40
2.8
 41
18.48
  0
INSERT
  5
344
100
AcDbEntity
  8
0
100
AcDbBlockReference
 62
2
  6
CONTINUOUS
  2
AMMEAAL_LOGO_BL0
 10
416.1419631151
 20
19.7009994242
  0
INSERT
  5
345
100
AcDbEntity
  8
0
100
AcDbBlockReference
 62
2
  6
CONTINUOUS
  2
UNI_LOGO2_BL1
 10
557.4079930916
 20
35.8092573885
  0
ACAD_TABLE
  5
346
100
AcDbEntity
  8
0
 62
2
  6
CONTINUOUS
100
AcDbBlockReference
  2
*T1
 10
394.0
 20
30.0
 30
0.0
100
AcDbTable
342
       5E8
343
215
 11
1.0
 21
0.0
 31
0.0
 90
22
 91
1
 92
3
 93
0
 94
0
 95
0
 96
0
141
20.0
142
85.0
142
20.0
142
85.0
171
1
172
0
173
0
174
0
175
1
176
1
 91
57
178
0
145
0.0
  7
TEXTSTYLE_5
301
CELL_VALUE
 90
4
  2
                                                                     Ammeraal Beltech Modular A/S\P\H1.5;                                                                      Hjulmagervej 21, 7100 Vejle,  DK\P\H1.495;                                 
  1
                                     tel: \H1.51;+45 75723100     fax: +45 75723348\P\H1.5;                                                                      admin@unichains.dk  www.unichains.com
304
ACVALUE_END
170
4
140
1.52
 64
5
171
1
172
0
173
0
174
0
175
1
176
1
 91
57
178
0
145
0.0
  7
TEXTSTYLE_6
301
CELL_VALUE
 90
4
  1
1:1
304
ACVALUE_END
170
8
140
5.0
 64
5
171
1
172
0
173
0
174
0
175
1
176
1
 91
57
178
0
145
0.0
  7
TEXTSTYLE_7
301
CELL_VALUE
 90
4
  1
Sprocket Z08
304
ACVALUE_END
170
7
140
7.5
 64
5
  0
LINE
  5
347
100
AcDbEntity
  8
0
100
AcDbLine
 62
7
  6
CONTINUOUS
 10
-0.0
 20
-0.0
 11
-0.0
 21
420.0
  0
LINE
  5
348
100
AcDbEntity
  8
0
100
AcDbLine
 62
7
  6
CONTINUOUS
 10
10.0
 20
10.0
 11
10.0
 21
410.0
  0
LINE
  5
349
100
AcDbEntity
  8
0
100
AcDbLine
 62
7
  6
CONTINUOUS
 10
-0.0
 20
-0.0
 11
594.0
 21
-0.0
  0
LINE
  5
34A
100
AcDbEntity
  8
0
100
AcDbLine
 62
7
  6
CONTINUOUS
 10
10.0
 20
10.0
 11
584.0
 21
10.0
  0
LINE
  5
34B
100
AcDbEntity
  8
0
100
AcDbLine
 62
7
  6
CONTINUOUS
 10
394.0
 20
30.0
 11
584.0
 21
30.0
  0
LINE
  5
34C
100
AcDbEntity
  8
0
100
AcDbLine
 62
7
  6
CONTINUOUS
 10
179.0
 20
5.0
 11
179.0
 21
10.0
  0
LINE
  5
34D
100
AcDbEntity
  8
0
100
AcDbLine
 62
7
  6
CONTINUOUS
 10
179.0
 20
410.0
 11
179.0
 21
415.0
  0
LINE
  5
34E
100
AcDbEntity
  8
0
100
AcDbLine
 62
7
  6
CONTINUOUS
 10
384.0
 20
410.0
 11
384.0
 21
415.0
  0
LINE
  5
34F
100
AcDbEntity
  8
0
100
AcDbLine
 62
7
  6
CONTINUOUS
 10
5.0
 20
297.0
 11
10.0
 21
297.0
  0
LINE
  5
350
100
AcDbEntity
  8
0
100
AcDbLine
 62
7
  6
CONTINUOUS
 10
584.0
 20
297.0
 11
589.0
 21
297.0
  0
LINE
  5
351
100
AcDbEntity
  8
0
100
AcDbLine
 62
7
  6
CONTINUOUS
 10
10.0
 20
410.0
 11
584.0
 21
410.0
  0
LINE
  5
352
100
AcDbEntity
  8
0
100
AcDbLine
 62
7
  6
CONTINUOUS
 10
-0.0
 20
420.0
 11
594.0
 21
420.0
  0
LINE
  5
353
100
AcDbEntity
  8
0
100
AcDbLine
 62
7
  6
CONTINUOUS
 10
584.0
 20
10.0
 11
584.0
 21
410.0
  0
LINE
  5
354
100
AcDbEntity
  8
0
100
AcDbLine
 62
7
  6
CONTINUOUS
 10
594.0
 20
-0.0
 11
594.0
 21
420.0
  0
LINE
  5
355
100
AcDbEntity
  8
0
100
AcDbLine
 62
7
  6
CONTINUOUS
 10
143.891539434
 20
191.7166447398
 11
143.9306957952
 21
192.088868302
  0
LINE
  5
356
100
AcDbEntity
  8
0
100
AcDbLine
 62
7
  6
CONTINUOUS
 10
142.9968075457
 20
199.0460141655
 11
142.9329057068
 21
198.4445113863
  0
LINE
  5
357
100
AcDbEntity
  8
0
100
AcDbLine
 62
7
  6
CONTINUOUS
 10
143.4520674136
 20
198.0040239485
 11
143.5159692524
 21
198.6055267277
  0
LINE
  5
358
100
AcDbEntity
  8
0
100
AcDbLine
 62
7
  6
CONTINUOUS
 10
143.3208909123
 20
192.0880184966
 11
143.0999163662
 21
191.4364151805
  0
LINE
  5
359
100
AcDbEntity
  8
0
100
AcDbLine
 62
7
  6
CONTINUOUS
 10
143.6705648505
 20
191.065041448
 11
143.891539434
 21
191.7166447398
  0
LINE
  5
35A
100
AcDbEntity
  8
0
100
AcDbLine
 62
7
  6
CONTINUOUS
 10
143.2983279922
 20
199.6644821658
 11
142.9968075457
 21
199.0460141655
  0
LINE
  5
35B
100
AcDbEntity
  8
0
100
AcDbLine
 62
7
  6
CONTINUOUS
 10
143.5159692524
 20
198.6055267277
 11
143.817489699
 21
199.223994728
  0
LINE
  5
35C
100
AcDbEntity
  8
0
100
AcDbLine
 62
7
  6
CONTINUOUS
 10
140.3781057025
 20
195.9916912128
 11
139.9235596268
 21
195.2932410898
  0
LINE
  5
35D
100
AcDbEntity
  8
0
100
AcDbLine
 62
7
  6
CONTINUOUS
 10
138.1053757464
 20
192.4994412471
 11
137.6508297682
 21
191.8009912739
  0
LINE
  5
35E
100
AcDbEntity
  8
0
100
AcDbLine
 62
7
  6
CONTINUOUS
 10
143.0999163662
 20
191.4364151805
 11
142.7362795316
 21
190.877655122
  0
LINE
  5
35F
100
AcDbEntity
  8
0
100
AcDbLine
 62
7
  6
CONTINUOUS
 10
143.3069280159
 20
190.5062813895
 11
143.6705648505
 21
191.065041448
  0
LINE
  5
360
100
AcDbEntity
  8
0
100
AcDbLine
 62
7
  6
CONTINUOUS
 10
144.6705659831
 20
192.601631359
 11
145.1251120588
 21
193.300081482
  0
LINE
  5
361
100
AcDbEntity
  8
0
100
AcDbLine
 62
7
  6
CONTINUOUS
 10
167.3585897042
 20
217.4368862666
 11
167.733824837
 21
217.9113207829
  0
LINE
  5
362
100
AcDbEntity
  8
0
100
AcDbLine
 62
7
  6
CONTINUOUS
 10
143.7296388655
 20
200.1728283066
 11
143.2983279922
 21
199.6644821658
  0
LINE
  5
363
100
AcDbEntity
  8
0
100
AcDbLine
 62
7
  6
CONTINUOUS
 10
142.3278789902
 20
198.5207038942
 11
141.7887405528
 21
197.8852714
  0
LINE
  5
364
100
AcDbEntity
  8
0
100
AcDbLine
 62
7
  6
CONTINUOUS
 10
145.9420345704
 20
194.3613715892
 11
146.4811730077
 21
194.9968040834
  0
LINE
  5
365
100
AcDbEntity
  8
0
100
AcDbLine
 62
7
  6
CONTINUOUS
 10
148.4220710118
 20
197.2843606265
 11
148.9612091406
 21
197.9197927572
  0
LINE
  5
366
100
AcDbEntity
  8
0
100
AcDbLine
 62
7
  6
CONTINUOUS
 10
167.3201495946
 20
218.6735275748
 11
166.6777788511
 21
217.9369409064
  0
LINE
  5
367
100
AcDbEntity
  8
0
100
AcDbLine
 62
7
  6
CONTINUOUS
 10
171.520342603
 20
211.963277198
 11
172.1627096932
 21
212.6998627676
  0
LINE
  5
368
100
AcDbEntity
  8
0
100
AcDbLine
 62
7
  6
CONTINUOUS
 10
144.8545168456
 20
205.0936988107
 11
144.2653396294
 21
204.5043651849
  0
LINE
  5
369
100
AcDbEntity
  8
0
100
AcDbLine
 62
7
  6
CONTINUOUS
 10
144.8672124264
 20
203.9026521254
 11
145.4563896426
 21
204.4919857512
  0
LINE
  5
36A
100
AcDbEntity
  8
0
100
AcDbLine
 62
7
  6
CONTINUOUS
 10
146.6601355737
 20
203.288559295
 11
146.0709583575
 21
202.6992256692
  0
LINE
  5
36B
100
AcDbEntity
  8
0
100
AcDbLine
 62
7
  6
CONTINUOUS
 10
149.9229445952
 20
198.8482617513
 11
150.5121218114
 21
199.4375953771
  0
LINE
  5
36C
100
AcDbEntity
  8
0
100
AcDbLine
 62
7
  6
CONTINUOUS
 10
175.393894042
 20
219.5234891609
 11
175.8344350581
 21
219.9379926328
  0
LINE
  5
36D
100
AcDbEntity
  8
0
100
AcDbLine
 62
7
  6
CONTINUOUS
 10
142.8006291253
 20
190.0403648641
 11
143.3069280159
 21
190.5062813895
  0
LINE
  5
36E
100
AcDbEntity
  8
0
100
AcDbLine
 62
7
  6
CONTINUOUS
 10
175.5365873356
 20
220.7524706286
 11
174.7934712434
 21
220.1176697088
  0
LINE
  5
36F
100
AcDbEntity
  8
0
100
AcDbLine
 62
7
  6
CONTINUOUS
 10
178.7110406258
 20
213.5004414136
 11
179.454156711
 21
214.1352423776
  0
LINE
  5
370
100
AcDbEntity
  8
0
100
AcDbLine
 62
7
  6
CONTINUOUS
 10
143.817489699
 20
199.223994728
 11
144.3785909989
 21
199.6222190094
  0
LINE
  5
371
100
AcDbEntity
  8
0
100
AcDbLine
 62
7
  6
CONTINUOUS
 10
155.0946015987
 20
213.1459951223
 11
154.2529872176
 21
212.6059162081
  0
LINE
  5
372
100
AcDbEntity
  8
0
100
AcDbLine
 62
7
  6
CONTINUOUS
 10
158.573618531
 20
205.8730011593
 11
159.4152329121
 21
206.4130800735
  0
LINE
  5
373
100
AcDbEntity
  8
0
100
AcDbLine
 62
7
  6
CONTINUOUS
 10
144.1829122928
 20
200.443965871
 11
143.7296388655
 21
200.1728283066
  0
LINE
  5
374
100
AcDbEntity
  8
0
100
AcDbLine
 62
7
  6
CONTINUOUS
 10
142.7362795316
 20
190.877655122
 11
142.087318495
 21
190.504582046
  0
LINE
  5
375
100
AcDbEntity
  8
0
100
AcDbLine
 62
7
  6
CONTINUOUS
 10
167.733824837
 20
217.9113207829
 11
168.478054154
 21
218.3230777325
  0
LINE
  5
376
100
AcDbEntity
  8
0
100
AcDbLine
 62
7
  6
CONTINUOUS
 10
171.1066636894
 20
212.725482948
 11
170.3624380124
 21
212.3137271399
  0
LINE
  5
377
100
AcDbEntity
  8
0
100
AcDbLine
 62
7
  6
CONTINUOUS
 10
168.2234077204
 20
219.1351520293
 11
167.3201495946
 21
218.6735275748
  0
LINE
  5
378
100
AcDbEntity
  8
0
100
AcDbLine
 62
7
  6
CONTINUOUS
 10
170.6170844817
 20
211.5016527293
 11
171.520342603
 21
211.963277198
  0
LINE
  5
379
100
AcDbEntity
  8
0
100
AcDbLine
 62
7
  6
CONTINUOUS
 10
161.4698089603
 20
216.5710080671
 11
160.5725158496
 21
216.1295728243
  0
LINE
  5
37A
100
AcDbEntity
  8
0
100
AcDbLine
 62
7
  6
CONTINUOUS
 10
164.9940205452
 20
213.1830032144
 11
163.498532598
 21
212.4472780904
  0
LINE
  5
37B
100
AcDbEntity
  8
0
100
AcDbLine
 62
7
  6
CONTINUOUS
 10
162.6012394873
 20
212.0058428476
 11
160.0589101481
 21
210.755110221
  0
LINE
  5
37C
100
AcDbEntity
  8
0
100
AcDbLine
 62
7
  6
CONTINUOUS
 10
159.4628945782
 20
209.3237173183
 11
163.0520670208
 21
211.0894582895
  0
LINE
  5
37D
100
AcDbEntity
  8
0
100
AcDbLine
 62
7
  6
CONTINUOUS
 10
163.9493601315
 20
211.5308935323
 11
165.4448480787
 21
212.2666186563
  0
LINE
  5
37E
100
AcDbEntity
  8
0
100
AcDbLine
 62
7
  6
CONTINUOUS
 10
164.103997792
 20
208.9512279391
 11
165.0012909027
 21
209.3926631819
  0
LINE
  5
37F
100
AcDbEntity
  8
0
100
AcDbLine
 62
7
  6
CONTINUOUS
 10
144.3785909989
 20
199.6222190094
 11
144.7240365537
 21
199.7662698568
  0
LINE
  5
380
100
AcDbEntity
  8
0
100
AcDbLine
 62
7
  6
CONTINUOUS
 10
175.8344350581
 20
219.9379926328
 11
176.6308450778
 21
220.236565546
  0
LINE
  5
381
100
AcDbEntity
  8
0
100
AcDbLine
 62
7
  6
CONTINUOUS
 10
178.4131928869
 20
214.3149195124
 11
177.6167828672
 21
214.0163465992
  0
LINE
  5
382
100
AcDbEntity
  8
0
100
AcDbLine
 62
7
  6
CONTINUOUS
 10
176.4976102591
 20
221.0771355626
 11
175.5365873356
 21
220.7524706286
  0
LINE
  5
383
100
AcDbEntity
  8
0
100
AcDbLine
 62
7
  6
CONTINUOUS
 10
177.7500177047
 20
213.1757764649
 11
178.7110406258
 21
213.5004414136
  0
LINE
  5
384
100
AcDbEntity
  8
0
100
AcDbLine
 62
7
  6
CONTINUOUS
 10
201.5569351253
 20
218.1460703342
 11
202.1368604369
 21
218.3180475075
  0
LINE
  5
385
100
AcDbEntity
  8
0
100
AcDbLine
 62
7
  6
CONTINUOUS
 10
142.9329057068
 20
198.4445113863
 11
142.9768311236
 21
197.970094597
  0
LINE
  5
386
100
AcDbEntity
  8
0
100
AcDbLine
 62
7
  6
CONTINUOUS
 10
143.4959928303
 20
197.5296071592
 11
143.4520674136
 21
198.0040239485
  0
LINE
  5
387
100
AcDbEntity
  8
0
100
AcDbLine
 62
7
  6
CONTINUOUS
 10
143.3082942886
 20
192.6927753405
 11
143.3208909123
 21
192.0880184966
  0
LINE
  5
388
100
AcDbEntity
  8
0
100
AcDbLine
 62
7
  6
CONTINUOUS
 10
166.2391288944
 20
216.5506959421
 11
166.2328844485
 21
216.0135822627
  0
LINE
  5
389
100
AcDbEntity
  8
0
100
AcDbLine
 62
7
  6
CONTINUOUS
 10
154.2529872176
 20
212.6059162081
 11
154.0548710405
 21
211.0630628317
  0
LINE
  5
38A
100
AcDbEntity
  8
0
100
AcDbLine
 62
7
  6
CONTINUOUS
 10
154.7902978169
 20
209.9170344736
 11
154.9884137365
 21
211.4598882513
  0
LINE
  5
38B
100
AcDbEntity
  8
0
100
AcDbLine
 62
7
  6
CONTINUOUS
 10
166.353473005
 20
217.3000915308
 11
166.2391288944
 21
216.5506959421
  0
LINE
  5
38C
100
AcDbEntity
  8
0
100
AcDbLine
 62
7
  6
CONTINUOUS
 10
172.4870155215
 20
213.3367122001
 11
172.6013595964
 21
214.0861079026
  0
LINE
  5
38D
100
AcDbEntity
  8
0
100
AcDbLine
 62
7
  6
CONTINUOUS
 10
174.1569392386
 20
218.8104121785
 11
174.0722710684
 21
218.279978274
  0
LINE
  5
38E
100
AcDbEntity
  8
0
100
AcDbLine
 62
7
  6
CONTINUOUS
 10
160.5725158496
 20
216.1295728243
 11
159.0120670447
 21
210.2401018764
  0
LINE
  5
38F
100
AcDbEntity
  8
0
100
AcDbLine
 62
7
  6
CONTINUOUS
 10
160.0589101481
 20
210.755110221
 11
161.1736190873
 21
214.907727032
  0
LINE
  5
390
100
AcDbEntity
  8
0
100
AcDbLine
 62
7
  6
CONTINUOUS
 10
167.0280430522
 20
216.2629243529
 11
167.3585897042
 21
217.4368862666
  0
LINE
  5
391
100
AcDbEntity
  8
0
100
AcDbLine
 62
7
  6
CONTINUOUS
 10
171.8124492212
 20
214.3738801782
 11
171.4818988222
 21
213.1999174643
  0
LINE
  5
392
100
AcDbEntity
  8
0
100
AcDbLine
 62
7
  6
CONTINUOUS
 10
174.3795771911
 20
219.5350522335
 11
174.1569392386
 21
218.8104121785
  0
LINE
  5
393
100
AcDbEntity
  8
0
100
AcDbLine
 62
7
  6
CONTINUOUS
 10
179.868050754
 20
214.7178599117
 11
180.0906886879
 21
215.4425000844
  0
LINE
  5
394
100
AcDbEntity
  8
0
100
AcDbLine
 62
7
  6
CONTINUOUS
 10
174.8953280518
 20
218.4104371838
 11
175.393894042
 21
219.5234891609
  0
LINE
  5
395
100
AcDbEntity
  8
0
100
AcDbLine
 62
7
  6
CONTINUOUS
 10
179.3522999492
 20
215.8424746082
 11
178.853733903
 21
214.7294229844
  0
LINE
  5
396
100
AcDbEntity
  8
0
100
AcDbLine
 62
7
  6
CONTINUOUS
 10
166.6777788511
 20
217.9369409064
 11
166.353473005
 21
217.3000915308
  0
LINE
  5
397
100
AcDbEntity
  8
0
100
AcDbLine
 62
7
  6
CONTINUOUS
 10
172.1627096932
 20
212.6998627676
 11
172.4870155215
 21
213.3367122001
  0
LINE
  5
398
100
AcDbEntity
  8
0
100
AcDbLine
 62
7
  6
CONTINUOUS
 10
174.7934712434
 20
220.1176697088
 11
174.3795771911
 21
219.5350522335
  0
LINE
  5
399
100
AcDbEntity
  8
0
100
AcDbLine
 62
7
  6
CONTINUOUS
 10
179.454156711
 20
214.1352423776
 11
179.868050754
 21
214.7178599117
  0
LINE
  5
39A
100
AcDbEntity
  8
0
100
AcDbLine
 62
7
  6
CONTINUOUS
 10
200.1314224358
 20
218.065761302
 11
199.8171590454
 21
217.63013836
  0
LINE
  5
39B
100
AcDbEntity
  8
0
100
AcDbLine
 62
7
  6
CONTINUOUS
 10
171.4818988222
 20
213.1999174643
 11
171.1066636894
 21
212.725482948
  0
LINE
  5
39C
100
AcDbEntity
  8
0
100
AcDbLine
 62
7
  6
CONTINUOUS
 10
200.6562785672
 20
218.6127502493
 11
200.1314224358
 21
218.065761302
  0
LINE
  5
39D
100
AcDbEntity
  8
0
100
AcDbLine
 62
7
  6
CONTINUOUS
 10
203.3905734598
 20
211.8413164752
 11
203.9154296275
 21
212.3883055361
  0
LINE
  5
39E
100
AcDbEntity
  8
0
100
AcDbLine
 62
7
  6
CONTINUOUS
 10
178.853733903
 20
214.7294229844
 11
178.4131928869
 21
214.3149195124
  0
LINE
  5
39F
100
AcDbEntity
  8
0
100
AcDbLine
 62
7
  6
CONTINUOUS
 10
208.3562994577
 20
215.893972278
 11
207.6821715999
 21
215.2767449026
  0
LINE
  5
3A0
100
AcDbEntity
  8
0
100
AcDbLine
 62
7
  6
CONTINUOUS
 10
206.7071609022
 20
212.9111759865
 11
206.0330263001
 21
212.2939521858
  0
LINE
  5
3A1
100
AcDbEntity
  8
0
100
AcDbLine
 62
7
  6
CONTINUOUS
 10
200.6109076103
 20
217.3763433665
 11
201.5569351253
 21
218.1460703342
  0
LINE
  5
3A2
100
AcDbEntity
  8
0
100
AcDbLine
 62
7
  6
CONTINUOUS
 10
203.4359515748
 20
213.0777206938
 11
202.4899169017
 21
212.3079963903
  0
LINE
  5
3A3
100
AcDbEntity
  8
0
100
AcDbLine
 62
7
  6
CONTINUOUS
 10
211.9453976936
 20
211.8578357162
 11
212.5445565038
 21
212.3222488806
  0
LINE
  5
3A4
100
AcDbEntity
  8
0
100
AcDbLine
 62
7
  6
CONTINUOUS
 10
191.2065323338
 20
214.5557515565
 11
197.7041957669
 21
219.3914081788
  0
LINE
  5
3A5
100
AcDbEntity
  8
0
100
AcDbLine
 62
7
  6
CONTINUOUS
 10
196.9339376253
 20
219.857277512
 11
190.2716336772
 21
215.0475381129
  0
LINE
  5
3A6
100
AcDbEntity
  8
0
100
AcDbLine
 62
7
  6
CONTINUOUS
 10
208.4303014818
 20
214.9096786319
 11
208.9544848151
 21
215.2212818022
  0
LINE
  5
3A7
100
AcDbEntity
  8
0
100
AcDbLine
 62
7
  6
CONTINUOUS
 10
211.8713954594
 20
212.8421289342
 11
211.3472191856
 21
212.5305228314
  0
LINE
  5
3A8
100
AcDbEntity
  8
0
100
AcDbLine
 62
7
  6
CONTINUOUS
 10
201.2880426918
 20
218.9468542749
 11
200.6562785672
 21
218.6127502493
  0
LINE
  5
3A9
100
AcDbEntity
  8
0
100
AcDbLine
 62
7
  6
CONTINUOUS
 10
202.758809317
 20
211.5072123928
 11
203.3905734598
 21
211.8413164752
  0
LINE
  5
3AA
100
AcDbEntity
  8
0
100
AcDbLine
 62
7
  6
CONTINUOUS
 10
206.7811630314
 20
211.9268825545
 11
207.5299465532
 21
212.317883351
  0
LINE
  5
3AB
100
AcDbEntity
  8
0
100
AcDbLine
 62
7
  6
CONTINUOUS
 10
210.4465373845
 20
209.5596939098
 11
209.6977539153
 21
209.1686932204
  0
LINE
  5
3AC
100
AcDbEntity
  8
0
100
AcDbLine
 62
7
  6
CONTINUOUS
 10
142.2425772447
 20
189.8069816946
 11
142.8006291253
 21
190.0403648641
  0
LINE
  5
3AD
100
AcDbEntity
  8
0
100
AcDbLine
 62
7
  6
CONTINUOUS
 10
209.0301071874
 20
216.1321624382
 11
208.3562994577
 21
215.893972278
  0
LINE
  5
3AE
100
AcDbEntity
  8
0
100
AcDbLine
 62
7
  6
CONTINUOUS
 10
211.2715899639
 20
211.619645556
 11
211.9453976936
 21
211.8578357162
  0
LINE
  5
3AF
100
AcDbEntity
  8
0
100
AcDbLine
 62
7
  6
CONTINUOUS
 10
209.8467318102
 20
208.3372103711
 11
210.5205395662
 21
208.5754005848
  0
LINE
  5
3B0
100
AcDbEntity
  8
0
100
AcDbLine
 62
7
  6
CONTINUOUS
 10
202.4899169017
 20
212.3079963903
 11
201.9099915901
 21
212.136019217
  0
LINE
  5
3B1
100
AcDbEntity
  8
0
100
AcDbLine
 62
7
  6
CONTINUOUS
 10
290.2132805907
 20
153.8479594325
 11
283.6938174523
 21
152.7406980564
  0
LINE
  5
3B2
100
AcDbEntity
  8
0
100
AcDbLine
 62
7
  6
CONTINUOUS
 10
252.5344908301
 20
82.7719595226
 11
247.1415822075
 21
86.5989640899
  0
LINE
  5
3B3
100
AcDbEntity
  8
0
100
AcDbLine
 62
7
  6
CONTINUOUS
 10
108.3842462249
 20
225.3563000725
 11
104.5572416576
 21
230.7492086951
  0
LINE
  5
3B4
100
AcDbEntity
  8
0
100
AcDbLine
 62
7
  6
CONTINUOUS
 10
143.0621262152
 20
193.2506856099
 11
143.3082942886
 21
192.6927753405
  0
LINE
  5
3B5
100
AcDbEntity
  8
0
100
AcDbLine
 62
7
  6
CONTINUOUS
 10
143.9306957952
 20
192.088868302
 11
143.775436858
 21
192.7864684199
  0
LINE
  5
3B6
100
AcDbEntity
  8
0
100
AcDbLine
 62
7
  6
CONTINUOUS
 10
175.6332415676
 20
59.1565657533
 11
174.5259801914
 21
65.6760288917
  0
LINE
  5
3B7
100
AcDbEntity
  8
1_AXIS
100
AcDbLine
 62
2
  6
CONTINUOUS
 10
185.5775642395
 20
165.2772821045
 11
185.5775642395
 21
162.3072821045
  0
LINE
  5
3B8
100
AcDbEntity
  8
1_AXIS
100
AcDbLine
 62
2
  6
CENTER
 10
185.5775642395
 20
156.3672821045
 11
185.5775642395
 21
47.9922821045
  0
LINE
  5
3B9
100
AcDbEntity
  8
1_AXIS
100
AcDbLine
 62
2
  6
CENTER
 10
185.5775642395
 20
171.2172821045
 11
185.5775642395
 21
279.5922821045
  0
LINE
  5
3BA
100
AcDbEntity
  8
0
100
AcDbLine
 62
7
  6
CONTINUOUS
 10
174.8905969306
 20
217.3756611431
 11
174.8953280518
 21
218.4104371838
  0
LINE
  5
3BB
100
AcDbEntity
  8
0
100
AcDbLine
 62
7
  6
CONTINUOUS
 10
179.3570310332
 20
216.8772508844
 11
179.3522999492
 21
215.8424746082
  0
LINE
  5
3BC
100
AcDbEntity
  8
0
100
AcDbLine
 62
7
  6
CONTINUOUS
 10
172.6013595964
 20
214.0861079026
 11
172.607604185
 21
214.623221127
  0
LINE
  5
3BD
100
AcDbEntity
  8
0
100
AcDbLine
 62
7
  6
CONTINUOUS
 10
174.0722710684
 20
218.279978274
 11
174.0408929834
 21
217.4133162366
  0
LINE
  5
3BE
100
AcDbEntity
  8
0
100
AcDbLine
 62
7
  6
CONTINUOUS
 10
180.1753569327
 20
215.972933518
 11
180.2067349804
 21
216.8395957909
  0
LINE
  5
3BF
100
AcDbEntity
  8
0
100
AcDbLine
 62
7
  6
CONTINUOUS
 10
191.3039032937
 20
221.6050848076
 11
191.1715610518
 21
220.7643737986
  0
LINE
  5
3C0
100
AcDbEntity
  8
0
100
AcDbLine
 62
7
  6
CONTINUOUS
 10
190.2716336772
 20
215.0475381129
 11
190.0598860716
 21
213.7024003807
  0
LINE
  5
3C1
100
AcDbEntity
  8
0
100
AcDbLine
 62
7
  6
CONTINUOUS
 10
180.0906886879
 20
215.4425000844
 11
180.1753569327
 21
215.972933518
  0
LINE
  5
3C2
100
AcDbEntity
  8
0
100
AcDbLine
 62
7
  6
CONTINUOUS
 10
199.3992181741
 20
216.8702621676
 11
198.932668857
 21
215.4111204964
  0
LINE
  5
3C3
100
AcDbEntity
  8
0
100
AcDbLine
 62
7
  6
CONTINUOUS
 10
199.7782489679
 20
215.3194546788
 11
200.141120659
 21
216.4543426453
  0
LINE
  5
3C4
100
AcDbEntity
  8
0
100
AcDbLine
 62
7
  6
CONTINUOUS
 10
204.2686030228
 20
215.1346119321
 11
203.9057313317
 21
213.9997239657
  0
LINE
  5
3C5
100
AcDbEntity
  8
0
100
AcDbLine
 62
7
  6
CONTINUOUS
 10
204.6476410836
 20
213.5838021198
 11
205.1141904007
 21
215.042943791
  0
LINE
  5
3C6
100
AcDbEntity
  8
0
100
AcDbLine
 62
7
  6
CONTINUOUS
 10
206.0330263001
 20
212.2939521858
 11
205.8080992393
 21
211.835520919
  0
LINE
  5
3C7
100
AcDbEntity
  8
0
100
AcDbLine
 62
7
  6
CONTINUOUS
 10
207.6821715999
 20
215.2767449026
 11
207.457244539
 21
214.8183136358
  0
LINE
  5
3C8
100
AcDbEntity
  8
0
100
AcDbLine
 62
7
  6
CONTINUOUS
 10
206.5562359706
 20
211.4684512877
 11
206.7811630314
 21
211.9268825545
  0
LINE
  5
3C9
100
AcDbEntity
  8
0
100
AcDbLine
 62
7
  6
CONTINUOUS
 10
208.280350108
 20
214.6040577874
 11
208.4303014818
 21
214.9096786319
  0
LINE
  5
3CA
100
AcDbEntity
  8
0
100
AcDbLine
 62
7
  6
CONTINUOUS
 10
212.0213468333
 20
213.1477497787
 11
211.8713954594
 21
212.8421289342
  0
LINE
  5
3CB
100
AcDbEntity
  8
0
100
AcDbLine
 62
7
  6
CONTINUOUS
 10
210.6714644453
 20
210.0181251766
 11
210.4465373845
 21
209.5596939098
  0
LINE
  5
3CC
100
AcDbEntity
  8
0
100
AcDbLine
 62
7
  6
CONTINUOUS
 10
212.5445565038
 20
212.3222488806
 11
212.7694835647
 21
212.7806801475
  0
LINE
  5
3CD
100
AcDbEntity
  8
0
100
AcDbLine
 62
7
  6
CONTINUOUS
 10
211.1946672665
 20
209.1926276392
 11
211.4195943273
 21
209.651058906
  0
LINE
  5
3CE
100
AcDbEntity
  8
0
100
AcDbLine
 62
7
  6
CONTINUOUS
 10
200.141120659
 20
216.4543426453
 11
200.6109076103
 21
217.3763433665
  0
LINE
  5
3CF
100
AcDbEntity
  8
0
100
AcDbLine
 62
7
  6
CONTINUOUS
 10
203.9057313317
 20
213.9997239657
 11
203.4359515748
 21
213.0777206938
  0
LINE
  5
3D0
100
AcDbEntity
  8
0
100
AcDbLine
 62
7
  6
CONTINUOUS
 10
199.8171590454
 20
217.63013836
 11
199.3992181741
 21
216.8702621676
  0
LINE
  5
3D1
100
AcDbEntity
  8
0
100
AcDbLine
 62
7
  6
CONTINUOUS
 10
204.2296928727
 20
212.8239280238
 11
204.6476410836
 21
213.5838021198
  0
LINE
  5
3D2
100
AcDbEntity
  8
0
100
AcDbLine
 62
7
  6
CONTINUOUS
 10
203.9154296275
 20
212.3883055361
 11
204.2296928727
 21
212.8239280238
  0
LINE
  5
3D3
100
AcDbEntity
  8
0
100
AcDbLine
 62
7
  6
CONTINUOUS
 10
223.4970964283
 20
207.7879184243
 11
217.9598651331
 21
202.0139189799
  0
LINE
  5
3D4
100
AcDbEntity
  8
0
100
AcDbLine
 62
7
  6
CONTINUOUS
 10
218.6816150637
 20
201.321765068
 11
221.1556971668
 21
203.9016371968
  0
LINE
  5
3D5
100
AcDbEntity
  8
0
100
AcDbLine
 62
7
  6
CONTINUOUS
 10
221.8625776735
 20
204.638743421
 11
223.62977927
 21
206.4815093256
  0
LINE
  5
3D6
100
AcDbEntity
  8
0
100
AcDbLine
 62
7
  6
CONTINUOUS
 10
225.9301883052
 20
202.8604302287
 11
225.5767477218
 21
202.4918767725
  0
LINE
  5
3D7
100
AcDbEntity
  8
0
100
AcDbLine
 62
7
  6
CONTINUOUS
 10
210.5205395662
 20
208.5754005848
 11
211.1946672665
 21
209.1926276392
  0
LINE
  5
3D8
100
AcDbEntity
  8
0
100
AcDbLine
 62
7
  6
CONTINUOUS
 10
232.1092585328
 20
192.506333642
 11
231.062484518
 21
191.9372020909
  0
LINE
  5
3D9
100
AcDbEntity
  8
0
100
AcDbLine
 62
7
  6
CONTINUOUS
 10
232.2082348221
 20
191.6116035753
 11
232.507313112
 21
191.7742125899
  0
LINE
  5
3DA
100
AcDbEntity
  8
0
100
AcDbLine
 62
7
  6
CONTINUOUS
 10
230.642913476
 20
190.5708323517
 11
231.0915309109
 21
190.8147458736
  0
LINE
  5
3DB
100
AcDbEntity
  8
0
100
AcDbLine
 62
7
  6
CONTINUOUS
 10
233.0817965185
 20
187.1541540185
 11
232.6331790836
 21
186.9102404966
  0
LINE
  5
3DC
100
AcDbEntity
  8
0
100
AcDbLine
 62
7
  6
CONTINUOUS
 10
232.8816945179
 20
186.0968149372
 11
233.6293904522
 21
186.5033375876
  0
LINE
  5
3DD
100
AcDbEntity
  8
0
100
AcDbLine
 62
7
  6
CONTINUOUS
 10
225.5767477218
 20
202.4918767725
 11
225.1030176489
 21
202.2386808855
  0
LINE
  5
3DE
100
AcDbEntity
  8
0
100
AcDbLine
 62
7
  6
CONTINUOUS
 10
225.7069541617
 20
201.4236759362
 11
226.1806842346
 21
201.6768718232
  0
LINE
  5
3DF
100
AcDbEntity
  8
0
100
AcDbLine
 62
7
  6
CONTINUOUS
 10
233.2356420057
 20
192.9290436638
 11
232.1092585328
 21
192.506333642
  0
LINE
  5
3E0
100
AcDbEntity
  8
0
100
AcDbLine
 62
7
  6
CONTINUOUS
 10
232.507313112
 20
191.7742125899
 11
233.48415744
 21
192.1156181044
  0
LINE
  5
3E1
100
AcDbEntity
  8
0
100
AcDbLine
 62
7
  6
CONTINUOUS
 10
226.5980649734
 20
196.9483653363
 11
231.162332044
 21
198.5415812093
  0
LINE
  5
3E2
100
AcDbEntity
  8
0
100
AcDbLine
 62
7
  6
CONTINUOUS
 10
223.9269928594
 20
195.9600573313
 11
225.9555543969
 21
196.6681552492
  0
LINE
  5
3E3
100
AcDbEntity
  8
0
100
AcDbLine
 62
7
  6
CONTINUOUS
 10
231.2996344001
 20
199.4845326131
 11
223.3207503953
 21
196.7553372033
  0
LINE
  5
3E4
100
AcDbEntity
  8
1_AXIS
100
AcDbLine
 62
2
  6
CONTINUOUS
 10
187.0625642395
 20
163.7922821045
 11
184.0925642395
 21
163.7922821045
  0
LINE
  5
3E5
100
AcDbEntity
  8
1_AXIS
100
AcDbLine
 62
2
  6
CENTER
 10
178.1525642395
 20
163.7922821045
 11
69.7775642395
 21
163.7922821045
  0
LINE
  5
3E6
100
AcDbEntity
  8
1_AXIS
100
AcDbLine
 62
2
  6
CENTER
 10
193.0025642395
 20
163.7922821045
 11
301.3775642395
 21
163.7922821045
  0
LINE
  5
3E7
100
AcDbEntity
  8
0
100
AcDbLine
 62
7
  6
CONTINUOUS
 10
137.6508297682
 20
191.8009912739
 11
140.5040721395
 21
189.944122644
  0
LINE
  5
3E8
100
AcDbEntity
  8
0
100
AcDbLine
 62
7
  6
CONTINUOUS
 10
140.9586181177
 20
190.6425726171
 11
138.1053757464
 21
192.4994412471
  0
LINE
  5
3E9
100
AcDbEntity
  8
0
100
AcDbLine
 62
7
  6
CONTINUOUS
 10
139.9235596268
 20
195.2932410898
 11
143.0621262152
 21
193.2506856099
  0
LINE
  5
3EA
100
AcDbEntity
  8
0
100
AcDbLine
 62
7
  6
CONTINUOUS
 10
144.0873208252
 20
193.5777619679
 11
140.3781057025
 21
195.9916912128
  0
LINE
  5
3EB
100
AcDbEntity
  8
0
100
AcDbLine
 62
7
  6
CONTINUOUS
 10
141.7887405528
 20
197.8852714
 11
145.9420345704
 21
194.3613715892
  0
LINE
  5
3EC
100
AcDbEntity
  8
0
100
AcDbLine
 62
7
  6
CONTINUOUS
 10
146.4811730077
 20
194.9968040834
 11
143.4959928303
 21
197.5296071592
  0
LINE
  5
3ED
100
AcDbEntity
  8
0
100
AcDbLine
 62
7
  6
CONTINUOUS
 10
142.9768311236
 20
197.970094597
 11
142.3278789902
 21
198.5207038942
  0
LINE
  5
3EE
100
AcDbEntity
  8
0
100
AcDbLine
 62
7
  6
CONTINUOUS
 10
145.9560525412
 20
199.3766762645
 11
148.4220710118
 21
197.2843606265
  0
LINE
  5
3EF
100
AcDbEntity
  8
0
100
AcDbLine
 62
7
  6
CONTINUOUS
 10
148.9612091406
 20
197.9197927572
 11
146.49519067
 21
200.0121083951
  0
LINE
  5
3F0
100
AcDbEntity
  8
0
100
AcDbLine
 62
7
  6
CONTINUOUS
 10
144.2653396294
 20
204.5043651849
 11
144.8672124264
 21
203.9026521254
  0
LINE
  5
3F1
100
AcDbEntity
  8
0
100
AcDbLine
 62
7
  6
CONTINUOUS
 10
146.0709583575
 20
202.6992256692
 11
149.9229445952
 21
198.8482617513
  0
LINE
  5
3F2
100
AcDbEntity
  8
0
100
AcDbLine
 62
7
  6
CONTINUOUS
 10
150.5121218114
 20
199.4375953771
 11
146.6601355737
 21
203.288559295
  0
LINE
  5
3F3
100
AcDbEntity
  8
0
100
AcDbLine
 62
7
  6
CONTINUOUS
 10
145.4563896426
 20
204.4919857512
 11
144.8545168456
 21
205.0936988107
  0
LINE
  5
3F4
100
AcDbEntity
  8
0
100
AcDbLine
 62
7
  6
CONTINUOUS
 10
154.0548710405
 20
211.0630628317
 11
154.7902978169
 21
209.9170344736
  0
LINE
  5
3F5
100
AcDbEntity
  8
0
100
AcDbLine
 62
7
  6
CONTINUOUS
 10
154.9884137365
 20
211.4598882513
 11
158.573618531
 21
205.8730011593
  0
LINE
  5
3F6
100
AcDbEntity
  8
0
100
AcDbLine
 62
7
  6
CONTINUOUS
 10
159.4152329121
 20
206.4130800735
 11
155.0946015987
 21
213.1459951223
  0
LINE
  5
3F7
100
AcDbEntity
  8
0
100
AcDbLine
 62
7
  6
CONTINUOUS
 10
159.0120670447
 20
210.2401018764
 11
159.4628945782
 21
209.3237173183
  0
LINE
  5
3F8
100
AcDbEntity
  8
0
100
AcDbLine
 62
7
  6
CONTINUOUS
 10
161.1736190873
 20
214.907727032
 11
162.6012394873
 21
212.0058428476
  0
LINE
  5
3F9
100
AcDbEntity
  8
0
100
AcDbLine
 62
7
  6
CONTINUOUS
 10
163.0520670208
 20
211.0894582895
 11
164.103997792
 21
208.9512279391
  0
LINE
  5
3FA
100
AcDbEntity
  8
0
100
AcDbLine
 62
7
  6
CONTINUOUS
 10
165.0012909027
 20
209.3926631819
 11
163.9493601315
 21
211.5308935323
  0
LINE
  5
3FB
100
AcDbEntity
  8
0
100
AcDbLine
 62
7
  6
CONTINUOUS
 10
163.498532598
 20
212.4472780904
 11
161.4698089603
 21
216.5710080671
  0
LINE
  5
3FC
100
AcDbEntity
  8
0
100
AcDbLine
 62
7
  6
CONTINUOUS
 10
166.3285020733
 20
215.1516404609
 11
166.7868656538
 21
213.6899067267
  0
LINE
  5
3FD
100
AcDbEntity
  8
0
100
AcDbLine
 62
7
  6
CONTINUOUS
 10
167.5310913308
 20
214.1016625349
 11
167.1745863238
 21
215.2385665504
  0
LINE
  5
3FE
100
AcDbEntity
  8
0
100
AcDbLine
 62
7
  6
CONTINUOUS
 10
171.3093972313
 20
216.5351410823
 11
171.6659022383
 21
215.3982370668
  0
LINE
  5
3FF
100
AcDbEntity
  8
0
100
AcDbLine
 62
7
  6
CONTINUOUS
 10
172.5119901288
 20
215.4851642976
 11
172.0536265483
 21
216.9468980319
  0
LINE
  5
400
100
AcDbEntity
  8
0
100
AcDbLine
 62
7
  6
CONTINUOUS
 10
174.0408929834
 20
217.4133162366
 11
174.2807156571
 21
215.9002902067
  0
LINE
  5
401
100
AcDbEntity
  8
0
100
AcDbLine
 62
7
  6
CONTINUOUS
 10
175.0771256768
 20
216.1988631199
 11
174.8905969306
 21
217.3756611431
  0
LINE
  5
402
100
AcDbEntity
  8
0
100
AcDbLine
 62
7
  6
CONTINUOUS
 10
179.1705022869
 20
218.0540489076
 11
179.3570310332
 21
216.8772508844
  0
LINE
  5
403
100
AcDbEntity
  8
0
100
AcDbLine
 62
7
  6
CONTINUOUS
 10
180.2067349804
 20
216.8395957909
 11
179.9669123066
 21
218.3526218207
  0
LINE
  5
404
100
AcDbEntity
  8
0
100
AcDbLine
 62
7
  6
CONTINUOUS
 10
167.1745863238
 20
215.2385665504
 11
167.0280430522
 21
216.2629243529
  0
LINE
  5
405
100
AcDbEntity
  8
0
100
AcDbLine
 62
7
  6
CONTINUOUS
 10
171.6659022383
 20
215.3982370668
 11
171.8124492212
 21
214.3738801782
  0
LINE
  5
406
100
AcDbEntity
  8
0
100
AcDbLine
 62
7
  6
CONTINUOUS
 10
166.2328844485
 20
216.0135822627
 11
166.3285020733
 21
215.1516404609
  0
LINE
  5
407
100
AcDbEntity
  8
0
100
AcDbLine
 62
7
  6
CONTINUOUS
 10
172.607604185
 20
214.623221127
 11
172.5119901288
 21
215.4851642976
  0
LINE
  5
408
100
AcDbEntity
  8
0
100
AcDbLine
 62
7
  6
CONTINUOUS
 10
198.8322215255
 20
214.5497279383
 11
198.8354518926
 21
214.012589312
  0
LINE
  5
409
100
AcDbEntity
  8
0
100
AcDbLine
 62
7
  6
CONTINUOUS
 10
205.2146303926
 20
215.9043384456
 11
205.2114001707
 21
216.4414775261
  0
LINE
  5
40A
100
AcDbEntity
  8
0
100
AcDbLine
 62
7
  6
CONTINUOUS
 10
207.457244539
 20
214.8183136358
 11
207.4565910043
 21
214.0602467827
  0
LINE
  5
40B
100
AcDbEntity
  8
0
100
AcDbLine
 62
7
  6
CONTINUOUS
 10
205.8080992393
 20
211.835520919
 11
205.7324768145
 21
210.9246401759
  0
LINE
  5
40C
100
AcDbEntity
  8
0
100
AcDbLine
 62
7
  6
CONTINUOUS
 10
211.4195943273
 20
209.651058906
 11
211.495223654
 21
210.5619363954
  0
LINE
  5
40D
100
AcDbEntity
  8
0
100
AcDbLine
 62
7
  6
CONTINUOUS
 10
212.7694835647
 20
212.7806801475
 11
212.845106147
 21
213.6915612115
  0
LINE
  5
40E
100
AcDbEntity
  8
0
100
AcDbLine
 62
7
  6
CONTINUOUS
 10
198.932668857
 20
215.4111204964
 11
198.8322215255
 21
214.5497279383
  0
LINE
  5
40F
100
AcDbEntity
  8
0
100
AcDbLine
 62
7
  6
CONTINUOUS
 10
205.1141904007
 20
215.042943791
 11
205.2146303926
 21
215.9043384456
  0
LINE
  5
410
100
AcDbEntity
  8
0
100
AcDbLine
 62
7
  6
CONTINUOUS
 10
199.6259700904
 20
214.2959329448
 11
199.7782489679
 21
215.3194546788
  0
LINE
  5
411
100
AcDbEntity
  8
0
100
AcDbLine
 62
7
  6
CONTINUOUS
 10
204.4208890947
 20
216.1581311155
 11
204.2686030228
 21
215.1346119321
  0
LINE
  5
412
100
AcDbEntity
  8
0
100
AcDbLine
 62
7
  6
CONTINUOUS
 10
196.6454576835
 20
212.6657191645
 11
196.8042683923
 21
213.6745724931
  0
LINE
  5
413
100
AcDbEntity
  8
0
100
AcDbLine
 62
7
  6
CONTINUOUS
 10
197.7041957669
 20
219.3914081788
 11
197.8894749056
 21
220.5684035914
  0
LINE
  5
414
100
AcDbEntity
  8
0
100
AcDbLine
 62
7
  6
CONTINUOUS
 10
226.1633387389
 20
203.3443405659
 11
225.9301883052
 21
202.8604302287
  0
LINE
  5
415
100
AcDbEntity
  8
0
100
AcDbLine
 62
7
  6
CONTINUOUS
 10
226.6519382357
 20
202.1682763168
 11
226.8850886694
 21
202.652186654
  0
LINE
  5
416
100
AcDbEntity
  8
0
100
AcDbLine
 62
7
  6
CONTINUOUS
 10
227.3623652807
 20
191.4534734126
 11
232.1079592273
 21
198.4241574279
  0
LINE
  5
417
100
AcDbEntity
  8
0
100
AcDbLine
 62
7
  6
CONTINUOUS
 10
227.9763641522
 20
194.0172203201
 11
226.7561228166
 21
192.2487532846
  0
LINE
  5
418
100
AcDbEntity
  8
0
100
AcDbLine
 62
7
  6
CONTINUOUS
 10
231.162332044
 20
198.5415812093
 11
228.4167923656
 21
194.5625257204
  0
LINE
  5
419
100
AcDbEntity
  8
0
100
AcDbLine
 62
7
  6
CONTINUOUS
 10
230.0953197518
 20
191.2216488965
 11
229.5068464828
 21
190.5222765417
  0
LINE
  5
41A
100
AcDbEntity
  8
0
100
AcDbLine
 62
7
  6
CONTINUOUS
 10
233.6293904522
 20
186.5033375876
 11
234.2178636165
 21
187.2027098855
  0
LINE
  5
41B
100
AcDbEntity
  8
0
100
AcDbLine
 62
7
  6
CONTINUOUS
 10
230.2739054992
 20
190.1804973005
 11
230.642913476
 21
190.5708323517
  0
LINE
  5
41C
100
AcDbEntity
  8
0
100
AcDbLine
 62
7
  6
CONTINUOUS
 10
233.4508047048
 20
187.5444891837
 11
233.0817965185
 21
187.1541540185
  0
LINE
  5
41D
100
AcDbEntity
  8
0
100
AcDbLine
 62
7
  6
CONTINUOUS
 10
236.1618729201
 20
188.2596687083
 11
236.5308808969
 21
188.6500037595
  0
LINE
  5
41E
100
AcDbEntity
  8
0
100
AcDbLine
 62
7
  6
CONTINUOUS
 10
226.1806842346
 20
201.6768718232
 11
226.6519382357
 21
202.1682763168
  0
LINE
  5
41F
100
AcDbEntity
  8
0
100
AcDbLine
 62
7
  6
CONTINUOUS
 10
231.062484518
 20
191.9372020909
 11
230.0953197518
 21
191.2216488965
  0
LINE
  5
420
100
AcDbEntity
  8
0
100
AcDbLine
 62
7
  6
CONTINUOUS
 10
232.6331790836
 20
186.9102404966
 11
232.1049521906
 21
186.812748504
  0
LINE
  5
421
100
AcDbEntity
  8
0
100
AcDbLine
 62
7
  6
CONTINUOUS
 10
231.0915309109
 20
190.8147458736
 11
231.6197580135
 21
190.9122379801
  0
LINE
  5
422
100
AcDbEntity
  8
0
100
AcDbLine
 62
7
  6
CONTINUOUS
 10
233.48415744
 20
192.1156181044
 11
234.0123847519
 21
192.2131103248
  0
LINE
  5
423
100
AcDbEntity
  8
0
100
AcDbLine
 62
7
  6
CONTINUOUS
 10
231.9747761277
 20
185.9831421051
 11
232.8816945179
 21
186.0968149372
  0
LINE
  5
424
100
AcDbEntity
  8
0
100
AcDbLine
 62
7
  6
CONTINUOUS
 10
234.14256071
 20
193.0427166667
 11
233.2356420057
 21
192.9290436638
  0
LINE
  5
425
100
AcDbEntity
  8
0
100
AcDbLine
 62
7
  6
CONTINUOUS
 10
141.1656298742
 20
189.7124388811
 11
141.5418632918
 21
189.6664420332
  0
LINE
  5
426
100
AcDbEntity
  8
0
100
AcDbLine
 62
7
  6
CONTINUOUS
 10
145.1251120588
 20
193.300081482
 11
144.7488784455
 21
193.3460780839
  0
LINE
  5
427
100
AcDbEntity
  8
0
100
AcDbLine
 62
7
  6
CONTINUOUS
 10
143.775436858
 20
192.7864684199
 11
144.6705659831
 21
192.601631359
  0
LINE
  5
428
100
AcDbEntity
  8
0
100
AcDbLine
 62
7
  6
CONTINUOUS
 10
141.477513652
 20
190.5037323568
 11
140.9586181177
 21
190.6425726171
  0
LINE
  5
429
100
AcDbEntity
  8
0
100
AcDbLine
 62
7
  6
CONTINUOUS
 10
140.5040721395
 20
189.944122644
 11
141.1656298742
 21
189.7124388811
  0
LINE
  5
42A
100
AcDbEntity
  8
0
100
AcDbLine
 62
7
  6
CONTINUOUS
 10
144.7488784455
 20
193.3460780839
 11
144.0873208252
 21
193.5777619679
  0
LINE
  5
42B
100
AcDbEntity
  8
0
100
AcDbLine
 62
7
  6
CONTINUOUS
 10
145.738411281
 20
200.4356317026
 11
145.2412121284
 21
200.6389105639
  0
LINE
  5
42C
100
AcDbEntity
  8
0
100
AcDbLine
 62
7
  6
CONTINUOUS
 10
145.1992725352
 20
199.8001988447
 11
145.9560525412
 21
199.3766762645
  0
LINE
  5
42D
100
AcDbEntity
  8
0
100
AcDbLine
 62
7
  6
CONTINUOUS
 10
146.49519067
 20
200.0121083951
 11
145.738411281
 21
200.4356317026
  0
LINE
  5
42E
100
AcDbEntity
  8
0
100
AcDbLine
 62
7
  6
CONTINUOUS
 10
167.5123612764
 20
212.4903237756
 11
168.0341397165
 21
211.9404003756
  0
LINE
  5
42F
100
AcDbEntity
  8
0
100
AcDbLine
 62
7
  6
CONTINUOUS
 10
167.2005409675
 20
212.9276997073
 11
167.5123612764
 21
212.4903237756
  0
LINE
  5
430
100
AcDbEntity
  8
0
100
AcDbLine
 62
7
  6
CONTINUOUS
 10
171.6399476659
 20
217.7091036824
 11
171.3281272144
 21
218.1464800691
  0
LINE
  5
431
100
AcDbEntity
  8
0
100
AcDbLine
 62
7
  6
CONTINUOUS
 10
174.8231134443
 20
214.6075613892
 11
175.2589271255
 21
213.9872892999
  0
LINE
  5
432
100
AcDbEntity
  8
0
100
AcDbLine
 62
7
  6
CONTINUOUS
 10
166.7868656538
 20
213.6899067267
 11
167.2005409675
 21
212.9276997073
  0
LINE
  5
433
100
AcDbEntity
  8
0
100
AcDbLine
 62
7
  6
CONTINUOUS
 10
172.0536265483
 20
216.9468980319
 11
171.6399476659
 21
217.7091036824
  0
LINE
  5
434
100
AcDbEntity
  8
0
100
AcDbLine
 62
7
  6
CONTINUOUS
 10
174.578563417
 20
215.0858119755
 11
174.8231134443
 21
214.6075613892
  0
LINE
  5
435
100
AcDbEntity
  8
0
100
AcDbLine
 62
7
  6
CONTINUOUS
 10
179.6690645841
 20
219.1670998165
 11
179.4245144821
 21
219.6453508737
  0
LINE
  5
436
100
AcDbEntity
  8
0
100
AcDbLine
 62
7
  6
CONTINUOUS
 10
167.9956995712
 20
213.1770417975
 11
167.5310913308
 21
214.1016625349
  0
LINE
  5
437
100
AcDbEntity
  8
0
100
AcDbLine
 62
7
  6
CONTINUOUS
 10
170.8447927022
 20
217.4597627335
 11
171.3093972313
 21
216.5351410823
  0
LINE
  5
438
100
AcDbEntity
  8
0
100
AcDbLine
 62
7
  6
CONTINUOUS
 10
165.4448480787
 20
212.2666186563
 11
164.9940205452
 21
213.1830032144
  0
LINE
  5
439
100
AcDbEntity
  8
0
100
AcDbLine
 62
7
  6
CONTINUOUS
 10
174.2807156571
 20
215.9002902067
 11
174.578563417
 21
215.0858119755
  0
LINE
  5
43A
100
AcDbEntity
  8
0
100
AcDbLine
 62
7
  6
CONTINUOUS
 10
179.9669123066
 20
218.3526218207
 11
179.6690645841
 21
219.1670998165
  0
LINE
  5
43B
100
AcDbEntity
  8
0
100
AcDbLine
 62
7
  6
CONTINUOUS
 10
175.4016204004
 20
215.2162708854
 11
175.0771256768
 21
216.1988631199
  0
LINE
  5
43C
100
AcDbEntity
  8
0
100
AcDbLine
 62
7
  6
CONTINUOUS
 10
178.8460076007
 20
219.0366409066
 11
179.1705022869
 21
218.0540489076
  0
LINE
  5
43D
100
AcDbEntity
  8
0
100
AcDbLine
 62
7
  6
CONTINUOUS
 10
198.8354518926
 20
214.012589312
 11
198.9455974836
 21
213.2625633269
  0
LINE
  5
43E
100
AcDbEntity
  8
0
100
AcDbLine
 62
7
  6
CONTINUOUS
 10
226.1583804287
 20
203.8207623715
 11
226.1633387389
 21
203.3443405659
  0
LINE
  5
43F
100
AcDbEntity
  8
0
100
AcDbLine
 62
7
  6
CONTINUOUS
 10
229.1475218692
 20
189.7577871933
 11
229.0969589742
 21
188.7817525979
  0
LINE
  5
440
100
AcDbEntity
  8
0
100
AcDbLine
 62
7
  6
CONTINUOUS
 10
234.4276490327
 20
187.8858946982
 11
234.4782155327
 21
188.8619225695
  0
LINE
  5
441
100
AcDbEntity
  8
0
100
AcDbLine
 62
7
  6
CONTINUOUS
 10
229.9242642489
 20
189.0418536549
 11
229.9845105201
 21
189.6437339602
  0
LINE
  5
442
100
AcDbEntity
  8
0
100
AcDbLine
 62
7
  6
CONTINUOUS
 10
233.6509067054
 20
188.601828265
 11
233.5906604342
 21
187.9999479597
  0
LINE
  5
443
100
AcDbEntity
  8
0
100
AcDbLine
 62
7
  6
CONTINUOUS
 10
236.1134631308
 20
190.1304266463
 11
236.0532168595
 21
189.528546341
  0
LINE
  5
444
100
AcDbEntity
  8
0
100
AcDbLine
 62
7
  6
CONTINUOUS
 10
226.8850886694
 20
202.652186654
 11
226.9954673752
 21
203.4896677594
  0
LINE
  5
445
100
AcDbEntity
  8
0
100
AcDbLine
 62
7
  6
CONTINUOUS
 10
233.5906604342
 20
187.9999479597
 11
233.4508047048
 21
187.5444891837
  0
LINE
  5
446
100
AcDbEntity
  8
0
100
AcDbLine
 62
7
  6
CONTINUOUS
 10
234.2178636165
 20
187.2027098855
 11
234.4276490327
 21
187.8858946982
  0
LINE
  5
447
100
AcDbEntity
  8
0
100
AcDbLine
 62
7
  6
CONTINUOUS
 10
229.5068464828
 20
190.5222765417
 11
229.1475218692
 21
189.7577871933
  0
LINE
  5
448
100
AcDbEntity
  8
0
100
AcDbLine
 62
7
  6
CONTINUOUS
 10
236.5308808969
 20
188.6500037595
 11
236.8902054581
 21
189.4144930795
  0
LINE
  5
449
100
AcDbEntity
  8
0
100
AcDbLine
 62
7
  6
CONTINUOUS
 10
229.9845105201
 20
189.6437339602
 11
230.2739054992
 21
190.1804973005
  0
LINE
  5
44A
100
AcDbEntity
  8
0
100
AcDbLine
 62
7
  6
CONTINUOUS
 10
236.0532168595
 20
189.528546341
 11
235.7638219851
 21
188.9917830577
  0
LINE
  5
44B
100
AcDbEntity
  8
0
100
AcDbLine
 62
7
  6
CONTINUOUS
 10
144.7659761469
 20
200.6049815759
 11
144.1829122928
 21
200.443965871
  0
LINE
  5
44C
100
AcDbEntity
  8
0
100
AcDbLine
 62
7
  6
CONTINUOUS
 10
201.8095515664
 20
211.2746244631
 11
202.758809317
 21
211.5072123928
  0
LINE
  5
44D
100
AcDbEntity
  8
0
100
AcDbLine
 62
7
  6
CONTINUOUS
 10
141.5418632918
 20
189.6664420332
 11
142.2425772447
 21
189.8069816946
  0
LINE
  5
44E
100
AcDbEntity
  8
0
100
AcDbLine
 62
7
  6
CONTINUOUS
 10
211.3472191856
 20
212.5305228314
 11
210.5237799999
 21
212.3657486139
  0
LINE
  5
44F
100
AcDbEntity
  8
0
100
AcDbLine
 62
7
  6
CONTINUOUS
 10
207.5305932385
 20
213.0759535647
 11
206.7071609022
 21
212.9111759865
  0
LINE
  5
450
100
AcDbEntity
  8
0
100
AcDbLine
 62
7
  6
CONTINUOUS
 10
208.9544848151
 20
215.2212818022
 11
209.7779171514
 21
215.3860593804
  0
LINE
  5
451
100
AcDbEntity
  8
0
100
AcDbLine
 62
7
  6
CONTINUOUS
 10
224.8748255254
 20
201.2783487427
 11
225.7069541617
 21
201.4236759362
  0
LINE
  5
452
100
AcDbEntity
  8
0
100
AcDbLine
 62
7
  6
CONTINUOUS
 10
208.8736679983
 20
208.2458486955
 11
209.8467318102
 21
208.3372103711
  0
LINE
  5
453
100
AcDbEntity
  8
0
100
AcDbLine
 62
7
  6
CONTINUOUS
 10
144.7240365537
 20
199.7662698568
 11
145.1992725352
 21
199.8001988447
  0
LINE
  5
454
100
AcDbEntity
  8
0
100
AcDbLine
 62
7
  6
CONTINUOUS
 10
145.2412121284
 20
200.6389105639
 11
144.7659761469
 21
200.6049815759
  0
LINE
  5
455
100
AcDbEntity
  8
0
100
AcDbLine
 62
7
  6
CONTINUOUS
 10
225.1030176489
 20
202.2386808855
 11
224.6268056677
 21
202.2236985416
  0
LINE
  5
456
100
AcDbEntity
  8
0
100
AcDbLine
 62
7
  6
CONTINUOUS
 10
209.6977539153
 20
209.1686932204
 11
208.9492904166
 21
209.1567294251
  0
LINE
  5
457
100
AcDbEntity
  8
0
100
AcDbLine
 62
7
  6
CONTINUOUS
 10
210.8973650639
 20
211.6136602978
 11
211.2715899639
 21
211.619645556
  0
LINE
  5
458
100
AcDbEntity
  8
0
100
AcDbLine
 62
7
  6
CONTINUOUS
 10
142.087318495
 20
190.504582046
 11
141.477513652
 21
190.5037323568
  0
LINE
  5
459
100
AcDbEntity
  8
0
100
AcDbLine
 62
7
  6
CONTINUOUS
 10
232.1049521906
 20
186.812748504
 11
231.4971120904
 21
186.8616846866
  0
LINE
  5
45A
100
AcDbEntity
  8
0
100
AcDbLine
 62
7
  6
CONTINUOUS
 10
234.0123847519
 20
192.2131103248
 11
234.6202247474
 21
192.1641740853
  0
LINE
  5
45B
100
AcDbEntity
  8
0
100
AcDbLine
 62
7
  6
CONTINUOUS
 10
224.0402204872
 20
201.3712298116
 11
224.8748255254
 21
201.2783487427
  0
LINE
  5
45C
100
AcDbEntity
  8
0
100
AcDbLine
 62
7
  6
CONTINUOUS
 10
231.1377874768
 20
186.0971953382
 11
231.9747761277
 21
185.9831421051
  0
LINE
  5
45D
100
AcDbEntity
  8
0
100
AcDbLine
 62
7
  6
CONTINUOUS
 10
234.9795493086
 20
192.9286634052
 11
234.14256071
 21
193.0427166667
  0
LINE
  5
45E
100
AcDbEntity
  8
0
100
AcDbLine
 62
7
  6
CONTINUOUS
 10
168.6640213007
 20
211.6027605382
 11
169.611967778
 21
211.3648580077
  0
LINE
  5
45F
100
AcDbEntity
  8
0
100
AcDbLine
 62
7
  6
CONTINUOUS
 10
231.6197580135
 20
190.9122379801
 11
232.078058864
 21
190.7819972333
  0
LINE
  5
460
100
AcDbEntity
  8
0
100
AcDbLine
 62
7
  6
CONTINUOUS
 10
169.516350122
 20
212.226799909
 11
168.9373978423
 21
212.4020248301
  0
LINE
  5
461
100
AcDbEntity
  8
0
100
AcDbLine
 62
7
  6
CONTINUOUS
 10
169.3241384045
 20
218.4100038219
 11
169.9030906842
 21
218.2347789008
  0
LINE
  5
462
100
AcDbEntity
  8
0
100
AcDbLine
 62
7
  6
CONTINUOUS
 10
175.8327029697
 20
213.5612226965
 11
176.7357008514
 21
213.1873395522
  0
LINE
  5
463
100
AcDbEntity
  8
0
100
AcDbLine
 62
7
  6
CONTINUOUS
 10
176.76707892
 20
214.0540016927
 11
176.2199500489
 21
214.311954234
  0
LINE
  5
464
100
AcDbEntity
  8
0
100
AcDbLine
 62
7
  6
CONTINUOUS
 10
177.480549025
 20
220.1989104525
 11
178.0276778961
 21
219.9409579113
  0
LINE
  5
465
100
AcDbEntity
  8
0
100
AcDbLine
 62
7
  6
CONTINUOUS
 10
231.4971120904
 20
186.8616846866
 11
230.9592017817
 21
187.1383469627
  0
LINE
  5
466
100
AcDbEntity
  8
0
100
AcDbLine
 62
7
  6
CONTINUOUS
 10
232.078058864
 20
190.7819972333
 11
232.6159691726
 21
190.5053349572
  0
LINE
  5
467
100
AcDbEntity
  8
0
100
AcDbLine
 62
7
  6
CONTINUOUS
 10
233.2840554393
 20
191.0582790231
 11
232.2082348221
 21
191.6116035753
  0
LINE
  5
468
100
AcDbEntity
  8
0
100
AcDbLine
 62
7
  6
CONTINUOUS
 10
234.6202247474
 20
192.1641740853
 11
235.158135056
 21
191.8875118092
  0
LINE
  5
469
100
AcDbEntity
  8
0
100
AcDbLine
 62
7
  6
CONTINUOUS
 10
168.0341397165
 20
211.9404003756
 11
168.6640213007
 21
211.6027605382
  0
LINE
  5
46A
100
AcDbEntity
  8
0
100
AcDbLine
 62
7
  6
CONTINUOUS
 10
170.80634881
 20
218.6964033553
 11
170.1764672436
 21
219.0340431358
  0
LINE
  5
46B
100
AcDbEntity
  8
0
100
AcDbLine
 62
7
  6
CONTINUOUS
 10
230.2911190677
 20
186.5853961443
 11
231.1377874768
 21
186.0971953382
  0
LINE
  5
46C
100
AcDbEntity
  8
0
100
AcDbLine
 62
7
  6
CONTINUOUS
 10
175.2589271255
 20
213.9872892999
 11
175.8327029697
 21
213.5612226965
  0
LINE
  5
46D
100
AcDbEntity
  8
0
100
AcDbLine
 62
7
  6
CONTINUOUS
 10
178.9887008196
 20
220.2656228453
 11
178.4149249847
 21
220.6916893899
  0
LINE
  5
46E
100
AcDbEntity
  8
0
100
AcDbLine
 62
7
  6
CONTINUOUS
 10
168.9373978423
 20
212.4020248301
 11
167.9956995712
 21
213.1770417975
  0
LINE
  5
46F
100
AcDbEntity
  8
0
100
AcDbLine
 62
7
  6
CONTINUOUS
 10
169.9030906842
 20
218.2347789008
 11
170.8447927022
 21
217.4597627335
  0
LINE
  5
470
100
AcDbEntity
  8
0
100
AcDbLine
 62
7
  6
CONTINUOUS
 10
171.3281272144
 20
218.1464800691
 11
170.80634881
 21
218.6964033553
  0
LINE
  5
471
100
AcDbEntity
  8
0
100
AcDbLine
 62
7
  6
CONTINUOUS
 10
176.2199500489
 20
214.311954234
 11
175.4016204004
 21
215.2162708854
  0
LINE
  5
472
100
AcDbEntity
  8
0
100
AcDbLine
 62
7
  6
CONTINUOUS
 10
178.0276778961
 20
219.9409579113
 11
178.8460076007
 21
219.0366409066
  0
LINE
  5
473
100
AcDbEntity
  8
0
100
AcDbLine
 62
7
  6
CONTINUOUS
 10
199.266328712
 20
212.6239061817
 11
199.9045608242
 21
211.8837305886
  0
LINE
  5
474
100
AcDbEntity
  8
0
100
AcDbLine
 62
7
  6
CONTINUOUS
 10
200.3225017273
 20
212.6436068804
 11
199.9499316677
 21
213.1201371165
  0
LINE
  5
475
100
AcDbEntity
  8
0
100
AcDbLine
 62
7
  6
CONTINUOUS
 10
203.7243502997
 20
217.8104598441
 11
204.0969203593
 21
217.333929608
  0
LINE
  5
476
100
AcDbEntity
  8
0
100
AcDbLine
 62
7
  6
CONTINUOUS
 10
207.1537677408
 20
210.0376938517
 11
206.7052138393
 21
210.6369683849
  0
LINE
  5
477
100
AcDbEntity
  8
0
100
AcDbLine
 62
7
  6
CONTINUOUS
 10
207.6805446124
 20
213.3815744092
 11
207.9048249879
 21
213.0819354623
  0
LINE
  5
478
100
AcDbEntity
  8
0
100
AcDbLine
 62
7
  6
CONTINUOUS
 10
179.4245144821
 20
219.6453508737
 11
178.9887008196
 21
220.2656228453
  0
LINE
  5
479
100
AcDbEntity
  8
0
100
AcDbLine
 62
7
  6
CONTINUOUS
 10
205.9564303963
 20
210.245967749
 11
206.4796400471
 21
209.4204668107
  0
LINE
  5
47A
100
AcDbEntity
  8
0
100
AcDbLine
 62
7
  6
CONTINUOUS
 10
198.9455974836
 20
213.2625633269
 11
199.266328712
 21
212.6239061817
  0
LINE
  5
47B
100
AcDbEntity
  8
0
100
AcDbLine
 62
7
  6
CONTINUOUS
 10
205.1012545434
 20
217.1915033976
 11
204.7805232969
 21
217.830160486
  0
LINE
  5
47C
100
AcDbEntity
  8
0
100
AcDbLine
 62
7
  6
CONTINUOUS
 10
208.7282573242
 20
213.2467130405
 11
208.3546791095
 21
213.998797996
  0
LINE
  5
47D
100
AcDbEntity
  8
0
100
AcDbLine
 62
7
  6
CONTINUOUS
 10
211.495223654
 20
210.5619363954
 11
211.12163859
 21
211.3140247115
  0
LINE
  5
47E
100
AcDbEntity
  8
0
100
AcDbLine
 62
7
  6
CONTINUOUS
 10
211.5734398271
 20
214.5050949538
 11
211.9470248911
 21
213.7530066377
  0
LINE
  5
47F
100
AcDbEntity
  8
0
100
AcDbLine
 62
7
  6
CONTINUOUS
 10
205.7324768145
 20
210.9246401759
 11
205.9564303963
 21
210.245967749
  0
LINE
  5
480
100
AcDbEntity
  8
0
100
AcDbLine
 62
7
  6
CONTINUOUS
 10
207.4565910043
 20
214.0602467827
 11
207.6805446124
 21
213.3815744092
  0
LINE
  5
481
100
AcDbEntity
  8
0
100
AcDbLine
 62
7
  6
CONTINUOUS
 10
212.845106147
 20
213.6915612115
 11
212.6211525389
 21
214.370233585
  0
LINE
  5
482
100
AcDbEntity
  8
0
100
AcDbLine
 62
7
  6
CONTINUOUS
 10
199.9499316677
 20
213.1201371165
 11
199.6259700904
 21
214.2959329448
  0
LINE
  5
483
100
AcDbEntity
  8
0
100
AcDbLine
 62
7
  6
CONTINUOUS
 10
204.0969203593
 20
217.333929608
 11
204.4208890947
 21
216.1581311155
  0
LINE
  5
484
100
AcDbEntity
  8
0
100
AcDbLine
 62
7
  6
CONTINUOUS
 10
206.7052138393
 20
210.6369683849
 11
206.5562359706
 21
211.4684512877
  0
LINE
  5
485
100
AcDbEntity
  8
0
100
AcDbLine
 62
7
  6
CONTINUOUS
 10
210.5224866292
 20
210.8496081864
 11
210.6714644453
 21
210.0181251766
  0
LINE
  5
486
100
AcDbEntity
  8
0
100
AcDbLine
 62
7
  6
CONTINUOUS
 10
226.9954673752
 20
203.4896677594
 11
226.8677428437
 21
204.3196550525
  0
LINE
  5
487
100
AcDbEntity
  8
0
100
AcDbLine
 62
7
  6
CONTINUOUS
 10
205.2114001707
 20
216.4414775261
 11
205.1012545434
 21
217.1915033976
  0
LINE
  5
488
100
AcDbEntity
  8
0
100
AcDbLine
 62
7
  6
CONTINUOUS
 10
208.3546791095
 20
213.998797996
 11
208.280350108
 21
214.6040577874
  0
LINE
  5
489
100
AcDbEntity
  8
0
100
AcDbLine
 62
7
  6
CONTINUOUS
 10
211.9470248911
 20
213.7530066377
 11
212.0213468333
 21
213.1477497787
  0
LINE
  5
48A
100
AcDbEntity
  8
0
100
AcDbLine
 62
7
  6
CONTINUOUS
 10
236.8902054581
 20
189.4144930795
 11
236.9407683138
 21
190.3905276535
  0
LINE
  5
48B
100
AcDbEntity
  8
0
100
AcDbLine
 62
7
  6
CONTINUOUS
 10
202.2373076958
 20
219.1794398385
 11
201.2880426918
 21
218.9468542749
  0
LINE
  5
48C
100
AcDbEntity
  8
0
100
AcDbLine
 62
7
  6
CONTINUOUS
 10
169.611967778
 20
211.3648580077
 11
170.6170844817
 21
211.5016527293
  0
LINE
  5
48D
100
AcDbEntity
  8
0
100
AcDbLine
 62
7
  6
CONTINUOUS
 10
169.2285244196
 20
219.2719467651
 11
168.2234077204
 21
219.1351520293
  0
LINE
  5
48E
100
AcDbEntity
  8
0
100
AcDbLine
 62
7
  6
CONTINUOUS
 10
170.3624380124
 20
212.3137271399
 11
169.516350122
 21
212.226799909
  0
LINE
  5
48F
100
AcDbEntity
  8
0
100
AcDbLine
 62
7
  6
CONTINUOUS
 10
168.478054154
 20
218.3230777325
 11
169.3241384045
 21
218.4100038219
  0
LINE
  5
490
100
AcDbEntity
  8
0
100
AcDbLine
 62
7
  6
CONTINUOUS
 10
210.0031709796
 20
216.2235240737
 11
209.0301071874
 21
216.1321624382
  0
LINE
  5
491
100
AcDbEntity
  8
0
100
AcDbLine
 62
7
  6
CONTINUOUS
 10
207.5299465532
 20
212.317883351
 11
208.2784032025
 21
212.3298505068
  0
LINE
  5
492
100
AcDbEntity
  8
0
100
AcDbLine
 62
7
  6
CONTINUOUS
 10
207.9048249879
 20
213.0819354623
 11
207.5305932385
 21
213.0759535647
  0
LINE
  5
493
100
AcDbEntity
  8
0
100
AcDbLine
 62
7
  6
CONTINUOUS
 10
176.7357008514
 20
213.1873395522
 11
177.7500177047
 21
213.1757764649
  0
LINE
  5
494
100
AcDbEntity
  8
0
100
AcDbLine
 62
7
  6
CONTINUOUS
 10
177.51192711
 20
221.06557249
 11
176.4976102591
 21
221.0771355626
  0
LINE
  5
495
100
AcDbEntity
  8
0
100
AcDbLine
 62
7
  6
CONTINUOUS
 10
177.6167828672
 20
214.0163465992
 11
176.76707892
 21
214.0540016927
  0
LINE
  5
496
100
AcDbEntity
  8
0
100
AcDbLine
 62
7
  6
CONTINUOUS
 10
176.6308450778
 20
220.236565546
 11
177.480549025
 21
220.1989104525
  0
LINE
  5
497
100
AcDbEntity
  8
0
100
AcDbLine
 62
7
  6
CONTINUOUS
 10
201.9099915901
 20
212.136019217
 11
201.0644114791
 21
212.2276850346
  0
LINE
  5
498
100
AcDbEntity
  8
0
100
AcDbLine
 62
7
  6
CONTINUOUS
 10
202.1368604369
 20
218.3180475075
 11
202.9824478148
 21
218.2263793663
  0
LINE
  5
499
100
AcDbEntity
  8
0
100
AcDbLine
 62
7
  6
CONTINUOUS
 10
200.8052173778
 20
211.4170506593
 11
201.8095515664
 21
211.2746244631
  0
LINE
  5
49A
100
AcDbEntity
  8
0
100
AcDbLine
 62
7
  6
CONTINUOUS
 10
203.2416418799
 20
219.0370136281
 11
202.2373076958
 21
219.1794398385
  0
LINE
  5
49B
100
AcDbEntity
  8
0
100
AcDbLine
 62
7
  6
CONTINUOUS
 10
190.0598860716
 20
213.7024003807
 11
196.6454576835
 21
212.6657191645
  0
LINE
  5
49C
100
AcDbEntity
  8
0
100
AcDbLine
 62
7
  6
CONTINUOUS
 10
196.8042683923
 20
213.6745724931
 11
191.2065323338
 21
214.5557515565
  0
LINE
  5
49D
100
AcDbEntity
  8
0
100
AcDbLine
 62
7
  6
CONTINUOUS
 10
191.1715610518
 20
220.7643737986
 11
196.9339376253
 21
219.857277512
  0
LINE
  5
49E
100
AcDbEntity
  8
0
100
AcDbLine
 62
7
  6
CONTINUOUS
 10
197.8894749056
 20
220.5684035914
 11
191.3039032937
 21
221.6050848076
  0
LINE
  5
49F
100
AcDbEntity
  8
0
100
AcDbLine
 62
7
  6
CONTINUOUS
 10
208.9492904166
 20
209.1567294251
 11
208.2758094542
 21
209.2975726915
  0
LINE
  5
4A0
100
AcDbEntity
  8
0
100
AcDbLine
 62
7
  6
CONTINUOUS
 10
208.2784032025
 20
212.3298505068
 11
208.9518910143
 21
212.1890038798
  0
LINE
  5
4A1
100
AcDbEntity
  8
0
100
AcDbLine
 62
7
  6
CONTINUOUS
 10
210.5237799999
 20
212.3657486139
 11
209.8502990375
 21
212.5065918803
  0
LINE
  5
4A2
100
AcDbEntity
  8
0
100
AcDbLine
 62
7
  6
CONTINUOUS
 10
209.7779171514
 20
215.3860593804
 11
210.4514049632
 21
215.2452127534
  0
LINE
  5
4A3
100
AcDbEntity
  8
0
100
AcDbLine
 62
7
  6
CONTINUOUS
 10
170.1764672436
 20
219.0340431358
 11
169.2285244196
 21
219.2719467651
  0
LINE
  5
4A4
100
AcDbEntity
  8
0
100
AcDbLine
 62
7
  6
CONTINUOUS
 10
208.0505555735
 20
208.4601078911
 11
208.8736679983
 21
208.2458486955
  0
LINE
  5
4A5
100
AcDbEntity
  8
0
100
AcDbLine
 62
7
  6
CONTINUOUS
 10
210.8262833979
 20
216.0092648647
 11
210.0031709796
 21
216.2235240737
  0
LINE
  5
4A6
100
AcDbEntity
  8
0
100
AcDbLine
 62
7
  6
CONTINUOUS
 10
178.4149249847
 20
220.6916893899
 11
177.51192711
 21
221.06557249
  0
LINE
  5
4A7
100
AcDbEntity
  8
0
100
AcDbLine
 62
7
  6
CONTINUOUS
 10
224.6268056677
 20
202.2236985416
 11
224.1481172847
 21
202.4469244602
  0
LINE
  5
4A8
100
AcDbEntity
  8
0
100
AcDbLine
 62
7
  6
CONTINUOUS
 10
207.1527942356
 20
208.9005901044
 11
208.0505555735
 21
208.4601078911
  0
LINE
  5
4A9
100
AcDbEntity
  8
0
100
AcDbLine
 62
7
  6
CONTINUOUS
 10
208.2758094542
 20
209.2975726915
 11
207.6773041787
 21
209.5912263802
  0
LINE
  5
4AA
100
AcDbEntity
  8
0
100
AcDbLine
 62
7
  6
CONTINUOUS
 10
208.9518910143
 20
212.1890038798
 11
209.5503962897
 21
211.8953501912
  0
LINE
  5
4AB
100
AcDbEntity
  8
0
100
AcDbLine
 62
7
  6
CONTINUOUS
 10
209.8502990375
 20
212.5065918803
 11
209.2517937621
 21
212.8002455689
  0
LINE
  5
4AC
100
AcDbEntity
  8
0
100
AcDbLine
 62
7
  6
CONTINUOUS
 10
210.4514049632
 20
215.2452127534
 11
211.0499102386
 21
214.9515590647
  0
LINE
  5
4AD
100
AcDbEntity
  8
0
100
AcDbLine
 62
7
  6
CONTINUOUS
 10
211.4247886733
 20
215.715611176
 11
210.8262833979
 21
216.0092648647
  0
LINE
  5
4AE
100
AcDbEntity
  8
0
100
AcDbLine
 62
7
  6
CONTINUOUS
 10
199.9045608242
 20
211.8837305886
 11
200.8052173778
 21
211.4170506593
  0
LINE
  5
4AF
100
AcDbEntity
  8
0
100
AcDbLine
 62
7
  6
CONTINUOUS
 10
204.142298438
 20
218.570333713
 11
203.2416418799
 21
219.0370136281
  0
LINE
  5
4B0
100
AcDbEntity
  8
0
100
AcDbLine
 62
7
  6
CONTINUOUS
 10
201.0644114791
 20
212.2276850346
 11
200.3225017273
 21
212.6436068804
  0
LINE
  5
4B1
100
AcDbEntity
  8
0
100
AcDbLine
 62
7
  6
CONTINUOUS
 10
202.9824478148
 20
218.2263793663
 11
203.7243502997
 21
217.8104598441
  0
LINE
  5
4B2
100
AcDbEntity
  8
0
100
AcDbLine
 62
7
  6
CONTINUOUS
 10
235.8262213228
 20
192.440455875
 11
234.9795493086
 21
192.9286634052
  0
LINE
  5
4B3
100
AcDbEntity
  8
0
100
AcDbLine
 62
7
  6
CONTINUOUS
 10
223.3209469585
 20
201.8251754611
 11
224.0402204872
 21
201.3712298116
  0
LINE
  5
4B4
100
AcDbEntity
  8
0
100
AcDbLine
 62
7
  6
CONTINUOUS
 10
206.4796400471
 20
209.4204668107
 11
207.1527942356
 21
208.9005901044
  0
LINE
  5
4B5
100
AcDbEntity
  8
0
100
AcDbLine
 62
7
  6
CONTINUOUS
 10
212.0979497177
 20
215.1957311225
 11
211.4247886733
 21
215.715611176
  0
LINE
  5
4B6
100
AcDbEntity
  8
0
100
AcDbLine
 62
7
  6
CONTINUOUS
 10
207.6773041787
 20
209.5912263802
 11
207.1537677408
 21
210.0376938517
  0
LINE
  5
4B7
100
AcDbEntity
  8
0
100
AcDbLine
 62
7
  6
CONTINUOUS
 10
209.5503962897
 20
211.8953501912
 11
210.0739258782
 21
211.4488860802
  0
LINE
  5
4B8
100
AcDbEntity
  8
0
100
AcDbLine
 62
7
  6
CONTINUOUS
 10
209.2517937621
 20
212.8002455689
 11
208.7282573242
 21
213.2467130405
  0
LINE
  5
4B9
100
AcDbEntity
  8
0
100
AcDbLine
 62
7
  6
CONTINUOUS
 10
211.0499102386
 20
214.9515590647
 11
211.5734398271
 21
214.5050949538
  0
LINE
  5
4BA
100
AcDbEntity
  8
0
100
AcDbLine
 62
7
  6
CONTINUOUS
 10
230.9592017817
 20
187.1383469627
 11
230.5708306181
 21
187.4963137461
  0
LINE
  5
4BB
100
AcDbEntity
  8
0
100
AcDbLine
 62
7
  6
CONTINUOUS
 10
232.6159691726
 20
190.5053349572
 11
233.0043403362
 21
190.1473681738
  0
LINE
  5
4BC
100
AcDbEntity
  8
0
100
AcDbLine
 62
7
  6
CONTINUOUS
 10
235.158135056
 20
191.8875118092
 11
235.5465062197
 21
191.5295450258
  0
LINE
  5
4BD
100
AcDbEntity
  8
0
100
AcDbLine
 62
7
  6
CONTINUOUS
 10
217.9598651331
 20
202.0139189799
 11
218.6816150637
 21
201.321765068
  0
LINE
  5
4BE
100
AcDbEntity
  8
0
100
AcDbLine
 62
7
  6
CONTINUOUS
 10
221.1556971668
 20
203.9016371968
 11
223.3209469585
 21
201.8251754611
  0
LINE
  5
4BF
100
AcDbEntity
  8
0
100
AcDbLine
 62
7
  6
CONTINUOUS
 10
224.1481172847
 20
202.4469244602
 11
221.8625776735
 21
204.638743421
  0
LINE
  5
4C0
100
AcDbEntity
  8
0
100
AcDbLine
 62
7
  6
CONTINUOUS
 10
223.62977927
 20
206.4815093256
 11
225.9153188812
 21
204.2896903648
  0
LINE
  5
4C1
100
AcDbEntity
  8
0
100
AcDbLine
 62
7
  6
CONTINUOUS
 10
226.3840961505
 20
205.0193027767
 11
223.4970964283
 21
207.7879184243
  0
LINE
  5
4C2
100
AcDbEntity
  8
0
100
AcDbLine
 62
7
  6
CONTINUOUS
 10
204.7805232969
 20
217.830160486
 11
204.142298438
 21
218.570333713
  0
LINE
  5
4C3
100
AcDbEntity
  8
0
100
AcDbLine
 62
7
  6
CONTINUOUS
 10
229.7435253304
 20
187.2362126819
 11
230.2911190677
 21
186.5853961443
  0
LINE
  5
4C4
100
AcDbEntity
  8
0
100
AcDbLine
 62
7
  6
CONTINUOUS
 10
233.8316455192
 20
190.407469181
 11
233.2840554393
 21
191.0582790231
  0
LINE
  5
4C5
100
AcDbEntity
  8
0
100
AcDbLine
 62
7
  6
CONTINUOUS
 10
236.3738114027
 20
191.789646033
 11
235.8262213228
 21
192.440455875
  0
LINE
  5
4C6
100
AcDbEntity
  8
0
100
AcDbLine
 62
7
  6
CONTINUOUS
 10
223.3207503953
 20
196.7553372033
 11
223.9269928594
 21
195.9600573313
  0
LINE
  5
4C7
100
AcDbEntity
  8
0
100
AcDbLine
 62
7
  6
CONTINUOUS
 10
226.7561228166
 20
192.2487532846
 11
227.3623652807
 21
191.4534734126
  0
LINE
  5
4C8
100
AcDbEntity
  8
0
100
AcDbLine
 62
7
  6
CONTINUOUS
 10
225.9555543969
 20
196.6681552492
 11
227.9763641522
 21
194.0172203201
  0
LINE
  5
4C9
100
AcDbEntity
  8
0
100
AcDbLine
 62
7
  6
CONTINUOUS
 10
228.4167923656
 20
194.5625257204
 11
226.5980649734
 21
196.9483653363
  0
LINE
  5
4CA
100
AcDbEntity
  8
0
100
AcDbLine
 62
7
  6
CONTINUOUS
 10
232.1079592273
 20
198.4241574279
 11
231.2996344001
 21
199.4845326131
  0
LINE
  5
4CB
100
AcDbEntity
  8
0
100
AcDbLine
 62
7
  6
CONTINUOUS
 10
210.0739258782
 20
211.4488860802
 11
210.5224866292
 21
210.8496081864
  0
LINE
  5
4CC
100
AcDbEntity
  8
0
100
AcDbLine
 62
7
  6
CONTINUOUS
 10
211.12163859
 20
211.3140247115
 11
210.8973650639
 21
211.6136602978
  0
LINE
  5
4CD
100
AcDbEntity
  8
0
100
AcDbLine
 62
7
  6
CONTINUOUS
 10
226.8677428437
 20
204.3196550525
 11
226.3840961505
 21
205.0193027767
  0
LINE
  5
4CE
100
AcDbEntity
  8
0
100
AcDbLine
 62
7
  6
CONTINUOUS
 10
212.6211525389
 20
214.370233585
 11
212.0979497177
 21
215.1957311225
  0
LINE
  5
4CF
100
AcDbEntity
  8
0
100
AcDbLine
 62
7
  6
CONTINUOUS
 10
229.3454707511
 20
187.9683337341
 11
229.7435253304
 21
187.2362126819
  0
LINE
  5
4D0
100
AcDbEntity
  8
0
100
AcDbLine
 62
7
  6
CONTINUOUS
 10
230.5708306181
 20
187.4963137461
 11
230.0135571226
 21
188.5212778569
  0
LINE
  5
4D1
100
AcDbEntity
  8
0
100
AcDbLine
 62
7
  6
CONTINUOUS
 10
233.0043403362
 20
190.1473681738
 11
233.5616138317
 21
189.122404063
  0
LINE
  5
4D2
100
AcDbEntity
  8
0
100
AcDbLine
 62
7
  6
CONTINUOUS
 10
234.2297000985
 20
189.6753481289
 11
233.8316455192
 21
190.407469181
  0
LINE
  5
4D3
100
AcDbEntity
  8
0
100
AcDbLine
 62
7
  6
CONTINUOUS
 10
235.7638219851
 20
188.9917830577
 11
236.1618729201
 21
188.2596687083
  0
LINE
  5
4D4
100
AcDbEntity
  8
0
100
AcDbLine
 62
7
  6
CONTINUOUS
 10
235.5465062197
 20
191.5295450258
 11
236.024170257
 21
190.6510024443
  0
LINE
  5
4D5
100
AcDbEntity
  8
0
100
AcDbLine
 62
7
  6
CONTINUOUS
 10
236.6922565238
 20
191.2039465102
 11
236.3738114027
 21
191.789646033
  0
LINE
  5
4D6
100
AcDbEntity
  8
0
100
AcDbLine
 62
7
  6
CONTINUOUS
 10
225.9153188812
 20
204.2896903648
 11
226.1583804287
 21
203.8207623715
  0
LINE
  5
4D7
100
AcDbEntity
  8
0
100
AcDbLine
 62
7
  6
CONTINUOUS
 10
229.0969589742
 20
188.7817525979
 11
229.3454707511
 21
187.9683337341
  0
LINE
  5
4D8
100
AcDbEntity
  8
0
100
AcDbLine
 62
7
  6
CONTINUOUS
 10
234.4782155327
 20
188.8619225695
 11
234.2297000985
 21
189.6753481289
  0
LINE
  5
4D9
100
AcDbEntity
  8
0
100
AcDbLine
 62
7
  6
CONTINUOUS
 10
236.9407683138
 20
190.3905276535
 11
236.6922565238
 21
191.2039465102
  0
LINE
  5
4DA
100
AcDbEntity
  8
0
100
AcDbLine
 62
7
  6
CONTINUOUS
 10
230.0135571226
 20
188.5212778569
 11
229.9242642489
 21
189.0418536549
  0
LINE
  5
4DB
100
AcDbEntity
  8
0
100
AcDbLine
 62
7
  6
CONTINUOUS
 10
233.5616138317
 20
189.122404063
 11
233.6509067054
 21
188.601828265
  0
LINE
  5
4DC
100
AcDbEntity
  8
0
100
AcDbLine
 62
7
  6
CONTINUOUS
 10
236.024170257
 20
190.6510024443
 11
236.1134631308
 21
190.1304266463
  0
LINE
  5
4DD
100
AcDbEntity
  8
0
100
AcDbLine
 62
7
  6
CONTINUOUS
 10
270.1057200637
 20
239.9856602483
 11
261.7709423833
 21
248.3204379287
  0
LINE
  5
4DE
100
AcDbEntity
  8
1_AXIS
100
AcDbLine
 62
7
  6
CONTINUOUS
 10
71.7775642395
 20
324.0948209983
 11
71.7775642395
 21
334.5512683268
  0
LWPOLYLINE
  5
4DF
100
AcDbEntity
  8
0
100
AcDbPolyline
 62
7
  6
CONTINUOUS
 90
4
 70
0
 10
100.5349915926
 20
324.0497155069
 10
100.5394608445
 20
323.9546679268
 10
100.5982360559
 20
323.6970921003
 10
100.7129837572
 20
323.4751160291
  0
LINE
  5
4E0
100
AcDbEntity
  8
0
100
AcDbLine
 62
7
  6
CONTINUOUS
 10
100.5349647567
 20
334.5967581966
 11
100.5349647567
 21
324.0493311477
  0
LWPOLYLINE
  5
4E1
100
AcDbEntity
  8
0
100
AcDbPolyline
 62
7
  6
CONTINUOUS
 90
4
 70
0
 10
100.6682928731
 20
335.0993940931
 10
100.5781321883
 20
334.8890425459
 10
100.5364473708
 20
334.6506372483
 10
100.5349916479
 20
334.5963697968
  0
LINE
  5
4E2
100
AcDbEntity
  8
0
100
AcDbLine
 62
7
  6
CONTINUOUS
 10
100.7931603424
 20
335.2738266225
 11
100.6682928731
 21
335.0993940931
  0
LINE
  5
4E3
100
AcDbEntity
  8
0
100
AcDbLine
 62
7
  6
CONTINUOUS
 10
100.94060252
 20
335.4113672138
 11
100.7931603424
 21
335.2738266225
  0
LWPOLYLINE
  5
4E4
100
AcDbEntity
  8
0
100
AcDbPolyline
 62
7
  6
CONTINUOUS
 90
4
 70
0
 10
100.7129837572
 20
323.4751160291
 10
100.8620218379
 20
323.3015004117
 10
101.0213746809
 20
323.1779431014
 10
101.1780691485
 20
323.0929867174
  0
LINE
  5
4E5
100
AcDbEntity
  8
0
100
AcDbLine
 62
7
  6
CONTINUOUS
 10
101.0947820018
 20
335.5115222074
 11
100.94060252
 21
335.4113672138
  0
LINE
  5
4E6
100
AcDbEntity
  8
1_AXIS
100
AcDbLine
 62
7
  6
CONTINUOUS
 10
148.0775642395
 20
310.1730446625
 11
148.0775642395
 21
316.8230446625
  0
LINE
  5
4E7
100
AcDbEntity
  8
1_AXIS
100
AcDbLine
 62
7
  6
CONTINUOUS
 10
148.0775642395
 20
341.8230446625
 11
148.0775642395
 21
348.4730446625
  0
LWPOLYLINE
  5
4E8
100
AcDbEntity
  8
0
100
AcDbPolyline
 62
7
  6
CONTINUOUS
 90
3
 70
0
 10
101.2648244331
 20
335.5895933731
 10
101.2427102971
 20
335.5808564839
 10
101.0947820018
 20
335.5115222074
  0
LINE
  5
4E9
100
AcDbEntity
  8
0
100
AcDbLine
 62
7
  6
CONTINUOUS
 10
101.4180048892
 20
335.6483081412
 11
101.2675454834
 21
335.5906473587
  0
LWPOLYLINE
  5
4EA
100
AcDbEntity
  8
0
100
AcDbPolyline
 62
7
  6
CONTINUOUS
 90
3
 70
0
 10
102.6674356348
 20
336.1061890102
 10
102.0299806007
 20
335.8769772754
 10
101.4180048892
 20
335.6483081412
  0
LINE
  5
4EB
100
AcDbEntity
  8
0
100
AcDbLine
 62
7
  6
CONTINUOUS
 10
103.3300014742
 20
336.3359727789
 11
102.6674356348
 21
336.1061890102
  0
LINE
  5
4EC
100
AcDbEntity
  8
0
100
AcDbLine
 62
7
  6
CONTINUOUS
 10
104.0173155864
 20
336.566349782
 11
103.3300014742
 21
336.3359727789
  0
LINE
  5
4ED
100
AcDbEntity
  8
0
100
AcDbLine
 62
7
  6
CONTINUOUS
 10
104.2324184989
 20
336.6369317364
 11
104.0173155864
 21
336.566349782
  0
LINE
  5
4EE
100
AcDbEntity
  8
0
100
AcDbLine
 62
7
  6
CONTINUOUS
 10
104.3738492752
 20
336.6800778469
 11
104.2327023193
 21
336.6370088786
  0
LWPOLYLINE
  5
4EF
100
AcDbEntity
  8
0
100
AcDbPolyline
 62
7
  6
CONTINUOUS
 90
3
 70
0
 10
104.2328538741
 20
322.0090119483
 10
104.4306244985
 20
321.9503498737
 10
104.8444168374
 20
321.8643958708
  0
LWPOLYLINE
  5
4F0
100
AcDbEntity
  8
0
100
AcDbPolyline
 62
7
  6
CONTINUOUS
 90
3
 70
0
 10
103.37222773
 20
322.2957389234
 10
104.0611358267
 20
322.0653045062
 10
104.2324184274
 20
322.009157432
  0
LINE
  5
4F1
100
AcDbEntity
  8
0
100
AcDbLine
 62
7
  6
CONTINUOUS
 10
102.7080202937
 20
322.5255889595
 11
103.37222773
 21
322.2957389234
  0
LINE
  5
4F2
100
AcDbEntity
  8
0
100
AcDbLine
 62
7
  6
CONTINUOUS
 10
102.0688897663
 20
322.754871609
 11
102.7080202937
 21
322.5255889595
  0
LWPOLYLINE
  5
4F3
100
AcDbEntity
  8
0
100
AcDbPolyline
 62
7
  6
CONTINUOUS
 90
3
 70
0
 10
101.2675471356
 20
323.0554412359
 10
101.4551982311
 20
322.9836191658
 10
102.0688897663
 20
322.754871609
  0
LINE
  5
4F4
100
AcDbEntity
  8
0
100
AcDbLine
 62
7
  6
CONTINUOUS
 10
101.1780691485
 20
323.0929867174
 11
101.269357261
 21
323.0547460507
  0
LINE
  5
4F5
100
AcDbEntity
  8
1_AXIS
100
AcDbLine
 62
7
  6
CONTINUOUS
 10
292.1140460162
 20
321.9749671324
 11
298.5512118553
 21
323.1100131491
  0
LINE
  5
4F6
100
AcDbEntity
  8
1_AXIS
100
AcDbLine
 62
7
  6
CONTINUOUS
 10
150.0779801999
 20
308.1730446625
 11
221.0775642395
 21
308.1730446625
  0
LINE
  5
4F7
100
AcDbEntity
  8
0
100
AcDbLine
 62
7
  6
CONTINUOUS
 10
104.8444168374
 20
321.8643958708
 11
105.2648791422
 21
321.8255467825
  0
LINE
  5
4F8
100
AcDbEntity
  8
1_AXIS
100
AcDbLine
 62
7
  6
CONTINUOUS
 10
79.0410824628
 20
321.9749671324
 11
72.6039169925
 21
323.1100130841
  0
LINE
  5
4F9
100
AcDbEntity
  8
1_AXIS
100
AcDbLine
 62
2
  6
CENTER
 10
185.5775642395
 20
306.1730446625
 11
185.5775642395
 21
352.4730446625
  0
LWPOLYLINE
  5
4FA
100
AcDbEntity
  8
0
100
AcDbPolyline
 62
7
  6
CONTINUOUS
 90
4
 70
0
 10
265.7509055588
 20
321.8230622871
 10
265.9470195503
 20
321.8280247895
 10
266.3664639957
 20
321.8731607184
 10
266.7790645505
 20
321.9653666756
  0
LINE
  5
4FB
100
AcDbEntity
  8
1_AXIS
100
AcDbLine
 62
7
  6
CONTINUOUS
 10
80.8883554157
 20
321.8230446625
 11
81.1620510467
 21
321.8230446625
  0
LINE
  5
4FC
100
AcDbEntity
  8
1_AXIS
100
AcDbLine
 62
7
  6
CONTINUOUS
 10
105.4026989651
 20
321.8230446625
 11
118.0865946345
 21
321.8230446625
  0
LINE
  5
4FD
100
AcDbEntity
  8
1_AXIS
100
AcDbLine
 62
7
  6
CONTINUOUS
 10
176.6086955998
 20
321.8230446625
 11
194.5464328792
 21
321.8230446625
  0
LINE
  5
4FE
100
AcDbEntity
  8
0
100
AcDbLine
 62
7
  6
CONTINUOUS
 10
80.7775642395
 20
321.8230446625
 11
290.3775640128
 21
321.8230446625
  0
LINE
  5
4FF
100
AcDbEntity
  8
1_AXIS
100
AcDbLine
 62
7
  6
CONTINUOUS
 10
289.9930774323
 20
321.8230446625
 11
290.1026186027
 21
321.8230446625
  0
LINE
  5
500
100
AcDbEntity
  8
0
100
AcDbLine
 62
7
  6
CONTINUOUS
 10
105.2648791422
 20
321.8255467825
 11
105.4035104123
 21
321.8230620025
  0
LWPOLYLINE
  5
501
100
AcDbEntity
  8
0
100
AcDbPolyline
 62
7
  6
CONTINUOUS
 90
4
 70
0
 10
105.4041321422
 20
336.8230483926
 10
105.2057679958
 20
336.8179603754
 10
104.7861355378
 20
336.7725084167
 10
104.3738492752
 20
336.6800778469
  0
LINE
  5
502
100
AcDbEntity
  8
1_AXIS
100
AcDbLine
 62
7
  6
CONTINUOUS
 10
80.8883554157
 20
336.8230446625
 11
81.1620510467
 21
336.8230446625
  0
LINE
  5
503
100
AcDbEntity
  8
0
100
AcDbLine
 62
7
  6
CONTINUOUS
 10
80.7775642395
 20
336.8230446625
 11
290.3775640128
 21
336.8230446625
  0
LINE
  5
504
100
AcDbEntity
  8
0
100
AcDbLine
 62
7
  6
CONTINUOUS
 10
265.8925833611
 20
336.820476484
 11
265.7517289171
 21
336.823048687
  0
LINE
  5
505
100
AcDbEntity
  8
0
100
AcDbLine
 62
7
  6
CONTINUOUS
 10
266.3132444451
 20
336.781313252
 11
265.8925833611
 21
336.820476484
  0
LINE
  5
506
100
AcDbEntity
  8
0
100
AcDbLine
 62
7
  6
CONTINUOUS
 10
267.825013905
 20
322.3100781083
 11
268.4875709201
 21
322.5398573323
  0
LINE
  5
507
100
AcDbEntity
  8
0
100
AcDbLine
 62
7
  6
CONTINUOUS
 10
267.1377394919
 20
322.0797152635
 11
267.825013905
 21
322.3100781083
  0
LINE
  5
508
100
AcDbEntity
  8
0
100
AcDbLine
 62
7
  6
CONTINUOUS
 10
266.9227106004
 20
322.0091576045
 11
267.1377394919
 21
322.0797152635
  0
LINE
  5
509
100
AcDbEntity
  8
0
100
AcDbLine
 62
7
  6
CONTINUOUS
 10
266.7790645505
 20
321.9653666756
 11
266.9224015044
 21
322.0090533055
  0
LINE
  5
50A
100
AcDbEntity
  8
1_AXIS
100
AcDbLine
 62
7
  6
CONTINUOUS
 10
72.6039170136
 20
335.5360762446
 11
79.0410824628
 21
336.6711221926
  0
LINE
  5
50B
100
AcDbEntity
  8
1_AXIS
100
AcDbLine
 62
7
  6
CONTINUOUS
 10
150.0779801999
 20
350.4730446625
 11
221.0771482791
 21
350.4730446625
  0
LINE
  5
50C
100
AcDbEntity
  8
1_AXIS
100
AcDbLine
 62
7
  6
CONTINUOUS
 10
298.5512119449
 20
335.5360761601
 11
292.1140460162
 21
336.6711221926
  0
LWPOLYLINE
  5
50D
100
AcDbEntity
  8
0
100
AcDbPolyline
 62
7
  6
CONTINUOUS
 90
3
 70
0
 10
266.9223002032
 20
336.6370499196
 10
266.7267400606
 20
336.6951267769
 10
266.3132444451
 20
336.781313252
  0
LWPOLYLINE
  5
50E
100
AcDbEntity
  8
0
100
AcDbPolyline
 62
7
  6
CONTINUOUS
 90
3
 70
0
 10
267.7830481811
 20
336.350300389
 10
267.0940882003
 20
336.5807533025
 10
266.9227096094
 20
336.6369318726
  0
LINE
  5
50F
100
AcDbEntity
  8
0
100
AcDbLine
 62
7
  6
CONTINUOUS
 10
268.4472657017
 20
336.1204449312
 11
267.7830481811
 21
336.350300389
  0
LINE
  5
510
100
AcDbEntity
  8
1_AXIS
100
AcDbLine
 62
7
  6
CONTINUOUS
 10
223.0775642395
 20
310.1730446625
 11
223.0775642395
 21
316.8230446625
  0
LINE
  5
511
100
AcDbEntity
  8
1_AXIS
100
AcDbLine
 62
7
  6
CONTINUOUS
 10
223.0775642395
 20
341.8230446625
 11
223.0775642395
 21
348.4730446625
  0
LWPOLYLINE
  5
512
100
AcDbEntity
  8
0
100
AcDbPolyline
 62
7
  6
CONTINUOUS
 90
3
 70
0
 10
269.8902292012
 20
323.0564661332
 10
269.9123665574
 20
323.0652123493
 10
270.0603072458
 20
323.1345482158
  0
LINE
  5
513
100
AcDbEntity
  8
0
100
AcDbLine
 62
7
  6
CONTINUOUS
 10
269.7370575258
 20
322.9977558398
 11
269.8875835159
 21
323.0554420354
  0
LWPOLYLINE
  5
514
100
AcDbEntity
  8
0
100
AcDbPolyline
 62
7
  6
CONTINUOUS
 90
3
 70
0
 10
268.4875709201
 20
322.5398573323
 10
269.1250399499
 20
322.7690724179
 10
269.7370575258
 20
322.9977558398
  0
LINE
  5
515
100
AcDbEntity
  8
0
100
AcDbLine
 62
7
  6
CONTINUOUS
 10
269.0863772386
 20
335.8911669646
 11
268.4472657017
 21
336.1204449312
  0
LWPOLYLINE
  5
516
100
AcDbEntity
  8
0
100
AcDbPolyline
 62
7
  6
CONTINUOUS
 90
3
 70
0
 10
269.8875812136
 20
335.5906480953
 10
269.7000148489
 20
335.6624378752
 10
269.0863772386
 20
335.8911669646
  0
LINE
  5
517
100
AcDbEntity
  8
0
100
AcDbLine
 62
7
  6
CONTINUOUS
 10
269.9775955864
 20
335.5528524906
 11
269.8858380722
 21
335.5913183267
  0
LINE
  5
518
100
AcDbEntity
  8
0
100
AcDbLine
 62
7
  6
CONTINUOUS
 10
270.2146887147
 20
323.2348394319
 11
270.3622806359
 21
323.3726099306
  0
LINE
  5
519
100
AcDbEntity
  8
0
100
AcDbLine
 62
7
  6
CONTINUOUS
 10
270.0603072458
 20
323.1345482158
 11
270.2146887147
 21
323.2348394319
  0
LWPOLYLINE
  5
51A
100
AcDbEntity
  8
0
100
AcDbPolyline
 62
7
  6
CONTINUOUS
 90
4
 70
0
 10
270.4871081396
 20
323.5471937682
 10
270.5771612797
 20
323.7576465159
 10
270.618707318
 20
323.9961784677
 10
270.620125616
 20
324.0497583512
  0
LINE
  5
51B
100
AcDbEntity
  8
0
100
AcDbLine
 62
7
  6
CONTINUOUS
 10
270.3622806359
 20
323.3726099306
 11
270.4871081396
 21
323.5471937682
  0
LWPOLYLINE
  5
51C
100
AcDbEntity
  8
0
100
AcDbPolyline
 62
7
  6
CONTINUOUS
 90
4
 70
0
 10
270.4422223697
 20
335.1708508307
 10
270.2934955318
 20
335.3442350175
 10
270.134279306
 20
335.4678119684
 10
269.9775955864
 20
335.5528524906
  0
LWPOLYLINE
  5
51D
100
AcDbEntity
  8
0
100
AcDbPolyline
 62
7
  6
CONTINUOUS
 90
4
 70
0
 10
270.6201256576
 20
334.5963381333
 10
270.6155788617
 20
334.6922188333
 10
270.5567694456
 20
334.9492886092
 10
270.4422223697
 20
335.1708508307
  0
LINE
  5
51E
100
AcDbEntity
  8
0
100
AcDbLine
 62
7
  6
CONTINUOUS
 10
270.6201637223
 20
334.5967839783
 11
270.6201637223
 21
324.0493053345
  0
LINE
  5
51F
100
AcDbEntity
  8
1_AXIS
100
AcDbLine
 62
7
  6
CONTINUOUS
 10
299.3775642395
 20
324.0948209994
 11
299.3775642395
 21
334.5512683253
  0
LINE
  5
520
100
AcDbEntity
  8
1_AXIS
100
AcDbLine
 62
7
  6
CONTINUOUS
 10
403.7776927133
 20
49.9922821045
 11
414.2341403564
 21
49.9922821045
  0
LWPOLYLINE
  5
521
100
AcDbEntity
  8
0
100
AcDbPolyline
 62
7
  6
CONTINUOUS
 90
4
 70
0
 10
414.2792100053
 20
78.7497206864
 10
414.3750907057
 20
78.7542674824
 10
414.6321604816
 20
78.8130768986
 10
414.853722703
 20
78.9276239746
  0
LINE
  5
522
100
AcDbEntity
  8
0
100
AcDbLine
 62
7
  6
CONTINUOUS
 10
414.2796558503
 20
78.7496826217
 11
403.7321772064
 21
78.7496826217
  0
LWPOLYLINE
  5
523
100
AcDbEntity
  8
0
100
AcDbPolyline
 62
7
  6
CONTINUOUS
 90
4
 70
0
 10
403.2300656405
 20
78.8827382042
 10
403.4405183883
 20
78.7926850641
 10
403.6790503403
 20
78.751139026
 10
403.7326302232
 20
78.749720728
  0
LWPOLYLINE
  5
524
100
AcDbEntity
  8
0
100
AcDbPolyline
 62
7
  6
CONTINUOUS
 90
4
 70
0
 10
403.1579879011
 20
248.6568625868
 10
402.9843722836
 20
248.5078245061
 10
402.8608149734
 20
248.3484716631
 10
402.7758585894
 20
248.1917771955
  0
LINE
  5
525
100
AcDbEntity
  8
0
100
AcDbLine
 62
7
  6
CONTINUOUS
 10
403.0554818028
 20
79.0075657079
 11
403.2300656405
 21
78.8827382042
  0
LINE
  5
526
100
AcDbEntity
  8
0
100
AcDbLine
 62
7
  6
CONTINUOUS
 10
402.9177113039
 20
79.1551576292
 11
403.0554818028
 21
79.0075657079
  0
LINE
  5
527
100
AcDbEntity
  8
0
100
AcDbLine
 62
7
  6
CONTINUOUS
 10
402.8174200877
 20
79.3095390982
 11
402.9177113039
 21
79.1551576292
  0
LWPOLYLINE
  5
528
100
AcDbEntity
  8
0
100
AcDbPolyline
 62
7
  6
CONTINUOUS
 90
3
 70
0
 10
401.6918838203
 20
245.1369924699
 10
401.6332217456
 20
244.9392218455
 10
401.5472677428
 20
244.5254295066
  0
LWPOLYLINE
  5
529
100
AcDbEntity
  8
0
100
AcDbPolyline
 62
7
  6
CONTINUOUS
 90
3
 70
0
 10
401.9786107954
 20
245.997618614
 10
401.7481763782
 20
245.3087105173
 10
401.6920293039
 20
245.1374279166
  0
LINE
  5
52A
100
AcDbEntity
  8
0
100
AcDbLine
 62
7
  6
CONTINUOUS
 10
402.2084608314
 20
246.6618260503
 11
401.9786107954
 21
245.997618614
  0
LINE
  5
52B
100
AcDbEntity
  8
0
100
AcDbLine
 62
7
  6
CONTINUOUS
 10
402.4377434809
 20
247.3009565777
 11
402.2084608314
 21
246.6618260503
  0
LWPOLYLINE
  5
52C
100
AcDbEntity
  8
0
100
AcDbPolyline
 62
7
  6
CONTINUOUS
 90
3
 70
0
 10
402.7383131079
 20
248.1022992084
 10
402.6664910377
 20
247.9146481129
 10
402.4377434809
 20
247.3009565777
  0
LINE
  5
52D
100
AcDbEntity
  8
0
100
AcDbLine
 62
7
  6
CONTINUOUS
 10
402.7758585894
 20
248.1917771955
 11
402.7376179226
 21
248.100489083
  0
LINE
  5
52E
100
AcDbEntity
  8
1_AXIS
100
AcDbLine
 62
7
  6
CONTINUOUS
 10
389.8559165344
 20
126.2922821045
 11
396.5059165344
 21
126.2922821045
  0
LINE
  5
52F
100
AcDbEntity
  8
1_AXIS
100
AcDbLine
 62
7
  6
CONTINUOUS
 10
421.5059165344
 20
126.2922821045
 11
428.1559165344
 21
126.2922821045
  0
LWPOLYLINE
  5
530
100
AcDbEntity
  8
0
100
AcDbPolyline
 62
7
  6
CONTINUOUS
 90
3
 70
0
 10
402.7393380052
 20
79.4796171429
 10
402.7480842212
 20
79.4574797868
 10
402.8174200877
 20
79.3095390982
  0
LINE
  5
531
100
AcDbEntity
  8
0
100
AcDbLine
 62
7
  6
CONTINUOUS
 10
402.6806277118
 20
79.6327888182
 11
402.7383139074
 21
79.4822628281
  0
LWPOLYLINE
  5
532
100
AcDbEntity
  8
0
100
AcDbPolyline
 62
7
  6
CONTINUOUS
 90
3
 70
0
 10
402.2227292043
 20
80.8822754239
 10
402.4519442899
 20
80.2448063941
 10
402.6806277118
 20
79.6327888182
  0
LINE
  5
533
100
AcDbEntity
  8
0
100
AcDbLine
 62
7
  6
CONTINUOUS
 10
401.9929499803
 20
81.544832439
 11
402.2227292043
 21
80.8822754239
  0
LINE
  5
534
100
AcDbEntity
  8
0
100
AcDbLine
 62
7
  6
CONTINUOUS
 10
401.7625871354
 20
82.2321068521
 11
401.9929499803
 21
81.544832439
  0
LINE
  5
535
100
AcDbEntity
  8
0
100
AcDbLine
 62
7
  6
CONTINUOUS
 10
401.6920294764
 20
82.4471357436
 11
401.7625871354
 21
82.2321068521
  0
LINE
  5
536
100
AcDbEntity
  8
0
100
AcDbLine
 62
7
  6
CONTINUOUS
 10
401.6482385476
 20
82.5907817935
 11
401.6919251775
 21
82.4474448396
  0
LINE
  5
537
100
AcDbEntity
  8
1_AXIS
100
AcDbLine
 62
7
  6
CONTINUOUS
 10
387.8559165344
 20
199.2922821045
 11
387.8559165344
 21
128.2922821045
  0
LINE
  5
538
100
AcDbEntity
  8
0
100
AcDbLine
 62
7
  6
CONTINUOUS
 10
401.5472677428
 20
244.5254295066
 11
401.5084186545
 21
244.1049672018
  0
LINE
  5
539
100
AcDbEntity
  8
1_AXIS
100
AcDbLine
 62
7
  6
CONTINUOUS
 10
401.6578390043
 20
270.3287638812
 11
402.7928439403
 21
276.7656967397
  0
LINE
  5
53A
100
AcDbEntity
  8
1_AXIS
100
AcDbLine
 62
7
  6
CONTINUOUS
 10
401.6578390043
 20
57.2558003278
 11
402.7928761032
 21
50.8186850644
  0
LWPOLYLINE
  5
53B
100
AcDbEntity
  8
0
100
AcDbPolyline
 62
7
  6
CONTINUOUS
 90
4
 70
0
 10
401.5059341591
 20
83.6189407852
 10
401.5108966614
 20
83.4228267937
 10
401.5560325904
 20
83.0033823483
 10
401.6482385476
 20
82.5907817935
  0
LINE
  5
53C
100
AcDbEntity
  8
1_AXIS
100
AcDbLine
 62
7
  6
CONTINUOUS
 10
401.5059165344
 20
268.592001125
 11
401.5059165344
 21
268.2077952973
  0
LINE
  5
53D
100
AcDbEntity
  8
1_AXIS
100
AcDbLine
 62
7
  6
CONTINUOUS
 10
401.5059165344
 20
243.9671473789
 11
401.5059165344
 21
231.2832517095
  0
LINE
  5
53E
100
AcDbEntity
  8
1_AXIS
100
AcDbLine
 62
7
  6
CONTINUOUS
 10
401.5059165344
 20
172.7611507442
 11
401.5059165344
 21
154.8234134648
  0
LINE
  5
53F
100
AcDbEntity
  8
1_AXIS
100
AcDbLine
 62
7
  6
CONTINUOUS
 10
401.5059165344
 20
96.3013124995
 11
401.5059165344
 21
83.6174168301
  0
LINE
  5
540
100
AcDbEntity
  8
1_AXIS
100
AcDbLine
 62
7
  6
CONTINUOUS
 10
401.5059165344
 20
59.3767689117
 11
401.5059165344
 21
59.0001334786
  0
LINE
  5
541
100
AcDbEntity
  8
0
100
AcDbLine
 62
7
  6
CONTINUOUS
 10
401.5059165344
 20
58.9922821045
 11
401.5059165344
 21
268.5922146579
  0
LINE
  5
542
100
AcDbEntity
  8
0
100
AcDbLine
 62
7
  6
CONTINUOUS
 10
401.5084186545
 20
244.1049672018
 11
401.5059338744
 21
243.9663359317
  0
LINE
  5
543
100
AcDbEntity
  8
1_AXIS
100
AcDbLine
 62
2
  6
CENTER
 10
385.8559165344
 20
163.7922821045
 11
432.1559165344
 21
163.7922821045
  0
LWPOLYLINE
  5
544
100
AcDbEntity
  8
0
100
AcDbPolyline
 62
7
  6
CONTINUOUS
 90
4
 70
0
 10
416.5059202645
 20
243.9657142018
 10
416.5008322473
 20
244.1640783481
 10
416.4553802887
 20
244.5837108062
 10
416.3629497188
 20
244.9959970688
  0
LINE
  5
545
100
AcDbEntity
  8
1_AXIS
100
AcDbLine
 62
7
  6
CONTINUOUS
 10
416.5059165344
 20
59.3767689117
 11
416.5059165344
 21
59.0001334786
  0
LINE
  5
546
100
AcDbEntity
  8
0
100
AcDbLine
 62
7
  6
CONTINUOUS
 10
416.5059165344
 20
58.9922821045
 11
416.5059165344
 21
268.5922146358
  0
LINE
  5
547
100
AcDbEntity
  8
0
100
AcDbLine
 62
7
  6
CONTINUOUS
 10
416.503348356
 20
83.4772629829
 11
416.5059205589
 21
83.6181174269
  0
LINE
  5
548
100
AcDbEntity
  8
0
100
AcDbLine
 62
7
  6
CONTINUOUS
 10
416.4641851239
 20
83.0566018989
 11
416.503348356
 21
83.4772629829
  0
LINE
  5
549
100
AcDbEntity
  8
1_AXIS
100
AcDbLine
 62
7
  6
CONTINUOUS
 10
430.1559165344
 20
128.2922821045
 11
430.1559165344
 21
199.2922821045
  0
LINE
  5
54A
100
AcDbEntity
  8
1_AXIS
100
AcDbLine
 62
7
  6
CONTINUOUS
 10
415.2189570103
 20
50.8186853177
 11
416.3539940645
 21
57.2558003278
  0
LWPOLYLINE
  5
54B
100
AcDbEntity
  8
0
100
AcDbPolyline
 62
7
  6
CONTINUOUS
 90
3
 70
0
 10
416.3199217916
 20
82.4475461408
 10
416.3779986489
 20
82.6431062834
 10
416.4641851239
 20
83.0566018989
  0
LWPOLYLINE
  5
54C
100
AcDbEntity
  8
0
100
AcDbPolyline
 62
7
  6
CONTINUOUS
 90
3
 70
0
 10
416.0331722609
 20
81.5867981629
 10
416.2636251745
 20
82.2757581436
 10
416.3198037445
 20
82.4471367346
  0
LINE
  5
54D
100
AcDbEntity
  8
0
100
AcDbLine
 62
7
  6
CONTINUOUS
 10
415.8033168031
 20
80.9225806423
 11
416.0331722609
 21
81.5867981629
  0
LINE
  5
54E
100
AcDbEntity
  8
0
100
AcDbLine
 62
7
  6
CONTINUOUS
 10
416.0188446508
 20
246.0398448697
 11
415.7890608821
 21
246.7024107092
  0
LINE
  5
54F
100
AcDbEntity
  8
0
100
AcDbLine
 62
7
  6
CONTINUOUS
 10
416.2492216539
 20
245.3525307576
 11
416.0188446508
 21
246.0398448697
  0
LINE
  5
550
100
AcDbEntity
  8
0
100
AcDbLine
 62
7
  6
CONTINUOUS
 10
416.3198036084
 20
245.1374278451
 11
416.2492216539
 21
245.3525307576
  0
LINE
  5
551
100
AcDbEntity
  8
0
100
AcDbLine
 62
7
  6
CONTINUOUS
 10
416.3629497188
 20
244.9959970688
 11
416.3198807505
 21
245.1371440247
  0
LINE
  5
552
100
AcDbEntity
  8
1_AXIS
100
AcDbLine
 62
7
  6
CONTINUOUS
 10
415.2189895781
 20
276.7656941904
 11
416.3539940645
 21
270.3287638812
  0
LINE
  5
553
100
AcDbEntity
  8
0
100
AcDbLine
 62
7
  6
CONTINUOUS
 10
415.5740388366
 20
80.2834691053
 11
415.8033168031
 21
80.9225806423
  0
LWPOLYLINE
  5
554
100
AcDbEntity
  8
0
100
AcDbPolyline
 62
7
  6
CONTINUOUS
 90
3
 70
0
 10
415.2735199673
 20
79.4822651304
 10
415.3453097471
 20
79.669831495
 10
415.5740388366
 20
80.2834691053
  0
LINE
  5
555
100
AcDbEntity
  8
0
100
AcDbLine
 62
7
  6
CONTINUOUS
 10
415.2357243628
 20
79.392250758
 11
415.2741901987
 21
79.4840082718
  0
LINE
  5
556
100
AcDbEntity
  8
1_AXIS
100
AcDbLine
 62
7
  6
CONTINUOUS
 10
389.8559165344
 20
201.2922821045
 11
396.5059165344
 21
201.2922821045
  0
LINE
  5
557
100
AcDbEntity
  8
1_AXIS
100
AcDbLine
 62
7
  6
CONTINUOUS
 10
421.5059165344
 20
201.2922821045
 11
428.1559165344
 21
201.2922821045
  0
LWPOLYLINE
  5
558
100
AcDbEntity
  8
0
100
AcDbPolyline
 62
7
  6
CONTINUOUS
 90
3
 70
0
 10
415.272465245
 20
248.1050219109
 10
415.2637283558
 20
248.1271360469
 10
415.1943940794
 20
248.2750643422
  0
LINE
  5
559
100
AcDbEntity
  8
0
100
AcDbLine
 62
7
  6
CONTINUOUS
 10
415.3311800131
 20
247.9518414548
 11
415.2735192306
 21
248.1023008606
  0
LWPOLYLINE
  5
55A
100
AcDbEntity
  8
0
100
AcDbPolyline
 62
7
  6
CONTINUOUS
 90
3
 70
0
 10
415.7890608821
 20
246.7024107092
 10
415.5598491474
 20
247.3398657433
 10
415.3311800131
 20
247.9518414548
  0
LINE
  5
55B
100
AcDbEntity
  8
0
100
AcDbLine
 62
7
  6
CONTINUOUS
 10
415.0942390858
 20
248.429243824
 11
414.9566984944
 21
248.5766860016
  0
LINE
  5
55C
100
AcDbEntity
  8
0
100
AcDbLine
 62
7
  6
CONTINUOUS
 10
415.1943940794
 20
248.2750643422
 11
415.0942390858
 21
248.429243824
  0
LWPOLYLINE
  5
55D
100
AcDbEntity
  8
0
100
AcDbPolyline
 62
7
  6
CONTINUOUS
 90
4
 70
0
 10
414.853722703
 20
78.9276239746
 10
415.0271068897
 20
79.0763508125
 10
415.1506838406
 20
79.2355670384
 10
415.2357243628
 20
79.392250758
  0
LWPOLYLINE
  5
55E
100
AcDbEntity
  8
0
100
AcDbPolyline
 62
7
  6
CONTINUOUS
 90
4
 70
0
 10
414.7822659651
 20
248.7015534709
 10
414.5719144178
 20
248.7917141557
 10
414.3335091203
 20
248.8333989732
 10
414.2792416688
 20
248.8348546961
  0
LINE
  5
55F
100
AcDbEntity
  8
0
100
AcDbLine
 62
7
  6
CONTINUOUS
 10
414.9566984944
 20
248.5766860016
 11
414.7822659651
 21
248.7015534709
  0
LWPOLYLINE
  5
560
100
AcDbEntity
  8
0
100
AcDbPolyline
 62
7
  6
CONTINUOUS
 90
4
 70
0
 10
403.7325873788
 20
248.8348547514
 10
403.6375397987
 20
248.8303854995
 10
403.3799639723
 20
248.7716102881
 10
403.1579879011
 20
248.6568625868
  0
LINE
  5
561
100
AcDbEntity
  8
0
100
AcDbLine
 62
7
  6
CONTINUOUS
 10
414.2796300685
 20
248.8348815873
 11
403.7322030197
 21
248.8348815873
  0
LINE
  5
562
100
AcDbEntity
  8
1_AXIS
100
AcDbLine
 62
7
  6
CONTINUOUS
 10
403.777692299
 20
277.5922821045
 11
414.2341407637
 21
277.5922821045
  0
ARC
  5
563
100
AcDbEntity
  8
0
100
AcDbCircle
 62
7
  6
CONTINUOUS
 10
102.5349647567
 20
88.9379791478
 40
2.0
100
AcDbArc
 50
155.2118058223
 51
222.0313860768
  0
ARC
  5
564
100
AcDbEntity
  8
0
100
AcDbCircle
 62
7
  6
CONTINUOUS
 10
110.7232612828
 20
80.7496826217
 40
2.0
100
AcDbArc
 50
227.9686139232
 51
294.7881941777
  0
ARC
  5
565
100
AcDbEntity
  8
0
100
AcDbCircle
 62
7
  6
CONTINUOUS
 10
94.4843421276
 20
113.7461817926
 40
61.5
100
AcDbArc
 50
96.5572322699
 51
110.2118058223
  0
ARC
  5
566
100
AcDbEntity
  8
0
100
AcDbCircle
 62
7
  6
CONTINUOUS
 10
93.4529240462
 20
125.6330067077
 40
18.0
100
AcDbArc
 50
340.2880285503
 51
64.7119714497
  0
ARC
  5
567
100
AcDbEntity
  8
0
100
AcDbCircle
 62
7
  6
CONTINUOUS
 10
85.7769922615
 20
134.7675839315
 40
61.5
100
AcDbArc
 50
294.7881941777
 51
308.4427677301
  0
ARC
  5
568
100
AcDbEntity
  8
0
100
AcDbCircle
 62
7
  6
CONTINUOUS
 10
85.8625722395
 20
138.8322821045
 40
14.0
100
AcDbArc
 50
23.5672438506
 51
83.4427677301
  0
ARC
  5
569
100
AcDbEntity
  8
0
100
AcDbCircle
 62
7
  6
CONTINUOUS
 10
73.9275937962
 20
158.0022821045
 40
2.0
100
AcDbArc
 50
182.9686139232
 51
249.7881941777
  0
ARC
  5
56A
100
AcDbEntity
  8
0
100
AcDbCircle
 62
7
  6
CONTINUOUS
 10
97.4190319519
 20
110.9325203337
 40
14.0
100
AcDbArc
 50
321.5572322699
 51
21.4327561494
  0
ARC
  5
56B
100
AcDbEntity
  8
0
100
AcDbCircle
 62
7
  6
CONTINUOUS
 10
115.1051261431
 20
117.8752915572
 40
5.0
100
AcDbArc
 50
160.2880285503
 51
201.4327561494
  0
ARC
  5
56C
100
AcDbEntity
  8
0
100
AcDbCircle
 62
7
  6
CONTINUOUS
 10
103.2778099871
 20
146.4289586274
 40
5.0
100
AcDbArc
 50
203.5672438506
 51
244.7119714497
  0
ARC
  5
56D
100
AcDbEntity
  8
0
100
AcDbCircle
 62
7
  6
CONTINUOUS
 10
135.5314639276
 20
72.6990599925
 40
61.5
100
AcDbArc
 50
339.7881941777
 51
353.4427677301
  0
ARC
  5
56E
100
AcDbEntity
  8
0
100
AcDbCircle
 62
7
  6
CONTINUOUS
 10
147.4182888427
 20
71.6676419112
 40
18.0
100
AcDbArc
 50
25.2880285503
 51
109.7119714497
  0
ARC
  5
56F
100
AcDbEntity
  8
0
100
AcDbCircle
 62
7
  6
CONTINUOUS
 10
132.7178024688
 20
75.6337498169
 40
14.0
100
AcDbArc
 50
68.5672438506
 51
128.4427677301
  0
ARC
  5
570
100
AcDbEntity
  8
0
100
AcDbCircle
 62
7
  6
CONTINUOUS
 10
139.6605736923
 20
93.3198440081
 40
5.0
100
AcDbArc
 50
248.5672438506
 51
289.7119714497
  0
ARC
  5
571
100
AcDbEntity
  8
0
100
AcDbCircle
 62
7
  6
CONTINUOUS
 10
156.5528660665
 20
63.9917101265
 40
61.5
100
AcDbArc
 50
141.5572322699
 51
155.2118058223
  0
ARC
  5
572
100
AcDbEntity
  8
0
100
AcDbCircle
 62
7
  6
CONTINUOUS
 10
160.6175642395
 20
64.0772901045
 40
14.0
100
AcDbArc
 50
6.5572322699
 51
66.4327561494
  0
ARC
  5
573
100
AcDbEntity
  8
0
100
AcDbCircle
 62
7
  6
CONTINUOUS
 10
179.7875642395
 20
52.1423116611
 40
2.0
100
AcDbArc
 50
200.2118058223
 51
267.0313860768
  0
ARC
  5
574
100
AcDbEntity
  8
0
100
AcDbCircle
 62
7
  6
CONTINUOUS
 10
168.2142407624
 20
81.4925278521
 40
5.0
100
AcDbArc
 50
205.2880285503
 51
246.4327561494
  0
ARC
  5
575
100
AcDbEntity
  8
0
100
AcDbCircle
 62
7
  6
CONTINUOUS
 10
85.7769922615
 20
192.8169802775
 40
61.5
100
AcDbArc
 50
51.5572322699
 51
65.2118058223
  0
ARC
  5
576
100
AcDbEntity
  8
0
100
AcDbCircle
 62
7
  6
CONTINUOUS
 10
85.8625722395
 20
188.7522821045
 40
14.0
100
AcDbArc
 50
276.5572322699
 51
336.4327561494
  0
ARC
  5
577
100
AcDbEntity
  8
0
100
AcDbCircle
 62
7
  6
CONTINUOUS
 10
73.9275937962
 20
169.5822821045
 40
2.0
100
AcDbArc
 50
110.2118058223
 51
177.0313860768
  0
ARC
  5
578
100
AcDbEntity
  8
0
100
AcDbCircle
 62
7
  6
CONTINUOUS
 10
94.4843421276
 20
213.8383824164
 40
61.5
100
AcDbArc
 50
249.7881941777
 51
263.4427677301
  0
ARC
  5
579
100
AcDbEntity
  8
0
100
AcDbCircle
 62
7
  6
CONTINUOUS
 10
93.4529240462
 20
201.9515575013
 40
18.0
100
AcDbArc
 50
295.2880285503
 51
19.7119714497
  0
ARC
  5
57A
100
AcDbEntity
  8
0
100
AcDbCircle
 62
7
  6
CONTINUOUS
 10
103.2778099871
 20
181.1556055816
 40
5.0
100
AcDbArc
 50
115.2880285503
 51
156.4327561494
  0
ARC
  5
57B
100
AcDbEntity
  8
0
100
AcDbCircle
 62
7
  6
CONTINUOUS
 10
97.4190319519
 20
216.6520438752
 40
14.0
100
AcDbArc
 50
338.5672438506
 51
38.4427677301
  0
ARC
  5
57C
100
AcDbEntity
  8
0
100
AcDbCircle
 62
7
  6
CONTINUOUS
 10
115.1051261431
 20
209.7092726517
 40
5.0
100
AcDbArc
 50
158.5672438506
 51
199.7119714497
  0
ARC
  5
57D
100
AcDbEntity
  8
0
100
AcDbCircle
 62
7
  6
CONTINUOUS
 10
102.5349647567
 20
238.6465850612
 40
2.0
100
AcDbArc
 50
137.9686139232
 51
204.7881941777
  0
ARC
  5
57E
100
AcDbEntity
  8
0
100
AcDbCircle
 62
7
  6
CONTINUOUS
 10
110.7232612828
 20
246.8348815873
 40
2.0
100
AcDbArc
 50
65.2118058223
 51
132.0313860768
  0
ARC
  5
57F
100
AcDbEntity
  8
0
100
AcDbCircle
 62
7
  6
CONTINUOUS
 10
132.7178024688
 20
251.9508143921
 40
14.0
100
AcDbArc
 50
231.5572322699
 51
291.4327561494
  0
ARC
  5
580
100
AcDbEntity
  8
0
100
AcDbCircle
 62
7
  6
CONTINUOUS
 10
139.6605736923
 20
234.2647202009
 40
5.0
100
AcDbArc
 50
70.2880285503
 51
111.4327561494
  0
ARC
  5
581
100
AcDbEntity
  8
0
100
AcDbCircle
 62
7
  6
CONTINUOUS
 10
135.5314639276
 20
254.8855042164
 40
61.5
100
AcDbArc
 50
6.5572322699
 51
20.2118058223
  0
ARC
  5
582
100
AcDbEntity
  8
0
100
AcDbCircle
 62
7
  6
CONTINUOUS
 10
147.4182888427
 20
255.9169222978
 40
18.0
100
AcDbArc
 50
250.2880285503
 51
334.7119714497
  0
ARC
  5
583
100
AcDbEntity
  8
0
100
AcDbCircle
 62
7
  6
CONTINUOUS
 10
168.2142407624
 20
246.0920363569
 40
5.0
100
AcDbArc
 50
113.5672438506
 51
154.7119714497
  0
ARC
  5
584
100
AcDbEntity
  8
0
100
AcDbCircle
 62
7
  6
CONTINUOUS
 10
156.5528660665
 20
263.5928540825
 40
61.5
100
AcDbArc
 50
204.7881941777
 51
218.4427677301
  0
ARC
  5
585
100
AcDbEntity
  8
0
100
AcDbCircle
 62
7
  6
CONTINUOUS
 10
160.6175642395
 20
263.5072741045
 40
14.0
100
AcDbArc
 50
293.5672438506
 51
353.4427677301
  0
ARC
  5
586
100
AcDbEntity
  8
0
100
AcDbCircle
 62
7
  6
CONTINUOUS
 10
179.7875642395
 20
275.4422525478
 40
2.0
100
AcDbArc
 50
92.9686139232
 51
159.7881941777
  0
ARC
  5
587
100
AcDbEntity
  8
0
100
AcDbCircle
 62
7
  6
CONTINUOUS
 10
214.6022624125
 20
63.9917101265
 40
61.5
100
AcDbArc
 50
24.7881941777
 51
38.4427677301
  0
ARC
  5
588
100
AcDbEntity
  8
0
100
AcDbCircle
 62
7
  6
CONTINUOUS
 10
210.5375642395
 20
64.0772901045
 40
14.0
100
AcDbArc
 50
113.5672438506
 51
173.4427677301
  0
ARC
  5
589
100
AcDbEntity
  8
0
100
AcDbCircle
 62
7
  6
CONTINUOUS
 10
191.3675642395
 20
52.1423116611
 40
2.0
100
AcDbArc
 50
272.9686139232
 51
339.7881941777
  0
ARC
  5
58A
100
AcDbEntity
  8
0
100
AcDbCircle
 62
7
  6
CONTINUOUS
 10
202.9408877166
 20
81.4925278521
 40
5.0
100
AcDbArc
 50
293.5672438506
 51
334.7119714497
  0
ARC
  5
58B
100
AcDbEntity
  8
0
100
AcDbCircle
 62
7
  6
CONTINUOUS
 10
235.6236645514
 20
72.6990599925
 40
61.5
100
AcDbArc
 50
186.5572322699
 51
200.2118058223
  0
ARC
  5
58C
100
AcDbEntity
  8
0
100
AcDbCircle
 62
7
  6
CONTINUOUS
 10
223.7368396363
 20
71.6676419112
 40
18.0
100
AcDbArc
 50
70.2880285503
 51
154.7119714497
  0
ARC
  5
58D
100
AcDbEntity
  8
0
100
AcDbCircle
 62
7
  6
CONTINUOUS
 10
238.4373260102
 20
75.6337498169
 40
14.0
100
AcDbArc
 50
51.5572322699
 51
111.4327561494
  0
ARC
  5
58E
100
AcDbEntity
  8
0
100
AcDbCircle
 62
7
  6
CONTINUOUS
 10
231.4945547867
 20
93.3198440081
 40
5.0
100
AcDbArc
 50
250.2880285503
 51
291.4327561494
  0
ARC
  5
58F
100
AcDbEntity
  8
0
100
AcDbCircle
 62
7
  6
CONTINUOUS
 10
260.4318671962
 20
80.7496826217
 40
2.0
100
AcDbArc
 50
245.2118058223
 51
312.0313860768
  0
ARC
  5
590
100
AcDbEntity
  8
0
100
AcDbCircle
 62
7
  6
CONTINUOUS
 10
268.6201637223
 20
88.9379791478
 40
2.0
100
AcDbArc
 50
317.9686139232
 51
24.7881941777
  0
ARC
  5
591
100
AcDbEntity
  8
0
100
AcDbCircle
 62
7
  6
CONTINUOUS
 10
273.7360965271
 20
110.9325203337
 40
14.0
100
AcDbArc
 50
158.5672438506
 51
218.4427677301
  0
ARC
  5
592
100
AcDbEntity
  8
0
100
AcDbCircle
 62
7
  6
CONTINUOUS
 10
256.0500023359
 20
117.8752915572
 40
5.0
100
AcDbArc
 50
338.5672438506
 51
19.7119714497
  0
ARC
  5
593
100
AcDbEntity
  8
0
100
AcDbCircle
 62
7
  6
CONTINUOUS
 10
267.8773184919
 20
146.4289586274
 40
5.0
100
AcDbArc
 50
295.2880285503
 51
336.4327561494
  0
ARC
  5
594
100
AcDbEntity
  8
0
100
AcDbCircle
 62
7
  6
CONTINUOUS
 10
276.6707863514
 20
113.7461817926
 40
61.5
100
AcDbArc
 50
69.7881941777
 51
83.4427677301
  0
ARC
  5
595
100
AcDbEntity
  8
0
100
AcDbCircle
 62
7
  6
CONTINUOUS
 10
277.7022044328
 20
125.6330067077
 40
18.0
100
AcDbArc
 50
115.2880285503
 51
199.7119714497
  0
ARC
  5
596
100
AcDbEntity
  8
0
100
AcDbCircle
 62
7
  6
CONTINUOUS
 10
285.3781362175
 20
134.7675839315
 40
61.5
100
AcDbArc
 50
231.5572322699
 51
245.2118058223
  0
ARC
  5
597
100
AcDbEntity
  8
0
100
AcDbCircle
 62
7
  6
CONTINUOUS
 10
285.2925562395
 20
138.8322821045
 40
14.0
100
AcDbArc
 50
96.5572322699
 51
156.4327561494
  0
ARC
  5
598
100
AcDbEntity
  8
0
100
AcDbCircle
 62
7
  6
CONTINUOUS
 10
297.2275346828
 20
158.0022821045
 40
2.0
100
AcDbArc
 50
290.2118058223
 51
357.0313860768
  0
ARC
  5
599
100
AcDbEntity
  8
0
100
AcDbCircle
 62
7
  6
CONTINUOUS
 10
185.5775642395
 20
163.7922821045
 40
113.8
100
AcDbArc
 50
177.0313860768
 51
182.9686139232
  0
ARC
  5
59A
100
AcDbEntity
  8
0
100
AcDbCircle
 62
7
  6
CONTINUOUS
 10
185.5775642395
 20
163.7922821045
 40
113.8
100
AcDbArc
 50
132.0313860768
 51
137.9686139232
  0
ARC
  5
59B
100
AcDbEntity
  8
0
100
AcDbCircle
 62
7
  6
CONTINUOUS
 10
185.5775642395
 20
163.7922821045
 40
113.8
100
AcDbArc
 50
87.0313860768
 51
92.9686139232
  0
ARC
  5
59C
100
AcDbEntity
  8
0
100
AcDbCircle
 62
7
  6
CONTINUOUS
 10
185.5775642395
 20
163.7922821045
 40
113.8
100
AcDbArc
 50
42.0313860768
 51
47.9686139232
  0
ARC
  5
59D
100
AcDbEntity
  8
0
100
AcDbCircle
 62
7
  6
CONTINUOUS
 10
185.5775642395
 20
163.7922821045
 40
113.8
100
AcDbArc
 50
357.0313860768
 51
2.9686139232
  0
ARC
  5
59E
100
AcDbEntity
  8
0
100
AcDbCircle
 62
7
  6
CONTINUOUS
 10
185.5775642395
 20
163.7922821045
 40
113.8
100
AcDbArc
 50
312.0313860768
 51
317.9686139232
  0
ARC
  5
59F
100
AcDbEntity
  8
0
100
AcDbCircle
 62
7
  6
CONTINUOUS
 10
185.5775642395
 20
163.7922821045
 40
113.8
100
AcDbArc
 50
222.0313860768
 51
227.9686139232
  0
ARC
  5
5A0
100
AcDbEntity
  8
0
100
AcDbCircle
 62
7
  6
CONTINUOUS
 10
185.5775642395
 20
163.7922821045
 40
113.8
100
AcDbArc
 50
267.0313860768
 51
272.9686139232
  0
CIRCLE
  5
5A1
100
AcDbEntity
  8
1_AXIS
100
AcDbCircle
 62
7
  6
CONTINUOUS
 10
185.5775642395
 20
163.7922821045
 40
37.5
  0
ARC
  5
5A2
100
AcDbEntity
  8
0
100
AcDbCircle
 62
7
  6
CONTINUOUS
 10
202.9408877166
 20
246.0920363569
 40
5.0
100
AcDbArc
 50
25.2880285503
 51
66.4327561494
  0
ARC
  5
5A3
100
AcDbEntity
  8
0
100
AcDbCircle
 62
7
  6
CONTINUOUS
 10
210.5375642395
 20
263.5072741045
 40
14.0
100
AcDbArc
 50
186.5572322699
 51
246.4327561494
  0
CIRCLE
  5
5A4
100
AcDbEntity
  8
0
100
AcDbCircle
 62
7
  6
CONTINUOUS
 10
185.5775642395
 20
258.7922821045
 40
2.5980762114
  0
ARC
  5
5A5
100
AcDbEntity
  8
0
100
AcDbCircle
 62
7
  6
CONTINUOUS
 10
191.3675642395
 20
275.4422525478
 40
2.0
100
AcDbArc
 50
20.2118058223
 51
87.0313860768
  0
ARC
  5
5A6
100
AcDbEntity
  8
0
100
AcDbCircle
 62
7
  6
CONTINUOUS
 10
238.4373260102
 20
251.9508143921
 40
14.0
100
AcDbArc
 50
248.5672438506
 51
308.4427677301
  0
ARC
  5
5A7
100
AcDbEntity
  8
0
100
AcDbCircle
 62
7
  6
CONTINUOUS
 10
231.4945547867
 20
234.2647202009
 40
5.0
100
AcDbArc
 50
68.5672438506
 51
109.7119714497
  0
ARC
  5
5A8
100
AcDbEntity
  8
0
100
AcDbCircle
 62
7
  6
CONTINUOUS
 10
235.6236645514
 20
254.8855042164
 40
61.5
100
AcDbArc
 50
159.7881941777
 51
173.4427677301
  0
ARC
  5
5A9
100
AcDbEntity
  8
0
100
AcDbCircle
 62
7
  6
CONTINUOUS
 10
214.6022624125
 20
263.5928540825
 40
61.5
100
AcDbArc
 50
321.5572322699
 51
335.2118058223
  0
ARC
  5
5AA
100
AcDbEntity
  8
0
100
AcDbCircle
 62
7
  6
CONTINUOUS
 10
223.7368396363
 20
255.9169222978
 40
18.0
100
AcDbArc
 50
205.2880285503
 51
289.7119714497
  0
ARC
  5
5AB
100
AcDbEntity
  8
0
100
AcDbCircle
 62
7
  6
CONTINUOUS
 10
267.8773184919
 20
181.1556055816
 40
5.0
100
AcDbArc
 50
23.5672438506
 51
64.7119714497
  0
ARC
  5
5AC
100
AcDbEntity
  8
0
100
AcDbCircle
 62
7
  6
CONTINUOUS
 10
273.7360965271
 20
216.6520438752
 40
14.0
100
AcDbArc
 50
141.5572322699
 51
201.4327561494
  0
ARC
  5
5AD
100
AcDbEntity
  8
0
100
AcDbCircle
 62
7
  6
CONTINUOUS
 10
256.0500023359
 20
209.7092726517
 40
5.0
100
AcDbArc
 50
340.2880285503
 51
21.4327561494
  0
ARC
  5
5AE
100
AcDbEntity
  8
0
100
AcDbCircle
 62
7
  6
CONTINUOUS
 10
285.3781362175
 20
192.8169802775
 40
61.5
100
AcDbArc
 50
114.7881941777
 51
128.4427677301
  0
ARC
  5
5AF
100
AcDbEntity
  8
0
100
AcDbCircle
 62
7
  6
CONTINUOUS
 10
285.2925562395
 20
188.7522821045
 40
14.0
100
AcDbArc
 50
203.5672438506
 51
263.4427677301
  0
ARC
  5
5B0
100
AcDbEntity
  8
0
100
AcDbCircle
 62
7
  6
CONTINUOUS
 10
297.2275346828
 20
169.5822821045
 40
2.0
100
AcDbArc
 50
2.9686139232
 51
69.7881941777
  0
ARC
  5
5B1
100
AcDbEntity
  8
0
100
AcDbCircle
 62
7
  6
CONTINUOUS
 10
276.6707863514
 20
213.8383824164
 40
61.5
100
AcDbArc
 50
276.5572322699
 51
290.2118058223
  0
ARC
  5
5B2
100
AcDbEntity
  8
0
100
AcDbCircle
 62
7
  6
CONTINUOUS
 10
277.7022044328
 20
201.9515575013
 40
18.0
100
AcDbArc
 50
160.2880285503
 51
244.7119714497
  0
ARC
  5
5B3
100
AcDbEntity
  8
0
100
AcDbCircle
 62
7
  6
CONTINUOUS
 10
268.6201637223
 20
238.6465850612
 40
2.0
100
AcDbArc
 50
335.2118058223
 51
42.0313860768
  0
ARC
  5
5B4
100
AcDbEntity
  8
0
100
AcDbCircle
 62
7
  6
CONTINUOUS
 10
260.4318671962
 20
246.8348815873
 40
2.0
100
AcDbArc
 50
47.9686139232
 51
114.7881941777
  0
ARC
  5
5B5
100
AcDbEntity
  8
0
100
AcDbCircle
 62
7
  6
CONTINUOUS
 10
289.9914744325
 20
326.3778982126
 40
10.4451465729
100
AcDbArc
 50
80.2159346194
 51
89.9912069088
  0
ARC
  5
5B6
100
AcDbEntity
  8
0
100
AcDbCircle
 62
7
  6
CONTINUOUS
 10
289.9928464822
 20
332.253009042
 40
10.4299643821
100
AcDbArc
 50
270.0012686976
 51
279.7911660037
  0
ARC
  5
5B7
100
AcDbEntity
  8
0
100
AcDbCircle
 62
7
  6
CONTINUOUS
 10
81.1622566536
 20
326.3936772977
 40
10.4293673668
100
AcDbArc
 50
90.001129542
 51
99.7910060973
  0
ARC
  5
5B8
100
AcDbEntity
  8
0
100
AcDbCircle
 62
7
  6
CONTINUOUS
 10
81.1620468729
 20
332.2440928676
 40
10.4210482051
100
AcDbArc
 50
260.2120746402
 51
270.0000229477
  0
ARC
  5
5B9
100
AcDbEntity
  8
1_AXIS
100
AcDbCircle
 62
7
  6
CONTINUOUS
 10
80.7775642395
 20
331.8230446625
 40
10.0
100
AcDbArc
 50
260.0
 51
270.0
  0
ARC
  5
5BA
100
AcDbEntity
  8
1_AXIS
100
AcDbCircle
 62
7
  6
CONTINUOUS
 10
290.3775642395
 20
331.8230446625
 40
10.0
100
AcDbArc
 50
270.0
 51
280.0
  0
ARC
  5
5BB
100
AcDbEntity
  8
1_AXIS
100
AcDbCircle
 62
7
  6
CONTINUOUS
 10
80.7775642395
 20
326.8230446625
 40
10.0
100
AcDbArc
 50
90.0
 51
100.0
  0
ARC
  5
5BC
100
AcDbEntity
  8
1_AXIS
100
AcDbCircle
 62
7
  6
CONTINUOUS
 10
290.3775642395
 20
326.8230446625
 40
10.0
100
AcDbArc
 50
80.0
 51
90.0
  0
ARC
  5
5BD
100
AcDbEntity
  8
1_AXIS
100
AcDbCircle
 62
7
  6
CONTINUOUS
 10
143.0775642395
 20
316.8230446625
 40
5.0
100
AcDbArc
 50
0.0
 51
90.0
  0
ARC
  5
5BE
100
AcDbEntity
  8
1_AXIS
100
AcDbCircle
 62
7
  6
CONTINUOUS
 10
143.0775642395
 20
341.8230446625
 40
5.0
100
AcDbArc
 50
270.0
 51
360.0
  0
ARC
  5
5BF
100
AcDbEntity
  8
1_AXIS
100
AcDbCircle
 62
7
  6
CONTINUOUS
 10
228.0775642395
 20
316.8230446625
 40
5.0
100
AcDbArc
 50
90.0
 51
180.0
  0
ARC
  5
5C0
100
AcDbEntity
  8
1_AXIS
100
AcDbCircle
 62
7
  6
CONTINUOUS
 10
228.0775642395
 20
341.8230446625
 40
5.0
100
AcDbArc
 50
180.0
 51
270.0
  0
ARC
  5
5C1
100
AcDbEntity
  8
1_AXIS
100
AcDbCircle
 62
7
  6
CONTINUOUS
 10
150.0775642395
 20
310.1730446625
 40
2.0
100
AcDbArc
 50
180.0
 51
270.0
  0
ARC
  5
5C2
100
AcDbEntity
  8
1_AXIS
100
AcDbCircle
 62
7
  6
CONTINUOUS
 10
150.0775642395
 20
348.4730446625
 40
2.0
100
AcDbArc
 50
90.0
 51
180.0
  0
ARC
  5
5C3
100
AcDbEntity
  8
1_AXIS
100
AcDbCircle
 62
7
  6
CONTINUOUS
 10
221.0775642395
 20
310.1730446625
 40
2.0
100
AcDbArc
 50
270.0
 51
360.0
  0
ARC
  5
5C4
100
AcDbEntity
  8
1_AXIS
100
AcDbCircle
 62
7
  6
CONTINUOUS
 10
221.0775642395
 20
348.4730446625
 40
2.0
100
AcDbArc
 50
0.0
 51
90.0
  0
ARC
  5
5C5
100
AcDbEntity
  8
0
100
AcDbCircle
 62
7
  6
CONTINUOUS
 10
72.7775642395
 20
324.0948210012
 40
1.0
100
AcDbArc
 50
180.0
 51
260.0000541476
  0
ARC
  5
5C6
100
AcDbEntity
  8
0
100
AcDbCircle
 62
7
  6
CONTINUOUS
 10
298.3775642395
 20
324.0948210012
 40
1.0
100
AcDbArc
 50
279.9999673105
 51
360.0
  0
ARC
  5
5C7
100
AcDbEntity
  8
0
100
AcDbCircle
 62
7
  6
CONTINUOUS
 10
298.3775642395
 20
334.5512683238
 40
1.0
100
AcDbArc
 50
0.0
 51
80.0000274781
  0
ARC
  5
5C8
100
AcDbEntity
  8
0
100
AcDbCircle
 62
7
  6
CONTINUOUS
 10
72.7775642395
 20
334.5512683238
 40
1.0
100
AcDbArc
 50
99.9999446245
 51
180.0
  0
ARC
  5
5C9
100
AcDbEntity
  8
0
100
AcDbCircle
 62
7
  6
CONTINUOUS
 10
406.0857945576
 20
59.3767325912
 40
10.4201219769
100
AcDbArc
 50
350.2121663094
 51
0.0001997104
  0
ARC
  5
5CA
100
AcDbEntity
  8
1_AXIS
100
AcDbCircle
 62
7
  6
CONTINUOUS
 10
406.5059165344
 20
58.9922821045
 40
10.0
100
AcDbArc
 50
350.0
 51
360.0
  0
ARC
  5
5CB
100
AcDbEntity
  8
1_AXIS
100
AcDbCircle
 62
7
  6
CONTINUOUS
 10
396.5059165344
 20
121.2922821045
 40
5.0
100
AcDbArc
 50
0.0
 51
90.0
  0
ARC
  5
5CC
100
AcDbEntity
  8
1_AXIS
100
AcDbCircle
 62
7
  6
CONTINUOUS
 10
389.8559165344
 20
128.2922821045
 40
2.0
100
AcDbArc
 50
180.0
 51
270.0
  0
ARC
  5
5CD
100
AcDbEntity
  8
0
100
AcDbCircle
 62
7
  6
CONTINUOUS
 10
403.7776928731
 20
50.9922821045
 40
1.0
100
AcDbArc
 50
189.9970248082
 51
270.0
  0
ARC
  5
5CE
100
AcDbEntity
  8
0
100
AcDbCircle
 62
7
  6
CONTINUOUS
 10
406.0607724935
 20
268.2061925039
 40
10.4451441639
100
AcDbArc
 50
0.0087919612
 51
9.7840665107
  0
ARC
  5
5CF
100
AcDbEntity
  8
1_AXIS
100
AcDbCircle
 62
7
  6
CONTINUOUS
 10
406.5059165344
 20
268.5922821045
 40
10.0
100
AcDbArc
 50
0.0
 51
10.0
  0
ARC
  5
5D0
100
AcDbEntity
  8
1_AXIS
100
AcDbCircle
 62
7
  6
CONTINUOUS
 10
396.5059165344
 20
206.2922821045
 40
5.0
100
AcDbArc
 50
270.0
 51
360.0
  0
ARC
  5
5D1
100
AcDbEntity
  8
1_AXIS
100
AcDbCircle
 62
7
  6
CONTINUOUS
 10
389.8559165344
 20
199.2922821045
 40
2.0
100
AcDbArc
 50
90.0
 51
180.0
  0
ARC
  5
5D2
100
AcDbEntity
  8
0
100
AcDbCircle
 62
7
  6
CONTINUOUS
 10
403.7776928731
 20
276.5922821045
 40
1.0
100
AcDbArc
 50
90.0
 51
170.0135880011
  0
ARC
  5
5D3
100
AcDbEntity
  8
0
100
AcDbCircle
 62
7
  6
CONTINUOUS
 10
411.935880914
 20
59.3769998618
 40
10.4299643821
100
AcDbArc
 50
180.0012686976
 51
189.7911660037
  0
ARC
  5
5D4
100
AcDbEntity
  8
1_AXIS
100
AcDbCircle
 62
7
  6
CONTINUOUS
 10
411.5059165344
 20
58.9922821045
 40
10.0
100
AcDbArc
 50
180.0
 51
190.0
  0
ARC
  5
5D5
100
AcDbEntity
  8
1_AXIS
100
AcDbCircle
 62
7
  6
CONTINUOUS
 10
421.5059165344
 20
121.2922821045
 40
5.0
100
AcDbArc
 50
90.0
 51
180.0
  0
ARC
  5
5D6
100
AcDbEntity
  8
1_AXIS
100
AcDbCircle
 62
7
  6
CONTINUOUS
 10
428.1559165344
 20
128.2922821045
 40
2.0
100
AcDbArc
 50
270.0
 51
360.0
  0
ARC
  5
5D7
100
AcDbEntity
  8
0
100
AcDbCircle
 62
7
  6
CONTINUOUS
 10
414.2341401957
 20
50.9922821045
 40
1.0
100
AcDbArc
 50
270.0
 51
350.0029899309
  0
ARC
  5
5D8
100
AcDbEntity
  8
0
100
AcDbCircle
 62
7
  6
CONTINUOUS
 10
411.9269629925
 20
268.2077994956
 40
10.421046458
100
AcDbArc
 50
170.2120752501
 51
180.0000230825
  0
ARC
  5
5D9
100
AcDbEntity
  8
1_AXIS
100
AcDbCircle
 62
7
  6
CONTINUOUS
 10
411.5059165344
 20
268.5922821045
 40
10.0
100
AcDbArc
 50
170.0
 51
180.0
  0
ARC
  5
5DA
100
AcDbEntity
  8
1_AXIS
100
AcDbCircle
 62
7
  6
CONTINUOUS
 10
421.5059165344
 20
206.2922821045
 40
5.0
100
AcDbArc
 50
184.7947225781
 51
270.0
  0
ARC
  5
5DB
100
AcDbEntity
  8
1_AXIS
100
AcDbCircle
 62
7
  6
CONTINUOUS
 10
428.1559165344
 20
199.2922821045
 40
2.0
100
AcDbArc
 50
0.0
 51
90.0
  0
ARC
  5
5DC
100
AcDbEntity
  8
0
100
AcDbCircle
 62
7
  6
CONTINUOUS
 10
414.2341401957
 20
276.5922821045
 40
1.0
100
AcDbArc
 50
9.9862636674
 51
90.0
  0
SPLINE
  5
5DD
100
AcDbEntity
  8
0
100
AcDbSpline
 62
7
  6
CONTINUOUS
 70
0
 71
3
 72
8
 73
4
 74
0
 42
0.0000001
 43
0.0000001
 44
0.0000000001
 40
0.0
 40
0.0
 40
0.0
 40
0.0
 40
1.0
 40
1.0
 40
1.0
 40
1.0
 10
118.0865946345
 20
336.8230446625
 30
0.0
 10
117.5788134024
 20
336.8230512918
 30
0.0
 10
117.0687948504
 20
336.7705615087
 30
0.0
 10
116.5708454532
 20
336.6711221926
 30
0.0
  0
SPLINE
  5
5DE
100
AcDbEntity
  8
0
100
AcDbSpline
 62
7
  6
CONTINUOUS
 70
0
 71
3
 72
8
 73
4
 74
0
 42
0.0000001
 43
0.0000001
 44
0.0000000001
 40
0.0
 40
0.0
 40
0.0
 40
0.0
 40
1.0
 40
1.0
 40
1.0
 40
1.0
 10
254.5842830258
 20
336.6711221926
 30
0.0
 10
254.0863336273
 20
336.7705615021
 30
0.0
 10
253.5763150766
 20
336.8230512754
 30
0.0
 10
253.0685338445
 20
336.8230446625
 30
0.0
  0
SPLINE
  5
5DF
100
AcDbEntity
  8
0
100
AcDbSpline
 62
7
  6
CONTINUOUS
 70
0
 71
3
 72
8
 73
4
 74
0
 42
0.0000001
 43
0.0000001
 44
0.0000000001
 40
0.0
 40
0.0
 40
0.0
 40
0.0
 40
1.0
 40
1.0
 40
1.0
 40
1.0
 10
253.0685338445
 20
321.8230446625
 30
0.0
 10
253.5763150766
 20
321.8230400005
 30
0.0
 10
254.0863343514
 20
321.8755241971
 30
0.0
 10
254.5842830258
 20
321.9749671324
 30
0.0
  0
SPLINE
  5
5E0
100
AcDbEntity
  8
0
100
AcDbSpline
 62
7
  6
CONTINUOUS
 70
0
 71
3
 72
8
 73
4
 74
0
 42
0.0000001
 43
0.0000001
 44
0.0000000001
 40
0.0
 40
0.0
 40
0.0
 40
0.0
 40
1.0
 40
1.0
 40
1.0
 40
1.0
 10
116.5708454532
 20
321.9749671324
 30
0.0
 10
117.0687941295
 20
321.8755242064
 30
0.0
 10
117.5788134024
 20
321.8230399969
 30
0.0
 10
118.0865946345
 20
321.8230446625
 30
0.0
  0
SPLINE
  5
5E1
100
AcDbEntity
  8
0
100
AcDbSpline
 62
7
  6
CONTINUOUS
 70
0
 71
3
 72
8
 73
4
 74
0
 42
0.0000001
 43
0.0000001
 44
0.0000000001
 40
0.0
 40
0.0
 40
0.0
 40
0.0
 40
1.0
 40
1.0
 40
1.0
 40
1.0
 10
416.3539940645
 20
94.7855633182
 30
0.0
 10
416.4534333741
 20
95.2835127167
 30
0.0
 10
416.5059231474
 20
95.7935312674
 30
0.0
 10
416.5059165344
 20
96.3013124995
 30
0.0
  0
SPLINE
  5
5E2
100
AcDbEntity
  8
0
100
AcDbSpline
 62
7
  6
CONTINUOUS
 70
0
 71
3
 72
8
 73
4
 74
0
 42
0.0000001
 43
0.0000001
 44
0.0000000001
 40
0.0
 40
0.0
 40
0.0
 40
0.0
 40
1.0
 40
1.0
 40
1.0
 40
1.0
 10
401.5059165344
 20
96.3013124995
 30
0.0
 10
401.5059118725
 20
95.7935312674
 30
0.0
 10
401.5583960691
 20
95.2835119926
 30
0.0
 10
401.6578390043
 20
94.7855633182
 30
0.0
  0
SPLINE
  5
5E3
100
AcDbEntity
  8
0
100
AcDbSpline
 62
7
  6
CONTINUOUS
 70
0
 71
3
 72
8
 73
4
 74
0
 42
0.0000001
 43
0.0000001
 44
0.0000000001
 40
0.0
 40
0.0
 40
0.0
 40
0.0
 40
1.0
 40
1.0
 40
1.0
 40
1.0
 10
416.5059165344
 20
231.2832517095
 30
0.0
 10
416.5059231638
 20
231.7910329416
 30
0.0
 10
416.4534333806
 20
232.3010514936
 30
0.0
 10
416.3539940645
 20
232.7990008908
 30
0.0
  0
SPLINE
  5
5E4
100
AcDbEntity
  8
0
100
AcDbSpline
 62
7
  6
CONTINUOUS
 70
0
 71
3
 72
8
 73
4
 74
0
 42
0.0000001
 43
0.0000001
 44
0.0000000001
 40
0.0
 40
0.0
 40
0.0
 40
0.0
 40
1.0
 40
1.0
 40
1.0
 40
1.0
 10
401.6578390043
 20
232.7990008908
 30
0.0
 10
401.5583960784
 20
232.3010522145
 30
0.0
 10
401.5059118688
 20
231.7910329416
 30
0.0
 10
401.5059165344
 20
231.2832517095
 30
0.0
  0
ENDSEC
  0
SECTION
  2
OBJECTS
  0
DICTIONARY
  5
C
100
AcDbDictionary
280
0
281
1
  3
ACAD_GROUP
350
D
  3
ACAD_MLINESTYLE
350
17
  3
ACAD_LAYOUT
350
1A
  3
ACAD_PLOTSETTINGS
350
19
  3
ACAD_PLOTSTYLENAME
350
E
  3
ACAD_TABLESTYLE
350
       5E5
  0
DICTIONARY
  5
D
102
{ACAD_REACTORS
330
C
102
}
100
AcDbDictionary
280
0
281
1
  0
ACDBDICTIONARYWDFLT
  5
E
102
{ACAD_REACTORS
330
C
102
}
100
AcDbDictionary
281
1
  3
Normal
350
F
100
AcDbDictionaryWithDefault
340
F
  0
DICTIONARY
  5
17
102
{ACAD_REACTORS
330
C
102
}
100
AcDbDictionary
280
0
281
1
  3
Standard
350
18
  0
DICTIONARY
  5
5E5
330
C
100
AcDbDictionary
281
1
  3
Standard
350
       5E8
  3
Standard1
350
       5E9
  0
DICTIONARY
  5
19
102
{ACAD_REACTORS
330
C
102
}
100
AcDbDictionary
281
1
  0
DICTIONARY
  5
1A
102
{ACAD_REACTORS
330
C
102
}
100
AcDbDictionary
281
1
  3
Model
350
5E6
  3
Layout1
350
5E7
  0
ACDBPLACEHOLDER
  5
F
102
{ACAD_REACTORS
330
E
102
}
  0
MLINESTYLE
  5
18
102
{ACAD_REACTORS
330
17
102
}
100
AcDbMlineStyle
  2
STANDARD
 70
0
  3

 62
256
 51
90.0
 52
90.0
 71
2
 49
0.5
 62
256
  6
BYLAYER
 49
-0.5
 62
256
  6
BYLAYER
  0
LAYOUT
  5
5E6
102
{ACAD_REACTORS
330
1A
102
}
100
AcDbPlotSettings
  1

  2
none_device
  4
ISO_A2_(594.00_x_420.00_MM)
  6

 40
0.0
 41
0.0
 42
0.0
 43
0.0
 44
594.0
 45
420.0
 46
0.0
 47
0.0
 48
0.0
 49
0.0
140
0.0
141
0.0
142
1.0
143
1.0
 70
1024
 72
1
 73
0
 74
0
  7

 75
0
147
1.0
148
0.0
149
0.0
100
AcDbLayout
  1
Model
 70
0
 71
0
 10
0.0
 20
0.0
 11
594.0
 21
420.0
 12
0.0
 22
0.0
 32
0.0
 14
0.0
 24
0.0
 34
0.0
 15
0.0
 25
0.0
 35
0.0
146
0.0
 13
0.0
 23
0.0
 33
0.0
 16
1.0
 26
0.0
 36
0.0
 17
0.0
 27
1.0
 37
0.0
 76
0
330
211
345
0
346
0
  0
LAYOUT
  5
5E7
102
{ACAD_REACTORS
330
1A
102
}
100
AcDbPlotSettings
  1

  2
none_device
  4
ISO_A2_(594.00_x_420.00_MM)
  6

 40
0.0
 41
0.0
 42
0.0
 43
0.0
 44
594.0
 45
420.0
 46
0.0
 47
0.0
 48
0.0
 49
0.0
140
0.0
141
0.0
142
1.0
143
1.0
 70
0
 72
1
 73
0
 74
0
  7

 75
0
147
1.0
148
0.0
149
0.0
100
AcDbLayout
  1
Layout1
 70
0
 71
1
 10
0.0
 20
0.0
 11
594.0
 21
420.0
 12
0.0
 22
0.0
 32
0.0
 14
0.0
 24
0.0
 34
0.0
 15
0.0
 25
0.0
 35
0.0
146
0.0
 13
0.0
 23
0.0
 33
0.0
 16
1.0
 26
0.0
 36
0.0
 17
0.0
 27
1.0
 37
0.0
 76
0
330
212
345
0
346
0
  0
TABLESTYLE
  5
5E8
102
{ACAD_REACTORS
330
5E5
330
346
102
}
330
5E5
100
AcDbTableStyle
  3
Standard
 70
0
 71
0
 40
0.06
 41
0.06
280
1
281
1
  7
Standard
140
0.18
170
1
 62
0
 63
7
283
0
  7
Standard
140
0.18
170
1
 62
0
 63
7
283
0
  7
Standard
140
0.18
170
1
 62
0
 63
7
283
0
  0
TABLESTYLE
  5
5E9
102
{ACAD_REACTORS
330
5E5
102
}
330
5E5
100
AcDbTableStyle
  3
Standard1
 70
1
 71
0
 40
0.06
 41
0.06
280
1
281
1
  7
Standard
140
0.18
170
1
 62
0
 63
7
283
0
  7
Standard
140
0.18
170
1
 62
0
 63
7
283
0
  7
Standard
140
0.18
170
1
 62
0
 63
7
283
0
  0
ENDSEC
  0
EOF
