999
DXF file: G:\afd20\200100-Web\Chains\uni 1400\2D-DXF\Sprockets\uni_1400_z06_2w_1r_1p_hub63.dxf
999
Pro/ENGINEER 2015290 by Parametric Technology Corporation
  0
SECTION
  2
HEADER
  9
$ACADVER
  1
AC1027
  9
$DWGCODEPAGE
  3
ANSI_1252
  9
$EXTMAX
 10
420.0
 20
297.0
 30
0.0
  9
$EXTMIN
 10
0.0
 20
0.0
 30
0.0
  9
$LIMMIN
 10
0.0
 20
0.0
  9
$LIMMAX
 10
420.0
 20
297.0
  9
$VIEWCTR
 10
210.0
 20
148.5
  9
$VIEWSIZE
 40
297.0
  9
$CLAYER
  8
0
  9
$LTSCALE
 40
23.1
  9
$CELTYPE
  6
BYLAYER
  9
$DIMSCALE
 40
1.0
  9
$DIMASZ
 40
3.5
  9
$DIMEXO
 40
1.0
  9
$DIMDLI
 40
15.96
  9
$DIMEXE
 40
2.0
  9
$DIMCEN
 40
3.78
  9
$DIMLFAC
 40
1.0
  9
$DIMBLK
  1
_FILLED
  9
$DIMALT
 70
0
  9
$DIMALTF
 40
0.0393700787
  9
$DIMTXT
 40
3.5
  9
$DIMTOL
 70
1
  9
$DIMLIM
 70
0
  9
$DIMTFAC
 40
1.0
  9
$DIMTP
 40
0.01
  9
$DIMTM
 40
0.01
  9
$DIMGAP
 40
0.625
  9
$DIMDSEP
 70
46
  9
$AUNITS
 70
0
  9
$PDMODE
 70
3
  9
$PDSIZE
 40
0.3125
  9
$HANDSEED
  5
442
  9
$TILEMODE
 70
1
  9
$MEASUREMENT
 70
1
  9
$INSUNITS
 70
4
  0
ENDSEC
  0
SECTION
  2
CLASSES
  0
CLASS
  1
ACDBDICTIONARYWDFLT
  2
AcDbDictionaryWithDefault
  3
AutoCAD 2000
 90
0
 91
1
280
0
281
0
  0
CLASS
  1
ACDBPLACEHOLDER
  2
AcDbPlaceHolder
  3
AutoCAD 2000
 90
0
 91
1
280
0
281
0
  0
CLASS
  1
LAYOUT
  2
AcDbLayout
  3
AutoCAD 2000
 90
0
 91
0
280
0
281
0
  0
CLASS
  1
TABLESTYLE
  2
AcDbTableStyle
  3
ObjectDBX Classes
 90
2047
 91
1
280
0
281
0
  0
CLASS
  1
ACAD_TABLE
  2
AcDbTable
  3
ObjectDBX Classes
 90
1025
 91
1
280
0
281
1
  0
ENDSEC
  0
SECTION
  2
TABLES
  0
TABLE
  2
VPORT
  5
8
100
AcDbSymbolTable
 70
2
  0
VPORT
  5
1F4
100
AcDbSymbolTableRecord
100
AcDbViewportTableRecord
  2
*ACTIVE
 70
0
 10
0.0
 20
0.0
 11
1.0
 21
1.0
 12
210.0
 22
148.5
 13
0.0
 23
0.0
 14
1.0
 24
1.0
 15
0.0
 25
0.0
 16
0.0
 26
0.0
 36
1.0
 17
0.0
 27
0.0
 37
0.0
 40
297.0
 41
1.4141414141
 42
50.0
 43
0.0
 44
0.0
 50
0.0
 51
0.0
 71
0
 72
100
 73
1
 74
1
 75
0
 76
0
 77
0
 78
0
  0
ENDTAB
  0
TABLE
  2
LTYPE
  5
5
100
AcDbSymbolTable
 70
6
  0
LTYPE
  5
14
100
AcDbSymbolTableRecord
100
AcDbLinetypeTableRecord
  2
BYBLOCK
 70
0
  3

 72
65
 73
0
 40
0.0
  0
LTYPE
  5
15
100
AcDbSymbolTableRecord
100
AcDbLinetypeTableRecord
  2
BYLAYER
 70
0
  3

 72
65
 73
0
 40
0.0
  0
LTYPE
  5
16
100
AcDbSymbolTableRecord
100
AcDbLinetypeTableRecord
  2
CONTINUOUS
 70
64
  3
Solid line
 72
65
 73
0
 40
0.0
  0
LTYPE
  5
1F5
100
AcDbSymbolTableRecord
100
AcDbLinetypeTableRecord
  2
CENTER
 70
64
  3
____ _ ____ _ ____ _ ____ _ ____ _ ____ _ ____
 72
65
 73
4
 40
0.6
 49
0.375
 74
0
 49
-0.075
 74
0
 49
0.075
 74
0
 49
-0.075
 74
0
  0
LTYPE
  5
1F6
100
AcDbSymbolTableRecord
100
AcDbLinetypeTableRecord
  2
HIDDEN
 70
64
  3
- - - - - - - - - - - - - - - - - - - -
 72
65
 73
2
 40
0.2
 49
0.1
 74
0
 49
-0.1
 74
0
  0
LTYPE
  5
1F7
100
AcDbSymbolTableRecord
100
AcDbLinetypeTableRecord
  2
PHANTOM
 70
64
  3
_____ _ _ _____ _ _ _____ _ _ _____
 72
65
 73
6
 40
0.8
 49
0.45
 74
0
 49
-0.05
 74
0
 49
0.1
 74
0
 49
-0.05
 74
0
 49
0.1
 74
0
 49
-0.05
 74
0
  0
LTYPE
  5
1F8
100
AcDbSymbolTableRecord
100
AcDbLinetypeTableRecord
  2
DOT
 70
64
  3
. . . . . . . . . . . . . . . . . . . .
 72
65
 73
2
 40
0.2
 49
0.1
 74
0
 49
-0.1
 74
0
  0
LTYPE
  5
1F9
100
AcDbSymbolTableRecord
100
AcDbLinetypeTableRecord
  2
DASHED
 70
64
  3
- - - - - - - - - - - - - - - - - - - -
 72
65
 73
2
 40
0.2
 49
0.1
 74
0
 49
-0.1
 74
0
  0
ENDTAB
  0
TABLE
  2
LAYER
  5
2
100
AcDbSymbolTable
 70
36
  0
LAYER
  5
10
100
AcDbSymbolTableRecord
100
AcDbLayerTableRecord
  2
0
 70
0
 62
7
  6
CONTINUOUS
370
-3
390
F
  0
LAYER
  5
1FA
100
AcDbSymbolTableRecord
100
AcDbLayerTableRecord
  2
DEFAULT_1
 70
0
 62
7
  6
CENTER
370
-3
390
F
  0
LAYER
  5
1FB
100
AcDbSymbolTableRecord
100
AcDbLayerTableRecord
  2
DEFAULT_2
 70
0
 62
8
  6
HIDDEN
370
-3
390
F
  0
LAYER
  5
1FC
100
AcDbSymbolTableRecord
100
AcDbLayerTableRecord
  2
DEFAULT_3
 70
0
 62
7
  6
PHANTOM
370
-3
390
F
  0
LAYER
  5
1FD
100
AcDbSymbolTableRecord
100
AcDbLayerTableRecord
  2
1_AXIS
 70
0
 62
7
  6
CONTINUOUS
370
-3
390
F
  0
LAYER
  5
1FE
100
AcDbSymbolTableRecord
100
AcDbLayerTableRecord
  2
1_DATUM_PLANE
 70
0
 62
7
  6
CONTINUOUS
370
-3
390
F
  0
LAYER
  5
1FF
100
AcDbSymbolTableRecord
100
AcDbLayerTableRecord
  2
2_FEATURE
 70
0
 62
7
  6
CONTINUOUS
370
-3
390
F
  0
LAYER
  5
200
100
AcDbSymbolTableRecord
100
AcDbLayerTableRecord
  2
4_QUILT
 70
0
 62
7
  6
CONTINUOUS
370
-3
390
F
  0
LAYER
  5
201
100
AcDbSymbolTableRecord
100
AcDbLayerTableRecord
  2
6_DIM
 70
0
 62
7
  6
CONTINUOUS
370
-3
390
F
  0
LAYER
  5
202
100
AcDbSymbolTableRecord
100
AcDbLayerTableRecord
  2
AXES
 70
0
 62
7
  6
CONTINUOUS
370
-3
390
F
  0
LAYER
  5
203
100
AcDbSymbolTableRecord
100
AcDbLayerTableRecord
  2
BLANK_COSM
 70
0
 62
7
  6
CONTINUOUS
370
-3
390
F
  0
LAYER
  5
204
100
AcDbSymbolTableRecord
100
AcDbLayerTableRecord
  2
CSYS
 70
0
 62
7
  6
CONTINUOUS
370
-3
390
F
  0
LAYER
  5
205
100
AcDbSymbolTableRecord
100
AcDbLayerTableRecord
  2
CURVES
 70
0
 62
7
  6
CONTINUOUS
370
-3
390
F
  0
LAYER
  5
206
100
AcDbSymbolTableRecord
100
AcDbLayerTableRecord
  2
NOTES
 70
0
 62
7
  6
CONTINUOUS
370
-3
390
F
  0
LAYER
  5
207
100
AcDbSymbolTableRecord
100
AcDbLayerTableRecord
  2
PLANES
 70
0
 62
7
  6
CONTINUOUS
370
-3
390
F
  0
LAYER
  5
208
100
AcDbSymbolTableRecord
100
AcDbLayerTableRecord
  2
QUILTS
 70
0
 62
7
  6
CONTINUOUS
370
-3
390
F
  0
ENDTAB
  0
TABLE
  2
STYLE
  5
3
100
AcDbSymbolTable
 70
1
  0
STYLE
  5
11
100
AcDbSymbolTableRecord
100
AcDbTextStyleTableRecord
  2
STANDARD
 70
0
 40
0.0
 41
0.8
 50
0.0
 71
0
 42
0.2
  3
txt
  4

  0
STYLE
  5
209
100
AcDbSymbolTableRecord
100
AcDbTextStyleTableRecord
  2
TEXTSTYLE_1
 70
0
 40
0.0
 41
0.8
 50
0.0
 71
0
 42
0.2
  3
gdt
  4

  0
STYLE
  5
20A
100
AcDbSymbolTableRecord
100
AcDbTextStyleTableRecord
  2
TEXTSTYLE_2
 70
0
 40
0.0
 41
0.6
 50
0.0
 71
0
 42
0.2
  3
txt
  4

  0
STYLE
  5
20B
100
AcDbSymbolTableRecord
100
AcDbTextStyleTableRecord
  2
TEXTSTYLE_3
 70
0
 40
0.0
 41
1.0
 50
0.0
 71
0
 42
0.2
  3
ftb_____.ttf
  4

  0
STYLE
  5
20C
100
AcDbSymbolTableRecord
100
AcDbTextStyleTableRecord
  2
TEXTSTYLE_4
 70
0
 40
0.0
 41
1.0
 50
0.0
 71
0
 42
0.2
  3
fti_____.ttf
  4

  0
STYLE
  5
20D
100
AcDbSymbolTableRecord
100
AcDbTextStyleTableRecord
  2
TEXTSTYLE_5
 70
0
 40
0.0
 41
1.0
 50
0.0
 71
0
 42
0.2
  3
frutiger light.ttf
  4

  0
STYLE
  5
20E
100
AcDbSymbolTableRecord
100
AcDbTextStyleTableRecord
  2
TEXTSTYLE_6
 70
0
 40
0.0
 41
0.7
 50
0.0
 71
0
 42
0.2
  3
txt
  4

  0
STYLE
  5
20F
100
AcDbSymbolTableRecord
100
AcDbTextStyleTableRecord
  2
TEXTSTYLE_7
 70
0
 40
0.0
 41
0.8
 50
0.0
 71
0
 42
0.2
  3
txt
  4

  0
ENDTAB
  0
TABLE
  2
VIEW
  5
6
100
AcDbSymbolTable
 70
0
  0
ENDTAB
  0
TABLE
  2
UCS
  5
7
100
AcDbSymbolTable
 70
0
  0
ENDTAB
  0
TABLE
  2
APPID
  5
9
100
AcDbSymbolTable
 70
1
  0
APPID
  5
210
100
AcDbSymbolTableRecord
100
AcDbRegAppTableRecord
  2
ACAD
 70
0
  0
ENDTAB
  0
TABLE
  2
BLOCK_RECORD
  5
1
100
AcDbSymbolTable
 70
0
  0
BLOCK_RECORD
  5
211
100
AcDbSymbolTableRecord
100
AcDbBlockTableRecord
  2
*Model_Space
  0
BLOCK_RECORD
  5
212
100
AcDbSymbolTableRecord
100
AcDbBlockTableRecord
  2
*Paper_Space
  0
BLOCK_RECORD
  5
213
100
AcDbSymbolTableRecord
100
AcDbBlockTableRecord
  2
UNI_LOGO2_BL1
  0
BLOCK_RECORD
  5
214
100
AcDbSymbolTableRecord
100
AcDbBlockTableRecord
  2
AMMEAAL_LOGO_BL0
  0
BLOCK_RECORD
  5
215
100
AcDbSymbolTableRecord
100
AcDbBlockTableRecord
  2
*T1
  0
ENDTAB
  0
TABLE
  2
DIMSTYLE
  5
A
100
AcDbSymbolTable
 70
1
100
AcDbDimStyleTable
 71
0
  0
DIMSTYLE
105
216
100
AcDbSymbolTableRecord
100
AcDbDimStyleTableRecord
  2
STANDARD
 70
0
  3

  4

 40
1.0
 41
3.5
 42
1.0
 43
0.38
 44
2.0
 45
0.0
 46
0.0
 47
0.01
 48
0.01
140
3.5
141
0.09
142
0.0
143
25.4
144
1.0
145
0.0
146
1.0
147
0.625
 71
1.0
 72
0.0
 73
0
 74
0
 75
0
 76
0
 77
1
 78
0
170
0
171
2
172
0
173
0
174
0
175
0
176
0
177
0
178
0
270
2
271
2
272
2
273
2
274
2
275
0
280
0
281
0
282
0
283
1
284
0
285
0
286
0
287
3
288
0
340
11
278
46
  0
ENDTAB
  0
ENDSEC
  0
SECTION
  2
BLOCKS
  0
BLOCK
  5
20
100
AcDbEntity
  8
0
100
AcDbBlockBegin
  2
*Model_Space
 70
0
 10
0.0
 20
0.0
 30
0.0
  3
*Model_Space
  1

  0
ENDBLK
  5
21
100
AcDbEntity
  8
0
100
AcDbBlockEnd
  0
BLOCK
  5
1C
100
AcDbEntity
  8
0
100
AcDbBlockBegin
  2
*Paper_Space
 70
0
 10
0.0
 20
0.0
 30
0.0
  3
*Paper_Space
  1

  0
ENDBLK
  5
1D
100
AcDbEntity
  8
0
100
AcDbBlockEnd
  0
BLOCK
  5
217
100
AcDbEntity
  8
0
100
AcDbBlockBegin
 62
2
  6
CONTINUOUS
  2
UNI_LOGO2_BL1
 70
64
 10
382.3920721743
 20
35.81661148
  3
UNI_LOGO2_BL1
  1

  0
TEXT
  5
218
100
AcDbEntity
  8
0
100
AcDbText
 62
7
  6
CONTINUOUS
 10
373.4503571828
 20
30.9093678571
  7
TEXTSTYLE_4
 40
1.0655737705
  1
The brand for plastic modular belts and chains
 41
1.0
 72
0
100
AcDbText
  0
LINE
  5
219
100
AcDbEntity
  8
0
100
AcDbLine
 62
7
  6
CONTINUOUS
 10
358.3701405634
 20
36.3903819718
 11
358.3701405634
 21
34.2592344308
  0
LINE
  5
21A
100
AcDbEntity
  8
0
100
AcDbLine
 62
7
  6
CONTINUOUS
 10
358.6592030565
 20
31.2683031351
 11
358.6592030565
 21
31.3650941944
  0
LINE
  5
21B
100
AcDbEntity
  8
0
100
AcDbLine
 62
7
  6
CONTINUOUS
 10
358.3701405634
 20
31.332830508
 11
358.4279530651
 21
31.1392483894
  0
LINE
  5
21C
100
AcDbEntity
  8
0
100
AcDbLine
 62
7
  6
CONTINUOUS
 10
359.7635831863
 20
34.1772672177
 11
359.7635831863
 21
36.3903819718
  0
LINE
  5
21D
100
AcDbEntity
  8
0
100
AcDbLine
 62
7
  6
CONTINUOUS
 10
360.6826405082
 20
32.3330049227
 11
360.6826405082
 21
30.81661148
  0
LINE
  5
21E
100
AcDbEntity
  8
0
100
AcDbLine
 62
7
  6
CONTINUOUS
 10
360.9717030634
 20
30.81661148
 11
360.9717030634
 21
31.5586763581
  0
LINE
  5
21F
100
AcDbEntity
  8
0
100
AcDbLine
 62
7
  6
CONTINUOUS
 10
360.9717030634
 20
31.6877311038
 11
360.9717030634
 21
32.3330049227
  0
LINE
  5
220
100
AcDbEntity
  8
0
100
AcDbLine
 62
7
  6
CONTINUOUS
 10
358.4279530651
 20
31.5264126717
 11
358.3701405634
 21
31.332830508
  0
LINE
  5
221
100
AcDbEntity
  8
0
100
AcDbLine
 62
7
  6
CONTINUOUS
 10
358.7748280496
 20
31.106984703
 11
358.6592030565
 21
31.2683031351
  0
LINE
  5
222
100
AcDbEntity
  8
0
100
AcDbLine
 62
7
  6
CONTINUOUS
 10
359.8732656185
 20
31.623203731
 11
359.9310780634
 21
31.5264126717
  0
LINE
  5
223
100
AcDbEntity
  8
0
100
AcDbLine
 62
7
  6
CONTINUOUS
 10
360.2201406185
 20
31.5264126717
 11
360.1623280082
 21
31.6554674174
  0
LINE
  5
224
100
AcDbEntity
  8
0
100
AcDbLine
 62
7
  6
CONTINUOUS
 10
361.648829088
 20
36.3903819718
 11
361.648829088
 21
34.5871032833
  0
LINE
  5
225
100
AcDbEntity
  8
0
100
AcDbLine
 62
7
  6
CONTINUOUS
 10
361.648829088
 20
33.2756278735
 11
361.648829088
 21
32.6198901686
  0
LINE
  5
226
100
AcDbEntity
  8
0
100
AcDbLine
 62
7
  6
CONTINUOUS
 10
362.0123280634
 20
31.4618852989
 11
362.0123280634
 21
30.81661148
  0
LINE
  5
227
100
AcDbEntity
  8
0
100
AcDbLine
 62
7
  6
CONTINUOUS
 10
362.3013904531
 20
30.81661148
 11
362.3013904531
 21
31.4618852989
  0
LINE
  5
228
100
AcDbEntity
  8
0
100
AcDbLine
 62
7
  6
CONTINUOUS
 10
358.6592030565
 20
31.3650941944
 11
358.7170155634
 21
31.4941489853
  0
LINE
  5
229
100
AcDbEntity
  8
0
100
AcDbLine
 62
7
  6
CONTINUOUS
 10
358.4279530651
 20
31.1392483894
 11
358.5435780634
 21
31.0101936212
  0
LINE
  5
22A
100
AcDbEntity
  8
0
100
AcDbLine
 62
7
  6
CONTINUOUS
 10
361.9545154531
 20
31.5909400446
 11
362.0123280634
 21
31.4618852989
  0
LINE
  5
22B
100
AcDbEntity
  8
0
100
AcDbLine
 62
7
  6
CONTINUOUS
 10
362.7638906736
 20
31.106984703
 11
362.8217029531
 21
30.9779299347
  0
LINE
  5
22C
100
AcDbEntity
  8
0
100
AcDbLine
 62
7
  6
CONTINUOUS
 10
362.3013904531
 20
31.4618852989
 11
362.2435781736
 21
31.623203731
  0
LINE
  5
22D
100
AcDbEntity
  8
0
100
AcDbLine
 62
7
  6
CONTINUOUS
 10
362.7638906736
 20
31.6554674174
 11
362.7638906736
 21
31.5909400446
  0
LINE
  5
22E
100
AcDbEntity
  8
0
100
AcDbLine
 62
7
  6
CONTINUOUS
 10
362.7638906736
 20
31.2037757623
 11
362.7638906736
 21
31.106984703
  0
LINE
  5
22F
100
AcDbEntity
  8
0
100
AcDbLine
 62
7
  6
CONTINUOUS
 10
363.0422717109
 20
32.6198901686
 11
363.0422717109
 21
36.3903819718
  0
LINE
  5
230
100
AcDbEntity
  8
0
100
AcDbLine
 62
7
  6
CONTINUOUS
 10
363.0529530634
 20
31.074720994
 11
363.0529530634
 21
31.1392483894
  0
LINE
  5
231
100
AcDbEntity
  8
0
100
AcDbLine
 62
7
  6
CONTINUOUS
 10
363.3701405634
 20
36.3903819718
 11
363.3701405634
 21
32.6198901686
  0
LINE
  5
232
100
AcDbEntity
  8
0
100
AcDbLine
 62
7
  6
CONTINUOUS
 10
360.1623280082
 20
31.0101936212
 11
360.2201406185
 21
31.1392483894
  0
LINE
  5
233
100
AcDbEntity
  8
0
100
AcDbLine
 62
7
  6
CONTINUOUS
 10
364.5560782839
 20
30.9134025506
 11
364.4982653428
 21
31.074720994
  0
LINE
  5
234
100
AcDbEntity
  8
0
100
AcDbLine
 62
7
  6
CONTINUOUS
 10
364.2092032839
 20
31.5909400446
 11
364.2092032839
 21
31.4941489853
  0
LINE
  5
235
100
AcDbEntity
  8
0
100
AcDbLine
 62
7
  6
CONTINUOUS
 10
364.2092032839
 20
31.3650941944
 11
364.2092032839
 21
31.1715120759
  0
LINE
  5
236
100
AcDbEntity
  8
0
100
AcDbLine
 62
7
  6
CONTINUOUS
 10
364.4982653428
 20
31.074720994
 11
364.4982653428
 21
31.5909400446
  0
LINE
  5
237
100
AcDbEntity
  8
0
100
AcDbLine
 62
7
  6
CONTINUOUS
 10
364.7635831863
 20
32.6198901686
 11
364.7635831863
 21
34.4231688571
  0
LINE
  5
238
100
AcDbEntity
  8
0
100
AcDbLine
 62
7
  6
CONTINUOUS
 10
364.7635831863
 20
35.7346442669
 11
364.7635831863
 21
36.3903819718
  0
LINE
  5
239
100
AcDbEntity
  8
0
100
AcDbLine
 62
7
  6
CONTINUOUS
 10
365.0763907839
 20
32.3330049227
 11
365.0763907839
 21
32.1716864905
  0
LINE
  5
23A
100
AcDbEntity
  8
0
100
AcDbLine
 62
7
  6
CONTINUOUS
 10
365.0763907839
 20
31.8490495359
 11
365.0763907839
 21
30.81661148
  0
LINE
  5
23B
100
AcDbEntity
  8
0
100
AcDbLine
 62
7
  6
CONTINUOUS
 10
365.3654528428
 20
30.81661148
 11
365.3654528428
 21
31.8490495359
  0
LINE
  5
23C
100
AcDbEntity
  8
0
100
AcDbLine
 62
7
  6
CONTINUOUS
 10
365.3654528428
 20
32.1716864905
 11
365.3654528428
 21
32.3330049227
  0
LINE
  5
23D
100
AcDbEntity
  8
0
100
AcDbLine
 62
7
  6
CONTINUOUS
 10
359.9310780634
 20
31.1392483894
 11
359.8732656185
 21
31.0424573076
  0
LINE
  5
23E
100
AcDbEntity
  8
0
100
AcDbLine
 62
7
  6
CONTINUOUS
 10
362.2435781736
 20
31.623203731
 11
362.1857655634
 21
31.6877311038
  0
LINE
  5
23F
100
AcDbEntity
  8
0
100
AcDbLine
 62
7
  6
CONTINUOUS
 10
363.1107656736
 20
31.0101936212
 11
363.0529530634
 21
31.074720994
  0
LINE
  5
240
100
AcDbEntity
  8
0
100
AcDbLine
 62
7
  6
CONTINUOUS
 10
364.2670155634
 20
30.8811388585
 11
364.3248278428
 21
30.81661148
  0
LINE
  5
241
100
AcDbEntity
  8
0
100
AcDbLine
 62
7
  6
CONTINUOUS
 10
364.2092032839
 20
30.9779299347
 11
364.2670155634
 21
30.8811388585
  0
LINE
  5
242
100
AcDbEntity
  8
0
100
AcDbLine
 62
7
  6
CONTINUOUS
 10
364.6138905634
 20
30.81661148
 11
364.5560782839
 21
30.9134025506
  0
LINE
  5
243
100
AcDbEntity
  8
0
100
AcDbLine
 62
7
  6
CONTINUOUS
 10
364.4982653428
 20
31.5909400446
 11
364.4404530634
 21
31.6877311038
  0
LINE
  5
244
100
AcDbEntity
  8
0
100
AcDbLine
 62
7
  6
CONTINUOUS
 10
365.8279530634
 20
31.8490495359
 11
365.8279530634
 21
30.81661148
  0
LINE
  5
245
100
AcDbEntity
  8
0
100
AcDbLine
 62
7
  6
CONTINUOUS
 10
366.1170157839
 20
30.81661148
 11
366.1170157839
 21
31.5586763581
  0
LINE
  5
246
100
AcDbEntity
  8
0
100
AcDbLine
 62
7
  6
CONTINUOUS
 10
366.1170157839
 20
31.6877311038
 11
366.1170157839
 21
31.8490495359
  0
LINE
  5
247
100
AcDbEntity
  8
0
100
AcDbLine
 62
7
  6
CONTINUOUS
 10
366.648829088
 20
34.8330049227
 11
366.648829088
 21
32.6198901686
  0
LINE
  5
248
100
AcDbEntity
  8
0
100
AcDbLine
 62
7
  6
CONTINUOUS
 10
358.5435780634
 20
31.6554674174
 11
358.4279530651
 21
31.5264126717
  0
LINE
  5
249
100
AcDbEntity
  8
0
100
AcDbLine
 62
7
  6
CONTINUOUS
 10
358.7170155634
 20
31.4941489853
 11
358.7748280496
 21
31.5586763581
  0
LINE
  5
24A
100
AcDbEntity
  8
0
100
AcDbLine
 62
7
  6
CONTINUOUS
 10
358.5435780634
 20
31.0101936212
 11
358.6592030565
 21
30.945666237
  0
LINE
  5
24B
100
AcDbEntity
  8
0
100
AcDbLine
 62
7
  6
CONTINUOUS
 10
358.9482655496
 20
31.0101936212
 11
358.7748280496
 21
31.106984703
  0
LINE
  5
24C
100
AcDbEntity
  8
0
100
AcDbLine
 62
7
  6
CONTINUOUS
 10
364.1513903428
 20
31.6554674174
 11
364.2092032839
 21
31.5909400446
  0
LINE
  5
24D
100
AcDbEntity
  8
0
100
AcDbLine
 62
7
  6
CONTINUOUS
 10
367.0998278428
 20
31.5909400446
 11
367.1576407839
 21
31.4296216124
  0
LINE
  5
24E
100
AcDbEntity
  8
0
100
AcDbLine
 62
7
  6
CONTINUOUS
 10
367.4467028428
 20
31.4296216124
 11
367.3888905634
 21
31.5909400446
  0
LINE
  5
24F
100
AcDbEntity
  8
0
100
AcDbLine
 62
7
  6
CONTINUOUS
 10
367.1576407839
 20
31.4296216124
 11
367.1576407839
 21
30.81661148
  0
LINE
  5
250
100
AcDbEntity
  8
0
100
AcDbLine
 62
7
  6
CONTINUOUS
 10
367.4467028428
 20
30.81661148
 11
367.4467028428
 21
31.4296216124
  0
LINE
  5
251
100
AcDbEntity
  8
0
100
AcDbLine
 62
7
  6
CONTINUOUS
 10
367.9092030634
 20
31.6554674174
 11
367.9092030634
 21
31.5909400446
  0
LINE
  5
252
100
AcDbEntity
  8
0
100
AcDbLine
 62
7
  6
CONTINUOUS
 10
368.0422717109
 20
32.6198901686
 11
368.0422717109
 21
34.7510377095
  0
LINE
  5
253
100
AcDbEntity
  8
0
100
AcDbLine
 62
7
  6
CONTINUOUS
 10
368.3701405634
 20
36.3903819718
 11
368.3701405634
 21
32.6198901686
  0
LINE
  5
254
100
AcDbEntity
  8
0
100
AcDbLine
 62
7
  6
CONTINUOUS
 10
363.0529530634
 20
31.1392483894
 11
363.1107656736
 21
31.2360394487
  0
LINE
  5
255
100
AcDbEntity
  8
0
100
AcDbLine
 62
7
  6
CONTINUOUS
 10
358.6592030565
 20
30.945666237
 11
358.8326405772
 21
30.8811388585
  0
LINE
  5
256
100
AcDbEntity
  8
0
100
AcDbLine
 62
7
  6
CONTINUOUS
 10
360.1623280082
 20
31.6554674174
 11
359.9888905082
 21
31.7522584767
  0
LINE
  5
257
100
AcDbEntity
  8
0
100
AcDbLine
 62
7
  6
CONTINUOUS
 10
362.8217029531
 20
30.9779299347
 11
362.9951404531
 21
30.8811388585
  0
LINE
  5
258
100
AcDbEntity
  8
0
100
AcDbLine
 62
7
  6
CONTINUOUS
 10
361.8388905634
 20
31.6554674174
 11
361.9545154531
 21
31.5909400446
  0
LINE
  5
259
100
AcDbEntity
  8
0
100
AcDbLine
 62
7
  6
CONTINUOUS
 10
362.1857655634
 20
31.6877311038
 11
362.0701406736
 21
31.7522584767
  0
LINE
  5
25A
100
AcDbEntity
  8
0
100
AcDbLine
 62
7
  6
CONTINUOUS
 10
367.9092030634
 20
31.074720994
 11
368.0248282839
 21
30.945666237
  0
LINE
  5
25B
100
AcDbEntity
  8
0
100
AcDbLine
 62
7
  6
CONTINUOUS
 10
368.2560780634
 20
31.0101936212
 11
368.1982657839
 21
31.074720994
  0
LINE
  5
25C
100
AcDbEntity
  8
0
100
AcDbLine
 62
7
  6
CONTINUOUS
 10
367.9092030634
 20
31.5909400446
 11
368.0248282839
 21
31.4618852989
  0
LINE
  5
25D
100
AcDbEntity
  8
0
100
AcDbLine
 62
7
  6
CONTINUOUS
 10
367.3888905634
 20
31.5909400446
 11
367.3310782839
 21
31.6877311038
  0
LINE
  5
25E
100
AcDbEntity
  8
0
100
AcDbLine
 62
7
  6
CONTINUOUS
 10
369.7592026223
 20
31.0101936212
 11
369.7592026223
 21
31.074720994
  0
LINE
  5
25F
100
AcDbEntity
  8
0
100
AcDbLine
 62
7
  6
CONTINUOUS
 10
369.7635831863
 20
32.6198901686
 11
369.7635831863
 21
36.3903819718
  0
LINE
  5
260
100
AcDbEntity
  8
0
100
AcDbLine
 62
7
  6
CONTINUOUS
 10
362.8217029531
 20
31.7199947902
 11
362.7638906736
 21
31.6554674174
  0
LINE
  5
261
100
AcDbEntity
  8
0
100
AcDbLine
 62
7
  6
CONTINUOUS
 10
359.6998280358
 20
31.6877311038
 11
359.8732656185
 21
31.623203731
  0
LINE
  5
262
100
AcDbEntity
  8
0
100
AcDbLine
 62
7
  6
CONTINUOUS
 10
364.4404530634
 20
31.6877311038
 11
364.3248278428
 21
31.7522584767
  0
LINE
  5
263
100
AcDbEntity
  8
0
100
AcDbLine
 62
7
  6
CONTINUOUS
 10
368.2560780634
 20
31.5264126717
 11
368.1982657839
 21
31.5909400446
  0
LINE
  5
264
100
AcDbEntity
  8
0
100
AcDbLine
 62
7
  6
CONTINUOUS
 10
369.4123282839
 20
31.1392483894
 11
369.4701405634
 21
31.074720994
  0
LINE
  5
265
100
AcDbEntity
  8
0
100
AcDbLine
 62
7
  6
CONTINUOUS
 10
369.7592026223
 20
31.074720994
 11
369.6435780634
 21
31.2037757623
  0
LINE
  5
266
100
AcDbEntity
  8
0
100
AcDbLine
 62
7
  6
CONTINUOUS
 10
369.4123282839
 20
31.6554674174
 11
369.4701405634
 21
31.5909400446
  0
LINE
  5
267
100
AcDbEntity
  8
0
100
AcDbLine
 62
7
  6
CONTINUOUS
 10
369.7592026223
 20
31.5909400446
 11
369.6435780634
 21
31.7199947902
  0
LINE
  5
268
100
AcDbEntity
  8
0
100
AcDbLine
 62
7
  6
CONTINUOUS
 10
363.0529530634
 20
31.5909400446
 11
363.1107656736
 21
31.6554674174
  0
LINE
  5
269
100
AcDbEntity
  8
0
100
AcDbLine
 62
7
  6
CONTINUOUS
 10
362.8795155634
 20
31.332830508
 11
362.7638906736
 21
31.2037757623
  0
LINE
  5
26A
100
AcDbEntity
  8
0
100
AcDbLine
 62
7
  6
CONTINUOUS
 10
364.2092032839
 20
31.1715120759
 11
364.1513903428
 21
31.106984703
  0
LINE
  5
26B
100
AcDbEntity
  8
0
100
AcDbLine
 62
7
  6
CONTINUOUS
 10
364.1513903428
 20
30.9134025506
 11
364.2092032839
 21
30.9779299347
  0
LINE
  5
26C
100
AcDbEntity
  8
0
100
AcDbLine
 62
7
  6
CONTINUOUS
 10
362.9951404531
 20
30.8811388585
 11
363.1107656736
 21
30.8488751693
  0
LINE
  5
26D
100
AcDbEntity
  8
0
100
AcDbLine
 62
7
  6
CONTINUOUS
 10
359.9888905082
 20
31.7522584767
 11
359.7576405634
 21
31.8167858495
  0
LINE
  5
26E
100
AcDbEntity
  8
0
100
AcDbLine
 62
7
  6
CONTINUOUS
 10
363.3420154531
 20
30.945666237
 11
363.1107656736
 21
31.0101936212
  0
LINE
  5
26F
100
AcDbEntity
  8
0
100
AcDbLine
 62
7
  6
CONTINUOUS
 10
362.0701406736
 20
31.7522584767
 11
361.8967031736
 21
31.8167858495
  0
LINE
  5
270
100
AcDbEntity
  8
0
100
AcDbLine
 62
7
  6
CONTINUOUS
 10
364.3248278428
 20
31.7522584767
 11
364.1513903428
 21
31.8167858495
  0
LINE
  5
271
100
AcDbEntity
  8
0
100
AcDbLine
 62
7
  6
CONTINUOUS
 10
366.9842032839
 20
31.6554674174
 11
367.0998278428
 21
31.5909400446
  0
LINE
  5
272
100
AcDbEntity
  8
0
100
AcDbLine
 62
7
  6
CONTINUOUS
 10
367.3310782839
 20
31.6877311038
 11
367.2154530634
 21
31.7522584767
  0
LINE
  5
273
100
AcDbEntity
  8
0
100
AcDbLine
 62
7
  6
CONTINUOUS
 10
358.8326405772
 20
30.8811388585
 11
359.0060780772
 21
30.8488751693
  0
LINE
  5
274
100
AcDbEntity
  8
0
100
AcDbLine
 62
7
  6
CONTINUOUS
 10
359.2951405909
 20
30.945666237
 11
358.9482655496
 21
31.0101936212
  0
LINE
  5
275
100
AcDbEntity
  8
0
100
AcDbLine
 62
7
  6
CONTINUOUS
 10
361.7232656736
 20
31.6877311038
 11
361.8388905634
 21
31.6554674174
  0
LINE
  5
276
100
AcDbEntity
  8
0
100
AcDbLine
 62
7
  6
CONTINUOUS
 10
364.0357657839
 20
31.6877311038
 11
364.1513903428
 21
31.6554674174
  0
LINE
  5
277
100
AcDbEntity
  8
0
100
AcDbLine
 62
7
  6
CONTINUOUS
 10
368.3717032839
 20
30.9779299347
 11
368.2560780634
 21
31.0101936212
  0
LINE
  5
278
100
AcDbEntity
  8
0
100
AcDbLine
 62
7
  6
CONTINUOUS
 10
366.8685780634
 20
31.6877311038
 11
366.9842032839
 21
31.6554674174
  0
LINE
  5
279
100
AcDbEntity
  8
0
100
AcDbLine
 62
7
  6
CONTINUOUS
 10
368.0248282839
 20
30.945666237
 11
368.1982657839
 21
30.8811388585
  0
LINE
  5
27A
100
AcDbEntity
  8
0
100
AcDbLine
 62
7
  6
CONTINUOUS
 10
367.2154530634
 20
31.7522584767
 11
367.0420155634
 21
31.8167858495
  0
LINE
  5
27B
100
AcDbEntity
  8
0
100
AcDbLine
 62
7
  6
CONTINUOUS
 10
368.4295155634
 20
31.4618852989
 11
368.2560780634
 21
31.5264126717
  0
LINE
  5
27C
100
AcDbEntity
  8
0
100
AcDbLine
 62
7
  6
CONTINUOUS
 10
369.2388907839
 20
31.2037757623
 11
369.4123282839
 21
31.1392483894
  0
LINE
  5
27D
100
AcDbEntity
  8
0
100
AcDbLine
 62
7
  6
CONTINUOUS
 10
369.6435780634
 20
31.7199947902
 11
369.4701405634
 21
31.7845221631
  0
LINE
  5
27E
100
AcDbEntity
  8
0
100
AcDbLine
 62
7
  6
CONTINUOUS
 10
368.0248282839
 20
31.4618852989
 11
368.2560780634
 21
31.3650941944
  0
LINE
  5
27F
100
AcDbEntity
  8
0
100
AcDbLine
 62
7
  6
CONTINUOUS
 10
369.6435780634
 20
31.2037757623
 11
369.4123282839
 21
31.3005668216
  0
LINE
  5
280
100
AcDbEntity
  8
0
100
AcDbLine
 62
7
  6
CONTINUOUS
 10
368.1982657839
 20
31.5909400446
 11
368.2560780634
 21
31.6554674174
  0
LINE
  5
281
100
AcDbEntity
  8
0
100
AcDbLine
 62
7
  6
CONTINUOUS
 10
358.6592030565
 20
31.7199947902
 11
358.5435780634
 21
31.6554674174
  0
LINE
  5
282
100
AcDbEntity
  8
0
100
AcDbLine
 62
7
  6
CONTINUOUS
 10
358.7748280496
 20
31.5586763581
 11
358.9482655496
 21
31.6554674174
  0
LINE
  5
283
100
AcDbEntity
  8
0
100
AcDbLine
 62
7
  6
CONTINUOUS
 10
361.0873281185
 20
31.7522584767
 11
360.9717030634
 21
31.6877311038
  0
LINE
  5
284
100
AcDbEntity
  8
0
100
AcDbLine
 62
7
  6
CONTINUOUS
 10
360.9717030634
 20
31.5586763581
 11
361.0873281185
 21
31.623203731
  0
LINE
  5
285
100
AcDbEntity
  8
0
100
AcDbLine
 62
7
  6
CONTINUOUS
 10
359.9888905082
 20
30.9134025506
 11
360.1623280082
 21
31.0101936212
  0
LINE
  5
286
100
AcDbEntity
  8
0
100
AcDbLine
 62
7
  6
CONTINUOUS
 10
359.0060780772
 20
30.8488751693
 11
359.3529530358
 21
30.81661148
  0
LINE
  5
287
100
AcDbEntity
  8
0
100
AcDbLine
 62
7
  6
CONTINUOUS
 10
363.1107656736
 20
30.8488751693
 11
363.3420154531
 21
30.81661148
  0
LINE
  5
288
100
AcDbEntity
  8
0
100
AcDbLine
 62
7
  6
CONTINUOUS
 10
361.4920155634
 20
31.7199947902
 11
361.7232656736
 21
31.6877311038
  0
LINE
  5
289
100
AcDbEntity
  8
0
100
AcDbLine
 62
7
  6
CONTINUOUS
 10
363.8045156736
 20
31.7199947902
 11
364.0357657839
 21
31.6877311038
  0
LINE
  5
28A
100
AcDbEntity
  8
0
100
AcDbLine
 62
7
  6
CONTINUOUS
 10
368.2560780634
 20
31.3650941944
 11
369.2388907839
 21
31.2037757623
  0
LINE
  5
28B
100
AcDbEntity
  8
0
100
AcDbLine
 62
7
  6
CONTINUOUS
 10
369.4123282839
 20
31.3005668216
 11
368.4295155634
 21
31.4618852989
  0
LINE
  5
28C
100
AcDbEntity
  8
0
100
AcDbLine
 62
7
  6
CONTINUOUS
 10
361.8967031736
 20
31.8167858495
 11
361.7232656736
 21
31.8490495359
  0
LINE
  5
28D
100
AcDbEntity
  8
0
100
AcDbLine
 62
7
  6
CONTINUOUS
 10
368.1982657839
 20
30.8811388585
 11
368.3717032839
 21
30.8488751693
  0
LINE
  5
28E
100
AcDbEntity
  8
0
100
AcDbLine
 62
7
  6
CONTINUOUS
 10
367.0420155634
 20
31.8167858495
 11
366.8685780634
 21
31.8490495359
  0
LINE
  5
28F
100
AcDbEntity
  8
0
100
AcDbLine
 62
7
  6
CONTINUOUS
 10
369.2967030634
 20
31.6877311038
 11
369.4123282839
 21
31.6554674174
  0
LINE
  5
290
100
AcDbEntity
  8
0
100
AcDbLine
 62
7
  6
CONTINUOUS
 10
369.4701405634
 20
31.074720994
 11
369.4123282839
 21
31.0101936212
  0
LINE
  5
291
100
AcDbEntity
  8
0
100
AcDbLine
 62
7
  6
CONTINUOUS
 10
368.0248282839
 20
31.7522584767
 11
367.9092030634
 21
31.6554674174
  0
LINE
  5
292
100
AcDbEntity
  8
0
100
AcDbLine
 62
7
  6
CONTINUOUS
 10
362.9373281736
 20
31.7845221631
 11
362.8217029531
 21
31.7199947902
  0
LINE
  5
293
100
AcDbEntity
  8
0
100
AcDbLine
 62
7
  6
CONTINUOUS
 10
362.9951404531
 20
31.397357926
 11
362.8795155634
 21
31.332830508
  0
LINE
  5
294
100
AcDbEntity
  8
0
100
AcDbLine
 62
7
  6
CONTINUOUS
 10
363.1107656736
 20
31.2360394487
 11
363.2263905634
 21
31.3005668216
  0
LINE
  5
295
100
AcDbEntity
  8
0
100
AcDbLine
 62
7
  6
CONTINUOUS
 10
360.6826405082
 20
30.81661148
 11
360.9717030634
 21
30.81661148
  0
LINE
  5
296
100
AcDbEntity
  8
0
100
AcDbLine
 62
7
  6
CONTINUOUS
 10
362.0123280634
 20
30.81661148
 11
362.3013904531
 21
30.81661148
  0
LINE
  5
297
100
AcDbEntity
  8
0
100
AcDbLine
 62
7
  6
CONTINUOUS
 10
363.3420154531
 20
30.81661148
 11
363.6888904531
 21
30.81661148
  0
LINE
  5
298
100
AcDbEntity
  8
0
100
AcDbLine
 62
7
  6
CONTINUOUS
 10
364.3248278428
 20
30.81661148
 11
364.6138905634
 21
30.81661148
  0
LINE
  5
299
100
AcDbEntity
  8
0
100
AcDbLine
 62
7
  6
CONTINUOUS
 10
365.0763907839
 20
30.81661148
 11
365.3654528428
 21
30.81661148
  0
LINE
  5
29A
100
AcDbEntity
  8
0
100
AcDbLine
 62
7
  6
CONTINUOUS
 10
365.8279530634
 20
30.81661148
 11
366.1170157839
 21
30.81661148
  0
LINE
  5
29B
100
AcDbEntity
  8
0
100
AcDbLine
 62
7
  6
CONTINUOUS
 10
367.1576407839
 20
30.81661148
 11
367.4467028428
 21
30.81661148
  0
LINE
  5
29C
100
AcDbEntity
  8
0
100
AcDbLine
 62
7
  6
CONTINUOUS
 10
368.7185782839
 20
30.81661148
 11
369.0654532839
 21
30.81661148
  0
LINE
  5
29D
100
AcDbEntity
  8
0
100
AcDbLine
 62
7
  6
CONTINUOUS
 10
369.0654532839
 20
30.945666237
 11
368.7185782839
 21
30.945666237
  0
LINE
  5
29E
100
AcDbEntity
  8
0
100
AcDbLine
 62
7
  6
CONTINUOUS
 10
363.6888904531
 20
30.945666237
 11
363.3420154531
 21
30.945666237
  0
LINE
  5
29F
100
AcDbEntity
  8
0
100
AcDbLine
 62
7
  6
CONTINUOUS
 10
368.1982657839
 20
31.074720994
 11
367.9092030634
 21
31.074720994
  0
LINE
  5
2A0
100
AcDbEntity
  8
0
100
AcDbLine
 62
7
  6
CONTINUOUS
 10
360.2201406185
 20
31.1392483894
 11
359.9310780634
 21
31.1392483894
  0
LINE
  5
2A1
100
AcDbEntity
  8
0
100
AcDbLine
 62
7
  6
CONTINUOUS
 10
359.2951405909
 20
31.7199947902
 11
359.6998280358
 21
31.6877311038
  0
LINE
  5
2A2
100
AcDbEntity
  8
0
100
AcDbLine
 62
7
  6
CONTINUOUS
 10
359.7576405634
 20
31.8167858495
 11
359.3529530358
 21
31.8490495359
  0
LINE
  5
2A3
100
AcDbEntity
  8
0
100
AcDbLine
 62
7
  6
CONTINUOUS
 10
368.3717032839
 20
30.8488751693
 11
368.7185782839
 21
30.81661148
  0
LINE
  5
2A4
100
AcDbEntity
  8
0
100
AcDbLine
 62
7
  6
CONTINUOUS
 10
368.7185782839
 20
30.945666237
 11
368.3717032839
 21
30.9779299347
  0
LINE
  5
2A5
100
AcDbEntity
  8
0
100
AcDbLine
 62
7
  6
CONTINUOUS
 10
364.1513903428
 20
31.8167858495
 11
363.8045156736
 21
31.8490495359
  0
LINE
  5
2A6
100
AcDbEntity
  8
0
100
AcDbLine
 62
7
  6
CONTINUOUS
 10
368.9498280634
 20
31.7199947902
 11
369.2967030634
 21
31.6877311038
  0
LINE
  5
2A7
100
AcDbEntity
  8
0
100
AcDbLine
 62
7
  6
CONTINUOUS
 10
369.2967030634
 20
31.8167858495
 11
368.9498280634
 21
31.8490495359
  0
LINE
  5
2A8
100
AcDbEntity
  8
0
100
AcDbLine
 62
7
  6
CONTINUOUS
 10
366.6373282839
 20
31.7199947902
 11
366.8685780634
 21
31.6877311038
  0
LINE
  5
2A9
100
AcDbEntity
  8
0
100
AcDbLine
 62
7
  6
CONTINUOUS
 10
369.4701405634
 20
31.7845221631
 11
369.2967030634
 21
31.8167858495
  0
LINE
  5
2AA
100
AcDbEntity
  8
0
100
AcDbLine
 62
7
  6
CONTINUOUS
 10
369.6435780634
 20
30.9134025506
 11
369.7592026223
 21
31.0101936212
  0
LINE
  5
2AB
100
AcDbEntity
  8
0
100
AcDbLine
 62
7
  6
CONTINUOUS
 10
364.1513903428
 20
31.106984703
 11
363.9779528428
 21
31.0101936212
  0
LINE
  5
2AC
100
AcDbEntity
  8
0
100
AcDbLine
 62
7
  6
CONTINUOUS
 10
366.2326403428
 20
31.7522584767
 11
366.1170157839
 21
31.6877311038
  0
LINE
  5
2AD
100
AcDbEntity
  8
0
100
AcDbLine
 62
7
  6
CONTINUOUS
 10
366.1170157839
 20
31.5586763581
 11
366.2326403428
 21
31.623203731
  0
LINE
  5
2AE
100
AcDbEntity
  8
0
100
AcDbLine
 62
7
  6
CONTINUOUS
 10
358.8326405772
 20
31.7845221631
 11
358.6592030565
 21
31.7199947902
  0
LINE
  5
2AF
100
AcDbEntity
  8
0
100
AcDbLine
 62
7
  6
CONTINUOUS
 10
361.2607654531
 20
31.8167858495
 11
361.0873281185
 21
31.7522584767
  0
LINE
  5
2B0
100
AcDbEntity
  8
0
100
AcDbLine
 62
7
  6
CONTINUOUS
 10
361.0873281185
 20
31.623203731
 11
361.2607654531
 21
31.6877311038
  0
LINE
  5
2B1
100
AcDbEntity
  8
0
100
AcDbLine
 62
7
  6
CONTINUOUS
 10
359.8732656185
 20
31.0424573076
 11
359.6998280358
 21
30.9779299347
  0
LINE
  5
2B2
100
AcDbEntity
  8
0
100
AcDbLine
 62
7
  6
CONTINUOUS
 10
369.2967030634
 20
30.9779299347
 11
369.0654532839
 21
30.945666237
  0
LINE
  5
2B3
100
AcDbEntity
  8
0
100
AcDbLine
 62
7
  6
CONTINUOUS
 10
363.6888904531
 20
30.81661148
 11
363.9779528428
 21
30.8488751693
  0
LINE
  5
2B4
100
AcDbEntity
  8
0
100
AcDbLine
 62
7
  6
CONTINUOUS
 10
369.0654532839
 20
30.81661148
 11
369.4123282839
 21
30.8488751693
  0
LINE
  5
2B5
100
AcDbEntity
  8
0
100
AcDbLine
 62
7
  6
CONTINUOUS
 10
359.3529530358
 20
30.81661148
 11
359.7576405634
 21
30.8488751693
  0
LINE
  5
2B6
100
AcDbEntity
  8
0
100
AcDbLine
 62
7
  6
CONTINUOUS
 10
359.6998280358
 20
30.9779299347
 11
359.2951405909
 21
30.945666237
  0
LINE
  5
2B7
100
AcDbEntity
  8
0
100
AcDbLine
 62
7
  6
CONTINUOUS
 10
363.5732655634
 20
31.3650941944
 11
364.2092032839
 21
31.3650941944
  0
LINE
  5
2B8
100
AcDbEntity
  8
0
100
AcDbLine
 62
7
  6
CONTINUOUS
 10
364.2092032839
 20
31.4941489853
 11
363.5732655634
 21
31.4941489853
  0
LINE
  5
2B9
100
AcDbEntity
  8
0
100
AcDbLine
 62
7
  6
CONTINUOUS
 10
359.9310780634
 20
31.5264126717
 11
360.2201406185
 21
31.5264126717
  0
LINE
  5
2BA
100
AcDbEntity
  8
0
100
AcDbLine
 62
7
  6
CONTINUOUS
 10
362.7638906736
 20
31.5909400446
 11
363.0529530634
 21
31.5909400446
  0
LINE
  5
2BB
100
AcDbEntity
  8
0
100
AcDbLine
 62
7
  6
CONTINUOUS
 10
369.4701405634
 20
31.5909400446
 11
369.7592026223
 21
31.5909400446
  0
LINE
  5
2BC
100
AcDbEntity
  8
0
100
AcDbLine
 62
7
  6
CONTINUOUS
 10
363.4576406736
 20
31.7199947902
 11
363.8045156736
 21
31.7199947902
  0
LINE
  5
2BD
100
AcDbEntity
  8
0
100
AcDbLine
 62
7
  6
CONTINUOUS
 10
368.6029530634
 20
31.7199947902
 11
368.9498280634
 21
31.7199947902
  0
LINE
  5
2BE
100
AcDbEntity
  8
0
100
AcDbLine
 62
7
  6
CONTINUOUS
 10
368.9498280634
 20
31.8490495359
 11
368.6029530634
 21
31.8490495359
  0
LINE
  5
2BF
100
AcDbEntity
  8
0
100
AcDbLine
 62
7
  6
CONTINUOUS
 10
366.8685780634
 20
31.8490495359
 11
366.6373282839
 21
31.8490495359
  0
LINE
  5
2C0
100
AcDbEntity
  8
0
100
AcDbLine
 62
7
  6
CONTINUOUS
 10
366.1170157839
 20
31.8490495359
 11
365.8279530634
 21
31.8490495359
  0
LINE
  5
2C1
100
AcDbEntity
  8
0
100
AcDbLine
 62
7
  6
CONTINUOUS
 10
365.3654528428
 20
31.8490495359
 11
365.0763907839
 21
31.8490495359
  0
LINE
  5
2C2
100
AcDbEntity
  8
0
100
AcDbLine
 62
7
  6
CONTINUOUS
 10
363.8045156736
 20
31.8490495359
 11
363.4576406736
 21
31.8490495359
  0
LINE
  5
2C3
100
AcDbEntity
  8
0
100
AcDbLine
 62
7
  6
CONTINUOUS
 10
361.7232656736
 20
31.8490495359
 11
361.4920155634
 21
31.8490495359
  0
LINE
  5
2C4
100
AcDbEntity
  8
0
100
AcDbLine
 62
7
  6
CONTINUOUS
 10
365.0763907839
 20
32.1716864905
 11
365.3654528428
 21
32.1716864905
  0
LINE
  5
2C5
100
AcDbEntity
  8
0
100
AcDbLine
 62
7
  6
CONTINUOUS
 10
365.3654528428
 20
32.3330049227
 11
365.0763907839
 21
32.3330049227
  0
LINE
  5
2C6
100
AcDbEntity
  8
0
100
AcDbLine
 62
7
  6
CONTINUOUS
 10
360.9717030634
 20
32.3330049227
 11
360.6826405082
 21
32.3330049227
  0
LINE
  5
2C7
100
AcDbEntity
  8
0
100
AcDbLine
 62
7
  6
CONTINUOUS
 10
360.0094848257
 20
32.6198901686
 11
360.4220561743
 21
32.6198901686
  0
LINE
  5
2C8
100
AcDbEntity
  8
0
100
AcDbLine
 62
7
  6
CONTINUOUS
 10
361.648829088
 20
32.6198901686
 11
363.0422717109
 21
32.6198901686
  0
LINE
  5
2C9
100
AcDbEntity
  8
0
100
AcDbLine
 62
7
  6
CONTINUOUS
 10
363.3701405634
 20
32.6198901686
 11
364.7635831863
 21
32.6198901686
  0
LINE
  5
2CA
100
AcDbEntity
  8
0
100
AcDbLine
 62
7
  6
CONTINUOUS
 10
366.648829088
 20
32.6198901686
 11
368.0422717109
 21
32.6198901686
  0
LINE
  5
2CB
100
AcDbEntity
  8
0
100
AcDbLine
 62
7
  6
CONTINUOUS
 10
368.3701405634
 20
32.6198901686
 11
369.7635831863
 21
32.6198901686
  0
LINE
  5
2CC
100
AcDbEntity
  8
0
100
AcDbLine
 62
7
  6
CONTINUOUS
 10
366.4060778428
 20
31.8167858495
 11
366.2326403428
 21
31.7522584767
  0
LINE
  5
2CD
100
AcDbEntity
  8
0
100
AcDbLine
 62
7
  6
CONTINUOUS
 10
363.9779528428
 20
30.8488751693
 11
364.1513903428
 21
30.9134025506
  0
LINE
  5
2CE
100
AcDbEntity
  8
0
100
AcDbLine
 62
7
  6
CONTINUOUS
 10
369.4123282839
 20
30.8488751693
 11
369.6435780634
 21
30.9134025506
  0
LINE
  5
2CF
100
AcDbEntity
  8
0
100
AcDbLine
 62
7
  6
CONTINUOUS
 10
369.4123282839
 20
31.0101936212
 11
369.2967030634
 21
30.9779299347
  0
LINE
  5
2D0
100
AcDbEntity
  8
0
100
AcDbLine
 62
7
  6
CONTINUOUS
 10
368.3717032839
 20
31.6877311038
 11
368.6029530634
 21
31.7199947902
  0
LINE
  5
2D1
100
AcDbEntity
  8
0
100
AcDbLine
 62
7
  6
CONTINUOUS
 10
366.4060778428
 20
31.6877311038
 11
366.6373282839
 21
31.7199947902
  0
LINE
  5
2D2
100
AcDbEntity
  8
0
100
AcDbLine
 62
7
  6
CONTINUOUS
 10
363.3420154531
 20
31.332830508
 11
363.5732655634
 21
31.3650941944
  0
LINE
  5
2D3
100
AcDbEntity
  8
0
100
AcDbLine
 62
7
  6
CONTINUOUS
 10
366.6373282839
 20
31.8490495359
 11
366.4060778428
 21
31.8167858495
  0
LINE
  5
2D4
100
AcDbEntity
  8
0
100
AcDbLine
 62
7
  6
CONTINUOUS
 10
363.2263905634
 20
31.6877311038
 11
363.4576406736
 21
31.7199947902
  0
LINE
  5
2D5
100
AcDbEntity
  8
0
100
AcDbLine
 62
7
  6
CONTINUOUS
 10
368.6029530634
 20
31.8490495359
 11
368.2560780634
 21
31.8167858495
  0
LINE
  5
2D6
100
AcDbEntity
  8
0
100
AcDbLine
 62
7
  6
CONTINUOUS
 10
363.5732655634
 20
31.4941489853
 11
363.2263905634
 21
31.4618852989
  0
LINE
  5
2D7
100
AcDbEntity
  8
0
100
AcDbLine
 62
7
  6
CONTINUOUS
 10
359.3529530358
 20
31.8490495359
 11
359.0060780772
 21
31.8167858495
  0
LINE
  5
2D8
100
AcDbEntity
  8
0
100
AcDbLine
 62
7
  6
CONTINUOUS
 10
363.4576406736
 20
31.8490495359
 11
363.0529530634
 21
31.8167858495
  0
LINE
  5
2D9
100
AcDbEntity
  8
0
100
AcDbLine
 62
7
  6
CONTINUOUS
 10
360.8291569568
 20
33.7674311522
 11
360.1734192519
 21
33.7674311522
  0
LINE
  5
2DA
100
AcDbEntity
  8
0
100
AcDbLine
 62
7
  6
CONTINUOUS
 10
366.2326403428
 20
31.623203731
 11
366.4060778428
 21
31.6877311038
  0
LINE
  5
2DB
100
AcDbEntity
  8
0
100
AcDbLine
 62
7
  6
CONTINUOUS
 10
368.2560780634
 20
31.6554674174
 11
368.3717032839
 21
31.6877311038
  0
LINE
  5
2DC
100
AcDbEntity
  8
0
100
AcDbLine
 62
7
  6
CONTINUOUS
 10
368.2560780634
 20
31.8167858495
 11
368.0248282839
 21
31.7522584767
  0
LINE
  5
2DD
100
AcDbEntity
  8
0
100
AcDbLine
 62
7
  6
CONTINUOUS
 10
363.9779528428
 20
31.0101936212
 11
363.6888904531
 21
30.945666237
  0
LINE
  5
2DE
100
AcDbEntity
  8
0
100
AcDbLine
 62
7
  6
CONTINUOUS
 10
361.2607654531
 20
31.6877311038
 11
361.4920155634
 21
31.7199947902
  0
LINE
  5
2DF
100
AcDbEntity
  8
0
100
AcDbLine
 62
7
  6
CONTINUOUS
 10
361.4920155634
 20
31.8490495359
 11
361.2607654531
 21
31.8167858495
  0
LINE
  5
2E0
100
AcDbEntity
  8
0
100
AcDbLine
 62
7
  6
CONTINUOUS
 10
359.0638905634
 20
31.6877311038
 11
359.2951405909
 21
31.7199947902
  0
LINE
  5
2E1
100
AcDbEntity
  8
0
100
AcDbLine
 62
7
  6
CONTINUOUS
 10
365.5832553175
 20
35.2428409882
 11
366.2389930224
 21
35.2428409882
  0
LINE
  5
2E2
100
AcDbEntity
  8
0
100
AcDbLine
 62
7
  6
CONTINUOUS
 10
363.2263905634
 20
31.3005668216
 11
363.3420154531
 21
31.332830508
  0
LINE
  5
2E3
100
AcDbEntity
  8
0
100
AcDbLine
 62
7
  6
CONTINUOUS
 10
363.2263905634
 20
31.4618852989
 11
362.9951404531
 21
31.397357926
  0
LINE
  5
2E4
100
AcDbEntity
  8
0
100
AcDbLine
 62
7
  6
CONTINUOUS
 10
363.1107656736
 20
31.6554674174
 11
363.2263905634
 21
31.6877311038
  0
LINE
  5
2E5
100
AcDbEntity
  8
0
100
AcDbLine
 62
7
  6
CONTINUOUS
 10
359.7576405634
 20
30.8488751693
 11
359.9888905082
 21
30.9134025506
  0
LINE
  5
2E6
100
AcDbEntity
  8
0
100
AcDbLine
 62
7
  6
CONTINUOUS
 10
363.0529530634
 20
31.8167858495
 11
362.9373281736
 21
31.7845221631
  0
LINE
  5
2E7
100
AcDbEntity
  8
0
100
AcDbLine
 62
7
  6
CONTINUOUS
 10
359.0060780772
 20
31.8167858495
 11
358.8326405772
 21
31.7845221631
  0
LINE
  5
2E8
100
AcDbEntity
  8
0
100
AcDbLine
 62
7
  6
CONTINUOUS
 10
369.7635831863
 20
36.3903819718
 11
368.3701405634
 21
36.3903819718
  0
LINE
  5
2E9
100
AcDbEntity
  8
0
100
AcDbLine
 62
7
  6
CONTINUOUS
 10
366.4029274486
 20
36.3903819718
 11
365.9903561
 21
36.3903819718
  0
LINE
  5
2EA
100
AcDbEntity
  8
0
100
AcDbLine
 62
7
  6
CONTINUOUS
 10
364.7635831863
 20
36.3903819718
 11
363.3701405634
 21
36.3903819718
  0
LINE
  5
2EB
100
AcDbEntity
  8
0
100
AcDbLine
 62
7
  6
CONTINUOUS
 10
363.0422717109
 20
36.3903819718
 11
361.648829088
 21
36.3903819718
  0
LINE
  5
2EC
100
AcDbEntity
  8
0
100
AcDbLine
 62
7
  6
CONTINUOUS
 10
359.7635831863
 20
36.3903819718
 11
358.3701405634
 21
36.3903819718
  0
LINE
  5
2ED
100
AcDbEntity
  8
0
100
AcDbLine
 62
7
  6
CONTINUOUS
 10
358.9482655496
 20
31.6554674174
 11
359.0638905634
 21
31.6877311038
  0
CIRCLE
  5
2EE
100
AcDbEntity
  8
0
100
AcDbCircle
 62
7
  6
CONTINUOUS
 10
369.0668618749
 20
38.7264475456
 40
2.0901639344
  0
ARC
  5
2EF
100
AcDbEntity
  8
0
100
AcDbCircle
 62
7
  6
CONTINUOUS
 10
360.0094848257
 20
34.2592344308
 40
1.6393442623
100
AcDbArc
 50
180.0
 51
270.0
  0
ARC
  5
2F0
100
AcDbEntity
  8
0
100
AcDbCircle
 62
7
  6
CONTINUOUS
 10
366.4029274486
 20
34.7510377095
 40
1.6393442623
100
AcDbArc
 50
0.0
 51
90.0
  0
ARC
  5
2F1
100
AcDbEntity
  8
0
100
AcDbCircle
 62
7
  6
CONTINUOUS
 10
360.4220561743
 20
34.0953000046
 40
1.4754098361
100
AcDbArc
 50
270.0
 51
326.2510114041
  0
ARC
  5
2F2
100
AcDbEntity
  8
0
100
AcDbCircle
 62
7
  6
CONTINUOUS
 10
365.9903561
 20
34.9149721358
 40
1.4754098361
100
AcDbArc
 50
90.0
 51
146.2510114041
  0
ARC
  5
2F3
100
AcDbEntity
  8
0
100
AcDbCircle
 62
7
  6
CONTINUOUS
 10
360.8291569568
 20
34.5871032833
 40
0.8196721311
100
AcDbArc
 50
270.0
 51
360.0
  0
ARC
  5
2F4
100
AcDbEntity
  8
0
100
AcDbCircle
 62
7
  6
CONTINUOUS
 10
365.5832553175
 20
34.4231688571
 40
0.8196721311
100
AcDbArc
 50
90.0
 51
180.0
  0
ARC
  5
2F5
100
AcDbEntity
  8
0
100
AcDbCircle
 62
7
  6
CONTINUOUS
 10
360.1734192519
 20
34.1772672177
 40
0.4098360656
100
AcDbArc
 50
180.0
 51
270.0
  0
ARC
  5
2F6
100
AcDbEntity
  8
0
100
AcDbCircle
 62
7
  6
CONTINUOUS
 10
366.2389930224
 20
34.8330049227
 40
0.4098360656
100
AcDbArc
 50
0.0
 51
90.0
  0
SOLID
  5
2F7
100
AcDbEntity
  8
0
100
AcDbTrace
 62
7
  6
CONTINUOUS
 10
365.0763907839
 20
32.1716868508
 11
365.0763907839
 21
32.3330053344
 12
365.3654528428
 22
32.1716868508
 13
365.3654528428
 23
32.3330053344
  0
LWPOLYLINE
  5
2F8
100
AcDbEntity
  8
0
100
AcDbPolyline
 62
7
  6
CONTINUOUS
 90
13
 70
0
 10
359.3529530358
 20
31.8490498836
 10
359.7576405634
 20
31.8167855803
 10
359.9888905082
 20
31.7522584901
 10
360.1623280082
 20
31.6554670967
 10
360.2201406185
 20
31.5264129164
 10
359.9310780634
 20
31.5264129164
 10
359.8732656185
 20
31.6232043098
 10
359.6998280358
 20
31.6877314
 10
359.2951405909
 20
31.7199941869
 10
358.6592030565
 20
31.7199941869
 10
358.8326405772
 20
31.7845227934
 10
359.0060780772
 20
31.8167855803
 10
359.3529530358
 20
31.8490498836
  0
HATCH
  5
2F9
100
AcDbEntity
  8
0
100
AcDbHatch
 62
7
  6
CONTINUOUS
 10
0.0
 20
0.0
 30
0.0
210
0.0
220
0.0
230
1.0
  2
SOLID
 70
1
 71
1
 91
1
 92
1
 93
12
 72
1
 10
359.3529530358
 20
31.8490498836
 11
359.7576405634
 21
31.8167855803
 72
1
 10
359.7576405634
 20
31.8167855803
 11
359.9888905082
 21
31.7522584901
 72
1
 10
359.9888905082
 20
31.7522584901
 11
360.1623280082
 21
31.6554670967
 72
1
 10
360.1623280082
 20
31.6554670967
 11
360.2201406185
 21
31.5264129164
 72
1
 10
360.2201406185
 20
31.5264129164
 11
359.9310780634
 21
31.5264129164
 72
1
 10
359.9310780634
 20
31.5264129164
 11
359.8732656185
 21
31.6232043098
 72
1
 10
359.8732656185
 20
31.6232043098
 11
359.6998280358
 21
31.6877314
 72
1
 10
359.6998280358
 20
31.6877314
 11
359.2951405909
 21
31.7199941869
 72
1
 10
359.2951405909
 20
31.7199941869
 11
358.6592030565
 21
31.7199941869
 72
1
 10
358.6592030565
 20
31.7199941869
 11
358.8326405772
 21
31.7845227934
 72
1
 10
358.8326405772
 20
31.7845227934
 11
359.0060780772
 21
31.8167855803
 72
1
 10
359.0060780772
 20
31.8167855803
 11
359.3529530358
 21
31.8490498836
 97
1
330
2F8
 75
0
 76
1
 98
1
 10
0.0
 20
0.0
  0
LWPOLYLINE
  5
2FA
100
AcDbEntity
  8
0
100
AcDbPolyline
 62
7
  6
CONTINUOUS
 90
25
 70
0
 10
361.2607654531
 20
31.8167855803
 10
361.4920155634
 20
31.8490498836
 10
361.7232656736
 20
31.8490498836
 10
361.8967031736
 20
31.8167855803
 10
362.0701406736
 20
31.7522584901
 10
362.1857655634
 20
31.6877314
 10
362.2435781736
 20
31.6232043098
 10
362.3013904531
 20
31.4618858262
 10
362.3013904531
 20
30.8166118918
 10
362.0123280634
 20
30.8166118918
 10
362.0123280634
 20
31.4618858262
 10
361.9545154531
 20
31.5909400065
 10
361.8388905634
 20
31.6554670967
 10
361.7232656736
 20
31.6877314
 10
361.4920155634
 20
31.7199941869
 10
361.2607654531
 20
31.6877314
 10
361.0873281185
 20
31.6232043098
 10
360.9717030634
 20
31.5586757033
 10
360.9717030634
 20
30.8166118918
 10
360.6826405082
 20
30.8166118918
 10
360.6826405082
 20
32.3330053344
 10
360.9717030634
 20
32.3330053344
 10
360.9717030634
 20
31.6877314
 10
361.0873281185
 20
31.7522584901
 10
361.2607654531
 20
31.8167855803
  0
HATCH
  5
2FB
100
AcDbEntity
  8
0
100
AcDbHatch
 62
7
  6
CONTINUOUS
 10
0.0
 20
0.0
 30
0.0
210
0.0
220
0.0
230
1.0
  2
SOLID
 70
1
 71
1
 91
1
 92
1
 93
24
 72
1
 10
361.2607654531
 20
31.8167855803
 11
361.4920155634
 21
31.8490498836
 72
1
 10
361.4920155634
 20
31.8490498836
 11
361.7232656736
 21
31.8490498836
 72
1
 10
361.7232656736
 20
31.8490498836
 11
361.8967031736
 21
31.8167855803
 72
1
 10
361.8967031736
 20
31.8167855803
 11
362.0701406736
 21
31.7522584901
 72
1
 10
362.0701406736
 20
31.7522584901
 11
362.1857655634
 21
31.6877314
 72
1
 10
362.1857655634
 20
31.6877314
 11
362.2435781736
 21
31.6232043098
 72
1
 10
362.2435781736
 20
31.6232043098
 11
362.3013904531
 21
31.4618858262
 72
1
 10
362.3013904531
 20
31.4618858262
 11
362.3013904531
 21
30.8166118918
 72
1
 10
362.3013904531
 20
30.8166118918
 11
362.0123280634
 21
30.8166118918
 72
1
 10
362.0123280634
 20
30.8166118918
 11
362.0123280634
 21
31.4618858262
 72
1
 10
362.0123280634
 20
31.4618858262
 11
361.9545154531
 21
31.5909400065
 72
1
 10
361.9545154531
 20
31.5909400065
 11
361.8388905634
 21
31.6554670967
 72
1
 10
361.8388905634
 20
31.6554670967
 11
361.7232656736
 21
31.6877314
 72
1
 10
361.7232656736
 20
31.6877314
 11
361.4920155634
 21
31.7199941869
 72
1
 10
361.4920155634
 20
31.7199941869
 11
361.2607654531
 21
31.6877314
 72
1
 10
361.2607654531
 20
31.6877314
 11
361.0873281185
 21
31.6232043098
 72
1
 10
361.0873281185
 20
31.6232043098
 11
360.9717030634
 21
31.5586757033
 72
1
 10
360.9717030634
 20
31.5586757033
 11
360.9717030634
 21
30.8166118918
 72
1
 10
360.9717030634
 20
30.8166118918
 11
360.6826405082
 21
30.8166118918
 72
1
 10
360.6826405082
 20
30.8166118918
 11
360.6826405082
 21
32.3330053344
 72
1
 10
360.6826405082
 20
32.3330053344
 11
360.9717030634
 21
32.3330053344
 72
1
 10
360.9717030634
 20
32.3330053344
 11
360.9717030634
 21
31.6877314
 72
1
 10
360.9717030634
 20
31.6877314
 11
361.0873281185
 21
31.7522584901
 72
1
 10
361.0873281185
 20
31.7522584901
 11
361.2607654531
 21
31.8167855803
 97
1
330
2FA
 75
0
 76
1
 98
1
 10
0.0
 20
0.0
  0
LWPOLYLINE
  5
2FC
100
AcDbEntity
  8
0
100
AcDbPolyline
 62
7
  6
CONTINUOUS
 90
20
 70
0
 10
363.0529530634
 20
31.8167855803
 10
363.4576406736
 20
31.8490498836
 10
363.8045156736
 20
31.8490498836
 10
364.1513903428
 20
31.8167855803
 10
364.3248278428
 20
31.7522584901
 10
364.4404530634
 20
31.6877314
 10
364.4982653428
 20
31.5909400065
 10
364.4982653428
 20
31.0747202524
 10
364.2092032839
 20
31.1715120759
 10
364.2092032839
 20
31.3650944328
 10
364.2092032839
 20
31.4941486131
 10
364.2092032839
 20
31.5909400065
 10
364.1513903428
 20
31.6554670967
 10
364.0357657839
 20
31.6877314
 10
363.8045156736
 20
31.7199941869
 10
363.4576406736
 20
31.7199941869
 10
362.7638906736
 20
31.6554670967
 10
362.8217029531
 20
31.7199941869
 10
362.9373281736
 20
31.7845227934
 10
363.0529530634
 20
31.8167855803
  0
HATCH
  5
2FD
100
AcDbEntity
  8
0
100
AcDbHatch
 62
7
  6
CONTINUOUS
 10
0.0
 20
0.0
 30
0.0
210
0.0
220
0.0
230
1.0
  2
SOLID
 70
1
 71
1
 91
1
 92
1
 93
19
 72
1
 10
363.0529530634
 20
31.8167855803
 11
363.4576406736
 21
31.8490498836
 72
1
 10
363.4576406736
 20
31.8490498836
 11
363.8045156736
 21
31.8490498836
 72
1
 10
363.8045156736
 20
31.8490498836
 11
364.1513903428
 21
31.8167855803
 72
1
 10
364.1513903428
 20
31.8167855803
 11
364.3248278428
 21
31.7522584901
 72
1
 10
364.3248278428
 20
31.7522584901
 11
364.4404530634
 21
31.6877314
 72
1
 10
364.4404530634
 20
31.6877314
 11
364.4982653428
 21
31.5909400065
 72
1
 10
364.4982653428
 20
31.5909400065
 11
364.4982653428
 21
31.0747202524
 72
1
 10
364.4982653428
 20
31.0747202524
 11
364.2092032839
 21
31.1715120759
 72
1
 10
364.2092032839
 20
31.1715120759
 11
364.2092032839
 21
31.3650944328
 72
1
 10
364.2092032839
 20
31.3650944328
 11
364.2092032839
 21
31.4941486131
 72
1
 10
364.2092032839
 20
31.4941486131
 11
364.2092032839
 21
31.5909400065
 72
1
 10
364.2092032839
 20
31.5909400065
 11
364.1513903428
 21
31.6554670967
 72
1
 10
364.1513903428
 20
31.6554670967
 11
364.0357657839
 21
31.6877314
 72
1
 10
364.0357657839
 20
31.6877314
 11
363.8045156736
 21
31.7199941869
 72
1
 10
363.8045156736
 20
31.7199941869
 11
363.4576406736
 21
31.7199941869
 72
1
 10
363.4576406736
 20
31.7199941869
 11
362.7638906736
 21
31.6554670967
 72
1
 10
362.7638906736
 20
31.6554670967
 11
362.8217029531
 21
31.7199941869
 72
1
 10
362.8217029531
 20
31.7199941869
 11
362.9373281736
 21
31.7845227934
 72
1
 10
362.9373281736
 20
31.7845227934
 11
363.0529530634
 21
31.8167855803
 97
1
330
2FC
 75
0
 76
1
 98
1
 10
0.0
 20
0.0
  0
LWPOLYLINE
  5
2FE
100
AcDbEntity
  8
0
100
AcDbPolyline
 62
7
  6
CONTINUOUS
 90
25
 70
0
 10
366.4060778428
 20
31.8167855803
 10
366.6373282839
 20
31.8490498836
 10
366.8685780634
 20
31.8490498836
 10
367.0420155634
 20
31.8167855803
 10
367.2154530634
 20
31.7522584901
 10
367.3310782839
 20
31.6877314
 10
367.3888905634
 20
31.5909400065
 10
367.4467028428
 20
31.4296215229
 10
367.4467028428
 20
30.8166118918
 10
367.1576407839
 20
30.8166118918
 10
367.1576407839
 20
31.4296215229
 10
367.0998278428
 20
31.5909400065
 10
366.9842032839
 20
31.6554670967
 10
366.8685780634
 20
31.6877314
 10
366.6373282839
 20
31.7199941869
 10
366.4060778428
 20
31.6877314
 10
366.2326403428
 20
31.6232043098
 10
366.1170157839
 20
31.5586757033
 10
366.1170157839
 20
30.8166118918
 10
365.8279530634
 20
30.8166118918
 10
365.8279530634
 20
31.8490498836
 10
366.1170157839
 20
31.8490498836
 10
366.1170157839
 20
31.6877314
 10
366.2326403428
 20
31.7522584901
 10
366.4060778428
 20
31.8167855803
  0
HATCH
  5
2FF
100
AcDbEntity
  8
0
100
AcDbHatch
 62
7
  6
CONTINUOUS
 10
0.0
 20
0.0
 30
0.0
210
0.0
220
0.0
230
1.0
  2
SOLID
 70
1
 71
1
 91
1
 92
1
 93
24
 72
1
 10
366.4060778428
 20
31.8167855803
 11
366.6373282839
 21
31.8490498836
 72
1
 10
366.6373282839
 20
31.8490498836
 11
366.8685780634
 21
31.8490498836
 72
1
 10
366.8685780634
 20
31.8490498836
 11
367.0420155634
 21
31.8167855803
 72
1
 10
367.0420155634
 20
31.8167855803
 11
367.2154530634
 21
31.7522584901
 72
1
 10
367.2154530634
 20
31.7522584901
 11
367.3310782839
 21
31.6877314
 72
1
 10
367.3310782839
 20
31.6877314
 11
367.3888905634
 21
31.5909400065
 72
1
 10
367.3888905634
 20
31.5909400065
 11
367.4467028428
 21
31.4296215229
 72
1
 10
367.4467028428
 20
31.4296215229
 11
367.4467028428
 21
30.8166118918
 72
1
 10
367.4467028428
 20
30.8166118918
 11
367.1576407839
 21
30.8166118918
 72
1
 10
367.1576407839
 20
30.8166118918
 11
367.1576407839
 21
31.4296215229
 72
1
 10
367.1576407839
 20
31.4296215229
 11
367.0998278428
 21
31.5909400065
 72
1
 10
367.0998278428
 20
31.5909400065
 11
366.9842032839
 21
31.6554670967
 72
1
 10
366.9842032839
 20
31.6554670967
 11
366.8685780634
 21
31.6877314
 72
1
 10
366.8685780634
 20
31.6877314
 11
366.6373282839
 21
31.7199941869
 72
1
 10
366.6373282839
 20
31.7199941869
 11
366.4060778428
 21
31.6877314
 72
1
 10
366.4060778428
 20
31.6877314
 11
366.2326403428
 21
31.6232043098
 72
1
 10
366.2326403428
 20
31.6232043098
 11
366.1170157839
 21
31.5586757033
 72
1
 10
366.1170157839
 20
31.5586757033
 11
366.1170157839
 21
30.8166118918
 72
1
 10
366.1170157839
 20
30.8166118918
 11
365.8279530634
 21
30.8166118918
 72
1
 10
365.8279530634
 20
30.8166118918
 11
365.8279530634
 21
31.8490498836
 72
1
 10
365.8279530634
 20
31.8490498836
 11
366.1170157839
 21
31.8490498836
 72
1
 10
366.1170157839
 20
31.8490498836
 11
366.1170157839
 21
31.6877314
 72
1
 10
366.1170157839
 20
31.6877314
 11
366.2326403428
 21
31.7522584901
 72
1
 10
366.2326403428
 20
31.7522584901
 11
366.4060778428
 21
31.8167855803
 97
1
330
2FE
 75
0
 76
1
 98
1
 10
0.0
 20
0.0
  0
LWPOLYLINE
  5
300
100
AcDbEntity
  8
0
100
AcDbPolyline
 62
7
  6
CONTINUOUS
 90
6
 70
0
 10
368.2560780634
 20
31.8167855803
 10
368.6029530634
 20
31.8490498836
 10
368.9498280634
 20
31.8490498836
 10
369.2967030634
 20
31.8167855803
 10
368.0248282839
 20
31.7522584901
 10
368.2560780634
 20
31.8167855803
  0
HATCH
  5
301
100
AcDbEntity
  8
0
100
AcDbHatch
 62
7
  6
CONTINUOUS
 10
0.0
 20
0.0
 30
0.0
210
0.0
220
0.0
230
1.0
  2
SOLID
 70
1
 71
1
 91
1
 92
1
 93
5
 72
1
 10
368.2560780634
 20
31.8167855803
 11
368.6029530634
 21
31.8490498836
 72
1
 10
368.6029530634
 20
31.8490498836
 11
368.9498280634
 21
31.8490498836
 72
1
 10
368.9498280634
 20
31.8490498836
 11
369.2967030634
 21
31.8167855803
 72
1
 10
369.2967030634
 20
31.8167855803
 11
368.0248282839
 21
31.7522584901
 72
1
 10
368.0248282839
 20
31.7522584901
 11
368.2560780634
 21
31.8167855803
 97
1
330
300
 75
0
 76
1
 98
1
 10
0.0
 20
0.0
  0
LWPOLYLINE
  5
302
100
AcDbEntity
  8
0
100
AcDbPolyline
 62
7
  6
CONTINUOUS
 90
12
 70
0
 10
369.4701405634
 20
31.7845227934
 10
369.6435780634
 20
31.7199941869
 10
369.7592026223
 20
31.5909400065
 10
369.4701405634
 20
31.5909400065
 10
369.4123282839
 20
31.6554670967
 10
369.2967030634
 20
31.6877314
 10
368.9498280634
 20
31.7199941869
 10
368.6029530634
 20
31.7199941869
 10
367.9092030634
 20
31.6554670967
 10
368.0248282839
 20
31.7522584901
 10
369.2967030634
 20
31.8167855803
 10
369.4701405634
 20
31.7845227934
  0
HATCH
  5
303
100
AcDbEntity
  8
0
100
AcDbHatch
 62
7
  6
CONTINUOUS
 10
0.0
 20
0.0
 30
0.0
210
0.0
220
0.0
230
1.0
  2
SOLID
 70
1
 71
1
 91
1
 92
1
 93
11
 72
1
 10
369.4701405634
 20
31.7845227934
 11
369.6435780634
 21
31.7199941869
 72
1
 10
369.6435780634
 20
31.7199941869
 11
369.7592026223
 21
31.5909400065
 72
1
 10
369.7592026223
 20
31.5909400065
 11
369.4701405634
 21
31.5909400065
 72
1
 10
369.4701405634
 20
31.5909400065
 11
369.4123282839
 21
31.6554670967
 72
1
 10
369.4123282839
 20
31.6554670967
 11
369.2967030634
 21
31.6877314
 72
1
 10
369.2967030634
 20
31.6877314
 11
368.9498280634
 21
31.7199941869
 72
1
 10
368.9498280634
 20
31.7199941869
 11
368.6029530634
 21
31.7199941869
 72
1
 10
368.6029530634
 20
31.7199941869
 11
367.9092030634
 21
31.6554670967
 72
1
 10
367.9092030634
 20
31.6554670967
 11
368.0248282839
 21
31.7522584901
 72
1
 10
368.0248282839
 20
31.7522584901
 11
369.2967030634
 21
31.8167855803
 72
1
 10
369.2967030634
 20
31.8167855803
 11
369.4701405634
 21
31.7845227934
 97
1
330
302
 75
0
 76
1
 98
1
 10
0.0
 20
0.0
  0
LWPOLYLINE
  5
304
100
AcDbEntity
  8
0
100
AcDbPolyline
 62
7
  6
CONTINUOUS
 90
7
 70
0
 10
359.0638905634
 20
31.6877314
 10
358.9482655496
 20
31.6554670967
 10
358.4279530651
 20
31.5264129164
 10
358.5435780634
 20
31.6554670967
 10
358.6592030565
 20
31.7199941869
 10
359.2951405909
 20
31.7199941869
 10
359.0638905634
 20
31.6877314
  0
HATCH
  5
305
100
AcDbEntity
  8
0
100
AcDbHatch
 62
7
  6
CONTINUOUS
 10
0.0
 20
0.0
 30
0.0
210
0.0
220
0.0
230
1.0
  2
SOLID
 70
1
 71
1
 91
1
 92
1
 93
6
 72
1
 10
359.0638905634
 20
31.6877314
 11
358.9482655496
 21
31.6554670967
 72
1
 10
358.9482655496
 20
31.6554670967
 11
358.4279530651
 21
31.5264129164
 72
1
 10
358.4279530651
 20
31.5264129164
 11
358.5435780634
 21
31.6554670967
 72
1
 10
358.5435780634
 20
31.6554670967
 11
358.6592030565
 21
31.7199941869
 72
1
 10
358.6592030565
 20
31.7199941869
 11
359.2951405909
 21
31.7199941869
 72
1
 10
359.2951405909
 20
31.7199941869
 11
359.0638905634
 21
31.6877314
 97
1
330
304
 75
0
 76
1
 98
1
 10
0.0
 20
0.0
  0
LWPOLYLINE
  5
306
100
AcDbEntity
  8
0
100
AcDbPolyline
 62
7
  6
CONTINUOUS
 90
7
 70
0
 10
363.2263905634
 20
31.6877314
 10
363.1107656736
 20
31.6554670967
 10
363.0529530634
 20
31.5909400065
 10
362.7638906736
 20
31.5909400065
 10
362.7638906736
 20
31.6554670967
 10
363.4576406736
 20
31.7199941869
 10
363.2263905634
 20
31.6877314
  0
HATCH
  5
307
100
AcDbEntity
  8
0
100
AcDbHatch
 62
7
  6
CONTINUOUS
 10
0.0
 20
0.0
 30
0.0
210
0.0
220
0.0
230
1.0
  2
SOLID
 70
1
 71
1
 91
1
 92
1
 93
6
 72
1
 10
363.2263905634
 20
31.6877314
 11
363.1107656736
 21
31.6554670967
 72
1
 10
363.1107656736
 20
31.6554670967
 11
363.0529530634
 21
31.5909400065
 72
1
 10
363.0529530634
 20
31.5909400065
 11
362.7638906736
 21
31.5909400065
 72
1
 10
362.7638906736
 20
31.5909400065
 11
362.7638906736
 21
31.6554670967
 72
1
 10
362.7638906736
 20
31.6554670967
 11
363.4576406736
 21
31.7199941869
 72
1
 10
363.4576406736
 20
31.7199941869
 11
363.2263905634
 21
31.6877314
 97
1
330
306
 75
0
 76
1
 98
1
 10
0.0
 20
0.0
  0
LWPOLYLINE
  5
308
100
AcDbEntity
  8
0
100
AcDbPolyline
 62
7
  6
CONTINUOUS
 90
8
 70
0
 10
368.3717032839
 20
31.6877314
 10
368.2560780634
 20
31.6554670967
 10
368.1982657839
 20
31.5909400065
 10
368.0248282839
 20
31.4618858262
 10
367.9092030634
 20
31.5909400065
 10
367.9092030634
 20
31.6554670967
 10
368.6029530634
 20
31.7199941869
 10
368.3717032839
 20
31.6877314
  0
HATCH
  5
309
100
AcDbEntity
  8
0
100
AcDbHatch
 62
7
  6
CONTINUOUS
 10
0.0
 20
0.0
 30
0.0
210
0.0
220
0.0
230
1.0
  2
SOLID
 70
1
 71
1
 91
1
 92
1
 93
7
 72
1
 10
368.3717032839
 20
31.6877314
 11
368.2560780634
 21
31.6554670967
 72
1
 10
368.2560780634
 20
31.6554670967
 11
368.1982657839
 21
31.5909400065
 72
1
 10
368.1982657839
 20
31.5909400065
 11
368.0248282839
 21
31.4618858262
 72
1
 10
368.0248282839
 20
31.4618858262
 11
367.9092030634
 21
31.5909400065
 72
1
 10
367.9092030634
 20
31.5909400065
 11
367.9092030634
 21
31.6554670967
 72
1
 10
367.9092030634
 20
31.6554670967
 11
368.6029530634
 21
31.7199941869
 72
1
 10
368.6029530634
 20
31.7199941869
 11
368.3717032839
 21
31.6877314
 97
1
330
308
 75
0
 76
1
 98
1
 10
0.0
 20
0.0
  0
LWPOLYLINE
  5
30A
100
AcDbEntity
  8
0
100
AcDbPolyline
 62
7
  6
CONTINUOUS
 90
6
 70
0
 10
358.7748280496
 20
31.5586757033
 10
358.7170155634
 20
31.4941486131
 10
358.3701405634
 20
31.3328301295
 10
358.4279530651
 20
31.5264129164
 10
358.9482655496
 20
31.6554670967
 10
358.7748280496
 20
31.5586757033
  0
HATCH
  5
30B
100
AcDbEntity
  8
0
100
AcDbHatch
 62
7
  6
CONTINUOUS
 10
0.0
 20
0.0
 30
0.0
210
0.0
220
0.0
230
1.0
  2
SOLID
 70
1
 71
1
 91
1
 92
1
 93
5
 72
1
 10
358.7748280496
 20
31.5586757033
 11
358.7170155634
 21
31.4941486131
 72
1
 10
358.7170155634
 20
31.4941486131
 11
358.3701405634
 21
31.3328301295
 72
1
 10
358.3701405634
 20
31.3328301295
 11
358.4279530651
 21
31.5264129164
 72
1
 10
358.4279530651
 20
31.5264129164
 11
358.9482655496
 21
31.6554670967
 72
1
 10
358.9482655496
 20
31.6554670967
 11
358.7748280496
 21
31.5586757033
 97
1
330
30A
 75
0
 76
1
 98
1
 10
0.0
 20
0.0
  0
LWPOLYLINE
  5
30C
100
AcDbEntity
  8
0
100
AcDbPolyline
 62
7
  6
CONTINUOUS
 90
7
 70
0
 10
363.2263905634
 20
31.4618858262
 10
363.5732655634
 20
31.4941486131
 10
364.2092032839
 20
31.4941486131
 10
364.2092032839
 20
31.3650944328
 10
363.5732655634
 20
31.3650944328
 10
362.9951404531
 20
31.397357926
 10
363.2263905634
 20
31.4618858262
  0
HATCH
  5
30D
100
AcDbEntity
  8
0
100
AcDbHatch
 62
7
  6
CONTINUOUS
 10
0.0
 20
0.0
 30
0.0
210
0.0
220
0.0
230
1.0
  2
SOLID
 70
1
 71
1
 91
1
 92
1
 93
6
 72
1
 10
363.2263905634
 20
31.4618858262
 11
363.5732655634
 21
31.4941486131
 72
1
 10
363.5732655634
 20
31.4941486131
 11
364.2092032839
 21
31.4941486131
 72
1
 10
364.2092032839
 20
31.4941486131
 11
364.2092032839
 21
31.3650944328
 72
1
 10
364.2092032839
 20
31.3650944328
 11
363.5732655634
 21
31.3650944328
 72
1
 10
363.5732655634
 20
31.3650944328
 11
362.9951404531
 21
31.397357926
 72
1
 10
362.9951404531
 20
31.397357926
 11
363.2263905634
 21
31.4618858262
 97
1
330
30C
 75
0
 76
1
 98
1
 10
0.0
 20
0.0
  0
LWPOLYLINE
  5
30E
100
AcDbEntity
  8
0
100
AcDbPolyline
 62
7
  6
CONTINUOUS
 90
24
 70
0
 10
368.2560780634
 20
31.5264129164
 10
368.4295155634
 20
31.4618858262
 10
369.4123282839
 20
31.3005673426
 10
369.6435780634
 20
31.2037759492
 10
369.7592026223
 20
31.0747202524
 10
369.7592026223
 20
31.0101931623
 10
369.6435780634
 20
30.9134032852
 10
369.4123282839
 20
30.8488746787
 10
369.0654532839
 20
30.8166118918
 10
368.7185782839
 20
30.8166118918
 10
368.3717032839
 20
30.8488746787
 10
368.1982657839
 20
30.8811389819
 10
368.0248282839
 20
30.9456660721
 10
368.7185782839
 20
30.9456660721
 10
369.0654532839
 20
30.9456660721
 10
369.2967030634
 20
30.9779303754
 10
369.4123282839
 20
31.0101931623
 10
369.4701405634
 20
31.0747202524
 10
369.4123282839
 20
31.139248859
 10
369.2388907839
 20
31.2037759492
 10
368.2560780634
 20
31.3650944328
 10
368.0248282839
 20
31.4618858262
 10
368.1982657839
 20
31.5909400065
 10
368.2560780634
 20
31.5264129164
  0
HATCH
  5
30F
100
AcDbEntity
  8
0
100
AcDbHatch
 62
7
  6
CONTINUOUS
 10
0.0
 20
0.0
 30
0.0
210
0.0
220
0.0
230
1.0
  2
SOLID
 70
1
 71
1
 91
1
 92
1
 93
23
 72
1
 10
368.2560780634
 20
31.5264129164
 11
368.4295155634
 21
31.4618858262
 72
1
 10
368.4295155634
 20
31.4618858262
 11
369.4123282839
 21
31.3005673426
 72
1
 10
369.4123282839
 20
31.3005673426
 11
369.6435780634
 21
31.2037759492
 72
1
 10
369.6435780634
 20
31.2037759492
 11
369.7592026223
 21
31.0747202524
 72
1
 10
369.7592026223
 20
31.0747202524
 11
369.7592026223
 21
31.0101931623
 72
1
 10
369.7592026223
 20
31.0101931623
 11
369.6435780634
 21
30.9134032852
 72
1
 10
369.6435780634
 20
30.9134032852
 11
369.4123282839
 21
30.8488746787
 72
1
 10
369.4123282839
 20
30.8488746787
 11
369.0654532839
 21
30.8166118918
 72
1
 10
369.0654532839
 20
30.8166118918
 11
368.7185782839
 21
30.8166118918
 72
1
 10
368.7185782839
 20
30.8166118918
 11
368.3717032839
 21
30.8488746787
 72
1
 10
368.3717032839
 20
30.8488746787
 11
368.1982657839
 21
30.8811389819
 72
1
 10
368.1982657839
 20
30.8811389819
 11
368.0248282839
 21
30.9456660721
 72
1
 10
368.0248282839
 20
30.9456660721
 11
368.7185782839
 21
30.9456660721
 72
1
 10
368.7185782839
 20
30.9456660721
 11
369.0654532839
 21
30.9456660721
 72
1
 10
369.0654532839
 20
30.9456660721
 11
369.2967030634
 21
30.9779303754
 72
1
 10
369.2967030634
 20
30.9779303754
 11
369.4123282839
 21
31.0101931623
 72
1
 10
369.4123282839
 20
31.0101931623
 11
369.4701405634
 21
31.0747202524
 72
1
 10
369.4701405634
 20
31.0747202524
 11
369.4123282839
 21
31.139248859
 72
1
 10
369.4123282839
 20
31.139248859
 11
369.2388907839
 21
31.2037759492
 72
1
 10
369.2388907839
 20
31.2037759492
 11
368.2560780634
 21
31.3650944328
 72
1
 10
368.2560780634
 20
31.3650944328
 11
368.0248282839
 21
31.4618858262
 72
1
 10
368.0248282839
 20
31.4618858262
 11
368.1982657839
 21
31.5909400065
 72
1
 10
368.1982657839
 20
31.5909400065
 11
368.2560780634
 21
31.5264129164
 97
1
330
30E
 75
0
 76
1
 98
1
 10
0.0
 20
0.0
  0
LWPOLYLINE
  5
310
100
AcDbEntity
  8
0
100
AcDbPolyline
 62
7
  6
CONTINUOUS
 90
12
 70
0
 10
358.6592030565
 20
31.3650944328
 10
358.6592030565
 20
31.2683031351
 10
358.7748280496
 20
31.1069845557
 10
358.9482655496
 20
31.0101931623
 10
359.2951405909
 20
30.9456660721
 10
358.8326405772
 20
30.8811389819
 10
358.6592030565
 20
30.9456660721
 10
358.5435780634
 20
31.0101931623
 10
358.4279530651
 20
31.139248859
 10
358.3701405634
 20
31.3328301295
 10
358.7170155634
 20
31.4941486131
 10
358.6592030565
 20
31.3650944328
  0
HATCH
  5
311
100
AcDbEntity
  8
0
100
AcDbHatch
 62
7
  6
CONTINUOUS
 10
0.0
 20
0.0
 30
0.0
210
0.0
220
0.0
230
1.0
  2
SOLID
 70
1
 71
1
 91
1
 92
1
 93
11
 72
1
 10
358.6592030565
 20
31.3650944328
 11
358.6592030565
 21
31.2683031351
 72
1
 10
358.6592030565
 20
31.2683031351
 11
358.7748280496
 21
31.1069845557
 72
1
 10
358.7748280496
 20
31.1069845557
 11
358.9482655496
 21
31.0101931623
 72
1
 10
358.9482655496
 20
31.0101931623
 11
359.2951405909
 21
30.9456660721
 72
1
 10
359.2951405909
 20
30.9456660721
 11
358.8326405772
 21
30.8811389819
 72
1
 10
358.8326405772
 20
30.8811389819
 11
358.6592030565
 21
30.9456660721
 72
1
 10
358.6592030565
 20
30.9456660721
 11
358.5435780634
 21
31.0101931623
 72
1
 10
358.5435780634
 20
31.0101931623
 11
358.4279530651
 21
31.139248859
 72
1
 10
358.4279530651
 20
31.139248859
 11
358.3701405634
 21
31.3328301295
 72
1
 10
358.3701405634
 20
31.3328301295
 11
358.7170155634
 21
31.4941486131
 72
1
 10
358.7170155634
 20
31.4941486131
 11
358.6592030565
 21
31.3650944328
 97
1
330
310
 75
0
 76
1
 98
1
 10
0.0
 20
0.0
  0
LWPOLYLINE
  5
312
100
AcDbEntity
  8
0
100
AcDbPolyline
 62
7
  6
CONTINUOUS
 90
6
 70
0
 10
362.8795155634
 20
31.3328301295
 10
362.9951404531
 20
31.397357926
 10
363.5732655634
 20
31.3650944328
 10
363.3420154531
 20
31.3328301295
 10
362.7638906736
 20
31.2037759492
 10
362.8795155634
 20
31.3328301295
  0
HATCH
  5
313
100
AcDbEntity
  8
0
100
AcDbHatch
 62
7
  6
CONTINUOUS
 10
0.0
 20
0.0
 30
0.0
210
0.0
220
0.0
230
1.0
  2
SOLID
 70
1
 71
1
 91
1
 92
1
 93
5
 72
1
 10
362.8795155634
 20
31.3328301295
 11
362.9951404531
 21
31.397357926
 72
1
 10
362.9951404531
 20
31.397357926
 11
363.5732655634
 21
31.3650944328
 72
1
 10
363.5732655634
 20
31.3650944328
 11
363.3420154531
 21
31.3328301295
 72
1
 10
363.3420154531
 20
31.3328301295
 11
362.7638906736
 21
31.2037759492
 72
1
 10
362.7638906736
 20
31.2037759492
 11
362.8795155634
 21
31.3328301295
 97
1
330
312
 75
0
 76
1
 98
1
 10
0.0
 20
0.0
  0
LWPOLYLINE
  5
314
100
AcDbEntity
  8
0
100
AcDbPolyline
 62
7
  6
CONTINUOUS
 90
9
 70
0
 10
363.1107656736
 20
31.2360394487
 10
363.0529530634
 20
31.139248859
 10
363.0529530634
 20
31.0747202524
 10
362.8217029531
 20
30.9779303754
 10
362.7638906736
 20
31.1069845557
 10
362.7638906736
 20
31.2037759492
 10
363.3420154531
 20
31.3328301295
 10
363.2263905634
 20
31.3005673426
 10
363.1107656736
 20
31.2360394487
  0
HATCH
  5
315
100
AcDbEntity
  8
0
100
AcDbHatch
 62
7
  6
CONTINUOUS
 10
0.0
 20
0.0
 30
0.0
210
0.0
220
0.0
230
1.0
  2
SOLID
 70
1
 71
1
 91
1
 92
1
 93
8
 72
1
 10
363.1107656736
 20
31.2360394487
 11
363.0529530634
 21
31.139248859
 72
1
 10
363.0529530634
 20
31.139248859
 11
363.0529530634
 21
31.0747202524
 72
1
 10
363.0529530634
 20
31.0747202524
 11
362.8217029531
 21
30.9779303754
 72
1
 10
362.8217029531
 20
30.9779303754
 11
362.7638906736
 21
31.1069845557
 72
1
 10
362.7638906736
 20
31.1069845557
 11
362.7638906736
 21
31.2037759492
 72
1
 10
362.7638906736
 20
31.2037759492
 11
363.3420154531
 21
31.3328301295
 72
1
 10
363.3420154531
 20
31.3328301295
 11
363.2263905634
 21
31.3005673426
 72
1
 10
363.2263905634
 20
31.3005673426
 11
363.1107656736
 21
31.2360394487
 97
1
330
314
 75
0
 76
1
 98
1
 10
0.0
 20
0.0
  0
LWPOLYLINE
  5
316
100
AcDbEntity
  8
0
100
AcDbPolyline
 62
7
  6
CONTINUOUS
 90
10
 70
0
 10
364.1513903428
 20
31.1069845557
 10
364.2092032839
 20
31.1715120759
 10
364.4982653428
 20
31.0747202524
 10
364.5560782839
 20
30.9134032852
 10
364.6138905634
 20
30.8166118918
 10
364.3248278428
 20
30.8166118918
 10
364.2670155634
 20
30.8811389819
 10
364.2092032839
 20
30.9779303754
 10
363.9779528428
 20
31.0101931623
 10
364.1513903428
 20
31.1069845557
  0
HATCH
  5
317
100
AcDbEntity
  8
0
100
AcDbHatch
 62
7
  6
CONTINUOUS
 10
0.0
 20
0.0
 30
0.0
210
0.0
220
0.0
230
1.0
  2
SOLID
 70
1
 71
1
 91
1
 92
1
 93
9
 72
1
 10
364.1513903428
 20
31.1069845557
 11
364.2092032839
 21
31.1715120759
 72
1
 10
364.2092032839
 20
31.1715120759
 11
364.4982653428
 21
31.0747202524
 72
1
 10
364.4982653428
 20
31.0747202524
 11
364.5560782839
 21
30.9134032852
 72
1
 10
364.5560782839
 20
30.9134032852
 11
364.6138905634
 21
30.8166118918
 72
1
 10
364.6138905634
 20
30.8166118918
 11
364.3248278428
 21
30.8166118918
 72
1
 10
364.3248278428
 20
30.8166118918
 11
364.2670155634
 21
30.8811389819
 72
1
 10
364.2670155634
 20
30.8811389819
 11
364.2092032839
 21
30.9779303754
 72
1
 10
364.2092032839
 20
30.9779303754
 11
363.9779528428
 21
31.0101931623
 72
1
 10
363.9779528428
 20
31.0101931623
 11
364.1513903428
 21
31.1069845557
 97
1
330
316
 75
0
 76
1
 98
1
 10
0.0
 20
0.0
  0
LWPOLYLINE
  5
318
100
AcDbEntity
  8
0
100
AcDbPolyline
 62
7
  6
CONTINUOUS
 90
12
 70
0
 10
359.8732656185
 20
31.0424573076
 10
359.9310780634
 20
31.139248859
 10
360.2201406185
 20
31.139248859
 10
360.1623280082
 20
31.0101931623
 10
359.9888905082
 20
30.9134032852
 10
359.7576405634
 20
30.8488746787
 10
359.3529530358
 20
30.8166118918
 10
359.0060780772
 20
30.8488746787
 10
358.8326405772
 20
30.8811389819
 10
359.2951405909
 20
30.9456660721
 10
359.6998280358
 20
30.9779303754
 10
359.8732656185
 20
31.0424573076
  0
HATCH
  5
319
100
AcDbEntity
  8
0
100
AcDbHatch
 62
7
  6
CONTINUOUS
 10
0.0
 20
0.0
 30
0.0
210
0.0
220
0.0
230
1.0
  2
SOLID
 70
1
 71
1
 91
1
 92
1
 93
11
 72
1
 10
359.8732656185
 20
31.0424573076
 11
359.9310780634
 21
31.139248859
 72
1
 10
359.9310780634
 20
31.139248859
 11
360.2201406185
 21
31.139248859
 72
1
 10
360.2201406185
 20
31.139248859
 11
360.1623280082
 21
31.0101931623
 72
1
 10
360.1623280082
 20
31.0101931623
 11
359.9888905082
 21
30.9134032852
 72
1
 10
359.9888905082
 20
30.9134032852
 11
359.7576405634
 21
30.8488746787
 72
1
 10
359.7576405634
 20
30.8488746787
 11
359.3529530358
 21
30.8166118918
 72
1
 10
359.3529530358
 20
30.8166118918
 11
359.0060780772
 21
30.8488746787
 72
1
 10
359.0060780772
 20
30.8488746787
 11
358.8326405772
 21
30.8811389819
 72
1
 10
358.8326405772
 20
30.8811389819
 11
359.2951405909
 21
30.9456660721
 72
1
 10
359.2951405909
 20
30.9456660721
 11
359.6998280358
 21
30.9779303754
 72
1
 10
359.6998280358
 20
30.9779303754
 11
359.8732656185
 21
31.0424573076
 97
1
330
318
 75
0
 76
1
 98
1
 10
0.0
 20
0.0
  0
LWPOLYLINE
  5
31A
100
AcDbEntity
  8
0
100
AcDbPolyline
 62
7
  6
CONTINUOUS
 90
6
 70
0
 10
363.1107656736
 20
31.0101931623
 10
363.3420154531
 20
30.9456660721
 10
362.9951404531
 20
30.8811389819
 10
362.8217029531
 20
30.9779303754
 10
363.0529530634
 20
31.0747202524
 10
363.1107656736
 20
31.0101931623
  0
HATCH
  5
31B
100
AcDbEntity
  8
0
100
AcDbHatch
 62
7
  6
CONTINUOUS
 10
0.0
 20
0.0
 30
0.0
210
0.0
220
0.0
230
1.0
  2
SOLID
 70
1
 71
1
 91
1
 92
1
 93
5
 72
1
 10
363.1107656736
 20
31.0101931623
 11
363.3420154531
 21
30.9456660721
 72
1
 10
363.3420154531
 20
30.9456660721
 11
362.9951404531
 21
30.8811389819
 72
1
 10
362.9951404531
 20
30.8811389819
 11
362.8217029531
 21
30.9779303754
 72
1
 10
362.8217029531
 20
30.9779303754
 11
363.0529530634
 21
31.0747202524
 72
1
 10
363.0529530634
 20
31.0747202524
 11
363.1107656736
 21
31.0101931623
 97
1
330
31A
 75
0
 76
1
 98
1
 10
0.0
 20
0.0
  0
LWPOLYLINE
  5
31C
100
AcDbEntity
  8
0
100
AcDbPolyline
 62
7
  6
CONTINUOUS
 90
11
 70
0
 10
363.6888904531
 20
30.9456660721
 10
363.9779528428
 20
31.0101931623
 10
364.2092032839
 20
30.9779303754
 10
364.1513903428
 20
30.9134032852
 10
363.9779528428
 20
30.8488746787
 10
363.6888904531
 20
30.8166118918
 10
363.3420154531
 20
30.8166118918
 10
363.1107656736
 20
30.8488746787
 10
362.9951404531
 20
30.8811389819
 10
363.3420154531
 20
30.9456660721
 10
363.6888904531
 20
30.9456660721
  0
HATCH
  5
31D
100
AcDbEntity
  8
0
100
AcDbHatch
 62
7
  6
CONTINUOUS
 10
0.0
 20
0.0
 30
0.0
210
0.0
220
0.0
230
1.0
  2
SOLID
 70
1
 71
1
 91
1
 92
1
 93
10
 72
1
 10
363.6888904531
 20
30.9456660721
 11
363.9779528428
 21
31.0101931623
 72
1
 10
363.9779528428
 20
31.0101931623
 11
364.2092032839
 21
30.9779303754
 72
1
 10
364.2092032839
 20
30.9779303754
 11
364.1513903428
 21
30.9134032852
 72
1
 10
364.1513903428
 20
30.9134032852
 11
363.9779528428
 21
30.8488746787
 72
1
 10
363.9779528428
 20
30.8488746787
 11
363.6888904531
 21
30.8166118918
 72
1
 10
363.6888904531
 20
30.8166118918
 11
363.3420154531
 21
30.8166118918
 72
1
 10
363.3420154531
 20
30.8166118918
 11
363.1107656736
 21
30.8488746787
 72
1
 10
363.1107656736
 20
30.8488746787
 11
362.9951404531
 21
30.8811389819
 72
1
 10
362.9951404531
 20
30.8811389819
 11
363.3420154531
 21
30.9456660721
 72
1
 10
363.3420154531
 20
30.9456660721
 11
363.6888904531
 21
30.9456660721
 97
1
330
31C
 75
0
 76
1
 98
1
 10
0.0
 20
0.0
  0
LWPOLYLINE
  5
31E
100
AcDbEntity
  8
0
100
AcDbPolyline
 62
7
  6
CONTINUOUS
 90
7
 70
0
 10
368.3717032839
 20
30.9779303754
 10
368.7185782839
 20
30.9456660721
 10
368.0248282839
 20
30.9456660721
 10
367.9092030634
 20
31.0747202524
 10
368.1982657839
 20
31.0747202524
 10
368.2560780634
 20
31.0101931623
 10
368.3717032839
 20
30.9779303754
  0
HATCH
  5
31F
100
AcDbEntity
  8
0
100
AcDbHatch
 62
7
  6
CONTINUOUS
 10
0.0
 20
0.0
 30
0.0
210
0.0
220
0.0
230
1.0
  2
SOLID
 70
1
 71
1
 91
1
 92
1
 93
6
 72
1
 10
368.3717032839
 20
30.9779303754
 11
368.7185782839
 21
30.9456660721
 72
1
 10
368.7185782839
 20
30.9456660721
 11
368.0248282839
 21
30.9456660721
 72
1
 10
368.0248282839
 20
30.9456660721
 11
367.9092030634
 21
31.0747202524
 72
1
 10
367.9092030634
 20
31.0747202524
 11
368.1982657839
 21
31.0747202524
 72
1
 10
368.1982657839
 20
31.0747202524
 11
368.2560780634
 21
31.0101931623
 72
1
 10
368.2560780634
 20
31.0101931623
 11
368.3717032839
 21
30.9779303754
 97
1
330
31E
 75
0
 76
1
 98
1
 10
0.0
 20
0.0
  0
SOLID
  5
320
100
AcDbEntity
  8
0
100
AcDbTrace
 62
7
  6
CONTINUOUS
 10
365.0763907839
 20
30.8166118918
 11
365.0763907839
 21
31.8490498836
 12
365.3654528428
 22
30.8166118918
 13
365.3654528428
 23
31.8490498836
  0
ENDBLK
  5
321
100
AcDbEntity
  8
0
  6
BYBLOCK
 62
0
100
AcDbBlockEnd
  0
BLOCK
  5
322
100
AcDbEntity
  8
0
100
AcDbBlockBegin
 62
2
  6
CONTINUOUS
  2
AMMEAAL_LOGO_BL0
 70
64
 10
241.0459637928
 20
19.6790146053
  3
AMMEAAL_LOGO_BL0
  1

  0
TEXT
  5
323
100
AcDbEntity
  8
0
100
AcDbText
 62
7
  6
CONTINUOUS
 10
227.3106676351
 20
19.0524287129
  7
TEXTSTYLE_3
 40
2.7338706658
  1
Ammeraal Beltech
 41
1.0
 51
15.0
 72
0
100
AcDbText
  0
TEXT
  5
324
100
AcDbEntity
  8
0
100
AcDbText
 62
7
  6
CONTINUOUS
 10
238.1114684608
 20
16.7788920401
  7
TEXTSTYLE_4
 40
1.0935482663
  1
Innovation & Service in Belting
 41
1.0
 72
0
100
AcDbText
  0
LINE
  5
325
100
AcDbEntity
  8
0
100
AcDbLine
 62
7
  6
CONTINUOUS
 10
221.2861269837
 20
19.8190220215
 11
222.0642789771
 21
23.4799393191
  0
LINE
  5
326
100
AcDbEntity
  8
0
100
AcDbLine
 62
7
  6
CONTINUOUS
 10
232.1594472669
 20
27.1433332308
 11
222.5520967201
 21
24.0217158095
  0
LINE
  5
327
100
AcDbEntity
  8
0
100
AcDbLine
 62
7
  6
CONTINUOUS
 10
221.511410316
 20
19.1256712184
 11
229.0184855772
 21
12.3662702925
  0
LINE
  5
328
100
AcDbEntity
  8
0
100
AcDbLine
 62
7
  6
CONTINUOUS
 10
221.7739447268
 20
20.3607985118
 11
232.5822140919
 21
23.8726181108
  0
LINE
  5
329
100
AcDbEntity
  8
0
100
AcDbLine
 62
7
  6
CONTINUOUS
 10
232.5780089548
 20
13.522829547
 11
224.132549286
 21
21.1271555887
  0
LINE
  5
32A
100
AcDbEntity
  8
0
100
AcDbLine
 62
7
  6
CONTINUOUS
 10
233.0978316746
 20
26.298408115
 11
232.1212721373
 21
21.7040567125
  0
LINE
  5
32B
100
AcDbEntity
  8
0
100
AcDbLine
 62
7
  6
CONTINUOUS
 10
231.4214701896
 20
18.4117473987
 11
230.7350219782
 21
15.1822624744
  0
LINE
  5
32C
100
AcDbEntity
  8
0
100
AcDbLine
 62
7
  6
CONTINUOUS
 10
233.7789277731
 20
13.9130317247
 11
234.7351593087
 21
18.4117473987
  0
LINE
  5
32D
100
AcDbEntity
  8
0
100
AcDbLine
 62
7
  6
CONTINUOUS
 10
235.4349612564
 20
21.7040567125
 11
235.8792030588
 21
23.7940500719
  0
LINE
  5
32E
100
AcDbEntity
  8
0
100
AcDbLine
 62
7
  6
CONTINUOUS
 10
229.7315866525
 20
12.2146959798
 11
233.2911100301
 21
13.3712552343
  0
LINE
  5
32F
100
AcDbEntity
  8
0
100
AcDbLine
 62
7
  6
CONTINUOUS
 10
232.8725483422
 20
26.9917589181
 11
235.6539197265
 21
24.487400875
  0
ARC
  5
330
100
AcDbEntity
  8
0
100
AcDbCircle
 62
7
  6
CONTINUOUS
 10
222.7773800524
 20
23.3283650064
 40
0.7290321776
100
AcDbArc
 50
108.0
 51
168.0
  0
ARC
  5
331
100
AcDbEntity
  8
0
100
AcDbCircle
 62
7
  6
CONTINUOUS
 10
232.3847305992
 20
26.4499824277
 40
0.7290321776
100
AcDbArc
 50
348.0
 51
108.0
  0
ARC
  5
332
100
AcDbEntity
  8
0
100
AcDbCircle
 62
7
  6
CONTINUOUS
 10
235.1661019835
 20
23.9456243846
 40
0.7290321776
100
AcDbArc
 50
348.0
 51
48.0
  0
ARC
  5
333
100
AcDbEntity
  8
0
100
AcDbCircle
 62
7
  6
CONTINUOUS
 10
229.5063033202
 20
12.9080467828
 40
0.7290321776
100
AcDbArc
 50
228.0
 51
288.0
  0
ARC
  5
334
100
AcDbEntity
  8
0
100
AcDbCircle
 62
7
  6
CONTINUOUS
 10
221.9992280591
 20
19.6674477088
 40
0.7290321776
100
AcDbArc
 50
108.0
 51
228.0
  0
ARC
  5
335
100
AcDbEntity
  8
0
100
AcDbCircle
 62
7
  6
CONTINUOUS
 10
233.0658266978
 20
14.0646060374
 40
0.7290321776
100
AcDbArc
 50
228.0
 51
348.0
  0
ENDBLK
  5
336
100
AcDbEntity
  8
0
  6
BYBLOCK
 62
0
100
AcDbBlockEnd
  0
BLOCK
  5
337
100
AcDbEntity
  8
0
100
AcDbBlockBegin
  2
*T1
 70
1
 10
0.0
 20
0.0
  3
*T1
  1

  0
LINE
  5
338
100
AcDbEntity
  8
0
100
AcDbLine
 62
2
  6
CONTINUOUS
 10
0.0
 20
0.0
 11
190.0
 21
0.0
  0
LINE
  5
339
100
AcDbEntity
  8
0
100
AcDbLine
 62
2
  6
CONTINUOUS
 10
0.0
 20
0.0
 11
0.0
 21
-20.0
  0
LINE
  5
33A
100
AcDbEntity
  8
0
100
AcDbLine
 62
2
  6
CONTINUOUS
 10
0.0
 20
-20.0
 11
190.0
 21
-20.0
  0
LINE
  5
33B
100
AcDbEntity
  8
0
100
AcDbLine
 62
2
  6
CONTINUOUS
 10
85.0
 20
0.0
 11
85.0
 21
-20.0
  0
LINE
  5
33C
100
AcDbEntity
  8
0
100
AcDbLine
 62
2
  6
CONTINUOUS
 10
105.0
 20
0.0
 11
105.0
 21
-20.0
  0
LINE
  5
33D
100
AcDbEntity
  8
0
100
AcDbLine
 62
2
  6
CONTINUOUS
 10
190.0
 20
0.0
 11
190.0
 21
-20.0
  0
MTEXT
  5
33E
100
AcDbEntity
  8
0
100
AcDbMText
 62
5
  6
CONTINUOUS
  7
TEXTSTYLE_5
 71
1
 72
1
 10
3.0
 20
-5.177
 30
0.0
 11
1.0
 21
0.0
 31
0.0
 44
1.08
  3
                                                                     Ammeraal Beltech Modular A/S\P\H1.5;                                                                      Hjulmagervej 21, 7100 Vejle,  DK\P\H1.495;                                 
  1
                                     tel: \H1.51;+45 75723100     fax: +45 75723348\P\H1.5;                                                                      admin@unichains.dk  www.unichains.com
 40
1.52
 41
161.0496183206
  0
MTEXT
  5
33F
100
AcDbEntity
  8
0
100
AcDbMText
 62
5
  6
CONTINUOUS
  7
TEXTSTYLE_6
 71
2
 72
1
 10
95.0
 20
-11.25
 30
0.0
 11
1.0
 21
0.0
 31
0.0
 44
0.9
  1
11:100
 40
5.0
 41
42.0
  0
MTEXT
  5
340
100
AcDbEntity
  8
0
100
AcDbMText
 62
5
  6
CONTINUOUS
  7
TEXTSTYLE_7
 71
1
 72
1
 10
108.0
 20
-8.75
 30
0.0
 11
1.0
 21
0.0
 31
0.0
 44
0.9
  1
Sprocket Z06
 40
7.5
 41
120.5
  0
ENDBLK
  5
341
100
AcDbEntity
  8
0
  6
BYBLOCK
 62
0
100
AcDbBlockEnd
  0
ENDSEC
  0
SECTION
  2
ENTITIES
  0
MTEXT
  5
342
100
AcDbEntity
  8
0
100
AcDbMText
 62
2
  6
CONTINUOUS
  7
TEXTSTYLE_2
 71
1
 72
1
 10
304.937007874
 20
28.436
 30
0.0
 11
1.0
 21
0.0
 31
0.0
 44
0.9
  1
\Q0.000019;Scale :
 40
2.8
 41
11.76
  0
MTEXT
  5
343
100
AcDbEntity
  8
0
100
AcDbMText
 62
2
  6
CONTINUOUS
  7
TEXTSTYLE_2
 71
1
 72
1
 10
324.937007874
 20
28.436
 30
0.0
 11
1.0
 21
0.0
 31
0.0
 44
0.9
  1
\Q0.000019;Chain type:
 40
2.8
 41
18.48
  0
INSERT
  5
344
100
AcDbEntity
  8
0
100
AcDbBlockReference
 62
2
  6
CONTINUOUS
  2
AMMEAAL_LOGO_BL0
 10
241.0459637928
 20
19.6790146053
  0
INSERT
  5
345
100
AcDbEntity
  8
0
100
AcDbBlockReference
 62
2
  6
CONTINUOUS
  2
UNI_LOGO2_BL1
 10
382.3920721743
 20
35.81661148
  0
ACAD_TABLE
  5
346
100
AcDbEntity
  8
0
 62
2
  6
CONTINUOUS
100
AcDbBlockReference
  2
*T1
 10
218.937007874
 20
30.0
 30
0.0
100
AcDbTable
342
       440
343
215
 11
1.0
 21
0.0
 31
0.0
 90
22
 91
1
 92
3
 93
0
 94
0
 95
0
 96
0
141
20.0
142
85.0
142
20.0
142
85.0
171
1
172
0
173
0
174
0
175
1
176
1
 91
57
178
0
145
0.0
  7
TEXTSTYLE_5
301
CELL_VALUE
 90
4
  2
                                                                     Ammeraal Beltech Modular A/S\P\H1.5;                                                                      Hjulmagervej 21, 7100 Vejle,  DK\P\H1.495;                                 
  1
                                     tel: \H1.51;+45 75723100     fax: +45 75723348\P\H1.5;                                                                      admin@unichains.dk  www.unichains.com
304
ACVALUE_END
170
4
140
1.52
 64
5
171
1
172
0
173
0
174
0
175
1
176
1
 91
57
178
0
145
0.0
  7
TEXTSTYLE_6
301
CELL_VALUE
 90
4
  1
11:100
304
ACVALUE_END
170
8
140
5.0
 64
5
171
1
172
0
173
0
174
0
175
1
176
1
 91
57
178
0
145
0.0
  7
TEXTSTYLE_7
301
CELL_VALUE
 90
4
  1
Sprocket Z06
304
ACVALUE_END
170
7
140
7.5
 64
5
  0
LINE
  5
347
100
AcDbEntity
  8
0
100
AcDbLine
 62
7
  6
CONTINUOUS
 10
0.0
 20
0.0
 11
0.0
 21
297.0
  0
LINE
  5
348
100
AcDbEntity
  8
0
100
AcDbLine
 62
7
  6
CONTINUOUS
 10
8.937007874
 20
10.0
 11
8.937007874
 21
287.0
  0
LINE
  5
349
100
AcDbEntity
  8
0
100
AcDbLine
 62
7
  6
CONTINUOUS
 10
0.0
 20
0.0
 11
420.0
 21
0.0
  0
LINE
  5
34A
100
AcDbEntity
  8
0
100
AcDbLine
 62
7
  6
CONTINUOUS
 10
408.937007874
 20
10.0
 11
8.937007874
 21
10.0
  0
LINE
  5
34B
100
AcDbEntity
  8
0
100
AcDbLine
 62
7
  6
CONTINUOUS
 10
218.937007874
 20
30.0
 11
408.937007874
 21
30.0
  0
LINE
  5
34C
100
AcDbEntity
  8
0
100
AcDbLine
 62
7
  6
CONTINUOUS
 10
210.0
 20
297.0
 11
210.0
 21
292.0
  0
LINE
  5
34D
100
AcDbEntity
  8
0
100
AcDbLine
 62
7
  6
CONTINUOUS
 10
210.0
 20
0.0
 11
210.0
 21
5.0
  0
LINE
  5
34E
100
AcDbEntity
  8
0
100
AcDbLine
 62
7
  6
CONTINUOUS
 10
8.937007874
 20
287.0
 11
408.937007874
 21
287.0
  0
LINE
  5
34F
100
AcDbEntity
  8
0
100
AcDbLine
 62
7
  6
CONTINUOUS
 10
0.0
 20
297.0
 11
420.0
 21
297.0
  0
LINE
  5
350
100
AcDbEntity
  8
0
100
AcDbLine
 62
7
  6
CONTINUOUS
 10
408.937007874
 20
287.0
 11
408.937007874
 21
10.0
  0
LINE
  5
351
100
AcDbEntity
  8
0
100
AcDbLine
 62
7
  6
CONTINUOUS
 10
420.0
 20
0.0
 11
420.0
 21
297.0
  0
LINE
  5
352
100
AcDbEntity
  8
0
100
AcDbLine
 62
7
  6
CONTINUOUS
 10
28.1835784018
 20
254.2058791788
 11
28.2070510983
 21
253.9898334888
  0
LINE
  5
353
100
AcDbEntity
  8
0
100
AcDbLine
 62
7
  6
CONTINUOUS
 10
28.1835579341
 20
254.2059222108
 11
28.1835579341
 21
264.6981475103
  0
LINE
  5
354
100
AcDbEntity
  8
0
100
AcDbLine
 62
7
  6
CONTINUOUS
 10
28.2074816492
 20
264.9161029527
 11
28.1835960092
 21
264.6981711624
  0
LWPOLYLINE
  5
355
100
AcDbEntity
  8
0
100
AcDbPolyline
 62
7
  6
CONTINUOUS
 90
4
 70
0
 10
28.1835961086
 20
254.205893165
 10
28.2115720679
 20
253.970281672
 10
28.281872539
 20
253.7720600497
 10
28.3845167078
 20
253.6021643324
  0
LWPOLYLINE
  5
356
100
AcDbEntity
  8
0
100
AcDbPolyline
 62
7
  6
CONTINUOUS
 90
3
 70
0
 10
28.373426665
 20
265.2867679745
 10
28.2743248883
 20
265.1158267163
 10
28.2074816492
 20
264.9161029527
  0
LINE
  5
357
100
AcDbEntity
  8
0
100
AcDbLine
 62
7
  6
CONTINUOUS
 10
28.494483404
 20
265.4265078687
 11
28.373426665
 21
265.2867679745
  0
LWPOLYLINE
  5
358
100
AcDbEntity
  8
0
100
AcDbPolyline
 62
7
  6
CONTINUOUS
 90
7
 70
0
 10
28.3845167078
 20
253.6021643324
 10
28.5111968537
 20
253.4618222879
 10
28.6460228641
 20
253.3567043884
 10
28.7746062711
 20
253.2839874976
 10
28.8946157041
 20
253.2331081555
 10
29.0009743976
 20
253.1973027333
 10
29.1108128423
 20
253.1659915066
  0
LWPOLYLINE
  5
359
100
AcDbEntity
  8
0
100
AcDbPolyline
 62
7
  6
CONTINUOUS
 90
4
 70
0
 10
28.2070510983
 20
253.9898334888
 10
28.2712211439
 20
253.7950865229
 10
28.3661076517
 20
253.6276093018
 10
28.482913659
 20
253.4888803027
  0
LINE
  5
35A
100
AcDbEntity
  8
0
100
AcDbLine
 62
7
  6
CONTINUOUS
 10
28.6246813421
 20
265.532973276
 11
28.494483404
 21
265.4265078687
  0
LINE
  5
35B
100
AcDbEntity
  8
1_AXIS
100
AcDbLine
 62
7
  6
CONTINUOUS
 10
76.0717477577
 20
278.6020348837
 11
76.0717477577
 21
271.9520348837
  0
LINE
  5
35C
100
AcDbEntity
  8
1_AXIS
100
AcDbLine
 62
7
  6
CONTINUOUS
 10
76.0717477577
 20
246.9520348837
 11
76.0717477577
 21
240.3020348837
  0
LWPOLYLINE
  5
35D
100
AcDbEntity
  8
0
100
AcDbPolyline
 62
7
  6
CONTINUOUS
 90
11
 70
0
 10
186.5301266807
 20
253.1655099397
 10
186.6298058637
 20
253.1934358365
 10
186.7373191359
 20
253.2288649498
 10
186.8558436004
 20
253.2777675837
 10
186.9833092161
 20
253.3475551843
 10
187.1201004922
 20
253.4507672406
 10
187.2499579374
 20
253.5902698104
 10
187.3558294861
 20
253.7601216708
 10
187.4292431208
 20
253.9594163137
 10
187.4595574452
 20
254.1796824532
 10
187.4598994024
 20
254.2058915383
  0
LWPOLYLINE
  5
35E
100
AcDbEntity
  8
0
100
AcDbPolyline
 62
7
  6
CONTINUOUS
 90
6
 70
0
 10
186.464452573
 20
253.1484412988
 10
186.5523904704
 20
253.1712962783
 10
186.6587370228
 20
253.2023509447
 10
186.7641615561
 20
253.2388705768
 10
186.8884643357
 20
253.293685135
 10
187.0199148577
 20
253.3718891147
  0
LINE
  5
35F
100
AcDbEntity
  8
0
100
AcDbLine
 62
7
  6
CONTINUOUS
 10
185.3240415125
 20
252.8678168481
 11
186.4653585065
 21
253.148665732
  0
LINE
  5
360
100
AcDbEntity
  8
0
100
AcDbLine
 62
7
  6
CONTINUOUS
 10
183.4269522962
 20
252.4146763808
 11
185.3240415125
 21
252.8678168481
  0
LINE
  5
361
100
AcDbEntity
  8
0
100
AcDbLine
 62
7
  6
CONTINUOUS
 10
182.1331087119
 20
252.1141715402
 11
183.4269522962
 21
252.4146763808
  0
LINE
  5
362
100
AcDbEntity
  8
1_AXIS
100
AcDbLine
 62
7
  6
CONTINUOUS
 10
78.0717477577
 20
238.3020348837
 11
137.5713991711
 21
238.3020348837
  0
LWPOLYLINE
  5
363
100
AcDbEntity
  8
0
100
AcDbPolyline
 62
7
  6
CONTINUOUS
 90
5
 70
0
 10
33.5104708496
 20
252.1141667412
 10
33.7526857144
 20
252.0634310318
 10
34.2595235852
 20
251.9884834088
 10
34.7717390481
 20
251.9543315431
 10
34.9390956037
 20
251.9520328663
  0
LINE
  5
364
100
AcDbEntity
  8
0
100
AcDbLine
 62
7
  6
CONTINUOUS
 10
32.2766917752
 20
252.400561932
 11
33.5103868915
 21
252.1141715235
  0
LINE
  5
365
100
AcDbEntity
  8
0
100
AcDbLine
 62
7
  6
CONTINUOUS
 10
30.3768065515
 20
252.8538770455
 11
32.2766917752
 21
252.400561932
  0
LINE
  5
366
100
AcDbEntity
  8
0
100
AcDbLine
 62
7
  6
CONTINUOUS
 10
29.1781369609
 20
253.1486653964
 11
30.3768065515
 21
252.8538770455
  0
LINE
  5
367
100
AcDbEntity
  8
0
100
AcDbLine
 62
7
  6
CONTINUOUS
 10
29.1108128423
 20
253.1659915066
 11
29.1790539182
 21
253.1484378045
  0
LINE
  5
368
100
AcDbEntity
  8
0
100
AcDbLine
 62
7
  6
CONTINUOUS
 10
29.0586157962
 20
253.1803183029
 11
29.1788885687
 21
253.1484788999
  0
LINE
  5
369
100
AcDbEntity
  8
1_AXIS
100
AcDbLine
 62
2
  6
CENTER
 10
107.8217477577
 20
236.3020348837
 11
107.8217477577
 21
282.6020348837
  0
LWPOLYLINE
  5
36A
100
AcDbEntity
  8
0
100
AcDbPolyline
 62
7
  6
CONTINUOUS
 90
5
 70
0
 10
180.7038265238
 20
251.9520324362
 10
180.9424814357
 20
251.9566062067
 10
181.4539874027
 20
251.9963680898
 10
181.9597892125
 20
252.0768808526
 10
182.1330512293
 20
252.1141728111
  0
LINE
  5
36B
100
AcDbEntity
  8
0
100
AcDbLine
 62
7
  6
CONTINUOUS
 10
34.9445924221
 20
251.9520348837
 11
180.7035450907
 21
251.9520365901
  0
LWPOLYLINE
  5
36C
100
AcDbEntity
  8
0
100
AcDbPolyline
 62
7
  6
CONTINUOUS
 90
5
 70
0
 10
34.9414662007
 20
266.9520175988
 10
34.7032920632
 20
266.9475325413
 10
34.1919723302
 20
266.9079947126
 10
33.6858987005
 20
266.827645075
 10
33.5104477833
 20
266.7899157638
  0
LINE
  5
36D
100
AcDbEntity
  8
0
100
AcDbLine
 62
7
  6
CONTINUOUS
 10
34.9416514673
 20
266.9520341988
 11
180.698903232
 21
266.9520348837
  0
LINE
  5
36E
100
AcDbEntity
  8
0
100
AcDbLine
 62
7
  6
CONTINUOUS
 10
180.6989030922
 20
266.9520348837
 11
180.7023619382
 21
266.9520339363
  0
LINE
  5
36F
100
AcDbEntity
  8
1_AXIS
100
AcDbLine
 62
7
  6
CONTINUOUS
 10
139.5717477577
 20
278.6020348837
 11
139.5717477577
 21
271.9520348837
  0
LINE
  5
370
100
AcDbEntity
  8
1_AXIS
100
AcDbLine
 62
7
  6
CONTINUOUS
 10
139.5717477577
 20
246.9520348837
 11
139.5717477577
 21
240.3020348837
  0
LWPOLYLINE
  5
371
100
AcDbEntity
  8
0
100
AcDbPolyline
 62
7
  6
CONTINUOUS
 90
10
 70
0
 10
29.1134897092
 20
265.738596463
 10
29.0136893138
 20
265.7106326692
 10
28.9062148308
 20
265.675219903
 10
28.7875919375
 20
265.6262747931
 10
28.6600443817
 20
265.5564182493
 10
28.5233051203
 20
265.4532169486
 10
28.3935044473
 20
265.3137661728
 10
28.2876319225
 20
265.1439097808
 10
28.2142194542
 20
264.9445953385
 10
28.196437626
 20
264.8153376498
  0
LWPOLYLINE
  5
372
100
AcDbEntity
  8
0
100
AcDbPolyline
 62
7
  6
CONTINUOUS
 90
6
 70
0
 10
29.1790612745
 20
265.7556337806
 10
29.0918273407
 20
265.7329679767
 10
28.9852974063
 20
265.7018942578
 10
28.8798506891
 20
265.6653953891
 10
28.7558623358
 20
265.6108054136
 10
28.6246813421
 20
265.532973276
  0
LINE
  5
373
100
AcDbEntity
  8
0
100
AcDbLine
 62
7
  6
CONTINUOUS
 10
30.3195992039
 20
266.0362882743
 11
29.1781366197
 21
265.7554040009
  0
LINE
  5
374
100
AcDbEntity
  8
0
100
AcDbLine
 62
7
  6
CONTINUOUS
 10
32.216689346
 20
266.4894276397
 11
30.3195992039
 21
266.0362882743
  0
LINE
  5
375
100
AcDbEntity
  8
0
100
AcDbLine
 62
7
  6
CONTINUOUS
 10
33.5103861484
 20
266.7898981591
 11
32.216689346
 21
266.4894276397
  0
LINE
  5
376
100
AcDbEntity
  8
1_AXIS
100
AcDbLine
 62
7
  6
CONTINUOUS
 10
78.0717477577
 20
280.6020348837
 11
137.5713991711
 21
280.6020348837
  0
LWPOLYLINE
  5
377
100
AcDbEntity
  8
0
100
AcDbPolyline
 62
7
  6
CONTINUOUS
 90
5
 70
0
 10
182.1330204891
 20
266.7899220257
 10
181.8885734643
 20
266.8410762425
 10
181.3814740764
 20
266.9158536448
 10
180.8694547053
 20
266.9497803037
 10
180.7025483929
 20
266.9520173369
  0
LINE
  5
378
100
AcDbEntity
  8
0
100
AcDbLine
 62
7
  6
CONTINUOUS
 10
183.3666122778
 20
266.5035526824
 11
182.13310925
 21
266.7898981829
  0
LINE
  5
379
100
AcDbEntity
  8
0
100
AcDbLine
 62
7
  6
CONTINUOUS
 10
185.2665017411
 20
266.050238242
 11
183.3666122778
 21
266.5035526824
  0
LINE
  5
37A
100
AcDbEntity
  8
0
100
AcDbLine
 62
7
  6
CONTINUOUS
 10
186.4653584804
 20
265.7554036409
 11
185.2665017411
 21
266.050238242
  0
LINE
  5
37B
100
AcDbEntity
  8
0
100
AcDbLine
 62
7
  6
CONTINUOUS
 10
186.5332405071
 20
265.7379318208
 11
186.4644414181
 21
265.7556312684
  0
LINE
  5
37C
100
AcDbEntity
  8
0
100
AcDbLine
 62
7
  6
CONTINUOUS
 10
187.150003536
 20
253.4785705975
 11
187.2708588611
 21
253.6184640185
  0
LINE
  5
37D
100
AcDbEntity
  8
0
100
AcDbLine
 62
7
  6
CONTINUOUS
 10
187.0199148577
 20
253.3718891147
 11
187.150003536
 21
253.4785705975
  0
LWPOLYLINE
  5
37E
100
AcDbEntity
  8
0
100
AcDbPolyline
 62
7
  6
CONTINUOUS
 90
6
 70
0
 10
187.1600783715
 20
265.4156915675
 10
187.0341812862
 20
265.5221373654
 10
186.9097463782
 20
265.599337182
 10
186.7926333023
 20
265.6539522923
 10
186.6897168047
 20
265.6917132292
 10
186.5846618509
 20
265.7238125022
  0
LWPOLYLINE
  5
37F
100
AcDbEntity
  8
0
100
AcDbPolyline
 62
7
  6
CONTINUOUS
 90
7
 70
0
 10
187.2592491241
 20
265.3014824663
 10
187.1328132459
 20
265.4417225992
 10
186.9981670321
 20
265.5468836933
 10
186.8693500971
 20
265.6198615496
 10
186.7490405768
 20
265.6709012712
 10
186.6427998474
 20
265.7066767127
 10
186.5332405071
 20
265.7379318208
  0
LINE
  5
380
100
AcDbEntity
  8
0
100
AcDbLine
 62
7
  6
CONTINUOUS
 10
187.4599375812
 20
254.2059652236
 11
187.4599375812
 21
264.6981045619
  0
LINE
  5
381
100
AcDbEntity
  8
0
100
AcDbLine
 62
7
  6
CONTINUOUS
 10
187.4364049853
 20
253.9897609381
 11
187.4599135186
 21
254.2060183414
  0
LWPOLYLINE
  5
382
100
AcDbEntity
  8
0
100
AcDbPolyline
 62
7
  6
CONTINUOUS
 90
3
 70
0
 10
187.2708588611
 20
253.6184640185
 10
187.3698218303
 20
253.7897310478
 10
187.4364049853
 20
253.9897609381
  0
LWPOLYLINE
  5
383
100
AcDbEntity
  8
0
100
AcDbPolyline
 62
7
  6
CONTINUOUS
 90
4
 70
0
 10
187.4329891414
 20
264.9250505366
 10
187.3718255086
 20
265.1099507157
 10
187.2769114458
 20
265.2771268935
 10
187.1600783715
 20
265.4156915675
  0
LWPOLYLINE
  5
384
100
AcDbEntity
  8
0
100
AcDbPolyline
 62
7
  6
CONTINUOUS
 90
4
 70
0
 10
187.4599134939
 20
264.698057477
 10
187.4319879418
 20
264.9334914209
 10
187.3617695202
 20
265.1316455187
 10
187.2592491241
 20
265.3014824663
  0
LINE
  5
385
100
AcDbEntity
  8
1_AXIS
100
AcDbLine
 62
7
  6
CONTINUOUS
 10
269.1001167678
 20
40.5278932771
 11
258.6436694452
 21
40.5278932771
  0
LWPOLYLINE
  5
386
100
AcDbEntity
  8
0
100
AcDbPolyline
 62
7
  6
CONTINUOUS
 90
4
 70
0
 10
269.1776636262
 20
78.8606479308
 10
269.3064889834
 20
78.8688127552
 10
269.5658076865
 20
78.937169192
 10
269.7859681572
 20
79.0605842926
  0
LINE
  5
387
100
AcDbEntity
  8
0
100
AcDbLine
 62
7
  6
CONTINUOUS
 10
258.5662142176
 20
78.8606054245
 11
269.1775720287
 21
78.8606054245
  0
LWPOLYLINE
  5
388
100
AcDbEntity
  8
0
100
AcDbPolyline
 62
7
  6
CONTINUOUS
 90
4
 70
0
 10
257.971229752
 20
79.0509173901
 10
258.2012456292
 20
78.9279692831
 10
258.4566542636
 20
78.8665387219
 10
258.5661630052
 20
78.8606475392
  0
LINE
  5
389
100
AcDbEntity
  8
0
100
AcDbLine
 62
7
  6
CONTINUOUS
 10
256.6490816195
 20
177.2517804262
 11
256.647707831
 21
177.24946175
  0
LINE
  5
38A
100
AcDbEntity
  8
0
100
AcDbLine
 62
7
  6
CONTINUOUS
 10
256.7101183709
 20
177.3534230901
 11
256.6490816195
 21
177.2517804262
  0
LINE
  5
38B
100
AcDbEntity
  8
0
100
AcDbLine
 62
7
  6
CONTINUOUS
 10
256.9564812383
 20
177.744783819
 11
256.7101183709
 21
177.3534230901
  0
LINE
  5
38C
100
AcDbEntity
  8
0
100
AcDbLine
 62
7
  6
CONTINUOUS
 10
257.2053524357
 20
178.1091812739
 11
256.9564812383
 21
177.744783819
  0
LWPOLYLINE
  5
38D
100
AcDbEntity
  8
0
100
AcDbPolyline
 62
7
  6
CONTINUOUS
 90
4
 70
0
 10
257.7987587261
 20
178.851833922
 10
257.7160863973
 20
178.7590250651
 10
257.4580293025
 20
178.4471601673
 10
257.2053524357
 20
178.1091812739
  0
LINE
  5
38E
100
AcDbEntity
  8
0
100
AcDbLine
 62
7
  6
CONTINUOUS
 10
257.7987572959
 20
178.851835235
 11
257.7972564537
 21
178.8501796227
  0
LINE
  5
38F
100
AcDbEntity
  8
0
100
AcDbLine
 62
7
  6
CONTINUOUS
 10
257.9577553454
 20
178.9951411933
 11
257.7972564537
 21
178.8501796227
  0
LINE
  5
390
100
AcDbEntity
  8
1_AXIS
100
AcDbLine
 62
7
  6
CONTINUOUS
 10
244.7218931065
 20
97.2778932771
 11
251.3718931065
 21
97.2778932771
  0
LINE
  5
391
100
AcDbEntity
  8
1_AXIS
100
AcDbLine
 62
7
  6
CONTINUOUS
 10
276.3718931065
 20
97.2778932771
 11
283.0218931065
 21
97.2778932771
  0
LINE
  5
392
100
AcDbEntity
  8
0
100
AcDbLine
 62
7
  6
CONTINUOUS
 10
257.7972656906
 20
79.2055984668
 11
257.971229752
 21
79.0509173901
  0
LINE
  5
393
100
AcDbEntity
  8
0
100
AcDbLine
 62
7
  6
CONTINUOUS
 10
257.7987678212
 20
79.2039426424
 11
257.7972662607
 21
79.2055989907
  0
LINE
  5
394
100
AcDbEntity
  8
0
100
AcDbLine
 62
7
  6
CONTINUOUS
 10
257.7324233197
 20
79.2781487611
 11
257.7987678212
 21
79.2039426424
  0
LINE
  5
395
100
AcDbEntity
  8
0
100
AcDbLine
 62
7
  6
CONTINUOUS
 10
257.4741502642
 20
79.5881585518
 11
257.7324233197
 21
79.2781487611
  0
LINE
  5
396
100
AcDbEntity
  8
0
100
AcDbLine
 62
7
  6
CONTINUOUS
 10
257.2212613929
 20
79.9243736064
 11
257.4741502642
 21
79.5881585518
  0
LINE
  5
397
100
AcDbEntity
  8
0
100
AcDbLine
 62
7
  6
CONTINUOUS
 10
256.9721618399
 20
80.287122798
 11
257.2212613929
 21
79.9243736064
  0
LINE
  5
398
100
AcDbEntity
  8
0
100
AcDbLine
 62
7
  6
CONTINUOUS
 10
256.7255374285
 20
80.676980115
 11
256.9721618399
 21
80.287122798
  0
LINE
  5
399
100
AcDbEntity
  8
0
100
AcDbLine
 62
7
  6
CONTINUOUS
 10
256.6490846604
 20
80.8040012108
 11
256.7255374285
 21
80.676980115
  0
LINE
  5
39A
100
AcDbEntity
  8
0
100
AcDbLine
 62
7
  6
CONTINUOUS
 10
256.6490963513
 20
80.8040081933
 11
256.6480208896
 21
80.8058219922
  0
LINE
  5
39B
100
AcDbEntity
  8
1_AXIS
100
AcDbLine
 62
7
  6
CONTINUOUS
 10
242.7218931065
 20
99.2778932771
 11
242.7218931065
 21
158.7778932771
  0
LINE
  5
39C
100
AcDbEntity
  8
1_AXIS
100
AcDbLine
 62
7
  6
CONTINUOUS
 10
257.6588616922
 20
216.7015414548
 11
256.5238155764
 21
210.2643750538
  0
LWPOLYLINE
  5
39D
100
AcDbEntity
  8
0
100
AcDbPolyline
 62
7
  6
CONTINUOUS
 90
4
 70
0
 10
256.6477196594
 20
177.2494547269
 10
256.5508380382
 20
177.0655721525
 10
256.4275020901
 20
176.7154309543
 10
256.3742627559
 20
176.3532886784
  0
LINE
  5
39E
100
AcDbEntity
  8
0
100
AcDbLine
 62
7
  6
CONTINUOUS
 10
256.5691355862
 20
80.9517707821
 11
256.6480208896
 21
80.8058219922
  0
LINE
  5
39F
100
AcDbEntity
  8
1_AXIS
100
AcDbLine
 62
7
  6
CONTINUOUS
 10
257.6588616922
 20
41.3542450994
 11
256.5238155764
 21
47.7914115004
  0
LWPOLYLINE
  5
3A0
100
AcDbEntity
  8
0
100
AcDbPolyline
 62
7
  6
CONTINUOUS
 90
4
 70
0
 10
256.3718922306
 20
81.7956949549
 10
256.376916268
 20
81.6591226459
 10
256.4381230433
 20
81.2993421974
 10
256.5691355862
 20
80.9517707821
  0
LINE
  5
3A1
100
AcDbEntity
  8
0
100
AcDbLine
 62
7
  6
CONTINUOUS
 10
256.3718931065
 20
179.7635329758
 11
256.3718931065
 21
178.7261015381
  0
LINE
  5
3A2
100
AcDbEntity
  8
1_AXIS
100
AcDbLine
 62
7
  6
CONTINUOUS
 10
256.3718931065
 20
49.533265779
 11
256.3718931065
 21
50.0307055105
  0
LINE
  5
3A3
100
AcDbEntity
  8
0
100
AcDbLine
 62
7
  6
CONTINUOUS
 10
256.3718931065
 20
49.5278932784
 11
256.3718931065
 21
178.6905981639
  0
LINE
  5
3A4
100
AcDbEntity
  8
0
100
AcDbLine
 62
7
  6
CONTINUOUS
 10
256.3718931065
 20
179.83966896
 11
256.3718931065
 21
208.5277405953
  0
LINE
  5
3A5
100
AcDbEntity
  8
0
100
AcDbLine
 62
7
  6
CONTINUOUS
 10
256.6718931065
 20
180.2699122273
 11
256.6718931065
 21
180.8930091856
  0
LINE
  5
3A6
100
AcDbEntity
  8
0
100
AcDbLine
 62
7
  6
CONTINUOUS
 10
256.3718946918
 20
176.2593371293
 11
256.3718931065
 21
176.257641261
  0
LINE
  5
3A7
100
AcDbEntity
  8
0
100
AcDbLine
 62
7
  6
CONTINUOUS
 10
256.3742627559
 20
176.3532886784
 11
256.3718904969
 21
176.2593371371
  0
LINE
  5
3A8
100
AcDbEntity
  8
1_AXIS
100
AcDbLine
 62
2
  6
CENTER
 10
240.7218931065
 20
129.0278932771
 11
287.0218931065
 21
129.0278932771
  0
LWPOLYLINE
  5
3A9
100
AcDbEntity
  8
0
100
AcDbPolyline
 62
7
  6
CONTINUOUS
 90
4
 70
0
 10
271.3718734619
 20
176.2599921452
 10
271.3669454606
 20
176.3953651123
 10
271.3060298488
 20
176.7550914126
 10
271.1752187609
 20
177.1028835747
  0
LINE
  5
3AA
100
AcDbEntity
  8
1_AXIS
100
AcDbLine
 62
7
  6
CONTINUOUS
 10
271.3718931065
 20
49.533265779
 11
271.3718931065
 21
50.0307055105
  0
LINE
  5
3AB
100
AcDbEntity
  8
0
100
AcDbLine
 62
7
  6
CONTINUOUS
 10
271.3718931065
 20
49.5278932784
 11
271.3718931065
 21
208.5277406245
  0
LINE
  5
3AC
100
AcDbEntity
  8
0
100
AcDbLine
 62
7
  6
CONTINUOUS
 10
271.3695623756
 20
81.703689852
 11
271.371875071
 21
81.7965298102
  0
LINE
  5
3AD
100
AcDbEntity
  8
1_AXIS
100
AcDbLine
 62
7
  6
CONTINUOUS
 10
285.0218931065
 20
99.2778932771
 11
285.0218931065
 21
158.7778932771
  0
LINE
  5
3AE
100
AcDbEntity
  8
1_AXIS
100
AcDbLine
 62
7
  6
CONTINUOUS
 10
271.2199706366
 20
47.7914115004
 11
270.0849245208
 21
41.3542450994
  0
LWPOLYLINE
  5
3AF
100
AcDbEntity
  8
0
100
AcDbPolyline
 62
7
  6
CONTINUOUS
 90
4
 70
0
 10
271.0961296439
 20
80.8064043517
 10
271.1934588486
 20
80.9912909079
 10
271.3165941586
 20
81.3416144344
 10
271.3695623756
 20
81.703689852
  0
LINE
  5
3B0
100
AcDbEntity
  8
0
100
AcDbLine
 62
7
  6
CONTINUOUS
 10
271.0947055039
 20
80.8040069219
 11
271.0961267837
 21
80.8064060501
  0
LINE
  5
3B1
100
AcDbEntity
  8
0
100
AcDbLine
 62
7
  6
CONTINUOUS
 10
271.0337172046
 20
80.7024446196
 11
271.0947055039
 21
80.8040069219
  0
LINE
  5
3B2
100
AcDbEntity
  8
0
100
AcDbLine
 62
7
  6
CONTINUOUS
 10
270.787383632
 20
80.3111233102
 11
271.0337172046
 21
80.7024446196
  0
LINE
  5
3B3
100
AcDbEntity
  8
0
100
AcDbLine
 62
7
  6
CONTINUOUS
 10
270.5385230172
 20
79.9467304788
 11
270.787383632
 21
80.3111233102
  0
LINE
  5
3B4
100
AcDbEntity
  8
1_AXIS
100
AcDbLine
 62
7
  6
CONTINUOUS
 10
244.7218931065
 20
160.7778932771
 11
251.3718931065
 21
160.7778932771
  0
LINE
  5
3B5
100
AcDbEntity
  8
1_AXIS
100
AcDbLine
 62
7
  6
CONTINUOUS
 10
276.3718931065
 20
160.7778932771
 11
283.0218931065
 21
160.7778932771
  0
LINE
  5
3B6
100
AcDbEntity
  8
0
100
AcDbLine
 62
7
  6
CONTINUOUS
 10
270.7716463176
 20
177.768630051
 11
270.522548079
 21
178.1313799984
  0
LINE
  5
3B7
100
AcDbEntity
  8
0
100
AcDbLine
 62
7
  6
CONTINUOUS
 10
271.0182591397
 20
177.3787911246
 11
270.7716463176
 21
177.768630051
  0
LINE
  5
3B8
100
AcDbEntity
  8
0
100
AcDbLine
 62
7
  6
CONTINUOUS
 10
271.0947018002
 20
177.2517868345
 11
271.0182591397
 21
177.3787911246
  0
LINE
  5
3B9
100
AcDbEntity
  8
0
100
AcDbLine
 62
7
  6
CONTINUOUS
 10
271.0947042231
 20
177.251788282
 11
271.0958317238
 21
177.2498864927
  0
LINE
  5
3BA
100
AcDbEntity
  8
0
100
AcDbLine
 62
7
  6
CONTINUOUS
 10
271.1752187609
 20
177.1028835747
 11
271.0958317238
 21
177.2498864927
  0
LINE
  5
3BB
100
AcDbEntity
  8
1_AXIS
100
AcDbLine
 62
7
  6
CONTINUOUS
 10
271.2199706366
 20
210.2643750538
 11
270.0849245208
 21
216.7015414548
  0
LWPOLYLINE
  5
3BC
100
AcDbEntity
  8
0
100
AcDbPolyline
 62
7
  6
CONTINUOUS
 90
4
 70
0
 10
269.9450274959
 20
79.20395249
 10
270.0277528009
 20
79.2968216786
 10
270.2858394919
 20
79.6087311856
 10
270.5385230172
 20
79.9467304788
  0
LINE
  5
3BD
100
AcDbEntity
  8
0
100
AcDbLine
 62
7
  6
CONTINUOUS
 10
269.9450280418
 20
79.2039519825
 11
269.9466991948
 21
79.2057959603
  0
LINE
  5
3BE
100
AcDbEntity
  8
0
100
AcDbLine
 62
7
  6
CONTINUOUS
 10
269.7859681572
 20
79.0605842926
 11
269.9466991948
 21
79.2057959603
  0
LWPOLYLINE
  5
3BF
100
AcDbEntity
  8
0
100
AcDbPolyline
 62
7
  6
CONTINUOUS
 90
4
 70
0
 10
269.7736226683
 20
179.0040967971
 10
269.5438920483
 20
179.1272864083
 10
269.2882431735
 20
179.1891237938
 10
269.1775563094
 20
179.195140555
  0
LINE
  5
3C0
100
AcDbEntity
  8
0
100
AcDbLine
 62
7
  6
CONTINUOUS
 10
269.9464266927
 20
178.8502935497
 11
269.7736226683
 21
179.0040967971
  0
LINE
  5
3C1
100
AcDbEntity
  8
0
100
AcDbLine
 62
7
  6
CONTINUOUS
 10
269.945018798
 20
178.85184463
 11
269.9464258447
 21
178.8502927686
  0
LINE
  5
3C2
100
AcDbEntity
  8
0
100
AcDbLine
 62
7
  6
CONTINUOUS
 10
270.0113771325
 20
178.777623187
 11
269.945018798
 21
178.85184463
  0
LINE
  5
3C3
100
AcDbEntity
  8
0
100
AcDbLine
 62
7
  6
CONTINUOUS
 10
270.2696567525
 20
178.4676018789
 11
270.0113771325
 21
178.777623187
  0
LINE
  5
3C4
100
AcDbEntity
  8
0
100
AcDbLine
 62
7
  6
CONTINUOUS
 10
270.522548079
 20
178.1313799984
 11
270.2696567525
 21
178.4676018789
  0
LWPOLYLINE
  5
3C5
100
AcDbEntity
  8
0
100
AcDbPolyline
 62
7
  6
CONTINUOUS
 90
4
 70
0
 10
258.5661909065
 20
179.1951402166
 10
258.4368904812
 20
179.186917577
 10
258.1775198631
 20
179.1184144002
 10
257.9577553454
 20
178.9951411933
  0
LINE
  5
3C6
100
AcDbEntity
  8
0
100
AcDbLine
 62
7
  6
CONTINUOUS
 10
258.5662558943
 20
179.1951809497
 11
269.1775482503
 21
179.1951811297
  0
LINE
  5
3C7
100
AcDbEntity
  8
0
100
AcDbLine
 62
7
  6
CONTINUOUS
 10
256.3718931065
 20
180.359545653
 11
256.6718931065
 21
180.359545653
  0
LINE
  5
3C8
100
AcDbEntity
  8
1_AXIS
100
AcDbLine
 62
7
  6
CONTINUOUS
 10
269.1001167678
 20
217.5278932771
 11
258.6436694452
 21
217.5278932771
  0
LINE
  5
3C9
100
AcDbEntity
  8
1_AXIS
100
AcDbLine
 62
2
  6
CONTINUOUS
 10
107.8217477577
 20
130.0778932771
 11
107.8217477577
 21
127.9778932771
  0
LINE
  5
3CA
100
AcDbEntity
  8
1_AXIS
100
AcDbLine
 62
2
  6
CENTER
 10
107.8217477577
 20
123.7778932771
 11
107.8217477577
 21
38.5278932771
  0
LINE
  5
3CB
100
AcDbEntity
  8
1_AXIS
100
AcDbLine
 62
2
  6
CENTER
 10
107.8217477577
 20
134.2778932771
 11
107.8217477577
 21
219.5278932771
  0
LINE
  5
3CC
100
AcDbEntity
  8
1_AXIS
100
AcDbLine
 62
2
  6
CONTINUOUS
 10
108.8717477577
 20
129.0278932771
 11
106.7717477577
 21
129.0278932771
  0
LINE
  5
3CD
100
AcDbEntity
  8
1_AXIS
100
AcDbLine
 62
2
  6
CENTER
 10
102.5717477577
 20
129.0278932771
 11
17.3217477577
 21
129.0278932771
  0
LINE
  5
3CE
100
AcDbEntity
  8
1_AXIS
100
AcDbLine
 62
2
  6
CENTER
 10
113.0717477577
 20
129.0278932771
 11
198.3217477577
 21
129.0278932771
  0
ARC
  5
3CF
100
AcDbEntity
  8
0
100
AcDbCircle
 62
7
  6
CONTINUOUS
 10
57.6271252195
 20
62.8706395811
 40
61.5
100
AcDbArc
 50
340.2063027758
 51
354.5175226239
  0
ARC
  5
3D0
100
AcDbEntity
  8
0
100
AcDbCircle
 62
7
  6
CONTINUOUS
 10
56.7609234822
 20
70.7265871986
 40
14.0
100
AcDbArc
 50
63.4457863
 51
114.5175226239
  0
ARC
  5
3D1
100
AcDbEntity
  8
0
100
AcDbCircle
 62
7
  6
CONTINUOUS
 10
25.4305741433
 20
118.6367018736
 40
61.5
100
AcDbArc
 50
65.4824773761
 51
79.7936972242
  0
ARC
  5
3D2
100
AcDbEntity
  8
0
100
AcDbCircle
 62
7
  6
CONTINUOUS
 10
31.8009234822
 20
113.9585753556
 40
14.0
100
AcDbArc
 50
305.4824773761
 51
356.5542137
  0
ARC
  5
3D3
100
AcDbEntity
  8
0
100
AcDbCircle
 62
7
  6
CONTINUOUS
 10
50.7665736896
 20
112.8165980322
 40
5.0
100
AcDbArc
 50
135.1834675913
 51
176.5542137
  0
ARC
  5
3D4
100
AcDbEntity
  8
0
100
AcDbCircle
 62
7
  6
CONTINUOUS
 10
30.1835579341
 20
90.8891796003
 40
2.0
100
AcDbArc
 50
139.7936972242
 51
206.1619561612
  0
ARC
  5
3D5
100
AcDbEntity
  8
0
100
AcDbCircle
 62
7
  6
CONTINUOUS
 10
35.9735579341
 20
80.8606054245
 40
2.0
100
AcDbArc
 50
213.8380438388
 51
280.2063027758
  0
ARC
  5
3D6
100
AcDbEntity
  8
0
100
AcDbCircle
 62
7
  6
CONTINUOUS
 10
75.6251966814
 20
52.4794481777
 40
61.5
100
AcDbArc
 50
125.4824773761
 51
139.7936972242
  0
ARC
  5
3D7
100
AcDbEntity
  8
0
100
AcDbCircle
 62
7
  6
CONTINUOUS
 10
71.1364357577
 20
65.4870690016
 40
18.0
100
AcDbArc
 50
15.1834675913
 51
104.8165324087
  0
ARC
  5
3D8
100
AcDbEntity
  8
0
100
AcDbCircle
 62
7
  6
CONTINUOUS
 10
82.8617477577
 20
55.6572692771
 40
14.0
100
AcDbArc
 50
5.4824773761
 51
56.5542137
  0
ARC
  5
3D9
100
AcDbEntity
  8
0
100
AcDbCircle
 62
7
  6
CONTINUOUS
 10
93.333554234
 20
71.5110154944
 40
5.0
100
AcDbArc
 50
195.1834675913
 51
236.5542137
  0
ARC
  5
3DA
100
AcDbEntity
  8
0
100
AcDbCircle
 62
7
  6
CONTINUOUS
 10
102.0317477577
 20
42.7218917477
 40
2.0
100
AcDbArc
 50
199.7936972242
 51
266.1619561612
  0
ARC
  5
3DB
100
AcDbEntity
  8
0
100
AcDbCircle
 62
7
  6
CONTINUOUS
 10
65.2547672133
 20
87.7223107393
 40
5.0
100
AcDbArc
 50
243.4457863
 51
284.8165324087
  0
ARC
  5
3DC
100
AcDbEntity
  8
0
100
AcDbCircle
 62
7
  6
CONTINUOUS
 10
25.4305741433
 20
139.4190846806
 40
61.5
100
AcDbArc
 50
280.2063027758
 51
294.5175226239
  0
ARC
  5
3DD
100
AcDbEntity
  8
0
100
AcDbCircle
 62
7
  6
CONTINUOUS
 10
34.4511237577
 20
129.0278932771
 40
18.0
100
AcDbArc
 50
315.1834675913
 51
44.8165324087
  0
ARC
  5
3DE
100
AcDbEntity
  8
0
100
AcDbCircle
 62
7
  6
CONTINUOUS
 10
31.8009234822
 20
144.0972111986
 40
14.0
100
AcDbArc
 50
3.4457863
 51
54.5175226239
  0
ARC
  5
3DF
100
AcDbEntity
  8
0
100
AcDbCircle
 62
7
  6
CONTINUOUS
 10
50.7665736896
 20
145.239188522
 40
5.0
100
AcDbArc
 50
183.4457863
 51
224.8165324087
  0
ARC
  5
3E0
100
AcDbEntity
  8
0
100
AcDbCircle
 62
7
  6
CONTINUOUS
 10
30.1835579341
 20
167.1666069539
 40
2.0
100
AcDbArc
 50
153.8380438388
 51
220.2063027758
  0
ARC
  5
3E1
100
AcDbEntity
  8
0
100
AcDbCircle
 62
7
  6
CONTINUOUS
 10
57.6271252195
 20
195.1851469731
 40
61.5
100
AcDbArc
 50
5.4824773761
 51
19.7936972242
  0
ARC
  5
3E2
100
AcDbEntity
  8
0
100
AcDbCircle
 62
7
  6
CONTINUOUS
 10
56.7609234822
 20
187.3291993556
 40
14.0
100
AcDbArc
 50
245.4824773761
 51
296.5542137
  0
ARC
  5
3E3
100
AcDbEntity
  8
0
100
AcDbCircle
 62
7
  6
CONTINUOUS
 10
35.9735579341
 20
177.1951811297
 40
2.0
100
AcDbArc
 50
79.7936972242
 51
146.1619561612
  0
ARC
  5
3E4
100
AcDbEntity
  8
0
100
AcDbCircle
 62
7
  6
CONTINUOUS
 10
65.2547672133
 20
170.3334758149
 40
5.0
100
AcDbArc
 50
75.1834675913
 51
116.5542137
  0
ARC
  5
3E5
100
AcDbEntity
  8
0
100
AcDbCircle
 62
7
  6
CONTINUOUS
 10
75.6251966814
 20
205.5763383765
 40
61.5
100
AcDbArc
 50
220.2063027758
 51
234.5175226239
  0
ARC
  5
3E6
100
AcDbEntity
  8
0
100
AcDbCircle
 62
7
  6
CONTINUOUS
 10
71.1364357577
 20
192.5687175526
 40
18.0
100
AcDbArc
 50
255.1834675913
 51
344.8165324087
  0
ARC
  5
3E7
100
AcDbEntity
  8
0
100
AcDbCircle
 62
7
  6
CONTINUOUS
 10
82.8617477577
 20
202.3985172771
 40
14.0
100
AcDbArc
 50
303.4457863
 51
354.5175226239
  0
ARC
  5
3E8
100
AcDbEntity
  8
0
100
AcDbCircle
 62
7
  6
CONTINUOUS
 10
93.333554234
 20
186.5447710598
 40
5.0
100
AcDbArc
 50
123.4457863
 51
164.8165324087
  0
ARC
  5
3E9
100
AcDbEntity
  8
0
100
AcDbCircle
 62
7
  6
CONTINUOUS
 10
102.0317477577
 20
215.3338948065
 40
2.0
100
AcDbArc
 50
93.8380438388
 51
160.2063027758
  0
ARC
  5
3EA
100
AcDbEntity
  8
0
100
AcDbCircle
 62
7
  6
CONTINUOUS
 10
140.0182988339
 20
52.4794481777
 40
61.5
100
AcDbArc
 50
40.2063027758
 51
54.5175226239
  0
ARC
  5
3EB
100
AcDbEntity
  8
0
100
AcDbCircle
 62
7
  6
CONTINUOUS
 10
144.5070597577
 20
65.4870690016
 40
18.0
100
AcDbArc
 50
75.1834675913
 51
164.8165324087
  0
ARC
  5
3EC
100
AcDbEntity
  8
0
100
AcDbCircle
 62
7
  6
CONTINUOUS
 10
132.7817477577
 20
55.6572692771
 40
14.0
100
AcDbArc
 50
123.4457863
 51
174.5175226239
  0
ARC
  5
3ED
100
AcDbEntity
  8
0
100
AcDbCircle
 62
7
  6
CONTINUOUS
 10
122.3099412814
 20
71.5110154944
 40
5.0
100
AcDbArc
 50
303.4457863
 51
344.8165324087
  0
ARC
  5
3EE
100
AcDbEntity
  8
0
100
AcDbCircle
 62
7
  6
CONTINUOUS
 10
113.6117477577
 20
42.7218917477
 40
2.0
100
AcDbArc
 50
273.8380438388
 51
340.2063027758
  0
ARC
  5
3EF
100
AcDbEntity
  8
0
100
AcDbCircle
 62
7
  6
CONTINUOUS
 10
150.388728302
 20
87.7223107393
 40
5.0
100
AcDbArc
 50
255.1834675913
 51
296.5542137
  0
ARC
  5
3F0
100
AcDbEntity
  8
0
100
AcDbCircle
 62
7
  6
CONTINUOUS
 10
158.0163702959
 20
62.8706395811
 40
61.5
100
AcDbArc
 50
185.4824773761
 51
199.7936972242
  0
ARC
  5
3F1
100
AcDbEntity
  8
0
100
AcDbCircle
 62
7
  6
CONTINUOUS
 10
158.8825720332
 20
70.7265871986
 40
14.0
100
AcDbArc
 50
65.4824773761
 51
116.5542137
  0
ARC
  5
3F2
100
AcDbEntity
  8
0
100
AcDbCircle
 62
7
  6
CONTINUOUS
 10
190.2129213721
 20
118.6367018736
 40
61.5
100
AcDbArc
 50
100.2063027758
 51
114.5175226239
  0
ARC
  5
3F3
100
AcDbEntity
  8
0
100
AcDbCircle
 62
7
  6
CONTINUOUS
 10
183.8425720332
 20
113.9585753556
 40
14.0
100
AcDbArc
 50
183.4457863
 51
234.5175226239
  0
ARC
  5
3F4
100
AcDbEntity
  8
0
100
AcDbCircle
 62
7
  6
CONTINUOUS
 10
164.8769218257
 20
112.8165980322
 40
5.0
100
AcDbArc
 50
3.4457863
 51
44.8165324087
  0
ARC
  5
3F5
100
AcDbEntity
  8
0
100
AcDbCircle
 62
7
  6
CONTINUOUS
 10
179.6699375812
 20
80.8606054245
 40
2.0
100
AcDbArc
 50
259.7936972242
 51
326.1619561612
  0
ARC
  5
3F6
100
AcDbEntity
  8
0
100
AcDbCircle
 62
7
  6
CONTINUOUS
 10
185.4599375812
 20
90.8891796003
 40
2.0
100
AcDbArc
 50
333.8380438388
 51
40.2063027758
  0
ARC
  5
3F7
100
AcDbEntity
  8
0
100
AcDbCircle
 62
7
  6
CONTINUOUS
 10
107.8217477577
 20
129.0278932771
 40
88.5
100
AcDbArc
 50
266.1619561612
 51
273.8380438388
  0
ARC
  5
3F8
100
AcDbEntity
  8
0
100
AcDbCircle
 62
7
  6
CONTINUOUS
 10
107.8217477577
 20
129.0278932771
 40
88.5
100
AcDbArc
 50
206.1619561612
 51
213.8380438388
  0
ARC
  5
3F9
100
AcDbEntity
  8
0
100
AcDbCircle
 62
7
  6
CONTINUOUS
 10
107.8217477577
 20
129.0278932771
 40
88.5
100
AcDbArc
 50
146.1619561612
 51
153.8380438388
  0
ARC
  5
3FA
100
AcDbEntity
  8
0
100
AcDbCircle
 62
7
  6
CONTINUOUS
 10
107.8217477577
 20
129.0278932771
 40
88.5
100
AcDbArc
 50
86.1619561612
 51
93.8380438388
  0
ARC
  5
3FB
100
AcDbEntity
  8
0
100
AcDbCircle
 62
7
  6
CONTINUOUS
 10
107.8217477577
 20
129.0278932771
 40
88.5
100
AcDbArc
 50
26.1619561612
 51
33.8380438388
  0
ARC
  5
3FC
100
AcDbEntity
  8
0
100
AcDbCircle
 62
7
  6
CONTINUOUS
 10
107.8217477577
 20
129.0278932771
 40
88.5
100
AcDbArc
 50
326.1619561612
 51
333.8380438388
  0
CIRCLE
  5
3FD
100
AcDbEntity
  8
1_AXIS
100
AcDbCircle
 62
7
  6
CONTINUOUS
 10
107.8217477577
 20
129.0278932771
 40
31.75
  0
ARC
  5
3FE
100
AcDbEntity
  8
0
100
AcDbCircle
 62
7
  6
CONTINUOUS
 10
140.0182988339
 20
205.5763383765
 40
61.5
100
AcDbArc
 50
305.4824773761
 51
319.7936972242
  0
ARC
  5
3FF
100
AcDbEntity
  8
0
100
AcDbCircle
 62
7
  6
CONTINUOUS
 10
144.5070597577
 20
192.5687175526
 40
18.0
100
AcDbArc
 50
195.1834675913
 51
284.8165324087
  0
ARC
  5
400
100
AcDbEntity
  8
0
100
AcDbCircle
 62
7
  6
CONTINUOUS
 10
132.7817477577
 20
202.3985172771
 40
14.0
100
AcDbArc
 50
185.4824773761
 51
236.5542137
  0
ARC
  5
401
100
AcDbEntity
  8
0
100
AcDbCircle
 62
7
  6
CONTINUOUS
 10
122.3099412814
 20
186.5447710598
 40
5.0
100
AcDbArc
 50
15.1834675913
 51
56.5542137
  0
ARC
  5
402
100
AcDbEntity
  8
0
100
AcDbCircle
 62
7
  6
CONTINUOUS
 10
113.6117477577
 20
215.3338948065
 40
2.0
100
AcDbArc
 50
19.7936972242
 51
86.1619561612
  0
ARC
  5
403
100
AcDbEntity
  8
0
100
AcDbCircle
 62
7
  6
CONTINUOUS
 10
190.2129213721
 20
139.4190846806
 40
61.5
100
AcDbArc
 50
245.4824773761
 51
259.7936972242
  0
ARC
  5
404
100
AcDbEntity
  8
0
100
AcDbCircle
 62
7
  6
CONTINUOUS
 10
181.1923717577
 20
129.0278932771
 40
18.0
100
AcDbArc
 50
135.1834675913
 51
224.8165324087
  0
ARC
  5
405
100
AcDbEntity
  8
0
100
AcDbCircle
 62
7
  6
CONTINUOUS
 10
183.8425720332
 20
144.0972111986
 40
14.0
100
AcDbArc
 50
125.4824773761
 51
176.5542137
  0
ARC
  5
406
100
AcDbEntity
  8
0
100
AcDbCircle
 62
7
  6
CONTINUOUS
 10
164.8769218257
 20
145.239188522
 40
5.0
100
AcDbArc
 50
315.1834675913
 51
356.5542137
  0
ARC
  5
407
100
AcDbEntity
  8
0
100
AcDbCircle
 62
7
  6
CONTINUOUS
 10
150.388728302
 20
170.3334758149
 40
5.0
100
AcDbArc
 50
63.4457863
 51
104.8165324087
  0
ARC
  5
408
100
AcDbEntity
  8
0
100
AcDbCircle
 62
7
  6
CONTINUOUS
 10
185.4599375812
 20
167.1666069539
 40
2.0
100
AcDbArc
 50
319.7936972242
 51
26.1619561612
  0
ARC
  5
409
100
AcDbEntity
  8
0
100
AcDbCircle
 62
7
  6
CONTINUOUS
 10
158.0163702959
 20
195.1851469731
 40
61.5
100
AcDbArc
 50
160.2063027758
 51
174.5175226239
  0
ARC
  5
40A
100
AcDbEntity
  8
0
100
AcDbCircle
 62
7
  6
CONTINUOUS
 10
158.8825720332
 20
187.3291993556
 40
14.0
100
AcDbArc
 50
243.4457863
 51
294.5175226239
  0
ARC
  5
40B
100
AcDbEntity
  8
0
100
AcDbCircle
 62
7
  6
CONTINUOUS
 10
179.6699375812
 20
177.1951811297
 40
2.0
100
AcDbArc
 50
33.8380438388
 51
100.2063027758
  0
ARC
  5
40C
100
AcDbEntity
  8
0
100
AcDbCircle
 62
7
  6
CONTINUOUS
 10
43.8726634526
 20
257.1608027814
 40
9.791232144
100
AcDbArc
 50
90.005285454
 51
93.5906619726
  0
ARC
  5
40D
100
AcDbEntity
  8
0
100
AcDbCircle
 62
7
  6
CONTINUOUS
 10
171.7708321079
 20
257.1608041285
 40
9.7912307969
100
AcDbArc
 50
86.4093397043
 51
89.9947148097
  0
ARC
  5
40E
100
AcDbEntity
  8
0
100
AcDbCircle
 62
7
  6
CONTINUOUS
 10
43.872626251
 20
261.7423344703
 40
9.7902996249
100
AcDbArc
 50
266.4097803362
 51
269.9949317577
  0
ARC
  5
40F
100
AcDbEntity
  8
0
100
AcDbCircle
 62
7
  6
CONTINUOUS
 10
171.7708697285
 20
261.7423220464
 40
9.7902872009
100
AcDbArc
 50
270.0050655324
 51
273.5902213612
  0
ARC
  5
410
100
AcDbEntity
  8
1_AXIS
100
AcDbCircle
 62
7
  6
CONTINUOUS
 10
144.5717477577
 20
271.9520348837
 40
5.0
100
AcDbArc
 50
180.0
 51
270.0
  0
ARC
  5
411
100
AcDbEntity
  8
1_AXIS
100
AcDbCircle
 62
7
  6
CONTINUOUS
 10
144.5717477577
 20
246.9520348837
 40
5.0
100
AcDbArc
 50
90.0
 51
180.0
  0
ARC
  5
412
100
AcDbEntity
  8
1_AXIS
100
AcDbCircle
 62
7
  6
CONTINUOUS
 10
71.0717477577
 20
271.9520348837
 40
5.0
100
AcDbArc
 50
270.0
 51
360.0
  0
ARC
  5
413
100
AcDbEntity
  8
1_AXIS
100
AcDbCircle
 62
7
  6
CONTINUOUS
 10
71.0717477577
 20
246.9520348837
 40
5.0
100
AcDbArc
 50
0.0
 51
90.0
  0
ARC
  5
414
100
AcDbEntity
  8
1_AXIS
100
AcDbCircle
 62
7
  6
CONTINUOUS
 10
137.5717477577
 20
278.6020348837
 40
2.0
100
AcDbArc
 50
0.0
 51
90.0
  0
ARC
  5
415
100
AcDbEntity
  8
1_AXIS
100
AcDbCircle
 62
7
  6
CONTINUOUS
 10
137.5717477577
 20
240.3020348837
 40
2.0
100
AcDbArc
 50
270.0
 51
360.0
  0
ARC
  5
416
100
AcDbEntity
  8
1_AXIS
100
AcDbCircle
 62
7
  6
CONTINUOUS
 10
78.0717477577
 20
278.6020348837
 40
2.0
100
AcDbArc
 50
90.0
 51
180.0
  0
ARC
  5
417
100
AcDbEntity
  8
1_AXIS
100
AcDbCircle
 62
7
  6
CONTINUOUS
 10
78.0717477577
 20
240.3020348837
 40
2.0
100
AcDbArc
 50
180.0
 51
270.0
  0
ARC
  5
418
100
AcDbEntity
  8
1_AXIS
100
AcDbCircle
 62
7
  6
CONTINUOUS
 10
251.3718931065
 20
92.2778932771
 40
5.0
100
AcDbArc
 50
0.0
 51
90.0
  0
ARC
  5
419
100
AcDbEntity
  8
1_AXIS
100
AcDbCircle
 62
7
  6
CONTINUOUS
 10
244.7218931065
 20
99.2778932771
 40
2.0
100
AcDbArc
 50
180.0
 51
270.0
  0
ARC
  5
41A
100
AcDbEntity
  8
0
100
AcDbCircle
 62
7
  6
CONTINUOUS
 10
258.6436694452
 20
41.5278932771
 40
1.0
100
AcDbArc
 50
190.0
 51
270.0
  0
ARC
  5
41B
100
AcDbEntity
  8
0
100
AcDbCircle
 62
7
  6
CONTINUOUS
 10
237.5763746113
 20
177.8032380371
 40
18.8703476796
100
AcDbArc
 50
1.0520103369
 51
1.4478375789
  0
ARC
  5
41C
100
AcDbEntity
  8
0
100
AcDbCircle
 62
7
  6
CONTINUOUS
 10
238.6712420474
 20
177.8233463294
 40
17.775295605
100
AcDbArc
 50
0.6326258794
 51
1.0520002703
  0
ARC
  5
41D
100
AcDbEntity
  8
0
100
AcDbCircle
 62
7
  6
CONTINUOUS
 10
239.2635778597
 20
177.8303798476
 40
17.1829182477
100
AcDbArc
 50
0.1979944272
 51
0.6309819799
  0
ARC
  5
41E
100
AcDbEntity
  8
0
100
AcDbCircle
 62
7
  6
CONTINUOUS
 10
239.4433747666
 20
177.8310028213
 40
17.0031202615
100
AcDbArc
 50
359.7612521336
 51
0.1979888497
  0
ARC
  5
41F
100
AcDbEntity
  8
1_AXIS
100
AcDbCircle
 62
7
  6
CONTINUOUS
 10
251.3718931065
 20
165.7778932771
 40
5.0
100
AcDbArc
 50
270.0
 51
360.0
  0
ARC
  5
420
100
AcDbEntity
  8
0
100
AcDbCircle
 62
7
  6
CONTINUOUS
 10
260.2165132767
 20
179.0815340061
 40
3.8599466077
100
AcDbArc
 50
190.5789641016
 51
191.9844278804
  0
ARC
  5
421
100
AcDbEntity
  8
0
100
AcDbCircle
 62
7
  6
CONTINUOUS
 10
260.1759589349
 20
176.9330364288
 40
3.803917657
100
AcDbArc
 50
177.9451349774
 51
179.9756776932
  0
ARC
  5
422
100
AcDbEntity
  8
1_AXIS
100
AcDbCircle
 62
7
  6
CONTINUOUS
 10
244.7218931065
 20
158.7778932771
 40
2.0
100
AcDbArc
 50
90.0
 51
180.0
  0
ARC
  5
423
100
AcDbEntity
  8
0
100
AcDbCircle
 62
7
  6
CONTINUOUS
 10
258.6436694452
 20
216.5278932771
 40
1.0
100
AcDbArc
 50
90.0
 51
170.0
  0
ARC
  5
424
100
AcDbEntity
  8
0
100
AcDbCircle
 62
7
  6
CONTINUOUS
 10
257.0694744253
 20
179.763542067
 40
0.6975813189
100
AcDbArc
 50
173.7348465919
 51
180.0007467046
  0
ARC
  5
425
100
AcDbEntity
  8
0
100
AcDbCircle
 62
7
  6
CONTINUOUS
 10
256.6779966903
 20
178.7293525597
 40
0.3063068203
100
AcDbArc
 50
187.2687812199
 51
195.577114668
  0
ARC
  5
426
100
AcDbEntity
  8
0
100
AcDbCircle
 62
7
  6
CONTINUOUS
 10
256.6553373214
 20
178.7263072513
 40
0.2834442895
100
AcDbArc
 50
180.041583135
 51
187.2376761648
  0
ARC
  5
427
100
AcDbEntity
  8
0
100
AcDbCircle
 62
7
  6
CONTINUOUS
 10
266.9465142547
 20
50.0309065049
 40
10.5746211501
100
AcDbArc
 50
180.0010890346
 51
189.7239509336
  0
ARC
  5
428
100
AcDbEntity
  8
0
100
AcDbCircle
 62
7
  6
CONTINUOUS
 10
260.8039256431
 20
50.0307287968
 40
10.5679674634
100
AcDbArc
 50
350.2786284077
 51
359.9998737501
  0
ARC
  5
429
100
AcDbEntity
  8
1_AXIS
100
AcDbCircle
 62
7
  6
CONTINUOUS
 10
261.3718931065
 20
49.5278932771
 40
10.0
100
AcDbArc
 50
350.0
 51
360.0
  0
ARC
  5
42A
100
AcDbEntity
  8
1_AXIS
100
AcDbCircle
 62
7
  6
CONTINUOUS
 10
266.3718931065
 20
49.5278932771
 40
10.0
100
AcDbArc
 50
180.0
 51
190.0
  0
ARC
  5
42B
100
AcDbEntity
  8
1_AXIS
100
AcDbCircle
 62
7
  6
CONTINUOUS
 10
276.3718931065
 20
92.2778932771
 40
5.0
100
AcDbArc
 50
90.0
 51
180.0
  0
ARC
  5
42C
100
AcDbEntity
  8
1_AXIS
100
AcDbCircle
 62
7
  6
CONTINUOUS
 10
283.0218931065
 20
99.2778932771
 40
2.0
100
AcDbArc
 50
270.0
 51
360.0
  0
ARC
  5
42D
100
AcDbEntity
  8
0
100
AcDbCircle
 62
7
  6
CONTINUOUS
 10
269.1001167678
 20
41.5278932771
 40
1.0
100
AcDbArc
 50
270.0
 51
350.0
  0
ARC
  5
42E
100
AcDbEntity
  8
0
100
AcDbCircle
 62
7
  6
CONTINUOUS
 10
266.9613344629
 20
208.0235487376
 40
10.5894414672
100
AcDbArc
 50
170.2829852944
 51
179.9917092255
  0
ARC
  5
42F
100
AcDbEntity
  8
0
100
AcDbCircle
 62
7
  6
CONTINUOUS
 10
260.7824962849
 20
208.0235525264
 40
10.589396932
100
AcDbArc
 50
0.0082703098
 51
9.7170351703
  0
ARC
  5
430
100
AcDbEntity
  8
1_AXIS
100
AcDbCircle
 62
7
  6
CONTINUOUS
 10
261.3718931065
 20
208.5278932771
 40
10.0
100
AcDbArc
 50
0.0
 51
10.0
  0
ARC
  5
431
100
AcDbEntity
  8
1_AXIS
100
AcDbCircle
 62
7
  6
CONTINUOUS
 10
266.3718931065
 20
208.5278932771
 40
10.0
100
AcDbArc
 50
170.0
 51
180.0
  0
ARC
  5
432
100
AcDbEntity
  8
0
100
AcDbCircle
 62
7
  6
CONTINUOUS
 10
261.8159220545
 20
176.8508993058
 40
5.4460143673
100
AcDbArc
 50
170.3890329827
 51
176.9936248166
  0
ARC
  5
433
100
AcDbEntity
  8
1_AXIS
100
AcDbCircle
 62
7
  6
CONTINUOUS
 10
276.3718931065
 20
165.7778932771
 40
5.0
100
AcDbArc
 50
180.0
 51
270.0
  0
ARC
  5
434
100
AcDbEntity
  8
0
100
AcDbCircle
 62
7
  6
CONTINUOUS
 10
260.6332225041
 20
176.9179795541
 40
4.2614272826
100
AcDbArc
 50
177.0602969106
 51
177.9632680764
  0
ARC
  5
435
100
AcDbEntity
  8
1_AXIS
100
AcDbCircle
 62
7
  6
CONTINUOUS
 10
283.0218931065
 20
158.7778932771
 40
2.0
100
AcDbArc
 50
0.0
 51
90.0
  0
ARC
  5
436
100
AcDbEntity
  8
0
100
AcDbCircle
 62
7
  6
CONTINUOUS
 10
269.1001167678
 20
216.5278932771
 40
1.0
100
AcDbArc
 50
10.0
 51
90.0
  0
SPLINE
  5
437
100
AcDbEntity
  8
0
100
AcDbSpline
 62
7
  6
CONTINUOUS
 70
0
 71
3
 72
8
 73
4
 74
0
 42
0.0000001
 43
0.0000001
 44
0.0000000001
 40
0.0
 40
0.0
 40
0.0
 40
0.0
 40
1.0
 40
1.0
 40
1.0
 40
1.0
 10
256.3829547589
 20
178.6470984306
 30
0.0
 10
256.3917196905
 20
178.5551805908
 30
0.0
 10
256.4052446808
 20
178.4636540294
 30
0.0
 10
256.4221748769
 20
178.3728846415
 30
0.0
  0
SPLINE
  5
438
100
AcDbEntity
  8
0
100
AcDbSpline
 62
7
  6
CONTINUOUS
 70
0
 71
3
 72
9
 73
5
 74
0
 42
0.0000001
 43
0.0000001
 44
0.0000000001
 40
0.0
 40
0.0
 40
0.0
 40
0.0
 40
0.2638899856
 40
1.0
 40
1.0
 40
1.0
 40
1.0
 10
256.5932070833
 20
180.2246847123
 30
0.0
 10
256.570647556
 20
180.2045767908
 30
0.0
 10
256.4894328953
 20
180.1239041386
 30
0.0
 10
256.4269408012
 20
180.0229991431
 30
0.0
 10
256.4000072513
 20
179.9431196401
 30
0.0
  0
SPLINE
  5
439
100
AcDbEntity
  8
0
100
AcDbSpline
 62
7
  6
CONTINUOUS
 70
0
 71
3
 72
8
 73
4
 74
0
 42
0.0000001
 43
0.0000001
 44
0.0000000001
 40
0.0
 40
0.0
 40
0.0
 40
0.0
 40
1.0
 40
1.0
 40
1.0
 40
1.0
 10
256.4000072513
 20
179.9431196401
 30
0.0
 10
256.3886984617
 20
179.9095800403
 30
0.0
 10
256.3805494553
 20
179.8747789031
 30
0.0
 10
256.376067784
 20
179.83966896
 30
0.0
  0
SPLINE
  5
43A
100
AcDbEntity
  8
0
100
AcDbSpline
 62
7
  6
CONTINUOUS
 70
0
 71
3
 72
8
 73
4
 74
0
 42
0.0000001
 43
0.0000001
 44
0.0000000001
 40
0.0
 40
0.0
 40
0.0
 40
0.0
 40
1.0
 40
1.0
 40
1.0
 40
1.0
 10
256.6718931065
 20
180.2699122273
 30
0.0
 10
256.6449560854
 20
180.2561419274
 30
0.0
 10
256.6186052857
 20
180.2411211224
 30
0.0
 10
256.5932070833
 20
180.2246847123
 30
0.0
  0
SPLINE
  5
43B
100
AcDbEntity
  8
0
100
AcDbSpline
 62
7
  6
CONTINUOUS
 70
0
 71
3
 72
9
 73
5
 74
0
 42
0.0000001
 43
0.0000001
 44
0.0000000001
 40
0.0
 40
0.0
 40
0.0
 40
0.0
 40
0.2376840573
 40
1.0
 40
1.0
 40
1.0
 40
1.0
 10
256.3718931065
 20
180.4101991645
 30
0.0
 10
256.3718931065
 20
180.4434445628
 30
0.0
 10
256.3872022804
 20
180.5835237373
 30
0.0
 10
256.4665677675
 20
180.7112939829
 30
0.0
 10
256.5416977235
 20
180.7869561944
 30
0.0
  0
SPLINE
  5
43C
100
AcDbEntity
  8
0
100
AcDbSpline
 62
7
  6
CONTINUOUS
 70
0
 71
3
 72
8
 73
4
 74
0
 42
0.0000001
 43
0.0000001
 44
0.0000000001
 40
0.0
 40
0.0
 40
0.0
 40
0.0
 40
1.0
 40
1.0
 40
1.0
 40
1.0
 10
256.5416977235
 20
180.7869561944
 30
0.0
 10
256.5811375609
 20
180.826675442
 30
0.0
 10
256.6252346675
 20
180.8620881655
 30
0.0
 10
256.6718931065
 20
180.8930091856
 30
0.0
  0
ENDSEC
  0
SECTION
  2
OBJECTS
  0
DICTIONARY
  5
C
100
AcDbDictionary
280
0
281
1
  3
ACAD_GROUP
350
D
  3
ACAD_MLINESTYLE
350
17
  3
ACAD_LAYOUT
350
1A
  3
ACAD_PLOTSETTINGS
350
19
  3
ACAD_PLOTSTYLENAME
350
E
  3
ACAD_TABLESTYLE
350
       43D
  0
DICTIONARY
  5
D
102
{ACAD_REACTORS
330
C
102
}
100
AcDbDictionary
280
0
281
1
  0
ACDBDICTIONARYWDFLT
  5
E
102
{ACAD_REACTORS
330
C
102
}
100
AcDbDictionary
281
1
  3
Normal
350
F
100
AcDbDictionaryWithDefault
340
F
  0
DICTIONARY
  5
17
102
{ACAD_REACTORS
330
C
102
}
100
AcDbDictionary
280
0
281
1
  3
Standard
350
18
  0
DICTIONARY
  5
43D
330
C
100
AcDbDictionary
281
1
  3
Standard
350
       440
  3
Standard1
350
       441
  0
DICTIONARY
  5
19
102
{ACAD_REACTORS
330
C
102
}
100
AcDbDictionary
281
1
  0
DICTIONARY
  5
1A
102
{ACAD_REACTORS
330
C
102
}
100
AcDbDictionary
281
1
  3
Model
350
43E
  3
Layout1
350
43F
  0
ACDBPLACEHOLDER
  5
F
102
{ACAD_REACTORS
330
E
102
}
  0
MLINESTYLE
  5
18
102
{ACAD_REACTORS
330
17
102
}
100
AcDbMlineStyle
  2
STANDARD
 70
0
  3

 62
256
 51
90.0
 52
90.0
 71
2
 49
0.5
 62
256
  6
BYLAYER
 49
-0.5
 62
256
  6
BYLAYER
  0
LAYOUT
  5
43E
102
{ACAD_REACTORS
330
1A
102
}
100
AcDbPlotSettings
  1

  2
none_device
  4
ISO_A3_(420.00_x_297.00_MM)
  6

 40
0.0
 41
0.0
 42
0.0
 43
0.0
 44
420.0
 45
297.0
 46
0.0
 47
0.0
 48
0.0
 49
0.0
140
0.0
141
0.0
142
1.0
143
1.0
 70
1024
 72
1
 73
0
 74
0
  7

 75
0
147
1.0
148
0.0
149
0.0
100
AcDbLayout
  1
Model
 70
0
 71
0
 10
0.0
 20
0.0
 11
420.0
 21
297.0
 12
0.0
 22
0.0
 32
0.0
 14
0.0
 24
0.0
 34
0.0
 15
0.0
 25
0.0
 35
0.0
146
0.0
 13
0.0
 23
0.0
 33
0.0
 16
1.0
 26
0.0
 36
0.0
 17
0.0
 27
1.0
 37
0.0
 76
0
330
211
345
0
346
0
  0
LAYOUT
  5
43F
102
{ACAD_REACTORS
330
1A
102
}
100
AcDbPlotSettings
  1

  2
none_device
  4
ISO_A3_(420.00_x_297.00_MM)
  6

 40
0.0
 41
0.0
 42
0.0
 43
0.0
 44
420.0
 45
297.0
 46
0.0
 47
0.0
 48
0.0
 49
0.0
140
0.0
141
0.0
142
1.0
143
1.0
 70
0
 72
1
 73
0
 74
0
  7

 75
0
147
1.0
148
0.0
149
0.0
100
AcDbLayout
  1
Layout1
 70
0
 71
1
 10
0.0
 20
0.0
 11
420.0
 21
297.0
 12
0.0
 22
0.0
 32
0.0
 14
0.0
 24
0.0
 34
0.0
 15
0.0
 25
0.0
 35
0.0
146
0.0
 13
0.0
 23
0.0
 33
0.0
 16
1.0
 26
0.0
 36
0.0
 17
0.0
 27
1.0
 37
0.0
 76
0
330
212
345
0
346
0
  0
TABLESTYLE
  5
440
102
{ACAD_REACTORS
330
43D
330
346
102
}
330
43D
100
AcDbTableStyle
  3
Standard
 70
0
 71
0
 40
0.06
 41
0.06
280
1
281
1
  7
Standard
140
0.18
170
1
 62
0
 63
7
283
0
  7
Standard
140
0.18
170
1
 62
0
 63
7
283
0
  7
Standard
140
0.18
170
1
 62
0
 63
7
283
0
  0
TABLESTYLE
  5
441
102
{ACAD_REACTORS
330
43D
102
}
330
43D
100
AcDbTableStyle
  3
Standard1
 70
1
 71
0
 40
0.06
 41
0.06
280
1
281
1
  7
Standard
140
0.18
170
1
 62
0
 63
7
283
0
  7
Standard
140
0.18
170
1
 62
0
 63
7
283
0
  7
Standard
140
0.18
170
1
 62
0
 63
7
283
0
  0
ENDSEC
  0
EOF
