  0
SECTION
  2
HEADER
  9
$EXTMAX
 10
841.0
 20
594.0
 30
0.0
  9
$EXTMIN
 10
0.0
 20
0.0
 30
0.0
  9
$LIMMIN
 10
0.0
 20
0.0
  9
$LIMMAX
 10
841.0
 20
594.0
  9
$VIEWCTR
 10
420.5
 20
297.0
  9
$VIEWSIZE
 40
594.0
  9
$CLAYER
  8
0
  9
$LTSCALE
 40
46.255
  9
$CELTYPE
  6
BYLAYER
  9
$DIMSCALE
 40
1.0
  9
$DIMASZ
 40
3.5
  9
$DIMEXO
 40
5.25625
  9
$DIMDLI
 40
31.958
  9
$DIMEXE
 40
15.138
  9
$DIMCEN
 40
7.569
  9
$DIMLFAC
 40
1.0
  9
$DIMBLK
  1
_FILLED
  9
$DIMTXT
 40
3.5
  9
$PDMODE
 70
3
  9
$PDSIZE
 40
0.3125
  9
$TILEMODE
 70
1
  0
ENDSEC
  0
SECTION
  2
TABLES
  0
TABLE
  2
LTYPE
 70
6
  0
LTYPE
  2
BYBLOCK
 70
0
  3

 72
65
 73
0
 40
0.0
  0
LTYPE
  2
BYLAYER
 70
0
  3

 72
65
 73
0
 40
0.0
  0
LTYPE
  2
CONTINUOUS
 70
64
  3
Solid line
 72
65
 73
0
 40
0.0
  0
LTYPE
  2
CENTER
 70
64
  3
____ _ ____ _ ____ _ ____ _ ____ _ ____ _ ____
 72
65
 73
4
 40
0.6
 49
0.375
 49
-0.075
 49
0.075
 49
-0.075
  0
LTYPE
  2
HIDDEN
 70
64
  3
- - - - - - - - - - - - - - - - - - - -
 72
65
 73
2
 40
0.2
 49
0.1
 49
-0.1
  0
LTYPE
  2
PHANTOM
 70
64
  3
_____ _ _ _____ _ _ _____ _ _ _____
 72
65
 73
6
 40
0.8
 49
0.45
 49
-0.05
 49
0.1
 49
-0.05
 49
0.1
 49
-0.05
  0
LTYPE
  2
DOT
 70
64
  3
. . . . . . . . . . . . . . . . . . . .
 72
65
 73
2
 40
0.2
 49
0.1
 49
-0.1
  0
LTYPE
  2
DASHED
 70
64
  3
- - - - - - - - - - - - - - - - - - - -
 72
65
 73
2
 40
0.2
 49
0.1
 49
-0.1
  0
ENDTAB
  0
TABLE
  2
LAYER
 70
36
  0
LAYER
  2
0
 70
0
 62
7
  6
CONTINUOUS
  0
LAYER
  2
DEFAULT_1
 70
0
 62
7
  6
CENTER
  0
LAYER
  2
DEFAULT_2
 70
0
 62
8
  6
HIDDEN
  0
LAYER
  2
DEFAULT_3
 70
0
 62
7
  6
PHANTOM
  0
ENDTAB
  0
TABLE
  2
STYLE
 70
1
  0
STYLE
  2
STANDARD
 70
0
 40
0.0
 41
0.8
 50
0.0
 71
0
 42
0.2
  3
txt
  4

  0
STYLE
  2
TEXTSTYLE_1
 70
0
 40
0.0
 41
0.8
 50
0.0
 71
0
 42
0.2
  3
gdt
  4

  0
STYLE
  2
TEXTSTYLE_2
 70
0
 40
0.0
 41
0.6
 50
0.0
 71
0
 42
0.2
  3
txt
  4

  0
STYLE
  2
TEXTSTYLE_3
 70
0
 40
0.0
 41
1.0
 50
0.0
 71
0
 42
0.2
  3
frutiger light.ttf
  4

  0
STYLE
  2
TEXTSTYLE_4
 70
0
 40
0.0
 41
1.0
 50
0.0
 71
0
 42
0.2
  3
ftr_____.ttf
  4

  0
STYLE
  2
TEXTSTYLE_5
 70
0
 40
0.0
 41
0.7
 50
0.0
 71
0
 42
0.2
  3
txt
  4

  0
STYLE
  2
TEXTSTYLE_6
 70
0
 40
0.0
 41
1.0
 50
0.0
 71
0
 42
0.2
  3
ftb_____.ttf
  4

  0
ENDTAB
  0
ENDSEC
  0
SECTION
  2
BLOCKS
  0
BLOCK
  8
0
 62
2
  6
CONTINUOUS
  2
SYMBOL_15_BL1
 70
64
 10
804.4079930916
 20
35.8092573885
  0
TEXT
  8
0
 62
7
  6
CONTINUOUS
 10
795.4662781001
 20
30.9020137655
  7
TEXTSTYLE_4
 40
1.0655737705
  1
The brand for plastic modular belts and chains
 41
1.0
 72
0
  0
LINE
  8
0
 62
7
  6
CONTINUOUS
 10
780.3860614807
 20
36.3830278803
 11
780.3860614807
 21
34.2518803393
  0
LINE
  8
0
 62
7
  6
CONTINUOUS
 10
780.6751239738
 20
31.2609490436
 11
780.6751239738
 21
31.3577401029
  0
LINE
  8
0
 62
7
  6
CONTINUOUS
 10
780.3860614807
 20
31.3254764164
 11
780.4438739824
 21
31.1318942979
  0
LINE
  8
0
 62
7
  6
CONTINUOUS
 10
781.7795041036
 20
34.1699131262
 11
781.7795041036
 21
36.3830278803
  0
LINE
  8
0
 62
7
  6
CONTINUOUS
 10
782.6985614255
 20
32.3256508311
 11
782.6985614255
 21
30.8092573885
  0
LINE
  8
0
 62
7
  6
CONTINUOUS
 10
782.9876239807
 20
30.8092573885
 11
782.9876239807
 21
31.5513222666
  0
LINE
  8
0
 62
7
  6
CONTINUOUS
 10
782.9876239807
 20
31.6803770123
 11
782.9876239807
 21
32.3256508311
  0
LINE
  8
0
 62
7
  6
CONTINUOUS
 10
780.4438739824
 20
31.5190585802
 11
780.3860614807
 21
31.3254764164
  0
LINE
  8
0
 62
7
  6
CONTINUOUS
 10
780.7907489669
 20
31.0996306115
 11
780.6751239738
 21
31.2609490436
  0
LINE
  8
0
 62
7
  6
CONTINUOUS
 10
781.8891865358
 20
31.6158496394
 11
781.9469989807
 21
31.5190585802
  0
LINE
  8
0
 62
7
  6
CONTINUOUS
 10
782.2360615358
 20
31.5190585802
 11
782.1782489255
 21
31.6481133259
  0
LINE
  8
0
 62
7
  6
CONTINUOUS
 10
783.6647500052
 20
36.3830278803
 11
783.6647500052
 21
34.5797491918
  0
LINE
  8
0
 62
7
  6
CONTINUOUS
 10
783.6647500052
 20
33.2682737819
 11
783.6647500052
 21
32.612536077
  0
LINE
  8
0
 62
7
  6
CONTINUOUS
 10
784.0282489807
 20
31.4545312073
 11
784.0282489807
 21
30.8092573885
  0
LINE
  8
0
 62
7
  6
CONTINUOUS
 10
784.3173113704
 20
30.8092573885
 11
784.3173113704
 21
31.4545312073
  0
LINE
  8
0
 62
7
  6
CONTINUOUS
 10
780.6751239738
 20
31.3577401029
 11
780.7329364807
 21
31.4867948937
  0
LINE
  8
0
 62
7
  6
CONTINUOUS
 10
780.4438739824
 20
31.1318942979
 11
780.5594989807
 21
31.0028395296
  0
LINE
  8
0
 62
7
  6
CONTINUOUS
 10
783.9704363704
 20
31.583585953
 11
784.0282489807
 21
31.4545312073
  0
LINE
  8
0
 62
7
  6
CONTINUOUS
 10
784.7798115909
 20
31.0996306115
 11
784.8376238704
 21
30.9705758432
  0
LINE
  8
0
 62
7
  6
CONTINUOUS
 10
784.3173113704
 20
31.4545312073
 11
784.2594990909
 21
31.6158496394
  0
LINE
  8
0
 62
7
  6
CONTINUOUS
 10
784.7798115909
 20
31.6481133259
 11
784.7798115909
 21
31.583585953
  0
LINE
  8
0
 62
7
  6
CONTINUOUS
 10
784.7798115909
 20
31.1964216708
 11
784.7798115909
 21
31.0996306115
  0
LINE
  8
0
 62
7
  6
CONTINUOUS
 10
785.0581926282
 20
32.612536077
 11
785.0581926282
 21
36.3830278803
  0
LINE
  8
0
 62
7
  6
CONTINUOUS
 10
785.0688739807
 20
31.0673669025
 11
785.0688739807
 21
31.1318942979
  0
LINE
  8
0
 62
7
  6
CONTINUOUS
 10
785.3860614807
 20
36.3830278803
 11
785.3860614807
 21
32.612536077
  0
LINE
  8
0
 62
7
  6
CONTINUOUS
 10
782.1782489255
 20
31.0028395296
 11
782.2360615358
 21
31.1318942979
  0
LINE
  8
0
 62
7
  6
CONTINUOUS
 10
786.5719992012
 20
30.9060484591
 11
786.5141862601
 21
31.0673669025
  0
LINE
  8
0
 62
7
  6
CONTINUOUS
 10
786.2251242012
 20
31.583585953
 11
786.2251242012
 21
31.4867948937
  0
LINE
  8
0
 62
7
  6
CONTINUOUS
 10
786.2251242012
 20
31.3577401029
 11
786.2251242012
 21
31.1641579843
  0
LINE
  8
0
 62
7
  6
CONTINUOUS
 10
786.5141862601
 20
31.0673669025
 11
786.5141862601
 21
31.583585953
  0
LINE
  8
0
 62
7
  6
CONTINUOUS
 10
786.7795041036
 20
32.612536077
 11
786.7795041036
 21
34.4158147655
  0
LINE
  8
0
 62
7
  6
CONTINUOUS
 10
786.7795041036
 20
35.7272901754
 11
786.7795041036
 21
36.3830278803
  0
LINE
  8
0
 62
7
  6
CONTINUOUS
 10
787.0923117012
 20
32.3256508311
 11
787.0923117012
 21
32.164332399
  0
LINE
  8
0
 62
7
  6
CONTINUOUS
 10
787.0923117012
 20
31.8416954444
 11
787.0923117012
 21
30.8092573885
  0
LINE
  8
0
 62
7
  6
CONTINUOUS
 10
787.3813737601
 20
30.8092573885
 11
787.3813737601
 21
31.8416954444
  0
LINE
  8
0
 62
7
  6
CONTINUOUS
 10
787.3813737601
 20
32.164332399
 11
787.3813737601
 21
32.3256508311
  0
LINE
  8
0
 62
7
  6
CONTINUOUS
 10
781.9469989807
 20
31.1318942979
 11
781.8891865358
 21
31.035103216
  0
LINE
  8
0
 62
7
  6
CONTINUOUS
 10
784.2594990909
 20
31.6158496394
 11
784.2016864807
 21
31.6803770123
  0
LINE
  8
0
 62
7
  6
CONTINUOUS
 10
785.1266865909
 20
31.0028395296
 11
785.0688739807
 21
31.0673669025
  0
LINE
  8
0
 62
7
  6
CONTINUOUS
 10
786.2829364807
 20
30.873784767
 11
786.3407487601
 21
30.8092573885
  0
LINE
  8
0
 62
7
  6
CONTINUOUS
 10
786.2251242012
 20
30.9705758432
 11
786.2829364807
 21
30.873784767
  0
LINE
  8
0
 62
7
  6
CONTINUOUS
 10
786.6298114807
 20
30.8092573885
 11
786.5719992012
 21
30.9060484591
  0
LINE
  8
0
 62
7
  6
CONTINUOUS
 10
786.5141862601
 20
31.583585953
 11
786.4563739807
 21
31.6803770123
  0
LINE
  8
0
 62
7
  6
CONTINUOUS
 10
787.8438739807
 20
31.8416954444
 11
787.8438739807
 21
30.8092573885
  0
LINE
  8
0
 62
7
  6
CONTINUOUS
 10
788.1329367012
 20
30.8092573885
 11
788.1329367012
 21
31.5513222666
  0
LINE
  8
0
 62
7
  6
CONTINUOUS
 10
788.1329367012
 20
31.6803770123
 11
788.1329367012
 21
31.8416954444
  0
LINE
  8
0
 62
7
  6
CONTINUOUS
 10
788.6647500052
 20
34.8256508311
 11
788.6647500052
 21
32.612536077
  0
LINE
  8
0
 62
7
  6
CONTINUOUS
 10
780.5594989807
 20
31.6481133259
 11
780.4438739824
 21
31.5190585802
  0
LINE
  8
0
 62
7
  6
CONTINUOUS
 10
780.7329364807
 20
31.4867948937
 11
780.7907489669
 21
31.5513222666
  0
LINE
  8
0
 62
7
  6
CONTINUOUS
 10
780.5594989807
 20
31.0028395296
 11
780.6751239738
 21
30.9383121455
  0
LINE
  8
0
 62
7
  6
CONTINUOUS
 10
780.9641864669
 20
31.0028395296
 11
780.7907489669
 21
31.0996306115
  0
LINE
  8
0
 62
7
  6
CONTINUOUS
 10
786.1673112601
 20
31.6481133259
 11
786.2251242012
 21
31.583585953
  0
LINE
  8
0
 62
7
  6
CONTINUOUS
 10
789.1157487601
 20
31.583585953
 11
789.1735617012
 21
31.4222675209
  0
LINE
  8
0
 62
7
  6
CONTINUOUS
 10
789.4626237601
 20
31.4222675209
 11
789.4048114807
 21
31.583585953
  0
LINE
  8
0
 62
7
  6
CONTINUOUS
 10
789.1735617012
 20
31.4222675209
 11
789.1735617012
 21
30.8092573885
  0
LINE
  8
0
 62
7
  6
CONTINUOUS
 10
789.4626237601
 20
30.8092573885
 11
789.4626237601
 21
31.4222675209
  0
LINE
  8
0
 62
7
  6
CONTINUOUS
 10
789.9251239807
 20
31.6481133259
 11
789.9251239807
 21
31.583585953
  0
LINE
  8
0
 62
7
  6
CONTINUOUS
 10
790.0581926282
 20
32.612536077
 11
790.0581926282
 21
34.743683618
  0
LINE
  8
0
 62
7
  6
CONTINUOUS
 10
790.3860614807
 20
36.3830278803
 11
790.3860614807
 21
32.612536077
  0
LINE
  8
0
 62
7
  6
CONTINUOUS
 10
785.0688739807
 20
31.1318942979
 11
785.1266865909
 21
31.2286853572
  0
LINE
  8
0
 62
7
  6
CONTINUOUS
 10
780.6751239738
 20
30.9383121455
 11
780.8485614944
 21
30.873784767
  0
LINE
  8
0
 62
7
  6
CONTINUOUS
 10
782.1782489255
 20
31.6481133259
 11
782.0048114255
 21
31.7449043851
  0
LINE
  8
0
 62
7
  6
CONTINUOUS
 10
784.8376238704
 20
30.9705758432
 11
785.0110613704
 21
30.873784767
  0
LINE
  8
0
 62
7
  6
CONTINUOUS
 10
783.8548114807
 20
31.6481133259
 11
783.9704363704
 21
31.583585953
  0
LINE
  8
0
 62
7
  6
CONTINUOUS
 10
784.2016864807
 20
31.6803770123
 11
784.0860615909
 21
31.7449043851
  0
LINE
  8
0
 62
7
  6
CONTINUOUS
 10
789.9251239807
 20
31.0673669025
 11
790.0407492012
 21
30.9383121455
  0
LINE
  8
0
 62
7
  6
CONTINUOUS
 10
790.2719989807
 20
31.0028395296
 11
790.2141867012
 21
31.0673669025
  0
LINE
  8
0
 62
7
  6
CONTINUOUS
 10
789.9251239807
 20
31.583585953
 11
790.0407492012
 21
31.4545312073
  0
LINE
  8
0
 62
7
  6
CONTINUOUS
 10
789.4048114807
 20
31.583585953
 11
789.3469992012
 21
31.6803770123
  0
LINE
  8
0
 62
7
  6
CONTINUOUS
 10
791.7751235396
 20
31.0028395296
 11
791.7751235396
 21
31.0673669025
  0
LINE
  8
0
 62
7
  6
CONTINUOUS
 10
791.7795041036
 20
32.612536077
 11
791.7795041036
 21
36.3830278803
  0
LINE
  8
0
 62
7
  6
CONTINUOUS
 10
784.8376238704
 20
31.7126406987
 11
784.7798115909
 21
31.6481133259
  0
LINE
  8
0
 62
7
  6
CONTINUOUS
 10
781.7157489531
 20
31.6803770123
 11
781.8891865358
 21
31.6158496394
  0
LINE
  8
0
 62
7
  6
CONTINUOUS
 10
786.4563739807
 20
31.6803770123
 11
786.3407487601
 21
31.7449043851
  0
LINE
  8
0
 62
7
  6
CONTINUOUS
 10
790.2719989807
 20
31.5190585802
 11
790.2141867012
 21
31.583585953
  0
LINE
  8
0
 62
7
  6
CONTINUOUS
 10
791.4282492012
 20
31.1318942979
 11
791.4860614807
 21
31.0673669025
  0
LINE
  8
0
 62
7
  6
CONTINUOUS
 10
791.7751235396
 20
31.0673669025
 11
791.6594989807
 21
31.1964216708
  0
LINE
  8
0
 62
7
  6
CONTINUOUS
 10
791.4282492012
 20
31.6481133259
 11
791.4860614807
 21
31.583585953
  0
LINE
  8
0
 62
7
  6
CONTINUOUS
 10
791.7751235396
 20
31.583585953
 11
791.6594989807
 21
31.7126406987
  0
LINE
  8
0
 62
7
  6
CONTINUOUS
 10
785.0688739807
 20
31.583585953
 11
785.1266865909
 21
31.6481133259
  0
LINE
  8
0
 62
7
  6
CONTINUOUS
 10
784.8954364807
 20
31.3254764164
 11
784.7798115909
 21
31.1964216708
  0
LINE
  8
0
 62
7
  6
CONTINUOUS
 10
786.2251242012
 20
31.1641579843
 11
786.1673112601
 21
31.0996306115
  0
LINE
  8
0
 62
7
  6
CONTINUOUS
 10
786.1673112601
 20
30.9060484591
 11
786.2251242012
 21
30.9705758432
  0
LINE
  8
0
 62
7
  6
CONTINUOUS
 10
785.0110613704
 20
30.873784767
 11
785.1266865909
 21
30.8415210777
  0
LINE
  8
0
 62
7
  6
CONTINUOUS
 10
782.0048114255
 20
31.7449043851
 11
781.7735614807
 21
31.809431758
  0
LINE
  8
0
 62
7
  6
CONTINUOUS
 10
785.3579363704
 20
30.9383121455
 11
785.1266865909
 21
31.0028395296
  0
LINE
  8
0
 62
7
  6
CONTINUOUS
 10
784.0860615909
 20
31.7449043851
 11
783.9126240909
 21
31.809431758
  0
LINE
  8
0
 62
7
  6
CONTINUOUS
 10
786.3407487601
 20
31.7449043851
 11
786.1673112601
 21
31.809431758
  0
LINE
  8
0
 62
7
  6
CONTINUOUS
 10
789.0001242012
 20
31.6481133259
 11
789.1157487601
 21
31.583585953
  0
LINE
  8
0
 62
7
  6
CONTINUOUS
 10
789.3469992012
 20
31.6803770123
 11
789.2313739807
 21
31.7449043851
  0
LINE
  8
0
 62
7
  6
CONTINUOUS
 10
780.8485614944
 20
30.873784767
 11
781.0219989944
 21
30.8415210777
  0
LINE
  8
0
 62
7
  6
CONTINUOUS
 10
781.3110615082
 20
30.9383121455
 11
780.9641864669
 21
31.0028395296
  0
LINE
  8
0
 62
7
  6
CONTINUOUS
 10
783.7391865909
 20
31.6803770123
 11
783.8548114807
 21
31.6481133259
  0
LINE
  8
0
 62
7
  6
CONTINUOUS
 10
786.0516867012
 20
31.6803770123
 11
786.1673112601
 21
31.6481133259
  0
LINE
  8
0
 62
7
  6
CONTINUOUS
 10
790.3876242012
 20
30.9705758432
 11
790.2719989807
 21
31.0028395296
  0
LINE
  8
0
 62
7
  6
CONTINUOUS
 10
788.8844989807
 20
31.6803770123
 11
789.0001242012
 21
31.6481133259
  0
LINE
  8
0
 62
7
  6
CONTINUOUS
 10
790.0407492012
 20
30.9383121455
 11
790.2141867012
 21
30.873784767
  0
LINE
  8
0
 62
7
  6
CONTINUOUS
 10
789.2313739807
 20
31.7449043851
 11
789.0579364807
 21
31.809431758
  0
LINE
  8
0
 62
7
  6
CONTINUOUS
 10
790.4454364807
 20
31.4545312073
 11
790.2719989807
 21
31.5190585802
  0
LINE
  8
0
 62
7
  6
CONTINUOUS
 10
791.2548117012
 20
31.1964216708
 11
791.4282492012
 21
31.1318942979
  0
LINE
  8
0
 62
7
  6
CONTINUOUS
 10
791.6594989807
 20
31.7126406987
 11
791.4860614807
 21
31.7771680715
  0
LINE
  8
0
 62
7
  6
CONTINUOUS
 10
790.0407492012
 20
31.4545312073
 11
790.2719989807
 21
31.3577401029
  0
LINE
  8
0
 62
7
  6
CONTINUOUS
 10
791.6594989807
 20
31.1964216708
 11
791.4282492012
 21
31.29321273
  0
LINE
  8
0
 62
7
  6
CONTINUOUS
 10
790.2141867012
 20
31.583585953
 11
790.2719989807
 21
31.6481133259
  0
LINE
  8
0
 62
7
  6
CONTINUOUS
 10
780.6751239738
 20
31.7126406987
 11
780.5594989807
 21
31.6481133259
  0
LINE
  8
0
 62
7
  6
CONTINUOUS
 10
780.7907489669
 20
31.5513222666
 11
780.9641864669
 21
31.6481133259
  0
LINE
  8
0
 62
7
  6
CONTINUOUS
 10
783.1032490358
 20
31.7449043851
 11
782.9876239807
 21
31.6803770123
  0
LINE
  8
0
 62
7
  6
CONTINUOUS
 10
782.9876239807
 20
31.5513222666
 11
783.1032490358
 21
31.6158496394
  0
LINE
  8
0
 62
7
  6
CONTINUOUS
 10
782.0048114255
 20
30.9060484591
 11
782.1782489255
 21
31.0028395296
  0
LINE
  8
0
 62
7
  6
CONTINUOUS
 10
781.0219989944
 20
30.8415210777
 11
781.3688739531
 21
30.8092573885
  0
LINE
  8
0
 62
7
  6
CONTINUOUS
 10
785.1266865909
 20
30.8415210777
 11
785.3579363704
 21
30.8092573885
  0
LINE
  8
0
 62
7
  6
CONTINUOUS
 10
783.5079364807
 20
31.7126406987
 11
783.7391865909
 21
31.6803770123
  0
LINE
  8
0
 62
7
  6
CONTINUOUS
 10
785.8204365909
 20
31.7126406987
 11
786.0516867012
 21
31.6803770123
  0
LINE
  8
0
 62
7
  6
CONTINUOUS
 10
790.2719989807
 20
31.3577401029
 11
791.2548117012
 21
31.1964216708
  0
LINE
  8
0
 62
7
  6
CONTINUOUS
 10
791.4282492012
 20
31.29321273
 11
790.4454364807
 21
31.4545312073
  0
LINE
  8
0
 62
7
  6
CONTINUOUS
 10
783.9126240909
 20
31.809431758
 11
783.7391865909
 21
31.8416954444
  0
LINE
  8
0
 62
7
  6
CONTINUOUS
 10
790.2141867012
 20
30.873784767
 11
790.3876242012
 21
30.8415210777
  0
LINE
  8
0
 62
7
  6
CONTINUOUS
 10
789.0579364807
 20
31.809431758
 11
788.8844989807
 21
31.8416954444
  0
LINE
  8
0
 62
7
  6
CONTINUOUS
 10
791.3126239807
 20
31.6803770123
 11
791.4282492012
 21
31.6481133259
  0
LINE
  8
0
 62
7
  6
CONTINUOUS
 10
791.4860614807
 20
31.0673669025
 11
791.4282492012
 21
31.0028395296
  0
LINE
  8
0
 62
7
  6
CONTINUOUS
 10
790.0407492012
 20
31.7449043851
 11
789.9251239807
 21
31.6481133259
  0
LINE
  8
0
 62
7
  6
CONTINUOUS
 10
784.9532490909
 20
31.7771680715
 11
784.8376238704
 21
31.7126406987
  0
LINE
  8
0
 62
7
  6
CONTINUOUS
 10
785.0110613704
 20
31.3900038345
 11
784.8954364807
 21
31.3254764164
  0
LINE
  8
0
 62
7
  6
CONTINUOUS
 10
785.1266865909
 20
31.2286853572
 11
785.2423114807
 21
31.29321273
  0
LINE
  8
0
 62
7
  6
CONTINUOUS
 10
782.6985614255
 20
30.8092573885
 11
782.9876239807
 21
30.8092573885
  0
LINE
  8
0
 62
7
  6
CONTINUOUS
 10
784.0282489807
 20
30.8092573885
 11
784.3173113704
 21
30.8092573885
  0
LINE
  8
0
 62
7
  6
CONTINUOUS
 10
785.3579363704
 20
30.8092573885
 11
785.7048113704
 21
30.8092573885
  0
LINE
  8
0
 62
7
  6
CONTINUOUS
 10
786.3407487601
 20
30.8092573885
 11
786.6298114807
 21
30.8092573885
  0
LINE
  8
0
 62
7
  6
CONTINUOUS
 10
787.0923117012
 20
30.8092573885
 11
787.3813737601
 21
30.8092573885
  0
LINE
  8
0
 62
7
  6
CONTINUOUS
 10
787.8438739807
 20
30.8092573885
 11
788.1329367012
 21
30.8092573885
  0
LINE
  8
0
 62
7
  6
CONTINUOUS
 10
789.1735617012
 20
30.8092573885
 11
789.4626237601
 21
30.8092573885
  0
LINE
  8
0
 62
7
  6
CONTINUOUS
 10
790.7344992012
 20
30.8092573885
 11
791.0813742012
 21
30.8092573885
  0
LINE
  8
0
 62
7
  6
CONTINUOUS
 10
791.0813742012
 20
30.9383121455
 11
790.7344992012
 21
30.9383121455
  0
LINE
  8
0
 62
7
  6
CONTINUOUS
 10
785.7048113704
 20
30.9383121455
 11
785.3579363704
 21
30.9383121455
  0
LINE
  8
0
 62
7
  6
CONTINUOUS
 10
790.2141867012
 20
31.0673669025
 11
789.9251239807
 21
31.0673669025
  0
LINE
  8
0
 62
7
  6
CONTINUOUS
 10
782.2360615358
 20
31.1318942979
 11
781.9469989807
 21
31.1318942979
  0
LINE
  8
0
 62
7
  6
CONTINUOUS
 10
781.3110615082
 20
31.7126406987
 11
781.7157489531
 21
31.6803770123
  0
LINE
  8
0
 62
7
  6
CONTINUOUS
 10
781.7735614807
 20
31.809431758
 11
781.3688739531
 21
31.8416954444
  0
LINE
  8
0
 62
7
  6
CONTINUOUS
 10
790.3876242012
 20
30.8415210777
 11
790.7344992012
 21
30.8092573885
  0
LINE
  8
0
 62
7
  6
CONTINUOUS
 10
790.7344992012
 20
30.9383121455
 11
790.3876242012
 21
30.9705758432
  0
LINE
  8
0
 62
7
  6
CONTINUOUS
 10
786.1673112601
 20
31.809431758
 11
785.8204365909
 21
31.8416954444
  0
LINE
  8
0
 62
7
  6
CONTINUOUS
 10
790.9657489807
 20
31.7126406987
 11
791.3126239807
 21
31.6803770123
  0
LINE
  8
0
 62
7
  6
CONTINUOUS
 10
791.3126239807
 20
31.809431758
 11
790.9657489807
 21
31.8416954444
  0
LINE
  8
0
 62
7
  6
CONTINUOUS
 10
788.6532492012
 20
31.7126406987
 11
788.8844989807
 21
31.6803770123
  0
LINE
  8
0
 62
7
  6
CONTINUOUS
 10
791.4860614807
 20
31.7771680715
 11
791.3126239807
 21
31.809431758
  0
LINE
  8
0
 62
7
  6
CONTINUOUS
 10
791.6594989807
 20
30.9060484591
 11
791.7751235396
 21
31.0028395296
  0
LINE
  8
0
 62
7
  6
CONTINUOUS
 10
786.1673112601
 20
31.0996306115
 11
785.9938737601
 21
31.0028395296
  0
LINE
  8
0
 62
7
  6
CONTINUOUS
 10
788.2485612601
 20
31.7449043851
 11
788.1329367012
 21
31.6803770123
  0
LINE
  8
0
 62
7
  6
CONTINUOUS
 10
788.1329367012
 20
31.5513222666
 11
788.2485612601
 21
31.6158496394
  0
LINE
  8
0
 62
7
  6
CONTINUOUS
 10
780.8485614944
 20
31.7771680715
 11
780.6751239738
 21
31.7126406987
  0
LINE
  8
0
 62
7
  6
CONTINUOUS
 10
783.2766863704
 20
31.809431758
 11
783.1032490358
 21
31.7449043851
  0
LINE
  8
0
 62
7
  6
CONTINUOUS
 10
783.1032490358
 20
31.6158496394
 11
783.2766863704
 21
31.6803770123
  0
LINE
  8
0
 62
7
  6
CONTINUOUS
 10
781.8891865358
 20
31.035103216
 11
781.7157489531
 21
30.9705758432
  0
LINE
  8
0
 62
7
  6
CONTINUOUS
 10
791.3126239807
 20
30.9705758432
 11
791.0813742012
 21
30.9383121455
  0
LINE
  8
0
 62
7
  6
CONTINUOUS
 10
785.7048113704
 20
30.8092573885
 11
785.9938737601
 21
30.8415210777
  0
LINE
  8
0
 62
7
  6
CONTINUOUS
 10
791.0813742012
 20
30.8092573885
 11
791.4282492012
 21
30.8415210777
  0
LINE
  8
0
 62
7
  6
CONTINUOUS
 10
781.3688739531
 20
30.8092573885
 11
781.7735614807
 21
30.8415210777
  0
LINE
  8
0
 62
7
  6
CONTINUOUS
 10
781.7157489531
 20
30.9705758432
 11
781.3110615082
 21
30.9383121455
  0
LINE
  8
0
 62
7
  6
CONTINUOUS
 10
785.5891864807
 20
31.3577401029
 11
786.2251242012
 21
31.3577401029
  0
LINE
  8
0
 62
7
  6
CONTINUOUS
 10
786.2251242012
 20
31.4867948937
 11
785.5891864807
 21
31.4867948937
  0
LINE
  8
0
 62
7
  6
CONTINUOUS
 10
781.9469989807
 20
31.5190585802
 11
782.2360615358
 21
31.5190585802
  0
LINE
  8
0
 62
7
  6
CONTINUOUS
 10
784.7798115909
 20
31.583585953
 11
785.0688739807
 21
31.583585953
  0
LINE
  8
0
 62
7
  6
CONTINUOUS
 10
791.4860614807
 20
31.583585953
 11
791.7751235396
 21
31.583585953
  0
LINE
  8
0
 62
7
  6
CONTINUOUS
 10
785.4735615909
 20
31.7126406987
 11
785.8204365909
 21
31.7126406987
  0
LINE
  8
0
 62
7
  6
CONTINUOUS
 10
790.6188739807
 20
31.7126406987
 11
790.9657489807
 21
31.7126406987
  0
LINE
  8
0
 62
7
  6
CONTINUOUS
 10
790.9657489807
 20
31.8416954444
 11
790.6188739807
 21
31.8416954444
  0
LINE
  8
0
 62
7
  6
CONTINUOUS
 10
788.8844989807
 20
31.8416954444
 11
788.6532492012
 21
31.8416954444
  0
LINE
  8
0
 62
7
  6
CONTINUOUS
 10
788.1329367012
 20
31.8416954444
 11
787.8438739807
 21
31.8416954444
  0
LINE
  8
0
 62
7
  6
CONTINUOUS
 10
787.3813737601
 20
31.8416954444
 11
787.0923117012
 21
31.8416954444
  0
LINE
  8
0
 62
7
  6
CONTINUOUS
 10
785.8204365909
 20
31.8416954444
 11
785.4735615909
 21
31.8416954444
  0
LINE
  8
0
 62
7
  6
CONTINUOUS
 10
783.7391865909
 20
31.8416954444
 11
783.5079364807
 21
31.8416954444
  0
LINE
  8
0
 62
7
  6
CONTINUOUS
 10
787.0923117012
 20
32.164332399
 11
787.3813737601
 21
32.164332399
  0
LINE
  8
0
 62
7
  6
CONTINUOUS
 10
787.3813737601
 20
32.3256508311
 11
787.0923117012
 21
32.3256508311
  0
LINE
  8
0
 62
7
  6
CONTINUOUS
 10
782.9876239807
 20
32.3256508311
 11
782.6985614255
 21
32.3256508311
  0
LINE
  8
0
 62
7
  6
CONTINUOUS
 10
782.025405743
 20
32.612536077
 11
782.4379770916
 21
32.612536077
  0
LINE
  8
0
 62
7
  6
CONTINUOUS
 10
783.6647500052
 20
32.612536077
 11
785.0581926282
 21
32.612536077
  0
LINE
  8
0
 62
7
  6
CONTINUOUS
 10
785.3860614807
 20
32.612536077
 11
786.7795041036
 21
32.612536077
  0
LINE
  8
0
 62
7
  6
CONTINUOUS
 10
788.6647500052
 20
32.612536077
 11
790.0581926282
 21
32.612536077
  0
LINE
  8
0
 62
7
  6
CONTINUOUS
 10
790.3860614807
 20
32.612536077
 11
791.7795041036
 21
32.612536077
  0
LINE
  8
0
 62
7
  6
CONTINUOUS
 10
788.4219987601
 20
31.809431758
 11
788.2485612601
 21
31.7449043851
  0
LINE
  8
0
 62
7
  6
CONTINUOUS
 10
785.9938737601
 20
30.8415210777
 11
786.1673112601
 21
30.9060484591
  0
LINE
  8
0
 62
7
  6
CONTINUOUS
 10
791.4282492012
 20
30.8415210777
 11
791.6594989807
 21
30.9060484591
  0
LINE
  8
0
 62
7
  6
CONTINUOUS
 10
791.4282492012
 20
31.0028395296
 11
791.3126239807
 21
30.9705758432
  0
LINE
  8
0
 62
7
  6
CONTINUOUS
 10
790.3876242012
 20
31.6803770123
 11
790.6188739807
 21
31.7126406987
  0
LINE
  8
0
 62
7
  6
CONTINUOUS
 10
788.4219987601
 20
31.6803770123
 11
788.6532492012
 21
31.7126406987
  0
LINE
  8
0
 62
7
  6
CONTINUOUS
 10
785.3579363704
 20
31.3254764164
 11
785.5891864807
 21
31.3577401029
  0
LINE
  8
0
 62
7
  6
CONTINUOUS
 10
788.6532492012
 20
31.8416954444
 11
788.4219987601
 21
31.809431758
  0
LINE
  8
0
 62
7
  6
CONTINUOUS
 10
785.2423114807
 20
31.6803770123
 11
785.4735615909
 21
31.7126406987
  0
LINE
  8
0
 62
7
  6
CONTINUOUS
 10
790.6188739807
 20
31.8416954444
 11
790.2719989807
 21
31.809431758
  0
LINE
  8
0
 62
7
  6
CONTINUOUS
 10
785.5891864807
 20
31.4867948937
 11
785.2423114807
 21
31.4545312073
  0
LINE
  8
0
 62
7
  6
CONTINUOUS
 10
781.3688739531
 20
31.8416954444
 11
781.0219989944
 21
31.809431758
  0
LINE
  8
0
 62
7
  6
CONTINUOUS
 10
785.4735615909
 20
31.8416954444
 11
785.0688739807
 21
31.809431758
  0
LINE
  8
0
 62
7
  6
CONTINUOUS
 10
782.8450778741
 20
33.7600770606
 11
782.1893401692
 21
33.7600770606
  0
LINE
  8
0
 62
7
  6
CONTINUOUS
 10
788.2485612601
 20
31.6158496394
 11
788.4219987601
 21
31.6803770123
  0
LINE
  8
0
 62
7
  6
CONTINUOUS
 10
790.2719989807
 20
31.6481133259
 11
790.3876242012
 21
31.6803770123
  0
LINE
  8
0
 62
7
  6
CONTINUOUS
 10
790.2719989807
 20
31.809431758
 11
790.0407492012
 21
31.7449043851
  0
LINE
  8
0
 62
7
  6
CONTINUOUS
 10
785.9938737601
 20
31.0028395296
 11
785.7048113704
 21
30.9383121455
  0
LINE
  8
0
 62
7
  6
CONTINUOUS
 10
783.2766863704
 20
31.6803770123
 11
783.5079364807
 21
31.7126406987
  0
LINE
  8
0
 62
7
  6
CONTINUOUS
 10
783.5079364807
 20
31.8416954444
 11
783.2766863704
 21
31.809431758
  0
LINE
  8
0
 62
7
  6
CONTINUOUS
 10
781.0798114807
 20
31.6803770123
 11
781.3110615082
 21
31.7126406987
  0
LINE
  8
0
 62
7
  6
CONTINUOUS
 10
787.5991762348
 20
35.2354868967
 11
788.2549139397
 21
35.2354868967
  0
LINE
  8
0
 62
7
  6
CONTINUOUS
 10
785.2423114807
 20
31.29321273
 11
785.3579363704
 21
31.3254764164
  0
LINE
  8
0
 62
7
  6
CONTINUOUS
 10
785.2423114807
 20
31.4545312073
 11
785.0110613704
 21
31.3900038345
  0
LINE
  8
0
 62
7
  6
CONTINUOUS
 10
785.1266865909
 20
31.6481133259
 11
785.2423114807
 21
31.6803770123
  0
LINE
  8
0
 62
7
  6
CONTINUOUS
 10
781.7735614807
 20
30.8415210777
 11
782.0048114255
 21
30.9060484591
  0
LINE
  8
0
 62
7
  6
CONTINUOUS
 10
785.0688739807
 20
31.809431758
 11
784.9532490909
 21
31.7771680715
  0
LINE
  8
0
 62
7
  6
CONTINUOUS
 10
781.0219989944
 20
31.809431758
 11
780.8485614944
 21
31.7771680715
  0
LINE
  8
0
 62
7
  6
CONTINUOUS
 10
791.7795041036
 20
36.3830278803
 11
790.3860614807
 21
36.3830278803
  0
LINE
  8
0
 62
7
  6
CONTINUOUS
 10
788.4188483659
 20
36.3830278803
 11
788.0062770173
 21
36.3830278803
  0
LINE
  8
0
 62
7
  6
CONTINUOUS
 10
786.7795041036
 20
36.3830278803
 11
785.3860614807
 21
36.3830278803
  0
LINE
  8
0
 62
7
  6
CONTINUOUS
 10
785.0581926282
 20
36.3830278803
 11
783.6647500052
 21
36.3830278803
  0
LINE
  8
0
 62
7
  6
CONTINUOUS
 10
781.7795041036
 20
36.3830278803
 11
780.3860614807
 21
36.3830278803
  0
LINE
  8
0
 62
7
  6
CONTINUOUS
 10
780.9641864669
 20
31.6481133259
 11
781.0798114807
 21
31.6803770123
  0
CIRCLE
  8
0
 62
7
  6
CONTINUOUS
 10
791.0827827921
 20
38.7190934541
 40
2.0901639344
  0
ARC
  8
0
 62
7
  6
CONTINUOUS
 10
782.025405743
 20
34.2518803393
 40
1.6393442623
 50
180.0
 51
270.0
  0
ARC
  8
0
 62
7
  6
CONTINUOUS
 10
788.4188483659
 20
34.743683618
 40
1.6393442623
 50
0.0
 51
90.0
  0
ARC
  8
0
 62
7
  6
CONTINUOUS
 10
782.4379770916
 20
34.0879459131
 40
1.4754098361
 50
270.0
 51
326.2510114041
  0
ARC
  8
0
 62
7
  6
CONTINUOUS
 10
788.0062770173
 20
34.9076180442
 40
1.4754098361
 50
90.0
 51
146.2510114041
  0
ARC
  8
0
 62
7
  6
CONTINUOUS
 10
782.8450778741
 20
34.5797491918
 40
0.8196721311
 50
270.0
 51
360.0
  0
ARC
  8
0
 62
7
  6
CONTINUOUS
 10
787.5991762348
 20
34.4158147655
 40
0.8196721311
 50
90.0
 51
180.0
  0
ARC
  8
0
 62
7
  6
CONTINUOUS
 10
782.1893401692
 20
34.1699131262
 40
0.4098360656
 50
180.0
 51
270.0
  0
ARC
  8
0
 62
7
  6
CONTINUOUS
 10
788.2549139397
 20
34.8256508311
 40
0.4098360656
 50
0.0
 51
90.0
  0
SOLID
  8
0
 62
7
  6
CONTINUOUS
 10
787.0923117012
 20
32.1643327593
 11
787.0923117012
 21
32.3256512429
 12
787.3813737601
 22
32.1643327593
 13
787.3813737601
 23
32.3256512429
  0
SOLID
  8
0
 62
7
  6
CONTINUOUS
 10
781.3688739531
 20
31.841695792
 11
781.7735614807
 21
31.8094316148
 12
781.0219989944
 22
31.8094316148
 13
781.0219989944
 23
31.8094316148
  0
SOLID
  8
0
 62
7
  6
CONTINUOUS
 10
780.8485614944
 20
31.7771687019
 11
781.0219989944
 21
31.8094316148
 12
781.7735614807
 22
31.8094316148
 13
781.7735614807
 23
31.8094316148
  0
SOLID
  8
0
 62
7
  6
CONTINUOUS
 10
781.7735614807
 20
31.8094316148
 11
782.0048114255
 21
31.7449043986
 12
780.8485614944
 22
31.7771687019
 13
780.8485614944
 23
31.7771687019
  0
SOLID
  8
0
 62
7
  6
CONTINUOUS
 10
780.6751239738
 20
31.712640202
 11
780.8485614944
 21
31.7771687019
 12
782.0048114255
 22
31.7449043986
 13
782.0048114255
 23
31.7449043986
  0
SOLID
  8
0
 62
7
  6
CONTINUOUS
 10
780.6751239738
 20
31.712640202
 11
782.0048114255
 21
31.7449043986
 12
781.3110615082
 22
31.712640202
 13
781.3110615082
 23
31.712640202
  0
SOLID
  8
0
 62
7
  6
CONTINUOUS
 10
781.3110615082
 20
31.712640202
 11
782.0048114255
 21
31.7449043986
 12
781.7157489531
 22
31.6803773084
 13
781.7157489531
 23
31.6803773084
  0
SOLID
  8
0
 62
7
  6
CONTINUOUS
 10
782.0048114255
 20
31.7449043986
 11
782.1782489255
 21
31.6481130052
 12
781.7157489531
 22
31.6803773084
 13
781.7157489531
 23
31.6803773084
  0
SOLID
  8
0
 62
7
  6
CONTINUOUS
 10
781.8891865358
 20
31.6158502183
 11
781.7157489531
 21
31.6803773084
 12
782.1782489255
 22
31.6481130052
 13
782.1782489255
 23
31.6481130052
  0
SOLID
  8
0
 62
7
  6
CONTINUOUS
 10
781.8891865358
 20
31.6158502183
 11
782.1782489255
 21
31.6481130052
 12
781.9469989807
 22
31.5190586669
 13
781.9469989807
 23
31.5190586669
  0
SOLID
  8
0
 62
7
  6
CONTINUOUS
 10
782.1782489255
 20
31.6481130052
 11
782.2360615358
 21
31.5190586669
 12
781.9469989807
 22
31.5190586669
 13
781.9469989807
 23
31.5190586669
  0
SOLID
  8
0
 62
7
  6
CONTINUOUS
 10
783.2766863704
 20
31.8094307377
 11
783.5079364807
 21
31.841695041
 12
783.7391865909
 22
31.841695041
 13
783.7391865909
 23
31.841695041
  0
SOLID
  8
0
 62
7
  6
CONTINUOUS
 10
783.7391865909
 20
31.841695041
 11
783.9126240909
 21
31.8094307377
 12
783.2766863704
 22
31.8094307377
 13
783.2766863704
 23
31.8094307377
  0
SOLID
  8
0
 62
7
  6
CONTINUOUS
 10
783.1032490358
 20
31.7449036475
 11
783.2766863704
 21
31.8094307377
 12
783.9126240909
 22
31.8094307377
 13
783.9126240909
 23
31.8094307377
  0
SOLID
  8
0
 62
7
  6
CONTINUOUS
 10
783.9126240909
 20
31.8094307377
 11
784.0860615909
 21
31.7449036475
 12
783.1032490358
 22
31.7449036475
 13
783.1032490358
 23
31.7449036475
  0
SOLID
  8
0
 62
7
  6
CONTINUOUS
 10
784.0860615909
 20
31.7449036475
 11
783.5079364807
 21
31.7126400953
 12
783.1032490358
 22
31.7449036475
 13
783.1032490358
 23
31.7449036475
  0
SOLID
  8
0
 62
7
  6
CONTINUOUS
 10
782.9876239807
 20
31.6803765574
 11
783.1032490358
 21
31.7449036475
 12
783.5079364807
 22
31.7126400953
 13
783.5079364807
 23
31.7126400953
  0
SOLID
  8
0
 62
7
  6
CONTINUOUS
 10
783.5079364807
 20
31.7126400953
 11
783.2766863704
 21
31.6803765574
 12
782.9876239807
 22
31.6803765574
 13
782.9876239807
 23
31.6803765574
  0
SOLID
  8
0
 62
7
  6
CONTINUOUS
 10
783.5079364807
 20
31.7126400953
 11
784.0860615909
 21
31.7449036475
 12
783.7391865909
 22
31.6803765574
 13
783.7391865909
 23
31.6803765574
  0
SOLID
  8
0
 62
7
  6
CONTINUOUS
 10
784.0860615909
 20
31.7449036475
 11
784.2016864807
 21
31.6803765574
 12
783.7391865909
 22
31.6803765574
 13
783.7391865909
 23
31.6803765574
  0
SOLID
  8
0
 62
7
  6
CONTINUOUS
 10
783.8548114807
 20
31.6481130052
 11
783.7391865909
 21
31.6803765574
 12
784.2016864807
 22
31.6803765574
 13
784.2016864807
 23
31.6803765574
  0
SOLID
  8
0
 62
7
  6
CONTINUOUS
 10
784.2016864807
 20
31.6803765574
 11
784.2594990909
 21
31.6158494672
 12
783.8548114807
 22
31.6481130052
 13
783.8548114807
 23
31.6481130052
  0
SOLID
  8
0
 62
7
  6
CONTINUOUS
 10
783.9704363704
 20
31.583585915
 11
783.8548114807
 21
31.6481130052
 12
784.2594990909
 22
31.6158494672
 13
784.2594990909
 23
31.6158494672
  0
SOLID
  8
0
 62
7
  6
CONTINUOUS
 10
783.9704363704
 20
31.583585915
 11
784.2594990909
 21
31.6158494672
 12
784.0282489807
 22
31.4545309836
 13
784.0282489807
 23
31.4545309836
  0
SOLID
  8
0
 62
7
  6
CONTINUOUS
 10
784.2594990909
 20
31.6158494672
 11
784.3173113704
 21
31.4545309836
 12
784.0282489807
 22
31.4545309836
 13
784.0282489807
 23
31.4545309836
  0
SOLID
  8
0
 62
7
  6
CONTINUOUS
 10
783.2766863704
 20
31.6803765574
 11
783.1032490358
 21
31.6158494672
 12
782.9876239807
 22
31.6803765574
 13
782.9876239807
 23
31.6803765574
  0
SOLID
  8
0
 62
7
  6
CONTINUOUS
 10
783.1032490358
 20
31.6158494672
 11
782.9876239807
 21
31.5513216117
 12
782.9876239807
 22
31.6803765574
 13
782.9876239807
 23
31.6803765574
  0
SOLID
  8
0
 62
7
  6
CONTINUOUS
 10
782.9876239807
 20
31.5513216117
 11
782.6985614255
 21
30.8092570492
 12
782.9876239807
 22
31.6803765574
 13
782.9876239807
 23
31.6803765574
  0
SOLID
  8
0
 62
7
  6
CONTINUOUS
 10
782.9876239807
 20
31.6803765574
 11
782.6985614255
 21
30.8092570492
 12
782.9876239807
 22
32.3256504918
 13
782.9876239807
 23
32.3256504918
  0
SOLID
  8
0
 62
7
  6
CONTINUOUS
 10
782.6985614255
 20
30.8092570492
 11
782.6985614255
 21
32.3256504918
 12
782.9876239807
 22
32.3256504918
 13
782.9876239807
 23
32.3256504918
  0
SOLID
  8
0
 62
7
  6
CONTINUOUS
 10
782.9876239807
 20
31.5513216117
 11
782.9876239807
 21
30.8092570492
 12
782.6985614255
 22
30.8092570492
 13
782.6985614255
 23
30.8092570492
  0
SOLID
  8
0
 62
7
  6
CONTINUOUS
 10
784.0282489807
 20
30.8092570492
 11
784.0282489807
 21
31.4545309836
 12
784.3173113704
 22
31.4545309836
 13
784.3173113704
 23
31.4545309836
  0
SOLID
  8
0
 62
7
  6
CONTINUOUS
 10
784.3173113704
 20
31.4545309836
 11
784.3173113704
 21
30.8092570492
 12
784.0282489807
 22
30.8092570492
 13
784.0282489807
 23
30.8092570492
  0
SOLID
  8
0
 62
7
  6
CONTINUOUS
 10
785.0688739807
 20
31.809431823
 11
785.4735615909
 21
31.8416958158
 12
785.8204365909
 22
31.8416958158
 13
785.8204365909
 23
31.8416958158
  0
SOLID
  8
0
 62
7
  6
CONTINUOUS
 10
785.8204365909
 20
31.8416958158
 11
786.1673112601
 21
31.809431823
 12
785.0688739807
 22
31.809431823
 13
785.0688739807
 23
31.809431823
  0
SOLID
  8
0
 62
7
  6
CONTINUOUS
 10
784.9532490909
 20
31.7771687019
 11
785.0688739807
 21
31.809431823
 12
786.1673112601
 22
31.809431823
 13
786.1673112601
 23
31.809431823
  0
SOLID
  8
0
 62
7
  6
CONTINUOUS
 10
786.1673112601
 20
31.809431823
 11
786.3407487601
 21
31.7449043986
 12
784.9532490909
 22
31.7771687019
 13
784.9532490909
 23
31.7771687019
  0
SOLID
  8
0
 62
7
  6
CONTINUOUS
 10
784.8376238704
 20
31.7126398448
 11
784.9532490909
 21
31.7771687019
 12
786.3407487601
 22
31.7449043986
 13
786.3407487601
 23
31.7449043986
  0
SOLID
  8
0
 62
7
  6
CONTINUOUS
 10
784.8376238704
 20
31.7126398448
 11
786.3407487601
 21
31.7449043986
 12
785.4735615909
 22
31.7126398448
 13
785.4735615909
 23
31.7126398448
  0
SOLID
  8
0
 62
7
  6
CONTINUOUS
 10
785.4735615909
 20
31.7126398448
 11
786.3407487601
 21
31.7449043986
 12
785.8204365909
 22
31.7126398448
 13
785.8204365909
 23
31.7126398448
  0
SOLID
  8
0
 62
7
  6
CONTINUOUS
 10
785.8204365909
 20
31.7126398448
 11
786.3407487601
 21
31.7449043986
 12
786.0516867012
 22
31.6803774007
 13
786.0516867012
 23
31.6803774007
  0
SOLID
  8
0
 62
7
  6
CONTINUOUS
 10
786.3407487601
 20
31.7449043986
 11
786.4563739807
 21
31.6803774007
 12
786.0516867012
 22
31.6803774007
 13
786.0516867012
 23
31.6803774007
  0
SOLID
  8
0
 62
7
  6
CONTINUOUS
 10
784.7798115909
 20
31.6481126336
 11
784.8376238704
 21
31.7126398448
 12
785.4735615909
 22
31.7126398448
 13
785.4735615909
 23
31.7126398448
  0
SOLID
  8
0
 62
7
  6
CONTINUOUS
 10
786.1673112601
 20
31.6481126336
 11
786.0516867012
 21
31.6803774007
 12
786.4563739807
 22
31.6803774007
 13
786.4563739807
 23
31.6803774007
  0
SOLID
  8
0
 62
7
  6
CONTINUOUS
 10
786.1673112601
 20
31.6481126336
 11
786.4563739807
 21
31.6803774007
 12
786.2251242012
 22
31.5835861968
 13
786.2251242012
 23
31.5835861968
  0
SOLID
  8
0
 62
7
  6
CONTINUOUS
 10
786.4563739807
 20
31.6803774007
 11
786.5141862601
 21
31.5835861968
 12
786.2251242012
 22
31.5835861968
 13
786.2251242012
 23
31.5835861968
  0
SOLID
  8
0
 62
7
  6
CONTINUOUS
 10
786.2251242012
 20
31.4867945216
 11
786.2251242012
 21
31.5835861968
 12
786.5141862601
 22
31.5835861968
 13
786.5141862601
 23
31.5835861968
  0
SOLID
  8
0
 62
7
  6
CONTINUOUS
 10
786.2251242012
 20
31.4867945216
 11
786.5141862601
 21
31.5835861968
 12
786.2251242012
 22
31.3577403412
 13
786.2251242012
 23
31.3577403412
  0
SOLID
  8
0
 62
7
  6
CONTINUOUS
 10
786.2251242012
 20
31.3577403412
 11
786.5141862601
 21
31.5835861968
 12
786.2251242012
 22
31.1641579843
 13
786.2251242012
 23
31.1641579843
  0
SOLID
  8
0
 62
7
  6
CONTINUOUS
 10
786.5141862601
 20
31.5835861968
 11
786.5141862601
 21
31.0673661609
 12
786.2251242012
 22
31.1641579843
 13
786.2251242012
 23
31.1641579843
  0
SOLID
  8
0
 62
7
  6
CONTINUOUS
 10
788.4219987601
 20
31.8094310465
 11
788.6532492012
 21
31.8416957661
 12
788.8844989807
 22
31.8416957661
 13
788.8844989807
 23
31.8416957661
  0
SOLID
  8
0
 62
7
  6
CONTINUOUS
 10
788.8844989807
 20
31.8416957661
 11
789.0579364807
 21
31.8094310465
 12
788.4219987601
 22
31.8094310465
 13
788.4219987601
 23
31.8094310465
  0
SOLID
  8
0
 62
7
  6
CONTINUOUS
 10
788.2485612601
 20
31.7449047044
 11
788.4219987601
 21
31.8094310465
 12
789.0579364807
 22
31.8094310465
 13
789.0579364807
 23
31.8094310465
  0
SOLID
  8
0
 62
7
  6
CONTINUOUS
 10
789.0579364807
 20
31.8094310465
 11
789.2313739807
 21
31.7449047044
 12
788.2485612601
 22
31.7449047044
 13
788.2485612601
 23
31.7449047044
  0
SOLID
  8
0
 62
7
  6
CONTINUOUS
 10
789.2313739807
 20
31.7449047044
 11
788.6532492012
 21
31.7126400953
 12
788.2485612601
 22
31.7449047044
 13
788.2485612601
 23
31.7449047044
  0
SOLID
  8
0
 62
7
  6
CONTINUOUS
 10
788.1329367012
 20
31.6803773299
 11
788.2485612601
 21
31.7449047044
 12
788.6532492012
 22
31.7126400953
 13
788.6532492012
 23
31.7126400953
  0
SOLID
  8
0
 62
7
  6
CONTINUOUS
 10
788.6532492012
 20
31.7126400953
 11
788.4219987601
 21
31.6803773299
 12
788.1329367012
 22
31.6803773299
 13
788.1329367012
 23
31.6803773299
  0
SOLID
  8
0
 62
7
  6
CONTINUOUS
 10
788.6532492012
 20
31.7126400953
 11
789.2313739807
 21
31.7449047044
 12
788.8844989807
 22
31.6803773299
 13
788.8844989807
 23
31.6803773299
  0
SOLID
  8
0
 62
7
  6
CONTINUOUS
 10
789.2313739807
 20
31.7449047044
 11
789.3469992012
 21
31.6803773299
 12
788.8844989807
 22
31.6803773299
 13
788.8844989807
 23
31.6803773299
  0
SOLID
  8
0
 62
7
  6
CONTINUOUS
 10
789.0001242012
 20
31.6481130052
 11
788.8844989807
 21
31.6803773299
 12
789.3469992012
 22
31.6803773299
 13
789.3469992012
 23
31.6803773299
  0
SOLID
  8
0
 62
7
  6
CONTINUOUS
 10
789.0001242012
 20
31.6481130052
 11
789.3469992012
 21
31.6803773299
 12
789.1157487601
 22
31.5835862682
 13
789.1157487601
 23
31.5835862682
  0
SOLID
  8
0
 62
7
  6
CONTINUOUS
 10
789.3469992012
 20
31.6803773299
 11
789.4048114807
 21
31.5835862682
 12
789.1157487601
 22
31.5835862682
 13
789.1157487601
 23
31.5835862682
  0
SOLID
  8
0
 62
7
  6
CONTINUOUS
 10
789.1735617012
 20
31.422267832
 11
789.1157487601
 21
31.5835862682
 12
789.4048114807
 22
31.5835862682
 13
789.4048114807
 23
31.5835862682
  0
SOLID
  8
0
 62
7
  6
CONTINUOUS
 10
789.4048114807
 20
31.5835862682
 11
789.4626237601
 21
31.422267832
 12
789.1735617012
 22
31.422267832
 13
789.1735617012
 23
31.422267832
  0
SOLID
  8
0
 62
7
  6
CONTINUOUS
 10
788.4219987601
 20
31.6803773299
 11
788.2485612601
 21
31.6158502183
 12
788.1329367012
 22
31.6803773299
 13
788.1329367012
 23
31.6803773299
  0
SOLID
  8
0
 62
7
  6
CONTINUOUS
 10
788.2485612601
 20
31.6158502183
 11
788.1329367012
 21
31.5513216117
 12
788.1329367012
 22
31.6803773299
 13
788.1329367012
 23
31.6803773299
  0
SOLID
  8
0
 62
7
  6
CONTINUOUS
 10
788.1329367012
 20
31.5513216117
 11
787.8438739807
 21
30.8092577743
 12
788.1329367012
 22
31.6803773299
 13
788.1329367012
 23
31.6803773299
  0
SOLID
  8
0
 62
7
  6
CONTINUOUS
 10
788.1329367012
 20
31.6803773299
 11
787.8438739807
 21
30.8092577743
 12
788.1329367012
 22
31.8416957661
 13
788.1329367012
 23
31.8416957661
  0
SOLID
  8
0
 62
7
  6
CONTINUOUS
 10
787.8438739807
 20
30.8092577743
 11
787.8438739807
 21
31.8416957661
 12
788.1329367012
 22
31.8416957661
 13
788.1329367012
 23
31.8416957661
  0
SOLID
  8
0
 62
7
  6
CONTINUOUS
 10
788.1329367012
 20
31.5513216117
 11
788.1329367012
 21
30.8092577743
 12
787.8438739807
 22
30.8092577743
 13
787.8438739807
 23
30.8092577743
  0
SOLID
  8
0
 62
7
  6
CONTINUOUS
 10
789.1735617012
 20
30.8092577743
 11
789.1735617012
 21
31.422267832
 12
789.4626237601
 22
31.422267832
 13
789.4626237601
 23
31.422267832
  0
SOLID
  8
0
 62
7
  6
CONTINUOUS
 10
789.4626237601
 20
31.422267832
 11
789.4626237601
 21
30.8092577743
 12
789.1735617012
 22
30.8092577743
 13
789.1735617012
 23
30.8092577743
  0
SOLID
  8
0
 62
7
  6
CONTINUOUS
 10
790.2719989807
 20
31.8094314924
 11
790.6188739807
 21
31.8416958387
 12
790.9657489807
 22
31.8416958387
 13
790.9657489807
 23
31.8416958387
  0
SOLID
  8
0
 62
7
  6
CONTINUOUS
 10
790.9657489807
 20
31.8416958387
 11
791.3126239807
 21
31.8094314924
 12
790.2719989807
 22
31.8094314924
 13
790.2719989807
 23
31.8094314924
  0
SOLID
  8
0
 62
7
  6
CONTINUOUS
 10
790.0407492012
 20
31.7449043986
 11
790.2719989807
 21
31.8094314924
 12
791.3126239807
 22
31.8094314924
 13
791.3126239807
 23
31.8094314924
  0
SOLID
  8
0
 62
7
  6
CONTINUOUS
 10
790.0407492012
 20
31.7449043986
 11
791.3126239807
 21
31.8094314888
 12
791.4860614807
 22
31.7771687019
 13
791.4860614807
 23
31.7771687019
  0
SOLID
  8
0
 62
7
  6
CONTINUOUS
 10
790.0407492012
 20
31.7449043986
 11
791.4860614807
 21
31.7771687019
 12
790.6188739807
 22
31.7126401399
 13
790.6188739807
 23
31.7126401399
  0
SOLID
  8
0
 62
7
  6
CONTINUOUS
 10
790.6188739807
 20
31.7126401399
 11
791.4860614807
 21
31.7771687019
 12
790.9657489807
 22
31.7126401399
 13
790.9657489807
 23
31.7126401399
  0
SOLID
  8
0
 62
7
  6
CONTINUOUS
 10
791.4860614807
 20
31.7771687019
 11
791.6594989807
 21
31.7126401399
 12
790.9657489807
 22
31.7126401399
 13
790.9657489807
 23
31.7126401399
  0
SOLID
  8
0
 62
7
  6
CONTINUOUS
 10
791.3126239807
 20
31.6803773084
 11
790.9657489807
 21
31.7126401399
 12
791.6594989807
 22
31.7126401399
 13
791.6594989807
 23
31.7126401399
  0
SOLID
  8
0
 62
7
  6
CONTINUOUS
 10
789.9251239807
 20
31.6481128977
 11
790.0407492012
 21
31.7449043986
 12
790.6188739807
 22
31.7126401399
 13
790.6188739807
 23
31.7126401399
  0
SOLID
  8
0
 62
7
  6
CONTINUOUS
 10
791.3126239807
 20
31.6803773084
 11
791.6594989807
 21
31.7126401399
 12
791.4282492012
 22
31.6481128977
 13
791.4282492012
 23
31.6481128977
  0
SOLID
  8
0
 62
7
  6
CONTINUOUS
 10
791.4282492012
 20
31.6481128977
 11
791.6594989807
 21
31.7126401399
 12
791.4860614807
 22
31.5835858812
 13
791.4860614807
 23
31.5835858812
  0
SOLID
  8
0
 62
7
  6
CONTINUOUS
 10
791.6594989807
 20
31.7126401399
 11
791.7751235396
 21
31.5835858812
 12
791.4860614807
 22
31.5835858812
 13
791.4860614807
 23
31.5835858812
  0
SOLID
  8
0
 62
7
  6
CONTINUOUS
 10
781.0798114807
 20
31.6803773084
 11
780.5594989807
 21
31.6481129264
 12
781.3110615082
 22
31.7126401456
 13
781.3110615082
 23
31.7126401456
  0
SOLID
  8
0
 62
7
  6
CONTINUOUS
 10
780.5594989807
 20
31.6481129264
 11
780.6751239738
 21
31.7126401456
 12
781.3110615082
 22
31.7126401456
 13
781.3110615082
 23
31.7126401456
  0
SOLID
  8
0
 62
7
  6
CONTINUOUS
 10
781.0798114807
 20
31.6803773084
 11
780.9641864669
 21
31.6481129264
 12
780.5594989807
 22
31.6481129264
 13
780.5594989807
 23
31.6481129264
  0
SOLID
  8
0
 62
7
  6
CONTINUOUS
 10
780.4438739824
 20
31.5190588248
 11
780.5594989807
 21
31.6481129264
 12
780.9641864669
 22
31.6481129264
 13
780.9641864669
 23
31.6481129264
  0
SOLID
  8
0
 62
7
  6
CONTINUOUS
 10
784.7798115909
 20
31.6481130555
 11
785.4735615909
 21
31.7126400953
 12
785.2423114807
 22
31.6803773084
 13
785.2423114807
 23
31.6803773084
  0
SOLID
  8
0
 62
7
  6
CONTINUOUS
 10
785.2423114807
 20
31.6803773084
 11
785.1266865909
 21
31.6481130555
 12
784.7798115909
 22
31.6481130555
 13
784.7798115909
 23
31.6481130555
  0
SOLID
  8
0
 62
7
  6
CONTINUOUS
 10
784.7798115909
 20
31.5835859653
 11
784.7798115909
 21
31.6481130555
 12
785.1266865909
 22
31.6481130555
 13
785.1266865909
 23
31.6481130555
  0
SOLID
  8
0
 62
7
  6
CONTINUOUS
 10
785.1266865909
 20
31.6481130555
 11
785.0688739807
 21
31.5835859653
 12
784.7798115909
 22
31.5835859653
 13
784.7798115909
 23
31.5835859653
  0
SOLID
  8
0
 62
7
  6
CONTINUOUS
 10
789.9251239807
 20
31.6481130555
 11
790.6188739807
 21
31.7126400953
 12
790.3876242012
 22
31.6803773084
 13
790.3876242012
 23
31.6803773084
  0
SOLID
  8
0
 62
7
  6
CONTINUOUS
 10
790.3876242012
 20
31.6803773084
 11
790.2719989807
 21
31.6481130555
 12
789.9251239807
 22
31.6481130555
 13
789.9251239807
 23
31.6481130555
  0
SOLID
  8
0
 62
7
  6
CONTINUOUS
 10
789.9251239807
 20
31.5835859653
 11
789.9251239807
 21
31.6481130555
 12
790.2719989807
 22
31.6481130555
 13
790.2719989807
 23
31.6481130555
  0
SOLID
  8
0
 62
7
  6
CONTINUOUS
 10
790.2719989807
 20
31.6481130555
 11
790.2141867012
 21
31.5835859653
 12
789.9251239807
 22
31.5835859653
 13
789.9251239807
 23
31.5835859653
  0
SOLID
  8
0
 62
7
  6
CONTINUOUS
 10
790.0407492012
 20
31.4545317347
 11
789.9251239807
 21
31.5835859653
 12
790.2141867012
 22
31.5835859653
 13
790.2141867012
 23
31.5835859653
  0
SOLID
  8
0
 62
7
  6
CONTINUOUS
 10
780.4438739824
 20
31.5190588248
 11
780.9641864669
 21
31.6481130052
 12
780.7907489669
 22
31.5513216117
 13
780.7907489669
 23
31.5513216117
  0
SOLID
  8
0
 62
7
  6
CONTINUOUS
 10
780.7907489669
 20
31.5513216117
 11
780.7329364807
 21
31.4867945216
 12
780.4438739824
 22
31.5190588248
 13
780.4438739824
 23
31.5190588248
  0
SOLID
  8
0
 62
7
  6
CONTINUOUS
 10
780.3860614807
 20
31.325476038
 11
780.4438739824
 21
31.5190588248
 12
780.7329364807
 22
31.4867945216
 13
780.7329364807
 23
31.4867945216
  0
SOLID
  8
0
 62
7
  6
CONTINUOUS
 10
785.2423114807
 20
31.4545317347
 11
785.5891864807
 21
31.4867945557
 12
786.2251242012
 22
31.4867945557
 13
786.2251242012
 23
31.4867945557
  0
SOLID
  8
0
 62
7
  6
CONTINUOUS
 10
785.2423114807
 20
31.4545317347
 11
786.2251242012
 21
31.4867945557
 12
785.0110613704
 22
31.3900038345
 13
785.0110613704
 23
31.3900038345
  0
SOLID
  8
0
 62
7
  6
CONTINUOUS
 10
785.0110613704
 20
31.3900038345
 11
786.2251242012
 21
31.4867945557
 12
785.5891864807
 22
31.3577403754
 13
785.5891864807
 23
31.3577403754
  0
SOLID
  8
0
 62
7
  6
CONTINUOUS
 10
786.2251242012
 20
31.4867945557
 11
786.2251242012
 21
31.3577403754
 12
785.5891864807
 22
31.3577403754
 13
785.5891864807
 23
31.3577403754
  0
SOLID
  8
0
 62
7
  6
CONTINUOUS
 10
790.0407492012
 20
31.4545313481
 11
790.2141867012
 21
31.583585915
 12
790.2719989807
 22
31.5190588248
 13
790.2719989807
 23
31.5190588248
  0
SOLID
  8
0
 62
7
  6
CONTINUOUS
 10
790.2719989807
 20
31.5190588248
 11
790.4454364807
 21
31.4545313481
 12
790.0407492012
 22
31.4545313481
 13
790.0407492012
 23
31.4545313481
  0
SOLID
  8
0
 62
7
  6
CONTINUOUS
 10
790.2719989807
 20
31.3577403412
 11
790.0407492012
 21
31.4545313481
 12
790.4454364807
 22
31.4545313481
 13
790.4454364807
 23
31.4545313481
  0
SOLID
  8
0
 62
7
  6
CONTINUOUS
 10
790.4454364807
 20
31.4545313481
 11
791.4282492012
 21
31.2932132511
 12
790.2719989807
 22
31.3577403412
 13
790.2719989807
 23
31.3577403412
  0
SOLID
  8
0
 62
7
  6
CONTINUOUS
 10
791.2548117012
 20
31.1964222346
 11
790.2719989807
 21
31.3577403412
 12
791.4282492012
 22
31.2932132511
 13
791.4282492012
 23
31.2932132511
  0
SOLID
  8
0
 62
7
  6
CONTINUOUS
 10
791.4282492012
 20
31.2932132511
 11
791.6594989807
 21
31.1964222346
 12
791.2548117012
 22
31.1964222346
 13
791.2548117012
 23
31.1964222346
  0
SOLID
  8
0
 62
7
  6
CONTINUOUS
 10
791.4282492012
 20
31.1318947675
 11
791.2548117012
 21
31.1964222346
 12
791.6594989807
 22
31.1964222346
 13
791.6594989807
 23
31.1964222346
  0
SOLID
  8
0
 62
7
  6
CONTINUOUS
 10
791.4282492012
 20
31.1318947675
 11
791.6594989807
 21
31.1964222346
 12
791.4860614807
 22
31.0673665164
 13
791.4860614807
 23
31.0673665164
  0
SOLID
  8
0
 62
7
  6
CONTINUOUS
 10
791.6594989807
 20
31.1964222346
 11
791.7751235396
 21
31.0673665164
 12
791.4860614807
 22
31.0673665164
 13
791.4860614807
 23
31.0673665164
  0
SOLID
  8
0
 62
7
  6
CONTINUOUS
 10
791.4282492012
 20
31.0028394316
 11
791.4860614807
 21
31.0673665164
 12
791.7751235396
 22
31.0673665164
 13
791.7751235396
 23
31.0673665164
  0
SOLID
  8
0
 62
7
  6
CONTINUOUS
 10
791.7751235396
 20
31.0673665164
 11
791.7751235396
 21
31.0028394316
 12
791.4282492012
 22
31.0028394316
 13
791.4282492012
 23
31.0028394316
  0
SOLID
  8
0
 62
7
  6
CONTINUOUS
 10
791.3126239807
 20
30.9705762839
 11
791.4282492012
 21
31.0028394316
 12
791.7751235396
 22
31.0028394316
 13
791.7751235396
 23
31.0028394316
  0
SOLID
  8
0
 62
7
  6
CONTINUOUS
 10
791.3126239807
 20
30.9705762839
 11
791.7751235396
 21
31.0028394316
 12
791.0813742012
 22
30.9383123468
 13
791.0813742012
 23
30.9383123468
  0
SOLID
  8
0
 62
7
  6
CONTINUOUS
 10
791.7751235396
 20
31.0028394316
 11
791.6594989807
 21
30.9060491937
 12
791.0813742012
 22
30.9383123468
 13
791.0813742012
 23
30.9383123468
  0
SOLID
  8
0
 62
7
  6
CONTINUOUS
 10
791.6594989807
 20
30.9060491937
 11
790.2141867012
 21
30.8737848904
 12
791.0813742012
 22
30.9383123468
 13
791.0813742012
 23
30.9383123468
  0
SOLID
  8
0
 62
7
  6
CONTINUOUS
 10
791.0813742012
 20
30.9383123468
 11
790.2141867012
 21
30.8737848904
 12
790.7344992012
 22
30.9383123468
 13
790.7344992012
 23
30.9383123468
  0
SOLID
  8
0
 62
7
  6
CONTINUOUS
 10
790.2141867012
 20
30.8737848904
 11
790.0407492012
 21
30.9383123468
 12
790.7344992012
 22
30.9383123468
 13
790.7344992012
 23
30.9383123468
  0
SOLID
  8
0
 62
7
  6
CONTINUOUS
 10
790.2141867012
 20
30.8737848904
 11
791.6594989807
 21
30.9060491937
 12
790.3876242012
 22
30.8415205581
 13
790.3876242012
 23
30.8415205581
  0
SOLID
  8
0
 62
7
  6
CONTINUOUS
 10
791.6594989807
 20
30.9060491937
 11
791.4282492012
 21
30.8415205581
 12
790.3876242012
 22
30.8415205581
 13
790.3876242012
 23
30.8415205581
  0
SOLID
  8
0
 62
7
  6
CONTINUOUS
 10
790.7344992012
 20
30.8092581772
 11
790.3876242012
 21
30.8415205581
 12
791.4282492012
 22
30.8415205581
 13
791.4282492012
 23
30.8415205581
  0
SOLID
  8
0
 62
7
  6
CONTINUOUS
 10
791.4282492012
 20
30.8415205581
 11
791.0813742012
 21
30.8092581772
 12
790.7344992012
 22
30.8092581772
 13
790.7344992012
 23
30.8092581772
  0
SOLID
  8
0
 62
7
  6
CONTINUOUS
 10
780.3860614807
 20
31.325476038
 11
780.7329364807
 21
31.4867945216
 12
780.6751239738
 22
31.3577403412
 13
780.6751239738
 23
31.3577403412
  0
SOLID
  8
0
 62
7
  6
CONTINUOUS
 10
780.6751239738
 20
31.3577403412
 11
780.6751239738
 21
31.2609490436
 12
780.3860614807
 22
31.325476038
 13
780.3860614807
 23
31.325476038
  0
SOLID
  8
0
 62
7
  6
CONTINUOUS
 10
780.4438739824
 20
31.1318947675
 11
780.3860614807
 21
31.325476038
 12
780.6751239738
 22
31.2609490436
 13
780.6751239738
 23
31.2609490436
  0
SOLID
  8
0
 62
7
  6
CONTINUOUS
 10
780.6751239738
 20
31.2609490436
 11
780.7907489669
 21
31.0996304642
 12
780.4438739824
 22
31.1318947675
 13
780.4438739824
 23
31.1318947675
  0
SOLID
  8
0
 62
7
  6
CONTINUOUS
 10
780.5594989807
 20
31.0028388804
 11
780.4438739824
 21
31.1318947675
 12
780.7907489669
 22
31.0996304642
 13
780.7907489669
 23
31.0996304642
  0
SOLID
  8
0
 62
7
  6
CONTINUOUS
 10
780.7907489669
 20
31.0996304642
 11
780.9641864669
 21
31.0028388804
 12
780.5594989807
 22
31.0028388804
 13
780.5594989807
 23
31.0028388804
  0
SOLID
  8
0
 62
7
  6
CONTINUOUS
 10
780.6751239738
 20
30.9383122606
 11
780.5594989807
 21
31.0028388804
 12
780.9641864669
 22
31.0028388804
 13
780.9641864669
 23
31.0028388804
  0
SOLID
  8
0
 62
7
  6
CONTINUOUS
 10
780.9641864669
 20
31.0028388804
 11
781.3110615082
 21
30.9383122606
 12
780.6751239738
 22
30.9383122606
 13
780.6751239738
 23
30.9383122606
  0
SOLID
  8
0
 62
7
  6
CONTINUOUS
 10
780.8485614944
 20
30.8737848904
 11
780.6751239738
 21
30.9383122606
 12
781.3110615082
 22
30.9383122606
 13
781.3110615082
 23
30.9383122606
  0
SOLID
  8
0
 62
7
  6
CONTINUOUS
 10
784.8954364807
 20
31.3254759532
 11
785.0110613704
 21
31.3900038345
 12
785.5891864807
 22
31.3577403412
 13
785.5891864807
 23
31.3577403412
  0
SOLID
  8
0
 62
7
  6
CONTINUOUS
 10
785.5891864807
 20
31.3577403412
 11
785.3579363704
 21
31.3254759532
 12
784.8954364807
 22
31.3254759532
 13
784.8954364807
 23
31.3254759532
  0
SOLID
  8
0
 62
7
  6
CONTINUOUS
 10
784.7798115909
 20
31.1964218576
 11
784.8954364807
 21
31.3254759532
 12
785.3579363704
 22
31.3254759532
 13
785.3579363704
 23
31.3254759532
  0
SOLID
  8
0
 62
7
  6
CONTINUOUS
 10
785.1266865909
 20
31.2286853572
 11
784.7798115909
 21
31.1964218576
 12
785.2423114807
 22
31.2932132511
 13
785.2423114807
 23
31.2932132511
  0
SOLID
  8
0
 62
7
  6
CONTINUOUS
 10
784.7798115909
 20
31.1964218576
 11
785.3579363704
 21
31.325476038
 12
785.2423114807
 22
31.2932132511
 13
785.2423114807
 23
31.2932132511
  0
SOLID
  8
0
 62
7
  6
CONTINUOUS
 10
785.1266865909
 20
31.2286853572
 11
785.0688739807
 21
31.1318947675
 12
784.7798115909
 22
31.1964218576
 13
784.7798115909
 23
31.1964218576
  0
SOLID
  8
0
 62
7
  6
CONTINUOUS
 10
784.7798115909
 20
31.0996304642
 11
784.7798115909
 21
31.1964218576
 12
785.0688739807
 22
31.1318947675
 13
785.0688739807
 23
31.1318947675
  0
SOLID
  8
0
 62
7
  6
CONTINUOUS
 10
785.0688739807
 20
31.1318947675
 11
785.0688739807
 21
31.0673661609
 12
784.7798115909
 22
31.0996304642
 13
784.7798115909
 23
31.0996304642
  0
SOLID
  8
0
 62
7
  6
CONTINUOUS
 10
784.8376238704
 20
30.9705762839
 11
784.7798115909
 21
31.0996304642
 12
785.0688739807
 22
31.0673661609
 13
785.0688739807
 23
31.0673661609
  0
SOLID
  8
0
 62
7
  6
CONTINUOUS
 10
786.2251242012
 20
31.1641579843
 11
786.5141862601
 21
31.0673661609
 12
786.1673112601
 22
31.0996304642
 13
786.1673112601
 23
31.0996304642
  0
SOLID
  8
0
 62
7
  6
CONTINUOUS
 10
785.9938737601
 20
31.0028390707
 11
786.1673112601
 21
31.0996304642
 12
786.5141862601
 22
31.0673661609
 13
786.5141862601
 23
31.0673661609
  0
SOLID
  8
0
 62
7
  6
CONTINUOUS
 10
785.9938737601
 20
31.0028390707
 11
786.5141862601
 21
31.0673661609
 12
786.2251242012
 22
30.9705762839
 13
786.2251242012
 23
30.9705762839
  0
SOLID
  8
0
 62
7
  6
CONTINUOUS
 10
786.5141862601
 20
31.0673661609
 11
786.5719992012
 21
30.9060491937
 12
786.2251242012
 22
30.9705762839
 13
786.2251242012
 23
30.9705762839
  0
SOLID
  8
0
 62
7
  6
CONTINUOUS
 10
786.2829364807
 20
30.8737848904
 11
786.2251242012
 21
30.9705762839
 12
786.5719992012
 22
30.9060491937
 13
786.5719992012
 23
30.9060491937
  0
SOLID
  8
0
 62
7
  6
CONTINUOUS
 10
786.2829364807
 20
30.8737848904
 11
786.5719992012
 21
30.9060491937
 12
786.3407487601
 22
30.8092576254
 13
786.3407487601
 23
30.8092576254
  0
SOLID
  8
0
 62
7
  6
CONTINUOUS
 10
786.5719992012
 20
30.9060491937
 11
786.6298114807
 21
30.8092576254
 12
786.3407487601
 22
30.8092576254
 13
786.3407487601
 23
30.8092576254
  0
SOLID
  8
0
 62
7
  6
CONTINUOUS
 10
781.8891865358
 20
31.035103216
 11
781.9469989807
 21
31.1318946289
 12
782.2360615358
 22
31.1318946289
 13
782.2360615358
 23
31.1318946289
  0
SOLID
  8
0
 62
7
  6
CONTINUOUS
 10
782.2360615358
 20
31.1318946289
 11
782.1782489255
 21
31.0028390707
 12
781.8891865358
 22
31.035103216
 13
781.8891865358
 23
31.035103216
  0
SOLID
  8
0
 62
7
  6
CONTINUOUS
 10
781.7157489531
 20
30.9705762839
 11
781.8891865358
 21
31.035103216
 12
782.1782489255
 22
31.0028390707
 13
782.1782489255
 23
31.0028390707
  0
SOLID
  8
0
 62
7
  6
CONTINUOUS
 10
781.7157489531
 20
30.9705762839
 11
782.1782489255
 21
31.0028390707
 12
781.3110615082
 22
30.9383119806
 13
781.3110615082
 23
30.9383119806
  0
SOLID
  8
0
 62
7
  6
CONTINUOUS
 10
782.1782489255
 20
31.0028390707
 11
782.0048114255
 21
30.9060491937
 12
781.3110615082
 22
30.9383119806
 13
781.3110615082
 23
30.9383119806
  0
SOLID
  8
0
 62
7
  6
CONTINUOUS
 10
780.8485614944
 20
30.8737848904
 11
781.3110615082
 21
30.9383119806
 12
782.0048114255
 22
30.9060491937
 13
782.0048114255
 23
30.9060491937
  0
SOLID
  8
0
 62
7
  6
CONTINUOUS
 10
780.8485614944
 20
30.8737848904
 11
782.0048114255
 21
30.9060491937
 12
781.0219989944
 22
30.8415207131
 13
781.0219989944
 23
30.8415207131
  0
SOLID
  8
0
 62
7
  6
CONTINUOUS
 10
782.0048114255
 20
30.9060491937
 11
781.7735614807
 21
30.8415207131
 12
781.0219989944
 22
30.8415207131
 13
781.0219989944
 23
30.8415207131
  0
SOLID
  8
0
 62
7
  6
CONTINUOUS
 10
781.3688739531
 20
30.8092578002
 11
781.0219989944
 21
30.8415207131
 12
781.7735614807
 22
30.8415207131
 13
781.7735614807
 23
30.8415207131
  0
SOLID
  8
0
 62
7
  6
CONTINUOUS
 10
784.8376238704
 20
30.9705762839
 11
785.0688739807
 21
31.0673661609
 12
785.1266865909
 22
31.0028390707
 13
785.1266865909
 23
31.0028390707
  0
SOLID
  8
0
 62
7
  6
CONTINUOUS
 10
785.1266865909
 20
31.0028390707
 11
785.3579363704
 21
30.9383119806
 12
784.8376238704
 22
30.9705762839
 13
784.8376238704
 23
30.9705762839
  0
SOLID
  8
0
 62
7
  6
CONTINUOUS
 10
785.0110613704
 20
30.8737848904
 11
784.8376238704
 21
30.9705762839
 12
785.3579363704
 22
30.9383119806
 13
785.3579363704
 23
30.9383119806
  0
SOLID
  8
0
 62
7
  6
CONTINUOUS
 10
785.7048113704
 20
30.9383119664
 11
785.9938737601
 21
31.0028390707
 12
786.2251242012
 22
30.9705762839
 13
786.2251242012
 23
30.9705762839
  0
SOLID
  8
0
 62
7
  6
CONTINUOUS
 10
786.2251242012
 20
30.9705762839
 11
786.1673112601
 21
30.9060491937
 12
785.7048113704
 22
30.9383119664
 13
785.7048113704
 23
30.9383119664
  0
SOLID
  8
0
 62
7
  6
CONTINUOUS
 10
786.1673112601
 20
30.9060491937
 11
785.0110613704
 21
30.8737848904
 12
785.7048113704
 22
30.9383119664
 13
785.7048113704
 23
30.9383119664
  0
SOLID
  8
0
 62
7
  6
CONTINUOUS
 10
785.0110613704
 20
30.8737848904
 11
785.3579363704
 21
30.9383119664
 12
785.7048113704
 22
30.9383119664
 13
785.7048113704
 23
30.9383119664
  0
SOLID
  8
0
 62
7
  6
CONTINUOUS
 10
785.0110613704
 20
30.8737848904
 11
786.1673112601
 21
30.9060491937
 12
785.1266865909
 22
30.8415205568
 13
785.1266865909
 23
30.8415205568
  0
SOLID
  8
0
 62
7
  6
CONTINUOUS
 10
786.1673112601
 20
30.9060491937
 11
785.9938737601
 21
30.8415205568
 12
785.1266865909
 22
30.8415205568
 13
785.1266865909
 23
30.8415205568
  0
SOLID
  8
0
 62
7
  6
CONTINUOUS
 10
785.3579363704
 20
30.8092577215
 11
785.1266865909
 21
30.8415205568
 12
785.9938737601
 22
30.8415205568
 13
785.9938737601
 23
30.8415205568
  0
SOLID
  8
0
 62
7
  6
CONTINUOUS
 10
785.9938737601
 20
30.8415205568
 11
785.7048113704
 21
30.8092577215
 12
785.3579363704
 22
30.8092577215
 13
785.3579363704
 23
30.8092577215
  0
SOLID
  8
0
 62
7
  6
CONTINUOUS
 10
790.3876242012
 20
30.9705762839
 11
790.0407492012
 21
30.9383119664
 12
790.2719989807
 22
31.0028390707
 13
790.2719989807
 23
31.0028390707
  0
SOLID
  8
0
 62
7
  6
CONTINUOUS
 10
790.2719989807
 20
31.0028390707
 11
790.0407492012
 21
30.9383119664
 12
790.2141867012
 22
31.0673661467
 13
790.2141867012
 23
31.0673661467
  0
SOLID
  8
0
 62
7
  6
CONTINUOUS
 10
790.0407492012
 20
30.9383119664
 11
789.9251239807
 21
31.0673661467
 12
790.2141867012
 22
31.0673661467
 13
790.2141867012
 23
31.0673661467
  0
SOLID
  8
0
 62
7
  6
CONTINUOUS
 10
790.3876242012
 20
30.9705762839
 11
790.7344992012
 21
30.9383119664
 12
790.0407492012
 22
30.9383119664
 13
790.0407492012
 23
30.9383119664
  0
SOLID
  8
0
 62
7
  6
CONTINUOUS
 10
787.0923117012
 20
30.8092578002
 11
787.0923117012
 21
31.841695792
 12
787.3813737601
 22
30.8092578002
 13
787.3813737601
 23
31.841695792
  0
ENDBLK
  8
0
  6
BYBLOCK
 62
0
  0
BLOCK
  8
0
 62
2
  6
CONTINUOUS
  2
SYMBOL_14_BL0
 70
64
 10
663.0141013953
 20
19.7009994242
  0
TEXT
  8
0
 62
7
  6
CONTINUOUS
 10
649.4066669574
 20
19.0744135318
  7
TEXTSTYLE_3
 40
2.7338706658
  1
Ammeraal Beltech
 41
1.0
 51
15.0
 72
0
  0
TEXT
  8
0
 62
7
  6
CONTINUOUS
 10
660.2074677831
 20
16.800876859
  7
TEXTSTYLE_4
 40
1.0935482663
  1
Innovation & Service in Belting
 41
1.0
 72
0
  0
LINE
  8
0
 62
7
  6
CONTINUOUS
 10
643.382126306
 20
19.8410068404
 11
644.1602782994
 21
23.5019241381
  0
LINE
  8
0
 62
7
  6
CONTINUOUS
 10
654.2554465892
 20
27.1653180497
 11
644.6480960424
 21
24.0437006284
  0
LINE
  8
0
 62
7
  6
CONTINUOUS
 10
643.6074096383
 20
19.1476560374
 11
651.1144848995
 21
12.3882551114
  0
LINE
  8
0
 62
7
  6
CONTINUOUS
 10
643.869944049
 20
20.3827833308
 11
654.6782134142
 21
23.8946029297
  0
LINE
  8
0
 62
7
  6
CONTINUOUS
 10
654.674008277
 20
13.544814366
 11
646.2285486083
 21
21.1491404077
  0
LINE
  8
0
 62
7
  6
CONTINUOUS
 10
655.1938309968
 20
26.320392934
 11
654.2172714596
 21
21.7260415315
  0
LINE
  8
0
 62
7
  6
CONTINUOUS
 10
653.5174695119
 20
18.4337322177
 11
652.8310213004
 21
15.2042472933
  0
LINE
  8
0
 62
7
  6
CONTINUOUS
 10
655.8749270954
 20
13.9350165436
 11
656.831158631
 21
18.4337322177
  0
LINE
  8
0
 62
7
  6
CONTINUOUS
 10
657.5309605787
 20
21.7260415315
 11
657.9752023811
 21
23.8160348909
  0
LINE
  8
0
 62
7
  6
CONTINUOUS
 10
651.8275859748
 20
12.2366807987
 11
655.3871093524
 21
13.3932400533
  0
LINE
  8
0
 62
7
  6
CONTINUOUS
 10
654.9685476645
 20
27.013743737
 11
657.7499190488
 21
24.5093856939
  0
ARC
  8
0
 62
7
  6
CONTINUOUS
 10
644.8733793747
 20
23.3503498254
 40
0.7290321776
 50
108.0
 51
168.0
  0
ARC
  8
0
 62
7
  6
CONTINUOUS
 10
654.4807299215
 20
26.4719672466
 40
0.7290321776
 50
348.0
 51
108.0
  0
ARC
  8
0
 62
7
  6
CONTINUOUS
 10
657.2621013058
 20
23.9676092036
 40
0.7290321776
 50
348.0
 51
48.0
  0
ARC
  8
0
 62
7
  6
CONTINUOUS
 10
651.6023026425
 20
12.9300316018
 40
0.7290321776
 50
228.0
 51
288.0
  0
ARC
  8
0
 62
7
  6
CONTINUOUS
 10
644.0952273813
 20
19.6894325277
 40
0.7290321776
 50
108.0
 51
228.0
  0
ARC
  8
0
 62
7
  6
CONTINUOUS
 10
655.1618260201
 20
14.0865908563
 40
0.7290321776
 50
228.0
 51
348.0
  0
ENDBLK
  8
0
  6
BYBLOCK
 62
0
  0
ENDSEC
  0
SECTION
  2
ENTITIES
  0
TEXT
  8
0
 62
5
  6
CONTINUOUS
 10
727.0
 20
25.636
  7
TEXTSTYLE_2
 40
2.8
  1
Scale :
 41
0.6
 51
0.000019
 72
0
  0
TEXT
  8
0
 62
5
  6
CONTINUOUS
 10
747.0
 20
25.636
  7
TEXTSTYLE_2
 40
2.8
  1
Belt type:
 41
0.6
 51
0.000019
 72
0
  0
INSERT
  8
0
 62
2
  6
CONTINUOUS
  2
SYMBOL_14_BL0
 10
663.0141013953
 20
19.7009994242
  0
INSERT
  8
0
 62
2
  6
CONTINUOUS
  2
SYMBOL_15_BL1
 10
804.4079930916
 20
35.8092573885
  0
LINE
  8
0
 62
2
  6
CONTINUOUS
 10
641.0
 20
30.0
 11
831.0
 21
30.0
  0
LINE
  8
0
 62
2
  6
CONTINUOUS
 10
641.0
 20
30.0
 11
641.0
 21
10.0
  0
LINE
  8
0
 62
2
  6
CONTINUOUS
 10
641.0
 20
10.0
 11
831.0
 21
10.0
  0
LINE
  8
0
 62
2
  6
CONTINUOUS
 10
726.0
 20
30.0
 11
726.0
 21
10.0
  0
LINE
  8
0
 62
2
  6
CONTINUOUS
 10
746.0
 20
30.0
 11
746.0
 21
10.0
  0
LINE
  8
0
 62
2
  6
CONTINUOUS
 10
831.0
 20
30.0
 11
831.0
 21
10.0
  0
TEXT
  8
0
 62
5
  6
CONTINUOUS
 10
644.0
 20
23.303
  7
TEXTSTYLE_3
 40
1.52
  1
                                                                     Ammeraal Beltech Modular A/S
 41
1.0
 72
0
  0
TEXT
  8
0
 62
5
  6
CONTINUOUS
 10
644.0
 20
20.595
  7
TEXTSTYLE_3
 40
1.5
  1
                                                                      Hjulmagervej 21, 7100 Vejle,  DK
 41
1.0
 72
0
  0
TEXT
  8
0
 62
5
  6
CONTINUOUS
 10
644.0
 20
17.881
  7
TEXTSTYLE_3
 40
1.495
  1
                                                                      tel: 
 41
1.0
 72
0
  0
TEXT
  8
0
 62
5
  6
CONTINUOUS
 10
688.9869465649
 20
17.881
  7
TEXTSTYLE_3
 40
1.51
  1
+45 75723100     fax: +45 75723348
 41
1.0
 72
0
  0
TEXT
  8
0
 62
5
  6
CONTINUOUS
 10
644.0
 20
15.177
  7
TEXTSTYLE_3
 40
1.5
  1
                                                                      admin@unichains.dk  www.unichains.com
 41
1.0
 72
0
  0
TEXT
  8
0
 62
5
  6
CONTINUOUS
 10
730.75
 20
13.75
  7
TEXTSTYLE_5
 40
5.0
  1
1:1
 41
0.7
 72
1
 11
736.0
 21
13.75
  0
TEXT
  8
0
 62
5
  6
CONTINUOUS
 10
749.0
 20
13.75
  7
TEXTSTYLE_6
 40
7.5
  1
Sprocket Z20
 41
1.0
 72
0
  0
LINE
  8
0
 62
7
  6
CONTINUOUS
 10
-0.0
 20
0.0
 11
-0.0
 21
594.0
  0
LINE
  8
0
 62
7
  6
CONTINUOUS
 10
10.0
 20
10.0
 11
10.0
 21
584.0
  0
LINE
  8
0
 62
7
  6
CONTINUOUS
 10
-0.0
 20
0.0
 11
841.0
 21
0.0
  0
LINE
  8
0
 62
7
  6
CONTINUOUS
 10
10.0
 20
10.0
 11
831.0
 21
10.0
  0
LINE
  8
0
 62
7
  6
CONTINUOUS
 10
641.0
 20
30.0
 11
831.0
 21
30.0
  0
LINE
  8
0
 62
7
  6
CONTINUOUS
 10
211.0
 20
5.0
 11
211.0
 21
10.0
  0
LINE
  8
0
 62
7
  6
CONTINUOUS
 10
211.0
 20
584.0
 11
211.0
 21
589.0
  0
LINE
  8
0
 62
7
  6
CONTINUOUS
 10
421.0
 20
5.0
 11
421.0
 21
10.0
  0
LINE
  8
0
 62
7
  6
CONTINUOUS
 10
421.0
 20
584.0
 11
421.0
 21
589.0
  0
LINE
  8
0
 62
7
  6
CONTINUOUS
 10
5.0
 20
297.0
 11
10.0
 21
297.0
  0
LINE
  8
0
 62
7
  6
CONTINUOUS
 10
831.0
 20
297.0
 11
836.0
 21
297.0
  0
LINE
  8
0
 62
7
  6
CONTINUOUS
 10
631.0
 20
584.0
 11
631.0
 21
589.0
  0
LINE
  8
0
 62
7
  6
CONTINUOUS
 10
10.0
 20
584.0
 11
831.0
 21
584.0
  0
LINE
  8
0
 62
7
  6
CONTINUOUS
 10
-0.0
 20
594.0
 11
841.0
 21
594.0
  0
LINE
  8
0
 62
7
  6
CONTINUOUS
 10
831.0
 20
10.0
 11
831.0
 21
584.0
  0
LINE
  8
0
 62
7
  6
CONTINUOUS
 10
841.0
 20
0.0
 11
841.0
 21
594.0
  0
LINE
  8
0
 62
7
  6
CONTINUOUS
 10
88.7819585141
 20
351.5836663469
 11
88.7819585141
 21
318.5837022801
  0
LINE
  8
0
 62
7
  6
CONTINUOUS
 10
88.7819585141
 20
288.0837382132
 11
88.7819585141
 21
290.4594864008
  0
LINE
  8
0
 62
7
  6
CONTINUOUS
 10
107.6703688847
 20
407.3404678002
 11
97.4728191743
 21
375.955636937
  0
LINE
  8
0
 62
7
  6
CONTINUOUS
 10
88.0478119498
 20
346.9484473644
 11
88.7819585141
 21
349.2079181593
  0
LINE
  8
0
 62
7
  6
CONTINUOUS
 10
142.8641138511
 20
454.531497349
 11
123.4672216465
 21
427.8339656051
  0
LINE
  8
0
 62
7
  6
CONTINUOUS
 10
105.5397925725
 20
403.1589763472
 11
106.9362223204
 21
405.0809970053
  0
LINE
  8
0
 62
7
  6
CONTINUOUS
 10
190.9181844469
 20
488.5373682216
 11
164.2206527031
 21
469.140476017
  0
LINE
  8
0
 62
7
  6
CONTINUOUS
 10
139.5456634452
 20
451.213046943
 11
141.4676841033
 21
452.6094766909
  0
LINE
  8
0
 62
7
  6
CONTINUOUS
 10
193.9812222668
 20
470.2183170162
 11
193.2514837506
 21
469.8159162118
  0
LINE
  8
0
 62
7
  6
CONTINUOUS
 10
190.3325303644
 20
468.2063133685
 11
189.6027920048
 21
467.8039126505
  0
LINE
  8
0
 62
7
  6
CONTINUOUS
 10
198.3219771259
 20
472.4393626655
 11
197.7262626294
 21
472.1400816823
  0
LINE
  8
0
 62
7
  6
CONTINUOUS
 10
196.3859056513
 20
471.4666997911
 11
195.6412627437
 21
471.0925986691
  0
LINE
  8
0
 62
7
  6
CONTINUOUS
 10
200.8059654679
 20
476.473761735
 11
200.0522938895
 21
476.1182015198
  0
LINE
  8
0
 62
7
  6
CONTINUOUS
 10
200.4154193109
 20
475.3484941741
 11
201.1690908893
 21
475.7040543894
  0
LINE
  8
0
 62
7
  6
CONTINUOUS
 10
201.8953419355
 20
474.1646392667
 11
201.1416703572
 21
473.8090790515
  0
LINE
  8
0
 62
7
  6
CONTINUOUS
 10
216.1722836696
 20
482.8301739019
 11
215.2369224438
 21
482.4764799984
  0
LINE
  8
0
 62
7
  6
CONTINUOUS
 10
210.871903985
 20
480.8259086738
 11
209.9365427592
 21
480.4722147703
  0
LINE
  8
0
 62
7
  6
CONTINUOUS
 10
218.7349813437
 20
483.6989181082
 11
217.7842012935
 21
483.3890515303
  0
LINE
  8
0
 62
7
  6
CONTINUOUS
 10
247.1287134297
 20
506.0293488444
 11
215.7438825665
 21
495.831799134
  0
LINE
  8
0
 62
7
  6
CONTINUOUS
 10
186.7366929939
 20
486.4067919095
 11
188.9961637888
 21
487.1409384738
  0
LINE
  8
0
 62
7
  6
CONTINUOUS
 10
305.9934225809
 20
134.3722022801
 11
303.6176743933
 21
134.3722022801
  0
LINE
  8
0
 62
7
  6
CONTINUOUS
 10
242.4934944473
 20
134.3722022801
 11
275.4934585141
 21
134.3722022801
  0
LINE
  8
0
 62
7
  6
CONTINUOUS
 10
247.1287134297
 20
133.6380557157
 11
244.8692426349
 21
134.3722022801
  0
LINE
  8
0
 62
7
  6
CONTINUOUS
 10
186.7366929939
 20
153.2606126506
 11
218.1215238572
 21
143.0630629402
  0
LINE
  8
0
 62
7
  6
CONTINUOUS
 10
139.5456634452
 20
188.4543576171
 11
166.243195189
 21
169.0574654124
  0
LINE
  8
0
 62
7
  6
CONTINUOUS
 10
190.9181844469
 20
151.1300363385
 11
188.9961637888
 21
152.5264660863
  0
LINE
  8
0
 62
7
  6
CONTINUOUS
 10
105.5397925725
 20
236.5084282129
 11
124.9366847772
 21
209.8108964691
  0
LINE
  8
0
 62
7
  6
CONTINUOUS
 10
142.8641138511
 20
185.1359072112
 11
141.4676841033
 21
187.0579278693
  0
LINE
  8
0
 62
7
  6
CONTINUOUS
 10
88.0478119498
 20
292.7189571957
 11
98.2453616602
 21
261.3341263324
  0
LINE
  8
0
 62
7
  6
CONTINUOUS
 10
107.6703688847
 20
232.3269367599
 11
106.9362223204
 21
234.5864075548
  0
LINE
  8
0
 62
7
  6
CONTINUOUS
 10
194.7409425555
 20
465.3890861717
 11
194.2393445012
 21
464.9181126869
  0
LINE
  8
0
 62
7
  6
CONTINUOUS
 10
194.5681144469
 20
464.3219009254
 11
195.0697125229
 21
464.7928743711
  0
LINE
  8
0
 62
7
  6
CONTINUOUS
 10
197.7262626294
 20
472.1400816823
 11
197.2069602532
 21
471.6887034714
  0
LINE
  8
0
 62
7
  6
CONTINUOUS
 10
197.5126087348
 20
471.080314561
 11
198.0319111109
 21
471.5316927718
  0
LINE
  8
0
 62
7
  6
CONTINUOUS
 10
250.8276670504
 20
491.0750928723
 11
250.2099901611
 21
490.6522384894
  0
LINE
  8
0
 62
7
  6
CONTINUOUS
 10
230.4705811635
 20
483.8669989783
 11
230.0341275017
 21
483.5695421245
  0
LINE
  8
0
 62
7
  6
CONTINUOUS
 10
231.4243596798
 20
480.4221291486
 11
230.987906018
 21
480.1246722948
  0
LINE
  8
0
 62
7
  6
CONTINUOUS
 10
194.2393445012
 20
464.9181126869
 11
193.65555373
 21
464.5961920664
  0
LINE
  8
0
 62
7
  6
CONTINUOUS
 10
193.9843236757
 20
463.9999803049
 11
194.5681144469
 21
464.3219009254
  0
LINE
  8
0
 62
7
  6
CONTINUOUS
 10
196.1735388067
 20
465.2071824878
 11
196.9032773229
 21
465.6095832921
  0
LINE
  8
0
 62
7
  6
CONTINUOUS
 10
231.0997927271
 20
479.0959526176
 11
231.8574929473
 21
479.4823527797
  0
LINE
  8
0
 62
7
  6
CONTINUOUS
 10
198.0864508102
 20
466.2254869596
 11
198.8310937178
 21
466.5995880816
  0
LINE
  8
0
 62
7
  6
CONTINUOUS
 10
201.5118076739
 20
467.946351864
 11
202.2564501554
 21
468.320452772
  0
LINE
  8
0
 62
7
  6
CONTINUOUS
 10
203.4656732576
 20
468.8829516078
 11
204.219344836
 21
469.238511823
  0
LINE
  8
0
 62
7
  6
CONTINUOUS
 10
212.7660939869
 20
472.9893249643
 11
213.7014552127
 21
473.3430188677
  0
LINE
  8
0
 62
7
  6
CONTINUOUS
 10
218.0664736715
 20
474.9935901924
 11
219.0018348973
 21
475.3472840958
  0
LINE
  8
0
 62
7
  6
CONTINUOUS
 10
251.1017618483
 20
490.2523172571
 11
251.9065019125
 21
490.5276615705
  0
LINE
  8
0
 62
7
  6
CONTINUOUS
 10
225.6513529215
 20
478.6130194155
 11
220.8974544838
 21
477.063687117
  0
LINE
  8
0
 62
7
  6
CONTINUOUS
 10
220.2631339167
 20
475.7828111285
 11
225.9678124045
 21
477.6420100049
  0
LINE
  8
0
 62
7
  6
CONTINUOUS
 10
259.0284442332
 20
491.1400919296
 11
259.8446231207
 21
491.3794098882
  0
LINE
  8
0
 62
7
  6
CONTINUOUS
 10
261.1875669731
 20
485.3429238551
 11
260.3713880856
 21
485.1036058965
  0
LINE
  8
0
 62
7
  6
CONTINUOUS
 10
195.0144006232
 20
465.9286324629
 11
194.7409425555
 21
465.3890861717
  0
LINE
  8
0
 62
7
  6
CONTINUOUS
 10
197.2069602532
 20
471.6887034714
 11
196.9129992608
 21
471.1600485999
  0
LINE
  8
0
 62
7
  6
CONTINUOUS
 10
197.2186477423
 20
470.5516596895
 11
197.5126087348
 21
471.080314561
  0
LINE
  8
0
 62
7
  6
CONTINUOUS
 10
195.0697125229
 20
464.7928743711
 11
195.2794155264
 21
465.1028876793
  0
LINE
  8
0
 62
7
  6
CONTINUOUS
 10
231.1341249255
 20
483.3442488119
 11
231.4099571443
 21
483.5972345277
  0
LINE
  8
0
 62
7
  6
CONTINUOUS
 10
250.6493817155
 20
489.8507680938
 11
251.1017618483
 21
490.2523172571
  0
LINE
  8
0
 62
7
  6
CONTINUOUS
 10
258.5586700659
 20
490.7590384597
 11
259.0284442332
 21
491.1400919296
  0
LINE
  8
0
 62
7
  6
CONTINUOUS
 10
261.6573411404
 20
485.723977325
 11
261.1875669731
 21
485.3429238551
  0
LINE
  8
0
 62
7
  6
CONTINUOUS
 10
258.7911796737
 20
491.9742333615
 11
258.0034745642
 21
491.3956827996
  0
LINE
  8
0
 62
7
  6
CONTINUOUS
 10
261.4248315414
 20
484.5087823192
 11
262.2125366471
 21
485.0873329257
  0
LINE
  8
0
 62
7
  6
CONTINUOUS
 10
293.9484621023
 20
487.4330538481
 11
294.6657087235
 21
487.8698145602
  0
LINE
  8
0
 62
7
  6
CONTINUOUS
 10
306.8892790272
 20
488.3454400174
 11
307.4469675749
 21
488.5796898818
  0
LINE
  8
0
 62
7
  6
CONTINUOUS
 10
306.8776308673
 20
486.6110203615
 11
305.762253772
 21
486.1425206328
  0
LINE
  8
0
 62
7
  6
CONTINUOUS
 10
306.3141257643
 20
485.5095593864
 11
306.8718143119
 21
485.7438092508
  0
LINE
  8
0
 62
7
  6
CONTINUOUS
 10
308.9439496212
 20
482.5447025434
 11
308.3862610735
 21
482.310452679
  0
LINE
  8
0
 62
7
  6
CONTINUOUS
 10
307.4527841303
 20
489.4469009925
 11
306.5345857154
 21
489.1120890343
  0
LINE
  8
0
 62
7
  6
CONTINUOUS
 10
308.3804370202
 20
481.4432429825
 11
309.2986429212
 21
481.7780534681
  0
LINE
  8
0
 62
7
  6
CONTINUOUS
 10
195.2794155264
 20
465.1028876793
 11
195.4706808629
 21
465.791486861
  0
LINE
  8
0
 62
7
  6
CONTINUOUS
 10
196.9129992608
 20
471.1600485999
 11
196.7679662533
 21
470.706213653
  0
LINE
  8
0
 62
7
  6
CONTINUOUS
 10
197.0736147348
 20
470.0978247426
 11
197.2186477423
 21
470.5516596895
  0
LINE
  8
0
 62
7
  6
CONTINUOUS
 10
230.7009953622
 20
484.2840260982
 11
230.4705811635
 21
483.8669989783
  0
LINE
  8
0
 62
7
  6
CONTINUOUS
 10
231.6547738467
 20
480.8391563834
 11
231.4243596798
 21
480.4221291486
  0
LINE
  8
0
 62
7
  6
CONTINUOUS
 10
243.0974078051
 20
482.9239602521
 11
247.6722663888
 21
489.6078087517
  0
LINE
  8
0
 62
7
  6
CONTINUOUS
 10
246.7924582007
 20
489.7982539997
 11
242.0534670899
 21
483.0854449207
  0
LINE
  8
0
 62
7
  6
CONTINUOUS
 10
250.2099901611
 20
490.6522384894
 11
249.6358271916
 21
489.8917510898
  0
LINE
  8
0
 62
7
  6
CONTINUOUS
 10
231.8574929473
 20
479.4823527797
 11
232.3637356765
 21
480.1523646406
  0
LINE
  8
0
 62
7
  6
CONTINUOUS
 10
258.0034745642
 20
491.3956827996
 11
257.547937286
 21
490.8450130282
  0
LINE
  8
0
 62
7
  6
CONTINUOUS
 10
262.2125366471
 20
485.0873329257
 11
262.6680739203
 21
485.6380027565
  0
LINE
  8
0
 62
7
  6
CONTINUOUS
 10
254.1511995374
 20
488.7575324605
 11
250.0667898088
 21
483.9405700773
  0
LINE
  8
0
 62
7
  6
CONTINUOUS
 10
251.3891827773
 20
484.1110142728
 11
255.0429674413
 21
488.3576107405
  0
LINE
  8
0
 62
7
  6
CONTINUOUS
 10
294.2591565892
 20
488.7692726369
 11
293.8914726553
 21
488.46626959
  0
LINE
  8
0
 62
7
  6
CONTINUOUS
 10
305.9197758806
 20
485.2421823288
 11
306.3141257643
 21
485.5095593864
  0
LINE
  8
0
 62
7
  6
CONTINUOUS
 10
213.9714057181
 20
477.8125073452
 11
212.7660939869
 21
472.9893249643
  0
LINE
  8
0
 62
7
  6
CONTINUOUS
 10
215.2369224438
 20
482.4764799984
 11
214.1982734893
 21
478.6261959067
  0
LINE
  8
0
 62
7
  6
CONTINUOUS
 10
213.7014552127
 20
473.3430188677
 11
214.7401023832
 21
477.1933022848
  0
LINE
  8
0
 62
7
  6
CONTINUOUS
 10
214.9067669439
 20
478.1662012487
 11
216.1722836696
 21
482.8301739019
  0
LINE
  8
0
 62
7
  6
CONTINUOUS
 10
231.4099571443
 20
483.5972345277
 11
231.7101567459
 21
484.3868155937
  0
LINE
  8
0
 62
7
  6
CONTINUOUS
 10
232.3637356765
 20
480.1523646406
 11
232.6639352623
 21
480.941945764
  0
LINE
  8
0
 62
7
  6
CONTINUOUS
 10
250.384060974
 20
489.3017083733
 11
250.6493817155
 21
489.8507680938
  0
LINE
  8
0
 62
7
  6
CONTINUOUS
 10
257.9797633804
 20
489.6855792321
 11
258.5586700659
 21
490.7590384597
  0
LINE
  8
0
 62
7
  6
CONTINUOUS
 10
294.6657087235
 20
487.8698145602
 11
295.2353520782
 21
488.4935649182
  0
LINE
  8
0
 62
7
  6
CONTINUOUS
 10
306.4610966042
 20
487.9112464796
 11
306.8892790272
 21
488.3454400174
  0
LINE
  8
0
 62
7
  6
CONTINUOUS
 10
306.5345857154
 20
489.1120890343
 11
305.9092320891
 21
488.5442062095
  0
LINE
  8
0
 62
7
  6
CONTINUOUS
 10
309.2986429212
 20
481.7780534681
 11
309.9239965593
 21
482.3459363513
  0
LINE
  8
0
 62
7
  6
CONTINUOUS
 10
195.0597184092
 20
466.536751602
 11
195.0144006232
 21
465.9286324629
  0
LINE
  8
0
 62
7
  6
CONTINUOUS
 10
257.547937286
 20
490.8450130282
 11
257.2727246137
 21
490.1386676694
  0
LINE
  8
0
 62
7
  6
CONTINUOUS
 10
255.0429674413
 20
488.3576107405
 11
255.3082919661
 21
488.9066709487
  0
LINE
  8
0
 62
7
  6
CONTINUOUS
 10
262.2362478558
 20
486.7974361963
 11
261.6573411404
 21
485.723977325
  0
LINE
  8
0
 62
7
  6
CONTINUOUS
 10
309.3721320679
 20
482.978896198
 11
308.9439496212
 21
482.5447025434
  0
LINE
  8
0
 62
7
  6
CONTINUOUS
 10
257.2727246137
 20
490.1386676694
 11
257.1493476038
 21
489.615877575
  0
LINE
  8
0
 62
7
  6
CONTINUOUS
 10
254.3947576438
 20
489.4754079578
 11
254.1511995374
 21
488.7575324605
  0
LINE
  8
0
 62
7
  6
CONTINUOUS
 10
262.6680739203
 20
485.6380027565
 11
262.9432865826
 21
486.3443482341
  0
LINE
  8
0
 62
7
  6
CONTINUOUS
 10
300.0589208329
 20
490.8980362349
 11
296.1994220424
 21
483.4003454815
  0
LINE
  8
0
 62
7
  6
CONTINUOUS
 10
305.9092320891
 20
488.5442062095
 11
305.4133844928
 21
487.776379244
  0
LINE
  8
0
 62
7
  6
CONTINUOUS
 10
309.9239965593
 20
482.3459363513
 11
310.4198440846
 21
483.1137629663
  0
LINE
  8
0
 62
7
  6
CONTINUOUS
 10
230.7253627451
 20
484.8206214483
 11
230.7009953622
 21
484.2840260982
  0
LINE
  8
0
 62
7
  6
CONTINUOUS
 10
231.7101567459
 20
484.3868155937
 11
231.7345241288
 21
484.9234109439
  0
LINE
  8
0
 62
7
  6
CONTINUOUS
 10
231.6791412296
 20
481.3757517335
 11
231.6547738467
 21
480.8391563834
  0
LINE
  8
0
 62
7
  6
CONTINUOUS
 10
232.6639352623
 20
480.941945764
 11
232.6883026134
 21
481.478541229
  0
LINE
  8
0
 62
7
  6
CONTINUOUS
 10
249.6358271916
 20
489.8917510898
 11
249.5575620583
 21
489.1951803244
  0
LINE
  8
0
 62
7
  6
CONTINUOUS
 10
255.3082919661
 20
488.9066709487
 11
255.386553316
 21
489.6032412264
  0
LINE
  8
0
 62
7
  6
CONTINUOUS
 10
262.9432865826
 20
486.3443482341
 11
263.0666636324
 21
486.8671378533
  0
LINE
  8
0
 62
7
  6
CONTINUOUS
 10
294.4792372566
 20
489.2592653297
 11
294.2591565892
 21
488.7692726369
  0
LINE
  8
0
 62
7
  6
CONTINUOUS
 10
295.2353520782
 20
488.4935649182
 11
295.4554327455
 21
488.983557611
  0
LINE
  8
0
 62
7
  6
CONTINUOUS
 10
298.4279202918
 20
485.8111167859
 11
300.6135416579
 21
490.1231847299
  0
LINE
  8
0
 62
7
  6
CONTINUOUS
 10
297.1876435072
 20
483.2473149735
 11
298.1590282557
 21
485.1637899259
  0
LINE
  8
0
 62
7
  6
CONTINUOUS
 10
306.1962602276
 20
487.4439237648
 11
306.4610966042
 21
487.9112464796
  0
LINE
  8
0
 62
7
  6
CONTINUOUS
 10
305.6549395513
 20
484.7748598477
 11
305.9197758806
 21
485.2421823288
  0
LINE
  8
0
 62
7
  6
CONTINUOUS
 10
309.6369683498
 20
483.4462184455
 11
309.3721320679
 21
482.978896198
  0
LINE
  8
0
 62
7
  6
CONTINUOUS
 10
257.6132255433
 20
118.6581787072
 11
257.4363789855
 21
120.6795441125
  0
LINE
  8
0
 62
7
  6
CONTINUOUS
 10
257.8991046005
 20
488.6539413462
 11
257.9797633804
 21
489.6855792321
  0
LINE
  8
0
 62
7
  6
CONTINUOUS
 10
262.3169066158
 20
487.8290743198
 11
262.2362478558
 21
486.7974361963
  0
LINE
  8
0
 62
7
  6
CONTINUOUS
 10
257.6132255433
 20
521.0092258529
 11
257.4363789855
 21
518.9878604476
  0
LINE
  8
0
 62
7
  6
CONTINUOUS
 10
257.1493476038
 20
489.615877575
 11
257.0544519349
 21
488.7538559908
  0
LINE
  8
0
 62
7
  6
CONTINUOUS
 10
263.0666636324
 20
486.8671378533
 11
263.1615592814
 21
487.7291596752
  0
LINE
  8
0
 62
7
  6
CONTINUOUS
 10
196.2605114434
 20
133.6434342754
 11
196.7169566343
 21
135.6205156077
  0
LINE
  8
0
 62
7
  6
CONTINUOUS
 10
305.4133844928
 20
487.776379244
 11
305.0132180537
 21
486.6417910757
  0
LINE
  8
0
 62
7
  6
CONTINUOUS
 10
305.8299188506
 20
486.4761535932
 11
306.1962602276
 21
487.4439237648
  0
LINE
  8
0
 62
7
  6
CONTINUOUS
 10
320.593822716
 20
516.3020195015
 11
319.8009953827
 21
514.4342353527
  0
LINE
  8
0
 62
7
  6
CONTINUOUS
 10
142.541311542
 20
166.8542905398
 11
143.586368446
 21
168.5935573031
  0
LINE
  8
0
 62
7
  6
CONTINUOUS
 10
379.0373232986
 20
492.3631253852
 11
377.7061226532
 21
490.8317542191
  0
LINE
  8
DEFAULT_3
 62
2
  6
PHANTOM
 10
242.053952072
 20
332.333344409
 11
261.7438163852
 21
352.0232087222
  0
LINE
  8
DEFAULT_3
 62
2
  6
PHANTOM
 10
270.1111538316
 20
358.1278044688
 11
265.8685131445
 21
353.8851637817
  0
LINE
  8
DEFAULT_3
 62
2
  6
PHANTOM
 10
235.9493563254
 20
323.9660069625
 11
240.1919970125
 21
328.2086476496
  0
LINE
  8
0
 62
7
  6
CONTINUOUS
 10
101.714035409
 20
215.0398374955
 11
103.2454065751
 21
216.3710381409
  0
LINE
  8
0
 62
7
  6
CONTINUOUS
 10
427.2228702544
 20
451.5358492522
 11
425.483603491
 21
450.4907923481
  0
LINE
  8
0
 62
7
  6
CONTINUOUS
 10
77.7751412927
 20
273.4833380782
 11
79.6429254414
 21
274.2761654114
  0
LINE
  8
0
 62
7
  6
CONTINUOUS
 10
88.0531905095
 20
241.8507552094
 11
90.0302718418
 21
242.3072004003
  0
LINE
  8
0
 62
7
  6
CONTINUOUS
 10
475.4189820869
 20
303.2034693092
 11
473.3976166816
 21
303.0266227514
  0
LINE
  8
0
 62
7
  6
CONTINUOUS
 10
73.0679349413
 20
303.2034693092
 11
75.0893003466
 21
303.0266227514
  0
LINE
  8
0
 62
7
  6
CONTINUOUS
 10
460.4337265187
 20
241.8507552094
 11
458.4566451864
 21
242.3072004003
  0
LINE
  8
0
 62
7
  6
CONTINUOUS
 10
77.7751412927
 20
366.1840664819
 11
79.6429254414
 21
365.3912391487
  0
LINE
  8
0
 62
7
  6
CONTINUOUS
 10
427.2228702544
 20
188.1315553079
 11
425.483603491
 21
189.176612212
  0
LINE
  8
0
 62
7
  6
CONTINUOUS
 10
101.714035409
 20
424.6275670646
 11
103.2454065751
 21
423.2963664192
  0
LINE
  8
DEFAULT_3
 62
2
  6
PHANTOM
 10
242.053952072
 20
307.3340601512
 11
261.7438163852
 21
287.644195838
  0
LINE
  8
DEFAULT_3
 62
2
  6
PHANTOM
 10
265.8685131445
 20
285.7822407784
 11
270.1111538316
 21
281.5396000913
  0
LINE
  8
DEFAULT_3
 62
2
  6
PHANTOM
 10
240.1919970125
 20
311.4587569105
 11
235.9493563254
 21
315.7013975976
  0
LINE
  8
0
 62
7
  6
CONTINUOUS
 10
379.0373232986
 20
147.3042791749
 11
377.7061226532
 21
148.8356503411
  0
LINE
  8
0
 62
7
  6
CONTINUOUS
 10
142.541311542
 20
472.8131140203
 11
143.586368446
 21
471.073847257
  0
LINE
  8
0
 62
7
  6
CONTINUOUS
 10
320.593822716
 20
123.3653850586
 11
319.8009953827
 21
125.2331692074
  0
LINE
  8
0
 62
7
  6
CONTINUOUS
 10
196.2605114434
 20
506.0239702847
 11
196.7169566343
 21
504.0468889524
  0
LINE
  8
0
 62
7
  6
CONTINUOUS
 10
257.0544519349
 20
488.7538559908
 11
257.1825839364
 21
487.2273092761
  0
LINE
  8
0
 62
7
  6
CONTINUOUS
 10
257.9987628239
 20
487.4666272348
 11
257.8991046005
 21
488.6539413462
  0
LINE
  8
0
 62
7
  6
CONTINUOUS
 10
262.2172483924
 20
489.0163884311
 11
262.3169066158
 21
487.8290743198
  0
LINE
  8
0
 62
7
  6
CONTINUOUS
 10
270.9934585141
 20
132.3722022801
 11
270.9934585141
 21
131.8722022801
  0
LINE
  8
0
 62
7
  6
CONTINUOUS
 10
270.9934585141
 20
507.2952022801
 11
270.9934585141
 21
507.7952022801
  0
LINE
  8
DEFAULT_1
 62
2
  6
CENTER
 10
274.2434585141
 20
517.5741605846
 11
274.2434585141
 21
321.8338022801
  0
LINE
  8
DEFAULT_1
 62
2
  6
CENTER
 10
274.2434585141
 20
118.8412194081
 11
274.2434585141
 21
317.8336022801
  0
LINE
  8
0
 62
2
  6
CONTINUOUS
 10
274.2434585141
 20
317.8336022801
 11
274.2434585141
 21
321.8338022801
  0
LINE
  8
0
 62
7
  6
CONTINUOUS
 10
289.5956341557
 20
492.1787562842
 11
288.7439354592
 21
484.224222399
  0
LINE
  8
0
 62
7
  6
CONTINUOUS
 10
289.7382521948
 20
484.1177600619
 11
290.1187984263
 21
487.6719135504
  0
LINE
  8
0
 62
7
  6
CONTINUOUS
 10
290.2275259065
 20
488.6873858402
 11
290.4993446578
 21
491.2260670389
  0
LINE
  8
0
 62
7
  6
CONTINUOUS
 10
294.5336010475
 20
489.7670019487
 11
294.4792372566
 21
489.2592653297
  0
LINE
  8
0
 62
7
  6
CONTINUOUS
 10
305.0132180537
 20
486.6417910757
 11
304.7763902785
 21
485.4740757142
  0
LINE
  8
0
 62
7
  6
CONTINUOUS
 10
305.762253772
 20
486.1425206328
 11
305.8299188506
 21
486.4761535932
  0
LINE
  8
0
 62
7
  6
CONTINUOUS
 10
305.5534419334
 20
484.2744104071
 11
305.6549395513
 21
484.7748598477
  0
LINE
  8
0
 62
7
  6
CONTINUOUS
 10
309.7384659677
 20
483.9466678861
 11
309.6369683498
 21
483.4462184455
  0
LINE
  8
0
 62
7
  6
CONTINUOUS
 10
213.2237355451
 20
142.5515263823
 11
213.0692270479
 21
142.0759981242
  0
LINE
  8
0
 62
7
  6
CONTINUOUS
 10
329.0813141272
 20
499.1244886412
 11
329.2358226243
 21
499.6000168994
  0
LINE
  8
0
 62
7
  6
CONTINUOUS
 10
161.4270482098
 20
170.084465059
 11
161.1331555836
 21
169.6799565618
  0
LINE
  8
0
 62
7
  6
CONTINUOUS
 10
381.801258355
 20
473.403543641
 11
382.0951509812
 21
473.8080521382
  0
LINE
  8
0
 62
7
  6
CONTINUOUS
 10
120.6736171531
 20
212.2759024392
 11
120.2691086559
 21
211.982009813
  0
LINE
  8
0
 62
7
  6
CONTINUOUS
 10
423.9926957352
 20
432.6501125844
 11
424.3972042324
 21
432.9440052106
  0
LINE
  8
0
 62
7
  6
CONTINUOUS
 10
94.9526721529
 20
264.995846667
 11
94.4771438948
 21
264.8413381698
  0
LINE
  8
0
 62
7
  6
CONTINUOUS
 10
451.5256344118
 20
380.853425249
 11
452.00116267
 21
381.0079337462
  0
LINE
  8
0
 62
7
  6
CONTINUOUS
 10
86.7819585141
 20
316.5837022801
 11
86.2819585141
 21
316.5837022801
  0
LINE
  8
0
 62
7
  6
CONTINUOUS
 10
461.7049585141
 20
316.5837022801
 11
462.2049585141
 21
316.5837022801
  0
LINE
  8
DEFAULT_1
 62
2
  6
CENTER
 10
484.6472444626
 20
319.8337022801
 11
276.2435585141
 21
319.8337022801
  0
LINE
  8
DEFAULT_1
 62
2
  6
CENTER
 10
75.5254797567
 20
319.8337022801
 11
272.2433585141
 21
319.8337022801
  0
LINE
  8
0
 62
2
  6
CONTINUOUS
 10
272.2433585141
 20
319.8337022801
 11
276.2435585141
 21
319.8337022801
  0
LINE
  8
0
 62
7
  6
CONTINUOUS
 10
94.9526721529
 20
374.6715578931
 11
94.4771438948
 21
374.8260663903
  0
LINE
  8
0
 62
7
  6
CONTINUOUS
 10
451.5256344118
 20
258.8139793111
 11
452.00116267
 21
258.6594708139
  0
LINE
  8
0
 62
7
  6
CONTINUOUS
 10
423.9926957352
 20
207.0172919757
 11
424.3972042324
 21
206.7233993496
  0
LINE
  8
0
 62
7
  6
CONTINUOUS
 10
120.6736171531
 20
427.391502121
 11
120.2691086559
 21
427.6853947471
  0
LINE
  8
0
 62
7
  6
CONTINUOUS
 10
381.801258355
 20
166.2638609191
 11
382.0951509812
 21
165.8593524219
  0
LINE
  8
0
 62
7
  6
CONTINUOUS
 10
161.4270482098
 20
469.5829395011
 11
161.1331555836
 21
469.9874479983
  0
LINE
  8
0
 62
7
  6
CONTINUOUS
 10
189.6027920048
 20
467.8039126505
 11
191.2466417049
 21
464.8228538953
  0
LINE
  8
0
 62
7
  6
CONTINUOUS
 10
191.9763800645
 20
465.2252546133
 11
190.3325303644
 21
468.2063133685
  0
LINE
  8
0
 62
7
  6
CONTINUOUS
 10
193.2514837506
 20
469.8159162118
 11
195.0597184092
 21
466.536751602
  0
LINE
  8
0
 62
7
  6
CONTINUOUS
 10
196.1182268999
 20
466.3429405927
 11
193.9812222668
 21
470.2183170162
  0
LINE
  8
0
 62
7
  6
CONTINUOUS
 10
195.6412627437
 20
471.0925986691
 11
198.0864508102
 21
466.2254869596
  0
LINE
  8
0
 62
7
  6
CONTINUOUS
 10
198.8310937178
 20
466.5995880816
 11
197.0736147348
 21
470.0978247426
  0
LINE
  8
0
 62
7
  6
CONTINUOUS
 10
196.7679662533
 20
470.706213653
 11
196.3859056513
 21
471.4666997911
  0
LINE
  8
0
 62
7
  6
CONTINUOUS
 10
200.0599771725
 20
470.8361996146
 11
201.5118076739
 21
467.946351864
  0
LINE
  8
0
 62
7
  6
CONTINUOUS
 10
202.2564501554
 20
468.320452772
 11
200.804619654
 21
471.2103005225
  0
LINE
  8
0
 62
7
  6
CONTINUOUS
 10
200.0522938895
 20
476.1182015198
 11
200.4154193109
 21
475.3484941741
  0
LINE
  8
0
 62
7
  6
CONTINUOUS
 10
201.1416703572
 20
473.8090790515
 11
203.4656732576
 21
468.8829516078
  0
LINE
  8
0
 62
7
  6
CONTINUOUS
 10
204.219344836
 20
469.238511823
 11
201.8953419355
 21
474.1646392667
  0
LINE
  8
0
 62
7
  6
CONTINUOUS
 10
201.1690908893
 20
475.7040543894
 11
200.8059654679
 21
476.473761735
  0
LINE
  8
0
 62
7
  6
CONTINUOUS
 10
217.7842012935
 20
483.3890515303
 11
220.2631339167
 21
475.7828111285
  0
LINE
  8
0
 62
7
  6
CONTINUOUS
 10
220.8974544838
 20
477.063687117
 11
218.7349813437
 21
483.6989181082
  0
LINE
  8
0
 62
7
  6
CONTINUOUS
 10
329.0813141272
 20
140.5429159189
 11
329.2358226243
 21
140.0673876607
  0
LINE
  8
0
 62
7
  6
CONTINUOUS
 10
213.2237355451
 20
497.1158781778
 11
213.0692270479
 21
497.591406436
  0
LINE
  8
0
 62
7
  6
CONTINUOUS
 10
225.1101720758
 20
485.7385759287
 11
227.2448192724
 21
478.0286290193
  0
LINE
  8
0
 62
7
  6
CONTINUOUS
 10
227.936054484
 20
479.279708458
 11
227.2547840879
 21
481.7403298634
  0
LINE
  8
0
 62
7
  6
CONTINUOUS
 10
226.9822759676
 20
482.7245782877
 11
226.3464235598
 21
485.021158404
  0
LINE
  8
0
 62
7
  6
CONTINUOUS
 10
230.634526705
 20
485.1487042564
 11
230.7253627451
 21
484.8206214483
  0
LINE
  8
0
 62
7
  6
CONTINUOUS
 10
231.5428871695
 20
481.8678759457
 11
231.6791412296
 21
481.3757517335
  0
LINE
  8
0
 62
7
  6
CONTINUOUS
 10
240.899982166
 20
489.6227587226
 11
241.0478648299
 21
488.7846416739
  0
LINE
  8
0
 62
7
  6
CONTINUOUS
 10
242.0534670899
 20
483.0854449207
 11
242.290079373
 21
481.7444575253
  0
LINE
  8
0
 62
7
  6
CONTINUOUS
 10
250.0667898088
 20
483.9405700773
 11
250.1755840822
 21
483.0964886366
  0
LINE
  8
0
 62
7
  6
CONTINUOUS
 10
254.3512398796
 20
489.8130409598
 11
254.3947576438
 21
489.4754079578
  0
LINE
  8
0
 62
7
  6
CONTINUOUS
 10
263.1615592814
 20
487.7291596752
 11
263.0334272799
 21
489.2557063898
  0
LINE
  8
0
 62
7
  6
CONTINUOUS
 10
277.4934585141
 20
132.3722022801
 11
277.4934585141
 21
131.8722022801
  0
LINE
  8
0
 62
7
  6
CONTINUOUS
 10
277.4934585141
 20
507.2952022801
 11
277.4934585141
 21
507.7952022801
  0
LINE
  8
0
 62
7
  6
CONTINUOUS
 10
304.7763902785
 20
485.4740757142
 11
304.70290112
 21
484.2732329258
  0
LINE
  8
0
 62
7
  6
CONTINUOUS
 10
295.4554327455
 20
488.983557611
 11
295.5279177831
 21
489.6605396117
  0
LINE
  8
0
 62
7
  6
CONTINUOUS
 10
310.4198440846
 20
483.1137629663
 11
310.5890068285
 21
483.9478456011
  0
LINE
  8
0
 62
7
  6
CONTINUOUS
 10
219.405602901
 20
140.5429159189
 11
219.2510944039
 21
140.0673876607
  0
LINE
  8
0
 62
7
  6
CONTINUOUS
 10
335.2631814831
 20
497.1158781778
 11
335.4176899803
 21
497.591406436
  0
LINE
  8
0
 62
7
  6
CONTINUOUS
 10
166.6856586732
 20
166.2638609191
 11
166.391766047
 21
165.8593524219
  0
LINE
  8
0
 62
7
  6
CONTINUOUS
 10
387.0598688184
 20
469.5829395011
 11
387.3537614446
 21
469.9874479983
  0
LINE
  8
0
 62
7
  6
CONTINUOUS
 10
124.494221293
 20
207.0172919757
 11
124.0897127958
 21
206.7233993496
  0
LINE
  8
0
 62
7
  6
CONTINUOUS
 10
427.8132998751
 20
427.391502121
 11
428.2178083723
 21
427.6853947471
  0
LINE
  8
0
 62
7
  6
CONTINUOUS
 10
96.9612826164
 20
258.8139793111
 11
96.4857543582
 21
258.6594708139
  0
LINE
  8
0
 62
7
  6
CONTINUOUS
 10
453.5342448753
 20
374.6715578931
 11
454.0097731334
 21
374.8260663903
  0
LINE
  8
0
 62
7
  6
CONTINUOUS
 10
86.7819585141
 20
323.0837022801
 11
86.2819585141
 21
323.0837022801
  0
LINE
  8
0
 62
7
  6
CONTINUOUS
 10
461.7049585141
 20
323.0837022801
 11
462.2049585141
 21
323.0837022801
  0
LINE
  8
0
 62
7
  6
CONTINUOUS
 10
96.9612826164
 20
380.853425249
 11
96.4857543582
 21
381.0079337462
  0
LINE
  8
0
 62
7
  6
CONTINUOUS
 10
453.5342448753
 20
264.995846667
 11
454.0097731334
 21
264.8413381698
  0
LINE
  8
0
 62
7
  6
CONTINUOUS
 10
427.8132998751
 20
212.2759024392
 11
428.2178083723
 21
211.982009813
  0
LINE
  8
0
 62
7
  6
CONTINUOUS
 10
124.494221293
 20
432.6501125844
 11
124.0897127958
 21
432.9440052106
  0
LINE
  8
0
 62
7
  6
CONTINUOUS
 10
387.0598688184
 20
170.084465059
 11
387.3537614446
 21
169.6799565618
  0
LINE
  8
0
 62
7
  6
CONTINUOUS
 10
166.6856586732
 20
473.403543641
 11
166.391766047
 21
473.8080521382
  0
LINE
  8
0
 62
7
  6
CONTINUOUS
 10
225.9678124045
 20
477.6420100049
 11
225.6513529215
 21
478.6130194155
  0
LINE
  8
0
 62
7
  6
CONTINUOUS
 10
335.2631814831
 20
142.5515263823
 11
335.4176899803
 21
142.0759981242
  0
LINE
  8
0
 62
7
  6
CONTINUOUS
 10
219.405602901
 20
499.1244886412
 11
219.2510944039
 21
499.6000168994
  0
LINE
  8
0
 62
7
  6
CONTINUOUS
 10
232.6883026134
 20
481.478541229
 11
232.4612125131
 21
482.2987482493
  0
LINE
  8
0
 62
7
  6
CONTINUOUS
 10
231.7345241288
 20
484.9234109439
 11
231.5528519214
 21
485.5795770196
  0
LINE
  8
0
 62
7
  6
CONTINUOUS
 10
248.8553278662
 20
482.9028714226
 11
248.6778686488
 21
483.9086119985
  0
LINE
  8
0
 62
7
  6
CONTINUOUS
 10
247.6722663888
 20
489.6078087517
 11
247.4652306592
 21
490.7811726199
  0
LINE
  8
0
 62
7
  6
CONTINUOUS
 10
256.1263543322
 20
483.8634877601
 11
256.0175600588
 21
484.7075692009
  0
LINE
  8
0
 62
7
  6
CONTINUOUS
 10
255.386553316
 20
489.6032412264
 11
255.3430355518
 21
489.9408742283
  0
LINE
  8
0
 62
7
  6
CONTINUOUS
 10
290.8736914849
 20
521.0092258529
 11
291.0505380427
 21
518.9878604476
  0
LINE
  8
0
 62
7
  6
CONTINUOUS
 10
290.8736914849
 20
118.6581787072
 11
291.0505380427
 21
120.6795441125
  0
LINE
  8
0
 62
7
  6
CONTINUOUS
 10
352.2264055848
 20
506.0239702847
 11
351.7699603939
 21
504.0468889524
  0
LINE
  8
0
 62
7
  6
CONTINUOUS
 10
227.8930943122
 20
123.3653850586
 11
228.6859216455
 21
125.2331692074
  0
LINE
  8
0
 62
7
  6
CONTINUOUS
 10
405.9456054862
 20
472.8131140203
 11
404.9005485822
 21
471.073847257
  0
LINE
  8
0
 62
7
  6
CONTINUOUS
 10
169.4495937296
 20
147.3042791749
 11
170.780794375
 21
148.8356503411
  0
LINE
  8
DEFAULT_3
 62
2
  6
PHANTOM
 10
312.5375607028
 20
315.7013975976
 11
308.2949200157
 21
311.4587569105
  0
LINE
  8
DEFAULT_3
 62
2
  6
PHANTOM
 10
278.3757631966
 20
281.5396000913
 11
282.6184038837
 21
285.7822407784
  0
LINE
  8
DEFAULT_3
 62
2
  6
PHANTOM
 10
286.743100643
 20
287.644195838
 11
306.4329649562
 21
307.3340601512
  0
LINE
  8
0
 62
7
  6
CONTINUOUS
 10
446.7728816192
 20
424.6275670646
 11
445.2415104531
 21
423.2963664192
  0
LINE
  8
0
 62
7
  6
CONTINUOUS
 10
121.2640467738
 20
188.1315553079
 11
123.0033135372
 21
189.176612212
  0
LINE
  8
0
 62
7
  6
CONTINUOUS
 10
470.7117757355
 20
366.1840664819
 11
468.8439915868
 21
365.3912391487
  0
LINE
  8
0
 62
7
  6
CONTINUOUS
 10
460.4337265187
 20
397.8166493507
 11
458.4566451864
 21
397.3602041599
  0
LINE
  8
0
 62
7
  6
CONTINUOUS
 10
73.0679349413
 20
336.4639352509
 11
75.0893003466
 21
336.6407818087
  0
LINE
  8
0
 62
7
  6
CONTINUOUS
 10
475.4189820869
 20
336.4639352509
 11
473.3976166816
 21
336.6407818087
  0
LINE
  8
0
 62
7
  6
CONTINUOUS
 10
88.0531905095
 20
397.8166493507
 11
90.0302718418
 21
397.3602041599
  0
LINE
  8
0
 62
7
  6
CONTINUOUS
 10
470.7117757355
 20
273.4833380782
 11
468.8439915868
 21
274.2761654114
  0
LINE
  8
0
 62
7
  6
CONTINUOUS
 10
121.2640467738
 20
451.5358492522
 11
123.0033135372
 21
450.4907923481
  0
LINE
  8
0
 62
7
  6
CONTINUOUS
 10
446.7728816192
 20
215.0398374955
 11
445.2415104531
 21
216.3710381409
  0
LINE
  8
DEFAULT_3
 62
2
  6
PHANTOM
 10
308.2949200157
 20
328.2086476496
 11
312.5375607028
 21
323.9660069625
  0
LINE
  8
DEFAULT_3
 62
2
  6
PHANTOM
 10
282.6184038837
 20
353.8851637817
 11
278.3757631966
 21
358.1278044688
  0
LINE
  8
DEFAULT_3
 62
2
  6
PHANTOM
 10
286.743100643
 20
352.0232087222
 11
306.4329649562
 21
332.333344409
  0
LINE
  8
0
 62
7
  6
CONTINUOUS
 10
191.2466417049
 20
464.8228538953
 11
191.7213593592
 21
464.3071222295
  0
LINE
  8
0
 62
7
  6
CONTINUOUS
 10
169.4495937296
 20
492.3631253852
 11
170.780794375
 21
490.8317542191
  0
LINE
  8
0
 62
7
  6
CONTINUOUS
 10
199.5289877334
 20
471.5218653998
 11
200.0599771725
 21
470.8361996146
  0
LINE
  8
0
 62
7
  6
CONTINUOUS
 10
200.804619654
 20
471.2103005225
 11
200.2736310671
 21
471.8959667359
  0
LINE
  8
0
 62
7
  6
CONTINUOUS
 10
405.9456054862
 20
166.8542905398
 11
404.9005485822
 21
168.5935573031
  0
LINE
  8
0
 62
7
  6
CONTINUOUS
 10
227.8930943122
 20
516.3020195015
 11
228.6859216455
 21
514.4342353527
  0
LINE
  8
0
 62
7
  6
CONTINUOUS
 10
257.1825839364
 20
487.2273092761
 11
257.4198485158
 21
486.3931676066
  0
LINE
  8
0
 62
7
  6
CONTINUOUS
 10
263.0334272799
 20
489.2557063898
 11
262.7961627204
 21
490.0898478218
  0
LINE
  8
0
 62
7
  6
CONTINUOUS
 10
258.2502642924
 20
486.4628692636
 11
257.9987628239
 21
487.4666272348
  0
LINE
  8
0
 62
7
  6
CONTINUOUS
 10
261.9657469438
 20
490.0201461648
 11
262.2172483924
 21
489.0163884311
  0
LINE
  8
0
 62
7
  6
CONTINUOUS
 10
352.2264055848
 20
133.6434342754
 11
351.7699603939
 21
135.6205156077
  0
LINE
  8
0
 62
7
  6
CONTINUOUS
 10
192.368905195
 20
464.8585759865
 11
191.9763800645
 21
465.2252546133
  0
LINE
  8
0
 62
7
  6
CONTINUOUS
 10
200.2736310671
 20
471.8959667359
 11
199.8954658687
 21
472.2774380658
  0
LINE
  8
0
 62
7
  6
CONTINUOUS
 10
196.5929443963
 20
465.8272088739
 11
196.1182268999
 21
466.3429405927
  0
LINE
  8
0
 62
7
  6
CONTINUOUS
 10
231.2460116027
 20
482.3155292496
 11
231.5428871695
 21
481.8678759457
  0
LINE
  8
0
 62
7
  6
CONTINUOUS
 10
232.4612125131
 20
482.2987482493
 11
232.1643369464
 21
482.7464015532
  0
LINE
  8
0
 62
7
  6
CONTINUOUS
 10
230.3376510746
 20
485.5963577901
 11
230.634526705
 21
485.1487042564
  0
LINE
  8
0
 62
7
  6
CONTINUOUS
 10
231.5528519214
 20
485.5795770196
 11
231.2559764182
 21
486.0272300937
  0
LINE
  8
0
 62
7
  6
CONTINUOUS
 10
257.4198485158
 20
486.3931676066
 11
257.6286468999
 21
485.898259416
  0
LINE
  8
0
 62
7
  6
CONTINUOUS
 10
262.7961627204
 20
490.0898478218
 11
262.5873642964
 21
490.5847564875
  0
LINE
  8
0
 62
7
  6
CONTINUOUS
 10
255.3430355518
 20
489.9408742283
 11
255.0907033889
 21
490.5948340667
  0
LINE
  8
0
 62
7
  6
CONTINUOUS
 10
294.4222478603
 20
490.2924815457
 11
294.5336010475
 21
489.7670019487
  0
LINE
  8
0
 62
7
  6
CONTINUOUS
 10
295.5279177831
 20
489.6605396117
 11
295.416564596
 21
490.1860192087
  0
LINE
  8
0
 62
7
  6
CONTINUOUS
 10
304.70290112
 20
484.2732329258
 11
304.8604232048
 21
483.372894505
  0
LINE
  8
0
 62
7
  6
CONTINUOUS
 10
302.7875626283
 20
482.3801424839
 11
301.3765519659
 21
490.6939951684
  0
LINE
  8
0
 62
7
  6
CONTINUOUS
 10
301.4531023184
 20
484.6536878434
 11
301.7993411634
 21
482.5331729919
  0
LINE
  8
0
 62
7
  6
CONTINUOUS
 10
300.6135416579
 20
490.1231847299
 11
301.3925846864
 21
485.3520252619
  0
LINE
  8
0
 62
7
  6
CONTINUOUS
 10
305.6152829795
 20
483.7408337732
 11
305.5534419334
 21
484.2744104071
  0
LINE
  8
0
 62
7
  6
CONTINUOUS
 10
309.676624969
 20
484.4802447536
 11
309.7384659677
 21
483.9466678861
  0
LINE
  8
0
 62
7
  6
CONTINUOUS
 10
310.8713078257
 20
487.0167986151
 11
310.8094667796
 21
487.550375249
  0
LINE
  8
0
 62
7
  6
CONTINUOUS
 10
191.7213593592
 20
464.3071222295
 11
192.0316919974
 21
464.0894965228
  0
LINE
  8
0
 62
7
  6
CONTINUOUS
 10
196.9032773229
 20
465.6095832921
 11
196.5929443963
 21
465.8272088739
  0
LINE
  8
0
 62
7
  6
CONTINUOUS
 10
195.4706808629
 20
465.791486861
 11
196.1735388067
 21
465.2071824878
  0
LINE
  8
0
 62
7
  6
CONTINUOUS
 10
257.6286468999
 20
485.898259416
 11
258.0177546946
 21
485.247674243
  0
LINE
  8
0
 62
7
  6
CONTINUOUS
 10
262.5873642964
 20
490.5847564875
 11
262.1982565117
 21
491.2353415417
  0
LINE
  8
0
 62
7
  6
CONTINUOUS
 10
310.5890068285
 20
483.9478456011
 11
310.4314847199
 21
484.848183905
  0
LINE
  8
0
 62
7
  6
CONTINUOUS
 10
192.9073780759
 20
464.5723774104
 11
192.368905195
 21
464.8585759865
  0
LINE
  8
0
 62
7
  6
CONTINUOUS
 10
219.0018348973
 20
475.3472840958
 11
214.9067669439
 21
478.1662012487
  0
LINE
  8
0
 62
7
  6
CONTINUOUS
 10
253.9553698118
 20
490.276879314
 11
254.3512398796
 21
489.8130409598
  0
LINE
  8
0
 62
7
  6
CONTINUOUS
 10
259.0000136964
 20
485.5009322778
 11
258.2502642924
 21
486.4628692636
  0
LINE
  8
0
 62
7
  6
CONTINUOUS
 10
261.2159975099
 20
490.9820835069
 11
261.9657469438
 21
490.0201461648
  0
LINE
  8
0
 62
7
  6
CONTINUOUS
 10
304.8604232048
 20
483.372894505
 11
305.2151165048
 21
482.6062454297
  0
LINE
  8
0
 62
7
  6
CONTINUOUS
 10
305.8404701429
 20
483.1741283129
 11
305.6152829795
 21
483.7408337732
  0
LINE
  8
0
 62
7
  6
CONTINUOUS
 10
309.8294198415
 20
487.7491414411
 11
310.0545995515
 21
487.182437614
  0
LINE
  8
0
 62
7
  6
CONTINUOUS
 10
192.0316919974
 20
464.0894965228
 11
192.716112464
 21
463.8837781108
  0
LINE
  8
0
 62
7
  6
CONTINUOUS
 10
209.9365427592
 20
480.4722147703
 11
213.9714057181
 21
477.8125073452
  0
LINE
  8
0
 62
7
  6
CONTINUOUS
 10
214.7401023832
 20
477.1933022848
 11
218.0664736715
 21
474.9935901924
  0
LINE
  8
0
 62
7
  6
CONTINUOUS
 10
214.1982734893
 20
478.6261959067
 11
210.871903985
 21
480.8259086738
  0
LINE
  8
0
 62
7
  6
CONTINUOUS
 10
232.1643369464
 20
482.7464015532
 11
231.5007931843
 21
483.2691517196
  0
LINE
  8
0
 62
7
  6
CONTINUOUS
 10
231.2559764182
 20
486.0272300937
 11
230.5924326562
 21
486.5499802602
  0
LINE
  8
0
 62
7
  6
CONTINUOUS
 10
258.0177546946
 20
485.247674243
 11
258.5587133122
 21
484.7806461453
  0
LINE
  8
0
 62
7
  6
CONTINUOUS
 10
295.416564596
 20
490.1860192087
 11
294.9918912149
 21
490.9162319037
  0
LINE
  8
0
 62
7
  6
CONTINUOUS
 10
310.8094667796
 20
487.550375249
 11
310.4547734678
 21
488.3170242659
  0
LINE
  8
0
 62
7
  6
CONTINUOUS
 10
192.716112464
 20
463.8837781108
 11
193.3183405225
 21
463.8271126824
  0
LINE
  8
0
 62
7
  6
CONTINUOUS
 10
199.0783066704
 20
471.6764195774
 11
199.5289877334
 21
471.5218653998
  0
LINE
  8
0
 62
7
  6
CONTINUOUS
 10
199.8954658687
 20
472.2774380658
 11
199.4447848058
 21
472.4319922435
  0
LINE
  8
0
 62
7
  6
CONTINUOUS
 10
230.8339253238
 20
482.5546677459
 11
231.2460116027
 21
482.3155292496
  0
LINE
  8
0
 62
7
  6
CONTINUOUS
 10
229.9255647957
 20
485.8354962864
 11
230.3376510746
 21
485.5963577901
  0
LINE
  8
0
 62
7
  6
CONTINUOUS
 10
255.0907033889
 20
490.5948340667
 11
254.3424733898
 21
491.1848772708
  0
LINE
  8
0
 62
7
  6
CONTINUOUS
 10
262.1982565117
 20
491.2353415417
 11
261.6572978991
 21
491.70236958
  0
LINE
  8
0
 62
7
  6
CONTINUOUS
 10
294.1270489131
 20
490.6664600254
 11
294.4222478603
 21
490.2924815457
  0
LINE
  8
0
 62
7
  6
CONTINUOUS
 10
309.4176052425
 20
484.8801336169
 11
309.676624969
 21
484.4802447536
  0
LINE
  8
0
 62
7
  6
CONTINUOUS
 10
310.4314847199
 20
484.848183905
 11
310.0429588688
 21
485.4480164417
  0
LINE
  8
0
 62
7
  6
CONTINUOUS
 10
193.65555373
 20
464.5961920664
 11
192.9073780759
 21
464.5723774104
  0
LINE
  8
0
 62
7
  6
CONTINUOUS
 10
198.7040377278
 20
471.6788765275
 11
199.0783066704
 21
471.6764195774
  0
LINE
  8
0
 62
7
  6
CONTINUOUS
 10
199.4447848058
 20
472.4319922435
 11
198.8451749056
 21
472.5117260683
  0
LINE
  8
0
 62
7
  6
CONTINUOUS
 10
231.5007931843
 20
483.2691517196
 11
231.1341249255
 21
483.3442488119
  0
LINE
  8
0
 62
7
  6
CONTINUOUS
 10
254.3424733898
 20
491.1848772708
 11
253.6377535272
 21
491.4372869706
  0
LINE
  8
0
 62
7
  6
CONTINUOUS
 10
230.5924326562
 20
486.5499802602
 11
229.8136817948
 21
486.8642168666
  0
LINE
  8
0
 62
7
  6
CONTINUOUS
 10
258.5587133122
 20
484.7806461453
 11
259.4318397597
 21
484.3414988529
  0
LINE
  8
0
 62
7
  6
CONTINUOUS
 10
261.6572978991
 20
491.70236958
 11
260.7841714554
 21
492.1415168279
  0
LINE
  8
0
 62
7
  6
CONTINUOUS
 10
253.4159542725
 20
490.5505952088
 11
253.9553698118
 21
490.276879314
  0
LINE
  8
0
 62
7
  6
CONTINUOUS
 10
259.5267354199
 20
485.2035205411
 11
259.0000136964
 21
485.5009322778
  0
LINE
  8
0
 62
7
  6
CONTINUOUS
 10
260.6892757864
 20
491.2794952436
 11
261.2159975099
 21
490.9820835069
  0
LINE
  8
0
 62
7
  6
CONTINUOUS
 10
305.2151165048
 20
482.6062454297
 11
305.930319675
 21
481.9401584628
  0
LINE
  8
0
 62
7
  6
CONTINUOUS
 10
310.0429588688
 20
485.4480164417
 11
309.3277482126
 21
486.1141048813
  0
LINE
  8
0
 62
7
  6
CONTINUOUS
 10
310.4547734678
 20
488.3170242659
 11
309.7395628116
 21
488.9831127055
  0
LINE
  8
0
 62
7
  6
CONTINUOUS
 10
294.9918912149
 20
490.9162319037
 11
294.3833720739
 21
491.4949434815
  0
LINE
  8
0
 62
7
  6
CONTINUOUS
 10
306.2628285334
 20
482.7411122564
 11
305.8404701429
 21
483.1741283129
  0
LINE
  8
0
 62
7
  6
CONTINUOUS
 10
308.9952468521
 20
485.3131496734
 11
309.4176052425
 21
484.8801336169
  0
LINE
  8
0
 62
7
  6
CONTINUOUS
 10
309.4070614511
 20
488.1821574976
 11
309.8294198415
 21
487.7491414411
  0
LINE
  8
0
 62
7
  6
CONTINUOUS
 10
251.9630044108
 20
491.3930481127
 11
250.8276670504
 21
491.0750928723
  0
LINE
  8
0
 62
7
  6
CONTINUOUS
 10
227.2448192724
 20
478.0286290193
 11
231.0997927271
 21
479.0959526176
  0
LINE
  8
0
 62
7
  6
CONTINUOUS
 10
230.987906018
 20
480.1246722948
 11
227.936054484
 21
479.279708458
  0
LINE
  8
0
 62
7
  6
CONTINUOUS
 10
227.2547840879
 20
481.7403298634
 11
230.3066356219
 21
482.5852937002
  0
LINE
  8
0
 62
7
  6
CONTINUOUS
 10
230.0341275017
 20
483.5695421245
 11
226.9822759676
 21
482.7245782877
  0
LINE
  8
0
 62
7
  6
CONTINUOUS
 10
226.3464235598
 20
485.021158404
 11
229.3982750938
 21
485.8661222407
  0
LINE
  8
0
 62
7
  6
CONTINUOUS
 10
228.9651455305
 20
486.805899527
 11
225.1101720758
 21
485.7385759287
  0
LINE
  8
0
 62
7
  6
CONTINUOUS
 10
193.3183405225
 20
463.8271126824
 11
193.9843236757
 21
463.9999803049
  0
LINE
  8
0
 62
7
  6
CONTINUOUS
 10
260.4425725408
 20
484.2555242696
 11
261.4248315414
 21
484.5087823192
  0
LINE
  8
0
 62
7
  6
CONTINUOUS
 10
259.7734386755
 20
492.2274913963
 11
258.7911796737
 21
491.9742333615
  0
LINE
  8
0
 62
7
  6
CONTINUOUS
 10
293.8914726553
 20
488.46626959
 11
293.3761930407
 21
488.3502553769
  0
LINE
  8
0
 62
7
  6
CONTINUOUS
 10
198.0319111109
 20
471.5316927718
 11
198.7040377278
 21
471.6788765275
  0
LINE
  8
0
 62
7
  6
CONTINUOUS
 10
242.290079373
 20
481.7444575253
 11
248.8553278662
 21
482.9028714226
  0
LINE
  8
0
 62
7
  6
CONTINUOUS
 10
248.6778686488
 20
483.9086119985
 11
243.0974078051
 21
482.9239602521
  0
LINE
  8
0
 62
7
  6
CONTINUOUS
 10
241.0478648299
 20
488.7846416739
 11
246.7924582007
 21
489.7982539997
  0
LINE
  8
0
 62
7
  6
CONTINUOUS
 10
247.4652306592
 20
490.7811726199
 11
240.899982166
 21
489.6227587226
  0
LINE
  8
0
 62
7
  6
CONTINUOUS
 10
198.8451749056
 20
472.5117260683
 11
198.3219771259
 21
472.4393626655
  0
LINE
  8
0
 62
7
  6
CONTINUOUS
 10
250.1755840822
 20
483.0964886366
 11
256.1263543322
 21
483.8634877601
  0
LINE
  8
0
 62
7
  6
CONTINUOUS
 10
256.0175600588
 20
484.7075692009
 11
251.3891827773
 21
484.1110142728
  0
LINE
  8
0
 62
7
  6
CONTINUOUS
 10
249.5575620583
 20
489.1951803244
 11
250.384060974
 21
489.3017083733
  0
LINE
  8
0
 62
7
  6
CONTINUOUS
 10
251.9065019125
 20
490.5276615705
 11
252.567696505
 21
490.6128834244
  0
LINE
  8
0
 62
7
  6
CONTINUOUS
 10
252.6241990034
 20
491.4782699666
 11
251.9630044108
 21
491.3930481127
  0
LINE
  8
0
 62
7
  6
CONTINUOUS
 10
308.3862610735
 20
482.310452679
 11
307.8624050652
 21
482.2430192948
  0
LINE
  8
0
 62
7
  6
CONTINUOUS
 10
306.8718143119
 20
485.7438092508
 11
307.3956703203
 21
485.811242635
  0
LINE
  8
0
 62
7
  6
CONTINUOUS
 10
307.4469675749
 20
488.5796898818
 11
307.9708235832
 21
488.6471232659
  0
LINE
  8
0
 62
7
  6
CONTINUOUS
 10
293.1017486333
 20
487.3525265392
 11
293.9484621023
 21
487.4330538481
  0
LINE
  8
0
 62
7
  6
CONTINUOUS
 10
229.8136817948
 20
486.8642168666
 11
228.9651455305
 21
486.805899527
  0
LINE
  8
0
 62
7
  6
CONTINUOUS
 10
307.529903681
 20
481.4420639701
 11
308.3804370202
 21
481.4432429825
  0
LINE
  8
0
 62
7
  6
CONTINUOUS
 10
307.7281716808
 20
486.6121978428
 11
306.8776308673
 21
486.6110203615
  0
LINE
  8
0
 62
7
  6
CONTINUOUS
 10
308.3033249437
 20
489.4480784738
 11
307.4527841303
 21
489.4469009925
  0
LINE
  8
0
 62
7
  6
CONTINUOUS
 10
253.6377535272
 20
491.4372869706
 11
252.6241990034
 21
491.4782699666
  0
LINE
  8
0
 62
7
  6
CONTINUOUS
 10
230.3066356219
 20
482.5852937002
 11
230.8339253238
 21
482.5546677459
  0
LINE
  8
0
 62
7
  6
CONTINUOUS
 10
229.3982750938
 20
485.8661222407
 11
229.9255647957
 21
485.8354962864
  0
LINE
  8
0
 62
7
  6
CONTINUOUS
 10
252.567696505
 20
490.6128834244
 11
253.4159542725
 21
490.5505952088
  0
LINE
  8
0
 62
7
  6
CONTINUOUS
 10
259.4318397597
 20
484.3414988529
 11
260.4425725408
 21
484.2555242696
  0
LINE
  8
0
 62
7
  6
CONTINUOUS
 10
260.7841714554
 20
492.1415168279
 11
259.7734386755
 21
492.2274913963
  0
LINE
  8
0
 62
7
  6
CONTINUOUS
 10
288.7439354592
 20
484.224222399
 11
289.7382521948
 21
484.1177600619
  0
LINE
  8
0
 62
7
  6
CONTINUOUS
 10
290.1187984263
 20
487.6719135504
 11
293.1017486333
 21
487.3525265392
  0
LINE
  8
0
 62
7
  6
CONTINUOUS
 10
293.3761930407
 20
488.3502553769
 11
290.2275259065
 21
488.6873858402
  0
LINE
  8
0
 62
7
  6
CONTINUOUS
 10
290.4993446578
 20
491.2260670389
 11
293.648011792
 21
490.8889365756
  0
LINE
  8
0
 62
7
  6
CONTINUOUS
 10
293.5729010983
 20
491.7529069359
 11
289.5956341557
 21
492.1787562842
  0
LINE
  8
0
 62
7
  6
CONTINUOUS
 10
260.3713880856
 20
485.1036058965
 11
259.5267354199
 21
485.2035205411
  0
LINE
  8
0
 62
7
  6
CONTINUOUS
 10
259.8446231207
 20
491.3794098882
 11
260.6892757864
 21
491.2794952436
  0
LINE
  8
0
 62
7
  6
CONTINUOUS
 10
296.1994220424
 20
483.4003454815
 11
297.1876435072
 21
483.2473149735
  0
LINE
  8
0
 62
7
  6
CONTINUOUS
 10
301.7993411634
 20
482.5331729919
 11
302.7875626283
 21
482.3801424839
  0
LINE
  8
0
 62
7
  6
CONTINUOUS
 10
298.1590282557
 20
485.1637899259
 11
301.4531023184
 21
484.6536878434
  0
LINE
  8
0
 62
7
  6
CONTINUOUS
 10
301.3925846864
 20
485.3520252619
 11
298.4279202918
 21
485.8111167859
  0
LINE
  8
0
 62
7
  6
CONTINUOUS
 10
301.3765519659
 20
490.6939951684
 11
300.0589208329
 21
490.8980362349
  0
LINE
  8
0
 62
7
  6
CONTINUOUS
 10
306.7131954069
 20
481.607702969
 11
307.529903681
 21
481.4420639701
  0
LINE
  8
0
 62
7
  6
CONTINUOUS
 10
307.8624050652
 20
482.2430192948
 11
306.7190194631
 21
482.4749126802
  0
LINE
  8
0
 62
7
  6
CONTINUOUS
 10
307.3956703203
 20
485.811242635
 11
308.5390559224
 21
485.5793492497
  0
LINE
  8
0
 62
7
  6
CONTINUOUS
 10
308.5448799549
 20
486.4465588439
 11
307.7281716808
 21
486.6121978428
  0
LINE
  8
0
 62
7
  6
CONTINUOUS
 10
310.0545995515
 20
487.182437614
 11
310.8713078257
 21
487.0167986151
  0
LINE
  8
0
 62
7
  6
CONTINUOUS
 10
307.9708235832
 20
488.6471232659
 11
308.9508705213
 21
488.4483570738
  0
LINE
  8
0
 62
7
  6
CONTINUOUS
 10
308.9566870767
 20
489.3155681846
 11
308.3033249437
 21
489.4480784738
  0
LINE
  8
0
 62
7
  6
CONTINUOUS
 10
294.3833720739
 20
491.4949434815
 11
293.5729010983
 21
491.7529069359
  0
LINE
  8
0
 62
7
  6
CONTINUOUS
 10
305.930319675
 20
481.9401584628
 11
306.7131954069
 21
481.607702969
  0
LINE
  8
0
 62
7
  6
CONTINUOUS
 10
309.3277482126
 20
486.1141048813
 11
308.5448799549
 21
486.4465588439
  0
LINE
  8
0
 62
7
  6
CONTINUOUS
 10
309.7395628116
 20
488.9831127055
 11
308.9566870767
 21
489.3155681846
  0
LINE
  8
0
 62
7
  6
CONTINUOUS
 10
293.648011792
 20
490.8889365756
 11
294.1270489131
 21
490.6664600254
  0
LINE
  8
0
 62
7
  6
CONTINUOUS
 10
306.7190194631
 20
482.4749126802
 11
306.2628285334
 21
482.7411122564
  0
LINE
  8
0
 62
7
  6
CONTINUOUS
 10
308.5390559224
 20
485.5793492497
 11
308.9952468521
 21
485.3131496734
  0
LINE
  8
0
 62
7
  6
CONTINUOUS
 10
308.9508705213
 20
488.4483570738
 11
309.4070614511
 21
488.1821574976
  0
LINE
  8
0
 62
7
  6
CONTINUOUS
 10
459.7049585141
 20
351.5836663469
 11
459.7049585141
 21
349.2079181593
  0
LINE
  8
0
 62
7
  6
CONTINUOUS
 10
459.7049585141
 20
288.0837382132
 11
459.7049585141
 21
321.0837022801
  0
LINE
  8
0
 62
7
  6
CONTINUOUS
 10
460.4391050784
 20
292.7189571957
 11
459.7049585141
 21
290.4594864008
  0
LINE
  8
0
 62
7
  6
CONTINUOUS
 10
440.8165481435
 20
232.3269367599
 11
451.0140978539
 21
263.7117676232
  0
LINE
  8
0
 62
7
  6
CONTINUOUS
 10
442.9471244557
 20
236.5084282129
 11
441.5506947078
 21
234.5864075548
  0
LINE
  8
0
 62
7
  6
CONTINUOUS
 10
405.6228031771
 20
185.1359072112
 11
425.0196953817
 21
211.833438955
  0
LINE
  8
0
 62
7
  6
CONTINUOUS
 10
408.941253583
 20
188.4543576171
 11
407.0192329249
 21
187.0579278693
  0
LINE
  8
0
 62
7
  6
CONTINUOUS
 10
357.5687325813
 20
151.1300363385
 11
384.2662643251
 21
170.5269285432
  0
LINE
  8
0
 62
7
  6
CONTINUOUS
 10
361.7502240343
 20
153.2606126506
 11
359.4907532394
 21
152.5264660863
  0
LINE
  8
0
 62
7
  6
CONTINUOUS
 10
301.3582035985
 20
133.6380557157
 11
332.7430344617
 21
143.8356054262
  0
LINE
  8
0
 62
7
  6
CONTINUOUS
 10
305.9934225809
 20
505.2952022801
 11
272.9934585141
 21
505.2952022801
  0
LINE
  8
0
 62
7
  6
CONTINUOUS
 10
242.4934944473
 20
505.2952022801
 11
244.8692426349
 21
505.2952022801
  0
LINE
  8
0
 62
7
  6
CONTINUOUS
 10
361.7502240343
 20
486.4067919095
 11
330.365393171
 21
496.6043416199
  0
LINE
  8
0
 62
7
  6
CONTINUOUS
 10
301.3582035985
 20
506.0293488444
 11
303.6176743933
 21
505.2952022801
  0
LINE
  8
0
 62
7
  6
CONTINUOUS
 10
357.5687325813
 20
488.5373682216
 11
359.4907532394
 21
487.1409384738
  0
LINE
  8
0
 62
7
  6
CONTINUOUS
 10
408.941253583
 20
451.213046943
 11
382.2437218392
 21
470.6099391477
  0
LINE
  8
0
 62
7
  6
CONTINUOUS
 10
405.6228031771
 20
454.531497349
 11
407.0192329249
 21
452.6094766909
  0
LINE
  8
0
 62
7
  6
CONTINUOUS
 10
442.9471244557
 20
403.1589763472
 11
423.550232251
 21
429.8565080911
  0
LINE
  8
0
 62
7
  6
CONTINUOUS
 10
440.8165481435
 20
407.3404678002
 11
441.5506947078
 21
405.0809970053
  0
LINE
  8
0
 62
7
  6
CONTINUOUS
 10
460.4391050784
 20
346.9484473644
 11
450.241555368
 21
378.3332782277
  0
LINE
  8
0
 62
7
  6
CONTINUOUS
 10
606.1416079176
 20
116.8324901927
 11
638.1416079176
 21
116.8324901927
  0
LINE
  8
0
 62
7
  6
CONTINUOUS
 10
622.1416079176
 20
122.1468473156
 11
638.1416079176
 21
122.1468473156
  0
LINE
  8
0
 62
7
  6
CONTINUOUS
 10
622.1416079176
 20
131.1935321667
 11
606.1416079176
 21
131.1935321667
  0
LINE
  8
0
 62
7
  6
CONTINUOUS
 10
622.1416079176
 20
146.6163972329
 11
638.1416079176
 21
146.6163972329
  0
LINE
  8
0
 62
7
  6
CONTINUOUS
 10
622.1416079176
 20
163.1875742854
 11
606.1416079176
 21
163.1875742854
  0
LINE
  8
0
 62
7
  6
CONTINUOUS
 10
622.1416079176
 20
187.8458899093
 11
638.1416079176
 21
187.8458899093
  0
LINE
  8
0
 62
7
  6
CONTINUOUS
 10
622.1416079176
 20
208.9740274744
 11
606.1416079176
 21
208.9740274744
  0
LINE
  8
0
 62
7
  6
CONTINUOUS
 10
622.1416079176
 20
241.7994953389
 11
638.1416079176
 21
241.7994953389
  0
LINE
  8
0
 62
7
  6
CONTINUOUS
 10
622.1416079176
 20
264.0704783015
 11
606.1416079176
 21
264.0704783015
  0
LINE
  8
0
 62
7
  6
CONTINUOUS
 10
605.6416079176
 20
140.3357854873
 11
605.6416079176
 21
499.3316190729
  0
LINE
  8
0
 62
7
  6
CONTINUOUS
 10
606.1416079176
 20
116.8332566007
 11
606.1416079176
 21
397.8660049732
  0
LINE
  8
0
 62
7
  6
CONTINUOUS
 10
606.1416079176
 20
397.9256722929
 11
606.1416079176
 21
522.8341479595
  0
LINE
  8
0
 62
7
  6
CONTINUOUS
 10
622.1416079176
 20
116.8332566007
 11
622.1416079176
 21
241.7417322672
  0
LINE
  8
0
 62
7
  6
CONTINUOUS
 10
622.1416079176
 20
241.801399587
 11
622.1416079176
 21
261.3341263324
  0
LINE
  8
0
 62
7
  6
CONTINUOUS
 10
622.1416079176
 20
263.7117676232
 11
622.1416079176
 21
318.5837022801
  0
LINE
  8
0
 62
7
  6
CONTINUOUS
 10
622.1416079176
 20
321.0837022801
 11
622.1416079176
 21
375.955636937
  0
LINE
  8
0
 62
7
  6
CONTINUOUS
 10
622.1416079176
 20
378.3332782277
 11
622.1416079176
 21
397.8660049732
  0
LINE
  8
0
 62
7
  6
CONTINUOUS
 10
622.1416079176
 20
397.9256722929
 11
622.1416079176
 21
522.8348670387
  0
LINE
  8
0
 62
7
  6
CONTINUOUS
 10
622.1416079176
 20
316.5837022801
 11
638.1416079176
 21
316.5837022801
  0
LINE
  8
DEFAULT_1
 62
2
  6
CENTER
 10
603.6416079176
 20
319.8337022801
 11
640.6416079176
 21
319.8337022801
  0
LINE
  8
0
 62
7
  6
CONTINUOUS
 10
622.1416079176
 20
323.0837022801
 11
606.1416079176
 21
323.0837022801
  0
LINE
  8
0
 62
7
  6
CONTINUOUS
 10
638.1416079176
 20
522.8348670387
 11
638.1416079176
 21
241.801399587
  0
LINE
  8
0
 62
7
  6
CONTINUOUS
 10
638.1416079176
 20
241.7417322672
 11
638.1416079176
 21
116.8332566007
  0
LINE
  8
0
 62
7
  6
CONTINUOUS
 10
638.6416079176
 20
499.3316190729
 11
638.6416079176
 21
140.3337022801
  0
LINE
  8
0
 62
7
  6
CONTINUOUS
 10
622.1416079176
 20
375.5969262587
 11
638.1416079176
 21
375.5969262587
  0
LINE
  8
0
 62
7
  6
CONTINUOUS
 10
622.1416079176
 20
397.8679092212
 11
606.1416079176
 21
397.8679092212
  0
LINE
  8
0
 62
7
  6
CONTINUOUS
 10
622.1416079176
 20
430.6933770857
 11
638.1416079176
 21
430.6933770857
  0
LINE
  8
0
 62
7
  6
CONTINUOUS
 10
622.1416079176
 20
451.8215146508
 11
606.1416079176
 21
451.8215146508
  0
LINE
  8
0
 62
7
  6
CONTINUOUS
 10
622.1416079176
 20
476.4798302747
 11
638.1416079176
 21
476.4798302747
  0
LINE
  8
0
 62
7
  6
CONTINUOUS
 10
622.1416079176
 20
493.0510073272
 11
606.1416079176
 21
493.0510073272
  0
LINE
  8
0
 62
7
  6
CONTINUOUS
 10
622.1416079176
 20
508.4738723934
 11
638.1416079176
 21
508.4738723934
  0
LINE
  8
0
 62
7
  6
CONTINUOUS
 10
622.1416079176
 20
517.5205572445
 11
606.1416079176
 21
517.5205572445
  0
LINE
  8
0
 62
7
  6
CONTINUOUS
 10
606.1416079176
 20
522.8349143674
 11
638.1416079176
 21
522.8349143674
  0
ARC
  8
0
 62
7
  6
CONTINUOUS
 10
133.3473305194
 20
193.9813816882
 40
15.75
 50
126.0
 51
197.5034387369
  0
ARC
  8
0
 62
7
  6
CONTINUOUS
 10
148.3911379222
 20
178.9375742854
 40
15.75
 50
252.4965612631
 51
324.0
  0
ARC
  8
0
 62
7
  6
CONTINUOUS
 10
130.7288846608
 20
176.3191027015
 40
15.0
 50
54.0
 51
121.0
  0
ARC
  8
0
 62
7
  6
CONTINUOUS
 10
130.7288589355
 20
176.3191284268
 40
15.0
 50
329.0
 51
36.0
  0
ARC
  8
0
 62
7
  6
CONTINUOUS
 10
163.0450821985
 20
168.9088945544
 40
2.0
 50
54.0
 51
144.0
  0
ARC
  8
0
 62
7
  6
CONTINUOUS
 10
121.8491876577
 20
210.6578684504
 40
2.0
 50
36.0
 51
126.0
  0
ARC
  8
0
 62
7
  6
CONTINUOUS
 10
167.9401745691
 20
148.6163972329
 40
2.0
 50
215.5034387369
 51
319.0
  0
ARC
  8
0
 62
7
  6
CONTINUOUS
 10
120.233970624
 20
189.8458899093
 40
2.0
 50
197.5034387369
 51
301.0
  0
ARC
  8
0
 62
7
  6
CONTINUOUS
 10
144.2556461434
 20
165.82421439
 40
2.0
 50
149.0
 51
252.4965612631
  0
ARC
  8
0
 62
7
  6
CONTINUOUS
 10
103.0261534669
 20
213.5304183351
 40
2.0
 50
131.0
 51
234.4965612631
  0
ARC
  8
0
 62
7
  6
CONTINUOUS
 10
165.0676246844
 20
167.4394314237
 40
2.0
 50
324.0
 51
54.0
  0
ARC
  8
0
 62
7
  6
CONTINUOUS
 10
123.3186507884
 20
208.6353259645
 40
2.0
 50
306.0
 51
36.0
  0
ARC
  8
0
 62
7
  6
CONTINUOUS
 10
101.3527720196
 20
243.6803306822
 40
15.75
 50
108.0
 51
179.5034387369
  0
ARC
  8
0
 62
7
  6
CONTINUOUS
 10
86.2819585141
 20
300.8337022801
 40
15.75
 50
90.0
 51
161.5034387369
  0
ARC
  8
0
 62
7
  6
CONTINUOUS
 10
111.0114909323
 20
224.7240274744
 40
15.75
 50
234.4965612631
 51
306.0
  0
ARC
  8
0
 62
7
  6
CONTINUOUS
 10
89.6101262334
 20
279.8204783015
 40
15.75
 50
216.4965612631
 51
288.0
  0
ARC
  8
0
 62
7
  6
CONTINUOUS
 10
93.4045376569
 20
227.6916494285
 40
15.0
 50
36.0
 51
103.0
  0
ARC
  8
0
 62
7
  6
CONTINUOUS
 10
73.7819642054
 20
288.0837022801
 40
15.0
 50
18.0
 51
85.0
  0
ARC
  8
0
 62
7
  6
CONTINUOUS
 10
93.4045211402
 20
227.6916818443
 40
15.0
 50
311.0
 51
18.0
  0
ARC
  8
0
 62
7
  6
CONTINUOUS
 10
73.7819585141
 20
288.0837382132
 40
15.0
 50
293.0
 51
360.0
  0
ARC
  8
0
 62
7
  6
CONTINUOUS
 10
95.5707061417
 20
263.0937336344
 40
2.0
 50
18.0
 51
108.0
  0
ARC
  8
0
 62
7
  6
CONTINUOUS
 10
87.6032884008
 20
243.7994953389
 40
2.0
 50
179.5034387369
 51
283.0
  0
ARC
  8
0
 62
7
  6
CONTINUOUS
 10
73.2422464268
 20
305.1958587054
 40
2.0
 50
161.5034387369
 51
265.0
  0
ARC
  8
0
 62
7
  6
CONTINUOUS
 10
78.5566035497
 20
271.6423283713
 40
2.0
 50
113.0
 51
216.4965612631
  0
ARC
  8
0
 62
7
  6
CONTINUOUS
 10
96.3432486276
 20
260.7160923437
 40
2.0
 50
288.0
 51
18.0
  0
ARC
  8
0
 62
7
  6
CONTINUOUS
 10
86.7819585141
 20
318.5837022801
 40
2.0
 50
270.0
 51
360.0
  0
ARC
  8
0
 62
7
  6
CONTINUOUS
 10
234.2302345355
 20
135.2003699993
 40
15.75
 50
162.0
 51
233.5034387369
  0
ARC
  8
0
 62
7
  6
CONTINUOUS
 10
179.1337837085
 20
156.6017346983
 40
15.75
 50
144.0
 51
215.5034387369
  0
ARC
  8
0
 62
7
  6
CONTINUOUS
 10
255.2434585141
 20
131.8722022801
 40
15.75
 50
288.4965612631
 51
360.0
  0
ARC
  8
0
 62
7
  6
CONTINUOUS
 10
198.0900869163
 20
146.9430157856
 40
15.75
 50
270.4965612631
 51
342.0
  0
ARC
  8
0
 62
7
  6
CONTINUOUS
 10
242.4934944473
 20
119.3722022801
 40
15.0
 50
90.0
 51
157.0
  0
ARC
  8
0
 62
7
  6
CONTINUOUS
 10
182.1014380783
 20
138.9947649062
 40
15.0
 50
72.0
 51
139.0
  0
ARC
  8
0
 62
7
  6
CONTINUOUS
 10
242.4934585141
 20
119.3722079713
 40
15.0
 50
5.0
 51
72.0
  0
ARC
  8
0
 62
7
  6
CONTINUOUS
 10
182.1014056625
 20
138.9947814229
 40
15.0
 50
347.0
 51
54.0
  0
ARC
  8
0
 62
7
  6
CONTINUOUS
 10
272.9934585141
 20
132.3722022801
 40
2.0
 50
90.0
 51
180.0
  0
ARC
  8
0
 62
7
  6
CONTINUOUS
 10
215.1258485777
 20
141.9334923936
 40
2.0
 50
72.0
 51
162.0
  0
ARC
  8
0
 62
7
  6
CONTINUOUS
 10
226.0520846053
 20
124.1468473156
 40
2.0
 50
233.5034387369
 51
337.0
  0
ARC
  8
0
 62
7
  6
CONTINUOUS
 10
259.6056149395
 20
118.8324901927
 40
2.0
 50
185.0
 51
288.4965612631
  0
ARC
  8
0
 62
7
  6
CONTINUOUS
 10
198.209251573
 20
133.1935321667
 40
2.0
 50
167.0
 51
270.4965612631
  0
ARC
  8
0
 62
7
  6
CONTINUOUS
 10
217.5034898684
 20
141.1609499076
 40
2.0
 50
342.0
 51
72.0
  0
ARC
  8
DEFAULT_3
 62
2
  6
PHANTOM
 10
264.006558085
 20
289.9069375378
 40
3.2
 50
225.0
 51
266.4096221093
  0
ARC
  8
DEFAULT_3
 62
2
  6
PHANTOM
 10
244.3166937718
 20
309.596801851
 40
3.2
 50
183.5903778907
 51
225.0
  0
ARC
  8
DEFAULT_3
 62
2
  6
PHANTOM
 10
237.9292553127
 20
309.1960152107
 40
3.2
 50
3.5903778907
 51
45.0
  0
ARC
  8
DEFAULT_3
 62
2
  6
PHANTOM
 10
233.6866146256
 20
313.4386558978
 40
3.2
 50
45.0
 51
87.7455692247
  0
ARC
  8
DEFAULT_3
 62
2
  6
PHANTOM
 10
267.8484121318
 20
279.2768583915
 40
3.2
 50
2.2544307753
 51
45.0
  0
ARC
  8
DEFAULT_3
 62
2
  6
PHANTOM
 10
263.6057714447
 20
283.5194990787
 40
3.2
 50
45.0
 51
86.4096221093
  0
ARC
  8
0
 62
7
  6
CONTINUOUS
 10
89.6101262334
 20
359.8469262587
 40
15.75
 50
72.0
 51
143.5034387369
  0
ARC
  8
0
 62
7
  6
CONTINUOUS
 10
111.0114909323
 20
414.9433770857
 40
15.75
 50
54.0
 51
125.5034387369
  0
ARC
  8
0
 62
7
  6
CONTINUOUS
 10
86.2819585141
 20
338.8337022801
 40
15.75
 50
198.4965612631
 51
270.0
  0
ARC
  8
0
 62
7
  6
CONTINUOUS
 10
101.3527720196
 20
395.9870738779
 40
15.75
 50
180.4965612631
 51
252.0
  0
ARC
  8
0
 62
7
  6
CONTINUOUS
 10
73.7819585141
 20
351.5836663469
 40
15.0
 50
0.0
 51
67.0
  0
ARC
  8
0
 62
7
  6
CONTINUOUS
 10
93.4045211402
 20
411.9757227158
 40
15.0
 50
342.0
 51
49.0
  0
ARC
  8
0
 62
7
  6
CONTINUOUS
 10
73.7819642054
 20
351.5837022801
 40
15.0
 50
275.0
 51
342.0
  0
ARC
  8
0
 62
7
  6
CONTINUOUS
 10
93.4045376569
 20
411.9757551316
 40
15.0
 50
257.0
 51
324.0
  0
ARC
  8
0
 62
7
  6
CONTINUOUS
 10
86.7819585141
 20
321.0837022801
 40
2.0
 50
0.0
 51
90.0
  0
ARC
  8
0
 62
7
  6
CONTINUOUS
 10
96.3432486276
 20
378.9513122164
 40
2.0
 50
342.0
 51
72.0
  0
ARC
  8
0
 62
7
  6
CONTINUOUS
 10
78.5566035497
 20
368.0250761888
 40
2.0
 50
143.5034387369
 51
247.0
  0
ARC
  8
0
 62
7
  6
CONTINUOUS
 10
73.2422464268
 20
334.4715458547
 40
2.0
 50
95.0
 51
198.4965612631
  0
ARC
  8
0
 62
7
  6
CONTINUOUS
 10
87.6032884008
 20
395.8679092212
 40
2.0
 50
77.0
 51
180.4965612631
  0
ARC
  8
0
 62
7
  6
CONTINUOUS
 10
95.5707061417
 20
376.5736709257
 40
2.0
 50
252.0
 51
342.0
  0
ARC
  8
0
 62
7
  6
CONTINUOUS
 10
148.3911379222
 20
460.7298302747
 40
15.75
 50
36.0
 51
107.5034387369
  0
ARC
  8
0
 62
7
  6
CONTINUOUS
 10
133.3473305194
 20
445.686022872
 40
15.75
 50
162.4965612631
 51
234.0
  0
ARC
  8
0
 62
7
  6
CONTINUOUS
 10
130.7288589355
 20
463.3482761333
 40
15.0
 50
324.0
 51
31.0
  0
ARC
  8
0
 62
7
  6
CONTINUOUS
 10
130.7288846608
 20
463.3483018587
 40
15.0
 50
239.0
 51
306.0
  0
ARC
  8
0
 62
7
  6
CONTINUOUS
 10
123.3186507884
 20
431.0320785957
 40
2.0
 50
324.0
 51
54.0
  0
ARC
  8
0
 62
7
  6
CONTINUOUS
 10
165.0676246844
 20
472.2279731364
 40
2.0
 50
306.0
 51
36.0
  0
ARC
  8
0
 62
7
  6
CONTINUOUS
 10
103.0261534669
 20
426.136986225
 40
2.0
 50
125.5034387369
 51
229.0
  0
ARC
  8
0
 62
7
  6
CONTINUOUS
 10
144.2556461434
 20
473.8431901701
 40
2.0
 50
107.5034387369
 51
211.0
  0
ARC
  8
0
 62
7
  6
CONTINUOUS
 10
120.233970624
 20
449.8215146508
 40
2.0
 50
59.0
 51
162.4965612631
  0
ARC
  8
0
 62
7
  6
CONTINUOUS
 10
167.9401745691
 20
491.0510073272
 40
2.0
 50
41.0
 51
144.4965612631
  0
ARC
  8
0
 62
7
  6
CONTINUOUS
 10
121.8491876577
 20
429.0095361097
 40
2.0
 50
234.0
 51
324.0
  0
ARC
  8
0
 62
7
  6
CONTINUOUS
 10
163.0450821985
 20
470.7585100057
 40
2.0
 50
216.0
 51
306.0
  0
ARC
  8
DEFAULT_3
 62
2
  6
PHANTOM
 10
233.9383719865
 20
319.8337022801
 40
3.2
 50
92.2544307753
 51
267.7455692247
  0
ARC
  8
DEFAULT_3
 62
2
  6
PHANTOM
 10
233.6866146256
 20
326.2287486623
 40
3.2
 50
272.2544307753
 51
315.0
  0
ARC
  8
DEFAULT_3
 62
2
  6
PHANTOM
 10
237.9292553127
 20
330.4713893494
 40
3.2
 50
315.0
 51
356.4096221093
  0
ARC
  8
DEFAULT_3
 62
2
  6
PHANTOM
 10
244.3166937718
 20
330.0706027092
 40
3.2
 50
135.0
 51
176.4096221093
  0
ARC
  8
DEFAULT_3
 62
2
  6
PHANTOM
 10
264.006558085
 20
349.7604670224
 40
3.2
 50
93.5903778907
 51
135.0
  0
ARC
  8
DEFAULT_3
 62
2
  6
PHANTOM
 10
263.6057714447
 20
356.1479054815
 40
3.2
 50
273.5903778907
 51
315.0
  0
ARC
  8
DEFAULT_3
 62
2
  6
PHANTOM
 10
267.8484121318
 20
360.3905461686
 40
3.2
 50
315.0
 51
357.7455692247
  0
ARC
  8
0
 62
7
  6
CONTINUOUS
 10
255.2434585141
 20
507.7952022801
 40
15.75
 50
0.0
 51
71.5034387369
  0
ARC
  8
0
 62
7
  6
CONTINUOUS
 10
198.0900869163
 20
492.7243887745
 40
15.75
 50
18.0
 51
89.5034387369
  0
ARC
  8
0
 62
7
  6
CONTINUOUS
 10
179.1337837085
 20
483.0656698618
 40
15.75
 50
144.4965612631
 51
216.0
  0
ARC
  8
0
 62
7
  6
CONTINUOUS
 10
234.2302345355
 20
504.4670345608
 40
15.75
 50
126.4965612631
 51
198.0
  0
ARC
  8
0
 62
7
  6
CONTINUOUS
 10
242.4934585141
 20
520.2951965888
 40
15.0
 50
288.0
 51
355.0
  0
ARC
  8
0
 62
7
  6
CONTINUOUS
 10
182.1014056625
 20
500.6726231373
 40
15.0
 50
306.0
 51
13.0
  0
ARC
  8
0
 62
7
  6
CONTINUOUS
 10
182.1014380783
 20
500.6726396539
 40
15.0
 50
221.0
 51
288.0
  0
ARC
  8
0
 62
7
  6
CONTINUOUS
 10
242.4934944473
 20
520.2952022801
 40
15.0
 50
203.0
 51
270.0
  0
ARC
  8
0
 62
7
  6
CONTINUOUS
 10
217.5034898684
 20
498.5064546525
 40
2.0
 50
288.0
 51
18.0
  0
ARC
  8
0
 62
7
  6
CONTINUOUS
 10
259.6056149395
 20
520.8349143674
 40
2.0
 50
71.5034387369
 51
175.0
  0
ARC
  8
0
 62
7
  6
CONTINUOUS
 10
198.209251573
 20
506.4738723934
 40
2.0
 50
89.5034387369
 51
193.0
  0
ARC
  8
0
 62
7
  6
CONTINUOUS
 10
226.0520846053
 20
515.5205572445
 40
2.0
 50
23.0
 51
126.4965612631
  0
ARC
  8
0
 62
7
  6
CONTINUOUS
 10
272.9934585141
 20
507.2952022801
 40
2.0
 50
180.0
 51
270.0
  0
ARC
  8
0
 62
7
  6
CONTINUOUS
 10
215.1258485777
 20
497.7339121666
 40
2.0
 50
198.0
 51
288.0
  0
ARC
  8
0
 62
7
  6
CONTINUOUS
 10
350.3968301119
 20
146.9430157856
 40
15.75
 50
198.0
 51
269.5034387369
  0
ARC
  8
0
 62
7
  6
CONTINUOUS
 10
293.2434585141
 20
131.8722022801
 40
15.75
 50
180.0
 51
251.5034387369
  0
ARC
  8
0
 62
7
  6
CONTINUOUS
 10
369.3531333197
 20
156.6017346983
 40
15.75
 50
324.4965612631
 51
36.0
  0
ARC
  8
0
 62
7
  6
CONTINUOUS
 10
314.2566824927
 20
135.2003699993
 40
15.75
 50
306.4965612631
 51
18.0
  0
ARC
  8
0
 62
7
  6
CONTINUOUS
 10
366.3854789499
 20
138.9947649062
 40
15.0
 50
41.0
 51
108.0
  0
ARC
  8
0
 62
7
  6
CONTINUOUS
 10
366.3855113657
 20
138.9947814229
 40
15.0
 50
126.0
 51
193.0
  0
ARC
  8
0
 62
7
  6
CONTINUOUS
 10
305.9934585141
 20
119.3722079713
 40
15.0
 50
108.0
 51
175.0
  0
ARC
  8
0
 62
7
  6
CONTINUOUS
 10
305.9934225809
 20
119.3722022801
 40
15.0
 50
23.0
 51
90.0
  0
ARC
  8
0
 62
7
  6
CONTINUOUS
 10
330.9834271597
 20
141.1609499076
 40
2.0
 50
108.0
 51
198.0
  0
ARC
  8
0
 62
7
  6
CONTINUOUS
 10
350.2776654552
 20
133.1935321667
 40
2.0
 50
269.5034387369
 51
13.0
  0
ARC
  8
0
 62
7
  6
CONTINUOUS
 10
288.8813020887
 20
118.8324901927
 40
2.0
 50
251.5034387369
 51
355.0
  0
ARC
  8
0
 62
7
  6
CONTINUOUS
 10
322.4348324229
 20
124.1468473156
 40
2.0
 50
203.0
 51
306.4965612631
  0
ARC
  8
0
 62
7
  6
CONTINUOUS
 10
333.3610684505
 20
141.9334923936
 40
2.0
 50
18.0
 51
108.0
  0
ARC
  8
0
 62
7
  6
CONTINUOUS
 10
275.4934585141
 20
132.3722022801
 40
2.0
 50
0.0
 51
90.0
  0
ARC
  8
DEFAULT_3
 62
2
  6
PHANTOM
 10
314.8003024026
 20
313.4386558978
 40
3.2
 50
92.2544307753
 51
135.0
  0
ARC
  8
DEFAULT_3
 62
2
  6
PHANTOM
 10
310.5576617155
 20
309.1960152107
 40
3.2
 50
135.0
 51
176.4096221093
  0
ARC
  8
DEFAULT_3
 62
2
  6
PHANTOM
 10
304.1702232564
 20
309.596801851
 40
3.2
 50
315.0
 51
356.4096221093
  0
ARC
  8
DEFAULT_3
 62
2
  6
PHANTOM
 10
284.4803589432
 20
289.9069375378
 40
3.2
 50
273.5903778907
 51
315.0
  0
ARC
  8
DEFAULT_3
 62
2
  6
PHANTOM
 10
284.8811455835
 20
283.5194990787
 40
3.2
 50
93.5903778907
 51
135.0
  0
ARC
  8
DEFAULT_3
 62
2
  6
PHANTOM
 10
280.6385048964
 20
279.2768583915
 40
3.2
 50
135.0
 51
177.7455692247
  0
ARC
  8
DEFAULT_3
 62
2
  6
PHANTOM
 10
274.2434585141
 20
279.5286157524
 40
3.2
 50
182.2544307753
 51
357.7455692247
  0
ARC
  8
0
 62
7
  6
CONTINUOUS
 10
415.1395865087
 20
193.9813816882
 40
15.75
 50
342.4965612631
 51
54.0
  0
ARC
  8
0
 62
7
  6
CONTINUOUS
 10
400.095779106
 20
178.9375742854
 40
15.75
 50
216.0
 51
287.5034387369
  0
ARC
  8
0
 62
7
  6
CONTINUOUS
 10
417.7580323674
 20
176.3191027015
 40
15.0
 50
59.0
 51
126.0
  0
ARC
  8
0
 62
7
  6
CONTINUOUS
 10
417.7580580927
 20
176.3191284268
 40
15.0
 50
144.0
 51
211.0
  0
ARC
  8
0
 62
7
  6
CONTINUOUS
 10
425.1682662398
 20
208.6353259645
 40
2.0
 50
144.0
 51
234.0
  0
ARC
  8
0
 62
7
  6
CONTINUOUS
 10
383.4192923438
 20
167.4394314237
 40
2.0
 50
126.0
 51
216.0
  0
ARC
  8
0
 62
7
  6
CONTINUOUS
 10
428.2529464042
 20
189.8458899093
 40
2.0
 50
239.0
 51
342.4965612631
  0
ARC
  8
0
 62
7
  6
CONTINUOUS
 10
445.4607635613
 20
213.5304183351
 40
2.0
 50
305.5034387369
 51
49.0
  0
ARC
  8
0
 62
7
  6
CONTINUOUS
 10
404.2312708848
 20
165.82421439
 40
2.0
 50
287.5034387369
 51
31.0
  0
ARC
  8
0
 62
7
  6
CONTINUOUS
 10
380.5467424591
 20
148.6163972329
 40
2.0
 50
221.0
 51
324.4965612631
  0
ARC
  8
0
 62
7
  6
CONTINUOUS
 10
426.6377293705
 20
210.6578684504
 40
2.0
 50
54.0
 51
144.0
  0
ARC
  8
0
 62
7
  6
CONTINUOUS
 10
385.4418348297
 20
168.9088945544
 40
2.0
 50
36.0
 51
126.0
  0
ARC
  8
0
 62
7
  6
CONTINUOUS
 10
462.2049585141
 20
300.8337022801
 40
15.75
 50
18.4965612631
 51
90.0
  0
ARC
  8
0
 62
7
  6
CONTINUOUS
 10
447.1341450086
 20
243.6803306822
 40
15.75
 50
0.4965612631
 51
72.0
  0
ARC
  8
0
 62
7
  6
CONTINUOUS
 10
458.8767907948
 20
279.8204783015
 40
15.75
 50
252.0
 51
323.5034387369
  0
ARC
  8
0
 62
7
  6
CONTINUOUS
 10
437.4754260959
 20
224.7240274744
 40
15.75
 50
234.0
 51
305.5034387369
  0
ARC
  8
0
 62
7
  6
CONTINUOUS
 10
474.7049528228
 20
288.0837022801
 40
15.0
 50
95.0
 51
162.0
  0
ARC
  8
0
 62
7
  6
CONTINUOUS
 10
455.0823793713
 20
227.6916494285
 40
15.0
 50
77.0
 51
144.0
  0
ARC
  8
0
 62
7
  6
CONTINUOUS
 10
474.7049585141
 20
288.0837382132
 40
15.0
 50
180.0
 51
247.0
  0
ARC
  8
0
 62
7
  6
CONTINUOUS
 10
455.082395888
 20
227.6916818443
 40
15.0
 50
162.0
 51
229.0
  0
ARC
  8
0
 62
7
  6
CONTINUOUS
 10
461.7049585141
 20
318.5837022801
 40
2.0
 50
180.0
 51
270.0
  0
ARC
  8
0
 62
7
  6
CONTINUOUS
 10
452.1436684006
 20
260.7160923437
 40
2.0
 50
162.0
 51
252.0
  0
ARC
  8
0
 62
7
  6
CONTINUOUS
 10
475.2446706014
 20
305.1958587054
 40
2.0
 50
275.0
 51
18.4965612631
  0
ARC
  8
0
 62
7
  6
CONTINUOUS
 10
460.8836286274
 20
243.7994953389
 40
2.0
 50
257.0
 51
0.4965612631
  0
ARC
  8
0
 62
7
  6
CONTINUOUS
 10
469.9303134785
 20
271.6423283713
 40
2.0
 50
323.5034387369
 51
67.0
  0
ARC
  8
0
 62
7
  6
CONTINUOUS
 10
452.9162108865
 20
263.0937336344
 40
2.0
 50
72.0
 51
162.0
  0
CIRCLE
  8
0
 62
7
  6
CONTINUOUS
 10
274.2434585141
 20
319.8337022801
 40
180.0
  0
CIRCLE
  8
DEFAULT_3
 62
2
  6
PHANTOM
 10
274.2434585141
 20
319.8337022801
 40
10.0
  0
ARC
  8
DEFAULT_3
 62
2
  6
PHANTOM
 10
274.2434585141
 20
360.1387888077
 40
3.2
 50
2.2544307753
 51
177.7455692247
  0
ARC
  8
DEFAULT_3
 62
2
  6
PHANTOM
 10
280.6385048964
 20
360.3905461686
 40
3.2
 50
182.2544307753
 51
225.0
  0
ARC
  8
DEFAULT_3
 62
2
  6
PHANTOM
 10
284.8811455835
 20
356.1479054815
 40
3.2
 50
225.0
 51
266.4096221093
  0
ARC
  8
DEFAULT_3
 62
2
  6
PHANTOM
 10
284.4803589432
 20
349.7604670224
 40
3.2
 50
45.0
 51
86.4096221093
  0
ARC
  8
DEFAULT_3
 62
2
  6
PHANTOM
 10
304.1702232564
 20
330.0706027092
 40
3.2
 50
3.5903778907
 51
45.0
  0
ARC
  8
DEFAULT_3
 62
2
  6
PHANTOM
 10
310.5576617155
 20
330.4713893494
 40
3.2
 50
183.5903778907
 51
225.0
  0
ARC
  8
DEFAULT_3
 62
2
  6
PHANTOM
 10
314.8003024026
 20
326.2287486623
 40
3.2
 50
225.0
 51
267.7455692247
  0
ARC
  8
DEFAULT_3
 62
2
  6
PHANTOM
 10
314.5485450417
 20
319.8337022801
 40
3.2
 50
272.2544307753
 51
87.7455692247
  0
ARC
  8
0
 62
7
  6
CONTINUOUS
 10
350.3968301119
 20
492.7243887745
 40
15.75
 50
90.4965612631
 51
162.0
  0
ARC
  8
0
 62
7
  6
CONTINUOUS
 10
314.2566824927
 20
504.4670345608
 40
15.75
 50
342.0
 51
53.5034387369
  0
ARC
  8
0
 62
7
  6
CONTINUOUS
 10
369.3531333197
 20
483.0656698618
 40
15.75
 50
324.0
 51
35.5034387369
  0
ARC
  8
0
 62
7
  6
CONTINUOUS
 10
293.2434585141
 20
507.7952022801
 40
15.75
 50
108.4965612631
 51
180.0
  0
ARC
  8
0
 62
7
  6
CONTINUOUS
 10
366.3855113657
 20
500.6726231373
 40
15.0
 50
167.0
 51
234.0
  0
ARC
  8
0
 62
7
  6
CONTINUOUS
 10
305.9934225809
 20
520.2952022801
 40
15.0
 50
270.0
 51
337.0
  0
ARC
  8
0
 62
7
  6
CONTINUOUS
 10
366.3854789499
 20
500.6726396539
 40
15.0
 50
252.0
 51
319.0
  0
ARC
  8
0
 62
7
  6
CONTINUOUS
 10
305.9934585141
 20
520.2951965888
 40
15.0
 50
185.0
 51
252.0
  0
CIRCLE
  8
0
 62
7
  6
CONTINUOUS
 10
274.2434585141
 20
479.8337022801
 40
2.4965218653
  0
ARC
  8
0
 62
7
  6
CONTINUOUS
 10
333.3610684505
 20
497.7339121666
 40
2.0
 50
252.0
 51
342.0
  0
ARC
  8
0
 62
7
  6
CONTINUOUS
 10
275.4934585141
 20
507.2952022801
 40
2.0
 50
270.0
 51
360.0
  0
ARC
  8
0
 62
7
  6
CONTINUOUS
 10
350.2776654552
 20
506.4738723934
 40
2.0
 50
347.0
 51
90.4965612631
  0
ARC
  8
0
 62
7
  6
CONTINUOUS
 10
322.4348324229
 20
515.5205572445
 40
2.0
 50
53.5034387369
 51
157.0
  0
ARC
  8
0
 62
7
  6
CONTINUOUS
 10
288.8813020887
 20
520.8349143674
 40
2.0
 50
5.0
 51
108.4965612631
  0
ARC
  8
0
 62
7
  6
CONTINUOUS
 10
330.9834271597
 20
498.5064546525
 40
2.0
 50
162.0
 51
252.0
  0
ARC
  8
0
 62
7
  6
CONTINUOUS
 10
437.4754260959
 20
414.9433770857
 40
15.75
 50
54.4965612631
 51
126.0
  0
ARC
  8
0
 62
7
  6
CONTINUOUS
 10
458.8767907948
 20
359.8469262587
 40
15.75
 50
36.4965612631
 51
108.0
  0
ARC
  8
0
 62
7
  6
CONTINUOUS
 10
447.1341450086
 20
395.9870738779
 40
15.75
 50
288.0
 51
359.5034387369
  0
ARC
  8
0
 62
7
  6
CONTINUOUS
 10
462.2049585141
 20
338.8337022801
 40
15.75
 50
270.0
 51
341.5034387369
  0
ARC
  8
0
 62
7
  6
CONTINUOUS
 10
455.082395888
 20
411.9757227158
 40
15.0
 50
131.0
 51
198.0
  0
ARC
  8
0
 62
7
  6
CONTINUOUS
 10
474.7049585141
 20
351.5836663469
 40
15.0
 50
113.0
 51
180.0
  0
ARC
  8
0
 62
7
  6
CONTINUOUS
 10
455.0823793713
 20
411.9757551316
 40
15.0
 50
216.0
 51
283.0
  0
ARC
  8
0
 62
7
  6
CONTINUOUS
 10
474.7049528228
 20
351.5837022801
 40
15.0
 50
198.0
 51
265.0
  0
ARC
  8
0
 62
7
  6
CONTINUOUS
 10
452.9162108865
 20
376.5736709257
 40
2.0
 50
198.0
 51
288.0
  0
ARC
  8
0
 62
7
  6
CONTINUOUS
 10
469.9303134785
 20
368.0250761888
 40
2.0
 50
293.0
 51
36.4965612631
  0
ARC
  8
0
 62
7
  6
CONTINUOUS
 10
460.8836286274
 20
395.8679092212
 40
2.0
 50
359.5034387369
 51
103.0
  0
ARC
  8
0
 62
7
  6
CONTINUOUS
 10
475.2446706014
 20
334.4715458547
 40
2.0
 50
341.5034387369
 51
85.0
  0
ARC
  8
0
 62
7
  6
CONTINUOUS
 10
452.1436684006
 20
378.9513122164
 40
2.0
 50
108.0
 51
198.0
  0
ARC
  8
0
 62
7
  6
CONTINUOUS
 10
461.7049585141
 20
321.0837022801
 40
2.0
 50
90.0
 51
180.0
  0
ARC
  8
0
 62
7
  6
CONTINUOUS
 10
400.095779106
 20
460.7298302747
 40
15.75
 50
72.4965612631
 51
144.0
  0
ARC
  8
0
 62
7
  6
CONTINUOUS
 10
415.1395865087
 20
445.686022872
 40
15.75
 50
306.0
 51
17.5034387369
  0
ARC
  8
0
 62
7
  6
CONTINUOUS
 10
417.7580580927
 20
463.3482761333
 40
15.0
 50
149.0
 51
216.0
  0
ARC
  8
0
 62
7
  6
CONTINUOUS
 10
417.7580323674
 20
463.3483018587
 40
15.0
 50
234.0
 51
301.0
  0
ARC
  8
0
 62
7
  6
CONTINUOUS
 10
385.4418348297
 20
470.7585100057
 40
2.0
 50
234.0
 51
324.0
  0
ARC
  8
0
 62
7
  6
CONTINUOUS
 10
426.6377293705
 20
429.0095361097
 40
2.0
 50
216.0
 51
306.0
  0
ARC
  8
0
 62
7
  6
CONTINUOUS
 10
404.2312708848
 20
473.8431901701
 40
2.0
 50
329.0
 51
72.4965612631
  0
ARC
  8
0
 62
7
  6
CONTINUOUS
 10
445.4607635613
 20
426.136986225
 40
2.0
 50
311.0
 51
54.4965612631
  0
ARC
  8
0
 62
7
  6
CONTINUOUS
 10
380.5467424591
 20
491.0510073272
 40
2.0
 50
35.5034387369
 51
139.0
  0
ARC
  8
0
 62
7
  6
CONTINUOUS
 10
428.2529464042
 20
449.8215146508
 40
2.0
 50
17.5034387369
 51
121.0
  0
ARC
  8
0
 62
7
  6
CONTINUOUS
 10
383.4192923438
 20
472.2279731364
 40
2.0
 50
144.0
 51
234.0
  0
ARC
  8
0
 62
7
  6
CONTINUOUS
 10
425.1682662398
 20
431.0320785957
 40
2.0
 50
126.0
 51
216.0
  0
ARC
  8
0
 62
7
  6
CONTINUOUS
 10
606.1416079176
 20
140.3337022801
 40
0.5
 50
179.9999837633
 51
270.0
  0
ARC
  8
0
 62
7
  6
CONTINUOUS
 10
606.1416079176
 20
499.3337022801
 40
0.5
 50
90.0
 51
180.0000162367
  0
ARC
  8
0
 62
7
  6
CONTINUOUS
 10
638.1416079176
 20
499.3337022801
 40
0.5
 50
359.9999837632
 51
90.0
  0
ARC
  8
0
 62
7
  6
CONTINUOUS
 10
638.1416079176
 20
140.3337022801
 40
0.5
 50
270.0
 51
0.0000162368
  0
ENDSEC
  0
EOF
