  0
SECTION
  2
HEADER
  9
$EXTMAX
 10
594.0
 20
420.0
 30
0.0
  9
$EXTMIN
 10
0.0
 20
0.0
 30
0.0
  9
$LIMMIN
 10
0.0
 20
0.0
  9
$LIMMAX
 10
594.0
 20
420.0
  9
$VIEWCTR
 10
297.0
 20
210.0
  9
$VIEWSIZE
 40
420.0
  9
$CLAYER
  8
0
  9
$LTSCALE
 40
32.67
  9
$CELTYPE
  6
BYLAYER
  9
$DIMSCALE
 40
1.0
  9
$DIMASZ
 40
3.5
  9
$DIMEXO
 40
1.0
  9
$DIMDLI
 40
22.572
  9
$DIMEXE
 40
2.0
  9
$DIMCEN
 40
5.346
  9
$DIMLFAC
 40
1.0
  9
$DIMBLK
  1
_FILLED
  9
$DIMALT
 70
0
  9
$DIMALTF
 40
0.0393700787
  9
$DIMTXT
 40
3.5
  9
$AUNITS
 70
0
  9
$PDMODE
 70
3
  9
$PDSIZE
 40
0.3125
  9
$TILEMODE
 70
1
  0
ENDSEC
  0
SECTION
  2
TABLES
  0
TABLE
  2
LTYPE
 70
6
  0
LTYPE
  2
BYBLOCK
 70
0
  3

 72
65
 73
0
 40
0.0
  0
LTYPE
  2
BYLAYER
 70
0
  3

 72
65
 73
0
 40
0.0
  0
LTYPE
  2
CONTINUOUS
 70
64
  3
Solid line
 72
65
 73
0
 40
0.0
  0
LTYPE
  2
CENTER
 70
64
  3
____ _ ____ _ ____ _ ____ _ ____ _ ____ _ ____
 72
65
 73
4
 40
0.6
 49
0.375
 49
-0.075
 49
0.075
 49
-0.075
  0
LTYPE
  2
HIDDEN
 70
64
  3
- - - - - - - - - - - - - - - - - - - -
 72
65
 73
2
 40
0.2
 49
0.1
 49
-0.1
  0
LTYPE
  2
PHANTOM
 70
64
  3
_____ _ _ _____ _ _ _____ _ _ _____
 72
65
 73
6
 40
0.8
 49
0.45
 49
-0.05
 49
0.1
 49
-0.05
 49
0.1
 49
-0.05
  0
LTYPE
  2
DOT
 70
64
  3
. . . . . . . . . . . . . . . . . . . .
 72
65
 73
2
 40
0.2
 49
0.1
 49
-0.1
  0
LTYPE
  2
DASHED
 70
64
  3
- - - - - - - - - - - - - - - - - - - -
 72
65
 73
2
 40
0.2
 49
0.1
 49
-0.1
  0
ENDTAB
  0
TABLE
  2
LAYER
 70
36
  0
LAYER
  2
0
 70
0
 62
7
  6
CONTINUOUS
  0
LAYER
  2
DEFAULT_1
 70
0
 62
7
  6
CENTER
  0
LAYER
  2
DEFAULT_2
 70
0
 62
8
  6
HIDDEN
  0
LAYER
  2
DEFAULT_3
 70
0
 62
7
  6
PHANTOM
  0
ENDTAB
  0
TABLE
  2
STYLE
 70
1
  0
STYLE
  2
STANDARD
 70
0
 40
0.0
 41
0.8
 50
0.0
 71
0
 42
0.2
  3
txt
  4

  0
STYLE
  2
TEXTSTYLE_1
 70
0
 40
0.0
 41
0.8
 50
0.0
 71
0
 42
0.2
  3
gdt
  4

  0
STYLE
  2
TEXTSTYLE_2
 70
0
 40
0.0
 41
0.6
 50
0.0
 71
0
 42
0.2
  3
txt
  4

  0
STYLE
  2
TEXTSTYLE_3
 70
0
 40
0.0
 41
1.0
 50
0.0
 71
0
 42
0.2
  3
ftb_____.ttf
  4

  0
STYLE
  2
TEXTSTYLE_4
 70
0
 40
0.0
 41
1.0
 50
0.0
 71
0
 42
0.2
  3
fti_____.ttf
  4

  0
STYLE
  2
TEXTSTYLE_5
 70
0
 40
0.0
 41
1.0
 50
0.0
 71
0
 42
0.2
  3
frutiger light.ttf
  4

  0
STYLE
  2
TEXTSTYLE_6
 70
0
 40
0.0
 41
0.7
 50
0.0
 71
0
 42
0.2
  3
txt
  4

  0
STYLE
  2
TEXTSTYLE_7
 70
0
 40
0.0
 41
0.8
 50
0.0
 71
0
 42
0.2
  3
txt
  4

  0
ENDTAB
  0
ENDSEC
  0
SECTION
  2
BLOCKS
  0
BLOCK
  8
0
 62
2
  6
CONTINUOUS
  2
UNI_LOGO2_BL1
 70
64
 10
557.4079930916
 20
35.8092573885
  0
TEXT
  8
0
 62
7
  6
CONTINUOUS
 10
548.4662781001
 20
30.9020137655
  7
TEXTSTYLE_4
 40
1.0655737705
  1
The brand for plastic modular belts and chains
 41
1.0
 72
0
  0
LINE
  8
0
 62
7
  6
CONTINUOUS
 10
533.3860614807
 20
36.3830278803
 11
533.3860614807
 21
34.2518803393
  0
LINE
  8
0
 62
7
  6
CONTINUOUS
 10
533.6751239738
 20
31.2609490436
 11
533.6751239738
 21
31.3577401029
  0
LINE
  8
0
 62
7
  6
CONTINUOUS
 10
533.3860614807
 20
31.3254764164
 11
533.4438739824
 21
31.1318942979
  0
LINE
  8
0
 62
7
  6
CONTINUOUS
 10
534.7795041036
 20
34.1699131262
 11
534.7795041036
 21
36.3830278803
  0
LINE
  8
0
 62
7
  6
CONTINUOUS
 10
535.6985614255
 20
32.3256508311
 11
535.6985614255
 21
30.8092573885
  0
LINE
  8
0
 62
7
  6
CONTINUOUS
 10
535.9876239807
 20
30.8092573885
 11
535.9876239807
 21
31.5513222666
  0
LINE
  8
0
 62
7
  6
CONTINUOUS
 10
535.9876239807
 20
31.6803770123
 11
535.9876239807
 21
32.3256508311
  0
LINE
  8
0
 62
7
  6
CONTINUOUS
 10
533.4438739824
 20
31.5190585802
 11
533.3860614807
 21
31.3254764164
  0
LINE
  8
0
 62
7
  6
CONTINUOUS
 10
533.7907489669
 20
31.0996306115
 11
533.6751239738
 21
31.2609490436
  0
LINE
  8
0
 62
7
  6
CONTINUOUS
 10
534.8891865358
 20
31.6158496394
 11
534.9469989807
 21
31.5190585802
  0
LINE
  8
0
 62
7
  6
CONTINUOUS
 10
535.2360615358
 20
31.5190585802
 11
535.1782489255
 21
31.6481133259
  0
LINE
  8
0
 62
7
  6
CONTINUOUS
 10
536.6647500053
 20
36.3830278803
 11
536.6647500053
 21
34.5797491918
  0
LINE
  8
0
 62
7
  6
CONTINUOUS
 10
536.6647500053
 20
33.2682737819
 11
536.6647500053
 21
32.612536077
  0
LINE
  8
0
 62
7
  6
CONTINUOUS
 10
537.0282489807
 20
31.4545312073
 11
537.0282489807
 21
30.8092573885
  0
LINE
  8
0
 62
7
  6
CONTINUOUS
 10
537.3173113704
 20
30.8092573885
 11
537.3173113704
 21
31.4545312073
  0
LINE
  8
0
 62
7
  6
CONTINUOUS
 10
533.6751239738
 20
31.3577401029
 11
533.7329364807
 21
31.4867948937
  0
LINE
  8
0
 62
7
  6
CONTINUOUS
 10
533.4438739824
 20
31.1318942979
 11
533.5594989807
 21
31.0028395296
  0
LINE
  8
0
 62
7
  6
CONTINUOUS
 10
536.9704363704
 20
31.583585953
 11
537.0282489807
 21
31.4545312073
  0
LINE
  8
0
 62
7
  6
CONTINUOUS
 10
537.7798115909
 20
31.0996306115
 11
537.8376238704
 21
30.9705758432
  0
LINE
  8
0
 62
7
  6
CONTINUOUS
 10
537.3173113704
 20
31.4545312073
 11
537.2594990909
 21
31.6158496394
  0
LINE
  8
0
 62
7
  6
CONTINUOUS
 10
537.7798115909
 20
31.6481133259
 11
537.7798115909
 21
31.583585953
  0
LINE
  8
0
 62
7
  6
CONTINUOUS
 10
537.7798115909
 20
31.1964216708
 11
537.7798115909
 21
31.0996306115
  0
LINE
  8
0
 62
7
  6
CONTINUOUS
 10
538.0581926282
 20
32.612536077
 11
538.0581926282
 21
36.3830278803
  0
LINE
  8
0
 62
7
  6
CONTINUOUS
 10
538.0688739807
 20
31.0673669025
 11
538.0688739807
 21
31.1318942979
  0
LINE
  8
0
 62
7
  6
CONTINUOUS
 10
538.3860614807
 20
36.3830278803
 11
538.3860614807
 21
32.612536077
  0
LINE
  8
0
 62
7
  6
CONTINUOUS
 10
535.1782489255
 20
31.0028395296
 11
535.2360615358
 21
31.1318942979
  0
LINE
  8
0
 62
7
  6
CONTINUOUS
 10
539.5719992012
 20
30.9060484591
 11
539.5141862601
 21
31.0673669025
  0
LINE
  8
0
 62
7
  6
CONTINUOUS
 10
539.2251242012
 20
31.583585953
 11
539.2251242012
 21
31.4867948937
  0
LINE
  8
0
 62
7
  6
CONTINUOUS
 10
539.2251242012
 20
31.3577401029
 11
539.2251242012
 21
31.1641579843
  0
LINE
  8
0
 62
7
  6
CONTINUOUS
 10
539.5141862601
 20
31.0673669025
 11
539.5141862601
 21
31.583585953
  0
LINE
  8
0
 62
7
  6
CONTINUOUS
 10
539.7795041036
 20
32.612536077
 11
539.7795041036
 21
34.4158147655
  0
LINE
  8
0
 62
7
  6
CONTINUOUS
 10
539.7795041036
 20
35.7272901754
 11
539.7795041036
 21
36.3830278803
  0
LINE
  8
0
 62
7
  6
CONTINUOUS
 10
540.0923117012
 20
32.3256508311
 11
540.0923117012
 21
32.164332399
  0
LINE
  8
0
 62
7
  6
CONTINUOUS
 10
540.0923117012
 20
31.8416954444
 11
540.0923117012
 21
30.8092573885
  0
LINE
  8
0
 62
7
  6
CONTINUOUS
 10
540.3813737601
 20
30.8092573885
 11
540.3813737601
 21
31.8416954444
  0
LINE
  8
0
 62
7
  6
CONTINUOUS
 10
540.3813737601
 20
32.164332399
 11
540.3813737601
 21
32.3256508311
  0
LINE
  8
0
 62
7
  6
CONTINUOUS
 10
534.9469989807
 20
31.1318942979
 11
534.8891865358
 21
31.035103216
  0
LINE
  8
0
 62
7
  6
CONTINUOUS
 10
537.2594990909
 20
31.6158496394
 11
537.2016864807
 21
31.6803770123
  0
LINE
  8
0
 62
7
  6
CONTINUOUS
 10
538.1266865909
 20
31.0028395296
 11
538.0688739807
 21
31.0673669025
  0
LINE
  8
0
 62
7
  6
CONTINUOUS
 10
539.2829364807
 20
30.873784767
 11
539.3407487601
 21
30.8092573885
  0
LINE
  8
0
 62
7
  6
CONTINUOUS
 10
539.2251242012
 20
30.9705758432
 11
539.2829364807
 21
30.873784767
  0
LINE
  8
0
 62
7
  6
CONTINUOUS
 10
539.6298114807
 20
30.8092573885
 11
539.5719992012
 21
30.9060484591
  0
LINE
  8
0
 62
7
  6
CONTINUOUS
 10
539.5141862601
 20
31.583585953
 11
539.4563739807
 21
31.6803770123
  0
LINE
  8
0
 62
7
  6
CONTINUOUS
 10
540.8438739807
 20
31.8416954444
 11
540.8438739807
 21
30.8092573885
  0
LINE
  8
0
 62
7
  6
CONTINUOUS
 10
541.1329367012
 20
30.8092573885
 11
541.1329367012
 21
31.5513222666
  0
LINE
  8
0
 62
7
  6
CONTINUOUS
 10
541.1329367012
 20
31.6803770123
 11
541.1329367012
 21
31.8416954444
  0
LINE
  8
0
 62
7
  6
CONTINUOUS
 10
541.6647500053
 20
34.8256508311
 11
541.6647500053
 21
32.612536077
  0
LINE
  8
0
 62
7
  6
CONTINUOUS
 10
533.5594989807
 20
31.6481133259
 11
533.4438739824
 21
31.5190585802
  0
LINE
  8
0
 62
7
  6
CONTINUOUS
 10
533.7329364807
 20
31.4867948937
 11
533.7907489669
 21
31.5513222666
  0
LINE
  8
0
 62
7
  6
CONTINUOUS
 10
533.5594989807
 20
31.0028395296
 11
533.6751239738
 21
30.9383121455
  0
LINE
  8
0
 62
7
  6
CONTINUOUS
 10
533.9641864669
 20
31.0028395296
 11
533.7907489669
 21
31.0996306115
  0
LINE
  8
0
 62
7
  6
CONTINUOUS
 10
539.1673112601
 20
31.6481133259
 11
539.2251242012
 21
31.583585953
  0
LINE
  8
0
 62
7
  6
CONTINUOUS
 10
542.1157487601
 20
31.583585953
 11
542.1735617012
 21
31.4222675209
  0
LINE
  8
0
 62
7
  6
CONTINUOUS
 10
542.4626237601
 20
31.4222675209
 11
542.4048114807
 21
31.583585953
  0
LINE
  8
0
 62
7
  6
CONTINUOUS
 10
542.1735617012
 20
31.4222675209
 11
542.1735617012
 21
30.8092573885
  0
LINE
  8
0
 62
7
  6
CONTINUOUS
 10
542.4626237601
 20
30.8092573885
 11
542.4626237601
 21
31.4222675209
  0
LINE
  8
0
 62
7
  6
CONTINUOUS
 10
542.9251239807
 20
31.6481133259
 11
542.9251239807
 21
31.583585953
  0
LINE
  8
0
 62
7
  6
CONTINUOUS
 10
543.0581926282
 20
32.612536077
 11
543.0581926282
 21
34.743683618
  0
LINE
  8
0
 62
7
  6
CONTINUOUS
 10
543.3860614807
 20
36.3830278803
 11
543.3860614807
 21
32.612536077
  0
LINE
  8
0
 62
7
  6
CONTINUOUS
 10
538.0688739807
 20
31.1318942979
 11
538.1266865909
 21
31.2286853572
  0
LINE
  8
0
 62
7
  6
CONTINUOUS
 10
533.6751239738
 20
30.9383121455
 11
533.8485614944
 21
30.873784767
  0
LINE
  8
0
 62
7
  6
CONTINUOUS
 10
535.1782489255
 20
31.6481133259
 11
535.0048114255
 21
31.7449043851
  0
LINE
  8
0
 62
7
  6
CONTINUOUS
 10
537.8376238704
 20
30.9705758432
 11
538.0110613704
 21
30.873784767
  0
LINE
  8
0
 62
7
  6
CONTINUOUS
 10
536.8548114807
 20
31.6481133259
 11
536.9704363704
 21
31.583585953
  0
LINE
  8
0
 62
7
  6
CONTINUOUS
 10
537.2016864807
 20
31.6803770123
 11
537.0860615909
 21
31.7449043851
  0
LINE
  8
0
 62
7
  6
CONTINUOUS
 10
542.9251239807
 20
31.0673669025
 11
543.0407492012
 21
30.9383121455
  0
LINE
  8
0
 62
7
  6
CONTINUOUS
 10
543.2719989807
 20
31.0028395296
 11
543.2141867012
 21
31.0673669025
  0
LINE
  8
0
 62
7
  6
CONTINUOUS
 10
542.9251239807
 20
31.583585953
 11
543.0407492012
 21
31.4545312073
  0
LINE
  8
0
 62
7
  6
CONTINUOUS
 10
542.4048114807
 20
31.583585953
 11
542.3469992012
 21
31.6803770123
  0
LINE
  8
0
 62
7
  6
CONTINUOUS
 10
544.7751235396
 20
31.0028395296
 11
544.7751235396
 21
31.0673669025
  0
LINE
  8
0
 62
7
  6
CONTINUOUS
 10
544.7795041036
 20
32.612536077
 11
544.7795041036
 21
36.3830278803
  0
LINE
  8
0
 62
7
  6
CONTINUOUS
 10
537.8376238704
 20
31.7126406987
 11
537.7798115909
 21
31.6481133259
  0
LINE
  8
0
 62
7
  6
CONTINUOUS
 10
534.7157489531
 20
31.6803770123
 11
534.8891865358
 21
31.6158496394
  0
LINE
  8
0
 62
7
  6
CONTINUOUS
 10
539.4563739807
 20
31.6803770123
 11
539.3407487601
 21
31.7449043851
  0
LINE
  8
0
 62
7
  6
CONTINUOUS
 10
543.2719989807
 20
31.5190585802
 11
543.2141867012
 21
31.583585953
  0
LINE
  8
0
 62
7
  6
CONTINUOUS
 10
544.4282492012
 20
31.1318942979
 11
544.4860614807
 21
31.0673669025
  0
LINE
  8
0
 62
7
  6
CONTINUOUS
 10
544.7751235396
 20
31.0673669025
 11
544.6594989807
 21
31.1964216708
  0
LINE
  8
0
 62
7
  6
CONTINUOUS
 10
544.4282492012
 20
31.6481133259
 11
544.4860614807
 21
31.583585953
  0
LINE
  8
0
 62
7
  6
CONTINUOUS
 10
544.7751235396
 20
31.583585953
 11
544.6594989807
 21
31.7126406987
  0
LINE
  8
0
 62
7
  6
CONTINUOUS
 10
538.0688739807
 20
31.583585953
 11
538.1266865909
 21
31.6481133259
  0
LINE
  8
0
 62
7
  6
CONTINUOUS
 10
537.8954364807
 20
31.3254764164
 11
537.7798115909
 21
31.1964216708
  0
LINE
  8
0
 62
7
  6
CONTINUOUS
 10
539.2251242012
 20
31.1641579843
 11
539.1673112601
 21
31.0996306115
  0
LINE
  8
0
 62
7
  6
CONTINUOUS
 10
539.1673112601
 20
30.9060484591
 11
539.2251242012
 21
30.9705758432
  0
LINE
  8
0
 62
7
  6
CONTINUOUS
 10
538.0110613704
 20
30.873784767
 11
538.1266865909
 21
30.8415210777
  0
LINE
  8
0
 62
7
  6
CONTINUOUS
 10
535.0048114255
 20
31.7449043851
 11
534.7735614807
 21
31.809431758
  0
LINE
  8
0
 62
7
  6
CONTINUOUS
 10
538.3579363704
 20
30.9383121455
 11
538.1266865909
 21
31.0028395296
  0
LINE
  8
0
 62
7
  6
CONTINUOUS
 10
537.0860615909
 20
31.7449043851
 11
536.9126240909
 21
31.809431758
  0
LINE
  8
0
 62
7
  6
CONTINUOUS
 10
539.3407487601
 20
31.7449043851
 11
539.1673112601
 21
31.809431758
  0
LINE
  8
0
 62
7
  6
CONTINUOUS
 10
542.0001242012
 20
31.6481133259
 11
542.1157487601
 21
31.583585953
  0
LINE
  8
0
 62
7
  6
CONTINUOUS
 10
542.3469992012
 20
31.6803770123
 11
542.2313739807
 21
31.7449043851
  0
LINE
  8
0
 62
7
  6
CONTINUOUS
 10
533.8485614944
 20
30.873784767
 11
534.0219989944
 21
30.8415210777
  0
LINE
  8
0
 62
7
  6
CONTINUOUS
 10
534.3110615082
 20
30.9383121455
 11
533.9641864669
 21
31.0028395296
  0
LINE
  8
0
 62
7
  6
CONTINUOUS
 10
536.7391865909
 20
31.6803770123
 11
536.8548114807
 21
31.6481133259
  0
LINE
  8
0
 62
7
  6
CONTINUOUS
 10
539.0516867012
 20
31.6803770123
 11
539.1673112601
 21
31.6481133259
  0
LINE
  8
0
 62
7
  6
CONTINUOUS
 10
543.3876242012
 20
30.9705758432
 11
543.2719989807
 21
31.0028395296
  0
LINE
  8
0
 62
7
  6
CONTINUOUS
 10
541.8844989807
 20
31.6803770123
 11
542.0001242012
 21
31.6481133259
  0
LINE
  8
0
 62
7
  6
CONTINUOUS
 10
543.0407492012
 20
30.9383121455
 11
543.2141867012
 21
30.873784767
  0
LINE
  8
0
 62
7
  6
CONTINUOUS
 10
542.2313739807
 20
31.7449043851
 11
542.0579364807
 21
31.809431758
  0
LINE
  8
0
 62
7
  6
CONTINUOUS
 10
543.4454364807
 20
31.4545312073
 11
543.2719989807
 21
31.5190585802
  0
LINE
  8
0
 62
7
  6
CONTINUOUS
 10
544.2548117012
 20
31.1964216708
 11
544.4282492012
 21
31.1318942979
  0
LINE
  8
0
 62
7
  6
CONTINUOUS
 10
544.6594989807
 20
31.7126406987
 11
544.4860614807
 21
31.7771680715
  0
LINE
  8
0
 62
7
  6
CONTINUOUS
 10
543.0407492012
 20
31.4545312073
 11
543.2719989807
 21
31.3577401029
  0
LINE
  8
0
 62
7
  6
CONTINUOUS
 10
544.6594989807
 20
31.1964216708
 11
544.4282492012
 21
31.29321273
  0
LINE
  8
0
 62
7
  6
CONTINUOUS
 10
543.2141867012
 20
31.583585953
 11
543.2719989807
 21
31.6481133259
  0
LINE
  8
0
 62
7
  6
CONTINUOUS
 10
533.6751239738
 20
31.7126406987
 11
533.5594989807
 21
31.6481133259
  0
LINE
  8
0
 62
7
  6
CONTINUOUS
 10
533.7907489669
 20
31.5513222666
 11
533.9641864669
 21
31.6481133259
  0
LINE
  8
0
 62
7
  6
CONTINUOUS
 10
536.1032490358
 20
31.7449043851
 11
535.9876239807
 21
31.6803770123
  0
LINE
  8
0
 62
7
  6
CONTINUOUS
 10
535.9876239807
 20
31.5513222666
 11
536.1032490358
 21
31.6158496394
  0
LINE
  8
0
 62
7
  6
CONTINUOUS
 10
535.0048114255
 20
30.9060484591
 11
535.1782489255
 21
31.0028395296
  0
LINE
  8
0
 62
7
  6
CONTINUOUS
 10
534.0219989944
 20
30.8415210777
 11
534.3688739531
 21
30.8092573885
  0
LINE
  8
0
 62
7
  6
CONTINUOUS
 10
538.1266865909
 20
30.8415210777
 11
538.3579363704
 21
30.8092573885
  0
LINE
  8
0
 62
7
  6
CONTINUOUS
 10
536.5079364807
 20
31.7126406987
 11
536.7391865909
 21
31.6803770123
  0
LINE
  8
0
 62
7
  6
CONTINUOUS
 10
538.8204365909
 20
31.7126406987
 11
539.0516867012
 21
31.6803770123
  0
LINE
  8
0
 62
7
  6
CONTINUOUS
 10
543.2719989807
 20
31.3577401029
 11
544.2548117012
 21
31.1964216708
  0
LINE
  8
0
 62
7
  6
CONTINUOUS
 10
544.4282492012
 20
31.29321273
 11
543.4454364807
 21
31.4545312073
  0
LINE
  8
0
 62
7
  6
CONTINUOUS
 10
536.9126240909
 20
31.809431758
 11
536.7391865909
 21
31.8416954444
  0
LINE
  8
0
 62
7
  6
CONTINUOUS
 10
543.2141867012
 20
30.873784767
 11
543.3876242012
 21
30.8415210777
  0
LINE
  8
0
 62
7
  6
CONTINUOUS
 10
542.0579364807
 20
31.809431758
 11
541.8844989807
 21
31.8416954444
  0
LINE
  8
0
 62
7
  6
CONTINUOUS
 10
544.3126239807
 20
31.6803770123
 11
544.4282492012
 21
31.6481133259
  0
LINE
  8
0
 62
7
  6
CONTINUOUS
 10
544.4860614807
 20
31.0673669025
 11
544.4282492012
 21
31.0028395296
  0
LINE
  8
0
 62
7
  6
CONTINUOUS
 10
543.0407492012
 20
31.7449043851
 11
542.9251239807
 21
31.6481133259
  0
LINE
  8
0
 62
7
  6
CONTINUOUS
 10
537.9532490909
 20
31.7771680715
 11
537.8376238704
 21
31.7126406987
  0
LINE
  8
0
 62
7
  6
CONTINUOUS
 10
538.0110613704
 20
31.3900038345
 11
537.8954364807
 21
31.3254764164
  0
LINE
  8
0
 62
7
  6
CONTINUOUS
 10
538.1266865909
 20
31.2286853572
 11
538.2423114807
 21
31.29321273
  0
LINE
  8
0
 62
7
  6
CONTINUOUS
 10
535.6985614255
 20
30.8092573885
 11
535.9876239807
 21
30.8092573885
  0
LINE
  8
0
 62
7
  6
CONTINUOUS
 10
537.0282489807
 20
30.8092573885
 11
537.3173113704
 21
30.8092573885
  0
LINE
  8
0
 62
7
  6
CONTINUOUS
 10
538.3579363704
 20
30.8092573885
 11
538.7048113704
 21
30.8092573885
  0
LINE
  8
0
 62
7
  6
CONTINUOUS
 10
539.3407487601
 20
30.8092573885
 11
539.6298114807
 21
30.8092573885
  0
LINE
  8
0
 62
7
  6
CONTINUOUS
 10
540.0923117012
 20
30.8092573885
 11
540.3813737601
 21
30.8092573885
  0
LINE
  8
0
 62
7
  6
CONTINUOUS
 10
540.8438739807
 20
30.8092573885
 11
541.1329367012
 21
30.8092573885
  0
LINE
  8
0
 62
7
  6
CONTINUOUS
 10
542.1735617012
 20
30.8092573885
 11
542.4626237601
 21
30.8092573885
  0
LINE
  8
0
 62
7
  6
CONTINUOUS
 10
543.7344992012
 20
30.8092573885
 11
544.0813742012
 21
30.8092573885
  0
LINE
  8
0
 62
7
  6
CONTINUOUS
 10
544.0813742012
 20
30.9383121455
 11
543.7344992012
 21
30.9383121455
  0
LINE
  8
0
 62
7
  6
CONTINUOUS
 10
538.7048113704
 20
30.9383121455
 11
538.3579363704
 21
30.9383121455
  0
LINE
  8
0
 62
7
  6
CONTINUOUS
 10
543.2141867012
 20
31.0673669025
 11
542.9251239807
 21
31.0673669025
  0
LINE
  8
0
 62
7
  6
CONTINUOUS
 10
535.2360615358
 20
31.1318942979
 11
534.9469989807
 21
31.1318942979
  0
LINE
  8
0
 62
7
  6
CONTINUOUS
 10
534.3110615082
 20
31.7126406987
 11
534.7157489531
 21
31.6803770123
  0
LINE
  8
0
 62
7
  6
CONTINUOUS
 10
534.7735614807
 20
31.809431758
 11
534.3688739531
 21
31.8416954444
  0
LINE
  8
0
 62
7
  6
CONTINUOUS
 10
543.3876242012
 20
30.8415210777
 11
543.7344992012
 21
30.8092573885
  0
LINE
  8
0
 62
7
  6
CONTINUOUS
 10
543.7344992012
 20
30.9383121455
 11
543.3876242012
 21
30.9705758432
  0
LINE
  8
0
 62
7
  6
CONTINUOUS
 10
539.1673112601
 20
31.809431758
 11
538.8204365909
 21
31.8416954444
  0
LINE
  8
0
 62
7
  6
CONTINUOUS
 10
543.9657489807
 20
31.7126406987
 11
544.3126239807
 21
31.6803770123
  0
LINE
  8
0
 62
7
  6
CONTINUOUS
 10
544.3126239807
 20
31.809431758
 11
543.9657489807
 21
31.8416954444
  0
LINE
  8
0
 62
7
  6
CONTINUOUS
 10
541.6532492012
 20
31.7126406987
 11
541.8844989807
 21
31.6803770123
  0
LINE
  8
0
 62
7
  6
CONTINUOUS
 10
544.4860614807
 20
31.7771680715
 11
544.3126239807
 21
31.809431758
  0
LINE
  8
0
 62
7
  6
CONTINUOUS
 10
544.6594989807
 20
30.9060484591
 11
544.7751235396
 21
31.0028395296
  0
LINE
  8
0
 62
7
  6
CONTINUOUS
 10
539.1673112601
 20
31.0996306115
 11
538.9938737601
 21
31.0028395296
  0
LINE
  8
0
 62
7
  6
CONTINUOUS
 10
541.2485612601
 20
31.7449043851
 11
541.1329367012
 21
31.6803770123
  0
LINE
  8
0
 62
7
  6
CONTINUOUS
 10
541.1329367012
 20
31.5513222666
 11
541.2485612601
 21
31.6158496394
  0
LINE
  8
0
 62
7
  6
CONTINUOUS
 10
533.8485614944
 20
31.7771680715
 11
533.6751239738
 21
31.7126406987
  0
LINE
  8
0
 62
7
  6
CONTINUOUS
 10
536.2766863704
 20
31.809431758
 11
536.1032490358
 21
31.7449043851
  0
LINE
  8
0
 62
7
  6
CONTINUOUS
 10
536.1032490358
 20
31.6158496394
 11
536.2766863704
 21
31.6803770123
  0
LINE
  8
0
 62
7
  6
CONTINUOUS
 10
534.8891865358
 20
31.035103216
 11
534.7157489531
 21
30.9705758432
  0
LINE
  8
0
 62
7
  6
CONTINUOUS
 10
544.3126239807
 20
30.9705758432
 11
544.0813742012
 21
30.9383121455
  0
LINE
  8
0
 62
7
  6
CONTINUOUS
 10
538.7048113704
 20
30.8092573885
 11
538.9938737601
 21
30.8415210777
  0
LINE
  8
0
 62
7
  6
CONTINUOUS
 10
544.0813742012
 20
30.8092573885
 11
544.4282492012
 21
30.8415210777
  0
LINE
  8
0
 62
7
  6
CONTINUOUS
 10
534.3688739531
 20
30.8092573885
 11
534.7735614807
 21
30.8415210777
  0
LINE
  8
0
 62
7
  6
CONTINUOUS
 10
534.7157489531
 20
30.9705758432
 11
534.3110615082
 21
30.9383121455
  0
LINE
  8
0
 62
7
  6
CONTINUOUS
 10
538.5891864807
 20
31.3577401029
 11
539.2251242012
 21
31.3577401029
  0
LINE
  8
0
 62
7
  6
CONTINUOUS
 10
539.2251242012
 20
31.4867948937
 11
538.5891864807
 21
31.4867948937
  0
LINE
  8
0
 62
7
  6
CONTINUOUS
 10
534.9469989807
 20
31.5190585802
 11
535.2360615358
 21
31.5190585802
  0
LINE
  8
0
 62
7
  6
CONTINUOUS
 10
537.7798115909
 20
31.583585953
 11
538.0688739807
 21
31.583585953
  0
LINE
  8
0
 62
7
  6
CONTINUOUS
 10
544.4860614807
 20
31.583585953
 11
544.7751235396
 21
31.583585953
  0
LINE
  8
0
 62
7
  6
CONTINUOUS
 10
538.4735615909
 20
31.7126406987
 11
538.8204365909
 21
31.7126406987
  0
LINE
  8
0
 62
7
  6
CONTINUOUS
 10
543.6188739807
 20
31.7126406987
 11
543.9657489807
 21
31.7126406987
  0
LINE
  8
0
 62
7
  6
CONTINUOUS
 10
543.9657489807
 20
31.8416954444
 11
543.6188739807
 21
31.8416954444
  0
LINE
  8
0
 62
7
  6
CONTINUOUS
 10
541.8844989807
 20
31.8416954444
 11
541.6532492012
 21
31.8416954444
  0
LINE
  8
0
 62
7
  6
CONTINUOUS
 10
541.1329367012
 20
31.8416954444
 11
540.8438739807
 21
31.8416954444
  0
LINE
  8
0
 62
7
  6
CONTINUOUS
 10
540.3813737601
 20
31.8416954444
 11
540.0923117012
 21
31.8416954444
  0
LINE
  8
0
 62
7
  6
CONTINUOUS
 10
538.8204365909
 20
31.8416954444
 11
538.4735615909
 21
31.8416954444
  0
LINE
  8
0
 62
7
  6
CONTINUOUS
 10
536.7391865909
 20
31.8416954444
 11
536.5079364807
 21
31.8416954444
  0
LINE
  8
0
 62
7
  6
CONTINUOUS
 10
540.0923117012
 20
32.164332399
 11
540.3813737601
 21
32.164332399
  0
LINE
  8
0
 62
7
  6
CONTINUOUS
 10
540.3813737601
 20
32.3256508311
 11
540.0923117012
 21
32.3256508311
  0
LINE
  8
0
 62
7
  6
CONTINUOUS
 10
535.9876239807
 20
32.3256508311
 11
535.6985614255
 21
32.3256508311
  0
LINE
  8
0
 62
7
  6
CONTINUOUS
 10
535.025405743
 20
32.612536077
 11
535.4379770916
 21
32.612536077
  0
LINE
  8
0
 62
7
  6
CONTINUOUS
 10
536.6647500053
 20
32.612536077
 11
538.0581926282
 21
32.612536077
  0
LINE
  8
0
 62
7
  6
CONTINUOUS
 10
538.3860614807
 20
32.612536077
 11
539.7795041036
 21
32.612536077
  0
LINE
  8
0
 62
7
  6
CONTINUOUS
 10
541.6647500053
 20
32.612536077
 11
543.0581926282
 21
32.612536077
  0
LINE
  8
0
 62
7
  6
CONTINUOUS
 10
543.3860614807
 20
32.612536077
 11
544.7795041036
 21
32.612536077
  0
LINE
  8
0
 62
7
  6
CONTINUOUS
 10
541.4219987601
 20
31.809431758
 11
541.2485612601
 21
31.7449043851
  0
LINE
  8
0
 62
7
  6
CONTINUOUS
 10
538.9938737601
 20
30.8415210777
 11
539.1673112601
 21
30.9060484591
  0
LINE
  8
0
 62
7
  6
CONTINUOUS
 10
544.4282492012
 20
30.8415210777
 11
544.6594989807
 21
30.9060484591
  0
LINE
  8
0
 62
7
  6
CONTINUOUS
 10
544.4282492012
 20
31.0028395296
 11
544.3126239807
 21
30.9705758432
  0
LINE
  8
0
 62
7
  6
CONTINUOUS
 10
543.3876242012
 20
31.6803770123
 11
543.6188739807
 21
31.7126406987
  0
LINE
  8
0
 62
7
  6
CONTINUOUS
 10
541.4219987601
 20
31.6803770123
 11
541.6532492012
 21
31.7126406987
  0
LINE
  8
0
 62
7
  6
CONTINUOUS
 10
538.3579363704
 20
31.3254764164
 11
538.5891864807
 21
31.3577401029
  0
LINE
  8
0
 62
7
  6
CONTINUOUS
 10
541.6532492012
 20
31.8416954444
 11
541.4219987601
 21
31.809431758
  0
LINE
  8
0
 62
7
  6
CONTINUOUS
 10
538.2423114807
 20
31.6803770123
 11
538.4735615909
 21
31.7126406987
  0
LINE
  8
0
 62
7
  6
CONTINUOUS
 10
543.6188739807
 20
31.8416954444
 11
543.2719989807
 21
31.809431758
  0
LINE
  8
0
 62
7
  6
CONTINUOUS
 10
538.5891864807
 20
31.4867948937
 11
538.2423114807
 21
31.4545312073
  0
LINE
  8
0
 62
7
  6
CONTINUOUS
 10
534.3688739531
 20
31.8416954444
 11
534.0219989944
 21
31.809431758
  0
LINE
  8
0
 62
7
  6
CONTINUOUS
 10
538.4735615909
 20
31.8416954444
 11
538.0688739807
 21
31.809431758
  0
LINE
  8
0
 62
7
  6
CONTINUOUS
 10
535.8450778741
 20
33.7600770606
 11
535.1893401692
 21
33.7600770606
  0
LINE
  8
0
 62
7
  6
CONTINUOUS
 10
541.2485612601
 20
31.6158496394
 11
541.4219987601
 21
31.6803770123
  0
LINE
  8
0
 62
7
  6
CONTINUOUS
 10
543.2719989807
 20
31.6481133259
 11
543.3876242012
 21
31.6803770123
  0
LINE
  8
0
 62
7
  6
CONTINUOUS
 10
543.2719989807
 20
31.809431758
 11
543.0407492012
 21
31.7449043851
  0
LINE
  8
0
 62
7
  6
CONTINUOUS
 10
538.9938737601
 20
31.0028395296
 11
538.7048113704
 21
30.9383121455
  0
LINE
  8
0
 62
7
  6
CONTINUOUS
 10
536.2766863704
 20
31.6803770123
 11
536.5079364807
 21
31.7126406987
  0
LINE
  8
0
 62
7
  6
CONTINUOUS
 10
536.5079364807
 20
31.8416954444
 11
536.2766863704
 21
31.809431758
  0
LINE
  8
0
 62
7
  6
CONTINUOUS
 10
534.0798114807
 20
31.6803770123
 11
534.3110615082
 21
31.7126406987
  0
LINE
  8
0
 62
7
  6
CONTINUOUS
 10
540.5991762348
 20
35.2354868967
 11
541.2549139397
 21
35.2354868967
  0
LINE
  8
0
 62
7
  6
CONTINUOUS
 10
538.2423114807
 20
31.29321273
 11
538.3579363704
 21
31.3254764164
  0
LINE
  8
0
 62
7
  6
CONTINUOUS
 10
538.2423114807
 20
31.4545312073
 11
538.0110613704
 21
31.3900038345
  0
LINE
  8
0
 62
7
  6
CONTINUOUS
 10
538.1266865909
 20
31.6481133259
 11
538.2423114807
 21
31.6803770123
  0
LINE
  8
0
 62
7
  6
CONTINUOUS
 10
534.7735614807
 20
30.8415210777
 11
535.0048114255
 21
30.9060484591
  0
LINE
  8
0
 62
7
  6
CONTINUOUS
 10
538.0688739807
 20
31.809431758
 11
537.9532490909
 21
31.7771680715
  0
LINE
  8
0
 62
7
  6
CONTINUOUS
 10
534.0219989944
 20
31.809431758
 11
533.8485614944
 21
31.7771680715
  0
LINE
  8
0
 62
7
  6
CONTINUOUS
 10
544.7795041036
 20
36.3830278803
 11
543.3860614807
 21
36.3830278803
  0
LINE
  8
0
 62
7
  6
CONTINUOUS
 10
541.4188483659
 20
36.3830278803
 11
541.0062770173
 21
36.3830278803
  0
LINE
  8
0
 62
7
  6
CONTINUOUS
 10
539.7795041036
 20
36.3830278803
 11
538.3860614807
 21
36.3830278803
  0
LINE
  8
0
 62
7
  6
CONTINUOUS
 10
538.0581926282
 20
36.3830278803
 11
536.6647500053
 21
36.3830278803
  0
LINE
  8
0
 62
7
  6
CONTINUOUS
 10
534.7795041036
 20
36.3830278803
 11
533.3860614807
 21
36.3830278803
  0
LINE
  8
0
 62
7
  6
CONTINUOUS
 10
533.9641864669
 20
31.6481133259
 11
534.0798114807
 21
31.6803770123
  0
CIRCLE
  8
0
 62
7
  6
CONTINUOUS
 10
544.0827827921
 20
38.7190934541
 40
2.0901639344
  0
ARC
  8
0
 62
7
  6
CONTINUOUS
 10
535.025405743
 20
34.2518803393
 40
1.6393442623
 50
180.0
 51
270.0
  0
ARC
  8
0
 62
7
  6
CONTINUOUS
 10
541.4188483659
 20
34.743683618
 40
1.6393442623
 50
0.0
 51
90.0
  0
ARC
  8
0
 62
7
  6
CONTINUOUS
 10
535.4379770916
 20
34.0879459131
 40
1.4754098361
 50
270.0
 51
326.2510114041
  0
ARC
  8
0
 62
7
  6
CONTINUOUS
 10
541.0062770173
 20
34.9076180442
 40
1.4754098361
 50
90.0
 51
146.2510114041
  0
ARC
  8
0
 62
7
  6
CONTINUOUS
 10
535.8450778741
 20
34.5797491918
 40
0.8196721311
 50
270.0
 51
360.0
  0
ARC
  8
0
 62
7
  6
CONTINUOUS
 10
540.5991762348
 20
34.4158147655
 40
0.8196721311
 50
90.0
 51
180.0
  0
ARC
  8
0
 62
7
  6
CONTINUOUS
 10
535.1893401692
 20
34.1699131262
 40
0.4098360656
 50
180.0
 51
270.0
  0
ARC
  8
0
 62
7
  6
CONTINUOUS
 10
541.2549139397
 20
34.8256508311
 40
0.4098360656
 50
0.0
 51
90.0
  0
SOLID
  8
0
 62
7
  6
CONTINUOUS
 10
540.0923117012
 20
32.1643327593
 11
540.0923117012
 21
32.3256512429
 12
540.3813737601
 22
32.1643327593
 13
540.3813737601
 23
32.3256512429
  0
SOLID
  8
0
 62
7
  6
CONTINUOUS
 10
534.3688739531
 20
31.841695792
 11
534.7735614807
 21
31.8094316148
 12
534.0219989944
 22
31.8094316148
 13
534.0219989944
 23
31.8094316148
  0
SOLID
  8
0
 62
7
  6
CONTINUOUS
 10
533.8485614944
 20
31.7771687019
 11
534.0219989944
 21
31.8094316148
 12
534.7735614807
 22
31.8094316148
 13
534.7735614807
 23
31.8094316148
  0
SOLID
  8
0
 62
7
  6
CONTINUOUS
 10
534.7735614807
 20
31.8094316148
 11
535.0048114255
 21
31.7449043986
 12
533.8485614944
 22
31.7771687019
 13
533.8485614944
 23
31.7771687019
  0
SOLID
  8
0
 62
7
  6
CONTINUOUS
 10
533.6751239738
 20
31.712640202
 11
533.8485614944
 21
31.7771687019
 12
535.0048114255
 22
31.7449043986
 13
535.0048114255
 23
31.7449043986
  0
SOLID
  8
0
 62
7
  6
CONTINUOUS
 10
533.6751239738
 20
31.712640202
 11
535.0048114255
 21
31.7449043986
 12
534.3110615082
 22
31.712640202
 13
534.3110615082
 23
31.712640202
  0
SOLID
  8
0
 62
7
  6
CONTINUOUS
 10
534.3110615082
 20
31.712640202
 11
535.0048114255
 21
31.7449043986
 12
534.7157489531
 22
31.6803773084
 13
534.7157489531
 23
31.6803773084
  0
SOLID
  8
0
 62
7
  6
CONTINUOUS
 10
535.0048114255
 20
31.7449043986
 11
535.1782489255
 21
31.6481130052
 12
534.7157489531
 22
31.6803773084
 13
534.7157489531
 23
31.6803773084
  0
SOLID
  8
0
 62
7
  6
CONTINUOUS
 10
534.8891865358
 20
31.6158502183
 11
534.7157489531
 21
31.6803773084
 12
535.1782489255
 22
31.6481130052
 13
535.1782489255
 23
31.6481130052
  0
SOLID
  8
0
 62
7
  6
CONTINUOUS
 10
534.8891865358
 20
31.6158502183
 11
535.1782489255
 21
31.6481130052
 12
534.9469989807
 22
31.5190586669
 13
534.9469989807
 23
31.5190586669
  0
SOLID
  8
0
 62
7
  6
CONTINUOUS
 10
535.1782489255
 20
31.6481130052
 11
535.2360615358
 21
31.5190586669
 12
534.9469989807
 22
31.5190586669
 13
534.9469989807
 23
31.5190586669
  0
SOLID
  8
0
 62
7
  6
CONTINUOUS
 10
536.2766863704
 20
31.8094307377
 11
536.5079364807
 21
31.841695041
 12
536.7391865909
 22
31.841695041
 13
536.7391865909
 23
31.841695041
  0
SOLID
  8
0
 62
7
  6
CONTINUOUS
 10
536.7391865909
 20
31.841695041
 11
536.9126240909
 21
31.8094307377
 12
536.2766863704
 22
31.8094307377
 13
536.2766863704
 23
31.8094307377
  0
SOLID
  8
0
 62
7
  6
CONTINUOUS
 10
536.1032490358
 20
31.7449036475
 11
536.2766863704
 21
31.8094307377
 12
536.9126240909
 22
31.8094307377
 13
536.9126240909
 23
31.8094307377
  0
SOLID
  8
0
 62
7
  6
CONTINUOUS
 10
536.9126240909
 20
31.8094307377
 11
537.0860615909
 21
31.7449036475
 12
536.1032490358
 22
31.7449036475
 13
536.1032490358
 23
31.7449036475
  0
SOLID
  8
0
 62
7
  6
CONTINUOUS
 10
537.0860615909
 20
31.7449036475
 11
536.5079364807
 21
31.7126400953
 12
536.1032490358
 22
31.7449036475
 13
536.1032490358
 23
31.7449036475
  0
SOLID
  8
0
 62
7
  6
CONTINUOUS
 10
535.9876239807
 20
31.6803765574
 11
536.1032490358
 21
31.7449036475
 12
536.5079364807
 22
31.7126400953
 13
536.5079364807
 23
31.7126400953
  0
SOLID
  8
0
 62
7
  6
CONTINUOUS
 10
536.5079364807
 20
31.7126400953
 11
536.2766863704
 21
31.6803765574
 12
535.9876239807
 22
31.6803765574
 13
535.9876239807
 23
31.6803765574
  0
SOLID
  8
0
 62
7
  6
CONTINUOUS
 10
536.5079364807
 20
31.7126400953
 11
537.0860615909
 21
31.7449036475
 12
536.7391865909
 22
31.6803765574
 13
536.7391865909
 23
31.6803765574
  0
SOLID
  8
0
 62
7
  6
CONTINUOUS
 10
537.0860615909
 20
31.7449036475
 11
537.2016864807
 21
31.6803765574
 12
536.7391865909
 22
31.6803765574
 13
536.7391865909
 23
31.6803765574
  0
SOLID
  8
0
 62
7
  6
CONTINUOUS
 10
536.8548114807
 20
31.6481130052
 11
536.7391865909
 21
31.6803765574
 12
537.2016864807
 22
31.6803765574
 13
537.2016864807
 23
31.6803765574
  0
SOLID
  8
0
 62
7
  6
CONTINUOUS
 10
537.2016864807
 20
31.6803765574
 11
537.2594990909
 21
31.6158494672
 12
536.8548114807
 22
31.6481130052
 13
536.8548114807
 23
31.6481130052
  0
SOLID
  8
0
 62
7
  6
CONTINUOUS
 10
536.9704363704
 20
31.583585915
 11
536.8548114807
 21
31.6481130052
 12
537.2594990909
 22
31.6158494672
 13
537.2594990909
 23
31.6158494672
  0
SOLID
  8
0
 62
7
  6
CONTINUOUS
 10
536.9704363704
 20
31.583585915
 11
537.2594990909
 21
31.6158494672
 12
537.0282489807
 22
31.4545309836
 13
537.0282489807
 23
31.4545309836
  0
SOLID
  8
0
 62
7
  6
CONTINUOUS
 10
537.2594990909
 20
31.6158494672
 11
537.3173113704
 21
31.4545309836
 12
537.0282489807
 22
31.4545309836
 13
537.0282489807
 23
31.4545309836
  0
SOLID
  8
0
 62
7
  6
CONTINUOUS
 10
536.2766863704
 20
31.6803765574
 11
536.1032490358
 21
31.6158494672
 12
535.9876239807
 22
31.6803765574
 13
535.9876239807
 23
31.6803765574
  0
SOLID
  8
0
 62
7
  6
CONTINUOUS
 10
536.1032490358
 20
31.6158494672
 11
535.9876239807
 21
31.5513216117
 12
535.9876239807
 22
31.6803765574
 13
535.9876239807
 23
31.6803765574
  0
SOLID
  8
0
 62
7
  6
CONTINUOUS
 10
535.9876239807
 20
31.5513216117
 11
535.6985614255
 21
30.8092570492
 12
535.9876239807
 22
31.6803765574
 13
535.9876239807
 23
31.6803765574
  0
SOLID
  8
0
 62
7
  6
CONTINUOUS
 10
535.9876239807
 20
31.6803765574
 11
535.6985614255
 21
30.8092570492
 12
535.9876239807
 22
32.3256504918
 13
535.9876239807
 23
32.3256504918
  0
SOLID
  8
0
 62
7
  6
CONTINUOUS
 10
535.6985614255
 20
30.8092570492
 11
535.6985614255
 21
32.3256504918
 12
535.9876239807
 22
32.3256504918
 13
535.9876239807
 23
32.3256504918
  0
SOLID
  8
0
 62
7
  6
CONTINUOUS
 10
535.9876239807
 20
31.5513216117
 11
535.9876239807
 21
30.8092570492
 12
535.6985614255
 22
30.8092570492
 13
535.6985614255
 23
30.8092570492
  0
SOLID
  8
0
 62
7
  6
CONTINUOUS
 10
537.0282489807
 20
30.8092570492
 11
537.0282489807
 21
31.4545309836
 12
537.3173113704
 22
31.4545309836
 13
537.3173113704
 23
31.4545309836
  0
SOLID
  8
0
 62
7
  6
CONTINUOUS
 10
537.3173113704
 20
31.4545309836
 11
537.3173113704
 21
30.8092570492
 12
537.0282489807
 22
30.8092570492
 13
537.0282489807
 23
30.8092570492
  0
SOLID
  8
0
 62
7
  6
CONTINUOUS
 10
538.0688739807
 20
31.809431823
 11
538.4735615909
 21
31.8416958158
 12
538.8204365909
 22
31.8416958158
 13
538.8204365909
 23
31.8416958158
  0
SOLID
  8
0
 62
7
  6
CONTINUOUS
 10
538.8204365909
 20
31.8416958158
 11
539.1673112601
 21
31.809431823
 12
538.0688739807
 22
31.809431823
 13
538.0688739807
 23
31.809431823
  0
SOLID
  8
0
 62
7
  6
CONTINUOUS
 10
537.9532490909
 20
31.7771687019
 11
538.0688739807
 21
31.809431823
 12
539.1673112601
 22
31.809431823
 13
539.1673112601
 23
31.809431823
  0
SOLID
  8
0
 62
7
  6
CONTINUOUS
 10
539.1673112601
 20
31.809431823
 11
539.3407487601
 21
31.7449043986
 12
537.9532490909
 22
31.7771687019
 13
537.9532490909
 23
31.7771687019
  0
SOLID
  8
0
 62
7
  6
CONTINUOUS
 10
537.8376238704
 20
31.7126398448
 11
537.9532490909
 21
31.7771687019
 12
539.3407487601
 22
31.7449043986
 13
539.3407487601
 23
31.7449043986
  0
SOLID
  8
0
 62
7
  6
CONTINUOUS
 10
537.8376238704
 20
31.7126398448
 11
539.3407487601
 21
31.7449043986
 12
538.4735615909
 22
31.7126398448
 13
538.4735615909
 23
31.7126398448
  0
SOLID
  8
0
 62
7
  6
CONTINUOUS
 10
538.4735615909
 20
31.7126398448
 11
539.3407487601
 21
31.7449043986
 12
538.8204365909
 22
31.7126398448
 13
538.8204365909
 23
31.7126398448
  0
SOLID
  8
0
 62
7
  6
CONTINUOUS
 10
538.8204365909
 20
31.7126398448
 11
539.3407487601
 21
31.7449043986
 12
539.0516867012
 22
31.6803774007
 13
539.0516867012
 23
31.6803774007
  0
SOLID
  8
0
 62
7
  6
CONTINUOUS
 10
539.3407487601
 20
31.7449043986
 11
539.4563739807
 21
31.6803774007
 12
539.0516867012
 22
31.6803774007
 13
539.0516867012
 23
31.6803774007
  0
SOLID
  8
0
 62
7
  6
CONTINUOUS
 10
537.7798115909
 20
31.6481126336
 11
537.8376238704
 21
31.7126398448
 12
538.4735615909
 22
31.7126398448
 13
538.4735615909
 23
31.7126398448
  0
SOLID
  8
0
 62
7
  6
CONTINUOUS
 10
539.1673112601
 20
31.6481126336
 11
539.0516867012
 21
31.6803774007
 12
539.4563739807
 22
31.6803774007
 13
539.4563739807
 23
31.6803774007
  0
SOLID
  8
0
 62
7
  6
CONTINUOUS
 10
539.1673112601
 20
31.6481126336
 11
539.4563739807
 21
31.6803774007
 12
539.2251242012
 22
31.5835861968
 13
539.2251242012
 23
31.5835861968
  0
SOLID
  8
0
 62
7
  6
CONTINUOUS
 10
539.4563739807
 20
31.6803774007
 11
539.5141862601
 21
31.5835861968
 12
539.2251242012
 22
31.5835861968
 13
539.2251242012
 23
31.5835861968
  0
SOLID
  8
0
 62
7
  6
CONTINUOUS
 10
539.2251242012
 20
31.4867945216
 11
539.2251242012
 21
31.5835861968
 12
539.5141862601
 22
31.5835861968
 13
539.5141862601
 23
31.5835861968
  0
SOLID
  8
0
 62
7
  6
CONTINUOUS
 10
539.2251242012
 20
31.4867945216
 11
539.5141862601
 21
31.5835861968
 12
539.2251242012
 22
31.3577403412
 13
539.2251242012
 23
31.3577403412
  0
SOLID
  8
0
 62
7
  6
CONTINUOUS
 10
539.2251242012
 20
31.3577403412
 11
539.5141862601
 21
31.5835861968
 12
539.2251242012
 22
31.1641579843
 13
539.2251242012
 23
31.1641579843
  0
SOLID
  8
0
 62
7
  6
CONTINUOUS
 10
539.5141862601
 20
31.5835861968
 11
539.5141862601
 21
31.0673661609
 12
539.2251242012
 22
31.1641579843
 13
539.2251242012
 23
31.1641579843
  0
SOLID
  8
0
 62
7
  6
CONTINUOUS
 10
541.4219987601
 20
31.8094310465
 11
541.6532492012
 21
31.8416957661
 12
541.8844989807
 22
31.8416957661
 13
541.8844989807
 23
31.8416957661
  0
SOLID
  8
0
 62
7
  6
CONTINUOUS
 10
541.8844989807
 20
31.8416957661
 11
542.0579364807
 21
31.8094310465
 12
541.4219987601
 22
31.8094310465
 13
541.4219987601
 23
31.8094310465
  0
SOLID
  8
0
 62
7
  6
CONTINUOUS
 10
541.2485612601
 20
31.7449047044
 11
541.4219987601
 21
31.8094310465
 12
542.0579364807
 22
31.8094310465
 13
542.0579364807
 23
31.8094310465
  0
SOLID
  8
0
 62
7
  6
CONTINUOUS
 10
542.0579364807
 20
31.8094310465
 11
542.2313739807
 21
31.7449047044
 12
541.2485612601
 22
31.7449047044
 13
541.2485612601
 23
31.7449047044
  0
SOLID
  8
0
 62
7
  6
CONTINUOUS
 10
542.2313739807
 20
31.7449047044
 11
541.6532492012
 21
31.7126400953
 12
541.2485612601
 22
31.7449047044
 13
541.2485612601
 23
31.7449047044
  0
SOLID
  8
0
 62
7
  6
CONTINUOUS
 10
541.1329367012
 20
31.6803773299
 11
541.2485612601
 21
31.7449047044
 12
541.6532492012
 22
31.7126400953
 13
541.6532492012
 23
31.7126400953
  0
SOLID
  8
0
 62
7
  6
CONTINUOUS
 10
541.6532492012
 20
31.7126400953
 11
541.4219987601
 21
31.6803773299
 12
541.1329367012
 22
31.6803773299
 13
541.1329367012
 23
31.6803773299
  0
SOLID
  8
0
 62
7
  6
CONTINUOUS
 10
541.6532492012
 20
31.7126400953
 11
542.2313739807
 21
31.7449047044
 12
541.8844989807
 22
31.6803773299
 13
541.8844989807
 23
31.6803773299
  0
SOLID
  8
0
 62
7
  6
CONTINUOUS
 10
542.2313739807
 20
31.7449047044
 11
542.3469992012
 21
31.6803773299
 12
541.8844989807
 22
31.6803773299
 13
541.8844989807
 23
31.6803773299
  0
SOLID
  8
0
 62
7
  6
CONTINUOUS
 10
542.0001242012
 20
31.6481130052
 11
541.8844989807
 21
31.6803773299
 12
542.3469992012
 22
31.6803773299
 13
542.3469992012
 23
31.6803773299
  0
SOLID
  8
0
 62
7
  6
CONTINUOUS
 10
542.0001242012
 20
31.6481130052
 11
542.3469992012
 21
31.6803773299
 12
542.1157487601
 22
31.5835862682
 13
542.1157487601
 23
31.5835862682
  0
SOLID
  8
0
 62
7
  6
CONTINUOUS
 10
542.3469992012
 20
31.6803773299
 11
542.4048114807
 21
31.5835862682
 12
542.1157487601
 22
31.5835862682
 13
542.1157487601
 23
31.5835862682
  0
SOLID
  8
0
 62
7
  6
CONTINUOUS
 10
542.1735617012
 20
31.422267832
 11
542.1157487601
 21
31.5835862682
 12
542.4048114807
 22
31.5835862682
 13
542.4048114807
 23
31.5835862682
  0
SOLID
  8
0
 62
7
  6
CONTINUOUS
 10
542.4048114807
 20
31.5835862682
 11
542.4626237601
 21
31.422267832
 12
542.1735617012
 22
31.422267832
 13
542.1735617012
 23
31.422267832
  0
SOLID
  8
0
 62
7
  6
CONTINUOUS
 10
541.4219987601
 20
31.6803773299
 11
541.2485612601
 21
31.6158502183
 12
541.1329367012
 22
31.6803773299
 13
541.1329367012
 23
31.6803773299
  0
SOLID
  8
0
 62
7
  6
CONTINUOUS
 10
541.2485612601
 20
31.6158502183
 11
541.1329367012
 21
31.5513216117
 12
541.1329367012
 22
31.6803773299
 13
541.1329367012
 23
31.6803773299
  0
SOLID
  8
0
 62
7
  6
CONTINUOUS
 10
541.1329367012
 20
31.5513216117
 11
540.8438739807
 21
30.8092577743
 12
541.1329367012
 22
31.6803773299
 13
541.1329367012
 23
31.6803773299
  0
SOLID
  8
0
 62
7
  6
CONTINUOUS
 10
541.1329367012
 20
31.6803773299
 11
540.8438739807
 21
30.8092577743
 12
541.1329367012
 22
31.8416957661
 13
541.1329367012
 23
31.8416957661
  0
SOLID
  8
0
 62
7
  6
CONTINUOUS
 10
540.8438739807
 20
30.8092577743
 11
540.8438739807
 21
31.8416957661
 12
541.1329367012
 22
31.8416957661
 13
541.1329367012
 23
31.8416957661
  0
SOLID
  8
0
 62
7
  6
CONTINUOUS
 10
541.1329367012
 20
31.5513216117
 11
541.1329367012
 21
30.8092577743
 12
540.8438739807
 22
30.8092577743
 13
540.8438739807
 23
30.8092577743
  0
SOLID
  8
0
 62
7
  6
CONTINUOUS
 10
542.1735617012
 20
30.8092577743
 11
542.1735617012
 21
31.422267832
 12
542.4626237601
 22
31.422267832
 13
542.4626237601
 23
31.422267832
  0
SOLID
  8
0
 62
7
  6
CONTINUOUS
 10
542.4626237601
 20
31.422267832
 11
542.4626237601
 21
30.8092577743
 12
542.1735617012
 22
30.8092577743
 13
542.1735617012
 23
30.8092577743
  0
SOLID
  8
0
 62
7
  6
CONTINUOUS
 10
543.2719989807
 20
31.8094314924
 11
543.6188739807
 21
31.8416958387
 12
543.9657489807
 22
31.8416958387
 13
543.9657489807
 23
31.8416958387
  0
SOLID
  8
0
 62
7
  6
CONTINUOUS
 10
543.9657489807
 20
31.8416958387
 11
544.3126239807
 21
31.8094314924
 12
543.2719989807
 22
31.8094314924
 13
543.2719989807
 23
31.8094314924
  0
SOLID
  8
0
 62
7
  6
CONTINUOUS
 10
543.0407492012
 20
31.7449043986
 11
543.2719989807
 21
31.8094314924
 12
544.3126239807
 22
31.8094314924
 13
544.3126239807
 23
31.8094314924
  0
SOLID
  8
0
 62
7
  6
CONTINUOUS
 10
543.0407492012
 20
31.7449043986
 11
544.3126239807
 21
31.8094314888
 12
544.4860614807
 22
31.7771687019
 13
544.4860614807
 23
31.7771687019
  0
SOLID
  8
0
 62
7
  6
CONTINUOUS
 10
543.0407492012
 20
31.7449043986
 11
544.4860614807
 21
31.7771687019
 12
543.6188739807
 22
31.7126401399
 13
543.6188739807
 23
31.7126401399
  0
SOLID
  8
0
 62
7
  6
CONTINUOUS
 10
543.6188739807
 20
31.7126401399
 11
544.4860614807
 21
31.7771687019
 12
543.9657489807
 22
31.7126401399
 13
543.9657489807
 23
31.7126401399
  0
SOLID
  8
0
 62
7
  6
CONTINUOUS
 10
544.4860614807
 20
31.7771687019
 11
544.6594989807
 21
31.7126401399
 12
543.9657489807
 22
31.7126401399
 13
543.9657489807
 23
31.7126401399
  0
SOLID
  8
0
 62
7
  6
CONTINUOUS
 10
544.3126239807
 20
31.6803773084
 11
543.9657489807
 21
31.7126401399
 12
544.6594989807
 22
31.7126401399
 13
544.6594989807
 23
31.7126401399
  0
SOLID
  8
0
 62
7
  6
CONTINUOUS
 10
542.9251239807
 20
31.6481128977
 11
543.0407492012
 21
31.7449043986
 12
543.6188739807
 22
31.7126401399
 13
543.6188739807
 23
31.7126401399
  0
SOLID
  8
0
 62
7
  6
CONTINUOUS
 10
544.3126239807
 20
31.6803773084
 11
544.6594989807
 21
31.7126401399
 12
544.4282492012
 22
31.6481128977
 13
544.4282492012
 23
31.6481128977
  0
SOLID
  8
0
 62
7
  6
CONTINUOUS
 10
544.4282492012
 20
31.6481128977
 11
544.6594989807
 21
31.7126401399
 12
544.4860614807
 22
31.5835858812
 13
544.4860614807
 23
31.5835858812
  0
SOLID
  8
0
 62
7
  6
CONTINUOUS
 10
544.6594989807
 20
31.7126401399
 11
544.7751235396
 21
31.5835858812
 12
544.4860614807
 22
31.5835858812
 13
544.4860614807
 23
31.5835858812
  0
SOLID
  8
0
 62
7
  6
CONTINUOUS
 10
534.0798114807
 20
31.6803773084
 11
533.5594989807
 21
31.6481129264
 12
534.3110615082
 22
31.7126401456
 13
534.3110615082
 23
31.7126401456
  0
SOLID
  8
0
 62
7
  6
CONTINUOUS
 10
533.5594989807
 20
31.6481129264
 11
533.6751239738
 21
31.7126401456
 12
534.3110615082
 22
31.7126401456
 13
534.3110615082
 23
31.7126401456
  0
SOLID
  8
0
 62
7
  6
CONTINUOUS
 10
534.0798114807
 20
31.6803773084
 11
533.9641864669
 21
31.6481129264
 12
533.5594989807
 22
31.6481129264
 13
533.5594989807
 23
31.6481129264
  0
SOLID
  8
0
 62
7
  6
CONTINUOUS
 10
533.4438739824
 20
31.5190588248
 11
533.5594989807
 21
31.6481129264
 12
533.9641864669
 22
31.6481129264
 13
533.9641864669
 23
31.6481129264
  0
SOLID
  8
0
 62
7
  6
CONTINUOUS
 10
537.7798115909
 20
31.6481130555
 11
538.4735615909
 21
31.7126400953
 12
538.2423114807
 22
31.6803773084
 13
538.2423114807
 23
31.6803773084
  0
SOLID
  8
0
 62
7
  6
CONTINUOUS
 10
538.2423114807
 20
31.6803773084
 11
538.1266865909
 21
31.6481130555
 12
537.7798115909
 22
31.6481130555
 13
537.7798115909
 23
31.6481130555
  0
SOLID
  8
0
 62
7
  6
CONTINUOUS
 10
537.7798115909
 20
31.5835859653
 11
537.7798115909
 21
31.6481130555
 12
538.1266865909
 22
31.6481130555
 13
538.1266865909
 23
31.6481130555
  0
SOLID
  8
0
 62
7
  6
CONTINUOUS
 10
538.1266865909
 20
31.6481130555
 11
538.0688739807
 21
31.5835859653
 12
537.7798115909
 22
31.5835859653
 13
537.7798115909
 23
31.5835859653
  0
SOLID
  8
0
 62
7
  6
CONTINUOUS
 10
542.9251239807
 20
31.6481130555
 11
543.6188739807
 21
31.7126400953
 12
543.3876242012
 22
31.6803773084
 13
543.3876242012
 23
31.6803773084
  0
SOLID
  8
0
 62
7
  6
CONTINUOUS
 10
543.3876242012
 20
31.6803773084
 11
543.2719989807
 21
31.6481130555
 12
542.9251239807
 22
31.6481130555
 13
542.9251239807
 23
31.6481130555
  0
SOLID
  8
0
 62
7
  6
CONTINUOUS
 10
542.9251239807
 20
31.5835859653
 11
542.9251239807
 21
31.6481130555
 12
543.2719989807
 22
31.6481130555
 13
543.2719989807
 23
31.6481130555
  0
SOLID
  8
0
 62
7
  6
CONTINUOUS
 10
543.2719989807
 20
31.6481130555
 11
543.2141867012
 21
31.5835859653
 12
542.9251239807
 22
31.5835859653
 13
542.9251239807
 23
31.5835859653
  0
SOLID
  8
0
 62
7
  6
CONTINUOUS
 10
543.0407492012
 20
31.4545317347
 11
542.9251239807
 21
31.5835859653
 12
543.2141867012
 22
31.5835859653
 13
543.2141867012
 23
31.5835859653
  0
SOLID
  8
0
 62
7
  6
CONTINUOUS
 10
533.4438739824
 20
31.5190588248
 11
533.9641864669
 21
31.6481130052
 12
533.7907489669
 22
31.5513216117
 13
533.7907489669
 23
31.5513216117
  0
SOLID
  8
0
 62
7
  6
CONTINUOUS
 10
533.7907489669
 20
31.5513216117
 11
533.7329364807
 21
31.4867945216
 12
533.4438739824
 22
31.5190588248
 13
533.4438739824
 23
31.5190588248
  0
SOLID
  8
0
 62
7
  6
CONTINUOUS
 10
533.3860614807
 20
31.325476038
 11
533.4438739824
 21
31.5190588248
 12
533.7329364807
 22
31.4867945216
 13
533.7329364807
 23
31.4867945216
  0
SOLID
  8
0
 62
7
  6
CONTINUOUS
 10
538.2423114807
 20
31.4545317347
 11
538.5891864807
 21
31.4867945557
 12
539.2251242012
 22
31.4867945557
 13
539.2251242012
 23
31.4867945557
  0
SOLID
  8
0
 62
7
  6
CONTINUOUS
 10
538.2423114807
 20
31.4545317347
 11
539.2251242012
 21
31.4867945557
 12
538.0110613704
 22
31.3900038345
 13
538.0110613704
 23
31.3900038345
  0
SOLID
  8
0
 62
7
  6
CONTINUOUS
 10
538.0110613704
 20
31.3900038345
 11
539.2251242012
 21
31.4867945557
 12
538.5891864807
 22
31.3577403754
 13
538.5891864807
 23
31.3577403754
  0
SOLID
  8
0
 62
7
  6
CONTINUOUS
 10
539.2251242012
 20
31.4867945557
 11
539.2251242012
 21
31.3577403754
 12
538.5891864807
 22
31.3577403754
 13
538.5891864807
 23
31.3577403754
  0
SOLID
  8
0
 62
7
  6
CONTINUOUS
 10
543.0407492012
 20
31.4545313481
 11
543.2141867012
 21
31.583585915
 12
543.2719989807
 22
31.5190588248
 13
543.2719989807
 23
31.5190588248
  0
SOLID
  8
0
 62
7
  6
CONTINUOUS
 10
543.2719989807
 20
31.5190588248
 11
543.4454364807
 21
31.4545313481
 12
543.0407492012
 22
31.4545313481
 13
543.0407492012
 23
31.4545313481
  0
SOLID
  8
0
 62
7
  6
CONTINUOUS
 10
543.2719989807
 20
31.3577403412
 11
543.0407492012
 21
31.4545313481
 12
543.4454364807
 22
31.4545313481
 13
543.4454364807
 23
31.4545313481
  0
SOLID
  8
0
 62
7
  6
CONTINUOUS
 10
543.4454364807
 20
31.4545313481
 11
544.4282492012
 21
31.2932132511
 12
543.2719989807
 22
31.3577403412
 13
543.2719989807
 23
31.3577403412
  0
SOLID
  8
0
 62
7
  6
CONTINUOUS
 10
544.2548117012
 20
31.1964222346
 11
543.2719989807
 21
31.3577403412
 12
544.4282492012
 22
31.2932132511
 13
544.4282492012
 23
31.2932132511
  0
SOLID
  8
0
 62
7
  6
CONTINUOUS
 10
544.4282492012
 20
31.2932132511
 11
544.6594989807
 21
31.1964222346
 12
544.2548117012
 22
31.1964222346
 13
544.2548117012
 23
31.1964222346
  0
SOLID
  8
0
 62
7
  6
CONTINUOUS
 10
544.4282492012
 20
31.1318947675
 11
544.2548117012
 21
31.1964222346
 12
544.6594989807
 22
31.1964222346
 13
544.6594989807
 23
31.1964222346
  0
SOLID
  8
0
 62
7
  6
CONTINUOUS
 10
544.4282492012
 20
31.1318947675
 11
544.6594989807
 21
31.1964222346
 12
544.4860614807
 22
31.0673665164
 13
544.4860614807
 23
31.0673665164
  0
SOLID
  8
0
 62
7
  6
CONTINUOUS
 10
544.6594989807
 20
31.1964222346
 11
544.7751235396
 21
31.0673665164
 12
544.4860614807
 22
31.0673665164
 13
544.4860614807
 23
31.0673665164
  0
SOLID
  8
0
 62
7
  6
CONTINUOUS
 10
544.4282492012
 20
31.0028394316
 11
544.4860614807
 21
31.0673665164
 12
544.7751235396
 22
31.0673665164
 13
544.7751235396
 23
31.0673665164
  0
SOLID
  8
0
 62
7
  6
CONTINUOUS
 10
544.7751235396
 20
31.0673665164
 11
544.7751235396
 21
31.0028394316
 12
544.4282492012
 22
31.0028394316
 13
544.4282492012
 23
31.0028394316
  0
SOLID
  8
0
 62
7
  6
CONTINUOUS
 10
544.3126239807
 20
30.9705762839
 11
544.4282492012
 21
31.0028394316
 12
544.7751235396
 22
31.0028394316
 13
544.7751235396
 23
31.0028394316
  0
SOLID
  8
0
 62
7
  6
CONTINUOUS
 10
544.3126239807
 20
30.9705762839
 11
544.7751235396
 21
31.0028394316
 12
544.0813742012
 22
30.9383123468
 13
544.0813742012
 23
30.9383123468
  0
SOLID
  8
0
 62
7
  6
CONTINUOUS
 10
544.7751235396
 20
31.0028394316
 11
544.6594989807
 21
30.9060491937
 12
544.0813742012
 22
30.9383123468
 13
544.0813742012
 23
30.9383123468
  0
SOLID
  8
0
 62
7
  6
CONTINUOUS
 10
544.6594989807
 20
30.9060491937
 11
543.2141867012
 21
30.8737848904
 12
544.0813742012
 22
30.9383123468
 13
544.0813742012
 23
30.9383123468
  0
SOLID
  8
0
 62
7
  6
CONTINUOUS
 10
544.0813742012
 20
30.9383123468
 11
543.2141867012
 21
30.8737848904
 12
543.7344992012
 22
30.9383123468
 13
543.7344992012
 23
30.9383123468
  0
SOLID
  8
0
 62
7
  6
CONTINUOUS
 10
543.2141867012
 20
30.8737848904
 11
543.0407492012
 21
30.9383123468
 12
543.7344992012
 22
30.9383123468
 13
543.7344992012
 23
30.9383123468
  0
SOLID
  8
0
 62
7
  6
CONTINUOUS
 10
543.2141867012
 20
30.8737848904
 11
544.6594989807
 21
30.9060491937
 12
543.3876242012
 22
30.8415205581
 13
543.3876242012
 23
30.8415205581
  0
SOLID
  8
0
 62
7
  6
CONTINUOUS
 10
544.6594989807
 20
30.9060491937
 11
544.4282492012
 21
30.8415205581
 12
543.3876242012
 22
30.8415205581
 13
543.3876242012
 23
30.8415205581
  0
SOLID
  8
0
 62
7
  6
CONTINUOUS
 10
543.7344992012
 20
30.8092581772
 11
543.3876242012
 21
30.8415205581
 12
544.4282492012
 22
30.8415205581
 13
544.4282492012
 23
30.8415205581
  0
SOLID
  8
0
 62
7
  6
CONTINUOUS
 10
544.4282492012
 20
30.8415205581
 11
544.0813742012
 21
30.8092581772
 12
543.7344992012
 22
30.8092581772
 13
543.7344992012
 23
30.8092581772
  0
SOLID
  8
0
 62
7
  6
CONTINUOUS
 10
533.3860614807
 20
31.325476038
 11
533.7329364807
 21
31.4867945216
 12
533.6751239738
 22
31.3577403412
 13
533.6751239738
 23
31.3577403412
  0
SOLID
  8
0
 62
7
  6
CONTINUOUS
 10
533.6751239738
 20
31.3577403412
 11
533.6751239738
 21
31.2609490436
 12
533.3860614807
 22
31.325476038
 13
533.3860614807
 23
31.325476038
  0
SOLID
  8
0
 62
7
  6
CONTINUOUS
 10
533.4438739824
 20
31.1318947675
 11
533.3860614807
 21
31.325476038
 12
533.6751239738
 22
31.2609490436
 13
533.6751239738
 23
31.2609490436
  0
SOLID
  8
0
 62
7
  6
CONTINUOUS
 10
533.6751239738
 20
31.2609490436
 11
533.7907489669
 21
31.0996304642
 12
533.4438739824
 22
31.1318947675
 13
533.4438739824
 23
31.1318947675
  0
SOLID
  8
0
 62
7
  6
CONTINUOUS
 10
533.5594989807
 20
31.0028388804
 11
533.4438739824
 21
31.1318947675
 12
533.7907489669
 22
31.0996304642
 13
533.7907489669
 23
31.0996304642
  0
SOLID
  8
0
 62
7
  6
CONTINUOUS
 10
533.7907489669
 20
31.0996304642
 11
533.9641864669
 21
31.0028388804
 12
533.5594989807
 22
31.0028388804
 13
533.5594989807
 23
31.0028388804
  0
SOLID
  8
0
 62
7
  6
CONTINUOUS
 10
533.6751239738
 20
30.9383122606
 11
533.5594989807
 21
31.0028388804
 12
533.9641864669
 22
31.0028388804
 13
533.9641864669
 23
31.0028388804
  0
SOLID
  8
0
 62
7
  6
CONTINUOUS
 10
533.9641864669
 20
31.0028388804
 11
534.3110615082
 21
30.9383122606
 12
533.6751239738
 22
30.9383122606
 13
533.6751239738
 23
30.9383122606
  0
SOLID
  8
0
 62
7
  6
CONTINUOUS
 10
533.8485614944
 20
30.8737848904
 11
533.6751239738
 21
30.9383122606
 12
534.3110615082
 22
30.9383122606
 13
534.3110615082
 23
30.9383122606
  0
SOLID
  8
0
 62
7
  6
CONTINUOUS
 10
537.8954364807
 20
31.3254759532
 11
538.0110613704
 21
31.3900038345
 12
538.5891864807
 22
31.3577403412
 13
538.5891864807
 23
31.3577403412
  0
SOLID
  8
0
 62
7
  6
CONTINUOUS
 10
538.5891864807
 20
31.3577403412
 11
538.3579363704
 21
31.3254759532
 12
537.8954364807
 22
31.3254759532
 13
537.8954364807
 23
31.3254759532
  0
SOLID
  8
0
 62
7
  6
CONTINUOUS
 10
537.7798115909
 20
31.1964218576
 11
537.8954364807
 21
31.3254759532
 12
538.3579363704
 22
31.3254759532
 13
538.3579363704
 23
31.3254759532
  0
SOLID
  8
0
 62
7
  6
CONTINUOUS
 10
538.1266865909
 20
31.2286853572
 11
537.7798115909
 21
31.1964218576
 12
538.2423114807
 22
31.2932132511
 13
538.2423114807
 23
31.2932132511
  0
SOLID
  8
0
 62
7
  6
CONTINUOUS
 10
537.7798115909
 20
31.1964218576
 11
538.3579363704
 21
31.325476038
 12
538.2423114807
 22
31.2932132511
 13
538.2423114807
 23
31.2932132511
  0
SOLID
  8
0
 62
7
  6
CONTINUOUS
 10
538.1266865909
 20
31.2286853572
 11
538.0688739807
 21
31.1318947675
 12
537.7798115909
 22
31.1964218576
 13
537.7798115909
 23
31.1964218576
  0
SOLID
  8
0
 62
7
  6
CONTINUOUS
 10
537.7798115909
 20
31.0996304642
 11
537.7798115909
 21
31.1964218576
 12
538.0688739807
 22
31.1318947675
 13
538.0688739807
 23
31.1318947675
  0
SOLID
  8
0
 62
7
  6
CONTINUOUS
 10
538.0688739807
 20
31.1318947675
 11
538.0688739807
 21
31.0673661609
 12
537.7798115909
 22
31.0996304642
 13
537.7798115909
 23
31.0996304642
  0
SOLID
  8
0
 62
7
  6
CONTINUOUS
 10
537.8376238704
 20
30.9705762839
 11
537.7798115909
 21
31.0996304642
 12
538.0688739807
 22
31.0673661609
 13
538.0688739807
 23
31.0673661609
  0
SOLID
  8
0
 62
7
  6
CONTINUOUS
 10
539.2251242012
 20
31.1641579843
 11
539.5141862601
 21
31.0673661609
 12
539.1673112601
 22
31.0996304642
 13
539.1673112601
 23
31.0996304642
  0
SOLID
  8
0
 62
7
  6
CONTINUOUS
 10
538.9938737601
 20
31.0028390707
 11
539.1673112601
 21
31.0996304642
 12
539.5141862601
 22
31.0673661609
 13
539.5141862601
 23
31.0673661609
  0
SOLID
  8
0
 62
7
  6
CONTINUOUS
 10
538.9938737601
 20
31.0028390707
 11
539.5141862601
 21
31.0673661609
 12
539.2251242012
 22
30.9705762839
 13
539.2251242012
 23
30.9705762839
  0
SOLID
  8
0
 62
7
  6
CONTINUOUS
 10
539.5141862601
 20
31.0673661609
 11
539.5719992012
 21
30.9060491937
 12
539.2251242012
 22
30.9705762839
 13
539.2251242012
 23
30.9705762839
  0
SOLID
  8
0
 62
7
  6
CONTINUOUS
 10
539.2829364807
 20
30.8737848904
 11
539.2251242012
 21
30.9705762839
 12
539.5719992012
 22
30.9060491937
 13
539.5719992012
 23
30.9060491937
  0
SOLID
  8
0
 62
7
  6
CONTINUOUS
 10
539.2829364807
 20
30.8737848904
 11
539.5719992012
 21
30.9060491937
 12
539.3407487601
 22
30.8092576254
 13
539.3407487601
 23
30.8092576254
  0
SOLID
  8
0
 62
7
  6
CONTINUOUS
 10
539.5719992012
 20
30.9060491937
 11
539.6298114807
 21
30.8092576254
 12
539.3407487601
 22
30.8092576254
 13
539.3407487601
 23
30.8092576254
  0
SOLID
  8
0
 62
7
  6
CONTINUOUS
 10
534.8891865358
 20
31.035103216
 11
534.9469989807
 21
31.1318946289
 12
535.2360615358
 22
31.1318946289
 13
535.2360615358
 23
31.1318946289
  0
SOLID
  8
0
 62
7
  6
CONTINUOUS
 10
535.2360615358
 20
31.1318946289
 11
535.1782489255
 21
31.0028390707
 12
534.8891865358
 22
31.035103216
 13
534.8891865358
 23
31.035103216
  0
SOLID
  8
0
 62
7
  6
CONTINUOUS
 10
534.7157489531
 20
30.9705762839
 11
534.8891865358
 21
31.035103216
 12
535.1782489255
 22
31.0028390707
 13
535.1782489255
 23
31.0028390707
  0
SOLID
  8
0
 62
7
  6
CONTINUOUS
 10
534.7157489531
 20
30.9705762839
 11
535.1782489255
 21
31.0028390707
 12
534.3110615082
 22
30.9383119806
 13
534.3110615082
 23
30.9383119806
  0
SOLID
  8
0
 62
7
  6
CONTINUOUS
 10
535.1782489255
 20
31.0028390707
 11
535.0048114255
 21
30.9060491937
 12
534.3110615082
 22
30.9383119806
 13
534.3110615082
 23
30.9383119806
  0
SOLID
  8
0
 62
7
  6
CONTINUOUS
 10
533.8485614944
 20
30.8737848904
 11
534.3110615082
 21
30.9383119806
 12
535.0048114255
 22
30.9060491937
 13
535.0048114255
 23
30.9060491937
  0
SOLID
  8
0
 62
7
  6
CONTINUOUS
 10
533.8485614944
 20
30.8737848904
 11
535.0048114255
 21
30.9060491937
 12
534.0219989944
 22
30.8415207131
 13
534.0219989944
 23
30.8415207131
  0
SOLID
  8
0
 62
7
  6
CONTINUOUS
 10
535.0048114255
 20
30.9060491937
 11
534.7735614807
 21
30.8415207131
 12
534.0219989944
 22
30.8415207131
 13
534.0219989944
 23
30.8415207131
  0
SOLID
  8
0
 62
7
  6
CONTINUOUS
 10
534.3688739531
 20
30.8092578002
 11
534.0219989944
 21
30.8415207131
 12
534.7735614807
 22
30.8415207131
 13
534.7735614807
 23
30.8415207131
  0
SOLID
  8
0
 62
7
  6
CONTINUOUS
 10
537.8376238704
 20
30.9705762839
 11
538.0688739807
 21
31.0673661609
 12
538.1266865909
 22
31.0028390707
 13
538.1266865909
 23
31.0028390707
  0
SOLID
  8
0
 62
7
  6
CONTINUOUS
 10
538.1266865909
 20
31.0028390707
 11
538.3579363704
 21
30.9383119806
 12
537.8376238704
 22
30.9705762839
 13
537.8376238704
 23
30.9705762839
  0
SOLID
  8
0
 62
7
  6
CONTINUOUS
 10
538.0110613704
 20
30.8737848904
 11
537.8376238704
 21
30.9705762839
 12
538.3579363704
 22
30.9383119806
 13
538.3579363704
 23
30.9383119806
  0
SOLID
  8
0
 62
7
  6
CONTINUOUS
 10
538.7048113704
 20
30.9383119664
 11
538.9938737601
 21
31.0028390707
 12
539.2251242012
 22
30.9705762839
 13
539.2251242012
 23
30.9705762839
  0
SOLID
  8
0
 62
7
  6
CONTINUOUS
 10
539.2251242012
 20
30.9705762839
 11
539.1673112601
 21
30.9060491937
 12
538.7048113704
 22
30.9383119664
 13
538.7048113704
 23
30.9383119664
  0
SOLID
  8
0
 62
7
  6
CONTINUOUS
 10
539.1673112601
 20
30.9060491937
 11
538.0110613704
 21
30.8737848904
 12
538.7048113704
 22
30.9383119664
 13
538.7048113704
 23
30.9383119664
  0
SOLID
  8
0
 62
7
  6
CONTINUOUS
 10
538.0110613704
 20
30.8737848904
 11
538.3579363704
 21
30.9383119664
 12
538.7048113704
 22
30.9383119664
 13
538.7048113704
 23
30.9383119664
  0
SOLID
  8
0
 62
7
  6
CONTINUOUS
 10
538.0110613704
 20
30.8737848904
 11
539.1673112601
 21
30.9060491937
 12
538.1266865909
 22
30.8415205568
 13
538.1266865909
 23
30.8415205568
  0
SOLID
  8
0
 62
7
  6
CONTINUOUS
 10
539.1673112601
 20
30.9060491937
 11
538.9938737601
 21
30.8415205568
 12
538.1266865909
 22
30.8415205568
 13
538.1266865909
 23
30.8415205568
  0
SOLID
  8
0
 62
7
  6
CONTINUOUS
 10
538.3579363704
 20
30.8092577215
 11
538.1266865909
 21
30.8415205568
 12
538.9938737601
 22
30.8415205568
 13
538.9938737601
 23
30.8415205568
  0
SOLID
  8
0
 62
7
  6
CONTINUOUS
 10
538.9938737601
 20
30.8415205568
 11
538.7048113704
 21
30.8092577215
 12
538.3579363704
 22
30.8092577215
 13
538.3579363704
 23
30.8092577215
  0
SOLID
  8
0
 62
7
  6
CONTINUOUS
 10
543.3876242012
 20
30.9705762839
 11
543.0407492012
 21
30.9383119664
 12
543.2719989807
 22
31.0028390707
 13
543.2719989807
 23
31.0028390707
  0
SOLID
  8
0
 62
7
  6
CONTINUOUS
 10
543.2719989807
 20
31.0028390707
 11
543.0407492012
 21
30.9383119664
 12
543.2141867012
 22
31.0673661467
 13
543.2141867012
 23
31.0673661467
  0
SOLID
  8
0
 62
7
  6
CONTINUOUS
 10
543.0407492012
 20
30.9383119664
 11
542.9251239807
 21
31.0673661467
 12
543.2141867012
 22
31.0673661467
 13
543.2141867012
 23
31.0673661467
  0
SOLID
  8
0
 62
7
  6
CONTINUOUS
 10
543.3876242012
 20
30.9705762839
 11
543.7344992012
 21
30.9383119664
 12
543.0407492012
 22
30.9383119664
 13
543.0407492012
 23
30.9383119664
  0
SOLID
  8
0
 62
7
  6
CONTINUOUS
 10
540.0923117012
 20
30.8092578002
 11
540.0923117012
 21
31.841695792
 12
540.3813737601
 22
30.8092578002
 13
540.3813737601
 23
31.841695792
  0
ENDBLK
  8
0
  6
BYBLOCK
 62
0
  0
BLOCK
  8
0
 62
2
  6
CONTINUOUS
  2
AMMEAAL_LOGO_BL0
 70
64
 10
416.1419631151
 20
19.7009994242
  0
TEXT
  8
0
 62
7
  6
CONTINUOUS
 10
402.4066669574
 20
19.0744135318
  7
TEXTSTYLE_3
 40
2.7338706658
  1
Ammeraal Beltech
 41
1.0
 51
15.0
 72
0
  0
TEXT
  8
0
 62
7
  6
CONTINUOUS
 10
413.2074677831
 20
16.800876859
  7
TEXTSTYLE_4
 40
1.0935482663
  1
Innovation & Service in Belting
 41
1.0
 72
0
  0
LINE
  8
0
 62
7
  6
CONTINUOUS
 10
396.382126306
 20
19.8410068404
 11
397.1602782994
 21
23.5019241381
  0
LINE
  8
0
 62
7
  6
CONTINUOUS
 10
407.2554465892
 20
27.1653180497
 11
397.6480960424
 21
24.0437006284
  0
LINE
  8
0
 62
7
  6
CONTINUOUS
 10
396.6074096383
 20
19.1476560374
 11
404.1144848995
 21
12.3882551114
  0
LINE
  8
0
 62
7
  6
CONTINUOUS
 10
396.869944049
 20
20.3827833308
 11
407.6782134142
 21
23.8946029297
  0
LINE
  8
0
 62
7
  6
CONTINUOUS
 10
407.674008277
 20
13.544814366
 11
399.2285486083
 21
21.1491404077
  0
LINE
  8
0
 62
7
  6
CONTINUOUS
 10
408.1938309968
 20
26.320392934
 11
407.2172714596
 21
21.7260415315
  0
LINE
  8
0
 62
7
  6
CONTINUOUS
 10
406.5174695119
 20
18.4337322177
 11
405.8310213004
 21
15.2042472933
  0
LINE
  8
0
 62
7
  6
CONTINUOUS
 10
408.8749270954
 20
13.9350165436
 11
409.831158631
 21
18.4337322177
  0
LINE
  8
0
 62
7
  6
CONTINUOUS
 10
410.5309605787
 20
21.7260415315
 11
410.9752023811
 21
23.8160348909
  0
LINE
  8
0
 62
7
  6
CONTINUOUS
 10
404.8275859748
 20
12.2366807987
 11
408.3871093524
 21
13.3932400533
  0
LINE
  8
0
 62
7
  6
CONTINUOUS
 10
407.9685476645
 20
27.013743737
 11
410.7499190488
 21
24.5093856939
  0
ARC
  8
0
 62
7
  6
CONTINUOUS
 10
397.8733793747
 20
23.3503498254
 40
0.7290321776
 50
108.0
 51
168.0
  0
ARC
  8
0
 62
7
  6
CONTINUOUS
 10
407.4807299215
 20
26.4719672466
 40
0.7290321776
 50
348.0
 51
108.0
  0
ARC
  8
0
 62
7
  6
CONTINUOUS
 10
410.2621013058
 20
23.9676092036
 40
0.7290321776
 50
348.0
 51
48.0
  0
ARC
  8
0
 62
7
  6
CONTINUOUS
 10
404.6023026425
 20
12.9300316018
 40
0.7290321776
 50
228.0
 51
288.0
  0
ARC
  8
0
 62
7
  6
CONTINUOUS
 10
397.0952273813
 20
19.6894325277
 40
0.7290321776
 50
108.0
 51
228.0
  0
ARC
  8
0
 62
7
  6
CONTINUOUS
 10
408.1618260201
 20
14.0865908563
 40
0.7290321776
 50
228.0
 51
348.0
  0
ENDBLK
  8
0
  6
BYBLOCK
 62
0
  0
ENDSEC
  0
SECTION
  2
ENTITIES
  0
TEXT
  8
0
 62
5
  6
CONTINUOUS
 10
480.0
 20
25.636
  7
TEXTSTYLE_2
 40
2.8
  1
Scale :
 41
0.6
 51
0.000019
 72
0
  0
TEXT
  8
0
 62
5
  6
CONTINUOUS
 10
500.0
 20
25.636
  7
TEXTSTYLE_2
 40
2.8
  1
Belt type:
 41
0.6
 51
0.000019
 72
0
  0
INSERT
  8
0
 62
2
  6
CONTINUOUS
  2
AMMEAAL_LOGO_BL0
 10
416.1419631151
 20
19.7009994242
  0
INSERT
  8
0
 62
2
  6
CONTINUOUS
  2
UNI_LOGO2_BL1
 10
557.4079930916
 20
35.8092573885
  0
LINE
  8
0
 62
2
  6
CONTINUOUS
 10
394.0
 20
30.0
 11
584.0
 21
30.0
  0
LINE
  8
0
 62
2
  6
CONTINUOUS
 10
394.0
 20
30.0
 11
394.0
 21
10.0
  0
LINE
  8
0
 62
2
  6
CONTINUOUS
 10
394.0
 20
10.0
 11
584.0
 21
10.0
  0
LINE
  8
0
 62
2
  6
CONTINUOUS
 10
479.0
 20
30.0
 11
479.0
 21
10.0
  0
LINE
  8
0
 62
2
  6
CONTINUOUS
 10
499.0
 20
30.0
 11
499.0
 21
10.0
  0
LINE
  8
0
 62
2
  6
CONTINUOUS
 10
584.0
 20
30.0
 11
584.0
 21
10.0
  0
TEXT
  8
0
 62
5
  6
CONTINUOUS
 10
397.0
 20
23.303
  7
TEXTSTYLE_5
 40
1.52
  1
                                                                     Ammeraal Beltech Modular A/S
 41
1.0
 72
0
  0
TEXT
  8
0
 62
5
  6
CONTINUOUS
 10
397.0
 20
20.595
  7
TEXTSTYLE_5
 40
1.5
  1
                                                                      Hjulmagervej 21, 7100 Vejle,  DK
 41
1.0
 72
0
  0
TEXT
  8
0
 62
5
  6
CONTINUOUS
 10
397.0
 20
17.881
  7
TEXTSTYLE_5
 40
1.495
  1
                                                                      tel: 
 41
1.0
 72
0
  0
TEXT
  8
0
 62
5
  6
CONTINUOUS
 10
441.9869465649
 20
17.881
  7
TEXTSTYLE_5
 40
1.51
  1
+45 75723100     fax: +45 75723348
 41
1.0
 72
0
  0
TEXT
  8
0
 62
5
  6
CONTINUOUS
 10
397.0
 20
15.177
  7
TEXTSTYLE_5
 40
1.5
  1
                                                                      admin@unichains.dk  www.unichains.com
 41
1.0
 72
0
  0
TEXT
  8
0
 62
5
  6
CONTINUOUS
 10
483.75
 20
13.75
  7
TEXTSTYLE_6
 40
5.0
  1
1:1
 41
0.7
 72
1
 11
489.0
 21
13.75
  0
TEXT
  8
0
 62
5
  6
CONTINUOUS
 10
502.0
 20
13.75
  7
TEXTSTYLE_7
 40
7.5
  1
Sprocket Z15
 41
0.6361111111
 72
0
  0
LINE
  8
0
 62
7
  6
CONTINUOUS
 10
0.0
 20
0.0
 11
0.0
 21
420.0
  0
LINE
  8
0
 62
7
  6
CONTINUOUS
 10
10.0
 20
10.0
 11
10.0
 21
410.0
  0
LINE
  8
0
 62
7
  6
CONTINUOUS
 10
0.0
 20
0.0
 11
594.0
 21
0.0
  0
LINE
  8
0
 62
7
  6
CONTINUOUS
 10
10.0
 20
10.0
 11
584.0
 21
10.0
  0
LINE
  8
0
 62
7
  6
CONTINUOUS
 10
394.0
 20
30.0
 11
584.0
 21
30.0
  0
LINE
  8
0
 62
7
  6
CONTINUOUS
 10
179.0
 20
5.0
 11
179.0
 21
10.0
  0
LINE
  8
0
 62
7
  6
CONTINUOUS
 10
179.0
 20
410.0
 11
179.0
 21
415.0
  0
LINE
  8
0
 62
7
  6
CONTINUOUS
 10
594.0
 20
420.0
 11
584.0
 21
410.0
  0
LINE
  8
0
 62
7
  6
CONTINUOUS
 10
384.0
 20
410.0
 11
384.0
 21
415.0
  0
LINE
  8
0
 62
7
  6
CONTINUOUS
 10
584.0
 20
297.0
 11
589.0
 21
297.0
  0
LINE
  8
0
 62
7
  6
CONTINUOUS
 10
10.0
 20
410.0
 11
584.0
 21
410.0
  0
LINE
  8
0
 62
7
  6
CONTINUOUS
 10
0.0
 20
420.0
 11
594.0
 21
420.0
  0
LINE
  8
0
 62
7
  6
CONTINUOUS
 10
584.0
 20
10.0
 11
584.0
 21
410.0
  0
LINE
  8
0
 62
7
  6
CONTINUOUS
 10
594.0
 20
0.0
 11
594.0
 21
420.0
  0
LINE
  8
0
 62
9
  6
CONTINUOUS
 10
75.1089956464
 20
182.8468059219
 11
75.09154324
 21
183.8466536171
  0
LINE
  8
0
 62
9
  6
CONTINUOUS
 10
77.1056536887
 20
182.8816577177
 11
77.0882012823
 21
183.8815054128
  0
LINE
  8
0
 62
9
  6
CONTINUOUS
 10
74.7691930391
 20
245.7814613201
 11
75.1599241676
 21
246.7019661736
  0
LINE
  8
0
 62
9
  6
CONTINUOUS
 10
76.6074064265
 20
245.0011860303
 11
76.998137555
 21
245.9216908838
  0
LINE
  8
0
 62
9
  6
CONTINUOUS
 10
100.0565983805
 20
303.4133400593
 11
100.7879520821
 21
304.0953384193
  0
LINE
  8
0
 62
9
  6
CONTINUOUS
 10
101.4185233187
 20
301.9528543701
 11
102.1498770203
 21
302.6348527302
  0
LINE
  8
0
 62
9
  6
CONTINUOUS
 10
146.5987895582
 20
345.7773667362
 11
147.5443081338
 21
346.1029348907
  0
LINE
  8
0
 62
9
  6
CONTINUOUS
 10
147.2489368527
 20
343.8892018914
 11
148.1944554283
 21
344.2147700459
  0
LINE
  8
0
 62
9
  6
CONTINUOUS
 10
270.527979696
 20
71.424063327
 11
269.5354335444
 21
71.3021939836
  0
LINE
  8
0
 62
9
  6
CONTINUOUS
 10
270.2846112252
 20
73.406140463
 11
269.2920650736
 21
73.2842711196
  0
LINE
  8
0
 62
9
  6
CONTINUOUS
 10
207.9736059694
 20
64.5076593789
 11
207.0173012134
 21
64.8000310836
  0
LINE
  8
0
 62
9
  6
CONTINUOUS
 10
208.557461209
 20
66.417363818
 11
207.601156453
 21
66.7097355227
  0
LINE
  8
0
 62
9
  6
CONTINUOUS
 10
148.0141870717
 20
83.6323659481
 11
147.2594774915
 21
84.2884249771
  0
LINE
  8
0
 62
9
  6
CONTINUOUS
 10
149.3243121466
 20
85.1394924437
 11
148.5696025664
 21
85.7955514727
  0
LINE
  8
0
 62
9
  6
CONTINUOUS
 10
101.0172512447
 20
125.4913475264
 11
100.5946329829
 21
126.3976553134
  0
LINE
  8
0
 62
9
  6
CONTINUOUS
 10
102.8271136273
 20
126.3353002156
 11
102.4044953655
 21
127.2416080026
  0
LINE
  8
0
 62
9
  6
CONTINUOUS
 10
86.852654724
 20
197.5378645203
 11
86.9571831873
 21
196.543342625
  0
LINE
  8
0
 62
9
  6
CONTINUOUS
 10
87.3499156717
 20
197.590128752
 11
87.454444135
 21
196.5956068566
  0
LINE
  8
0
 62
7
  6
CONTINUOUS
 10
91.9924793089
 20
172.5526307728
 11
92.3342159839
 21
169.3012234994
  0
LINE
  8
0
 62
7
  6
CONTINUOUS
 10
89.1299025359
 20
199.7882294693
 11
85.6642679297
 21
232.7615401776
  0
LINE
  8
0
 62
9
  6
CONTINUOUS
 10
90.1244244313
 20
199.8927579325
 11
86.6587898251
 21
232.8660686408
  0
LINE
  8
0
 62
9
  6
CONTINUOUS
 10
91.4729513031
 20
254.4258347001
 11
91.1639343087
 21
253.4747781838
  0
LINE
  8
0
 62
9
  6
CONTINUOUS
 10
91.9484795612
 20
254.2713262029
 11
91.6394625669
 21
253.3202696866
  0
LINE
  8
0
 62
7
  6
CONTINUOUS
 10
86.0060046047
 20
229.5101329042
 11
84.9957301122
 21
226.4008277306
  0
LINE
  8
0
 62
7
  6
CONTINUOUS
 10
94.4686265826
 20
255.5554052467
 11
104.7140655388
 21
287.0876240536
  0
LINE
  8
0
 62
9
  6
CONTINUOUS
 10
95.4196830989
 20
255.2463882523
 11
105.6651220551
 21
286.7786070592
  0
LINE
  8
0
 62
9
  6
CONTINUOUS
 10
118.8322242782
 20
304.5163375316
 11
118.1630936718
 21
303.7731927062
  0
LINE
  8
0
 62
9
  6
CONTINUOUS
 10
119.2037966909
 20
304.1817722285
 11
118.5346660845
 21
303.438627403
  0
LINE
  8
0
 62
7
  6
CONTINUOUS
 10
103.7037910464
 20
283.97831888
 11
101.5161910242
 21
281.5487429179
  0
LINE
  8
0
 62
7
  6
CONTINUOUS
 10
122.0283475546
 20
304.3298006667
 11
144.2133306009
 21
328.9687204792
  0
LINE
  8
0
 62
9
  6
CONTINUOUS
 10
122.77149238
 20
303.6606700603
 11
144.9564754263
 21
328.2995898728
  0
LINE
  8
0
 62
9
  6
CONTINUOUS
 10
164.1998068006
 20
339.1482700176
 11
163.286261343
 21
338.7415333745
  0
LINE
  8
0
 62
9
  6
CONTINUOUS
 10
164.4031751222
 20
338.6914972888
 11
163.4896296645
 21
338.2847606457
  0
LINE
  8
0
 62
7
  6
CONTINUOUS
 10
142.0257305787
 20
326.5391445171
 11
139.0390609443
 21
325.2093935224
  0
LINE
  8
0
 62
7
  6
CONTINUOUS
 10
167.0437393236
 20
337.6778796596
 11
197.332281347
 21
351.1632074046
  0
LINE
  8
0
 62
9
  6
CONTINUOUS
 10
167.4504759667
 20
336.764334202
 11
197.73901799
 21
350.249661947
  0
LINE
  8
0
 62
9
  6
CONTINUOUS
 10
254.6898536172
 20
81.5677556323
 11
255.668001218
 21
81.7756673232
  0
LINE
  8
0
 62
9
  6
CONTINUOUS
 10
254.5858977718
 20
82.0568294327
 11
255.5640453725
 21
82.2647411235
  0
LINE
  8
0
 62
7
  6
CONTINUOUS
 10
252.2137791887
 20
83.5973012525
 11
219.7833571861
 21
76.7040022582
  0
LINE
  8
0
 62
7
  6
CONTINUOUS
 10
279.0009576748
 20
89.2910918084
 11
282.1988321894
 21
89.9708210199
  0
LINE
  8
0
 62
9
  6
CONTINUOUS
 10
252.0058674979
 20
84.5754488533
 11
219.5754454953
 21
77.6821498589
  0
LINE
  8
0
 62
9
  6
CONTINUOUS
 10
197.6305691892
 20
80.216329642
 11
198.6087167899
 21
80.0084179512
  0
LINE
  8
0
 62
9
  6
CONTINUOUS
 10
197.7345250346
 20
80.7054034424
 11
198.7126726353
 21
80.4974917516
  0
LINE
  8
0
 62
7
  6
CONTINUOUS
 10
196.1940532148
 20
83.0775220255
 11
163.7636312122
 21
89.9708210199
  0
LINE
  8
0
 62
7
  6
CONTINUOUS
 10
222.9812317008
 20
77.3837314697
 11
226.1791062155
 21
76.7040022582
  0
LINE
  8
0
 62
9
  6
CONTINUOUS
 10
196.4019649056
 20
84.0556696262
 11
163.971542903
 21
90.9489686206
  0
LINE
  8
0
 62
9
  6
CONTINUOUS
 10
144.954644613
 20
102.1898423718
 11
145.7636616073
 21
101.6020571195
  0
LINE
  8
0
 62
9
  6
CONTINUOUS
 10
145.2485372391
 20
102.594350869
 11
146.0575542335
 21
102.0065656167
  0
LINE
  8
0
 62
7
  6
CONTINUOUS
 10
144.806073755
 20
105.3879553623
 11
117.9831663378
 21
124.8759383257
  0
LINE
  8
0
 62
7
  6
CONTINUOUS
 10
166.9615057269
 20
89.2910918084
 11
169.6064386862
 21
87.3694355297
  0
LINE
  8
0
 62
9
  6
CONTINUOUS
 10
145.3938590072
 20
106.1969723567
 11
118.5709515901
 21
125.68495532
  0
LINE
  8
0
 62
9
  6
CONTINUOUS
 10
105.7702257935
 20
143.6888738476
 11
106.2702257935
 21
142.8228484438
  0
LINE
  8
0
 62
9
  6
CONTINUOUS
 10
106.2032384954
 20
143.9388738476
 11
106.7032384954
 21
143.0728484438
  0
LINE
  8
0
 62
7
  6
CONTINUOUS
 10
120.6280992971
 20
122.954282047
 11
122.2627577639
 21
120.1229705294
  0
LINE
  8
0
 62
7
  6
CONTINUOUS
 10
106.935289303
 20
146.6709246551
 11
90.3578208421
 21
175.3839422903
  0
LINE
  8
0
 62
9
  6
CONTINUOUS
 10
107.8013147068
 20
147.1709246551
 11
91.2238462459
 21
175.8839422903
  0
LINE
  8
0
 62
7
  6
CONTINUOUS
 10
183.272924992
 20
306.2048594815
 11
182.5607997012
 21
305.9741685376
  0
LINE
  8
0
 62
7
  6
CONTINUOUS
 10
146.1623544639
 20
267.8907030864
 11
146.2751906811
 21
268.4849736504
  0
LINE
  8
0
 62
7
  6
CONTINUOUS
 10
145.5555463926
 20
268.968915229
 11
145.3273667265
 21
268.0185840426
  0
LINE
  8
0
 62
7
  6
CONTINUOUS
 10
146.2751906811
 20
268.4849736504
 11
146.7440875206
 21
269.1945876633
  0
LINE
  8
0
 62
7
  6
CONTINUOUS
 10
165.1313724119
 20
287.3411553812
 11
165.6002685771
 21
288.0507687198
  0
LINE
  8
0
 62
7
  6
CONTINUOUS
 10
151.6662533326
 20
265.4509340524
 11
151.1973558188
 21
264.7413193652
  0
LINE
  8
0
 62
7
  6
CONTINUOUS
 10
146.1422945871
 20
269.7963805969
 11
145.5555463926
 21
268.968915229
  0
LINE
  8
0
 62
7
  6
CONTINUOUS
 10
164.9984756435
 20
288.6525616533
 11
164.411727449
 21
287.8250962854
  0
LINE
  8
0
 62
7
  6
CONTINUOUS
 10
151.7991488366
 20
264.1395263474
 11
152.3858970205
 21
264.9669917258
  0
LINE
  8
0
 62
7
  6
CONTINUOUS
 10
181.8511890601
 20
305.5052750698
 11
180.9083782202
 21
304.56246423
  0
LINE
  8
0
 62
7
  6
CONTINUOUS
 10
176.1943321132
 20
299.8484181229
 11
175.6050773613
 21
299.2591633711
  0
LINE
  8
0
 62
7
  6
CONTINUOUS
 10
160.7558349564
 20
284.4099209662
 11
160.0487281752
 21
283.702814185
  0
LINE
  8
0
 62
7
  6
CONTINUOUS
 10
156.2774915593
 20
279.9315775691
 11
155.5703847781
 21
279.2244707879
  0
LINE
  8
0
 62
7
  6
CONTINUOUS
 10
153.9204698545
 20
277.5745558643
 11
153.2133630733
 21
276.8674490831
  0
LINE
  8
0
 62
7
  6
CONTINUOUS
 10
149.9135305286
 20
273.5676165384
 11
149.2064237475
 21
272.8605097572
  0
LINE
  8
0
 62
7
  6
CONTINUOUS
 10
141.8996539
 20
265.5537399097
 11
141.192547456
 21
264.8466334657
  0
LINE
  8
0
 62
7
  6
CONTINUOUS
 10
137.4213111773
 20
261.075397187
 11
136.7142043961
 21
260.3682904058
  0
LINE
  8
0
 62
7
  6
CONTINUOUS
 10
176.3272288816
 20
298.5370118508
 11
177.0343356627
 21
299.244118632
  0
LINE
  8
0
 62
7
  6
CONTINUOUS
 10
181.6305297405
 20
303.8403127097
 11
182.5733405803
 21
304.7831235496
  0
LINE
  8
0
 62
7
  6
CONTINUOUS
 10
178.3432353775
 20
299.3494324797
 11
179.0503421586
 21
300.0565392609
  0
LINE
  8
0
 62
7
  6
CONTINUOUS
 10
178.7193562138
 20
297.559098081
 11
178.0122494326
 21
296.8519912998
  0
LINE
  8
0
 62
7
  6
CONTINUOUS
 10
178.7344009528
 20
296.1298397796
 11
179.441507734
 21
296.8369465608
  0
LINE
  8
0
 62
7
  6
CONTINUOUS
 10
165.1840293357
 20
282.3387509891
 11
164.0055171346
 21
281.1602387879
  0
LINE
  8
0
 62
7
  6
CONTINUOUS
 10
163.2984103534
 20
280.4531320068
 11
161.2949406905
 21
278.4496623438
  0
LINE
  8
0
 62
7
  6
CONTINUOUS
 10
146.327847605
 20
263.4825692583
 11
145.1493360782
 21
262.3040577315
  0
LINE
  8
0
 62
7
  6
CONTINUOUS
 10
144.4422296342
 20
261.5969512875
 11
142.4387603084
 21
259.5934819618
  0
LINE
  8
0
 62
7
  6
CONTINUOUS
 10
142.3359540297
 20
258.0463723054
 11
145.164381323
 21
260.8747995987
  0
LINE
  8
0
 62
7
  6
CONTINUOUS
 10
145.871487767
 20
261.5819060427
 11
147.0499992938
 21
262.7604175695
  0
LINE
  8
0
 62
7
  6
CONTINUOUS
 10
161.1921349175
 20
276.9025531932
 11
164.0205620423
 21
279.7309803179
  0
LINE
  8
0
 62
7
  6
CONTINUOUS
 10
164.7276688234
 20
280.4380870991
 11
165.9061810246
 21
281.6165993002
  0
LINE
  8
0
 62
7
  6
CONTINUOUS
 10
178.518757614
 20
293.9884587162
 11
177.8116508328
 21
293.281351935
  0
LINE
  8
0
 62
7
  6
CONTINUOUS
 10
186.535142823
 20
301.7641267519
 11
185.8280360419
 21
301.0570199707
  0
LINE
  8
0
 62
7
  6
CONTINUOUS
 10
186.785891705
 20
300.5705724249
 11
185.8430808652
 21
299.627761585
  0
LINE
  8
0
 62
7
  6
CONTINUOUS
 10
181.2468867875
 20
295.0315675073
 11
180.304078645
 21
294.0887593648
  0
LINE
  8
0
 62
7
  6
CONTINUOUS
 10
142.3710586456
 20
254.7114361563
 11
143.0781654267
 21
255.4185429375
  0
LINE
  8
0
 62
7
  6
CONTINUOUS
 10
146.8494017055
 20
259.1897792162
 11
147.5565081495
 21
259.8968856602
  0
LINE
  8
0
 62
7
  6
CONTINUOUS
 10
154.863277997
 20
267.2036555077
 11
155.5703847781
 21
267.9107622889
  0
LINE
  8
0
 62
7
  6
CONTINUOUS
 10
158.8702173228
 20
271.2105948336
 11
159.577324104
 21
271.9177016148
  0
LINE
  8
0
 62
7
  6
CONTINUOUS
 10
161.2272390276
 20
273.5676165384
 11
161.9343458088
 21
274.2747233196
  0
LINE
  8
0
 62
7
  6
CONTINUOUS
 10
165.7055824247
 20
278.0459599355
 11
166.4126892059
 21
278.7530667167
  0
LINE
  8
0
 62
7
  6
CONTINUOUS
 10
181.0262302496
 20
293.3666077603
 11
181.969038392
 21
294.3094159028
  0
LINE
  8
0
 62
7
  6
CONTINUOUS
 10
186.5652324697
 20
298.9056099805
 11
187.5080433096
 21
299.8484208203
  0
LINE
  8
0
 62
7
  6
CONTINUOUS
 10
188.6865528133
 20
301.026930324
 11
189.3936595945
 21
301.7340371052
  0
LINE
  8
0
 62
7
  6
CONTINUOUS
 10
165.8259410114
 20
289.2393098478
 11
164.9984756435
 21
288.6525616533
  0
LINE
  8
0
 62
7
  6
CONTINUOUS
 10
146.969759955
 20
270.3831287913
 11
146.1422945871
 21
269.7963805969
  0
LINE
  8
0
 62
7
  6
CONTINUOUS
 10
169.8278645146
 20
282.4089592198
 11
170.655329893
 21
282.9957074038
  0
LINE
  8
0
 62
7
  6
CONTINUOUS
 10
182.5607997012
 20
305.9741685376
 11
181.8511890601
 21
305.5052750698
  0
LINE
  8
0
 62
7
  6
CONTINUOUS
 10
176.9039481491
 20
300.3173169855
 11
176.1943321132
 21
299.8484181229
  0
LINE
  8
0
 62
7
  6
CONTINUOUS
 10
179.4289695524
 20
298.0279942461
 11
178.7193562138
 21
297.559098081
  0
LINE
  8
0
 62
7
  6
CONTINUOUS
 10
165.6002685771
 20
288.0507687198
 11
166.3098819156
 21
288.5196648849
  0
LINE
  8
0
 62
7
  6
CONTINUOUS
 10
185.8556191206
 20
298.4367138259
 11
186.5652324697
 21
298.9056099805
  0
LINE
  8
0
 62
7
  6
CONTINUOUS
 10
180.3166142031
 20
292.8977089083
 11
181.0262302496
 21
293.3666077603
  0
LINE
  8
0
 62
7
  6
CONTINUOUS
 10
146.7440875206
 20
269.1945876633
 11
147.4537022079
 21
269.6634851772
  0
LINE
  8
0
 62
7
  6
CONTINUOUS
 10
170.0535368752
 20
283.5975004216
 11
169.3439235366
 21
283.1286042565
  0
LINE
  8
0
 62
7
  6
CONTINUOUS
 10
182.5733405803
 20
304.7831235496
 11
183.1651018895
 21
305.1341676854
  0
LINE
  8
0
 62
7
  6
CONTINUOUS
 10
179.441507734
 20
296.8369465608
 11
180.0332717407
 21
297.187993394
  0
LINE
  8
0
 62
7
  6
CONTINUOUS
 10
178.1426369462
 20
295.7787929464
 11
178.7344009528
 21
296.1298397796
  0
LINE
  8
0
 62
7
  6
CONTINUOUS
 10
185.8430808652
 20
299.627761585
 11
185.2513168586
 21
299.2767147518
  0
LINE
  8
0
 62
7
  6
CONTINUOUS
 10
180.304078645
 20
294.0887593648
 11
179.7123146384
 21
293.7377125316
  0
LINE
  8
0
 62
7
  6
CONTINUOUS
 10
177.0343356627
 20
299.244118632
 11
177.50824764
 21
299.4773134359
  0
LINE
  8
0
 62
7
  6
CONTINUOUS
 10
178.0122494326
 20
296.8519912998
 11
177.5383374553
 21
296.6187964959
  0
LINE
  8
0
 62
7
  6
CONTINUOUS
 10
180.1410921457
 20
298.2586824927
 11
179.4289695524
 21
298.0279942461
  0
LINE
  8
0
 62
7
  6
CONTINUOUS
 10
185.1434964957
 20
298.206025611
 11
185.8556191206
 21
298.4367138259
  0
LINE
  8
0
 62
7
  6
CONTINUOUS
 10
177.4305170503
 20
295.5481073972
 11
178.1426369462
 21
295.7787929464
  0
LINE
  8
0
 62
7
  6
CONTINUOUS
 10
136.7142043961
 20
260.3682904058
 11
136.8496077218
 21
258.8186735177
  0
LINE
  8
0
 62
7
  6
CONTINUOUS
 10
137.8124767526
 20
257.8558044869
 11
137.6770730897
 21
259.4054217122
  0
LINE
  8
0
 62
7
  6
CONTINUOUS
 10
141.192547456
 20
264.8466334657
 11
141.6138023409
 21
258.7685239942
  0
LINE
  8
0
 62
7
  6
CONTINUOUS
 10
142.4387603084
 20
259.5934819618
 11
142.1554161496
 21
263.8837647721
  0
LINE
  8
0
 62
7
  6
CONTINUOUS
 10
145.3273667265
 20
268.0185840426
 11
145.3348890961
 21
267.3039548919
  0
LINE
  8
0
 62
7
  6
CONTINUOUS
 10
151.7790895498
 20
266.0452046164
 11
151.6662533326
 21
265.4509340524
  0
LINE
  8
0
 62
7
  6
CONTINUOUS
 10
165.0185361947
 20
286.7468848172
 11
165.1313724119
 21
287.3411553812
  0
LINE
  8
0
 62
7
  6
CONTINUOUS
 10
152.3858970205
 20
264.9669917258
 11
152.614076655
 21
265.9173229437
  0
LINE
  8
0
 62
7
  6
CONTINUOUS
 10
164.411727449
 20
287.8250962854
 11
164.1835484573
 21
286.8747657734
  0
LINE
  8
0
 62
7
  6
CONTINUOUS
 10
175.2540305281
 20
298.6673993644
 11
175.023344979
 21
297.9552794685
  0
LINE
  8
0
 62
7
  6
CONTINUOUS
 10
176.0940340777
 20
298.0630998735
 11
176.3272288816
 21
298.5370118508
  0
LINE
  8
0
 62
7
  6
CONTINUOUS
 10
187.0190865089
 20
301.0444844022
 11
186.785891705
 21
300.5705724249
  0
LINE
  8
0
 62
7
  6
CONTINUOUS
 10
175.6050773613
 20
299.2591633711
 11
175.2540305281
 21
298.6673993644
  0
LINE
  8
0
 62
7
  6
CONTINUOUS
 10
181.2794829072
 20
303.2485487031
 11
181.6305297405
 21
303.8403127097
  0
LINE
  8
0
 62
7
  6
CONTINUOUS
 10
181.5979336207
 20
295.6233315139
 11
181.2468867875
 21
295.0315675073
  0
LINE
  8
0
 62
7
  6
CONTINUOUS
 10
180.9083782202
 20
304.56246423
 11
180.4394820551
 21
303.8528508914
  0
LINE
  8
0
 62
7
  6
CONTINUOUS
 10
170.5224330404
 20
284.3071137602
 11
170.0535368752
 21
283.5975004216
  0
LINE
  8
0
 62
7
  6
CONTINUOUS
 10
181.969038392
 20
294.3094159028
 11
182.4379345466
 21
295.0190292519
  0
LINE
  8
0
 62
7
  6
CONTINUOUS
 10
187.5080433096
 20
299.8484208203
 11
187.9769367668
 21
300.558031472
  0
LINE
  8
0
 62
7
  6
CONTINUOUS
 10
170.655329893
 20
282.9957074038
 11
171.242078077
 21
283.8231727822
  0
LINE
  8
0
 62
9
  6
CONTINUOUS
 10
215.910163889
 20
324.0079007126
 11
114.0867873981
 21
222.1845242217
  0
LINE
  8
0
 62
7
  6
CONTINUOUS
 10
217.3243774513
 20
322.5936871502
 11
115.5010009605
 21
220.7703106594
  0
LINE
  8
0
 62
9
  6
CONTINUOUS
 10
218.7385910137
 20
321.1794735879
 11
116.9152145228
 21
219.356097097
  0
LINE
  8
0
 62
9
  6
CONTINUOUS
 10
114.0867873981
 20
208.042388598
 11
116.9152145228
 21
210.8708157228
  0
LINE
  8
0
 62
9
  6
CONTINUOUS
 10
227.2238723879
 20
321.1794735879
 11
230.0522995127
 21
324.0079007126
  0
LINE
  8
0
 62
7
  6
CONTINUOUS
 10
210.4815895719
 20
303.8715053469
 11
134.2231827638
 21
227.6130985388
  0
LINE
  8
0
 62
7
  6
CONTINUOUS
 10
150.9716834582
 20
263.5527781634
 11
151.7991488366
 21
264.1395263474
  0
LINE
  8
0
 62
7
  6
CONTINUOUS
 10
151.1973558188
 20
264.7413193652
 11
150.4877418059
 21
264.2724225257
  0
LINE
  8
0
 62
9
  6
CONTINUOUS
 10
114.0867873981
 20
208.042388598
 11
215.910163889
 21
106.2190121072
  0
LINE
  8
0
 62
7
  6
CONTINUOUS
 10
115.5010009605
 20
209.4566021604
 11
217.3243774513
 21
107.6332256695
  0
LINE
  8
0
 62
9
  6
CONTINUOUS
 10
116.9152145228
 20
210.8708157228
 11
218.7385910137
 21
109.0474392319
  0
LINE
  8
0
 62
9
  6
CONTINUOUS
 10
227.2238723879
 20
109.0474392319
 11
230.0522995127
 21
106.2190121072
  0
LINE
  8
0
 62
9
  6
CONTINUOUS
 10
116.9152145228
 20
219.356097097
 11
114.0867873981
 21
222.1845242217
  0
LINE
  8
0
 62
7
  6
CONTINUOUS
 10
134.2231827638
 20
202.613814281
 11
210.4815895719
 21
126.3554074729
  0
LINE
  8
0
 62
7
  6
CONTINUOUS
 10
128.1185870172
 20
210.9811517274
 11
132.3612277043
 21
206.7385110403
  0
LINE
  8
0
 62
7
  6
CONTINUOUS
 10
214.6062863312
 20
124.4934524133
 11
218.8489270184
 21
120.2508117262
  0
LINE
  8
0
 62
9
  6
CONTINUOUS
 10
148.29758829
 20
348.4192427042
 11
148.3937074997
 21
347.4238728746
  0
LINE
  8
0
 62
7
  6
CONTINUOUS
 10
155.5703847781
 20
279.2244707879
 11
155.7057881039
 21
277.6748538998
  0
LINE
  8
0
 62
7
  6
CONTINUOUS
 10
156.6686571347
 20
276.711984869
 11
156.5332534718
 21
278.2616020943
  0
LINE
  8
0
 62
7
  6
CONTINUOUS
 10
160.0487281752
 20
283.702814185
 11
160.4699832287
 21
277.624704882
  0
LINE
  8
0
 62
7
  6
CONTINUOUS
 10
161.2949406905
 20
278.4496623438
 11
161.0115968689
 21
282.7399454913
  0
LINE
  8
0
 62
7
  6
CONTINUOUS
 10
152.614076655
 20
265.9173229437
 11
152.6065542434
 21
266.6319521366
  0
LINE
  8
0
 62
7
  6
CONTINUOUS
 10
164.1835484573
 20
286.8747657734
 11
164.1910708268
 21
286.1601366227
  0
LINE
  8
0
 62
7
  6
CONTINUOUS
 10
170.6352692575
 20
284.9013843242
 11
170.5224330404
 21
284.3071137602
  0
LINE
  8
0
 62
7
  6
CONTINUOUS
 10
175.9811978605
 20
297.4688293095
 11
176.0940340777
 21
298.0630998735
  0
LINE
  8
0
 62
7
  6
CONTINUOUS
 10
181.1666466901
 20
302.6542781391
 11
181.2794829072
 21
303.2485487031
  0
LINE
  8
0
 62
7
  6
CONTINUOUS
 10
181.7107697536
 20
296.2176021622
 11
181.5979336207
 21
295.6233315139
  0
LINE
  8
0
 62
7
  6
CONTINUOUS
 10
171.242078077
 20
283.8231727822
 11
171.4702570371
 21
284.7735033258
  0
LINE
  8
0
 62
7
  6
CONTINUOUS
 10
180.4394820551
 20
303.8528508914
 11
180.2087938086
 21
303.1407282981
  0
LINE
  8
0
 62
7
  6
CONTINUOUS
 10
182.4379345466
 20
295.0190292519
 11
182.6686227615
 21
295.7311518768
  0
LINE
  8
0
 62
9
  6
CONTINUOUS
 10
208.9746765226
 20
367.2709263701
 11
208.6576324069
 21
366.322515579
  0
LINE
  8
0
 62
7
  6
CONTINUOUS
 10
187.9769367668
 20
300.558031472
 11
188.2101315601
 21
301.0319434599
  0
LINE
  8
0
 62
9
  6
CONTINUOUS
 10
272.073625391
 20
359.8132011727
 11
271.3982377579
 21
359.0757382618
  0
LINE
  8
0
 62
7
  6
CONTINUOUS
 10
218.8489270184
 20
309.9761010935
 11
214.6062863312
 21
305.7334604064
  0
LINE
  8
0
 62
7
  6
CONTINUOUS
 10
132.3612277043
 20
223.4884017795
 11
128.1185870172
 21
219.2457610923
  0
LINE
  8
0
 62
9
  6
CONTINUOUS
 10
326.6840534001
 20
327.3355755499
 11
325.7671029069
 21
326.9365745561
  0
LINE
  8
0
 62
9
  6
CONTINUOUS
 10
98.2122749288
 20
126.9046888259
 11
99.192144825
 21
127.1043259632
  0
LINE
  8
0
 62
9
  6
CONTINUOUS
 10
73.12137997
 20
185.2788440968
 11
74.0977354018
 21
185.0626727045
  0
LINE
  8
0
 62
9
  6
CONTINUOUS
 10
73.9426148094
 20
248.8116748756
 11
74.7466350528
 21
248.2170729513
  0
LINE
  8
0
 62
9
  6
CONTINUOUS
 10
100.5339804827
 20
306.5177775429
 11
101.0266431332
 21
305.6475571612
  0
LINE
  8
0
 62
7
  6
CONTINUOUS
 10
145.3348890961
 20
267.3039548919
 11
145.5806214073
 21
266.5868185095
  0
LINE
  8
0
 62
7
  6
CONTINUOUS
 10
146.4131015758
 20
266.6971464834
 11
146.1623544639
 21
267.8907030864
  0
LINE
  8
0
 62
7
  6
CONTINUOUS
 10
151.5283426909
 20
267.2387609665
 11
151.7790895498
 21
266.0452046164
  0
LINE
  8
0
 62
7
  6
CONTINUOUS
 10
153.9781412418
 20
272.0957315887
 11
154.863277997
 21
267.2036555077
  0
LINE
  8
0
 62
7
  6
CONTINUOUS
 10
153.2133630733
 20
276.8674490831
 11
153.8502602856
 21
272.9307193262
  0
LINE
  8
0
 62
7
  6
CONTINUOUS
 10
155.5703847781
 20
267.9107622889
 11
154.9334875659
 21
271.8474920458
  0
LINE
  8
0
 62
7
  6
CONTINUOUS
 10
154.685248023
 20
272.8028383699
 11
153.9204698545
 21
277.5745558643
  0
LINE
  8
0
 62
7
  6
CONTINUOUS
 10
171.4702570371
 20
284.7735033258
 11
171.4627346254
 21
285.4881325187
  0
LINE
  8
0
 62
7
  6
CONTINUOUS
 10
175.023344979
 20
297.9552794685
 11
175.0333739059
 21
297.0024397018
  0
LINE
  8
0
 62
7
  6
CONTINUOUS
 10
180.2087938086
 20
303.1407282981
 11
180.2188227355
 21
302.1878885313
  0
LINE
  8
0
 62
7
  6
CONTINUOUS
 10
145.5806214073
 20
266.5868185095
 11
145.8238461496
 21
266.1078910572
  0
LINE
  8
0
 62
7
  6
CONTINUOUS
 10
152.6065542434
 20
266.6319521366
 11
152.3608225222
 21
267.3490892777
  0
LINE
  8
0
 62
7
  6
CONTINUOUS
 10
165.2692826322
 20
285.5533275399
 11
165.0185361947
 21
286.7468848172
  0
LINE
  8
0
 62
7
  6
CONTINUOUS
 10
182.6686227615
 20
295.7311518768
 11
182.6585937925
 21
296.6839916857
  0
LINE
  8
0
 62
7
  6
CONTINUOUS
 10
188.2026091274
 20
301.7465726738
 11
188.1975960126
 21
302.2229939059
  0
LINE
  8
0
 62
7
  6
CONTINUOUS
 10
206.1741521722
 20
363.559053128
 11
206.3481988951
 21
365.5484162733
  0
LINE
  8
0
 62
9
  6
CONTINUOUS
 10
207.1703468703
 20
363.4718973853
 11
207.3443935931
 21
365.4612605306
  0
LINE
  8
0
 62
7
  6
CONTINUOUS
 10
175.4344837056
 20
71.424063327
 11
175.6778521764
 21
73.406140463
  0
LINE
  8
0
 62
9
  6
CONTINUOUS
 10
163.7636312122
 20
89.9708210199
 11
163.971542903
 21
90.9489686206
  0
LINE
  8
0
 62
7
  6
CONTINUOUS
 10
268.0054642297
 20
357.5613121062
 11
268.9736107104
 21
359.3078945914
  0
LINE
  8
0
 62
9
  6
CONTINUOUS
 10
268.8800839369
 20
357.0765024859
 11
269.8482304175
 21
358.8230849711
  0
LINE
  8
0
 62
7
  6
CONTINUOUS
 10
121.101374656
 20
103.1856687164
 11
122.1298862177
 21
104.8973994058
  0
LINE
  8
0
 62
9
  6
CONTINUOUS
 10
117.9831663378
 20
124.8759383257
 11
118.5709515901
 21
125.68495532
  0
LINE
  8
0
 62
7
  6
CONTINUOUS
 10
322.0516774507
 20
326.9330427363
 11
323.6465223673
 21
328.1348445825
  0
LINE
  8
0
 62
9
  6
CONTINUOUS
 10
322.6534924739
 20
326.1344072262
 11
324.2483373905
 21
327.3362090724
  0
LINE
  8
0
 62
7
  6
CONTINUOUS
 10
84.3842184389
 20
154.3006054299
 11
86.0200340986
 21
155.446015886
  0
LINE
  8
0
 62
9
  6
CONTINUOUS
 10
90.3578208421
 20
175.3839422903
 11
91.2238462459
 21
175.8839422903
  0
LINE
  8
0
 62
7
  6
CONTINUOUS
 10
77.1056536887
 20
182.8816577177
 11
75.1089956464
 21
182.8468059219
  0
LINE
  8
0
 62
9
  6
CONTINUOUS
 10
77.0882012823
 20
183.8815054128
 11
75.09154324
 21
183.8466536171
  0
LINE
  8
0
 62
7
  6
CONTINUOUS
 10
370.8534677552
 20
182.8468059219
 11
368.8568097129
 21
182.8816577177
  0
LINE
  8
0
 62
9
  6
CONTINUOUS
 10
353.6282474177
 20
169.3012234994
 11
352.6337255224
 21
169.4057519626
  0
LINE
  8
0
 62
7
  6
CONTINUOUS
 10
76.6074064265
 20
245.0011860303
 11
74.7691930391
 21
245.7814613201
  0
LINE
  8
0
 62
9
  6
CONTINUOUS
 10
76.998137555
 20
245.9216908838
 11
75.1599241676
 21
246.7019661736
  0
LINE
  8
0
 62
7
  6
CONTINUOUS
 10
344.945212157
 20
125.4913475264
 11
343.1353497744
 21
126.3353002156
  0
LINE
  8
0
 62
9
  6
CONTINUOUS
 10
323.6997056378
 20
120.1229705294
 11
322.833680234
 21
120.6229705294
  0
LINE
  8
0
 62
7
  6
CONTINUOUS
 10
136.8496077218
 20
258.8186735177
 11
137.8124767526
 21
257.8558044869
  0
LINE
  8
0
 62
7
  6
CONTINUOUS
 10
137.6770730897
 20
259.4054217122
 11
142.3710586456
 21
254.7114361563
  0
LINE
  8
0
 62
7
  6
CONTINUOUS
 10
143.0781654267
 20
255.4185429375
 11
137.4213111773
 21
261.075397187
  0
LINE
  8
0
 62
7
  6
CONTINUOUS
 10
101.4185233187
 20
301.9528543701
 11
100.0565983805
 21
303.4133400593
  0
LINE
  8
0
 62
9
  6
CONTINUOUS
 10
102.1498770203
 20
302.6348527302
 11
100.7879520821
 21
304.0953384193
  0
LINE
  8
0
 62
7
  6
CONTINUOUS
 10
297.9482763299
 20
83.6323659481
 11
296.638151255
 21
85.1394924437
  0
LINE
  8
0
 62
9
  6
CONTINUOUS
 10
276.3560247154
 20
87.3694355297
 11
275.7682394632
 21
88.1784525241
  0
LINE
  8
0
 62
7
  6
CONTINUOUS
 10
147.0174024154
 20
265.8571442826
 11
146.4131015758
 21
266.6971464834
  0
LINE
  8
0
 62
7
  6
CONTINUOUS
 10
150.9240416827
 20
268.078763336
 11
151.5283426909
 21
267.2387609665
  0
LINE
  8
0
 62
7
  6
CONTINUOUS
 10
145.8238461496
 20
266.1078910572
 11
146.3077877281
 21
265.3882467687
  0
LINE
  8
0
 62
7
  6
CONTINUOUS
 10
152.1175974427
 20
267.8280157184
 11
151.6336563699
 21
268.5476608498
  0
LINE
  8
0
 62
7
  6
CONTINUOUS
 10
152.3608225222
 20
267.3490892777
 11
152.1175974427
 21
267.8280157184
  0
LINE
  8
0
 62
7
  6
CONTINUOUS
 10
147.2489368527
 20
343.8892018914
 11
146.5987895582
 21
345.7773667362
  0
LINE
  8
0
 62
9
  6
CONTINUOUS
 10
148.1944554283
 20
344.2147700459
 11
147.5443081338
 21
346.1029348907
  0
LINE
  8
0
 62
7
  6
CONTINUOUS
 10
164.1910708268
 20
286.1601366227
 11
164.436801115
 21
285.4429982172
  0
LINE
  8
0
 62
7
  6
CONTINUOUS
 10
237.9888574322
 20
64.5076593789
 11
237.4050021927
 21
66.417363818
  0
LINE
  8
0
 62
9
  6
CONTINUOUS
 10
219.7833571861
 20
76.7040022582
 11
219.5754454953
 21
77.6821498589
  0
LINE
  8
0
 62
7
  6
CONTINUOUS
 10
170.3845230729
 20
286.0949413486
 11
170.6352692575
 21
284.9013843242
  0
LINE
  8
0
 62
7
  6
CONTINUOUS
 10
141.6138023409
 20
258.7685239942
 11
142.3359540297
 21
258.0463723054
  0
LINE
  8
0
 62
7
  6
CONTINUOUS
 10
142.1554161496
 20
263.8837647721
 11
144.4422296342
 21
261.5969512875
  0
LINE
  8
0
 62
7
  6
CONTINUOUS
 10
145.164381323
 20
260.8747995987
 11
146.8494017055
 21
259.1897792162
  0
LINE
  8
0
 62
7
  6
CONTINUOUS
 10
147.5565081495
 20
259.8968856602
 11
145.871487767
 21
261.5819060427
  0
LINE
  8
0
 62
7
  6
CONTINUOUS
 10
145.1493360782
 20
262.3040577315
 11
141.8996539
 21
265.5537399097
  0
LINE
  8
0
 62
7
  6
CONTINUOUS
 10
147.0499992938
 20
262.7604175695
 11
146.327847605
 21
263.4825692583
  0
LINE
  8
0
 62
7
  6
CONTINUOUS
 10
146.3077877281
 20
265.3882467687
 11
147.3910150085
 21
264.3050194884
  0
LINE
  8
0
 62
7
  6
CONTINUOUS
 10
147.8599125223
 20
265.0146341756
 11
147.0174024154
 21
265.8571442826
  0
LINE
  8
0
 62
7
  6
CONTINUOUS
 10
150.0815315757
 20
268.9212734429
 11
150.9240416827
 21
268.078763336
  0
LINE
  8
0
 62
7
  6
CONTINUOUS
 10
151.6336563699
 20
268.5476608498
 11
150.5504290896
 21
269.6308881302
  0
LINE
  8
0
 62
7
  6
CONTINUOUS
 10
164.436801115
 20
285.4429982172
 11
164.6800278803
 21
284.964072788
  0
LINE
  8
0
 62
7
  6
CONTINUOUS
 10
171.217004253
 20
286.2052710084
 11
170.9737778248
 21
286.6841961005
  0
LINE
  8
0
 62
7
  6
CONTINUOUS
 10
171.4627346254
 20
285.4881325187
 11
171.217004253
 21
286.2052710084
  0
LINE
  8
0
 62
7
  6
CONTINUOUS
 10
181.5853953547
 20
296.8143792836
 11
181.7107697536
 21
296.2176021622
  0
LINE
  8
0
 62
7
  6
CONTINUOUS
 10
181.2920214261
 20
302.0575006806
 11
181.1666466901
 21
302.6542781391
  0
LINE
  8
0
 62
7
  6
CONTINUOUS
 10
187.1244002723
 20
302.3533842012
 11
187.2497719738
 21
301.7566043824
  0
LINE
  8
0
 62
9
  6
CONTINUOUS
 10
218.7312317008
 20
352.3334564099
 11
218.7312317008
 21
351.8334564099
  0
LINE
  8
0
 62
7
  6
CONTINUOUS
 10
219.7312317008
 20
352.3334564099
 11
219.7312317008
 21
351.8334564099
  0
LINE
  8
0
 62
9
  6
CONTINUOUS
 10
221.7312317008
 20
349.8334564099
 11
221.7312317008
 21
348.8334564099
  0
LINE
  8
DEFAULT_1
 62
2
  6
CENTER
 10
222.9812317008
 20
371.241770362
 11
222.9812317008
 21
217.1135564099
  0
LINE
  8
0
 62
2
  6
CONTINUOUS
 10
222.9812317008
 20
216.5984564099
 11
222.9812317008
 21
213.6284564099
  0
LINE
  8
DEFAULT_1
 62
2
  6
CENTER
 10
222.9812317008
 20
56.0152432127
 11
222.9812317008
 21
213.1133564099
  0
LINE
  8
0
 62
7
  6
CONTINUOUS
 10
191.3765656298
 20
82.0568294327
 11
191.2726097844
 21
81.5677556323
  0
LINE
  8
0
 62
9
  6
CONTINUOUS
 10
196.1940532148
 20
83.0775220255
 11
196.4019649056
 21
84.0556696262
  0
LINE
  8
0
 62
9
  6
CONTINUOUS
 10
274.9110656687
 20
342.1987948407
 11
274.7076973472
 21
341.7420221118
  0
LINE
  8
0
 62
7
  6
CONTINUOUS
 10
275.8246111263
 20
341.7920581976
 11
275.6212428048
 21
341.3352854688
  0
LINE
  8
0
 62
9
  6
CONTINUOUS
 10
276.6348604339
 20
338.6947212673
 11
276.2281237909
 21
337.7811758097
  0
LINE
  8
0
 62
7
  6
CONTINUOUS
 10
139.9899267757
 20
106.4149550089
 11
139.6960341495
 21
106.0104465117
  0
LINE
  8
0
 62
9
  6
CONTINUOUS
 10
144.806073755
 20
105.3879553623
 11
145.3938590072
 21
106.1969723567
  0
LINE
  8
0
 62
9
  6
CONTINUOUS
 10
322.1117595758
 20
310.0899237227
 11
321.7401871631
 21
309.7553584195
  0
LINE
  8
0
 62
7
  6
CONTINUOUS
 10
322.7808901822
 20
309.3467788972
 11
322.4093177694
 21
309.0122135941
  0
LINE
  8
0
 62
9
  6
CONTINUOUS
 10
322.2612893312
 20
306.1876627304
 11
321.5181445057
 21
305.518532124
  0
LINE
  8
0
 62
7
  6
CONTINUOUS
 10
102.9532384954
 20
149.5680389722
 11
102.5202257935
 21
149.3180389722
  0
LINE
  8
0
 62
9
  6
CONTINUOUS
 10
106.935289303
 20
146.6709246551
 11
107.8013147068
 21
147.1709246551
  0
LINE
  8
0
 62
9
  6
CONTINUOUS
 10
352.1718846408
 20
261.5587585723
 11
351.6963563826
 21
261.4042500751
  0
LINE
  8
0
 62
7
  6
CONTINUOUS
 10
352.4809016351
 20
260.607702056
 11
352.005373377
 21
260.4531935588
  0
LINE
  8
0
 62
9
  6
CONTINUOUS
 10
350.7212943331
 20
257.9330465374
 11
349.7702378168
 21
257.6240295431
  0
LINE
  8
0
 62
9
  6
CONTINUOUS
 10
86.9571831873
 20
196.543342625
 11
87.454444135
 21
196.5956068566
  0
LINE
  8
0
 62
7
  6
CONTINUOUS
 10
86.852654724
 20
197.5378645203
 11
87.3499156717
 21
197.590128752
  0
LINE
  8
0
 62
9
  6
CONTINUOUS
 10
89.1299025359
 20
199.7882294693
 11
90.1244244313
 21
199.8927579325
  0
LINE
  8
DEFAULT_1
 62
2
  6
CENTER
 10
388.3930147059
 20
215.1134564099
 11
224.9813317008
 21
215.1134564099
  0
LINE
  8
0
 62
2
  6
CONTINUOUS
 10
224.4662317008
 20
215.1134564099
 11
221.4962317008
 21
215.1134564099
  0
LINE
  8
DEFAULT_1
 62
2
  6
CENTER
 10
55.4775169683
 20
215.1134564099
 11
220.9811317008
 21
215.1134564099
  0
LINE
  8
0
 62
7
  6
CONTINUOUS
 10
358.61254773
 20
197.590128752
 11
359.1098086776
 21
197.5378645203
  0
LINE
  8
0
 62
9
  6
CONTINUOUS
 10
357.0938820239
 20
202.2745342077
 11
356.0993601286
 21
202.3790626709
  0
LINE
  8
0
 62
9
  6
CONTINUOUS
 10
91.1639343087
 20
253.4747781838
 11
91.6394625669
 21
253.3202696866
  0
LINE
  8
0
 62
7
  6
CONTINUOUS
 10
91.4729513031
 20
254.4258347001
 11
91.9484795612
 21
254.2713262029
  0
LINE
  8
0
 62
9
  6
CONTINUOUS
 10
94.4686265826
 20
255.5554052467
 11
95.4196830989
 21
255.2463882523
  0
LINE
  8
0
 62
7
  6
CONTINUOUS
 10
339.7592249062
 20
143.9388738476
 11
340.1922376081
 21
143.6888738476
  0
LINE
  8
0
 62
9
  6
CONTINUOUS
 10
340.2771740987
 20
148.8359881646
 11
339.4111486949
 21
149.3359881646
  0
LINE
  8
0
 62
7
  6
CONTINUOUS
 10
147.3910150085
 20
264.3050194884
 11
148.1106594656
 21
263.8210777412
  0
LINE
  8
0
 62
7
  6
CONTINUOUS
 10
148.6999148918
 20
264.4103331675
 11
147.8599125223
 21
265.0146341756
  0
LINE
  8
0
 62
7
  6
CONTINUOUS
 10
149.2415293749
 20
269.5255742825
 11
150.0815315757
 21
268.9212734429
  0
LINE
  8
0
 62
9
  6
CONTINUOUS
 10
118.1630936718
 20
303.7731927062
 11
118.5346660845
 21
303.438627403
  0
LINE
  8
0
 62
7
  6
CONTINUOUS
 10
118.8322242782
 20
304.5163375316
 11
119.2037966909
 21
304.1817722285
  0
LINE
  8
0
 62
9
  6
CONTINUOUS
 10
122.0283475546
 20
304.3298006667
 11
122.77149238
 21
303.6606700603
  0
LINE
  8
0
 62
7
  6
CONTINUOUS
 10
155.7057881039
 20
277.6748538998
 11
156.6686571347
 21
276.711984869
  0
LINE
  8
0
 62
7
  6
CONTINUOUS
 10
156.5332534718
 20
278.2616020943
 11
161.2272390276
 21
273.5676165384
  0
LINE
  8
0
 62
7
  6
CONTINUOUS
 10
161.9343458088
 20
274.2747233196
 11
156.2774915593
 21
279.9315775691
  0
LINE
  8
0
 62
7
  6
CONTINUOUS
 10
160.4699832287
 20
277.624704882
 11
161.1921349175
 21
276.9025531932
  0
LINE
  8
0
 62
7
  6
CONTINUOUS
 10
300.7139261625
 20
102.594350869
 11
301.0078187887
 21
102.1898423718
  0
LINE
  8
0
 62
9
  6
CONTINUOUS
 10
303.1789321326
 20
106.8574184931
 11
302.5911468803
 21
107.6664354874
  0
LINE
  8
0
 62
7
  6
CONTINUOUS
 10
165.8735821231
 20
284.7133239903
 11
165.2692826322
 21
285.5533275399
  0
LINE
  8
0
 62
7
  6
CONTINUOUS
 10
169.7802234134
 20
286.9349450668
 11
170.3845230729
 21
286.0949413486
  0
LINE
  8
0
 62
7
  6
CONTINUOUS
 10
164.6800278803
 20
284.964072788
 11
165.1639687845
 21
284.2444278251
  0
LINE
  8
0
 62
7
  6
CONTINUOUS
 10
170.9737778248
 20
286.6841961005
 11
170.489836752
 21
287.4038412319
  0
LINE
  8
0
 62
7
  6
CONTINUOUS
 10
175.0333739059
 20
297.0024397018
 11
175.3969562234
 21
296.4031533256
  0
LINE
  8
0
 62
7
  6
CONTINUOUS
 10
176.2244219284
 20
296.9899011829
 11
175.9811978605
 21
297.4688293095
  0
LINE
  8
0
 62
9
  6
CONTINUOUS
 10
163.286261343
 20
338.7415333745
 11
163.4896296645
 21
338.2847606457
  0
LINE
  8
0
 62
7
  6
CONTINUOUS
 10
164.1998068006
 20
339.1482700176
 11
164.4031751222
 21
338.6914972888
  0
LINE
  8
0
 62
9
  6
CONTINUOUS
 10
167.0437393236
 20
337.6778796596
 11
167.4504759667
 21
336.764334202
  0
LINE
  8
0
 62
7
  6
CONTINUOUS
 10
180.2188227355
 20
302.1878885313
 11
180.464555721
 21
301.4707528233
  0
LINE
  8
0
 62
7
  6
CONTINUOUS
 10
182.6585937925
 20
296.6839916857
 11
182.4128607226
 21
297.4011274781
  0
LINE
  8
0
 62
7
  6
CONTINUOUS
 10
188.1975960126
 20
302.2229939059
 11
187.9518656402
 21
302.9401323956
  0
LINE
  8
0
 62
7
  6
CONTINUOUS
 10
248.227938367
 20
80.7054034424
 11
248.3318942125
 21
80.216329642
  0
LINE
  8
0
 62
9
  6
CONTINUOUS
 10
252.2137791887
 20
83.5973012525
 11
252.0058674979
 21
84.5754488533
  0
LINE
  8
0
 62
7
  6
CONTINUOUS
 10
226.2312317008
 20
351.8334564099
 11
226.2312317008
 21
352.3334564099
  0
LINE
  8
0
 62
7
  6
CONTINUOUS
 10
197.6305691892
 20
80.216329642
 11
197.7345250346
 21
80.7054034424
  0
LINE
  8
0
 62
9
  6
CONTINUOUS
 10
198.6087167899
 20
80.0084179512
 11
198.7126726353
 21
80.4974917516
  0
LINE
  8
0
 62
7
  6
CONTINUOUS
 10
281.5592882795
 20
338.6914972888
 11
281.762656601
 21
339.1482700176
  0
LINE
  8
0
 62
7
  6
CONTINUOUS
 10
144.954644613
 20
102.1898423718
 11
145.2485372391
 21
102.594350869
  0
LINE
  8
0
 62
9
  6
CONTINUOUS
 10
145.7636616073
 20
101.6020571195
 11
146.0575542335
 21
102.0065656167
  0
LINE
  8
0
 62
7
  6
CONTINUOUS
 10
326.7586667108
 20
304.1817722285
 11
327.1302391235
 21
304.5163375316
  0
LINE
  8
0
 62
7
  6
CONTINUOUS
 10
105.7702257935
 20
143.6888738476
 11
106.2032384954
 21
143.9388738476
  0
LINE
  8
0
 62
9
  6
CONTINUOUS
 10
106.2702257935
 20
142.8228484438
 11
106.7032384954
 21
143.0728484438
  0
LINE
  8
0
 62
7
  6
CONTINUOUS
 10
354.0139838404
 20
254.2713262029
 11
354.4895120986
 21
254.4258347001
  0
LINE
  8
0
 62
7
  6
CONTINUOUS
 10
86.6704806605
 20
204.0545210719
 11
86.1732197128
 21
204.0022568402
  0
LINE
  8
0
 62
7
  6
CONTINUOUS
 10
359.7892436889
 20
204.0022568402
 11
359.2919827412
 21
204.0545210719
  0
LINE
  8
0
 62
9
  6
CONTINUOUS
 10
359.8937721521
 20
204.9967787356
 11
359.3965112045
 21
205.0490429672
  0
LINE
  8
0
 62
7
  6
CONTINUOUS
 10
93.9570900247
 20
260.4531935588
 11
93.4815617665
 21
260.607702056
  0
LINE
  8
0
 62
7
  6
CONTINUOUS
 10
148.1106594656
 20
263.8210777412
 11
148.5895865807
 21
263.5778533361
  0
LINE
  8
0
 62
7
  6
CONTINUOUS
 10
149.8307841267
 20
270.1148290344
 11
149.3518573488
 21
270.358054451
  0
LINE
  8
0
 62
7
  6
CONTINUOUS
 10
343.4422376081
 20
149.3180389722
 11
343.0092249062
 21
149.5680389722
  0
LINE
  8
0
 62
9
  6
CONTINUOUS
 10
343.9422376081
 20
150.184064376
 11
343.5092249062
 21
150.434064376
  0
LINE
  8
0
 62
7
  6
CONTINUOUS
 10
150.5504290896
 20
269.6308881302
 11
149.8307841267
 21
270.1148290344
  0
LINE
  8
0
 62
7
  6
CONTINUOUS
 10
123.5531456322
 20
309.0122135941
 11
123.1815732195
 21
309.3467788972
  0
LINE
  8
0
 62
7
  6
CONTINUOUS
 10
161.0115968689
 20
282.7399454913
 11
163.2984103534
 21
280.4531320068
  0
LINE
  8
0
 62
7
  6
CONTINUOUS
 10
164.0205620423
 20
279.7309803179
 11
165.7055824247
 21
278.0459599355
  0
LINE
  8
0
 62
7
  6
CONTINUOUS
 10
166.4126892059
 20
278.7530667167
 11
164.7276688234
 21
280.4380870991
  0
LINE
  8
0
 62
7
  6
CONTINUOUS
 10
164.0055171346
 20
281.1602387879
 11
160.7558349564
 21
284.4099209662
  0
LINE
  8
0
 62
7
  6
CONTINUOUS
 10
165.9061810246
 20
281.6165993002
 11
165.1840293357
 21
282.3387509891
  0
LINE
  8
0
 62
7
  6
CONTINUOUS
 10
165.1639687845
 20
284.2444278251
 11
166.2471960649
 21
283.1612005448
  0
LINE
  8
0
 62
7
  6
CONTINUOUS
 10
166.71609223
 20
283.8708138834
 11
165.8735821231
 21
284.7133239903
  0
LINE
  8
0
 62
7
  6
CONTINUOUS
 10
168.9377133065
 20
287.7774551737
 11
169.7802234134
 21
286.9349450668
  0
LINE
  8
0
 62
7
  6
CONTINUOUS
 10
170.489836752
 20
287.4038412319
 11
169.4066094717
 21
288.4870685123
  0
LINE
  8
0
 62
7
  6
CONTINUOUS
 10
306.2664292521
 20
106.0104465117
 11
305.972536626
 21
106.4149550089
  0
LINE
  8
0
 62
9
  6
CONTINUOUS
 10
307.0754462465
 20
106.598231764
 11
306.7815536203
 21
107.0027402612
  0
LINE
  8
0
 62
7
  6
CONTINUOUS
 10
180.464555721
 20
301.4707528233
 11
180.9484969624
 21
300.7511075232
  0
LINE
  8
0
 62
7
  6
CONTINUOUS
 10
181.6556037436
 20
301.4582143044
 11
181.2920214261
 21
302.0575006806
  0
LINE
  8
0
 62
7
  6
CONTINUOUS
 10
186.7608152574
 20
302.9526678799
 11
187.1244002723
 21
302.3533842012
  0
LINE
  8
0
 62
7
  6
CONTINUOUS
 10
170.3412205968
 20
341.3352854688
 11
170.1378522753
 21
341.7920581976
  0
LINE
  8
0
 62
7
  6
CONTINUOUS
 10
254.6898536172
 20
81.5677556323
 11
254.5858977718
 21
82.0568294327
  0
LINE
  8
0
 62
9
  6
CONTINUOUS
 10
255.668001218
 20
81.7756673232
 11
255.5640453725
 21
82.2647411235
  0
LINE
  8
0
 62
7
  6
CONTINUOUS
 10
239.6142645066
 20
365.5484162733
 11
239.7883112294
 21
363.559053128
  0
LINE
  8
0
 62
9
  6
CONTINUOUS
 10
207.601156453
 20
66.7097355227
 11
207.0173012134
 21
64.8000310836
  0
LINE
  8
0
 62
7
  6
CONTINUOUS
 10
208.557461209
 20
66.417363818
 11
207.9736059694
 21
64.5076593789
  0
LINE
  8
0
 62
7
  6
CONTINUOUS
 10
299.3636738435
 20
345.7773667362
 11
298.713526549
 21
343.8892018914
  0
LINE
  8
0
 62
9
  6
CONTINUOUS
 10
148.5696025664
 20
85.7955514727
 11
147.2594774915
 21
84.2884249771
  0
LINE
  8
0
 62
7
  6
CONTINUOUS
 10
149.3243121466
 20
85.1394924437
 11
148.0141870717
 21
83.6323659481
  0
LINE
  8
0
 62
7
  6
CONTINUOUS
 10
345.9058650212
 20
303.4133400593
 11
344.5439400829
 21
301.9528543701
  0
LINE
  8
0
 62
9
  6
CONTINUOUS
 10
102.4044953655
 20
127.2416080026
 11
100.5946329829
 21
126.3976553134
  0
LINE
  8
0
 62
7
  6
CONTINUOUS
 10
102.8271136273
 20
126.3353002156
 11
101.0172512447
 21
125.4913475264
  0
LINE
  8
0
 62
7
  6
CONTINUOUS
 10
371.1932703625
 20
245.7814613201
 11
369.3550569751
 21
245.0011860303
  0
LINE
  8
0
 62
9
  6
CONTINUOUS
 10
359.1926616291
 20
275.9957809767
 11
361.1384418069
 21
276.4449997267
  0
LINE
  8
0
 62
7
  6
CONTINUOUS
 10
358.9677105748
 20
276.9701510415
 11
360.9134907526
 21
277.4193697915
  0
LINE
  8
0
 62
7
  6
CONTINUOUS
 10
71.6317449291
 20
215.9306365453
 11
73.5920172985
 21
216.3116748945
  0
LINE
  8
0
 62
9
  6
CONTINUOUS
 10
372.1796371078
 20
215.330047711
 11
374.1399094772
 21
214.9490093619
  0
LINE
  8
0
 62
7
  6
CONTINUOUS
 10
372.3704461032
 20
216.3116748945
 11
374.3307184725
 21
215.9306365453
  0
LINE
  8
0
 62
7
  6
CONTINUOUS
 10
85.0489726491
 20
277.4193697915
 11
86.9947528268
 21
276.9701510415
  0
LINE
  8
0
 62
7
  6
CONTINUOUS
 10
148.5895865807
 20
263.5778533361
 11
149.3067230474
 21
263.3321209406
  0
LINE
  8
0
 62
7
  6
CONTINUOUS
 10
149.3518573488
 20
270.358054451
 11
148.634720292
 21
270.6037860879
  0
LINE
  8
0
 62
7
  6
CONTINUOUS
 10
166.2471960649
 20
283.1612005448
 11
166.9668411963
 21
282.677259472
  0
LINE
  8
0
 62
9
  6
CONTINUOUS
 10
359.3688528667
 20
154.6268638417
 11
361.0046685264
 21
153.4814533856
  0
LINE
  8
0
 62
7
  6
CONTINUOUS
 10
359.942429303
 20
155.446015886
 11
361.5782449628
 21
154.3006054299
  0
LINE
  8
0
 62
7
  6
CONTINUOUS
 10
167.5560959482
 20
283.2665142239
 11
166.71609223
 21
283.8708138834
  0
LINE
  8
0
 62
7
  6
CONTINUOUS
 10
168.0977097569
 20
288.3817546646
 11
168.9377133065
 21
287.7774551737
  0
LINE
  8
0
 62
7
  6
CONTINUOUS
 10
122.3159410343
 20
328.1348445825
 11
123.9107859509
 21
326.9330427363
  0
LINE
  8
0
 62
7
  6
CONTINUOUS
 10
175.3969562234
 20
296.4031533256
 11
175.8783909074
 21
295.9217186416
  0
LINE
  8
0
 62
7
  6
CONTINUOUS
 10
176.4651391019
 20
296.7491840095
 11
176.2244219284
 21
296.9899011829
  0
LINE
  8
0
 62
7
  6
CONTINUOUS
 10
181.2243195946
 20
297.1754550437
 11
181.5853953547
 21
296.8143792836
  0
LINE
  8
0
 62
7
  6
CONTINUOUS
 10
182.4128607226
 20
297.4011274781
 11
181.8110677891
 21
298.0029204116
  0
LINE
  8
0
 62
7
  6
CONTINUOUS
 10
187.9518656402
 20
302.9401323956
 11
187.4679220386
 21
303.6597746611
  0
LINE
  8
0
 62
9
  6
CONTINUOUS
 10
322.9754098833
 20
104.3823613309
 11
324.0039214449
 21
102.6706306415
  0
LINE
  8
0
 62
7
  6
CONTINUOUS
 10
323.832577184
 20
104.8973994058
 11
324.8610887456
 21
103.1856687164
  0
LINE
  8
0
 62
7
  6
CONTINUOUS
 10
176.9888526913
 20
359.3078945914
 11
177.9569991719
 21
357.5613121062
  0
LINE
  8
0
 62
9
  6
CONTINUOUS
 10
269.2920650736
 20
73.2842711196
 11
269.5354335444
 21
71.3021939836
  0
LINE
  8
0
 62
7
  6
CONTINUOUS
 10
270.2846112252
 20
73.406140463
 11
270.527979696
 21
71.424063327
  0
LINE
  8
0
 62
9
  6
CONTINUOUS
 10
254.8861686227
 20
349.8334564099
 11
254.8861686227
 21
348.8334564099
  0
LINE
  8
0
 62
9
  6
CONTINUOUS
 10
306.9234024573
 20
325.2093935224
 11
306.5166658142
 21
324.2958480647
  0
LINE
  8
0
 62
9
  6
CONTINUOUS
 10
344.4462723775
 20
281.5487429179
 11
343.703127552
 21
280.8796123115
  0
LINE
  8
0
 62
9
  6
CONTINUOUS
 10
360.9667332894
 20
226.4008277306
 11
360.0156767731
 21
226.0918107362
  0
LINE
  8
0
 62
9
  6
CONTINUOUS
 10
85.6642679297
 20
232.7615401776
 11
86.6587898251
 21
232.8660686408
  0
LINE
  8
0
 62
7
  6
CONTINUOUS
 10
154.9334875659
 20
271.8474920458
 11
158.8702173228
 21
271.2105948336
  0
LINE
  8
0
 62
7
  6
CONTINUOUS
 10
159.577324104
 20
271.9177016148
 11
154.685248023
 21
272.8028383699
  0
LINE
  8
0
 62
7
  6
CONTINUOUS
 10
149.8934712419
 20
264.1595863085
 11
148.6999148918
 21
264.4103331675
  0
LINE
  8
0
 62
7
  6
CONTINUOUS
 10
148.0479727719
 20
269.7763213944
 11
149.2415293749
 21
269.5255742825
  0
LINE
  8
0
 62
9
  6
CONTINUOUS
 10
104.7140655388
 20
287.0876240536
 11
105.6651220551
 21
286.7786070592
  0
LINE
  8
0
 62
7
  6
CONTINUOUS
 10
166.9668411963
 20
282.677259472
 11
167.4457662884
 21
282.4340330438
  0
LINE
  8
0
 62
7
  6
CONTINUOUS
 10
168.6869645088
 20
288.9710094165
 11
168.2080390796
 21
289.2142361818
  0
LINE
  8
0
 62
7
  6
CONTINUOUS
 10
177.8116508328
 20
293.281351935
 11
178.4109372089
 21
292.9177696176
  0
LINE
  8
0
 62
7
  6
CONTINUOUS
 10
175.8783909074
 20
295.9217186416
 11
176.4776772835
 21
295.5581363241
  0
LINE
  8
0
 62
7
  6
CONTINUOUS
 10
169.4066094717
 20
288.4870685123
 11
168.6869645088
 21
288.9710094165
  0
LINE
  8
0
 62
9
  6
CONTINUOUS
 10
144.2133306009
 20
328.9687204792
 11
144.9564754263
 21
328.2995898728
  0
LINE
  8
0
 62
7
  6
CONTINUOUS
 10
180.9484969624
 20
300.7511075232
 11
182.7538759316
 21
298.9457285541
  0
LINE
  8
0
 62
7
  6
CONTINUOUS
 10
183.4609827127
 20
299.6528353352
 11
181.6556037436
 21
301.4582143044
  0
LINE
  8
0
 62
7
  6
CONTINUOUS
 10
184.9554362882
 20
304.7580468491
 11
186.7608152574
 21
302.9526678799
  0
LINE
  8
0
 62
7
  6
CONTINUOUS
 10
187.4679220386
 20
303.6597746611
 11
185.6625430694
 21
305.4651536303
  0
LINE
  8
0
 62
9
  6
CONTINUOUS
 10
197.332281347
 20
351.1632074046
 11
197.73901799
 21
350.249661947
  0
LINE
  8
0
 62
7
  6
CONTINUOUS
 10
149.3067230474
 20
263.3321209406
 11
150.0213522402
 21
263.3245985289
  0
LINE
  8
0
 62
7
  6
CONTINUOUS
 10
148.634720292
 20
270.6037860879
 11
147.9200911413
 21
270.6113084574
  0
LINE
  8
0
 62
7
  6
CONTINUOUS
 10
149.2064237475
 20
272.8605097572
 11
153.9781412418
 21
272.0957315887
  0
LINE
  8
0
 62
7
  6
CONTINUOUS
 10
153.8502602856
 20
272.9307193262
 11
149.9135305286
 21
273.5676165384
  0
LINE
  8
0
 62
7
  6
CONTINUOUS
 10
168.7496529726
 20
283.0157680393
 11
167.5560959482
 21
283.2665142239
  0
LINE
  8
0
 62
7
  6
CONTINUOUS
 10
167.4457662884
 20
282.4340330438
 11
168.1629047782
 21
282.1883026714
  0
LINE
  8
0
 62
7
  6
CONTINUOUS
 10
168.2080390796
 20
289.2142361818
 11
167.4909006741
 21
289.45996647
  0
LINE
  8
0
 62
7
  6
CONTINUOUS
 10
178.9976854034
 20
293.7452349854
 11
178.518757614
 21
293.9884587162
  0
LINE
  8
0
 62
7
  6
CONTINUOUS
 10
176.9440668913
 20
296.5059602787
 11
176.4651391019
 21
296.7491840095
  0
LINE
  8
0
 62
7
  6
CONTINUOUS
 10
179.0503421586
 20
300.0565392609
 11
178.5714143692
 21
300.2997629917
  0
LINE
  8
0
 62
7
  6
CONTINUOUS
 10
184.0602690889
 20
299.2892530178
 11
183.4609827127
 21
299.6528353352
  0
LINE
  8
0
 62
7
  6
CONTINUOUS
 10
184.3561526095
 20
305.121631864
 11
184.9554362882
 21
304.7580468491
  0
LINE
  8
0
 62
7
  6
CONTINUOUS
 10
182.7538759316
 20
298.9457285541
 11
183.4735208944
 21
298.4617876499
  0
LINE
  8
0
 62
7
  6
CONTINUOUS
 10
185.6625430694
 20
305.4651536303
 11
184.9429004668
 21
305.949097569
  0
LINE
  8
0
 62
9
  6
CONTINUOUS
 10
268.317026893
 20
69.1931188042
 11
268.4299571429
 21
70.1867217222
  0
LINE
  8
0
 62
9
  6
CONTINUOUS
 10
205.046393193
 20
63.3688656649
 11
205.5536948252
 21
64.2306342266
  0
LINE
  8
0
 62
7
  6
CONTINUOUS
 10
227.1135363833
 20
120.2508117262
 11
231.3561770704
 21
124.4934524133
  0
LINE
  8
0
 62
7
  6
CONTINUOUS
 10
313.6012356974
 20
206.7385110403
 11
317.8438763845
 21
210.9811517274
  0
LINE
  8
0
 62
7
  6
CONTINUOUS
 10
235.4808738297
 20
126.3554074729
 11
311.7392806378
 21
202.613814281
  0
LINE
  8
0
 62
9
  6
CONTINUOUS
 10
215.910163889
 20
106.2190121072
 11
218.7385910137
 21
109.0474392319
  0
LINE
  8
0
 62
9
  6
CONTINUOUS
 10
329.0472488788
 20
219.356097097
 11
331.8756760036
 21
222.1845242217
  0
LINE
  8
0
 62
9
  6
CONTINUOUS
 10
144.8768560039
 20
83.7826308218
 11
145.6908119576
 21
84.3635574139
  0
LINE
  8
0
 62
7
  6
CONTINUOUS
 10
150.0213522402
 20
263.3245985289
 11
150.9716834582
 21
263.5527781634
  0
LINE
  8
0
 62
7
  6
CONTINUOUS
 10
147.9200911413
 20
270.6113084574
 11
146.969759955
 21
270.3831287913
  0
LINE
  8
0
 62
7
  6
CONTINUOUS
 10
150.4877418059
 20
264.2724225257
 11
149.8934712419
 21
264.1595863085
  0
LINE
  8
0
 62
7
  6
CONTINUOUS
 10
147.4537022079
 20
269.6634851772
 11
148.0479727719
 21
269.7763213944
  0
LINE
  8
0
 62
9
  6
CONTINUOUS
 10
363.3633214267
 20
275.4537260218
 11
362.363357144
 21
275.4621778419
  0
LINE
  8
0
 62
7
  6
CONTINUOUS
 10
168.1629047782
 20
282.1883026714
 11
168.877533971
 21
282.1807802597
  0
LINE
  8
0
 62
7
  6
CONTINUOUS
 10
167.4909006741
 20
289.45996647
 11
166.7762715234
 21
289.4674888395
  0
LINE
  8
0
 62
7
  6
CONTINUOUS
 10
166.9041524796
 20
288.6325011021
 11
168.0977097569
 21
288.3817546646
  0
LINE
  8
0
 62
7
  6
CONTINUOUS
 10
180.6275423047
 20
297.3008296112
 11
181.2243195946
 21
297.1754550437
  0
LINE
  8
0
 62
7
  6
CONTINUOUS
 10
178.4109372089
 20
292.9177696176
 11
179.3662836595
 21
292.6695299482
  0
LINE
  8
0
 62
7
  6
CONTINUOUS
 10
181.8110677891
 20
298.0029204116
 11
181.0939319124
 21
298.2486535658
  0
LINE
  8
0
 62
7
  6
CONTINUOUS
 10
177.9846661747
 20
299.4722976238
 11
178.3432353775
 21
299.3494324797
  0
LINE
  8
0
 62
7
  6
CONTINUOUS
 10
183.4735208944
 20
298.4617876499
 11
184.1906566868
 21
298.21605458
  0
LINE
  8
0
 62
7
  6
CONTINUOUS
 10
184.9429004668
 20
305.949097569
 11
184.2257620613
 21
306.1948278572
  0
LINE
  8
0
 62
9
  6
CONTINUOUS
 10
375.7692508086
 20
213.1384957037
 11
374.8591756452
 21
213.5529389411
  0
LINE
  8
0
 62
7
  6
CONTINUOUS
 10
317.8438763845
 20
219.2457610923
 11
313.6012356974
 21
223.4884017795
  0
LINE
  8
0
 62
7
  6
CONTINUOUS
 10
231.3561770704
 20
305.7334604064
 11
227.1135363833
 21
309.9761010935
  0
LINE
  8
0
 62
7
  6
CONTINUOUS
 10
311.7392806378
 20
227.6130985388
 11
235.4808738297
 21
303.8715053469
  0
LINE
  8
0
 62
9
  6
CONTINUOUS
 10
329.0472488788
 20
210.8708157228
 11
331.8756760036
 21
208.042388598
  0
LINE
  8
0
 62
9
  6
CONTINUOUS
 10
218.7385910137
 20
321.1794735879
 11
215.910163889
 21
324.0079007126
  0
LINE
  8
0
 62
9
  6
CONTINUOUS
 10
361.7567436511
 20
151.1647540337
 11
361.0939178706
 21
151.9135276875
  0
LINE
  8
0
 62
9
  6
CONTINUOUS
 10
323.7486897414
 20
100.2483239602
 11
323.4477219428
 21
101.2019582634
  0
LINE
  8
0
 62
9
  6
CONTINUOUS
 10
227.2238723879
 20
109.0474392319
 11
329.0472488788
 21
210.8708157228
  0
LINE
  8
0
 62
7
  6
CONTINUOUS
 10
228.6380859503
 20
107.6332256695
 11
330.4614624412
 21
209.4566021604
  0
LINE
  8
0
 62
9
  6
CONTINUOUS
 10
230.0522995127
 20
106.2190121072
 11
331.8756760036
 21
208.042388598
  0
LINE
  8
0
 62
7
  6
CONTINUOUS
 10
168.877533971
 20
282.1807802597
 11
169.8278645146
 21
282.4089592198
  0
LINE
  8
0
 62
7
  6
CONTINUOUS
 10
166.7762715234
 20
289.4674888395
 11
165.8259410114
 21
289.2393098478
  0
LINE
  8
0
 62
7
  6
CONTINUOUS
 10
179.3662836595
 20
292.6695299482
 11
180.3166142031
 21
292.8977089083
  0
LINE
  8
0
 62
7
  6
CONTINUOUS
 10
169.3439235366
 20
283.1286042565
 11
168.7496529726
 21
283.0157680393
  0
LINE
  8
0
 62
7
  6
CONTINUOUS
 10
166.3098819156
 20
288.5196648849
 11
166.9041524796
 21
288.6325011021
  0
LINE
  8
0
 62
7
  6
CONTINUOUS
 10
179.7123146384
 20
293.7377125316
 11
178.9976854034
 21
293.7452349854
  0
LINE
  8
0
 62
7
  6
CONTINUOUS
 10
176.4776772835
 20
295.5581363241
 11
177.4305170503
 21
295.5481073972
  0
LINE
  8
0
 62
7
  6
CONTINUOUS
 10
184.1906566868
 20
298.21605458
 11
185.1434964957
 21
298.206025611
  0
LINE
  8
0
 62
7
  6
CONTINUOUS
 10
181.0939319124
 20
298.2486535658
 11
180.1410921457
 21
298.2586824927
  0
LINE
  8
0
 62
7
  6
CONTINUOUS
 10
177.50824764
 20
299.4773134359
 11
177.9846661747
 21
299.4722976238
  0
LINE
  8
0
 62
7
  6
CONTINUOUS
 10
185.8280360419
 20
301.0570199707
 11
187.0190865089
 21
301.0444844022
  0
LINE
  8
0
 62
7
  6
CONTINUOUS
 10
188.2101315601
 20
301.0319434599
 11
188.6865528133
 21
301.026930324
  0
LINE
  8
0
 62
7
  6
CONTINUOUS
 10
187.2497719738
 20
301.7566043824
 11
186.535142823
 21
301.7641267519
  0
LINE
  8
0
 62
7
  6
CONTINUOUS
 10
189.3936595945
 20
301.7340371052
 11
188.2026091274
 21
301.7465726738
  0
LINE
  8
0
 62
7
  6
CONTINUOUS
 10
178.5714143692
 20
300.2997629917
 11
177.7364266318
 21
300.4276439479
  0
LINE
  8
0
 62
7
  6
CONTINUOUS
 10
184.6570462103
 20
299.1638786189
 11
184.0602690889
 21
299.2892530178
  0
LINE
  8
0
 62
7
  6
CONTINUOUS
 10
183.7593724535
 20
305.2470039026
 11
184.3561526095
 21
305.121631864
  0
LINE
  8
0
 62
9
  6
CONTINUOUS
 10
329.0472488788
 20
219.356097097
 11
227.2238723879
 21
321.1794735879
  0
LINE
  8
0
 62
7
  6
CONTINUOUS
 10
330.4614624412
 20
220.7703106594
 11
228.6380859503
 21
322.5936871502
  0
LINE
  8
0
 62
9
  6
CONTINUOUS
 10
331.8756760036
 20
222.1845242217
 11
230.0522995127
 21
324.0079007126
  0
LINE
  8
0
 62
7
  6
CONTINUOUS
 10
177.5383374553
 20
296.6187964959
 11
176.9440668913
 21
296.5059602787
  0
LINE
  8
0
 62
7
  6
CONTINUOUS
 10
180.0332717407
 20
297.187993394
 11
180.6275423047
 21
297.3008296112
  0
LINE
  8
0
 62
7
  6
CONTINUOUS
 10
185.2513168586
 20
299.2767147518
 11
184.6570462103
 21
299.1638786189
  0
LINE
  8
0
 62
7
  6
CONTINUOUS
 10
183.1651018895
 20
305.1341676854
 11
183.7593724535
 21
305.2470039026
  0
LINE
  8
0
 62
7
  6
CONTINUOUS
 10
177.7364266318
 20
300.4276439479
 11
176.9039481491
 21
300.3173169855
  0
LINE
  8
0
 62
7
  6
CONTINUOUS
 10
184.2257620613
 20
306.1948278572
 11
183.272924992
 21
306.2048594815
  0
LINE
  8
0
 62
9
  6
CONTINUOUS
 10
356.0993601286
 20
202.3790626709
 11
352.6337255224
 21
169.4057519626
  0
LINE
  8
0
 62
7
  6
CONTINUOUS
 10
357.0938820239
 20
202.2745342077
 11
353.6282474177
 21
169.3012234994
  0
LINE
  8
0
 62
7
  6
CONTINUOUS
 10
359.9564587969
 20
229.5101329042
 11
360.2981954719
 21
232.7615401776
  0
LINE
  8
0
 62
9
  6
CONTINUOUS
 10
359.2919827412
 20
204.0545210719
 11
359.3965112045
 21
205.0490429672
  0
LINE
  8
0
 62
9
  6
CONTINUOUS
 10
359.7892436889
 20
204.0022568402
 11
359.8937721521
 21
204.9967787356
  0
LINE
  8
0
 62
9
  6
CONTINUOUS
 10
339.4111486949
 20
149.3359881646
 11
322.833680234
 21
120.6229705294
  0
LINE
  8
0
 62
7
  6
CONTINUOUS
 10
340.2771740987
 20
148.8359881646
 11
323.6997056378
 21
120.1229705294
  0
LINE
  8
0
 62
7
  6
CONTINUOUS
 10
353.9699840928
 20
172.5526307728
 11
355.6046425596
 21
175.3839422903
  0
LINE
  8
0
 62
9
  6
CONTINUOUS
 10
343.0092249062
 20
149.5680389722
 11
343.5092249062
 21
150.434064376
  0
LINE
  8
0
 62
9
  6
CONTINUOUS
 10
343.4422376081
 20
149.3180389722
 11
343.9422376081
 21
150.184064376
  0
LINE
  8
0
 62
9
  6
CONTINUOUS
 10
302.5911468803
 20
107.6664354874
 11
275.7682394632
 21
88.1784525241
  0
LINE
  8
0
 62
7
  6
CONTINUOUS
 10
303.1789321326
 20
106.8574184931
 11
276.3560247154
 21
87.3694355297
  0
LINE
  8
0
 62
7
  6
CONTINUOUS
 10
325.3343641046
 20
122.954282047
 11
327.9792970639
 21
124.8759383257
  0
LINE
  8
0
 62
9
  6
CONTINUOUS
 10
305.972536626
 20
106.4149550089
 11
306.7815536203
 21
107.0027402612
  0
LINE
  8
0
 62
9
  6
CONTINUOUS
 10
306.2664292521
 20
106.0104465117
 11
307.0754462465
 21
106.598231764
  0
LINE
  8
0
 62
9
  6
CONTINUOUS
 10
221.7312317008
 20
348.8334564099
 11
254.8861686227
 21
348.8334564099
  0
LINE
  8
0
 62
7
  6
CONTINUOUS
 10
194.3456117126
 20
349.8334564099
 11
191.076294779
 21
349.8334564099
  0
LINE
  8
0
 62
7
  6
CONTINUOUS
 10
221.7312317008
 20
349.8334564099
 11
254.8861686227
 21
349.8334564099
  0
LINE
  8
0
 62
9
  6
CONTINUOUS
 10
219.7312317008
 20
351.8334564099
 11
218.7312317008
 21
351.8334564099
  0
LINE
  8
0
 62
9
  6
CONTINUOUS
 10
219.7312317008
 20
352.3334564099
 11
218.7312317008
 21
352.3334564099
  0
LINE
  8
0
 62
9
  6
CONTINUOUS
 10
276.2281237909
 20
337.7811758097
 11
306.5166658142
 21
324.2958480647
  0
LINE
  8
0
 62
7
  6
CONTINUOUS
 10
251.616851689
 20
349.8334564099
 11
248.6301820547
 21
351.1632074046
  0
LINE
  8
0
 62
7
  6
CONTINUOUS
 10
276.6348604339
 20
338.6947212673
 11
306.9234024573
 21
325.2093935224
  0
LINE
  8
0
 62
9
  6
CONTINUOUS
 10
275.6212428048
 20
341.3352854688
 11
274.7076973472
 21
341.7420221118
  0
LINE
  8
0
 62
9
  6
CONTINUOUS
 10
275.8246111263
 20
341.7920581976
 11
274.9110656687
 21
342.1987948407
  0
LINE
  8
0
 62
9
  6
CONTINUOUS
 10
321.5181445057
 20
305.518532124
 11
343.703127552
 21
280.8796123115
  0
LINE
  8
0
 62
7
  6
CONTINUOUS
 10
322.2612893312
 20
306.1876627304
 11
344.4462723775
 21
281.5487429179
  0
LINE
  8
0
 62
7
  6
CONTINUOUS
 10
303.936732823
 20
326.5391445171
 11
301.7491328008
 21
328.9687204792
  0
LINE
  8
0
 62
9
  6
CONTINUOUS
 10
322.4093177694
 20
309.0122135941
 11
321.7401871631
 21
309.7553584195
  0
LINE
  8
0
 62
9
  6
CONTINUOUS
 10
322.7808901822
 20
309.3467788972
 11
322.1117595758
 21
310.0899237227
  0
LINE
  8
0
 62
9
  6
CONTINUOUS
 10
349.7702378168
 20
257.6240295431
 11
360.0156767731
 21
226.0918107362
  0
LINE
  8
0
 62
7
  6
CONTINUOUS
 10
350.7212943331
 20
257.9330465374
 11
360.9667332894
 21
226.4008277306
  0
LINE
  8
0
 62
7
  6
CONTINUOUS
 10
342.2586723553
 20
283.97831888
 11
341.2483978628
 21
287.0876240536
  0
LINE
  8
0
 62
9
  6
CONTINUOUS
 10
352.005373377
 20
260.4531935588
 11
351.6963563826
 21
261.4042500751
  0
LINE
  8
0
 62
9
  6
CONTINUOUS
 10
352.4809016351
 20
260.607702056
 11
352.1718846408
 21
261.5587585723
  0
LINE
  8
0
 62
9
  6
CONTINUOUS
 10
372.3704461032
 20
216.3116748945
 11
372.1796371078
 21
215.330047711
  0
LINE
  8
0
 62
9
  6
CONTINUOUS
 10
374.3307184725
 20
215.9306365453
 11
374.1399094772
 21
214.9490093619
  0
LINE
  8
0
 62
9
  6
CONTINUOUS
 10
359.942429303
 20
155.446015886
 11
359.3688528667
 21
154.6268638417
  0
LINE
  8
0
 62
9
  6
CONTINUOUS
 10
361.5782449628
 20
154.3006054299
 11
361.0046685264
 21
153.4814533856
  0
LINE
  8
0
 62
9
  6
CONTINUOUS
 10
323.832577184
 20
104.8973994058
 11
322.9754098833
 21
104.3823613309
  0
LINE
  8
0
 62
9
  6
CONTINUOUS
 10
324.8610887456
 20
103.1856687164
 11
324.0039214449
 21
102.6706306415
  0
LINE
  8
0
 62
9
  6
CONTINUOUS
 10
206.1741521722
 20
363.559053128
 11
207.1703468703
 21
363.4718973853
  0
LINE
  8
0
 62
9
  6
CONTINUOUS
 10
206.3481988951
 20
365.5484162733
 11
207.3443935931
 21
365.4612605306
  0
LINE
  8
0
 62
9
  6
CONTINUOUS
 10
268.0054642297
 20
357.5613121062
 11
268.8800839369
 21
357.0765024859
  0
LINE
  8
0
 62
9
  6
CONTINUOUS
 10
268.9736107104
 20
359.3078945914
 11
269.8482304175
 21
358.8230849711
  0
LINE
  8
0
 62
9
  6
CONTINUOUS
 10
322.0516774507
 20
326.9330427363
 11
322.6534924739
 21
326.1344072262
  0
LINE
  8
0
 62
9
  6
CONTINUOUS
 10
323.6465223673
 20
328.1348445825
 11
324.2483373905
 21
327.3362090724
  0
LINE
  8
0
 62
9
  6
CONTINUOUS
 10
358.9677105748
 20
276.9701510415
 11
359.1926616291
 21
275.9957809767
  0
LINE
  8
0
 62
9
  6
CONTINUOUS
 10
360.9134907526
 20
277.4193697915
 11
361.1384418069
 21
276.4449997267
  0
LINE
  8
0
 62
7
  6
CONTINUOUS
 10
462.7449943439
 20
63.0924027883
 11
492.7449943439
 21
63.0924027883
  0
LINE
  8
0
 62
7
  6
CONTINUOUS
 10
477.7449943439
 20
69.1803246402
 11
462.7449943439
 21
69.1803246402
  0
LINE
  8
0
 62
7
  6
CONTINUOUS
 10
477.7449943439
 20
82.9444840061
 11
492.7449943439
 21
82.9444840061
  0
LINE
  8
0
 62
7
  6
CONTINUOUS
 10
477.7449943439
 20
99.5180642353
 11
462.7449943439
 21
99.5180642353
  0
LINE
  8
0
 62
7
  6
CONTINUOUS
 10
477.7449943439
 20
125.3039631004
 11
492.7449943439
 21
125.3039631004
  0
LINE
  8
0
 62
7
  6
CONTINUOUS
 10
477.7449943439
 20
147.2079390818
 11
462.7449943439
 21
147.2079390818
  0
LINE
  8
0
 62
7
  6
CONTINUOUS
 10
477.7449943439
 20
182.8465013122
 11
492.7449943439
 21
182.8465013122
  0
LINE
  8
0
 62
7
  6
CONTINUOUS
 10
461.2449943439
 20
107.2900799191
 11
461.2449943439
 21
322.9368329007
  0
LINE
  8
0
 62
7
  6
CONTINUOUS
 10
461.7449943439
 20
366.3741045231
 11
461.7449943439
 21
204.9159768515
  0
LINE
  8
0
 62
7
  6
CONTINUOUS
 10
461.7449943439
 20
204.9050509476
 11
461.7449943439
 21
64.092402881
  0
LINE
  8
0
 62
7
  6
CONTINUOUS
 10
477.7449943439
 20
203.9159766923
 11
462.7449943439
 21
203.9159766923
  0
LINE
  8
0
 62
7
  6
CONTINUOUS
 10
477.7449943439
 20
63.0924028177
 11
477.7449943439
 21
146.6709246551
  0
LINE
  8
0
 62
7
  6
CONTINUOUS
 10
477.7449943439
 20
147.2079392933
 11
477.7449943439
 21
199.7882294693
  0
LINE
  8
0
 62
7
  6
CONTINUOUS
 10
477.7449943439
 20
202.2745342077
 11
477.7449943439
 21
255.5554052467
  0
LINE
  8
0
 62
7
  6
CONTINUOUS
 10
477.7449943439
 20
257.9330465374
 11
477.7449943439
 21
367.3741046421
  0
LINE
  8
DEFAULT_1
 62
2
  6
CENTER
 10
455.7449943439
 20
215.1134564099
 11
499.7449943439
 21
215.1134564099
  0
LINE
  8
0
 62
7
  6
CONTINUOUS
 10
493.7449943439
 20
64.092402881
 11
493.7449943439
 21
366.3741045231
  0
LINE
  8
0
 62
7
  6
CONTINUOUS
 10
494.2449943439
 20
322.9368329007
 11
494.2449943439
 21
107.2900799191
  0
LINE
  8
0
 62
7
  6
CONTINUOUS
 10
477.7449943439
 20
255.1966945684
 11
492.7449943439
 21
255.1966945684
  0
LINE
  8
0
 62
7
  6
CONTINUOUS
 10
477.7449943439
 20
277.4706296619
 11
462.7449943439
 21
277.4706296619
  0
LINE
  8
0
 62
7
  6
CONTINUOUS
 10
477.7449943439
 20
308.5618065304
 11
492.7449943439
 21
308.5618065304
  0
LINE
  8
0
 62
7
  6
CONTINUOUS
 10
477.7449943439
 20
328.5375735624
 11
462.7449943439
 21
328.5375735624
  0
LINE
  8
0
 62
7
  6
CONTINUOUS
 10
477.7449943439
 20
348.4921678892
 11
492.7449943439
 21
348.4921678892
  0
LINE
  8
0
 62
7
  6
CONTINUOUS
 10
477.7449943439
 20
360.3382753509
 11
462.7449943439
 21
360.3382753509
  0
LINE
  8
0
 62
7
  6
CONTINUOUS
 10
462.7449943439
 20
367.3741047878
 11
492.7449943439
 21
367.3741047878
  0
ARC
  8
0
 62
9
  6
CONTINUOUS
 10
109.1663875534
 20
112.74068341
 40
16.0000000001
 50
54.0
 51
115.0
  0
ARC
  8
0
 62
7
  6
CONTINUOUS
 10
126.9540164881
 20
115.2680642353
 40
15.75
 50
252.4842593836
 51
324.0
  0
ARC
  8
0
 62
7
  6
CONTINUOUS
 10
113.6452257935
 20
130.048973738
 40
15.75
 50
120.0
 51
191.5157406164
  0
ARC
  8
0
 62
7
  6
CONTINUOUS
 10
109.2723767071
 20
112.6229705294
 40
15.0
 50
329.0
 51
30.0
  0
ARC
  8
0
 62
7
  6
CONTINUOUS
 10
109.1663875534
 20
112.74068341
 40
15.0
 50
54.0
 51
115.0
  0
ARC
  8
0
 62
9
  6
CONTINUOUS
 10
113.6452257935
 20
130.048973738
 40
14.75
 50
120.0
 51
191.5157406164
  0
ARC
  8
0
 62
9
  6
CONTINUOUS
 10
143.6305032504
 20
103.7699213736
 40
2.9999999958
 50
324.0
 51
54.0
  0
ARC
  8
0
 62
7
  6
CONTINUOUS
 10
122.8157092574
 20
102.1555925665
 40
2.0
 50
149.0
 51
252.4842593836
  0
ARC
  8
0
 62
7
  6
CONTINUOUS
 10
146.5047679113
 20
84.9444840061
 40
2.0
 50
215.5157406164
 51
319.0
  0
ARC
  8
0
 62
7
  6
CONTINUOUS
 10
100.1720147212
 20
127.3039631004
 40
2.0
 50
191.5157406164
 51
295.0
  0
ARC
  8
0
 62
7
  6
CONTINUOUS
 10
143.6305032504
 20
103.7699213736
 40
2.0
 50
324.0
 51
54.0
  0
ARC
  8
0
 62
7
  6
CONTINUOUS
 10
141.6079607644
 20
105.2393845043
 40
2.0
 50
54.0
 51
144.0
  0
ARC
  8
0
 62
9
  6
CONTINUOUS
 10
146.5047679113
 20
84.9444840061
 40
0.9999999983
 50
215.5157406164
 51
319.0
  0
ARC
  8
0
 62
9
  6
CONTINUOUS
 10
100.1720147212
 20
127.3039631004
 40
0.9999999983
 50
191.5157406164
 51
295.0
  0
ARC
  8
0
 62
9
  6
CONTINUOUS
 10
77.3674397853
 20
167.8839422903
 40
16.0000000001
 50
30.0
 51
91.0
  0
ARC
  8
0
 62
7
  6
CONTINUOUS
 10
94.6452257935
 20
162.9579390818
 40
15.75
 50
228.4842593836
 51
300.0
  0
ARC
  8
0
 62
7
  6
CONTINUOUS
 10
88.4989780205
 20
181.8741446683
 40
15.75
 50
96.0
 51
167.5157406164
  0
ARC
  8
0
 62
7
  6
CONTINUOUS
 10
77.4163875534
 20
167.7332965503
 40
15.0
 50
305.0
 51
6.0
  0
ARC
  8
0
 62
7
  6
CONTINUOUS
 10
77.3674397853
 20
167.8839422903
 40
15.0
 50
30.0
 51
91.0
  0
ARC
  8
0
 62
9
  6
CONTINUOUS
 10
88.4989780205
 20
181.8741446683
 40
14.75
 50
96.0
 51
167.5157406164
  0
ARC
  8
0
 62
7
  6
CONTINUOUS
 10
136.4859244636
 20
204.8765559808
 40
3.2
 50
183.5903778907
 51
225.0
  0
ARC
  8
0
 62
7
  6
CONTINUOUS
 10
130.0984860045
 20
204.4757693405
 40
3.2
 50
3.5903778907
 51
45.0
  0
ARC
  8
0
 62
7
  6
CONTINUOUS
 10
125.8558453174
 20
208.7184100276
 40
3.2
 50
45.0
 51
87.7455692246
  0
ARC
  8
0
 62
9
  6
CONTINUOUS
 10
105.2032384954
 20
145.6709246551
 40
2.9999999958
 50
300.0
 51
30.0
  0
ARC
  8
0
 62
9
  6
CONTINUOUS
 10
87.1408587452
 20
199.5791725427
 40
2.9999999958
 50
276.0
 51
6.0
  0
ARC
  8
0
 62
7
  6
CONTINUOUS
 10
85.5313713116
 20
152.6623013414
 40
2.0
 50
125.0
 51
228.4842593836
  0
ARC
  8
0
 62
7
  6
CONTINUOUS
 10
105.2032384954
 20
145.6709246551
 40
2.0
 50
300.0
 51
30.0
  0
ARC
  8
0
 62
7
  6
CONTINUOUS
 10
75.0740908336
 20
184.8465013122
 40
2.0
 50
167.5157406164
 51
271.0
  0
ARC
  8
0
 62
7
  6
CONTINUOUS
 10
87.1408587452
 20
199.5791725427
 40
2.0
 50
276.0
 51
6.0
  0
ARC
  8
0
 62
7
  6
CONTINUOUS
 10
86.879537587
 20
202.0654772811
 40
2.0
 50
6.0
 51
96.0
  0
ARC
  8
0
 62
7
  6
CONTINUOUS
 10
103.9532384954
 20
147.8359881646
 40
2.0
 50
30.0
 51
120.0
  0
ARC
  8
0
 62
9
  6
CONTINUOUS
 10
75.0740908336
 20
184.8465013122
 40
0.9999999983
 50
167.5157406164
 51
271.0
  0
ARC
  8
0
 62
9
  6
CONTINUOUS
 10
222.9020325484
 20
62.0317882472
 40
16.0000000001
 50
102.0
 51
163.0
  0
ARC
  8
0
 62
9
  6
CONTINUOUS
 10
160.6449558499
 20
75.2986070089
 40
16.0000000001
 50
78.0
 51
139.0
  0
ARC
  8
0
 62
7
  6
CONTINUOUS
 10
175.8667850729
 20
84.8423647627
 40
15.75
 50
276.4842593836
 51
348.0
  0
ARC
  8
0
 62
7
  6
CONTINUOUS
 10
213.0363939008
 20
76.9417205116
 40
15.75
 50
168.0
 51
239.5157406164
  0
ARC
  8
0
 62
7
  6
CONTINUOUS
 10
157.6966622744
 20
92.9322246482
 40
15.75
 50
144.0
 51
215.5157406164
  0
ARC
  8
0
 62
7
  6
CONTINUOUS
 10
160.7896599018
 20
75.2341806141
 40
15.0
 50
353.0
 51
54.0
  0
ARC
  8
0
 62
7
  6
CONTINUOUS
 10
222.9020325484
 20
62.0317882472
 40
15.0
 50
102.0
 51
163.0
  0
ARC
  8
0
 62
7
  6
CONTINUOUS
 10
160.6449558499
 20
75.2986070089
 40
15.0
 50
78.0
 51
139.0
  0
ARC
  8
0
 62
9
  6
CONTINUOUS
 10
213.0363939008
 20
76.9417205116
 40
14.75
 50
168.0
 51
239.5157406164
  0
ARC
  8
0
 62
9
  6
CONTINUOUS
 10
157.6966622744
 20
92.9322246482
 40
14.75
 50
144.0
 51
215.5157406164
  0
ARC
  8
0
 62
7
  6
CONTINUOUS
 10
216.5861853186
 20
117.9880700264
 40
3.2
 50
2.2544307753
 51
45.0
  0
ARC
  8
0
 62
7
  6
CONTINUOUS
 10
212.3435446314
 20
122.2307107135
 40
3.2
 50
45.0
 51
86.4096221093
  0
ARC
  8
0
 62
7
  6
CONTINUOUS
 10
212.7443312717
 20
128.6181491727
 40
3.2
 50
225.0
 51
266.4096221093
  0
ARC
  8
0
 62
9
  6
CONTINUOUS
 10
195.7782298331
 20
81.121226824
 40
2.9999999958
 50
348.0
 51
78.0
  0
ARC
  8
0
 62
7
  6
CONTINUOUS
 10
177.4195760089
 20
71.1803246402
 40
2.0
 50
173.0
 51
276.4842593836
  0
ARC
  8
0
 62
7
  6
CONTINUOUS
 10
206.0609964575
 20
65.0924027883
 40
2.0
 50
239.5157406164
 51
343.0
  0
ARC
  8
0
 62
7
  6
CONTINUOUS
 10
195.7782298331
 20
81.121226824
 40
2.0
 50
348.0
 51
78.0
  0
ARC
  8
0
 62
7
  6
CONTINUOUS
 10
193.3328608313
 20
81.6410060511
 40
2.0
 50
78.0
 51
168.0
  0
ARC
  8
0
 62
9
  6
CONTINUOUS
 10
206.0609964575
 20
65.0924027883
 40
0.9999999983
 50
239.5157406164
 51
343.0
  0
ARC
  8
0
 62
9
  6
CONTINUOUS
 10
70.7464394992
 20
231.1936132285
 40
16.0000000001
 50
6.0
 51
67.0
  0
ARC
  8
0
 62
7
  6
CONTINUOUS
 10
98.3485794279
 20
275.5868421876
 40
15.75
 50
180.4842593836
 51
252.0
  0
ARC
  8
0
 62
7
  6
CONTINUOUS
 10
84.5268964163
 20
219.6659766923
 40
15.75
 50
204.4842593836
 51
276.0
  0
ARC
  8
0
 62
7
  6
CONTINUOUS
 10
86.6059336417
 20
239.4466945684
 40
15.75
 50
72.0
 51
143.5157406164
  0
ARC
  8
0
 62
7
  6
CONTINUOUS
 10
70.7298823678
 20
231.0360826462
 40
15.0
 50
281.0
 51
342.0
  0
ARC
  8
0
 62
7
  6
CONTINUOUS
 10
70.7464394992
 20
231.1936132285
 40
15.0
 50
6.0
 51
67.0
  0
ARC
  8
0
 62
9
  6
CONTINUOUS
 10
86.6059336417
 20
239.4466945684
 40
14.75
 50
72.0
 51
143.5157406164
  0
ARC
  8
0
 62
9
  6
CONTINUOUS
 10
121.15785521
 20
215.1134564099
 40
9.9999999993
 50
135.0
 51
225.0
  0
ARC
  8
0
 62
7
  6
CONTINUOUS
 10
121.15785521
 20
215.1134564099
 40
8.0
 50
135.0
 51
225.0
  0
ARC
  8
0
 62
9
  6
CONTINUOUS
 10
121.15785521
 20
215.1134564099
 40
5.9999999996
 50
135.0
 51
225.0
  0
ARC
  8
0
 62
7
  6
CONTINUOUS
 10
126.1076026783
 20
215.1134564099
 40
3.2
 50
92.2544307753
 51
267.7455692246
  0
ARC
  8
0
 62
7
  6
CONTINUOUS
 10
125.8558453174
 20
221.5085027921
 40
3.2
 50
272.2544307754
 51
315.0
  0
ARC
  8
0
 62
7
  6
CONTINUOUS
 10
130.0984860045
 20
225.7511434793
 40
3.2
 50
315.0
 51
356.4096221093
  0
ARC
  8
0
 62
7
  6
CONTINUOUS
 10
136.4859244636
 20
225.350356839
 40
3.2
 50
135.0
 51
176.4096221093
  0
ARC
  8
0
 62
9
  6
CONTINUOUS
 10
92.56651355
 20
256.1734392355
 40
2.9999999958
 50
252.0
 51
342.0
  0
ARC
  8
0
 62
7
  6
CONTINUOUS
 10
84.5990705404
 20
275.4706296619
 40
2.0
 50
77.0
 51
180.4842593836
  0
ARC
  8
0
 62
7
  6
CONTINUOUS
 10
72.0133629199
 20
213.9673821784
 40
2.0
 50
101.0
 51
204.4842593836
  0
ARC
  8
0
 62
7
  6
CONTINUOUS
 10
93.3390560359
 20
258.5510805262
 40
2.0
 50
342.0
 51
72.0
  0
ARC
  8
0
 62
7
  6
CONTINUOUS
 10
75.5506552961
 20
247.622471027
 40
2.0
 50
143.5157406164
 51
247.0
  0
ARC
  8
0
 62
7
  6
CONTINUOUS
 10
92.56651355
 20
256.1734392355
 40
2.0
 50
252.0
 51
342.0
  0
ARC
  8
0
 62
9
  6
CONTINUOUS
 10
75.5506552961
 20
247.622471027
 40
0.9999999983
 50
143.5157406164
 51
247.0
  0
ARC
  8
0
 62
9
  6
CONTINUOUS
 10
90.4482177944
 20
291.7228789692
 40
16.0000000001
 50
342.0
 51
43.0
  0
ARC
  8
0
 62
9
  6
CONTINUOUS
 10
133.0661582187
 20
339.0056795746
 40
16.0000000001
 50
318.0
 51
19.0
  0
ARC
  8
0
 62
7
  6
CONTINUOUS
 10
133.7203802696
 20
321.0513098985
 40
15.75
 50
156.4842593836
 51
228.0
  0
ARC
  8
0
 62
7
  6
CONTINUOUS
 10
108.293417228
 20
292.8118065304
 40
15.75
 50
48.0
 51
119.5157406164
  0
ARC
  8
0
 62
7
  6
CONTINUOUS
 10
132.9380112982
 20
338.912575387
 40
15.0
 50
233.0
 51
294.0
  0
ARC
  8
0
 62
7
  6
CONTINUOUS
 10
90.369018642
 20
291.5857020133
 40
15.0
 50
257.0
 51
318.0
  0
ARC
  8
0
 62
7
  6
CONTINUOUS
 10
133.0661582187
 20
339.0056795746
 40
15.0
 50
318.0
 51
19.0
  0
ARC
  8
0
 62
7
  6
CONTINUOUS
 10
90.4482177944
 20
291.7228789692
 40
15.0
 50
342.0
 51
43.0
  0
ARC
  8
0
 62
9
  6
CONTINUOUS
 10
108.293417228
 20
292.8118065304
 40
14.75
 50
48.0
 51
119.5157406164
  0
ARC
  8
0
 62
9
  6
CONTINUOUS
 10
120.5420579036
 20
305.6680618794
 40
2.9999999958
 50
228.0
 51
318.0
  0
ARC
  8
0
 62
7
  6
CONTINUOUS
 10
121.112310988
 20
326.5375735624
 40
2.0
 50
53.0
 51
156.4842593836
  0
ARC
  8
0
 62
7
  6
CONTINUOUS
 10
122.2148844195
 20
307.5259239431
 40
2.0
 50
318.0
 51
48.0
  0
ARC
  8
0
 62
7
  6
CONTINUOUS
 10
101.5193057837
 20
304.7773367794
 40
2.0
 50
119.5157406164
 51
223.0
  0
ARC
  8
0
 62
7
  6
CONTINUOUS
 10
120.5420579036
 20
305.6680618794
 40
2.0
 50
228.0
 51
318.0
  0
ARC
  8
0
 62
9
  6
CONTINUOUS
 10
101.5193057837
 20
304.7773367794
 40
0.9999999983
 50
119.5157406164
 51
223.0
  0
ARC
  8
0
 62
7
  6
CONTINUOUS
 10
149.8114658428
 20
332.7421678892
 40
15.75
 50
24.0
 51
95.5157406164
  0
ARC
  8
0
 62
9
  6
CONTINUOUS
 10
149.8114658428
 20
332.7421678892
 40
14.75
 50
24.0
 51
95.5157406164
  0
ARC
  8
0
 62
7
  6
CONTINUOUS
 10
184.5261932332
 20
348.198160326
 40
15.75
 50
132.4842593836
 51
204.0
  0
ARC
  8
0
 62
9
  6
CONTINUOUS
 10
166.2302660374
 20
339.5049705749
 40
2.9999999958
 50
204.0
 51
294.0
  0
ARC
  8
0
 62
7
  6
CONTINUOUS
 10
175.239613277
 20
358.3382753509
 40
2.0
 50
29.0
 51
132.4842593836
  0
ARC
  8
0
 62
7
  6
CONTINUOUS
 10
148.4898267094
 20
346.4285030451
 40
2.0
 50
95.5157406164
 51
199.0
  0
ARC
  8
0
 62
7
  6
CONTINUOUS
 10
168.5141296816
 20
340.5218121826
 40
2.0
 50
294.0
 51
24.0
  0
ARC
  8
0
 62
7
  6
CONTINUOUS
 10
166.2302660374
 20
339.5049705749
 40
2.0
 50
204.0
 51
294.0
  0
ARC
  8
0
 62
9
  6
CONTINUOUS
 10
148.4898267094
 20
346.4285030451
 40
0.9999999983
 50
95.5157406164
 51
199.0
  0
ARC
  8
0
 62
7
  6
CONTINUOUS
 10
212.7443312717
 20
301.6087636471
 40
3.2
 50
93.5903778907
 51
135.0
  0
ARC
  8
0
 62
7
  6
CONTINUOUS
 10
212.3435446314
 20
307.9962021062
 40
3.2
 50
273.5903778907
 51
315.0
  0
ARC
  8
0
 62
7
  6
CONTINUOUS
 10
216.5861853186
 20
312.2388427933
 40
3.2
 50
315.0
 51
357.7455692247
  0
ARC
  8
0
 62
9
  6
CONTINUOUS
 10
191.2312317008
 20
364.8663892693
 40
16.0000000001
 50
294.0
 51
355.0
  0
ARC
  8
0
 62
7
  6
CONTINUOUS
 10
203.9812317008
 20
352.3334564099
 40
15.75
 50
0.0
 51
71.5157406164
  0
ARC
  8
0
 62
7
  6
CONTINUOUS
 10
191.2312317008
 20
364.8663892693
 40
15.0
 50
294.0
 51
355.0
  0
ARC
  8
0
 62
7
  6
CONTINUOUS
 10
191.076294779
 20
364.8334564099
 40
15.0
 50
209.0
 51
270.0
  0
ARC
  8
0
 62
9
  6
CONTINUOUS
 10
203.9812317008
 20
352.3334564099
 40
14.75
 50
0.0
 51
71.5157406164
  0
ARC
  8
0
 62
9
  6
CONTINUOUS
 10
221.7312317008
 20
351.8334564099
 40
2.9999999958
 50
180.0
 51
270.0
  0
ARC
  8
0
 62
7
  6
CONTINUOUS
 10
221.7312317008
 20
351.8334564099
 40
2.0
 50
180.0
 51
270.0
  0
ARC
  8
0
 62
7
  6
CONTINUOUS
 10
208.3405882912
 20
365.3741047878
 40
2.0
 50
71.5157406164
 51
175.0
  0
ARC
  8
0
 62
9
  6
CONTINUOUS
 10
208.3405882912
 20
365.3741047878
 40
0.9999999983
 50
71.5157406164
 51
175.0
  0
ARC
  8
0
 62
9
  6
CONTINUOUS
 10
285.1728034998
 20
75.2341806141
 40
16.0000000001
 50
126.0
 51
187.0
  0
ARC
  8
0
 62
7
  6
CONTINUOUS
 10
232.9260695009
 20
76.9417205116
 40
15.75
 50
300.4842593836
 51
12.0
  0
ARC
  8
0
 62
7
  6
CONTINUOUS
 10
288.2658011273
 20
92.9322246482
 40
15.75
 50
324.4842593836
 51
36.0
  0
ARC
  8
0
 62
7
  6
CONTINUOUS
 10
270.0956783288
 20
84.8423647627
 40
15.75
 50
192.0
 51
263.5157406164
  0
ARC
  8
0
 62
7
  6
CONTINUOUS
 10
223.0604308532
 20
62.0317882472
 40
15.0
 50
17.0
 51
78.0
  0
ARC
  8
0
 62
7
  6
CONTINUOUS
 10
285.3175075517
 20
75.2986070089
 40
15.0
 50
41.0
 51
102.0
  0
ARC
  8
0
 62
7
  6
CONTINUOUS
 10
285.1728034998
 20
75.2341806141
 40
15.0
 50
126.0
 51
187.0
  0
ARC
  8
0
 62
9
  6
CONTINUOUS
 10
270.0956783288
 20
84.8423647627
 40
14.75
 50
192.0
 51
263.5157406164
  0
ARC
  8
0
 62
9
  6
CONTINUOUS
 10
222.9812317008
 20
113.290079919
 40
9.9999999993
 50
225.0
 51
315.0
  0
ARC
  8
0
 62
7
  6
CONTINUOUS
 10
222.9812317008
 20
113.290079919
 40
8.0
 50
225.0
 51
315.0
  0
ARC
  8
0
 62
9
  6
CONTINUOUS
 10
222.9812317008
 20
113.290079919
 40
5.9999999996
 50
225.0
 51
315.0
  0
ARC
  8
0
 62
7
  6
CONTINUOUS
 10
233.2181321299
 20
128.6181491727
 40
3.2
 50
273.5903778907
 51
315.0
  0
ARC
  8
0
 62
7
  6
CONTINUOUS
 10
233.6189187702
 20
122.2307107135
 40
3.2
 50
93.5903778907
 51
135.0
  0
ARC
  8
0
 62
7
  6
CONTINUOUS
 10
229.3762780831
 20
117.9880700264
 40
3.2
 50
135.0
 51
177.7455692246
  0
ARC
  8
0
 62
7
  6
CONTINUOUS
 10
222.9812317008
 20
118.2398273873
 40
3.2
 50
182.2544307754
 51
357.7455692247
  0
ARC
  8
0
 62
9
  6
CONTINUOUS
 10
252.6296025703
 20
81.6410060511
 40
2.9999999958
 50
12.0
 51
102.0
  0
ARC
  8
0
 62
7
  6
CONTINUOUS
 10
239.9014669442
 20
65.0924027883
 40
2.0
 50
197.0
 51
300.4842593836
  0
ARC
  8
0
 62
7
  6
CONTINUOUS
 10
268.5428873928
 20
71.1803246402
 40
2.0
 50
263.5157406164
 51
7.0
  0
ARC
  8
0
 62
7
  6
CONTINUOUS
 10
252.6296025703
 20
81.6410060511
 40
2.0
 50
12.0
 51
102.0
  0
ARC
  8
0
 62
7
  6
CONTINUOUS
 10
250.1842335685
 20
81.121226824
 40
2.0
 50
102.0
 51
192.0
  0
ARC
  8
0
 62
9
  6
CONTINUOUS
 10
268.5428873928
 20
71.1803246402
 40
0.9999999983
 50
263.5157406164
 51
7.0
  0
ARC
  8
0
 62
9
  6
CONTINUOUS
 10
336.6900866945
 20
112.6229705294
 40
16.0000000001
 50
150.0
 51
211.0
  0
ARC
  8
0
 62
7
  6
CONTINUOUS
 10
332.3172376081
 20
130.048973738
 40
15.75
 50
348.4842593836
 51
60.0
  0
ARC
  8
0
 62
7
  6
CONTINUOUS
 10
319.0084469135
 20
115.2680642353
 40
15.75
 50
216.0
 51
287.5157406164
  0
ARC
  8
0
 62
7
  6
CONTINUOUS
 10
336.6900866945
 20
112.6229705294
 40
15.0
 50
150.0
 51
211.0
  0
ARC
  8
0
 62
7
  6
CONTINUOUS
 10
336.7960758483
 20
112.74068341
 40
15.0
 50
65.0
 51
126.0
  0
ARC
  8
0
 62
9
  6
CONTINUOUS
 10
319.0084469135
 20
115.2680642353
 40
14.75
 50
216.0
 51
287.5157406164
  0
ARC
  8
0
 62
9
  6
CONTINUOUS
 10
304.3545026372
 20
105.2393845043
 40
2.9999999958
 50
36.0
 51
126.0
  0
ARC
  8
0
 62
7
  6
CONTINUOUS
 10
299.4576954904
 20
84.9444840061
 40
2.0
 50
221.0
 51
324.4842593836
  0
ARC
  8
0
 62
7
  6
CONTINUOUS
 10
345.7904486805
 20
127.3039631004
 40
2.0
 50
245.0
 51
348.4842593836
  0
ARC
  8
0
 62
7
  6
CONTINUOUS
 10
323.1467541442
 20
102.1555925665
 40
2.0
 50
287.5157406164
 51
31.0
  0
ARC
  8
0
 62
7
  6
CONTINUOUS
 10
304.3545026372
 20
105.2393845043
 40
2.0
 50
36.0
 51
126.0
  0
ARC
  8
0
 62
7
  6
CONTINUOUS
 10
302.3319601513
 20
103.7699213736
 40
2.0
 50
126.0
 51
216.0
  0
ARC
  8
0
 62
9
  6
CONTINUOUS
 10
323.1467541442
 20
102.1555925665
 40
0.9999999983
 50
287.5157406164
 51
31.0
  0
ARC
  8
0
 62
9
  6
CONTINUOUS
 10
368.5460758483
 20
167.7332965503
 40
16.0000000001
 50
174.0
 51
235.0
  0
ARC
  8
0
 62
7
  6
CONTINUOUS
 10
357.4634853812
 20
181.8741446683
 40
15.75
 50
12.4842593836
 51
84.0
  0
ARC
  8
0
 62
7
  6
CONTINUOUS
 10
351.3172376081
 20
162.9579390818
 40
15.75
 50
240.0
 51
311.5157406164
  0
ARC
  8
0
 62
7
  6
CONTINUOUS
 10
368.5460758483
 20
167.7332965503
 40
15.0
 50
174.0
 51
235.0
  0
ARC
  8
0
 62
7
  6
CONTINUOUS
 10
368.5950236163
 20
167.8839422903
 40
15.0
 50
89.0
 51
150.0
  0
ARC
  8
0
 62
9
  6
CONTINUOUS
 10
351.3172376081
 20
162.9579390818
 40
14.75
 50
240.0
 51
311.5157406164
  0
ARC
  8
0
 62
7
  6
CONTINUOUS
 10
320.1066180843
 20
208.7184100276
 40
3.2
 50
92.2544307754
 51
135.0
  0
ARC
  8
0
 62
7
  6
CONTINUOUS
 10
315.8639773972
 20
204.4757693405
 40
3.2
 50
135.0
 51
176.4096221093
  0
ARC
  8
0
 62
7
  6
CONTINUOUS
 10
309.476538938
 20
204.8765559808
 40
3.2
 50
315.0
 51
356.4096221093
  0
ARC
  8
0
 62
9
  6
CONTINUOUS
 10
359.0829258147
 20
202.0654772811
 40
2.9999999958
 50
84.0
 51
174.0
  0
ARC
  8
0
 62
9
  6
CONTINUOUS
 10
342.0092249062
 20
147.8359881646
 40
2.9999999958
 50
60.0
 51
150.0
  0
ARC
  8
0
 62
7
  6
CONTINUOUS
 10
370.8883725681
 20
184.8465013122
 40
2.0
 50
269.0
 51
12.4842593836
  0
ARC
  8
0
 62
7
  6
CONTINUOUS
 10
360.4310920901
 20
152.6623013414
 40
2.0
 50
311.5157406164
 51
55.0
  0
ARC
  8
0
 62
7
  6
CONTINUOUS
 10
359.0829258147
 20
202.0654772811
 40
2.0
 50
84.0
 51
174.0
  0
ARC
  8
0
 62
7
  6
CONTINUOUS
 10
342.0092249062
 20
147.8359881646
 40
2.0
 50
60.0
 51
150.0
  0
ARC
  8
0
 62
7
  6
CONTINUOUS
 10
340.7592249062
 20
145.6709246551
 40
2.0
 50
150.0
 51
240.0
  0
ARC
  8
0
 62
7
  6
CONTINUOUS
 10
358.8216046565
 20
199.5791725427
 40
2.0
 50
174.0
 51
264.0
  0
ARC
  8
0
 62
9
  6
CONTINUOUS
 10
360.4310920901
 20
152.6623013414
 40
0.9999999983
 50
311.5157406164
 51
55.0
  0
CIRCLE
  8
0
 62
9
  6
CONTINUOUS
 10
222.9812317008
 20
215.1134564099
 40
130.0
  0
CIRCLE
  8
0
 62
9
  6
CONTINUOUS
 10
222.9812317008
 20
215.1134564099
 40
125.6698729811
  0
CIRCLE
  8
0
 62
9
  6
CONTINUOUS
 10
222.9812317008
 20
215.1134564099
 40
122.2057713659
  0
CIRCLE
  8
0
 62
9
  6
CONTINUOUS
 10
222.9812317008
 20
215.1134564099
 40
117.875644347
  0
ARC
  8
0
 62
9
  6
CONTINUOUS
 10
254.8861686227
 20
364.8334564099
 40
16.0000000001
 50
270.0
 51
331.0
  0
ARC
  8
0
 62
7
  6
CONTINUOUS
 10
241.9812317008
 20
352.3334564099
 40
15.75
 50
108.4842593836
 51
180.0
  0
ARC
  8
0
 62
7
  6
CONTINUOUS
 10
296.1509975589
 20
332.7421678892
 40
15.75
 50
84.4842593836
 51
156.0
  0
ARC
  8
0
 62
7
  6
CONTINUOUS
 10
261.4362701685
 20
348.198160326
 40
15.75
 50
336.0
 51
47.5157406164
  0
ARC
  8
0
 62
7
  6
CONTINUOUS
 10
254.8861686227
 20
364.8334564099
 40
15.0
 50
270.0
 51
331.0
  0
ARC
  8
0
 62
7
  6
CONTINUOUS
 10
254.7312317008
 20
364.8663892693
 40
15.0
 50
185.0
 51
246.0
  0
ARC
  8
0
 62
9
  6
CONTINUOUS
 10
261.4362701685
 20
348.198160326
 40
14.75
 50
336.0
 51
47.5157406164
  0
ARC
  8
0
 62
9
  6
CONTINUOUS
 10
222.9812317008
 20
316.9368329007
 40
9.9999999993
 50
45.0
 51
135.0
  0
ARC
  8
0
 62
7
  6
CONTINUOUS
 10
222.9812317008
 20
316.9368329007
 40
8.0
 50
45.0
 51
135.0
  0
ARC
  8
0
 62
9
  6
CONTINUOUS
 10
222.9812317008
 20
316.9368329007
 40
5.9999999996
 50
45.0
 51
135.0
  0
ARC
  8
0
 62
7
  6
CONTINUOUS
 10
222.9812317008
 20
311.9870854324
 40
3.2
 50
2.2544307753
 51
177.7455692246
  0
ARC
  8
0
 62
7
  6
CONTINUOUS
 10
229.3762780831
 20
312.2388427933
 40
3.2
 50
182.2544307754
 51
225.0
  0
ARC
  8
0
 62
7
  6
CONTINUOUS
 10
233.6189187702
 20
307.9962021062
 40
3.2
 50
225.0
 51
266.4096221093
  0
ARC
  8
0
 62
7
  6
CONTINUOUS
 10
233.2181321299
 20
301.6087636471
 40
3.2
 50
45.0
 51
86.4096221093
  0
ARC
  8
0
 62
9
  6
CONTINUOUS
 10
277.4483337201
 20
340.5218121826
 40
2.9999999958
 50
156.0
 51
246.0
  0
ARC
  8
0
 62
7
  6
CONTINUOUS
 10
237.6218751104
 20
365.3741047878
 40
2.0
 50
5.0
 51
108.4842593836
  0
ARC
  8
0
 62
7
  6
CONTINUOUS
 10
297.4726366923
 20
346.4285030451
 40
2.0
 50
341.0
 51
84.4842593836
  0
ARC
  8
0
 62
7
  6
CONTINUOUS
 10
270.7228501247
 20
358.3382753509
 40
2.0
 50
47.5157406164
 51
151.0
  0
ARC
  8
0
 62
7
  6
CONTINUOUS
 10
224.2312317008
 20
351.8334564099
 40
2.0
 50
270.0
 51
360.0
  0
ARC
  8
0
 62
7
  6
CONTINUOUS
 10
277.4483337201
 20
340.5218121826
 40
2.0
 50
156.0
 51
246.0
  0
ARC
  8
0
 62
7
  6
CONTINUOUS
 10
279.7321973642
 20
339.5049705749
 40
2.0
 50
246.0
 51
336.0
  0
CIRCLE
  8
0
 62
7
  6
CONTINUOUS
 10
222.9812317008
 20
330.1134564099
 40
1.7320508076
  0
ARC
  8
0
 62
9
  6
CONTINUOUS
 10
270.7228501247
 20
358.3382753509
 40
0.9999999983
 50
47.5157406164
 51
151.0
  0
ARC
  8
0
 62
9
  6
CONTINUOUS
 10
324.8046081917
 20
215.1134564099
 40
9.9999999993
 50
315.0
 51
45.0
  0
ARC
  8
0
 62
7
  6
CONTINUOUS
 10
324.8046081917
 20
215.1134564099
 40
8.0
 50
315.0
 51
45.0
  0
ARC
  8
0
 62
9
  6
CONTINUOUS
 10
324.8046081917
 20
215.1134564099
 40
5.9999999996
 50
315.0
 51
45.0
  0
ARC
  8
0
 62
7
  6
CONTINUOUS
 10
320.1066180843
 20
221.5085027921
 40
3.2
 50
225.0
 51
267.7455692246
  0
ARC
  8
0
 62
7
  6
CONTINUOUS
 10
319.8548607234
 20
215.1134564099
 40
3.2
 50
272.2544307753
 51
87.7455692247
  0
ARC
  8
0
 62
7
  6
CONTINUOUS
 10
309.476538938
 20
225.350356839
 40
3.2
 50
3.5903778907
 51
45.0
  0
ARC
  8
0
 62
7
  6
CONTINUOUS
 10
315.8639773972
 20
225.7511434793
 40
3.2
 50
183.5903778907
 51
225.0
  0
ARC
  8
0
 62
9
  6
CONTINUOUS
 10
375.2325810338
 20
231.0360826462
 40
16.0000000001
 50
198.0
 51
259.0
  0
ARC
  8
0
 62
7
  6
CONTINUOUS
 10
359.35652976
 20
239.4466945684
 40
15.75
 50
36.4842593836
 51
108.0
  0
ARC
  8
0
 62
7
  6
CONTINUOUS
 10
361.4355669853
 20
219.6659766923
 40
15.75
 50
264.0
 51
335.5157406164
  0
ARC
  8
0
 62
7
  6
CONTINUOUS
 10
375.2325810338
 20
231.0360826462
 40
15.0
 50
198.0
 51
259.0
  0
ARC
  8
0
 62
7
  6
CONTINUOUS
 10
375.2160239025
 20
231.1936132285
 40
15.0
 50
113.0
 51
174.0
  0
ARC
  8
0
 62
9
  6
CONTINUOUS
 10
361.4355669853
 20
219.6659766923
 40
14.75
 50
264.0
 51
335.5157406164
  0
ARC
  8
0
 62
7
  6
CONTINUOUS
 10
373.9491004818
 20
213.9673821784
 40
2.0
 50
335.5157406164
 51
79.0
  0
ARC
  8
0
 62
9
  6
CONTINUOUS
 10
373.9491004818
 20
213.9673821784
 40
0.9999999983
 50
335.5157406164
 51
79.0
  0
ARC
  8
0
 62
7
  6
CONTINUOUS
 10
347.6138839737
 20
275.5868421876
 40
15.75
 50
288.0
 51
359.5157406164
  0
ARC
  8
0
 62
9
  6
CONTINUOUS
 10
347.6138839737
 20
275.5868421876
 40
14.75
 50
288.0
 51
359.5157406164
  0
ARC
  8
0
 62
9
  6
CONTINUOUS
 10
352.6234073657
 20
258.5510805262
 40
2.9999999958
 50
108.0
 51
198.0
  0
ARC
  8
0
 62
7
  6
CONTINUOUS
 10
361.3633928613
 20
275.4706296619
 40
2.0
 50
359.5157406164
 51
103.0
  0
ARC
  8
0
 62
7
  6
CONTINUOUS
 10
370.4118081056
 20
247.622471027
 40
2.0
 50
293.0
 51
36.4842593836
  0
ARC
  8
0
 62
7
  6
CONTINUOUS
 10
352.6234073657
 20
258.5510805262
 40
2.0
 50
108.0
 51
198.0
  0
ARC
  8
0
 62
7
  6
CONTINUOUS
 10
353.3959498517
 20
256.1734392355
 40
2.0
 50
198.0
 51
288.0
  0
ARC
  8
0
 62
9
  6
CONTINUOUS
 10
361.3633928613
 20
275.4706296619
 40
0.9999999983
 50
359.5157406163
 51
103.0
  0
ARC
  8
0
 62
9
  6
CONTINUOUS
 10
313.0244521034
 20
338.912575387
 40
16.0000000001
 50
246.0
 51
307.0
  0
ARC
  8
0
 62
9
  6
CONTINUOUS
 10
355.5934447596
 20
291.5857020133
 40
16.0000000001
 50
222.0
 51
283.0
  0
ARC
  8
0
 62
7
  6
CONTINUOUS
 10
337.6690461737
 20
292.8118065304
 40
15.75
 50
60.4842593836
 51
132.0
  0
ARC
  8
0
 62
7
  6
CONTINUOUS
 10
312.242083132
 20
321.0513098985
 40
15.75
 50
312.0
 51
23.5157406164
  0
ARC
  8
0
 62
7
  6
CONTINUOUS
 10
313.0244521034
 20
338.912575387
 40
15.0
 50
246.0
 51
307.0
  0
ARC
  8
0
 62
7
  6
CONTINUOUS
 10
355.5934447596
 20
291.5857020133
 40
15.0
 50
222.0
 51
283.0
  0
ARC
  8
0
 62
7
  6
CONTINUOUS
 10
355.5142456072
 20
291.7228789692
 40
15.0
 50
137.0
 51
198.0
  0
ARC
  8
0
 62
7
  6
CONTINUOUS
 10
312.896305183
 20
339.0056795746
 40
15.0
 50
161.0
 51
222.0
  0
ARC
  8
0
 62
9
  6
CONTINUOUS
 10
312.242083132
 20
321.0513098985
 40
14.75
 50
312.0
 51
23.5157406164
  0
ARC
  8
0
 62
9
  6
CONTINUOUS
 10
323.7475789821
 20
307.5259239431
 40
2.9999999958
 50
132.0
 51
222.0
  0
ARC
  8
0
 62
7
  6
CONTINUOUS
 10
344.4431576179
 20
304.7773367794
 40
2.0
 50
317.0
 51
60.4842593836
  0
ARC
  8
0
 62
7
  6
CONTINUOUS
 10
324.8501524136
 20
326.5375735624
 40
2.0
 50
23.5157406164
 51
127.0
  0
ARC
  8
0
 62
7
  6
CONTINUOUS
 10
323.7475789821
 20
307.5259239431
 40
2.0
 50
132.0
 51
222.0
  0
ARC
  8
0
 62
7
  6
CONTINUOUS
 10
325.420405498
 20
305.6680618794
 40
2.0
 50
222.0
 51
312.0
  0
ARC
  8
0
 62
9
  6
CONTINUOUS
 10
324.8501524136
 20
326.5375735624
 40
0.9999999983
 50
23.5157406164
 51
127.0
  0
ARC
  8
0
 62
7
  6
CONTINUOUS
 10
492.2449943439
 20
322.9368329007
 40
2.0
 50
0.0
 51
41.4000195827
  0
ARC
  8
0
 62
7
  6
CONTINUOUS
 10
492.2449943439
 20
107.290079919
 40
2.0
 50
318.5999804173
 51
360.0
  0
ARC
  8
0
 62
7
  6
CONTINUOUS
 10
463.2449943439
 20
107.290079919
 40
2.0
 50
179.9999999978
 51
221.4000195827
  0
ARC
  8
0
 62
7
  6
CONTINUOUS
 10
463.2449943439
 20
322.9368329007
 40
2.0
 50
138.5999804173
 51
180.0000000022
  0
ARC
  8
0
 62
7
  6
CONTINUOUS
 10
462.7449943439
 20
276.4706296619
 40
1.0
 50
90.0
 51
180.0000002186
  0
ARC
  8
0
 62
7
  6
CONTINUOUS
 10
462.7449943439
 20
204.9159766923
 40
1.0
 50
179.9999999955
 51
270.0
  0
ARC
  8
0
 62
7
  6
CONTINUOUS
 10
462.7449943439
 20
148.2079390818
 40
1.0
 50
179.9999999981
 51
270.0
  0
ARC
  8
0
 62
7
  6
CONTINUOUS
 10
462.7449943439
 20
100.5180642353
 40
1.0
 50
179.9999999901
 51
270.0
  0
ARC
  8
0
 62
7
  6
CONTINUOUS
 10
462.7449943439
 20
70.1803246402
 40
1.0
 50
179.9999994299
 51
270.0
  0
ARC
  8
0
 62
7
  6
CONTINUOUS
 10
462.7449943439
 20
64.0924027883
 40
1.0
 50
179.9999999038
 51
270.0
  0
ARC
  8
0
 62
7
  6
CONTINUOUS
 10
492.7449943439
 20
64.0924027883
 40
1.0
 50
270.0
 51
0.0000000962
  0
ARC
  8
0
 62
7
  6
CONTINUOUS
 10
492.7449943439
 20
83.9444840061
 40
1.0
 50
270.0
 51
360.0
  0
ARC
  8
0
 62
7
  6
CONTINUOUS
 10
492.7449943439
 20
126.3039631004
 40
1.0
 50
270.0
 51
0.0000001037
  0
ARC
  8
0
 62
7
  6
CONTINUOUS
 10
492.7449943439
 20
183.8465013122
 40
1.0
 50
270.0
 51
359.9999998701
  0
ARC
  8
0
 62
7
  6
CONTINUOUS
 10
492.7449943439
 20
254.1966945684
 40
1.0
 50
0.0
 51
90.0
  0
ARC
  8
0
 62
7
  6
CONTINUOUS
 10
492.7449943439
 20
307.5618065304
 40
1.0
 50
0.0
 51
90.0
  0
ARC
  8
0
 62
7
  6
CONTINUOUS
 10
462.7449943439
 20
366.3741047878
 40
1.0
 50
90.0
 51
180.000000199
  0
ARC
  8
0
 62
7
  6
CONTINUOUS
 10
462.7449943439
 20
359.3382753509
 40
1.0
 50
90.0
 51
180.0000000249
  0
ARC
  8
0
 62
7
  6
CONTINUOUS
 10
462.7449943439
 20
327.5375735624
 40
1.0
 50
90.0
 51
180.0000000292
  0
ARC
  8
0
 62
7
  6
CONTINUOUS
 10
492.7449943439
 20
347.4921678892
 40
1.0
 50
0.0
 51
90.0
  0
ARC
  8
0
 62
7
  6
CONTINUOUS
 10
492.7449943439
 20
366.3741047878
 40
1.0
 50
359.999999801
 51
90.0
  0
ENDSEC
  0
EOF
