  0
SECTION
  2
HEADER
  9
$EXTMAX
 10
594.0
 20
420.0
 30
0.0
  9
$EXTMIN
 10
0.0
 20
0.0
 30
0.0
  9
$LIMMIN
 10
0.0
 20
0.0
  9
$LIMMAX
 10
594.0
 20
420.0
  9
$VIEWCTR
 10
297.0
 20
210.0
  9
$VIEWSIZE
 40
420.0
  9
$CLAYER
  8
0
  9
$LTSCALE
 40
32.67
  9
$CELTYPE
  6
BYLAYER
  9
$DIMSCALE
 40
1.0
  9
$DIMASZ
 40
3.5
  9
$DIMEXO
 40
3.7125
  9
$DIMDLI
 40
22.572
  9
$DIMEXE
 40
10.692
  9
$DIMCEN
 40
5.346
  9
$DIMLFAC
 40
1.0
  9
$DIMBLK
  1
_FILLED
  9
$DIMTXT
 40
3.5
  9
$PDMODE
 70
3
  9
$PDSIZE
 40
0.3125
  9
$TILEMODE
 70
1
  0
ENDSEC
  0
SECTION
  2
TABLES
  0
TABLE
  2
LTYPE
 70
6
  0
LTYPE
  2
BYBLOCK
 70
0
  3

 72
65
 73
0
 40
0.0
  0
LTYPE
  2
BYLAYER
 70
0
  3

 72
65
 73
0
 40
0.0
  0
LTYPE
  2
CONTINUOUS
 70
64
  3
Solid line
 72
65
 73
0
 40
0.0
  0
LTYPE
  2
CENTER
 70
64
  3
____ _ ____ _ ____ _ ____ _ ____ _ ____ _ ____
 72
65
 73
4
 40
0.6
 49
0.375
 49
-0.075
 49
0.075
 49
-0.075
  0
LTYPE
  2
HIDDEN
 70
64
  3
- - - - - - - - - - - - - - - - - - - -
 72
65
 73
2
 40
0.2
 49
0.1
 49
-0.1
  0
LTYPE
  2
PHANTOM
 70
64
  3
_____ _ _ _____ _ _ _____ _ _ _____
 72
65
 73
6
 40
0.8
 49
0.45
 49
-0.05
 49
0.1
 49
-0.05
 49
0.1
 49
-0.05
  0
LTYPE
  2
DOT
 70
64
  3
. . . . . . . . . . . . . . . . . . . .
 72
65
 73
2
 40
0.2
 49
0.1
 49
-0.1
  0
LTYPE
  2
DASHED
 70
64
  3
- - - - - - - - - - - - - - - - - - - -
 72
65
 73
2
 40
0.2
 49
0.1
 49
-0.1
  0
ENDTAB
  0
TABLE
  2
LAYER
 70
36
  0
LAYER
  2
0
 70
0
 62
7
  6
CONTINUOUS
  0
LAYER
  2
DEFAULT_1
 70
0
 62
7
  6
CENTER
  0
LAYER
  2
DEFAULT_2
 70
0
 62
8
  6
HIDDEN
  0
LAYER
  2
DEFAULT_3
 70
0
 62
7
  6
PHANTOM
  0
ENDTAB
  0
TABLE
  2
STYLE
 70
1
  0
STYLE
  2
STANDARD
 70
0
 40
0.0
 41
0.8
 50
0.0
 71
0
 42
0.2
  3
txt
  4

  0
STYLE
  2
TEXTSTYLE_1
 70
0
 40
0.0
 41
0.8
 50
0.0
 71
0
 42
0.2
  3
gdt
  4

  0
STYLE
  2
TEXTSTYLE_2
 70
0
 40
0.0
 41
0.6
 50
0.0
 71
0
 42
0.2
  3
txt
  4

  0
STYLE
  2
TEXTSTYLE_3
 70
0
 40
0.0
 41
1.0
 50
0.0
 71
0
 42
0.2
  3
ftb_____.ttf
  4

  0
STYLE
  2
TEXTSTYLE_4
 70
0
 40
0.0
 41
1.0
 50
0.0
 71
0
 42
0.2
  3
fti_____.ttf
  4

  0
STYLE
  2
TEXTSTYLE_5
 70
0
 40
0.0
 41
1.0
 50
0.0
 71
0
 42
0.2
  3
frutiger light.ttf
  4

  0
STYLE
  2
TEXTSTYLE_6
 70
0
 40
0.0
 41
0.7
 50
0.0
 71
0
 42
0.2
  3
txt
  4

  0
STYLE
  2
TEXTSTYLE_7
 70
0
 40
0.0
 41
0.8
 50
0.0
 71
0
 42
0.2
  3
txt
  4

  0
ENDTAB
  0
ENDSEC
  0
SECTION
  2
BLOCKS
  0
BLOCK
  8
0
 62
2
  6
CONTINUOUS
  2
SYMBOL_3_BL1
 70
64
 10
557.4079930916
 20
35.8092573885
  0
TEXT
  8
0
 62
7
  6
CONTINUOUS
 10
548.4662781001
 20
30.9020137655
  7
TEXTSTYLE_4
 40
1.0655737705
  1
The brand for plastic modular belts and chains
 41
1.0
 72
0
  0
LINE
  8
0
 62
7
  6
CONTINUOUS
 10
533.3860614807
 20
36.3830278803
 11
533.3860614807
 21
34.2518803393
  0
LINE
  8
0
 62
7
  6
CONTINUOUS
 10
533.6751239738
 20
31.2609490436
 11
533.6751239738
 21
31.3577401029
  0
LINE
  8
0
 62
7
  6
CONTINUOUS
 10
533.3860614807
 20
31.3254764164
 11
533.4438739824
 21
31.1318942979
  0
LINE
  8
0
 62
7
  6
CONTINUOUS
 10
534.7795041036
 20
34.1699131262
 11
534.7795041036
 21
36.3830278803
  0
LINE
  8
0
 62
7
  6
CONTINUOUS
 10
535.6985614255
 20
32.3256508311
 11
535.6985614255
 21
30.8092573885
  0
LINE
  8
0
 62
7
  6
CONTINUOUS
 10
535.9876239807
 20
30.8092573885
 11
535.9876239807
 21
31.5513222666
  0
LINE
  8
0
 62
7
  6
CONTINUOUS
 10
535.9876239807
 20
31.6803770123
 11
535.9876239807
 21
32.3256508311
  0
LINE
  8
0
 62
7
  6
CONTINUOUS
 10
533.4438739824
 20
31.5190585802
 11
533.3860614807
 21
31.3254764164
  0
LINE
  8
0
 62
7
  6
CONTINUOUS
 10
533.7907489669
 20
31.0996306115
 11
533.6751239738
 21
31.2609490436
  0
LINE
  8
0
 62
7
  6
CONTINUOUS
 10
534.8891865358
 20
31.6158496394
 11
534.9469989807
 21
31.5190585802
  0
LINE
  8
0
 62
7
  6
CONTINUOUS
 10
535.2360615358
 20
31.5190585802
 11
535.1782489255
 21
31.6481133259
  0
LINE
  8
0
 62
7
  6
CONTINUOUS
 10
536.6647500053
 20
36.3830278803
 11
536.6647500053
 21
34.5797491918
  0
LINE
  8
0
 62
7
  6
CONTINUOUS
 10
536.6647500053
 20
33.2682737819
 11
536.6647500053
 21
32.612536077
  0
LINE
  8
0
 62
7
  6
CONTINUOUS
 10
537.0282489807
 20
31.4545312073
 11
537.0282489807
 21
30.8092573885
  0
LINE
  8
0
 62
7
  6
CONTINUOUS
 10
537.3173113704
 20
30.8092573885
 11
537.3173113704
 21
31.4545312073
  0
LINE
  8
0
 62
7
  6
CONTINUOUS
 10
533.6751239738
 20
31.3577401029
 11
533.7329364807
 21
31.4867948937
  0
LINE
  8
0
 62
7
  6
CONTINUOUS
 10
533.4438739824
 20
31.1318942979
 11
533.5594989807
 21
31.0028395296
  0
LINE
  8
0
 62
7
  6
CONTINUOUS
 10
536.9704363704
 20
31.583585953
 11
537.0282489807
 21
31.4545312073
  0
LINE
  8
0
 62
7
  6
CONTINUOUS
 10
537.7798115909
 20
31.0996306115
 11
537.8376238704
 21
30.9705758432
  0
LINE
  8
0
 62
7
  6
CONTINUOUS
 10
537.3173113704
 20
31.4545312073
 11
537.2594990909
 21
31.6158496394
  0
LINE
  8
0
 62
7
  6
CONTINUOUS
 10
537.7798115909
 20
31.6481133259
 11
537.7798115909
 21
31.583585953
  0
LINE
  8
0
 62
7
  6
CONTINUOUS
 10
537.7798115909
 20
31.1964216708
 11
537.7798115909
 21
31.0996306115
  0
LINE
  8
0
 62
7
  6
CONTINUOUS
 10
538.0581926282
 20
32.612536077
 11
538.0581926282
 21
36.3830278803
  0
LINE
  8
0
 62
7
  6
CONTINUOUS
 10
538.0688739807
 20
31.0673669025
 11
538.0688739807
 21
31.1318942979
  0
LINE
  8
0
 62
7
  6
CONTINUOUS
 10
538.3860614807
 20
36.3830278803
 11
538.3860614807
 21
32.612536077
  0
LINE
  8
0
 62
7
  6
CONTINUOUS
 10
535.1782489255
 20
31.0028395296
 11
535.2360615358
 21
31.1318942979
  0
LINE
  8
0
 62
7
  6
CONTINUOUS
 10
539.5719992012
 20
30.9060484591
 11
539.5141862601
 21
31.0673669025
  0
LINE
  8
0
 62
7
  6
CONTINUOUS
 10
539.2251242012
 20
31.583585953
 11
539.2251242012
 21
31.4867948937
  0
LINE
  8
0
 62
7
  6
CONTINUOUS
 10
539.2251242012
 20
31.3577401029
 11
539.2251242012
 21
31.1641579843
  0
LINE
  8
0
 62
7
  6
CONTINUOUS
 10
539.5141862601
 20
31.0673669025
 11
539.5141862601
 21
31.583585953
  0
LINE
  8
0
 62
7
  6
CONTINUOUS
 10
539.7795041036
 20
32.612536077
 11
539.7795041036
 21
34.4158147655
  0
LINE
  8
0
 62
7
  6
CONTINUOUS
 10
539.7795041036
 20
35.7272901754
 11
539.7795041036
 21
36.3830278803
  0
LINE
  8
0
 62
7
  6
CONTINUOUS
 10
540.0923117012
 20
32.3256508311
 11
540.0923117012
 21
32.164332399
  0
LINE
  8
0
 62
7
  6
CONTINUOUS
 10
540.0923117012
 20
31.8416954444
 11
540.0923117012
 21
30.8092573885
  0
LINE
  8
0
 62
7
  6
CONTINUOUS
 10
540.3813737601
 20
30.8092573885
 11
540.3813737601
 21
31.8416954444
  0
LINE
  8
0
 62
7
  6
CONTINUOUS
 10
540.3813737601
 20
32.164332399
 11
540.3813737601
 21
32.3256508311
  0
LINE
  8
0
 62
7
  6
CONTINUOUS
 10
534.9469989807
 20
31.1318942979
 11
534.8891865358
 21
31.035103216
  0
LINE
  8
0
 62
7
  6
CONTINUOUS
 10
537.2594990909
 20
31.6158496394
 11
537.2016864807
 21
31.6803770123
  0
LINE
  8
0
 62
7
  6
CONTINUOUS
 10
538.1266865909
 20
31.0028395296
 11
538.0688739807
 21
31.0673669025
  0
LINE
  8
0
 62
7
  6
CONTINUOUS
 10
539.2829364807
 20
30.873784767
 11
539.3407487601
 21
30.8092573885
  0
LINE
  8
0
 62
7
  6
CONTINUOUS
 10
539.2251242012
 20
30.9705758432
 11
539.2829364807
 21
30.873784767
  0
LINE
  8
0
 62
7
  6
CONTINUOUS
 10
539.6298114807
 20
30.8092573885
 11
539.5719992012
 21
30.9060484591
  0
LINE
  8
0
 62
7
  6
CONTINUOUS
 10
539.5141862601
 20
31.583585953
 11
539.4563739807
 21
31.6803770123
  0
LINE
  8
0
 62
7
  6
CONTINUOUS
 10
540.8438739807
 20
31.8416954444
 11
540.8438739807
 21
30.8092573885
  0
LINE
  8
0
 62
7
  6
CONTINUOUS
 10
541.1329367012
 20
30.8092573885
 11
541.1329367012
 21
31.5513222666
  0
LINE
  8
0
 62
7
  6
CONTINUOUS
 10
541.1329367012
 20
31.6803770123
 11
541.1329367012
 21
31.8416954444
  0
LINE
  8
0
 62
7
  6
CONTINUOUS
 10
541.6647500053
 20
34.8256508311
 11
541.6647500053
 21
32.612536077
  0
LINE
  8
0
 62
7
  6
CONTINUOUS
 10
533.5594989807
 20
31.6481133259
 11
533.4438739824
 21
31.5190585802
  0
LINE
  8
0
 62
7
  6
CONTINUOUS
 10
533.7329364807
 20
31.4867948937
 11
533.7907489669
 21
31.5513222666
  0
LINE
  8
0
 62
7
  6
CONTINUOUS
 10
533.5594989807
 20
31.0028395296
 11
533.6751239738
 21
30.9383121455
  0
LINE
  8
0
 62
7
  6
CONTINUOUS
 10
533.9641864669
 20
31.0028395296
 11
533.7907489669
 21
31.0996306115
  0
LINE
  8
0
 62
7
  6
CONTINUOUS
 10
539.1673112601
 20
31.6481133259
 11
539.2251242012
 21
31.583585953
  0
LINE
  8
0
 62
7
  6
CONTINUOUS
 10
542.1157487601
 20
31.583585953
 11
542.1735617012
 21
31.4222675209
  0
LINE
  8
0
 62
7
  6
CONTINUOUS
 10
542.4626237601
 20
31.4222675209
 11
542.4048114807
 21
31.583585953
  0
LINE
  8
0
 62
7
  6
CONTINUOUS
 10
542.1735617012
 20
31.4222675209
 11
542.1735617012
 21
30.8092573885
  0
LINE
  8
0
 62
7
  6
CONTINUOUS
 10
542.4626237601
 20
30.8092573885
 11
542.4626237601
 21
31.4222675209
  0
LINE
  8
0
 62
7
  6
CONTINUOUS
 10
542.9251239807
 20
31.6481133259
 11
542.9251239807
 21
31.583585953
  0
LINE
  8
0
 62
7
  6
CONTINUOUS
 10
543.0581926282
 20
32.612536077
 11
543.0581926282
 21
34.743683618
  0
LINE
  8
0
 62
7
  6
CONTINUOUS
 10
543.3860614807
 20
36.3830278803
 11
543.3860614807
 21
32.612536077
  0
LINE
  8
0
 62
7
  6
CONTINUOUS
 10
538.0688739807
 20
31.1318942979
 11
538.1266865909
 21
31.2286853572
  0
LINE
  8
0
 62
7
  6
CONTINUOUS
 10
533.6751239738
 20
30.9383121455
 11
533.8485614944
 21
30.873784767
  0
LINE
  8
0
 62
7
  6
CONTINUOUS
 10
535.1782489255
 20
31.6481133259
 11
535.0048114255
 21
31.7449043851
  0
LINE
  8
0
 62
7
  6
CONTINUOUS
 10
537.8376238704
 20
30.9705758432
 11
538.0110613704
 21
30.873784767
  0
LINE
  8
0
 62
7
  6
CONTINUOUS
 10
536.8548114807
 20
31.6481133259
 11
536.9704363704
 21
31.583585953
  0
LINE
  8
0
 62
7
  6
CONTINUOUS
 10
537.2016864807
 20
31.6803770123
 11
537.0860615909
 21
31.7449043851
  0
LINE
  8
0
 62
7
  6
CONTINUOUS
 10
542.9251239807
 20
31.0673669025
 11
543.0407492012
 21
30.9383121455
  0
LINE
  8
0
 62
7
  6
CONTINUOUS
 10
543.2719989807
 20
31.0028395296
 11
543.2141867012
 21
31.0673669025
  0
LINE
  8
0
 62
7
  6
CONTINUOUS
 10
542.9251239807
 20
31.583585953
 11
543.0407492012
 21
31.4545312073
  0
LINE
  8
0
 62
7
  6
CONTINUOUS
 10
542.4048114807
 20
31.583585953
 11
542.3469992012
 21
31.6803770123
  0
LINE
  8
0
 62
7
  6
CONTINUOUS
 10
544.7751235396
 20
31.0028395296
 11
544.7751235396
 21
31.0673669025
  0
LINE
  8
0
 62
7
  6
CONTINUOUS
 10
544.7795041036
 20
32.612536077
 11
544.7795041036
 21
36.3830278803
  0
LINE
  8
0
 62
7
  6
CONTINUOUS
 10
537.8376238704
 20
31.7126406987
 11
537.7798115909
 21
31.6481133259
  0
LINE
  8
0
 62
7
  6
CONTINUOUS
 10
534.7157489531
 20
31.6803770123
 11
534.8891865358
 21
31.6158496394
  0
LINE
  8
0
 62
7
  6
CONTINUOUS
 10
539.4563739807
 20
31.6803770123
 11
539.3407487601
 21
31.7449043851
  0
LINE
  8
0
 62
7
  6
CONTINUOUS
 10
543.2719989807
 20
31.5190585802
 11
543.2141867012
 21
31.583585953
  0
LINE
  8
0
 62
7
  6
CONTINUOUS
 10
544.4282492012
 20
31.1318942979
 11
544.4860614807
 21
31.0673669025
  0
LINE
  8
0
 62
7
  6
CONTINUOUS
 10
544.7751235396
 20
31.0673669025
 11
544.6594989807
 21
31.1964216708
  0
LINE
  8
0
 62
7
  6
CONTINUOUS
 10
544.4282492012
 20
31.6481133259
 11
544.4860614807
 21
31.583585953
  0
LINE
  8
0
 62
7
  6
CONTINUOUS
 10
544.7751235396
 20
31.583585953
 11
544.6594989807
 21
31.7126406987
  0
LINE
  8
0
 62
7
  6
CONTINUOUS
 10
538.0688739807
 20
31.583585953
 11
538.1266865909
 21
31.6481133259
  0
LINE
  8
0
 62
7
  6
CONTINUOUS
 10
537.8954364807
 20
31.3254764164
 11
537.7798115909
 21
31.1964216708
  0
LINE
  8
0
 62
7
  6
CONTINUOUS
 10
539.2251242012
 20
31.1641579843
 11
539.1673112601
 21
31.0996306115
  0
LINE
  8
0
 62
7
  6
CONTINUOUS
 10
539.1673112601
 20
30.9060484591
 11
539.2251242012
 21
30.9705758432
  0
LINE
  8
0
 62
7
  6
CONTINUOUS
 10
538.0110613704
 20
30.873784767
 11
538.1266865909
 21
30.8415210777
  0
LINE
  8
0
 62
7
  6
CONTINUOUS
 10
535.0048114255
 20
31.7449043851
 11
534.7735614807
 21
31.809431758
  0
LINE
  8
0
 62
7
  6
CONTINUOUS
 10
538.3579363704
 20
30.9383121455
 11
538.1266865909
 21
31.0028395296
  0
LINE
  8
0
 62
7
  6
CONTINUOUS
 10
537.0860615909
 20
31.7449043851
 11
536.9126240909
 21
31.809431758
  0
LINE
  8
0
 62
7
  6
CONTINUOUS
 10
539.3407487601
 20
31.7449043851
 11
539.1673112601
 21
31.809431758
  0
LINE
  8
0
 62
7
  6
CONTINUOUS
 10
542.0001242012
 20
31.6481133259
 11
542.1157487601
 21
31.583585953
  0
LINE
  8
0
 62
7
  6
CONTINUOUS
 10
542.3469992012
 20
31.6803770123
 11
542.2313739807
 21
31.7449043851
  0
LINE
  8
0
 62
7
  6
CONTINUOUS
 10
533.8485614944
 20
30.873784767
 11
534.0219989944
 21
30.8415210777
  0
LINE
  8
0
 62
7
  6
CONTINUOUS
 10
534.3110615082
 20
30.9383121455
 11
533.9641864669
 21
31.0028395296
  0
LINE
  8
0
 62
7
  6
CONTINUOUS
 10
536.7391865909
 20
31.6803770123
 11
536.8548114807
 21
31.6481133259
  0
LINE
  8
0
 62
7
  6
CONTINUOUS
 10
539.0516867012
 20
31.6803770123
 11
539.1673112601
 21
31.6481133259
  0
LINE
  8
0
 62
7
  6
CONTINUOUS
 10
543.3876242012
 20
30.9705758432
 11
543.2719989807
 21
31.0028395296
  0
LINE
  8
0
 62
7
  6
CONTINUOUS
 10
541.8844989807
 20
31.6803770123
 11
542.0001242012
 21
31.6481133259
  0
LINE
  8
0
 62
7
  6
CONTINUOUS
 10
543.0407492012
 20
30.9383121455
 11
543.2141867012
 21
30.873784767
  0
LINE
  8
0
 62
7
  6
CONTINUOUS
 10
542.2313739807
 20
31.7449043851
 11
542.0579364807
 21
31.809431758
  0
LINE
  8
0
 62
7
  6
CONTINUOUS
 10
543.4454364807
 20
31.4545312073
 11
543.2719989807
 21
31.5190585802
  0
LINE
  8
0
 62
7
  6
CONTINUOUS
 10
544.2548117012
 20
31.1964216708
 11
544.4282492012
 21
31.1318942979
  0
LINE
  8
0
 62
7
  6
CONTINUOUS
 10
544.6594989807
 20
31.7126406987
 11
544.4860614807
 21
31.7771680715
  0
LINE
  8
0
 62
7
  6
CONTINUOUS
 10
543.0407492012
 20
31.4545312073
 11
543.2719989807
 21
31.3577401029
  0
LINE
  8
0
 62
7
  6
CONTINUOUS
 10
544.6594989807
 20
31.1964216708
 11
544.4282492012
 21
31.29321273
  0
LINE
  8
0
 62
7
  6
CONTINUOUS
 10
543.2141867012
 20
31.583585953
 11
543.2719989807
 21
31.6481133259
  0
LINE
  8
0
 62
7
  6
CONTINUOUS
 10
533.6751239738
 20
31.7126406987
 11
533.5594989807
 21
31.6481133259
  0
LINE
  8
0
 62
7
  6
CONTINUOUS
 10
533.7907489669
 20
31.5513222666
 11
533.9641864669
 21
31.6481133259
  0
LINE
  8
0
 62
7
  6
CONTINUOUS
 10
536.1032490358
 20
31.7449043851
 11
535.9876239807
 21
31.6803770123
  0
LINE
  8
0
 62
7
  6
CONTINUOUS
 10
535.9876239807
 20
31.5513222666
 11
536.1032490358
 21
31.6158496394
  0
LINE
  8
0
 62
7
  6
CONTINUOUS
 10
535.0048114255
 20
30.9060484591
 11
535.1782489255
 21
31.0028395296
  0
LINE
  8
0
 62
7
  6
CONTINUOUS
 10
534.0219989944
 20
30.8415210777
 11
534.3688739531
 21
30.8092573885
  0
LINE
  8
0
 62
7
  6
CONTINUOUS
 10
538.1266865909
 20
30.8415210777
 11
538.3579363704
 21
30.8092573885
  0
LINE
  8
0
 62
7
  6
CONTINUOUS
 10
536.5079364807
 20
31.7126406987
 11
536.7391865909
 21
31.6803770123
  0
LINE
  8
0
 62
7
  6
CONTINUOUS
 10
538.8204365909
 20
31.7126406987
 11
539.0516867012
 21
31.6803770123
  0
LINE
  8
0
 62
7
  6
CONTINUOUS
 10
543.2719989807
 20
31.3577401029
 11
544.2548117012
 21
31.1964216708
  0
LINE
  8
0
 62
7
  6
CONTINUOUS
 10
544.4282492012
 20
31.29321273
 11
543.4454364807
 21
31.4545312073
  0
LINE
  8
0
 62
7
  6
CONTINUOUS
 10
536.9126240909
 20
31.809431758
 11
536.7391865909
 21
31.8416954444
  0
LINE
  8
0
 62
7
  6
CONTINUOUS
 10
543.2141867012
 20
30.873784767
 11
543.3876242012
 21
30.8415210777
  0
LINE
  8
0
 62
7
  6
CONTINUOUS
 10
542.0579364807
 20
31.809431758
 11
541.8844989807
 21
31.8416954444
  0
LINE
  8
0
 62
7
  6
CONTINUOUS
 10
544.3126239807
 20
31.6803770123
 11
544.4282492012
 21
31.6481133259
  0
LINE
  8
0
 62
7
  6
CONTINUOUS
 10
544.4860614807
 20
31.0673669025
 11
544.4282492012
 21
31.0028395296
  0
LINE
  8
0
 62
7
  6
CONTINUOUS
 10
543.0407492012
 20
31.7449043851
 11
542.9251239807
 21
31.6481133259
  0
LINE
  8
0
 62
7
  6
CONTINUOUS
 10
537.9532490909
 20
31.7771680715
 11
537.8376238704
 21
31.7126406987
  0
LINE
  8
0
 62
7
  6
CONTINUOUS
 10
538.0110613704
 20
31.3900038345
 11
537.8954364807
 21
31.3254764164
  0
LINE
  8
0
 62
7
  6
CONTINUOUS
 10
538.1266865909
 20
31.2286853572
 11
538.2423114807
 21
31.29321273
  0
LINE
  8
0
 62
7
  6
CONTINUOUS
 10
535.6985614255
 20
30.8092573885
 11
535.9876239807
 21
30.8092573885
  0
LINE
  8
0
 62
7
  6
CONTINUOUS
 10
537.0282489807
 20
30.8092573885
 11
537.3173113704
 21
30.8092573885
  0
LINE
  8
0
 62
7
  6
CONTINUOUS
 10
538.3579363704
 20
30.8092573885
 11
538.7048113704
 21
30.8092573885
  0
LINE
  8
0
 62
7
  6
CONTINUOUS
 10
539.3407487601
 20
30.8092573885
 11
539.6298114807
 21
30.8092573885
  0
LINE
  8
0
 62
7
  6
CONTINUOUS
 10
540.0923117012
 20
30.8092573885
 11
540.3813737601
 21
30.8092573885
  0
LINE
  8
0
 62
7
  6
CONTINUOUS
 10
540.8438739807
 20
30.8092573885
 11
541.1329367012
 21
30.8092573885
  0
LINE
  8
0
 62
7
  6
CONTINUOUS
 10
542.1735617012
 20
30.8092573885
 11
542.4626237601
 21
30.8092573885
  0
LINE
  8
0
 62
7
  6
CONTINUOUS
 10
543.7344992012
 20
30.8092573885
 11
544.0813742012
 21
30.8092573885
  0
LINE
  8
0
 62
7
  6
CONTINUOUS
 10
544.0813742012
 20
30.9383121455
 11
543.7344992012
 21
30.9383121455
  0
LINE
  8
0
 62
7
  6
CONTINUOUS
 10
538.7048113704
 20
30.9383121455
 11
538.3579363704
 21
30.9383121455
  0
LINE
  8
0
 62
7
  6
CONTINUOUS
 10
543.2141867012
 20
31.0673669025
 11
542.9251239807
 21
31.0673669025
  0
LINE
  8
0
 62
7
  6
CONTINUOUS
 10
535.2360615358
 20
31.1318942979
 11
534.9469989807
 21
31.1318942979
  0
LINE
  8
0
 62
7
  6
CONTINUOUS
 10
534.3110615082
 20
31.7126406987
 11
534.7157489531
 21
31.6803770123
  0
LINE
  8
0
 62
7
  6
CONTINUOUS
 10
534.7735614807
 20
31.809431758
 11
534.3688739531
 21
31.8416954444
  0
LINE
  8
0
 62
7
  6
CONTINUOUS
 10
543.3876242012
 20
30.8415210777
 11
543.7344992012
 21
30.8092573885
  0
LINE
  8
0
 62
7
  6
CONTINUOUS
 10
543.7344992012
 20
30.9383121455
 11
543.3876242012
 21
30.9705758432
  0
LINE
  8
0
 62
7
  6
CONTINUOUS
 10
539.1673112601
 20
31.809431758
 11
538.8204365909
 21
31.8416954444
  0
LINE
  8
0
 62
7
  6
CONTINUOUS
 10
543.9657489807
 20
31.7126406987
 11
544.3126239807
 21
31.6803770123
  0
LINE
  8
0
 62
7
  6
CONTINUOUS
 10
544.3126239807
 20
31.809431758
 11
543.9657489807
 21
31.8416954444
  0
LINE
  8
0
 62
7
  6
CONTINUOUS
 10
541.6532492012
 20
31.7126406987
 11
541.8844989807
 21
31.6803770123
  0
LINE
  8
0
 62
7
  6
CONTINUOUS
 10
544.4860614807
 20
31.7771680715
 11
544.3126239807
 21
31.809431758
  0
LINE
  8
0
 62
7
  6
CONTINUOUS
 10
544.6594989807
 20
30.9060484591
 11
544.7751235396
 21
31.0028395296
  0
LINE
  8
0
 62
7
  6
CONTINUOUS
 10
539.1673112601
 20
31.0996306115
 11
538.9938737601
 21
31.0028395296
  0
LINE
  8
0
 62
7
  6
CONTINUOUS
 10
541.2485612601
 20
31.7449043851
 11
541.1329367012
 21
31.6803770123
  0
LINE
  8
0
 62
7
  6
CONTINUOUS
 10
541.1329367012
 20
31.5513222666
 11
541.2485612601
 21
31.6158496394
  0
LINE
  8
0
 62
7
  6
CONTINUOUS
 10
533.8485614944
 20
31.7771680715
 11
533.6751239738
 21
31.7126406987
  0
LINE
  8
0
 62
7
  6
CONTINUOUS
 10
536.2766863704
 20
31.809431758
 11
536.1032490358
 21
31.7449043851
  0
LINE
  8
0
 62
7
  6
CONTINUOUS
 10
536.1032490358
 20
31.6158496394
 11
536.2766863704
 21
31.6803770123
  0
LINE
  8
0
 62
7
  6
CONTINUOUS
 10
534.8891865358
 20
31.035103216
 11
534.7157489531
 21
30.9705758432
  0
LINE
  8
0
 62
7
  6
CONTINUOUS
 10
544.3126239807
 20
30.9705758432
 11
544.0813742012
 21
30.9383121455
  0
LINE
  8
0
 62
7
  6
CONTINUOUS
 10
538.7048113704
 20
30.8092573885
 11
538.9938737601
 21
30.8415210777
  0
LINE
  8
0
 62
7
  6
CONTINUOUS
 10
544.0813742012
 20
30.8092573885
 11
544.4282492012
 21
30.8415210777
  0
LINE
  8
0
 62
7
  6
CONTINUOUS
 10
534.3688739531
 20
30.8092573885
 11
534.7735614807
 21
30.8415210777
  0
LINE
  8
0
 62
7
  6
CONTINUOUS
 10
534.7157489531
 20
30.9705758432
 11
534.3110615082
 21
30.9383121455
  0
LINE
  8
0
 62
7
  6
CONTINUOUS
 10
538.5891864807
 20
31.3577401029
 11
539.2251242012
 21
31.3577401029
  0
LINE
  8
0
 62
7
  6
CONTINUOUS
 10
539.2251242012
 20
31.4867948937
 11
538.5891864807
 21
31.4867948937
  0
LINE
  8
0
 62
7
  6
CONTINUOUS
 10
534.9469989807
 20
31.5190585802
 11
535.2360615358
 21
31.5190585802
  0
LINE
  8
0
 62
7
  6
CONTINUOUS
 10
537.7798115909
 20
31.583585953
 11
538.0688739807
 21
31.583585953
  0
LINE
  8
0
 62
7
  6
CONTINUOUS
 10
544.4860614807
 20
31.583585953
 11
544.7751235396
 21
31.583585953
  0
LINE
  8
0
 62
7
  6
CONTINUOUS
 10
538.4735615909
 20
31.7126406987
 11
538.8204365909
 21
31.7126406987
  0
LINE
  8
0
 62
7
  6
CONTINUOUS
 10
543.6188739807
 20
31.7126406987
 11
543.9657489807
 21
31.7126406987
  0
LINE
  8
0
 62
7
  6
CONTINUOUS
 10
543.9657489807
 20
31.8416954444
 11
543.6188739807
 21
31.8416954444
  0
LINE
  8
0
 62
7
  6
CONTINUOUS
 10
541.8844989807
 20
31.8416954444
 11
541.6532492012
 21
31.8416954444
  0
LINE
  8
0
 62
7
  6
CONTINUOUS
 10
541.1329367012
 20
31.8416954444
 11
540.8438739807
 21
31.8416954444
  0
LINE
  8
0
 62
7
  6
CONTINUOUS
 10
540.3813737601
 20
31.8416954444
 11
540.0923117012
 21
31.8416954444
  0
LINE
  8
0
 62
7
  6
CONTINUOUS
 10
538.8204365909
 20
31.8416954444
 11
538.4735615909
 21
31.8416954444
  0
LINE
  8
0
 62
7
  6
CONTINUOUS
 10
536.7391865909
 20
31.8416954444
 11
536.5079364807
 21
31.8416954444
  0
LINE
  8
0
 62
7
  6
CONTINUOUS
 10
540.0923117012
 20
32.164332399
 11
540.3813737601
 21
32.164332399
  0
LINE
  8
0
 62
7
  6
CONTINUOUS
 10
540.3813737601
 20
32.3256508311
 11
540.0923117012
 21
32.3256508311
  0
LINE
  8
0
 62
7
  6
CONTINUOUS
 10
535.9876239807
 20
32.3256508311
 11
535.6985614255
 21
32.3256508311
  0
LINE
  8
0
 62
7
  6
CONTINUOUS
 10
535.025405743
 20
32.612536077
 11
535.4379770916
 21
32.612536077
  0
LINE
  8
0
 62
7
  6
CONTINUOUS
 10
536.6647500053
 20
32.612536077
 11
538.0581926282
 21
32.612536077
  0
LINE
  8
0
 62
7
  6
CONTINUOUS
 10
538.3860614807
 20
32.612536077
 11
539.7795041036
 21
32.612536077
  0
LINE
  8
0
 62
7
  6
CONTINUOUS
 10
541.6647500053
 20
32.612536077
 11
543.0581926282
 21
32.612536077
  0
LINE
  8
0
 62
7
  6
CONTINUOUS
 10
543.3860614807
 20
32.612536077
 11
544.7795041036
 21
32.612536077
  0
LINE
  8
0
 62
7
  6
CONTINUOUS
 10
541.4219987601
 20
31.809431758
 11
541.2485612601
 21
31.7449043851
  0
LINE
  8
0
 62
7
  6
CONTINUOUS
 10
538.9938737601
 20
30.8415210777
 11
539.1673112601
 21
30.9060484591
  0
LINE
  8
0
 62
7
  6
CONTINUOUS
 10
544.4282492012
 20
30.8415210777
 11
544.6594989807
 21
30.9060484591
  0
LINE
  8
0
 62
7
  6
CONTINUOUS
 10
544.4282492012
 20
31.0028395296
 11
544.3126239807
 21
30.9705758432
  0
LINE
  8
0
 62
7
  6
CONTINUOUS
 10
543.3876242012
 20
31.6803770123
 11
543.6188739807
 21
31.7126406987
  0
LINE
  8
0
 62
7
  6
CONTINUOUS
 10
541.4219987601
 20
31.6803770123
 11
541.6532492012
 21
31.7126406987
  0
LINE
  8
0
 62
7
  6
CONTINUOUS
 10
538.3579363704
 20
31.3254764164
 11
538.5891864807
 21
31.3577401029
  0
LINE
  8
0
 62
7
  6
CONTINUOUS
 10
541.6532492012
 20
31.8416954444
 11
541.4219987601
 21
31.809431758
  0
LINE
  8
0
 62
7
  6
CONTINUOUS
 10
538.2423114807
 20
31.6803770123
 11
538.4735615909
 21
31.7126406987
  0
LINE
  8
0
 62
7
  6
CONTINUOUS
 10
543.6188739807
 20
31.8416954444
 11
543.2719989807
 21
31.809431758
  0
LINE
  8
0
 62
7
  6
CONTINUOUS
 10
538.5891864807
 20
31.4867948937
 11
538.2423114807
 21
31.4545312073
  0
LINE
  8
0
 62
7
  6
CONTINUOUS
 10
534.3688739531
 20
31.8416954444
 11
534.0219989944
 21
31.809431758
  0
LINE
  8
0
 62
7
  6
CONTINUOUS
 10
538.4735615909
 20
31.8416954444
 11
538.0688739807
 21
31.809431758
  0
LINE
  8
0
 62
7
  6
CONTINUOUS
 10
535.8450778741
 20
33.7600770606
 11
535.1893401692
 21
33.7600770606
  0
LINE
  8
0
 62
7
  6
CONTINUOUS
 10
541.2485612601
 20
31.6158496394
 11
541.4219987601
 21
31.6803770123
  0
LINE
  8
0
 62
7
  6
CONTINUOUS
 10
543.2719989807
 20
31.6481133259
 11
543.3876242012
 21
31.6803770123
  0
LINE
  8
0
 62
7
  6
CONTINUOUS
 10
543.2719989807
 20
31.809431758
 11
543.0407492012
 21
31.7449043851
  0
LINE
  8
0
 62
7
  6
CONTINUOUS
 10
538.9938737601
 20
31.0028395296
 11
538.7048113704
 21
30.9383121455
  0
LINE
  8
0
 62
7
  6
CONTINUOUS
 10
536.2766863704
 20
31.6803770123
 11
536.5079364807
 21
31.7126406987
  0
LINE
  8
0
 62
7
  6
CONTINUOUS
 10
536.5079364807
 20
31.8416954444
 11
536.2766863704
 21
31.809431758
  0
LINE
  8
0
 62
7
  6
CONTINUOUS
 10
534.0798114807
 20
31.6803770123
 11
534.3110615082
 21
31.7126406987
  0
LINE
  8
0
 62
7
  6
CONTINUOUS
 10
540.5991762348
 20
35.2354868967
 11
541.2549139397
 21
35.2354868967
  0
LINE
  8
0
 62
7
  6
CONTINUOUS
 10
538.2423114807
 20
31.29321273
 11
538.3579363704
 21
31.3254764164
  0
LINE
  8
0
 62
7
  6
CONTINUOUS
 10
538.2423114807
 20
31.4545312073
 11
538.0110613704
 21
31.3900038345
  0
LINE
  8
0
 62
7
  6
CONTINUOUS
 10
538.1266865909
 20
31.6481133259
 11
538.2423114807
 21
31.6803770123
  0
LINE
  8
0
 62
7
  6
CONTINUOUS
 10
534.7735614807
 20
30.8415210777
 11
535.0048114255
 21
30.9060484591
  0
LINE
  8
0
 62
7
  6
CONTINUOUS
 10
538.0688739807
 20
31.809431758
 11
537.9532490909
 21
31.7771680715
  0
LINE
  8
0
 62
7
  6
CONTINUOUS
 10
534.0219989944
 20
31.809431758
 11
533.8485614944
 21
31.7771680715
  0
LINE
  8
0
 62
7
  6
CONTINUOUS
 10
544.7795041036
 20
36.3830278803
 11
543.3860614807
 21
36.3830278803
  0
LINE
  8
0
 62
7
  6
CONTINUOUS
 10
541.4188483659
 20
36.3830278803
 11
541.0062770173
 21
36.3830278803
  0
LINE
  8
0
 62
7
  6
CONTINUOUS
 10
539.7795041036
 20
36.3830278803
 11
538.3860614807
 21
36.3830278803
  0
LINE
  8
0
 62
7
  6
CONTINUOUS
 10
538.0581926282
 20
36.3830278803
 11
536.6647500053
 21
36.3830278803
  0
LINE
  8
0
 62
7
  6
CONTINUOUS
 10
534.7795041036
 20
36.3830278803
 11
533.3860614807
 21
36.3830278803
  0
LINE
  8
0
 62
7
  6
CONTINUOUS
 10
533.9641864669
 20
31.6481133259
 11
534.0798114807
 21
31.6803770123
  0
CIRCLE
  8
0
 62
7
  6
CONTINUOUS
 10
544.0827827921
 20
38.7190934541
 40
2.0901639344
  0
ARC
  8
0
 62
7
  6
CONTINUOUS
 10
535.025405743
 20
34.2518803393
 40
1.6393442623
 50
180.0
 51
270.0
  0
ARC
  8
0
 62
7
  6
CONTINUOUS
 10
541.4188483659
 20
34.743683618
 40
1.6393442623
 50
0.0
 51
90.0
  0
ARC
  8
0
 62
7
  6
CONTINUOUS
 10
535.4379770916
 20
34.0879459131
 40
1.4754098361
 50
270.0
 51
326.2510114041
  0
ARC
  8
0
 62
7
  6
CONTINUOUS
 10
541.0062770173
 20
34.9076180442
 40
1.4754098361
 50
90.0
 51
146.2510114041
  0
ARC
  8
0
 62
7
  6
CONTINUOUS
 10
535.8450778741
 20
34.5797491918
 40
0.8196721311
 50
270.0
 51
360.0
  0
ARC
  8
0
 62
7
  6
CONTINUOUS
 10
540.5991762348
 20
34.4158147655
 40
0.8196721311
 50
90.0
 51
180.0
  0
ARC
  8
0
 62
7
  6
CONTINUOUS
 10
535.1893401692
 20
34.1699131262
 40
0.4098360656
 50
180.0
 51
270.0
  0
ARC
  8
0
 62
7
  6
CONTINUOUS
 10
541.2549139397
 20
34.8256508311
 40
0.4098360656
 50
0.0
 51
90.0
  0
SOLID
  8
0
 62
7
  6
CONTINUOUS
 10
540.0923117012
 20
32.1643327593
 11
540.0923117012
 21
32.3256512429
 12
540.3813737601
 22
32.1643327593
 13
540.3813737601
 23
32.3256512429
  0
SOLID
  8
0
 62
7
  6
CONTINUOUS
 10
534.3688739531
 20
31.841695792
 11
534.7735614807
 21
31.8094316148
 12
534.0219989944
 22
31.8094316148
 13
534.0219989944
 23
31.8094316148
  0
SOLID
  8
0
 62
7
  6
CONTINUOUS
 10
533.8485614944
 20
31.7771687019
 11
534.0219989944
 21
31.8094316148
 12
534.7735614807
 22
31.8094316148
 13
534.7735614807
 23
31.8094316148
  0
SOLID
  8
0
 62
7
  6
CONTINUOUS
 10
534.7735614807
 20
31.8094316148
 11
535.0048114255
 21
31.7449043986
 12
533.8485614944
 22
31.7771687019
 13
533.8485614944
 23
31.7771687019
  0
SOLID
  8
0
 62
7
  6
CONTINUOUS
 10
533.6751239738
 20
31.712640202
 11
533.8485614944
 21
31.7771687019
 12
535.0048114255
 22
31.7449043986
 13
535.0048114255
 23
31.7449043986
  0
SOLID
  8
0
 62
7
  6
CONTINUOUS
 10
533.6751239738
 20
31.712640202
 11
535.0048114255
 21
31.7449043986
 12
534.3110615082
 22
31.712640202
 13
534.3110615082
 23
31.712640202
  0
SOLID
  8
0
 62
7
  6
CONTINUOUS
 10
534.3110615082
 20
31.712640202
 11
535.0048114255
 21
31.7449043986
 12
534.7157489531
 22
31.6803773084
 13
534.7157489531
 23
31.6803773084
  0
SOLID
  8
0
 62
7
  6
CONTINUOUS
 10
535.0048114255
 20
31.7449043986
 11
535.1782489255
 21
31.6481130052
 12
534.7157489531
 22
31.6803773084
 13
534.7157489531
 23
31.6803773084
  0
SOLID
  8
0
 62
7
  6
CONTINUOUS
 10
534.8891865358
 20
31.6158502183
 11
534.7157489531
 21
31.6803773084
 12
535.1782489255
 22
31.6481130052
 13
535.1782489255
 23
31.6481130052
  0
SOLID
  8
0
 62
7
  6
CONTINUOUS
 10
534.8891865358
 20
31.6158502183
 11
535.1782489255
 21
31.6481130052
 12
534.9469989807
 22
31.5190586669
 13
534.9469989807
 23
31.5190586669
  0
SOLID
  8
0
 62
7
  6
CONTINUOUS
 10
535.1782489255
 20
31.6481130052
 11
535.2360615358
 21
31.5190586669
 12
534.9469989807
 22
31.5190586669
 13
534.9469989807
 23
31.5190586669
  0
SOLID
  8
0
 62
7
  6
CONTINUOUS
 10
536.2766863704
 20
31.8094307377
 11
536.5079364807
 21
31.841695041
 12
536.7391865909
 22
31.841695041
 13
536.7391865909
 23
31.841695041
  0
SOLID
  8
0
 62
7
  6
CONTINUOUS
 10
536.7391865909
 20
31.841695041
 11
536.9126240909
 21
31.8094307377
 12
536.2766863704
 22
31.8094307377
 13
536.2766863704
 23
31.8094307377
  0
SOLID
  8
0
 62
7
  6
CONTINUOUS
 10
536.1032490358
 20
31.7449036475
 11
536.2766863704
 21
31.8094307377
 12
536.9126240909
 22
31.8094307377
 13
536.9126240909
 23
31.8094307377
  0
SOLID
  8
0
 62
7
  6
CONTINUOUS
 10
536.9126240909
 20
31.8094307377
 11
537.0860615909
 21
31.7449036475
 12
536.1032490358
 22
31.7449036475
 13
536.1032490358
 23
31.7449036475
  0
SOLID
  8
0
 62
7
  6
CONTINUOUS
 10
537.0860615909
 20
31.7449036475
 11
536.5079364807
 21
31.7126400953
 12
536.1032490358
 22
31.7449036475
 13
536.1032490358
 23
31.7449036475
  0
SOLID
  8
0
 62
7
  6
CONTINUOUS
 10
535.9876239807
 20
31.6803765574
 11
536.1032490358
 21
31.7449036475
 12
536.5079364807
 22
31.7126400953
 13
536.5079364807
 23
31.7126400953
  0
SOLID
  8
0
 62
7
  6
CONTINUOUS
 10
536.5079364807
 20
31.7126400953
 11
536.2766863704
 21
31.6803765574
 12
535.9876239807
 22
31.6803765574
 13
535.9876239807
 23
31.6803765574
  0
SOLID
  8
0
 62
7
  6
CONTINUOUS
 10
536.5079364807
 20
31.7126400953
 11
537.0860615909
 21
31.7449036475
 12
536.7391865909
 22
31.6803765574
 13
536.7391865909
 23
31.6803765574
  0
SOLID
  8
0
 62
7
  6
CONTINUOUS
 10
537.0860615909
 20
31.7449036475
 11
537.2016864807
 21
31.6803765574
 12
536.7391865909
 22
31.6803765574
 13
536.7391865909
 23
31.6803765574
  0
SOLID
  8
0
 62
7
  6
CONTINUOUS
 10
536.8548114807
 20
31.6481130052
 11
536.7391865909
 21
31.6803765574
 12
537.2016864807
 22
31.6803765574
 13
537.2016864807
 23
31.6803765574
  0
SOLID
  8
0
 62
7
  6
CONTINUOUS
 10
537.2016864807
 20
31.6803765574
 11
537.2594990909
 21
31.6158494672
 12
536.8548114807
 22
31.6481130052
 13
536.8548114807
 23
31.6481130052
  0
SOLID
  8
0
 62
7
  6
CONTINUOUS
 10
536.9704363704
 20
31.583585915
 11
536.8548114807
 21
31.6481130052
 12
537.2594990909
 22
31.6158494672
 13
537.2594990909
 23
31.6158494672
  0
SOLID
  8
0
 62
7
  6
CONTINUOUS
 10
536.9704363704
 20
31.583585915
 11
537.2594990909
 21
31.6158494672
 12
537.0282489807
 22
31.4545309836
 13
537.0282489807
 23
31.4545309836
  0
SOLID
  8
0
 62
7
  6
CONTINUOUS
 10
537.2594990909
 20
31.6158494672
 11
537.3173113704
 21
31.4545309836
 12
537.0282489807
 22
31.4545309836
 13
537.0282489807
 23
31.4545309836
  0
SOLID
  8
0
 62
7
  6
CONTINUOUS
 10
536.2766863704
 20
31.6803765574
 11
536.1032490358
 21
31.6158494672
 12
535.9876239807
 22
31.6803765574
 13
535.9876239807
 23
31.6803765574
  0
SOLID
  8
0
 62
7
  6
CONTINUOUS
 10
536.1032490358
 20
31.6158494672
 11
535.9876239807
 21
31.5513216117
 12
535.9876239807
 22
31.6803765574
 13
535.9876239807
 23
31.6803765574
  0
SOLID
  8
0
 62
7
  6
CONTINUOUS
 10
535.9876239807
 20
31.5513216117
 11
535.6985614255
 21
30.8092570492
 12
535.9876239807
 22
31.6803765574
 13
535.9876239807
 23
31.6803765574
  0
SOLID
  8
0
 62
7
  6
CONTINUOUS
 10
535.9876239807
 20
31.6803765574
 11
535.6985614255
 21
30.8092570492
 12
535.9876239807
 22
32.3256504918
 13
535.9876239807
 23
32.3256504918
  0
SOLID
  8
0
 62
7
  6
CONTINUOUS
 10
535.6985614255
 20
30.8092570492
 11
535.6985614255
 21
32.3256504918
 12
535.9876239807
 22
32.3256504918
 13
535.9876239807
 23
32.3256504918
  0
SOLID
  8
0
 62
7
  6
CONTINUOUS
 10
535.9876239807
 20
31.5513216117
 11
535.9876239807
 21
30.8092570492
 12
535.6985614255
 22
30.8092570492
 13
535.6985614255
 23
30.8092570492
  0
SOLID
  8
0
 62
7
  6
CONTINUOUS
 10
537.0282489807
 20
30.8092570492
 11
537.0282489807
 21
31.4545309836
 12
537.3173113704
 22
31.4545309836
 13
537.3173113704
 23
31.4545309836
  0
SOLID
  8
0
 62
7
  6
CONTINUOUS
 10
537.3173113704
 20
31.4545309836
 11
537.3173113704
 21
30.8092570492
 12
537.0282489807
 22
30.8092570492
 13
537.0282489807
 23
30.8092570492
  0
SOLID
  8
0
 62
7
  6
CONTINUOUS
 10
538.0688739807
 20
31.809431823
 11
538.4735615909
 21
31.8416958158
 12
538.8204365909
 22
31.8416958158
 13
538.8204365909
 23
31.8416958158
  0
SOLID
  8
0
 62
7
  6
CONTINUOUS
 10
538.8204365909
 20
31.8416958158
 11
539.1673112601
 21
31.809431823
 12
538.0688739807
 22
31.809431823
 13
538.0688739807
 23
31.809431823
  0
SOLID
  8
0
 62
7
  6
CONTINUOUS
 10
537.9532490909
 20
31.7771687019
 11
538.0688739807
 21
31.809431823
 12
539.1673112601
 22
31.809431823
 13
539.1673112601
 23
31.809431823
  0
SOLID
  8
0
 62
7
  6
CONTINUOUS
 10
539.1673112601
 20
31.809431823
 11
539.3407487601
 21
31.7449043986
 12
537.9532490909
 22
31.7771687019
 13
537.9532490909
 23
31.7771687019
  0
SOLID
  8
0
 62
7
  6
CONTINUOUS
 10
537.8376238704
 20
31.7126398448
 11
537.9532490909
 21
31.7771687019
 12
539.3407487601
 22
31.7449043986
 13
539.3407487601
 23
31.7449043986
  0
SOLID
  8
0
 62
7
  6
CONTINUOUS
 10
537.8376238704
 20
31.7126398448
 11
539.3407487601
 21
31.7449043986
 12
538.4735615909
 22
31.7126398448
 13
538.4735615909
 23
31.7126398448
  0
SOLID
  8
0
 62
7
  6
CONTINUOUS
 10
538.4735615909
 20
31.7126398448
 11
539.3407487601
 21
31.7449043986
 12
538.8204365909
 22
31.7126398448
 13
538.8204365909
 23
31.7126398448
  0
SOLID
  8
0
 62
7
  6
CONTINUOUS
 10
538.8204365909
 20
31.7126398448
 11
539.3407487601
 21
31.7449043986
 12
539.0516867012
 22
31.6803774007
 13
539.0516867012
 23
31.6803774007
  0
SOLID
  8
0
 62
7
  6
CONTINUOUS
 10
539.3407487601
 20
31.7449043986
 11
539.4563739807
 21
31.6803774007
 12
539.0516867012
 22
31.6803774007
 13
539.0516867012
 23
31.6803774007
  0
SOLID
  8
0
 62
7
  6
CONTINUOUS
 10
537.7798115909
 20
31.6481126336
 11
537.8376238704
 21
31.7126398448
 12
538.4735615909
 22
31.7126398448
 13
538.4735615909
 23
31.7126398448
  0
SOLID
  8
0
 62
7
  6
CONTINUOUS
 10
539.1673112601
 20
31.6481126336
 11
539.0516867012
 21
31.6803774007
 12
539.4563739807
 22
31.6803774007
 13
539.4563739807
 23
31.6803774007
  0
SOLID
  8
0
 62
7
  6
CONTINUOUS
 10
539.1673112601
 20
31.6481126336
 11
539.4563739807
 21
31.6803774007
 12
539.2251242012
 22
31.5835861968
 13
539.2251242012
 23
31.5835861968
  0
SOLID
  8
0
 62
7
  6
CONTINUOUS
 10
539.4563739807
 20
31.6803774007
 11
539.5141862601
 21
31.5835861968
 12
539.2251242012
 22
31.5835861968
 13
539.2251242012
 23
31.5835861968
  0
SOLID
  8
0
 62
7
  6
CONTINUOUS
 10
539.2251242012
 20
31.4867945216
 11
539.2251242012
 21
31.5835861968
 12
539.5141862601
 22
31.5835861968
 13
539.5141862601
 23
31.5835861968
  0
SOLID
  8
0
 62
7
  6
CONTINUOUS
 10
539.2251242012
 20
31.4867945216
 11
539.5141862601
 21
31.5835861968
 12
539.2251242012
 22
31.3577403412
 13
539.2251242012
 23
31.3577403412
  0
SOLID
  8
0
 62
7
  6
CONTINUOUS
 10
539.2251242012
 20
31.3577403412
 11
539.5141862601
 21
31.5835861968
 12
539.2251242012
 22
31.1641579843
 13
539.2251242012
 23
31.1641579843
  0
SOLID
  8
0
 62
7
  6
CONTINUOUS
 10
539.5141862601
 20
31.5835861968
 11
539.5141862601
 21
31.0673661609
 12
539.2251242012
 22
31.1641579843
 13
539.2251242012
 23
31.1641579843
  0
SOLID
  8
0
 62
7
  6
CONTINUOUS
 10
541.4219987601
 20
31.8094310465
 11
541.6532492012
 21
31.8416957661
 12
541.8844989807
 22
31.8416957661
 13
541.8844989807
 23
31.8416957661
  0
SOLID
  8
0
 62
7
  6
CONTINUOUS
 10
541.8844989807
 20
31.8416957661
 11
542.0579364807
 21
31.8094310465
 12
541.4219987601
 22
31.8094310465
 13
541.4219987601
 23
31.8094310465
  0
SOLID
  8
0
 62
7
  6
CONTINUOUS
 10
541.2485612601
 20
31.7449047044
 11
541.4219987601
 21
31.8094310465
 12
542.0579364807
 22
31.8094310465
 13
542.0579364807
 23
31.8094310465
  0
SOLID
  8
0
 62
7
  6
CONTINUOUS
 10
542.0579364807
 20
31.8094310465
 11
542.2313739807
 21
31.7449047044
 12
541.2485612601
 22
31.7449047044
 13
541.2485612601
 23
31.7449047044
  0
SOLID
  8
0
 62
7
  6
CONTINUOUS
 10
542.2313739807
 20
31.7449047044
 11
541.6532492012
 21
31.7126400953
 12
541.2485612601
 22
31.7449047044
 13
541.2485612601
 23
31.7449047044
  0
SOLID
  8
0
 62
7
  6
CONTINUOUS
 10
541.1329367012
 20
31.6803773299
 11
541.2485612601
 21
31.7449047044
 12
541.6532492012
 22
31.7126400953
 13
541.6532492012
 23
31.7126400953
  0
SOLID
  8
0
 62
7
  6
CONTINUOUS
 10
541.6532492012
 20
31.7126400953
 11
541.4219987601
 21
31.6803773299
 12
541.1329367012
 22
31.6803773299
 13
541.1329367012
 23
31.6803773299
  0
SOLID
  8
0
 62
7
  6
CONTINUOUS
 10
541.6532492012
 20
31.7126400953
 11
542.2313739807
 21
31.7449047044
 12
541.8844989807
 22
31.6803773299
 13
541.8844989807
 23
31.6803773299
  0
SOLID
  8
0
 62
7
  6
CONTINUOUS
 10
542.2313739807
 20
31.7449047044
 11
542.3469992012
 21
31.6803773299
 12
541.8844989807
 22
31.6803773299
 13
541.8844989807
 23
31.6803773299
  0
SOLID
  8
0
 62
7
  6
CONTINUOUS
 10
542.0001242012
 20
31.6481130052
 11
541.8844989807
 21
31.6803773299
 12
542.3469992012
 22
31.6803773299
 13
542.3469992012
 23
31.6803773299
  0
SOLID
  8
0
 62
7
  6
CONTINUOUS
 10
542.0001242012
 20
31.6481130052
 11
542.3469992012
 21
31.6803773299
 12
542.1157487601
 22
31.5835862682
 13
542.1157487601
 23
31.5835862682
  0
SOLID
  8
0
 62
7
  6
CONTINUOUS
 10
542.3469992012
 20
31.6803773299
 11
542.4048114807
 21
31.5835862682
 12
542.1157487601
 22
31.5835862682
 13
542.1157487601
 23
31.5835862682
  0
SOLID
  8
0
 62
7
  6
CONTINUOUS
 10
542.1735617012
 20
31.422267832
 11
542.1157487601
 21
31.5835862682
 12
542.4048114807
 22
31.5835862682
 13
542.4048114807
 23
31.5835862682
  0
SOLID
  8
0
 62
7
  6
CONTINUOUS
 10
542.4048114807
 20
31.5835862682
 11
542.4626237601
 21
31.422267832
 12
542.1735617012
 22
31.422267832
 13
542.1735617012
 23
31.422267832
  0
SOLID
  8
0
 62
7
  6
CONTINUOUS
 10
541.4219987601
 20
31.6803773299
 11
541.2485612601
 21
31.6158502183
 12
541.1329367012
 22
31.6803773299
 13
541.1329367012
 23
31.6803773299
  0
SOLID
  8
0
 62
7
  6
CONTINUOUS
 10
541.2485612601
 20
31.6158502183
 11
541.1329367012
 21
31.5513216117
 12
541.1329367012
 22
31.6803773299
 13
541.1329367012
 23
31.6803773299
  0
SOLID
  8
0
 62
7
  6
CONTINUOUS
 10
541.1329367012
 20
31.5513216117
 11
540.8438739807
 21
30.8092577743
 12
541.1329367012
 22
31.6803773299
 13
541.1329367012
 23
31.6803773299
  0
SOLID
  8
0
 62
7
  6
CONTINUOUS
 10
541.1329367012
 20
31.6803773299
 11
540.8438739807
 21
30.8092577743
 12
541.1329367012
 22
31.8416957661
 13
541.1329367012
 23
31.8416957661
  0
SOLID
  8
0
 62
7
  6
CONTINUOUS
 10
540.8438739807
 20
30.8092577743
 11
540.8438739807
 21
31.8416957661
 12
541.1329367012
 22
31.8416957661
 13
541.1329367012
 23
31.8416957661
  0
SOLID
  8
0
 62
7
  6
CONTINUOUS
 10
541.1329367012
 20
31.5513216117
 11
541.1329367012
 21
30.8092577743
 12
540.8438739807
 22
30.8092577743
 13
540.8438739807
 23
30.8092577743
  0
SOLID
  8
0
 62
7
  6
CONTINUOUS
 10
542.1735617012
 20
30.8092577743
 11
542.1735617012
 21
31.422267832
 12
542.4626237601
 22
31.422267832
 13
542.4626237601
 23
31.422267832
  0
SOLID
  8
0
 62
7
  6
CONTINUOUS
 10
542.4626237601
 20
31.422267832
 11
542.4626237601
 21
30.8092577743
 12
542.1735617012
 22
30.8092577743
 13
542.1735617012
 23
30.8092577743
  0
SOLID
  8
0
 62
7
  6
CONTINUOUS
 10
543.2719989807
 20
31.8094314924
 11
543.6188739807
 21
31.8416958387
 12
543.9657489807
 22
31.8416958387
 13
543.9657489807
 23
31.8416958387
  0
SOLID
  8
0
 62
7
  6
CONTINUOUS
 10
543.9657489807
 20
31.8416958387
 11
544.3126239807
 21
31.8094314924
 12
543.2719989807
 22
31.8094314924
 13
543.2719989807
 23
31.8094314924
  0
SOLID
  8
0
 62
7
  6
CONTINUOUS
 10
543.0407492012
 20
31.7449043986
 11
543.2719989807
 21
31.8094314924
 12
544.3126239807
 22
31.8094314924
 13
544.3126239807
 23
31.8094314924
  0
SOLID
  8
0
 62
7
  6
CONTINUOUS
 10
543.0407492012
 20
31.7449043986
 11
544.3126239807
 21
31.8094314888
 12
544.4860614807
 22
31.7771687019
 13
544.4860614807
 23
31.7771687019
  0
SOLID
  8
0
 62
7
  6
CONTINUOUS
 10
543.0407492012
 20
31.7449043986
 11
544.4860614807
 21
31.7771687019
 12
543.6188739807
 22
31.7126401399
 13
543.6188739807
 23
31.7126401399
  0
SOLID
  8
0
 62
7
  6
CONTINUOUS
 10
543.6188739807
 20
31.7126401399
 11
544.4860614807
 21
31.7771687019
 12
543.9657489807
 22
31.7126401399
 13
543.9657489807
 23
31.7126401399
  0
SOLID
  8
0
 62
7
  6
CONTINUOUS
 10
544.4860614807
 20
31.7771687019
 11
544.6594989807
 21
31.7126401399
 12
543.9657489807
 22
31.7126401399
 13
543.9657489807
 23
31.7126401399
  0
SOLID
  8
0
 62
7
  6
CONTINUOUS
 10
544.3126239807
 20
31.6803773084
 11
543.9657489807
 21
31.7126401399
 12
544.6594989807
 22
31.7126401399
 13
544.6594989807
 23
31.7126401399
  0
SOLID
  8
0
 62
7
  6
CONTINUOUS
 10
542.9251239807
 20
31.6481128977
 11
543.0407492012
 21
31.7449043986
 12
543.6188739807
 22
31.7126401399
 13
543.6188739807
 23
31.7126401399
  0
SOLID
  8
0
 62
7
  6
CONTINUOUS
 10
544.3126239807
 20
31.6803773084
 11
544.6594989807
 21
31.7126401399
 12
544.4282492012
 22
31.6481128977
 13
544.4282492012
 23
31.6481128977
  0
SOLID
  8
0
 62
7
  6
CONTINUOUS
 10
544.4282492012
 20
31.6481128977
 11
544.6594989807
 21
31.7126401399
 12
544.4860614807
 22
31.5835858812
 13
544.4860614807
 23
31.5835858812
  0
SOLID
  8
0
 62
7
  6
CONTINUOUS
 10
544.6594989807
 20
31.7126401399
 11
544.7751235396
 21
31.5835858812
 12
544.4860614807
 22
31.5835858812
 13
544.4860614807
 23
31.5835858812
  0
SOLID
  8
0
 62
7
  6
CONTINUOUS
 10
534.0798114807
 20
31.6803773084
 11
533.5594989807
 21
31.6481129264
 12
534.3110615082
 22
31.7126401456
 13
534.3110615082
 23
31.7126401456
  0
SOLID
  8
0
 62
7
  6
CONTINUOUS
 10
533.5594989807
 20
31.6481129264
 11
533.6751239738
 21
31.7126401456
 12
534.3110615082
 22
31.7126401456
 13
534.3110615082
 23
31.7126401456
  0
SOLID
  8
0
 62
7
  6
CONTINUOUS
 10
534.0798114807
 20
31.6803773084
 11
533.9641864669
 21
31.6481129264
 12
533.5594989807
 22
31.6481129264
 13
533.5594989807
 23
31.6481129264
  0
SOLID
  8
0
 62
7
  6
CONTINUOUS
 10
533.4438739824
 20
31.5190588248
 11
533.5594989807
 21
31.6481129264
 12
533.9641864669
 22
31.6481129264
 13
533.9641864669
 23
31.6481129264
  0
SOLID
  8
0
 62
7
  6
CONTINUOUS
 10
537.7798115909
 20
31.6481130555
 11
538.4735615909
 21
31.7126400953
 12
538.2423114807
 22
31.6803773084
 13
538.2423114807
 23
31.6803773084
  0
SOLID
  8
0
 62
7
  6
CONTINUOUS
 10
538.2423114807
 20
31.6803773084
 11
538.1266865909
 21
31.6481130555
 12
537.7798115909
 22
31.6481130555
 13
537.7798115909
 23
31.6481130555
  0
SOLID
  8
0
 62
7
  6
CONTINUOUS
 10
537.7798115909
 20
31.5835859653
 11
537.7798115909
 21
31.6481130555
 12
538.1266865909
 22
31.6481130555
 13
538.1266865909
 23
31.6481130555
  0
SOLID
  8
0
 62
7
  6
CONTINUOUS
 10
538.1266865909
 20
31.6481130555
 11
538.0688739807
 21
31.5835859653
 12
537.7798115909
 22
31.5835859653
 13
537.7798115909
 23
31.5835859653
  0
SOLID
  8
0
 62
7
  6
CONTINUOUS
 10
542.9251239807
 20
31.6481130555
 11
543.6188739807
 21
31.7126400953
 12
543.3876242012
 22
31.6803773084
 13
543.3876242012
 23
31.6803773084
  0
SOLID
  8
0
 62
7
  6
CONTINUOUS
 10
543.3876242012
 20
31.6803773084
 11
543.2719989807
 21
31.6481130555
 12
542.9251239807
 22
31.6481130555
 13
542.9251239807
 23
31.6481130555
  0
SOLID
  8
0
 62
7
  6
CONTINUOUS
 10
542.9251239807
 20
31.5835859653
 11
542.9251239807
 21
31.6481130555
 12
543.2719989807
 22
31.6481130555
 13
543.2719989807
 23
31.6481130555
  0
SOLID
  8
0
 62
7
  6
CONTINUOUS
 10
543.2719989807
 20
31.6481130555
 11
543.2141867012
 21
31.5835859653
 12
542.9251239807
 22
31.5835859653
 13
542.9251239807
 23
31.5835859653
  0
SOLID
  8
0
 62
7
  6
CONTINUOUS
 10
543.0407492012
 20
31.4545317347
 11
542.9251239807
 21
31.5835859653
 12
543.2141867012
 22
31.5835859653
 13
543.2141867012
 23
31.5835859653
  0
SOLID
  8
0
 62
7
  6
CONTINUOUS
 10
533.4438739824
 20
31.5190588248
 11
533.9641864669
 21
31.6481130052
 12
533.7907489669
 22
31.5513216117
 13
533.7907489669
 23
31.5513216117
  0
SOLID
  8
0
 62
7
  6
CONTINUOUS
 10
533.7907489669
 20
31.5513216117
 11
533.7329364807
 21
31.4867945216
 12
533.4438739824
 22
31.5190588248
 13
533.4438739824
 23
31.5190588248
  0
SOLID
  8
0
 62
7
  6
CONTINUOUS
 10
533.3860614807
 20
31.325476038
 11
533.4438739824
 21
31.5190588248
 12
533.7329364807
 22
31.4867945216
 13
533.7329364807
 23
31.4867945216
  0
SOLID
  8
0
 62
7
  6
CONTINUOUS
 10
538.2423114807
 20
31.4545317347
 11
538.5891864807
 21
31.4867945557
 12
539.2251242012
 22
31.4867945557
 13
539.2251242012
 23
31.4867945557
  0
SOLID
  8
0
 62
7
  6
CONTINUOUS
 10
538.2423114807
 20
31.4545317347
 11
539.2251242012
 21
31.4867945557
 12
538.0110613704
 22
31.3900038345
 13
538.0110613704
 23
31.3900038345
  0
SOLID
  8
0
 62
7
  6
CONTINUOUS
 10
538.0110613704
 20
31.3900038345
 11
539.2251242012
 21
31.4867945557
 12
538.5891864807
 22
31.3577403754
 13
538.5891864807
 23
31.3577403754
  0
SOLID
  8
0
 62
7
  6
CONTINUOUS
 10
539.2251242012
 20
31.4867945557
 11
539.2251242012
 21
31.3577403754
 12
538.5891864807
 22
31.3577403754
 13
538.5891864807
 23
31.3577403754
  0
SOLID
  8
0
 62
7
  6
CONTINUOUS
 10
543.0407492012
 20
31.4545313481
 11
543.2141867012
 21
31.583585915
 12
543.2719989807
 22
31.5190588248
 13
543.2719989807
 23
31.5190588248
  0
SOLID
  8
0
 62
7
  6
CONTINUOUS
 10
543.2719989807
 20
31.5190588248
 11
543.4454364807
 21
31.4545313481
 12
543.0407492012
 22
31.4545313481
 13
543.0407492012
 23
31.4545313481
  0
SOLID
  8
0
 62
7
  6
CONTINUOUS
 10
543.2719989807
 20
31.3577403412
 11
543.0407492012
 21
31.4545313481
 12
543.4454364807
 22
31.4545313481
 13
543.4454364807
 23
31.4545313481
  0
SOLID
  8
0
 62
7
  6
CONTINUOUS
 10
543.4454364807
 20
31.4545313481
 11
544.4282492012
 21
31.2932132511
 12
543.2719989807
 22
31.3577403412
 13
543.2719989807
 23
31.3577403412
  0
SOLID
  8
0
 62
7
  6
CONTINUOUS
 10
544.2548117012
 20
31.1964222346
 11
543.2719989807
 21
31.3577403412
 12
544.4282492012
 22
31.2932132511
 13
544.4282492012
 23
31.2932132511
  0
SOLID
  8
0
 62
7
  6
CONTINUOUS
 10
544.4282492012
 20
31.2932132511
 11
544.6594989807
 21
31.1964222346
 12
544.2548117012
 22
31.1964222346
 13
544.2548117012
 23
31.1964222346
  0
SOLID
  8
0
 62
7
  6
CONTINUOUS
 10
544.4282492012
 20
31.1318947675
 11
544.2548117012
 21
31.1964222346
 12
544.6594989807
 22
31.1964222346
 13
544.6594989807
 23
31.1964222346
  0
SOLID
  8
0
 62
7
  6
CONTINUOUS
 10
544.4282492012
 20
31.1318947675
 11
544.6594989807
 21
31.1964222346
 12
544.4860614807
 22
31.0673665164
 13
544.4860614807
 23
31.0673665164
  0
SOLID
  8
0
 62
7
  6
CONTINUOUS
 10
544.6594989807
 20
31.1964222346
 11
544.7751235396
 21
31.0673665164
 12
544.4860614807
 22
31.0673665164
 13
544.4860614807
 23
31.0673665164
  0
SOLID
  8
0
 62
7
  6
CONTINUOUS
 10
544.4282492012
 20
31.0028394316
 11
544.4860614807
 21
31.0673665164
 12
544.7751235396
 22
31.0673665164
 13
544.7751235396
 23
31.0673665164
  0
SOLID
  8
0
 62
7
  6
CONTINUOUS
 10
544.7751235396
 20
31.0673665164
 11
544.7751235396
 21
31.0028394316
 12
544.4282492012
 22
31.0028394316
 13
544.4282492012
 23
31.0028394316
  0
SOLID
  8
0
 62
7
  6
CONTINUOUS
 10
544.3126239807
 20
30.9705762839
 11
544.4282492012
 21
31.0028394316
 12
544.7751235396
 22
31.0028394316
 13
544.7751235396
 23
31.0028394316
  0
SOLID
  8
0
 62
7
  6
CONTINUOUS
 10
544.3126239807
 20
30.9705762839
 11
544.7751235396
 21
31.0028394316
 12
544.0813742012
 22
30.9383123468
 13
544.0813742012
 23
30.9383123468
  0
SOLID
  8
0
 62
7
  6
CONTINUOUS
 10
544.7751235396
 20
31.0028394316
 11
544.6594989807
 21
30.9060491937
 12
544.0813742012
 22
30.9383123468
 13
544.0813742012
 23
30.9383123468
  0
SOLID
  8
0
 62
7
  6
CONTINUOUS
 10
544.6594989807
 20
30.9060491937
 11
543.2141867012
 21
30.8737848904
 12
544.0813742012
 22
30.9383123468
 13
544.0813742012
 23
30.9383123468
  0
SOLID
  8
0
 62
7
  6
CONTINUOUS
 10
544.0813742012
 20
30.9383123468
 11
543.2141867012
 21
30.8737848904
 12
543.7344992012
 22
30.9383123468
 13
543.7344992012
 23
30.9383123468
  0
SOLID
  8
0
 62
7
  6
CONTINUOUS
 10
543.2141867012
 20
30.8737848904
 11
543.0407492012
 21
30.9383123468
 12
543.7344992012
 22
30.9383123468
 13
543.7344992012
 23
30.9383123468
  0
SOLID
  8
0
 62
7
  6
CONTINUOUS
 10
543.2141867012
 20
30.8737848904
 11
544.6594989807
 21
30.9060491937
 12
543.3876242012
 22
30.8415205581
 13
543.3876242012
 23
30.8415205581
  0
SOLID
  8
0
 62
7
  6
CONTINUOUS
 10
544.6594989807
 20
30.9060491937
 11
544.4282492012
 21
30.8415205581
 12
543.3876242012
 22
30.8415205581
 13
543.3876242012
 23
30.8415205581
  0
SOLID
  8
0
 62
7
  6
CONTINUOUS
 10
543.7344992012
 20
30.8092581772
 11
543.3876242012
 21
30.8415205581
 12
544.4282492012
 22
30.8415205581
 13
544.4282492012
 23
30.8415205581
  0
SOLID
  8
0
 62
7
  6
CONTINUOUS
 10
544.4282492012
 20
30.8415205581
 11
544.0813742012
 21
30.8092581772
 12
543.7344992012
 22
30.8092581772
 13
543.7344992012
 23
30.8092581772
  0
SOLID
  8
0
 62
7
  6
CONTINUOUS
 10
533.3860614807
 20
31.325476038
 11
533.7329364807
 21
31.4867945216
 12
533.6751239738
 22
31.3577403412
 13
533.6751239738
 23
31.3577403412
  0
SOLID
  8
0
 62
7
  6
CONTINUOUS
 10
533.6751239738
 20
31.3577403412
 11
533.6751239738
 21
31.2609490436
 12
533.3860614807
 22
31.325476038
 13
533.3860614807
 23
31.325476038
  0
SOLID
  8
0
 62
7
  6
CONTINUOUS
 10
533.4438739824
 20
31.1318947675
 11
533.3860614807
 21
31.325476038
 12
533.6751239738
 22
31.2609490436
 13
533.6751239738
 23
31.2609490436
  0
SOLID
  8
0
 62
7
  6
CONTINUOUS
 10
533.6751239738
 20
31.2609490436
 11
533.7907489669
 21
31.0996304642
 12
533.4438739824
 22
31.1318947675
 13
533.4438739824
 23
31.1318947675
  0
SOLID
  8
0
 62
7
  6
CONTINUOUS
 10
533.5594989807
 20
31.0028388804
 11
533.4438739824
 21
31.1318947675
 12
533.7907489669
 22
31.0996304642
 13
533.7907489669
 23
31.0996304642
  0
SOLID
  8
0
 62
7
  6
CONTINUOUS
 10
533.7907489669
 20
31.0996304642
 11
533.9641864669
 21
31.0028388804
 12
533.5594989807
 22
31.0028388804
 13
533.5594989807
 23
31.0028388804
  0
SOLID
  8
0
 62
7
  6
CONTINUOUS
 10
533.6751239738
 20
30.9383122606
 11
533.5594989807
 21
31.0028388804
 12
533.9641864669
 22
31.0028388804
 13
533.9641864669
 23
31.0028388804
  0
SOLID
  8
0
 62
7
  6
CONTINUOUS
 10
533.9641864669
 20
31.0028388804
 11
534.3110615082
 21
30.9383122606
 12
533.6751239738
 22
30.9383122606
 13
533.6751239738
 23
30.9383122606
  0
SOLID
  8
0
 62
7
  6
CONTINUOUS
 10
533.8485614944
 20
30.8737848904
 11
533.6751239738
 21
30.9383122606
 12
534.3110615082
 22
30.9383122606
 13
534.3110615082
 23
30.9383122606
  0
SOLID
  8
0
 62
7
  6
CONTINUOUS
 10
537.8954364807
 20
31.3254759532
 11
538.0110613704
 21
31.3900038345
 12
538.5891864807
 22
31.3577403412
 13
538.5891864807
 23
31.3577403412
  0
SOLID
  8
0
 62
7
  6
CONTINUOUS
 10
538.5891864807
 20
31.3577403412
 11
538.3579363704
 21
31.3254759532
 12
537.8954364807
 22
31.3254759532
 13
537.8954364807
 23
31.3254759532
  0
SOLID
  8
0
 62
7
  6
CONTINUOUS
 10
537.7798115909
 20
31.1964218576
 11
537.8954364807
 21
31.3254759532
 12
538.3579363704
 22
31.3254759532
 13
538.3579363704
 23
31.3254759532
  0
SOLID
  8
0
 62
7
  6
CONTINUOUS
 10
538.1266865909
 20
31.2286853572
 11
537.7798115909
 21
31.1964218576
 12
538.2423114807
 22
31.2932132511
 13
538.2423114807
 23
31.2932132511
  0
SOLID
  8
0
 62
7
  6
CONTINUOUS
 10
537.7798115909
 20
31.1964218576
 11
538.3579363704
 21
31.325476038
 12
538.2423114807
 22
31.2932132511
 13
538.2423114807
 23
31.2932132511
  0
SOLID
  8
0
 62
7
  6
CONTINUOUS
 10
538.1266865909
 20
31.2286853572
 11
538.0688739807
 21
31.1318947675
 12
537.7798115909
 22
31.1964218576
 13
537.7798115909
 23
31.1964218576
  0
SOLID
  8
0
 62
7
  6
CONTINUOUS
 10
537.7798115909
 20
31.0996304642
 11
537.7798115909
 21
31.1964218576
 12
538.0688739807
 22
31.1318947675
 13
538.0688739807
 23
31.1318947675
  0
SOLID
  8
0
 62
7
  6
CONTINUOUS
 10
538.0688739807
 20
31.1318947675
 11
538.0688739807
 21
31.0673661609
 12
537.7798115909
 22
31.0996304642
 13
537.7798115909
 23
31.0996304642
  0
SOLID
  8
0
 62
7
  6
CONTINUOUS
 10
537.8376238704
 20
30.9705762839
 11
537.7798115909
 21
31.0996304642
 12
538.0688739807
 22
31.0673661609
 13
538.0688739807
 23
31.0673661609
  0
SOLID
  8
0
 62
7
  6
CONTINUOUS
 10
539.2251242012
 20
31.1641579843
 11
539.5141862601
 21
31.0673661609
 12
539.1673112601
 22
31.0996304642
 13
539.1673112601
 23
31.0996304642
  0
SOLID
  8
0
 62
7
  6
CONTINUOUS
 10
538.9938737601
 20
31.0028390707
 11
539.1673112601
 21
31.0996304642
 12
539.5141862601
 22
31.0673661609
 13
539.5141862601
 23
31.0673661609
  0
SOLID
  8
0
 62
7
  6
CONTINUOUS
 10
538.9938737601
 20
31.0028390707
 11
539.5141862601
 21
31.0673661609
 12
539.2251242012
 22
30.9705762839
 13
539.2251242012
 23
30.9705762839
  0
SOLID
  8
0
 62
7
  6
CONTINUOUS
 10
539.5141862601
 20
31.0673661609
 11
539.5719992012
 21
30.9060491937
 12
539.2251242012
 22
30.9705762839
 13
539.2251242012
 23
30.9705762839
  0
SOLID
  8
0
 62
7
  6
CONTINUOUS
 10
539.2829364807
 20
30.8737848904
 11
539.2251242012
 21
30.9705762839
 12
539.5719992012
 22
30.9060491937
 13
539.5719992012
 23
30.9060491937
  0
SOLID
  8
0
 62
7
  6
CONTINUOUS
 10
539.2829364807
 20
30.8737848904
 11
539.5719992012
 21
30.9060491937
 12
539.3407487601
 22
30.8092576254
 13
539.3407487601
 23
30.8092576254
  0
SOLID
  8
0
 62
7
  6
CONTINUOUS
 10
539.5719992012
 20
30.9060491937
 11
539.6298114807
 21
30.8092576254
 12
539.3407487601
 22
30.8092576254
 13
539.3407487601
 23
30.8092576254
  0
SOLID
  8
0
 62
7
  6
CONTINUOUS
 10
534.8891865358
 20
31.035103216
 11
534.9469989807
 21
31.1318946289
 12
535.2360615358
 22
31.1318946289
 13
535.2360615358
 23
31.1318946289
  0
SOLID
  8
0
 62
7
  6
CONTINUOUS
 10
535.2360615358
 20
31.1318946289
 11
535.1782489255
 21
31.0028390707
 12
534.8891865358
 22
31.035103216
 13
534.8891865358
 23
31.035103216
  0
SOLID
  8
0
 62
7
  6
CONTINUOUS
 10
534.7157489531
 20
30.9705762839
 11
534.8891865358
 21
31.035103216
 12
535.1782489255
 22
31.0028390707
 13
535.1782489255
 23
31.0028390707
  0
SOLID
  8
0
 62
7
  6
CONTINUOUS
 10
534.7157489531
 20
30.9705762839
 11
535.1782489255
 21
31.0028390707
 12
534.3110615082
 22
30.9383119806
 13
534.3110615082
 23
30.9383119806
  0
SOLID
  8
0
 62
7
  6
CONTINUOUS
 10
535.1782489255
 20
31.0028390707
 11
535.0048114255
 21
30.9060491937
 12
534.3110615082
 22
30.9383119806
 13
534.3110615082
 23
30.9383119806
  0
SOLID
  8
0
 62
7
  6
CONTINUOUS
 10
533.8485614944
 20
30.8737848904
 11
534.3110615082
 21
30.9383119806
 12
535.0048114255
 22
30.9060491937
 13
535.0048114255
 23
30.9060491937
  0
SOLID
  8
0
 62
7
  6
CONTINUOUS
 10
533.8485614944
 20
30.8737848904
 11
535.0048114255
 21
30.9060491937
 12
534.0219989944
 22
30.8415207131
 13
534.0219989944
 23
30.8415207131
  0
SOLID
  8
0
 62
7
  6
CONTINUOUS
 10
535.0048114255
 20
30.9060491937
 11
534.7735614807
 21
30.8415207131
 12
534.0219989944
 22
30.8415207131
 13
534.0219989944
 23
30.8415207131
  0
SOLID
  8
0
 62
7
  6
CONTINUOUS
 10
534.3688739531
 20
30.8092578002
 11
534.0219989944
 21
30.8415207131
 12
534.7735614807
 22
30.8415207131
 13
534.7735614807
 23
30.8415207131
  0
SOLID
  8
0
 62
7
  6
CONTINUOUS
 10
537.8376238704
 20
30.9705762839
 11
538.0688739807
 21
31.0673661609
 12
538.1266865909
 22
31.0028390707
 13
538.1266865909
 23
31.0028390707
  0
SOLID
  8
0
 62
7
  6
CONTINUOUS
 10
538.1266865909
 20
31.0028390707
 11
538.3579363704
 21
30.9383119806
 12
537.8376238704
 22
30.9705762839
 13
537.8376238704
 23
30.9705762839
  0
SOLID
  8
0
 62
7
  6
CONTINUOUS
 10
538.0110613704
 20
30.8737848904
 11
537.8376238704
 21
30.9705762839
 12
538.3579363704
 22
30.9383119806
 13
538.3579363704
 23
30.9383119806
  0
SOLID
  8
0
 62
7
  6
CONTINUOUS
 10
538.7048113704
 20
30.9383119664
 11
538.9938737601
 21
31.0028390707
 12
539.2251242012
 22
30.9705762839
 13
539.2251242012
 23
30.9705762839
  0
SOLID
  8
0
 62
7
  6
CONTINUOUS
 10
539.2251242012
 20
30.9705762839
 11
539.1673112601
 21
30.9060491937
 12
538.7048113704
 22
30.9383119664
 13
538.7048113704
 23
30.9383119664
  0
SOLID
  8
0
 62
7
  6
CONTINUOUS
 10
539.1673112601
 20
30.9060491937
 11
538.0110613704
 21
30.8737848904
 12
538.7048113704
 22
30.9383119664
 13
538.7048113704
 23
30.9383119664
  0
SOLID
  8
0
 62
7
  6
CONTINUOUS
 10
538.0110613704
 20
30.8737848904
 11
538.3579363704
 21
30.9383119664
 12
538.7048113704
 22
30.9383119664
 13
538.7048113704
 23
30.9383119664
  0
SOLID
  8
0
 62
7
  6
CONTINUOUS
 10
538.0110613704
 20
30.8737848904
 11
539.1673112601
 21
30.9060491937
 12
538.1266865909
 22
30.8415205568
 13
538.1266865909
 23
30.8415205568
  0
SOLID
  8
0
 62
7
  6
CONTINUOUS
 10
539.1673112601
 20
30.9060491937
 11
538.9938737601
 21
30.8415205568
 12
538.1266865909
 22
30.8415205568
 13
538.1266865909
 23
30.8415205568
  0
SOLID
  8
0
 62
7
  6
CONTINUOUS
 10
538.3579363704
 20
30.8092577215
 11
538.1266865909
 21
30.8415205568
 12
538.9938737601
 22
30.8415205568
 13
538.9938737601
 23
30.8415205568
  0
SOLID
  8
0
 62
7
  6
CONTINUOUS
 10
538.9938737601
 20
30.8415205568
 11
538.7048113704
 21
30.8092577215
 12
538.3579363704
 22
30.8092577215
 13
538.3579363704
 23
30.8092577215
  0
SOLID
  8
0
 62
7
  6
CONTINUOUS
 10
543.3876242012
 20
30.9705762839
 11
543.0407492012
 21
30.9383119664
 12
543.2719989807
 22
31.0028390707
 13
543.2719989807
 23
31.0028390707
  0
SOLID
  8
0
 62
7
  6
CONTINUOUS
 10
543.2719989807
 20
31.0028390707
 11
543.0407492012
 21
30.9383119664
 12
543.2141867012
 22
31.0673661467
 13
543.2141867012
 23
31.0673661467
  0
SOLID
  8
0
 62
7
  6
CONTINUOUS
 10
543.0407492012
 20
30.9383119664
 11
542.9251239807
 21
31.0673661467
 12
543.2141867012
 22
31.0673661467
 13
543.2141867012
 23
31.0673661467
  0
SOLID
  8
0
 62
7
  6
CONTINUOUS
 10
543.3876242012
 20
30.9705762839
 11
543.7344992012
 21
30.9383119664
 12
543.0407492012
 22
30.9383119664
 13
543.0407492012
 23
30.9383119664
  0
SOLID
  8
0
 62
7
  6
CONTINUOUS
 10
540.0923117012
 20
30.8092578002
 11
540.0923117012
 21
31.841695792
 12
540.3813737601
 22
30.8092578002
 13
540.3813737601
 23
31.841695792
  0
ENDBLK
  8
0
  6
BYBLOCK
 62
0
  0
BLOCK
  8
0
 62
2
  6
CONTINUOUS
  2
SYMBOL_2_BL0
 70
64
 10
416.1419631151
 20
19.7009994242
  0
TEXT
  8
0
 62
7
  6
CONTINUOUS
 10
402.4066669574
 20
19.0744135318
  7
TEXTSTYLE_3
 40
2.7338706658
  1
Ammeraal Beltech
 41
1.0
 51
15.0
 72
0
  0
TEXT
  8
0
 62
7
  6
CONTINUOUS
 10
413.2074677831
 20
16.800876859
  7
TEXTSTYLE_4
 40
1.0935482663
  1
Innovation & Service in Belting
 41
1.0
 72
0
  0
LINE
  8
0
 62
7
  6
CONTINUOUS
 10
396.382126306
 20
19.8410068404
 11
397.1602782994
 21
23.5019241381
  0
LINE
  8
0
 62
7
  6
CONTINUOUS
 10
407.2554465892
 20
27.1653180497
 11
397.6480960424
 21
24.0437006284
  0
LINE
  8
0
 62
7
  6
CONTINUOUS
 10
396.6074096383
 20
19.1476560374
 11
404.1144848995
 21
12.3882551114
  0
LINE
  8
0
 62
7
  6
CONTINUOUS
 10
396.869944049
 20
20.3827833308
 11
407.6782134142
 21
23.8946029297
  0
LINE
  8
0
 62
7
  6
CONTINUOUS
 10
407.674008277
 20
13.544814366
 11
399.2285486083
 21
21.1491404077
  0
LINE
  8
0
 62
7
  6
CONTINUOUS
 10
408.1938309968
 20
26.320392934
 11
407.2172714596
 21
21.7260415315
  0
LINE
  8
0
 62
7
  6
CONTINUOUS
 10
406.5174695119
 20
18.4337322177
 11
405.8310213004
 21
15.2042472933
  0
LINE
  8
0
 62
7
  6
CONTINUOUS
 10
408.8749270954
 20
13.9350165436
 11
409.831158631
 21
18.4337322177
  0
LINE
  8
0
 62
7
  6
CONTINUOUS
 10
410.5309605787
 20
21.7260415315
 11
410.9752023811
 21
23.8160348909
  0
LINE
  8
0
 62
7
  6
CONTINUOUS
 10
404.8275859748
 20
12.2366807987
 11
408.3871093524
 21
13.3932400533
  0
LINE
  8
0
 62
7
  6
CONTINUOUS
 10
407.9685476645
 20
27.013743737
 11
410.7499190488
 21
24.5093856939
  0
ARC
  8
0
 62
7
  6
CONTINUOUS
 10
397.8733793747
 20
23.3503498254
 40
0.7290321776
 50
108.0
 51
168.0
  0
ARC
  8
0
 62
7
  6
CONTINUOUS
 10
407.4807299215
 20
26.4719672466
 40
0.7290321776
 50
348.0
 51
108.0
  0
ARC
  8
0
 62
7
  6
CONTINUOUS
 10
410.2621013058
 20
23.9676092036
 40
0.7290321776
 50
348.0
 51
48.0
  0
ARC
  8
0
 62
7
  6
CONTINUOUS
 10
404.6023026425
 20
12.9300316018
 40
0.7290321776
 50
228.0
 51
288.0
  0
ARC
  8
0
 62
7
  6
CONTINUOUS
 10
397.0952273813
 20
19.6894325277
 40
0.7290321776
 50
108.0
 51
228.0
  0
ARC
  8
0
 62
7
  6
CONTINUOUS
 10
408.1618260201
 20
14.0865908563
 40
0.7290321776
 50
228.0
 51
348.0
  0
ENDBLK
  8
0
  6
BYBLOCK
 62
0
  0
ENDSEC
  0
SECTION
  2
ENTITIES
  0
TEXT
  8
0
 62
5
  6
CONTINUOUS
 10
480.0
 20
25.636
  7
TEXTSTYLE_2
 40
2.8
  1
Scale :
 41
0.6
 51
0.000019
 72
0
  0
TEXT
  8
0
 62
5
  6
CONTINUOUS
 10
500.0
 20
25.636
  7
TEXTSTYLE_2
 40
2.8
  1
Belt type:
 41
0.6
 51
0.000019
 72
0
  0
INSERT
  8
0
 62
2
  6
CONTINUOUS
  2
SYMBOL_2_BL0
 10
416.1419631151
 20
19.7009994242
  0
INSERT
  8
0
 62
2
  6
CONTINUOUS
  2
SYMBOL_3_BL1
 10
557.4079930916
 20
35.8092573885
  0
LINE
  8
0
 62
2
  6
CONTINUOUS
 10
394.0
 20
30.0
 11
584.0
 21
30.0
  0
LINE
  8
0
 62
2
  6
CONTINUOUS
 10
394.0
 20
30.0
 11
394.0
 21
10.0
  0
LINE
  8
0
 62
2
  6
CONTINUOUS
 10
394.0
 20
10.0
 11
584.0
 21
10.0
  0
LINE
  8
0
 62
2
  6
CONTINUOUS
 10
479.0
 20
30.0
 11
479.0
 21
10.0
  0
LINE
  8
0
 62
2
  6
CONTINUOUS
 10
499.0
 20
30.0
 11
499.0
 21
10.0
  0
LINE
  8
0
 62
2
  6
CONTINUOUS
 10
584.0
 20
30.0
 11
584.0
 21
10.0
  0
TEXT
  8
0
 62
5
  6
CONTINUOUS
 10
397.0
 20
23.303
  7
TEXTSTYLE_5
 40
1.52
  1
                                                                     Ammeraal Beltech Modular A/S
 41
1.0
 72
0
  0
TEXT
  8
0
 62
5
  6
CONTINUOUS
 10
397.0
 20
20.595
  7
TEXTSTYLE_5
 40
1.5
  1
                                                                      Hjulmagervej 21, 7100 Vejle,  DK
 41
1.0
 72
0
  0
TEXT
  8
0
 62
5
  6
CONTINUOUS
 10
397.0
 20
17.881
  7
TEXTSTYLE_5
 40
1.495
  1
                                                                      tel: 
 41
1.0
 72
0
  0
TEXT
  8
0
 62
5
  6
CONTINUOUS
 10
441.9869465649
 20
17.881
  7
TEXTSTYLE_5
 40
1.51
  1
+45 75723100     fax: +45 75723348
 41
1.0
 72
0
  0
TEXT
  8
0
 62
5
  6
CONTINUOUS
 10
397.0
 20
15.177
  7
TEXTSTYLE_5
 40
1.5
  1
                                                                      admin@unichains.dk  www.unichains.com
 41
1.0
 72
0
  0
TEXT
  8
0
 62
5
  6
CONTINUOUS
 10
483.75
 20
13.75
  7
TEXTSTYLE_6
 40
5.0
  1
1:1
 41
0.7
 72
1
 11
489.0
 21
13.75
  0
TEXT
  8
0
 62
5
  6
CONTINUOUS
 10
502.0
 20
13.75
  7
TEXTSTYLE_7
 40
7.5
  1
Sprocket Z15
 41
0.6361111111
 72
0
  0
LINE
  8
0
 62
7
  6
CONTINUOUS
 10
0.0
 20
0.0
 11
0.0
 21
420.0
  0
LINE
  8
0
 62
7
  6
CONTINUOUS
 10
10.0
 20
10.0
 11
10.0
 21
410.0
  0
LINE
  8
0
 62
7
  6
CONTINUOUS
 10
0.0
 20
0.0
 11
594.0
 21
0.0
  0
LINE
  8
0
 62
7
  6
CONTINUOUS
 10
10.0
 20
10.0
 11
584.0
 21
10.0
  0
LINE
  8
0
 62
7
  6
CONTINUOUS
 10
394.0
 20
30.0
 11
584.0
 21
30.0
  0
LINE
  8
0
 62
7
  6
CONTINUOUS
 10
179.0
 20
5.0
 11
179.0
 21
10.0
  0
LINE
  8
0
 62
7
  6
CONTINUOUS
 10
179.0
 20
410.0
 11
179.0
 21
415.0
  0
LINE
  8
0
 62
7
  6
CONTINUOUS
 10
594.0
 20
420.0
 11
584.0
 21
410.0
  0
LINE
  8
0
 62
7
  6
CONTINUOUS
 10
384.0
 20
410.0
 11
384.0
 21
415.0
  0
LINE
  8
0
 62
7
  6
CONTINUOUS
 10
584.0
 20
297.0
 11
589.0
 21
297.0
  0
LINE
  8
0
 62
7
  6
CONTINUOUS
 10
10.0
 20
410.0
 11
584.0
 21
410.0
  0
LINE
  8
0
 62
7
  6
CONTINUOUS
 10
0.0
 20
420.0
 11
594.0
 21
420.0
  0
LINE
  8
0
 62
7
  6
CONTINUOUS
 10
584.0
 20
10.0
 11
584.0
 21
410.0
  0
LINE
  8
0
 62
7
  6
CONTINUOUS
 10
594.0
 20
0.0
 11
594.0
 21
420.0
  0
LINE
  8
0
 62
9
  6
CONTINUOUS
 10
51.7964934314
 20
187.483777363
 11
51.779041025
 21
188.4836250582
  0
LINE
  8
0
 62
9
  6
CONTINUOUS
 10
53.7931514737
 20
187.5186291588
 11
53.7756990673
 21
188.518476854
  0
LINE
  8
0
 62
9
  6
CONTINUOUS
 10
51.4566908241
 20
250.4184327613
 11
51.8474219525
 21
251.3389376147
  0
LINE
  8
0
 62
9
  6
CONTINUOUS
 10
53.2949042115
 20
249.6381574715
 11
53.68563534
 21
250.5586623249
  0
LINE
  8
0
 62
9
  6
CONTINUOUS
 10
76.7440961654
 20
308.0503115004
 11
77.4754498671
 21
308.7323098605
  0
LINE
  8
0
 62
9
  6
CONTINUOUS
 10
78.1060211037
 20
306.5898258113
 11
78.8373748053
 21
307.2718241713
  0
LINE
  8
0
 62
9
  6
CONTINUOUS
 10
123.2862873431
 20
350.4143381773
 11
124.2318059187
 21
350.7399063318
  0
LINE
  8
0
 62
9
  6
CONTINUOUS
 10
123.9364346376
 20
348.5261733326
 11
124.8819532132
 21
348.851741487
  0
LINE
  8
0
 62
9
  6
CONTINUOUS
 10
247.215477481
 20
76.0610347682
 11
246.2229313293
 21
75.9391654248
  0
LINE
  8
0
 62
9
  6
CONTINUOUS
 10
246.9721090102
 20
78.0431119042
 11
245.9795628585
 21
77.9212425608
  0
LINE
  8
0
 62
9
  6
CONTINUOUS
 10
184.6611037544
 20
69.14463082
 11
183.7047989984
 21
69.4370025247
  0
LINE
  8
0
 62
9
  6
CONTINUOUS
 10
185.2449589939
 20
71.0543352592
 11
184.288654238
 21
71.3467069639
  0
LINE
  8
0
 62
9
  6
CONTINUOUS
 10
124.7016848567
 20
88.2693373892
 11
123.9469752765
 21
88.9253964182
  0
LINE
  8
0
 62
9
  6
CONTINUOUS
 10
126.0118099316
 20
89.7764638849
 11
125.2571003513
 21
90.4325229139
  0
LINE
  8
0
 62
9
  6
CONTINUOUS
 10
77.7047490296
 20
130.1283189675
 11
77.2821307679
 21
131.0346267546
  0
LINE
  8
0
 62
9
  6
CONTINUOUS
 10
79.5146114122
 20
130.9722716567
 11
79.0919931505
 21
131.8785794438
  0
LINE
  8
0
 62
9
  6
CONTINUOUS
 10
63.540152509
 20
202.1748359615
 11
63.6446809722
 21
201.1803140661
  0
LINE
  8
0
 62
9
  6
CONTINUOUS
 10
64.0374134566
 20
202.2271001931
 11
64.1419419199
 21
201.2325782978
  0
LINE
  8
0
 62
7
  6
CONTINUOUS
 10
68.6799770938
 20
177.1896022139
 11
69.0217137689
 21
173.9381949405
  0
LINE
  8
0
 62
7
  6
CONTINUOUS
 10
65.8174003208
 20
204.4252009104
 11
62.3517657147
 21
237.3985116187
  0
LINE
  8
0
 62
9
  6
CONTINUOUS
 10
66.8119222162
 20
204.5297293737
 11
63.34628761
 21
237.503040082
  0
LINE
  8
0
 62
9
  6
CONTINUOUS
 10
68.160449088
 20
259.0628061412
 11
67.8514320937
 21
258.1117496249
  0
LINE
  8
0
 62
9
  6
CONTINUOUS
 10
68.6359773462
 20
258.908297644
 11
68.3269603518
 21
257.9572411277
  0
LINE
  8
0
 62
7
  6
CONTINUOUS
 10
62.6935023897
 20
234.1471043453
 11
61.6832278972
 21
231.0377991717
  0
LINE
  8
0
 62
7
  6
CONTINUOUS
 10
71.1561243675
 20
260.1923766879
 11
81.4015633238
 21
291.7245954947
  0
LINE
  8
0
 62
9
  6
CONTINUOUS
 10
72.1071808838
 20
259.8833596935
 11
82.3526198401
 21
291.4155785003
  0
LINE
  8
0
 62
9
  6
CONTINUOUS
 10
95.5197220631
 20
309.1533089728
 11
94.8505914567
 21
308.4101641473
  0
LINE
  8
0
 62
9
  6
CONTINUOUS
 10
95.8912944758
 20
308.8187436696
 11
95.2221638695
 21
308.0755988441
  0
LINE
  8
0
 62
7
  6
CONTINUOUS
 10
80.3912888313
 20
288.6152903211
 11
78.2036888091
 21
286.1857143591
  0
LINE
  8
0
 62
7
  6
CONTINUOUS
 10
98.7158453395
 20
308.9667721078
 11
120.9008283858
 21
333.6056919203
  0
LINE
  8
0
 62
9
  6
CONTINUOUS
 10
99.458990165
 20
308.2976415015
 11
121.6439732113
 21
332.936561314
  0
LINE
  8
0
 62
9
  6
CONTINUOUS
 10
140.8873045856
 20
343.7852414587
 11
139.9737591279
 21
343.3785048157
  0
LINE
  8
0
 62
9
  6
CONTINUOUS
 10
141.0906729071
 20
343.3284687299
 11
140.1771274495
 21
342.9217320869
  0
LINE
  8
0
 62
7
  6
CONTINUOUS
 10
118.7132283636
 20
331.1761159582
 11
115.7265587293
 21
329.8463649635
  0
LINE
  8
0
 62
7
  6
CONTINUOUS
 10
143.7312371086
 20
342.3148511008
 11
174.0197791319
 21
355.8001788458
  0
LINE
  8
0
 62
9
  6
CONTINUOUS
 10
144.1379737516
 20
341.4013056432
 11
174.426515775
 21
354.8866333881
  0
LINE
  8
0
 62
9
  6
CONTINUOUS
 10
231.3773514022
 20
86.2047270735
 11
232.3554990029
 21
86.4126387643
  0
LINE
  8
0
 62
9
  6
CONTINUOUS
 10
231.2733955568
 20
86.6938008739
 11
232.2515431575
 21
86.9017125647
  0
LINE
  8
0
 62
7
  6
CONTINUOUS
 10
228.9012769737
 20
88.2342726937
 11
196.4708549711
 21
81.3409736993
  0
LINE
  8
0
 62
7
  6
CONTINUOUS
 10
255.6884554597
 20
93.9280632495
 11
258.8863299744
 21
94.607792461
  0
LINE
  8
0
 62
9
  6
CONTINUOUS
 10
228.6933652828
 20
89.2124202944
 11
196.2629432803
 21
82.3191213001
  0
LINE
  8
0
 62
9
  6
CONTINUOUS
 10
174.3180669741
 20
84.8533010832
 11
175.2962145749
 21
84.6453893924
  0
LINE
  8
0
 62
9
  6
CONTINUOUS
 10
174.4220228196
 20
85.3423748835
 11
175.4001704203
 21
85.1344631927
  0
LINE
  8
0
 62
7
  6
CONTINUOUS
 10
172.8815509997
 20
87.7144934666
 11
140.4511289972
 21
94.607792461
  0
LINE
  8
0
 62
7
  6
CONTINUOUS
 10
199.6687294858
 20
82.0207029108
 11
202.8666040005
 21
81.3409736993
  0
LINE
  8
0
 62
9
  6
CONTINUOUS
 10
173.0894626905
 20
88.6926410674
 11
140.659040688
 21
95.5859400618
  0
LINE
  8
0
 62
9
  6
CONTINUOUS
 10
121.6421423979
 20
106.8268138129
 11
122.4511593923
 21
106.2390285607
  0
LINE
  8
0
 62
9
  6
CONTINUOUS
 10
121.9360350241
 20
107.2313223101
 11
122.7450520184
 21
106.6435370578
  0
LINE
  8
0
 62
7
  6
CONTINUOUS
 10
121.4935715399
 20
110.0249268035
 11
94.6706641227
 21
129.5129097668
  0
LINE
  8
0
 62
7
  6
CONTINUOUS
 10
143.6490035118
 20
93.9280632495
 11
146.2939364712
 21
92.0064069709
  0
LINE
  8
0
 62
9
  6
CONTINUOUS
 10
122.0813567922
 20
110.8339437978
 11
95.258449375
 21
130.3219267612
  0
LINE
  8
0
 62
9
  6
CONTINUOUS
 10
82.4577235785
 20
148.3258452887
 11
82.9577235785
 21
147.4598198849
  0
LINE
  8
0
 62
9
  6
CONTINUOUS
 10
82.8907362804
 20
148.5758452887
 11
83.3907362804
 21
147.7098198849
  0
LINE
  8
0
 62
7
  6
CONTINUOUS
 10
97.315597082
 20
127.5912534881
 11
98.9502555489
 21
124.7599419706
  0
LINE
  8
0
 62
7
  6
CONTINUOUS
 10
83.6227870879
 20
151.3078960963
 11
67.045318627
 21
180.0209137315
  0
LINE
  8
0
 62
9
  6
CONTINUOUS
 10
84.4888124917
 20
151.8078960963
 11
67.9113440308
 21
180.5209137315
  0
LINE
  8
0
 62
7
  6
CONTINUOUS
 10
105.3034995185
 20
265.4603108897
 11
105.1703483003
 21
264.7852646804
  0
LINE
  8
0
 62
7
  6
CONTINUOUS
 10
105.7849718984
 20
264.4923551818
 11
105.918123157
 21
265.1674013719
  0
LINE
  8
0
 62
7
  6
CONTINUOUS
 10
103.9167238354
 20
272.7613443621
 11
103.7427359759
 21
272.0956526378
  0
LINE
  8
0
 62
7
  6
CONTINUOUS
 10
104.3383937955
 20
271.7658802579
 11
104.512381655
 21
272.4315719822
  0
LINE
  8
0
 62
7
  6
CONTINUOUS
 10
101.8718083718
 20
268.9419974551
 11
101.5132992703
 21
268.189723613
  0
LINE
  8
0
 62
7
  6
CONTINUOUS
 10
100.0792631978
 20
265.1806289441
 11
99.7207541732
 21
264.4283552634
  0
LINE
  8
0
 62
7
  6
CONTINUOUS
 10
105.1703483003
 20
264.7852646804
 11
104.8835410396
 21
264.1834456498
  0
LINE
  8
0
 62
7
  6
CONTINUOUS
 10
105.4981646377
 20
263.8905361512
 11
105.7849718984
 21
264.4923551818
  0
LINE
  8
0
 62
7
  6
CONTINUOUS
 10
106.573691737
 20
266.147357247
 11
106.9322008385
 21
266.8996310891
  0
LINE
  8
0
 62
7
  6
CONTINUOUS
 10
126.279611393
 20
300.0410111435
 11
126.0321561439
 21
299.5743867994
  0
LINE
  8
0
 62
7
  6
CONTINUOUS
 10
128.7293527379
 20
297.4380149958
 11
128.4818974888
 21
296.9713906517
  0
LINE
  8
0
 62
7
  6
CONTINUOUS
 10
104.2396261499
 20
273.3445929914
 11
103.9167238354
 21
272.7613443621
  0
LINE
  8
0
 62
7
  6
CONTINUOUS
 10
103.1901939744
 20
271.4490355718
 11
102.7865661968
 21
270.7199749937
  0
LINE
  8
0
 62
7
  6
CONTINUOUS
 10
107.5518291708
 20
268.0817957237
 11
107.9554569484
 21
268.8108563018
  0
LINE
  8
0
 62
7
  6
CONTINUOUS
 10
109.4085166705
 20
271.4354738823
 11
109.8121442171
 21
272.1645340432
  0
LINE
  8
0
 62
7
  6
CONTINUOUS
 10
104.1038550565
 20
278.1587182412
 11
103.6719209729
 21
277.4460634426
  0
LINE
  8
0
 62
7
  6
CONTINUOUS
 10
104.3997388304
 20
277.0049391563
 11
104.8316729141
 21
277.7175939549
  0
LINE
  8
0
 62
7
  6
CONTINUOUS
 10
106.287309037
 20
276.8353451353
 11
105.8553749533
 21
276.1226903367
  0
LINE
  8
0
 62
7
  6
CONTINUOUS
 10
110.5134096494
 20
273.2994946575
 11
110.945343733
 21
274.0121494561
  0
LINE
  8
0
 62
7
  6
CONTINUOUS
 10
129.0604555886
 20
296.1134551441
 11
129.5506496263
 21
296.8085267336
  0
LINE
  8
0
 62
7
  6
CONTINUOUS
 10
114.0003146486
 20
291.9725422501
 11
113.3787896466
 21
291.1891479229
  0
LINE
  8
0
 62
7
  6
CONTINUOUS
 10
110.4783400324
 20
287.5333082274
 11
109.8568150304
 21
286.7499139002
  0
LINE
  8
0
 62
7
  6
CONTINUOUS
 10
116.123969648
 20
281.7777138842
 11
116.74549465
 21
282.5611082114
  0
LINE
  8
0
 62
7
  6
CONTINUOUS
 10
119.6459442642
 20
286.2169479069
 11
120.2674692662
 21
287.0003422341
  0
LINE
  8
0
 62
7
  6
CONTINUOUS
 10
105.0577015288
 20
263.3619446028
 11
105.4981646377
 21
263.8905361512
  0
LINE
  8
0
 62
7
  6
CONTINUOUS
 10
115.9387109205
 20
294.1633567494
 11
115.2611760148
 21
293.4278661298
  0
LINE
  8
0
 62
7
  6
CONTINUOUS
 10
124.4591697594
 20
293.1124797396
 11
121.0714965233
 21
289.4350280442
  0
LINE
  8
0
 62
7
  6
CONTINUOUS
 10
121.1451009719
 20
288.0075868843
 11
125.2103091137
 21
292.4205291994
  0
LINE
  8
0
 62
7
  6
CONTINUOUS
 10
104.512381655
 20
272.4315719822
 11
104.9841984244
 21
272.9323775166
  0
LINE
  8
0
 62
7
  6
CONTINUOUS
 10
123.577701045
 20
301.9392085388
 11
120.6648243477
 21
299.197831267
  0
LINE
  8
0
 62
7
  6
CONTINUOUS
 10
122.0929695506
 20
299.1394624743
 11
124.398995084
 21
301.3097177382
  0
LINE
  8
0
 62
7
  6
CONTINUOUS
 10
126.0321561439
 20
299.5743867994
 11
123.7261306105
 21
297.4041315355
  0
LINE
  8
0
 62
7
  6
CONTINUOUS
 10
124.426056639
 20
296.6604184248
 11
126.7320821725
 21
298.8306736888
  0
LINE
  8
0
 62
7
  6
CONTINUOUS
 10
128.4818974888
 20
296.9713906517
 11
126.1758719554
 21
294.8011353878
  0
LINE
  8
0
 62
7
  6
CONTINUOUS
 10
126.1475788913
 20
293.3720778724
 11
129.0604555886
 21
296.1134551441
  0
LINE
  8
0
 62
7
  6
CONTINUOUS
 10
156.1101165703
 20
319.4258393664
 11
155.7253401024
 21
319.0640114397
  0
LINE
  8
0
 62
7
  6
CONTINUOUS
 10
157.5889922677
 20
316.1716500244
 11
157.2042157998
 21
315.8098220977
  0
LINE
  8
0
 62
7
  6
CONTINUOUS
 10
147.0275752193
 20
314.1573142646
 11
147.5320238978
 21
314.6252298159
  0
LINE
  8
0
 62
7
  6
CONTINUOUS
 10
150.5407812592
 20
312.5797031121
 11
150.0363325807
 21
312.1117875607
  0
LINE
  8
0
 62
7
  6
CONTINUOUS
 10
104.6307172251
 20
273.6995861599
 11
104.2396261499
 21
273.3445929914
  0
LINE
  8
0
 62
7
  6
CONTINUOUS
 10
147.125597818
 20
315.3729779763
 11
146.4747106386
 21
314.8254682126
  0
LINE
  8
0
 62
7
  6
CONTINUOUS
 10
150.4427587174
 20
311.3640392956
 11
151.0936458898
 21
311.9115490724
  0
LINE
  8
0
 62
7
  6
CONTINUOUS
 10
163.4052353687
 20
322.3052883614
 11
162.9953882581
 21
321.9721251511
  0
LINE
  8
0
 62
7
  6
CONTINUOUS
 10
164.6457934333
 20
318.9529999952
 11
164.2359463226
 21
318.6198367849
  0
LINE
  8
0
 62
7
  6
CONTINUOUS
 10
157.4750209979
 20
314.811099236
 11
158.1632589046
 21
315.3108361018
  0
LINE
  8
0
 62
7
  6
CONTINUOUS
 10
138.8375222434
 20
313.8497122695
 11
133.3490030186
 21
310.0654597336
  0
LINE
  8
0
 62
7
  6
CONTINUOUS
 10
133.8320992137
 20
309.3647975212
 11
138.6345543205
 21
312.6760190314
  0
LINE
  8
0
 62
7
  6
CONTINUOUS
 10
142.7989115169
 20
308.1042814404
 11
138.1336704899
 21
304.8876670014
  0
LINE
  8
0
 62
7
  6
CONTINUOUS
 10
137.8901077939
 20
303.4792341514
 11
143.3786270187
 21
307.2634866873
  0
LINE
  8
0
 62
7
  6
CONTINUOUS
 10
164.4340867754
 20
317.6041974932
 11
165.1565433097
 21
318.0530459168
  0
LINE
  8
0
 62
7
  6
CONTINUOUS
 10
124.3012037691
 20
302.3863757472
 11
123.577701045
 21
301.9392085388
  0
LINE
  8
0
 62
7
  6
CONTINUOUS
 10
142.0622060323
 20
315.8050396904
 11
141.2092359245
 21
315.2830799264
  0
LINE
  8
0
 62
7
  6
CONTINUOUS
 10
145.384914036
 20
308.4593190639
 11
146.2378841438
 21
308.9812788278
  0
LINE
  8
0
 62
7
  6
CONTINUOUS
 10
148.5259932966
 20
319.4275648115
 11
143.5472384362
 21
316.7214453891
  0
LINE
  8
0
 62
7
  6
CONTINUOUS
 10
144.6858369113
 20
316.3716573603
 11
148.9324193764
 21
318.6798166511
  0
LINE
  8
0
 62
7
  6
CONTINUOUS
 10
148.0042020112
 20
315.8505286769
 11
147.125597818
 21
315.3729779763
  0
LINE
  8
0
 62
7
  6
CONTINUOUS
 10
147.5320238978
 20
314.6252298159
 11
148.410628091
 21
315.1027805165
  0
LINE
  8
0
 62
7
  6
CONTINUOUS
 10
145.6606542785
 20
312.833154536
 11
146.6856902695
 21
313.3902958056
  0
LINE
  8
0
 62
7
  6
CONTINUOUS
 10
147.2708255291
 20
311.9647583385
 11
146.3922213359
 21
311.4872076378
  0
LINE
  8
0
 62
7
  6
CONTINUOUS
 10
150.0363325807
 20
312.1117875607
 11
149.1577283875
 21
311.6342368601
  0
LINE
  8
0
 62
7
  6
CONTINUOUS
 10
149.5641545242
 20
310.8864885949
 11
150.4427587174
 21
311.3640392956
  0
LINE
  8
0
 62
7
  6
CONTINUOUS
 10
124.398995084
 20
301.3097177382
 11
124.8797590092
 21
301.5284377121
  0
LINE
  8
0
 62
7
  6
CONTINUOUS
 10
126.7320821725
 20
298.8306736888
 11
127.2128460977
 21
299.0493936626
  0
LINE
  8
0
 62
7
  6
CONTINUOUS
 10
154.1651562785
 20
322.0942850457
 11
150.5235633736
 21
320.4393526859
  0
LINE
  8
0
 62
7
  6
CONTINUOUS
 10
151.8564974711
 20
319.9233174855
 11
154.7394228722
 21
321.2334712181
  0
LINE
  8
0
 62
7
  6
CONTINUOUS
 10
155.7253401024
 20
319.0640114397
 11
152.8424147013
 21
317.7538577071
  0
LINE
  8
0
 62
7
  6
CONTINUOUS
 10
153.2649505726
 20
316.8240894167
 11
156.1478759737
 21
318.1342431493
  0
LINE
  8
0
 62
7
  6
CONTINUOUS
 10
157.2042157998
 20
315.8098220977
 11
154.3212903987
 21
314.4996683651
  0
LINE
  8
0
 62
7
  6
CONTINUOUS
 10
153.8334280931
 20
313.1561668762
 11
157.4750209979
 21
314.811099236
  0
LINE
  8
0
 62
7
  6
CONTINUOUS
 10
161.6575996254
 20
325.1069382661
 11
157.906229239
 21
323.7186946911
  0
LINE
  8
0
 62
7
  6
CONTINUOUS
 10
159.1985169614
 20
323.1079590047
 11
162.1683494656
 21
324.2069842856
  0
LINE
  8
0
 62
7
  6
CONTINUOUS
 10
162.9953882581
 20
321.9721251511
 11
160.0255557538
 21
320.8730998702
  0
LINE
  8
0
 62
7
  6
CONTINUOUS
 10
160.3800008797
 20
319.91530329
 11
163.3498333839
 21
321.0143285709
  0
LINE
  8
0
 62
7
  6
CONTINUOUS
 10
164.2359463226
 20
318.6198367849
 11
161.2661138184
 21
317.520811504
  0
LINE
  8
0
 62
7
  6
CONTINUOUS
 10
160.6827163889
 20
316.2159539182
 11
164.4340867754
 21
317.6041974932
  0
LINE
  8
0
 62
7
  6
CONTINUOUS
 10
148.8176596226
 20
316.0989391765
 11
148.0042020112
 21
315.8505286769
  0
LINE
  8
0
 62
7
  6
CONTINUOUS
 10
148.7506969057
 20
310.6380781085
 11
149.5641545242
 21
310.8864885949
  0
LINE
  8
0
 62
7
  6
CONTINUOUS
 10
103.7427359759
 20
272.0956526378
 11
103.7983884963
 21
271.4933306016
  0
LINE
  8
0
 62
7
  6
CONTINUOUS
 10
104.3940463159
 20
271.1635582217
 11
104.3383937955
 21
271.7658802579
  0
LINE
  8
0
 62
7
  6
CONTINUOUS
 10
105.918123157
 20
265.1674013719
 11
105.907870939
 21
265.5415383695
  0
LINE
  8
0
 62
7
  6
CONTINUOUS
 10
127.1103383325
 20
299.887874562
 11
127.2364255712
 21
300.240276596
  0
LINE
  8
0
 62
7
  6
CONTINUOUS
 10
146.6856902695
 20
313.3902958056
 11
147.0275752193
 21
314.1573142646
  0
LINE
  8
0
 62
7
  6
CONTINUOUS
 10
150.8175129239
 20
313.1175777265
 11
150.5407812592
 21
312.5797031121
  0
LINE
  8
0
 62
7
  6
CONTINUOUS
 10
146.4747106386
 20
314.8254682126
 11
145.9864005942
 21
313.9788628281
  0
LINE
  8
0
 62
7
  6
CONTINUOUS
 10
151.0936458898
 20
311.9115490724
 11
151.5819559128
 21
312.7581544962
  0
LINE
  8
0
 62
7
  6
CONTINUOUS
 10
156.8470062643
 20
319.0128603844
 11
157.0800520097
 21
319.3057338483
  0
LINE
  8
0
 62
7
  6
CONTINUOUS
 10
164.1104534176
 20
321.8402877548
 11
164.3639958139
 21
322.1156083653
  0
LINE
  8
0
 62
7
  6
CONTINUOUS
 10
104.8835410396
 20
264.1834456498
 11
104.2894220042
 21
263.7280814889
  0
LINE
  8
0
 62
7
  6
CONTINUOUS
 10
104.9841984244
 20
272.9323775166
 11
105.2945638055
 21
273.1415583191
  0
LINE
  8
0
 62
7
  6
CONTINUOUS
 10
104.5352842708
 20
263.0570350855
 11
105.0577015288
 21
263.3619446028
  0
LINE
  8
0
 62
7
  6
CONTINUOUS
 10
105.1707227553
 20
273.9721362334
 11
104.6307172251
 21
273.6995861599
  0
LINE
  8
0
 62
7
  6
CONTINUOUS
 10
127.4697342473
 20
299.9923722258
 11
127.1103383325
 21
299.887874562
  0
LINE
  8
0
 62
7
  6
CONTINUOUS
 10
105.2112931662
 20
266.0581298454
 11
105.3034995185
 21
265.4603108897
  0
LINE
  8
0
 62
7
  6
CONTINUOUS
 10
126.2890442936
 20
300.5173653626
 11
126.279611393
 21
300.0410111435
  0
LINE
  8
0
 62
7
  6
CONTINUOUS
 10
128.7387855568
 20
297.9143693017
 11
128.7293527379
 21
297.4380149958
  0
LINE
  8
0
 62
7
  6
CONTINUOUS
 10
141.2092359245
 20
315.2830799264
 11
140.9781752485
 21
313.7448154743
  0
LINE
  8
0
 62
7
  6
CONTINUOUS
 10
141.6889291338
 20
312.5833239954
 11
141.9199895609
 21
314.1215888542
  0
LINE
  8
0
 62
7
  6
CONTINUOUS
 10
129.5506496263
 20
296.8085267336
 11
129.6861669569
 21
297.6372804049
  0
LINE
  8
0
 62
7
  6
CONTINUOUS
 10
138.1336704899
 20
304.8876670014
 11
139.5138569165
 21
312.8687851721
  0
LINE
  8
0
 62
7
  6
CONTINUOUS
 10
138.6345543205
 20
312.6760190314
 11
137.1171538141
 21
304.6002937895
  0
LINE
  8
0
 62
7
  6
CONTINUOUS
 10
132.2779426928
 20
246.6004259122
 11
132.39077891
 21
247.1946964762
  0
LINE
  8
0
 62
7
  6
CONTINUOUS
 10
131.6711347901
 20
247.6786382233
 11
131.4429549133
 21
246.7283068262
  0
LINE
  8
0
 62
7
  6
CONTINUOUS
 10
156.2727396706
 20
319.873674212
 11
156.1101165703
 21
319.4258393664
  0
LINE
  8
0
 62
7
  6
CONTINUOUS
 10
157.7516153186
 20
316.6194849785
 11
157.5889922677
 21
316.1716500244
  0
LINE
  8
0
 62
7
  6
CONTINUOUS
 10
163.5997035774
 20
322.7402417353
 11
163.4052353687
 21
322.3052883614
  0
LINE
  8
0
 62
7
  6
CONTINUOUS
 10
164.8402616005
 20
319.3879534809
 11
164.6457934333
 21
318.9529999952
  0
LINE
  8
0
 62
7
  6
CONTINUOUS
 10
132.39077891
 20
247.1946964762
 11
132.6239736296
 21
247.6686083692
  0
LINE
  8
0
 62
7
  6
CONTINUOUS
 10
158.1632589046
 20
315.3108361018
 11
158.5589277318
 21
316.051544452
  0
LINE
  8
0
 62
7
  6
CONTINUOUS
 10
165.1565433097
 20
318.0530459168
 11
165.6045538991
 21
318.7633199432
  0
LINE
  8
0
 62
7
  6
CONTINUOUS
 10
132.1400318825
 20
248.3882524891
 11
131.6711347901
 21
247.6786382233
  0
LINE
  8
0
 62
7
  6
CONTINUOUS
 10
137.679034777
 20
253.9272553836
 11
137.0922865825
 21
253.0997900157
  0
LINE
  8
0
 62
7
  6
CONTINUOUS
 10
171.2691154638
 20
287.276618897
 11
170.5594994278
 21
286.8077200344
  0
LINE
  8
0
 62
7
  6
CONTINUOUS
 10
165.6122612143
 20
281.6197646475
 11
164.9026451783
 21
281.1508657849
  0
LINE
  8
0
 62
7
  6
CONTINUOUS
 10
171.281650948
 20
286.0855685142
 11
171.8734149547
 21
286.4366153474
  0
LINE
  8
0
 62
7
  6
CONTINUOUS
 10
103.8592111517
 20
262.8253530237
 11
104.5352842708
 21
263.0570350855
  0
LINE
  8
0
 62
7
  6
CONTINUOUS
 10
171.9812353597
 20
287.5073044461
 11
171.2691154638
 21
287.276618897
  0
LINE
  8
0
 62
7
  6
CONTINUOUS
 10
105.907870939
 20
265.5415383695
 11
105.6620085174
 21
266.2125845166
  0
LINE
  8
0
 62
7
  6
CONTINUOUS
 10
103.7983884963
 20
271.4933306016
 11
103.9347662489
 21
271.036820097
  0
LINE
  8
0
 62
7
  6
CONTINUOUS
 10
104.5304240685
 20
270.7070477171
 11
104.3940463159
 21
271.1635582217
  0
LINE
  8
0
 62
9
  6
CONTINUOUS
 10
124.9850860749
 20
353.0562141453
 11
125.0812052846
 21
352.0608443158
  0
LINE
  8
0
 62
7
  6
CONTINUOUS
 10
136.8641069164
 20
252.1494588294
 11
136.8716292859
 21
251.4348296787
  0
LINE
  8
0
 62
7
  6
CONTINUOUS
 10
150.8665275179
 20
313.7254115089
 11
150.8175129239
 21
313.1175777265
  0
LINE
  8
0
 62
7
  6
CONTINUOUS
 10
151.5819559128
 20
312.7581544962
 11
151.6961171171
 21
313.5951284272
  0
LINE
  8
0
 62
7
  6
CONTINUOUS
 10
136.2021346895
 20
247.1545768068
 11
136.0892984723
 21
246.5603062428
  0
LINE
  8
0
 62
7
  6
CONTINUOUS
 10
137.6990946538
 20
252.0215778732
 11
137.811930871
 21
252.6158484372
  0
LINE
  8
0
 62
7
  6
CONTINUOUS
 10
136.8089424237
 20
246.076364327
 11
137.034614858
 21
247.2649054551
  0
LINE
  8
0
 62
7
  6
CONTINUOUS
 10
138.2482309164
 20
245.1084805799
 11
138.1353946992
 21
244.5142100159
  0
LINE
  8
0
 62
7
  6
CONTINUOUS
 10
143.3158297397
 20
250.1760794032
 11
143.2029935225
 21
249.5818088392
  0
LINE
  8
0
 62
7
  6
CONTINUOUS
 10
148.3056963716
 20
262.628179591
 11
148.4185325888
 21
263.222450155
  0
LINE
  8
0
 62
7
  6
CONTINUOUS
 10
157.0800520097
 20
319.3057338483
 11
157.253560542
 21
320.1324459202
  0
LINE
  8
0
 62
7
  6
CONTINUOUS
 10
158.5589277318
 20
316.051544452
 11
158.7324362394
 21
316.8782565782
  0
LINE
  8
0
 62
7
  6
CONTINUOUS
 10
137.0922865825
 20
253.0997900157
 11
136.8641069164
 21
252.1494588294
  0
LINE
  8
0
 62
7
  6
CONTINUOUS
 10
138.8550387243
 20
244.0302680264
 11
139.083218696
 21
244.9805995815
  0
LINE
  8
0
 62
7
  6
CONTINUOUS
 10
143.9226372104
 20
249.0978665125
 11
144.1508175192
 21
250.0481984048
  0
LINE
  8
0
 62
7
  6
CONTINUOUS
 10
147.6988889746
 20
263.7063924078
 11
147.4707086342
 21
262.7560605472
  0
LINE
  8
0
 62
7
  6
CONTINUOUS
 10
153.1200405142
 20
269.1275439474
 11
152.8918601737
 21
268.1772120867
  0
LINE
  8
0
 62
7
  6
CONTINUOUS
 10
164.3639958139
 20
322.1156083653
 11
164.5966203617
 21
322.9276698657
  0
LINE
  8
0
 62
7
  6
CONTINUOUS
 10
165.6045538991
 20
318.7633199432
 11
165.8371784262
 21
319.5753814995
  0
LINE
  8
0
 62
9
  6
CONTINUOUS
 10
185.6621743075
 20
371.9078978112
 11
185.3451301919
 21
370.9594870201
  0
LINE
  8
0
 62
7
  6
CONTINUOUS
 10
136.0892984723
 20
246.5603062428
 11
135.8561036685
 21
246.0863942655
  0
LINE
  8
0
 62
7
  6
CONTINUOUS
 10
138.1353946992
 20
244.5142100159
 11
137.9021998953
 21
244.0402980386
  0
LINE
  8
0
 62
7
  6
CONTINUOUS
 10
148.4185325888
 20
263.222450155
 11
148.6517273927
 21
263.6963621323
  0
LINE
  8
0
 62
7
  6
CONTINUOUS
 10
152.1170517297
 20
262.5880595001
 11
151.8838569258
 21
262.1141475228
  0
LINE
  8
0
 62
7
  6
CONTINUOUS
 10
154.1631479565
 20
260.5419632732
 11
153.9299531526
 21
260.0680512959
  0
LINE
  8
0
 62
7
  6
CONTINUOUS
 10
164.8023471428
 20
279.3655475355
 11
165.0355419467
 21
279.8394595128
  0
LINE
  8
0
 62
7
  6
CONTINUOUS
 10
164.3133904264
 20
280.5616110331
 11
163.9623435932
 21
279.9698470264
  0
LINE
  8
0
 62
7
  6
CONTINUOUS
 10
169.9877959724
 20
284.5509963651
 11
170.3388428056
 21
285.1427603717
  0
LINE
  8
0
 62
7
  6
CONTINUOUS
 10
137.811930871
 20
252.6158484372
 11
138.2808277105
 21
253.3254624501
  0
LINE
  8
0
 62
7
  6
CONTINUOUS
 10
148.1677851398
 20
264.4160057464
 11
147.6988889746
 21
263.7063924078
  0
LINE
  8
0
 62
7
  6
CONTINUOUS
 10
136.3400455842
 20
245.366749977
 11
136.8089424237
 21
246.076364327
  0
LINE
  8
0
 62
7
  6
CONTINUOUS
 10
153.839685477
 20
268.6436030432
 11
154.3085816422
 21
269.3532163817
  0
LINE
  8
0
 62
7
  6
CONTINUOUS
 10
138.3861417267
 20
243.3206538344
 11
138.8550387243
 21
244.0302680264
  0
LINE
  8
0
 62
7
  6
CONTINUOUS
 10
143.2029935225
 20
249.5818088392
 11
142.7340960086
 21
248.8721941519
  0
LINE
  8
0
 62
7
  6
CONTINUOUS
 10
152.3677993473
 20
261.39450374
 11
152.8366966925
 21
262.1041185959
  0
LINE
  8
0
 62
7
  6
CONTINUOUS
 10
169.6166912853
 20
285.864911892
 11
169.1477951202
 21
285.1552985534
  0
LINE
  8
0
 62
7
  6
CONTINUOUS
 10
154.4138954898
 20
259.3484075975
 11
154.8827929932
 21
260.0580222953
  0
LINE
  8
0
 62
7
  6
CONTINUOUS
 10
159.2307461055
 20
265.6095614222
 11
158.7618499403
 21
264.8999480836
  0
LINE
  8
0
 62
7
  6
CONTINUOUS
 10
153.7067887087
 20
269.9550093153
 11
153.1200405142
 21
269.1275439474
  0
LINE
  8
0
 62
7
  6
CONTINUOUS
 10
143.3358890265
 20
248.2704011341
 11
143.9226372104
 21
249.0978665125
  0
LINE
  8
0
 62
7
  6
CONTINUOUS
 10
159.3636429581
 20
264.2981550658
 11
159.9503911421
 21
265.1256204442
  0
LINE
  8
0
 62
9
  6
CONTINUOUS
 10
248.761123176
 20
364.4501726138
 11
248.0857355428
 21
363.7127097029
  0
LINE
  8
0
 62
7
  6
CONTINUOUS
 10
170.5594994278
 20
286.8077200344
 11
169.6166912853
 21
285.864911892
  0
LINE
  8
0
 62
7
  6
CONTINUOUS
 10
164.9026451783
 20
281.1508657849
 11
164.3133904264
 21
280.5616110331
  0
LINE
  8
0
 62
7
  6
CONTINUOUS
 10
148.7570412403
 20
265.005261847
 11
148.1677851398
 21
264.4160057464
  0
LINE
  8
0
 62
7
  6
CONTINUOUS
 10
145.4572100444
 20
261.705430651
 11
144.7501032632
 21
260.9983238698
  0
LINE
  8
0
 62
7
  6
CONTINUOUS
 10
141.4502713929
 20
257.6984919995
 11
140.7431646117
 21
256.9913852183
  0
LINE
  8
0
 62
7
  6
CONTINUOUS
 10
132.7292874773
 20
248.9775080839
 11
132.1400318825
 21
248.3882524891
  0
LINE
  8
0
 62
7
  6
CONTINUOUS
 10
132.6239736296
 20
247.6686083692
 11
133.4489315972
 21
248.4935663367
  0
LINE
  8
0
 62
7
  6
CONTINUOUS
 10
148.6517273927
 20
263.6963621323
 11
149.4766848545
 21
264.5213195941
  0
LINE
  8
0
 62
7
  6
CONTINUOUS
 10
165.0355419467
 20
279.8394595128
 11
165.7426487279
 21
280.546566294
  0
LINE
  8
0
 62
7
  6
CONTINUOUS
 10
170.3388428056
 20
285.1427603717
 11
171.281650948
 21
286.0855685142
  0
LINE
  8
0
 62
7
  6
CONTINUOUS
 10
167.0515484426
 20
280.6518801417
 11
167.7586552238
 21
281.3589869229
  0
LINE
  8
0
 62
7
  6
CONTINUOUS
 10
167.4276692789
 20
278.861545743
 11
166.7205624977
 21
278.1544389618
  0
LINE
  8
0
 62
7
  6
CONTINUOUS
 10
151.8838569258
 20
262.1141475228
 11
151.058899464
 21
261.289190061
  0
LINE
  8
0
 62
7
  6
CONTINUOUS
 10
135.8561036685
 20
246.0863942655
 11
135.0311457009
 21
245.2614362979
  0
LINE
  8
0
 62
7
  6
CONTINUOUS
 10
167.442714018
 20
277.4322874416
 11
168.1498207991
 21
278.1393942227
  0
LINE
  8
0
 62
7
  6
CONTINUOUS
 10
135.7507899894
 20
244.7774943822
 11
136.3400455842
 21
245.366749977
  0
LINE
  8
0
 62
7
  6
CONTINUOUS
 10
151.7785432467
 20
260.8052476395
 11
152.3677993473
 21
261.39450374
  0
LINE
  8
0
 62
7
  6
CONTINUOUS
 10
167.2270706791
 20
275.2909063782
 11
166.5199638979
 21
274.583799597
  0
LINE
  8
0
 62
7
  6
CONTINUOUS
 10
175.2434558882
 20
283.0665744139
 11
174.536349107
 21
282.3594676327
  0
LINE
  8
0
 62
7
  6
CONTINUOUS
 10
151.5578866245
 20
259.1402879768
 11
150.9686305239
 21
258.5510318763
  0
LINE
  8
0
 62
7
  6
CONTINUOUS
 10
135.5301324399
 20
243.1125337923
 11
134.9408768241
 21
242.5232781764
  0
LINE
  8
0
 62
7
  6
CONTINUOUS
 10
175.4942020728
 20
281.8730173895
 11
174.5513939303
 21
280.930209247
  0
LINE
  8
0
 62
7
  6
CONTINUOUS
 10
169.9551998526
 20
276.3340151693
 11
169.0123917102
 21
275.3912070268
  0
LINE
  8
0
 62
7
  6
CONTINUOUS
 10
153.9299531526
 20
260.0680512959
 11
153.2228463715
 21
259.3609445147
  0
LINE
  8
0
 62
7
  6
CONTINUOUS
 10
137.9021998953
 20
244.0402980386
 11
137.1950931141
 21
243.3331912574
  0
LINE
  8
0
 62
7
  6
CONTINUOUS
 10
137.9147373183
 20
242.849249426
 11
138.3861417267
 21
243.3206538344
  0
LINE
  8
0
 62
7
  6
CONTINUOUS
 10
146.4000188612
 20
251.3345309688
 11
147.1071256424
 21
252.04163775
  0
LINE
  8
0
 62
7
  6
CONTINUOUS
 10
150.4069575127
 20
255.3414696203
 11
151.1140642939
 21
256.0485764015
  0
LINE
  8
0
 62
7
  6
CONTINUOUS
 10
153.9424914186
 20
258.8770035262
 11
154.4138954898
 21
259.3484075975
  0
LINE
  8
0
 62
7
  6
CONTINUOUS
 10
169.7345433147
 20
274.6690554223
 11
170.6773514571
 21
275.6118635648
  0
LINE
  8
0
 62
7
  6
CONTINUOUS
 10
175.2735455348
 20
280.2080576425
 11
176.2163536773
 21
281.1508657849
  0
LINE
  8
0
 62
7
  6
CONTINUOUS
 10
177.3948658784
 20
282.329377986
 11
178.1019726596
 21
283.0364847672
  0
LINE
  8
0
 62
7
  6
CONTINUOUS
 10
154.5342540765
 20
270.5417575098
 11
153.7067887087
 21
269.9550093153
  0
LINE
  8
0
 62
7
  6
CONTINUOUS
 10
138.5065001449
 20
254.5140035781
 11
137.679034777
 21
253.9272553836
  0
LINE
  8
0
 62
7
  6
CONTINUOUS
 10
158.5361775797
 20
263.7114068818
 11
159.3636429581
 21
264.2981550658
  0
LINE
  8
0
 62
7
  6
CONTINUOUS
 10
142.508423648
 20
247.6836529502
 11
143.3358890265
 21
248.2704011341
  0
LINE
  8
0
 62
7
  6
CONTINUOUS
 10
168.1372826175
 20
279.3304419081
 11
167.4276692789
 21
278.861545743
  0
LINE
  8
0
 62
7
  6
CONTINUOUS
 10
154.3085816422
 20
269.3532163817
 11
155.0181949807
 21
269.8221125469
  0
LINE
  8
0
 62
7
  6
CONTINUOUS
 10
149.4666559276
 20
265.4741593608
 11
148.7570412403
 21
265.005261847
  0
LINE
  8
0
 62
7
  6
CONTINUOUS
 10
174.5639321857
 20
279.7391614879
 11
175.2735455348
 21
280.2080576425
  0
LINE
  8
0
 62
7
  6
CONTINUOUS
 10
169.0249272682
 20
274.2001565703
 11
169.7345433147
 21
274.6690554223
  0
LINE
  8
0
 62
7
  6
CONTINUOUS
 10
138.2808277105
 20
253.3254624501
 11
138.9904423978
 21
253.7943599639
  0
LINE
  8
0
 62
7
  6
CONTINUOUS
 10
133.4389016588
 20
249.446405092
 11
132.7292874773
 21
248.9775080839
  0
LINE
  8
0
 62
7
  6
CONTINUOUS
 10
151.0689297396
 20
260.3363516429
 11
151.7785432467
 21
260.8052476395
  0
LINE
  8
0
 62
7
  6
CONTINUOUS
 10
158.7618499403
 20
264.8999480836
 11
158.0522366018
 21
264.4310519184
  0
LINE
  8
0
 62
7
  6
CONTINUOUS
 10
153.2328767208
 20
258.4081060229
 11
153.9424914186
 21
258.8770035262
  0
LINE
  8
0
 62
7
  6
CONTINUOUS
 10
135.041175555
 20
244.3085974584
 11
135.7507899894
 21
244.7774943822
  0
LINE
  8
0
 62
7
  6
CONTINUOUS
 10
168.1498207991
 20
278.1393942227
 11
168.7415848058
 21
278.490441056
  0
LINE
  8
0
 62
7
  6
CONTINUOUS
 10
166.8509500113
 20
277.0812406083
 11
167.442714018
 21
277.4322874416
  0
LINE
  8
0
 62
7
  6
CONTINUOUS
 10
174.5513939303
 20
280.930209247
 11
173.9596299237
 21
280.5791624138
  0
LINE
  8
0
 62
7
  6
CONTINUOUS
 10
169.0123917102
 20
275.3912070268
 11
168.4206277035
 21
275.0401601936
  0
LINE
  8
0
 62
7
  6
CONTINUOUS
 10
165.7426487279
 20
280.546566294
 11
166.2165607052
 21
280.7797610979
  0
LINE
  8
0
 62
7
  6
CONTINUOUS
 10
166.7205624977
 20
278.1544389618
 11
166.2466505204
 21
277.9212441579
  0
LINE
  8
0
 62
7
  6
CONTINUOUS
 10
149.4766848545
 20
264.5213195941
 11
149.9505968318
 21
264.754514398
  0
LINE
  8
0
 62
7
  6
CONTINUOUS
 10
151.058899464
 20
261.289190061
 11
150.5849874867
 21
261.0559952571
  0
LINE
  8
0
 62
7
  6
CONTINUOUS
 10
153.2228463715
 20
259.3609445147
 11
152.7489343942
 21
259.1277497108
  0
LINE
  8
0
 62
9
  6
CONTINUOUS
 10
303.371551185
 20
331.972546991
 11
302.4546006918
 21
331.5735459973
  0
LINE
  8
0
 62
7
  6
CONTINUOUS
 10
168.8494052108
 20
279.5611301546
 11
168.1372826175
 21
279.3304419081
  0
LINE
  8
0
 62
7
  6
CONTINUOUS
 10
173.8518095608
 20
279.508473273
 11
174.5639321857
 21
279.7391614879
  0
LINE
  8
0
 62
7
  6
CONTINUOUS
 10
166.1388301154
 20
276.8505550592
 11
166.8509500113
 21
277.0812406083
  0
LINE
  8
0
 62
9
  6
CONTINUOUS
 10
74.8997727138
 20
131.541660267
 11
75.87964261
 21
131.7412974043
  0
LINE
  8
0
 62
9
  6
CONTINUOUS
 10
49.808877755
 20
189.9158155379
 11
50.7852331867
 21
189.6996441456
  0
LINE
  8
0
 62
9
  6
CONTINUOUS
 10
50.6301125944
 20
253.4486463167
 11
51.4341328377
 21
252.8540443924
  0
LINE
  8
0
 62
7
  6
CONTINUOUS
 10
104.8937289794
 20
266.5787214091
 11
105.2112931662
 21
266.0581298454
  0
LINE
  8
0
 62
9
  6
CONTINUOUS
 10
77.2214782677
 20
311.154748984
 11
77.7141409182
 21
310.2845286023
  0
LINE
  8
0
 62
7
  6
CONTINUOUS
 10
114.6847072049
 20
286.536325895
 11
116.123969648
 21
281.7777138842
  0
LINE
  8
0
 62
7
  6
CONTINUOUS
 10
113.3787896466
 20
291.1891479229
 11
114.4620949084
 21
287.3511889669
  0
LINE
  8
0
 62
7
  6
CONTINUOUS
 10
116.74549465
 20
282.5611082114
 11
115.6621882027
 21
286.3990656731
  0
LINE
  8
0
 62
7
  6
CONTINUOUS
 10
115.3062322069
 20
287.3197202222
 11
114.0003146486
 21
291.9725422501
  0
LINE
  8
0
 62
7
  6
CONTINUOUS
 10
132.4033161644
 20
246.0036478635
 11
132.2779426928
 21
246.6004259122
  0
LINE
  8
0
 62
7
  6
CONTINUOUS
 10
136.0767613022
 20
247.7513549397
 11
136.2021346895
 21
247.1545768068
  0
LINE
  8
0
 62
7
  6
CONTINUOUS
 10
131.4429549133
 20
246.7283068262
 11
131.5708358906
 21
245.8933191099
  0
LINE
  8
0
 62
7
  6
CONTINUOUS
 10
139.083218696
 20
244.9805995815
 11
138.9553376976
 21
245.8155873611
  0
LINE
  8
0
 62
7
  6
CONTINUOUS
 10
127.2364255712
 20
300.240276596
 11
127.133917806
 21
301.0787574955
  0
LINE
  8
0
 62
7
  6
CONTINUOUS
 10
129.6861669569
 20
297.6372804049
 11
129.5836591509
 21
298.4757613477
  0
LINE
  8
0
 62
7
  6
CONTINUOUS
 10
144.1508175192
 20
250.0481984048
 11
144.1432951076
 21
250.7628275977
  0
LINE
  8
0
 62
7
  6
CONTINUOUS
 10
152.8918601737
 20
268.1772120867
 11
152.8993825433
 21
267.462582936
  0
LINE
  8
0
 62
7
  6
CONTINUOUS
 10
152.2298879469
 20
263.1823300641
 11
152.1170517297
 21
262.5880595001
  0
LINE
  8
0
 62
7
  6
CONTINUOUS
 10
153.7268479111
 20
268.0493311305
 11
153.839685477
 21
268.6436030432
  0
LINE
  8
0
 62
7
  6
CONTINUOUS
 10
152.8366966925
 20
262.1041185959
 11
153.0623691269
 21
263.2926597239
  0
LINE
  8
0
 62
7
  6
CONTINUOUS
 10
154.2759841737
 20
261.1362338372
 11
154.1631479565
 21
260.5419632732
  0
LINE
  8
0
 62
7
  6
CONTINUOUS
 10
159.3435823227
 20
266.2038319862
 11
159.2307461055
 21
265.6095614222
  0
LINE
  8
0
 62
7
  6
CONTINUOUS
 10
164.6895109256
 20
278.7712769715
 11
164.8023471428
 21
279.3655475355
  0
LINE
  8
0
 62
7
  6
CONTINUOUS
 10
169.8749597552
 20
283.9567258011
 11
169.9877959724
 21
284.5509963651
  0
LINE
  8
0
 62
7
  6
CONTINUOUS
 10
154.8827929932
 20
260.0580222953
 11
155.1109719533
 21
261.0083528389
  0
LINE
  8
0
 62
7
  6
CONTINUOUS
 10
159.9503911421
 20
265.1256204442
 11
160.1785701022
 21
266.0759509878
  0
LINE
  8
0
 62
7
  6
CONTINUOUS
 10
163.9623435932
 20
279.9698470264
 11
163.7316580441
 21
279.2577271305
  0
LINE
  8
0
 62
7
  6
CONTINUOUS
 10
169.1477951202
 20
285.1552985534
 11
168.9171068737
 21
284.4431759601
  0
LINE
  8
0
 62
7
  6
CONTINUOUS
 10
171.1462476117
 20
276.3214769139
 11
171.3769358266
 21
277.0335995388
  0
LINE
  8
0
 62
7
  6
CONTINUOUS
 10
175.7273968767
 20
282.3469293667
 11
175.4942020728
 21
281.8730173895
  0
LINE
  8
0
 62
7
  6
CONTINUOUS
 10
176.6852525293
 20
281.8604818314
 11
176.9184473227
 21
282.3343938193
  0
LINE
  8
0
 62
7
  6
CONTINUOUS
 10
170.3062466858
 20
276.9257791759
 11
169.9551998526
 21
276.3340151693
  0
LINE
  8
0
 62
7
  6
CONTINUOUS
 10
170.6773514571
 20
275.6118635648
 11
171.1462476117
 21
276.3214769139
  0
LINE
  8
0
 62
7
  6
CONTINUOUS
 10
176.2163536773
 20
281.1508657849
 11
176.6852525293
 21
281.8604818314
  0
LINE
  8
0
 62
7
  6
CONTINUOUS
 10
194.0118752363
 20
291.8753195321
 11
127.5438378047
 21
225.4072821005
  0
LINE
  8
0
 62
7
  6
CONTINUOUS
 10
187.1690873569
 20
273.1531377287
 11
146.2660196081
 21
232.2500699799
  0
LINE
  8
0
 62
7
  6
CONTINUOUS
 10
195.5364248033
 20
279.2577334754
 11
191.2937841162
 21
275.0150927882
  0
LINE
  8
0
 62
7
  6
CONTINUOUS
 10
144.4040645486
 20
228.1253732206
 11
140.1614238614
 21
223.8827325335
  0
LINE
  8
0
 62
7
  6
CONTINUOUS
 10
142.7340960086
 20
248.8721941519
 11
142.0244819957
 21
248.4032973124
  0
LINE
  8
0
 62
7
  6
CONTINUOUS
 10
137.205123042
 20
242.3803523441
 11
137.9147373183
 21
242.849249426
  0
LINE
  8
0
 62
7
  6
CONTINUOUS
 10
133.4489315972
 20
248.4935663367
 11
133.9228435745
 21
248.7267611406
  0
LINE
  8
0
 62
7
  6
CONTINUOUS
 10
135.0311457009
 20
245.2614362979
 11
134.5572338079
 21
245.0282415783
  0
LINE
  8
0
 62
7
  6
CONTINUOUS
 10
137.1950931141
 20
243.3331912574
 11
136.7211811368
 21
243.0999964535
  0
LINE
  8
0
 62
7
  6
CONTINUOUS
 10
282.3209410944
 20
293.3418329756
 11
281.4567168345
 21
293.0442856178
  0
LINE
  8
0
 62
7
  6
CONTINUOUS
 10
127.5438378047
 20
214.0935736015
 11
194.0118752363
 21
147.62553617
  0
LINE
  8
0
 62
7
  6
CONTINUOUS
 10
146.2660196081
 20
207.2507857221
 11
187.1690873569
 21
166.3477179733
  0
LINE
  8
0
 62
7
  6
CONTINUOUS
 10
140.1614238614
 20
215.6181231686
 11
144.4040645486
 21
211.3754824814
  0
LINE
  8
0
 62
7
  6
CONTINUOUS
 10
191.2937841162
 20
164.4857629138
 11
195.5364248033
 21
160.2431222267
  0
LINE
  8
0
 62
7
  6
CONTINUOUS
 10
132.6465411175
 20
245.524720622
 11
132.4033161644
 21
246.0036478635
  0
LINE
  8
0
 62
7
  6
CONTINUOUS
 10
135.8335365599
 20
248.2302817176
 11
136.0767613022
 21
247.7513549397
  0
LINE
  8
0
 62
7
  6
CONTINUOUS
 10
137.8796327025
 20
246.184185575
 11
138.1228574448
 21
245.7052587971
  0
LINE
  8
0
 62
7
  6
CONTINUOUS
 10
137.11736126
 20
250.7176929591
 11
137.3605863394
 21
250.238765844
  0
LINE
  8
0
 62
7
  6
CONTINUOUS
 10
131.5708358906
 20
245.8933191099
 11
131.9369268938
 21
245.0558235718
  0
LINE
  8
0
 62
7
  6
CONTINUOUS
 10
138.9553376976
 20
245.8155873611
 11
138.5892470525
 21
246.6530827517
  0
LINE
  8
0
 62
7
  6
CONTINUOUS
 10
136.8716292859
 20
251.4348296787
 11
137.11736126
 21
250.7176929591
  0
LINE
  8
0
 62
7
  6
CONTINUOUS
 10
144.1432951076
 20
250.7628275977
 11
143.8975627121
 21
251.4799640644
  0
LINE
  8
0
 62
7
  6
CONTINUOUS
 10
138.1228574448
 20
245.7052587971
 11
138.2482309164
 21
245.1084805799
  0
LINE
  8
0
 62
7
  6
CONTINUOUS
 10
137.9498417656
 20
250.8280212702
 11
137.6990946538
 21
252.0215778732
  0
LINE
  8
0
 62
7
  6
CONTINUOUS
 10
143.0650822064
 20
251.3696350789
 11
143.3158297397
 21
250.1760794032
  0
LINE
  8
0
 62
7
  6
CONTINUOUS
 10
148.4310694218
 20
262.0314011209
 11
148.3056963716
 21
262.628179591
  0
LINE
  8
0
 62
7
  6
CONTINUOUS
 10
145.5148814317
 20
256.2266063755
 11
146.4000188612
 21
251.3345309688
  0
LINE
  8
0
 62
7
  6
CONTINUOUS
 10
144.7501032632
 20
260.9983238698
 11
145.3870004754
 21
257.0615941129
  0
LINE
  8
0
 62
7
  6
CONTINUOUS
 10
147.1071256424
 20
252.04163775
 11
146.4702277558
 21
255.9783668326
  0
LINE
  8
0
 62
7
  6
CONTINUOUS
 10
146.2219882128
 20
256.9337131567
 11
145.4572100444
 21
261.705430651
  0
LINE
  8
0
 62
7
  6
CONTINUOUS
 10
147.4707086342
 20
262.7560605472
 11
147.5985895904
 21
261.9210728098
  0
LINE
  8
0
 62
7
  6
CONTINUOUS
 10
163.5787857289
 20
323.2769826251
 11
163.5997035774
 21
322.7402417353
  0
LINE
  8
0
 62
7
  6
CONTINUOUS
 10
164.5966203617
 20
322.9276698657
 11
164.5757025131
 21
323.4644107555
  0
LINE
  8
0
 62
7
  6
CONTINUOUS
 10
164.819343752
 20
319.9246943707
 11
164.8402616005
 21
319.3879534809
  0
LINE
  8
0
 62
7
  6
CONTINUOUS
 10
165.8371784262
 20
319.5753814995
 11
165.8162605363
 21
320.1121225011
  0
LINE
  8
0
 62
7
  6
CONTINUOUS
 10
160.1785701022
 20
266.0759509878
 11
160.1710476905
 21
266.7905801806
  0
LINE
  8
0
 62
7
  6
CONTINUOUS
 10
163.7316580441
 20
279.2577271305
 11
163.741686971
 21
278.3048873638
  0
LINE
  8
0
 62
7
  6
CONTINUOUS
 10
168.9171068737
 20
284.4431759601
 11
168.9271358006
 21
283.4903361933
  0
LINE
  8
0
 62
7
  6
CONTINUOUS
 10
171.3769358266
 20
277.0335995388
 11
171.3669068576
 21
277.9864393477
  0
LINE
  8
0
 62
7
  6
CONTINUOUS
 10
182.8616499572
 20
368.1960245692
 11
183.03569668
 21
370.1853877145
  0
LINE
  8
0
 62
9
  6
CONTINUOUS
 10
183.8578446552
 20
368.1088688264
 11
184.0318913781
 21
370.0982319717
  0
LINE
  8
0
 62
7
  6
CONTINUOUS
 10
152.1219814906
 20
76.0610347682
 11
152.3653499614
 21
78.0431119042
  0
LINE
  8
0
 62
7
  6
CONTINUOUS
 10
170.4190828187
 20
277.5200498242
 11
170.3062466858
 21
276.9257791759
  0
LINE
  8
0
 62
9
  6
CONTINUOUS
 10
140.4511289972
 20
94.607792461
 11
140.659040688
 21
95.5859400618
  0
LINE
  8
0
 62
7
  6
CONTINUOUS
 10
244.6929620147
 20
362.1982835473
 11
245.6611084953
 21
363.9448660325
  0
LINE
  8
0
 62
9
  6
CONTINUOUS
 10
245.5675817218
 20
361.7134739271
 11
246.5357282025
 21
363.4600564123
  0
LINE
  8
0
 62
7
  6
CONTINUOUS
 10
97.788872441
 20
107.8226401575
 11
98.8173840026
 21
109.5343708469
  0
LINE
  8
0
 62
9
  6
CONTINUOUS
 10
94.6706641227
 20
129.5129097668
 11
95.258449375
 21
130.3219267612
  0
LINE
  8
0
 62
7
  6
CONTINUOUS
 10
298.7391752357
 20
331.5700141774
 11
300.3340201523
 21
332.7718160236
  0
LINE
  8
0
 62
9
  6
CONTINUOUS
 10
299.3409902588
 20
330.7713786674
 11
300.9358351754
 21
331.9731805136
  0
LINE
  8
0
 62
7
  6
CONTINUOUS
 10
61.0717162238
 20
158.9375768711
 11
62.7075318836
 21
160.0829873272
  0
LINE
  8
0
 62
7
  6
CONTINUOUS
 10
273.3265700353
 20
300.9585193521
 11
272.865195161
 21
300.6834482564
  0
LINE
  8
0
 62
7
  6
CONTINUOUS
 10
273.5065901709
 20
299.8975826062
 11
273.9679650452
 21
300.172653702
  0
LINE
  8
0
 62
9
  6
CONTINUOUS
 10
67.045318627
 20
180.0209137315
 11
67.9113440308
 21
180.5209137315
  0
LINE
  8
0
 62
7
  6
CONTINUOUS
 10
274.5916455391
 20
295.7681338452
 11
278.9167758799
 21
297.9277908192
  0
LINE
  8
0
 62
7
  6
CONTINUOUS
 10
272.0676139588
 20
294.4487945224
 11
273.9898976257
 21
295.4086383897
  0
LINE
  8
0
 62
7
  6
CONTINUOUS
 10
278.933282145
 20
298.8805430588
 11
271.3653325536
 21
295.1606939731
  0
LINE
  8
0
 62
7
  6
CONTINUOUS
 10
281.8670157414
 20
292.2992600121
 11
282.3639576548
 21
292.5031720126
  0
LINE
  8
0
 62
7
  6
CONTINUOUS
 10
279.792626489
 20
290.5346525492
 11
280.2895682209
 21
290.7385643953
  0
LINE
  8
0
 62
7
  6
CONTINUOUS
 10
282.103439431
 20
287.0300771893
 11
281.6064978807
 21
286.8261654978
  0
LINE
  8
0
 62
7
  6
CONTINUOUS
 10
281.6495143503
 20
285.9875044576
 11
282.5137383379
 21
286.2850515836
  0
LINE
  8
0
 62
7
  6
CONTINUOUS
 10
53.7931514737
 20
187.5186291588
 11
51.7964934314
 21
187.483777363
  0
LINE
  8
0
 62
9
  6
CONTINUOUS
 10
53.7756990673
 20
188.518476854
 11
51.779041025
 21
188.4836250582
  0
LINE
  8
0
 62
7
  6
CONTINUOUS
 10
347.5409655402
 20
187.483777363
 11
345.5443074979
 21
187.5186291588
  0
LINE
  8
0
 62
9
  6
CONTINUOUS
 10
330.3157452027
 20
173.9381949405
 11
329.3212233073
 21
174.0427234038
  0
LINE
  8
0
 62
7
  6
CONTINUOUS
 10
53.2949042115
 20
249.6381574715
 11
51.4566908241
 21
250.4184327613
  0
LINE
  8
0
 62
9
  6
CONTINUOUS
 10
53.68563534
 20
250.5586623249
 11
51.8474219525
 21
251.3389376147
  0
LINE
  8
0
 62
7
  6
CONTINUOUS
 10
321.6327099419
 20
130.1283189675
 11
319.8228475593
 21
130.9722716567
  0
LINE
  8
0
 62
9
  6
CONTINUOUS
 10
300.3872034227
 20
124.7599419706
 11
299.5211780189
 21
125.2599419706
  0
LINE
  8
0
 62
7
  6
CONTINUOUS
 10
131.9369268938
 20
245.0558235718
 11
132.4183612407
 21
244.574389225
  0
LINE
  8
0
 62
7
  6
CONTINUOUS
 10
132.8872582909
 20
245.2840034486
 11
132.6465411175
 21
245.524720622
  0
LINE
  8
0
 62
7
  6
CONTINUOUS
 10
78.1060211037
 20
306.5898258113
 11
76.7440961654
 21
308.0503115004
  0
LINE
  8
0
 62
9
  6
CONTINUOUS
 10
78.8373748053
 20
307.2718241713
 11
77.4754498671
 21
308.7323098605
  0
LINE
  8
0
 62
7
  6
CONTINUOUS
 10
274.6357741149
 20
88.2693373892
 11
273.32564904
 21
89.7764638849
  0
LINE
  8
0
 62
7
  6
CONTINUOUS
 10
138.5892470525
 20
246.6530827517
 11
137.8645877948
 21
247.613444045
  0
LINE
  8
0
 62
9
  6
CONTINUOUS
 10
253.0435225004
 20
92.0064069709
 11
252.4557372481
 21
92.8154239652
  0
LINE
  8
0
 62
7
  6
CONTINUOUS
 10
137.2753320314
 20
247.0241882816
 11
137.8796327025
 21
246.184185575
  0
LINE
  8
0
 62
7
  6
CONTINUOUS
 10
138.5541426052
 20
249.9880190693
 11
137.9498417656
 21
250.8280212702
  0
LINE
  8
0
 62
7
  6
CONTINUOUS
 10
142.4607818725
 20
252.2096381227
 11
143.0650822064
 21
251.3696350789
  0
LINE
  8
0
 62
7
  6
CONTINUOUS
 10
137.3605863394
 20
250.238765844
 11
137.8445282552
 21
249.5191218926
  0
LINE
  8
0
 62
7
  6
CONTINUOUS
 10
143.6543383069
 20
251.9588911795
 11
143.1703958855
 21
252.6785349622
  0
LINE
  8
0
 62
7
  6
CONTINUOUS
 10
143.8975627121
 20
251.4799640644
 11
143.6543383069
 21
251.9588911795
  0
LINE
  8
0
 62
7
  6
CONTINUOUS
 10
126.0604492898
 20
301.003444228
 11
126.2890442936
 21
300.5173653626
  0
LINE
  8
0
 62
7
  6
CONTINUOUS
 10
127.133917806
 20
301.0787574955
 11
126.9053228022
 21
301.5648363609
  0
LINE
  8
0
 62
7
  6
CONTINUOUS
 10
128.5101905529
 20
298.4004481671
 11
128.7387855568
 21
297.9143693017
  0
LINE
  8
0
 62
7
  6
CONTINUOUS
 10
129.5836591509
 20
298.4757613477
 11
129.3550640654
 21
298.9618402999
  0
LINE
  8
0
 62
7
  6
CONTINUOUS
 10
147.5985895904
 20
261.9210728098
 11
147.9646801512
 21
261.0835768291
  0
LINE
  8
0
 62
7
  6
CONTINUOUS
 10
123.9364346376
 20
348.5261733326
 11
123.2862873431
 21
350.4143381773
  0
LINE
  8
0
 62
9
  6
CONTINUOUS
 10
124.8819532132
 20
348.851741487
 11
124.2318059187
 21
350.7399063318
  0
LINE
  8
0
 62
7
  6
CONTINUOUS
 10
152.8993825433
 20
267.462582936
 11
153.1451155288
 21
266.7454472279
  0
LINE
  8
0
 62
7
  6
CONTINUOUS
 10
214.6763552172
 20
69.14463082
 11
214.0924999776
 21
71.0543352592
  0
LINE
  8
0
 62
9
  6
CONTINUOUS
 10
196.4708549711
 20
81.3409736993
 11
196.2629432803
 21
82.3191213001
  0
LINE
  8
0
 62
7
  6
CONTINUOUS
 10
152.1045148967
 20
263.7791085342
 11
152.2298879469
 21
263.1823300641
  0
LINE
  8
0
 62
7
  6
CONTINUOUS
 10
154.1506110393
 20
261.7330123916
 11
154.2759841737
 21
261.1362338372
  0
LINE
  8
0
 62
7
  6
CONTINUOUS
 10
153.9775956973
 20
266.8557752019
 11
153.7268479111
 21
268.0493311305
  0
LINE
  8
0
 62
7
  6
CONTINUOUS
 10
159.0928361381
 20
267.3973890106
 11
159.3435823227
 21
266.2038319862
  0
LINE
  8
0
 62
7
  6
CONTINUOUS
 10
150.7691036679
 20
314.2536509741
 11
150.8665275179
 21
313.7254115089
  0
LINE
  8
0
 62
7
  6
CONTINUOUS
 10
155.1109719533
 20
261.0083528389
 11
154.9830909549
 21
261.8433406184
  0
LINE
  8
0
 62
7
  6
CONTINUOUS
 10
151.6961171171
 20
313.5951284272
 11
151.5825612792
 21
314.5020614737
  0
LINE
  8
0
 62
7
  6
CONTINUOUS
 10
156.2132024574
 20
320.40751282
 11
156.2727396706
 21
319.873674212
  0
LINE
  8
0
 62
7
  6
CONTINUOUS
 10
157.253560542
 20
320.1324459202
 11
157.1940233288
 21
320.6662845282
  0
LINE
  8
0
 62
7
  6
CONTINUOUS
 10
157.6920781054
 20
317.1533235866
 11
157.7516153186
 21
316.6194849785
  0
LINE
  8
0
 62
7
  6
CONTINUOUS
 10
158.7324362394
 20
316.8782565782
 11
158.6728989769
 21
317.4120952948
  0
LINE
  8
0
 62
7
  6
CONTINUOUS
 10
176.9109248899
 20
283.0490230332
 11
176.9059090778
 21
283.5254415679
  0
LINE
  8
0
 62
7
  6
CONTINUOUS
 10
281.4567168345
 20
293.0442856178
 11
280.4411780165
 21
292.3992220992
  0
LINE
  8
0
 62
7
  6
CONTINUOUS
 10
280.9811361272
 20
291.7644728278
 11
281.8670157414
 21
292.2992600121
  0
LINE
  8
0
 62
7
  6
CONTINUOUS
 10
137.0220776879
 20
248.455954152
 11
136.0617165632
 21
249.1806132411
  0
LINE
  8
0
 62
7
  6
CONTINUOUS
 10
135.5928193865
 20
248.470998891
 11
135.8335365599
 21
248.2302817176
  0
LINE
  8
0
 62
7
  6
CONTINUOUS
 10
137.034614858
 20
247.2649054551
 11
137.2753320314
 21
247.0241882816
  0
LINE
  8
0
 62
7
  6
CONTINUOUS
 10
137.8645877948
 20
247.613444045
 11
137.0220776879
 21
248.455954152
  0
LINE
  8
0
 62
7
  6
CONTINUOUS
 10
137.8445282552
 20
249.5191218926
 11
138.9277555355
 21
248.4358946123
  0
LINE
  8
0
 62
7
  6
CONTINUOUS
 10
139.3966527122
 20
249.1455089624
 11
138.5541426052
 21
249.9880190693
  0
LINE
  8
0
 62
7
  6
CONTINUOUS
 10
141.6182717656
 20
253.0521482297
 11
142.4607818725
 21
252.2096381227
  0
LINE
  8
0
 62
7
  6
CONTINUOUS
 10
143.1703958855
 20
252.6785349622
 11
142.0871686051
 21
253.7617622426
  0
LINE
  8
0
 62
7
  6
CONTINUOUS
 10
153.3883395968
 20
266.2665191013
 11
153.8722818497
 21
265.5468754871
  0
LINE
  8
0
 62
7
  6
CONTINUOUS
 10
148.6742948384
 20
261.552474343
 11
148.4310694218
 21
262.0314011209
  0
LINE
  8
0
 62
7
  6
CONTINUOUS
 10
151.8612898172
 20
264.2580349749
 11
152.1045148967
 21
263.7791085342
  0
LINE
  8
0
 62
7
  6
CONTINUOUS
 10
153.9073859598
 20
262.2119388323
 11
154.1506110393
 21
261.7330123916
  0
LINE
  8
0
 62
7
  6
CONTINUOUS
 10
153.1451155288
 20
266.7454472279
 11
153.3883395968
 21
266.2665191013
  0
LINE
  8
0
 62
7
  6
CONTINUOUS
 10
159.9253173181
 20
267.5077186704
 11
159.6820908899
 21
267.9866437625
  0
LINE
  8
0
 62
7
  6
CONTINUOUS
 10
154.9830909549
 20
261.8433406184
 11
154.617000647
 21
262.6808363462
  0
LINE
  8
0
 62
7
  6
CONTINUOUS
 10
160.1710476905
 20
266.7905801806
 11
159.9253173181
 21
267.5077186704
  0
LINE
  8
0
 62
7
  6
CONTINUOUS
 10
170.2937084199
 20
278.1168269456
 11
170.4190828187
 21
277.5200498242
  0
LINE
  8
0
 62
7
  6
CONTINUOUS
 10
170.0003344912
 20
283.3599483426
 11
169.8749597552
 21
283.9567258011
  0
LINE
  8
0
 62
9
  6
CONTINUOUS
 10
195.4187294858
 20
356.970427851
 11
195.4187294858
 21
356.470427851
  0
LINE
  8
0
 62
7
  6
CONTINUOUS
 10
196.4187294858
 20
356.970427851
 11
196.4187294858
 21
356.470427851
  0
LINE
  8
0
 62
9
  6
CONTINUOUS
 10
198.4187294858
 20
354.470427851
 11
198.4187294858
 21
353.470427851
  0
LINE
  8
DEFAULT_1
 62
2
  6
CENTER
 10
199.6687294858
 20
372.8585202407
 11
199.6687294858
 21
221.750527851
  0
LINE
  8
0
 62
2
  6
CONTINUOUS
 10
199.6687294858
 20
221.235427851
 11
199.6687294858
 21
218.265427851
  0
LINE
  8
DEFAULT_1
 62
2
  6
CENTER
 10
199.6687294858
 20
60.8501094092
 11
199.6687294858
 21
217.750327851
  0
LINE
  8
0
 62
7
  6
CONTINUOUS
 10
168.0640634148
 20
86.6938008739
 11
167.9601075694
 21
86.2047270735
  0
LINE
  8
0
 62
9
  6
CONTINUOUS
 10
172.8815509997
 20
87.7144934666
 11
173.0894626905
 21
88.6926410674
  0
LINE
  8
0
 62
9
  6
CONTINUOUS
 10
251.5985634537
 20
346.8357662818
 11
251.3951951321
 21
346.378993553
  0
LINE
  8
0
 62
7
  6
CONTINUOUS
 10
252.5121089113
 20
346.4290296387
 11
252.3087405898
 21
345.9722569099
  0
LINE
  8
0
 62
9
  6
CONTINUOUS
 10
253.3223582189
 20
343.3316927085
 11
252.9156215758
 21
342.4181472508
  0
LINE
  8
0
 62
7
  6
CONTINUOUS
 10
116.6774245606
 20
111.05192645
 11
116.3835319345
 21
110.6474179528
  0
LINE
  8
0
 62
9
  6
CONTINUOUS
 10
121.4935715399
 20
110.0249268035
 11
122.0813567922
 21
110.8339437978
  0
LINE
  8
0
 62
7
  6
CONTINUOUS
 10
271.0014822645
 20
306.1515004204
 11
265.7403727663
 21
300.1248324482
  0
LINE
  8
0
 62
7
  6
CONTINUOUS
 10
266.4937062628
 20
299.4671937609
 11
268.8444147954
 21
302.1599603399
  0
LINE
  8
0
 62
7
  6
CONTINUOUS
 10
269.5160457151
 20
302.929322117
 11
271.1951233279
 21
304.8527269189
  0
LINE
  8
0
 62
9
  6
CONTINUOUS
 10
298.7992573608
 20
314.7268951639
 11
298.427684948
 21
314.3923298607
  0
LINE
  8
0
 62
7
  6
CONTINUOUS
 10
299.4683879671
 20
313.9837503384
 11
299.0968155544
 21
313.6491850352
  0
LINE
  8
0
 62
9
  6
CONTINUOUS
 10
298.9487871161
 20
310.8246341715
 11
298.2056422907
 21
310.1555035652
  0
LINE
  8
0
 62
7
  6
CONTINUOUS
 10
280.4411780165
 20
292.3992220992
 11
279.5336327981
 21
291.6272064017
  0
LINE
  8
0
 62
7
  6
CONTINUOUS
 10
280.7218374933
 20
291.5438969142
 11
280.9811361272
 21
291.7644728278
  0
LINE
  8
0
 62
7
  6
CONTINUOUS
 10
279.4036785383
 20
290.2037886789
 11
279.792626489
 21
290.5346525492
  0
LINE
  8
0
 62
7
  6
CONTINUOUS
 10
79.6407362804
 20
154.2050104133
 11
79.2077235785
 21
153.9550104133
  0
LINE
  8
0
 62
9
  6
CONTINUOUS
 10
83.6227870879
 20
151.3078960963
 11
84.4888124917
 21
151.8078960963
  0
LINE
  8
0
 62
9
  6
CONTINUOUS
 10
328.8593824257
 20
266.1957300134
 11
328.3838541676
 21
266.0412215162
  0
LINE
  8
0
 62
7
  6
CONTINUOUS
 10
329.1683994201
 20
265.2446734971
 11
328.6928711619
 21
265.0901649999
  0
LINE
  8
0
 62
9
  6
CONTINUOUS
 10
327.4087921181
 20
262.5700179786
 11
326.4577356018
 21
262.2610009842
  0
LINE
  8
0
 62
9
  6
CONTINUOUS
 10
63.6446809722
 20
201.1803140661
 11
64.1419419199
 21
201.2325782978
  0
LINE
  8
0
 62
7
  6
CONTINUOUS
 10
63.540152509
 20
202.1748359615
 11
64.0374134566
 21
202.2271001931
  0
LINE
  8
0
 62
9
  6
CONTINUOUS
 10
65.8174003208
 20
204.4252009104
 11
66.8119222162
 21
204.5297293737
  0
LINE
  8
DEFAULT_1
 62
2
  6
CENTER
 10
362.5272497265
 20
219.750427851
 11
201.6688294858
 21
219.750427851
  0
LINE
  8
0
 62
2
  6
CONTINUOUS
 10
201.1537294858
 20
219.750427851
 11
198.1837294858
 21
219.750427851
  0
LINE
  8
DEFAULT_1
 62
2
  6
CENTER
 10
43.938696663
 20
219.750427851
 11
197.6686294858
 21
219.750427851
  0
LINE
  8
0
 62
7
  6
CONTINUOUS
 10
335.3000455149
 20
202.2271001931
 11
335.7973064626
 21
202.1748359615
  0
LINE
  8
0
 62
9
  6
CONTINUOUS
 10
333.7813798089
 20
206.9115056488
 11
332.7868579135
 21
207.0160341121
  0
LINE
  8
0
 62
9
  6
CONTINUOUS
 10
67.8514320937
 20
258.1117496249
 11
68.3269603518
 21
257.9572411277
  0
LINE
  8
0
 62
7
  6
CONTINUOUS
 10
68.160449088
 20
259.0628061412
 11
68.6359773462
 21
258.908297644
  0
LINE
  8
0
 62
9
  6
CONTINUOUS
 10
71.1561243675
 20
260.1923766879
 11
72.1071808838
 21
259.8833596935
  0
LINE
  8
0
 62
7
  6
CONTINUOUS
 10
132.4183612407
 20
244.574389225
 11
133.2558564416
 21
244.2082985588
  0
LINE
  8
0
 62
7
  6
CONTINUOUS
 10
136.0617165632
 20
249.1806132411
 11
135.2242209197
 21
249.546704139
  0
LINE
  8
0
 62
7
  6
CONTINUOUS
 10
99.7207541732
 20
264.4283552634
 11
102.7938721101
 21
262.963807796
  0
LINE
  8
0
 62
7
  6
CONTINUOUS
 10
103.1523811346
 20
263.7160814767
 11
100.0792631978
 21
265.1806289441
  0
LINE
  8
0
 62
7
  6
CONTINUOUS
 10
101.5132992703
 20
268.189723613
 11
104.8937289794
 21
266.5787214091
  0
LINE
  8
0
 62
7
  6
CONTINUOUS
 10
134.9408768241
 20
242.5232781764
 11
135.4198037916
 21
242.2800534552
  0
LINE
  8
0
 62
7
  6
CONTINUOUS
 10
133.3661851953
 20
245.0407788327
 11
132.8872582909
 21
245.2840034486
  0
LINE
  8
0
 62
7
  6
CONTINUOUS
 10
135.1138922714
 20
248.7142239705
 11
135.5928193865
 21
248.470998891
  0
LINE
  8
0
 62
7
  6
CONTINUOUS
 10
139.6473996554
 20
247.951952528
 11
140.1263264333
 21
247.7087277857
  0
LINE
  8
0
 62
7
  6
CONTINUOUS
 10
102.7865661968
 20
270.7199749937
 11
107.5518291708
 21
268.0817957237
  0
LINE
  8
0
 62
7
  6
CONTINUOUS
 10
107.9554569484
 20
268.8108563018
 11
104.5304240685
 21
270.7070477171
  0
LINE
  8
0
 62
7
  6
CONTINUOUS
 10
103.9347662489
 20
271.036820097
 11
103.1901939744
 21
271.4490355718
  0
LINE
  8
0
 62
7
  6
CONTINUOUS
 10
106.5791416102
 20
273.0018929177
 11
109.4085166705
 21
271.4354738823
  0
LINE
  8
0
 62
7
  6
CONTINUOUS
 10
316.4467226912
 20
148.5758452887
 11
316.8797353931
 21
148.3258452887
  0
LINE
  8
0
 62
9
  6
CONTINUOUS
 10
316.9646718836
 20
153.4729596058
 11
316.0986464798
 21
153.9729596058
  0
LINE
  8
0
 62
7
  6
CONTINUOUS
 10
103.6719209729
 20
277.4460634426
 11
104.3997388304
 21
277.0049391563
  0
LINE
  8
0
 62
7
  6
CONTINUOUS
 10
105.8553749533
 20
276.1226903367
 11
110.5134096494
 21
273.2994946575
  0
LINE
  8
0
 62
7
  6
CONTINUOUS
 10
110.945343733
 20
274.0121494561
 11
106.287309037
 21
276.8353451353
  0
LINE
  8
0
 62
7
  6
CONTINUOUS
 10
104.8316729141
 20
277.7175939549
 11
104.1038550565
 21
278.1587182412
  0
LINE
  8
0
 62
7
  6
CONTINUOUS
 10
138.9277555355
 20
248.4358946123
 11
139.6473996554
 21
247.951952528
  0
LINE
  8
0
 62
7
  6
CONTINUOUS
 10
142.0871686051
 20
253.7617622426
 11
141.3675249909
 21
254.2457044955
  0
LINE
  8
0
 62
7
  6
CONTINUOUS
 10
140.2366550816
 20
248.5412079542
 11
139.3966527122
 21
249.1455089624
  0
LINE
  8
0
 62
7
  6
CONTINUOUS
 10
140.7782688904
 20
253.6564483949
 11
141.6182717656
 21
253.0521482297
  0
LINE
  8
0
 62
9
  6
CONTINUOUS
 10
94.8505914567
 20
308.4101641473
 11
95.2221638695
 21
308.0755988441
  0
LINE
  8
0
 62
7
  6
CONTINUOUS
 10
95.5197220631
 20
309.1533089728
 11
95.8912944758
 21
308.8187436696
  0
LINE
  8
0
 62
9
  6
CONTINUOUS
 10
98.7158453395
 20
308.9667721078
 11
99.458990165
 21
308.2976415015
  0
LINE
  8
0
 62
7
  6
CONTINUOUS
 10
115.2611760148
 20
293.4278661298
 11
121.1451009719
 21
288.0075868843
  0
LINE
  8
0
 62
7
  6
CONTINUOUS
 10
121.0714965233
 20
289.4350280442
 11
115.9387109205
 21
294.1633567494
  0
LINE
  8
0
 62
7
  6
CONTINUOUS
 10
147.9646801512
 20
261.0835768291
 11
148.446114498
 21
260.6021424823
  0
LINE
  8
0
 62
7
  6
CONTINUOUS
 10
148.9150120118
 20
261.3117571695
 11
148.6742948384
 21
261.552474343
  0
LINE
  8
0
 62
7
  6
CONTINUOUS
 10
151.6205726438
 20
264.4987521483
 11
151.8612898172
 21
264.2580349749
  0
LINE
  8
0
 62
7
  6
CONTINUOUS
 10
153.0623691269
 20
263.2926597239
 11
153.3030863003
 21
263.0519425505
  0
LINE
  8
0
 62
7
  6
CONTINUOUS
 10
153.8923410522
 20
263.6411973023
 11
153.0498309452
 21
264.4837074093
  0
LINE
  8
0
 62
7
  6
CONTINUOUS
 10
153.8722818497
 20
265.5468754871
 11
154.95550913
 21
264.4636482068
  0
LINE
  8
0
 62
7
  6
CONTINUOUS
 10
155.4244066439
 20
265.1732628941
 11
154.5818965369
 21
266.015773001
  0
LINE
  8
0
 62
7
  6
CONTINUOUS
 10
120.6648243477
 20
299.197831267
 11
126.1475788913
 21
293.3720778724
  0
LINE
  8
0
 62
7
  6
CONTINUOUS
 10
126.1758719554
 20
294.8011353878
 11
124.426056639
 21
296.6604184248
  0
LINE
  8
0
 62
7
  6
CONTINUOUS
 10
123.7261306105
 20
297.4041315355
 11
122.0929695506
 21
299.1394624743
  0
LINE
  8
0
 62
7
  6
CONTINUOUS
 10
154.617000647
 20
262.6808363462
 11
153.8923410522
 21
263.6411973023
  0
LINE
  8
0
 62
7
  6
CONTINUOUS
 10
277.4014239475
 20
107.2313223101
 11
277.6953165736
 21
106.8268138129
  0
LINE
  8
0
 62
9
  6
CONTINUOUS
 10
279.8664299176
 20
111.4943899342
 11
279.2786446653
 21
112.3034069286
  0
LINE
  8
0
 62
7
  6
CONTINUOUS
 10
153.3030863003
 20
263.0519425505
 11
153.9073859598
 21
262.2119388323
  0
LINE
  8
0
 62
7
  6
CONTINUOUS
 10
154.5818965369
 20
266.015773001
 11
153.9775956973
 21
266.8557752019
  0
LINE
  8
0
 62
7
  6
CONTINUOUS
 10
158.4885364786
 20
268.2373927288
 11
159.0928361381
 21
267.3973890106
  0
LINE
  8
0
 62
7
  6
CONTINUOUS
 10
133.3490030186
 20
310.0654597336
 11
133.8320992137
 21
309.3647975212
  0
LINE
  8
0
 62
7
  6
CONTINUOUS
 10
137.1171538141
 20
304.6002937895
 11
137.8901077939
 21
303.4792341514
  0
LINE
  8
0
 62
7
  6
CONTINUOUS
 10
159.6820908899
 20
267.9866437625
 11
159.1981498171
 21
268.7062888939
  0
LINE
  8
0
 62
7
  6
CONTINUOUS
 10
140.9781752485
 20
313.7448154743
 11
141.6889291338
 21
312.5833239954
  0
LINE
  8
0
 62
7
  6
CONTINUOUS
 10
141.9199895609
 20
314.1215888542
 11
145.384914036
 21
308.4593190639
  0
LINE
  8
0
 62
7
  6
CONTINUOUS
 10
146.2378841438
 20
308.9812788278
 11
142.0622060323
 21
315.8050396904
  0
LINE
  8
0
 62
7
  6
CONTINUOUS
 10
163.741686971
 20
278.3048873638
 11
164.1052692885
 21
277.7056009876
  0
LINE
  8
0
 62
7
  6
CONTINUOUS
 10
143.5472384362
 20
316.7214453891
 11
145.6606542785
 21
312.833154536
  0
LINE
  8
0
 62
7
  6
CONTINUOUS
 10
145.9864005942
 20
313.9788628281
 11
144.6858369113
 21
316.3716573603
  0
LINE
  8
0
 62
7
  6
CONTINUOUS
 10
164.9327349936
 20
278.2923488449
 11
164.6895109256
 21
278.7712769715
  0
LINE
  8
0
 62
7
  6
CONTINUOUS
 10
150.5235633736
 20
320.4393526859
 11
153.8334280931
 21
313.1561668762
  0
LINE
  8
0
 62
7
  6
CONTINUOUS
 10
154.3212903987
 20
314.4996683651
 11
153.2649505726
 21
316.8240894167
  0
LINE
  8
0
 62
7
  6
CONTINUOUS
 10
152.8424147013
 20
317.7538577071
 11
151.8564974711
 21
319.9233174855
  0
LINE
  8
0
 62
9
  6
CONTINUOUS
 10
139.9737591279
 20
343.3785048157
 11
140.1771274495
 21
342.9217320869
  0
LINE
  8
0
 62
7
  6
CONTINUOUS
 10
140.8873045856
 20
343.7852414587
 11
141.0906729071
 21
343.3284687299
  0
LINE
  8
0
 62
9
  6
CONTINUOUS
 10
143.7312371086
 20
342.3148511008
 11
144.1379737516
 21
341.4013056432
  0
LINE
  8
0
 62
7
  6
CONTINUOUS
 10
157.906229239
 20
323.7186946911
 11
160.6827163889
 21
316.2159539182
  0
LINE
  8
0
 62
7
  6
CONTINUOUS
 10
161.2661138184
 20
317.520811504
 11
160.3800008797
 21
319.91530329
  0
LINE
  8
0
 62
7
  6
CONTINUOUS
 10
160.0255557538
 20
320.8730998702
 11
159.1985169614
 21
323.1079590047
  0
LINE
  8
0
 62
7
  6
CONTINUOUS
 10
168.9271358006
 20
283.4903361933
 11
169.1728687861
 21
282.7732004852
  0
LINE
  8
0
 62
7
  6
CONTINUOUS
 10
171.3669068576
 20
277.9864393477
 11
171.1211737878
 21
278.7035751401
  0
LINE
  8
0
 62
7
  6
CONTINUOUS
 10
176.9059090778
 20
283.5254415679
 11
176.6601760079
 21
284.2425773602
  0
LINE
  8
0
 62
7
  6
CONTINUOUS
 10
224.915436152
 20
85.3423748835
 11
225.0193919974
 21
84.8533010832
  0
LINE
  8
0
 62
9
  6
CONTINUOUS
 10
228.9012769737
 20
88.2342726937
 11
228.6933652828
 21
89.2124202944
  0
LINE
  8
0
 62
7
  6
CONTINUOUS
 10
175.83271064
 20
283.6558291658
 11
175.9580850389
 21
283.0590520444
  0
LINE
  8
0
 62
7
  6
CONTINUOUS
 10
202.9187294858
 20
356.470427851
 11
202.9187294858
 21
356.970427851
  0
LINE
  8
0
 62
7
  6
CONTINUOUS
 10
174.3180669741
 20
84.8533010832
 11
174.4220228196
 21
85.3423748835
  0
LINE
  8
0
 62
9
  6
CONTINUOUS
 10
175.2962145749
 20
84.6453893924
 11
175.4001704203
 21
85.1344631927
  0
LINE
  8
0
 62
7
  6
CONTINUOUS
 10
258.2467860644
 20
343.3284687299
 11
258.450154386
 21
343.7852414587
  0
LINE
  8
0
 62
7
  6
CONTINUOUS
 10
121.6421423979
 20
106.8268138129
 11
121.9360350241
 21
107.2313223101
  0
LINE
  8
0
 62
9
  6
CONTINUOUS
 10
122.4511593923
 20
106.2390285607
 11
122.7450520184
 21
106.6435370578
  0
LINE
  8
0
 62
7
  6
CONTINUOUS
 10
273.6623858087
 20
301.3432005999
 11
273.3265700353
 21
300.9585193521
  0
LINE
  8
0
 62
7
  6
CONTINUOUS
 10
273.9679650452
 20
300.172653702
 11
274.4157193053
 21
300.6855619126
  0
LINE
  8
0
 62
7
  6
CONTINUOUS
 10
279.5336327981
 20
291.6272064017
 11
278.7340809976
 21
290.7282383711
  0
LINE
  8
0
 62
7
  6
CONTINUOUS
 10
303.4461644957
 20
308.8187436696
 11
303.8177369085
 21
309.1533089728
  0
LINE
  8
0
 62
7
  6
CONTINUOUS
 10
282.4923873817
 20
287.3609410597
 11
282.103439431
 21
287.0300771893
  0
LINE
  8
0
 62
7
  6
CONTINUOUS
 10
282.5137383379
 20
286.2850515836
 11
283.1619851041
 21
286.836491522
  0
LINE
  8
0
 62
7
  6
CONTINUOUS
 10
82.4577235785
 20
148.3258452887
 11
82.8907362804
 21
148.5758452887
  0
LINE
  8
0
 62
9
  6
CONTINUOUS
 10
82.9577235785
 20
147.4598198849
 11
83.3907362804
 21
147.7098198849
  0
LINE
  8
0
 62
7
  6
CONTINUOUS
 10
330.7014816254
 20
258.908297644
 11
331.1770098835
 21
259.0628061412
  0
LINE
  8
0
 62
7
  6
CONTINUOUS
 10
63.3579784454
 20
208.691492513
 11
62.8607174977
 21
208.6392282814
  0
LINE
  8
0
 62
7
  6
CONTINUOUS
 10
336.4767414738
 20
208.6392282814
 11
335.9794805261
 21
208.691492513
  0
LINE
  8
0
 62
9
  6
CONTINUOUS
 10
336.5812699371
 20
209.6337501768
 11
336.0840089894
 21
209.6860144084
  0
LINE
  8
0
 62
7
  6
CONTINUOUS
 10
135.4198037916
 20
242.2800534552
 11
136.2547915712
 21
242.1521724568
  0
LINE
  8
0
 62
7
  6
CONTINUOUS
 10
133.2558564416
 20
244.2082985588
 11
134.0908441579
 21
244.0804175815
  0
LINE
  8
0
 62
7
  6
CONTINUOUS
 10
136.1269105728
 20
242.9871602363
 11
135.5301324399
 21
243.1125337923
  0
LINE
  8
0
 62
7
  6
CONTINUOUS
 10
133.9629632439
 20
244.9154053611
 11
133.3661851953
 21
245.0407788327
  0
LINE
  8
0
 62
7
  6
CONTINUOUS
 10
134.5171141385
 20
248.8395973578
 11
135.1138922714
 21
248.7142239705
  0
LINE
  8
0
 62
7
  6
CONTINUOUS
 10
141.4302114317
 20
248.2904610952
 11
140.2366550816
 21
248.5412079542
  0
LINE
  8
0
 62
7
  6
CONTINUOUS
 10
70.6445878096
 20
265.0901649999
 11
70.1690595515
 21
265.2446734971
  0
LINE
  8
0
 62
7
  6
CONTINUOUS
 10
140.1263264333
 20
247.7087277857
 11
140.8434632373
 21
247.4629957273
  0
LINE
  8
0
 62
7
  6
CONTINUOUS
 10
140.8885975387
 20
254.4889292378
 11
140.1714611562
 21
254.734661549
  0
LINE
  8
0
 62
7
  6
CONTINUOUS
 10
105.8668617328
 20
267.0380857269
 11
101.8718083718
 21
268.9419974551
  0
LINE
  8
0
 62
7
  6
CONTINUOUS
 10
141.3675249909
 20
254.2457044955
 11
140.8885975387
 21
254.4889292378
  0
LINE
  8
0
 62
7
  6
CONTINUOUS
 10
150.9686305239
 20
258.5510318763
 11
151.447557049
 21
258.3078067125
  0
LINE
  8
0
 62
7
  6
CONTINUOUS
 10
149.3939384526
 20
261.0685320901
 11
148.9150120118
 21
261.3117571695
  0
LINE
  8
0
 62
7
  6
CONTINUOUS
 10
109.8121442171
 20
272.1645340432
 11
106.9827691568
 21
273.7309530787
  0
LINE
  8
0
 62
7
  6
CONTINUOUS
 10
320.1297353931
 20
153.9550104133
 11
319.6967226912
 21
154.2050104133
  0
LINE
  8
0
 62
9
  6
CONTINUOUS
 10
320.6297353931
 20
154.8210358171
 11
320.1967226912
 21
155.0710358171
  0
LINE
  8
0
 62
7
  6
CONTINUOUS
 10
154.95550913
 20
264.4636482068
 11
155.6751529128
 21
263.9797057853
  0
LINE
  8
0
 62
7
  6
CONTINUOUS
 10
156.2644090133
 20
264.5689618859
 11
155.4244066439
 21
265.1732628941
  0
LINE
  8
0
 62
7
  6
CONTINUOUS
 10
156.8060228221
 20
269.6842023266
 11
157.6460263716
 21
269.0799028357
  0
LINE
  8
0
 62
7
  6
CONTINUOUS
 10
153.0498309452
 20
264.4837074093
 11
152.0894701577
 21
265.2083668356
  0
LINE
  8
0
 62
7
  6
CONTINUOUS
 10
100.2406434172
 20
313.6491850352
 11
99.8690710044
 21
313.9837503384
  0
LINE
  8
0
 62
7
  6
CONTINUOUS
 10
125.2103091137
 20
292.4205291994
 11
124.4591697594
 21
293.1124797396
  0
LINE
  8
0
 62
7
  6
CONTINUOUS
 10
157.6460263716
 20
269.0799028357
 11
158.4885364786
 21
268.2373927288
  0
LINE
  8
0
 62
7
  6
CONTINUOUS
 10
159.1981498171
 20
268.7062888939
 11
158.1149225368
 21
269.7895161743
  0
LINE
  8
0
 62
7
  6
CONTINUOUS
 10
164.1052692885
 20
277.7056009876
 11
164.5867039725
 21
277.2241663036
  0
LINE
  8
0
 62
7
  6
CONTINUOUS
 10
125.8271406136
 20
301.2513485982
 11
126.0604492898
 21
301.003444228
  0
LINE
  8
0
 62
7
  6
CONTINUOUS
 10
128.1602275387
 20
298.7723047224
 11
128.5101905529
 21
298.4004481671
  0
LINE
  8
0
 62
7
  6
CONTINUOUS
 10
129.3550640654
 20
298.9618402999
 11
128.7717923749
 21
299.5816012255
  0
LINE
  8
0
 62
7
  6
CONTINUOUS
 10
126.9053228022
 20
301.5648363609
 11
126.438705123
 21
302.0606454485
  0
LINE
  8
0
 62
7
  6
CONTINUOUS
 10
282.9539270371
 20
110.6474179528
 11
282.6600344109
 21
111.05192645
  0
LINE
  8
0
 62
9
  6
CONTINUOUS
 10
283.7629440314
 20
111.2352032051
 11
283.4690514053
 21
111.6397117023
  0
LINE
  8
0
 62
7
  6
CONTINUOUS
 10
143.3786270187
 20
307.2634866873
 11
142.7989115169
 21
308.1042814404
  0
LINE
  8
0
 62
7
  6
CONTINUOUS
 10
139.5138569165
 20
312.8687851721
 11
138.8375222434
 21
313.8497122695
  0
LINE
  8
0
 62
7
  6
CONTINUOUS
 10
169.1728687861
 20
282.7732004852
 11
169.6568100275
 21
282.0535551852
  0
LINE
  8
0
 62
7
  6
CONTINUOUS
 10
170.3639168087
 20
282.7606619664
 11
170.0003344912
 21
283.3599483426
  0
LINE
  8
0
 62
7
  6
CONTINUOUS
 10
175.4691283225
 20
284.2551155419
 11
175.83271064
 21
283.6558291658
  0
LINE
  8
0
 62
7
  6
CONTINUOUS
 10
150.606533236
 20
314.5527502382
 11
150.7691036679
 21
314.2536509741
  0
LINE
  8
0
 62
7
  6
CONTINUOUS
 10
148.9324193764
 20
318.6798166511
 11
148.5259932966
 21
319.4275648115
  0
LINE
  8
0
 62
7
  6
CONTINUOUS
 10
151.5825612792
 20
314.5020614737
 11
151.2574204155
 21
315.100260002
  0
LINE
  8
0
 62
7
  6
CONTINUOUS
 10
156.072357167
 20
320.7174355835
 11
156.2132024574
 21
320.40751282
  0
LINE
  8
0
 62
7
  6
CONTINUOUS
 10
157.4808101698
 20
317.6182077318
 11
157.6920781054
 21
317.1533235866
  0
LINE
  8
0
 62
7
  6
CONTINUOUS
 10
158.6728989769
 20
317.4120952948
 11
158.3207857508
 21
318.1869022034
  0
LINE
  8
0
 62
7
  6
CONTINUOUS
 10
157.1940233288
 20
320.6662845282
 11
156.9123325507
 21
321.2861304893
  0
LINE
  8
0
 62
7
  6
CONTINUOUS
 10
147.0287183818
 20
345.9722569099
 11
146.8253500603
 21
346.4290296387
  0
LINE
  8
0
 62
7
  6
CONTINUOUS
 10
163.4606373536
 20
323.5962481519
 11
163.5787857289
 21
323.2769826251
  0
LINE
  8
0
 62
7
  6
CONTINUOUS
 10
164.6421211891
 20
320.4035926608
 11
164.819343752
 21
319.9246943707
  0
LINE
  8
0
 62
7
  6
CONTINUOUS
 10
165.8162605363
 20
320.1121225011
 11
165.5208895981
 21
320.9102863179
  0
LINE
  8
0
 62
7
  6
CONTINUOUS
 10
164.5757025131
 20
323.4644107555
 11
164.3394055971
 21
324.1029422562
  0
LINE
  8
0
 62
7
  6
CONTINUOUS
 10
231.3773514022
 20
86.2047270735
 11
231.2733955568
 21
86.6938008739
  0
LINE
  8
0
 62
9
  6
CONTINUOUS
 10
232.3554990029
 20
86.4126387643
 11
232.2515431575
 21
86.9017125647
  0
LINE
  8
0
 62
7
  6
CONTINUOUS
 10
216.3017622916
 20
370.1853877145
 11
216.4758090144
 21
368.1960245692
  0
LINE
  8
0
 62
9
  6
CONTINUOUS
 10
184.288654238
 20
71.3467069639
 11
183.7047989984
 21
69.4370025247
  0
LINE
  8
0
 62
7
  6
CONTINUOUS
 10
185.2449589939
 20
71.0543352592
 11
184.6611037544
 21
69.14463082
  0
LINE
  8
0
 62
7
  6
CONTINUOUS
 10
276.0511716284
 20
350.4143381773
 11
275.4010243339
 21
348.5261733326
  0
LINE
  8
0
 62
9
  6
CONTINUOUS
 10
125.2571003513
 20
90.4325229139
 11
123.9469752765
 21
88.9253964182
  0
LINE
  8
0
 62
7
  6
CONTINUOUS
 10
126.0118099316
 20
89.7764638849
 11
124.7016848567
 21
88.2693373892
  0
LINE
  8
0
 62
7
  6
CONTINUOUS
 10
322.5933628061
 20
308.0503115004
 11
321.2314378679
 21
306.5898258113
  0
LINE
  8
0
 62
9
  6
CONTINUOUS
 10
79.0919931505
 20
131.8785794438
 11
77.2821307679
 21
131.0346267546
  0
LINE
  8
0
 62
7
  6
CONTINUOUS
 10
79.5146114122
 20
130.9722716567
 11
77.7047490296
 21
130.1283189675
  0
LINE
  8
0
 62
7
  6
CONTINUOUS
 10
347.8807681475
 20
250.4184327613
 11
346.0425547601
 21
249.6381574715
  0
LINE
  8
0
 62
9
  6
CONTINUOUS
 10
335.8801594141
 20
280.6327524179
 11
337.8259395919
 21
281.0819711678
  0
LINE
  8
0
 62
7
  6
CONTINUOUS
 10
335.6552083598
 20
281.6071224827
 11
337.6009885375
 21
282.0563412326
  0
LINE
  8
0
 62
7
  6
CONTINUOUS
 10
48.3192427141
 20
220.5676079865
 11
50.2795150834
 21
220.9486463356
  0
LINE
  8
0
 62
7
  6
CONTINUOUS
 10
140.8434632373
 20
247.4629957273
 11
141.5580924301
 21
247.4554733157
  0
LINE
  8
0
 62
7
  6
CONTINUOUS
 10
135.2242209197
 20
249.546704139
 11
134.3892331822
 21
249.6745850952
  0
LINE
  8
0
 62
7
  6
CONTINUOUS
 10
151.447557049
 20
258.3078067125
 11
152.2825448285
 21
258.1799257141
  0
LINE
  8
0
 62
7
  6
CONTINUOUS
 10
140.7431646117
 20
256.9913852183
 11
145.5148814317
 21
256.2266063755
  0
LINE
  8
0
 62
7
  6
CONTINUOUS
 10
146.4702277558
 20
255.9783668326
 11
150.4069575127
 21
255.3414696203
  0
LINE
  8
0
 62
7
  6
CONTINUOUS
 10
145.3870004754
 20
257.0615941129
 11
141.4502713929
 21
257.6984919995
  0
LINE
  8
0
 62
7
  6
CONTINUOUS
 10
151.1140642939
 20
256.0485764015
 11
146.2219882128
 21
256.9337131567
  0
LINE
  8
0
 62
9
  6
CONTINUOUS
 10
348.8671348928
 20
219.9670191522
 11
350.8274072621
 21
219.585980803
  0
LINE
  8
0
 62
7
  6
CONTINUOUS
 10
349.0579438881
 20
220.9486463356
 11
351.0182162575
 21
220.5676079865
  0
LINE
  8
0
 62
7
  6
CONTINUOUS
 10
102.7938721101
 20
262.963807796
 11
103.4801975708
 21
262.8213530159
  0
LINE
  8
0
 62
7
  6
CONTINUOUS
 10
106.5531870961
 20
266.8956308117
 11
105.8668617328
 21
267.0380857269
  0
LINE
  8
0
 62
7
  6
CONTINUOUS
 10
139.5847129618
 20
253.9071961811
 11
140.7782688904
 21
253.6564483949
  0
LINE
  8
0
 62
7
  6
CONTINUOUS
 10
152.1546638302
 20
259.0149134937
 11
151.5578866245
 21
259.1402879768
  0
LINE
  8
0
 62
7
  6
CONTINUOUS
 10
149.9907169227
 20
260.9431590399
 11
149.3939384526
 21
261.0685320901
  0
LINE
  8
0
 62
7
  6
CONTINUOUS
 10
61.736470434
 20
282.0563412326
 11
63.6822506118
 21
281.6071224827
  0
LINE
  8
0
 62
7
  6
CONTINUOUS
 10
105.7538436416
 20
273.2682960267
 11
106.5791416102
 21
273.0018929177
  0
LINE
  8
0
 62
7
  6
CONTINUOUS
 10
106.9827691568
 20
273.7309530787
 11
106.1574716501
 21
273.9973570219
  0
LINE
  8
0
 62
7
  6
CONTINUOUS
 10
156.1540807022
 20
263.7364820545
 11
156.8712164946
 21
263.4907489847
  0
LINE
  8
0
 62
7
  6
CONTINUOUS
 10
148.446114498
 20
260.6021424823
 11
149.2836101415
 21
260.2360522587
  0
LINE
  8
0
 62
7
  6
CONTINUOUS
 10
152.0894701577
 20
265.2083668356
 11
151.251974177
 21
265.5744573963
  0
LINE
  8
0
 62
7
  6
CONTINUOUS
 10
151.1416458659
 20
264.741977565
 11
151.6205726438
 21
264.4987521483
  0
LINE
  8
0
 62
7
  6
CONTINUOUS
 10
155.6751529128
 20
263.9797057853
 11
156.1540807022
 21
263.7364820545
  0
LINE
  8
0
 62
7
  6
CONTINUOUS
 10
157.3952775739
 20
270.2734570785
 11
156.9163521447
 21
270.5166838438
  0
LINE
  8
0
 62
7
  6
CONTINUOUS
 10
166.5199638979
 20
274.583799597
 11
167.119250274
 21
274.2202172795
  0
LINE
  8
0
 62
7
  6
CONTINUOUS
 10
158.1149225368
 20
269.7895161743
 11
157.3952775739
 21
270.2734570785
  0
LINE
  8
0
 62
9
  6
CONTINUOUS
 10
336.0563506516
 20
159.2638352829
 11
337.6921663114
 21
158.1184248268
  0
LINE
  8
0
 62
7
  6
CONTINUOUS
 10
336.629927088
 20
160.0829873272
 11
338.2657427477
 21
158.9375768711
  0
LINE
  8
0
 62
7
  6
CONTINUOUS
 10
99.0034388193
 20
332.7718160236
 11
100.5982837359
 21
331.5700141774
  0
LINE
  8
0
 62
7
  6
CONTINUOUS
 10
165.173452167
 20
278.0516316715
 11
164.9327349936
 21
278.2923488449
  0
LINE
  8
0
 62
7
  6
CONTINUOUS
 10
169.9326326597
 20
278.4779027057
 11
170.2937084199
 21
278.1168269456
  0
LINE
  8
0
 62
7
  6
CONTINUOUS
 10
171.1211737878
 20
278.7035751401
 11
170.5193808542
 21
279.3053680736
  0
LINE
  8
0
 62
7
  6
CONTINUOUS
 10
169.6568100275
 20
282.0535551852
 11
171.4621889967
 21
280.248176216
  0
LINE
  8
0
 62
7
  6
CONTINUOUS
 10
172.1692957779
 20
280.9552829972
 11
170.3639168087
 21
282.7606619664
  0
LINE
  8
0
 62
7
  6
CONTINUOUS
 10
173.6637493534
 20
286.0604945111
 11
175.4691283225
 21
284.2551155419
  0
LINE
  8
0
 62
7
  6
CONTINUOUS
 10
176.1762351037
 20
284.9622223231
 11
174.3708561346
 21
286.7676012923
  0
LINE
  8
0
 62
7
  6
CONTINUOUS
 10
176.6601760079
 20
284.2425773602
 11
176.1762351037
 21
284.9622223231
  0
LINE
  8
0
 62
9
  6
CONTINUOUS
 10
299.6629076682
 20
109.019332772
 11
300.6914192299
 21
107.3076020826
  0
LINE
  8
0
 62
7
  6
CONTINUOUS
 10
300.5200749689
 20
109.5343708469
 11
301.5485865306
 21
107.8226401575
  0
LINE
  8
0
 62
7
  6
CONTINUOUS
 10
153.6763504762
 20
363.9448660325
 11
154.6444969569
 21
362.1982835473
  0
LINE
  8
0
 62
9
  6
CONTINUOUS
 10
245.9795628585
 20
77.9212425608
 11
246.2229313293
 21
75.9391654248
  0
LINE
  8
0
 62
7
  6
CONTINUOUS
 10
246.9721090102
 20
78.0431119042
 11
247.215477481
 21
76.0610347682
  0
LINE
  8
0
 62
9
  6
CONTINUOUS
 10
231.5736664076
 20
354.470427851
 11
231.5736664076
 21
353.470427851
  0
LINE
  8
0
 62
7
  6
CONTINUOUS
 10
273.8726418542
 20
301.8374912812
 11
273.6623858087
 21
301.3432005999
  0
LINE
  8
0
 62
7
  6
CONTINUOUS
 10
274.4157193053
 20
300.6855619126
 11
274.6259753507
 21
301.1798525939
  0
LINE
  8
0
 62
9
  6
CONTINUOUS
 10
283.6109002423
 20
329.8463649635
 11
283.2041635992
 21
328.9328195059
  0
LINE
  8
0
 62
7
  6
CONTINUOUS
 10
276.0472121603
 20
290.4146940143
 11
279.8696537799
 21
297.9313474121
  0
LINE
  8
0
 62
7
  6
CONTINUOUS
 10
276.3308320711
 20
293.0356438417
 11
275.3449307551
 21
291.126593465
  0
LINE
  8
0
 62
7
  6
CONTINUOUS
 10
278.9167758799
 20
297.9277908192
 11
276.6984897547
 21
293.6324354932
  0
LINE
  8
0
 62
7
  6
CONTINUOUS
 10
278.7340809976
 20
290.7282383711
 11
278.3018116343
 21
289.9229057749
  0
LINE
  8
0
 62
7
  6
CONTINUOUS
 10
283.1619851041
 20
286.836491522
 11
283.5942543765
 21
287.641824041
  0
LINE
  8
0
 62
7
  6
CONTINUOUS
 10
279.122724187
 20
289.7459726298
 11
279.4036785383
 21
290.2037886789
  0
LINE
  8
0
 62
7
  6
CONTINUOUS
 10
282.7733419146
 20
287.8187572632
 11
282.4923873817
 21
287.3609410597
  0
LINE
  8
0
 62
7
  6
CONTINUOUS
 10
285.2796958596
 20
289.075567788
 11
285.5606502109
 21
289.5333838371
  0
LINE
  8
0
 62
9
  6
CONTINUOUS
 10
321.1337701624
 20
286.1857143591
 11
320.390625337
 21
285.5165837527
  0
LINE
  8
0
 62
9
  6
CONTINUOUS
 10
337.6542310744
 20
231.0377991717
 11
336.7031745581
 21
230.7287821774
  0
LINE
  8
0
 62
7
  6
CONTINUOUS
 10
136.2547915712
 20
242.1521724568
 11
137.205123042
 21
242.3803523441
  0
LINE
  8
0
 62
7
  6
CONTINUOUS
 10
134.0908441579
 20
244.0804175815
 11
135.041175555
 21
244.3085974584
  0
LINE
  8
0
 62
7
  6
CONTINUOUS
 10
141.5580924301
 20
247.4554733157
 11
142.508423648
 21
247.6836529502
  0
LINE
  8
0
 62
7
  6
CONTINUOUS
 10
134.3892331822
 20
249.6745850952
 11
133.4389016588
 21
249.446405092
  0
LINE
  8
0
 62
7
  6
CONTINUOUS
 10
136.7211811368
 20
243.0999964535
 11
136.1269105728
 21
242.9871602363
  0
LINE
  8
0
 62
7
  6
CONTINUOUS
 10
134.5572338079
 20
245.0282415783
 11
133.9629632439
 21
244.9154053611
  0
LINE
  8
0
 62
7
  6
CONTINUOUS
 10
142.0244819957
 20
248.4032973124
 11
141.4302114317
 21
248.2904610952
  0
LINE
  8
0
 62
7
  6
CONTINUOUS
 10
133.9228435745
 20
248.7267611406
 11
134.5171141385
 21
248.8395973578
  0
LINE
  8
0
 62
7
  6
CONTINUOUS
 10
138.9904423978
 20
253.7943599639
 11
139.5847129618
 21
253.9071961811
  0
LINE
  8
0
 62
9
  6
CONTINUOUS
 10
62.3517657147
 20
237.3985116187
 11
63.34628761
 21
237.503040082
  0
LINE
  8
0
 62
7
  6
CONTINUOUS
 10
103.4801975708
 20
262.8213530159
 11
103.8592111517
 21
262.8253530237
  0
LINE
  8
0
 62
7
  6
CONTINUOUS
 10
140.1714611562
 20
254.734661549
 11
139.4568320055
 21
254.7421839185
  0
LINE
  8
0
 62
7
  6
CONTINUOUS
 10
156.8712164946
 20
263.4907489847
 11
157.5858456874
 21
263.483226573
  0
LINE
  8
0
 62
7
  6
CONTINUOUS
 10
105.6620085174
 20
266.2125845166
 11
106.573691737
 21
266.147357247
  0
LINE
  8
0
 62
7
  6
CONTINUOUS
 10
103.685050608
 20
263.6468541296
 11
103.1523811346
 21
263.7160814767
  0
LINE
  8
0
 62
7
  6
CONTINUOUS
 10
149.2836101415
 20
260.2360522587
 11
150.1185978789
 21
260.1081713025
  0
LINE
  8
0
 62
7
  6
CONTINUOUS
 10
151.251974177
 20
265.5744573963
 11
150.4169864396
 21
265.7023383526
  0
LINE
  8
0
 62
7
  6
CONTINUOUS
 10
106.1574716501
 20
273.9973570219
 11
105.6300025913
 21
274.0988739409
  0
LINE
  8
0
 62
7
  6
CONTINUOUS
 10
150.5448673958
 20
264.8673506151
 11
151.1416458659
 21
264.741977565
  0
LINE
  8
0
 62
7
  6
CONTINUOUS
 10
157.4579646891
 20
264.3182143526
 11
156.2644090133
 21
264.5689618859
  0
LINE
  8
0
 62
7
  6
CONTINUOUS
 10
155.6124655447
 20
269.9349487641
 11
156.8060228221
 21
269.6842023266
  0
LINE
  8
0
 62
7
  6
CONTINUOUS
 10
167.119250274
 20
274.2202172795
 11
168.0745967246
 21
273.9719776102
  0
LINE
  8
0
 62
9
  6
CONTINUOUS
 10
81.4015633238
 20
291.7245954947
 11
82.3526198401
 21
291.4155785003
  0
LINE
  8
0
 62
7
  6
CONTINUOUS
 10
156.9163521447
 20
270.5166838438
 11
156.1992137392
 21
270.762414132
  0
LINE
  8
0
 62
7
  6
CONTINUOUS
 10
167.7059984685
 20
275.0476826474
 11
167.2270706791
 21
275.2909063782
  0
LINE
  8
0
 62
7
  6
CONTINUOUS
 10
165.6523799564
 20
277.8084079407
 11
165.173452167
 21
278.0516316715
  0
LINE
  8
0
 62
7
  6
CONTINUOUS
 10
167.7586552238
 20
281.3589869229
 11
167.2797274343
 21
281.6022106537
  0
LINE
  8
0
 62
7
  6
CONTINUOUS
 10
127.6888963506
 20
299.0299391413
 11
128.1602275387
 21
298.7723047224
  0
LINE
  8
0
 62
7
  6
CONTINUOUS
 10
128.7717923749
 20
299.5816012255
 11
128.3004611869
 21
299.8392356444
  0
LINE
  8
0
 62
7
  6
CONTINUOUS
 10
125.3558092621
 20
301.5089831907
 11
125.8271406136
 21
301.2513485982
  0
LINE
  8
0
 62
7
  6
CONTINUOUS
 10
126.438705123
 20
302.0606454485
 11
125.9673740984
 21
302.3182796938
  0
LINE
  8
0
 62
7
  6
CONTINUOUS
 10
164.5867039725
 20
277.2241663036
 11
165.1859903486
 21
276.8605839861
  0
LINE
  8
0
 62
7
  6
CONTINUOUS
 10
172.768582154
 20
280.5917006797
 11
172.1692957779
 21
280.9552829972
  0
LINE
  8
0
 62
7
  6
CONTINUOUS
 10
173.0644629772
 20
286.4240768286
 11
173.6637493534
 21
286.0604945111
  0
LINE
  8
0
 62
7
  6
CONTINUOUS
 10
171.4621889967
 20
280.248176216
 11
172.1818339595
 21
279.7642353119
  0
LINE
  8
0
 62
7
  6
CONTINUOUS
 10
174.3708561346
 20
286.7676012923
 11
173.6512108345
 21
287.2515425336
  0
LINE
  8
0
 62
7
  6
CONTINUOUS
 10
146.3922213359
 20
311.4872076378
 11
147.0102325554
 21
311.0481937861
  0
LINE
  8
0
 62
7
  6
CONTINUOUS
 10
147.8888367487
 20
311.5257444867
 11
147.2708255291
 21
311.9647583385
  0
LINE
  8
0
 62
7
  6
CONTINUOUS
 10
151.2574204155
 20
315.100260002
 11
150.558123923
 21
315.6888235905
  0
LINE
  8
0
 62
9
  6
CONTINUOUS
 10
120.9008283858
 20
333.6056919203
 11
121.6439732113
 21
332.936561314
  0
LINE
  8
0
 62
7
  6
CONTINUOUS
 10
150.2162456765
 20
314.921808775
 11
150.606533236
 21
314.5527502382
  0
LINE
  8
0
 62
7
  6
CONTINUOUS
 10
259.1760351101
 20
223.8827325335
 11
254.933394423
 21
228.1253732206
  0
LINE
  8
0
 62
7
  6
CONTINUOUS
 10
208.0436748554
 20
275.0150927882
 11
203.8010341682
 21
279.2577334754
  0
LINE
  8
0
 62
7
  6
CONTINUOUS
 10
157.1178114131
 20
318.0141376312
 11
157.4808101698
 21
317.6182077318
  0
LINE
  8
0
 62
7
  6
CONTINUOUS
 10
158.3207857508
 20
318.1869022034
 11
157.9577869941
 21
318.5828321029
  0
LINE
  8
0
 62
7
  6
CONTINUOUS
 10
155.7093583116
 20
321.1133657
 11
156.072357167
 21
320.7174355835
  0
LINE
  8
0
 62
7
  6
CONTINUOUS
 10
156.9123325507
 20
321.2861304893
 11
156.5493338926
 21
321.6820601717
  0
LINE
  8
0
 62
7
  6
CONTINUOUS
 10
164.3085938291
 20
320.8246485749
 11
164.6421211891
 21
320.4035926608
  0
LINE
  8
0
 62
7
  6
CONTINUOUS
 10
165.5208895981
 20
320.9102863179
 11
165.187362238
 21
321.331342232
  0
LINE
  8
0
 62
7
  6
CONTINUOUS
 10
163.1271099108
 20
324.0173042895
 11
163.4606373536
 21
323.5962481519
  0
LINE
  8
0
 62
7
  6
CONTINUOUS
 10
164.3394055971
 20
324.1029422562
 11
164.0058783198
 21
324.5239979466
  0
LINE
  8
0
 62
9
  6
CONTINUOUS
 10
174.0197791319
 20
355.8001788458
 11
174.426515775
 21
354.8866333881
  0
LINE
  8
0
 62
7
  6
CONTINUOUS
 10
278.9497534576
 20
289.1612159472
 11
279.122724187
 21
289.7459726298
  0
LINE
  8
0
 62
7
  6
CONTINUOUS
 10
203.8010341682
 20
160.2431222267
 11
208.0436748554
 21
164.4857629138
  0
LINE
  8
0
 62
7
  6
CONTINUOUS
 10
254.933394423
 20
211.3754824814
 11
259.1760351101
 21
215.6181231686
  0
LINE
  8
0
 62
7
  6
CONTINUOUS
 10
212.1683716147
 20
166.3477179733
 11
253.0714393635
 21
207.2507857221
  0
LINE
  8
0
 62
7
  6
CONTINUOUS
 10
205.3255837353
 20
147.62553617
 11
271.7936211668
 21
214.0935736015
  0
LINE
  8
0
 62
7
  6
CONTINUOUS
 10
139.4568320055
 20
254.7421839185
 11
138.5065001449
 21
254.5140035781
  0
LINE
  8
0
 62
7
  6
CONTINUOUS
 10
152.2825448285
 20
258.1799257141
 11
153.2328767208
 21
258.4081060229
  0
LINE
  8
0
 62
7
  6
CONTINUOUS
 10
150.1185978789
 20
260.1081713025
 11
151.0689297396
 21
260.3363516429
  0
LINE
  8
0
 62
7
  6
CONTINUOUS
 10
157.5858456874
 20
263.483226573
 11
158.5361775797
 21
263.7114068818
  0
LINE
  8
0
 62
7
  6
CONTINUOUS
 10
150.4169864396
 20
265.7023383526
 11
149.4666559276
 21
265.4741593608
  0
LINE
  8
0
 62
7
  6
CONTINUOUS
 10
152.7489343942
 20
259.1277497108
 11
152.1546638302
 21
259.0149134937
  0
LINE
  8
0
 62
7
  6
CONTINUOUS
 10
150.5849874867
 20
261.0559952571
 11
149.9907169227
 21
260.9431590399
  0
LINE
  8
0
 62
7
  6
CONTINUOUS
 10
158.0522366018
 20
264.4310519184
 11
157.4579646891
 21
264.3182143526
  0
LINE
  8
0
 62
7
  6
CONTINUOUS
 10
149.9505968318
 20
264.754514398
 11
150.5448673958
 21
264.8673506151
  0
LINE
  8
0
 62
7
  6
CONTINUOUS
 10
155.0181949807
 20
269.8221125469
 11
155.6124655447
 21
269.9349487641
  0
LINE
  8
0
 62
7
  6
CONTINUOUS
 10
104.2894220042
 20
263.7280814889
 11
103.685050608
 21
263.6468541296
  0
LINE
  8
0
 62
7
  6
CONTINUOUS
 10
281.6064978807
 20
286.8261654978
 11
281.001572527
 21
286.7491942853
  0
LINE
  8
0
 62
7
  6
CONTINUOUS
 10
106.9322008385
 20
266.8996310891
 11
106.5531870961
 21
266.8956308117
  0
LINE
  8
0
 62
7
  6
CONTINUOUS
 10
156.1992137392
 20
270.762414132
 11
155.4845845885
 21
270.7699365015
  0
LINE
  8
0
 62
7
  6
CONTINUOUS
 10
168.4206277035
 20
275.0401601936
 11
167.7059984685
 21
275.0476826474
  0
LINE
  8
0
 62
7
  6
CONTINUOUS
 10
165.1859903486
 20
276.8605839861
 11
166.1388301154
 21
276.8505550592
  0
LINE
  8
0
 62
7
  6
CONTINUOUS
 10
172.8989697519
 20
279.518502242
 11
173.8518095608
 21
279.508473273
  0
LINE
  8
0
 62
7
  6
CONTINUOUS
 10
169.8022449776
 20
279.5511012277
 11
168.8494052108
 21
279.5611301546
  0
LINE
  8
0
 62
7
  6
CONTINUOUS
 10
167.2797274343
 20
281.6022106537
 11
166.4447396969
 21
281.7300916099
  0
LINE
  8
0
 62
7
  6
CONTINUOUS
 10
169.3358553698
 20
278.6032772731
 11
169.9326326597
 21
278.4779027057
  0
LINE
  8
0
 62
7
  6
CONTINUOUS
 10
173.3653592754
 20
280.4663262809
 11
172.768582154
 21
280.5917006797
  0
LINE
  8
0
 62
7
  6
CONTINUOUS
 10
170.5193808542
 20
279.3053680736
 11
169.8022449776
 21
279.5511012277
  0
LINE
  8
0
 62
7
  6
CONTINUOUS
 10
166.6929792398
 20
280.7747452858
 11
167.0515484426
 21
280.6518801417
  0
LINE
  8
0
 62
7
  6
CONTINUOUS
 10
172.1818339595
 20
279.7642353119
 11
172.8989697519
 21
279.518502242
  0
LINE
  8
0
 62
7
  6
CONTINUOUS
 10
173.6512108345
 20
287.2515425336
 11
172.9340751264
 21
287.4972755192
  0
LINE
  8
0
 62
7
  6
CONTINUOUS
 10
253.0714393635
 20
232.2500699799
 11
212.1683716147
 21
273.1531377287
  0
LINE
  8
0
 62
7
  6
CONTINUOUS
 10
271.7936211668
 20
225.4072821005
 11
205.3255837353
 21
291.8753195321
  0
LINE
  8
0
 62
7
  6
CONTINUOUS
 10
274.6259753507
 20
301.1798525939
 11
274.6970625489
 21
302.021579789
  0
LINE
  8
0
 62
9
  6
CONTINUOUS
 10
245.0045246779
 20
73.8300902454
 11
245.1174549278
 21
74.8236931634
  0
LINE
  8
0
 62
7
  6
CONTINUOUS
 10
278.3018116343
 20
289.9229057749
 11
278.1071852329
 21
289.1009089953
  0
LINE
  8
0
 62
7
  6
CONTINUOUS
 10
285.5606502109
 20
289.5333838371
 11
285.7552765669
 21
290.3553805781
  0
LINE
  8
0
 62
7
  6
CONTINUOUS
 10
284.9127083876
 20
290.2950736648
 11
284.7397476358
 21
289.7103054369
  0
LINE
  8
0
 62
9
  6
CONTINUOUS
 10
181.733890978
 20
68.0058371061
 11
182.2411926102
 21
68.8676056678
  0
LINE
  8
0
 62
9
  6
CONTINUOUS
 10
121.5643537889
 20
88.4196022629
 11
122.3783097426
 21
89.0005288551
  0
LINE
  8
0
 62
7
  6
CONTINUOUS
 10
155.4845845885
 20
270.7699365015
 11
154.5342540765
 21
270.5417575098
  0
LINE
  8
0
 62
7
  6
CONTINUOUS
 10
168.0745967246
 20
273.9719776102
 11
169.0249272682
 21
274.2001565703
  0
LINE
  8
0
 62
7
  6
CONTINUOUS
 10
272.6821694762
 20
299.7134940985
 11
273.5065901709
 21
299.8975826062
  0
LINE
  8
0
 62
7
  6
CONTINUOUS
 10
166.2466505204
 20
277.9212441579
 11
165.6523799564
 21
277.8084079407
  0
LINE
  8
0
 62
7
  6
CONTINUOUS
 10
168.7415848058
 20
278.490441056
 11
169.3358553698
 21
278.6032772731
  0
LINE
  8
0
 62
7
  6
CONTINUOUS
 10
173.9596299237
 20
280.5791624138
 11
173.3653592754
 21
280.4663262809
  0
LINE
  8
0
 62
7
  6
CONTINUOUS
 10
171.8734149547
 20
286.4366153474
 11
172.4676855187
 21
286.5494515646
  0
LINE
  8
0
 62
7
  6
CONTINUOUS
 10
166.4447396969
 20
281.7300916099
 11
165.6122612143
 21
281.6197646475
  0
LINE
  8
0
 62
7
  6
CONTINUOUS
 10
282.3639576548
 20
292.5031720126
 11
282.9688829177
 21
292.5801431479
  0
LINE
  8
0
 62
7
  6
CONTINUOUS
 10
280.8069461256
 20
285.9271975057
 11
281.6495143503
 21
285.9875044576
  0
LINE
  8
0
 62
7
  6
CONTINUOUS
 10
283.1635092737
 20
293.4021398889
 11
282.3209410944
 21
293.3418329756
  0
LINE
  8
0
 62
9
  6
CONTINUOUS
 10
340.0508192117
 20
280.090697463
 11
339.050854929
 21
280.099149283
  0
LINE
  8
0
 62
7
  6
CONTINUOUS
 10
166.2165607052
 20
280.7797610979
 11
166.6929792398
 21
280.7747452858
  0
LINE
  8
0
 62
7
  6
CONTINUOUS
 10
176.9184473227
 20
282.3343938193
 11
177.3948658784
 21
282.329377986
  0
LINE
  8
0
 62
7
  6
CONTINUOUS
 10
174.536349107
 20
282.3594676327
 11
175.7273968767
 21
282.3469293667
  0
LINE
  8
0
 62
7
  6
CONTINUOUS
 10
178.1019726596
 20
283.0364847672
 11
176.9109248899
 21
283.0490230332
  0
LINE
  8
0
 62
7
  6
CONTINUOUS
 10
175.9580850389
 20
283.0590520444
 11
175.2434558882
 21
283.0665744139
  0
LINE
  8
0
 62
7
  6
CONTINUOUS
 10
172.9340751264
 20
287.4972755192
 11
171.9812353597
 21
287.5073044461
  0
LINE
  8
0
 62
7
  6
CONTINUOUS
 10
109.8568150304
 20
286.7499139002
 11
114.6847072049
 21
286.536325895
  0
LINE
  8
0
 62
7
  6
CONTINUOUS
 10
115.6621882027
 20
286.3990656731
 11
119.6459442642
 21
286.2169479069
  0
LINE
  8
0
 62
7
  6
CONTINUOUS
 10
114.4620949084
 20
287.3511889669
 11
110.4783400324
 21
287.5333082274
  0
LINE
  8
0
 62
7
  6
CONTINUOUS
 10
120.2674692662
 20
287.0003422341
 11
115.3062322069
 21
287.3197202222
  0
LINE
  8
0
 62
7
  6
CONTINUOUS
 10
128.3004611869
 20
299.8392356444
 11
127.4697342473
 21
299.9923722258
  0
LINE
  8
0
 62
7
  6
CONTINUOUS
 10
125.9673740984
 20
302.3182796938
 11
125.1366471589
 21
302.4714162753
  0
LINE
  8
0
 62
7
  6
CONTINUOUS
 10
172.4676855187
 20
286.5494515646
 11
173.0644629772
 21
286.4240768286
  0
LINE
  8
0
 62
9
  6
CONTINUOUS
 10
352.4567485935
 20
217.7754671449
 11
351.5466734301
 21
218.1899103822
  0
LINE
  8
0
 62
7
  6
CONTINUOUS
 10
147.0102325554
 20
311.0481937861
 11
147.7746755443
 21
310.6887705557
  0
LINE
  8
0
 62
7
  6
CONTINUOUS
 10
150.558123923
 20
315.6888235905
 11
149.7936809626
 21
316.0482467685
  0
LINE
  8
0
 62
7
  6
CONTINUOUS
 10
149.6795197298
 20
315.2112728899
 11
150.2162456765
 21
314.921808775
  0
LINE
  8
0
 62
7
  6
CONTINUOUS
 10
157.9577869941
 20
318.5828321029
 11
157.2208973001
 21
318.9958110848
  0
LINE
  8
0
 62
7
  6
CONTINUOUS
 10
156.5493338926
 20
321.6820601717
 11
155.8124441987
 21
322.0950391536
  0
LINE
  8
0
 62
7
  6
CONTINUOUS
 10
165.187362238
 20
321.331342232
 11
164.4821441892
 21
321.7963428386
  0
LINE
  8
0
 62
7
  6
CONTINUOUS
 10
164.0058783198
 20
324.5239979466
 11
163.3006602709
 21
324.9889985533
  0
LINE
  8
0
 62
9
  6
CONTINUOUS
 10
338.444241436
 20
155.8017254748
 11
337.7814156555
 21
156.5504991287
  0
LINE
  8
0
 62
9
  6
CONTINUOUS
 10
300.4361875264
 20
104.8852954013
 11
300.1352197278
 21
105.8389297045
  0
LINE
  8
0
 62
7
  6
CONTINUOUS
 10
279.0144257354
 20
288.5597951198
 11
278.9497534576
 21
289.1612159472
  0
LINE
  8
0
 62
7
  6
CONTINUOUS
 10
273.8454114936
 20
302.3131547577
 11
273.8726418542
 21
301.8374912812
  0
LINE
  8
0
 62
7
  6
CONTINUOUS
 10
282.8166632363
 20
288.2932259119
 11
282.7733419146
 21
287.8187572632
  0
LINE
  8
0
 62
7
  6
CONTINUOUS
 10
283.5942543765
 20
287.641824041
 11
283.6592314156
 21
288.3535328251
  0
LINE
  8
0
 62
7
  6
CONTINUOUS
 10
105.2945638055
 20
273.1415583191
 11
105.7538436416
 21
273.2682960267
  0
LINE
  8
0
 62
7
  6
CONTINUOUS
 10
105.6300025913
 20
274.0988739409
 11
105.1707227553
 21
273.9721362334
  0
LINE
  8
0
 62
7
  6
CONTINUOUS
 10
272.865195161
 20
300.6834482564
 11
272.3902108539
 21
300.6462038815
  0
LINE
  8
0
 62
7
  6
CONTINUOUS
 10
127.2128460977
 20
299.0493936626
 11
127.6888963506
 21
299.0299391413
  0
LINE
  8
0
 62
7
  6
CONTINUOUS
 10
124.8797590092
 20
301.5284377121
 11
125.3558092621
 21
301.5089831907
  0
LINE
  8
0
 62
7
  6
CONTINUOUS
 10
147.7746755443
 20
310.6887705557
 11
148.7506969057
 21
310.6380781085
  0
LINE
  8
0
 62
7
  6
CONTINUOUS
 10
271.8441393486
 20
299.7672323116
 11
272.6821694762
 21
299.7134940985
  0
LINE
  8
0
 62
7
  6
CONTINUOUS
 10
280.2895682209
 20
290.7385643953
 11
280.7648441669
 21
290.7052475737
  0
LINE
  8
0
 62
7
  6
CONTINUOUS
 10
148.4907092772
 20
311.4654205729
 11
147.8888367487
 21
311.5257444867
  0
LINE
  8
0
 62
7
  6
CONTINUOUS
 10
281.001572527
 20
286.7491942853
 11
280.4183029815
 21
286.9094632856
  0
LINE
  8
0
 62
7
  6
CONTINUOUS
 10
279.878049917
 20
286.2310712554
 11
280.8069461256
 21
285.9271975057
  0
LINE
  8
0
 62
7
  6
CONTINUOUS
 10
156.673497732
 20
318.1861483125
 11
157.1178114131
 21
318.0141376312
  0
LINE
  8
0
 62
7
  6
CONTINUOUS
 10
155.2650446305
 20
321.2853763813
 11
155.7093583116
 21
321.1133657
  0
LINE
  8
0
 62
7
  6
CONTINUOUS
 10
163.8778288699
 20
321.0282262544
 11
164.3085938291
 21
320.8246485749
  0
LINE
  8
0
 62
7
  6
CONTINUOUS
 10
162.6963449516
 20
324.2208819691
 11
163.1271099108
 21
324.0173042895
  0
LINE
  8
0
 62
7
  6
CONTINUOUS
 10
278.1071852329
 20
289.1009089953
 11
278.2581953587
 21
288.1352958246
  0
LINE
  8
0
 62
7
  6
CONTINUOUS
 10
282.7519909585
 20
288.8946467393
 11
282.8166632363
 21
288.2932259119
  0
LINE
  8
0
 62
7
  6
CONTINUOUS
 10
284.8480361098
 20
290.8964944922
 11
284.9127083876
 21
290.2950736648
  0
LINE
  8
0
 62
7
  6
CONTINUOUS
 10
149.1577283875
 20
311.6342368601
 11
148.4907092772
 21
311.4654205729
  0
LINE
  8
0
 62
7
  6
CONTINUOUS
 10
125.1366471589
 20
302.4714162753
 11
124.3012037691
 21
302.3863757472
  0
LINE
  8
0
 62
7
  6
CONTINUOUS
 10
156.1478759737
 20
318.1342431493
 11
156.673497732
 21
318.1861483125
  0
LINE
  8
0
 62
7
  6
CONTINUOUS
 10
163.3498333839
 20
321.0143285709
 11
163.8778288699
 21
321.0282262544
  0
LINE
  8
0
 62
7
  6
CONTINUOUS
 10
157.2208973001
 20
318.9958110848
 11
156.8470062643
 21
319.0128603844
  0
LINE
  8
0
 62
7
  6
CONTINUOUS
 10
149.7936809626
 20
316.0482467685
 11
148.8176596226
 21
316.0989391765
  0
LINE
  8
0
 62
7
  6
CONTINUOUS
 10
149.0776472013
 20
315.2715968037
 11
149.6795197298
 21
315.2112728899
  0
LINE
  8
0
 62
7
  6
CONTINUOUS
 10
164.4821441892
 20
321.7963428386
 11
164.1104534176
 21
321.8402877548
  0
LINE
  8
0
 62
7
  6
CONTINUOUS
 10
155.8124441987
 20
322.0950391536
 11
154.9942394817
 21
322.2840991345
  0
LINE
  8
0
 62
7
  6
CONTINUOUS
 10
280.7648441669
 20
290.7052475737
 11
281.3481137124
 21
290.5449785734
  0
LINE
  8
0
 62
7
  6
CONTINUOUS
 10
281.8883765843
 20
291.2233589136
 11
280.7218374933
 21
291.5438969142
  0
LINE
  8
0
 62
7
  6
CONTINUOUS
 10
282.9688829177
 20
292.5801431479
 11
283.5521524632
 21
292.4198741476
  0
LINE
  8
0
 62
7
  6
CONTINUOUS
 10
163.3006602709
 20
324.9889985533
 11
162.4982045401
 21
325.236521149
  0
LINE
  8
0
 62
7
  6
CONTINUOUS
 10
284.0924153351
 20
293.0982544878
 11
283.1635092737
 21
293.4021398889
  0
LINE
  8
0
 62
7
  6
CONTINUOUS
 10
272.3902108539
 20
300.6462038815
 11
271.9016056191
 21
300.8467962623
  0
LINE
  8
0
 62
7
  6
CONTINUOUS
 10
280.4183029815
 20
286.9094632856
 11
279.964682753
 21
287.1800202427
  0
LINE
  8
0
 62
7
  6
CONTINUOUS
 10
281.3481137124
 20
290.5449785734
 11
281.801733941
 21
290.2744216164
  0
LINE
  8
0
 62
7
  6
CONTINUOUS
 10
279.2084424781
 20
286.7555325603
 11
279.878049917
 21
286.2310712554
  0
LINE
  8
0
 62
7
  6
CONTINUOUS
 10
278.2581953587
 20
288.1352958246
 11
278.6684942543
 21
287.3902702092
  0
LINE
  8
0
 62
7
  6
CONTINUOUS
 10
279.2087473302
 20
288.0686622491
 11
279.0144257354
 21
288.5597951198
  0
LINE
  8
0
 62
7
  6
CONTINUOUS
 10
274.6970625489
 20
302.021579789
 11
274.5306633411
 21
302.8446797792
  0
LINE
  8
0
 62
7
  6
CONTINUOUS
 10
283.6592314156
 20
288.3535328251
 11
283.5082311425
 21
289.3191343444
  0
LINE
  8
0
 62
7
  6
CONTINUOUS
 10
285.7552765669
 20
290.3553805781
 11
285.6042762939
 21
291.3209820973
  0
LINE
  8
0
 62
7
  6
CONTINUOUS
 10
148.410628091
 20
315.1027805165
 11
149.0776472013
 21
315.2715968037
  0
LINE
  8
0
 62
7
  6
CONTINUOUS
 10
154.9942394817
 20
322.2840991345
 11
154.1651562785
 21
322.0942850457
  0
LINE
  8
0
 62
7
  6
CONTINUOUS
 10
162.4982045401
 20
325.236521149
 11
161.6575996254
 21
325.1069382661
  0
LINE
  8
0
 62
7
  6
CONTINUOUS
 10
154.7394228722
 20
321.2334712181
 11
155.2650446305
 21
321.2853763813
  0
LINE
  8
0
 62
7
  6
CONTINUOUS
 10
162.1683494656
 20
324.2069842856
 11
162.6963449516
 21
324.2208819691
  0
LINE
  8
0
 62
7
  6
CONTINUOUS
 10
271.1044152849
 20
300.187044278
 11
271.8441393486
 21
299.7672323116
  0
LINE
  8
0
 62
7
  6
CONTINUOUS
 10
283.5521524632
 20
292.4198741476
 11
284.0057726918
 21
292.1493171905
  0
LINE
  8
0
 62
7
  6
CONTINUOUS
 10
282.557974125
 20
290.6989092215
 11
281.8883765843
 21
291.2233589136
  0
LINE
  8
0
 62
7
  6
CONTINUOUS
 10
284.7620128759
 20
292.5738047956
 11
284.0924153351
 21
293.0982544878
  0
LINE
  8
0
 62
7
  6
CONTINUOUS
 10
265.7403727663
 20
300.1248324482
 11
266.4937062628
 21
299.4671937609
  0
LINE
  8
0
 62
7
  6
CONTINUOUS
 10
268.8444147954
 20
302.1599603399
 11
271.1044152849
 21
300.187044278
  0
LINE
  8
0
 62
7
  6
CONTINUOUS
 10
271.9016056191
 20
300.8467962623
 11
269.5160457151
 21
302.929322117
  0
LINE
  8
0
 62
7
  6
CONTINUOUS
 10
271.1951233279
 20
304.8527269189
 11
273.5806832319
 21
302.7702010642
  0
LINE
  8
0
 62
7
  6
CONTINUOUS
 10
274.0148162506
 20
303.5209456713
 11
271.0014822645
 21
306.1515004204
  0
LINE
  8
0
 62
7
  6
CONTINUOUS
 10
271.3653325536
 20
295.1606939731
 11
272.0676139588
 21
294.4487945224
  0
LINE
  8
0
 62
7
  6
CONTINUOUS
 10
275.3449307551
 20
291.126593465
 11
276.0472121603
 21
290.4146940143
  0
LINE
  8
0
 62
7
  6
CONTINUOUS
 10
273.9898976257
 20
295.4086383897
 11
276.3308320711
 21
293.0356438417
  0
LINE
  8
0
 62
7
  6
CONTINUOUS
 10
276.6984897547
 20
293.6324354932
 11
274.5916455391
 21
295.7681338452
  0
LINE
  8
0
 62
7
  6
CONTINUOUS
 10
279.8696537799
 20
297.9313474121
 11
278.933282145
 21
298.8805430588
  0
LINE
  8
0
 62
7
  6
CONTINUOUS
 10
278.6684942543
 20
287.3902702092
 11
279.2084424781
 21
286.7555325603
  0
LINE
  8
0
 62
7
  6
CONTINUOUS
 10
279.964682753
 20
287.1800202427
 11
279.2087473302
 21
288.0686622491
  0
LINE
  8
0
 62
7
  6
CONTINUOUS
 10
281.801733941
 20
290.2744216164
 11
282.5576693637
 21
289.3857796099
  0
LINE
  8
0
 62
7
  6
CONTINUOUS
 10
283.0979223488
 20
290.0641715726
 11
282.557974125
 21
290.6989092215
  0
LINE
  8
0
 62
7
  6
CONTINUOUS
 10
284.7397476358
 20
289.7103054369
 11
285.2796958596
 21
289.075567788
  0
LINE
  8
0
 62
7
  6
CONTINUOUS
 10
284.0057726918
 20
292.1493171905
 11
284.6537145151
 21
291.3876273628
  0
LINE
  8
0
 62
7
  6
CONTINUOUS
 10
285.193977387
 20
292.066007703
 11
284.7620128759
 21
292.5738047956
  0
LINE
  8
0
 62
7
  6
CONTINUOUS
 10
274.5306633411
 20
302.8446797792
 11
274.0148162506
 21
303.5209456713
  0
LINE
  8
0
 62
7
  6
CONTINUOUS
 10
273.5806832319
 20
302.7702010642
 11
273.8454114936
 21
302.3131547577
  0
LINE
  8
0
 62
7
  6
CONTINUOUS
 10
283.5082311425
 20
289.3191343444
 11
283.0979223488
 21
290.0641715726
  0
LINE
  8
0
 62
7
  6
CONTINUOUS
 10
285.6042762939
 20
291.3209820973
 11
285.193977387
 21
292.066007703
  0
LINE
  8
0
 62
7
  6
CONTINUOUS
 10
282.5576693637
 20
289.3857796099
 11
282.7519909585
 21
288.8946467393
  0
LINE
  8
0
 62
7
  6
CONTINUOUS
 10
284.6537145151
 20
291.3876273628
 11
284.8480361098
 21
290.8964944922
  0
LINE
  8
0
 62
9
  6
CONTINUOUS
 10
332.7868579135
 20
207.0160341121
 11
329.3212233073
 21
174.0427234038
  0
LINE
  8
0
 62
7
  6
CONTINUOUS
 10
333.7813798089
 20
206.9115056488
 11
330.3157452027
 21
173.9381949405
  0
LINE
  8
0
 62
7
  6
CONTINUOUS
 10
336.6439565819
 20
234.1471043453
 11
336.9856932569
 21
237.3985116187
  0
LINE
  8
0
 62
9
  6
CONTINUOUS
 10
335.9794805261
 20
208.691492513
 11
336.0840089894
 21
209.6860144084
  0
LINE
  8
0
 62
9
  6
CONTINUOUS
 10
336.4767414738
 20
208.6392282814
 11
336.5812699371
 21
209.6337501768
  0
LINE
  8
0
 62
9
  6
CONTINUOUS
 10
316.0986464798
 20
153.9729596058
 11
299.5211780189
 21
125.2599419706
  0
LINE
  8
0
 62
7
  6
CONTINUOUS
 10
316.9646718836
 20
153.4729596058
 11
300.3872034227
 21
124.7599419706
  0
LINE
  8
0
 62
7
  6
CONTINUOUS
 10
330.6574818777
 20
177.1896022139
 11
332.2921403445
 21
180.0209137315
  0
LINE
  8
0
 62
9
  6
CONTINUOUS
 10
319.6967226912
 20
154.2050104133
 11
320.1967226912
 21
155.0710358171
  0
LINE
  8
0
 62
9
  6
CONTINUOUS
 10
320.1297353931
 20
153.9550104133
 11
320.6297353931
 21
154.8210358171
  0
LINE
  8
0
 62
9
  6
CONTINUOUS
 10
279.2786446653
 20
112.3034069286
 11
252.4557372481
 21
92.8154239652
  0
LINE
  8
0
 62
7
  6
CONTINUOUS
 10
279.8664299176
 20
111.4943899342
 11
253.0435225004
 21
92.0064069709
  0
LINE
  8
0
 62
7
  6
CONTINUOUS
 10
302.0218618895
 20
127.5912534881
 11
304.6667948488
 21
129.5129097668
  0
LINE
  8
0
 62
9
  6
CONTINUOUS
 10
282.6600344109
 20
111.05192645
 11
283.4690514053
 21
111.6397117023
  0
LINE
  8
0
 62
9
  6
CONTINUOUS
 10
282.9539270371
 20
110.6474179528
 11
283.7629440314
 21
111.2352032051
  0
LINE
  8
0
 62
9
  6
CONTINUOUS
 10
198.4187294858
 20
353.470427851
 11
231.5736664076
 21
353.470427851
  0
LINE
  8
0
 62
7
  6
CONTINUOUS
 10
171.0331094976
 20
354.470427851
 11
167.7637925639
 21
354.470427851
  0
LINE
  8
0
 62
7
  6
CONTINUOUS
 10
198.4187294858
 20
354.470427851
 11
231.5736664076
 21
354.470427851
  0
LINE
  8
0
 62
9
  6
CONTINUOUS
 10
196.4187294858
 20
356.470427851
 11
195.4187294858
 21
356.470427851
  0
LINE
  8
0
 62
9
  6
CONTINUOUS
 10
196.4187294858
 20
356.970427851
 11
195.4187294858
 21
356.970427851
  0
LINE
  8
0
 62
9
  6
CONTINUOUS
 10
252.9156215758
 20
342.4181472508
 11
283.2041635992
 21
328.9328195059
  0
LINE
  8
0
 62
7
  6
CONTINUOUS
 10
228.304349474
 20
354.470427851
 11
225.3176798396
 21
355.8001788458
  0
LINE
  8
0
 62
7
  6
CONTINUOUS
 10
253.3223582189
 20
343.3316927085
 11
283.6109002423
 21
329.8463649635
  0
LINE
  8
0
 62
9
  6
CONTINUOUS
 10
252.3087405898
 20
345.9722569099
 11
251.3951951321
 21
346.378993553
  0
LINE
  8
0
 62
9
  6
CONTINUOUS
 10
252.5121089113
 20
346.4290296387
 11
251.5985634537
 21
346.8357662818
  0
LINE
  8
0
 62
9
  6
CONTINUOUS
 10
298.2056422907
 20
310.1555035652
 11
320.390625337
 21
285.5165837527
  0
LINE
  8
0
 62
7
  6
CONTINUOUS
 10
298.9487871161
 20
310.8246341715
 11
321.1337701624
 21
286.1857143591
  0
LINE
  8
0
 62
7
  6
CONTINUOUS
 10
280.6242306079
 20
331.1761159582
 11
278.4366305857
 21
333.6056919203
  0
LINE
  8
0
 62
9
  6
CONTINUOUS
 10
299.0968155544
 20
313.6491850352
 11
298.427684948
 21
314.3923298607
  0
LINE
  8
0
 62
9
  6
CONTINUOUS
 10
299.4683879671
 20
313.9837503384
 11
298.7992573608
 21
314.7268951639
  0
LINE
  8
0
 62
9
  6
CONTINUOUS
 10
326.4577356018
 20
262.2610009842
 11
336.7031745581
 21
230.7287821774
  0
LINE
  8
0
 62
7
  6
CONTINUOUS
 10
327.4087921181
 20
262.5700179786
 11
337.6542310744
 21
231.0377991717
  0
LINE
  8
0
 62
7
  6
CONTINUOUS
 10
318.9461701402
 20
288.6152903211
 11
317.9358956478
 21
291.7245954947
  0
LINE
  8
0
 62
9
  6
CONTINUOUS
 10
328.6928711619
 20
265.0901649999
 11
328.3838541676
 21
266.0412215162
  0
LINE
  8
0
 62
9
  6
CONTINUOUS
 10
329.1683994201
 20
265.2446734971
 11
328.8593824257
 21
266.1957300134
  0
LINE
  8
0
 62
9
  6
CONTINUOUS
 10
349.0579438881
 20
220.9486463356
 11
348.8671348928
 21
219.9670191522
  0
LINE
  8
0
 62
9
  6
CONTINUOUS
 10
351.0182162575
 20
220.5676079865
 11
350.8274072621
 21
219.585980803
  0
LINE
  8
0
 62
9
  6
CONTINUOUS
 10
336.629927088
 20
160.0829873272
 11
336.0563506516
 21
159.2638352829
  0
LINE
  8
0
 62
9
  6
CONTINUOUS
 10
338.2657427477
 20
158.9375768711
 11
337.6921663114
 21
158.1184248268
  0
LINE
  8
0
 62
9
  6
CONTINUOUS
 10
300.5200749689
 20
109.5343708469
 11
299.6629076682
 21
109.019332772
  0
LINE
  8
0
 62
9
  6
CONTINUOUS
 10
301.5485865306
 20
107.8226401575
 11
300.6914192299
 21
107.3076020826
  0
LINE
  8
0
 62
9
  6
CONTINUOUS
 10
182.8616499572
 20
368.1960245692
 11
183.8578446552
 21
368.1088688264
  0
LINE
  8
0
 62
9
  6
CONTINUOUS
 10
183.03569668
 20
370.1853877145
 11
184.0318913781
 21
370.0982319717
  0
LINE
  8
0
 62
9
  6
CONTINUOUS
 10
244.6929620147
 20
362.1982835473
 11
245.5675817218
 21
361.7134739271
  0
LINE
  8
0
 62
9
  6
CONTINUOUS
 10
245.6611084953
 20
363.9448660325
 11
246.5357282025
 21
363.4600564123
  0
LINE
  8
0
 62
9
  6
CONTINUOUS
 10
298.7391752357
 20
331.5700141774
 11
299.3409902588
 21
330.7713786674
  0
LINE
  8
0
 62
9
  6
CONTINUOUS
 10
300.3340201523
 20
332.7718160236
 11
300.9358351754
 21
331.9731805136
  0
LINE
  8
0
 62
9
  6
CONTINUOUS
 10
335.6552083598
 20
281.6071224827
 11
335.8801594141
 21
280.6327524179
  0
LINE
  8
0
 62
9
  6
CONTINUOUS
 10
337.6009885375
 20
282.0563412326
 11
337.8259395919
 21
281.0819711678
  0
POLYLINE
  8
0
 62
9
  6
CONTINUOUS
 66
1
 70
0
  0
VERTEX
  8
0
 62
9
  6
CONTINUOUS
 10
457.5856468818
 20
68.0058371061
  0
VERTEX
  8
0
 62
9
  6
CONTINUOUS
 10
457.656986065
 20
68.0080327936
  0
VERTEX
  8
0
 62
9
  6
CONTINUOUS
 10
457.7279617201
 20
68.0146086675
  0
VERTEX
  8
0
 62
9
  6
CONTINUOUS
 10
457.7982121714
 20
68.0255312185
  0
VERTEX
  8
0
 62
9
  6
CONTINUOUS
 10
457.8673794387
 20
68.0407447879
  0
VERTEX
  8
0
 62
9
  6
CONTINUOUS
 10
457.9351110614
 20
68.0601718509
  0
VERTEX
  8
0
 62
9
  6
CONTINUOUS
 10
458.0010618948
 20
68.0837134115
  0
VERTEX
  8
0
 62
9
  6
CONTINUOUS
 10
458.0648958686
 20
68.1112495073
  0
VERTEX
  8
0
 62
9
  6
CONTINUOUS
 10
458.1262876993
 20
68.1426398208
  0
VERTEX
  8
0
 62
9
  6
CONTINUOUS
 10
458.1849245483
 20
68.177724394
  0
VERTEX
  8
0
 62
9
  6
CONTINUOUS
 10
458.2405076158
 20
68.2163244441
  0
VERTEX
  8
0
 62
9
  6
CONTINUOUS
 10
458.292753663
 20
68.258243274
  0
VERTEX
  8
0
 62
9
  6
CONTINUOUS
 10
458.3413964562
 20
68.303267275
  0
VERTEX
  8
0
 62
9
  6
CONTINUOUS
 10
458.3861881228
 20
68.351167015
  0
VERTEX
  8
0
 62
9
  6
CONTINUOUS
 10
458.4269004147
 20
68.4016984081
  0
VERTEX
  8
0
 62
9
  6
CONTINUOUS
 10
458.4633258714
 20
68.4546039578
  0
VERTEX
  8
0
 62
9
  6
CONTINUOUS
 10
458.4952788772
 20
68.5096140695
  0
VERTEX
  8
0
 62
9
  6
CONTINUOUS
 10
458.5225966068
 20
68.5664484244
  0
VERTEX
  8
0
 62
9
  6
CONTINUOUS
 10
458.5451398555
 20
68.6248174075
  0
VERTEX
  8
0
 62
9
  6
CONTINUOUS
 10
458.5627937478
 20
68.6844235839
  0
VERTEX
  8
0
 62
9
  6
CONTINUOUS
 10
458.5754683237
 20
68.7449632143
  0
SEQEND
  0
LINE
  8
0
 62
7
  6
CONTINUOUS
 10
427.5856468818
 20
67.7293742295
 11
457.5856468818
 21
67.7293742295
  0
POLYLINE
  8
0
 62
9
  6
CONTINUOUS
 66
1
 70
0
  0
VERTEX
  8
0
 62
9
  6
CONTINUOUS
 10
427.5143076987
 20
76.0607242591
  0
VERTEX
  8
0
 62
9
  6
CONTINUOUS
 10
427.4433320437
 20
76.059794314
  0
VERTEX
  8
0
 62
9
  6
CONTINUOUS
 10
427.3730815924
 20
76.0582496717
  0
VERTEX
  8
0
 62
9
  6
CONTINUOUS
 10
427.3039143252
 20
76.0560982035
  0
VERTEX
  8
0
 62
9
  6
CONTINUOUS
 10
427.2361827024
 20
76.0533508726
  0
VERTEX
  8
0
 62
9
  6
CONTINUOUS
 10
427.170231869
 20
76.0500216788
  0
VERTEX
  8
0
 62
9
  6
CONTINUOUS
 10
427.1063978953
 20
76.046127587
  0
VERTEX
  8
0
 62
9
  6
CONTINUOUS
 10
427.0450060646
 20
76.0416884405
  0
VERTEX
  8
0
 62
9
  6
CONTINUOUS
 10
426.9863692155
 20
76.0367268602
  0
VERTEX
  8
0
 62
9
  6
CONTINUOUS
 10
426.930786148
 20
76.0312681292
  0
VERTEX
  8
0
 62
9
  6
CONTINUOUS
 10
426.8785401006
 20
76.0253400639
  0
VERTEX
  8
0
 62
9
  6
CONTINUOUS
 10
426.8298973074
 20
76.0189728724
  0
VERTEX
  8
0
 62
9
  6
CONTINUOUS
 10
426.7851056408
 20
76.0121990005
  0
VERTEX
  8
0
 62
9
  6
CONTINUOUS
 10
426.7443933489
 20
76.0050529662
  0
VERTEX
  8
0
 62
9
  6
CONTINUOUS
 10
426.7079678922
 20
75.9975711841
  0
VERTEX
  8
0
 62
9
  6
CONTINUOUS
 10
426.6760148864
 20
75.9897917796
  0
VERTEX
  8
0
 62
9
  6
CONTINUOUS
 10
426.6486971568
 20
75.9817543949
  0
VERTEX
  8
0
 62
9
  6
CONTINUOUS
 10
426.6261539082
 20
75.9734999865
  0
VERTEX
  8
0
 62
9
  6
CONTINUOUS
 10
426.6085000158
 20
75.965070617
  0
VERTEX
  8
0
 62
9
  6
CONTINUOUS
 10
426.5958254399
 20
75.9565092407
  0
VERTEX
  8
0
 62
9
  6
CONTINUOUS
 10
426.5881947672
 20
75.9478594842
  0
VERTEX
  8
0
 62
9
  6
CONTINUOUS
 10
426.5856468818
 20
75.9391654248
  0
SEQEND
  0
LINE
  8
0
 62
9
  6
CONTINUOUS
 10
442.5856468818
 20
68.0058371061
 11
457.5856468818
 21
68.0058371061
  0
LINE
  8
0
 62
9
  6
CONTINUOUS
 10
442.5856468818
 20
69.14463082
 11
427.5856468818
 21
69.14463082
  0
LINE
  8
0
 62
9
  6
CONTINUOUS
 10
442.5856468818
 20
71.0543352592
 11
427.5856468818
 21
71.0543352592
  0
LINE
  8
0
 62
7
  6
CONTINUOUS
 10
442.5856468818
 20
73.8172960814
 11
427.5856468818
 21
73.8172960814
  0
LINE
  8
0
 62
9
  6
CONTINUOUS
 10
442.5856468818
 20
76.0610347682
 11
427.5143076987
 21
76.0607242591
  0
POLYLINE
  8
0
 62
9
  6
CONTINUOUS
 66
1
 70
0
  0
VERTEX
  8
0
 62
9
  6
CONTINUOUS
 10
427.5856468818
 20
69.14463082
  0
VERTEX
  8
0
 62
9
  6
CONTINUOUS
 10
427.5143076987
 20
69.1453757496
  0
VERTEX
  8
0
 62
9
  6
CONTINUOUS
 10
427.4433320437
 20
69.1476067424
  0
VERTEX
  8
0
 62
9
  6
CONTINUOUS
 10
427.3730815924
 20
69.1513124298
  0
VERTEX
  8
0
 62
9
  6
CONTINUOUS
 10
427.3039143252
 20
69.1564739284
  0
VERTEX
  8
0
 62
9
  6
CONTINUOUS
 10
427.2361827024
 20
69.1630649364
  0
VERTEX
  8
0
 62
9
  6
CONTINUOUS
 10
427.170231869
 20
69.1710518676
  0
VERTEX
  8
0
 62
9
  6
CONTINUOUS
 10
427.1063978953
 20
69.1803940223
  0
VERTEX
  8
0
 62
9
  6
CONTINUOUS
 10
427.0450060646
 20
69.1910437952
  0
VERTEX
  8
0
 62
9
  6
CONTINUOUS
 10
426.9863692155
 20
69.2029469174
  0
VERTEX
  8
0
 62
9
  6
CONTINUOUS
 10
426.930786148
 20
69.2160427333
  0
VERTEX
  8
0
 62
9
  6
CONTINUOUS
 10
426.8785401006
 20
69.2302645097
  0
VERTEX
  8
0
 62
9
  6
CONTINUOUS
 10
426.8298973074
 20
69.2455397756
  0
VERTEX
  8
0
 62
9
  6
CONTINUOUS
 10
426.7851056408
 20
69.2617906918
  0
VERTEX
  8
0
 62
9
  6
CONTINUOUS
 10
426.7443933489
 20
69.2789344474
  0
VERTEX
  8
0
 62
9
  6
CONTINUOUS
 10
426.7079678922
 20
69.2968836816
  0
VERTEX
  8
0
 62
9
  6
CONTINUOUS
 10
426.6760148864
 20
69.3155469293
  0
VERTEX
  8
0
 62
9
  6
CONTINUOUS
 10
426.6486971568
 20
69.3348290869
  0
VERTEX
  8
0
 62
9
  6
CONTINUOUS
 10
426.6261539082
 20
69.3546318969
  0
VERTEX
  8
0
 62
9
  6
CONTINUOUS
 10
426.6085000158
 20
69.3748544487
  0
VERTEX
  8
0
 62
9
  6
CONTINUOUS
 10
426.5958254399
 20
69.3953936929
  0
VERTEX
  8
0
 62
9
  6
CONTINUOUS
 10
426.5881947672
 20
69.4161449662
  0
VERTEX
  8
0
 62
9
  6
CONTINUOUS
 10
426.5856468818
 20
69.4370025247
  0
SEQEND
  0
POLYLINE
  8
0
 62
9
  6
CONTINUOUS
 66
1
 70
0
  0
VERTEX
  8
0
 62
9
  6
CONTINUOUS
 10
427.5856468818
 20
71.0543352592
  0
VERTEX
  8
0
 62
9
  6
CONTINUOUS
 10
427.5143076986
 20
71.0550801887
  0
VERTEX
  8
0
 62
9
  6
CONTINUOUS
 10
427.4433320436
 20
71.0573111815
  0
VERTEX
  8
0
 62
9
  6
CONTINUOUS
 10
427.3730815923
 20
71.0610168689
  0
VERTEX
  8
0
 62
9
  6
CONTINUOUS
 10
427.303914325
 20
71.0661783675
  0
VERTEX
  8
0
 62
9
  6
CONTINUOUS
 10
427.2361827022
 20
71.0727693755
  0
VERTEX
  8
0
 62
9
  6
CONTINUOUS
 10
427.1702318688
 20
71.0807563067
  0
VERTEX
  8
0
 62
9
  6
CONTINUOUS
 10
427.1063978951
 20
71.0900984615
  0
VERTEX
  8
0
 62
9
  6
CONTINUOUS
 10
427.0450060644
 20
71.1007482344
  0
VERTEX
  8
0
 62
9
  6
CONTINUOUS
 10
426.9863692153
 20
71.1126513566
  0
VERTEX
  8
0
 62
9
  6
CONTINUOUS
 10
426.9307861479
 20
71.1257471725
  0
VERTEX
  8
0
 62
9
  6
CONTINUOUS
 10
426.8785401007
 20
71.1399689488
  0
VERTEX
  8
0
 62
9
  6
CONTINUOUS
 10
426.8298973075
 20
71.1552442147
  0
VERTEX
  8
0
 62
9
  6
CONTINUOUS
 10
426.7851056409
 20
71.1714951309
  0
VERTEX
  8
0
 62
9
  6
CONTINUOUS
 10
426.744393349
 20
71.1886388864
  0
VERTEX
  8
0
 62
9
  6
CONTINUOUS
 10
426.7079678923
 20
71.2065881206
  0
VERTEX
  8
0
 62
9
  6
CONTINUOUS
 10
426.6760148865
 20
71.2252513684
  0
VERTEX
  8
0
 62
9
  6
CONTINUOUS
 10
426.6486971568
 20
71.2445335259
  0
VERTEX
  8
0
 62
9
  6
CONTINUOUS
 10
426.6261539082
 20
71.264336336
  0
VERTEX
  8
0
 62
9
  6
CONTINUOUS
 10
426.6085000159
 20
71.2845588878
  0
VERTEX
  8
0
 62
9
  6
CONTINUOUS
 10
426.59582544
 20
71.305098132
  0
VERTEX
  8
0
 62
9
  6
CONTINUOUS
 10
426.5881947672
 20
71.3258494053
  0
VERTEX
  8
0
 62
9
  6
CONTINUOUS
 10
426.5856468818
 20
71.3467069639
  0
SEQEND
  0
POLYLINE
  8
0
 62
9
  6
CONTINUOUS
 66
1
 70
0
  0
VERTEX
  8
0
 62
9
  6
CONTINUOUS
 10
457.5856468818
 20
88.4196022629
  0
VERTEX
  8
0
 62
9
  6
CONTINUOUS
 10
457.656986065
 20
88.4210823973
  0
VERTEX
  8
0
 62
9
  6
CONTINUOUS
 10
457.7279617201
 20
88.425515258
  0
VERTEX
  8
0
 62
9
  6
CONTINUOUS
 10
457.7982121714
 20
88.4328782562
  0
VERTEX
  8
0
 62
9
  6
CONTINUOUS
 10
457.8673794387
 20
88.4431338717
  0
VERTEX
  8
0
 62
9
  6
CONTINUOUS
 10
457.9351110614
 20
88.4562298443
  0
VERTEX
  8
0
 62
9
  6
CONTINUOUS
 10
458.0010618948
 20
88.4720994399
  0
VERTEX
  8
0
 62
9
  6
CONTINUOUS
 10
458.0648958686
 20
88.4906617907
  0
VERTEX
  8
0
 62
9
  6
CONTINUOUS
 10
458.1262876993
 20
88.5118223071
  0
VERTEX
  8
0
 62
9
  6
CONTINUOUS
 10
458.1849245483
 20
88.5354731601
  0
VERTEX
  8
0
 62
9
  6
CONTINUOUS
 10
458.2405076158
 20
88.5614938303
  0
VERTEX
  8
0
 62
9
  6
CONTINUOUS
 10
458.292753663
 20
88.5897517224
  0
VERTEX
  8
0
 62
9
  6
CONTINUOUS
 10
458.3413964562
 20
88.6201028406
  0
VERTEX
  8
0
 62
9
  6
CONTINUOUS
 10
458.3861881228
 20
88.6523925225
  0
VERTEX
  8
0
 62
9
  6
CONTINUOUS
 10
458.4269004147
 20
88.6864562274
  0
VERTEX
  8
0
 62
9
  6
CONTINUOUS
 10
458.4633258714
 20
88.7221203744
  0
VERTEX
  8
0
 62
9
  6
CONTINUOUS
 10
458.4952788772
 20
88.7592032272
  0
VERTEX
  8
0
 62
9
  6
CONTINUOUS
 10
458.5225966068
 20
88.7975158201
  0
VERTEX
  8
0
 62
9
  6
CONTINUOUS
 10
458.5451398555
 20
88.8368629209
  0
VERTEX
  8
0
 62
9
  6
CONTINUOUS
 10
458.5627937478
 20
88.8770440258
  0
VERTEX
  8
0
 62
9
  6
CONTINUOUS
 10
458.5754683237
 20
88.9178543811
  0
VERTEX
  8
0
 62
9
  6
CONTINUOUS
 10
458.5830989964
 20
88.9590860265
  0
VERTEX
  8
0
 62
9
  6
CONTINUOUS
 10
458.5856468818
 20
89.0005288551
  0
SEQEND
  0
POLYLINE
  8
0
 62
9
  6
CONTINUOUS
 66
1
 70
0
  0
VERTEX
  8
0
 62
9
  6
CONTINUOUS
 10
427.5143076986
 20
78.042801395
  0
VERTEX
  8
0
 62
9
  6
CONTINUOUS
 10
427.4433320436
 20
78.04187145
  0
VERTEX
  8
0
 62
9
  6
CONTINUOUS
 10
427.3730815923
 20
78.0403268077
  0
VERTEX
  8
0
 62
9
  6
CONTINUOUS
 10
427.303914325
 20
78.0381753395
  0
VERTEX
  8
0
 62
9
  6
CONTINUOUS
 10
427.2361827022
 20
78.0354280085
  0
VERTEX
  8
0
 62
9
  6
CONTINUOUS
 10
427.1702318688
 20
78.0320988148
  0
VERTEX
  8
0
 62
9
  6
CONTINUOUS
 10
427.1063978951
 20
78.0282047229
  0
VERTEX
  8
0
 62
9
  6
CONTINUOUS
 10
427.0450060644
 20
78.0237655764
  0
VERTEX
  8
0
 62
9
  6
CONTINUOUS
 10
426.9863692153
 20
78.0188039962
  0
VERTEX
  8
0
 62
9
  6
CONTINUOUS
 10
426.9307861479
 20
78.0133452652
  0
VERTEX
  8
0
 62
9
  6
CONTINUOUS
 10
426.8785401007
 20
78.0074171999
  0
VERTEX
  8
0
 62
9
  6
CONTINUOUS
 10
426.8298973075
 20
78.0010500084
  0
VERTEX
  8
0
 62
9
  6
CONTINUOUS
 10
426.7851056409
 20
77.9942761365
  0
VERTEX
  8
0
 62
9
  6
CONTINUOUS
 10
426.744393349
 20
77.9871301022
  0
VERTEX
  8
0
 62
9
  6
CONTINUOUS
 10
426.7079678923
 20
77.9796483201
  0
VERTEX
  8
0
 62
9
  6
CONTINUOUS
 10
426.6760148865
 20
77.9718689156
  0
VERTEX
  8
0
 62
9
  6
CONTINUOUS
 10
426.6486971568
 20
77.9638315309
  0
VERTEX
  8
0
 62
9
  6
CONTINUOUS
 10
426.6261539082
 20
77.9555771225
  0
VERTEX
  8
0
 62
9
  6
CONTINUOUS
 10
426.6085000159
 20
77.947147753
  0
VERTEX
  8
0
 62
9
  6
CONTINUOUS
 10
426.59582544
 20
77.9385863767
  0
VERTEX
  8
0
 62
9
  6
CONTINUOUS
 10
426.5881947672
 20
77.9299366202
  0
VERTEX
  8
0
 62
9
  6
CONTINUOUS
 10
426.5856468818
 20
77.9212425608
  0
SEQEND
  0
LINE
  8
0
 62
9
  6
CONTINUOUS
 10
442.5856468818
 20
78.0431119042
 11
427.5143076986
 21
78.042801395
  0
LINE
  8
0
 62
9
  6
CONTINUOUS
 10
442.5856468818
 20
84.8533010832
 11
457.5856468818
 21
84.8533010832
  0
LINE
  8
0
 62
9
  6
CONTINUOUS
 10
442.5856468818
 20
85.3423748835
 11
457.5856468818
 21
85.3423748835
  0
LINE
  8
0
 62
7
  6
CONTINUOUS
 10
442.5856468818
 20
87.5814554472
 11
457.5856468818
 21
87.5814554472
  0
POLYLINE
  8
0
 62
9
  6
CONTINUOUS
 66
1
 70
0
  0
VERTEX
  8
0
 62
9
  6
CONTINUOUS
 10
457.5856468818
 20
84.8533010832
  0
VERTEX
  8
0
 62
9
  6
CONTINUOUS
 10
457.656986065
 20
84.852771348
  0
VERTEX
  8
0
 62
9
  6
CONTINUOUS
 10
457.7279617201
 20
84.8511848419
  0
VERTEX
  8
0
 62
9
  6
CONTINUOUS
 10
457.7982121714
 20
84.8485496494
  0
VERTEX
  8
0
 62
9
  6
CONTINUOUS
 10
457.8673794387
 20
84.8448791988
  0
VERTEX
  8
0
 62
9
  6
CONTINUOUS
 10
457.9351110614
 20
84.8401921939
  0
VERTEX
  8
0
 62
9
  6
CONTINUOUS
 10
458.0010618948
 20
84.8345125185
  0
VERTEX
  8
0
 62
9
  6
CONTINUOUS
 10
458.0648958686
 20
84.8278691151
  0
VERTEX
  8
0
 62
9
  6
CONTINUOUS
 10
458.1262876993
 20
84.8202958368
  0
VERTEX
  8
0
 62
9
  6
CONTINUOUS
 10
458.1849245483
 20
84.8118312753
  0
VERTEX
  8
0
 62
9
  6
CONTINUOUS
 10
458.2405076158
 20
84.8025185642
  0
VERTEX
  8
0
 62
9
  6
CONTINUOUS
 10
458.292753663
 20
84.7924051588
  0
VERTEX
  8
0
 62
9
  6
CONTINUOUS
 10
458.3413964562
 20
84.7815425948
  0
VERTEX
  8
0
 62
9
  6
CONTINUOUS
 10
458.3861881228
 20
84.7699862253
  0
VERTEX
  8
0
 62
9
  6
CONTINUOUS
 10
458.4269004147
 20
84.7577949388
  0
VERTEX
  8
0
 62
9
  6
CONTINUOUS
 10
458.4633258714
 20
84.7450308595
  0
VERTEX
  8
0
 62
9
  6
CONTINUOUS
 10
458.4952788772
 20
84.7317590301
  0
VERTEX
  8
0
 62
9
  6
CONTINUOUS
 10
458.5225966068
 20
84.7180470808
  0
VERTEX
  8
0
 62
9
  6
CONTINUOUS
 10
458.5451398555
 20
84.7039648846
  0
VERTEX
  8
0
 62
9
  6
CONTINUOUS
 10
458.5627937478
 20
84.6895842011
  0
VERTEX
  8
0
 62
9
  6
CONTINUOUS
 10
458.5754683237
 20
84.674978311
  0
VERTEX
  8
0
 62
9
  6
CONTINUOUS
 10
458.5830989964
 20
84.6602216426
  0
VERTEX
  8
0
 62
9
  6
CONTINUOUS
 10
458.5856468818
 20
84.6453893924
  0
SEQEND
  0
POLYLINE
  8
0
 62
9
  6
CONTINUOUS
 66
1
 70
0
  0
VERTEX
  8
0
 62
9
  6
CONTINUOUS
 10
457.5856468818
 20
85.3423748835
  0
VERTEX
  8
0
 62
9
  6
CONTINUOUS
 10
457.656986065
 20
85.3418451484
  0
VERTEX
  8
0
 62
9
  6
CONTINUOUS
 10
457.72796172
 20
85.3402586423
  0
VERTEX
  8
0
 62
9
  6
CONTINUOUS
 10
457.7982121713
 20
85.3376234498
  0
VERTEX
  8
0
 62
9
  6
CONTINUOUS
 10
457.8673794385
 20
85.3339529992
  0
VERTEX
  8
0
 62
9
  6
CONTINUOUS
 10
457.9351110612
 20
85.3292659943
  0
VERTEX
  8
0
 62
9
  6
CONTINUOUS
 10
458.0010618946
 20
85.3235863189
  0
VERTEX
  8
0
 62
9
  6
CONTINUOUS
 10
458.0648958684
 20
85.3169429155
  0
VERTEX
  8
0
 62
9
  6
CONTINUOUS
 10
458.1262876991
 20
85.3093696372
  0
VERTEX
  8
0
 62
9
  6
CONTINUOUS
 10
458.1849245482
 20
85.3009050757
  0
VERTEX
  8
0
 62
9
  6
CONTINUOUS
 10
458.2405076157
 20
85.2915923646
  0
VERTEX
  8
0
 62
9
  6
CONTINUOUS
 10
458.292753663
 20
85.2814789592
  0
VERTEX
  8
0
 62
9
  6
CONTINUOUS
 10
458.3413964562
 20
85.2706163952
  0
VERTEX
  8
0
 62
9
  6
CONTINUOUS
 10
458.3861881229
 20
85.2590600256
  0
VERTEX
  8
0
 62
9
  6
CONTINUOUS
 10
458.4269004148
 20
85.2468687392
  0
VERTEX
  8
0
 62
9
  6
CONTINUOUS
 10
458.4633258715
 20
85.2341046598
  0
VERTEX
  8
0
 62
9
  6
CONTINUOUS
 10
458.4952788773
 20
85.2208328304
  0
VERTEX
  8
0
 62
9
  6
CONTINUOUS
 10
458.5225966069
 20
85.2071208811
  0
VERTEX
  8
0
 62
9
  6
CONTINUOUS
 10
458.5451398555
 20
85.1930386849
  0
VERTEX
  8
0
 62
9
  6
CONTINUOUS
 10
458.5627937478
 20
85.1786580015
  0
VERTEX
  8
0
 62
9
  6
CONTINUOUS
 10
458.5754683237
 20
85.1640521114
  0
VERTEX
  8
0
 62
9
  6
CONTINUOUS
 10
458.5830989965
 20
85.1492954429
  0
VERTEX
  8
0
 62
9
  6
CONTINUOUS
 10
458.5856468818
 20
85.1344631927
  0
SEQEND
  0
LINE
  8
0
 62
9
  6
CONTINUOUS
 10
442.5856468818
 20
88.4196022629
 11
457.5856468818
 21
88.4196022629
  0
LINE
  8
0
 62
9
  6
CONTINUOUS
 10
442.5856468818
 20
92.0064069709
 11
427.5856468818
 21
92.0064069709
  0
POLYLINE
  8
0
 62
9
  6
CONTINUOUS
 66
1
 70
0
  0
VERTEX
  8
0
 62
9
  6
CONTINUOUS
 10
427.5856468818
 20
92.0064069709
  0
VERTEX
  8
0
 62
9
  6
CONTINUOUS
 10
427.5143076986
 20
92.0084682534
  0
VERTEX
  8
0
 62
9
  6
CONTINUOUS
 10
427.4433320436
 20
92.0146415974
  0
VERTEX
  8
0
 62
9
  6
CONTINUOUS
 10
427.3730815923
 20
92.0248955447
  0
VERTEX
  8
0
 62
9
  6
CONTINUOUS
 10
427.303914325
 20
92.0391778436
  0
VERTEX
  8
0
 62
9
  6
CONTINUOUS
 10
427.2361827022
 20
92.0574157148
  0
VERTEX
  8
0
 62
9
  6
CONTINUOUS
 10
427.1702318688
 20
92.0795162224
  0
VERTEX
  8
0
 62
9
  6
CONTINUOUS
 10
427.1063978951
 20
92.1053667471
  0
VERTEX
  8
0
 62
9
  6
CONTINUOUS
 10
427.0450060644
 20
92.1348355606
  0
VERTEX
  8
0
 62
9
  6
CONTINUOUS
 10
426.9863692153
 20
92.1677724966
  0
VERTEX
  8
0
 62
9
  6
CONTINUOUS
 10
426.9307861479
 20
92.2040097161
  0
VERTEX
  8
0
 62
9
  6
CONTINUOUS
 10
426.8785401007
 20
92.2433625624
  0
VERTEX
  8
0
 62
9
  6
CONTINUOUS
 10
426.8298973075
 20
92.2856305025
  0
VERTEX
  8
0
 62
9
  6
CONTINUOUS
 10
426.7851056409
 20
92.3305981487
  0
VERTEX
  8
0
 62
9
  6
CONTINUOUS
 10
426.744393349
 20
92.3780363561
  0
VERTEX
  8
0
 62
9
  6
CONTINUOUS
 10
426.7079678923
 20
92.4277033904
  0
VERTEX
  8
0
 62
9
  6
CONTINUOUS
 10
426.6760148865
 20
92.47934616
  0
VERTEX
  8
0
 62
9
  6
CONTINUOUS
 10
426.6486971568
 20
92.532701505
  0
VERTEX
  8
0
 62
9
  6
CONTINUOUS
 10
426.6261539082
 20
92.5874975389
  0
VERTEX
  8
0
 62
9
  6
CONTINUOUS
 10
426.6085000159
 20
92.6434550336
  0
VERTEX
  8
0
 62
9
  6
CONTINUOUS
 10
426.59582544
 20
92.7002888425
  0
VERTEX
  8
0
 62
9
  6
CONTINUOUS
 10
426.5881947672
 20
92.7577093537
  0
VERTEX
  8
0
 62
9
  6
CONTINUOUS
 10
426.5856468818
 20
92.8154239652
  0
SEQEND
  0
POLYLINE
  8
0
 62
9
  6
CONTINUOUS
 66
1
 70
0
  0
VERTEX
  8
0
 62
9
  6
CONTINUOUS
 10
427.5856468818
 20
107.8226401575
  0
VERTEX
  8
0
 62
9
  6
CONTINUOUS
 10
427.5143076987
 20
107.8213278995
  0
VERTEX
  8
0
 62
9
  6
CONTINUOUS
 10
427.4433320437
 20
107.8173978125
  0
VERTEX
  8
0
 62
9
  6
CONTINUOUS
 10
427.3730815924
 20
107.8108699234
  0
VERTEX
  8
0
 62
9
  6
CONTINUOUS
 10
427.3039143252
 20
107.8017774966
  0
VERTEX
  8
0
 62
9
  6
CONTINUOUS
 10
427.2361827024
 20
107.7901668653
  0
VERTEX
  8
0
 62
9
  6
CONTINUOUS
 10
427.170231869
 20
107.7760971944
  0
VERTEX
  8
0
 62
9
  6
CONTINUOUS
 10
427.1063978953
 20
107.7596401798
  0
VERTEX
  8
0
 62
9
  6
CONTINUOUS
 10
427.0450060646
 20
107.7408796827
  0
VERTEX
  8
0
 62
9
  6
CONTINUOUS
 10
426.9863692155
 20
107.7199113023
  0
VERTEX
  8
0
 62
9
  6
CONTINUOUS
 10
426.930786148
 20
107.6968418885
  0
VERTEX
  8
0
 62
9
  6
CONTINUOUS
 10
426.8785401006
 20
107.6717889979
  0
VERTEX
  8
0
 62
9
  6
CONTINUOUS
 10
426.8298973074
 20
107.6448802943
  0
VERTEX
  8
0
 62
9
  6
CONTINUOUS
 10
426.7851056408
 20
107.6162528982
  0
VERTEX
  8
0
 62
9
  6
CONTINUOUS
 10
426.7443933489
 20
107.5860526883
  0
VERTEX
  8
0
 62
9
  6
CONTINUOUS
 10
426.7079678922
 20
107.554433558
  0
VERTEX
  8
0
 62
9
  6
CONTINUOUS
 10
426.6760148864
 20
107.5215566311
  0
VERTEX
  8
0
 62
9
  6
CONTINUOUS
 10
426.6486971568
 20
107.4875894408
  0
VERTEX
  8
0
 62
9
  6
CONTINUOUS
 10
426.6261539082
 20
107.4527050762
  0
VERTEX
  8
0
 62
9
  6
CONTINUOUS
 10
426.6085000158
 20
107.4170813001
  0
VERTEX
  8
0
 62
9
  6
CONTINUOUS
 10
426.5958254399
 20
107.3808996429
  0
VERTEX
  8
0
 62
9
  6
CONTINUOUS
 10
426.5881947672
 20
107.3443444782
  0
VERTEX
  8
0
 62
9
  6
CONTINUOUS
 10
426.5856468818
 20
107.3076020826
  0
SEQEND
  0
LINE
  8
0
 62
7
  6
CONTINUOUS
 10
442.5856468818
 20
104.1550356765
 11
427.5856468818
 21
104.1550356765
  0
LINE
  8
0
 62
9
  6
CONTINUOUS
 10
442.5856468818
 20
104.8852954013
 11
427.5856468818
 21
104.8852954013
  0
LINE
  8
0
 62
9
  6
CONTINUOUS
 10
442.5856468818
 20
106.8268138129
 11
457.5856468818
 21
106.8268138129
  0
LINE
  8
0
 62
9
  6
CONTINUOUS
 10
442.5856468818
 20
107.2313223101
 11
457.5856468818
 21
107.2313223101
  0
LINE
  8
0
 62
9
  6
CONTINUOUS
 10
442.5856468818
 20
107.8226401575
 11
427.5856468818
 21
107.8226401575
  0
POLYLINE
  8
0
 62
9
  6
CONTINUOUS
 66
1
 70
0
  0
VERTEX
  8
0
 62
9
  6
CONTINUOUS
 10
457.5856468818
 20
106.8268138129
  0
VERTEX
  8
0
 62
9
  6
CONTINUOUS
 10
457.656986065
 20
106.8253162035
  0
VERTEX
  8
0
 62
9
  6
CONTINUOUS
 10
457.7279617201
 20
106.8208310066
  0
VERTEX
  8
0
 62
9
  6
CONTINUOUS
 10
457.7982121714
 20
106.8133810778
  0
VERTEX
  8
0
 62
9
  6
CONTINUOUS
 10
457.8673794387
 20
106.8030043802
  0
VERTEX
  8
0
 62
9
  6
CONTINUOUS
 10
457.9351110614
 20
106.7897537911
  0
VERTEX
  8
0
 62
9
  6
CONTINUOUS
 10
458.0010618948
 20
106.7736968325
  0
VERTEX
  8
0
 62
9
  6
CONTINUOUS
 10
458.0648958686
 20
106.754915327
  0
VERTEX
  8
0
 62
9
  6
CONTINUOUS
 10
458.1262876993
 20
106.7335049807
  0
VERTEX
  8
0
 62
9
  6
CONTINUOUS
 10
458.1849245483
 20
106.7095748959
  0
VERTEX
  8
0
 62
9
  6
CONTINUOUS
 10
458.2405076158
 20
106.6832470149
  0
VERTEX
  8
0
 62
9
  6
CONTINUOUS
 10
458.292753663
 20
106.6546554984
  0
VERTEX
  8
0
 62
9
  6
CONTINUOUS
 10
458.3413964562
 20
106.6239460424
  0
VERTEX
  8
0
 62
9
  6
CONTINUOUS
 10
458.3861881228
 20
106.5912751351
  0
VERTEX
  8
0
 62
9
  6
CONTINUOUS
 10
458.4269004147
 20
106.5568092599
  0
VERTEX
  8
0
 62
9
  6
CONTINUOUS
 10
458.4633258714
 20
106.5207240472
  0
VERTEX
  8
0
 62
9
  6
CONTINUOUS
 10
458.4952788772
 20
106.4832033789
  0
VERTEX
  8
0
 62
9
  6
CONTINUOUS
 10
458.5225966068
 20
106.4444384516
  0
VERTEX
  8
0
 62
9
  6
CONTINUOUS
 10
458.5451398555
 20
106.4046268027
  0
VERTEX
  8
0
 62
9
  6
CONTINUOUS
 10
458.5627937478
 20
106.363971303
  0
VERTEX
  8
0
 62
9
  6
CONTINUOUS
 10
458.5754683237
 20
106.3226791238
  0
VERTEX
  8
0
 62
9
  6
CONTINUOUS
 10
458.5830989964
 20
106.2809606804
  0
VERTEX
  8
0
 62
9
  6
CONTINUOUS
 10
458.5856468818
 20
106.2390285607
  0
SEQEND
  0
POLYLINE
  8
0
 62
9
  6
CONTINUOUS
 66
1
 70
0
  0
VERTEX
  8
0
 62
9
  6
CONTINUOUS
 10
457.5856468818
 20
107.2313223101
  0
VERTEX
  8
0
 62
9
  6
CONTINUOUS
 10
457.656986065
 20
107.2298247007
  0
VERTEX
  8
0
 62
9
  6
CONTINUOUS
 10
457.72796172
 20
107.2253395038
  0
VERTEX
  8
0
 62
9
  6
CONTINUOUS
 10
457.7982121713
 20
107.217889575
  0
VERTEX
  8
0
 62
9
  6
CONTINUOUS
 10
457.8673794385
 20
107.2075128774
  0
VERTEX
  8
0
 62
9
  6
CONTINUOUS
 10
457.9351110612
 20
107.1942622884
  0
VERTEX
  8
0
 62
9
  6
CONTINUOUS
 10
458.0010618946
 20
107.1782053298
  0
VERTEX
  8
0
 62
9
  6
CONTINUOUS
 10
458.0648958684
 20
107.1594238242
  0
VERTEX
  8
0
 62
9
  6
CONTINUOUS
 10
458.1262876991
 20
107.1380134779
  0
VERTEX
  8
0
 62
9
  6
CONTINUOUS
 10
458.1849245482
 20
107.1140833932
  0
VERTEX
  8
0
 62
9
  6
CONTINUOUS
 10
458.2405076157
 20
107.0877555121
  0
VERTEX
  8
0
 62
9
  6
CONTINUOUS
 10
458.292753663
 20
107.0591639956
  0
VERTEX
  8
0
 62
9
  6
CONTINUOUS
 10
458.3413964562
 20
107.0284545395
  0
VERTEX
  8
0
 62
9
  6
CONTINUOUS
 10
458.3861881229
 20
106.9957836322
  0
VERTEX
  8
0
 62
9
  6
CONTINUOUS
 10
458.4269004148
 20
106.961317757
  0
VERTEX
  8
0
 62
9
  6
CONTINUOUS
 10
458.4633258715
 20
106.9252325443
  0
VERTEX
  8
0
 62
9
  6
CONTINUOUS
 10
458.4952788773
 20
106.8877118759
  0
VERTEX
  8
0
 62
9
  6
CONTINUOUS
 10
458.5225966069
 20
106.8489469487
  0
VERTEX
  8
0
 62
9
  6
CONTINUOUS
 10
458.5451398555
 20
106.8091352997
  0
VERTEX
  8
0
 62
9
  6
CONTINUOUS
 10
458.5627937478
 20
106.7684798001
  0
VERTEX
  8
0
 62
9
  6
CONTINUOUS
 10
458.5754683237
 20
106.7271876209
  0
VERTEX
  8
0
 62
9
  6
CONTINUOUS
 10
458.5830989965
 20
106.6854691776
  0
VERTEX
  8
0
 62
9
  6
CONTINUOUS
 10
458.5856468818
 20
106.6435370578
  0
SEQEND
  0
POLYLINE
  8
0
 62
9
  6
CONTINUOUS
 66
1
 70
0
  0
VERTEX
  8
0
 62
9
  6
CONTINUOUS
 10
427.5856468818
 20
104.8852954013
  0
VERTEX
  8
0
 62
9
  6
CONTINUOUS
 10
427.5143076986
 20
104.8877251522
  0
VERTEX
  8
0
 62
9
  6
CONTINUOUS
 10
427.4433320436
 20
104.8950020235
  0
VERTEX
  8
0
 62
9
  6
CONTINUOUS
 10
427.3730815923
 20
104.9070889339
  0
VERTEX
  8
0
 62
9
  6
CONTINUOUS
 10
427.303914325
 20
104.9239242912
  0
VERTEX
  8
0
 62
9
  6
CONTINUOUS
 10
427.2361827022
 20
104.9454223064
  0
VERTEX
  8
0
 62
9
  6
CONTINUOUS
 10
427.1702318688
 20
104.9714734305
  0
VERTEX
  8
0
 62
9
  6
CONTINUOUS
 10
427.1063978951
 20
105.0019449129
  0
VERTEX
  8
0
 62
9
  6
CONTINUOUS
 10
427.0450060644
 20
105.0366814779
  0
VERTEX
  8
0
 62
9
  6
CONTINUOUS
 10
426.9863692153
 20
105.075506116
  0
VERTEX
  8
0
 62
9
  6
CONTINUOUS
 10
426.9307861479
 20
105.1182209858
  0
VERTEX
  8
0
 62
9
  6
CONTINUOUS
 10
426.8785401007
 20
105.164608422
  0
VERTEX
  8
0
 62
9
  6
CONTINUOUS
 10
426.8298973075
 20
105.2144320448
  0
VERTEX
  8
0
 62
9
  6
CONTINUOUS
 10
426.7851056409
 20
105.2674379646
  0
VERTEX
  8
0
 62
9
  6
CONTINUOUS
 10
426.744393349
 20
105.3233560753
  0
VERTEX
  8
0
 62
9
  6
CONTINUOUS
 10
426.7079678923
 20
105.381901431
  0
VERTEX
  8
0
 62
9
  6
CONTINUOUS
 10
426.6760148865
 20
105.442775698
  0
VERTEX
  8
0
 62
9
  6
CONTINUOUS
 10
426.6486971568
 20
105.5056686751
  0
VERTEX
  8
0
 62
9
  6
CONTINUOUS
 10
426.6261539082
 20
105.570259874
  0
VERTEX
  8
0
 62
9
  6
CONTINUOUS
 10
426.6085000159
 20
105.6362201527
  0
VERTEX
  8
0
 62
9
  6
CONTINUOUS
 10
426.59582544
 20
105.7032133929
  0
VERTEX
  8
0
 62
9
  6
CONTINUOUS
 10
426.5881947672
 20
105.7708982122
  0
VERTEX
  8
0
 62
9
  6
CONTINUOUS
 10
426.5856468818
 20
105.8389297045
  0
SEQEND
  0
POLYLINE
  8
0
 62
9
  6
CONTINUOUS
 66
1
 70
0
  0
VERTEX
  8
0
 62
9
  6
CONTINUOUS
 10
457.5856468818
 20
110.0249268035
  0
VERTEX
  8
0
 62
9
  6
CONTINUOUS
 10
457.656986065
 20
110.026988086
  0
VERTEX
  8
0
 62
9
  6
CONTINUOUS
 10
457.7279617201
 20
110.03316143
  0
VERTEX
  8
0
 62
9
  6
CONTINUOUS
 10
457.7982121714
 20
110.0434153773
  0
VERTEX
  8
0
 62
9
  6
CONTINUOUS
 10
457.8673794387
 20
110.0576976762
  0
VERTEX
  8
0
 62
9
  6
CONTINUOUS
 10
457.9351110614
 20
110.0759355474
  0
VERTEX
  8
0
 62
9
  6
CONTINUOUS
 10
458.0010618948
 20
110.098036055
  0
VERTEX
  8
0
 62
9
  6
CONTINUOUS
 10
458.0648958686
 20
110.1238865797
  0
VERTEX
  8
0
 62
9
  6
CONTINUOUS
 10
458.1262876993
 20
110.1533553932
  0
VERTEX
  8
0
 62
9
  6
CONTINUOUS
 10
458.1849245483
 20
110.1862923292
  0
VERTEX
  8
0
 62
9
  6
CONTINUOUS
 10
458.2405076158
 20
110.2225295487
  0
VERTEX
  8
0
 62
9
  6
CONTINUOUS
 10
458.292753663
 20
110.261882395
  0
VERTEX
  8
0
 62
9
  6
CONTINUOUS
 10
458.3413964562
 20
110.3041503351
  0
VERTEX
  8
0
 62
9
  6
CONTINUOUS
 10
458.3861881228
 20
110.3491179813
  0
VERTEX
  8
0
 62
9
  6
CONTINUOUS
 10
458.4269004147
 20
110.3965561887
  0
VERTEX
  8
0
 62
9
  6
CONTINUOUS
 10
458.4633258714
 20
110.446223223
  0
VERTEX
  8
0
 62
9
  6
CONTINUOUS
 10
458.4952788772
 20
110.4978659926
  0
VERTEX
  8
0
 62
9
  6
CONTINUOUS
 10
458.5225966068
 20
110.5512213376
  0
VERTEX
  8
0
 62
9
  6
CONTINUOUS
 10
458.5451398555
 20
110.6060173715
  0
VERTEX
  8
0
 62
9
  6
CONTINUOUS
 10
458.5627937478
 20
110.6619748662
  0
VERTEX
  8
0
 62
9
  6
CONTINUOUS
 10
458.5754683237
 20
110.7188086751
  0
VERTEX
  8
0
 62
9
  6
CONTINUOUS
 10
458.5830989964
 20
110.7762291863
  0
VERTEX
  8
0
 62
9
  6
CONTINUOUS
 10
458.5856468818
 20
110.8339437978
  0
SEQEND
  0
POLYLINE
  8
0
 62
9
  6
CONTINUOUS
 66
1
 70
0
  0
VERTEX
  8
0
 62
9
  6
CONTINUOUS
 10
427.5856468818
 20
109.5343708469
  0
VERTEX
  8
0
 62
9
  6
CONTINUOUS
 10
427.5143076986
 20
109.5330585889
  0
VERTEX
  8
0
 62
9
  6
CONTINUOUS
 10
427.4433320436
 20
109.529128502
  0
VERTEX
  8
0
 62
9
  6
CONTINUOUS
 10
427.3730815923
 20
109.5226006128
  0
VERTEX
  8
0
 62
9
  6
CONTINUOUS
 10
427.303914325
 20
109.513508186
  0
VERTEX
  8
0
 62
9
  6
CONTINUOUS
 10
427.2361827022
 20
109.5018975547
  0
VERTEX
  8
0
 62
9
  6
CONTINUOUS
 10
427.1702318688
 20
109.4878278838
  0
VERTEX
  8
0
 62
9
  6
CONTINUOUS
 10
427.1063978951
 20
109.4713708692
  0
VERTEX
  8
0
 62
9
  6
CONTINUOUS
 10
427.0450060644
 20
109.4526103721
  0
VERTEX
  8
0
 62
9
  6
CONTINUOUS
 10
426.9863692153
 20
109.4316419916
  0
VERTEX
  8
0
 62
9
  6
CONTINUOUS
 10
426.9307861479
 20
109.4085725779
  0
VERTEX
  8
0
 62
9
  6
CONTINUOUS
 10
426.8785401007
 20
109.3835196874
  0
VERTEX
  8
0
 62
9
  6
CONTINUOUS
 10
426.8298973075
 20
109.3566109838
  0
VERTEX
  8
0
 62
9
  6
CONTINUOUS
 10
426.7851056409
 20
109.3279835877
  0
VERTEX
  8
0
 62
9
  6
CONTINUOUS
 10
426.744393349
 20
109.2977833779
  0
VERTEX
  8
0
 62
9
  6
CONTINUOUS
 10
426.7079678923
 20
109.2661642475
  0
VERTEX
  8
0
 62
9
  6
CONTINUOUS
 10
426.6760148865
 20
109.2332873206
  0
VERTEX
  8
0
 62
9
  6
CONTINUOUS
 10
426.6486971568
 20
109.1993201303
  0
VERTEX
  8
0
 62
9
  6
CONTINUOUS
 10
426.6261539082
 20
109.1644357657
  0
VERTEX
  8
0
 62
9
  6
CONTINUOUS
 10
426.6085000159
 20
109.1288119895
  0
VERTEX
  8
0
 62
9
  6
CONTINUOUS
 10
426.59582544
 20
109.0926303324
  0
VERTEX
  8
0
 62
9
  6
CONTINUOUS
 10
426.5881947672
 20
109.0560751676
  0
VERTEX
  8
0
 62
9
  6
CONTINUOUS
 10
426.5856468818
 20
109.019332772
  0
SEQEND
  0
LINE
  8
0
 62
9
  6
CONTINUOUS
 10
442.5856468818
 20
109.5343708469
 11
427.5856468818
 21
109.5343708469
  0
LINE
  8
0
 62
9
  6
CONTINUOUS
 10
442.5856468818
 20
110.0249268035
 11
457.5856468818
 21
110.0249268035
  0
POLYLINE
  8
0
 62
9
  6
CONTINUOUS
 66
1
 70
0
  0
VERTEX
  8
0
 62
9
  6
CONTINUOUS
 10
457.5856468818
 20
129.5129097668
  0
VERTEX
  8
0
 62
9
  6
CONTINUOUS
 10
457.656986065
 20
129.5149710494
  0
VERTEX
  8
0
 62
9
  6
CONTINUOUS
 10
457.7279617201
 20
129.5211443933
  0
VERTEX
  8
0
 62
9
  6
CONTINUOUS
 10
457.7982121714
 20
129.5313983406
  0
VERTEX
  8
0
 62
9
  6
CONTINUOUS
 10
457.8673794387
 20
129.5456806395
  0
VERTEX
  8
0
 62
9
  6
CONTINUOUS
 10
457.9351110614
 20
129.5639185108
  0
VERTEX
  8
0
 62
9
  6
CONTINUOUS
 10
458.0010618948
 20
129.5860190183
  0
VERTEX
  8
0
 62
9
  6
CONTINUOUS
 10
458.0648958686
 20
129.611869543
  0
VERTEX
  8
0
 62
9
  6
CONTINUOUS
 10
458.1262876993
 20
129.6413383565
  0
VERTEX
  8
0
 62
9
  6
CONTINUOUS
 10
458.1849245483
 20
129.6742752926
  0
VERTEX
  8
0
 62
9
  6
CONTINUOUS
 10
458.2405076158
 20
129.710512512
  0
VERTEX
  8
0
 62
9
  6
CONTINUOUS
 10
458.292753663
 20
129.7498653584
  0
VERTEX
  8
0
 62
9
  6
CONTINUOUS
 10
458.3413964562
 20
129.7921332985
  0
VERTEX
  8
0
 62
9
  6
CONTINUOUS
 10
458.3861881228
 20
129.8371009446
  0
VERTEX
  8
0
 62
9
  6
CONTINUOUS
 10
458.4269004147
 20
129.884539152
  0
VERTEX
  8
0
 62
9
  6
CONTINUOUS
 10
458.4633258714
 20
129.9342061864
  0
VERTEX
  8
0
 62
9
  6
CONTINUOUS
 10
458.4952788772
 20
129.9858489559
  0
VERTEX
  8
0
 62
9
  6
CONTINUOUS
 10
458.5225966068
 20
130.039204301
  0
VERTEX
  8
0
 62
9
  6
CONTINUOUS
 10
458.5451398555
 20
130.0940003348
  0
VERTEX
  8
0
 62
9
  6
CONTINUOUS
 10
458.5627937478
 20
130.1499578295
  0
VERTEX
  8
0
 62
9
  6
CONTINUOUS
 10
458.5754683237
 20
130.2067916385
  0
VERTEX
  8
0
 62
9
  6
CONTINUOUS
 10
458.5830989964
 20
130.2642121496
  0
VERTEX
  8
0
 62
9
  6
CONTINUOUS
 10
458.5856468818
 20
130.3219267612
  0
SEQEND
  0
LINE
  8
0
 62
9
  6
CONTINUOUS
 10
442.5856468818
 20
124.7599419706
 11
427.5856468818
 21
124.7599419706
  0
POLYLINE
  8
0
 62
9
  6
CONTINUOUS
 66
1
 70
0
  0
VERTEX
  8
0
 62
9
  6
CONTINUOUS
 10
427.5856468818
 20
124.7599419706
  0
VERTEX
  8
0
 62
9
  6
CONTINUOUS
 10
427.5143076986
 20
124.7612159133
  0
VERTEX
  8
0
 62
9
  6
CONTINUOUS
 10
427.4433320436
 20
124.7650312496
  0
VERTEX
  8
0
 62
9
  6
CONTINUOUS
 10
427.3730815923
 20
124.7713685376
  0
VERTEX
  8
0
 62
9
  6
CONTINUOUS
 10
427.303914325
 20
124.7801954838
  0
VERTEX
  8
0
 62
9
  6
CONTINUOUS
 10
427.2361827022
 20
124.7914671081
  0
VERTEX
  8
0
 62
9
  6
CONTINUOUS
 10
427.1702318688
 20
124.8051259729
  0
VERTEX
  8
0
 62
9
  6
CONTINUOUS
 10
427.1063978951
 20
124.8211024758
  0
VERTEX
  8
0
 62
9
  6
CONTINUOUS
 10
427.0450060644
 20
124.8393152042
  0
VERTEX
  8
0
 62
9
  6
CONTINUOUS
 10
426.9863692153
 20
124.8596713501
  0
VERTEX
  8
0
 62
9
  6
CONTINUOUS
 10
426.9307861479
 20
124.8820671834
  0
VERTEX
  8
0
 62
9
  6
CONTINUOUS
 10
426.8785401007
 20
124.90638858
  0
VERTEX
  8
0
 62
9
  6
CONTINUOUS
 10
426.8298973075
 20
124.9325116036
  0
VERTEX
  8
0
 62
9
  6
CONTINUOUS
 10
426.7851056409
 20
124.9603031373
  0
VERTEX
  8
0
 62
9
  6
CONTINUOUS
 10
426.744393349
 20
124.9896215619
  0
VERTEX
  8
0
 62
9
  6
CONTINUOUS
 10
426.7079678923
 20
125.0203174772
  0
VERTEX
  8
0
 62
9
  6
CONTINUOUS
 10
426.6760148865
 20
125.0522344641
  0
VERTEX
  8
0
 62
9
  6
CONTINUOUS
 10
426.6486971568
 20
125.0852098808
  0
VERTEX
  8
0
 62
9
  6
CONTINUOUS
 10
426.6261539082
 20
125.1190756922
  0
VERTEX
  8
0
 62
9
  6
CONTINUOUS
 10
426.6085000159
 20
125.1536593258
  0
VERTEX
  8
0
 62
9
  6
CONTINUOUS
 10
426.59582544
 20
125.1887845514
  0
VERTEX
  8
0
 62
9
  6
CONTINUOUS
 10
426.5881947672
 20
125.224272379
  0
VERTEX
  8
0
 62
9
  6
CONTINUOUS
 10
426.5856468818
 20
125.2599419706
  0
SEQEND
  0
POLYLINE
  8
0
 62
9
  6
CONTINUOUS
 66
1
 70
0
  0
VERTEX
  8
0
 62
9
  6
CONTINUOUS
 10
457.5856468818
 20
131.541660267
  0
VERTEX
  8
0
 62
9
  6
CONTINUOUS
 10
457.656986065
 20
131.5421689196
  0
VERTEX
  8
0
 62
9
  6
CONTINUOUS
 10
457.7279617201
 20
131.5436922852
  0
VERTEX
  8
0
 62
9
  6
CONTINUOUS
 10
457.7982121714
 20
131.5462226013
  0
VERTEX
  8
0
 62
9
  6
CONTINUOUS
 10
457.8673794387
 20
131.5497469738
  0
VERTEX
  8
0
 62
9
  6
CONTINUOUS
 10
457.9351110614
 20
131.5542474434
  0
VERTEX
  8
0
 62
9
  6
CONTINUOUS
 10
458.0010618948
 20
131.5597010768
  0
VERTEX
  8
0
 62
9
  6
CONTINUOUS
 10
458.0648958686
 20
131.5660800834
  0
VERTEX
  8
0
 62
9
  6
CONTINUOUS
 10
458.1262876993
 20
131.5733519573
  0
VERTEX
  8
0
 62
9
  6
CONTINUOUS
 10
458.1849245483
 20
131.5814796427
  0
VERTEX
  8
0
 62
9
  6
CONTINUOUS
 10
458.2405076158
 20
131.5904217228
  0
VERTEX
  8
0
 62
9
  6
CONTINUOUS
 10
458.292753663
 20
131.6001326308
  0
VERTEX
  8
0
 62
9
  6
CONTINUOUS
 10
458.3413964562
 20
131.6105628821
  0
VERTEX
  8
0
 62
9
  6
CONTINUOUS
 10
458.3861881228
 20
131.6216593265
  0
VERTEX
  8
0
 62
9
  6
CONTINUOUS
 10
458.4269004147
 20
131.6333654192
  0
VERTEX
  8
0
 62
9
  6
CONTINUOUS
 10
458.4633258714
 20
131.6456215086
  0
VERTEX
  8
0
 62
9
  6
CONTINUOUS
 10
458.4952788772
 20
131.6583651403
  0
VERTEX
  8
0
 62
9
  6
CONTINUOUS
 10
458.5225966068
 20
131.6715313759
  0
VERTEX
  8
0
 62
9
  6
CONTINUOUS
 10
458.5451398555
 20
131.6850531232
  0
VERTEX
  8
0
 62
9
  6
CONTINUOUS
 10
458.5627937478
 20
131.6988614784
  0
VERTEX
  8
0
 62
9
  6
CONTINUOUS
 10
458.5754683237
 20
131.7128860774
  0
VERTEX
  8
0
 62
9
  6
CONTINUOUS
 10
458.5830989964
 20
131.727055454
  0
VERTEX
  8
0
 62
9
  6
CONTINUOUS
 10
458.5856468818
 20
131.7412974043
  0
SEQEND
  0
LINE
  8
0
 62
9
  6
CONTINUOUS
 10
442.5856468818
 20
129.5129097668
 11
457.5856468818
 21
129.5129097668
  0
LINE
  8
0
 62
7
  6
CONTINUOUS
 10
442.5856468818
 20
129.9409345416
 11
457.5856468818
 21
129.9409345416
  0
LINE
  8
0
 62
9
  6
CONTINUOUS
 10
442.5856468818
 20
131.541660267
 11
457.5856468818
 21
131.541660267
  0
LINE
  8
0
 62
7
  6
CONTINUOUS
 10
459.0856468818
 20
145.2823904195
 11
458.5856468818
 21
145.2823904195
  0
LINE
  8
0
 62
7
  6
CONTINUOUS
 10
426.5856468818
 20
145.2823904195
 11
426.0856468818
 21
145.2823904195
  0
LINE
  8
0
 62
9
  6
CONTINUOUS
 10
459.0856468818
 20
147.62553617
 11
458.5856468818
 21
147.62553617
  0
LINE
  8
0
 62
9
  6
CONTINUOUS
 10
426.5856468818
 20
147.62553617
 11
426.0856468818
 21
147.62553617
  0
LINE
  8
0
 62
9
  6
CONTINUOUS
 10
442.5856468818
 20
148.3258452887
 11
457.5856468818
 21
148.3258452887
  0
LINE
  8
0
 62
9
  6
CONTINUOUS
 10
442.5856468818
 20
148.5758452887
 11
457.5856468818
 21
148.5758452887
  0
POLYLINE
  8
0
 62
9
  6
CONTINUOUS
 66
1
 70
0
  0
VERTEX
  8
0
 62
9
  6
CONTINUOUS
 10
457.5856468818
 20
148.3258452887
  0
VERTEX
  8
0
 62
9
  6
CONTINUOUS
 10
457.656986065
 20
148.3236387553
  0
VERTEX
  8
0
 62
9
  6
CONTINUOUS
 10
457.7279617201
 20
148.3170303988
  0
VERTEX
  8
0
 62
9
  6
CONTINUOUS
 10
457.7982121714
 20
148.3060538941
  0
VERTEX
  8
0
 62
9
  6
CONTINUOUS
 10
457.8673794387
 20
148.2907651748
  0
VERTEX
  8
0
 62
9
  6
CONTINUOUS
 10
457.9351110614
 20
148.2712421489
  0
VERTEX
  8
0
 62
9
  6
CONTINUOUS
 10
458.0010618948
 20
148.247584301
  0
VERTEX
  8
0
 62
9
  6
CONTINUOUS
 10
458.0648958686
 20
148.2199121863
  0
VERTEX
  8
0
 62
9
  6
CONTINUOUS
 10
458.1262876993
 20
148.1883668154
  0
VERTEX
  8
0
 62
9
  6
CONTINUOUS
 10
458.1849245483
 20
148.1531089364
  0
VERTEX
  8
0
 62
9
  6
CONTINUOUS
 10
458.2405076158
 20
148.1143182152
  0
VERTEX
  8
0
 62
9
  6
CONTINUOUS
 10
458.292753663
 20
148.0721923206
  0
VERTEX
  8
0
 62
9
  6
CONTINUOUS
 10
458.3413964562
 20
148.0269459165
  0
VERTEX
  8
0
 62
9
  6
CONTINUOUS
 10
458.3861881228
 20
147.9788095681
  0
VERTEX
  8
0
 62
9
  6
CONTINUOUS
 10
458.4269004147
 20
147.9280285672
  0
VERTEX
  8
0
 62
9
  6
CONTINUOUS
 10
458.4633258714
 20
147.8748616822
  0
VERTEX
  8
0
 62
9
  6
CONTINUOUS
 10
458.4952788772
 20
147.8195798393
  0
VERTEX
  8
0
 62
9
  6
CONTINUOUS
 10
458.5225966068
 20
147.7624647422
  0
VERTEX
  8
0
 62
9
  6
CONTINUOUS
 10
458.5451398555
 20
147.7038074362
  0
VERTEX
  8
0
 62
9
  6
CONTINUOUS
 10
458.5627937478
 20
147.6439068257
  0
VERTEX
  8
0
 62
9
  6
CONTINUOUS
 10
458.5754683237
 20
147.5830681502
  0
VERTEX
  8
0
 62
9
  6
CONTINUOUS
 10
458.5830989964
 20
147.5216014299
  0
VERTEX
  8
0
 62
9
  6
CONTINUOUS
 10
458.5856468818
 20
147.4598198849
  0
SEQEND
  0
POLYLINE
  8
0
 62
9
  6
CONTINUOUS
 66
1
 70
0
  0
VERTEX
  8
0
 62
9
  6
CONTINUOUS
 10
457.5856468818
 20
148.5758452887
  0
VERTEX
  8
0
 62
9
  6
CONTINUOUS
 10
457.656986065
 20
148.5736387553
  0
VERTEX
  8
0
 62
9
  6
CONTINUOUS
 10
457.72796172
 20
148.5670303988
  0
VERTEX
  8
0
 62
9
  6
CONTINUOUS
 10
457.7982121713
 20
148.5560538941
  0
VERTEX
  8
0
 62
9
  6
CONTINUOUS
 10
457.8673794385
 20
148.5407651749
  0
VERTEX
  8
0
 62
9
  6
CONTINUOUS
 10
457.9351110612
 20
148.5212421489
  0
VERTEX
  8
0
 62
9
  6
CONTINUOUS
 10
458.0010618946
 20
148.4975843011
  0
VERTEX
  8
0
 62
9
  6
CONTINUOUS
 10
458.0648958684
 20
148.4699121864
  0
VERTEX
  8
0
 62
9
  6
CONTINUOUS
 10
458.1262876991
 20
148.4383668155
  0
VERTEX
  8
0
 62
9
  6
CONTINUOUS
 10
458.1849245482
 20
148.4031089364
  0
VERTEX
  8
0
 62
9
  6
CONTINUOUS
 10
458.2405076157
 20
148.3643182153
  0
VERTEX
  8
0
 62
9
  6
CONTINUOUS
 10
458.292753663
 20
148.3221923206
  0
VERTEX
  8
0
 62
9
  6
CONTINUOUS
 10
458.3413964562
 20
148.2769459164
  0
VERTEX
  8
0
 62
9
  6
CONTINUOUS
 10
458.3861881229
 20
148.228809568
  0
VERTEX
  8
0
 62
9
  6
CONTINUOUS
 10
458.4269004148
 20
148.178028567
  0
VERTEX
  8
0
 62
9
  6
CONTINUOUS
 10
458.4633258715
 20
148.124861682
  0
VERTEX
  8
0
 62
9
  6
CONTINUOUS
 10
458.4952788773
 20
148.0695798391
  0
VERTEX
  8
0
 62
9
  6
CONTINUOUS
 10
458.5225966069
 20
148.012464742
  0
VERTEX
  8
0
 62
9
  6
CONTINUOUS
 10
458.5451398555
 20
147.9538074361
  0
VERTEX
  8
0
 62
9
  6
CONTINUOUS
 10
458.5627937478
 20
147.8939068255
  0
VERTEX
  8
0
 62
9
  6
CONTINUOUS
 10
458.5754683237
 20
147.8330681502
  0
VERTEX
  8
0
 62
9
  6
CONTINUOUS
 10
458.5830989965
 20
147.7716014298
  0
VERTEX
  8
0
 62
9
  6
CONTINUOUS
 10
458.5856468818
 20
147.7098198849
  0
SEQEND
  0
POLYLINE
  8
0
 62
9
  6
CONTINUOUS
 66
1
 70
0
  0
VERTEX
  8
0
 62
9
  6
CONTINUOUS
 10
427.5856468818
 20
158.9375768711
  0
VERTEX
  8
0
 62
9
  6
CONTINUOUS
 10
427.5143076987
 20
158.9354897656
  0
VERTEX
  8
0
 62
9
  6
CONTINUOUS
 10
427.4433320437
 20
158.9292390844
  0
VERTEX
  8
0
 62
9
  6
CONTINUOUS
 10
427.3730815924
 20
158.9188566796
  0
VERTEX
  8
0
 62
9
  6
CONTINUOUS
 10
427.3039143252
 20
158.9043954576
  0
VERTEX
  8
0
 62
9
  6
CONTINUOUS
 10
427.2361827024
 20
158.8859291095
  0
VERTEX
  8
0
 62
9
  6
CONTINUOUS
 10
427.170231869
 20
158.8635517354
  0
VERTEX
  8
0
 62
9
  6
CONTINUOUS
 10
427.1063978953
 20
158.8373773654
  0
VERTEX
  8
0
 62
9
  6
CONTINUOUS
 10
427.0450060646
 20
158.8075393781
  0
VERTEX
  8
0
 62
9
  6
CONTINUOUS
 10
426.9863692155
 20
158.7741898209
  0
VERTEX
  8
0
 62
9
  6
CONTINUOUS
 10
426.930786148
 20
158.7374986356
  0
VERTEX
  8
0
 62
9
  6
CONTINUOUS
 10
426.8785401006
 20
158.6976527921
  0
VERTEX
  8
0
 62
9
  6
CONTINUOUS
 10
426.8298973074
 20
158.6548553357
  0
VERTEX
  8
0
 62
9
  6
CONTINUOUS
 10
426.7851056408
 20
158.6093243523
  0
VERTEX
  8
0
 62
9
  6
CONTINUOUS
 10
426.7443933489
 20
158.5612918575
  0
VERTEX
  8
0
 62
9
  6
CONTINUOUS
 10
426.7079678922
 20
158.5110026138
  0
VERTEX
  8
0
 62
9
  6
CONTINUOUS
 10
426.6760148864
 20
158.4587128837
  0
VERTEX
  8
0
 62
9
  6
CONTINUOUS
 10
426.6486971568
 20
158.4046891238
  0
VERTEX
  8
0
 62
9
  6
CONTINUOUS
 10
426.6261539082
 20
158.3492066265
  0
VERTEX
  8
0
 62
9
  6
CONTINUOUS
 10
426.6085000158
 20
158.2925481182
  0
VERTEX
  8
0
 62
9
  6
CONTINUOUS
 10
426.5958254399
 20
158.2350023174
  0
VERTEX
  8
0
 62
9
  6
CONTINUOUS
 10
426.5881947672
 20
158.1768624645
  0
VERTEX
  8
0
 62
9
  6
CONTINUOUS
 10
426.5856468818
 20
158.1184248268
  0
SEQEND
  0
POLYLINE
  8
0
 62
9
  6
CONTINUOUS
 66
1
 70
0
  0
VERTEX
  8
0
 62
9
  6
CONTINUOUS
 10
457.5856468818
 20
151.3078960963
  0
VERTEX
  8
0
 62
9
  6
CONTINUOUS
 10
457.656986065
 20
151.309170039
  0
VERTEX
  8
0
 62
9
  6
CONTINUOUS
 10
457.7279617201
 20
151.3129853754
  0
VERTEX
  8
0
 62
9
  6
CONTINUOUS
 10
457.7982121714
 20
151.3193226633
  0
VERTEX
  8
0
 62
9
  6
CONTINUOUS
 10
457.8673794387
 20
151.3281496095
  0
VERTEX
  8
0
 62
9
  6
CONTINUOUS
 10
457.9351110614
 20
151.3394212338
  0
VERTEX
  8
0
 62
9
  6
CONTINUOUS
 10
458.0010618948
 20
151.3530800986
  0
VERTEX
  8
0
 62
9
  6
CONTINUOUS
 10
458.0648958686
 20
151.3690566015
  0
VERTEX
  8
0
 62
9
  6
CONTINUOUS
 10
458.1262876993
 20
151.3872693299
  0
VERTEX
  8
0
 62
9
  6
CONTINUOUS
 10
458.1849245483
 20
151.4076254758
  0
VERTEX
  8
0
 62
9
  6
CONTINUOUS
 10
458.2405076158
 20
151.4300213091
  0
VERTEX
  8
0
 62
9
  6
CONTINUOUS
 10
458.292753663
 20
151.4543427057
  0
VERTEX
  8
0
 62
9
  6
CONTINUOUS
 10
458.3413964562
 20
151.4804657293
  0
VERTEX
  8
0
 62
9
  6
CONTINUOUS
 10
458.3861881228
 20
151.508257263
  0
VERTEX
  8
0
 62
9
  6
CONTINUOUS
 10
458.4269004147
 20
151.5375756876
  0
VERTEX
  8
0
 62
9
  6
CONTINUOUS
 10
458.4633258714
 20
151.5682716029
  0
VERTEX
  8
0
 62
9
  6
CONTINUOUS
 10
458.4952788772
 20
151.6001885898
  0
VERTEX
  8
0
 62
9
  6
CONTINUOUS
 10
458.5225966068
 20
151.6331640065
  0
VERTEX
  8
0
 62
9
  6
CONTINUOUS
 10
458.5451398555
 20
151.6670298179
  0
VERTEX
  8
0
 62
9
  6
CONTINUOUS
 10
458.5627937478
 20
151.7016134515
  0
VERTEX
  8
0
 62
9
  6
CONTINUOUS
 10
458.5754683237
 20
151.7367386772
  0
VERTEX
  8
0
 62
9
  6
CONTINUOUS
 10
458.5830989964
 20
151.7722265047
  0
VERTEX
  8
0
 62
9
  6
CONTINUOUS
 10
458.5856468818
 20
151.8078960963
  0
SEQEND
  0
LINE
  8
0
 62
9
  6
CONTINUOUS
 10
442.5856468818
 20
151.3078960963
 11
457.5856468818
 21
151.3078960963
  0
LINE
  8
0
 62
7
  6
CONTINUOUS
 10
442.5856468818
 20
151.8449105229
 11
427.5856468818
 21
151.8449105229
  0
LINE
  8
0
 62
9
  6
CONTINUOUS
 10
442.5856468818
 20
155.8017254748
 11
427.5856468818
 21
155.8017254748
  0
LINE
  8
0
 62
9
  6
CONTINUOUS
 10
442.5856468818
 20
158.9375768711
 11
427.5856468818
 21
158.9375768711
  0
POLYLINE
  8
0
 62
9
  6
CONTINUOUS
 66
1
 70
0
  0
VERTEX
  8
0
 62
9
  6
CONTINUOUS
 10
427.5856468818
 20
155.8017254748
  0
VERTEX
  8
0
 62
9
  6
CONTINUOUS
 10
427.5143076986
 20
155.8036332643
  0
VERTEX
  8
0
 62
9
  6
CONTINUOUS
 10
427.4433320436
 20
155.809346911
  0
VERTEX
  8
0
 62
9
  6
CONTINUOUS
 10
427.3730815923
 20
155.8188372995
  0
VERTEX
  8
0
 62
9
  6
CONTINUOUS
 10
427.303914325
 20
155.832056069
  0
VERTEX
  8
0
 62
9
  6
CONTINUOUS
 10
427.2361827022
 20
155.8489358596
  0
VERTEX
  8
0
 62
9
  6
CONTINUOUS
 10
427.1702318688
 20
155.8693906558
  0
VERTEX
  8
0
 62
9
  6
CONTINUOUS
 10
427.1063978951
 20
155.8933162247
  0
VERTEX
  8
0
 62
9
  6
CONTINUOUS
 10
427.0450060644
 20
155.9205906471
  0
VERTEX
  8
0
 62
9
  6
CONTINUOUS
 10
426.9863692153
 20
155.9510749386
  0
VERTEX
  8
0
 62
9
  6
CONTINUOUS
 10
426.9307861479
 20
155.9846137585
  0
VERTEX
  8
0
 62
9
  6
CONTINUOUS
 10
426.8785401007
 20
156.0210362004
  0
VERTEX
  8
0
 62
9
  6
CONTINUOUS
 10
426.8298973075
 20
156.0601566641
  0
VERTEX
  8
0
 62
9
  6
CONTINUOUS
 10
426.7851056409
 20
156.1017758006
  0
VERTEX
  8
0
 62
9
  6
CONTINUOUS
 10
426.744393349
 20
156.1456815283
  0
VERTEX
  8
0
 62
9
  6
CONTINUOUS
 10
426.7079678923
 20
156.1916501138
  0
VERTEX
  8
0
 62
9
  6
CONTINUOUS
 10
426.6760148865
 20
156.2394473115
  0
VERTEX
  8
0
 62
9
  6
CONTINUOUS
 10
426.6486971568
 20
156.288829558
  0
VERTEX
  8
0
 62
9
  6
CONTINUOUS
 10
426.6261539082
 20
156.3395452127
  0
VERTEX
  8
0
 62
9
  6
CONTINUOUS
 10
426.6085000159
 20
156.3913358401
  0
VERTEX
  8
0
 62
9
  6
CONTINUOUS
 10
426.59582544
 20
156.4439375272
  0
VERTEX
  8
0
 62
9
  6
CONTINUOUS
 10
426.5881947672
 20
156.4970822278
  0
VERTEX
  8
0
 62
9
  6
CONTINUOUS
 10
426.5856468818
 20
156.5504991287
  0
SEQEND
  0
POLYLINE
  8
0
 62
9
  6
CONTINUOUS
 66
1
 70
0
  0
VERTEX
  8
0
 62
9
  6
CONTINUOUS
 10
427.5856468818
 20
160.0829873272
  0
VERTEX
  8
0
 62
9
  6
CONTINUOUS
 10
427.5143076986
 20
160.0809002216
  0
VERTEX
  8
0
 62
9
  6
CONTINUOUS
 10
427.4433320436
 20
160.0746495405
  0
VERTEX
  8
0
 62
9
  6
CONTINUOUS
 10
427.3730815923
 20
160.0642671357
  0
VERTEX
  8
0
 62
9
  6
CONTINUOUS
 10
427.303914325
 20
160.0498059137
  0
VERTEX
  8
0
 62
9
  6
CONTINUOUS
 10
427.2361827022
 20
160.0313395655
  0
VERTEX
  8
0
 62
9
  6
CONTINUOUS
 10
427.1702318688
 20
160.0089621914
  0
VERTEX
  8
0
 62
9
  6
CONTINUOUS
 10
427.1063978951
 20
159.9827878214
  0
VERTEX
  8
0
 62
9
  6
CONTINUOUS
 10
427.0450060644
 20
159.9529498341
  0
VERTEX
  8
0
 62
9
  6
CONTINUOUS
 10
426.9863692153
 20
159.9196002769
  0
VERTEX
  8
0
 62
9
  6
CONTINUOUS
 10
426.9307861479
 20
159.8829090917
  0
VERTEX
  8
0
 62
9
  6
CONTINUOUS
 10
426.8785401007
 20
159.8430632482
  0
VERTEX
  8
0
 62
9
  6
CONTINUOUS
 10
426.8298973075
 20
159.8002657918
  0
VERTEX
  8
0
 62
9
  6
CONTINUOUS
 10
426.7851056409
 20
159.7547348085
  0
VERTEX
  8
0
 62
9
  6
CONTINUOUS
 10
426.744393349
 20
159.7067023137
  0
VERTEX
  8
0
 62
9
  6
CONTINUOUS
 10
426.7079678923
 20
159.6564130701
  0
VERTEX
  8
0
 62
9
  6
CONTINUOUS
 10
426.6760148865
 20
159.60412334
  0
VERTEX
  8
0
 62
9
  6
CONTINUOUS
 10
426.6486971568
 20
159.55009958
  0
VERTEX
  8
0
 62
9
  6
CONTINUOUS
 10
426.6261539082
 20
159.4946170827
  0
VERTEX
  8
0
 62
9
  6
CONTINUOUS
 10
426.6085000159
 20
159.4379585744
  0
VERTEX
  8
0
 62
9
  6
CONTINUOUS
 10
426.59582544
 20
159.3804127736
  0
VERTEX
  8
0
 62
9
  6
CONTINUOUS
 10
426.5881947672
 20
159.3222729206
  0
VERTEX
  8
0
 62
9
  6
CONTINUOUS
 10
426.5856468818
 20
159.2638352829
  0
SEQEND
  0
LINE
  8
0
 62
9
  6
CONTINUOUS
 10
442.5856468818
 20
160.0829873272
 11
427.5856468818
 21
160.0829873272
  0
POLYLINE
  8
0
 62
9
  6
CONTINUOUS
 66
1
 70
0
  0
VERTEX
  8
0
 62
9
  6
CONTINUOUS
 10
457.5856468818
 20
180.0209137315
  0
VERTEX
  8
0
 62
9
  6
CONTINUOUS
 10
457.656986065
 20
180.0221876742
  0
VERTEX
  8
0
 62
9
  6
CONTINUOUS
 10
457.7279617201
 20
180.0260030105
  0
VERTEX
  8
0
 62
9
  6
CONTINUOUS
 10
457.7982121714
 20
180.0323402985
  0
VERTEX
  8
0
 62
9
  6
CONTINUOUS
 10
457.8673794387
 20
180.0411672447
  0
VERTEX
  8
0
 62
9
  6
CONTINUOUS
 10
457.9351110614
 20
180.052438869
  0
VERTEX
  8
0
 62
9
  6
CONTINUOUS
 10
458.0010618948
 20
180.0660977338
  0
VERTEX
  8
0
 62
9
  6
CONTINUOUS
 10
458.0648958686
 20
180.0820742367
  0
VERTEX
  8
0
 62
9
  6
CONTINUOUS
 10
458.1262876993
 20
180.1002869651
  0
VERTEX
  8
0
 62
9
  6
CONTINUOUS
 10
458.1849245483
 20
180.120643111
  0
VERTEX
  8
0
 62
9
  6
CONTINUOUS
 10
458.2405076158
 20
180.1430389443
  0
VERTEX
  8
0
 62
9
  6
CONTINUOUS
 10
458.292753663
 20
180.1673603409
  0
VERTEX
  8
0
 62
9
  6
CONTINUOUS
 10
458.3413964562
 20
180.1934833645
  0
VERTEX
  8
0
 62
9
  6
CONTINUOUS
 10
458.3861881228
 20
180.2212748982
  0
VERTEX
  8
0
 62
9
  6
CONTINUOUS
 10
458.4269004147
 20
180.2505933227
  0
VERTEX
  8
0
 62
9
  6
CONTINUOUS
 10
458.4633258714
 20
180.2812892381
  0
VERTEX
  8
0
 62
9
  6
CONTINUOUS
 10
458.4952788772
 20
180.313206225
  0
VERTEX
  8
0
 62
9
  6
CONTINUOUS
 10
458.5225966068
 20
180.3461816417
  0
VERTEX
  8
0
 62
9
  6
CONTINUOUS
 10
458.5451398555
 20
180.380047453
  0
VERTEX
  8
0
 62
9
  6
CONTINUOUS
 10
458.5627937478
 20
180.4146310867
  0
VERTEX
  8
0
 62
9
  6
CONTINUOUS
 10
458.5754683237
 20
180.4497563123
  0
VERTEX
  8
0
 62
9
  6
CONTINUOUS
 10
458.5830989964
 20
180.4852441399
  0
VERTEX
  8
0
 62
9
  6
CONTINUOUS
 10
458.5856468818
 20
180.5209137315
  0
SEQEND
  0
LINE
  8
0
 62
9
  6
CONTINUOUS
 10
442.5856468818
 20
180.0209137315
 11
457.5856468818
 21
180.0209137315
  0
POLYLINE
  8
0
 62
9
  6
CONTINUOUS
 66
1
 70
0
  0
VERTEX
  8
0
 62
9
  6
CONTINUOUS
 10
442.5856468818
 20
173.9381949405
  0
VERTEX
  8
0
 62
9
  6
CONTINUOUS
 10
427.5143076986
 20
173.9384612671
  0
VERTEX
  8
0
 62
9
  6
CONTINUOUS
 10
427.4433320436
 20
173.9392588895
  0
VERTEX
  8
0
 62
9
  6
CONTINUOUS
 10
427.3730815923
 20
173.9405837435
  0
VERTEX
  8
0
 62
9
  6
CONTINUOUS
 10
427.303914325
 20
173.9424290777
  0
VERTEX
  8
0
 62
9
  6
CONTINUOUS
 10
427.2361827022
 20
173.9447854889
  0
VERTEX
  8
0
 62
9
  6
CONTINUOUS
 10
427.1702318688
 20
173.9476409692
  0
VERTEX
  8
0
 62
9
  6
CONTINUOUS
 10
427.1063978951
 20
173.9509809678
  0
VERTEX
  8
0
 62
9
  6
CONTINUOUS
 10
427.0450060644
 20
173.9547884648
  0
VERTEX
  8
0
 62
9
  6
CONTINUOUS
 10
426.9863692153
 20
173.9590440581
  0
VERTEX
  8
0
 62
9
  6
CONTINUOUS
 10
426.9307861479
 20
173.9637260622
  0
VERTEX
  8
0
 62
9
  6
CONTINUOUS
 10
426.8785401007
 20
173.9688106186
  0
VERTEX
  8
0
 62
9
  6
CONTINUOUS
 10
426.8298973075
 20
173.9742718176
  0
VERTEX
  8
0
 62
9
  6
CONTINUOUS
 10
426.7851056409
 20
173.9800818302
  0
VERTEX
  8
0
 62
9
  6
CONTINUOUS
 10
426.744393349
 20
173.9862110499
  0
VERTEX
  8
0
 62
9
  6
CONTINUOUS
 10
426.7079678923
 20
173.9926282437
  0
VERTEX
  8
0
 62
9
  6
CONTINUOUS
 10
426.6760148865
 20
173.9993007108
  0
VERTEX
  8
0
 62
9
  6
CONTINUOUS
 10
426.6486971568
 20
174.0061944501
  0
VERTEX
  8
0
 62
9
  6
CONTINUOUS
 10
426.6261539082
 20
174.0132743326
  0
VERTEX
  8
0
 62
9
  6
CONTINUOUS
 10
426.6085000159
 20
174.0205042807
  0
VERTEX
  8
0
 62
9
  6
CONTINUOUS
 10
426.59582544
 20
174.0278474524
  0
VERTEX
  8
0
 62
9
  6
CONTINUOUS
 10
426.5881947672
 20
174.0352664286
  0
VERTEX
  8
0
 62
9
  6
CONTINUOUS
 10
426.5856468818
 20
174.0427234038
  0
SEQEND
  0
LINE
  8
0
 62
7
  6
CONTINUOUS
 10
442.5856468818
 20
187.4834727534
 11
457.5856468818
 21
187.4834727534
  0
LINE
  8
0
 62
9
  6
CONTINUOUS
 10
442.5856468818
 20
189.9158155379
 11
457.5856468818
 21
189.9158155379
  0
POLYLINE
  8
0
 62
9
  6
CONTINUOUS
 66
1
 70
0
  0
VERTEX
  8
0
 62
9
  6
CONTINUOUS
 10
457.5856468818
 20
189.9158155379
  0
VERTEX
  8
0
 62
9
  6
CONTINUOUS
 10
457.656986065
 20
189.915264758
  0
VERTEX
  8
0
 62
9
  6
CONTINUOUS
 10
457.7279617201
 20
189.9136152248
  0
VERTEX
  8
0
 62
9
  6
CONTINUOUS
 10
457.7982121714
 20
189.9108753441
  0
VERTEX
  8
0
 62
9
  6
CONTINUOUS
 10
457.8673794387
 20
189.9070590776
  0
VERTEX
  8
0
 62
9
  6
CONTINUOUS
 10
457.9351110614
 20
189.9021858722
  0
VERTEX
  8
0
 62
9
  6
CONTINUOUS
 10
458.0010618948
 20
189.8962805605
  0
VERTEX
  8
0
 62
9
  6
CONTINUOUS
 10
458.0648958686
 20
189.8893732348
  0
VERTEX
  8
0
 62
9
  6
CONTINUOUS
 10
458.1262876993
 20
189.8814990931
  0
VERTEX
  8
0
 62
9
  6
CONTINUOUS
 10
458.1849245483
 20
189.8726982603
  0
VERTEX
  8
0
 62
9
  6
CONTINUOUS
 10
458.2405076158
 20
189.8630155834
  0
VERTEX
  8
0
 62
9
  6
CONTINUOUS
 10
458.292753663
 20
189.852500403
  0
VERTEX
  8
0
 62
9
  6
CONTINUOUS
 10
458.3413964562
 20
189.8412063023
  0
VERTEX
  8
0
 62
9
  6
CONTINUOUS
 10
458.3861881228
 20
189.8291908332
  0
VERTEX
  8
0
 62
9
  6
CONTINUOUS
 10
458.4269004147
 20
189.8165152239
  0
VERTEX
  8
0
 62
9
  6
CONTINUOUS
 10
458.4633258714
 20
189.8032440664
  0
VERTEX
  8
0
 62
9
  6
CONTINUOUS
 10
458.4952788772
 20
189.7894449874
  0
VERTEX
  8
0
 62
9
  6
CONTINUOUS
 10
458.5225966068
 20
189.7751883039
  0
VERTEX
  8
0
 62
9
  6
CONTINUOUS
 10
458.5451398555
 20
189.7605466647
  0
VERTEX
  8
0
 62
9
  6
CONTINUOUS
 10
458.5627937478
 20
189.7455946802
  0
VERTEX
  8
0
 62
9
  6
CONTINUOUS
 10
458.5754683237
 20
189.7304085424
  0
VERTEX
  8
0
 62
9
  6
CONTINUOUS
 10
458.5830989964
 20
189.7150656362
  0
VERTEX
  8
0
 62
9
  6
CONTINUOUS
 10
458.5856468818
 20
189.6996441456
  0
SEQEND
  0
LINE
  8
0
 62
9
  6
CONTINUOUS
 10
426.5881947672
 20
371.0271458713
 11
426.5856468818
 21
370.9594870201
  0
LINE
  8
0
 62
7
  6
CONTINUOUS
 10
426.0856468818
 20
145.2823904195
 11
426.0856468818
 21
294.2184652826
  0
LINE
  8
0
 62
7
  6
CONTINUOUS
 10
426.5856468818
 20
371.0110759642
 11
426.5856468818
 21
68.7293743221
  0
LINE
  8
0
 62
9
  6
CONTINUOUS
 10
427.5856468818
 20
372.011076229
 11
427.5856468818
 21
67.7293742295
  0
POLYLINE
  8
0
 62
9
  6
CONTINUOUS
 66
1
 70
0
  0
VERTEX
  8
0
 62
9
  6
CONTINUOUS
 10
457.656986065
 20
204.4254672369
  0
VERTEX
  8
0
 62
9
  6
CONTINUOUS
 10
457.7279617201
 20
204.4262648594
  0
VERTEX
  8
0
 62
9
  6
CONTINUOUS
 10
457.7982121714
 20
204.4275897134
  0
VERTEX
  8
0
 62
9
  6
CONTINUOUS
 10
457.8673794387
 20
204.4294350476
  0
VERTEX
  8
0
 62
9
  6
CONTINUOUS
 10
457.9351110614
 20
204.4317914588
  0
VERTEX
  8
0
 62
9
  6
CONTINUOUS
 10
458.0010618948
 20
204.4346469391
  0
VERTEX
  8
0
 62
9
  6
CONTINUOUS
 10
458.0648958686
 20
204.4379869376
  0
VERTEX
  8
0
 62
9
  6
CONTINUOUS
 10
458.1262876993
 20
204.4417944347
  0
VERTEX
  8
0
 62
9
  6
CONTINUOUS
 10
458.1849245483
 20
204.446050028
  0
VERTEX
  8
0
 62
9
  6
CONTINUOUS
 10
458.2405076158
 20
204.450732032
  0
VERTEX
  8
0
 62
9
  6
CONTINUOUS
 10
458.292753663
 20
204.4558165885
  0
VERTEX
  8
0
 62
9
  6
CONTINUOUS
 10
458.3413964562
 20
204.4612777875
  0
VERTEX
  8
0
 62
9
  6
CONTINUOUS
 10
458.3861881228
 20
204.4670878001
  0
VERTEX
  8
0
 62
9
  6
CONTINUOUS
 10
458.4269004147
 20
204.4732170198
  0
VERTEX
  8
0
 62
9
  6
CONTINUOUS
 10
458.4633258714
 20
204.4796342136
  0
VERTEX
  8
0
 62
9
  6
CONTINUOUS
 10
458.4952788772
 20
204.4863066807
  0
VERTEX
  8
0
 62
9
  6
CONTINUOUS
 10
458.5225966068
 20
204.49320042
  0
VERTEX
  8
0
 62
9
  6
CONTINUOUS
 10
458.5451398555
 20
204.5002803024
  0
VERTEX
  8
0
 62
9
  6
CONTINUOUS
 10
458.5627937478
 20
204.5075102506
  0
VERTEX
  8
0
 62
9
  6
CONTINUOUS
 10
458.5754683237
 20
204.5148534223
  0
VERTEX
  8
0
 62
9
  6
CONTINUOUS
 10
458.5830989964
 20
204.5222723985
  0
VERTEX
  8
0
 62
9
  6
CONTINUOUS
 10
458.5856468818
 20
204.5297293737
  0
SEQEND
  0
LINE
  8
0
 62
9
  6
CONTINUOUS
 10
442.5856468818
 20
202.1748359615
 11
457.5856468818
 21
202.1748359615
  0
LINE
  8
0
 62
9
  6
CONTINUOUS
 10
442.5856468818
 20
202.2271001931
 11
457.5856468818
 21
202.2271001931
  0
LINE
  8
0
 62
9
  6
CONTINUOUS
 10
442.5856468818
 20
204.4252009104
 11
457.656986065
 21
204.4254672369
  0
LINE
  8
0
 62
7
  6
CONTINUOUS
 10
442.5856468818
 20
208.5529481334
 11
427.5856468818
 21
208.5529481334
  0
POLYLINE
  8
0
 62
9
  6
CONTINUOUS
 66
1
 70
0
  0
VERTEX
  8
0
 62
9
  6
CONTINUOUS
 10
442.5856468818
 20
206.9115056488
  0
VERTEX
  8
0
 62
9
  6
CONTINUOUS
 10
427.5143076986
 20
206.9117719754
  0
VERTEX
  8
0
 62
9
  6
CONTINUOUS
 10
427.4433320436
 20
206.9125695979
  0
VERTEX
  8
0
 62
9
  6
CONTINUOUS
 10
427.3730815923
 20
206.9138944518
  0
VERTEX
  8
0
 62
9
  6
CONTINUOUS
 10
427.303914325
 20
206.915739786
  0
VERTEX
  8
0
 62
9
  6
CONTINUOUS
 10
427.2361827022
 20
206.9180961972
  0
VERTEX
  8
0
 62
9
  6
CONTINUOUS
 10
427.1702318688
 20
206.9209516775
  0
VERTEX
  8
0
 62
9
  6
CONTINUOUS
 10
427.1063978951
 20
206.9242916761
  0
VERTEX
  8
0
 62
9
  6
CONTINUOUS
 10
427.0450060644
 20
206.9280991731
  0
VERTEX
  8
0
 62
9
  6
CONTINUOUS
 10
426.9863692153
 20
206.9323547664
  0
VERTEX
  8
0
 62
9
  6
CONTINUOUS
 10
426.9307861479
 20
206.9370367705
  0
VERTEX
  8
0
 62
9
  6
CONTINUOUS
 10
426.8785401007
 20
206.9421213269
  0
VERTEX
  8
0
 62
9
  6
CONTINUOUS
 10
426.8298973075
 20
206.9475825259
  0
VERTEX
  8
0
 62
9
  6
CONTINUOUS
 10
426.7851056409
 20
206.9533925385
  0
VERTEX
  8
0
 62
9
  6
CONTINUOUS
 10
426.744393349
 20
206.9595217583
  0
VERTEX
  8
0
 62
9
  6
CONTINUOUS
 10
426.7079678923
 20
206.965938952
  0
VERTEX
  8
0
 62
9
  6
CONTINUOUS
 10
426.6760148865
 20
206.9726114192
  0
VERTEX
  8
0
 62
9
  6
CONTINUOUS
 10
426.6486971568
 20
206.9795051584
  0
VERTEX
  8
0
 62
9
  6
CONTINUOUS
 10
426.6261539082
 20
206.9865850409
  0
VERTEX
  8
0
 62
9
  6
CONTINUOUS
 10
426.6085000159
 20
206.993814989
  0
VERTEX
  8
0
 62
9
  6
CONTINUOUS
 10
426.59582544
 20
207.0011581607
  0
VERTEX
  8
0
 62
9
  6
CONTINUOUS
 10
426.5881947672
 20
207.0085771369
  0
VERTEX
  8
0
 62
9
  6
CONTINUOUS
 10
426.5856468818
 20
207.0160341121
  0
SEQEND
  0
POLYLINE
  8
0
 62
9
  6
CONTINUOUS
 66
1
 70
0
  0
VERTEX
  8
0
 62
9
  6
CONTINUOUS
 10
457.5856468818
 20
202.1748359615
  0
VERTEX
  8
0
 62
9
  6
CONTINUOUS
 10
457.656986065
 20
202.1723020337
  0
VERTEX
  8
0
 62
9
  6
CONTINUOUS
 10
457.7279617201
 20
202.1647131626
  0
VERTEX
  8
0
 62
9
  6
CONTINUOUS
 10
457.7982121714
 20
202.1521080193
  0
VERTEX
  8
0
 62
9
  6
CONTINUOUS
 10
457.8673794387
 20
202.1345508368
  0
VERTEX
  8
0
 62
9
  6
CONTINUOUS
 10
457.9351110614
 20
202.1121310825
  0
VERTEX
  8
0
 62
9
  6
CONTINUOUS
 10
458.0010618948
 20
202.0849630022
  0
VERTEX
  8
0
 62
9
  6
CONTINUOUS
 10
458.0648958686
 20
202.0531850384
  0
VERTEX
  8
0
 62
9
  6
CONTINUOUS
 10
458.1262876993
 20
202.0169591241
  0
VERTEX
  8
0
 62
9
  6
CONTINUOUS
 10
458.1849245483
 20
201.9764698584
  0
VERTEX
  8
0
 62
9
  6
CONTINUOUS
 10
458.2405076158
 20
201.9319235652
  0
VERTEX
  8
0
 62
9
  6
CONTINUOUS
 10
458.292753663
 20
201.8835472424
  0
VERTEX
  8
0
 62
9
  6
CONTINUOUS
 10
458.3413964562
 20
201.8315874044
  0
VERTEX
  8
0
 62
9
  6
CONTINUOUS
 10
458.3861881228
 20
201.7763088269
  0
VERTEX
  8
0
 62
9
  6
CONTINUOUS
 10
458.4269004147
 20
201.7179931966
  0
VERTEX
  8
0
 62
9
  6
CONTINUOUS
 10
458.4633258714
 20
201.6569376768
  0
VERTEX
  8
0
 62
9
  6
CONTINUOUS
 10
458.4952788772
 20
201.5934533922
  0
VERTEX
  8
0
 62
9
  6
CONTINUOUS
 10
458.5225966068
 20
201.5278638444
  0
VERTEX
  8
0
 62
9
  6
CONTINUOUS
 10
458.5451398555
 20
201.4605032625
  0
VERTEX
  8
0
 62
9
  6
CONTINUOUS
 10
458.5627937478
 20
201.3917149008
  0
VERTEX
  8
0
 62
9
  6
CONTINUOUS
 10
458.5754683237
 20
201.3218492888
  0
VERTEX
  8
0
 62
9
  6
CONTINUOUS
 10
458.5830989964
 20
201.2512624458
  0
SEQEND
  0
POLYLINE
  8
0
 62
9
  6
CONTINUOUS
 66
1
 70
0
  0
VERTEX
  8
0
 62
9
  6
CONTINUOUS
 10
457.5856468818
 20
202.2271001931
  0
VERTEX
  8
0
 62
9
  6
CONTINUOUS
 10
457.656986065
 20
202.2245662653
  0
VERTEX
  8
0
 62
9
  6
CONTINUOUS
 10
457.72796172
 20
202.2169773942
  0
VERTEX
  8
0
 62
9
  6
CONTINUOUS
 10
457.7982121713
 20
202.204372251
  0
VERTEX
  8
0
 62
9
  6
CONTINUOUS
 10
457.8673794385
 20
202.1868150685
  0
VERTEX
  8
0
 62
9
  6
CONTINUOUS
 10
457.9351110612
 20
202.1643953142
  0
VERTEX
  8
0
 62
9
  6
CONTINUOUS
 10
458.0010618946
 20
202.137227234
  0
VERTEX
  8
0
 62
9
  6
CONTINUOUS
 10
458.0648958684
 20
202.1054492701
  0
VERTEX
  8
0
 62
9
  6
CONTINUOUS
 10
458.1262876991
 20
202.0692233558
  0
VERTEX
  8
0
 62
9
  6
CONTINUOUS
 10
458.1849245482
 20
202.0287340901
  0
VERTEX
  8
0
 62
9
  6
CONTINUOUS
 10
458.2405076157
 20
201.9841877969
  0
VERTEX
  8
0
 62
9
  6
CONTINUOUS
 10
458.292753663
 20
201.935811474
  0
VERTEX
  8
0
 62
9
  6
CONTINUOUS
 10
458.3413964562
 20
201.883851636
  0
VERTEX
  8
0
 62
9
  6
CONTINUOUS
 10
458.3861881229
 20
201.8285730584
  0
VERTEX
  8
0
 62
9
  6
CONTINUOUS
 10
458.4269004148
 20
201.7702574281
  0
VERTEX
  8
0
 62
9
  6
CONTINUOUS
 10
458.4633258715
 20
201.7092019082
  0
VERTEX
  8
0
 62
9
  6
CONTINUOUS
 10
458.4952788773
 20
201.6457176237
  0
VERTEX
  8
0
 62
9
  6
CONTINUOUS
 10
458.5225966069
 20
201.5801280758
  0
VERTEX
  8
0
 62
9
  6
CONTINUOUS
 10
458.5451398555
 20
201.512767494
  0
VERTEX
  8
0
 62
9
  6
CONTINUOUS
 10
458.5627937478
 20
201.4439791323
  0
VERTEX
  8
0
 62
9
  6
CONTINUOUS
 10
458.5754683237
 20
201.3741135204
  0
VERTEX
  8
0
 62
9
  6
CONTINUOUS
 10
458.5830989965
 20
201.3035266774
  0
VERTEX
  8
0
 62
9
  6
CONTINUOUS
 10
458.5856468818
 20
201.2325782978
  0
SEQEND
  0
LINE
  8
0
 62
7
  6
CONTINUOUS
 10
442.5856468818
 20
67.7293742588
 11
442.5856468818
 21
151.3078960963
  0
LINE
  8
0
 62
7
  6
CONTINUOUS
 10
442.5856468818
 20
151.8449107344
 11
442.5856468818
 21
204.4252009104
  0
LINE
  8
0
 62
7
  6
CONTINUOUS
 10
442.5856468818
 20
206.9115056488
 11
442.5856468818
 21
260.1923766879
  0
LINE
  8
0
 62
7
  6
CONTINUOUS
 10
442.5856468818
 20
262.5700179786
 11
442.5856468818
 21
372.0110760833
  0
POLYLINE
  8
0
 62
9
  6
CONTINUOUS
 66
1
 70
0
  0
VERTEX
  8
0
 62
9
  6
CONTINUOUS
 10
427.5856468818
 20
220.5676079865
  0
VERTEX
  8
0
 62
9
  6
CONTINUOUS
 10
427.5143076987
 20
220.5651069129
  0
VERTEX
  8
0
 62
9
  6
CONTINUOUS
 10
427.4433320437
 20
220.5576164372
  0
VERTEX
  8
0
 62
9
  6
CONTINUOUS
 10
427.3730815924
 20
220.5451747289
  0
VERTEX
  8
0
 62
9
  6
CONTINUOUS
 10
427.3039143252
 20
220.5278451883
  0
VERTEX
  8
0
 62
9
  6
CONTINUOUS
 10
427.2361827024
 20
220.5057161227
  0
VERTEX
  8
0
 62
9
  6
CONTINUOUS
 10
427.170231869
 20
220.4789002967
  0
VERTEX
  8
0
 62
9
  6
CONTINUOUS
 10
427.1063978953
 20
220.4475343576
  0
VERTEX
  8
0
 62
9
  6
CONTINUOUS
 10
427.0450060646
 20
220.4117781391
  0
VERTEX
  8
0
 62
9
  6
CONTINUOUS
 10
426.9863692155
 20
220.3718138467
  0
VERTEX
  8
0
 62
9
  6
CONTINUOUS
 10
426.930786148
 20
220.3278451292
  0
VERTEX
  8
0
 62
9
  6
CONTINUOUS
 10
426.8785401006
 20
220.2800960411
  0
VERTEX
  8
0
 62
9
  6
CONTINUOUS
 10
426.8298973074
 20
220.2288099008
  0
VERTEX
  8
0
 62
9
  6
CONTINUOUS
 10
426.7851056408
 20
220.1742480508
  0
VERTEX
  8
0
 62
9
  6
CONTINUOUS
 10
426.7443933489
 20
220.1166885258
  0
VERTEX
  8
0
 62
9
  6
CONTINUOUS
 10
426.7079678922
 20
220.0564246358
  0
VERTEX
  8
0
 62
9
  6
CONTINUOUS
 10
426.6760148864
 20
219.993763472
  0
VERTEX
  8
0
 62
9
  6
CONTINUOUS
 10
426.6486971568
 20
219.9290243412
  0
VERTEX
  8
0
 62
9
  6
CONTINUOUS
 10
426.6261539082
 20
219.8625371391
  0
VERTEX
  8
0
 62
9
  6
CONTINUOUS
 10
426.6085000158
 20
219.7946406694
  0
VERTEX
  8
0
 62
9
  6
CONTINUOUS
 10
426.5958254399
 20
219.7256809168
  0
VERTEX
  8
0
 62
9
  6
CONTINUOUS
 10
426.5881947672
 20
219.6560092845
  0
VERTEX
  8
0
 62
9
  6
CONTINUOUS
 10
426.5856468818
 20
219.585980803
  0
SEQEND
  0
LINE
  8
0
 62
9
  6
CONTINUOUS
 10
459.0856468818
 20
214.0935736015
 11
458.5856468818
 21
214.0935736015
  0
LINE
  8
0
 62
9
  6
CONTINUOUS
 10
426.5856468818
 20
214.0935736015
 11
426.0856468818
 21
214.0935736015
  0
LINE
  8
0
 62
9
  6
CONTINUOUS
 10
442.5856468818
 20
217.7754671449
 11
427.5856468818
 21
217.7754671449
  0
LINE
  8
DEFAULT_1
 62
2
  6
CENTER
 10
420.5856468818
 20
219.750427851
 11
464.5856468818
 21
219.750427851
  0
LINE
  8
0
 62
9
  6
CONTINUOUS
 10
442.5856468818
 20
220.5676079865
 11
427.5856468818
 21
220.5676079865
  0
LINE
  8
0
 62
9
  6
CONTINUOUS
 10
442.5856468818
 20
220.9486463356
 11
427.5856468818
 21
220.9486463356
  0
POLYLINE
  8
0
 62
9
  6
CONTINUOUS
 66
1
 70
0
  0
VERTEX
  8
0
 62
9
  6
CONTINUOUS
 10
427.5856468818
 20
217.7754671449
  0
VERTEX
  8
0
 62
9
  6
CONTINUOUS
 10
427.5143076986
 20
217.7765230987
  0
VERTEX
  8
0
 62
9
  6
CONTINUOUS
 10
427.4433320436
 20
217.7796855794
  0
VERTEX
  8
0
 62
9
  6
CONTINUOUS
 10
427.3730815923
 20
217.7849384717
  0
VERTEX
  8
0
 62
9
  6
CONTINUOUS
 10
427.303914325
 20
217.792255008
  0
VERTEX
  8
0
 62
9
  6
CONTINUOUS
 10
427.2361827022
 20
217.8015979049
  0
VERTEX
  8
0
 62
9
  6
CONTINUOUS
 10
427.1702318688
 20
217.8129195533
  0
VERTEX
  8
0
 62
9
  6
CONTINUOUS
 10
427.1063978951
 20
217.8261622604
  0
VERTEX
  8
0
 62
9
  6
CONTINUOUS
 10
427.0450060644
 20
217.8412585446
  0
VERTEX
  8
0
 62
9
  6
CONTINUOUS
 10
426.9863692153
 20
217.8581314787
  0
VERTEX
  8
0
 62
9
  6
CONTINUOUS
 10
426.9307861479
 20
217.876695082
  0
VERTEX
  8
0
 62
9
  6
CONTINUOUS
 10
426.8785401007
 20
217.8968547587
  0
VERTEX
  8
0
 62
9
  6
CONTINUOUS
 10
426.8298973075
 20
217.9185077796
  0
VERTEX
  8
0
 62
9
  6
CONTINUOUS
 10
426.7851056409
 20
217.941543806
  0
VERTEX
  8
0
 62
9
  6
CONTINUOUS
 10
426.744393349
 20
217.9658454516
  0
VERTEX
  8
0
 62
9
  6
CONTINUOUS
 10
426.7079678923
 20
217.9912888807
  0
VERTEX
  8
0
 62
9
  6
CONTINUOUS
 10
426.6760148865
 20
218.0177444394
  0
VERTEX
  8
0
 62
9
  6
CONTINUOUS
 10
426.6486971568
 20
218.0450773163
  0
VERTEX
  8
0
 62
9
  6
CONTINUOUS
 10
426.6261539082
 20
218.0731482293
  0
VERTEX
  8
0
 62
9
  6
CONTINUOUS
 10
426.6085000159
 20
218.1018141355
  0
VERTEX
  8
0
 62
9
  6
CONTINUOUS
 10
426.59582544
 20
218.1309289599
  0
VERTEX
  8
0
 62
9
  6
CONTINUOUS
 10
426.5881947672
 20
218.1603443402
  0
VERTEX
  8
0
 62
9
  6
CONTINUOUS
 10
426.5856468818
 20
218.1899103822
  0
SEQEND
  0
POLYLINE
  8
0
 62
9
  6
CONTINUOUS
 66
1
 70
0
  0
VERTEX
  8
0
 62
9
  6
CONTINUOUS
 10
427.5856468818
 20
220.9486463356
  0
VERTEX
  8
0
 62
9
  6
CONTINUOUS
 10
427.5143076986
 20
220.9461452621
  0
VERTEX
  8
0
 62
9
  6
CONTINUOUS
 10
427.4433320436
 20
220.9386547863
  0
VERTEX
  8
0
 62
9
  6
CONTINUOUS
 10
427.3730815923
 20
220.926213078
  0
VERTEX
  8
0
 62
9
  6
CONTINUOUS
 10
427.303914325
 20
220.9088835374
  0
VERTEX
  8
0
 62
9
  6
CONTINUOUS
 10
427.2361827022
 20
220.8867544718
  0
VERTEX
  8
0
 62
9
  6
CONTINUOUS
 10
427.1702318688
 20
220.8599386458
  0
VERTEX
  8
0
 62
9
  6
CONTINUOUS
 10
427.1063978951
 20
220.8285727067
  0
VERTEX
  8
0
 62
9
  6
CONTINUOUS
 10
427.0450060644
 20
220.7928164882
  0
VERTEX
  8
0
 62
9
  6
CONTINUOUS
 10
426.9863692153
 20
220.7528521958
  0
VERTEX
  8
0
 62
9
  6
CONTINUOUS
 10
426.9307861479
 20
220.7088834783
  0
VERTEX
  8
0
 62
9
  6
CONTINUOUS
 10
426.8785401007
 20
220.6611343902
  0
VERTEX
  8
0
 62
9
  6
CONTINUOUS
 10
426.8298973075
 20
220.60984825
  0
VERTEX
  8
0
 62
9
  6
CONTINUOUS
 10
426.7851056409
 20
220.5552864001
  0
VERTEX
  8
0
 62
9
  6
CONTINUOUS
 10
426.744393349
 20
220.4977268751
  0
VERTEX
  8
0
 62
9
  6
CONTINUOUS
 10
426.7079678923
 20
220.4374629852
  0
VERTEX
  8
0
 62
9
  6
CONTINUOUS
 10
426.6760148865
 20
220.3748018214
  0
VERTEX
  8
0
 62
9
  6
CONTINUOUS
 10
426.6486971568
 20
220.3100626905
  0
VERTEX
  8
0
 62
9
  6
CONTINUOUS
 10
426.6261539082
 20
220.2435754884
  0
VERTEX
  8
0
 62
9
  6
CONTINUOUS
 10
426.6085000159
 20
220.1756790187
  0
VERTEX
  8
0
 62
9
  6
CONTINUOUS
 10
426.59582544
 20
220.106719266
  0
VERTEX
  8
0
 62
9
  6
CONTINUOUS
 10
426.5881947672
 20
220.0370476337
  0
VERTEX
  8
0
 62
9
  6
CONTINUOUS
 10
426.5856468818
 20
219.9670191522
  0
SEQEND
  0
POLYLINE
  8
0
 62
9
  6
CONTINUOUS
 66
1
 70
0
  0
VERTEX
  8
0
 62
9
  6
CONTINUOUS
 10
427.5856468818
 20
231.0377991717
  0
VERTEX
  8
0
 62
9
  6
CONTINUOUS
 10
427.5143076986
 20
231.0370118318
  0
VERTEX
  8
0
 62
9
  6
CONTINUOUS
 10
427.4433320436
 20
231.0346538243
  0
VERTEX
  8
0
 62
9
  6
CONTINUOUS
 10
427.3730815923
 20
231.0307371649
  0
VERTEX
  8
0
 62
9
  6
CONTINUOUS
 10
427.303914325
 20
231.0252818122
  0
VERTEX
  8
0
 62
9
  6
CONTINUOUS
 10
427.2361827022
 20
231.0183155653
  0
VERTEX
  8
0
 62
9
  6
CONTINUOUS
 10
427.1702318688
 20
231.0098739225
  0
VERTEX
  8
0
 62
9
  6
CONTINUOUS
 10
427.1063978951
 20
230.9999999007
  0
VERTEX
  8
0
 62
9
  6
CONTINUOUS
 10
427.0450060644
 20
230.9887438156
  0
VERTEX
  8
0
 62
9
  6
CONTINUOUS
 10
426.9863692153
 20
230.9761630255
  0
VERTEX
  8
0
 62
9
  6
CONTINUOUS
 10
426.9307861479
 20
230.9623216393
  0
VERTEX
  8
0
 62
9
  6
CONTINUOUS
 10
426.8785401007
 20
230.9472901896
  0
VERTEX
  8
0
 62
9
  6
CONTINUOUS
 10
426.8298973075
 20
230.9311452731
  0
VERTEX
  8
0
 62
9
  6
CONTINUOUS
 10
426.7851056409
 20
230.9139691607
  0
VERTEX
  8
0
 62
9
  6
CONTINUOUS
 10
426.744393349
 20
230.8958493778
  0
VERTEX
  8
0
 62
9
  6
CONTINUOUS
 10
426.7079678923
 20
230.8768782588
  0
VERTEX
  8
0
 62
9
  6
CONTINUOUS
 10
426.6760148865
 20
230.8571524761
  0
VERTEX
  8
0
 62
9
  6
CONTINUOUS
 10
426.6486971568
 20
230.8367725478
  0
VERTEX
  8
0
 62
9
  6
CONTINUOUS
 10
426.6261539082
 20
230.8158423253
  0
VERTEX
  8
0
 62
9
  6
CONTINUOUS
 10
426.6085000159
 20
230.7944684642
  0
VERTEX
  8
0
 62
9
  6
CONTINUOUS
 10
426.59582544
 20
230.7727598809
  0
VERTEX
  8
0
 62
9
  6
CONTINUOUS
 10
426.5881947672
 20
230.7508271973
  0
VERTEX
  8
0
 62
9
  6
CONTINUOUS
 10
426.5856468818
 20
230.7287821774
  0
SEQEND
  0
LINE
  8
0
 62
9
  6
CONTINUOUS
 10
459.0856468818
 20
225.4072821005
 11
458.5856468818
 21
225.4072821005
  0
LINE
  8
0
 62
9
  6
CONTINUOUS
 10
426.5856468818
 20
225.4072821005
 11
426.0856468818
 21
225.4072821005
  0
LINE
  8
0
 62
9
  6
CONTINUOUS
 10
442.5856468818
 20
231.0377991717
 11
427.5856468818
 21
231.0377991717
  0
LINE
  8
0
 62
9
  6
CONTINUOUS
 10
458.5830989964
 20
201.2512624458
 11
458.5856468818
 21
201.1803140661
  0
LINE
  8
0
 62
9
  6
CONTINUOUS
 10
458.5830989964
 20
352.1318531864
 11
458.5856468818
 21
352.0608443158
  0
LINE
  8
0
 62
9
  6
CONTINUOUS
 10
457.5856468818
 20
67.7293742295
 11
457.5856468818
 21
87.5794839965
  0
LINE
  8
0
 62
9
  6
CONTINUOUS
 10
457.5856468818
 20
87.5814554472
 11
457.5856468818
 21
372.011076229
  0
LINE
  8
0
 62
7
  6
CONTINUOUS
 10
458.5856468818
 20
68.7293743221
 11
458.5856468818
 21
371.0110759642
  0
LINE
  8
0
 62
7
  6
CONTINUOUS
 10
459.0856468818
 20
294.2184652826
 11
459.0856468818
 21
145.2823904195
  0
POLYLINE
  8
0
 62
9
  6
CONTINUOUS
 66
1
 70
0
  0
VERTEX
  8
0
 62
9
  6
CONTINUOUS
 10
457.656986065
 20
237.3987779453
  0
VERTEX
  8
0
 62
9
  6
CONTINUOUS
 10
457.7279617201
 20
237.3995755677
  0
VERTEX
  8
0
 62
9
  6
CONTINUOUS
 10
457.7982121714
 20
237.4009004217
  0
VERTEX
  8
0
 62
9
  6
CONTINUOUS
 10
457.8673794387
 20
237.4027457559
  0
VERTEX
  8
0
 62
9
  6
CONTINUOUS
 10
457.9351110614
 20
237.4051021671
  0
VERTEX
  8
0
 62
9
  6
CONTINUOUS
 10
458.0010618948
 20
237.4079576474
  0
VERTEX
  8
0
 62
9
  6
CONTINUOUS
 10
458.0648958686
 20
237.411297646
  0
VERTEX
  8
0
 62
9
  6
CONTINUOUS
 10
458.1262876993
 20
237.415105143
  0
VERTEX
  8
0
 62
9
  6
CONTINUOUS
 10
458.1849245483
 20
237.4193607363
  0
VERTEX
  8
0
 62
9
  6
CONTINUOUS
 10
458.2405076158
 20
237.4240427404
  0
VERTEX
  8
0
 62
9
  6
CONTINUOUS
 10
458.292753663
 20
237.4291272968
  0
VERTEX
  8
0
 62
9
  6
CONTINUOUS
 10
458.3413964562
 20
237.4345884958
  0
VERTEX
  8
0
 62
9
  6
CONTINUOUS
 10
458.3861881228
 20
237.4403985084
  0
VERTEX
  8
0
 62
9
  6
CONTINUOUS
 10
458.4269004147
 20
237.4465277281
  0
VERTEX
  8
0
 62
9
  6
CONTINUOUS
 10
458.4633258714
 20
237.4529449219
  0
VERTEX
  8
0
 62
9
  6
CONTINUOUS
 10
458.4952788772
 20
237.459617389
  0
VERTEX
  8
0
 62
9
  6
CONTINUOUS
 10
458.5225966068
 20
237.4665111283
  0
VERTEX
  8
0
 62
9
  6
CONTINUOUS
 10
458.5451398555
 20
237.4735910108
  0
VERTEX
  8
0
 62
9
  6
CONTINUOUS
 10
458.5627937478
 20
237.4808209589
  0
VERTEX
  8
0
 62
9
  6
CONTINUOUS
 10
458.5754683237
 20
237.4881641306
  0
VERTEX
  8
0
 62
9
  6
CONTINUOUS
 10
458.5830989964
 20
237.4955831068
  0
VERTEX
  8
0
 62
9
  6
CONTINUOUS
 10
458.5856468818
 20
237.503040082
  0
SEQEND
  0
LINE
  8
0
 62
9
  6
CONTINUOUS
 10
442.5856468818
 20
237.3985116187
 11
457.656986065
 21
237.3987779453
  0
POLYLINE
  8
0
 62
9
  6
CONTINUOUS
 66
1
 70
0
  0
VERTEX
  8
0
 62
9
  6
CONTINUOUS
 10
457.5856468818
 20
249.6381574715
  0
VERTEX
  8
0
 62
9
  6
CONTINUOUS
 10
457.656986065
 20
249.6405028123
  0
VERTEX
  8
0
 62
9
  6
CONTINUOUS
 10
457.7279617201
 20
249.6475268836
  0
VERTEX
  8
0
 62
9
  6
CONTINUOUS
 10
457.7982121714
 20
249.6591938923
  0
VERTEX
  8
0
 62
9
  6
CONTINUOUS
 10
457.8673794387
 20
249.6754443859
  0
VERTEX
  8
0
 62
9
  6
CONTINUOUS
 10
457.9351110614
 20
249.6961955556
  0
VERTEX
  8
0
 62
9
  6
CONTINUOUS
 10
458.0010618948
 20
249.7213416584
  0
VERTEX
  8
0
 62
9
  6
CONTINUOUS
 10
458.0648958686
 20
249.7507545553
  0
VERTEX
  8
0
 62
9
  6
CONTINUOUS
 10
458.1262876993
 20
249.784284365
  0
VERTEX
  8
0
 62
9
  6
CONTINUOUS
 10
458.1849245483
 20
249.8217602273
  0
VERTEX
  8
0
 62
9
  6
CONTINUOUS
 10
458.2405076158
 20
249.8629911737
  0
VERTEX
  8
0
 62
9
  6
CONTINUOUS
 10
458.292753663
 20
249.9077671009
  0
VERTEX
  8
0
 62
9
  6
CONTINUOUS
 10
458.3413964562
 20
249.955859841
  0
VERTEX
  8
0
 62
9
  6
CONTINUOUS
 10
458.3861881228
 20
250.0070243243
  0
VERTEX
  8
0
 62
9
  6
CONTINUOUS
 10
458.4269004147
 20
250.0609998285
  0
VERTEX
  8
0
 62
9
  6
CONTINUOUS
 10
458.4633258714
 20
250.1175113066
  0
VERTEX
  8
0
 62
9
  6
CONTINUOUS
 10
458.4952788772
 20
250.1762707893
  0
VERTEX
  8
0
 62
9
  6
CONTINUOUS
 10
458.5225966068
 20
250.2369788515
  0
VERTEX
  8
0
 62
9
  6
CONTINUOUS
 10
458.5451398555
 20
250.299326139
  0
VERTEX
  8
0
 62
9
  6
CONTINUOUS
 10
458.5627937478
 20
250.3629949442
  0
VERTEX
  8
0
 62
9
  6
CONTINUOUS
 10
458.5754683237
 20
250.4276608256
  0
VERTEX
  8
0
 62
9
  6
CONTINUOUS
 10
458.5830989964
 20
250.4929942606
  0
VERTEX
  8
0
 62
9
  6
CONTINUOUS
 10
458.5856468818
 20
250.5586623249
  0
SEQEND
  0
POLYLINE
  8
0
 62
9
  6
CONTINUOUS
 66
1
 70
0
  0
VERTEX
  8
0
 62
9
  6
CONTINUOUS
 10
457.5856468818
 20
250.4184327613
  0
VERTEX
  8
0
 62
9
  6
CONTINUOUS
 10
457.656986065
 20
250.4207781021
  0
VERTEX
  8
0
 62
9
  6
CONTINUOUS
 10
457.72796172
 20
250.4278021734
  0
VERTEX
  8
0
 62
9
  6
CONTINUOUS
 10
457.7982121713
 20
250.439469182
  0
VERTEX
  8
0
 62
9
  6
CONTINUOUS
 10
457.8673794385
 20
250.4557196756
  0
VERTEX
  8
0
 62
9
  6
CONTINUOUS
 10
457.9351110612
 20
250.4764708453
  0
VERTEX
  8
0
 62
9
  6
CONTINUOUS
 10
458.0010618946
 20
250.5016169481
  0
VERTEX
  8
0
 62
9
  6
CONTINUOUS
 10
458.0648958684
 20
250.5310298449
  0
VERTEX
  8
0
 62
9
  6
CONTINUOUS
 10
458.1262876991
 20
250.5645596547
  0
VERTEX
  8
0
 62
9
  6
CONTINUOUS
 10
458.1849245482
 20
250.602035517
  0
VERTEX
  8
0
 62
9
  6
CONTINUOUS
 10
458.2405076157
 20
250.6432664635
  0
VERTEX
  8
0
 62
9
  6
CONTINUOUS
 10
458.292753663
 20
250.6880423907
  0
VERTEX
  8
0
 62
9
  6
CONTINUOUS
 10
458.3413964563
 20
250.7361351309
  0
VERTEX
  8
0
 62
9
  6
CONTINUOUS
 10
458.3861881229
 20
250.7872996143
  0
VERTEX
  8
0
 62
9
  6
CONTINUOUS
 10
458.4269004148
 20
250.8412751184
  0
VERTEX
  8
0
 62
9
  6
CONTINUOUS
 10
458.4633258715
 20
250.8977865966
  0
VERTEX
  8
0
 62
9
  6
CONTINUOUS
 10
458.4952788773
 20
250.9565460792
  0
VERTEX
  8
0
 62
9
  6
CONTINUOUS
 10
458.5225966069
 20
251.0172541415
  0
VERTEX
  8
0
 62
9
  6
CONTINUOUS
 10
458.5451398555
 20
251.0796014289
  0
VERTEX
  8
0
 62
9
  6
CONTINUOUS
 10
458.5627937478
 20
251.1432702341
  0
VERTEX
  8
0
 62
9
  6
CONTINUOUS
 10
458.5754683237
 20
251.2079361155
  0
VERTEX
  8
0
 62
9
  6
CONTINUOUS
 10
458.5830989965
 20
251.2732695504
  0
VERTEX
  8
0
 62
9
  6
CONTINUOUS
 10
458.5856468818
 20
251.3389376147
  0
SEQEND
  0
LINE
  8
0
 62
9
  6
CONTINUOUS
 10
442.5856468818
 20
249.6381574715
 11
457.5856468818
 21
249.6381574715
  0
LINE
  8
0
 62
9
  6
CONTINUOUS
 10
442.5856468818
 20
250.4184327613
 11
457.5856468818
 21
250.4184327613
  0
POLYLINE
  8
0
 62
9
  6
CONTINUOUS
 66
1
 70
0
  0
VERTEX
  8
0
 62
9
  6
CONTINUOUS
 10
458.5754683237
 20
68.7449632143
  0
VERTEX
  8
0
 62
9
  6
CONTINUOUS
 10
458.5830989964
 20
68.8061278025
  0
VERTEX
  8
0
 62
9
  6
CONTINUOUS
 10
458.5856468818
 20
68.8676056678
  0
SEQEND
  0
LINE
  8
0
 62
9
  6
CONTINUOUS
 10
442.5856468818
 20
253.4486463167
 11
457.5856468818
 21
253.4486463167
  0
LINE
  8
0
 62
7
  6
CONTINUOUS
 10
442.5856468818
 20
259.8336660095
 11
457.5856468818
 21
259.8336660095
  0
LINE
  8
0
 62
9
  6
CONTINUOUS
 10
442.5856468818
 20
260.1923766879
 11
457.5856468818
 21
260.1923766879
  0
POLYLINE
  8
0
 62
9
  6
CONTINUOUS
 66
1
 70
0
  0
VERTEX
  8
0
 62
9
  6
CONTINUOUS
 10
457.5856468818
 20
260.1923766879
  0
VERTEX
  8
0
 62
9
  6
CONTINUOUS
 10
457.656986065
 20
260.191589348
  0
VERTEX
  8
0
 62
9
  6
CONTINUOUS
 10
457.7279617201
 20
260.1892313404
  0
VERTEX
  8
0
 62
9
  6
CONTINUOUS
 10
457.7982121714
 20
260.1853146811
  0
VERTEX
  8
0
 62
9
  6
CONTINUOUS
 10
457.8673794387
 20
260.1798593283
  0
VERTEX
  8
0
 62
9
  6
CONTINUOUS
 10
457.9351110614
 20
260.1728930814
  0
VERTEX
  8
0
 62
9
  6
CONTINUOUS
 10
458.0010618948
 20
260.1644514387
  0
VERTEX
  8
0
 62
9
  6
CONTINUOUS
 10
458.0648958686
 20
260.1545774169
  0
VERTEX
  8
0
 62
9
  6
CONTINUOUS
 10
458.1262876993
 20
260.1433213317
  0
VERTEX
  8
0
 62
9
  6
CONTINUOUS
 10
458.1849245483
 20
260.1307405416
  0
VERTEX
  8
0
 62
9
  6
CONTINUOUS
 10
458.2405076158
 20
260.1168991554
  0
VERTEX
  8
0
 62
9
  6
CONTINUOUS
 10
458.292753663
 20
260.1018677057
  0
VERTEX
  8
0
 62
9
  6
CONTINUOUS
 10
458.3413964562
 20
260.0857227892
  0
VERTEX
  8
0
 62
9
  6
CONTINUOUS
 10
458.3861881228
 20
260.0685466768
  0
VERTEX
  8
0
 62
9
  6
CONTINUOUS
 10
458.4269004147
 20
260.0504268939
  0
VERTEX
  8
0
 62
9
  6
CONTINUOUS
 10
458.4633258714
 20
260.0314557749
  0
VERTEX
  8
0
 62
9
  6
CONTINUOUS
 10
458.4952788772
 20
260.0117299922
  0
VERTEX
  8
0
 62
9
  6
CONTINUOUS
 10
458.5225966068
 20
259.9913500639
  0
VERTEX
  8
0
 62
9
  6
CONTINUOUS
 10
458.5451398555
 20
259.9704198414
  0
VERTEX
  8
0
 62
9
  6
CONTINUOUS
 10
458.5627937478
 20
259.9490459804
  0
VERTEX
  8
0
 62
9
  6
CONTINUOUS
 10
458.5754683237
 20
259.9273373971
  0
VERTEX
  8
0
 62
9
  6
CONTINUOUS
 10
458.5830989964
 20
259.9054047134
  0
VERTEX
  8
0
 62
9
  6
CONTINUOUS
 10
458.5856468818
 20
259.8833596935
  0
SEQEND
  0
POLYLINE
  8
0
 62
9
  6
CONTINUOUS
 66
1
 70
0
  0
VERTEX
  8
0
 62
9
  6
CONTINUOUS
 10
457.5856468818
 20
253.4486463167
  0
VERTEX
  8
0
 62
9
  6
CONTINUOUS
 10
457.656986065
 20
253.4471313391
  0
VERTEX
  8
0
 62
9
  6
CONTINUOUS
 10
457.7279617201
 20
253.4425941265
  0
VERTEX
  8
0
 62
9
  6
CONTINUOUS
 10
457.7982121714
 20
253.4350577992
  0
VERTEX
  8
0
 62
9
  6
CONTINUOUS
 10
457.8673794387
 20
253.4245607609
  0
VERTEX
  8
0
 62
9
  6
CONTINUOUS
 10
457.9351110614
 20
253.4111565019
  0
VERTEX
  8
0
 62
9
  6
CONTINUOUS
 10
458.0010618948
 20
253.3949133272
  0
VERTEX
  8
0
 62
9
  6
CONTINUOUS
 10
458.0648958686
 20
253.3759140085
  0
VERTEX
  8
0
 62
9
  6
CONTINUOUS
 10
458.1262876993
 20
253.3542553618
  0
VERTEX
  8
0
 62
9
  6
CONTINUOUS
 10
458.1849245483
 20
253.3300477547
  0
VERTEX
  8
0
 62
9
  6
CONTINUOUS
 10
458.2405076158
 20
253.3034145436
  0
VERTEX
  8
0
 62
9
  6
CONTINUOUS
 10
458.292753663
 20
253.2744914452
  0
VERTEX
  8
0
 62
9
  6
CONTINUOUS
 10
458.3413964562
 20
253.243425845
  0
VERTEX
  8
0
 62
9
  6
CONTINUOUS
 10
458.3861881228
 20
253.2103760461
  0
VERTEX
  8
0
 62
9
  6
CONTINUOUS
 10
458.4269004147
 20
253.1755104628
  0
VERTEX
  8
0
 62
9
  6
CONTINUOUS
 10
458.4633258714
 20
253.1390067621
  0
VERTEX
  8
0
 62
9
  6
CONTINUOUS
 10
458.4952788772
 20
253.1010509585
  0
VERTEX
  8
0
 62
9
  6
CONTINUOUS
 10
458.5225966068
 20
253.0618364661
  0
VERTEX
  8
0
 62
9
  6
CONTINUOUS
 10
458.5451398555
 20
253.0215631129
  0
VERTEX
  8
0
 62
9
  6
CONTINUOUS
 10
458.5627937478
 20
252.9804361226
  0
VERTEX
  8
0
 62
9
  6
CONTINUOUS
 10
458.5754683237
 20
252.9386650691
  0
VERTEX
  8
0
 62
9
  6
CONTINUOUS
 10
458.5830989964
 20
252.896462808
  0
VERTEX
  8
0
 62
9
  6
CONTINUOUS
 10
458.5856468818
 20
252.8540443924
  0
SEQEND
  0
POLYLINE
  8
0
 62
9
  6
CONTINUOUS
 66
1
 70
0
  0
VERTEX
  8
0
 62
9
  6
CONTINUOUS
 10
427.5856468818
 20
262.5700179786
  0
VERTEX
  8
0
 62
9
  6
CONTINUOUS
 10
427.5143076986
 20
262.5692306387
  0
VERTEX
  8
0
 62
9
  6
CONTINUOUS
 10
427.4433320436
 20
262.5668726312
  0
VERTEX
  8
0
 62
9
  6
CONTINUOUS
 10
427.3730815923
 20
262.5629559718
  0
VERTEX
  8
0
 62
9
  6
CONTINUOUS
 10
427.303914325
 20
262.557500619
  0
VERTEX
  8
0
 62
9
  6
CONTINUOUS
 10
427.2361827022
 20
262.5505343721
  0
VERTEX
  8
0
 62
9
  6
CONTINUOUS
 10
427.1702318688
 20
262.5420927294
  0
VERTEX
  8
0
 62
9
  6
CONTINUOUS
 10
427.1063978951
 20
262.5322187076
  0
VERTEX
  8
0
 62
9
  6
CONTINUOUS
 10
427.0450060644
 20
262.5209626224
  0
VERTEX
  8
0
 62
9
  6
CONTINUOUS
 10
426.9863692153
 20
262.5083818324
  0
VERTEX
  8
0
 62
9
  6
CONTINUOUS
 10
426.9307861479
 20
262.4945404462
  0
VERTEX
  8
0
 62
9
  6
CONTINUOUS
 10
426.8785401007
 20
262.4795089964
  0
VERTEX
  8
0
 62
9
  6
CONTINUOUS
 10
426.8298973075
 20
262.46336408
  0
VERTEX
  8
0
 62
9
  6
CONTINUOUS
 10
426.7851056409
 20
262.4461879675
  0
VERTEX
  8
0
 62
9
  6
CONTINUOUS
 10
426.744393349
 20
262.4280681847
  0
VERTEX
  8
0
 62
9
  6
CONTINUOUS
 10
426.7079678923
 20
262.4090970656
  0
VERTEX
  8
0
 62
9
  6
CONTINUOUS
 10
426.6760148865
 20
262.3893712829
  0
VERTEX
  8
0
 62
9
  6
CONTINUOUS
 10
426.6486971568
 20
262.3689913546
  0
VERTEX
  8
0
 62
9
  6
CONTINUOUS
 10
426.6261539082
 20
262.3480611321
  0
VERTEX
  8
0
 62
9
  6
CONTINUOUS
 10
426.6085000159
 20
262.3266872711
  0
VERTEX
  8
0
 62
9
  6
CONTINUOUS
 10
426.59582544
 20
262.3049786878
  0
VERTEX
  8
0
 62
9
  6
CONTINUOUS
 10
426.5881947672
 20
262.2830460042
  0
VERTEX
  8
0
 62
9
  6
CONTINUOUS
 10
426.5856468818
 20
262.2610009842
  0
SEQEND
  0
LINE
  8
0
 62
9
  6
CONTINUOUS
 10
442.5856468818
 20
262.5700179786
 11
427.5856468818
 21
262.5700179786
  0
LINE
  8
0
 62
9
  6
CONTINUOUS
 10
442.5856468818
 20
265.0901649999
 11
427.5856468818
 21
265.0901649999
  0
LINE
  8
0
 62
9
  6
CONTINUOUS
 10
442.5856468818
 20
265.2446734971
 11
427.5856468818
 21
265.2446734971
  0
POLYLINE
  8
0
 62
9
  6
CONTINUOUS
 66
1
 70
0
  0
VERTEX
  8
0
 62
9
  6
CONTINUOUS
 10
427.5856468818
 20
265.0901649999
  0
VERTEX
  8
0
 62
9
  6
CONTINUOUS
 10
427.5143076987
 20
265.0925881829
  0
VERTEX
  8
0
 62
9
  6
CONTINUOUS
 10
427.4433320436
 20
265.0998453839
  0
VERTEX
  8
0
 62
9
  6
CONTINUOUS
 10
427.3730815924
 20
265.1118996219
  0
VERTEX
  8
0
 62
9
  6
CONTINUOUS
 10
427.3039143252
 20
265.1286894713
  0
VERTEX
  8
0
 62
9
  6
CONTINUOUS
 10
427.2361827024
 20
265.1501293748
  0
VERTEX
  8
0
 62
9
  6
CONTINUOUS
 10
427.170231869
 20
265.1761100795
  0
VERTEX
  8
0
 62
9
  6
CONTINUOUS
 10
427.1063978953
 20
265.2064991939
  0
VERTEX
  8
0
 62
9
  6
CONTINUOUS
 10
427.0450060646
 20
265.2411418619
  0
VERTEX
  8
0
 62
9
  6
CONTINUOUS
 10
426.9863692155
 20
265.2798615524
  0
VERTEX
  8
0
 62
9
  6
CONTINUOUS
 10
426.930786148
 20
265.3224609588
  0
VERTEX
  8
0
 62
9
  6
CONTINUOUS
 10
426.8785401007
 20
265.3687230043
  0
VERTEX
  8
0
 62
9
  6
CONTINUOUS
 10
426.8298973074
 20
265.418411948
  0
VERTEX
  8
0
 62
9
  6
CONTINUOUS
 10
426.7851056408
 20
265.4712745865
  0
VERTEX
  8
0
 62
9
  6
CONTINUOUS
 10
426.7443933489
 20
265.527041544
  0
VERTEX
  8
0
 62
9
  6
CONTINUOUS
 10
426.7079678922
 20
265.5854286447
  0
VERTEX
  8
0
 62
9
  6
CONTINUOUS
 10
426.6760148864
 20
265.6461383613
  0
VERTEX
  8
0
 62
9
  6
CONTINUOUS
 10
426.6486971568
 20
265.7088613312
  0
VERTEX
  8
0
 62
9
  6
CONTINUOUS
 10
426.6261539082
 20
265.7732779323
  0
VERTEX
  8
0
 62
9
  6
CONTINUOUS
 10
426.6085000158
 20
265.8390599126
  0
VERTEX
  8
0
 62
9
  6
CONTINUOUS
 10
426.5958254399
 20
265.905872062
  0
VERTEX
  8
0
 62
9
  6
CONTINUOUS
 10
426.5881947672
 20
265.9733739212
  0
VERTEX
  8
0
 62
9
  6
CONTINUOUS
 10
426.5856468818
 20
266.0412215162
  0
SEQEND
  0
POLYLINE
  8
0
 62
9
  6
CONTINUOUS
 66
1
 70
0
  0
VERTEX
  8
0
 62
9
  6
CONTINUOUS
 10
427.5856468818
 20
265.2446734971
  0
VERTEX
  8
0
 62
9
  6
CONTINUOUS
 10
427.5143076986
 20
265.2470966801
  0
VERTEX
  8
0
 62
9
  6
CONTINUOUS
 10
427.4433320436
 20
265.2543538811
  0
VERTEX
  8
0
 62
9
  6
CONTINUOUS
 10
427.3730815923
 20
265.2664081192
  0
VERTEX
  8
0
 62
9
  6
CONTINUOUS
 10
427.303914325
 20
265.2831979685
  0
VERTEX
  8
0
 62
9
  6
CONTINUOUS
 10
427.2361827022
 20
265.304637872
  0
VERTEX
  8
0
 62
9
  6
CONTINUOUS
 10
427.1702318688
 20
265.3306185768
  0
VERTEX
  8
0
 62
9
  6
CONTINUOUS
 10
427.1063978951
 20
265.3610076912
  0
VERTEX
  8
0
 62
9
  6
CONTINUOUS
 10
427.0450060644
 20
265.3956503592
  0
VERTEX
  8
0
 62
9
  6
CONTINUOUS
 10
426.9863692153
 20
265.4343700497
  0
VERTEX
  8
0
 62
9
  6
CONTINUOUS
 10
426.9307861479
 20
265.476969456
  0
VERTEX
  8
0
 62
9
  6
CONTINUOUS
 10
426.8785401007
 20
265.5232315014
  0
VERTEX
  8
0
 62
9
  6
CONTINUOUS
 10
426.8298973075
 20
265.5729204451
  0
VERTEX
  8
0
 62
9
  6
CONTINUOUS
 10
426.7851056409
 20
265.6257830836
  0
VERTEX
  8
0
 62
9
  6
CONTINUOUS
 10
426.744393349
 20
265.681550041
  0
VERTEX
  8
0
 62
9
  6
CONTINUOUS
 10
426.7079678923
 20
265.7399371417
  0
VERTEX
  8
0
 62
9
  6
CONTINUOUS
 10
426.6760148865
 20
265.8006468583
  0
VERTEX
  8
0
 62
9
  6
CONTINUOUS
 10
426.6486971568
 20
265.8633698282
  0
VERTEX
  8
0
 62
9
  6
CONTINUOUS
 10
426.6261539082
 20
265.9277864294
  0
VERTEX
  8
0
 62
9
  6
CONTINUOUS
 10
426.6085000159
 20
265.9935684096
  0
VERTEX
  8
0
 62
9
  6
CONTINUOUS
 10
426.59582544
 20
266.0603805591
  0
VERTEX
  8
0
 62
9
  6
CONTINUOUS
 10
426.5881947672
 20
266.1278824184
  0
VERTEX
  8
0
 62
9
  6
CONTINUOUS
 10
426.5856468818
 20
266.1957300134
  0
SEQEND
  0
LINE
  8
0
 62
7
  6
CONTINUOUS
 10
442.5856468818
 20
282.1076011031
 11
427.5856468818
 21
282.1076011031
  0
LINE
  8
0
 62
9
  6
CONTINUOUS
 10
442.5856468818
 20
280.090697463
 11
427.3730815923
 21
280.0908906135
  0
LINE
  8
0
 62
9
  6
CONTINUOUS
 10
427.3730815923
 20
280.0908906135
 11
427.1063978951
 21
280.0917312981
  0
LINE
  8
0
 62
9
  6
CONTINUOUS
 10
427.1063978951
 20
280.0917312981
 11
426.8785401007
 21
280.0931729437
  0
LINE
  8
0
 62
9
  6
CONTINUOUS
 10
426.8785401007
 20
280.0931729437
 11
426.744393349
 21
280.0945798841
  0
POLYLINE
  8
0
 62
9
  6
CONTINUOUS
 66
1
 70
0
  0
VERTEX
  8
0
 62
9
  6
CONTINUOUS
 10
426.744393349
 20
280.0945798841
  0
VERTEX
  8
0
 62
9
  6
CONTINUOUS
 10
426.6760148865
 20
280.0956382701
  0
VERTEX
  8
0
 62
9
  6
CONTINUOUS
 10
426.6486971568
 20
280.0961956746
  0
VERTEX
  8
0
 62
9
  6
CONTINUOUS
 10
426.6261539082
 20
280.0967681301
  0
VERTEX
  8
0
 62
9
  6
CONTINUOUS
 10
426.6085000159
 20
280.0973527194
  0
VERTEX
  8
0
 62
9
  6
CONTINUOUS
 10
426.59582544
 20
280.0979464636
  0
VERTEX
  8
0
 62
9
  6
CONTINUOUS
 10
426.5881947672
 20
280.0985463371
  0
VERTEX
  8
0
 62
9
  6
CONTINUOUS
 10
426.5856468818
 20
280.099149283
  0
SEQEND
  0
POLYLINE
  8
0
 62
9
  6
CONTINUOUS
 66
1
 70
0
  0
VERTEX
  8
0
 62
9
  6
CONTINUOUS
 10
427.5856468818
 20
286.1857143591
  0
VERTEX
  8
0
 62
9
  6
CONTINUOUS
 10
427.5143076986
 20
286.184009491
  0
VERTEX
  8
0
 62
9
  6
CONTINUOUS
 10
427.4433320436
 20
286.1789035743
  0
VERTEX
  8
0
 62
9
  6
CONTINUOUS
 10
427.3730815923
 20
286.1704226276
  0
VERTEX
  8
0
 62
9
  6
CONTINUOUS
 10
427.303914325
 20
286.1586098679
  0
VERTEX
  8
0
 62
9
  6
CONTINUOUS
 10
427.2361827022
 20
286.1435254903
  0
VERTEX
  8
0
 62
9
  6
CONTINUOUS
 10
427.1702318688
 20
286.1252463613
  0
VERTEX
  8
0
 62
9
  6
CONTINUOUS
 10
427.1063978951
 20
286.1038656272
  0
VERTEX
  8
0
 62
9
  6
CONTINUOUS
 10
427.0450060644
 20
286.0794922392
  0
VERTEX
  8
0
 62
9
  6
CONTINUOUS
 10
426.9863692153
 20
286.0522503986
  0
VERTEX
  8
0
 62
9
  6
CONTINUOUS
 10
426.9307861479
 20
286.0222789236
  0
VERTEX
  8
0
 62
9
  6
CONTINUOUS
 10
426.8785401007
 20
285.989730542
  0
VERTEX
  8
0
 62
9
  6
CONTINUOUS
 10
426.8298973075
 20
285.9547711127
  0
VERTEX
  8
0
 62
9
  6
CONTINUOUS
 10
426.7851056409
 20
285.9175787811
  0
VERTEX
  8
0
 62
9
  6
CONTINUOUS
 10
426.744393349
 20
285.8783430707
  0
VERTEX
  8
0
 62
9
  6
CONTINUOUS
 10
426.7079678923
 20
285.8372639178
  0
VERTEX
  8
0
 62
9
  6
CONTINUOUS
 10
426.6760148865
 20
285.7945506522
  0
VERTEX
  8
0
 62
9
  6
CONTINUOUS
 10
426.6486971568
 20
285.7504209311
  0
VERTEX
  8
0
 62
9
  6
CONTINUOUS
 10
426.6261539082
 20
285.7050996293
  0
VERTEX
  8
0
 62
9
  6
CONTINUOUS
 10
426.6085000159
 20
285.6588176938
  0
VERTEX
  8
0
 62
9
  6
CONTINUOUS
 10
426.59582544
 20
285.6118109667
  0
VERTEX
  8
0
 62
9
  6
CONTINUOUS
 10
426.5881947672
 20
285.5643189836
  0
VERTEX
  8
0
 62
9
  6
CONTINUOUS
 10
426.5856468818
 20
285.5165837527
  0
SEQEND
  0
LINE
  8
0
 62
9
  6
CONTINUOUS
 10
442.5856468818
 20
286.1857143591
 11
427.5856468818
 21
286.1857143591
  0
LINE
  8
0
 62
9
  6
CONTINUOUS
 10
442.5856468818
 20
291.7245954947
 11
457.5856468818
 21
291.7245954947
  0
LINE
  8
0
 62
9
  6
CONTINUOUS
 10
459.0856468818
 20
291.8753195321
 11
458.5856468818
 21
291.8753195321
  0
LINE
  8
0
 62
9
  6
CONTINUOUS
 10
426.5856468818
 20
291.8753195321
 11
426.0856468818
 21
291.8753195321
  0
POLYLINE
  8
0
 62
9
  6
CONTINUOUS
 66
1
 70
0
  0
VERTEX
  8
0
 62
9
  6
CONTINUOUS
 10
457.5856468818
 20
291.7245954947
  0
VERTEX
  8
0
 62
9
  6
CONTINUOUS
 10
457.656986065
 20
291.7238081548
  0
VERTEX
  8
0
 62
9
  6
CONTINUOUS
 10
457.7279617201
 20
291.7214501473
  0
VERTEX
  8
0
 62
9
  6
CONTINUOUS
 10
457.7982121714
 20
291.7175334879
  0
VERTEX
  8
0
 62
9
  6
CONTINUOUS
 10
457.8673794387
 20
291.7120781352
  0
VERTEX
  8
0
 62
9
  6
CONTINUOUS
 10
457.9351110614
 20
291.7051118882
  0
VERTEX
  8
0
 62
9
  6
CONTINUOUS
 10
458.0010618948
 20
291.6966702455
  0
VERTEX
  8
0
 62
9
  6
CONTINUOUS
 10
458.0648958686
 20
291.6867962237
  0
VERTEX
  8
0
 62
9
  6
CONTINUOUS
 10
458.1262876993
 20
291.6755401386
  0
VERTEX
  8
0
 62
9
  6
CONTINUOUS
 10
458.1849245483
 20
291.6629593485
  0
VERTEX
  8
0
 62
9
  6
CONTINUOUS
 10
458.2405076158
 20
291.6491179623
  0
VERTEX
  8
0
 62
9
  6
CONTINUOUS
 10
458.292753663
 20
291.6340865126
  0
VERTEX
  8
0
 62
9
  6
CONTINUOUS
 10
458.3413964562
 20
291.6179415961
  0
VERTEX
  8
0
 62
9
  6
CONTINUOUS
 10
458.3861881228
 20
291.6007654836
  0
VERTEX
  8
0
 62
9
  6
CONTINUOUS
 10
458.4269004147
 20
291.5826457008
  0
VERTEX
  8
0
 62
9
  6
CONTINUOUS
 10
458.4633258714
 20
291.5636745818
  0
VERTEX
  8
0
 62
9
  6
CONTINUOUS
 10
458.4952788772
 20
291.5439487991
  0
VERTEX
  8
0
 62
9
  6
CONTINUOUS
 10
458.5225966068
 20
291.5235688708
  0
VERTEX
  8
0
 62
9
  6
CONTINUOUS
 10
458.5451398555
 20
291.5026386483
  0
VERTEX
  8
0
 62
9
  6
CONTINUOUS
 10
458.5627937478
 20
291.4812647872
  0
VERTEX
  8
0
 62
9
  6
CONTINUOUS
 10
458.5754683237
 20
291.4595562039
  0
VERTEX
  8
0
 62
9
  6
CONTINUOUS
 10
458.5830989964
 20
291.4376235203
  0
VERTEX
  8
0
 62
9
  6
CONTINUOUS
 10
458.5856468818
 20
291.4155785003
  0
SEQEND
  0
LINE
  8
0
 62
7
  6
CONTINUOUS
 10
459.0856468818
 20
294.2184652826
 11
458.5856468818
 21
294.2184652826
  0
LINE
  8
0
 62
7
  6
CONTINUOUS
 10
426.5856468818
 20
294.2184652826
 11
426.0856468818
 21
294.2184652826
  0
POLYLINE
  8
0
 62
9
  6
CONTINUOUS
 66
1
 70
0
  0
VERTEX
  8
0
 62
9
  6
CONTINUOUS
 10
457.5856468818
 20
306.5898258113
  0
VERTEX
  8
0
 62
9
  6
CONTINUOUS
 10
457.656986065
 20
306.5915634649
  0
VERTEX
  8
0
 62
9
  6
CONTINUOUS
 10
457.7279617201
 20
306.5967675712
  0
VERTEX
  8
0
 62
9
  6
CONTINUOUS
 10
457.7982121714
 20
306.6054116112
  0
VERTEX
  8
0
 62
9
  6
CONTINUOUS
 10
457.8673794387
 20
306.6174515368
  0
VERTEX
  8
0
 62
9
  6
CONTINUOUS
 10
457.9351110614
 20
306.6328259954
  0
VERTEX
  8
0
 62
9
  6
CONTINUOUS
 10
458.0010618948
 20
306.6514566422
  0
VERTEX
  8
0
 62
9
  6
CONTINUOUS
 10
458.0648958686
 20
306.6732485398
  0
VERTEX
  8
0
 62
9
  6
CONTINUOUS
 10
458.1262876993
 20
306.6980906415
  0
VERTEX
  8
0
 62
9
  6
CONTINUOUS
 10
458.1849245483
 20
306.7258563579
  0
VERTEX
  8
0
 62
9
  6
CONTINUOUS
 10
458.2405076158
 20
306.756404201
  0
VERTEX
  8
0
 62
9
  6
CONTINUOUS
 10
458.292753663
 20
306.7895785062
  0
VERTEX
  8
0
 62
9
  6
CONTINUOUS
 10
458.3413964562
 20
306.8252102247
  0
VERTEX
  8
0
 62
9
  6
CONTINUOUS
 10
458.3861881228
 20
306.8631177856
  0
VERTEX
  8
0
 62
9
  6
CONTINUOUS
 10
458.4269004147
 20
306.9031080204
  0
VERTEX
  8
0
 62
9
  6
CONTINUOUS
 10
458.4633258714
 20
306.9449771483
  0
VERTEX
  8
0
 62
9
  6
CONTINUOUS
 10
458.4952788772
 20
306.9885118137
  0
VERTEX
  8
0
 62
9
  6
CONTINUOUS
 10
458.5225966068
 20
307.0334901739
  0
VERTEX
  8
0
 62
9
  6
CONTINUOUS
 10
458.5451398555
 20
307.0796830296
  0
VERTEX
  8
0
 62
9
  6
CONTINUOUS
 10
458.5627937478
 20
307.1268549925
  0
VERTEX
  8
0
 62
9
  6
CONTINUOUS
 10
458.5754683237
 20
307.174765685
  0
VERTEX
  8
0
 62
9
  6
CONTINUOUS
 10
458.5830989964
 20
307.2231709654
  0
VERTEX
  8
0
 62
9
  6
CONTINUOUS
 10
458.5856468818
 20
307.2718241713
  0
SEQEND
  0
POLYLINE
  8
0
 62
9
  6
CONTINUOUS
 66
1
 70
0
  0
VERTEX
  8
0
 62
9
  6
CONTINUOUS
 10
457.5856468818
 20
308.0503115004
  0
VERTEX
  8
0
 62
9
  6
CONTINUOUS
 10
457.656986065
 20
308.0520491541
  0
VERTEX
  8
0
 62
9
  6
CONTINUOUS
 10
457.72796172
 20
308.0572532604
  0
VERTEX
  8
0
 62
9
  6
CONTINUOUS
 10
457.7982121713
 20
308.0658973003
  0
VERTEX
  8
0
 62
9
  6
CONTINUOUS
 10
457.8673794385
 20
308.077937226
  0
VERTEX
  8
0
 62
9
  6
CONTINUOUS
 10
457.9351110612
 20
308.0933116845
  0
VERTEX
  8
0
 62
9
  6
CONTINUOUS
 10
458.0010618946
 20
308.1119423313
  0
VERTEX
  8
0
 62
9
  6
CONTINUOUS
 10
458.0648958684
 20
308.1337342289
  0
VERTEX
  8
0
 62
9
  6
CONTINUOUS
 10
458.1262876991
 20
308.1585763306
  0
VERTEX
  8
0
 62
9
  6
CONTINUOUS
 10
458.1849245482
 20
308.1863420469
  0
VERTEX
  8
0
 62
9
  6
CONTINUOUS
 10
458.2405076157
 20
308.2168898901
  0
VERTEX
  8
0
 62
9
  6
CONTINUOUS
 10
458.292753663
 20
308.2500641953
  0
VERTEX
  8
0
 62
9
  6
CONTINUOUS
 10
458.3413964563
 20
308.2856959139
  0
VERTEX
  8
0
 62
9
  6
CONTINUOUS
 10
458.3861881229
 20
308.3236034748
  0
VERTEX
  8
0
 62
9
  6
CONTINUOUS
 10
458.4269004148
 20
308.3635937097
  0
VERTEX
  8
0
 62
9
  6
CONTINUOUS
 10
458.4633258715
 20
308.4054628376
  0
VERTEX
  8
0
 62
9
  6
CONTINUOUS
 10
458.4952788773
 20
308.448997503
  0
VERTEX
  8
0
 62
9
  6
CONTINUOUS
 10
458.5225966069
 20
308.4939758632
  0
VERTEX
  8
0
 62
9
  6
CONTINUOUS
 10
458.5451398555
 20
308.5401687189
  0
VERTEX
  8
0
 62
9
  6
CONTINUOUS
 10
458.5627937478
 20
308.5873406817
  0
VERTEX
  8
0
 62
9
  6
CONTINUOUS
 10
458.5754683237
 20
308.6352513742
  0
VERTEX
  8
0
 62
9
  6
CONTINUOUS
 10
458.5830989965
 20
308.6836566546
  0
VERTEX
  8
0
 62
9
  6
CONTINUOUS
 10
458.5856468818
 20
308.7323098605
  0
SEQEND
  0
POLYLINE
  8
0
 62
9
  6
CONTINUOUS
 66
1
 70
0
  0
VERTEX
  8
0
 62
9
  6
CONTINUOUS
 10
427.5856468818
 20
310.8246341715
  0
VERTEX
  8
0
 62
9
  6
CONTINUOUS
 10
427.5143076986
 20
310.8229293034
  0
VERTEX
  8
0
 62
9
  6
CONTINUOUS
 10
427.4433320436
 20
310.8178233868
  0
VERTEX
  8
0
 62
9
  6
CONTINUOUS
 10
427.3730815923
 20
310.8093424401
  0
VERTEX
  8
0
 62
9
  6
CONTINUOUS
 10
427.303914325
 20
310.7975296804
  0
VERTEX
  8
0
 62
9
  6
CONTINUOUS
 10
427.2361827022
 20
310.7824453028
  0
VERTEX
  8
0
 62
9
  6
CONTINUOUS
 10
427.1702318688
 20
310.7641661738
  0
VERTEX
  8
0
 62
9
  6
CONTINUOUS
 10
427.1063978951
 20
310.7427854397
  0
VERTEX
  8
0
 62
9
  6
CONTINUOUS
 10
427.0450060644
 20
310.7184120517
  0
VERTEX
  8
0
 62
9
  6
CONTINUOUS
 10
426.9863692153
 20
310.6911702111
  0
VERTEX
  8
0
 62
9
  6
CONTINUOUS
 10
426.9307861479
 20
310.6611987361
  0
VERTEX
  8
0
 62
9
  6
CONTINUOUS
 10
426.8785401007
 20
310.6286503544
  0
VERTEX
  8
0
 62
9
  6
CONTINUOUS
 10
426.8298973075
 20
310.5936909252
  0
VERTEX
  8
0
 62
9
  6
CONTINUOUS
 10
426.7851056409
 20
310.5564985935
  0
VERTEX
  8
0
 62
9
  6
CONTINUOUS
 10
426.744393349
 20
310.5172628832
  0
VERTEX
  8
0
 62
9
  6
CONTINUOUS
 10
426.7079678923
 20
310.4761837303
  0
VERTEX
  8
0
 62
9
  6
CONTINUOUS
 10
426.6760148865
 20
310.4334704647
  0
VERTEX
  8
0
 62
9
  6
CONTINUOUS
 10
426.6486971568
 20
310.3893407436
  0
VERTEX
  8
0
 62
9
  6
CONTINUOUS
 10
426.6261539082
 20
310.3440194418
  0
VERTEX
  8
0
 62
9
  6
CONTINUOUS
 10
426.6085000159
 20
310.2977375063
  0
VERTEX
  8
0
 62
9
  6
CONTINUOUS
 10
426.59582544
 20
310.2507307792
  0
VERTEX
  8
0
 62
9
  6
CONTINUOUS
 10
426.5881947672
 20
310.2032387961
  0
VERTEX
  8
0
 62
9
  6
CONTINUOUS
 10
426.5856468818
 20
310.1555035652
  0
SEQEND
  0
LINE
  8
0
 62
9
  6
CONTINUOUS
 10
442.5856468818
 20
306.5898258113
 11
457.5856468818
 21
306.5898258113
  0
LINE
  8
0
 62
9
  6
CONTINUOUS
 10
442.5856468818
 20
308.0503115004
 11
457.5856468818
 21
308.0503115004
  0
LINE
  8
0
 62
9
  6
CONTINUOUS
 10
442.5856468818
 20
310.8246341715
 11
427.5856468818
 21
310.8246341715
  0
LINE
  8
0
 62
9
  6
CONTINUOUS
 10
442.5856468818
 20
311.154748984
 11
457.5856468818
 21
311.154748984
  0
LINE
  8
0
 62
7
  6
CONTINUOUS
 10
442.5856468818
 20
313.1987779715
 11
457.5856468818
 21
313.1987779715
  0
POLYLINE
  8
0
 62
9
  6
CONTINUOUS
 66
1
 70
0
  0
VERTEX
  8
0
 62
9
  6
CONTINUOUS
 10
427.5856468818
 20
313.6491850352
  0
VERTEX
  8
0
 62
9
  6
CONTINUOUS
 10
427.5143076987
 20
313.6510784831
  0
VERTEX
  8
0
 62
9
  6
CONTINUOUS
 10
427.4433320436
 20
313.656749178
  0
VERTEX
  8
0
 62
9
  6
CONTINUOUS
 10
427.3730815924
 20
313.6661682235
  0
VERTEX
  8
0
 62
9
  6
CONTINUOUS
 10
427.3039143252
 20
313.6792876222
  0
VERTEX
  8
0
 62
9
  6
CONTINUOUS
 10
427.2361827024
 20
313.6960405208
  0
VERTEX
  8
0
 62
9
  6
CONTINUOUS
 10
427.170231869
 20
313.7163415502
  0
VERTEX
  8
0
 62
9
  6
CONTINUOUS
 10
427.1063978953
 20
313.7400872611
  0
VERTEX
  8
0
 62
9
  6
CONTINUOUS
 10
427.0450060646
 20
313.7671566508
  0
VERTEX
  8
0
 62
9
  6
CONTINUOUS
 10
426.9863692155
 20
313.7974117798
  0
VERTEX
  8
0
 62
9
  6
CONTINUOUS
 10
426.930786148
 20
313.8306984751
  0
VERTEX
  8
0
 62
9
  6
CONTINUOUS
 10
426.8785401007
 20
313.8668471152
  0
VERTEX
  8
0
 62
9
  6
CONTINUOUS
 10
426.8298973074
 20
313.9056734949
  0
VERTEX
  8
0
 62
9
  6
CONTINUOUS
 10
426.7851056408
 20
313.9469797639
  0
VERTEX
  8
0
 62
9
  6
CONTINUOUS
 10
426.7443933489
 20
313.9905554349
  0
VERTEX
  8
0
 62
9
  6
CONTINUOUS
 10
426.7079678922
 20
314.0361784562
  0
VERTEX
  8
0
 62
9
  6
CONTINUOUS
 10
426.6760148864
 20
314.0836163435
  0
VERTEX
  8
0
 62
9
  6
CONTINUOUS
 10
426.6486971568
 20
314.1326273641
  0
VERTEX
  8
0
 62
9
  6
CONTINUOUS
 10
426.6261539082
 20
314.182961769
  0
VERTEX
  8
0
 62
9
  6
CONTINUOUS
 10
426.6085000158
 20
314.2343630658
  0
VERTEX
  8
0
 62
9
  6
CONTINUOUS
 10
426.5958254399
 20
314.2865693251
  0
VERTEX
  8
0
 62
9
  6
CONTINUOUS
 10
426.5881947672
 20
314.3393145159
  0
VERTEX
  8
0
 62
9
  6
CONTINUOUS
 10
426.5856468818
 20
314.3923298607
  0
SEQEND
  0
POLYLINE
  8
0
 62
9
  6
CONTINUOUS
 66
1
 70
0
  0
VERTEX
  8
0
 62
9
  6
CONTINUOUS
 10
457.5856468818
 20
311.154748984
  0
VERTEX
  8
0
 62
9
  6
CONTINUOUS
 10
457.656986065
 20
311.1525317622
  0
VERTEX
  8
0
 62
9
  6
CONTINUOUS
 10
457.7279617201
 20
311.1458913953
  0
VERTEX
  8
0
 62
9
  6
CONTINUOUS
 10
457.7982121714
 20
311.134861721
  0
VERTEX
  8
0
 62
9
  6
CONTINUOUS
 10
457.8673794387
 20
311.1194989441
  0
VERTEX
  8
0
 62
9
  6
CONTINUOUS
 10
457.9351110614
 20
311.0998813497
  0
VERTEX
  8
0
 62
9
  6
CONTINUOUS
 10
458.0010618948
 20
311.0761089045
  0
VERTEX
  8
0
 62
9
  6
CONTINUOUS
 10
458.0648958686
 20
311.0483027477
  0
VERTEX
  8
0
 62
9
  6
CONTINUOUS
 10
458.1262876993
 20
311.0166045728
  0
VERTEX
  8
0
 62
9
  6
CONTINUOUS
 10
458.1849245483
 20
310.9811759066
  0
VERTEX
  8
0
 62
9
  6
CONTINUOUS
 10
458.2405076158
 20
310.9421972854
  0
VERTEX
  8
0
 62
9
  6
CONTINUOUS
 10
458.292753663
 20
310.8998673354
  0
VERTEX
  8
0
 62
9
  6
CONTINUOUS
 10
458.3413964562
 20
310.8544017602
  0
VERTEX
  8
0
 62
9
  6
CONTINUOUS
 10
458.3861881228
 20
310.806032242
  0
VERTEX
  8
0
 62
9
  6
CONTINUOUS
 10
458.4269004147
 20
310.7550052609
  0
VERTEX
  8
0
 62
9
  6
CONTINUOUS
 10
458.4633258714
 20
310.7015808385
  0
VERTEX
  8
0
 62
9
  6
CONTINUOUS
 10
458.4952788772
 20
310.6460312135
  0
VERTEX
  8
0
 62
9
  6
CONTINUOUS
 10
458.5225966068
 20
310.5886394541
  0
VERTEX
  8
0
 62
9
  6
CONTINUOUS
 10
458.5451398555
 20
310.5296980155
  0
VERTEX
  8
0
 62
9
  6
CONTINUOUS
 10
458.5627937478
 20
310.4695072497
  0
VERTEX
  8
0
 62
9
  6
CONTINUOUS
 10
458.5754683237
 20
310.4083738752
  0
VERTEX
  8
0
 62
9
  6
CONTINUOUS
 10
458.5830989964
 20
310.3466094135
  0
VERTEX
  8
0
 62
9
  6
CONTINUOUS
 10
458.5856468818
 20
310.2845286023
  0
SEQEND
  0
LINE
  8
0
 62
9
  6
CONTINUOUS
 10
442.5856468818
 20
313.6491850352
 11
427.5856468818
 21
313.6491850352
  0
LINE
  8
0
 62
9
  6
CONTINUOUS
 10
442.5856468818
 20
313.9837503384
 11
427.5856468818
 21
313.9837503384
  0
POLYLINE
  8
0
 62
9
  6
CONTINUOUS
 66
1
 70
0
  0
VERTEX
  8
0
 62
9
  6
CONTINUOUS
 10
427.5856468818
 20
313.9837503384
  0
VERTEX
  8
0
 62
9
  6
CONTINUOUS
 10
427.5143076986
 20
313.9856437862
  0
VERTEX
  8
0
 62
9
  6
CONTINUOUS
 10
427.4433320436
 20
313.9913144812
  0
VERTEX
  8
0
 62
9
  6
CONTINUOUS
 10
427.3730815923
 20
314.0007335267
  0
VERTEX
  8
0
 62
9
  6
CONTINUOUS
 10
427.303914325
 20
314.0138529254
  0
VERTEX
  8
0
 62
9
  6
CONTINUOUS
 10
427.2361827022
 20
314.030605824
  0
VERTEX
  8
0
 62
9
  6
CONTINUOUS
 10
427.1702318688
 20
314.0509068534
  0
VERTEX
  8
0
 62
9
  6
CONTINUOUS
 10
427.1063978951
 20
314.0746525643
  0
VERTEX
  8
0
 62
9
  6
CONTINUOUS
 10
427.0450060644
 20
314.101721954
  0
VERTEX
  8
0
 62
9
  6
CONTINUOUS
 10
426.9863692153
 20
314.1319770831
  0
VERTEX
  8
0
 62
9
  6
CONTINUOUS
 10
426.9307861479
 20
314.1652637783
  0
VERTEX
  8
0
 62
9
  6
CONTINUOUS
 10
426.8785401007
 20
314.2014124184
  0
VERTEX
  8
0
 62
9
  6
CONTINUOUS
 10
426.8298973075
 20
314.240238798
  0
VERTEX
  8
0
 62
9
  6
CONTINUOUS
 10
426.7851056409
 20
314.281545067
  0
VERTEX
  8
0
 62
9
  6
CONTINUOUS
 10
426.744393349
 20
314.3251207379
  0
VERTEX
  8
0
 62
9
  6
CONTINUOUS
 10
426.7079678923
 20
314.3707437593
  0
VERTEX
  8
0
 62
9
  6
CONTINUOUS
 10
426.6760148865
 20
314.4181816465
  0
VERTEX
  8
0
 62
9
  6
CONTINUOUS
 10
426.6486971568
 20
314.4671926671
  0
VERTEX
  8
0
 62
9
  6
CONTINUOUS
 10
426.6261539082
 20
314.5175270721
  0
VERTEX
  8
0
 62
9
  6
CONTINUOUS
 10
426.6085000159
 20
314.5689283689
  0
VERTEX
  8
0
 62
9
  6
CONTINUOUS
 10
426.59582544
 20
314.6211346282
  0
VERTEX
  8
0
 62
9
  6
CONTINUOUS
 10
426.5881947672
 20
314.673879819
  0
VERTEX
  8
0
 62
9
  6
CONTINUOUS
 10
426.5856468818
 20
314.7268951639
  0
SEQEND
  0
POLYLINE
  8
0
 62
9
  6
CONTINUOUS
 66
1
 70
0
  0
VERTEX
  8
0
 62
9
  6
CONTINUOUS
 10
427.5856468818
 20
331.972546991
  0
VERTEX
  8
0
 62
9
  6
CONTINUOUS
 10
427.5143076986
 20
331.9715303822
  0
VERTEX
  8
0
 62
9
  6
CONTINUOUS
 10
427.4433320436
 20
331.9684857362
  0
VERTEX
  8
0
 62
9
  6
CONTINUOUS
 10
427.3730815923
 20
331.9634285678
  0
VERTEX
  8
0
 62
9
  6
CONTINUOUS
 10
427.303914325
 20
331.9563846472
  0
VERTEX
  8
0
 62
9
  6
CONTINUOUS
 10
427.2361827022
 20
331.9473898686
  0
VERTEX
  8
0
 62
9
  6
CONTINUOUS
 10
427.1702318688
 20
331.9364900674
  0
VERTEX
  8
0
 62
9
  6
CONTINUOUS
 10
427.1063978951
 20
331.9237407863
  0
VERTEX
  8
0
 62
9
  6
CONTINUOUS
 10
427.0450060644
 20
331.9092069929
  0
VERTEX
  8
0
 62
9
  6
CONTINUOUS
 10
426.9863692153
 20
331.8929627479
  0
VERTEX
  8
0
 62
9
  6
CONTINUOUS
 10
426.9307861479
 20
331.8750908285
  0
VERTEX
  8
0
 62
9
  6
CONTINUOUS
 10
426.8785401007
 20
331.8556823057
  0
VERTEX
  8
0
 62
9
  6
CONTINUOUS
 10
426.8298973075
 20
331.8348360809
  0
VERTEX
  8
0
 62
9
  6
CONTINUOUS
 10
426.7851056409
 20
331.8126583817
  0
VERTEX
  8
0
 62
9
  6
CONTINUOUS
 10
426.744393349
 20
331.7892622207
  0
VERTEX
  8
0
 62
9
  6
CONTINUOUS
 10
426.7079678923
 20
331.7647668192
  0
VERTEX
  8
0
 62
9
  6
CONTINUOUS
 10
426.6760148865
 20
331.7392970003
  0
VERTEX
  8
0
 62
9
  6
CONTINUOUS
 10
426.6486971568
 20
331.7129825522
  0
VERTEX
  8
0
 62
9
  6
CONTINUOUS
 10
426.6261539082
 20
331.6859575674
  0
VERTEX
  8
0
 62
9
  6
CONTINUOUS
 10
426.6085000159
 20
331.658359759
  0
VERTEX
  8
0
 62
9
  6
CONTINUOUS
 10
426.59582544
 20
331.6303297592
  0
VERTEX
  8
0
 62
9
  6
CONTINUOUS
 10
426.5881947672
 20
331.6020104023
  0
VERTEX
  8
0
 62
9
  6
CONTINUOUS
 10
426.5856468818
 20
331.5735459973
  0
SEQEND
  0
LINE
  8
0
 62
9
  6
CONTINUOUS
 10
442.5856468818
 20
331.972546991
 11
427.5856468818
 21
331.972546991
  0
LINE
  8
0
 62
7
  6
CONTINUOUS
 10
442.5856468818
 20
333.1745450035
 11
427.5856468818
 21
333.1745450035
  0
LINE
  8
0
 62
9
  6
CONTINUOUS
 10
442.5856468818
 20
333.6056919203
 11
457.5856468818
 21
333.6056919203
  0
POLYLINE
  8
0
 62
9
  6
CONTINUOUS
 66
1
 70
0
  0
VERTEX
  8
0
 62
9
  6
CONTINUOUS
 10
427.5856468818
 20
343.3316927085
  0
VERTEX
  8
0
 62
9
  6
CONTINUOUS
 10
427.5143076986
 20
343.3293650994
  0
VERTEX
  8
0
 62
9
  6
CONTINUOUS
 10
427.4433320436
 20
343.3223941329
  0
VERTEX
  8
0
 62
9
  6
CONTINUOUS
 10
427.3730815923
 20
343.3108153317
  0
VERTEX
  8
0
 62
9
  6
CONTINUOUS
 10
427.303914325
 20
343.2946876985
  0
VERTEX
  8
0
 62
9
  6
CONTINUOUS
 10
427.2361827022
 20
343.2740934162
  0
VERTEX
  8
0
 62
9
  6
CONTINUOUS
 10
427.1702318688
 20
343.2491374283
  0
VERTEX
  8
0
 62
9
  6
CONTINUOUS
 10
427.1063978951
 20
343.219946905
  0
VERTEX
  8
0
 62
9
  6
CONTINUOUS
 10
427.0450060644
 20
343.1866705945
  0
VERTEX
  8
0
 62
9
  6
CONTINUOUS
 10
426.9863692153
 20
343.1494780651
  0
VERTEX
  8
0
 62
9
  6
CONTINUOUS
 10
426.9307861479
 20
343.1085588416
  0
VERTEX
  8
0
 62
9
  6
CONTINUOUS
 10
426.8785401007
 20
343.0641214389
  0
VERTEX
  8
0
 62
9
  6
CONTINUOUS
 10
426.8298973075
 20
343.0163922997
  0
VERTEX
  8
0
 62
9
  6
CONTINUOUS
 10
426.7851056409
 20
342.9656146409
  0
VERTEX
  8
0
 62
9
  6
CONTINUOUS
 10
426.744393349
 20
342.9120472138
  0
VERTEX
  8
0
 62
9
  6
CONTINUOUS
 10
426.7079678923
 20
342.8559629857
  0
VERTEX
  8
0
 62
9
  6
CONTINUOUS
 10
426.6760148865
 20
342.797647749
  0
VERTEX
  8
0
 62
9
  6
CONTINUOUS
 10
426.6486971568
 20
342.7373986647
  0
VERTEX
  8
0
 62
9
  6
CONTINUOUS
 10
426.6261539082
 20
342.6755227484
  0
VERTEX
  8
0
 62
9
  6
CONTINUOUS
 10
426.6085000159
 20
342.6123353056
  0
VERTEX
  8
0
 62
9
  6
CONTINUOUS
 10
426.59582544
 20
342.5481583249
  0
VERTEX
  8
0
 62
9
  6
CONTINUOUS
 10
426.5881947672
 20
342.4833188376
  0
VERTEX
  8
0
 62
9
  6
CONTINUOUS
 10
426.5856468818
 20
342.4181472508
  0
SEQEND
  0
LINE
  8
0
 62
9
  6
CONTINUOUS
 10
442.5856468818
 20
343.3316927085
 11
427.5856468818
 21
343.3316927085
  0
POLYLINE
  8
0
 62
9
  6
CONTINUOUS
 66
1
 70
0
  0
VERTEX
  8
0
 62
9
  6
CONTINUOUS
 10
457.5856468818
 20
333.6056919203
  0
VERTEX
  8
0
 62
9
  6
CONTINUOUS
 10
457.656986065
 20
333.6039870522
  0
VERTEX
  8
0
 62
9
  6
CONTINUOUS
 10
457.7279617201
 20
333.5988811356
  0
VERTEX
  8
0
 62
9
  6
CONTINUOUS
 10
457.7982121714
 20
333.5904001889
  0
VERTEX
  8
0
 62
9
  6
CONTINUOUS
 10
457.8673794387
 20
333.5785874292
  0
VERTEX
  8
0
 62
9
  6
CONTINUOUS
 10
457.9351110614
 20
333.5635030516
  0
VERTEX
  8
0
 62
9
  6
CONTINUOUS
 10
458.0010618948
 20
333.5452239226
  0
VERTEX
  8
0
 62
9
  6
CONTINUOUS
 10
458.0648958686
 20
333.5238431884
  0
VERTEX
  8
0
 62
9
  6
CONTINUOUS
 10
458.1262876993
 20
333.4994698005
  0
VERTEX
  8
0
 62
9
  6
CONTINUOUS
 10
458.1849245483
 20
333.4722279599
  0
VERTEX
  8
0
 62
9
  6
CONTINUOUS
 10
458.2405076158
 20
333.4422564849
  0
VERTEX
  8
0
 62
9
  6
CONTINUOUS
 10
458.292753663
 20
333.4097081032
  0
VERTEX
  8
0
 62
9
  6
CONTINUOUS
 10
458.3413964562
 20
333.374748674
  0
VERTEX
  8
0
 62
9
  6
CONTINUOUS
 10
458.3861881228
 20
333.3375563423
  0
VERTEX
  8
0
 62
9
  6
CONTINUOUS
 10
458.4269004147
 20
333.298320632
  0
VERTEX
  8
0
 62
9
  6
CONTINUOUS
 10
458.4633258714
 20
333.2572414791
  0
VERTEX
  8
0
 62
9
  6
CONTINUOUS
 10
458.4952788772
 20
333.2145282135
  0
VERTEX
  8
0
 62
9
  6
CONTINUOUS
 10
458.5225966068
 20
333.1703984924
  0
VERTEX
  8
0
 62
9
  6
CONTINUOUS
 10
458.5451398555
 20
333.1250771906
  0
VERTEX
  8
0
 62
9
  6
CONTINUOUS
 10
458.5627937478
 20
333.0787952551
  0
VERTEX
  8
0
 62
9
  6
CONTINUOUS
 10
458.5754683237
 20
333.031788528
  0
VERTEX
  8
0
 62
9
  6
CONTINUOUS
 10
458.5830989964
 20
332.9842965449
  0
VERTEX
  8
0
 62
9
  6
CONTINUOUS
 10
458.5856468818
 20
332.936561314
  0
SEQEND
  0
POLYLINE
  8
0
 62
9
  6
CONTINUOUS
 66
1
 70
0
  0
VERTEX
  8
0
 62
9
  6
CONTINUOUS
 10
457.5856468818
 20
348.5261733326
  0
VERTEX
  8
0
 62
9
  6
CONTINUOUS
 10
457.656986065
 20
348.5270028429
  0
VERTEX
  8
0
 62
9
  6
CONTINUOUS
 10
457.7279617201
 20
348.529487147
  0
VERTEX
  8
0
 62
9
  6
CONTINUOUS
 10
457.7982121714
 20
348.5336135852
  0
VERTEX
  8
0
 62
9
  6
CONTINUOUS
 10
457.8673794387
 20
348.5393611304
  0
VERTEX
  8
0
 62
9
  6
CONTINUOUS
 10
457.9351110614
 20
348.5467004942
  0
VERTEX
  8
0
 62
9
  6
CONTINUOUS
 10
458.0010618948
 20
348.5555942771
  0
VERTEX
  8
0
 62
9
  6
CONTINUOUS
 10
458.0648958686
 20
348.5659971582
  0
VERTEX
  8
0
 62
9
  6
CONTINUOUS
 10
458.1262876993
 20
348.5778561269
  0
VERTEX
  8
0
 62
9
  6
CONTINUOUS
 10
458.1849245483
 20
348.5911107527
  0
VERTEX
  8
0
 62
9
  6
CONTINUOUS
 10
458.2405076158
 20
348.6056934929
  0
VERTEX
  8
0
 62
9
  6
CONTINUOUS
 10
458.292753663
 20
348.6215300373
  0
VERTEX
  8
0
 62
9
  6
CONTINUOUS
 10
458.3413964562
 20
348.6385396865
  0
VERTEX
  8
0
 62
9
  6
CONTINUOUS
 10
458.3861881228
 20
348.6566357631
  0
VERTEX
  8
0
 62
9
  6
CONTINUOUS
 10
458.4269004147
 20
348.6757260539
  0
VERTEX
  8
0
 62
9
  6
CONTINUOUS
 10
458.4633258714
 20
348.6957132789
  0
VERTEX
  8
0
 62
9
  6
CONTINUOUS
 10
458.4952788772
 20
348.7164955879
  0
VERTEX
  8
0
 62
9
  6
CONTINUOUS
 10
458.5225966068
 20
348.737967079
  0
VERTEX
  8
0
 62
9
  6
CONTINUOUS
 10
458.5451398555
 20
348.7600183384
  0
VERTEX
  8
0
 62
9
  6
CONTINUOUS
 10
458.5627937478
 20
348.782536998
  0
VERTEX
  8
0
 62
9
  6
CONTINUOUS
 10
458.5754683237
 20
348.8054083078
  0
VERTEX
  8
0
 62
9
  6
CONTINUOUS
 10
458.5830989964
 20
348.8285157208
  0
VERTEX
  8
0
 62
9
  6
CONTINUOUS
 10
458.5856468818
 20
348.851741487
  0
SEQEND
  0
POLYLINE
  8
0
 62
9
  6
CONTINUOUS
 66
1
 70
0
  0
VERTEX
  8
0
 62
9
  6
CONTINUOUS
 10
457.5856468818
 20
350.4143381773
  0
VERTEX
  8
0
 62
9
  6
CONTINUOUS
 10
457.656986065
 20
350.4151676877
  0
VERTEX
  8
0
 62
9
  6
CONTINUOUS
 10
457.72796172
 20
350.4176519917
  0
VERTEX
  8
0
 62
9
  6
CONTINUOUS
 10
457.7982121713
 20
350.42177843
  0
VERTEX
  8
0
 62
9
  6
CONTINUOUS
 10
457.8673794385
 20
350.4275259752
  0
VERTEX
  8
0
 62
9
  6
CONTINUOUS
 10
457.9351110612
 20
350.434865339
  0
VERTEX
  8
0
 62
9
  6
CONTINUOUS
 10
458.0010618946
 20
350.4437591218
  0
VERTEX
  8
0
 62
9
  6
CONTINUOUS
 10
458.0648958684
 20
350.4541620029
  0
VERTEX
  8
0
 62
9
  6
CONTINUOUS
 10
458.1262876991
 20
350.4660209717
  0
VERTEX
  8
0
 62
9
  6
CONTINUOUS
 10
458.1849245482
 20
350.4792755974
  0
VERTEX
  8
0
 62
9
  6
CONTINUOUS
 10
458.2405076157
 20
350.4938583376
  0
VERTEX
  8
0
 62
9
  6
CONTINUOUS
 10
458.292753663
 20
350.509694882
  0
VERTEX
  8
0
 62
9
  6
CONTINUOUS
 10
458.3413964563
 20
350.5267045312
  0
VERTEX
  8
0
 62
9
  6
CONTINUOUS
 10
458.3861881229
 20
350.544800608
  0
VERTEX
  8
0
 62
9
  6
CONTINUOUS
 10
458.4269004148
 20
350.5638908987
  0
VERTEX
  8
0
 62
9
  6
CONTINUOUS
 10
458.4633258715
 20
350.5838781237
  0
VERTEX
  8
0
 62
9
  6
CONTINUOUS
 10
458.4952788773
 20
350.6046604328
  0
VERTEX
  8
0
 62
9
  6
CONTINUOUS
 10
458.5225966069
 20
350.6261319239
  0
VERTEX
  8
0
 62
9
  6
CONTINUOUS
 10
458.5451398555
 20
350.6481831833
  0
VERTEX
  8
0
 62
9
  6
CONTINUOUS
 10
458.5627937478
 20
350.6707018428
  0
VERTEX
  8
0
 62
9
  6
CONTINUOUS
 10
458.5754683237
 20
350.6935731526
  0
VERTEX
  8
0
 62
9
  6
CONTINUOUS
 10
458.5830989965
 20
350.7166805656
  0
VERTEX
  8
0
 62
9
  6
CONTINUOUS
 10
458.5856468818
 20
350.7399063318
  0
SEQEND
  0
LINE
  8
0
 62
9
  6
CONTINUOUS
 10
442.5856468818
 20
345.9722569099
 11
427.5856468818
 21
345.9722569099
  0
LINE
  8
0
 62
9
  6
CONTINUOUS
 10
442.5856468818
 20
346.4290296387
 11
427.5856468818
 21
346.4290296387
  0
LINE
  8
0
 62
9
  6
CONTINUOUS
 10
442.5856468818
 20
348.5261733326
 11
457.5856468818
 21
348.5261733326
  0
LINE
  8
0
 62
9
  6
CONTINUOUS
 10
442.5856468818
 20
350.4143381773
 11
457.5856468818
 21
350.4143381773
  0
LINE
  8
0
 62
9
  6
CONTINUOUS
 10
442.5856468818
 20
353.0562141453
 11
457.5856468818
 21
353.0562141453
  0
LINE
  8
0
 62
7
  6
CONTINUOUS
 10
442.5856468818
 20
353.1291393303
 11
457.5856468818
 21
353.1291393303
  0
POLYLINE
  8
0
 62
9
  6
CONTINUOUS
 66
1
 70
0
  0
VERTEX
  8
0
 62
9
  6
CONTINUOUS
 10
427.5856468818
 20
345.9722569099
  0
VERTEX
  8
0
 62
9
  6
CONTINUOUS
 10
427.5143076987
 20
345.9732932283
  0
VERTEX
  8
0
 62
9
  6
CONTINUOUS
 10
427.4433320436
 20
345.9763969025
  0
VERTEX
  8
0
 62
9
  6
CONTINUOUS
 10
427.3730815924
 20
345.9815521169
  0
VERTEX
  8
0
 62
9
  6
CONTINUOUS
 10
427.3039143252
 20
345.9887326018
  0
VERTEX
  8
0
 62
9
  6
CONTINUOUS
 10
427.2361827024
 20
345.9979017671
  0
VERTEX
  8
0
 62
9
  6
CONTINUOUS
 10
427.170231869
 20
346.0090128887
  0
VERTEX
  8
0
 62
9
  6
CONTINUOUS
 10
427.1063978953
 20
346.022009347
  0
VERTEX
  8
0
 62
9
  6
CONTINUOUS
 10
427.0450060646
 20
346.036824915
  0
VERTEX
  8
0
 62
9
  6
CONTINUOUS
 10
426.9863692155
 20
346.053384096
  0
VERTEX
  8
0
 62
9
  6
CONTINUOUS
 10
426.930786148
 20
346.0716025081
  0
VERTEX
  8
0
 62
9
  6
CONTINUOUS
 10
426.8785401007
 20
346.0913873145
  0
VERTEX
  8
0
 62
9
  6
CONTINUOUS
 10
426.8298973074
 20
346.1126376964
  0
VERTEX
  8
0
 62
9
  6
CONTINUOUS
 10
426.7851056408
 20
346.1352453667
  0
VERTEX
  8
0
 62
9
  6
CONTINUOUS
 10
426.7443933489
 20
346.1590951219
  0
VERTEX
  8
0
 62
9
  6
CONTINUOUS
 10
426.7079678922
 20
346.184065429
  0
VERTEX
  8
0
 62
9
  6
CONTINUOUS
 10
426.6760148864
 20
346.2100290452
  0
VERTEX
  8
0
 62
9
  6
CONTINUOUS
 10
426.6486971568
 20
346.2368536658
  0
VERTEX
  8
0
 62
9
  6
CONTINUOUS
 10
426.6261539082
 20
346.2644025986
  0
VERTEX
  8
0
 62
9
  6
CONTINUOUS
 10
426.6085000158
 20
346.2925354607
  0
VERTEX
  8
0
 62
9
  6
CONTINUOUS
 10
426.5958254399
 20
346.3211088934
  0
VERTEX
  8
0
 62
9
  6
CONTINUOUS
 10
426.5881947672
 20
346.3499772931
  0
VERTEX
  8
0
 62
9
  6
CONTINUOUS
 10
426.5856468818
 20
346.378993553
  0
SEQEND
  0
POLYLINE
  8
0
 62
9
  6
CONTINUOUS
 66
1
 70
0
  0
VERTEX
  8
0
 62
9
  6
CONTINUOUS
 10
427.5856468818
 20
346.4290296387
  0
VERTEX
  8
0
 62
9
  6
CONTINUOUS
 10
427.5143076986
 20
346.4300659571
  0
VERTEX
  8
0
 62
9
  6
CONTINUOUS
 10
427.4433320436
 20
346.4331696313
  0
VERTEX
  8
0
 62
9
  6
CONTINUOUS
 10
427.3730815923
 20
346.4383248458
  0
VERTEX
  8
0
 62
9
  6
CONTINUOUS
 10
427.303914325
 20
346.4455053307
  0
VERTEX
  8
0
 62
9
  6
CONTINUOUS
 10
427.2361827022
 20
346.4546744959
  0
VERTEX
  8
0
 62
9
  6
CONTINUOUS
 10
427.1702318688
 20
346.4657856176
  0
VERTEX
  8
0
 62
9
  6
CONTINUOUS
 10
427.1063978951
 20
346.4787820759
  0
VERTEX
  8
0
 62
9
  6
CONTINUOUS
 10
427.0450060644
 20
346.4935976439
  0
VERTEX
  8
0
 62
9
  6
CONTINUOUS
 10
426.9863692153
 20
346.5101568248
  0
VERTEX
  8
0
 62
9
  6
CONTINUOUS
 10
426.9307861479
 20
346.5283752369
  0
VERTEX
  8
0
 62
9
  6
CONTINUOUS
 10
426.8785401007
 20
346.5481600433
  0
VERTEX
  8
0
 62
9
  6
CONTINUOUS
 10
426.8298973075
 20
346.5694104252
  0
VERTEX
  8
0
 62
9
  6
CONTINUOUS
 10
426.7851056409
 20
346.5920180955
  0
VERTEX
  8
0
 62
9
  6
CONTINUOUS
 10
426.744393349
 20
346.6158678506
  0
VERTEX
  8
0
 62
9
  6
CONTINUOUS
 10
426.7079678923
 20
346.6408381578
  0
VERTEX
  8
0
 62
9
  6
CONTINUOUS
 10
426.6760148865
 20
346.6668017739
  0
VERTEX
  8
0
 62
9
  6
CONTINUOUS
 10
426.6486971568
 20
346.6936263945
  0
VERTEX
  8
0
 62
9
  6
CONTINUOUS
 10
426.6261539082
 20
346.7211753274
  0
VERTEX
  8
0
 62
9
  6
CONTINUOUS
 10
426.6085000159
 20
346.7493081895
  0
VERTEX
  8
0
 62
9
  6
CONTINUOUS
 10
426.59582544
 20
346.7778816222
  0
VERTEX
  8
0
 62
9
  6
CONTINUOUS
 10
426.5881947672
 20
346.8067500219
  0
VERTEX
  8
0
 62
9
  6
CONTINUOUS
 10
426.5856468818
 20
346.8357662818
  0
SEQEND
  0
POLYLINE
  8
0
 62
9
  6
CONTINUOUS
 66
1
 70
0
  0
VERTEX
  8
0
 62
9
  6
CONTINUOUS
 10
457.5856468818
 20
353.0562141453
  0
VERTEX
  8
0
 62
9
  6
CONTINUOUS
 10
457.656986065
 20
353.0536780571
  0
VERTEX
  8
0
 62
9
  6
CONTINUOUS
 10
457.7279617201
 20
353.0460827156
  0
VERTEX
  8
0
 62
9
  6
CONTINUOUS
 10
457.7982121714
 20
353.0334668252
  0
VERTEX
  8
0
 62
9
  6
CONTINUOUS
 10
457.8673794387
 20
353.0158946734
  0
VERTEX
  8
0
 62
9
  6
CONTINUOUS
 10
457.9351110614
 20
352.9934558038
  0
VERTEX
  8
0
 62
9
  6
CONTINUOUS
 10
458.0010618948
 20
352.9662645599
  0
VERTEX
  8
0
 62
9
  6
CONTINUOUS
 10
458.0648958686
 20
352.934459502
  0
VERTEX
  8
0
 62
9
  6
CONTINUOUS
 10
458.1262876993
 20
352.8982027013
  0
VERTEX
  8
0
 62
9
  6
CONTINUOUS
 10
458.1849245483
 20
352.8576789143
  0
VERTEX
  8
0
 62
9
  6
CONTINUOUS
 10
458.2405076158
 20
352.8130946408
  0
VERTEX
  8
0
 62
9
  6
CONTINUOUS
 10
458.292753663
 20
352.764677072
  0
VERTEX
  8
0
 62
9
  6
CONTINUOUS
 10
458.3413964562
 20
352.7126729329
  0
VERTEX
  8
0
 62
9
  6
CONTINUOUS
 10
458.3861881228
 20
352.6573472245
  0
VERTEX
  8
0
 62
9
  6
CONTINUOUS
 10
458.4269004147
 20
352.5989818741
  0
VERTEX
  8
0
 62
9
  6
CONTINUOUS
 10
458.4633258714
 20
352.537874298
  0
VERTEX
  8
0
 62
9
  6
CONTINUOUS
 10
458.4952788772
 20
352.4743358865
  0
VERTEX
  8
0
 62
9
  6
CONTINUOUS
 10
458.5225966068
 20
352.4086904167
  0
VERTEX
  8
0
 62
9
  6
CONTINUOUS
 10
458.5451398555
 20
352.3412724029
  0
VERTEX
  8
0
 62
9
  6
CONTINUOUS
 10
458.5627937478
 20
352.2724253918
  0
VERTEX
  8
0
 62
9
  6
CONTINUOUS
 10
458.5754683237
 20
352.2025002121
  0
VERTEX
  8
0
 62
9
  6
CONTINUOUS
 10
458.5830989964
 20
352.1318531864
  0
SEQEND
  0
POLYLINE
  8
0
 62
9
  6
CONTINUOUS
 66
1
 70
0
  0
VERTEX
  8
0
 62
9
  6
CONTINUOUS
 10
427.5856468818
 20
371.9078978112
  0
VERTEX
  8
0
 62
9
  6
CONTINUOUS
 10
427.5143076986
 20
371.9054813692
  0
VERTEX
  8
0
 62
9
  6
CONTINUOUS
 10
427.4433320436
 20
371.8982443569
  0
VERTEX
  8
0
 62
9
  6
CONTINUOUS
 10
427.3730815923
 20
371.8862236523
  0
VERTEX
  8
0
 62
9
  6
CONTINUOUS
 10
427.303914325
 20
371.8694805103
  0
VERTEX
  8
0
 62
9
  6
CONTINUOUS
 10
427.2361827022
 20
371.84810025
  0
VERTEX
  8
0
 62
9
  6
CONTINUOUS
 10
427.1702318688
 20
371.8221918205
  0
VERTEX
  8
0
 62
9
  6
CONTINUOUS
 10
427.1063978951
 20
371.791887245
  0
VERTEX
  8
0
 62
9
  6
CONTINUOUS
 10
427.0450060644
 20
371.7573409487
  0
VERTEX
  8
0
 62
9
  6
CONTINUOUS
 10
426.9863692153
 20
371.7187289717
  0
VERTEX
  8
0
 62
9
  6
CONTINUOUS
 10
426.9307861479
 20
371.6762480718
  0
VERTEX
  8
0
 62
9
  6
CONTINUOUS
 10
426.8785401007
 20
371.6301147219
  0
VERTEX
  8
0
 62
9
  6
CONTINUOUS
 10
426.8298973075
 20
371.5805640069
  0
VERTEX
  8
0
 62
9
  6
CONTINUOUS
 10
426.7851056409
 20
371.5278484259
  0
VERTEX
  8
0
 62
9
  6
CONTINUOUS
 10
426.744393349
 20
371.4722366055
  0
VERTEX
  8
0
 62
9
  6
CONTINUOUS
 10
426.7079678923
 20
371.4140119308
  0
VERTEX
  8
0
 62
9
  6
CONTINUOUS
 10
426.6760148865
 20
371.3534711012
  0
VERTEX
  8
0
 62
9
  6
CONTINUOUS
 10
426.6486971568
 20
371.2909226192
  0
VERTEX
  8
0
 62
9
  6
CONTINUOUS
 10
426.6261539082
 20
371.2266852172
  0
VERTEX
  8
0
 62
9
  6
CONTINUOUS
 10
426.6085000159
 20
371.1610862345
  0
VERTEX
  8
0
 62
9
  6
CONTINUOUS
 10
426.59582544
 20
371.0944599485
  0
VERTEX
  8
0
 62
9
  6
CONTINUOUS
 10
426.5881947672
 20
371.0271458713
  0
SEQEND
  0
POLYLINE
  8
0
 62
9
  6
CONTINUOUS
 66
1
 70
0
  0
VERTEX
  8
0
 62
9
  6
CONTINUOUS
 10
427.5856468818
 20
364.4501726138
  0
VERTEX
  8
0
 62
9
  6
CONTINUOUS
 10
427.5143076986
 20
364.4482936429
  0
VERTEX
  8
0
 62
9
  6
CONTINUOUS
 10
427.4433320436
 20
364.4426663047
  0
VERTEX
  8
0
 62
9
  6
CONTINUOUS
 10
427.3730815923
 20
364.4333192751
  0
VERTEX
  8
0
 62
9
  6
CONTINUOUS
 10
427.303914325
 20
364.4203001842
  0
VERTEX
  8
0
 62
9
  6
CONTINUOUS
 10
427.2361827022
 20
364.4036753745
  0
VERTEX
  8
0
 62
9
  6
CONTINUOUS
 10
427.1702318688
 20
364.3835295621
  0
VERTEX
  8
0
 62
9
  6
CONTINUOUS
 10
427.1063978951
 20
364.3599654054
  0
VERTEX
  8
0
 62
9
  6
CONTINUOUS
 10
427.0450060644
 20
364.3331029821
  0
VERTEX
  8
0
 62
9
  6
CONTINUOUS
 10
426.9863692153
 20
364.3030791768
  0
VERTEX
  8
0
 62
9
  6
CONTINUOUS
 10
426.9307861479
 20
364.2700469839
  0
VERTEX
  8
0
 62
9
  6
CONTINUOUS
 10
426.8785401007
 20
364.2341747281
  0
VERTEX
  8
0
 62
9
  6
CONTINUOUS
 10
426.8298973075
 20
364.195645206
  0
VERTEX
  8
0
 62
9
  6
CONTINUOUS
 10
426.7851056409
 20
364.1546547553
  0
VERTEX
  8
0
 62
9
  6
CONTINUOUS
 10
426.744393349
 20
364.1114122539
  0
VERTEX
  8
0
 62
9
  6
CONTINUOUS
 10
426.7079678923
 20
364.0661380557
  0
VERTEX
  8
0
 62
9
  6
CONTINUOUS
 10
426.6760148865
 20
364.0190628676
  0
VERTEX
  8
0
 62
9
  6
CONTINUOUS
 10
426.6486971568
 20
363.9704265741
  0
VERTEX
  8
0
 62
9
  6
CONTINUOUS
 10
426.6261539082
 20
363.9204770144
  0
VERTEX
  8
0
 62
9
  6
CONTINUOUS
 10
426.6085000159
 20
363.8694687201
  0
VERTEX
  8
0
 62
9
  6
CONTINUOUS
 10
426.59582544
 20
363.8176616178
  0
VERTEX
  8
0
 62
9
  6
CONTINUOUS
 10
426.5881947672
 20
363.7653197046
  0
VERTEX
  8
0
 62
9
  6
CONTINUOUS
 10
426.5856468818
 20
363.7127097029
  0
SEQEND
  0
LINE
  8
0
 62
9
  6
CONTINUOUS
 10
442.5856468818
 20
355.8001788458
 11
457.5856468818
 21
355.8001788458
  0
LINE
  8
0
 62
9
  6
CONTINUOUS
 10
442.5856468818
 20
364.4501726138
 11
427.5856468818
 21
364.4501726138
  0
LINE
  8
0
 62
7
  6
CONTINUOUS
 10
442.5856468818
 20
364.975246792
 11
427.5856468818
 21
364.975246792
  0
LINE
  8
0
 62
9
  6
CONTINUOUS
 10
442.5856468818
 20
371.9078978112
 11
427.5856468818
 21
371.9078978112
  0
LINE
  8
0
 62
7
  6
CONTINUOUS
 10
427.5856468818
 20
372.011076229
 11
457.5856468818
 21
372.011076229
  0
POLYLINE
  8
0
 62
9
  6
CONTINUOUS
 66
1
 70
0
  0
VERTEX
  8
0
 62
9
  6
CONTINUOUS
 10
442.5856468818
 20
368.1960245692
  0
VERTEX
  8
0
 62
9
  6
CONTINUOUS
 10
457.656986065
 20
368.1958025063
  0
VERTEX
  8
0
 62
9
  6
CONTINUOUS
 10
457.7279617201
 20
368.1951374494
  0
VERTEX
  8
0
 62
9
  6
CONTINUOUS
 10
457.7982121714
 20
368.1940327873
  0
VERTEX
  8
0
 62
9
  6
CONTINUOUS
 10
457.8673794387
 20
368.1924941492
  0
VERTEX
  8
0
 62
9
  6
CONTINUOUS
 10
457.9351110614
 20
368.1905293756
  0
VERTEX
  8
0
 62
9
  6
CONTINUOUS
 10
458.0010618948
 20
368.1881484786
  0
VERTEX
  8
0
 62
9
  6
CONTINUOUS
 10
458.0648958686
 20
368.1853635907
  0
VERTEX
  8
0
 62
9
  6
CONTINUOUS
 10
458.1262876993
 20
368.1821889029
  0
VERTEX
  8
0
 62
9
  6
CONTINUOUS
 10
458.1849245483
 20
368.1786405929
  0
VERTEX
  8
0
 62
9
  6
CONTINUOUS
 10
458.2405076158
 20
368.1747367419
  0
VERTEX
  8
0
 62
9
  6
CONTINUOUS
 10
458.292753663
 20
368.1704972432
  0
VERTEX
  8
0
 62
9
  6
CONTINUOUS
 10
458.3413964562
 20
368.1659437001
  0
VERTEX
  8
0
 62
9
  6
CONTINUOUS
 10
458.3861881228
 20
368.1610993166
  0
VERTEX
  8
0
 62
9
  6
CONTINUOUS
 10
458.4269004147
 20
368.1559887784
  0
VERTEX
  8
0
 62
9
  6
CONTINUOUS
 10
458.4633258714
 20
368.1506381278
  0
VERTEX
  8
0
 62
9
  6
CONTINUOUS
 10
458.4952788772
 20
368.1450746304
  0
VERTEX
  8
0
 62
9
  6
CONTINUOUS
 10
458.5225966068
 20
368.1393266366
  0
VERTEX
  8
0
 62
9
  6
CONTINUOUS
 10
458.5451398555
 20
368.1334234367
  0
VERTEX
  8
0
 62
9
  6
CONTINUOUS
 10
458.5627937478
 20
368.1273951121
  0
VERTEX
  8
0
 62
9
  6
CONTINUOUS
 10
458.5754683237
 20
368.1212723819
  0
VERTEX
  8
0
 62
9
  6
CONTINUOUS
 10
458.5830989964
 20
368.1150864459
  0
VERTEX
  8
0
 62
9
  6
CONTINUOUS
 10
458.5856468818
 20
368.1088688264
  0
SEQEND
  0
POLYLINE
  8
0
 62
9
  6
CONTINUOUS
 66
1
 70
0
  0
VERTEX
  8
0
 62
9
  6
CONTINUOUS
 10
442.5856468818
 20
370.1853877145
  0
VERTEX
  8
0
 62
9
  6
CONTINUOUS
 10
457.656986065
 20
370.1851656516
  0
VERTEX
  8
0
 62
9
  6
CONTINUOUS
 10
457.72796172
 20
370.1845005947
  0
VERTEX
  8
0
 62
9
  6
CONTINUOUS
 10
457.7982121713
 20
370.1833959326
  0
VERTEX
  8
0
 62
9
  6
CONTINUOUS
 10
457.8673794385
 20
370.1818572945
  0
VERTEX
  8
0
 62
9
  6
CONTINUOUS
 10
457.9351110612
 20
370.1798925209
  0
VERTEX
  8
0
 62
9
  6
CONTINUOUS
 10
458.0010618946
 20
370.1775116239
  0
VERTEX
  8
0
 62
9
  6
CONTINUOUS
 10
458.0648958684
 20
370.174726736
  0
VERTEX
  8
0
 62
9
  6
CONTINUOUS
 10
458.1262876991
 20
370.1715520482
  0
VERTEX
  8
0
 62
9
  6
CONTINUOUS
 10
458.1849245482
 20
370.1680037382
  0
VERTEX
  8
0
 62
9
  6
CONTINUOUS
 10
458.2405076157
 20
370.1640998872
  0
VERTEX
  8
0
 62
9
  6
CONTINUOUS
 10
458.292753663
 20
370.1598603885
  0
VERTEX
  8
0
 62
9
  6
CONTINUOUS
 10
458.3413964563
 20
370.1553068454
  0
VERTEX
  8
0
 62
9
  6
CONTINUOUS
 10
458.3861881229
 20
370.1504624619
  0
VERTEX
  8
0
 62
9
  6
CONTINUOUS
 10
458.4269004148
 20
370.1453519237
  0
VERTEX
  8
0
 62
9
  6
CONTINUOUS
 10
458.4633258715
 20
370.1400012731
  0
VERTEX
  8
0
 62
9
  6
CONTINUOUS
 10
458.4952788773
 20
370.1344377757
  0
VERTEX
  8
0
 62
9
  6
CONTINUOUS
 10
458.5225966069
 20
370.1286897819
  0
VERTEX
  8
0
 62
9
  6
CONTINUOUS
 10
458.5451398555
 20
370.122786582
  0
VERTEX
  8
0
 62
9
  6
CONTINUOUS
 10
458.5627937478
 20
370.1167582574
  0
VERTEX
  8
0
 62
9
  6
CONTINUOUS
 10
458.5754683237
 20
370.1106355272
  0
VERTEX
  8
0
 62
9
  6
CONTINUOUS
 10
458.5830989965
 20
370.1044495912
  0
VERTEX
  8
0
 62
9
  6
CONTINUOUS
 10
458.5856468818
 20
370.0982319717
  0
SEQEND
  0
POLYLINE
  8
0
 62
9
  6
CONTINUOUS
 66
1
 70
0
  0
VERTEX
  8
0
 62
9
  6
CONTINUOUS
 10
457.5856468818
 20
355.8001788458
  0
VERTEX
  8
0
 62
9
  6
CONTINUOUS
 10
457.656986065
 20
355.7978512366
  0
VERTEX
  8
0
 62
9
  6
CONTINUOUS
 10
457.7279617201
 20
355.7908802702
  0
VERTEX
  8
0
 62
9
  6
CONTINUOUS
 10
457.7982121714
 20
355.779301469
  0
VERTEX
  8
0
 62
9
  6
CONTINUOUS
 10
457.8673794387
 20
355.7631738358
  0
VERTEX
  8
0
 62
9
  6
CONTINUOUS
 10
457.9351110614
 20
355.7425795534
  0
VERTEX
  8
0
 62
9
  6
CONTINUOUS
 10
458.0010618948
 20
355.7176235656
  0
VERTEX
  8
0
 62
9
  6
CONTINUOUS
 10
458.0648958686
 20
355.6884330423
  0
VERTEX
  8
0
 62
9
  6
CONTINUOUS
 10
458.1262876993
 20
355.6551567318
  0
VERTEX
  8
0
 62
9
  6
CONTINUOUS
 10
458.1849245483
 20
355.6179642024
  0
VERTEX
  8
0
 62
9
  6
CONTINUOUS
 10
458.2405076158
 20
355.5770449789
  0
VERTEX
  8
0
 62
9
  6
CONTINUOUS
 10
458.292753663
 20
355.5326075761
  0
VERTEX
  8
0
 62
9
  6
CONTINUOUS
 10
458.3413964562
 20
355.484878437
  0
VERTEX
  8
0
 62
9
  6
CONTINUOUS
 10
458.3861881228
 20
355.4341007782
  0
VERTEX
  8
0
 62
9
  6
CONTINUOUS
 10
458.4269004147
 20
355.3805333511
  0
VERTEX
  8
0
 62
9
  6
CONTINUOUS
 10
458.4633258714
 20
355.324449123
  0
VERTEX
  8
0
 62
9
  6
CONTINUOUS
 10
458.4952788772
 20
355.2661338863
  0
VERTEX
  8
0
 62
9
  6
CONTINUOUS
 10
458.5225966068
 20
355.205884802
  0
VERTEX
  8
0
 62
9
  6
CONTINUOUS
 10
458.5451398555
 20
355.1440088857
  0
VERTEX
  8
0
 62
9
  6
CONTINUOUS
 10
458.5627937478
 20
355.0808214428
  0
VERTEX
  8
0
 62
9
  6
CONTINUOUS
 10
458.5754683237
 20
355.0166444622
  0
VERTEX
  8
0
 62
9
  6
CONTINUOUS
 10
458.5830989964
 20
354.9518049749
  0
VERTEX
  8
0
 62
9
  6
CONTINUOUS
 10
458.5856468818
 20
354.8866333881
  0
SEQEND
  0
ARC
  8
0
 62
9
  6
CONTINUOUS
 10
85.8538853383
 20
117.3776548512
 40
16.0000000001
 50
54.0
 51
115.0
  0
ARC
  8
0
 62
7
  6
CONTINUOUS
 10
90.3327235785
 20
134.6859451791
 40
15.75
 50
120.0
 51
191.5157406164
  0
ARC
  8
0
 62
7
  6
CONTINUOUS
 10
103.6415142731
 20
119.9050356765
 40
15.75
 50
252.4842593836
 51
324.0
  0
ARC
  8
0
 62
7
  6
CONTINUOUS
 10
85.8538853383
 20
117.3776548512
 40
15.0
 50
54.0
 51
115.0
  0
ARC
  8
0
 62
7
  6
CONTINUOUS
 10
85.9598744921
 20
117.2599419706
 40
15.0
 50
329.0
 51
30.0
  0
ARC
  8
0
 62
9
  6
CONTINUOUS
 10
90.3327235785
 20
134.6859451791
 40
14.75
 50
120.0
 51
191.5157406164
  0
ARC
  8
0
 62
9
  6
CONTINUOUS
 10
120.3180010353
 20
108.4068928147
 40
2.9999999958
 50
324.0
 51
54.0
  0
ARC
  8
0
 62
7
  6
CONTINUOUS
 10
123.1922656962
 20
89.5814554472
 40
2.0
 50
215.5157406164
 51
319.0
  0
ARC
  8
0
 62
7
  6
CONTINUOUS
 10
76.8595125061
 20
131.9409345416
 40
2.0
 50
191.5157406164
 51
295.0
  0
ARC
  8
0
 62
7
  6
CONTINUOUS
 10
120.3180010353
 20
108.4068928147
 40
2.0
 50
324.0
 51
54.0
  0
ARC
  8
0
 62
7
  6
CONTINUOUS
 10
99.5032070424
 20
106.7925640077
 40
2.0
 50
149.0
 51
252.4842593836
  0
ARC
  8
0
 62
7
  6
CONTINUOUS
 10
118.2954585494
 20
109.8763559454
 40
2.0
 50
54.0
 51
144.0
  0
ARC
  8
0
 62
9
  6
CONTINUOUS
 10
123.1922656962
 20
89.5814554472
 40
0.9999999983
 50
215.5157406164
 51
319.0
  0
ARC
  8
0
 62
9
  6
CONTINUOUS
 10
76.8595125061
 20
131.9409345416
 40
0.9999999983
 50
191.5157406164
 51
295.0
  0
ARC
  8
0
 62
9
  6
CONTINUOUS
 10
54.0549375703
 20
172.5209137315
 40
16.0000000001
 50
30.0
 51
91.0
  0
ARC
  8
0
 62
7
  6
CONTINUOUS
 10
65.1864758054
 20
186.5111161094
 40
15.75
 50
96.0
 51
167.5157406164
  0
ARC
  8
0
 62
7
  6
CONTINUOUS
 10
71.3327235785
 20
167.5949105229
 40
15.75
 50
228.4842593836
 51
300.0
  0
ARC
  8
0
 62
7
  6
CONTINUOUS
 10
54.0549375703
 20
172.5209137315
 40
15.0
 50
30.0
 51
91.0
  0
ARC
  8
0
 62
7
  6
CONTINUOUS
 10
54.1038853383
 20
172.3702679915
 40
15.0
 50
305.0
 51
6.0
  0
ARC
  8
0
 62
9
  6
CONTINUOUS
 10
65.1864758054
 20
186.5111161094
 40
14.75
 50
96.0
 51
167.5157406164
  0
ARC
  8
0
 62
9
  6
CONTINUOUS
 10
81.8907362804
 20
150.3078960963
 40
2.9999999958
 50
300.0
 51
30.0
  0
ARC
  8
0
 62
9
  6
CONTINUOUS
 10
63.8283565301
 20
204.2161439839
 40
2.9999999958
 50
276.0
 51
6.0
  0
ARC
  8
0
 62
7
  6
CONTINUOUS
 10
51.7615886185
 20
189.4834727534
 40
2.0
 50
167.5157406164
 51
271.0
  0
ARC
  8
0
 62
7
  6
CONTINUOUS
 10
81.8907362804
 20
150.3078960963
 40
2.0
 50
300.0
 51
30.0
  0
ARC
  8
0
 62
7
  6
CONTINUOUS
 10
63.8283565301
 20
204.2161439839
 40
2.0
 50
276.0
 51
6.0
  0
ARC
  8
0
 62
7
  6
CONTINUOUS
 10
62.2188690965
 20
157.2992727825
 40
2.0
 50
125.0
 51
228.4842593836
  0
ARC
  8
0
 62
7
  6
CONTINUOUS
 10
63.5670353719
 20
206.7024487223
 40
2.0
 50
6.0
 51
96.0
  0
ARC
  8
0
 62
7
  6
CONTINUOUS
 10
80.6407362804
 20
152.4729596058
 40
2.0
 50
30.0
 51
120.0
  0
ARC
  8
0
 62
9
  6
CONTINUOUS
 10
51.7615886185
 20
189.4834727534
 40
0.9999999983
 50
167.5157406164
 51
271.0
  0
ARC
  8
0
 62
9
  6
CONTINUOUS
 10
199.5895303334
 20
66.6687596883
 40
16.0000000001
 50
102.0
 51
163.0
  0
ARC
  8
0
 62
9
  6
CONTINUOUS
 10
137.3324536349
 20
79.93557845
 40
16.0000000001
 50
78.0
 51
139.0
  0
ARC
  8
0
 62
7
  6
CONTINUOUS
 10
134.3841600593
 20
97.5691960893
 40
15.75
 50
144.0
 51
215.5157406164
  0
ARC
  8
0
 62
7
  6
CONTINUOUS
 10
189.7238916857
 20
81.5786919528
 40
15.75
 50
168.0
 51
239.5157406164
  0
ARC
  8
0
 62
7
  6
CONTINUOUS
 10
152.5542828578
 20
89.4793362039
 40
15.75
 50
276.4842593836
 51
348.0
  0
ARC
  8
0
 62
7
  6
CONTINUOUS
 10
199.5895303334
 20
66.6687596883
 40
15.0
 50
102.0
 51
163.0
  0
ARC
  8
0
 62
7
  6
CONTINUOUS
 10
137.3324536349
 20
79.93557845
 40
15.0
 50
78.0
 51
139.0
  0
ARC
  8
0
 62
7
  6
CONTINUOUS
 10
137.4771576868
 20
79.8711520552
 40
15.0
 50
353.0
 51
54.0
  0
ARC
  8
0
 62
9
  6
CONTINUOUS
 10
189.7238916857
 20
81.5786919528
 40
14.75
 50
168.0
 51
239.5157406164
  0
ARC
  8
0
 62
9
  6
CONTINUOUS
 10
134.3841600593
 20
97.5691960893
 40
14.75
 50
144.0
 51
215.5157406164
  0
ARC
  8
0
 62
9
  6
CONTINUOUS
 10
172.4657276181
 20
85.7581982652
 40
2.9999999958
 50
348.0
 51
78.0
  0
ARC
  8
0
 62
7
  6
CONTINUOUS
 10
182.7484942424
 20
69.7293742295
 40
2.0
 50
239.5157406164
 51
343.0
  0
ARC
  8
0
 62
7
  6
CONTINUOUS
 10
172.4657276181
 20
85.7581982652
 40
2.0
 50
348.0
 51
78.0
  0
ARC
  8
0
 62
7
  6
CONTINUOUS
 10
154.1070737939
 20
75.8172960814
 40
2.0
 50
173.0
 51
276.4842593836
  0
ARC
  8
0
 62
7
  6
CONTINUOUS
 10
170.0203586163
 20
86.2779774922
 40
2.0
 50
78.0
 51
168.0
  0
ARC
  8
0
 62
9
  6
CONTINUOUS
 10
182.7484942424
 20
69.7293742295
 40
0.9999999983
 50
239.5157406164
 51
343.0
  0
ARC
  8
0
 62
7
  6
CONTINUOUS
 10
193.2736831035
 20
157.9803805269
 40
3.2
 50
2.2544307753
 51
45.0
  0
ARC
  8
0
 62
7
  6
CONTINUOUS
 10
189.0310424164
 20
162.223021214
 40
3.2
 50
45.0
 51
86.4096221093
  0
ARC
  8
0
 62
7
  6
CONTINUOUS
 10
189.4318290567
 20
168.6104596731
 40
3.2
 50
225.0
 51
266.4096221093
  0
ARC
  8
0
 62
7
  6
CONTINUOUS
 10
148.5287613079
 20
209.5135274219
 40
3.2
 50
183.5903778907
 51
225.0
  0
ARC
  8
0
 62
7
  6
CONTINUOUS
 10
142.1413228488
 20
209.1127407816
 40
3.2
 50
3.5903778907
 51
45.0
  0
ARC
  8
0
 62
7
  6
CONTINUOUS
 10
137.8986821617
 20
213.3553814688
 40
3.2
 50
45.0
 51
87.7455692247
  0
ARC
  8
0
 62
9
  6
CONTINUOUS
 10
47.4339372841
 20
235.8305846697
 40
16.0000000001
 50
6.0
 51
67.0
  0
ARC
  8
0
 62
7
  6
CONTINUOUS
 10
63.2934314266
 20
244.0836660095
 40
15.75
 50
72.0
 51
143.5157406164
  0
ARC
  8
0
 62
7
  6
CONTINUOUS
 10
75.0360772129
 20
280.2238136288
 40
15.75
 50
180.4842593836
 51
252.0
  0
ARC
  8
0
 62
7
  6
CONTINUOUS
 10
61.2143942013
 20
224.3029481334
 40
15.75
 50
204.4842593836
 51
276.0
  0
ARC
  8
0
 62
7
  6
CONTINUOUS
 10
47.4339372841
 20
235.8305846697
 40
15.0
 50
6.0
 51
67.0
  0
ARC
  8
0
 62
7
  6
CONTINUOUS
 10
47.4173801528
 20
235.6730540874
 40
15.0
 50
281.0
 51
342.0
  0
ARC
  8
0
 62
9
  6
CONTINUOUS
 10
63.2934314266
 20
244.0836660095
 40
14.75
 50
72.0
 51
143.5157406164
  0
ARC
  8
0
 62
9
  6
CONTINUOUS
 10
69.2540113349
 20
260.8104106766
 40
2.9999999958
 50
252.0
 51
342.0
  0
ARC
  8
0
 62
7
  6
CONTINUOUS
 10
52.238153081
 20
252.2594424682
 40
2.0
 50
143.5157406164
 51
247.0
  0
ARC
  8
0
 62
7
  6
CONTINUOUS
 10
69.2540113349
 20
260.8104106766
 40
2.0
 50
252.0
 51
342.0
  0
ARC
  8
0
 62
7
  6
CONTINUOUS
 10
61.2865683253
 20
280.1076011031
 40
2.0
 50
77.0
 51
180.4842593836
  0
ARC
  8
0
 62
7
  6
CONTINUOUS
 10
48.7008607048
 20
218.6043536196
 40
2.0
 50
101.0
 51
204.4842593836
  0
ARC
  8
0
 62
7
  6
CONTINUOUS
 10
70.0265538209
 20
263.1880519673
 40
2.0
 50
342.0
 51
72.0
  0
ARC
  8
0
 62
9
  6
CONTINUOUS
 10
52.238153081
 20
252.2594424682
 40
0.9999999983
 50
143.5157406164
 51
247.0
  0
ARC
  8
0
 62
9
  6
CONTINUOUS
 10
67.1357155794
 20
296.3598504103
 40
16.0000000001
 50
342.0
 51
43.0
  0
ARC
  8
0
 62
9
  6
CONTINUOUS
 10
109.7536560036
 20
343.6426510157
 40
16.0000000001
 50
318.0
 51
19.0
  0
ARC
  8
0
 62
7
  6
CONTINUOUS
 10
84.980915013
 20
297.4487779715
 40
15.75
 50
48.0
 51
119.5157406164
  0
ARC
  8
0
 62
7
  6
CONTINUOUS
 10
110.4078780546
 20
325.6882813397
 40
15.75
 50
156.4842593836
 51
228.0
  0
ARC
  8
0
 62
7
  6
CONTINUOUS
 10
67.1357155794
 20
296.3598504103
 40
15.0
 50
342.0
 51
43.0
  0
ARC
  8
0
 62
7
  6
CONTINUOUS
 10
109.7536560036
 20
343.6426510157
 40
15.0
 50
318.0
 51
19.0
  0
ARC
  8
0
 62
7
  6
CONTINUOUS
 10
109.6255090832
 20
343.5495468281
 40
15.0
 50
233.0
 51
294.0
  0
ARC
  8
0
 62
7
  6
CONTINUOUS
 10
67.056516427
 20
296.2226734544
 40
15.0
 50
257.0
 51
318.0
  0
ARC
  8
0
 62
9
  6
CONTINUOUS
 10
84.980915013
 20
297.4487779715
 40
14.75
 50
48.0
 51
119.5157406164
  0
ARC
  8
0
 62
9
  6
CONTINUOUS
 10
97.2295556886
 20
310.3050333206
 40
2.9999999958
 50
228.0
 51
318.0
  0
ARC
  8
0
 62
7
  6
CONTINUOUS
 10
78.2068035687
 20
309.4143082206
 40
2.0
 50
119.5157406164
 51
223.0
  0
ARC
  8
0
 62
7
  6
CONTINUOUS
 10
97.2295556886
 20
310.3050333206
 40
2.0
 50
228.0
 51
318.0
  0
ARC
  8
0
 62
7
  6
CONTINUOUS
 10
97.799808773
 20
331.1745450035
 40
2.0
 50
53.0
 51
156.4842593836
  0
ARC
  8
0
 62
7
  6
CONTINUOUS
 10
98.9023822045
 20
312.1628953843
 40
2.0
 50
318.0
 51
48.0
  0
ARC
  8
0
 62
9
  6
CONTINUOUS
 10
78.2068035687
 20
309.4143082206
 40
0.9999999983
 50
119.5157406164
 51
223.0
  0
ARC
  8
0
 62
7
  6
CONTINUOUS
 10
133.2006920542
 20
219.750427851
 40
8.0
 50
135.0
 51
225.0
  0
ARC
  8
0
 62
7
  6
CONTINUOUS
 10
138.1504395225
 20
219.750427851
 40
3.2
 50
92.2544307754
 51
267.7455692246
  0
ARC
  8
0
 62
7
  6
CONTINUOUS
 10
137.8986821617
 20
226.1454742333
 40
3.2
 50
272.2544307753
 51
315.0
  0
ARC
  8
0
 62
7
  6
CONTINUOUS
 10
142.1413228488
 20
230.3881149204
 40
3.2
 50
315.0
 51
356.4096221093
  0
ARC
  8
0
 62
7
  6
CONTINUOUS
 10
148.5287613079
 20
229.9873282801
 40
3.2
 50
135.0
 51
176.4096221093
  0
ARC
  8
0
 62
7
  6
CONTINUOUS
 10
189.4318290567
 20
270.8903960289
 40
3.2
 50
93.5903778907
 51
135.0
  0
ARC
  8
0
 62
7
  6
CONTINUOUS
 10
189.0310424164
 20
277.277834488
 40
3.2
 50
273.5903778907
 51
315.0
  0
ARC
  8
0
 62
7
  6
CONTINUOUS
 10
193.2736831035
 20
281.5204751752
 40
3.2
 50
315.0
 51
357.7455692247
  0
ARC
  8
0
 62
9
  6
CONTINUOUS
 10
167.9187294858
 20
369.5033607104
 40
16.0000000001
 50
294.0
 51
355.0
  0
ARC
  8
0
 62
7
  6
CONTINUOUS
 10
180.6687294858
 20
356.970427851
 40
15.75
 50
0.0
 51
71.5157406164
  0
ARC
  8
0
 62
7
  6
CONTINUOUS
 10
126.4989636277
 20
337.3791393303
 40
15.75
 50
24.0
 51
95.5157406164
  0
ARC
  8
0
 62
7
  6
CONTINUOUS
 10
161.2136910181
 20
352.8351317672
 40
15.75
 50
132.4842593836
 51
204.0
  0
ARC
  8
0
 62
7
  6
CONTINUOUS
 10
167.9187294858
 20
369.5033607104
 40
15.0
 50
294.0
 51
355.0
  0
ARC
  8
0
 62
7
  6
CONTINUOUS
 10
167.7637925639
 20
369.470427851
 40
15.0
 50
209.0
 51
270.0
  0
ARC
  8
0
 62
9
  6
CONTINUOUS
 10
126.4989636277
 20
337.3791393303
 40
14.75
 50
24.0
 51
95.5157406164
  0
ARC
  8
0
 62
9
  6
CONTINUOUS
 10
180.6687294858
 20
356.970427851
 40
14.75
 50
0.0
 51
71.5157406164
  0
ARC
  8
0
 62
9
  6
CONTINUOUS
 10
142.9177638224
 20
344.1419420161
 40
2.9999999958
 50
204.0
 51
294.0
  0
ARC
  8
0
 62
9
  6
CONTINUOUS
 10
198.4187294858
 20
356.470427851
 40
2.9999999958
 50
180.0
 51
270.0
  0
ARC
  8
0
 62
7
  6
CONTINUOUS
 10
185.0280860762
 20
370.011076229
 40
2.0
 50
71.5157406164
 51
175.0
  0
ARC
  8
0
 62
7
  6
CONTINUOUS
 10
125.1773244943
 20
351.0654744863
 40
2.0
 50
95.5157406164
 51
199.0
  0
ARC
  8
0
 62
7
  6
CONTINUOUS
 10
198.4187294858
 20
356.470427851
 40
2.0
 50
180.0
 51
270.0
  0
ARC
  8
0
 62
7
  6
CONTINUOUS
 10
142.9177638224
 20
344.1419420161
 40
2.0
 50
204.0
 51
294.0
  0
ARC
  8
0
 62
7
  6
CONTINUOUS
 10
151.9271110619
 20
362.975246792
 40
2.0
 50
29.0
 51
132.4842593836
  0
ARC
  8
0
 62
7
  6
CONTINUOUS
 10
145.2016274665
 20
345.1587836238
 40
2.0
 50
294.0
 51
24.0
  0
ARC
  8
0
 62
9
  6
CONTINUOUS
 10
125.1773244943
 20
351.0654744863
 40
0.9999999983
 50
95.5157406164
 51
199.0
  0
ARC
  8
0
 62
9
  6
CONTINUOUS
 10
185.0280860762
 20
370.011076229
 40
0.9999999983
 50
71.5157406164
 51
175.0
  0
ARC
  8
0
 62
9
  6
CONTINUOUS
 10
261.8603012848
 20
79.8711520552
 40
16.0000000001
 50
126.0
 51
187.0
  0
ARC
  8
0
 62
7
  6
CONTINUOUS
 10
246.7831761137
 20
89.4793362039
 40
15.75
 50
192.0
 51
263.5157406164
  0
ARC
  8
0
 62
7
  6
CONTINUOUS
 10
209.6135672858
 20
81.5786919528
 40
15.75
 50
300.4842593836
 51
12.0
  0
ARC
  8
0
 62
7
  6
CONTINUOUS
 10
264.9532989122
 20
97.5691960893
 40
15.75
 50
324.4842593836
 51
36.0
  0
ARC
  8
0
 62
7
  6
CONTINUOUS
 10
261.8603012848
 20
79.8711520552
 40
15.0
 50
126.0
 51
187.0
  0
ARC
  8
0
 62
7
  6
CONTINUOUS
 10
199.7479286382
 20
66.6687596883
 40
15.0
 50
17.0
 51
78.0
  0
ARC
  8
0
 62
7
  6
CONTINUOUS
 10
262.0050053367
 20
79.93557845
 40
15.0
 50
41.0
 51
102.0
  0
ARC
  8
0
 62
9
  6
CONTINUOUS
 10
246.7831761137
 20
89.4793362039
 40
14.75
 50
192.0
 51
263.5157406164
  0
ARC
  8
0
 62
9
  6
CONTINUOUS
 10
229.3171003553
 20
86.2779774922
 40
2.9999999958
 50
12.0
 51
102.0
  0
ARC
  8
0
 62
7
  6
CONTINUOUS
 10
245.2303851777
 20
75.8172960814
 40
2.0
 50
263.5157406164
 51
7.0
  0
ARC
  8
0
 62
7
  6
CONTINUOUS
 10
229.3171003553
 20
86.2779774922
 40
2.0
 50
12.0
 51
102.0
  0
ARC
  8
0
 62
7
  6
CONTINUOUS
 10
216.5889647291
 20
69.7293742295
 40
2.0
 50
197.0
 51
300.4842593836
  0
ARC
  8
0
 62
7
  6
CONTINUOUS
 10
226.8717313535
 20
85.7581982652
 40
2.0
 50
102.0
 51
192.0
  0
ARC
  8
0
 62
9
  6
CONTINUOUS
 10
245.2303851777
 20
75.8172960814
 40
0.9999999983
 50
263.5157406164
 51
7.0
  0
ARC
  8
0
 62
7
  6
CONTINUOUS
 10
199.6687294858
 20
153.2823904195
 40
8.0
 50
225.0
 51
315.0
  0
ARC
  8
0
 62
7
  6
CONTINUOUS
 10
261.4387768099
 20
213.3553814688
 40
3.2
 50
92.2544307754
 51
135.0
  0
ARC
  8
0
 62
7
  6
CONTINUOUS
 10
257.1961361228
 20
209.1127407816
 40
3.2
 50
135.0
 51
176.4096221093
  0
ARC
  8
0
 62
7
  6
CONTINUOUS
 10
250.8086976637
 20
209.5135274219
 40
3.2
 50
315.0
 51
356.4096221093
  0
ARC
  8
0
 62
7
  6
CONTINUOUS
 10
209.9056299149
 20
168.6104596731
 40
3.2
 50
273.5903778907
 51
315.0
  0
ARC
  8
0
 62
7
  6
CONTINUOUS
 10
210.3064165552
 20
162.223021214
 40
3.2
 50
93.5903778907
 51
135.0
  0
ARC
  8
0
 62
7
  6
CONTINUOUS
 10
206.063775868
 20
157.9803805269
 40
3.2
 50
135.0
 51
177.7455692247
  0
ARC
  8
0
 62
7
  6
CONTINUOUS
 10
199.6687294858
 20
158.2321378878
 40
3.2
 50
182.2544307753
 51
357.7455692247
  0
ARC
  8
0
 62
9
  6
CONTINUOUS
 10
313.3775844795
 20
117.2599419706
 40
16.0000000001
 50
150.0
 51
211.0
  0
ARC
  8
0
 62
7
  6
CONTINUOUS
 10
295.6959446985
 20
119.9050356765
 40
15.75
 50
216.0
 51
287.5157406164
  0
ARC
  8
0
 62
7
  6
CONTINUOUS
 10
309.0047353931
 20
134.6859451791
 40
15.75
 50
348.4842593836
 51
60.0
  0
ARC
  8
0
 62
7
  6
CONTINUOUS
 10
313.3775844795
 20
117.2599419706
 40
15.0
 50
150.0
 51
211.0
  0
ARC
  8
0
 62
7
  6
CONTINUOUS
 10
313.4835736332
 20
117.3776548512
 40
15.0
 50
65.0
 51
126.0
  0
ARC
  8
0
 62
9
  6
CONTINUOUS
 10
295.6959446985
 20
119.9050356765
 40
14.75
 50
216.0
 51
287.5157406164
  0
ARC
  8
0
 62
9
  6
CONTINUOUS
 10
281.0420004222
 20
109.8763559454
 40
2.9999999958
 50
36.0
 51
126.0
  0
ARC
  8
0
 62
7
  6
CONTINUOUS
 10
299.8342519292
 20
106.7925640077
 40
2.0
 50
287.5157406164
 51
31.0
  0
ARC
  8
0
 62
7
  6
CONTINUOUS
 10
281.0420004222
 20
109.8763559454
 40
2.0
 50
36.0
 51
126.0
  0
ARC
  8
0
 62
7
  6
CONTINUOUS
 10
276.1451932753
 20
89.5814554472
 40
2.0
 50
221.0
 51
324.4842593836
  0
ARC
  8
0
 62
7
  6
CONTINUOUS
 10
322.4779464654
 20
131.9409345416
 40
2.0
 50
245.0
 51
348.4842593836
  0
ARC
  8
0
 62
7
  6
CONTINUOUS
 10
279.0194579362
 20
108.4068928147
 40
2.0
 50
126.0
 51
216.0
  0
ARC
  8
0
 62
9
  6
CONTINUOUS
 10
299.8342519292
 20
106.7925640077
 40
0.9999999983
 50
287.5157406164
 51
31.0
  0
ARC
  8
0
 62
9
  6
CONTINUOUS
 10
345.2335736332
 20
172.3702679915
 40
16.0000000001
 50
174.0
 51
235.0
  0
ARC
  8
0
 62
7
  6
CONTINUOUS
 10
328.0047353931
 20
167.5949105229
 40
15.75
 50
240.0
 51
311.5157406164
  0
ARC
  8
0
 62
7
  6
CONTINUOUS
 10
334.1509831661
 20
186.5111161094
 40
15.75
 50
12.4842593836
 51
84.0
  0
ARC
  8
0
 62
7
  6
CONTINUOUS
 10
345.2335736332
 20
172.3702679915
 40
15.0
 50
174.0
 51
235.0
  0
ARC
  8
0
 62
7
  6
CONTINUOUS
 10
345.2825214013
 20
172.5209137315
 40
15.0
 50
89.0
 51
150.0
  0
ARC
  8
0
 62
9
  6
CONTINUOUS
 10
328.0047353931
 20
167.5949105229
 40
14.75
 50
240.0
 51
311.5157406164
  0
ARC
  8
0
 62
9
  6
CONTINUOUS
 10
335.7704235996
 20
206.7024487223
 40
2.9999999958
 50
84.0
 51
174.0
  0
ARC
  8
0
 62
9
  6
CONTINUOUS
 10
318.6967226912
 20
152.4729596058
 40
2.9999999958
 50
60.0
 51
150.0
  0
ARC
  8
0
 62
7
  6
CONTINUOUS
 10
335.7704235996
 20
206.7024487223
 40
2.0
 50
84.0
 51
174.0
  0
ARC
  8
0
 62
7
  6
CONTINUOUS
 10
337.118589875
 20
157.2992727825
 40
2.0
 50
311.5157406164
 51
55.0
  0
ARC
  8
0
 62
7
  6
CONTINUOUS
 10
318.6967226912
 20
152.4729596058
 40
2.0
 50
60.0
 51
150.0
  0
ARC
  8
0
 62
7
  6
CONTINUOUS
 10
347.575870353
 20
189.4834727534
 40
2.0
 50
269.0
 51
12.4842593836
  0
ARC
  8
0
 62
7
  6
CONTINUOUS
 10
317.4467226912
 20
150.3078960963
 40
2.0
 50
150.0
 51
240.0
  0
ARC
  8
0
 62
7
  6
CONTINUOUS
 10
335.5091024414
 20
204.2161439839
 40
2.0
 50
174.0
 51
264.0
  0
ARC
  8
0
 62
9
  6
CONTINUOUS
 10
337.118589875
 20
157.2992727825
 40
0.9999999983
 50
311.5157406164
 51
55.0
  0
ARC
  8
0
 62
4
  6
CONTINUOUS
 10
199.6687294858
 20
219.750427851
 40
152.9722189358
 50
60.8510364862
 51
74.8417819291
  0
CIRCLE
  8
0
 62
9
  6
CONTINUOUS
 10
199.6687294858
 20
219.750427851
 40
130.0
  0
CIRCLE
  8
0
 62
9
  6
CONTINUOUS
 10
199.6687294858
 20
219.750427851
 40
125.6698729811
  0
CIRCLE
  8
0
 62
9
  6
CONTINUOUS
 10
199.6687294858
 20
219.750427851
 40
122.2057713659
  0
CIRCLE
  8
0
 62
9
  6
CONTINUOUS
 10
199.6687294858
 20
219.750427851
 40
117.875644347
  0
ARC
  8
0
 62
7
  6
CONTINUOUS
 10
266.1367669173
 20
219.750427851
 40
8.0
 50
315.0
 51
45.0
  0
ARC
  8
0
 62
7
  6
CONTINUOUS
 10
199.6687294858
 20
286.2184652826
 40
8.0
 50
45.0
 51
135.0
  0
ARC
  8
0
 62
7
  6
CONTINUOUS
 10
261.4387768099
 20
226.1454742333
 40
3.2
 50
225.0
 51
267.7455692246
  0
ARC
  8
0
 62
7
  6
CONTINUOUS
 10
261.187019449
 20
219.750427851
 40
3.2
 50
272.2544307753
 51
87.7455692247
  0
ARC
  8
0
 62
7
  6
CONTINUOUS
 10
199.6687294858
 20
281.2687178143
 40
3.2
 50
2.2544307754
 51
177.7455692246
  0
ARC
  8
0
 62
7
  6
CONTINUOUS
 10
206.063775868
 20
281.5204751752
 40
3.2
 50
182.2544307753
 51
225.0
  0
ARC
  8
0
 62
7
  6
CONTINUOUS
 10
210.3064165552
 20
277.277834488
 40
3.2
 50
225.0
 51
266.4096221093
  0
ARC
  8
0
 62
7
  6
CONTINUOUS
 10
209.9056299149
 20
270.8903960289
 40
3.2
 50
45.0
 51
86.4096221093
  0
ARC
  8
0
 62
7
  6
CONTINUOUS
 10
250.8086976637
 20
229.9873282801
 40
3.2
 50
3.5903778907
 51
45.0
  0
ARC
  8
0
 62
7
  6
CONTINUOUS
 10
257.1961361228
 20
230.3881149204
 40
3.2
 50
183.5903778907
 51
225.0
  0
ARC
  8
0
 62
9
  6
CONTINUOUS
 10
231.5736664076
 20
369.470427851
 40
16.0000000001
 50
270.0
 51
331.0
  0
ARC
  8
0
 62
7
  6
CONTINUOUS
 10
238.1237679534
 20
352.8351317672
 40
15.75
 50
336.0
 51
47.5157406164
  0
ARC
  8
0
 62
7
  6
CONTINUOUS
 10
218.6687294858
 20
356.970427851
 40
15.75
 50
108.4842593836
 51
180.0
  0
ARC
  8
0
 62
7
  6
CONTINUOUS
 10
272.8384953438
 20
337.3791393303
 40
15.75
 50
84.4842593836
 51
156.0
  0
ARC
  8
0
 62
7
  6
CONTINUOUS
 10
231.5736664076
 20
369.470427851
 40
15.0
 50
270.0
 51
331.0
  0
ARC
  8
0
 62
7
  6
CONTINUOUS
 10
231.4187294858
 20
369.5033607104
 40
15.0
 50
185.0
 51
246.0
  0
ARC
  8
0
 62
9
  6
CONTINUOUS
 10
238.1237679534
 20
352.8351317672
 40
14.75
 50
336.0
 51
47.5157406164
  0
ARC
  8
0
 62
9
  6
CONTINUOUS
 10
254.135831505
 20
345.1587836238
 40
2.9999999958
 50
156.0
 51
246.0
  0
ARC
  8
0
 62
7
  6
CONTINUOUS
 10
247.4103479096
 20
362.975246792
 40
2.0
 50
47.5157406164
 51
151.0
  0
ARC
  8
0
 62
7
  6
CONTINUOUS
 10
254.135831505
 20
345.1587836238
 40
2.0
 50
156.0
 51
246.0
  0
ARC
  8
0
 62
7
  6
CONTINUOUS
 10
214.3093728954
 20
370.011076229
 40
2.0
 50
5.0
 51
108.4842593836
  0
ARC
  8
0
 62
7
  6
CONTINUOUS
 10
274.1601344772
 20
351.0654744863
 40
2.0
 50
341.0
 51
84.4842593836
  0
ARC
  8
0
 62
7
  6
CONTINUOUS
 10
200.9187294858
 20
356.470427851
 40
2.0
 50
270.0
 51
360.0
  0
ARC
  8
0
 62
7
  6
CONTINUOUS
 10
256.4196951492
 20
344.1419420161
 40
2.0
 50
246.0
 51
336.0
  0
CIRCLE
  8
0
 62
7
  6
CONTINUOUS
 10
199.6687294858
 20
334.750427851
 40
1.7320508076
  0
ARC
  8
0
 62
9
  6
CONTINUOUS
 10
247.4103479096
 20
362.975246792
 40
0.9999999983
 50
47.5157406164
 51
151.0
  0
ARC
  8
0
 62
9
  6
CONTINUOUS
 10
351.9200788188
 20
235.6730540874
 40
16.0000000001
 50
198.0
 51
259.0
  0
ARC
  8
0
 62
7
  6
CONTINUOUS
 10
338.1230647703
 20
224.3029481334
 40
15.75
 50
264.0
 51
335.5157406164
  0
ARC
  8
0
 62
7
  6
CONTINUOUS
 10
324.3013817587
 20
280.2238136288
 40
15.75
 50
288.0
 51
359.5157406164
  0
ARC
  8
0
 62
7
  6
CONTINUOUS
 10
336.0440275449
 20
244.0836660095
 40
15.75
 50
36.4842593836
 51
108.0
  0
ARC
  8
0
 62
7
  6
CONTINUOUS
 10
351.9200788188
 20
235.6730540874
 40
15.0
 50
198.0
 51
259.0
  0
ARC
  8
0
 62
7
  6
CONTINUOUS
 10
351.9035216874
 20
235.8305846697
 40
15.0
 50
113.0
 51
174.0
  0
ARC
  8
0
 62
9
  6
CONTINUOUS
 10
324.3013817587
 20
280.2238136288
 40
14.75
 50
288.0
 51
359.5157406164
  0
ARC
  8
0
 62
9
  6
CONTINUOUS
 10
338.1230647703
 20
224.3029481334
 40
14.75
 50
264.0
 51
335.5157406164
  0
ARC
  8
0
 62
9
  6
CONTINUOUS
 10
329.3109051507
 20
263.1880519673
 40
2.9999999958
 50
108.0
 51
198.0
  0
ARC
  8
0
 62
7
  6
CONTINUOUS
 10
329.3109051507
 20
263.1880519673
 40
2.0
 50
108.0
 51
198.0
  0
ARC
  8
0
 62
7
  6
CONTINUOUS
 10
350.6365982667
 20
218.6043536196
 40
2.0
 50
335.5157406164
 51
79.0
  0
ARC
  8
0
 62
7
  6
CONTINUOUS
 10
338.0508906462
 20
280.1076011031
 40
2.0
 50
359.5157406164
 51
103.0
  0
ARC
  8
0
 62
7
  6
CONTINUOUS
 10
347.0993058905
 20
252.2594424682
 40
2.0
 50
293.0
 51
36.4842593836
  0
ARC
  8
0
 62
7
  6
CONTINUOUS
 10
330.0834476366
 20
260.8104106766
 40
2.0
 50
198.0
 51
288.0
  0
ARC
  8
0
 62
9
  6
CONTINUOUS
 10
338.0508906462
 20
280.1076011031
 40
0.9999999983
 50
359.5157406164
 51
103.0
  0
ARC
  8
0
 62
9
  6
CONTINUOUS
 10
350.6365982667
 20
218.6043536196
 40
0.9999999983
 50
335.5157406164
 51
79.0
  0
ARC
  8
0
 62
9
  6
CONTINUOUS
 10
289.7119498884
 20
343.5495468281
 40
16.0000000001
 50
246.0
 51
307.0
  0
ARC
  8
0
 62
9
  6
CONTINUOUS
 10
332.2809425446
 20
296.2226734544
 40
16.0000000001
 50
222.0
 51
283.0
  0
ARC
  8
0
 62
7
  6
CONTINUOUS
 10
288.929580917
 20
325.6882813397
 40
15.75
 50
312.0
 51
23.5157406164
  0
ARC
  8
0
 62
7
  6
CONTINUOUS
 10
314.3565439586
 20
297.4487779715
 40
15.75
 50
60.4842593836
 51
132.0
  0
ARC
  8
0
 62
7
  6
CONTINUOUS
 10
289.7119498884
 20
343.5495468281
 40
15.0
 50
246.0
 51
307.0
  0
ARC
  8
0
 62
7
  6
CONTINUOUS
 10
332.2809425446
 20
296.2226734544
 40
15.0
 50
222.0
 51
283.0
  0
ARC
  8
0
 62
7
  6
CONTINUOUS
 10
332.2017433922
 20
296.3598504103
 40
15.0
 50
137.0
 51
198.0
  0
ARC
  8
0
 62
7
  6
CONTINUOUS
 10
289.5838029679
 20
343.6426510157
 40
15.0
 50
161.0
 51
222.0
  0
ARC
  8
0
 62
9
  6
CONTINUOUS
 10
288.929580917
 20
325.6882813397
 40
14.75
 50
312.0
 51
23.5157406164
  0
ARC
  8
0
 62
9
  6
CONTINUOUS
 10
300.4350767671
 20
312.1628953843
 40
2.9999999958
 50
132.0
 51
222.0
  0
ARC
  8
0
 62
7
  6
CONTINUOUS
 10
301.5376501986
 20
331.1745450035
 40
2.0
 50
23.5157406164
 51
127.0
  0
ARC
  8
0
 62
7
  6
CONTINUOUS
 10
300.4350767671
 20
312.1628953843
 40
2.0
 50
132.0
 51
222.0
  0
ARC
  8
0
 62
7
  6
CONTINUOUS
 10
321.1306554029
 20
309.4143082206
 40
2.0
 50
317.0
 51
60.4842593836
  0
ARC
  8
0
 62
7
  6
CONTINUOUS
 10
302.107903283
 20
310.3050333206
 40
2.0
 50
222.0
 51
312.0
  0
ARC
  8
0
 62
9
  6
CONTINUOUS
 10
301.5376501986
 20
331.1745450035
 40
0.9999999983
 50
23.5157406164
 51
127.0
  0
ARC
  8
0
 62
7
  6
CONTINUOUS
 10
427.5856468818
 20
68.7293742295
 40
1.0
 50
179.9999999038
 51
270.0
  0
ARC
  8
0
 62
7
  6
CONTINUOUS
 10
427.5856468818
 20
74.8172960814
 40
1.0
 50
179.9999994299
 51
270.0
  0
ARC
  8
0
 62
7
  6
CONTINUOUS
 10
427.5856468818
 20
105.1550356765
 40
1.0
 50
179.9999999901
 51
270.0
  0
ARC
  8
0
 62
7
  6
CONTINUOUS
 10
427.5856468818
 20
152.8449105229
 40
1.0
 50
179.9999999981
 51
270.0
  0
ARC
  8
0
 62
7
  6
CONTINUOUS
 10
427.5856468818
 20
209.5529481334
 40
1.0
 50
179.9999999955
 51
270.0
  0
ARC
  8
0
 62
7
  6
CONTINUOUS
 10
427.5856468818
 20
281.1076011031
 40
1.0
 50
90.0
 51
180.0000002186
  0
ARC
  8
0
 62
7
  6
CONTINUOUS
 10
427.5856468818
 20
332.1745450035
 40
1.0
 50
90.0
 51
180.0000000292
  0
ARC
  8
0
 62
7
  6
CONTINUOUS
 10
427.5856468818
 20
363.975246792
 40
1.0
 50
90.0
 51
180.0000000249
  0
ARC
  8
0
 62
7
  6
CONTINUOUS
 10
427.5856468818
 20
371.011076229
 40
1.0
 50
90.0
 51
180.000000199
  0
ARC
  8
0
 62
7
  6
CONTINUOUS
 10
457.5856468818
 20
371.011076229
 40
1.0
 50
359.999999801
 51
90.0
  0
ARC
  8
0
 62
7
  6
CONTINUOUS
 10
457.5856468818
 20
352.1291393303
 40
1.0
 50
0.0
 51
90.0
  0
ARC
  8
0
 62
7
  6
CONTINUOUS
 10
457.5856468818
 20
312.1987779715
 40
1.0
 50
0.0
 51
90.0
  0
ARC
  8
0
 62
7
  6
CONTINUOUS
 10
457.5856468818
 20
258.8336660095
 40
1.0
 50
0.0
 51
90.0
  0
ARC
  8
0
 62
7
  6
CONTINUOUS
 10
457.5856468818
 20
188.4834727534
 40
1.0
 50
270.0
 51
359.9999998701
  0
ARC
  8
0
 62
7
  6
CONTINUOUS
 10
457.5856468818
 20
130.9409345416
 40
1.0
 50
270.0
 51
0.0000001037
  0
ARC
  8
0
 62
7
  6
CONTINUOUS
 10
457.5856468818
 20
88.5814554472
 40
1.0
 50
270.0
 51
360.0
  0
ARC
  8
0
 62
7
  6
CONTINUOUS
 10
457.5856468818
 20
68.7293742295
 40
1.0
 50
270.0
 51
0.0000000962
  0
ENDSEC
  0
EOF
