  0
SECTION
  2
HEADER
  9
$EXTMAX
 10
594.0
 20
420.0
 30
0.0
  9
$EXTMIN
 10
0.0
 20
0.0
 30
0.0
  9
$LIMMIN
 10
0.0
 20
0.0
  9
$LIMMAX
 10
594.0
 20
420.0
  9
$VIEWCTR
 10
297.0
 20
210.0
  9
$VIEWSIZE
 40
420.0
  9
$CLAYER
  8
0
  9
$LTSCALE
 40
32.67
  9
$CELTYPE
  6
BYLAYER
  9
$DIMSCALE
 40
1.0
  9
$DIMASZ
 40
3.5
  9
$DIMEXO
 40
3.7125
  9
$DIMDLI
 40
22.572
  9
$DIMEXE
 40
10.692
  9
$DIMCEN
 40
5.346
  9
$DIMLFAC
 40
1.0
  9
$DIMBLK
  1
_FILLED
  9
$DIMTXT
 40
3.5
  9
$PDMODE
 70
3
  9
$PDSIZE
 40
0.3125
  9
$TILEMODE
 70
1
  0
ENDSEC
  0
SECTION
  2
TABLES
  0
TABLE
  2
LTYPE
 70
6
  0
LTYPE
  2
BYBLOCK
 70
0
  3

 72
65
 73
0
 40
0.0
  0
LTYPE
  2
BYLAYER
 70
0
  3

 72
65
 73
0
 40
0.0
  0
LTYPE
  2
CONTINUOUS
 70
64
  3
Solid line
 72
65
 73
0
 40
0.0
  0
LTYPE
  2
CENTER
 70
64
  3
____ _ ____ _ ____ _ ____ _ ____ _ ____ _ ____
 72
65
 73
4
 40
0.6
 49
0.375
 49
-0.075
 49
0.075
 49
-0.075
  0
LTYPE
  2
HIDDEN
 70
64
  3
- - - - - - - - - - - - - - - - - - - -
 72
65
 73
2
 40
0.2
 49
0.1
 49
-0.1
  0
LTYPE
  2
PHANTOM
 70
64
  3
_____ _ _ _____ _ _ _____ _ _ _____
 72
65
 73
6
 40
0.8
 49
0.45
 49
-0.05
 49
0.1
 49
-0.05
 49
0.1
 49
-0.05
  0
LTYPE
  2
DOT
 70
64
  3
. . . . . . . . . . . . . . . . . . . .
 72
65
 73
2
 40
0.2
 49
0.1
 49
-0.1
  0
LTYPE
  2
DASHED
 70
64
  3
- - - - - - - - - - - - - - - - - - - -
 72
65
 73
2
 40
0.2
 49
0.1
 49
-0.1
  0
ENDTAB
  0
TABLE
  2
LAYER
 70
36
  0
LAYER
  2
0
 70
0
 62
7
  6
CONTINUOUS
  0
LAYER
  2
DEFAULT_1
 70
0
 62
7
  6
CENTER
  0
LAYER
  2
DEFAULT_2
 70
0
 62
8
  6
HIDDEN
  0
LAYER
  2
DEFAULT_3
 70
0
 62
7
  6
PHANTOM
  0
ENDTAB
  0
TABLE
  2
STYLE
 70
1
  0
STYLE
  2
STANDARD
 70
0
 40
0.0
 41
0.8
 50
0.0
 71
0
 42
0.2
  3
txt
  4

  0
STYLE
  2
TEXTSTYLE_1
 70
0
 40
0.0
 41
0.8
 50
0.0
 71
0
 42
0.2
  3
gdt
  4

  0
STYLE
  2
TEXTSTYLE_2
 70
0
 40
0.0
 41
0.6
 50
0.0
 71
0
 42
0.2
  3
txt
  4

  0
STYLE
  2
TEXTSTYLE_3
 70
0
 40
0.0
 41
1.0
 50
0.0
 71
0
 42
0.2
  3
ftb_____.ttf
  4

  0
STYLE
  2
TEXTSTYLE_4
 70
0
 40
0.0
 41
1.0
 50
0.0
 71
0
 42
0.2
  3
fti_____.ttf
  4

  0
STYLE
  2
TEXTSTYLE_5
 70
0
 40
0.0
 41
1.0
 50
0.0
 71
0
 42
0.2
  3
frutiger light.ttf
  4

  0
STYLE
  2
TEXTSTYLE_6
 70
0
 40
0.0
 41
0.7
 50
0.0
 71
0
 42
0.2
  3
txt
  4

  0
STYLE
  2
TEXTSTYLE_7
 70
0
 40
0.0
 41
0.8
 50
0.0
 71
0
 42
0.2
  3
txt
  4

  0
ENDTAB
  0
ENDSEC
  0
SECTION
  2
BLOCKS
  0
BLOCK
  8
0
 62
2
  6
CONTINUOUS
  2
SYMBOL_3_BL1
 70
64
 10
557.4079930916
 20
35.8092573885
  0
TEXT
  8
0
 62
7
  6
CONTINUOUS
 10
548.4662781001
 20
30.9020137655
  7
TEXTSTYLE_4
 40
1.0655737705
  1
The brand for plastic modular belts and chains
 41
1.0
 72
0
  0
LINE
  8
0
 62
7
  6
CONTINUOUS
 10
533.3860614807
 20
36.3830278803
 11
533.3860614807
 21
34.2518803393
  0
LINE
  8
0
 62
7
  6
CONTINUOUS
 10
533.6751239738
 20
31.2609490436
 11
533.6751239738
 21
31.3577401029
  0
LINE
  8
0
 62
7
  6
CONTINUOUS
 10
533.3860614807
 20
31.3254764164
 11
533.4438739824
 21
31.1318942979
  0
LINE
  8
0
 62
7
  6
CONTINUOUS
 10
534.7795041036
 20
34.1699131262
 11
534.7795041036
 21
36.3830278803
  0
LINE
  8
0
 62
7
  6
CONTINUOUS
 10
535.6985614255
 20
32.3256508311
 11
535.6985614255
 21
30.8092573885
  0
LINE
  8
0
 62
7
  6
CONTINUOUS
 10
535.9876239807
 20
30.8092573885
 11
535.9876239807
 21
31.5513222666
  0
LINE
  8
0
 62
7
  6
CONTINUOUS
 10
535.9876239807
 20
31.6803770123
 11
535.9876239807
 21
32.3256508311
  0
LINE
  8
0
 62
7
  6
CONTINUOUS
 10
533.4438739824
 20
31.5190585802
 11
533.3860614807
 21
31.3254764164
  0
LINE
  8
0
 62
7
  6
CONTINUOUS
 10
533.7907489669
 20
31.0996306115
 11
533.6751239738
 21
31.2609490436
  0
LINE
  8
0
 62
7
  6
CONTINUOUS
 10
534.8891865358
 20
31.6158496394
 11
534.9469989807
 21
31.5190585802
  0
LINE
  8
0
 62
7
  6
CONTINUOUS
 10
535.2360615358
 20
31.5190585802
 11
535.1782489255
 21
31.6481133259
  0
LINE
  8
0
 62
7
  6
CONTINUOUS
 10
536.6647500053
 20
36.3830278803
 11
536.6647500053
 21
34.5797491918
  0
LINE
  8
0
 62
7
  6
CONTINUOUS
 10
536.6647500053
 20
33.2682737819
 11
536.6647500053
 21
32.612536077
  0
LINE
  8
0
 62
7
  6
CONTINUOUS
 10
537.0282489807
 20
31.4545312073
 11
537.0282489807
 21
30.8092573885
  0
LINE
  8
0
 62
7
  6
CONTINUOUS
 10
537.3173113704
 20
30.8092573885
 11
537.3173113704
 21
31.4545312073
  0
LINE
  8
0
 62
7
  6
CONTINUOUS
 10
533.6751239738
 20
31.3577401029
 11
533.7329364807
 21
31.4867948937
  0
LINE
  8
0
 62
7
  6
CONTINUOUS
 10
533.4438739824
 20
31.1318942979
 11
533.5594989807
 21
31.0028395296
  0
LINE
  8
0
 62
7
  6
CONTINUOUS
 10
536.9704363704
 20
31.583585953
 11
537.0282489807
 21
31.4545312073
  0
LINE
  8
0
 62
7
  6
CONTINUOUS
 10
537.7798115909
 20
31.0996306115
 11
537.8376238704
 21
30.9705758432
  0
LINE
  8
0
 62
7
  6
CONTINUOUS
 10
537.3173113704
 20
31.4545312073
 11
537.2594990909
 21
31.6158496394
  0
LINE
  8
0
 62
7
  6
CONTINUOUS
 10
537.7798115909
 20
31.6481133259
 11
537.7798115909
 21
31.583585953
  0
LINE
  8
0
 62
7
  6
CONTINUOUS
 10
537.7798115909
 20
31.1964216708
 11
537.7798115909
 21
31.0996306115
  0
LINE
  8
0
 62
7
  6
CONTINUOUS
 10
538.0581926282
 20
32.612536077
 11
538.0581926282
 21
36.3830278803
  0
LINE
  8
0
 62
7
  6
CONTINUOUS
 10
538.0688739807
 20
31.0673669025
 11
538.0688739807
 21
31.1318942979
  0
LINE
  8
0
 62
7
  6
CONTINUOUS
 10
538.3860614807
 20
36.3830278803
 11
538.3860614807
 21
32.612536077
  0
LINE
  8
0
 62
7
  6
CONTINUOUS
 10
535.1782489255
 20
31.0028395296
 11
535.2360615358
 21
31.1318942979
  0
LINE
  8
0
 62
7
  6
CONTINUOUS
 10
539.5719992012
 20
30.9060484591
 11
539.5141862601
 21
31.0673669025
  0
LINE
  8
0
 62
7
  6
CONTINUOUS
 10
539.2251242012
 20
31.583585953
 11
539.2251242012
 21
31.4867948937
  0
LINE
  8
0
 62
7
  6
CONTINUOUS
 10
539.2251242012
 20
31.3577401029
 11
539.2251242012
 21
31.1641579843
  0
LINE
  8
0
 62
7
  6
CONTINUOUS
 10
539.5141862601
 20
31.0673669025
 11
539.5141862601
 21
31.583585953
  0
LINE
  8
0
 62
7
  6
CONTINUOUS
 10
539.7795041036
 20
32.612536077
 11
539.7795041036
 21
34.4158147655
  0
LINE
  8
0
 62
7
  6
CONTINUOUS
 10
539.7795041036
 20
35.7272901754
 11
539.7795041036
 21
36.3830278803
  0
LINE
  8
0
 62
7
  6
CONTINUOUS
 10
540.0923117012
 20
32.3256508311
 11
540.0923117012
 21
32.164332399
  0
LINE
  8
0
 62
7
  6
CONTINUOUS
 10
540.0923117012
 20
31.8416954444
 11
540.0923117012
 21
30.8092573885
  0
LINE
  8
0
 62
7
  6
CONTINUOUS
 10
540.3813737601
 20
30.8092573885
 11
540.3813737601
 21
31.8416954444
  0
LINE
  8
0
 62
7
  6
CONTINUOUS
 10
540.3813737601
 20
32.164332399
 11
540.3813737601
 21
32.3256508311
  0
LINE
  8
0
 62
7
  6
CONTINUOUS
 10
534.9469989807
 20
31.1318942979
 11
534.8891865358
 21
31.035103216
  0
LINE
  8
0
 62
7
  6
CONTINUOUS
 10
537.2594990909
 20
31.6158496394
 11
537.2016864807
 21
31.6803770123
  0
LINE
  8
0
 62
7
  6
CONTINUOUS
 10
538.1266865909
 20
31.0028395296
 11
538.0688739807
 21
31.0673669025
  0
LINE
  8
0
 62
7
  6
CONTINUOUS
 10
539.2829364807
 20
30.873784767
 11
539.3407487601
 21
30.8092573885
  0
LINE
  8
0
 62
7
  6
CONTINUOUS
 10
539.2251242012
 20
30.9705758432
 11
539.2829364807
 21
30.873784767
  0
LINE
  8
0
 62
7
  6
CONTINUOUS
 10
539.6298114807
 20
30.8092573885
 11
539.5719992012
 21
30.9060484591
  0
LINE
  8
0
 62
7
  6
CONTINUOUS
 10
539.5141862601
 20
31.583585953
 11
539.4563739807
 21
31.6803770123
  0
LINE
  8
0
 62
7
  6
CONTINUOUS
 10
540.8438739807
 20
31.8416954444
 11
540.8438739807
 21
30.8092573885
  0
LINE
  8
0
 62
7
  6
CONTINUOUS
 10
541.1329367012
 20
30.8092573885
 11
541.1329367012
 21
31.5513222666
  0
LINE
  8
0
 62
7
  6
CONTINUOUS
 10
541.1329367012
 20
31.6803770123
 11
541.1329367012
 21
31.8416954444
  0
LINE
  8
0
 62
7
  6
CONTINUOUS
 10
541.6647500053
 20
34.8256508311
 11
541.6647500053
 21
32.612536077
  0
LINE
  8
0
 62
7
  6
CONTINUOUS
 10
533.5594989807
 20
31.6481133259
 11
533.4438739824
 21
31.5190585802
  0
LINE
  8
0
 62
7
  6
CONTINUOUS
 10
533.7329364807
 20
31.4867948937
 11
533.7907489669
 21
31.5513222666
  0
LINE
  8
0
 62
7
  6
CONTINUOUS
 10
533.5594989807
 20
31.0028395296
 11
533.6751239738
 21
30.9383121455
  0
LINE
  8
0
 62
7
  6
CONTINUOUS
 10
533.9641864669
 20
31.0028395296
 11
533.7907489669
 21
31.0996306115
  0
LINE
  8
0
 62
7
  6
CONTINUOUS
 10
539.1673112601
 20
31.6481133259
 11
539.2251242012
 21
31.583585953
  0
LINE
  8
0
 62
7
  6
CONTINUOUS
 10
542.1157487601
 20
31.583585953
 11
542.1735617012
 21
31.4222675209
  0
LINE
  8
0
 62
7
  6
CONTINUOUS
 10
542.4626237601
 20
31.4222675209
 11
542.4048114807
 21
31.583585953
  0
LINE
  8
0
 62
7
  6
CONTINUOUS
 10
542.1735617012
 20
31.4222675209
 11
542.1735617012
 21
30.8092573885
  0
LINE
  8
0
 62
7
  6
CONTINUOUS
 10
542.4626237601
 20
30.8092573885
 11
542.4626237601
 21
31.4222675209
  0
LINE
  8
0
 62
7
  6
CONTINUOUS
 10
542.9251239807
 20
31.6481133259
 11
542.9251239807
 21
31.583585953
  0
LINE
  8
0
 62
7
  6
CONTINUOUS
 10
543.0581926282
 20
32.612536077
 11
543.0581926282
 21
34.743683618
  0
LINE
  8
0
 62
7
  6
CONTINUOUS
 10
543.3860614807
 20
36.3830278803
 11
543.3860614807
 21
32.612536077
  0
LINE
  8
0
 62
7
  6
CONTINUOUS
 10
538.0688739807
 20
31.1318942979
 11
538.1266865909
 21
31.2286853572
  0
LINE
  8
0
 62
7
  6
CONTINUOUS
 10
533.6751239738
 20
30.9383121455
 11
533.8485614944
 21
30.873784767
  0
LINE
  8
0
 62
7
  6
CONTINUOUS
 10
535.1782489255
 20
31.6481133259
 11
535.0048114255
 21
31.7449043851
  0
LINE
  8
0
 62
7
  6
CONTINUOUS
 10
537.8376238704
 20
30.9705758432
 11
538.0110613704
 21
30.873784767
  0
LINE
  8
0
 62
7
  6
CONTINUOUS
 10
536.8548114807
 20
31.6481133259
 11
536.9704363704
 21
31.583585953
  0
LINE
  8
0
 62
7
  6
CONTINUOUS
 10
537.2016864807
 20
31.6803770123
 11
537.0860615909
 21
31.7449043851
  0
LINE
  8
0
 62
7
  6
CONTINUOUS
 10
542.9251239807
 20
31.0673669025
 11
543.0407492012
 21
30.9383121455
  0
LINE
  8
0
 62
7
  6
CONTINUOUS
 10
543.2719989807
 20
31.0028395296
 11
543.2141867012
 21
31.0673669025
  0
LINE
  8
0
 62
7
  6
CONTINUOUS
 10
542.9251239807
 20
31.583585953
 11
543.0407492012
 21
31.4545312073
  0
LINE
  8
0
 62
7
  6
CONTINUOUS
 10
542.4048114807
 20
31.583585953
 11
542.3469992012
 21
31.6803770123
  0
LINE
  8
0
 62
7
  6
CONTINUOUS
 10
544.7751235396
 20
31.0028395296
 11
544.7751235396
 21
31.0673669025
  0
LINE
  8
0
 62
7
  6
CONTINUOUS
 10
544.7795041036
 20
32.612536077
 11
544.7795041036
 21
36.3830278803
  0
LINE
  8
0
 62
7
  6
CONTINUOUS
 10
537.8376238704
 20
31.7126406987
 11
537.7798115909
 21
31.6481133259
  0
LINE
  8
0
 62
7
  6
CONTINUOUS
 10
534.7157489531
 20
31.6803770123
 11
534.8891865358
 21
31.6158496394
  0
LINE
  8
0
 62
7
  6
CONTINUOUS
 10
539.4563739807
 20
31.6803770123
 11
539.3407487601
 21
31.7449043851
  0
LINE
  8
0
 62
7
  6
CONTINUOUS
 10
543.2719989807
 20
31.5190585802
 11
543.2141867012
 21
31.583585953
  0
LINE
  8
0
 62
7
  6
CONTINUOUS
 10
544.4282492012
 20
31.1318942979
 11
544.4860614807
 21
31.0673669025
  0
LINE
  8
0
 62
7
  6
CONTINUOUS
 10
544.7751235396
 20
31.0673669025
 11
544.6594989807
 21
31.1964216708
  0
LINE
  8
0
 62
7
  6
CONTINUOUS
 10
544.4282492012
 20
31.6481133259
 11
544.4860614807
 21
31.583585953
  0
LINE
  8
0
 62
7
  6
CONTINUOUS
 10
544.7751235396
 20
31.583585953
 11
544.6594989807
 21
31.7126406987
  0
LINE
  8
0
 62
7
  6
CONTINUOUS
 10
538.0688739807
 20
31.583585953
 11
538.1266865909
 21
31.6481133259
  0
LINE
  8
0
 62
7
  6
CONTINUOUS
 10
537.8954364807
 20
31.3254764164
 11
537.7798115909
 21
31.1964216708
  0
LINE
  8
0
 62
7
  6
CONTINUOUS
 10
539.2251242012
 20
31.1641579843
 11
539.1673112601
 21
31.0996306115
  0
LINE
  8
0
 62
7
  6
CONTINUOUS
 10
539.1673112601
 20
30.9060484591
 11
539.2251242012
 21
30.9705758432
  0
LINE
  8
0
 62
7
  6
CONTINUOUS
 10
538.0110613704
 20
30.873784767
 11
538.1266865909
 21
30.8415210777
  0
LINE
  8
0
 62
7
  6
CONTINUOUS
 10
535.0048114255
 20
31.7449043851
 11
534.7735614807
 21
31.809431758
  0
LINE
  8
0
 62
7
  6
CONTINUOUS
 10
538.3579363704
 20
30.9383121455
 11
538.1266865909
 21
31.0028395296
  0
LINE
  8
0
 62
7
  6
CONTINUOUS
 10
537.0860615909
 20
31.7449043851
 11
536.9126240909
 21
31.809431758
  0
LINE
  8
0
 62
7
  6
CONTINUOUS
 10
539.3407487601
 20
31.7449043851
 11
539.1673112601
 21
31.809431758
  0
LINE
  8
0
 62
7
  6
CONTINUOUS
 10
542.0001242012
 20
31.6481133259
 11
542.1157487601
 21
31.583585953
  0
LINE
  8
0
 62
7
  6
CONTINUOUS
 10
542.3469992012
 20
31.6803770123
 11
542.2313739807
 21
31.7449043851
  0
LINE
  8
0
 62
7
  6
CONTINUOUS
 10
533.8485614944
 20
30.873784767
 11
534.0219989944
 21
30.8415210777
  0
LINE
  8
0
 62
7
  6
CONTINUOUS
 10
534.3110615082
 20
30.9383121455
 11
533.9641864669
 21
31.0028395296
  0
LINE
  8
0
 62
7
  6
CONTINUOUS
 10
536.7391865909
 20
31.6803770123
 11
536.8548114807
 21
31.6481133259
  0
LINE
  8
0
 62
7
  6
CONTINUOUS
 10
539.0516867012
 20
31.6803770123
 11
539.1673112601
 21
31.6481133259
  0
LINE
  8
0
 62
7
  6
CONTINUOUS
 10
543.3876242012
 20
30.9705758432
 11
543.2719989807
 21
31.0028395296
  0
LINE
  8
0
 62
7
  6
CONTINUOUS
 10
541.8844989807
 20
31.6803770123
 11
542.0001242012
 21
31.6481133259
  0
LINE
  8
0
 62
7
  6
CONTINUOUS
 10
543.0407492012
 20
30.9383121455
 11
543.2141867012
 21
30.873784767
  0
LINE
  8
0
 62
7
  6
CONTINUOUS
 10
542.2313739807
 20
31.7449043851
 11
542.0579364807
 21
31.809431758
  0
LINE
  8
0
 62
7
  6
CONTINUOUS
 10
543.4454364807
 20
31.4545312073
 11
543.2719989807
 21
31.5190585802
  0
LINE
  8
0
 62
7
  6
CONTINUOUS
 10
544.2548117012
 20
31.1964216708
 11
544.4282492012
 21
31.1318942979
  0
LINE
  8
0
 62
7
  6
CONTINUOUS
 10
544.6594989807
 20
31.7126406987
 11
544.4860614807
 21
31.7771680715
  0
LINE
  8
0
 62
7
  6
CONTINUOUS
 10
543.0407492012
 20
31.4545312073
 11
543.2719989807
 21
31.3577401029
  0
LINE
  8
0
 62
7
  6
CONTINUOUS
 10
544.6594989807
 20
31.1964216708
 11
544.4282492012
 21
31.29321273
  0
LINE
  8
0
 62
7
  6
CONTINUOUS
 10
543.2141867012
 20
31.583585953
 11
543.2719989807
 21
31.6481133259
  0
LINE
  8
0
 62
7
  6
CONTINUOUS
 10
533.6751239738
 20
31.7126406987
 11
533.5594989807
 21
31.6481133259
  0
LINE
  8
0
 62
7
  6
CONTINUOUS
 10
533.7907489669
 20
31.5513222666
 11
533.9641864669
 21
31.6481133259
  0
LINE
  8
0
 62
7
  6
CONTINUOUS
 10
536.1032490358
 20
31.7449043851
 11
535.9876239807
 21
31.6803770123
  0
LINE
  8
0
 62
7
  6
CONTINUOUS
 10
535.9876239807
 20
31.5513222666
 11
536.1032490358
 21
31.6158496394
  0
LINE
  8
0
 62
7
  6
CONTINUOUS
 10
535.0048114255
 20
30.9060484591
 11
535.1782489255
 21
31.0028395296
  0
LINE
  8
0
 62
7
  6
CONTINUOUS
 10
534.0219989944
 20
30.8415210777
 11
534.3688739531
 21
30.8092573885
  0
LINE
  8
0
 62
7
  6
CONTINUOUS
 10
538.1266865909
 20
30.8415210777
 11
538.3579363704
 21
30.8092573885
  0
LINE
  8
0
 62
7
  6
CONTINUOUS
 10
536.5079364807
 20
31.7126406987
 11
536.7391865909
 21
31.6803770123
  0
LINE
  8
0
 62
7
  6
CONTINUOUS
 10
538.8204365909
 20
31.7126406987
 11
539.0516867012
 21
31.6803770123
  0
LINE
  8
0
 62
7
  6
CONTINUOUS
 10
543.2719989807
 20
31.3577401029
 11
544.2548117012
 21
31.1964216708
  0
LINE
  8
0
 62
7
  6
CONTINUOUS
 10
544.4282492012
 20
31.29321273
 11
543.4454364807
 21
31.4545312073
  0
LINE
  8
0
 62
7
  6
CONTINUOUS
 10
536.9126240909
 20
31.809431758
 11
536.7391865909
 21
31.8416954444
  0
LINE
  8
0
 62
7
  6
CONTINUOUS
 10
543.2141867012
 20
30.873784767
 11
543.3876242012
 21
30.8415210777
  0
LINE
  8
0
 62
7
  6
CONTINUOUS
 10
542.0579364807
 20
31.809431758
 11
541.8844989807
 21
31.8416954444
  0
LINE
  8
0
 62
7
  6
CONTINUOUS
 10
544.3126239807
 20
31.6803770123
 11
544.4282492012
 21
31.6481133259
  0
LINE
  8
0
 62
7
  6
CONTINUOUS
 10
544.4860614807
 20
31.0673669025
 11
544.4282492012
 21
31.0028395296
  0
LINE
  8
0
 62
7
  6
CONTINUOUS
 10
543.0407492012
 20
31.7449043851
 11
542.9251239807
 21
31.6481133259
  0
LINE
  8
0
 62
7
  6
CONTINUOUS
 10
537.9532490909
 20
31.7771680715
 11
537.8376238704
 21
31.7126406987
  0
LINE
  8
0
 62
7
  6
CONTINUOUS
 10
538.0110613704
 20
31.3900038345
 11
537.8954364807
 21
31.3254764164
  0
LINE
  8
0
 62
7
  6
CONTINUOUS
 10
538.1266865909
 20
31.2286853572
 11
538.2423114807
 21
31.29321273
  0
LINE
  8
0
 62
7
  6
CONTINUOUS
 10
535.6985614255
 20
30.8092573885
 11
535.9876239807
 21
30.8092573885
  0
LINE
  8
0
 62
7
  6
CONTINUOUS
 10
537.0282489807
 20
30.8092573885
 11
537.3173113704
 21
30.8092573885
  0
LINE
  8
0
 62
7
  6
CONTINUOUS
 10
538.3579363704
 20
30.8092573885
 11
538.7048113704
 21
30.8092573885
  0
LINE
  8
0
 62
7
  6
CONTINUOUS
 10
539.3407487601
 20
30.8092573885
 11
539.6298114807
 21
30.8092573885
  0
LINE
  8
0
 62
7
  6
CONTINUOUS
 10
540.0923117012
 20
30.8092573885
 11
540.3813737601
 21
30.8092573885
  0
LINE
  8
0
 62
7
  6
CONTINUOUS
 10
540.8438739807
 20
30.8092573885
 11
541.1329367012
 21
30.8092573885
  0
LINE
  8
0
 62
7
  6
CONTINUOUS
 10
542.1735617012
 20
30.8092573885
 11
542.4626237601
 21
30.8092573885
  0
LINE
  8
0
 62
7
  6
CONTINUOUS
 10
543.7344992012
 20
30.8092573885
 11
544.0813742012
 21
30.8092573885
  0
LINE
  8
0
 62
7
  6
CONTINUOUS
 10
544.0813742012
 20
30.9383121455
 11
543.7344992012
 21
30.9383121455
  0
LINE
  8
0
 62
7
  6
CONTINUOUS
 10
538.7048113704
 20
30.9383121455
 11
538.3579363704
 21
30.9383121455
  0
LINE
  8
0
 62
7
  6
CONTINUOUS
 10
543.2141867012
 20
31.0673669025
 11
542.9251239807
 21
31.0673669025
  0
LINE
  8
0
 62
7
  6
CONTINUOUS
 10
535.2360615358
 20
31.1318942979
 11
534.9469989807
 21
31.1318942979
  0
LINE
  8
0
 62
7
  6
CONTINUOUS
 10
534.3110615082
 20
31.7126406987
 11
534.7157489531
 21
31.6803770123
  0
LINE
  8
0
 62
7
  6
CONTINUOUS
 10
534.7735614807
 20
31.809431758
 11
534.3688739531
 21
31.8416954444
  0
LINE
  8
0
 62
7
  6
CONTINUOUS
 10
543.3876242012
 20
30.8415210777
 11
543.7344992012
 21
30.8092573885
  0
LINE
  8
0
 62
7
  6
CONTINUOUS
 10
543.7344992012
 20
30.9383121455
 11
543.3876242012
 21
30.9705758432
  0
LINE
  8
0
 62
7
  6
CONTINUOUS
 10
539.1673112601
 20
31.809431758
 11
538.8204365909
 21
31.8416954444
  0
LINE
  8
0
 62
7
  6
CONTINUOUS
 10
543.9657489807
 20
31.7126406987
 11
544.3126239807
 21
31.6803770123
  0
LINE
  8
0
 62
7
  6
CONTINUOUS
 10
544.3126239807
 20
31.809431758
 11
543.9657489807
 21
31.8416954444
  0
LINE
  8
0
 62
7
  6
CONTINUOUS
 10
541.6532492012
 20
31.7126406987
 11
541.8844989807
 21
31.6803770123
  0
LINE
  8
0
 62
7
  6
CONTINUOUS
 10
544.4860614807
 20
31.7771680715
 11
544.3126239807
 21
31.809431758
  0
LINE
  8
0
 62
7
  6
CONTINUOUS
 10
544.6594989807
 20
30.9060484591
 11
544.7751235396
 21
31.0028395296
  0
LINE
  8
0
 62
7
  6
CONTINUOUS
 10
539.1673112601
 20
31.0996306115
 11
538.9938737601
 21
31.0028395296
  0
LINE
  8
0
 62
7
  6
CONTINUOUS
 10
541.2485612601
 20
31.7449043851
 11
541.1329367012
 21
31.6803770123
  0
LINE
  8
0
 62
7
  6
CONTINUOUS
 10
541.1329367012
 20
31.5513222666
 11
541.2485612601
 21
31.6158496394
  0
LINE
  8
0
 62
7
  6
CONTINUOUS
 10
533.8485614944
 20
31.7771680715
 11
533.6751239738
 21
31.7126406987
  0
LINE
  8
0
 62
7
  6
CONTINUOUS
 10
536.2766863704
 20
31.809431758
 11
536.1032490358
 21
31.7449043851
  0
LINE
  8
0
 62
7
  6
CONTINUOUS
 10
536.1032490358
 20
31.6158496394
 11
536.2766863704
 21
31.6803770123
  0
LINE
  8
0
 62
7
  6
CONTINUOUS
 10
534.8891865358
 20
31.035103216
 11
534.7157489531
 21
30.9705758432
  0
LINE
  8
0
 62
7
  6
CONTINUOUS
 10
544.3126239807
 20
30.9705758432
 11
544.0813742012
 21
30.9383121455
  0
LINE
  8
0
 62
7
  6
CONTINUOUS
 10
538.7048113704
 20
30.8092573885
 11
538.9938737601
 21
30.8415210777
  0
LINE
  8
0
 62
7
  6
CONTINUOUS
 10
544.0813742012
 20
30.8092573885
 11
544.4282492012
 21
30.8415210777
  0
LINE
  8
0
 62
7
  6
CONTINUOUS
 10
534.3688739531
 20
30.8092573885
 11
534.7735614807
 21
30.8415210777
  0
LINE
  8
0
 62
7
  6
CONTINUOUS
 10
534.7157489531
 20
30.9705758432
 11
534.3110615082
 21
30.9383121455
  0
LINE
  8
0
 62
7
  6
CONTINUOUS
 10
538.5891864807
 20
31.3577401029
 11
539.2251242012
 21
31.3577401029
  0
LINE
  8
0
 62
7
  6
CONTINUOUS
 10
539.2251242012
 20
31.4867948937
 11
538.5891864807
 21
31.4867948937
  0
LINE
  8
0
 62
7
  6
CONTINUOUS
 10
534.9469989807
 20
31.5190585802
 11
535.2360615358
 21
31.5190585802
  0
LINE
  8
0
 62
7
  6
CONTINUOUS
 10
537.7798115909
 20
31.583585953
 11
538.0688739807
 21
31.583585953
  0
LINE
  8
0
 62
7
  6
CONTINUOUS
 10
544.4860614807
 20
31.583585953
 11
544.7751235396
 21
31.583585953
  0
LINE
  8
0
 62
7
  6
CONTINUOUS
 10
538.4735615909
 20
31.7126406987
 11
538.8204365909
 21
31.7126406987
  0
LINE
  8
0
 62
7
  6
CONTINUOUS
 10
543.6188739807
 20
31.7126406987
 11
543.9657489807
 21
31.7126406987
  0
LINE
  8
0
 62
7
  6
CONTINUOUS
 10
543.9657489807
 20
31.8416954444
 11
543.6188739807
 21
31.8416954444
  0
LINE
  8
0
 62
7
  6
CONTINUOUS
 10
541.8844989807
 20
31.8416954444
 11
541.6532492012
 21
31.8416954444
  0
LINE
  8
0
 62
7
  6
CONTINUOUS
 10
541.1329367012
 20
31.8416954444
 11
540.8438739807
 21
31.8416954444
  0
LINE
  8
0
 62
7
  6
CONTINUOUS
 10
540.3813737601
 20
31.8416954444
 11
540.0923117012
 21
31.8416954444
  0
LINE
  8
0
 62
7
  6
CONTINUOUS
 10
538.8204365909
 20
31.8416954444
 11
538.4735615909
 21
31.8416954444
  0
LINE
  8
0
 62
7
  6
CONTINUOUS
 10
536.7391865909
 20
31.8416954444
 11
536.5079364807
 21
31.8416954444
  0
LINE
  8
0
 62
7
  6
CONTINUOUS
 10
540.0923117012
 20
32.164332399
 11
540.3813737601
 21
32.164332399
  0
LINE
  8
0
 62
7
  6
CONTINUOUS
 10
540.3813737601
 20
32.3256508311
 11
540.0923117012
 21
32.3256508311
  0
LINE
  8
0
 62
7
  6
CONTINUOUS
 10
535.9876239807
 20
32.3256508311
 11
535.6985614255
 21
32.3256508311
  0
LINE
  8
0
 62
7
  6
CONTINUOUS
 10
535.025405743
 20
32.612536077
 11
535.4379770916
 21
32.612536077
  0
LINE
  8
0
 62
7
  6
CONTINUOUS
 10
536.6647500053
 20
32.612536077
 11
538.0581926282
 21
32.612536077
  0
LINE
  8
0
 62
7
  6
CONTINUOUS
 10
538.3860614807
 20
32.612536077
 11
539.7795041036
 21
32.612536077
  0
LINE
  8
0
 62
7
  6
CONTINUOUS
 10
541.6647500053
 20
32.612536077
 11
543.0581926282
 21
32.612536077
  0
LINE
  8
0
 62
7
  6
CONTINUOUS
 10
543.3860614807
 20
32.612536077
 11
544.7795041036
 21
32.612536077
  0
LINE
  8
0
 62
7
  6
CONTINUOUS
 10
541.4219987601
 20
31.809431758
 11
541.2485612601
 21
31.7449043851
  0
LINE
  8
0
 62
7
  6
CONTINUOUS
 10
538.9938737601
 20
30.8415210777
 11
539.1673112601
 21
30.9060484591
  0
LINE
  8
0
 62
7
  6
CONTINUOUS
 10
544.4282492012
 20
30.8415210777
 11
544.6594989807
 21
30.9060484591
  0
LINE
  8
0
 62
7
  6
CONTINUOUS
 10
544.4282492012
 20
31.0028395296
 11
544.3126239807
 21
30.9705758432
  0
LINE
  8
0
 62
7
  6
CONTINUOUS
 10
543.3876242012
 20
31.6803770123
 11
543.6188739807
 21
31.7126406987
  0
LINE
  8
0
 62
7
  6
CONTINUOUS
 10
541.4219987601
 20
31.6803770123
 11
541.6532492012
 21
31.7126406987
  0
LINE
  8
0
 62
7
  6
CONTINUOUS
 10
538.3579363704
 20
31.3254764164
 11
538.5891864807
 21
31.3577401029
  0
LINE
  8
0
 62
7
  6
CONTINUOUS
 10
541.6532492012
 20
31.8416954444
 11
541.4219987601
 21
31.809431758
  0
LINE
  8
0
 62
7
  6
CONTINUOUS
 10
538.2423114807
 20
31.6803770123
 11
538.4735615909
 21
31.7126406987
  0
LINE
  8
0
 62
7
  6
CONTINUOUS
 10
543.6188739807
 20
31.8416954444
 11
543.2719989807
 21
31.809431758
  0
LINE
  8
0
 62
7
  6
CONTINUOUS
 10
538.5891864807
 20
31.4867948937
 11
538.2423114807
 21
31.4545312073
  0
LINE
  8
0
 62
7
  6
CONTINUOUS
 10
534.3688739531
 20
31.8416954444
 11
534.0219989944
 21
31.809431758
  0
LINE
  8
0
 62
7
  6
CONTINUOUS
 10
538.4735615909
 20
31.8416954444
 11
538.0688739807
 21
31.809431758
  0
LINE
  8
0
 62
7
  6
CONTINUOUS
 10
535.8450778741
 20
33.7600770606
 11
535.1893401692
 21
33.7600770606
  0
LINE
  8
0
 62
7
  6
CONTINUOUS
 10
541.2485612601
 20
31.6158496394
 11
541.4219987601
 21
31.6803770123
  0
LINE
  8
0
 62
7
  6
CONTINUOUS
 10
543.2719989807
 20
31.6481133259
 11
543.3876242012
 21
31.6803770123
  0
LINE
  8
0
 62
7
  6
CONTINUOUS
 10
543.2719989807
 20
31.809431758
 11
543.0407492012
 21
31.7449043851
  0
LINE
  8
0
 62
7
  6
CONTINUOUS
 10
538.9938737601
 20
31.0028395296
 11
538.7048113704
 21
30.9383121455
  0
LINE
  8
0
 62
7
  6
CONTINUOUS
 10
536.2766863704
 20
31.6803770123
 11
536.5079364807
 21
31.7126406987
  0
LINE
  8
0
 62
7
  6
CONTINUOUS
 10
536.5079364807
 20
31.8416954444
 11
536.2766863704
 21
31.809431758
  0
LINE
  8
0
 62
7
  6
CONTINUOUS
 10
534.0798114807
 20
31.6803770123
 11
534.3110615082
 21
31.7126406987
  0
LINE
  8
0
 62
7
  6
CONTINUOUS
 10
540.5991762348
 20
35.2354868967
 11
541.2549139397
 21
35.2354868967
  0
LINE
  8
0
 62
7
  6
CONTINUOUS
 10
538.2423114807
 20
31.29321273
 11
538.3579363704
 21
31.3254764164
  0
LINE
  8
0
 62
7
  6
CONTINUOUS
 10
538.2423114807
 20
31.4545312073
 11
538.0110613704
 21
31.3900038345
  0
LINE
  8
0
 62
7
  6
CONTINUOUS
 10
538.1266865909
 20
31.6481133259
 11
538.2423114807
 21
31.6803770123
  0
LINE
  8
0
 62
7
  6
CONTINUOUS
 10
534.7735614807
 20
30.8415210777
 11
535.0048114255
 21
30.9060484591
  0
LINE
  8
0
 62
7
  6
CONTINUOUS
 10
538.0688739807
 20
31.809431758
 11
537.9532490909
 21
31.7771680715
  0
LINE
  8
0
 62
7
  6
CONTINUOUS
 10
534.0219989944
 20
31.809431758
 11
533.8485614944
 21
31.7771680715
  0
LINE
  8
0
 62
7
  6
CONTINUOUS
 10
544.7795041036
 20
36.3830278803
 11
543.3860614807
 21
36.3830278803
  0
LINE
  8
0
 62
7
  6
CONTINUOUS
 10
541.4188483659
 20
36.3830278803
 11
541.0062770173
 21
36.3830278803
  0
LINE
  8
0
 62
7
  6
CONTINUOUS
 10
539.7795041036
 20
36.3830278803
 11
538.3860614807
 21
36.3830278803
  0
LINE
  8
0
 62
7
  6
CONTINUOUS
 10
538.0581926282
 20
36.3830278803
 11
536.6647500053
 21
36.3830278803
  0
LINE
  8
0
 62
7
  6
CONTINUOUS
 10
534.7795041036
 20
36.3830278803
 11
533.3860614807
 21
36.3830278803
  0
LINE
  8
0
 62
7
  6
CONTINUOUS
 10
533.9641864669
 20
31.6481133259
 11
534.0798114807
 21
31.6803770123
  0
CIRCLE
  8
0
 62
7
  6
CONTINUOUS
 10
544.0827827921
 20
38.7190934541
 40
2.0901639344
  0
ARC
  8
0
 62
7
  6
CONTINUOUS
 10
535.025405743
 20
34.2518803393
 40
1.6393442623
 50
180.0
 51
270.0
  0
ARC
  8
0
 62
7
  6
CONTINUOUS
 10
541.4188483659
 20
34.743683618
 40
1.6393442623
 50
0.0
 51
90.0
  0
ARC
  8
0
 62
7
  6
CONTINUOUS
 10
535.4379770916
 20
34.0879459131
 40
1.4754098361
 50
270.0
 51
326.2510114041
  0
ARC
  8
0
 62
7
  6
CONTINUOUS
 10
541.0062770173
 20
34.9076180442
 40
1.4754098361
 50
90.0
 51
146.2510114041
  0
ARC
  8
0
 62
7
  6
CONTINUOUS
 10
535.8450778741
 20
34.5797491918
 40
0.8196721311
 50
270.0
 51
360.0
  0
ARC
  8
0
 62
7
  6
CONTINUOUS
 10
540.5991762348
 20
34.4158147655
 40
0.8196721311
 50
90.0
 51
180.0
  0
ARC
  8
0
 62
7
  6
CONTINUOUS
 10
535.1893401692
 20
34.1699131262
 40
0.4098360656
 50
180.0
 51
270.0
  0
ARC
  8
0
 62
7
  6
CONTINUOUS
 10
541.2549139397
 20
34.8256508311
 40
0.4098360656
 50
0.0
 51
90.0
  0
SOLID
  8
0
 62
7
  6
CONTINUOUS
 10
540.0923117012
 20
32.1643327593
 11
540.0923117012
 21
32.3256512429
 12
540.3813737601
 22
32.1643327593
 13
540.3813737601
 23
32.3256512429
  0
SOLID
  8
0
 62
7
  6
CONTINUOUS
 10
534.3688739531
 20
31.841695792
 11
534.7735614807
 21
31.8094316148
 12
534.0219989944
 22
31.8094316148
 13
534.0219989944
 23
31.8094316148
  0
SOLID
  8
0
 62
7
  6
CONTINUOUS
 10
533.8485614944
 20
31.7771687019
 11
534.0219989944
 21
31.8094316148
 12
534.7735614807
 22
31.8094316148
 13
534.7735614807
 23
31.8094316148
  0
SOLID
  8
0
 62
7
  6
CONTINUOUS
 10
534.7735614807
 20
31.8094316148
 11
535.0048114255
 21
31.7449043986
 12
533.8485614944
 22
31.7771687019
 13
533.8485614944
 23
31.7771687019
  0
SOLID
  8
0
 62
7
  6
CONTINUOUS
 10
533.6751239738
 20
31.712640202
 11
533.8485614944
 21
31.7771687019
 12
535.0048114255
 22
31.7449043986
 13
535.0048114255
 23
31.7449043986
  0
SOLID
  8
0
 62
7
  6
CONTINUOUS
 10
533.6751239738
 20
31.712640202
 11
535.0048114255
 21
31.7449043986
 12
534.3110615082
 22
31.712640202
 13
534.3110615082
 23
31.712640202
  0
SOLID
  8
0
 62
7
  6
CONTINUOUS
 10
534.3110615082
 20
31.712640202
 11
535.0048114255
 21
31.7449043986
 12
534.7157489531
 22
31.6803773084
 13
534.7157489531
 23
31.6803773084
  0
SOLID
  8
0
 62
7
  6
CONTINUOUS
 10
535.0048114255
 20
31.7449043986
 11
535.1782489255
 21
31.6481130052
 12
534.7157489531
 22
31.6803773084
 13
534.7157489531
 23
31.6803773084
  0
SOLID
  8
0
 62
7
  6
CONTINUOUS
 10
534.8891865358
 20
31.6158502183
 11
534.7157489531
 21
31.6803773084
 12
535.1782489255
 22
31.6481130052
 13
535.1782489255
 23
31.6481130052
  0
SOLID
  8
0
 62
7
  6
CONTINUOUS
 10
534.8891865358
 20
31.6158502183
 11
535.1782489255
 21
31.6481130052
 12
534.9469989807
 22
31.5190586669
 13
534.9469989807
 23
31.5190586669
  0
SOLID
  8
0
 62
7
  6
CONTINUOUS
 10
535.1782489255
 20
31.6481130052
 11
535.2360615358
 21
31.5190586669
 12
534.9469989807
 22
31.5190586669
 13
534.9469989807
 23
31.5190586669
  0
SOLID
  8
0
 62
7
  6
CONTINUOUS
 10
536.2766863704
 20
31.8094307377
 11
536.5079364807
 21
31.841695041
 12
536.7391865909
 22
31.841695041
 13
536.7391865909
 23
31.841695041
  0
SOLID
  8
0
 62
7
  6
CONTINUOUS
 10
536.7391865909
 20
31.841695041
 11
536.9126240909
 21
31.8094307377
 12
536.2766863704
 22
31.8094307377
 13
536.2766863704
 23
31.8094307377
  0
SOLID
  8
0
 62
7
  6
CONTINUOUS
 10
536.1032490358
 20
31.7449036475
 11
536.2766863704
 21
31.8094307377
 12
536.9126240909
 22
31.8094307377
 13
536.9126240909
 23
31.8094307377
  0
SOLID
  8
0
 62
7
  6
CONTINUOUS
 10
536.9126240909
 20
31.8094307377
 11
537.0860615909
 21
31.7449036475
 12
536.1032490358
 22
31.7449036475
 13
536.1032490358
 23
31.7449036475
  0
SOLID
  8
0
 62
7
  6
CONTINUOUS
 10
537.0860615909
 20
31.7449036475
 11
536.5079364807
 21
31.7126400953
 12
536.1032490358
 22
31.7449036475
 13
536.1032490358
 23
31.7449036475
  0
SOLID
  8
0
 62
7
  6
CONTINUOUS
 10
535.9876239807
 20
31.6803765574
 11
536.1032490358
 21
31.7449036475
 12
536.5079364807
 22
31.7126400953
 13
536.5079364807
 23
31.7126400953
  0
SOLID
  8
0
 62
7
  6
CONTINUOUS
 10
536.5079364807
 20
31.7126400953
 11
536.2766863704
 21
31.6803765574
 12
535.9876239807
 22
31.6803765574
 13
535.9876239807
 23
31.6803765574
  0
SOLID
  8
0
 62
7
  6
CONTINUOUS
 10
536.5079364807
 20
31.7126400953
 11
537.0860615909
 21
31.7449036475
 12
536.7391865909
 22
31.6803765574
 13
536.7391865909
 23
31.6803765574
  0
SOLID
  8
0
 62
7
  6
CONTINUOUS
 10
537.0860615909
 20
31.7449036475
 11
537.2016864807
 21
31.6803765574
 12
536.7391865909
 22
31.6803765574
 13
536.7391865909
 23
31.6803765574
  0
SOLID
  8
0
 62
7
  6
CONTINUOUS
 10
536.8548114807
 20
31.6481130052
 11
536.7391865909
 21
31.6803765574
 12
537.2016864807
 22
31.6803765574
 13
537.2016864807
 23
31.6803765574
  0
SOLID
  8
0
 62
7
  6
CONTINUOUS
 10
537.2016864807
 20
31.6803765574
 11
537.2594990909
 21
31.6158494672
 12
536.8548114807
 22
31.6481130052
 13
536.8548114807
 23
31.6481130052
  0
SOLID
  8
0
 62
7
  6
CONTINUOUS
 10
536.9704363704
 20
31.583585915
 11
536.8548114807
 21
31.6481130052
 12
537.2594990909
 22
31.6158494672
 13
537.2594990909
 23
31.6158494672
  0
SOLID
  8
0
 62
7
  6
CONTINUOUS
 10
536.9704363704
 20
31.583585915
 11
537.2594990909
 21
31.6158494672
 12
537.0282489807
 22
31.4545309836
 13
537.0282489807
 23
31.4545309836
  0
SOLID
  8
0
 62
7
  6
CONTINUOUS
 10
537.2594990909
 20
31.6158494672
 11
537.3173113704
 21
31.4545309836
 12
537.0282489807
 22
31.4545309836
 13
537.0282489807
 23
31.4545309836
  0
SOLID
  8
0
 62
7
  6
CONTINUOUS
 10
536.2766863704
 20
31.6803765574
 11
536.1032490358
 21
31.6158494672
 12
535.9876239807
 22
31.6803765574
 13
535.9876239807
 23
31.6803765574
  0
SOLID
  8
0
 62
7
  6
CONTINUOUS
 10
536.1032490358
 20
31.6158494672
 11
535.9876239807
 21
31.5513216117
 12
535.9876239807
 22
31.6803765574
 13
535.9876239807
 23
31.6803765574
  0
SOLID
  8
0
 62
7
  6
CONTINUOUS
 10
535.9876239807
 20
31.5513216117
 11
535.6985614255
 21
30.8092570492
 12
535.9876239807
 22
31.6803765574
 13
535.9876239807
 23
31.6803765574
  0
SOLID
  8
0
 62
7
  6
CONTINUOUS
 10
535.9876239807
 20
31.6803765574
 11
535.6985614255
 21
30.8092570492
 12
535.9876239807
 22
32.3256504918
 13
535.9876239807
 23
32.3256504918
  0
SOLID
  8
0
 62
7
  6
CONTINUOUS
 10
535.6985614255
 20
30.8092570492
 11
535.6985614255
 21
32.3256504918
 12
535.9876239807
 22
32.3256504918
 13
535.9876239807
 23
32.3256504918
  0
SOLID
  8
0
 62
7
  6
CONTINUOUS
 10
535.9876239807
 20
31.5513216117
 11
535.9876239807
 21
30.8092570492
 12
535.6985614255
 22
30.8092570492
 13
535.6985614255
 23
30.8092570492
  0
SOLID
  8
0
 62
7
  6
CONTINUOUS
 10
537.0282489807
 20
30.8092570492
 11
537.0282489807
 21
31.4545309836
 12
537.3173113704
 22
31.4545309836
 13
537.3173113704
 23
31.4545309836
  0
SOLID
  8
0
 62
7
  6
CONTINUOUS
 10
537.3173113704
 20
31.4545309836
 11
537.3173113704
 21
30.8092570492
 12
537.0282489807
 22
30.8092570492
 13
537.0282489807
 23
30.8092570492
  0
SOLID
  8
0
 62
7
  6
CONTINUOUS
 10
538.0688739807
 20
31.809431823
 11
538.4735615909
 21
31.8416958158
 12
538.8204365909
 22
31.8416958158
 13
538.8204365909
 23
31.8416958158
  0
SOLID
  8
0
 62
7
  6
CONTINUOUS
 10
538.8204365909
 20
31.8416958158
 11
539.1673112601
 21
31.809431823
 12
538.0688739807
 22
31.809431823
 13
538.0688739807
 23
31.809431823
  0
SOLID
  8
0
 62
7
  6
CONTINUOUS
 10
537.9532490909
 20
31.7771687019
 11
538.0688739807
 21
31.809431823
 12
539.1673112601
 22
31.809431823
 13
539.1673112601
 23
31.809431823
  0
SOLID
  8
0
 62
7
  6
CONTINUOUS
 10
539.1673112601
 20
31.809431823
 11
539.3407487601
 21
31.7449043986
 12
537.9532490909
 22
31.7771687019
 13
537.9532490909
 23
31.7771687019
  0
SOLID
  8
0
 62
7
  6
CONTINUOUS
 10
537.8376238704
 20
31.7126398448
 11
537.9532490909
 21
31.7771687019
 12
539.3407487601
 22
31.7449043986
 13
539.3407487601
 23
31.7449043986
  0
SOLID
  8
0
 62
7
  6
CONTINUOUS
 10
537.8376238704
 20
31.7126398448
 11
539.3407487601
 21
31.7449043986
 12
538.4735615909
 22
31.7126398448
 13
538.4735615909
 23
31.7126398448
  0
SOLID
  8
0
 62
7
  6
CONTINUOUS
 10
538.4735615909
 20
31.7126398448
 11
539.3407487601
 21
31.7449043986
 12
538.8204365909
 22
31.7126398448
 13
538.8204365909
 23
31.7126398448
  0
SOLID
  8
0
 62
7
  6
CONTINUOUS
 10
538.8204365909
 20
31.7126398448
 11
539.3407487601
 21
31.7449043986
 12
539.0516867012
 22
31.6803774007
 13
539.0516867012
 23
31.6803774007
  0
SOLID
  8
0
 62
7
  6
CONTINUOUS
 10
539.3407487601
 20
31.7449043986
 11
539.4563739807
 21
31.6803774007
 12
539.0516867012
 22
31.6803774007
 13
539.0516867012
 23
31.6803774007
  0
SOLID
  8
0
 62
7
  6
CONTINUOUS
 10
537.7798115909
 20
31.6481126336
 11
537.8376238704
 21
31.7126398448
 12
538.4735615909
 22
31.7126398448
 13
538.4735615909
 23
31.7126398448
  0
SOLID
  8
0
 62
7
  6
CONTINUOUS
 10
539.1673112601
 20
31.6481126336
 11
539.0516867012
 21
31.6803774007
 12
539.4563739807
 22
31.6803774007
 13
539.4563739807
 23
31.6803774007
  0
SOLID
  8
0
 62
7
  6
CONTINUOUS
 10
539.1673112601
 20
31.6481126336
 11
539.4563739807
 21
31.6803774007
 12
539.2251242012
 22
31.5835861968
 13
539.2251242012
 23
31.5835861968
  0
SOLID
  8
0
 62
7
  6
CONTINUOUS
 10
539.4563739807
 20
31.6803774007
 11
539.5141862601
 21
31.5835861968
 12
539.2251242012
 22
31.5835861968
 13
539.2251242012
 23
31.5835861968
  0
SOLID
  8
0
 62
7
  6
CONTINUOUS
 10
539.2251242012
 20
31.4867945216
 11
539.2251242012
 21
31.5835861968
 12
539.5141862601
 22
31.5835861968
 13
539.5141862601
 23
31.5835861968
  0
SOLID
  8
0
 62
7
  6
CONTINUOUS
 10
539.2251242012
 20
31.4867945216
 11
539.5141862601
 21
31.5835861968
 12
539.2251242012
 22
31.3577403412
 13
539.2251242012
 23
31.3577403412
  0
SOLID
  8
0
 62
7
  6
CONTINUOUS
 10
539.2251242012
 20
31.3577403412
 11
539.5141862601
 21
31.5835861968
 12
539.2251242012
 22
31.1641579843
 13
539.2251242012
 23
31.1641579843
  0
SOLID
  8
0
 62
7
  6
CONTINUOUS
 10
539.5141862601
 20
31.5835861968
 11
539.5141862601
 21
31.0673661609
 12
539.2251242012
 22
31.1641579843
 13
539.2251242012
 23
31.1641579843
  0
SOLID
  8
0
 62
7
  6
CONTINUOUS
 10
541.4219987601
 20
31.8094310465
 11
541.6532492012
 21
31.8416957661
 12
541.8844989807
 22
31.8416957661
 13
541.8844989807
 23
31.8416957661
  0
SOLID
  8
0
 62
7
  6
CONTINUOUS
 10
541.8844989807
 20
31.8416957661
 11
542.0579364807
 21
31.8094310465
 12
541.4219987601
 22
31.8094310465
 13
541.4219987601
 23
31.8094310465
  0
SOLID
  8
0
 62
7
  6
CONTINUOUS
 10
541.2485612601
 20
31.7449047044
 11
541.4219987601
 21
31.8094310465
 12
542.0579364807
 22
31.8094310465
 13
542.0579364807
 23
31.8094310465
  0
SOLID
  8
0
 62
7
  6
CONTINUOUS
 10
542.0579364807
 20
31.8094310465
 11
542.2313739807
 21
31.7449047044
 12
541.2485612601
 22
31.7449047044
 13
541.2485612601
 23
31.7449047044
  0
SOLID
  8
0
 62
7
  6
CONTINUOUS
 10
542.2313739807
 20
31.7449047044
 11
541.6532492012
 21
31.7126400953
 12
541.2485612601
 22
31.7449047044
 13
541.2485612601
 23
31.7449047044
  0
SOLID
  8
0
 62
7
  6
CONTINUOUS
 10
541.1329367012
 20
31.6803773299
 11
541.2485612601
 21
31.7449047044
 12
541.6532492012
 22
31.7126400953
 13
541.6532492012
 23
31.7126400953
  0
SOLID
  8
0
 62
7
  6
CONTINUOUS
 10
541.6532492012
 20
31.7126400953
 11
541.4219987601
 21
31.6803773299
 12
541.1329367012
 22
31.6803773299
 13
541.1329367012
 23
31.6803773299
  0
SOLID
  8
0
 62
7
  6
CONTINUOUS
 10
541.6532492012
 20
31.7126400953
 11
542.2313739807
 21
31.7449047044
 12
541.8844989807
 22
31.6803773299
 13
541.8844989807
 23
31.6803773299
  0
SOLID
  8
0
 62
7
  6
CONTINUOUS
 10
542.2313739807
 20
31.7449047044
 11
542.3469992012
 21
31.6803773299
 12
541.8844989807
 22
31.6803773299
 13
541.8844989807
 23
31.6803773299
  0
SOLID
  8
0
 62
7
  6
CONTINUOUS
 10
542.0001242012
 20
31.6481130052
 11
541.8844989807
 21
31.6803773299
 12
542.3469992012
 22
31.6803773299
 13
542.3469992012
 23
31.6803773299
  0
SOLID
  8
0
 62
7
  6
CONTINUOUS
 10
542.0001242012
 20
31.6481130052
 11
542.3469992012
 21
31.6803773299
 12
542.1157487601
 22
31.5835862682
 13
542.1157487601
 23
31.5835862682
  0
SOLID
  8
0
 62
7
  6
CONTINUOUS
 10
542.3469992012
 20
31.6803773299
 11
542.4048114807
 21
31.5835862682
 12
542.1157487601
 22
31.5835862682
 13
542.1157487601
 23
31.5835862682
  0
SOLID
  8
0
 62
7
  6
CONTINUOUS
 10
542.1735617012
 20
31.422267832
 11
542.1157487601
 21
31.5835862682
 12
542.4048114807
 22
31.5835862682
 13
542.4048114807
 23
31.5835862682
  0
SOLID
  8
0
 62
7
  6
CONTINUOUS
 10
542.4048114807
 20
31.5835862682
 11
542.4626237601
 21
31.422267832
 12
542.1735617012
 22
31.422267832
 13
542.1735617012
 23
31.422267832
  0
SOLID
  8
0
 62
7
  6
CONTINUOUS
 10
541.4219987601
 20
31.6803773299
 11
541.2485612601
 21
31.6158502183
 12
541.1329367012
 22
31.6803773299
 13
541.1329367012
 23
31.6803773299
  0
SOLID
  8
0
 62
7
  6
CONTINUOUS
 10
541.2485612601
 20
31.6158502183
 11
541.1329367012
 21
31.5513216117
 12
541.1329367012
 22
31.6803773299
 13
541.1329367012
 23
31.6803773299
  0
SOLID
  8
0
 62
7
  6
CONTINUOUS
 10
541.1329367012
 20
31.5513216117
 11
540.8438739807
 21
30.8092577743
 12
541.1329367012
 22
31.6803773299
 13
541.1329367012
 23
31.6803773299
  0
SOLID
  8
0
 62
7
  6
CONTINUOUS
 10
541.1329367012
 20
31.6803773299
 11
540.8438739807
 21
30.8092577743
 12
541.1329367012
 22
31.8416957661
 13
541.1329367012
 23
31.8416957661
  0
SOLID
  8
0
 62
7
  6
CONTINUOUS
 10
540.8438739807
 20
30.8092577743
 11
540.8438739807
 21
31.8416957661
 12
541.1329367012
 22
31.8416957661
 13
541.1329367012
 23
31.8416957661
  0
SOLID
  8
0
 62
7
  6
CONTINUOUS
 10
541.1329367012
 20
31.5513216117
 11
541.1329367012
 21
30.8092577743
 12
540.8438739807
 22
30.8092577743
 13
540.8438739807
 23
30.8092577743
  0
SOLID
  8
0
 62
7
  6
CONTINUOUS
 10
542.1735617012
 20
30.8092577743
 11
542.1735617012
 21
31.422267832
 12
542.4626237601
 22
31.422267832
 13
542.4626237601
 23
31.422267832
  0
SOLID
  8
0
 62
7
  6
CONTINUOUS
 10
542.4626237601
 20
31.422267832
 11
542.4626237601
 21
30.8092577743
 12
542.1735617012
 22
30.8092577743
 13
542.1735617012
 23
30.8092577743
  0
SOLID
  8
0
 62
7
  6
CONTINUOUS
 10
543.2719989807
 20
31.8094314924
 11
543.6188739807
 21
31.8416958387
 12
543.9657489807
 22
31.8416958387
 13
543.9657489807
 23
31.8416958387
  0
SOLID
  8
0
 62
7
  6
CONTINUOUS
 10
543.9657489807
 20
31.8416958387
 11
544.3126239807
 21
31.8094314924
 12
543.2719989807
 22
31.8094314924
 13
543.2719989807
 23
31.8094314924
  0
SOLID
  8
0
 62
7
  6
CONTINUOUS
 10
543.0407492012
 20
31.7449043986
 11
543.2719989807
 21
31.8094314924
 12
544.3126239807
 22
31.8094314924
 13
544.3126239807
 23
31.8094314924
  0
SOLID
  8
0
 62
7
  6
CONTINUOUS
 10
543.0407492012
 20
31.7449043986
 11
544.3126239807
 21
31.8094314888
 12
544.4860614807
 22
31.7771687019
 13
544.4860614807
 23
31.7771687019
  0
SOLID
  8
0
 62
7
  6
CONTINUOUS
 10
543.0407492012
 20
31.7449043986
 11
544.4860614807
 21
31.7771687019
 12
543.6188739807
 22
31.7126401399
 13
543.6188739807
 23
31.7126401399
  0
SOLID
  8
0
 62
7
  6
CONTINUOUS
 10
543.6188739807
 20
31.7126401399
 11
544.4860614807
 21
31.7771687019
 12
543.9657489807
 22
31.7126401399
 13
543.9657489807
 23
31.7126401399
  0
SOLID
  8
0
 62
7
  6
CONTINUOUS
 10
544.4860614807
 20
31.7771687019
 11
544.6594989807
 21
31.7126401399
 12
543.9657489807
 22
31.7126401399
 13
543.9657489807
 23
31.7126401399
  0
SOLID
  8
0
 62
7
  6
CONTINUOUS
 10
544.3126239807
 20
31.6803773084
 11
543.9657489807
 21
31.7126401399
 12
544.6594989807
 22
31.7126401399
 13
544.6594989807
 23
31.7126401399
  0
SOLID
  8
0
 62
7
  6
CONTINUOUS
 10
542.9251239807
 20
31.6481128977
 11
543.0407492012
 21
31.7449043986
 12
543.6188739807
 22
31.7126401399
 13
543.6188739807
 23
31.7126401399
  0
SOLID
  8
0
 62
7
  6
CONTINUOUS
 10
544.3126239807
 20
31.6803773084
 11
544.6594989807
 21
31.7126401399
 12
544.4282492012
 22
31.6481128977
 13
544.4282492012
 23
31.6481128977
  0
SOLID
  8
0
 62
7
  6
CONTINUOUS
 10
544.4282492012
 20
31.6481128977
 11
544.6594989807
 21
31.7126401399
 12
544.4860614807
 22
31.5835858812
 13
544.4860614807
 23
31.5835858812
  0
SOLID
  8
0
 62
7
  6
CONTINUOUS
 10
544.6594989807
 20
31.7126401399
 11
544.7751235396
 21
31.5835858812
 12
544.4860614807
 22
31.5835858812
 13
544.4860614807
 23
31.5835858812
  0
SOLID
  8
0
 62
7
  6
CONTINUOUS
 10
534.0798114807
 20
31.6803773084
 11
533.5594989807
 21
31.6481129264
 12
534.3110615082
 22
31.7126401456
 13
534.3110615082
 23
31.7126401456
  0
SOLID
  8
0
 62
7
  6
CONTINUOUS
 10
533.5594989807
 20
31.6481129264
 11
533.6751239738
 21
31.7126401456
 12
534.3110615082
 22
31.7126401456
 13
534.3110615082
 23
31.7126401456
  0
SOLID
  8
0
 62
7
  6
CONTINUOUS
 10
534.0798114807
 20
31.6803773084
 11
533.9641864669
 21
31.6481129264
 12
533.5594989807
 22
31.6481129264
 13
533.5594989807
 23
31.6481129264
  0
SOLID
  8
0
 62
7
  6
CONTINUOUS
 10
533.4438739824
 20
31.5190588248
 11
533.5594989807
 21
31.6481129264
 12
533.9641864669
 22
31.6481129264
 13
533.9641864669
 23
31.6481129264
  0
SOLID
  8
0
 62
7
  6
CONTINUOUS
 10
537.7798115909
 20
31.6481130555
 11
538.4735615909
 21
31.7126400953
 12
538.2423114807
 22
31.6803773084
 13
538.2423114807
 23
31.6803773084
  0
SOLID
  8
0
 62
7
  6
CONTINUOUS
 10
538.2423114807
 20
31.6803773084
 11
538.1266865909
 21
31.6481130555
 12
537.7798115909
 22
31.6481130555
 13
537.7798115909
 23
31.6481130555
  0
SOLID
  8
0
 62
7
  6
CONTINUOUS
 10
537.7798115909
 20
31.5835859653
 11
537.7798115909
 21
31.6481130555
 12
538.1266865909
 22
31.6481130555
 13
538.1266865909
 23
31.6481130555
  0
SOLID
  8
0
 62
7
  6
CONTINUOUS
 10
538.1266865909
 20
31.6481130555
 11
538.0688739807
 21
31.5835859653
 12
537.7798115909
 22
31.5835859653
 13
537.7798115909
 23
31.5835859653
  0
SOLID
  8
0
 62
7
  6
CONTINUOUS
 10
542.9251239807
 20
31.6481130555
 11
543.6188739807
 21
31.7126400953
 12
543.3876242012
 22
31.6803773084
 13
543.3876242012
 23
31.6803773084
  0
SOLID
  8
0
 62
7
  6
CONTINUOUS
 10
543.3876242012
 20
31.6803773084
 11
543.2719989807
 21
31.6481130555
 12
542.9251239807
 22
31.6481130555
 13
542.9251239807
 23
31.6481130555
  0
SOLID
  8
0
 62
7
  6
CONTINUOUS
 10
542.9251239807
 20
31.5835859653
 11
542.9251239807
 21
31.6481130555
 12
543.2719989807
 22
31.6481130555
 13
543.2719989807
 23
31.6481130555
  0
SOLID
  8
0
 62
7
  6
CONTINUOUS
 10
543.2719989807
 20
31.6481130555
 11
543.2141867012
 21
31.5835859653
 12
542.9251239807
 22
31.5835859653
 13
542.9251239807
 23
31.5835859653
  0
SOLID
  8
0
 62
7
  6
CONTINUOUS
 10
543.0407492012
 20
31.4545317347
 11
542.9251239807
 21
31.5835859653
 12
543.2141867012
 22
31.5835859653
 13
543.2141867012
 23
31.5835859653
  0
SOLID
  8
0
 62
7
  6
CONTINUOUS
 10
533.4438739824
 20
31.5190588248
 11
533.9641864669
 21
31.6481130052
 12
533.7907489669
 22
31.5513216117
 13
533.7907489669
 23
31.5513216117
  0
SOLID
  8
0
 62
7
  6
CONTINUOUS
 10
533.7907489669
 20
31.5513216117
 11
533.7329364807
 21
31.4867945216
 12
533.4438739824
 22
31.5190588248
 13
533.4438739824
 23
31.5190588248
  0
SOLID
  8
0
 62
7
  6
CONTINUOUS
 10
533.3860614807
 20
31.325476038
 11
533.4438739824
 21
31.5190588248
 12
533.7329364807
 22
31.4867945216
 13
533.7329364807
 23
31.4867945216
  0
SOLID
  8
0
 62
7
  6
CONTINUOUS
 10
538.2423114807
 20
31.4545317347
 11
538.5891864807
 21
31.4867945557
 12
539.2251242012
 22
31.4867945557
 13
539.2251242012
 23
31.4867945557
  0
SOLID
  8
0
 62
7
  6
CONTINUOUS
 10
538.2423114807
 20
31.4545317347
 11
539.2251242012
 21
31.4867945557
 12
538.0110613704
 22
31.3900038345
 13
538.0110613704
 23
31.3900038345
  0
SOLID
  8
0
 62
7
  6
CONTINUOUS
 10
538.0110613704
 20
31.3900038345
 11
539.2251242012
 21
31.4867945557
 12
538.5891864807
 22
31.3577403754
 13
538.5891864807
 23
31.3577403754
  0
SOLID
  8
0
 62
7
  6
CONTINUOUS
 10
539.2251242012
 20
31.4867945557
 11
539.2251242012
 21
31.3577403754
 12
538.5891864807
 22
31.3577403754
 13
538.5891864807
 23
31.3577403754
  0
SOLID
  8
0
 62
7
  6
CONTINUOUS
 10
543.0407492012
 20
31.4545313481
 11
543.2141867012
 21
31.583585915
 12
543.2719989807
 22
31.5190588248
 13
543.2719989807
 23
31.5190588248
  0
SOLID
  8
0
 62
7
  6
CONTINUOUS
 10
543.2719989807
 20
31.5190588248
 11
543.4454364807
 21
31.4545313481
 12
543.0407492012
 22
31.4545313481
 13
543.0407492012
 23
31.4545313481
  0
SOLID
  8
0
 62
7
  6
CONTINUOUS
 10
543.2719989807
 20
31.3577403412
 11
543.0407492012
 21
31.4545313481
 12
543.4454364807
 22
31.4545313481
 13
543.4454364807
 23
31.4545313481
  0
SOLID
  8
0
 62
7
  6
CONTINUOUS
 10
543.4454364807
 20
31.4545313481
 11
544.4282492012
 21
31.2932132511
 12
543.2719989807
 22
31.3577403412
 13
543.2719989807
 23
31.3577403412
  0
SOLID
  8
0
 62
7
  6
CONTINUOUS
 10
544.2548117012
 20
31.1964222346
 11
543.2719989807
 21
31.3577403412
 12
544.4282492012
 22
31.2932132511
 13
544.4282492012
 23
31.2932132511
  0
SOLID
  8
0
 62
7
  6
CONTINUOUS
 10
544.4282492012
 20
31.2932132511
 11
544.6594989807
 21
31.1964222346
 12
544.2548117012
 22
31.1964222346
 13
544.2548117012
 23
31.1964222346
  0
SOLID
  8
0
 62
7
  6
CONTINUOUS
 10
544.4282492012
 20
31.1318947675
 11
544.2548117012
 21
31.1964222346
 12
544.6594989807
 22
31.1964222346
 13
544.6594989807
 23
31.1964222346
  0
SOLID
  8
0
 62
7
  6
CONTINUOUS
 10
544.4282492012
 20
31.1318947675
 11
544.6594989807
 21
31.1964222346
 12
544.4860614807
 22
31.0673665164
 13
544.4860614807
 23
31.0673665164
  0
SOLID
  8
0
 62
7
  6
CONTINUOUS
 10
544.6594989807
 20
31.1964222346
 11
544.7751235396
 21
31.0673665164
 12
544.4860614807
 22
31.0673665164
 13
544.4860614807
 23
31.0673665164
  0
SOLID
  8
0
 62
7
  6
CONTINUOUS
 10
544.4282492012
 20
31.0028394316
 11
544.4860614807
 21
31.0673665164
 12
544.7751235396
 22
31.0673665164
 13
544.7751235396
 23
31.0673665164
  0
SOLID
  8
0
 62
7
  6
CONTINUOUS
 10
544.7751235396
 20
31.0673665164
 11
544.7751235396
 21
31.0028394316
 12
544.4282492012
 22
31.0028394316
 13
544.4282492012
 23
31.0028394316
  0
SOLID
  8
0
 62
7
  6
CONTINUOUS
 10
544.3126239807
 20
30.9705762839
 11
544.4282492012
 21
31.0028394316
 12
544.7751235396
 22
31.0028394316
 13
544.7751235396
 23
31.0028394316
  0
SOLID
  8
0
 62
7
  6
CONTINUOUS
 10
544.3126239807
 20
30.9705762839
 11
544.7751235396
 21
31.0028394316
 12
544.0813742012
 22
30.9383123468
 13
544.0813742012
 23
30.9383123468
  0
SOLID
  8
0
 62
7
  6
CONTINUOUS
 10
544.7751235396
 20
31.0028394316
 11
544.6594989807
 21
30.9060491937
 12
544.0813742012
 22
30.9383123468
 13
544.0813742012
 23
30.9383123468
  0
SOLID
  8
0
 62
7
  6
CONTINUOUS
 10
544.6594989807
 20
30.9060491937
 11
543.2141867012
 21
30.8737848904
 12
544.0813742012
 22
30.9383123468
 13
544.0813742012
 23
30.9383123468
  0
SOLID
  8
0
 62
7
  6
CONTINUOUS
 10
544.0813742012
 20
30.9383123468
 11
543.2141867012
 21
30.8737848904
 12
543.7344992012
 22
30.9383123468
 13
543.7344992012
 23
30.9383123468
  0
SOLID
  8
0
 62
7
  6
CONTINUOUS
 10
543.2141867012
 20
30.8737848904
 11
543.0407492012
 21
30.9383123468
 12
543.7344992012
 22
30.9383123468
 13
543.7344992012
 23
30.9383123468
  0
SOLID
  8
0
 62
7
  6
CONTINUOUS
 10
543.2141867012
 20
30.8737848904
 11
544.6594989807
 21
30.9060491937
 12
543.3876242012
 22
30.8415205581
 13
543.3876242012
 23
30.8415205581
  0
SOLID
  8
0
 62
7
  6
CONTINUOUS
 10
544.6594989807
 20
30.9060491937
 11
544.4282492012
 21
30.8415205581
 12
543.3876242012
 22
30.8415205581
 13
543.3876242012
 23
30.8415205581
  0
SOLID
  8
0
 62
7
  6
CONTINUOUS
 10
543.7344992012
 20
30.8092581772
 11
543.3876242012
 21
30.8415205581
 12
544.4282492012
 22
30.8415205581
 13
544.4282492012
 23
30.8415205581
  0
SOLID
  8
0
 62
7
  6
CONTINUOUS
 10
544.4282492012
 20
30.8415205581
 11
544.0813742012
 21
30.8092581772
 12
543.7344992012
 22
30.8092581772
 13
543.7344992012
 23
30.8092581772
  0
SOLID
  8
0
 62
7
  6
CONTINUOUS
 10
533.3860614807
 20
31.325476038
 11
533.7329364807
 21
31.4867945216
 12
533.6751239738
 22
31.3577403412
 13
533.6751239738
 23
31.3577403412
  0
SOLID
  8
0
 62
7
  6
CONTINUOUS
 10
533.6751239738
 20
31.3577403412
 11
533.6751239738
 21
31.2609490436
 12
533.3860614807
 22
31.325476038
 13
533.3860614807
 23
31.325476038
  0
SOLID
  8
0
 62
7
  6
CONTINUOUS
 10
533.4438739824
 20
31.1318947675
 11
533.3860614807
 21
31.325476038
 12
533.6751239738
 22
31.2609490436
 13
533.6751239738
 23
31.2609490436
  0
SOLID
  8
0
 62
7
  6
CONTINUOUS
 10
533.6751239738
 20
31.2609490436
 11
533.7907489669
 21
31.0996304642
 12
533.4438739824
 22
31.1318947675
 13
533.4438739824
 23
31.1318947675
  0
SOLID
  8
0
 62
7
  6
CONTINUOUS
 10
533.5594989807
 20
31.0028388804
 11
533.4438739824
 21
31.1318947675
 12
533.7907489669
 22
31.0996304642
 13
533.7907489669
 23
31.0996304642
  0
SOLID
  8
0
 62
7
  6
CONTINUOUS
 10
533.7907489669
 20
31.0996304642
 11
533.9641864669
 21
31.0028388804
 12
533.5594989807
 22
31.0028388804
 13
533.5594989807
 23
31.0028388804
  0
SOLID
  8
0
 62
7
  6
CONTINUOUS
 10
533.6751239738
 20
30.9383122606
 11
533.5594989807
 21
31.0028388804
 12
533.9641864669
 22
31.0028388804
 13
533.9641864669
 23
31.0028388804
  0
SOLID
  8
0
 62
7
  6
CONTINUOUS
 10
533.9641864669
 20
31.0028388804
 11
534.3110615082
 21
30.9383122606
 12
533.6751239738
 22
30.9383122606
 13
533.6751239738
 23
30.9383122606
  0
SOLID
  8
0
 62
7
  6
CONTINUOUS
 10
533.8485614944
 20
30.8737848904
 11
533.6751239738
 21
30.9383122606
 12
534.3110615082
 22
30.9383122606
 13
534.3110615082
 23
30.9383122606
  0
SOLID
  8
0
 62
7
  6
CONTINUOUS
 10
537.8954364807
 20
31.3254759532
 11
538.0110613704
 21
31.3900038345
 12
538.5891864807
 22
31.3577403412
 13
538.5891864807
 23
31.3577403412
  0
SOLID
  8
0
 62
7
  6
CONTINUOUS
 10
538.5891864807
 20
31.3577403412
 11
538.3579363704
 21
31.3254759532
 12
537.8954364807
 22
31.3254759532
 13
537.8954364807
 23
31.3254759532
  0
SOLID
  8
0
 62
7
  6
CONTINUOUS
 10
537.7798115909
 20
31.1964218576
 11
537.8954364807
 21
31.3254759532
 12
538.3579363704
 22
31.3254759532
 13
538.3579363704
 23
31.3254759532
  0
SOLID
  8
0
 62
7
  6
CONTINUOUS
 10
538.1266865909
 20
31.2286853572
 11
537.7798115909
 21
31.1964218576
 12
538.2423114807
 22
31.2932132511
 13
538.2423114807
 23
31.2932132511
  0
SOLID
  8
0
 62
7
  6
CONTINUOUS
 10
537.7798115909
 20
31.1964218576
 11
538.3579363704
 21
31.325476038
 12
538.2423114807
 22
31.2932132511
 13
538.2423114807
 23
31.2932132511
  0
SOLID
  8
0
 62
7
  6
CONTINUOUS
 10
538.1266865909
 20
31.2286853572
 11
538.0688739807
 21
31.1318947675
 12
537.7798115909
 22
31.1964218576
 13
537.7798115909
 23
31.1964218576
  0
SOLID
  8
0
 62
7
  6
CONTINUOUS
 10
537.7798115909
 20
31.0996304642
 11
537.7798115909
 21
31.1964218576
 12
538.0688739807
 22
31.1318947675
 13
538.0688739807
 23
31.1318947675
  0
SOLID
  8
0
 62
7
  6
CONTINUOUS
 10
538.0688739807
 20
31.1318947675
 11
538.0688739807
 21
31.0673661609
 12
537.7798115909
 22
31.0996304642
 13
537.7798115909
 23
31.0996304642
  0
SOLID
  8
0
 62
7
  6
CONTINUOUS
 10
537.8376238704
 20
30.9705762839
 11
537.7798115909
 21
31.0996304642
 12
538.0688739807
 22
31.0673661609
 13
538.0688739807
 23
31.0673661609
  0
SOLID
  8
0
 62
7
  6
CONTINUOUS
 10
539.2251242012
 20
31.1641579843
 11
539.5141862601
 21
31.0673661609
 12
539.1673112601
 22
31.0996304642
 13
539.1673112601
 23
31.0996304642
  0
SOLID
  8
0
 62
7
  6
CONTINUOUS
 10
538.9938737601
 20
31.0028390707
 11
539.1673112601
 21
31.0996304642
 12
539.5141862601
 22
31.0673661609
 13
539.5141862601
 23
31.0673661609
  0
SOLID
  8
0
 62
7
  6
CONTINUOUS
 10
538.9938737601
 20
31.0028390707
 11
539.5141862601
 21
31.0673661609
 12
539.2251242012
 22
30.9705762839
 13
539.2251242012
 23
30.9705762839
  0
SOLID
  8
0
 62
7
  6
CONTINUOUS
 10
539.5141862601
 20
31.0673661609
 11
539.5719992012
 21
30.9060491937
 12
539.2251242012
 22
30.9705762839
 13
539.2251242012
 23
30.9705762839
  0
SOLID
  8
0
 62
7
  6
CONTINUOUS
 10
539.2829364807
 20
30.8737848904
 11
539.2251242012
 21
30.9705762839
 12
539.5719992012
 22
30.9060491937
 13
539.5719992012
 23
30.9060491937
  0
SOLID
  8
0
 62
7
  6
CONTINUOUS
 10
539.2829364807
 20
30.8737848904
 11
539.5719992012
 21
30.9060491937
 12
539.3407487601
 22
30.8092576254
 13
539.3407487601
 23
30.8092576254
  0
SOLID
  8
0
 62
7
  6
CONTINUOUS
 10
539.5719992012
 20
30.9060491937
 11
539.6298114807
 21
30.8092576254
 12
539.3407487601
 22
30.8092576254
 13
539.3407487601
 23
30.8092576254
  0
SOLID
  8
0
 62
7
  6
CONTINUOUS
 10
534.8891865358
 20
31.035103216
 11
534.9469989807
 21
31.1318946289
 12
535.2360615358
 22
31.1318946289
 13
535.2360615358
 23
31.1318946289
  0
SOLID
  8
0
 62
7
  6
CONTINUOUS
 10
535.2360615358
 20
31.1318946289
 11
535.1782489255
 21
31.0028390707
 12
534.8891865358
 22
31.035103216
 13
534.8891865358
 23
31.035103216
  0
SOLID
  8
0
 62
7
  6
CONTINUOUS
 10
534.7157489531
 20
30.9705762839
 11
534.8891865358
 21
31.035103216
 12
535.1782489255
 22
31.0028390707
 13
535.1782489255
 23
31.0028390707
  0
SOLID
  8
0
 62
7
  6
CONTINUOUS
 10
534.7157489531
 20
30.9705762839
 11
535.1782489255
 21
31.0028390707
 12
534.3110615082
 22
30.9383119806
 13
534.3110615082
 23
30.9383119806
  0
SOLID
  8
0
 62
7
  6
CONTINUOUS
 10
535.1782489255
 20
31.0028390707
 11
535.0048114255
 21
30.9060491937
 12
534.3110615082
 22
30.9383119806
 13
534.3110615082
 23
30.9383119806
  0
SOLID
  8
0
 62
7
  6
CONTINUOUS
 10
533.8485614944
 20
30.8737848904
 11
534.3110615082
 21
30.9383119806
 12
535.0048114255
 22
30.9060491937
 13
535.0048114255
 23
30.9060491937
  0
SOLID
  8
0
 62
7
  6
CONTINUOUS
 10
533.8485614944
 20
30.8737848904
 11
535.0048114255
 21
30.9060491937
 12
534.0219989944
 22
30.8415207131
 13
534.0219989944
 23
30.8415207131
  0
SOLID
  8
0
 62
7
  6
CONTINUOUS
 10
535.0048114255
 20
30.9060491937
 11
534.7735614807
 21
30.8415207131
 12
534.0219989944
 22
30.8415207131
 13
534.0219989944
 23
30.8415207131
  0
SOLID
  8
0
 62
7
  6
CONTINUOUS
 10
534.3688739531
 20
30.8092578002
 11
534.0219989944
 21
30.8415207131
 12
534.7735614807
 22
30.8415207131
 13
534.7735614807
 23
30.8415207131
  0
SOLID
  8
0
 62
7
  6
CONTINUOUS
 10
537.8376238704
 20
30.9705762839
 11
538.0688739807
 21
31.0673661609
 12
538.1266865909
 22
31.0028390707
 13
538.1266865909
 23
31.0028390707
  0
SOLID
  8
0
 62
7
  6
CONTINUOUS
 10
538.1266865909
 20
31.0028390707
 11
538.3579363704
 21
30.9383119806
 12
537.8376238704
 22
30.9705762839
 13
537.8376238704
 23
30.9705762839
  0
SOLID
  8
0
 62
7
  6
CONTINUOUS
 10
538.0110613704
 20
30.8737848904
 11
537.8376238704
 21
30.9705762839
 12
538.3579363704
 22
30.9383119806
 13
538.3579363704
 23
30.9383119806
  0
SOLID
  8
0
 62
7
  6
CONTINUOUS
 10
538.7048113704
 20
30.9383119664
 11
538.9938737601
 21
31.0028390707
 12
539.2251242012
 22
30.9705762839
 13
539.2251242012
 23
30.9705762839
  0
SOLID
  8
0
 62
7
  6
CONTINUOUS
 10
539.2251242012
 20
30.9705762839
 11
539.1673112601
 21
30.9060491937
 12
538.7048113704
 22
30.9383119664
 13
538.7048113704
 23
30.9383119664
  0
SOLID
  8
0
 62
7
  6
CONTINUOUS
 10
539.1673112601
 20
30.9060491937
 11
538.0110613704
 21
30.8737848904
 12
538.7048113704
 22
30.9383119664
 13
538.7048113704
 23
30.9383119664
  0
SOLID
  8
0
 62
7
  6
CONTINUOUS
 10
538.0110613704
 20
30.8737848904
 11
538.3579363704
 21
30.9383119664
 12
538.7048113704
 22
30.9383119664
 13
538.7048113704
 23
30.9383119664
  0
SOLID
  8
0
 62
7
  6
CONTINUOUS
 10
538.0110613704
 20
30.8737848904
 11
539.1673112601
 21
30.9060491937
 12
538.1266865909
 22
30.8415205568
 13
538.1266865909
 23
30.8415205568
  0
SOLID
  8
0
 62
7
  6
CONTINUOUS
 10
539.1673112601
 20
30.9060491937
 11
538.9938737601
 21
30.8415205568
 12
538.1266865909
 22
30.8415205568
 13
538.1266865909
 23
30.8415205568
  0
SOLID
  8
0
 62
7
  6
CONTINUOUS
 10
538.3579363704
 20
30.8092577215
 11
538.1266865909
 21
30.8415205568
 12
538.9938737601
 22
30.8415205568
 13
538.9938737601
 23
30.8415205568
  0
SOLID
  8
0
 62
7
  6
CONTINUOUS
 10
538.9938737601
 20
30.8415205568
 11
538.7048113704
 21
30.8092577215
 12
538.3579363704
 22
30.8092577215
 13
538.3579363704
 23
30.8092577215
  0
SOLID
  8
0
 62
7
  6
CONTINUOUS
 10
543.3876242012
 20
30.9705762839
 11
543.0407492012
 21
30.9383119664
 12
543.2719989807
 22
31.0028390707
 13
543.2719989807
 23
31.0028390707
  0
SOLID
  8
0
 62
7
  6
CONTINUOUS
 10
543.2719989807
 20
31.0028390707
 11
543.0407492012
 21
30.9383119664
 12
543.2141867012
 22
31.0673661467
 13
543.2141867012
 23
31.0673661467
  0
SOLID
  8
0
 62
7
  6
CONTINUOUS
 10
543.0407492012
 20
30.9383119664
 11
542.9251239807
 21
31.0673661467
 12
543.2141867012
 22
31.0673661467
 13
543.2141867012
 23
31.0673661467
  0
SOLID
  8
0
 62
7
  6
CONTINUOUS
 10
543.3876242012
 20
30.9705762839
 11
543.7344992012
 21
30.9383119664
 12
543.0407492012
 22
30.9383119664
 13
543.0407492012
 23
30.9383119664
  0
SOLID
  8
0
 62
7
  6
CONTINUOUS
 10
540.0923117012
 20
30.8092578002
 11
540.0923117012
 21
31.841695792
 12
540.3813737601
 22
30.8092578002
 13
540.3813737601
 23
31.841695792
  0
ENDBLK
  8
0
  6
BYBLOCK
 62
0
  0
BLOCK
  8
0
 62
2
  6
CONTINUOUS
  2
SYMBOL_2_BL0
 70
64
 10
416.1419631151
 20
19.7009994242
  0
TEXT
  8
0
 62
7
  6
CONTINUOUS
 10
402.4066669574
 20
19.0744135318
  7
TEXTSTYLE_3
 40
2.7338706658
  1
Ammeraal Beltech
 41
1.0
 51
15.0
 72
0
  0
TEXT
  8
0
 62
7
  6
CONTINUOUS
 10
413.2074677831
 20
16.800876859
  7
TEXTSTYLE_4
 40
1.0935482663
  1
Innovation & Service in Belting
 41
1.0
 72
0
  0
LINE
  8
0
 62
7
  6
CONTINUOUS
 10
396.382126306
 20
19.8410068404
 11
397.1602782994
 21
23.5019241381
  0
LINE
  8
0
 62
7
  6
CONTINUOUS
 10
407.2554465892
 20
27.1653180497
 11
397.6480960424
 21
24.0437006284
  0
LINE
  8
0
 62
7
  6
CONTINUOUS
 10
396.6074096383
 20
19.1476560374
 11
404.1144848995
 21
12.3882551114
  0
LINE
  8
0
 62
7
  6
CONTINUOUS
 10
396.869944049
 20
20.3827833308
 11
407.6782134142
 21
23.8946029297
  0
LINE
  8
0
 62
7
  6
CONTINUOUS
 10
407.674008277
 20
13.544814366
 11
399.2285486083
 21
21.1491404077
  0
LINE
  8
0
 62
7
  6
CONTINUOUS
 10
408.1938309968
 20
26.320392934
 11
407.2172714596
 21
21.7260415315
  0
LINE
  8
0
 62
7
  6
CONTINUOUS
 10
406.5174695119
 20
18.4337322177
 11
405.8310213004
 21
15.2042472933
  0
LINE
  8
0
 62
7
  6
CONTINUOUS
 10
408.8749270954
 20
13.9350165436
 11
409.831158631
 21
18.4337322177
  0
LINE
  8
0
 62
7
  6
CONTINUOUS
 10
410.5309605787
 20
21.7260415315
 11
410.9752023811
 21
23.8160348909
  0
LINE
  8
0
 62
7
  6
CONTINUOUS
 10
404.8275859748
 20
12.2366807987
 11
408.3871093524
 21
13.3932400533
  0
LINE
  8
0
 62
7
  6
CONTINUOUS
 10
407.9685476645
 20
27.013743737
 11
410.7499190488
 21
24.5093856939
  0
ARC
  8
0
 62
7
  6
CONTINUOUS
 10
397.8733793747
 20
23.3503498254
 40
0.7290321776
 50
108.0
 51
168.0
  0
ARC
  8
0
 62
7
  6
CONTINUOUS
 10
407.4807299215
 20
26.4719672466
 40
0.7290321776
 50
348.0
 51
108.0
  0
ARC
  8
0
 62
7
  6
CONTINUOUS
 10
410.2621013058
 20
23.9676092036
 40
0.7290321776
 50
348.0
 51
48.0
  0
ARC
  8
0
 62
7
  6
CONTINUOUS
 10
404.6023026425
 20
12.9300316018
 40
0.7290321776
 50
228.0
 51
288.0
  0
ARC
  8
0
 62
7
  6
CONTINUOUS
 10
397.0952273813
 20
19.6894325277
 40
0.7290321776
 50
108.0
 51
228.0
  0
ARC
  8
0
 62
7
  6
CONTINUOUS
 10
408.1618260201
 20
14.0865908563
 40
0.7290321776
 50
228.0
 51
348.0
  0
ENDBLK
  8
0
  6
BYBLOCK
 62
0
  0
ENDSEC
  0
SECTION
  2
ENTITIES
  0
TEXT
  8
0
 62
5
  6
CONTINUOUS
 10
480.0
 20
25.636
  7
TEXTSTYLE_2
 40
2.8
  1
Scale :
 41
0.6
 51
0.000019
 72
0
  0
TEXT
  8
0
 62
5
  6
CONTINUOUS
 10
500.0
 20
25.636
  7
TEXTSTYLE_2
 40
2.8
  1
Belt type:
 41
0.6
 51
0.000019
 72
0
  0
INSERT
  8
0
 62
2
  6
CONTINUOUS
  2
SYMBOL_2_BL0
 10
416.1419631151
 20
19.7009994242
  0
INSERT
  8
0
 62
2
  6
CONTINUOUS
  2
SYMBOL_3_BL1
 10
557.4079930916
 20
35.8092573885
  0
LINE
  8
0
 62
2
  6
CONTINUOUS
 10
394.0
 20
30.0
 11
584.0
 21
30.0
  0
LINE
  8
0
 62
2
  6
CONTINUOUS
 10
394.0
 20
30.0
 11
394.0
 21
10.0
  0
LINE
  8
0
 62
2
  6
CONTINUOUS
 10
394.0
 20
10.0
 11
584.0
 21
10.0
  0
LINE
  8
0
 62
2
  6
CONTINUOUS
 10
479.0
 20
30.0
 11
479.0
 21
10.0
  0
LINE
  8
0
 62
2
  6
CONTINUOUS
 10
499.0
 20
30.0
 11
499.0
 21
10.0
  0
LINE
  8
0
 62
2
  6
CONTINUOUS
 10
584.0
 20
30.0
 11
584.0
 21
10.0
  0
TEXT
  8
0
 62
5
  6
CONTINUOUS
 10
397.0
 20
23.303
  7
TEXTSTYLE_5
 40
1.52
  1
                                                                     Ammeraal Beltech Modular A/S
 41
1.0
 72
0
  0
TEXT
  8
0
 62
5
  6
CONTINUOUS
 10
397.0
 20
20.595
  7
TEXTSTYLE_5
 40
1.5
  1
                                                                      Hjulmagervej 21, 7100 Vejle,  DK
 41
1.0
 72
0
  0
TEXT
  8
0
 62
5
  6
CONTINUOUS
 10
397.0
 20
17.881
  7
TEXTSTYLE_5
 40
1.495
  1
                                                                      tel: 
 41
1.0
 72
0
  0
TEXT
  8
0
 62
5
  6
CONTINUOUS
 10
441.9869465649
 20
17.881
  7
TEXTSTYLE_5
 40
1.51
  1
+45 75723100     fax: +45 75723348
 41
1.0
 72
0
  0
TEXT
  8
0
 62
5
  6
CONTINUOUS
 10
397.0
 20
15.177
  7
TEXTSTYLE_5
 40
1.5
  1
                                                                      admin@unichains.dk  www.unichains.com
 41
1.0
 72
0
  0
TEXT
  8
0
 62
5
  6
CONTINUOUS
 10
483.75
 20
13.75
  7
TEXTSTYLE_6
 40
5.0
  1
1:1
 41
0.7
 72
1
 11
489.0
 21
13.75
  0
TEXT
  8
0
 62
5
  6
CONTINUOUS
 10
502.0
 20
13.75
  7
TEXTSTYLE_7
 40
7.5
  1
Sprocket Z13
 41
0.6361111111
 72
0
  0
LINE
  8
0
 62
7
  6
CONTINUOUS
 10
0.0
 20
0.0
 11
0.0
 21
420.0
  0
LINE
  8
0
 62
7
  6
CONTINUOUS
 10
10.0
 20
10.0
 11
10.0
 21
410.0
  0
LINE
  8
0
 62
7
  6
CONTINUOUS
 10
0.0
 20
0.0
 11
594.0
 21
0.0
  0
LINE
  8
0
 62
7
  6
CONTINUOUS
 10
10.0
 20
10.0
 11
584.0
 21
10.0
  0
LINE
  8
0
 62
7
  6
CONTINUOUS
 10
394.0
 20
30.0
 11
584.0
 21
30.0
  0
LINE
  8
0
 62
7
  6
CONTINUOUS
 10
179.0
 20
5.0
 11
179.0
 21
10.0
  0
LINE
  8
0
 62
7
  6
CONTINUOUS
 10
179.0
 20
410.0
 11
179.0
 21
415.0
  0
LINE
  8
0
 62
7
  6
CONTINUOUS
 10
594.0
 20
420.0
 11
584.0
 21
410.0
  0
LINE
  8
0
 62
7
  6
CONTINUOUS
 10
384.0
 20
410.0
 11
384.0
 21
415.0
  0
LINE
  8
0
 62
7
  6
CONTINUOUS
 10
584.0
 20
297.0
 11
589.0
 21
297.0
  0
LINE
  8
0
 62
7
  6
CONTINUOUS
 10
10.0
 20
410.0
 11
584.0
 21
410.0
  0
LINE
  8
0
 62
7
  6
CONTINUOUS
 10
0.0
 20
420.0
 11
594.0
 21
420.0
  0
LINE
  8
0
 62
7
  6
CONTINUOUS
 10
584.0
 20
10.0
 11
584.0
 21
410.0
  0
LINE
  8
0
 62
7
  6
CONTINUOUS
 10
594.0
 20
0.0
 11
594.0
 21
420.0
  0
LINE
  8
DEFAULT_2
 62
8
  6
HIDDEN
 10
61.0150078413
 20
245.7110350552
 11
61.0485655638
 21
246.7104718362
  0
LINE
  8
DEFAULT_2
 62
8
  6
HIDDEN
 10
63.0429226716
 20
245.6429445021
 11
63.0764803722
 21
246.6423812839
  0
LINE
  8
0
 62
9
  6
CONTINUOUS
 10
57.246057086
 20
214.6709329643
 11
57.0394588049
 21
213.692507111
  0
LINE
  8
0
 62
9
  6
CONTINUOUS
 10
59.2313395329
 20
214.2517331449
 11
59.0247412304
 21
213.2733072962
  0
LINE
  8
DEFAULT_2
 62
8
  6
HIDDEN
 10
89.9812021173
 20
300.9864165615
 11
90.4753774361
 21
301.8557788302
  0
LINE
  8
DEFAULT_2
 62
8
  6
HIDDEN
 10
91.7451882656
 20
299.9837063583
 11
92.2393635653
 21
300.8530686379
  0
LINE
  8
0
 62
9
  6
CONTINUOUS
 10
72.2189072564
 20
275.2532898784
 11
71.5812763974
 21
274.4829478195
  0
LINE
  8
0
 62
9
  6
CONTINUOUS
 10
73.7819756918
 20
273.9595001163
 11
73.144344816
 21
273.1891580714
  0
LINE
  8
DEFAULT_2
 62
8
  6
HIDDEN
 10
141.3172440088
 20
336.4690745004
 11
142.1588273138
 21
337.0092018381
  0
LINE
  8
DEFAULT_2
 62
8
  6
HIDDEN
 10
142.4131935067
 20
334.7614534708
 11
143.2547767998
 21
335.3015808269
  0
LINE
  8
0
 62
9
  6
CONTINUOUS
 10
113.630732736
 20
321.9380724306
 11
112.7081428446
 21
321.5522902481
  0
LINE
  8
0
 62
9
  6
CONTINUOUS
 10
114.4135070185
 20
320.0660843683
 11
113.4909171187
 21
319.680302206
  0
LINE
  8
0
 62
9
  6
CONTINUOUS
 10
233.7858349618
 20
92.6494385096
 11
234.773939787
 21
92.8032203503
  0
LINE
  8
0
 62
9
  6
CONTINUOUS
 10
233.473802744
 20
94.6543601483
 11
234.4619075726
 21
94.8081419673
  0
LINE
  8
DEFAULT_2
 62
8
  6
HIDDEN
 10
141.471413397
 20
92.6494385096
 11
140.4833085719
 21
92.8032203503
  0
LINE
  8
DEFAULT_2
 62
8
  6
HIDDEN
 10
141.7834456148
 20
94.6543601483
 11
140.7953407863
 21
94.8081419673
  0
LINE
  8
0
 62
9
  6
CONTINUOUS
 10
171.8309013836
 20
85.1664967879
 11
172.7772907398
 21
84.8434686367
  0
LINE
  8
0
 62
9
  6
CONTINUOUS
 10
172.4863441198
 20
87.086775336
 11
173.4327334689
 21
86.763747164
  0
LINE
  8
DEFAULT_2
 62
8
  6
HIDDEN
 10
90.0905405543
 20
128.0671476029
 11
89.2870831677
 21
128.662509869
  0
LINE
  8
DEFAULT_2
 62
8
  6
HIDDEN
 10
91.2985649054
 20
129.6974089469
 11
90.4951075058
 21
130.2927711954
  0
LINE
  8
0
 62
9
  6
CONTINUOUS
 10
113.4950357146
 20
107.3325742071
 11
114.1829032056
 21
106.6067379206
  0
LINE
  8
0
 62
9
  6
CONTINUOUS
 10
114.9677993729
 20
108.7282969909
 11
115.655666848
 21
108.0024606893
  0
LINE
  8
DEFAULT_2
 62
8
  6
HIDDEN
 10
61.0544672088
 20
183.3058537442
 11
60.6197196653
 21
184.2064061155
  0
LINE
  8
DEFAULT_2
 62
8
  6
HIDDEN
 10
62.8817398726
 20
184.1879815663
 11
62.4469923094
 21
185.088533928
  0
LINE
  8
0
 62
9
  6
CONTINUOUS
 10
72.1422817564
 20
154.0696895606
 11
72.4140452297
 21
153.1073254847
  0
LINE
  8
0
 62
9
  6
CONTINUOUS
 10
74.0949739314
 20
154.6211133107
 11
74.3667373836
 21
153.6587492289
  0
LINE
  8
DEFAULT_2
 62
8
  6
HIDDEN
 10
72.6739723798
 20
232.8277275521
 11
72.5534356996
 21
231.835018678
  0
LINE
  8
0
 62
9
  6
CONTINUOUS
 10
71.6494105976
 20
224.3897021223
 11
71.7699472779
 21
225.3824109964
  0
LINE
  8
DEFAULT_2
 62
8
  6
HIDDEN
 10
73.1703268169
 20
232.767459212
 11
73.0497901366
 21
231.7747503379
  0
LINE
  8
0
 62
9
  6
CONTINUOUS
 10
72.1457650347
 20
224.3294337822
 11
72.2663017149
 21
225.3221426563
  0
LINE
  8
0
 62
7
  6
CONTINUOUS
 10
78.4705150598
 20
259.8259769702
 11
74.4927928236
 21
227.066487044
  0
LINE
  8
0
 62
7
  6
CONTINUOUS
 10
70.8164122881
 20
196.788769303
 11
71.2620628905
 21
200.4590322209
  0
LINE
  8
DEFAULT_2
 62
8
  6
HIDDEN
 10
71.2620628905
 20
200.4590322209
 11
74.4927928236
 21
227.066487044
  0
LINE
  8
0
 62
9
  6
CONTINUOUS
 10
79.4632239339
 20
259.70544029
 11
75.4855016977
 21
226.9459503637
  0
LINE
  8
DEFAULT_2
 62
8
  6
HIDDEN
 10
71.8091211622
 20
196.6682326227
 11
75.4855016977
 21
226.9459503637
  0
LINE
  8
DEFAULT_2
 62
8
  6
HIDDEN
 10
94.3175309916
 20
284.1606233194
 11
93.7494662449
 21
283.3376394535
  0
LINE
  8
0
 62
9
  6
CONTINUOUS
 10
89.4889806444
 20
277.1652604593
 11
90.0570453912
 21
277.9882443252
  0
LINE
  8
DEFAULT_2
 62
8
  6
HIDDEN
 10
94.7290229246
 20
283.876590946
 11
94.1609581778
 21
283.0536070802
  0
LINE
  8
0
 62
9
  6
CONTINUOUS
 10
89.9004725773
 20
276.881228086
 11
90.4685373241
 21
277.7042119518
  0
LINE
  8
0
 62
7
  6
CONTINUOUS
 10
111.9968267448
 20
305.3725982476
 11
93.2506345493
 21
278.2140501902
  0
LINE
  8
0
 62
7
  6
CONTINUOUS
 10
75.9246042207
 20
253.1129617975
 11
78.0248644574
 21
256.1557140523
  0
LINE
  8
DEFAULT_2
 62
8
  6
HIDDEN
 10
78.0248644574
 20
256.1557140523
 11
93.2506345493
 21
278.2140501902
  0
LINE
  8
0
 62
9
  6
CONTINUOUS
 10
112.8198106107
 20
304.8045335009
 11
94.0736184152
 21
277.6459854434
  0
LINE
  8
DEFAULT_2
 62
8
  6
HIDDEN
 10
76.7475880866
 20
252.5448970508
 11
94.0736184152
 21
277.6459854434
  0
LINE
  8
DEFAULT_2
 62
8
  6
HIDDEN
 10
137.3375365322
 20
319.5553819784
 11
136.4520805065
 21
319.0906588063
  0
LINE
  8
0
 62
9
  6
CONTINUOUS
 10
129.8111603141
 20
315.605235016
 11
130.6966163398
 21
316.069958188
  0
LINE
  8
DEFAULT_2
 62
8
  6
HIDDEN
 10
137.5698981182
 20
319.1126539655
 11
136.6844420926
 21
318.6479307935
  0
LINE
  8
0
 62
9
  6
CONTINUOUS
 10
130.0435219002
 20
315.1625070032
 11
130.9289779258
 21
315.6272301752
  0
LINE
  8
0
 62
7
  6
CONTINUOUS
 10
162.8494717601
 20
330.1216745926
 11
133.6293363212
 21
314.785764468
  0
LINE
  8
0
 62
7
  6
CONTINUOUS
 10
106.6228409465
 20
300.6116622735
 11
109.8965665081
 21
302.3298459928
  0
LINE
  8
DEFAULT_2
 62
8
  6
HIDDEN
 10
109.8965665081
 20
302.3298459928
 11
133.6293363212
 21
314.785764468
  0
LINE
  8
0
 62
9
  6
CONTINUOUS
 10
163.3141949321
 20
329.2362185669
 11
134.0940594932
 21
313.9003084423
  0
LINE
  8
DEFAULT_2
 62
8
  6
HIDDEN
 10
107.0875641185
 20
299.7262062478
 11
134.0940594932
 21
313.9003084423
  0
LINE
  8
0
 62
9
  6
CONTINUOUS
 10
219.5911283951
 20
102.6704849526
 11
218.6201865777
 21
102.4311692884
  0
LINE
  8
DEFAULT_2
 62
8
  6
HIDDEN
 10
211.338122947
 20
100.6363018062
 11
212.3090647644
 21
100.8756174705
  0
LINE
  8
0
 62
9
  6
CONTINUOUS
 10
219.471470563
 20
103.1559558614
 11
218.5005287455
 21
102.9166401971
  0
LINE
  8
DEFAULT_2
 62
8
  6
HIDDEN
 10
211.2184651148
 20
101.1217727149
 11
212.1894069323
 21
101.3610883792
  0
LINE
  8
0
 62
7
  6
CONTINUOUS
 10
245.6938341659
 20
111.6790436678
 11
242.1040488412
 21
110.7942410522
  0
LINE
  8
DEFAULT_2
 62
8
  6
HIDDEN
 10
242.1040488412
 20
110.7942410522
 11
216.0800137821
 21
104.3798925033
  0
LINE
  8
0
 62
7
  6
CONTINUOUS
 10
184.0388388547
 20
96.4824521782
 11
216.0800137821
 21
104.3798925033
  0
LINE
  8
DEFAULT_2
 62
8
  6
HIDDEN
 10
245.4545185016
 20
112.6499854852
 11
215.8406981178
 21
105.3508343208
  0
LINE
  8
0
 62
9
  6
CONTINUOUS
 10
183.7995231904
 20
97.4533939956
 11
215.8406981178
 21
105.3508343208
  0
LINE
  8
0
 62
9
  6
CONTINUOUS
 10
163.9191254119
 20
100.6363018062
 11
162.9481835945
 21
100.8756174705
  0
LINE
  8
DEFAULT_2
 62
8
  6
HIDDEN
 10
155.6661199638
 20
102.6704849526
 11
156.6370617812
 21
102.4311692884
  0
LINE
  8
0
 62
9
  6
CONTINUOUS
 10
164.038783244
 20
101.1217727149
 11
163.0678414266
 21
101.3610883792
  0
LINE
  8
DEFAULT_2
 62
8
  6
HIDDEN
 10
155.7857777959
 20
103.1559558614
 11
156.7567196133
 21
102.9166401971
  0
LINE
  8
0
 62
7
  6
CONTINUOUS
 10
191.2184095042
 20
96.4824521782
 11
187.6286241794
 21
97.3672547938
  0
LINE
  8
DEFAULT_2
 62
8
  6
HIDDEN
 10
187.6286241794
 20
97.3672547938
 11
161.6045891203
 21
103.7816033426
  0
LINE
  8
0
 62
7
  6
CONTINUOUS
 10
129.5634141929
 20
111.6790436678
 11
161.6045891203
 21
103.7816033426
  0
LINE
  8
DEFAULT_2
 62
8
  6
HIDDEN
 10
191.4577251684
 20
97.4533939956
 11
161.8439047846
 21
104.7525451601
  0
LINE
  8
0
 62
9
  6
CONTINUOUS
 10
129.8027298572
 20
112.6499854852
 11
161.8439047846
 21
104.7525451601
  0
LINE
  8
DEFAULT_2
 62
8
  6
HIDDEN
 10
107.3163415064
 20
130.3437344973
 11
108.0648522546
 21
129.6806118391
  0
LINE
  8
0
 62
9
  6
CONTINUOUS
 10
113.6786828659
 20
124.7071919023
 11
112.9301721177
 21
125.3703145606
  0
LINE
  8
DEFAULT_2
 62
8
  6
HIDDEN
 10
107.6479028355
 20
130.7179898714
 11
108.3964135837
 21
130.0548672132
  0
LINE
  8
0
 62
9
  6
CONTINUOUS
 10
114.010244195
 20
125.0814472764
 11
113.2617334468
 21
125.7445699346
  0
LINE
  8
0
 62
7
  6
CONTINUOUS
 10
88.3900293774
 20
150.4509493188
 11
113.090957267
 21
128.5678367474
  0
LINE
  8
0
 62
7
  6
CONTINUOUS
 10
135.9206082861
 20
108.3425308216
 11
133.1531995177
 21
110.7942410522
  0
LINE
  8
DEFAULT_2
 62
8
  6
HIDDEN
 10
133.1531995177
 20
110.7942410522
 11
113.090957267
 21
128.5678367474
  0
LINE
  8
0
 62
9
  6
CONTINUOUS
 10
89.0531520357
 20
151.199460067
 11
113.7540799252
 21
129.3163474956
  0
LINE
  8
DEFAULT_2
 62
8
  6
HIDDEN
 10
136.5837309443
 20
109.0910415698
 11
113.7540799252
 21
129.3163474956
  0
LINE
  8
DEFAULT_2
 62
8
  6
HIDDEN
 10
77.3651391415
 20
177.3164424684
 11
77.7197440286
 21
176.3814262257
  0
LINE
  8
0
 62
9
  6
CONTINUOUS
 10
80.3792806814
 20
169.3688044056
 11
80.0246757944
 21
170.3038206483
  0
LINE
  8
DEFAULT_2
 62
8
  6
HIDDEN
 10
77.8326472629
 20
177.4937449119
 11
78.1872521499
 21
176.5587286692
  0
LINE
  8
0
 62
9
  6
CONTINUOUS
 10
80.8467888028
 20
169.5461068491
 11
80.4921839157
 21
170.4811230918
  0
LINE
  8
0
 62
7
  6
CONTINUOUS
 10
69.9510106763
 20
203.9159927989
 11
81.653006627
 21
173.0603653512
  0
LINE
  8
0
 62
7
  6
CONTINUOUS
 10
92.46849036
 20
144.5422785103
 11
91.1574381459
 21
147.9992390883
  0
LINE
  8
DEFAULT_2
 62
8
  6
HIDDEN
 10
91.1574381459
 20
147.9992390883
 11
81.653006627
 21
173.0603653512
  0
LINE
  8
0
 62
9
  6
CONTINUOUS
 10
70.886026919
 20
204.2705976859
 11
82.5880228697
 21
173.4149702383
  0
LINE
  8
DEFAULT_2
 62
8
  6
HIDDEN
 10
93.4035066027
 20
144.8968833973
 11
82.5880228697
 21
173.4149702383
  0
LINE
  8
0
 62
7
  6
CONTINUOUS
 10
112.9944056521
 20
281.8546723779
 11
112.4510240899
 21
281.2228645058
  0
LINE
  8
0
 62
7
  6
CONTINUOUS
 10
110.2774983466
 20
278.6956336048
 11
109.7341169011
 21
278.0638258683
  0
LINE
  8
0
 62
7
  6
CONTINUOUS
 10
116.4727618837
 20
285.4887659889
 11
116.0053506907
 21
285.0134012395
  0
LINE
  8
0
 62
7
  6
CONTINUOUS
 10
114.9536760079
 20
283.9438310634
 11
114.3694121838
 21
283.3496252966
  0
LINE
  8
0
 62
7
  6
CONTINUOUS
 10
117.6602890884
 20
290.1768874403
 11
117.051032679
 21
289.6083361743
  0
LINE
  8
0
 62
7
  6
CONTINUOUS
 10
117.6316809328
 20
288.9861166993
 11
118.2409373423
 21
289.5546679654
  0
LINE
  8
0
 62
7
  6
CONTINUOUS
 10
119.4022341752
 20
288.3102286668
 11
118.7929777658
 21
287.7416774008
  0
LINE
  8
0
 62
7
  6
CONTINUOUS
 10
131.085271352
 20
300.745094567
 11
130.2674218713
 21
300.1696623582
  0
LINE
  8
0
 62
7
  6
CONTINUOUS
 10
126.4507914812
 20
297.4843124165
 11
125.6329420005
 21
296.9088802077
  0
LINE
  8
0
 62
7
  6
CONTINUOUS
 10
133.6196729408
 20
302.3155287937
 11
132.7580972544
 21
301.8078996609
  0
LINE
  8
0
 62
7
  6
CONTINUOUS
 10
143.2468380854
 20
307.5406148039
 11
139.6526707265
 21
305.7850633247
  0
LINE
  8
0
 62
7
  6
CONTINUOUS
 10
140.9994384224
 20
305.3062915527
 11
143.8448186297
 21
306.6961020243
  0
LINE
  8
0
 62
7
  6
CONTINUOUS
 10
144.89067917
 20
304.5548957649
 11
142.0452989627
 21
303.1650852933
  0
LINE
  8
0
 62
7
  6
CONTINUOUS
 10
142.4935248188
 20
302.2474256515
 11
145.3389050262
 21
303.6372361231
  0
LINE
  8
0
 62
7
  6
CONTINUOUS
 10
168.9468188437
 20
314.8482101357
 11
169.7384755976
 21
315.1591569642
  0
LINE
  8
0
 62
7
  6
CONTINUOUS
 10
169.7563480338
 20
316.0262033983
 11
168.6363111424
 21
315.6579470747
  0
LINE
  8
0
 62
7
  6
CONTINUOUS
 10
161.5121080011
 20
314.2782029069
 11
155.1211005144
 21
312.3809855127
  0
LINE
  8
0
 62
7
  6
CONTINUOUS
 10
155.3632985431
 20
311.5651120026
 11
160.9554310082
 21
313.2251774939
  0
LINE
  8
0
 62
7
  6
CONTINUOUS
 10
115.3919950756
 20
277.5943660014
 11
115.0863401362
 21
276.9779313417
  0
LINE
  8
0
 62
7
  6
CONTINUOUS
 10
115.6025404956
 20
276.5339771429
 11
115.9081954689
 21
277.1504117734
  0
LINE
  8
0
 62
7
  6
CONTINUOUS
 10
116.0053506907
 20
285.0134012395
 11
115.6593091486
 21
284.4186975332
  0
LINE
  8
0
 62
7
  6
CONTINUOUS
 10
116.1447877522
 20
283.9413417058
 11
116.4908292943
 21
284.536045412
  0
LINE
  8
0
 62
7
  6
CONTINUOUS
 10
146.0133339378
 20
304.5349538138
 11
146.2381458601
 21
304.8341941602
  0
LINE
  8
0
 62
7
  6
CONTINUOUS
 10
115.0863401362
 20
276.9779313417
 11
114.6516349175
 21
276.4724850802
  0
LINE
  8
0
 62
7
  6
CONTINUOUS
 10
115.167835277
 20
276.0285308813
 11
115.6025404956
 21
276.5339771429
  0
LINE
  8
0
 62
7
  6
CONTINUOUS
 10
116.7979796525
 20
277.9239541362
 11
117.3413612146
 21
278.5557620083
  0
LINE
  8
0
 62
7
  6
CONTINUOUS
 10
118.2532413528
 20
279.5307783425
 11
118.8375051769
 21
280.1249841093
  0
LINE
  8
0
 62
7
  6
CONTINUOUS
 10
120.9408545424
 20
282.2641244615
 11
121.5251180322
 21
282.8583298882
  0
LINE
  8
0
 62
7
  6
CONTINUOUS
 10
145.2652457805
 20
304.9272829734
 11
144.89067917
 21
304.5548957649
  0
LINE
  8
0
 62
7
  6
CONTINUOUS
 10
146.834036434
 20
301.7154739057
 11
146.4594698235
 21
301.3430866972
  0
LINE
  8
0
 62
7
  6
CONTINUOUS
 10
122.5091269155
 20
283.7594724124
 11
123.118383325
 21
284.3280236785
  0
LINE
  8
0
 62
7
  6
CONTINUOUS
 10
146.7579410438
 20
300.3522800861
 11
147.4320204518
 21
300.8709627066
  0
LINE
  8
0
 62
7
  6
CONTINUOUS
 10
168.6363111424
 20
315.6579470747
 11
168.038100468
 21
315.2079753448
  0
LINE
  8
0
 62
7
  6
CONTINUOUS
 10
130.2363996707
 20
290.3660843619
 11
131.0542491514
 21
290.9415165707
  0
LINE
  8
0
 62
7
  6
CONTINUOUS
 10
134.8708795414
 20
293.6268665125
 11
135.6887290221
 21
294.2022987212
  0
LINE
  8
0
 62
7
  6
CONTINUOUS
 10
114.6040800462
 20
275.6340732599
 11
115.167835277
 21
276.0285308813
  0
LINE
  8
0
 62
7
  6
CONTINUOUS
 10
116.4908292943
 20
284.536045412
 11
117.0796101382
 21
284.8920712045
  0
LINE
  8
0
 62
7
  6
CONTINUOUS
 10
141.4701530413
 20
298.8409750804
 11
137.1622762525
 21
296.3028303842
  0
LINE
  8
0
 62
7
  6
CONTINUOUS
 10
136.8191303175
 20
294.9152941694
 11
141.9885827927
 21
297.9610679985
  0
LINE
  8
0
 62
7
  6
CONTINUOUS
 10
171.7900206432
 20
313.0981993778
 11
170.8634373471
 21
312.5909194644
  0
LINE
  8
0
 62
7
  6
CONTINUOUS
 10
116.9446897622
 20
285.725950424
 11
116.4727618837
 21
285.4887659889
  0
LINE
  8
0
 62
7
  6
CONTINUOUS
 10
146.4594698235
 20
301.3430866972
 11
143.6140896161
 21
299.9532762256
  0
LINE
  8
0
 62
7
  6
CONTINUOUS
 10
143.1637736849
 20
298.5967286069
 11
146.7579410438
 21
300.3522800861
  0
LINE
  8
0
 62
7
  6
CONTINUOUS
 10
171.9526542243
 20
308.2885890964
 11
172.5801359385
 21
308.5708838154
  0
LINE
  8
0
 62
7
  6
CONTINUOUS
 10
172.433818288
 20
309.4092756047
 11
171.6421540183
 21
309.0983274645
  0
LINE
  8
0
 62
7
  6
CONTINUOUS
 10
117.0796101382
 20
284.8920712045
 11
117.4346850513
 21
285.0104142823
  0
LINE
  8
0
 62
7
  6
CONTINUOUS
 10
163.4981320742
 20
307.5880393237
 11
158.0657760762
 21
305.9754046473
  0
LINE
  8
0
 62
7
  6
CONTINUOUS
 10
157.3977622559
 20
304.7117736031
 11
163.7887697426
 21
306.6089909973
  0
LINE
  8
0
 62
7
  6
CONTINUOUS
 10
115.4599237936
 20
278.1954277323
 11
115.3919950756
 21
277.5943660014
  0
LINE
  8
0
 62
7
  6
CONTINUOUS
 10
115.6593091486
 20
284.4186975332
 11
115.5514905571
 21
283.8234965675
  0
LINE
  8
0
 62
7
  6
CONTINUOUS
 10
116.0369691608
 20
283.34614074
 11
116.1447877522
 21
283.9413417058
  0
LINE
  8
0
 62
7
  6
CONTINUOUS
 10
115.9081954689
 20
277.1504117734
 11
115.9964980661
 21
277.5141235442
  0
LINE
  8
0
 62
7
  6
CONTINUOUS
 10
147.4320204518
 20
300.8709627066
 11
147.8069365398
 21
301.6223850389
  0
LINE
  8
0
 62
7
  6
CONTINUOUS
 10
168.038100468
 20
315.2079753448
 11
167.4984168465
 21
314.4226469402
  0
LINE
  8
0
 62
7
  6
CONTINUOUS
 10
172.2354398551
 20
312.4847929004
 11
172.8043945189
 21
313.1024442793
  0
LINE
  8
0
 62
7
  6
CONTINUOUS
 10
168.5127907222
 20
314.4268918417
 11
168.9468188437
 21
314.8482101357
  0
LINE
  8
0
 62
7
  6
CONTINUOUS
 10
173.1783466053
 20
309.0208555893
 11
173.6123747166
 21
309.442173942
  0
LINE
  8
0
 62
7
  6
CONTINUOUS
 10
172.7329198673
 20
309.6342608138
 11
172.433818288
 21
309.4092756047
  0
LINE
  8
0
 62
7
  6
CONTINUOUS
 10
172.5801359385
 20
308.5708838154
 11
173.1783466053
 21
309.0208555893
  0
LINE
  8
0
 62
7
  6
CONTINUOUS
 10
204.8858822202
 20
311.8292309669
 11
205.6245635432
 21
312.2286712483
  0
LINE
  8
0
 62
7
  6
CONTINUOUS
 10
114.6516349175
 20
276.4724850802
 11
113.9588295743
 21
276.1890160279
  0
LINE
  8
0
 62
7
  6
CONTINUOUS
 10
218.1962515351
 20
311.5328758847
 11
218.7779890193
 21
311.6986197069
  0
LINE
  8
0
 62
7
  6
CONTINUOUS
 10
217.9768804327
 20
309.812345867
 11
216.8134054642
 21
309.4808582227
  0
LINE
  8
0
 62
7
  6
CONTINUOUS
 10
217.2854647139
 20
308.7863348609
 11
217.8672021981
 21
308.9520786831
  0
LINE
  8
0
 62
7
  6
CONTINUOUS
 10
219.5411146132
 20
305.5277472605
 11
218.959377129
 21
305.3620034383
  0
LINE
  8
0
 62
7
  6
CONTINUOUS
 10
115.9964980661
 20
277.5141235442
 11
115.9353764823
 21
278.2261736927
  0
LINE
  8
0
 62
7
  6
CONTINUOUS
 10
115.5514905571
 20
283.8234965675
 11
115.5605242624
 21
283.347136279
  0
LINE
  8
0
 62
7
  6
CONTINUOUS
 10
116.0460028661
 20
282.8697804516
 11
116.0369691608
 21
283.34614074
  0
LINE
  8
0
 62
7
  6
CONTINUOUS
 10
145.4153533935
 20
305.3794665935
 11
145.2652457805
 21
304.9272829734
  0
LINE
  8
0
 62
7
  6
CONTINUOUS
 10
146.9841439947
 20
302.1676576329
 11
146.834036434
 21
301.7154739057
  0
LINE
  8
0
 62
7
  6
CONTINUOUS
 10
164.2550646253
 20
314.9013849287
 11
163.5515350153
 21
313.5140520024
  0
LINE
  8
0
 62
7
  6
CONTINUOUS
 10
163.860543104
 20
312.187874208
 11
164.5640726057
 21
313.5752075988
  0
LINE
  8
0
 62
7
  6
CONTINUOUS
 10
158.0657760762
 20
305.9754046473
 11
161.8511852413
 21
313.1359799927
  0
LINE
  8
0
 62
7
  6
CONTINUOUS
 10
160.9554310082
 20
313.2251774939
 11
157.010245376
 21
306.0171713336
  0
LINE
  8
0
 62
7
  6
CONTINUOUS
 10
172.059858696
 20
313.4908629243
 11
171.7900206432
 21
313.0981993778
  0
LINE
  8
0
 62
7
  6
CONTINUOUS
 10
173.0027654155
 20
310.0269257893
 11
172.7329198673
 21
309.6342608138
  0
LINE
  8
0
 62
7
  6
CONTINUOUS
 10
205.2646274433
 20
313.1477770494
 11
204.8819025663
 21
312.8640095562
  0
LINE
  8
0
 62
7
  6
CONTINUOUS
 10
217.9359681701
 20
312.3364993229
 11
217.2470793128
 21
311.8476330806
  0
LINE
  8
0
 62
7
  6
CONTINUOUS
 10
216.8619201861
 20
308.5681323065
 11
217.2854647139
 21
308.7863348609
  0
LINE
  8
DEFAULT_2
 62
8
  6
HIDDEN
 10
142.5405938633
 20
91.4989487175
 11
142.6216694408
 21
90.5022407609
  0
LINE
  8
0
 62
7
  6
CONTINUOUS
 10
130.2029370429
 20
295.3374770141
 11
130.2363996707
 21
290.3660843619
  0
LINE
  8
0
 62
7
  6
CONTINUOUS
 10
130.2674218713
 20
300.1696623582
 11
130.2200781985
 21
296.1820267411
  0
LINE
  8
0
 62
7
  6
CONTINUOUS
 10
131.0542491514
 20
290.9415165707
 11
131.1015912643
 21
294.9291510902
  0
LINE
  8
0
 62
7
  6
CONTINUOUS
 10
131.0207865236
 20
295.9129092229
 11
131.085271352
 21
300.745094567
  0
LINE
  8
0
 62
7
  6
CONTINUOUS
 10
146.2381458601
 20
304.8341941602
 11
146.3885995426
 21
305.6654111896
  0
LINE
  8
0
 62
7
  6
CONTINUOUS
 10
147.8069365398
 20
301.6223850389
 11
147.9573901961
 21
302.4536021219
  0
LINE
  8
0
 62
9
  6
CONTINUOUS
 10
173.308025628
 20
344.8915465668
 11
173.6252731233
 21
345.8398893459
  0
LINE
  8
DEFAULT_2
 62
8
  6
HIDDEN
 10
90.5025935751
 20
126.5515665463
 11
90.1111891506
 21
125.6313477807
  0
LINE
  8
0
 62
7
  6
CONTINUOUS
 10
168.2722086801
 20
313.8665486463
 11
168.5127907222
 21
314.4268918417
  0
LINE
  8
0
 62
7
  6
CONTINUOUS
 10
172.8043945189
 20
313.1024442793
 11
173.0449690452
 21
313.662786163
  0
LINE
  8
0
 62
7
  6
CONTINUOUS
 10
173.6123747166
 20
309.442173942
 11
173.8529567587
 21
310.0025171375
  0
LINE
  8
DEFAULT_3
 62
2
  6
PHANTOM
 10
127.1548464899
 20
227.0881330022
 11
175.1289820505
 21
275.0622685629
  0
LINE
  8
DEFAULT_3
 62
2
  6
PHANTOM
 10
183.496319497
 20
281.1668643095
 11
179.2536788099
 21
276.9242236224
  0
LINE
  8
DEFAULT_3
 62
2
  6
PHANTOM
 10
121.0502507432
 20
218.7207955558
 11
125.2928914304
 21
222.9634362429
  0
LINE
  8
0
 62
7
  6
CONTINUOUS
 10
205.6245635432
 20
312.2286712483
 11
206.2254155225
 21
312.8224177932
  0
LINE
  8
0
 62
9
  6
CONTINUOUS
 10
235.50321327
 20
336.6212306825
 11
236.2248388408
 21
337.3135142483
  0
LINE
  8
DEFAULT_2
 62
8
  6
HIDDEN
 10
60.7149964028
 20
181.7723827784
 11
59.9407780129
 21
181.1394642333
  0
LINE
  8
0
 62
7
  6
CONTINUOUS
 10
217.7191313208
 20
311.1531121203
 11
218.1962515351
 21
311.5328758847
  0
LINE
  8
0
 62
7
  6
CONTINUOUS
 10
220.018234865
 20
305.907511138
 11
219.5411146132
 21
305.5277472605
  0
LINE
  8
0
 62
7
  6
CONTINUOUS
 10
219.8013979594
 20
304.7241237656
 11
220.4902868355
 21
305.2129900645
  0
LINE
  8
0
 62
9
  6
CONTINUOUS
 10
286.7309095026
 20
300.3946847619
 11
287.6915974273
 21
300.6723152924
  0
LINE
  8
0
 62
9
  6
CONTINUOUS
 10
70.8713048662
 20
154.9923982773
 11
69.8720914519
 21
154.9527428543
  0
LINE
  8
DEFAULT_2
 62
8
  6
HIDDEN
 10
304.3859434926
 20
154.9923982773
 11
305.385156907
 21
154.9527428543
  0
LINE
  8
0
 62
9
  6
CONTINUOUS
 10
56.5494670618
 20
216.0786033693
 11
55.6462787292
 21
216.5078478636
  0
LINE
  8
DEFAULT_2
 62
8
  6
HIDDEN
 10
263.3164109118
 20
107.5589397882
 11
264.1827416565
 21
107.0594690275
  0
LINE
  8
DEFAULT_3
 62
2
  6
PHANTOM
 10
127.1548464899
 20
202.0888487444
 11
175.1289820505
 21
154.1147131838
  0
LINE
  8
DEFAULT_3
 62
2
  6
PHANTOM
 10
179.2536788099
 20
152.2527581243
 11
183.496319497
 21
148.0101174371
  0
LINE
  8
DEFAULT_3
 62
2
  6
PHANTOM
 10
125.2928914304
 20
206.2135455038
 11
121.0502507432
 21
210.4561861909
  0
LINE
  8
0
 62
9
  6
CONTINUOUS
 10
72.2562844779
 20
276.8234416464
 11
71.6560307895
 21
277.6232513171
  0
LINE
  8
DEFAULT_2
 62
8
  6
HIDDEN
 10
204.9077185273
 20
84.6446616068
 11
205.4427006691
 21
83.7997982404
  0
LINE
  8
0
 62
7
  6
CONTINUOUS
 10
115.2901259991
 20
278.7811164704
 11
115.4599237936
 21
278.1954277323
  0
LINE
  8
0
 62
9
  6
CONTINUOUS
 10
114.3935145323
 20
323.3110027137
 11
114.2337063741
 21
324.2981508042
  0
LINE
  8
0
 62
7
  6
CONTINUOUS
 10
172.2711772116
 20
314.218884457
 11
172.059858696
 21
313.4908629243
  0
LINE
  8
0
 62
7
  6
CONTINUOUS
 10
173.1084209154
 20
310.3909358999
 11
173.0027654155
 21
310.0269257893
  0
LINE
  8
0
 62
7
  6
CONTINUOUS
 10
217.2470793128
 20
311.8476330806
 11
216.6628075754
 21
311.1447464435
  0
LINE
  8
DEFAULT_2
 62
8
  6
HIDDEN
 10
155.8785263854
 20
327.4034908733
 11
155.8785263854
 21
328.4034908733
  0
LINE
  8
0
 62
7
  6
CONTINUOUS
 10
167.4984168465
 20
314.4226469402
 11
167.4512808839
 21
313.7232788434
  0
LINE
  8
0
 62
7
  6
CONTINUOUS
 10
170.998388676
 20
344.1175152934
 11
170.8215446508
 21
342.0961788362
  0
LINE
  8
0
 62
9
  6
CONTINUOUS
 10
171.9945833741
 20
344.0303595507
 11
171.8177393489
 21
342.0090230934
  0
LINE
  8
0
 62
7
  6
CONTINUOUS
 10
173.8529567587
 20
310.0025171375
 11
173.9293487116
 21
310.5342057027
  0
LINE
  8
0
 62
7
  6
CONTINUOUS
 10
140.4833085719
 20
92.8032203503
 11
140.7953407897
 21
94.808141989
  0
LINE
  8
DEFAULT_2
 62
8
  6
HIDDEN
 10
141.471413397
 20
92.6494385096
 11
141.7834456148
 21
94.6543601483
  0
LINE
  8
0
 62
9
  6
CONTINUOUS
 10
129.8027298572
 20
112.6499854852
 11
129.5634141929
 21
111.6790436678
  0
LINE
  8
0
 62
7
  6
CONTINUOUS
 10
205.5095229766
 20
313.6258508062
 11
205.2646274433
 21
313.1477770494
  0
LINE
  8
0
 62
7
  6
CONTINUOUS
 10
206.2254155225
 20
312.8224177932
 11
206.4703110558
 21
313.3004915499
  0
LINE
  8
DEFAULT_2
 62
8
  6
HIDDEN
 10
211.9430534267
 20
329.2362185669
 11
212.4077765988
 21
330.1216745926
  0
LINE
  8
0
 62
7
  6
CONTINUOUS
 10
209.3529924366
 20
309.878393579
 11
211.9003621434
 21
313.9871377044
  0
LINE
  8
0
 62
7
  6
CONTINUOUS
 10
207.8974148321
 20
307.4304025511
 11
209.0295766568
 21
309.2565115773
  0
LINE
  8
0
 62
7
  6
CONTINUOUS
 10
211.4142354264
 20
314.8066985192
 11
206.9259579066
 21
307.6676185747
  0
LINE
  8
0
 62
7
  6
CONTINUOUS
 10
233.0984210451
 20
337.0092018381
 11
232.0024715472
 21
335.3015808085
  0
LINE
  8
0
 62
9
  6
CONTINUOUS
 10
233.94000435
 20
336.4690745004
 11
232.8440548522
 21
334.7614534708
  0
LINE
  8
0
 62
7
  6
CONTINUOUS
 10
217.4002111546
 20
310.7208867696
 11
217.7191313208
 21
311.1531121203
  0
LINE
  8
0
 62
7
  6
CONTINUOUS
 10
216.543000095
 20
308.1359071822
 11
216.8619201861
 21
308.5681323065
  0
LINE
  8
0
 62
7
  6
CONTINUOUS
 10
220.3371548811
 20
306.3397360361
 11
220.018234865
 21
305.907511138
  0
LINE
  8
0
 62
7
  6
CONTINUOUS
 10
89.2870831677
 20
128.662509869
 11
90.4951075188
 21
130.292771213
  0
LINE
  8
DEFAULT_2
 62
8
  6
HIDDEN
 10
90.0905405543
 20
128.0671476029
 11
91.2985649054
 21
129.6974089469
  0
LINE
  8
0
 62
7
  6
CONTINUOUS
 10
220.4902868355
 20
305.2129900645
 11
221.0745584604
 21
305.9158763623
  0
LINE
  8
0
 62
9
  6
CONTINUOUS
 10
89.0531520357
 20
151.199460067
 11
88.3900293774
 21
150.4509493188
  0
LINE
  8
DEFAULT_2
 62
8
  6
HIDDEN
 10
262.4374377482
 20
304.8045335009
 11
263.2604216141
 21
305.3725982476
  0
LINE
  8
0
 62
7
  6
CONTINUOUS
 10
284.7818709227
 20
301.8557788302
 11
283.0178847745
 21
300.8530686271
  0
LINE
  8
0
 62
9
  6
CONTINUOUS
 10
285.2760462415
 20
300.9864165615
 11
283.5120600933
 21
299.9837063583
  0
LINE
  8
0
 62
7
  6
CONTINUOUS
 10
60.6197196653
 20
184.2064061155
 11
62.4469923291
 21
185.0885339376
  0
LINE
  8
DEFAULT_2
 62
8
  6
HIDDEN
 10
61.0544672088
 20
183.3058537442
 11
62.8817398726
 21
184.1879815663
  0
LINE
  8
0
 62
9
  6
CONTINUOUS
 10
70.886026919
 20
204.2705976859
 11
69.9510106763
 21
203.9159927989
  0
LINE
  8
0
 62
7
  6
CONTINUOUS
 10
72.4140452297
 20
153.1073254847
 11
74.3667374047
 21
153.6587492348
  0
LINE
  8
0
 62
9
  6
CONTINUOUS
 10
72.1422817564
 20
154.0696895606
 11
74.0949739314
 21
154.6211133107
  0
LINE
  8
0
 62
7
  6
CONTINUOUS
 10
318.2177895539
 20
213.692507111
 11
316.232507107
 21
213.2733072917
  0
LINE
  8
DEFAULT_2
 62
8
  6
HIDDEN
 10
318.0111912729
 20
214.6709329643
 11
316.025908826
 21
214.2517331449
  0
LINE
  8
0
 62
9
  6
CONTINUOUS
 10
303.4481271967
 20
196.6682326227
 11
304.4408360708
 21
196.788769303
  0
LINE
  8
DEFAULT_2
 62
8
  6
HIDDEN
 10
71.8091211622
 20
196.6682326227
 11
70.8164122881
 21
196.788769303
  0
LINE
  8
0
 62
7
  6
CONTINUOUS
 10
57.0394588049
 20
213.692507111
 11
59.0247412518
 21
213.2733072917
  0
LINE
  8
0
 62
9
  6
CONTINUOUS
 10
57.246057086
 20
214.6709329643
 11
59.2313395329
 21
214.2517331449
  0
LINE
  8
0
 62
7
  6
CONTINUOUS
 10
302.8432031292
 20
153.1073254847
 11
300.8905109542
 21
153.6587492348
  0
LINE
  8
DEFAULT_2
 62
8
  6
HIDDEN
 10
303.1149666025
 20
154.0696895606
 11
301.1622744275
 21
154.6211133107
  0
LINE
  8
0
 62
9
  6
CONTINUOUS
 10
281.8537417561
 20
144.8968833973
 11
282.7887579988
 21
144.5422785103
  0
LINE
  8
DEFAULT_2
 62
8
  6
HIDDEN
 10
76.7475880866
 20
252.5448970508
 11
75.9246042207
 21
253.1129617975
  0
LINE
  8
0
 62
7
  6
CONTINUOUS
 10
71.5812763974
 20
274.4829478195
 11
73.1443448329
 21
273.1891580574
  0
LINE
  8
0
 62
9
  6
CONTINUOUS
 10
72.2189072564
 20
275.2532898784
 11
73.7819756918
 21
273.9595001163
  0
LINE
  8
0
 62
7
  6
CONTINUOUS
 10
261.0743451533
 20
106.6067379206
 11
259.601581495
 21
108.0024607044
  0
LINE
  8
DEFAULT_2
 62
8
  6
HIDDEN
 10
261.7622126442
 20
107.3325742071
 11
260.2894489859
 21
108.7282969909
  0
LINE
  8
0
 62
9
  6
CONTINUOUS
 10
238.6735174145
 20
109.0910415698
 11
239.3366400728
 21
108.3425308216
  0
LINE
  8
DEFAULT_2
 62
8
  6
HIDDEN
 10
107.0875641185
 20
299.7262062478
 11
106.6228409465
 21
300.6116622735
  0
LINE
  8
0
 62
7
  6
CONTINUOUS
 10
112.7081428446
 20
321.5522902481
 11
113.4909171271
 21
319.6803021858
  0
LINE
  8
0
 62
9
  6
CONTINUOUS
 10
113.630732736
 20
321.9380724306
 11
114.4135070185
 21
320.0660843683
  0
LINE
  8
0
 62
7
  6
CONTINUOUS
 10
202.4799576191
 20
84.8434686367
 11
201.8245148829
 21
86.7637471848
  0
LINE
  8
DEFAULT_2
 62
8
  6
HIDDEN
 10
203.4263469753
 20
85.1664967879
 11
202.7709042391
 21
87.086775336
  0
LINE
  8
0
 62
9
  6
CONTINUOUS
 10
183.7995231904
 20
97.4533939956
 11
184.0388388547
 21
96.4824521782
  0
LINE
  8
0
 62
7
  6
CONTINUOUS
 10
145.3409951536
 20
305.9114432765
 11
145.4153533935
 21
305.3794665935
  0
LINE
  8
0
 62
7
  6
CONTINUOUS
 10
146.3885995426
 20
305.6654111896
 11
146.3142413027
 21
306.1973878727
  0
LINE
  8
0
 62
7
  6
CONTINUOUS
 10
146.9097857548
 20
302.6996343159
 11
146.9841439947
 21
302.1676576329
  0
LINE
  8
0
 62
7
  6
CONTINUOUS
 10
147.9573901961
 20
302.4536021219
 11
147.8830319038
 21
302.9855789121
  0
LINE
  8
0
 62
7
  6
CONTINUOUS
 10
173.0449690452
 20
313.662786163
 11
173.0921050078
 21
314.3621542598
  0
LINE
  8
0
 62
7
  6
CONTINUOUS
 10
216.6628075754
 20
311.1447464435
 11
216.1295848131
 21
310.0662767051
  0
LINE
  8
0
 62
7
  6
CONTINUOUS
 10
216.9205568373
 20
309.8039806428
 11
217.4002111546
 21
310.7208867696
  0
LINE
  8
0
 62
9
  6
CONTINUOUS
 10
183.3786241794
 20
330.4034908733
 11
183.3786241794
 21
330.9034908733
  0
LINE
  8
0
 62
7
  6
CONTINUOUS
 10
184.3786241794
 20
330.4034908733
 11
184.3786241794
 21
330.9034908733
  0
LINE
  8
0
 62
9
  6
CONTINUOUS
 10
186.3786241794
 20
327.4034908733
 11
186.378624179
 21
328.4034908733
  0
LINE
  8
DEFAULT_1
 62
2
  6
CENTER
 10
187.6286241794
 20
351.9198577681
 11
187.6286241794
 21
216.5885908733
  0
LINE
  8
0
 62
2
  6
CONTINUOUS
 10
187.6286241794
 20
216.0734908733
 11
187.6286241794
 21
213.1034908733
  0
LINE
  8
DEFAULT_1
 62
2
  6
CENTER
 10
187.6286241794
 20
68.9737417943
 11
187.6286241794
 21
212.5883908733
  0
LINE
  8
DEFAULT_2
 62
8
  6
HIDDEN
 10
188.8786241794
 20
327.4034908733
 11
188.8786241799
 21
328.4034908733
  0
LINE
  8
0
 62
7
  6
CONTINUOUS
 10
200.7819082947
 20
316.7917102629
 11
199.5237918857
 21
308.8912581808
  0
LINE
  8
0
 62
7
  6
CONTINUOUS
 10
200.5113483959
 20
308.7339936297
 11
201.0734855228
 21
312.2639829079
  0
LINE
  8
0
 62
7
  6
CONTINUOUS
 10
201.2340961091
 20
313.2725511386
 11
201.6356226497
 21
315.7939721862
  0
LINE
  8
DEFAULT_2
 62
8
  6
HIDDEN
 10
155.7857777959
 20
103.1559558614
 11
155.6661199638
 21
102.6704849526
  0
LINE
  8
0
 62
7
  6
CONTINUOUS
 10
156.7567196133
 20
102.9166401971
 11
156.6370617812
 21
102.4311692884
  0
LINE
  8
DEFAULT_2
 62
8
  6
HIDDEN
 10
159.416550241
 20
105.3508343208
 11
159.1772345763
 21
104.3798925035
  0
LINE
  8
0
 62
9
  6
CONTINUOUS
 10
161.8439047846
 20
104.7525451601
 11
161.6045891208
 21
103.7816033425
  0
LINE
  8
0
 62
7
  6
CONTINUOUS
 10
216.1295848131
 20
310.0662767051
 11
215.7545550073
 21
308.9353482347
  0
LINE
  8
0
 62
7
  6
CONTINUOUS
 10
216.8134054642
 20
309.4808582227
 11
216.9205568373
 21
309.8039806428
  0
LINE
  8
0
 62
7
  6
CONTINUOUS
 10
216.3822730353
 20
307.651223552
 11
216.543000095
 21
308.1359071822
  0
LINE
  8
0
 62
9
  6
CONTINUOUS
 10
237.6873502407
 20
319.1126539655
 11
237.9197118267
 21
319.5553819784
  0
LINE
  8
0
 62
7
  6
CONTINUOUS
 10
238.5728062663
 20
318.6479307935
 11
238.8051678523
 21
319.0906588063
  0
LINE
  8
0
 62
9
  6
CONTINUOUS
 10
238.9495488015
 20
315.0621163725
 11
239.4142719731
 21
315.9475723983
  0
LINE
  8
DEFAULT_2
 62
8
  6
HIDDEN
 10
241.1631888656
 20
313.9003084423
 11
241.6279120381
 21
314.7857644678
  0
LINE
  8
DEFAULT_2
 62
8
  6
HIDDEN
 10
107.6479028355
 20
130.7179898714
 11
107.3163415064
 21
130.3437344973
  0
LINE
  8
0
 62
7
  6
CONTINUOUS
 10
108.3964135837
 20
130.0548672132
 11
108.0648522546
 21
129.6806118391
  0
LINE
  8
DEFAULT_2
 62
8
  6
HIDDEN
 10
111.8828030548
 20
130.9741541412
 11
111.2196803962
 21
130.2256433933
  0
LINE
  8
0
 62
9
  6
CONTINUOUS
 10
113.7540799252
 20
129.3163474956
 11
113.0909572673
 21
128.5678367471
  0
LINE
  8
0
 62
9
  6
CONTINUOUS
 10
280.5282254343
 20
283.876590946
 11
280.9397173672
 21
284.1606233194
  0
LINE
  8
0
 62
7
  6
CONTINUOUS
 10
281.096290181
 20
283.0536070802
 11
281.507782114
 21
283.3376394535
  0
LINE
  8
0
 62
9
  6
CONTINUOUS
 10
279.7634680768
 20
279.7034451082
 11
280.5864519424
 21
280.2715098553
  0
LINE
  8
DEFAULT_2
 62
8
  6
HIDDEN
 10
281.1836299436
 20
277.6459854434
 11
282.0066138098
 21
278.2140501898
  0
LINE
  8
DEFAULT_2
 62
8
  6
HIDDEN
 10
77.8326472629
 20
177.4937449119
 11
77.3651391415
 21
177.3164424684
  0
LINE
  8
0
 62
7
  6
CONTINUOUS
 10
78.1872521499
 20
176.5587286692
 11
77.7197440286
 21
176.3814262257
  0
LINE
  8
DEFAULT_2
 62
8
  6
HIDDEN
 10
81.7015106521
 20
175.752510845
 11
80.7664944092
 21
175.3979059584
  0
LINE
  8
0
 62
9
  6
CONTINUOUS
 10
82.5880228697
 20
173.4149702383
 11
81.6530066272
 21
173.0603653508
  0
LINE
  8
DEFAULT_2
 62
8
  6
HIDDEN
 10
303.1114833242
 20
224.3294337822
 11
303.6078377612
 21
224.3897021223
  0
LINE
  8
0
 62
7
  6
CONTINUOUS
 10
302.9909466439
 20
225.3221426563
 11
303.487301081
 21
225.3824109964
  0
LINE
  8
DEFAULT_2
 62
8
  6
HIDDEN
 10
299.7717466611
 20
226.9459503637
 11
300.7644555353
 21
227.0664870435
  0
LINE
  8
0
 62
9
  6
CONTINUOUS
 10
299.4704049605
 20
229.427722549
 11
300.4631138345
 21
229.5482592297
  0
LINE
  8
DEFAULT_1
 62
2
  6
CENTER
 10
325.6256496171
 20
214.5884908733
 11
189.6287241794
 21
214.5884908733
  0
LINE
  8
0
 62
2
  6
CONTINUOUS
 10
189.1136241794
 20
214.5884908733
 11
186.1436241794
 21
214.5884908733
  0
LINE
  8
DEFAULT_1
 62
2
  6
CENTER
 10
49.2596758753
 20
214.5884908733
 11
185.6285241794
 21
214.5884908733
  0
LINE
  8
0
 62
9
  6
CONTINUOUS
 10
72.1457650347
 20
224.3294337822
 11
71.6494105976
 21
224.3897021223
  0
LINE
  8
0
 62
7
  6
CONTINUOUS
 10
72.2663017149
 20
225.3221426563
 11
71.7699472779
 21
225.3824109964
  0
LINE
  8
0
 62
9
  6
CONTINUOUS
 10
75.4855016977
 20
226.9459503637
 11
74.4927928236
 21
227.0664870435
  0
LINE
  8
DEFAULT_2
 62
8
  6
HIDDEN
 10
75.7868433984
 20
229.427722549
 11
74.7941345243
 21
229.5482592297
  0
LINE
  8
DEFAULT_2
 62
8
  6
HIDDEN
 10
294.4104595561
 20
169.5461068491
 11
294.8779676775
 21
169.3688044056
  0
LINE
  8
0
 62
7
  6
CONTINUOUS
 10
294.7650644432
 20
170.4811230918
 11
295.2325725645
 21
170.3038206483
  0
LINE
  8
DEFAULT_2
 62
8
  6
HIDDEN
 10
292.6692254892
 20
173.4149702383
 11
293.6042417317
 21
173.0603653508
  0
LINE
  8
0
 62
9
  6
CONTINUOUS
 10
293.5557377068
 20
175.752510845
 11
294.4907539496
 21
175.3979059584
  0
LINE
  8
0
 62
9
  6
CONTINUOUS
 10
89.9004725773
 20
276.881228086
 11
89.4889806444
 21
277.1652604593
  0
LINE
  8
0
 62
7
  6
CONTINUOUS
 10
90.4685373241
 20
277.7042119518
 11
90.0570453911
 21
277.9882443252
  0
LINE
  8
0
 62
9
  6
CONTINUOUS
 10
94.0736184152
 20
277.6459854434
 11
93.2506345491
 21
278.2140501898
  0
LINE
  8
DEFAULT_2
 62
8
  6
HIDDEN
 10
95.4937802821
 20
279.7034451082
 11
94.6707964164
 21
280.2715098553
  0
LINE
  8
0
 62
7
  6
CONTINUOUS
 10
109.7341169011
 20
278.0638258683
 11
112.3151186531
 21
275.8440549129
  0
LINE
  8
0
 62
7
  6
CONTINUOUS
 10
112.8585000986
 20
276.4758626494
 11
110.2774983466
 21
278.6956336048
  0
LINE
  8
0
 62
7
  6
CONTINUOUS
 10
112.4510240899
 20
281.2228645058
 11
115.2901259991
 21
278.7811164704
  0
LINE
  8
0
 62
7
  6
CONTINUOUS
 10
114.3694121838
 20
283.3496252966
 11
118.2532413528
 21
279.5307783425
  0
LINE
  8
0
 62
7
  6
CONTINUOUS
 10
118.8375051769
 20
280.1249841093
 11
116.0460028661
 21
282.8697804516
  0
LINE
  8
0
 62
7
  6
CONTINUOUS
 10
115.5605242624
 20
283.347136279
 11
114.9536760079
 21
283.9438310634
  0
LINE
  8
0
 62
7
  6
CONTINUOUS
 10
118.6348308352
 20
284.5315649763
 11
120.9408545424
 21
282.2641244615
  0
LINE
  8
0
 62
7
  6
CONTINUOUS
 10
117.051032679
 20
289.6083361743
 11
117.6316809328
 21
288.9861166993
  0
LINE
  8
0
 62
7
  6
CONTINUOUS
 10
118.7929777658
 20
287.7416774008
 11
122.5091269155
 21
283.7594724124
  0
LINE
  8
0
 62
7
  6
CONTINUOUS
 10
123.118383325
 20
284.3280236785
 11
119.4022341752
 21
288.3102286668
  0
LINE
  8
0
 62
7
  6
CONTINUOUS
 10
118.2409373423
 20
289.5546679654
 11
117.6602890884
 21
290.1768874403
  0
LINE
  8
DEFAULT_2
 62
8
  6
HIDDEN
 10
261.2470041639
 20
125.0814472764
 11
261.578565493
 21
124.7071919023
  0
LINE
  8
0
 62
7
  6
CONTINUOUS
 10
261.995514912
 20
125.7445699346
 11
262.3270762412
 21
125.3703145605
  0
LINE
  8
DEFAULT_2
 62
8
  6
HIDDEN
 10
261.5031684337
 20
129.3163474956
 11
262.1662910916
 21
128.5678367471
  0
LINE
  8
0
 62
9
  6
CONTINUOUS
 10
263.3744453041
 20
130.9741541412
 11
264.0375679627
 21
130.2256433933
  0
LINE
  8
0
 62
7
  6
CONTINUOUS
 10
132.7580972544
 20
301.8078996609
 11
136.8191303175
 21
294.9152941694
  0
LINE
  8
0
 62
7
  6
CONTINUOUS
 10
137.1622762525
 20
296.3028303842
 11
133.6196729408
 21
302.3155287937
  0
LINE
  8
0
 62
9
  6
CONTINUOUS
 10
130.0435219002
 20
315.1625070032
 11
129.8111603141
 21
315.605235016
  0
LINE
  8
0
 62
7
  6
CONTINUOUS
 10
130.9289779258
 20
315.6272301752
 11
130.6966163398
 21
316.069958188
  0
LINE
  8
0
 62
9
  6
CONTINUOUS
 10
134.0940594932
 20
313.9003084423
 11
133.6293363208
 21
314.7857644678
  0
LINE
  8
DEFAULT_2
 62
8
  6
HIDDEN
 10
136.3076995574
 20
315.0621163725
 11
135.8429763857
 21
315.9475723983
  0
LINE
  8
0
 62
7
  6
CONTINUOUS
 10
139.6526707265
 20
305.7850633247
 11
143.1637736849
 21
298.5967286069
  0
LINE
  8
0
 62
7
  6
CONTINUOUS
 10
143.6140896161
 20
299.9532762256
 11
142.4935248188
 21
302.2474256515
  0
LINE
  8
0
 62
7
  6
CONTINUOUS
 10
142.0452989627
 20
303.1650852933
 11
140.9994384224
 21
305.3062915527
  0
LINE
  8
0
 62
7
  6
CONTINUOUS
 10
155.1211005144
 20
312.3809855127
 11
155.3632985431
 21
311.5651120026
  0
LINE
  8
0
 62
7
  6
CONTINUOUS
 10
157.010245376
 20
306.0171713336
 11
157.3977622559
 21
304.7117736031
  0
LINE
  8
DEFAULT_2
 62
8
  6
HIDDEN
 10
211.2184651148
 20
101.1217727149
 11
211.338122947
 21
100.6363018062
  0
LINE
  8
0
 62
7
  6
CONTINUOUS
 10
212.1894069323
 20
101.3610883792
 11
212.3090647644
 21
100.8756174705
  0
LINE
  8
DEFAULT_2
 62
8
  6
HIDDEN
 10
213.4133435742
 20
104.7525451601
 11
213.6526592381
 21
103.7816033425
  0
LINE
  8
0
 62
9
  6
CONTINUOUS
 10
215.8406981178
 20
105.3508343208
 11
216.0800137825
 21
104.3798925035
  0
LINE
  8
0
 62
7
  6
CONTINUOUS
 10
163.5515350153
 20
313.5140520024
 11
163.860543104
 21
312.187874208
  0
LINE
  8
0
 62
7
  6
CONTINUOUS
 10
164.5640726057
 20
313.5752075988
 11
166.0704867266
 21
307.1100921866
  0
LINE
  8
0
 62
7
  6
CONTINUOUS
 10
167.0443983193
 20
307.3370199492
 11
165.228976218
 21
315.1283126914
  0
LINE
  8
0
 62
7
  6
CONTINUOUS
 10
170.2066921038
 20
312.4763030975
 11
170.3237462099
 21
311.8055897482
  0
LINE
  8
0
 62
7
  6
CONTINUOUS
 10
190.8786241794
 20
330.4034908733
 11
190.8786241794
 21
330.9034908733
  0
LINE
  8
DEFAULT_2
 62
8
  6
HIDDEN
 10
191.8786241794
 20
330.4034908733
 11
191.8786241794
 21
330.9034908733
  0
LINE
  8
0
 62
7
  6
CONTINUOUS
 10
205.5898283447
 20
314.1301353924
 11
205.5095229766
 21
313.6258508062
  0
LINE
  8
0
 62
7
  6
CONTINUOUS
 10
206.4703110558
 20
313.3004915499
 11
206.577384855
 21
313.9728708413
  0
LINE
  8
0
 62
7
  6
CONTINUOUS
 10
215.7545550073
 20
308.9353482347
 11
215.537718083
 21
307.7519608057
  0
LINE
  8
0
 62
7
  6
CONTINUOUS
 10
163.0678414266
 20
101.3610883792
 11
162.9481835945
 21
100.8756174705
  0
LINE
  8
0
 62
9
  6
CONTINUOUS
 10
164.038783244
 20
101.1217727149
 11
163.9191254119
 21
100.6363018062
  0
LINE
  8
0
 62
7
  6
CONTINUOUS
 10
220.4978819407
 20
306.8244196663
 11
220.3371548811
 21
306.3397360361
  0
LINE
  8
0
 62
7
  6
CONTINUOUS
 10
221.0745584604
 20
305.9158763623
 11
221.3424369681
 21
306.7236826389
  0
LINE
  8
0
 62
7
  6
CONTINUOUS
 10
244.3282704331
 20
315.6272301752
 11
244.5606320191
 21
316.069958188
  0
LINE
  8
DEFAULT_2
 62
8
  6
HIDDEN
 10
245.2137264587
 20
315.1625070032
 11
245.4460880447
 21
315.605235016
  0
LINE
  8
0
 62
7
  6
CONTINUOUS
 10
113.2617334468
 20
125.7445699346
 11
112.9301721177
 21
125.3703145605
  0
LINE
  8
0
 62
9
  6
CONTINUOUS
 10
114.010244195
 20
125.0814472764
 11
113.6786828659
 21
124.7071919023
  0
LINE
  8
0
 62
7
  6
CONTINUOUS
 10
284.7887110348
 20
277.7042119518
 11
285.2002029677
 21
277.9882443252
  0
LINE
  8
DEFAULT_2
 62
8
  6
HIDDEN
 10
285.3567757815
 20
276.881228086
 11
285.7682677145
 21
277.1652604593
  0
LINE
  8
0
 62
7
  6
CONTINUOUS
 10
80.4921839157
 20
170.4811230918
 11
80.0246757944
 21
170.3038206483
  0
LINE
  8
0
 62
9
  6
CONTINUOUS
 10
80.8467888028
 20
169.5461068491
 11
80.3792806814
 21
169.3688044056
  0
LINE
  8
0
 62
7
  6
CONTINUOUS
 10
302.2074582223
 20
231.7747503379
 11
302.7038126593
 21
231.835018678
  0
LINE
  8
0
 62
9
  6
CONTINUOUS
 10
302.086921542
 20
232.767459212
 11
302.5832759791
 21
232.8277275521
  0
LINE
  8
0
 62
7
  6
CONTINUOUS
 10
73.0497901366
 20
231.7747503379
 11
72.5534356995
 21
231.835018678
  0
LINE
  8
DEFAULT_2
 62
8
  6
HIDDEN
 10
73.1703268169
 20
232.767459212
 11
72.6739723798
 21
232.8277275521
  0
LINE
  8
0
 62
7
  6
CONTINUOUS
 10
297.0699962089
 20
176.5587286692
 11
297.5375043303
 21
176.3814262257
  0
LINE
  8
0
 62
9
  6
CONTINUOUS
 10
297.424601096
 20
177.4937449119
 11
297.8921092173
 21
177.3164424684
  0
LINE
  8
0
 62
7
  6
CONTINUOUS
 10
94.1609581778
 20
283.0536070802
 11
93.7494662449
 21
283.3376394535
  0
LINE
  8
DEFAULT_2
 62
8
  6
HIDDEN
 10
94.7290229246
 20
283.876590946
 11
94.3175309916
 21
284.1606233194
  0
LINE
  8
0
 62
7
  6
CONTINUOUS
 10
116.3497079658
 20
278.9689701048
 11
112.9944056521
 21
281.8546723779
  0
LINE
  8
0
 62
7
  6
CONTINUOUS
 10
121.5251180322
 20
282.8583298882
 11
119.219094325
 21
285.125770403
  0
LINE
  8
0
 62
7
  6
CONTINUOUS
 10
266.8608347751
 20
130.0548672132
 11
267.1923961043
 21
129.6806118391
  0
LINE
  8
0
 62
9
  6
CONTINUOUS
 10
267.6093455233
 20
130.7179898714
 11
267.9409068524
 21
130.3437344973
  0
LINE
  8
0
 62
7
  6
CONTINUOUS
 10
141.9885827927
 20
297.9610679985
 11
141.4701530413
 21
298.8409750804
  0
LINE
  8
0
 62
7
  6
CONTINUOUS
 10
136.6844420926
 20
318.6479307935
 11
136.4520805065
 21
319.0906588063
  0
LINE
  8
DEFAULT_2
 62
8
  6
HIDDEN
 10
137.5698981182
 20
319.1126539655
 11
137.3375365322
 21
319.5553819784
  0
LINE
  8
0
 62
7
  6
CONTINUOUS
 10
145.1915865349
 20
306.2173298238
 11
145.3409951536
 21
305.9114432765
  0
LINE
  8
0
 62
7
  6
CONTINUOUS
 10
146.6856728267
 20
303.1584641368
 11
146.9097857548
 21
302.6996343159
  0
LINE
  8
0
 62
7
  6
CONTINUOUS
 10
147.8830319038
 20
302.9855789121
 11
147.5095103571
 21
303.7502952803
  0
LINE
  8
0
 62
7
  6
CONTINUOUS
 10
146.3142413027
 20
306.1973878727
 11
146.015423856
 21
306.8091613957
  0
LINE
  8
0
 62
7
  6
CONTINUOUS
 10
163.7887697426
 20
306.6089909973
 11
163.4981320742
 21
307.5880393237
  0
LINE
  8
0
 62
7
  6
CONTINUOUS
 10
161.8511852413
 20
313.1359799927
 11
161.5121080011
 21
314.2782029069
  0
LINE
  8
0
 62
7
  6
CONTINUOUS
 10
218.5005287455
 20
102.9166401971
 11
218.6201865777
 21
102.4311692884
  0
LINE
  8
0
 62
9
  6
CONTINUOUS
 10
219.471470563
 20
103.1559558614
 11
219.5911283951
 21
102.6704849526
  0
LINE
  8
0
 62
7
  6
CONTINUOUS
 10
172.2126500766
 20
314.5542416013
 11
172.2711772116
 21
314.218884457
  0
LINE
  8
0
 62
7
  6
CONTINUOUS
 10
172.9913668093
 20
311.0616492491
 11
173.1084209154
 21
310.3909358999
  0
LINE
  8
0
 62
7
  6
CONTINUOUS
 10
173.0921050078
 20
314.3621542598
 11
173.0335778728
 21
314.6975114042
  0
LINE
  8
0
 62
7
  6
CONTINUOUS
 10
173.9293487116
 20
310.5342057027
 11
173.8122946055
 21
311.204919052
  0
LINE
  8
0
 62
7
  6
CONTINUOUS
 10
112.3151186531
 20
275.8440549129
 11
112.9399953526
 21
275.5264622292
  0
LINE
  8
0
 62
7
  6
CONTINUOUS
 10
116.9745845359
 20
278.6513773164
 11
116.3497079658
 21
278.9689701048
  0
LINE
  8
0
 62
7
  6
CONTINUOUS
 10
117.9111296153
 20
285.0094184033
 11
118.6348308352
 21
284.5315649763
  0
LINE
  8
0
 62
7
  6
CONTINUOUS
 10
119.219094325
 20
285.125770403
 11
118.4953937737
 21
285.60362451
  0
LINE
  8
0
 62
7
  6
CONTINUOUS
 10
173.8122946055
 20
311.204919052
 11
173.5310579055
 21
311.8469792002
  0
LINE
  8
DEFAULT_2
 62
8
  6
HIDDEN
 10
203.2626649848
 20
344.0303595507
 11
203.43950901
 21
342.0090230934
  0
LINE
  8
0
 62
7
  6
CONTINUOUS
 10
204.2588596829
 20
344.1175152934
 11
204.4357037081
 21
342.0961788362
  0
LINE
  8
0
 62
7
  6
CONTINUOUS
 10
213.4023349395
 20
306.0861790206
 11
212.7095137976
 21
314.4904098844
  0
LINE
  8
0
 62
7
  6
CONTINUOUS
 10
212.2677688791
 20
308.4657908953
 11
212.430878014
 21
306.3233950442
  0
LINE
  8
0
 62
7
  6
CONTINUOUS
 10
211.9003621434
 20
313.9871377044
 11
212.2673632132
 21
309.1667455082
  0
LINE
  8
0
 62
7
  6
CONTINUOUS
 10
215.537718083
 20
307.7519608057
 11
215.5862327674
 21
306.8392347764
  0
LINE
  8
0
 62
7
  6
CONTINUOUS
 10
221.3424369681
 20
306.7236826389
 11
221.2939222461
 21
307.636408555
  0
LINE
  8
0
 62
9
  6
CONTINUOUS
 10
219.3787219735
 20
327.4034908733
 11
219.3787219735
 21
328.4034908733
  0
LINE
  8
0
 62
7
  6
CONTINUOUS
 10
216.3797389322
 20
307.1140811896
 11
216.3822730353
 21
307.651223552
  0
LINE
  8
0
 62
7
  6
CONTINUOUS
 10
220.5004161189
 20
307.361562255
 11
220.4978819407
 21
306.8244196663
  0
LINE
  8
0
 62
7
  6
CONTINUOUS
 10
221.9904063212
 20
309.7367047385
 11
221.9929404243
 21
310.2738471009
  0
LINE
  8
DEFAULT_2
 62
8
  6
HIDDEN
 10
191.4577251684
 20
97.4533939956
 11
191.2184095042
 21
96.4824521782
  0
LINE
  8
0
 62
9
  6
CONTINUOUS
 10
171.8309013836
 20
85.1664967879
 11
172.4863441198
 21
87.086775336
  0
LINE
  8
0
 62
7
  6
CONTINUOUS
 10
172.7772907398
 20
84.8434686367
 11
173.432733476
 21
86.7637471848
  0
LINE
  8
DEFAULT_2
 62
8
  6
HIDDEN
 10
261.6265156228
 20
321.9380724306
 11
260.8437413404
 21
320.0660843683
  0
LINE
  8
0
 62
7
  6
CONTINUOUS
 10
262.5491055142
 20
321.5522902481
 11
261.7663312317
 21
319.6803021858
  0
LINE
  8
0
 62
9
  6
CONTINUOUS
 10
268.1696842404
 20
299.7262062478
 11
268.6344074124
 21
300.6116622735
  0
LINE
  8
DEFAULT_2
 62
8
  6
HIDDEN
 10
136.5837309443
 20
109.0910415698
 11
135.9206082861
 21
108.3425308216
  0
LINE
  8
0
 62
9
  6
CONTINUOUS
 10
113.4950357146
 20
107.3325742071
 11
114.9677993729
 21
108.7282969909
  0
LINE
  8
0
 62
7
  6
CONTINUOUS
 10
114.1829032056
 20
106.6067379206
 11
115.6556668639
 21
108.0024607044
  0
LINE
  8
DEFAULT_2
 62
8
  6
HIDDEN
 10
303.0383411025
 20
275.2532898784
 11
301.475272667
 21
273.9595001163
  0
LINE
  8
0
 62
7
  6
CONTINUOUS
 10
303.6759719614
 20
274.4829478195
 11
302.112903526
 21
273.1891580574
  0
LINE
  8
0
 62
9
  6
CONTINUOUS
 10
298.5096602723
 20
252.5448970508
 11
299.3326441382
 21
253.1129617975
  0
LINE
  8
DEFAULT_2
 62
8
  6
HIDDEN
 10
93.4035066027
 20
144.8968833973
 11
92.46849036
 21
144.5422785103
  0
LINE
  8
DEFAULT_2
 62
8
  6
HIDDEN
 10
295.7940244249
 20
259.70544029
 11
296.786733299
 21
259.8259769702
  0
LINE
  8
0
 62
9
  6
CONTINUOUS
 10
314.2422405176
 20
245.7110350552
 11
312.2143256873
 21
245.6429445021
  0
LINE
  8
0
 62
7
  6
CONTINUOUS
 10
314.208682795
 20
246.7104718362
 11
312.1807679647
 21
246.6423812831
  0
LINE
  8
DEFAULT_2
 62
8
  6
HIDDEN
 10
61.0150078413
 20
245.7110350552
 11
63.0429226716
 21
245.6429445021
  0
LINE
  8
0
 62
7
  6
CONTINUOUS
 10
61.0485655638
 20
246.7104718362
 11
63.0764803941
 21
246.6423812831
  0
LINE
  8
0
 62
9
  6
CONTINUOUS
 10
79.4632239339
 20
259.70544029
 11
78.4705150598
 21
259.8259769702
  0
LINE
  8
0
 62
7
  6
CONTINUOUS
 10
115.9353764823
 20
278.2261736927
 11
116.7979796525
 21
277.9239541362
  0
LINE
  8
DEFAULT_2
 62
8
  6
HIDDEN
 10
304.3712214398
 20
204.2705976859
 11
305.3062376825
 21
203.9159927989
  0
LINE
  8
0
 62
7
  6
CONTINUOUS
 10
113.354326639
 20
276.2692585948
 11
112.8585000986
 21
276.4758626494
  0
LINE
  8
0
 62
9
  6
CONTINUOUS
 10
314.2027811501
 20
183.3058537442
 11
312.3755084862
 21
184.1879815663
  0
LINE
  8
0
 62
7
  6
CONTINUOUS
 10
314.6375286936
 20
184.2064061155
 11
312.8102560297
 21
185.0885339376
  0
LINE
  8
0
 62
7
  6
CONTINUOUS
 10
118.4953937737
 20
285.60362451
 11
118.0144318556
 21
285.8428000233
  0
LINE
  8
DEFAULT_2
 62
8
  6
HIDDEN
 10
89.9812021173
 20
300.9864165615
 11
91.7451882656
 21
299.9837063583
  0
LINE
  8
0
 62
7
  6
CONTINUOUS
 10
90.4753774361
 20
301.8557788302
 11
92.2393635843
 21
300.8530686271
  0
LINE
  8
0
 62
9
  6
CONTINUOUS
 10
112.8198106107
 20
304.8045335009
 11
111.9968267448
 21
305.3725982476
  0
LINE
  8
0
 62
7
  6
CONTINUOUS
 10
146.3118051058
 20
303.5441473098
 11
146.6856728267
 21
303.1584641368
  0
LINE
  8
0
 62
7
  6
CONTINUOUS
 10
147.5095103571
 20
303.7502952803
 11
147.1356426362
 21
304.1359784533
  0
LINE
  8
0
 62
7
  6
CONTINUOUS
 10
144.8177187093
 20
306.603013211
 11
145.1915865349
 21
306.2173298238
  0
LINE
  8
0
 62
7
  6
CONTINUOUS
 10
146.015423856
 20
306.8091613957
 11
145.6415562397
 21
307.1948443545
  0
LINE
  8
DEFAULT_2
 62
8
  6
HIDDEN
 10
286.2040963232
 20
151.199460067
 11
286.8672189814
 21
150.4509493188
  0
LINE
  8
0
 62
9
  6
CONTINUOUS
 10
285.1667078045
 20
128.0671476029
 11
283.9586834534
 21
129.6974089469
  0
LINE
  8
0
 62
7
  6
CONTINUOUS
 10
285.9701651911
 20
128.662509869
 11
284.76214084
 21
130.292771213
  0
LINE
  8
DEFAULT_2
 62
8
  6
HIDDEN
 10
141.3172440088
 20
336.4690745004
 11
142.4131935067
 21
334.7614534708
  0
LINE
  8
0
 62
7
  6
CONTINUOUS
 10
142.1588273138
 20
337.0092018381
 11
143.2547768116
 21
335.3015808085
  0
LINE
  8
0
 62
7
  6
CONTINUOUS
 10
168.0186866168
 20
309.5026662701
 11
168.2706597697
 21
309.0282845767
  0
LINE
  8
0
 62
9
  6
CONTINUOUS
 10
163.3141949321
 20
329.2362185669
 11
162.8494717601
 21
330.1216745926
  0
LINE
  8
0
 62
7
  6
CONTINUOUS
 10
173.0335778728
 20
314.6975114042
 11
172.752333698
 21
315.3395700059
  0
LINE
  8
DEFAULT_2
 62
8
  6
HIDDEN
 10
245.4545185016
 20
112.6499854852
 11
245.6938341659
 21
111.6790436678
  0
LINE
  8
0
 62
7
  6
CONTINUOUS
 10
205.5055433976
 20
314.6606298663
 11
205.5898283447
 21
314.1301353924
  0
LINE
  8
0
 62
7
  6
CONTINUOUS
 10
206.577384855
 20
313.9728708413
 11
206.4930999079
 21
314.5033653152
  0
LINE
  8
0
 62
9
  6
CONTINUOUS
 10
233.7858349618
 20
92.6494385096
 11
233.473802744
 21
94.6543601483
  0
LINE
  8
0
 62
7
  6
CONTINUOUS
 10
234.773939787
 20
92.8032203503
 11
234.4619075692
 21
94.808141989
  0
LINE
  8
DEFAULT_3
 62
2
  6
PHANTOM
 10
254.2069976156
 20
210.4561861909
 11
249.9643569285
 21
206.2135455038
  0
LINE
  8
DEFAULT_3
 62
2
  6
PHANTOM
 10
191.7609288619
 20
148.0101174371
 11
196.003569549
 21
152.2527581243
  0
LINE
  8
0
 62
7
  6
CONTINUOUS
 10
113.9588295743
 20
276.1890160279
 11
113.354326639
 21
276.2692585948
  0
LINE
  8
0
 62
7
  6
CONTINUOUS
 10
112.9399953526
 20
275.5264622292
 11
113.3067718047
 21
275.4308467033
  0
LINE
  8
0
 62
7
  6
CONTINUOUS
 10
117.3413612146
 20
278.5557620083
 11
116.9745845359
 21
278.6513773164
  0
LINE
  8
DEFAULT_3
 62
2
  6
PHANTOM
 10
249.9643569285
 20
222.9634362429
 11
254.2069976156
 21
218.7207955558
  0
LINE
  8
DEFAULT_3
 62
2
  6
PHANTOM
 10
196.003569549
 20
276.9242236224
 11
191.7609288619
 21
281.1668643095
  0
LINE
  8
0
 62
7
  6
CONTINUOUS
 10
168.2706597697
 20
309.0282845767
 11
168.6868229709
 21
308.5825577482
  0
LINE
  8
0
 62
7
  6
CONTINUOUS
 10
169.0623240189
 20
309.3392328343
 11
168.839614413
 21
309.645936073
  0
LINE
  8
0
 62
7
  6
CONTINUOUS
 10
172.5459475564
 20
311.6750559614
 11
172.9913668093
 21
311.0616492491
  0
LINE
  8
0
 62
9
  6
CONTINUOUS
 10
232.7166544956
 20
91.4989487175
 11
232.635578918
 21
90.5022407609
  0
LINE
  8
DEFAULT_2
 62
8
  6
HIDDEN
 10
260.8637338266
 20
323.3110027137
 11
261.0235419847
 21
324.2981508042
  0
LINE
  8
0
 62
9
  6
CONTINUOUS
 10
170.3495298316
 20
84.6446616068
 11
169.8145476898
 21
83.7997982404
  0
LINE
  8
DEFAULT_2
 62
8
  6
HIDDEN
 10
303.0009638809
 20
276.8234416464
 11
303.6012175694
 21
277.6232513171
  0
LINE
  8
DEFAULT_3
 62
2
  6
PHANTOM
 10
200.1282663083
 20
154.1147131838
 11
248.102401869
 21
202.0888487444
  0
LINE
  8
0
 62
9
  6
CONTINUOUS
 10
111.9408374471
 20
107.5589397882
 11
111.0745067024
 21
107.0594690275
  0
LINE
  8
DEFAULT_2
 62
8
  6
HIDDEN
 10
318.7077812971
 20
216.0786033693
 11
319.6109696297
 21
216.5078478636
  0
LINE
  8
DEFAULT_2
 62
8
  6
HIDDEN
 10
60.0017818791
 20
244.5109738981
 11
59.0221136267
 21
244.3103495846
  0
LINE
  8
0
 62
9
  6
CONTINUOUS
 10
315.2554664798
 20
244.5109738981
 11
316.2351347322
 21
244.3103495846
  0
LINE
  8
DEFAULT_2
 62
8
  6
HIDDEN
 10
88.5263388562
 20
300.3946847619
 11
87.5656509316
 21
300.6723152924
  0
LINE
  8
0
 62
7
  6
CONTINUOUS
 10
125.6329420005
 20
296.9088802077
 11
130.2029370429
 21
295.3374770141
  0
LINE
  8
0
 62
7
  6
CONTINUOUS
 10
131.1015912643
 20
294.9291510902
 11
134.8708795414
 21
293.6268665125
  0
LINE
  8
0
 62
7
  6
CONTINUOUS
 10
130.2200781985
 20
296.1820267411
 11
126.4507914812
 21
297.4843124165
  0
LINE
  8
0
 62
7
  6
CONTINUOUS
 10
135.6887290221
 20
294.2022987212
 11
131.0207865236
 21
295.9129092229
  0
LINE
  8
0
 62
7
  6
CONTINUOUS
 10
147.1356426362
 20
304.1359784533
 11
146.3875544789
 21
304.5283076129
  0
LINE
  8
0
 62
7
  6
CONTINUOUS
 10
145.6415562397
 20
307.1948443545
 11
144.8934680824
 21
307.5871735141
  0
LINE
  8
0
 62
9
  6
CONTINUOUS
 10
314.5422519561
 20
181.7723827784
 11
315.3164703459
 21
181.1394642333
  0
LINE
  8
DEFAULT_2
 62
8
  6
HIDDEN
 10
139.7540350889
 20
336.6212306825
 11
139.032409518
 21
337.3135142483
  0
LINE
  8
DEFAULT_3
 62
2
  6
PHANTOM
 10
200.1282663083
 20
275.0622685629
 11
248.102401869
 21
227.0881330022
  0
LINE
  8
0
 62
7
  6
CONTINUOUS
 10
173.5310579055
 20
311.8469792002
 11
173.1148947044
 21
312.2927060286
  0
LINE
  8
0
 62
7
  6
CONTINUOUS
 10
171.7964868754
 20
314.9999684298
 11
172.2126500766
 21
314.5542416013
  0
LINE
  8
0
 62
7
  6
CONTINUOUS
 10
206.4930999079
 20
314.5033653152
 11
206.1063953769
 21
315.2543764112
  0
LINE
  8
0
 62
9
  6
CONTINUOUS
 10
284.7546547838
 20
126.5515665463
 11
285.1460592083
 21
125.6313477807
  0
LINE
  8
DEFAULT_2
 62
8
  6
HIDDEN
 10
201.9492227309
 20
344.8915465668
 11
201.6319752355
 21
345.8398893459
  0
LINE
  8
0
 62
7
  6
CONTINUOUS
 10
215.5862327674
 20
306.8392347764
 11
215.8465161137
 21
306.0356112816
  0
LINE
  8
0
 62
7
  6
CONTINUOUS
 10
221.9929404243
 20
310.2738471009
 11
221.7326570593
 21
311.0774705392
  0
LINE
  8
0
 62
7
  6
CONTINUOUS
 10
216.5354049897
 20
306.5244775805
 11
216.3797389322
 21
307.1140811896
  0
LINE
  8
0
 62
7
  6
CONTINUOUS
 10
221.043768202
 20
310.5886042969
 11
221.1994270554
 21
309.9990032023
  0
LINE
  8
0
 62
7
  6
CONTINUOUS
 10
113.3067718047
 20
275.4308467033
 11
114.0199509412
 21
275.4769656729
  0
LINE
  8
0
 62
7
  6
CONTINUOUS
 10
117.4346850513
 20
285.0104142823
 11
117.9111296153
 21
285.0094184033
  0
LINE
  8
0
 62
7
  6
CONTINUOUS
 10
118.0144318556
 20
285.8428000233
 11
117.5379872916
 21
285.8437959023
  0
LINE
  8
0
 62
7
  6
CONTINUOUS
 10
145.8628802554
 20
303.7037367844
 11
146.3118051058
 21
303.5441473098
  0
LINE
  8
0
 62
7
  6
CONTINUOUS
 10
144.3687938589
 20
306.7626026855
 11
144.8177187093
 21
306.603013211
  0
LINE
  8
0
 62
7
  6
CONTINUOUS
 10
169.4492237141
 20
309.0611842257
 11
169.0623240189
 21
309.3392328343
  0
LINE
  8
0
 62
7
  6
CONTINUOUS
 10
172.752333698
 20
315.3395700059
 11
171.9785418645
 21
315.8956682998
  0
LINE
  8
0
 62
7
  6
CONTINUOUS
 10
205.2298922448
 20
315.0492411935
 11
205.5055433976
 21
314.6606298663
  0
LINE
  8
0
 62
7
  6
CONTINUOUS
 10
220.2911743373
 20
307.7896045409
 11
220.5004161189
 21
307.361562255
  0
LINE
  8
0
 62
7
  6
CONTINUOUS
 10
221.2939222461
 20
307.636408555
 11
220.9800631946
 21
308.2784707832
  0
LINE
  8
0
 62
7
  6
CONTINUOUS
 10
114.0199509412
 20
275.4769656729
 11
114.6040800462
 21
275.6340732599
  0
LINE
  8
0
 62
7
  6
CONTINUOUS
 10
218.84969162
 20
304.5017385568
 11
219.8013979594
 21
304.7241237656
  0
LINE
  8
0
 62
7
  6
CONTINUOUS
 10
218.8876672539
 20
312.5588868908
 11
217.9359681701
 21
312.3364993229
  0
LINE
  8
0
 62
7
  6
CONTINUOUS
 10
117.5379872916
 20
285.8437959023
 11
116.9446897622
 21
285.725950424
  0
LINE
  8
0
 62
7
  6
CONTINUOUS
 10
144.8934680824
 20
307.5871735141
 11
144.0703261186
 21
307.7534108637
  0
LINE
  8
0
 62
7
  6
CONTINUOUS
 10
169.2379052087
 20
308.3331626343
 11
169.9531699969
 21
308.1124209709
  0
LINE
  8
0
 62
7
  6
CONTINUOUS
 10
169.8068523464
 20
308.9508127602
 11
169.4492237141
 21
309.0611842257
  0
LINE
  8
0
 62
7
  6
CONTINUOUS
 10
168.6868229709
 20
308.5825577482
 11
169.2379052087
 21
308.3331626343
  0
LINE
  8
0
 62
7
  6
CONTINUOUS
 10
171.9948653288
 20
311.9244510167
 11
172.5459475564
 21
311.6750559614
  0
LINE
  8
0
 62
7
  6
CONTINUOUS
 10
171.2454046478
 20
315.249363485
 11
171.7964868754
 21
314.9999684298
  0
LINE
  8
0
 62
7
  6
CONTINUOUS
 10
206.1063953769
 20
315.2543764112
 11
205.5283246403
 21
315.8635043605
  0
LINE
  8
0
 62
7
  6
CONTINUOUS
 10
215.8465161137
 20
306.0356112816
 11
216.4767610642
 21
305.2886315466
  0
LINE
  8
0
 62
7
  6
CONTINUOUS
 10
220.9800631946
 20
308.2784707832
 11
220.3498109884
 21
309.0254528772
  0
LINE
  8
0
 62
7
  6
CONTINUOUS
 10
221.7326570593
 20
311.0774705392
 11
221.1024048532
 21
311.8244526331
  0
LINE
  8
0
 62
7
  6
CONTINUOUS
 10
216.9028397278
 20
306.0439765624
 11
216.5354049897
 21
306.5244775805
  0
LINE
  8
0
 62
7
  6
CONTINUOUS
 10
219.9237395992
 20
308.270105559
 11
220.2911743373
 21
307.7896045409
  0
LINE
  8
0
 62
7
  6
CONTINUOUS
 10
220.6763334639
 20
311.069105315
 11
221.043768202
 21
310.5886042969
  0
LINE
  8
0
 62
7
  6
CONTINUOUS
 10
144.0703261186
 20
307.7534108637
 11
143.2468380854
 21
307.5406148039
  0
LINE
  8
0
 62
7
  6
CONTINUOUS
 10
166.0704867266
 20
307.1100921866
 11
167.0443983193
 21
307.3370199492
  0
LINE
  8
0
 62
7
  6
CONTINUOUS
 10
170.6391787693
 20
308.0593589859
 11
171.9526542243
 21
308.2885890964
  0
LINE
  8
0
 62
7
  6
CONTINUOUS
 10
171.6421540183
 20
309.0983274645
 11
170.6570436692
 21
308.9264042258
  0
LINE
  8
0
 62
7
  6
CONTINUOUS
 10
168.839614413
 20
309.645936073
 11
168.0186866168
 21
309.5026662701
  0
LINE
  8
0
 62
7
  6
CONTINUOUS
 10
170.3237462099
 20
311.8055897482
 11
170.9804914532
 21
311.9202061152
  0
LINE
  8
0
 62
7
  6
CONTINUOUS
 10
170.8634373471
 20
312.5909194644
 11
170.2066921038
 21
312.4763030975
  0
LINE
  8
0
 62
7
  6
CONTINUOUS
 10
167.4512808839
 20
313.7232788434
 11
168.2722086801
 21
313.8665486463
  0
LINE
  8
0
 62
7
  6
CONTINUOUS
 10
204.8819025663
 20
312.8640095562
 11
204.3613558801
 21
312.7745471266
  0
LINE
  8
0
 62
7
  6
CONTINUOUS
 10
145.3389050262
 20
303.6372361231
 11
145.8628802554
 21
303.7037367844
  0
LINE
  8
0
 62
7
  6
CONTINUOUS
 10
143.8448186297
 20
306.6961020243
 11
144.3687938589
 21
306.7626026855
  0
LINE
  8
0
 62
7
  6
CONTINUOUS
 10
204.0361550536
 20
311.7921892545
 11
204.8858822202
 21
311.8292309669
  0
LINE
  8
0
 62
7
  6
CONTINUOUS
 10
218.959377129
 20
305.3620034383
 11
218.4312153313
 21
305.3578208262
  0
LINE
  8
0
 62
7
  6
CONTINUOUS
 10
217.8672021981
 20
308.9520786831
 11
218.3953639958
 21
308.9562612952
  0
LINE
  8
0
 62
7
  6
CONTINUOUS
 10
218.7779890193
 20
311.6986197069
 11
219.306150817
 21
311.702802319
  0
LINE
  8
0
 62
7
  6
CONTINUOUS
 10
170.9804914532
 20
311.9202061152
 11
171.9948653288
 21
311.9244510167
  0
LINE
  8
0
 62
7
  6
CONTINUOUS
 10
146.3875544789
 20
304.5283076129
 11
146.0133339378
 21
304.5349538138
  0
LINE
  8
0
 62
7
  6
CONTINUOUS
 10
170.6570436692
 20
308.9264042258
 11
169.8068523464
 21
308.9508127602
  0
LINE
  8
0
 62
7
  6
CONTINUOUS
 10
170.3952208409
 20
315.2737733312
 11
171.2454046478
 21
315.249363485
  0
LINE
  8
0
 62
7
  6
CONTINUOUS
 10
169.9531699969
 20
308.1124209709
 11
170.6391787693
 21
308.0593589859
  0
LINE
  8
0
 62
7
  6
CONTINUOUS
 10
218.0051439045
 20
304.6024733949
 11
218.84969162
 21
304.5017385568
  0
LINE
  8
0
 62
7
  6
CONTINUOUS
 10
218.821435385
 20
309.7116086133
 11
217.9768804327
 21
309.812345867
  0
LINE
  8
0
 62
7
  6
CONTINUOUS
 10
219.7322222062
 20
312.4581496371
 11
218.8876672539
 21
312.5588868908
  0
LINE
  8
0
 62
7
  6
CONTINUOUS
 10
199.5237918857
 20
308.8912581808
 11
200.5113483959
 21
308.7339936297
  0
LINE
  8
0
 62
7
  6
CONTINUOUS
 10
201.0734855228
 20
312.2639829079
 11
204.0361550536
 21
311.7921892545
  0
LINE
  8
0
 62
7
  6
CONTINUOUS
 10
204.3613558801
 20
312.7745471266
 11
201.2340961091
 21
313.2725511386
  0
LINE
  8
0
 62
7
  6
CONTINUOUS
 10
173.1148947044
 20
312.2927060286
 11
172.2354398551
 21
312.4847929004
  0
LINE
  8
0
 62
7
  6
CONTINUOUS
 10
206.9259579066
 20
307.6676185747
 11
207.8974148321
 21
307.4304025511
  0
LINE
  8
0
 62
7
  6
CONTINUOUS
 10
212.430878014
 20
306.3233950442
 11
213.4023349395
 21
306.0861790206
  0
LINE
  8
0
 62
7
  6
CONTINUOUS
 10
209.0295766568
 20
309.2565115773
 11
212.2677688791
 21
308.4657908953
  0
LINE
  8
0
 62
7
  6
CONTINUOUS
 10
212.2673632132
 20
309.1667455082
 11
209.3529924366
 21
309.878393579
  0
LINE
  8
0
 62
7
  6
CONTINUOUS
 10
171.9785418645
 20
315.8956682998
 11
171.263277084
 21
316.1164099192
  0
LINE
  8
0
 62
7
  6
CONTINUOUS
 10
217.2141646387
 20
304.8647718586
 11
218.0051439045
 21
304.6024733949
  0
LINE
  8
0
 62
7
  6
CONTINUOUS
 10
218.4312153313
 20
305.3578208262
 11
217.3238501524
 21
305.7250367543
  0
LINE
  8
0
 62
7
  6
CONTINUOUS
 10
218.3953639958
 20
308.9562612952
 11
219.5027291746
 21
308.589045367
  0
LINE
  8
0
 62
7
  6
CONTINUOUS
 10
219.6124146508
 20
309.4493101496
 11
218.821435385
 21
309.7116086133
  0
LINE
  8
0
 62
7
  6
CONTINUOUS
 10
205.5283246403
 20
315.8635043605
 11
204.7321343357
 21
316.1626520584
  0
LINE
  8
0
 62
7
  6
CONTINUOUS
 10
204.7628824207
 20
315.2959681742
 11
205.2298922448
 21
315.0492411935
  0
LINE
  8
0
 62
7
  6
CONTINUOUS
 10
216.4767610642
 20
305.2886315466
 11
217.2141646387
 21
304.8647718586
  0
LINE
  8
0
 62
7
  6
CONTINUOUS
 10
220.3498109884
 20
309.0254528772
 11
219.6124146508
 21
309.4493101496
  0
LINE
  8
0
 62
7
  6
CONTINUOUS
 10
221.1024048532
 20
311.8244526331
 11
220.3650012739
 21
312.248312307
  0
LINE
  8
0
 62
7
  6
CONTINUOUS
 10
217.3238501524
 20
305.7250367543
 11
216.9028397278
 21
306.0439765624
  0
LINE
  8
0
 62
7
  6
CONTINUOUS
 10
219.5027291746
 20
308.589045367
 11
219.9237395992
 21
308.270105559
  0
LINE
  8
0
 62
7
  6
CONTINUOUS
 10
220.2553230393
 20
311.388045123
 11
220.6763334639
 21
311.069105315
  0
LINE
  8
DEFAULT_2
 62
8
  6
HIDDEN
 10
304.3712214398
 20
204.2705976859
 11
293.5557377068
 21
175.752510845
  0
LINE
  8
0
 62
9
  6
CONTINUOUS
 10
281.8537417561
 20
144.8968833973
 11
293.5557377068
 21
175.752510845
  0
LINE
  8
DEFAULT_2
 62
8
  6
HIDDEN
 10
286.2040963232
 20
151.199460067
 11
263.3744453041
 21
130.9741541412
  0
LINE
  8
0
 62
9
  6
CONTINUOUS
 10
238.6735174145
 20
109.0910415698
 11
263.3744453041
 21
130.9741541412
  0
LINE
  8
0
 62
7
  6
CONTINUOUS
 10
165.228976218
 20
315.1283126914
 11
164.2550646253
 21
314.9013849287
  0
LINE
  8
0
 62
7
  6
CONTINUOUS
 10
169.7384755976
 20
315.1591569642
 11
170.3952208409
 21
315.2737733312
  0
LINE
  8
0
 62
7
  6
CONTINUOUS
 10
170.0847131396
 20
316.0835102701
 11
169.7563480338
 21
316.0262033983
  0
LINE
  8
0
 62
7
  6
CONTINUOUS
 10
171.263277084
 20
316.1164099192
 11
170.0847131396
 21
316.0835102701
  0
LINE
  8
0
 62
9
  6
CONTINUOUS
 10
219.3787219735
 20
327.4034908733
 11
186.3786241794
 21
327.4034908733
  0
LINE
  8
DEFAULT_2
 62
8
  6
HIDDEN
 10
155.8785263854
 20
327.4034908733
 11
186.3786241794
 21
327.4034908733
  0
LINE
  8
0
 62
7
  6
CONTINUOUS
 10
201.6356226497
 20
315.7939721862
 11
204.7628824207
 21
315.2959681742
  0
LINE
  8
0
 62
7
  6
CONTINUOUS
 10
204.7321343357
 20
316.1626520584
 11
200.7819082947
 21
316.7917102629
  0
LINE
  8
0
 62
7
  6
CONTINUOUS
 10
212.7095137976
 20
314.4904098844
 11
211.4142354264
 21
314.8066985192
  0
LINE
  8
0
 62
7
  6
CONTINUOUS
 10
221.1994270554
 20
309.9990032023
 11
221.9904063212
 21
309.7367047385
  0
LINE
  8
0
 62
7
  6
CONTINUOUS
 10
219.306150817
 20
311.702802319
 11
220.2553230393
 21
311.388045123
  0
LINE
  8
0
 62
7
  6
CONTINUOUS
 10
220.3650012739
 20
312.248312307
 11
219.7322222062
 21
312.4581496371
  0
LINE
  8
0
 62
9
  6
CONTINUOUS
 10
268.1696842404
 20
299.7262062478
 11
238.9495488015
 21
315.0621163725
  0
LINE
  8
DEFAULT_2
 62
8
  6
HIDDEN
 10
211.9430534267
 20
329.2362185669
 11
238.9495488015
 21
315.0621163725
  0
LINE
  8
DEFAULT_2
 62
8
  6
HIDDEN
 10
262.4374377482
 20
304.8045335009
 11
279.7634680768
 21
279.7034451082
  0
LINE
  8
0
 62
9
  6
CONTINUOUS
 10
298.5096602723
 20
252.5448970508
 11
279.7634680768
 21
279.7034451082
  0
LINE
  8
DEFAULT_2
 62
8
  6
HIDDEN
 10
295.7940244249
 20
259.70544029
 11
299.4704049605
 21
229.427722549
  0
LINE
  8
0
 62
9
  6
CONTINUOUS
 10
303.4481271967
 20
196.6682326227
 11
299.4704049605
 21
229.427722549
  0
LINE
  8
0
 62
9
  6
CONTINUOUS
 10
312.2143256873
 20
245.6429445021
 11
312.1807679866
 21
246.6423812839
  0
LINE
  8
DEFAULT_2
 62
8
  6
HIDDEN
 10
301.1622744275
 20
154.6211133107
 11
300.8905109753
 21
153.6587492289
  0
LINE
  8
0
 62
7
  6
CONTINUOUS
 10
305.3062376825
 20
203.9159927989
 11
303.9951854683
 21
200.4590322209
  0
LINE
  8
DEFAULT_2
 62
8
  6
HIDDEN
 10
303.9951854683
 20
200.4590322209
 11
294.4907539495
 21
175.3979059579
  0
LINE
  8
0
 62
7
  6
CONTINUOUS
 10
282.7887579988
 20
144.5422785103
 11
294.4907539495
 21
175.3979059579
  0
LINE
  8
0
 62
9
  6
CONTINUOUS
 10
297.424601096
 20
177.4937449119
 11
297.0699962089
 21
176.5587286692
  0
LINE
  8
DEFAULT_2
 62
8
  6
HIDDEN
 10
294.4104595561
 20
169.5461068491
 11
294.7650644432
 21
170.4811230918
  0
LINE
  8
0
 62
9
  6
CONTINUOUS
 10
297.8921092173
 20
177.3164424684
 11
297.5375043302
 21
176.3814262257
  0
LINE
  8
DEFAULT_2
 62
8
  6
HIDDEN
 10
294.8779676775
 20
169.3688044056
 11
295.2325725645
 21
170.3038206483
  0
LINE
  8
0
 62
9
  6
CONTINUOUS
 10
312.3755084862
 20
184.1879815663
 11
312.8102560495
 21
185.088533928
  0
LINE
  8
DEFAULT_2
 62
8
  6
HIDDEN
 10
260.2894489859
 20
108.7282969909
 11
259.6015815109
 21
108.0024606893
  0
LINE
  8
0
 62
7
  6
CONTINUOUS
 10
286.8672189814
 20
150.4509493188
 11
284.099810213
 21
147.9992390883
  0
LINE
  8
DEFAULT_2
 62
8
  6
HIDDEN
 10
284.099810213
 20
147.9992390883
 11
264.0375679623
 21
130.225643393
  0
LINE
  8
0
 62
7
  6
CONTINUOUS
 10
239.3366400728
 20
108.3425308216
 11
264.0375679623
 21
130.225643393
  0
LINE
  8
0
 62
9
  6
CONTINUOUS
 10
267.6093455233
 20
130.7179898714
 11
266.8608347751
 21
130.0548672132
  0
LINE
  8
DEFAULT_2
 62
8
  6
HIDDEN
 10
261.2470041639
 20
125.0814472764
 11
261.995514912
 21
125.7445699346
  0
LINE
  8
0
 62
9
  6
CONTINUOUS
 10
267.9409068524
 20
130.3437344973
 11
267.1923961042
 21
129.6806118391
  0
LINE
  8
DEFAULT_2
 62
8
  6
HIDDEN
 10
261.578565493
 20
124.7071919023
 11
262.3270762411
 21
125.3703145606
  0
LINE
  8
0
 62
9
  6
CONTINUOUS
 10
283.9586834534
 20
129.6974089469
 11
284.7621408531
 21
130.2927711954
  0
LINE
  8
DEFAULT_2
 62
8
  6
HIDDEN
 10
202.7709042391
 20
87.086775336
 11
201.82451489
 21
86.763747164
  0
LINE
  8
DEFAULT_2
 62
8
  6
HIDDEN
 10
203.43950901
 20
342.0090230934
 11
204.4357037061
 21
342.096178858
  0
LINE
  8
0
 62
7
  6
CONTINUOUS
 10
219.3787219735
 20
328.4034908733
 11
186.3786241794
 21
328.4034908733
  0
LINE
  8
0
 62
7
  6
CONTINUOUS
 10
155.8785263854
 20
328.4034908733
 11
159.5757461984
 21
328.4034908733
  0
LINE
  8
DEFAULT_2
 62
8
  6
HIDDEN
 10
159.5757461984
 20
328.4034908733
 11
186.3786241794
 21
328.4034908733
  0
LINE
  8
DEFAULT_2
 62
8
  6
HIDDEN
 10
191.8786241794
 20
330.4034908733
 11
190.8786241794
 21
330.4034908733
  0
LINE
  8
0
 62
9
  6
CONTINUOUS
 10
183.3786241794
 20
330.4034908733
 11
184.3786241794
 21
330.4034908733
  0
LINE
  8
DEFAULT_2
 62
8
  6
HIDDEN
 10
191.8786241794
 20
330.9034908733
 11
190.8786241794
 21
330.9034908733
  0
LINE
  8
0
 62
9
  6
CONTINUOUS
 10
183.3786241794
 20
330.9034908733
 11
184.3786241794
 21
330.9034908733
  0
LINE
  8
0
 62
9
  6
CONTINUOUS
 10
171.8177393489
 20
342.0090230934
 11
170.8215446527
 21
342.096178858
  0
LINE
  8
DEFAULT_2
 62
8
  6
HIDDEN
 10
260.8437413404
 20
320.0660843683
 11
261.7663312402
 21
319.680302206
  0
LINE
  8
0
 62
7
  6
CONTINUOUS
 10
268.6344074124
 20
300.6116622735
 11
239.4142719735
 21
315.9475723981
  0
LINE
  8
0
 62
7
  6
CONTINUOUS
 10
212.4077765988
 20
330.1216745926
 11
215.6815021604
 21
328.4034908733
  0
LINE
  8
DEFAULT_2
 62
8
  6
HIDDEN
 10
215.6815021604
 20
328.4034908733
 11
239.4142719735
 21
315.9475723981
  0
LINE
  8
DEFAULT_2
 62
8
  6
HIDDEN
 10
245.2137264587
 20
315.1625070032
 11
244.3282704331
 21
315.6272301752
  0
LINE
  8
0
 62
9
  6
CONTINUOUS
 10
237.6873502407
 20
319.1126539655
 11
238.5728062663
 21
318.6479307935
  0
LINE
  8
DEFAULT_2
 62
8
  6
HIDDEN
 10
245.4460880447
 20
315.605235016
 11
244.5606320191
 21
316.069958188
  0
LINE
  8
0
 62
9
  6
CONTINUOUS
 10
237.9197118267
 20
319.5553819784
 11
238.8051678523
 21
319.0906588063
  0
LINE
  8
0
 62
9
  6
CONTINUOUS
 10
232.8440548522
 20
334.7614534708
 11
232.0024715591
 21
335.3015808269
  0
LINE
  8
DEFAULT_2
 62
8
  6
HIDDEN
 10
301.475272667
 20
273.9595001163
 11
302.1129035429
 21
273.1891580714
  0
LINE
  8
0
 62
7
  6
CONTINUOUS
 10
263.2604216141
 20
305.3725982476
 11
265.3606818508
 21
302.3298459928
  0
LINE
  8
DEFAULT_2
 62
8
  6
HIDDEN
 10
265.3606818508
 20
302.3298459928
 11
280.5864519427
 21
280.2715098549
  0
LINE
  8
0
 62
7
  6
CONTINUOUS
 10
299.3326441382
 20
253.1129617975
 11
280.5864519427
 21
280.2715098549
  0
LINE
  8
0
 62
9
  6
CONTINUOUS
 10
280.5282254343
 20
283.876590946
 11
281.096290181
 21
283.0536070802
  0
LINE
  8
DEFAULT_2
 62
8
  6
HIDDEN
 10
285.3567757815
 20
276.881228086
 11
284.7887110348
 21
277.7042119518
  0
LINE
  8
0
 62
9
  6
CONTINUOUS
 10
280.9397173672
 20
284.1606233194
 11
281.5077821139
 21
283.3376394535
  0
LINE
  8
DEFAULT_2
 62
8
  6
HIDDEN
 10
285.7682677145
 20
277.1652604593
 11
285.2002029677
 21
277.9882443252
  0
LINE
  8
0
 62
9
  6
CONTINUOUS
 10
283.5120600933
 20
299.9837063583
 11
283.0178847936
 21
300.8530686379
  0
LINE
  8
DEFAULT_2
 62
8
  6
HIDDEN
 10
316.025908826
 20
214.2517331449
 11
316.2325071285
 21
213.2733072962
  0
LINE
  8
0
 62
7
  6
CONTINUOUS
 10
296.786733299
 20
259.8259769702
 11
297.2323839015
 21
256.1557140523
  0
LINE
  8
DEFAULT_2
 62
8
  6
HIDDEN
 10
297.2323839015
 20
256.1557140523
 11
300.4631138346
 21
229.5482592292
  0
LINE
  8
0
 62
7
  6
CONTINUOUS
 10
304.4408360708
 20
196.788769303
 11
300.4631138346
 21
229.5482592292
  0
LINE
  8
0
 62
9
  6
CONTINUOUS
 10
302.086921542
 20
232.767459212
 11
302.2074582223
 21
231.7747503379
  0
LINE
  8
DEFAULT_2
 62
8
  6
HIDDEN
 10
303.1114833242
 20
224.3294337822
 11
302.9909466439
 21
225.3221426563
  0
LINE
  8
0
 62
9
  6
CONTINUOUS
 10
302.5832759791
 20
232.8277275521
 11
302.7038126593
 21
231.835018678
  0
LINE
  8
DEFAULT_2
 62
8
  6
HIDDEN
 10
303.6078377612
 20
224.3897021223
 11
303.4873010809
 21
225.3824109964
  0
LINE
  8
0
 62
9
  6
CONTINUOUS
 10
314.2422405176
 20
245.7110350552
 11
314.208682795
 21
246.7104718362
  0
LINE
  8
DEFAULT_2
 62
8
  6
HIDDEN
 10
303.1149666025
 20
154.0696895606
 11
302.8432031292
 21
153.1073254847
  0
LINE
  8
0
 62
9
  6
CONTINUOUS
 10
314.2027811501
 20
183.3058537442
 11
314.6375286936
 21
184.2064061155
  0
LINE
  8
DEFAULT_2
 62
8
  6
HIDDEN
 10
261.7622126442
 20
107.3325742071
 11
261.0743451533
 21
106.6067379206
  0
LINE
  8
0
 62
9
  6
CONTINUOUS
 10
285.1667078045
 20
128.0671476029
 11
285.9701651911
 21
128.662509869
  0
LINE
  8
DEFAULT_2
 62
8
  6
HIDDEN
 10
203.4263469753
 20
85.1664967879
 11
202.4799576191
 21
84.8434686367
  0
LINE
  8
DEFAULT_2
 62
8
  6
HIDDEN
 10
203.2626649848
 20
344.0303595507
 11
204.2588596829
 21
344.1175152934
  0
LINE
  8
0
 62
9
  6
CONTINUOUS
 10
171.9945833741
 20
344.0303595507
 11
170.998388676
 21
344.1175152934
  0
LINE
  8
DEFAULT_2
 62
8
  6
HIDDEN
 10
261.6265156228
 20
321.9380724306
 11
262.5491055142
 21
321.5522902481
  0
LINE
  8
0
 62
9
  6
CONTINUOUS
 10
233.94000435
 20
336.4690745004
 11
233.0984210451
 21
337.0092018381
  0
LINE
  8
DEFAULT_2
 62
8
  6
HIDDEN
 10
303.0383411025
 20
275.2532898784
 11
303.6759719614
 21
274.4829478195
  0
LINE
  8
0
 62
9
  6
CONTINUOUS
 10
285.2760462415
 20
300.9864165615
 11
284.7818709227
 21
301.8557788302
  0
LINE
  8
DEFAULT_2
 62
8
  6
HIDDEN
 10
318.0111912729
 20
214.6709329643
 11
318.2177895539
 21
213.692507111
  0
LINE
  8
0
 62
9
  6
CONTINUOUS
 10
421.7775470806
 20
83.8641093311
 11
421.3948646061
 21
83.7997982404
  0
LINE
  8
0
 62
7
  6
CONTINUOUS
 10
391.3948646061
 20
83.4895249391
 11
421.3948646061
 21
83.4895249391
  0
POLYLINE
  8
DEFAULT_2
 62
8
  6
HIDDEN
 66
1
 70
0
  0
VERTEX
  8
DEFAULT_2
 62
8
  6
HIDDEN
 10
390.3948646061
 20
344.0303595507
  0
VERTEX
  8
DEFAULT_2
 62
8
  6
HIDDEN
 10
390.4709850736
 20
344.0637126094
  0
VERTEX
  8
DEFAULT_2
 62
8
  6
HIDDEN
 10
390.6877578249
 20
344.0919879674
  0
VERTEX
  8
DEFAULT_2
 62
8
  6
HIDDEN
 10
391.0121811738
 20
344.1108809575
  0
VERTEX
  8
DEFAULT_2
 62
8
  6
HIDDEN
 10
391.3948646061
 20
344.1175152934
  0
SEQEND
  0
POLYLINE
  8
DEFAULT_2
 62
8
  6
HIDDEN
 66
1
 70
0
  0
VERTEX
  8
DEFAULT_2
 62
8
  6
HIDDEN
 10
390.3948646061
 20
342.0090230934
  0
VERTEX
  8
DEFAULT_2
 62
8
  6
HIDDEN
 10
390.4709850197
 20
342.0423761409
  0
VERTEX
  8
DEFAULT_2
 62
8
  6
HIDDEN
 10
390.6877578257
 20
342.0706515102
  0
VERTEX
  8
DEFAULT_2
 62
8
  6
HIDDEN
 10
391.0121813055
 20
342.0895445051
  0
VERTEX
  8
DEFAULT_2
 62
8
  6
HIDDEN
 10
391.3948646061
 20
342.096178858
  0
SEQEND
  0
LINE
  8
DEFAULT_2
 62
8
  6
HIDDEN
 10
406.3948646061
 20
83.7997982746
 11
391.3948646061
 21
83.7997982746
  0
LINE
  8
0
 62
9
  6
CONTINUOUS
 10
406.3948646061
 20
83.7997982746
 11
421.3948646061
 21
83.7997982746
  0
LINE
  8
0
 62
9
  6
CONTINUOUS
 10
406.3948646061
 20
84.8434686367
 11
391.3948646061
 21
84.8434686367
  0
LINE
  8
DEFAULT_2
 62
8
  6
HIDDEN
 10
406.3948646061
 20
84.8434686367
 11
421.3948646061
 21
84.8434686367
  0
LINE
  8
0
 62
9
  6
CONTINUOUS
 10
406.3948646061
 20
86.7637471848
 11
391.3948646061
 21
86.7637471848
  0
LINE
  8
DEFAULT_2
 62
8
  6
HIDDEN
 10
406.3948646061
 20
86.7637471848
 11
421.3948646061
 21
86.7637471848
  0
LINE
  8
0
 62
7
  6
CONTINUOUS
 10
406.3948646061
 20
90.4956566689
 11
391.3948646061
 21
90.4956566689
  0
LINE
  8
DEFAULT_2
 62
8
  6
HIDDEN
 10
406.3948646061
 20
90.4956566689
 11
421.3948646061
 21
90.4956566689
  0
POLYLINE
  8
0
 62
9
  6
CONTINUOUS
 66
1
 70
0
  0
VERTEX
  8
0
 62
9
  6
CONTINUOUS
 10
390.6877578249
 20
84.9380813917
  0
VERTEX
  8
0
 62
9
  6
CONTINUOUS
 10
391.0121811738
 20
84.8680576906
  0
VERTEX
  8
0
 62
9
  6
CONTINUOUS
 10
391.3948646061
 20
84.8434686367
  0
SEQEND
  0
LINE
  8
0
 62
9
  6
CONTINUOUS
 10
390.6877578249
 20
345.5621261625
 11
391.0121821317
 21
345.7677014078
  0
LINE
  8
0
 62
9
  6
CONTINUOUS
 10
390.6877578249
 20
337.1107490538
 11
391.0121821317
 21
337.2608175318
  0
LINE
  8
0
 62
9
  6
CONTINUOUS
 10
406.3948646061
 20
92.8032203503
 11
391.3948646061
 21
92.8032203503
  0
LINE
  8
DEFAULT_2
 62
8
  6
HIDDEN
 10
406.3948646061
 20
92.8032203503
 11
421.3948646061
 21
92.8032203503
  0
LINE
  8
0
 62
9
  6
CONTINUOUS
 10
406.3948646061
 20
94.808141989
 11
391.3948646061
 21
94.808141989
  0
LINE
  8
DEFAULT_2
 62
8
  6
HIDDEN
 10
406.3948646061
 20
94.808141989
 11
421.3948646061
 21
94.808141989
  0
LINE
  8
DEFAULT_2
 62
8
  6
HIDDEN
 10
391.3948646061
 20
96.4824521782
 11
421.3948646061
 21
96.4824521782
  0
LINE
  8
DEFAULT_2
 62
8
  6
HIDDEN
 10
406.3948646061
 20
100.8756174705
 11
391.3948646061
 21
100.8756174705
  0
LINE
  8
0
 62
9
  6
CONTINUOUS
 10
406.3948646061
 20
100.8756174705
 11
421.3948646061
 21
100.8756174705
  0
POLYLINE
  8
DEFAULT_2
 62
8
  6
HIDDEN
 66
1
 70
0
  0
VERTEX
  8
DEFAULT_2
 62
8
  6
HIDDEN
 10
422.1019713872
 20
102.9867341323
  0
VERTEX
  8
DEFAULT_2
 62
8
  6
HIDDEN
 10
421.7775480383
 20
102.9348570173
  0
VERTEX
  8
DEFAULT_2
 62
8
  6
HIDDEN
 10
421.3948646061
 20
102.9166401971
  0
SEQEND
  0
LINE
  8
DEFAULT_2
 62
8
  6
HIDDEN
 10
406.3948646061
 20
101.3610883792
 11
391.3948646061
 21
101.3610883792
  0
LINE
  8
0
 62
9
  6
CONTINUOUS
 10
406.3948646061
 20
101.3610883792
 11
421.3948646061
 21
101.3610883792
  0
LINE
  8
DEFAULT_2
 62
8
  6
HIDDEN
 10
391.3948646061
 20
102.4311692884
 11
421.3948646061
 21
102.4311692884
  0
LINE
  8
DEFAULT_2
 62
8
  6
HIDDEN
 10
391.3948646061
 20
102.9166401971
 11
421.3948646061
 21
102.9166401971
  0
LINE
  8
DEFAULT_2
 62
8
  6
HIDDEN
 10
406.3948646061
 20
103.7816033426
 11
391.3948646061
 21
103.7816033426
  0
LINE
  8
0
 62
9
  6
CONTINUOUS
 10
406.3948646061
 20
103.7816033426
 11
421.3948646061
 21
103.7816033426
  0
LINE
  8
DEFAULT_2
 62
8
  6
HIDDEN
 10
391.3948646061
 20
104.3798925033
 11
421.3948646061
 21
104.3798925033
  0
LINE
  8
DEFAULT_2
 62
8
  6
HIDDEN
 10
391.3948646061
 20
104.4380088685
 11
421.3948646061
 21
104.4380088685
  0
LINE
  8
DEFAULT_2
 62
8
  6
HIDDEN
 10
406.3948646061
 20
106.0584104936
 11
391.3948646061
 21
106.0584104936
  0
LINE
  8
0
 62
7
  6
CONTINUOUS
 10
406.3948646061
 20
106.0584104936
 11
421.3948646061
 21
106.0584104936
  0
LINE
  8
DEFAULT_2
 62
8
  6
HIDDEN
 10
391.3948646061
 20
106.6067379206
 11
421.3948646061
 21
106.6067379206
  0
LINE
  8
DEFAULT_2
 62
8
  6
HIDDEN
 10
406.3948646061
 20
107.0594690828
 11
391.3948646061
 21
107.0594690828
  0
LINE
  8
0
 62
9
  6
CONTINUOUS
 10
406.3948646061
 20
107.0594690828
 11
421.3948646061
 21
107.0594690828
  0
LINE
  8
DEFAULT_2
 62
8
  6
HIDDEN
 10
391.3948646061
 20
108.0024607044
 11
421.3948646061
 21
108.0024607044
  0
LINE
  8
0
 62
9
  6
CONTINUOUS
 10
406.3948646061
 20
108.3425308216
 11
391.3948646061
 21
108.3425308216
  0
LINE
  8
DEFAULT_2
 62
8
  6
HIDDEN
 10
406.3948646061
 20
108.3425308216
 11
421.3948646061
 21
108.3425308216
  0
LINE
  8
DEFAULT_2
 62
8
  6
HIDDEN
 10
391.0121811738
 20
106.661988918
 11
391.3948646061
 21
106.6067379206
  0
POLYLINE
  8
0
 62
9
  6
CONTINUOUS
 66
1
 70
0
  0
VERTEX
  8
0
 62
9
  6
CONTINUOUS
 10
422.1019713873
 20
100.8055235353
  0
VERTEX
  8
0
 62
9
  6
CONTINUOUS
 10
421.7775480321
 20
100.8574006509
  0
VERTEX
  8
0
 62
9
  6
CONTINUOUS
 10
421.3948646061
 20
100.8756174705
  0
SEQEND
  0
POLYLINE
  8
DEFAULT_2
 62
8
  6
HIDDEN
 66
1
 70
0
  0
VERTEX
  8
DEFAULT_2
 62
8
  6
HIDDEN
 10
390.6877578251
 20
315.4911159096
  0
VERTEX
  8
DEFAULT_2
 62
8
  6
HIDDEN
 10
391.0121811739
 20
315.5918552301
  0
VERTEX
  8
DEFAULT_2
 62
8
  6
HIDDEN
 10
391.3948646061
 20
315.6272301752
  0
SEQEND
  0
LINE
  8
DEFAULT_2
 62
8
  6
HIDDEN
 10
391.3948646061
 20
111.6790436678
 11
421.3948646061
 21
111.6790436678
  0
LINE
  8
DEFAULT_2
 62
8
  6
HIDDEN
 10
391.3948646061
 20
112.1149164064
 11
421.3948646061
 21
112.1149164064
  0
LINE
  8
DEFAULT_2
 62
8
  6
HIDDEN
 10
390.6877578249
 20
106.8193304469
 11
391.0121811738
 21
106.661988918
  0
POLYLINE
  8
DEFAULT_2
 62
8
  6
HIDDEN
 66
1
 70
0
  0
VERTEX
  8
DEFAULT_2
 62
8
  6
HIDDEN
 10
390.6877578257
 20
108.2150532302
  0
VERTEX
  8
DEFAULT_2
 62
8
  6
HIDDEN
 10
391.0121813055
 20
108.0577116622
  0
VERTEX
  8
DEFAULT_2
 62
8
  6
HIDDEN
 10
391.3948646061
 20
108.0024606893
  0
SEQEND
  0
LINE
  8
0
 62
9
  6
CONTINUOUS
 10
390.4709846768
 20
345.2544607203
 11
390.6877578249
 21
345.5621261625
  0
LINE
  8
DEFAULT_2
 62
8
  6
HIDDEN
 10
390.4709850737
 20
315.3403488619
 11
390.6877578251
 21
315.4911159096
  0
LINE
  8
0
 62
7
  6
CONTINUOUS
 10
406.3948646061
 20
124.3747937064
 11
391.3948646061
 21
124.3747937064
  0
LINE
  8
DEFAULT_2
 62
8
  6
HIDDEN
 10
406.3948646061
 20
124.3747937064
 11
421.3948646061
 21
124.3747937064
  0
LINE
  8
DEFAULT_2
 62
8
  6
HIDDEN
 10
406.3948646061
 20
125.3703145605
 11
391.3948646061
 21
125.3703145605
  0
LINE
  8
0
 62
9
  6
CONTINUOUS
 10
406.3948646061
 20
125.3703145605
 11
421.3948646061
 21
125.3703145605
  0
LINE
  8
0
 62
9
  6
CONTINUOUS
 10
406.3948646061
 20
125.6313477558
 11
391.3948646061
 21
125.6313477558
  0
LINE
  8
DEFAULT_2
 62
8
  6
HIDDEN
 10
406.3948646061
 20
125.6313477558
 11
421.3948646061
 21
125.6313477558
  0
LINE
  8
DEFAULT_2
 62
8
  6
HIDDEN
 10
406.3948646061
 20
125.7445699346
 11
391.3948646061
 21
125.7445699346
  0
LINE
  8
0
 62
9
  6
CONTINUOUS
 10
406.3948646061
 20
125.7445699346
 11
421.3948646061
 21
125.7445699346
  0
POLYLINE
  8
DEFAULT_2
 62
8
  6
HIDDEN
 66
1
 70
0
  0
VERTEX
  8
DEFAULT_2
 62
8
  6
HIDDEN
 10
390.687757825
 20
300.3523182081
  0
VERTEX
  8
DEFAULT_2
 62
8
  6
HIDDEN
 10
391.0121811741
 20
300.544260947
  0
VERTEX
  8
DEFAULT_2
 62
8
  6
HIDDEN
 10
391.3948646061
 20
300.6116622735
  0
SEQEND
  0
LINE
  8
DEFAULT_2
 62
8
  6
HIDDEN
 10
406.3948646061
 20
128.5678367474
 11
391.3948646061
 21
128.5678367474
  0
LINE
  8
0
 62
9
  6
CONTINUOUS
 10
406.3948646061
 20
128.5678367474
 11
421.3948646061
 21
128.5678367474
  0
LINE
  8
0
 62
9
  6
CONTINUOUS
 10
406.3948646061
 20
128.662509869
 11
391.3948646061
 21
128.662509869
  0
LINE
  8
DEFAULT_2
 62
8
  6
HIDDEN
 10
406.3948646061
 20
128.662509869
 11
421.3948646061
 21
128.662509869
  0
LINE
  8
DEFAULT_2
 62
8
  6
HIDDEN
 10
391.3948646061
 20
129.6806118391
 11
421.3948646061
 21
129.6806118391
  0
LINE
  8
DEFAULT_2
 62
8
  6
HIDDEN
 10
391.3948646061
 20
130.0548672132
 11
421.3948646061
 21
130.0548672132
  0
LINE
  8
DEFAULT_2
 62
8
  6
HIDDEN
 10
391.3948646061
 20
130.225643393
 11
421.3948646061
 21
130.225643393
  0
LINE
  8
0
 62
9
  6
CONTINUOUS
 10
406.3948646061
 20
130.292771213
 11
391.3948646061
 21
130.292771213
  0
LINE
  8
DEFAULT_2
 62
8
  6
HIDDEN
 10
406.3948646061
 20
130.292771213
 11
421.3948646061
 21
130.292771213
  0
LINE
  8
DEFAULT_2
 62
8
  6
HIDDEN
 10
391.3948646061
 20
130.7286218967
 11
421.3948646061
 21
130.7286218967
  0
POLYLINE
  8
DEFAULT_2
 62
8
  6
HIDDEN
 66
1
 70
0
  0
VERTEX
  8
DEFAULT_2
 62
8
  6
HIDDEN
 10
390.6877578249
 20
130.4448771154
  0
VERTEX
  8
DEFAULT_2
 62
8
  6
HIDDEN
 10
391.0121812282
 20
130.2826203642
  0
VERTEX
  8
DEFAULT_2
 62
8
  6
HIDDEN
 10
391.3948646061
 20
130.2256433933
  0
SEQEND
  0
POLYLINE
  8
DEFAULT_2
 62
8
  6
HIDDEN
 66
1
 70
0
  0
VERTEX
  8
DEFAULT_2
 62
8
  6
HIDDEN
 10
422.3948646061
 20
92.6494385096
  0
VERTEX
  8
DEFAULT_2
 62
8
  6
HIDDEN
 10
422.3187441386
 20
92.7082882722
  0
VERTEX
  8
DEFAULT_2
 62
8
  6
HIDDEN
 10
422.1019713873
 20
92.7581786919
  0
VERTEX
  8
DEFAULT_2
 62
8
  6
HIDDEN
 10
421.7775480385
 20
92.7915144046
  0
VERTEX
  8
DEFAULT_2
 62
8
  6
HIDDEN
 10
421.3948646061
 20
92.8032203503
  0
SEQEND
  0
POLYLINE
  8
DEFAULT_2
 62
8
  6
HIDDEN
 66
1
 70
0
  0
VERTEX
  8
DEFAULT_2
 62
8
  6
HIDDEN
 10
422.3948646061
 20
94.6543601483
  0
VERTEX
  8
DEFAULT_2
 62
8
  6
HIDDEN
 10
422.3187441925
 20
94.713209891
  0
VERTEX
  8
DEFAULT_2
 62
8
  6
HIDDEN
 10
422.1019713866
 20
94.7631003308
  0
VERTEX
  8
DEFAULT_2
 62
8
  6
HIDDEN
 10
421.7775479067
 20
94.7964360518
  0
VERTEX
  8
DEFAULT_2
 62
8
  6
HIDDEN
 10
421.3948646061
 20
94.8081419673
  0
SEQEND
  0
POLYLINE
  8
DEFAULT_2
 62
8
  6
HIDDEN
 66
1
 70
0
  0
VERTEX
  8
DEFAULT_2
 62
8
  6
HIDDEN
 10
390.3948646061
 20
102.6704849526
  0
VERTEX
  8
DEFAULT_2
 62
8
  6
HIDDEN
 10
390.470985071
 20
102.5789028143
  0
VERTEX
  8
DEFAULT_2
 62
8
  6
HIDDEN
 10
390.6877578249
 20
102.5012632236
  0
VERTEX
  8
DEFAULT_2
 62
8
  6
HIDDEN
 10
391.0121811801
 20
102.449386108
  0
VERTEX
  8
DEFAULT_2
 62
8
  6
HIDDEN
 10
391.3948646061
 20
102.4311692884
  0
SEQEND
  0
POLYLINE
  8
DEFAULT_2
 62
8
  6
HIDDEN
 66
1
 70
0
  0
VERTEX
  8
DEFAULT_2
 62
8
  6
HIDDEN
 10
390.3948646061
 20
103.1559558614
  0
VERTEX
  8
DEFAULT_2
 62
8
  6
HIDDEN
 10
390.4709850737
 20
103.0643737215
  0
VERTEX
  8
DEFAULT_2
 62
8
  6
HIDDEN
 10
390.6877578251
 20
102.9867341323
  0
VERTEX
  8
DEFAULT_2
 62
8
  6
HIDDEN
 10
391.0121811739
 20
102.9348570173
  0
VERTEX
  8
DEFAULT_2
 62
8
  6
HIDDEN
 10
391.3948646061
 20
102.9166401971
  0
SEQEND
  0
POLYLINE
  8
0
 62
9
  6
CONTINUOUS
 66
1
 70
0
  0
VERTEX
  8
0
 62
9
  6
CONTINUOUS
 10
390.3948646061
 20
85.1664967879
  0
VERTEX
  8
0
 62
9
  6
CONTINUOUS
 10
390.4709850736
 20
85.0428792663
  0
VERTEX
  8
0
 62
9
  6
CONTINUOUS
 10
390.6877578249
 20
84.9380813917
  0
SEQEND
  0
POLYLINE
  8
0
 62
9
  6
CONTINUOUS
 66
1
 70
0
  0
VERTEX
  8
0
 62
9
  6
CONTINUOUS
 10
390.3948646061
 20
87.086775336
  0
VERTEX
  8
0
 62
9
  6
CONTINUOUS
 10
390.4709850197
 20
86.9631578563
  0
VERTEX
  8
0
 62
9
  6
CONTINUOUS
 10
390.6877578257
 20
86.8583599395
  0
VERTEX
  8
0
 62
9
  6
CONTINUOUS
 10
391.0121813055
 20
86.788336221
  0
VERTEX
  8
0
 62
9
  6
CONTINUOUS
 10
391.3948646061
 20
86.763747164
  0
SEQEND
  0
LINE
  8
0
 62
9
  6
CONTINUOUS
 10
406.3948646061
 20
144.5422785103
 11
391.3948646061
 21
144.5422785103
  0
LINE
  8
DEFAULT_2
 62
8
  6
HIDDEN
 10
406.3948646061
 20
144.5422785103
 11
421.3948646061
 21
144.5422785103
  0
POLYLINE
  8
0
 62
9
  6
CONTINUOUS
 66
1
 70
0
  0
VERTEX
  8
0
 62
9
  6
CONTINUOUS
 10
422.1019713873
 20
125.1760904307
  0
VERTEX
  8
0
 62
9
  6
CONTINUOUS
 10
421.7775480321
 20
125.3198373555
  0
VERTEX
  8
0
 62
9
  6
CONTINUOUS
 10
421.3948646061
 20
125.3703145606
  0
SEQEND
  0
POLYLINE
  8
DEFAULT_2
 62
8
  6
HIDDEN
 66
1
 70
0
  0
VERTEX
  8
DEFAULT_2
 62
8
  6
HIDDEN
 10
390.4709850511
 20
104.9792710263
  0
VERTEX
  8
DEFAULT_2
 62
8
  6
HIDDEN
 10
390.6877578249
 20
104.6642747775
  0
VERTEX
  8
DEFAULT_2
 62
8
  6
HIDDEN
 10
391.0121812282
 20
104.4538010265
  0
VERTEX
  8
DEFAULT_2
 62
8
  6
HIDDEN
 10
391.3948646061
 20
104.3798925035
  0
SEQEND
  0
POLYLINE
  8
0
 62
9
  6
CONTINUOUS
 66
1
 70
0
  0
VERTEX
  8
0
 62
9
  6
CONTINUOUS
 10
390.3948646061
 20
300.3946847619
  0
VERTEX
  8
0
 62
9
  6
CONTINUOUS
 10
390.4709846768
 20
300.5009290768
  0
VERTEX
  8
0
 62
9
  6
CONTINUOUS
 10
390.6877578249
 20
300.5909991493
  0
VERTEX
  8
0
 62
9
  6
CONTINUOUS
 10
391.0121821317
 20
300.6511819801
  0
VERTEX
  8
0
 62
9
  6
CONTINUOUS
 10
391.3948646061
 20
300.6723152924
  0
SEQEND
  0
POLYLINE
  8
DEFAULT_2
 62
8
  6
HIDDEN
 66
1
 70
0
  0
VERTEX
  8
DEFAULT_2
 62
8
  6
HIDDEN
 10
390.6877578249
 20
277.7471979317
  0
VERTEX
  8
DEFAULT_2
 62
8
  6
HIDDEN
 10
391.0121811801
 20
277.9255984108
  0
VERTEX
  8
DEFAULT_2
 62
8
  6
HIDDEN
 10
391.3948646061
 20
277.9882443252
  0
SEQEND
  0
POLYLINE
  8
DEFAULT_2
 62
8
  6
HIDDEN
 66
1
 70
0
  0
VERTEX
  8
DEFAULT_2
 62
8
  6
HIDDEN
 10
390.6877578251
 20
277.4631655585
  0
VERTEX
  8
DEFAULT_2
 62
8
  6
HIDDEN
 10
391.0121811739
 20
277.6415660353
  0
VERTEX
  8
DEFAULT_2
 62
8
  6
HIDDEN
 10
391.3948646061
 20
277.7042119518
  0
SEQEND
  0
POLYLINE
  8
0
 62
9
  6
CONTINUOUS
 66
1
 70
0
  0
VERTEX
  8
0
 62
9
  6
CONTINUOUS
 10
422.3948646061
 20
154.9923982773
  0
VERTEX
  8
0
 62
9
  6
CONTINUOUS
 10
422.3187445354
 20
154.9772228663
  0
VERTEX
  8
0
 62
9
  6
CONTINUOUS
 10
422.1019713873
 20
154.9643577039
  0
VERTEX
  8
0
 62
9
  6
CONTINUOUS
 10
421.7775470807
 20
154.9557614868
  0
VERTEX
  8
0
 62
9
  6
CONTINUOUS
 10
421.3948646061
 20
154.9527428543
  0
SEQEND
  0
LINE
  8
DEFAULT_2
 62
8
  6
HIDDEN
 10
406.3948646061
 20
150.4509493188
 11
391.3948646061
 21
150.4509493188
  0
LINE
  8
0
 62
9
  6
CONTINUOUS
 10
406.3948646061
 20
150.4509493188
 11
421.3948646061
 21
150.4509493188
  0
LINE
  8
DEFAULT_2
 62
8
  6
HIDDEN
 10
406.3948646061
 20
153.0320536365
 11
391.3948646061
 21
153.0320536365
  0
LINE
  8
0
 62
7
  6
CONTINUOUS
 10
406.3948646061
 20
153.0320536365
 11
421.3948646061
 21
153.0320536365
  0
LINE
  8
DEFAULT_2
 62
8
  6
HIDDEN
 10
391.3948646061
 20
153.1073254847
 11
421.3948646061
 21
153.1073254847
  0
LINE
  8
DEFAULT_2
 62
8
  6
HIDDEN
 10
391.3948646061
 20
153.6587492348
 11
421.3948646061
 21
153.6587492348
  0
POLYLINE
  8
DEFAULT_2
 62
8
  6
HIDDEN
 66
1
 70
0
  0
VERTEX
  8
DEFAULT_2
 62
8
  6
HIDDEN
 10
390.3948646061
 20
154.9923982773
  0
VERTEX
  8
DEFAULT_2
 62
8
  6
HIDDEN
 10
390.4709846769
 20
154.9772228663
  0
VERTEX
  8
DEFAULT_2
 62
8
  6
HIDDEN
 10
390.6877578249
 20
154.9643577039
  0
VERTEX
  8
DEFAULT_2
 62
8
  6
HIDDEN
 10
391.0121821316
 20
154.9557614868
  0
VERTEX
  8
DEFAULT_2
 62
8
  6
HIDDEN
 10
391.3948646061
 20
154.9527428543
  0
SEQEND
  0
POLYLINE
  8
0
 62
9
  6
CONTINUOUS
 66
1
 70
0
  0
VERTEX
  8
0
 62
9
  6
CONTINUOUS
 10
422.3948646061
 20
100.6363018062
  0
VERTEX
  8
0
 62
9
  6
CONTINUOUS
 10
422.3187441413
 20
100.7278839445
  0
VERTEX
  8
0
 62
9
  6
CONTINUOUS
 10
422.1019713873
 20
100.8055235353
  0
SEQEND
  0
POLYLINE
  8
0
 62
9
  6
CONTINUOUS
 66
1
 70
0
  0
VERTEX
  8
0
 62
9
  6
CONTINUOUS
 10
390.4709846768
 20
126.1994149425
  0
VERTEX
  8
0
 62
9
  6
CONTINUOUS
 10
390.6877578249
 20
125.9008735993
  0
VERTEX
  8
0
 62
9
  6
CONTINUOUS
 10
391.0121821317
 20
125.7013948752
  0
VERTEX
  8
0
 62
9
  6
CONTINUOUS
 10
391.3948646061
 20
125.6313477807
  0
SEQEND
  0
POLYLINE
  8
DEFAULT_2
 62
8
  6
HIDDEN
 66
1
 70
0
  0
VERTEX
  8
DEFAULT_2
 62
8
  6
HIDDEN
 10
390.3948646061
 20
336.4690745004
  0
VERTEX
  8
DEFAULT_2
 62
8
  6
HIDDEN
 10
390.4709850736
 20
336.6757722839
  0
VERTEX
  8
DEFAULT_2
 62
8
  6
HIDDEN
 10
390.6877578249
 20
336.8510022036
  0
VERTEX
  8
DEFAULT_2
 62
8
  6
HIDDEN
 10
391.0121811738
 20
336.9680870926
  0
VERTEX
  8
DEFAULT_2
 62
8
  6
HIDDEN
 10
391.3948646061
 20
337.0092018381
  0
SEQEND
  0
POLYLINE
  8
DEFAULT_2
 62
8
  6
HIDDEN
 66
1
 70
0
  0
VERTEX
  8
DEFAULT_2
 62
8
  6
HIDDEN
 10
390.3948646061
 20
334.7614534708
  0
VERTEX
  8
DEFAULT_2
 62
8
  6
HIDDEN
 10
390.4709850197
 20
334.968151184
  0
VERTEX
  8
DEFAULT_2
 62
8
  6
HIDDEN
 10
390.6877578257
 20
335.1433811744
  0
VERTEX
  8
DEFAULT_2
 62
8
  6
HIDDEN
 10
391.0121813055
 20
335.2604660925
  0
VERTEX
  8
DEFAULT_2
 62
8
  6
HIDDEN
 10
391.3948646061
 20
335.3015808269
  0
SEQEND
  0
POLYLINE
  8
DEFAULT_2
 62
8
  6
HIDDEN
 66
1
 70
0
  0
VERTEX
  8
DEFAULT_2
 62
8
  6
HIDDEN
 10
390.3948646061
 20
315.605235016
  0
VERTEX
  8
DEFAULT_2
 62
8
  6
HIDDEN
 10
390.470985071
 20
315.7830768716
  0
VERTEX
  8
DEFAULT_2
 62
8
  6
HIDDEN
 10
390.6877578249
 20
315.9338439223
  0
VERTEX
  8
DEFAULT_2
 62
8
  6
HIDDEN
 10
391.0121811801
 20
316.0345832442
  0
VERTEX
  8
DEFAULT_2
 62
8
  6
HIDDEN
 10
391.3948646061
 20
316.069958188
  0
SEQEND
  0
LINE
  8
DEFAULT_2
 62
8
  6
HIDDEN
 10
390.3948646061
 20
315.1625070032
 11
390.4709850737
 21
315.3403488619
  0
LINE
  8
DEFAULT_2
 62
8
  6
HIDDEN
 10
391.3948646061
 20
154.2232880963
 11
421.3948646061
 21
154.2232880963
  0
LINE
  8
DEFAULT_2
 62
8
  6
HIDDEN
 10
406.3948646061
 20
154.9527429181
 11
391.3948646061
 21
154.9527429181
  0
LINE
  8
0
 62
9
  6
CONTINUOUS
 10
406.3948646061
 20
154.9527429181
 11
421.3948646061
 21
154.9527429181
  0
POLYLINE
  8
DEFAULT_2
 62
8
  6
HIDDEN
 66
1
 70
0
  0
VERTEX
  8
DEFAULT_2
 62
8
  6
HIDDEN
 10
390.6877578249
 20
153.3891953966
  0
VERTEX
  8
DEFAULT_2
 62
8
  6
HIDDEN
 10
391.0121811738
 20
153.1805810881
  0
VERTEX
  8
DEFAULT_2
 62
8
  6
HIDDEN
 10
391.3948646061
 20
153.1073254847
  0
SEQEND
  0
POLYLINE
  8
0
 62
9
  6
CONTINUOUS
 66
1
 70
0
  0
VERTEX
  8
0
 62
9
  6
CONTINUOUS
 10
422.3948646061
 20
101.1217727149
  0
VERTEX
  8
0
 62
9
  6
CONTINUOUS
 10
422.3187441385
 20
101.2133548548
  0
VERTEX
  8
0
 62
9
  6
CONTINUOUS
 10
422.1019713872
 20
101.290994444
  0
VERTEX
  8
0
 62
9
  6
CONTINUOUS
 10
421.7775480383
 20
101.342871559
  0
VERTEX
  8
0
 62
9
  6
CONTINUOUS
 10
421.3948646061
 20
101.3610883792
  0
SEQEND
  0
POLYLINE
  8
DEFAULT_2
 62
8
  6
HIDDEN
 66
1
 70
0
  0
VERTEX
  8
DEFAULT_2
 62
8
  6
HIDDEN
 10
390.3948646061
 20
107.5589397882
  0
VERTEX
  8
DEFAULT_2
 62
8
  6
HIDDEN
 10
390.4709846768
 20
107.3678011028
  0
VERTEX
  8
DEFAULT_2
 62
8
  6
HIDDEN
 10
390.6877578249
 20
107.2057606654
  0
VERTEX
  8
DEFAULT_2
 62
8
  6
HIDDEN
 10
391.0121821317
 20
107.0974888282
  0
VERTEX
  8
DEFAULT_2
 62
8
  6
HIDDEN
 10
391.3948646061
 20
107.0594690275
  0
SEQEND
  0
POLYLINE
  8
0
 62
9
  6
CONTINUOUS
 66
1
 70
0
  0
VERTEX
  8
0
 62
9
  6
CONTINUOUS
 10
390.3948646061
 20
336.6212306825
  0
VERTEX
  8
0
 62
9
  6
CONTINUOUS
 10
390.4709846768
 20
336.8861554528
  0
VERTEX
  8
0
 62
9
  6
CONTINUOUS
 10
390.6877578249
 20
337.1107490538
  0
SEQEND
  0
POLYLINE
  8
DEFAULT_2
 62
8
  6
HIDDEN
 66
1
 70
0
  0
VERTEX
  8
DEFAULT_2
 62
8
  6
HIDDEN
 10
390.3948646061
 20
304.8045335009
  0
VERTEX
  8
DEFAULT_2
 62
8
  6
HIDDEN
 10
390.4709850736
 20
305.0219224679
  0
VERTEX
  8
DEFAULT_2
 62
8
  6
HIDDEN
 10
390.687757825
 20
305.2062159355
  0
VERTEX
  8
DEFAULT_2
 62
8
  6
HIDDEN
 10
391.0121811741
 20
305.3293568936
  0
VERTEX
  8
DEFAULT_2
 62
8
  6
HIDDEN
 10
391.3948646061
 20
305.3725982476
  0
SEQEND
  0
POLYLINE
  8
DEFAULT_2
 62
8
  6
HIDDEN
 66
1
 70
0
  0
VERTEX
  8
DEFAULT_2
 62
8
  6
HIDDEN
 10
390.3948646061
 20
259.70544029
  0
VERTEX
  8
DEFAULT_2
 62
8
  6
HIDDEN
 10
390.4709850736
 20
259.7515676805
  0
VERTEX
  8
DEFAULT_2
 62
8
  6
HIDDEN
 10
390.687757825
 20
259.790672594
  0
VERTEX
  8
DEFAULT_2
 62
8
  6
HIDDEN
 10
391.0121811741
 20
259.8168016618
  0
VERTEX
  8
DEFAULT_2
 62
8
  6
HIDDEN
 10
391.3948646061
 20
259.8259769702
  0
SEQEND
  0
LINE
  8
DEFAULT_2
 62
8
  6
HIDDEN
 10
406.3948646061
 20
170.3038206483
 11
391.3948646061
 21
170.3038206483
  0
LINE
  8
0
 62
9
  6
CONTINUOUS
 10
406.3948646061
 20
170.3038206483
 11
421.3948646061
 21
170.3038206483
  0
LINE
  8
DEFAULT_2
 62
8
  6
HIDDEN
 10
406.3948646061
 20
170.4811230918
 11
391.3948646061
 21
170.4811230918
  0
LINE
  8
0
 62
9
  6
CONTINUOUS
 10
406.3948646061
 20
170.4811230918
 11
421.3948646061
 21
170.4811230918
  0
POLYLINE
  8
0
 62
9
  6
CONTINUOUS
 66
1
 70
0
  0
VERTEX
  8
0
 62
9
  6
CONTINUOUS
 10
390.3948646061
 20
144.8968833973
  0
VERTEX
  8
0
 62
9
  6
CONTINUOUS
 10
390.4709850736
 20
144.7611819821
  0
VERTEX
  8
0
 62
9
  6
CONTINUOUS
 10
390.687757825
 20
144.646139877
  0
VERTEX
  8
0
 62
9
  6
CONTINUOUS
 10
391.0121811741
 20
144.5692712
  0
VERTEX
  8
0
 62
9
  6
CONTINUOUS
 10
391.3948646061
 20
144.5422785103
  0
SEQEND
  0
POLYLINE
  8
DEFAULT_2
 62
8
  6
HIDDEN
 66
1
 70
0
  0
VERTEX
  8
DEFAULT_2
 62
8
  6
HIDDEN
 10
390.3948646061
 20
107.3325742071
  0
VERTEX
  8
DEFAULT_2
 62
8
  6
HIDDEN
 10
390.4709850736
 20
107.0548086856
  0
VERTEX
  8
DEFAULT_2
 62
8
  6
HIDDEN
 10
390.6877578249
 20
106.8193304469
  0
SEQEND
  0
POLYLINE
  8
DEFAULT_2
 62
8
  6
HIDDEN
 66
1
 70
0
  0
VERTEX
  8
DEFAULT_2
 62
8
  6
HIDDEN
 10
390.3948646061
 20
108.7282969909
  0
VERTEX
  8
DEFAULT_2
 62
8
  6
HIDDEN
 10
390.4709850197
 20
108.4505315639
  0
VERTEX
  8
DEFAULT_2
 62
8
  6
HIDDEN
 10
390.6877578257
 20
108.2150532302
  0
SEQEND
  0
POLYLINE
  8
DEFAULT_2
 62
8
  6
HIDDEN
 66
1
 70
0
  0
VERTEX
  8
DEFAULT_2
 62
8
  6
HIDDEN
 10
390.3948646061
 20
84.6446616068
  0
VERTEX
  8
DEFAULT_2
 62
8
  6
HIDDEN
 10
390.4709846768
 20
84.3213472163
  0
VERTEX
  8
DEFAULT_2
 62
8
  6
HIDDEN
 10
390.6877578249
 20
84.0472530154
  0
VERTEX
  8
DEFAULT_2
 62
8
  6
HIDDEN
 10
391.0121821317
 20
83.8641093311
  0
VERTEX
  8
DEFAULT_2
 62
8
  6
HIDDEN
 10
391.3948646061
 20
83.7997982404
  0
SEQEND
  0
POLYLINE
  8
DEFAULT_2
 62
8
  6
HIDDEN
 66
1
 70
0
  0
VERTEX
  8
DEFAULT_2
 62
8
  6
HIDDEN
 10
390.3948646061
 20
323.3110027137
  0
VERTEX
  8
DEFAULT_2
 62
8
  6
HIDDEN
 10
390.4709846768
 20
323.6887669915
  0
VERTEX
  8
DEFAULT_2
 62
8
  6
HIDDEN
 10
390.6877578249
 20
324.0090218298
  0
VERTEX
  8
DEFAULT_2
 62
8
  6
HIDDEN
 10
391.0121821317
 20
324.2230090312
  0
VERTEX
  8
DEFAULT_2
 62
8
  6
HIDDEN
 10
391.3948646061
 20
324.2981508042
  0
SEQEND
  0
LINE
  8
0
 62
9
  6
CONTINUOUS
 10
390.3948646061
 20
344.8915465668
 11
390.4709846768
 21
345.2544607203
  0
POLYLINE
  8
DEFAULT_2
 62
8
  6
HIDDEN
 66
1
 70
0
  0
VERTEX
  8
DEFAULT_2
 62
8
  6
HIDDEN
 10
390.3948646061
 20
329.2362185669
  0
VERTEX
  8
DEFAULT_2
 62
8
  6
HIDDEN
 10
390.4709850736
 20
329.5750679179
  0
VERTEX
  8
DEFAULT_2
 62
8
  6
HIDDEN
 10
390.687757825
 20
329.8623305272
  0
VERTEX
  8
DEFAULT_2
 62
8
  6
HIDDEN
 10
391.0121811741
 20
330.0542732661
  0
VERTEX
  8
DEFAULT_2
 62
8
  6
HIDDEN
 10
391.3948646061
 20
330.1216745926
  0
SEQEND
  0
POLYLINE
  8
0
 62
9
  6
CONTINUOUS
 66
1
 70
0
  0
VERTEX
  8
0
 62
9
  6
CONTINUOUS
 10
390.3948646061
 20
315.0621163725
  0
VERTEX
  8
0
 62
9
  6
CONTINUOUS
 10
390.4709850511
 20
315.4009656754
  0
VERTEX
  8
0
 62
9
  6
CONTINUOUS
 10
390.6877578249
 20
315.6882283326
  0
VERTEX
  8
0
 62
9
  6
CONTINUOUS
 10
391.0121812282
 20
315.8801710915
  0
VERTEX
  8
0
 62
9
  6
CONTINUOUS
 10
391.3948646061
 20
315.9475723983
  0
SEQEND
  0
POLYLINE
  8
DEFAULT_2
 62
8
  6
HIDDEN
 66
1
 70
0
  0
VERTEX
  8
DEFAULT_2
 62
8
  6
HIDDEN
 10
390.3948646061
 20
313.9003084423
  0
VERTEX
  8
DEFAULT_2
 62
8
  6
HIDDEN
 10
390.4709850511
 20
314.2391577453
  0
VERTEX
  8
DEFAULT_2
 62
8
  6
HIDDEN
 10
390.6877578249
 20
314.5264204025
  0
VERTEX
  8
DEFAULT_2
 62
8
  6
HIDDEN
 10
391.0121812282
 20
314.7183631613
  0
VERTEX
  8
DEFAULT_2
 62
8
  6
HIDDEN
 10
391.3948646061
 20
314.7857644678
  0
SEQEND
  0
POLYLINE
  8
DEFAULT_2
 62
8
  6
HIDDEN
 66
1
 70
0
  0
VERTEX
  8
DEFAULT_2
 62
8
  6
HIDDEN
 10
390.3948646061
 20
299.7262062478
  0
VERTEX
  8
DEFAULT_2
 62
8
  6
HIDDEN
 10
390.4709850736
 20
300.0650555988
  0
VERTEX
  8
DEFAULT_2
 62
8
  6
HIDDEN
 10
390.687757825
 20
300.3523182081
  0
SEQEND
  0
POLYLINE
  8
DEFAULT_2
 62
8
  6
HIDDEN
 66
1
 70
0
  0
VERTEX
  8
DEFAULT_2
 62
8
  6
HIDDEN
 10
390.3948646061
 20
300.9864165615
  0
VERTEX
  8
DEFAULT_2
 62
8
  6
HIDDEN
 10
390.4709850736
 20
301.3191070984
  0
VERTEX
  8
DEFAULT_2
 62
8
  6
HIDDEN
 10
390.6877578249
 20
301.601148517
  0
VERTEX
  8
DEFAULT_2
 62
8
  6
HIDDEN
 10
391.0121811738
 20
301.7896025679
  0
VERTEX
  8
DEFAULT_2
 62
8
  6
HIDDEN
 10
391.3948646061
 20
301.8557788302
  0
SEQEND
  0
POLYLINE
  8
DEFAULT_2
 62
8
  6
HIDDEN
 66
1
 70
0
  0
VERTEX
  8
DEFAULT_2
 62
8
  6
HIDDEN
 10
390.3948646061
 20
299.9837063583
  0
VERTEX
  8
DEFAULT_2
 62
8
  6
HIDDEN
 10
390.4709850197
 20
300.3163967822
  0
VERTEX
  8
DEFAULT_2
 62
8
  6
HIDDEN
 10
390.6877578257
 20
300.5984383145
  0
VERTEX
  8
DEFAULT_2
 62
8
  6
HIDDEN
 10
391.0121813055
 20
300.7868924122
  0
VERTEX
  8
DEFAULT_2
 62
8
  6
HIDDEN
 10
391.3948646061
 20
300.8530686379
  0
SEQEND
  0
POLYLINE
  8
0
 62
9
  6
CONTINUOUS
 66
1
 70
0
  0
VERTEX
  8
0
 62
9
  6
CONTINUOUS
 10
390.3948646061
 20
279.7034451082
  0
VERTEX
  8
0
 62
9
  6
CONTINUOUS
 10
390.4709850511
 20
279.9208340443
  0
VERTEX
  8
0
 62
9
  6
CONTINUOUS
 10
390.6877578249
 20
280.1051275427
  0
VERTEX
  8
0
 62
9
  6
CONTINUOUS
 10
391.0121812282
 20
280.2282685136
  0
VERTEX
  8
0
 62
9
  6
CONTINUOUS
 10
391.3948646061
 20
280.2715098553
  0
SEQEND
  0
POLYLINE
  8
DEFAULT_2
 62
8
  6
HIDDEN
 66
1
 70
0
  0
VERTEX
  8
DEFAULT_2
 62
8
  6
HIDDEN
 10
390.3948646061
 20
277.6459854434
  0
VERTEX
  8
DEFAULT_2
 62
8
  6
HIDDEN
 10
390.4709850511
 20
277.8633743796
  0
VERTEX
  8
DEFAULT_2
 62
8
  6
HIDDEN
 10
390.6877578249
 20
278.047667878
  0
VERTEX
  8
DEFAULT_2
 62
8
  6
HIDDEN
 10
391.0121812282
 20
278.1708088489
  0
VERTEX
  8
DEFAULT_2
 62
8
  6
HIDDEN
 10
391.3948646061
 20
278.2140501898
  0
SEQEND
  0
POLYLINE
  8
0
 62
9
  6
CONTINUOUS
 66
1
 70
0
  0
VERTEX
  8
0
 62
9
  6
CONTINUOUS
 10
422.3948646061
 20
321.9380724306
  0
VERTEX
  8
0
 62
9
  6
CONTINUOUS
 10
422.3187441386
 20
321.7904399808
  0
VERTEX
  8
0
 62
9
  6
CONTINUOUS
 10
422.1019713873
 20
321.6652832333
  0
VERTEX
  8
0
 62
9
  6
CONTINUOUS
 10
421.7775480385
 20
321.5816561681
  0
VERTEX
  8
0
 62
9
  6
CONTINUOUS
 10
421.3948646061
 20
321.5522902481
  0
SEQEND
  0
LINE
  8
DEFAULT_2
 62
8
  6
HIDDEN
 10
422.8948646061
 20
317.1865670847
 11
421.3948646061
 21
314.5884908733
  0
LINE
  8
DEFAULT_2
 62
8
  6
HIDDEN
 10
406.3948646061
 20
173.0603653512
 11
391.3948646061
 21
173.0603653512
  0
LINE
  8
0
 62
9
  6
CONTINUOUS
 10
406.3948646061
 20
173.0603653512
 11
421.3948646061
 21
173.0603653512
  0
LINE
  8
0
 62
7
  6
CONTINUOUS
 10
406.3948646061
 20
175.357932048
 11
391.3948646061
 21
175.357932048
  0
LINE
  8
DEFAULT_2
 62
8
  6
HIDDEN
 10
406.3948646061
 20
175.357932048
 11
421.3948646061
 21
175.357932048
  0
LINE
  8
DEFAULT_2
 62
8
  6
HIDDEN
 10
391.3948646061
 20
175.3979059579
 11
421.3948646061
 21
175.3979059579
  0
LINE
  8
DEFAULT_2
 62
8
  6
HIDDEN
 10
391.3948646061
 20
176.3814262257
 11
421.3948646061
 21
176.3814262257
  0
LINE
  8
DEFAULT_2
 62
8
  6
HIDDEN
 10
391.3948646061
 20
176.5587286692
 11
421.3948646061
 21
176.5587286692
  0
LINE
  8
DEFAULT_2
 62
8
  6
HIDDEN
 10
391.3948646061
 20
176.6886961839
 11
421.3948646061
 21
176.6886961839
  0
LINE
  8
DEFAULT_2
 62
8
  6
HIDDEN
 10
391.083490539
 20
175.4198688171
 11
391.3948646061
 21
175.3979059584
  0
POLYLINE
  8
DEFAULT_2
 62
8
  6
HIDDEN
 66
1
 70
0
  0
VERTEX
  8
DEFAULT_2
 62
8
  6
HIDDEN
 10
390.3948646061
 20
173.4149702383
  0
VERTEX
  8
DEFAULT_2
 62
8
  6
HIDDEN
 10
390.4709850511
 20
173.2792688423
  0
VERTEX
  8
DEFAULT_2
 62
8
  6
HIDDEN
 10
390.6877578249
 20
173.164226718
  0
VERTEX
  8
DEFAULT_2
 62
8
  6
HIDDEN
 10
391.0121812282
 20
173.087358033
  0
VERTEX
  8
DEFAULT_2
 62
8
  6
HIDDEN
 10
391.3948646061
 20
173.0603653508
  0
SEQEND
  0
POLYLINE
  8
DEFAULT_2
 62
8
  6
HIDDEN
 66
1
 70
0
  0
VERTEX
  8
DEFAULT_2
 62
8
  6
HIDDEN
 10
390.3948646061
 20
130.3437344973
  0
VERTEX
  8
DEFAULT_2
 62
8
  6
HIDDEN
 10
390.470985071
 20
130.0899684466
  0
VERTEX
  8
DEFAULT_2
 62
8
  6
HIDDEN
 10
390.6877578249
 20
129.8748359689
  0
VERTEX
  8
DEFAULT_2
 62
8
  6
HIDDEN
 10
391.0121811801
 20
129.7310890441
  0
VERTEX
  8
DEFAULT_2
 62
8
  6
HIDDEN
 10
391.3948646061
 20
129.6806118391
  0
SEQEND
  0
POLYLINE
  8
DEFAULT_2
 62
8
  6
HIDDEN
 66
1
 70
0
  0
VERTEX
  8
DEFAULT_2
 62
8
  6
HIDDEN
 10
390.3948646061
 20
130.7179898714
  0
VERTEX
  8
DEFAULT_2
 62
8
  6
HIDDEN
 10
390.4709850737
 20
130.4642238163
  0
VERTEX
  8
DEFAULT_2
 62
8
  6
HIDDEN
 10
390.6877578251
 20
130.2490913429
  0
VERTEX
  8
DEFAULT_2
 62
8
  6
HIDDEN
 10
391.0121811739
 20
130.1053444199
  0
VERTEX
  8
DEFAULT_2
 62
8
  6
HIDDEN
 10
391.3948646061
 20
130.0548672132
  0
SEQEND
  0
POLYLINE
  8
0
 62
9
  6
CONTINUOUS
 66
1
 70
0
  0
VERTEX
  8
0
 62
9
  6
CONTINUOUS
 10
390.3948646061
 20
109.0910415698
  0
VERTEX
  8
0
 62
9
  6
CONTINUOUS
 10
390.4709850736
 20
108.8045989076
  0
VERTEX
  8
0
 62
9
  6
CONTINUOUS
 10
390.687757825
 20
108.5617645439
  0
VERTEX
  8
0
 62
9
  6
CONTINUOUS
 10
391.0121811741
 20
108.3995078096
  0
VERTEX
  8
0
 62
9
  6
CONTINUOUS
 10
391.3948646061
 20
108.3425308216
  0
SEQEND
  0
POLYLINE
  8
DEFAULT_2
 62
8
  6
HIDDEN
 66
1
 70
0
  0
VERTEX
  8
DEFAULT_2
 62
8
  6
HIDDEN
 10
390.3948646061
 20
129.3163474956
  0
VERTEX
  8
DEFAULT_2
 62
8
  6
HIDDEN
 10
390.4709850511
 20
129.0299048741
  0
VERTEX
  8
DEFAULT_2
 62
8
  6
HIDDEN
 10
390.6877578249
 20
128.7870704698
  0
VERTEX
  8
DEFAULT_2
 62
8
  6
HIDDEN
 10
391.0121812282
 20
128.6248137186
  0
VERTEX
  8
DEFAULT_2
 62
8
  6
HIDDEN
 10
391.3948646061
 20
128.5678367471
  0
SEQEND
  0
POLYLINE
  8
DEFAULT_2
 62
8
  6
HIDDEN
 66
1
 70
0
  0
VERTEX
  8
DEFAULT_2
 62
8
  6
HIDDEN
 10
390.3948646061
 20
130.9741541412
  0
VERTEX
  8
DEFAULT_2
 62
8
  6
HIDDEN
 10
390.4709850511
 20
130.6877115197
  0
VERTEX
  8
DEFAULT_2
 62
8
  6
HIDDEN
 10
390.6877578249
 20
130.4448771154
  0
SEQEND
  0
LINE
  8
0
 62
9
  6
CONTINUOUS
 10
390.3948646061
 20
126.5515665463
 11
390.4709846768
 21
126.1994149425
  0
POLYLINE
  8
DEFAULT_2
 62
8
  6
HIDDEN
 66
1
 70
0
  0
VERTEX
  8
DEFAULT_2
 62
8
  6
HIDDEN
 10
390.3948646061
 20
97.4533939956
  0
VERTEX
  8
DEFAULT_2
 62
8
  6
HIDDEN
 10
390.4709850736
 20
97.0818306484
  0
VERTEX
  8
DEFAULT_2
 62
8
  6
HIDDEN
 10
390.687757825
 20
96.7668344523
  0
VERTEX
  8
DEFAULT_2
 62
8
  6
HIDDEN
 10
391.0121811741
 20
96.5563607231
  0
VERTEX
  8
DEFAULT_2
 62
8
  6
HIDDEN
 10
391.3948646061
 20
96.4824521782
  0
SEQEND
  0
POLYLINE
  8
DEFAULT_2
 62
8
  6
HIDDEN
 66
1
 70
0
  0
VERTEX
  8
DEFAULT_2
 62
8
  6
HIDDEN
 10
390.3948646061
 20
104.7525451601
  0
VERTEX
  8
DEFAULT_2
 62
8
  6
HIDDEN
 10
390.4709850511
 20
104.3809818656
  0
VERTEX
  8
DEFAULT_2
 62
8
  6
HIDDEN
 10
390.6877578249
 20
104.0659856168
  0
VERTEX
  8
DEFAULT_2
 62
8
  6
HIDDEN
 10
391.0121812282
 20
103.8555118658
  0
VERTEX
  8
DEFAULT_2
 62
8
  6
HIDDEN
 10
391.3948646061
 20
103.7816033425
  0
SEQEND
  0
LINE
  8
DEFAULT_2
 62
8
  6
HIDDEN
 10
390.3948646061
 20
105.3508343208
 11
390.4709850511
 21
104.9792710263
  0
POLYLINE
  8
DEFAULT_2
 62
8
  6
HIDDEN
 66
1
 70
0
  0
VERTEX
  8
DEFAULT_2
 62
8
  6
HIDDEN
 10
390.3948646061
 20
112.6499854852
  0
VERTEX
  8
DEFAULT_2
 62
8
  6
HIDDEN
 10
390.4709850736
 20
112.278422138
  0
VERTEX
  8
DEFAULT_2
 62
8
  6
HIDDEN
 10
390.687757825
 20
111.9634259419
  0
VERTEX
  8
DEFAULT_2
 62
8
  6
HIDDEN
 10
391.0121811741
 20
111.7529522127
  0
VERTEX
  8
DEFAULT_2
 62
8
  6
HIDDEN
 10
391.3948646061
 20
111.6790436678
  0
SEQEND
  0
POLYLINE
  8
DEFAULT_2
 62
8
  6
HIDDEN
 66
1
 70
0
  0
VERTEX
  8
DEFAULT_2
 62
8
  6
HIDDEN
 10
390.3948646061
 20
91.4989487175
  0
VERTEX
  8
DEFAULT_2
 62
8
  6
HIDDEN
 10
390.4709846768
 20
91.1175260524
  0
VERTEX
  8
DEFAULT_2
 62
8
  6
HIDDEN
 10
390.6877578249
 20
90.7941697662
  0
VERTEX
  8
DEFAULT_2
 62
8
  6
HIDDEN
 10
391.0121821317
 20
90.5781102458
  0
VERTEX
  8
DEFAULT_2
 62
8
  6
HIDDEN
 10
391.3948646061
 20
90.5022407609
  0
SEQEND
  0
POLYLINE
  8
DEFAULT_2
 62
8
  6
HIDDEN
 66
1
 70
0
  0
VERTEX
  8
DEFAULT_2
 62
8
  6
HIDDEN
 10
390.3948646061
 20
277.1652604593
  0
VERTEX
  8
DEFAULT_2
 62
8
  6
HIDDEN
 10
390.470985071
 20
277.4802027446
  0
VERTEX
  8
DEFAULT_2
 62
8
  6
HIDDEN
 10
390.6877578249
 20
277.7471979317
  0
SEQEND
  0
POLYLINE
  8
DEFAULT_2
 62
8
  6
HIDDEN
 66
1
 70
0
  0
VERTEX
  8
DEFAULT_2
 62
8
  6
HIDDEN
 10
390.3948646061
 20
276.881228086
  0
VERTEX
  8
DEFAULT_2
 62
8
  6
HIDDEN
 10
390.4709850737
 20
277.1961703768
  0
VERTEX
  8
DEFAULT_2
 62
8
  6
HIDDEN
 10
390.6877578251
 20
277.4631655585
  0
SEQEND
  0
POLYLINE
  8
DEFAULT_2
 62
8
  6
HIDDEN
 66
1
 70
0
  0
VERTEX
  8
DEFAULT_2
 62
8
  6
HIDDEN
 10
390.3948646061
 20
276.8234416464
  0
VERTEX
  8
DEFAULT_2
 62
8
  6
HIDDEN
 10
390.4709846768
 20
277.1295148049
  0
VERTEX
  8
DEFAULT_2
 62
8
  6
HIDDEN
 10
390.6877578249
 20
277.3889925153
  0
VERTEX
  8
DEFAULT_2
 62
8
  6
HIDDEN
 10
391.0121821317
 20
277.5623697838
  0
VERTEX
  8
DEFAULT_2
 62
8
  6
HIDDEN
 10
391.3948646061
 20
277.6232513171
  0
SEQEND
  0
POLYLINE
  8
0
 62
9
  6
CONTINUOUS
 66
1
 70
0
  0
VERTEX
  8
0
 62
9
  6
CONTINUOUS
 10
390.3948646061
 20
252.5448970508
  0
VERTEX
  8
0
 62
9
  6
CONTINUOUS
 10
390.4709850736
 20
252.7622860178
  0
VERTEX
  8
0
 62
9
  6
CONTINUOUS
 10
390.687757825
 20
252.9465794854
  0
VERTEX
  8
0
 62
9
  6
CONTINUOUS
 10
391.0121811741
 20
253.0697204435
  0
VERTEX
  8
0
 62
9
  6
CONTINUOUS
 10
391.3948646061
 20
253.1129617975
  0
SEQEND
  0
POLYLINE
  8
DEFAULT_2
 62
8
  6
HIDDEN
 66
1
 70
0
  0
VERTEX
  8
DEFAULT_2
 62
8
  6
HIDDEN
 10
422.3948646061
 20
319.5553819784
  0
VERTEX
  8
DEFAULT_2
 62
8
  6
HIDDEN
 10
422.3187441413
 20
319.3775401228
  0
VERTEX
  8
DEFAULT_2
 62
8
  6
HIDDEN
 10
422.1019713873
 20
319.226773072
  0
VERTEX
  8
DEFAULT_2
 62
8
  6
HIDDEN
 10
421.7775480321
 20
319.1260337502
  0
VERTEX
  8
DEFAULT_2
 62
8
  6
HIDDEN
 10
421.3948646061
 20
319.0906588063
  0
SEQEND
  0
POLYLINE
  8
DEFAULT_2
 62
8
  6
HIDDEN
 66
1
 70
0
  0
VERTEX
  8
DEFAULT_2
 62
8
  6
HIDDEN
 10
422.3948646061
 20
319.1126539655
  0
VERTEX
  8
DEFAULT_2
 62
8
  6
HIDDEN
 10
422.3187441385
 20
318.9348121068
  0
VERTEX
  8
DEFAULT_2
 62
8
  6
HIDDEN
 10
422.1019713872
 20
318.7840450591
  0
VERTEX
  8
DEFAULT_2
 62
8
  6
HIDDEN
 10
421.7775480383
 20
318.6833057386
  0
VERTEX
  8
DEFAULT_2
 62
8
  6
HIDDEN
 10
421.3948646061
 20
318.6479307935
  0
SEQEND
  0
POLYLINE
  8
0
 62
9
  6
CONTINUOUS
 66
1
 70
0
  0
VERTEX
  8
0
 62
9
  6
CONTINUOUS
 10
422.3948646061
 20
320.0660843683
  0
VERTEX
  8
0
 62
9
  6
CONTINUOUS
 10
422.3187441925
 20
319.9184519687
  0
VERTEX
  8
0
 62
9
  6
CONTINUOUS
 10
422.1019713866
 20
319.7932951707
  0
VERTEX
  8
0
 62
9
  6
CONTINUOUS
 10
421.7775479067
 20
319.7096680848
  0
VERTEX
  8
0
 62
9
  6
CONTINUOUS
 10
421.3948646061
 20
319.680302206
  0
SEQEND
  0
LINE
  8
0
 62
9
  6
CONTINUOUS
 10
406.3948646061
 20
181.1394641839
 11
391.3948646061
 21
181.1394641839
  0
LINE
  8
DEFAULT_2
 62
8
  6
HIDDEN
 10
406.3948646061
 20
181.1394641839
 11
421.3948646061
 21
181.1394641839
  0
LINE
  8
0
 62
9
  6
CONTINUOUS
 10
406.3948646061
 20
184.2064061155
 11
391.3948646061
 21
184.2064061155
  0
LINE
  8
DEFAULT_2
 62
8
  6
HIDDEN
 10
406.3948646061
 20
184.2064061155
 11
421.3948646061
 21
184.2064061155
  0
LINE
  8
0
 62
9
  6
CONTINUOUS
 10
406.3948646061
 20
185.0885339376
 11
391.3948646061
 21
185.0885339376
  0
LINE
  8
DEFAULT_2
 62
8
  6
HIDDEN
 10
406.3948646061
 20
185.0885339376
 11
421.3948646061
 21
185.0885339376
  0
POLYLINE
  8
0
 62
9
  6
CONTINUOUS
 66
1
 70
0
  0
VERTEX
  8
0
 62
9
  6
CONTINUOUS
 10
422.1019713873
 20
170.0299607313
  0
VERTEX
  8
0
 62
9
  6
CONTINUOUS
 10
421.7775480321
 20
170.2326467772
  0
VERTEX
  8
0
 62
9
  6
CONTINUOUS
 10
421.3948646061
 20
170.3038206483
  0
SEQEND
  0
POLYLINE
  8
0
 62
9
  6
CONTINUOUS
 66
1
 70
0
  0
VERTEX
  8
0
 62
9
  6
CONTINUOUS
 10
390.3948646061
 20
175.752510845
  0
VERTEX
  8
0
 62
9
  6
CONTINUOUS
 10
390.4709850511
 20
175.616809449
  0
VERTEX
  8
0
 62
9
  6
CONTINUOUS
 10
390.6877578249
 20
175.5017673247
  0
VERTEX
  8
0
 62
9
  6
CONTINUOUS
 10
391.0121812282
 20
175.4248986397
  0
VERTEX
  8
0
 62
9
  6
CONTINUOUS
 10
391.083490539
 20
175.4198688171
  0
SEQEND
  0
POLYLINE
  8
DEFAULT_2
 62
8
  6
HIDDEN
 66
1
 70
0
  0
VERTEX
  8
DEFAULT_2
 62
8
  6
HIDDEN
 10
390.3948646061
 20
151.199460067
  0
VERTEX
  8
DEFAULT_2
 62
8
  6
HIDDEN
 10
390.4709850736
 20
150.9130174048
  0
VERTEX
  8
DEFAULT_2
 62
8
  6
HIDDEN
 10
390.687757825
 20
150.6701830411
  0
VERTEX
  8
DEFAULT_2
 62
8
  6
HIDDEN
 10
391.0121811741
 20
150.5079263068
  0
VERTEX
  8
DEFAULT_2
 62
8
  6
HIDDEN
 10
391.3948646061
 20
150.4509493188
  0
SEQEND
  0
POLYLINE
  8
DEFAULT_2
 62
8
  6
HIDDEN
 66
1
 70
0
  0
VERTEX
  8
DEFAULT_2
 62
8
  6
HIDDEN
 10
390.3948646061
 20
154.0696895606
  0
VERTEX
  8
DEFAULT_2
 62
8
  6
HIDDEN
 10
390.4709850736
 20
153.7014087729
  0
VERTEX
  8
DEFAULT_2
 62
8
  6
HIDDEN
 10
390.6877578249
 20
153.3891953966
  0
SEQEND
  0
POLYLINE
  8
DEFAULT_2
 62
8
  6
HIDDEN
 66
1
 70
0
  0
VERTEX
  8
DEFAULT_2
 62
8
  6
HIDDEN
 10
390.3948646061
 20
154.6211133107
  0
VERTEX
  8
DEFAULT_2
 62
8
  6
HIDDEN
 10
390.4709850197
 20
154.2528326482
  0
VERTEX
  8
DEFAULT_2
 62
8
  6
HIDDEN
 10
390.6877578257
 20
153.940619146
  0
VERTEX
  8
DEFAULT_2
 62
8
  6
HIDDEN
 10
391.0121813055
 20
153.7320047857
  0
VERTEX
  8
DEFAULT_2
 62
8
  6
HIDDEN
 10
391.3948646061
 20
153.6587492289
  0
SEQEND
  0
LINE
  8
0
 62
7
  6
CONTINUOUS
 10
389.8948646061
 20
324.0884907623
 11
389.8948646061
 21
105.0884908733
  0
POLYLINE
  8
DEFAULT_2
 62
8
  6
HIDDEN
 66
1
 70
0
  0
VERTEX
  8
DEFAULT_2
 62
8
  6
HIDDEN
 10
390.3948646061
 20
245.7110350552
  0
VERTEX
  8
DEFAULT_2
 62
8
  6
HIDDEN
 10
390.4709850736
 20
246.093502953
  0
VERTEX
  8
DEFAULT_2
 62
8
  6
HIDDEN
 10
390.6877578249
 20
246.4177435805
  0
VERTEX
  8
DEFAULT_2
 62
8
  6
HIDDEN
 10
391.0121811738
 20
246.6343942413
  0
VERTEX
  8
DEFAULT_2
 62
8
  6
HIDDEN
 10
391.3948646061
 20
246.7104718362
  0
SEQEND
  0
POLYLINE
  8
DEFAULT_2
 62
8
  6
HIDDEN
 66
1
 70
0
  0
VERTEX
  8
DEFAULT_2
 62
8
  6
HIDDEN
 10
390.3948646061
 20
245.6429445021
  0
VERTEX
  8
DEFAULT_2
 62
8
  6
HIDDEN
 10
390.4709850197
 20
246.0254122699
  0
VERTEX
  8
DEFAULT_2
 62
8
  6
HIDDEN
 10
390.6877578257
 20
246.3496530281
  0
VERTEX
  8
DEFAULT_2
 62
8
  6
HIDDEN
 10
391.0121813056
 20
246.5663037427
  0
VERTEX
  8
DEFAULT_2
 62
8
  6
HIDDEN
 10
391.3948646061
 20
246.6423812839
  0
SEQEND
  0
LINE
  8
DEFAULT_2
 62
8
  6
HIDDEN
 10
390.3948646061
 20
224.3294337822
 11
390.4709850711
 21
224.7695953555
  0
LINE
  8
DEFAULT_2
 62
8
  6
HIDDEN
 10
390.4709850711
 20
224.7695953555
 11
390.6877578249
 21
225.0916532989
  0
POLYLINE
  8
DEFAULT_2
 62
8
  6
HIDDEN
 66
1
 70
0
  0
VERTEX
  8
DEFAULT_2
 62
8
  6
HIDDEN
 10
390.4709850737
 20
224.7093270217
  0
VERTEX
  8
DEFAULT_2
 62
8
  6
HIDDEN
 10
390.6877578251
 20
225.031384959
  0
VERTEX
  8
DEFAULT_2
 62
8
  6
HIDDEN
 10
391.0121811739
 20
225.2465771928
  0
VERTEX
  8
DEFAULT_2
 62
8
  6
HIDDEN
 10
391.3948646061
 20
225.3221426563
  0
SEQEND
  0
POLYLINE
  8
DEFAULT_2
 62
8
  6
HIDDEN
 66
1
 70
0
  0
VERTEX
  8
DEFAULT_2
 62
8
  6
HIDDEN
 10
390.6877578249
 20
225.0916532989
  0
VERTEX
  8
DEFAULT_2
 62
8
  6
HIDDEN
 10
391.0121811799
 20
225.3068455354
  0
VERTEX
  8
DEFAULT_2
 62
8
  6
HIDDEN
 10
391.3948646061
 20
225.3824109964
  0
SEQEND
  0
POLYLINE
  8
0
 62
9
  6
CONTINUOUS
 66
1
 70
0
  0
VERTEX
  8
0
 62
9
  6
CONTINUOUS
 10
390.3948646061
 20
229.427722549
  0
VERTEX
  8
0
 62
9
  6
CONTINUOUS
 10
390.4709850511
 20
229.4738499329
  0
VERTEX
  8
0
 62
9
  6
CONTINUOUS
 10
390.6877578249
 20
229.5129548529
  0
VERTEX
  8
0
 62
9
  6
CONTINUOUS
 10
391.0121812282
 20
229.5390839235
  0
VERTEX
  8
0
 62
9
  6
CONTINUOUS
 10
391.3948646061
 20
229.5482592297
  0
SEQEND
  0
POLYLINE
  8
DEFAULT_2
 62
8
  6
HIDDEN
 66
1
 70
0
  0
VERTEX
  8
DEFAULT_2
 62
8
  6
HIDDEN
 10
390.3948646061
 20
226.9459503637
  0
VERTEX
  8
DEFAULT_2
 62
8
  6
HIDDEN
 10
390.4709850511
 20
226.9920777477
  0
VERTEX
  8
DEFAULT_2
 62
8
  6
HIDDEN
 10
390.6877578249
 20
227.0311826677
  0
VERTEX
  8
DEFAULT_2
 62
8
  6
HIDDEN
 10
391.0121812282
 20
227.0573117382
  0
VERTEX
  8
DEFAULT_2
 62
8
  6
HIDDEN
 10
391.3948646061
 20
227.0664870435
  0
SEQEND
  0
LINE
  8
0
 62
9
  6
CONTINUOUS
 10
406.3948646061
 20
196.788769303
 11
391.3948646061
 21
196.788769303
  0
LINE
  8
DEFAULT_2
 62
8
  6
HIDDEN
 10
406.3948646061
 20
196.788769303
 11
421.3948646061
 21
196.788769303
  0
POLYLINE
  8
DEFAULT_2
 62
8
  6
HIDDEN
 66
1
 70
0
  0
VERTEX
  8
DEFAULT_2
 62
8
  6
HIDDEN
 10
390.3948646061
 20
204.2705976859
  0
VERTEX
  8
DEFAULT_2
 62
8
  6
HIDDEN
 10
390.4709850736
 20
204.1348962706
  0
VERTEX
  8
DEFAULT_2
 62
8
  6
HIDDEN
 10
390.687757825
 20
204.0198541656
  0
VERTEX
  8
DEFAULT_2
 62
8
  6
HIDDEN
 10
391.0121811741
 20
203.9429854886
  0
VERTEX
  8
DEFAULT_2
 62
8
  6
HIDDEN
 10
391.3948646061
 20
203.9159927989
  0
SEQEND
  0
POLYLINE
  8
0
 62
9
  6
CONTINUOUS
 66
1
 70
0
  0
VERTEX
  8
0
 62
9
  6
CONTINUOUS
 10
390.3948646061
 20
181.7723827784
  0
VERTEX
  8
0
 62
9
  6
CONTINUOUS
 10
390.4709846768
 20
181.5301759246
  0
VERTEX
  8
0
 62
9
  6
CONTINUOUS
 10
390.6877578249
 20
181.3248417483
  0
VERTEX
  8
0
 62
9
  6
CONTINUOUS
 10
391.0121821317
 20
181.187641992
  0
VERTEX
  8
0
 62
9
  6
CONTINUOUS
 10
391.3948646061
 20
181.1394642333
  0
SEQEND
  0
POLYLINE
  8
DEFAULT_2
 62
8
  6
HIDDEN
 66
1
 70
0
  0
VERTEX
  8
DEFAULT_2
 62
8
  6
HIDDEN
 10
390.3948646061
 20
177.3164424684
  0
VERTEX
  8
DEFAULT_2
 62
8
  6
HIDDEN
 10
390.470985071
 20
176.9586272493
  0
VERTEX
  8
DEFAULT_2
 62
8
  6
HIDDEN
 10
390.6877578249
 20
176.6552861427
  0
VERTEX
  8
DEFAULT_2
 62
8
  6
HIDDEN
 10
391.0121811801
 20
176.4526000967
  0
VERTEX
  8
DEFAULT_2
 62
8
  6
HIDDEN
 10
391.3948646061
 20
176.3814262257
  0
SEQEND
  0
POLYLINE
  8
DEFAULT_2
 62
8
  6
HIDDEN
 66
1
 70
0
  0
VERTEX
  8
DEFAULT_2
 62
8
  6
HIDDEN
 10
390.3948646061
 20
177.4937449119
  0
VERTEX
  8
DEFAULT_2
 62
8
  6
HIDDEN
 10
390.4709850737
 20
177.1359296866
  0
VERTEX
  8
DEFAULT_2
 62
8
  6
HIDDEN
 10
390.6877578251
 20
176.832588586
  0
VERTEX
  8
DEFAULT_2
 62
8
  6
HIDDEN
 10
391.0121811739
 20
176.6299025427
  0
VERTEX
  8
DEFAULT_2
 62
8
  6
HIDDEN
 10
391.3948646061
 20
176.5587286692
  0
SEQEND
  0
LINE
  8
0
 62
7
  6
CONTINUOUS
 10
390.3948646061
 20
84.4896161575
 11
390.3948646061
 21
344.9424648741
  0
LINE
  8
0
 62
9
  6
CONTINUOUS
 10
391.3948646061
 20
83.4895249391
 11
391.3948646061
 21
345.9432038079
  0
POLYLINE
  8
0
 62
9
  6
CONTINUOUS
 66
1
 70
0
  0
VERTEX
  8
0
 62
9
  6
CONTINUOUS
 10
390.3948646061
 20
184.1879815663
  0
VERTEX
  8
0
 62
9
  6
CONTINUOUS
 10
390.4709850197
 20
184.5326079216
  0
VERTEX
  8
0
 62
9
  6
CONTINUOUS
 10
390.6877578257
 20
184.8247682555
  0
VERTEX
  8
0
 62
9
  6
CONTINUOUS
 10
391.0121813055
 20
185.0199835192
  0
VERTEX
  8
0
 62
9
  6
CONTINUOUS
 10
391.3948646061
 20
185.088533928
  0
SEQEND
  0
POLYLINE
  8
0
 62
9
  6
CONTINUOUS
 66
1
 70
0
  0
VERTEX
  8
0
 62
9
  6
CONTINUOUS
 10
390.3948646061
 20
183.3058537442
  0
VERTEX
  8
0
 62
9
  6
CONTINUOUS
 10
390.4709850736
 20
183.6504802167
  0
VERTEX
  8
0
 62
9
  6
CONTINUOUS
 10
390.6877578249
 20
183.9426404328
  0
VERTEX
  8
0
 62
9
  6
CONTINUOUS
 10
391.0121811738
 20
184.137855648
  0
VERTEX
  8
0
 62
9
  6
CONTINUOUS
 10
391.3948646061
 20
184.2064061155
  0
SEQEND
  0
POLYLINE
  8
DEFAULT_2
 62
8
  6
HIDDEN
 66
1
 70
0
  0
VERTEX
  8
DEFAULT_2
 62
8
  6
HIDDEN
 10
390.3948646061
 20
216.0786033693
  0
VERTEX
  8
DEFAULT_2
 62
8
  6
HIDDEN
 10
390.4709846768
 20
216.2428677366
  0
VERTEX
  8
DEFAULT_2
 62
8
  6
HIDDEN
 10
390.6877578249
 20
216.3821251027
  0
VERTEX
  8
DEFAULT_2
 62
8
  6
HIDDEN
 10
391.0121821317
 20
216.4751737956
  0
VERTEX
  8
DEFAULT_2
 62
8
  6
HIDDEN
 10
391.3948646061
 20
216.5078478636
  0
SEQEND
  0
POLYLINE
  8
DEFAULT_2
 62
8
  6
HIDDEN
 66
1
 70
0
  0
VERTEX
  8
DEFAULT_2
 62
8
  6
HIDDEN
 10
422.3948646061
 20
244.5109738981
  0
VERTEX
  8
DEFAULT_2
 62
8
  6
HIDDEN
 10
422.3187445354
 20
244.4341984655
  0
VERTEX
  8
DEFAULT_2
 62
8
  6
HIDDEN
 10
422.1019713873
 20
244.3691110414
  0
VERTEX
  8
DEFAULT_2
 62
8
  6
HIDDEN
 10
421.7775470806
 20
244.3256210638
  0
VERTEX
  8
DEFAULT_2
 62
8
  6
HIDDEN
 10
421.3948646061
 20
244.3103495846
  0
SEQEND
  0
LINE
  8
DEFAULT_2
 62
8
  6
HIDDEN
 10
406.3948646061
 20
203.9159927989
 11
391.3948646061
 21
203.9159927989
  0
LINE
  8
0
 62
9
  6
CONTINUOUS
 10
406.3948646061
 20
203.9159927989
 11
421.3948646061
 21
203.9159927989
  0
LINE
  8
0
 62
9
  6
CONTINUOUS
 10
422.3187441413
 20
169.7266196247
 11
422.1019713873
 21
170.0299607313
  0
POLYLINE
  8
0
 62
9
  6
CONTINUOUS
 66
1
 70
0
  0
VERTEX
  8
0
 62
9
  6
CONTINUOUS
 10
422.3187441385
 20
169.9039220744
  0
VERTEX
  8
0
 62
9
  6
CONTINUOUS
 10
422.1019713872
 20
170.207263175
  0
VERTEX
  8
0
 62
9
  6
CONTINUOUS
 10
421.7775480383
 20
170.4099492183
  0
VERTEX
  8
0
 62
9
  6
CONTINUOUS
 10
421.3948646061
 20
170.4811230918
  0
SEQEND
  0
POLYLINE
  8
DEFAULT_2
 62
8
  6
HIDDEN
 66
1
 70
0
  0
VERTEX
  8
DEFAULT_2
 62
8
  6
HIDDEN
 10
422.3948646061
 20
128.0671476029
  0
VERTEX
  8
DEFAULT_2
 62
8
  6
HIDDEN
 10
422.3187441386
 20
128.2949828784
  0
VERTEX
  8
DEFAULT_2
 62
8
  6
HIDDEN
 10
422.1019713873
 20
128.4881322985
  0
VERTEX
  8
DEFAULT_2
 62
8
  6
HIDDEN
 10
421.7775480385
 20
128.617190615
  0
VERTEX
  8
DEFAULT_2
 62
8
  6
HIDDEN
 10
421.3948646061
 20
128.662509869
  0
SEQEND
  0
POLYLINE
  8
DEFAULT_2
 62
8
  6
HIDDEN
 66
1
 70
0
  0
VERTEX
  8
DEFAULT_2
 62
8
  6
HIDDEN
 10
422.3948646061
 20
129.6974089469
  0
VERTEX
  8
DEFAULT_2
 62
8
  6
HIDDEN
 10
422.3187441925
 20
129.9252441449
  0
VERTEX
  8
DEFAULT_2
 62
8
  6
HIDDEN
 10
422.1019713866
 20
130.1183936429
  0
VERTEX
  8
DEFAULT_2
 62
8
  6
HIDDEN
 10
421.7775479067
 20
130.2474519914
  0
VERTEX
  8
DEFAULT_2
 62
8
  6
HIDDEN
 10
421.3948646061
 20
130.2927711954
  0
SEQEND
  0
POLYLINE
  8
0
 62
9
  6
CONTINUOUS
 66
1
 70
0
  0
VERTEX
  8
0
 62
9
  6
CONTINUOUS
 10
422.3948646061
 20
124.7071919023
  0
VERTEX
  8
0
 62
9
  6
CONTINUOUS
 10
422.3187441413
 20
124.960957953
  0
VERTEX
  8
0
 62
9
  6
CONTINUOUS
 10
422.1019713873
 20
125.1760904307
  0
SEQEND
  0
POLYLINE
  8
0
 62
9
  6
CONTINUOUS
 66
1
 70
0
  0
VERTEX
  8
0
 62
9
  6
CONTINUOUS
 10
422.3948646061
 20
125.0814472764
  0
VERTEX
  8
0
 62
9
  6
CONTINUOUS
 10
422.3187441385
 20
125.3352133315
  0
VERTEX
  8
0
 62
9
  6
CONTINUOUS
 10
422.1019713872
 20
125.5503458049
  0
VERTEX
  8
0
 62
9
  6
CONTINUOUS
 10
421.7775480383
 20
125.6940927279
  0
VERTEX
  8
0
 62
9
  6
CONTINUOUS
 10
421.3948646061
 20
125.7445699346
  0
SEQEND
  0
POLYLINE
  8
DEFAULT_2
 62
8
  6
HIDDEN
 66
1
 70
0
  0
VERTEX
  8
DEFAULT_2
 62
8
  6
HIDDEN
 10
390.3948646061
 20
214.2517331449
  0
VERTEX
  8
DEFAULT_2
 62
8
  6
HIDDEN
 10
390.4709850197
 20
213.8773059084
  0
VERTEX
  8
DEFAULT_2
 62
8
  6
HIDDEN
 10
390.6877578257
 20
213.5598815885
  0
VERTEX
  8
DEFAULT_2
 62
8
  6
HIDDEN
 10
391.0121813055
 20
213.3477854716
  0
VERTEX
  8
DEFAULT_2
 62
8
  6
HIDDEN
 10
391.3948646061
 20
213.2733072962
  0
SEQEND
  0
POLYLINE
  8
DEFAULT_2
 62
8
  6
HIDDEN
 66
1
 70
0
  0
VERTEX
  8
DEFAULT_2
 62
8
  6
HIDDEN
 10
390.3948646061
 20
214.6709329643
  0
VERTEX
  8
DEFAULT_2
 62
8
  6
HIDDEN
 10
390.4709850736
 20
214.2965056004
  0
VERTEX
  8
DEFAULT_2
 62
8
  6
HIDDEN
 10
390.6877578249
 20
213.9790814085
  0
VERTEX
  8
DEFAULT_2
 62
8
  6
HIDDEN
 10
391.0121811738
 20
213.7669853444
  0
VERTEX
  8
DEFAULT_2
 62
8
  6
HIDDEN
 10
391.3948646061
 20
213.692507111
  0
SEQEND
  0
LINE
  8
0
 62
9
  6
CONTINUOUS
 10
390.3948646061
 20
232.8277275521
 11
390.4709850737
 21
232.3875659725
  0
LINE
  8
0
 62
7
  6
CONTINUOUS
 10
406.3948646061
 20
83.4906005031
 11
406.3948646061
 21
173.0603653512
  0
LINE
  8
0
 62
7
  6
CONTINUOUS
 10
406.3948646061
 20
175.3593314088
 11
406.3948646061
 21
225.4957618226
  0
LINE
  8
DEFAULT_2
 62
8
  6
HIDDEN
 10
406.3948646061
 20
225.4957618226
 11
406.3948646061
 21
225.5597046867
  0
LINE
  8
0
 62
7
  6
CONTINUOUS
 10
406.3948646061
 20
225.5597046867
 11
406.3948646061
 21
227.066487044
  0
LINE
  8
0
 62
7
  6
CONTINUOUS
 10
406.3948646061
 20
229.5482592292
 11
406.3948646061
 21
345.9431564788
  0
POLYLINE
  8
DEFAULT_2
 62
8
  6
HIDDEN
 66
1
 70
0
  0
VERTEX
  8
DEFAULT_2
 62
8
  6
HIDDEN
 10
390.3948646061
 20
169.5461068491
  0
VERTEX
  8
DEFAULT_2
 62
8
  6
HIDDEN
 10
390.4709850737
 20
169.9039220744
  0
VERTEX
  8
DEFAULT_2
 62
8
  6
HIDDEN
 10
390.6877578251
 20
170.207263175
  0
VERTEX
  8
DEFAULT_2
 62
8
  6
HIDDEN
 10
391.0121811739
 20
170.4099492183
  0
VERTEX
  8
DEFAULT_2
 62
8
  6
HIDDEN
 10
391.3948646061
 20
170.4811230918
  0
SEQEND
  0
POLYLINE
  8
DEFAULT_2
 62
8
  6
HIDDEN
 66
1
 70
0
  0
VERTEX
  8
DEFAULT_2
 62
8
  6
HIDDEN
 10
390.3948646061
 20
169.3688044056
  0
VERTEX
  8
DEFAULT_2
 62
8
  6
HIDDEN
 10
390.470985071
 20
169.7266196247
  0
VERTEX
  8
DEFAULT_2
 62
8
  6
HIDDEN
 10
390.6877578249
 20
170.0299607313
  0
VERTEX
  8
DEFAULT_2
 62
8
  6
HIDDEN
 10
391.0121811801
 20
170.2326467772
  0
VERTEX
  8
DEFAULT_2
 62
8
  6
HIDDEN
 10
391.3948646061
 20
170.3038206483
  0
SEQEND
  0
POLYLINE
  8
DEFAULT_2
 62
8
  6
HIDDEN
 66
1
 70
0
  0
VERTEX
  8
DEFAULT_2
 62
8
  6
HIDDEN
 10
422.3948646061
 20
284.1606233194
  0
VERTEX
  8
DEFAULT_2
 62
8
  6
HIDDEN
 10
422.3187441413
 20
283.8456810341
  0
VERTEX
  8
DEFAULT_2
 62
8
  6
HIDDEN
 10
422.1019713873
 20
283.578685847
  0
VERTEX
  8
DEFAULT_2
 62
8
  6
HIDDEN
 10
421.7775480321
 20
283.400285368
  0
VERTEX
  8
DEFAULT_2
 62
8
  6
HIDDEN
 10
421.3948646061
 20
283.3376394535
  0
SEQEND
  0
POLYLINE
  8
DEFAULT_2
 62
8
  6
HIDDEN
 66
1
 70
0
  0
VERTEX
  8
DEFAULT_2
 62
8
  6
HIDDEN
 10
422.3948646061
 20
283.876590946
  0
VERTEX
  8
DEFAULT_2
 62
8
  6
HIDDEN
 10
422.3187441385
 20
283.5616486552
  0
VERTEX
  8
DEFAULT_2
 62
8
  6
HIDDEN
 10
422.1019713872
 20
283.2946534735
  0
VERTEX
  8
DEFAULT_2
 62
8
  6
HIDDEN
 10
421.7775480383
 20
283.1162529967
  0
VERTEX
  8
DEFAULT_2
 62
8
  6
HIDDEN
 10
421.3948646061
 20
283.0536070802
  0
SEQEND
  0
POLYLINE
  8
0
 62
9
  6
CONTINUOUS
 66
1
 70
0
  0
VERTEX
  8
0
 62
9
  6
CONTINUOUS
 10
422.3948646061
 20
275.2532898784
  0
VERTEX
  8
0
 62
9
  6
CONTINUOUS
 10
422.3187441386
 20
274.9584927352
  0
VERTEX
  8
0
 62
9
  6
CONTINUOUS
 10
422.1019713873
 20
274.7085757847
  0
VERTEX
  8
0
 62
9
  6
CONTINUOUS
 10
421.7775480385
 20
274.5415866171
  0
VERTEX
  8
0
 62
9
  6
CONTINUOUS
 10
421.3948646061
 20
274.4829478195
  0
SEQEND
  0
POLYLINE
  8
0
 62
9
  6
CONTINUOUS
 66
1
 70
0
  0
VERTEX
  8
0
 62
9
  6
CONTINUOUS
 10
422.3948646061
 20
273.9595001163
  0
VERTEX
  8
0
 62
9
  6
CONTINUOUS
 10
422.3187441925
 20
273.6647030733
  0
VERTEX
  8
0
 62
9
  6
CONTINUOUS
 10
422.1019713866
 20
273.414786022
  0
VERTEX
  8
0
 62
9
  6
CONTINUOUS
 10
421.7775479067
 20
273.247796813
  0
VERTEX
  8
0
 62
9
  6
CONTINUOUS
 10
421.3948646061
 20
273.1891580714
  0
SEQEND
  0
LINE
  8
DEFAULT_2
 62
8
  6
HIDDEN
 10
406.3948646061
 20
213.2733072917
 11
391.3948646061
 21
213.2733072917
  0
LINE
  8
0
 62
9
  6
CONTINUOUS
 10
406.3948646061
 20
213.2733072917
 11
421.3948646061
 21
213.2733072917
  0
LINE
  8
DEFAULT_2
 62
8
  6
HIDDEN
 10
406.3948646061
 20
213.692507111
 11
391.3948646061
 21
213.692507111
  0
LINE
  8
0
 62
9
  6
CONTINUOUS
 10
406.3948646061
 20
213.692507111
 11
421.3948646061
 21
213.692507111
  0
LINE
  8
DEFAULT_1
 62
2
  6
CENTER
 10
387.8948646061
 20
214.5884908733
 11
424.8948646061
 21
214.5884908733
  0
POLYLINE
  8
DEFAULT_2
 62
8
  6
HIDDEN
 66
1
 70
0
  0
VERTEX
  8
DEFAULT_2
 62
8
  6
HIDDEN
 10
422.3948646061
 20
196.6682326227
  0
VERTEX
  8
DEFAULT_2
 62
8
  6
HIDDEN
 10
422.3187441387
 20
196.7143600132
  0
VERTEX
  8
DEFAULT_2
 62
8
  6
HIDDEN
 10
422.1019713872
 20
196.7534649267
  0
VERTEX
  8
DEFAULT_2
 62
8
  6
HIDDEN
 10
421.7775480381
 20
196.7795939945
  0
VERTEX
  8
DEFAULT_2
 62
8
  6
HIDDEN
 10
421.3948646061
 20
196.788769303
  0
SEQEND
  0
POLYLINE
  8
0
 62
9
  6
CONTINUOUS
 66
1
 70
0
  0
VERTEX
  8
0
 62
9
  6
CONTINUOUS
 10
390.4709850737
 20
232.3875659725
  0
VERTEX
  8
0
 62
9
  6
CONTINUOUS
 10
390.6877578251
 20
232.0655080352
  0
VERTEX
  8
0
 62
9
  6
CONTINUOUS
 10
391.0121811739
 20
231.8503158014
  0
VERTEX
  8
0
 62
9
  6
CONTINUOUS
 10
391.3948646061
 20
231.7747503379
  0
SEQEND
  0
LINE
  8
0
 62
9
  6
CONTINUOUS
 10
390.470985071
 20
232.4478343192
 11
390.6877578249
 21
232.1257763755
  0
POLYLINE
  8
DEFAULT_2
 62
8
  6
HIDDEN
 66
1
 70
0
  0
VERTEX
  8
DEFAULT_2
 62
8
  6
HIDDEN
 10
390.3948646061
 20
273.9595001163
  0
VERTEX
  8
DEFAULT_2
 62
8
  6
HIDDEN
 10
390.4709850197
 20
273.6647030733
  0
VERTEX
  8
DEFAULT_2
 62
8
  6
HIDDEN
 10
390.6877578257
 20
273.414786022
  0
VERTEX
  8
DEFAULT_2
 62
8
  6
HIDDEN
 10
391.0121813055
 20
273.247796813
  0
VERTEX
  8
DEFAULT_2
 62
8
  6
HIDDEN
 10
391.3948646061
 20
273.1891580714
  0
SEQEND
  0
POLYLINE
  8
DEFAULT_2
 62
8
  6
HIDDEN
 66
1
 70
0
  0
VERTEX
  8
DEFAULT_2
 62
8
  6
HIDDEN
 10
390.3948646061
 20
275.2532898784
  0
VERTEX
  8
DEFAULT_2
 62
8
  6
HIDDEN
 10
390.4709850736
 20
274.9584927352
  0
VERTEX
  8
DEFAULT_2
 62
8
  6
HIDDEN
 10
390.6877578249
 20
274.7085757847
  0
VERTEX
  8
DEFAULT_2
 62
8
  6
HIDDEN
 10
391.0121811738
 20
274.5415866171
  0
VERTEX
  8
DEFAULT_2
 62
8
  6
HIDDEN
 10
391.3948646061
 20
274.4829478195
  0
SEQEND
  0
POLYLINE
  8
0
 62
9
  6
CONTINUOUS
 66
1
 70
0
  0
VERTEX
  8
0
 62
9
  6
CONTINUOUS
 10
390.3948646061
 20
283.876590946
  0
VERTEX
  8
0
 62
9
  6
CONTINUOUS
 10
390.4709850737
 20
283.5616486552
  0
VERTEX
  8
0
 62
9
  6
CONTINUOUS
 10
390.6877578251
 20
283.2946534735
  0
VERTEX
  8
0
 62
9
  6
CONTINUOUS
 10
391.0121811739
 20
283.1162529967
  0
VERTEX
  8
0
 62
9
  6
CONTINUOUS
 10
391.3948646061
 20
283.0536070802
  0
SEQEND
  0
POLYLINE
  8
0
 62
9
  6
CONTINUOUS
 66
1
 70
0
  0
VERTEX
  8
0
 62
9
  6
CONTINUOUS
 10
390.3948646061
 20
284.1606233194
  0
VERTEX
  8
0
 62
9
  6
CONTINUOUS
 10
390.470985071
 20
283.8456810341
  0
VERTEX
  8
0
 62
9
  6
CONTINUOUS
 10
390.6877578249
 20
283.578685847
  0
SEQEND
  0
POLYLINE
  8
DEFAULT_2
 62
8
  6
HIDDEN
 66
1
 70
0
  0
VERTEX
  8
DEFAULT_2
 62
8
  6
HIDDEN
 10
422.3187441413
 20
232.4478343192
  0
VERTEX
  8
DEFAULT_2
 62
8
  6
HIDDEN
 10
422.1019713873
 20
232.1257763755
  0
VERTEX
  8
DEFAULT_2
 62
8
  6
HIDDEN
 10
421.7775480321
 20
231.910584139
  0
VERTEX
  8
DEFAULT_2
 62
8
  6
HIDDEN
 10
421.3948646061
 20
231.835018678
  0
SEQEND
  0
POLYLINE
  8
0
 62
9
  6
CONTINUOUS
 66
1
 70
0
  0
VERTEX
  8
0
 62
9
  6
CONTINUOUS
 10
422.1019713873
 20
213.9790814085
  0
VERTEX
  8
0
 62
9
  6
CONTINUOUS
 10
421.7775480385
 20
213.7669853444
  0
VERTEX
  8
0
 62
9
  6
CONTINUOUS
 10
421.3948646061
 20
213.692507111
  0
SEQEND
  0
POLYLINE
  8
0
 62
9
  6
CONTINUOUS
 66
1
 70
0
  0
VERTEX
  8
0
 62
9
  6
CONTINUOUS
 10
390.3948646061
 20
196.6682326227
  0
VERTEX
  8
0
 62
9
  6
CONTINUOUS
 10
390.4709850736
 20
196.7143600132
  0
VERTEX
  8
0
 62
9
  6
CONTINUOUS
 10
390.687757825
 20
196.7534649267
  0
VERTEX
  8
0
 62
9
  6
CONTINUOUS
 10
391.0121811741
 20
196.7795939945
  0
VERTEX
  8
0
 62
9
  6
CONTINUOUS
 10
391.3948646061
 20
196.788769303
  0
SEQEND
  0
LINE
  8
DEFAULT_2
 62
8
  6
HIDDEN
 10
406.3948646061
 20
216.5078479212
 11
391.3948646061
 21
216.5078479212
  0
LINE
  8
0
 62
9
  6
CONTINUOUS
 10
406.3948646061
 20
216.5078479212
 11
421.3948646061
 21
216.5078479212
  0
POLYLINE
  8
0
 62
9
  6
CONTINUOUS
 66
1
 70
0
  0
VERTEX
  8
0
 62
9
  6
CONTINUOUS
 10
390.6877578249
 20
232.1257763755
  0
VERTEX
  8
0
 62
9
  6
CONTINUOUS
 10
391.0121811801
 20
231.910584139
  0
VERTEX
  8
0
 62
9
  6
CONTINUOUS
 10
391.3948646061
 20
231.835018678
  0
SEQEND
  0
POLYLINE
  8
0
 62
9
  6
CONTINUOUS
 66
1
 70
0
  0
VERTEX
  8
0
 62
9
  6
CONTINUOUS
 10
390.3948646061
 20
244.5109738981
  0
VERTEX
  8
0
 62
9
  6
CONTINUOUS
 10
390.4709846768
 20
244.4341984655
  0
VERTEX
  8
0
 62
9
  6
CONTINUOUS
 10
390.6877578249
 20
244.3691110414
  0
VERTEX
  8
0
 62
9
  6
CONTINUOUS
 10
391.0121821317
 20
244.3256210638
  0
VERTEX
  8
0
 62
9
  6
CONTINUOUS
 10
391.3948646061
 20
244.3103495846
  0
SEQEND
  0
POLYLINE
  8
DEFAULT_2
 62
8
  6
HIDDEN
 66
1
 70
0
  0
VERTEX
  8
DEFAULT_2
 62
8
  6
HIDDEN
 10
422.3948646061
 20
183.3058537442
  0
VERTEX
  8
DEFAULT_2
 62
8
  6
HIDDEN
 10
422.3187441386
 20
183.6504802167
  0
VERTEX
  8
DEFAULT_2
 62
8
  6
HIDDEN
 10
422.1019713873
 20
183.9426404328
  0
VERTEX
  8
DEFAULT_2
 62
8
  6
HIDDEN
 10
421.7775480385
 20
184.137855648
  0
VERTEX
  8
DEFAULT_2
 62
8
  6
HIDDEN
 10
421.3948646061
 20
184.2064061155
  0
SEQEND
  0
POLYLINE
  8
DEFAULT_2
 62
8
  6
HIDDEN
 66
1
 70
0
  0
VERTEX
  8
DEFAULT_2
 62
8
  6
HIDDEN
 10
422.3948646061
 20
184.1879815663
  0
VERTEX
  8
DEFAULT_2
 62
8
  6
HIDDEN
 10
422.3187441925
 20
184.5326079216
  0
VERTEX
  8
DEFAULT_2
 62
8
  6
HIDDEN
 10
422.1019713866
 20
184.8247682555
  0
VERTEX
  8
DEFAULT_2
 62
8
  6
HIDDEN
 10
421.7775479067
 20
185.0199835192
  0
VERTEX
  8
DEFAULT_2
 62
8
  6
HIDDEN
 10
421.3948646061
 20
185.088533928
  0
SEQEND
  0
LINE
  8
0
 62
9
  6
CONTINUOUS
 10
422.3948646061
 20
169.3688044056
 11
422.3187441413
 21
169.7266196247
  0
LINE
  8
0
 62
9
  6
CONTINUOUS
 10
422.3948646061
 20
169.5461068491
 11
422.3187441385
 21
169.9039220744
  0
LINE
  8
0
 62
9
  6
CONTINUOUS
 10
421.3948646061
 20
345.9432038079
 11
421.3948646061
 21
83.4895249391
  0
LINE
  8
0
 62
7
  6
CONTINUOUS
 10
422.3948646061
 20
344.9431742943
 11
422.3948646061
 21
84.4896161575
  0
LINE
  8
0
 62
7
  6
CONTINUOUS
 10
422.8948646061
 20
324.0884907622
 11
422.8948646061
 21
105.0884909845
  0
POLYLINE
  8
DEFAULT_2
 62
8
  6
HIDDEN
 66
1
 70
0
  0
VERTEX
  8
DEFAULT_2
 62
8
  6
HIDDEN
 10
422.3948646061
 20
232.8277275521
  0
VERTEX
  8
DEFAULT_2
 62
8
  6
HIDDEN
 10
422.3187441385
 20
232.3875659725
  0
VERTEX
  8
DEFAULT_2
 62
8
  6
HIDDEN
 10
422.1019713872
 20
232.0655080352
  0
VERTEX
  8
DEFAULT_2
 62
8
  6
HIDDEN
 10
421.7775480383
 20
231.8503158014
  0
VERTEX
  8
DEFAULT_2
 62
8
  6
HIDDEN
 10
421.3948646061
 20
231.7747503379
  0
SEQEND
  0
POLYLINE
  8
0
 62
9
  6
CONTINUOUS
 66
1
 70
0
  0
VERTEX
  8
0
 62
9
  6
CONTINUOUS
 10
422.3948646061
 20
214.6709329643
  0
VERTEX
  8
0
 62
9
  6
CONTINUOUS
 10
422.3187441386
 20
214.2965056004
  0
VERTEX
  8
0
 62
9
  6
CONTINUOUS
 10
422.1019713873
 20
213.9790814085
  0
SEQEND
  0
POLYLINE
  8
0
 62
9
  6
CONTINUOUS
 66
1
 70
0
  0
VERTEX
  8
0
 62
9
  6
CONTINUOUS
 10
422.3948646061
 20
214.2517331449
  0
VERTEX
  8
0
 62
9
  6
CONTINUOUS
 10
422.3187441925
 20
213.8773059084
  0
VERTEX
  8
0
 62
9
  6
CONTINUOUS
 10
422.1019713866
 20
213.5598815885
  0
VERTEX
  8
0
 62
9
  6
CONTINUOUS
 10
421.7775479067
 20
213.3477854716
  0
VERTEX
  8
0
 62
9
  6
CONTINUOUS
 10
421.3948646061
 20
213.2733072962
  0
SEQEND
  0
POLYLINE
  8
DEFAULT_2
 62
8
  6
HIDDEN
 66
1
 70
0
  0
VERTEX
  8
DEFAULT_2
 62
8
  6
HIDDEN
 10
390.3948646061
 20
125.0814472764
  0
VERTEX
  8
DEFAULT_2
 62
8
  6
HIDDEN
 10
390.4709850737
 20
125.3352133315
  0
VERTEX
  8
DEFAULT_2
 62
8
  6
HIDDEN
 10
390.6877578251
 20
125.5503458049
  0
VERTEX
  8
DEFAULT_2
 62
8
  6
HIDDEN
 10
391.0121811739
 20
125.6940927279
  0
VERTEX
  8
DEFAULT_2
 62
8
  6
HIDDEN
 10
391.3948646061
 20
125.7445699346
  0
SEQEND
  0
POLYLINE
  8
DEFAULT_2
 62
8
  6
HIDDEN
 66
1
 70
0
  0
VERTEX
  8
DEFAULT_2
 62
8
  6
HIDDEN
 10
390.3948646061
 20
124.7071919023
  0
VERTEX
  8
DEFAULT_2
 62
8
  6
HIDDEN
 10
390.470985071
 20
124.960957953
  0
VERTEX
  8
DEFAULT_2
 62
8
  6
HIDDEN
 10
390.6877578249
 20
125.1760904307
  0
VERTEX
  8
DEFAULT_2
 62
8
  6
HIDDEN
 10
391.0121811801
 20
125.3198373555
  0
VERTEX
  8
DEFAULT_2
 62
8
  6
HIDDEN
 10
391.3948646061
 20
125.3703145606
  0
SEQEND
  0
POLYLINE
  8
0
 62
9
  6
CONTINUOUS
 66
1
 70
0
  0
VERTEX
  8
0
 62
9
  6
CONTINUOUS
 10
390.3948646061
 20
129.6974089469
  0
VERTEX
  8
0
 62
9
  6
CONTINUOUS
 10
390.4709850197
 20
129.9252441449
  0
VERTEX
  8
0
 62
9
  6
CONTINUOUS
 10
390.6877578257
 20
130.1183936429
  0
VERTEX
  8
0
 62
9
  6
CONTINUOUS
 10
391.0121813055
 20
130.2474519914
  0
VERTEX
  8
0
 62
9
  6
CONTINUOUS
 10
391.3948646061
 20
130.2927711954
  0
SEQEND
  0
POLYLINE
  8
0
 62
9
  6
CONTINUOUS
 66
1
 70
0
  0
VERTEX
  8
0
 62
9
  6
CONTINUOUS
 10
390.3948646061
 20
128.0671476029
  0
VERTEX
  8
0
 62
9
  6
CONTINUOUS
 10
390.4709850736
 20
128.2949828784
  0
VERTEX
  8
0
 62
9
  6
CONTINUOUS
 10
390.6877578249
 20
128.4881322985
  0
VERTEX
  8
0
 62
9
  6
CONTINUOUS
 10
391.0121811738
 20
128.617190615
  0
VERTEX
  8
0
 62
9
  6
CONTINUOUS
 10
391.3948646061
 20
128.662509869
  0
SEQEND
  0
LINE
  8
DEFAULT_2
 62
8
  6
HIDDEN
 10
391.3948646061
 20
225.3075604045
 11
421.3948646061
 21
225.3075604045
  0
LINE
  8
DEFAULT_2
 62
8
  6
HIDDEN
 10
391.3948646061
 20
225.3221426563
 11
421.3948646061
 21
225.3221426563
  0
LINE
  8
DEFAULT_2
 62
8
  6
HIDDEN
 10
391.3948646061
 20
225.3824109964
 11
421.3948646061
 21
225.3824109964
  0
LINE
  8
DEFAULT_2
 62
8
  6
HIDDEN
 10
406.3948646061
 20
225.4972462294
 11
391.3948646061
 21
225.4972462294
  0
LINE
  8
0
 62
7
  6
CONTINUOUS
 10
406.3948646061
 20
225.4972462294
 11
421.3948646061
 21
225.4972462294
  0
LINE
  8
DEFAULT_2
 62
8
  6
HIDDEN
 10
406.3948646061
 20
227.066487044
 11
391.3948646061
 21
227.066487044
  0
LINE
  8
0
 62
9
  6
CONTINUOUS
 10
406.3948646061
 20
227.066487044
 11
421.3948646061
 21
227.066487044
  0
LINE
  8
0
 62
9
  6
CONTINUOUS
 10
406.3948646061
 20
229.5482592292
 11
391.3948646061
 21
229.5482592292
  0
LINE
  8
DEFAULT_2
 62
8
  6
HIDDEN
 10
406.3948646061
 20
229.5482592292
 11
421.3948646061
 21
229.5482592292
  0
LINE
  8
0
 62
9
  6
CONTINUOUS
 10
406.3948646061
 20
231.7747503379
 11
391.3948646061
 21
231.7747503379
  0
LINE
  8
DEFAULT_2
 62
8
  6
HIDDEN
 10
406.3948646061
 20
231.7747503379
 11
421.3948646061
 21
231.7747503379
  0
LINE
  8
0
 62
9
  6
CONTINUOUS
 10
406.3948646061
 20
231.835018678
 11
391.3948646061
 21
231.835018678
  0
LINE
  8
DEFAULT_2
 62
8
  6
HIDDEN
 10
406.3948646061
 20
231.835018678
 11
421.3948646061
 21
231.835018678
  0
POLYLINE
  8
0
 62
9
  6
CONTINUOUS
 66
1
 70
0
  0
VERTEX
  8
0
 62
9
  6
CONTINUOUS
 10
422.3948646061
 20
226.9459503637
  0
VERTEX
  8
0
 62
9
  6
CONTINUOUS
 10
422.3187441612
 20
226.9920777477
  0
VERTEX
  8
0
 62
9
  6
CONTINUOUS
 10
422.1019713873
 20
227.0311826677
  0
VERTEX
  8
0
 62
9
  6
CONTINUOUS
 10
421.7775479841
 20
227.0573117382
  0
VERTEX
  8
0
 62
9
  6
CONTINUOUS
 10
421.3948646061
 20
227.0664870435
  0
SEQEND
  0
POLYLINE
  8
DEFAULT_2
 62
8
  6
HIDDEN
 66
1
 70
0
  0
VERTEX
  8
DEFAULT_2
 62
8
  6
HIDDEN
 10
422.3187441385
 20
224.7093270217
  0
VERTEX
  8
DEFAULT_2
 62
8
  6
HIDDEN
 10
422.1019713872
 20
225.031384959
  0
VERTEX
  8
DEFAULT_2
 62
8
  6
HIDDEN
 10
421.7775480383
 20
225.2465771928
  0
VERTEX
  8
DEFAULT_2
 62
8
  6
HIDDEN
 10
421.3948646061
 20
225.3221426563
  0
SEQEND
  0
POLYLINE
  8
0
 62
9
  6
CONTINUOUS
 66
1
 70
0
  0
VERTEX
  8
0
 62
9
  6
CONTINUOUS
 10
422.3948646061
 20
216.0786033693
  0
VERTEX
  8
0
 62
9
  6
CONTINUOUS
 10
422.3187445354
 20
216.2428677366
  0
VERTEX
  8
0
 62
9
  6
CONTINUOUS
 10
422.1019713873
 20
216.3821251027
  0
VERTEX
  8
0
 62
9
  6
CONTINUOUS
 10
421.7775470806
 20
216.4751737956
  0
VERTEX
  8
0
 62
9
  6
CONTINUOUS
 10
421.3948646061
 20
216.5078478636
  0
SEQEND
  0
POLYLINE
  8
DEFAULT_2
 62
8
  6
HIDDEN
 66
1
 70
0
  0
VERTEX
  8
DEFAULT_2
 62
8
  6
HIDDEN
 10
422.3948646061
 20
224.3294337822
  0
VERTEX
  8
DEFAULT_2
 62
8
  6
HIDDEN
 10
422.3187441412
 20
224.7695953555
  0
VERTEX
  8
DEFAULT_2
 62
8
  6
HIDDEN
 10
422.1019713873
 20
225.0916532989
  0
VERTEX
  8
DEFAULT_2
 62
8
  6
HIDDEN
 10
421.7775480324
 20
225.3068455354
  0
VERTEX
  8
DEFAULT_2
 62
8
  6
HIDDEN
 10
421.3948646061
 20
225.3824109964
  0
SEQEND
  0
LINE
  8
DEFAULT_2
 62
8
  6
HIDDEN
 10
422.3948646061
 20
177.4937449119
 11
422.3187441385
 21
177.1359296866
  0
LINE
  8
DEFAULT_2
 62
8
  6
HIDDEN
 10
422.3948646061
 20
177.3164424684
 11
422.3187441413
 21
176.9586272493
  0
POLYLINE
  8
DEFAULT_2
 62
8
  6
HIDDEN
 66
1
 70
0
  0
VERTEX
  8
DEFAULT_2
 62
8
  6
HIDDEN
 10
422.3948646061
 20
181.7723827784
  0
VERTEX
  8
DEFAULT_2
 62
8
  6
HIDDEN
 10
422.3187445354
 20
181.5301759246
  0
VERTEX
  8
DEFAULT_2
 62
8
  6
HIDDEN
 10
422.1019713873
 20
181.3248417483
  0
VERTEX
  8
DEFAULT_2
 62
8
  6
HIDDEN
 10
421.7775470806
 20
181.187641992
  0
VERTEX
  8
DEFAULT_2
 62
8
  6
HIDDEN
 10
421.3948646061
 20
181.1394642333
  0
SEQEND
  0
POLYLINE
  8
0
 62
9
  6
CONTINUOUS
 66
1
 70
0
  0
VERTEX
  8
0
 62
9
  6
CONTINUOUS
 10
422.3948646061
 20
204.2705976859
  0
VERTEX
  8
0
 62
9
  6
CONTINUOUS
 10
422.3187441387
 20
204.1348962706
  0
VERTEX
  8
0
 62
9
  6
CONTINUOUS
 10
422.1019713872
 20
204.0198541656
  0
VERTEX
  8
0
 62
9
  6
CONTINUOUS
 10
421.7775480381
 20
203.9429854886
  0
VERTEX
  8
0
 62
9
  6
CONTINUOUS
 10
421.3948646061
 20
203.9159927989
  0
SEQEND
  0
POLYLINE
  8
DEFAULT_2
 62
8
  6
HIDDEN
 66
1
 70
0
  0
VERTEX
  8
DEFAULT_2
 62
8
  6
HIDDEN
 10
422.3948646061
 20
229.427722549
  0
VERTEX
  8
DEFAULT_2
 62
8
  6
HIDDEN
 10
422.3187441612
 20
229.4738499329
  0
VERTEX
  8
DEFAULT_2
 62
8
  6
HIDDEN
 10
422.1019713873
 20
229.5129548529
  0
VERTEX
  8
DEFAULT_2
 62
8
  6
HIDDEN
 10
421.7775479841
 20
229.5390839235
  0
VERTEX
  8
DEFAULT_2
 62
8
  6
HIDDEN
 10
421.3948646061
 20
229.5482592297
  0
SEQEND
  0
POLYLINE
  8
0
 62
9
  6
CONTINUOUS
 66
1
 70
0
  0
VERTEX
  8
0
 62
9
  6
CONTINUOUS
 10
390.3948646061
 20
319.1126539655
  0
VERTEX
  8
0
 62
9
  6
CONTINUOUS
 10
390.4709850737
 20
318.9348121068
  0
VERTEX
  8
0
 62
9
  6
CONTINUOUS
 10
390.6877578251
 20
318.7840450591
  0
VERTEX
  8
0
 62
9
  6
CONTINUOUS
 10
391.0121811739
 20
318.6833057386
  0
VERTEX
  8
0
 62
9
  6
CONTINUOUS
 10
391.3948646061
 20
318.6479307935
  0
SEQEND
  0
POLYLINE
  8
0
 62
9
  6
CONTINUOUS
 66
1
 70
0
  0
VERTEX
  8
0
 62
9
  6
CONTINUOUS
 10
390.3948646061
 20
319.5553819784
  0
VERTEX
  8
0
 62
9
  6
CONTINUOUS
 10
390.470985071
 20
319.3775401228
  0
VERTEX
  8
0
 62
9
  6
CONTINUOUS
 10
390.6877578249
 20
319.226773072
  0
SEQEND
  0
POLYLINE
  8
DEFAULT_2
 62
8
  6
HIDDEN
 66
1
 70
0
  0
VERTEX
  8
DEFAULT_2
 62
8
  6
HIDDEN
 10
422.3948646061
 20
252.5448970508
  0
VERTEX
  8
DEFAULT_2
 62
8
  6
HIDDEN
 10
422.3187441387
 20
252.7622860178
  0
VERTEX
  8
DEFAULT_2
 62
8
  6
HIDDEN
 10
422.1019713872
 20
252.9465794854
  0
VERTEX
  8
DEFAULT_2
 62
8
  6
HIDDEN
 10
421.7775480381
 20
253.0697204435
  0
VERTEX
  8
DEFAULT_2
 62
8
  6
HIDDEN
 10
421.3948646061
 20
253.1129617975
  0
SEQEND
  0
POLYLINE
  8
DEFAULT_2
 62
8
  6
HIDDEN
 66
1
 70
0
  0
VERTEX
  8
DEFAULT_2
 62
8
  6
HIDDEN
 10
422.3948646061
 20
245.6429445021
  0
VERTEX
  8
DEFAULT_2
 62
8
  6
HIDDEN
 10
422.3187441925
 20
246.0254122699
  0
VERTEX
  8
DEFAULT_2
 62
8
  6
HIDDEN
 10
422.1019713866
 20
246.3496530281
  0
VERTEX
  8
DEFAULT_2
 62
8
  6
HIDDEN
 10
421.7775479067
 20
246.5663037427
  0
VERTEX
  8
DEFAULT_2
 62
8
  6
HIDDEN
 10
421.3948646061
 20
246.6423812839
  0
SEQEND
  0
POLYLINE
  8
DEFAULT_2
 62
8
  6
HIDDEN
 66
1
 70
0
  0
VERTEX
  8
DEFAULT_2
 62
8
  6
HIDDEN
 10
422.3948646061
 20
245.7110350552
  0
VERTEX
  8
DEFAULT_2
 62
8
  6
HIDDEN
 10
422.3187441386
 20
246.093502953
  0
VERTEX
  8
DEFAULT_2
 62
8
  6
HIDDEN
 10
422.1019713873
 20
246.4177435805
  0
SEQEND
  0
POLYLINE
  8
DEFAULT_2
 62
8
  6
HIDDEN
 66
1
 70
0
  0
VERTEX
  8
DEFAULT_2
 62
8
  6
HIDDEN
 10
422.3948646061
 20
112.6499854852
  0
VERTEX
  8
DEFAULT_2
 62
8
  6
HIDDEN
 10
422.3187441387
 20
112.278422138
  0
VERTEX
  8
DEFAULT_2
 62
8
  6
HIDDEN
 10
422.1019713872
 20
111.9634259419
  0
VERTEX
  8
DEFAULT_2
 62
8
  6
HIDDEN
 10
421.7775480381
 20
111.7529522127
  0
VERTEX
  8
DEFAULT_2
 62
8
  6
HIDDEN
 10
421.3948646061
 20
111.6790436678
  0
SEQEND
  0
POLYLINE
  8
DEFAULT_2
 62
8
  6
HIDDEN
 66
1
 70
0
  0
VERTEX
  8
DEFAULT_2
 62
8
  6
HIDDEN
 10
422.3948646061
 20
154.6211133107
  0
VERTEX
  8
DEFAULT_2
 62
8
  6
HIDDEN
 10
422.3187441925
 20
154.2528326482
  0
VERTEX
  8
DEFAULT_2
 62
8
  6
HIDDEN
 10
422.1019713866
 20
153.940619146
  0
VERTEX
  8
DEFAULT_2
 62
8
  6
HIDDEN
 10
421.7775479067
 20
153.7320047857
  0
VERTEX
  8
DEFAULT_2
 62
8
  6
HIDDEN
 10
421.3948646061
 20
153.6587492289
  0
SEQEND
  0
POLYLINE
  8
DEFAULT_2
 62
8
  6
HIDDEN
 66
1
 70
0
  0
VERTEX
  8
DEFAULT_2
 62
8
  6
HIDDEN
 10
422.3948646061
 20
154.0696895606
  0
VERTEX
  8
DEFAULT_2
 62
8
  6
HIDDEN
 10
422.3187441386
 20
153.7014087729
  0
VERTEX
  8
DEFAULT_2
 62
8
  6
HIDDEN
 10
422.1019713873
 20
153.3891953966
  0
VERTEX
  8
DEFAULT_2
 62
8
  6
HIDDEN
 10
421.7775480385
 20
153.1805810881
  0
VERTEX
  8
DEFAULT_2
 62
8
  6
HIDDEN
 10
421.3948646061
 20
153.1073254847
  0
SEQEND
  0
POLYLINE
  8
DEFAULT_2
 62
8
  6
HIDDEN
 66
1
 70
0
  0
VERTEX
  8
DEFAULT_2
 62
8
  6
HIDDEN
 10
422.3948646061
 20
126.5515665463
  0
VERTEX
  8
DEFAULT_2
 62
8
  6
HIDDEN
 10
422.3187445354
 20
126.1994149425
  0
VERTEX
  8
DEFAULT_2
 62
8
  6
HIDDEN
 10
422.1019713873
 20
125.9008735993
  0
VERTEX
  8
DEFAULT_2
 62
8
  6
HIDDEN
 10
421.7775470806
 20
125.7013948752
  0
VERTEX
  8
DEFAULT_2
 62
8
  6
HIDDEN
 10
421.3948646061
 20
125.6313477807
  0
SEQEND
  0
POLYLINE
  8
0
 62
9
  6
CONTINUOUS
 66
1
 70
0
  0
VERTEX
  8
0
 62
9
  6
CONTINUOUS
 10
422.3948646061
 20
151.199460067
  0
VERTEX
  8
0
 62
9
  6
CONTINUOUS
 10
422.3187441387
 20
150.9130174048
  0
VERTEX
  8
0
 62
9
  6
CONTINUOUS
 10
422.1019713872
 20
150.6701830411
  0
VERTEX
  8
0
 62
9
  6
CONTINUOUS
 10
421.7775480381
 20
150.5079263068
  0
VERTEX
  8
0
 62
9
  6
CONTINUOUS
 10
421.3948646061
 20
150.4509493188
  0
SEQEND
  0
POLYLINE
  8
DEFAULT_2
 62
8
  6
HIDDEN
 66
1
 70
0
  0
VERTEX
  8
DEFAULT_2
 62
8
  6
HIDDEN
 10
422.3948646061
 20
175.752510845
  0
VERTEX
  8
DEFAULT_2
 62
8
  6
HIDDEN
 10
422.3187441612
 20
175.616809449
  0
VERTEX
  8
DEFAULT_2
 62
8
  6
HIDDEN
 10
422.1019713873
 20
175.5017673247
  0
VERTEX
  8
DEFAULT_2
 62
8
  6
HIDDEN
 10
421.7775479841
 20
175.4248986397
  0
VERTEX
  8
DEFAULT_2
 62
8
  6
HIDDEN
 10
421.3948646061
 20
175.3979059584
  0
SEQEND
  0
POLYLINE
  8
0
 62
9
  6
CONTINUOUS
 66
1
 70
0
  0
VERTEX
  8
0
 62
9
  6
CONTINUOUS
 10
422.3948646061
 20
173.4149702383
  0
VERTEX
  8
0
 62
9
  6
CONTINUOUS
 10
422.3187441612
 20
173.2792688423
  0
VERTEX
  8
0
 62
9
  6
CONTINUOUS
 10
422.1019713873
 20
173.164226718
  0
VERTEX
  8
0
 62
9
  6
CONTINUOUS
 10
421.7775479841
 20
173.087358033
  0
VERTEX
  8
0
 62
9
  6
CONTINUOUS
 10
421.3948646061
 20
173.0603653508
  0
SEQEND
  0
LINE
  8
DEFAULT_2
 62
8
  6
HIDDEN
 10
422.3187441385
 20
177.1359296866
 11
422.1019713872
 21
176.832588586
  0
POLYLINE
  8
DEFAULT_2
 62
8
  6
HIDDEN
 66
1
 70
0
  0
VERTEX
  8
DEFAULT_2
 62
8
  6
HIDDEN
 10
422.3187441413
 20
176.9586272493
  0
VERTEX
  8
DEFAULT_2
 62
8
  6
HIDDEN
 10
422.1019713873
 20
176.6552861427
  0
VERTEX
  8
DEFAULT_2
 62
8
  6
HIDDEN
 10
421.7775480321
 20
176.4526000967
  0
VERTEX
  8
DEFAULT_2
 62
8
  6
HIDDEN
 10
421.3948646061
 20
176.3814262257
  0
SEQEND
  0
LINE
  8
0
 62
9
  6
CONTINUOUS
 10
406.3948646061
 20
244.3103495221
 11
391.3948646061
 21
244.3103495221
  0
LINE
  8
DEFAULT_2
 62
8
  6
HIDDEN
 10
406.3948646061
 20
244.3103495221
 11
421.3948646061
 21
244.3103495221
  0
LINE
  8
DEFAULT_2
 62
8
  6
HIDDEN
 10
391.3948646061
 20
246.6339329985
 11
421.3948646061
 21
246.6339329985
  0
LINE
  8
0
 62
7
  6
CONTINUOUS
 10
406.3948646061
 20
246.7115982742
 11
391.3948646061
 21
246.7115982742
  0
LINE
  8
DEFAULT_2
 62
8
  6
HIDDEN
 10
406.3948646061
 20
246.7115982742
 11
421.3948646061
 21
246.7115982742
  0
POLYLINE
  8
DEFAULT_2
 62
8
  6
HIDDEN
 66
1
 70
0
  0
VERTEX
  8
DEFAULT_2
 62
8
  6
HIDDEN
 10
422.1019713873
 20
246.4177435805
  0
VERTEX
  8
DEFAULT_2
 62
8
  6
HIDDEN
 10
421.7775480385
 20
246.6343942413
  0
VERTEX
  8
DEFAULT_2
 62
8
  6
HIDDEN
 10
421.3948646061
 20
246.7104718362
  0
SEQEND
  0
POLYLINE
  8
DEFAULT_2
 62
8
  6
HIDDEN
 66
1
 70
0
  0
VERTEX
  8
DEFAULT_2
 62
8
  6
HIDDEN
 10
390.3948646061
 20
320.0660843683
  0
VERTEX
  8
DEFAULT_2
 62
8
  6
HIDDEN
 10
390.4709850197
 20
319.9184519687
  0
VERTEX
  8
DEFAULT_2
 62
8
  6
HIDDEN
 10
390.6877578257
 20
319.7932951707
  0
VERTEX
  8
DEFAULT_2
 62
8
  6
HIDDEN
 10
391.0121813055
 20
319.7096680848
  0
VERTEX
  8
DEFAULT_2
 62
8
  6
HIDDEN
 10
391.3948646061
 20
319.680302206
  0
SEQEND
  0
POLYLINE
  8
DEFAULT_2
 62
8
  6
HIDDEN
 66
1
 70
0
  0
VERTEX
  8
DEFAULT_2
 62
8
  6
HIDDEN
 10
390.3948646061
 20
321.9380724306
  0
VERTEX
  8
DEFAULT_2
 62
8
  6
HIDDEN
 10
390.4709850736
 20
321.7904399808
  0
VERTEX
  8
DEFAULT_2
 62
8
  6
HIDDEN
 10
390.6877578249
 20
321.6652832333
  0
VERTEX
  8
DEFAULT_2
 62
8
  6
HIDDEN
 10
391.0121811738
 20
321.5816561681
  0
VERTEX
  8
DEFAULT_2
 62
8
  6
HIDDEN
 10
391.3948646061
 20
321.5522902481
  0
SEQEND
  0
POLYLINE
  8
DEFAULT_2
 62
8
  6
HIDDEN
 66
1
 70
0
  0
VERTEX
  8
DEFAULT_2
 62
8
  6
HIDDEN
 10
422.3948646061
 20
277.6459854434
  0
VERTEX
  8
DEFAULT_2
 62
8
  6
HIDDEN
 10
422.3187441612
 20
277.8633743796
  0
VERTEX
  8
DEFAULT_2
 62
8
  6
HIDDEN
 10
422.1019713873
 20
278.047667878
  0
VERTEX
  8
DEFAULT_2
 62
8
  6
HIDDEN
 10
421.7775479841
 20
278.1708088489
  0
VERTEX
  8
DEFAULT_2
 62
8
  6
HIDDEN
 10
421.3948646061
 20
278.2140501898
  0
SEQEND
  0
POLYLINE
  8
0
 62
9
  6
CONTINUOUS
 66
1
 70
0
  0
VERTEX
  8
0
 62
9
  6
CONTINUOUS
 10
422.3948646061
 20
276.8234416464
  0
VERTEX
  8
0
 62
9
  6
CONTINUOUS
 10
422.3187445354
 20
277.1295148049
  0
VERTEX
  8
0
 62
9
  6
CONTINUOUS
 10
422.1019713873
 20
277.3889925153
  0
VERTEX
  8
0
 62
9
  6
CONTINUOUS
 10
421.7775470806
 20
277.5623697838
  0
VERTEX
  8
0
 62
9
  6
CONTINUOUS
 10
421.3948646061
 20
277.6232513171
  0
SEQEND
  0
POLYLINE
  8
DEFAULT_2
 62
8
  6
HIDDEN
 66
1
 70
0
  0
VERTEX
  8
DEFAULT_2
 62
8
  6
HIDDEN
 10
422.3948646061
 20
276.881228086
  0
VERTEX
  8
DEFAULT_2
 62
8
  6
HIDDEN
 10
422.3187441385
 20
277.1961703768
  0
VERTEX
  8
DEFAULT_2
 62
8
  6
HIDDEN
 10
422.1019713872
 20
277.4631655585
  0
VERTEX
  8
DEFAULT_2
 62
8
  6
HIDDEN
 10
421.7775480383
 20
277.6415660353
  0
VERTEX
  8
DEFAULT_2
 62
8
  6
HIDDEN
 10
421.3948646061
 20
277.7042119518
  0
SEQEND
  0
POLYLINE
  8
DEFAULT_2
 62
8
  6
HIDDEN
 66
1
 70
0
  0
VERTEX
  8
DEFAULT_2
 62
8
  6
HIDDEN
 10
422.3948646061
 20
277.1652604593
  0
VERTEX
  8
DEFAULT_2
 62
8
  6
HIDDEN
 10
422.3187441413
 20
277.4802027446
  0
VERTEX
  8
DEFAULT_2
 62
8
  6
HIDDEN
 10
422.1019713873
 20
277.7471979317
  0
VERTEX
  8
DEFAULT_2
 62
8
  6
HIDDEN
 10
421.7775480321
 20
277.9255984108
  0
VERTEX
  8
DEFAULT_2
 62
8
  6
HIDDEN
 10
421.3948646061
 20
277.9882443252
  0
SEQEND
  0
POLYLINE
  8
DEFAULT_2
 62
8
  6
HIDDEN
 66
1
 70
0
  0
VERTEX
  8
DEFAULT_2
 62
8
  6
HIDDEN
 10
422.3948646061
 20
299.9837063583
  0
VERTEX
  8
DEFAULT_2
 62
8
  6
HIDDEN
 10
422.3187441925
 20
300.3163967822
  0
VERTEX
  8
DEFAULT_2
 62
8
  6
HIDDEN
 10
422.1019713866
 20
300.5984383145
  0
SEQEND
  0
LINE
  8
DEFAULT_2
 62
8
  6
HIDDEN
 10
422.3948646061
 20
300.9864165615
 11
422.3187441386
 21
301.3191070984
  0
POLYLINE
  8
DEFAULT_2
 62
8
  6
HIDDEN
 66
1
 70
0
  0
VERTEX
  8
DEFAULT_2
 62
8
  6
HIDDEN
 10
422.3948646061
 20
299.7262062478
  0
VERTEX
  8
DEFAULT_2
 62
8
  6
HIDDEN
 10
422.3187441387
 20
300.0650555988
  0
VERTEX
  8
DEFAULT_2
 62
8
  6
HIDDEN
 10
422.1019713872
 20
300.3523182081
  0
VERTEX
  8
DEFAULT_2
 62
8
  6
HIDDEN
 10
421.7775480381
 20
300.544260947
  0
VERTEX
  8
DEFAULT_2
 62
8
  6
HIDDEN
 10
421.3948646061
 20
300.6116622735
  0
SEQEND
  0
POLYLINE
  8
DEFAULT_2
 62
8
  6
HIDDEN
 66
1
 70
0
  0
VERTEX
  8
DEFAULT_2
 62
8
  6
HIDDEN
 10
422.3948646061
 20
91.4989487175
  0
VERTEX
  8
DEFAULT_2
 62
8
  6
HIDDEN
 10
422.3187445354
 20
91.1175260524
  0
VERTEX
  8
DEFAULT_2
 62
8
  6
HIDDEN
 10
422.1019713873
 20
90.7941697662
  0
VERTEX
  8
DEFAULT_2
 62
8
  6
HIDDEN
 10
421.7775470806
 20
90.5781102458
  0
VERTEX
  8
DEFAULT_2
 62
8
  6
HIDDEN
 10
421.3948646061
 20
90.5022407609
  0
SEQEND
  0
POLYLINE
  8
DEFAULT_2
 62
8
  6
HIDDEN
 66
1
 70
0
  0
VERTEX
  8
DEFAULT_2
 62
8
  6
HIDDEN
 10
422.3948646061
 20
105.3508343208
  0
VERTEX
  8
DEFAULT_2
 62
8
  6
HIDDEN
 10
422.3187441612
 20
104.9792710263
  0
VERTEX
  8
DEFAULT_2
 62
8
  6
HIDDEN
 10
422.1019713873
 20
104.6642747775
  0
VERTEX
  8
DEFAULT_2
 62
8
  6
HIDDEN
 10
421.7775479841
 20
104.4538010265
  0
VERTEX
  8
DEFAULT_2
 62
8
  6
HIDDEN
 10
421.3948646061
 20
104.3798925035
  0
SEQEND
  0
POLYLINE
  8
0
 62
9
  6
CONTINUOUS
 66
1
 70
0
  0
VERTEX
  8
0
 62
9
  6
CONTINUOUS
 10
422.3948646061
 20
104.7525451601
  0
VERTEX
  8
0
 62
9
  6
CONTINUOUS
 10
422.3187441612
 20
104.3809818656
  0
VERTEX
  8
0
 62
9
  6
CONTINUOUS
 10
422.1019713873
 20
104.0659856168
  0
VERTEX
  8
0
 62
9
  6
CONTINUOUS
 10
421.7775479841
 20
103.8555118658
  0
VERTEX
  8
0
 62
9
  6
CONTINUOUS
 10
421.3948646061
 20
103.7816033425
  0
SEQEND
  0
POLYLINE
  8
DEFAULT_2
 62
8
  6
HIDDEN
 66
1
 70
0
  0
VERTEX
  8
DEFAULT_2
 62
8
  6
HIDDEN
 10
422.3948646061
 20
97.4533939956
  0
VERTEX
  8
DEFAULT_2
 62
8
  6
HIDDEN
 10
422.3187441387
 20
97.0818306484
  0
VERTEX
  8
DEFAULT_2
 62
8
  6
HIDDEN
 10
422.1019713872
 20
96.7668344523
  0
VERTEX
  8
DEFAULT_2
 62
8
  6
HIDDEN
 10
421.7775480381
 20
96.5563607231
  0
VERTEX
  8
DEFAULT_2
 62
8
  6
HIDDEN
 10
421.3948646061
 20
96.4824521782
  0
SEQEND
  0
POLYLINE
  8
DEFAULT_2
 62
8
  6
HIDDEN
 66
1
 70
0
  0
VERTEX
  8
DEFAULT_2
 62
8
  6
HIDDEN
 10
422.3948646061
 20
130.9741541412
  0
VERTEX
  8
DEFAULT_2
 62
8
  6
HIDDEN
 10
422.3187441612
 20
130.6877115197
  0
VERTEX
  8
DEFAULT_2
 62
8
  6
HIDDEN
 10
422.1019713873
 20
130.4448771154
  0
VERTEX
  8
DEFAULT_2
 62
8
  6
HIDDEN
 10
421.7775479841
 20
130.2826203642
  0
VERTEX
  8
DEFAULT_2
 62
8
  6
HIDDEN
 10
421.3948646061
 20
130.2256433933
  0
SEQEND
  0
POLYLINE
  8
0
 62
9
  6
CONTINUOUS
 66
1
 70
0
  0
VERTEX
  8
0
 62
9
  6
CONTINUOUS
 10
422.3948646061
 20
129.3163474956
  0
VERTEX
  8
0
 62
9
  6
CONTINUOUS
 10
422.3187441612
 20
129.0299048741
  0
VERTEX
  8
0
 62
9
  6
CONTINUOUS
 10
422.1019713873
 20
128.7870704698
  0
VERTEX
  8
0
 62
9
  6
CONTINUOUS
 10
421.7775479841
 20
128.6248137186
  0
VERTEX
  8
0
 62
9
  6
CONTINUOUS
 10
421.3948646061
 20
128.5678367471
  0
SEQEND
  0
POLYLINE
  8
DEFAULT_2
 62
8
  6
HIDDEN
 66
1
 70
0
  0
VERTEX
  8
DEFAULT_2
 62
8
  6
HIDDEN
 10
422.3948646061
 20
109.0910415698
  0
VERTEX
  8
DEFAULT_2
 62
8
  6
HIDDEN
 10
422.3187441387
 20
108.8045989076
  0
VERTEX
  8
DEFAULT_2
 62
8
  6
HIDDEN
 10
422.1019713872
 20
108.5617645439
  0
VERTEX
  8
DEFAULT_2
 62
8
  6
HIDDEN
 10
421.7775480381
 20
108.3995078096
  0
VERTEX
  8
DEFAULT_2
 62
8
  6
HIDDEN
 10
421.3948646061
 20
108.3425308216
  0
SEQEND
  0
POLYLINE
  8
DEFAULT_2
 62
8
  6
HIDDEN
 66
1
 70
0
  0
VERTEX
  8
DEFAULT_2
 62
8
  6
HIDDEN
 10
422.3948646061
 20
108.7282969909
  0
VERTEX
  8
DEFAULT_2
 62
8
  6
HIDDEN
 10
422.3187441925
 20
108.4505315639
  0
VERTEX
  8
DEFAULT_2
 62
8
  6
HIDDEN
 10
422.1019713866
 20
108.2150532302
  0
VERTEX
  8
DEFAULT_2
 62
8
  6
HIDDEN
 10
421.7775479067
 20
108.0577116622
  0
VERTEX
  8
DEFAULT_2
 62
8
  6
HIDDEN
 10
421.3948646061
 20
108.0024606893
  0
SEQEND
  0
POLYLINE
  8
DEFAULT_2
 62
8
  6
HIDDEN
 66
1
 70
0
  0
VERTEX
  8
DEFAULT_2
 62
8
  6
HIDDEN
 10
422.3948646061
 20
107.3325742071
  0
VERTEX
  8
DEFAULT_2
 62
8
  6
HIDDEN
 10
422.3187441386
 20
107.0548086856
  0
VERTEX
  8
DEFAULT_2
 62
8
  6
HIDDEN
 10
422.1019713873
 20
106.8193304469
  0
VERTEX
  8
DEFAULT_2
 62
8
  6
HIDDEN
 10
421.7775480385
 20
106.661988918
  0
VERTEX
  8
DEFAULT_2
 62
8
  6
HIDDEN
 10
421.3948646061
 20
106.6067379206
  0
SEQEND
  0
POLYLINE
  8
DEFAULT_2
 62
8
  6
HIDDEN
 66
1
 70
0
  0
VERTEX
  8
DEFAULT_2
 62
8
  6
HIDDEN
 10
422.3948646061
 20
130.7179898714
  0
VERTEX
  8
DEFAULT_2
 62
8
  6
HIDDEN
 10
422.3187441385
 20
130.4642238163
  0
VERTEX
  8
DEFAULT_2
 62
8
  6
HIDDEN
 10
422.1019713872
 20
130.2490913429
  0
SEQEND
  0
LINE
  8
DEFAULT_2
 62
8
  6
HIDDEN
 10
422.3948646061
 20
130.3437344973
 11
422.3187441413
 21
130.0899684466
  0
POLYLINE
  8
DEFAULT_2
 62
8
  6
HIDDEN
 66
1
 70
0
  0
VERTEX
  8
DEFAULT_2
 62
8
  6
HIDDEN
 10
422.1019713872
 20
176.832588586
  0
VERTEX
  8
DEFAULT_2
 62
8
  6
HIDDEN
 10
421.7775480383
 20
176.6299025427
  0
VERTEX
  8
DEFAULT_2
 62
8
  6
HIDDEN
 10
421.3948646061
 20
176.5587286692
  0
SEQEND
  0
LINE
  8
0
 62
9
  6
CONTINUOUS
 10
406.3948646061
 20
253.1129617975
 11
391.3948646061
 21
253.1129617975
  0
LINE
  8
DEFAULT_2
 62
8
  6
HIDDEN
 10
406.3948646061
 20
253.1129617975
 11
421.3948646061
 21
253.1129617975
  0
LINE
  8
DEFAULT_2
 62
8
  6
HIDDEN
 10
406.3948646061
 20
259.8259769702
 11
391.3948646061
 21
259.8259769702
  0
LINE
  8
0
 62
9
  6
CONTINUOUS
 10
406.3948646061
 20
259.8259769702
 11
421.3948646061
 21
259.8259769702
  0
POLYLINE
  8
DEFAULT_2
 62
8
  6
HIDDEN
 66
1
 70
0
  0
VERTEX
  8
DEFAULT_2
 62
8
  6
HIDDEN
 10
422.3948646061
 20
279.7034451082
  0
VERTEX
  8
DEFAULT_2
 62
8
  6
HIDDEN
 10
422.3187441612
 20
279.9208340443
  0
VERTEX
  8
DEFAULT_2
 62
8
  6
HIDDEN
 10
422.1019713873
 20
280.1051275427
  0
VERTEX
  8
DEFAULT_2
 62
8
  6
HIDDEN
 10
421.7775479841
 20
280.2282685136
  0
VERTEX
  8
DEFAULT_2
 62
8
  6
HIDDEN
 10
421.3948646061
 20
280.2715098553
  0
SEQEND
  0
POLYLINE
  8
0
 62
9
  6
CONTINUOUS
 66
1
 70
0
  0
VERTEX
  8
0
 62
9
  6
CONTINUOUS
 10
422.3948646061
 20
304.8045335009
  0
VERTEX
  8
0
 62
9
  6
CONTINUOUS
 10
422.3187441387
 20
305.0219224679
  0
VERTEX
  8
0
 62
9
  6
CONTINUOUS
 10
422.1019713872
 20
305.2062159355
  0
VERTEX
  8
0
 62
9
  6
CONTINUOUS
 10
421.7775480381
 20
305.3293568936
  0
VERTEX
  8
0
 62
9
  6
CONTINUOUS
 10
421.3948646061
 20
305.3725982476
  0
SEQEND
  0
LINE
  8
DEFAULT_2
 62
8
  6
HIDDEN
 10
422.3948646061
 20
313.9003084423
 11
422.3187441612
 21
314.2391577453
  0
POLYLINE
  8
DEFAULT_2
 62
8
  6
HIDDEN
 66
1
 70
0
  0
VERTEX
  8
DEFAULT_2
 62
8
  6
HIDDEN
 10
422.3948646061
 20
315.0621163725
  0
VERTEX
  8
DEFAULT_2
 62
8
  6
HIDDEN
 10
422.3187441612
 20
315.4009656754
  0
VERTEX
  8
DEFAULT_2
 62
8
  6
HIDDEN
 10
422.1019713873
 20
315.6882283326
  0
VERTEX
  8
DEFAULT_2
 62
8
  6
HIDDEN
 10
421.7775479841
 20
315.8801710915
  0
VERTEX
  8
DEFAULT_2
 62
8
  6
HIDDEN
 10
421.3948646061
 20
315.9475723983
  0
SEQEND
  0
POLYLINE
  8
0
 62
9
  6
CONTINUOUS
 66
1
 70
0
  0
VERTEX
  8
0
 62
9
  6
CONTINUOUS
 10
422.3948646061
 20
329.2362185669
  0
VERTEX
  8
0
 62
9
  6
CONTINUOUS
 10
422.3187441387
 20
329.5750679179
  0
VERTEX
  8
0
 62
9
  6
CONTINUOUS
 10
422.1019713872
 20
329.8623305272
  0
VERTEX
  8
0
 62
9
  6
CONTINUOUS
 10
421.7775480381
 20
330.0542732661
  0
VERTEX
  8
0
 62
9
  6
CONTINUOUS
 10
421.3948646061
 20
330.1216745926
  0
SEQEND
  0
POLYLINE
  8
DEFAULT_2
 62
8
  6
HIDDEN
 66
1
 70
0
  0
VERTEX
  8
DEFAULT_2
 62
8
  6
HIDDEN
 10
422.3948646061
 20
344.8915465668
  0
VERTEX
  8
DEFAULT_2
 62
8
  6
HIDDEN
 10
422.3187445354
 20
345.2544607203
  0
VERTEX
  8
DEFAULT_2
 62
8
  6
HIDDEN
 10
422.1019713873
 20
345.5621261625
  0
VERTEX
  8
DEFAULT_2
 62
8
  6
HIDDEN
 10
421.7775470806
 20
345.7677014078
  0
VERTEX
  8
DEFAULT_2
 62
8
  6
HIDDEN
 10
421.3948646061
 20
345.8398893459
  0
SEQEND
  0
LINE
  8
0
 62
9
  6
CONTINUOUS
 10
422.3948646061
 20
323.3110027137
 11
422.3187445354
 21
323.6887669915
  0
LINE
  8
0
 62
9
  6
CONTINUOUS
 10
422.3948646061
 20
84.6446616068
 11
422.3187445354
 21
84.3213472163
  0
POLYLINE
  8
DEFAULT_2
 62
8
  6
HIDDEN
 66
1
 70
0
  0
VERTEX
  8
DEFAULT_2
 62
8
  6
HIDDEN
 10
422.3948646061
 20
144.8968833973
  0
VERTEX
  8
DEFAULT_2
 62
8
  6
HIDDEN
 10
422.3187441387
 20
144.7611819821
  0
VERTEX
  8
DEFAULT_2
 62
8
  6
HIDDEN
 10
422.1019713872
 20
144.646139877
  0
VERTEX
  8
DEFAULT_2
 62
8
  6
HIDDEN
 10
421.7775480381
 20
144.5692712
  0
VERTEX
  8
DEFAULT_2
 62
8
  6
HIDDEN
 10
421.3948646061
 20
144.5422785103
  0
SEQEND
  0
POLYLINE
  8
0
 62
9
  6
CONTINUOUS
 66
1
 70
0
  0
VERTEX
  8
0
 62
9
  6
CONTINUOUS
 10
390.6877578249
 20
283.578685847
  0
VERTEX
  8
0
 62
9
  6
CONTINUOUS
 10
391.0121811801
 20
283.400285368
  0
VERTEX
  8
0
 62
9
  6
CONTINUOUS
 10
391.3948646061
 20
283.3376394535
  0
SEQEND
  0
POLYLINE
  8
0
 62
9
  6
CONTINUOUS
 66
1
 70
0
  0
VERTEX
  8
0
 62
9
  6
CONTINUOUS
 10
422.3948646061
 20
259.70544029
  0
VERTEX
  8
0
 62
9
  6
CONTINUOUS
 10
422.3187441387
 20
259.7515676805
  0
VERTEX
  8
0
 62
9
  6
CONTINUOUS
 10
422.1019713872
 20
259.790672594
  0
VERTEX
  8
0
 62
9
  6
CONTINUOUS
 10
421.7775480381
 20
259.8168016618
  0
VERTEX
  8
0
 62
9
  6
CONTINUOUS
 10
421.3948646061
 20
259.8259769702
  0
SEQEND
  0
POLYLINE
  8
DEFAULT_2
 62
8
  6
HIDDEN
 66
1
 70
0
  0
VERTEX
  8
DEFAULT_2
 62
8
  6
HIDDEN
 10
422.3948646061
 20
336.6212306825
  0
VERTEX
  8
DEFAULT_2
 62
8
  6
HIDDEN
 10
422.3187445354
 20
336.8861554528
  0
VERTEX
  8
DEFAULT_2
 62
8
  6
HIDDEN
 10
422.1019713873
 20
337.1107490538
  0
VERTEX
  8
DEFAULT_2
 62
8
  6
HIDDEN
 10
421.7775470806
 20
337.2608175318
  0
VERTEX
  8
DEFAULT_2
 62
8
  6
HIDDEN
 10
421.3948646061
 20
337.3135142483
  0
SEQEND
  0
POLYLINE
  8
0
 62
9
  6
CONTINUOUS
 66
1
 70
0
  0
VERTEX
  8
0
 62
9
  6
CONTINUOUS
 10
422.3948646061
 20
107.5589397882
  0
VERTEX
  8
0
 62
9
  6
CONTINUOUS
 10
422.3187445354
 20
107.3678011028
  0
VERTEX
  8
0
 62
9
  6
CONTINUOUS
 10
422.1019713873
 20
107.2057606654
  0
SEQEND
  0
POLYLINE
  8
DEFAULT_2
 62
8
  6
HIDDEN
 66
1
 70
0
  0
VERTEX
  8
DEFAULT_2
 62
8
  6
HIDDEN
 10
390.3948646061
 20
101.1217727149
  0
VERTEX
  8
DEFAULT_2
 62
8
  6
HIDDEN
 10
390.4709850737
 20
101.2133548548
  0
VERTEX
  8
DEFAULT_2
 62
8
  6
HIDDEN
 10
390.6877578251
 20
101.290994444
  0
VERTEX
  8
DEFAULT_2
 62
8
  6
HIDDEN
 10
391.0121811739
 20
101.342871559
  0
VERTEX
  8
DEFAULT_2
 62
8
  6
HIDDEN
 10
391.3948646061
 20
101.3610883792
  0
SEQEND
  0
POLYLINE
  8
DEFAULT_2
 62
8
  6
HIDDEN
 66
1
 70
0
  0
VERTEX
  8
DEFAULT_2
 62
8
  6
HIDDEN
 10
390.3948646061
 20
100.6363018062
  0
VERTEX
  8
DEFAULT_2
 62
8
  6
HIDDEN
 10
390.470985071
 20
100.7278839445
  0
VERTEX
  8
DEFAULT_2
 62
8
  6
HIDDEN
 10
390.6877578249
 20
100.8055235353
  0
VERTEX
  8
DEFAULT_2
 62
8
  6
HIDDEN
 10
391.0121811801
 20
100.8574006509
  0
VERTEX
  8
DEFAULT_2
 62
8
  6
HIDDEN
 10
391.3948646061
 20
100.8756174705
  0
SEQEND
  0
LINE
  8
DEFAULT_2
 62
8
  6
HIDDEN
 10
406.3948646061
 20
273.1891580574
 11
391.3948646061
 21
273.1891580574
  0
LINE
  8
0
 62
9
  6
CONTINUOUS
 10
406.3948646061
 20
273.1891580574
 11
421.3948646061
 21
273.1891580574
  0
LINE
  8
DEFAULT_2
 62
8
  6
HIDDEN
 10
406.3948646061
 20
274.4829478195
 11
391.3948646061
 21
274.4829478195
  0
LINE
  8
0
 62
9
  6
CONTINUOUS
 10
406.3948646061
 20
274.4829478195
 11
421.3948646061
 21
274.4829478195
  0
LINE
  8
DEFAULT_2
 62
8
  6
HIDDEN
 10
422.8948646061
 20
275.4308467033
 11
422.3948646061
 21
275.4308467033
  0
LINE
  8
DEFAULT_2
 62
8
  6
HIDDEN
 10
422.8948646061
 20
275.4769656729
 11
422.3948646061
 21
275.4769656729
  0
LINE
  8
DEFAULT_2
 62
8
  6
HIDDEN
 10
422.8948646061
 20
275.5264622292
 11
422.3948646061
 21
275.5264622292
  0
LINE
  8
DEFAULT_2
 62
8
  6
HIDDEN
 10
422.8948646061
 20
275.6340732599
 11
422.3948646061
 21
275.6340732599
  0
LINE
  8
DEFAULT_2
 62
8
  6
HIDDEN
 10
422.8948646061
 20
275.8440549129
 11
422.3948646061
 21
275.8440549129
  0
LINE
  8
DEFAULT_2
 62
8
  6
HIDDEN
 10
422.8948646061
 20
276.0285308813
 11
422.3948646061
 21
276.0285308813
  0
LINE
  8
DEFAULT_2
 62
8
  6
HIDDEN
 10
422.8948646061
 20
276.1890160279
 11
422.3948646061
 21
276.1890160279
  0
LINE
  8
DEFAULT_2
 62
8
  6
HIDDEN
 10
422.8948646061
 20
276.2692585948
 11
422.3948646061
 21
276.2692585948
  0
LINE
  8
DEFAULT_2
 62
8
  6
HIDDEN
 10
422.8948646061
 20
276.4724850802
 11
422.3948646061
 21
276.4724850802
  0
LINE
  8
DEFAULT_2
 62
8
  6
HIDDEN
 10
422.8948646061
 20
276.5339771429
 11
422.3948646061
 21
276.5339771429
  0
LINE
  8
DEFAULT_2
 62
8
  6
HIDDEN
 10
422.8948646061
 20
276.9779313417
 11
422.3948646061
 21
276.9779313417
  0
LINE
  8
DEFAULT_2
 62
8
  6
HIDDEN
 10
422.8948646061
 20
277.1504117734
 11
422.3948646061
 21
277.1504117734
  0
LINE
  8
DEFAULT_2
 62
8
  6
HIDDEN
 10
391.3948646061
 20
277.3501796836
 11
421.3948646061
 21
277.3501796836
  0
LINE
  8
DEFAULT_2
 62
8
  6
HIDDEN
 10
422.8948646061
 20
277.5141235442
 11
422.3948646061
 21
277.5141235442
  0
LINE
  8
DEFAULT_2
 62
8
  6
HIDDEN
 10
422.8948646061
 20
277.5943660014
 11
422.3948646061
 21
277.5943660014
  0
POLYLINE
  8
DEFAULT_2
 62
8
  6
HIDDEN
 66
1
 70
0
  0
VERTEX
  8
DEFAULT_2
 62
8
  6
HIDDEN
 10
422.3948646061
 20
315.1625070032
  0
VERTEX
  8
DEFAULT_2
 62
8
  6
HIDDEN
 10
422.3187441385
 20
315.3403488619
  0
VERTEX
  8
DEFAULT_2
 62
8
  6
HIDDEN
 10
422.1019713872
 20
315.4911159096
  0
VERTEX
  8
DEFAULT_2
 62
8
  6
HIDDEN
 10
421.7775480383
 20
315.5918552301
  0
VERTEX
  8
DEFAULT_2
 62
8
  6
HIDDEN
 10
421.3948646061
 20
315.6272301752
  0
SEQEND
  0
POLYLINE
  8
DEFAULT_2
 62
8
  6
HIDDEN
 66
1
 70
0
  0
VERTEX
  8
DEFAULT_2
 62
8
  6
HIDDEN
 10
422.3948646061
 20
315.605235016
  0
VERTEX
  8
DEFAULT_2
 62
8
  6
HIDDEN
 10
422.3187441413
 20
315.7830768716
  0
VERTEX
  8
DEFAULT_2
 62
8
  6
HIDDEN
 10
422.1019713873
 20
315.9338439223
  0
VERTEX
  8
DEFAULT_2
 62
8
  6
HIDDEN
 10
421.7775480321
 20
316.0345832442
  0
VERTEX
  8
DEFAULT_2
 62
8
  6
HIDDEN
 10
421.3948646061
 20
316.069958188
  0
SEQEND
  0
POLYLINE
  8
DEFAULT_2
 62
8
  6
HIDDEN
 66
1
 70
0
  0
VERTEX
  8
DEFAULT_2
 62
8
  6
HIDDEN
 10
422.3948646061
 20
334.7614534708
  0
VERTEX
  8
DEFAULT_2
 62
8
  6
HIDDEN
 10
422.3187441925
 20
334.968151184
  0
VERTEX
  8
DEFAULT_2
 62
8
  6
HIDDEN
 10
422.1019713866
 20
335.1433811744
  0
VERTEX
  8
DEFAULT_2
 62
8
  6
HIDDEN
 10
421.7775479067
 20
335.2604660925
  0
VERTEX
  8
DEFAULT_2
 62
8
  6
HIDDEN
 10
421.3948646061
 20
335.3015808269
  0
SEQEND
  0
POLYLINE
  8
DEFAULT_2
 62
8
  6
HIDDEN
 66
1
 70
0
  0
VERTEX
  8
DEFAULT_2
 62
8
  6
HIDDEN
 10
422.3948646061
 20
336.4690745004
  0
VERTEX
  8
DEFAULT_2
 62
8
  6
HIDDEN
 10
422.3187441386
 20
336.6757722839
  0
VERTEX
  8
DEFAULT_2
 62
8
  6
HIDDEN
 10
422.1019713873
 20
336.8510022036
  0
SEQEND
  0
POLYLINE
  8
DEFAULT_2
 62
8
  6
HIDDEN
 66
1
 70
0
  0
VERTEX
  8
DEFAULT_2
 62
8
  6
HIDDEN
 10
422.3187441413
 20
130.0899684466
  0
VERTEX
  8
DEFAULT_2
 62
8
  6
HIDDEN
 10
422.1019713873
 20
129.8748359689
  0
VERTEX
  8
DEFAULT_2
 62
8
  6
HIDDEN
 10
421.7775480321
 20
129.7310890441
  0
VERTEX
  8
DEFAULT_2
 62
8
  6
HIDDEN
 10
421.3948646061
 20
129.6806118391
  0
SEQEND
  0
LINE
  8
DEFAULT_2
 62
8
  6
HIDDEN
 10
406.3948646061
 20
277.6232513554
 11
391.3948646061
 21
277.6232513554
  0
LINE
  8
0
 62
9
  6
CONTINUOUS
 10
406.3948646061
 20
277.6232513554
 11
421.3948646061
 21
277.6232513554
  0
LINE
  8
DEFAULT_2
 62
8
  6
HIDDEN
 10
391.3948646061
 20
277.7042119518
 11
421.3948646061
 21
277.7042119518
  0
LINE
  8
DEFAULT_2
 62
8
  6
HIDDEN
 10
422.8948646061
 20
277.9239541362
 11
422.3948646061
 21
277.9239541362
  0
LINE
  8
DEFAULT_2
 62
8
  6
HIDDEN
 10
391.3948646061
 20
277.9882443252
 11
421.3948646061
 21
277.9882443252
  0
LINE
  8
DEFAULT_2
 62
8
  6
HIDDEN
 10
422.8948646061
 20
278.0638258683
 11
422.3948646061
 21
278.0638258683
  0
LINE
  8
DEFAULT_2
 62
8
  6
HIDDEN
 10
422.8948646061
 20
278.1954277323
 11
422.3948646061
 21
278.1954277323
  0
LINE
  8
DEFAULT_2
 62
8
  6
HIDDEN
 10
391.3948646061
 20
278.2140501902
 11
421.3948646061
 21
278.2140501902
  0
LINE
  8
DEFAULT_2
 62
8
  6
HIDDEN
 10
422.8948646061
 20
278.2261736927
 11
422.3948646061
 21
278.2261736927
  0
LINE
  8
DEFAULT_2
 62
8
  6
HIDDEN
 10
422.8948646061
 20
278.5557620083
 11
422.3948646061
 21
278.5557620083
  0
LINE
  8
DEFAULT_2
 62
8
  6
HIDDEN
 10
422.8948646061
 20
278.6513773164
 11
422.3948646061
 21
278.6513773164
  0
LINE
  8
DEFAULT_2
 62
8
  6
HIDDEN
 10
422.8948646061
 20
278.6956336048
 11
422.3948646061
 21
278.6956336048
  0
LINE
  8
DEFAULT_2
 62
8
  6
HIDDEN
 10
422.8948646061
 20
278.7811164704
 11
422.3948646061
 21
278.7811164704
  0
LINE
  8
DEFAULT_2
 62
8
  6
HIDDEN
 10
422.8948646061
 20
278.9689701048
 11
422.3948646061
 21
278.9689701048
  0
LINE
  8
DEFAULT_2
 62
8
  6
HIDDEN
 10
422.8948646061
 20
279.5307783425
 11
422.3948646061
 21
279.5307783425
  0
LINE
  8
DEFAULT_2
 62
8
  6
HIDDEN
 10
422.8948646061
 20
280.1249841093
 11
422.3948646061
 21
280.1249841093
  0
LINE
  8
0
 62
9
  6
CONTINUOUS
 10
406.3948646061
 20
280.2715098549
 11
391.3948646061
 21
280.2715098549
  0
LINE
  8
DEFAULT_2
 62
8
  6
HIDDEN
 10
406.3948646061
 20
280.2715098549
 11
421.3948646061
 21
280.2715098549
  0
LINE
  8
DEFAULT_2
 62
8
  6
HIDDEN
 10
406.3948646061
 20
280.7762484374
 11
391.3948646061
 21
280.7762484374
  0
LINE
  8
0
 62
7
  6
CONTINUOUS
 10
406.3948646061
 20
280.7762484374
 11
421.3948646061
 21
280.7762484374
  0
LINE
  8
DEFAULT_2
 62
8
  6
HIDDEN
 10
422.8948646061
 20
281.2228645058
 11
422.3948646061
 21
281.2228645058
  0
LINE
  8
DEFAULT_2
 62
8
  6
HIDDEN
 10
422.8948646061
 20
281.8546723779
 11
422.3948646061
 21
281.8546723779
  0
LINE
  8
DEFAULT_2
 62
8
  6
HIDDEN
 10
422.8948646061
 20
282.2641244615
 11
422.3948646061
 21
282.2641244615
  0
LINE
  8
DEFAULT_2
 62
8
  6
HIDDEN
 10
422.8948646061
 20
282.8583298882
 11
422.3948646061
 21
282.8583298882
  0
LINE
  8
0
 62
9
  6
CONTINUOUS
 10
406.3948646061
 20
283.0536070802
 11
391.3948646061
 21
283.0536070802
  0
LINE
  8
DEFAULT_2
 62
8
  6
HIDDEN
 10
406.3948646061
 20
283.0536070802
 11
421.3948646061
 21
283.0536070802
  0
LINE
  8
0
 62
9
  6
CONTINUOUS
 10
406.3948646061
 20
283.3376394535
 11
391.3948646061
 21
283.3376394535
  0
LINE
  8
DEFAULT_2
 62
8
  6
HIDDEN
 10
406.3948646061
 20
283.3376394535
 11
421.3948646061
 21
283.3376394535
  0
LINE
  8
DEFAULT_2
 62
8
  6
HIDDEN
 10
422.8948646061
 20
283.34614074
 11
422.3948646061
 21
283.34614074
  0
LINE
  8
DEFAULT_2
 62
8
  6
HIDDEN
 10
422.8948646061
 20
283.7594724124
 11
422.3948646061
 21
283.7594724124
  0
LINE
  8
DEFAULT_2
 62
8
  6
HIDDEN
 10
422.8948646061
 20
283.8234965675
 11
422.3948646061
 21
283.8234965675
  0
LINE
  8
DEFAULT_2
 62
8
  6
HIDDEN
 10
422.8948646061
 20
283.9413417058
 11
422.3948646061
 21
283.9413417058
  0
LINE
  8
DEFAULT_2
 62
8
  6
HIDDEN
 10
422.8948646061
 20
284.3280236785
 11
422.3948646061
 21
284.3280236785
  0
LINE
  8
DEFAULT_2
 62
8
  6
HIDDEN
 10
422.8948646061
 20
284.4186975332
 11
422.3948646061
 21
284.4186975332
  0
LINE
  8
DEFAULT_2
 62
8
  6
HIDDEN
 10
422.8948646061
 20
284.5315649763
 11
422.3948646061
 21
284.5315649763
  0
LINE
  8
DEFAULT_2
 62
8
  6
HIDDEN
 10
422.8948646061
 20
284.8920712045
 11
422.3948646061
 21
284.8920712045
  0
LINE
  8
DEFAULT_2
 62
8
  6
HIDDEN
 10
422.8948646061
 20
285.0094184033
 11
422.3948646061
 21
285.0094184033
  0
LINE
  8
DEFAULT_2
 62
8
  6
HIDDEN
 10
422.8948646061
 20
285.125770403
 11
422.3948646061
 21
285.125770403
  0
LINE
  8
DEFAULT_2
 62
8
  6
HIDDEN
 10
422.8948646061
 20
285.4887659889
 11
422.3948646061
 21
285.4887659889
  0
LINE
  8
DEFAULT_2
 62
8
  6
HIDDEN
 10
422.8948646061
 20
285.60362451
 11
422.3948646061
 21
285.60362451
  0
LINE
  8
DEFAULT_2
 62
8
  6
HIDDEN
 10
422.8948646061
 20
285.725950424
 11
422.3948646061
 21
285.725950424
  0
LINE
  8
DEFAULT_2
 62
8
  6
HIDDEN
 10
422.8948646061
 20
285.8428000233
 11
422.3948646061
 21
285.8428000233
  0
LINE
  8
DEFAULT_2
 62
8
  6
HIDDEN
 10
422.3187441386
 20
301.3191070984
 11
422.1019713873
 21
301.601148517
  0
POLYLINE
  8
DEFAULT_2
 62
8
  6
HIDDEN
 66
1
 70
0
  0
VERTEX
  8
DEFAULT_2
 62
8
  6
HIDDEN
 10
422.3948646061
 20
300.3946847619
  0
VERTEX
  8
DEFAULT_2
 62
8
  6
HIDDEN
 10
422.3187445354
 20
300.5009290768
  0
VERTEX
  8
DEFAULT_2
 62
8
  6
HIDDEN
 10
422.1019713873
 20
300.5909991493
  0
VERTEX
  8
DEFAULT_2
 62
8
  6
HIDDEN
 10
421.7775470806
 20
300.6511819801
  0
VERTEX
  8
DEFAULT_2
 62
8
  6
HIDDEN
 10
421.3948646061
 20
300.6723152924
  0
SEQEND
  0
LINE
  8
DEFAULT_2
 62
8
  6
HIDDEN
 10
422.8948646061
 20
311.990414662
 11
421.3948646061
 21
314.5884908733
  0
LINE
  8
DEFAULT_2
 62
8
  6
HIDDEN
 10
422.8948646061
 20
287.7416774008
 11
422.3948646061
 21
287.7416774008
  0
LINE
  8
DEFAULT_2
 62
8
  6
HIDDEN
 10
422.8948646061
 20
288.3102286668
 11
422.3948646061
 21
288.3102286668
  0
LINE
  8
DEFAULT_2
 62
8
  6
HIDDEN
 10
422.8948646061
 20
288.9861166993
 11
422.3948646061
 21
288.9861166993
  0
LINE
  8
DEFAULT_2
 62
8
  6
HIDDEN
 10
422.8948646061
 20
289.5546679654
 11
422.3948646061
 21
289.5546679654
  0
LINE
  8
DEFAULT_2
 62
8
  6
HIDDEN
 10
422.8948646061
 20
289.6083361743
 11
422.3948646061
 21
289.6083361743
  0
LINE
  8
DEFAULT_2
 62
8
  6
HIDDEN
 10
422.8948646061
 20
290.1768874403
 11
422.3948646061
 21
290.1768874403
  0
LINE
  8
DEFAULT_2
 62
8
  6
HIDDEN
 10
422.8948646061
 20
290.3660843619
 11
422.3948646061
 21
290.3660843619
  0
LINE
  8
DEFAULT_2
 62
8
  6
HIDDEN
 10
422.8948646061
 20
290.9415165707
 11
422.3948646061
 21
290.9415165707
  0
LINE
  8
DEFAULT_2
 62
8
  6
HIDDEN
 10
422.8948646061
 20
293.6268665125
 11
422.3948646061
 21
293.6268665125
  0
LINE
  8
DEFAULT_2
 62
8
  6
HIDDEN
 10
422.8948646061
 20
294.2022987212
 11
422.3948646061
 21
294.2022987212
  0
LINE
  8
DEFAULT_2
 62
8
  6
HIDDEN
 10
422.8948646061
 20
294.9152941694
 11
422.3948646061
 21
294.9152941694
  0
LINE
  8
DEFAULT_2
 62
8
  6
HIDDEN
 10
422.8948646061
 20
294.9291510902
 11
422.3948646061
 21
294.9291510902
  0
LINE
  8
DEFAULT_2
 62
8
  6
HIDDEN
 10
422.3187441612
 20
314.2391577453
 11
422.1019713873
 21
314.5264204025
  0
POLYLINE
  8
0
 62
9
  6
CONTINUOUS
 66
1
 70
0
  0
VERTEX
  8
0
 62
9
  6
CONTINUOUS
 10
422.3187445354
 20
323.6887669915
  0
VERTEX
  8
0
 62
9
  6
CONTINUOUS
 10
422.1019713873
 20
324.0090218298
  0
VERTEX
  8
0
 62
9
  6
CONTINUOUS
 10
421.7775470806
 20
324.2230090312
  0
VERTEX
  8
0
 62
9
  6
CONTINUOUS
 10
421.3948646061
 20
324.2981508042
  0
SEQEND
  0
POLYLINE
  8
DEFAULT_2
 62
8
  6
HIDDEN
 66
1
 70
0
  0
VERTEX
  8
DEFAULT_2
 62
8
  6
HIDDEN
 10
422.3948646061
 20
87.086775336
  0
VERTEX
  8
DEFAULT_2
 62
8
  6
HIDDEN
 10
422.3187441925
 20
86.9631578563
  0
VERTEX
  8
DEFAULT_2
 62
8
  6
HIDDEN
 10
422.1019713866
 20
86.8583599395
  0
VERTEX
  8
DEFAULT_2
 62
8
  6
HIDDEN
 10
421.7775479067
 20
86.788336221
  0
VERTEX
  8
DEFAULT_2
 62
8
  6
HIDDEN
 10
421.3948646061
 20
86.763747164
  0
SEQEND
  0
POLYLINE
  8
DEFAULT_2
 62
8
  6
HIDDEN
 66
1
 70
0
  0
VERTEX
  8
DEFAULT_2
 62
8
  6
HIDDEN
 10
422.3948646061
 20
85.1664967879
  0
VERTEX
  8
DEFAULT_2
 62
8
  6
HIDDEN
 10
422.3187441386
 20
85.0428792663
  0
VERTEX
  8
DEFAULT_2
 62
8
  6
HIDDEN
 10
422.1019713873
 20
84.9380813917
  0
VERTEX
  8
DEFAULT_2
 62
8
  6
HIDDEN
 10
421.7775480385
 20
84.8680576906
  0
VERTEX
  8
DEFAULT_2
 62
8
  6
HIDDEN
 10
421.3948646061
 20
84.8434686367
  0
SEQEND
  0
POLYLINE
  8
DEFAULT_2
 62
8
  6
HIDDEN
 66
1
 70
0
  0
VERTEX
  8
DEFAULT_2
 62
8
  6
HIDDEN
 10
422.3948646061
 20
103.1559558614
  0
VERTEX
  8
DEFAULT_2
 62
8
  6
HIDDEN
 10
422.3187441385
 20
103.0643737215
  0
VERTEX
  8
DEFAULT_2
 62
8
  6
HIDDEN
 10
422.1019713872
 20
102.9867341323
  0
SEQEND
  0
POLYLINE
  8
DEFAULT_2
 62
8
  6
HIDDEN
 66
1
 70
0
  0
VERTEX
  8
DEFAULT_2
 62
8
  6
HIDDEN
 10
422.3948646061
 20
102.6704849526
  0
VERTEX
  8
DEFAULT_2
 62
8
  6
HIDDEN
 10
422.3187441413
 20
102.5789028143
  0
VERTEX
  8
DEFAULT_2
 62
8
  6
HIDDEN
 10
422.1019713873
 20
102.5012632236
  0
VERTEX
  8
DEFAULT_2
 62
8
  6
HIDDEN
 10
421.7775480321
 20
102.449386108
  0
VERTEX
  8
DEFAULT_2
 62
8
  6
HIDDEN
 10
421.3948646061
 20
102.4311692884
  0
SEQEND
  0
POLYLINE
  8
0
 62
9
  6
CONTINUOUS
 66
1
 70
0
  0
VERTEX
  8
0
 62
9
  6
CONTINUOUS
 10
390.3948646061
 20
94.6543601483
  0
VERTEX
  8
0
 62
9
  6
CONTINUOUS
 10
390.4709850197
 20
94.713209891
  0
VERTEX
  8
0
 62
9
  6
CONTINUOUS
 10
390.6877578257
 20
94.7631003308
  0
VERTEX
  8
0
 62
9
  6
CONTINUOUS
 10
391.0121813055
 20
94.7964360518
  0
VERTEX
  8
0
 62
9
  6
CONTINUOUS
 10
391.3948646061
 20
94.8081419673
  0
SEQEND
  0
POLYLINE
  8
0
 62
9
  6
CONTINUOUS
 66
1
 70
0
  0
VERTEX
  8
0
 62
9
  6
CONTINUOUS
 10
390.3948646061
 20
92.6494385096
  0
VERTEX
  8
0
 62
9
  6
CONTINUOUS
 10
390.4709850736
 20
92.7082882722
  0
VERTEX
  8
0
 62
9
  6
CONTINUOUS
 10
390.6877578249
 20
92.7581786919
  0
VERTEX
  8
0
 62
9
  6
CONTINUOUS
 10
391.0121811738
 20
92.7915144046
  0
VERTEX
  8
0
 62
9
  6
CONTINUOUS
 10
391.3948646061
 20
92.8032203503
  0
SEQEND
  0
POLYLINE
  8
DEFAULT_2
 62
8
  6
HIDDEN
 66
1
 70
0
  0
VERTEX
  8
DEFAULT_2
 62
8
  6
HIDDEN
 10
422.1019713872
 20
130.2490913429
  0
VERTEX
  8
DEFAULT_2
 62
8
  6
HIDDEN
 10
421.7775480383
 20
130.1053444199
  0
VERTEX
  8
DEFAULT_2
 62
8
  6
HIDDEN
 10
421.3948646061
 20
130.0548672132
  0
SEQEND
  0
LINE
  8
DEFAULT_2
 62
8
  6
HIDDEN
 10
422.8948646061
 20
295.3374770141
 11
422.3948646061
 21
295.3374770141
  0
LINE
  8
DEFAULT_2
 62
8
  6
HIDDEN
 10
422.8948646061
 20
295.9129092229
 11
422.3948646061
 21
295.9129092229
  0
LINE
  8
DEFAULT_2
 62
8
  6
HIDDEN
 10
422.8948646061
 20
296.1820267411
 11
422.3948646061
 21
296.1820267411
  0
LINE
  8
DEFAULT_2
 62
8
  6
HIDDEN
 10
422.8948646061
 20
296.3028303842
 11
422.3948646061
 21
296.3028303842
  0
LINE
  8
DEFAULT_2
 62
8
  6
HIDDEN
 10
422.8948646061
 20
296.9088802077
 11
422.3948646061
 21
296.9088802077
  0
LINE
  8
DEFAULT_2
 62
8
  6
HIDDEN
 10
422.8948646061
 20
297.4843124165
 11
422.3948646061
 21
297.4843124165
  0
LINE
  8
DEFAULT_2
 62
8
  6
HIDDEN
 10
422.8948646061
 20
297.9610679985
 11
422.3948646061
 21
297.9610679985
  0
LINE
  8
DEFAULT_2
 62
8
  6
HIDDEN
 10
422.8948646061
 20
298.5967286069
 11
422.3948646061
 21
298.5967286069
  0
LINE
  8
DEFAULT_2
 62
8
  6
HIDDEN
 10
422.8948646061
 20
298.8409750804
 11
422.3948646061
 21
298.8409750804
  0
LINE
  8
DEFAULT_2
 62
8
  6
HIDDEN
 10
391.3948646061
 20
298.8935026583
 11
421.3948646061
 21
298.8935026583
  0
LINE
  8
DEFAULT_2
 62
8
  6
HIDDEN
 10
422.8948646061
 20
299.9532762256
 11
422.3948646061
 21
299.9532762256
  0
LINE
  8
DEFAULT_2
 62
8
  6
HIDDEN
 10
422.8948646061
 20
300.1696623582
 11
422.3948646061
 21
300.1696623582
  0
LINE
  8
DEFAULT_2
 62
8
  6
HIDDEN
 10
422.8948646061
 20
300.3522800861
 11
422.3948646061
 21
300.3522800861
  0
LINE
  8
DEFAULT_2
 62
8
  6
HIDDEN
 10
391.3948646061
 20
300.6116622735
 11
421.3948646061
 21
300.6116622735
  0
LINE
  8
0
 62
9
  6
CONTINUOUS
 10
406.3948646061
 20
300.6723152311
 11
391.3948646061
 21
300.6723152311
  0
LINE
  8
DEFAULT_2
 62
8
  6
HIDDEN
 10
406.3948646061
 20
300.6723152311
 11
421.3948646061
 21
300.6723152311
  0
LINE
  8
DEFAULT_2
 62
8
  6
HIDDEN
 10
422.8948646061
 20
300.745094567
 11
422.3948646061
 21
300.745094567
  0
LINE
  8
DEFAULT_2
 62
8
  6
HIDDEN
 10
391.3948646061
 20
300.8530686271
 11
421.3948646061
 21
300.8530686271
  0
LINE
  8
DEFAULT_2
 62
8
  6
HIDDEN
 10
422.8948646061
 20
300.8709627066
 11
422.3948646061
 21
300.8709627066
  0
LINE
  8
DEFAULT_2
 62
8
  6
HIDDEN
 10
422.8948646061
 20
301.3430866972
 11
422.3948646061
 21
301.3430866972
  0
LINE
  8
DEFAULT_2
 62
8
  6
HIDDEN
 10
422.8948646061
 20
301.6223850389
 11
422.3948646061
 21
301.6223850389
  0
LINE
  8
DEFAULT_2
 62
8
  6
HIDDEN
 10
422.8948646061
 20
301.7154739057
 11
422.3948646061
 21
301.7154739057
  0
LINE
  8
DEFAULT_2
 62
8
  6
HIDDEN
 10
422.8948646061
 20
301.8078996609
 11
422.3948646061
 21
301.8078996609
  0
LINE
  8
DEFAULT_2
 62
8
  6
HIDDEN
 10
391.3948646061
 20
301.8557788302
 11
421.3948646061
 21
301.8557788302
  0
LINE
  8
0
 62
7
  6
CONTINUOUS
 10
406.3948646061
 20
302.1170542927
 11
391.3948646061
 21
302.1170542927
  0
LINE
  8
DEFAULT_2
 62
8
  6
HIDDEN
 10
406.3948646061
 20
302.1170542927
 11
421.3948646061
 21
302.1170542927
  0
LINE
  8
DEFAULT_2
 62
8
  6
HIDDEN
 10
422.8948646061
 20
302.1676576329
 11
422.3948646061
 21
302.1676576329
  0
LINE
  8
DEFAULT_2
 62
8
  6
HIDDEN
 10
422.8948646061
 20
302.2474256515
 11
422.3948646061
 21
302.2474256515
  0
LINE
  8
DEFAULT_2
 62
8
  6
HIDDEN
 10
422.8948646061
 20
302.3155287937
 11
422.3948646061
 21
302.3155287937
  0
LINE
  8
DEFAULT_2
 62
8
  6
HIDDEN
 10
422.8948646061
 20
302.4536021219
 11
422.3948646061
 21
302.4536021219
  0
LINE
  8
DEFAULT_2
 62
8
  6
HIDDEN
 10
422.8948646061
 20
302.6996343159
 11
422.3948646061
 21
302.6996343159
  0
LINE
  8
DEFAULT_2
 62
8
  6
HIDDEN
 10
422.8948646061
 20
302.9855789121
 11
422.3948646061
 21
302.9855789121
  0
LINE
  8
DEFAULT_2
 62
8
  6
HIDDEN
 10
422.8948646061
 20
303.1584641368
 11
422.3948646061
 21
303.1584641368
  0
LINE
  8
DEFAULT_2
 62
8
  6
HIDDEN
 10
422.8948646061
 20
303.5441473098
 11
422.3948646061
 21
303.5441473098
  0
LINE
  8
DEFAULT_2
 62
8
  6
HIDDEN
 10
422.8948646061
 20
303.6372361231
 11
422.3948646061
 21
303.6372361231
  0
LINE
  8
DEFAULT_2
 62
8
  6
HIDDEN
 10
422.8948646061
 20
303.7037367844
 11
422.3948646061
 21
303.7037367844
  0
LINE
  8
DEFAULT_2
 62
8
  6
HIDDEN
 10
422.8948646061
 20
303.7502952803
 11
422.3948646061
 21
303.7502952803
  0
LINE
  8
DEFAULT_2
 62
8
  6
HIDDEN
 10
421.7775480385
 20
301.7896025679
 11
421.3948646061
 21
301.8557788302
  0
POLYLINE
  8
DEFAULT_2
 62
8
  6
HIDDEN
 66
1
 70
0
  0
VERTEX
  8
DEFAULT_2
 62
8
  6
HIDDEN
 10
422.1019713866
 20
300.5984383145
  0
VERTEX
  8
DEFAULT_2
 62
8
  6
HIDDEN
 10
421.7775479067
 20
300.7868924122
  0
VERTEX
  8
DEFAULT_2
 62
8
  6
HIDDEN
 10
421.3948646061
 20
300.8530686379
  0
SEQEND
  0
LINE
  8
DEFAULT_2
 62
8
  6
HIDDEN
 10
422.1019713873
 20
301.601148517
 11
421.7775480385
 21
301.7896025679
  0
LINE
  8
0
 62
9
  6
CONTINUOUS
 10
422.3187445354
 20
84.3213472163
 11
422.1019713873
 21
84.0472530154
  0
LINE
  8
DEFAULT_2
 62
8
  6
HIDDEN
 10
422.8948646061
 20
304.1359784533
 11
422.3948646061
 21
304.1359784533
  0
LINE
  8
DEFAULT_2
 62
8
  6
HIDDEN
 10
422.8948646061
 20
304.5017385568
 11
422.3948646061
 21
304.5017385568
  0
LINE
  8
DEFAULT_2
 62
8
  6
HIDDEN
 10
422.8948646061
 20
304.5283076129
 11
422.3948646061
 21
304.5283076129
  0
LINE
  8
DEFAULT_2
 62
8
  6
HIDDEN
 10
422.8948646061
 20
304.5548957649
 11
422.3948646061
 21
304.5548957649
  0
LINE
  8
DEFAULT_2
 62
8
  6
HIDDEN
 10
422.8948646061
 20
304.6024733949
 11
422.3948646061
 21
304.6024733949
  0
LINE
  8
DEFAULT_2
 62
8
  6
HIDDEN
 10
422.8948646061
 20
304.7117736031
 11
422.3948646061
 21
304.7117736031
  0
LINE
  8
DEFAULT_2
 62
8
  6
HIDDEN
 10
422.8948646061
 20
304.8341941602
 11
422.3948646061
 21
304.8341941602
  0
LINE
  8
DEFAULT_2
 62
8
  6
HIDDEN
 10
422.8948646061
 20
304.8647718586
 11
422.3948646061
 21
304.8647718586
  0
LINE
  8
DEFAULT_2
 62
8
  6
HIDDEN
 10
422.8948646061
 20
304.9272829734
 11
422.3948646061
 21
304.9272829734
  0
LINE
  8
DEFAULT_2
 62
8
  6
HIDDEN
 10
422.8948646061
 20
305.2129900645
 11
422.3948646061
 21
305.2129900645
  0
LINE
  8
DEFAULT_2
 62
8
  6
HIDDEN
 10
422.8948646061
 20
305.2886315466
 11
422.3948646061
 21
305.2886315466
  0
LINE
  8
DEFAULT_2
 62
8
  6
HIDDEN
 10
422.8948646061
 20
305.3062915527
 11
422.3948646061
 21
305.3062915527
  0
LINE
  8
DEFAULT_2
 62
8
  6
HIDDEN
 10
422.8948646061
 20
305.3578208262
 11
422.3948646061
 21
305.3578208262
  0
LINE
  8
DEFAULT_2
 62
8
  6
HIDDEN
 10
406.3948646061
 20
305.3725982476
 11
391.3948646061
 21
305.3725982476
  0
LINE
  8
0
 62
9
  6
CONTINUOUS
 10
406.3948646061
 20
305.3725982476
 11
421.3948646061
 21
305.3725982476
  0
LINE
  8
DEFAULT_2
 62
8
  6
HIDDEN
 10
422.8948646061
 20
305.3794665935
 11
422.3948646061
 21
305.3794665935
  0
LINE
  8
DEFAULT_2
 62
8
  6
HIDDEN
 10
422.8948646061
 20
305.5277472605
 11
422.3948646061
 21
305.5277472605
  0
LINE
  8
DEFAULT_2
 62
8
  6
HIDDEN
 10
422.8948646061
 20
305.6654111896
 11
422.3948646061
 21
305.6654111896
  0
LINE
  8
DEFAULT_2
 62
8
  6
HIDDEN
 10
422.8948646061
 20
305.7250367543
 11
422.3948646061
 21
305.7250367543
  0
LINE
  8
DEFAULT_2
 62
8
  6
HIDDEN
 10
422.8948646061
 20
305.7850633247
 11
422.3948646061
 21
305.7850633247
  0
LINE
  8
DEFAULT_2
 62
8
  6
HIDDEN
 10
422.8948646061
 20
305.907511138
 11
422.3948646061
 21
305.907511138
  0
LINE
  8
DEFAULT_2
 62
8
  6
HIDDEN
 10
422.8948646061
 20
305.9754046473
 11
422.3948646061
 21
305.9754046473
  0
LINE
  8
DEFAULT_2
 62
8
  6
HIDDEN
 10
422.8948646061
 20
306.0171713336
 11
422.3948646061
 21
306.0171713336
  0
LINE
  8
DEFAULT_2
 62
8
  6
HIDDEN
 10
422.8948646061
 20
306.0356112816
 11
422.3948646061
 21
306.0356112816
  0
LINE
  8
DEFAULT_2
 62
8
  6
HIDDEN
 10
422.8948646061
 20
306.0861790206
 11
422.3948646061
 21
306.0861790206
  0
LINE
  8
DEFAULT_2
 62
8
  6
HIDDEN
 10
422.8948646061
 20
306.1973878727
 11
422.3948646061
 21
306.1973878727
  0
LINE
  8
DEFAULT_2
 62
8
  6
HIDDEN
 10
422.8948646061
 20
306.2173298238
 11
422.3948646061
 21
306.2173298238
  0
LINE
  8
DEFAULT_2
 62
8
  6
HIDDEN
 10
422.8948646061
 20
306.3233950442
 11
422.3948646061
 21
306.3233950442
  0
LINE
  8
DEFAULT_2
 62
8
  6
HIDDEN
 10
422.8948646061
 20
306.3397360361
 11
422.3948646061
 21
306.3397360361
  0
LINE
  8
DEFAULT_2
 62
8
  6
HIDDEN
 10
422.8948646061
 20
306.5244775805
 11
422.3948646061
 21
306.5244775805
  0
LINE
  8
DEFAULT_2
 62
8
  6
HIDDEN
 10
422.8948646061
 20
306.603013211
 11
422.3948646061
 21
306.603013211
  0
LINE
  8
DEFAULT_2
 62
8
  6
HIDDEN
 10
422.8948646061
 20
306.6961020243
 11
422.3948646061
 21
306.6961020243
  0
LINE
  8
DEFAULT_2
 62
8
  6
HIDDEN
 10
422.8948646061
 20
306.7236826389
 11
422.3948646061
 21
306.7236826389
  0
LINE
  8
DEFAULT_2
 62
8
  6
HIDDEN
 10
422.8948646061
 20
306.7626026855
 11
422.3948646061
 21
306.7626026855
  0
LINE
  8
DEFAULT_2
 62
8
  6
HIDDEN
 10
422.8948646061
 20
306.8091613957
 11
422.3948646061
 21
306.8091613957
  0
LINE
  8
DEFAULT_2
 62
8
  6
HIDDEN
 10
422.8948646061
 20
306.8244196663
 11
422.3948646061
 21
306.8244196663
  0
LINE
  8
DEFAULT_2
 62
8
  6
HIDDEN
 10
422.8948646061
 20
306.8392347764
 11
422.3948646061
 21
306.8392347764
  0
LINE
  8
DEFAULT_2
 62
8
  6
HIDDEN
 10
422.8948646061
 20
307.1100921866
 11
422.3948646061
 21
307.1100921866
  0
LINE
  8
DEFAULT_2
 62
8
  6
HIDDEN
 10
422.8948646061
 20
307.1948443545
 11
422.3948646061
 21
307.1948443545
  0
LINE
  8
DEFAULT_2
 62
8
  6
HIDDEN
 10
422.8948646061
 20
307.3370199492
 11
422.3948646061
 21
307.3370199492
  0
LINE
  8
DEFAULT_2
 62
8
  6
HIDDEN
 10
422.8948646061
 20
307.361562255
 11
422.3948646061
 21
307.361562255
  0
LINE
  8
DEFAULT_2
 62
8
  6
HIDDEN
 10
422.8948646061
 20
307.4304025511
 11
422.3948646061
 21
307.4304025511
  0
LINE
  8
DEFAULT_2
 62
8
  6
HIDDEN
 10
422.8948646061
 20
307.5406148039
 11
422.3948646061
 21
307.5406148039
  0
LINE
  8
DEFAULT_2
 62
8
  6
HIDDEN
 10
422.8948646061
 20
307.5871735141
 11
422.3948646061
 21
307.5871735141
  0
LINE
  8
DEFAULT_2
 62
8
  6
HIDDEN
 10
422.8948646061
 20
307.636408555
 11
422.3948646061
 21
307.636408555
  0
LINE
  8
DEFAULT_2
 62
8
  6
HIDDEN
 10
422.8948646061
 20
307.651223552
 11
422.3948646061
 21
307.651223552
  0
LINE
  8
DEFAULT_2
 62
8
  6
HIDDEN
 10
422.8948646061
 20
307.6676185747
 11
422.3948646061
 21
307.6676185747
  0
LINE
  8
DEFAULT_2
 62
8
  6
HIDDEN
 10
422.8948646061
 20
307.7519608057
 11
422.3948646061
 21
307.7519608057
  0
LINE
  8
DEFAULT_2
 62
8
  6
HIDDEN
 10
422.8948646061
 20
307.7896045409
 11
422.3948646061
 21
307.7896045409
  0
LINE
  8
DEFAULT_2
 62
8
  6
HIDDEN
 10
422.8948646061
 20
308.0593589859
 11
422.3948646061
 21
308.0593589859
  0
LINE
  8
DEFAULT_2
 62
8
  6
HIDDEN
 10
422.8948646061
 20
308.1124209709
 11
422.3948646061
 21
308.1124209709
  0
LINE
  8
DEFAULT_2
 62
8
  6
HIDDEN
 10
422.8948646061
 20
308.1359071822
 11
422.3948646061
 21
308.1359071822
  0
LINE
  8
DEFAULT_2
 62
8
  6
HIDDEN
 10
422.8948646061
 20
308.270105559
 11
422.3948646061
 21
308.270105559
  0
LINE
  8
DEFAULT_2
 62
8
  6
HIDDEN
 10
422.8948646061
 20
308.2885890964
 11
422.3948646061
 21
308.2885890964
  0
LINE
  8
DEFAULT_2
 62
8
  6
HIDDEN
 10
422.8948646061
 20
308.3331626343
 11
422.3948646061
 21
308.3331626343
  0
LINE
  8
DEFAULT_2
 62
8
  6
HIDDEN
 10
422.8948646061
 20
308.4657908953
 11
422.3948646061
 21
308.4657908953
  0
LINE
  8
DEFAULT_2
 62
8
  6
HIDDEN
 10
422.8948646061
 20
308.5681323065
 11
422.3948646061
 21
308.5681323065
  0
LINE
  8
DEFAULT_2
 62
8
  6
HIDDEN
 10
422.8948646061
 20
308.5825577482
 11
422.3948646061
 21
308.5825577482
  0
LINE
  8
DEFAULT_2
 62
8
  6
HIDDEN
 10
422.8948646061
 20
308.7339936297
 11
422.3948646061
 21
308.7339936297
  0
LINE
  8
DEFAULT_2
 62
8
  6
HIDDEN
 10
422.8948646061
 20
308.7863348609
 11
422.3948646061
 21
308.7863348609
  0
LINE
  8
DEFAULT_2
 62
8
  6
HIDDEN
 10
422.8948646061
 20
308.8912581808
 11
422.3948646061
 21
308.8912581808
  0
LINE
  8
DEFAULT_2
 62
8
  6
HIDDEN
 10
422.8948646061
 20
308.9264042258
 11
422.3948646061
 21
308.9264042258
  0
LINE
  8
DEFAULT_2
 62
8
  6
HIDDEN
 10
422.8948646061
 20
308.9508127602
 11
422.3948646061
 21
308.9508127602
  0
LINE
  8
DEFAULT_2
 62
8
  6
HIDDEN
 10
422.8948646061
 20
309.0208555893
 11
422.3948646061
 21
309.0208555893
  0
LINE
  8
DEFAULT_2
 62
8
  6
HIDDEN
 10
422.8948646061
 20
309.0611842257
 11
422.3948646061
 21
309.0611842257
  0
LINE
  8
DEFAULT_2
 62
8
  6
HIDDEN
 10
422.8948646061
 20
309.0983274645
 11
422.3948646061
 21
309.0983274645
  0
LINE
  8
DEFAULT_2
 62
8
  6
HIDDEN
 10
422.8948646061
 20
309.1667455082
 11
422.3948646061
 21
309.1667455082
  0
LINE
  8
DEFAULT_2
 62
8
  6
HIDDEN
 10
422.8948646061
 20
309.2565115773
 11
422.3948646061
 21
309.2565115773
  0
LINE
  8
DEFAULT_2
 62
8
  6
HIDDEN
 10
422.8948646061
 20
309.3392328343
 11
422.3948646061
 21
309.3392328343
  0
LINE
  8
DEFAULT_2
 62
8
  6
HIDDEN
 10
422.8948646061
 20
309.4092756047
 11
422.3948646061
 21
309.4092756047
  0
LINE
  8
DEFAULT_2
 62
8
  6
HIDDEN
 10
422.8948646061
 20
309.442173942
 11
422.3948646061
 21
309.442173942
  0
LINE
  8
DEFAULT_2
 62
8
  6
HIDDEN
 10
422.8948646061
 20
309.4808582227
 11
422.3948646061
 21
309.4808582227
  0
LINE
  8
DEFAULT_2
 62
8
  6
HIDDEN
 10
422.8948646061
 20
309.5026662701
 11
422.3948646061
 21
309.5026662701
  0
LINE
  8
DEFAULT_2
 62
8
  6
HIDDEN
 10
422.8948646061
 20
309.6342608138
 11
422.3948646061
 21
309.6342608138
  0
LINE
  8
DEFAULT_2
 62
8
  6
HIDDEN
 10
422.8948646061
 20
309.7116086133
 11
422.3948646061
 21
309.7116086133
  0
LINE
  8
DEFAULT_2
 62
8
  6
HIDDEN
 10
422.8948646061
 20
309.7367047385
 11
422.3948646061
 21
309.7367047385
  0
LINE
  8
DEFAULT_2
 62
8
  6
HIDDEN
 10
422.8948646061
 20
309.8039806428
 11
422.3948646061
 21
309.8039806428
  0
LINE
  8
DEFAULT_2
 62
8
  6
HIDDEN
 10
422.8948646061
 20
309.878393579
 11
422.3948646061
 21
309.878393579
  0
LINE
  8
DEFAULT_2
 62
8
  6
HIDDEN
 10
422.8948646061
 20
309.9990032023
 11
422.3948646061
 21
309.9990032023
  0
LINE
  8
DEFAULT_2
 62
8
  6
HIDDEN
 10
422.8948646061
 20
310.0269257893
 11
422.3948646061
 21
310.0269257893
  0
LINE
  8
DEFAULT_2
 62
8
  6
HIDDEN
 10
422.8948646061
 20
310.0662767051
 11
422.3948646061
 21
310.0662767051
  0
LINE
  8
DEFAULT_2
 62
8
  6
HIDDEN
 10
422.8948646061
 20
310.2738471009
 11
422.3948646061
 21
310.2738471009
  0
LINE
  8
DEFAULT_2
 62
8
  6
HIDDEN
 10
422.8948646061
 20
310.3909358999
 11
422.3948646061
 21
310.3909358999
  0
LINE
  8
DEFAULT_2
 62
8
  6
HIDDEN
 10
422.8948646061
 20
310.5342057027
 11
422.3948646061
 21
310.5342057027
  0
LINE
  8
DEFAULT_2
 62
8
  6
HIDDEN
 10
422.8948646061
 20
310.5886042969
 11
422.3948646061
 21
310.5886042969
  0
LINE
  8
DEFAULT_2
 62
8
  6
HIDDEN
 10
422.8948646061
 20
310.7208867696
 11
422.3948646061
 21
310.7208867696
  0
LINE
  8
DEFAULT_2
 62
8
  6
HIDDEN
 10
422.8948646061
 20
311.0616492491
 11
422.3948646061
 21
311.0616492491
  0
LINE
  8
DEFAULT_2
 62
8
  6
HIDDEN
 10
422.8948646061
 20
311.0774705392
 11
422.3948646061
 21
311.0774705392
  0
LINE
  8
DEFAULT_2
 62
8
  6
HIDDEN
 10
422.8948646061
 20
311.1447464435
 11
422.3948646061
 21
311.1447464435
  0
LINE
  8
DEFAULT_2
 62
8
  6
HIDDEN
 10
422.8948646061
 20
311.204919052
 11
422.3948646061
 21
311.204919052
  0
LINE
  8
DEFAULT_2
 62
8
  6
HIDDEN
 10
422.8948646061
 20
311.388045123
 11
422.3948646061
 21
311.388045123
  0
LINE
  8
DEFAULT_2
 62
8
  6
HIDDEN
 10
422.8948646061
 20
311.5328758847
 11
422.3948646061
 21
311.5328758847
  0
LINE
  8
DEFAULT_2
 62
8
  6
HIDDEN
 10
422.8948646061
 20
311.5651120026
 11
422.3948646061
 21
311.5651120026
  0
LINE
  8
DEFAULT_2
 62
8
  6
HIDDEN
 10
422.8948646061
 20
311.6750559614
 11
422.3948646061
 21
311.6750559614
  0
LINE
  8
DEFAULT_2
 62
8
  6
HIDDEN
 10
422.8948646061
 20
311.6986197069
 11
422.3948646061
 21
311.6986197069
  0
LINE
  8
DEFAULT_2
 62
8
  6
HIDDEN
 10
422.8948646061
 20
311.7921892545
 11
422.3948646061
 21
311.7921892545
  0
LINE
  8
DEFAULT_2
 62
8
  6
HIDDEN
 10
422.8948646061
 20
311.8055897482
 11
422.3948646061
 21
311.8055897482
  0
LINE
  8
DEFAULT_2
 62
8
  6
HIDDEN
 10
422.8948646061
 20
311.8244526331
 11
422.3948646061
 21
311.8244526331
  0
LINE
  8
DEFAULT_2
 62
8
  6
HIDDEN
 10
422.8948646061
 20
311.8469792002
 11
422.3948646061
 21
311.8469792002
  0
LINE
  8
DEFAULT_2
 62
8
  6
HIDDEN
 10
422.8948646061
 20
311.9202061152
 11
422.3948646061
 21
311.9202061152
  0
LINE
  8
DEFAULT_2
 62
8
  6
HIDDEN
 10
422.8948646061
 20
312.187874208
 11
422.3948646061
 21
312.187874208
  0
LINE
  8
DEFAULT_2
 62
8
  6
HIDDEN
 10
422.8948646061
 20
312.2286712483
 11
422.3948646061
 21
312.2286712483
  0
LINE
  8
DEFAULT_2
 62
8
  6
HIDDEN
 10
422.8948646061
 20
312.248312307
 11
422.3948646061
 21
312.248312307
  0
LINE
  8
DEFAULT_2
 62
8
  6
HIDDEN
 10
422.8948646061
 20
312.2639829079
 11
422.3948646061
 21
312.2639829079
  0
LINE
  8
DEFAULT_2
 62
8
  6
HIDDEN
 10
422.8948646061
 20
312.2927060286
 11
422.3948646061
 21
312.2927060286
  0
LINE
  8
DEFAULT_2
 62
8
  6
HIDDEN
 10
422.8948646061
 20
312.3364993229
 11
422.3948646061
 21
312.3364993229
  0
LINE
  8
DEFAULT_2
 62
8
  6
HIDDEN
 10
422.8948646061
 20
312.3809855127
 11
422.3948646061
 21
312.3809855127
  0
LINE
  8
DEFAULT_2
 62
8
  6
HIDDEN
 10
422.8948646061
 20
312.4581496371
 11
422.3948646061
 21
312.4581496371
  0
LINE
  8
DEFAULT_2
 62
8
  6
HIDDEN
 10
422.8948646061
 20
312.4763030975
 11
422.3948646061
 21
312.4763030975
  0
LINE
  8
DEFAULT_2
 62
8
  6
HIDDEN
 10
422.8948646061
 20
312.5588868908
 11
422.3948646061
 21
312.5588868908
  0
LINE
  8
DEFAULT_2
 62
8
  6
HIDDEN
 10
422.8948646061
 20
312.5909194644
 11
422.3948646061
 21
312.5909194644
  0
LINE
  8
DEFAULT_2
 62
8
  6
HIDDEN
 10
422.8948646061
 20
312.7745471266
 11
422.3948646061
 21
312.7745471266
  0
LINE
  8
DEFAULT_2
 62
8
  6
HIDDEN
 10
422.8948646061
 20
312.8224177932
 11
422.3948646061
 21
312.8224177932
  0
LINE
  8
DEFAULT_2
 62
8
  6
HIDDEN
 10
422.8948646061
 20
312.8640095562
 11
422.3948646061
 21
312.8640095562
  0
POLYLINE
  8
0
 62
9
  6
CONTINUOUS
 66
1
 70
0
  0
VERTEX
  8
0
 62
9
  6
CONTINUOUS
 10
390.6877578249
 20
319.226773072
  0
VERTEX
  8
0
 62
9
  6
CONTINUOUS
 10
391.0121811801
 20
319.1260337502
  0
VERTEX
  8
0
 62
9
  6
CONTINUOUS
 10
391.3948646061
 20
319.0906588063
  0
SEQEND
  0
POLYLINE
  8
DEFAULT_2
 62
8
  6
HIDDEN
 66
1
 70
0
  0
VERTEX
  8
DEFAULT_2
 62
8
  6
HIDDEN
 10
422.1019713873
 20
314.5264204025
  0
VERTEX
  8
DEFAULT_2
 62
8
  6
HIDDEN
 10
421.7775479841
 20
314.7183631613
  0
VERTEX
  8
DEFAULT_2
 62
8
  6
HIDDEN
 10
421.3948646061
 20
314.7857644678
  0
SEQEND
  0
POLYLINE
  8
0
 62
9
  6
CONTINUOUS
 66
1
 70
0
  0
VERTEX
  8
0
 62
9
  6
CONTINUOUS
 10
422.1019713873
 20
107.2057606654
  0
VERTEX
  8
0
 62
9
  6
CONTINUOUS
 10
421.7775470806
 20
107.0974888282
  0
VERTEX
  8
0
 62
9
  6
CONTINUOUS
 10
421.3948646061
 20
107.0594690275
  0
SEQEND
  0
LINE
  8
DEFAULT_2
 62
8
  6
HIDDEN
 10
422.8948646061
 20
313.0981993778
 11
422.3948646061
 21
313.0981993778
  0
LINE
  8
DEFAULT_2
 62
8
  6
HIDDEN
 10
422.8948646061
 20
313.1359799927
 11
422.3948646061
 21
313.1359799927
  0
LINE
  8
DEFAULT_2
 62
8
  6
HIDDEN
 10
422.8948646061
 20
313.2251774939
 11
422.3948646061
 21
313.2251774939
  0
LINE
  8
DEFAULT_2
 62
8
  6
HIDDEN
 10
422.8948646061
 20
313.2725511386
 11
422.3948646061
 21
313.2725511386
  0
LINE
  8
DEFAULT_2
 62
8
  6
HIDDEN
 10
422.8948646061
 20
313.3004915499
 11
422.3948646061
 21
313.3004915499
  0
LINE
  8
DEFAULT_2
 62
8
  6
HIDDEN
 10
422.8948646061
 20
313.4908629243
 11
422.3948646061
 21
313.4908629243
  0
LINE
  8
DEFAULT_2
 62
8
  6
HIDDEN
 10
422.8948646061
 20
313.5140520024
 11
422.3948646061
 21
313.5140520024
  0
LINE
  8
DEFAULT_2
 62
8
  6
HIDDEN
 10
422.8948646061
 20
313.5752075988
 11
422.3948646061
 21
313.5752075988
  0
LINE
  8
DEFAULT_2
 62
8
  6
HIDDEN
 10
422.8948646061
 20
313.6258508062
 11
422.3948646061
 21
313.6258508062
  0
LINE
  8
DEFAULT_2
 62
8
  6
HIDDEN
 10
422.8948646061
 20
313.662786163
 11
422.3948646061
 21
313.662786163
  0
LINE
  8
DEFAULT_2
 62
8
  6
HIDDEN
 10
422.8948646061
 20
313.7232788434
 11
422.3948646061
 21
313.7232788434
  0
LINE
  8
DEFAULT_2
 62
8
  6
HIDDEN
 10
422.8948646061
 20
313.8665486463
 11
422.3948646061
 21
313.8665486463
  0
LINE
  8
DEFAULT_2
 62
8
  6
HIDDEN
 10
422.8948646061
 20
313.9728708413
 11
422.3948646061
 21
313.9728708413
  0
LINE
  8
DEFAULT_2
 62
8
  6
HIDDEN
 10
422.8948646061
 20
313.9871377044
 11
422.3948646061
 21
313.9871377044
  0
LINE
  8
DEFAULT_2
 62
8
  6
HIDDEN
 10
422.8948646061
 20
314.1301353924
 11
422.3948646061
 21
314.1301353924
  0
LINE
  8
DEFAULT_2
 62
8
  6
HIDDEN
 10
422.8948646061
 20
314.218884457
 11
422.3948646061
 21
314.218884457
  0
LINE
  8
DEFAULT_2
 62
8
  6
HIDDEN
 10
422.8948646061
 20
314.2782029069
 11
422.3948646061
 21
314.2782029069
  0
LINE
  8
DEFAULT_2
 62
8
  6
HIDDEN
 10
422.8948646061
 20
314.3621542598
 11
422.3948646061
 21
314.3621542598
  0
LINE
  8
DEFAULT_2
 62
8
  6
HIDDEN
 10
422.8948646061
 20
314.4226469402
 11
422.3948646061
 21
314.4226469402
  0
LINE
  8
DEFAULT_2
 62
8
  6
HIDDEN
 10
422.8948646061
 20
314.4904098844
 11
422.3948646061
 21
314.4904098844
  0
LINE
  8
DEFAULT_2
 62
8
  6
HIDDEN
 10
422.8948646061
 20
314.5033653152
 11
422.3948646061
 21
314.5033653152
  0
LINE
  8
DEFAULT_2
 62
8
  6
HIDDEN
 10
422.8948646061
 20
314.5542416013
 11
422.3948646061
 21
314.5542416013
  0
LINE
  8
DEFAULT_2
 62
8
  6
HIDDEN
 10
391.3948646061
 20
314.5566765193
 11
421.3948646061
 21
314.5566765193
  0
LINE
  8
DEFAULT_2
 62
8
  6
HIDDEN
 10
422.8948646061
 20
314.6606298663
 11
422.3948646061
 21
314.6606298663
  0
LINE
  8
DEFAULT_2
 62
8
  6
HIDDEN
 10
422.8948646061
 20
314.6975114042
 11
422.3948646061
 21
314.6975114042
  0
LINE
  8
DEFAULT_2
 62
8
  6
HIDDEN
 10
391.3948646061
 20
314.785764468
 11
421.3948646061
 21
314.785764468
  0
LINE
  8
DEFAULT_2
 62
8
  6
HIDDEN
 10
422.8948646061
 20
314.8066985192
 11
422.3948646061
 21
314.8066985192
  0
LINE
  8
DEFAULT_2
 62
8
  6
HIDDEN
 10
422.8948646061
 20
314.8482101357
 11
422.3948646061
 21
314.8482101357
  0
LINE
  8
DEFAULT_2
 62
8
  6
HIDDEN
 10
422.8948646061
 20
314.9013849287
 11
422.3948646061
 21
314.9013849287
  0
LINE
  8
DEFAULT_2
 62
8
  6
HIDDEN
 10
422.8948646061
 20
314.9999684298
 11
422.3948646061
 21
314.9999684298
  0
LINE
  8
DEFAULT_2
 62
8
  6
HIDDEN
 10
422.8948646061
 20
315.0492411935
 11
422.3948646061
 21
315.0492411935
  0
LINE
  8
DEFAULT_2
 62
8
  6
HIDDEN
 10
422.8948646061
 20
315.1283126914
 11
422.3948646061
 21
315.1283126914
  0
LINE
  8
DEFAULT_2
 62
8
  6
HIDDEN
 10
422.8948646061
 20
315.1591569642
 11
422.3948646061
 21
315.1591569642
  0
LINE
  8
DEFAULT_2
 62
8
  6
HIDDEN
 10
422.8948646061
 20
315.2079753448
 11
422.3948646061
 21
315.2079753448
  0
LINE
  8
DEFAULT_2
 62
8
  6
HIDDEN
 10
422.8948646061
 20
315.249363485
 11
422.3948646061
 21
315.249363485
  0
LINE
  8
DEFAULT_2
 62
8
  6
HIDDEN
 10
422.8948646061
 20
315.2737733312
 11
422.3948646061
 21
315.2737733312
  0
LINE
  8
DEFAULT_2
 62
8
  6
HIDDEN
 10
422.8948646061
 20
315.2959681742
 11
422.3948646061
 21
315.2959681742
  0
LINE
  8
DEFAULT_2
 62
8
  6
HIDDEN
 10
422.8948646061
 20
315.3395700059
 11
422.3948646061
 21
315.3395700059
  0
LINE
  8
DEFAULT_2
 62
8
  6
HIDDEN
 10
391.3948646061
 20
315.6272301752
 11
421.3948646061
 21
315.6272301752
  0
LINE
  8
DEFAULT_2
 62
8
  6
HIDDEN
 10
422.8948646061
 20
315.6579470747
 11
422.3948646061
 21
315.6579470747
  0
LINE
  8
DEFAULT_2
 62
8
  6
HIDDEN
 10
422.8948646061
 20
315.7939721862
 11
422.3948646061
 21
315.7939721862
  0
LINE
  8
DEFAULT_2
 62
8
  6
HIDDEN
 10
422.8948646061
 20
315.8635043605
 11
422.3948646061
 21
315.8635043605
  0
LINE
  8
DEFAULT_2
 62
8
  6
HIDDEN
 10
422.8948646061
 20
315.8956682998
 11
422.3948646061
 21
315.8956682998
  0
LINE
  8
0
 62
9
  6
CONTINUOUS
 10
406.3948646061
 20
315.9475723981
 11
391.3948646061
 21
315.9475723981
  0
LINE
  8
DEFAULT_2
 62
8
  6
HIDDEN
 10
406.3948646061
 20
315.9475723981
 11
421.3948646061
 21
315.9475723981
  0
LINE
  8
DEFAULT_2
 62
8
  6
HIDDEN
 10
422.8948646061
 20
316.0262033983
 11
422.3948646061
 21
316.0262033983
  0
LINE
  8
DEFAULT_2
 62
8
  6
HIDDEN
 10
391.3948646061
 20
316.069958188
 11
421.3948646061
 21
316.069958188
  0
LINE
  8
DEFAULT_2
 62
8
  6
HIDDEN
 10
422.8948646061
 20
316.0835102701
 11
422.3948646061
 21
316.0835102701
  0
LINE
  8
DEFAULT_2
 62
8
  6
HIDDEN
 10
422.8948646061
 20
316.1164099192
 11
422.3948646061
 21
316.1164099192
  0
LINE
  8
DEFAULT_2
 62
8
  6
HIDDEN
 10
422.8948646061
 20
316.1626520584
 11
422.3948646061
 21
316.1626520584
  0
LINE
  8
DEFAULT_2
 62
8
  6
HIDDEN
 10
422.8948646061
 20
316.7917102629
 11
422.3948646061
 21
316.7917102629
  0
LINE
  8
0
 62
9
  6
CONTINUOUS
 10
406.3948646061
 20
318.6479307935
 11
391.3948646061
 21
318.6479307935
  0
LINE
  8
DEFAULT_2
 62
8
  6
HIDDEN
 10
406.3948646061
 20
318.6479307935
 11
421.3948646061
 21
318.6479307935
  0
LINE
  8
0
 62
9
  6
CONTINUOUS
 10
406.3948646061
 20
319.0906588063
 11
391.3948646061
 21
319.0906588063
  0
LINE
  8
DEFAULT_2
 62
8
  6
HIDDEN
 10
406.3948646061
 20
319.0906588063
 11
421.3948646061
 21
319.0906588063
  0
LINE
  8
DEFAULT_2
 62
8
  6
HIDDEN
 10
406.3948646061
 20
319.6803021858
 11
391.3948646061
 21
319.6803021858
  0
LINE
  8
0
 62
9
  6
CONTINUOUS
 10
406.3948646061
 20
319.6803021858
 11
421.3948646061
 21
319.6803021858
  0
LINE
  8
DEFAULT_2
 62
8
  6
HIDDEN
 10
406.3948646061
 20
321.5522902481
 11
391.3948646061
 21
321.5522902481
  0
LINE
  8
0
 62
9
  6
CONTINUOUS
 10
406.3948646061
 20
321.5522902481
 11
421.3948646061
 21
321.5522902481
  0
LINE
  8
DEFAULT_2
 62
8
  6
HIDDEN
 10
406.3948646061
 20
324.2981508144
 11
391.3948646061
 21
324.2981508144
  0
LINE
  8
0
 62
9
  6
CONTINUOUS
 10
406.3948646061
 20
324.2981508144
 11
421.3948646061
 21
324.2981508144
  0
LINE
  8
DEFAULT_2
 62
8
  6
HIDDEN
 10
406.3948646061
 20
324.5005682284
 11
391.3948646061
 21
324.5005682284
  0
LINE
  8
0
 62
7
  6
CONTINUOUS
 10
406.3948646061
 20
324.5005682284
 11
421.3948646061
 21
324.5005682284
  0
LINE
  8
DEFAULT_2
 62
8
  6
HIDDEN
 10
391.3948646061
 20
328.4034908733
 11
421.3948646061
 21
328.4034908733
  0
LINE
  8
DEFAULT_2
 62
8
  6
HIDDEN
 10
406.3948646061
 20
330.1216745926
 11
391.3948646061
 21
330.1216745926
  0
LINE
  8
0
 62
9
  6
CONTINUOUS
 10
406.3948646061
 20
330.1216745926
 11
421.3948646061
 21
330.1216745926
  0
LINE
  8
DEFAULT_2
 62
8
  6
HIDDEN
 10
390.3948646061
 20
330.4034908733
 11
422.3948646061
 21
330.4034908733
  0
LINE
  8
0
 62
9
  6
CONTINUOUS
 10
422.1019713873
 20
84.0472530154
 11
421.7775470806
 21
83.8641093311
  0
LINE
  8
0
 62
9
  6
CONTINUOUS
 10
391.0121821317
 20
345.7677014078
 11
391.3948646061
 21
345.8398893459
  0
LINE
  8
0
 62
9
  6
CONTINUOUS
 10
391.0121821317
 20
337.2608175318
 11
391.3948646061
 21
337.3135142483
  0
LINE
  8
DEFAULT_2
 62
8
  6
HIDDEN
 10
390.3948646061
 20
330.9034908733
 11
422.3948646061
 21
330.9034908733
  0
LINE
  8
DEFAULT_2
 62
8
  6
HIDDEN
 10
391.3948646061
 20
335.3015808085
 11
421.3948646061
 21
335.3015808085
  0
LINE
  8
DEFAULT_2
 62
8
  6
HIDDEN
 10
391.3948646061
 20
337.0092018381
 11
421.3948646061
 21
337.0092018381
  0
LINE
  8
0
 62
9
  6
CONTINUOUS
 10
406.3948646061
 20
337.3135142023
 11
391.3948646061
 21
337.3135142023
  0
LINE
  8
DEFAULT_2
 62
8
  6
HIDDEN
 10
406.3948646061
 20
337.3135142023
 11
421.3948646061
 21
337.3135142023
  0
LINE
  8
0
 62
7
  6
CONTINUOUS
 10
406.3948646061
 20
337.9289471627
 11
391.3948646061
 21
337.9289471627
  0
LINE
  8
DEFAULT_2
 62
8
  6
HIDDEN
 10
406.3948646061
 20
337.9289471627
 11
421.3948646061
 21
337.9289471627
  0
LINE
  8
DEFAULT_2
 62
8
  6
HIDDEN
 10
406.3948646061
 20
342.0961788362
 11
391.3948646061
 21
342.0961788362
  0
LINE
  8
0
 62
9
  6
CONTINUOUS
 10
406.3948646061
 20
342.0961788362
 11
421.3948646061
 21
342.0961788362
  0
LINE
  8
DEFAULT_2
 62
8
  6
HIDDEN
 10
406.3948646061
 20
344.1175152934
 11
391.3948646061
 21
344.1175152934
  0
LINE
  8
0
 62
9
  6
CONTINUOUS
 10
406.3948646061
 20
344.1175152934
 11
421.3948646061
 21
344.1175152934
  0
LINE
  8
0
 62
9
  6
CONTINUOUS
 10
406.3948646061
 20
345.8398893257
 11
391.3948646061
 21
345.8398893257
  0
LINE
  8
DEFAULT_2
 62
8
  6
HIDDEN
 10
406.3948646061
 20
345.8398893257
 11
421.3948646061
 21
345.8398893257
  0
LINE
  8
0
 62
7
  6
CONTINUOUS
 10
391.3948646061
 20
345.9432038079
 11
421.3948646061
 21
345.9432038079
  0
POLYLINE
  8
DEFAULT_2
 62
8
  6
HIDDEN
 66
1
 70
0
  0
VERTEX
  8
DEFAULT_2
 62
8
  6
HIDDEN
 10
422.1019713873
 20
336.8510022036
  0
VERTEX
  8
DEFAULT_2
 62
8
  6
HIDDEN
 10
421.7775480385
 20
336.9680870926
  0
VERTEX
  8
DEFAULT_2
 62
8
  6
HIDDEN
 10
421.3948646061
 20
337.0092018381
  0
SEQEND
  0
POLYLINE
  8
0
 62
9
  6
CONTINUOUS
 66
1
 70
0
  0
VERTEX
  8
0
 62
9
  6
CONTINUOUS
 10
422.3948646061
 20
342.0090230934
  0
VERTEX
  8
0
 62
9
  6
CONTINUOUS
 10
422.3187441925
 20
342.0423761409
  0
VERTEX
  8
0
 62
9
  6
CONTINUOUS
 10
422.1019713866
 20
342.0706515102
  0
VERTEX
  8
0
 62
9
  6
CONTINUOUS
 10
421.7775479067
 20
342.0895445051
  0
VERTEX
  8
0
 62
9
  6
CONTINUOUS
 10
421.3948646061
 20
342.096178858
  0
SEQEND
  0
POLYLINE
  8
0
 62
9
  6
CONTINUOUS
 66
1
 70
0
  0
VERTEX
  8
0
 62
9
  6
CONTINUOUS
 10
422.3948646061
 20
344.0303595507
  0
VERTEX
  8
0
 62
9
  6
CONTINUOUS
 10
422.3187441386
 20
344.0637126094
  0
VERTEX
  8
0
 62
9
  6
CONTINUOUS
 10
422.1019713873
 20
344.0919879674
  0
VERTEX
  8
0
 62
9
  6
CONTINUOUS
 10
421.7775480385
 20
344.1108809575
  0
VERTEX
  8
0
 62
9
  6
CONTINUOUS
 10
421.3948646061
 20
344.1175152934
  0
SEQEND
  0
ARC
  8
DEFAULT_2
 62
8
  6
HIDDEN
 10
78.4432467198
 20
139.2232052047
 40
16.0000050786
 50
323.4615384615
 51
20.7692307692
  0
ARC
  8
0
 62
9
  6
CONTINUOUS
 10
78.4431895038
 20
139.2232880963
 40
16.0000050786
 50
48.4615384615
 51
105.7692307692
  0
ARC
  8
0
 62
7
  6
CONTINUOUS
 10
78.4431895038
 20
139.2232880963
 40
15.0
 50
48.4615384615
 51
105.7692307692
  0
ARC
  8
0
 62
7
  6
CONTINUOUS
 10
78.4432467198
 20
139.2232052047
 40
15.0
 50
323.4615384615
 51
20.7692307692
  0
ARC
  8
0
 62
7
  6
CONTINUOUS
 10
90.8939979409
 20
127.4717853368
 40
2.0
 50
143.4615384615
 51
246.9580885964
  0
ARC
  8
DEFAULT_2
 62
8
  6
HIDDEN
 10
90.8939979409
 20
127.4717853368
 40
0.9999773615
 50
143.4615384615
 51
246.9580885964
  0
ARC
  8
0
 62
7
  6
CONTINUOUS
 10
112.8071682236
 20
108.0584104936
 40
2.0
 50
209.9649883267
 51
313.4615384615
  0
ARC
  8
0
 62
9
  6
CONTINUOUS
 10
112.8071682236
 20
108.0584104936
 40
0.9999773615
 50
209.9649883267
 51
313.4615384615
  0
ARC
  8
0
 62
7
  6
CONTINUOUS
 10
96.2758079709
 20
140.1247937064
 40
15.75
 50
246.9580885964
 51
318.4615384615
  0
ARC
  8
DEFAULT_2
 62
8
  6
HIDDEN
 10
96.2758079709
 20
140.1247937064
 40
14.7499931553
 50
246.9580885964
 51
318.4615384615
  0
ARC
  8
DEFAULT_2
 62
8
  6
HIDDEN
 10
109.8934350801
 20
128.7286218967
 40
2.9999664683
 50
48.4615384615
 51
138.4615384615
  0
ARC
  8
0
 62
9
  6
CONTINUOUS
 10
111.7647119505
 20
127.0708152511
 40
2.9999664683
 50
318.4615384615
 51
48.4615384615
  0
ARC
  8
0
 62
7
  6
CONTINUOUS
 10
111.7647119505
 20
127.0708152511
 40
2.0
 50
318.4615384615
 51
48.4615384615
  0
ARC
  8
0
 62
7
  6
CONTINUOUS
 10
109.8934350801
 20
128.7286218967
 40
2.0
 50
48.4615384615
 51
138.4615384615
  0
ARC
  8
0
 62
7
  6
CONTINUOUS
 10
71.8705182831
 20
155.0320536365
 40
2.0
 50
182.2726806343
 51
285.7692307692
  0
ARC
  8
0
 62
9
  6
CONTINUOUS
 10
71.8705182831
 20
155.0320536365
 40
0.999977361
 50
182.2726806343
 51
285.7692307692
  0
ARC
  8
0
 62
7
  6
CONTINUOUS
 10
85.6097027653
 20
155.577314826
 40
15.75
 50
110.7692307692
 51
182.2726806343
  0
ARC
  8
0
 62
9
  6
CONTINUOUS
 10
85.6097027653
 20
155.577314826
 40
14.7499931618
 50
110.7692307692
 51
182.2726806343
  0
ARC
  8
DEFAULT_2
 62
8
  6
HIDDEN
 10
78.896461924
 20
174.6886961839
 40
2.9999664683
 50
20.7692307692
 51
110.7692307692
  0
ARC
  8
0
 62
9
  6
CONTINUOUS
 10
79.7829741416
 20
172.3511555771
 40
2.9999664683
 50
290.7692307692
 51
20.7692307692
  0
ARC
  8
0
 62
7
  6
CONTINUOUS
 10
79.7829741416
 20
172.3511555771
 40
2.0
 50
290.7692307692
 51
20.7692307692
  0
ARC
  8
0
 62
7
  6
CONTINUOUS
 10
78.896461924
 20
174.6886961839
 40
2.0
 50
20.7692307692
 51
110.7692307692
  0
ARC
  8
0
 62
7
  6
CONTINUOUS
 10
61.4892147523
 20
182.405301373
 40
2.0
 50
115.7692307692
 51
219.2657809041
  0
ARC
  8
DEFAULT_2
 62
8
  6
HIDDEN
 10
61.4892147523
 20
182.405301373
 40
0.9999773615
 50
115.7692307692
 51
219.2657809041
  0
ARC
  8
DEFAULT_2
 62
8
  6
HIDDEN
 10
55.9257791766
 20
198.5968195068
 40
16.0000050786
 50
295.7692307692
 51
353.0769230769
  0
ARC
  8
0
 62
9
  6
CONTINUOUS
 10
55.9257670361
 20
198.5969194932
 40
16.0000050786
 50
20.7692307692
 51
78.0769230769
  0
ARC
  8
0
 62
7
  6
CONTINUOUS
 10
55.9257670361
 20
198.5969194932
 40
15.0
 50
20.7692307692
 51
78.0769230769
  0
ARC
  8
0
 62
7
  6
CONTINUOUS
 10
55.9257791766
 20
198.5968195068
 40
15.0
 50
295.7692307692
 51
353.0769230769
  0
ARC
  8
0
 62
7
  6
CONTINUOUS
 10
72.1347170577
 20
191.107932048
 40
15.75
 50
219.2657809041
 51
290.7692307692
  0
ARC
  8
DEFAULT_2
 62
8
  6
HIDDEN
 10
72.1347170577
 20
191.107932048
 40
14.7499931553
 50
219.2657809041
 51
290.7692307692
  0
ARC
  8
0
 62
7
  6
CONTINUOUS
 10
69.8714945639
 20
209.7472462294
 40
15.75
 50
83.0769230769
 51
154.580372942
  0
ARC
  8
0
 62
9
  6
CONTINUOUS
 10
69.8714945639
 20
209.7472462294
 40
14.749993108
 50
83.0769230769
 51
154.580372942
  0
ARC
  8
DEFAULT_3
 62
2
  6
PHANTOM
 10
118.7875090434
 20
208.1934444911
 40
3.2
 50
45.0
 51
87.7455692247
  0
ARC
  8
DEFAULT_2
 62
8
  6
HIDDEN
 10
125.9737684125
 20
97.1148695991
 40
16.0000050786
 50
351.1538461538
 51
48.4615384615
  0
ARC
  8
0
 62
9
  6
CONTINUOUS
 10
125.9736792286
 20
97.1149164064
 40
16.0000050786
 50
76.1538461538
 51
133.4615384615
  0
ARC
  8
0
 62
7
  6
CONTINUOUS
 10
141.3447281567
 20
106.2003910009
 40
15.75
 50
274.6503962887
 51
346.1538461538
  0
ARC
  8
0
 62
7
  6
CONTINUOUS
 10
125.9736792286
 20
97.1149164064
 40
15.0
 50
76.1538461538
 51
133.4615384615
  0
ARC
  8
0
 62
7
  6
CONTINUOUS
 10
125.9737684125
 20
97.1148695991
 40
15.0
 50
351.1538461538
 51
48.4615384615
  0
ARC
  8
DEFAULT_2
 62
8
  6
HIDDEN
 10
141.3447281567
 20
106.2003910009
 40
14.7499931553
 50
274.6503962887
 51
346.1538461538
  0
ARC
  8
0
 62
7
  6
CONTINUOUS
 10
142.4595182222
 20
92.4956566689
 40
2.0
 50
171.1538461538
 51
274.6503962887
  0
ARC
  8
DEFAULT_2
 62
8
  6
HIDDEN
 10
142.4595182222
 20
92.4956566689
 40
0.9999773615
 50
171.1538461538
 51
274.6503962887
  0
ARC
  8
0
 62
7
  6
CONTINUOUS
 10
124.7192164014
 20
114.9261326932
 40
15.75
 50
138.4615384615
 51
209.9649883267
  0
ARC
  8
0
 62
9
  6
CONTINUOUS
 10
124.7192164014
 20
114.9261326932
 40
14.7499931553
 50
138.4615384615
 51
209.9649883267
  0
ARC
  8
0
 62
7
  6
CONTINUOUS
 10
170.8845120274
 20
85.4895249391
 40
2.0
 50
237.657296019
 51
341.1538461538
  0
ARC
  8
0
 62
9
  6
CONTINUOUS
 10
170.8845120274
 20
85.4895249391
 40
0.9999773615
 50
237.657296019
 51
341.1538461538
  0
ARC
  8
0
 62
9
  6
CONTINUOUS
 10
161.1259577918
 20
101.8397197078
 40
2.9999664699
 50
346.1538461538
 51
76.1538461538
  0
ARC
  8
DEFAULT_2
 62
8
  6
HIDDEN
 10
158.6986032482
 20
102.4380088685
 40
2.9999664683
 50
76.1538461538
 51
166.1538461538
  0
ARC
  8
0
 62
7
  6
CONTINUOUS
 10
161.1259577918
 20
101.8397197078
 40
2.0
 50
346.1538461538
 51
76.1538461538
  0
ARC
  8
0
 62
7
  6
CONTINUOUS
 10
158.6986032482
 20
102.4380088685
 40
2.0
 50
76.1538461538
 51
166.1538461538
  0
ARC
  8
0
 62
9
  6
CONTINUOUS
 10
187.628573819
 20
81.9183249168
 40
16.0000050786
 50
103.8461538462
 51
161.1538461538
  0
ARC
  8
0
 62
7
  6
CONTINUOUS
 10
187.628573819
 20
81.9183249168
 40
15.0
 50
103.8461538462
 51
161.1538461538
  0
ARC
  8
0
 62
7
  6
CONTINUOUS
 10
178.2405172189
 20
97.106395758
 40
15.75
 50
166.1538461538
 51
237.657296019
  0
ARC
  8
0
 62
9
  6
CONTINUOUS
 10
178.2405172189
 20
97.106395758
 40
14.7499931553
 50
166.1538461538
 51
237.657296019
  0
ARC
  8
DEFAULT_3
 62
2
  6
PHANTOM
 10
181.2335777972
 20
145.7473757373
 40
3.2
 50
2.2544307753
 51
45.0
  0
ARC
  8
DEFAULT_3
 62
2
  6
PHANTOM
 10
176.9909371101
 20
149.9900164245
 40
3.2
 50
45.0
 51
86.4096221093
  0
ARC
  8
DEFAULT_3
 62
2
  6
PHANTOM
 10
177.3917237503
 20
156.3774548836
 40
3.2
 50
225.0
 51
266.4096221093
  0
ARC
  8
DEFAULT_3
 62
2
  6
PHANTOM
 10
129.4175881897
 20
204.3515904442
 40
3.2
 50
183.5903778907
 51
225.0
  0
ARC
  8
DEFAULT_3
 62
2
  6
PHANTOM
 10
123.0301497306
 20
203.950803804
 40
3.2
 50
3.5903778907
 51
45.0
  0
ARC
  8
0
 62
7
  6
CONTINUOUS
 10
57.452655367
 20
215.6493588175
 40
2.0
 50
154.580372942
 51
258.0769230769
  0
ARC
  8
0
 62
9
  6
CONTINUOUS
 10
57.452655367
 20
215.6493588175
 40
0.9999773614
 50
154.580372942
 51
258.0769230769
  0
ARC
  8
0
 62
7
  6
CONTINUOUS
 10
60.9814501187
 20
244.7115982742
 40
2.0
 50
88.0769230769
 51
191.5734732118
  0
ARC
  8
DEFAULT_2
 62
8
  6
HIDDEN
 10
60.9814501187
 20
244.7115982742
 40
0.9999773615
 50
88.0769230769
 51
191.5734732118
  0
ARC
  8
0
 62
9
  6
CONTINUOUS
 10
72.5073750754
 20
227.3075604045
 40
2.9999664683
 50
263.0769230769
 51
353.0769230769
  0
ARC
  8
DEFAULT_2
 62
8
  6
HIDDEN
 10
72.8087167761
 20
229.7893325897
 40
2.9999664563
 50
353.0769230769
 51
83.0769230769
  0
ARC
  8
0
 62
7
  6
CONTINUOUS
 10
72.5073750754
 20
227.3075604045
 40
2.0
 50
263.0769230769
 51
353.0769230769
  0
ARC
  8
0
 62
7
  6
CONTINUOUS
 10
72.8087167761
 20
229.7893325897
 40
2.0
 50
353.0769230769
 51
83.0769230769
  0
ARC
  8
DEFAULT_2
 62
8
  6
HIDDEN
 10
63.5798462323
 20
261.6339329985
 40
16.0000050882
 50
268.0769230769
 51
325.3846153846
  0
ARC
  8
0
 62
9
  6
CONTINUOUS
 10
63.5798819484
 20
261.6340271741
 40
16.0000050801
 50
353.0769230769
 51
50.3846153846
  0
ARC
  8
0
 62
7
  6
CONTINUOUS
 10
63.5798819484
 20
261.6340271741
 40
15.0
 50
353.0769230769
 51
50.3846153846
  0
ARC
  8
0
 62
7
  6
CONTINUOUS
 10
63.5798462323
 20
261.6339329985
 40
15.0
 50
268.0769230769
 51
325.3846153846
  0
ARC
  8
0
 62
7
  6
CONTINUOUS
 10
74.4518884136
 20
247.4701834451
 40
15.75
 50
191.5734732118
 51
263.0769230769
  0
ARC
  8
DEFAULT_2
 62
8
  6
HIDDEN
 10
74.4518884136
 20
247.4701834451
 40
14.7499931553
 50
191.5734732118
 51
263.0769230769
  0
ARC
  8
0
 62
7
  6
CONTINUOUS
 10
72.8565381154
 20
276.0236319373
 40
2.0
 50
126.8880652497
 51
230.3846153846
  0
ARC
  8
0
 62
9
  6
CONTINUOUS
 10
72.8565381154
 20
276.0236319373
 40
0.9999773615
 50
126.8880652497
 51
230.3846153846
  0
ARC
  8
0
 62
7
  6
CONTINUOUS
 10
81.1100256301
 20
265.0262484374
 40
15.75
 50
55.3846153846
 51
126.8880652497
  0
ARC
  8
0
 62
9
  6
CONTINUOUS
 10
81.1100256301
 20
265.0262484374
 40
14.7499931553
 50
55.3846153846
 51
126.8880652497
  0
ARC
  8
DEFAULT_3
 62
2
  6
PHANTOM
 10
119.0392664043
 20
214.5884908733
 40
3.2
 50
92.2544307753
 51
267.7455692247
  0
ARC
  8
DEFAULT_3
 62
2
  6
PHANTOM
 10
118.7875090434
 20
220.9835372556
 40
3.2
 50
272.2544307753
 51
315.0
  0
ARC
  8
0
 62
7
  6
CONTINUOUS
 10
102.6964860059
 20
296.2996353413
 40
15.75
 50
163.8811655195
 51
235.3846153846
  0
ARC
  8
DEFAULT_2
 62
8
  6
HIDDEN
 10
102.6964860059
 20
296.2996353413
 40
14.7499931553
 50
163.8811655195
 51
235.3846153846
  0
ARC
  8
DEFAULT_2
 62
8
  6
HIDDEN
 10
93.0248286844
 20
281.4076393484
 40
2.9999664683
 50
325.3846153846
 51
55.3846153846
  0
ARC
  8
0
 62
9
  6
CONTINUOUS
 10
91.6046668175
 20
279.3501796836
 40
2.9999664683
 50
235.3846153846
 51
325.3846153846
  0
ARC
  8
0
 62
7
  6
CONTINUOUS
 10
91.6046668175
 20
279.3501796836
 40
2.0
 50
235.3846153846
 51
325.3846153846
  0
ARC
  8
0
 62
7
  6
CONTINUOUS
 10
93.0248286844
 20
281.4076393484
 40
2.0
 50
325.3846153846
 51
55.3846153846
  0
ARC
  8
0
 62
7
  6
CONTINUOUS
 10
89.4870267986
 20
300.1170542927
 40
2.0
 50
60.3846153846
 51
163.8811655195
  0
ARC
  8
DEFAULT_2
 62
8
  6
HIDDEN
 10
89.4870267986
 20
300.1170542927
 40
0.9999773615
 50
60.3846153846
 51
163.8811655195
  0
ARC
  8
DEFAULT_2
 62
8
  6
HIDDEN
 10
99.6519933658
 20
313.8935026583
 40
16.0000050786
 50
240.3846153846
 51
297.6923076923
  0
ARC
  8
0
 62
9
  6
CONTINUOUS
 10
99.6520687564
 20
313.8935694486
 40
16.0000050786
 50
325.3846153846
 51
22.6923076923
  0
ARC
  8
0
 62
7
  6
CONTINUOUS
 10
99.6520687564
 20
313.8935694486
 40
15.0
 50
325.3846153846
 51
22.6923076923
  0
ARC
  8
0
 62
7
  6
CONTINUOUS
 10
99.6519933658
 20
313.8935026583
 40
15.0
 50
240.3846153846
 51
297.6923076923
  0
ARC
  8
0
 62
7
  6
CONTINUOUS
 10
116.7506839357
 20
308.7505682284
 40
15.75
 50
27.6923076923
 51
99.1957575574
  0
ARC
  8
0
 62
9
  6
CONTINUOUS
 10
116.7506839357
 20
308.7505682284
 40
14.7499931553
 50
27.6923076923
 51
99.1957575574
  0
ARC
  8
0
 62
7
  6
CONTINUOUS
 10
114.5533226274
 20
322.323854613
 40
2.0
 50
99.1957575574
 51
202.6923076923
  0
ARC
  8
0
 62
9
  6
CONTINUOUS
 10
114.5533226274
 20
322.323854613
 40
0.9999773615
 50
99.1957575574
 51
202.6923076923
  0
ARC
  8
DEFAULT_3
 62
2
  6
PHANTOM
 10
123.0301497306
 20
225.2261779427
 40
3.2
 50
315.0
 51
356.4096221093
  0
ARC
  8
DEFAULT_3
 62
2
  6
PHANTOM
 10
129.4175881897
 20
224.8253913024
 40
3.2
 50
135.0
 51
176.4096221093
  0
ARC
  8
DEFAULT_3
 62
2
  6
PHANTOM
 10
177.3917237503
 20
272.7995268631
 40
3.2
 50
93.5903778907
 51
135.0
  0
ARC
  8
DEFAULT_3
 62
2
  6
PHANTOM
 10
176.9909371101
 20
279.1869653222
 40
3.2
 50
273.5903778907
 51
315.0
  0
ARC
  8
DEFAULT_2
 62
8
  6
HIDDEN
 10
134.9135300412
 20
317.7184844494
 40
2.9999664683
 50
297.6923076923
 51
27.6923076923
  0
ARC
  8
0
 62
9
  6
CONTINUOUS
 10
132.6998899771
 20
316.5566765193
 40
2.9999664683
 50
207.6923076923
 51
297.6923076923
  0
ARC
  8
0
 62
7
  6
CONTINUOUS
 10
132.6998899771
 20
316.5566765193
 40
2.0
 50
207.6923076923
 51
297.6923076923
  0
ARC
  8
0
 62
7
  6
CONTINUOUS
 10
134.9135300412
 20
317.7184844494
 40
2.0
 50
297.6923076923
 51
27.6923076923
  0
ARC
  8
0
 62
7
  6
CONTINUOUS
 10
140.4756607039
 20
335.9289471627
 40
2.0
 50
32.6923076923
 51
136.1888578272
  0
ARC
  8
DEFAULT_2
 62
8
  6
HIDDEN
 10
140.4756607039
 20
335.9289471627
 40
0.9999773615
 50
32.6923076923
 51
136.1888578272
  0
ARC
  8
0
 62
7
  6
CONTINUOUS
 10
150.3980129106
 20
326.410048766
 40
15.75
 50
136.1888578272
 51
207.6923076923
  0
ARC
  8
DEFAULT_2
 62
8
  6
HIDDEN
 10
150.3980129106
 20
326.410048766
 40
14.7499931553
 50
136.1888578272
 51
207.6923076923
  0
ARC
  8
DEFAULT_2
 62
8
  6
HIDDEN
 10
155.8785263854
 20
343.4034908733
 40
16.0000050786
 50
212.6923076923
 51
270.0
  0
ARC
  8
0
 62
9
  6
CONTINUOUS
 10
155.8786241794
 20
343.4035149774
 40
16.0000050786
 50
297.6923076923
 51
355.0
  0
ARC
  8
0
 62
7
  6
CONTINUOUS
 10
155.8786241794
 20
343.4035149774
 40
15.0
 50
297.6923076923
 51
355.0
  0
ARC
  8
0
 62
7
  6
CONTINUOUS
 10
155.8785263854
 20
343.4034908733
 40
15.0
 50
212.6923076923
 51
270.0
  0
ARC
  8
DEFAULT_3
 62
2
  6
PHANTOM
 10
181.2335777972
 20
283.4296060093
 40
3.2
 50
315.0
 51
357.7455692247
  0
ARC
  8
0
 62
7
  6
CONTINUOUS
 10
168.6286241794
 20
330.9034908733
 40
15.75
 50
0.0
 51
71.5034500983
  0
ARC
  8
0
 62
9
  6
CONTINUOUS
 10
168.6286241794
 20
330.9034908733
 40
14.7499931553
 50
0.0
 51
71.5034498651
  0
ARC
  8
0
 62
7
  6
CONTINUOUS
 10
172.9907780722
 20
343.9432038079
 40
2.0
 50
71.503451693
 51
174.9999999698
  0
ARC
  8
0
 62
9
  6
CONTINUOUS
 10
172.9907780722
 20
343.9432038079
 40
0.9999773615
 50
71.5034498651
 51
175.0
  0
ARC
  8
0
 62
9
  6
CONTINUOUS
 10
186.3786241794
 20
330.4034908733
 40
2.9999664683
 50
180.0
 51
270.0
  0
ARC
  8
0
 62
7
  6
CONTINUOUS
 10
186.3786241794
 20
330.4034908733
 40
2.0
 50
180.0
 51
270.0
  0
ARC
  8
DEFAULT_2
 62
8
  6
HIDDEN
 10
187.6286745398
 20
81.9183249168
 40
16.0000050786
 50
18.8461538462
 51
76.1538461538
  0
ARC
  8
0
 62
7
  6
CONTINUOUS
 10
187.6286745398
 20
81.9183249168
 40
15.0
 50
18.8461538462
 51
76.1538461538
  0
ARC
  8
0
 62
7
  6
CONTINUOUS
 10
197.0167311399
 20
97.106395758
 40
15.75
 50
302.342703981
 51
13.8461538462
  0
ARC
  8
DEFAULT_2
 62
8
  6
HIDDEN
 10
197.0167311399
 20
97.106395758
 40
14.7499931553
 50
302.342703981
 51
13.8461538462
  0
ARC
  8
0
 62
7
  6
CONTINUOUS
 10
204.3727363315
 20
85.4895249391
 40
2.0
 50
198.8461538462
 51
302.342703981
  0
ARC
  8
DEFAULT_2
 62
8
  6
HIDDEN
 10
204.3727363315
 20
85.4895249391
 40
0.9999773615
 50
198.8461538462
 51
302.342703981
  0
ARC
  8
DEFAULT_2
 62
8
  6
HIDDEN
 10
214.1312905671
 20
101.8397197078
 40
2.9999664699
 50
103.8461538462
 51
193.8461538462
  0
ARC
  8
0
 62
9
  6
CONTINUOUS
 10
216.5586451107
 20
102.4380088685
 40
2.9999664683
 50
13.8461538462
 51
103.8461538462
  0
ARC
  8
0
 62
7
  6
CONTINUOUS
 10
216.5586451107
 20
102.4380088685
 40
2.0
 50
13.8461538462
 51
103.8461538462
  0
ARC
  8
0
 62
7
  6
CONTINUOUS
 10
214.1312905671
 20
101.8397197078
 40
2.0
 50
103.8461538462
 51
193.8461538462
  0
ARC
  8
DEFAULT_3
 62
2
  6
PHANTOM
 10
194.0236705617
 20
145.7473757373
 40
3.2
 50
135.0
 51
177.7455692247
  0
ARC
  8
0
 62
7
  6
CONTINUOUS
 10
232.7977301367
 20
92.4956566689
 40
2.0
 50
265.3496037113
 51
8.8461538462
  0
ARC
  8
0
 62
9
  6
CONTINUOUS
 10
232.7977301367
 20
92.4956566689
 40
0.9999773615
 50
265.3496037113
 51
8.8461538462
  0
ARC
  8
0
 62
7
  6
CONTINUOUS
 10
233.9125202021
 20
106.2003910009
 40
15.75
 50
193.8461538462
 51
265.3496037113
  0
ARC
  8
0
 62
9
  6
CONTINUOUS
 10
233.9125202021
 20
106.2003910009
 40
14.7499931553
 50
193.8461538462
 51
265.3496037113
  0
ARC
  8
DEFAULT_2
 62
8
  6
HIDDEN
 10
249.2835691302
 20
97.1149164064
 40
16.0000050786
 50
46.5384615385
 51
103.8461538462
  0
ARC
  8
0
 62
9
  6
CONTINUOUS
 10
249.2834799464
 20
97.1148695991
 40
16.0000050786
 50
131.5384615385
 51
188.8461538462
  0
ARC
  8
0
 62
7
  6
CONTINUOUS
 10
249.2834799464
 20
97.1148695991
 40
15.0
 50
131.5384615385
 51
188.8461538462
  0
ARC
  8
0
 62
7
  6
CONTINUOUS
 10
249.2835691302
 20
97.1149164064
 40
15.0
 50
46.5384615385
 51
103.8461538462
  0
ARC
  8
0
 62
7
  6
CONTINUOUS
 10
250.5380319575
 20
114.9261326932
 40
15.75
 50
330.0350116733
 51
41.5384615385
  0
ARC
  8
DEFAULT_2
 62
8
  6
HIDDEN
 10
250.5380319575
 20
114.9261326932
 40
14.7499931553
 50
330.0350116733
 51
41.5384615385
  0
ARC
  8
DEFAULT_3
 62
2
  6
PHANTOM
 10
252.2270986283
 20
203.950803804
 40
3.2
 50
135.0
 51
176.4096221093
  0
ARC
  8
DEFAULT_3
 62
2
  6
PHANTOM
 10
245.8396601692
 20
204.3515904442
 40
3.2
 50
315.0
 51
356.4096221093
  0
ARC
  8
DEFAULT_3
 62
2
  6
PHANTOM
 10
197.8655246085
 20
156.3774548836
 40
3.2
 50
273.5903778907
 51
315.0
  0
ARC
  8
DEFAULT_3
 62
2
  6
PHANTOM
 10
198.2663112488
 20
149.9900164245
 40
3.2
 50
93.5903778907
 51
135.0
  0
ARC
  8
DEFAULT_3
 62
2
  6
PHANTOM
 10
187.6286241794
 20
145.9991330982
 40
3.2
 50
182.2544307753
 51
357.7455692247
  0
ARC
  8
0
 62
7
  6
CONTINUOUS
 10
262.4500801352
 20
108.0584104936
 40
2.0
 50
226.5384615385
 51
330.0350116733
  0
ARC
  8
DEFAULT_2
 62
8
  6
HIDDEN
 10
262.4500801352
 20
108.0584104936
 40
0.9999773615
 50
226.5384615385
 51
330.0350116733
  0
ARC
  8
0
 62
7
  6
CONTINUOUS
 10
278.981440388
 20
140.1247937064
 40
15.75
 50
221.5384615385
 51
293.0419114036
  0
ARC
  8
0
 62
9
  6
CONTINUOUS
 10
278.981440388
 20
140.1247937064
 40
14.7499931553
 50
221.5384615385
 51
293.0419114036
  0
ARC
  8
DEFAULT_2
 62
8
  6
HIDDEN
 10
263.4925364084
 20
127.0708152511
 40
2.9999664683
 50
131.5384615385
 51
221.5384615385
  0
ARC
  8
0
 62
9
  6
CONTINUOUS
 10
265.3638132788
 20
128.7286218967
 40
2.9999664683
 50
41.5384615385
 51
131.5384615385
  0
ARC
  8
0
 62
7
  6
CONTINUOUS
 10
265.3638132788
 20
128.7286218967
 40
2.0
 50
41.5384615385
 51
131.5384615385
  0
ARC
  8
0
 62
7
  6
CONTINUOUS
 10
263.4925364084
 20
127.0708152511
 40
2.0
 50
131.5384615385
 51
221.5384615385
  0
ARC
  8
DEFAULT_2
 62
8
  6
HIDDEN
 10
296.814058855
 20
139.2232880963
 40
16.0000050786
 50
74.2307692308
 51
131.5384615385
  0
ARC
  8
0
 62
9
  6
CONTINUOUS
 10
296.8140016391
 20
139.2232052047
 40
16.0000050786
 50
159.2307692308
 51
216.5384615385
  0
ARC
  8
0
 62
7
  6
CONTINUOUS
 10
296.8140016391
 20
139.2232052047
 40
15.0
 50
159.2307692308
 51
216.5384615385
  0
ARC
  8
0
 62
7
  6
CONTINUOUS
 10
296.814058855
 20
139.2232880963
 40
15.0
 50
74.2307692308
 51
131.5384615385
  0
ARC
  8
0
 62
7
  6
CONTINUOUS
 10
284.3632504179
 20
127.4717853368
 40
2.0
 50
293.0419114036
 51
36.5384615385
  0
ARC
  8
0
 62
9
  6
CONTINUOUS
 10
284.3632504179
 20
127.4717853368
 40
0.9999773615
 50
293.0419114036
 51
36.5384615385
  0
ARC
  8
DEFAULT_3
 62
2
  6
PHANTOM
 10
256.4697393154
 20
208.1934444911
 40
3.2
 50
92.2544307753
 51
135.0
  0
ARC
  8
0
 62
7
  6
CONTINUOUS
 10
289.6475455936
 20
155.577314826
 40
15.75
 50
357.7273193657
 51
69.2307692308
  0
ARC
  8
DEFAULT_2
 62
8
  6
HIDDEN
 10
289.6475455936
 20
155.577314826
 40
14.7499931618
 50
357.7273193657
 51
69.2307692308
  0
ARC
  8
DEFAULT_2
 62
8
  6
HIDDEN
 10
295.4742742172
 20
172.3511555771
 40
2.9999664683
 50
159.2307692308
 51
249.2307692308
  0
ARC
  8
0
 62
9
  6
CONTINUOUS
 10
296.3607864348
 20
174.6886961839
 40
2.9999664683
 50
69.2307692308
 51
159.2307692308
  0
ARC
  8
0
 62
7
  6
CONTINUOUS
 10
296.3607864348
 20
174.6886961839
 40
2.0
 50
69.2307692308
 51
159.2307692308
  0
ARC
  8
0
 62
7
  6
CONTINUOUS
 10
295.4742742172
 20
172.3511555771
 40
2.0
 50
159.2307692308
 51
249.2307692308
  0
ARC
  8
0
 62
7
  6
CONTINUOUS
 10
303.3867300758
 20
155.0320536365
 40
2.0
 50
254.2307692308
 51
357.7273193657
  0
ARC
  8
DEFAULT_2
 62
8
  6
HIDDEN
 10
303.3867300758
 20
155.0320536365
 40
0.999977361
 50
254.2307692308
 51
357.7273193657
  0
ARC
  8
0
 62
7
  6
CONTINUOUS
 10
303.1225313012
 20
191.107932048
 40
15.75
 50
249.2307692308
 51
320.7342190959
  0
ARC
  8
0
 62
9
  6
CONTINUOUS
 10
303.1225313012
 20
191.107932048
 40
14.7499931553
 50
249.2307692308
 51
320.7342190959
  0
ARC
  8
0
 62
7
  6
CONTINUOUS
 10
305.385753795
 20
209.7472462294
 40
15.75
 50
25.419627058
 51
96.9230769231
  0
ARC
  8
DEFAULT_2
 62
8
  6
HIDDEN
 10
305.385753795
 20
209.7472462294
 40
14.749993108
 50
25.419627058
 51
96.9230769231
  0
ARC
  8
0
 62
7
  6
CONTINUOUS
 10
313.7680336066
 20
182.405301373
 40
2.0
 50
320.7342190959
 51
64.2307692308
  0
ARC
  8
0
 62
9
  6
CONTINUOUS
 10
313.7680336066
 20
182.405301373
 40
0.9999773615
 50
320.7342190959
 51
64.2307692308
  0
ARC
  8
DEFAULT_2
 62
8
  6
HIDDEN
 10
319.3314813228
 20
198.5969194932
 40
16.0000050786
 50
101.9230769231
 51
159.2307692308
  0
ARC
  8
0
 62
9
  6
CONTINUOUS
 10
319.3314691822
 20
198.5968195068
 40
16.0000050786
 50
186.9230769231
 51
244.2307692308
  0
ARC
  8
0
 62
7
  6
CONTINUOUS
 10
319.3314691822
 20
198.5968195068
 40
15.0
 50
186.9230769231
 51
244.2307692308
  0
ARC
  8
0
 62
7
  6
CONTINUOUS
 10
319.3314813228
 20
198.5969194932
 40
15.0
 50
101.9230769231
 51
159.2307692308
  0
ARC
  8
0
 62
4
  6
CONTINUOUS
 10
187.6286241794
 20
214.5884908733
 40
132.1802915078
 50
55.6879503058
 51
72.3851472742
  0
CIRCLE
  8
0
 62
7
  6
CONTINUOUS
 10
187.6286241794
 20
214.5884908733
 40
110.0
  0
CIRCLE
  8
0
 62
9
  6
CONTINUOUS
 10
187.6286241794
 20
214.5884908733
 40
109.4999999976
  0
CIRCLE
  8
DEFAULT_3
 62
2
  6
PHANTOM
 10
187.6286241794
 20
214.5884908733
 40
9.0
  0
ARC
  8
DEFAULT_3
 62
2
  6
PHANTOM
 10
198.2663112488
 20
279.1869653222
 40
3.2
 50
225.0
 51
266.4096221093
  0
ARC
  8
DEFAULT_3
 62
2
  6
PHANTOM
 10
197.8655246085
 20
272.7995268631
 40
3.2
 50
45.0
 51
86.4096221093
  0
ARC
  8
DEFAULT_3
 62
2
  6
PHANTOM
 10
245.8396601692
 20
224.8253913024
 40
3.2
 50
3.5903778907
 51
45.0
  0
ARC
  8
DEFAULT_3
 62
2
  6
PHANTOM
 10
252.2270986283
 20
225.2261779427
 40
3.2
 50
183.5903778907
 51
225.0
  0
ARC
  8
DEFAULT_3
 62
2
  6
PHANTOM
 10
187.6286241794
 20
283.1778486484
 40
3.2
 50
2.2544307753
 51
177.7455692247
  0
ARC
  8
DEFAULT_3
 62
2
  6
PHANTOM
 10
194.0236705617
 20
283.4296060093
 40
3.2
 50
182.2544307753
 51
225.0
  0
ARC
  8
0
 62
7
  6
CONTINUOUS
 10
206.6286241794
 20
330.9034908733
 40
15.75
 50
108.4965501349
 51
180.0
  0
ARC
  8
DEFAULT_2
 62
8
  6
HIDDEN
 10
206.6286241794
 20
330.9034908733
 40
14.7499931553
 50
108.4965501349
 51
180.0
  0
ARC
  8
DEFAULT_2
 62
8
  6
HIDDEN
 10
188.8786241794
 20
330.4034908733
 40
2.9999664683
 50
270.0
 51
360.0
  0
CIRCLE
  8
0
 62
7
  6
CONTINUOUS
 10
187.6286241794
 20
314.5884908733
 40
2.5980762114
  0
ARC
  8
0
 62
7
  6
CONTINUOUS
 10
202.2664702867
 20
343.9432038079
 40
2.0
 50
5.0
 51
108.4965501349
  0
ARC
  8
0
 62
7
  6
CONTINUOUS
 10
188.8786241794
 20
330.4034908733
 40
2.0
 50
270.0
 51
360.0
  0
ARC
  8
DEFAULT_2
 62
8
  6
HIDDEN
 10
202.2664702867
 20
343.9432038079
 40
0.9999773615
 50
5.0
 51
108.4965501349
  0
ARC
  8
0
 62
7
  6
CONTINUOUS
 10
224.8592354483
 20
326.410048766
 40
15.75
 50
332.3076923077
 51
43.8111421728
  0
ARC
  8
0
 62
9
  6
CONTINUOUS
 10
224.8592354483
 20
326.410048766
 40
14.7499931553
 50
332.3076923077
 51
43.8111421728
  0
ARC
  8
DEFAULT_2
 62
8
  6
HIDDEN
 10
219.3786241794
 20
343.4035149774
 40
16.0000050786
 50
185.0
 51
242.3076923077
  0
ARC
  8
0
 62
9
  6
CONTINUOUS
 10
219.3787219735
 20
343.4034908733
 40
16.0000050786
 50
270.0
 51
327.3076923077
  0
ARC
  8
0
 62
7
  6
CONTINUOUS
 10
219.3787219735
 20
343.4034908733
 40
15.0
 50
270.0
 51
327.3076923077
  0
ARC
  8
0
 62
7
  6
CONTINUOUS
 10
219.3786241794
 20
343.4035149774
 40
15.0
 50
185.0
 51
242.3076923077
  0
ARC
  8
DEFAULT_2
 62
8
  6
HIDDEN
 10
242.5573583817
 20
316.5566765193
 40
2.9999664683
 50
242.3076923077
 51
332.3076923077
  0
ARC
  8
0
 62
9
  6
CONTINUOUS
 10
240.3437183176
 20
317.7184844494
 40
2.9999664683
 50
152.3076923077
 51
242.3076923077
  0
ARC
  8
0
 62
7
  6
CONTINUOUS
 10
240.3437183176
 20
317.7184844494
 40
2.0
 50
152.3076923077
 51
242.3076923077
  0
ARC
  8
0
 62
7
  6
CONTINUOUS
 10
242.5573583817
 20
316.5566765193
 40
2.0
 50
242.3076923077
 51
332.3076923077
  0
ARC
  8
0
 62
7
  6
CONTINUOUS
 10
234.7815876549
 20
335.9289471627
 40
2.0
 50
43.8111421728
 51
147.3076923077
  0
ARC
  8
0
 62
9
  6
CONTINUOUS
 10
234.7815876549
 20
335.9289471627
 40
0.9999773615
 50
43.8111421728
 51
147.3076923077
  0
ARC
  8
DEFAULT_3
 62
2
  6
PHANTOM
 10
256.4697393154
 20
220.9835372556
 40
3.2
 50
225.0
 51
267.7455692247
  0
ARC
  8
DEFAULT_3
 62
2
  6
PHANTOM
 10
256.2179819545
 20
214.5884908733
 40
3.2
 50
272.2544307753
 51
87.7455692247
  0
ARC
  8
DEFAULT_2
 62
8
  6
HIDDEN
 10
302.7498732834
 20
227.3075604045
 40
2.9999664683
 50
186.9230769231
 51
276.9230769231
  0
ARC
  8
0
 62
9
  6
CONTINUOUS
 10
302.4485315828
 20
229.7893325897
 40
2.9999664563
 50
96.9230769231
 51
186.9230769231
  0
ARC
  8
0
 62
7
  6
CONTINUOUS
 10
314.2757982401
 20
244.7115982742
 40
2.0
 50
348.4265267882
 51
91.9230769231
  0
ARC
  8
0
 62
7
  6
CONTINUOUS
 10
302.4485315828
 20
229.7893325897
 40
2.0
 50
96.9230769231
 51
186.9230769231
  0
ARC
  8
0
 62
7
  6
CONTINUOUS
 10
302.7498732834
 20
227.3075604045
 40
2.0
 50
186.9230769231
 51
276.9230769231
  0
ARC
  8
0
 62
7
  6
CONTINUOUS
 10
317.8045929918
 20
215.6493588175
 40
2.0
 50
281.9230769231
 51
25.419627058
  0
ARC
  8
DEFAULT_2
 62
8
  6
HIDDEN
 10
317.8045929918
 20
215.6493588175
 40
0.9999773614
 50
281.9230769231
 51
25.419627058
  0
ARC
  8
0
 62
9
  6
CONTINUOUS
 10
314.2757982401
 20
244.7115982742
 40
0.9999773615
 50
348.4265267882
 51
91.9230769231
  0
ARC
  8
0
 62
7
  6
CONTINUOUS
 10
300.8053599453
 20
247.4701834451
 40
15.75
 50
276.9230769231
 51
348.4265267882
  0
ARC
  8
0
 62
9
  6
CONTINUOUS
 10
300.8053599453
 20
247.4701834451
 40
14.7499931553
 50
276.9230769231
 51
348.4265267882
  0
ARC
  8
0
 62
7
  6
CONTINUOUS
 10
294.1472227287
 20
265.0262484374
 40
15.75
 50
53.1119347503
 51
124.6153846154
  0
ARC
  8
DEFAULT_2
 62
8
  6
HIDDEN
 10
294.1472227287
 20
265.0262484374
 40
14.7499931553
 50
53.1119347503
 51
124.6153846154
  0
ARC
  8
0
 62
7
  6
CONTINUOUS
 10
302.4007102435
 20
276.0236319373
 40
2.0
 50
309.6153846154
 51
53.1119347503
  0
ARC
  8
DEFAULT_2
 62
8
  6
HIDDEN
 10
302.4007102435
 20
276.0236319373
 40
0.9999773615
 50
309.6153846154
 51
53.1119347503
  0
ARC
  8
0
 62
9
  6
CONTINUOUS
 10
311.6774021266
 20
261.6339329985
 40
16.0000050882
 50
214.6153846154
 51
271.9230769231
  0
ARC
  8
DEFAULT_2
 62
8
  6
HIDDEN
 10
311.6773664105
 20
261.6340271741
 40
16.0000050801
 50
129.6153846154
 51
186.9230769231
  0
ARC
  8
0
 62
7
  6
CONTINUOUS
 10
311.6774021266
 20
261.6339329985
 40
15.0
 50
214.6153846154
 51
271.9230769231
  0
ARC
  8
0
 62
7
  6
CONTINUOUS
 10
311.6773664105
 20
261.6340271741
 40
15.0
 50
129.6153846154
 51
186.9230769231
  0
ARC
  8
0
 62
7
  6
CONTINUOUS
 10
258.5065644231
 20
308.7505682284
 40
15.75
 50
80.8042424426
 51
152.3076923077
  0
ARC
  8
DEFAULT_2
 62
8
  6
HIDDEN
 10
258.5065644231
 20
308.7505682284
 40
14.7499931553
 50
80.8042424426
 51
152.3076923077
  0
ARC
  8
0
 62
7
  6
CONTINUOUS
 10
260.7039257315
 20
322.323854613
 40
2.0
 50
337.3076923077
 51
80.8042424426
  0
ARC
  8
DEFAULT_2
 62
8
  6
HIDDEN
 10
260.7039257315
 20
322.323854613
 40
0.9999773615
 50
337.3076923077
 51
80.8042424426
  0
ARC
  8
0
 62
7
  6
CONTINUOUS
 10
272.560762353
 20
296.2996353413
 40
15.75
 50
304.6153846154
 51
16.1188344805
  0
ARC
  8
0
 62
9
  6
CONTINUOUS
 10
272.560762353
 20
296.2996353413
 40
14.7499931553
 50
304.6153846154
 51
16.1188344805
  0
ARC
  8
DEFAULT_2
 62
8
  6
HIDDEN
 10
283.6525815413
 20
279.3501796836
 40
2.9999664683
 50
214.6153846154
 51
304.6153846154
  0
ARC
  8
0
 62
9
  6
CONTINUOUS
 10
282.2324196745
 20
281.4076393484
 40
2.9999664683
 50
124.6153846154
 51
214.6153846154
  0
ARC
  8
0
 62
7
  6
CONTINUOUS
 10
282.2324196745
 20
281.4076393484
 40
2.0
 50
124.6153846154
 51
214.6153846154
  0
ARC
  8
0
 62
7
  6
CONTINUOUS
 10
283.6525815413
 20
279.3501796836
 40
2.0
 50
214.6153846154
 51
304.6153846154
  0
ARC
  8
0
 62
7
  6
CONTINUOUS
 10
285.7702215603
 20
300.1170542927
 40
2.0
 50
16.1188344805
 51
119.6153846154
  0
ARC
  8
0
 62
9
  6
CONTINUOUS
 10
285.7702215603
 20
300.1170542927
 40
0.9999773615
 50
16.1188344805
 51
119.6153846154
  0
ARC
  8
DEFAULT_2
 62
8
  6
HIDDEN
 10
275.6051796025
 20
313.8935694486
 40
16.0000050786
 50
157.3076923077
 51
214.6153846154
  0
ARC
  8
0
 62
9
  6
CONTINUOUS
 10
275.6052549931
 20
313.8935026583
 40
16.0000050786
 50
242.3076923077
 51
299.6153846154
  0
ARC
  8
0
 62
7
  6
CONTINUOUS
 10
275.6052549931
 20
313.8935026583
 40
15.0
 50
242.3076923077
 51
299.6153846154
  0
ARC
  8
0
 62
7
  6
CONTINUOUS
 10
275.6051796025
 20
313.8935694486
 40
15.0
 50
157.3076923077
 51
214.6153846154
  0
ARC
  8
DEFAULT_2
 62
8
  6
HIDDEN
 10
391.3948646061
 20
177.6886961839
 40
1.0
 50
180.000311617
 51
270.0
  0
ARC
  8
DEFAULT_2
 62
8
  6
HIDDEN
 10
391.3948646061
 20
131.7286218967
 40
1.0
 50
180.0017245174
 51
270.0
  0
ARC
  8
DEFAULT_2
 62
8
  6
HIDDEN
 10
391.3948646061
 20
105.4380088685
 40
1.0
 50
180.0030921477
 51
270.0
  0
ARC
  8
DEFAULT_2
 62
8
  6
HIDDEN
 10
391.3948646061
 20
113.1149164064
 40
1.0
 50
179.9990231868
 51
270.0
  0
ARC
  8
DEFAULT_2
 62
8
  6
HIDDEN
 10
391.3948646061
 20
155.2232880963
 40
1.0
 50
179.999639746
 51
270.0
  0
ARC
  8
DEFAULT_2
 62
8
  6
HIDDEN
 10
391.3948646061
 20
107.0584104936
 40
1.0
 50
179.998676752
 51
270.0
  0
ARC
  8
DEFAULT_2
 62
8
  6
HIDDEN
 10
391.3948646061
 20
154.0320536365
 40
1.0
 50
180.0000248336
 51
270.0
  0
ARC
  8
0
 62
7
  6
CONTINUOUS
 10
391.3948646061
 20
176.357932048
 40
1.0
 50
179.9998251502
 51
270.0
  0
ARC
  8
0
 62
7
  6
CONTINUOUS
 10
391.3948646061
 20
125.3747937064
 40
1.0
 50
179.999336986
 51
270.0
  0
ARC
  8
0
 62
7
  6
CONTINUOUS
 10
391.3948646061
 20
91.4956566689
 40
1.0
 50
179.9998604211
 51
270.0
  0
ARC
  8
0
 62
7
  6
CONTINUOUS
 10
391.3948646061
 20
84.4895249391
 40
1.0
 50
179.9969820263
 51
270.0
  0
ARC
  8
0
 62
7
  6
CONTINUOUS
 10
390.3948646061
 20
105.0884908733
 40
0.5
 50
179.9999872734
 51
270.0
  0
ARC
  8
DEFAULT_2
 62
8
  6
HIDDEN
 10
391.3948646061
 20
297.8935026583
 40
1.0
 50
90.0
 51
179.9993506449
  0
ARC
  8
DEFAULT_2
 62
8
  6
HIDDEN
 10
391.3948646061
 20
245.6339329985
 40
1.0
 50
90.0
 51
180.000243273
  0
ARC
  8
DEFAULT_2
 62
8
  6
HIDDEN
 10
391.3948646061
 20
224.3075604045
 40
1.0
 50
90.0
 51
180.0000062988
  0
ARC
  8
DEFAULT_2
 62
8
  6
HIDDEN
 10
391.3948646061
 20
276.3501796836
 40
1.0
 50
90.0
 51
179.9980294947
  0
ARC
  8
DEFAULT_2
 62
8
  6
HIDDEN
 10
391.3948646061
 20
313.5566765193
 40
1.0
 50
90.0
 51
179.9973125645
  0
ARC
  8
DEFAULT_2
 62
8
  6
HIDDEN
 10
391.3948646061
 20
224.4972462294
 40
1.0
 50
90.0
 51
180.0003266591
  0
ARC
  8
DEFAULT_2
 62
8
  6
HIDDEN
 10
391.3948646061
 20
279.7762484374
 40
1.0
 50
90.0
 51
180.00011124
  0
ARC
  8
DEFAULT_2
 62
8
  6
HIDDEN
 10
391.3948646061
 20
323.5005682284
 40
1.0
 50
90.0
 51
180.0006081718
  0
ARC
  8
DEFAULT_2
 62
8
  6
HIDDEN
 10
391.3948646061
 20
327.4034908733
 40
1.0
 50
90.0
 51
180.0
  0
ARC
  8
0
 62
7
  6
CONTINUOUS
 10
391.3948646061
 20
336.9289471627
 40
1.0
 50
90.0
 51
180.0021205923
  0
ARC
  8
0
 62
7
  6
CONTINUOUS
 10
391.3948646061
 20
301.1170542927
 40
1.0
 50
90.0
 51
180.0007686055
  0
ARC
  8
0
 62
7
  6
CONTINUOUS
 10
391.3948646061
 20
245.7115982742
 40
1.0
 50
90.0
 51
179.9999969729
  0
ARC
  8
0
 62
7
  6
CONTINUOUS
 10
391.3948646061
 20
344.9432038079
 40
1.0
 50
90.0
 51
180.0007298945
  0
ARC
  8
0
 62
7
  6
CONTINUOUS
 10
390.3948646061
 20
324.0884908733
 40
0.5
 50
90.0
 51
180.0000127266
  0
ARC
  8
DEFAULT_2
 62
8
  6
HIDDEN
 10
421.3948646061
 20
177.6886961839
 40
1.0
 50
270.0
 51
359.999688383
  0
ARC
  8
DEFAULT_2
 62
8
  6
HIDDEN
 10
421.3948646061
 20
131.7286218967
 40
1.0
 50
270.0
 51
359.9982754826
  0
ARC
  8
DEFAULT_2
 62
8
  6
HIDDEN
 10
421.3948646061
 20
105.4380088685
 40
1.0
 50
270.0
 51
359.9969078523
  0
ARC
  8
DEFAULT_2
 62
8
  6
HIDDEN
 10
421.3948646061
 20
113.1149164064
 40
1.0
 50
270.0
 51
0.0009768132
  0
ARC
  8
DEFAULT_2
 62
8
  6
HIDDEN
 10
421.3948646061
 20
155.2232880963
 40
1.0
 50
270.0
 51
0.000360254
  0
ARC
  8
DEFAULT_2
 62
8
  6
HIDDEN
 10
421.3948646061
 20
176.357932048
 40
1.0
 50
270.0
 51
0.0001748497
  0
ARC
  8
DEFAULT_2
 62
8
  6
HIDDEN
 10
421.3948646061
 20
125.3747937064
 40
1.0
 50
270.0
 51
0.000663014
  0
ARC
  8
DEFAULT_2
 62
8
  6
HIDDEN
 10
421.3948646061
 20
91.4956566689
 40
1.0
 50
270.0
 51
0.0001395789
  0
ARC
  8
0
 62
7
  6
CONTINUOUS
 10
421.3948646061
 20
84.4895249391
 40
1.0
 50
270.0
 51
0.0030179737
  0
ARC
  8
0
 62
7
  6
CONTINUOUS
 10
421.3948646061
 20
107.0584104936
 40
1.0
 50
270.0
 51
0.001323248
  0
ARC
  8
0
 62
7
  6
CONTINUOUS
 10
421.3948646061
 20
154.0320536365
 40
1.0
 50
270.0
 51
359.9999751664
  0
ARC
  8
0
 62
7
  6
CONTINUOUS
 10
422.3948646061
 20
105.0884908733
 40
0.5
 50
270.0
 51
0.0000127266
  0
ARC
  8
DEFAULT_2
 62
8
  6
HIDDEN
 10
421.3948646061
 20
297.8935026583
 40
1.0
 50
0.0006493551
 51
90.0
  0
ARC
  8
DEFAULT_2
 62
8
  6
HIDDEN
 10
421.3948646061
 20
245.6339329985
 40
1.0
 50
359.999756727
 51
90.0
  0
ARC
  8
DEFAULT_2
 62
8
  6
HIDDEN
 10
421.3948646061
 20
224.3075604045
 40
1.0
 50
359.9999937012
 51
90.0
  0
ARC
  8
DEFAULT_2
 62
8
  6
HIDDEN
 10
421.3948646061
 20
276.3501796836
 40
1.0
 50
0.0019705053
 51
90.0
  0
ARC
  8
DEFAULT_2
 62
8
  6
HIDDEN
 10
421.3948646061
 20
313.5566765193
 40
1.0
 50
0.0026874355
 51
90.0
  0
ARC
  8
DEFAULT_2
 62
8
  6
HIDDEN
 10
421.3948646061
 20
336.9289471627
 40
1.0
 50
359.9978794077
 51
90.0
  0
ARC
  8
DEFAULT_2
 62
8
  6
HIDDEN
 10
421.3948646061
 20
301.1170542927
 40
1.0
 50
359.9992313945
 51
90.0
  0
ARC
  8
DEFAULT_2
 62
8
  6
HIDDEN
 10
421.3948646061
 20
245.7115982742
 40
1.0
 50
0.0000030271
 51
90.0
  0
ARC
  8
DEFAULT_2
 62
8
  6
HIDDEN
 10
421.3948646061
 20
327.4034908733
 40
1.0
 50
0.0
 51
90.0
  0
ARC
  8
0
 62
7
  6
CONTINUOUS
 10
421.3948646061
 20
224.4972462294
 40
1.0
 50
359.9996733409
 51
90.0
  0
ARC
  8
0
 62
7
  6
CONTINUOUS
 10
421.3948646061
 20
279.7762484374
 40
1.0
 50
359.99988876
 51
90.0
  0
ARC
  8
0
 62
7
  6
CONTINUOUS
 10
421.3948646061
 20
323.5005682284
 40
1.0
 50
359.9993918282
 51
90.0
  0
ARC
  8
0
 62
7
  6
CONTINUOUS
 10
421.3948646061
 20
344.9432038079
 40
1.0
 50
359.9992701055
 51
90.0
  0
ARC
  8
0
 62
7
  6
CONTINUOUS
 10
422.3948646061
 20
324.0884908733
 40
0.5
 50
359.9999872734
 51
90.0
  0
ENDSEC
  0
EOF
